999
DXF file: NJ2_assy_2.dxf
999
Pro/ENGINEER 2014200 by Parametric Technology Corporation
  0
SECTION
  2
HEADER
  9
$ACADVER
  1
AC1021
  9
$DWGCODEPAGE
  3
ANSI_1252
  9
$EXTMAX
 10
22.0
 20
17.0
 30
0.0
  9
$EXTMIN
 10
0.0
 20
0.0
 30
0.0
  9
$LIMMIN
 10
0.0
 20
0.0
  9
$LIMMAX
 10
22.0
 20
17.0
  9
$VIEWCTR
 10
11.0
 20
8.5
  9
$VIEWSIZE
 40
17.0
  9
$CLAYER
  8
0
  9
$LTSCALE
 40
1.21
  9
$CELTYPE
  6
BYLAYER
  9
$DIMSCALE
 40
1.0
  9
$DIMASZ
 40
0.1875
  9
$DIMEXO
 40
0.0625
  9
$DIMDLI
 40
0.836
  9
$DIMEXE
 40
0.125
  9
$DIMCEN
 40
0.198
  9
$DIMLFAC
 40
1.0
  9
$DIMBLK
  1
_FILLED
  9
$DIMTXT
 40
0.1
  9
$DIMTOL
 70
0
  9
$DIMLIM
 70
0
  9
$DIMTFAC
 40
1.0
  9
$DIMGAP
 40
0.09
  9
$DIMDSEP
 70
46
  9
$AUNITS
 70
0
  9
$PDMODE
 70
3
  9
$PDSIZE
 40
0.3125
  9
$HANDSEED
  5
400
  9
$TILEMODE
 70
1
  9
$MEASUREMENT
 70
0
  9
$INSUNITS
 70
1
  0
ENDSEC
  0
SECTION
  2
CLASSES
  0
CLASS
  1
ACDBDICTIONARYWDFLT
  2
AcDbDictionaryWithDefault
  3
AutoCAD 2000
 90
0
 91
1
280
0
281
0
  0
CLASS
  1
ACDBPLACEHOLDER
  2
AcDbPlaceHolder
  3
AutoCAD 2000
 90
0
 91
1
280
0
281
0
  0
CLASS
  1
LAYOUT
  2
AcDbLayout
  3
AutoCAD 2000
 90
0
 91
0
280
0
281
0
  0
CLASS
  1
RASTERVARIABLES
  2
AcDbRasterVariables
  3
ISM
 90
0
 91
1
280
0
281
0
  0
CLASS
  1
IMAGEDEF
  2
AcDbRasterImageDef
  3
ISM
 90
0
 91
1
280
0
281
0
  0
CLASS
  1
IMAGEDEF_REACTOR
  2
AcDbRasterImageDefReactor
  3
ISM
 90
0
 91
1
280
0
281
0
  0
CLASS
  1
IMAGE
  2
AcDbRasterImage
  3
ISM
 90
127
 91
1
280
0
281
1
  0
CLASS
  1
TABLESTYLE
  2
AcDbTableStyle
  3
ObjectDBX Classes
 90
2047
 91
1
280
0
281
0
  0
CLASS
  1
ACAD_TABLE
  2
AcDbTable
  3
ObjectDBX Classes
 90
1025
 91
3
280
0
281
1
  0
ENDSEC
  0
SECTION
  2
TABLES
  0
TABLE
  2
VPORT
  5
8
100
AcDbSymbolTable
 70
2
  0
VPORT
  5
1F4
100
AcDbSymbolTableRecord
100
AcDbViewportTableRecord
  2
*ACTIVE
 70
0
 10
0.0
 20
0.0
 11
1.0
 21
1.0
 12
11.0
 22
8.5
 13
0.0
 23
0.0
 14
1.0
 24
1.0
 15
0.0
 25
0.0
 16
0.0
 26
0.0
 36
1.0
 17
0.0
 27
0.0
 37
0.0
 40
17.0
 41
1.2941176471
 42
50.0
 43
0.0
 44
0.0
 50
0.0
 51
0.0
 71
0
 72
100
 73
1
 74
1
 75
0
 76
0
 77
0
 78
0
  0
ENDTAB
  0
TABLE
  2
LTYPE
  5
5
100
AcDbSymbolTable
 70
6
  0
LTYPE
  5
14
100
AcDbSymbolTableRecord
100
AcDbLinetypeTableRecord
  2
BYBLOCK
 70
0
  3

 72
65
 73
0
 40
0.0
  0
LTYPE
  5
15
100
AcDbSymbolTableRecord
100
AcDbLinetypeTableRecord
  2
BYLAYER
 70
0
  3

 72
65
 73
0
 40
0.0
  0
LTYPE
  5
16
100
AcDbSymbolTableRecord
100
AcDbLinetypeTableRecord
  2
CONTINUOUS
 70
64
  3
Solid line
 72
65
 73
0
 40
0.0
  0
LTYPE
  5
1F5
100
AcDbSymbolTableRecord
100
AcDbLinetypeTableRecord
  2
CENTER
 70
64
  3
____ _ ____ _ ____ _ ____ _ ____ _ ____ _ ____
 72
65
 73
4
 40
0.6
 49
0.375
 74
0
 49
-0.075
 74
0
 49
0.075
 74
0
 49
-0.075
 74
0
  0
LTYPE
  5
1F6
100
AcDbSymbolTableRecord
100
AcDbLinetypeTableRecord
  2
HIDDEN
 70
64
  3
- - - - - - - - - - - - - - - - - - - -
 72
65
 73
2
 40
0.2
 49
0.1
 74
0
 49
-0.1
 74
0
  0
LTYPE
  5
1F7
100
AcDbSymbolTableRecord
100
AcDbLinetypeTableRecord
  2
PHANTOM
 70
64
  3
_____ _ _ _____ _ _ _____ _ _ _____
 72
65
 73
6
 40
0.8
 49
0.45
 74
0
 49
-0.05
 74
0
 49
0.1
 74
0
 49
-0.05
 74
0
 49
0.1
 74
0
 49
-0.05
 74
0
  0
LTYPE
  5
1F8
100
AcDbSymbolTableRecord
100
AcDbLinetypeTableRecord
  2
DOT
 70
64
  3
. . . . . . . . . . . . . . . . . . . .
 72
65
 73
2
 40
0.2
 49
0.1
 74
0
 49
-0.1
 74
0
  0
LTYPE
  5
1F9
100
AcDbSymbolTableRecord
100
AcDbLinetypeTableRecord
  2
DASHED
 70
64
  3
- - - - - - - - - - - - - - - - - - - -
 72
65
 73
2
 40
0.2
 49
0.1
 74
0
 49
-0.1
 74
0
  0
ENDTAB
  0
TABLE
  2
LAYER
  5
2
100
AcDbSymbolTable
 70
36
  0
LAYER
  5
10
100
AcDbSymbolTableRecord
100
AcDbLayerTableRecord
  2
0
 70
0
 62
7
  6
CONTINUOUS
370
-3
390
F
  0
LAYER
  5
1FA
100
AcDbSymbolTableRecord
100
AcDbLayerTableRecord
  2
DEFAULT_1
 70
0
 62
7
  6
CENTER
370
-3
390
F
  0
LAYER
  5
1FB
100
AcDbSymbolTableRecord
100
AcDbLayerTableRecord
  2
DEFAULT_2
 70
0
 62
8
  6
HIDDEN
370
-3
390
F
  0
LAYER
  5
1FC
100
AcDbSymbolTableRecord
100
AcDbLayerTableRecord
  2
DEFAULT_3
 70
0
 62
7
  6
PHANTOM
370
-3
390
F
  0
LAYER
  5
1FD
100
AcDbSymbolTableRecord
100
AcDbLayerTableRecord
  2
01___PRT_ALL_DTM_PLN
 70
0
 62
7
  6
CONTINUOUS
370
-3
390
F
  0
LAYER
  5
1FE
100
AcDbSymbolTableRecord
100
AcDbLayerTableRecord
  2
01___PRT_DEF_DTM_PLN
 70
0
 62
7
  6
CONTINUOUS
370
-3
390
F
  0
LAYER
  5
1FF
100
AcDbSymbolTableRecord
100
AcDbLayerTableRecord
  2
02___PRT_ALL_AXES
 70
0
 62
7
  6
CONTINUOUS
370
-3
390
F
  0
LAYER
  5
200
100
AcDbSymbolTableRecord
100
AcDbLayerTableRecord
  2
03___PRT_ALL_CURVES
 70
0
 62
7
  6
CONTINUOUS
370
-3
390
F
  0
LAYER
  5
201
100
AcDbSymbolTableRecord
100
AcDbLayerTableRecord
  2
04___PRT_ALL_DTM_PNT
 70
0
 62
7
  6
CONTINUOUS
370
-3
390
F
  0
LAYER
  5
202
100
AcDbSymbolTableRecord
100
AcDbLayerTableRecord
  2
05___PRT_ALL_DTM_CSYS
 70
0
 62
7
  6
CONTINUOUS
370
-3
390
F
  0
LAYER
  5
203
100
AcDbSymbolTableRecord
100
AcDbLayerTableRecord
  2
05___PRT_DEF_DTM_CSYS
 70
0
 62
7
  6
CONTINUOUS
370
-3
390
F
  0
LAYER
  5
204
100
AcDbSymbolTableRecord
100
AcDbLayerTableRecord
  2
06___PRT_ALL_SURFS
 70
0
 62
7
  6
CONTINUOUS
370
-3
390
F
  0
LAYER
  5
205
100
AcDbSymbolTableRecord
100
AcDbLayerTableRecord
  2
DATUM_PLANES
 70
0
 62
7
  6
CONTINUOUS
370
-3
390
F
  0
LAYER
  5
206
100
AcDbSymbolTableRecord
100
AcDbLayerTableRecord
  2
PORT_AREAS
 70
0
 62
7
  6
CONTINUOUS
370
-3
390
F
  0
LAYER
  5
207
100
AcDbSymbolTableRecord
100
AcDbLayerTableRecord
  2
SUNNBOMCOSMETIC
 70
0
 62
7
  6
CONTINUOUS
370
-3
390
F
  0
LAYER
  5
208
100
AcDbSymbolTableRecord
100
AcDbLayerTableRecord
  2
SUNNBOMSTAMPING
 70
0
 62
7
  6
CONTINUOUS
370
-3
390
F
  0
LAYER
  5
209
100
AcDbSymbolTableRecord
100
AcDbLayerTableRecord
  2
THREADS
 70
0
 62
7
  6
CONTINUOUS
370
-3
390
F
  0
ENDTAB
  0
TABLE
  2
STYLE
  5
3
100
AcDbSymbolTable
 70
1
  0
STYLE
  5
11
100
AcDbSymbolTableRecord
100
AcDbTextStyleTableRecord
  2
STANDARD
 70
0
 40
0.0
 41
0.8
 50
0.0
 71
0
 42
0.2
  3
txt
  4

  0
STYLE
  5
20A
100
AcDbSymbolTableRecord
100
AcDbTextStyleTableRecord
  2
TEXTSTYLE_1
 70
0
 40
0.0
 41
0.8
 50
0.0
 71
0
 42
0.2
  3
gdt
  4

  0
ENDTAB
  0
TABLE
  2
VIEW
  5
6
100
AcDbSymbolTable
 70
0
  0
ENDTAB
  0
TABLE
  2
UCS
  5
7
100
AcDbSymbolTable
 70
0
  0
ENDTAB
  0
TABLE
  2
APPID
  5
9
100
AcDbSymbolTable
 70
1
  0
APPID
  5
20B
100
AcDbSymbolTableRecord
100
AcDbRegAppTableRecord
  2
ACAD
 70
0
  0
ENDTAB
  0
TABLE
  2
BLOCK_RECORD
  5
1
100
AcDbSymbolTable
 70
0
  0
BLOCK_RECORD
  5
20C
100
AcDbSymbolTableRecord
100
AcDbBlockTableRecord
  2
*Model_Space
  0
BLOCK_RECORD
  5
20D
100
AcDbSymbolTableRecord
100
AcDbBlockTableRecord
  2
*Paper_Space
  0
BLOCK_RECORD
  5
20E
100
AcDbSymbolTableRecord
100
AcDbBlockTableRecord
  2
SUN_FIRST_THIRD_ANGLE_BL0
  0
BLOCK_RECORD
  5
20F
100
AcDbSymbolTableRecord
100
AcDbBlockTableRecord
  2
*T1
  0
BLOCK_RECORD
  5
210
100
AcDbSymbolTableRecord
100
AcDbBlockTableRecord
  2
*T2
  0
BLOCK_RECORD
  5
211
100
AcDbSymbolTableRecord
100
AcDbBlockTableRecord
  2
*T3
  0
ENDTAB
  0
TABLE
  2
DIMSTYLE
  5
A
100
AcDbSymbolTable
 70
1
100
AcDbDimStyleTable
 71
0
  0
DIMSTYLE
105
212
100
AcDbSymbolTableRecord
100
AcDbDimStyleTableRecord
  2
STANDARD
 70
0
  3

  4

 40
1.0
 41
0.1875
 42
0.0625
 43
0.38
 44
0.125
 45
0.0
 46
0.0
 47
0.001
 48
0.001
140
0.1
141
0.09
142
0.0
143
25.4
144
1.0
145
0.0
146
1.0
147
0.09
 71
0.0
 72
0.0
 73
1
 74
1
 75
0
 76
0
 77
0
 78
4
170
0
171
2
172
0
173
0
174
0
175
0
176
0
177
0
178
0
270
2
271
3
272
3
273
2
274
2
275
0
280
0
281
0
282
0
283
1
284
4
285
0
286
0
287
3
288
0
340
11
278
46
  0
ENDTAB
  0
ENDSEC
  0
SECTION
  2
BLOCKS
  0
BLOCK
  5
20
100
AcDbEntity
  8
0
100
AcDbBlockBegin
  2
*Model_Space
 70
0
 10
0.0
 20
0.0
 30
0.0
  3
*Model_Space
  1

  0
ENDBLK
  5
21
100
AcDbEntity
  8
0
100
AcDbBlockEnd
  0
BLOCK
  5
1C
100
AcDbEntity
  8
0
100
AcDbBlockBegin
  2
*Paper_Space
 70
0
 10
0.0
 20
0.0
 30
0.0
  3
*Paper_Space
  1

  0
ENDBLK
  5
1D
100
AcDbEntity
  8
0
100
AcDbBlockEnd
  0
BLOCK
  5
213
100
AcDbEntity
  8
0
100
AcDbBlockBegin
 62
2
  6
CONTINUOUS
  2
SUN_FIRST_THIRD_ANGLE_BL0
 70
64
 10
20.4816717061
 20
1.2289683772
  3
SUN_FIRST_THIRD_ANGLE_BL0
  1

  0
TEXT
  5
214
100
AcDbEntity
  8
0
100
AcDbText
 62
2
  6
CONTINUOUS
 10
19.4750896608
 20
1.4136269581
  7
STANDARD
 40
0.08
  1
FIRST ANGLE
 41
0.8
 72
0
100
AcDbText
  0
TEXT
  5
215
100
AcDbEntity
  8
0
100
AcDbText
 62
2
  6
CONTINUOUS
 10
20.7842537513
 20
1.4047600029
  7
STANDARD
 40
0.08
  1
THIRD ANGLE
 41
0.8
 72
0
100
AcDbText
  0
LINE
  5
216
100
AcDbEntity
  8
0
100
AcDbLine
 62
7
  6
CONTINUOUS
 10
19.4767170086
 20
1.1727031207
 11
19.6334271527
 21
1.1717972817
  0
LINE
  5
217
100
AcDbEntity
  8
0
100
AcDbLine
 62
7
  6
CONTINUOUS
 10
19.6596964832
 20
1.1717972817
 11
19.6950230232
 21
1.171593082
  0
LINE
  5
218
100
AcDbEntity
  8
0
100
AcDbLine
 62
7
  6
CONTINUOUS
 10
19.7194818561
 20
1.1708914427
 11
19.8852396156
 21
1.1699333054
  0
LINE
  5
219
100
AcDbEntity
  8
0
100
AcDbLine
 62
7
  6
CONTINUOUS
 10
19.4758111696
 20
1.2723454088
 11
19.88525039
 21
1.3511534004
  0
LINE
  5
21A
100
AcDbEntity
  8
0
100
AcDbLine
 62
7
  6
CONTINUOUS
 10
19.88525039
 20
1.3511534004
 11
19.8831348489
 21
0.9851647912
  0
LINE
  5
21B
100
AcDbEntity
  8
0
100
AcDbLine
 62
7
  6
CONTINUOUS
 10
19.8831348489
 20
0.9851647912
 11
19.4767170086
 21
1.0658141206
  0
LINE
  5
21C
100
AcDbEntity
  8
0
100
AcDbLine
 62
7
  6
CONTINUOUS
 10
19.4767170086
 20
1.0658141206
 11
19.4779056764
 21
1.2714536432
  0
CIRCLE
  5
21D
100
AcDbEntity
  8
0
100
AcDbCircle
 62
7
  6
CONTINUOUS
 10
20.2068232291
 20
1.1717972817
 40
0.175742101
  0
CIRCLE
  5
21E
100
AcDbEntity
  8
0
100
AcDbCircle
 62
7
  6
CONTINUOUS
 10
20.2068232291
 20
1.1717972817
 40
0.1005522074
  0
LINE
  5
21F
100
AcDbEntity
  8
0
100
AcDbLine
 62
7
  6
CONTINUOUS
 10
20.2077290681
 20
1.3756110529
 11
20.2071171714
 21
1.2379342989
  0
LINE
  5
220
100
AcDbEntity
  8
0
100
AcDbLine
 62
7
  6
CONTINUOUS
 10
20.2077290681
 20
1.2016899681
 11
20.2074674401
 21
1.1428236749
  0
LINE
  5
221
100
AcDbEntity
  8
0
100
AcDbLine
 62
7
  6
CONTINUOUS
 10
20.208634907
 20
1.101141841
 11
20.2080230104
 21
0.963465087
  0
LINE
  5
222
100
AcDbEntity
  8
0
100
AcDbLine
 62
7
  6
CONTINUOUS
 10
20.0066328138
 20
1.1745147986
 11
20.1443095678
 21
1.1739029019
  0
LINE
  5
223
100
AcDbEntity
  8
0
100
AcDbLine
 62
7
  6
CONTINUOUS
 10
20.1832714155
 20
1.1727031207
 11
20.238153505
 21
1.172335442
  0
LINE
  5
224
100
AcDbEntity
  8
0
100
AcDbLine
 62
7
  6
CONTINUOUS
 10
20.2756669918
 20
1.1717972817
 11
20.407916871
 21
1.1712095044
  0
CIRCLE
  5
225
100
AcDbEntity
  8
0
100
AcDbCircle
 62
7
  6
CONTINUOUS
 10
20.7509457401
 20
1.1693297793
 40
0.1722024983
  0
CIRCLE
  5
226
100
AcDbEntity
  8
0
100
AcDbCircle
 62
7
  6
CONTINUOUS
 10
20.7509457401
 20
1.1693297793
 40
0.0985164967
  0
LINE
  5
227
100
AcDbEntity
  8
0
100
AcDbLine
 62
7
  6
CONTINUOUS
 10
20.7169767782
 20
1.170462078
 11
20.7825395137
 21
1.1682766535
  0
LINE
  5
228
100
AcDbEntity
  8
0
100
AcDbLine
 62
7
  6
CONTINUOUS
 10
20.8177513651
 20
1.1693297793
 11
20.947965719
 21
1.1693297793
  0
LINE
  5
229
100
AcDbEntity
  8
0
100
AcDbLine
 62
7
  6
CONTINUOUS
 10
20.6875370113
 20
1.170462078
 11
20.5573226574
 21
1.170462078
  0
LINE
  5
22A
100
AcDbEntity
  8
0
100
AcDbLine
 62
7
  6
CONTINUOUS
 10
20.7486811426
 20
1.1987695462
 11
20.7486811426
 21
1.1432869085
  0
LINE
  5
22B
100
AcDbEntity
  8
0
100
AcDbLine
 62
7
  6
CONTINUOUS
 10
20.7498134414
 20
1.1059210505
 11
20.7498134414
 21
0.9757066966
  0
LINE
  5
22C
100
AcDbEntity
  8
0
100
AcDbLine
 62
7
  6
CONTINUOUS
 10
20.7486811426
 20
1.2338708068
 11
20.7486811426
 21
1.3640851607
  0
LINE
  5
22D
100
AcDbEntity
  8
0
100
AcDbLine
 62
7
  6
CONTINUOUS
 10
21.0702539817
 20
1.2701043662
 11
21.4790138229
 21
1.3448360823
  0
LINE
  5
22E
100
AcDbEntity
  8
0
100
AcDbLine
 62
7
  6
CONTINUOUS
 10
21.4790138229
 20
1.3448360823
 11
21.4790138229
 21
0.9779712941
  0
LINE
  5
22F
100
AcDbEntity
  8
0
100
AcDbLine
 62
7
  6
CONTINUOUS
 10
21.4790138229
 20
0.9779712941
 11
21.069121683
 21
1.0617614
  0
LINE
  5
230
100
AcDbEntity
  8
0
100
AcDbLine
 62
7
  6
CONTINUOUS
 10
21.0702539817
 20
1.2701043662
 11
21.069121683
 21
1.0617614
  0
LINE
  5
231
100
AcDbEntity
  8
0
100
AcDbLine
 62
7
  6
CONTINUOUS
 10
21.4790138229
 20
1.1693297793
 11
21.3159628059
 21
1.1693297793
  0
LINE
  5
232
100
AcDbEntity
  8
0
100
AcDbLine
 62
7
  6
CONTINUOUS
 10
21.2876553377
 20
1.1693297793
 11
21.2502894796
 21
1.1693297793
  0
LINE
  5
233
100
AcDbEntity
  8
0
100
AcDbLine
 62
7
  6
CONTINUOUS
 10
21.2208497126
 20
1.1659328831
 11
21.0713862804
 21
1.1659328831
  0
LINE
  5
234
100
AcDbEntity
  8
0
100
AcDbLine
 62
7
  6
CONTINUOUS
 10
20.4796138713
 20
1.5284908897
 11
20.4766766948
 21
0.9294458646
  0
ENDBLK
  5
235
100
AcDbEntity
  8
0
  6
BYBLOCK
 62
0
100
AcDbBlockEnd
  0
BLOCK
  5
236
100
AcDbEntity
  8
0
100
AcDbBlockBegin
  2
*T1
 70
1
 10
0.0
 20
0.0
  3
*T1
  1

  0
LINE
  5
237
100
AcDbEntity
  8
0
100
AcDbLine
 62
2
  6
CONTINUOUS
 10
9.275
 20
0.0
 11
-0.0
 21
0.0
  0
LINE
  5
238
100
AcDbEntity
  8
0
100
AcDbLine
 62
2
  6
CONTINUOUS
 10
9.275
 20
0.0
 11
9.275
 21
1.25
  0
LINE
  5
239
100
AcDbEntity
  8
0
100
AcDbLine
 62
2
  6
CONTINUOUS
 10
9.275
 20
0.625
 11
-0.0
 21
0.625
  0
LINE
  5
23A
100
AcDbEntity
  8
0
100
AcDbLine
 62
2
  6
CONTINUOUS
 10
9.275
 20
1.25
 11
-0.0
 21
1.25
  0
LINE
  5
23B
100
AcDbEntity
  8
0
100
AcDbLine
 62
2
  6
CONTINUOUS
 10
6.8
 20
0.0
 11
6.8
 21
1.25
  0
LINE
  5
23C
100
AcDbEntity
  8
0
100
AcDbLine
 62
2
  6
CONTINUOUS
 10
6.4
 20
0.0
 11
6.4
 21
0.625
  0
LINE
  5
23D
100
AcDbEntity
  8
0
100
AcDbLine
 62
2
  6
CONTINUOUS
 10
5.9
 20
0.0
 11
5.9
 21
0.625
  0
LINE
  5
23E
100
AcDbEntity
  8
0
100
AcDbLine
 62
2
  6
CONTINUOUS
 10
5.2
 20
0.0
 11
5.2
 21
0.625
  0
LINE
  5
23F
100
AcDbEntity
  8
0
100
AcDbLine
 62
2
  6
CONTINUOUS
 10
4.1
 20
0.0
 11
4.1
 21
1.25
  0
LINE
  5
240
100
AcDbEntity
  8
0
100
AcDbLine
 62
2
  6
CONTINUOUS
 10
-0.0
 20
0.0
 11
-0.0
 21
1.25
  0
MTEXT
  5
241
100
AcDbEntity
  8
0
100
AcDbMText
 62
2
  6
CONTINUOUS
  7
STANDARD
 71
2
 72
1
 10
6.6
 20
0.325
 30
0.0
 11
1.0
 21
0.0
 31
0.0
 44
0.9
  1
2
 40
0.125
 41
0.2
  0
MTEXT
  5
242
100
AcDbEntity
  8
0
100
AcDbMText
 62
2
  6
CONTINUOUS
  7
STANDARD
 71
2
 72
1
 10
6.15
 20
0.325
 30
0.0
 11
1.0
 21
0.0
 31
0.0
 44
0.9
  1
C
 40
0.125
 41
0.2
  0
MTEXT
  5
243
100
AcDbEntity
  8
0
100
AcDbMText
 62
2
  6
CONTINUOUS
  7
STANDARD
 71
2
 72
1
 10
5.55
 20
0.325
 30
0.0
 11
1.0
 21
0.0
 31
0.0
 44
0.9
  1
1.000
 40
0.125
 41
1.0
  0
MTEXT
  5
244
100
AcDbEntity
  8
0
100
AcDbMText
 62
2
  6
CONTINUOUS
  7
STANDARD
 71
2
 72
1
 10
4.65
 20
0.325
 30
0.0
 11
1.0
 21
0.0
 31
0.0
 44
0.9
  1
Sep-01-22
 40
0.125
 41
1.8
  0
MTEXT
  5
245
100
AcDbEntity
  8
0
100
AcDbMText
 62
2
  6
CONTINUOUS
  7
STANDARD
 71
2
 72
1
 10
2.05
 20
0.4625
 30
0.0
 11
1.0
 21
0.0
 31
0.0
 44
0.9
  1
T-22A Sandwich ISO 05 - X&Y\P(See Notes for Body Features)
 40
0.125
 41
5.8
  0
MTEXT
  5
246
100
AcDbEntity
  8
0
100
AcDbMText
 62
2
  6
CONTINUOUS
  7
STANDARD
 71
1
 72
1
 10
6.45
 20
0.5625
 30
0.0
 11
1.0
 21
0.0
 31
0.0
 44
0.9
  1
SHEET
 40
0.06
 41
0.48
  0
MTEXT
  5
247
100
AcDbEntity
  8
0
100
AcDbMText
 62
2
  6
CONTINUOUS
  7
STANDARD
 71
1
 72
1
 10
5.95
 20
0.5625
 30
0.0
 11
1.0
 21
0.0
 31
0.0
 44
0.9
  1
DWG SIZE
 40
0.06
 41
0.768
  0
MTEXT
  5
248
100
AcDbEntity
  8
0
100
AcDbMText
 62
2
  6
CONTINUOUS
  7
STANDARD
 71
1
 72
1
 10
5.25
 20
0.5625
 30
0.0
 11
1.0
 21
0.0
 31
0.0
 44
0.9
  1
SCALE
 40
0.06
 41
0.48
  0
MTEXT
  5
249
100
AcDbEntity
  8
0
100
AcDbMText
 62
2
  6
CONTINUOUS
  7
STANDARD
 71
1
 72
1
 10
4.15
 20
0.5625
 30
0.0
 11
1.0
 21
0.0
 31
0.0
 44
0.9
  1
DATE
 40
0.06
 41
0.384
  0
MTEXT
  5
24A
100
AcDbEntity
  8
0
100
AcDbMText
 62
2
  6
CONTINUOUS
  7
STANDARD
 71
1
 72
1
 10
0.05
 20
0.5625
 30
0.0
 11
1.0
 21
0.0
 31
0.0
 44
0.9
  1
DESCRIPTION
 40
0.06
 41
1.056
  0
MTEXT
  5
24B
100
AcDbEntity
  8
0
100
AcDbMText
 62
2
  6
CONTINUOUS
  7
STANDARD
 71
2
 72
1
 10
5.45
 20
1.0375
 30
0.0
 11
1.0
 21
0.0
 31
0.0
 44
0.9
  1
ALL DIMENSIONS IN INCH\PVIEWS ARE THIRD ANGLE
 40
0.12
 41
4.224
  0
MTEXT
  5
24C
100
AcDbEntity
  8
0
100
AcDbMText
 62
2
  6
CONTINUOUS
  7
STANDARD
 71
2
 72
1
 10
2.05
 20
0.95
 30
0.0
 11
1.0
 21
0.0
 31
0.0
 44
0.9
  1
NJ2
 40
0.125
 41
0.6
  0
MTEXT
  5
24D
100
AcDbEntity
  8
0
100
AcDbMText
 62
2
  6
CONTINUOUS
  7
STANDARD
 71
1
 72
1
 10
0.05
 20
1.1875
 30
0.0
 11
1.0
 21
0.0
 31
0.0
 44
0.9
  1
MODEL
 40
0.06
 41
0.48
  0
ENDBLK
  5
24E
100
AcDbEntity
  8
0
  6
BYBLOCK
 62
0
100
AcDbBlockEnd
  0
BLOCK
  5
24F
100
AcDbEntity
  8
0
100
AcDbBlockBegin
  2
*T2
 70
1
 10
0.0
 20
0.0
  3
*T2
  1

  0
LINE
  5
250
100
AcDbEntity
  8
0
100
AcDbLine
 62
2
  6
CONTINUOUS
 10
0.0
 20
0.0
 11
9.055
 21
0.0
  0
LINE
  5
251
100
AcDbEntity
  8
0
100
AcDbLine
 62
2
  6
CONTINUOUS
 10
0.0
 20
0.0
 11
0.0
 21
-2.594
  0
LINE
  5
252
100
AcDbEntity
  8
0
100
AcDbLine
 62
2
  6
CONTINUOUS
 10
0.0
 20
-0.344
 11
9.055
 21
-0.344
  0
LINE
  5
253
100
AcDbEntity
  8
0
100
AcDbLine
 62
2
  6
CONTINUOUS
 10
0.0
 20
-0.594
 11
9.055
 21
-0.594
  0
LINE
  5
254
100
AcDbEntity
  8
0
100
AcDbLine
 62
2
  6
CONTINUOUS
 10
0.0
 20
-0.844
 11
9.055
 21
-0.844
  0
LINE
  5
255
100
AcDbEntity
  8
0
100
AcDbLine
 62
2
  6
CONTINUOUS
 10
0.0
 20
-1.094
 11
9.055
 21
-1.094
  0
LINE
  5
256
100
AcDbEntity
  8
0
100
AcDbLine
 62
2
  6
CONTINUOUS
 10
0.0
 20
-1.344
 11
9.055
 21
-1.344
  0
LINE
  5
257
100
AcDbEntity
  8
0
100
AcDbLine
 62
2
  6
CONTINUOUS
 10
0.0
 20
-1.594
 11
9.055
 21
-1.594
  0
LINE
  5
258
100
AcDbEntity
  8
0
100
AcDbLine
 62
2
  6
CONTINUOUS
 10
0.0
 20
-1.844
 11
9.055
 21
-1.844
  0
LINE
  5
259
100
AcDbEntity
  8
0
100
AcDbLine
 62
2
  6
CONTINUOUS
 10
0.0
 20
-2.094
 11
9.055
 21
-2.094
  0
LINE
  5
25A
100
AcDbEntity
  8
0
100
AcDbLine
 62
2
  6
CONTINUOUS
 10
0.0
 20
-2.344
 11
9.055
 21
-2.344
  0
LINE
  5
25B
100
AcDbEntity
  8
0
100
AcDbLine
 62
2
  6
CONTINUOUS
 10
0.0
 20
-2.594
 11
9.055
 21
-2.594
  0
LINE
  5
25C
100
AcDbEntity
  8
0
100
AcDbLine
 62
2
  6
CONTINUOUS
 10
3.055
 20
0.0
 11
3.055
 21
-2.594
  0
LINE
  5
25D
100
AcDbEntity
  8
0
100
AcDbLine
 62
2
  6
CONTINUOUS
 10
9.055
 20
0.0
 11
9.055
 21
-2.594
  0
MTEXT
  5
25E
100
AcDbEntity
  8
0
100
AcDbMText
 62
2
  6
CONTINUOUS
  7
STANDARD
 71
2
 72
1
 10
1.5275
 20
-0.0995
 30
0.0
 11
1.0
 21
0.0
 31
0.0
 44
0.9
  1
Technical Data
 40
0.145
 41
3.248
  0
MTEXT
  5
25F
100
AcDbEntity
  8
0
100
AcDbMText
 62
2
  6
CONTINUOUS
  7
STANDARD
 71
2
 72
1
 10
4.555
 20
-0.0995
 30
0.0
 11
1.0
 21
0.0
 31
0.0
 44
0.9
  1
U.S. Units
 40
0.145
 41
2.32
  0
MTEXT
  5
260
100
AcDbEntity
  8
0
100
AcDbMText
 62
2
  6
CONTINUOUS
  7
STANDARD
 71
2
 72
1
 10
7.555
 20
-0.0995
 30
0.0
 11
1.0
 21
0.0
 31
0.0
 44
0.9
  1
Metric Units
 40
0.145
 41
2.784
  0
MTEXT
  5
261
100
AcDbEntity
  8
0
100
AcDbMText
 62
2
  6
CONTINUOUS
  7
STANDARD
 71
2
 72
1
 10
1.5275
 20
-0.4065
 30
0.0
 11
1.0
 21
0.0
 31
0.0
 44
0.9
  1
Cavity
 40
0.125
 41
1.2
  0
MTEXT
  5
262
100
AcDbEntity
  8
0
100
AcDbMText
 62
2
  6
CONTINUOUS
  7
STANDARD
 71
2
 72
1
 10
6.055
 20
-0.4065
 30
0.0
 11
1.0
 21
0.0
 31
0.0
 44
0.9
  1
T-22A
 40
0.125
 41
1.0
  0
MTEXT
  5
263
100
AcDbEntity
  8
0
100
AcDbMText
 62
2
  6
CONTINUOUS
  7
STANDARD
 71
2
 72
1
 10
1.5275
 20
-0.6565
 30
0.0
 11
1.0
 21
0.0
 31
0.0
 44
0.9
  1
Body Features
 40
0.125
 41
2.6
  0
MTEXT
  5
264
100
AcDbEntity
  8
0
100
AcDbMText
 62
2
  6
CONTINUOUS
  7
STANDARD
 71
2
 72
1
 10
6.055
 20
-0.6565
 30
0.0
 11
1.0
 21
0.0
 31
0.0
 44
0.9
  1
(See Notes)
 40
0.125
 41
2.2
  0
MTEXT
  5
265
100
AcDbEntity
  8
0
100
AcDbMText
 62
2
  6
CONTINUOUS
  7
STANDARD
 71
2
 72
1
 10
1.5275
 20
-0.9065
 30
0.0
 11
1.0
 21
0.0
 31
0.0
 44
0.9
  1
Body Type
 40
0.125
 41
1.8
  0
MTEXT
  5
266
100
AcDbEntity
  8
0
100
AcDbMText
 62
2
  6
CONTINUOUS
  7
STANDARD
 71
2
 72
1
 10
6.055
 20
-0.9065
 30
0.0
 11
1.0
 21
0.0
 31
0.0
 44
0.9
  1
Sandwich
 40
0.125
 41
1.6
  0
MTEXT
  5
267
100
AcDbEntity
  8
0
100
AcDbMText
 62
2
  6
CONTINUOUS
  7
STANDARD
 71
2
 72
1
 10
1.5275
 20
-1.1565
 30
0.0
 11
1.0
 21
0.0
 31
0.0
 44
0.9
  1
Interface
 40
0.125
 41
1.8
  0
MTEXT
  5
268
100
AcDbEntity
  8
0
100
AcDbMText
 62
2
  6
CONTINUOUS
  7
STANDARD
 71
2
 72
1
 10
6.055
 20
-1.1565
 30
0.0
 11
1.0
 21
0.0
 31
0.0
 44
0.9
  1
ISO 05 - X&Y
 40
0.125
 41
2.4
  0
MTEXT
  5
269
100
AcDbEntity
  8
0
100
AcDbMText
 62
2
  6
CONTINUOUS
  7
STANDARD
 71
2
 72
1
 10
1.5275
 20
-1.4065
 30
0.0
 11
1.0
 21
0.0
 31
0.0
 44
0.9
  1
Open Cavity Quantity
 40
0.125
 41
4.0
  0
MTEXT
  5
26A
100
AcDbEntity
  8
0
100
AcDbMText
 62
2
  6
CONTINUOUS
  7
STANDARD
 71
2
 72
1
 10
6.055
 20
-1.4065
 30
0.0
 11
1.0
 21
0.0
 31
0.0
 44
0.9
  1
1
 40
0.125
 41
0.2
  0
MTEXT
  5
26B
100
AcDbEntity
  8
0
100
AcDbMText
 62
2
  6
CONTINUOUS
  7
STANDARD
 71
2
 72
1
 10
1.5275
 20
-1.6565
 30
0.0
 11
1.0
 21
0.0
 31
0.0
 44
0.9
  1
Stack Height
 40
0.125
 41
2.4
  0
MTEXT
  5
26C
100
AcDbEntity
  8
0
100
AcDbMText
 62
2
  6
CONTINUOUS
  7
STANDARD
 71
2
 72
1
 10
4.555
 20
-1.6565
 30
0.0
 11
1.0
 21
0.0
 31
0.0
 44
0.9
  1
2.99 in.
 40
0.125
 41
1.6
  0
MTEXT
  5
26D
100
AcDbEntity
  8
0
100
AcDbMText
 62
2
  6
CONTINUOUS
  7
STANDARD
 71
2
 72
1
 10
7.555
 20
-1.6565
 30
0.0
 11
1.0
 21
0.0
 31
0.0
 44
0.9
  1
76 mm
 40
0.125
 41
1.0
  0
MTEXT
  5
26E
100
AcDbEntity
  8
0
100
AcDbMText
 62
2
  6
CONTINUOUS
  7
STANDARD
 71
2
 72
1
 10
1.5275
 20
-1.9065
 30
0.0
 11
1.0
 21
0.0
 31
0.0
 44
0.9
  1
Weight
 40
0.125
 41
1.2
  0
MTEXT
  5
26F
100
AcDbEntity
  8
0
100
AcDbMText
 62
2
  6
CONTINUOUS
  7
STANDARD
 71
2
 72
1
 10
4.555
 20
-1.9065
 30
0.0
 11
1.0
 21
0.0
 31
0.0
 44
0.9
  1
3.531 lb.
 40
0.125
 41
1.8
  0
MTEXT
  5
270
100
AcDbEntity
  8
0
100
AcDbMText
 62
2
  6
CONTINUOUS
  7
STANDARD
 71
2
 72
1
 10
7.555
 20
-1.9065
 30
0.0
 11
1.0
 21
0.0
 31
0.0
 44
0.9
  1
1,602 kg.
 40
0.125
 41
1.8
  0
MTEXT
  5
271
100
AcDbEntity
  8
0
100
AcDbMText
 62
2
  6
CONTINUOUS
  7
STANDARD
 71
2
 72
1
 10
1.5275
 20
-2.1565
 30
0.0
 11
1.0
 21
0.0
 31
0.0
 44
0.9
  1
Seal Plate Included (see notes)
 40
0.125
 41
6.2
  0
MTEXT
  5
272
100
AcDbEntity
  8
0
100
AcDbMText
 62
2
  6
CONTINUOUS
  7
STANDARD
 71
2
 72
1
 10
6.055
 20
-2.1565
 30
0.0
 11
1.0
 21
0.0
 31
0.0
 44
0.9
  1
No
 40
0.125
 41
0.4
  0
MTEXT
  5
273
100
AcDbEntity
  8
0
100
AcDbMText
 62
2
  6
CONTINUOUS
  7
STANDARD
 71
2
 72
1
 10
1.5275
 20
-2.4065
 30
0.0
 11
1.0
 21
0.0
 31
0.0
 44
0.9
  1
Includes integral cartridge(s)
 40
0.125
 41
6.0
  0
MTEXT
  5
274
100
AcDbEntity
  8
0
100
AcDbMText
 62
2
  6
CONTINUOUS
  7
STANDARD
 71
2
 72
1
 10
6.055
 20
-2.4065
 30
0.0
 11
1.0
 21
0.0
 31
0.0
 44
0.9
  1
Yes (see Included Components)
 40
0.125
 41
5.8
  0
ENDBLK
  5
275
100
AcDbEntity
  8
0
  6
BYBLOCK
 62
0
100
AcDbBlockEnd
  0
BLOCK
  5
276
100
AcDbEntity
  8
0
100
AcDbBlockBegin
  2
*T3
 70
1
 10
0.0
 20
0.0
  3
*T3
  1

  0
LINE
  5
277
100
AcDbEntity
  8
0
100
AcDbLine
 62
2
  6
CONTINUOUS
 10
0.0
 20
0.0
 11
4.6
 21
0.0
  0
LINE
  5
278
100
AcDbEntity
  8
0
100
AcDbLine
 62
2
  6
CONTINUOUS
 10
0.0
 20
0.0
 11
0.0
 21
-0.93775
  0
LINE
  5
279
100
AcDbEntity
  8
0
100
AcDbLine
 62
2
  6
CONTINUOUS
 10
0.0
 20
-0.34375
 11
4.6
 21
-0.34375
  0
LINE
  5
27A
100
AcDbEntity
  8
0
100
AcDbLine
 62
2
  6
CONTINUOUS
 10
0.0
 20
-0.68775
 11
4.6
 21
-0.68775
  0
LINE
  5
27B
100
AcDbEntity
  8
0
100
AcDbLine
 62
2
  6
CONTINUOUS
 10
0.0
 20
-0.93775
 11
4.6
 21
-0.93775
  0
LINE
  5
27C
100
AcDbEntity
  8
0
100
AcDbLine
 62
2
  6
CONTINUOUS
 10
1.3
 20
-0.34375
 11
1.3
 21
-0.93775
  0
LINE
  5
27D
100
AcDbEntity
  8
0
100
AcDbLine
 62
2
  6
CONTINUOUS
 10
3.3
 20
-0.34375
 11
3.3
 21
-0.93775
  0
LINE
  5
27E
100
AcDbEntity
  8
0
100
AcDbLine
 62
2
  6
CONTINUOUS
 10
4.6
 20
0.0
 11
4.6
 21
-0.93775
  0
MTEXT
  5
27F
100
AcDbEntity
  8
0
100
AcDbMText
 62
2
  6
CONTINUOUS
  7
STANDARD
 71
2
 72
1
 10
2.3
 20
-0.099375
 30
0.0
 11
1.0
 21
0.0
 31
0.0
 44
0.9
  1
Port Headings
 40
0.145
 41
3.016
  0
MTEXT
  5
280
100
AcDbEntity
  8
0
100
AcDbMText
 62
2
  6
CONTINUOUS
  7
STANDARD
 71
2
 72
1
 10
0.65
 20
-0.44325
 30
0.0
 11
1.0
 21
0.0
 31
0.0
 44
0.9
  1
Product
 40
0.145
 41
1.624
  0
MTEXT
  5
281
100
AcDbEntity
  8
0
100
AcDbMText
 62
2
  6
CONTINUOUS
  7
STANDARD
 71
2
 72
1
 10
2.3
 20
-0.44325
 30
0.0
 11
1.0
 21
0.0
 31
0.0
 44
0.9
  1
Port
 40
0.145
 41
0.928
  0
MTEXT
  5
282
100
AcDbEntity
  8
0
100
AcDbMText
 62
2
  6
CONTINUOUS
  7
STANDARD
 71
2
 72
1
 10
3.95
 20
-0.44325
 30
0.0
 11
1.0
 21
0.0
 31
0.0
 44
0.9
  1
Size
 40
0.145
 41
0.928
  0
MTEXT
  5
283
100
AcDbEntity
  8
0
100
AcDbMText
 62
2
  6
CONTINUOUS
  7
STANDARD
 71
2
 72
1
 10
0.65
 20
-0.75025
 30
0.0
 11
1.0
 21
0.0
 31
0.0
 44
0.9
  1
NJ2
 40
0.125
 41
0.6
  0
MTEXT
  5
284
100
AcDbEntity
  8
0
100
AcDbMText
 62
2
  6
CONTINUOUS
  7
STANDARD
 71
2
 72
1
 10
2.3
 20
-0.75025
 30
0.0
 11
1.0
 21
0.0
 31
0.0
 44
0.9
  1
External Port
 40
0.125
 41
2.6
  0
MTEXT
  5
285
100
AcDbEntity
  8
0
100
AcDbMText
 62
2
  6
CONTINUOUS
  7
STANDARD
 71
2
 72
1
 10
3.95
 20
-0.75025
 30
0.0
 11
1.0
 21
0.0
 31
0.0
 44
0.9
  1
SAE 6
 40
0.125
 41
1.0
  0
ENDBLK
  5
286
100
AcDbEntity
  8
0
  6
BYBLOCK
 62
0
100
AcDbBlockEnd
  0
ENDSEC
  0
SECTION
  2
ENTITIES
  0
IMAGE
  5
287
100
AcDbEntity
  8
0
100
AcDbRasterImage
 62
7
  6
CONTINUOUS
 10
19.2297077316
 20
0.3094318264
 30
0.0
 11
0.0066666667
 21
0.0
 31
0.0
 12
0.0
 22
0.0066666667
 32
0.0
 13
369.0
 23
92.0
340
       3FD
 70
9
280
0
281
50
282
50
283
0
360
       3F7
 71
1
 91
2
 14
-0.5
 24
-0.5
 14
368.5
 24
91.5
  0
INSERT
  5
288
100
AcDbEntity
  8
0
100
AcDbBlockReference
 62
2
  6
CONTINUOUS
  2
SUN_FIRST_THIRD_ANGLE_BL0
 10
20.4816717061
 20
1.2289683772
  0
ACAD_TABLE
  5
289
100
AcDbEntity
  8
0
 62
2
  6
CONTINUOUS
100
AcDbBlockReference
  2
*T1
 10
12.42375
 20
0.30125
 30
0.0
100
AcDbTable
342
       3FF
343
20F
 11
1.0
 21
0.0
 31
0.0
 90
6
 91
4
 92
6
 93
20
 94
0
 95
0
 96
0
 70
1
 41
0.0
141
0.525
141
0.1
141
0.525
141
0.1
142
4.1
142
1.1
142
0.7
142
0.5
142
0.4
142
2.475
171
1
172
0
173
0
174
0
175
1
176
1
 91
33
178
0
145
0.0
301
CELL_VALUE
 90
4
  1
T-22A Sandwich ISO 05 - X&Y\P(See Notes for Body Features)
304
ACVALUE_END
170
2
140
0.125
171
1
172
0
173
0
174
0
175
1
176
1
 91
33
178
0
145
0.0
301
CELL_VALUE
 90
4
  1
Sep-01-22
304
ACVALUE_END
170
5
140
0.125
171
1
172
0
173
0
174
0
175
1
176
1
 91
33
178
0
145
0.0
301
CELL_VALUE
 90
4
  1
1.000
304
ACVALUE_END
170
5
140
0.125
171
1
172
0
173
0
174
0
175
1
176
1
 91
33
178
0
145
0.0
301
CELL_VALUE
 90
4
  1
C
304
ACVALUE_END
170
5
140
0.125
171
1
172
0
173
0
174
0
175
1
176
1
 91
33
178
0
145
0.0
301
CELL_VALUE
 90
4
  1
2
304
ACVALUE_END
170
5
140
0.125
171
1
172
0
173
0
174
0
175
1
176
1
 91
33
178
0
145
0.0
301
CELL_VALUE
 90
4
  1
 
304
ACVALUE_END
170
1
140
0.125
171
1
172
0
173
0
174
0
175
1
176
1
 91
33
178
0
145
0.0
301
CELL_VALUE
 90
4
  1
DESCRIPTION
304
ACVALUE_END
170
1
140
0.06
171
1
172
0
173
0
174
0
175
1
176
1
 91
33
178
0
145
0.0
301
CELL_VALUE
 90
4
  1
DATE
304
ACVALUE_END
170
1
140
0.06
171
1
172
0
173
0
174
0
175
1
176
1
 91
33
178
0
145
0.0
301
CELL_VALUE
 90
4
  1
SCALE
304
ACVALUE_END
170
1
140
0.06
171
1
172
0
173
0
174
0
175
1
176
1
 91
33
178
0
145
0.0
301
CELL_VALUE
 90
4
  1
DWG SIZE
304
ACVALUE_END
170
1
140
0.06
171
1
172
0
173
0
174
0
175
1
176
1
 91
33
178
0
145
0.0
301
CELL_VALUE
 90
4
  1
SHEET
304
ACVALUE_END
170
1
140
0.06
171
1
172
0
173
0
174
0
175
1
176
1
 91
33
178
0
145
0.0
301
CELL_VALUE
 90
4
  1
 
304
ACVALUE_END
170
1
140
0.125
171
1
172
0
173
0
174
0
175
1
176
1
 91
33
178
0
145
0.0
301
CELL_VALUE
 90
4
  1
NJ2
304
ACVALUE_END
170
5
140
0.125
171
1
172
0
173
0
174
0
175
4
176
1
 91
33
178
0
145
0.0
301
CELL_VALUE
 90
4
  1
ALL DIMENSIONS IN INCH\PVIEWS ARE THIRD ANGLE
304
ACVALUE_END
170
5
140
0.12
171
1
172
0
173
1
174
0
175
1
176
1
 91
1
178
0
145
0.0
170
1
171
1
172
0
173
1
174
0
175
1
176
1
 91
1
178
0
145
0.0
170
1
171
1
172
0
173
1
174
0
175
1
176
1
 91
1
178
0
145
0.0
170
5
171
1
172
0
173
0
174
0
175
1
176
1
 91
33
178
0
145
0.0
301
CELL_VALUE
 90
4
  1
 
304
ACVALUE_END
170
1
140
0.125
171
1
172
0
173
0
174
0
175
1
176
1
 91
33
178
0
145
0.0
301
CELL_VALUE
 90
4
  1
MODEL
304
ACVALUE_END
170
1
140
0.06
171
1
172
0
173
0
174
0
175
1
176
1
 91
33
178
0
145
0.0
301
CELL_VALUE
 90
4
  1
 
304
ACVALUE_END
170
1
140
0.125
171
1
172
0
173
0
174
0
175
1
176
1
 91
33
178
0
145
0.0
301
CELL_VALUE
 90
4
  1
 
304
ACVALUE_END
170
1
140
0.125
171
1
172
0
173
0
174
0
175
1
176
1
 91
33
178
0
145
0.0
301
CELL_VALUE
 90
4
  1
 
304
ACVALUE_END
170
1
140
0.125
171
1
172
0
173
0
174
0
175
1
176
1
 91
33
178
0
145
0.0
301
CELL_VALUE
 90
4
  1
 
304
ACVALUE_END
170
1
140
0.125
171
1
172
0
173
0
174
0
175
1
176
1
 91
33
178
0
145
0.0
301
CELL_VALUE
 90
4
  1
 
304
ACVALUE_END
170
1
140
0.125
  0
ACAD_TABLE
  5
28A
100
AcDbEntity
  8
0
 62
2
  6
CONTINUOUS
100
AcDbBlockReference
  2
*T2
 10
12.4237499994
 20
16.47875
 30
0.0
100
AcDbTable
342
       3FE
343
210
 11
1.0
 21
0.0
 31
0.0
 90
22
 91
10
 92
3
 93
16
 94
0
 95
0
 96
0
 41
0.028
141
0.344
141
0.25
141
0.25
141
0.25
141
0.25
141
0.25
141
0.25
141
0.25
141
0.25
141
0.25
142
3.055
142
3.0
142
3.0
171
1
172
0
173
0
174
0
175
1
176
1
 91
33
178
0
145
0.0
301
CELL_VALUE
 90
4
  1
Technical Data
304
ACVALUE_END
170
5
140
0.145
171
1
172
0
173
0
174
0
175
1
176
1
 91
33
178
0
145
0.0
301
CELL_VALUE
 90
4
  1
U.S. Units
304
ACVALUE_END
170
5
140
0.145
171
1
172
0
173
0
174
0
175
1
176
1
 91
33
178
0
145
0.0
301
CELL_VALUE
 90
4
  1
Metric Units
304
ACVALUE_END
170
5
140
0.145
171
1
172
0
173
0
174
0
175
1
176
1
 91
33
178
0
145
0.0
301
CELL_VALUE
 90
4
  1
Cavity
304
ACVALUE_END
170
5
140
0.125
171
1
172
0
173
0
174
0
175
2
176
1
 91
33
178
0
145
0.0
301
CELL_VALUE
 90
4
  1
T-22A
304
ACVALUE_END
170
5
140
0.125
171
1
172
0
173
1
174
0
175
1
176
1
 91
1
178
0
145
0.0
170
1
171
1
172
0
173
0
174
0
175
1
176
1
 91
33
178
0
145
0.0
301
CELL_VALUE
 90
4
  1
Body Features
304
ACVALUE_END
170
5
140
0.125
171
1
172
0
173
0
174
0
175
2
176
1
 91
33
178
0
145
0.0
301
CELL_VALUE
 90
4
  1
(See Notes)
304
ACVALUE_END
170
5
140
0.125
171
1
172
0
173
1
174
0
175
1
176
1
 91
1
178
0
145
0.0
170
1
171
1
172
0
173
0
174
0
175
1
176
1
 91
33
178
0
145
0.0
301
CELL_VALUE
 90
4
  1
Body Type
304
ACVALUE_END
170
5
140
0.125
171
1
172
0
173
0
174
0
175
2
176
1
 91
33
178
0
145
0.0
301
CELL_VALUE
 90
4
  1
Sandwich
304
ACVALUE_END
170
5
140
0.125
171
1
172
0
173
1
174
0
175
1
176
1
 91
1
178
0
145
0.0
170
1
171
1
172
0
173
0
174
0
175
1
176
1
 91
33
178
0
145
0.0
301
CELL_VALUE
 90
4
  1
Interface
304
ACVALUE_END
170
5
140
0.125
171
1
172
0
173
0
174
0
175
2
176
1
 91
33
178
0
145
0.0
301
CELL_VALUE
 90
4
  1
ISO 05 - X&Y
304
ACVALUE_END
170
5
140
0.125
171
1
172
0
173
1
174
0
175
1
176
1
 91
1
178
0
145
0.0
170
1
171
1
172
0
173
0
174
0
175
1
176
1
 91
33
178
0
145
0.0
301
CELL_VALUE
 90
4
  1
Open Cavity Quantity
304
ACVALUE_END
170
5
140
0.125
171
1
172
0
173
0
174
0
175
2
176
1
 91
33
178
0
145
0.0
301
CELL_VALUE
 90
4
  1
1
304
ACVALUE_END
170
5
140
0.125
171
1
172
0
173
1
174
0
175
1
176
1
 91
1
178
0
145
0.0
170
1
171
1
172
0
173
0
174
0
175
1
176
1
 91
33
178
0
145
0.0
301
CELL_VALUE
 90
4
  1
Stack Height
304
ACVALUE_END
170
5
140
0.125
171
1
172
0
173
0
174
0
175
1
176
1
 91
33
178
0
145
0.0
301
CELL_VALUE
 90
4
  1
2.99 in.
304
ACVALUE_END
170
5
140
0.125
171
1
172
0
173
0
174
0
175
1
176
1
 91
33
178
0
145
0.0
301
CELL_VALUE
 90
4
  1
76 mm
304
ACVALUE_END
170
5
140
0.125
171
1
172
0
173
0
174
0
175
1
176
1
 91
33
178
0
145
0.0
301
CELL_VALUE
 90
4
  1
Weight
304
ACVALUE_END
170
5
140
0.125
171
1
172
0
173
0
174
0
175
1
176
1
 91
33
178
0
145
0.0
301
CELL_VALUE
 90
4
  1
3.531 lb.
304
ACVALUE_END
170
5
140
0.125
171
1
172
0
173
0
174
0
175
1
176
1
 91
33
178
0
145
0.0
301
CELL_VALUE
 90
4
  1
1,602 kg.
304
ACVALUE_END
170
5
140
0.125
171
1
172
0
173
0
174
0
175
1
176
1
 91
33
178
0
145
0.0
301
CELL_VALUE
 90
4
  1
Seal Plate Included (see notes)
304
ACVALUE_END
170
5
140
0.125
171
1
172
0
173
0
174
0
175
2
176
1
 91
33
178
0
145
0.0
301
CELL_VALUE
 90
4
  1
No
304
ACVALUE_END
170
5
140
0.125
171
1
172
0
173
1
174
0
175
1
176
1
 91
1
178
0
145
0.0
170
1
171
1
172
0
173
0
174
0
175
1
176
1
 91
33
178
0
145
0.0
301
CELL_VALUE
 90
4
  1
Includes integral cartridge(s)
304
ACVALUE_END
170
5
140
0.125
171
1
172
0
173
0
174
0
175
2
176
1
 91
33
178
0
145
0.0
301
CELL_VALUE
 90
4
  1
Yes (see Included Components)
304
ACVALUE_END
170
5
140
0.125
171
1
172
0
173
1
174
0
175
1
176
1
 91
1
178
0
145
0.0
170
1
  0
ACAD_TABLE
  5
28B
100
AcDbEntity
  8
0
 62
2
  6
CONTINUOUS
100
AcDbBlockReference
  2
*T3
 10
0.52125
 20
1.459
 30
0.0
100
AcDbTable
342
       3FE
343
211
 11
1.0
 21
0.0
 31
0.0
 90
22
 91
3
 92
3
 93
16
 94
0
 95
0
 96
0
 41
0.05
141
0.34375
141
0.344
141
0.25
142
1.3
142
2.0
142
1.3
171
1
172
0
173
0
174
0
175
3
176
1
 91
33
178
0
145
0.0
301
CELL_VALUE
 90
4
  1
Port Headings
304
ACVALUE_END
170
5
140
0.145
171
1
172
0
173
1
174
0
175
1
176
1
 91
1
178
0
145
0.0
170
1
171
1
172
0
173
1
174
0
175
1
176
1
 91
1
178
0
145
0.0
170
1
171
1
172
0
173
0
174
0
175
1
176
1
 91
33
178
0
145
0.0
301
CELL_VALUE
 90
4
  1
Product
304
ACVALUE_END
170
5
140
0.145
171
1
172
0
173
0
174
0
175
1
176
1
 91
33
178
0
145
0.0
301
CELL_VALUE
 90
4
  1
Port
304
ACVALUE_END
170
5
140
0.145
171
1
172
0
173
0
174
0
175
1
176
1
 91
33
178
0
145
0.0
301
CELL_VALUE
 90
4
  1
Size
304
ACVALUE_END
170
5
140
0.145
171
1
172
0
173
0
174
0
175
1
176
1
 91
33
178
0
145
0.0
301
CELL_VALUE
 90
4
  1
NJ2
304
ACVALUE_END
170
5
140
0.125
171
1
172
0
173
0
174
0
175
1
176
1
 91
33
178
0
145
0.0
301
CELL_VALUE
 90
4
  1
External Port
304
ACVALUE_END
170
5
140
0.125
171
1
172
0
173
0
174
0
175
1
176
1
 91
33
178
0
145
0.0
301
CELL_VALUE
 90
4
  1
SAE 6
304
ACVALUE_END
170
5
140
0.125
  0
MTEXT
  5
28C
100
AcDbEntity
  8
0
100
AcDbMText
 62
2
  6
CONTINUOUS
  7
STANDARD
 71
1
 72
1
 10
0.52125
 20
5.75995
 30
0.0
 11
1.0
 21
0.0
 31
0.0
 44
0.6
  3
Notes\P \P1. Stack height value in technical\P   data table includes seal retainer\P   plate.\P2. This installation requires a\P   retainer and seal kit which are\P   purchased separately. See "Related\P   Accessories" section.\P3. Important: Careful
  3
ly consider\P   the maximum system pressure. The\P   pressure rating of the manifold is\P   dependent on the manifold material,\P   with the port type/size a secondary\P   consideration. Manifolds\P   constructed of aluminum are not\P   rated for pre
  1
ssures higher than\P   3000 psi (210 bar), regardless of\P   the port type/size specified.\P4. Body Features: Reducer/reliever\P   on A with reverse flow check and\P   port 4 external.
 40
0.1
 41
3.04
  0
LINE
  5
28D
100
AcDbEntity
  8
0
100
AcDbLine
 62
7
  6
CONTINUOUS
 10
0.30125
 20
0.30125
 11
0.30125
 21
16.69875
  0
LINE
  5
28E
100
AcDbEntity
  8
0
100
AcDbLine
 62
7
  6
CONTINUOUS
 10
0.30125
 20
0.30125
 11
21.69875
 21
0.30125
  0
LINE
  5
28F
100
AcDbEntity
  8
0
100
AcDbLine
 62
7
  6
CONTINUOUS
 10
0.30125
 20
16.69875
 11
21.69875
 21
16.69875
  0
LINE
  5
290
100
AcDbEntity
  8
0
100
AcDbLine
 62
7
  6
CONTINUOUS
 10
21.69875
 20
0.30125
 11
21.69875
 21
16.69875
  0
LINE
  5
291
100
AcDbEntity
  8
0
100
AcDbLine
 62
7
  6
CONTINUOUS
 10
9.5744392759
 20
11.0989533623
 11
10.1324526766
 21
11.6379529494
  0
LINE
  5
292
100
AcDbEntity
  8
0
100
AcDbLine
 62
7
  6
CONTINUOUS
 10
9.6043829783
 20
11.1268204619
 11
10.162396379
 21
11.665820049
  0
LINE
  5
293
100
AcDbEntity
  8
0
100
AcDbLine
 62
7
  6
CONTINUOUS
 10
10.1324526766
 20
11.6379529494
 11
10.1333874667
 21
11.6388390924
  0
LINE
  5
294
100
AcDbEntity
  8
0
100
AcDbLine
 62
7
  6
CONTINUOUS
 10
10.162396379
 20
11.665820049
 11
10.1632551516
 21
11.6666339358
  0
LINE
  5
295
100
AcDbEntity
  8
0
100
AcDbLine
 62
7
  6
CONTINUOUS
 10
10.1623889574
 20
11.665828024
 11
10.1324526766
 21
11.6379529494
  0
LINE
  5
296
100
AcDbEntity
  8
0
100
AcDbLine
 62
7
  6
CONTINUOUS
 10
9.6043829783
 20
11.1268204619
 11
9.5744392759
 21
11.0989533623
  0
LINE
  5
297
100
AcDbEntity
  8
0
100
AcDbLine
 62
7
  6
CONTINUOUS
 10
9.8476278042
 20
5.7051845759
 11
11.4172573649
 21
5.5963303961
  0
LINE
  5
298
100
AcDbEntity
  8
0
100
AcDbLine
 62
7
  6
CONTINUOUS
 10
10.5295487427
 20
5.3544710088
 11
10.548766632
 21
5.3449777394
  0
LINE
  5
299
100
AcDbEntity
  8
0
100
AcDbLine
 62
7
  6
CONTINUOUS
 10
9.575374066
 20
5.7951218741
 11
9.6052404924
 21
5.767328029
  0
LINE
  5
29A
100
AcDbEntity
  8
0
100
AcDbLine
 62
7
  6
CONTINUOUS
 10
9.8396044204
 20
5.7273782842
 11
11.4092339811
 21
5.6185241045
  0
LINE
  5
29B
100
AcDbEntity
  8
0
100
AcDbLine
 62
7
  6
CONTINUOUS
 10
9.4123877868
 20
10.0694414534
 11
9.5616614822
 21
10.2136287795
  0
LINE
  5
29C
100
AcDbEntity
  8
0
100
AcDbLine
 62
4
  6
CONTINUOUS
 10
10.8462924364
 20
11.0029129506
 11
10.8152341773
 21
10.9729129742
  0
LINE
  5
29D
100
AcDbEntity
  8
0
100
AcDbLine
 62
7
  6
CONTINUOUS
 10
11.8272024956
 20
6.4004921568
 11
9.4123877868
 21
6.5679601256
  0
LINE
  5
29E
100
AcDbEntity
  8
0
100
AcDbLine
 62
7
  6
CONTINUOUS
 10
9.8476278042
 20
5.7051845759
 11
9.8396044204
 21
5.7273782842
  0
LINE
  5
29F
100
AcDbEntity
  8
0
100
AcDbLine
 62
7
  6
CONTINUOUS
 10
9.8476278042
 20
11.0177769353
 11
9.8396044204
 21
10.9800832388
  0
LINE
  5
2A0
100
AcDbEntity
  8
0
100
AcDbLine
 62
7
  6
CONTINUOUS
 10
11.406695587
 20
6.6540348124
 11
11.4041269648
 21
6.6541675367
  0
LINE
  5
2A1
100
AcDbEntity
  8
0
100
AcDbLine
 62
7
  6
CONTINUOUS
 10
11.4015583235
 20
6.8103002707
 11
11.404126927
 21
6.8101675468
  0
LINE
  5
2A2
100
AcDbEntity
  8
0
100
AcDbLine
 62
7
  6
CONTINUOUS
 10
9.4123877868
 20
10.0694414534
 11
9.4123877868
 21
6.5679601256
  0
LINE
  5
2A3
100
AcDbEntity
  8
0
100
AcDbLine
 62
7
  6
CONTINUOUS
 10
9.5616614822
 20
6.5576079597
 11
9.5616614822
 21
5.8211282124
  0
LINE
  5
2A4
100
AcDbEntity
  8
0
100
AcDbLine
 62
7
  6
CONTINUOUS
 10
9.5616614822
 20
10.1378509859
 11
9.5616614822
 21
11.073833167
  0
LINE
  5
2A5
100
AcDbEntity
  8
0
100
AcDbLine
 62
7
  6
CONTINUOUS
 10
11.5820793797
 20
11.2951285695
 11
11.5806172794
 21
11.2937427306
  0
LINE
  5
2A6
100
AcDbEntity
  8
0
100
AcDbLine
 62
7
  6
CONTINUOUS
 10
12.3965829476
 20
11.5108786842
 11
11.8385695469
 21
10.9718790971
  0
LINE
  5
2A7
100
AcDbEntity
  8
0
100
AcDbLine
 62
7
  6
CONTINUOUS
 10
9.8396044204
 20
10.9800832388
 11
9.8396044204
 21
10.0441010577
  0
LINE
  5
2A8
100
AcDbEntity
  8
0
100
AcDbLine
 62
7
  6
CONTINUOUS
 10
9.8396044204
 20
5.7273782842
 11
9.8396044204
 21
6.5383325515
  0
LINE
  5
2A9
100
AcDbEntity
  8
0
100
AcDbLine
 62
7
  6
CONTINUOUS
 10
12.42652665
 20
11.478858379
 11
11.8685132493
 21
10.9398587919
  0
LINE
  5
2AA
100
AcDbEntity
  8
0
100
AcDbLine
 62
7
  6
CONTINUOUS
 10
10.4213484656
 20
5.6653969129
 11
10.4213484656
 21
5.4911506705
  0
LINE
  5
2AB
100
AcDbEntity
  8
0
100
AcDbLine
 62
7
  6
CONTINUOUS
 10
12.42652665
 20
10.5428761979
 11
11.8685132493
 21
10.0038766108
  0
LINE
  5
2AC
100
AcDbEntity
  8
0
100
AcDbLine
 62
7
  6
CONTINUOUS
 10
11.4172573649
 20
5.5963303961
 11
11.4092339811
 21
5.6185241045
  0
LINE
  5
2AD
100
AcDbEntity
  8
0
100
AcDbLine
 62
7
  6
CONTINUOUS
 10
10.5727684051
 20
5.6548959044
 11
10.5727684051
 21
5.3448904904
  0
LINE
  5
2AE
100
AcDbEntity
  8
0
100
AcDbLine
 62
7
  6
CONTINUOUS
 10
10.612241183
 20
5.652158458
 11
10.612241183
 21
5.3346741966
  0
LINE
  5
2AF
100
AcDbEntity
  8
0
100
AcDbLine
 62
7
  6
CONTINUOUS
 10
12.5876122132
 20
10.6364729128
 11
11.8272024956
 21
9.9019734846
  0
LINE
  5
2B0
100
AcDbEntity
  8
0
100
AcDbLine
 62
7
  6
CONTINUOUS
 10
11.4172573649
 20
10.9089227555
 11
11.4092339811
 21
10.8712290591
  0
LINE
  5
2B1
100
AcDbEntity
  8
0
100
AcDbLine
 62
4
  6
CONTINUOUS
 10
11.8660253195
 20
8.4157254226
 11
11.8582607547
 21
8.4154698725
  0
LINE
  5
2B2
100
AcDbEntity
  8
0
100
AcDbLine
 62
4
  6
CONTINUOUS
 10
11.8660253195
 20
8.5026587502
 11
11.8737898842
 21
8.5029143003
  0
LINE
  5
2B3
100
AcDbEntity
  8
0
100
AcDbLine
 62
4
  6
CONTINUOUS
 10
12.3065349541
 20
8.3061711667
 11
12.275476695
 21
8.3092886465
  0
LINE
  5
2B4
100
AcDbEntity
  8
0
100
AcDbLine
 62
7
  6
CONTINUOUS
 10
11.1773476575
 20
5.6129681908
 11
11.1773476575
 21
5.2954839295
  0
LINE
  5
2B5
100
AcDbEntity
  8
0
100
AcDbLine
 62
7
  6
CONTINUOUS
 10
11.2312684598
 20
5.6092287705
 11
11.2312684598
 21
5.2992233565
  0
LINE
  5
2B6
100
AcDbEntity
  8
0
100
AcDbLine
 62
4
  6
CONTINUOUS
 10
11.881554449
 20
9.2565920228
 11
11.8504961899
 21
9.2265920464
  0
LINE
  5
2B7
100
AcDbEntity
  8
0
100
AcDbLine
 62
4
  6
CONTINUOUS
 10
11.8504961899
 20
8.9947698396
 11
11.881554449
 21
9.0247698159
  0
LINE
  5
2B8
100
AcDbEntity
  8
0
100
AcDbLine
 62
4
  6
CONTINUOUS
 10
12.1555326564
 20
8.3921363398
 11
12.1259533615
 21
8.3966823755
  0
LINE
  5
2B9
100
AcDbEntity
  8
0
100
AcDbLine
 62
4
  6
CONTINUOUS
 10
11.8427316252
 20
8.1686476788
 11
11.8615910143
 21
8.1540437311
  0
LINE
  5
2BA
100
AcDbEntity
  8
0
100
AcDbLine
 62
7
  6
CONTINUOUS
 10
11.4092339811
 20
10.8712290591
 11
11.4092339811
 21
9.9352468779
  0
LINE
  5
2BB
100
AcDbEntity
  8
0
100
AcDbLine
 62
7
  6
CONTINUOUS
 10
11.4092339811
 20
5.6185241045
 11
11.4092339811
 21
6.4294783717
  0
LINE
  5
2BC
100
AcDbEntity
  8
0
100
AcDbLine
 62
4
  6
CONTINUOUS
 10
12.1459193856
 20
9.0038029251
 11
12.139264044
 21
8.9973743585
  0
LINE
  5
2BD
100
AcDbEntity
  8
0
100
AcDbLine
 62
4
  6
CONTINUOUS
 10
12.1348271502
 20
8.9434125396
 11
12.1281718093
 21
8.9369839736
  0
LINE
  5
2BE
100
AcDbEntity
  8
0
100
AcDbLine
 62
4
  6
CONTINUOUS
 10
11.881554449
 20
8.8219253849
 11
11.8504961899
 21
8.8281476284
  0
LINE
  5
2BF
100
AcDbEntity
  8
0
100
AcDbLine
 62
7
  6
CONTINUOUS
 10
11.6449549949
 20
5.6008690223
 11
11.6449549949
 21
5.4062932694
  0
LINE
  5
2C0
100
AcDbEntity
  8
0
100
AcDbLine
 62
7
  6
CONTINUOUS
 10
11.6594030192
 20
5.6026580857
 11
11.6594030192
 21
5.4202489901
  0
LINE
  5
2C1
100
AcDbEntity
  8
0
100
AcDbLine
 62
4
  6
CONTINUOUS
 10
11.8504961899
 20
9.103436499
 11
11.881554449
 21
9.1696586952
  0
LINE
  5
2C2
100
AcDbEntity
  8
0
100
AcDbLine
 62
4
  6
CONTINUOUS
 10
11.8504961899
 20
8.907836512
 11
11.881554449
 21
8.9740587081
  0
LINE
  5
2C3
100
AcDbEntity
  8
0
100
AcDbLine
 62
4
  6
CONTINUOUS
 10
11.8504961899
 20
8.7557031887
 11
11.881554449
 21
8.8219253849
  0
LINE
  5
2C4
100
AcDbEntity
  8
0
100
AcDbLine
 62
4
  6
CONTINUOUS
 10
12.1459193856
 20
8.8796124888
 11
12.1281718093
 21
8.8624696455
  0
LINE
  5
2C5
100
AcDbEntity
  8
0
100
AcDbLine
 62
4
  6
CONTINUOUS
 10
12.1481378328
 20
8.8375987361
 11
12.1259533615
 21
8.8161701811
  0
LINE
  5
2C6
100
AcDbEntity
  8
0
100
AcDbLine
 62
4
  6
CONTINUOUS
 10
12.1192980215
 20
8.809741616
 11
12.1170795737
 21
8.8075987598
  0
LINE
  5
2C7
100
AcDbEntity
  8
0
100
AcDbLine
 62
4
  6
CONTINUOUS
 10
11.8504961899
 20
8.5311254258
 11
11.881554449
 21
8.5611254022
  0
LINE
  5
2C8
100
AcDbEntity
  8
0
100
AcDbLine
 62
4
  6
CONTINUOUS
 10
12.3065349541
 20
8.9712801365
 11
12.275476695
 21
8.9412801601
  0
LINE
  5
2C9
100
AcDbEntity
  8
0
100
AcDbLine
 62
4
  6
CONTINUOUS
 10
12.2799135889
 20
8.8986494296
 11
12.3020980597
 21
8.9200779842
  0
LINE
  5
2CA
100
AcDbEntity
  8
0
100
AcDbLine
 62
4
  6
CONTINUOUS
 10
12.1459193856
 20
8.7609416077
 11
12.1170795737
 21
8.7330844869
  0
LINE
  5
2CB
100
AcDbEntity
  8
0
100
AcDbLine
 62
4
  6
CONTINUOUS
 10
12.1481378328
 20
8.7299670209
 11
12.1259533615
 21
8.7085384659
  0
LINE
  5
2CC
100
AcDbEntity
  8
0
100
AcDbLine
 62
4
  6
CONTINUOUS
 10
12.3065349541
 20
8.8664081436
 11
12.275476695
 21
8.8364081673
  0
LINE
  5
2CD
100
AcDbEntity
  8
0
100
AcDbLine
 62
4
  6
CONTINUOUS
 10
12.1259533615
 20
8.6588622471
 11
12.1459193856
 21
8.6781479466
  0
LINE
  5
2CE
100
AcDbEntity
  8
0
100
AcDbLine
 62
4
  6
CONTINUOUS
 10
12.2799135889
 20
8.8075764356
 11
12.3020980597
 21
8.8290049902
  0
LINE
  5
2CF
100
AcDbEntity
  8
0
100
AcDbLine
 62
4
  6
CONTINUOUS
 10
12.1481378328
 20
8.6471733598
 11
12.1303902553
 21
8.6300305154
  0
LINE
  5
2D0
100
AcDbEntity
  8
0
100
AcDbLine
 62
4
  6
CONTINUOUS
 10
11.8712016957
 20
8.3772587546
 11
11.8763780723
 21
8.3822587508
  0
LINE
  5
2D1
100
AcDbEntity
  8
0
100
AcDbLine
 62
4
  6
CONTINUOUS
 10
12.3020980597
 20
8.7710494385
 11
12.2799135889
 21
8.7496208839
  0
LINE
  5
2D2
100
AcDbEntity
  8
0
100
AcDbLine
 62
4
  6
CONTINUOUS
 10
12.1459193856
 20
8.5953543408
 11
12.139264044
 21
8.5889257741
  0
LINE
  5
2D3
100
AcDbEntity
  8
0
100
AcDbLine
 62
4
  6
CONTINUOUS
 10
11.8556725671
 20
8.3043032156
 11
11.8582607547
 21
8.306803213
  0
LINE
  5
2D4
100
AcDbEntity
  8
0
100
AcDbLine
 62
4
  6
CONTINUOUS
 10
12.2160223128
 20
8.6409902137
 11
12.2115854189
 21
8.6367045031
  0
LINE
  5
2D5
100
AcDbEntity
  8
0
100
AcDbLine
 62
4
  6
CONTINUOUS
 10
11.881554449
 20
8.9016142685
 11
11.8504961899
 21
8.907836512
  0
LINE
  5
2D6
100
AcDbEntity
  8
0
100
AcDbLine
 62
4
  6
CONTINUOUS
 10
12.1170795737
 20
8.8103585374
 11
12.1192980215
 21
8.809741616
  0
LINE
  5
2D7
100
AcDbEntity
  8
0
100
AcDbLine
 62
4
  6
CONTINUOUS
 10
11.8530843776
 20
8.3090476604
 11
11.8556725671
 21
8.3043032156
  0
LINE
  5
2D8
100
AcDbEntity
  8
0
100
AcDbLine
 62
4
  6
CONTINUOUS
 10
11.8763780723
 20
8.3822587508
 11
11.8789662607
 21
8.377514305
  0
LINE
  5
2D9
100
AcDbEntity
  8
0
100
AcDbLine
 62
4
  6
CONTINUOUS
 10
11.8582607547
 20
8.4154698725
 11
11.8530843776
 21
8.4249587638
  0
LINE
  5
2DA
100
AcDbEntity
  8
0
100
AcDbLine
 62
7
  6
CONTINUOUS
 10
11.8272024956
 20
9.9019734846
 11
11.8272024956
 21
6.4004921568
  0
LINE
  5
2DB
100
AcDbEntity
  8
0
100
AcDbLine
 62
4
  6
CONTINUOUS
 10
11.8504961899
 20
8.3355254388
 11
11.8504961899
 21
8.3210365509
  0
LINE
  5
2DC
100
AcDbEntity
  8
0
100
AcDbLine
 62
4
  6
CONTINUOUS
 10
11.8504961899
 20
8.4369476543
 11
11.8504961899
 21
8.4514365422
  0
LINE
  5
2DD
100
AcDbEntity
  8
0
100
AcDbLine
 62
4
  6
CONTINUOUS
 10
11.8504961899
 20
9.2265920464
 11
11.8504961899
 21
9.2845475981
  0
LINE
  5
2DE
100
AcDbEntity
  8
0
100
AcDbLine
 62
4
  6
CONTINUOUS
 10
11.8660253195
 20
9.2415920346
 11
11.8660253195
 21
9.2778142544
  0
LINE
  5
2DF
100
AcDbEntity
  8
0
100
AcDbLine
 62
7
  6
CONTINUOUS
 10
11.8685132493
 20
10.9398587919
 11
11.8685132493
 21
10.0038766108
  0
LINE
  5
2E0
100
AcDbEntity
  8
0
100
AcDbLine
 62
7
  6
CONTINUOUS
 10
11.8685132493
 20
5.6871538373
 11
11.8685132493
 21
6.440395283
  0
LINE
  5
2E1
100
AcDbEntity
  8
0
100
AcDbLine
 62
4
  6
CONTINUOUS
 10
11.8712016957
 20
8.906103164
 11
11.8712016957
 21
8.9495698278
  0
LINE
  5
2E2
100
AcDbEntity
  8
0
100
AcDbLine
 62
4
  6
CONTINUOUS
 10
11.881554449
 20
9.3145475745
 11
11.881554449
 21
9.2565920228
  0
LINE
  5
2E3
100
AcDbEntity
  8
0
100
AcDbLine
 62
4
  6
CONTINUOUS
 10
11.881554449
 20
8.4814365186
 11
11.881554449
 21
8.4669476306
  0
LINE
  5
2E4
100
AcDbEntity
  8
0
100
AcDbLine
 62
4
  6
CONTINUOUS
 10
11.881554449
 20
8.3655254151
 11
11.881554449
 21
8.3510365272
  0
LINE
  5
2E5
100
AcDbEntity
  8
0
100
AcDbLine
 62
4
  6
CONTINUOUS
 10
11.881554449
 20
8.5611254022
 11
11.881554449
 21
8.6190809539
  0
LINE
  5
2E6
100
AcDbEntity
  8
0
100
AcDbLine
 62
4
  6
CONTINUOUS
 10
11.881554449
 20
9.0247698159
 11
11.881554449
 21
9.0827253676
  0
LINE
  5
2E7
100
AcDbEntity
  8
0
100
AcDbLine
 62
4
  6
CONTINUOUS
 10
11.8854367314
 20
8.2098976463
 11
11.8854367314
 21
9.3690086806
  0
LINE
  5
2E8
100
AcDbEntity
  8
0
100
AcDbLine
 62
4
  6
CONTINUOUS
 10
11.8504961899
 20
8.4514365422
 11
11.8530843776
 21
8.4684254276
  0
LINE
  5
2E9
100
AcDbEntity
  8
0
100
AcDbLine
 62
4
  6
CONTINUOUS
 10
11.8530843776
 20
8.3525143241
 11
11.8504961899
 21
8.3355254388
  0
LINE
  5
2EA
100
AcDbEntity
  8
0
100
AcDbLine
 62
4
  6
CONTINUOUS
 10
11.881554449
 20
8.4669476306
 11
11.8789662607
 21
8.4499587446
  0
LINE
  5
2EB
100
AcDbEntity
  8
0
100
AcDbLine
 62
4
  6
CONTINUOUS
 10
11.8608489423
 20
8.3165476544
 11
11.868613508
 21
8.3675143132
  0
LINE
  5
2EC
100
AcDbEntity
  8
0
100
AcDbLine
 62
4
  6
CONTINUOUS
 10
11.881554449
 20
8.3510365272
 11
11.8789662607
 21
8.3340476412
  0
LINE
  5
2ED
100
AcDbEntity
  8
0
100
AcDbLine
 62
4
  6
CONTINUOUS
 10
11.8530843776
 20
8.4684254276
 11
11.8582607547
 21
8.4879143122
  0
LINE
  5
2EE
100
AcDbEntity
  8
0
100
AcDbLine
 62
4
  6
CONTINUOUS
 10
11.8789662607
 20
8.4499587446
 11
11.8737898842
 21
8.4304698607
  0
LINE
  5
2EF
100
AcDbEntity
  8
0
100
AcDbLine
 62
4
  6
CONTINUOUS
 10
11.8556725671
 20
8.3622587673
 11
11.8530843776
 21
8.3525143241
  0
LINE
  5
2F0
100
AcDbEntity
  8
0
100
AcDbLine
 62
4
  6
CONTINUOUS
 10
11.868613508
 20
8.3675143132
 11
11.8712016957
 21
8.3772587546
  0
LINE
  5
2F1
100
AcDbEntity
  8
0
100
AcDbLine
 62
4
  6
CONTINUOUS
 10
11.8582607547
 20
8.306803213
 11
11.8608489423
 21
8.3165476544
  0
LINE
  5
2F2
100
AcDbEntity
  8
0
100
AcDbLine
 62
4
  6
CONTINUOUS
 10
11.8789662607
 20
8.3340476412
 11
11.8737898842
 21
8.3145587573
  0
LINE
  5
2F3
100
AcDbEntity
  8
0
100
AcDbLine
 62
4
  6
CONTINUOUS
 10
11.8427316252
 20
8.1686476788
 11
11.8615910143
 21
8.2196851708
  0
LINE
  5
2F4
100
AcDbEntity
  8
0
100
AcDbLine
 62
4
  6
CONTINUOUS
 10
11.8582607547
 20
8.4879143122
 11
11.8660253195
 21
8.5026587502
  0
LINE
  5
2F5
100
AcDbEntity
  8
0
100
AcDbLine
 62
4
  6
CONTINUOUS
 10
11.8737898842
 20
8.4304698607
 11
11.8660253195
 21
8.4157254226
  0
LINE
  5
2F6
100
AcDbEntity
  8
0
100
AcDbLine
 62
4
  6
CONTINUOUS
 10
12.1281718093
 20
8.5423342222
 11
12.1326087032
 21
8.5466199329
  0
LINE
  5
2F7
100
AcDbEntity
  8
0
100
AcDbLine
 62
4
  6
CONTINUOUS
 10
12.3020980597
 20
8.6744568891
 11
12.2799135889
 21
8.6530283345
  0
LINE
  5
2F8
100
AcDbEntity
  8
0
100
AcDbLine
 62
4
  6
CONTINUOUS
 10
12.1481378328
 20
8.5229829234
 11
12.1259533615
 21
8.5015543684
  0
LINE
  5
2F9
100
AcDbEntity
  8
0
100
AcDbLine
 62
4
  6
CONTINUOUS
 10
12.1170795737
 20
8.4598654495
 11
12.1481378328
 21
8.4898654258
  0
LINE
  5
2FA
100
AcDbEntity
  8
0
100
AcDbLine
 62
4
  6
CONTINUOUS
 10
12.2337698898
 20
8.5670600498
 11
12.207148525
 21
8.5413457845
  0
LINE
  5
2FB
100
AcDbEntity
  8
0
100
AcDbLine
 62
4
  6
CONTINUOUS
 10
11.8427316252
 20
8.1686476788
 11
11.8854367314
 21
8.2098976463
  0
LINE
  5
2FC
100
AcDbEntity
  8
0
100
AcDbLine
 62
4
  6
CONTINUOUS
 10
12.1459193856
 20
8.4380464068
 11
12.1281718093
 21
8.4209035635
  0
LINE
  5
2FD
100
AcDbEntity
  8
0
100
AcDbLine
 62
4
  6
CONTINUOUS
 10
12.2382067841
 20
8.4968314742
 11
12.207148525
 21
8.4668314978
  0
LINE
  5
2FE
100
AcDbEntity
  8
0
100
AcDbLine
 62
4
  6
CONTINUOUS
 10
12.3065349541
 20
8.5048759174
 11
12.275476695
 21
8.4748759411
  0
LINE
  5
2FF
100
AcDbEntity
  8
0
100
AcDbLine
 62
4
  6
CONTINUOUS
 10
12.2382067841
 20
8.4388759225
 11
12.207148525
 21
8.4088759461
  0
LINE
  5
300
100
AcDbEntity
  8
0
100
AcDbLine
 62
4
  6
CONTINUOUS
 10
12.1281718093
 20
8.3160315983
 11
12.1481378328
 21
8.3353172971
  0
LINE
  5
301
100
AcDbEntity
  8
0
100
AcDbLine
 62
4
  6
CONTINUOUS
 10
12.3065349541
 20
8.4386410052
 11
12.275476695
 21
8.4086410288
  0
LINE
  5
302
100
AcDbEntity
  8
0
100
AcDbLine
 62
4
  6
CONTINUOUS
 10
12.1481378328
 20
8.285641106
 11
12.1170795737
 21
8.2556411296
  0
LINE
  5
303
100
AcDbEntity
  8
0
100
AcDbLine
 62
4
  6
CONTINUOUS
 10
11.881554449
 20
9.1696586952
 11
11.8504961899
 21
9.1758809387
  0
LINE
  5
304
100
AcDbEntity
  8
0
100
AcDbLine
 62
4
  6
CONTINUOUS
 10
11.8737898842
 20
8.5029143003
 11
11.8789662607
 21
8.4934254084
  0
LINE
  5
305
100
AcDbEntity
  8
0
100
AcDbLine
 62
4
  6
CONTINUOUS
 10
12.1215164676
 20
7.8956348088
 11
12.1170795737
 21
7.907907828
  0
LINE
  5
306
100
AcDbEntity
  8
0
100
AcDbLine
 62
4
  6
CONTINUOUS
 10
12.1481378328
 20
7.9627458982
 11
12.1437009384
 21
7.9750189151
  0
LINE
  5
307
100
AcDbEntity
  8
0
100
AcDbLine
 62
4
  6
CONTINUOUS
 10
12.1481378328
 20
8.0538189129
 11
12.1437009384
 21
8.066091923
  0
LINE
  5
308
100
AcDbEntity
  8
0
100
AcDbLine
 62
4
  6
CONTINUOUS
 10
11.8504961899
 20
8.3210365509
 11
11.8530843776
 21
8.3090476604
  0
LINE
  5
309
100
AcDbEntity
  8
0
100
AcDbLine
 62
4
  6
CONTINUOUS
 10
11.8530843776
 20
8.4249587638
 11
11.8504961899
 21
8.4369476543
  0
LINE
  5
30A
100
AcDbEntity
  8
0
100
AcDbLine
 62
4
  6
CONTINUOUS
 10
11.8789662607
 20
8.377514305
 11
11.881554449
 21
8.3655254151
  0
LINE
  5
30B
100
AcDbEntity
  8
0
100
AcDbLine
 62
4
  6
CONTINUOUS
 10
11.8789662607
 20
8.4934254084
 11
11.881554449
 21
8.4814365186
  0
LINE
  5
30C
100
AcDbEntity
  8
0
100
AcDbLine
 62
4
  6
CONTINUOUS
 10
12.1170795737
 20
7.907907828
 11
12.1170795737
 21
7.9410252859
  0
LINE
  5
30D
100
AcDbEntity
  8
0
100
AcDbLine
 62
4
  6
CONTINUOUS
 10
12.1170795737
 20
8.8075987598
 11
12.1170795737
 21
8.8103585374
  0
LINE
  5
30E
100
AcDbEntity
  8
0
100
AcDbLine
 62
4
  6
CONTINUOUS
 10
12.1259533615
 20
8.6174654718
 11
12.1259533615
 21
8.5760686413
  0
LINE
  5
30F
100
AcDbEntity
  8
0
100
AcDbLine
 62
4
  6
CONTINUOUS
 10
12.1259533615
 20
8.2642125509
 11
12.1259533615
 21
8.3056093815
  0
LINE
  5
310
100
AcDbEntity
  8
0
100
AcDbLine
 62
4
  6
CONTINUOUS
 10
12.1259533615
 20
8.4353194284
 11
12.1259533615
 21
8.4684368708
  0
LINE
  5
311
100
AcDbEntity
  8
0
100
AcDbLine
 62
4
  6
CONTINUOUS
 10
12.1259533615
 20
8.5015543684
 11
12.1259533615
 21
8.5346718107
  0
LINE
  5
312
100
AcDbEntity
  8
0
100
AcDbLine
 62
4
  6
CONTINUOUS
 10
12.1259533615
 20
8.8686061222
 11
12.1259533615
 21
8.9017236751
  0
LINE
  5
313
100
AcDbEntity
  8
0
100
AcDbLine
 62
4
  6
CONTINUOUS
 10
12.1259533615
 20
8.9431204504
 11
12.1259533615
 21
8.9762378927
  0
LINE
  5
314
100
AcDbEntity
  8
0
100
AcDbLine
 62
4
  6
CONTINUOUS
 10
12.1370455971
 20
8.6033416399
 11
12.1370455971
 21
8.6364590823
  0
LINE
  5
315
100
AcDbEntity
  8
0
100
AcDbLine
 62
4
  6
CONTINUOUS
 10
12.1481378328
 20
8.9231522301
 11
12.1481378328
 21
8.8900346773
  0
LINE
  5
316
100
AcDbEntity
  8
0
100
AcDbLine
 62
4
  6
CONTINUOUS
 10
12.1481378328
 20
8.7879225726
 11
12.1481378328
 21
8.7713638515
  0
LINE
  5
317
100
AcDbEntity
  8
0
100
AcDbLine
 62
4
  6
CONTINUOUS
 10
12.1481378328
 20
8.6471733598
 11
12.1481378328
 21
8.6140559175
  0
LINE
  5
318
100
AcDbEntity
  8
0
100
AcDbLine
 62
4
  6
CONTINUOUS
 10
12.1481378328
 20
8.4898654258
 11
12.1481378328
 21
8.4567479835
  0
LINE
  5
319
100
AcDbEntity
  8
0
100
AcDbLine
 62
4
  6
CONTINUOUS
 10
12.1481378328
 20
7.9296284394
 11
12.1481378328
 21
7.9627458982
  0
LINE
  5
31A
100
AcDbEntity
  8
0
100
AcDbLine
 62
4
  6
CONTINUOUS
 10
12.1481378328
 20
8.0289808105
 11
12.1481378328
 21
8.0538189129
  0
LINE
  5
31B
100
AcDbEntity
  8
0
100
AcDbLine
 62
4
  6
CONTINUOUS
 10
12.1481378328
 20
8.6885701904
 11
12.1481378328
 21
8.7299670209
  0
LINE
  5
31C
100
AcDbEntity
  8
0
100
AcDbLine
 62
4
  6
CONTINUOUS
 10
12.1481378328
 20
8.9645490054
 11
12.1481378328
 21
8.9976664477
  0
LINE
  5
31D
100
AcDbEntity
  8
0
100
AcDbLine
 62
4
  6
CONTINUOUS
 10
12.1555326564
 20
8.3755776186
 11
12.1555326564
 21
8.3921363398
  0
LINE
  5
31E
100
AcDbEntity
  8
0
100
AcDbLine
 62
4
  6
CONTINUOUS
 10
12.207148525
 20
8.6158600574
 11
12.207148525
 21
8.5910219619
  0
LINE
  5
31F
100
AcDbEntity
  8
0
100
AcDbLine
 62
4
  6
CONTINUOUS
 10
12.1377850794
 20
8.9876664553
 11
12.1363061148
 21
8.9531204428
  0
LINE
  5
320
100
AcDbEntity
  8
0
100
AcDbLine
 62
4
  6
CONTINUOUS
 10
12.1481378328
 20
8.6140559175
 11
12.1459193856
 21
8.5953543408
  0
LINE
  5
321
100
AcDbEntity
  8
0
100
AcDbLine
 62
4
  6
CONTINUOUS
 10
12.1481378328
 20
8.4567479835
 11
12.1459193856
 21
8.4380464068
  0
LINE
  5
322
100
AcDbEntity
  8
0
100
AcDbLine
 62
4
  6
CONTINUOUS
 10
12.2873084121
 20
9.0355023277
 11
12.2932242715
 21
9.0853732176
  0
LINE
  5
323
100
AcDbEntity
  8
0
100
AcDbLine
 62
4
  6
CONTINUOUS
 10
12.139264044
 20
8.9973743585
 11
12.1377850794
 21
8.9876664553
  0
LINE
  5
324
100
AcDbEntity
  8
0
100
AcDbLine
 62
4
  6
CONTINUOUS
 10
12.1363061148
 20
8.9531204428
 11
12.1348271502
 21
8.9434125396
  0
LINE
  5
325
100
AcDbEntity
  8
0
100
AcDbLine
 62
4
  6
CONTINUOUS
 10
12.139264044
 20
7.970733204
 11
12.1259533615
 21
7.8999205195
  0
LINE
  5
326
100
AcDbEntity
  8
0
100
AcDbLine
 62
4
  6
CONTINUOUS
 10
12.1259533615
 20
8.9762378927
 11
12.1281718093
 21
8.9866600819
  0
LINE
  5
327
100
AcDbEntity
  8
0
100
AcDbLine
 62
4
  6
CONTINUOUS
 10
12.1459193856
 20
8.9541268169
 11
12.1481378328
 21
8.9645490054
  0
LINE
  5
328
100
AcDbEntity
  8
0
100
AcDbLine
 62
4
  6
CONTINUOUS
 10
12.1481378328
 20
8.8900346773
 11
12.1459193856
 21
8.8796124888
  0
LINE
  5
329
100
AcDbEntity
  8
0
100
AcDbLine
 62
4
  6
CONTINUOUS
 10
12.1481378328
 20
8.7713638515
 11
12.1459193856
 21
8.7609416077
  0
LINE
  5
32A
100
AcDbEntity
  8
0
100
AcDbLine
 62
4
  6
CONTINUOUS
 10
12.1459193856
 20
8.6781479466
 11
12.1481378328
 21
8.6885701904
  0
LINE
  5
32B
100
AcDbEntity
  8
0
100
AcDbLine
 62
4
  6
CONTINUOUS
 10
12.1259533615
 20
8.3056093815
 11
12.1281718093
 21
8.3160315983
  0
LINE
  5
32C
100
AcDbEntity
  8
0
100
AcDbLine
 62
4
  6
CONTINUOUS
 10
12.2115854189
 20
8.6367045031
 11
12.207148525
 21
8.6158600574
  0
LINE
  5
32D
100
AcDbEntity
  8
0
100
AcDbLine
 62
4
  6
CONTINUOUS
 10
12.275476695
 20
8.8778049978
 11
12.2799135889
 21
8.8986494296
  0
LINE
  5
32E
100
AcDbEntity
  8
0
100
AcDbLine
 62
4
  6
CONTINUOUS
 10
12.275476695
 20
8.7867320038
 11
12.2799135889
 21
8.8075764356
  0
LINE
  5
32F
100
AcDbEntity
  8
0
100
AcDbLine
 62
4
  6
CONTINUOUS
 10
12.1170795737
 20
7.9410252859
 11
12.1192980215
 21
7.9514475061
  0
LINE
  5
330
100
AcDbEntity
  8
0
100
AcDbLine
 62
4
  6
CONTINUOUS
 10
12.3065349541
 20
8.7918938707
 11
12.3020980597
 21
8.7710494385
  0
LINE
  5
331
100
AcDbEntity
  8
0
100
AcDbLine
 62
4
  6
CONTINUOUS
 10
12.1437009384
 20
8.0081363713
 11
12.1481378328
 21
8.0289808105
  0
LINE
  5
332
100
AcDbEntity
  8
0
100
AcDbLine
 62
4
  6
CONTINUOUS
 10
12.1259533615
 20
8.5346718107
 11
12.1281718093
 21
8.5423342222
  0
LINE
  5
333
100
AcDbEntity
  8
0
100
AcDbLine
 62
4
  6
CONTINUOUS
 10
12.1303902553
 20
8.6300305154
 11
12.1259533615
 21
8.6174654718
  0
LINE
  5
334
100
AcDbEntity
  8
0
100
AcDbLine
 62
4
  6
CONTINUOUS
 10
12.207148525
 20
8.4088759461
 11
12.2382067841
 21
8.4968314742
  0
LINE
  5
335
100
AcDbEntity
  8
0
100
AcDbLine
 62
4
  6
CONTINUOUS
 10
12.1170795737
 20
8.0734951139
 11
12.1481378328
 21
8.161450642
  0
LINE
  5
336
100
AcDbEntity
  8
0
100
AcDbLine
 62
4
  6
CONTINUOUS
 10
12.1259533615
 20
8.347006212
 11
12.1481378328
 21
8.3932728765
  0
LINE
  5
337
100
AcDbEntity
  8
0
100
AcDbLine
 62
4
  6
CONTINUOUS
 10
12.275476695
 20
8.3092886465
 11
12.3065349541
 21
8.3724060929
  0
LINE
  5
338
100
AcDbEntity
  8
0
100
AcDbLine
 62
4
  6
CONTINUOUS
 10
12.1481378328
 20
8.161450642
 11
12.1170795737
 21
8.1314506656
  0
LINE
  5
339
100
AcDbEntity
  8
0
100
AcDbLine
 62
4
  6
CONTINUOUS
 10
12.2799135889
 20
8.2335405014
 11
12.3020980597
 21
8.254969056
  0
LINE
  5
33A
100
AcDbEntity
  8
0
100
AcDbLine
 62
4
  6
CONTINUOUS
 10
12.1481378328
 20
8.1034950903
 11
12.1170795737
 21
8.0734951139
  0
LINE
  5
33B
100
AcDbEntity
  8
0
100
AcDbLine
 62
4
  6
CONTINUOUS
 10
12.1437009384
 20
8.066091923
 11
12.1170795737
 21
8.0403776578
  0
LINE
  5
33C
100
AcDbEntity
  8
0
100
AcDbLine
 62
4
  6
CONTINUOUS
 10
12.3065349541
 20
8.2012992223
 11
12.275476695
 21
8.1712992459
  0
LINE
  5
33D
100
AcDbEntity
  8
0
100
AcDbLine
 62
4
  6
CONTINUOUS
 10
12.1170795737
 20
7.982422106
 11
12.1437009384
 21
8.0081363713
  0
LINE
  5
33E
100
AcDbEntity
  8
0
100
AcDbLine
 62
4
  6
CONTINUOUS
 10
12.1437009384
 20
7.9750189151
 11
12.139264044
 21
7.970733204
  0
LINE
  5
33F
100
AcDbEntity
  8
0
100
AcDbLine
 62
4
  6
CONTINUOUS
 10
12.1259533615
 20
7.8999205195
 11
12.1215164676
 21
7.8956348088
  0
LINE
  5
340
100
AcDbEntity
  8
0
100
AcDbLine
 62
4
  6
CONTINUOUS
 10
12.207148525
 20
8.5910219619
 11
12.2138038668
 21
8.5808918076
  0
LINE
  5
341
100
AcDbEntity
  8
0
100
AcDbLine
 62
4
  6
CONTINUOUS
 10
12.2382067841
 20
8.604463217
 11
12.2160223128
 21
8.6409902137
  0
LINE
  5
342
100
AcDbEntity
  8
0
100
AcDbLine
 62
4
  6
CONTINUOUS
 10
12.3020980597
 20
8.254969056
 11
12.3065349541
 21
8.242696039
  0
LINE
  5
343
100
AcDbEntity
  8
0
100
AcDbLine
 62
4
  6
CONTINUOUS
 10
12.2382067841
 20
8.5547870259
 11
12.2337698898
 21
8.5670600498
  0
LINE
  5
344
100
AcDbEntity
  8
0
100
AcDbLine
 62
4
  6
CONTINUOUS
 10
12.1281718093
 20
8.8624696455
 11
12.1259533615
 21
8.8686061222
  0
LINE
  5
345
100
AcDbEntity
  8
0
100
AcDbLine
 62
4
  6
CONTINUOUS
 10
12.1281718093
 20
8.9369839736
 11
12.1259533615
 21
8.9431204504
  0
LINE
  5
346
100
AcDbEntity
  8
0
100
AcDbLine
 62
4
  6
CONTINUOUS
 10
12.1281718093
 20
8.4209035635
 11
12.1259533615
 21
8.4353194284
  0
LINE
  5
347
100
AcDbEntity
  8
0
100
AcDbLine
 62
4
  6
CONTINUOUS
 10
12.139264044
 20
8.5889257741
 11
12.1370455971
 21
8.6033416399
  0
LINE
  5
348
100
AcDbEntity
  8
0
100
AcDbLine
 62
4
  6
CONTINUOUS
 10
12.2873084121
 20
8.1606495001
 11
12.2932242715
 21
8.1222071702
  0
LINE
  5
349
100
AcDbEntity
  8
0
100
AcDbLine
 62
4
  6
CONTINUOUS
 10
12.2382067841
 20
8.6624187688
 11
12.2382067841
 21
8.604463217
  0
LINE
  5
34A
100
AcDbEntity
  8
0
100
AcDbLine
 62
4
  6
CONTINUOUS
 10
12.2382067841
 20
8.5299489303
 11
12.2382067841
 21
8.5547870259
  0
LINE
  5
34B
100
AcDbEntity
  8
0
100
AcDbLine
 62
4
  6
CONTINUOUS
 10
12.275476695
 20
8.1712992459
 11
12.275476695
 21
8.2126960626
  0
LINE
  5
34C
100
AcDbEntity
  8
0
100
AcDbLine
 62
4
  6
CONTINUOUS
 10
12.275476695
 20
8.3755235588
 11
12.275476695
 21
8.4417584711
  0
LINE
  5
34D
100
AcDbEntity
  8
0
100
AcDbLine
 62
4
  6
CONTINUOUS
 10
12.275476695
 20
8.4748759411
 11
12.275476695
 21
8.5245521322
  0
LINE
  5
34E
100
AcDbEntity
  8
0
100
AcDbLine
 62
4
  6
CONTINUOUS
 10
12.275476695
 20
8.665301345
 11
12.275476695
 21
8.6984187874
  0
LINE
  5
34F
100
AcDbEntity
  8
0
100
AcDbLine
 62
4
  6
CONTINUOUS
 10
12.275476695
 20
8.7618938944
 11
12.275476695
 21
8.7867320038
  0
LINE
  5
350
100
AcDbEntity
  8
0
100
AcDbLine
 62
4
  6
CONTINUOUS
 10
12.275476695
 20
8.8364081673
 11
12.275476695
 21
8.8778049978
  0
LINE
  5
351
100
AcDbEntity
  8
0
100
AcDbLine
 62
4
  6
CONTINUOUS
 10
12.275476695
 20
8.9412801601
 11
12.275476695
 21
8.9909563236
  0
LINE
  5
352
100
AcDbEntity
  8
0
100
AcDbLine
 62
4
  6
CONTINUOUS
 10
12.2887873767
 20
8.9872547344
 11
12.2887873767
 21
8.9541372921
  0
LINE
  5
353
100
AcDbEntity
  8
0
100
AcDbLine
 62
4
  6
CONTINUOUS
 10
12.2887873767
 20
8.520850543
 11
12.2887873767
 21
8.4877330731
  0
LINE
  5
354
100
AcDbEntity
  8
0
100
AcDbLine
 62
4
  6
CONTINUOUS
 10
12.2976611654
 20
8.3086388966
 11
12.2976611654
 21
8.3527955048
  0
LINE
  5
355
100
AcDbEntity
  8
0
100
AcDbLine
 62
4
  6
CONTINUOUS
 10
12.3065349541
 20
8.9078049742
 11
12.3065349541
 21
8.8664081436
  0
LINE
  5
356
100
AcDbEntity
  8
0
100
AcDbLine
 62
4
  6
CONTINUOUS
 10
12.3065349541
 20
8.8167319801
 11
12.3065349541
 21
8.7918938707
  0
LINE
  5
357
100
AcDbEntity
  8
0
100
AcDbLine
 62
4
  6
CONTINUOUS
 10
12.3065349541
 20
8.7284187637
 11
12.3065349541
 21
8.6953013214
  0
LINE
  5
358
100
AcDbEntity
  8
0
100
AcDbLine
 62
4
  6
CONTINUOUS
 10
12.3065349541
 20
8.242696039
 11
12.3065349541
 21
8.2012992223
  0
LINE
  5
359
100
AcDbEntity
  8
0
100
AcDbLine
 62
4
  6
CONTINUOUS
 10
12.3065349541
 20
8.5048759174
 11
12.3065349541
 21
8.5545521086
  0
LINE
  5
35A
100
AcDbEntity
  8
0
100
AcDbLine
 62
4
  6
CONTINUOUS
 10
12.3065349541
 20
8.9712801365
 11
12.3065349541
 21
9.0209563
  0
LINE
  5
35B
100
AcDbEntity
  8
0
100
AcDbLine
 62
7
  6
CONTINUOUS
 10
12.42652665
 20
11.478858379
 11
12.42652665
 21
10.5428761979
  0
LINE
  5
35C
100
AcDbEntity
  8
0
100
AcDbLine
 62
7
  6
CONTINUOUS
 10
12.42652665
 20
6.2261534244
 11
12.42652665
 21
6.9793948701
  0
LINE
  5
35D
100
AcDbEntity
  8
0
100
AcDbLine
 62
7
  6
CONTINUOUS
 10
12.4393044437
 20
6.9917372718
 11
12.4393044437
 21
6.2512736198
  0
LINE
  5
35E
100
AcDbEntity
  8
0
100
AcDbLine
 62
7
  6
CONTINUOUS
 10
12.4393044437
 20
10.5679963932
 11
12.4393044437
 21
11.5039785743
  0
LINE
  5
35F
100
AcDbEntity
  8
0
100
AcDbLine
 62
4
  6
CONTINUOUS
 10
12.2932242715
 20
8.1222071702
 11
12.2991401305
 21
8.1720780632
  0
LINE
  5
360
100
AcDbEntity
  8
0
100
AcDbLine
 62
4
  6
CONTINUOUS
 10
12.3065349541
 20
8.6953013214
 11
12.3020980597
 21
8.6744568891
  0
LINE
  5
361
100
AcDbEntity
  8
0
100
AcDbLine
 62
4
  6
CONTINUOUS
 10
12.1459193856
 20
7.919206219
 11
12.1481378328
 21
7.9296284394
  0
LINE
  5
362
100
AcDbEntity
  8
0
100
AcDbLine
 62
4
  6
CONTINUOUS
 10
12.275476695
 20
8.2126960626
 11
12.2799135889
 21
8.2335405014
  0
LINE
  5
363
100
AcDbEntity
  8
0
100
AcDbLine
 62
7
  6
CONTINUOUS
 10
11.8272024956
 20
9.9019734846
 11
9.4123877868
 21
10.0694414534
  0
LINE
  5
364
100
AcDbEntity
  8
0
100
AcDbLine
 62
7
  6
CONTINUOUS
 10
11.4092339811
 20
9.9352468779
 11
9.8396044204
 21
10.0441010577
  0
LINE
  5
365
100
AcDbEntity
  8
0
100
AcDbLine
 62
4
  6
CONTINUOUS
 10
12.1481378328
 20
8.9976664477
 11
12.1459193856
 21
9.0038029251
  0
LINE
  5
366
100
AcDbEntity
  8
0
100
AcDbLine
 62
4
  6
CONTINUOUS
 10
12.2799135889
 20
8.6530283345
 11
12.275476695
 21
8.665301345
  0
LINE
  5
367
100
AcDbEntity
  8
0
100
AcDbLine
 62
4
  6
CONTINUOUS
 10
12.2799135889
 20
8.7496208839
 11
12.275476695
 21
8.7618938944
  0
LINE
  5
368
100
AcDbEntity
  8
0
100
AcDbLine
 62
4
  6
CONTINUOUS
 10
12.3020980597
 20
8.8290049902
 11
12.3065349541
 21
8.8167319801
  0
LINE
  5
369
100
AcDbEntity
  8
0
100
AcDbLine
 62
4
  6
CONTINUOUS
 10
12.3020980597
 20
8.9200779842
 11
12.3065349541
 21
8.9078049742
  0
LINE
  5
36A
100
AcDbEntity
  8
0
100
AcDbLine
 62
4
  6
CONTINUOUS
 10
12.2932242715
 20
9.0853732176
 11
12.2991401305
 21
9.0469308908
  0
LINE
  5
36B
100
AcDbEntity
  8
0
100
AcDbLine
 62
7
  6
CONTINUOUS
 10
12.5876122132
 20
10.6364729128
 11
12.5876122132
 21
7.1349915851
  0
LINE
  5
36C
100
AcDbEntity
  8
0
100
AcDbLine
 62
7
  6
CONTINUOUS
 10
12.5876122132
 20
7.1349915851
 11
11.8272024956
 21
6.4004921568
  0
LINE
  5
36D
100
AcDbEntity
  8
0
100
AcDbLine
 62
7
  6
CONTINUOUS
 10
12.4393044437
 20
10.6467580916
 11
12.5876122132
 21
10.6364729128
  0
LINE
  5
36E
100
AcDbEntity
  8
0
100
AcDbLine
 62
7
  6
CONTINUOUS
 10
11.4092339811
 20
10.8712290591
 11
9.8396044204
 21
10.9800832388
  0
LINE
  5
36F
100
AcDbEntity
  8
0
100
AcDbLine
 62
7
  6
CONTINUOUS
 10
11.4172573649
 20
10.9089227555
 11
9.8476278042
 21
11.0177769353
  0
LINE
  5
370
100
AcDbEntity
  8
0
100
AcDbLine
 62
7
  6
CONTINUOUS
 10
11.8385695469
 20
10.9718790971
 11
11.8685132493
 21
10.9398587919
  0
LINE
  5
371
100
AcDbEntity
  8
0
100
AcDbLine
 62
7
  6
CONTINUOUS
 10
11.8685132493
 20
5.6871538373
 11
12.42652665
 21
6.2261534244
  0
LINE
  5
372
100
AcDbEntity
  8
0
100
AcDbLine
 62
7
  6
CONTINUOUS
 10
11.8675784592
 20
5.6862676943
 11
11.8685132493
 21
5.6871538373
  0
LINE
  5
373
100
AcDbEntity
  8
0
100
AcDbLine
 62
7
  6
CONTINUOUS
 10
11.8675784592
 20
5.6862676943
 11
11.8377120328
 21
5.6584738492
  0
LINE
  5
374
100
AcDbEntity
  8
0
100
AcDbLine
 62
4
  6
CONTINUOUS
 10
10.8152341773
 20
10.9729129742
 11
10.8892389793
 21
10.9918961292
  0
LINE
  5
375
100
AcDbEntity
  8
0
100
AcDbLine
 62
4
  6
CONTINUOUS
 10
10.8892389793
 20
10.9918961292
 11
10.8240389837
 21
10.9964177643
  0
LINE
  5
376
100
AcDbEntity
  8
0
100
AcDbLine
 62
7
  6
CONTINUOUS
 10
11.5626588632
 20
5.3601301132
 11
11.5319848528
 21
5.3449777394
  0
LINE
  5
377
100
AcDbEntity
  8
0
100
AcDbLine
 62
7
  6
CONTINUOUS
 10
12.3965829476
 20
11.5108786842
 11
12.42652665
 21
11.478858379
  0
LINE
  5
378
100
AcDbEntity
  8
0
100
AcDbLine
 62
7
  6
CONTINUOUS
 10
10.583708561
 20
11.7287763906
 11
12.1533381217
 21
11.6199222109
  0
LINE
  5
379
100
AcDbEntity
  8
0
100
AcDbLine
 62
7
  6
CONTINUOUS
 10
12.4255918599
 20
11.5299849127
 11
12.3957254335
 21
11.5577787578
  0
ARC
  5
37A
100
AcDbEntity
  8
0
100
AcDbCircle
 62
7
  6
CONTINUOUS
 10
11.051415265
 20
7.5019968141
 40
2.210103635
100
AcDbArc
 50
273.2665005552
 51
274.6677615151
  0
ARC
  5
37B
100
AcDbEntity
  8
0
100
AcDbCircle
 62
7
  6
CONTINUOUS
 10
10.8314406914
 20
6.2629609302
 40
0.9538158545
100
AcDbArc
 50
254.2644742826
 51
256.7139235525
  0
ARC
  5
37C
100
AcDbEntity
  8
0
100
AcDbCircle
 62
7
  6
CONTINUOUS
 10
11.2237778616
 20
6.0450253144
 40
0.7641475746
100
AcDbArc
 50
293.7608747297
 51
296.3085175792
  0
ARC
  5
37D
100
AcDbEntity
  8
0
100
AcDbCircle
 62
7
  6
CONTINUOUS
 10
10.515830092
 20
8.740594187
 40
0.2059219988
100
AcDbArc
 50
318.2365585471
 51
338.6967419572
  0
ARC
  5
37E
100
AcDbEntity
  8
0
100
AcDbCircle
 62
7
  6
CONTINUOUS
 10
10.6306266328
 20
8.6261092729
 40
0.1607222631
100
AcDbArc
 50
220.1683376596
 51
234.6160265226
  0
SPLINE
  5
37F
100
AcDbEntity
  8
0
100
AcDbSpline
 62
7
  6
CONTINUOUS
 70
0
 71
3
 72
9
 73
5
 74
0
 42
0.0000001
 43
0.0000001
 44
0.0000000001
 40
0.0
 40
0.0
 40
0.0
 40
0.0
 40
0.2426770998
 40
1.0
 40
1.0
 40
1.0
 40
1.0
 10
11.6527727526
 20
5.4132299534
 30
0.0
 10
11.6521645621
 20
5.4126424865
 30
0.0
 10
11.6496315107
 20
5.4102496053
 30
0.0
 10
11.646995797
 20
5.4079661358
 30
0.0
 10
11.6449549949
 20
5.4062932694
 30
0.0
  0
SPLINE
  5
380
100
AcDbEntity
  8
0
100
AcDbSpline
 62
7
  6
CONTINUOUS
 70
0
 71
3
 72
9
 73
5
 74
0
 42
0.0000001
 43
0.0000001
 44
0.0000000001
 40
0.0
 40
0.0
 40
0.0
 40
0.0
 40
0.2426666479
 40
1.0
 40
1.0
 40
1.0
 40
1.0
 10
11.6594030192
 20
5.4202489901
 30
0.0
 10
11.6588953914
 20
5.4196552172
 30
0.0
 10
11.6567716956
 20
5.4172356327
 30
0.0
 10
11.6545262872
 20
5.4149237379
 30
0.0
 10
11.6527727526
 20
5.4132299534
 30
0.0
  0
SPLINE
  5
381
100
AcDbEntity
  8
0
100
AcDbSpline
 62
7
  6
CONTINUOUS
 70
0
 71
3
 72
9
 73
5
 74
0
 42
0.0000001
 43
0.0000001
 44
0.0000000001
 40
0.0
 40
0.0
 40
0.0
 40
0.0
 40
0.504378312
 40
1.0
 40
1.0
 40
1.0
 40
1.0
 10
11.6449549949
 20
5.4062932694
 30
0.0
 10
11.6314512446
 20
5.3978844157
 30
0.0
 10
11.6043384072
 20
5.3817497597
 30
0.0
 10
11.5764656107
 20
5.3669525649
 30
0.0
 10
11.5624514728
 20
5.3600277225
 30
0.0
  0
SPLINE
  5
382
100
AcDbEntity
  8
0
100
AcDbSpline
 62
7
  6
CONTINUOUS
 70
0
 71
3
 72
47
 73
43
 74
0
 42
0.0000001
 43
0.0000001
 44
0.0000000001
 40
0.0
 40
0.0
 40
0.0
 40
0.0
 40
0.0099874638
 40
0.0204476834
 40
0.0313771515
 40
0.0427708334
 40
0.0546218702
 40
0.0669225517
 40
0.0796641282
 40
0.0928362942
 40
0.1204271347
 40
0.1495984091
 40
0.1802407165
 40
0.2122338314
 40
0.2454489836
 40
0.2797497839
 40
0.3149929168
 40
0.3510298084
 40
0.3877071885
 40
0.4248680172
 40
0.4623527228
 40
0.4999997959
 40
0.5376468789
 40
0.575131606
 40
0.6122924455
 40
0.6489698269
 40
0.6850067267
 40
0.7202498875
 40
0.7545507276
 40
0.7877659112
 40
0.8197590481
 40
0.8504013805
 40
0.8795726993
 40
0.9071635849
 40
0.9203357726
 40
0.933077377
 40
0.9453780958
 40
0.9572291635
 40
0.968622847
 40
0.9795522717
 40
0.9900124597
 40
1.0
 40
1.0
 40
1.0
 40
1.0
 10
11.5319887382
 20
5.344979694
 30
0.0
 10
11.5289982038
 20
5.3435024163
 30
0.0
 10
11.5228244974
 20
5.3405805005
 30
0.0
 10
11.513222299
 20
5.3363810568
 30
0.0
 10
11.5030741209
 20
5.332268222
 30
0.0
 10
11.492391673
 20
5.3282470122
 30
0.0
 10
11.4811872973
 20
5.324321707
 30
0.0
 10
11.4694737966
 20
5.3204969879
 30
0.0
 10
11.4572645407
 20
5.3167774171
 30
0.0
 10
11.4400767118
 20
5.3118878853
 30
0.0
 10
11.4174463996
 20
5.3060924038
 30
0.0
 10
11.3889551212
 20
5.2997237316
 30
0.0
 10
11.3588550723
 20
5.2938682077
 30
0.0
 10
11.327285066
 20
5.288552866
 30
0.0
 10
11.2943904081
 20
5.2838027096
 30
0.0
 10
11.260322757
 20
5.2796401775
 30
0.0
 10
11.2252392984
 20
5.2760844495
 30
0.0
 10
11.1893019776
 20
5.2731522791
 30
0.0
 10
11.1526767166
 20
5.2708574945
 30
0.0
 10
11.1155326842
 20
5.269210547
 30
0.0
 10
11.0780414602
 20
5.268219311
 30
0.0
 10
11.04037622
 20
5.2678884544
 30
0.0
 10
11.0027109724
 20
5.2682192943
 30
0.0
 10
10.9652197339
 20
5.2692105143
 30
0.0
 10
10.9280756895
 20
5.270857445
 30
0.0
 10
10.8914504207
 20
5.2731522135
 30
0.0
 10
10.855513086
 20
5.276084367
 30
0.0
 10
10.8204296005
 20
5.2796400804
 30
0.0
 10
10.7863619143
 20
5.2838025979
 30
0.0
 10
10.7534672229
 20
5.2885527409
 30
0.0
 10
10.7218971875
 20
5.2938680668
 30
0.0
 10
10.6917971046
 20
5.2997235764
 30
0.0
 10
10.663305785
 20
5.3060922391
 30
0.0
 10
10.640675431
 20
5.3118877071
 30
0.0
 10
10.6234875666
 20
5.3167772294
 30
0.0
 10
10.6112782798
 20
5.3204967987
 30
0.0
 10
10.5995647477
 20
5.324321525
 30
0.0
 10
10.5883603483
 20
5.3282468328
 30
0.0
 10
10.5776778976
 20
5.3322680243
 30
0.0
 10
10.5675297255
 20
5.3363808081
 30
0.0
 10
10.5579275095
 20
5.3405802134
 30
0.0
 10
10.5517537883
 20
5.3435021341
 30
0.0
 10
10.5487632353
 20
5.3449794317
 30
0.0
  0
SPLINE
  5
383
100
AcDbEntity
  8
0
100
AcDbSpline
 62
7
  6
CONTINUOUS
 70
0
 71
3
 72
23
 73
19
 74
0
 42
0.0000001
 43
0.0000001
 44
0.0000000001
 40
0.0
 40
0.0
 40
0.0
 40
0.0
 40
0.0436203086
 40
0.0892268542
 40
0.137068591
 40
0.187353676
 40
0.2402538462
 40
0.2958872461
 40
0.3543311569
 40
0.4156094827
 40
0.4797102731
 40
0.5465788188
 40
0.6161346312
 40
0.6882694307
 40
0.7628606873
 40
0.8397744221
 40
0.9188692703
 40
1.0
 40
1.0
 40
1.0
 40
1.0
 10
10.5297569758
 20
5.3543681819
 30
0.0
 10
10.5274470402
 20
5.3555087504
 30
0.0
 10
10.5228099165
 20
5.3580238469
 30
0.0
 10
10.515982627
 20
5.362384899
 30
0.0
 10
10.5091462381
 20
5.3674271855
 30
0.0
 10
10.5023046884
 20
5.3731581178
 30
0.0
 10
10.4954635902
 20
5.3795817686
 30
0.0
 10
10.4886260497
 20
5.386693341
 30
0.0
 10
10.4817977906
 20
5.394484153
 30
0.0
 10
10.4749815465
 20
5.4029375555
 30
0.0
 10
10.4681823779
 20
5.4120334614
 30
0.0
 10
10.4614025277
 20
5.4217458433
 30
0.0
 10
10.4546458608
 20
5.4320463914
 30
0.0
 10
10.4479139738
 20
5.4429033455
 30
0.0
 10
10.4412092568
 20
5.454284199
 30
0.0
 10
10.4345326076
 20
5.4661552814
 30
0.0
 10
10.4278851152
 20
5.4784831205
 30
0.0
 10
10.4235259971
 20
5.4868825376
 30
0.0
 10
10.4213484656
 20
5.4911506705
 30
0.0
  0
SPLINE
  5
384
100
AcDbEntity
  8
0
100
AcDbSpline
 62
7
  6
CONTINUOUS
 70
0
 71
3
 72
21
 73
17
 74
0
 42
0.0000001
 43
0.0000001
 44
0.0000000001
 40
0.0
 40
0.0
 40
0.0
 40
0.0
 40
0.1230212981
 40
0.1847065752
 40
0.2465215318
 40
0.3084771567
 40
0.3705832678
 40
0.432847904
 40
0.4952752623
 40
0.5578663069
 40
0.6206183946
 40
0.6835249868
 40
0.7465773451
 40
0.8097643485
 40
0.8730733734
 40
1.0
 40
1.0
 40
1.0
 40
1.0
 10
11.1773476575
 20
5.2954839295
 30
0.0
 10
11.1542684765
 20
5.2909365734
 30
0.0
 10
11.119436035
 20
5.284964167
 30
0.0
 10
11.07266482
 20
5.2790540196
 30
0.0
 10
11.0373535114
 20
5.2757268056
 30
0.0
 10
11.0018690686
 20
5.273592398
 30
0.0
 10
10.9662443476
 20
5.2727216617
 30
0.0
 10
10.9305211361
 20
5.2731705569
 30
0.0
 10
10.8947475144
 20
5.2749725556
 30
0.0
 10
10.8589749882
 20
5.2781358415
 30
0.0
 10
10.8232550482
 20
5.2826447921
 30
0.0
 10
10.7876354349
 20
5.2884590339
 30
0.0
 10
10.7521572954
 20
5.295516748
 30
0.0
 10
10.7168531046
 20
5.3037424377
 30
0.0
 10
10.6700091785
 20
5.3161619897
 30
0.0
 10
10.6352487688
 20
5.3269497841
 30
0.0
 10
10.612241183
 20
5.3346741966
 30
0.0
  0
SPLINE
  5
385
100
AcDbEntity
  8
0
100
AcDbSpline
 62
7
  6
CONTINUOUS
 70
0
 71
3
 72
11
 73
7
 74
0
 42
0.0000001
 43
0.0000001
 44
0.0000000001
 40
0.0
 40
0.0
 40
0.0
 40
0.0
 40
0.2465919593
 40
0.494712682
 40
0.7454424776
 40
1.0
 40
1.0
 40
1.0
 40
1.0
 10
10.5727684051
 20
5.3448904904
 30
0.0
 10
10.5708259922
 20
5.3448356557
 30
0.0
 10
10.5669246825
 20
5.3448430022
 30
0.0
 10
10.5610589912
 20
5.345226524
 30
0.0
 10
10.5551689192
 20
5.3460048064
 30
0.0
 10
10.5512624621
 20
5.3467943542
 30
0.0
 10
10.549311017
 20
5.3472588156
 30
0.0
  0
SPLINE
  5
386
100
AcDbEntity
  8
0
100
AcDbSpline
 62
7
  6
CONTINUOUS
 70
0
 71
3
 72
10
 73
6
 74
0
 42
0.0000001
 43
0.0000001
 44
0.0000000001
 40
0.0
 40
0.0
 40
0.0
 40
0.0
 40
0.2418255986
 40
0.4885199497
 40
1.0
 40
1.0
 40
1.0
 40
1.0
 10
10.549311017
 20
5.3472588156
 30
0.0
 10
10.5476764996
 20
5.3476478453
 30
0.0
 10
10.5443961892
 20
5.3485287059
 30
0.0
 10
10.5377972889
 20
5.3507110112
 30
0.0
 10
10.5329434105
 20
5.3527948275
 30
0.0
 10
10.5297569758
 20
5.3543681819
 30
0.0
  0
LINE
  5
387
100
AcDbEntity
  8
0
100
AcDbLine
 62
7
  6
CONTINUOUS
 10
11.5316685146
 20
5.3456506926
 11
11.5309394005
 21
5.345330805
  0
SPLINE
  5
388
100
AcDbEntity
  8
0
100
AcDbSpline
 62
7
  6
CONTINUOUS
 70
0
 71
3
 72
15
 73
11
 74
0
 42
0.0000001
 43
0.0000001
 44
0.0000000001
 40
0.0
 40
0.0
 40
0.0
 40
0.0
 40
0.1321602046
 40
0.2618009952
 40
0.3890353631
 40
0.5141096583
 40
0.6373677171
 40
0.75919507
 40
0.8799649792
 40
1.0
 40
1.0
 40
1.0
 40
1.0
 10
11.5309394005
 20
5.345330805
 30
0.0
 10
11.5185582972
 20
5.3399070628
 30
0.0
 10
11.4937175333
 20
5.3298600737
 30
0.0
 10
11.4559234702
 20
5.3173266363
 30
0.0
 10
11.4180527007
 20
5.3076093468
 30
0.0
 10
11.3802263251
 20
5.3007408426
 30
0.0
 10
11.3425589391
 20
5.2966410141
 30
0.0
 10
11.3051433572
 20
5.2951343262
 30
0.0
 10
11.2680425205
 20
5.2959811739
 30
0.0
 10
11.2434781011
 20
5.2979405239
 30
0.0
 10
11.2312684598
 20
5.2992233565
 30
0.0
  0
SPLINE
  5
389
100
AcDbEntity
  8
0
100
AcDbSpline
 62
7
  6
CONTINUOUS
 70
0
 71
3
 72
70
 73
66
 74
0
 42
0.0000001
 43
0.0000001
 44
0.0000000001
 40
0.0
 40
0.0
 40
0.0
 40
0.0
 40
0.0081224093
 40
0.0169165429
 40
0.0264081669
 40
0.0366137054
 40
0.047540711
 40
0.0591900911
 40
0.0715572998
 40
0.084633204
 40
0.098404768
 40
0.1128555938
 40
0.1279663838
 40
0.1437152667
 40
0.1600780277
 40
0.1770283812
 40
0.1945381853
 40
0.2125775897
 40
0.2311151672
 40
0.2501180963
 40
0.2695522898
 40
0.2893824887
 40
0.3300838549
 40
0.371922258
 40
0.4145852627
 40
0.4577522917
 40
0.5010978111
 40
0.5442945535
 40
0.5870167064
 40
0.6289430907
 40
0.6697604189
 40
0.6896587125
 40
0.7091675363
 40
0.7282514277
 40
0.7468760564
 40
0.7650083741
 40
0.7826167098
 40
0.7996708955
 40
0.8161424517
 40
0.832004765
 40
0.8472332415
 40
0.8618055311
 40
0.8757018459
 40
0.8889052618
 40
0.9014020921
 40
0.9131824184
 40
0.924240804
 40
0.9345771137
 40
0.9394766539
 40
0.9441987045
 40
0.9487452893
 40
0.9531191169
 40
0.957323585
 40
0.9613628382
 40
0.9652419796
 40
0.9689670642
 40
0.972545257
 40
0.9759850059
 40
0.9824862384
 40
0.985575135
 40
0.9885736377
 40
0.9914975972
 40
0.9943642426
 40
0.9971919613
 40
1.0
 40
1.0
 40
1.0
 40
1.0
 10
11.8268818518
 20
10.993589668
 30
0.0
 10
11.8252449636
 20
10.9920085553
 30
0.0
 10
11.8216814411
 20
10.9888733744
 30
0.0
 10
11.8157662117
 20
10.9844189918
 30
0.0
 10
11.8090861266
 20
10.9800390883
 30
0.0
 10
11.801654608
 20
10.9757420573
 30
0.0
 10
11.7934855897
 20
10.9715358148
 30
0.0
 10
11.7845950375
 20
10.967428572
 30
0.0
 10
11.7750003863
 20
10.9634284458
 30
0.0
 10
11.7647206153
 20
10.9595434797
 30
0.0
 10
11.7537761965
 20
10.9557815108
 30
0.0
 10
11.7421890237
 20
10.9521501568
 30
0.0
 10
11.7299823354
 20
10.9486568022
 30
0.0
 10
11.7171806655
 20
10.9453085709
 30
0.0
 10
11.7038097981
 20
10.9421122698
 30
0.0
 10
11.6898966952
 20
10.9390744055
 30
0.0
 10
11.6754694273
 20
10.9362011726
 30
0.0
 10
11.6605571248
 20
10.9334984333
 30
0.0
 10
11.6451899183
 20
10.9309716759
 30
0.0
 10
11.6293988746
 20
10.9286260527
 30
0.0
 10
11.6132158866
 20
10.9264663147
 30
0.0
 10
11.5909668282
 20
10.9238175774
 30
0.0
 10
11.5624174959
 20
10.9210141017
 30
0.0
 10
11.5274252951
 20
10.9184781068
 30
0.0
 10
11.491691651
 20
10.9167628584
 30
0.0
 10
11.4555054566
 20
10.9158824603
 30
0.0
 10
11.419159051
 20
10.9158441278
 30
0.0
 10
11.3829461829
 20
10.9166482173
 30
0.0
 10
11.3471594121
 20
10.9182880615
 30
0.0
 10
11.3120880642
 20
10.9207502523
 30
0.0
 10
11.2834562934
 20
10.9234929834
 30
0.0
 10
11.2611286521
 20
10.9260941067
 30
0.0
 10
11.2448779226
 20
10.9282195683
 30
0.0
 10
11.2290132463
 20
10.9305317391
 30
0.0
 10
11.213566673
 20
10.9330259536
 30
0.0
 10
11.1985694263
 20
10.9356971127
 30
0.0
 10
11.1840518038
 20
10.9385397768
 30
0.0
 10
11.1700431298
 20
10.9415481659
 30
0.0
 10
11.1565716774
 20
10.944716153
 30
0.0
 10
11.1436646053
 20
10.9480372731
 30
0.0
 10
11.1313479117
 20
10.9515047619
 30
0.0
 10
11.1196463743
 20
10.9551115762
 30
0.0
 10
11.1085834746
 20
10.9588503744
 30
0.0
 10
11.098181335
 20
10.9627135642
 30
0.0
 10
11.0884607125
 20
10.9666933363
 30
0.0
 10
11.0794408028
 20
10.9707817318
 30
0.0
 10
11.0711395957
 20
10.9749705561
 30
0.0
 10
11.0647242017
 20
10.9786001483
 30
0.0
 10
11.0599758971
 20
10.9815550694
 30
0.0
 10
11.0566683459
 20
10.9837514809
 30
0.0
 10
11.0535523412
 20
10.9859666767
 30
0.0
 10
11.0506294128
 20
10.9881995842
 30
0.0
 10
11.0479009991
 20
10.9904491042
 30
0.0
 10
11.0453685045
 20
10.9927142138
 30
0.0
 10
11.0430331448
 20
10.9949938209
 30
0.0
 10
11.0408961628
 20
10.9972868083
 30
0.0
 10
11.0389585216
 20
10.9995924354
 30
0.0
 10
11.0366854327
 20
11.0026240176
 30
0.0
 10
11.0347552706
 20
11.0057373588
 30
0.0
 10
11.0332227751
 20
11.0089171442
 30
0.0
 10
11.0322968752
 20
11.011268846
 30
0.0
 10
11.0315758479
 20
11.0136262655
 30
0.0
 10
11.0310602678
 20
11.0159882583
 30
0.0
 10
11.0307507566
 20
11.0183531502
 30
0.0
 10
11.030681873
 20
11.0199330796
 30
0.0
 10
11.0306818783
 20
11.0207198619
 30
0.0
  0
SPLINE
  5
38A
100
AcDbEntity
  8
0
100
AcDbSpline
 62
7
  6
CONTINUOUS
 70
0
 71
3
 72
40
 73
36
 74
0
 42
0.0000001
 43
0.0000001
 44
0.0000000001
 40
0.0
 40
0.0
 40
0.0
 40
0.0
 40
0.0311444623
 40
0.0624429464
 40
0.0938877347
 40
0.1254702907
 40
0.1571779705
 40
0.188996169
 40
0.2209078941
 40
0.2528943766
 40
0.2849353707
 40
0.3170095775
 40
0.3490950548
 40
0.3811696427
 40
0.4132113916
 40
0.4451989867
 40
0.4771121643
 40
0.5089321125
 40
0.5406418522
 40
0.5722265907
 40
0.603674042
 40
0.6349747068
 40
0.6661221049
 40
0.6971129533
 40
0.727947284
 40
0.7586284939
 40
0.7891633219
 40
0.8195617482
 40
0.8498368162
 40
0.8800043756
 40
0.9100827498
 40
0.9400923353
 40
0.9550810224
 40
0.9700608656
 40
1.0
 40
1.0
 40
1.0
 40
1.0
 10
11.4949239804
 20
9.3362852518
 30
0.0
 10
11.4982379104
 20
9.33605543
 30
0.0
 10
11.5048678001
 20
9.3353520623
 30
0.0
 10
11.5147322314
 20
9.3335803515
 30
0.0
 10
11.524491037
 20
9.3310986071
 30
0.0
 10
11.5340914345
 20
9.3279203409
 30
0.0
 10
11.543482483
 20
9.324062473
 30
0.0
 10
11.5526140688
 20
9.3195457004
 30
0.0
 10
11.5614375508
 20
9.3143941335
 30
0.0
 10
11.5699059126
 20
9.3086352881
 30
0.0
 10
11.5779740341
 20
9.3022998883
 30
0.0
 10
11.5855989246
 20
9.2954217238
 30
0.0
 10
11.5927399495
 20
9.2880374636
 30
0.0
 10
11.5993590451
 20
9.2801864661
 30
0.0
 10
11.6054209229
 20
9.2719105722
 30
0.0
 10
11.6108932522
 20
9.2632538809
 30
0.0
 10
11.6157468322
 20
9.2542625182
 30
0.0
 10
11.6199557456
 20
9.2449843934
 30
0.0
 10
11.623497497
 20
9.2354689477
 30
0.0
 10
11.6263531321
 20
9.225766894
 30
0.0
 10
11.6285073404
 20
9.2159299504
 30
0.0
 10
11.6299485374
 20
9.2060105686
 30
0.0
 10
11.6306689299
 20
9.1960616579
 30
0.0
 10
11.6306645597
 20
9.1861363066
 30
0.0
 10
11.6299353327
 20
9.1762875019
 30
0.0
 10
11.6284850248
 20
9.1665678477
 30
0.0
 10
11.6263212663
 20
9.1570292871
 30
0.0
 10
11.6234555012
 20
9.1477228159
 30
0.0
 10
11.6199029585
 20
9.1386982407
 30
0.0
 10
11.6156824813
 20
9.1300037892
 30
0.0
 10
11.6108167881
 20
9.1216862914
 30
0.0
 10
11.6062432297
 20
9.1151024295
 30
0.0
 10
11.6022910587
 20
9.1100700664
 30
0.0
 10
11.5981503749
 20
9.1052019034
 30
0.0
 10
11.5948329491
 20
9.1017362032
 30
0.0
 10
11.5925361362
 20
9.0995176457
 30
0.0
  0
SPLINE
  5
38B
100
AcDbEntity
  8
0
100
AcDbSpline
 62
7
  6
CONTINUOUS
 70
0
 71
3
 72
40
 73
36
 74
0
 42
0.0000001
 43
0.0000001
 44
0.0000000001
 40
0.0
 40
0.0
 40
0.0
 40
0.0
 40
0.0311444623
 40
0.0624429464
 40
0.0938877347
 40
0.1254702907
 40
0.1571779705
 40
0.188996169
 40
0.2209078941
 40
0.2528943766
 40
0.2849353707
 40
0.3170095775
 40
0.3490950548
 40
0.3811696427
 40
0.4132113916
 40
0.4451989867
 40
0.4771121643
 40
0.5089321125
 40
0.5406418522
 40
0.5722265907
 40
0.603674042
 40
0.6349747068
 40
0.6661221049
 40
0.6971129533
 40
0.727947284
 40
0.7586284939
 40
0.7891633219
 40
0.8195617482
 40
0.8498368162
 40
0.8800043756
 40
0.9100827498
 40
0.9400923353
 40
0.9550810224
 40
0.9700608656
 40
1.0
 40
1.0
 40
1.0
 40
1.0
 10
11.4949239804
 20
7.2827268935
 30
0.0
 10
11.4982379104
 20
7.2824970717
 30
0.0
 10
11.5048678001
 20
7.281793704
 30
0.0
 10
11.5147322314
 20
7.2800219931
 30
0.0
 10
11.524491037
 20
7.2775402487
 30
0.0
 10
11.5340914345
 20
7.2743619826
 30
0.0
 10
11.543482483
 20
7.2705041146
 30
0.0
 10
11.5526140688
 20
7.265987342
 30
0.0
 10
11.5614375508
 20
7.2608357751
 30
0.0
 10
11.5699059126
 20
7.2550769297
 30
0.0
 10
11.5779740341
 20
7.24874153
 30
0.0
 10
11.5855989246
 20
7.2418633654
 30
0.0
 10
11.5927399495
 20
7.2344791052
 30
0.0
 10
11.5993590451
 20
7.2266281078
 30
0.0
 10
11.6054209229
 20
7.2183522138
 30
0.0
 10
11.6108932522
 20
7.2096955225
 30
0.0
 10
11.6157468322
 20
7.2007041598
 30
0.0
 10
11.6199557456
 20
7.191426035
 30
0.0
 10
11.623497497
 20
7.1819105893
 30
0.0
 10
11.6263531321
 20
7.1722085356
 30
0.0
 10
11.6285073404
 20
7.1623715921
 30
0.0
 10
11.6299485374
 20
7.1524522102
 30
0.0
 10
11.6306689299
 20
7.1425032995
 30
0.0
 10
11.6306645597
 20
7.1325779482
 30
0.0
 10
11.6299353327
 20
7.1227291435
 30
0.0
 10
11.6284850248
 20
7.1130094893
 30
0.0
 10
11.6263212663
 20
7.1034709287
 30
0.0
 10
11.6234555012
 20
7.0941644575
 30
0.0
 10
11.6199029585
 20
7.0851398823
 30
0.0
 10
11.6156824813
 20
7.0764454308
 30
0.0
 10
11.6108167881
 20
7.068127933
 30
0.0
 10
11.6062432297
 20
7.0615440711
 30
0.0
 10
11.6022910587
 20
7.056511708
 30
0.0
 10
11.5981503749
 20
7.0516435451
 30
0.0
 10
11.5948329491
 20
7.0481778448
 30
0.0
 10
11.5925361362
 20
7.0459592874
 30
0.0
  0
SPLINE
  5
38C
100
AcDbEntity
  8
0
100
AcDbSpline
 62
7
  6
CONTINUOUS
 70
0
 71
3
 72
40
 73
36
 74
0
 42
0.0000001
 43
0.0000001
 44
0.0000000001
 40
0.0
 40
0.0
 40
0.0
 40
0.0
 40
0.0311444623
 40
0.0624429464
 40
0.0938877347
 40
0.1254702907
 40
0.1571779705
 40
0.188996169
 40
0.2209078941
 40
0.2528943766
 40
0.2849353707
 40
0.3170095775
 40
0.3490950548
 40
0.3811696427
 40
0.4132113916
 40
0.4451989867
 40
0.4771121643
 40
0.5089321125
 40
0.5406418522
 40
0.5722265907
 40
0.603674042
 40
0.6349747068
 40
0.6661221049
 40
0.6971129533
 40
0.727947284
 40
0.7586284939
 40
0.7891633219
 40
0.8195617482
 40
0.8498368162
 40
0.8800043756
 40
0.9100827498
 40
0.9400923353
 40
0.9550810224
 40
0.9700608656
 40
1.0
 40
1.0
 40
1.0
 40
1.0
 10
9.7456322443
 20
7.4040406874
 30
0.0
 10
9.7489461743
 20
7.4038108656
 30
0.0
 10
9.7555760639
 20
7.4031074979
 30
0.0
 10
9.7654404953
 20
7.4013357871
 30
0.0
 10
9.7751993008
 20
7.3988540427
 30
0.0
 10
9.7847996984
 20
7.3956757765
 30
0.0
 10
9.7941907469
 20
7.3918179086
 30
0.0
 10
9.8033223327
 20
7.387301136
 30
0.0
 10
9.8121458146
 20
7.3821495691
 30
0.0
 10
9.8206141764
 20
7.3763907237
 30
0.0
 10
9.8286822979
 20
7.3700553239
 30
0.0
 10
9.8363071885
 20
7.3631771593
 30
0.0
 10
9.8434482133
 20
7.3557928991
 30
0.0
 10
9.850067309
 20
7.3479419017
 30
0.0
 10
9.8561291867
 20
7.3396660077
 30
0.0
 10
9.8616015161
 20
7.3310093165
 30
0.0
 10
9.8664550961
 20
7.3220179537
 30
0.0
 10
9.8706640095
 20
7.312739829
 30
0.0
 10
9.8742057608
 20
7.3032243833
 30
0.0
 10
9.877061396
 20
7.2935223296
 30
0.0
 10
9.8792156042
 20
7.283685386
 30
0.0
 10
9.8806568013
 20
7.2737660042
 30
0.0
 10
9.8813771937
 20
7.2638170935
 30
0.0
 10
9.8813728236
 20
7.2538917421
 30
0.0
 10
9.8806435966
 20
7.2440429374
 30
0.0
 10
9.8791932887
 20
7.2343232833
 30
0.0
 10
9.8770295302
 20
7.2247847226
 30
0.0
 10
9.874163765
 20
7.2154782515
 30
0.0
 10
9.8706112224
 20
7.2064536762
 30
0.0
 10
9.8663907452
 20
7.1977592248
 30
0.0
 10
9.861525052
 20
7.189441727
 30
0.0
 10
9.8569514936
 20
7.1828578651
 30
0.0
 10
9.8529993225
 20
7.177825502
 30
0.0
 10
9.8488586388
 20
7.172957339
 30
0.0
 10
9.8455412129
 20
7.1694916388
 30
0.0
 10
9.8432444
 20
7.1672730813
 30
0.0
  0
SPLINE
  5
38D
100
AcDbEntity
  8
0
100
AcDbSpline
 62
7
  6
CONTINUOUS
 70
0
 71
3
 72
40
 73
36
 74
0
 42
0.0000001
 43
0.0000001
 44
0.0000000001
 40
0.0
 40
0.0
 40
0.0
 40
0.0
 40
0.0311444623
 40
0.0624429464
 40
0.0938877347
 40
0.1254702907
 40
0.1571779705
 40
0.188996169
 40
0.2209078941
 40
0.2528943766
 40
0.2849353707
 40
0.3170095775
 40
0.3490950548
 40
0.3811696427
 40
0.4132113916
 40
0.4451989867
 40
0.4771121643
 40
0.5089321125
 40
0.5406418522
 40
0.5722265907
 40
0.603674042
 40
0.6349747068
 40
0.6661221049
 40
0.6971129533
 40
0.727947284
 40
0.7586284939
 40
0.7891633219
 40
0.8195617482
 40
0.8498368162
 40
0.8800043756
 40
0.9100827498
 40
0.9400923353
 40
0.9550810224
 40
0.9700608656
 40
1.0
 40
1.0
 40
1.0
 40
1.0
 10
9.7456322443
 20
9.4575990458
 30
0.0
 10
9.7489461743
 20
9.457369224
 30
0.0
 10
9.7555760639
 20
9.4566658563
 30
0.0
 10
9.7654404953
 20
9.4548941454
 30
0.0
 10
9.7751993008
 20
9.452412401
 30
0.0
 10
9.7847996984
 20
9.4492341349
 30
0.0
 10
9.7941907469
 20
9.4453762669
 30
0.0
 10
9.8033223327
 20
9.4408594943
 30
0.0
 10
9.8121458146
 20
9.4357079274
 30
0.0
 10
9.8206141764
 20
9.429949082
 30
0.0
 10
9.8286822979
 20
9.4236136823
 30
0.0
 10
9.8363071885
 20
9.4167355177
 30
0.0
 10
9.8434482133
 20
9.4093512575
 30
0.0
 10
9.850067309
 20
9.4015002601
 30
0.0
 10
9.8561291867
 20
9.3932243661
 30
0.0
 10
9.8616015161
 20
9.3845676748
 30
0.0
 10
9.8664550961
 20
9.3755763121
 30
0.0
 10
9.8706640095
 20
9.3662981873
 30
0.0
 10
9.8742057608
 20
9.3567827416
 30
0.0
 10
9.877061396
 20
9.3470806879
 30
0.0
 10
9.8792156042
 20
9.3372437444
 30
0.0
 10
9.8806568013
 20
9.3273243625
 30
0.0
 10
9.8813771937
 20
9.3173754518
 30
0.0
 10
9.8813728236
 20
9.3074501005
 30
0.0
 10
9.8806435966
 20
9.2976012958
 30
0.0
 10
9.8791932887
 20
9.2878816416
 30
0.0
 10
9.8770295302
 20
9.278343081
 30
0.0
 10
9.874163765
 20
9.2690366098
 30
0.0
 10
9.8706112224
 20
9.2600120346
 30
0.0
 10
9.8663907452
 20
9.2513175831
 30
0.0
 10
9.861525052
 20
9.2430000853
 30
0.0
 10
9.8569514936
 20
9.2364162234
 30
0.0
 10
9.8529993225
 20
9.2313838603
 30
0.0
 10
9.8488586388
 20
9.2265156974
 30
0.0
 10
9.8455412129
 20
9.2230499971
 30
0.0
 10
9.8432444
 20
9.2208314397
 30
0.0
  0
SPLINE
  5
38E
100
AcDbEntity
  8
0
100
AcDbSpline
 62
7
  6
CONTINUOUS
 70
0
 71
3
 72
39
 73
35
 74
0
 42
0.0000001
 43
0.0000001
 44
0.0000000001
 40
0.0
 40
0.0
 40
0.0
 40
0.0
 40
0.031889544
 40
0.0638434854
 40
0.0958466549
 40
0.1278877195
 40
0.1599524699
 40
0.1920273189
 40
0.2240984701
 40
0.2561523007
 40
0.2881755459
 40
0.3201554291
 40
0.3520798331
 40
0.3839374592
 40
0.415717943
 40
0.4474119516
 40
0.47901127
 40
0.5105088922
 40
0.5418990986
 40
0.5731774756
 40
0.6043409396
 40
0.635387757
 40
0.6663175747
 40
0.6971313927
 40
0.7278315317
 40
0.7584216033
 40
0.7889064864
 40
0.8192922683
 40
0.84958617
 40
0.8797964763
 40
0.9099324608
 40
0.9400042915
 40
0.9700229252
 40
1.0
 40
1.0
 40
1.0
 40
1.0
 10
11.3471256692
 20
8.3808046401
 30
0.0
 10
11.3507443553
 20
8.3788662623
 30
0.0
 10
11.3578838495
 20
8.374785497
 30
0.0
 10
11.3682502227
 20
8.3680835081
 30
0.0
 10
11.3782526538
 20
8.3608157623
 30
0.0
 10
11.3878575942
 20
8.3530078647
 30
0.0
 10
11.3970338057
 20
8.3446865905
 30
0.0
 10
11.405751624
 20
8.3358808526
 30
0.0
 10
11.4139833983
 20
8.326621063
 30
0.0
 10
11.4217034829
 20
8.3169390783
 30
0.0
 10
11.428888327
 20
8.3068679753
 30
0.0
 10
11.4355165183
 20
8.2964418675
 30
0.0
 10
11.4415688183
 20
8.2856957259
 30
0.0
 10
11.4470282202
 20
8.2746652216
 30
0.0
 10
11.4518799003
 20
8.2633865278
 30
0.0
 10
11.4561111951
 20
8.2518961672
 30
0.0
 10
11.4597115612
 20
8.2402308656
 30
0.0
 10
11.462672555
 20
8.2284274254
 30
0.0
 10
11.4649878065
 20
8.2165226059
 30
0.0
 10
11.4666529064
 20
8.2045530029
 30
0.0
 10
11.467665354
 20
8.1925549641
 30
0.0
 10
11.468024486
 20
8.1805645066
 30
0.0
 10
11.4677314769
 20
8.168617247
 30
0.0
 10
11.466789224
 20
8.1567483344
 30
0.0
 10
11.4652022835
 20
8.1449924064
 30
0.0
 10
11.4629768086
 20
8.133383549
 30
0.0
 10
11.4601205561
 20
8.1219552489
 30
0.0
 10
11.4566428234
 20
8.1107403561
 30
0.0
 10
11.4525543821
 20
8.099771068
 30
0.0
 10
11.4478674394
 20
8.0890788935
 30
0.0
 10
11.4425956869
 20
8.0786946556
 30
0.0
 10
11.4367541539
 20
8.0686482792
 30
0.0
 10
11.4303596606
 20
8.0589694136
 30
0.0
 10
11.4257365809
 20
8.0527763818
 30
0.0
 10
11.4233399764
 20
8.0497518511
 30
0.0
  0
SPLINE
  5
38F
100
AcDbEntity
  8
0
100
AcDbSpline
 62
7
  6
CONTINUOUS
 70
0
 71
3
 72
36
 73
32
 74
0
 42
0.0000001
 43
0.0000001
 44
0.0000000001
 40
0.0
 40
0.0
 40
0.0
 40
0.0
 40
0.029979385
 40
0.0600921286
 40
0.0903553462
 40
0.1207797632
 40
0.1513710464
 40
0.1821294256
 40
0.2130505135
 40
0.2441260161
 40
0.2753446007
 40
0.3066927184
 40
0.3381553502
 40
0.3697166333
 40
0.4013603601
 40
0.4330703653
 40
0.4966014133
 40
0.5284173493
 40
0.5602395694
 40
0.5920546523
 40
0.6238498668
 40
0.6873122661
 40
0.7505584562
 40
0.7820853838
 40
0.8135288647
 40
0.8448802514
 40
0.8761315072
 40
0.9072752801
 40
0.9383049519
 40
0.9692147592
 40
1.0
 40
1.0
 40
1.0
 40
1.0
 10
10.1635962866
 20
9.35752923
 30
0.0
 10
10.1674870393
 20
9.3592418429
 30
0.0
 10
10.1754416327
 20
9.3623322568
 30
0.0
 10
10.1877570962
 20
9.3659196366
 30
0.0
 10
10.2003964436
 20
9.3684536964
 30
0.0
 10
10.213269795
 20
9.3699303665
 30
0.0
 10
10.2262900324
 20
9.3703583384
 30
0.0
 10
10.2393730546
 20
9.3697566981
 30
0.0
 10
10.2524397505
 20
9.368153551
 30
0.0
 10
10.2654169239
 20
9.3655840827
 30
0.0
 10
10.2782378868
 20
9.3620887838
 30
0.0
 10
10.2908425838
 20
9.3577117925
 30
0.0
 10
10.3031774868
 20
9.3524994112
 30
0.0
 10
10.3151949561
 20
9.3464991187
 30
0.0
 10
10.3268535863
 20
9.339757934
 30
0.0
 10
10.3418755994
 20
9.3298414387
 30
0.0
 10
10.3560355357
 20
9.3186289104
 30
0.0
 10
10.369212514
 20
9.3063100051
 30
0.0
 10
10.3785949173
 20
9.2965451631
 30
0.0
 10
10.3874471528
 20
9.2863018227
 30
0.0
 10
10.3985079523
 20
9.2720690019
 30
0.0
 10
10.4109129499
 20
9.2532768505
 30
0.0
 10
10.4213207647
 20
9.2333523506
 30
0.0
 10
10.4283641497
 20
9.2168921375
 30
0.0
 10
10.4329846037
 20
9.2043342983
 30
0.0
 10
10.4369297286
 20
9.1915893147
 30
0.0
 10
10.4401817827
 20
9.1786936527
 30
0.0
 10
10.4427225467
 20
9.1656855056
 30
0.0
 10
10.4445336422
 20
9.1526043201
 30
0.0
 10
10.4455965817
 20
9.1394923617
 30
0.0
 10
10.4457945684
 20
9.1307403408
 30
0.0
 10
10.4457619893
 20
9.1263751942
 30
0.0
  0
SPLINE
  5
390
100
AcDbEntity
  8
0
100
AcDbSpline
 62
7
  6
CONTINUOUS
 70
0
 71
3
 72
23
 73
19
 74
0
 42
0.0000001
 43
0.0000001
 44
0.0000000001
 40
0.0
 40
0.0
 40
0.0
 40
0.0
 40
0.0631722627
 40
0.1259875565
 40
0.1884987666
 40
0.2507664557
 40
0.3128585689
 40
0.3748440184
 40
0.436789138
 40
0.4987547036
 40
0.5607941502
 40
0.6229527878
 40
0.6852677907
 40
0.7477686843
 40
0.8104781232
 40
0.8734127987
 40
0.9365843176
 40
1.0
 40
1.0
 40
1.0
 40
1.0
 10
10.89578901
 20
7.7852425083
 30
0.0
 10
10.894974409
 20
7.7806791689
 30
0.0
 10
10.8929108595
 20
7.7716501269
 30
0.0
 10
10.8885286157
 20
7.7585090489
 30
0.0
 10
10.8829210058
 20
7.7459139068
 30
0.0
 10
10.8761588549
 20
7.7339612279
 30
0.0
 10
10.868325955
 20
7.7227293297
 30
0.0
 10
10.8595144775
 20
7.7122800872
 30
0.0
 10
10.8498205432
 20
7.7026589001
 30
0.0
 10
10.8393404688
 20
7.6938965054
 30
0.0
 10
10.8281679509
 20
7.6860111218
 30
0.0
 10
10.8163921707
 20
7.679010836
 30
0.0
 10
10.8040967048
 20
7.6728958833
 30
0.0
 10
10.7913590409
 20
7.6676606864
 30
0.0
 10
10.7782506381
 20
7.6632955841
 30
0.0
 10
10.7648369532
 20
7.6597882014
 30
0.0
 10
10.7511789355
 20
7.6571246556
 30
0.0
 10
10.7419641514
 20
7.6559039266
 30
0.0
 10
10.7373351533
 20
7.6554286032
 30
0.0
  0
SPLINE
  5
391
100
AcDbEntity
  8
0
100
AcDbSpline
 62
7
  6
CONTINUOUS
 70
0
 71
3
 72
29
 73
25
 74
0
 42
0.0000001
 43
0.0000001
 44
0.0000000001
 40
0.0
 40
0.0
 40
0.0
 40
0.0
 40
0.030908839
 40
0.0619723165
 40
0.0931774618
 40
0.1245179773
 40
0.1559797623
 40
0.1875479349
 40
0.2192061856
 40
0.2509368804
 40
0.3145145612
 40
0.3781731456
 40
0.4417838699
 40
0.4735473514
 40
0.5052584196
 40
0.5684591152
 40
0.6313374146
 40
0.662648531
 40
0.6938602457
 40
0.7559504047
 40
0.8176074576
 40
0.8788257336
 40
0.9396147319
 40
1.0
 40
1.0
 40
1.0
 40
1.0
 10
9.8354632888
 20
9.8232907061
 30
0.0
 10
9.8370964436
 20
9.8231774465
 30
0.0
 10
9.8403638598
 20
9.8228311762
 30
0.0
 10
9.845225578
 20
9.8219604636
 30
0.0
 10
9.8500360379
 20
9.8207431523
 30
0.0
 10
9.8547703304
 20
9.8191885998
 30
0.0
 10
9.8594055209
 20
9.8173081484
 30
0.0
 10
9.8639199945
 20
9.8151156078
 30
0.0
 10
9.868294254
 20
9.8126262216
 30
0.0
 10
9.8739180672
 20
9.8089322649
 30
0.0
 10
9.8805108176
 20
9.8036583326
 30
0.0
 10
9.8876135938
 20
9.7964357966
 30
0.0
 10
9.8928099936
 20
9.7897822849
 30
0.0
 10
9.8965039478
 20
9.7841521196
 30
0.0
 10
9.8998778463
 20
9.7783495021
 30
0.0
 10
9.9034970776
 20
9.7707983138
 30
0.0
 10
9.9063058336
 20
9.7629330454
 30
0.0
 10
9.9080531211
 20
9.7565225383
 30
0.0
 10
9.909462516
 20
9.7500721849
 30
0.0
 10
9.9106012529
 20
9.7419286461
 30
0.0
 10
9.9109634708
 20
9.7321220022
 30
0.0
 10
9.9103183891
 20
9.7223977278
 30
0.0
 10
9.9086675426
 20
9.7128619292
 30
0.0
 10
9.9068922986
 20
9.7066783846
 30
0.0
 10
9.9058388658
 20
9.703658563
 30
0.0
  0
SPLINE
  5
392
100
AcDbEntity
  8
0
100
AcDbSpline
 62
7
  6
CONTINUOUS
 70
0
 71
3
 72
23
 73
19
 74
0
 42
0.0000001
 43
0.0000001
 44
0.0000000001
 40
0.0
 40
0.0
 40
0.0
 40
0.0
 40
0.0639318253
 40
0.1275599949
 40
0.1908824543
 40
0.253922845
 40
0.3167009008
 40
0.3792442898
 40
0.4415854002
 40
0.5037600053
 40
0.5658068698
 40
0.6277668323
 40
0.6896817236
 40
0.7515933207
 40
0.8135426128
 40
0.8755691696
 40
0.9377102104
 40
1.0
 40
1.0
 40
1.0
 40
1.0
 10
11.1508143677
 20
9.5258056586
 30
0.0
 10
11.1508143677
 20
9.5240983936
 30
0.0
 10
11.1506943446
 20
9.5206907135
 30
0.0
 10
11.1501524374
 20
9.5156180193
 30
0.0
 10
11.1492520161
 20
9.5106204289
 30
0.0
 10
11.1479985899
 20
9.5057229614
 30
0.0
 10
11.1463992775
 20
9.5009491811
 30
0.0
 10
11.1444633645
 20
9.4963219393
 30
0.0
 10
11.1422018468
 20
9.4918628759
 30
0.0
 10
11.1396273009
 20
9.4875924128
 30
0.0
 10
11.1367537633
 20
9.4835296264
 30
0.0
 10
11.1335966148
 20
9.4796921168
 30
0.0
 10
11.1301723198
 20
9.4760960252
 30
0.0
 10
11.1264982581
 20
9.472756029
 30
0.0
 10
11.1225926436
 20
9.4696853178
 30
0.0
 10
11.1184742736
 20
9.4668955251
 30
0.0
 10
11.1141627931
 20
9.4643970347
 30
0.0
 10
11.1111762553
 20
9.4629332283
 30
0.0
 10
11.1096583935
 20
9.4622527535
 30
0.0
  0
SPLINE
  5
393
100
AcDbEntity
  8
0
100
AcDbSpline
 62
7
  6
CONTINUOUS
 70
0
 71
3
 72
25
 73
21
 74
0
 42
0.0000001
 43
0.0000001
 44
0.0000000001
 40
0.0
 40
0.0
 40
0.0
 40
0.0
 40
0.0620511172
 40
0.124642384
 40
0.1877054711
 40
0.2511377596
 40
0.3148156203
 40
0.3786040029
 40
0.4423662475
 40
0.5059722612
 40
0.5693056307
 40
0.6322686645
 40
0.6947862266
 40
0.7568087248
 40
0.8183139586
 40
0.8793084786
 40
0.9096394096
 40
0.9398586908
 40
0.9699753092
 40
1.0
 40
1.0
 40
1.0
 40
1.0
 10
11.4041269648
 20
9.7079449662
 30
0.0
 10
11.4074117467
 20
9.7077171658
 30
0.0
 10
11.4139870149
 20
9.706813075
 30
0.0
 10
11.4236168693
 20
9.7041657815
 30
0.0
 10
11.4328957228
 20
9.7002760077
 30
0.0
 10
11.4416612089
 20
9.6952235296
 30
0.0
 10
11.44976866
 20
9.6891084004
 30
0.0
 10
11.4570898135
 20
9.6820468327
 30
0.0
 10
11.4635151567
 20
9.6741671031
 30
0.0
 10
11.4689535381
 20
9.6656055514
 30
0.0
 10
11.4733318988
 20
9.6565037436
 30
0.0
 10
11.4765941043
 20
9.6470059845
 30
0.0
 10
11.4786997682
 20
9.6372578598
 30
0.0
 10
11.4796232957
 20
9.627404863
 30
0.0
 10
11.4793535097
 20
9.6175934314
 30
0.0
 10
11.4781326437
 20
9.6095528736
 30
0.0
 10
11.4765667369
 20
9.6032925578
 30
0.0
 10
11.4751044376
 20
9.5987054075
 30
0.0
 10
11.473356875
 20
9.5942369756
 30
0.0
 10
11.4720030377
 20
9.5913440706
 30
0.0
 10
11.4712806969
 20
9.589924003
 30
0.0
  0
SPLINE
  5
394
100
AcDbEntity
  8
0
100
AcDbSpline
 62
7
  6
CONTINUOUS
 70
0
 71
3
 72
39
 73
35
 74
0
 42
0.0000001
 43
0.0000001
 44
0.0000000001
 40
0.0
 40
0.0
 40
0.0
 40
0.0
 40
0.0311439303
 40
0.0624436618
 40
0.0938881473
 40
0.1254709891
 40
0.1571788504
 40
0.1889972145
 40
0.2209091267
 40
0.2528957783
 40
0.2849369507
 40
0.3170113397
 40
0.3490969953
 40
0.3811717566
 40
0.4132136819
 40
0.4452014627
 40
0.4771148294
 40
0.5089349609
 40
0.5406448809
 40
0.572229804
 40
0.6036774458
 40
0.6349782967
 40
0.6661258727
 40
0.697116898
 40
0.7279514126
 40
0.7586328123
 40
0.789167825
 40
0.8195664295
 40
0.849841675
 40
0.8800094157
 40
0.9100879723
 40
0.9400977325
 40
0.9700607032
 40
1.0
 40
1.0
 40
1.0
 40
1.0
 10
9.8354632888
 20
6.9162969557
 30
0.0
 10
9.8373030027
 20
6.9161693711
 30
0.0
 10
9.8409836588
 20
6.9157788644
 30
0.0
 10
9.8464599806
 20
6.9147953276
 30
0.0
 10
9.8518776951
 20
6.9134175269
 30
0.0
 10
9.8572074244
 20
6.9116531258
 30
0.0
 10
9.8624209523
 20
6.9095114044
 30
0.0
 10
9.867490425
 20
6.9070038758
 30
0.0
 10
9.8723888544
 20
6.9041439438
 30
0.0
 10
9.8770901406
 20
6.9009468816
 30
0.0
 10
9.8815692371
 20
6.8974297486
 30
0.0
 10
9.8858022662
 20
6.8936112873
 30
0.0
 10
9.889766666
 20
6.8895118555
 30
0.0
 10
9.8934413201
 20
6.8851533178
 30
0.0
 10
9.8968066406
 20
6.8805589014
 30
0.0
 10
9.8998446767
 20
6.875753084
 30
0.0
 10
9.9025391981
 20
6.8707614616
 30
0.0
 10
9.9048758208
 20
6.8656106373
 30
0.0
 10
9.9068420713
 20
6.860328065
 30
0.0
 10
9.9084274291
 20
6.8549418969
 30
0.0
 10
9.9096233888
 20
6.8494808415
 30
0.0
 10
9.9104234977
 20
6.8439740151
 30
0.0
 10
9.9108234453
 20
6.8384507954
 30
0.0
 10
9.9108210477
 20
6.832940654
 30
0.0
 10
9.910416253
 20
6.8274730039
 30
0.0
 10
9.9096111451
 20
6.8220770486
 30
0.0
 10
9.9084099406
 20
6.8167816292
 30
0.0
 10
9.9068190154
 20
6.8116150567
 30
0.0
 10
9.9048468235
 20
6.8066049677
 30
0.0
 10
9.902503851
 20
6.8017781699
 30
0.0
 10
9.8998025941
 20
6.7971605372
 30
0.0
 10
9.8967573848
 20
6.7927767276
 30
0.0
 10
9.8933848175
 20
6.7886505189
 30
0.0
 10
9.8909291611
 20
6.7860850794
 30
0.0
 10
9.8896540719
 20
6.7848534238
 30
0.0
  0
SPLINE
  5
395
100
AcDbEntity
  8
0
100
AcDbSpline
 62
7
  6
CONTINUOUS
 70
0
 71
3
 72
23
 73
19
 74
0
 42
0.0000001
 43
0.0000001
 44
0.0000000001
 40
0.0
 40
0.0
 40
0.0
 40
0.0
 40
0.0639318253
 40
0.1275599949
 40
0.1908824543
 40
0.253922845
 40
0.3167009008
 40
0.3792442898
 40
0.4415854002
 40
0.5037600053
 40
0.5658068698
 40
0.6277668323
 40
0.6896817236
 40
0.7515933207
 40
0.8135426128
 40
0.8755691696
 40
0.9377102104
 40
1.0
 40
1.0
 40
1.0
 40
1.0
 10
11.1508143677
 20
6.8695092486
 30
0.0
 10
11.1508143677
 20
6.8678019836
 30
0.0
 10
11.1506943446
 20
6.8643943035
 30
0.0
 10
11.1501524374
 20
6.8593216093
 30
0.0
 10
11.1492520161
 20
6.8543240189
 30
0.0
 10
11.1479985899
 20
6.8494265514
 30
0.0
 10
11.1463992775
 20
6.8446527711
 30
0.0
 10
11.1444633645
 20
6.8400255293
 30
0.0
 10
11.1422018468
 20
6.835566466
 30
0.0
 10
11.1396273009
 20
6.8312960028
 30
0.0
 10
11.1367537633
 20
6.8272332164
 30
0.0
 10
11.1335966148
 20
6.8233957068
 30
0.0
 10
11.1301723198
 20
6.8197996152
 30
0.0
 10
11.1264982581
 20
6.8164596191
 30
0.0
 10
11.1225926436
 20
6.8133889078
 30
0.0
 10
11.1184742736
 20
6.8105991151
 30
0.0
 10
11.1141627931
 20
6.8081006247
 30
0.0
 10
11.1111762553
 20
6.8066368183
 30
0.0
 10
11.1096583935
 20
6.8059563435
 30
0.0
  0
SPLINE
  5
396
100
AcDbEntity
  8
0
100
AcDbSpline
 62
7
  6
CONTINUOUS
 70
0
 71
3
 72
41
 73
37
 74
0
 42
0.0000001
 43
0.0000001
 44
0.0000000001
 40
0.0
 40
0.0
 40
0.0
 40
0.0
 40
0.0314063747
 40
0.0471951639
 40
0.0630348299
 40
0.0948499826
 40
0.1268363903
 40
0.142888965
 40
0.1589722559
 40
0.1912037184
 40
0.2235010727
 40
0.2558242841
 40
0.2881335917
 40
0.3203908675
 40
0.3525607733
 40
0.3846117069
 40
0.4165165623
 40
0.4482533301
 40
0.4798055673
 40
0.5111627625
 40
0.5423206104
 40
0.5732812011
 40
0.6040531159
 40
0.6346514076
 40
0.6650974338
 40
0.6954184992
 40
0.7256472626
 40
0.7558208671
 40
0.7859797664
 40
0.8161662462
 40
0.8464226752
 40
0.8767895761
 40
0.9073035604
 40
0.9379956731
 40
0.9688884533
 40
1.0
 40
1.0
 40
1.0
 40
1.0
 10
11.404126927
 20
6.8101675468
 30
0.0
 10
11.4066170797
 20
6.8099948541
 30
0.0
 10
11.4103493049
 20
6.8095435282
 30
0.0
 10
11.4152652104
 20
6.8085700771
 30
0.0
 10
11.420158621
 20
6.8073454299
 30
0.0
 10
11.4261785338
 20
6.8053546898
 30
0.0
 10
11.4319921497
 20
6.8027828575
 30
0.0
 10
11.436495028
 20
6.8003924996
 30
0.0
 10
11.4408964097
 20
6.7977816734
 30
0.0
 10
11.446171031
 20
6.794126921
 30
0.0
 10
11.4520735783
 20
6.7891693653
 30
0.0
 10
11.4575030612
 20
6.7836889438
 30
0.0
 10
11.4624126466
 20
6.7777427924
 30
0.0
 10
11.466762183
 20
6.7713904293
 30
0.0
 10
11.4705174381
 20
6.7646932959
 30
0.0
 10
11.4736500232
 20
6.7577140179
 30
0.0
 10
11.4761370624
 20
6.7505159279
 30
0.0
 10
11.4779609128
 20
6.7431626928
 30
0.0
 10
11.4791088972
 20
6.7357180627
 30
0.0
 10
11.4795730961
 20
6.7282457073
 30
0.0
 10
11.4793502105
 20
6.7208091129
 30
0.0
 10
11.4784415107
 20
6.7134715101
 30
0.0
 10
11.4768528758
 20
6.7062958006
 30
0.0
 10
11.4745949217
 20
6.6993444532
 30
0.0
 10
11.4716832113
 20
6.6926793359
 30
0.0
 10
11.468138531
 20
6.6863614561
 30
0.0
 10
11.4639872066
 20
6.6804505806
 30
0.0
 10
11.4592614272
 20
6.6750047141
 30
0.0
 10
11.4539995304
 20
6.6700794246
 30
0.0
 10
11.448246196
 20
6.6657270181
 30
0.0
 10
11.4420525039
 20
6.6619955769
 30
0.0
 10
11.4354757539
 20
6.6589279256
 30
0.0
 10
11.428579183
 20
6.656560498
 30
0.0
 10
11.4214309353
 20
6.6549224568
 30
0.0
 10
11.4141044634
 20
6.6540343457
 30
0.0
 10
11.4091668595
 20
6.6539506944
 30
0.0
 10
11.4066955883
 20
6.654034776
 30
0.0
  0
SPLINE
  5
397
100
AcDbEntity
  8
0
100
AcDbSpline
 62
7
  6
CONTINUOUS
 70
0
 71
3
 72
22
 73
18
 74
0
 42
0.0000001
 43
0.0000001
 44
0.0000000001
 40
0.0
 40
0.0
 40
0.0
 40
0.0
 40
0.04175808
 40
0.0861441753
 40
0.1332448433
 40
0.1831261912
 40
0.2358337189
 40
0.2913911951
 40
0.3498071758
 40
0.4110761373
 40
0.4751816021
 40
0.5420958412
 40
0.6117827695
 40
0.6841975471
 40
0.7592886756
 40
0.8369975172
 40
1.0
 40
1.0
 40
1.0
 40
1.0
 10
11.7351188929
 20
10.9690438218
 30
0.0
 10
11.7341735135
 20
10.9681306555
 30
0.0
 10
11.7321564769
 20
10.9663151752
 30
0.0
 10
11.7288739891
 20
10.9637012191
 30
0.0
 10
11.7252482019
 20
10.9611183863
 30
0.0
 10
11.7212835723
 20
10.9585696028
 30
0.0
 10
11.7169844468
 20
10.9560576383
 30
0.0
 10
11.7123557386
 20
10.9535852366
 30
0.0
 10
11.7074027185
 20
10.9511553259
 30
0.0
 10
11.7021311214
 20
10.9487706302
 30
0.0
 10
11.6965470155
 20
10.9464339891
 30
0.0
 10
11.6906568901
 20
10.9441480677
 30
0.0
 10
11.6844675814
 20
10.9419156047
 30
0.0
 10
11.6779863186
 20
10.9397391786
 30
0.0
 10
11.671220631
 20
10.9376213602
 30
0.0
 10
11.6616785165
 20
10.9348346225
 30
0.0
 10
11.6543484475
 20
10.9329095906
 30
0.0
 10
11.649366572
 20
10.93168278
 30
0.0
  0
SPLINE
  5
398
100
AcDbEntity
  8
0
100
AcDbSpline
 62
7
  6
CONTINUOUS
 70
0
 71
3
 72
25
 73
21
 74
0
 42
0.0000001
 43
0.0000001
 44
0.0000000001
 40
0.0
 40
0.0
 40
0.0
 40
0.0
 40
0.0937822034
 40
0.1836331353
 40
0.2694104165
 40
0.3509887054
 40
0.428262585
 40
0.5011493816
 40
0.5695925989
 40
0.6335672889
 40
0.6930870334
 40
0.7482123887
 40
0.7990631304
 40
0.845835031
 40
0.888820351
 40
0.9090263115
 40
0.9284531264
 40
0.9652543924
 40
0.9828356277
 40
1.0
 40
1.0
 40
1.0
 40
1.0
 10
11.2215300427
 20
10.9317980495
 30
0.0
 10
11.2180925067
 20
10.9326480991
 30
0.0
 10
11.2113790624
 20
10.9343847127
 30
0.0
 10
11.2015928906
 20
10.9371653188
 30
0.0
 10
11.1923216974
 20
10.9400612169
 30
0.0
 10
11.1835857848
 20
10.9430660037
 30
0.0
 10
11.175404132
 20
10.9461730428
 30
0.0
 10
11.1677944364
 20
10.9493754907
 30
0.0
 10
11.1607730553
 20
10.9526663845
 30
0.0
 10
11.1543549433
 20
10.9560386666
 30
0.0
 10
11.1485535559
 20
10.959485256
 30
0.0
 10
11.1433809282
 20
10.9629991749
 30
0.0
 10
11.1388475008
 20
10.9665739809
 30
0.0
 10
11.1349629586
 20
10.9702031618
 30
0.0
 10
11.1322186151
 20
10.9733310001
 30
0.0
 10
11.1303791751
 20
10.9758530339
 30
0.0
 10
11.1288300156
 20
10.9782895516
 30
0.0
 10
11.1275759265
 20
10.9807921401
 30
0.0
 10
11.1266635138
 20
10.9833374485
 30
0.0
 10
11.1263246645
 20
10.9846068974
 30
0.0
 10
11.1261851579
 20
10.9852398061
 30
0.0
  0
SPLINE
  5
399
100
AcDbEntity
  8
0
100
AcDbSpline
 62
7
  6
CONTINUOUS
 70
0
 71
3
 72
15
 73
11
 74
0
 42
0.0000001
 43
0.0000001
 44
0.0000000001
 40
0.0
 40
0.0
 40
0.0
 40
0.0
 40
0.1443135232
 40
0.2821580822
 40
0.4139014874
 40
0.5399944554
 40
0.6609813104
 40
0.7774893994
 40
0.890231112
 40
1.0
 40
1.0
 40
1.0
 40
1.0
 10
11.7351188929
 20
10.9690438218
 30
0.0
 10
11.7357879014
 20
10.9696900345
 30
0.0
 10
11.7370646974
 20
10.9709864708
 30
0.0
 10
11.7388282434
 20
10.9729900764
 30
0.0
 10
11.7403936665
 20
10.9750056076
 30
0.0
 10
11.741759601
 20
10.9770318154
 30
0.0
 10
11.7429250463
 20
10.9790674903
 30
0.0
 10
11.7438889266
 20
10.9811115976
 30
0.0
 10
11.7446502562
 20
10.9831625812
 30
0.0
 10
11.745026337
 20
10.9845490718
 30
0.0
 10
11.7451786266
 20
10.9852399786
 30
0.0
  0
SPLINE
  5
39A
100
AcDbEntity
  8
0
100
AcDbSpline
 62
7
  6
CONTINUOUS
 70
0
 71
3
 72
30
 73
26
 74
0
 42
0.0000001
 43
0.0000001
 44
0.0000000001
 40
0.0
 40
0.0
 40
0.0
 40
0.0
 40
0.0845014966
 40
0.1673013101
 40
0.2480798434
 40
0.3265304463
 40
0.4023579232
 40
0.4752824446
 40
0.5450410293
 40
0.6113903307
 40
0.6741094543
 40
0.70404695
 40
0.7330061004
 40
0.7609675676
 40
0.7879138497
 40
0.8138303613
 40
0.838704866
 40
0.8625286106
 40
0.8852959738
 40
0.9070056157
 40
0.9276605013
 40
0.9472690806
 40
0.9658458554
 40
0.9834126733
 40
1.0
 40
1.0
 40
1.0
 40
1.0
 10
12.1533381217
 20
11.6199222109
 30
0.0
 10
12.1604590583
 20
11.6194283722
 30
0.0
 10
12.174549227
 20
11.6183256539
 30
0.0
 10
12.1954085383
 20
11.6163036517
 30
0.0
 10
12.2157172139
 20
11.61393694
 30
0.0
 10
12.2353898638
 20
11.6112356106
 30
0.0
 10
12.2543440408
 20
11.6082111253
 30
0.0
 10
12.2725002493
 20
11.6048763635
 30
0.0
 10
12.2897825379
 20
11.601245525
 30
0.0
 10
12.3061184691
 20
11.5973340469
 30
0.0
 10
12.319080161
 20
11.5938019285
 30
0.0
 10
12.3289168675
 20
11.5908375543
 30
0.0
 10
12.3359014633
 20
11.5885891153
 30
0.0
 10
12.3426007391
 20
11.5862834546
 30
0.0
 10
12.3490076907
 20
11.5839228756
 30
0.0
 10
12.3551156475
 20
11.5815099601
 30
0.0
 10
12.3609182321
 20
11.5790471462
 30
0.0
 10
12.3664094364
 20
11.5765370947
 30
0.0
 10
12.371583554
 20
11.5739823406
 30
0.0
 10
12.3764352653
 20
11.5713855946
 30
0.0
 10
12.380959574
 20
11.5687494605
 30
0.0
 10
12.3851518549
 20
11.5660766592
 30
0.0
 10
12.3890078917
 20
11.5633697782
 30
0.0
 10
12.3925235912
 20
11.5606316119
 30
0.0
 10
12.3946992249
 20
11.5587337358
 30
0.0
 10
12.3957249575
 20
11.5577791933
 30
0.0
  0
SPLINE
  5
39B
100
AcDbEntity
  8
0
100
AcDbSpline
 62
7
  6
CONTINUOUS
 70
0
 71
3
 72
37
 73
33
 74
0
 42
0.0000001
 43
0.0000001
 44
0.0000000001
 40
0.0
 40
0.0
 40
0.0
 40
0.0
 40
0.0761048351
 40
0.1533642129
 40
0.2310951119
 40
0.3086070906
 40
0.3852127499
 40
0.4602351248
 40
0.4969467779
 40
0.5330176094
 40
0.5683695064
 40
0.6029266101
 40
0.6366155311
 40
0.6693655939
 40
0.7011092316
 40
0.7317823466
 40
0.761324574
 40
0.7896797119
 40
0.8167963395
 40
0.8426282649
 40
0.8671351584
 40
0.8902835318
 40
0.9120478226
 40
0.9324117443
 40
0.9420672359
 40
0.9513718234
 40
0.9603269733
 40
0.9689352603
 40
0.977200779
 40
0.9851288486
 40
0.9927259753
 40
1.0
 40
1.0
 40
1.0
 40
1.0
 10
11.4172573649
 20
5.5963303961
 30
0.0
 10
11.428180537
 20
5.5955728716
 30
0.0
 10
11.4502143104
 20
5.594345125
 30
0.0
 10
11.4834511592
 20
5.5933522293
 30
0.0
 10
11.5169051126
 20
5.5931984036
 30
0.0
 10
11.5502583009
 20
5.5938851356
 30
0.0
 10
11.5831937778
 20
5.5954058181
 30
0.0
 10
11.6102231394
 20
5.5973694357
 30
0.0
 10
11.6313958976
 20
5.5993553456
 30
0.0
 10
11.6468635521
 20
5.6010310781
 30
0.0
 10
11.6619968082
 20
5.6028997304
 30
0.0
 10
11.6767597214
 20
5.6049568421
 30
0.0
 10
11.6911171983
 20
5.6071974723
 30
0.0
 10
11.7050351214
 20
5.6096162701
 30
0.0
 10
11.7184804351
 20
5.6122074393
 30
0.0
 10
11.7314212324
 20
5.614964752
 30
0.0
 10
11.7438268182
 20
5.6178816004
 30
0.0
 10
11.7556677936
 20
5.6209510113
 30
0.0
 10
11.7669161512
 20
5.6241656086
 30
0.0
 10
11.7775453461
 20
5.6275176858
 30
0.0
 10
11.7875303279
 20
5.6309992439
 30
0.0
 10
11.7968477484
 20
5.6346019973
 30
0.0
 10
11.8054756883
 20
5.6383173638
 30
0.0
 10
11.8121889287
 20
5.641555065
 30
0.0
 10
11.8171895386
 20
5.644202551
 30
0.0
 10
11.8206883672
 20
5.6461755023
 30
0.0
 10
11.8240003655
 20
5.6481699204
 30
0.0
 10
11.8271235943
 20
5.6501847333
 30
0.0
 10
11.8300562956
 20
5.6522187525
 30
0.0
 10
11.8327967705
 20
5.6542709023
 30
0.0
 10
11.8353432602
 20
5.6563398889
 30
0.0
 10
11.8369447995
 20
5.6577599126
 30
0.0
 10
11.8377109379
 20
5.6584728392
 30
0.0
  0
SPLINE
  5
39C
100
AcDbEntity
  8
0
100
AcDbSpline
 62
7
  6
CONTINUOUS
 70
0
 71
3
 72
16
 73
12
 74
0
 42
0.0000001
 43
0.0000001
 44
0.0000000001
 40
0.0
 40
0.0
 40
0.0
 40
0.0
 40
0.1480543646
 40
0.2876984311
 40
0.4196092656
 40
0.4829475736
 40
0.5446951146
 40
0.6639367557
 40
0.7786074495
 40
0.8901135749
 40
1.0
 40
1.0
 40
1.0
 40
1.0
 10
12.42652665
 20
6.2261534244
 30
0.0
 10
12.4275545063
 20
6.2271462574
 30
0.0
 10
12.4294915844
 20
6.2291396627
 30
0.0
 10
12.4320960828
 20
6.2322462776
 30
0.0
 10
12.4339642068
 20
6.2348898977
 30
0.0
 10
12.4352507595
 20
6.2370118126
 30
0.0
 10
12.4363743538
 20
6.2390861171
 30
0.0
 10
12.4375419831
 20
6.2416964494
 30
0.0
 10
12.4385575171
 20
6.2448799421
 30
0.0
 10
12.4391681983
 20
6.2480736424
 30
0.0
 10
12.4393044446
 20
6.2502129685
 30
0.0
 10
12.4393044437
 20
6.2512736198
 30
0.0
  0
SPLINE
  5
39D
100
AcDbEntity
  8
0
100
AcDbSpline
 62
7
  6
CONTINUOUS
 70
0
 71
3
 72
61
 73
57
 74
0
 42
0.0000001
 43
0.0000001
 44
0.0000000001
 40
0.0
 40
0.0
 40
0.0
 40
0.0
 40
0.007740511
 40
0.0160540737
 40
0.024960227
 40
0.0344716643
 40
0.0445949071
 40
0.055331743
 40
0.066679945
 40
0.0786339131
 40
0.0911851592
 40
0.104322653
 40
0.1180331703
 40
0.1323015431
 40
0.1471108279
 40
0.1624424814
 40
0.1782765344
 40
0.1945917069
 40
0.2113654874
 40
0.2285742625
 40
0.246193416
 40
0.2641973931
 40
0.2825597701
 40
0.3012533564
 40
0.3395212609
 40
0.3787713716
 40
0.4187651496
 40
0.4592580191
 40
0.5000014259
 40
0.5407448202
 40
0.5812376513
 40
0.6212313621
 40
0.6604813881
 40
0.6987491716
 40
0.7174426967
 40
0.7358050063
 40
0.7538088988
 40
0.7714279685
 40
0.7886366637
 40
0.8054103512
 40
0.8217254163
 40
0.837559372
 40
0.8528909275
 40
0.8677000942
 40
0.8819683469
 40
0.8956787565
 40
0.9088161341
 40
0.9213672444
 40
0.9333210894
 40
0.944669175
 40
0.9554058825
 40
0.9655289866
 40
0.9750402886
 40
0.9839463867
 40
0.9922597277
 40
1.0
 40
1.0
 40
1.0
 40
1.0
 10
11.5806174191
 20
11.2937427206
 30
0.0
 10
11.5784132224
 20
11.2916915669
 30
0.0
 10
11.5736682953
 20
11.2876214338
 30
0.0
 10
11.5658843644
 20
11.281808408
 30
0.0
 10
11.5571982235
 20
11.276083027
 30
0.0
 10
11.5476240964
 20
11.2704543242
 30
0.0
 10
11.5371767728
 20
11.2649308755
 30
0.0
 10
11.5258729716
 20
11.2595214823
 30
0.0
 10
11.51373081
 20
11.2542348465
 30
0.0
 10
11.5007698897
 20
11.2490796035
 30
0.0
 10
11.4870112424
 20
11.2440642241
 30
0.0
 10
11.4724772947
 20
11.2391969567
 30
0.0
 10
11.4571917947
 20
11.2344858431
 30
0.0
 10
11.4411797619
 20
11.2299386929
 30
0.0
 10
11.4244674559
 20
11.2255630357
 30
0.0
 10
11.4070823235
 20
11.2213661105
 30
0.0
 10
11.3890529316
 20
11.2173548767
 30
0.0
 10
11.3704089239
 20
11.2135359967
 30
0.0
 10
11.3511809803
 20
11.2099157874
 30
0.0
 10
11.3314007545
 20
11.2065002439
 30
0.0
 10
11.311100809
 20
11.2032950315
 30
0.0
 10
11.2903145831
 20
11.2003054744
 30
0.0
 10
11.2690762918
 20
11.1975364787
 30
0.0
 10
11.2399759577
 20
11.1941182217
 30
0.0
 10
11.2027282729
 20
11.1904420011
 30
0.0
 10
11.1571436391
 20
11.1870061478
 30
0.0
 10
11.1106298416
 20
11.1845354973
 30
0.0
 10
11.0634932984
 20
11.1830464673
 30
0.0
 10
11.0160443129
 20
11.1825490623
 30
0.0
 10
10.9685953437
 20
11.1830465737
 30
0.0
 10
10.9214588493
 20
11.1845356971
 30
0.0
 10
10.8749451321
 20
11.1870064631
 30
0.0
 10
10.8293606107
 20
11.190442397
 30
0.0
 10
10.79211304
 20
11.1941187164
 30
0.0
 10
10.7630128102
 20
11.1975370293
 30
0.0
 10
10.7417746079
 20
11.200306066
 30
0.0
 10
10.7209884825
 20
11.203295678
 30
0.0
 10
10.7006886418
 20
11.2065009349
 30
0.0
 10
10.6809085234
 20
11.2099165135
 30
0.0
 10
10.6616806986
 20
11.2135367648
 30
0.0
 10
10.6430368195
 20
11.2173556957
 30
0.0
 10
10.6250075559
 20
11.2213669635
 30
0.0
 10
10.607622556
 20
11.2255639187
 30
0.0
 10
10.5909103966
 20
11.2299396197
 30
0.0
 10
10.5748985151
 20
11.2344868102
 30
0.0
 10
10.5596131629
 20
11.2391979485
 30
0.0
 10
10.5450793713
 20
11.2440652424
 30
0.0
 10
10.531320895
 20
11.2490806651
 30
0.0
 10
10.5183601425
 20
11.2542359344
 30
0.0
 10
10.5062181434
 20
11.2595225853
 30
0.0
 10
10.4949145207
 20
11.2649320071
 30
0.0
 10
10.4844673933
 20
11.2704554913
 30
0.0
 10
10.4748934196
 20
11.2760842024
 30
0.0
 10
10.466207484
 20
11.2818096055
 30
0.0
 10
10.4584237916
 20
11.2876226136
 30
0.0
 10
10.4536790464
 20
11.2916926853
 30
0.0
 10
10.4514749589
 20
11.29374382
 30
0.0
  0
SPLINE
  5
39E
100
AcDbEntity
  8
0
100
AcDbSpline
 62
7
  6
CONTINUOUS
 70
0
 71
3
 72
30
 73
26
 74
0
 42
0.0000001
 43
0.0000001
 44
0.0000000001
 40
0.0
 40
0.0
 40
0.0
 40
0.0
 40
0.0165873267
 40
0.0341541446
 40
0.0527309194
 40
0.0723394987
 40
0.0929943843
 40
0.1147040262
 40
0.1374713894
 40
0.161295134
 40
0.1861696387
 40
0.2120861503
 40
0.2390324324
 40
0.2669938996
 40
0.29595305
 40
0.3258905457
 40
0.3886096693
 40
0.4549589707
 40
0.5247175554
 40
0.5976420768
 40
0.6734695537
 40
0.7519201566
 40
0.8326986899
 40
0.9154985034
 40
1.0
 40
1.0
 40
1.0
 40
1.0
 10
9.6052409684
 20
5.7673275934
 30
0.0
 10
9.606266701
 20
5.7663730509
 30
0.0
 10
9.6084423347
 20
5.7644751748
 30
0.0
 10
9.6119580341
 20
5.7617370085
 30
0.0
 10
9.615814071
 20
5.7590301275
 30
0.0
 10
9.6200063519
 20
5.7563573263
 30
0.0
 10
9.6245306606
 20
5.7537211921
 30
0.0
 10
9.6293823719
 20
5.7511244461
 30
0.0
 10
9.6345564895
 20
5.7485696921
 30
0.0
 10
9.6400476938
 20
5.7460596405
 30
0.0
 10
9.6458502784
 20
5.7435968266
 30
0.0
 10
9.6519582352
 20
5.7411839112
 30
0.0
 10
9.6583651868
 20
5.7388233322
 30
0.0
 10
9.6650644626
 20
5.7365176715
 30
0.0
 10
9.6720490584
 20
5.7342692325
 30
0.0
 10
9.6818857649
 20
5.7313048582
 30
0.0
 10
9.6948474567
 20
5.7277727398
 30
0.0
 10
9.711183388
 20
5.7238612617
 30
0.0
 10
9.7284656766
 20
5.7202304232
 30
0.0
 10
9.746621885
 20
5.7168956614
 30
0.0
 10
9.7655760621
 20
5.7138711761
 30
0.0
 10
9.785248712
 20
5.7111698467
 30
0.0
 10
9.8055573876
 20
5.708803135
 30
0.0
 10
9.8264166989
 20
5.7067811328
 30
0.0
 10
9.8405068676
 20
5.7056784145
 30
0.0
 10
9.8476278042
 20
5.7051845759
 30
0.0
  0
SPLINE
  5
39F
100
AcDbEntity
  8
0
100
AcDbSpline
 62
7
  6
CONTINUOUS
 70
0
 71
3
 72
17
 73
13
 74
0
 42
0.0000001
 43
0.0000001
 44
0.0000000001
 40
0.0
 40
0.0
 40
0.0
 40
0.0
 40
0.0544313482
 40
0.1090799532
 40
0.2198254431
 40
0.3339327209
 40
0.4528856996
 40
0.514611354
 40
0.5780150295
 40
0.7103287903
 40
0.8507543788
 40
1.0
 40
1.0
 40
1.0
 40
1.0
 10
9.5616614822
 20
5.8211282124
 30
0.0
 10
9.5616614827
 20
5.820579444
 30
0.0
 10
9.5616976145
 20
5.8194793412
 30
0.0
 10
9.5619148487
 20
5.8172725157
 30
0.0
 10
9.5624641853
 20
5.8145001524
 30
0.0
 10
9.5635551932
 20
5.8112018295
 30
0.0
 10
9.5648083502
 20
5.8084998868
 30
0.0
 10
9.56601369
 20
5.8063535736
 30
0.0
 10
9.5673955983
 20
5.8041554005
 30
0.0
 10
9.569401994
 20
5.8014180904
 30
0.0
 10
9.572196738
 20
5.7982050791
 30
0.0
 10
9.5742725704
 20
5.7961469274
 30
0.0
 10
9.5753740702
 20
5.7951218744
 30
0.0
  0
SPLINE
  5
3A0
100
AcDbEntity
  8
0
100
AcDbSpline
 62
7
  6
CONTINUOUS
 70
0
 71
3
 72
35
 73
31
 74
0
 42
0.0000001
 43
0.0000001
 44
0.0000000001
 40
0.0
 40
0.0
 40
0.0
 40
0.0
 40
0.042578966
 40
0.0652230816
 40
0.0887472195
 40
0.1131268369
 40
0.1383287732
 40
0.1643162399
 40
0.1910523268
 40
0.2465987772
 40
0.3047731551
 40
0.334812057
 40
0.3654522113
 40
0.3966816142
 40
0.4284897205
 40
0.4608661439
 40
0.4937997356
 40
0.5272774837
 40
0.5612835138
 40
0.5957983852
 40
0.6307988866
 40
0.66625803
 40
0.7021450811
 40
0.7384258002
 40
0.7750630189
 40
0.812017099
 40
0.8492462831
 40
0.886707257
 40
0.924355847
 40
1.0
 40
1.0
 40
1.0
 40
1.0
 10
10.6917294018
 20
8.577439694
 30
0.0
 10
10.692326514
 20
8.5743303403
 30
0.0
 10
10.6927231379
 20
8.5694560876
 30
0.0
 10
10.6923772478
 20
8.5628617415
 30
0.0
 10
10.6916543316
 20
8.5576587533
 30
0.0
 10
10.6904685768
 20
8.5523478566
 30
0.0
 10
10.6888172333
 20
8.5469708308
 30
0.0
 10
10.6866987518
 20
8.5415714198
 30
0.0
 10
10.6832078394
 20
8.5343097281
 30
0.0
 10
10.6776483823
 20
8.525421588
 30
0.0
 10
10.6707135412
 20
8.517235239
 30
0.0
 10
10.6643118264
 20
8.5111329878
 30
0.0
 10
10.6590345417
 20
8.506780709
 30
0.0
 10
10.653351333
 20
8.5027425296
 30
0.0
 10
10.6472826103
 20
8.499055264
 30
0.0
 10
10.6408529008
 20
8.4957536762
 30
0.0
 10
10.6340902232
 20
8.4928694853
 30
0.0
 10
10.6270260454
 20
8.4904310022
 30
0.0
 10
10.6196949316
 20
8.4884626745
 30
0.0
 10
10.6121341555
 20
8.4869845218
 30
0.0
 10
10.6043830696
 20
8.4860119492
 30
0.0
 10
10.5964824533
 20
8.4855557576
 30
0.0
 10
10.5884738984
 20
8.485622177
 30
0.0
 10
10.580399204
 20
8.4862129821
 30
0.0
 10
10.5722998353
 20
8.4873257718
 30
0.0
 10
10.5642164363
 20
8.4889545592
 30
0.0
 10
10.5561887928
 20
8.4910900995
 30
0.0
 10
10.5482546382
 20
8.4937206414
 30
0.0
 10
10.5378374055
 20
8.4978733874
 30
0.0
 10
10.5302931956
 20
8.5016783509
 30
0.0
 10
10.5254243284
 20
8.5044950079
 30
0.0
  0
SPLINE
  5
3A1
100
AcDbEntity
  8
0
100
AcDbSpline
 62
7
  6
CONTINUOUS
 70
0
 71
3
 72
15
 73
11
 74
0
 42
0.0000001
 43
0.0000001
 44
0.0000000001
 40
0.0
 40
0.0
 40
0.0
 40
0.0
 40
0.071080565
 40
0.1510965142
 40
0.2428539401
 40
0.3494756447
 40
0.4748847192
 40
0.6233580507
 40
0.797931143
 40
1.0
 40
1.0
 40
1.0
 40
1.0
 10
11.5710467769
 20
11.2920362388
 30
0.0
 10
11.5710467769
 20
11.2918130456
 30
0.0
 10
11.5710278243
 20
11.2913383793
 30
0.0
 10
11.5709329105
 20
11.2905808507
 30
0.0
 10
11.570752582
 20
11.2897245529
 30
0.0
 10
11.570467175
 20
11.288747689
 30
0.0
 10
11.5700427324
 20
11.2876295956
 30
0.0
 10
11.5694494422
 20
11.2863513376
 30
0.0
 10
11.5686588052
 20
11.2849031743
 30
0.0
 10
11.5680275669
 20
11.2839020223
 30
0.0
 10
11.5676743405
 20
11.2833749385
 30
0.0
  0
SPLINE
  5
3A2
100
AcDbEntity
  8
0
100
AcDbSpline
 62
7
  6
CONTINUOUS
 70
0
 71
3
 72
15
 73
11
 74
0
 42
0.0000001
 43
0.0000001
 44
0.0000000001
 40
0.0
 40
0.0
 40
0.0
 40
0.0
 40
0.2026386879
 40
0.3775982523
 40
0.5261720054
 40
0.6518344202
 40
0.7586225829
 40
0.8501790614
 40
0.9296590428
 40
1.0
 40
1.0
 40
1.0
 40
1.0
 10
10.4645069689
 20
11.2832451768
 30
0.0
 10
10.4641446923
 20
11.2837810793
 30
0.0
 10
10.4634970261
 20
11.2847987144
 30
0.0
 10
10.4626844961
 20
11.2862699971
 30
0.0
 10
10.4620749491
 20
11.287569203
 30
0.0
 10
10.4616402986
 20
11.288706491
 30
0.0
 10
10.4613472585
 20
11.2896994608
 30
0.0
 10
10.4611621395
 20
11.2905677862
 30
0.0
 10
10.4610657536
 20
11.2913332055
 30
0.0
 10
10.4610467769
 20
11.2918116954
 30
0.0
 10
10.4610467769
 20
11.2920362388
 30
0.0
  0
SPLINE
  5
3A3
100
AcDbEntity
  8
0
100
AcDbSpline
 62
7
  6
CONTINUOUS
 70
0
 71
3
 72
17
 73
13
 74
0
 42
0.0000001
 43
0.0000001
 44
0.0000000001
 40
0.0
 40
0.0
 40
0.0
 40
0.0
 40
0.0548653995
 40
0.1099348206
 40
0.2214348222
 40
0.3360991408
 40
0.4553350478
 40
0.5170794787
 40
0.5804143716
 40
0.712316841
 40
0.8519520933
 40
1.0
 40
1.0
 40
1.0
 40
1.0
 10
11.8406818596
 20
11.0207190961
 30
0.0
 10
11.8406818557
 20
11.0201471314
 30
0.0
 10
11.8406455299
 20
11.0190007093
 30
0.0
 10
11.8404270789
 20
11.0167014267
 30
0.0
 10
11.8398751104
 20
11.0138137339
 30
0.0
 10
11.8387783381
 20
11.0103759745
 30
0.0
 10
11.8375172597
 20
11.007556769
 30
0.0
 10
11.8363037905
 20
11.0053165497
 30
0.0
 10
11.834914319
 20
11.0030249235
 30
0.0
 10
11.83289678
 20
11.0001698742
 30
0.0
 10
11.8300839652
 20
10.9968147727
 30
0.0
 10
11.8279919351
 20
10.9946619263
 30
0.0
 10
11.8268818518
 20
10.993589668
 30
0.0
  0
SPLINE
  5
3A4
100
AcDbEntity
  8
0
100
AcDbSpline
 62
7
  6
CONTINUOUS
 70
0
 71
3
 72
25
 73
21
 74
0
 42
0.0000001
 43
0.0000001
 44
0.0000000001
 40
0.0
 40
0.0
 40
0.0
 40
0.0
 40
0.0601461211
 40
0.1207171529
 40
0.1817754277
 40
0.2433529525
 40
0.3054514118
 40
0.3680430209
 40
0.4310722732
 40
0.4944581504
 40
0.5580973186
 40
0.621868498
 40
0.6856377709
 40
0.7492661159
 40
0.8126181231
 40
0.8755720747
 40
0.9068851442
 40
0.9380640431
 40
0.9691058569
 40
1.0
 40
1.0
 40
1.0
 40
1.0
 10
11.0359703326
 20
6.9438807911
 30
0.0
 10
11.0389136923
 20
6.9452003329
 30
0.0
 10
11.0450048559
 20
6.9474578866
 30
0.0
 10
11.0545321224
 20
6.9496397568
 30
0.0
 10
11.0643359735
 20
6.9506070795
 30
0.0
 10
11.0742647793
 20
6.9503504564
 30
0.0
 10
11.0841695348
 20
6.9488763104
 30
0.0
 10
11.0939008465
 20
6.9462050914
 30
0.0
 10
11.1033101031
 20
6.9423717749
 30
0.0
 10
11.1122498669
 20
6.9374266353
 30
0.0
 10
11.1205749965
 20
6.9314361595
 30
0.0
 10
11.1281442211
 20
6.9244839979
 30
0.0
 10
11.1348227907
 20
6.9166722738
 30
0.0
 10
11.1404855609
 20
6.9081212501
 30
0.0
 10
11.1450207015
 20
6.898971045
 30
0.0
 10
11.1477885079
 20
6.8909567268
 30
0.0
 10
11.1493522117
 20
6.8844092439
 30
0.0
 10
11.1501937743
 20
6.8794602128
 30
0.0
 10
11.15070079
 20
6.8744887702
 30
0.0
 10
11.1508143677
 20
6.8711660876
 30
0.0
 10
11.1508143677
 20
6.8695092486
 30
0.0
  0
SPLINE
  5
3A5
100
AcDbEntity
  8
0
100
AcDbSpline
 62
7
  6
CONTINUOUS
 70
0
 71
3
 72
15
 73
11
 74
0
 42
0.0000001
 43
0.0000001
 44
0.0000000001
 40
0.0
 40
0.0
 40
0.0
 40
0.0
 40
0.1233171376
 40
0.2468171981
 40
0.3706749826
 40
0.4950495853
 40
0.6200772313
 40
0.7458671002
 40
0.8724930137
 40
1.0
 40
1.0
 40
1.0
 40
1.0
 10
9.7812725057
 20
6.8970560498
 30
0.0
 10
9.7830228549
 20
6.8987467765
 30
0.0
 10
9.7867113775
 20
6.901944811
 30
0.0
 10
9.7927314388
 20
6.9061237664
 30
0.0
 10
9.7991821496
 20
6.9096465737
 30
0.0
 10
9.8059974765
 20
6.9124770284
 30
0.0
 10
9.8131086733
 20
6.9145870356
 30
0.0
 10
9.8204441142
 20
6.9159554753
 30
0.0
 10
9.8279289061
 20
6.9165690359
 30
0.0
 10
9.832953061
 20
6.9164710406
 30
0.0
 10
9.8354632888
 20
6.9162969557
 30
0.0
  0
SPLINE
  5
3A6
100
AcDbEntity
  8
0
100
AcDbSpline
 62
7
  6
CONTINUOUS
 70
0
 71
3
 72
16
 73
12
 74
0
 42
0.0000001
 43
0.0000001
 44
0.0000000001
 40
0.0
 40
0.0
 40
0.0
 40
0.0
 40
0.1098864251
 40
0.2213925505
 40
0.3360632443
 40
0.4553048854
 40
0.5170524264
 40
0.5803907344
 40
0.7123015689
 40
0.8519456354
 40
1.0
 40
1.0
 40
1.0
 40
1.0
 10
9.5616614822
 20
11.073833167
 30
0.0
 10
9.5616614812
 20
11.0748938182
 30
0.0
 10
9.5617977276
 20
11.0770331443
 30
0.0
 10
9.5624084088
 20
11.0802268446
 30
0.0
 10
9.5634239427
 20
11.0834103374
 30
0.0
 10
9.5645915721
 20
11.0860206697
 30
0.0
 10
9.5657151664
 20
11.0880949742
 30
0.0
 10
9.5670017191
 20
11.090216889
 30
0.0
 10
9.5688698431
 20
11.0928605091
 30
0.0
 10
9.5714743415
 20
11.095967124
 30
0.0
 10
9.5734114196
 20
11.0979605293
 30
0.0
 10
9.5744392759
 20
11.0989533623
 30
0.0
  0
SPLINE
  5
3A7
100
AcDbEntity
  8
0
100
AcDbSpline
 62
7
  6
CONTINUOUS
 70
0
 71
3
 72
17
 73
13
 74
0
 42
0.0000001
 43
0.0000001
 44
0.0000000001
 40
0.0
 40
0.0
 40
0.0
 40
0.0
 40
0.1492456212
 40
0.2896712097
 40
0.4219849705
 40
0.485388646
 40
0.5471143004
 40
0.6660672791
 40
0.7801745569
 40
0.8909200468
 40
0.9455686518
 40
1.0
 40
1.0
 40
1.0
 40
1.0
 10
12.4255918556
 20
11.5299849124
 30
0.0
 10
12.4266933555
 20
11.5289598593
 30
0.0
 10
12.4287691879
 20
11.5269017076
 30
0.0
 10
12.4315639319
 20
11.5236886963
 30
0.0
 10
12.4335703276
 20
11.5209513863
 30
0.0
 10
12.4349522359
 20
11.5187532131
 30
0.0
 10
12.4361575757
 20
11.5166068999
 30
0.0
 10
12.4374107327
 20
11.5139049572
 30
0.0
 10
12.4385017405
 20
11.5106066343
 30
0.0
 10
12.4390510772
 20
11.507834271
 30
0.0
 10
12.4392683114
 20
11.5056274456
 30
0.0
 10
12.4393044432
 20
11.5045273428
 30
0.0
 10
12.4393044437
 20
11.5039785743
 30
0.0
  0
SPLINE
  5
3A8
100
AcDbEntity
  8
0
100
AcDbSpline
 62
7
  6
CONTINUOUS
 70
0
 71
3
 72
37
 73
33
 74
0
 42
0.0000001
 43
0.0000001
 44
0.0000000001
 40
0.0
 40
0.0
 40
0.0
 40
0.0
 40
0.0072740247
 40
0.0148711514
 40
0.022799221
 40
0.0310647397
 40
0.0396730267
 40
0.0486281766
 40
0.0579327641
 40
0.0675882557
 40
0.0879521774
 40
0.1097164682
 40
0.1328648416
 40
0.1573717351
 40
0.1832036605
 40
0.2103202881
 40
0.238675426
 40
0.2682176534
 40
0.2988907684
 40
0.3306344061
 40
0.3633844689
 40
0.3970733899
 40
0.4316304936
 40
0.4669823906
 40
0.5030532221
 40
0.5397648752
 40
0.6147872501
 40
0.6913929094
 40
0.7689048881
 40
0.8466357871
 40
0.9238951649
 40
1.0
 40
1.0
 40
1.0
 40
1.0
 10
10.163254988
 20
11.6666339476
 30
0.0
 10
10.1640211264
 20
11.6673468742
 30
0.0
 10
10.1656226657
 20
11.6687668978
 30
0.0
 10
10.1681691554
 20
11.6708358844
 30
0.0
 10
10.1709096303
 20
11.6728880343
 30
0.0
 10
10.1738423316
 20
11.6749220535
 30
0.0
 10
10.1769655604
 20
11.6769368664
 30
0.0
 10
10.1802775587
 20
11.6789312845
 30
0.0
 10
10.1837763872
 20
11.6809042357
 30
0.0
 10
10.1887769971
 20
11.6835517217
 30
0.0
 10
10.1954902376
 20
11.686789423
 30
0.0
 10
10.2041181775
 20
11.6905047895
 30
0.0
 10
10.213435598
 20
11.6941075428
 30
0.0
 10
10.2234205798
 20
11.697589101
 30
0.0
 10
10.2340497747
 20
11.7009411781
 30
0.0
 10
10.2452981323
 20
11.7041557755
 30
0.0
 10
10.2571391076
 20
11.7072251864
 30
0.0
 10
10.2695446934
 20
11.7101420347
 30
0.0
 10
10.2824854908
 20
11.7128993474
 30
0.0
 10
10.2959308045
 20
11.7154905167
 30
0.0
 10
10.3098487276
 20
11.7179093144
 30
0.0
 10
10.3242062045
 20
11.7201499446
 30
0.0
 10
10.3389691176
 20
11.7222070563
 30
0.0
 10
10.3541023738
 20
11.7240757086
 30
0.0
 10
10.3695700283
 20
11.7257514411
 30
0.0
 10
10.3907427865
 20
11.727737351
 30
0.0
 10
10.4177721481
 20
11.7297009686
 30
0.0
 10
10.450707625
 20
11.7312216512
 30
0.0
 10
10.4840608132
 20
11.7319083831
 30
0.0
 10
10.5175147667
 20
11.7317545574
 30
0.0
 10
10.5507516155
 20
11.7307616618
 30
0.0
 10
10.5727853888
 20
11.7295339152
 30
0.0
 10
10.583708561
 20
11.7287763906
 30
0.0
  0
SPLINE
  5
3A9
100
AcDbEntity
  8
0
100
AcDbSpline
 62
7
  6
CONTINUOUS
 70
0
 71
3
 72
15
 73
11
 74
0
 42
0.0000001
 43
0.0000001
 44
0.0000000001
 40
0.0
 40
0.0
 40
0.0
 40
0.0
 40
0.1233171305
 40
0.2468171932
 40
0.3706749987
 40
0.4950495698
 40
0.6200773368
 40
0.7458670832
 40
0.8724927373
 40
1.0
 40
1.0
 40
1.0
 40
1.0
 10
11.3973118246
 20
9.3016276847
 30
0.0
 10
11.4004646796
 20
9.3046731178
 30
0.0
 10
11.4071087534
 20
9.3104335479
 30
0.0
 10
11.4179525234
 20
9.3179608834
 30
0.0
 10
11.4295719959
 20
9.3243063279
 30
0.0
 10
11.4418482257
 20
9.3294046849
 30
0.0
 10
11.4546573955
 20
9.3332052909
 30
0.0
 10
11.4678704635
 20
9.3356701703
 30
0.0
 10
11.4813525521
 20
9.3367753424
 30
0.0
 10
11.4904023857
 20
9.3365988255
 30
0.0
 10
11.4949239804
 20
9.3362852518
 30
0.0
  0
SPLINE
  5
3AA
100
AcDbEntity
  8
0
100
AcDbSpline
 62
7
  6
CONTINUOUS
 70
0
 71
3
 72
23
 73
19
 74
0
 42
0.0000001
 43
0.0000001
 44
0.0000000001
 40
0.0
 40
0.0
 40
0.0
 40
0.0
 40
0.0622034268
 40
0.1242632959
 40
0.1862158416
 40
0.2481002219
 40
0.3099577204
 40
0.3718309404
 40
0.4337631736
 40
0.495797428
 40
0.5579752612
 40
0.6203358567
 40
0.682914992
 40
0.7457444025
 40
0.8088507907
 40
0.8722522331
 40
0.9359698982
 40
1.0
 40
1.0
 40
1.0
 40
1.0
 10
11.3369732328
 20
9.6699659202
 30
0.0
 10
11.337742172
 20
9.6714775967
 30
0.0
 10
11.3393845022
 20
9.6744448127
 30
0.0
 10
11.3421536155
 20
9.6787053412
 30
0.0
 10
11.3452151364
 20
9.6827503692
 30
0.0
 10
11.3485570044
 20
9.686559728
 30
0.0
 10
11.3521658341
 20
9.6901142473
 30
0.0
 10
11.3560266109
 20
9.6933954739
 30
0.0
 10
11.36012281
 20
9.6963858919
 30
0.0
 10
11.3644363742
 20
9.6990690508
 30
0.0
 10
11.3689477091
 20
9.7014297963
 30
0.0
 10
11.3736357377
 20
9.7034544718
 30
0.0
 10
11.3784780251
 20
9.7051310556
 30
0.0
 10
11.3834509141
 20
9.7064493182
 30
0.0
 10
11.3885295474
 20
9.7074009666
 30
0.0
 10
11.3936884262
 20
9.7079800614
 30
0.0
 10
11.3989006373
 20
9.7081825207
 30
0.0
 10
11.4023853378
 20
9.7080657485
 30
0.0
 10
11.4041269648
 20
9.7079449662
 30
0.0
  0
SPLINE
  5
3AB
100
AcDbEntity
  8
0
100
AcDbSpline
 62
7
  6
CONTINUOUS
 70
0
 71
3
 72
15
 73
11
 74
0
 42
0.0000001
 43
0.0000001
 44
0.0000000001
 40
0.0
 40
0.0
 40
0.0
 40
0.0
 40
0.1233171305
 40
0.2468171932
 40
0.3706749987
 40
0.4950495698
 40
0.6200773368
 40
0.7458670832
 40
0.8724927373
 40
1.0
 40
1.0
 40
1.0
 40
1.0
 10
11.3973118246
 20
7.2480693263
 30
0.0
 10
11.4004646796
 20
7.2511147595
 30
0.0
 10
11.4071087534
 20
7.2568751895
 30
0.0
 10
11.4179525234
 20
7.264402525
 30
0.0
 10
11.4295719959
 20
7.2707479695
 30
0.0
 10
11.4418482257
 20
7.2758463265
 30
0.0
 10
11.4546573955
 20
7.2796469325
 30
0.0
 10
11.4678704635
 20
7.2821118119
 30
0.0
 10
11.4813525521
 20
7.2832169841
 30
0.0
 10
11.4904023857
 20
7.2830404671
 30
0.0
 10
11.4949239804
 20
7.2827268935
 30
0.0
  0
SPLINE
  5
3AC
100
AcDbEntity
  8
0
100
AcDbSpline
 62
7
  6
CONTINUOUS
 70
0
 71
3
 72
25
 73
21
 74
0
 42
0.0000001
 43
0.0000001
 44
0.0000000001
 40
0.0
 40
0.0
 40
0.0
 40
0.0
 40
0.0601461211
 40
0.1207171529
 40
0.1817754277
 40
0.2433529525
 40
0.3054514118
 40
0.3680430209
 40
0.4310722732
 40
0.4944581504
 40
0.5580973186
 40
0.621868498
 40
0.6856377709
 40
0.7492661159
 40
0.8126181231
 40
0.8755720747
 40
0.9068851442
 40
0.9380640431
 40
0.9691058569
 40
1.0
 40
1.0
 40
1.0
 40
1.0
 10
11.0359703326
 20
9.6001772011
 30
0.0
 10
11.0389136923
 20
9.6014967429
 30
0.0
 10
11.0450048559
 20
9.6037542966
 30
0.0
 10
11.0545321224
 20
9.6059361668
 30
0.0
 10
11.0643359735
 20
9.6069034895
 30
0.0
 10
11.0742647793
 20
9.6066468664
 30
0.0
 10
11.0841695348
 20
9.6051727204
 30
0.0
 10
11.0939008465
 20
9.6025015014
 30
0.0
 10
11.1033101031
 20
9.5986681849
 30
0.0
 10
11.1122498669
 20
9.5937230453
 30
0.0
 10
11.1205749965
 20
9.5877325694
 30
0.0
 10
11.1281442211
 20
9.5807804079
 30
0.0
 10
11.1348227907
 20
9.5729686838
 30
0.0
 10
11.1404855609
 20
9.5644176601
 30
0.0
 10
11.1450207015
 20
9.5552674549
 30
0.0
 10
11.1477885079
 20
9.5472531368
 30
0.0
 10
11.1493522117
 20
9.5407056539
 30
0.0
 10
11.1501937743
 20
9.5357566228
 30
0.0
 10
11.15070079
 20
9.5307851802
 30
0.0
 10
11.1508143677
 20
9.5274624976
 30
0.0
 10
11.1508143677
 20
9.5258056586
 30
0.0
  0
SPLINE
  5
3AD
100
AcDbEntity
  8
0
100
AcDbSpline
 62
7
  6
CONTINUOUS
 70
0
 71
3
 72
23
 73
19
 74
0
 42
0.0000001
 43
0.0000001
 44
0.0000000001
 40
0.0
 40
0.0
 40
0.0
 40
0.0
 40
0.062607807
 40
0.1250103013
 40
0.1872350205
 40
0.2493145033
 40
0.3112861446
 40
0.3731926117
 40
0.4350815648
 40
0.4970049262
 40
0.5590176401
 40
0.6211762443
 40
0.6835370752
 40
0.7461535511
 40
0.8090741728
 40
0.8723375974
 40
0.9359752777
 40
1.0
 40
1.0
 40
1.0
 40
1.0
 10
9.7650877118
 20
9.7738057511
 30
0.0
 10
9.7657242426
 20
9.7756304611
 30
0.0
 10
9.7671192445
 20
9.7792320721
 30
0.0
 10
9.7695779293
 20
9.7844675182
 30
0.0
 10
9.7723954444
 20
9.7895008225
 30
0.0
 10
9.7755661358
 20
9.7943037579
 30
0.0
 10
9.7790826868
 20
9.7988475281
 30
0.0
 10
9.7829355535
 20
9.8031023214
 30
0.0
 10
9.7871125753
 20
9.8070376565
 30
0.0
 10
9.7915984939
 20
9.8106226565
 30
0.0
 10
9.7963744756
 20
9.8138265519
 30
0.0
 10
9.8014177106
 20
9.8166193322
 30
0.0
 10
9.8067011373
 20
9.818972512
 30
0.0
 10
9.8121933353
 20
9.820860115
 30
0.0
 10
9.8178585451
 20
9.8222595736
 30
0.0
 10
9.8236573611
 20
9.8231529512
 30
0.0
 10
9.8295463134
 20
9.8235275636
 30
0.0
 10
9.8334917404
 20
9.8234274335
 30
0.0
 10
9.8354632888
 20
9.8232907061
 30
0.0
  0
SPLINE
  5
3AE
100
AcDbEntity
  8
0
100
AcDbSpline
 62
7
  6
CONTINUOUS
 70
0
 71
3
 72
15
 73
11
 74
0
 42
0.0000001
 43
0.0000001
 44
0.0000000001
 40
0.0
 40
0.0
 40
0.0
 40
0.0
 40
0.1233171305
 40
0.2468171932
 40
0.3706749987
 40
0.4950495698
 40
0.6200773368
 40
0.7458670832
 40
0.8724927373
 40
1.0
 40
1.0
 40
1.0
 40
1.0
 10
9.6480200885
 20
7.3693831203
 30
0.0
 10
9.6511729435
 20
7.3724285534
 30
0.0
 10
9.6578170173
 20
7.3781889835
 30
0.0
 10
9.6686607873
 20
7.385716319
 30
0.0
 10
9.6802802597
 20
7.3920617634
 30
0.0
 10
9.6925564896
 20
7.3971601205
 30
0.0
 10
9.7053656593
 20
7.4009607264
 30
0.0
 10
9.7185787274
 20
7.4034256058
 30
0.0
 10
9.732060816
 20
7.404530778
 30
0.0
 10
9.7411106495
 20
7.4043542611
 30
0.0
 10
9.7456322443
 20
7.4040406874
 30
0.0
  0
SPLINE
  5
3AF
100
AcDbEntity
  8
0
100
AcDbSpline
 62
7
  6
CONTINUOUS
 70
0
 71
3
 72
31
 73
27
 74
0
 42
0.0000001
 43
0.0000001
 44
0.0000000001
 40
0.0
 40
0.0
 40
0.0
 40
0.0
 40
0.0609995625
 40
0.1224222528
 40
0.1842549559
 40
0.2464748602
 40
0.3090505653
 40
0.3719418272
 40
0.4350984113
 40
0.4984575218
 40
0.5619414123
 40
0.6254534277
 40
0.6571975246
 40
0.6889039748
 40
0.7205549645
 40
0.7521316918
 40
0.7836147975
 40
0.8149849566
 40
0.8462236686
 40
0.8617912336
 40
0.8773199899
 40
0.9082486809
 40
0.9390059349
 40
0.9543215716
 40
0.9695935714
 40
1.0
 40
1.0
 40
1.0
 40
1.0
 10
10.6239617204
 20
8.0207666876
 30
0.0
 10
10.6322627543
 20
8.0216190699
 30
0.0
 10
10.6490240953
 20
8.0224523611
 30
0.0
 10
10.6742361049
 20
8.021187414
 30
0.0
 10
10.6993766226
 20
8.0174876077
 30
0.0
 10
10.72421268
 20
8.0114174515
 30
0.0
 10
10.748519195
 20
8.0030331852
 30
0.0
 10
10.7720638775
 20
7.9923844161
 30
0.0
 10
10.7945997063
 20
7.9795187825
 30
0.0
 10
10.8158562472
 20
7.9644873461
 30
0.0
 10
10.8355288946
 20
7.9473573383
 30
0.0
 10
10.8503274857
 20
7.9313987719
 30
0.0
 10
10.8610108686
 20
7.9176942322
 30
0.0
 10
10.8683928663
 20
7.9069716299
 30
0.0
 10
10.8750893551
 20
7.8958344495
 30
0.0
 10
10.881044913
 20
7.8843175899
 30
0.0
 10
10.8862033337
 20
7.8724632883
 30
0.0
 10
10.890509349
 20
7.8603220286
 30
0.0
 10
10.8933472781
 20
7.8499999154
 30
0.0
 10
10.8951395345
 20
7.8416611517
 30
0.0
 10
10.8966032508
 20
7.8333015529
 30
0.0
 10
10.897814721
 20
7.8227965564
 30
0.0
 10
10.8981742256
 20
7.8122563878
 30
0.0
 10
10.8979376824
 20
7.8038655287
 30
0.0
 10
10.8973533017
 20
7.7955403781
 30
0.0
 10
10.8965199793
 20
7.7893373478
 30
0.0
 10
10.89578901
 20
7.7852425083
 30
0.0
  0
SPLINE
  5
3B0
100
AcDbEntity
  8
0
100
AcDbSpline
 62
7
  6
CONTINUOUS
 70
0
 71
3
 72
15
 73
11
 74
0
 42
0.0000001
 43
0.0000001
 44
0.0000000001
 40
0.0
 40
0.0
 40
0.0
 40
0.0
 40
0.1233171305
 40
0.2468171932
 40
0.3706749987
 40
0.4950495698
 40
0.6200773368
 40
0.7458670832
 40
0.8724927373
 40
1.0
 40
1.0
 40
1.0
 40
1.0
 10
9.6480200885
 20
9.4229414786
 30
0.0
 10
9.6511729435
 20
9.4259869118
 30
0.0
 10
9.6578170173
 20
9.4317473418
 30
0.0
 10
9.6686607873
 20
9.4392746773
 30
0.0
 10
9.6802802597
 20
9.4456201218
 30
0.0
 10
9.6925564896
 20
9.4507184788
 30
0.0
 10
9.7053656593
 20
9.4545190848
 30
0.0
 10
9.7185787274
 20
9.4569839642
 30
0.0
 10
9.732060816
 20
9.4580891364
 30
0.0
 10
9.7411106495
 20
9.4579126194
 30
0.0
 10
9.7456322443
 20
9.4575990458
 30
0.0
  0
SPLINE
  5
3B1
100
AcDbEntity
  8
0
100
AcDbSpline
 62
7
  6
CONTINUOUS
 70
0
 71
3
 72
23
 73
19
 74
0
 42
0.0000001
 43
0.0000001
 44
0.0000000001
 40
0.0
 40
0.0
 40
0.0
 40
0.0
 40
0.0656947753
 40
0.1310966128
 40
0.1960140581
 40
0.2603589667
 40
0.3241071391
 40
0.3872738496
 40
0.449899049
 40
0.51203834
 40
0.5737571777
 40
0.6351268035
 40
0.6962210603
 40
0.757113637
 40
0.8178755732
 40
0.8785728648
 40
0.9392644516
 40
1.0
 40
1.0
 40
1.0
 40
1.0
 10
10.8679232372
 20
8.5258764445
 30
0.0
 10
10.8699045421
 20
8.5300485674
 30
0.0
 10
10.8736783072
 20
8.5384616297
 30
0.0
 10
10.878681781
 20
8.5513087771
 30
0.0
 10
10.8829298303
 20
8.5643269378
 30
0.0
 10
10.8863510387
 20
8.5774674096
 30
0.0
 10
10.888891807
 20
8.5906818349
 30
0.0
 10
10.8905115942
 20
8.6039195417
 30
0.0
 10
10.8911803122
 20
8.6171267207
 30
0.0
 10
10.8908769008
 20
8.6302461843
 30
0.0
 10
10.8895886608
 20
8.6432176343
 30
0.0
 10
10.8873109931
 20
8.655978209
 30
0.0
 10
10.8840473365
 20
8.6684632049
 30
0.0
 10
10.8798091297
 20
8.68060694
 30
0.0
 10
10.8746158274
 20
8.6923435332
 30
0.0
 10
10.8684944444
 20
8.7036081496
 30
0.0
 10
10.8614803991
 20
8.7143364378
 30
0.0
 10
10.8562384285
 20
8.7210884393
 30
0.0
 10
10.8534859618
 20
8.7243529429
 30
0.0
  0
SPLINE
  5
3B2
100
AcDbEntity
  8
0
100
AcDbSpline
 62
7
  6
CONTINUOUS
 70
0
 71
3
 72
26
 73
22
 74
0
 42
0.0000001
 43
0.0000001
 44
0.0000000001
 40
0.0
 40
0.0
 40
0.0
 40
0.0
 40
0.0610428981
 40
0.1220545639
 40
0.1830960769
 40
0.2442284425
 40
0.3055108975
 40
0.3669991753
 40
0.4287437834
 40
0.4907883345
 40
0.5531680413
 40
0.6159084336
 40
0.6474264009
 40
0.6790391939
 40
0.7107468993
 40
0.7425488263
 40
0.8064144852
 40
0.8706314102
 40
0.9028691469
 40
0.9351823757
 40
1.0
 40
1.0
 40
1.0
 40
1.0
 10
11.087408754
 20
8.3310607655
 30
0.0
 10
11.0910389204
 20
8.3356420593
 30
0.0
 10
11.0987020177
 20
8.3444900205
 30
0.0
 10
11.1113148268
 20
8.3566991335
 30
0.0
 10
11.1249622259
 20
8.3677557497
 30
0.0
 10
11.1395547174
 20
8.3775773089
 30
0.0
 10
11.1549968352
 20
8.3860895497
 30
0.0
 10
11.1711855368
 20
8.3932250612
 30
0.0
 10
11.1880108138
 20
8.3989247093
 30
0.0
 10
11.2053562964
 20
8.4031383959
 30
0.0
 10
11.223098437
 20
8.405826061
 30
0.0
 10
11.2380885864
 20
8.4067683506
 30
0.0
 10
11.2501445103
 20
8.4067393946
 30
0.0
 10
11.2592192643
 20
8.4063237989
 30
0.0
 10
11.2682946109
 20
8.4055138622
 30
0.0
 10
11.2803884191
 20
8.4039072213
 30
0.0
 10
11.2954230974
 20
8.4009135412
 30
0.0
 10
11.3101879413
 20
8.3966394658
 30
0.0
 10
11.3217943729
 20
8.3924672091
 30
0.0
 10
11.3332675376
 20
8.3877887166
 30
0.0
 10
11.3416545022
 20
8.3837353139
 30
0.0
 10
11.3471256692
 20
8.3808046401
 30
0.0
  0
SPLINE
  5
3B3
100
AcDbEntity
  8
0
100
AcDbSpline
 62
7
  6
CONTINUOUS
 70
0
 71
3
 72
21
 73
17
 74
0
 42
0.0000001
 43
0.0000001
 44
0.0000000001
 40
0.0
 40
0.0
 40
0.0
 40
0.0
 40
0.1274513188
 40
0.2538882878
 40
0.3167697154
 40
0.3794210574
 40
0.441859947
 40
0.5041099062
 40
0.5662006467
 40
0.6281681003
 40
0.6900540922
 40
0.7519055538
 40
0.813773251
 40
0.8757100783
 40
0.9377687738
 40
1.0
 40
1.0
 40
1.0
 40
1.0
 10
10.0713158225
 20
9.2028439156
 30
0.0
 10
10.0713762489
 20
9.2109402136
 30
0.0
 10
10.0723973108
 20
9.2270771715
 30
0.0
 10
10.0760584554
 20
9.2469196935
 30
0.0
 10
10.0804578711
 20
9.2623202305
 30
0.0
 10
10.0844912977
 20
9.2735694058
 30
0.0
 10
10.0892676841
 20
9.2844803041
 30
0.0
 10
10.0947866129
 20
9.2949956699
 30
0.0
 10
10.1010424273
 20
9.3050555044
 30
0.0
 10
10.1080234219
 20
9.3145984958
 30
0.0
 10
10.115710948
 20
9.3235628259
 30
0.0
 10
10.1240787399
 20
9.3318874957
 30
0.0
 10
10.1330923418
 20
9.3395137549
 30
0.0
 10
10.1427093928
 20
9.3463869146
 30
0.0
 10
10.1528783931
 20
9.3524573687
 30
0.0
 10
10.1599779818
 20
9.3559365419
 30
0.0
 10
10.1635962866
 20
9.35752923
 30
0.0
  0
SPLINE
  5
3B4
100
AcDbEntity
  8
0
100
AcDbSpline
 62
7
  6
CONTINUOUS
 70
0
 71
3
 72
51
 73
47
 74
0
 42
0.0000001
 43
0.0000001
 44
0.0000000001
 40
0.0
 40
0.0
 40
0.0
 40
0.0
 40
0.0576883378
 40
0.0857068674
 40
0.1132216611
 40
0.1402655545
 40
0.1668715017
 40
0.1930702205
 40
0.2188938338
 40
0.2443760631
 40
0.2695547665
 40
0.2944736018
 40
0.3068523815
 40
0.3191872836
 40
0.3314874204
 40
0.3437631866
 40
0.3560266479
 40
0.3682921663
 40
0.380576425
 40
0.3928994433
 40
0.405285231
 40
0.4177619626
 40
0.430364204
 40
0.4431319585
 40
0.4561136104
 40
0.4693641497
 40
0.4829474093
 40
0.4969316737
 40
0.5113895249
 40
0.526390306
 40
0.5419932109
 40
0.5582396278
 40
0.5751458161
 40
0.5926992686
 40
0.6295467443
 40
0.648732093
 40
0.668319138
 40
0.6882363241
 40
0.7084195772
 40
0.7493589325
 40
0.7908129822
 40
0.8325525398
 40
0.8744255458
 40
0.9163308093
 40
0.95820236
 40
1.0
 40
1.0
 40
1.0
 40
1.0
 10
10.7076799938
 20
8.6657824681
 30
0.0
 10
10.7091226109
 20
8.6591228639
 30
0.0
 10
10.711143231
 20
8.6492013451
 30
0.0
 10
10.7135320927
 20
8.6360424907
 30
0.0
 10
10.7151301461
 20
8.6264199614
 30
0.0
 10
10.7165460884
 20
8.6169375956
 30
0.0
 10
10.7177747238
 20
8.6075858173
 30
0.0
 10
10.7188031666
 20
8.5983548163
 30
0.0
 10
10.7196196361
 20
8.5892357592
 30
0.0
 10
10.7202030017
 20
8.580219324
 30
0.0
 10
10.7205310477
 20
8.5712967073
 30
0.0
 10
10.7205629689
 20
8.5639154872
 30
0.0
 10
10.7204232495
 20
8.558054298
 30
0.0
 10
10.7202291278
 20
8.5536862463
 30
0.0
 10
10.7199386712
 20
8.549335696
 30
0.0
 10
10.7195441504
 20
8.5450017355
 30
0.0
 10
10.7190346356
 20
8.5406838091
 30
0.0
 10
10.7184001885
 20
8.5363813478
 30
0.0
 10
10.7176279672
 20
8.532094162
 30
0.0
 10
10.7167022499
 20
8.5278227819
 30
0.0
 10
10.7156081201
 20
8.5235677057
 30
0.0
 10
10.714324051
 20
8.5193312911
 30
0.0
 10
10.7128295945
 20
8.5151162149
 30
0.0
 10
10.711098488
 20
8.5109276466
 30
0.0
 10
10.7091030355
 20
8.5067727608
 30
0.0
 10
10.7068118455
 20
8.5026621037
 30
0.0
 10
10.704191884
 20
8.4986103063
 30
0.0
 10
10.701208765
 20
8.4946373079
 30
0.0
 10
10.6978300722
 20
8.4907687276
 30
0.0
 10
10.6940273817
 20
8.4870368268
 30
0.0
 10
10.689780946
 20
8.48347936
 30
0.0
 10
10.6850830446
 20
8.4801382097
 30
0.0
 10
10.6799401893
 20
8.4770563405
 30
0.0
 10
10.6724003321
 20
8.4732875465
 30
0.0
 10
10.6642079536
 20
8.4702820217
 30
0.0
 10
10.6555566155
 20
8.4680443178
 30
0.0
 10
10.6487441981
 20
8.4667346394
 30
0.0
 10
10.6417493969
 20
8.4658208888
 30
0.0
 10
10.6321981033
 20
8.4651247364
 30
0.0
 10
10.6200577656
 20
8.4652394888
 30
0.0
 10
10.6054624649
 20
8.4668627508
 30
0.0
 10
10.5909834098
 20
8.4699034724
 30
0.0
 10
10.5768001539
 20
8.4742924579
 30
0.0
 10
10.5630621731
 20
8.4799630478
 30
0.0
 10
10.5499027533
 20
8.486848522
 30
0.0
 10
10.5415829418
 20
8.4922122546
 30
0.0
 10
10.5375594207
 20
8.4950733756
 30
0.0
  0
SPLINE
  5
3B5
100
AcDbEntity
  8
0
100
AcDbSpline
 62
7
  6
CONTINUOUS
 70
0
 71
3
 72
21
 73
17
 74
0
 42
0.0000001
 43
0.0000001
 44
0.0000000001
 40
0.0
 40
0.0
 40
0.0
 40
0.0
 40
0.1459433574
 40
0.2172544249
 40
0.2872641764
 40
0.35584889
 40
0.4229048887
 40
0.4883470939
 40
0.5521101503
 40
0.6141464751
 40
0.6744269771
 40
0.7329420798
 40
0.7897001425
 40
0.8447288157
 40
0.898077338
 40
1.0
 40
1.0
 40
1.0
 40
1.0
 10
10.6615176132
 20
8.7579003531
 30
0.0
 10
10.6641852237
 20
8.7536296098
 30
0.0
 10
10.6681523287
 20
8.7472695611
 30
0.0
 10
10.6733436044
 20
8.7388264455
 30
0.0
 10
10.677097865
 20
8.7326331473
 30
0.0
 10
10.6807243867
 20
8.7265343411
 30
0.0
 10
10.6842054579
 20
8.7205328008
 30
0.0
 10
10.6875242281
 20
8.7146300551
 30
0.0
 10
10.6906646982
 20
8.7088266319
 30
0.0
 10
10.6936117153
 20
8.703122222
 30
0.0
 10
10.6963508382
 20
8.6975158215
 30
0.0
 10
10.6988685587
 20
8.6920059725
 30
0.0
 10
10.7011518979
 20
8.6865909474
 30
0.0
 10
10.703189004
 20
8.6812684437
 30
0.0
 10
10.7055256561
 20
8.6743982713
 30
0.0
 10
10.7069354909
 20
8.6692193436
 30
0.0
 10
10.7076799938
 20
8.6657824681
 30
0.0
  0
SPLINE
  5
3B6
100
AcDbEntity
  8
0
100
AcDbSpline
 62
7
  6
CONTINUOUS
 70
0
 71
3
 72
9
 73
5
 74
0
 42
0.0000001
 43
0.0000001
 44
0.0000000001
 40
0.0
 40
0.0
 40
0.0
 40
0.0
 40
0.4967824397
 40
1.0
 40
1.0
 40
1.0
 40
1.0
 10
10.8534859618
 20
8.498465579
 30
0.0
 10
10.8560289243
 20
8.5029222075
 30
0.0
 10
10.8610345844
 20
8.5119587532
 30
0.0
 10
10.865693602
 20
8.5211814013
 30
0.0
 10
10.8679232372
 20
8.5258764445
 30
0.0
  0
SPLINE
  5
3B7
100
AcDbEntity
  8
0
100
AcDbSpline
 62
7
  6
CONTINUOUS
 70
0
 71
3
 72
20
 73
16
 74
0
 42
0.0000001
 43
0.0000001
 44
0.0000000001
 40
0.0
 40
0.0
 40
0.0
 40
0.0
 40
0.12680264
 40
0.1886422744
 40
0.2496855577
 40
0.3101506753
 40
0.37027258
 40
0.4302835241
 40
0.4904169101
 40
0.550903734
 40
0.6119578925
 40
0.6737857918
 40
0.7365683797
 40
0.8655552518
 40
1.0
 40
1.0
 40
1.0
 40
1.0
 10
10.6694281846
 20
8.6034378956
 30
0.0
 10
10.6708708851
 20
8.6029489609
 30
0.0
 10
10.67298091
 20
8.6021032548
 30
0.0
 10
10.6756490859
 20
8.6007294833
 30
0.0
 10
10.67753888
 20
8.5995947373
 30
0.0
 10
10.6793306156
 20
8.5983465315
 30
0.0
 10
10.6810213574
 20
8.5969841156
 30
0.0
 10
10.682608291
 20
8.5955078761
 30
0.0
 10
10.6840884298
 20
8.5939185446
 30
0.0
 10
10.6854586753
 20
8.5922174357
 30
0.0
 10
10.6867164747
 20
8.5904067937
 30
0.0
 10
10.6878588242
 20
8.5884889979
 30
0.0
 10
10.6892370224
 20
8.5857697738
 30
0.0
 10
10.6906540211
 20
8.5821038024
 30
0.0
 10
10.6914248068
 20
8.5790258175
 30
0.0
 10
10.6917294018
 20
8.577439694
 30
0.0
  0
SPLINE
  5
3B8
100
AcDbEntity
  8
0
100
AcDbSpline
 62
7
  6
CONTINUOUS
 70
0
 71
3
 72
39
 73
35
 74
0
 42
0.0000001
 43
0.0000001
 44
0.0000000001
 40
0.0
 40
0.0
 40
0.0
 40
0.0
 40
0.0311439303
 40
0.0624436618
 40
0.0938881473
 40
0.1254709891
 40
0.1571788504
 40
0.1889972145
 40
0.2209091267
 40
0.2528957783
 40
0.2849369507
 40
0.3170113397
 40
0.3490969953
 40
0.3811717566
 40
0.4132136819
 40
0.4452014627
 40
0.4771148294
 40
0.5089349609
 40
0.5406448809
 40
0.572229804
 40
0.6036774458
 40
0.6349782967
 40
0.6661258727
 40
0.697116898
 40
0.7279514126
 40
0.7586328123
 40
0.789167825
 40
0.8195664295
 40
0.849841675
 40
0.8800094157
 40
0.9100879723
 40
0.9400977325
 40
0.9700607032
 40
1.0
 40
1.0
 40
1.0
 40
1.0
 10
9.8354632888
 20
6.7656125178
 30
0.0
 10
9.8336235749
 20
6.7657401024
 30
0.0
 10
9.8299429188
 20
6.7661306091
 30
0.0
 10
9.824466597
 20
6.7671141459
 30
0.0
 10
9.8190488825
 20
6.7684919466
 30
0.0
 10
9.8137191532
 20
6.7702563477
 30
0.0
 10
9.8085056252
 20
6.7723980691
 30
0.0
 10
9.8034361525
 20
6.7749055977
 30
0.0
 10
9.7985377232
 20
6.7777655297
 30
0.0
 10
9.793836437
 20
6.7809625919
 30
0.0
 10
9.7893573404
 20
6.7844797249
 30
0.0
 10
9.7851243113
 20
6.7882981863
 30
0.0
 10
9.7811599116
 20
6.792397618
 30
0.0
 10
9.7774852575
 20
6.7967561557
 30
0.0
 10
9.7741199369
 20
6.8013505721
 30
0.0
 10
9.7710819008
 20
6.8061563896
 30
0.0
 10
9.7683873794
 20
6.8111480119
 30
0.0
 10
9.7660507568
 20
6.8162988362
 30
0.0
 10
9.7640845063
 20
6.8215814085
 30
0.0
 10
9.7624991484
 20
6.8269675766
 30
0.0
 10
9.7613031888
 20
6.8324286321
 30
0.0
 10
9.7605030798
 20
6.8379354584
 30
0.0
 10
9.7601031323
 20
6.8434586781
 30
0.0
 10
9.7601055299
 20
6.8489688195
 30
0.0
 10
9.7605103246
 20
6.8544364696
 30
0.0
 10
9.7613154325
 20
6.859832425
 30
0.0
 10
9.762516637
 20
6.8651278443
 30
0.0
 10
9.7641075621
 20
6.8702944168
 30
0.0
 10
9.766079754
 20
6.8753045058
 30
0.0
 10
9.7684227266
 20
6.8801313036
 30
0.0
 10
9.7711239835
 20
6.8847489363
 30
0.0
 10
9.7741691927
 20
6.8891327459
 30
0.0
 10
9.7775417601
 20
6.8932589546
 30
0.0
 10
9.7799974165
 20
6.8958243941
 30
0.0
 10
9.7812725057
 20
6.8970560498
 30
0.0
  0
SPLINE
  5
3B9
100
AcDbEntity
  8
0
100
AcDbSpline
 62
7
  6
CONTINUOUS
 70
0
 71
3
 72
16
 73
12
 74
0
 42
0.0000001
 43
0.0000001
 44
0.0000000001
 40
0.0
 40
0.0
 40
0.0
 40
0.0
 40
0.0590005338
 40
0.1189971178
 40
0.179902822
 40
0.2416207834
 40
0.3670608616
 40
0.4943728979
 40
0.6224987268
 40
0.7502916262
 40
1.0
 40
1.0
 40
1.0
 40
1.0
 10
10.4599049806
 20
8.6478220337
 30
0.0
 10
10.4622575031
 20
8.6473077754
 30
0.0
 10
10.4670093677
 20
8.6463029042
 30
0.0
 10
10.4742097545
 20
8.6448640235
 30
0.0
 10
10.4815318236
 20
8.6434697828
 30
0.0
 10
10.4914911714
 20
8.6416476981
 30
0.0
 10
10.5041353892
 20
8.639442382
 30
0.0
 10
10.5194631877
 20
8.6368509934
 30
0.0
 10
10.534887074
 20
8.6342515906
 30
0.0
 10
10.5552252005
 20
8.6307532135
 30
0.0
 10
10.5703841716
 20
8.6279902009
 30
0.0
 10
10.5803875308
 20
8.6260398706
 30
0.0
  0
SPLINE
  5
3BA
100
AcDbEntity
  8
0
100
AcDbSpline
 62
7
  6
CONTINUOUS
 70
0
 71
3
 72
15
 73
11
 74
0
 42
0.0000001
 43
0.0000001
 44
0.0000000001
 40
0.0
 40
0.0
 40
0.0
 40
0.0
 40
0.1586488148
 40
0.3103432437
 40
0.4535666041
 40
0.5869271857
 40
0.7091959485
 40
0.8193285774
 40
0.9164778602
 40
1.0
 40
1.0
 40
1.0
 40
1.0
 10
10.5803875308
 20
8.6260398706
 30
0.0
 10
10.5851593629
 20
8.6251095183
 30
0.0
 10
10.5944833802
 20
8.6232351186
 30
0.0
 10
10.6080710014
 20
8.6203061511
 30
0.0
 10
10.6208561887
 20
8.6173393972
 30
0.0
 10
10.6327138757
 20
8.6143725884
 30
0.0
 10
10.6435363402
 20
8.611453724
 30
0.0
 10
10.6532358604
 20
8.6086397479
 30
0.0
 10
10.6617465541
 20
8.6059955876
 30
0.0
 10
10.667004132
 20
8.6042594128
 30
0.0
 10
10.6694281846
 20
8.6034378956
 30
0.0
  0
SPLINE
  5
3BB
100
AcDbEntity
  8
0
100
AcDbSpline
 62
7
  6
CONTINUOUS
 70
0
 71
3
 72
39
 73
35
 74
0
 42
0.0000001
 43
0.0000001
 44
0.0000000001
 40
0.0
 40
0.0
 40
0.0
 40
0.0
 40
0.0318895441
 40
0.0638434856
 40
0.095846655
 40
0.1278877197
 40
0.1599524701
 40
0.1920273191
 40
0.2240984704
 40
0.256152301
 40
0.2881755462
 40
0.3201554294
 40
0.3520798333
 40
0.3839374594
 40
0.4157179432
 40
0.4474119518
 40
0.4790112701
 40
0.5105088924
 40
0.5418990987
 40
0.5731774757
 40
0.6043409396
 40
0.635387757
 40
0.6663175747
 40
0.6971313927
 40
0.7278315317
 40
0.7584216033
 40
0.7889064864
 40
0.8192922683
 40
0.8495861699
 40
0.8797964762
 40
0.9099324608
 40
0.9400042914
 40
0.9700229252
 40
1.0
 40
1.0
 40
1.0
 40
1.0
 10
11.1636230534
 20
8.0000079803
 30
0.0
 10
11.1600043674
 20
8.001946358
 30
0.0
 10
11.1528648737
 20
8.0060271239
 30
0.0
 10
11.142498501
 20
8.0127291132
 30
0.0
 10
11.1324960703
 20
8.019996859
 30
0.0
 10
11.1228911304
 20
8.0278047568
 30
0.0
 10
11.1137149193
 20
8.0361260312
 30
0.0
 10
11.1049971015
 20
8.0449317691
 30
0.0
 10
11.0967653277
 20
8.0541915588
 30
0.0
 10
11.0890452435
 20
8.0638735435
 30
0.0
 10
11.0818603999
 20
8.0739446465
 30
0.0
 10
11.075232209
 20
8.0843707542
 30
0.0
 10
11.0691799094
 20
8.0951168957
 30
0.0
 10
11.0637205079
 20
8.1061473999
 30
0.0
 10
11.0588688282
 20
8.1174260935
 30
0.0
 10
11.0546375337
 20
8.128916454
 30
0.0
 10
11.0510371679
 20
8.1405817554
 30
0.0
 10
11.0480761744
 20
8.1523851953
 30
0.0
 10
11.0457609232
 20
8.1642900146
 30
0.0
 10
11.0440958236
 20
8.1762596174
 30
0.0
 10
11.0430833762
 20
8.1882576559
 30
0.0
 10
11.0427242444
 20
8.2002481131
 30
0.0
 10
11.0430172537
 20
8.2121953725
 30
0.0
 10
11.0439595067
 20
8.2240642847
 30
0.0
 10
11.0455464473
 20
8.2358202124
 30
0.0
 10
11.0477719223
 20
8.2474290696
 30
0.0
 10
11.0506281748
 20
8.2588573694
 30
0.0
 10
11.0541059075
 20
8.2700722619
 30
0.0
 10
11.0581943488
 20
8.2810415497
 30
0.0
 10
11.0628812914
 20
8.291733724
 30
0.0
 10
11.0681530439
 20
8.3021179616
 30
0.0
 10
11.0739945768
 20
8.3121643378
 30
0.0
 10
11.08038907
 20
8.3218432032
 30
0.0
 10
11.0850121496
 20
8.3280362348
 30
0.0
 10
11.087408754
 20
8.3310607655
 30
0.0
  0
SPLINE
  5
3BC
100
AcDbEntity
  8
0
100
AcDbSpline
 62
7
  6
CONTINUOUS
 70
0
 71
3
 72
38
 73
34
 74
0
 42
0.0000001
 43
0.0000001
 44
0.0000000001
 40
0.0
 40
0.0
 40
0.0
 40
0.0
 40
0.0958323293
 40
0.1891018787
 40
0.2792424495
 40
0.3229695159
 40
0.365713634
 40
0.4074121541
 40
0.4480051085
 40
0.4874350853
 40
0.5256475433
 40
0.5625912692
 40
0.5982183184
 40
0.6324846966
 40
0.6653506321
 40
0.6967808602
 40
0.7267456118
 40
0.7552209101
 40
0.782189593
 40
0.8076426204
 40
0.8315800733
 40
0.8540134059
 40
0.8749676676
 40
0.8944844212
 40
0.9126261185
 40
0.9294806019
 40
0.9451669871
 40
0.9598416824
 40
0.9737026418
 40
0.9804061219
 40
0.9869995855
 40
0.9935185882
 40
1.0
 40
1.0
 40
1.0
 40
1.0
 10
9.8396044204
 20
10.0441010577
 30
0.0
 10
9.829837142
 20
10.0447784207
 30
0.0
 10
9.8105778437
 20
10.046329845
 30
0.0
 10
9.7822004959
 20
10.049291355
 30
0.0
 10
9.7591850101
 20
10.0522781475
 30
0.0
 10
9.7413423549
 20
10.0549667859
 30
0.0
 10
9.7284225094
 20
10.0571012199
 30
0.0
 10
9.7158508725
 20
10.0593703897
 30
0.0
 10
9.7036484234
 20
10.0617704689
 30
0.0
 10
9.6918355421
 20
10.0642974277
 30
0.0
 10
9.6804319437
 20
10.0669470371
 30
0.0
 10
9.6694566441
 20
10.0697148
 30
0.0
 10
9.6589279391
 20
10.0725961016
 30
0.0
 10
9.6488633543
 20
10.0755860834
 30
0.0
 10
9.6392796167
 20
10.0786797006
 30
0.0
 10
9.6301926393
 20
10.0818718115
 30
0.0
 10
9.6216174503
 20
10.085157024
 30
0.0
 10
9.6135681959
 20
10.0885298726
 30
0.0
 10
9.6060581019
 20
10.0919847872
 30
0.0
 10
9.599099403
 20
10.0955160303
 30
0.0
 10
9.5927033841
 20
10.0991179282
 30
0.0
 10
9.5868802942
 20
10.1027847458
 30
0.0
 10
9.5816393506
 20
10.1065108297
 30
0.0
 10
9.5769888542
 20
10.1102908123
 30
0.0
 10
9.572936139
 20
10.1141195426
 30
0.0
 10
9.5694879495
 20
10.1179923026
 30
0.0
 10
9.5666507858
 20
10.1219050963
 30
0.0
 10
9.5644314276
 20
10.1258529607
 30
0.0
 10
9.5630881577
 20
10.1292069512
 30
0.0
 10
9.5623449404
 20
10.1318824558
 30
0.0
 10
9.5619507712
 20
10.1338703073
 30
0.0
 10
9.5617141514
 20
10.1358600243
 30
0.0
 10
9.5616614828
 20
10.1371888105
 30
0.0
 10
9.5616614822
 20
10.1378509858
 30
0.0
  0
SPLINE
  5
3BD
100
AcDbEntity
  8
0
100
AcDbSpline
 62
7
  6
CONTINUOUS
 70
0
 71
3
 72
23
 73
19
 74
0
 42
0.0000001
 43
0.0000001
 44
0.0000000001
 40
0.0
 40
0.0
 40
0.0
 40
0.0
 40
0.0639318281
 40
0.1275599989
 40
0.1908824598
 40
0.253922851
 40
0.3167009073
 40
0.3792442966
 40
0.4415854069
 40
0.5037600118
 40
0.5658068758
 40
0.6277668377
 40
0.6896817282
 40
0.7515933244
 40
0.8135426156
 40
0.8755691715
 40
0.9377102113
 40
1.0
 40
1.0
 40
1.0
 40
1.0
 10
10.9948143603
 20
6.8803278474
 30
0.0
 10
10.9948143603
 20
6.8820351133
 30
0.0
 10
10.9949343793
 20
6.8854427951
 30
0.0
 10
10.9954762832
 20
6.8905154924
 30
0.0
 10
10.9963767038
 20
6.8955130856
 30
0.0
 10
10.9976301282
 20
6.9004105561
 30
0.0
 10
10.9992294396
 20
6.9051843393
 30
0.0
 10
11.0011653518
 20
6.909811584
 30
0.0
 10
11.0034268691
 20
6.9142706503
 30
0.0
 10
11.006001415
 20
6.9185411162
 30
0.0
 10
11.0088749529
 20
6.9226039052
 30
0.0
 10
11.0120321021
 20
6.9264414173
 30
0.0
 10
11.0154563981
 20
6.9300375113
 30
0.0
 10
11.0191304609
 20
6.9333775096
 30
0.0
 10
11.0230360769
 20
6.9364482227
 30
0.0
 10
11.0271544486
 20
6.939238017
 30
0.0
 10
11.0314659309
 20
6.9417365088
 30
0.0
 10
11.0344524701
 20
6.9432003159
 30
0.0
 10
11.0359703326
 20
6.9438807911
 30
0.0
  0
SPLINE
  5
3BE
100
AcDbEntity
  8
0
100
AcDbSpline
 62
7
  6
CONTINUOUS
 70
0
 71
3
 72
37
 73
33
 74
0
 42
0.0000001
 43
0.0000001
 44
0.0000000001
 40
0.0
 40
0.0
 40
0.0
 40
0.0
 40
0.0071756951
 40
0.0146740447
 40
0.0225036601
 40
0.0306716004
 40
0.0391837228
 40
0.0480446478
 40
0.0572575521
 40
0.0668242415
 40
0.0870203988
 40
0.108631743
 40
0.1316434718
 40
0.1560309822
 40
0.1817613367
 40
0.2087945347
 40
0.2370844664
 40
0.2665795412
 40
0.297223249
 40
0.3289547897
 40
0.361709482
 40
0.3954190386
 40
0.4300119997
 40
0.4654140959
 40
0.5015484862
 40
0.5383360168
 40
0.6135426229
 40
0.6903678828
 40
0.7681247334
 40
0.8461152395
 40
0.923638247
 40
1.0
 40
1.0
 40
1.0
 40
1.0
 10
11.8385695469
 20
10.9718790971
 30
0.0
 10
11.8378249634
 20
10.9711598847
 30
0.0
 10
11.8362652828
 20
10.9697270786
 30
0.0
 10
11.8337777347
 20
10.9676394688
 30
0.0
 10
11.8310932338
 20
10.9655683693
 30
0.0
 10
11.8282135209
 20
10.9635152006
 30
0.0
 10
11.8251403378
 20
10.9614810592
 30
0.0
 10
11.8218754386
 20
10.9594671357
 30
0.0
 10
11.8184207244
 20
10.9574745547
 30
0.0
 10
11.8134743164
 20
10.9547993372
 30
0.0
 10
11.8068207457
 20
10.9515270509
 30
0.0
 10
11.7982538661
 20
10.9477718525
 30
0.0
 10
11.7889858259
 20
10.9441292525
 30
0.0
 10
11.7790386758
 20
10.9406080248
 30
0.0
 10
11.7684359413
 20
10.9372166282
 30
0.0
 10
11.7572028945
 20
10.9339632637
 30
0.0
 10
11.7453663509
 20
10.9308558315
 30
0.0
 10
11.7329546445
 20
10.9279018775
 30
0.0
 10
11.7199975417
 20
10.9251085516
 30
0.0
 10
11.7065261414
 20
10.9224826362
 30
0.0
 10
11.6925727985
 20
10.9200305218
 30
0.0
 10
11.6781710566
 20
10.9177581457
 30
0.0
 10
11.6633555517
 20
10.9156710084
 30
0.0
 10
11.6481619276
 20
10.9137741884
 30
0.0
 10
11.6326267119
 20
10.9120722621
 30
0.0
 10
11.6113515896
 20
10.9100537152
 30
0.0
 10
11.5841808546
 20
10.9080553281
 30
0.0
 10
11.5510626712
 20
10.9065028111
 30
0.0
 10
11.517513971
 20
10.9057940567
 30
0.0
 10
11.4838574271
 20
10.9059359577
 30
0.0
 10
11.450416722
 20
10.9069271335
 30
0.0
 10
11.4282474436
 20
10.908160591
 30
0.0
 10
11.4172573649
 20
10.9089227555
 30
0.0
  0
SPLINE
  5
3BF
100
AcDbEntity
  8
0
100
AcDbSpline
 62
7
  6
CONTINUOUS
 70
0
 71
3
 72
39
 73
35
 74
0
 42
0.0000001
 43
0.0000001
 44
0.0000000001
 40
0.0
 40
0.0
 40
0.0
 40
0.0
 40
0.007175745
 40
0.0146740737
 40
0.0225036116
 40
0.030671472
 40
0.0391835578
 40
0.0480444976
 40
0.0572573741
 40
0.0668240337
 40
0.0767454382
 40
0.0870215229
 40
0.1086328224
 40
0.1316444885
 40
0.1560318876
 40
0.1817621643
 40
0.2087953062
 40
0.2370851424
 40
0.2665800902
 40
0.2972237176
 40
0.3289551842
 40
0.3617097517
 40
0.3954191818
 40
0.4300120556
 40
0.4654140508
 40
0.5015483063
 40
0.5383357156
 40
0.5756951801
 40
0.6135438541
 40
0.6903688654
 40
0.7681254679
 40
0.8461157008
 40
0.9236385661
 40
1.0
 40
1.0
 40
1.0
 40
1.0
 10
11.8685132493
 20
10.9398587919
 30
0.0
 10
11.8677015585
 20
10.9390747588
 30
0.0
 10
11.8660013184
 20
10.9375128235
 30
0.0
 10
11.8632896012
 20
10.9352370809
 30
0.0
 10
11.8603631891
 20
10.9329793605
 30
0.0
 10
11.8572239829
 20
10.9307411773
 30
0.0
 10
11.8538738605
 20
10.928523727
 30
0.0
 10
11.8503147311
 20
10.926328315
 30
0.0
 10
11.8465486943
 20
10.9241561754
 30
0.0
 10
11.8425779945
 20
10.9220085873
 30
0.0
 10
11.8384049695
 20
10.919886868
 30
0.0
 10
11.832474485
 20
10.917046221
 30
0.0
 10
11.8245643388
 20
10.9135790859
 30
0.0
 10
11.8144612631
 20
10.9096082438
 30
0.0
 10
11.8036176719
 20
10.9057696798
 30
0.0
 10
11.7920594719
 20
10.9020726659
 30
0.0
 10
11.7798141332
 20
10.8985261299
 30
0.0
 10
11.7669109272
 20
10.8951386671
 30
0.0
 10
11.7533807305
 20
10.8919184999
 30
0.0
 10
11.7392559787
 20
10.8888734564
 30
0.0
 10
11.7245705802
 20
10.8860109139
 30
0.0
 10
11.7093598176
 20
10.8833378162
 30
0.0
 10
11.6936602482
 20
10.8808606524
 30
0.0
 10
11.6775096227
 20
10.8785854413
 30
0.0
 10
11.6609467978
 20
10.8765176883
 30
0.0
 10
11.6440116285
 20
10.8746624006
 30
0.0
 10
11.6267448787
 20
10.8730240853
 30
0.0
 10
11.6091880745
 20
10.8716066938
 30
0.0
 10
11.585330973
 20
10.8700082168
 30
0.0
 10
11.5550972004
 20
10.8685910673
 30
0.0
 10
11.5185253777
 20
10.8678184075
 30
0.0
 10
11.4818357768
 20
10.8679731008
 30
0.0
 10
11.4453815309
 20
10.8690536001
 30
0.0
 10
11.4212144328
 20
10.8703982119
 30
0.0
 10
11.4092339811
 20
10.8712290591
 30
0.0
  0
SPLINE
  5
3C0
100
AcDbEntity
  8
0
100
AcDbSpline
 62
7
  6
CONTINUOUS
 70
0
 71
3
 72
36
 73
32
 74
0
 42
0.0000001
 43
0.0000001
 44
0.0000000001
 40
0.0
 40
0.0
 40
0.0
 40
0.0
 40
0.0299793852
 40
0.0600921288
 40
0.0903553466
 40
0.1207797636
 40
0.1513710469
 40
0.1821294262
 40
0.2130505142
 40
0.2441260169
 40
0.2753446015
 40
0.3066927193
 40
0.3381553511
 40
0.3697166343
 40
0.401360361
 40
0.4330703662
 40
0.4966014142
 40
0.5284173502
 40
0.5602395702
 40
0.5920546531
 40
0.6238498675
 40
0.6873122667
 40
0.7505584567
 40
0.7820853842
 40
0.813528865
 40
0.8448802517
 40
0.8761315074
 40
0.9072752803
 40
0.938304952
 40
0.9692147592
 40
1.0
 40
1.0
 40
1.0
 40
1.0
 10
10.3534815137
 20
8.9716898741
 30
0.0
 10
10.349590761
 20
8.9699772613
 30
0.0
 10
10.3416361671
 20
8.9668868494
 30
0.0
 10
10.3293207038
 20
8.9632994701
 30
0.0
 10
10.3166813565
 20
8.9607654116
 30
0.0
 10
10.3038080054
 20
8.9592887424
 30
0.0
 10
10.2907877683
 20
8.9588607715
 30
0.0
 10
10.2777047465
 20
8.9594624125
 30
0.0
 10
10.2646380511
 20
8.9610655605
 30
0.0
 10
10.2516608782
 20
8.9636350294
 30
0.0
 10
10.2388399158
 20
8.9671303288
 30
0.0
 10
10.2262352194
 20
8.9715073206
 30
0.0
 10
10.2139003169
 20
8.9767197023
 30
0.0
 10
10.2018828482
 20
8.9827199951
 30
0.0
 10
10.1902242186
 20
8.9894611801
 30
0.0
 10
10.1752022064
 20
8.9993776755
 30
0.0
 10
10.1610422709
 20
9.0105902039
 30
0.0
 10
10.1478652933
 20
9.0229091092
 30
0.0
 10
10.1384828905
 20
9.0326739511
 30
0.0
 10
10.1296306555
 20
9.0429172914
 30
0.0
 10
10.1185698566
 20
9.0571501119
 30
0.0
 10
10.1061648598
 20
9.0759422629
 30
0.0
 10
10.0957570456
 20
9.0958667623
 30
0.0
 10
10.0887136611
 20
9.112326975
 30
0.0
 10
10.0840932074
 20
9.1248848138
 30
0.0
 10
10.0801480826
 20
9.1376297971
 30
0.0
 10
10.0768960288
 20
9.1505254587
 30
0.0
 10
10.0743552649
 20
9.1635336054
 30
0.0
 10
10.0725441696
 20
9.1766147905
 30
0.0
 10
10.0714812301
 20
9.1897267485
 30
0.0
 10
10.0712832434
 20
9.1984787691
 30
0.0
 10
10.0713158225
 20
9.2028439156
 30
0.0
  0
SPLINE
  5
3C1
100
AcDbEntity
  8
0
100
AcDbSpline
 62
7
  6
CONTINUOUS
 70
0
 71
3
 72
51
 73
47
 74
0
 42
0.0000001
 43
0.0000001
 44
0.0000000001
 40
0.0
 40
0.0
 40
0.0
 40
0.0
 40
0.1048053057
 40
0.1559442925
 40
0.2060909675
 40
0.2551352721
 40
0.3029713892
 40
0.3494976431
 40
0.3946163535
 40
0.4382348227
 40
0.4802656733
 40
0.5206273314
 40
0.5592448237
 40
0.5960506556
 40
0.6309855793
 40
0.6639997659
 40
0.6950545237
 40
0.7241241415
 40
0.7379116736
 40
0.7512006648
 40
0.7639927295
 40
0.776291199
 40
0.7881009895
 40
0.7994287722
 40
0.8102836061
 40
0.8206768126
 40
0.8306224648
 40
0.8401379634
 40
0.8492440666
 40
0.8579656048
 40
0.8743665084
 40
0.8821292949
 40
0.8896540938
 40
0.8969899339
 40
0.9041902748
 40
0.9113119036
 40
0.9184136978
 40
0.9255550897
 40
0.9327944496
 40
0.9401875892
 40
0.947786455
 40
0.9637752042
 40
0.9722564658
 40
0.9811037997
 40
0.9903441998
 40
1.0
 40
1.0
 40
1.0
 40
1.0
 10
9.8476278042
 20
11.0177769353
 30
0.0
 10
9.8369030961
 20
11.0185206963
 30
0.0
 10
9.8209587488
 20
11.0198399868
 30
0.0
 10
9.7999330001
 20
11.0220391696
 30
0.0
 10
9.7846214296
 20
11.0238715164
 30
0.0
 10
9.7696758728
 20
11.0258957495
 30
0.0
 10
9.7551323003
 20
11.0281069726
 30
0.0
 10
9.7410257077
 20
11.0304998073
 30
0.0
 10
9.7273899991
 20
11.0330684774
 30
0.0
 10
9.7142579405
 20
11.0358067328
 30
0.0
 10
9.7016610553
 20
11.0387079196
 30
0.0
 10
9.6896295643
 20
11.0417650086
 30
0.0
 10
9.6781922909
 20
11.0449705903
 30
0.0
 10
9.6673765606
 20
11.0483168719
 30
0.0
 10
9.6572081754
 20
11.0517957484
 30
0.0
 10
9.6477112297
 20
11.0553988498
 30
0.0
 10
9.6389083626
 20
11.0591174967
 30
0.0
 10
9.6320519696
 20
11.0623600027
 30
0.0
 10
9.6269394514
 20
11.0650127548
 30
0.0
 10
9.6233593235
 20
11.066990435
 30
0.0
 10
9.6199676558
 20
11.0689902787
 30
0.0
 10
9.6167664336
 20
11.0710110965
 30
0.0
 10
9.6137575399
 20
11.0730516881
 30
0.0
 10
9.6109427885
 20
11.075110932
 30
0.0
 10
9.6083237982
 20
11.0771875907
 30
0.0
 10
9.6059021277
 20
11.0792805048
 30
0.0
 10
9.6036792336
 20
11.0813885788
 30
0.0
 10
9.6016564501
 20
11.0835105093
 30
0.0
 10
9.5998348582
 20
11.0856455327
 30
0.0
 10
9.5977198823
 20
11.0884496262
 30
0.0
 10
9.595949663
 20
11.0913371006
 30
0.0
 10
9.5945848878
 20
11.0942904521
 30
0.0
 10
9.5937863345
 20
11.0964723713
 30
0.0
 10
9.5931953528
 20
11.0986598349
 30
0.0
 10
9.5928125121
 20
11.100851381
 30
0.0
 10
9.5926383505
 20
11.1030453126
 30
0.0
 10
9.5926732141
 20
11.1052398499
 30
0.0
 10
9.5929169368
 20
11.1074331891
 30
0.0
 10
9.5933692186
 20
11.1096235463
 30
0.0
 10
9.5940295682
 20
11.1118093809
 30
0.0
 10
9.5952056722
 20
11.1147650049
 30
0.0
 10
9.5967935617
 20
11.1176627107
 30
0.0
 10
9.5987329547
 20
11.1204783782
 30
0.0
 10
9.6004197772
 20
11.122621424
 30
0.0
 10
9.6023084274
 20
11.1247519986
 30
0.0
 10
9.6036705929
 20
11.1261323505
 30
0.0
 10
9.6043829783
 20
11.1268204619
 30
0.0
  0
SPLINE
  5
3C2
100
AcDbEntity
  8
0
100
AcDbSpline
 62
7
  6
CONTINUOUS
 70
0
 71
3
 72
40
 73
36
 74
0
 42
0.0000001
 43
0.0000001
 44
0.0000000001
 40
0.0
 40
0.0
 40
0.0
 40
0.0
 40
0.0311444623
 40
0.0624429464
 40
0.0938877347
 40
0.1254702907
 40
0.1571779705
 40
0.188996169
 40
0.2209078941
 40
0.2528943766
 40
0.2849353707
 40
0.3170095775
 40
0.3490950548
 40
0.3811696427
 40
0.4132113916
 40
0.4451989867
 40
0.4771121643
 40
0.5089321125
 40
0.5406418522
 40
0.5722265907
 40
0.603674042
 40
0.6349747068
 40
0.6661221049
 40
0.6971129533
 40
0.727947284
 40
0.7586284939
 40
0.7891633219
 40
0.8195617482
 40
0.8498368162
 40
0.8800043756
 40
0.9100827498
 40
0.9400923353
 40
0.9550810224
 40
0.9700608656
 40
1.0
 40
1.0
 40
1.0
 40
1.0
 10
11.4949239804
 20
9.0648600786
 30
0.0
 10
11.4916100504
 20
9.0650899004
 30
0.0
 10
11.4849801607
 20
9.0657932681
 30
0.0
 10
11.4751157294
 20
9.0675649789
 30
0.0
 10
11.4653569238
 20
9.0700467233
 30
0.0
 10
11.4557565263
 20
9.0732249895
 30
0.0
 10
11.4463654778
 20
9.0770828574
 30
0.0
 10
11.437233892
 20
9.08159963
 30
0.0
 10
11.42841041
 20
9.0867511969
 30
0.0
 10
11.4199420482
 20
9.0925100423
 30
0.0
 10
11.4118739267
 20
9.0988454421
 30
0.0
 10
11.4042490362
 20
9.1057236067
 30
0.0
 10
11.3971080113
 20
9.1131078669
 30
0.0
 10
11.3904889157
 20
9.1209588643
 30
0.0
 10
11.3844270379
 20
9.1292347583
 30
0.0
 10
11.3789547085
 20
9.1378914495
 30
0.0
 10
11.3741011286
 20
9.1468828123
 30
0.0
 10
11.3698922152
 20
9.156160937
 30
0.0
 10
11.3663504638
 20
9.1656763827
 30
0.0
 10
11.3634948287
 20
9.1753784364
 30
0.0
 10
11.3613406204
 20
9.18521538
 30
0.0
 10
11.3598994234
 20
9.1951347618
 30
0.0
 10
11.3591790309
 20
9.2050836725
 30
0.0
 10
11.3591834011
 20
9.2150090239
 30
0.0
 10
11.3599126281
 20
9.2248578286
 30
0.0
 10
11.361362936
 20
9.2345774827
 30
0.0
 10
11.3635266945
 20
9.2441160434
 30
0.0
 10
11.3663924596
 20
9.2534225145
 30
0.0
 10
11.3699450023
 20
9.2624470898
 30
0.0
 10
11.3741654795
 20
9.2711415412
 30
0.0
 10
11.3790311727
 20
9.279459039
 30
0.0
 10
11.3836047311
 20
9.2860429009
 30
0.0
 10
11.3875569021
 20
9.291075264
 30
0.0
 10
11.3916975859
 20
9.295943427
 30
0.0
 10
11.3950150117
 20
9.2994091272
 30
0.0
 10
11.3973118246
 20
9.3016276847
 30
0.0
  0
SPLINE
  5
3C3
100
AcDbEntity
  8
0
100
AcDbSpline
 62
7
  6
CONTINUOUS
 70
0
 71
3
 72
38
 73
34
 74
0
 42
0.0000001
 43
0.0000001
 44
0.0000000001
 40
0.0
 40
0.0
 40
0.0
 40
0.0
 40
0.0958323293
 40
0.1891018787
 40
0.2792424495
 40
0.3229695159
 40
0.365713634
 40
0.4074121541
 40
0.4480051085
 40
0.4874350853
 40
0.5256475433
 40
0.5625912693
 40
0.5982183184
 40
0.6324846967
 40
0.6653506321
 40
0.6967808602
 40
0.7267456119
 40
0.7552209101
 40
0.782189593
 40
0.8076426204
 40
0.8315800733
 40
0.8540134059
 40
0.8749676676
 40
0.8944844212
 40
0.9126261185
 40
0.9294806019
 40
0.9451669871
 40
0.9598416824
 40
0.9737026418
 40
0.9804061219
 40
0.9869995855
 40
0.9935185882
 40
1.0
 40
1.0
 40
1.0
 40
1.0
 10
9.8396044204
 20
10.9800832388
 30
0.0
 10
9.829837142
 20
10.9807606019
 30
0.0
 10
9.8105778437
 20
10.9823120261
 30
0.0
 10
9.7822004959
 20
10.9852735361
 30
0.0
 10
9.7591850101
 20
10.9882603286
 30
0.0
 10
9.7413423549
 20
10.990948967
 30
0.0
 10
9.7284225094
 20
10.993083401
 30
0.0
 10
9.7158508725
 20
10.9953525708
 30
0.0
 10
9.7036484234
 20
10.99775265
 30
0.0
 10
9.6918355421
 20
11.0002796088
 30
0.0
 10
9.6804319437
 20
11.0029292183
 30
0.0
 10
9.669456644
 20
11.0056969811
 30
0.0
 10
9.6589279391
 20
11.0085782827
 30
0.0
 10
9.6488633542
 20
11.0115682645
 30
0.0
 10
9.6392796167
 20
11.0146618818
 30
0.0
 10
9.6301926393
 20
11.0178539926
 30
0.0
 10
9.6216174503
 20
11.0211392051
 30
0.0
 10
9.6135681959
 20
11.0245120538
 30
0.0
 10
9.6060581019
 20
11.0279669684
 30
0.0
 10
9.599099403
 20
11.0314982114
 30
0.0
 10
9.5927033841
 20
11.0351001093
 30
0.0
 10
9.5868802942
 20
11.0387669269
 30
0.0
 10
9.5816393506
 20
11.0424930109
 30
0.0
 10
9.5769888542
 20
11.0462729934
 30
0.0
 10
9.572936139
 20
11.0501017237
 30
0.0
 10
9.5694879495
 20
11.0539744838
 30
0.0
 10
9.5666507858
 20
11.0578872775
 30
0.0
 10
9.5644314276
 20
11.0618351418
 30
0.0
 10
9.5630881577
 20
11.0651891324
 30
0.0
 10
9.5623449404
 20
11.067864637
 30
0.0
 10
9.5619507712
 20
11.0698524884
 30
0.0
 10
9.5617141514
 20
11.0718422054
 30
0.0
 10
9.5616614828
 20
11.0731709917
 30
0.0
 10
9.5616614822
 20
11.073833167
 30
0.0
  0
SPLINE
  5
3C4
100
AcDbEntity
  8
0
100
AcDbSpline
 62
7
  6
CONTINUOUS
 70
0
 71
3
 72
23
 73
19
 74
0
 42
0.0000001
 43
0.0000001
 44
0.0000000001
 40
0.0
 40
0.0
 40
0.0
 40
0.0
 40
0.0611821794
 40
0.1226415097
 40
0.1843669804
 40
0.2463438581
 40
0.3085524081
 40
0.370969373
 40
0.4335681936
 40
0.4963197991
 40
0.5591932166
 40
0.6221562259
 40
0.6851760019
 40
0.7482195768
 40
0.8112547238
 40
0.8742493303
 40
0.9371745982
 40
1.0
 40
1.0
 40
1.0
 40
1.0
 10
10.6806482997
 20
8.4102727737
 30
0.0
 10
10.6762857179
 20
8.4105753198
 30
0.0
 10
10.667558354
 20
8.4114744264
 30
0.0
 10
10.6545587421
 20
8.4136885978
 30
0.0
 10
10.6416757655
 20
8.4167601299
 30
0.0
 10
10.6289671422
 20
8.4206727589
 30
0.0
 10
10.6164880379
 20
8.4254059328
 30
0.0
 10
10.6042919397
 20
8.4309349056
 30
0.0
 10
10.5924299245
 20
8.437231188
 30
0.0
 10
10.5809504538
 20
8.4442628909
 30
0.0
 10
10.5698991152
 20
8.4519951536
 30
0.0
 10
10.5593184546
 20
8.4603905466
 30
0.0
 10
10.5492478882
 20
8.4694094817
 30
0.0
 10
10.5397236107
 20
8.4790106022
 30
0.0
 10
10.530778732
 20
8.489151093
 30
0.0
 10
10.5224429898
 20
8.4997872327
 30
0.0
 10
10.5147436663
 20
8.5108738294
 30
0.0
 10
10.5100458659
 20
8.518543399
 30
0.0
 10
10.5078109119
 20
8.5224382251
 30
0.0
  0
SPLINE
  5
3C5
100
AcDbEntity
  8
0
100
AcDbSpline
 62
7
  6
CONTINUOUS
 70
0
 71
3
 72
39
 73
35
 74
0
 42
0.0000001
 43
0.0000001
 44
0.0000000001
 40
0.0
 40
0.0
 40
0.0
 40
0.0
 40
0.007175745
 40
0.0146740737
 40
0.0225036116
 40
0.030671472
 40
0.0391835578
 40
0.0480444976
 40
0.0572573741
 40
0.0668240337
 40
0.0767454382
 40
0.0870215229
 40
0.1086328224
 40
0.1316444885
 40
0.1560318876
 40
0.1817621643
 40
0.2087953062
 40
0.2370851424
 40
0.2665800902
 40
0.2972237176
 40
0.3289551842
 40
0.3617097517
 40
0.3954191818
 40
0.4300120556
 40
0.4654140508
 40
0.5015483063
 40
0.5383357156
 40
0.5756951801
 40
0.6135438541
 40
0.6903688654
 40
0.7681254679
 40
0.8461157008
 40
0.9236385661
 40
1.0
 40
1.0
 40
1.0
 40
1.0
 10
11.8685132493
 20
10.0038766108
 30
0.0
 10
11.8677015585
 20
10.0030925777
 30
0.0
 10
11.8660013184
 20
10.0015306424
 30
0.0
 10
11.8632896012
 20
9.9992548998
 30
0.0
 10
11.8603631891
 20
9.9969971793
 30
0.0
 10
11.8572239829
 20
9.9947589962
 30
0.0
 10
11.8538738605
 20
9.9925415458
 30
0.0
 10
11.8503147311
 20
9.9903461338
 30
0.0
 10
11.8465486943
 20
9.9881739942
 30
0.0
 10
11.8425779945
 20
9.9860264061
 30
0.0
 10
11.8384049695
 20
9.9839046869
 30
0.0
 10
11.832474485
 20
9.9810640399
 30
0.0
 10
11.8245643388
 20
9.9775969048
 30
0.0
 10
11.8144612631
 20
9.9736260627
 30
0.0
 10
11.8036176719
 20
9.9697874987
 30
0.0
 10
11.7920594719
 20
9.9660904848
 30
0.0
 10
11.7798141332
 20
9.9625439488
 30
0.0
 10
11.7669109272
 20
9.9591564859
 30
0.0
 10
11.7533807305
 20
9.9559363188
 30
0.0
 10
11.7392559787
 20
9.9528912752
 30
0.0
 10
11.7245705802
 20
9.9500287327
 30
0.0
 10
11.7093598176
 20
9.9473556351
 30
0.0
 10
11.6936602482
 20
9.9448784712
 30
0.0
 10
11.6775096227
 20
9.9426032602
 30
0.0
 10
11.6609467978
 20
9.9405355072
 30
0.0
 10
11.6440116285
 20
9.9386802195
 30
0.0
 10
11.6267448787
 20
9.9370419042
 30
0.0
 10
11.6091880745
 20
9.9356245127
 30
0.0
 10
11.585330973
 20
9.9340260357
 30
0.0
 10
11.5550972004
 20
9.9326088862
 30
0.0
 10
11.5185253777
 20
9.9318362263
 30
0.0
 10
11.4818357768
 20
9.9319909197
 30
0.0
 10
11.4453815309
 20
9.933071419
 30
0.0
 10
11.4212144328
 20
9.9344160308
 30
0.0
 10
11.4092339811
 20
9.9352468779
 30
0.0
  0
SPLINE
  5
3C6
100
AcDbEntity
  8
0
100
AcDbSpline
 62
7
  6
CONTINUOUS
 70
0
 71
3
 72
41
 73
37
 74
0
 42
0.0000001
 43
0.0000001
 44
0.0000000001
 40
0.0
 40
0.0
 40
0.0
 40
0.0
 40
0.0314063763
 40
0.0471951661
 40
0.0630348321
 40
0.0948499858
 40
0.1268363941
 40
0.1428889691
 40
0.1589722602
 40
0.191203723
 40
0.2235010774
 40
0.2558242889
 40
0.2881335963
 40
0.320390872
 40
0.3525607775
 40
0.3846117108
 40
0.4165165659
 40
0.4482533333
 40
0.4798055702
 40
0.5111627651
 40
0.5423206128
 40
0.5732812033
 40
0.6040531179
 40
0.6346514096
 40
0.6650974357
 40
0.6954185011
 40
0.7256472646
 40
0.7558208691
 40
0.7859797683
 40
0.8161662481
 40
0.846422677
 40
0.8767895776
 40
0.9073035617
 40
0.937995674
 40
0.9688884537
 40
1.0
 40
1.0
 40
1.0
 40
1.0
 10
11.4041269648
 20
6.6541675367
 30
0.0
 10
11.4016368126
 20
6.6543402294
 30
0.0
 10
11.3979045887
 20
6.6547915609
 30
0.0
 10
11.3929886847
 20
6.6557650137
 30
0.0
 10
11.3880952755
 20
6.6569896622
 30
0.0
 10
11.382075365
 20
6.6589804051
 30
0.0
 10
11.3762617513
 20
6.6615522389
 30
0.0
 10
11.371758875
 20
6.6639425981
 30
0.0
 10
11.3673574952
 20
6.6665534253
 30
0.0
 10
11.3620828765
 20
6.6702081787
 30
0.0
 10
11.3561803322
 20
6.6751657352
 30
0.0
 10
11.3507508522
 20
6.680646157
 30
0.0
 10
11.3458412696
 20
6.6865923082
 30
0.0
 10
11.3414917359
 20
6.6929446709
 30
0.0
 10
11.3377364832
 20
6.6996418035
 30
0.0
 10
11.3346039003
 20
6.7066210805
 30
0.0
 10
11.3321168631
 20
6.7138191691
 30
0.0
 10
11.3302930144
 20
6.7211724027
 30
0.0
 10
11.3291450313
 20
6.7286170311
 30
0.0
 10
11.3286808335
 20
6.7360893847
 30
0.0
 10
11.3289037199
 20
6.7435259772
 30
0.0
 10
11.32981242
 20
6.7508635782
 30
0.0
 10
11.3314010549
 20
6.7580392858
 30
0.0
 10
11.3336590088
 20
6.7649906315
 30
0.0
 10
11.3365707186
 20
6.7716557471
 30
0.0
 10
11.3401153981
 20
6.7779736253
 30
0.0
 10
11.3442667212
 20
6.7838844996
 30
0.0
 10
11.3489924992
 20
6.789330365
 30
0.0
 10
11.3542543943
 20
6.7942556538
 30
0.0
 10
11.3600077269
 20
6.7986080598
 30
0.0
 10
11.366201417
 20
6.802339501
 30
0.0
 10
11.3727781649
 20
6.8054071526
 30
0.0
 10
11.3796747336
 20
6.8077745809
 30
0.0
 10
11.3868229792
 20
6.8094126231
 30
0.0
 10
11.394149449
 20
6.8103007359
 30
0.0
 10
11.3990870517
 20
6.8103843882
 30
0.0
 10
11.4015583223
 20
6.8103003066
 30
0.0
  0
SPLINE
  5
3C7
100
AcDbEntity
  8
0
100
AcDbSpline
 62
7
  6
CONTINUOUS
 70
0
 71
3
 72
70
 73
66
 74
0
 42
0.0000001
 43
0.0000001
 44
0.0000000001
 40
0.0
 40
0.0
 40
0.0
 40
0.0
 40
0.0081224093
 40
0.0169165429
 40
0.0264081669
 40
0.0366137054
 40
0.047540711
 40
0.0591900911
 40
0.0715572998
 40
0.084633204
 40
0.098404768
 40
0.1128555938
 40
0.1279663838
 40
0.1437152667
 40
0.1600780277
 40
0.1770283812
 40
0.1945381853
 40
0.2125775897
 40
0.2311151672
 40
0.2501180963
 40
0.2695522898
 40
0.2893824887
 40
0.3300838549
 40
0.371922258
 40
0.4145852627
 40
0.4577522917
 40
0.5010978111
 40
0.5442945535
 40
0.5870167064
 40
0.6289430907
 40
0.6697604189
 40
0.6896587125
 40
0.7091675363
 40
0.7282514277
 40
0.7468760564
 40
0.7650083741
 40
0.7826167098
 40
0.7996708955
 40
0.8161424517
 40
0.832004765
 40
0.8472332415
 40
0.8618055311
 40
0.8757018459
 40
0.8889052618
 40
0.9014020921
 40
0.9131824184
 40
0.924240804
 40
0.9345771137
 40
0.9394766539
 40
0.9441987045
 40
0.9487452893
 40
0.9531191169
 40
0.957323585
 40
0.9613628382
 40
0.9652419796
 40
0.9689670642
 40
0.972545257
 40
0.9759850059
 40
0.9824862384
 40
0.985575135
 40
0.9885736377
 40
0.9914975972
 40
0.9943642426
 40
0.9971919613
 40
1.0
 40
1.0
 40
1.0
 40
1.0
 10
11.0444818861
 20
11.0478492899
 30
0.0
 10
11.0461187743
 20
11.0494304026
 30
0.0
 10
11.0496822969
 20
11.0525655835
 30
0.0
 10
11.0555975262
 20
11.0570199662
 30
0.0
 10
11.0622776113
 20
11.0613998696
 30
0.0
 10
11.0697091299
 20
11.0656969007
 30
0.0
 10
11.0778781482
 20
11.0699031432
 30
0.0
 10
11.0867687004
 20
11.074010386
 30
0.0
 10
11.0963633516
 20
11.0780105121
 30
0.0
 10
11.1066431226
 20
11.0818954782
 30
0.0
 10
11.1175875414
 20
11.0856574471
 30
0.0
 10
11.1291747142
 20
11.0892888011
 30
0.0
 10
11.1413814025
 20
11.0927821558
 30
0.0
 10
11.1541830724
 20
11.0961303871
 30
0.0
 10
11.1675539398
 20
11.0993266881
 30
0.0
 10
11.1814670427
 20
11.1023645525
 30
0.0
 10
11.1958943106
 20
11.1052377853
 30
0.0
 10
11.2108066131
 20
11.1079405247
 30
0.0
 10
11.2261738196
 20
11.1104672821
 30
0.0
 10
11.2419648633
 20
11.1128129053
 30
0.0
 10
11.2581478513
 20
11.1149726433
 30
0.0
 10
11.2803969098
 20
11.1176213806
 30
0.0
 10
11.3089462421
 20
11.1204248563
 30
0.0
 10
11.3439384428
 20
11.1229608511
 30
0.0
 10
11.3796720869
 20
11.1246760995
 30
0.0
 10
11.4158582813
 20
11.1255564977
 30
0.0
 10
11.4522046869
 20
11.1255948301
 30
0.0
 10
11.4884175551
 20
11.1247907407
 30
0.0
 10
11.5242043259
 20
11.1231508965
 30
0.0
 10
11.5592756737
 20
11.1206887056
 30
0.0
 10
11.5879074446
 20
11.1179459746
 30
0.0
 10
11.6102350858
 20
11.1153448513
 30
0.0
 10
11.6264858153
 20
11.1132193896
 30
0.0
 10
11.6423504917
 20
11.1109072189
 30
0.0
 10
11.6577970649
 20
11.1084130044
 30
0.0
 10
11.6727943116
 20
11.1057418453
 30
0.0
 10
11.6873119342
 20
11.1028991811
 30
0.0
 10
11.7013206082
 20
11.0998907921
 30
0.0
 10
11.7147920605
 20
11.0967228049
 30
0.0
 10
11.7276991327
 20
11.0934016848
 30
0.0
 10
11.7400158262
 20
11.0899341961
 30
0.0
 10
11.7517173636
 20
11.0863273818
 30
0.0
 10
11.7627802633
 20
11.0825885836
 30
0.0
 10
11.7731824029
 20
11.0787253938
 30
0.0
 10
11.7829030254
 20
11.0747456217
 30
0.0
 10
11.7919229351
 20
11.0706572261
 30
0.0
 10
11.8002241422
 20
11.0664684018
 30
0.0
 10
11.8066395362
 20
11.0628388096
 30
0.0
 10
11.8113878408
 20
11.0598838885
 30
0.0
 10
11.814695392
 20
11.057687477
 30
0.0
 10
11.8178113967
 20
11.0554722812
 30
0.0
 10
11.8207343252
 20
11.0532393737
 30
0.0
 10
11.8234627388
 20
11.0509898537
 30
0.0
 10
11.8259952334
 20
11.0487247442
 30
0.0
 10
11.8283305931
 20
11.0464451371
 30
0.0
 10
11.8304675752
 20
11.0441521496
 30
0.0
 10
11.8324052163
 20
11.0418465225
 30
0.0
 10
11.8346783052
 20
11.0388149404
 30
0.0
 10
11.8366084673
 20
11.0357015991
 30
0.0
 10
11.8381409628
 20
11.0325218138
 30
0.0
 10
11.8390668627
 20
11.0301701119
 30
0.0
 10
11.8397878901
 20
11.0278126924
 30
0.0
 10
11.8403034702
 20
11.0254506997
 30
0.0
 10
11.8406129814
 20
11.0230858077
 30
0.0
 10
11.840681865
 20
11.0215058784
 30
0.0
 10
11.8406818596
 20
11.0207190961
 30
0.0
  0
SPLINE
  5
3C8
100
AcDbEntity
  8
0
100
AcDbSpline
 62
7
  6
CONTINUOUS
 70
0
 71
3
 72
23
 73
19
 74
0
 42
0.0000001
 43
0.0000001
 44
0.0000000001
 40
0.0
 40
0.0
 40
0.0
 40
0.0
 40
0.0620143924
 40
0.1239369447
 40
0.185798336
 40
0.2476344177
 40
0.3094803936
 40
0.3713729914
 40
0.4333487394
 40
0.4954436072
 40
0.5576921421
 40
0.6201267196
 40
0.6827767882
 40
0.7456680961
 40
0.8088221896
 40
0.8722554586
 40
0.9359796946
 40
1.0
 40
1.0
 40
1.0
 40
1.0
 10
10.8534859618
 20
8.498465579
 30
0.0
 10
10.8512552107
 20
8.4948874833
 30
0.0
 10
10.8465645642
 20
8.4878784294
 30
0.0
 10
10.83886234
 20
8.4778542033
 30
0.0
 10
10.8305227379
 20
8.468368837
 30
0.0
 10
10.8215731711
 20
8.4594640356
 30
0.0
 10
10.8120434447
 20
8.4511795293
 30
0.0
 10
10.8019668025
 20
8.4435537047
 30
0.0
 10
10.7913796035
 20
8.4366230292
 30
0.0
 10
10.780321464
 20
8.4304217273
 30
0.0
 10
10.7688351573
 20
8.4249813916
 30
0.0
 10
10.7569665168
 20
8.4203305782
 30
0.0
 10
10.7447642578
 20
8.4164944225
 30
0.0
 10
10.7322797042
 20
8.4134942448
 30
0.0
 10
10.7195665699
 20
8.4113472388
 30
0.0
 10
10.7066802185
 20
8.4100661239
 30
0.0
 10
10.6936785051
 20
8.4096589421
 30
0.0
 10
10.6849907744
 20
8.4099716221
 30
0.0
 10
10.6806482997
 20
8.4102727737
 30
0.0
  0
SPLINE
  5
3C9
100
AcDbEntity
  8
0
100
AcDbSpline
 62
7
  6
CONTINUOUS
 70
0
 71
3
 72
37
 73
33
 74
0
 42
0.0000001
 43
0.0000001
 44
0.0000000001
 40
0.0
 40
0.0
 40
0.0
 40
0.0
 40
0.0761050845
 40
0.1533648988
 40
0.2310960984
 40
0.3086083866
 40
0.3852143172
 40
0.460236943
 40
0.4969486828
 40
0.5330195787
 40
0.5683715597
 40
0.6029287238
 40
0.636617645
 40
0.6693677084
 40
0.701111364
 40
0.7317844435
 40
0.7613265775
 40
0.7896816495
 40
0.8167982013
 40
0.8426299832
 40
0.867136707
 40
0.8902849316
 40
0.9120490482
 40
0.9324127275
 40
0.9420681197
 40
0.9513725865
 40
0.9603276517
 40
0.9689358333
 40
0.9772011877
 40
0.9851290725
 40
0.9927260547
 40
1.0
 40
1.0
 40
1.0
 40
1.0
 10
11.4092339811
 20
5.6185241045
 30
0.0
 10
11.4211415889
 20
5.6176983091
 30
0.0
 10
11.4451611541
 20
5.6163599159
 30
0.0
 10
11.4813934636
 20
5.6152775397
 30
0.0
 10
11.5178624525
 20
5.6151098777
 30
0.0
 10
11.5542215693
 20
5.6158585112
 30
0.0
 10
11.5901253202
 20
5.6175162955
 30
0.0
 10
11.6195906629
 20
5.6196568942
 30
0.0
 10
11.6426715699
 20
5.6218218202
 30
0.0
 10
11.6595332027
 20
5.6236486083
 30
0.0
 10
11.6760302987
 20
5.625685684
 30
0.0
 10
11.6921236652
 20
5.6279282104
 30
0.0
 10
11.7077750406
 20
5.630370814
 30
0.0
 10
11.7229472436
 20
5.6330076322
 30
0.0
 10
11.7376042417
 20
5.6358323431
 30
0.0
 10
11.7517112382
 20
5.6388381839
 30
0.0
 10
11.7652347716
 20
5.6420179531
 30
0.0
 10
11.778142809
 20
5.6453640132
 30
0.0
 10
11.7904048135
 20
5.6488683417
 30
0.0
 10
11.8019918327
 20
5.6525225566
 30
0.0
 10
11.8128765677
 20
5.6563179215
 30
0.0
 10
11.8230335787
 20
5.6602453878
 30
0.0
 10
11.832438958
 20
5.664295618
 30
0.0
 10
11.839757081
 20
5.6678251525
 30
0.0
 10
11.8452082595
 20
5.6707112386
 30
0.0
 10
11.8490223282
 20
5.672862027
 30
0.0
 10
11.8526327338
 20
5.6750362038
 30
0.0
 10
11.8560373511
 20
5.6772326088
 30
0.0
 10
11.8592342501
 20
5.6794499493
 30
0.0
 10
11.8622216014
 20
5.681687037
 30
0.0
 10
11.8649974872
 20
5.6839424946
 30
0.0
 10
11.8667432952
 20
5.6854905081
 30
0.0
 10
11.8675784505
 20
5.6862676949
 30
0.0
  0
SPLINE
  5
3CA
100
AcDbEntity
  8
0
100
AcDbSpline
 62
7
  6
CONTINUOUS
 70
0
 71
3
 72
23
 73
19
 74
0
 42
0.0000001
 43
0.0000001
 44
0.0000000001
 40
0.0
 40
0.0
 40
0.0
 40
0.0
 40
0.0631722639
 40
0.1259875584
 40
0.1884987689
 40
0.2507664582
 40
0.3128585715
 40
0.3748440209
 40
0.4367891404
 40
0.4987547058
 40
0.5607941521
 40
0.6229527894
 40
0.685267792
 40
0.7477686852
 40
0.8104781239
 40
0.8734127991
 40
0.9365843178
 40
1.0
 40
1.0
 40
1.0
 40
1.0
 10
10.4655078588
 20
7.8909527473
 30
0.0
 10
10.46632246
 20
7.8955160875
 30
0.0
 10
10.4683860036
 20
7.9045451325
 30
0.0
 10
10.4727682474
 20
7.9176862132
 30
0.0
 10
10.4783758549
 20
7.9302813587
 30
0.0
 10
10.4851380049
 20
7.9422340409
 30
0.0
 10
10.4929709041
 20
7.9534659423
 30
0.0
 10
10.5017823815
 20
7.9639151877
 30
0.0
 10
10.5114763161
 20
7.9735363776
 30
0.0
 10
10.5219563912
 20
7.9822987749
 30
0.0
 10
10.53312891
 20
7.9901841608
 30
0.0
 10
10.5449046916
 20
7.9971844487
 30
0.0
 10
10.557200159
 20
8.003299403
 30
0.0
 10
10.5699378247
 20
8.0085346014
 30
0.0
 10
10.5830462293
 20
8.012899705
 30
0.0
 10
10.5964599162
 20
8.0164070885
 30
0.0
 10
10.610117936
 20
8.019070635
 30
0.0
 10
10.6193327216
 20
8.0202913641
 30
0.0
 10
10.6239617204
 20
8.0207666876
 30
0.0
  0
SPLINE
  5
3CB
100
AcDbEntity
  8
0
100
AcDbSpline
 62
7
  6
CONTINUOUS
 70
0
 71
3
 72
23
 73
19
 74
0
 42
0.0000001
 43
0.0000001
 44
0.0000000001
 40
0.0
 40
0.0
 40
0.0
 40
0.0
 40
0.0749624693
 40
0.145568562
 40
0.2121600715
 40
0.2751632908
 40
0.3350982944
 40
0.3925833986
 40
0.4483295947
 40
0.5031238753
 40
0.5577984801
 40
0.6131915856
 40
0.6701066397
 40
0.7292788515
 40
0.7913527669
 40
0.856877356
 40
0.9263077324
 40
1.0
 40
1.0
 40
1.0
 40
1.0
 10
10.4514749589
 20
11.29374382
 30
0.0
 10
10.4497828057
 20
11.295318546
 30
0.0
 10
10.4465906545
 20
11.2984800494
 30
0.0
 10
10.4422834402
 20
11.3034124217
 30
0.0
 10
10.438610557
 20
11.3083838899
 30
0.0
 10
10.435577386
 20
11.3133900691
 30
0.0
 10
10.4331891276
 20
11.3184266184
 30
0.0
 10
10.4314509698
 20
11.3234882964
 30
0.0
 10
10.4303679789
 20
11.3285686617
 30
0.0
 10
10.4299438686
 20
11.3336596225
 30
0.0
 10
10.4301803602
 20
11.3387519437
 30
0.0
 10
10.4310765275
 20
11.343836194
 30
0.0
 10
10.4326289957
 20
11.3489039311
 30
0.0
 10
10.4348331596
 20
11.3539481623
 30
0.0
 10
10.4376836104
 20
11.3589634411
 30
0.0
 10
10.4411753311
 20
11.3639452787
 30
0.0
 10
10.445302876
 20
11.3688890655
 30
0.0
 10
10.4483797713
 20
11.3720588461
 30
0.0
 10
10.4500141742
 20
11.3736375582
 30
0.0
  0
SPLINE
  5
3CC
100
AcDbEntity
  8
0
100
AcDbSpline
 62
7
  6
CONTINUOUS
 70
0
 71
3
 72
31
 73
27
 74
0
 42
0.0000001
 43
0.0000001
 44
0.0000000001
 40
0.0
 40
0.0
 40
0.0
 40
0.0
 40
0.0165871972
 40
0.034153845
 40
0.052730511
 40
0.0723389048
 40
0.0929937081
 40
0.1147031542
 40
0.1374704627
 40
0.1612940074
 40
0.1861684824
 40
0.2120847967
 40
0.2390310689
 40
0.2669923487
 40
0.2959515022
 40
0.3258888278
 40
0.3567828667
 40
0.3886099588
 40
0.4549591512
 40
0.5247176568
 40
0.5976421114
 40
0.6734695769
 40
0.7519200885
 40
0.8326987929
 40
0.9154982726
 40
1.0
 40
1.0
 40
1.0
 40
1.0
 10
9.5753740702
 20
5.7951218744
 30
0.0
 10
9.5764922336
 20
5.7940813143
 30
0.0
 10
9.5788638905
 20
5.7920123873
 30
0.0
 10
9.582696372
 20
5.7890274392
 30
0.0
 10
9.5868998766
 20
5.7860766232
 30
0.0
 10
9.591469911
 20
5.7831629144
 30
0.0
 10
9.5964019211
 20
5.780289232
 30
0.0
 10
9.601690819
 20
5.7774584232
 30
0.0
 10
9.6073312045
 20
5.7746734623
 30
0.0
 10
9.6133172334
 20
5.7719371546
 30
0.0
 10
9.6196427274
 20
5.7692524242
 30
0.0
 10
9.6263010985
 20
5.766622003
 30
0.0
 10
9.6332854282
 20
5.764048724
 30
0.0
 10
9.6405884172
 20
5.7615352185
 30
0.0
 10
9.6482024457
 20
5.7590842029
 30
0.0
 10
9.656119537
 20
5.7566981951
 30
0.0
 10
9.6643314178
 20
5.7543797514
 30
0.0
 10
9.6758219487
 20
5.751339611
 30
0.0
 10
9.6908636153
 20
5.7477382029
 30
0.0
 10
9.7097032393
 20
5.7437801083
 30
0.0
 10
9.7294957346
 20
5.7401448114
 30
0.0
 10
9.7501580601
 20
5.7368477481
 30
0.0
 10
9.7716036446
 20
5.7339029604
 30
0.0
 10
9.7937425422
 20
5.7313229611
 30
0.0
 10
9.8164817291
 20
5.7291187239
 30
0.0
 10
9.8318417139
 20
5.7279166297
 30
0.0
 10
9.8396044204
 20
5.7273782842
 30
0.0
  0
SPLINE
  5
3CD
100
AcDbEntity
  8
0
100
AcDbSpline
 62
7
  6
CONTINUOUS
 70
0
 71
3
 72
81
 73
77
 74
0
 42
0.0000001
 43
0.0000001
 44
0.0000000001
 40
0.0
 40
0.0
 40
0.0
 40
0.0
 40
0.0028079998
 40
0.005635686
 40
0.0085022932
 40
0.0114262233
 40
0.0144247005
 40
0.0175135582
 40
0.0207071273
 40
0.0240181474
 40
0.0274578637
 40
0.0310360368
 40
0.03476108
 40
0.0386401938
 40
0.0426794173
 40
0.0468838431
 40
0.0512576363
 40
0.0558041819
 40
0.0605261871
 40
0.0654256836
 40
0.0705042041
 40
0.0757627403
 40
0.086821024
 40
0.0986012361
 40
0.1110979219
 40
0.1243011894
 40
0.1381973624
 40
0.1527694912
 40
0.167997778
 40
0.1838598971
 40
0.2003312599
 40
0.2173852391
 40
0.2349933479
 40
0.2531254346
 40
0.2717498266
 40
0.2908334633
 40
0.3103420298
 40
0.3302400628
 40
0.3504910855
 40
0.3710577144
 40
0.3919017609
 40
0.4129843382
 40
0.4557058933
 40
0.4989020277
 40
0.5422469278
 40
0.5854133331
 40
0.6280757217
 40
0.6491178466
 40
0.669914326
 40
0.690426391
 40
0.7106159908
 40
0.7304458897
 40
0.7498797931
 40
0.7688824474
 40
0.7874197521
 40
0.8054588835
 40
0.822968429
 40
0.8399185322
 40
0.856281045
 40
0.8720296923
 40
0.8871402675
 40
0.9015908789
 40
0.9153622253
 40
0.9284379335
 40
0.9408049732
 40
0.9524541883
 40
0.9580083132
 40
0.9633817274
 40
0.9685747211
 40
0.9735880022
 40
0.978422747
 40
0.9830806188
 40
0.9875640011
 40
0.9918758972
 40
0.9960198449
 40
1.0
 40
1.0
 40
1.0
 40
1.0
 10
11.5710467652
 20
11.2920362388
 30
0.0
 10
11.57104677
 20
11.2931144211
 30
0.0
 10
11.5709523662
 20
11.2952795118
 30
0.0
 10
11.5705281032
 20
11.2985202753
 30
0.0
 10
11.5698215909
 20
11.3017570814
 30
0.0
 10
11.5688334366
 20
11.3049876345
 30
0.0
 10
11.5675645962
 20
11.308210225
 30
0.0
 10
11.5660161123
 20
11.3114231706
 30
0.0
 10
11.5641890468
 20
11.3146248766
 30
0.0
 10
11.5620846862
 20
11.3178139116
 30
0.0
 10
11.5597042155
 20
11.320988779
 30
0.0
 10
11.5570490147
 20
11.3241480832
 30
0.0
 10
11.554120504
 20
11.3272904087
 30
0.0
 10
11.5509201605
 20
11.3304142773
 30
0.0
 10
11.5474496627
 20
11.3335183108
 30
0.0
 10
11.5437107011
 20
11.3366009898
 30
0.0
 10
11.5397051681
 20
11.3396608833
 30
0.0
 10
11.5354350541
 20
11.3426965217
 30
0.0
 10
11.5309024597
 20
11.3457063882
 30
0.0
 10
11.5261096752
 20
11.3486890588
 30
0.0
 10
11.5210590514
 20
11.3516430369
 30
0.0
 10
11.513863302
 20
11.3556081134
 30
0.0
 10
11.5042279966
 20
11.360469861
 30
0.0
 10
11.4918675632
 20
11.3660724124
 30
0.0
 10
11.4785466056
 20
11.3715261811
 30
0.0
 10
11.4642918033
 20
11.3768201646
 30
0.0
 10
11.4491314813
 20
11.3819436769
 30
0.0
 10
11.4330960052
 20
11.3868863254
 30
0.0
 10
11.4162175507
 20
11.3916380612
 30
0.0
 10
11.3985300612
 20
11.3961892117
 30
0.0
 10
11.3800691568
 20
11.4005305025
 30
0.0
 10
11.3608720654
 20
11.4046530894
 30
0.0
 10
11.3409775344
 20
11.40854858
 30
0.0
 10
11.320425743
 20
11.4122090396
 30
0.0
 10
11.299258213
 20
11.4156270139
 30
0.0
 10
11.2775177242
 20
11.4187955395
 30
0.0
 10
11.2552482317
 20
11.421708166
 30
0.0
 10
11.232494772
 20
11.4243589709
 30
0.0
 10
11.2093033645
 20
11.4267425631
 30
0.0
 10
11.1857209299
 20
11.4288540858
 30
0.0
 10
11.1617951346
 20
11.43068927
 30
0.0
 10
11.1293590269
 20
11.4327717176
 30
0.0
 10
11.0883130859
 20
11.434652427
 30
0.0
 10
11.038688227
 20
11.4357543254
 30
0.0
 10
10.9888801868
 20
11.43570178
 30
0.0
 10
10.9392918968
 20
11.4344952521
 30
0.0
 10
10.8982997294
 20
11.4325276985
 30
0.0
 10
10.8659247552
 20
11.4303763191
 30
0.0
 10
10.8420578037
 20
11.4284905927
 30
0.0
 10
10.8185429392
 20
11.4263292713
 30
0.0
 10
10.7954276955
 20
11.4238967182
 30
0.0
 10
10.7727588407
 20
11.4211978863
 30
0.0
 10
10.7505822184
 20
11.4182382703
 30
0.0
 10
10.7289426705
 20
11.4150238951
 30
0.0
 10
10.7078839453
 20
11.4115613037
 30
0.0
 10
10.6874486075
 20
11.4078575433
 30
0.0
 10
10.6676779453
 20
11.4039201527
 30
0.0
 10
10.6486118778
 20
11.3997571574
 30
0.0
 10
10.6302888755
 20
11.3953770391
 30
0.0
 10
10.6127458797
 20
11.3907887209
 30
0.0
 10
10.5960182228
 20
11.3860015446
 30
0.0
 10
10.5801395328
 20
11.3810252479
 30
0.0
 10
10.5651416765
 20
11.3758699532
 30
0.0
 10
10.5510545688
 20
11.3705461086
 30
0.0
 10
10.537906503
 20
11.3650644877
 30
0.0
 10
10.5275960059
 20
11.3603014101
 30
0.0
 10
10.5198485456
 20
11.3564110221
 30
0.0
 10
10.5143815378
 20
11.3535071623
 30
0.0
 10
10.5091681601
 20
11.3505722246
 30
0.0
 10
10.5042110235
 20
11.347607638
 30
0.0
 10
10.4995125919
 20
11.3446149393
 30
0.0
 10
10.4950752199
 20
11.3415955299
 30
0.0
 10
10.4909010524
 20
11.3385509056
 30
0.0
 10
10.4869921553
 20
11.3354824604
 30
0.0
 10
10.4833506745
 20
11.3323918726
 30
0.0
 10
10.4810571142
 20
11.3302758762
 30
0.0
 10
10.4799579116
 20
11.3292141279
 30
0.0
  0
SPLINE
  5
3CE
100
AcDbEntity
  8
0
100
AcDbSpline
 62
7
  6
CONTINUOUS
 70
0
 71
3
 72
17
 73
13
 74
0
 42
0.0000001
 43
0.0000001
 44
0.0000000001
 40
0.0
 40
0.0
 40
0.0
 40
0.0
 40
0.0548653995
 40
0.1099348206
 40
0.2214348222
 40
0.3360991408
 40
0.4553350478
 40
0.5170794787
 40
0.5804143716
 40
0.712316841
 40
0.8519520933
 40
1.0
 40
1.0
 40
1.0
 40
1.0
 10
11.0306818783
 20
11.0207198619
 30
0.0
 10
11.0306818822
 20
11.0212918266
 30
0.0
 10
11.030718208
 20
11.0224382486
 30
0.0
 10
11.0309366591
 20
11.0247375313
 30
0.0
 10
11.0314886276
 20
11.0276252241
 30
0.0
 10
11.0325853998
 20
11.0310629834
 30
0.0
 10
11.0338464782
 20
11.0338821889
 30
0.0
 10
11.0350599474
 20
11.0361224083
 30
0.0
 10
11.0364494189
 20
11.0384140344
 30
0.0
 10
11.0384669579
 20
11.0412690837
 30
0.0
 10
11.0412797727
 20
11.0446241853
 30
0.0
 10
11.0433718028
 20
11.0467770317
 30
0.0
 10
11.0444818861
 20
11.0478492899
 30
0.0
  0
SPLINE
  5
3CF
100
AcDbEntity
  8
0
100
AcDbSpline
 62
7
  6
CONTINUOUS
 70
0
 71
3
 72
10
 73
6
 74
0
 42
0.0000001
 43
0.0000001
 44
0.0000000001
 40
0.0
 40
0.0
 40
0.0
 40
0.0
 40
0.4750522351
 40
0.7308685856
 40
1.0
 40
1.0
 40
1.0
 40
1.0
 10
11.0351359766
 20
11.0053130536
 30
0.0
 10
11.0363209024
 20
11.0073638036
 30
0.0
 10
11.0384230448
 20
11.0103629844
 30
0.0
 10
11.0416836267
 20
11.0141363725
 30
0.0
 10
11.0435167856
 20
11.0160074453
 30
0.0
 10
11.0444818861
 20
11.0169396609
 30
0.0
  0
SPLINE
  5
3D0
100
AcDbEntity
  8
0
100
AcDbSpline
 62
7
  6
CONTINUOUS
 70
0
 71
3
 72
91
 73
87
 74
0
 42
0.0000001
 43
0.0000001
 44
0.0000000001
 40
0.0
 40
0.0
 40
0.0
 40
0.0
 40
0.0035635324
 40
0.0069856624
 40
0.0102802009
 40
0.0134628672
 40
0.0165513026
 40
0.0195650693
 40
0.0225254021
 40
0.0254548153
 40
0.0283766113
 40
0.0313142895
 40
0.0342909337
 40
0.0373286593
 40
0.0404481417
 40
0.0436682977
 40
0.0470061277
 40
0.0504766158
 40
0.0540928478
 40
0.0578660355
 40
0.0618057446
 40
0.0659199993
 40
0.0702154636
 40
0.0746976258
 40
0.0793708662
 40
0.0842386892
 40
0.0893037141
 40
0.0945678794
 40
0.1000324528
 40
0.1056981261
 40
0.1115651062
 40
0.1176330878
 40
0.1239014114
 40
0.1303689772
 40
0.1438954017
 40
0.1581979809
 40
0.173257403
 40
0.189050623
 40
0.2055513218
 40
0.2227302733
 40
0.2405556615
 40
0.2589933242
 40
0.2780070029
 40
0.297558533
 40
0.3176080347
 40
0.3381140862
 40
0.359033875
 40
0.3803233637
 40
0.4019374261
 40
0.423830001
 40
0.4459542343
 40
0.4682626138
 40
0.5132384312
 40
0.5583703552
 40
0.5808734487
 40
0.6032695198
 40
0.6255102944
 40
0.6475479295
 40
0.6693351622
 40
0.6908254303
 40
0.7119730345
 40
0.7327332647
 40
0.753062553
 40
0.7729186235
 40
0.7922606443
 40
0.8110493961
 40
0.8292474504
 40
0.8468193589
 40
0.8637318721
 40
0.8799541687
 40
0.8954581394
 40
0.9102187189
 40
0.9242142815
 40
0.9374271611
 40
0.9437361214
 40
0.9498449473
 40
0.9557528659
 40
0.9614595005
 40
0.9669649718
 40
0.9722698394
 40
0.9773752635
 40
0.9822829773
 40
0.9869955446
 40
0.9915163727
 40
0.9958495702
 40
1.0
 40
1.0
 40
1.0
 40
1.0
 10
11.5688489091
 20
11.2841622457
 30
0.0
 10
11.5697304909
 20
11.2852861147
 30
0.0
 10
11.5713946334
 20
11.2875406661
 30
0.0
 10
11.5736226538
 20
11.2910106141
 30
0.0
 10
11.5755279431
 20
11.2944952916
 30
0.0
 10
11.5771089761
 20
11.2979926654
 30
0.0
 10
11.5783642656
 20
11.3015008282
 30
0.0
 10
11.5792925119
 20
11.305017583
 30
0.0
 10
11.5798926783
 20
11.3085405493
 30
0.0
 10
11.5801639023
 20
11.3120671526
 30
0.0
 10
11.5801059414
 20
11.315594655
 30
0.0
 10
11.5797187296
 20
11.3191202814
 30
0.0
 10
11.5790029178
 20
11.3226413501
 30
0.0
 10
11.5779593155
 20
11.3261553315
 30
0.0
 10
11.5765891253
 20
11.3296599261
 30
0.0
 10
11.5748937216
 20
11.3331530603
 30
0.0
 10
11.572874502
 20
11.3366327652
 30
0.0
 10
11.5705331064
 20
11.340097288
 30
0.0
 10
11.5678710567
 20
11.3435447968
 30
0.0
 10
11.564890143
 20
11.3469736225
 30
0.0
 10
11.5615921231
 20
11.3503819733
 30
0.0
 10
11.557978958
 20
11.3537681074
 30
0.0
 10
11.5540527383
 20
11.3571302608
 30
0.0
 10
11.5498156721
 20
11.3604665843
 30
0.0
 10
11.5452702088
 20
11.363775335
 30
0.0
 10
11.5404188804
 20
11.367054609
 30
0.0
 10
11.5352644803
 20
11.3703026499
 30
0.0
 10
11.529809914
 20
11.3735175808
 30
0.0
 10
11.5240583003
 20
11.3766975997
 30
0.0
 10
11.5180129266
 20
11.379840908
 30
0.0
 10
11.5116772372
 20
11.3829456674
 30
0.0
 10
11.5050548847
 20
11.3860101487
 30
0.0
 10
11.4981496409
 20
11.3890325518
 30
0.0
 10
11.4884249619
 20
11.3930643838
 30
0.0
 10
11.4755810457
 20
11.3979738949
 30
0.0
 10
11.4593290262
 20
11.4035858858
 30
0.0
 10
11.4420524903
 20
11.4089901148
 30
0.0
 10
11.4237912461
 20
11.4141740115
 30
0.0
 10
11.4045871915
 20
11.419125496
 30
0.0
 10
11.3844845547
 20
11.423833021
 30
0.0
 10
11.3635296787
 20
11.4282856052
 30
0.0
 10
11.3417709266
 20
11.4324728665
 30
0.0
 10
11.3192585549
 20
11.4363850407
 30
0.0
 10
11.2960445868
 20
11.4400130082
 30
0.0
 10
11.2721826881
 20
11.4433483129
 30
0.0
 10
11.2477280398
 20
11.4463831832
 30
0.0
 10
11.2227372054
 20
11.449110548
 30
0.0
 10
11.1972680037
 20
11.4515240539
 30
0.0
 10
11.1713793646
 20
11.4536180857
 30
0.0
 10
11.1451312105
 20
11.4553877609
 30
0.0
 10
11.1185842424
 20
11.4568289938
 30
0.0
 10
11.0827763179
 20
11.4583120412
 30
0.0
 10
11.0377225393
 20
11.4593206609
 30
0.0
 10
10.9925796477
 20
11.459209328
 30
0.0
 10
10.9564995694
 20
11.4584449315
 30
0.0
 10
10.9296022914
 20
11.4575364932
 30
0.0
 10
10.9029051401
 20
11.4562946102
 30
0.0
 10
10.8764698582
 20
11.4547221412
 30
0.0
 10
10.8503576426
 20
11.452822753
 30
0.0
 10
10.8246289191
 20
11.4506008629
 30
0.0
 10
10.7993432263
 20
11.4480616463
 30
0.0
 10
10.7745590665
 20
11.4452110168
 30
0.0
 10
10.7503337738
 20
11.4420556141
 30
0.0
 10
10.7267233786
 20
11.4386027893
 30
0.0
 10
10.7037824759
 20
11.4348605878
 30
0.0
 10
10.6815640947
 20
11.4308377312
 30
0.0
 10
10.6601195704
 20
11.4265435975
 30
0.0
 10
10.6394984153
 20
11.4219882032
 30
0.0
 10
10.6197482028
 20
11.4171821739
 30
0.0
 10
10.6009144367
 20
11.4121367194
 30
0.0
 10
10.5830404675
 20
11.4068636017
 30
0.0
 10
10.566167262
 20
11.4013751006
 30
0.0
 10
10.5503336715
 20
11.3956839756
 30
0.0
 10
10.5378499823
 20
11.3907098618
 30
0.0
 10
10.5284211207
 20
11.386628696
 30
0.0
 10
10.5217408779
 20
11.3835726229
 30
0.0
 10
10.5153465539
 20
11.3804759236
 30
0.0
 10
10.5092418159
 20
11.3773403054
 30
0.0
 10
10.5034301369
 20
11.3741676263
 30
0.0
 10
10.4979148709
 20
11.3709596213
 30
0.0
 10
10.4926991442
 20
11.3677182009
 30
0.0
 10
10.4877859356
 20
11.3644451385
 30
0.0
 10
10.4831779942
 20
11.3611422531
 30
0.0
 10
10.478877884
 20
11.3578113004
 30
0.0
 10
10.4748882963
 20
11.354454292
 30
0.0
 10
10.4723841755
 20
11.352151545
 30
0.0
 10
10.4711876042
 20
11.3509957458
 30
0.0
  0
SPLINE
  5
3D1
100
AcDbEntity
  8
0
100
AcDbSpline
 62
7
  6
CONTINUOUS
 70
0
 71
3
 72
15
 73
11
 74
0
 42
0.0000001
 43
0.0000001
 44
0.0000000001
 40
0.0
 40
0.0
 40
0.0
 40
0.0
 40
0.1131074848
 40
0.2251544605
 40
0.3386039422
 40
0.4558221876
 40
0.5789328031
 40
0.7097436404
 40
0.8497264022
 40
1.0
 40
1.0
 40
1.0
 40
1.0
 10
11.1261851579
 20
10.9852398061
 30
0.0
 10
11.1259535855
 20
10.9862903961
 30
0.0
 10
11.1256450978
 20
10.9884193569
 30
0.0
 10
11.125680385
 20
10.9916521727
 30
0.0
 10
11.1262181602
 20
10.9948799592
 30
0.0
 10
11.127255032
 20
10.9980928818
 30
0.0
 10
11.1287852107
 20
11.0012846718
 30
0.0
 10
11.1308031372
 20
11.0044508388
 30
0.0
 10
11.1333031964
 20
11.0075875651
 30
0.0
 10
11.1352168071
 20
11.0095828696
 30
0.0
 10
11.1362448451
 20
11.0105758781
 30
0.0
  0
SPLINE
  5
3D2
100
AcDbEntity
  8
0
100
AcDbSpline
 62
7
  6
CONTINUOUS
 70
0
 71
3
 72
18
 73
14
 74
0
 42
0.0000001
 43
0.0000001
 44
0.0000000001
 40
0.0
 40
0.0
 40
0.0
 40
0.0
 40
0.1480425417
 40
0.2876686527
 40
0.4195630688
 40
0.482894787
 40
0.5446363783
 40
0.6638665887
 40
0.7785244486
 40
0.8345987159
 40
0.8900707785
 40
0.9451373559
 40
1.0
 40
1.0
 40
1.0
 40
1.0
 10
10.4799579116
 20
11.3292141279
 30
0.0
 10
10.4784366487
 20
11.3277447007
 30
0.0
 10
10.4755697481
 20
11.3247944853
 30
0.0
 10
10.4717151534
 20
11.3201966969
 30
0.0
 10
10.4689503766
 20
11.3162842155
 30
0.0
 10
10.4670462881
 20
11.3131438247
 30
0.0
 10
10.4653833848
 20
11.3100737904
 30
0.0
 10
10.4636552026
 20
11.3062107926
 30
0.0
 10
10.462393396
 20
11.3022543866
 30
0.0
 10
10.4616929701
 20
11.2990977141
 30
0.0
 10
10.4613202215
 20
11.2967451063
 30
0.0
 10
10.4610965518
 20
11.2943911897
 30
0.0
 10
10.4610467954
 20
11.2928202004
 30
0.0
 10
10.4610467887
 20
11.2920363885
 30
0.0
  0
SPLINE
  5
3D3
100
AcDbEntity
  8
0
100
AcDbSpline
 62
7
  6
CONTINUOUS
 70
0
 71
3
 72
25
 73
21
 74
0
 42
0.0000001
 43
0.0000001
 44
0.0000000001
 40
0.0
 40
0.0
 40
0.0
 40
0.0
 40
0.0758075673
 40
0.1477812756
 40
0.216181845
 40
0.2491492269
 40
0.2813520734
 40
0.3436561363
 40
0.4035638846
 40
0.4615957275
 40
0.5183313159
 40
0.5743947196
 40
0.630434711
 40
0.6871009522
 40
0.7450199334
 40
0.8047748463
 40
0.8668912393
 40
0.8989889344
 40
0.9318440541
 40
1.0
 40
1.0
 40
1.0
 40
1.0
 10
10.4711876042
 20
11.3509957458
 30
0.0
 10
10.4698140606
 20
11.3496690045
 30
0.0
 10
10.4672083729
 20
11.3470063551
 30
0.0
 10
10.4636541873
 20
11.3428751499
 30
0.0
 10
10.4610462331
 20
11.3393671331
 30
0.0
 10
10.4592030438
 20
11.3365510535
 30
0.0
 10
10.457556477
 20
11.3337932437
 30
0.0
 10
10.4557780334
 20
11.3303273655
 30
0.0
 10
10.4540917524
 20
11.3261038871
 30
0.0
 10
10.452879801
 20
11.3218654711
 30
0.0
 10
10.4521445783
 20
11.3176166205
 30
0.0
 10
10.4518878699
 20
11.3133622068
 30
0.0
 10
10.4521102312
 20
11.3091075978
 30
0.0
 10
10.452811185
 20
11.3048581749
 30
0.0
 10
10.4539890375
 20
11.3006188666
 30
0.0
 10
10.4556413685
 20
11.2963941881
 30
0.0
 10
10.4573922047
 20
11.2929268051
 30
0.0
 10
10.4590168287
 20
11.2901678099
 30
0.0
 10
10.4608372509
 20
11.2873509264
 30
0.0
 10
10.4623462879
 20
11.2852981109
 30
0.0
 10
10.4634109046
 20
11.2839511075
 30
0.0
  0
SPLINE
  5
3D4
100
AcDbEntity
  8
0
100
AcDbSpline
 62
7
  6
CONTINUOUS
 70
0
 71
3
 72
61
 73
57
 74
0
 42
0.0000001
 43
0.0000001
 44
0.0000000001
 40
0.0
 40
0.0
 40
0.0
 40
0.0
 40
0.0064050742
 40
0.009787858
 40
0.0133009101
 40
0.0207428158
 40
0.0287770319
 40
0.0374347092
 40
0.0467366651
 40
0.0566953997
 40
0.0673167992
 40
0.078601322
 40
0.0905448645
 40
0.1031395771
 40
0.1163743923
 40
0.130235372
 40
0.144706146
 40
0.1597681818
 40
0.1754009263
 40
0.1915820762
 40
0.2082877521
 40
0.2254925596
 40
0.2431697766
 40
0.2612914893
 40
0.2798286297
 40
0.3180271098
 40
0.3575150034
 40
0.3980291357
 40
0.439297014
 40
0.4810394429
 40
0.5229730267
 40
0.5648126968
 40
0.6062742027
 40
0.6470766333
 40
0.6869449245
 40
0.7256124157
 40
0.7444159413
 40
0.7628244556
 40
0.7808082047
 40
0.7983384918
 40
0.8153877334
 40
0.8319296308
 40
0.8479392823
 40
0.8633932518
 40
0.8782697802
 40
0.8925489705
 40
0.9062129084
 40
0.9192459595
 40
0.9316351044
 40
0.9433702044
 40
0.9544445123
 40
0.9648553681
 40
0.9746047596
 40
0.9837004431
 40
0.9921578627
 40
1.0
 40
1.0
 40
1.0
 40
1.0
 10
11.8362984309
 20
11.0051902163
 30
0.0
 10
11.835423232
 20
11.0067172936
 30
0.0
 10
11.8339314192
 20
11.0089652148
 30
0.0
 10
11.8316697546
 20
11.0118376016
 30
0.0
 10
11.8290763514
 20
11.0148059124
 30
0.0
 10
11.8253631859
 20
11.0184827331
 30
0.0
 10
11.8202848879
 20
11.0227571857
 30
0.0
 10
11.8145099917
 20
11.0269696829
 30
0.0
 10
11.8080487252
 20
11.0311134085
 30
0.0
 10
11.8009120936
 20
11.0351816717
 30
0.0
 10
11.7931125171
 20
11.0391674561
 30
0.0
 10
11.784663681
 20
11.0430637363
 30
0.0
 10
11.7755805872
 20
11.0468635759
 30
0.0
 10
11.7658794491
 20
11.0505601023
 30
0.0
 10
11.7555776711
 20
11.0541465718
 30
0.0
 10
11.7446938267
 20
11.0576164693
 30
0.0
 10
11.7332475804
 20
11.060963447
 30
0.0
 10
11.7212596485
 20
11.0641813514
 30
0.0
 10
11.7087517763
 20
11.0672643091
 30
0.0
 10
11.6957466712
 20
11.0702066731
 30
0.0
 10
11.6822679566
 20
11.0730030254
 30
0.0
 10
11.6683401402
 20
11.0756482594
 30
0.0
 10
11.6539885649
 20
11.0781375269
 30
0.0
 10
11.6392393177
 20
11.0804662777
 30
0.0
 10
11.6188756214
 20
11.0833805674
 30
0.0
 10
11.5926243068
 20
11.0865786867
 30
0.0
 10
11.5602883313
 20
11.0896802014
 30
0.0
 10
11.5270456281
 20
11.0920596358
 30
0.0
 10
11.4931381735
 20
11.0936994518
 30
0.0
 10
11.4588125984
 20
11.0945874714
 30
0.0
 10
11.4243186979
 20
11.0947171437
 30
0.0
 10
11.3899074873
 20
11.09408752
 30
0.0
 10
11.3558293942
 20
11.0927032265
 30
0.0
 10
11.3223323138
 20
11.0905745428
 30
0.0
 10
11.2896600938
 20
11.0877171725
 30
0.0
 10
11.263076698
 20
11.0847193673
 30
0.0
 10
11.2424078189
 20
11.0819616183
 30
0.0
 10
11.2274024876
 20
11.0797449196
 30
0.0
 10
11.2127765752
 20
11.0773647678
 30
0.0
 10
11.1985566755
 20
11.0748255057
 30
0.0
 10
11.184768672
 20
11.0721317737
 30
0.0
 10
11.1714376386
 20
11.0692885108
 30
0.0
 10
11.1585878036
 20
11.0663009468
 30
0.0
 10
11.1462425138
 20
11.063174539
 30
0.0
 10
11.1344241743
 20
11.0599150145
 30
0.0
 10
11.1231541988
 20
11.0565283674
 30
0.0
 10
11.1124529865
 20
11.0530207811
 30
0.0
 10
11.1023398614
 20
11.0493986553
 30
0.0
 10
11.0928330161
 20
11.0456686195
 30
0.0
 10
11.0839494948
 20
11.0418374306
 30
0.0
 10
11.0757051355
 20
11.0379119772
 30
0.0
 10
11.0681145014
 20
11.0338992556
 30
0.0
 10
11.0611909475
 20
11.0298063371
 30
0.0
 10
11.0549462137
 20
11.0256399551
 30
0.0
 10
11.0493916856
 20
11.0214073627
 30
0.0
 10
11.0460318775
 20
11.0184368377
 30
0.0
 10
11.0444818861
 20
11.0169396609
 30
0.0
  0
SPLINE
  5
3D5
100
AcDbEntity
  8
0
100
AcDbSpline
 62
7
  6
CONTINUOUS
 70
0
 71
3
 72
65
 73
61
 74
0
 42
0.0000001
 43
0.0000001
 44
0.0000000001
 40
0.0
 40
0.0
 40
0.0
 40
0.0
 40
0.002881453
 40
0.0057322981
 40
0.0085730841
 40
0.0114246035
 40
0.0143073819
 40
0.0172412334
 40
0.0202448631
 40
0.0233355413
 40
0.0298355109
 40
0.0368513088
 40
0.0444633233
 40
0.0527301283
 40
0.0616925539
 40
0.0713774828
 40
0.081800781
 40
0.0929695154
 40
0.1048837887
 40
0.1175379901
 40
0.1309216543
 40
0.1450203042
 40
0.1598160137
 40
0.1752877373
 40
0.1914117507
 40
0.2081619697
 40
0.225510094
 40
0.2434258619
 40
0.2618772845
 40
0.2808307334
 40
0.3002510973
 40
0.3201019836
 40
0.3609428878
 40
0.4030415737
 40
0.4460718224
 40
0.489697793
 40
0.5335775411
 40
0.5773665593
 40
0.6207212553
 40
0.663302466
 40
0.7047789467
 40
0.7448310213
 40
0.76422763
 40
0.7831554317
 40
0.8015793835
 40
0.8194659625
 40
0.8367832533
 40
0.8535010786
 40
0.8695912788
 40
0.8850278769
 40
0.8997872615
 40
0.9138485714
 40
0.9271940483
 40
0.9398093849
 40
0.9516843683
 40
0.9628137039
 40
0.9731977502
 40
0.9828439276
 40
0.9917691665
 40
1.0
 40
1.0
 40
1.0
 40
1.0
 10
11.7451786266
 20
10.9852399786
 30
0.0
 10
11.7453125974
 20
10.985847777
 30
0.0
 10
11.7455282485
 20
10.9870688552
 30
0.0
 10
11.7456899468
 20
10.9889158576
 30
0.0
 10
11.7456873048
 20
10.9907636206
 30
0.0
 10
11.7455202471
 20
10.9926106779
 30
0.0
 10
11.7451890645
 20
10.9944558228
 30
0.0
 10
11.7446940743
 20
10.9962978242
 30
0.0
 10
11.7440357158
 20
10.9981356173
 30
0.0
 10
11.7429225543
 20
11.0006203045
 30
0.0
 10
11.7410970035
 20
11.0037222632
 30
0.0
 10
11.7383019997
 20
11.0073419821
 30
0.0
 10
11.7348744618
 20
11.010917802
 30
0.0
 10
11.730822415
 20
11.0144443898
 30
0.0
 10
11.7261539273
 20
11.0179167279
 30
0.0
 10
11.7208781132
 20
11.0213287925
 30
0.0
 10
11.7150053118
 20
11.0246742435
 30
0.0
 10
11.7085472429
 20
11.0279465487
 30
0.0
 10
11.7015169407
 20
11.0311390764
 30
0.0
 10
11.6939287516
 20
11.0342452139
 30
0.0
 10
11.6857983142
 20
11.0372585051
 30
0.0
 10
11.6771424687
 20
11.0401726154
 30
0.0
 10
11.6679792118
 20
11.0429813705
 30
0.0
 10
11.6583276711
 20
11.0456788496
 30
0.0
 10
11.6482080327
 20
11.0482593476
 30
0.0
 10
11.6376414853
 20
11.0507173752
 30
0.0
 10
11.6266501898
 20
11.0530477332
 30
0.0
 10
11.6152572193
 20
11.0552454962
 30
0.0
 10
11.6034864948
 20
11.0573059924
 30
0.0
 10
11.5913627544
 20
11.059224849
 30
0.0
 10
11.5789114643
 20
11.0609980496
 30
0.0
 10
11.5617454472
 20
11.0631836332
 30
0.0
 10
11.5396624999
 20
11.0655144913
 30
0.0
 10
11.5125346632
 20
11.067654683
 30
0.0
 10
11.4847609873
 20
11.0691453063
 30
0.0
 10
11.4565749513
 20
11.0699736215
 30
0.0
 10
11.4282133357
 20
11.0701325492
 30
0.0
 10
11.399914481
 20
11.0696207187
 30
0.0
 10
11.3719161911
 20
11.068442499
 30
0.0
 10
11.344453635
 20
11.066608026
 30
0.0
 10
11.3177576473
 20
11.0641329284
 30
0.0
 10
11.2961109916
 20
11.0615273324
 30
0.0
 10
11.279352265
 20
11.0591271361
 30
0.0
 10
11.2672465212
 20
11.0572006705
 30
0.0
 10
11.2554951415
 20
11.0551328137
 30
0.0
 10
11.2441227921
 20
11.0529279307
 30
0.0
 10
11.2331533599
 20
11.0505907073
 30
0.0
 10
11.2226098717
 20
11.0481260721
 30
0.0
 10
11.2125144335
 20
11.0455392595
 30
0.0
 10
11.202888184
 20
11.0428357631
 30
0.0
 10
11.1937512599
 20
11.0400212863
 30
0.0
 10
11.1851227228
 20
11.0371017834
 30
0.0
 10
11.1770205107
 20
11.0340834344
 30
0.0
 10
11.1694614098
 20
11.0309725643
 30
0.0
 10
11.1624609818
 20
11.0277756611
 30
0.0
 10
11.1560334972
 20
11.0244993202
 30
0.0
 10
11.1501919952
 20
11.0211502177
 30
0.0
 10
11.1449478614
 20
11.0177347185
 30
0.0
 10
11.1403120534
 20
11.0142596423
 30
0.0
 10
11.1375235674
 20
11.0118110291
 30
0.0
 10
11.1362448451
 20
11.0105758781
 30
0.0
  0
SPLINE
  5
3D6
100
AcDbEntity
  8
0
100
AcDbSpline
 62
7
  6
CONTINUOUS
 70
0
 71
3
 72
39
 73
35
 74
0
 42
0.0000001
 43
0.0000001
 44
0.0000000001
 40
0.0
 40
0.0
 40
0.0
 40
0.0
 40
0.0231652526
 40
0.0477871263
 40
0.0738062484
 40
0.1011544053
 40
0.1297556961
 40
0.1595274737
 40
0.1903811393
 40
0.2222228385
 40
0.2549540831
 40
0.2884723364
 40
0.3226715692
 40
0.3574427862
 40
0.3926745357
 40
0.4282534092
 40
0.4640645335
 40
0.4999920598
 40
0.5359196526
 40
0.571730979
 40
0.6073101931
 40
0.6425424216
 40
0.6773142519
 40
0.7115142249
 40
0.7450333364
 40
0.7777655562
 40
0.8096083528
 40
0.8404632391
 40
0.8702363522
 40
0.8988390815
 40
0.9261887644
 40
0.9522094831
 40
0.9768330182
 40
1.0
 40
1.0
 40
1.0
 40
1.0
 10
11.6693398289
 20
10.9371229252
 30
0.0
 10
11.665897288
 20
10.9383501673
 30
0.0
 10
11.6587442779
 20
10.9407389548
 30
0.0
 10
11.6475778053
 20
10.9440470459
 30
0.0
 10
11.6356773829
 20
10.9471803848
 30
0.0
 10
11.6230841865
 20
10.9501279145
 30
0.0
 10
11.6098415674
 20
10.9528793149
 30
0.0
 10
11.5959952902
 20
10.9554249277
 30
0.0
 10
11.5815932368
 20
10.9577558268
 30
0.0
 10
11.5666852628
 20
10.9598638398
 30
0.0
 10
11.5513230073
 20
10.9617415817
 30
0.0
 10
11.5355597079
 20
10.9633824791
 30
0.0
 10
11.5194500086
 20
10.9647807895
 30
0.0
 10
11.5030497659
 20
10.9659316205
 30
0.0
 10
11.4864158524
 20
10.9668309468
 30
0.0
 10
11.4696059578
 20
10.9674756226
 30
0.0
 10
11.4526783879
 20
10.9678633924
 30
0.0
 10
11.4356918602
 20
10.9679928994
 30
0.0
 10
11.4187052984
 20
10.967863693
 30
0.0
 10
11.4017776254
 20
10.9674762258
 30
0.0
 10
11.384967558
 20
10.9668318529
 30
0.0
 10
11.3683334018
 20
10.9659328273
 30
0.0
 10
11.3519328485
 20
10.964782292
 30
0.0
 10
11.335822774
 20
10.9633842706
 30
0.0
 10
11.3200590373
 20
10.9617436523
 30
0.0
 10
11.3046962829
 20
10.9598661815
 30
0.0
 10
11.2897877469
 20
10.9577584336
 30
0.0
 10
11.2753850677
 20
10.9554277934
 30
0.0
 10
11.2615381039
 20
10.9528824305
 30
0.0
 10
11.2482947425
 20
10.9501312689
 30
0.0
 10
11.2357007544
 20
10.9471839653
 30
0.0
 10
11.2237994965
 20
10.9440508364
 30
0.0
 10
11.2126321453
 20
10.9407429421
 30
0.0
 10
11.2054785282
 20
10.9383542855
 30
0.0
 10
11.202035673
 20
10.9371271127
 30
0.0
  0
SPLINE
  5
3D7
100
AcDbEntity
  8
0
100
AcDbSpline
 62
7
  6
CONTINUOUS
 70
0
 71
3
 72
19
 73
15
 74
0
 42
0.0000001
 43
0.0000001
 44
0.0000000001
 40
0.0
 40
0.0
 40
0.0
 40
0.0
 40
0.0592134295
 40
0.119728374
 40
0.181368577
 40
0.2439532986
 40
0.3712118575
 40
0.5000008725
 40
0.6287897866
 40
0.7560479911
 40
0.8186324723
 40
0.8802723978
 40
0.9407869979
 40
1.0
 40
1.0
 40
1.0
 40
1.0
 10
11.5470166367
 20
10.919998703
 30
0.0
 10
11.5426454368
 20
10.9205477575
 30
0.0
 10
11.5337968088
 20
10.9215785269
 30
0.0
 10
11.5203683196
 20
10.9229127445
 30
0.0
 10
11.5066698903
 20
10.9240490551
 30
0.0
 10
11.4880006046
 20
10.9253021518
 30
0.0
 10
11.4643130125
 20
10.9263444197
 30
0.0
 10
11.4356797873
 20
10.9267609364
 30
0.0
 10
11.4070465899
 20
10.9263443055
 30
0.0
 10
11.3833590547
 20
10.9253019238
 30
0.0
 10
11.364689839
 20
10.9240487535
 30
0.0
 10
11.3509914787
 20
10.9229123887
 30
0.0
 10
11.3375630727
 20
10.9215781201
 30
0.0
 10
11.328714509
 20
10.920547296
 30
0.0
 10
11.3243433426
 20
10.9199982301
 30
0.0
  0
SPLINE
  5
3D8
100
AcDbEntity
  8
0
100
AcDbSpline
 62
7
  6
CONTINUOUS
 70
0
 71
3
 72
40
 73
36
 74
0
 42
0.0000001
 43
0.0000001
 44
0.0000000001
 40
0.0
 40
0.0
 40
0.0
 40
0.0
 40
0.0311444623
 40
0.0624429464
 40
0.0938877347
 40
0.1254702907
 40
0.1571779705
 40
0.188996169
 40
0.2209078941
 40
0.2528943766
 40
0.2849353707
 40
0.3170095775
 40
0.3490950548
 40
0.3811696427
 40
0.4132113916
 40
0.4451989867
 40
0.4771121643
 40
0.5089321125
 40
0.5406418522
 40
0.5722265907
 40
0.603674042
 40
0.6349747068
 40
0.6661221049
 40
0.6971129533
 40
0.727947284
 40
0.7586284939
 40
0.7891633219
 40
0.8195617482
 40
0.8498368162
 40
0.8800043756
 40
0.9100827498
 40
0.9400923353
 40
0.9550810224
 40
0.9700608656
 40
1.0
 40
1.0
 40
1.0
 40
1.0
 10
9.7456322443
 20
7.1326155142
 30
0.0
 10
9.7423183142
 20
7.132845336
 30
0.0
 10
9.7356884246
 20
7.1335487037
 30
0.0
 10
9.7258239933
 20
7.1353204145
 30
0.0
 10
9.7160651877
 20
7.1378021589
 30
0.0
 10
9.7064647901
 20
7.1409804251
 30
0.0
 10
9.6970737416
 20
7.144838293
 30
0.0
 10
9.6879421558
 20
7.1493550656
 30
0.0
 10
9.6791186739
 20
7.1545066325
 30
0.0
 10
9.6706503121
 20
7.1602654779
 30
0.0
 10
9.6625821906
 20
7.1666008777
 30
0.0
 10
9.6549573
 20
7.1734790422
 30
0.0
 10
9.6478162752
 20
7.1808633024
 30
0.0
 10
9.6411971796
 20
7.1887142999
 30
0.0
 10
9.6351353018
 20
7.1969901938
 30
0.0
 10
9.6296629724
 20
7.2056468851
 30
0.0
 10
9.6248093924
 20
7.2146382478
 30
0.0
 10
9.620600479
 20
7.2239163726
 30
0.0
 10
9.6170587277
 20
7.2334318183
 30
0.0
 10
9.6142030925
 20
7.243133872
 30
0.0
 10
9.6120488843
 20
7.2529708156
 30
0.0
 10
9.6106076872
 20
7.2628901974
 30
0.0
 10
9.6098872948
 20
7.2728391081
 30
0.0
 10
9.6098916649
 20
7.2827644594
 30
0.0
 10
9.610620892
 20
7.2926132641
 30
0.0
 10
9.6120711998
 20
7.3023329183
 30
0.0
 10
9.6142349584
 20
7.3118714789
 30
0.0
 10
9.6171007235
 20
7.3211779501
 30
0.0
 10
9.6206532662
 20
7.3302025253
 30
0.0
 10
9.6248737433
 20
7.3388969768
 30
0.0
 10
9.6297394365
 20
7.3472144746
 30
0.0
 10
9.6343129949
 20
7.3537983365
 30
0.0
 10
9.638265166
 20
7.3588306996
 30
0.0
 10
9.6424058497
 20
7.3636988626
 30
0.0
 10
9.6457232756
 20
7.3671645628
 30
0.0
 10
9.6480200885
 20
7.3693831203
 30
0.0
  0
SPLINE
  5
3D9
100
AcDbEntity
  8
0
100
AcDbSpline
 62
7
  6
CONTINUOUS
 70
0
 71
3
 72
25
 73
21
 74
0
 42
0.0000001
 43
0.0000001
 44
0.0000000001
 40
0.0
 40
0.0
 40
0.0
 40
0.0
 40
0.0601461209
 40
0.1207171524
 40
0.1817754267
 40
0.2433529509
 40
0.3054514095
 40
0.3680430178
 40
0.4310722693
 40
0.4944581458
 40
0.5580973134
 40
0.6218684926
 40
0.6856377655
 40
0.7492661108
 40
0.8126181189
 40
0.8755720718
 40
0.9068851421
 40
0.9380640421
 40
0.9691058566
 40
1.0
 40
1.0
 40
1.0
 40
1.0
 10
11.1096583935
 20
6.8059563435
 30
0.0
 10
11.1067150346
 20
6.804636802
 30
0.0
 10
11.1006238725
 20
6.8023792487
 30
0.0
 10
11.0910966085
 20
6.8001973786
 30
0.0
 10
11.0812927598
 20
6.7992300554
 30
0.0
 10
11.0713639565
 20
6.7994866774
 30
0.0
 10
11.0614592034
 20
6.8009608217
 30
0.0
 10
11.0517278937
 20
6.8036320385
 30
0.0
 10
11.0423186387
 20
6.8074653522
 30
0.0
 10
11.0333788761
 20
6.8124104887
 30
0.0
 10
11.0250537471
 20
6.818400961
 30
0.0
 10
11.0174845224
 20
6.8253531187
 30
0.0
 10
11.0108059521
 20
6.8331648389
 30
0.0
 10
11.0051431802
 20
6.8417158586
 30
0.0
 10
11.0006080372
 20
6.85086606
 30
0.0
 10
10.997840228
 20
6.8588803751
 30
0.0
 10
10.9962765216
 20
6.865427856
 30
0.0
 10
10.9954349566
 20
6.8703768856
 30
0.0
 10
10.9949279387
 20
6.8753483269
 30
0.0
 10
10.9948143603
 20
6.8786710087
 30
0.0
 10
10.9948143603
 20
6.8803278474
 30
0.0
  0
SPLINE
  5
3DA
100
AcDbEntity
  8
0
100
AcDbSpline
 62
7
  6
CONTINUOUS
 70
0
 71
3
 72
16
 73
12
 74
0
 42
0.0000001
 43
0.0000001
 44
0.0000000001
 40
0.0
 40
0.0
 40
0.0
 40
0.0
 40
0.1098864251
 40
0.2213925505
 40
0.3360632443
 40
0.4553048854
 40
0.5170524264
 40
0.5803907344
 40
0.7123015689
 40
0.8519456354
 40
1.0
 40
1.0
 40
1.0
 40
1.0
 10
12.4393044437
 20
10.5679963932
 30
0.0
 10
12.4393044446
 20
10.566935742
 30
0.0
 10
12.4391681983
 20
10.5647964159
 30
0.0
 10
12.4385575171
 20
10.5616027156
 30
0.0
 10
12.4375419831
 20
10.5584192228
 30
0.0
 10
12.4363743538
 20
10.5558088906
 30
0.0
 10
12.4352507595
 20
10.553734586
 30
0.0
 10
12.4339642068
 20
10.5516126712
 30
0.0
 10
12.4320960828
 20
10.5489690511
 30
0.0
 10
12.4294915844
 20
10.5458624362
 30
0.0
 10
12.4275545063
 20
10.5438690309
 30
0.0
 10
12.42652665
 20
10.5428761979
 30
0.0
  0
SPLINE
  5
3DB
100
AcDbEntity
  8
0
100
AcDbSpline
 62
7
  6
CONTINUOUS
 70
0
 71
3
 72
16
 73
12
 74
0
 42
0.0000001
 43
0.0000001
 44
0.0000000001
 40
0.0
 40
0.0
 40
0.0
 40
0.0
 40
0.1098864251
 40
0.2213925505
 40
0.3360632443
 40
0.4553048854
 40
0.5170524264
 40
0.5803907344
 40
0.7123015689
 40
0.8519456354
 40
1.0
 40
1.0
 40
1.0
 40
1.0
 10
12.4393044437
 20
11.5039785743
 30
0.0
 10
12.4393044446
 20
11.5029179231
 30
0.0
 10
12.4391681983
 20
11.500778597
 30
0.0
 10
12.4385575171
 20
11.4975848967
 30
0.0
 10
12.4375419831
 20
11.494401404
 30
0.0
 10
12.4363743538
 20
11.4917910717
 30
0.0
 10
12.4352507595
 20
11.4897167672
 30
0.0
 10
12.4339642068
 20
11.4875948523
 30
0.0
 10
12.4320960828
 20
11.4849512322
 30
0.0
 10
12.4294915844
 20
11.4818446173
 30
0.0
 10
12.4275545063
 20
11.479851212
 30
0.0
 10
12.42652665
 20
11.478858379
 30
0.0
  0
SPLINE
  5
3DC
100
AcDbEntity
  8
0
100
AcDbSpline
 62
7
  6
CONTINUOUS
 70
0
 71
3
 72
29
 73
25
 74
0
 42
0.0000001
 43
0.0000001
 44
0.0000000001
 40
0.0
 40
0.0
 40
0.0
 40
0.0
 40
0.0309088394
 40
0.0619723174
 40
0.0931774628
 40
0.1245179785
 40
0.1559797636
 40
0.1875479364
 40
0.2192061872
 40
0.250936882
 40
0.3145145629
 40
0.3781731473
 40
0.4417838714
 40
0.4735473528
 40
0.5052584209
 40
0.5684591163
 40
0.6313374155
 40
0.6626485318
 40
0.6938602464
 40
0.7559504051
 40
0.8176074579
 40
0.8788257338
 40
0.939614732
 40
1.0
 40
1.0
 40
1.0
 40
1.0
 10
9.8354632789
 20
9.6541736081
 30
0.0
 10
9.8338301242
 20
9.6542868678
 30
0.0
 10
9.8305627082
 20
9.6546331391
 30
0.0
 10
9.8257009905
 20
9.6555038526
 30
0.0
 10
9.8208905308
 20
9.6567211642
 30
0.0
 10
9.8161562389
 20
9.6582757173
 30
0.0
 10
9.8115210489
 20
9.6601561692
 30
0.0
 10
9.8070065757
 20
9.6623487101
 30
0.0
 10
9.8026323168
 20
9.6648380967
 30
0.0
 10
9.7970085043
 20
9.6685320536
 30
0.0
 10
9.7904157547
 20
9.6738059863
 30
0.0
 10
9.7833129795
 20
9.6810285223
 30
0.0
 10
9.7781165806
 20
9.687682034
 30
0.0
 10
9.7744226269
 20
9.6933121991
 30
0.0
 10
9.771048729
 20
9.6991148164
 30
0.0
 10
9.7674294983
 20
9.7066660044
 30
0.0
 10
9.7646207428
 20
9.7145312723
 30
0.0
 10
9.7628734556
 20
9.7209417791
 30
0.0
 10
9.7614640611
 20
9.7273921322
 30
0.0
 10
9.7603253245
 20
9.7355356704
 30
0.0
 10
9.7599631068
 20
9.7453423138
 30
0.0
 10
9.7606081886
 20
9.7550665875
 30
0.0
 10
9.7622590351
 20
9.7646023855
 30
0.0
 10
9.7640342791
 20
9.7707859296
 30
0.0
 10
9.7650877118
 20
9.7738057511
 30
0.0
  0
SPLINE
  5
3DD
100
AcDbEntity
  8
0
100
AcDbSpline
 62
7
  6
CONTINUOUS
 70
0
 71
3
 72
23
 73
19
 74
0
 42
0.0000001
 43
0.0000001
 44
0.0000000001
 40
0.0
 40
0.0
 40
0.0
 40
0.0
 40
0.0749628051
 40
0.1455694763
 40
0.2121612381
 40
0.2751647772
 40
0.3350999254
 40
0.3925851505
 40
0.4483313412
 40
0.5031255342
 40
0.5577999583
 40
0.6131929736
 40
0.6701081672
 40
0.729279347
 40
0.7913525608
 40
0.8568785119
 40
0.9263106069
 40
1.0
 40
1.0
 40
1.0
 40
1.0
 10
12.3957249575
 20
11.5577791933
 30
0.0
 10
12.3967183237
 20
11.5568547709
 30
0.0
 10
12.3985922573
 20
11.5549988492
 30
0.0
 10
12.4011208188
 20
11.5521033902
 30
0.0
 10
12.403276964
 20
11.5491849452
 30
0.0
 10
12.4050576057
 20
11.5462461496
 30
0.0
 10
12.4064596284
 20
11.5432895073
 30
0.0
 10
12.4074800441
 20
11.5403181246
 30
0.0
 10
12.4081158075
 20
11.5373357623
 30
0.0
 10
12.4083648478
 20
11.5343471871
 30
0.0
 10
12.4082259995
 20
11.5313578121
 30
0.0
 10
12.4076999938
 20
11.528373154
 30
0.0
 10
12.4067885816
 20
11.5253982381
 30
0.0
 10
12.4054947627
 20
11.5224370722
 30
0.0
 10
12.4038214159
 20
11.5194929343
 30
0.0
 10
12.401771639
 20
11.5165683617
 30
0.0
 10
12.3993485814
 20
11.5136661968
 30
0.0
 10
12.3975423659
 20
11.5118054112
 30
0.0
 10
12.3965829476
 20
11.5108786842
 30
0.0
  0
SPLINE
  5
3DE
100
AcDbEntity
  8
0
100
AcDbSpline
 62
7
  6
CONTINUOUS
 70
0
 71
3
 72
15
 73
11
 74
0
 42
0.0000001
 43
0.0000001
 44
0.0000000001
 40
0.0
 40
0.0
 40
0.0
 40
0.0
 40
0.1233171376
 40
0.2468171981
 40
0.3706749826
 40
0.4950495853
 40
0.6200772313
 40
0.7458671002
 40
0.8724930137
 40
1.0
 40
1.0
 40
1.0
 40
1.0
 10
9.8896540719
 20
6.7848534238
 30
0.0
 10
9.8879037227
 20
6.783162697
 30
0.0
 10
9.8842152
 20
6.7799646625
 30
0.0
 10
9.8781951388
 20
6.7757857072
 30
0.0
 10
9.871744428
 20
6.7722628998
 30
0.0
 10
9.864929101
 20
6.7694324451
 30
0.0
 10
9.8578179042
 20
6.7673224379
 30
0.0
 10
9.8504824633
 20
6.7659539982
 30
0.0
 10
9.8429976714
 20
6.7653404376
 30
0.0
 10
9.8379735166
 20
6.765438433
 30
0.0
 10
9.8354632888
 20
6.7656125178
 30
0.0
  0
SPLINE
  5
3DF
100
AcDbEntity
  8
0
100
AcDbSpline
 62
7
  6
CONTINUOUS
 70
0
 71
3
 72
15
 73
11
 74
0
 42
0.0000001
 43
0.0000001
 44
0.0000000001
 40
0.0
 40
0.0
 40
0.0
 40
0.0
 40
0.1233171305
 40
0.2468171932
 40
0.3706749987
 40
0.4950495698
 40
0.6200773368
 40
0.7458670832
 40
0.8724927373
 40
1.0
 40
1.0
 40
1.0
 40
1.0
 10
11.5925361362
 20
9.0995176457
 30
0.0
 10
11.5893832812
 20
9.0964722126
 30
0.0
 10
11.5827392074
 20
9.0907117825
 30
0.0
 10
11.5718954374
 20
9.0831844471
 30
0.0
 10
11.5602759649
 20
9.0768390026
 30
0.0
 10
11.5479997351
 20
9.0717406455
 30
0.0
 10
11.5351905653
 20
9.0679400396
 30
0.0
 10
11.5219774973
 20
9.0654751602
 30
0.0
 10
11.5084954087
 20
9.064369988
 30
0.0
 10
11.4994455751
 20
9.0645465049
 30
0.0
 10
11.4949239804
 20
9.0648600786
 30
0.0
  0
SPLINE
  5
3E0
100
AcDbEntity
  8
0
100
AcDbSpline
 62
7
  6
CONTINUOUS
 70
0
 71
3
 72
23
 73
19
 74
0
 42
0.0000001
 43
0.0000001
 44
0.0000000001
 40
0.0
 40
0.0
 40
0.0
 40
0.0
 40
0.0622034275
 40
0.1242632974
 40
0.1862158438
 40
0.2481002249
 40
0.3099577241
 40
0.3718309446
 40
0.4337631783
 40
0.495797433
 40
0.5579752663
 40
0.6203358615
 40
0.6829149964
 40
0.7457444062
 40
0.8088507935
 40
0.8722522348
 40
0.9359698985
 40
1.0
 40
1.0
 40
1.0
 40
1.0
 10
11.4712806969
 20
9.589924003
 30
0.0
 10
11.470511758
 20
9.5884123272
 30
0.0
 10
11.4688694287
 20
9.5854451125
 30
0.0
 10
11.4661003168
 20
9.5811845858
 30
0.0
 10
11.4630387976
 20
9.5771395594
 30
0.0
 10
11.4596969315
 20
9.5733302019
 30
0.0
 10
11.456088104
 20
9.5697756837
 30
0.0
 10
11.4522273296
 20
9.5664944579
 30
0.0
 10
11.448131133
 20
9.5635040403
 30
0.0
 10
11.4438175715
 20
9.5608208816
 30
0.0
 10
11.4393062393
 20
9.5584601359
 30
0.0
 10
11.4346182136
 20
9.5564354599
 30
0.0
 10
11.429775929
 20
9.5547588751
 30
0.0
 10
11.4248030429
 20
9.5534406112
 30
0.0
 10
11.4197244124
 20
9.5524889613
 30
0.0
 10
11.4145655364
 20
9.5519098642
 30
0.0
 10
11.4093533279
 20
9.5517074026
 30
0.0
 10
11.405868629
 20
9.5518241739
 30
0.0
 10
11.4041270028
 20
9.5519449561
 30
0.0
  0
SPLINE
  5
3E1
100
AcDbEntity
  8
0
100
AcDbSpline
 62
7
  6
CONTINUOUS
 70
0
 71
3
 72
40
 73
36
 74
0
 42
0.0000001
 43
0.0000001
 44
0.0000000001
 40
0.0
 40
0.0
 40
0.0
 40
0.0
 40
0.0311444623
 40
0.0624429464
 40
0.0938877347
 40
0.1254702907
 40
0.1571779705
 40
0.188996169
 40
0.2209078941
 40
0.2528943766
 40
0.2849353707
 40
0.3170095775
 40
0.3490950548
 40
0.3811696427
 40
0.4132113916
 40
0.4451989867
 40
0.4771121643
 40
0.5089321125
 40
0.5406418522
 40
0.5722265907
 40
0.603674042
 40
0.6349747068
 40
0.6661221049
 40
0.6971129533
 40
0.727947284
 40
0.7586284939
 40
0.7891633219
 40
0.8195617482
 40
0.8498368162
 40
0.8800043756
 40
0.9100827498
 40
0.9400923353
 40
0.9550810224
 40
0.9700608656
 40
1.0
 40
1.0
 40
1.0
 40
1.0
 10
11.4949239804
 20
7.0113017202
 30
0.0
 10
11.4916100504
 20
7.011531542
 30
0.0
 10
11.4849801607
 20
7.0122349097
 30
0.0
 10
11.4751157294
 20
7.0140066206
 30
0.0
 10
11.4653569238
 20
7.016488365
 30
0.0
 10
11.4557565263
 20
7.0196666311
 30
0.0
 10
11.4463654778
 20
7.0235244991
 30
0.0
 10
11.437233892
 20
7.0280412717
 30
0.0
 10
11.42841041
 20
7.0331928386
 30
0.0
 10
11.4199420482
 20
7.038951684
 30
0.0
 10
11.4118739267
 20
7.0452870837
 30
0.0
 10
11.4042490362
 20
7.0521652483
 30
0.0
 10
11.3971080113
 20
7.0595495085
 30
0.0
 10
11.3904889157
 20
7.0674005059
 30
0.0
 10
11.3844270379
 20
7.0756763999
 30
0.0
 10
11.3789547085
 20
7.0843330912
 30
0.0
 10
11.3741011286
 20
7.0933244539
 30
0.0
 10
11.3698922152
 20
7.1026025787
 30
0.0
 10
11.3663504638
 20
7.1121180244
 30
0.0
 10
11.3634948287
 20
7.1218200781
 30
0.0
 10
11.3613406204
 20
7.1316570216
 30
0.0
 10
11.3598994234
 20
7.1415764035
 30
0.0
 10
11.3591790309
 20
7.1515253142
 30
0.0
 10
11.3591834011
 20
7.1614506655
 30
0.0
 10
11.3599126281
 20
7.1712994702
 30
0.0
 10
11.361362936
 20
7.1810191244
 30
0.0
 10
11.3635266945
 20
7.190557685
 30
0.0
 10
11.3663924596
 20
7.1998641562
 30
0.0
 10
11.3699450023
 20
7.2088887314
 30
0.0
 10
11.3741654795
 20
7.2175831829
 30
0.0
 10
11.3790311727
 20
7.2259006807
 30
0.0
 10
11.3836047311
 20
7.2324845426
 30
0.0
 10
11.3875569021
 20
7.2375169057
 30
0.0
 10
11.3916975859
 20
7.2423850686
 30
0.0
 10
11.3950150117
 20
7.2458507689
 30
0.0
 10
11.3973118246
 20
7.2480693263
 30
0.0
  0
SPLINE
  5
3E2
100
AcDbEntity
  8
0
100
AcDbSpline
 62
7
  6
CONTINUOUS
 70
0
 71
3
 72
96
 73
92
 74
0
 42
0.0000001
 43
0.0000001
 44
0.0000000001
 40
0.0
 40
0.0
 40
0.0
 40
0.0
 40
0.0041939101
 40
0.0085762185
 40
0.0131520071
 40
0.0179255563
 40
0.0229003893
 40
0.0280791131
 40
0.033463478
 40
0.0390546203
 40
0.0448530493
 40
0.0508588131
 40
0.0570714182
 40
0.0634899836
 40
0.0701132179
 40
0.0769394737
 40
0.0911924413
 40
0.1062302249
 40
0.1220294586
 40
0.1385631663
 40
0.1558011875
 40
0.1737105257
 40
0.1922556421
 40
0.2113987096
 40
0.2310998378
 40
0.2513172759
 40
0.2720076
 40
0.2931258928
 40
0.3146259124
 40
0.3364602554
 40
0.3585805141
 40
0.3809374316
 40
0.4034810536
 40
0.4261608789
 40
0.4489260096
 40
0.4717253006
 40
0.4945075085
 40
0.5172214395
 40
0.5398160978
 40
0.5622408338
 40
0.5844454935
 40
0.6063805688
 40
0.6279973515
 40
0.6492480863
 40
0.6700861275
 40
0.6904660994
 40
0.7103440625
 40
0.7296776877
 40
0.7484264399
 40
0.7665517772
 40
0.7840173717
 40
0.8007893504
 40
0.8168365737
 40
0.8321309635
 40
0.846647899
 40
0.8536084409
 40
0.8603672369
 40
0.8669224089
 40
0.8732724573
 40
0.8794161901
 40
0.8853528825
 40
0.8910821929
 40
0.8966043184
 40
0.9019199799
 40
0.9070305149
 40
0.9119379772
 40
0.9166451614
 40
0.9211558094
 40
0.9254746137
 40
0.9296074743
 40
0.9335615571
 40
0.9373455289
 40
0.9409697121
 40
0.9444462458
 40
0.9477892877
 40
0.9510150547
 40
0.9541419242
 40
0.9571902805
 40
0.9601823282
 40
0.9631416689
 40
0.9660927706
 40
0.9690603219
 40
0.9720685748
 40
0.9751407161
 40
0.9782983949
 40
0.981561315
 40
0.9849471138
 40
0.9884713682
 40
0.9921476515
 40
0.9959874267
 40
1.0
 40
1.0
 40
1.0
 40
1.0
 10
10.4500141742
 20
11.3736375582
 30
0.0
 10
10.451282613
 20
11.374862776
 30
0.0
 10
10.4539395464
 20
11.3773036014
 30
0.0
 10
10.4581770536
 20
11.3808598386
 30
0.0
 10
10.462750029
 20
11.3843878161
 30
0.0
 10
10.4676554994
 20
11.3878853363
 30
0.0
 10
10.4728906372
 20
11.3913504552
 30
0.0
 10
10.4784523854
 20
11.3947811835
 30
0.0
 10
10.4843374471
 20
11.3981755483
 30
0.0
 10
10.4905423462
 20
11.4015314634
 30
0.0
 10
10.4970633628
 20
11.4048470155
 30
0.0
 10
10.5038966436
 20
11.4081201582
 30
0.0
 10
10.5110380955
 20
11.4113490015
 30
0.0
 10
10.5184834629
 20
11.4145315591
 30
0.0
 10
10.5262282964
 20
11.4176659677
 30
0.0
 10
10.537104856
 20
11.42183857
 30
0.0
 10
10.5514244151
 20
11.4269074721
 30
0.0
 10
10.569485918
 20
11.4326846862
 30
0.0
 10
10.5886213322
 20
11.4382267415
 30
0.0
 10
10.6087847422
 20
11.4435202116
 30
0.0
 10
10.6299279389
 20
11.4485522514
 30
0.0
 10
10.6520002132
 20
11.4533106487
 30
0.0
 10
10.6749485914
 20
11.4577838539
 30
0.0
 10
10.6987179458
 20
11.4619610117
 30
0.0
 10
10.7232511438
 20
11.4658319872
 30
0.0
 10
10.7484891881
 20
11.4693873904
 30
0.0
 10
10.7743713644
 20
11.4726186023
 30
0.0
 10
10.8008353924
 20
11.4755177912
 30
0.0
 10
10.8278175799
 20
11.4780779321
 30
0.0
 10
10.8552529786
 20
11.4802928224
 30
0.0
 10
10.8830755424
 20
11.4821570969
 30
0.0
 10
10.9112182869
 20
11.48366624
 30
0.0
 10
10.9396134523
 20
11.4848165963
 30
0.0
 10
10.968192667
 20
11.4856053792
 30
0.0
 10
10.9968871137
 20
11.4860306801
 30
0.0
 10
11.0256276963
 20
11.4860914704
 30
0.0
 10
11.0543452078
 20
11.4857876034
 30
0.0
 10
11.0829704973
 20
11.485119815
 30
0.0
 10
11.1114346367
 20
11.4840897217
 30
0.0
 10
11.1396690879
 20
11.4826998171
 30
0.0
 10
11.1676058678
 20
11.4809534659
 30
0.0
 10
11.1951777139
 20
11.4788548961
 30
0.0
 10
11.2223182487
 20
11.476409192
 30
0.0
 10
11.2489621407
 20
11.4736222796
 30
0.0
 10
11.2750452628
 20
11.4705009123
 30
0.0
 10
11.300504849
 20
11.4670526558
 30
0.0
 10
11.3252796474
 20
11.4632858697
 30
0.0
 10
11.3493100711
 20
11.4592096886
 30
0.0
 10
11.372538347
 20
11.4548339997
 30
0.0
 10
11.3949086598
 20
11.4501694192
 30
0.0
 10
11.4163673037
 20
11.4452272696
 30
0.0
 10
11.4368627948
 20
11.4400195463
 30
0.0
 10
11.4563460997
 20
11.4345588899
 30
0.0
 10
11.4747704502
 20
11.4288585328
 30
0.0
 10
11.4894032461
 20
11.4238523856
 30
0.0
 10
11.5005378092
 20
11.4197279196
 30
0.0
 10
11.5084797253
 20
11.4166266864
 30
0.0
 10
11.5161252389
 20
11.4134760163
 30
0.0
 10
11.5234697985
 20
11.4102778332
 30
0.0
 10
11.5305089918
 20
11.407033992
 30
0.0
 10
11.5372386376
 20
11.4037465049
 30
0.0
 10
11.5436547062
 20
11.4004172743
 30
0.0
 10
11.549753393
 20
11.3970483214
 30
0.0
 10
11.5555310746
 20
11.393641629
 30
0.0
 10
11.5609843179
 20
11.3901991848
 30
0.0
 10
11.5661099242
 20
11.3867230482
 30
0.0
 10
11.5709048297
 20
11.3832151596
 30
0.0
 10
11.5753662573
 20
11.3796776102
 30
0.0
 10
11.579491519
 20
11.3761123087
 30
0.0
 10
11.5832782156
 20
11.3725213022
 30
0.0
 10
11.5867240395
 20
11.3689064954
 30
0.0
 10
11.5898268815
 20
11.3652698316
 30
0.0
 10
11.5925847845
 20
11.3616132359
 30
0.0
 10
11.5949958172
 20
11.3579385695
 30
0.0
 10
11.5970582918
 20
11.3542478329
 30
0.0
 10
11.5987703868
 20
11.3505429718
 30
0.0
 10
11.6001306143
 20
11.3468262108
 30
0.0
 10
11.6011373941
 20
11.3430998711
 30
0.0
 10
11.6017895615
 20
11.3393666031
 30
0.0
 10
11.6020861993
 20
11.3356292596
 30
0.0
 10
11.6020268444
 20
11.3318908881
 30
0.0
 10
11.6016116725
 20
11.3281545682
 30
0.0
 10
11.6008411524
 20
11.3244233115
 30
0.0
 10
11.5997164419
 20
11.3206998707
 30
0.0
 10
11.5982387268
 20
11.3169868316
 30
0.0
 10
11.5964096718
 20
11.3132864542
 30
0.0
 10
11.594230858
 20
11.3096008648
 30
0.0
 10
11.5917039953
 20
11.3059320051
 30
0.0
 10
11.5888308281
 20
11.3022817456
 30
0.0
 10
11.585613456
 20
11.2986522401
 30
0.0
 10
11.5832929736
 20
11.2963008113
 30
0.0
 10
11.5820793797
 20
11.2951285695
 30
0.0
  0
SPLINE
  5
3E3
100
AcDbEntity
  8
0
100
AcDbSpline
 62
7
  6
CONTINUOUS
 70
0
 71
3
 72
23
 73
19
 74
0
 42
0.0000001
 43
0.0000001
 44
0.0000000001
 40
0.0
 40
0.0
 40
0.0
 40
0.0
 40
0.0639318281
 40
0.127559999
 40
0.1908824598
 40
0.2539228511
 40
0.3167009073
 40
0.3792442967
 40
0.441585407
 40
0.5037600119
 40
0.5658068758
 40
0.6277668377
 40
0.6896817283
 40
0.7515933245
 40
0.8135426156
 40
0.8755691715
 40
0.9377102113
 40
1.0
 40
1.0
 40
1.0
 40
1.0
 10
10.9948143603
 20
9.5366242572
 30
0.0
 10
10.9948143603
 20
9.5383315231
 30
0.0
 10
10.9949343793
 20
9.5417392049
 30
0.0
 10
10.9954762832
 20
9.5468119022
 30
0.0
 10
10.9963767038
 20
9.5518094954
 30
0.0
 10
10.9976301281
 20
9.5567069659
 30
0.0
 10
10.9992294395
 20
9.5614807492
 30
0.0
 10
11.0011653518
 20
9.5661079939
 30
0.0
 10
11.0034268691
 20
9.5705670602
 30
0.0
 10
11.006001415
 20
9.5748375261
 30
0.0
 10
11.0088749529
 20
9.5789003152
 30
0.0
 10
11.012032102
 20
9.5827378273
 30
0.0
 10
11.015456398
 20
9.5863339212
 30
0.0
 10
11.0191304609
 20
9.5896739195
 30
0.0
 10
11.0230360769
 20
9.5927446326
 30
0.0
 10
11.0271544485
 20
9.595534427
 30
0.0
 10
11.0314659309
 20
9.5980329188
 30
0.0
 10
11.0344524701
 20
9.5994967259
 30
0.0
 10
11.0359703326
 20
9.6001772011
 30
0.0
  0
SPLINE
  5
3E4
100
AcDbEntity
  8
0
100
AcDbSpline
 62
7
  6
CONTINUOUS
 70
0
 71
3
 72
15
 73
11
 74
0
 42
0.0000001
 43
0.0000001
 44
0.0000000001
 40
0.0
 40
0.0
 40
0.0
 40
0.0
 40
0.1233171305
 40
0.2468171932
 40
0.3706749987
 40
0.4950495698
 40
0.6200773368
 40
0.7458670832
 40
0.8724927373
 40
1.0
 40
1.0
 40
1.0
 40
1.0
 10
11.5925361362
 20
7.0459592874
 30
0.0
 10
11.5893832812
 20
7.0429138542
 30
0.0
 10
11.5827392074
 20
7.0371534242
 30
0.0
 10
11.5718954374
 20
7.0296260887
 30
0.0
 10
11.5602759649
 20
7.0232806442
 30
0.0
 10
11.5479997351
 20
7.0181822872
 30
0.0
 10
11.5351905653
 20
7.0143816812
 30
0.0
 10
11.5219774973
 20
7.0119168018
 30
0.0
 10
11.5084954087
 20
7.0108116296
 30
0.0
 10
11.4994455751
 20
7.0109881466
 30
0.0
 10
11.4949239804
 20
7.0113017202
 30
0.0
  0
SPLINE
  5
3E5
100
AcDbEntity
  8
0
100
AcDbSpline
 62
7
  6
CONTINUOUS
 70
0
 71
3
 72
25
 73
21
 74
0
 42
0.0000001
 43
0.0000001
 44
0.0000000001
 40
0.0
 40
0.0
 40
0.0
 40
0.0
 40
0.0601461209
 40
0.1207171524
 40
0.1817754267
 40
0.2433529509
 40
0.3054514095
 40
0.3680430178
 40
0.4310722693
 40
0.4944581458
 40
0.5580973134
 40
0.6218684925
 40
0.6856377655
 40
0.7492661108
 40
0.8126181189
 40
0.8755720718
 40
0.9068851421
 40
0.9380640421
 40
0.9691058566
 40
1.0
 40
1.0
 40
1.0
 40
1.0
 10
11.1096583935
 20
9.4622527535
 30
0.0
 10
11.1067150346
 20
9.460933212
 30
0.0
 10
11.1006238725
 20
9.4586756587
 30
0.0
 10
11.0910966085
 20
9.4564937886
 30
0.0
 10
11.0812927599
 20
9.4555264654
 30
0.0
 10
11.0713639566
 20
9.4557830874
 30
0.0
 10
11.0614592034
 20
9.4572572317
 30
0.0
 10
11.0517278938
 20
9.4599284485
 30
0.0
 10
11.0423186388
 20
9.4637617622
 30
0.0
 10
11.0333788762
 20
9.4687068986
 30
0.0
 10
11.0250537472
 20
9.4746973709
 30
0.0
 10
11.0174845225
 20
9.4816495286
 30
0.0
 10
11.0108059522
 20
9.4894612488
 30
0.0
 10
11.0051431803
 20
9.4980122685
 30
0.0
 10
11.0006080372
 20
9.5071624698
 30
0.0
 10
10.997840228
 20
9.515176785
 30
0.0
 10
10.9962765217
 20
9.5217242658
 30
0.0
 10
10.9954349567
 20
9.5266732954
 30
0.0
 10
10.9949279387
 20
9.5316447367
 30
0.0
 10
10.9948143603
 20
9.5349674185
 30
0.0
 10
10.9948143603
 20
9.5366242572
 30
0.0
  0
SPLINE
  5
3E6
100
AcDbEntity
  8
0
100
AcDbSpline
 62
7
  6
CONTINUOUS
 70
0
 71
3
 72
40
 73
36
 74
0
 42
0.0000001
 43
0.0000001
 44
0.0000000001
 40
0.0
 40
0.0
 40
0.0
 40
0.0
 40
0.0311444623
 40
0.0624429464
 40
0.0938877347
 40
0.1254702907
 40
0.1571779705
 40
0.188996169
 40
0.2209078941
 40
0.2528943766
 40
0.2849353707
 40
0.3170095775
 40
0.3490950548
 40
0.3811696427
 40
0.4132113916
 40
0.4451989867
 40
0.4771121643
 40
0.5089321125
 40
0.5406418522
 40
0.5722265907
 40
0.603674042
 40
0.6349747068
 40
0.6661221049
 40
0.6971129533
 40
0.727947284
 40
0.7586284939
 40
0.7891633219
 40
0.8195617482
 40
0.8498368162
 40
0.8800043756
 40
0.9100827498
 40
0.9400923353
 40
0.9550810224
 40
0.9700608656
 40
1.0
 40
1.0
 40
1.0
 40
1.0
 10
9.7456322443
 20
9.1861738725
 30
0.0
 10
9.7423183142
 20
9.1864036943
 30
0.0
 10
9.7356884246
 20
9.187107062
 30
0.0
 10
9.7258239933
 20
9.1888787729
 30
0.0
 10
9.7160651877
 20
9.1913605173
 30
0.0
 10
9.7064647901
 20
9.1945387834
 30
0.0
 10
9.6970737416
 20
9.1983966514
 30
0.0
 10
9.6879421558
 20
9.202913424
 30
0.0
 10
9.6791186739
 20
9.2080649909
 30
0.0
 10
9.6706503121
 20
9.2138238363
 30
0.0
 10
9.6625821906
 20
9.220159236
 30
0.0
 10
9.6549573
 20
9.2270374006
 30
0.0
 10
9.6478162752
 20
9.2344216608
 30
0.0
 10
9.6411971796
 20
9.2422726582
 30
0.0
 10
9.6351353018
 20
9.2505485522
 30
0.0
 10
9.6296629724
 20
9.2592052435
 30
0.0
 10
9.6248093924
 20
9.2681966062
 30
0.0
 10
9.620600479
 20
9.277474731
 30
0.0
 10
9.6170587277
 20
9.2869901767
 30
0.0
 10
9.6142030925
 20
9.2966922304
 30
0.0
 10
9.6120488843
 20
9.3065291739
 30
0.0
 10
9.6106076872
 20
9.3164485558
 30
0.0
 10
9.6098872948
 20
9.3263974665
 30
0.0
 10
9.6098916649
 20
9.3363228178
 30
0.0
 10
9.610620892
 20
9.3461716225
 30
0.0
 10
9.6120711998
 20
9.3558912767
 30
0.0
 10
9.6142349584
 20
9.3654298373
 30
0.0
 10
9.6171007235
 20
9.3747363085
 30
0.0
 10
9.6206532662
 20
9.3837608837
 30
0.0
 10
9.6248737433
 20
9.3924553352
 30
0.0
 10
9.6297394365
 20
9.400772833
 30
0.0
 10
9.6343129949
 20
9.4073566949
 30
0.0
 10
9.638265166
 20
9.412389058
 30
0.0
 10
9.6424058497
 20
9.4172572209
 30
0.0
 10
9.6457232756
 20
9.4207229212
 30
0.0
 10
9.6480200885
 20
9.4229414786
 30
0.0
  0
SPLINE
  5
3E7
100
AcDbEntity
  8
0
100
AcDbSpline
 62
7
  6
CONTINUOUS
 70
0
 71
3
 72
23
 73
19
 74
0
 42
0.0000001
 43
0.0000001
 44
0.0000000001
 40
0.0
 40
0.0
 40
0.0
 40
0.0
 40
0.0626078068
 40
0.1250103009
 40
0.1872350199
 40
0.2493145026
 40
0.3112861437
 40
0.3731926105
 40
0.4350815635
 40
0.4970049248
 40
0.5590176386
 40
0.6211762429
 40
0.6835370739
 40
0.7461535499
 40
0.8090741719
 40
0.8723375968
 40
0.9359752776
 40
1.0
 40
1.0
 40
1.0
 40
1.0
 10
9.9058388658
 20
9.703658563
 30
0.0
 10
9.9052023349
 20
9.7018338528
 30
0.0
 10
9.9038073328
 20
9.6982322414
 30
0.0
 10
9.9013486477
 20
9.6929967948
 30
0.0
 10
9.8985311323
 20
9.68796349
 30
0.0
 10
9.8953604404
 20
9.6831605542
 30
0.0
 10
9.8918438888
 20
9.6786167836
 30
0.0
 10
9.8879910216
 20
9.6743619901
 30
0.0
 10
9.8838139991
 20
9.6704266548
 30
0.0
 10
9.8793280798
 20
9.6668416547
 30
0.0
 10
9.8745520974
 20
9.6636377593
 30
0.0
 10
9.8695088616
 20
9.6608449791
 30
0.0
 10
9.8642254341
 20
9.6584917996
 30
0.0
 10
9.8587332353
 20
9.656604197
 30
0.0
 10
9.8530680247
 20
9.6552047389
 30
0.0
 10
9.8472692079
 20
9.6543113619
 30
0.0
 10
9.8413802549
 20
9.6539367503
 30
0.0
 10
9.8374348275
 20
9.6540368808
 30
0.0
 10
9.8354632789
 20
9.6541736081
 30
0.0
  0
SPLINE
  5
3E8
100
AcDbEntity
  8
0
100
AcDbSpline
 62
7
  6
CONTINUOUS
 70
0
 71
3
 72
15
 73
11
 74
0
 42
0.0000001
 43
0.0000001
 44
0.0000000001
 40
0.0
 40
0.0
 40
0.0
 40
0.0
 40
0.1233171305
 40
0.2468171932
 40
0.3706749987
 40
0.4950495698
 40
0.6200773368
 40
0.7458670832
 40
0.8724927373
 40
1.0
 40
1.0
 40
1.0
 40
1.0
 10
9.8432444
 20
7.1672730813
 30
0.0
 10
9.840091545
 20
7.1642276482
 30
0.0
 10
9.8334474712
 20
7.1584672181
 30
0.0
 10
9.8226037012
 20
7.1509398826
 30
0.0
 10
9.8109842288
 20
7.1445944381
 30
0.0
 10
9.7987079989
 20
7.1394960811
 30
0.0
 10
9.7858988292
 20
7.1356954752
 30
0.0
 10
9.7726857611
 20
7.1332305957
 30
0.0
 10
9.7592036725
 20
7.1321254236
 30
0.0
 10
9.750153839
 20
7.1323019405
 30
0.0
 10
9.7456322443
 20
7.1326155142
 30
0.0
  0
SPLINE
  5
3E9
100
AcDbEntity
  8
0
100
AcDbSpline
 62
7
  6
CONTINUOUS
 70
0
 71
3
 72
31
 73
27
 74
0
 42
0.0000001
 43
0.0000001
 44
0.0000000001
 40
0.0
 40
0.0
 40
0.0
 40
0.0
 40
0.0609995623
 40
0.1224222524
 40
0.1842549553
 40
0.2464748593
 40
0.3090505641
 40
0.3719418257
 40
0.4350984096
 40
0.4984575198
 40
0.5619414101
 40
0.6254534253
 40
0.6571975222
 40
0.6889039724
 40
0.7205549622
 40
0.7521316896
 40
0.7836147955
 40
0.8149849548
 40
0.846223667
 40
0.8617912322
 40
0.8773199886
 40
0.90824868
 40
0.9390059344
 40
0.9543215713
 40
0.9695935713
 40
1.0
 40
1.0
 40
1.0
 40
1.0
 10
10.7373351533
 20
7.6554286032
 30
0.0
 10
10.7290341202
 20
7.654576221
 30
0.0
 10
10.7122727807
 20
7.6537429298
 30
0.0
 10
10.6870607733
 20
7.6550078764
 30
0.0
 10
10.6619202579
 20
7.6587076818
 30
0.0
 10
10.6370842025
 20
7.6647778368
 30
0.0
 10
10.6127776894
 20
7.6731621015
 30
0.0
 10
10.5892330086
 20
7.6838108685
 30
0.0
 10
10.5666971812
 20
7.6966764997
 30
0.0
 10
10.5454406412
 20
7.7117079333
 30
0.0
 10
10.5257679942
 20
7.728837938
 30
0.0
 10
10.510969403
 20
7.7447965016
 30
0.0
 10
10.5002860195
 20
7.758501039
 30
0.0
 10
10.4929040213
 20
7.7692236395
 30
0.0
 10
10.4862075316
 20
7.7803608181
 30
0.0
 10
10.4802519726
 20
7.791877676
 30
0.0
 10
10.4750935506
 20
7.8037319758
 30
0.0
 10
10.4707875337
 20
7.8158732338
 30
0.0
 10
10.4679496031
 20
7.8261953457
 30
0.0
 10
10.4661573452
 20
7.8345341085
 30
0.0
 10
10.4646936274
 20
7.8428937063
 30
0.0
 10
10.4634821551
 20
7.8533987017
 30
0.0
 10
10.4631226484
 20
7.8639388695
 30
0.0
 10
10.4633591896
 20
7.872329728
 30
0.0
 10
10.4639435683
 20
7.8806548781
 30
0.0
 10
10.4647768897
 20
7.8868579081
 30
0.0
 10
10.4655078588
 20
7.8909527473
 30
0.0
  0
SPLINE
  5
3EA
100
AcDbEntity
  8
0
100
AcDbSpline
 62
7
  6
CONTINUOUS
 70
0
 71
3
 72
13
 73
9
 74
0
 42
0.0000001
 43
0.0000001
 44
0.0000000001
 40
0.0
 40
0.0
 40
0.0
 40
0.0
 40
0.2394117854
 40
0.4905423616
 40
0.6182692564
 40
0.7462803508
 40
0.8737690138
 40
1.0
 40
1.0
 40
1.0
 40
1.0
 10
10.6184099334
 20
8.8305593954
 30
0.0
 10
10.6215858385
 20
8.8246105472
 30
0.0
 10
10.6282817654
 20
8.8125218102
 30
0.0
 10
10.6371024727
 20
8.7975045608
 30
0.0
 10
10.6445025685
 20
8.7852949643
 30
0.0
 10
10.6501631969
 20
8.7761038087
 30
0.0
 10
10.6558450552
 20
8.7669754249
 30
0.0
 10
10.6596339865
 20
8.7609159681
 30
0.0
 10
10.6615176132
 20
8.7579003531
 30
0.0
  0
SPLINE
  5
3EB
100
AcDbEntity
  8
0
100
AcDbSpline
 62
7
  6
CONTINUOUS
 70
0
 71
3
 72
15
 73
11
 74
0
 42
0.0000001
 43
0.0000001
 44
0.0000000001
 40
0.0
 40
0.0
 40
0.0
 40
0.0
 40
0.1233171305
 40
0.2468171932
 40
0.3706749987
 40
0.4950495698
 40
0.6200773368
 40
0.7458670832
 40
0.8724927373
 40
1.0
 40
1.0
 40
1.0
 40
1.0
 10
9.8432444
 20
9.2208314397
 30
0.0
 10
9.840091545
 20
9.2177860065
 30
0.0
 10
9.8334474712
 20
9.2120255765
 30
0.0
 10
9.8226037012
 20
9.204498241
 30
0.0
 10
9.8109842288
 20
9.1981527965
 30
0.0
 10
9.7987079989
 20
9.1930544395
 30
0.0
 10
9.7858988292
 20
9.1892538335
 30
0.0
 10
9.7726857611
 20
9.1867889541
 30
0.0
 10
9.7592036725
 20
9.1856837819
 30
0.0
 10
9.750153839
 20
9.1858602989
 30
0.0
 10
9.7456322443
 20
9.1861738725
 30
0.0
  0
SPLINE
  5
3EC
100
AcDbEntity
  8
0
100
AcDbSpline
 62
7
  6
CONTINUOUS
 70
0
 71
3
 72
25
 73
21
 74
0
 42
0.0000001
 43
0.0000001
 44
0.0000000001
 40
0.0
 40
0.0
 40
0.0
 40
0.0
 40
0.0620511142
 40
0.12464238
 40
0.1877054659
 40
0.2511377537
 40
0.3148156141
 40
0.3786039968
 40
0.4423662419
 40
0.5059722562
 40
0.5693056265
 40
0.6322686611
 40
0.6947862241
 40
0.756808723
 40
0.8183139574
 40
0.879308478
 40
0.9096394092
 40
0.9398586906
 40
0.9699753091
 40
1.0
 40
1.0
 40
1.0
 40
1.0
 10
11.4041270028
 20
9.5519449561
 30
0.0
 10
11.4008422203
 20
9.5521727566
 30
0.0
 10
11.3942669497
 20
9.5530768386
 30
0.0
 10
11.3846370925
 20
9.5557241312
 30
0.0
 10
11.3753582351
 20
9.5596139012
 30
0.0
 10
11.3665927452
 20
9.5646663773
 30
0.0
 10
11.3584852901
 20
9.5707815053
 30
0.0
 10
11.3511641327
 20
9.5778430724
 30
0.0
 10
11.3447387858
 20
9.5857228022
 30
0.0
 10
11.339300401
 20
9.5942843547
 30
0.0
 10
11.3349220372
 20
9.6033861638
 30
0.0
 10
11.3316598292
 20
9.6128839247
 30
0.0
 10
11.3295541632
 20
9.6226320515
 30
0.0
 10
11.3286306342
 20
9.6324850507
 30
0.0
 10
11.3289004193
 20
9.6422964847
 30
0.0
 10
11.3301212849
 20
9.6503370446
 30
0.0
 10
11.3316871918
 20
9.656597362
 30
0.0
 10
11.3331494913
 20
9.6611845135
 30
0.0
 10
11.3348970542
 20
9.6656529466
 30
0.0
 10
11.3362508918
 20
9.6685458523
 30
0.0
 10
11.3369732328
 20
9.6699659202
 30
0.0
  0
SPLINE
  5
3ED
100
AcDbEntity
  8
0
100
AcDbSpline
 62
7
  6
CONTINUOUS
 70
0
 71
3
 72
21
 73
17
 74
0
 42
0.0000001
 43
0.0000001
 44
0.0000000001
 40
0.0
 40
0.0
 40
0.0
 40
0.0
 40
0.1274513188
 40
0.2538882877
 40
0.3167697152
 40
0.3794210572
 40
0.4418599467
 40
0.5041099058
 40
0.5662006463
 40
0.6281680999
 40
0.6900540917
 40
0.7519055533
 40
0.8137732506
 40
0.875710078
 40
0.9377687737
 40
1.0
 40
1.0
 40
1.0
 40
1.0
 10
10.4457619893
 20
9.1263751942
 30
0.0
 10
10.4457015629
 20
9.1182788956
 30
0.0
 10
10.4446805009
 20
9.1021419367
 30
0.0
 10
10.4410193558
 20
9.0822994134
 30
0.0
 10
10.4366199395
 20
9.0668988754
 30
0.0
 10
10.4325865123
 20
9.0556496994
 30
0.0
 10
10.4278101253
 20
9.0447388005
 30
0.0
 10
10.4222911957
 20
9.0342234343
 30
0.0
 10
10.4160353805
 20
9.0241635994
 30
0.0
 10
10.409054385
 20
9.0146206077
 30
0.0
 10
10.4013668578
 20
9.0056562774
 30
0.0
 10
10.3929990648
 20
8.9973316076
 30
0.0
 10
10.3839854619
 20
8.9897053485
 30
0.0
 10
10.3743684097
 20
8.982832189
 30
0.0
 10
10.3641994081
 20
8.9767617354
 30
0.0
 10
10.3570998187
 20
8.9732825623
 30
0.0
 10
10.3534815137
 20
8.9716898741
 30
0.0
  0
SPLINE
  5
3EE
100
AcDbEntity
  8
0
100
AcDbSpline
 62
7
  6
CONTINUOUS
 70
0
 71
3
 72
26
 73
22
 74
0
 42
0.0000001
 43
0.0000001
 44
0.0000000001
 40
0.0
 40
0.0
 40
0.0
 40
0.0
 40
0.061042898
 40
0.1220545637
 40
0.1830960767
 40
0.2442284423
 40
0.3055108972
 40
0.366999175
 40
0.4287437831
 40
0.4907883341
 40
0.5531680409
 40
0.6159084333
 40
0.6474264006
 40
0.6790391936
 40
0.7107468991
 40
0.7425488261
 40
0.806414485
 40
0.8706314101
 40
0.9028691468
 40
0.9351823757
 40
1.0
 40
1.0
 40
1.0
 40
1.0
 10
11.4233399764
 20
8.0497518511
 30
0.0
 10
11.4197098099
 20
8.0451705571
 30
0.0
 10
11.4120467124
 20
8.0363225957
 30
0.0
 10
11.3994339028
 20
8.0241134823
 30
0.0
 10
11.3857865032
 20
8.0130568659
 30
0.0
 10
11.3711940112
 20
8.0032353065
 30
0.0
 10
11.3557518929
 20
7.9947230657
 30
0.0
 10
11.3395631907
 20
7.9875875542
 30
0.0
 10
11.3227379131
 20
7.9818879062
 30
0.0
 10
11.3053924299
 20
7.9776742198
 30
0.0
 10
11.2876502887
 20
7.974986555
 30
0.0
 10
11.2726601388
 20
7.9740442657
 30
0.0
 10
11.2606042146
 20
7.9740732221
 30
0.0
 10
11.2515294602
 20
7.974488818
 30
0.0
 10
11.2424541135
 20
7.975298755
 30
0.0
 10
11.2303603049
 20
7.9769053963
 30
0.0
 10
11.2153256263
 20
7.979899077
 30
0.0
 10
11.200560782
 20
7.984173153
 30
0.0
 10
11.1889543501
 20
7.9883454102
 30
0.0
 10
11.1774811853
 20
7.9930239033
 30
0.0
 10
11.1690942206
 20
7.9970773064
 30
0.0
 10
11.1636230534
 20
8.0000079803
 30
0.0
  0
SPLINE
  5
3EF
100
AcDbEntity
  8
0
100
AcDbSpline
 62
4
  6
CONTINUOUS
 70
0
 71
3
 72
281
 73
277
 74
0
 42
0.0000001
 43
0.0000001
 44
0.0000000001
 40
0.0
 40
0.0
 40
0.0
 40
0.0
 40
0.015625
 40
0.0234375
 40
0.03125
 40
0.0390625
 40
0.046875
 40
0.05078125
 40
0.0546875
 40
0.056640625
 40
0.05859375
 40
0.060546875
 40
0.0615234375
 40
0.0620117188
 40
0.0625
 40
0.0629882812
 40
0.0634765625
 40
0.064453125
 40
0.06640625
 40
0.068359375
 40
0.0703125
 40
0.07421875
 40
0.078125
 40
0.0859375
 40
0.09375
 40
0.1015625
 40
0.109375
 40
0.11328125
 40
0.1171875
 40
0.119140625
 40
0.12109375
 40
0.123046875
 40
0.1240234375
 40
0.1245117188
 40
0.125
 40
0.1254882812
 40
0.1259765625
 40
0.126953125
 40
0.12890625
 40
0.130859375
 40
0.1328125
 40
0.13671875
 40
0.140625
 40
0.1484375
 40
0.15625
 40
0.1640625
 40
0.171875
 40
0.17578125
 40
0.1796875
 40
0.181640625
 40
0.18359375
 40
0.185546875
 40
0.1865234375
 40
0.1870117188
 40
0.1875
 40
0.1879882812
 40
0.1884765625
 40
0.189453125
 40
0.19140625
 40
0.193359375
 40
0.1953125
 40
0.19921875
 40
0.203125
 40
0.2109375
 40
0.21875
 40
0.2265625
 40
0.234375
 40
0.23828125
 40
0.2421875
 40
0.24609375
 40
0.248046875
 40
0.2490234375
 40
0.25
 40
0.2509765625
 40
0.251953125
 40
0.25390625
 40
0.2578125
 40
0.26171875
 40
0.265625
 40
0.2734375
 40
0.28125
 40
0.2890625
 40
0.296875
 40
0.30078125
 40
0.3046875
 40
0.30859375
 40
0.310546875
 40
0.3115234375
 40
0.3125
 40
0.3134765625
 40
0.314453125
 40
0.31640625
 40
0.3203125
 40
0.32421875
 40
0.328125
 40
0.3359375
 40
0.34375
 40
0.3515625
 40
0.359375
 40
0.3671875
 40
0.37109375
 40
0.373046875
 40
0.375
 40
0.376953125
 40
0.37890625
 40
0.3828125
 40
0.390625
 40
0.3984375
 40
0.40625
 40
0.4140625
 40
0.421875
 40
0.4296875
 40
0.43359375
 40
0.435546875
 40
0.4375
 40
0.439453125
 40
0.44140625
 40
0.4453125
 40
0.453125
 40
0.4609375
 40
0.46875
 40
0.4765625
 40
0.484375
 40
0.48828125
 40
0.4921875
 40
0.49609375
 40
0.498046875
 40
0.4990234375
 40
0.5
 40
0.5009765625
 40
0.501953125
 40
0.50390625
 40
0.5078125
 40
0.51171875
 40
0.515625
 40
0.5234375
 40
0.53125
 40
0.5390625
 40
0.546875
 40
0.55078125
 40
0.5546875
 40
0.55859375
 40
0.560546875
 40
0.5615234375
 40
0.5625
 40
0.5634765625
 40
0.564453125
 40
0.56640625
 40
0.5703125
 40
0.57421875
 40
0.578125
 40
0.5859375
 40
0.59375
 40
0.6015625
 40
0.609375
 40
0.61328125
 40
0.6171875
 40
0.619140625
 40
0.62109375
 40
0.623046875
 40
0.6240234375
 40
0.6245117188
 40
0.625
 40
0.6254882812
 40
0.6259765625
 40
0.626953125
 40
0.62890625
 40
0.630859375
 40
0.6328125
 40
0.63671875
 40
0.640625
 40
0.6484375
 40
0.65625
 40
0.6640625
 40
0.671875
 40
0.67578125
 40
0.6796875
 40
0.681640625
 40
0.68359375
 40
0.685546875
 40
0.6865234375
 40
0.6870117188
 40
0.6875
 40
0.6879882812
 40
0.6884765625
 40
0.689453125
 40
0.69140625
 40
0.693359375
 40
0.6953125
 40
0.69921875
 40
0.703125
 40
0.7109375
 40
0.71875
 40
0.7265625
 40
0.734375
 40
0.73828125
 40
0.7421875
 40
0.744140625
 40
0.74609375
 40
0.748046875
 40
0.7490234375
 40
0.7495117188
 40
0.75
 40
0.7504882812
 40
0.7509765625
 40
0.751953125
 40
0.75390625
 40
0.755859375
 40
0.7578125
 40
0.76171875
 40
0.765625
 40
0.7734375
 40
0.78125
 40
0.7890625
 40
0.796875
 40
0.80078125
 40
0.8046875
 40
0.806640625
 40
0.80859375
 40
0.810546875
 40
0.8115234375
 40
0.8120117188
 40
0.8125
 40
0.8129882812
 40
0.8134765625
 40
0.814453125
 40
0.81640625
 40
0.818359375
 40
0.8203125
 40
0.82421875
 40
0.828125
 40
0.8359375
 40
0.84375
 40
0.8515625
 40
0.859375
 40
0.86328125
 40
0.8671875
 40
0.869140625
 40
0.87109375
 40
0.873046875
 40
0.8740234375
 40
0.8745117188
 40
0.875
 40
0.8754882812
 40
0.8759765625
 40
0.876953125
 40
0.87890625
 40
0.880859375
 40
0.8828125
 40
0.88671875
 40
0.890625
 40
0.8984375
 40
0.90625
 40
0.9140625
 40
0.921875
 40
0.92578125
 40
0.9296875
 40
0.931640625
 40
0.93359375
 40
0.935546875
 40
0.9365234375
 40
0.9370117188
 40
0.9375
 40
0.9379882812
 40
0.9384765625
 40
0.939453125
 40
0.94140625
 40
0.943359375
 40
0.9453125
 40
0.94921875
 40
0.953125
 40
0.9609375
 40
0.96875
 40
0.9765625
 40
0.984375
 40
1.0
 40
1.0
 40
1.0
 40
1.0
 10
12.1326087032
 20
8.2168252447
 30
0.0
 10
12.1317691691
 20
8.2157071053
 30
0.0
 10
12.1305098678
 20
8.2140298963
 30
0.0
 10
12.1288307995
 20
8.2117936168
 30
0.0
 10
12.1275714982
 20
8.2101164095
 30
0.0
 10
12.1263121973
 20
8.2084391934
 30
0.0
 10
12.1252627784
 20
8.2070415408
 30
0.0
 10
12.1244232467
 20
8.205923357
 30
0.0
 10
12.1238985315
 20
8.2052246327
 30
0.0
 10
12.1234787774
 20
8.2046653314
 30
0.0
 10
12.1231639125
 20
8.2042467368
 30
0.0
 10
12.1229016819
 20
8.2038951041
 30
0.0
 10
12.1227178128
 20
8.2036544636
 30
0.0
 10
12.1226132252
 20
8.2035083632
 30
0.0
 10
12.122533431
 20
8.2034229907
 30
0.0
 10
12.1224588104
 20
8.2032451026
 30
0.0
 10
12.1223575117
 20
8.203040189
 30
0.0
 10
12.1221810797
 20
8.2026665548
 30
0.0
 10
12.1219285945
 20
8.2021406523
 30
0.0
 10
12.1216258003
 20
8.2015062047
 30
0.0
 10
12.1212220091
 20
8.2006614497
 30
0.0
 10
12.1207172926
 20
8.1996051036
 30
0.0
 10
12.1199097335
 20
8.1979151748
 30
0.0
 10
12.1189002891
 20
8.1958026862
 30
0.0
 10
12.1176889536
 20
8.1932677351
 30
0.0
 10
12.1164776196
 20
8.1907327672
 30
0.0
 10
12.1154681715
 20
8.1886203205
 30
0.0
 10
12.1146606198
 20
8.1869303079
 30
0.0
 10
12.1141558846
 20
8.1858741748
 30
0.0
 10
12.1137521317
 20
8.1850289827
 30
0.0
 10
12.1134492204
 20
8.1843958707
 30
0.0
 10
12.1131971019
 20
8.1838657892
 30
0.0
 10
12.1130200152
 20
8.1834996153
 30
0.0
 10
12.1129197655
 20
8.1832827485
 30
0.0
 10
12.1128419228
 20
8.1831415767
 30
0.0
 10
12.1127742302
 20
8.1829183038
 30
0.0
 10
12.112680433
 20
8.1826492444
 30
0.0
 10
12.1125179374
 20
8.1821650476
 30
0.0
 10
12.1122849384
 20
8.1814803136
 30
0.0
 10
12.1120057088
 20
8.1806556469
 30
0.0
 10
12.1116332737
 20
8.1795571343
 30
0.0
 10
12.1111677739
 20
8.1781836364
 30
0.0
 10
12.1104229497
 20
8.1759862394
 30
0.0
 10
12.1094919279
 20
8.1732394243
 30
0.0
 10
12.1083746977
 20
8.1699432775
 30
0.0
 10
12.1072574698
 20
8.1666471155
 30
0.0
 10
12.1063264425
 20
8.1639003384
 30
0.0
 10
12.1055816294
 20
8.1617028653
 30
0.0
 10
12.1051161014
 20
8.1603295611
 30
0.0
 10
12.1047437242
 20
8.1592306509
 30
0.0
 10
12.1044643174
 20
8.1584071987
 30
0.0
 10
12.1042318728
 20
8.1577186652
 30
0.0
 10
12.1040683877
 20
8.1572412511
 30
0.0
 10
12.1039761759
 20
8.1569613239
 30
0.0
 10
12.1039036133
 20
8.1567714334
 30
0.0
 10
12.1038440616
 20
8.1565048828
 30
0.0
 10
12.103760121
 20
8.1561762219
 30
0.0
 10
12.1036153395
 20
8.1555886066
 30
0.0
 10
12.1034074033
 20
8.1547556698
 30
0.0
 10
12.1031583531
 20
8.1537533576
 30
0.0
 10
12.1028261208
 20
8.1524179151
 30
0.0
 10
12.1024108871
 20
8.1507482785
 30
0.0
 10
12.1017464813
 20
8.1480770467
 30
0.0
 10
12.1009159861
 20
8.1447379403
 30
0.0
 10
12.0999193816
 20
8.1407310525
 30
0.0
 10
12.0989227992
 20
8.136724112
 30
0.0
 10
12.0980922487
 20
8.1333851371
 30
0.0
 10
12.0974279538
 20
8.1307136424
 30
0.0
 10
12.096929335
 20
8.1287108804
 30
0.0
 10
12.0965150841
 20
8.1270391796
 30
0.0
 10
12.0962226265
 20
8.1258743516
 30
0.0
 10
12.0960593832
 20
8.1252003623
 30
0.0
 10
12.0959260338
 20
8.124718458
 30
0.0
 10
12.0958344146
 20
8.1241463897
 30
0.0
 10
12.0956976997
 20
8.1234150823
 30
0.0
 10
12.0954652304
 20
8.122120641
 30
0.0
 10
12.0951295859
 20
8.1202791
 30
0.0
 10
12.0947283301
 20
8.1180659717
 30
0.0
 10
12.094192792
 20
8.1151162797
 30
0.0
 10
12.0935235527
 20
8.1114287695
 30
0.0
 10
12.0927203815
 20
8.1070039352
 30
0.0
 10
12.0919172534
 20
8.1025790217
 30
0.0
 10
12.0912479062
 20
8.0988917097
 30
0.0
 10
12.0907125839
 20
8.0959416213
 30
0.0
 10
12.0903106702
 20
8.0937297018
 30
0.0
 10
12.0899770838
 20
8.0918843794
 30
0.0
 10
12.0897409405
 20
8.0905966885
 30
0.0
 10
12.0896101124
 20
8.0898545652
 30
0.0
 10
12.0895004106
 20
8.0893157199
 30
0.0
 10
12.0894349765
 20
8.0887090357
 30
0.0
 10
12.0893322899
 20
8.0879237864
 30
0.0
 10
12.0891597828
 20
8.0865385752
 30
0.0
 10
12.0889095827
 20
8.0845654661
 30
0.0
 10
12.0886109529
 20
8.0821952677
 30
0.0
 10
12.0882122153
 20
8.0790358663
 30
0.0
 10
12.0877140016
 20
8.0750863097
 30
0.0
 10
12.087115992
 20
8.0703470101
 30
0.0
 10
12.0865182622
 20
8.0656075251
 30
0.0
 10
12.0859195661
 20
8.0608686135
 30
0.0
 10
12.0854236404
 20
8.0569177637
 30
0.0
 10
12.085070641
 20
8.0541556072
 30
0.0
 10
12.0848780618
 20
8.0525718647
 30
0.0
 10
12.0847078951
 20
8.0513991775
 30
0.0
 10
12.08463609
 20
8.0501686953
 30
0.0
 10
12.0845060401
 20
8.0485482118
 30
0.0
 10
12.0842944391
 20
8.0457029729
 30
0.0
 10
12.0839837887
 20
8.0416432579
 30
0.0
 10
12.0836146119
 20
8.0367694916
 30
0.0
 10
12.0832444016
 20
8.0318962995
 30
0.0
 10
12.0828747217
 20
8.027022919
 30
0.0
 10
12.0825039534
 20
8.0221497175
 30
0.0
 10
12.082198166
 20
8.0180882768
 30
0.0
 10
12.0819779
 20
8.0152461128
 30
0.0
 10
12.0818617318
 20
8.0136207032
 30
0.0
 10
12.0817472873
 20
8.0124053523
 30
0.0
 10
12.0817372668
 20
8.0111758344
 30
0.0
 10
12.0816874819
 20
8.0095414188
 30
0.0
 10
12.0816173292
 20
8.0066788891
 30
0.0
 10
12.0815082367
 20
8.0025907643
 30
0.0
 10
12.0813811321
 20
7.997684501
 30
0.0
 10
12.0812530008
 20
7.9927783666
 30
0.0
 10
12.0811251702
 20
7.9878722303
 30
0.0
 10
12.0810184978
 20
7.9837836824
 30
0.0
 10
12.0809333621
 20
7.9805130873
 30
0.0
 10
12.0808689919
 20
7.9780594719
 30
0.0
 10
12.0808169939
 20
7.9760169213
 30
0.0
 10
12.08077737
 20
7.9745829579
 30
0.0
 10
12.0807597637
 20
7.9737700739
 30
0.0
 10
12.0807323725
 20
7.9731420337
 30
0.0
 10
12.0807592094
 20
7.9725842403
 30
0.0
 10
12.0807760765
 20
7.971816013
 30
0.0
 10
12.0808144071
 20
7.9704830314
 30
0.0
 10
12.0808645574
 20
7.9685728035
 30
0.0
 10
12.08092671
 20
7.9662830849
 30
0.0
 10
12.0810088911
 20
7.9632292339
 30
0.0
 10
12.0811118553
 20
7.959412229
 30
0.0
 10
12.0812353039
 20
7.9548316796
 30
0.0
 10
12.0813588059
 20
7.9502512102
 30
0.0
 10
12.0814616366
 20
7.9464340055
 30
0.0
 10
12.0815440847
 20
7.9433805541
 30
0.0
 10
12.0816054227
 20
7.9410896165
 30
0.0
 10
12.0816581215
 20
7.939183202
 30
0.0
 10
12.0816919027
 20
7.937843413
 30
0.0
 10
12.0817160591
 20
7.937086093
 30
0.0
 10
12.0817205056
 20
7.9364947957
 30
0.0
 10
12.081777209
 20
7.9359925908
 30
0.0
 10
12.0818345857
 20
7.9352919079
 30
0.0
 10
12.0819434877
 20
7.9340801918
 30
0.0
 10
12.0820946219
 20
7.932341599
 30
0.0
 10
12.0822778834
 20
7.9302585279
 30
0.0
 10
12.0825215682
 20
7.9274799678
 30
0.0
 10
12.0828264021
 20
7.9240071564
 30
0.0
 10
12.0831921045
 20
7.9198396145
 30
0.0
 10
12.0835578355
 20
7.9156721233
 30
0.0
 10
12.083862598
 20
7.9121991854
 30
0.0
 10
12.0841064257
 20
7.9094208784
 30
0.0
 10
12.0842587804
 20
7.9076843425
 30
0.0
 10
12.0843807499
 20
7.9062953285
 30
0.0
 10
12.0844719925
 20
7.9052529804
 30
0.0
 10
12.0845487742
 20
7.904386226
 30
0.0
 10
12.0846010568
 20
7.9037758302
 30
0.0
 10
12.0846332195
 20
7.9034327594
 30
0.0
 10
12.0846508992
 20
7.9031593236
 30
0.0
 10
12.0846932048
 20
7.9029475554
 30
0.0
 10
12.0847410225
 20
7.9026436874
 30
0.0
 10
12.0848287056
 20
7.9021219404
 30
0.0
 10
12.0849518749
 20
7.901371348
 30
0.0
 10
12.0851005735
 20
7.9004728798
 30
0.0
 10
12.0852985256
 20
7.8992741388
 30
0.0
 10
12.0855460728
 20
7.8977759809
 30
0.0
 10
12.0859420885
 20
7.8953787782
 30
0.0
 10
12.0864371288
 20
7.8923823268
 30
0.0
 10
12.0870311677
 20
7.888786561
 30
0.0
 10
12.0876252112
 20
7.8851908081
 30
0.0
 10
12.0881202399
 20
7.8821943246
 30
0.0
 10
12.0885162788
 20
7.879797186
 30
0.0
 10
12.0887637669
 20
7.8782988654
 30
0.0
 10
12.0889618405
 20
7.8771004583
 30
0.0
 10
12.0891101679
 20
7.8762009703
 30
0.0
 10
12.0892344987
 20
7.8754535685
 30
0.0
 10
12.0893201082
 20
7.8749261257
 30
0.0
 10
12.0893712483
 20
7.8746313839
 30
0.0
 10
12.0894033487
 20
7.8743915829
 30
0.0
 10
12.0894593576
 20
7.8742234333
 30
0.0
 10
12.0895256965
 20
7.873974241
 30
0.0
 10
12.0896456752
 20
7.8735497992
 30
0.0
 10
12.089815042
 20
7.8729373658
 30
0.0
 10
12.0900191516
 20
7.8722050515
 30
0.0
 10
12.090290994
 20
7.8712277223
 30
0.0
 10
12.0906309011
 20
7.8700063725
 30
0.0
 10
12.0911746942
 20
7.8680520385
 30
0.0
 10
12.0918544557
 20
7.8656091813
 30
0.0
 10
12.0926701605
 20
7.8626777246
 30
0.0
 10
12.0934858692
 20
7.8597462838
 30
0.0
 10
12.0941656208
 20
7.8573033867
 30
0.0
 10
12.0947094338
 20
7.8553491325
 30
0.0
 10
12.0950492903
 20
7.8541275797
 30
0.0
 10
12.0953212364
 20
7.8531506671
 30
0.0
 10
12.0955250294
 20
7.85241708
 30
0.0
 10
12.0956953867
 20
7.8518086291
 30
0.0
 10
12.0958135972
 20
7.8513770778
 30
0.0
 10
12.0958827693
 20
7.8511392766
 30
0.0
 10
12.0959300755
 20
7.8509361373
 30
0.0
 10
12.0959948617
 20
7.850827752
 30
0.0
 10
12.096075146
 20
7.8506501869
 30
0.0
 10
12.0962184844
 20
7.8503548473
 30
0.0
 10
12.0964217683
 20
7.8499248827
 30
0.0
 10
12.0966663447
 20
7.8494123712
 30
0.0
 10
12.0969922246
 20
7.8487278189
 30
0.0
 10
12.0973996504
 20
7.8478725406
 30
0.0
 10
12.0980514893
 20
7.846503865
 30
0.0
 10
12.0988663025
 20
7.8447931001
 30
0.0
 10
12.0998440718
 20
7.8427401457
 30
0.0
 10
12.1008218441
 20
7.8406872097
 30
0.0
 10
12.1016366496
 20
7.8389763988
 30
0.0
 10
12.1022885039
 20
7.8376078152
 30
0.0
 10
12.1026958904
 20
7.8367523031
 30
0.0
 10
12.1030218511
 20
7.8360682307
 30
0.0
 10
12.1032661805
 20
7.8355542531
 30
0.0
 10
12.1034702373
 20
7.8351288756
 30
0.0
 10
12.1036121959
 20
7.8348253471
 30
0.0
 10
12.1036946911
 20
7.8346609027
 30
0.0
 10
12.1037526862
 20
7.834512215
 30
0.0
 10
12.1038254986
 20
7.8344604446
 30
0.0
 10
12.1039174133
 20
7.8343576116
 30
0.0
 10
12.1040806722
 20
7.8341934046
 30
0.0
 10
12.1043126402
 20
7.8339505884
 30
0.0
 10
12.1045915408
 20
7.8336627337
 30
0.0
 10
12.1049632199
 20
7.8332776964
 30
0.0
 10
12.1054278832
 20
7.8327968213
 30
0.0
 10
12.1061713086
 20
7.8320271854
 30
0.0
 10
12.1071006027
 20
7.831065222
 30
0.0
 10
12.1082157501
 20
7.8299108285
 30
0.0
 10
12.1093308998
 20
7.8287564541
 30
0.0
 10
12.1102601879
 20
7.827794443
 30
0.0
 10
12.1110036253
 20
7.8270249025
 30
0.0
 10
12.1114682581
 20
7.8265437851
 30
0.0
 10
12.11184
 20
7.8261592449
 30
0.0
 10
12.1121187088
 20
7.8258698713
 30
0.0
 10
12.1123512765
 20
7.8256318076
 30
0.0
 10
12.112513465
 20
7.8254591167
 30
0.0
 10
12.1126070947
 20
7.825369877
 30
0.0
 10
12.1126746392
 20
7.8252763522
 30
0.0
 10
12.1127524197
 20
7.8252844872
 30
0.0
 10
12.1128525566
 20
7.8252598738
 30
0.0
 10
12.1130294597
 20
7.8252333219
 30
0.0
 10
12.1132813086
 20
7.8251867529
 30
0.0
 10
12.1135838996
 20
7.8251345673
 30
0.0
 10
12.1139872243
 20
7.8250636952
 30
0.0
 10
12.1144914246
 20
7.8249755473
 30
0.0
 10
12.1152981203
 20
7.8248342633
 30
0.0
 10
12.1163064985
 20
7.8246577437
 30
0.0
 10
12.1175165484
 20
7.8244458812
 30
0.0
 10
12.1187266
 20
7.8242340384
 30
0.0
 10
12.1197349739
 20
7.8240574693
 30
0.0
 10
12.1205416781
 20
7.8239162845
 30
0.0
 10
12.1210458566
 20
7.8238278846
 30
0.0
 10
12.1214492262
 20
7.8237575295
 30
0.0
 10
12.12175168
 20
7.8237037642
 30
0.0
 10
12.1220039583
 20
7.823662138
 30
0.0
 10
12.1221800948
 20
7.8236267623
 30
0.0
 10
12.1222814599
 20
7.8236162868
 30
0.0
 10
12.1223554678
 20
7.8235809948
 30
0.0
 10
12.1224371815
 20
7.8236505749
 30
0.0
 10
12.1225434452
 20
7.8237067677
 30
0.0
 10
12.122730659
 20
7.8238221488
 30
0.0
 10
12.1229974526
 20
7.8239780684
 30
0.0
 10
12.1233178852
 20
7.8241689859
 30
0.0
 10
12.1237450307
 20
7.8244222104
 30
0.0
 10
12.1242789961
 20
7.8247391972
 30
0.0
 10
12.1251333221
 20
7.8252461211
 30
0.0
 10
12.1262012359
 20
7.8258798635
 30
0.0
 10
12.1274827298
 20
7.8266403169
 30
0.0
 10
12.1287642244
 20
7.8274007802
 30
0.0
 10
12.1304728836
 20
7.8284147279
 30
0.0
 10
12.1317543781
 20
7.8291751894
 30
0.0
 10
12.1326087077
 20
7.8296821636
 30
0.0
  0
SPLINE
  5
3F0
100
AcDbEntity
  8
0
100
AcDbSpline
 62
4
  6
CONTINUOUS
 70
0
 71
3
 72
281
 73
277
 74
0
 42
0.0000001
 43
0.0000001
 44
0.0000000001
 40
0.0
 40
0.0
 40
0.0
 40
0.0
 40
0.015625
 40
0.0234375
 40
0.03125
 40
0.0390625
 40
0.046875
 40
0.05078125
 40
0.0546875
 40
0.056640625
 40
0.05859375
 40
0.060546875
 40
0.0615234375
 40
0.0620117188
 40
0.0625
 40
0.0629882812
 40
0.0634765625
 40
0.064453125
 40
0.06640625
 40
0.068359375
 40
0.0703125
 40
0.07421875
 40
0.078125
 40
0.0859375
 40
0.09375
 40
0.1015625
 40
0.109375
 40
0.11328125
 40
0.1171875
 40
0.119140625
 40
0.12109375
 40
0.123046875
 40
0.1240234375
 40
0.1245117188
 40
0.125
 40
0.1254882812
 40
0.1259765625
 40
0.126953125
 40
0.12890625
 40
0.130859375
 40
0.1328125
 40
0.13671875
 40
0.140625
 40
0.1484375
 40
0.15625
 40
0.1640625
 40
0.171875
 40
0.17578125
 40
0.1796875
 40
0.181640625
 40
0.18359375
 40
0.185546875
 40
0.1865234375
 40
0.1870117188
 40
0.1875
 40
0.1879882812
 40
0.1884765625
 40
0.189453125
 40
0.19140625
 40
0.193359375
 40
0.1953125
 40
0.19921875
 40
0.203125
 40
0.2109375
 40
0.21875
 40
0.2265625
 40
0.234375
 40
0.23828125
 40
0.2421875
 40
0.24609375
 40
0.248046875
 40
0.2490234375
 40
0.25
 40
0.2509765625
 40
0.251953125
 40
0.25390625
 40
0.2578125
 40
0.26171875
 40
0.265625
 40
0.2734375
 40
0.28125
 40
0.2890625
 40
0.296875
 40
0.30078125
 40
0.3046875
 40
0.30859375
 40
0.310546875
 40
0.3115234375
 40
0.3125
 40
0.3134765625
 40
0.314453125
 40
0.31640625
 40
0.3203125
 40
0.32421875
 40
0.328125
 40
0.3359375
 40
0.34375
 40
0.3515625
 40
0.359375
 40
0.3671875
 40
0.37109375
 40
0.373046875
 40
0.375
 40
0.376953125
 40
0.37890625
 40
0.3828125
 40
0.390625
 40
0.3984375
 40
0.40625
 40
0.4140625
 40
0.421875
 40
0.4296875
 40
0.43359375
 40
0.435546875
 40
0.4375
 40
0.439453125
 40
0.44140625
 40
0.4453125
 40
0.453125
 40
0.4609375
 40
0.46875
 40
0.4765625
 40
0.484375
 40
0.48828125
 40
0.4921875
 40
0.49609375
 40
0.498046875
 40
0.4990234375
 40
0.5
 40
0.5009765625
 40
0.501953125
 40
0.50390625
 40
0.5078125
 40
0.51171875
 40
0.515625
 40
0.5234375
 40
0.53125
 40
0.5390625
 40
0.546875
 40
0.55078125
 40
0.5546875
 40
0.55859375
 40
0.560546875
 40
0.5615234375
 40
0.5625
 40
0.5634765625
 40
0.564453125
 40
0.56640625
 40
0.5703125
 40
0.57421875
 40
0.578125
 40
0.5859375
 40
0.59375
 40
0.6015625
 40
0.609375
 40
0.61328125
 40
0.6171875
 40
0.619140625
 40
0.62109375
 40
0.623046875
 40
0.6240234375
 40
0.6245117188
 40
0.625
 40
0.6254882812
 40
0.6259765625
 40
0.626953125
 40
0.62890625
 40
0.630859375
 40
0.6328125
 40
0.63671875
 40
0.640625
 40
0.6484375
 40
0.65625
 40
0.6640625
 40
0.671875
 40
0.67578125
 40
0.6796875
 40
0.681640625
 40
0.68359375
 40
0.685546875
 40
0.6865234375
 40
0.6870117188
 40
0.6875
 40
0.6879882812
 40
0.6884765625
 40
0.689453125
 40
0.69140625
 40
0.693359375
 40
0.6953125
 40
0.69921875
 40
0.703125
 40
0.7109375
 40
0.71875
 40
0.7265625
 40
0.734375
 40
0.73828125
 40
0.7421875
 40
0.744140625
 40
0.74609375
 40
0.748046875
 40
0.7490234375
 40
0.7495117188
 40
0.75
 40
0.7504882812
 40
0.7509765625
 40
0.751953125
 40
0.75390625
 40
0.755859375
 40
0.7578125
 40
0.76171875
 40
0.765625
 40
0.7734375
 40
0.78125
 40
0.7890625
 40
0.796875
 40
0.80078125
 40
0.8046875
 40
0.806640625
 40
0.80859375
 40
0.810546875
 40
0.8115234375
 40
0.8120117188
 40
0.8125
 40
0.8129882812
 40
0.8134765625
 40
0.814453125
 40
0.81640625
 40
0.818359375
 40
0.8203125
 40
0.82421875
 40
0.828125
 40
0.8359375
 40
0.84375
 40
0.8515625
 40
0.859375
 40
0.86328125
 40
0.8671875
 40
0.869140625
 40
0.87109375
 40
0.873046875
 40
0.8740234375
 40
0.8745117188
 40
0.875
 40
0.8754882812
 40
0.8759765625
 40
0.876953125
 40
0.87890625
 40
0.880859375
 40
0.8828125
 40
0.88671875
 40
0.890625
 40
0.8984375
 40
0.90625
 40
0.9140625
 40
0.921875
 40
0.92578125
 40
0.9296875
 40
0.931640625
 40
0.93359375
 40
0.935546875
 40
0.9365234375
 40
0.9370117188
 40
0.9375
 40
0.9379882812
 40
0.9384765625
 40
0.939453125
 40
0.94140625
 40
0.943359375
 40
0.9453125
 40
0.94921875
 40
0.953125
 40
0.9609375
 40
0.96875
 40
0.9765625
 40
0.984375
 40
1.0
 40
1.0
 40
1.0
 40
1.0
 10
12.1326087032
 20
7.8296821592
 30
0.0
 10
12.1334482374
 20
7.8308002987
 30
0.0
 10
12.1347075386
 20
7.8324775076
 30
0.0
 10
12.1363866069
 20
7.8347137871
 30
0.0
 10
12.1376459083
 20
7.8363909944
 30
0.0
 10
12.1389052091
 20
7.8380682106
 30
0.0
 10
12.139954628
 20
7.8394658631
 30
0.0
 10
12.1407941597
 20
7.8405840469
 30
0.0
 10
12.1413188749
 20
7.8412827712
 30
0.0
 10
12.141738629
 20
7.8418420725
 30
0.0
 10
12.1420534939
 20
7.8422606672
 30
0.0
 10
12.1423157245
 20
7.8426122999
 30
0.0
 10
12.1424995936
 20
7.8428529403
 30
0.0
 10
12.1426041813
 20
7.8429990408
 30
0.0
 10
12.1426839754
 20
7.8430844133
 30
0.0
 10
12.142758596
 20
7.8432623013
 30
0.0
 10
12.1428598947
 20
7.8434672149
 30
0.0
 10
12.1430363267
 20
7.8438408491
 30
0.0
 10
12.1432888119
 20
7.8443667516
 30
0.0
 10
12.1435916061
 20
7.8450011992
 30
0.0
 10
12.1439953973
 20
7.8458459542
 30
0.0
 10
12.1445001139
 20
7.8469023003
 30
0.0
 10
12.1453076729
 20
7.8485922291
 30
0.0
 10
12.1463171174
 20
7.8507047177
 30
0.0
 10
12.1475284528
 20
7.8532396688
 30
0.0
 10
12.1487397868
 20
7.8557746367
 30
0.0
 10
12.1497492349
 20
7.8578870834
 30
0.0
 10
12.1505567866
 20
7.859577096
 30
0.0
 10
12.1510615218
 20
7.8606332291
 30
0.0
 10
12.1514652747
 20
7.8614784212
 30
0.0
 10
12.1517681861
 20
7.8621115332
 30
0.0
 10
12.1520203046
 20
7.8626416147
 30
0.0
 10
12.1521973912
 20
7.8630077887
 30
0.0
 10
12.152297641
 20
7.8632246555
 30
0.0
 10
12.1523754836
 20
7.8633658272
 30
0.0
 10
12.1524431762
 20
7.8635891001
 30
0.0
 10
12.1525369734
 20
7.8638581595
 30
0.0
 10
12.152699469
 20
7.8643423564
 30
0.0
 10
12.152932468
 20
7.8650270904
 30
0.0
 10
12.1532116977
 20
7.865851757
 30
0.0
 10
12.1535841328
 20
7.8669502696
 30
0.0
 10
12.1540496325
 20
7.8683237675
 30
0.0
 10
12.1547944568
 20
7.8705211645
 30
0.0
 10
12.1557254786
 20
7.8732679796
 30
0.0
 10
12.1568427087
 20
7.8765641264
 30
0.0
 10
12.1579599366
 20
7.8798602884
 30
0.0
 10
12.1588909639
 20
7.8826070655
 30
0.0
 10
12.1596357771
 20
7.8848045387
 30
0.0
 10
12.1601013051
 20
7.8861778429
 30
0.0
 10
12.1604736822
 20
7.887276753
 30
0.0
 10
12.160753089
 20
7.8881002052
 30
0.0
 10
12.1609855337
 20
7.8887887388
 30
0.0
 10
12.1611490188
 20
7.8892661528
 30
0.0
 10
12.1612412305
 20
7.88954608
 30
0.0
 10
12.1613137932
 20
7.8897359705
 30
0.0
 10
12.1613733448
 20
7.8900025211
 30
0.0
 10
12.1614572854
 20
7.8903311821
 30
0.0
 10
12.1616020669
 20
7.8909187973
 30
0.0
 10
12.1618100031
 20
7.8917517342
 30
0.0
 10
12.1620590533
 20
7.8927540464
 30
0.0
 10
12.1623912856
 20
7.8940894888
 30
0.0
 10
12.1628065194
 20
7.8957591254
 30
0.0
 10
12.1634709251
 20
7.8984303572
 30
0.0
 10
12.1643014203
 20
7.9017694636
 30
0.0
 10
12.1652980248
 20
7.9057763515
 30
0.0
 10
12.1662946072
 20
7.9097832919
 30
0.0
 10
12.1671251578
 20
7.9131222668
 30
0.0
 10
12.1677894526
 20
7.9157937616
 30
0.0
 10
12.1682880714
 20
7.9177965235
 30
0.0
 10
12.1687023223
 20
7.9194682244
 30
0.0
 10
12.1689947799
 20
7.9206330524
 30
0.0
 10
12.1691580232
 20
7.9213070416
 30
0.0
 10
12.1692913726
 20
7.9217889459
 30
0.0
 10
12.1693829918
 20
7.9223610142
 30
0.0
 10
12.1695197068
 20
7.9230923216
 30
0.0
 10
12.169752176
 20
7.9243867629
 30
0.0
 10
12.1700878206
 20
7.9262283039
 30
0.0
 10
12.1704890763
 20
7.9284414322
 30
0.0
 10
12.1710246144
 20
7.9313911243
 30
0.0
 10
12.1716938537
 20
7.9350786344
 30
0.0
 10
12.1724970249
 20
7.9395034687
 30
0.0
 10
12.173300153
 20
7.9439283823
 30
0.0
 10
12.1739695002
 20
7.9476156942
 30
0.0
 10
12.1745048225
 20
7.9505657826
 30
0.0
 10
12.1749067362
 20
7.9527777022
 30
0.0
 10
12.1752403226
 20
7.9546230246
 30
0.0
 10
12.175476466
 20
7.9559107154
 30
0.0
 10
12.175607294
 20
7.9566528388
 30
0.0
 10
12.1757169958
 20
7.9571916841
 30
0.0
 10
12.1757824299
 20
7.9577983682
 30
0.0
 10
12.1758851165
 20
7.9585836175
 30
0.0
 10
12.1760576236
 20
7.9599688287
 30
0.0
 10
12.1763078238
 20
7.9619419378
 30
0.0
 10
12.1766064535
 20
7.9643121363
 30
0.0
 10
12.1770051911
 20
7.9674715377
 30
0.0
 10
12.1775034048
 20
7.9714210942
 30
0.0
 10
12.1781014145
 20
7.9761603938
 30
0.0
 10
12.1786991442
 20
7.9808998788
 30
0.0
 10
12.1792978403
 20
7.9856387905
 30
0.0
 10
12.179793766
 20
7.9895896403
 30
0.0
 10
12.1801467654
 20
7.9923517967
 30
0.0
 10
12.1803393447
 20
7.9939355392
 30
0.0
 10
12.1805095113
 20
7.9951082264
 30
0.0
 10
12.1805813165
 20
7.9963387087
 30
0.0
 10
12.1807113663
 20
7.9979591921
 30
0.0
 10
12.1809229673
 20
8.000804431
 30
0.0
 10
12.1812336177
 20
8.004864146
 30
0.0
 10
12.1816027945
 20
8.0097379123
 30
0.0
 10
12.1819730049
 20
8.0146111045
 30
0.0
 10
12.1823426847
 20
8.0194844849
 30
0.0
 10
12.182713453
 20
8.0243576864
 30
0.0
 10
12.1830192405
 20
8.0284191271
 30
0.0
 10
12.1832395064
 20
8.0312612911
 30
0.0
 10
12.1833556747
 20
8.0328867007
 30
0.0
 10
12.1834701191
 20
8.0341020516
 30
0.0
 10
12.1834801396
 20
8.0353315695
 30
0.0
 10
12.1835299245
 20
8.0369659852
 30
0.0
 10
12.1836000772
 20
8.0398285148
 30
0.0
 10
12.1837091697
 20
8.0439166396
 30
0.0
 10
12.1838362743
 20
8.0488229029
 30
0.0
 10
12.1839644056
 20
8.0537290373
 30
0.0
 10
12.1840922362
 20
8.0586351737
 30
0.0
 10
12.1841989086
 20
8.0627237215
 30
0.0
 10
12.1842840443
 20
8.0659943166
 30
0.0
 10
12.1843484146
 20
8.068447932
 30
0.0
 10
12.1844004125
 20
8.0704904826
 30
0.0
 10
12.1844400365
 20
8.071924446
 30
0.0
 10
12.1844576427
 20
8.0727373301
 30
0.0
 10
12.1844850339
 20
8.0733653703
 30
0.0
 10
12.184458197
 20
8.0739231636
 30
0.0
 10
12.1844413299
 20
8.074691391
 30
0.0
 10
12.1844029994
 20
8.0760243725
 30
0.0
 10
12.184352849
 20
8.0779346004
 30
0.0
 10
12.1842906964
 20
8.0802243191
 30
0.0
 10
12.1842085154
 20
8.0832781701
 30
0.0
 10
12.1841055511
 20
8.0870951749
 30
0.0
 10
12.1839821025
 20
8.0916757243
 30
0.0
 10
12.1838586005
 20
8.0962561938
 30
0.0
 10
12.1837557698
 20
8.1000733985
 30
0.0
 10
12.1836733217
 20
8.1031268498
 30
0.0
 10
12.1836119837
 20
8.1054177874
 30
0.0
 10
12.1835592849
 20
8.1073242019
 30
0.0
 10
12.1835255038
 20
8.108663991
 30
0.0
 10
12.1835013473
 20
8.1094213109
 30
0.0
 10
12.1834969008
 20
8.1100126083
 30
0.0
 10
12.1834401974
 20
8.1105148131
 30
0.0
 10
12.1833828207
 20
8.1112154961
 30
0.0
 10
12.1832739187
 20
8.1124272121
 30
0.0
 10
12.1831227846
 20
8.1141658049
 30
0.0
 10
12.182939523
 20
8.1162488761
 30
0.0
 10
12.1826958382
 20
8.1190274362
 30
0.0
 10
12.1823910043
 20
8.1225002476
 30
0.0
 10
12.1820253019
 20
8.1266677894
 30
0.0
 10
12.1816595709
 20
8.1308352806
 30
0.0
 10
12.1813548084
 20
8.1343082185
 30
0.0
 10
12.1811109807
 20
8.1370865255
 30
0.0
 10
12.180958626
 20
8.1388230614
 30
0.0
 10
12.1808366565
 20
8.1402120754
 30
0.0
 10
12.180745414
 20
8.1412544235
 30
0.0
 10
12.1806686322
 20
8.1421211779
 30
0.0
 10
12.1806163496
 20
8.1427315738
 30
0.0
 10
12.1805841869
 20
8.1430746445
 30
0.0
 10
12.1805665073
 20
8.1433480803
 30
0.0
 10
12.1805242016
 20
8.1435598486
 30
0.0
 10
12.1804763839
 20
8.1438637166
 30
0.0
 10
12.1803887008
 20
8.1443854635
 30
0.0
 10
12.1802655316
 20
8.145136056
 30
0.0
 10
12.1801168329
 20
8.1460345242
 30
0.0
 10
12.1799188808
 20
8.1472332651
 30
0.0
 10
12.1796713336
 20
8.148731423
 30
0.0
 10
12.1792753179
 20
8.1511286257
 30
0.0
 10
12.1787802776
 20
8.1541250772
 30
0.0
 10
12.1781862387
 20
8.1577208429
 30
0.0
 10
12.1775921952
 20
8.1613165958
 30
0.0
 10
12.1770971665
 20
8.1643130793
 30
0.0
 10
12.1767011276
 20
8.166710218
 30
0.0
 10
12.1764536396
 20
8.1682085385
 30
0.0
 10
12.1762555659
 20
8.1694069457
 30
0.0
 10
12.1761072385
 20
8.1703064337
 30
0.0
 10
12.1759829077
 20
8.1710538354
 30
0.0
 10
12.1758972982
 20
8.1715812782
 30
0.0
 10
12.1758461581
 20
8.1718760201
 30
0.0
 10
12.1758140577
 20
8.172115821
 30
0.0
 10
12.1757580489
 20
8.1722839706
 30
0.0
 10
12.1756917099
 20
8.1725331629
 30
0.0
 10
12.1755717312
 20
8.1729576047
 30
0.0
 10
12.1754023644
 20
8.1735700381
 30
0.0
 10
12.1751982548
 20
8.1743023524
 30
0.0
 10
12.1749264124
 20
8.1752796816
 30
0.0
 10
12.1745865053
 20
8.1765010315
 30
0.0
 10
12.1740427122
 20
8.1784553655
 30
0.0
 10
12.1733629507
 20
8.1808982226
 30
0.0
 10
12.1725472459
 20
8.1838296794
 30
0.0
 10
12.1717315372
 20
8.1867611201
 30
0.0
 10
12.1710517857
 20
8.1892040173
 30
0.0
 10
12.1705079727
 20
8.1911582714
 30
0.0
 10
12.1701681161
 20
8.1923798242
 30
0.0
 10
12.16989617
 20
8.1933567368
 30
0.0
 10
12.169692377
 20
8.1940903239
 30
0.0
 10
12.1695220197
 20
8.1946987749
 30
0.0
 10
12.1694038093
 20
8.1951303261
 30
0.0
 10
12.1693346371
 20
8.1953681273
 30
0.0
 10
12.1692873309
 20
8.1955712666
 30
0.0
 10
12.1692225448
 20
8.195679652
 30
0.0
 10
12.1691422604
 20
8.195857217
 30
0.0
 10
12.168998922
 20
8.1961525566
 30
0.0
 10
12.1687956381
 20
8.1965825212
 30
0.0
 10
12.1685510617
 20
8.1970950327
 30
0.0
 10
12.1682251818
 20
8.1977795851
 30
0.0
 10
12.167817756
 20
8.1986348633
 30
0.0
 10
12.1671659171
 20
8.2000035389
 30
0.0
 10
12.1663511039
 20
8.2017143039
 30
0.0
 10
12.1653733347
 20
8.2037672582
 30
0.0
 10
12.1643955623
 20
8.2058201942
 30
0.0
 10
12.1635807569
 20
8.2075310051
 30
0.0
 10
12.1629289025
 20
8.2088995887
 30
0.0
 10
12.162521516
 20
8.2097551008
 30
0.0
 10
12.1621955553
 20
8.2104391732
 30
0.0
 10
12.161951226
 20
8.2109531509
 30
0.0
 10
12.1617471691
 20
8.2113785283
 30
0.0
 10
12.1616052105
 20
8.2116820568
 30
0.0
 10
12.1615227153
 20
8.2118465012
 30
0.0
 10
12.1614647203
 20
8.2119951889
 30
0.0
 10
12.1613919079
 20
8.2120469593
 30
0.0
 10
12.1612999931
 20
8.2121497923
 30
0.0
 10
12.1611367342
 20
8.2123139994
 30
0.0
 10
12.1609047662
 20
8.2125568155
 30
0.0
 10
12.1606258657
 20
8.2128446702
 30
0.0
 10
12.1602541865
 20
8.2132297075
 30
0.0
 10
12.1597895232
 20
8.2137105826
 30
0.0
 10
12.1590460978
 20
8.2144802185
 30
0.0
 10
12.1581168037
 20
8.215442182
 30
0.0
 10
12.1570016564
 20
8.2165965754
 30
0.0
 10
12.1558865066
 20
8.2177509498
 30
0.0
 10
12.1549572185
 20
8.2187129609
 30
0.0
 10
12.1542137811
 20
8.2194825015
 30
0.0
 10
12.1537491483
 20
8.2199636188
 30
0.0
 10
12.1533774065
 20
8.220348159
 30
0.0
 10
12.1530986976
 20
8.2206375326
 30
0.0
 10
12.15286613
 20
8.2208755963
 30
0.0
 10
12.1527039414
 20
8.2210482873
 30
0.0
 10
12.1526103117
 20
8.2211375269
 30
0.0
 10
12.1525427672
 20
8.2212310518
 30
0.0
 10
12.1524649867
 20
8.2212229167
 30
0.0
 10
12.1523648498
 20
8.2212475301
 30
0.0
 10
12.1521879468
 20
8.2212740821
 30
0.0
 10
12.1519360978
 20
8.221320651
 30
0.0
 10
12.1516335068
 20
8.2213728366
 30
0.0
 10
12.1512301821
 20
8.2214437087
 30
0.0
 10
12.1507259818
 20
8.2215318567
 30
0.0
 10
12.1499192861
 20
8.2216731406
 30
0.0
 10
12.148910908
 20
8.2218496602
 30
0.0
 10
12.147700858
 20
8.2220615228
 30
0.0
 10
12.1464908064
 20
8.2222733655
 30
0.0
 10
12.1454824325
 20
8.2224499346
 30
0.0
 10
12.1446757283
 20
8.2225911195
 30
0.0
 10
12.1441715498
 20
8.2226795194
 30
0.0
 10
12.1437681802
 20
8.2227498744
 30
0.0
 10
12.1434657265
 20
8.2228036398
 30
0.0
 10
12.1432134481
 20
8.2228452659
 30
0.0
 10
12.1430373116
 20
8.2228806416
 30
0.0
 10
12.1429359465
 20
8.2228911171
 30
0.0
 10
12.1428619386
 20
8.2229264092
 30
0.0
 10
12.1427802249
 20
8.2228568291
 30
0.0
 10
12.1426739612
 20
8.2228006362
 30
0.0
 10
12.1424867474
 20
8.2226852551
 30
0.0
 10
12.1422199538
 20
8.2225293355
 30
0.0
 10
12.1418995213
 20
8.222338418
 30
0.0
 10
12.1414723757
 20
8.2220851935
 30
0.0
 10
12.1409384103
 20
8.2217682067
 30
0.0
 10
12.1400840844
 20
8.2212612828
 30
0.0
 10
12.1390161705
 20
8.2206275404
 30
0.0
 10
12.1377346766
 20
8.2198670871
 30
0.0
 10
12.136453182
 20
8.2191066237
 30
0.0
 10
12.1347445228
 20
8.218092676
 30
0.0
 10
12.1334630283
 20
8.2173322145
 30
0.0
 10
12.1326086987
 20
8.2168252403
 30
0.0
  0
SPLINE
  5
3F1
100
AcDbEntity
  8
0
100
AcDbSpline
 62
4
  6
CONTINUOUS
 70
0
 71
3
 72
69
 73
65
 74
0
 42
0.0000001
 43
0.0000001
 44
0.0000000001
 40
0.0
 40
0.0
 40
0.0
 40
0.0
 40
0.03125
 40
0.046875
 40
0.0625
 40
0.078125
 40
0.09375
 40
0.109375
 40
0.125
 40
0.140625
 40
0.15625
 40
0.171875
 40
0.1875
 40
0.203125
 40
0.21875
 40
0.234375
 40
0.25
 40
0.265625
 40
0.28125
 40
0.296875
 40
0.3125
 40
0.328125
 40
0.34375
 40
0.359375
 40
0.375
 40
0.390625
 40
0.40625
 40
0.421875
 40
0.4375
 40
0.453125
 40
0.46875
 40
0.484375
 40
0.5
 40
0.515625
 40
0.53125
 40
0.546875
 40
0.5625
 40
0.578125
 40
0.59375
 40
0.609375
 40
0.625
 40
0.640625
 40
0.65625
 40
0.671875
 40
0.6875
 40
0.703125
 40
0.71875
 40
0.734375
 40
0.75
 40
0.765625
 40
0.78125
 40
0.796875
 40
0.8125
 40
0.828125
 40
0.84375
 40
0.859375
 40
0.875
 40
0.890625
 40
0.90625
 40
0.921875
 40
0.9375
 40
0.953125
 40
0.96875
 40
1.0
 40
1.0
 40
1.0
 40
1.0
 10
11.4997536098
 20
9.2002377293
 30
0.0
 10
11.4997382799
 20
9.2003951391
 30
0.0
 10
11.4997173485
 20
9.2006315214
 30
0.0
 10
11.499681186
 20
9.2009456273
 30
0.0
 10
11.499674699
 20
9.201183883
 30
0.0
 10
11.4995897994
 20
9.2014119687
 30
0.0
 10
11.4995272321
 20
9.2016432335
 30
0.0
 10
11.4994537483
 20
9.2018719521
 30
0.0
 10
11.4994015982
 20
9.2021076762
 30
0.0
 10
11.4992750297
 20
9.2023179245
 30
0.0
 10
11.4991696831
 20
9.2025356108
 30
0.0
 10
11.4990538672
 20
9.2027490211
 30
0.0
 10
11.4989587068
 20
9.2029720972
 30
0.0
 10
11.4987913935
 20
9.2031607864
 30
0.0
 10
11.4986443511
 20
9.2033597448
 30
0.0
 10
11.4984883782
 20
9.203552013
 30
0.0
 10
11.4983478566
 20
9.2037607729
 30
0.0
 10
11.4981544599
 20
9.2039102562
 30
0.0
 10
11.4979760252
 20
9.2040767563
 30
0.0
 10
11.4977906178
 20
9.2042344656
 30
0.0
 10
11.4976181391
 20
9.2044103213
 30
0.0
 10
11.4974009181
 20
9.2045223825
 30
0.0
 10
11.4971962344
 20
9.2046528198
 30
0.0
 10
11.4969861435
 20
9.2047735474
 30
0.0
 10
11.4967851444
 20
9.2049147375
 30
0.0
 10
11.4965531852
 20
9.2049837874
 30
0.0
 10
11.4963299326
 20
9.2050735403
 30
0.0
 10
11.4961028138
 20
9.2051526213
 30
0.0
 10
11.4958824532
 20
9.2052536869
 30
0.0
 10
11.4956389262
 20
9.2052774859
 30
0.0
 10
11.4954014773
 20
9.2053234526
 30
0.0
 10
11.4951628822
 20
9.2053580152
 30
0.0
 10
11.4949227938
 20
9.2054160263
 30
0.0
 10
11.4946898249
 20
9.2053916475
 30
0.0
 10
11.4944546692
 20
9.2053907664
 30
0.0
 10
11.494221141
 20
9.2053782842
 30
0.0
 10
11.4939832895
 20
9.2053887091
 30
0.0
 10
11.4937611038
 20
9.2053191064
 30
0.0
 10
11.4935341749
 20
9.2052723066
 30
0.0
 10
11.4933105532
 20
9.205214323
 30
0.0
 10
11.4930784455
 20
9.2051782717
 30
0.0
 10
11.4928769748
 20
9.2050656747
 30
0.0
 10
11.4926665943
 20
9.2049749182
 30
0.0
 10
11.4924612158
 20
9.2048733453
 30
0.0
 10
11.4922447392
 20
9.2047931976
 30
0.0
 10
11.4920676532
 20
9.2046381653
 30
0.0
 10
11.4918788922
 20
9.2045042135
 30
0.0
 10
11.4916974408
 20
9.2043608243
 30
0.0
 10
11.4914984261
 20
9.2042341044
 30
0.0
 10
11.4913623549
 20
9.2040501443
 30
0.0
 10
11.4912082293
 20
9.2038823982
 30
0.0
 10
11.491063378
 20
9.2037070363
 30
0.0
 10
11.4908994838
 20
9.2035459237
 30
0.0
 10
11.4908024869
 20
9.2033354294
 30
0.0
 10
11.4906862445
 20
9.2031388072
 30
0.0
 10
11.4905800866
 20
9.2029360784
 30
0.0
 10
11.4904528364
 20
9.2027439041
 30
0.0
 10
11.4903998708
 20
9.2025156181
 30
0.0
 10
11.4903256085
 20
9.2022975157
 30
0.0
 10
11.4902622483
 20
9.2020747906
 30
0.0
 10
11.4901765764
 20
9.2018603725
 30
0.0
 10
11.4901692493
 20
9.2016173493
 30
0.0
 10
11.4901319905
 20
9.2013033553
 30
0.0
 10
11.4901102315
 20
9.2010656014
 30
0.0
 10
11.490094351
 20
9.2009076007
 30
0.0
  0
SPLINE
  5
3F2
100
AcDbEntity
  8
0
100
AcDbSpline
 62
4
  6
CONTINUOUS
 70
0
 71
3
 72
69
 73
65
 74
0
 42
0.0000001
 43
0.0000001
 44
0.0000000001
 40
0.0
 40
0.0
 40
0.0
 40
0.0
 40
0.03125
 40
0.046875
 40
0.0625
 40
0.078125
 40
0.09375
 40
0.109375
 40
0.125
 40
0.140625
 40
0.15625
 40
0.171875
 40
0.1875
 40
0.203125
 40
0.21875
 40
0.234375
 40
0.25
 40
0.265625
 40
0.28125
 40
0.296875
 40
0.3125
 40
0.328125
 40
0.34375
 40
0.359375
 40
0.375
 40
0.390625
 40
0.40625
 40
0.421875
 40
0.4375
 40
0.453125
 40
0.46875
 40
0.484375
 40
0.5
 40
0.515625
 40
0.53125
 40
0.546875
 40
0.5625
 40
0.578125
 40
0.59375
 40
0.609375
 40
0.625
 40
0.640625
 40
0.65625
 40
0.671875
 40
0.6875
 40
0.703125
 40
0.71875
 40
0.734375
 40
0.75
 40
0.765625
 40
0.78125
 40
0.796875
 40
0.8125
 40
0.828125
 40
0.84375
 40
0.859375
 40
0.875
 40
0.890625
 40
0.90625
 40
0.921875
 40
0.9375
 40
0.953125
 40
0.96875
 40
1.0
 40
1.0
 40
1.0
 40
1.0
 10
11.490094351
 20
9.2009076011
 30
0.0
 10
11.4901096809
 20
9.2007501914
 30
0.0
 10
11.4901306123
 20
9.200513809
 30
0.0
 10
11.4901667748
 20
9.2001997031
 30
0.0
 10
11.4901732617
 20
9.1999614474
 30
0.0
 10
11.4902581614
 20
9.1997333617
 30
0.0
 10
11.4903207287
 20
9.199502097
 30
0.0
 10
11.4903942125
 20
9.1992733783
 30
0.0
 10
11.4904463626
 20
9.1990376542
 30
0.0
 10
11.4905729311
 20
9.1988274059
 30
0.0
 10
11.4906782777
 20
9.1986097196
 30
0.0
 10
11.4907940936
 20
9.1983963093
 30
0.0
 10
11.490889254
 20
9.1981732332
 30
0.0
 10
11.4910565673
 20
9.1979845441
 30
0.0
 10
11.4912036096
 20
9.1977855856
 30
0.0
 10
11.4913595826
 20
9.1975933174
 30
0.0
 10
11.4915001042
 20
9.1973845575
 30
0.0
 10
11.4916935009
 20
9.1972350743
 30
0.0
 10
11.4918719356
 20
9.1970685741
 30
0.0
 10
11.492057343
 20
9.1969108648
 30
0.0
 10
11.4922298217
 20
9.1967350092
 30
0.0
 10
11.4924470427
 20
9.1966229479
 30
0.0
 10
11.4926517263
 20
9.1964925107
 30
0.0
 10
11.4928618173
 20
9.196371783
 30
0.0
 10
11.4930628164
 20
9.1962305929
 30
0.0
 10
11.4932947756
 20
9.196161543
 30
0.0
 10
11.4935180282
 20
9.1960717901
 30
0.0
 10
11.493745147
 20
9.1959927091
 30
0.0
 10
11.4939655076
 20
9.1958916435
 30
0.0
 10
11.4942090346
 20
9.1958678445
 30
0.0
 10
11.4944464835
 20
9.1958218779
 30
0.0
 10
11.4946850786
 20
9.1957873152
 30
0.0
 10
11.494925167
 20
9.1957293041
 30
0.0
 10
11.4951581359
 20
9.195753683
 30
0.0
 10
11.4953932916
 20
9.195754564
 30
0.0
 10
11.4956268198
 20
9.1957670463
 30
0.0
 10
11.4958646713
 20
9.1957566213
 30
0.0
 10
11.496086857
 20
9.195826224
 30
0.0
 10
11.4963137859
 20
9.1958730238
 30
0.0
 10
11.4965374076
 20
9.1959310075
 30
0.0
 10
11.4967695153
 20
9.1959670587
 30
0.0
 10
11.496970986
 20
9.1960796557
 30
0.0
 10
11.4971813665
 20
9.1961704122
 30
0.0
 10
11.497386745
 20
9.1962719851
 30
0.0
 10
11.4976032216
 20
9.1963521328
 30
0.0
 10
11.4977803076
 20
9.1965071651
 30
0.0
 10
11.4979690686
 20
9.1966411169
 30
0.0
 10
11.49815052
 20
9.1967845062
 30
0.0
 10
11.4983495347
 20
9.196911226
 30
0.0
 10
11.4984856059
 20
9.1970951861
 30
0.0
 10
11.4986397315
 20
9.1972629322
 30
0.0
 10
11.4987845828
 20
9.1974382941
 30
0.0
 10
11.498948477
 20
9.1975994067
 30
0.0
 10
11.4990454739
 20
9.197809901
 30
0.0
 10
11.4991617163
 20
9.1980065232
 30
0.0
 10
11.4992678742
 20
9.198209252
 30
0.0
 10
11.4993951244
 20
9.1984014263
 30
0.0
 10
11.49944809
 20
9.1986297123
 30
0.0
 10
11.4995223523
 20
9.1988478148
 30
0.0
 10
11.4995857125
 20
9.1990705398
 30
0.0
 10
11.4996713844
 20
9.199284958
 30
0.0
 10
11.4996787114
 20
9.1995279811
 30
0.0
 10
11.4997159703
 20
9.1998419752
 30
0.0
 10
11.4997377293
 20
9.200079729
 30
0.0
 10
11.4997536098
 20
9.2002377297
 30
0.0
  0
ELLIPSE
  5
3F3
100
AcDbEntity
  8
0
100
AcDbEllipse
 62
7
  6
CONTINUOUS
 10
10.6806484369
 20
8.623395584
 30
0.0
 11
-0.099683085
 21
0.1928050016
 31
0.0
 40
0.9220163394
 41
4.7598719662
 42
6.784389753
  0
ELLIPSE
  5
3F4
100
AcDbEntity
  8
0
100
AcDbEllipse
 62
7
  6
CONTINUOUS
 10
10.6806484369
 20
8.623395584
 30
0.0
 11
0.2181278564
 21
-0.0447030929
 31
0.0
 40
0.8076728902
 41
2.6322705577
 42
3.9789888477
  0
ELLIPSE
  5
3F5
100
AcDbEntity
  8
0
100
AcDbEllipse
 62
7
  6
CONTINUOUS
 10
10.6806484369
 20
8.623395584
 30
0.0
 11
0.2181278564
 21
-0.0447030929
 31
0.0
 40
0.8076728902
 41
-0.5093220958
 42
0.8373961941
  0
ELLIPSE
  5
3F6
100
AcDbEntity
  8
0
100
AcDbEllipse
 62
7
  6
CONTINUOUS
 10
10.2585389059
 20
7.3544644943
 30
0.0
 11
0.1672683019
 21
-0.1561669587
 31
0.0
 40
0.7646620988
 41
0.0
 42
6.2831853072
  0
ENDSEC
  0
SECTION
  2
OBJECTS
  0
DICTIONARY
  5
C
100
AcDbDictionary
280
0
281
1
  3
ACAD_GROUP
350
D
  3
ACAD_MLINESTYLE
350
17
  3
ACAD_LAYOUT
350
1A
  3
ACAD_PLOTSETTINGS
350
19
  3
ACAD_PLOTSTYLENAME
350
E
  3
ACAD_IMAGE_DICT
350
       3F8
  3
ACAD_IMAGE_VARS
350
       3F9
  3
ACAD_TABLESTYLE
350
       3FA
  0
IMAGEDEF_REACTOR
  5
3F7
100
AcDbRasterImageDefReactor
 90
2
330
287
  0
DICTIONARY
  5
D
102
{ACAD_REACTORS
330
C
102
}
100
AcDbDictionary
280
0
281
1
  0
ACDBDICTIONARYWDFLT
  5
E
102
{ACAD_REACTORS
330
C
102
}
100
AcDbDictionary
281
1
  3
Normal
350
F
100
AcDbDictionaryWithDefault
340
F
  0
DICTIONARY
  5
3F8
330
C
100
AcDbDictionary
281
1
  3
NJ2_assy_2_img_1
350
       3FD
  0
RASTERVARIABLES
  5
3F9
330
C
100
AcDbRasterVariables
 90
0
 70
0
 71
1
 72
5
  0
DICTIONARY
  5
17
102
{ACAD_REACTORS
330
C
102
}
100
AcDbDictionary
280
0
281
1
  3
Standard
350
18
  0
DICTIONARY
  5
3FA
330
C
100
AcDbDictionary
281
1
  3
Standard
350
       3FE
  3
Standard1
350
       3FF
  0
DICTIONARY
  5
19
102
{ACAD_REACTORS
330
C
102
}
100
AcDbDictionary
281
1
  0
DICTIONARY
  5
1A
102
{ACAD_REACTORS
330
C
102
}
100
AcDbDictionary
281
1
  3
Model
350
3FB
  3
Layout1
350
3FC
  0
ACDBPLACEHOLDER
  5
F
102
{ACAD_REACTORS
330
E
102
}
  0
MLINESTYLE
  5
18
102
{ACAD_REACTORS
330
17
102
}
100
AcDbMlineStyle
  2
STANDARD
 70
0
  3

 62
256
 51
90.0
 52
90.0
 71
2
 49
0.5
 62
256
  6
BYLAYER
 49
-0.5
 62
256
  6
BYLAYER
  0
LAYOUT
  5
3FB
102
{ACAD_REACTORS
330
1A
102
}
100
AcDbPlotSettings
  1

  2
none_device
  4
ANSI_C_(22.00_x_17.00_Inches)
  6

 40
0.0
 41
0.0
 42
0.0
 43
0.0
 44
558.8
 45
431.8
 46
0.0
 47
0.0
 48
0.0
 49
0.0
140
0.0
141
0.0
142
1.0
143
1.0
 70
1024
 72
0
 73
0
 74
0
  7

 75
0
147
1.0
148
0.0
149
0.0
100
AcDbLayout
  1
Model
 70
0
 71
0
 10
0.0
 20
0.0
 11
22.0
 21
17.0
 12
0.0
 22
0.0
 32
0.0
 14
0.0
 24
0.0
 34
0.0
 15
0.0
 25
0.0
 35
0.0
146
0.0
 13
0.0
 23
0.0
 33
0.0
 16
1.0
 26
0.0
 36
0.0
 17
0.0
 27
1.0
 37
0.0
 76
0
330
20C
345
0
346
0
  0
LAYOUT
  5
3FC
102
{ACAD_REACTORS
330
1A
102
}
100
AcDbPlotSettings
  1

  2
none_device
  4
ANSI_C_(22.00_x_17.00_Inches)
  6

 40
0.0
 41
0.0
 42
0.0
 43
0.0
 44
558.8
 45
431.8
 46
0.0
 47
0.0
 48
0.0
 49
0.0
140
0.0
141
0.0
142
1.0
143
1.0
 70
0
 72
0
 73
0
 74
0
  7

 75
0
147
1.0
148
0.0
149
0.0
100
AcDbLayout
  1
Layout1
 70
0
 71
1
 10
0.0
 20
0.0
 11
22.0
 21
17.0
 12
0.0
 22
0.0
 32
0.0
 14
0.0
 24
0.0
 34
0.0
 15
0.0
 25
0.0
 35
0.0
146
0.0
 13
0.0
 23
0.0
 33
0.0
 16
1.0
 26
0.0
 36
0.0
 17
0.0
 27
1.0
 37
0.0
 76
0
330
20D
345
0
346
0
  0
IMAGEDEF
  5
3FD
102
{ACAD_REACTORS
330
3F8
330
3F7
102
}
100
AcDbRasterImageDef
 90
0
  1
NJ2_assy_2_img_1.png
 10
369.0
 20
92.0
 11
0.0066666667
 21
0.0066666667
280
1
281
0
  0
TABLESTYLE
  5
3FE
102
{ACAD_REACTORS
330
3FA
330
28A
330
28B
102
}
330
3FA
100
AcDbTableStyle
  3
Standard
 70
0
 71
0
 40
0.06
 41
0.06
280
1
281
1
  7
Standard
140
0.18
170
1
 62
0
 63
7
283
0
  7
Standard
140
0.18
170
1
 62
0
 63
7
283
0
  7
Standard
140
0.18
170
1
 62
0
 63
7
283
0
  0
TABLESTYLE
  5
3FF
102
{ACAD_REACTORS
330
3FA
330
289
102
}
330
3FA
100
AcDbTableStyle
  3
Standard1
 70
1
 71
0
 40
0.06
 41
0.06
280
1
281
1
  7
Standard
140
0.18
170
1
 62
0
 63
7
283
0
  7
Standard
140
0.18
170
1
 62
0
 63
7
283
0
  7
Standard
140
0.18
170
1
 62
0
 63
7
283
0
  0
ENDSEC
  0
EOF
