999
DXF file: NB2_assy_2.dxf
999
Pro/ENGINEER 2014200 by Parametric Technology Corporation
  0
SECTION
  2
HEADER
  9
$ACADVER
  1
AC1021
  9
$DWGCODEPAGE
  3
ANSI_1252
  9
$EXTMAX
 10
22.0
 20
17.0
 30
0.0
  9
$EXTMIN
 10
0.0
 20
0.0
 30
0.0
  9
$LIMMIN
 10
0.0
 20
0.0
  9
$LIMMAX
 10
22.0
 20
17.0
  9
$VIEWCTR
 10
11.0
 20
8.5
  9
$VIEWSIZE
 40
17.0
  9
$CLAYER
  8
0
  9
$LTSCALE
 40
1.21
  9
$CELTYPE
  6
BYLAYER
  9
$DIMSCALE
 40
1.0
  9
$DIMASZ
 40
0.1875
  9
$DIMEXO
 40
0.0625
  9
$DIMDLI
 40
0.836
  9
$DIMEXE
 40
0.125
  9
$DIMCEN
 40
0.198
  9
$DIMLFAC
 40
1.0
  9
$DIMBLK
  1
_FILLED
  9
$DIMTXT
 40
0.1
  9
$DIMTOL
 70
0
  9
$DIMLIM
 70
0
  9
$DIMTFAC
 40
1.0
  9
$DIMGAP
 40
0.09
  9
$DIMDSEP
 70
46
  9
$AUNITS
 70
0
  9
$PDMODE
 70
3
  9
$PDSIZE
 40
0.3125
  9
$HANDSEED
  5
345
  9
$TILEMODE
 70
1
  9
$MEASUREMENT
 70
0
  9
$INSUNITS
 70
1
  0
ENDSEC
  0
SECTION
  2
CLASSES
  0
CLASS
  1
ACDBDICTIONARYWDFLT
  2
AcDbDictionaryWithDefault
  3
AutoCAD 2000
 90
0
 91
1
280
0
281
0
  0
CLASS
  1
ACDBPLACEHOLDER
  2
AcDbPlaceHolder
  3
AutoCAD 2000
 90
0
 91
1
280
0
281
0
  0
CLASS
  1
LAYOUT
  2
AcDbLayout
  3
AutoCAD 2000
 90
0
 91
0
280
0
281
0
  0
CLASS
  1
RASTERVARIABLES
  2
AcDbRasterVariables
  3
ISM
 90
0
 91
1
280
0
281
0
  0
CLASS
  1
IMAGEDEF
  2
AcDbRasterImageDef
  3
ISM
 90
0
 91
1
280
0
281
0
  0
CLASS
  1
IMAGEDEF_REACTOR
  2
AcDbRasterImageDefReactor
  3
ISM
 90
0
 91
1
280
0
281
0
  0
CLASS
  1
IMAGE
  2
AcDbRasterImage
  3
ISM
 90
127
 91
1
280
0
281
1
  0
CLASS
  1
TABLESTYLE
  2
AcDbTableStyle
  3
ObjectDBX Classes
 90
2047
 91
1
280
0
281
0
  0
CLASS
  1
ACAD_TABLE
  2
AcDbTable
  3
ObjectDBX Classes
 90
1025
 91
3
280
0
281
1
  0
ENDSEC
  0
SECTION
  2
TABLES
  0
TABLE
  2
VPORT
  5
8
100
AcDbSymbolTable
 70
2
  0
VPORT
  5
1F4
100
AcDbSymbolTableRecord
100
AcDbViewportTableRecord
  2
*ACTIVE
 70
0
 10
0.0
 20
0.0
 11
1.0
 21
1.0
 12
11.0
 22
8.5
 13
0.0
 23
0.0
 14
1.0
 24
1.0
 15
0.0
 25
0.0
 16
0.0
 26
0.0
 36
1.0
 17
0.0
 27
0.0
 37
0.0
 40
17.0
 41
1.2941176471
 42
50.0
 43
0.0
 44
0.0
 50
0.0
 51
0.0
 71
0
 72
100
 73
1
 74
1
 75
0
 76
0
 77
0
 78
0
  0
ENDTAB
  0
TABLE
  2
LTYPE
  5
5
100
AcDbSymbolTable
 70
6
  0
LTYPE
  5
14
100
AcDbSymbolTableRecord
100
AcDbLinetypeTableRecord
  2
BYBLOCK
 70
0
  3

 72
65
 73
0
 40
0.0
  0
LTYPE
  5
15
100
AcDbSymbolTableRecord
100
AcDbLinetypeTableRecord
  2
BYLAYER
 70
0
  3

 72
65
 73
0
 40
0.0
  0
LTYPE
  5
16
100
AcDbSymbolTableRecord
100
AcDbLinetypeTableRecord
  2
CONTINUOUS
 70
64
  3
Solid line
 72
65
 73
0
 40
0.0
  0
LTYPE
  5
1F5
100
AcDbSymbolTableRecord
100
AcDbLinetypeTableRecord
  2
CENTER
 70
64
  3
____ _ ____ _ ____ _ ____ _ ____ _ ____ _ ____
 72
65
 73
4
 40
0.6
 49
0.375
 74
0
 49
-0.075
 74
0
 49
0.075
 74
0
 49
-0.075
 74
0
  0
LTYPE
  5
1F6
100
AcDbSymbolTableRecord
100
AcDbLinetypeTableRecord
  2
HIDDEN
 70
64
  3
- - - - - - - - - - - - - - - - - - - -
 72
65
 73
2
 40
0.2
 49
0.1
 74
0
 49
-0.1
 74
0
  0
LTYPE
  5
1F7
100
AcDbSymbolTableRecord
100
AcDbLinetypeTableRecord
  2
PHANTOM
 70
64
  3
_____ _ _ _____ _ _ _____ _ _ _____
 72
65
 73
6
 40
0.8
 49
0.45
 74
0
 49
-0.05
 74
0
 49
0.1
 74
0
 49
-0.05
 74
0
 49
0.1
 74
0
 49
-0.05
 74
0
  0
LTYPE
  5
1F8
100
AcDbSymbolTableRecord
100
AcDbLinetypeTableRecord
  2
DOT
 70
64
  3
. . . . . . . . . . . . . . . . . . . .
 72
65
 73
2
 40
0.2
 49
0.1
 74
0
 49
-0.1
 74
0
  0
LTYPE
  5
1F9
100
AcDbSymbolTableRecord
100
AcDbLinetypeTableRecord
  2
DASHED
 70
64
  3
- - - - - - - - - - - - - - - - - - - -
 72
65
 73
2
 40
0.2
 49
0.1
 74
0
 49
-0.1
 74
0
  0
ENDTAB
  0
TABLE
  2
LAYER
  5
2
100
AcDbSymbolTable
 70
36
  0
LAYER
  5
10
100
AcDbSymbolTableRecord
100
AcDbLayerTableRecord
  2
0
 70
0
 62
7
  6
CONTINUOUS
370
-3
390
F
  0
LAYER
  5
1FA
100
AcDbSymbolTableRecord
100
AcDbLayerTableRecord
  2
DEFAULT_1
 70
0
 62
7
  6
CENTER
370
-3
390
F
  0
LAYER
  5
1FB
100
AcDbSymbolTableRecord
100
AcDbLayerTableRecord
  2
DEFAULT_2
 70
0
 62
8
  6
HIDDEN
370
-3
390
F
  0
LAYER
  5
1FC
100
AcDbSymbolTableRecord
100
AcDbLayerTableRecord
  2
DEFAULT_3
 70
0
 62
7
  6
PHANTOM
370
-3
390
F
  0
LAYER
  5
1FD
100
AcDbSymbolTableRecord
100
AcDbLayerTableRecord
  2
01___PRT_ALL_DTM_PLN
 70
0
 62
7
  6
CONTINUOUS
370
-3
390
F
  0
LAYER
  5
1FE
100
AcDbSymbolTableRecord
100
AcDbLayerTableRecord
  2
01___PRT_DEF_DTM_PLN
 70
0
 62
7
  6
CONTINUOUS
370
-3
390
F
  0
LAYER
  5
1FF
100
AcDbSymbolTableRecord
100
AcDbLayerTableRecord
  2
02___PRT_ALL_AXES
 70
0
 62
7
  6
CONTINUOUS
370
-3
390
F
  0
LAYER
  5
200
100
AcDbSymbolTableRecord
100
AcDbLayerTableRecord
  2
03___PRT_ALL_CURVES
 70
0
 62
7
  6
CONTINUOUS
370
-3
390
F
  0
LAYER
  5
201
100
AcDbSymbolTableRecord
100
AcDbLayerTableRecord
  2
04___PRT_ALL_DTM_PNT
 70
0
 62
7
  6
CONTINUOUS
370
-3
390
F
  0
LAYER
  5
202
100
AcDbSymbolTableRecord
100
AcDbLayerTableRecord
  2
05___PRT_ALL_DTM_CSYS
 70
0
 62
7
  6
CONTINUOUS
370
-3
390
F
  0
LAYER
  5
203
100
AcDbSymbolTableRecord
100
AcDbLayerTableRecord
  2
05___PRT_DEF_DTM_CSYS
 70
0
 62
7
  6
CONTINUOUS
370
-3
390
F
  0
LAYER
  5
204
100
AcDbSymbolTableRecord
100
AcDbLayerTableRecord
  2
06___PRT_ALL_SURFS
 70
0
 62
7
  6
CONTINUOUS
370
-3
390
F
  0
LAYER
  5
205
100
AcDbSymbolTableRecord
100
AcDbLayerTableRecord
  2
DATUM_PLANES
 70
0
 62
7
  6
CONTINUOUS
370
-3
390
F
  0
LAYER
  5
206
100
AcDbSymbolTableRecord
100
AcDbLayerTableRecord
  2
PORT_AREAS
 70
0
 62
7
  6
CONTINUOUS
370
-3
390
F
  0
LAYER
  5
207
100
AcDbSymbolTableRecord
100
AcDbLayerTableRecord
  2
SUNNBOMCOSMETIC
 70
0
 62
7
  6
CONTINUOUS
370
-3
390
F
  0
LAYER
  5
208
100
AcDbSymbolTableRecord
100
AcDbLayerTableRecord
  2
SUNNBOMSTAMPING
 70
0
 62
7
  6
CONTINUOUS
370
-3
390
F
  0
LAYER
  5
209
100
AcDbSymbolTableRecord
100
AcDbLayerTableRecord
  2
THREADS
 70
0
 62
7
  6
CONTINUOUS
370
-3
390
F
  0
ENDTAB
  0
TABLE
  2
STYLE
  5
3
100
AcDbSymbolTable
 70
1
  0
STYLE
  5
11
100
AcDbSymbolTableRecord
100
AcDbTextStyleTableRecord
  2
STANDARD
 70
0
 40
0.0
 41
0.8
 50
0.0
 71
0
 42
0.2
  3
txt
  4

  0
STYLE
  5
20A
100
AcDbSymbolTableRecord
100
AcDbTextStyleTableRecord
  2
TEXTSTYLE_1
 70
0
 40
0.0
 41
0.8
 50
0.0
 71
0
 42
0.2
  3
gdt
  4

  0
ENDTAB
  0
TABLE
  2
VIEW
  5
6
100
AcDbSymbolTable
 70
0
  0
ENDTAB
  0
TABLE
  2
UCS
  5
7
100
AcDbSymbolTable
 70
0
  0
ENDTAB
  0
TABLE
  2
APPID
  5
9
100
AcDbSymbolTable
 70
1
  0
APPID
  5
20B
100
AcDbSymbolTableRecord
100
AcDbRegAppTableRecord
  2
ACAD
 70
0
  0
ENDTAB
  0
TABLE
  2
BLOCK_RECORD
  5
1
100
AcDbSymbolTable
 70
0
  0
BLOCK_RECORD
  5
20C
100
AcDbSymbolTableRecord
100
AcDbBlockTableRecord
  2
*Model_Space
  0
BLOCK_RECORD
  5
20D
100
AcDbSymbolTableRecord
100
AcDbBlockTableRecord
  2
*Paper_Space
  0
BLOCK_RECORD
  5
20E
100
AcDbSymbolTableRecord
100
AcDbBlockTableRecord
  2
SUN_FIRST_THIRD_ANGLE_BL0
  0
BLOCK_RECORD
  5
20F
100
AcDbSymbolTableRecord
100
AcDbBlockTableRecord
  2
*T1
  0
BLOCK_RECORD
  5
210
100
AcDbSymbolTableRecord
100
AcDbBlockTableRecord
  2
*T2
  0
BLOCK_RECORD
  5
211
100
AcDbSymbolTableRecord
100
AcDbBlockTableRecord
  2
*T3
  0
ENDTAB
  0
TABLE
  2
DIMSTYLE
  5
A
100
AcDbSymbolTable
 70
1
100
AcDbDimStyleTable
 71
0
  0
DIMSTYLE
105
212
100
AcDbSymbolTableRecord
100
AcDbDimStyleTableRecord
  2
STANDARD
 70
0
  3

  4

 40
1.0
 41
0.1875
 42
0.0625
 43
0.38
 44
0.125
 45
0.0
 46
0.0
 47
0.001
 48
0.001
140
0.1
141
0.09
142
0.0
143
25.4
144
1.0
145
0.0
146
1.0
147
0.09
 71
0.0
 72
0.0
 73
1
 74
1
 75
0
 76
0
 77
0
 78
4
170
0
171
2
172
0
173
0
174
0
175
0
176
0
177
0
178
0
270
2
271
3
272
3
273
2
274
2
275
0
280
0
281
0
282
0
283
1
284
4
285
0
286
0
287
3
288
0
340
11
278
46
  0
ENDTAB
  0
ENDSEC
  0
SECTION
  2
BLOCKS
  0
BLOCK
  5
20
100
AcDbEntity
  8
0
100
AcDbBlockBegin
  2
*Model_Space
 70
0
 10
0.0
 20
0.0
 30
0.0
  3
*Model_Space
  1

  0
ENDBLK
  5
21
100
AcDbEntity
  8
0
100
AcDbBlockEnd
  0
BLOCK
  5
1C
100
AcDbEntity
  8
0
100
AcDbBlockBegin
  2
*Paper_Space
 70
0
 10
0.0
 20
0.0
 30
0.0
  3
*Paper_Space
  1

  0
ENDBLK
  5
1D
100
AcDbEntity
  8
0
100
AcDbBlockEnd
  0
BLOCK
  5
213
100
AcDbEntity
  8
0
100
AcDbBlockBegin
 62
2
  6
CONTINUOUS
  2
SUN_FIRST_THIRD_ANGLE_BL0
 70
64
 10
20.4816717061
 20
1.2289683772
  3
SUN_FIRST_THIRD_ANGLE_BL0
  1

  0
TEXT
  5
214
100
AcDbEntity
  8
0
100
AcDbText
 62
2
  6
CONTINUOUS
 10
19.4750896608
 20
1.4136269581
  7
STANDARD
 40
0.08
  1
FIRST ANGLE
 41
0.8
 72
0
100
AcDbText
  0
TEXT
  5
215
100
AcDbEntity
  8
0
100
AcDbText
 62
2
  6
CONTINUOUS
 10
20.7842537513
 20
1.4047600029
  7
STANDARD
 40
0.08
  1
THIRD ANGLE
 41
0.8
 72
0
100
AcDbText
  0
LINE
  5
216
100
AcDbEntity
  8
0
100
AcDbLine
 62
7
  6
CONTINUOUS
 10
19.4767170086
 20
1.1727031207
 11
19.6334271527
 21
1.1717972817
  0
LINE
  5
217
100
AcDbEntity
  8
0
100
AcDbLine
 62
7
  6
CONTINUOUS
 10
19.6596964832
 20
1.1717972817
 11
19.6950230232
 21
1.171593082
  0
LINE
  5
218
100
AcDbEntity
  8
0
100
AcDbLine
 62
7
  6
CONTINUOUS
 10
19.7194818561
 20
1.1708914427
 11
19.8852396156
 21
1.1699333054
  0
LINE
  5
219
100
AcDbEntity
  8
0
100
AcDbLine
 62
7
  6
CONTINUOUS
 10
19.4758111696
 20
1.2723454088
 11
19.88525039
 21
1.3511534004
  0
LINE
  5
21A
100
AcDbEntity
  8
0
100
AcDbLine
 62
7
  6
CONTINUOUS
 10
19.88525039
 20
1.3511534004
 11
19.8831348489
 21
0.9851647912
  0
LINE
  5
21B
100
AcDbEntity
  8
0
100
AcDbLine
 62
7
  6
CONTINUOUS
 10
19.8831348489
 20
0.9851647912
 11
19.4767170086
 21
1.0658141206
  0
LINE
  5
21C
100
AcDbEntity
  8
0
100
AcDbLine
 62
7
  6
CONTINUOUS
 10
19.4767170086
 20
1.0658141206
 11
19.4779056764
 21
1.2714536432
  0
CIRCLE
  5
21D
100
AcDbEntity
  8
0
100
AcDbCircle
 62
7
  6
CONTINUOUS
 10
20.2068232291
 20
1.1717972817
 40
0.175742101
  0
CIRCLE
  5
21E
100
AcDbEntity
  8
0
100
AcDbCircle
 62
7
  6
CONTINUOUS
 10
20.2068232291
 20
1.1717972817
 40
0.1005522074
  0
LINE
  5
21F
100
AcDbEntity
  8
0
100
AcDbLine
 62
7
  6
CONTINUOUS
 10
20.2077290681
 20
1.3756110529
 11
20.2071171714
 21
1.2379342989
  0
LINE
  5
220
100
AcDbEntity
  8
0
100
AcDbLine
 62
7
  6
CONTINUOUS
 10
20.2077290681
 20
1.2016899681
 11
20.2074674401
 21
1.1428236749
  0
LINE
  5
221
100
AcDbEntity
  8
0
100
AcDbLine
 62
7
  6
CONTINUOUS
 10
20.208634907
 20
1.101141841
 11
20.2080230104
 21
0.963465087
  0
LINE
  5
222
100
AcDbEntity
  8
0
100
AcDbLine
 62
7
  6
CONTINUOUS
 10
20.0066328138
 20
1.1745147986
 11
20.1443095678
 21
1.1739029019
  0
LINE
  5
223
100
AcDbEntity
  8
0
100
AcDbLine
 62
7
  6
CONTINUOUS
 10
20.1832714155
 20
1.1727031207
 11
20.238153505
 21
1.172335442
  0
LINE
  5
224
100
AcDbEntity
  8
0
100
AcDbLine
 62
7
  6
CONTINUOUS
 10
20.2756669918
 20
1.1717972817
 11
20.407916871
 21
1.1712095044
  0
CIRCLE
  5
225
100
AcDbEntity
  8
0
100
AcDbCircle
 62
7
  6
CONTINUOUS
 10
20.7509457401
 20
1.1693297793
 40
0.1722024983
  0
CIRCLE
  5
226
100
AcDbEntity
  8
0
100
AcDbCircle
 62
7
  6
CONTINUOUS
 10
20.7509457401
 20
1.1693297793
 40
0.0985164967
  0
LINE
  5
227
100
AcDbEntity
  8
0
100
AcDbLine
 62
7
  6
CONTINUOUS
 10
20.7169767782
 20
1.170462078
 11
20.7825395137
 21
1.1682766535
  0
LINE
  5
228
100
AcDbEntity
  8
0
100
AcDbLine
 62
7
  6
CONTINUOUS
 10
20.8177513651
 20
1.1693297793
 11
20.947965719
 21
1.1693297793
  0
LINE
  5
229
100
AcDbEntity
  8
0
100
AcDbLine
 62
7
  6
CONTINUOUS
 10
20.6875370113
 20
1.170462078
 11
20.5573226574
 21
1.170462078
  0
LINE
  5
22A
100
AcDbEntity
  8
0
100
AcDbLine
 62
7
  6
CONTINUOUS
 10
20.7486811426
 20
1.1987695462
 11
20.7486811426
 21
1.1432869085
  0
LINE
  5
22B
100
AcDbEntity
  8
0
100
AcDbLine
 62
7
  6
CONTINUOUS
 10
20.7498134414
 20
1.1059210505
 11
20.7498134414
 21
0.9757066966
  0
LINE
  5
22C
100
AcDbEntity
  8
0
100
AcDbLine
 62
7
  6
CONTINUOUS
 10
20.7486811426
 20
1.2338708068
 11
20.7486811426
 21
1.3640851607
  0
LINE
  5
22D
100
AcDbEntity
  8
0
100
AcDbLine
 62
7
  6
CONTINUOUS
 10
21.0702539817
 20
1.2701043662
 11
21.4790138229
 21
1.3448360823
  0
LINE
  5
22E
100
AcDbEntity
  8
0
100
AcDbLine
 62
7
  6
CONTINUOUS
 10
21.4790138229
 20
1.3448360823
 11
21.4790138229
 21
0.9779712941
  0
LINE
  5
22F
100
AcDbEntity
  8
0
100
AcDbLine
 62
7
  6
CONTINUOUS
 10
21.4790138229
 20
0.9779712941
 11
21.069121683
 21
1.0617614
  0
LINE
  5
230
100
AcDbEntity
  8
0
100
AcDbLine
 62
7
  6
CONTINUOUS
 10
21.0702539817
 20
1.2701043662
 11
21.069121683
 21
1.0617614
  0
LINE
  5
231
100
AcDbEntity
  8
0
100
AcDbLine
 62
7
  6
CONTINUOUS
 10
21.4790138229
 20
1.1693297793
 11
21.3159628059
 21
1.1693297793
  0
LINE
  5
232
100
AcDbEntity
  8
0
100
AcDbLine
 62
7
  6
CONTINUOUS
 10
21.2876553377
 20
1.1693297793
 11
21.2502894796
 21
1.1693297793
  0
LINE
  5
233
100
AcDbEntity
  8
0
100
AcDbLine
 62
7
  6
CONTINUOUS
 10
21.2208497126
 20
1.1659328831
 11
21.0713862804
 21
1.1659328831
  0
LINE
  5
234
100
AcDbEntity
  8
0
100
AcDbLine
 62
7
  6
CONTINUOUS
 10
20.4796138713
 20
1.5284908897
 11
20.4766766948
 21
0.9294458646
  0
ENDBLK
  5
235
100
AcDbEntity
  8
0
  6
BYBLOCK
 62
0
100
AcDbBlockEnd
  0
BLOCK
  5
236
100
AcDbEntity
  8
0
100
AcDbBlockBegin
  2
*T1
 70
1
 10
0.0
 20
0.0
  3
*T1
  1

  0
LINE
  5
237
100
AcDbEntity
  8
0
100
AcDbLine
 62
2
  6
CONTINUOUS
 10
9.275
 20
0.0
 11
-0.0
 21
0.0
  0
LINE
  5
238
100
AcDbEntity
  8
0
100
AcDbLine
 62
2
  6
CONTINUOUS
 10
9.275
 20
0.0
 11
9.275
 21
1.25
  0
LINE
  5
239
100
AcDbEntity
  8
0
100
AcDbLine
 62
2
  6
CONTINUOUS
 10
9.275
 20
0.625
 11
-0.0
 21
0.625
  0
LINE
  5
23A
100
AcDbEntity
  8
0
100
AcDbLine
 62
2
  6
CONTINUOUS
 10
9.275
 20
1.25
 11
-0.0
 21
1.25
  0
LINE
  5
23B
100
AcDbEntity
  8
0
100
AcDbLine
 62
2
  6
CONTINUOUS
 10
6.8
 20
0.0
 11
6.8
 21
1.25
  0
LINE
  5
23C
100
AcDbEntity
  8
0
100
AcDbLine
 62
2
  6
CONTINUOUS
 10
6.4
 20
0.0
 11
6.4
 21
0.625
  0
LINE
  5
23D
100
AcDbEntity
  8
0
100
AcDbLine
 62
2
  6
CONTINUOUS
 10
5.9
 20
0.0
 11
5.9
 21
0.625
  0
LINE
  5
23E
100
AcDbEntity
  8
0
100
AcDbLine
 62
2
  6
CONTINUOUS
 10
5.2
 20
0.0
 11
5.2
 21
0.625
  0
LINE
  5
23F
100
AcDbEntity
  8
0
100
AcDbLine
 62
2
  6
CONTINUOUS
 10
4.1
 20
0.0
 11
4.1
 21
1.25
  0
LINE
  5
240
100
AcDbEntity
  8
0
100
AcDbLine
 62
2
  6
CONTINUOUS
 10
-0.0
 20
0.0
 11
-0.0
 21
1.25
  0
MTEXT
  5
241
100
AcDbEntity
  8
0
100
AcDbMText
 62
2
  6
CONTINUOUS
  7
STANDARD
 71
2
 72
1
 10
6.6
 20
0.325
 30
0.0
 11
1.0
 21
0.0
 31
0.0
 44
0.9
  1
2
 40
0.125
 41
0.2
  0
MTEXT
  5
242
100
AcDbEntity
  8
0
100
AcDbMText
 62
2
  6
CONTINUOUS
  7
STANDARD
 71
2
 72
1
 10
6.15
 20
0.325
 30
0.0
 11
1.0
 21
0.0
 31
0.0
 44
0.9
  1
C
 40
0.125
 41
0.2
  0
MTEXT
  5
243
100
AcDbEntity
  8
0
100
AcDbMText
 62
2
  6
CONTINUOUS
  7
STANDARD
 71
2
 72
1
 10
5.55
 20
0.325
 30
0.0
 11
1.0
 21
0.0
 31
0.0
 44
0.9
  1
1.000
 40
0.125
 41
1.0
  0
MTEXT
  5
244
100
AcDbEntity
  8
0
100
AcDbMText
 62
2
  6
CONTINUOUS
  7
STANDARD
 71
2
 72
1
 10
4.65
 20
0.325
 30
0.0
 11
1.0
 21
0.0
 31
0.0
 44
0.9
  1
Sep-29-21
 40
0.125
 41
1.8
  0
MTEXT
  5
245
100
AcDbEntity
  8
0
100
AcDbMText
 62
2
  6
CONTINUOUS
  7
STANDARD
 71
2
 72
1
 10
2.05
 20
0.4625
 30
0.0
 11
1.0
 21
0.0
 31
0.0
 44
0.9
  1
T-22A Sandwich ISO 05\P(See Notes for Body Features)
 40
0.125
 41
5.8
  0
MTEXT
  5
246
100
AcDbEntity
  8
0
100
AcDbMText
 62
2
  6
CONTINUOUS
  7
STANDARD
 71
1
 72
1
 10
6.45
 20
0.5625
 30
0.0
 11
1.0
 21
0.0
 31
0.0
 44
0.9
  1
SHEET
 40
0.06
 41
0.48
  0
MTEXT
  5
247
100
AcDbEntity
  8
0
100
AcDbMText
 62
2
  6
CONTINUOUS
  7
STANDARD
 71
1
 72
1
 10
5.95
 20
0.5625
 30
0.0
 11
1.0
 21
0.0
 31
0.0
 44
0.9
  1
DWG SIZE
 40
0.06
 41
0.768
  0
MTEXT
  5
248
100
AcDbEntity
  8
0
100
AcDbMText
 62
2
  6
CONTINUOUS
  7
STANDARD
 71
1
 72
1
 10
5.25
 20
0.5625
 30
0.0
 11
1.0
 21
0.0
 31
0.0
 44
0.9
  1
SCALE
 40
0.06
 41
0.48
  0
MTEXT
  5
249
100
AcDbEntity
  8
0
100
AcDbMText
 62
2
  6
CONTINUOUS
  7
STANDARD
 71
1
 72
1
 10
4.15
 20
0.5625
 30
0.0
 11
1.0
 21
0.0
 31
0.0
 44
0.9
  1
DATE
 40
0.06
 41
0.384
  0
MTEXT
  5
24A
100
AcDbEntity
  8
0
100
AcDbMText
 62
2
  6
CONTINUOUS
  7
STANDARD
 71
1
 72
1
 10
0.05
 20
0.5625
 30
0.0
 11
1.0
 21
0.0
 31
0.0
 44
0.9
  1
DESCRIPTION
 40
0.06
 41
1.056
  0
MTEXT
  5
24B
100
AcDbEntity
  8
0
100
AcDbMText
 62
2
  6
CONTINUOUS
  7
STANDARD
 71
2
 72
1
 10
5.45
 20
1.0375
 30
0.0
 11
1.0
 21
0.0
 31
0.0
 44
0.9
  1
ALL DIMENSIONS IN INCH\PVIEWS ARE THIRD ANGLE
 40
0.12
 41
4.224
  0
MTEXT
  5
24C
100
AcDbEntity
  8
0
100
AcDbMText
 62
2
  6
CONTINUOUS
  7
STANDARD
 71
2
 72
1
 10
2.05
 20
0.95
 30
0.0
 11
1.0
 21
0.0
 31
0.0
 44
0.9
  1
NB2
 40
0.125
 41
0.6
  0
MTEXT
  5
24D
100
AcDbEntity
  8
0
100
AcDbMText
 62
2
  6
CONTINUOUS
  7
STANDARD
 71
1
 72
1
 10
0.05
 20
1.1875
 30
0.0
 11
1.0
 21
0.0
 31
0.0
 44
0.9
  1
MODEL
 40
0.06
 41
0.48
  0
ENDBLK
  5
24E
100
AcDbEntity
  8
0
  6
BYBLOCK
 62
0
100
AcDbBlockEnd
  0
BLOCK
  5
24F
100
AcDbEntity
  8
0
100
AcDbBlockBegin
  2
*T2
 70
1
 10
0.0
 20
0.0
  3
*T2
  1

  0
LINE
  5
250
100
AcDbEntity
  8
0
100
AcDbLine
 62
2
  6
CONTINUOUS
 10
0.0
 20
0.0
 11
9.055
 21
0.0
  0
LINE
  5
251
100
AcDbEntity
  8
0
100
AcDbLine
 62
2
  6
CONTINUOUS
 10
0.0
 20
0.0
 11
0.0
 21
-2.594
  0
LINE
  5
252
100
AcDbEntity
  8
0
100
AcDbLine
 62
2
  6
CONTINUOUS
 10
0.0
 20
-0.344
 11
9.055
 21
-0.344
  0
LINE
  5
253
100
AcDbEntity
  8
0
100
AcDbLine
 62
2
  6
CONTINUOUS
 10
0.0
 20
-0.594
 11
9.055
 21
-0.594
  0
LINE
  5
254
100
AcDbEntity
  8
0
100
AcDbLine
 62
2
  6
CONTINUOUS
 10
0.0
 20
-0.844
 11
9.055
 21
-0.844
  0
LINE
  5
255
100
AcDbEntity
  8
0
100
AcDbLine
 62
2
  6
CONTINUOUS
 10
0.0
 20
-1.094
 11
9.055
 21
-1.094
  0
LINE
  5
256
100
AcDbEntity
  8
0
100
AcDbLine
 62
2
  6
CONTINUOUS
 10
0.0
 20
-1.344
 11
9.055
 21
-1.344
  0
LINE
  5
257
100
AcDbEntity
  8
0
100
AcDbLine
 62
2
  6
CONTINUOUS
 10
0.0
 20
-1.594
 11
9.055
 21
-1.594
  0
LINE
  5
258
100
AcDbEntity
  8
0
100
AcDbLine
 62
2
  6
CONTINUOUS
 10
0.0
 20
-1.844
 11
9.055
 21
-1.844
  0
LINE
  5
259
100
AcDbEntity
  8
0
100
AcDbLine
 62
2
  6
CONTINUOUS
 10
0.0
 20
-2.094
 11
9.055
 21
-2.094
  0
LINE
  5
25A
100
AcDbEntity
  8
0
100
AcDbLine
 62
2
  6
CONTINUOUS
 10
0.0
 20
-2.344
 11
9.055
 21
-2.344
  0
LINE
  5
25B
100
AcDbEntity
  8
0
100
AcDbLine
 62
2
  6
CONTINUOUS
 10
0.0
 20
-2.594
 11
9.055
 21
-2.594
  0
LINE
  5
25C
100
AcDbEntity
  8
0
100
AcDbLine
 62
2
  6
CONTINUOUS
 10
3.055
 20
0.0
 11
3.055
 21
-2.594
  0
LINE
  5
25D
100
AcDbEntity
  8
0
100
AcDbLine
 62
2
  6
CONTINUOUS
 10
9.055
 20
0.0
 11
9.055
 21
-2.594
  0
MTEXT
  5
25E
100
AcDbEntity
  8
0
100
AcDbMText
 62
2
  6
CONTINUOUS
  7
STANDARD
 71
2
 72
1
 10
1.5275
 20
-0.0995
 30
0.0
 11
1.0
 21
0.0
 31
0.0
 44
0.9
  1
Technical Data
 40
0.145
 41
3.248
  0
MTEXT
  5
25F
100
AcDbEntity
  8
0
100
AcDbMText
 62
2
  6
CONTINUOUS
  7
STANDARD
 71
2
 72
1
 10
4.555
 20
-0.0995
 30
0.0
 11
1.0
 21
0.0
 31
0.0
 44
0.9
  1
U.S. Units
 40
0.145
 41
2.32
  0
MTEXT
  5
260
100
AcDbEntity
  8
0
100
AcDbMText
 62
2
  6
CONTINUOUS
  7
STANDARD
 71
2
 72
1
 10
7.555
 20
-0.0995
 30
0.0
 11
1.0
 21
0.0
 31
0.0
 44
0.9
  1
Metric Units
 40
0.145
 41
2.784
  0
MTEXT
  5
261
100
AcDbEntity
  8
0
100
AcDbMText
 62
2
  6
CONTINUOUS
  7
STANDARD
 71
2
 72
1
 10
1.5275
 20
-0.4065
 30
0.0
 11
1.0
 21
0.0
 31
0.0
 44
0.9
  1
Cavity
 40
0.125
 41
1.2
  0
MTEXT
  5
262
100
AcDbEntity
  8
0
100
AcDbMText
 62
2
  6
CONTINUOUS
  7
STANDARD
 71
2
 72
1
 10
6.055
 20
-0.4065
 30
0.0
 11
1.0
 21
0.0
 31
0.0
 44
0.9
  1
T-22A
 40
0.125
 41
1.0
  0
MTEXT
  5
263
100
AcDbEntity
  8
0
100
AcDbMText
 62
2
  6
CONTINUOUS
  7
STANDARD
 71
2
 72
1
 10
1.5275
 20
-0.6565
 30
0.0
 11
1.0
 21
0.0
 31
0.0
 44
0.9
  1
Body Features
 40
0.125
 41
2.6
  0
MTEXT
  5
264
100
AcDbEntity
  8
0
100
AcDbMText
 62
2
  6
CONTINUOUS
  7
STANDARD
 71
2
 72
1
 10
6.055
 20
-0.6565
 30
0.0
 11
1.0
 21
0.0
 31
0.0
 44
0.9
  1
(See Notes)
 40
0.125
 41
2.2
  0
MTEXT
  5
265
100
AcDbEntity
  8
0
100
AcDbMText
 62
2
  6
CONTINUOUS
  7
STANDARD
 71
2
 72
1
 10
1.5275
 20
-0.9065
 30
0.0
 11
1.0
 21
0.0
 31
0.0
 44
0.9
  1
Body Type
 40
0.125
 41
1.8
  0
MTEXT
  5
266
100
AcDbEntity
  8
0
100
AcDbMText
 62
2
  6
CONTINUOUS
  7
STANDARD
 71
2
 72
1
 10
6.055
 20
-0.9065
 30
0.0
 11
1.0
 21
0.0
 31
0.0
 44
0.9
  1
Sandwich
 40
0.125
 41
1.6
  0
MTEXT
  5
267
100
AcDbEntity
  8
0
100
AcDbMText
 62
2
  6
CONTINUOUS
  7
STANDARD
 71
2
 72
1
 10
1.5275
 20
-1.1565
 30
0.0
 11
1.0
 21
0.0
 31
0.0
 44
0.9
  1
Interface
 40
0.125
 41
1.8
  0
MTEXT
  5
268
100
AcDbEntity
  8
0
100
AcDbMText
 62
2
  6
CONTINUOUS
  7
STANDARD
 71
2
 72
1
 10
6.055
 20
-1.1565
 30
0.0
 11
1.0
 21
0.0
 31
0.0
 44
0.9
  1
ISO 05
 40
0.125
 41
1.2
  0
MTEXT
  5
269
100
AcDbEntity
  8
0
100
AcDbMText
 62
2
  6
CONTINUOUS
  7
STANDARD
 71
2
 72
1
 10
1.5275
 20
-1.4065
 30
0.0
 11
1.0
 21
0.0
 31
0.0
 44
0.9
  1
Open Cavity Quantity
 40
0.125
 41
4.0
  0
MTEXT
  5
26A
100
AcDbEntity
  8
0
100
AcDbMText
 62
2
  6
CONTINUOUS
  7
STANDARD
 71
2
 72
1
 10
6.055
 20
-1.4065
 30
0.0
 11
1.0
 21
0.0
 31
0.0
 44
0.9
  1
1
 40
0.125
 41
0.2
  0
MTEXT
  5
26B
100
AcDbEntity
  8
0
100
AcDbMText
 62
2
  6
CONTINUOUS
  7
STANDARD
 71
2
 72
1
 10
1.5275
 20
-1.6565
 30
0.0
 11
1.0
 21
0.0
 31
0.0
 44
0.9
  1
Stack Height
 40
0.125
 41
2.4
  0
MTEXT
  5
26C
100
AcDbEntity
  8
0
100
AcDbMText
 62
2
  6
CONTINUOUS
  7
STANDARD
 71
2
 72
1
 10
4.555
 20
-1.6565
 30
0.0
 11
1.0
 21
0.0
 31
0.0
 44
0.9
  1
2.99 in.
 40
0.125
 41
1.6
  0
MTEXT
  5
26D
100
AcDbEntity
  8
0
100
AcDbMText
 62
2
  6
CONTINUOUS
  7
STANDARD
 71
2
 72
1
 10
7.555
 20
-1.6565
 30
0.0
 11
1.0
 21
0.0
 31
0.0
 44
0.9
  1
76 mm
 40
0.125
 41
1.0
  0
MTEXT
  5
26E
100
AcDbEntity
  8
0
100
AcDbMText
 62
2
  6
CONTINUOUS
  7
STANDARD
 71
2
 72
1
 10
1.5275
 20
-1.9065
 30
0.0
 11
1.0
 21
0.0
 31
0.0
 44
0.9
  1
Weight
 40
0.125
 41
1.2
  0
MTEXT
  5
26F
100
AcDbEntity
  8
0
100
AcDbMText
 62
2
  6
CONTINUOUS
  7
STANDARD
 71
2
 72
1
 10
4.555
 20
-1.9065
 30
0.0
 11
1.0
 21
0.0
 31
0.0
 44
0.9
  1
3.609 lb.
 40
0.125
 41
1.8
  0
MTEXT
  5
270
100
AcDbEntity
  8
0
100
AcDbMText
 62
2
  6
CONTINUOUS
  7
STANDARD
 71
2
 72
1
 10
7.555
 20
-1.9065
 30
0.0
 11
1.0
 21
0.0
 31
0.0
 44
0.9
  1
1,637 kg.
 40
0.125
 41
1.8
  0
MTEXT
  5
271
100
AcDbEntity
  8
0
100
AcDbMText
 62
2
  6
CONTINUOUS
  7
STANDARD
 71
2
 72
1
 10
1.5275
 20
-2.1565
 30
0.0
 11
1.0
 21
0.0
 31
0.0
 44
0.9
  1
Seal Plate Included (see notes)
 40
0.125
 41
6.2
  0
MTEXT
  5
272
100
AcDbEntity
  8
0
100
AcDbMText
 62
2
  6
CONTINUOUS
  7
STANDARD
 71
2
 72
1
 10
6.055
 20
-2.1565
 30
0.0
 11
1.0
 21
0.0
 31
0.0
 44
0.9
  1
Yes
 40
0.125
 41
0.6
  0
MTEXT
  5
273
100
AcDbEntity
  8
0
100
AcDbMText
 62
2
  6
CONTINUOUS
  7
STANDARD
 71
2
 72
1
 10
1.5275
 20
-2.4065
 30
0.0
 11
1.0
 21
0.0
 31
0.0
 44
0.9
  1
Includes integral cartridge(s)
 40
0.125
 41
6.0
  0
MTEXT
  5
274
100
AcDbEntity
  8
0
100
AcDbMText
 62
2
  6
CONTINUOUS
  7
STANDARD
 71
2
 72
1
 10
6.055
 20
-2.4065
 30
0.0
 11
1.0
 21
0.0
 31
0.0
 44
0.9
  1
Yes (see Included Components)
 40
0.125
 41
5.8
  0
ENDBLK
  5
275
100
AcDbEntity
  8
0
  6
BYBLOCK
 62
0
100
AcDbBlockEnd
  0
BLOCK
  5
276
100
AcDbEntity
  8
0
100
AcDbBlockBegin
  2
*T3
 70
1
 10
0.0
 20
0.0
  3
*T3
  1

  0
LINE
  5
277
100
AcDbEntity
  8
0
100
AcDbLine
 62
2
  6
CONTINUOUS
 10
0.0
 20
0.0
 11
4.6
 21
0.0
  0
LINE
  5
278
100
AcDbEntity
  8
0
100
AcDbLine
 62
2
  6
CONTINUOUS
 10
0.0
 20
0.0
 11
0.0
 21
-0.93775
  0
LINE
  5
279
100
AcDbEntity
  8
0
100
AcDbLine
 62
2
  6
CONTINUOUS
 10
0.0
 20
-0.34375
 11
4.6
 21
-0.34375
  0
LINE
  5
27A
100
AcDbEntity
  8
0
100
AcDbLine
 62
2
  6
CONTINUOUS
 10
0.0
 20
-0.68775
 11
4.6
 21
-0.68775
  0
LINE
  5
27B
100
AcDbEntity
  8
0
100
AcDbLine
 62
2
  6
CONTINUOUS
 10
0.0
 20
-0.93775
 11
4.6
 21
-0.93775
  0
LINE
  5
27C
100
AcDbEntity
  8
0
100
AcDbLine
 62
2
  6
CONTINUOUS
 10
1.3
 20
-0.34375
 11
1.3
 21
-0.93775
  0
LINE
  5
27D
100
AcDbEntity
  8
0
100
AcDbLine
 62
2
  6
CONTINUOUS
 10
3.3
 20
-0.34375
 11
3.3
 21
-0.93775
  0
LINE
  5
27E
100
AcDbEntity
  8
0
100
AcDbLine
 62
2
  6
CONTINUOUS
 10
4.6
 20
0.0
 11
4.6
 21
-0.93775
  0
MTEXT
  5
27F
100
AcDbEntity
  8
0
100
AcDbMText
 62
2
  6
CONTINUOUS
  7
STANDARD
 71
2
 72
1
 10
2.3
 20
-0.099375
 30
0.0
 11
1.0
 21
0.0
 31
0.0
 44
0.9
  1
Port Headings
 40
0.145
 41
3.016
  0
MTEXT
  5
280
100
AcDbEntity
  8
0
100
AcDbMText
 62
2
  6
CONTINUOUS
  7
STANDARD
 71
2
 72
1
 10
0.65
 20
-0.44325
 30
0.0
 11
1.0
 21
0.0
 31
0.0
 44
0.9
  1
Product
 40
0.145
 41
1.624
  0
MTEXT
  5
281
100
AcDbEntity
  8
0
100
AcDbMText
 62
2
  6
CONTINUOUS
  7
STANDARD
 71
2
 72
1
 10
2.3
 20
-0.44325
 30
0.0
 11
1.0
 21
0.0
 31
0.0
 44
0.9
  1
Port
 40
0.145
 41
0.928
  0
MTEXT
  5
282
100
AcDbEntity
  8
0
100
AcDbMText
 62
2
  6
CONTINUOUS
  7
STANDARD
 71
2
 72
1
 10
3.95
 20
-0.44325
 30
0.0
 11
1.0
 21
0.0
 31
0.0
 44
0.9
  1
Size
 40
0.145
 41
0.928
  0
MTEXT
  5
283
100
AcDbEntity
  8
0
100
AcDbMText
 62
2
  6
CONTINUOUS
  7
STANDARD
 71
2
 72
1
 10
0.65
 20
-0.75025
 30
0.0
 11
1.0
 21
0.0
 31
0.0
 44
0.9
  1
NB2
 40
0.125
 41
0.6
  0
MTEXT
  5
284
100
AcDbEntity
  8
0
100
AcDbMText
 62
2
  6
CONTINUOUS
  7
STANDARD
 71
2
 72
1
 10
2.3
 20
-0.75025
 30
0.0
 11
1.0
 21
0.0
 31
0.0
 44
0.9
  1
External Port
 40
0.125
 41
2.6
  0
MTEXT
  5
285
100
AcDbEntity
  8
0
100
AcDbMText
 62
2
  6
CONTINUOUS
  7
STANDARD
 71
2
 72
1
 10
3.95
 20
-0.75025
 30
0.0
 11
1.0
 21
0.0
 31
0.0
 44
0.9
  1
SAE 6
 40
0.125
 41
1.0
  0
ENDBLK
  5
286
100
AcDbEntity
  8
0
  6
BYBLOCK
 62
0
100
AcDbBlockEnd
  0
ENDSEC
  0
SECTION
  2
ENTITIES
  0
IMAGE
  5
287
100
AcDbEntity
  8
0
100
AcDbRasterImage
 62
7
  6
CONTINUOUS
 10
19.2297077316
 20
0.3094318264
 30
0.0
 11
0.0066666667
 21
0.0
 31
0.0
 12
0.0
 22
0.0066666667
 32
0.0
 13
369.0
 23
92.0
340
       342
 70
9
280
0
281
50
282
50
283
0
360
       33C
 71
1
 91
2
 14
-0.5
 24
-0.5
 14
368.5
 24
91.5
  0
INSERT
  5
288
100
AcDbEntity
  8
0
100
AcDbBlockReference
 62
2
  6
CONTINUOUS
  2
SUN_FIRST_THIRD_ANGLE_BL0
 10
20.4816717061
 20
1.2289683772
  0
ACAD_TABLE
  5
289
100
AcDbEntity
  8
0
 62
2
  6
CONTINUOUS
100
AcDbBlockReference
  2
*T1
 10
12.42375
 20
0.30125
 30
0.0
100
AcDbTable
342
       344
343
20F
 11
1.0
 21
0.0
 31
0.0
 90
6
 91
4
 92
6
 93
20
 94
0
 95
0
 96
0
 70
1
 41
0.0
141
0.525
141
0.1
141
0.525
141
0.1
142
4.1
142
1.1
142
0.7
142
0.5
142
0.4
142
2.475
171
1
172
0
173
0
174
0
175
1
176
1
 91
33
178
0
145
0.0
301
CELL_VALUE
 90
4
  1
T-22A Sandwich ISO 05\P(See Notes for Body Features)
304
ACVALUE_END
170
2
140
0.125
171
1
172
0
173
0
174
0
175
1
176
1
 91
33
178
0
145
0.0
301
CELL_VALUE
 90
4
  1
Sep-29-21
304
ACVALUE_END
170
5
140
0.125
171
1
172
0
173
0
174
0
175
1
176
1
 91
33
178
0
145
0.0
301
CELL_VALUE
 90
4
  1
1.000
304
ACVALUE_END
170
5
140
0.125
171
1
172
0
173
0
174
0
175
1
176
1
 91
33
178
0
145
0.0
301
CELL_VALUE
 90
4
  1
C
304
ACVALUE_END
170
5
140
0.125
171
1
172
0
173
0
174
0
175
1
176
1
 91
33
178
0
145
0.0
301
CELL_VALUE
 90
4
  1
2
304
ACVALUE_END
170
5
140
0.125
171
1
172
0
173
0
174
0
175
1
176
1
 91
33
178
0
145
0.0
301
CELL_VALUE
 90
4
  1
 
304
ACVALUE_END
170
1
140
0.125
171
1
172
0
173
0
174
0
175
1
176
1
 91
33
178
0
145
0.0
301
CELL_VALUE
 90
4
  1
DESCRIPTION
304
ACVALUE_END
170
1
140
0.06
171
1
172
0
173
0
174
0
175
1
176
1
 91
33
178
0
145
0.0
301
CELL_VALUE
 90
4
  1
DATE
304
ACVALUE_END
170
1
140
0.06
171
1
172
0
173
0
174
0
175
1
176
1
 91
33
178
0
145
0.0
301
CELL_VALUE
 90
4
  1
SCALE
304
ACVALUE_END
170
1
140
0.06
171
1
172
0
173
0
174
0
175
1
176
1
 91
33
178
0
145
0.0
301
CELL_VALUE
 90
4
  1
DWG SIZE
304
ACVALUE_END
170
1
140
0.06
171
1
172
0
173
0
174
0
175
1
176
1
 91
33
178
0
145
0.0
301
CELL_VALUE
 90
4
  1
SHEET
304
ACVALUE_END
170
1
140
0.06
171
1
172
0
173
0
174
0
175
1
176
1
 91
33
178
0
145
0.0
301
CELL_VALUE
 90
4
  1
 
304
ACVALUE_END
170
1
140
0.125
171
1
172
0
173
0
174
0
175
1
176
1
 91
33
178
0
145
0.0
301
CELL_VALUE
 90
4
  1
NB2
304
ACVALUE_END
170
5
140
0.125
171
1
172
0
173
0
174
0
175
4
176
1
 91
33
178
0
145
0.0
301
CELL_VALUE
 90
4
  1
ALL DIMENSIONS IN INCH\PVIEWS ARE THIRD ANGLE
304
ACVALUE_END
170
5
140
0.12
171
1
172
0
173
1
174
0
175
1
176
1
 91
1
178
0
145
0.0
170
1
171
1
172
0
173
1
174
0
175
1
176
1
 91
1
178
0
145
0.0
170
1
171
1
172
0
173
1
174
0
175
1
176
1
 91
1
178
0
145
0.0
170
5
171
1
172
0
173
0
174
0
175
1
176
1
 91
33
178
0
145
0.0
301
CELL_VALUE
 90
4
  1
 
304
ACVALUE_END
170
1
140
0.125
171
1
172
0
173
0
174
0
175
1
176
1
 91
33
178
0
145
0.0
301
CELL_VALUE
 90
4
  1
MODEL
304
ACVALUE_END
170
1
140
0.06
171
1
172
0
173
0
174
0
175
1
176
1
 91
33
178
0
145
0.0
301
CELL_VALUE
 90
4
  1
 
304
ACVALUE_END
170
1
140
0.125
171
1
172
0
173
0
174
0
175
1
176
1
 91
33
178
0
145
0.0
301
CELL_VALUE
 90
4
  1
 
304
ACVALUE_END
170
1
140
0.125
171
1
172
0
173
0
174
0
175
1
176
1
 91
33
178
0
145
0.0
301
CELL_VALUE
 90
4
  1
 
304
ACVALUE_END
170
1
140
0.125
171
1
172
0
173
0
174
0
175
1
176
1
 91
33
178
0
145
0.0
301
CELL_VALUE
 90
4
  1
 
304
ACVALUE_END
170
1
140
0.125
171
1
172
0
173
0
174
0
175
1
176
1
 91
33
178
0
145
0.0
301
CELL_VALUE
 90
4
  1
 
304
ACVALUE_END
170
1
140
0.125
  0
ACAD_TABLE
  5
28A
100
AcDbEntity
  8
0
 62
2
  6
CONTINUOUS
100
AcDbBlockReference
  2
*T2
 10
12.4237499994
 20
16.47875
 30
0.0
100
AcDbTable
342
       343
343
210
 11
1.0
 21
0.0
 31
0.0
 90
22
 91
10
 92
3
 93
16
 94
0
 95
0
 96
0
 41
0.028
141
0.344
141
0.25
141
0.25
141
0.25
141
0.25
141
0.25
141
0.25
141
0.25
141
0.25
141
0.25
142
3.055
142
3.0
142
3.0
171
1
172
0
173
0
174
0
175
1
176
1
 91
33
178
0
145
0.0
301
CELL_VALUE
 90
4
  1
Technical Data
304
ACVALUE_END
170
5
140
0.145
171
1
172
0
173
0
174
0
175
1
176
1
 91
33
178
0
145
0.0
301
CELL_VALUE
 90
4
  1
U.S. Units
304
ACVALUE_END
170
5
140
0.145
171
1
172
0
173
0
174
0
175
1
176
1
 91
33
178
0
145
0.0
301
CELL_VALUE
 90
4
  1
Metric Units
304
ACVALUE_END
170
5
140
0.145
171
1
172
0
173
0
174
0
175
1
176
1
 91
33
178
0
145
0.0
301
CELL_VALUE
 90
4
  1
Cavity
304
ACVALUE_END
170
5
140
0.125
171
1
172
0
173
0
174
0
175
2
176
1
 91
33
178
0
145
0.0
301
CELL_VALUE
 90
4
  1
T-22A
304
ACVALUE_END
170
5
140
0.125
171
1
172
0
173
1
174
0
175
1
176
1
 91
1
178
0
145
0.0
170
1
171
1
172
0
173
0
174
0
175
1
176
1
 91
33
178
0
145
0.0
301
CELL_VALUE
 90
4
  1
Body Features
304
ACVALUE_END
170
5
140
0.125
171
1
172
0
173
0
174
0
175
2
176
1
 91
33
178
0
145
0.0
301
CELL_VALUE
 90
4
  1
(See Notes)
304
ACVALUE_END
170
5
140
0.125
171
1
172
0
173
1
174
0
175
1
176
1
 91
1
178
0
145
0.0
170
1
171
1
172
0
173
0
174
0
175
1
176
1
 91
33
178
0
145
0.0
301
CELL_VALUE
 90
4
  1
Body Type
304
ACVALUE_END
170
5
140
0.125
171
1
172
0
173
0
174
0
175
2
176
1
 91
33
178
0
145
0.0
301
CELL_VALUE
 90
4
  1
Sandwich
304
ACVALUE_END
170
5
140
0.125
171
1
172
0
173
1
174
0
175
1
176
1
 91
1
178
0
145
0.0
170
1
171
1
172
0
173
0
174
0
175
1
176
1
 91
33
178
0
145
0.0
301
CELL_VALUE
 90
4
  1
Interface
304
ACVALUE_END
170
5
140
0.125
171
1
172
0
173
0
174
0
175
2
176
1
 91
33
178
0
145
0.0
301
CELL_VALUE
 90
4
  1
ISO 05
304
ACVALUE_END
170
5
140
0.125
171
1
172
0
173
1
174
0
175
1
176
1
 91
1
178
0
145
0.0
170
1
171
1
172
0
173
0
174
0
175
1
176
1
 91
33
178
0
145
0.0
301
CELL_VALUE
 90
4
  1
Open Cavity Quantity
304
ACVALUE_END
170
5
140
0.125
171
1
172
0
173
0
174
0
175
2
176
1
 91
33
178
0
145
0.0
301
CELL_VALUE
 90
4
  1
1
304
ACVALUE_END
170
5
140
0.125
171
1
172
0
173
1
174
0
175
1
176
1
 91
1
178
0
145
0.0
170
1
171
1
172
0
173
0
174
0
175
1
176
1
 91
33
178
0
145
0.0
301
CELL_VALUE
 90
4
  1
Stack Height
304
ACVALUE_END
170
5
140
0.125
171
1
172
0
173
0
174
0
175
1
176
1
 91
33
178
0
145
0.0
301
CELL_VALUE
 90
4
  1
2.99 in.
304
ACVALUE_END
170
5
140
0.125
171
1
172
0
173
0
174
0
175
1
176
1
 91
33
178
0
145
0.0
301
CELL_VALUE
 90
4
  1
76 mm
304
ACVALUE_END
170
5
140
0.125
171
1
172
0
173
0
174
0
175
1
176
1
 91
33
178
0
145
0.0
301
CELL_VALUE
 90
4
  1
Weight
304
ACVALUE_END
170
5
140
0.125
171
1
172
0
173
0
174
0
175
1
176
1
 91
33
178
0
145
0.0
301
CELL_VALUE
 90
4
  1
3.609 lb.
304
ACVALUE_END
170
5
140
0.125
171
1
172
0
173
0
174
0
175
1
176
1
 91
33
178
0
145
0.0
301
CELL_VALUE
 90
4
  1
1,637 kg.
304
ACVALUE_END
170
5
140
0.125
171
1
172
0
173
0
174
0
175
1
176
1
 91
33
178
0
145
0.0
301
CELL_VALUE
 90
4
  1
Seal Plate Included (see notes)
304
ACVALUE_END
170
5
140
0.125
171
1
172
0
173
0
174
0
175
2
176
1
 91
33
178
0
145
0.0
301
CELL_VALUE
 90
4
  1
Yes
304
ACVALUE_END
170
5
140
0.125
171
1
172
0
173
1
174
0
175
1
176
1
 91
1
178
0
145
0.0
170
1
171
1
172
0
173
0
174
0
175
1
176
1
 91
33
178
0
145
0.0
301
CELL_VALUE
 90
4
  1
Includes integral cartridge(s)
304
ACVALUE_END
170
5
140
0.125
171
1
172
0
173
0
174
0
175
2
176
1
 91
33
178
0
145
0.0
301
CELL_VALUE
 90
4
  1
Yes (see Included Components)
304
ACVALUE_END
170
5
140
0.125
171
1
172
0
173
1
174
0
175
1
176
1
 91
1
178
0
145
0.0
170
1
  0
ACAD_TABLE
  5
28B
100
AcDbEntity
  8
0
 62
2
  6
CONTINUOUS
100
AcDbBlockReference
  2
*T3
 10
0.52125
 20
1.459
 30
0.0
100
AcDbTable
342
       343
343
211
 11
1.0
 21
0.0
 31
0.0
 90
22
 91
3
 92
3
 93
16
 94
0
 95
0
 96
0
 41
0.05
141
0.34375
141
0.344
141
0.25
142
1.3
142
2.0
142
1.3
171
1
172
0
173
0
174
0
175
3
176
1
 91
33
178
0
145
0.0
301
CELL_VALUE
 90
4
  1
Port Headings
304
ACVALUE_END
170
5
140
0.145
171
1
172
0
173
1
174
0
175
1
176
1
 91
1
178
0
145
0.0
170
1
171
1
172
0
173
1
174
0
175
1
176
1
 91
1
178
0
145
0.0
170
1
171
1
172
0
173
0
174
0
175
1
176
1
 91
33
178
0
145
0.0
301
CELL_VALUE
 90
4
  1
Product
304
ACVALUE_END
170
5
140
0.145
171
1
172
0
173
0
174
0
175
1
176
1
 91
33
178
0
145
0.0
301
CELL_VALUE
 90
4
  1
Port
304
ACVALUE_END
170
5
140
0.145
171
1
172
0
173
0
174
0
175
1
176
1
 91
33
178
0
145
0.0
301
CELL_VALUE
 90
4
  1
Size
304
ACVALUE_END
170
5
140
0.145
171
1
172
0
173
0
174
0
175
1
176
1
 91
33
178
0
145
0.0
301
CELL_VALUE
 90
4
  1
NB2
304
ACVALUE_END
170
5
140
0.125
171
1
172
0
173
0
174
0
175
1
176
1
 91
33
178
0
145
0.0
301
CELL_VALUE
 90
4
  1
External Port
304
ACVALUE_END
170
5
140
0.125
171
1
172
0
173
0
174
0
175
1
176
1
 91
33
178
0
145
0.0
301
CELL_VALUE
 90
4
  1
SAE 6
304
ACVALUE_END
170
5
140
0.125
  0
MTEXT
  5
28C
100
AcDbEntity
  8
0
100
AcDbMText
 62
2
  6
CONTINUOUS
  7
STANDARD
 71
1
 72
1
 10
0.52125
 20
5.75995
 30
0.0
 11
1.0
 21
0.0
 31
0.0
 44
0.6
  3
Notes\P \P1. Stack height value in technical\P   data table includes seal retainer\P   plate.\P2. Important: Carefully consider\P   the maximum system pressure. The\P   pressure rating of the manifold is\P   dependent on the manifold material,\P   wi
  3
th the port type/size a secondary\P   consideration. Manifolds\P   constructed of aluminum are not\P   rated for pressures higher than\P   3000 psi (210 bar), regardless of\P   the port type/size specified.\P3. Items without balloons are\P   shipped 
  1
loose.\P4. Body Features: Reducer/reliever\P   on A with reverse flow check and\P   port 4 external.
 40
0.1
 41
3.04
  0
LINE
  5
28D
100
AcDbEntity
  8
0
100
AcDbLine
 62
7
  6
CONTINUOUS
 10
0.30125
 20
0.30125
 11
0.30125
 21
16.69875
  0
LINE
  5
28E
100
AcDbEntity
  8
0
100
AcDbLine
 62
7
  6
CONTINUOUS
 10
0.30125
 20
0.30125
 11
21.69875
 21
0.30125
  0
LINE
  5
28F
100
AcDbEntity
  8
0
100
AcDbLine
 62
7
  6
CONTINUOUS
 10
0.30125
 20
16.69875
 11
21.69875
 21
16.69875
  0
LINE
  5
290
100
AcDbEntity
  8
0
100
AcDbLine
 62
7
  6
CONTINUOUS
 10
21.69875
 20
0.30125
 11
21.69875
 21
16.69875
  0
LINE
  5
291
100
AcDbEntity
  8
0
100
AcDbLine
 62
7
  6
CONTINUOUS
 10
9.57347335
 20
11.1481308321
 11
10.0728200921
 21
11.6304627751
  0
LINE
  5
292
100
AcDbEntity
  8
0
100
AcDbLine
 62
7
  6
CONTINUOUS
 10
10.0831966124
 20
11.639519798
 11
10.1314867507
 21
11.6861644926
  0
LINE
  5
293
100
AcDbEntity
  8
0
100
AcDbLine
 62
7
  6
CONTINUOUS
 10
9.6034170524
 20
11.1759979316
 11
10.0832417707
 21
11.6394730466
  0
LINE
  5
294
100
AcDbEntity
  8
0
100
AcDbLine
 62
7
  6
CONTINUOUS
 10
9.6034170524
 20
11.1759979316
 11
9.57347335
 21
11.1481308321
  0
LINE
  5
295
100
AcDbEntity
  8
0
100
AcDbLine
 62
7
  6
CONTINUOUS
 10
10.4234329995
 20
5.3010815484
 11
10.4426508889
 21
5.291588279
  0
LINE
  5
296
100
AcDbEntity
  8
0
100
AcDbLine
 62
7
  6
CONTINUOUS
 10
9.5744081401
 20
5.8442993438
 11
9.6042745665
 21
5.8165054987
  0
LINE
  5
297
100
AcDbEntity
  8
0
100
AcDbLine
 62
4
  6
CONTINUOUS
 10
11.2104371129
 20
11.6237601818
 11
11.1954281042
 21
11.6167625916
  0
LINE
  5
298
100
AcDbEntity
  8
0
100
AcDbLine
 62
7
  6
CONTINUOUS
 10
9.8466618783
 20
5.7543620456
 11
11.416291439
 21
5.6455078659
  0
LINE
  5
299
100
AcDbEntity
  8
0
100
AcDbLine
 62
7
  6
CONTINUOUS
 10
9.8386384945
 20
5.776555754
 11
11.4082680552
 21
5.6677015742
  0
LINE
  5
29A
100
AcDbEntity
  8
0
100
AcDbLine
 62
4
  6
CONTINUOUS
 10
11.1297079877
 20
11.6132818287
 11
11.1607662468
 21
11.643281805
  0
LINE
  5
29B
100
AcDbEntity
  8
0
100
AcDbLine
 62
7
  6
CONTINUOUS
 10
9.4123877868
 20
9.8171830253
 11
9.5606955563
 21
9.9604373386
  0
LINE
  5
29C
100
AcDbEntity
  8
0
100
AcDbLine
 62
7
  6
CONTINUOUS
 10
9.8466618783
 20
5.7543620456
 11
9.8386384945
 21
5.776555754
  0
LINE
  5
29D
100
AcDbEntity
  8
0
100
AcDbLine
 62
7
  6
CONTINUOUS
 10
11.8272024956
 20
6.7519374059
 11
9.4123877868
 21
6.9194053747
  0
LINE
  5
29E
100
AcDbEntity
  8
0
100
AcDbLine
 62
7
  6
CONTINUOUS
 10
9.4123877868
 20
9.8171830253
 11
9.4123877868
 21
6.9194053747
  0
LINE
  5
29F
100
AcDbEntity
  8
0
100
AcDbLine
 62
7
  6
CONTINUOUS
 10
9.5606955563
 20
6.909120196
 11
9.5606955563
 21
5.8703056821
  0
LINE
  5
2A0
100
AcDbEntity
  8
0
100
AcDbLine
 62
7
  6
CONTINUOUS
 10
9.5606955563
 20
9.8856595449
 11
9.5606955563
 21
11.1230106367
  0
LINE
  5
2A1
100
AcDbEntity
  8
0
100
AcDbLine
 62
7
  6
CONTINUOUS
 10
9.8466618783
 20
11.066954405
 11
9.8386384945
 21
11.0292607085
  0
LINE
  5
2A2
100
AcDbEntity
  8
0
100
AcDbLine
 62
7
  6
CONTINUOUS
 10
11.5499858258
 20
11.3132390577
 11
11.5485237255
 21
11.3118532188
  0
LINE
  5
2A3
100
AcDbEntity
  8
0
100
AcDbLine
 62
7
  6
CONTINUOUS
 10
12.3956170217
 20
11.560056154
 11
11.837603621
 21
11.0210565669
  0
LINE
  5
2A4
100
AcDbEntity
  8
0
100
AcDbLine
 62
7
  6
CONTINUOUS
 10
12.4255607241
 20
11.5280358488
 11
11.8675473234
 21
10.9890362616
  0
LINE
  5
2A5
100
AcDbEntity
  8
0
100
AcDbLine
 62
7
  6
CONTINUOUS
 10
9.8386384945
 20
11.0292607085
 11
9.8386384945
 21
9.7919096167
  0
LINE
  5
2A6
100
AcDbEntity
  8
0
100
AcDbLine
 62
7
  6
CONTINUOUS
 10
9.8386384945
 20
5.776555754
 11
9.8386384945
 21
6.8898447878
  0
LINE
  5
2A7
100
AcDbEntity
  8
0
100
AcDbLine
 62
7
  6
CONTINUOUS
 10
10.1883899195
 20
11.7483059159
 11
10.1883899195
 21
11.7173962869
  0
LINE
  5
2A8
100
AcDbEntity
  8
0
100
AcDbLine
 62
7
  6
CONTINUOUS
 10
10.3152327224
 20
5.7218665472
 11
10.3152327224
 21
5.4377612101
  0
LINE
  5
2A9
100
AcDbEntity
  8
0
100
AcDbLine
 62
7
  6
CONTINUOUS
 10
10.3895754975
 20
11.785193827
 11
10.3895754975
 21
11.754284198
  0
LINE
  5
2AA
100
AcDbEntity
  8
0
100
AcDbLine
 62
7
  6
CONTINUOUS
 10
10.4666526619
 20
5.6759044713
 11
10.4666526619
 21
5.29150103
  0
LINE
  5
2AB
100
AcDbEntity
  8
0
100
AcDbLine
 62
7
  6
CONTINUOUS
 10
10.5061254398
 20
5.6656881776
 11
10.5061254398
 21
5.2812847362
  0
LINE
  5
2AC
100
AcDbEntity
  8
0
100
AcDbLine
 62
7
  6
CONTINUOUS
 10
11.416291439
 20
5.6455078659
 11
11.4082680552
 21
5.6677015742
  0
LINE
  5
2AD
100
AcDbEntity
  8
0
100
AcDbLine
 62
7
  6
CONTINUOUS
 10
12.4255607241
 20
10.290684757
 11
11.8675473234
 21
9.7516851699
  0
LINE
  5
2AE
100
AcDbEntity
  8
0
100
AcDbLine
 62
7
  6
CONTINUOUS
 10
12.5876122132
 20
10.3842144847
 11
11.8272024956
 21
9.6497150564
  0
LINE
  5
2AF
100
AcDbEntity
  8
0
100
AcDbLine
 62
7
  6
CONTINUOUS
 10
10.8669981309
 20
11.73660339
 11
10.8669981309
 21
11.7356374634
  0
LINE
  5
2B0
100
AcDbEntity
  8
0
100
AcDbLine
 62
4
  6
CONTINUOUS
 10
11.2109572337
 20
11.6317625798
 11
11.2104371129
 21
11.6237601818
  0
LINE
  5
2B1
100
AcDbEntity
  8
0
100
AcDbLine
 62
7
  6
CONTINUOUS
 10
11.416291439
 20
10.9581002252
 11
11.4082680552
 21
10.9204065288
  0
LINE
  5
2B2
100
AcDbEntity
  8
0
100
AcDbLine
 62
7
  6
CONTINUOUS
 10
11.0712319144
 20
5.6264979104
 11
11.0712319144
 21
5.2420944691
  0
LINE
  5
2B3
100
AcDbEntity
  8
0
100
AcDbLine
 62
7
  6
CONTINUOUS
 10
11.1251527167
 20
5.6302373374
 11
11.1251527167
 21
5.2458338961
  0
LINE
  5
2B4
100
AcDbEntity
  8
0
100
AcDbLine
 62
7
  6
CONTINUOUS
 10
11.4082680552
 20
10.9204065288
 11
11.4082680552
 21
9.683055437
  0
LINE
  5
2B5
100
AcDbEntity
  8
0
100
AcDbLine
 62
7
  6
CONTINUOUS
 10
11.4082680552
 20
5.6677015742
 11
11.4082680552
 21
6.780990608
  0
LINE
  5
2B6
100
AcDbEntity
  8
0
100
AcDbLine
 62
7
  6
CONTINUOUS
 10
11.5388392518
 20
5.6429380815
 11
11.5388392518
 21
5.352903809
  0
LINE
  5
2B7
100
AcDbEntity
  8
0
100
AcDbLine
 62
7
  6
CONTINUOUS
 10
11.5532872761
 20
5.6433655728
 11
11.5532872761
 21
5.3668595297
  0
LINE
  5
2B8
100
AcDbEntity
  8
0
100
AcDbLine
 62
7
  6
CONTINUOUS
 10
11.8272024956
 20
9.6497150564
 11
11.8272024956
 21
6.7519374059
  0
LINE
  5
2B9
100
AcDbEntity
  8
0
100
AcDbLine
 62
7
  6
CONTINUOUS
 10
11.8675473234
 20
10.9890362616
 11
11.8675473234
 21
9.7516851699
  0
LINE
  5
2BA
100
AcDbEntity
  8
0
100
AcDbLine
 62
7
  6
CONTINUOUS
 10
11.8675473234
 20
5.7363313071
 11
11.8675473234
 21
6.7909075193
  0
LINE
  5
2BB
100
AcDbEntity
  8
0
100
AcDbLine
 62
7
  6
CONTINUOUS
 10
11.8272024956
 20
9.6497150564
 11
9.4123877868
 21
9.8171830253
  0
LINE
  5
2BC
100
AcDbEntity
  8
0
100
AcDbLine
 62
7
  6
CONTINUOUS
 10
11.4082680552
 20
9.683055437
 11
9.8386384945
 21
9.7919096167
  0
LINE
  5
2BD
100
AcDbEntity
  8
0
100
AcDbLine
 62
7
  6
CONTINUOUS
 10
12.4255607241
 20
11.5280358488
 11
12.4255607241
 21
10.290684757
  0
LINE
  5
2BE
100
AcDbEntity
  8
0
100
AcDbLine
 62
7
  6
CONTINUOUS
 10
12.4255607241
 20
6.2753308942
 11
12.4255607241
 21
7.3299071064
  0
LINE
  5
2BF
100
AcDbEntity
  8
0
100
AcDbLine
 62
7
  6
CONTINUOUS
 10
12.4383385178
 20
7.342249508
 11
12.4383385178
 21
6.3004510895
  0
LINE
  5
2C0
100
AcDbEntity
  8
0
100
AcDbLine
 62
7
  6
CONTINUOUS
 10
12.4383385178
 20
10.3158049523
 11
12.4383385178
 21
11.5531560441
  0
LINE
  5
2C1
100
AcDbEntity
  8
0
100
AcDbLine
 62
7
  6
CONTINUOUS
 10
12.5876122132
 20
10.3842144847
 11
12.5876122132
 21
7.4864368342
  0
LINE
  5
2C2
100
AcDbEntity
  8
0
100
AcDbLine
 62
7
  6
CONTINUOUS
 10
12.5876122132
 20
7.4864368342
 11
11.8272024956
 21
6.7519374059
  0
LINE
  5
2C3
100
AcDbEntity
  8
0
100
AcDbLine
 62
7
  6
CONTINUOUS
 10
12.4383385178
 20
10.3945666507
 11
12.5876122132
 21
10.3842144847
  0
LINE
  5
2C4
100
AcDbEntity
  8
0
100
AcDbLine
 62
7
  6
CONTINUOUS
 10
11.4082680552
 20
10.9204065288
 11
9.8386384945
 21
11.0292607085
  0
LINE
  5
2C5
100
AcDbEntity
  8
0
100
AcDbLine
 62
7
  6
CONTINUOUS
 10
11.837603621
 20
11.0210565669
 11
11.8675473234
 21
10.9890362616
  0
LINE
  5
2C6
100
AcDbEntity
  8
0
100
AcDbLine
 62
7
  6
CONTINUOUS
 10
11.8675473234
 20
5.7363313071
 11
12.4255607241
 21
6.2753308942
  0
LINE
  5
2C7
100
AcDbEntity
  8
0
100
AcDbLine
 62
7
  6
CONTINUOUS
 10
11.8666125333
 20
5.7354451641
 11
11.8675473234
 21
5.7363313071
  0
LINE
  5
2C8
100
AcDbEntity
  8
0
100
AcDbLine
 62
7
  6
CONTINUOUS
 10
11.8666125333
 20
5.7354451641
 11
11.8367461069
 21
5.707651319
  0
LINE
  5
2C9
100
AcDbEntity
  8
0
100
AcDbLine
 62
7
  6
CONTINUOUS
 10
11.416291439
 20
10.9581002252
 11
9.8466618783
 21
11.066954405
  0
LINE
  5
2CA
100
AcDbEntity
  8
0
100
AcDbLine
 62
4
  6
CONTINUOUS
 10
11.2016447229
 20
11.6377673842
 11
11.2109572337
 21
11.6317625798
  0
LINE
  5
2CB
100
AcDbEntity
  8
0
100
AcDbLine
 62
7
  6
CONTINUOUS
 10
11.4565431201
 20
5.3067406529
 11
11.4258691096
 21
5.291588279
  0
LINE
  5
2CC
100
AcDbEntity
  8
0
100
AcDbLine
 62
4
  6
CONTINUOUS
 10
11.1954281042
 20
11.6167625916
 11
11.1757628398
 21
11.6127674034
  0
LINE
  5
2CD
100
AcDbEntity
  8
0
100
AcDbLine
 62
4
  6
CONTINUOUS
 10
11.1757628398
 20
11.6127674034
 11
11.1586857636
 21
11.6112722131
  0
LINE
  5
2CE
100
AcDbEntity
  8
0
100
AcDbLine
 62
4
  6
CONTINUOUS
 10
11.1586857636
 20
11.6112722131
 11
11.1297079877
 21
11.6132818287
  0
LINE
  5
2CF
100
AcDbEntity
  8
0
100
AcDbLine
 62
4
  6
CONTINUOUS
 10
11.1607662468
 20
11.643281805
 11
11.1897440226
 21
11.6412721894
  0
LINE
  5
2D0
100
AcDbEntity
  8
0
100
AcDbLine
 62
4
  6
CONTINUOUS
 10
11.1897440226
 20
11.6412721894
 11
11.2016447229
 21
11.6377673842
  0
LINE
  5
2D1
100
AcDbEntity
  8
0
100
AcDbLine
 62
7
  6
CONTINUOUS
 10
12.3956170217
 20
11.560056154
 11
12.4255607241
 21
11.5280358488
  0
LINE
  5
2D2
100
AcDbEntity
  8
0
100
AcDbLine
 62
7
  6
CONTINUOUS
 10
10.8669981309
 20
11.7356374634
 11
10.5907660189
 21
11.7547942254
  0
LINE
  5
2D3
100
AcDbEntity
  8
0
100
AcDbLine
 62
7
  6
CONTINUOUS
 10
10.9178632966
 20
11.7547131635
 11
12.1523721958
 21
11.6690996806
  0
LINE
  5
2D4
100
AcDbEntity
  8
0
100
AcDbLine
 62
7
  6
CONTINUOUS
 10
12.424625934
 20
11.5791623824
 11
12.3947595076
 21
11.6069562275
  0
ARC
  5
2D5
100
AcDbEntity
  8
0
100
AcDbCircle
 62
7
  6
CONTINUOUS
 10
10.9436140792
 20
7.8573140966
 40
2.234463508
100
AcDbArc
 50
273.2741391254
 51
274.6601229449
  0
ARC
  5
2D6
100
AcDbEntity
  8
0
100
AcDbCircle
 62
7
  6
CONTINUOUS
 10
10.9452995219
 20
7.4486073538
 40
2.210103635
100
AcDbArc
 50
273.2665005552
 51
274.6677615151
  0
ARC
  5
2D7
100
AcDbEntity
  8
0
100
AcDbCircle
 62
7
  6
CONTINUOUS
 10
11.6721609581
 20
4.7543648814
 40
1.0326522045
100
AcDbArc
 50
118.4673581867
 51
121.9859963856
  0
ARC
  5
2D8
100
AcDbEntity
  8
0
100
AcDbCircle
 62
7
  6
CONTINUOUS
 10
10.7253249483
 20
6.5939749112
 40
0.9538158545
100
AcDbArc
 50
254.2644742826
 51
256.7139235525
  0
ARC
  5
2D9
100
AcDbEntity
  8
0
100
AcDbCircle
 62
7
  6
CONTINUOUS
 10
10.7253249483
 20
6.2095714698
 40
0.9538158545
100
AcDbArc
 50
254.2644742826
 51
256.7139235525
  0
ARC
  5
2DA
100
AcDbEntity
  8
0
100
AcDbCircle
 62
7
  6
CONTINUOUS
 10
11.1176621185
 20
5.991635854
 40
0.7641475746
100
AcDbArc
 50
293.7608747297
 51
296.3085175792
  0
ARC
  5
2DB
100
AcDbEntity
  8
0
100
AcDbCircle
 62
7
  6
CONTINUOUS
 10
11.0879935179
 20
8.4693423105
 40
0.7524811685
100
AcDbArc
 50
90.9876542714
 51
92.8318027091
  0
SPLINE
  5
2DC
100
AcDbEntity
  8
0
100
AcDbSpline
 62
7
  6
CONTINUOUS
 70
0
 71
3
 72
9
 73
5
 74
0
 42
0.0000001
 43
0.0000001
 44
0.0000000001
 40
0.0
 40
0.0
 40
0.0
 40
0.0
 40
0.2426666479
 40
1.0
 40
1.0
 40
1.0
 40
1.0
 10
11.5532872761
 20
5.3668595297
 30
0.0
 10
11.5527796483
 20
5.3662657568
 30
0.0
 10
11.5506559525
 20
5.3638461723
 30
0.0
 10
11.5484105441
 20
5.3615342775
 30
0.0
 10
11.5466570094
 20
5.359840493
 30
0.0
  0
SPLINE
  5
2DD
100
AcDbEntity
  8
0
100
AcDbSpline
 62
7
  6
CONTINUOUS
 70
0
 71
3
 72
9
 73
5
 74
0
 42
0.0000001
 43
0.0000001
 44
0.0000000001
 40
0.0
 40
0.0
 40
0.0
 40
0.0
 40
0.2426770998
 40
1.0
 40
1.0
 40
1.0
 40
1.0
 10
11.5466570094
 20
5.359840493
 30
0.0
 10
11.546048819
 20
5.3592530261
 30
0.0
 10
11.5435157676
 20
5.3568601449
 30
0.0
 10
11.5408800538
 20
5.3545766754
 30
0.0
 10
11.5388392518
 20
5.352903809
 30
0.0
  0
SPLINE
  5
2DE
100
AcDbEntity
  8
0
100
AcDbSpline
 62
7
  6
CONTINUOUS
 70
0
 71
3
 72
9
 73
5
 74
0
 42
0.0000001
 43
0.0000001
 44
0.0000000001
 40
0.0
 40
0.0
 40
0.0
 40
0.0
 40
0.504378312
 40
1.0
 40
1.0
 40
1.0
 40
1.0
 10
11.5388392518
 20
5.352903809
 30
0.0
 10
11.5253355015
 20
5.3444949553
 30
0.0
 10
11.4982226641
 20
5.3283602993
 30
0.0
 10
11.4703498676
 20
5.3135631045
 30
0.0
 10
11.4563357297
 20
5.3066382622
 30
0.0
  0
SPLINE
  5
2DF
100
AcDbEntity
  8
0
100
AcDbSpline
 62
7
  6
CONTINUOUS
 70
0
 71
3
 72
47
 73
43
 74
0
 42
0.0000001
 43
0.0000001
 44
0.0000000001
 40
0.0
 40
0.0
 40
0.0
 40
0.0
 40
0.0099874638
 40
0.0204476834
 40
0.0313771515
 40
0.0427708334
 40
0.0546218702
 40
0.0669225517
 40
0.0796641282
 40
0.0928362942
 40
0.1204271347
 40
0.1495984091
 40
0.1802407165
 40
0.2122338314
 40
0.2454489836
 40
0.2797497839
 40
0.3149929168
 40
0.3510298084
 40
0.3877071885
 40
0.4248680172
 40
0.4623527228
 40
0.4999997959
 40
0.5376468789
 40
0.575131606
 40
0.6122924455
 40
0.6489698269
 40
0.6850067267
 40
0.7202498875
 40
0.7545507276
 40
0.7877659112
 40
0.8197590481
 40
0.8504013805
 40
0.8795726993
 40
0.9071635849
 40
0.9203357726
 40
0.933077377
 40
0.9453780958
 40
0.9572291635
 40
0.968622847
 40
0.9795522717
 40
0.9900124597
 40
1.0
 40
1.0
 40
1.0
 40
1.0
 10
11.4258729951
 20
5.2915902336
 30
0.0
 10
11.4228824607
 20
5.2901129559
 30
0.0
 10
11.4167087543
 20
5.2871910401
 30
0.0
 10
11.4071065559
 20
5.2829915964
 30
0.0
 10
11.3969583778
 20
5.2788787616
 30
0.0
 10
11.3862759298
 20
5.2748575519
 30
0.0
 10
11.3750715541
 20
5.2709322466
 30
0.0
 10
11.3633580535
 20
5.2671075275
 30
0.0
 10
11.3511487976
 20
5.2633879568
 30
0.0
 10
11.3339609687
 20
5.258498425
 30
0.0
 10
11.3113306564
 20
5.2527029434
 30
0.0
 10
11.2828393781
 20
5.2463342712
 30
0.0
 10
11.2527393291
 20
5.2404787473
 30
0.0
 10
11.2211693229
 20
5.2351634056
 30
0.0
 10
11.1882746649
 20
5.2304132493
 30
0.0
 10
11.1542070139
 20
5.2262507171
 30
0.0
 10
11.1191235553
 20
5.2226949891
 30
0.0
 10
11.0831862344
 20
5.2197628187
 30
0.0
 10
11.0465609735
 20
5.2174680341
 30
0.0
 10
11.009416941
 20
5.2158210867
 30
0.0
 10
10.9719257171
 20
5.2148298506
 30
0.0
 10
10.9342604768
 20
5.214498994
 30
0.0
 10
10.8965952292
 20
5.2148298339
 30
0.0
 10
10.8591039908
 20
5.2158210539
 30
0.0
 10
10.8219599463
 20
5.2174679846
 30
0.0
 10
10.7853346776
 20
5.2197627531
 30
0.0
 10
10.7493973429
 20
5.2226949066
 30
0.0
 10
10.7143138573
 20
5.2262506201
 30
0.0
 10
10.6802461711
 20
5.2304131375
 30
0.0
 10
10.6473514798
 20
5.2351632805
 30
0.0
 10
10.6157814444
 20
5.2404786064
 30
0.0
 10
10.5856813615
 20
5.246334116
 30
0.0
 10
10.5571900419
 20
5.2527027787
 30
0.0
 10
10.5345596879
 20
5.2584982467
 30
0.0
 10
10.5173718234
 20
5.263387769
 30
0.0
 10
10.5051625367
 20
5.2671073383
 30
0.0
 10
10.4934490046
 20
5.2709320646
 30
0.0
 10
10.4822446052
 20
5.2748573725
 30
0.0
 10
10.4715621544
 20
5.2788785639
 30
0.0
 10
10.4614139824
 20
5.2829913477
 30
0.0
 10
10.4518117664
 20
5.2871907531
 30
0.0
 10
10.4456380452
 20
5.2901126737
 30
0.0
 10
10.4426474922
 20
5.2915899713
 30
0.0
  0
SPLINE
  5
2E0
100
AcDbEntity
  8
0
100
AcDbSpline
 62
7
  6
CONTINUOUS
 70
0
 71
3
 72
23
 73
19
 74
0
 42
0.0000001
 43
0.0000001
 44
0.0000000001
 40
0.0
 40
0.0
 40
0.0
 40
0.0
 40
0.0436203086
 40
0.0892268542
 40
0.137068591
 40
0.187353676
 40
0.2402538462
 40
0.2958872461
 40
0.3543311569
 40
0.4156094827
 40
0.4797102731
 40
0.5465788188
 40
0.6161346312
 40
0.6882694307
 40
0.7628606873
 40
0.8397744221
 40
0.9188692703
 40
1.0
 40
1.0
 40
1.0
 40
1.0
 10
10.4236412327
 20
5.3009787215
 30
0.0
 10
10.4213312971
 20
5.30211929
 30
0.0
 10
10.4166941733
 20
5.3046343865
 30
0.0
 10
10.4098668839
 20
5.3089954386
 30
0.0
 10
10.403030495
 20
5.3140377251
 30
0.0
 10
10.3961889453
 20
5.3197686574
 30
0.0
 10
10.3893478471
 20
5.3261923082
 30
0.0
 10
10.3825103066
 20
5.3333038806
 30
0.0
 10
10.3756820474
 20
5.3410946926
 30
0.0
 10
10.3688658033
 20
5.3495480951
 30
0.0
 10
10.3620666348
 20
5.358644001
 30
0.0
 10
10.3552867846
 20
5.3683563829
 30
0.0
 10
10.3485301177
 20
5.378656931
 30
0.0
 10
10.3417982307
 20
5.3895138851
 30
0.0
 10
10.3350935137
 20
5.4008947386
 30
0.0
 10
10.3284168645
 20
5.4127658211
 30
0.0
 10
10.321769372
 20
5.4250936601
 30
0.0
 10
10.317410254
 20
5.4334930772
 30
0.0
 10
10.3152327224
 20
5.4377612101
 30
0.0
  0
SPLINE
  5
2E1
100
AcDbEntity
  8
0
100
AcDbSpline
 62
7
  6
CONTINUOUS
 70
0
 71
3
 72
21
 73
17
 74
0
 42
0.0000001
 43
0.0000001
 44
0.0000000001
 40
0.0
 40
0.0
 40
0.0
 40
0.0
 40
0.1230212981
 40
0.1847065752
 40
0.2465215318
 40
0.3084771567
 40
0.3705832678
 40
0.432847904
 40
0.4952752623
 40
0.5578663069
 40
0.6206183946
 40
0.6835249868
 40
0.7465773451
 40
0.8097643485
 40
0.8730733734
 40
1.0
 40
1.0
 40
1.0
 40
1.0
 10
11.0712319144
 20
5.2420944691
 30
0.0
 10
11.0481527334
 20
5.237547113
 30
0.0
 10
11.0133202919
 20
5.2315747066
 30
0.0
 10
10.9665490769
 20
5.2256645592
 30
0.0
 10
10.9312377683
 20
5.2223373452
 30
0.0
 10
10.8957533255
 20
5.2202029376
 30
0.0
 10
10.8601286044
 20
5.2193322013
 30
0.0
 10
10.8244053929
 20
5.2197810965
 30
0.0
 10
10.7886317712
 20
5.2215830952
 30
0.0
 10
10.752859245
 20
5.2247463812
 30
0.0
 10
10.7171393051
 20
5.2292553317
 30
0.0
 10
10.6815196917
 20
5.2350695735
 30
0.0
 10
10.6460415522
 20
5.2421272876
 30
0.0
 10
10.6107373615
 20
5.2503529773
 30
0.0
 10
10.5638934353
 20
5.2627725294
 30
0.0
 10
10.5291330256
 20
5.2735603237
 30
0.0
 10
10.5061254398
 20
5.2812847362
 30
0.0
  0
SPLINE
  5
2E2
100
AcDbEntity
  8
0
100
AcDbSpline
 62
7
  6
CONTINUOUS
 70
0
 71
3
 72
21
 73
17
 74
0
 42
0.0000001
 43
0.0000001
 44
0.0000000001
 40
0.0
 40
0.0
 40
0.0
 40
0.0
 40
0.1269266266
 40
0.1902356515
 40
0.253422655
 40
0.3164750132
 40
0.3793816055
 40
0.4421336932
 40
0.5047247377
 40
0.567152096
 40
0.6294167323
 40
0.6915228434
 40
0.7534784683
 40
0.8152934248
 40
0.8769787019
 40
1.0
 40
1.0
 40
1.0
 40
1.0
 10
11.0712319144
 20
5.6264979104
 30
0.0
 10
11.0482243286
 20
5.634222323
 30
0.0
 10
11.0134639189
 20
5.6450101173
 30
0.0
 10
10.9666199928
 20
5.6574296694
 30
0.0
 10
10.931315802
 20
5.6656553591
 30
0.0
 10
10.8958376625
 20
5.6727130732
 30
0.0
 10
10.8602180491
 20
5.6785273149
 30
0.0
 10
10.8244981092
 20
5.6830362655
 30
0.0
 10
10.788725583
 20
5.6861995515
 30
0.0
 10
10.7529519613
 20
5.6880015502
 30
0.0
 10
10.7172287498
 20
5.6884504454
 30
0.0
 10
10.6816040287
 20
5.687579709
 30
0.0
 10
10.646119586
 20
5.6854453014
 30
0.0
 10
10.6108082773
 20
5.6821180874
 30
0.0
 10
10.5640370624
 20
5.6762079401
 30
0.0
 10
10.5292046209
 20
5.6702355337
 30
0.0
 10
10.5061254398
 20
5.6656881776
 30
0.0
  0
SPLINE
  5
2E3
100
AcDbEntity
  8
0
100
AcDbSpline
 62
7
  6
CONTINUOUS
 70
0
 71
3
 72
11
 73
7
 74
0
 42
0.0000001
 43
0.0000001
 44
0.0000000001
 40
0.0
 40
0.0
 40
0.0
 40
0.0
 40
0.2465919593
 40
0.494712682
 40
0.7454424776
 40
1.0
 40
1.0
 40
1.0
 40
1.0
 10
10.4666526619
 20
5.29150103
 30
0.0
 10
10.4647102491
 20
5.2914461953
 30
0.0
 10
10.4608089393
 20
5.2914535418
 30
0.0
 10
10.4549432481
 20
5.2918370636
 30
0.0
 10
10.4490531761
 20
5.292615346
 30
0.0
 10
10.445146719
 20
5.2934048939
 30
0.0
 10
10.4431952739
 20
5.2938693552
 30
0.0
  0
SPLINE
  5
2E4
100
AcDbEntity
  8
0
100
AcDbSpline
 62
7
  6
CONTINUOUS
 70
0
 71
3
 72
10
 73
6
 74
0
 42
0.0000001
 43
0.0000001
 44
0.0000000001
 40
0.0
 40
0.0
 40
0.0
 40
0.0
 40
0.2418255986
 40
0.4885199497
 40
1.0
 40
1.0
 40
1.0
 40
1.0
 10
10.4431952739
 20
5.2938693552
 30
0.0
 10
10.4415607564
 20
5.294258385
 30
0.0
 10
10.4382804461
 20
5.2951392455
 30
0.0
 10
10.4316815458
 20
5.2973215508
 30
0.0
 10
10.4268276674
 20
5.2994053672
 30
0.0
 10
10.4236412327
 20
5.3009787215
 30
0.0
  0
SPLINE
  5
2E5
100
AcDbEntity
  8
0
100
AcDbSpline
 62
7
  6
CONTINUOUS
 70
0
 71
3
 72
9
 73
5
 74
0
 42
0.0000001
 43
0.0000001
 44
0.0000000001
 40
0.0
 40
0.0
 40
0.0
 40
0.0
 40
0.5100530974
 40
1.0
 40
1.0
 40
1.0
 40
1.0
 10
10.4666526619
 20
5.6759044713
 30
0.0
 10
10.4633931728
 20
5.682293326
 30
0.0
 10
10.4568724291
 20
5.6947533467
 30
0.0
 10
10.4500393035
 20
5.7070457671
 30
0.0
 10
10.4465994657
 20
5.7130151507
 30
0.0
  0
LINE
  5
2E6
100
AcDbEntity
  8
0
100
AcDbLine
 62
7
  6
CONTINUOUS
 10
11.4255527714
 20
5.2922612322
 11
11.4248236574
 21
5.2919413446
  0
SPLINE
  5
2E7
100
AcDbEntity
  8
0
100
AcDbSpline
 62
7
  6
CONTINUOUS
 70
0
 71
3
 72
15
 73
11
 74
0
 42
0.0000001
 43
0.0000001
 44
0.0000000001
 40
0.0
 40
0.0
 40
0.0
 40
0.0
 40
0.1321602046
 40
0.2618009952
 40
0.3890353631
 40
0.5141096583
 40
0.6373677171
 40
0.75919507
 40
0.8799649792
 40
1.0
 40
1.0
 40
1.0
 40
1.0
 10
11.4248236574
 20
5.2919413446
 30
0.0
 10
11.412442554
 20
5.2865176025
 30
0.0
 10
11.3876017902
 20
5.2764706133
 30
0.0
 10
11.349807727
 20
5.2639371759
 30
0.0
 10
11.3119369576
 20
5.2542198864
 30
0.0
 10
11.2741105819
 20
5.2473513822
 30
0.0
 10
11.236443196
 20
5.2432515537
 30
0.0
 10
11.1990276141
 20
5.2417448659
 30
0.0
 10
11.1619267774
 20
5.2425917135
 30
0.0
 10
11.137362358
 20
5.2445510635
 30
0.0
 10
11.1251527167
 20
5.2458338961
 30
0.0
  0
SPLINE
  5
2E8
100
AcDbEntity
  8
0
100
AcDbSpline
 62
7
  6
CONTINUOUS
 70
0
 71
3
 72
20
 73
16
 74
0
 42
0.0000001
 43
0.0000001
 44
0.0000000001
 40
0.0
 40
0.0
 40
0.0
 40
0.0
 40
0.0484179897
 40
0.0990776905
 40
0.151916481
 40
0.2068718649
 40
0.2638713918
 40
0.322836657
 40
0.3836842559
 40
0.4463253753
 40
0.5106665815
 40
0.5766102969
 40
0.7128924835
 40
0.8543215043
 40
1.0
 40
1.0
 40
1.0
 40
1.0
 10
10.1883899195
 20
11.7483059159
 30
0.0
 10
10.1915016153
 20
11.7494352788
 30
0.0
 10
10.1979028568
 20
11.7516540306
 30
0.0
 10
10.2078018593
 20
11.7548017126
 30
0.0
 10
10.2182015057
 20
11.7578398063
 30
0.0
 10
10.2290833855
 20
11.7607629198
 30
0.0
 10
10.2404286831
 20
11.7635659448
 30
0.0
 10
10.2522175465
 20
11.7662439314
 30
0.0
 10
10.2644293733
 20
11.7687921519
 30
0.0
 10
10.2770428122
 20
11.7712061107
 30
0.0
 10
10.2900358116
 20
11.773481598
 30
0.0
 10
10.308033124
 20
11.776356998
 30
0.0
 10
10.3313121037
 20
11.7795630561
 30
0.0
 10
10.360084616
 20
11.7827610128
 30
0.0
 10
10.3796433183
 20
11.7844507655
 30
0.0
 10
10.3895754975
 20
11.785193827
 30
0.0
  0
SPLINE
  5
2E9
100
AcDbEntity
  8
0
100
AcDbSpline
 62
7
  6
CONTINUOUS
 70
0
 71
3
 72
21
 73
17
 74
0
 42
0.0000001
 43
0.0000001
 44
0.0000000001
 40
0.0
 40
0.0
 40
0.0
 40
0.0
 40
0.0612372157
 40
0.1227159912
 40
0.1844209162
 40
0.246346462
 40
0.3084776209
 40
0.3707984334
 40
0.4332911322
 40
0.4959358926
 40
0.5587120678
 40
0.6215986183
 40
0.6845740083
 40
0.7476168694
 40
0.8737911863
 40
1.0
 40
1.0
 40
1.0
 40
1.0
 10
10.5599077014
 20
8.4628275356
 30
0.0
 10
10.5567870382
 20
8.4630439543
 30
0.0
 10
10.5505443503
 20
8.4636560662
 30
0.0
 10
10.5412306391
 20
8.4651027445
 30
0.0
 10
10.5319773911
 20
8.4670734237
 30
0.0
 10
10.5228144719
 20
8.4695583549
 30
0.0
 10
10.5137697772
 20
8.4725456193
 30
0.0
 10
10.5048700999
 20
8.4760206509
 30
0.0
 10
10.4961404932
 20
8.4799669454
 30
0.0
 10
10.4876042484
 20
8.484366375
 30
0.0
 10
10.479282663
 20
8.48919935
 30
0.0
 10
10.4711950715
 20
8.4944451878
 30
0.0
 10
10.4633586964
 20
8.5000827505
 30
0.0
 10
10.4532644769
 20
8.5080936345
 30
0.0
 10
10.4413500106
 20
8.518975521
 30
0.0
 10
10.4326251179
 20
8.5284922248
 30
0.0
 10
10.4284746399
 20
8.5334256176
 30
0.0
  0
SPLINE
  5
2EA
100
AcDbEntity
  8
0
100
AcDbSpline
 62
7
  6
CONTINUOUS
 70
0
 71
3
 72
43
 73
39
 74
0
 42
0.0000001
 43
0.0000001
 44
0.0000000001
 40
0.0
 40
0.0
 40
0.0
 40
0.0
 40
0.0301726104
 40
0.0453098322
 40
0.060481048
 40
0.0909275727
 40
0.1215280463
 40
0.1368910029
 40
0.1522944516
 40
0.1832176945
 40
0.2143018402
 40
0.2455416027
 40
0.2769283047
 40
0.3084502228
 40
0.3400929858
 40
0.3718399966
 40
0.4036728672
 40
0.4355718491
 40
0.4675162532
 40
0.4994848502
 40
0.5314562503
 40
0.5634092596
 40
0.5953232151
 40
0.6271783003
 40
0.6589558431
 40
0.6906386002
 40
0.7222110288
 40
0.7536595485
 40
0.7849727928
 40
0.8161418487
 40
0.8471604817
 40
0.8626147228
 40
0.8780303666
 40
0.9087411576
 40
0.9393007837
 40
0.9545284057
 40
0.9697208447
 40
1.0
 40
1.0
 40
1.0
 40
1.0
 10
9.8943964401
 20
8.5316280927
 30
0.0
 10
9.8991867529
 20
8.533529643
 30
0.0
 10
9.9065003314
 20
8.5360954009
 30
0.0
 10
9.9164383393
 20
8.5389249729
 30
0.0
 10
9.9265271931
 20
8.5413677645
 30
0.0
 10
9.9393546988
 20
8.5436759915
 30
0.0
 10
9.9523557378
 20
8.5449763894
 30
0.0
 10
9.9628311949
 20
8.5454146284
 30
0.0
 10
9.9733708767
 20
8.5454509959
 30
0.0
 10
9.9865884173
 20
8.5447396624
 30
0.0
 10
10.0023986516
 20
8.5426913049
 30
0.0
 10
10.0180920235
 20
8.5394647272
 30
0.0
 10
10.0335804651
 20
8.5350844039
 30
0.0
 10
10.0487793087
 20
8.529581209
 30
0.0
 10
10.063606778
 20
8.5229918792
 30
0.0
 10
10.0779846072
 20
8.5153584991
 30
0.0
 10
10.0918382477
 20
8.5067279873
 30
0.0
 10
10.105097088
 20
8.4971516077
 30
0.0
 10
10.1176945848
 20
8.4866845129
 30
0.0
 10
10.1295683489
 20
8.4753853292
 30
0.0
 10
10.1406601889
 20
8.4633157864
 30
0.0
 10
10.1509161294
 20
8.4505403939
 30
0.0
 10
10.1602864127
 20
8.4371261626
 30
0.0
 10
10.1687254974
 20
8.4231423697
 30
0.0
 10
10.1761920628
 20
8.4086603582
 30
0.0
 10
10.1826490273
 20
8.3937533737
 30
0.0
 10
10.1880635891
 20
8.3784964028
 30
0.0
 10
10.1924072942
 20
8.3629661045
 30
0.0
 10
10.1956561353
 20
8.3472404548
 30
0.0
 10
10.1977906868
 20
8.3313994671
 30
0.0
 10
10.1986297313
 20
8.3181514087
 30
0.0
 10
10.1987294682
 20
8.3075784175
 30
0.0
 10
10.198449138
 20
8.2970612652
 30
0.0
 10
10.1973868427
 20
8.2839928461
 30
0.0
 10
10.1953685405
 20
8.2710696965
 30
0.0
 10
10.19318464
 20
8.2608826459
 30
0.0
 10
10.190630074
 20
8.2508321719
 30
0.0
 10
10.1882880674
 20
8.243415963
 30
0.0
 10
10.1865411672
 20
8.2385477746
 30
0.0
  0
SPLINE
  5
2EB
100
AcDbEntity
  8
0
100
AcDbSpline
 62
7
  6
CONTINUOUS
 70
0
 71
3
 72
39
 73
35
 74
0
 42
0.0000001
 43
0.0000001
 44
0.0000000001
 40
0.0
 40
0.0
 40
0.0
 40
0.0
 40
0.0316888241
 40
0.0631742349
 40
0.0944562475
 40
0.1255413139
 40
0.1564438046
 40
0.1871840662
 40
0.2177871736
 40
0.2482813503
 40
0.2786964961
 40
0.3090628988
 40
0.3394101804
 40
0.3697664978
 40
0.4001579801
 40
0.4306083682
 40
0.4611388145
 40
0.4917677968
 40
0.5225111075
 40
0.5533818844
 40
0.5843906561
 40
0.6155453815
 40
0.6468514683
 40
0.6783117614
 40
0.7099264935
 40
0.7416931977
 40
0.7736065829
 40
0.8056583794
 40
0.8378371696
 40
0.8701282233
 40
0.9025133706
 40
0.9349709525
 40
0.9674759016
 40
1.0
 40
1.0
 40
1.0
 40
1.0
 10
10.3631096367
 20
7.87452871
 30
0.0
 10
10.3622126121
 20
7.8796781979
 30
0.0
 10
10.3608972983
 20
7.89003329
 30
0.0
 10
10.3603854749
 20
7.9056271536
 30
0.0
 10
10.3613343662
 20
7.9211021409
 30
0.0
 10
10.3637199913
 20
7.9363237002
 30
0.0
 10
10.3675006028
 20
7.9511675499
 30
0.0
 10
10.3726200083
 20
7.9655195009
 30
0.0
 10
10.3790102744
 20
7.979277528
 30
0.0
 10
10.3865948595
 20
7.9923521515
 30
0.0
 10
10.395291389
 20
8.0046663195
 30
0.0
 10
10.4050140853
 20
8.0161546777
 30
0.0
 10
10.4156757249
 20
8.0267624907
 30
0.0
 10
10.4271891089
 20
8.0364443646
 30
0.0
 10
10.4394680755
 20
8.0451629142
 30
0.0
 10
10.4524281104
 20
8.0528874753
 30
0.0
 10
10.4659866258
 20
8.0595929269
 30
0.0
 10
10.4800629744
 20
8.0652586639
 30
0.0
 10
10.4945782598
 20
8.0698677343
 30
0.0
 10
10.5094549946
 20
8.0734061509
 30
0.0
 10
10.5246166468
 20
8.0758623722
 30
0.0
 10
10.5399871062
 20
8.077226952
 30
0.0
 10
10.5554900981
 20
8.077492353
 30
0.0
 10
10.5710485644
 20
8.0766529245
 30
0.0
 10
10.5865840348
 20
8.0747050455
 30
0.0
 10
10.6020160078
 20
8.0716474396
 30
0.0
 10
10.6172613697
 20
8.0674816689
 30
0.0
 10
10.6322338854
 20
8.0622128137
 30
0.0
 10
10.6468437945
 20
8.0558503548
 30
0.0
 10
10.6609976116
 20
8.0484092105
 30
0.0
 10
10.6745980256
 20
8.0399110997
 30
0.0
 10
10.6875446261
 20
8.0303855005
 30
0.0
 10
10.6997331039
 20
8.0198727602
 30
0.0
 10
10.7072859436
 20
8.0122370711
 30
0.0
 10
10.7109011712
 20
8.0082733196
 30
0.0
  0
SPLINE
  5
2EC
100
AcDbEntity
  8
0
100
AcDbSpline
 62
7
  6
CONTINUOUS
 70
0
 71
3
 72
31
 73
27
 74
0
 42
0.0000001
 43
0.0000001
 44
0.0000000001
 40
0.0
 40
0.0
 40
0.0
 40
0.0
 40
0.0324490565
 40
0.0648680678
 40
0.0972411698
 40
0.1295613088
 40
0.1939866592
 40
0.2580975583
 40
0.2900281699
 40
0.3218625655
 40
0.3535970635
 40
0.3852289894
 40
0.4481613013
 40
0.5106771314
 40
0.5727910828
 40
0.6345314451
 40
0.6652823169
 40
0.6959556095
 40
0.7265577971
 40
0.7570958312
 40
0.8179924934
 40
0.8787254397
 40
0.9090594392
 40
0.9393775165
 40
0.9696881811
 40
1.0
 40
1.0
 40
1.0
 40
1.0
 10
11.1287507463
 20
7.4663495215
 30
0.0
 10
11.1306349031
 20
7.4639734042
 30
0.0
 10
11.1342880623
 20
7.4591321391
 30
0.0
 10
11.1394089937
 20
7.4516208439
 30
0.0
 10
11.1441565335
 20
7.4438817814
 30
0.0
 10
11.1499656286
 20
7.4333010819
 30
0.0
 10
11.1562412555
 20
7.4196137031
 30
0.0
 10
11.1611566456
 20
7.4054196481
 30
0.0
 10
11.1642406371
 20
7.3938699212
 30
0.0
 10
11.1661254535
 20
7.3851427775
 30
0.0
 10
11.1675829073
 20
7.3763624677
 30
0.0
 10
11.1689532823
 20
7.3646354258
 30
0.0
 10
11.1696036045
 20
7.3499454202
 30
0.0
 10
11.1686935596
 20
7.3324141911
 30
0.0
 10
11.1661271339
 20
7.3151608996
 30
0.0
 10
11.1626417986
 20
7.301114553
 30
0.0
 10
11.1590778618
 20
7.2901662658
 30
0.0
 10
11.156029411
 20
7.2821208841
 30
0.0
 10
11.1526109384
 20
7.2742473359
 30
0.0
 10
11.1475776661
 20
7.2640093152
 30
0.0
 10
11.1404055985
 20
7.251703719
 30
0.0
 10
11.1321195756
 20
7.2401426143
 30
0.0
 10
11.1248774135
 20
7.2314068796
 30
0.0
 10
11.1191497097
 20
7.2251209491
 30
0.0
 10
11.1131364415
 20
7.2191110851
 30
0.0
 10
11.1089451516
 20
7.2152956651
 30
0.0
 10
11.1068065444
 20
7.2134380168
 30
0.0
  0
SPLINE
  5
2ED
100
AcDbEntity
  8
0
100
AcDbSpline
 62
7
  6
CONTINUOUS
 70
0
 71
3
 72
15
 73
11
 74
0
 42
0.0000001
 43
0.0000001
 44
0.0000000001
 40
0.0
 40
0.0
 40
0.0
 40
0.0
 40
0.1273483281
 40
0.2538605602
 40
0.3795878981
 40
0.5046051042
 40
0.6290174419
 40
0.7529533761
 40
0.876560577
 40
1.0
 40
1.0
 40
1.0
 40
1.0
 10
11.6306364807
 20
9.2402714539
 30
0.0
 10
11.6306364807
 20
9.2359443249
 30
0.0
 10
11.630223327
 20
9.2273124939
 30
0.0
 10
11.6283548736
 20
9.2145307648
 30
0.0
 10
11.6252566678
 20
9.2020701951
 30
0.0
 10
11.6209566925
 20
9.1900473143
 30
0.0
 10
11.6154944094
 20
9.178572997
 30
0.0
 10
11.6089195853
 20
9.1677532095
 30
0.0
 10
11.6012940569
 20
9.1576893244
 30
0.0
 10
11.5955524185
 20
9.151541739
 30
0.0
 10
11.5925356398
 20
9.1486277591
 30
0.0
  0
SPLINE
  5
2EE
100
AcDbEntity
  8
0
100
AcDbSpline
 62
7
  6
CONTINUOUS
 70
0
 71
3
 72
15
 73
11
 74
0
 42
0.0000001
 43
0.0000001
 44
0.0000000001
 40
0.0
 40
0.0
 40
0.0
 40
0.0
 40
0.1273483281
 40
0.2538605602
 40
0.3795878981
 40
0.5046051042
 40
0.6290174419
 40
0.7529533761
 40
0.876560577
 40
1.0
 40
1.0
 40
1.0
 40
1.0
 10
9.8803788887
 20
9.3616522302
 30
0.0
 10
9.8803788887
 20
9.3573251012
 30
0.0
 10
9.879965735
 20
9.3486932702
 30
0.0
 10
9.8780972816
 20
9.3359115411
 30
0.0
 10
9.8749990758
 20
9.3234509714
 30
0.0
 10
9.8706991005
 20
9.3114280906
 30
0.0
 10
9.8652368174
 20
9.2999537733
 30
0.0
 10
9.8586619933
 20
9.2891339858
 30
0.0
 10
9.8510364649
 20
9.2790701006
 30
0.0
 10
9.8452948265
 20
9.2729225153
 30
0.0
 10
9.8422780478
 20
9.2700085354
 30
0.0
  0
SPLINE
  5
2EF
100
AcDbEntity
  8
0
100
AcDbSpline
 62
7
  6
CONTINUOUS
 70
0
 71
3
 72
15
 73
11
 74
0
 42
0.0000001
 43
0.0000001
 44
0.0000000001
 40
0.0
 40
0.0
 40
0.0
 40
0.0
 40
0.1273483281
 40
0.2538605602
 40
0.3795878981
 40
0.5046051042
 40
0.6290174419
 40
0.7529533761
 40
0.876560577
 40
1.0
 40
1.0
 40
1.0
 40
1.0
 10
9.8803788887
 20
7.3090597277
 30
0.0
 10
9.8803788887
 20
7.3047325987
 30
0.0
 10
9.879965735
 20
7.2961007677
 30
0.0
 10
9.8780972816
 20
7.2833190386
 30
0.0
 10
9.8749990758
 20
7.2708584689
 30
0.0
 10
9.8706991005
 20
7.2588355881
 30
0.0
 10
9.8652368174
 20
7.2473612708
 30
0.0
 10
9.8586619933
 20
7.2365414833
 30
0.0
 10
9.8510364649
 20
7.2264775981
 30
0.0
 10
9.8452948265
 20
7.2203300128
 30
0.0
 10
9.8422780478
 20
7.2174160329
 30
0.0
  0
SPLINE
  5
2F0
100
AcDbEntity
  8
0
100
AcDbSpline
 62
7
  6
CONTINUOUS
 70
0
 71
3
 72
15
 73
11
 74
0
 42
0.0000001
 43
0.0000001
 44
0.0000000001
 40
0.0
 40
0.0
 40
0.0
 40
0.0
 40
0.1273483281
 40
0.2538605602
 40
0.3795878981
 40
0.5046051042
 40
0.6290174419
 40
0.7529533761
 40
0.876560577
 40
1.0
 40
1.0
 40
1.0
 40
1.0
 10
11.6306364807
 20
7.1876789514
 30
0.0
 10
11.6306364807
 20
7.1833518224
 30
0.0
 10
11.630223327
 20
7.1747199914
 30
0.0
 10
11.6283548736
 20
7.1619382624
 30
0.0
 10
11.6252566678
 20
7.1494776926
 30
0.0
 10
11.6209566925
 20
7.1374548119
 30
0.0
 10
11.6154944094
 20
7.1259804945
 30
0.0
 10
11.6089195853
 20
7.1151607071
 30
0.0
 10
11.6012940569
 20
7.1050968219
 30
0.0
 10
11.5955524185
 20
7.0989492365
 30
0.0
 10
11.5925356398
 20
7.0960352566
 30
0.0
  0
SPLINE
  5
2F1
100
AcDbEntity
  8
0
100
AcDbSpline
 62
7
  6
CONTINUOUS
 70
0
 71
3
 72
15
 73
11
 74
0
 42
0.0000001
 43
0.0000001
 44
0.0000000001
 40
0.0
 40
0.0
 40
0.0
 40
0.0
 40
0.1543654588
 40
0.3003972542
 40
0.4379783352
 40
0.5670650937
 40
0.6876681051
 40
0.7998777313
 40
0.9038872617
 40
1.0
 40
1.0
 40
1.0
 40
1.0
 10
10.1883899195
 20
11.7173962869
 30
0.0
 10
10.1852297
 20
11.7162493128
 30
0.0
 10
10.1791121753
 20
11.7139265681
 30
0.0
 10
10.170311665
 20
11.7102421062
 30
0.0
 10
10.1621553396
 20
11.7064598994
 30
0.0
 10
10.1546592009
 20
11.7025874998
 30
0.0
 10
10.1478375982
 20
11.6986322695
 30
0.0
 10
10.1417032071
 20
11.6946014414
 30
0.0
 10
10.1362681833
 20
11.6905026414
 30
0.0
 10
10.1329923224
 20
11.6876187632
 30
0.0
 10
10.1314867507
 20
11.6861644926
 30
0.0
  0
SPLINE
  5
2F2
100
AcDbEntity
  8
0
100
AcDbSpline
 62
7
  6
CONTINUOUS
 70
0
 71
3
 72
15
 73
11
 74
0
 42
0.0000001
 43
0.0000001
 44
0.0000000001
 40
0.0
 40
0.0
 40
0.0
 40
0.0
 40
0.1233814134
 40
0.2483026863
 40
0.3742305397
 40
0.5006230499
 40
0.6269371356
 40
0.7526301471
 40
0.8771614717
 40
1.0
 40
1.0
 40
1.0
 40
1.0
 10
10.5907660189
 20
11.7547942254
 30
0.0
 10
10.5825046093
 20
11.7553671561
 30
0.0
 10
10.5658674285
 20
11.7563633732
 30
0.0
 10
10.5407698974
 20
11.7574090137
 30
0.0
 10
10.5154556239
 20
11.7580125362
 30
0.0
 10
10.4900412051
 20
11.7581711051
 30
0.0
 10
10.4646436745
 20
11.7578840025
 30
0.0
 10
10.4393799858
 20
11.7571525444
 30
0.0
 10
10.4143665036
 20
11.7559801619
 30
0.0
 10
10.3977973348
 20
11.7548993028
 30
0.0
 10
10.3895754975
 20
11.754284198
 30
0.0
  0
SPLINE
  5
2F3
100
AcDbEntity
  8
0
100
AcDbSpline
 62
7
  6
CONTINUOUS
 70
0
 71
3
 72
30
 73
26
 74
0
 42
0.0000001
 43
0.0000001
 44
0.0000000001
 40
0.0
 40
0.0
 40
0.0
 40
0.0
 40
0.0845014966
 40
0.1673013101
 40
0.2480798434
 40
0.3265304463
 40
0.4023579232
 40
0.4752824446
 40
0.5450410293
 40
0.6113903307
 40
0.6741094543
 40
0.70404695
 40
0.7330061004
 40
0.7609675676
 40
0.7879138497
 40
0.8138303613
 40
0.838704866
 40
0.8625286106
 40
0.8852959738
 40
0.9070056157
 40
0.9276605013
 40
0.9472690806
 40
0.9658458554
 40
0.9834126733
 40
1.0
 40
1.0
 40
1.0
 40
1.0
 10
12.1523721958
 20
11.6690996806
 30
0.0
 10
12.1594931324
 20
11.668605842
 30
0.0
 10
12.1735833011
 20
11.6675031237
 30
0.0
 10
12.1944426124
 20
11.6654811215
 30
0.0
 10
12.214751288
 20
11.6631144098
 30
0.0
 10
12.2344239379
 20
11.6604130804
 30
0.0
 10
12.253378115
 20
11.6573885951
 30
0.0
 10
12.2715343234
 20
11.6540538332
 30
0.0
 10
12.288816612
 20
11.6504229948
 30
0.0
 10
12.3051525433
 20
11.6465115167
 30
0.0
 10
12.3181142351
 20
11.6429793983
 30
0.0
 10
12.3279509416
 20
11.640015024
 30
0.0
 10
12.3349355374
 20
11.637766585
 30
0.0
 10
12.3416348132
 20
11.6354609243
 30
0.0
 10
12.3480417648
 20
11.6331003453
 30
0.0
 10
12.3541497216
 20
11.6306874298
 30
0.0
 10
12.3599523062
 20
11.628224616
 30
0.0
 10
12.3654435105
 20
11.6257145644
 30
0.0
 10
12.3706176281
 20
11.6231598104
 30
0.0
 10
12.3754693394
 20
11.6205630644
 30
0.0
 10
12.3799936481
 20
11.6179269302
 30
0.0
 10
12.384185929
 20
11.615254129
 30
0.0
 10
12.3880419659
 20
11.612547248
 30
0.0
 10
12.3915576653
 20
11.6098090817
 30
0.0
 10
12.393733299
 20
11.6079112055
 30
0.0
 10
12.3947590316
 20
11.6069566631
 30
0.0
  0
SPLINE
  5
2F4
100
AcDbEntity
  8
0
100
AcDbSpline
 62
7
  6
CONTINUOUS
 70
0
 71
3
 72
9
 73
5
 74
0
 42
0.0000001
 43
0.0000001
 44
0.0000000001
 40
0.0
 40
0.0
 40
0.0
 40
0.0
 40
0.239133693
 40
1.0
 40
1.0
 40
1.0
 40
1.0
 10
10.9178632966
 20
11.7547131635
 30
0.0
 10
10.9139315078
 20
11.7529570682
 30
0.0
 10
10.8973435255
 20
11.7459430409
 30
0.0
 10
10.8802050653
 20
11.7402499216
 30
0.0
 10
10.8669981309
 20
11.73660339
 30
0.0
  0
LINE
  5
2F5
100
AcDbEntity
  8
0
100
AcDbLine
 62
7
  6
CONTINUOUS
 10
10.0832417707
 20
11.6394730466
 11
10.0728200921
 21
11.6304627751
  0
SPLINE
  5
2F6
100
AcDbEntity
  8
0
100
AcDbSpline
 62
7
  6
CONTINUOUS
 70
0
 71
3
 72
23
 73
19
 74
0
 42
0.0000001
 43
0.0000001
 44
0.0000000001
 40
0.0
 40
0.0
 40
0.0
 40
0.0
 40
0.0628595583
 40
0.1250969966
 40
0.1868143475
 40
0.2481332965
 40
0.3091895983
 40
0.3701265657
 40
0.4310885116
 40
0.4922148864
 40
0.5536356542
 40
0.6154682283
 40
0.6778159916
 40
0.740768253
 40
0.8044013648
 40
0.8687806984
 40
0.9339631478
 40
1.0
 40
1.0
 40
1.0
 40
1.0
 10
11.0020933224
 20
9.3698760505
 30
0.0
 10
10.9986796714
 20
9.3709028888
 30
0.0
 10
10.9917959949
 20
9.3726605392
 30
0.0
 10
10.9813291131
 20
9.3743804915
 30
0.0
 10
10.9708370682
 20
9.3751598022
 30
0.0
 10
10.960384489
 20
9.3749976539
 30
0.0
 10
10.9500326359
 20
9.3739038104
 30
0.0
 10
10.9398393617
 20
9.3718974192
 30
0.0
 10
10.9298574325
 20
9.3690059247
 30
0.0
 10
10.9201337212
 20
9.3652635321
 30
0.0
 10
10.9107086488
 20
9.3607095753
 30
0.0
 10
10.9016159996
 20
9.3553869007
 30
0.0
 10
10.8928829812
 20
9.3493403959
 30
0.0
 10
10.8845304258
 20
9.3426157179
 30
0.0
 10
10.8765730469
 20
9.3352583123
 30
0.0
 10
10.8690195085
 20
9.3273125015
 30
0.0
 10
10.8618726737
 20
9.3188214945
 30
0.0
 10
10.8574064174
 20
9.3128641134
 30
0.0
 10
10.8552380773
 20
9.3098107885
 30
0.0
  0
SPLINE
  5
2F7
100
AcDbEntity
  8
0
100
AcDbSpline
 62
7
  6
CONTINUOUS
 70
0
 71
3
 72
37
 73
33
 74
0
 42
0.0000001
 43
0.0000001
 44
0.0000000001
 40
0.0
 40
0.0
 40
0.0
 40
0.0
 40
0.0761048351
 40
0.1533642129
 40
0.2310951119
 40
0.3086070906
 40
0.3852127499
 40
0.4602351248
 40
0.4969467779
 40
0.5330176094
 40
0.5683695064
 40
0.6029266101
 40
0.6366155311
 40
0.6693655939
 40
0.7011092316
 40
0.7317823466
 40
0.761324574
 40
0.7896797119
 40
0.8167963395
 40
0.8426282649
 40
0.8671351584
 40
0.8902835318
 40
0.9120478226
 40
0.9324117443
 40
0.9420672359
 40
0.9513718234
 40
0.9603269733
 40
0.9689352603
 40
0.977200779
 40
0.9851288486
 40
0.9927259753
 40
1.0
 40
1.0
 40
1.0
 40
1.0
 10
11.416291439
 20
5.6455078659
 30
0.0
 10
11.4272146112
 20
5.6447503413
 30
0.0
 10
11.4492483845
 20
5.6435225947
 30
0.0
 10
11.4824852333
 20
5.642529699
 30
0.0
 10
11.5159391868
 20
5.6423758733
 30
0.0
 10
11.549292375
 20
5.6430626053
 30
0.0
 10
11.5822278519
 20
5.6445832878
 30
0.0
 10
11.6092572135
 20
5.6465469054
 30
0.0
 10
11.6304299717
 20
5.6485328154
 30
0.0
 10
11.6458976262
 20
5.6502085479
 30
0.0
 10
11.6610308824
 20
5.6520772001
 30
0.0
 10
11.6757937955
 20
5.6541343118
 30
0.0
 10
11.6901512724
 20
5.6563749421
 30
0.0
 10
11.7040691955
 20
5.6587937398
 30
0.0
 10
11.7175145092
 20
5.661384909
 30
0.0
 10
11.7304553066
 20
5.6641422218
 30
0.0
 10
11.7428608924
 20
5.6670590701
 30
0.0
 10
11.7547018677
 20
5.670128481
 30
0.0
 10
11.7659502253
 20
5.6733430784
 30
0.0
 10
11.7765794202
 20
5.6766951555
 30
0.0
 10
11.786564402
 20
5.6801767137
 30
0.0
 10
11.7958818225
 20
5.683779467
 30
0.0
 10
11.8045097624
 20
5.6874948335
 30
0.0
 10
11.8112230029
 20
5.6907325348
 30
0.0
 10
11.8162236128
 20
5.6933800208
 30
0.0
 10
11.8197224413
 20
5.695352972
 30
0.0
 10
11.8230344396
 20
5.6973473901
 30
0.0
 10
11.8261576684
 20
5.699362203
 30
0.0
 10
11.8290903697
 20
5.7013962222
 30
0.0
 10
11.8318308446
 20
5.7034483721
 30
0.0
 10
11.8343773343
 20
5.7055173586
 30
0.0
 10
11.8359788736
 20
5.7069373823
 30
0.0
 10
11.836745012
 20
5.7076503089
 30
0.0
  0
SPLINE
  5
2F8
100
AcDbEntity
  8
0
100
AcDbSpline
 62
7
  6
CONTINUOUS
 70
0
 71
3
 72
16
 73
12
 74
0
 42
0.0000001
 43
0.0000001
 44
0.0000000001
 40
0.0
 40
0.0
 40
0.0
 40
0.0
 40
0.1480543646
 40
0.2876984311
 40
0.4196092656
 40
0.4829475736
 40
0.5446951146
 40
0.6639367557
 40
0.7786074495
 40
0.8901135749
 40
1.0
 40
1.0
 40
1.0
 40
1.0
 10
12.4255607241
 20
6.2753308942
 30
0.0
 10
12.4265885804
 20
6.2763237272
 30
0.0
 10
12.4285256585
 20
6.2783171325
 30
0.0
 10
12.4311301569
 20
6.2814237474
 30
0.0
 10
12.4329982809
 20
6.2840673675
 30
0.0
 10
12.4342848336
 20
6.2861892823
 30
0.0
 10
12.4354084279
 20
6.2882635868
 30
0.0
 10
12.4365760573
 20
6.2908739191
 30
0.0
 10
12.4375915912
 20
6.2940574119
 30
0.0
 10
12.4382022724
 20
6.2972511122
 30
0.0
 10
12.4383385188
 20
6.2993904383
 30
0.0
 10
12.4383385178
 20
6.3004510895
 30
0.0
  0
SPLINE
  5
2F9
100
AcDbEntity
  8
0
100
AcDbSpline
 62
7
  6
CONTINUOUS
 70
0
 71
3
 72
61
 73
57
 74
0
 42
0.0000001
 43
0.0000001
 44
0.0000000001
 40
0.0
 40
0.0
 40
0.0
 40
0.0
 40
0.007740511
 40
0.0160540737
 40
0.024960227
 40
0.0344716643
 40
0.0445949071
 40
0.055331743
 40
0.066679945
 40
0.0786339131
 40
0.0911851592
 40
0.104322653
 40
0.1180331703
 40
0.1323015431
 40
0.1471108279
 40
0.1624424814
 40
0.1782765344
 40
0.1945917069
 40
0.2113654874
 40
0.2285742625
 40
0.246193416
 40
0.2641973931
 40
0.2825597701
 40
0.3012533564
 40
0.3395212609
 40
0.3787713716
 40
0.4187651496
 40
0.4592580191
 40
0.5000014259
 40
0.5407448202
 40
0.5812376513
 40
0.6212313621
 40
0.6604813881
 40
0.6987491716
 40
0.7174426967
 40
0.7358050063
 40
0.7538088988
 40
0.7714279685
 40
0.7886366637
 40
0.8054103512
 40
0.8217254163
 40
0.837559372
 40
0.8528909275
 40
0.8677000942
 40
0.8819683469
 40
0.8956787565
 40
0.9088161341
 40
0.9213672444
 40
0.9333210894
 40
0.944669175
 40
0.9554058825
 40
0.9655289866
 40
0.9750402886
 40
0.9839463867
 40
0.9922597277
 40
1.0
 40
1.0
 40
1.0
 40
1.0
 10
11.5485238653
 20
11.3118532087
 30
0.0
 10
11.5463196686
 20
11.3098020551
 30
0.0
 10
11.5415747415
 20
11.305731922
 30
0.0
 10
11.5337908105
 20
11.2999188962
 30
0.0
 10
11.5251046696
 20
11.2941935151
 30
0.0
 10
11.5155305425
 20
11.2885648124
 30
0.0
 10
11.505083219
 20
11.2830413637
 30
0.0
 10
11.4937794178
 20
11.2776319704
 30
0.0
 10
11.4816372562
 20
11.2723453346
 30
0.0
 10
11.4686763359
 20
11.2671900917
 30
0.0
 10
11.4549176885
 20
11.2621747123
 30
0.0
 10
11.4403837408
 20
11.2573074449
 30
0.0
 10
11.4250982409
 20
11.2525963313
 30
0.0
 10
11.409086208
 20
11.2480491811
 30
0.0
 10
11.3923739021
 20
11.2436735239
 30
0.0
 10
11.3749887697
 20
11.2394765987
 30
0.0
 10
11.3569593778
 20
11.2354653649
 30
0.0
 10
11.33831537
 20
11.2316464849
 30
0.0
 10
11.3190874265
 20
11.2280262755
 30
0.0
 10
11.2993072007
 20
11.2246107321
 30
0.0
 10
11.2790072551
 20
11.2214055196
 30
0.0
 10
11.2582210292
 20
11.2184159626
 30
0.0
 10
11.2369827379
 20
11.2156469669
 30
0.0
 10
11.2078824038
 20
11.2122287098
 30
0.0
 10
11.170634719
 20
11.2085524893
 30
0.0
 10
11.1250500852
 20
11.205116636
 30
0.0
 10
11.0785362877
 20
11.2026459855
 30
0.0
 10
11.0313997445
 20
11.2011569554
 30
0.0
 10
10.9839507591
 20
11.2006595505
 30
0.0
 10
10.9365017898
 20
11.2011570619
 30
0.0
 10
10.8893652954
 20
11.2026461853
 30
0.0
 10
10.8428515782
 20
11.2051169513
 30
0.0
 10
10.7972670569
 20
11.2085528852
 30
0.0
 10
10.7600194861
 20
11.2122292046
 30
0.0
 10
10.7309192564
 20
11.2156475175
 30
0.0
 10
10.709681054
 20
11.2184165542
 30
0.0
 10
10.6888949286
 20
11.2214061661
 30
0.0
 10
10.6685950879
 20
11.2246114231
 30
0.0
 10
10.6488149695
 20
11.2280270017
 30
0.0
 10
10.6295871447
 20
11.231647253
 30
0.0
 10
10.6109432656
 20
11.2354661839
 30
0.0
 10
10.592914002
 20
11.2394774517
 30
0.0
 10
10.5755290021
 20
11.2436744068
 30
0.0
 10
10.5588168427
 20
11.2480501079
 30
0.0
 10
10.5428049613
 20
11.2525972983
 30
0.0
 10
10.527519609
 20
11.2573084367
 30
0.0
 10
10.5129858175
 20
11.2621757306
 30
0.0
 10
10.4992273411
 20
11.2671911533
 30
0.0
 10
10.4862665886
 20
11.2723464225
 30
0.0
 10
10.4741245896
 20
11.2776330735
 30
0.0
 10
10.4628209668
 20
11.2830424953
 30
0.0
 10
10.4523738395
 20
11.2885659795
 30
0.0
 10
10.4427998657
 20
11.2941946905
 30
0.0
 10
10.4341139301
 20
11.2999200936
 30
0.0
 10
10.4263302378
 20
11.3057331018
 30
0.0
 10
10.4215854925
 20
11.3098031735
 30
0.0
 10
10.419381405
 20
11.3118543082
 30
0.0
  0
SPLINE
  5
2FA
100
AcDbEntity
  8
0
100
AcDbSpline
 62
7
  6
CONTINUOUS
 70
0
 71
3
 72
15
 73
11
 74
0
 42
0.0000001
 43
0.0000001
 44
0.0000000001
 40
0.0
 40
0.0
 40
0.0
 40
0.0
 40
0.2026386879
 40
0.3775982523
 40
0.5261720054
 40
0.6518344202
 40
0.7586225829
 40
0.8501790614
 40
0.9296590428
 40
1.0
 40
1.0
 40
1.0
 40
1.0
 10
10.432413415
 20
11.301355665
 30
0.0
 10
10.4320511384
 20
11.3018915675
 30
0.0
 10
10.4314034722
 20
11.3029092026
 30
0.0
 10
10.4305909422
 20
11.3043804853
 30
0.0
 10
10.4299813952
 20
11.3056796912
 30
0.0
 10
10.4295467448
 20
11.3068169792
 30
0.0
 10
10.4292537047
 20
11.307809949
 30
0.0
 10
10.4290685857
 20
11.3086782743
 30
0.0
 10
10.4289721997
 20
11.3094436937
 30
0.0
 10
10.4289532231
 20
11.3099221836
 30
0.0
 10
10.4289532231
 20
11.310146727
 30
0.0
  0
SPLINE
  5
2FB
100
AcDbEntity
  8
0
100
AcDbSpline
 62
7
  6
CONTINUOUS
 70
0
 71
3
 72
15
 73
11
 74
0
 42
0.0000001
 43
0.0000001
 44
0.0000000001
 40
0.0
 40
0.0
 40
0.0
 40
0.0
 40
0.071080565
 40
0.1510965142
 40
0.2428539401
 40
0.3494756447
 40
0.4748847192
 40
0.6233580507
 40
0.797931143
 40
1.0
 40
1.0
 40
1.0
 40
1.0
 10
11.5389532231
 20
11.310146727
 30
0.0
 10
11.5389532231
 20
11.3099235338
 30
0.0
 10
11.5389342704
 20
11.3094488675
 30
0.0
 10
11.5388393566
 20
11.3086913389
 30
0.0
 10
11.5386590282
 20
11.3078350411
 30
0.0
 10
11.5383736212
 20
11.3068581772
 30
0.0
 10
11.5379491785
 20
11.3057400838
 30
0.0
 10
11.5373558883
 20
11.3044618257
 30
0.0
 10
11.5365652514
 20
11.3030136624
 30
0.0
 10
11.535934013
 20
11.3020125105
 30
0.0
 10
11.5355807866
 20
11.3014854266
 30
0.0
  0
SPLINE
  5
2FC
100
AcDbEntity
  8
0
100
AcDbSpline
 62
7
  6
CONTINUOUS
 70
0
 71
3
 72
81
 73
77
 74
0
 42
0.0000001
 43
0.0000001
 44
0.0000000001
 40
0.0
 40
0.0
 40
0.0
 40
0.0
 40
0.0028337142
 40
0.0056879961
 40
0.0085829288
 40
0.0115376855
 40
0.0145701916
 40
0.0176968591
 40
0.0209325098
 40
0.0242902767
 40
0.0277816885
 40
0.031416748
 40
0.0352040034
 40
0.0391507622
 40
0.043263121
 40
0.0475461688
 40
0.0520040791
 40
0.0566401712
 40
0.0614570987
 40
0.0664568144
 40
0.0716407345
 40
0.0770097648
 40
0.088303752
 40
0.1003383788
 40
0.1131069467
 40
0.1265981961
 40
0.1407969749
 40
0.15568478
 40
0.1712401736
 40
0.1874391157
 40
0.2042552342
 40
0.2216600462
 40
0.2396231722
 40
0.2581125135
 40
0.2770944102
 40
0.2965337827
 40
0.316394259
 40
0.3366383123
 40
0.3572273865
 40
0.3781220118
 40
0.4206653076
 40
0.4639393046
 40
0.5076067595
 40
0.5513264401
 40
0.5947565925
 40
0.6375583809
 40
0.6586198368
 40
0.6794002496
 40
0.6998596445
 40
0.7199588879
 40
0.7396598091
 40
0.7589253241
 40
0.7777195526
 40
0.7960079464
 40
0.8137574275
 40
0.8309365451
 40
0.8475156466
 40
0.8634670518
 40
0.8787652611
 40
0.8933872022
 40
0.9073125327
 40
0.9205240124
 40
0.9330079424
 40
0.9447547431
 40
0.9503503826
 40
0.955760458
 40
0.9609852784
 40
0.966025669
 40
0.9708829083
 40
0.9755588324
 40
0.980055911
 40
0.984377284
 40
0.9885270226
 40
0.9925100621
 40
0.9963321586
 40
1.0
 40
1.0
 40
1.0
 40
1.0
 10
11.0563181176
 20
11.6661571137
 30
0.0
 10
11.0563181173
 20
11.6651844688
 30
0.0
 10
11.0562314379
 20
11.6632310299
 30
0.0
 10
11.0558418954
 20
11.6603073037
 30
0.0
 10
11.0551931945
 20
11.657387311
 30
0.0
 10
11.0542860026
 20
11.6544731774
 30
0.0
 10
11.0531211375
 20
11.6515665292
 30
0.0
 10
11.0516996715
 20
11.6486689015
 30
0.0
 10
11.0500225823
 20
11.6457817842
 30
0.0
 10
11.0480910722
 20
11.6429065197
 30
0.0
 10
11.0459063143
 20
11.640044455
 30
0.0
 10
11.0434695484
 20
11.6371969411
 30
0.0
 10
11.0407821694
 20
11.6343652493
 30
0.0
 10
11.0378455523
 20
11.6315507785
 30
0.0
 10
11.0346612804
 20
11.6287548257
 30
0.0
 10
11.0312309857
 20
11.6259787679
 30
0.0
 10
11.0275564259
 20
11.6232239949
 30
0.0
 10
11.0236395207
 20
11.6204918317
 30
0.0
 10
11.0194822499
 20
11.6177837168
 30
0.0
 10
11.0150867859
 20
11.6151009852
 30
0.0
 10
11.0104553771
 20
11.6124449994
 30
0.0
 10
11.0038569681
 20
11.6088809597
 30
0.0
 10
10.9950236422
 20
11.6045140325
 30
0.0
 10
10.9836960854
 20
11.599486868
 30
0.0
 10
10.9714918727
 20
11.5945983995
 30
0.0
 10
10.9584363218
 20
11.5898588522
 30
0.0
 10
10.944556319
 20
11.5852781377
 30
0.0
 10
10.9298806629
 20
11.5808658895
 30
0.0
 10
10.9144398542
 20
11.5766314011
 30
0.0
 10
10.8982660544
 20
11.5725836044
 30
0.0
 10
10.8813930024
 20
11.5687310432
 30
0.0
 10
10.8638559401
 20
11.5650818411
 30
0.0
 10
10.8456915261
 20
11.5616436956
 30
0.0
 10
10.8269377494
 20
11.5584238595
 30
0.0
 10
10.8076338462
 20
11.5554291248
 30
0.0
 10
10.7878202203
 20
11.552665811
 30
0.0
 10
10.7675383544
 20
11.5501397369
 30
0.0
 10
10.7468307325
 20
11.5478562325
 30
0.0
 10
10.7257406893
 20
11.5458200767
 30
0.0
 10
10.6969980386
 20
11.543426581
 30
0.0
 10
10.6604404942
 20
11.5410915712
 30
0.0
 10
10.6160262445
 20
11.5393453203
 30
0.0
 10
10.5711791869
 20
11.5386534559
 30
0.0
 10
10.5262747216
 20
11.5390218084
 30
0.0
 10
10.4816887285
 20
11.5404472885
 30
0.0
 10
10.4449153698
 20
11.5425167586
 30
0.0
 10
10.4159437504
 20
11.5447001939
 30
0.0
 10
10.394641867
 20
11.5465831377
 30
0.0
 10
10.3736955185
 20
11.5487161143
 30
0.0
 10
10.353148545
 20
11.5510946641
 30
0.0
 10
10.3330439884
 20
11.5537137678
 30
0.0
 10
10.3134239416
 20
11.5565679028
 30
0.0
 10
10.2943294765
 20
11.5596510508
 30
0.0
 10
10.2758005558
 20
11.562956711
 30
0.0
 10
10.2578759461
 20
11.5664779146
 30
0.0
 10
10.2405931284
 20
11.5702072353
 30
0.0
 10
10.2239882128
 20
11.5741367996
 30
0.0
 10
10.2080958605
 20
11.5782583159
 30
0.0
 10
10.1929492109
 20
11.58256309
 30
0.0
 10
10.1785797923
 20
11.5870420508
 30
0.0
 10
10.1650174687
 20
11.5916857708
 30
0.0
 10
10.1522902437
 20
11.5964844986
 30
0.0
 10
10.140424572
 20
11.6014281783
 30
0.0
 10
10.1311296864
 20
11.6057269862
 30
0.0
 10
10.1241539374
 20
11.609239501
 30
0.0
 10
10.1192376242
 20
11.6118609143
 30
0.0
 10
10.1145543246
 20
11.6145107717
 30
0.0
 10
10.1101064305
 20
11.6171876902
 30
0.0
 10
10.1058962508
 20
11.6198903185
 30
0.0
 10
10.1019259679
 20
11.6226172833
 30
0.0
 10
10.0981976061
 20
11.6253671479
 30
0.0
 10
10.0947131064
 20
11.6281386071
 30
0.0
 10
10.0914742084
 20
11.6309302691
 30
0.0
 10
10.088482584
 20
11.6337408611
 30
0.0
 10
10.085739982
 20
11.6365687979
 30
0.0
 10
10.0840446866
 20
11.6385033644
 30
0.0
 10
10.0832417707
 20
11.6394730466
 30
0.0
  0
SPLINE
  5
2FD
100
AcDbEntity
  8
0
100
AcDbSpline
 62
7
  6
CONTINUOUS
 70
0
 71
3
 72
15
 73
11
 74
0
 42
0.0000001
 43
0.0000001
 44
0.0000000001
 40
0.0
 40
0.0
 40
0.0
 40
0.0
 40
0.109768888
 40
0.2225106006
 40
0.3390186896
 40
0.4600055446
 40
0.5860985126
 40
0.7178419178
 40
0.8556864768
 40
1.0
 40
1.0
 40
1.0
 40
1.0
 10
10.872816512
 20
11.630692378
 30
0.0
 10
10.8726647137
 20
11.6300036999
 30
0.0
 10
10.872289846
 20
11.6286216819
 30
0.0
 10
10.8715309723
 20
11.6265773143
 30
0.0
 10
10.8705702014
 20
11.624539801
 30
0.0
 10
10.8694085155
 20
11.6225106927
 30
0.0
 10
10.8680469873
 20
11.6204910212
 30
0.0
 10
10.866486614
 20
11.6184819916
 30
0.0
 10
10.8647287568
 20
11.6164848492
 30
0.0
 10
10.8634560795
 20
11.6151925951
 30
0.0
 10
10.862789229
 20
11.6145484669
 30
0.0
  0
SPLINE
  5
2FE
100
AcDbEntity
  8
0
100
AcDbSpline
 62
7
  6
CONTINUOUS
 70
0
 71
3
 72
61
 73
57
 74
0
 42
0.0000001
 43
0.0000001
 44
0.0000000001
 40
0.0
 40
0.0
 40
0.0
 40
0.0
 40
0.0028576179
 40
0.0057794333
 40
0.0118732671
 40
0.01839485
 40
0.0254302451
 40
0.0330445592
 40
0.0412852522
 40
0.0501853732
 40
0.0597665755
 40
0.0700415082
 40
0.0810154655
 40
0.0926878666
 40
0.1050533119
 40
0.1181022157
 40
0.131821537
 40
0.1461952501
 40
0.1612045826
 40
0.1768284474
 40
0.1930436738
 40
0.2098251047
 40
0.2271459025
 40
0.2449776734
 40
0.2632905254
 40
0.282053308
 40
0.3012336889
 40
0.340711596
 40
0.3814467573
 40
0.4231483026
 40
0.4655160853
 40
0.5082436634
 40
0.5510212071
 40
0.5935384245
 40
0.6354874559
 40
0.6765658061
 40
0.7164793146
 40
0.7549451413
 40
0.7735511948
 40
0.7916960592
 40
0.8093490469
 40
0.8264807638
 40
0.8430633465
 40
0.8590705694
 40
0.8744779336
 40
0.8892629829
 40
0.9034054579
 40
0.9168874932
 40
0.9296940858
 40
0.941813394
 40
0.9532372074
 40
0.9639617877
 40
0.9739884672
 40
0.9833249202
 40
0.9919872968
 40
1.0
 40
1.0
 40
1.0
 40
1.0
 10
10.2558197965
 20
11.6306922061
 30
0.0
 10
10.2559503492
 20
11.6300999192
 30
0.0
 10
10.2562639088
 20
11.628912384
 30
0.0
 10
10.2570970796
 20
11.6265318965
 30
0.0
 10
10.2585379656
 20
11.6235520696
 30
0.0
 10
10.260838046
 20
11.6200609661
 30
0.0
 10
10.2637254776
 20
11.6166071422
 30
0.0
 10
10.2671931654
 20
11.6131952912
 30
0.0
 10
10.2712343392
 20
11.6098296122
 30
0.0
 10
10.2758415263
 20
11.6065151298
 30
0.0
 10
10.2810063786
 20
11.6032572491
 30
0.0
 10
10.2867194787
 20
11.6000617363
 30
0.0
 10
10.2929702263
 20
11.5969344083
 30
0.0
 10
10.2997469056
 20
11.5938811435
 30
0.0
 10
10.3070367064
 20
11.5909078138
 30
0.0
 10
10.3148257202
 20
11.588020127
 30
0.0
 10
10.3230990235
 20
11.585223692
 30
0.0
 10
10.331840712
 20
11.5825239894
 30
0.0
 10
10.3410339159
 20
11.5799262614
 30
0.0
 10
10.3506608693
 20
11.5774355907
 30
0.0
 10
10.3607029448
 20
11.5750568753
 30
0.0
 10
10.3711406782
 20
11.572794741
 30
0.0
 10
10.3819538292
 20
11.5706536208
 30
0.0
 10
10.3931214208
 20
11.5686377232
 30
0.0
 10
10.4046217638
 20
11.5667509715
 30
0.0
 10
10.4164325444
 20
11.5649970375
 30
0.0
 10
10.4327200337
 20
11.5628193497
 30
0.0
 10
10.4536862931
 20
11.5604635718
 30
0.0
 10
10.479468464
 20
11.5582393391
 30
0.0
 10
10.505909485
 20
11.5566090968
 30
0.0
 10
10.5328039726
 20
11.5555856807
 30
0.0
 10
10.5599431731
 20
11.5551772095
 30
0.0
 10
10.5871163428
 20
11.5553869007
 30
0.0
 10
10.6141124891
 20
11.5562130853
 30
0.0
 10
10.640721993
 20
11.557649255
 30
0.0
 10
10.666738359
 20
11.5596840392
 30
0.0
 10
10.6919595439
 20
11.5623013813
 30
0.0
 10
10.7123719665
 20
11.5649793604
 30
0.0
 10
10.7281507123
 20
11.567408457
 30
0.0
 10
10.7395349831
 20
11.5693417107
 30
0.0
 10
10.7505786786
 20
11.5714026996
 30
0.0
 10
10.7612603772
 20
11.5735874499
 30
0.0
 10
10.7715593534
 20
11.5758916677
 30
0.0
 10
10.7814556447
 20
11.5783108299
 30
0.0
 10
10.7909300756
 20
11.5808402319
 30
0.0
 10
10.7999643206
 20
11.5834749108
 30
0.0
 10
10.808540935
 20
11.5862097013
 30
0.0
 10
10.8166433821
 20
11.5890392984
 30
0.0
 10
10.8242561006
 20
11.5919581731
 30
0.0
 10
10.831364535
 20
11.5949606515
 30
0.0
 10
10.8379551554
 20
11.5980409881
 30
0.0
 10
10.8440155356
 20
11.6011933184
 30
0.0
 10
10.849534325
 20
11.6044116857
 30
0.0
 10
10.8545015519
 20
11.6076904734
 30
0.0
 10
10.8589075716
 20
11.6110235984
 30
0.0
 10
10.8615660456
 20
11.6133669624
 30
0.0
 10
10.862789229
 20
11.6145484669
 30
0.0
  0
SPLINE
  5
2FF
100
AcDbEntity
  8
0
100
AcDbSpline
 62
7
  6
CONTINUOUS
 70
0
 71
3
 72
16
 73
12
 74
0
 42
0.0000001
 43
0.0000001
 44
0.0000000001
 40
0.0
 40
0.0
 40
0.0
 40
0.0
 40
0.1098864251
 40
0.2213925505
 40
0.3360632443
 40
0.4553048854
 40
0.5170524264
 40
0.5803907344
 40
0.7123015689
 40
0.8519456354
 40
1.0
 40
1.0
 40
1.0
 40
1.0
 10
9.5606955563
 20
11.1230106367
 30
0.0
 10
9.5606955554
 20
11.1240712879
 30
0.0
 10
9.5608318017
 20
11.1262106141
 30
0.0
 10
9.5614424829
 20
11.1294043144
 30
0.0
 10
9.5624580169
 20
11.1325878071
 30
0.0
 10
9.5636256462
 20
11.1351981394
 30
0.0
 10
9.5647492405
 20
11.1372724439
 30
0.0
 10
9.5660357932
 20
11.1393943587
 30
0.0
 10
9.5679039172
 20
11.1420379788
 30
0.0
 10
9.5705084156
 20
11.1451445937
 30
0.0
 10
9.5724454937
 20
11.1471379991
 30
0.0
 10
9.57347335
 20
11.1481308321
 30
0.0
  0
SPLINE
  5
300
100
AcDbEntity
  8
0
100
AcDbSpline
 62
7
  6
CONTINUOUS
 70
0
 71
3
 72
17
 73
13
 74
0
 42
0.0000001
 43
0.0000001
 44
0.0000000001
 40
0.0
 40
0.0
 40
0.0
 40
0.0
 40
0.1492456212
 40
0.2896712097
 40
0.4219849705
 40
0.485388646
 40
0.5471143004
 40
0.6660672791
 40
0.7801745569
 40
0.8909200468
 40
0.9455686518
 40
1.0
 40
1.0
 40
1.0
 40
1.0
 10
12.4246259298
 20
11.5791623821
 30
0.0
 10
12.4257274296
 20
11.578137329
 30
0.0
 10
12.427803262
 20
11.5760791774
 30
0.0
 10
12.430598006
 20
11.572866166
 30
0.0
 10
12.4326044017
 20
11.570128856
 30
0.0
 10
12.43398631
 20
11.5679306828
 30
0.0
 10
12.4351916498
 20
11.5657843697
 30
0.0
 10
12.4364448068
 20
11.5630824269
 30
0.0
 10
12.4375358147
 20
11.5597841041
 30
0.0
 10
12.4380851513
 20
11.5570117407
 30
0.0
 10
12.4383023855
 20
11.5548049153
 30
0.0
 10
12.4383385173
 20
11.5537048125
 30
0.0
 10
12.4383385178
 20
11.5531560441
 30
0.0
  0
SPLINE
  5
301
100
AcDbEntity
  8
0
100
AcDbSpline
 62
7
  6
CONTINUOUS
 70
0
 71
3
 72
40
 73
36
 74
0
 42
0.0000001
 43
0.0000001
 44
0.0000000001
 40
0.0
 40
0.0
 40
0.0
 40
0.0
 40
0.0299422956
 40
0.059908968
 40
0.0899238
 40
0.1200094056
 40
0.1350882594
 40
0.1501924656
 40
0.1804801452
 40
0.2108943177
 40
0.241448122
 40
0.2721514726
 40
0.3030108797
 40
0.334029354
 40
0.3652063934
 40
0.3965380465
 40
0.4280170486
 40
0.4596330217
 40
0.4913727316
 40
0.5232203951
 40
0.5551580282
 40
0.5871658292
 40
0.6192225887
 40
0.6513061205
 40
0.6833937063
 40
0.715462548
 40
0.7474902197
 40
0.779455117
 40
0.8113368874
 40
0.8431168691
 40
0.8747784143
 40
0.9063074703
 40
0.9376922765
 40
0.9689251917
 40
1.0
 40
1.0
 40
1.0
 40
1.0
 10
11.3973121482
 20
9.3507385484
 30
0.0
 10
11.3996429966
 20
9.3529899715
 30
0.0
 10
11.4044879665
 20
9.3573111056
 30
0.0
 10
11.4122504318
 20
9.3631979247
 30
0.0
 10
11.4204678945
 20
9.3684602405
 30
0.0
 10
11.4276527523
 20
9.3722982898
 30
0.0
 10
11.4335782647
 20
9.3750286063
 30
0.0
 10
11.4396262095
 20
9.3775335388
 30
0.0
 10
11.4473854392
 20
9.3802270558
 30
0.0
 10
11.4569475232
 20
9.382737351
 30
0.0
 10
11.4667182554
 20
9.3845157089
 30
0.0
 10
11.4766434889
 20
9.3855523192
 30
0.0
 10
11.4866687011
 20
9.3858416509
 30
0.0
 10
11.4967387304
 20
9.3853822323
 30
0.0
 10
11.5067982295
 20
9.3841767178
 30
0.0
 10
11.5167919263
 20
9.38223185
 30
0.0
 10
11.526664934
 20
9.3795584226
 30
0.0
 10
11.5363630467
 20
9.3761712167
 30
0.0
 10
11.5458330324
 20
9.3720889173
 30
0.0
 10
11.5550229215
 20
9.3673340094
 30
0.0
 10
11.5638822876
 20
9.3619326539
 30
0.0
 10
11.5723625206
 20
9.3559145444
 30
0.0
 10
11.5804170898
 20
9.3493127451
 30
0.0
 10
11.5880017978
 20
9.3421635115
 30
0.0
 10
11.5950750201
 20
9.3345060931
 30
0.0
 10
11.6015979299
 20
9.3263825179
 30
0.0
 10
11.6075347103
 20
9.317837365
 30
0.0
 10
11.6128527466
 20
9.3089175226
 30
0.0
 10
11.6175228104
 20
9.2996719326
 30
0.0
 10
11.6215192017
 20
9.2901513313
 30
0.0
 10
11.6248199334
 20
9.2804079475
 30
0.0
 10
11.6274067536
 20
9.2704953296
 30
0.0
 10
11.6292654421
 20
9.2604676585
 30
0.0
 10
11.6303855724
 20
9.2503807921
 30
0.0
 10
11.6306364807
 20
9.2436346672
 30
0.0
 10
11.6306364807
 20
9.2402714539
 30
0.0
  0
SPLINE
  5
302
100
AcDbEntity
  8
0
100
AcDbSpline
 62
7
  6
CONTINUOUS
 70
0
 71
3
 72
40
 73
36
 74
0
 42
0.0000001
 43
0.0000001
 44
0.0000000001
 40
0.0
 40
0.0
 40
0.0
 40
0.0
 40
0.0299422956
 40
0.059908968
 40
0.0899238
 40
0.1200094056
 40
0.1350882594
 40
0.1501924656
 40
0.1804801452
 40
0.2108943177
 40
0.241448122
 40
0.2721514726
 40
0.3030108797
 40
0.334029354
 40
0.3652063934
 40
0.3965380465
 40
0.4280170486
 40
0.4596330217
 40
0.4913727316
 40
0.5232203951
 40
0.5551580282
 40
0.5871658292
 40
0.6192225887
 40
0.6513061205
 40
0.6833937063
 40
0.715462548
 40
0.7474902197
 40
0.779455117
 40
0.8113368874
 40
0.8431168691
 40
0.8747784143
 40
0.9063074703
 40
0.9376922765
 40
0.9689251917
 40
1.0
 40
1.0
 40
1.0
 40
1.0
 10
9.6470545562
 20
9.4721193247
 30
0.0
 10
9.6493854046
 20
9.4743707478
 30
0.0
 10
9.6542303745
 20
9.4786918819
 30
0.0
 10
9.6619928398
 20
9.4845787009
 30
0.0
 10
9.6702103025
 20
9.4898410168
 30
0.0
 10
9.6773951602
 20
9.493679066
 30
0.0
 10
9.6833206726
 20
9.4964093826
 30
0.0
 10
9.6893686175
 20
9.4989143151
 30
0.0
 10
9.6971278472
 20
9.5016078321
 30
0.0
 10
9.7066899311
 20
9.5041181273
 30
0.0
 10
9.7164606634
 20
9.5058964851
 30
0.0
 10
9.7263858968
 20
9.5069330954
 30
0.0
 10
9.7364111091
 20
9.5072224272
 30
0.0
 10
9.7464811384
 20
9.5067630086
 30
0.0
 10
9.7565406375
 20
9.5055574941
 30
0.0
 10
9.7665343342
 20
9.5036126263
 30
0.0
 10
9.776407342
 20
9.5009391989
 30
0.0
 10
9.7861054547
 20
9.497551993
 30
0.0
 10
9.7955754404
 20
9.4934696936
 30
0.0
 10
9.8047653295
 20
9.4887147857
 30
0.0
 10
9.8136246955
 20
9.4833134301
 30
0.0
 10
9.8221049286
 20
9.4772953207
 30
0.0
 10
9.8301594978
 20
9.4706935213
 30
0.0
 10
9.8377442058
 20
9.4635442878
 30
0.0
 10
9.8448174281
 20
9.4558868693
 30
0.0
 10
9.8513403379
 20
9.4477632941
 30
0.0
 10
9.8572771183
 20
9.4392181413
 30
0.0
 10
9.8625951546
 20
9.4302982989
 30
0.0
 10
9.8672652184
 20
9.4210527089
 30
0.0
 10
9.8712616097
 20
9.4115321076
 30
0.0
 10
9.8745623414
 20
9.4017887238
 30
0.0
 10
9.8771491615
 20
9.3918761059
 30
0.0
 10
9.8790078501
 20
9.3818484348
 30
0.0
 10
9.8801279804
 20
9.3717615683
 30
0.0
 10
9.8803788887
 20
9.3650154434
 30
0.0
 10
9.8803788887
 20
9.3616522302
 30
0.0
  0
SPLINE
  5
303
100
AcDbEntity
  8
0
100
AcDbSpline
 62
7
  6
CONTINUOUS
 70
0
 71
3
 72
40
 73
36
 74
0
 42
0.0000001
 43
0.0000001
 44
0.0000000001
 40
0.0
 40
0.0
 40
0.0
 40
0.0
 40
0.0299422956
 40
0.059908968
 40
0.0899238
 40
0.1200094056
 40
0.1350882594
 40
0.1501924656
 40
0.1804801452
 40
0.2108943177
 40
0.241448122
 40
0.2721514726
 40
0.3030108797
 40
0.334029354
 40
0.3652063934
 40
0.3965380465
 40
0.4280170486
 40
0.4596330217
 40
0.4913727316
 40
0.5232203951
 40
0.5551580282
 40
0.5871658292
 40
0.6192225887
 40
0.6513061205
 40
0.6833937063
 40
0.715462548
 40
0.7474902197
 40
0.779455117
 40
0.8113368874
 40
0.8431168691
 40
0.8747784143
 40
0.9063074703
 40
0.9376922765
 40
0.9689251917
 40
1.0
 40
1.0
 40
1.0
 40
1.0
 10
9.6470545562
 20
7.4195268222
 30
0.0
 10
9.6493854046
 20
7.4217782453
 30
0.0
 10
9.6542303745
 20
7.4260993794
 30
0.0
 10
9.6619928398
 20
7.4319861984
 30
0.0
 10
9.6702103025
 20
7.4372485143
 30
0.0
 10
9.6773951602
 20
7.4410865635
 30
0.0
 10
9.6833206726
 20
7.4438168801
 30
0.0
 10
9.6893686175
 20
7.4463218126
 30
0.0
 10
9.6971278472
 20
7.4490153296
 30
0.0
 10
9.7066899311
 20
7.4515256248
 30
0.0
 10
9.7164606634
 20
7.4533039826
 30
0.0
 10
9.7263858968
 20
7.4543405929
 30
0.0
 10
9.7364111091
 20
7.4546299247
 30
0.0
 10
9.7464811384
 20
7.4541705061
 30
0.0
 10
9.7565406375
 20
7.4529649916
 30
0.0
 10
9.7665343342
 20
7.4510201238
 30
0.0
 10
9.776407342
 20
7.4483466964
 30
0.0
 10
9.7861054547
 20
7.4449594905
 30
0.0
 10
9.7955754404
 20
7.4408771911
 30
0.0
 10
9.8047653295
 20
7.4361222832
 30
0.0
 10
9.8136246955
 20
7.4307209276
 30
0.0
 10
9.8221049286
 20
7.4247028182
 30
0.0
 10
9.8301594978
 20
7.4181010189
 30
0.0
 10
9.8377442058
 20
7.4109517853
 30
0.0
 10
9.8448174281
 20
7.4032943669
 30
0.0
 10
9.8513403379
 20
7.3951707917
 30
0.0
 10
9.8572771183
 20
7.3866256388
 30
0.0
 10
9.8625951546
 20
7.3777057964
 30
0.0
 10
9.8672652184
 20
7.3684602064
 30
0.0
 10
9.8712616097
 20
7.3589396051
 30
0.0
 10
9.8745623414
 20
7.3491962213
 30
0.0
 10
9.8771491615
 20
7.3392836034
 30
0.0
 10
9.8790078501
 20
7.3292559323
 30
0.0
 10
9.8801279804
 20
7.3191690659
 30
0.0
 10
9.8803788887
 20
7.312422941
 30
0.0
 10
9.8803788887
 20
7.3090597277
 30
0.0
  0
SPLINE
  5
304
100
AcDbEntity
  8
0
100
AcDbSpline
 62
7
  6
CONTINUOUS
 70
0
 71
3
 72
40
 73
36
 74
0
 42
0.0000001
 43
0.0000001
 44
0.0000000001
 40
0.0
 40
0.0
 40
0.0
 40
0.0
 40
0.0299422956
 40
0.059908968
 40
0.0899238
 40
0.1200094056
 40
0.1350882594
 40
0.1501924656
 40
0.1804801452
 40
0.2108943177
 40
0.241448122
 40
0.2721514726
 40
0.3030108797
 40
0.334029354
 40
0.3652063934
 40
0.3965380465
 40
0.4280170486
 40
0.4596330217
 40
0.4913727316
 40
0.5232203951
 40
0.5551580282
 40
0.5871658292
 40
0.6192225887
 40
0.6513061205
 40
0.6833937063
 40
0.715462548
 40
0.7474902197
 40
0.779455117
 40
0.8113368874
 40
0.8431168691
 40
0.8747784143
 40
0.9063074703
 40
0.9376922765
 40
0.9689251917
 40
1.0
 40
1.0
 40
1.0
 40
1.0
 10
11.3973121482
 20
7.2981460459
 30
0.0
 10
11.3996429966
 20
7.300397469
 30
0.0
 10
11.4044879665
 20
7.3047186031
 30
0.0
 10
11.4122504318
 20
7.3106054222
 30
0.0
 10
11.4204678945
 20
7.315867738
 30
0.0
 10
11.4276527523
 20
7.3197057873
 30
0.0
 10
11.4335782647
 20
7.3224361038
 30
0.0
 10
11.4396262095
 20
7.3249410363
 30
0.0
 10
11.4473854392
 20
7.3276345534
 30
0.0
 10
11.4569475232
 20
7.3301448486
 30
0.0
 10
11.4667182554
 20
7.3319232064
 30
0.0
 10
11.4766434889
 20
7.3329598167
 30
0.0
 10
11.4866687011
 20
7.3332491484
 30
0.0
 10
11.4967387304
 20
7.3327897298
 30
0.0
 10
11.5067982295
 20
7.3315842153
 30
0.0
 10
11.5167919263
 20
7.3296393475
 30
0.0
 10
11.526664934
 20
7.3269659201
 30
0.0
 10
11.5363630467
 20
7.3235787143
 30
0.0
 10
11.5458330324
 20
7.3194964149
 30
0.0
 10
11.5550229215
 20
7.3147415069
 30
0.0
 10
11.5638822876
 20
7.3093401514
 30
0.0
 10
11.5723625206
 20
7.3033220419
 30
0.0
 10
11.5804170898
 20
7.2967202426
 30
0.0
 10
11.5880017978
 20
7.289571009
 30
0.0
 10
11.5950750201
 20
7.2819135906
 30
0.0
 10
11.6015979299
 20
7.2737900154
 30
0.0
 10
11.6075347103
 20
7.2652448626
 30
0.0
 10
11.6128527466
 20
7.2563250201
 30
0.0
 10
11.6175228104
 20
7.2470794301
 30
0.0
 10
11.6215192017
 20
7.2375588288
 30
0.0
 10
11.6248199334
 20
7.227815445
 30
0.0
 10
11.6274067536
 20
7.2179028271
 30
0.0
 10
11.6292654421
 20
7.207875156
 30
0.0
 10
11.6303855724
 20
7.1977882896
 30
0.0
 10
11.6306364807
 20
7.1910421647
 30
0.0
 10
11.6306364807
 20
7.1876789514
 30
0.0
  0
SPLINE
  5
305
100
AcDbEntity
  8
0
100
AcDbSpline
 62
7
  6
CONTINUOUS
 70
0
 71
3
 72
30
 73
26
 74
0
 42
0.0000001
 43
0.0000001
 44
0.0000000001
 40
0.0
 40
0.0
 40
0.0
 40
0.0
 40
0.0165873267
 40
0.0341541446
 40
0.0527309194
 40
0.0723394987
 40
0.0929943843
 40
0.1147040262
 40
0.1374713894
 40
0.161295134
 40
0.1861696387
 40
0.2120861503
 40
0.2390324324
 40
0.2669938996
 40
0.29595305
 40
0.3258905457
 40
0.3886096693
 40
0.4549589707
 40
0.5247175554
 40
0.5976420768
 40
0.6734695537
 40
0.7519201566
 40
0.8326986899
 40
0.9154985034
 40
1.0
 40
1.0
 40
1.0
 40
1.0
 10
9.6042750425
 20
5.8165050632
 30
0.0
 10
9.6053007751
 20
5.8155505207
 30
0.0
 10
9.6074764088
 20
5.8136526445
 30
0.0
 10
9.6109921083
 20
5.8109144783
 30
0.0
 10
9.6148481451
 20
5.8082075973
 30
0.0
 10
9.619040426
 20
5.805534796
 30
0.0
 10
9.6235647347
 20
5.8028986619
 30
0.0
 10
9.628416446
 20
5.8003019158
 30
0.0
 10
9.6335905636
 20
5.7977471618
 30
0.0
 10
9.6390817679
 20
5.7952371103
 30
0.0
 10
9.6448843525
 20
5.7927742964
 30
0.0
 10
9.6509923093
 20
5.7903613809
 30
0.0
 10
9.6573992609
 20
5.7880008019
 30
0.0
 10
9.6640985367
 20
5.7856951412
 30
0.0
 10
9.6710831325
 20
5.7834467022
 30
0.0
 10
9.680919839
 20
5.780482328
 30
0.0
 10
9.6938815309
 20
5.7769502095
 30
0.0
 10
9.7102174621
 20
5.7730387315
 30
0.0
 10
9.7274997507
 20
5.769407893
 30
0.0
 10
9.7456559592
 20
5.7660731312
 30
0.0
 10
9.7646101362
 20
5.7630486459
 30
0.0
 10
9.7842827861
 20
5.7603473164
 30
0.0
 10
9.8045914617
 20
5.7579806048
 30
0.0
 10
9.825450773
 20
5.7559586026
 30
0.0
 10
9.8395409417
 20
5.7548558843
 30
0.0
 10
9.8466618783
 20
5.7543620456
 30
0.0
  0
SPLINE
  5
306
100
AcDbEntity
  8
0
100
AcDbSpline
 62
7
  6
CONTINUOUS
 70
0
 71
3
 72
17
 73
13
 74
0
 42
0.0000001
 43
0.0000001
 44
0.0000000001
 40
0.0
 40
0.0
 40
0.0
 40
0.0
 40
0.0544313482
 40
0.1090799532
 40
0.2198254431
 40
0.3339327209
 40
0.4528856996
 40
0.514611354
 40
0.5780150295
 40
0.7103287903
 40
0.8507543788
 40
1.0
 40
1.0
 40
1.0
 40
1.0
 10
9.5606955563
 20
5.8703056821
 30
0.0
 10
9.5606955568
 20
5.8697569137
 30
0.0
 10
9.5607316886
 20
5.8686568109
 30
0.0
 10
9.5609489228
 20
5.8664499855
 30
0.0
 10
9.5614982595
 20
5.8636776221
 30
0.0
 10
9.5625892673
 20
5.8603792993
 30
0.0
 10
9.5638424243
 20
5.8576773565
 30
0.0
 10
9.5650477641
 20
5.8555310434
 30
0.0
 10
9.5664296724
 20
5.8533328702
 30
0.0
 10
9.5684360681
 20
5.8505955602
 30
0.0
 10
9.5712308121
 20
5.8473825488
 30
0.0
 10
9.5733066445
 20
5.8453243972
 30
0.0
 10
9.5744081444
 20
5.8442993441
 30
0.0
  0
SPLINE
  5
307
100
AcDbEntity
  8
0
100
AcDbSpline
 62
7
  6
CONTINUOUS
 70
0
 71
3
 72
13
 73
9
 74
0
 42
0.0000001
 43
0.0000001
 44
0.0000000001
 40
0.0
 40
0.0
 40
0.0
 40
0.0
 40
0.2562161731
 40
0.5083215285
 40
0.632820864
 40
0.7562495614
 40
0.8786368868
 40
1.0
 40
1.0
 40
1.0
 40
1.0
 10
10.9072020013
 20
8.9906130176
 30
0.0
 10
10.9112530235
 20
8.9869913095
 30
0.0
 10
10.9196411272
 20
8.9801868763
 30
0.0
 10
10.9309002341
 20
8.9728330504
 30
0.0
 10
10.9402303153
 20
8.967781877
 30
0.0
 10
10.9473404348
 20
8.9644354981
 30
0.0
 10
10.9545702918
 20
8.9615310094
 30
0.0
 10
10.9594765569
 20
8.9598905912
 30
0.0
 10
10.9619413727
 20
8.9591491658
 30
0.0
  0
SPLINE
  5
308
100
AcDbEntity
  8
0
100
AcDbSpline
 62
7
  6
CONTINUOUS
 70
0
 71
3
 72
37
 73
33
 74
0
 42
0.0000001
 43
0.0000001
 44
0.0000000001
 40
0.0
 40
0.0
 40
0.0
 40
0.0
 40
0.0325449927
 40
0.0650460104
 40
0.0974844202
 40
0.1298442168
 40
0.162111862
 40
0.1942760924
 40
0.226327725
 40
0.2582594712
 40
0.3217138158
 40
0.38464213
 40
0.4159222389
 40
0.4470721845
 40
0.4780956352
 40
0.5089979828
 40
0.5397865006
 40
0.5704705422
 40
0.601061759
 40
0.6315743218
 40
0.6620251232
 40
0.692433924
 40
0.7228233964
 40
0.7532190008
 40
0.7836486275
 40
0.8141419343
 40
0.8447293306
 40
0.8754405869
 40
0.9063031072
 40
0.9373402851
 40
0.9685689355
 40
1.0
 40
1.0
 40
1.0
 40
1.0
 10
10.691340763
 20
8.8283333124
 30
0.0
 10
10.6947422651
 20
8.8242901767
 30
0.0
 10
10.7012605453
 20
8.8159691619
 30
0.0
 10
10.7101596545
 20
8.802868024
 30
0.0
 10
10.7181600782
 20
8.7892341795
 30
0.0
 10
10.7252482872
 20
8.7751477938
 30
0.0
 10
10.7314158112
 20
8.7606834103
 30
0.0
 10
10.736657035
 20
8.7459118171
 30
0.0
 10
10.7409687506
 20
8.7308990946
 30
0.0
 10
10.7454654538
 20
8.7106934049
 30
0.0
 10
10.7487722913
 20
8.6851380181
 30
0.0
 10
10.7489750259
 20
8.6594748631
 30
0.0
 10
10.7472606144
 20
8.6391843082
 30
0.0
 10
10.7450442209
 20
8.624164468
 30
0.0
 10
10.7418949863
 20
8.6093750457
 30
0.0
 10
10.7378134657
 20
8.5948756887
 30
0.0
 10
10.7328010233
 20
8.580729214
 30
0.0
 10
10.7268603406
 20
8.5670011385
 30
0.0
 10
10.7199960976
 20
8.553760439
 30
0.0
 10
10.7122158319
 20
8.5410798751
 30
0.0
 10
10.7035310031
 20
8.5290362568
 30
0.0
 10
10.6939582713
 20
8.5177104738
 30
0.0
 10
10.6835209862
 20
8.5071872258
 30
0.0
 10
10.672250854
 20
8.4975543433
 30
0.0
 10
10.6601897051
 20
8.4889015866
 30
0.0
 10
10.6473912238
 20
8.4813188222
 30
0.0
 10
10.6339224601
 20
8.474893518
 30
0.0
 10
10.61986479
 20
8.4697075928
 30
0.0
 10
10.6053143213
 20
8.4658336467
 30
0.0
 10
10.5903803967
 20
8.463331244
 30
0.0
 10
10.5751860913
 20
8.4622427429
 30
0.0
 10
10.5649982981
 20
8.4624745015
 30
0.0
 10
10.5599077014
 20
8.4628275356
 30
0.0
  0
SPLINE
  5
309
100
AcDbEntity
  8
0
100
AcDbSpline
 62
7
  6
CONTINUOUS
 70
0
 71
3
 72
23
 73
19
 74
0
 42
0.0000001
 43
0.0000001
 44
0.0000000001
 40
0.0
 40
0.0
 40
0.0
 40
0.0
 40
0.0629795623
 40
0.1258042241
 40
0.1884896544
 40
0.2510531533
 40
0.3135134631
 40
0.3758907118
 40
0.4382061565
 40
0.5004818799
 40
0.5627406819
 40
0.6250057441
 40
0.6873002139
 40
0.7496474506
 40
0.8120697391
 40
0.8745879824
 40
0.9372277973
 40
1.0
 40
1.0
 40
1.0
 40
1.0
 10
9.785754321
 20
8.418459849
 30
0.0
 10
9.7869009769
 20
8.4216553017
 30
0.0
 10
9.7893539
 20
8.4279814357
 30
0.0
 10
9.7935094054
 20
8.4372581701
 30
0.0
 10
9.7981285656
 20
8.4462881611
 30
0.0
 10
9.803201887
 20
8.4550483275
 30
0.0
 10
9.808718665
 20
8.4635164851
 30
0.0
 10
9.8146669412
 20
8.4716708328
 30
0.0
 10
9.8210335412
 20
8.4794901646
 30
0.0
 10
9.8278039255
 20
8.4869540411
 30
0.0
 10
9.8349623453
 20
8.4940427988
 30
0.0
 10
9.8424918879
 20
8.500737594
 30
0.0
 10
9.8503743976
 20
8.5070206394
 30
0.0
 10
9.8585906
 20
8.5128751944
 30
0.0
 10
9.8671201054
 20
8.5182855899
 30
0.0
 10
9.8759418099
 20
8.523237621
 30
0.0
 10
9.8850329301
 20
8.5277178223
 30
0.0
 10
9.8912513906
 20
8.530379642
 30
0.0
 10
9.8943964401
 20
8.5316280927
 30
0.0
  0
SPLINE
  5
30A
100
AcDbEntity
  8
0
100
AcDbSpline
 62
7
  6
CONTINUOUS
 70
0
 71
3
 72
27
 73
23
 74
0
 42
0.0000001
 43
0.0000001
 44
0.0000000001
 40
0.0
 40
0.0
 40
0.0
 40
0.0
 40
0.0301240413
 40
0.0602681452
 40
0.0904418415
 40
0.1206544236
 40
0.1812128888
 40
0.2420294142
 40
0.2725627194
 40
0.3031819881
 40
0.3338929823
 40
0.3647007454
 40
0.4266034351
 40
0.4889320541
 40
0.5516935587
 40
0.6148774534
 40
0.6784545591
 40
0.7423771335
 40
0.8065795997
 40
0.8709807939
 40
0.9354871688
 40
1.0
 40
1.0
 40
1.0
 40
1.0
 10
10.8572281507
 20
7.4933651362
 30
0.0
 10
10.85953759
 20
7.4953711736
 30
0.0
 10
10.8642597459
 20
7.4992691671
 30
0.0
 10
10.8716298678
 20
7.5047552401
 30
0.0
 10
10.8792733858
 20
7.5098704912
 30
0.0
 10
10.8898128726
 20
7.5161842901
 30
0.0
 10
10.9035984705
 20
7.5230949196
 30
0.0
 10
10.9180349512
 20
7.5286077003
 30
0.0
 10
10.9299073562
 20
7.5321514551
 30
0.0
 10
10.93897197
 20
7.5343716561
 30
0.0
 10
10.948163422
 20
7.5361423186
 30
0.0
 10
10.9605774842
 20
7.5378971486
 30
0.0
 10
10.9763162695
 20
7.5389281147
 30
0.0
 10
10.9953246011
 20
7.5382691914
 30
0.0
 10
11.0143017407
 20
7.5356928107
 30
0.0
 10
11.0330474841
 20
7.5311932008
 30
0.0
 10
11.0513556603
 20
7.5247869066
 30
0.0
 10
11.069014856
 20
7.5165149321
 30
0.0
 10
11.0858127444
 20
7.5064458239
 30
0.0
 10
11.1015415057
 20
7.4946761143
 30
0.0
 10
11.1160008039
 20
7.4813338066
 30
0.0
 10
11.1246803626
 20
7.471482698
 30
0.0
 10
11.1287507463
 20
7.4663495215
 30
0.0
  0
SPLINE
  5
30B
100
AcDbEntity
  8
0
100
AcDbSpline
 62
7
  6
CONTINUOUS
 70
0
 71
3
 72
15
 73
11
 74
0
 42
0.0000001
 43
0.0000001
 44
0.0000000001
 40
0.0
 40
0.0
 40
0.0
 40
0.0
 40
0.1259925432
 40
0.2518655341
 40
0.3775337175
 40
0.5029121896
 40
0.627919196
 40
0.7524787565
 40
0.8765242094
 40
1.0
 40
1.0
 40
1.0
 40
1.0
 10
10.4089142318
 20
7.7828897331
 30
0.0
 10
10.405976193
 20
7.7861110117
 30
0.0
 10
10.4003130031
 20
7.7927459992
 30
0.0
 10
10.3925115524
 20
7.8032371247
 30
0.0
 10
10.3854566808
 20
7.8142200596
 30
0.0
 10
10.3791987163
 20
7.8256419038
 30
0.0
 10
10.37378302
 20
7.8374445297
 30
0.0
 10
10.3692495373
 20
7.8495646272
 30
0.0
 10
10.3656317836
 20
7.8619331682
 30
0.0
 10
10.363842904
 20
7.8703192921
 30
0.0
 10
10.3631096367
 20
7.87452871
 30
0.0
  0
SPLINE
  5
30C
100
AcDbEntity
  8
0
100
AcDbSpline
 62
7
  6
CONTINUOUS
 70
0
 71
3
 72
37
 73
33
 74
0
 42
0.0000001
 43
0.0000001
 44
0.0000000001
 40
0.0
 40
0.0
 40
0.0
 40
0.0
 40
0.0071756951
 40
0.0146740447
 40
0.0225036601
 40
0.0306716004
 40
0.0391837228
 40
0.0480446478
 40
0.0572575521
 40
0.0668242415
 40
0.0870203988
 40
0.108631743
 40
0.1316434718
 40
0.1560309822
 40
0.1817613367
 40
0.2087945347
 40
0.2370844664
 40
0.2665795412
 40
0.297223249
 40
0.3289547897
 40
0.361709482
 40
0.3954190386
 40
0.4300119997
 40
0.4654140959
 40
0.5015484862
 40
0.5383360168
 40
0.6135426229
 40
0.6903678828
 40
0.7681247334
 40
0.8461152395
 40
0.923638247
 40
1.0
 40
1.0
 40
1.0
 40
1.0
 10
11.837603621
 20
11.0210565669
 30
0.0
 10
11.8368590375
 20
11.0203373544
 30
0.0
 10
11.8352993569
 20
11.0189045483
 30
0.0
 10
11.8328118088
 20
11.0168169386
 30
0.0
 10
11.8301273079
 20
11.0147458391
 30
0.0
 10
11.827247595
 20
11.0126926704
 30
0.0
 10
11.824174412
 20
11.010658529
 30
0.0
 10
11.8209095127
 20
11.0086446054
 30
0.0
 10
11.8174547985
 20
11.0066520245
 30
0.0
 10
11.8125083905
 20
11.0039768069
 30
0.0
 10
11.8058548198
 20
11.0007045207
 30
0.0
 10
11.7972879402
 20
10.9969493223
 30
0.0
 10
11.7880199
 20
10.9933067223
 30
0.0
 10
11.7780727499
 20
10.9897854945
 30
0.0
 10
11.7674700155
 20
10.986394098
 30
0.0
 10
11.7562369687
 20
10.9831407335
 30
0.0
 10
11.744400425
 20
10.9800333013
 30
0.0
 10
11.7319887187
 20
10.9770793472
 30
0.0
 10
11.7190316158
 20
10.9742860214
 30
0.0
 10
11.7055602156
 20
10.9716601059
 30
0.0
 10
11.6916068726
 20
10.9692079915
 30
0.0
 10
11.6772051307
 20
10.9669356154
 30
0.0
 10
11.6623896258
 20
10.9648484782
 30
0.0
 10
11.6471960017
 20
10.9629516581
 30
0.0
 10
11.6316607861
 20
10.9612497318
 30
0.0
 10
11.6103856637
 20
10.9592311849
 30
0.0
 10
11.5832149287
 20
10.9572327978
 30
0.0
 10
11.5500967453
 20
10.9556802809
 30
0.0
 10
11.5165480452
 20
10.9549715265
 30
0.0
 10
11.4828915012
 20
10.9551134275
 30
0.0
 10
11.4494507961
 20
10.9561046033
 30
0.0
 10
11.4272815177
 20
10.9573380607
 30
0.0
 10
11.416291439
 20
10.9581002252
 30
0.0
  0
SPLINE
  5
30D
100
AcDbEntity
  8
0
100
AcDbSpline
 62
7
  6
CONTINUOUS
 70
0
 71
3
 72
39
 73
35
 74
0
 42
0.0000001
 43
0.0000001
 44
0.0000000001
 40
0.0
 40
0.0
 40
0.0
 40
0.0
 40
0.007175745
 40
0.0146740737
 40
0.0225036116
 40
0.030671472
 40
0.0391835578
 40
0.0480444976
 40
0.0572573741
 40
0.0668240337
 40
0.0767454382
 40
0.0870215229
 40
0.1086328224
 40
0.1316444885
 40
0.1560318876
 40
0.1817621643
 40
0.2087953062
 40
0.2370851424
 40
0.2665800902
 40
0.2972237176
 40
0.3289551842
 40
0.3617097517
 40
0.3954191818
 40
0.4300120556
 40
0.4654140508
 40
0.5015483063
 40
0.5383357156
 40
0.5756951801
 40
0.6135438541
 40
0.6903688654
 40
0.7681254679
 40
0.8461157008
 40
0.9236385661
 40
1.0
 40
1.0
 40
1.0
 40
1.0
 10
11.8675473234
 20
10.9890362616
 30
0.0
 10
11.8667356326
 20
10.9882522285
 30
0.0
 10
11.8650353925
 20
10.9866902933
 30
0.0
 10
11.8623236753
 20
10.9844145506
 30
0.0
 10
11.8593972632
 20
10.9821568302
 30
0.0
 10
11.856258057
 20
10.979918647
 30
0.0
 10
11.8529079346
 20
10.9777011967
 30
0.0
 10
11.8493488053
 20
10.9755057847
 30
0.0
 10
11.8455827684
 20
10.9733336451
 30
0.0
 10
11.8416120686
 20
10.971186057
 30
0.0
 10
11.8374390436
 20
10.9690643378
 30
0.0
 10
11.8315085591
 20
10.9662236908
 30
0.0
 10
11.823598413
 20
10.9627565557
 30
0.0
 10
11.8134953372
 20
10.9587857136
 30
0.0
 10
11.802651746
 20
10.9549471496
 30
0.0
 10
11.791093546
 20
10.9512501356
 30
0.0
 10
11.7788482073
 20
10.9477035997
 30
0.0
 10
11.7659450013
 20
10.9443161368
 30
0.0
 10
11.7524148046
 20
10.9410959697
 30
0.0
 10
11.7382900528
 20
10.9380509261
 30
0.0
 10
11.7236046544
 20
10.9351883836
 30
0.0
 10
11.7083938917
 20
10.932515286
 30
0.0
 10
11.6926943223
 20
10.9300381221
 30
0.0
 10
11.6765436968
 20
10.927762911
 30
0.0
 10
11.6599808719
 20
10.9256951581
 30
0.0
 10
11.6430457026
 20
10.9238398704
 30
0.0
 10
11.6257789528
 20
10.922201555
 30
0.0
 10
11.6082221486
 20
10.9207841635
 30
0.0
 10
11.5843650471
 20
10.9191856866
 30
0.0
 10
11.5541312745
 20
10.917768537
 30
0.0
 10
11.5175594518
 20
10.9169958772
 30
0.0
 10
11.4808698509
 20
10.9171505706
 30
0.0
 10
11.4444156051
 20
10.9182310698
 30
0.0
 10
11.420248507
 20
10.9195756816
 30
0.0
 10
11.4082680552
 20
10.9204065288
 30
0.0
  0
SPLINE
  5
30E
100
AcDbEntity
  8
0
100
AcDbSpline
 62
7
  6
CONTINUOUS
 70
0
 71
3
 72
15
 73
11
 74
0
 42
0.0000001
 43
0.0000001
 44
0.0000000001
 40
0.0
 40
0.0
 40
0.0
 40
0.0
 40
0.1273483281
 40
0.2538605602
 40
0.3795878981
 40
0.5046051042
 40
0.6290174419
 40
0.7529533761
 40
0.876560577
 40
1.0
 40
1.0
 40
1.0
 40
1.0
 10
9.6089537154
 20
7.3278831274
 30
0.0
 10
9.6089537154
 20
7.3322102564
 30
0.0
 10
9.6093668691
 20
7.3408420874
 30
0.0
 10
9.6112353224
 20
7.3536238165
 30
0.0
 10
9.6143335283
 20
7.3660843862
 30
0.0
 10
9.6186335036
 20
7.378107267
 30
0.0
 10
9.6240957867
 20
7.3895815843
 30
0.0
 10
9.6306706107
 20
7.4004013718
 30
0.0
 10
9.6382961392
 20
7.4104652569
 30
0.0
 10
9.6440377775
 20
7.4166128423
 30
0.0
 10
9.6470545562
 20
7.4195268222
 30
0.0
  0
SPLINE
  5
30F
100
AcDbEntity
  8
0
100
AcDbSpline
 62
7
  6
CONTINUOUS
 70
0
 71
3
 72
51
 73
47
 74
0
 42
0.0000001
 43
0.0000001
 44
0.0000000001
 40
0.0
 40
0.0
 40
0.0
 40
0.0
 40
0.1048053057
 40
0.1559442925
 40
0.2060909675
 40
0.2551352721
 40
0.3029713892
 40
0.3494976431
 40
0.3946163535
 40
0.4382348227
 40
0.4802656733
 40
0.5206273314
 40
0.5592448237
 40
0.5960506556
 40
0.6309855793
 40
0.6639997659
 40
0.6950545237
 40
0.7241241415
 40
0.7379116736
 40
0.7512006648
 40
0.7639927295
 40
0.776291199
 40
0.7881009895
 40
0.7994287722
 40
0.8102836061
 40
0.8206768126
 40
0.8306224648
 40
0.8401379634
 40
0.8492440666
 40
0.8579656048
 40
0.8743665084
 40
0.8821292949
 40
0.8896540938
 40
0.8969899339
 40
0.9041902748
 40
0.9113119036
 40
0.9184136978
 40
0.9255550897
 40
0.9327944496
 40
0.9401875892
 40
0.947786455
 40
0.9637752042
 40
0.9722564658
 40
0.9811037997
 40
0.9903441998
 40
1.0
 40
1.0
 40
1.0
 40
1.0
 10
9.8466618783
 20
11.066954405
 30
0.0
 10
9.8359371702
 20
11.067698166
 30
0.0
 10
9.8199928229
 20
11.0690174566
 30
0.0
 10
9.7989670742
 20
11.0712166393
 30
0.0
 10
9.7836555037
 20
11.0730489861
 30
0.0
 10
9.7687099469
 20
11.0750732192
 30
0.0
 10
9.7541663744
 20
11.0772844424
 30
0.0
 10
9.7400597818
 20
11.079677277
 30
0.0
 10
9.7264240732
 20
11.0822459471
 30
0.0
 10
9.7132920146
 20
11.0849842025
 30
0.0
 10
9.7006951294
 20
11.0878853893
 30
0.0
 10
9.6886636384
 20
11.0909424783
 30
0.0
 10
9.677226365
 20
11.09414806
 30
0.0
 10
9.6664106347
 20
11.0974943417
 30
0.0
 10
9.6562422495
 20
11.1009732182
 30
0.0
 10
9.6467453038
 20
11.1045763195
 30
0.0
 10
9.6379424367
 20
11.1082949665
 30
0.0
 10
9.6310860438
 20
11.1115374724
 30
0.0
 10
9.6259735256
 20
11.1141902245
 30
0.0
 10
9.6223933976
 20
11.1161679047
 30
0.0
 10
9.6190017299
 20
11.1181677484
 30
0.0
 10
9.6158005077
 20
11.1201885663
 30
0.0
 10
9.6127916141
 20
11.1222291578
 30
0.0
 10
9.6099768626
 20
11.1242884018
 30
0.0
 10
9.6073578723
 20
11.1263650604
 30
0.0
 10
9.6049362018
 20
11.1284579746
 30
0.0
 10
9.6027133077
 20
11.1305660486
 30
0.0
 10
9.6006905242
 20
11.1326879791
 30
0.0
 10
9.5988689323
 20
11.1348230025
 30
0.0
 10
9.5967539564
 20
11.137627096
 30
0.0
 10
9.5949837371
 20
11.1405145704
 30
0.0
 10
9.5936189619
 20
11.1434679219
 30
0.0
 10
9.5928204086
 20
11.145649841
 30
0.0
 10
9.5922294269
 20
11.1478373046
 30
0.0
 10
9.5918465862
 20
11.1500288507
 30
0.0
 10
9.5916724246
 20
11.1522227823
 30
0.0
 10
9.5917072882
 20
11.1544173196
 30
0.0
 10
9.591951011
 20
11.1566106588
 30
0.0
 10
9.5924032927
 20
11.158801016
 30
0.0
 10
9.5930636423
 20
11.1609868507
 30
0.0
 10
9.5942397463
 20
11.1639424746
 30
0.0
 10
9.5958276358
 20
11.1668401804
 30
0.0
 10
9.5977670289
 20
11.1696558479
 30
0.0
 10
9.5994538513
 20
11.1717988938
 30
0.0
 10
9.6013425015
 20
11.1739294683
 30
0.0
 10
9.6027046671
 20
11.1753098202
 30
0.0
 10
9.6034170524
 20
11.1759979316
 30
0.0
  0
SPLINE
  5
310
100
AcDbEntity
  8
0
100
AcDbSpline
 62
7
  6
CONTINUOUS
 70
0
 71
3
 72
38
 73
34
 74
0
 42
0.0000001
 43
0.0000001
 44
0.0000000001
 40
0.0
 40
0.0
 40
0.0
 40
0.0
 40
0.0958323293
 40
0.1891018787
 40
0.2792424495
 40
0.3229695159
 40
0.365713634
 40
0.4074121541
 40
0.4480051085
 40
0.4874350853
 40
0.5256475433
 40
0.5625912693
 40
0.5982183184
 40
0.6324846967
 40
0.6653506321
 40
0.6967808602
 40
0.7267456119
 40
0.7552209101
 40
0.782189593
 40
0.8076426204
 40
0.8315800733
 40
0.8540134059
 40
0.8749676676
 40
0.8944844212
 40
0.9126261185
 40
0.9294806019
 40
0.9451669871
 40
0.9598416824
 40
0.9737026418
 40
0.9804061219
 40
0.9869995855
 40
0.9935185882
 40
1.0
 40
1.0
 40
1.0
 40
1.0
 10
9.8386384945
 20
11.0292607085
 30
0.0
 10
9.8288712162
 20
11.0299380716
 30
0.0
 10
9.8096119178
 20
11.0314894958
 30
0.0
 10
9.78123457
 20
11.0344510059
 30
0.0
 10
9.7582190842
 20
11.0374377984
 30
0.0
 10
9.740376429
 20
11.0401264368
 30
0.0
 10
9.7274565835
 20
11.0422608707
 30
0.0
 10
9.7148849466
 20
11.0445300405
 30
0.0
 10
9.7026824975
 20
11.0469301198
 30
0.0
 10
9.6908696162
 20
11.0494570785
 30
0.0
 10
9.6794660178
 20
11.052106688
 30
0.0
 10
9.6684907182
 20
11.0548744509
 30
0.0
 10
9.6579620132
 20
11.0577557525
 30
0.0
 10
9.6478974284
 20
11.0607457342
 30
0.0
 10
9.6383136908
 20
11.0638393515
 30
0.0
 10
9.6292267134
 20
11.0670314624
 30
0.0
 10
9.6206515244
 20
11.0703166749
 30
0.0
 10
9.61260227
 20
11.0736895235
 30
0.0
 10
9.605092176
 20
11.0771444381
 30
0.0
 10
9.5981334771
 20
11.0806756812
 30
0.0
 10
9.5917374582
 20
11.084277579
 30
0.0
 10
9.5859143683
 20
11.0879443967
 30
0.0
 10
9.5806734247
 20
11.0916704806
 30
0.0
 10
9.5760229283
 20
11.0954504632
 30
0.0
 10
9.5719702131
 20
11.0992791934
 30
0.0
 10
9.5685220236
 20
11.1031519535
 30
0.0
 10
9.5656848599
 20
11.1070647472
 30
0.0
 10
9.5634655017
 20
11.1110126116
 30
0.0
 10
9.5621222319
 20
11.1143666021
 30
0.0
 10
9.5613790145
 20
11.1170421067
 30
0.0
 10
9.5609848454
 20
11.1190299582
 30
0.0
 10
9.5607482255
 20
11.1210196752
 30
0.0
 10
9.5606955569
 20
11.1223484614
 30
0.0
 10
9.5606955563
 20
11.1230106367
 30
0.0
  0
SPLINE
  5
311
100
AcDbEntity
  8
0
100
AcDbSpline
 62
7
  6
CONTINUOUS
 70
0
 71
3
 72
15
 73
11
 74
0
 42
0.0000001
 43
0.0000001
 44
0.0000000001
 40
0.0
 40
0.0
 40
0.0
 40
0.0
 40
0.1273483281
 40
0.2538605602
 40
0.3795878981
 40
0.5046051042
 40
0.6290174419
 40
0.7529533761
 40
0.876560577
 40
1.0
 40
1.0
 40
1.0
 40
1.0
 10
11.3592113074
 20
7.2065023511
 30
0.0
 10
11.3592113074
 20
7.2108294801
 30
0.0
 10
11.3596244611
 20
7.2194613111
 30
0.0
 10
11.3614929144
 20
7.2322430402
 30
0.0
 10
11.3645911203
 20
7.2447036099
 30
0.0
 10
11.3688910956
 20
7.2567264907
 30
0.0
 10
11.3743533787
 20
7.268200808
 30
0.0
 10
11.3809282027
 20
7.2790205955
 30
0.0
 10
11.3885537312
 20
7.2890844807
 30
0.0
 10
11.3942953695
 20
7.295232066
 30
0.0
 10
11.3973121482
 20
7.2981460459
 30
0.0
  0
SPLINE
  5
312
100
AcDbEntity
  8
0
100
AcDbSpline
 62
7
  6
CONTINUOUS
 70
0
 71
3
 72
15
 73
11
 74
0
 42
0.0000001
 43
0.0000001
 44
0.0000000001
 40
0.0
 40
0.0
 40
0.0
 40
0.0
 40
0.1273483281
 40
0.2538605602
 40
0.3795878981
 40
0.5046051042
 40
0.6290174419
 40
0.7529533761
 40
0.876560577
 40
1.0
 40
1.0
 40
1.0
 40
1.0
 10
11.3592113074
 20
9.2590948536
 30
0.0
 10
11.3592113074
 20
9.2634219826
 30
0.0
 10
11.3596244611
 20
9.2720538136
 30
0.0
 10
11.3614929144
 20
9.2848355427
 30
0.0
 10
11.3645911203
 20
9.2972961124
 30
0.0
 10
11.3688910956
 20
9.3093189932
 30
0.0
 10
11.3743533787
 20
9.3207933105
 30
0.0
 10
11.3809282027
 20
9.331613098
 30
0.0
 10
11.3885537312
 20
9.3416769831
 30
0.0
 10
11.3942953695
 20
9.3478245685
 30
0.0
 10
11.3973121482
 20
9.3507385484
 30
0.0
  0
SPLINE
  5
313
100
AcDbEntity
  8
0
100
AcDbSpline
 62
7
  6
CONTINUOUS
 70
0
 71
3
 72
37
 73
33
 74
0
 42
0.0000001
 43
0.0000001
 44
0.0000000001
 40
0.0
 40
0.0
 40
0.0
 40
0.0
 40
0.0761050845
 40
0.1533648988
 40
0.2310960984
 40
0.3086083866
 40
0.3852143172
 40
0.460236943
 40
0.4969486828
 40
0.5330195787
 40
0.5683715597
 40
0.6029287238
 40
0.636617645
 40
0.6693677084
 40
0.701111364
 40
0.7317844435
 40
0.7613265775
 40
0.7896816495
 40
0.8167982013
 40
0.8426299832
 40
0.867136707
 40
0.8902849316
 40
0.9120490482
 40
0.9324127275
 40
0.9420681197
 40
0.9513725865
 40
0.9603276517
 40
0.9689358333
 40
0.9772011877
 40
0.9851290725
 40
0.9927260547
 40
1.0
 40
1.0
 40
1.0
 40
1.0
 10
11.4082680552
 20
5.6677015742
 30
0.0
 10
11.420175663
 20
5.6668757788
 30
0.0
 10
11.4441952283
 20
5.6655373856
 30
0.0
 10
11.4804275377
 20
5.6644550094
 30
0.0
 10
11.5168965266
 20
5.6642873474
 30
0.0
 10
11.5532556434
 20
5.665035981
 30
0.0
 10
11.5891593943
 20
5.6666937652
 30
0.0
 10
11.6186247371
 20
5.6688343639
 30
0.0
 10
11.641705644
 20
5.67099929
 30
0.0
 10
11.6585672768
 20
5.672826078
 30
0.0
 10
11.6750643729
 20
5.6748631537
 30
0.0
 10
11.6911577393
 20
5.6771056802
 30
0.0
 10
11.7068091147
 20
5.6795482838
 30
0.0
 10
11.7219813178
 20
5.6821851019
 30
0.0
 10
11.7366383158
 20
5.6850098128
 30
0.0
 10
11.7507453123
 20
5.6880156537
 30
0.0
 10
11.7642688457
 20
5.6911954228
 30
0.0
 10
11.7771768831
 20
5.6945414829
 30
0.0
 10
11.7894388877
 20
5.6980458114
 30
0.0
 10
11.8010259068
 20
5.7017000264
 30
0.0
 10
11.8119106418
 20
5.7054953913
 30
0.0
 10
11.8220676528
 20
5.7094228576
 30
0.0
 10
11.8314730322
 20
5.7134730877
 30
0.0
 10
11.8387911551
 20
5.7170026222
 30
0.0
 10
11.8442423336
 20
5.7198887083
 30
0.0
 10
11.8480564024
 20
5.7220394968
 30
0.0
 10
11.8516668079
 20
5.7242136736
 30
0.0
 10
11.8550714252
 20
5.7264100785
 30
0.0
 10
11.8582683242
 20
5.7286274191
 30
0.0
 10
11.8612556755
 20
5.7308645067
 30
0.0
 10
11.8640315613
 20
5.7331199643
 30
0.0
 10
11.8657773693
 20
5.7346679778
 30
0.0
 10
11.8666125246
 20
5.7354451647
 30
0.0
  0
SPLINE
  5
314
100
AcDbEntity
  8
0
100
AcDbSpline
 62
7
  6
CONTINUOUS
 70
0
 71
3
 72
23
 73
19
 74
0
 42
0.0000001
 43
0.0000001
 44
0.0000000001
 40
0.0
 40
0.0
 40
0.0
 40
0.0
 40
0.0749624693
 40
0.145568562
 40
0.2121600715
 40
0.2751632908
 40
0.3350982944
 40
0.3925833986
 40
0.4483295947
 40
0.5031238753
 40
0.5577984801
 40
0.6131915856
 40
0.6701066397
 40
0.7292788515
 40
0.7913527669
 40
0.856877356
 40
0.9263077324
 40
1.0
 40
1.0
 40
1.0
 40
1.0
 10
10.419381405
 20
11.3118543082
 30
0.0
 10
10.4176892519
 20
11.3134290342
 30
0.0
 10
10.4144971007
 20
11.3165905376
 30
0.0
 10
10.4101898864
 20
11.3215229099
 30
0.0
 10
10.4065170032
 20
11.3264943781
 30
0.0
 10
10.4034838321
 20
11.3315005572
 30
0.0
 10
10.4010955738
 20
11.3365371066
 30
0.0
 10
10.3993574159
 20
11.3415987845
 30
0.0
 10
10.398274425
 20
11.3466791499
 30
0.0
 10
10.3978503147
 20
11.3517701106
 30
0.0
 10
10.3980868064
 20
11.3568624319
 30
0.0
 10
10.3989829736
 20
11.3619466822
 30
0.0
 10
10.4005354418
 20
11.3670144193
 30
0.0
 10
10.4027396057
 20
11.3720586505
 30
0.0
 10
10.4055900566
 20
11.3770739292
 30
0.0
 10
10.4090817773
 20
11.3820557669
 30
0.0
 10
10.4132093221
 20
11.3869995536
 30
0.0
 10
10.4162862174
 20
11.3901693343
 30
0.0
 10
10.4179206203
 20
11.3917480463
 30
0.0
  0
SPLINE
  5
315
100
AcDbEntity
  8
0
100
AcDbSpline
 62
7
  6
CONTINUOUS
 70
0
 71
3
 72
65
 73
61
 74
0
 42
0.0000001
 43
0.0000001
 44
0.0000000001
 40
0.0
 40
0.0
 40
0.0
 40
0.0
 40
0.0082308335
 40
0.0171560724
 40
0.0268022498
 40
0.0371862961
 40
0.0483156317
 40
0.0601906151
 40
0.0728059517
 40
0.0861514286
 40
0.1002127385
 40
0.1149721231
 40
0.1304087212
 40
0.1464989214
 40
0.1632167467
 40
0.1805340375
 40
0.1984206165
 40
0.2168445683
 40
0.23577237
 40
0.2551689787
 40
0.2952210533
 40
0.336697534
 40
0.3792787447
 40
0.4226334407
 40
0.4664224589
 40
0.510302207
 40
0.5539281776
 40
0.5969584263
 40
0.6390571122
 40
0.6798980164
 40
0.6997489027
 40
0.7191692666
 40
0.7381227155
 40
0.7565741381
 40
0.774489906
 40
0.7918380303
 40
0.8085882493
 40
0.8247122627
 40
0.8401839863
 40
0.8549796958
 40
0.8690783457
 40
0.8824620099
 40
0.8951162113
 40
0.9070304846
 40
0.918199219
 40
0.9286225172
 40
0.9383074461
 40
0.9472698717
 40
0.9555366767
 40
0.9631486912
 40
0.9701644891
 40
0.9766644587
 40
0.9797551369
 40
0.9827587666
 40
0.9856926181
 40
0.9885753965
 40
0.9914269159
 40
0.9942677019
 40
0.997118547
 40
1.0
 40
1.0
 40
1.0
 40
1.0
 10
10.265847033
 20
11.6559465488
 30
0.0
 10
10.2671216305
 20
11.6571777155
 30
0.0
 10
10.2699011214
 20
11.6596184299
 30
0.0
 10
10.2745219751
 20
11.6630822962
 30
0.0
 10
10.2797491923
 20
11.6664867776
 30
0.0
 10
10.2855718508
 20
11.6698250766
 30
0.0
 10
10.2919786016
 20
11.6730908486
 30
0.0
 10
10.2989564476
 20
11.6762774392
 30
0.0
 10
10.3064911642
 20
11.6793782743
 30
0.0
 10
10.3145672402
 20
11.6823868867
 30
0.0
 10
10.3231679433
 20
11.6852969719
 30
0.0
 10
10.3322753935
 20
11.6881023696
 30
0.0
 10
10.3418705905
 20
11.6907971451
 30
0.0
 10
10.3519334628
 20
11.6933756131
 30
0.0
 10
10.3624429397
 20
11.695832298
 30
0.0
 10
10.3733769867
 20
11.6981619818
 30
0.0
 10
10.3847126511
 20
11.7003597524
 30
0.0
 10
10.3964261231
 20
11.7024209386
 30
0.0
 10
10.4084928161
 20
11.7043411899
 30
0.0
 10
10.4251974823
 20
11.7067336436
 30
0.0
 10
10.4467743101
 20
11.7093308344
 30
0.0
 10
10.4733841817
 20
11.7117979478
 30
0.0
 10
10.5007581489
 20
11.7136265032
 30
0.0
 10
10.5286661217
 20
11.7148009222
 30
0.0
 10
10.5568736898
 20
11.7153111016
 30
0.0
 10
10.5851438164
 20
11.7151526866
 30
0.0
 10
10.6132389297
 20
11.7143270434
 30
0.0
 10
10.6409230131
 20
11.7128412285
 30
0.0
 10
10.6679633406
 20
11.7107079407
 30
0.0
 10
10.6899750525
 20
11.7083846015
 30
0.0
 10
10.7070856954
 20
11.7062060681
 30
0.0
 10
10.7194968201
 20
11.7044385876
 30
0.0
 10
10.7315814517
 20
11.7025259208
 30
0.0
 10
10.743314206
 20
11.7004720714
 30
0.0
 10
10.754670425
 20
11.698281398
 30
0.0
 10
10.7656262648
 20
11.6959585572
 30
0.0
 10
10.7761587265
 20
11.6935084587
 30
0.0
 10
10.7862457209
 20
11.6909362849
 30
0.0
 10
10.7958661276
 20
11.6882475074
 30
0.0
 10
10.8049998256
 20
11.6854478128
 30
0.0
 10
10.813627749
 20
11.6825431028
 30
0.0
 10
10.8217319592
 20
11.6795395319
 30
0.0
 10
10.8292956703
 20
11.6764434142
 30
0.0
 10
10.8363032941
 20
11.673261185
 30
0.0
 10
10.8427405305
 20
11.6699994356
 30
0.0
 10
10.8485943874
 20
11.6666647764
 30
0.0
 10
10.8538531828
 20
11.6632637185
 30
0.0
 10
10.8585066108
 20
11.6598025814
 30
0.0
 10
10.8625455864
 20
11.6562873698
 30
0.0
 10
10.8659620678
 20
11.6527230848
 30
0.0
 10
10.8687480555
 20
11.6491150423
 30
0.0
 10
10.8705677174
 20
11.64602309
 30
0.0
 10
10.8716772881
 20
11.6435464179
 30
0.0
 10
10.8723335228
 20
11.6417145532
 30
0.0
 10
10.8728269163
 20
11.6398784937
 30
0.0
 10
10.8731570306
 20
11.6380393009
 30
0.0
 10
10.8733235494
 20
11.6361982018
 30
0.0
 10
10.8733261828
 20
11.6343563993
 30
0.0
 10
10.8731650061
 20
11.632515355
 30
0.0
 10
10.8729500507
 20
11.6312982158
 30
0.0
 10
10.872816512
 20
11.630692378
 30
0.0
  0
SPLINE
  5
316
100
AcDbEntity
  8
0
100
AcDbSpline
 62
7
  6
CONTINUOUS
 70
0
 71
3
 72
37
 73
33
 74
0
 42
0.0000001
 43
0.0000001
 44
0.0000000001
 40
0.0
 40
0.0
 40
0.0
 40
0.0
 40
0.0241097049
 40
0.0495196091
 40
0.0761713008
 40
0.1039999261
 40
0.1329349486
 40
0.1629007838
 40
0.19381735
 40
0.2256005492
 40
0.2581627482
 40
0.2914132261
 40
0.3252585836
 40
0.3596031387
 40
0.3943493078
 40
0.4293979966
 40
0.4999995028
 40
0.5706010302
 40
0.6056497366
 40
0.6403959291
 40
0.6747405236
 40
0.7085859376
 40
0.7418364724
 40
0.7743987235
 40
0.8061819785
 40
0.8370986202
 40
0.8670645563
 40
0.8959996787
 40
0.9238283883
 40
0.9504801615
 40
0.9758901643
 40
1.0
 40
1.0
 40
1.0
 40
1.0
 10
10.3422445452
 20
11.5796961412
 30
0.0
 10
10.3456838817
 20
11.580788522
 30
0.0
 10
10.3527859088
 20
11.5829141745
 30
0.0
 10
10.36380009
 20
11.5858640746
 30
0.0
 10
10.3754294516
 20
11.5886523327
 30
0.0
 10
10.3876383117
 20
11.5912702526
 30
0.0
 10
10.4003893754
 20
11.5937097274
 30
0.0
 10
10.4136435867
 20
11.5959631865
 30
0.0
 10
10.4273603323
 20
11.5980236399
 30
0.0
 10
10.4414975469
 20
11.5998847051
 30
0.0
 10
10.4560118574
 20
11.6015406214
 30
0.0
 10
10.4708587213
 20
11.6029862613
 30
0.0
 10
10.4859925709
 20
11.6042171514
 30
0.0
 10
10.5013669376
 20
11.6052294714
 30
0.0
 10
10.5169346505
 20
11.6060201167
 30
0.0
 10
10.5379356221
 20
11.6067771565
 30
0.0
 10
10.5643174729
 20
11.6071538026
 30
0.0
 10
10.590699327
 20
11.6067771926
 30
0.0
 10
10.6117003086
 20
11.6060201716
 30
0.0
 10
10.6272680343
 20
11.6052295419
 30
0.0
 10
10.6426424202
 20
11.6042172427
 30
0.0
 10
10.6577762947
 20
11.6029863765
 30
0.0
 10
10.6726231852
 20
11.6015407542
 30
0.0
 10
10.6871375221
 20
11.5998848515
 30
0.0
 10
10.7012747661
 20
11.5980237993
 30
0.0
 10
10.7149915492
 20
11.5959633624
 30
0.0
 10
10.7282458062
 20
11.5937099251
 30
0.0
 10
10.7409969167
 20
11.5912704678
 30
0.0
 10
10.7532058198
 20
11.5886525585
 30
0.0
 10
10.7648352251
 20
11.5858643125
 30
0.0
 10
10.7758494548
 20
11.5829144156
 30
0.0
 10
10.7829515274
 20
11.5807887941
 30
0.0
 10
10.7863908823
 20
11.5796964067
 30
0.0
  0
SPLINE
  5
317
100
AcDbEntity
  8
0
100
AcDbSpline
 62
7
  6
CONTINUOUS
 70
0
 71
3
 72
21
 73
17
 74
0
 42
0.0000001
 43
0.0000001
 44
0.0000000001
 40
0.0
 40
0.0
 40
0.0
 40
0.0
 40
0.05905061
 40
0.1194668354
 40
0.1810642052
 40
0.2436533045
 40
0.3070406247
 40
0.3710293919
 40
0.5000091064
 40
0.6289876496
 40
0.6929749765
 40
0.7563602951
 40
0.8189468205
 40
0.8805410443
 40
0.9409535799
 40
1.0
 40
1.0
 40
1.0
 40
1.0
 10
10.450697386
 20
11.560920273
 30
0.0
 10
10.4551453597
 20
11.5614946467
 30
0.0
 10
10.4641551628
 20
11.5625730145
 30
0.0
 10
10.4778366748
 20
11.5639684614
 30
0.0
 10
10.4918074441
 20
11.5651572405
 30
0.0
 10
10.5060206899
 20
11.566135326
 30
0.0
 10
10.520428939
 20
11.5668994526
 30
0.0
 10
10.539886091
 20
11.5676313276
 30
0.0
 10
10.5643392319
 20
11.5679949537
 30
0.0
 10
10.5887922477
 20
11.567630273
 30
0.0
 10
10.6082490177
 20
11.5668975638
 30
0.0
 10
10.6226567767
 20
11.5661328216
 30
0.0
 10
10.6368693926
 20
11.5651541237
 30
0.0
 10
10.6508393934
 20
11.5639647404
 30
0.0
 10
10.6645200028
 20
11.5625686973
 30
0.0
 10
10.6735291576
 20
11.5614899474
 30
0.0
 10
10.6779767846
 20
11.5609153735
 30
0.0
  0
SPLINE
  5
318
100
AcDbEntity
  8
0
100
AcDbSpline
 62
7
  6
CONTINUOUS
 70
0
 71
3
 72
96
 73
92
 74
0
 42
0.0000001
 43
0.0000001
 44
0.0000000001
 40
0.0
 40
0.0
 40
0.0
 40
0.0
 40
0.0041939101
 40
0.0085762185
 40
0.0131520071
 40
0.0179255563
 40
0.0229003893
 40
0.0280791131
 40
0.033463478
 40
0.0390546203
 40
0.0448530493
 40
0.0508588131
 40
0.0570714182
 40
0.0634899836
 40
0.0701132179
 40
0.0769394737
 40
0.0911924413
 40
0.1062302249
 40
0.1220294586
 40
0.1385631663
 40
0.1558011875
 40
0.1737105257
 40
0.1922556421
 40
0.2113987096
 40
0.2310998378
 40
0.2513172759
 40
0.2720076
 40
0.2931258928
 40
0.3146259124
 40
0.3364602554
 40
0.3585805141
 40
0.3809374316
 40
0.4034810536
 40
0.4261608789
 40
0.4489260096
 40
0.4717253006
 40
0.4945075085
 40
0.5172214395
 40
0.5398160978
 40
0.5622408338
 40
0.5844454935
 40
0.6063805688
 40
0.6279973515
 40
0.6492480863
 40
0.6700861275
 40
0.6904660994
 40
0.7103440625
 40
0.7296776877
 40
0.7484264399
 40
0.7665517772
 40
0.7840173717
 40
0.8007893504
 40
0.8168365737
 40
0.8321309635
 40
0.846647899
 40
0.8536084409
 40
0.8603672369
 40
0.8669224089
 40
0.8732724573
 40
0.8794161901
 40
0.8853528825
 40
0.8910821929
 40
0.8966043184
 40
0.9019199799
 40
0.9070305149
 40
0.9119379772
 40
0.9166451614
 40
0.9211558094
 40
0.9254746137
 40
0.9296074743
 40
0.9335615571
 40
0.9373455289
 40
0.9409697121
 40
0.9444462458
 40
0.9477892877
 40
0.9510150547
 40
0.9541419242
 40
0.9571902805
 40
0.9601823282
 40
0.9631416689
 40
0.9660927706
 40
0.9690603219
 40
0.9720685748
 40
0.9751407161
 40
0.9782983949
 40
0.981561315
 40
0.9849471138
 40
0.9884713682
 40
0.9921476515
 40
0.9959874267
 40
1.0
 40
1.0
 40
1.0
 40
1.0
 10
10.4179206203
 20
11.3917480463
 30
0.0
 10
10.4191890591
 20
11.3929732642
 30
0.0
 10
10.4218459926
 20
11.3954140896
 30
0.0
 10
10.4260834997
 20
11.3989703268
 30
0.0
 10
10.4306564751
 20
11.4024983042
 30
0.0
 10
10.4355619455
 20
11.4059958245
 30
0.0
 10
10.4407970833
 20
11.4094609434
 30
0.0
 10
10.4463588315
 20
11.4128916716
 30
0.0
 10
10.4522438932
 20
11.4162860364
 30
0.0
 10
10.4584487924
 20
11.4196419516
 30
0.0
 10
10.464969809
 20
11.4229575037
 30
0.0
 10
10.4718030897
 20
11.4262306464
 30
0.0
 10
10.4789445416
 20
11.4294594897
 30
0.0
 10
10.4863899091
 20
11.4326420473
 30
0.0
 10
10.4941347426
 20
11.4357764559
 30
0.0
 10
10.5050113021
 20
11.4399490582
 30
0.0
 10
10.5193308612
 20
11.4450179603
 30
0.0
 10
10.5373923642
 20
11.4507951744
 30
0.0
 10
10.5565277783
 20
11.4563372297
 30
0.0
 10
10.5766911883
 20
11.4616306998
 30
0.0
 10
10.5978343851
 20
11.4666627396
 30
0.0
 10
10.6199066594
 20
11.4714211368
 30
0.0
 10
10.6428550375
 20
11.4758943421
 30
0.0
 10
10.666624392
 20
11.4800714999
 30
0.0
 10
10.69115759
 20
11.4839424753
 30
0.0
 10
10.7163956343
 20
11.4874978786
 30
0.0
 10
10.7422778106
 20
11.4907290904
 30
0.0
 10
10.7687418385
 20
11.4936282794
 30
0.0
 10
10.795724026
 20
11.4961884202
 30
0.0
 10
10.8231594248
 20
11.4984033106
 30
0.0
 10
10.8509819885
 20
11.5002675851
 30
0.0
 10
10.879124733
 20
11.5017767282
 30
0.0
 10
10.9075198984
 20
11.5029270845
 30
0.0
 10
10.9360991132
 20
11.5037158673
 30
0.0
 10
10.9647935598
 20
11.5041411683
 30
0.0
 10
10.9935341425
 20
11.5042019586
 30
0.0
 10
11.022251654
 20
11.5038980916
 30
0.0
 10
11.0508769434
 20
11.5032303032
 30
0.0
 10
11.0793410829
 20
11.5022002099
 30
0.0
 10
11.1075755341
 20
11.5008103053
 30
0.0
 10
11.1355123139
 20
11.4990639541
 30
0.0
 10
11.1630841601
 20
11.4969653843
 30
0.0
 10
11.1902246949
 20
11.4945196802
 30
0.0
 10
11.2168685868
 20
11.4917327677
 30
0.0
 10
11.242951709
 20
11.4886114005
 30
0.0
 10
11.2684112951
 20
11.4851631439
 30
0.0
 10
11.2931860935
 20
11.4813963579
 30
0.0
 10
11.3172165172
 20
11.4773201767
 30
0.0
 10
11.3404447931
 20
11.4729444879
 30
0.0
 10
11.3628151059
 20
11.4682799073
 30
0.0
 10
11.3842737498
 20
11.4633377577
 30
0.0
 10
11.4047692409
 20
11.4581300345
 30
0.0
 10
11.4242525458
 20
11.452669378
 30
0.0
 10
11.4426768963
 20
11.4469690209
 30
0.0
 10
11.4573096923
 20
11.4419628737
 30
0.0
 10
11.4684442553
 20
11.4378384077
 30
0.0
 10
11.4763861715
 20
11.4347371745
 30
0.0
 10
11.484031685
 20
11.4315865045
 30
0.0
 10
11.4913762446
 20
11.4283883214
 30
0.0
 10
11.4984154379
 20
11.4251444801
 30
0.0
 10
11.5051450837
 20
11.4218569931
 30
0.0
 10
11.5115611523
 20
11.4185277624
 30
0.0
 10
11.5176598392
 20
11.4151588096
 30
0.0
 10
11.5234375207
 20
11.4117521172
 30
0.0
 10
11.5288907641
 20
11.4083096729
 30
0.0
 10
11.5340163703
 20
11.4048335364
 30
0.0
 10
11.5388112759
 20
11.4013256478
 30
0.0
 10
11.5432727034
 20
11.3977880984
 30
0.0
 10
11.5473979652
 20
11.3942227968
 30
0.0
 10
11.5511846617
 20
11.3906317903
 30
0.0
 10
11.5546304856
 20
11.3870169836
 30
0.0
 10
11.5577333277
 20
11.3833803197
 30
0.0
 10
11.5604912306
 20
11.379723724
 30
0.0
 10
11.5629022633
 20
11.3760490577
 30
0.0
 10
11.564964738
 20
11.3723583211
 30
0.0
 10
11.5666768329
 20
11.36865346
 30
0.0
 10
11.5680370605
 20
11.3649366989
 30
0.0
 10
11.5690438403
 20
11.3612103593
 30
0.0
 10
11.5696960076
 20
11.3574770913
 30
0.0
 10
11.5699926454
 20
11.3537397478
 30
0.0
 10
11.5699332905
 20
11.3500013763
 30
0.0
 10
11.5695181186
 20
11.3462650563
 30
0.0
 10
11.5687475985
 20
11.3425337996
 30
0.0
 10
11.5676228881
 20
11.3388103589
 30
0.0
 10
11.566145173
 20
11.3350973198
 30
0.0
 10
11.5643161179
 20
11.3313969424
 30
0.0
 10
11.5621373041
 20
11.327711353
 30
0.0
 10
11.5596104414
 20
11.3240424933
 30
0.0
 10
11.5567372743
 20
11.3203922338
 30
0.0
 10
11.5535199021
 20
11.3167627283
 30
0.0
 10
11.5511994197
 20
11.3144112994
 30
0.0
 10
11.5499858258
 20
11.3132390577
 30
0.0
  0
SPLINE
  5
319
100
AcDbEntity
  8
0
100
AcDbSpline
 62
7
  6
CONTINUOUS
 70
0
 71
3
 72
61
 73
57
 74
0
 42
0.0000001
 43
0.0000001
 44
0.0000000001
 40
0.0
 40
0.0
 40
0.0
 40
0.0
 40
0.0338317676
 40
0.0668781844
 40
0.0991339996
 40
0.1306117485
 40
0.1613295913
 40
0.1913115929
 40
0.2205841092
 40
0.249175329
 40
0.2632250934
 40
0.2771162295
 40
0.3044399871
 40
0.317882996
 40
0.3311873937
 40
0.3443597631
 40
0.357407576
 40
0.3703399533
 40
0.3831677328
 40
0.3959045205
 40
0.4022441832
 40
0.4085678803
 40
0.421179414
 40
0.4337690045
 40
0.4463763867
 40
0.4590556076
 40
0.4654453282
 40
0.4718829226
 40
0.4849545743
 40
0.4916241611
 40
0.4984069836
 40
0.5053229845
 40
0.5123923439
 40
0.5196333887
 40
0.5270612739
 40
0.5346844336
 40
0.5425048398
 40
0.5586958193
 40
0.5755118015
 40
0.5927772845
 40
0.6103349727
 40
0.6280715256
 40
0.6459138744
 40
0.6638173447
 40
0.6817553418
 40
0.699709888
 40
0.7176693057
 40
0.7356246842
 40
0.753568514
 40
0.789390301
 40
0.8250907314
 40
0.8606203719
 40
0.895928136
 40
0.9309616578
 40
0.9656687914
 40
1.0
 40
1.0
 40
1.0
 40
1.0
 10
11.0508178166
 20
9.2209046007
 30
0.0
 10
11.0462432423
 20
9.2206787598
 30
0.0
 10
11.037204044
 20
9.220152233
 30
0.0
 10
11.0238207037
 20
9.2191427151
 30
0.0
 10
11.0107733263
 20
9.2179401692
 30
0.0
 10
10.9980608682
 20
9.216557721
 30
0.0
 10
10.9856783585
 20
9.2150042455
 30
0.0
 10
10.9736192741
 20
9.2132846994
 30
0.0
 10
10.9618765595
 20
9.2113988693
 30
0.0
 10
10.9522937767
 20
9.2096765695
 30
0.0
 10
10.944782761
 20
9.2082068667
 30
0.0
 10
10.937455918
 20
9.2066919045
 30
0.0
 10
10.9302351312
 20
9.2050710755
 30
0.0
 10
10.9231252501
 20
9.2033283794
 30
0.0
 10
10.917894739
 20
9.2019679164
 30
0.0
 10
10.9127375027
 20
9.2005407374
 30
0.0
 10
10.9076533026
 20
9.1990410949
 30
0.0
 10
10.9026430165
 20
9.1974588688
 30
0.0
 10
10.8977071152
 20
9.1957845756
 30
0.0
 10
10.8936510585
 20
9.194298472
 30
0.0
 10
10.8904475596
 20
9.1930483402
 30
0.0
 10
10.887278555
 20
9.1917575019
 30
0.0
 10
10.8833654465
 20
9.1900517372
 30
0.0
 10
10.878751866
 20
9.1878316788
 30
0.0
 10
10.8742336511
 20
9.1854030156
 30
0.0
 10
10.8705667765
 20
9.183174351
 30
0.0
 10
10.8677046285
 20
9.1812414031
 30
0.0
 10
10.8648683586
 20
9.1791792565
 30
0.0
 10
10.8621232352
 20
9.1769298584
 30
0.0
 10
10.859504376
 20
9.1744714814
 30
0.0
 10
10.8575877876
 20
9.1724872712
 30
0.0
 10
10.8557418232
 20
9.1703647491
 30
0.0
 10
10.8539783775
 20
9.1680938636
 30
0.0
 10
10.8523099703
 20
9.1656674819
 30
0.0
 10
10.8507508319
 20
9.1630814086
 30
0.0
 10
10.8493140524
 20
9.1603364161
 30
0.0
 10
10.8475583728
 20
9.156427711
 30
0.0
 10
10.8457458138
 20
9.1511924721
 30
0.0
 10
10.8442099472
 20
9.1445511715
 30
0.0
 10
10.8432625247
 20
9.137616298
 30
0.0
 10
10.8428496217
 20
9.1305067056
 30
0.0
 10
10.842909186
 20
9.1233087952
 30
0.0
 10
10.843384589
 20
9.1160804952
 30
0.0
 10
10.8442286239
 20
9.1088591489
 30
0.0
 10
10.8454049783
 20
9.1016695155
 30
0.0
 10
10.8468848242
 20
9.0945287496
 30
0.0
 10
10.8486460856
 20
9.0874499532
 30
0.0
 10
10.8506721163
 20
9.0804439168
 30
0.0
 10
10.85370601
 20
9.0712186804
 30
0.0
 10
10.8580963358
 20
9.0599190528
 30
0.0
 10
10.8642621789
 20
9.0467913358
 30
0.0
 10
10.8712769213
 20
9.0341758757
 30
0.0
 10
10.8791008721
 20
9.0221529088
 30
0.0
 10
10.8876965171
 20
9.0108070875
 30
0.0
 10
10.8970223446
 20
9.0002290325
 30
0.0
 10
10.9037370701
 20
8.9937107466
 30
0.0
 10
10.9072020013
 20
8.9906130176
 30
0.0
  0
SPLINE
  5
31A
100
AcDbEntity
  8
0
100
AcDbSpline
 62
7
  6
CONTINUOUS
 70
0
 71
3
 72
15
 73
11
 74
0
 42
0.0000001
 43
0.0000001
 44
0.0000000001
 40
0.0
 40
0.0
 40
0.0
 40
0.0
 40
0.1276406736
 40
0.2566338267
 40
0.386307962
 40
0.5156979296
 40
0.6434958485
 40
0.7680591759
 40
0.8875187839
 40
1.0
 40
1.0
 40
1.0
 40
1.0
 10
11.0750230261
 20
9.2217116846
 30
0.0
 10
11.0789806115
 20
9.2217785104
 30
0.0
 10
11.0869390135
 20
9.2218467101
 30
0.0
 10
11.0989186099
 20
9.2217363991
 30
0.0
 10
11.1109482235
 20
9.2213926713
 30
0.0
 10
11.1229309366
 20
9.220794429
 30
0.0
 10
11.1347382478
 20
9.2199236894
 30
0.0
 10
11.1462121043
 20
9.2187692239
 30
0.0
 10
11.1571750647
 20
9.2173302861
 30
0.0
 10
11.1642718528
 20
9.2161485496
 30
0.0
 10
11.1677000022
 20
9.215504882
 30
0.0
  0
SPLINE
  5
31B
100
AcDbEntity
  8
0
100
AcDbSpline
 62
7
  6
CONTINUOUS
 70
0
 71
3
 72
81
 73
77
 74
0
 42
0.0000001
 43
0.0000001
 44
0.0000000001
 40
0.0
 40
0.0
 40
0.0
 40
0.0
 40
0.0028079998
 40
0.005635686
 40
0.0085022932
 40
0.0114262233
 40
0.0144247005
 40
0.0175135582
 40
0.0207071273
 40
0.0240181474
 40
0.0274578637
 40
0.0310360368
 40
0.03476108
 40
0.0386401938
 40
0.0426794173
 40
0.0468838431
 40
0.0512576363
 40
0.0558041819
 40
0.0605261871
 40
0.0654256836
 40
0.0705042041
 40
0.0757627403
 40
0.086821024
 40
0.0986012361
 40
0.1110979219
 40
0.1243011894
 40
0.1381973624
 40
0.1527694912
 40
0.167997778
 40
0.1838598971
 40
0.2003312599
 40
0.2173852391
 40
0.2349933479
 40
0.2531254346
 40
0.2717498266
 40
0.2908334633
 40
0.3103420298
 40
0.3302400628
 40
0.3504910855
 40
0.3710577144
 40
0.3919017609
 40
0.4129843382
 40
0.4557058933
 40
0.4989020277
 40
0.5422469278
 40
0.5854133331
 40
0.6280757217
 40
0.6491178466
 40
0.669914326
 40
0.690426391
 40
0.7106159908
 40
0.7304458897
 40
0.7498797931
 40
0.7688824474
 40
0.7874197521
 40
0.8054588835
 40
0.822968429
 40
0.8399185322
 40
0.856281045
 40
0.8720296923
 40
0.8871402675
 40
0.9015908789
 40
0.9153622253
 40
0.9284379335
 40
0.9408049732
 40
0.9524541883
 40
0.9580083132
 40
0.9633817274
 40
0.9685747211
 40
0.9735880022
 40
0.978422747
 40
0.9830806188
 40
0.9875640011
 40
0.9918758972
 40
0.9960198449
 40
1.0
 40
1.0
 40
1.0
 40
1.0
 10
11.5389532113
 20
11.310146727
 30
0.0
 10
11.5389532161
 20
11.3112249093
 30
0.0
 10
11.5388588123
 20
11.31339
 30
0.0
 10
11.5384345493
 20
11.3166307635
 30
0.0
 10
11.537728037
 20
11.3198675696
 30
0.0
 10
11.5367398828
 20
11.3230981227
 30
0.0
 10
11.5354710423
 20
11.3263207132
 30
0.0
 10
11.5339225585
 20
11.3295336588
 30
0.0
 10
11.5320954929
 20
11.3327353648
 30
0.0
 10
11.5299911323
 20
11.3359243998
 30
0.0
 10
11.5276106617
 20
11.3390992672
 30
0.0
 10
11.5249554608
 20
11.3422585713
 30
0.0
 10
11.5220269501
 20
11.3454008968
 30
0.0
 10
11.5188266066
 20
11.3485247655
 30
0.0
 10
11.5153561089
 20
11.351628799
 30
0.0
 10
11.5116171473
 20
11.354711478
 30
0.0
 10
11.5076116142
 20
11.3577713715
 30
0.0
 10
11.5033415003
 20
11.3608070098
 30
0.0
 10
11.4988089059
 20
11.3638168764
 30
0.0
 10
11.4940161213
 20
11.3667995469
 30
0.0
 10
11.4889654975
 20
11.3697535251
 30
0.0
 10
11.4817697481
 20
11.3737186015
 30
0.0
 10
11.4721344427
 20
11.3785803492
 30
0.0
 10
11.4597740094
 20
11.3841829005
 30
0.0
 10
11.4464530517
 20
11.3896366693
 30
0.0
 10
11.4321982494
 20
11.3949306527
 30
0.0
 10
11.4170379274
 20
11.4000541651
 30
0.0
 10
11.4010024513
 20
11.4049968136
 30
0.0
 10
11.3841239968
 20
11.4097485494
 30
0.0
 10
11.3664365073
 20
11.4142996999
 30
0.0
 10
11.3479756029
 20
11.4186409906
 30
0.0
 10
11.3287785115
 20
11.4227635776
 30
0.0
 10
11.3088839805
 20
11.4266590682
 30
0.0
 10
11.2883321891
 20
11.4303195278
 30
0.0
 10
11.2671646591
 20
11.4337375021
 30
0.0
 10
11.2454241703
 20
11.4369060276
 30
0.0
 10
11.2231546778
 20
11.4398186542
 30
0.0
 10
11.2004012181
 20
11.4424694591
 30
0.0
 10
11.1772098106
 20
11.4448530513
 30
0.0
 10
11.153627376
 20
11.446964574
 30
0.0
 10
11.1297015807
 20
11.4487997582
 30
0.0
 10
11.0972654731
 20
11.4508822057
 30
0.0
 10
11.056219532
 20
11.4527629152
 30
0.0
 10
11.0065946732
 20
11.4538648136
 30
0.0
 10
10.956786633
 20
11.4538122682
 30
0.0
 10
10.907198343
 20
11.4526057403
 30
0.0
 10
10.8662061755
 20
11.4506381867
 30
0.0
 10
10.8338312013
 20
11.4484868073
 30
0.0
 10
10.8099642498
 20
11.4466010809
 30
0.0
 10
10.7864493853
 20
11.4444397595
 30
0.0
 10
10.7633341416
 20
11.4420072063
 30
0.0
 10
10.7406652868
 20
11.4393083745
 30
0.0
 10
10.7184886646
 20
11.4363487584
 30
0.0
 10
10.6968491166
 20
11.4331343833
 30
0.0
 10
10.6757903914
 20
11.4296717919
 30
0.0
 10
10.6553550536
 20
11.4259680315
 30
0.0
 10
10.6355843914
 20
11.4220306409
 30
0.0
 10
10.6165183239
 20
11.4178676456
 30
0.0
 10
10.5981953216
 20
11.4134875273
 30
0.0
 10
10.5806523258
 20
11.4088992091
 30
0.0
 10
10.563924669
 20
11.4041120327
 30
0.0
 10
10.5480459789
 20
11.3991357361
 30
0.0
 10
10.5330481226
 20
11.3939804414
 30
0.0
 10
10.5189610149
 20
11.3886565968
 30
0.0
 10
10.5058129491
 20
11.3831749759
 30
0.0
 10
10.495502452
 20
11.3784118983
 30
0.0
 10
10.4877549918
 20
11.3745215103
 30
0.0
 10
10.482287984
 20
11.3716176505
 30
0.0
 10
10.4770746062
 20
11.3686827128
 30
0.0
 10
10.4721174697
 20
11.3657181262
 30
0.0
 10
10.4674190381
 20
11.3627254275
 30
0.0
 10
10.462981666
 20
11.3597060181
 30
0.0
 10
10.4588074985
 20
11.3566613938
 30
0.0
 10
10.4548986014
 20
11.3535929485
 30
0.0
 10
10.4512571206
 20
11.3505023608
 30
0.0
 10
10.4489635603
 20
11.3483863643
 30
0.0
 10
10.4478643577
 20
11.3473246161
 30
0.0
  0
SPLINE
  5
31C
100
AcDbEntity
  8
0
100
AcDbSpline
 62
7
  6
CONTINUOUS
 70
0
 71
3
 72
32
 73
28
 74
0
 42
0.0000001
 43
0.0000001
 44
0.0000000001
 40
0.0
 40
0.0
 40
0.0
 40
0.0
 40
0.0167114045
 40
0.0340706179
 40
0.052153506
 40
0.0710256138
 40
0.0907428986
 40
0.1113523404
 40
0.132893335
 40
0.1553979787
 40
0.1788924908
 40
0.2033975214
 40
0.2289289767
 40
0.2554987335
 40
0.2831146902
 40
0.3117818265
 40
0.3415018649
 40
0.3722741709
 40
0.404095664
 40
0.4369610745
 40
0.5057909067
 40
0.5786896516
 40
0.6555558808
 40
0.7362680014
 40
0.8206849819
 40
0.9086535675
 40
1.0
 40
1.0
 40
1.0
 40
1.0
 10
11.0526902932
 20
11.6506827852
 30
0.0
 10
11.0521929345
 20
11.6517369205
 30
0.0
 10
11.0510923101
 20
11.653846097
 30
0.0
 10
11.0491760964
 20
11.6569413501
 30
0.0
 10
11.0469671079
 20
11.6600222449
 30
0.0
 10
11.0444670081
 20
11.6630868856
 30
0.0
 10
11.041677367
 20
11.6661337131
 30
0.0
 10
11.0385999903
 20
11.6691611485
 30
0.0
 10
11.0352366774
 20
11.6721674819
 30
0.0
 10
11.0315894976
 20
11.6751511288
 30
0.0
 10
11.0276605725
 20
11.6781103572
 30
0.0
 10
11.023452245
 20
11.6810435024
 30
0.0
 10
11.0189670077
 20
11.6839488805
 30
0.0
 10
11.0142074983
 20
11.6868247496
 30
0.0
 10
11.0091765714
 20
11.6896694814
 30
0.0
 10
11.0038771912
 20
11.6924813165
 30
0.0
 10
10.9983125419
 20
11.695258643
 30
0.0
 10
10.9924859363
 20
11.6979997534
 30
0.0
 10
10.9864008584
 20
11.7007030415
 30
0.0
 10
10.9778149486
 20
11.7043104707
 30
0.0
 10
10.9664536454
 20
11.7087016508
 30
0.0
 10
10.9520531754
 20
11.7137170323
 30
0.0
 10
10.9367175751
 20
11.7185442367
 30
0.0
 10
10.9204837625
 20
11.7231715074
 30
0.0
 10
10.9033904538
 20
11.7275876682
 30
0.0
 10
10.8854789473
 20
11.731781854
 30
0.0
 10
10.8732432
 20
11.7343761516
 30
0.0
 10
10.8669981309
 20
11.7356374634
 30
0.0
  0
SPLINE
  5
31D
100
AcDbEntity
  8
0
100
AcDbSpline
 62
7
  6
CONTINUOUS
 70
0
 71
3
 72
38
 73
34
 74
0
 42
0.0000001
 43
0.0000001
 44
0.0000000001
 40
0.0
 40
0.0
 40
0.0
 40
0.0
 40
0.0958323293
 40
0.1891018787
 40
0.2792424495
 40
0.3229695159
 40
0.365713634
 40
0.4074121541
 40
0.4480051085
 40
0.4874350853
 40
0.5256475433
 40
0.5625912692
 40
0.5982183184
 40
0.6324846966
 40
0.6653506321
 40
0.6967808602
 40
0.7267456118
 40
0.7552209101
 40
0.782189593
 40
0.8076426204
 40
0.8315800733
 40
0.8540134059
 40
0.8749676676
 40
0.8944844212
 40
0.9126261185
 40
0.9294806019
 40
0.9451669871
 40
0.9598416824
 40
0.9737026418
 40
0.9804061219
 40
0.9869995855
 40
0.9935185882
 40
1.0
 40
1.0
 40
1.0
 40
1.0
 10
9.8386384945
 20
9.7919096167
 30
0.0
 10
9.8288712162
 20
9.7925869798
 30
0.0
 10
9.8096119178
 20
9.794138404
 30
0.0
 10
9.78123457
 20
9.7970999141
 30
0.0
 10
9.7582190842
 20
9.8000867066
 30
0.0
 10
9.740376429
 20
9.802775345
 30
0.0
 10
9.7274565836
 20
9.8049097789
 30
0.0
 10
9.7148849466
 20
9.8071789487
 30
0.0
 10
9.7026824975
 20
9.809579028
 30
0.0
 10
9.6908696162
 20
9.8121059867
 30
0.0
 10
9.6794660178
 20
9.8147555962
 30
0.0
 10
9.6684907182
 20
9.817523359
 30
0.0
 10
9.6579620132
 20
9.8204046607
 30
0.0
 10
9.6478974284
 20
9.8233946424
 30
0.0
 10
9.6383136908
 20
9.8264882597
 30
0.0
 10
9.6292267134
 20
9.8296803706
 30
0.0
 10
9.6206515244
 20
9.832965583
 30
0.0
 10
9.61260227
 20
9.8363384317
 30
0.0
 10
9.605092176
 20
9.8397933463
 30
0.0
 10
9.5981334771
 20
9.8433245894
 30
0.0
 10
9.5917374583
 20
9.8469264872
 30
0.0
 10
9.5859143684
 20
9.8505933049
 30
0.0
 10
9.5806734247
 20
9.8543193888
 30
0.0
 10
9.5760229283
 20
9.8580993713
 30
0.0
 10
9.5719702131
 20
9.8619281016
 30
0.0
 10
9.5685220236
 20
9.8658008617
 30
0.0
 10
9.5656848599
 20
9.8697136554
 30
0.0
 10
9.5634655017
 20
9.8736615198
 30
0.0
 10
9.5621222319
 20
9.8770155103
 30
0.0
 10
9.5613790145
 20
9.8796910149
 30
0.0
 10
9.5609848454
 20
9.8816788663
 30
0.0
 10
9.5607482255
 20
9.8836685834
 30
0.0
 10
9.5606955569
 20
9.8849973696
 30
0.0
 10
9.5606955563
 20
9.8856595449
 30
0.0
  0
SPLINE
  5
31E
100
AcDbEntity
  8
0
100
AcDbSpline
 62
7
  6
CONTINUOUS
 70
0
 71
3
 72
39
 73
35
 74
0
 42
0.0000001
 43
0.0000001
 44
0.0000000001
 40
0.0
 40
0.0
 40
0.0
 40
0.0
 40
0.007175745
 40
0.0146740737
 40
0.0225036116
 40
0.030671472
 40
0.0391835578
 40
0.0480444976
 40
0.0572573741
 40
0.0668240337
 40
0.0767454382
 40
0.0870215229
 40
0.1086328224
 40
0.1316444885
 40
0.1560318876
 40
0.1817621643
 40
0.2087953062
 40
0.2370851424
 40
0.2665800902
 40
0.2972237176
 40
0.3289551842
 40
0.3617097517
 40
0.3954191818
 40
0.4300120556
 40
0.4654140508
 40
0.5015483063
 40
0.5383357156
 40
0.5756951801
 40
0.6135438541
 40
0.6903688654
 40
0.7681254679
 40
0.8461157008
 40
0.9236385661
 40
1.0
 40
1.0
 40
1.0
 40
1.0
 10
11.8675473234
 20
9.7516851699
 30
0.0
 10
11.8667356326
 20
9.7509011367
 30
0.0
 10
11.8650353925
 20
9.7493392015
 30
0.0
 10
11.8623236753
 20
9.7470634588
 30
0.0
 10
11.8593972632
 20
9.7448057384
 30
0.0
 10
11.856258057
 20
9.7425675552
 30
0.0
 10
11.8529079346
 20
9.7403501049
 30
0.0
 10
11.8493488053
 20
9.7381546929
 30
0.0
 10
11.8455827684
 20
9.7359825533
 30
0.0
 10
11.8416120686
 20
9.7338349652
 30
0.0
 10
11.8374390436
 20
9.731713246
 30
0.0
 10
11.8315085591
 20
9.728872599
 30
0.0
 10
11.823598413
 20
9.7254054639
 30
0.0
 10
11.8134953372
 20
9.7214346218
 30
0.0
 10
11.802651746
 20
9.7175960578
 30
0.0
 10
11.791093546
 20
9.7138990438
 30
0.0
 10
11.7788482073
 20
9.7103525079
 30
0.0
 10
11.7659450013
 20
9.706965045
 30
0.0
 10
11.7524148046
 20
9.7037448779
 30
0.0
 10
11.7382900528
 20
9.7006998343
 30
0.0
 10
11.7236046544
 20
9.6978372918
 30
0.0
 10
11.7083938917
 20
9.6951641942
 30
0.0
 10
11.6926943223
 20
9.6926870303
 30
0.0
 10
11.6765436968
 20
9.6904118192
 30
0.0
 10
11.6599808719
 20
9.6883440663
 30
0.0
 10
11.6430457026
 20
9.6864887786
 30
0.0
 10
11.6257789528
 20
9.6848504632
 30
0.0
 10
11.6082221486
 20
9.6834330717
 30
0.0
 10
11.5843650471
 20
9.6818345948
 30
0.0
 10
11.5541312745
 20
9.6804174452
 30
0.0
 10
11.5175594518
 20
9.6796447854
 30
0.0
 10
11.4808698509
 20
9.6797994788
 30
0.0
 10
11.4444156051
 20
9.6808799781
 30
0.0
 10
11.420248507
 20
9.6822245898
 30
0.0
 10
11.4082680552
 20
9.683055437
 30
0.0
  0
SPLINE
  5
31F
100
AcDbEntity
  8
0
100
AcDbSpline
 62
7
  6
CONTINUOUS
 70
0
 71
3
 72
16
 73
12
 74
0
 42
0.0000001
 43
0.0000001
 44
0.0000000001
 40
0.0
 40
0.0
 40
0.0
 40
0.0
 40
0.1098864251
 40
0.2213925505
 40
0.3360632443
 40
0.4553048854
 40
0.5170524264
 40
0.5803907344
 40
0.7123015689
 40
0.8519456354
 40
1.0
 40
1.0
 40
1.0
 40
1.0
 10
12.4383385178
 20
10.3158049523
 30
0.0
 10
12.4383385188
 20
10.3147443011
 30
0.0
 10
12.4382022724
 20
10.312604975
 30
0.0
 10
12.4375915912
 20
10.3094112747
 30
0.0
 10
12.4365760573
 20
10.3062277819
 30
0.0
 10
12.4354084279
 20
10.3036174496
 30
0.0
 10
12.4342848337
 20
10.3015431451
 30
0.0
 10
12.4329982809
 20
10.2994212303
 30
0.0
 10
12.4311301569
 20
10.2967776102
 30
0.0
 10
12.4285256585
 20
10.2936709953
 30
0.0
 10
12.4265885804
 20
10.29167759
 30
0.0
 10
12.4255607241
 20
10.290684757
 30
0.0
  0
SPLINE
  5
320
100
AcDbEntity
  8
0
100
AcDbSpline
 62
7
  6
CONTINUOUS
 70
0
 71
3
 72
16
 73
12
 74
0
 42
0.0000001
 43
0.0000001
 44
0.0000000001
 40
0.0
 40
0.0
 40
0.0
 40
0.0
 40
0.1098864251
 40
0.2213925505
 40
0.3360632443
 40
0.4553048854
 40
0.5170524264
 40
0.5803907344
 40
0.7123015689
 40
0.8519456354
 40
1.0
 40
1.0
 40
1.0
 40
1.0
 10
12.4383385178
 20
11.5531560441
 30
0.0
 10
12.4383385188
 20
11.5520953929
 30
0.0
 10
12.4382022724
 20
11.5499560668
 30
0.0
 10
12.4375915912
 20
11.5467623664
 30
0.0
 10
12.4365760573
 20
11.5435788737
 30
0.0
 10
12.4354084279
 20
11.5409685414
 30
0.0
 10
12.4342848336
 20
11.5388942369
 30
0.0
 10
12.4329982809
 20
11.5367723221
 30
0.0
 10
12.4311301569
 20
11.534128702
 30
0.0
 10
12.4285256585
 20
11.5310220871
 30
0.0
 10
12.4265885804
 20
11.5290286818
 30
0.0
 10
12.4255607241
 20
11.5280358488
 30
0.0
  0
SPLINE
  5
321
100
AcDbEntity
  8
0
100
AcDbSpline
 62
7
  6
CONTINUOUS
 70
0
 71
3
 72
23
 73
19
 74
0
 42
0.0000001
 43
0.0000001
 44
0.0000000001
 40
0.0
 40
0.0
 40
0.0
 40
0.0
 40
0.0749628051
 40
0.1455694763
 40
0.2121612381
 40
0.2751647772
 40
0.3350999254
 40
0.3925851505
 40
0.4483313412
 40
0.5031255342
 40
0.5577999583
 40
0.6131929736
 40
0.6701081672
 40
0.729279347
 40
0.7913525608
 40
0.8568785119
 40
0.9263106069
 40
1.0
 40
1.0
 40
1.0
 40
1.0
 10
12.3947590316
 20
11.6069566631
 30
0.0
 10
12.3957523978
 20
11.6060322406
 30
0.0
 10
12.3976263314
 20
11.604176319
 30
0.0
 10
12.4001548929
 20
11.60128086
 30
0.0
 10
12.4023110381
 20
11.5983624149
 30
0.0
 10
12.4040916798
 20
11.5954236193
 30
0.0
 10
12.4054937026
 20
11.592466977
 30
0.0
 10
12.4065141182
 20
11.5894955943
 30
0.0
 10
12.4071498816
 20
11.586513232
 30
0.0
 10
12.4073989219
 20
11.5835246569
 30
0.0
 10
12.4072600736
 20
11.5805352818
 30
0.0
 10
12.4067340679
 20
11.5775506237
 30
0.0
 10
12.4058226557
 20
11.5745757078
 30
0.0
 10
12.4045288369
 20
11.5716145419
 30
0.0
 10
12.40285549
 20
11.568670404
 30
0.0
 10
12.4008057132
 20
11.5657458314
 30
0.0
 10
12.3983826555
 20
11.5628436666
 30
0.0
 10
12.39657644
 20
11.5609828809
 30
0.0
 10
12.3956170217
 20
11.560056154
 30
0.0
  0
SPLINE
  5
322
100
AcDbEntity
  8
0
100
AcDbSpline
 62
7
  6
CONTINUOUS
 70
0
 71
3
 72
40
 73
36
 74
0
 42
0.0000001
 43
0.0000001
 44
0.0000000001
 40
0.0
 40
0.0
 40
0.0
 40
0.0
 40
0.0299422956
 40
0.059908968
 40
0.0899238
 40
0.1200094056
 40
0.1350882594
 40
0.1501924656
 40
0.1804801452
 40
0.2108943177
 40
0.241448122
 40
0.2721514726
 40
0.3030108797
 40
0.334029354
 40
0.3652063934
 40
0.3965380465
 40
0.4280170486
 40
0.4596330217
 40
0.4913727316
 40
0.5232203951
 40
0.5551580282
 40
0.5871658292
 40
0.6192225887
 40
0.6513061205
 40
0.6833937063
 40
0.715462548
 40
0.7474902197
 40
0.779455117
 40
0.8113368874
 40
0.8431168691
 40
0.8747784143
 40
0.9063074703
 40
0.9376922765
 40
0.9689251917
 40
1.0
 40
1.0
 40
1.0
 40
1.0
 10
11.5925356398
 20
9.1486277591
 30
0.0
 10
11.5902047915
 20
9.146376336
 30
0.0
 10
11.5853598216
 20
9.1420552019
 30
0.0
 10
11.5775973562
 20
9.1361683828
 30
0.0
 10
11.5693798936
 20
9.130906067
 30
0.0
 10
11.5621950358
 20
9.1270680177
 30
0.0
 10
11.5562695234
 20
9.1243377012
 30
0.0
 10
11.5502215786
 20
9.1218327687
 30
0.0
 10
11.5424623488
 20
9.1191392517
 30
0.0
 10
11.5329002649
 20
9.1166289565
 30
0.0
 10
11.5231295326
 20
9.1148505986
 30
0.0
 10
11.5132042992
 20
9.1138139883
 30
0.0
 10
11.503179087
 20
9.1135246566
 30
0.0
 10
11.4931090577
 20
9.1139840752
 30
0.0
 10
11.4830495585
 20
9.1151895897
 30
0.0
 10
11.4730558618
 20
9.1171344575
 30
0.0
 10
11.463182854
 20
9.1198078849
 30
0.0
 10
11.4534847414
 20
9.1231950908
 30
0.0
 10
11.4440147557
 20
9.1272773902
 30
0.0
 10
11.4348248666
 20
9.1320322981
 30
0.0
 10
11.4259655005
 20
9.1374336537
 30
0.0
 10
11.4174852675
 20
9.1434517631
 30
0.0
 10
11.4094306982
 20
9.1500535624
 30
0.0
 10
11.4018459902
 20
9.157202796
 30
0.0
 10
11.394772768
 20
9.1648602144
 30
0.0
 10
11.3882498582
 20
9.1729837896
 30
0.0
 10
11.3823130778
 20
9.1815289425
 30
0.0
 10
11.3769950415
 20
9.1904487849
 30
0.0
 10
11.3723249776
 20
9.1996943749
 30
0.0
 10
11.3683285864
 20
9.2092149762
 30
0.0
 10
11.3650278547
 20
9.21895836
 30
0.0
 10
11.3624410345
 20
9.2288709779
 30
0.0
 10
11.360582346
 20
9.238898649
 30
0.0
 10
11.3594622156
 20
9.2489855154
 30
0.0
 10
11.3592113074
 20
9.2557316403
 30
0.0
 10
11.3592113074
 20
9.2590948536
 30
0.0
  0
SPLINE
  5
323
100
AcDbEntity
  8
0
100
AcDbSpline
 62
7
  6
CONTINUOUS
 70
0
 71
3
 72
40
 73
36
 74
0
 42
0.0000001
 43
0.0000001
 44
0.0000000001
 40
0.0
 40
0.0
 40
0.0
 40
0.0
 40
0.0299422956
 40
0.059908968
 40
0.0899238
 40
0.1200094056
 40
0.1350882594
 40
0.1501924656
 40
0.1804801452
 40
0.2108943177
 40
0.241448122
 40
0.2721514726
 40
0.3030108797
 40
0.334029354
 40
0.3652063934
 40
0.3965380465
 40
0.4280170486
 40
0.4596330217
 40
0.4913727316
 40
0.5232203951
 40
0.5551580282
 40
0.5871658292
 40
0.6192225887
 40
0.6513061205
 40
0.6833937063
 40
0.715462548
 40
0.7474902197
 40
0.779455117
 40
0.8113368874
 40
0.8431168691
 40
0.8747784143
 40
0.9063074703
 40
0.9376922765
 40
0.9689251917
 40
1.0
 40
1.0
 40
1.0
 40
1.0
 10
9.8422780478
 20
9.2700085354
 30
0.0
 10
9.8399471995
 20
9.2677571123
 30
0.0
 10
9.8351022296
 20
9.2634359782
 30
0.0
 10
9.8273397642
 20
9.2575491591
 30
0.0
 10
9.8191223016
 20
9.2522868433
 30
0.0
 10
9.8119374438
 20
9.248448794
 30
0.0
 10
9.8060119314
 20
9.2457184775
 30
0.0
 10
9.7999639866
 20
9.2432135449
 30
0.0
 10
9.7922047568
 20
9.2405200279
 30
0.0
 10
9.7826426729
 20
9.2380097327
 30
0.0
 10
9.7728719406
 20
9.2362313749
 30
0.0
 10
9.7629467072
 20
9.2351947646
 30
0.0
 10
9.752921495
 20
9.2349054329
 30
0.0
 10
9.7428514657
 20
9.2353648515
 30
0.0
 10
9.7327919665
 20
9.236570366
 30
0.0
 10
9.7227982698
 20
9.2385152338
 30
0.0
 10
9.712925262
 20
9.2411886612
 30
0.0
 10
9.7032271494
 20
9.244575867
 30
0.0
 10
9.6937571637
 20
9.2486581664
 30
0.0
 10
9.6845672746
 20
9.2534130744
 30
0.0
 10
9.6757079085
 20
9.2588144299
 30
0.0
 10
9.6672276755
 20
9.2648325393
 30
0.0
 10
9.6591731062
 20
9.2714343387
 30
0.0
 10
9.6515883982
 20
9.2785835723
 30
0.0
 10
9.644515176
 20
9.2862409907
 30
0.0
 10
9.6379922662
 20
9.2943645659
 30
0.0
 10
9.6320554857
 20
9.3029097187
 30
0.0
 10
9.6267374494
 20
9.3118295612
 30
0.0
 10
9.6220673856
 20
9.3210751512
 30
0.0
 10
9.6180709944
 20
9.3305957525
 30
0.0
 10
9.6147702627
 20
9.3403391363
 30
0.0
 10
9.6121834425
 20
9.3502517542
 30
0.0
 10
9.610324754
 20
9.3602794253
 30
0.0
 10
9.6092046236
 20
9.3703662917
 30
0.0
 10
9.6089537154
 20
9.3771124166
 30
0.0
 10
9.6089537154
 20
9.3804756299
 30
0.0
  0
SPLINE
  5
324
100
AcDbEntity
  8
0
100
AcDbSpline
 62
7
  6
CONTINUOUS
 70
0
 71
3
 72
15
 73
11
 74
0
 42
0.0000001
 43
0.0000001
 44
0.0000000001
 40
0.0
 40
0.0
 40
0.0
 40
0.0
 40
0.1502735978
 40
0.2902563596
 40
0.4210671969
 40
0.5441778124
 40
0.6613960578
 40
0.7748455395
 40
0.8868925152
 40
1.0
 40
1.0
 40
1.0
 40
1.0
 10
10.265847033
 20
11.6559465488
 30
0.0
 10
10.2648223113
 20
11.6549567436
 30
0.0
 10
10.2629148736
 20
11.6529678756
 30
0.0
 10
10.2604228791
 20
11.6498412677
 30
0.0
 10
10.258411462
 20
11.6466853141
 30
0.0
 10
10.2568862194
 20
11.6435038202
 30
0.0
 10
10.2558526923
 20
11.6403012619
 30
0.0
 10
10.2553166519
 20
11.6370838876
 30
0.0
 10
10.2552814785
 20
11.6338615002
 30
0.0
 10
10.2555889711
 20
11.6317394071
 30
0.0
 10
10.2558197965
 20
11.6306922061
 30
0.0
  0
SPLINE
  5
325
100
AcDbEntity
  8
0
100
AcDbSpline
 62
7
  6
CONTINUOUS
 70
0
 71
3
 72
40
 73
36
 74
0
 42
0.0000001
 43
0.0000001
 44
0.0000000001
 40
0.0
 40
0.0
 40
0.0
 40
0.0
 40
0.0299422956
 40
0.059908968
 40
0.0899238
 40
0.1200094056
 40
0.1350882594
 40
0.1501924656
 40
0.1804801452
 40
0.2108943177
 40
0.241448122
 40
0.2721514726
 40
0.3030108797
 40
0.334029354
 40
0.3652063934
 40
0.3965380465
 40
0.4280170486
 40
0.4596330217
 40
0.4913727316
 40
0.5232203951
 40
0.5551580282
 40
0.5871658292
 40
0.6192225887
 40
0.6513061205
 40
0.6833937063
 40
0.715462548
 40
0.7474902197
 40
0.779455117
 40
0.8113368874
 40
0.8431168691
 40
0.8747784143
 40
0.9063074703
 40
0.9376922765
 40
0.9689251917
 40
1.0
 40
1.0
 40
1.0
 40
1.0
 10
9.8422780478
 20
7.2174160329
 30
0.0
 10
9.8399471995
 20
7.2151646098
 30
0.0
 10
9.8351022296
 20
7.2108434757
 30
0.0
 10
9.8273397642
 20
7.2049566566
 30
0.0
 10
9.8191223016
 20
7.1996943408
 30
0.0
 10
9.8119374438
 20
7.1958562915
 30
0.0
 10
9.8060119314
 20
7.193125975
 30
0.0
 10
9.7999639866
 20
7.1906210425
 30
0.0
 10
9.7922047568
 20
7.1879275254
 30
0.0
 10
9.7826426729
 20
7.1854172302
 30
0.0
 10
9.7728719406
 20
7.1836388724
 30
0.0
 10
9.7629467072
 20
7.1826022621
 30
0.0
 10
9.752921495
 20
7.1823129304
 30
0.0
 10
9.7428514657
 20
7.182772349
 30
0.0
 10
9.7327919665
 20
7.1839778635
 30
0.0
 10
9.7227982698
 20
7.1859227313
 30
0.0
 10
9.712925262
 20
7.1885961587
 30
0.0
 10
9.7032271494
 20
7.1919833646
 30
0.0
 10
9.6937571637
 20
7.1960656639
 30
0.0
 10
9.6845672746
 20
7.2008205719
 30
0.0
 10
9.6757079085
 20
7.2062219274
 30
0.0
 10
9.6672276755
 20
7.2122400369
 30
0.0
 10
9.6591731062
 20
7.2188418362
 30
0.0
 10
9.6515883982
 20
7.2259910698
 30
0.0
 10
9.644515176
 20
7.2336484882
 30
0.0
 10
9.6379922662
 20
7.2417720634
 30
0.0
 10
9.6320554857
 20
7.2503172162
 30
0.0
 10
9.6267374494
 20
7.2592370587
 30
0.0
 10
9.6220673856
 20
7.2684826487
 30
0.0
 10
9.6180709944
 20
7.27800325
 30
0.0
 10
9.6147702627
 20
7.2877466338
 30
0.0
 10
9.6121834425
 20
7.2976592517
 30
0.0
 10
9.610324754
 20
7.3076869228
 30
0.0
 10
9.6092046236
 20
7.3177737892
 30
0.0
 10
9.6089537154
 20
7.3245199141
 30
0.0
 10
9.6089537154
 20
7.3278831274
 30
0.0
  0
SPLINE
  5
326
100
AcDbEntity
  8
0
100
AcDbSpline
 62
7
  6
CONTINUOUS
 70
0
 71
3
 72
40
 73
36
 74
0
 42
0.0000001
 43
0.0000001
 44
0.0000000001
 40
0.0
 40
0.0
 40
0.0
 40
0.0
 40
0.0299422956
 40
0.059908968
 40
0.0899238
 40
0.1200094056
 40
0.1350882594
 40
0.1501924656
 40
0.1804801452
 40
0.2108943177
 40
0.241448122
 40
0.2721514726
 40
0.3030108797
 40
0.334029354
 40
0.3652063934
 40
0.3965380465
 40
0.4280170486
 40
0.4596330217
 40
0.4913727316
 40
0.5232203951
 40
0.5551580282
 40
0.5871658292
 40
0.6192225887
 40
0.6513061205
 40
0.6833937063
 40
0.715462548
 40
0.7474902197
 40
0.779455117
 40
0.8113368874
 40
0.8431168691
 40
0.8747784143
 40
0.9063074703
 40
0.9376922765
 40
0.9689251917
 40
1.0
 40
1.0
 40
1.0
 40
1.0
 10
11.5925356398
 20
7.0960352566
 30
0.0
 10
11.5902047915
 20
7.0937838335
 30
0.0
 10
11.5853598216
 20
7.0894626994
 30
0.0
 10
11.5775973562
 20
7.0835758804
 30
0.0
 10
11.5693798936
 20
7.0783135645
 30
0.0
 10
11.5621950358
 20
7.0744755153
 30
0.0
 10
11.5562695234
 20
7.0717451987
 30
0.0
 10
11.5502215786
 20
7.0692402662
 30
0.0
 10
11.5424623488
 20
7.0665467492
 30
0.0
 10
11.5329002649
 20
7.064036454
 30
0.0
 10
11.5231295326
 20
7.0622580962
 30
0.0
 10
11.5132042992
 20
7.0612214859
 30
0.0
 10
11.503179087
 20
7.0609321541
 30
0.0
 10
11.4931090577
 20
7.0613915727
 30
0.0
 10
11.4830495585
 20
7.0625970872
 30
0.0
 10
11.4730558618
 20
7.064541955
 30
0.0
 10
11.463182854
 20
7.0672153824
 30
0.0
 10
11.4534847414
 20
7.0706025883
 30
0.0
 10
11.4440147557
 20
7.0746848877
 30
0.0
 10
11.4348248666
 20
7.0794397956
 30
0.0
 10
11.4259655005
 20
7.0848411512
 30
0.0
 10
11.4174852675
 20
7.0908592606
 30
0.0
 10
11.4094306982
 20
7.09746106
 30
0.0
 10
11.4018459902
 20
7.1046102935
 30
0.0
 10
11.394772768
 20
7.112267712
 30
0.0
 10
11.3882498582
 20
7.1203912872
 30
0.0
 10
11.3823130778
 20
7.12893644
 30
0.0
 10
11.3769950415
 20
7.1378562824
 30
0.0
 10
11.3723249776
 20
7.1471018724
 30
0.0
 10
11.3683285864
 20
7.1566224737
 30
0.0
 10
11.3650278547
 20
7.1663658575
 30
0.0
 10
11.3624410345
 20
7.1762784754
 30
0.0
 10
11.360582346
 20
7.1863061465
 30
0.0
 10
11.3594622156
 20
7.196393013
 30
0.0
 10
11.3592113074
 20
7.2031391379
 30
0.0
 10
11.3592113074
 20
7.2065023511
 30
0.0
  0
SPLINE
  5
327
100
AcDbEntity
  8
0
100
AcDbSpline
 62
7
  6
CONTINUOUS
 70
0
 71
3
 72
21
 73
17
 74
0
 42
0.0000001
 43
0.0000001
 44
0.0000000001
 40
0.0
 40
0.0
 40
0.0
 40
0.0
 40
0.061237216
 40
0.122715992
 40
0.1844209169
 40
0.2463464629
 40
0.3084776219
 40
0.3707984344
 40
0.4332911332
 40
0.4959358936
 40
0.5587120687
 40
0.6215986191
 40
0.684574009
 40
0.7476168699
 40
0.8737911866
 40
1.0
 40
1.0
 40
1.0
 40
1.0
 10
10.5599077152
 20
8.898931394
 30
0.0
 10
10.5630283782
 20
8.8987149753
 30
0.0
 10
10.5692710655
 20
8.8981028623
 30
0.0
 10
10.5785847757
 20
8.8966561831
 30
0.0
 10
10.5878380229
 20
8.8946855037
 30
0.0
 10
10.5970009411
 20
8.892200572
 30
0.0
 10
10.6060456348
 20
8.8892133074
 30
0.0
 10
10.6149453111
 20
8.8857382756
 30
0.0
 10
10.6236749168
 20
8.8817919811
 30
0.0
 10
10.6322111607
 20
8.8773925516
 30
0.0
 10
10.6405327452
 20
8.8725595767
 30
0.0
 10
10.6486203358
 20
8.8673137391
 30
0.0
 10
10.6564567101
 20
8.8616761768
 30
0.0
 10
10.6665509285
 20
8.8536652933
 30
0.0
 10
10.6784653935
 20
8.8427834077
 30
0.0
 10
10.6871902854
 20
8.8332667047
 30
0.0
 10
10.691340763
 20
8.8283333124
 30
0.0
  0
SPLINE
  5
328
100
AcDbEntity
  8
0
100
AcDbSpline
 62
7
  6
CONTINUOUS
 70
0
 71
3
 72
31
 73
27
 74
0
 42
0.0000001
 43
0.0000001
 44
0.0000000001
 40
0.0
 40
0.0
 40
0.0
 40
0.0
 40
0.0165871972
 40
0.034153845
 40
0.052730511
 40
0.0723389048
 40
0.0929937081
 40
0.1147031542
 40
0.1374704627
 40
0.1612940074
 40
0.1861684824
 40
0.2120847967
 40
0.2390310689
 40
0.2669923487
 40
0.2959515022
 40
0.3258888278
 40
0.3567828667
 40
0.3886099588
 40
0.4549591512
 40
0.5247176568
 40
0.5976421114
 40
0.6734695769
 40
0.7519200885
 40
0.8326987929
 40
0.9154982726
 40
1.0
 40
1.0
 40
1.0
 40
1.0
 10
9.5744081444
 20
5.8442993441
 30
0.0
 10
9.5755263077
 20
5.843258784
 30
0.0
 10
9.5778979646
 20
5.841189857
 30
0.0
 10
9.5817304461
 20
5.8382049089
 30
0.0
 10
9.5859339507
 20
5.8352540929
 30
0.0
 10
9.5905039852
 20
5.8323403841
 30
0.0
 10
9.5954359952
 20
5.8294667018
 30
0.0
 10
9.6007248931
 20
5.8266358929
 30
0.0
 10
9.6063652786
 20
5.823850932
 30
0.0
 10
9.6123513075
 20
5.8211146244
 30
0.0
 10
9.6186768015
 20
5.818429894
 30
0.0
 10
9.6253351726
 20
5.8157994727
 30
0.0
 10
9.6323195024
 20
5.8132261937
 30
0.0
 10
9.6396224914
 20
5.8107126882
 30
0.0
 10
9.6472365198
 20
5.8082616726
 30
0.0
 10
9.6551536111
 20
5.8058756648
 30
0.0
 10
9.6633654919
 20
5.8035572212
 30
0.0
 10
9.6748560228
 20
5.8005170808
 30
0.0
 10
9.6898976895
 20
5.7969156727
 30
0.0
 10
9.7087373134
 20
5.792957578
 30
0.0
 10
9.7285298087
 20
5.7893222811
 30
0.0
 10
9.7491921343
 20
5.7860252179
 30
0.0
 10
9.7706377187
 20
5.7830804301
 30
0.0
 10
9.7927766163
 20
5.7805004308
 30
0.0
 10
9.8155158032
 20
5.7782961936
 30
0.0
 10
9.830875788
 20
5.7770940995
 30
0.0
 10
9.8386384945
 20
5.776555754
 30
0.0
  0
SPLINE
  5
329
100
AcDbEntity
  8
0
100
AcDbSpline
 62
7
  6
CONTINUOUS
 70
0
 71
3
 72
20
 73
16
 74
0
 42
0.0000001
 43
0.0000001
 44
0.0000000001
 40
0.0
 40
0.0
 40
0.0
 40
0.0
 40
0.1227748398
 40
0.2476654136
 40
0.3747691321
 40
0.4391576126
 40
0.5040670568
 40
0.5694162702
 40
0.6350340878
 40
0.7005879429
 40
0.7654998094
 40
0.828893118
 40
0.8896845928
 40
0.9468940825
 40
1.0
 40
1.0
 40
1.0
 40
1.0
 10
10.8552380773
 20
9.3098107885
 30
0.0
 10
10.8525870727
 20
9.3060778048
 30
0.0
 10
10.8474762991
 20
9.2983769226
 30
0.0
 10
10.8404052433
 20
9.2863150952
 30
0.0
 10
10.8349246708
 20
9.2758624598
 30
0.0
 10
10.8307136551
 20
9.2672776506
 30
0.0
 10
10.8276088964
 20
9.2607161144
 30
0.0
 10
10.8245471102
 20
9.254084074
 30
0.0
 10
10.8214985903
 20
9.2474195405
 30
0.0
 10
10.8184298671
 20
9.2407821664
 30
0.0
 10
10.8153081162
 20
9.2342610514
 30
0.0
 10
10.8121085946
 20
9.2279756827
 30
0.0
 10
10.8088245979
 20
9.2220594875
 30
0.0
 10
10.805474485
 20
9.2166258205
 30
0.0
 10
10.8031358802
 20
9.213238541
 30
0.0
 10
10.8019664122
 20
9.2116402731
 30
0.0
  0
SPLINE
  5
32A
100
AcDbEntity
  8
0
100
AcDbSpline
 62
7
  6
CONTINUOUS
 70
0
 71
3
 72
18
 73
14
 74
0
 42
0.0000001
 43
0.0000001
 44
0.0000000001
 40
0.0
 40
0.0
 40
0.0
 40
0.0
 40
0.1480425417
 40
0.2876686527
 40
0.4195630688
 40
0.482894787
 40
0.5446363783
 40
0.6638665887
 40
0.7785244486
 40
0.8345987159
 40
0.8900707785
 40
0.9451373559
 40
1.0
 40
1.0
 40
1.0
 40
1.0
 10
10.4478643577
 20
11.3473246161
 30
0.0
 10
10.4463430949
 20
11.3458551889
 30
0.0
 10
10.4434761942
 20
11.3429049735
 30
0.0
 10
10.4396215995
 20
11.3383071851
 30
0.0
 10
10.4368568227
 20
11.3343947037
 30
0.0
 10
10.4349527342
 20
11.3312543128
 30
0.0
 10
10.4332898309
 20
11.3281842786
 30
0.0
 10
10.4315616487
 20
11.3243212808
 30
0.0
 10
10.4302998422
 20
11.3203648748
 30
0.0
 10
10.4295994163
 20
11.3172082023
 30
0.0
 10
10.4292266676
 20
11.3148555944
 30
0.0
 10
10.429002998
 20
11.3125016779
 30
0.0
 10
10.4289532415
 20
11.3109306885
 30
0.0
 10
10.4289532348
 20
11.3101468767
 30
0.0
  0
SPLINE
  5
32B
100
AcDbEntity
  8
0
100
AcDbSpline
 62
7
  6
CONTINUOUS
 70
0
 71
3
 72
25
 73
21
 74
0
 42
0.0000001
 43
0.0000001
 44
0.0000000001
 40
0.0
 40
0.0
 40
0.0
 40
0.0
 40
0.0758075673
 40
0.1477812756
 40
0.216181845
 40
0.2491492269
 40
0.2813520734
 40
0.3436561363
 40
0.4035638846
 40
0.4615957275
 40
0.5183313159
 40
0.5743947195
 40
0.630434711
 40
0.6871009521
 40
0.7450199334
 40
0.8047748462
 40
0.8668912393
 40
0.8989889344
 40
0.9318440541
 40
1.0
 40
1.0
 40
1.0
 40
1.0
 10
10.4390940503
 20
11.369106234
 30
0.0
 10
10.4377205068
 20
11.3677794927
 30
0.0
 10
10.4351148191
 20
11.3651168432
 30
0.0
 10
10.4315606335
 20
11.3609856381
 30
0.0
 10
10.4289526792
 20
11.3574776213
 30
0.0
 10
10.42710949
 20
11.3546615417
 30
0.0
 10
10.4254629231
 20
11.3519037319
 30
0.0
 10
10.4236844795
 20
11.3484378537
 30
0.0
 10
10.4219981985
 20
11.3442143753
 30
0.0
 10
10.4207862471
 20
11.3399759593
 30
0.0
 10
10.4200510245
 20
11.3357271087
 30
0.0
 10
10.419794316
 20
11.331472695
 30
0.0
 10
10.4200166773
 20
11.327218086
 30
0.0
 10
10.4207176311
 20
11.3229686631
 30
0.0
 10
10.4218954837
 20
11.3187293548
 30
0.0
 10
10.4235478147
 20
11.3145046763
 30
0.0
 10
10.4252986508
 20
11.3110372933
 30
0.0
 10
10.4269232748
 20
11.3082782981
 30
0.0
 10
10.428743697
 20
11.3054614145
 30
0.0
 10
10.430252734
 20
11.3034085991
 30
0.0
 10
10.4313173508
 20
11.3020615957
 30
0.0
  0
SPLINE
  5
32C
100
AcDbEntity
  8
0
100
AcDbSpline
 62
7
  6
CONTINUOUS
 70
0
 71
3
 72
91
 73
87
 74
0
 42
0.0000001
 43
0.0000001
 44
0.0000000001
 40
0.0
 40
0.0
 40
0.0
 40
0.0
 40
0.0035635324
 40
0.0069856624
 40
0.0102802009
 40
0.0134628672
 40
0.0165513026
 40
0.0195650693
 40
0.0225254021
 40
0.0254548153
 40
0.0283766113
 40
0.0313142895
 40
0.0342909337
 40
0.0373286593
 40
0.0404481417
 40
0.0436682977
 40
0.0470061277
 40
0.0504766158
 40
0.0540928478
 40
0.0578660355
 40
0.0618057446
 40
0.0659199993
 40
0.0702154636
 40
0.0746976258
 40
0.0793708662
 40
0.0842386892
 40
0.0893037141
 40
0.0945678794
 40
0.1000324528
 40
0.1056981261
 40
0.1115651062
 40
0.1176330878
 40
0.1239014114
 40
0.1303689772
 40
0.1438954017
 40
0.1581979809
 40
0.173257403
 40
0.189050623
 40
0.2055513218
 40
0.2227302733
 40
0.2405556615
 40
0.2589933242
 40
0.2780070029
 40
0.297558533
 40
0.3176080347
 40
0.3381140862
 40
0.359033875
 40
0.3803233637
 40
0.4019374261
 40
0.423830001
 40
0.4459542343
 40
0.4682626138
 40
0.5132384312
 40
0.5583703552
 40
0.5808734487
 40
0.6032695198
 40
0.6255102944
 40
0.6475479295
 40
0.6693351622
 40
0.6908254303
 40
0.7119730345
 40
0.7327332647
 40
0.753062553
 40
0.7729186235
 40
0.7922606443
 40
0.8110493961
 40
0.8292474504
 40
0.8468193589
 40
0.8637318721
 40
0.8799541687
 40
0.8954581394
 40
0.9102187189
 40
0.9242142815
 40
0.9374271611
 40
0.9437361214
 40
0.9498449473
 40
0.9557528659
 40
0.9614595005
 40
0.9669649718
 40
0.9722698394
 40
0.9773752635
 40
0.9822829773
 40
0.9869955446
 40
0.9915163727
 40
0.9958495702
 40
1.0
 40
1.0
 40
1.0
 40
1.0
 10
11.5367553552
 20
11.3022727339
 30
0.0
 10
11.537636937
 20
11.3033966029
 30
0.0
 10
11.5393010795
 20
11.3056511543
 30
0.0
 10
11.5415290999
 20
11.3091211023
 30
0.0
 10
11.5434343892
 20
11.3126057798
 30
0.0
 10
11.5450154223
 20
11.3161031536
 30
0.0
 10
11.5462707117
 20
11.3196113164
 30
0.0
 10
11.547198958
 20
11.3231280712
 30
0.0
 10
11.5477991245
 20
11.3266510375
 30
0.0
 10
11.5480703484
 20
11.3301776408
 30
0.0
 10
11.5480123875
 20
11.3337051432
 30
0.0
 10
11.5476251757
 20
11.3372307696
 30
0.0
 10
11.5469093639
 20
11.3407518383
 30
0.0
 10
11.5458657617
 20
11.3442658197
 30
0.0
 10
11.5444955715
 20
11.3477704143
 30
0.0
 10
11.5428001677
 20
11.3512635485
 30
0.0
 10
11.5407809482
 20
11.3547432534
 30
0.0
 10
11.5384395525
 20
11.3582077762
 30
0.0
 10
11.5357775028
 20
11.361655285
 30
0.0
 10
11.5327965892
 20
11.3650841107
 30
0.0
 10
11.5294985692
 20
11.3684924615
 30
0.0
 10
11.5258854041
 20
11.3718785956
 30
0.0
 10
11.5219591844
 20
11.375240749
 30
0.0
 10
11.5177221182
 20
11.3785770725
 30
0.0
 10
11.5131766549
 20
11.3818858231
 30
0.0
 10
11.5083253266
 20
11.3851650971
 30
0.0
 10
11.5031709264
 20
11.388413138
 30
0.0
 10
11.4977163601
 20
11.3916280689
 30
0.0
 10
11.4919647465
 20
11.3948080879
 30
0.0
 10
11.4859193727
 20
11.3979513962
 30
0.0
 10
11.4795836834
 20
11.4010561555
 30
0.0
 10
11.4729613308
 20
11.4041206369
 30
0.0
 10
11.4660560871
 20
11.4071430399
 30
0.0
 10
11.456331408
 20
11.411174872
 30
0.0
 10
11.4434874918
 20
11.4160843831
 30
0.0
 10
11.4272354723
 20
11.421696374
 30
0.0
 10
11.4099589364
 20
11.427100603
 30
0.0
 10
11.3916976923
 20
11.4322844997
 30
0.0
 10
11.3724936377
 20
11.4372359842
 30
0.0
 10
11.3523910009
 20
11.4419435092
 30
0.0
 10
11.3314361248
 20
11.4463960934
 30
0.0
 10
11.3096773727
 20
11.4505833547
 30
0.0
 10
11.287165001
 20
11.4544955288
 30
0.0
 10
11.263951033
 20
11.4581234964
 30
0.0
 10
11.2400891342
 20
11.4614588011
 30
0.0
 10
11.2156344859
 20
11.4644936713
 30
0.0
 10
11.1906436515
 20
11.4672210362
 30
0.0
 10
11.1651744499
 20
11.469634542
 30
0.0
 10
11.1392858107
 20
11.4717285738
 30
0.0
 10
11.1130376567
 20
11.4734982491
 30
0.0
 10
11.0864906885
 20
11.474939482
 30
0.0
 10
11.050682764
 20
11.4764225294
 30
0.0
 10
11.0056289855
 20
11.4774311491
 30
0.0
 10
10.9604860939
 20
11.4773198162
 30
0.0
 10
10.9244060156
 20
11.4765554197
 30
0.0
 10
10.8975087375
 20
11.4756469813
 30
0.0
 10
10.8708115862
 20
11.4744050984
 30
0.0
 10
10.8443763044
 20
11.4728326294
 30
0.0
 10
10.8182640887
 20
11.4709332412
 30
0.0
 10
10.7925353652
 20
11.4687113511
 30
0.0
 10
10.7672496724
 20
11.4661721345
 30
0.0
 10
10.7424655126
 20
11.463321505
 30
0.0
 10
10.7182402199
 20
11.4601661023
 30
0.0
 10
10.6946298248
 20
11.4567132775
 30
0.0
 10
10.671688922
 20
11.4529710759
 30
0.0
 10
10.6494705408
 20
11.4489482194
 30
0.0
 10
10.6280260165
 20
11.4446540857
 30
0.0
 10
10.6074048615
 20
11.4400986914
 30
0.0
 10
10.5876546489
 20
11.4352926621
 30
0.0
 10
10.5688208828
 20
11.4302472076
 30
0.0
 10
10.5509469137
 20
11.4249740899
 30
0.0
 10
10.5340737082
 20
11.4194855887
 30
0.0
 10
10.5182401177
 20
11.4137944638
 30
0.0
 10
10.5057564284
 20
11.40882035
 30
0.0
 10
10.4963275669
 20
11.4047391842
 30
0.0
 10
10.4896473241
 20
11.4016831111
 30
0.0
 10
10.483253
 20
11.3985864117
 30
0.0
 10
10.4771482621
 20
11.3954507936
 30
0.0
 10
10.4713365831
 20
11.3922781144
 30
0.0
 10
10.4658213171
 20
11.3890701095
 30
0.0
 10
10.4606055904
 20
11.3858286891
 30
0.0
 10
10.4556923818
 20
11.3825556267
 30
0.0
 10
10.4510844403
 20
11.3792527413
 30
0.0
 10
10.4467843301
 20
11.3759217886
 30
0.0
 10
10.4427947424
 20
11.3725647802
 30
0.0
 10
10.4402906217
 20
11.3702620332
 30
0.0
 10
10.4390940503
 20
11.369106234
 30
0.0
  0
SPLINE
  5
32D
100
AcDbEntity
  8
0
100
AcDbSpline
 62
7
  6
CONTINUOUS
 70
0
 71
3
 72
43
 73
39
 74
0
 42
0.0000001
 43
0.0000001
 44
0.0000000001
 40
0.0
 40
0.0
 40
0.0
 40
0.0
 40
0.0301726101
 40
0.0453098317
 40
0.0604810474
 40
0.0909275719
 40
0.1215280453
 40
0.1368910017
 40
0.1522944503
 40
0.183217693
 40
0.2143018384
 40
0.2455416008
 40
0.2769283025
 40
0.3084502206
 40
0.3400929834
 40
0.3718399942
 40
0.4036728647
 40
0.4355718466
 40
0.4675162508
 40
0.4994848479
 40
0.5314562481
 40
0.5634092575
 40
0.5953232132
 40
0.6271782985
 40
0.6589558415
 40
0.6906385988
 40
0.7222110275
 40
0.7536595474
 40
0.7849727919
 40
0.8161418479
 40
0.8471604811
 40
0.8626147223
 40
0.8780303662
 40
0.9087411573
 40
0.9393007835
 40
0.9545284056
 40
0.9697208446
 40
1.0
 40
1.0
 40
1.0
 40
1.0
 10
10.0778990832
 20
8.1253795464
 30
0.0
 10
10.0731087701
 20
8.1234779961
 30
0.0
 10
10.0657951927
 20
8.1209122338
 30
0.0
 10
10.0558571846
 20
8.1180826599
 30
0.0
 10
10.0457683305
 20
8.1156398667
 30
0.0
 10
10.0329408244
 20
8.1133316368
 30
0.0
 10
10.0199397848
 20
8.1120312368
 30
0.0
 10
10.009464327
 20
8.1115929961
 30
0.0
 10
9.9989246445
 20
8.1115566268
 30
0.0
 10
9.9857071029
 20
8.1122679583
 30
0.0
 10
9.9698968673
 20
8.1143163137
 30
0.0
 10
9.9542034938
 20
8.1175428893
 30
0.0
 10
9.9387150506
 20
8.1219232109
 30
0.0
 10
9.9235162052
 20
8.1274264043
 30
0.0
 10
9.9086887341
 20
8.1340157328
 30
0.0
 10
9.894310903
 20
8.1416491119
 30
0.0
 10
9.8804572605
 20
8.1502796229
 30
0.0
 10
9.8671984183
 20
8.159856002
 30
0.0
 10
9.8546009196
 20
8.1703230964
 30
0.0
 10
9.8427271536
 20
8.1816222799
 30
0.0
 10
9.8316353118
 20
8.1936918227
 30
0.0
 10
9.8213793695
 20
8.2064672155
 30
0.0
 10
9.8120090846
 20
8.2198814472
 30
0.0
 10
9.8035699982
 20
8.2338652406
 30
0.0
 10
9.7961034313
 20
8.2483472529
 30
0.0
 10
9.7896464655
 20
8.2632542383
 30
0.0
 10
9.7842319025
 20
8.2785112101
 30
0.0
 10
9.7798881964
 20
8.2940415094
 30
0.0
 10
9.7766393543
 20
8.3097671602
 30
0.0
 10
9.7745048021
 20
8.3256081491
 30
0.0
 10
9.7736657572
 20
8.3388562086
 30
0.0
 10
9.7735660199
 20
8.3494292007
 30
0.0
 10
9.77384635
 20
8.3599463538
 30
0.0
 10
9.7749086451
 20
8.3730147739
 30
0.0
 10
9.7769269473
 20
8.3859379246
 30
0.0
 10
9.7791108478
 20
8.396124976
 30
0.0
 10
9.7816654139
 20
8.4061754508
 30
0.0
 10
9.7840074207
 20
8.4135916602
 30
0.0
 10
9.785754321
 20
8.418459849
 30
0.0
  0
SPLINE
  5
32E
100
AcDbEntity
  8
0
100
AcDbSpline
 62
7
  6
CONTINUOUS
 70
0
 71
3
 72
15
 73
11
 74
0
 42
0.0000001
 43
0.0000001
 44
0.0000000001
 40
0.0
 40
0.0
 40
0.0
 40
0.0
 40
0.1273483281
 40
0.2538605602
 40
0.3795878981
 40
0.5046051042
 40
0.6290174419
 40
0.7529533761
 40
0.876560577
 40
1.0
 40
1.0
 40
1.0
 40
1.0
 10
9.6089537154
 20
9.3804756299
 30
0.0
 10
9.6089537154
 20
9.3848027589
 30
0.0
 10
9.6093668691
 20
9.3934345899
 30
0.0
 10
9.6112353224
 20
9.4062163189
 30
0.0
 10
9.6143335283
 20
9.4186768887
 30
0.0
 10
9.6186335036
 20
9.4306997694
 30
0.0
 10
9.6240957867
 20
9.4421740868
 30
0.0
 10
9.6306706107
 20
9.4529938742
 30
0.0
 10
9.6382961392
 20
9.4630577594
 30
0.0
 10
9.6440377775
 20
9.4692053448
 30
0.0
 10
9.6470545562
 20
9.4721193247
 30
0.0
  0
SPLINE
  5
32F
100
AcDbEntity
  8
0
100
AcDbSpline
 62
7
  6
CONTINUOUS
 70
0
 71
3
 72
34
 73
30
 74
0
 42
0.0000001
 43
0.0000001
 44
0.0000000001
 40
0.0
 40
0.0
 40
0.0
 40
0.0
 40
0.0962463527
 40
0.1880785306
 40
0.2753505963
 40
0.3579454245
 40
0.435767205
 40
0.472868847
 40
0.5087559538
 40
0.5434259056
 40
0.5768791689
 40
0.6091188104
 40
0.6401515852
 40
0.669987796
 40
0.6986420039
 40
0.7261337182
 40
0.7524875705
 40
0.7777347238
 40
0.8019129755
 40
0.8250682586
 40
0.847255275
 40
0.868538515
 40
0.8889934331
 40
0.9087067597
 40
0.9277774118
 40
0.9463159569
 40
0.9644440757
 40
0.9822928015
 40
1.0
 40
1.0
 40
1.0
 40
1.0
 10
10.9178632966
 20
11.7547131635
 30
0.0
 10
10.9232248523
 20
11.7532792918
 30
0.0
 10
10.933669841
 20
11.7503545577
 30
0.0
 10
10.9488441246
 20
11.7456738115
 30
0.0
 10
10.9631322399
 20
11.7408106371
 30
0.0
 10
10.9765012142
 20
11.7357764592
 30
0.0
 10
10.9870121324
 20
11.7313812089
 30
0.0
 10
10.9949278975
 20
11.7277787423
 30
0.0
 10
11.000521435
 20
11.7250844749
 30
0.0
 10
11.0058633249
 20
11.7223562248
 30
0.0
 10
11.0109505469
 20
11.7195955823
 30
0.0
 10
11.0157801778
 20
11.7168040656
 30
0.0
 10
11.020349489
 20
11.7139832971
 30
0.0
 10
11.0246558819
 20
11.7111348473
 30
0.0
 10
11.0286969055
 20
11.7082602883
 30
0.0
 10
11.0324703019
 20
11.7053612537
 30
0.0
 10
11.0359738918
 20
11.7024392559
 30
0.0
 10
11.0392057349
 20
11.6994959356
 30
0.0
 10
11.0421639384
 20
11.6965327865
 30
0.0
 10
11.044846804
 20
11.6935513766
 30
0.0
 10
11.0472527318
 20
11.6905532252
 30
0.0
 10
11.0493801697
 20
11.6875398105
 30
0.0
 10
11.0512277629
 20
11.6845127061
 30
0.0
 10
11.0527940548
 20
11.6814734095
 30
0.0
 10
11.054077841
 20
11.6784236065
 30
0.0
 10
11.0550778474
 20
11.6753650545
 30
0.0
 10
11.0557930183
 20
11.6722996105
 30
0.0
 10
11.0562225286
 20
11.6692297538
 30
0.0
 10
11.056318118
 20
11.667178187
 30
0.0
 10
11.0563181176
 20
11.6661571137
 30
0.0
  0
SPLINE
  5
330
100
AcDbEntity
  8
0
100
AcDbSpline
 62
7
  6
CONTINUOUS
 70
0
 71
3
 72
17
 73
13
 74
0
 42
0.0000001
 43
0.0000001
 44
0.0000000001
 40
0.0
 40
0.0
 40
0.0
 40
0.0
 40
0.052114793
 40
0.105837344
 40
0.1611225924
 40
0.2179298732
 40
0.3359294199
 40
0.4594530479
 40
0.588082228
 40
0.7213693565
 40
0.8588398334
 40
1.0
 40
1.0
 40
1.0
 40
1.0
 10
10.1883899195
 20
11.7483059159
 30
0.0
 10
10.1917923026
 20
11.7493489026
 30
0.0
 10
10.1987215045
 20
11.7514039982
 30
0.0
 10
10.2093213559
 20
11.7543540328
 30
0.0
 10
10.220276867
 20
11.7572159272
 30
0.0
 10
10.2355371325
 20
11.7609577453
 30
0.0
 10
10.2554256337
 20
11.7653802483
 30
0.0
 10
10.2802347818
 20
11.7702278007
 30
0.0
 10
10.3061808059
 20
11.7746611184
 30
0.0
 10
10.3331598977
 20
11.7786622406
 30
0.0
 10
10.3610642221
 20
11.7822149755
 30
0.0
 10
10.379982652
 20
11.784250511
 30
0.0
 10
10.3895754975
 20
11.785193827
 30
0.0
  0
SPLINE
  5
331
100
AcDbEntity
  8
0
100
AcDbSpline
 62
7
  6
CONTINUOUS
 70
0
 71
3
 72
37
 73
33
 74
0
 42
0.0000001
 43
0.0000001
 44
0.0000000001
 40
0.0
 40
0.0
 40
0.0
 40
0.0
 40
0.0325449927
 40
0.0650460104
 40
0.0974844202
 40
0.1298442167
 40
0.1621118619
 40
0.1942760924
 40
0.2263277249
 40
0.258259471
 40
0.3217138156
 40
0.3846421297
 40
0.4159222386
 40
0.447072184
 40
0.4780956347
 40
0.5089979822
 40
0.5397865
 40
0.5704705416
 40
0.6010617583
 40
0.6315743211
 40
0.6620251224
 40
0.6924339232
 40
0.7228233956
 40
0.753219
 40
0.7836486267
 40
0.8141419336
 40
0.84472933
 40
0.8754405864
 40
0.9063031068
 40
0.9373402848
 40
0.9685689354
 40
1.0
 40
1.0
 40
1.0
 40
1.0
 10
10.4284746399
 20
8.5334256176
 30
0.0
 10
10.4250731378
 20
8.5374687533
 30
0.0
 10
10.4185548574
 20
8.5457897684
 30
0.0
 10
10.4096557479
 20
8.5588909066
 30
0.0
 10
10.401655324
 20
8.5725247516
 30
0.0
 10
10.3945671149
 20
8.5866111377
 30
0.0
 10
10.3883995908
 20
8.6010755216
 30
0.0
 10
10.3831583671
 20
8.6158471154
 30
0.0
 10
10.3788466515
 20
8.6308598383
 30
0.0
 10
10.3743499484
 20
8.6510655286
 30
0.0
 10
10.3710431112
 20
8.6766209161
 30
0.0
 10
10.3708403771
 20
8.7022840718
 30
0.0
 10
10.3725547891
 20
8.7225746272
 30
0.0
 10
10.374771183
 20
8.7375944678
 30
0.0
 10
10.3779204181
 20
8.7523838904
 30
0.0
 10
10.3820019391
 20
8.7668832477
 30
0.0
 10
10.3870143822
 20
8.7810297226
 30
0.0
 10
10.3929550654
 20
8.7947577983
 30
0.0
 10
10.3998193091
 20
8.8079984979
 30
0.0
 10
10.4075995756
 20
8.8206790619
 30
0.0
 10
10.4162844051
 20
8.8327226801
 30
0.0
 10
10.4258571378
 20
8.844048463
 30
0.0
 10
10.4362944237
 20
8.8545717107
 30
0.0
 10
10.4475645568
 20
8.8642045929
 30
0.0
 10
10.4596257065
 20
8.8728573492
 30
0.0
 10
10.4724241887
 20
8.8804401129
 30
0.0
 10
10.4858929532
 20
8.8868654165
 30
0.0
 10
10.4999506241
 20
8.8920513408
 30
0.0
 10
10.5145010936
 20
8.8959252859
 30
0.0
 10
10.5294350189
 20
8.8984276875
 30
0.0
 10
10.5446293249
 20
8.8995161874
 30
0.0
 10
10.5548171184
 20
8.8992844281
 30
0.0
 10
10.5599077152
 20
8.898931394
 30
0.0
  0
SPLINE
  5
332
100
AcDbEntity
  8
0
100
AcDbSpline
 62
7
  6
CONTINUOUS
 70
0
 71
3
 72
39
 73
35
 74
0
 42
0.0000001
 43
0.0000001
 44
0.0000000001
 40
0.0
 40
0.0
 40
0.0
 40
0.0
 40
0.0316888229
 40
0.0631742329
 40
0.094456245
 40
0.1255413108
 40
0.156443801
 40
0.1871840623
 40
0.2177871694
 40
0.2482813459
 40
0.2786964917
 40
0.3090628943
 40
0.339410176
 40
0.3697664936
 40
0.4001579759
 40
0.4306083643
 40
0.4611388109
 40
0.4917677935
 40
0.5225111045
 40
0.5533818817
 40
0.5843906537
 40
0.6155453793
 40
0.6468514664
 40
0.6783117598
 40
0.7099264922
 40
0.7416931967
 40
0.773606582
 40
0.8056583787
 40
0.8378371691
 40
0.8701282229
 40
0.9025133703
 40
0.9349709524
 40
0.9674759015
 40
1.0
 40
1.0
 40
1.0
 40
1.0
 10
10.7567057816
 20
7.9166342855
 30
0.0
 10
10.757602806
 20
7.9114847983
 30
0.0
 10
10.7589181041
 20
7.9011297058
 30
0.0
 10
10.7594299289
 20
7.885535845
 30
0.0
 10
10.7584810304
 20
7.87006086
 30
0.0
 10
10.7560954015
 20
7.8548393035
 30
0.0
 10
10.7523147859
 20
7.839995457
 30
0.0
 10
10.7471953771
 20
7.8256435094
 30
0.0
 10
10.740805108
 20
7.8118854858
 30
0.0
 10
10.7332205205
 20
7.7988108659
 30
0.0
 10
10.7245239891
 20
7.7864967014
 30
0.0
 10
10.7148012914
 20
7.7750083469
 30
0.0
 10
10.7041396509
 20
7.7644005374
 30
0.0
 10
10.6926262662
 20
7.7547186669
 30
0.0
 10
10.6803472995
 20
7.7460001205
 30
0.0
 10
10.6673872647
 20
7.7382755625
 30
0.0
 10
10.6538287497
 20
7.7315701137
 30
0.0
 10
10.6397524019
 20
7.7259043795
 30
0.0
 10
10.6252371175
 20
7.7212953114
 30
0.0
 10
10.6103603839
 20
7.7177568971
 30
0.0
 10
10.5951987331
 20
7.7153006778
 30
0.0
 10
10.5798282752
 20
7.7139360997
 30
0.0
 10
10.564325285
 20
7.7136707002
 30
0.0
 10
10.5487668205
 20
7.71451013
 30
0.0
 10
10.533231352
 20
7.7164580099
 30
0.0
 10
10.5177993809
 20
7.7195156166
 30
0.0
 10
10.502554021
 20
7.7236813877
 30
0.0
 10
10.4875815073
 20
7.7289502431
 30
0.0
 10
10.4729716001
 20
7.735312702
 30
0.0
 10
10.458817785
 20
7.742753846
 30
0.0
 10
10.4452173729
 20
7.7512519561
 30
0.0
 10
10.432270774
 20
7.7607775545
 30
0.0
 10
10.4200822978
 20
7.7712902938
 30
0.0
 10
10.412529459
 20
7.778925982
 30
0.0
 10
10.4089142318
 20
7.7828897331
 30
0.0
  0
SPLINE
  5
333
100
AcDbEntity
  8
0
100
AcDbSpline
 62
7
  6
CONTINUOUS
 70
0
 71
3
 72
27
 73
23
 74
0
 42
0.0000001
 43
0.0000001
 44
0.0000000001
 40
0.0
 40
0.0
 40
0.0
 40
0.0
 40
0.0301240411
 40
0.0602681448
 40
0.0904418409
 40
0.1206544228
 40
0.1812128876
 40
0.2420294128
 40
0.2725627179
 40
0.3031819866
 40
0.3338929808
 40
0.3647007439
 40
0.4266034337
 40
0.4889320531
 40
0.551693558
 40
0.6148774531
 40
0.6784545592
 40
0.742377134
 40
0.8065796004
 40
0.8709807946
 40
0.9354871692
 40
1.0
 40
1.0
 40
1.0
 40
1.0
 10
11.1068065444
 20
7.2134380168
 30
0.0
 10
11.1044971045
 20
7.211431979
 30
0.0
 10
11.0997749475
 20
7.2075339846
 30
0.0
 10
11.0924048238
 20
7.2020479104
 30
0.0
 10
11.0847613038
 20
7.1969326584
 30
0.0
 10
11.0742218144
 20
7.1906188585
 30
0.0
 10
11.0604362129
 20
7.1837082281
 30
0.0
 10
11.0459997282
 20
7.1781954473
 30
0.0
 10
11.0341273201
 20
7.1746516928
 30
0.0
 10
11.0250627039
 20
7.1724314922
 30
0.0
 10
11.0158712495
 20
7.1706608305
 30
0.0
 10
11.003457184
 20
7.1689060017
 30
0.0
 10
10.9877183948
 20
7.1678750377
 30
0.0
 10
10.9687100586
 20
7.1685339645
 30
0.0
 10
10.9497329149
 20
7.1711103495
 30
0.0
 10
10.9309871679
 20
7.1756099648
 30
0.0
 10
10.9126789888
 20
7.1820162651
 30
0.0
 10
10.8950197909
 20
7.1902882464
 30
0.0
 10
10.8782219014
 20
7.200357362
 30
0.0
 10
10.8624931401
 20
7.2121270794
 30
0.0
 10
10.8480338433
 20
7.2254693956
 30
0.0
 10
10.8393542861
 20
7.2353205094
 30
0.0
 10
10.8352839015
 20
7.240453687
 30
0.0
  0
SPLINE
  5
334
100
AcDbEntity
  8
0
100
AcDbSpline
 62
7
  6
CONTINUOUS
 70
0
 71
3
 72
17
 73
13
 74
0
 42
0.0000001
 43
0.0000001
 44
0.0000000001
 40
0.0
 40
0.0
 40
0.0
 40
0.0
 40
0.1411601666
 40
0.2786306434
 40
0.4119177718
 40
0.5405469518
 40
0.6640705798
 40
0.7820701266
 40
0.8388774074
 40
0.8941626558
 40
0.947885207
 40
1.0
 40
1.0
 40
1.0
 40
1.0
 10
10.3895754975
 20
11.754284198
 30
0.0
 10
10.379982652
 20
11.7533408819
 30
0.0
 10
10.3610642221
 20
11.7513053465
 30
0.0
 10
10.3331598977
 20
11.7477526116
 30
0.0
 10
10.3061808059
 20
11.7437514894
 30
0.0
 10
10.2802347818
 20
11.7393181717
 30
0.0
 10
10.2554256338
 20
11.7344706193
 30
0.0
 10
10.2355371326
 20
11.7300481163
 30
0.0
 10
10.2202768671
 20
11.7263062982
 30
0.0
 10
10.2093213559
 20
11.7234444038
 30
0.0
 10
10.1987215045
 20
11.7204943692
 30
0.0
 10
10.1917923026
 20
11.7184392736
 30
0.0
 10
10.1883899195
 20
11.7173962869
 30
0.0
  0
SPLINE
  5
335
100
AcDbEntity
  8
0
100
AcDbSpline
 62
7
  6
CONTINUOUS
 70
0
 71
3
 72
23
 73
19
 74
0
 42
0.0000001
 43
0.0000001
 44
0.0000000001
 40
0.0
 40
0.0
 40
0.0
 40
0.0
 40
0.0629795623
 40
0.1258042243
 40
0.1884896547
 40
0.2510531537
 40
0.3135134638
 40
0.3758907126
 40
0.4382061575
 40
0.5004818809
 40
0.562740683
 40
0.6250057453
 40
0.687300215
 40
0.7496474516
 40
0.8120697399
 40
0.8745879829
 40
0.9372277975
 40
1.0
 40
1.0
 40
1.0
 40
1.0
 10
10.1865411672
 20
8.2385477746
 30
0.0
 10
10.1853945116
 20
8.2353523227
 30
0.0
 10
10.1829415891
 20
8.2290261902
 30
0.0
 10
10.1787860849
 20
8.2197494579
 30
0.0
 10
10.174166926
 20
8.2107194689
 30
0.0
 10
10.1690936062
 20
8.2019593044
 30
0.0
 10
10.1635768299
 20
8.1934911485
 30
0.0
 10
10.1576285557
 20
8.1853368022
 30
0.0
 10
10.1512619579
 20
8.1775174718
 30
0.0
 10
10.1444915759
 20
8.1700535964
 30
0.0
 10
10.1373331585
 20
8.1629648396
 30
0.0
 10
10.1298036185
 20
8.1562700451
 30
0.0
 10
10.1219211115
 20
8.1499870001
 30
0.0
 10
10.113704912
 20
8.1441324453
 30
0.0
 10
10.1051754095
 20
8.1387220497
 30
0.0
 10
10.096353708
 20
8.1337700183
 30
0.0
 10
10.0872625908
 20
8.1292898165
 30
0.0
 10
10.081044132
 20
8.1266279969
 30
0.0
 10
10.0778990832
 20
8.1253795464
 30
0.0
  0
SPLINE
  5
336
100
AcDbEntity
  8
0
100
AcDbSpline
 62
7
  6
CONTINUOUS
 70
0
 71
3
 72
15
 73
11
 74
0
 42
0.0000001
 43
0.0000001
 44
0.0000000001
 40
0.0
 40
0.0
 40
0.0
 40
0.0
 40
0.1259925438
 40
0.2518655351
 40
0.3775337187
 40
0.5029121906
 40
0.6279191966
 40
0.752478756
 40
0.8765242075
 40
1.0
 40
1.0
 40
1.0
 40
1.0
 10
10.7109011712
 20
8.0082733196
 30
0.0
 10
10.7138392117
 20
8.005052039
 30
0.0
 10
10.7195024047
 20
7.9984170476
 30
0.0
 10
10.7273038593
 20
7.9879259157
 30
0.0
 10
10.7343587338
 20
7.9769429738
 30
0.0
 10
10.7406167003
 20
7.9655211222
 30
0.0
 10
10.7460323973
 20
7.9537184887
 30
0.0
 10
10.7505658803
 20
7.9415983834
 30
0.0
 10
10.7541836305
 20
7.9292298338
 30
0.0
 10
10.7559725138
 20
7.9208437058
 30
0.0
 10
10.7567057816
 20
7.9166342855
 30
0.0
  0
SPLINE
  5
337
100
AcDbEntity
  8
0
100
AcDbSpline
 62
7
  6
CONTINUOUS
 70
0
 71
3
 72
31
 73
27
 74
0
 42
0.0000001
 43
0.0000001
 44
0.0000000001
 40
0.0
 40
0.0
 40
0.0
 40
0.0
 40
0.0324490564
 40
0.0648680681
 40
0.0972411698
 40
0.1295613087
 40
0.1939866588
 40
0.2580975576
 40
0.2900281688
 40
0.3218625642
 40
0.353597062
 40
0.3852289876
 40
0.4481612992
 40
0.510677129
 40
0.5727910803
 40
0.6345314426
 40
0.6652823144
 40
0.6959556071
 40
0.7265577949
 40
0.7570958291
 40
0.8179924917
 40
0.8787254386
 40
0.9090594383
 40
0.9393775159
 40
0.9696881808
 40
1.0
 40
1.0
 40
1.0
 40
1.0
 10
10.8352839015
 20
7.240453687
 30
0.0
 10
10.8333997452
 20
7.2428298037
 30
0.0
 10
10.8297465906
 20
7.2476710705
 30
0.0
 10
10.8246256655
 20
7.255182367
 30
0.0
 10
10.8198781283
 20
7.2629214284
 30
0.0
 10
10.8140690386
 20
7.2735021272
 30
0.0
 10
10.8077934179
 20
7.2871895044
 30
0.0
 10
10.8028780334
 20
7.3013835572
 30
0.0
 10
10.7997940459
 20
7.3129332818
 30
0.0
 10
10.7979092324
 20
7.3216604237
 30
0.0
 10
10.7964517813
 20
7.3304407315
 30
0.0
 10
10.7950814096
 20
7.3421677707
 30
0.0
 10
10.7944310908
 20
7.3568577724
 30
0.0
 10
10.7953411391
 20
7.3743889968
 30
0.0
 10
10.7979075672
 20
7.3916422833
 30
0.0
 10
10.8013929037
 20
7.4056886257
 30
0.0
 10
10.8049568412
 20
7.4166369096
 30
0.0
 10
10.8080052922
 20
7.4246822888
 30
0.0
 10
10.8114237648
 20
7.4325558346
 30
0.0
 10
10.8164570368
 20
7.4427938522
 30
0.0
 10
10.8236291037
 20
7.4550994448
 30
0.0
 10
10.8319151251
 20
7.466660546
 30
0.0
 10
10.8391572858
 20
7.4753962782
 30
0.0
 10
10.8448849883
 20
7.481682207
 30
0.0
 10
10.8508982551
 20
7.4876920694
 30
0.0
 10
10.855089544
 20
7.4915074884
 30
0.0
 10
10.8572281507
 20
7.4933651362
 30
0.0
  0
ELLIPSE
  5
338
100
AcDbEntity
  8
0
100
AcDbEllipse
 62
7
  6
CONTINUOUS
 10
10.9820173475
 20
9.1645126081
 30
0.0
 11
-0.0933204582
 21
0.2053431006
 31
0.0
 40
0.7498670006
 41
2.4849987453
 42
4.1649617441
  0
ELLIPSE
  5
339
100
AcDbEntity
  8
0
100
AcDbEllipse
 62
7
  6
CONTINUOUS
 10
10.9820173475
 20
9.1645126081
 30
0.0
 11
0.0723641945
 21
0.1950322547
 31
0.0
 40
0.8938014434
 41
4.8011919798
 42
6.5700918515
  0
ELLIPSE
  5
33A
100
AcDbEntity
  8
0
100
AcDbEllipse
 62
7
  6
CONTINUOUS
 10
10.9820173475
 20
9.1645126081
 30
0.0
 11
0.0723641945
 21
0.1950322547
 31
0.0
 40
0.8938014434
 41
-4.623585981
 42
-2.8546861093
  0
ELLIPSE
  5
33B
100
AcDbEntity
  8
0
100
AcDbEllipse
 62
7
  6
CONTINUOUS
 10
10.9820173475
 20
9.1645126081
 30
0.0
 11
-0.0933204582
 21
0.2053431006
 31
0.0
 40
0.7498670006
 41
-0.6565939082
 42
1.0233690905
  0
ENDSEC
  0
SECTION
  2
OBJECTS
  0
DICTIONARY
  5
C
100
AcDbDictionary
280
0
281
1
  3
ACAD_GROUP
350
D
  3
ACAD_MLINESTYLE
350
17
  3
ACAD_LAYOUT
350
1A
  3
ACAD_PLOTSETTINGS
350
19
  3
ACAD_PLOTSTYLENAME
350
E
  3
ACAD_IMAGE_DICT
350
       33D
  3
ACAD_IMAGE_VARS
350
       33E
  3
ACAD_TABLESTYLE
350
       33F
  0
IMAGEDEF_REACTOR
  5
33C
100
AcDbRasterImageDefReactor
 90
2
330
287
  0
DICTIONARY
  5
D
102
{ACAD_REACTORS
330
C
102
}
100
AcDbDictionary
280
0
281
1
  0
ACDBDICTIONARYWDFLT
  5
E
102
{ACAD_REACTORS
330
C
102
}
100
AcDbDictionary
281
1
  3
Normal
350
F
100
AcDbDictionaryWithDefault
340
F
  0
DICTIONARY
  5
33D
330
C
100
AcDbDictionary
281
1
  3
NB2_assy_2_img_1
350
       342
  0
RASTERVARIABLES
  5
33E
330
C
100
AcDbRasterVariables
 90
0
 70
0
 71
1
 72
5
  0
DICTIONARY
  5
17
102
{ACAD_REACTORS
330
C
102
}
100
AcDbDictionary
280
0
281
1
  3
Standard
350
18
  0
DICTIONARY
  5
33F
330
C
100
AcDbDictionary
281
1
  3
Standard
350
       343
  3
Standard1
350
       344
  0
DICTIONARY
  5
19
102
{ACAD_REACTORS
330
C
102
}
100
AcDbDictionary
281
1
  0
DICTIONARY
  5
1A
102
{ACAD_REACTORS
330
C
102
}
100
AcDbDictionary
281
1
  3
Model
350
340
  3
Layout1
350
341
  0
ACDBPLACEHOLDER
  5
F
102
{ACAD_REACTORS
330
E
102
}
  0
MLINESTYLE
  5
18
102
{ACAD_REACTORS
330
17
102
}
100
AcDbMlineStyle
  2
STANDARD
 70
0
  3

 62
256
 51
90.0
 52
90.0
 71
2
 49
0.5
 62
256
  6
BYLAYER
 49
-0.5
 62
256
  6
BYLAYER
  0
LAYOUT
  5
340
102
{ACAD_REACTORS
330
1A
102
}
100
AcDbPlotSettings
  1

  2
none_device
  4
ANSI_C_(22.00_x_17.00_Inches)
  6

 40
0.0
 41
0.0
 42
0.0
 43
0.0
 44
558.8
 45
431.8
 46
0.0
 47
0.0
 48
0.0
 49
0.0
140
0.0
141
0.0
142
1.0
143
1.0
 70
1024
 72
0
 73
0
 74
0
  7

 75
0
147
1.0
148
0.0
149
0.0
100
AcDbLayout
  1
Model
 70
0
 71
0
 10
0.0
 20
0.0
 11
22.0
 21
17.0
 12
0.0
 22
0.0
 32
0.0
 14
0.0
 24
0.0
 34
0.0
 15
0.0
 25
0.0
 35
0.0
146
0.0
 13
0.0
 23
0.0
 33
0.0
 16
1.0
 26
0.0
 36
0.0
 17
0.0
 27
1.0
 37
0.0
 76
0
330
20C
345
0
346
0
  0
LAYOUT
  5
341
102
{ACAD_REACTORS
330
1A
102
}
100
AcDbPlotSettings
  1

  2
none_device
  4
ANSI_C_(22.00_x_17.00_Inches)
  6

 40
0.0
 41
0.0
 42
0.0
 43
0.0
 44
558.8
 45
431.8
 46
0.0
 47
0.0
 48
0.0
 49
0.0
140
0.0
141
0.0
142
1.0
143
1.0
 70
0
 72
0
 73
0
 74
0
  7

 75
0
147
1.0
148
0.0
149
0.0
100
AcDbLayout
  1
Layout1
 70
0
 71
1
 10
0.0
 20
0.0
 11
22.0
 21
17.0
 12
0.0
 22
0.0
 32
0.0
 14
0.0
 24
0.0
 34
0.0
 15
0.0
 25
0.0
 35
0.0
146
0.0
 13
0.0
 23
0.0
 33
0.0
 16
1.0
 26
0.0
 36
0.0
 17
0.0
 27
1.0
 37
0.0
 76
0
330
20D
345
0
346
0
  0
IMAGEDEF
  5
342
102
{ACAD_REACTORS
330
33D
330
33C
102
}
100
AcDbRasterImageDef
 90
0
  1
NB2_assy_2_img_1.png
 10
369.0
 20
92.0
 11
0.0066666667
 21
0.0066666667
280
1
281
0
  0
TABLESTYLE
  5
343
102
{ACAD_REACTORS
330
33F
330
28A
330
28B
102
}
330
33F
100
AcDbTableStyle
  3
Standard
 70
0
 71
0
 40
0.06
 41
0.06
280
1
281
1
  7
Standard
140
0.18
170
1
 62
0
 63
7
283
0
  7
Standard
140
0.18
170
1
 62
0
 63
7
283
0
  7
Standard
140
0.18
170
1
 62
0
 63
7
283
0
  0
TABLESTYLE
  5
344
102
{ACAD_REACTORS
330
33F
330
289
102
}
330
33F
100
AcDbTableStyle
  3
Standard1
 70
1
 71
0
 40
0.06
 41
0.06
280
1
281
1
  7
Standard
140
0.18
170
1
 62
0
 63
7
283
0
  7
Standard
140
0.18
170
1
 62
0
 63
7
283
0
  7
Standard
140
0.18
170
1
 62
0
 63
7
283
0
  0
ENDSEC
  0
EOF
