999
DXF file: N4V_assy_2.dxf
999
Pro/ENGINEER 2014200 by Parametric Technology Corporation
  0
SECTION
  2
HEADER
  9
$ACADVER
  1
AC1021
  9
$DWGCODEPAGE
  3
ANSI_1252
  9
$EXTMAX
 10
22.0
 20
17.0
 30
0.0
  9
$EXTMIN
 10
0.0
 20
0.0
 30
0.0
  9
$LIMMIN
 10
0.0
 20
0.0
  9
$LIMMAX
 10
22.0
 20
17.0
  9
$VIEWCTR
 10
11.0
 20
8.5
  9
$VIEWSIZE
 40
17.0
  9
$CLAYER
  8
0
  9
$LTSCALE
 40
1.21
  9
$CELTYPE
  6
BYLAYER
  9
$DIMSCALE
 40
1.0
  9
$DIMASZ
 40
0.1875
  9
$DIMEXO
 40
0.0625
  9
$DIMDLI
 40
0.836
  9
$DIMEXE
 40
0.125
  9
$DIMCEN
 40
0.198
  9
$DIMLFAC
 40
1.0
  9
$DIMBLK
  1
_FILLED
  9
$DIMTXT
 40
0.1
  9
$DIMTOL
 70
0
  9
$DIMLIM
 70
0
  9
$DIMTFAC
 40
1.0
  9
$DIMGAP
 40
0.09
  9
$DIMDSEP
 70
46
  9
$AUNITS
 70
0
  9
$PDMODE
 70
3
  9
$PDSIZE
 40
0.3125
  9
$HANDSEED
  5
3A8
  9
$TILEMODE
 70
1
  9
$MEASUREMENT
 70
0
  9
$INSUNITS
 70
1
  0
ENDSEC
  0
SECTION
  2
CLASSES
  0
CLASS
  1
ACDBDICTIONARYWDFLT
  2
AcDbDictionaryWithDefault
  3
AutoCAD 2000
 90
0
 91
1
280
0
281
0
  0
CLASS
  1
ACDBPLACEHOLDER
  2
AcDbPlaceHolder
  3
AutoCAD 2000
 90
0
 91
1
280
0
281
0
  0
CLASS
  1
LAYOUT
  2
AcDbLayout
  3
AutoCAD 2000
 90
0
 91
0
280
0
281
0
  0
CLASS
  1
RASTERVARIABLES
  2
AcDbRasterVariables
  3
ISM
 90
0
 91
1
280
0
281
0
  0
CLASS
  1
IMAGEDEF
  2
AcDbRasterImageDef
  3
ISM
 90
0
 91
1
280
0
281
0
  0
CLASS
  1
IMAGEDEF_REACTOR
  2
AcDbRasterImageDefReactor
  3
ISM
 90
0
 91
1
280
0
281
0
  0
CLASS
  1
IMAGE
  2
AcDbRasterImage
  3
ISM
 90
127
 91
1
280
0
281
1
  0
CLASS
  1
TABLESTYLE
  2
AcDbTableStyle
  3
ObjectDBX Classes
 90
2047
 91
1
280
0
281
0
  0
CLASS
  1
ACAD_TABLE
  2
AcDbTable
  3
ObjectDBX Classes
 90
1025
 91
3
280
0
281
1
  0
ENDSEC
  0
SECTION
  2
TABLES
  0
TABLE
  2
VPORT
  5
8
100
AcDbSymbolTable
 70
2
  0
VPORT
  5
1F4
100
AcDbSymbolTableRecord
100
AcDbViewportTableRecord
  2
*ACTIVE
 70
0
 10
0.0
 20
0.0
 11
1.0
 21
1.0
 12
11.0
 22
8.5
 13
0.0
 23
0.0
 14
1.0
 24
1.0
 15
0.0
 25
0.0
 16
0.0
 26
0.0
 36
1.0
 17
0.0
 27
0.0
 37
0.0
 40
17.0
 41
1.2941176471
 42
50.0
 43
0.0
 44
0.0
 50
0.0
 51
0.0
 71
0
 72
100
 73
1
 74
1
 75
0
 76
0
 77
0
 78
0
  0
ENDTAB
  0
TABLE
  2
LTYPE
  5
5
100
AcDbSymbolTable
 70
6
  0
LTYPE
  5
14
100
AcDbSymbolTableRecord
100
AcDbLinetypeTableRecord
  2
BYBLOCK
 70
0
  3

 72
65
 73
0
 40
0.0
  0
LTYPE
  5
15
100
AcDbSymbolTableRecord
100
AcDbLinetypeTableRecord
  2
BYLAYER
 70
0
  3

 72
65
 73
0
 40
0.0
  0
LTYPE
  5
16
100
AcDbSymbolTableRecord
100
AcDbLinetypeTableRecord
  2
CONTINUOUS
 70
64
  3
Solid line
 72
65
 73
0
 40
0.0
  0
LTYPE
  5
1F5
100
AcDbSymbolTableRecord
100
AcDbLinetypeTableRecord
  2
CENTER
 70
64
  3
____ _ ____ _ ____ _ ____ _ ____ _ ____ _ ____
 72
65
 73
4
 40
0.6
 49
0.375
 74
0
 49
-0.075
 74
0
 49
0.075
 74
0
 49
-0.075
 74
0
  0
LTYPE
  5
1F6
100
AcDbSymbolTableRecord
100
AcDbLinetypeTableRecord
  2
HIDDEN
 70
64
  3
- - - - - - - - - - - - - - - - - - - -
 72
65
 73
2
 40
0.2
 49
0.1
 74
0
 49
-0.1
 74
0
  0
LTYPE
  5
1F7
100
AcDbSymbolTableRecord
100
AcDbLinetypeTableRecord
  2
PHANTOM
 70
64
  3
_____ _ _ _____ _ _ _____ _ _ _____
 72
65
 73
6
 40
0.8
 49
0.45
 74
0
 49
-0.05
 74
0
 49
0.1
 74
0
 49
-0.05
 74
0
 49
0.1
 74
0
 49
-0.05
 74
0
  0
LTYPE
  5
1F8
100
AcDbSymbolTableRecord
100
AcDbLinetypeTableRecord
  2
DOT
 70
64
  3
. . . . . . . . . . . . . . . . . . . .
 72
65
 73
2
 40
0.2
 49
0.1
 74
0
 49
-0.1
 74
0
  0
LTYPE
  5
1F9
100
AcDbSymbolTableRecord
100
AcDbLinetypeTableRecord
  2
DASHED
 70
64
  3
- - - - - - - - - - - - - - - - - - - -
 72
65
 73
2
 40
0.2
 49
0.1
 74
0
 49
-0.1
 74
0
  0
ENDTAB
  0
TABLE
  2
LAYER
  5
2
100
AcDbSymbolTable
 70
36
  0
LAYER
  5
10
100
AcDbSymbolTableRecord
100
AcDbLayerTableRecord
  2
0
 70
0
 62
7
  6
CONTINUOUS
370
-3
390
F
  0
LAYER
  5
1FA
100
AcDbSymbolTableRecord
100
AcDbLayerTableRecord
  2
DEFAULT_1
 70
0
 62
7
  6
CENTER
370
-3
390
F
  0
LAYER
  5
1FB
100
AcDbSymbolTableRecord
100
AcDbLayerTableRecord
  2
DEFAULT_2
 70
0
 62
8
  6
HIDDEN
370
-3
390
F
  0
LAYER
  5
1FC
100
AcDbSymbolTableRecord
100
AcDbLayerTableRecord
  2
DEFAULT_3
 70
0
 62
7
  6
PHANTOM
370
-3
390
F
  0
LAYER
  5
1FD
100
AcDbSymbolTableRecord
100
AcDbLayerTableRecord
  2
01___PRT_ALL_DTM_PLN
 70
0
 62
7
  6
CONTINUOUS
370
-3
390
F
  0
LAYER
  5
1FE
100
AcDbSymbolTableRecord
100
AcDbLayerTableRecord
  2
01___PRT_DEF_DTM_PLN
 70
0
 62
7
  6
CONTINUOUS
370
-3
390
F
  0
LAYER
  5
1FF
100
AcDbSymbolTableRecord
100
AcDbLayerTableRecord
  2
02___PRT_ALL_AXES
 70
0
 62
7
  6
CONTINUOUS
370
-3
390
F
  0
LAYER
  5
200
100
AcDbSymbolTableRecord
100
AcDbLayerTableRecord
  2
03___PRT_ALL_CURVES
 70
0
 62
7
  6
CONTINUOUS
370
-3
390
F
  0
LAYER
  5
201
100
AcDbSymbolTableRecord
100
AcDbLayerTableRecord
  2
04___PRT_ALL_DTM_PNT
 70
0
 62
7
  6
CONTINUOUS
370
-3
390
F
  0
LAYER
  5
202
100
AcDbSymbolTableRecord
100
AcDbLayerTableRecord
  2
05___PRT_ALL_DTM_CSYS
 70
0
 62
7
  6
CONTINUOUS
370
-3
390
F
  0
LAYER
  5
203
100
AcDbSymbolTableRecord
100
AcDbLayerTableRecord
  2
05___PRT_DEF_DTM_CSYS
 70
0
 62
7
  6
CONTINUOUS
370
-3
390
F
  0
LAYER
  5
204
100
AcDbSymbolTableRecord
100
AcDbLayerTableRecord
  2
06___PRT_ALL_SURFS
 70
0
 62
7
  6
CONTINUOUS
370
-3
390
F
  0
LAYER
  5
205
100
AcDbSymbolTableRecord
100
AcDbLayerTableRecord
  2
DATUM_PLANES
 70
0
 62
7
  6
CONTINUOUS
370
-3
390
F
  0
LAYER
  5
206
100
AcDbSymbolTableRecord
100
AcDbLayerTableRecord
  2
PORT_AREAS
 70
0
 62
7
  6
CONTINUOUS
370
-3
390
F
  0
LAYER
  5
207
100
AcDbSymbolTableRecord
100
AcDbLayerTableRecord
  2
SUNNBOMCOSMETIC
 70
0
 62
7
  6
CONTINUOUS
370
-3
390
F
  0
LAYER
  5
208
100
AcDbSymbolTableRecord
100
AcDbLayerTableRecord
  2
SUNNBOMSTAMPING
 70
0
 62
7
  6
CONTINUOUS
370
-3
390
F
  0
LAYER
  5
209
100
AcDbSymbolTableRecord
100
AcDbLayerTableRecord
  2
THREADS
 70
0
 62
7
  6
CONTINUOUS
370
-3
390
F
  0
ENDTAB
  0
TABLE
  2
STYLE
  5
3
100
AcDbSymbolTable
 70
1
  0
STYLE
  5
11
100
AcDbSymbolTableRecord
100
AcDbTextStyleTableRecord
  2
STANDARD
 70
0
 40
0.0
 41
0.8
 50
0.0
 71
0
 42
0.2
  3
txt
  4

  0
STYLE
  5
20A
100
AcDbSymbolTableRecord
100
AcDbTextStyleTableRecord
  2
TEXTSTYLE_1
 70
0
 40
0.0
 41
0.8
 50
0.0
 71
0
 42
0.2
  3
gdt
  4

  0
ENDTAB
  0
TABLE
  2
VIEW
  5
6
100
AcDbSymbolTable
 70
0
  0
ENDTAB
  0
TABLE
  2
UCS
  5
7
100
AcDbSymbolTable
 70
0
  0
ENDTAB
  0
TABLE
  2
APPID
  5
9
100
AcDbSymbolTable
 70
1
  0
APPID
  5
20B
100
AcDbSymbolTableRecord
100
AcDbRegAppTableRecord
  2
ACAD
 70
0
  0
ENDTAB
  0
TABLE
  2
BLOCK_RECORD
  5
1
100
AcDbSymbolTable
 70
0
  0
BLOCK_RECORD
  5
20C
100
AcDbSymbolTableRecord
100
AcDbBlockTableRecord
  2
*Model_Space
  0
BLOCK_RECORD
  5
20D
100
AcDbSymbolTableRecord
100
AcDbBlockTableRecord
  2
*Paper_Space
  0
BLOCK_RECORD
  5
20E
100
AcDbSymbolTableRecord
100
AcDbBlockTableRecord
  2
SUN_FIRST_THIRD_ANGLE_BL0
  0
BLOCK_RECORD
  5
20F
100
AcDbSymbolTableRecord
100
AcDbBlockTableRecord
  2
*T1
  0
BLOCK_RECORD
  5
210
100
AcDbSymbolTableRecord
100
AcDbBlockTableRecord
  2
*T2
  0
BLOCK_RECORD
  5
211
100
AcDbSymbolTableRecord
100
AcDbBlockTableRecord
  2
*T3
  0
ENDTAB
  0
TABLE
  2
DIMSTYLE
  5
A
100
AcDbSymbolTable
 70
1
100
AcDbDimStyleTable
 71
0
  0
DIMSTYLE
105
212
100
AcDbSymbolTableRecord
100
AcDbDimStyleTableRecord
  2
STANDARD
 70
0
  3

  4

 40
1.0
 41
0.1875
 42
0.0625
 43
0.38
 44
0.125
 45
0.0
 46
0.0
 47
0.001
 48
0.001
140
0.1
141
0.09
142
0.0
143
25.4
144
1.0
145
0.0
146
1.0
147
0.09
 71
0.0
 72
0.0
 73
1
 74
1
 75
0
 76
0
 77
0
 78
4
170
0
171
2
172
0
173
0
174
0
175
0
176
0
177
0
178
0
270
2
271
3
272
3
273
2
274
2
275
0
280
0
281
0
282
0
283
1
284
4
285
0
286
0
287
3
288
0
340
11
278
46
  0
ENDTAB
  0
ENDSEC
  0
SECTION
  2
BLOCKS
  0
BLOCK
  5
20
100
AcDbEntity
  8
0
100
AcDbBlockBegin
  2
*Model_Space
 70
0
 10
0.0
 20
0.0
 30
0.0
  3
*Model_Space
  1

  0
ENDBLK
  5
21
100
AcDbEntity
  8
0
100
AcDbBlockEnd
  0
BLOCK
  5
1C
100
AcDbEntity
  8
0
100
AcDbBlockBegin
  2
*Paper_Space
 70
0
 10
0.0
 20
0.0
 30
0.0
  3
*Paper_Space
  1

  0
ENDBLK
  5
1D
100
AcDbEntity
  8
0
100
AcDbBlockEnd
  0
BLOCK
  5
213
100
AcDbEntity
  8
0
100
AcDbBlockBegin
 62
2
  6
CONTINUOUS
  2
SUN_FIRST_THIRD_ANGLE_BL0
 70
64
 10
20.4816717061
 20
1.2289683772
  3
SUN_FIRST_THIRD_ANGLE_BL0
  1

  0
TEXT
  5
214
100
AcDbEntity
  8
0
100
AcDbText
 62
2
  6
CONTINUOUS
 10
19.4750896608
 20
1.4136269581
  7
STANDARD
 40
0.08
  1
FIRST ANGLE
 41
0.8
 72
0
100
AcDbText
  0
TEXT
  5
215
100
AcDbEntity
  8
0
100
AcDbText
 62
2
  6
CONTINUOUS
 10
20.7842537513
 20
1.4047600029
  7
STANDARD
 40
0.08
  1
THIRD ANGLE
 41
0.8
 72
0
100
AcDbText
  0
LINE
  5
216
100
AcDbEntity
  8
0
100
AcDbLine
 62
7
  6
CONTINUOUS
 10
19.4767170086
 20
1.1727031207
 11
19.6334271527
 21
1.1717972817
  0
LINE
  5
217
100
AcDbEntity
  8
0
100
AcDbLine
 62
7
  6
CONTINUOUS
 10
19.6596964832
 20
1.1717972817
 11
19.6950230232
 21
1.171593082
  0
LINE
  5
218
100
AcDbEntity
  8
0
100
AcDbLine
 62
7
  6
CONTINUOUS
 10
19.7194818561
 20
1.1708914427
 11
19.8852396156
 21
1.1699333054
  0
LINE
  5
219
100
AcDbEntity
  8
0
100
AcDbLine
 62
7
  6
CONTINUOUS
 10
19.4758111696
 20
1.2723454088
 11
19.88525039
 21
1.3511534004
  0
LINE
  5
21A
100
AcDbEntity
  8
0
100
AcDbLine
 62
7
  6
CONTINUOUS
 10
19.88525039
 20
1.3511534004
 11
19.8831348489
 21
0.9851647912
  0
LINE
  5
21B
100
AcDbEntity
  8
0
100
AcDbLine
 62
7
  6
CONTINUOUS
 10
19.8831348489
 20
0.9851647912
 11
19.4767170086
 21
1.0658141206
  0
LINE
  5
21C
100
AcDbEntity
  8
0
100
AcDbLine
 62
7
  6
CONTINUOUS
 10
19.4767170086
 20
1.0658141206
 11
19.4779056764
 21
1.2714536432
  0
CIRCLE
  5
21D
100
AcDbEntity
  8
0
100
AcDbCircle
 62
7
  6
CONTINUOUS
 10
20.2068232291
 20
1.1717972817
 40
0.175742101
  0
CIRCLE
  5
21E
100
AcDbEntity
  8
0
100
AcDbCircle
 62
7
  6
CONTINUOUS
 10
20.2068232291
 20
1.1717972817
 40
0.1005522074
  0
LINE
  5
21F
100
AcDbEntity
  8
0
100
AcDbLine
 62
7
  6
CONTINUOUS
 10
20.2077290681
 20
1.3756110529
 11
20.2071171714
 21
1.2379342989
  0
LINE
  5
220
100
AcDbEntity
  8
0
100
AcDbLine
 62
7
  6
CONTINUOUS
 10
20.2077290681
 20
1.2016899681
 11
20.2074674401
 21
1.1428236749
  0
LINE
  5
221
100
AcDbEntity
  8
0
100
AcDbLine
 62
7
  6
CONTINUOUS
 10
20.208634907
 20
1.101141841
 11
20.2080230104
 21
0.963465087
  0
LINE
  5
222
100
AcDbEntity
  8
0
100
AcDbLine
 62
7
  6
CONTINUOUS
 10
20.0066328138
 20
1.1745147986
 11
20.1443095678
 21
1.1739029019
  0
LINE
  5
223
100
AcDbEntity
  8
0
100
AcDbLine
 62
7
  6
CONTINUOUS
 10
20.1832714155
 20
1.1727031207
 11
20.238153505
 21
1.172335442
  0
LINE
  5
224
100
AcDbEntity
  8
0
100
AcDbLine
 62
7
  6
CONTINUOUS
 10
20.2756669918
 20
1.1717972817
 11
20.407916871
 21
1.1712095044
  0
CIRCLE
  5
225
100
AcDbEntity
  8
0
100
AcDbCircle
 62
7
  6
CONTINUOUS
 10
20.7509457401
 20
1.1693297793
 40
0.1722024983
  0
CIRCLE
  5
226
100
AcDbEntity
  8
0
100
AcDbCircle
 62
7
  6
CONTINUOUS
 10
20.7509457401
 20
1.1693297793
 40
0.0985164967
  0
LINE
  5
227
100
AcDbEntity
  8
0
100
AcDbLine
 62
7
  6
CONTINUOUS
 10
20.7169767782
 20
1.170462078
 11
20.7825395137
 21
1.1682766535
  0
LINE
  5
228
100
AcDbEntity
  8
0
100
AcDbLine
 62
7
  6
CONTINUOUS
 10
20.8177513651
 20
1.1693297793
 11
20.947965719
 21
1.1693297793
  0
LINE
  5
229
100
AcDbEntity
  8
0
100
AcDbLine
 62
7
  6
CONTINUOUS
 10
20.6875370113
 20
1.170462078
 11
20.5573226574
 21
1.170462078
  0
LINE
  5
22A
100
AcDbEntity
  8
0
100
AcDbLine
 62
7
  6
CONTINUOUS
 10
20.7486811426
 20
1.1987695462
 11
20.7486811426
 21
1.1432869085
  0
LINE
  5
22B
100
AcDbEntity
  8
0
100
AcDbLine
 62
7
  6
CONTINUOUS
 10
20.7498134414
 20
1.1059210505
 11
20.7498134414
 21
0.9757066966
  0
LINE
  5
22C
100
AcDbEntity
  8
0
100
AcDbLine
 62
7
  6
CONTINUOUS
 10
20.7486811426
 20
1.2338708068
 11
20.7486811426
 21
1.3640851607
  0
LINE
  5
22D
100
AcDbEntity
  8
0
100
AcDbLine
 62
7
  6
CONTINUOUS
 10
21.0702539817
 20
1.2701043662
 11
21.4790138229
 21
1.3448360823
  0
LINE
  5
22E
100
AcDbEntity
  8
0
100
AcDbLine
 62
7
  6
CONTINUOUS
 10
21.4790138229
 20
1.3448360823
 11
21.4790138229
 21
0.9779712941
  0
LINE
  5
22F
100
AcDbEntity
  8
0
100
AcDbLine
 62
7
  6
CONTINUOUS
 10
21.4790138229
 20
0.9779712941
 11
21.069121683
 21
1.0617614
  0
LINE
  5
230
100
AcDbEntity
  8
0
100
AcDbLine
 62
7
  6
CONTINUOUS
 10
21.0702539817
 20
1.2701043662
 11
21.069121683
 21
1.0617614
  0
LINE
  5
231
100
AcDbEntity
  8
0
100
AcDbLine
 62
7
  6
CONTINUOUS
 10
21.4790138229
 20
1.1693297793
 11
21.3159628059
 21
1.1693297793
  0
LINE
  5
232
100
AcDbEntity
  8
0
100
AcDbLine
 62
7
  6
CONTINUOUS
 10
21.2876553377
 20
1.1693297793
 11
21.2502894796
 21
1.1693297793
  0
LINE
  5
233
100
AcDbEntity
  8
0
100
AcDbLine
 62
7
  6
CONTINUOUS
 10
21.2208497126
 20
1.1659328831
 11
21.0713862804
 21
1.1659328831
  0
LINE
  5
234
100
AcDbEntity
  8
0
100
AcDbLine
 62
7
  6
CONTINUOUS
 10
20.4796138713
 20
1.5284908897
 11
20.4766766948
 21
0.9294458646
  0
ENDBLK
  5
235
100
AcDbEntity
  8
0
  6
BYBLOCK
 62
0
100
AcDbBlockEnd
  0
BLOCK
  5
236
100
AcDbEntity
  8
0
100
AcDbBlockBegin
  2
*T1
 70
1
 10
0.0
 20
0.0
  3
*T1
  1

  0
LINE
  5
237
100
AcDbEntity
  8
0
100
AcDbLine
 62
2
  6
CONTINUOUS
 10
9.275
 20
0.0
 11
-0.0
 21
0.0
  0
LINE
  5
238
100
AcDbEntity
  8
0
100
AcDbLine
 62
2
  6
CONTINUOUS
 10
9.275
 20
0.0
 11
9.275
 21
1.25
  0
LINE
  5
239
100
AcDbEntity
  8
0
100
AcDbLine
 62
2
  6
CONTINUOUS
 10
9.275
 20
0.625
 11
-0.0
 21
0.625
  0
LINE
  5
23A
100
AcDbEntity
  8
0
100
AcDbLine
 62
2
  6
CONTINUOUS
 10
9.275
 20
1.25
 11
-0.0
 21
1.25
  0
LINE
  5
23B
100
AcDbEntity
  8
0
100
AcDbLine
 62
2
  6
CONTINUOUS
 10
6.8
 20
0.0
 11
6.8
 21
1.25
  0
LINE
  5
23C
100
AcDbEntity
  8
0
100
AcDbLine
 62
2
  6
CONTINUOUS
 10
6.4
 20
0.0
 11
6.4
 21
0.625
  0
LINE
  5
23D
100
AcDbEntity
  8
0
100
AcDbLine
 62
2
  6
CONTINUOUS
 10
5.9
 20
0.0
 11
5.9
 21
0.625
  0
LINE
  5
23E
100
AcDbEntity
  8
0
100
AcDbLine
 62
2
  6
CONTINUOUS
 10
5.2
 20
0.0
 11
5.2
 21
0.625
  0
LINE
  5
23F
100
AcDbEntity
  8
0
100
AcDbLine
 62
2
  6
CONTINUOUS
 10
4.1
 20
0.0
 11
4.1
 21
1.25
  0
LINE
  5
240
100
AcDbEntity
  8
0
100
AcDbLine
 62
2
  6
CONTINUOUS
 10
-0.0
 20
0.0
 11
-0.0
 21
1.25
  0
MTEXT
  5
241
100
AcDbEntity
  8
0
100
AcDbMText
 62
2
  6
CONTINUOUS
  7
STANDARD
 71
2
 72
1
 10
6.6
 20
0.325
 30
0.0
 11
1.0
 21
0.0
 31
0.0
 44
0.9
  1
2
 40
0.125
 41
0.2
  0
MTEXT
  5
242
100
AcDbEntity
  8
0
100
AcDbMText
 62
2
  6
CONTINUOUS
  7
STANDARD
 71
2
 72
1
 10
6.15
 20
0.325
 30
0.0
 11
1.0
 21
0.0
 31
0.0
 44
0.9
  1
C
 40
0.125
 41
0.2
  0
MTEXT
  5
243
100
AcDbEntity
  8
0
100
AcDbMText
 62
2
  6
CONTINUOUS
  7
STANDARD
 71
2
 72
1
 10
5.55
 20
0.325
 30
0.0
 11
1.0
 21
0.0
 31
0.0
 44
0.9
  1
1.000
 40
0.125
 41
1.0
  0
MTEXT
  5
244
100
AcDbEntity
  8
0
100
AcDbMText
 62
2
  6
CONTINUOUS
  7
STANDARD
 71
2
 72
1
 10
4.65
 20
0.325
 30
0.0
 11
1.0
 21
0.0
 31
0.0
 44
0.9
  1
Jul-17-20
 40
0.125
 41
1.8
  0
MTEXT
  5
245
100
AcDbEntity
  8
0
100
AcDbMText
 62
2
  6
CONTINUOUS
  7
STANDARD
 71
2
 72
1
 10
2.05
 20
0.4625
 30
0.0
 11
1.0
 21
0.0
 31
0.0
 44
0.9
  1
T-22A Line mount\P(See Technical Data for Body Features)
 40
0.125
 41
7.6
  0
MTEXT
  5
246
100
AcDbEntity
  8
0
100
AcDbMText
 62
2
  6
CONTINUOUS
  7
STANDARD
 71
1
 72
1
 10
6.45
 20
0.5625
 30
0.0
 11
1.0
 21
0.0
 31
0.0
 44
0.9
  1
SHEET
 40
0.06
 41
0.48
  0
MTEXT
  5
247
100
AcDbEntity
  8
0
100
AcDbMText
 62
2
  6
CONTINUOUS
  7
STANDARD
 71
1
 72
1
 10
5.95
 20
0.5625
 30
0.0
 11
1.0
 21
0.0
 31
0.0
 44
0.9
  1
DWG SIZE
 40
0.06
 41
0.768
  0
MTEXT
  5
248
100
AcDbEntity
  8
0
100
AcDbMText
 62
2
  6
CONTINUOUS
  7
STANDARD
 71
1
 72
1
 10
5.25
 20
0.5625
 30
0.0
 11
1.0
 21
0.0
 31
0.0
 44
0.9
  1
SCALE
 40
0.06
 41
0.48
  0
MTEXT
  5
249
100
AcDbEntity
  8
0
100
AcDbMText
 62
2
  6
CONTINUOUS
  7
STANDARD
 71
1
 72
1
 10
4.15
 20
0.5625
 30
0.0
 11
1.0
 21
0.0
 31
0.0
 44
0.9
  1
DATE
 40
0.06
 41
0.384
  0
MTEXT
  5
24A
100
AcDbEntity
  8
0
100
AcDbMText
 62
2
  6
CONTINUOUS
  7
STANDARD
 71
1
 72
1
 10
0.05
 20
0.5625
 30
0.0
 11
1.0
 21
0.0
 31
0.0
 44
0.9
  1
DESCRIPTION
 40
0.06
 41
1.056
  0
MTEXT
  5
24B
100
AcDbEntity
  8
0
100
AcDbMText
 62
2
  6
CONTINUOUS
  7
STANDARD
 71
2
 72
1
 10
5.45
 20
1.0375
 30
0.0
 11
1.0
 21
0.0
 31
0.0
 44
0.9
  1
ALL DIMENSIONS IN INCH\PVIEWS ARE THIRD ANGLE
 40
0.12
 41
4.224
  0
MTEXT
  5
24C
100
AcDbEntity
  8
0
100
AcDbMText
 62
2
  6
CONTINUOUS
  7
STANDARD
 71
2
 72
1
 10
2.05
 20
0.95
 30
0.0
 11
1.0
 21
0.0
 31
0.0
 44
0.9
  1
N4V
 40
0.125
 41
0.6
  0
MTEXT
  5
24D
100
AcDbEntity
  8
0
100
AcDbMText
 62
2
  6
CONTINUOUS
  7
STANDARD
 71
1
 72
1
 10
0.05
 20
1.1875
 30
0.0
 11
1.0
 21
0.0
 31
0.0
 44
0.9
  1
MODEL
 40
0.06
 41
0.48
  0
ENDBLK
  5
24E
100
AcDbEntity
  8
0
  6
BYBLOCK
 62
0
100
AcDbBlockEnd
  0
BLOCK
  5
24F
100
AcDbEntity
  8
0
100
AcDbBlockBegin
  2
*T2
 70
1
 10
0.0
 20
0.0
  3
*T2
  1

  0
LINE
  5
250
100
AcDbEntity
  8
0
100
AcDbLine
 62
2
  6
CONTINUOUS
 10
0.0
 20
0.0
 11
9.055
 21
0.0
  0
LINE
  5
251
100
AcDbEntity
  8
0
100
AcDbLine
 62
2
  6
CONTINUOUS
 10
0.0
 20
0.0
 11
0.0
 21
-2.594
  0
LINE
  5
252
100
AcDbEntity
  8
0
100
AcDbLine
 62
2
  6
CONTINUOUS
 10
0.0
 20
-0.344
 11
9.055
 21
-0.344
  0
LINE
  5
253
100
AcDbEntity
  8
0
100
AcDbLine
 62
2
  6
CONTINUOUS
 10
0.0
 20
-0.594
 11
9.055
 21
-0.594
  0
LINE
  5
254
100
AcDbEntity
  8
0
100
AcDbLine
 62
2
  6
CONTINUOUS
 10
0.0
 20
-0.844
 11
9.055
 21
-0.844
  0
LINE
  5
255
100
AcDbEntity
  8
0
100
AcDbLine
 62
2
  6
CONTINUOUS
 10
0.0
 20
-1.094
 11
9.055
 21
-1.094
  0
LINE
  5
256
100
AcDbEntity
  8
0
100
AcDbLine
 62
2
  6
CONTINUOUS
 10
0.0
 20
-1.344
 11
9.055
 21
-1.344
  0
LINE
  5
257
100
AcDbEntity
  8
0
100
AcDbLine
 62
2
  6
CONTINUOUS
 10
0.0
 20
-1.594
 11
9.055
 21
-1.594
  0
LINE
  5
258
100
AcDbEntity
  8
0
100
AcDbLine
 62
2
  6
CONTINUOUS
 10
0.0
 20
-1.844
 11
9.055
 21
-1.844
  0
LINE
  5
259
100
AcDbEntity
  8
0
100
AcDbLine
 62
2
  6
CONTINUOUS
 10
0.0
 20
-2.094
 11
9.055
 21
-2.094
  0
LINE
  5
25A
100
AcDbEntity
  8
0
100
AcDbLine
 62
2
  6
CONTINUOUS
 10
0.0
 20
-2.344
 11
9.055
 21
-2.344
  0
LINE
  5
25B
100
AcDbEntity
  8
0
100
AcDbLine
 62
2
  6
CONTINUOUS
 10
0.0
 20
-2.594
 11
9.055
 21
-2.594
  0
LINE
  5
25C
100
AcDbEntity
  8
0
100
AcDbLine
 62
2
  6
CONTINUOUS
 10
3.055
 20
0.0
 11
3.055
 21
-2.594
  0
LINE
  5
25D
100
AcDbEntity
  8
0
100
AcDbLine
 62
2
  6
CONTINUOUS
 10
9.055
 20
0.0
 11
9.055
 21
-2.594
  0
MTEXT
  5
25E
100
AcDbEntity
  8
0
100
AcDbMText
 62
2
  6
CONTINUOUS
  7
STANDARD
 71
2
 72
1
 10
1.5275
 20
-0.0995
 30
0.0
 11
1.0
 21
0.0
 31
0.0
 44
0.9
  1
Technical Data
 40
0.145
 41
3.248
  0
MTEXT
  5
25F
100
AcDbEntity
  8
0
100
AcDbMText
 62
2
  6
CONTINUOUS
  7
STANDARD
 71
2
 72
1
 10
4.555
 20
-0.0995
 30
0.0
 11
1.0
 21
0.0
 31
0.0
 44
0.9
  1
U.S. Units
 40
0.145
 41
2.32
  0
MTEXT
  5
260
100
AcDbEntity
  8
0
100
AcDbMText
 62
2
  6
CONTINUOUS
  7
STANDARD
 71
2
 72
1
 10
7.555
 20
-0.0995
 30
0.0
 11
1.0
 21
0.0
 31
0.0
 44
0.9
  1
Metric Units
 40
0.145
 41
2.784
  0
MTEXT
  5
261
100
AcDbEntity
  8
0
100
AcDbMText
 62
2
  6
CONTINUOUS
  7
STANDARD
 71
2
 72
1
 10
1.5275
 20
-0.4065
 30
0.0
 11
1.0
 21
0.0
 31
0.0
 44
0.9
  1
Cavity
 40
0.125
 41
1.2
  0
MTEXT
  5
262
100
AcDbEntity
  8
0
100
AcDbMText
 62
2
  6
CONTINUOUS
  7
STANDARD
 71
2
 72
1
 10
6.055
 20
-0.4065
 30
0.0
 11
1.0
 21
0.0
 31
0.0
 44
0.9
  1
T-22A
 40
0.125
 41
1.0
  0
MTEXT
  5
263
100
AcDbEntity
  8
0
100
AcDbMText
 62
2
  6
CONTINUOUS
  7
STANDARD
 71
2
 72
1
 10
1.5275
 20
-0.6565
 30
0.0
 11
1.0
 21
0.0
 31
0.0
 44
0.9
  1
Body Features
 40
0.125
 41
2.6
  0
MTEXT
  5
264
100
AcDbEntity
  8
0
100
AcDbMText
 62
2
  6
CONTINUOUS
  7
STANDARD
 71
2
 72
1
 10
6.055
 20
-0.6565
 30
0.0
 11
1.0
 21
0.0
 31
0.0
 44
0.9
  1
Ninety degree with reverse flow check - reducing
 40
0.125
 41
9.6
  0
MTEXT
  5
265
100
AcDbEntity
  8
0
100
AcDbMText
 62
2
  6
CONTINUOUS
  7
STANDARD
 71
2
 72
1
 10
1.5275
 20
-0.9065
 30
0.0
 11
1.0
 21
0.0
 31
0.0
 44
0.9
  1
Body Type
 40
0.125
 41
1.8
  0
MTEXT
  5
266
100
AcDbEntity
  8
0
100
AcDbMText
 62
2
  6
CONTINUOUS
  7
STANDARD
 71
2
 72
1
 10
6.055
 20
-0.9065
 30
0.0
 11
1.0
 21
0.0
 31
0.0
 44
0.9
  1
Line mount
 40
0.125
 41
2.0
  0
MTEXT
  5
267
100
AcDbEntity
  8
0
100
AcDbMText
 62
2
  6
CONTINUOUS
  7
STANDARD
 71
2
 72
1
 10
1.5275
 20
-1.1565
 30
0.0
 11
1.0
 21
0.0
 31
0.0
 44
0.9
  1
Interface
 40
0.125
 41
1.8
  0
MTEXT
  5
268
100
AcDbEntity
  8
0
100
AcDbMText
 62
2
  6
CONTINUOUS
  7
STANDARD
 71
2
 72
1
 10
6.055
 20
-1.1565
 30
0.0
 11
1.0
 21
0.0
 31
0.0
 44
0.9
  1
None
 40
0.125
 41
0.8
  0
MTEXT
  5
269
100
AcDbEntity
  8
0
100
AcDbMText
 62
2
  6
CONTINUOUS
  7
STANDARD
 71
2
 72
1
 10
1.5275
 20
-1.4065
 30
0.0
 11
1.0
 21
0.0
 31
0.0
 44
0.9
  1
Open Cavity Quantity
 40
0.125
 41
4.0
  0
MTEXT
  5
26A
100
AcDbEntity
  8
0
100
AcDbMText
 62
2
  6
CONTINUOUS
  7
STANDARD
 71
2
 72
1
 10
6.055
 20
-1.4065
 30
0.0
 11
1.0
 21
0.0
 31
0.0
 44
0.9
  1
1
 40
0.125
 41
0.2
  0
MTEXT
  5
26B
100
AcDbEntity
  8
0
100
AcDbMText
 62
2
  6
CONTINUOUS
  7
STANDARD
 71
2
 72
1
 10
1.5275
 20
-1.6565
 30
0.0
 11
1.0
 21
0.0
 31
0.0
 44
0.9
  1
Weight
 40
0.125
 41
1.2
  0
MTEXT
  5
26C
100
AcDbEntity
  8
0
100
AcDbMText
 62
2
  6
CONTINUOUS
  7
STANDARD
 71
2
 72
1
 10
4.555
 20
-1.6565
 30
0.0
 11
1.0
 21
0.0
 31
0.0
 44
0.9
  1
2.346 lb.
 40
0.125
 41
1.8
  0
MTEXT
  5
26D
100
AcDbEntity
  8
0
100
AcDbMText
 62
2
  6
CONTINUOUS
  7
STANDARD
 71
2
 72
1
 10
7.555
 20
-1.6565
 30
0.0
 11
1.0
 21
0.0
 31
0.0
 44
0.9
  1
1,064 kg.
 40
0.125
 41
1.8
  0
MTEXT
  5
26E
100
AcDbEntity
  8
0
100
AcDbMText
 62
2
  6
CONTINUOUS
  7
STANDARD
 71
2
 72
1
 10
1.5275
 20
-1.9065
 30
0.0
 11
1.0
 21
0.0
 31
0.0
 44
0.9
  1
Mounting Hole Diameter
 40
0.125
 41
4.4
  0
MTEXT
  5
26F
100
AcDbEntity
  8
0
100
AcDbMText
 62
2
  6
CONTINUOUS
  7
STANDARD
 71
2
 72
1
 10
4.555
 20
-1.9065
 30
0.0
 11
1.0
 21
0.0
 31
0.0
 44
0.9
  1
.41 in.
 40
0.125
 41
1.4
  0
MTEXT
  5
270
100
AcDbEntity
  8
0
100
AcDbMText
 62
2
  6
CONTINUOUS
  7
STANDARD
 71
2
 72
1
 10
7.555
 20
-1.9065
 30
0.0
 11
1.0
 21
0.0
 31
0.0
 44
0.9
  1
10,4 mm
 40
0.125
 41
1.4
  0
MTEXT
  5
271
100
AcDbEntity
  8
0
100
AcDbMText
 62
2
  6
CONTINUOUS
  7
STANDARD
 71
2
 72
1
 10
1.5275
 20
-2.1565
 30
0.0
 11
1.0
 21
0.0
 31
0.0
 44
0.9
  1
Mounting Hole Depth
 40
0.125
 41
3.8
  0
MTEXT
  5
272
100
AcDbEntity
  8
0
100
AcDbMText
 62
2
  6
CONTINUOUS
  7
STANDARD
 71
2
 72
1
 10
6.055
 20
-2.1565
 30
0.0
 11
1.0
 21
0.0
 31
0.0
 44
0.9
  1
Through
 40
0.125
 41
1.4
  0
MTEXT
  5
273
100
AcDbEntity
  8
0
100
AcDbMText
 62
2
  6
CONTINUOUS
  7
STANDARD
 71
2
 72
1
 10
1.5275
 20
-2.4065
 30
0.0
 11
1.0
 21
0.0
 31
0.0
 44
0.9
  1
Mounting Hole Quantity
 40
0.125
 41
4.4
  0
MTEXT
  5
274
100
AcDbEntity
  8
0
100
AcDbMText
 62
2
  6
CONTINUOUS
  7
STANDARD
 71
2
 72
1
 10
6.055
 20
-2.4065
 30
0.0
 11
1.0
 21
0.0
 31
0.0
 44
0.9
  1
2
 40
0.125
 41
0.2
  0
ENDBLK
  5
275
100
AcDbEntity
  8
0
  6
BYBLOCK
 62
0
100
AcDbBlockEnd
  0
BLOCK
  5
276
100
AcDbEntity
  8
0
100
AcDbBlockBegin
  2
*T3
 70
1
 10
0.0
 20
0.0
  3
*T3
  1

  0
LINE
  5
277
100
AcDbEntity
  8
0
100
AcDbLine
 62
2
  6
CONTINUOUS
 10
0.0
 20
0.0
 11
4.6
 21
0.0
  0
LINE
  5
278
100
AcDbEntity
  8
0
100
AcDbLine
 62
2
  6
CONTINUOUS
 10
0.0
 20
0.0
 11
0.0
 21
-1.43775
  0
LINE
  5
279
100
AcDbEntity
  8
0
100
AcDbLine
 62
2
  6
CONTINUOUS
 10
0.0
 20
-0.34375
 11
4.6
 21
-0.34375
  0
LINE
  5
27A
100
AcDbEntity
  8
0
100
AcDbLine
 62
2
  6
CONTINUOUS
 10
0.0
 20
-0.68775
 11
4.6
 21
-0.68775
  0
LINE
  5
27B
100
AcDbEntity
  8
0
100
AcDbLine
 62
2
  6
CONTINUOUS
 10
0.0
 20
-0.93775
 11
4.6
 21
-0.93775
  0
LINE
  5
27C
100
AcDbEntity
  8
0
100
AcDbLine
 62
2
  6
CONTINUOUS
 10
0.0
 20
-1.18775
 11
4.6
 21
-1.18775
  0
LINE
  5
27D
100
AcDbEntity
  8
0
100
AcDbLine
 62
2
  6
CONTINUOUS
 10
0.0
 20
-1.43775
 11
4.6
 21
-1.43775
  0
LINE
  5
27E
100
AcDbEntity
  8
0
100
AcDbLine
 62
2
  6
CONTINUOUS
 10
1.3
 20
-0.34375
 11
1.3
 21
-1.43775
  0
LINE
  5
27F
100
AcDbEntity
  8
0
100
AcDbLine
 62
2
  6
CONTINUOUS
 10
3.3
 20
-0.34375
 11
3.3
 21
-1.43775
  0
LINE
  5
280
100
AcDbEntity
  8
0
100
AcDbLine
 62
2
  6
CONTINUOUS
 10
4.6
 20
0.0
 11
4.6
 21
-1.43775
  0
MTEXT
  5
281
100
AcDbEntity
  8
0
100
AcDbMText
 62
2
  6
CONTINUOUS
  7
STANDARD
 71
2
 72
1
 10
2.3
 20
-0.099375
 30
0.0
 11
1.0
 21
0.0
 31
0.0
 44
0.9
  1
Port Headings
 40
0.145
 41
3.016
  0
MTEXT
  5
282
100
AcDbEntity
  8
0
100
AcDbMText
 62
2
  6
CONTINUOUS
  7
STANDARD
 71
2
 72
1
 10
0.65
 20
-0.44325
 30
0.0
 11
1.0
 21
0.0
 31
0.0
 44
0.9
  1
Product
 40
0.145
 41
1.624
  0
MTEXT
  5
283
100
AcDbEntity
  8
0
100
AcDbMText
 62
2
  6
CONTINUOUS
  7
STANDARD
 71
2
 72
1
 10
2.3
 20
-0.44325
 30
0.0
 11
1.0
 21
0.0
 31
0.0
 44
0.9
  1
Port
 40
0.145
 41
0.928
  0
MTEXT
  5
284
100
AcDbEntity
  8
0
100
AcDbMText
 62
2
  6
CONTINUOUS
  7
STANDARD
 71
2
 72
1
 10
3.95
 20
-0.44325
 30
0.0
 11
1.0
 21
0.0
 31
0.0
 44
0.9
  1
Size
 40
0.145
 41
0.928
  0
MTEXT
  5
285
100
AcDbEntity
  8
0
100
AcDbMText
 62
2
  6
CONTINUOUS
  7
STANDARD
 71
2
 72
1
 10
0.65
 20
-0.75025
 30
0.0
 11
1.0
 21
0.0
 31
0.0
 44
0.9
  1
N4V
 40
0.125
 41
0.6
  0
MTEXT
  5
286
100
AcDbEntity
  8
0
100
AcDbMText
 62
2
  6
CONTINUOUS
  7
STANDARD
 71
2
 72
1
 10
2.3
 20
-0.75025
 30
0.0
 11
1.0
 21
0.0
 31
0.0
 44
0.9
  1
Ports 1, 2, 3
 40
0.125
 41
2.6
  0
MTEXT
  5
287
100
AcDbEntity
  8
0
100
AcDbMText
 62
2
  6
CONTINUOUS
  7
STANDARD
 71
2
 72
1
 10
3.95
 20
-0.75025
 30
0.0
 11
1.0
 21
0.0
 31
0.0
 44
0.9
  1
1/2" BSPP
 40
0.125
 41
1.8
  0
MTEXT
  5
288
100
AcDbEntity
  8
0
100
AcDbMText
 62
2
  6
CONTINUOUS
  7
STANDARD
 71
2
 72
1
 10
0.65
 20
-1.00025
 30
0.0
 11
1.0
 21
0.0
 31
0.0
 44
0.9
  1
N4V
 40
0.125
 41
0.6
  0
MTEXT
  5
289
100
AcDbEntity
  8
0
100
AcDbMText
 62
2
  6
CONTINUOUS
  7
STANDARD
 71
2
 72
1
 10
2.3
 20
-1.00025
 30
0.0
 11
1.0
 21
0.0
 31
0.0
 44
0.9
  1
Port 4
 40
0.125
 41
1.2
  0
MTEXT
  5
28A
100
AcDbEntity
  8
0
100
AcDbMText
 62
2
  6
CONTINUOUS
  7
STANDARD
 71
2
 72
1
 10
3.95
 20
-1.00025
 30
0.0
 11
1.0
 21
0.0
 31
0.0
 44
0.9
  1
1/4" BSPP
 40
0.125
 41
1.8
  0
MTEXT
  5
28B
100
AcDbEntity
  8
0
100
AcDbMText
 62
2
  6
CONTINUOUS
  7
STANDARD
 71
2
 72
1
 10
0.65
 20
-1.25025
 30
0.0
 11
1.0
 21
0.0
 31
0.0
 44
0.9
  1
N4V
 40
0.125
 41
0.6
  0
MTEXT
  5
28C
100
AcDbEntity
  8
0
100
AcDbMText
 62
2
  6
CONTINUOUS
  7
STANDARD
 71
2
 72
1
 10
2.3
 20
-1.25025
 30
0.0
 11
1.0
 21
0.0
 31
0.0
 44
0.9
  1
Gage Port
 40
0.125
 41
1.8
  0
MTEXT
  5
28D
100
AcDbEntity
  8
0
100
AcDbMText
 62
2
  6
CONTINUOUS
  7
STANDARD
 71
2
 72
1
 10
3.95
 20
-1.25025
 30
0.0
 11
1.0
 21
0.0
 31
0.0
 44
0.9
  1
1/4" BSPP
 40
0.125
 41
1.8
  0
ENDBLK
  5
28E
100
AcDbEntity
  8
0
  6
BYBLOCK
 62
0
100
AcDbBlockEnd
  0
ENDSEC
  0
SECTION
  2
ENTITIES
  0
IMAGE
  5
28F
100
AcDbEntity
  8
0
100
AcDbRasterImage
 62
7
  6
CONTINUOUS
 10
19.2297077316
 20
0.3094318264
 30
0.0
 11
0.0066666667
 21
0.0
 31
0.0
 12
0.0
 22
0.0066666667
 32
0.0
 13
369.0
 23
92.0
340
       3A5
 70
9
280
0
281
50
282
50
283
0
360
       39F
 71
1
 91
2
 14
-0.5
 24
-0.5
 14
368.5
 24
91.5
  0
INSERT
  5
290
100
AcDbEntity
  8
0
100
AcDbBlockReference
 62
2
  6
CONTINUOUS
  2
SUN_FIRST_THIRD_ANGLE_BL0
 10
20.4816717061
 20
1.2289683772
  0
ACAD_TABLE
  5
291
100
AcDbEntity
  8
0
 62
2
  6
CONTINUOUS
100
AcDbBlockReference
  2
*T1
 10
12.42375
 20
0.30125
 30
0.0
100
AcDbTable
342
       3A7
343
20F
 11
1.0
 21
0.0
 31
0.0
 90
6
 91
4
 92
6
 93
20
 94
0
 95
0
 96
0
 70
1
 41
0.0
141
0.525
141
0.1
141
0.525
141
0.1
142
4.1
142
1.1
142
0.7
142
0.5
142
0.4
142
2.475
171
1
172
0
173
0
174
0
175
1
176
1
 91
33
178
0
145
0.0
301
CELL_VALUE
 90
4
  1
T-22A Line mount\P(See Technical Data for Body Features)
304
ACVALUE_END
170
2
140
0.125
171
1
172
0
173
0
174
0
175
1
176
1
 91
33
178
0
145
0.0
301
CELL_VALUE
 90
4
  1
Jul-17-20
304
ACVALUE_END
170
5
140
0.125
171
1
172
0
173
0
174
0
175
1
176
1
 91
33
178
0
145
0.0
301
CELL_VALUE
 90
4
  1
1.000
304
ACVALUE_END
170
5
140
0.125
171
1
172
0
173
0
174
0
175
1
176
1
 91
33
178
0
145
0.0
301
CELL_VALUE
 90
4
  1
C
304
ACVALUE_END
170
5
140
0.125
171
1
172
0
173
0
174
0
175
1
176
1
 91
33
178
0
145
0.0
301
CELL_VALUE
 90
4
  1
2
304
ACVALUE_END
170
5
140
0.125
171
1
172
0
173
0
174
0
175
1
176
1
 91
33
178
0
145
0.0
301
CELL_VALUE
 90
4
  1
 
304
ACVALUE_END
170
1
140
0.125
171
1
172
0
173
0
174
0
175
1
176
1
 91
33
178
0
145
0.0
301
CELL_VALUE
 90
4
  1
DESCRIPTION
304
ACVALUE_END
170
1
140
0.06
171
1
172
0
173
0
174
0
175
1
176
1
 91
33
178
0
145
0.0
301
CELL_VALUE
 90
4
  1
DATE
304
ACVALUE_END
170
1
140
0.06
171
1
172
0
173
0
174
0
175
1
176
1
 91
33
178
0
145
0.0
301
CELL_VALUE
 90
4
  1
SCALE
304
ACVALUE_END
170
1
140
0.06
171
1
172
0
173
0
174
0
175
1
176
1
 91
33
178
0
145
0.0
301
CELL_VALUE
 90
4
  1
DWG SIZE
304
ACVALUE_END
170
1
140
0.06
171
1
172
0
173
0
174
0
175
1
176
1
 91
33
178
0
145
0.0
301
CELL_VALUE
 90
4
  1
SHEET
304
ACVALUE_END
170
1
140
0.06
171
1
172
0
173
0
174
0
175
1
176
1
 91
33
178
0
145
0.0
301
CELL_VALUE
 90
4
  1
 
304
ACVALUE_END
170
1
140
0.125
171
1
172
0
173
0
174
0
175
1
176
1
 91
33
178
0
145
0.0
301
CELL_VALUE
 90
4
  1
N4V
304
ACVALUE_END
170
5
140
0.125
171
1
172
0
173
0
174
0
175
4
176
1
 91
33
178
0
145
0.0
301
CELL_VALUE
 90
4
  1
ALL DIMENSIONS IN INCH\PVIEWS ARE THIRD ANGLE
304
ACVALUE_END
170
5
140
0.12
171
1
172
0
173
1
174
0
175
1
176
1
 91
1
178
0
145
0.0
170
1
171
1
172
0
173
1
174
0
175
1
176
1
 91
1
178
0
145
0.0
170
1
171
1
172
0
173
1
174
0
175
1
176
1
 91
1
178
0
145
0.0
170
5
171
1
172
0
173
0
174
0
175
1
176
1
 91
33
178
0
145
0.0
301
CELL_VALUE
 90
4
  1
 
304
ACVALUE_END
170
1
140
0.125
171
1
172
0
173
0
174
0
175
1
176
1
 91
33
178
0
145
0.0
301
CELL_VALUE
 90
4
  1
MODEL
304
ACVALUE_END
170
1
140
0.06
171
1
172
0
173
0
174
0
175
1
176
1
 91
33
178
0
145
0.0
301
CELL_VALUE
 90
4
  1
 
304
ACVALUE_END
170
1
140
0.125
171
1
172
0
173
0
174
0
175
1
176
1
 91
33
178
0
145
0.0
301
CELL_VALUE
 90
4
  1
 
304
ACVALUE_END
170
1
140
0.125
171
1
172
0
173
0
174
0
175
1
176
1
 91
33
178
0
145
0.0
301
CELL_VALUE
 90
4
  1
 
304
ACVALUE_END
170
1
140
0.125
171
1
172
0
173
0
174
0
175
1
176
1
 91
33
178
0
145
0.0
301
CELL_VALUE
 90
4
  1
 
304
ACVALUE_END
170
1
140
0.125
171
1
172
0
173
0
174
0
175
1
176
1
 91
33
178
0
145
0.0
301
CELL_VALUE
 90
4
  1
 
304
ACVALUE_END
170
1
140
0.125
  0
ACAD_TABLE
  5
292
100
AcDbEntity
  8
0
 62
2
  6
CONTINUOUS
100
AcDbBlockReference
  2
*T2
 10
12.4237499994
 20
16.47875
 30
0.0
100
AcDbTable
342
       3A6
343
210
 11
1.0
 21
0.0
 31
0.0
 90
22
 91
10
 92
3
 93
16
 94
0
 95
0
 96
0
 41
0.028
141
0.344
141
0.25
141
0.25
141
0.25
141
0.25
141
0.25
141
0.25
141
0.25
141
0.25
141
0.25
142
3.055
142
3.0
142
3.0
171
1
172
0
173
0
174
0
175
1
176
1
 91
33
178
0
145
0.0
301
CELL_VALUE
 90
4
  1
Technical Data
304
ACVALUE_END
170
5
140
0.145
171
1
172
0
173
0
174
0
175
1
176
1
 91
33
178
0
145
0.0
301
CELL_VALUE
 90
4
  1
U.S. Units
304
ACVALUE_END
170
5
140
0.145
171
1
172
0
173
0
174
0
175
1
176
1
 91
33
178
0
145
0.0
301
CELL_VALUE
 90
4
  1
Metric Units
304
ACVALUE_END
170
5
140
0.145
171
1
172
0
173
0
174
0
175
1
176
1
 91
33
178
0
145
0.0
301
CELL_VALUE
 90
4
  1
Cavity
304
ACVALUE_END
170
5
140
0.125
171
1
172
0
173
0
174
0
175
2
176
1
 91
33
178
0
145
0.0
301
CELL_VALUE
 90
4
  1
T-22A
304
ACVALUE_END
170
5
140
0.125
171
1
172
0
173
1
174
0
175
1
176
1
 91
1
178
0
145
0.0
170
1
171
1
172
0
173
0
174
0
175
1
176
1
 91
33
178
0
145
0.0
301
CELL_VALUE
 90
4
  1
Body Features
304
ACVALUE_END
170
5
140
0.125
171
1
172
0
173
0
174
0
175
2
176
1
 91
33
178
0
145
0.0
301
CELL_VALUE
 90
4
  1
Ninety degree with reverse flow check - reducing
304
ACVALUE_END
170
5
140
0.125
171
1
172
0
173
1
174
0
175
1
176
1
 91
1
178
0
145
0.0
170
1
171
1
172
0
173
0
174
0
175
1
176
1
 91
33
178
0
145
0.0
301
CELL_VALUE
 90
4
  1
Body Type
304
ACVALUE_END
170
5
140
0.125
171
1
172
0
173
0
174
0
175
2
176
1
 91
33
178
0
145
0.0
301
CELL_VALUE
 90
4
  1
Line mount
304
ACVALUE_END
170
5
140
0.125
171
1
172
0
173
1
174
0
175
1
176
1
 91
1
178
0
145
0.0
170
1
171
1
172
0
173
0
174
0
175
1
176
1
 91
33
178
0
145
0.0
301
CELL_VALUE
 90
4
  1
Interface
304
ACVALUE_END
170
5
140
0.125
171
1
172
0
173
0
174
0
175
2
176
1
 91
33
178
0
145
0.0
301
CELL_VALUE
 90
4
  1
None
304
ACVALUE_END
170
5
140
0.125
171
1
172
0
173
1
174
0
175
1
176
1
 91
1
178
0
145
0.0
170
1
171
1
172
0
173
0
174
0
175
1
176
1
 91
33
178
0
145
0.0
301
CELL_VALUE
 90
4
  1
Open Cavity Quantity
304
ACVALUE_END
170
5
140
0.125
171
1
172
0
173
0
174
0
175
2
176
1
 91
33
178
0
145
0.0
301
CELL_VALUE
 90
4
  1
1
304
ACVALUE_END
170
5
140
0.125
171
1
172
0
173
1
174
0
175
1
176
1
 91
1
178
0
145
0.0
170
1
171
1
172
0
173
0
174
0
175
1
176
1
 91
33
178
0
145
0.0
301
CELL_VALUE
 90
4
  1
Weight
304
ACVALUE_END
170
5
140
0.125
171
1
172
0
173
0
174
0
175
1
176
1
 91
33
178
0
145
0.0
301
CELL_VALUE
 90
4
  1
2.346 lb.
304
ACVALUE_END
170
5
140
0.125
171
1
172
0
173
0
174
0
175
1
176
1
 91
33
178
0
145
0.0
301
CELL_VALUE
 90
4
  1
1,064 kg.
304
ACVALUE_END
170
5
140
0.125
171
1
172
0
173
0
174
0
175
1
176
1
 91
33
178
0
145
0.0
301
CELL_VALUE
 90
4
  1
Mounting Hole Diameter
304
ACVALUE_END
170
5
140
0.125
171
1
172
0
173
0
174
0
175
1
176
1
 91
33
178
0
145
0.0
301
CELL_VALUE
 90
4
  1
.41 in.
304
ACVALUE_END
170
5
140
0.125
171
1
172
0
173
0
174
0
175
1
176
1
 91
33
178
0
145
0.0
301
CELL_VALUE
 90
4
  1
10,4 mm
304
ACVALUE_END
170
5
140
0.125
171
1
172
0
173
0
174
0
175
1
176
1
 91
33
178
0
145
0.0
301
CELL_VALUE
 90
4
  1
Mounting Hole Depth
304
ACVALUE_END
170
5
140
0.125
171
1
172
0
173
0
174
0
175
2
176
1
 91
33
178
0
145
0.0
301
CELL_VALUE
 90
4
  1
Through
304
ACVALUE_END
170
5
140
0.125
171
1
172
0
173
1
174
0
175
1
176
1
 91
1
178
0
145
0.0
170
1
171
1
172
0
173
0
174
0
175
1
176
1
 91
33
178
0
145
0.0
301
CELL_VALUE
 90
4
  1
Mounting Hole Quantity
304
ACVALUE_END
170
5
140
0.125
171
1
172
0
173
0
174
0
175
2
176
1
 91
33
178
0
145
0.0
301
CELL_VALUE
 90
4
  1
2
304
ACVALUE_END
170
5
140
0.125
171
1
172
0
173
1
174
0
175
1
176
1
 91
1
178
0
145
0.0
170
1
  0
ACAD_TABLE
  5
293
100
AcDbEntity
  8
0
 62
2
  6
CONTINUOUS
100
AcDbBlockReference
  2
*T3
 10
0.52125
 20
1.959
 30
0.0
100
AcDbTable
342
       3A6
343
211
 11
1.0
 21
0.0
 31
0.0
 90
22
 91
5
 92
3
 93
16
 94
0
 95
0
 96
0
 41
0.05
141
0.34375
141
0.344
141
0.25
141
0.25
141
0.25
142
1.3
142
2.0
142
1.3
171
1
172
0
173
0
174
0
175
3
176
1
 91
33
178
0
145
0.0
301
CELL_VALUE
 90
4
  1
Port Headings
304
ACVALUE_END
170
5
140
0.145
171
1
172
0
173
1
174
0
175
1
176
1
 91
1
178
0
145
0.0
170
1
171
1
172
0
173
1
174
0
175
1
176
1
 91
1
178
0
145
0.0
170
1
171
1
172
0
173
0
174
0
175
1
176
1
 91
33
178
0
145
0.0
301
CELL_VALUE
 90
4
  1
Product
304
ACVALUE_END
170
5
140
0.145
171
1
172
0
173
0
174
0
175
1
176
1
 91
33
178
0
145
0.0
301
CELL_VALUE
 90
4
  1
Port
304
ACVALUE_END
170
5
140
0.145
171
1
172
0
173
0
174
0
175
1
176
1
 91
33
178
0
145
0.0
301
CELL_VALUE
 90
4
  1
Size
304
ACVALUE_END
170
5
140
0.145
171
1
172
0
173
0
174
0
175
1
176
1
 91
33
178
0
145
0.0
301
CELL_VALUE
 90
4
  1
N4V
304
ACVALUE_END
170
5
140
0.125
171
1
172
0
173
0
174
0
175
1
176
1
 91
33
178
0
145
0.0
301
CELL_VALUE
 90
4
  1
Ports 1, 2, 3
304
ACVALUE_END
170
5
140
0.125
171
1
172
0
173
0
174
0
175
1
176
1
 91
33
178
0
145
0.0
301
CELL_VALUE
 90
4
  1
1/2" BSPP
304
ACVALUE_END
170
5
140
0.125
171
1
172
0
173
0
174
0
175
1
176
1
 91
33
178
0
145
0.0
301
CELL_VALUE
 90
4
  1
N4V
304
ACVALUE_END
170
5
140
0.125
171
1
172
0
173
0
174
0
175
1
176
1
 91
33
178
0
145
0.0
301
CELL_VALUE
 90
4
  1
Port 4
304
ACVALUE_END
170
5
140
0.125
171
1
172
0
173
0
174
0
175
1
176
1
 91
33
178
0
145
0.0
301
CELL_VALUE
 90
4
  1
1/4" BSPP
304
ACVALUE_END
170
5
140
0.125
171
1
172
0
173
0
174
0
175
1
176
1
 91
33
178
0
145
0.0
301
CELL_VALUE
 90
4
  1
N4V
304
ACVALUE_END
170
5
140
0.125
171
1
172
0
173
0
174
0
175
1
176
1
 91
33
178
0
145
0.0
301
CELL_VALUE
 90
4
  1
Gage Port
304
ACVALUE_END
170
5
140
0.125
171
1
172
0
173
0
174
0
175
1
176
1
 91
33
178
0
145
0.0
301
CELL_VALUE
 90
4
  1
1/4" BSPP
304
ACVALUE_END
170
5
140
0.125
  0
MTEXT
  5
294
100
AcDbEntity
  8
0
100
AcDbMText
 62
2
  6
CONTINUOUS
  7
STANDARD
 71
1
 72
1
 10
0.52125
 20
5.75995
 30
0.0
 11
1.0
 21
0.0
 31
0.0
 44
0.6
  3
Notes\P \P1. Important: Carefully consider\P   the maximum system pressure. The\P   pressure rating of the manifold is\P   dependent on the manifold material,\P   with the port type/size a secondary\P   consideration. Manifolds\P   constructed of alu
  1
minum are not\P   rated for pressures higher than\P   3000 psi (210 bar), regardless of\P   the port type/size specified.
 40
0.1
 41
3.04
  0
LINE
  5
295
100
AcDbEntity
  8
0
100
AcDbLine
 62
7
  6
CONTINUOUS
 10
0.30125
 20
0.30125
 11
0.30125
 21
16.69875
  0
LINE
  5
296
100
AcDbEntity
  8
0
100
AcDbLine
 62
7
  6
CONTINUOUS
 10
0.30125
 20
0.30125
 11
21.69875
 21
0.30125
  0
LINE
  5
297
100
AcDbEntity
  8
0
100
AcDbLine
 62
7
  6
CONTINUOUS
 10
0.30125
 20
16.69875
 11
21.69875
 21
16.69875
  0
LINE
  5
298
100
AcDbEntity
  8
0
100
AcDbLine
 62
7
  6
CONTINUOUS
 10
21.69875
 20
0.30125
 11
21.69875
 21
16.69875
  0
LINE
  5
299
100
AcDbEntity
  8
0
100
AcDbLine
 62
7
  6
CONTINUOUS
 10
9.2622623566
 20
11.2107129552
 11
8.8740341093
 21
10.8357132424
  0
LINE
  5
29A
100
AcDbEntity
  8
0
100
AcDbLine
 62
4
  6
CONTINUOUS
 10
9.1126178363
 20
9.8822193511
 11
9.1053733923
 21
9.8730624987
  0
LINE
  5
29B
100
AcDbEntity
  8
0
100
AcDbLine
 62
4
  6
CONTINUOUS
 10
9.1198622802
 20
9.8237613955
 11
9.1053733923
 21
9.8054476863
  0
LINE
  5
29C
100
AcDbEntity
  8
0
100
AcDbLine
 62
7
  6
CONTINUOUS
 10
8.8740341093
 20
6.4890467666
 11
8.8740341093
 21
10.8357132424
  0
LINE
  5
29D
100
AcDbEntity
  8
0
100
AcDbLine
 62
4
  6
CONTINUOUS
 10
9.0619067285
 20
9.9050546979
 11
9.0763956164
 21
9.9137091464
  0
LINE
  5
29E
100
AcDbEntity
  8
0
100
AcDbLine
 62
4
  6
CONTINUOUS
 10
9.1053733923
 20
9.8730624987
 11
9.0908845044
 21
9.8644080432
  0
LINE
  5
29F
100
AcDbEntity
  8
0
100
AcDbLine
 62
4
  6
CONTINUOUS
 10
9.1053733923
 20
9.8054476863
 11
9.0908845044
 21
9.7967932352
  0
LINE
  5
2A0
100
AcDbEntity
  8
0
100
AcDbLine
 62
7
  6
CONTINUOUS
 10
8.8740341093
 20
6.4890467666
 11
12.7377376434
 21
6.2210980164
  0
LINE
  5
2A1
100
AcDbEntity
  8
0
100
AcDbLine
 62
7
  6
CONTINUOUS
 10
11.4550988838
 20
5.8755624202
 11
11.4743167732
 21
5.8660691508
  0
LINE
  5
2A2
100
AcDbEntity
  8
0
100
AcDbLine
 62
4
  6
CONTINUOUS
 10
9.1126178363
 20
9.8918786074
 11
9.1126178363
 21
9.8822193511
  0
LINE
  5
2A3
100
AcDbEntity
  8
0
100
AcDbLine
 62
4
  6
CONTINUOUS
 10
9.1126178363
 20
7.6122934136
 11
9.1126178363
 21
7.4963823102
  0
LINE
  5
2A4
100
AcDbEntity
  8
0
100
AcDbLine
 62
4
  6
CONTINUOUS
 10
9.1198622802
 20
9.8334206552
 11
9.1198622802
 21
9.8237613955
  0
LINE
  5
2A5
100
AcDbEntity
  8
0
100
AcDbLine
 62
7
  6
CONTINUOUS
 10
11.2646636921
 20
10.8708842343
 11
11.26304458
 21
10.8693495424
  0
LINE
  5
2A6
100
AcDbEntity
  8
0
100
AcDbLine
 62
4
  6
CONTINUOUS
 10
11.3540488138
 20
7.3129267661
 11
11.3395599259
 21
7.3139315739
  0
LINE
  5
2A7
100
AcDbEntity
  8
0
100
AcDbLine
 62
4
  6
CONTINUOUS
 10
9.8965355649
 20
8.7998333564
 11
9.8965355649
 21
8.8163920845
  0
LINE
  5
2A8
100
AcDbEntity
  8
0
100
AcDbLine
 62
4
  6
CONTINUOUS
 10
9.9544911166
 20
8.7295792078
 11
9.9544911166
 21
8.7461379376
  0
LINE
  5
2A9
100
AcDbEntity
  8
0
100
AcDbLine
 62
4
  6
CONTINUOUS
 10
9.9876085728
 20
8.826634878
 11
9.9876085728
 21
8.7272825044
  0
LINE
  5
2AA
100
AcDbEntity
  8
0
100
AcDbLine
 62
4
  6
CONTINUOUS
 10
10.0234858332
 20
8.1170890506
 11
10.0234858332
 21
8.2330001541
  0
LINE
  5
2AB
100
AcDbEntity
  8
0
100
AcDbLine
 62
4
  6
CONTINUOUS
 10
10.0455641245
 20
8.7232632732
 11
10.0455641245
 21
8.8226156469
  0
LINE
  5
2AC
100
AcDbEntity
  8
0
100
AcDbLine
 62
4
  6
CONTINUOUS
 10
10.0786815806
 20
8.7044078401
 11
10.0786815806
 21
8.8203189435
  0
LINE
  5
2AD
100
AcDbEntity
  8
0
100
AcDbLine
 62
4
  6
CONTINUOUS
 10
10.081441378
 20
8.2124221953
 11
10.081441378
 21
8.1296285497
  0
LINE
  5
2AE
100
AcDbEntity
  8
0
100
AcDbLine
 62
4
  6
CONTINUOUS
 10
9.8965355649
 20
8.8163920845
 11
9.9130942947
 21
8.8318024608
  0
LINE
  5
2AF
100
AcDbEntity
  8
0
100
AcDbLine
 62
4
  6
CONTINUOUS
 10
11.3468043698
 20
7.3713847217
 11
11.3757821457
 21
7.3693751061
  0
LINE
  5
2B0
100
AcDbEntity
  8
0
100
AcDbLine
 62
4
  6
CONTINUOUS
 10
11.3395599259
 20
7.4298426773
 11
11.3540488138
 21
7.4288378695
  0
LINE
  5
2B1
100
AcDbEntity
  8
0
100
AcDbLine
 62
4
  6
CONTINUOUS
 10
10.1366371323
 20
8.7003886089
 11
10.1366371323
 21
8.8162997123
  0
LINE
  5
2B2
100
AcDbEntity
  8
0
100
AcDbLine
 62
4
  6
CONTINUOUS
 10
10.2608275963
 20
8.691775971
 11
10.2608275963
 21
8.8076870744
  0
LINE
  5
2B3
100
AcDbEntity
  8
0
100
AcDbLine
 62
4
  6
CONTINUOUS
 10
10.2608276161
 20
8.1006293421
 11
10.2608276161
 21
8.2165404455
  0
LINE
  5
2B4
100
AcDbEntity
  8
0
100
AcDbLine
 62
4
  6
CONTINUOUS
 10
10.3105037875
 20
8.7628451952
 11
10.3105037875
 21
8.6883309154
  0
LINE
  5
2B5
100
AcDbEntity
  8
0
100
AcDbLine
 62
4
  6
CONTINUOUS
 10
10.3146434955
 20
8.3519016257
 11
10.3146434955
 21
8.4678127292
  0
LINE
  5
2B6
100
AcDbEntity
  8
0
100
AcDbLine
 62
4
  6
CONTINUOUS
 10
10.3270625284
 20
8.0960359353
 11
10.3270625284
 21
8.2119470387
  0
LINE
  5
2B7
100
AcDbEntity
  8
0
100
AcDbLine
 62
4
  6
CONTINUOUS
 10
10.1283577777
 20
8.1098161566
 11
10.1614752339
 21
8.2234305566
  0
LINE
  5
2B8
100
AcDbEntity
  8
0
100
AcDbLine
 62
4
  6
CONTINUOUS
 10
9.9379323885
 20
8.7141688297
 11
9.9544911166
 21
8.7295792078
  0
LINE
  5
2B9
100
AcDbEntity
  8
0
100
AcDbLine
 62
4
  6
CONTINUOUS
 10
10.0290054033
 20
8.7078528946
 11
10.0455641245
 21
8.7232632732
  0
LINE
  5
2BA
100
AcDbEntity
  8
0
100
AcDbLine
 62
4
  6
CONTINUOUS
 10
9.957250914
 20
8.1713586456
 11
10.0014075257
 21
8.1462180683
  0
LINE
  5
2BB
100
AcDbEntity
  8
0
100
AcDbLine
 62
4
  6
CONTINUOUS
 10
11.3395599259
 20
7.3139315739
 11
11.325071038
 21
7.3245956406
  0
LINE
  5
2BC
100
AcDbEntity
  8
0
100
AcDbLine
 62
4
  6
CONTINUOUS
 10
10.06488265
 20
8.2301292751
 11
10.081441378
 21
8.2124221953
  0
LINE
  5
2BD
100
AcDbEntity
  8
0
100
AcDbLine
 62
4
  6
CONTINUOUS
 10
9.0619067285
 20
9.8084621097
 11
9.0546622846
 21
9.8186237725
  0
LINE
  5
2BE
100
AcDbEntity
  8
0
100
AcDbLine
 62
4
  6
CONTINUOUS
 10
9.1053733923
 20
9.8537439791
 11
9.1198622802
 21
9.8334206552
  0
LINE
  5
2BF
100
AcDbEntity
  8
0
100
AcDbLine
 62
4
  6
CONTINUOUS
 10
9.1053733923
 20
9.9020402745
 11
9.1126178363
 21
9.8918786074
  0
LINE
  5
2C0
100
AcDbEntity
  8
0
100
AcDbLine
 62
4
  6
CONTINUOUS
 10
10.0786815806
 20
8.8203189435
 11
10.1366371323
 21
8.7003886089
  0
LINE
  5
2C1
100
AcDbEntity
  8
0
100
AcDbLine
 62
4
  6
CONTINUOUS
 10
10.1614752339
 20
8.2234305566
 11
10.1945927038
 21
8.1052227489
  0
LINE
  5
2C2
100
AcDbEntity
  8
0
100
AcDbLine
 62
4
  6
CONTINUOUS
 10
10.3725990473
 20
8.3478823946
 11
10.3725990473
 21
8.463793498
  0
LINE
  5
2C3
100
AcDbEntity
  8
0
100
AcDbLine
 62
4
  6
CONTINUOUS
 10
10.4153757527
 20
8.6893373848
 11
10.4153757527
 21
8.7555722997
  0
LINE
  5
2C4
100
AcDbEntity
  8
0
100
AcDbLine
 62
4
  6
CONTINUOUS
 10
10.4443535425
 20
8.3429062034
 11
10.4443535425
 21
8.4008617551
  0
LINE
  5
2C5
100
AcDbEntity
  8
0
100
AcDbLine
 62
4
  6
CONTINUOUS
 10
10.4650519162
 20
8.7935240697
 11
10.4650519162
 21
8.6776129663
  0
LINE
  5
2C6
100
AcDbEntity
  8
0
100
AcDbLine
 62
4
  6
CONTINUOUS
 10
10.4981694138
 20
8.67531626
 11
10.4981694138
 21
8.7581099073
  0
LINE
  5
2C7
100
AcDbEntity
  8
0
100
AcDbLine
 62
4
  6
CONTINUOUS
 10
10.5009292112
 20
8.1005369697
 11
10.5009292112
 21
8.1833306153
  0
LINE
  5
2C8
100
AcDbEntity
  8
0
100
AcDbLine
 62
4
  6
CONTINUOUS
 10
10.5368064114
 20
8.7471510549
 11
10.5368064114
 21
8.7305923268
  0
LINE
  5
2C9
100
AcDbEntity
  8
0
100
AcDbLine
 62
4
  6
CONTINUOUS
 10
10.4057165034
 20
8.370423785
 11
10.430554599
 21
8.4597742668
  0
LINE
  5
2CA
100
AcDbEntity
  8
0
100
AcDbLine
 62
4
  6
CONTINUOUS
 10
10.3601799786
 20
8.657287978
 11
10.3932974209
 21
8.7653828047
  0
LINE
  5
2CB
100
AcDbEntity
  8
0
100
AcDbLine
 62
4
  6
CONTINUOUS
 10
10.4153757527
 20
8.7555722997
 11
10.4319344738
 21
8.762703316
  0
LINE
  5
2CC
100
AcDbEntity
  8
0
100
AcDbLine
 62
4
  6
CONTINUOUS
 10
10.7299915852
 20
8.0680927103
 11
10.6885947546
 21
8.0709635903
  0
LINE
  5
2CD
100
AcDbEntity
  8
0
100
AcDbLine
 62
4
  6
CONTINUOUS
 10
10.6389185911
 20
8.0744086439
 11
10.6140804817
 21
8.0761311726
  0
LINE
  5
2CE
100
AcDbEntity
  8
0
100
AcDbLine
 62
4
  6
CONTINUOUS
 10
10.5506053747
 20
8.0805331863
 11
10.5174879324
 21
8.0828298887
  0
LINE
  5
2CF
100
AcDbEntity
  8
0
100
AcDbLine
 62
4
  6
CONTINUOUS
 10
10.06488265
 20
8.1142181716
 11
10.0234858332
 21
8.1170890506
  0
LINE
  5
2D0
100
AcDbEntity
  8
0
100
AcDbLine
 62
4
  6
CONTINUOUS
 10
10.3270625284
 20
8.0960359353
 11
10.3767387196
 21
8.0925908798
  0
LINE
  5
2D1
100
AcDbEntity
  8
0
100
AcDbLine
 62
4
  6
CONTINUOUS
 10
10.7934667474
 20
8.0636906929
 11
10.8431429109
 21
8.0602456392
  0
LINE
  5
2D2
100
AcDbEntity
  8
0
100
AcDbLine
 62
4
  6
CONTINUOUS
 10
11.3540488138
 20
7.4288378695
 11
11.3685377017
 21
7.4181738054
  0
LINE
  5
2D3
100
AcDbEntity
  8
0
100
AcDbLine
 62
4
  6
CONTINUOUS
 10
9.9544911166
 20
8.7461379376
 11
9.8965355649
 21
8.7998333564
  0
LINE
  5
2D4
100
AcDbEntity
  8
0
100
AcDbLine
 62
4
  6
CONTINUOUS
 10
9.8965355649
 20
8.725319074
 11
9.9048149298
 21
8.7164655332
  0
LINE
  5
2D5
100
AcDbEntity
  8
0
100
AcDbLine
 62
4
  6
CONTINUOUS
 10
10.5174879324
 20
8.0828298887
 11
10.5009292112
 21
8.1005369697
  0
LINE
  5
2D6
100
AcDbEntity
  8
0
100
AcDbLine
 62
4
  6
CONTINUOUS
 10
9.9876085728
 20
8.7272825044
 11
10.0041673008
 21
8.7095754229
  0
LINE
  5
2D7
100
AcDbEntity
  8
0
100
AcDbLine
 62
4
  6
CONTINUOUS
 10
10.6140804817
 20
8.0761311726
 11
10.5975217606
 21
8.0938382537
  0
LINE
  5
2D8
100
AcDbEntity
  8
0
100
AcDbLine
 62
4
  6
CONTINUOUS
 10
9.9462117526
 20
8.8295057573
 11
9.9544911166
 21
8.8206522139
  0
LINE
  5
2D9
100
AcDbEntity
  8
0
100
AcDbLine
 62
4
  6
CONTINUOUS
 10
10.6389185911
 20
8.1903197473
 11
10.6554773123
 21
8.1726126681
  0
LINE
  5
2DA
100
AcDbEntity
  8
0
100
AcDbLine
 62
4
  6
CONTINUOUS
 10
10.3146434955
 20
8.4678127292
 11
10.3725990473
 21
8.3478823946
  0
LINE
  5
2DB
100
AcDbEntity
  8
0
100
AcDbLine
 62
4
  6
CONTINUOUS
 10
10.3436212574
 20
8.7688278583
 11
10.3684593668
 21
8.6843116823
  0
LINE
  5
2DC
100
AcDbEntity
  8
0
100
AcDbLine
 62
4
  6
CONTINUOUS
 10
10.4967895113
 20
8.4551808601
 11
10.5299069674
 21
8.3369730532
  0
LINE
  5
2DD
100
AcDbEntity
  8
0
100
AcDbLine
 62
4
  6
CONTINUOUS
 10
10.5726836867
 20
8.6784280425
 11
10.5726836867
 21
8.7032661372
  0
LINE
  5
2DE
100
AcDbEntity
  8
0
100
AcDbLine
 62
4
  6
CONTINUOUS
 10
10.5975217606
 20
8.0938382537
 11
10.5975217606
 21
8.1766318992
  0
LINE
  5
2DF
100
AcDbEntity
  8
0
100
AcDbLine
 62
4
  6
CONTINUOUS
 10
10.6223598502
 20
8.666703624
 11
10.6223598502
 21
8.7329385432
  0
LINE
  5
2E0
100
AcDbEntity
  8
0
100
AcDbLine
 62
4
  6
CONTINUOUS
 10
10.6554772925
 20
8.7472005689
 11
10.6554772925
 21
8.6726862865
  0
LINE
  5
2E1
100
AcDbEntity
  8
0
100
AcDbLine
 62
4
  6
CONTINUOUS
 10
10.6554773123
 20
8.1726126681
 11
10.6554773123
 21
8.0898190225
  0
LINE
  5
2E2
100
AcDbEntity
  8
0
100
AcDbLine
 62
4
  6
CONTINUOUS
 10
10.6885947546
 20
8.0709635903
 11
10.6885947546
 21
8.1868746937
  0
LINE
  5
2E3
100
AcDbEntity
  8
0
100
AcDbLine
 62
4
  6
CONTINUOUS
 10
10.7051535113
 20
8.6609618641
 11
10.7051535113
 21
8.7437555114
  0
LINE
  5
2E4
100
AcDbEntity
  8
0
100
AcDbLine
 62
4
  6
CONTINUOUS
 10
10.7382709536
 20
8.6669445266
 11
10.7382709536
 21
8.7745762651
  0
LINE
  5
2E5
100
AcDbEntity
  8
0
100
AcDbLine
 62
4
  6
CONTINUOUS
 10
10.7465503063
 20
8.1662967345
 11
10.7465503063
 21
8.0835030889
  0
LINE
  5
2E6
100
AcDbEntity
  8
0
100
AcDbLine
 62
4
  6
CONTINUOUS
 10
10.7934667474
 20
8.0636906929
 11
10.7934667474
 21
8.1796017963
  0
LINE
  5
2E7
100
AcDbEntity
  8
0
100
AcDbLine
 62
4
  6
CONTINUOUS
 10
10.5299069674
 20
8.3369730532
 11
10.5630244236
 21
8.4505874533
  0
LINE
  5
2E8
100
AcDbEntity
  8
0
100
AcDbLine
 62
4
  6
CONTINUOUS
 10
10.8155450041
 20
8.7692172915
 11
10.8127852265
 21
8.7611293152
  0
LINE
  5
2E9
100
AcDbEntity
  8
0
100
AcDbLine
 62
7
  6
CONTINUOUS
 10
12.7377376434
 20
10.5677644923
 11
13.1259658907
 21
10.942764205
  0
LINE
  5
2EA
100
AcDbEntity
  8
0
100
AcDbLine
 62
4
  6
CONTINUOUS
 10
10.081441378
 20
8.1296285497
 11
10.06488265
 21
8.1142181716
  0
LINE
  5
2EB
100
AcDbEntity
  8
0
100
AcDbLine
 62
4
  6
CONTINUOUS
 10
10.8569418347
 20
8.7249495879
 11
10.8652211676
 21
8.7326547817
  0
LINE
  5
2EC
100
AcDbEntity
  8
0
100
AcDbLine
 62
4
  6
CONTINUOUS
 10
10.9314561628
 20
8.7197820017
 11
10.9397354958
 21
8.7274871955
  0
LINE
  5
2ED
100
AcDbEntity
  8
0
100
AcDbLine
 62
4
  6
CONTINUOUS
 10
10.5726836867
 20
8.7032661372
 11
10.5892424078
 21
8.7103971501
  0
LINE
  5
2EE
100
AcDbEntity
  8
0
100
AcDbLine
 62
4
  6
CONTINUOUS
 10
10.1393969298
 20
8.1421680484
 11
10.183553538
 21
8.1391057772
  0
LINE
  5
2EF
100
AcDbEntity
  8
0
100
AcDbLine
 62
4
  6
CONTINUOUS
 10
10.8265841898
 20
8.1276289096
 11
10.7934667474
 21
8.1299256121
  0
LINE
  5
2F0
100
AcDbEntity
  8
0
100
AcDbLine
 62
4
  6
CONTINUOUS
 10
10.3601799984
 20
8.1599741502
 11
10.3270625284
 21
8.1622708545
  0
LINE
  5
2F1
100
AcDbEntity
  8
0
100
AcDbLine
 62
4
  6
CONTINUOUS
 10
10.0234858332
 20
8.2330001541
 11
10.06488265
 21
8.2301292751
  0
LINE
  5
2F2
100
AcDbEntity
  8
0
100
AcDbLine
 62
4
  6
CONTINUOUS
 10
10.2277101462
 20
8.2188371499
 11
10.2939450585
 21
8.2142437431
  0
LINE
  5
2F3
100
AcDbEntity
  8
0
100
AcDbLine
 62
4
  6
CONTINUOUS
 10
10.3270625284
 20
8.2119470387
 11
10.3767387196
 21
8.2085019832
  0
LINE
  5
2F4
100
AcDbEntity
  8
0
100
AcDbLine
 62
4
  6
CONTINUOUS
 10
10.5174879324
 20
8.1987409921
 11
10.5506053747
 21
8.1964442897
  0
LINE
  5
2F5
100
AcDbEntity
  8
0
100
AcDbLine
 62
4
  6
CONTINUOUS
 10
10.6140804817
 20
8.1920422761
 11
10.6389185911
 21
8.1903197473
  0
LINE
  5
2F6
100
AcDbEntity
  8
0
100
AcDbLine
 62
4
  6
CONTINUOUS
 10
10.6885947546
 20
8.1868746937
 11
10.7299915852
 21
8.1840038138
  0
LINE
  5
2F7
100
AcDbEntity
  8
0
100
AcDbLine
 62
4
  6
CONTINUOUS
 10
10.7934667474
 20
8.1796017963
 11
10.8431429109
 21
8.1761567427
  0
LINE
  5
2F8
100
AcDbEntity
  8
0
100
AcDbLine
 62
4
  6
CONTINUOUS
 10
10.8762603533
 20
8.129703432
 11
10.9204169615
 21
8.1045628533
  0
LINE
  5
2F9
100
AcDbEntity
  8
0
100
AcDbLine
 62
4
  6
CONTINUOUS
 10
10.7299915852
 20
8.1840038138
 11
10.7465503063
 21
8.1662967345
  0
LINE
  5
2FA
100
AcDbEntity
  8
0
100
AcDbLine
 62
4
  6
CONTINUOUS
 10
10.3022244269
 20
8.7716987383
 11
10.3105037875
 21
8.7628451952
  0
LINE
  5
2FB
100
AcDbEntity
  8
0
100
AcDbLine
 62
4
  6
CONTINUOUS
 10
11.325071038
 20
7.3245956406
 11
11.31058215
 21
7.3449189653
  0
LINE
  5
2FC
100
AcDbEntity
  8
0
100
AcDbLine
 62
4
  6
CONTINUOUS
 10
11.3685377017
 20
7.4181738054
 11
11.3757821457
 21
7.4080121383
  0
LINE
  5
2FD
100
AcDbEntity
  8
0
100
AcDbLine
 62
4
  6
CONTINUOUS
 10
10.5312868561
 20
8.7558132049
 11
10.5368064114
 21
8.7471510549
  0
LINE
  5
2FE
100
AcDbEntity
  8
0
100
AcDbLine
 62
4
  6
CONTINUOUS
 10
10.6223598502
 20
8.7329385432
 11
10.6140805172
 21
8.750071445
  0
LINE
  5
2FF
100
AcDbEntity
  8
0
100
AcDbLine
 62
4
  6
CONTINUOUS
 10
10.8127852265
 20
8.6534975793
 11
10.8127852265
 21
8.7362912266
  0
LINE
  5
300
100
AcDbEntity
  8
0
100
AcDbLine
 62
4
  6
CONTINUOUS
 10
10.8127852265
 20
8.7611293152
 11
10.8127852265
 21
8.7694086827
  0
LINE
  5
301
100
AcDbEntity
  8
0
100
AcDbLine
 62
4
  6
CONTINUOUS
 10
10.8569418347
 20
8.658714673
 11
10.8569418347
 21
8.7249495879
  0
LINE
  5
302
100
AcDbEntity
  8
0
100
AcDbLine
 62
4
  6
CONTINUOUS
 10
10.9314561628
 20
8.6949439096
 11
10.9314561628
 21
8.7197820017
  0
LINE
  5
303
100
AcDbEntity
  8
0
100
AcDbLine
 62
4
  6
CONTINUOUS
 10
10.9811322711
 20
8.650102037
 11
10.9811322711
 21
8.6749401317
  0
LINE
  5
304
100
AcDbEntity
  8
0
100
AcDbLine
 62
7
  6
CONTINUOUS
 10
12.9170452085
 20
10.5299581622
 11
12.9163969522
 21
10.5293435611
  0
LINE
  5
305
100
AcDbEntity
  8
0
100
AcDbLine
 62
4
  6
CONTINUOUS
 10
10.9728529381
 20
8.6423968458
 11
10.9811322711
 21
8.650102037
  0
LINE
  5
306
100
AcDbEntity
  8
0
100
AcDbLine
 62
4
  6
CONTINUOUS
 10
10.5009292112
 20
8.1833306153
 11
10.5174879324
 21
8.1987409921
  0
LINE
  5
307
100
AcDbEntity
  8
0
100
AcDbLine
 62
4
  6
CONTINUOUS
 10
10.5975217606
 20
8.1766318992
 11
10.6140804817
 21
8.1920422761
  0
LINE
  5
308
100
AcDbEntity
  8
0
100
AcDbLine
 62
4
  6
CONTINUOUS
 10
10.0014075257
 20
8.1903746817
 11
9.957250914
 21
8.1713586456
  0
LINE
  5
309
100
AcDbEntity
  8
0
100
AcDbLine
 62
4
  6
CONTINUOUS
 10
10.4636720551
 20
8.3664045538
 11
10.4057165034
 21
8.370423785
  0
LINE
  5
30A
100
AcDbEntity
  8
0
100
AcDbLine
 62
4
  6
CONTINUOUS
 10
10.4319344738
 20
8.6799096687
 11
10.4153757527
 21
8.6893373848
  0
LINE
  5
30B
100
AcDbEntity
  8
0
100
AcDbLine
 62
4
  6
CONTINUOUS
 10
10.5892424078
 20
8.6690003264
 11
10.5726836867
 21
8.6784280425
  0
LINE
  5
30C
100
AcDbEntity
  8
0
100
AcDbLine
 62
4
  6
CONTINUOUS
 10
9.0763956164
 20
9.797798043
 11
9.0619067285
 21
9.8084621097
  0
LINE
  5
30D
100
AcDbEntity
  8
0
100
AcDbLine
 62
4
  6
CONTINUOUS
 10
9.0908845044
 20
9.8644080432
 11
9.1053733923
 21
9.8537439791
  0
LINE
  5
30E
100
AcDbEntity
  8
0
100
AcDbLine
 62
4
  6
CONTINUOUS
 10
9.0908845044
 20
9.9127043386
 11
9.1053733923
 21
9.9020402745
  0
LINE
  5
30F
100
AcDbEntity
  8
0
100
AcDbLine
 62
4
  6
CONTINUOUS
 10
10.6554772925
 20
8.6726862865
 11
10.6637566807
 21
8.663832744
  0
LINE
  5
310
100
AcDbEntity
  8
0
100
AcDbLine
 62
4
  6
CONTINUOUS
 10
10.7465503418
 20
8.6580909841
 11
10.7382709536
 21
8.6669445266
  0
LINE
  5
311
100
AcDbEntity
  8
0
100
AcDbLine
 62
4
  6
CONTINUOUS
 10
10.8652211676
 20
8.6498611344
 11
10.8569418347
 21
8.658714673
  0
LINE
  5
312
100
AcDbEntity
  8
0
100
AcDbLine
 62
4
  6
CONTINUOUS
 10
11.31058215
 20
7.3449189653
 11
11.3033377061
 21
7.3743991451
  0
LINE
  5
313
100
AcDbEntity
  8
0
100
AcDbLine
 62
4
  6
CONTINUOUS
 10
10.6554773123
 20
8.0898190225
 11
10.6389185911
 21
8.0744086439
  0
LINE
  5
314
100
AcDbEntity
  8
0
100
AcDbLine
 62
4
  6
CONTINUOUS
 10
10.7465503063
 20
8.0835030889
 11
10.7299915852
 21
8.0680927103
  0
LINE
  5
315
100
AcDbEntity
  8
0
100
AcDbLine
 62
4
  6
CONTINUOUS
 10
10.3436212574
 20
8.6584363292
 11
10.3601799786
 21
8.657287978
  0
LINE
  5
316
100
AcDbEntity
  8
0
100
AcDbLine
 62
4
  6
CONTINUOUS
 10
10.8983387205
 20
8.6475644243
 11
10.8652211676
 21
8.6498611344
  0
LINE
  5
317
100
AcDbEntity
  8
0
100
AcDbLine
 62
4
  6
CONTINUOUS
 10
10.763109063
 20
8.6569426329
 11
10.7465503418
 21
8.6580909841
  0
LINE
  5
318
100
AcDbEntity
  8
0
100
AcDbLine
 62
4
  6
CONTINUOUS
 10
10.6223598502
 20
8.666703624
 11
10.5892424078
 21
8.6690003264
  0
LINE
  5
319
100
AcDbEntity
  8
0
100
AcDbLine
 62
4
  6
CONTINUOUS
 10
10.4650519162
 20
8.6776129663
 11
10.4319344738
 21
8.6799096687
  0
LINE
  5
31A
100
AcDbEntity
  8
0
100
AcDbLine
 62
4
  6
CONTINUOUS
 10
9.9048149298
 20
8.7164655332
 11
9.9379323885
 21
8.7141688297
  0
LINE
  5
31B
100
AcDbEntity
  8
0
100
AcDbLine
 62
4
  6
CONTINUOUS
 10
10.0041673008
 20
8.7095754229
 11
10.0290054033
 21
8.7078528946
  0
LINE
  5
31C
100
AcDbEntity
  8
0
100
AcDbLine
 62
4
  6
CONTINUOUS
 10
10.6637566807
 20
8.663832744
 11
10.7051535113
 21
8.6609618641
  0
LINE
  5
31D
100
AcDbEntity
  8
0
100
AcDbLine
 62
4
  6
CONTINUOUS
 10
10.9397354958
 20
8.6446935482
 11
10.9728529381
 21
8.6423968458
  0
LINE
  5
31E
100
AcDbEntity
  8
0
100
AcDbLine
 62
4
  6
CONTINUOUS
 10
10.5892424078
 20
8.7103971501
 11
10.6223598502
 21
8.7081004476
  0
LINE
  5
31F
100
AcDbEntity
  8
0
100
AcDbLine
 62
4
  6
CONTINUOUS
 10
12.4962561725
 20
8.5947040244
 11
12.5542117243
 21
8.5906847932
  0
LINE
  5
320
100
AcDbEntity
  8
0
100
AcDbLine
 62
4
  6
CONTINUOUS
 10
10.6140805172
 20
8.750071445
 11
10.5726836867
 21
8.7529423249
  0
LINE
  5
321
100
AcDbEntity
  8
0
100
AcDbLine
 62
4
  6
CONTINUOUS
 10
10.2608275963
 20
8.7745696182
 11
10.3022244269
 21
8.7716987383
  0
LINE
  5
322
100
AcDbEntity
  8
0
100
AcDbLine
 62
4
  6
CONTINUOUS
 10
10.4319344738
 20
8.762703316
 11
10.4650519162
 21
8.7604066136
  0
LINE
  5
323
100
AcDbEntity
  8
0
100
AcDbLine
 62
4
  6
CONTINUOUS
 10
10.4981694138
 20
8.7581099073
 11
10.5312868561
 21
8.7558132049
  0
LINE
  5
324
100
AcDbEntity
  8
0
100
AcDbLine
 62
4
  6
CONTINUOUS
 10
10.8652211676
 20
8.7326547817
 11
10.8983387205
 21
8.7303580716
  0
LINE
  5
325
100
AcDbEntity
  8
0
100
AcDbLine
 62
4
  6
CONTINUOUS
 10
10.9397354958
 20
8.7274871955
 11
10.9728529381
 21
8.7251904931
  0
LINE
  5
326
100
AcDbEntity
  8
0
100
AcDbLine
 62
4
  6
CONTINUOUS
 10
9.9130942947
 20
8.8318024608
 11
9.9462117526
 21
8.8295057573
  0
LINE
  5
327
100
AcDbEntity
  8
0
100
AcDbLine
 62
4
  6
CONTINUOUS
 10
10.8127852265
 20
8.7694086827
 11
10.8155450041
 21
8.7692172915
  0
LINE
  5
328
100
AcDbEntity
  8
0
100
AcDbLine
 62
4
  6
CONTINUOUS
 10
10.9728529381
 20
8.6810338814
 11
10.9397354958
 21
8.6888501599
  0
LINE
  5
329
100
AcDbEntity
  8
0
100
AcDbLine
 62
4
  6
CONTINUOUS
 10
10.9397354958
 20
8.6888501599
 11
10.9314561628
 21
8.6949439096
  0
LINE
  5
32A
100
AcDbEntity
  8
0
100
AcDbLine
 62
4
  6
CONTINUOUS
 10
10.9811322711
 20
8.6749401317
 11
10.9728529381
 21
8.6810338814
  0
LINE
  5
32B
100
AcDbEntity
  8
0
100
AcDbLine
 62
4
  6
CONTINUOUS
 10
10.9314561628
 20
8.6535470868
 11
10.9397354958
 21
8.6446935482
  0
LINE
  5
32C
100
AcDbEntity
  8
0
100
AcDbLine
 62
4
  6
CONTINUOUS
 10
10.9728529381
 20
8.7251904931
 11
10.9811322711
 21
8.7163369519
  0
LINE
  5
32D
100
AcDbEntity
  8
0
100
AcDbLine
 62
7
  6
CONTINUOUS
 10
11.3468986067
 20
6.3175530312
 11
11.3468986067
 21
6.0122420819
  0
LINE
  5
32E
100
AcDbEntity
  8
0
100
AcDbLine
 62
4
  6
CONTINUOUS
 10
11.3757821457
 20
7.3693751061
 11
11.3757821457
 21
7.3307380722
  0
LINE
  5
32F
100
AcDbEntity
  8
0
100
AcDbLine
 62
4
  6
CONTINUOUS
 10
12.5469672803
 20
10.2139426236
 11
12.4962561725
 21
10.1305261233
  0
LINE
  5
330
100
AcDbEntity
  8
0
100
AcDbLine
 62
4
  6
CONTINUOUS
 10
10.9204169615
 20
8.1045628533
 11
10.8762603533
 21
8.0855468187
  0
LINE
  5
331
100
AcDbEntity
  8
0
100
AcDbLine
 62
4
  6
CONTINUOUS
 10
12.5179895044
 20
8.7091079161
 11
12.5324783924
 21
8.7081031083
  0
LINE
  5
332
100
AcDbEntity
  8
0
100
AcDbLine
 62
7
  6
CONTINUOUS
 10
11.4983185462
 20
6.2503853431
 11
11.4983185462
 21
5.8659819018
  0
LINE
  5
333
100
AcDbEntity
  8
0
100
AcDbLine
 62
7
  6
CONTINUOUS
 10
11.5377913241
 20
6.2401690494
 11
11.5377913241
 21
5.8557656081
  0
LINE
  5
334
100
AcDbEntity
  8
0
100
AcDbLine
 62
4
  6
CONTINUOUS
 10
11.3033377061
 20
7.3743991451
 11
11.31058215
 21
7.402874517
  0
LINE
  5
335
100
AcDbEntity
  8
0
100
AcDbLine
 62
4
  6
CONTINUOUS
 10
12.5035006165
 20
8.7004534676
 11
12.5179895044
 21
8.7091079161
  0
LINE
  5
336
100
AcDbEntity
  8
0
100
AcDbLine
 62
4
  6
CONTINUOUS
 10
12.5469672803
 20
8.6588020051
 11
12.5179895044
 21
8.6414931046
  0
LINE
  5
337
100
AcDbEntity
  8
0
100
AcDbLine
 62
4
  6
CONTINUOUS
 10
11.31058215
 20
7.402874517
 11
11.325071038
 21
7.4211882288
  0
LINE
  5
338
100
AcDbEntity
  8
0
100
AcDbLine
 62
7
  6
CONTINUOUS
 10
12.9174118418
 20
9.1664184553
 11
12.9163969522
 21
9.1654561785
  0
LINE
  5
339
100
AcDbEntity
  8
0
100
AcDbLine
 62
7
  6
CONTINUOUS
 10
12.1028977987
 20
6.2009787823
 11
12.1028977987
 21
5.816575341
  0
LINE
  5
33A
100
AcDbEntity
  8
0
100
AcDbLine
 62
7
  6
CONTINUOUS
 10
12.1568186009
 20
6.2047182092
 11
12.1568186009
 21
5.8203147679
  0
LINE
  5
33B
100
AcDbEntity
  8
0
100
AcDbLine
 62
4
  6
CONTINUOUS
 10
11.3757821457
 20
7.3307380722
 11
11.3685377017
 21
7.3215812172
  0
LINE
  5
33C
100
AcDbEntity
  8
0
100
AcDbLine
 62
4
  6
CONTINUOUS
 10
12.4962561725
 20
8.6912966083
 11
12.5035006165
 21
8.7004534676
  0
LINE
  5
33D
100
AcDbEntity
  8
0
100
AcDbLine
 62
4
  6
CONTINUOUS
 10
12.5179895044
 20
8.6414931046
 11
12.5035006165
 21
8.6231793963
  0
LINE
  5
33E
100
AcDbEntity
  8
0
100
AcDbLine
 62
4
  6
CONTINUOUS
 10
12.5542117243
 20
8.6679588645
 11
12.5469672803
 21
8.6588020051
  0
LINE
  5
33F
100
AcDbEntity
  8
0
100
AcDbLine
 62
4
  6
CONTINUOUS
 10
11.325071038
 20
7.4211882288
 11
11.3395599259
 21
7.4298426773
  0
LINE
  5
340
100
AcDbEntity
  8
0
100
AcDbLine
 62
4
  6
CONTINUOUS
 10
9.0908845044
 20
9.7967932352
 11
9.0763956164
 21
9.797798043
  0
LINE
  5
341
100
AcDbEntity
  8
0
100
AcDbLine
 62
4
  6
CONTINUOUS
 10
12.5324783924
 20
8.7081031083
 11
12.5469672803
 21
8.6974390442
  0
LINE
  5
342
100
AcDbEntity
  8
0
100
AcDbLine
 62
4
  6
CONTINUOUS
 10
11.3685377017
 20
7.3215812172
 11
11.3540488138
 21
7.3129267661
  0
LINE
  5
343
100
AcDbEntity
  8
0
100
AcDbLine
 62
4
  6
CONTINUOUS
 10
9.0763956164
 20
9.865412851
 11
9.0908845044
 21
9.8644080432
  0
LINE
  5
344
100
AcDbEntity
  8
0
100
AcDbLine
 62
4
  6
CONTINUOUS
 10
9.0763956164
 20
9.9137091464
 11
9.0908845044
 21
9.9127043386
  0
LINE
  5
345
100
AcDbEntity
  8
0
100
AcDbLine
 62
4
  6
CONTINUOUS
 10
12.5469672803
 20
8.6974390442
 11
12.5542117243
 21
8.6872773771
  0
LINE
  5
346
100
AcDbEntity
  8
0
100
AcDbLine
 62
4
  6
CONTINUOUS
 10
12.5469672803
 20
10.0980315201
 11
12.5469672803
 21
10.2139426236
  0
LINE
  5
347
100
AcDbEntity
  8
0
100
AcDbLine
 62
4
  6
CONTINUOUS
 10
12.5542117243
 20
8.6872773771
 11
12.5542117243
 21
8.6679588645
  0
LINE
  5
348
100
AcDbEntity
  8
0
100
AcDbLine
 62
7
  6
CONTINUOUS
 10
12.570505136
 20
6.2326956302
 11
12.570505136
 21
5.9273846809
  0
LINE
  5
349
100
AcDbEntity
  8
0
100
AcDbLine
 62
7
  6
CONTINUOUS
 10
12.5849531604
 20
6.2316936563
 11
12.5849531604
 21
5.9413404016
  0
LINE
  5
34A
100
AcDbEntity
  8
0
100
AcDbLine
 62
4
  6
CONTINUOUS
 10
12.5035006165
 20
8.6231793963
 11
12.4962561725
 21
8.5947040244
  0
LINE
  5
34B
100
AcDbEntity
  8
0
100
AcDbLine
 62
7
  6
CONTINUOUS
 10
12.7377376434
 20
6.2210980164
 11
12.7377376434
 21
10.5677644923
  0
LINE
  5
34C
100
AcDbEntity
  8
0
100
AcDbLine
 62
4
  6
CONTINUOUS
 10
12.4962561725
 20
10.1305261233
 11
12.5614561682
 21
10.1260044882
  0
LINE
  5
34D
100
AcDbEntity
  8
0
100
AcDbLine
 62
7
  6
CONTINUOUS
 10
13.1259658907
 20
6.5960977292
 11
13.1259658907
 21
10.942764205
  0
LINE
  5
34E
100
AcDbEntity
  8
0
100
AcDbLine
 62
7
  6
CONTINUOUS
 10
8.8740341093
 20
10.8357132424
 11
12.7377376434
 21
10.5677644923
  0
LINE
  5
34F
100
AcDbEntity
  8
0
100
AcDbLine
 62
7
  6
CONTINUOUS
 10
13.1259658907
 20
10.942764205
 11
9.2622623566
 21
11.2107129552
  0
LINE
  5
350
100
AcDbEntity
  8
0
100
AcDbLine
 62
7
  6
CONTINUOUS
 10
12.7377376434
 20
6.2210980164
 11
13.1259658907
 21
6.5960977292
  0
LINE
  5
351
100
AcDbEntity
  8
0
100
AcDbLine
 62
7
  6
CONTINUOUS
 10
12.4882090044
 20
5.8812215247
 11
12.4575349939
 21
5.8660691508
  0
ARC
  5
352
100
AcDbEntity
  8
0
100
AcDbCircle
 62
7
  6
CONTINUOUS
 10
11.9769654061
 20
8.0230882256
 40
2.210103635
100
AcDbArc
 50
273.2665005552
 51
274.6677615151
  0
ARC
  5
353
100
AcDbEntity
  8
0
100
AcDbCircle
 62
7
  6
CONTINUOUS
 10
11.9769654061
 20
8.4074916669
 40
2.210103635
100
AcDbArc
 50
273.2665005552
 51
274.6677615151
  0
ARC
  5
354
100
AcDbEntity
  8
0
100
AcDbCircle
 62
7
  6
CONTINUOUS
 10
11.7569908326
 20
7.168455783
 40
0.9538158545
100
AcDbArc
 50
254.2644742826
 51
256.7139235525
  0
ARC
  5
355
100
AcDbEntity
  8
0
100
AcDbCircle
 62
7
  6
CONTINUOUS
 10
11.7569908326
 20
6.7840523417
 40
0.9538158545
100
AcDbArc
 50
254.2644742826
 51
256.7139235525
  0
ARC
  5
356
100
AcDbEntity
  8
0
100
AcDbCircle
 62
7
  6
CONTINUOUS
 10
12.1493280027
 20
6.5661167258
 40
0.7641475746
100
AcDbArc
 50
293.7608747297
 51
296.3085175792
  0
ARC
  5
357
100
AcDbEntity
  8
0
100
AcDbCircle
 62
7
  6
CONTINUOUS
 10
10.7575568481
 20
7.5062072287
 40
0.1945826679
100
AcDbArc
 50
175.5550088229
 51
179.9871040494
  0
ARC
  5
358
100
AcDbEntity
  8
0
100
AcDbCircle
 62
7
  6
CONTINUOUS
 10
12.9026582136
 20
10.4951100926
 40
0.0147449102
100
AcDbArc
 50
86.0363634592
 51
92.4239511624
  0
ARC
  5
359
100
AcDbEntity
  8
0
100
AcDbCircle
 62
7
  6
CONTINUOUS
 10
12.8721815058
 20
10.0556527138
 40
0.0147421829
100
AcDbArc
 50
259.5412445111
 51
266.0302990365
  0
SPLINE
  5
35A
100
AcDbEntity
  8
0
100
AcDbSpline
 62
7
  6
CONTINUOUS
 70
0
 71
3
 72
9
 73
5
 74
0
 42
0.0000001
 43
0.0000001
 44
0.0000000001
 40
0.0
 40
0.0
 40
0.0
 40
0.0
 40
0.2426770998
 40
1.0
 40
1.0
 40
1.0
 40
1.0
 10
12.5783228937
 20
5.9343213648
 30
0.0
 10
12.5777147032
 20
5.9337338979
 30
0.0
 10
12.5751816518
 20
5.9313410168
 30
0.0
 10
12.5725459381
 20
5.9290575472
 30
0.0
 10
12.570505136
 20
5.9273846809
 30
0.0
  0
SPLINE
  5
35B
100
AcDbEntity
  8
0
100
AcDbSpline
 62
7
  6
CONTINUOUS
 70
0
 71
3
 72
9
 73
5
 74
0
 42
0.0000001
 43
0.0000001
 44
0.0000000001
 40
0.0
 40
0.0
 40
0.0
 40
0.0
 40
0.2426666479
 40
1.0
 40
1.0
 40
1.0
 40
1.0
 10
12.5849531604
 20
5.9413404016
 30
0.0
 10
12.5844455325
 20
5.9407466286
 30
0.0
 10
12.5823218367
 20
5.9383270442
 30
0.0
 10
12.5800764283
 20
5.9360151493
 30
0.0
 10
12.5783228937
 20
5.9343213648
 30
0.0
  0
SPLINE
  5
35C
100
AcDbEntity
  8
0
100
AcDbSpline
 62
7
  6
CONTINUOUS
 70
0
 71
3
 72
9
 73
5
 74
0
 42
0.0000001
 43
0.0000001
 44
0.0000000001
 40
0.0
 40
0.0
 40
0.0
 40
0.0
 40
0.504378312
 40
1.0
 40
1.0
 40
1.0
 40
1.0
 10
12.570505136
 20
5.9273846809
 30
0.0
 10
12.5570013857
 20
5.9189758271
 30
0.0
 10
12.5298885483
 20
5.9028411711
 30
0.0
 10
12.5020157518
 20
5.8880439763
 30
0.0
 10
12.4880016139
 20
5.881119134
 30
0.0
  0
SPLINE
  5
35D
100
AcDbEntity
  8
0
100
AcDbSpline
 62
7
  6
CONTINUOUS
 70
0
 71
3
 72
23
 73
19
 74
0
 42
0.0000001
 43
0.0000001
 44
0.0000000001
 40
0.0
 40
0.0
 40
0.0
 40
0.0
 40
0.0436203086
 40
0.0892268542
 40
0.137068591
 40
0.187353676
 40
0.2402538462
 40
0.2958872461
 40
0.3543311569
 40
0.4156094827
 40
0.4797102731
 40
0.5465788188
 40
0.6161346312
 40
0.6882694307
 40
0.7628606873
 40
0.8397744221
 40
0.9188692703
 40
1.0
 40
1.0
 40
1.0
 40
1.0
 10
11.4553071169
 20
5.8754595933
 30
0.0
 10
11.4529971813
 20
5.8766001619
 30
0.0
 10
11.4483600576
 20
5.8791152583
 30
0.0
 10
11.4415327681
 20
5.8834763104
 30
0.0
 10
11.4346963793
 20
5.8885185969
 30
0.0
 10
11.4278548296
 20
5.8942495292
 30
0.0
 10
11.4210137313
 20
5.9006731801
 30
0.0
 10
11.4141761908
 20
5.9077847525
 30
0.0
 10
11.4073479317
 20
5.9155755645
 30
0.0
 10
11.4005316876
 20
5.9240289669
 30
0.0
 10
11.3937325191
 20
5.9331248728
 30
0.0
 10
11.3869526689
 20
5.9428372548
 30
0.0
 10
11.380196002
 20
5.9531378029
 30
0.0
 10
11.3734641149
 20
5.9639947569
 30
0.0
 10
11.366759398
 20
5.9753756105
 30
0.0
 10
11.3600827487
 20
5.9872466929
 30
0.0
 10
11.3534352563
 20
5.999574532
 30
0.0
 10
11.3490761383
 20
6.007973949
 30
0.0
 10
11.3468986067
 20
6.0122420819
 30
0.0
  0
SPLINE
  5
35E
100
AcDbEntity
  8
0
100
AcDbSpline
 62
7
  6
CONTINUOUS
 70
0
 71
3
 72
47
 73
43
 74
0
 42
0.0000001
 43
0.0000001
 44
0.0000000001
 40
0.0
 40
0.0
 40
0.0
 40
0.0
 40
0.0099874638
 40
0.0204476834
 40
0.0313771515
 40
0.0427708334
 40
0.0546218702
 40
0.0669225517
 40
0.0796641282
 40
0.0928362942
 40
0.1204271347
 40
0.1495984091
 40
0.1802407165
 40
0.2122338314
 40
0.2454489836
 40
0.2797497839
 40
0.3149929168
 40
0.3510298084
 40
0.3877071885
 40
0.4248680172
 40
0.4623527228
 40
0.4999997959
 40
0.5376468789
 40
0.575131606
 40
0.6122924455
 40
0.6489698269
 40
0.6850067267
 40
0.7202498875
 40
0.7545507276
 40
0.7877659112
 40
0.8197590481
 40
0.8504013805
 40
0.8795726993
 40
0.9071635849
 40
0.9203357726
 40
0.933077377
 40
0.9453780958
 40
0.9572291635
 40
0.968622847
 40
0.9795522717
 40
0.9900124597
 40
1.0
 40
1.0
 40
1.0
 40
1.0
 10
12.4575388793
 20
5.8660711055
 30
0.0
 10
12.4545483449
 20
5.8645938277
 30
0.0
 10
12.4483746385
 20
5.8616719119
 30
0.0
 10
12.4387724401
 20
5.8574724682
 30
0.0
 10
12.428624262
 20
5.8533596335
 30
0.0
 10
12.4179418141
 20
5.8493384237
 30
0.0
 10
12.4067374384
 20
5.8454131185
 30
0.0
 10
12.3950239377
 20
5.8415883993
 30
0.0
 10
12.3828146818
 20
5.8378688286
 30
0.0
 10
12.3656268529
 20
5.8329792968
 30
0.0
 10
12.3429965407
 20
5.8271838153
 30
0.0
 10
12.3145052623
 20
5.820815143
 30
0.0
 10
12.2844052134
 20
5.8149596191
 30
0.0
 10
12.2528352071
 20
5.8096442774
 30
0.0
 10
12.2199405492
 20
5.8048941211
 30
0.0
 10
12.1858728981
 20
5.8007315889
 30
0.0
 10
12.1507894395
 20
5.7971758609
 30
0.0
 10
12.1148521187
 20
5.7942436906
 30
0.0
 10
12.0782268578
 20
5.7919489059
 30
0.0
 10
12.0410828253
 20
5.7903019585
 30
0.0
 10
12.0035916013
 20
5.7893107224
 30
0.0
 10
11.9659263611
 20
5.7889798659
 30
0.0
 10
11.9282611135
 20
5.7893107057
 30
0.0
 10
11.8907698751
 20
5.7903019257
 30
0.0
 10
11.8536258306
 20
5.7919488564
 30
0.0
 10
11.8170005619
 20
5.794243625
 30
0.0
 10
11.7810632271
 20
5.7971757784
 30
0.0
 10
11.7459797416
 20
5.8007314919
 30
0.0
 10
11.7119120554
 20
5.8048940093
 30
0.0
 10
11.679017364
 20
5.8096441523
 30
0.0
 10
11.6474473286
 20
5.8149594782
 30
0.0
 10
11.6173472458
 20
5.8208149878
 30
0.0
 10
11.5888559261
 20
5.8271836505
 30
0.0
 10
11.5662255722
 20
5.8329791185
 30
0.0
 10
11.5490377077
 20
5.8378686408
 30
0.0
 10
11.536828421
 20
5.8415882101
 30
0.0
 10
11.5251148888
 20
5.8454129365
 30
0.0
 10
11.5139104894
 20
5.8493382443
 30
0.0
 10
11.5032280387
 20
5.8533594357
 30
0.0
 10
11.4930798666
 20
5.8574722196
 30
0.0
 10
11.4834776507
 20
5.8616716249
 30
0.0
 10
11.4773039295
 20
5.8645935455
 30
0.0
 10
11.4743133764
 20
5.8660708432
 30
0.0
  0
SPLINE
  5
35F
100
AcDbEntity
  8
0
100
AcDbSpline
 62
7
  6
CONTINUOUS
 70
0
 71
3
 72
15
 73
11
 74
0
 42
0.0000001
 43
0.0000001
 44
0.0000000001
 40
0.0
 40
0.0
 40
0.0
 40
0.0
 40
0.1299708166
 40
0.2593283487
 40
0.3876617857
 40
0.5145654289
 40
0.6396384778
 40
0.7624890516
 40
0.8827334041
 40
1.0
 40
1.0
 40
1.0
 40
1.0
 10
11.9507047289
 20
6.2755429599
 30
0.0
 10
11.9402539009
 20
6.2756194923
 30
0.0
 10
11.9194023633
 20
6.2759296364
 30
0.0
 10
11.8882429464
 20
6.2768666057
 30
0.0
 10
11.8573479231
 20
6.278271912
 30
0.0
 10
11.8268225764
 20
6.2801402968
 30
0.0
 10
11.7967707793
 20
6.28246583
 30
0.0
 10
11.7672947783
 20
6.2852400441
 30
0.0
 10
11.7384950213
 20
6.2884538492
 30
0.0
 10
11.7195544248
 20
6.2909151751
 30
0.0
 10
11.7102157226
 20
6.2922209292
 30
0.0
  0
SPLINE
  5
360
100
AcDbEntity
  8
0
100
AcDbSpline
 62
7
  6
CONTINUOUS
 70
0
 71
3
 72
10
 73
6
 74
0
 42
0.0000001
 43
0.0000001
 44
0.0000000001
 40
0.0
 40
0.0
 40
0.0
 40
0.0
 40
0.4950633206
 40
0.7463873743
 40
1.0
 40
1.0
 40
1.0
 40
1.0
 10
12.2482381421
 20
6.2553205115
 30
0.0
 10
12.2326782721
 20
6.2478732122
 30
0.0
 10
12.2095876036
 20
6.2358605863
 30
0.0
 10
12.1793607374
 20
6.2185228747
 30
0.0
 10
12.1643201091
 20
6.2093894364
 30
0.0
 10
12.1568186009
 20
6.2047182092
 30
0.0
  0
SPLINE
  5
361
100
AcDbEntity
  8
0
100
AcDbSpline
 62
7
  6
CONTINUOUS
 70
0
 71
3
 72
21
 73
17
 74
0
 42
0.0000001
 43
0.0000001
 44
0.0000000001
 40
0.0
 40
0.0
 40
0.0
 40
0.0
 40
0.1230212981
 40
0.1847065752
 40
0.2465215318
 40
0.3084771567
 40
0.3705832678
 40
0.432847904
 40
0.4952752623
 40
0.5578663069
 40
0.6206183946
 40
0.6835249868
 40
0.7465773451
 40
0.8097643485
 40
0.8730733734
 40
1.0
 40
1.0
 40
1.0
 40
1.0
 10
12.1028977987
 20
5.816575341
 30
0.0
 10
12.0798186176
 20
5.8120279848
 30
0.0
 10
12.0449861761
 20
5.8060555784
 30
0.0
 10
11.9982149611
 20
5.8001454311
 30
0.0
 10
11.9629036525
 20
5.7968182171
 30
0.0
 10
11.9274192097
 20
5.7946838095
 30
0.0
 10
11.8917944887
 20
5.7938130731
 30
0.0
 10
11.8560712772
 20
5.7942619683
 30
0.0
 10
11.8202976555
 20
5.7960639671
 30
0.0
 10
11.7845251293
 20
5.799227253
 30
0.0
 10
11.7488051893
 20
5.8037362036
 30
0.0
 10
11.713185576
 20
5.8095504454
 30
0.0
 10
11.6777074365
 20
5.8166081594
 30
0.0
 10
11.6424032457
 20
5.8248338491
 30
0.0
 10
11.5955593196
 20
5.8372534012
 30
0.0
 10
11.5607989099
 20
5.8480411955
 30
0.0
 10
11.5377913241
 20
5.8557656081
 30
0.0
  0
SPLINE
  5
362
100
AcDbEntity
  8
0
100
AcDbSpline
 62
7
  6
CONTINUOUS
 70
0
 71
3
 72
21
 73
17
 74
0
 42
0.0000001
 43
0.0000001
 44
0.0000000001
 40
0.0
 40
0.0
 40
0.0
 40
0.0
 40
0.1269266266
 40
0.1902356515
 40
0.253422655
 40
0.3164750132
 40
0.3793816055
 40
0.4421336932
 40
0.5047247377
 40
0.567152096
 40
0.6294167323
 40
0.6915228434
 40
0.7534784683
 40
0.8152934248
 40
0.8769787019
 40
1.0
 40
1.0
 40
1.0
 40
1.0
 10
12.1028977987
 20
6.2009787823
 30
0.0
 10
12.0798902129
 20
6.2087031948
 30
0.0
 10
12.0451298032
 20
6.2194909892
 30
0.0
 10
11.998285877
 20
6.2319105412
 30
0.0
 10
11.9629816862
 20
6.2401362309
 30
0.0
 10
11.9275035467
 20
6.247193945
 30
0.0
 10
11.8918839334
 20
6.2530081868
 30
0.0
 10
11.8561639934
 20
6.2575171374
 30
0.0
 10
11.8203914672
 20
6.2606804233
 30
0.0
 10
11.7846178455
 20
6.262482422
 30
0.0
 10
11.748894634
 20
6.2629313172
 30
0.0
 10
11.713269913
 20
6.2620605809
 30
0.0
 10
11.6777854702
 20
6.2599261733
 30
0.0
 10
11.6424741616
 20
6.2565989593
 30
0.0
 10
11.5957029466
 20
6.2506888119
 30
0.0
 10
11.5608705051
 20
6.2447164055
 30
0.0
 10
11.5377913241
 20
6.2401690494
 30
0.0
  0
SPLINE
  5
363
100
AcDbEntity
  8
0
100
AcDbSpline
 62
7
  6
CONTINUOUS
 70
0
 71
3
 72
11
 73
7
 74
0
 42
0.0000001
 43
0.0000001
 44
0.0000000001
 40
0.0
 40
0.0
 40
0.0
 40
0.0
 40
0.2465919593
 40
0.494712682
 40
0.7454424776
 40
1.0
 40
1.0
 40
1.0
 40
1.0
 10
11.4983185462
 20
5.8659819018
 30
0.0
 10
11.4963761333
 20
5.8659270672
 30
0.0
 10
11.4924748236
 20
5.8659344136
 30
0.0
 10
11.4866091323
 20
5.8663179355
 30
0.0
 10
11.4807190603
 20
5.8670962178
 30
0.0
 10
11.4768126032
 20
5.8678857657
 30
0.0
 10
11.4748611581
 20
5.8683502271
 30
0.0
  0
SPLINE
  5
364
100
AcDbEntity
  8
0
100
AcDbSpline
 62
7
  6
CONTINUOUS
 70
0
 71
3
 72
10
 73
6
 74
0
 42
0.0000001
 43
0.0000001
 44
0.0000000001
 40
0.0
 40
0.0
 40
0.0
 40
0.0
 40
0.2418255986
 40
0.4885199497
 40
1.0
 40
1.0
 40
1.0
 40
1.0
 10
11.4748611581
 20
5.8683502271
 30
0.0
 10
11.4732266407
 20
5.8687392568
 30
0.0
 10
11.4699463303
 20
5.8696201174
 30
0.0
 10
11.46334743
 20
5.8718024227
 30
0.0
 10
11.4584935516
 20
5.873886239
 30
0.0
 10
11.4553071169
 20
5.8754595933
 30
0.0
  0
SPLINE
  5
365
100
AcDbEntity
  8
0
100
AcDbSpline
 62
7
  6
CONTINUOUS
 70
0
 71
3
 72
11
 73
7
 74
0
 42
0.0000001
 43
0.0000001
 44
0.0000000001
 40
0.0
 40
0.0
 40
0.0
 40
0.0
 40
0.2633952514
 40
0.5183435581
 40
0.764111363
 40
1.0
 40
1.0
 40
1.0
 40
1.0
 10
11.4983185462
 20
6.2503853431
 30
0.0
 10
11.4956020597
 20
6.25570987
 30
0.0
 10
11.490165262
 20
6.2661421798
 30
0.0
 10
11.4818390947
 20
6.2813546657
 30
0.0
 10
11.4734686344
 20
6.2958263088
 30
0.0
 10
11.4677371574
 20
6.3051360485
 30
0.0
 10
11.4648566368
 20
6.3096482032
 30
0.0
  0
LINE
  5
366
100
AcDbEntity
  8
0
100
AcDbLine
 62
7
  6
CONTINUOUS
 10
12.4572186557
 20
5.8667421041
 11
12.4564895417
 21
5.8664222164
  0
SPLINE
  5
367
100
AcDbEntity
  8
0
100
AcDbSpline
 62
7
  6
CONTINUOUS
 70
0
 71
3
 72
15
 73
11
 74
0
 42
0.0000001
 43
0.0000001
 44
0.0000000001
 40
0.0
 40
0.0
 40
0.0
 40
0.0
 40
0.1321602046
 40
0.2618009952
 40
0.3890353631
 40
0.5141096583
 40
0.6373677171
 40
0.75919507
 40
0.8799649792
 40
1.0
 40
1.0
 40
1.0
 40
1.0
 10
12.4564895417
 20
5.8664222164
 30
0.0
 10
12.4441084383
 20
5.8609984743
 30
0.0
 10
12.4192676744
 20
5.8509514851
 30
0.0
 10
12.3814736113
 20
5.8384180478
 30
0.0
 10
12.3436028418
 20
5.8287007582
 30
0.0
 10
12.3057764662
 20
5.821832254
 30
0.0
 10
12.2681090803
 20
5.8177324255
 30
0.0
 10
12.2306934983
 20
5.8162257377
 30
0.0
 10
12.1935926617
 20
5.8170725854
 30
0.0
 10
12.1690282422
 20
5.8190319353
 30
0.0
 10
12.1568186009
 20
5.8203147679
 30
0.0
  0
SPLINE
  5
368
100
AcDbEntity
  8
0
100
AcDbSpline
 62
7
  6
CONTINUOUS
 70
0
 71
3
 72
18
 73
14
 74
0
 42
0.0000001
 43
0.0000001
 44
0.0000000001
 40
0.0
 40
0.0
 40
0.0
 40
0.0
 40
0.1504670735
 40
0.2917142314
 40
0.4244427084
 40
0.4879099971
 40
0.549609347
 40
0.6682624273
 40
0.7817883326
 40
0.8371380496
 40
0.8918079086
 40
0.9460193228
 40
1.0
 40
1.0
 40
1.0
 40
1.0
 10
12.931851767
 20
10.6973087956
 30
0.0
 10
12.9330956785
 20
10.6985103219
 30
0.0
 10
12.9355818331
 20
10.7007647434
 30
0.0
 10
12.9394313673
 20
10.7037690575
 30
0.0
 10
12.9426829745
 20
10.7058938599
 30
0.0
 10
12.9452758289
 20
10.7073327178
 30
0.0
 10
12.9477924048
 20
10.7085680112
 30
0.0
 10
12.9509389252
 20
10.7098162311
 30
0.0
 10
12.9541414141
 20
10.7106680481
 30
0.0
 10
12.9566778872
 20
10.7110876452
 30
0.0
 10
12.9585577592
 20
10.7112738972
 30
0.0
 10
12.9604300294
 20
10.7113340402
 30
0.0
 10
12.9616739182
 20
10.7112900315
 30
0.0
 10
12.9622928771
 20
10.7112471052
 30
0.0
  0
SPLINE
  5
369
100
AcDbEntity
  8
0
100
AcDbSpline
 62
7
  6
CONTINUOUS
 70
0
 71
3
 72
19
 73
15
 74
0
 42
0.0000001
 43
0.0000001
 44
0.0000000001
 40
0.0
 40
0.0
 40
0.0
 40
0.0
 40
0.1504607152
 40
0.2916988954
 40
0.4244197706
 40
0.4878838785
 40
0.549580297
 40
0.6682271827
 40
0.7255606102
 40
0.7817998481
 40
0.8371466355
 40
0.8918135538
 40
0.9460221503
 40
1.0
 40
1.0
 40
1.0
 40
1.0
 10
12.931851767
 20
9.3382510425
 30
0.0
 10
12.9335338969
 20
9.3398758553
 30
0.0
 10
12.9368958526
 20
9.342924469
 30
0.0
 10
12.942101511
 20
9.3469871024
 30
0.0
 10
12.9464985185
 20
9.3498604136
 30
0.0
 10
12.9500048422
 20
9.3518061375
 30
0.0
 10
12.9534077274
 20
9.3534765706
 30
0.0
 10
12.9568504507
 20
9.3548420052
 30
0.0
 10
12.960312546
 20
9.3558694923
 30
0.0
 10
12.9628723256
 20
9.3564617319
 30
0.0
 10
12.9654235811
 20
9.3568838594
 30
0.0
 10
12.9679656425
 20
9.3571356489
 30
0.0
 10
12.970497481
 20
9.3572169981
 30
0.0
 10
12.9721795615
 20
9.3571574977
 30
0.0
 10
12.9730165652
 20
9.3570994483
 30
0.0
  0
SPLINE
  5
36A
100
AcDbEntity
  8
0
100
AcDbSpline
 62
7
  6
CONTINUOUS
 70
0
 71
3
 72
23
 73
19
 74
0
 42
0.0000001
 43
0.0000001
 44
0.0000000001
 40
0.0
 40
0.0
 40
0.0
 40
0.0
 40
0.0637772827
 40
0.1273447928
 40
0.1907019891
 40
0.2538561422
 40
0.3168131889
 40
0.3795820982
 40
0.4421733894
 40
0.5045993375
 40
0.5668738648
 40
0.6290123797
 40
0.6910316513
 40
0.752949645
 40
0.814785352
 40
0.8765586
 40
0.9382898524
 40
1.0
 40
1.0
 40
1.0
 40
1.0
 10
11.1101525297
 20
7.3597847507
 30
0.0
 10
11.1101525297
 20
7.3529960678
 30
0.0
 10
11.1098276016
 20
7.3394387302
 30
0.0
 10
11.1083610056
 20
7.3191851814
 30
0.0
 10
11.1059191371
 20
7.2990922044
 30
0.0
 10
11.1025077957
 20
7.2792069111
 30
0.0
 10
11.0981346461
 20
7.2595748115
 30
0.0
 10
11.092809774
 20
7.240241276
 30
0.0
 10
11.086545398
 20
7.2212508506
 30
0.0
 10
11.0793559324
 20
7.2026473291
 30
0.0
 10
11.0712579184
 20
7.1844736137
 30
0.0
 10
11.0622699885
 20
7.1667716235
 30
0.0
 10
11.0524128284
 20
7.1495822033
 30
0.0
 10
11.0417091352
 20
7.1329450019
 30
0.0
 10
11.0301836231
 20
7.1168984295
 30
0.0
 10
11.0178627282
 20
7.1014793784
 30
0.0
 10
11.0047753525
 20
7.0867238956
 30
0.0
 10
10.9955578037
 20
7.0773502762
 30
0.0
 10
10.9908332693
 20
7.0727867324
 30
0.0
  0
SPLINE
  5
36B
100
AcDbEntity
  8
0
100
AcDbSpline
 62
7
  6
CONTINUOUS
 70
0
 71
3
 72
21
 73
17
 74
0
 42
0.0000001
 43
0.0000001
 44
0.0000000001
 40
0.0
 40
0.0
 40
0.0
 40
0.0
 40
0.1273176984
 40
0.2537999461
 40
0.3167619614
 40
0.3795355204
 40
0.4421314992
 40
0.5045621453
 40
0.5668413456
 40
0.6289845231
 40
0.6910084433
 40
0.7529310869
 40
0.8147714401
 40
0.8765493236
 40
0.9382852134
 40
1.0
 40
1.0
 40
1.0
 40
1.0
 10
11.7341406504
 20
9.6115508568
 30
0.0
 10
11.7341406504
 20
9.6050524344
 30
0.0
 10
11.7335203326
 20
9.5920898667
 30
0.0
 10
11.7311775666
 20
9.5760653349
 30
0.0
 10
11.7283774645
 20
9.5634954929
 30
0.0
 10
11.7258239175
 20
9.5542239713
 30
0.0
 10
11.7228198222
 20
9.5451172
 30
0.0
 10
11.7193721046
 20
9.5361959133
 30
0.0
 10
11.7154887135
 20
9.5274807448
 30
0.0
 10
11.7111785251
 20
9.5189918087
 30
0.0
 10
11.7064515103
 20
9.5107486731
 30
0.0
 10
11.7013185705
 20
9.5027703354
 30
0.0
 10
11.6957914935
 20
9.4950752573
 30
0.0
 10
11.6898829913
 20
9.4876811116
 30
0.0
 10
11.6836069519
 20
9.480605156
 30
0.0
 10
11.6791866534
 20
9.4761100924
 30
0.0
 10
11.6769210061
 20
9.4739216584
 30
0.0
  0
SPLINE
  5
36C
100
AcDbEntity
  8
0
100
AcDbSpline
 62
7
  6
CONTINUOUS
 70
0
 71
3
 72
21
 73
17
 74
0
 42
0.0000001
 43
0.0000001
 44
0.0000000001
 40
0.0
 40
0.0
 40
0.0
 40
0.0
 40
0.1273176984
 40
0.2537999461
 40
0.3167619614
 40
0.3795355204
 40
0.4421314992
 40
0.5045621453
 40
0.5668413456
 40
0.6289845231
 40
0.6910084433
 40
0.7529310869
 40
0.8147714401
 40
0.8765493236
 40
0.9382852134
 40
1.0
 40
1.0
 40
1.0
 40
1.0
 10
10.6474740315
 20
6.7282804966
 30
0.0
 10
10.6474740315
 20
6.7217820742
 30
0.0
 10
10.6468537136
 20
6.7088195065
 30
0.0
 10
10.6445109476
 20
6.6927949746
 30
0.0
 10
10.6417108455
 20
6.6802251327
 30
0.0
 10
10.6391572986
 20
6.6709536111
 30
0.0
 10
10.6361532032
 20
6.6618468398
 30
0.0
 10
10.6327054856
 20
6.6529255531
 30
0.0
 10
10.6288220946
 20
6.6442103846
 30
0.0
 10
10.6245119061
 20
6.6357214484
 30
0.0
 10
10.6197848913
 20
6.6274783129
 30
0.0
 10
10.6146519515
 20
6.6194999752
 30
0.0
 10
10.6091248745
 20
6.6118048971
 30
0.0
 10
10.6032163723
 20
6.6044107514
 30
0.0
 10
10.596940333
 20
6.5973347958
 30
0.0
 10
10.5925200345
 20
6.5928397321
 30
0.0
 10
10.5902543871
 20
6.5906512982
 30
0.0
  0
SPLINE
  5
36D
100
AcDbEntity
  8
0
100
AcDbSpline
 62
7
  6
CONTINUOUS
 70
0
 71
3
 72
39
 73
35
 74
0
 42
0.0000001
 43
0.0000001
 44
0.0000000001
 40
0.0
 40
0.0
 40
0.0
 40
0.0
 40
0.0319655106
 40
0.0637044242
 40
0.095223271
 40
0.1265378321
 40
0.1576735766
 40
0.1886636904
 40
0.219547473
 40
0.250368362
 40
0.2811721571
 40
0.3120054785
 40
0.3429145283
 40
0.3739439615
 40
0.405135941
 40
0.4365290796
 40
0.4681570839
 40
0.5000469462
 40
0.5322164873
 40
0.5646708872
 40
0.5973979116
 40
0.6303620749
 40
0.6634984248
 40
0.6967072434
 40
0.7298519257
 40
0.7627633254
 40
0.7952523998
 40
0.8271310124
 40
0.8582359249
 40
0.8884493
 40
0.9177104754
 40
0.9460169297
 40
0.973417261
 40
1.0
 40
1.0
 40
1.0
 40
1.0
 10
10.5629741851
 20
7.5062510248
 30
0.0
 10
10.5629741851
 20
7.5013534458
 30
0.0
 10
10.5633482677
 20
7.4915886746
 30
0.0
 10
10.5650385022
 20
7.4770831526
 30
0.0
 10
10.5678347297
 20
7.4628505137
 30
0.0
 10
10.5717032769
 20
7.4489676478
 30
0.0
 10
10.5766001115
 20
7.4354998889
 30
0.0
 10
10.5824738702
 20
7.4225016851
 30
0.0
 10
10.5892686873
 20
7.4100160658
 30
0.0
 10
10.5969269192
 20
7.39807543
 30
0.0
 10
10.6053913554
 20
7.386702724
 30
0.0
 10
10.6146069132
 20
7.3759129605
 30
0.0
 10
10.6245217614
 20
7.3657148453
 30
0.0
 10
10.6350879376
 20
7.3561123925
 30
0.0
 10
10.6462614994
 20
7.3471064578
 30
0.0
 10
10.6580022398
 20
7.3386961371
 30
0.0
 10
10.6702729893
 20
7.3308800399
 30
0.0
 10
10.6830385017
 20
7.3236574417
 30
0.0
 10
10.696263884
 20
7.3170293407
 30
0.0
 10
10.70991247
 20
7.3109994227
 30
0.0
 10
10.7239430804
 20
7.3055748669
 30
0.0
 10
10.7383067682
 20
7.3007668795
 30
0.0
 10
10.7529433824
 20
7.2965907853
 30
0.0
 10
10.7677786002
 20
7.2930654521
 30
0.0
 10
10.7827224985
 20
7.2902118634
 30
0.0
 10
10.7976708714
 20
7.2880508479
 30
0.0
 10
10.8125101606
 20
7.2866002887
 30
0.0
 10
10.8271256162
 20
7.2858725484
 30
0.0
 10
10.8414109181
 20
7.2858728816
 30
0.0
 10
10.8552766741
 20
7.2865993891
 30
0.0
 10
10.8686553788
 20
7.2880443981
 30
0.0
 10
10.8815025754
 20
7.2901969195
 30
0.0
 10
10.8937928488
 20
7.2930447146
 30
0.0
 10
10.90171913
 20
7.2954328615
 30
0.0
 10
10.9055760443
 20
7.2967414498
 30
0.0
  0
SPLINE
  5
36E
100
AcDbEntity
  8
0
100
AcDbSpline
 62
7
  6
CONTINUOUS
 70
0
 71
3
 72
21
 73
17
 74
0
 42
0.0000001
 43
0.0000001
 44
0.0000000001
 40
0.0
 40
0.0
 40
0.0
 40
0.0
 40
0.1273176368
 40
0.2537999758
 40
0.3167619477
 40
0.3795355043
 40
0.4421314993
 40
0.504562144
 40
0.5668413432
 40
0.6289845282
 40
0.6910084527
 40
0.7529310934
 40
0.8147714494
 40
0.8765493364
 40
0.9382852193
 40
1.0
 40
1.0
 40
1.0
 40
1.0
 10
10.92404339
 20
7.3850171156
 30
0.0
 10
10.92404339
 20
7.377779593
 30
0.0
 10
10.9233525206
 20
7.3633427155
 30
0.0
 10
10.9207433313
 20
7.3454956158
 30
0.0
 10
10.9176247698
 20
7.3314961263
 30
0.0
 10
10.9147808093
 20
7.3211700979
 30
0.0
 10
10.9114350812
 20
7.311027546
 30
0.0
 10
10.9075952516
 20
7.3010915812
 30
0.0
 10
10.903270202
 20
7.2913851759
 30
0.0
 10
10.8984698458
 20
7.2819307146
 30
0.0
 10
10.8932052252
 20
7.272750023
 30
0.0
 10
10.8874885119
 20
7.2638642461
 30
0.0
 10
10.8813328735
 20
7.2552939148
 30
0.0
 10
10.8747523975
 20
7.2470587603
 30
0.0
 10
10.8677625686
 20
7.2391779986
 30
0.0
 10
10.8628395863
 20
7.234171624
 30
0.0
 10
10.8603162612
 20
7.2317342792
 30
0.0
  0
SPLINE
  5
36F
100
AcDbEntity
  8
0
100
AcDbSpline
 62
7
  6
CONTINUOUS
 70
0
 71
3
 72
40
 73
36
 74
0
 42
0.0000001
 43
0.0000001
 44
0.0000000001
 40
0.0
 40
0.0
 40
0.0
 40
0.0
 40
0.0310751297
 40
0.046674719
 40
0.0623128023
 40
0.0936978569
 40
0.1252268442
 40
0.1568884391
 40
0.1886684324
 40
0.2205502263
 40
0.2525151435
 40
0.2845428352
 40
0.3166116956
 40
0.348699299
 40
0.3807828474
 40
0.4128396233
 40
0.4448474412
 40
0.4767850923
 40
0.5086327748
 40
0.5403725043
 40
0.571988497
 40
0.6034675183
 40
0.6347991897
 40
0.665976246
 40
0.6969947359
 40
0.7278541571
 40
0.7585575208
 40
0.7891113379
 40
0.8195255236
 40
0.8498132176
 40
0.8799905191
 40
0.9100761418
 40
0.9400909923
 40
0.9700576842
 40
1.0
 40
1.0
 40
1.0
 40
1.0
 10
10.92404339
 20
7.3850171156
 30
0.0
 10
10.92404339
 20
7.3906424775
 30
0.0
 10
10.9237289448
 20
7.3990959947
 30
0.0
 10
10.9226904506
 20
7.4103300104
 30
0.0
 10
10.9212353122
 20
7.4215747836
 30
0.0
 10
10.9186413537
 20
7.4355697457
 30
0.0
 10
10.9143146369
 20
7.4521493176
 30
0.0
 10
10.9087938462
 20
7.468446162
 30
0.0
 10
10.9021094751
 20
7.4843702896
 30
0.0
 10
10.8942983278
 20
7.4998344576
 30
0.0
 10
10.8854033763
 20
7.5147537713
 30
0.0
 10
10.8754735146
 20
7.5290463798
 30
0.0
 10
10.8645632929
 20
7.5426338555
 30
0.0
 10
10.8527326203
 20
7.5554416371
 30
0.0
 10
10.840046439
 20
7.5673994291
 30
0.0
 10
10.8265743709
 20
7.5784415852
 30
0.0
 10
10.8123903404
 20
7.5885074649
 30
0.0
 10
10.7975721723
 20
7.5975417633
 30
0.0
 10
10.7822011709
 20
7.605494813
 30
0.0
 10
10.7663616788
 20
7.6123228552
 30
0.0
 10
10.750140621
 20
7.617988281
 30
0.0
 10
10.7336270339
 20
7.6224598376
 30
0.0
 10
10.7169115834
 20
7.6257128024
 30
0.0
 10
10.7000860739
 20
7.6277291225
 30
0.0
 10
10.6832429517
 20
7.6284975201
 30
0.0
 10
10.6664748021
 20
7.6280135617
 30
0.0
 10
10.6498738456
 20
7.6262796923
 30
0.0
 10
10.6335314339
 20
7.6233052333
 30
0.0
 10
10.6175375453
 20
7.6191063418
 30
0.0
 10
10.6019802947
 20
7.6137059419
 30
0.0
 10
10.5869454117
 20
7.6071335812
 30
0.0
 10
10.5725158723
 20
7.5994253878
 30
0.0
 10
10.5587710093
 20
7.5906234731
 30
0.0
 10
10.5457876231
 20
7.5807772134
 30
0.0
 10
10.5376839256
 20
7.5735496612
 30
0.0
 10
10.5337853536
 20
7.56978393
 30
0.0
  0
SPLINE
  5
370
100
AcDbEntity
  8
0
100
AcDbSpline
 62
7
  6
CONTINUOUS
 70
0
 71
3
 72
72
 73
68
 74
0
 42
0.0000001
 43
0.0000001
 44
0.0000000001
 40
0.0
 40
0.0
 40
0.0
 40
0.0
 40
0.0038007381
 40
0.007741717
 40
0.0118259762
 40
0.0160561861
 40
0.0204346248
 40
0.0249631083
 40
0.0296429507
 40
0.034475139
 40
0.0445982624
 40
0.0553349859
 40
0.0666830763
 40
0.0786369214
 40
0.0911880266
 40
0.1043253873
 40
0.1180357756
 40
0.1323040022
 40
0.1471131281
 40
0.162444632
 40
0.1782785371
 40
0.1945935439
 40
0.2113671532
 40
0.2285757639
 40
0.2461947509
 40
0.2641985494
 40
0.2825607465
 40
0.3012541554
 40
0.3202508788
 40
0.339522374
 40
0.3787721111
 40
0.4187655094
 40
0.459257996
 40
0.5000010196
 40
0.5407440307
 40
0.5812364821
 40
0.6212298196
 40
0.6604794759
 40
0.6797509194
 40
0.6987475868
 40
0.7174409382
 40
0.7358030696
 40
0.7538067944
 40
0.7714257037
 40
0.7886342371
 40
0.8054077625
 40
0.8217226764
 40
0.8375564847
 40
0.8528878938
 40
0.8676969213
 40
0.8819650398
 40
0.8956753162
 40
0.9088125679
 40
0.9213635649
 40
0.9333172929
 40
0.9446652617
 40
0.9554018688
 40
0.9605403345
 40
0.9655254594
 40
0.9703575751
 40
0.9750373564
 40
0.9795657872
 40
0.983944203
 40
0.9881743821
 40
0.9922585089
 40
0.996199292
 40
1.0
 40
1.0
 40
1.0
 40
1.0
 10
11.2630447083
 20
10.8693495332
 30
0.0
 10
11.2618460399
 20
10.8682340861
 30
0.0
 10
11.2593589368
 20
10.8660105505
 30
0.0
 10
11.2554389319
 20
10.8627548377
 30
0.0
 10
11.2512645784
 20
10.8595205713
 30
0.0
 10
11.2468377404
 20
10.856309117
 30
0.0
 10
11.2421601611
 20
10.8531216987
 30
0.0
 10
11.2372337038
 20
10.8499596034
 30
0.0
 10
11.2320603812
 20
10.8468240197
 30
0.0
 10
11.2247221128
 20
10.8426150451
 30
0.0
 10
11.2149338206
 20
10.8374401327
 30
0.0
 10
11.2024149275
 20
10.8314492091
 30
0.0
 10
11.1889673418
 20
10.8255942075
 30
0.0
 10
11.1746130362
 20
10.8198847325
 30
0.0
 10
11.1593752322
 20
10.8143301383
 30
0.0
 10
11.1432787701
 20
10.8089395951
 30
0.0
 10
11.1263499488
 20
10.8037220006
 30
0.0
 10
11.1086164942
 20
10.7986859857
 30
0.0
 10
11.0901074849
 20
10.7938398925
 30
0.0
 10
11.0708533048
 20
10.7891917598
 30
0.0
 10
11.0508855969
 20
10.7847492884
 30
0.0
 10
11.0302372031
 20
10.7805198357
 30
0.0
 10
11.0089420968
 20
10.7765104114
 30
0.0
 10
10.9870353256
 20
10.7727276662
 30
0.0
 10
10.9645529596
 20
10.769177869
 30
0.0
 10
10.9415320309
 20
10.7658668932
 30
0.0
 10
10.9180104602
 20
10.7628002208
 30
0.0
 10
10.8940270059
 20
10.759982942
 30
0.0
 10
10.8696211517
 20
10.7574196973
 30
0.0
 10
10.8363686623
 20
10.7543277693
 30
0.0
 10
10.7940439108
 20
10.7511377895
 30
0.0
 10
10.7425296363
 20
10.7484014713
 30
0.0
 10
10.6903254471
 20
10.7467523642
 30
0.0
 10
10.6377752788
 20
10.7462014766
 30
0.0
 10
10.5852251267
 20
10.7467524705
 30
0.0
 10
10.5330209874
 20
10.7484016795
 30
0.0
 10
10.481506795
 20
10.7511381056
 30
0.0
 10
10.439182133
 20
10.7543281648
 30
0.0
 10
10.4059297318
 20
10.7574201644
 30
0.0
 10
10.3815239544
 20
10.7599834591
 30
0.0
 10
10.3575405829
 20
10.7628007813
 30
0.0
 10
10.334019104
 20
10.7658675016
 30
0.0
 10
10.3109982768
 20
10.7691785259
 30
0.0
 10
10.2885160179
 20
10.7727283704
 30
0.0
 10
10.266609358
 20
10.7765111552
 30
0.0
 10
10.2453143709
 20
10.7805206214
 30
0.0
 10
10.2246661065
 20
10.7847501181
 30
0.0
 10
10.2046985337
 20
10.7891926321
 30
0.0
 10
10.1854444907
 20
10.7938408004
 30
0.0
 10
10.1669356245
 20
10.798686928
 30
0.0
 10
10.1492023229
 20
10.803722981
 30
0.0
 10
10.1322736624
 20
10.8089406121
 30
0.0
 10
10.1161773562
 20
10.8143311871
 30
0.0
 10
10.100939729
 20
10.8198858044
 30
0.0
 10
10.0865855469
 20
10.825595319
 30
0.0
 10
10.0731383125
 20
10.8314503227
 30
0.0
 10
10.0625565352
 20
10.8365141733
 30
0.0
 10
10.0545716929
 20
10.8406389306
 30
0.0
 10
10.0489111588
 20
10.8437175241
 30
0.0
 10
10.0434931851
 20
10.8468252342
 30
0.0
 10
10.038319957
 20
10.8499607898
 30
0.0
 10
10.0333935831
 20
10.8531229138
 30
0.0
 10
10.0287160866
 20
10.85631037
 30
0.0
 10
10.0242893444
 20
10.8595218204
 30
0.0
 10
10.0201151576
 20
10.8627560494
 30
0.0
 10
10.0161952974
 20
10.8660116945
 30
0.0
 10
10.0137082973
 20
10.8682352
 30
0.0
 10
10.0125096585
 20
10.8693506598
 30
0.0
  0
SPLINE
  5
371
100
AcDbEntity
  8
0
100
AcDbSpline
 62
7
  6
CONTINUOUS
 70
0
 71
3
 72
39
 73
35
 74
0
 42
0.0000001
 43
0.0000001
 44
0.0000000001
 40
0.0
 40
0.0
 40
0.0
 40
0.0
 40
0.0299424706
 40
0.059909318
 40
0.0899243245
 40
0.120010104
 40
0.1501875638
 40
0.1804754172
 40
0.2108897627
 40
0.2414437402
 40
0.2721472662
 40
0.3030068506
 40
0.3340255036
 40
0.3652027233
 40
0.3965345594
 40
0.4280137458
 40
0.459629903
 40
0.4913697971
 40
0.523217645
 40
0.5551554619
 40
0.5871634456
 40
0.6192203877
 40
0.6513041028
 40
0.6833918731
 40
0.7154609003
 40
0.7474887587
 40
0.7794538419
 40
0.8113358007
 40
0.8431159608
 40
0.874777714
 40
0.9063068772
 40
0.9376920832
 40
0.968924649
 40
1.0
 40
1.0
 40
1.0
 40
1.0
 10
10.3794570126
 20
7.7057314941
 30
0.0
 10
10.3867564671
 20
7.7127822164
 30
0.0
 10
10.4019293683
 20
7.7263146158
 30
0.0
 10
10.4262386997
 20
7.7447501215
 30
0.0
 10
10.4519737645
 20
7.761230269
 30
0.0
 10
10.4789907691
 20
7.7756626092
 30
0.0
 10
10.507141192
 20
7.7879682621
 30
0.0
 10
10.536269661
 20
7.7980796058
 30
0.0
 10
10.5662156574
 20
7.8059413324
 30
0.0
 10
10.5968142049
 20
7.8115105137
 30
0.0
 10
10.627896838
 20
7.8147568648
 30
0.0
 10
10.6592925095
 20
7.8156629585
 30
0.0
 10
10.6908285523
 20
7.8142242324
 30
0.0
 10
10.7223316176
 20
7.81044898
 30
0.0
 10
10.7536286095
 20
7.8043582856
 30
0.0
 10
10.7845476413
 20
7.7959859779
 30
0.0
 10
10.8149189615
 20
7.7853783596
 30
0.0
 10
10.8445758644
 20
7.772593939
 30
0.0
 10
10.8733555837
 20
7.7577031046
 30
0.0
 10
10.901100212
 20
7.7407878121
 30
0.0
 10
10.9276575283
 20
7.7219410645
 30
0.0
 10
10.9528818147
 20
7.7012664021
 30
0.0
 10
10.9766346384
 20
7.6788773409
 30
0.0
 10
10.9987856604
 20
7.6548968143
 30
0.0
 10
11.0192132968
 20
7.6294564456
 30
0.0
 10
11.0378053717
 20
7.6026958331
 30
0.0
 10
11.0544597217
 20
7.5747617992
 30
0.0
 10
11.0690848241
 20
7.5458076298
 30
0.0
 10
11.0816002348
 20
7.5159922183
 30
0.0
 10
11.0919370178
 20
7.4854791371
 30
0.0
 10
11.1000381466
 20
7.4544360116
 30
0.0
 10
11.1058588027
 20
7.4230327317
 30
0.0
 10
11.1093668191
 20
7.3914439637
 30
0.0
 10
11.1101525297
 20
7.3703173581
 30
0.0
 10
11.1101525297
 20
7.3597847507
 30
0.0
  0
SPLINE
  5
372
100
AcDbEntity
  8
0
100
AcDbSpline
 62
7
  6
CONTINUOUS
 70
0
 71
3
 72
15
 73
11
 74
0
 42
0.0000001
 43
0.0000001
 44
0.0000000001
 40
0.0
 40
0.0
 40
0.0
 40
0.0
 40
0.1248753631
 40
0.2496039314
 40
0.374288043
 40
0.4990237184
 40
0.6238965732
 40
0.7489776661
 40
0.8743352106
 40
1.0
 40
1.0
 40
1.0
 40
1.0
 10
10.5878380923
 20
7.6072538016
 30
0.0
 10
10.586084551
 20
7.6039441654
 30
0.0
 10
10.5827551984
 20
7.5972339603
 30
0.0
 10
10.578307206
 20
7.5869209267
 30
0.0
 10
10.5744155747
 20
7.5763895056
 30
0.0
 10
10.5710860291
 20
7.5656627214
 30
0.0
 10
10.5683229332
 20
7.5547640384
 30
0.0
 10
10.5661297393
 20
7.5437175093
 30
0.0
 10
10.5645090204
 20
7.5325489709
 30
0.0
 10
10.5638120723
 20
7.5250482861
 30
0.0
 10
10.5635592751
 20
7.5212876183
 30
0.0
  0
SPLINE
  5
373
100
AcDbEntity
  8
0
100
AcDbSpline
 62
7
  6
CONTINUOUS
 70
0
 71
3
 72
42
 73
38
 74
0
 42
0.0000001
 43
0.0000001
 44
0.0000000001
 40
0.0
 40
0.0
 40
0.0
 40
0.0
 40
0.0299419634
 40
0.0449235299
 40
0.0599142017
 40
0.0899287029
 40
0.1200139772
 40
0.1350926626
 40
0.1501967046
 40
0.1804840506
 40
0.2108978877
 40
0.2414513551
 40
0.2721543675
 40
0.3030134354
 40
0.3340315696
 40
0.3652082675
 40
0.3965395775
 40
0.4280182343
 40
0.4596338596
 40
0.4913732188
 40
0.5232205284
 40
0.5551578047
 40
0.5871652463
 40
0.6192216448
 40
0.6513048151
 40
0.6833920402
 40
0.7154605222
 40
0.747487836
 40
0.7794523759
 40
0.8113337934
 40
0.8431134117
 40
0.8747746318
 40
0.9063032512
 40
0.9376879208
 40
0.9533258
 40
0.9689252634
 40
1.0
 40
1.0
 40
1.0
 40
1.0
 10
11.383739572
 20
9.7774486484
 30
0.0
 10
11.3872399937
 20
9.7808297756
 30
0.0
 10
11.3926969619
 20
9.7856965851
 30
0.0
 10
11.4003393229
 20
9.7917352359
 30
0.0
 10
11.4082250548
 20
9.7974733942
 30
0.0
 10
11.4185146382
 20
9.8040626589
 30
0.0
 10
11.4293045074
 20
9.8098263586
 30
0.0
 10
11.4382033531
 20
9.8139266602
 30
0.0
 10
11.4472860229
 20
9.8176884757
 30
0.0
 10
11.4589386765
 20
9.8217334904
 30
0.0
 10
11.4732988056
 20
9.8255033428
 30
0.0
 10
11.4879722751
 20
9.828173993
 30
0.0
 10
11.5028777665
 20
9.8297307073
 30
0.0
 10
11.5179334009
 20
9.8301651782
 30
0.0
 10
11.5330563379
 20
9.8294751944
 30
0.0
 10
11.5481634584
 20
9.8276647417
 30
0.0
 10
11.5631717554
 20
9.8247439456
 30
0.0
 10
11.5779988017
 20
9.8207290163
 30
0.0
 10
11.5925631913
 20
9.815642152
 30
0.0
 10
11.6067849823
 20
9.8095114142
 30
0.0
 10
11.620586128
 20
9.8023705713
 30
0.0
 10
11.6338909003
 20
9.7942589124
 30
0.0
 10
11.6466262991
 20
9.785221032
 30
0.0
 10
11.658722448
 20
9.775306586
 30
0.0
 10
11.6701129728
 20
9.7645700214
 30
0.0
 10
11.6807353621
 20
9.7530702796
 30
0.0
 10
11.6905313067
 20
9.7408704765
 30
0.0
 10
11.6994470161
 20
9.7280375582
 30
0.0
 10
11.7074335114
 20
9.7146419424
 30
0.0
 10
11.7144468925
 20
9.7007571201
 30
0.0
 10
11.7204485759
 20
9.6864593158
 30
0.0
 10
11.725405518
 20
9.6718268614
 30
0.0
 10
11.7292903353
 20
9.6569405576
 30
0.0
 10
11.7316193696
 20
9.6443749033
 30
0.0
 10
11.7329258888
 20
9.6342785524
 30
0.0
 10
11.7338583194
 20
9.624191863
 30
0.0
 10
11.7341406504
 20
9.616601697
 30
0.0
 10
11.7341406504
 20
9.6115508568
 30
0.0
  0
SPLINE
  5
374
100
AcDbEntity
  8
0
100
AcDbSpline
 62
7
  6
CONTINUOUS
 70
0
 71
3
 72
42
 73
38
 74
0
 42
0.0000001
 43
0.0000001
 44
0.0000000001
 40
0.0
 40
0.0
 40
0.0
 40
0.0
 40
0.0299419634
 40
0.0449235299
 40
0.0599142017
 40
0.0899287029
 40
0.1200139772
 40
0.1350926626
 40
0.1501967046
 40
0.1804840506
 40
0.2108978877
 40
0.2414513551
 40
0.2721543675
 40
0.3030134354
 40
0.3340315696
 40
0.3652082675
 40
0.3965395775
 40
0.4280182343
 40
0.4596338596
 40
0.4913732188
 40
0.5232205284
 40
0.5551578047
 40
0.5871652463
 40
0.6192216448
 40
0.6513048151
 40
0.6833920402
 40
0.7154605222
 40
0.747487836
 40
0.7794523759
 40
0.8113337934
 40
0.8431134117
 40
0.8747746318
 40
0.9063032512
 40
0.9376879208
 40
0.9533258
 40
0.9689252634
 40
1.0
 40
1.0
 40
1.0
 40
1.0
 10
10.297072953
 20
6.8941782881
 30
0.0
 10
10.3005733747
 20
6.8975594153
 30
0.0
 10
10.3060303429
 20
6.9024262249
 30
0.0
 10
10.313672704
 20
6.9084648756
 30
0.0
 10
10.3215584358
 20
6.9142030339
 30
0.0
 10
10.3318480192
 20
6.9207922986
 30
0.0
 10
10.3426378884
 20
6.9265559983
 30
0.0
 10
10.3515367342
 20
6.9306563
 30
0.0
 10
10.360619404
 20
6.9344181154
 30
0.0
 10
10.3722720575
 20
6.9384631302
 30
0.0
 10
10.3866321867
 20
6.9422329825
 30
0.0
 10
10.4013056561
 20
6.9449036327
 30
0.0
 10
10.4162111475
 20
6.9464603471
 30
0.0
 10
10.431266782
 20
6.9468948179
 30
0.0
 10
10.4463897189
 20
6.9462048342
 30
0.0
 10
10.4614968394
 20
6.9443943814
 30
0.0
 10
10.4765051365
 20
6.9414735854
 30
0.0
 10
10.4913321827
 20
6.9374586561
 30
0.0
 10
10.5058965724
 20
6.9323717918
 30
0.0
 10
10.5201183633
 20
6.9262410539
 30
0.0
 10
10.533919509
 20
6.919100211
 30
0.0
 10
10.5472242814
 20
6.9109885522
 30
0.0
 10
10.5599596802
 20
6.9019506718
 30
0.0
 10
10.572055829
 20
6.8920362258
 30
0.0
 10
10.5834463538
 20
6.8812996612
 30
0.0
 10
10.5940687432
 20
6.8697999194
 30
0.0
 10
10.6038646878
 20
6.8576001162
 30
0.0
 10
10.6127803971
 20
6.844767198
 30
0.0
 10
10.6207668924
 20
6.8313715821
 30
0.0
 10
10.6277802735
 20
6.8174867599
 30
0.0
 10
10.6337819569
 20
6.8031889555
 30
0.0
 10
10.6387388991
 20
6.7885565012
 30
0.0
 10
10.6426237164
 20
6.7736701974
 30
0.0
 10
10.6449527507
 20
6.7611045431
 30
0.0
 10
10.6462592698
 20
6.7510081922
 30
0.0
 10
10.6471917005
 20
6.7409215027
 30
0.0
 10
10.6474740315
 20
6.7333313368
 30
0.0
 10
10.6474740315
 20
6.7282804966
 30
0.0
  0
SPLINE
  5
375
100
AcDbEntity
  8
0
100
AcDbSpline
 62
7
  6
CONTINUOUS
 70
0
 71
3
 72
78
 73
74
 74
0
 42
0.0000001
 43
0.0000001
 44
0.0000000001
 40
0.0
 40
0.0
 40
0.0
 40
0.0
 40
0.0027164367
 40
0.0054532514
 40
0.0082303279
 40
0.0110666264
 40
0.0139798478
 40
0.01698616
 40
0.0201001332
 40
0.023334663
 40
0.026701018
 40
0.0302089883
 40
0.0338669101
 40
0.0376818815
 40
0.0416598755
 40
0.0458058052
 40
0.0501237497
 40
0.0546169572
 40
0.0592879722
 40
0.0641387695
 40
0.0691707052
 40
0.0743846925
 40
0.0853596199
 40
0.0970635082
 40
0.1094902867
 40
0.1226295599
 40
0.1364672579
 40
0.1509861147
 40
0.1661660528
 40
0.1819845313
 40
0.1984168054
 40
0.215436125
 40
0.2330139089
 40
0.2511199382
 40
0.2697225034
 40
0.2887885258
 40
0.3082836681
 40
0.328172477
 40
0.3484184949
 40
0.3689843598
 40
0.4109214935
 40
0.4536716183
 40
0.4969137458
 40
0.5403221561
 40
0.5835695333
 40
0.6263301102
 40
0.6682827915
 40
0.6888582978
 40
0.7091151729
 40
0.7290160218
 40
0.7485243581
 40
0.7676046983
 40
0.786222669
 40
0.8043451405
 40
0.8219403599
 40
0.8389780633
 40
0.8554296169
 40
0.8712681983
 40
0.8864689974
 40
0.9010094047
 40
0.9148692631
 40
0.9280311977
 40
0.9404810329
 40
0.9522082461
 40
0.9632066295
 40
0.9684323353
 40
0.9734759499
 40
0.9783383088
 40
0.9830207669
 40
0.9875253485
 40
0.9918546163
 40
0.9960116159
 40
1.0
 40
1.0
 40
1.0
 40
1.0
 10
12.901410657
 20
9.8333557085
 30
0.0
 10
12.9005894516
 20
9.833412661
 30
0.0
 10
12.8989450832
 20
9.8336013046
 30
0.0
 10
12.8964994737
 20
9.834106177
 30
0.0
 10
12.8940723467
 20
9.8348327993
 30
0.0
 10
12.8916654202
 20
9.83578047
 30
0.0
 10
12.8892799747
 20
9.8369484138
 30
0.0
 10
12.8869171815
 20
9.8383356203
 30
0.0
 10
12.8845781714
 20
9.8399411775
 30
0.0
 10
12.8822639753
 20
9.8417640434
 30
0.0
 10
12.8799755605
 20
9.8438031246
 30
0.0
 10
12.8777139727
 20
9.8460573655
 30
0.0
 10
12.8754801463
 20
9.8485255379
 30
0.0
 10
12.8732750888
 20
9.851206409
 30
0.0
 10
12.8710998276
 20
9.8540986594
 30
0.0
 10
12.868955311
 20
9.8572008242
 30
0.0
 10
12.8668425984
 20
9.8605114089
 30
0.0
 10
12.864762676
 20
9.8640287691
 30
0.0
 10
12.8627165239
 20
9.867751165
 30
0.0
 10
12.8607051982
 20
9.87167678
 30
0.0
 10
12.8587296037
 20
9.8758036564
 30
0.0
 10
12.856099465
 20
9.8816724987
 30
0.0
 10
12.8529188492
 20
9.8895070446
 30
0.0
 10
12.8493224385
 20
9.8995215847
 30
0.0
 10
12.8458910117
 20
9.9102841481
 30
0.0
 10
12.8426314713
 20
9.9217733066
 30
0.0
 10
12.8395504058
 20
9.9339663643
 30
0.0
 10
12.8366540672
 20
9.9468390419
 30
0.0
 10
12.8339483295
 20
9.9603656507
 30
0.0
 10
12.8314386965
 20
9.9745191395
 30
0.0
 10
12.8291302811
 20
9.9892711702
 30
0.0
 10
12.8270277872
 20
10.0045921696
 30
0.0
 10
12.8251354847
 20
10.0204513933
 30
0.0
 10
12.8234572249
 20
10.0368170002
 30
0.0
 10
12.8219964283
 20
10.0536561247
 30
0.0
 10
12.8207560767
 20
10.070934935
 30
0.0
 10
12.8197386859
 20
10.0886187055
 30
0.0
 10
12.8189463353
 20
10.1066718802
 30
0.0
 10
12.8183806202
 20
10.1250581977
 30
0.0
 10
12.8179272605
 20
10.150130578
 30
0.0
 10
12.817942373
 20
10.1820294292
 30
0.0
 10
12.8188693928
 20
10.2207888689
 30
0.0
 10
12.8206984791
 20
10.2599625925
 30
0.0
 10
12.8234150008
 20
10.2992357552
 30
0.0
 10
12.8269971582
 20
10.3382929882
 30
0.0
 10
12.8314160678
 20
10.3768203938
 30
0.0
 10
12.8357936648
 20
10.4084283436
 30
0.0
 10
12.8396953667
 20
10.4332104827
 30
0.0
 10
12.8427878111
 20
10.4513536996
 30
0.0
 10
12.8460589462
 20
10.4691368369
 30
0.0
 10
12.8495021938
 20
10.4865241763
 30
0.0
 10
12.8531105961
 20
10.5034807653
 30
0.0
 10
12.8568768761
 20
10.519972528
 30
0.0
 10
12.8607934287
 20
10.5359663335
 30
0.0
 10
12.8648523347
 20
10.5514300696
 30
0.0
 10
12.8690453926
 20
10.5663326997
 30
0.0
 10
12.8733641342
 20
10.5806443254
 30
0.0
 10
12.8777998353
 20
10.5943362612
 30
0.0
 10
12.8823435235
 20
10.6073811046
 30
0.0
 10
12.8869860196
 20
10.6197527831
 30
0.0
 10
12.8917179599
 20
10.6314266203
 30
0.0
 10
12.8965298156
 20
10.6423793788
 30
0.0
 10
12.9014119286
 20
10.6525894372
 30
0.0
 10
12.9063545072
 20
10.66203648
 30
0.0
 10
12.9105847312
 20
10.669378238
 30
0.0
 10
12.913998864
 20
10.674845176
 30
0.0
 10
12.9165246625
 20
10.6786728966
 30
0.0
 10
12.9190581467
 20
10.6822964492
 30
0.0
 10
12.9215981467
 20
10.6857140438
 30
0.0
 10
12.9241434045
 20
10.6889240503
 30
0.0
 10
12.9266927588
 20
10.6919248634
 30
0.0
 10
12.9292447857
 20
10.6947148563
 30
0.0
 10
12.9309824589
 20
10.6964691084
 30
0.0
 10
12.931851767
 20
10.6973087956
 30
0.0
  0
SPLINE
  5
376
100
AcDbEntity
  8
0
100
AcDbSpline
 62
7
  6
CONTINUOUS
 70
0
 71
3
 72
55
 73
51
 74
0
 42
0.0000001
 43
0.0000001
 44
0.0000000001
 40
0.0
 40
0.0
 40
0.0
 40
0.0
 40
0.0075208779
 40
0.0156242627
 40
0.0243312555
 40
0.0336551233
 40
0.0436030591
 40
0.0541771463
 40
0.0653752896
 40
0.07719199
 40
0.0896186372
 40
0.1026441739
 40
0.1162552111
 40
0.1304363626
 40
0.1451705228
 40
0.1604388534
 40
0.1762211627
 40
0.1924958409
 40
0.2264289939
 40
0.2620438627
 40
0.29912964
 40
0.3374627617
 40
0.3768091792
 40
0.4169265335
 40
0.4575662562
 40
0.4984756157
 40
0.5393997412
 40
0.5800836423
 40
0.6202742353
 40
0.6597223685
 40
0.6981848647
 40
0.7354266023
 40
0.7712226774
 40
0.8053606869
 40
0.8217460903
 40
0.8376442647
 40
0.8530333782
 40
0.8678928482
 40
0.8822035297
 40
0.8959479262
 40
0.9091101711
 40
0.9216764757
 40
0.9336351494
 40
0.9449770057
 40
0.955695826
 40
0.9657886149
 40
0.9752563841
 40
0.984105112
 40
0.9923469969
 40
1.0
 40
1.0
 40
1.0
 40
1.0
 10
12.8816198754
 20
10.0191561137
 30
0.0
 10
12.8807852411
 20
10.0201823508
 30
0.0
 10
12.8791407648
 20
10.0223879561
 30
0.0
 10
12.87682653
 20
10.025990914
 30
0.0
 10
12.8745784063
 20
10.0300030227
 30
0.0
 10
12.8723998876
 20
10.0344176747
 30
0.0
 10
12.8702943218
 20
10.0392280269
 30
0.0
 10
12.8682650774
 20
10.0444263579
 30
0.0
 10
12.8663154308
 20
10.0500042852
 30
0.0
 10
12.8644486472
 20
10.0559527448
 30
0.0
 10
12.86266777
 20
10.0622619994
 30
0.0
 10
12.8609758147
 20
10.0689216933
 30
0.0
 10
12.8593755952
 20
10.0759208534
 30
0.0
 10
12.8578697805
 20
10.0832479243
 30
0.0
 10
12.8564609322
 20
10.0908907921
 30
0.0
 10
12.8551513759
 20
10.0988367979
 30
0.0
 10
12.8539433192
 20
10.1070727875
 30
0.0
 10
12.8524498752
 20
10.1185832672
 30
0.0
 10
12.8508633974
 20
10.1335968635
 30
0.0
 10
12.8494165989
 20
10.1522981584
 30
0.0
 10
12.8484114518
 20
10.1718032028
 30
0.0
 10
12.8478548787
 20
10.191982548
 30
0.0
 10
12.8477508323
 20
10.2127023836
 30
0.0
 10
12.8481001696
 20
10.2338251867
 30
0.0
 10
12.8489006923
 20
10.2552107364
 30
0.0
 10
12.8501471558
 20
10.2767170401
 30
0.0
 10
12.8518313121
 20
10.2982012938
 30
0.0
 10
12.8539419594
 20
10.3195208421
 30
0.0
 10
12.8564650153
 20
10.3405341379
 30
0.0
 10
12.8593836158
 20
10.361101701
 30
0.0
 10
12.8626782268
 20
10.3810870377
 30
0.0
 10
12.8663267521
 20
10.4003576463
 30
0.0
 10
12.8703047374
 20
10.4187856564
 30
0.0
 10
12.8739195603
 20
10.4335336244
 30
0.0
 10
12.8769658885
 20
10.4448122991
 30
0.0
 10
12.8792847039
 20
10.4528705098
 30
0.0
 10
12.8816649016
 20
10.4606305262
 30
0.0
 10
12.8841025525
 20
10.4680794982
 30
0.0
 10
12.8865935943
 20
10.4752050893
 30
0.0
 10
12.8891338372
 20
10.4819955244
 30
0.0
 10
12.8917190949
 20
10.4884395834
 30
0.0
 10
12.8943450214
 20
10.4945266606
 30
0.0
 10
12.8970072742
 20
10.5002467524
 30
0.0
 10
12.8997014571
 20
10.5055904993
 30
0.0
 10
12.9024231007
 20
10.5105492192
 30
0.0
 10
12.9051678338
 20
10.5151148646
 30
0.0
 10
12.9079311492
 20
10.5192801419
 30
0.0
 10
12.9107088941
 20
10.5230385792
 30
0.0
 10
12.9134965871
 20
10.526383873
 30
0.0
 10
12.915428814
 20
10.5284084113
 30
0.0
 10
12.9163969522
 20
10.5293435611
 30
0.0
  0
SPLINE
  5
377
100
AcDbEntity
  8
0
100
AcDbSpline
 62
7
  6
CONTINUOUS
 70
0
 71
3
 72
84
 73
80
 74
0
 42
0.0000001
 43
0.0000001
 44
0.0000000001
 40
0.0
 40
0.0
 40
0.0
 40
0.0
 40
0.0027164264
 40
0.0054532293
 40
0.008230295
 40
0.0110665896
 40
0.0139797932
 40
0.0169861044
 40
0.0201000661
 40
0.0233345812
 40
0.0267009392
 40
0.0302088856
 40
0.0338668056
 40
0.037681768
 40
0.0416597414
 40
0.0458056718
 40
0.050123593
 40
0.0546167913
 40
0.0592877975
 40
0.0641385717
 40
0.0691704988
 40
0.074384467
 40
0.0797809628
 40
0.0853600226
 40
0.0911213815
 40
0.0970644148
 40
0.1094911534
 40
0.122630387
 40
0.136468035
 40
0.1509868331
 40
0.1661667198
 40
0.1819851503
 40
0.1984173662
 40
0.2154366132
 40
0.2330143274
 40
0.2511202956
 40
0.2697227959
 40
0.2887887406
 40
0.3082838034
 40
0.3281725359
 40
0.3484184777
 40
0.3689842604
 40
0.3898317162
 40
0.4109219843
 40
0.4536719359
 40
0.4969138893
 40
0.5403221212
 40
0.5835693222
 40
0.6263297187
 40
0.6474271304
 40
0.6682829869
 40
0.6888584043
 40
0.7091151927
 40
0.7290159604
 40
0.748524216
 40
0.7676044742
 40
0.7862223676
 40
0.8043447661
 40
0.8219399096
 40
0.838977535
 40
0.8554290199
 40
0.8712675451
 40
0.8864682815
 40
0.9010086172
 40
0.9148684112
 40
0.9280303001
 40
0.9404800906
 40
0.946434749
 40
0.9522077946
 40
0.957798564
 40
0.9632067735
 40
0.9684324641
 40
0.9734760551
 40
0.9783384155
 40
0.983020862
 40
0.9875253935
 40
0.9918546029
 40
0.9960115831
 40
1.0
 40
1.0
 40
1.0
 40
1.0
 10
12.8906869689
 20
8.1699508353
 30
0.0
 10
12.8895764753
 20
8.1700278522
 30
0.0
 10
12.8873528475
 20
8.1702830031
 30
0.0
 10
12.8840457141
 20
8.1709657013
 30
0.0
 10
12.8807635712
 20
8.1719482936
 30
0.0
 10
12.8775087744
 20
8.1732298597
 30
0.0
 10
12.8742829707
 20
8.1748091855
 30
0.0
 10
12.8710878599
 20
8.1766851245
 30
0.0
 10
12.8679248735
 20
8.1788562681
 30
0.0
 10
12.8647954341
 20
8.1813212729
 30
0.0
 10
12.8617009122
 20
8.1840787114
 30
0.0
 10
12.8586425899
 20
8.1871270305
 30
0.0
 10
12.8556218745
 20
8.1904647028
 30
0.0
 10
12.8526400378
 20
8.1940899788
 30
0.0
 10
12.8496984718
 20
8.1980010847
 30
0.0
 10
12.8467985333
 20
8.2021960826
 30
0.0
 10
12.8439415454
 20
8.2066728885
 30
0.0
 10
12.8411289356
 20
8.211429332
 30
0.0
 10
12.8383619907
 20
8.2164630364
 30
0.0
 10
12.835642109
 20
8.2217715399
 30
0.0
 10
12.8329706097
 20
8.2273522078
 30
0.0
 10
12.830348791
 20
8.2332022682
 30
0.0
 10
12.8277780044
 20
8.2393188305
 30
0.0
 10
12.8252594754
 20
8.2456988305
 30
0.0
 10
12.822794488
 20
8.2523391123
 30
0.0
 10
12.8195322829
 20
8.2616747358
 30
0.0
 10
12.8156093245
 20
8.2739793581
 30
0.0
 10
12.8112015388
 20
8.2895157425
 30
0.0
 10
12.8070351031
 20
8.3060041167
 30
0.0
 10
12.8031184598
 20
8.3234114811
 30
0.0
 10
12.799459571
 20
8.3417031559
 30
0.0
 10
12.7960658734
 20
8.3608425439
 30
0.0
 10
12.7929442728
 20
8.3807913179
 30
0.0
 10
12.7901011233
 20
8.4015094847
 30
0.0
 10
12.7875422145
 20
8.4229554797
 30
0.0
 10
12.7852727595
 20
8.4450862497
 30
0.0
 10
12.7832973741
 20
8.4678573432
 30
0.0
 10
12.7816200787
 20
8.4912230061
 30
0.0
 10
12.7802442899
 20
8.5151362809
 30
0.0
 10
12.7791728143
 20
8.5395491015
 30
0.0
 10
12.778407842
 20
8.5644123928
 30
0.0
 10
12.777950946
 20
8.5896761521
 30
0.0
 10
12.7778030379
 20
8.6152896177
 30
0.0
 10
12.7780193439
 20
8.6499936881
 30
0.0
 10
12.7790688354
 20
8.6938665022
 30
0.0
 10
12.7815422094
 20
8.7468398647
 30
0.0
 10
12.785215698
 20
8.7999479716
 30
0.0
 10
12.7900597799
 20
8.8527637981
 30
0.0
 10
12.7950613464
 20
8.8963726356
 30
0.0
 10
12.799625839
 20
8.930786644
 30
0.0
 10
12.8032995265
 20
8.9561461424
 30
0.0
 10
12.8072312219
 20
8.9811182522
 30
0.0
 10
12.8114130288
 20
9.0056527986
 30
0.0
 10
12.8158364984
 20
9.0297004476
 30
0.0
 10
12.8204927059
 20
9.0532128629
 30
0.0
 10
12.8253722526
 20
9.0761427867
 30
0.0
 10
12.830465289
 20
9.0984441399
 30
0.0
 10
12.8357615327
 20
9.1200721201
 30
0.0
 10
12.841250281
 20
9.1409832981
 30
0.0
 10
12.8469204425
 20
9.1611357057
 30
0.0
 10
12.8527605588
 20
9.180488921
 30
0.0
 10
12.8587588272
 20
9.1990041521
 30
0.0
 10
12.8649031314
 20
9.216644334
 30
0.0
 10
12.8711810568
 20
9.2333741931
 30
0.0
 10
12.8775799352
 20
9.2491604233
 30
0.0
 10
12.8840868634
 20
9.2639714384
 30
0.0
 10
12.8896681733
 20
9.2756440263
 30
0.0
 10
12.8941859544
 20
9.2844622789
 30
0.0
 10
12.8975427833
 20
9.2907156516
 30
0.0
 10
12.9009168248
 20
9.296704038
 30
0.0
 10
12.9043063851
 20
9.3024244777
 30
0.0
 10
12.9077097839
 20
9.3078741187
 30
0.0
 10
12.9111253479
 20
9.3130502344
 30
0.0
 10
12.9145513206
 20
9.317950274
 30
0.0
 10
12.9179860873
 20
9.322571794
 30
0.0
 10
12.9214279589
 20
9.3269125714
 30
0.0
 10
12.9248753466
 20
9.3309704763
 30
0.0
 10
12.9283263872
 20
9.3347433057
 30
0.0
 10
12.9306762112
 20
9.3371155427
 30
0.0
 10
12.931851767
 20
9.3382510425
 30
0.0
  0
SPLINE
  5
378
100
AcDbEntity
  8
0
100
AcDbSpline
 62
7
  6
CONTINUOUS
 70
0
 71
3
 72
59
 73
55
 74
0
 42
0.0000001
 43
0.0000001
 44
0.0000000001
 40
0.0
 40
0.0
 40
0.0
 40
0.0
 40
0.0075208311
 40
0.0156241766
 40
0.0243311007
 40
0.0336549386
 40
0.0436028077
 40
0.0541768317
 40
0.0653749453
 40
0.0771915599
 40
0.08961816
 40
0.10264364
 40
0.1162546046
 40
0.1304357049
 40
0.1451697937
 40
0.1604380695
 40
0.1762203028
 40
0.1924949219
 40
0.2092390877
 40
0.2264288677
 40
0.2440392968
 40
0.2620444227
 40
0.2991300734
 40
0.337463055
 40
0.3768093382
 40
0.4169265582
 40
0.4575661491
 40
0.4984753803
 40
0.5393993789
 40
0.5800831581
 40
0.6202736296
 40
0.6597216473
 40
0.6981840261
 40
0.7354256484
 40
0.7535183302
 40
0.7712224299
 40
0.7885118037
 40
0.8053612647
 40
0.8217466086
 40
0.8376447426
 40
0.8530338123
 40
0.8678932395
 40
0.8822038834
 40
0.8959482262
 40
0.9091104572
 40
0.9216767058
 40
0.9336353451
 40
0.9449771968
 40
0.955695942
 40
0.9657887114
 40
0.9752565152
 40
0.9841051685
 40
0.9923468893
 40
1.0
 40
1.0
 40
1.0
 40
1.0
 10
12.8619348836
 20
8.3664831987
 30
0.0
 10
12.8606278155
 20
8.3680903188
 30
0.0
 10
12.8580524895
 20
8.3715443602
 30
0.0
 10
12.8544283241
 20
8.3771867161
 30
0.0
 10
12.8509076417
 20
8.383469797
 30
0.0
 10
12.8474960235
 20
8.3903833027
 30
0.0
 10
12.844198606
 20
8.3979164708
 30
0.0
 10
12.8410207168
 20
8.4060572358
 30
0.0
 10
12.8379675204
 20
8.414792473
 30
0.0
 10
12.835044029
 20
8.4241079647
 30
0.0
 10
12.8322551182
 20
8.4339884844
 30
0.0
 10
12.8296054471
 20
8.4444178062
 30
0.0
 10
12.8270994256
 20
8.4553787434
 30
0.0
 10
12.8247412696
 20
8.4668532045
 30
0.0
 10
12.8225349435
 20
8.4788222163
 30
0.0
 10
12.8204841277
 20
8.4912659572
 30
0.0
 10
12.818592276
 20
8.5041638081
 30
0.0
 10
12.8168625766
 20
8.5174943816
 30
0.0
 10
12.8152979099
 20
8.5312355579
 30
0.0
 10
12.8139009175
 20
8.5453645239
 30
0.0
 10
12.8126739319
 20
8.5598578438
 30
0.0
 10
12.8112534878
 20
8.5798327085
 30
0.0
 10
12.8099291417
 20
8.6055341617
 30
0.0
 10
12.8090574741
 20
8.6371356935
 30
0.0
 10
12.8088945373
 20
8.6695837726
 30
0.0
 10
12.8094415995
 20
8.7026628861
 30
0.0
 10
12.8106952393
 20
8.7361534832
 30
0.0
 10
12.8126472532
 20
8.7698331856
 30
0.0
 10
12.8152846986
 20
8.8034783604
 30
0.0
 10
12.8185900402
 20
8.8368656046
 30
0.0
 10
12.8225412442
 20
8.869773237
 30
0.0
 10
12.8271118718
 20
8.9019828683
 30
0.0
 10
12.8322713796
 20
8.9332805889
 30
0.0
 10
12.8370778603
 20
8.9586678285
 30
0.0
 10
12.8412015742
 20
8.9783588412
 30
0.0
 10
12.8443893279
 20
8.9926296478
 30
0.0
 10
12.8476964217
 20
9.0065215177
 30
0.0
 10
12.8511173511
 20
9.0200114095
 30
0.0
 10
12.8546464142
 20
9.0330769258
 30
0.0
 10
12.8582777309
 20
9.04569639
 30
0.0
 10
12.8620052214
 20
9.0578488832
 30
0.0
 10
12.865822676
 20
9.0695142651
 30
0.0
 10
12.8697237361
 20
9.0806732198
 30
0.0
 10
12.8737018721
 20
9.0913073044
 30
0.0
 10
12.8777504615
 20
9.1013989599
 30
0.0
 10
12.8818627803
 20
9.1109315557
 30
0.0
 10
12.8860319734
 20
9.1198894445
 30
0.0
 10
12.8902511463
 20
9.1282579682
 30
0.0
 10
12.8945133749
 20
9.1360234995
 30
0.0
 10
12.8988117071
 20
9.1431735037
 30
0.0
 10
12.9031391893
 20
9.1496964843
 30
0.0
 10
12.907489232
 20
9.1555823094
 30
0.0
 10
12.9118548241
 20
9.1608211864
 30
0.0
 10
12.9148807843
 20
9.1639916727
 30
0.0
 10
12.9163969522
 20
9.1654561785
 30
0.0
  0
SPLINE
  5
379
100
AcDbEntity
  8
0
100
AcDbSpline
 62
7
  6
CONTINUOUS
 70
0
 71
3
 72
9
 73
5
 74
0
 42
0.0000001
 43
0.0000001
 44
0.0000000001
 40
0.0
 40
0.0
 40
0.0
 40
0.0
 40
0.4959938241
 40
1.0
 40
1.0
 40
1.0
 40
1.0
 10
12.8518158928
 20
8.3931749693
 30
0.0
 10
12.8507840947
 20
8.393246532
 30
0.0
 10
12.8487111875
 20
8.3935295372
 30
0.0
 10
12.8466935023
 20
8.3940806357
 30
0.0
 10
12.8456985292
 20
8.3944191576
 30
0.0
  0
SPLINE
  5
37A
100
AcDbEntity
  8
0
100
AcDbSpline
 62
7
  6
CONTINUOUS
 70
0
 71
3
 72
9
 73
5
 74
0
 42
0.0000001
 43
0.0000001
 44
0.0000000001
 40
0.0
 40
0.0
 40
0.0
 40
0.0
 40
0.4959949543
 40
1.0
 40
1.0
 40
1.0
 40
1.0
 10
12.9037039409
 20
9.1413778794
 30
0.0
 10
12.902672292
 20
9.1414494318
 30
0.0
 10
12.9005804704
 20
9.1414552719
 30
0.0
 10
12.89850633
 20
9.1411880612
 30
0.0
 10
12.8974742977
 20
9.1409902008
 30
0.0
  0
SPLINE
  5
37B
100
AcDbEntity
  8
0
100
AcDbSpline
 62
7
  6
CONTINUOUS
 70
0
 71
3
 72
75
 73
71
 74
0
 42
0.0000001
 43
0.0000001
 44
0.0000000001
 40
0.0
 40
0.0
 40
0.0
 40
0.0
 40
0.0086055432
 40
0.0180051993
 40
0.0282249959
 40
0.0392795446
 40
0.0511726487
 40
0.0639001709
 40
0.0774515695
 40
0.0918108897
 40
0.106957556
 40
0.1228670737
 40
0.1395115417
 40
0.1568599821
 40
0.1748786595
 40
0.1935314284
 40
0.2127799498
 40
0.2325838426
 40
0.2529009396
 40
0.2736874829
 40
0.2948982496
 40
0.3164867135
 40
0.3606043047
 40
0.4056494466
 40
0.4512195514
 40
0.4969060152
 40
0.5422989117
 40
0.586991675
 40
0.6305857541
 40
0.65185016
 40
0.6726965375
 40
0.6930794844
 40
0.7129550365
 40
0.7322807957
 40
0.7510161303
 40
0.7691224214
 40
0.7865632095
 40
0.8033044131
 40
0.819314674
 40
0.8345656572
 40
0.8490323727
 40
0.8626936837
 40
0.8755329893
 40
0.8875389311
 40
0.8987064373
 40
0.9090382568
 40
0.9138949665
 40
0.9185484203
 40
0.923002208
 40
0.9272609172
 40
0.9313302255
 40
0.9352172309
 40
0.9424768788
 40
0.9458752935
 40
0.9491366095
 40
0.952277273
 40
0.9553160308
 40
0.9582737716
 40
0.9611733666
 40
0.9640392188
 40
0.9668966664
 40
0.9697713031
 40
0.972688225
 40
0.9756713805
 40
0.9787429605
 40
0.9852251164
 40
0.9886741028
 40
0.9922790265
 40
0.9960512651
 40
1.0
 40
1.0
 40
1.0
 40
1.0
 10
12.9163969522
 20
10.0174028428
 30
0.0
 10
12.9175675952
 20
10.0185335971
 30
0.0
 10
12.9199014979
 20
10.0210203587
 30
0.0
 10
12.9232416322
 20
10.025189806
 30
0.0
 10
12.9265647437
 20
10.0299496318
 30
0.0
 10
12.9298632427
 20
10.0352886576
 30
0.0
 10
12.933129852
 20
10.0411950819
 30
0.0
 10
12.9363569517
 20
10.0476552659
 30
0.0
 10
12.9395369399
 20
10.0546542152
 30
0.0
 10
12.9426622149
 20
10.0621755358
 30
0.0
 10
12.9457253085
 20
10.0702014804
 30
0.0
 10
12.9487188656
 20
10.0787130391
 30
0.0
 10
12.9516356734
 20
10.0876900041
 30
0.0
 10
12.9544687092
 20
10.09711101
 30
0.0
 10
12.9572111663
 20
10.1069535932
 30
0.0
 10
12.9598564403
 20
10.1171942699
 30
0.0
 10
12.962398152
 20
10.1278085902
 30
0.0
 10
12.9648301979
 20
10.1387711872
 30
0.0
 10
12.9671467351
 20
10.1500558532
 30
0.0
 10
12.9693421791
 20
10.1616356027
 30
0.0
 10
12.9714112739
 20
10.1734827591
 30
0.0
 10
12.974013623
 20
10.1897146085
 30
0.0
 10
12.9769087579
 20
10.2104627654
 30
0.0
 10
12.9797850875
 20
10.2357847168
 30
0.0
 10
12.9820603028
 20
10.261465664
 30
0.0
 10
12.9837126123
 20
10.2872600467
 30
0.0
 10
12.984726229
 20
10.3129214428
 30
0.0
 10
12.9850916083
 20
10.3382044747
 30
0.0
 10
12.984851452
 20
10.3589254113
 30
0.0
 10
12.9843244924
 20
10.3751267826
 30
0.0
 10
12.9837702415
 20
10.3869337446
 30
0.0
 10
12.9830551375
 20
10.3984688984
 30
0.0
 10
12.9821809033
 20
10.4097046808
 30
0.0
 10
12.9811496631
 20
10.4206142181
 30
0.0
 10
12.9799639094
 20
10.4311714344
 30
0.0
 10
12.9786265359
 20
10.4413511133
 30
0.0
 10
12.977140792
 20
10.4511289546
 30
0.0
 10
12.9755102699
 20
10.4604816333
 30
0.0
 10
12.9737389319
 20
10.4693868744
 30
0.0
 10
12.9718310864
 20
10.4778235143
 30
0.0
 10
12.9697913501
 20
10.4857715447
 30
0.0
 10
12.9676246334
 20
10.493212195
 30
0.0
 10
12.9653361643
 20
10.5001279758
 30
0.0
 10
12.9629313775
 20
10.506502861
 30
0.0
 10
12.9604159249
 20
10.5123219063
 30
0.0
 10
12.9581884932
 20
10.5167850508
 30
0.0
 10
12.9563484691
 20
10.5200564841
 30
0.0
 10
12.9549729963
 20
10.5223117581
 30
0.0
 10
12.953574349
 20
10.52441833
 30
0.0
 10
12.9521533378
 20
10.5263749359
 30
0.0
 10
12.9507105471
 20
10.5281805854
 30
0.0
 10
12.9488026068
 20
10.5303359233
 30
0.0
 10
12.9468130754
 20
10.532247529
 30
0.0
 10
12.9447387277
 20
10.5338715256
 30
0.0
 10
12.9431991786
 20
10.5349069531
 30
0.0
 10
12.9416426065
 20
10.5357856861
 30
0.0
 10
12.9400698467
 20
10.5365070207
 30
0.0
 10
12.9384818509
 20
10.5370701299
 30
0.0
 10
12.936879733
 20
10.5374743569
 30
0.0
 10
12.9352647441
 20
10.5377192501
 30
0.0
 10
12.9336382179
 20
10.5378044154
 30
0.0
 10
12.932001548
 20
10.5377298525
 30
0.0
 10
12.9303561018
 20
10.5374957886
 30
0.0
 10
12.9287030681
 20
10.5371024893
 30
0.0
 10
12.9264507272
 20
10.5363535419
 30
0.0
 10
12.9242219799
 20
10.5352873628
 30
0.0
 10
12.9220374598
 20
10.5339504531
 30
0.0
 10
12.9203619315
 20
10.5327709604
 30
0.0
 10
12.9186849085
 20
10.5314366079
 30
0.0
 10
12.9175919184
 20
10.5304670745
 30
0.0
 10
12.9170452088
 20
10.5299582887
 30
0.0
  0
SPLINE
  5
37C
100
AcDbEntity
  8
0
100
AcDbSpline
 62
7
  6
CONTINUOUS
 70
0
 71
3
 72
62
 73
58
 74
0
 42
0.0000001
 43
0.0000001
 44
0.0000000001
 40
0.0
 40
0.0
 40
0.0
 40
0.0
 40
0.0081438113
 40
0.0169768278
 40
0.0265208647
 40
0.0367896131
 40
0.0477882909
 40
0.0595157946
 40
0.0719659647
 40
0.0851282307
 40
0.0989884474
 40
0.113529232
 40
0.1287304073
 40
0.1445694158
 40
0.1610213924
 40
0.1780595147
 40
0.1956552032
 40
0.2137781425
 40
0.2323965838
 40
0.2514774225
 40
0.2908867049
 40
0.3317193113
 40
0.3736730778
 40
0.4164347485
 40
0.4596832327
 40
0.5030927524
 40
0.5463359834
 40
0.5890872005
 40
0.6310254005
 40
0.6718374884
 40
0.7112215247
 40
0.73028802
 40
0.7488910687
 40
0.7669975438
 40
0.7845757688
 40
0.8015955177
 40
0.8180281877
 40
0.8338470755
 40
0.8490273916
 40
0.8635465841
 40
0.877384641
 40
0.8905242378
 40
0.9029513084
 40
0.9146554932
 40
0.9256306718
 40
0.935876034
 40
0.9453970803
 40
0.9542071386
 40
0.9623296288
 40
0.9698006213
 40
0.9766724028
 40
0.9830176416
 40
0.9889331004
 40
0.9917694712
 40
0.9945466127
 40
0.9972834967
 40
1.0
 40
1.0
 40
1.0
 40
1.0
 10
12.8874191757
 20
10.0483902349
 30
0.0
 10
12.8883671765
 20
10.0493059334
 30
0.0
 10
12.8902582666
 20
10.0513040255
 30
0.0
 10
12.8929756524
 20
10.0546303653
 30
0.0
 10
12.8956813514
 20
10.0583983548
 30
0.0
 10
12.8983701132
 20
10.0626004579
 30
0.0
 10
12.9010370295
 20
10.0672288137
 30
0.0
 10
12.9036768308
 20
10.0722744664
 30
0.0
 10
12.906284309
 20
10.0777275536
 30
0.0
 10
12.9088542876
 20
10.0835773293
 30
0.0
 10
12.9113815723
 20
10.0898122221
 30
0.0
 10
12.9138610844
 20
10.0964198269
 30
0.0
 10
12.9162878368
 20
10.103386961
 30
0.0
 10
12.9186568961
 20
10.1106997074
 30
0.0
 10
12.920963497
 20
10.1183434208
 30
0.0
 10
12.923202981
 20
10.1263027812
 30
0.0
 10
12.9253707986
 20
10.1345618292
 30
0.0
 10
12.9274625905
 20
10.1431039795
 30
0.0
 10
12.9294741468
 20
10.1519120918
 30
0.0
 10
12.9320716779
 20
10.1641187687
 30
0.0
 10
12.9350800229
 20
10.1799118485
 30
0.0
 10
12.9382731136
 20
10.1994311336
 30
0.0
 10
12.9410609859
 20
10.2195602321
 30
0.0
 10
12.943421077
 20
10.2401374327
 30
0.0
 10
12.9453342779
 20
10.2609975382
 30
0.0
 10
12.9467851435
 20
10.2819729931
 30
0.0
 10
12.9477620313
 20
10.3028953151
 30
0.0
 10
12.9482571647
 20
10.3235964377
 30
0.0
 10
12.9482667187
 20
10.3439101467
 30
0.0
 10
12.9477907865
 20
10.3636732275
 30
0.0
 10
12.9469847819
 20
10.379720324
 30
0.0
 10
12.9460919072
 20
10.3921594115
 30
0.0
 10
12.9453117024
 20
10.4011530448
 30
0.0
 10
12.9444153538
 20
10.4098937637
 30
0.0
 10
12.9434046905
 20
10.4183640295
 30
0.0
 10
12.9422817688
 20
10.4265468329
 30
0.0
 10
12.9410488545
 20
10.4344257556
 30
0.0
 10
12.9397084877
 20
10.4419850042
 30
0.0
 10
12.938263377
 20
10.449209439
 30
0.0
 10
12.9367164548
 20
10.4560846123
 30
0.0
 10
12.9350708936
 20
10.4625968091
 30
0.0
 10
12.9333299993
 20
10.4687330665
 30
0.0
 10
12.9314972972
 20
10.4744812252
 30
0.0
 10
12.9295764898
 20
10.4798299661
 30
0.0
 10
12.9275713483
 20
10.4847688231
 30
0.0
 10
12.925485806
 20
10.4892882594
 30
0.0
 10
12.9233238068
 20
10.4933796795
 30
0.0
 10
12.9210891778
 20
10.4970354094
 30
0.0
 10
12.9187856026
 20
10.5002487456
 30
0.0
 10
12.9164163933
 20
10.5030137218
 30
0.0
 10
12.9139840248
 20
10.5053248214
 30
0.0
 10
12.9114914171
 20
10.5071762096
 30
0.0
 10
12.9093347396
 20
10.508346625
 30
0.0
 10
12.9075967859
 20
10.5090308281
 30
0.0
 10
12.9063004394
 20
10.5094189158
 30
0.0
 10
12.9049942722
 20
10.5096885526
 30
0.0
 10
12.9041160294
 20
10.5097893213
 30
0.0
 10
12.9036774311
 20
10.5098197348
 30
0.0
  0
SPLINE
  5
37D
100
AcDbEntity
  8
0
100
AcDbSpline
 62
7
  6
CONTINUOUS
 70
0
 71
3
 72
21
 73
17
 74
0
 42
0.0000001
 43
0.0000001
 44
0.0000000001
 40
0.0
 40
0.0
 40
0.0
 40
0.0
 40
0.1273176984
 40
0.2537999461
 40
0.3167619614
 40
0.3795355204
 40
0.4421314992
 40
0.5045621453
 40
0.5668413456
 40
0.6289845231
 40
0.6910084433
 40
0.7529310869
 40
0.8147714401
 40
0.8765493236
 40
0.9382852134
 40
1.0
 40
1.0
 40
1.0
 40
1.0
 10
11.3265199276
 20
9.63981945
 30
0.0
 10
11.3265199276
 20
9.6463178724
 30
0.0
 10
11.3271402454
 20
9.65928044
 30
0.0
 10
11.3294830114
 20
9.6753049719
 30
0.0
 10
11.3322831135
 20
9.6878748139
 30
0.0
 10
11.3348366605
 20
9.6971463355
 30
0.0
 10
11.3378407558
 20
9.7062531068
 30
0.0
 10
11.3412884734
 20
9.7151743935
 30
0.0
 10
11.3451718645
 20
9.7238895619
 30
0.0
 10
11.3494820529
 20
9.7323784981
 30
0.0
 10
11.3542090677
 20
9.7406216337
 30
0.0
 10
11.3593420075
 20
9.7485999714
 30
0.0
 10
11.3648690845
 20
9.7562950494
 30
0.0
 10
11.3707775867
 20
9.7636891952
 30
0.0
 10
11.3770536261
 20
9.7707651508
 30
0.0
 10
11.3814739246
 20
9.7752602144
 30
0.0
 10
11.383739572
 20
9.7774486484
 30
0.0
  0
SPLINE
  5
37E
100
AcDbEntity
  8
0
100
AcDbSpline
 62
7
  6
CONTINUOUS
 70
0
 71
3
 72
82
 73
78
 74
0
 42
0.0000001
 43
0.0000001
 44
0.0000000001
 40
0.0
 40
0.0
 40
0.0
 40
0.0
 40
0.003941485
 40
0.0080466515
 40
0.0123190121
 40
0.0167615272
 40
0.0213766964
 40
0.0261664866
 40
0.0311322139
 40
0.0362747441
 40
0.0415945428
 40
0.0470916827
 40
0.0527659566
 40
0.0586167929
 40
0.0708441574
 40
0.0837646834
 40
0.0973652575
 40
0.111629736
 40
0.1265393027
 40
0.1420727765
 40
0.158206869
 40
0.1749163891
 40
0.1921744134
 40
0.2099524292
 40
0.2282204883
 40
0.2469473363
 40
0.2661005276
 40
0.2856465267
 40
0.3055508117
 40
0.3257779862
 40
0.3462918757
 40
0.3670556206
 40
0.4091816592
 40
0.4518517318
 40
0.4947556823
 40
0.5375811858
 40
0.5800166434
 40
0.6009919877
 40
0.6217547814
 40
0.6422675716
 40
0.6624934937
 40
0.6823963737
 40
0.7019408239
 40
0.7210923336
 40
0.7398173677
 40
0.7580834739
 40
0.7758594056
 40
0.7931152293
 40
0.8098224454
 40
0.8259541249
 40
0.8414850748
 40
0.8563920232
 40
0.8706538101
 40
0.8842516303
 40
0.8971693336
 40
0.9093938167
 40
0.9209154914
 40
0.9264111912
 40
0.9317295222
 40
0.9368705851
 40
0.9418348651
 40
0.9466232165
 40
0.9512370154
 40
0.9556781098
 40
0.9599489424
 40
0.9640526347
 40
0.9679929988
 40
0.971774736
 40
0.9754034543
 40
0.9788858202
 40
0.9822297074
 40
0.9854442467
 40
0.9885400229
 40
0.9915291045
 40
0.994425107
 40
0.9972432074
 40
1.0
 40
1.0
 40
1.0
 40
1.0
 10
12.9163969522
 20
8.1898710362
 30
0.0
 10
12.9175516021
 20
8.1909863425
 30
0.0
 10
12.9198596902
 20
8.1933146246
 30
0.0
 10
12.9232507083
 20
8.1970142125
 30
0.0
 10
12.9266382795
 20
8.2009891136
 30
0.0
 10
12.9300206072
 20
8.2052372433
 30
0.0
 10
12.9333961918
 20
8.2097565701
 30
0.0
 10
12.9367634254
 20
8.214545006
 30
0.0
 10
12.9401207767
 20
8.2196002496
 30
0.0
 10
12.9434666047
 20
8.2249198853
 30
0.0
 10
12.9467992794
 20
8.2305013596
 30
0.0
 10
12.9501172402
 20
8.2363419666
 30
0.0
 10
12.9534188618
 20
8.2424389288
 30
0.0
 10
12.9578625502
 20
8.2510327628
 30
0.0
 10
12.9633545303
 20
8.2624043056
 30
0.0
 10
12.9697614838
 20
8.2768298167
 30
0.0
 10
12.9760658476
 20
8.2922010145
 30
0.0
 10
12.9822553414
 20
8.3084882106
 30
0.0
 10
12.9883179183
 20
8.3256600965
 30
0.0
 10
12.9942417612
 20
8.3436835166
 30
0.0
 10
13.000015315
 20
8.3625236431
 30
0.0
 10
13.0056273139
 20
8.3821440286
 30
0.0
 10
13.0110668036
 20
8.4025066827
 30
0.0
 10
13.0163231809
 20
8.4235721442
 30
0.0
 10
13.0213861968
 20
8.4452995701
 30
0.0
 10
13.0262459802
 20
8.4676468237
 30
0.0
 10
13.0308930539
 20
8.4905705568
 30
0.0
 10
13.0353183595
 20
8.5140262882
 30
0.0
 10
13.039513284
 20
8.5379684949
 30
0.0
 10
13.0434696491
 20
8.5623506941
 30
0.0
 10
13.047179782
 20
8.5871255917
 30
0.0
 10
13.0518106477
 20
8.6207789315
 30
0.0
 10
13.0569251648
 20
8.6634716599
 30
0.0
 10
13.0619508392
 20
8.7152438984
 30
0.0
 10
13.0658544349
 20
8.7673986348
 30
0.0
 10
13.0686056511
 20
8.8195309741
 30
0.0
 10
13.0699255256
 20
8.8627842478
 30
0.0
 10
13.0703822737
 20
8.8970652265
 30
0.0
 10
13.070424898
 20
8.9224202194
 30
0.0
 10
13.0701689251
 20
8.9474686956
 30
0.0
 10
13.0696148408
 20
8.9721620608
 30
0.0
 10
13.0687637531
 20
8.9964523659
 30
0.0
 10
13.0676173452
 20
9.0202924648
 30
0.0
 10
13.0661778755
 20
9.043636086
 30
0.0
 10
13.0644481728
 20
9.0664379256
 30
0.0
 10
13.0624316304
 20
9.08865374
 30
0.0
 10
13.0601322171
 20
9.110240439
 30
0.0
 10
13.057554453
 20
9.1311561691
 30
0.0
 10
13.0547034024
 20
9.1513603915
 30
0.0
 10
13.0515846609
 20
9.1708139654
 30
0.0
 10
13.0482043513
 20
9.1894792381
 30
0.0
 10
13.0445691199
 20
9.2073201266
 30
0.0
 10
13.0406861031
 20
9.2243021992
 30
0.0
 10
13.0365629142
 20
9.2403927175
 30
0.0
 10
13.0322076105
 20
9.2555608313
 30
0.0
 10
13.0276286884
 20
9.2697772903
 30
0.0
 10
13.0235726133
 20
9.280978818
 30
0.0
 10
13.0202123975
 20
9.2894333287
 30
0.0
 10
13.0176816328
 20
9.2954192971
 30
0.0
 10
13.015101746
 20
9.3011477176
 30
0.0
 10
13.0124739797
 20
9.3066158657
 30
0.0
 10
13.009799533
 20
9.3118210969
 30
0.0
 10
13.0070797338
 20
9.3167609484
 30
0.0
 10
13.0043158304
 20
9.3214330531
 30
0.0
 10
13.0015091007
 20
9.3258351787
 30
0.0
 10
12.9986608901
 20
9.3299652611
 30
0.0
 10
12.9957724225
 20
9.3338212936
 30
0.0
 10
12.9928450505
 20
9.337401472
 30
0.0
 10
12.9898800391
 20
9.3407040647
 30
0.0
 10
12.9868786409
 20
9.3437274313
 30
0.0
 10
12.9838421894
 20
9.3464701136
 30
0.0
 10
12.9807718888
 20
9.3489306077
 30
0.0
 10
12.9776690692
 20
9.3511075993
 30
0.0
 10
12.9745350723
 20
9.352999773
 30
0.0
 10
12.9713711762
 20
9.3546058388
 30
0.0
 10
12.968179261
 20
9.3559246226
 30
0.0
 10
12.9660137518
 20
9.3566178512
 30
0.0
 10
12.9649306824
 20
9.3569139856
 30
0.0
  0
SPLINE
  5
37F
100
AcDbEntity
  8
0
100
AcDbSpline
 62
7
  6
CONTINUOUS
 70
0
 71
3
 72
15
 73
11
 74
0
 42
0.0000001
 43
0.0000001
 44
0.0000000001
 40
0.0
 40
0.0
 40
0.0
 40
0.0
 40
0.1467437514
 40
0.2861979813
 40
0.4187661298
 40
0.5449616789
 40
0.6654022242
 40
0.780812462
 40
0.8920286612
 40
1.0
 40
1.0
 40
1.0
 40
1.0
 10
12.9163969522
 20
8.1898710362
 30
0.0
 10
12.9150339341
 20
8.1885544617
 30
0.0
 10
12.9123092
 20
8.186054048
 30
0.0
 10
12.908116639
 20
8.1826330552
 30
0.0
 10
12.9039280725
 20
8.1796426448
 30
0.0
 10
12.899746402
 20
8.1770854729
 30
0.0
 10
12.8955741223
 20
8.1749639714
 30
0.0
 10
12.8914137821
 20
8.1732803527
 30
0.0
 10
12.8872688956
 20
8.1720371577
 30
0.0
 10
12.884484365
 20
8.1714968762
 30
0.0
 10
12.8831034057
 20
8.1713041896
 30
0.0
  0
SPLINE
  5
380
100
AcDbEntity
  8
0
100
AcDbSpline
 62
7
  6
CONTINUOUS
 70
0
 71
3
 72
23
 73
19
 74
0
 42
0.0000001
 43
0.0000001
 44
0.0000000001
 40
0.0
 40
0.0
 40
0.0
 40
0.0
 40
0.0755963493
 40
0.1466389404
 40
0.2134644447
 40
0.2765130444
 40
0.3363250756
 40
0.3935451244
 40
0.4489211068
 40
0.5032859965
 40
0.5575238004
 40
0.612525131
 40
0.6691411996
 40
0.728147006
 40
0.7902177883
 40
0.855922422
 40
0.9257258939
 40
1.0
 40
1.0
 40
1.0
 40
1.0
 10
12.9163969522
 20
8.3637376952
 30
0.0
 10
12.9152435453
 20
8.3626235896
 30
0.0
 10
12.912938265
 20
8.3605309584
 30
0.0
 10
12.9093706128
 20
8.3577353388
 30
0.0
 10
12.9058071447
 20
8.3553874145
 30
0.0
 10
12.9022511326
 20
8.3534907349
 30
0.0
 10
12.898705558
 20
8.3520486935
 30
0.0
 10
12.8951740538
 20
8.3510649025
 30
0.0
 10
12.8916612714
 20
8.3505427468
 30
0.0
 10
12.8881730558
 20
8.3504847967
 30
0.0
 10
12.8847161029
 20
8.3508917885
 30
0.0
 10
12.8812971394
 20
8.3517626526
 30
0.0
 10
12.8779219265
 20
8.3530943004
 30
0.0
 10
12.8745950003
 20
8.3548829891
 30
0.0
 10
12.871319662
 20
8.3571245064
 30
0.0
 10
12.8680986125
 20
8.359815047
 30
0.0
 10
12.8649344138
 20
8.3629505868
 30
0.0
 10
12.8629290114
 20
8.3652608578
 30
0.0
 10
12.8619348836
 20
8.3664831987
 30
0.0
  0
SPLINE
  5
381
100
AcDbEntity
  8
0
100
AcDbSpline
 62
7
  6
CONTINUOUS
 70
0
 71
3
 72
19
 73
15
 74
0
 42
0.0000001
 43
0.0000001
 44
0.0000000001
 40
0.0
 40
0.0
 40
0.0
 40
0.0
 40
0.1504607152
 40
0.2916988954
 40
0.4244197706
 40
0.4878838785
 40
0.549580297
 40
0.6682271827
 40
0.7255606102
 40
0.7817998481
 40
0.8371466355
 40
0.8918135538
 40
0.9460221503
 40
1.0
 40
1.0
 40
1.0
 40
1.0
 10
12.931851767
 20
8.1887992411
 30
0.0
 10
12.9301696372
 20
8.1871744284
 30
0.0
 10
12.9268076815
 20
8.1841258147
 30
0.0
 10
12.9216020231
 20
8.1800631812
 30
0.0
 10
12.9172050156
 20
8.17718987
 30
0.0
 10
12.9136986919
 20
8.1752441461
 30
0.0
 10
12.9102958067
 20
8.1735737131
 30
0.0
 10
12.9068530834
 20
8.1722082784
 30
0.0
 10
12.9033909881
 20
8.1711807913
 30
0.0
 10
12.9008312085
 20
8.1705885517
 30
0.0
 10
12.898279953
 20
8.1701664242
 30
0.0
 10
12.8957378916
 20
8.1699146348
 30
0.0
 10
12.8932060531
 20
8.1698332856
 30
0.0
 10
12.8915239725
 20
8.1698927859
 30
0.0
 10
12.8906869689
 20
8.1699508353
 30
0.0
  0
SPLINE
  5
382
100
AcDbEntity
  8
0
100
AcDbSpline
 62
7
  6
CONTINUOUS
 70
0
 71
3
 72
18
 73
14
 74
0
 42
0.0000001
 43
0.0000001
 44
0.0000000001
 40
0.0
 40
0.0
 40
0.0
 40
0.0
 40
0.1504654776
 40
0.2917138659
 40
0.4244431221
 40
0.4879103299
 40
0.5496094336
 40
0.6682621302
 40
0.7817883943
 40
0.837138095
 40
0.8918079579
 40
0.9460193786
 40
1.0
 40
1.0
 40
1.0
 40
1.0
 10
12.8777599168
 20
8.405054218
 30
0.0
 10
12.87669978
 20
8.4040302045
 30
0.0
 10
12.8745809026
 20
8.4021088388
 30
0.0
 10
12.871300069
 20
8.3995483368
 30
0.0
 10
12.8685288058
 20
8.3977374229
 30
0.0
 10
12.8663189932
 20
8.396511122
 30
0.0
 10
12.8641742028
 20
8.3954583111
 30
0.0
 10
12.8614925124
 20
8.3943945186
 30
0.0
 10
12.8587631407
 20
8.3936684961
 30
0.0
 10
12.8566013751
 20
8.3933108992
 30
0.0
 10
12.8549992184
 20
8.3931521602
 30
0.0
 10
12.8534035406
 20
8.39310087
 30
0.0
 10
12.8523434119
 20
8.393138382
 30
0.0
 10
12.8518158928
 20
8.3931749693
 30
0.0
  0
SPLINE
  5
383
100
AcDbEntity
  8
0
100
AcDbSpline
 62
7
  6
CONTINUOUS
 70
0
 71
3
 72
21
 73
17
 74
0
 42
0.0000001
 43
0.0000001
 44
0.0000000001
 40
0.0
 40
0.0
 40
0.0
 40
0.0
 40
0.1273176984
 40
0.2537999461
 40
0.3167619614
 40
0.3795355204
 40
0.4421314992
 40
0.5045621453
 40
0.5668413456
 40
0.6289845231
 40
0.6910084433
 40
0.7529310869
 40
0.8147714401
 40
0.8765493236
 40
0.9382852134
 40
1.0
 40
1.0
 40
1.0
 40
1.0
 10
10.2398533086
 20
6.7565490897
 30
0.0
 10
10.2398533086
 20
6.7630475121
 30
0.0
 10
10.2404736265
 20
6.7760100798
 30
0.0
 10
10.2428163925
 20
6.7920346117
 30
0.0
 10
10.2456164946
 20
6.8046044536
 30
0.0
 10
10.2481700415
 20
6.8138759752
 30
0.0
 10
10.2511741369
 20
6.8229827465
 30
0.0
 10
10.2546218545
 20
6.8319040332
 30
0.0
 10
10.2585052455
 20
6.8406192017
 30
0.0
 10
10.262815434
 20
6.8491081379
 30
0.0
 10
10.2675424488
 20
6.8573512734
 30
0.0
 10
10.2726753886
 20
6.8653296111
 30
0.0
 10
10.2782024656
 20
6.8730246892
 30
0.0
 10
10.2841109678
 20
6.880418835
 30
0.0
 10
10.2903870071
 20
6.8874947905
 30
0.0
 10
10.2948073056
 20
6.8919898542
 30
0.0
 10
10.297072953
 20
6.8941782881
 30
0.0
  0
SPLINE
  5
384
100
AcDbEntity
  8
0
100
AcDbSpline
 62
7
  6
CONTINUOUS
 70
0
 71
3
 72
88
 73
84
 74
0
 42
0.0000001
 43
0.0000001
 44
0.0000000001
 40
0.0
 40
0.0
 40
0.0
 40
0.0
 40
0.0042067202
 40
0.0086075234
 40
0.0132068644
 40
0.0180084093
 40
0.023015149
 40
0.0282293062
 40
0.0336522156
 40
0.0392846379
 40
0.0451267604
 40
0.0511782832
 40
0.0574385076
 40
0.0639062473
 40
0.0774574595
 40
0.0918165526
 40
0.1069629812
 40
0.1228722656
 40
0.1395164847
 40
0.1568646574
 40
0.1748830702
 40
0.1935355662
 40
0.2127837846
 40
0.2325873727
 40
0.2529041745
 40
0.2736904071
 40
0.2949008443
 40
0.3164889796
 40
0.3384071828
 40
0.3606068506
 40
0.4056513047
 40
0.451220704
 40
0.4969064581
 40
0.5422986449
 40
0.564757791
 40
0.5869916124
 40
0.6089505828
 40
0.6305859809
 40
0.651850036
 40
0.67269608
 40
0.6930787026
 40
0.7129539177
 40
0.7322793435
 40
0.7510143731
 40
0.7691203633
 40
0.7865608444
 40
0.8033017579
 40
0.8193117431
 40
0.8345624454
 40
0.8490288932
 40
0.8626899742
 40
0.8755290435
 40
0.8816368857
 40
0.887535474
 40
0.8932243922
 40
0.8987036807
 40
0.9039739832
 40
0.9090364714
 40
0.9138930688
 40
0.918546444
 40
0.9230001376
 40
0.9272587545
 40
0.9313279856
 40
0.9352149119
 40
0.9389280825
 40
0.9424777486
 40
0.945876096
 40
0.9491373372
 40
0.9522779501
 40
0.9553166444
 40
0.9582743293
 40
0.9611738783
 40
0.9640396819
 40
0.966897089
 40
0.9697716838
 40
0.972688565
 40
0.9756716614
 40
0.9787432202
 40
0.9852253619
 40
0.9886742853
 40
0.9922790673
 40
0.9960512248
 40
1.0
 40
1.0
 40
1.0
 40
1.0
 10
12.9163969522
 20
8.3637376952
 30
0.0
 10
12.9172931403
 20
8.3646033466
 30
0.0
 10
12.9190843313
 20
8.3664190419
 30
0.0
 10
12.9217098219
 20
8.3693202055
 30
0.0
 10
12.9243319974
 20
8.3724576532
 30
0.0
 10
12.9269491759
 20
8.3758293658
 30
0.0
 10
12.9295599303
 20
8.3794333775
 30
0.0
 10
12.9321627311
 20
8.3832676321
 30
0.0
 10
12.9347561248
 20
8.3873298578
 30
0.0
 10
12.9373385231
 20
8.3916176752
 30
0.0
 10
12.9399084106
 20
8.3961285354
 30
0.0
 10
12.942464277
 20
8.4008597614
 30
0.0
 10
12.9450045857
 20
8.4058085708
 30
0.0
 10
12.9484221864
 20
8.4128022931
 30
0.0
 10
12.9526350739
 20
8.4220749126
 30
0.0
 10
12.9575293846
 20
8.4338534981
 30
0.0
 10
12.9623263137
 20
8.4464224731
 30
0.0
 10
12.9670143351
 20
8.4597519092
 30
0.0
 10
12.9715821683
 20
8.4738102003
 30
0.0
 10
12.9760188184
 20
8.488563872
 30
0.0
 10
12.9803136089
 20
8.5039777565
 30
0.0
 10
12.9844562023
 20
8.5200150697
 30
0.0
 10
12.9884366293
 20
8.5366375157
 30
0.0
 10
12.9922453114
 20
8.5538053793
 30
0.0
 10
12.9958730864
 20
8.571477622
 30
0.0
 10
12.9993112365
 20
8.5896119807
 30
0.0
 10
13.0025515021
 20
8.6081650802
 30
0.0
 10
13.0055860901
 20
8.6270925277
 30
0.0
 10
13.0084077425
 20
8.6463490702
 30
0.0
 10
13.0118936249
 20
8.6725277715
 30
0.0
 10
13.0156651762
 20
8.7057325608
 30
0.0
 10
13.0192283048
 20
8.7459498023
 30
0.0
 10
13.0218158068
 20
8.7863447647
 30
0.0
 10
13.02314335
 20
8.8199510641
 30
0.0
 10
13.0236934838
 20
8.8466284666
 30
0.0
 10
13.0238482217
 20
8.866370186
 30
0.0
 10
13.0237462814
 20
8.8858682492
 30
0.0
 10
13.023387908
 20
8.9050760327
 30
0.0
 10
13.0227739932
 20
8.923947566
 30
0.0
 10
13.0219060354
 20
8.9424376989
 30
0.0
 10
13.0207861466
 20
8.9605021955
 30
0.0
 10
13.0194170464
 20
8.9780978492
 30
0.0
 10
13.0178020656
 20
8.9951825896
 30
0.0
 10
13.015945128
 20
9.0117155853
 30
0.0
 10
13.0138507424
 20
9.0276573411
 30
0.0
 10
13.0115239925
 20
9.042969797
 30
0.0
 10
13.008970522
 20
9.057616429
 30
0.0
 10
13.006196533
 20
9.0715623584
 30
0.0
 10
13.0032087565
 20
9.0847744197
 30
0.0
 10
13.0000144342
 20
9.0972213481
 30
0.0
 10
12.9966212698
 20
9.1088735441
 30
0.0
 10
12.9935863767
 20
9.1180453947
 30
0.0
 10
12.9910559376
 20
9.1249562286
 30
0.0
 10
12.9891451187
 20
9.1298372163
 30
0.0
 10
12.9871908515
 20
9.1344997742
 30
0.0
 10
12.9851942231
 20
9.1389411402
 30
0.0
 10
12.9831564786
 20
9.1431587126
 30
0.0
 10
12.9810787471
 20
9.1471499904
 30
0.0
 10
12.9789622758
 20
9.1509126466
 30
0.0
 10
12.9768082762
 20
9.1544444821
 30
0.0
 10
12.9746179314
 20
9.1577434148
 30
0.0
 10
12.9723925253
 20
9.1608075573
 30
0.0
 10
12.9701331981
 20
9.1636350747
 30
0.0
 10
12.9678412053
 20
9.1662243327
 30
0.0
 10
12.9655177168
 20
9.1685737689
 30
0.0
 10
12.963163881
 20
9.1706818918
 30
0.0
 10
12.9607809268
 20
9.1725473772
 30
0.0
 10
12.9583699741
 20
9.1741688082
 30
0.0
 10
12.9559323265
 20
9.1755449592
 30
0.0
 10
12.9534693099
 20
9.1766745438
 30
0.0
 10
12.9509824406
 20
9.1775563496
 30
0.0
 10
12.9484734722
 20
9.1781894187
 30
0.0
 10
12.9459443192
 20
9.1785728235
 30
0.0
 10
12.9433971184
 20
9.1787062079
 30
0.0
 10
12.9408340227
 20
9.1785894198
 30
0.0
 10
12.9382572053
 20
9.1782227831
 30
0.0
 10
12.935668472
 20
9.177606912
 30
0.0
 10
12.9321412211
 20
9.1764339188
 30
0.0
 10
12.9286508936
 20
9.1747642235
 30
0.0
 10
12.9252298821
 20
9.17267052
 30
0.0
 10
12.9226059625
 20
9.1708234167
 30
0.0
 10
12.9199796925
 20
9.1687337524
 30
0.0
 10
12.9182680264
 20
9.1672153907
 30
0.0
 10
12.9174118421
 20
9.1664185845
 30
0.0
  0
SPLINE
  5
385
100
AcDbEntity
  8
0
100
AcDbSpline
 62
7
  6
CONTINUOUS
 70
0
 71
3
 72
71
 73
67
 74
0
 42
0.0000001
 43
0.0000001
 44
0.0000000001
 40
0.0
 40
0.0
 40
0.0
 40
0.0
 40
0.0081437796
 40
0.0169764944
 40
0.0265203572
 40
0.036788946
 40
0.0477874262
 40
0.0595147139
 40
0.0719646374
 40
0.0851266892
 40
0.0989866515
 40
0.1135271529
 40
0.1287280704
 40
0.1445667873
 40
0.1610184588
 40
0.1780562784
 40
0.1956516403
 40
0.2137742567
 40
0.2323923599
 40
0.2514728407
 40
0.2709813306
 40
0.2908823304
 40
0.331714196
 40
0.3736671919
 40
0.4164280894
 40
0.4596757878
 40
0.5030845187
 40
0.5463269661
 40
0.5890774011
 40
0.6310148392
 40
0.6718261955
 40
0.6917151494
 40
0.7112104217
 40
0.7302765759
 40
0.7488792807
 40
0.7669854333
 40
0.7845633329
 40
0.8015827708
 40
0.8180151583
 40
0.8338337398
 40
0.8490137809
 40
0.8635327339
 40
0.8773705134
 40
0.8905098736
 40
0.9029367398
 40
0.9146406912
 40
0.9256156748
 40
0.9358608589
 40
0.9407116707
 40
0.9453827353
 40
0.9498759528
 40
0.9541939198
 40
0.9583398901
 40
0.962317885
 40
0.9661328882
 40
0.9697908358
 40
0.9732988084
 40
0.9766651979
 40
0.9798997406
 40
0.9830137253
 40
0.9860200664
 40
0.9889332967
 40
0.9917696143
 40
0.9945467127
 40
0.9972835433
 40
1.0
 40
1.0
 40
1.0
 40
1.0
 10
12.8777599168
 20
8.405054218
 30
0.0
 10
12.8792727057
 20
8.4065154599
 30
0.0
 10
12.8822904152
 20
8.4097038846
 30
0.0
 10
12.8866266377
 20
8.4150118919
 30
0.0
 10
12.8909442225
 20
8.4210246171
 30
0.0
 10
12.8952348357
 20
8.4277300874
 30
0.0
 10
12.899490527
 20
8.4351157851
 30
0.0
 10
12.9037029757
 20
8.4431673517
 30
0.0
 10
12.9078638685
 20
8.4518690763
 30
0.0
 10
12.9119648744
 20
8.4612038361
 30
0.0
 10
12.9159977796
 20
8.471153132
 30
0.0
 10
12.9199544623
 20
8.4816971762
 30
0.0
 10
12.9238269234
 20
8.4928149481
 30
0.0
 10
12.9276073427
 20
8.5044842246
 30
0.0
 10
12.931288093
 20
8.5166816376
 30
0.0
 10
12.9348617304
 20
8.5293827453
 30
0.0
 10
12.9383210202
 20
8.5425620763
 30
0.0
 10
12.9416589867
 20
8.5561931715
 30
0.0
 10
12.9448688915
 20
8.5702486575
 30
0.0
 10
12.9479442325
 20
8.5847002986
 30
0.0
 10
12.9508788318
 20
8.5995190763
 30
0.0
 10
12.9546279903
 20
8.6199013887
 30
0.0
 10
12.9589097841
 20
8.6460770435
 30
0.0
 10
12.9633585665
 20
8.6781977935
 30
0.0
 10
12.9671246484
 20
8.7110337937
 30
0.0
 10
12.9701776343
 20
8.7443211849
 30
0.0
 10
12.9724928427
 20
8.7777926623
 30
0.0
 10
12.9740517123
 20
8.8111793336
 30
0.0
 10
12.9748418245
 20
8.8442130794
 30
0.0
 10
12.9748570105
 20
8.8766284305
 30
0.0
 10
12.9742189536
 20
8.9031318793
 30
0.0
 10
12.9733108434
 20
8.9238243992
 30
0.0
 10
12.9724437228
 20
8.9388958079
 30
0.0
 10
12.9713866046
 20
8.9536220625
 30
0.0
 10
12.9701416104
 20
8.9679735912
 30
0.0
 10
12.9687112691
 20
8.9819215502
 30
0.0
 10
12.9670985047
 20
8.99543793
 30
0.0
 10
12.9653066047
 20
9.0084955968
 30
0.0
 10
12.9633392029
 20
9.021068347
 30
0.0
 10
12.9612003046
 20
9.0331309749
 30
0.0
 10
12.958894276
 20
9.0446593293
 30
0.0
 10
12.9564258035
 20
9.0556303555
 30
0.0
 10
12.9537998863
 20
9.0660221528
 30
0.0
 10
12.9510218652
 20
9.0758140561
 30
0.0
 10
12.9480973606
 20
9.0849866445
 30
0.0
 10
12.9450322168
 20
9.0935219056
 30
0.0
 10
12.941832546
 20
9.1014029172
 30
0.0
 10
12.9390100879
 20
9.1075195997
 30
0.0
 10
12.9366819246
 20
9.1120636908
 30
0.0
 10
12.934938054
 20
9.1152361984
 30
0.0
 10
12.9331653766
 20
9.1182339322
 30
0.0
 10
12.9313647619
 20
9.1210554431
 30
0.0
 10
12.9295370728
 20
9.1236993432
 30
0.0
 10
12.9276831248
 20
9.126164302
 30
0.0
 10
12.9258038276
 20
9.1284491377
 30
0.0
 10
12.9239000067
 20
9.1305526968
 30
0.0
 10
12.921972487
 20
9.1324738897
 30
0.0
 10
12.9200221591
 20
9.1342117627
 30
0.0
 10
12.9180498215
 20
9.1357653257
 30
0.0
 10
12.9160563334
 20
9.1371336703
 30
0.0
 10
12.9140426105
 20
9.1383159784
 30
0.0
 10
12.9120095402
 20
9.1393113437
 30
0.0
 10
12.9099581856
 20
9.1401190132
 30
0.0
 10
12.9078896164
 20
9.1407383144
 30
0.0
 10
12.9058052789
 20
9.1411685497
 30
0.0
 10
12.9044038318
 20
9.1413293369
 30
0.0
 10
12.9037039409
 20
9.1413778794
 30
0.0
  0
SPLINE
  5
386
100
AcDbEntity
  8
0
100
AcDbSpline
 62
7
  6
CONTINUOUS
 70
0
 71
3
 72
79
 73
75
 74
0
 42
0.0000001
 43
0.0000001
 44
0.0000000001
 40
0.0
 40
0.0
 40
0.0
 40
0.0
 40
0.0029804418
 40
0.0060540414
 40
0.0092329784
 40
0.0125281034
 40
0.0159489439
 40
0.0195037813
 40
0.023199793
 40
0.0270430713
 40
0.0310388063
 40
0.0351913393
 40
0.0395042369
 40
0.0439804421
 40
0.0486222476
 40
0.0534314436
 40
0.0584093437
 40
0.0635567978
 40
0.0688743211
 40
0.0743620289
 40
0.0858464819
 40
0.0980059709
 40
0.1108317699
 40
0.1243118069
 40
0.138431098
 40
0.1531721009
 40
0.1685150159
 40
0.1844380191
 40
0.2009174526
 40
0.2179279851
 40
0.2354427716
 40
0.2534335912
 40
0.2718709666
 40
0.2907242669
 40
0.3099618095
 40
0.3295509708
 40
0.3494582809
 40
0.3696495133
 40
0.3900897687
 40
0.4315742264
 40
0.4736231753
 40
0.5159422222
 40
0.5582345288
 40
0.6002034945
 40
0.6415554605
 40
0.6619101397
 40
0.682003163
 40
0.7017998646
 40
0.7212662794
 40
0.74036923
 40
0.7590764155
 40
0.7773565277
 40
0.7951793387
 40
0.8125158077
 40
0.8293381926
 40
0.8456201738
 40
0.8613370139
 40
0.8764656932
 40
0.8909850869
 40
0.9048761761
 40
0.9181223048
 40
0.9307095
 40
0.9426268359
 40
0.9538669124
 40
0.9592320928
 40
0.9644271647
 40
0.9694524942
 40
0.9743088405
 40
0.9789973687
 40
0.983519696
 40
0.9878780837
 40
0.9920753306
 40
0.9961146993
 40
1.0
 40
1.0
 40
1.0
 40
1.0
 10
11.1897837274
 20
10.8260592942
 30
0.0
 10
11.1893616792
 20
10.827106665
 30
0.0
 10
11.1884254395
 20
10.8292031075
 30
0.0
 10
11.1867815757
 20
10.8322936763
 30
0.0
 10
11.1848794823
 20
10.835373359
 30
0.0
 10
11.1827202812
 20
10.83844057
 30
0.0
 10
11.1803051118
 20
10.8414940852
 30
0.0
 10
11.1776352336
 20
10.8445326325
 30
0.0
 10
11.1747118911
 20
10.8475548717
 30
0.0
 10
11.1715365314
 20
10.8505595621
 30
0.0
 10
11.1681106133
 20
10.8535453658
 30
0.0
 10
11.1644357301
 20
10.8565109624
 30
0.0
 10
11.1605136089
 20
10.8594550715
 30
0.0
 10
11.1563460273
 20
10.8623763091
 30
0.0
 10
11.1519349445
 20
10.8652733994
 30
0.0
 10
11.1472823899
 20
10.8681449953
 30
0.0
 10
11.1423905144
 20
10.8709897606
 30
0.0
 10
11.1372616104
 20
10.8738064172
 30
0.0
 10
11.1318980322
 20
10.8765936313
 30
0.0
 10
11.1243218368
 20
10.8803256116
 30
0.0
 10
11.1142726901
 20
10.8848972757
 30
0.0
 10
11.1014963134
 20
10.8901654831
 30
0.0
 10
11.0878496378
 20
10.8952860891
 30
0.0
 10
11.0733581492
 20
10.9002494531
 30
0.0
 10
11.0580487423
 20
10.9050462329
 30
0.0
 10
11.0419499921
 20
10.9096673752
 30
0.0
 10
11.0250919794
 20
10.9141041447
 30
0.0
 10
11.0075062519
 20
10.918348148
 30
0.0
 10
10.9892257548
 20
10.9223913496
 30
0.0
 10
10.9702847709
 20
10.9262261057
 30
0.0
 10
10.9507188438
 20
10.929845164
 30
0.0
 10
10.9305647028
 20
10.9332416791
 30
0.0
 10
10.9098601922
 20
10.9364092238
 30
0.0
 10
10.8886442038
 20
10.9393418062
 30
0.0
 10
10.8669566036
 20
10.9420338884
 30
0.0
 10
10.8448381467
 20
10.9444803851
 30
0.0
 10
10.8223304113
 20
10.9466766655
 30
0.0
 10
10.7994756671
 20
10.9486186025
 30
0.0
 10
10.7684454636
 20
10.9508747486
 30
0.0
 10
10.7291075741
 20
10.9530268476
 30
0.0
 10
10.6814454972
 20
10.9545379181
 30
0.0
 10
10.6334553545
 20
10.9549783129
 30
0.0
 10
10.5854976709
 20
10.954344754
 30
0.0
 10
10.5379327269
 20
10.9526419831
 30
0.0
 10
10.4987169239
 20
10.9503310835
 30
0.0
 10
10.4678162943
 20
10.9479491686
 30
0.0
 10
10.4450815269
 20
10.9459152245
 30
0.0
 10
10.4227090737
 20
10.9436283816
 30
0.0
 10
10.4007409493
 20
10.9410929326
 30
0.0
 10
10.3792184514
 20
10.9383136756
 30
0.0
 10
10.3581820228
 20
10.9352958555
 30
0.0
 10
10.3376711861
 20
10.9320451812
 30
0.0
 10
10.3177244623
 20
10.928567803
 30
0.0
 10
10.2983793049
 20
10.9248702974
 30
0.0
 10
10.2796720278
 20
10.9209596566
 30
0.0
 10
10.2616377279
 20
10.9168432732
 30
0.0
 10
10.2443102108
 20
10.9125289415
 30
0.0
 10
10.227721925
 20
10.908024825
 30
0.0
 10
10.211903904
 20
10.9033394417
 30
0.0
 10
10.196885689
 20
10.8984816399
 30
0.0
 10
10.1826952845
 20
10.8934605849
 30
0.0
 10
10.1693589792
 20
10.8882857261
 30
0.0
 10
10.1569016625
 20
10.8829667847
 30
0.0
 10
10.147125812
 20
10.8783536862
 30
0.0
 10
10.1397728602
 20
10.8745901916
 30
0.0
 10
10.1345779597
 20
10.8717816507
 30
0.0
 10
10.1296194544
 20
10.868944616
 30
0.0
 10
10.1248996438
 20
10.8660803926
 30
0.0
 10
10.1204207144
 20
10.8631903449
 30
0.0
 10
10.11618475
 20
10.8602757329
 30
0.0
 10
10.1121936498
 20
10.8573379005
 30
0.0
 10
10.1084492602
 20
10.8543780965
 30
0.0
 10
10.104953494
 20
10.8513978425
 30
0.0
 10
10.1027476955
 20
10.8493593781
 30
0.0
 10
10.1016889283
 20
10.8483366874
 30
0.0
  0
SPLINE
  5
387
100
AcDbEntity
  8
0
100
AcDbSpline
 62
7
  6
CONTINUOUS
 70
0
 71
3
 72
95
 73
91
 74
0
 42
0.0000001
 43
0.0000001
 44
0.0000000001
 40
0.0
 40
0.0
 40
0.0
 40
0.0
 40
0.0041939594
 40
0.0085762782
 40
0.0131520573
 40
0.0179256173
 40
0.0229004891
 40
0.0280792353
 40
0.0334636269
 40
0.0390547837
 40
0.0448532429
 40
0.0508590315
 40
0.0570716617
 40
0.0634902595
 40
0.0701135134
 40
0.0769398105
 40
0.09119284
 40
0.1062306851
 40
0.1220299823
 40
0.1385637575
 40
0.1558018515
 40
0.1737112679
 40
0.1922564673
 40
0.2113996207
 40
0.2311008356
 40
0.2513183603
 40
0.272008772
 40
0.2931271544
 40
0.3146272662
 40
0.3364617034
 40
0.3585820579
 40
0.380939072
 40
0.4034827908
 40
0.4261627133
 40
0.448927942
 40
0.4717273316
 40
0.4945096381
 40
0.5172236671
 40
0.539818422
 40
0.5622432532
 40
0.5844480073
 40
0.6063831771
 40
0.6280000543
 40
0.6492508828
 40
0.6700890155
 40
0.690469076
 40
0.710347124
 40
0.7296808303
 40
0.748429661
 40
0.7665550762
 40
0.7840207471
 40
0.8007927993
 40
0.816840092
 40
0.8321345465
 40
0.8466515423
 40
0.8536121205
 40
0.860370937
 40
0.8669261464
 40
0.8732762126
 40
0.8794199799
 40
0.8853566932
 40
0.8910860295
 40
0.8966081824
 40
0.9019238591
 40
0.9070344273
 40
0.9119418968
 40
0.9166491158
 40
0.9211597694
 40
0.9254786037
 40
0.9296114746
 40
0.9335655778
 40
0.9373495665
 40
0.9409737611
 40
0.9477890579
 40
0.9510148461
 40
0.9541417235
 40
0.9571900969
 40
0.9601821554
 40
0.9631415091
 40
0.9660926235
 40
0.9690601892
 40
0.9720684542
 40
0.9751406083
 40
0.9782982941
 40
0.9815612373
 40
0.98494706
 40
0.9884713247
 40
0.992147593
 40
0.9959873756
 40
1.0
 40
1.0
 40
1.0
 40
1.0
 10
10.0108918953
 20
10.9578336038
 30
0.0
 10
10.0122967125
 20
10.959190553
 30
0.0
 10
10.0152392934
 20
10.9618937983
 30
0.0
 10
10.0199323669
 20
10.9658323586
 30
0.0
 10
10.0249969645
 20
10.9697396018
 30
0.0
 10
10.030429802
 20
10.9736131355
 30
0.0
 10
10.03622777
 20
10.9774507775
 30
0.0
 10
10.0423874508
 20
10.9812503606
 30
0.0
 10
10.0489052153
 20
10.9850096277
 30
0.0
 10
10.055777185
 20
10.9887263469
 30
0.0
 10
10.0629992699
 20
10.9923983362
 30
0.0
 10
10.070567184
 20
10.9960233765
 30
0.0
 10
10.0784764021
 20
10.999599351
 30
0.0
 10
10.0867222117
 20
11.0031240483
 30
0.0
 10
10.0952996768
 20
11.0065954509
 30
0.0
 10
10.1073455694
 20
11.0112166202
 30
0.0
 10
10.1232046022
 20
11.0168304844
 30
0.0
 10
10.143207867
 20
11.0232287955
 30
0.0
 10
10.1644004936
 20
11.0293666719
 30
0.0
 10
10.1867316358
 20
11.0352292364
 30
0.0
 10
10.210147903
 20
11.0408022644
 30
0.0
 10
10.234593135
 20
11.0460722293
 30
0.0
 10
10.2600086621
 20
11.0510263403
 30
0.0
 10
10.2863334277
 20
11.0556525756
 30
0.0
 10
10.3135041548
 20
11.0599397119
 30
0.0
 10
10.3414555024
 20
11.0638773515
 30
0.0
 10
10.3701202301
 20
11.0674559471
 30
0.0
 10
10.3994293635
 20
11.0706668246
 30
0.0
 10
10.4293123639
 20
11.0735022029
 30
0.0
 10
10.4596973004
 20
11.0759552125
 30
0.0
 10
10.4905110258
 20
11.0780199116
 30
0.0
 10
10.5216793539
 20
11.0796912994
 30
0.0
 10
10.5531272398
 20
11.0809653285
 30
0.0
 10
10.5847789616
 20
11.0818389139
 30
0.0
 10
10.6165583042
 20
11.0823099401
 30
0.0
 10
10.6483887432
 20
11.0823772668
 30
0.0
 10
10.6801936308
 20
11.0820407313
 30
0.0
 10
10.7118963812
 20
11.0813011486
 30
0.0
 10
10.7434206557
 20
11.0801603093
 30
0.0
 10
10.7746905477
 20
11.078620976
 30
0.0
 10
10.8056307667
 20
11.076686876
 30
0.0
 10
10.8361668199
 20
11.0743626934
 30
0.0
 10
10.8662251938
 20
11.0716540577
 30
0.0
 10
10.8957335325
 20
11.0685675307
 30
0.0
 10
10.9246208135
 20
11.0651105913
 30
0.0
 10
10.9528175216
 20
11.0612916182
 30
0.0
 10
10.9802558195
 20
11.0571198699
 30
0.0
 10
11.0068697145
 20
11.052605463
 30
0.0
 10
11.0325952242
 20
11.0477593489
 30
0.0
 10
11.0573705346
 20
11.0425932868
 30
0.0
 10
11.0811361657
 20
11.0371198151
 30
0.0
 10
11.1038350972
 20
11.0313522185
 30
0.0
 10
11.1254130222
 20
11.0253044945
 30
0.0
 10
11.145818146
 20
11.0189913035
 30
0.0
 10
11.1620240886
 20
11.0134469417
 30
0.0
 10
11.1743557158
 20
11.0088790783
 30
0.0
 10
11.1831514508
 20
11.0054444163
 30
0.0
 10
11.1916189266
 20
11.0019550451
 30
0.0
 10
11.1997530827
 20
10.9984130079
 30
0.0
 10
11.2075490541
 20
10.9948204446
 30
0.0
 10
11.2150021911
 20
10.9911795142
 30
0.0
 10
11.2221080415
 20
10.9874923637
 30
0.0
 10
11.2288623941
 20
10.9837612312
 30
0.0
 10
11.235261215
 20
10.9799882672
 30
0.0
 10
11.2413007443
 20
10.9761757651
 30
0.0
 10
11.2469773745
 20
10.9723258724
 30
0.0
 10
11.2522877982
 20
10.9684409018
 30
0.0
 10
11.2572288413
 20
10.9645229902
 30
0.0
 10
11.2617976231
 20
10.9605744333
 30
0.0
 10
11.2659914224
 20
10.9565973085
 30
0.0
 10
11.2698076435
 20
10.9525939948
 30
0.0
 10
11.2732443036
 20
10.9485659973
 30
0.0
 10
11.2772345158
 20
10.9432757421
 30
0.0
 10
11.2805741995
 20
10.9378281147
 30
0.0
 10
11.2831490971
 20
10.932256276
 30
0.0
 10
11.2846555737
 20
10.9281397709
 30
0.0
 10
11.285770629
 20
10.9240128709
 30
0.0
 10
11.2864928703
 20
10.9198782259
 30
0.0
 10
11.2868214256
 20
10.9157390933
 30
0.0
 10
11.2867556816
 20
10.9115988122
 30
0.0
 10
11.2862958624
 20
10.9074608088
 30
0.0
 10
11.2854425276
 20
10.9033284048
 30
0.0
 10
11.2841968741
 20
10.8992046751
 30
0.0
 10
11.2825603268
 20
10.8950924382
 30
0.0
 10
11.2805346
 20
10.8909942482
 30
0.0
 10
11.2781215566
 20
10.8869124136
 30
0.0
 10
11.2753230324
 20
10.8828491365
 30
0.0
 10
11.2721409997
 20
10.8788064512
 30
0.0
 10
11.268577734
 20
10.8747867453
 30
0.0
 10
11.2660077689
 20
10.8721825129
 30
0.0
 10
11.2646636921
 20
10.8708842343
 30
0.0
  0
SPLINE
  5
388
100
AcDbEntity
  8
0
100
AcDbSpline
 62
7
  6
CONTINUOUS
 70
0
 71
3
 72
18
 73
14
 74
0
 42
0.0000001
 43
0.0000001
 44
0.0000000001
 40
0.0
 40
0.0
 40
0.0
 40
0.0
 40
0.1504670735
 40
0.2917142314
 40
0.4244427084
 40
0.4879099971
 40
0.549609347
 40
0.6682624273
 40
0.7817883326
 40
0.8371380496
 40
0.8918079086
 40
0.9460193228
 40
1.0
 40
1.0
 40
1.0
 40
1.0
 10
12.931851767
 20
9.8472940181
 30
0.0
 10
12.9306078555
 20
9.8460924918
 30
0.0
 10
12.928121701
 20
9.8438380704
 30
0.0
 10
12.9242721668
 20
9.8408337562
 30
0.0
 10
12.9210205596
 20
9.8387089539
 30
0.0
 10
12.9184277051
 20
9.8372700959
 30
0.0
 10
12.9159111293
 20
9.8360348026
 30
0.0
 10
12.9127646089
 20
9.8347865826
 30
0.0
 10
12.90956212
 20
9.8339347656
 30
0.0
 10
12.9070256468
 20
9.8335151686
 30
0.0
 10
12.9051457748
 20
9.8333289166
 30
0.0
 10
12.9032735047
 20
9.8332687736
 30
0.0
 10
12.9020296158
 20
9.8333127823
 30
0.0
 10
12.901410657
 20
9.8333557085
 30
0.0
  0
SPLINE
  5
389
100
AcDbEntity
  8
0
100
AcDbSpline
 62
7
  6
CONTINUOUS
 70
0
 71
3
 72
39
 73
35
 74
0
 42
0.0000001
 43
0.0000001
 44
0.0000000001
 40
0.0
 40
0.0
 40
0.0
 40
0.0
 40
0.0299424706
 40
0.059909318
 40
0.0899243245
 40
0.120010104
 40
0.1501875638
 40
0.1804754172
 40
0.2108897627
 40
0.2414437402
 40
0.2721472662
 40
0.3030068506
 40
0.3340255036
 40
0.3652027233
 40
0.3965345594
 40
0.4280137458
 40
0.459629903
 40
0.4913697971
 40
0.523217645
 40
0.5551554619
 40
0.5871634456
 40
0.6192203877
 40
0.6513041028
 40
0.6833918731
 40
0.7154609003
 40
0.7474887587
 40
0.7794538419
 40
0.8113358007
 40
0.8431159608
 40
0.874777714
 40
0.9063068772
 40
0.9376920832
 40
0.968924649
 40
1.0
 40
1.0
 40
1.0
 40
1.0
 10
10.9908332693
 20
7.0727867324
 30
0.0
 10
10.9835338148
 20
7.0657360101
 30
0.0
 10
10.9683609135
 20
7.0522036107
 30
0.0
 10
10.9440515822
 20
7.033768105
 30
0.0
 10
10.9183165173
 20
7.0172879575
 30
0.0
 10
10.8912995128
 20
7.0028556173
 30
0.0
 10
10.8631490898
 20
6.9905499644
 30
0.0
 10
10.8340206209
 20
6.9804386207
 30
0.0
 10
10.8040746245
 20
6.9725768941
 30
0.0
 10
10.773476077
 20
6.9670077128
 30
0.0
 10
10.7423934439
 20
6.9637613618
 30
0.0
 10
10.7109977723
 20
6.962855268
 30
0.0
 10
10.6794617295
 20
6.9642939941
 30
0.0
 10
10.6479586643
 20
6.9680692465
 30
0.0
 10
10.6166616724
 20
6.9741599409
 30
0.0
 10
10.5857426405
 20
6.9825322486
 30
0.0
 10
10.5553713204
 20
6.9931398669
 30
0.0
 10
10.5257144175
 20
7.0059242876
 30
0.0
 10
10.4969346981
 20
7.0208151219
 30
0.0
 10
10.4691900699
 20
7.0377304144
 30
0.0
 10
10.4426327535
 20
7.056577162
 30
0.0
 10
10.4174084671
 20
7.0772518244
 30
0.0
 10
10.3936556434
 20
7.0996408856
 30
0.0
 10
10.3715046215
 20
7.1236214122
 30
0.0
 10
10.3510769851
 20
7.1490617809
 30
0.0
 10
10.3324849102
 20
7.1758223934
 30
0.0
 10
10.3158305602
 20
7.2037564273
 30
0.0
 10
10.3012054578
 20
7.2327105967
 30
0.0
 10
10.288690047
 20
7.2625260082
 30
0.0
 10
10.2783532641
 20
7.2930390894
 30
0.0
 10
10.2702521353
 20
7.3240822149
 30
0.0
 10
10.2644314791
 20
7.3554854948
 30
0.0
 10
10.2609234628
 20
7.3870742628
 30
0.0
 10
10.2601377522
 20
7.4082008684
 30
0.0
 10
10.2601377522
 20
7.4187334758
 30
0.0
  0
SPLINE
  5
38A
100
AcDbEntity
  8
0
100
AcDbSpline
 62
7
  6
CONTINUOUS
 70
0
 71
3
 72
39
 73
35
 74
0
 42
0.0000001
 43
0.0000001
 44
0.0000000001
 40
0.0
 40
0.0
 40
0.0
 40
0.0
 40
0.0299377059
 40
0.0599040297
 40
0.0899223011
 40
0.1200146054
 40
0.1502012659
 40
0.1805003787
 40
0.2109274117
 40
0.2414948809
 40
0.2722121049
 40
0.3030850411
 40
0.3341162013
 40
0.3653046503
 40
0.396646079
 40
0.4281329444
 40
0.4597546713
 40
0.4914979078
 40
0.5233468316
 40
0.5552834942
 40
0.5872881968
 40
0.6193398921
 40
0.6514166068
 40
0.6834958767
 40
0.7155551873
 40
0.7475724154
 40
0.779526267
 40
0.811396702
 40
0.8431653413
 40
0.8748158493
 40
0.9063342771
 40
0.9377094695
 40
0.9689328657
 40
1.0
 40
1.0
 40
1.0
 40
1.0
 10
10.9908034634
 20
7.0728181115
 30
0.0
 10
10.9834419268
 20
7.0659182643
 30
0.0
 10
10.9681589947
 20
7.0526885213
 30
0.0
 10
10.9437283763
 20
7.0347055264
 30
0.0
 10
10.9179131453
 20
7.0186715361
 30
0.0
 10
10.8908558523
 20
7.0046754223
 30
0.0
 10
10.862703479
 20
6.9927927411
 30
0.0
 10
10.8336095484
 20
6.983088041
 30
0.0
 10
10.8037324905
 20
6.9756137516
 30
0.0
 10
10.7732349513
 20
6.9704101742
 30
0.0
 10
10.7422828481
 20
6.9675052219
 30
0.0
 10
10.7110444823
 20
6.9669143178
 30
0.0
 10
10.6796896246
 20
6.9686402695
 30
0.0
 10
10.6483885898
 20
6.9726733043
 30
0.0
 10
10.6173113236
 20
6.978991164
 30
0.0
 10
10.586626495
 20
6.9875592355
 30
0.0
 10
10.5565005956
 20
6.9983307382
 30
0.0
 10
10.5270970292
 20
7.0112469392
 30
0.0
 10
10.4985752545
 20
7.0262375377
 30
0.0
 10
10.4710899333
 20
7.0432210369
 30
0.0
 10
10.4447901123
 20
7.0621051935
 30
0.0
 10
10.419818397
 20
7.0827874722
 30
0.0
 10
10.3963101909
 20
7.1051556161
 30
0.0
 10
10.3743929914
 20
7.1290882749
 30
0.0
 10
10.3541857038
 20
7.1544556489
 30
0.0
 10
10.3357980038
 20
7.1811201816
 30
0.0
 10
10.3193297002
 20
7.2089372664
 30
0.0
 10
10.3048702458
 20
7.2377560661
 30
0.0
 10
10.292498251
 20
7.2674202943
 30
0.0
 10
10.282281077
 20
7.2977691223
 30
0.0
 10
10.2742743908
 20
7.3286377776
 30
0.0
 10
10.2685219836
 20
7.3598593112
 30
0.0
 10
10.2650552666
 20
7.3912621135
 30
0.0
 10
10.2642788537
 20
7.4122632288
 30
0.0
 10
10.2642788537
 20
7.4227334729
 30
0.0
  0
SPLINE
  5
38B
100
AcDbEntity
  8
0
100
AcDbSpline
 62
7
  6
CONTINUOUS
 70
0
 71
3
 72
40
 73
36
 74
0
 42
0.0000001
 43
0.0000001
 44
0.0000000001
 40
0.0
 40
0.0
 40
0.0
 40
0.0
 40
0.0299423158
 40
0.0599090077
 40
0.0899238582
 40
0.1200094809
 40
0.1501867824
 40
0.1804744764
 40
0.2108886621
 40
0.2414424792
 40
0.2721458429
 40
0.3030052641
 40
0.334023754
 40
0.3652008103
 40
0.3965324817
 40
0.428011503
 40
0.4596274957
 40
0.4913672252
 40
0.5232149077
 40
0.5551525588
 40
0.5871603767
 40
0.6192171526
 40
0.651300701
 40
0.6833883044
 40
0.7154571648
 40
0.7474848565
 40
0.7794497737
 40
0.8113315676
 40
0.8431115609
 40
0.8747731558
 40
0.9063021431
 40
0.9376871977
 40
0.953325281
 40
0.9689248703
 40
1.0
 40
1.0
 40
1.0
 40
1.0
 10
10.8603162612
 20
7.2317342792
 30
0.0
 10
10.8564176892
 20
7.227968548
 30
0.0
 10
10.8483139917
 20
7.2207409959
 30
0.0
 10
10.8353306054
 20
7.2108947361
 30
0.0
 10
10.8215857424
 20
7.2020928214
 30
0.0
 10
10.8071562031
 20
7.194384628
 30
0.0
 10
10.7921213201
 20
7.1878122674
 30
0.0
 10
10.7765640694
 20
7.1824118675
 30
0.0
 10
10.7605701808
 20
7.178212976
 30
0.0
 10
10.7442277691
 20
7.175238517
 30
0.0
 10
10.7276268126
 20
7.1735046476
 30
0.0
 10
10.710858663
 20
7.1730206892
 30
0.0
 10
10.6940155408
 20
7.1737890867
 30
0.0
 10
10.6771900314
 20
7.1758054069
 30
0.0
 10
10.6604745808
 20
7.1790583717
 30
0.0
 10
10.6439609937
 20
7.1835299283
 30
0.0
 10
10.627739936
 20
7.1891953541
 30
0.0
 10
10.6119004438
 20
7.1960233963
 30
0.0
 10
10.5965294424
 20
7.203976446
 30
0.0
 10
10.5817112744
 20
7.2130107444
 30
0.0
 10
10.5675272438
 20
7.223076624
 30
0.0
 10
10.5540551758
 20
7.2341187801
 30
0.0
 10
10.5413689944
 20
7.2460765721
 30
0.0
 10
10.5295383218
 20
7.2588843537
 30
0.0
 10
10.5186281001
 20
7.2724718295
 30
0.0
 10
10.5086982385
 20
7.286764438
 30
0.0
 10
10.499803287
 20
7.3016837516
 30
0.0
 10
10.4919921397
 20
7.3171479196
 30
0.0
 10
10.4853077685
 20
7.3330720473
 30
0.0
 10
10.4797869778
 20
7.3493688917
 30
0.0
 10
10.4754602611
 20
7.3659484636
 30
0.0
 10
10.4728663026
 20
7.3799434257
 30
0.0
 10
10.4714111642
 20
7.3911881989
 30
0.0
 10
10.47037267
 20
7.4024222145
 30
0.0
 10
10.4700582247
 20
7.4108757318
 30
0.0
 10
10.4700582247
 20
7.4165010937
 30
0.0
  0
SPLINE
  5
38C
100
AcDbEntity
  8
0
100
AcDbSpline
 62
7
  6
CONTINUOUS
 70
0
 71
3
 72
23
 73
19
 74
0
 42
0.0000001
 43
0.0000001
 44
0.0000000001
 40
0.0
 40
0.0
 40
0.0
 40
0.0
 40
0.0616994035
 40
0.1234251698
 40
0.1851973403
 40
0.2470354967
 40
0.308958576
 40
0.3709846881
 40
0.4331309412
 40
0.4954132784
 40
0.5578463262
 40
0.6204432981
 40
0.6832158058
 40
0.7461738683
 40
0.8093259376
 40
0.8726775
 40
0.9362360356
 40
1.0
 40
1.0
 40
1.0
 40
1.0
 10
10.3794884259
 20
7.7057017016
 30
0.0
 10
10.3749176762
 20
7.7011519763
 30
0.0
 10
10.3660025167
 20
7.6918178722
 30
0.0
 10
10.35335067
 20
7.6771563495
 30
0.0
 10
10.3414447557
 20
7.6618638789
 30
0.0
 10
10.3303116832
 20
7.6459749303
 30
0.0
 10
10.3199760449
 20
7.6295247233
 30
0.0
 10
10.3104608263
 20
7.6125498677
 30
0.0
 10
10.3017871536
 20
7.5950880896
 30
0.0
 10
10.2939742985
 20
7.5771782054
 30
0.0
 10
10.2870395653
 20
7.5588600404
 30
0.0
 10
10.2809983259
 20
7.5401743132
 30
0.0
 10
10.275863963
 20
7.5211625544
 30
0.0
 10
10.2716478565
 20
7.5018669759
 30
0.0
 10
10.2683593893
 20
7.4823305672
 30
0.0
 10
10.266005647
 20
7.4625963843
 30
0.0
 10
10.264592062
 20
7.442709075
 30
0.0
 10
10.2642788537
 20
7.4293984391
 30
0.0
 10
10.2642788537
 20
7.4227334729
 30
0.0
  0
SPLINE
  5
38D
100
AcDbEntity
  8
0
100
AcDbSpline
 62
7
  6
CONTINUOUS
 70
0
 71
3
 72
21
 73
17
 74
0
 42
0.0000001
 43
0.0000001
 44
0.0000000001
 40
0.0
 40
0.0
 40
0.0
 40
0.0
 40
0.0617147807
 40
0.1234506636
 40
0.1852285506
 40
0.2470689066
 40
0.3089915473
 40
0.3710154718
 40
0.4331586568
 40
0.495437856
 40
0.5578685007
 40
0.6204644957
 40
0.6832380523
 40
0.7462000242
 40
0.8726823632
 40
1.0
 40
1.0
 40
1.0
 40
1.0
 10
10.5337853536
 20
7.56978393
 30
0.0
 10
10.5312620285
 20
7.5673465852
 30
0.0
 10
10.5263390461
 20
7.5623402107
 30
0.0
 10
10.5193492173
 20
7.554459449
 30
0.0
 10
10.5127687413
 20
7.5462242944
 30
0.0
 10
10.5066131029
 20
7.5376539631
 30
0.0
 10
10.5008963896
 20
7.5287681862
 30
0.0
 10
10.495631769
 20
7.5195874947
 30
0.0
 10
10.4908314128
 20
7.5101330334
 30
0.0
 10
10.4865063632
 20
7.5004266281
 30
0.0
 10
10.4826665335
 20
7.4904906633
 30
0.0
 10
10.4793208054
 20
7.4803481113
 30
0.0
 10
10.476476845
 20
7.4700220829
 30
0.0
 10
10.4733582835
 20
7.4560225934
 30
0.0
 10
10.4707490941
 20
7.4381754937
 30
0.0
 10
10.4700582247
 20
7.4237386163
 30
0.0
 10
10.4700582247
 20
7.4165010937
 30
0.0
  0
SPLINE
  5
38E
100
AcDbEntity
  8
0
100
AcDbSpline
 62
7
  6
CONTINUOUS
 70
0
 71
3
 72
29
 73
25
 74
0
 42
0.0000001
 43
0.0000001
 44
0.0000000001
 40
0.0
 40
0.0
 40
0.0
 40
0.0
 40
0.0749503488
 40
0.1455452737
 40
0.2121261891
 40
0.2751192851
 40
0.3350448404
 40
0.3640583593
 40
0.3925449884
 40
0.4205963601
 40
0.4483089338
 40
0.4757832092
 40
0.5031225081
 40
0.530431847
 40
0.5578166247
 40
0.5853812653
 40
0.6132280351
 40
0.6414557868
 40
0.6701590145
 40
0.7293218109
 40
0.7913860629
 40
0.8569001023
 40
0.9263189548
 40
1.0
 40
1.0
 40
1.0
 40
1.0
 10
10.0125096585
 20
10.8693506598
 30
0.0
 10
10.0106355913
 20
10.8710946769
 30
0.0
 10
10.0071002861
 20
10.8745960965
 30
0.0
 10
10.0023300093
 20
10.8800586849
 30
0.0
 10
9.9982622276
 20
10.8855647305
 30
0.0
 10
9.9949031162
 20
10.8911087636
 30
0.0
 10
9.9926750718
 20
10.8958077498
 30
0.0
 10
9.9912692353
 20
10.8995661594
 30
0.0
 10
9.9904057074
 20
10.902359612
 30
0.0
 10
9.9897222818
 20
10.9051567934
 30
0.0
 10
9.9892192404
 20
10.9079569328
 30
0.0
 10
9.9888967595
 20
10.9107591264
 30
0.0
 10
9.988754988
 20
10.9135624903
 30
0.0
 10
9.9887940481
 20
10.9163661143
 30
0.0
 10
9.9890138666
 20
10.9191690823
 30
0.0
 10
9.9894143359
 20
10.9219705014
 30
0.0
 10
9.9899953204
 20
10.9247694559
 30
0.0
 10
9.9907565837
 20
10.9275651632
 30
0.0
 10
9.9920239618
 20
10.9313245745
 30
0.0
 10
9.9940788676
 20
10.9360277444
 30
0.0
 10
9.9972356789
 20
10.9415818216
 30
0.0
 10
10.00110281
 20
10.947099341
 30
0.0
 10
10.0056740735
 20
10.9525745989
 30
0.0
 10
10.0090817692
 20
10.9560851562
 30
0.0
 10
10.0108918953
 20
10.9578336038
 30
0.0
  0
SPLINE
  5
38F
100
AcDbEntity
  8
0
100
AcDbSpline
 62
7
  6
CONTINUOUS
 70
0
 71
3
 72
42
 73
38
 74
0
 42
0.0000001
 43
0.0000001
 44
0.0000000001
 40
0.0
 40
0.0
 40
0.0
 40
0.0
 40
0.0299419634
 40
0.0449235299
 40
0.0599142017
 40
0.0899287029
 40
0.1200139772
 40
0.1350926626
 40
0.1501967046
 40
0.1804840506
 40
0.2108978877
 40
0.2414513551
 40
0.2721543675
 40
0.3030134354
 40
0.3340315696
 40
0.3652082675
 40
0.3965395775
 40
0.4280182343
 40
0.4596338596
 40
0.4913732188
 40
0.5232205284
 40
0.5551578047
 40
0.5871652463
 40
0.6192216448
 40
0.6513048151
 40
0.6833920402
 40
0.7154605222
 40
0.747487836
 40
0.7794523759
 40
0.8113337934
 40
0.8431134117
 40
0.8747746318
 40
0.9063032512
 40
0.9376879208
 40
0.9533258
 40
0.9689252634
 40
1.0
 40
1.0
 40
1.0
 40
1.0
 10
11.6769210061
 20
9.4739216584
 30
0.0
 10
11.6734205843
 20
9.4705405312
 30
0.0
 10
11.6679636161
 20
9.4656737217
 30
0.0
 10
11.6603212551
 20
9.4596350709
 30
0.0
 10
11.6524355232
 20
9.4538969126
 30
0.0
 10
11.6421459399
 20
9.4473076479
 30
0.0
 10
11.6313560707
 20
9.4415439482
 30
0.0
 10
11.6224572249
 20
9.4374436466
 30
0.0
 10
11.6133745551
 20
9.4336818311
 30
0.0
 10
11.6017219016
 20
9.4296368163
 30
0.0
 10
11.5873617724
 20
9.425866964
 30
0.0
 10
11.572688303
 20
9.4231963138
 30
0.0
 10
11.5577828115
 20
9.4216395995
 30
0.0
 10
11.5427271771
 20
9.4212051286
 30
0.0
 10
11.5276042401
 20
9.4218951124
 30
0.0
 10
11.5124971196
 20
9.4237055651
 30
0.0
 10
11.4974888226
 20
9.4266263611
 30
0.0
 10
11.4826617764
 20
9.4306412905
 30
0.0
 10
11.4680973867
 20
9.4357281548
 30
0.0
 10
11.4538755958
 20
9.4418588926
 30
0.0
 10
11.44007445
 20
9.4489997355
 30
0.0
 10
11.4267696777
 20
9.4571113944
 30
0.0
 10
11.4140342789
 20
9.4661492748
 30
0.0
 10
11.4019381301
 20
9.4760637208
 30
0.0
 10
11.3905476053
 20
9.4868002854
 30
0.0
 10
11.3799252159
 20
9.4983000272
 30
0.0
 10
11.3701292713
 20
9.5104998303
 30
0.0
 10
11.361213562
 20
9.5233327486
 30
0.0
 10
11.3532270667
 20
9.5367283644
 30
0.0
 10
11.3462136856
 20
9.5506131867
 30
0.0
 10
11.3402120022
 20
9.564910991
 30
0.0
 10
11.33525506
 20
9.5795434453
 30
0.0
 10
11.3313702427
 20
9.5944297491
 30
0.0
 10
11.3290412084
 20
9.6069954034
 30
0.0
 10
11.3277346893
 20
9.6170917543
 30
0.0
 10
11.3268022586
 20
9.6271784438
 30
0.0
 10
11.3265199276
 20
9.6347686097
 30
0.0
 10
11.3265199276
 20
9.63981945
 30
0.0
  0
SPLINE
  5
390
100
AcDbEntity
  8
0
100
AcDbSpline
 62
7
  6
CONTINUOUS
 70
0
 71
3
 72
39
 73
35
 74
0
 42
0.0000001
 43
0.0000001
 44
0.0000000001
 40
0.0
 40
0.0
 40
0.0
 40
0.0
 40
0.0311159281
 40
0.0620233527
 40
0.0927351369
 40
0.1232711779
 40
0.1536587327
 40
0.183931211
 40
0.2141268396
 40
0.2442870991
 40
0.2744549758
 40
0.3046731313
 40
0.3349820901
 40
0.365418544
 40
0.3960138648
 40
0.4267928817
 40
0.4577729978
 40
0.4889636202
 40
0.5203659698
 40
0.5519731786
 40
0.5837707184
 40
0.6157370646
 40
0.6478445903
 40
0.6800606407
 40
0.712348731
 40
0.7446698627
 40
0.7769838849
 40
0.8092508934
 40
0.8414326252
 40
0.8734938006
 40
0.9054034144
 40
0.9371358797
 40
0.9686718386
 40
1.0
 40
1.0
 40
1.0
 40
1.0
 10
10.9452566016
 20
7.3755075057
 30
0.0
 10
10.9452566016
 20
7.3671626673
 30
0.0
 10
10.9444419052
 20
7.3505168377
 30
0.0
 10
10.9407575615
 20
7.3258808935
 30
0.0
 10
10.9346495946
 20
7.3018885157
 30
0.0
 10
10.9261759867
 20
7.2787744255
 30
0.0
 10
10.9154177277
 20
7.2567613402
 30
0.0
 10
10.9024780915
 20
7.2360625614
 30
0.0
 10
10.8874818075
 20
7.2168784461
 30
0.0
 10
10.8705736102
 20
7.1993949124
 30
0.0
 10
10.8519171792
 20
7.1837811067
 30
0.0
 10
10.8316930684
 20
7.1701881098
 30
0.0
 10
10.810097234
 20
7.1587469709
 30
0.0
 10
10.7873387244
 20
7.1495678243
 30
0.0
 10
10.7636377348
 20
7.1427385864
 30
0.0
 10
10.7392233029
 20
7.1383242676
 30
0.0
 10
10.7143310546
 20
7.1363665552
 30
0.0
 10
10.6892009252
 20
7.1368831928
 30
0.0
 10
10.6640748452
 20
7.1398683823
 30
0.0
 10
10.6391944209
 20
7.1452923569
 30
0.0
 10
10.6147987182
 20
7.1531022894
 30
0.0
 10
10.5911219413
 20
7.1632223743
 30
0.0
 10
10.5683913038
 20
7.1755548902
 30
0.0
 10
10.5468248945
 20
7.1899810273
 30
0.0
 10
10.526629548
 20
7.2063619509
 30
0.0
 10
10.5079991015
 20
7.2245403553
 30
0.0
 10
10.4911122631
 20
7.244341606
 30
0.0
 10
10.4761313153
 20
7.2655757808
 30
0.0
 10
10.4632001717
 20
7.2880390694
 30
0.0
 10
10.4524433777
 20
7.3115160782
 30
0.0
 10
10.4439646727
 20
7.335781289
 30
0.0
 10
10.4378461088
 20
7.3606026049
 30
0.0
 10
10.4341471979
 20
7.3857385148
 30
0.0
 10
10.4333158833
 20
7.4026089588
 30
0.0
 10
10.4333158833
 20
7.4110107151
 30
0.0
  0
SPLINE
  5
391
100
AcDbEntity
  8
0
100
AcDbSpline
 62
7
  6
CONTINUOUS
 70
0
 71
3
 72
23
 73
19
 74
0
 42
0.0000001
 43
0.0000001
 44
0.0000000001
 40
0.0
 40
0.0
 40
0.0
 40
0.0
 40
0.0637772827
 40
0.1273447928
 40
0.1907019891
 40
0.2538561422
 40
0.3168131889
 40
0.3795820982
 40
0.4421733894
 40
0.5045993375
 40
0.5668738648
 40
0.6290123797
 40
0.6910316513
 40
0.752949645
 40
0.814785352
 40
0.8765586
 40
0.9382898524
 40
1.0
 40
1.0
 40
1.0
 40
1.0
 10
10.2601377522
 20
7.4187334758
 30
0.0
 10
10.2601377522
 20
7.4255221587
 30
0.0
 10
10.2604626803
 20
7.4390794963
 30
0.0
 10
10.2619292762
 20
7.4593330451
 30
0.0
 10
10.2643711448
 20
7.4794260221
 30
0.0
 10
10.2677824862
 20
7.4993113154
 30
0.0
 10
10.2721556358
 20
7.518943415
 30
0.0
 10
10.2774805078
 20
7.5382769505
 30
0.0
 10
10.2837448839
 20
7.5572673759
 30
0.0
 10
10.2909343495
 20
7.5758708974
 30
0.0
 10
10.2990323634
 20
7.5940446128
 30
0.0
 10
10.3080202934
 20
7.611746603
 30
0.0
 10
10.3178774535
 20
7.6289360232
 30
0.0
 10
10.3285811467
 20
7.6455732246
 30
0.0
 10
10.3401066587
 20
7.661619797
 30
0.0
 10
10.3524275537
 20
7.6770388481
 30
0.0
 10
10.3655149294
 20
7.6917943309
 30
0.0
 10
10.3747324781
 20
7.7011679503
 30
0.0
 10
10.3794570126
 20
7.7057314941
 30
0.0
  0
SPLINE
  5
392
100
AcDbEntity
  8
0
100
AcDbSpline
 62
7
  6
CONTINUOUS
 70
0
 71
3
 72
42
 73
38
 74
0
 42
0.0000001
 43
0.0000001
 44
0.0000000001
 40
0.0
 40
0.0
 40
0.0
 40
0.0
 40
0.0299419634
 40
0.0449235299
 40
0.0599142017
 40
0.0899287029
 40
0.1200139772
 40
0.1350926626
 40
0.1501967046
 40
0.1804840506
 40
0.2108978877
 40
0.2414513551
 40
0.2721543675
 40
0.3030134354
 40
0.3340315696
 40
0.3652082675
 40
0.3965395775
 40
0.4280182343
 40
0.4596338596
 40
0.4913732188
 40
0.5232205284
 40
0.5551578047
 40
0.5871652463
 40
0.6192216448
 40
0.6513048151
 40
0.6833920402
 40
0.7154605222
 40
0.747487836
 40
0.7794523759
 40
0.8113337934
 40
0.8431134117
 40
0.8747746318
 40
0.9063032512
 40
0.9376879208
 40
0.9533258
 40
0.9689252634
 40
1.0
 40
1.0
 40
1.0
 40
1.0
 10
10.5902543871
 20
6.5906512982
 30
0.0
 10
10.5867539654
 20
6.587270171
 30
0.0
 10
10.5812969972
 20
6.5824033614
 30
0.0
 10
10.5736546361
 20
6.5763647107
 30
0.0
 10
10.5657689043
 20
6.5706265524
 30
0.0
 10
10.5554793209
 20
6.5640372877
 30
0.0
 10
10.5446894517
 20
6.558273588
 30
0.0
 10
10.5357906059
 20
6.5541732863
 30
0.0
 10
10.5267079361
 20
6.5504114709
 30
0.0
 10
10.5150552826
 20
6.5463664561
 30
0.0
 10
10.5006951534
 20
6.5425966038
 30
0.0
 10
10.486021684
 20
6.5399259536
 30
0.0
 10
10.4711161926
 20
6.5383692392
 30
0.0
 10
10.4560605581
 20
6.5379347684
 30
0.0
 10
10.4409376212
 20
6.5386247521
 30
0.0
 10
10.4258305007
 20
6.5404352049
 30
0.0
 10
10.4108222036
 20
6.5433560009
 30
0.0
 10
10.3959951574
 20
6.5473709302
 30
0.0
 10
10.3814307677
 20
6.5524577946
 30
0.0
 10
10.3672089768
 20
6.5585885324
 30
0.0
 10
10.3534078311
 20
6.5657293753
 30
0.0
 10
10.3401030587
 20
6.5738410341
 30
0.0
 10
10.3273676599
 20
6.5828789145
 30
0.0
 10
10.3152715111
 20
6.5927933605
 30
0.0
 10
10.3038809863
 20
6.6035299251
 30
0.0
 10
10.2932585969
 20
6.6150296669
 30
0.0
 10
10.2834626523
 20
6.6272294701
 30
0.0
 10
10.274546943
 20
6.6400623883
 30
0.0
 10
10.2665604477
 20
6.6534580042
 30
0.0
 10
10.2595470666
 20
6.6673428264
 30
0.0
 10
10.2535453832
 20
6.6816406308
 30
0.0
 10
10.248588441
 20
6.6962730851
 30
0.0
 10
10.2447036237
 20
6.7111593889
 30
0.0
 10
10.2423745894
 20
6.7237250432
 30
0.0
 10
10.2410680703
 20
6.7338213941
 30
0.0
 10
10.2401356396
 20
6.7439080836
 30
0.0
 10
10.2398533086
 20
6.7514982495
 30
0.0
 10
10.2398533086
 20
6.7565490897
 30
0.0
  0
SPLINE
  5
393
100
AcDbEntity
  8
0
100
AcDbSpline
 62
7
  6
CONTINUOUS
 70
0
 71
3
 72
39
 73
35
 74
0
 42
0.0000001
 43
0.0000001
 44
0.0000000001
 40
0.0
 40
0.0
 40
0.0
 40
0.0
 40
0.0313281614
 40
0.0628641203
 40
0.0945965856
 40
0.1265061994
 40
0.1585673748
 40
0.1907491066
 40
0.2230161151
 40
0.2553301373
 40
0.287651269
 40
0.3199393593
 40
0.3521554097
 40
0.3842629354
 40
0.4162292816
 40
0.4480268214
 40
0.4796340302
 40
0.5110363798
 40
0.5422270022
 40
0.5732071183
 40
0.6039861352
 40
0.634581456
 40
0.6650179099
 40
0.6953268687
 40
0.7255450242
 40
0.7557129009
 40
0.7858731604
 40
0.816068789
 40
0.8463412673
 40
0.8767288221
 40
0.9072648631
 40
0.9379766473
 40
0.9688840719
 40
1.0
 40
1.0
 40
1.0
 40
1.0
 10
10.9452566016
 20
7.3755075057
 30
0.0
 10
10.9452566016
 20
7.3839092619
 30
0.0
 10
10.9444252869
 20
7.400779706
 30
0.0
 10
10.9407263761
 20
7.4259156159
 30
0.0
 10
10.9346078122
 20
7.4507369317
 30
0.0
 10
10.9261291072
 20
7.4750021426
 30
0.0
 10
10.9153723132
 20
7.4984791513
 30
0.0
 10
10.9024411696
 20
7.5209424399
 30
0.0
 10
10.8874602218
 20
7.5421766147
 30
0.0
 10
10.8705733834
 20
7.5619778655
 30
0.0
 10
10.8519429368
 20
7.5801562698
 30
0.0
 10
10.8317475903
 20
7.5965371934
 30
0.0
 10
10.8101811811
 20
7.6109633306
 30
0.0
 10
10.7874505436
 20
7.6232958464
 30
0.0
 10
10.7637737666
 20
7.6334159314
 30
0.0
 10
10.7393780639
 20
7.6412258639
 30
0.0
 10
10.7144976396
 20
7.6466498385
 30
0.0
 10
10.6893715597
 20
7.649635028
 30
0.0
 10
10.6642414302
 20
7.6501516655
 30
0.0
 10
10.639349182
 20
7.6481939532
 30
0.0
 10
10.6149347501
 20
7.6437796344
 30
0.0
 10
10.5912337604
 20
7.6369503964
 30
0.0
 10
10.5684752508
 20
7.6277712498
 30
0.0
 10
10.5468794165
 20
7.616330111
 30
0.0
 10
10.5266553056
 20
7.6027371141
 30
0.0
 10
10.5079988747
 20
7.5871233084
 30
0.0
 10
10.4910906774
 20
7.5696397747
 30
0.0
 10
10.4760943933
 20
7.5504556593
 30
0.0
 10
10.4631547572
 20
7.5297568806
 30
0.0
 10
10.4523964982
 20
7.5077437952
 30
0.0
 10
10.4439228903
 20
7.4846297051
 30
0.0
 10
10.4378149233
 20
7.4606373273
 30
0.0
 10
10.4341305796
 20
7.436001383
 30
0.0
 10
10.4333158833
 20
7.4193555535
 30
0.0
 10
10.4333158833
 20
7.4110107151
 30
0.0
  0
SPLINE
  5
394
100
AcDbEntity
  8
0
100
AcDbSpline
 62
7
  6
CONTINUOUS
 70
0
 71
3
 72
78
 73
74
 74
0
 42
0.0000001
 43
0.0000001
 44
0.0000000001
 40
0.0
 40
0.0
 40
0.0
 40
0.0
 40
0.0027164367
 40
0.0054532514
 40
0.0082303279
 40
0.0110666264
 40
0.0139798478
 40
0.01698616
 40
0.0201001332
 40
0.023334663
 40
0.026701018
 40
0.0302089883
 40
0.0338669101
 40
0.0376818815
 40
0.0416598755
 40
0.0458058052
 40
0.0501237497
 40
0.0546169572
 40
0.0592879722
 40
0.0641387695
 40
0.0691707052
 40
0.0743846925
 40
0.0853596199
 40
0.0970635082
 40
0.1094902867
 40
0.1226295599
 40
0.1364672579
 40
0.1509861147
 40
0.1661660528
 40
0.1819845313
 40
0.1984168054
 40
0.215436125
 40
0.2330139089
 40
0.2511199382
 40
0.2697225034
 40
0.2887885258
 40
0.3082836681
 40
0.328172477
 40
0.3484184949
 40
0.3689843598
 40
0.4109214935
 40
0.4536716183
 40
0.4969137458
 40
0.5403221561
 40
0.5835695333
 40
0.6263301102
 40
0.6682827915
 40
0.6888582978
 40
0.7091151729
 40
0.7290160218
 40
0.7485243581
 40
0.7676046983
 40
0.786222669
 40
0.8043451405
 40
0.8219403599
 40
0.8389780633
 40
0.8554296169
 40
0.8712681983
 40
0.8864689974
 40
0.9010094047
 40
0.9148692631
 40
0.9280311977
 40
0.9404810329
 40
0.9522082461
 40
0.9632066295
 40
0.9684323353
 40
0.9734759499
 40
0.9783383088
 40
0.9830207669
 40
0.9875253485
 40
0.9918546163
 40
0.9960116159
 40
1.0
 40
1.0
 40
1.0
 40
1.0
 10
12.9622928771
 20
10.7112471052
 30
0.0
 10
12.9631140825
 20
10.7111901528
 30
0.0
 10
12.9647584508
 20
10.7110015092
 30
0.0
 10
12.9672040603
 20
10.7104966367
 30
0.0
 10
12.9696311874
 20
10.7097700145
 30
0.0
 10
12.9720381139
 20
10.7088223438
 30
0.0
 10
12.9744235594
 20
10.7076543999
 30
0.0
 10
12.9767863525
 20
10.7062671934
 30
0.0
 10
12.9791253627
 20
10.7046616362
 30
0.0
 10
12.9814395588
 20
10.7028387703
 30
0.0
 10
12.9837279736
 20
10.7007996892
 30
0.0
 10
12.9859895614
 20
10.6985454482
 30
0.0
 10
12.9882233878
 20
10.6960772759
 30
0.0
 10
12.9904284452
 20
10.6933964047
 30
0.0
 10
12.9926037064
 20
10.6905041544
 30
0.0
 10
12.9947482231
 20
10.6874019895
 30
0.0
 10
12.9968609357
 20
10.6840914049
 30
0.0
 10
12.9989408581
 20
10.6805740447
 30
0.0
 10
13.0009870102
 20
10.6768516488
 30
0.0
 10
13.0029983359
 20
10.6729260337
 30
0.0
 10
13.0049739304
 20
10.6687991574
 30
0.0
 10
13.0076040691
 20
10.662930315
 30
0.0
 10
13.0107846849
 20
10.6550957691
 30
0.0
 10
13.0143810956
 20
10.6450812291
 30
0.0
 10
13.0178125224
 20
10.6343186657
 30
0.0
 10
13.0210720627
 20
10.6228295072
 30
0.0
 10
13.0241531282
 20
10.6106364495
 30
0.0
 10
13.0270494669
 20
10.5977637719
 30
0.0
 10
13.0297552046
 20
10.584237163
 30
0.0
 10
13.0322648376
 20
10.5700836743
 30
0.0
 10
13.034573253
 20
10.5553316436
 30
0.0
 10
13.0366757469
 20
10.5400106442
 30
0.0
 10
13.0385680494
 20
10.5241514205
 30
0.0
 10
13.0402463092
 20
10.5077858135
 30
0.0
 10
13.0417071057
 20
10.4909466891
 30
0.0
 10
13.0429474574
 20
10.4736678787
 30
0.0
 10
13.0439648482
 20
10.4559841083
 30
0.0
 10
13.0447571988
 20
10.4379309335
 30
0.0
 10
13.0453229139
 20
10.419544616
 30
0.0
 10
13.0457762736
 20
10.3944722358
 30
0.0
 10
13.0457611611
 20
10.3625733846
 30
0.0
 10
13.0448341413
 20
10.3238139448
 30
0.0
 10
13.043005055
 20
10.2846402212
 30
0.0
 10
13.0402885333
 20
10.2453670585
 30
0.0
 10
13.0367063759
 20
10.2063098255
 30
0.0
 10
13.0322874662
 20
10.16778242
 30
0.0
 10
13.0279098693
 20
10.1361744701
 30
0.0
 10
13.0240081674
 20
10.1113923311
 30
0.0
 10
13.0209157229
 20
10.0932491141
 30
0.0
 10
13.0176445879
 20
10.0754659769
 30
0.0
 10
13.0142013403
 20
10.0580786374
 30
0.0
 10
13.010592938
 20
10.0411220485
 30
0.0
 10
13.006826658
 20
10.0246302858
 30
0.0
 10
13.0029101054
 20
10.0086364803
 30
0.0
 10
12.9988511994
 20
9.9931727441
 30
0.0
 10
12.9946581415
 20
9.978270114
 30
0.0
 10
12.9903393999
 20
9.9639584883
 30
0.0
 10
12.9859036988
 20
9.9502665525
 30
0.0
 10
12.9813600106
 20
9.9372217092
 30
0.0
 10
12.9767175145
 20
9.9248500307
 30
0.0
 10
12.9719855742
 20
9.9131761935
 30
0.0
 10
12.9671737184
 20
9.902223435
 30
0.0
 10
12.9622916055
 20
9.8920133766
 30
0.0
 10
12.9573490269
 20
9.8825663337
 30
0.0
 10
12.9531188029
 20
9.8752245758
 30
0.0
 10
12.9497046701
 20
9.8697576378
 30
0.0
 10
12.9471788715
 20
9.8659299172
 30
0.0
 10
12.9446453874
 20
9.8623063645
 30
0.0
 10
12.9421053874
 20
9.8588887699
 30
0.0
 10
12.9395601296
 20
9.8556787635
 30
0.0
 10
12.9370107752
 20
9.8526779504
 30
0.0
 10
12.9344587484
 20
9.8498879575
 30
0.0
 10
12.9327210752
 20
9.8481337053
 30
0.0
 10
12.931851767
 20
9.8472940181
 30
0.0
  0
SPLINE
  5
395
100
AcDbEntity
  8
0
100
AcDbSpline
 62
7
  6
CONTINUOUS
 70
0
 71
3
 72
74
 73
70
 74
0
 42
0.0000001
 43
0.0000001
 44
0.0000000001
 40
0.0
 40
0.0
 40
0.0
 40
0.0
 40
0.0039223496
 40
0.0080064566
 40
0.0122557627
 40
0.0166731355
 40
0.021261008
 40
0.0260213339
 40
0.0309554859
 40
0.0360642978
 40
0.0468068418
 40
0.0582493195
 40
0.0703865397
 40
0.0832092624
 40
0.0967047806
 40
0.1108574077
 40
0.1256488708
 40
0.1410585808
 40
0.1570638378
 40
0.1736400841
 40
0.1907610799
 40
0.2083990167
 40
0.2265246582
 40
0.245107497
 40
0.2641158558
 40
0.2835169629
 40
0.3032770843
 40
0.3233616302
 40
0.3643610915
 40
0.4062254572
 40
0.448656038
 40
0.4913489398
 40
0.5339978767
 40
0.5762969639
 40
0.6179435154
 40
0.6586408369
 40
0.6785435665
 40
0.6981019282
 40
0.7172817996
 40
0.7360500063
 40
0.7543743948
 40
0.7722239238
 40
0.7895688036
 40
0.8063806244
 40
0.8226324495
 40
0.8382989595
 40
0.8533566638
 40
0.86778406
 40
0.8815618297
 40
0.8946731329
 40
0.9071039754
 40
0.918843575
 40
0.9298848898
 40
0.9402253696
 40
0.9451338708
 40
0.9498687415
 40
0.9544314124
 40
0.9588238113
 40
0.9630484042
 40
0.9671083756
 40
0.9710075972
 40
0.9747507632
 40
0.9783435478
 40
0.9817926151
 40
0.9851058167
 40
0.9882923025
 40
0.9943250631
 40
0.9972003964
 40
1.0
 40
1.0
 40
1.0
 40
1.0
 10
12.9163969522
 20
9.8483658132
 30
0.0
 10
12.9172444887
 20
9.8491844707
 30
0.0
 10
12.9189386962
 20
9.8508929599
 30
0.0
 10
12.9214282017
 20
9.8536067218
 30
0.0
 10
12.9239152476
 20
9.8565211711
 30
0.0
 10
12.9263984851
 20
9.8596348042
 30
0.0
 10
12.9288768316
 20
9.8629461221
 30
0.0
 10
12.9313491303
 20
9.8664536198
 30
0.0
 10
12.9338142776
 20
9.8701556669
 30
0.0
 10
12.9371459845
 20
9.8754375987
 30
0.0
 10
12.941275803
 20
9.8825245846
 30
0.0
 10
12.946104851
 20
9.8916376259
 30
0.0
 10
12.9508777181
 20
9.9014795035
 30
0.0
 10
12.9555852859
 20
9.912031589
 30
0.0
 10
12.9602185897
 20
9.9232740504
 30
0.0
 10
12.9647687577
 20
9.9351855935
 30
0.0
 10
12.9692270505
 20
9.9477436278
 30
0.0
 10
12.9735848913
 20
9.9609242764
 30
0.0
 10
12.9778339181
 20
9.974702428
 30
0.0
 10
12.9819659625
 20
9.9890518085
 30
0.0
 10
12.9859730693
 20
10.0039450395
 30
0.0
 10
12.9898475361
 20
10.0193536792
 30
0.0
 10
12.9935819274
 20
10.0352482811
 30
0.0
 10
12.9971690647
 20
10.0515984662
 30
0.0
 10
13.0006020465
 20
10.0683729806
 30
0.0
 10
13.0038742822
 20
10.0855397355
 30
0.0
 10
13.006979522
 20
10.1030659169
 30
0.0
 10
13.0109160108
 20
10.127032544
 30
0.0
 10
13.0153677837
 20
10.1576415015
 30
0.0
 10
13.0199229342
 20
10.1950090189
 30
0.0
 10
13.0236917629
 20
10.2329753
 30
0.0
 10
13.0266453641
 20
10.271250002
 30
0.0
 10
13.0287611045
 20
10.3095405951
 30
0.0
 10
13.0300228929
 20
10.3475544264
 30
0.0
 10
13.030421231
 20
10.3850007788
 30
0.0
 10
13.0300286838
 20
10.4157185178
 30
0.0
 10
13.0292709649
 20
10.439788365
 30
0.0
 10
13.0284911778
 20
10.4573885612
 30
0.0
 10
13.0274972842
 20
10.4746365842
 30
0.0
 10
13.0262911974
 20
10.4914994735
 30
0.0
 10
13.0248752636
 20
10.507944975
 30
0.0
 10
13.0232522123
 20
10.5239416442
 30
0.0
 10
13.0214251846
 20
10.5394589052
 30
0.0
 10
13.0193977293
 20
10.5544671161
 30
0.0
 10
13.0171737703
 20
10.5689376171
 30
0.0
 10
13.0147575973
 20
10.5828427907
 30
0.0
 10
13.0121538969
 20
10.5961561317
 30
0.0
 10
13.009367714
 20
10.6088522992
 30
0.0
 10
13.0064044273
 20
10.6209071579
 30
0.0
 10
13.003269743
 20
10.6322978557
 30
0.0
 10
12.9999697121
 20
10.6430028611
 30
0.0
 10
12.9965106456
 20
10.6530021186
 30
0.0
 10
12.9928991213
 20
10.6622767134
 30
0.0
 10
12.9897151194
 20
10.6695081384
 30
0.0
 10
12.9870886335
 20
10.6749073518
 30
0.0
 10
12.9851191885
 20
10.6786941815
 30
0.0
 10
12.9831168617
 20
10.6822872744
 30
0.0
 10
12.9810825661
 20
10.6856849589
 30
0.0
 10
12.9790171927
 20
10.6888856108
 30
0.0
 10
12.9769217287
 20
10.6918877583
 30
0.0
 10
12.9747970955
 20
10.6946899888
 30
0.0
 10
12.9726442044
 20
10.6972909526
 30
0.0
 10
12.9704640173
 20
10.6996894726
 30
0.0
 10
12.968257508
 20
10.7018843065
 30
0.0
 10
12.9660252863
 20
10.7038745493
 30
0.0
 10
12.9630710813
 20
10.7062108036
 30
0.0
 10
12.9600104878
 20
10.7081945267
 30
0.0
 10
12.9568617259
 20
10.709767807
 30
0.0
 10
12.9552800068
 20
10.7104099198
 30
0.0
 10
12.9544883349
 20
10.710693882
 30
0.0
  0
SPLINE
  5
396
100
AcDbEntity
  8
0
100
AcDbSpline
 62
7
  6
CONTINUOUS
 70
0
 71
3
 72
15
 73
11
 74
0
 42
0.0000001
 43
0.0000001
 44
0.0000000001
 40
0.0
 40
0.0
 40
0.0
 40
0.0
 40
0.1452809297
 40
0.2839056866
 40
0.4162013913
 40
0.5425768922
 40
0.6635265665
 40
0.779625595
 40
0.8915345969
 40
1.0
 40
1.0
 40
1.0
 40
1.0
 10
12.9163969522
 20
9.8483658132
 30
0.0
 10
12.9154668999
 20
9.8474674516
 30
0.0
 10
12.9136075385
 20
9.8457544287
 30
0.0
 10
12.9107523566
 20
9.8433913282
 30
0.0
 10
12.907899603
 20
9.8412980523
 30
0.0
 10
12.9050510005
 20
9.8394762356
 30
0.0
 10
12.9022081042
 20
9.8379271691
 30
0.0
 10
12.8993723034
 20
9.8366521839
 30
0.0
 10
12.8965456292
 20
9.8356525054
 30
0.0
 10
12.8946426654
 20
9.835163911
 30
0.0
 10
12.8936972651
 20
9.8349684225
 30
0.0
  0
SPLINE
  5
397
100
AcDbEntity
  8
0
100
AcDbSpline
 62
7
  6
CONTINUOUS
 70
0
 71
3
 72
84
 73
80
 74
0
 42
0.0000001
 43
0.0000001
 44
0.0000000001
 40
0.0
 40
0.0
 40
0.0
 40
0.0
 40
0.0027164264
 40
0.0054532293
 40
0.008230295
 40
0.0110665896
 40
0.0139797932
 40
0.0169861044
 40
0.0201000661
 40
0.0233345812
 40
0.0267009392
 40
0.0302088856
 40
0.0338668056
 40
0.037681768
 40
0.0416597414
 40
0.0458056718
 40
0.050123593
 40
0.0546167913
 40
0.0592877975
 40
0.0641385717
 40
0.0691704988
 40
0.074384467
 40
0.0797809628
 40
0.0853600226
 40
0.0911213815
 40
0.0970644148
 40
0.1094911534
 40
0.122630387
 40
0.136468035
 40
0.1509868331
 40
0.1661667198
 40
0.1819851503
 40
0.1984173662
 40
0.2154366132
 40
0.2330143274
 40
0.2511202956
 40
0.2697227959
 40
0.2887887406
 40
0.3082838034
 40
0.3281725359
 40
0.3484184777
 40
0.3689842604
 40
0.3898317162
 40
0.4109219843
 40
0.4536719359
 40
0.4969138893
 40
0.5403221212
 40
0.5835693222
 40
0.6263297187
 40
0.6474271304
 40
0.6682829869
 40
0.6888584043
 40
0.7091151927
 40
0.7290159604
 40
0.748524216
 40
0.7676044742
 40
0.7862223676
 40
0.8043447661
 40
0.8219399096
 40
0.838977535
 40
0.8554290199
 40
0.8712675451
 40
0.8864682815
 40
0.9010086172
 40
0.9148684112
 40
0.9280303001
 40
0.9404800906
 40
0.946434749
 40
0.9522077946
 40
0.957798564
 40
0.9632067735
 40
0.9684324641
 40
0.9734760551
 40
0.9783384155
 40
0.983020862
 40
0.9875253935
 40
0.9918546029
 40
0.9960115831
 40
1.0
 40
1.0
 40
1.0
 40
1.0
 10
12.9730165652
 20
9.3570994483
 30
0.0
 10
12.9741270588
 20
9.3570224314
 30
0.0
 10
12.9763506866
 20
9.3567672805
 30
0.0
 10
12.97965782
 20
9.3560845823
 30
0.0
 10
12.9829399629
 20
9.35510199
 30
0.0
 10
12.9861947597
 20
9.3538204239
 30
0.0
 10
12.9894205634
 20
9.3522410982
 30
0.0
 10
12.9926156742
 20
9.3503651591
 30
0.0
 10
12.9957786606
 20
9.3481940155
 30
0.0
 10
12.9989081
 20
9.3457290107
 30
0.0
 10
13.0020026219
 20
9.3429715722
 30
0.0
 10
13.0050609441
 20
9.3399232531
 30
0.0
 10
13.0080816596
 20
9.3365855808
 30
0.0
 10
13.0110634962
 20
9.3329603048
 30
0.0
 10
13.0140050623
 20
9.3290491989
 30
0.0
 10
13.0169050007
 20
9.324854201
 30
0.0
 10
13.0197619887
 20
9.3203773951
 30
0.0
 10
13.0225745985
 20
9.3156209517
 30
0.0
 10
13.0253415434
 20
9.3105872472
 30
0.0
 10
13.0280614251
 20
9.3052787437
 30
0.0
 10
13.0307329244
 20
9.2996980758
 30
0.0
 10
13.0333547431
 20
9.2938480155
 30
0.0
 10
13.0359255297
 20
9.2877314532
 30
0.0
 10
13.0384440587
 20
9.2813514531
 30
0.0
 10
13.0409090461
 20
9.2747111714
 30
0.0
 10
13.0441712512
 20
9.2653755478
 30
0.0
 10
13.0480942096
 20
9.2530709255
 30
0.0
 10
13.0525019952
 20
9.2375345412
 30
0.0
 10
13.056668431
 20
9.2210461669
 30
0.0
 10
13.0605850743
 20
9.2036388025
 30
0.0
 10
13.0642439631
 20
9.1853471277
 30
0.0
 10
13.0676376607
 20
9.1662077397
 30
0.0
 10
13.0707592613
 20
9.1462589657
 30
0.0
 10
13.0736024108
 20
9.1255407989
 30
0.0
 10
13.0761613196
 20
9.1040948039
 30
0.0
 10
13.0784307746
 20
9.0819640339
 30
0.0
 10
13.08040616
 20
9.0591929405
 30
0.0
 10
13.0820834554
 20
9.0358272776
 30
0.0
 10
13.0834592442
 20
9.0119140027
 30
0.0
 10
13.0845307198
 20
8.9875011821
 30
0.0
 10
13.0852956921
 20
8.9626378908
 30
0.0
 10
13.0857525881
 20
8.9373741315
 30
0.0
 10
13.0859004962
 20
8.911760666
 30
0.0
 10
13.0856841902
 20
8.8770565955
 30
0.0
 10
13.0846346987
 20
8.8331837814
 30
0.0
 10
13.0821613247
 20
8.7802104189
 30
0.0
 10
13.078487836
 20
8.727102312
 30
0.0
 10
13.0736437542
 20
8.6742864855
 30
0.0
 10
13.0686421877
 20
8.630677648
 30
0.0
 10
13.0640776951
 20
8.5962636396
 30
0.0
 10
13.0604040076
 20
8.5709041413
 30
0.0
 10
13.0564723122
 20
8.5459320314
 30
0.0
 10
13.0522905053
 20
8.521397485
 30
0.0
 10
13.0478670357
 20
8.497349836
 30
0.0
 10
13.0432108282
 20
8.4738374207
 30
0.0
 10
13.0383312814
 20
8.4509074969
 30
0.0
 10
13.0332382451
 20
8.4286061437
 30
0.0
 10
13.0279420014
 20
8.4069781635
 30
0.0
 10
13.0224532531
 20
8.3860669855
 30
0.0
 10
13.0167830915
 20
8.3659145779
 30
0.0
 10
13.0109429753
 20
8.3465613626
 30
0.0
 10
13.0049447068
 20
8.3280461315
 30
0.0
 10
12.9988004026
 20
8.3104059496
 30
0.0
 10
12.9925224773
 20
8.2936760905
 30
0.0
 10
12.9861235989
 20
8.2778898603
 30
0.0
 10
12.9796166706
 20
8.2630788452
 30
0.0
 10
12.9740353608
 20
8.2514062573
 30
0.0
 10
12.9695175797
 20
8.2425880047
 30
0.0
 10
12.9661607508
 20
8.236334632
 30
0.0
 10
12.9627867093
 20
8.2303462456
 30
0.0
 10
12.959397149
 20
8.2246258059
 30
0.0
 10
12.9559937501
 20
8.2191761649
 30
0.0
 10
12.9525781862
 20
8.2140000492
 30
0.0
 10
12.9491522135
 20
8.2091000096
 30
0.0
 10
12.9457174468
 20
8.2044784896
 30
0.0
 10
12.9422755752
 20
8.2001377122
 30
0.0
 10
12.9388281875
 20
8.1960798073
 30
0.0
 10
12.9353771469
 20
8.192306978
 30
0.0
 10
12.9330273229
 20
8.1899347409
 30
0.0
 10
12.931851767
 20
8.1887992411
 30
0.0
  0
SPLINE
  5
398
100
AcDbEntity
  8
0
100
AcDbSpline
 62
7
  6
CONTINUOUS
 70
0
 71
3
 72
24
 73
20
 74
0
 42
0.0000001
 43
0.0000001
 44
0.0000000001
 40
0.0
 40
0.0
 40
0.0
 40
0.0
 40
0.0755929441
 40
0.1466353292
 40
0.2134607542
 40
0.2454342717
 40
0.2765268668
 40
0.3363370143
 40
0.3935561274
 40
0.4489310748
 40
0.5032948935
 40
0.557531619
 40
0.612531838
 40
0.6691469901
 40
0.7281515817
 40
0.7902214221
 40
0.8559247918
 40
0.9257271707
 40
1.0
 40
1.0
 40
1.0
 40
1.0
 10
12.9163969522
 20
10.0174028428
 30
0.0
 10
12.9156604559
 20
10.016691442
 30
0.0
 10
12.9141883784
 20
10.015355182
 30
0.0
 10
12.9119103412
 20
10.0135700677
 30
0.0
 10
12.9099864802
 20
10.0123024725
 30
0.0
 10
12.908452152
 20
10.0114399711
 30
0.0
 10
12.9069624801
 20
10.0106962564
 30
0.0
 10
12.9050999369
 20
10.009938772
 30
0.0
 10
12.9028449638
 20
10.0093105596
 30
0.0
 10
12.9006018271
 20
10.0089771713
 30
0.0
 10
12.89837441
 20
10.0089401263
 30
0.0
 10
12.8961669588
 20
10.0092000775
 30
0.0
 10
12.8939837463
 20
10.0097561281
 30
0.0
 10
12.8918285023
 20
10.0106065152
 30
0.0
 10
12.8897040535
 20
10.0117486652
 30
0.0
 10
12.8876125877
 20
10.0131800394
 30
0.0
 10
12.8855557517
 20
10.0148980925
 30
0.0
 10
12.8835352458
 20
10.016900334
 30
0.0
 10
12.8822546821
 20
10.0183755775
 30
0.0
 10
12.8816198754
 20
10.0191561137
 30
0.0
  0
SPLINE
  5
399
100
AcDbEntity
  8
0
100
AcDbSpline
 62
7
  6
CONTINUOUS
 70
0
 71
3
 72
16
 73
12
 74
0
 42
0.0000001
 43
0.0000001
 44
0.0000000001
 40
0.0
 40
0.0
 40
0.0
 40
0.0
 40
0.1504799604
 40
0.291747358
 40
0.4244949035
 40
0.4879697429
 40
0.5496758902
 40
0.6683415374
 40
0.7818817037
 40
0.8918563365
 40
1.0
 40
1.0
 40
1.0
 40
1.0
 10
12.8874191757
 20
10.0483902349
 30
0.0
 10
12.8867548389
 20
10.0477485348
 30
0.0
 10
12.8854270082
 20
10.0465444935
 30
0.0
 10
12.8833710221
 20
10.0449398989
 30
0.0
 10
12.8816343463
 20
10.0438050376
 30
0.0
 10
12.8802495109
 20
10.043036557
 30
0.0
 10
12.8789054751
 20
10.0423767851
 30
0.0
 10
12.8772248208
 20
10.0417101724
 30
0.0
 10
12.8751900435
 20
10.04116878
 30
0.0
 10
12.8731667483
 20
10.040898463
 30
0.0
 10
12.8718231161
 20
10.0408999821
 30
0.0
 10
12.8711609202
 20
10.0409459003
 30
0.0
  0
SPLINE
  5
39A
100
AcDbEntity
  8
0
100
AcDbSpline
 62
7
  6
CONTINUOUS
 70
0
 71
3
 72
82
 73
78
 74
0
 42
0.0000001
 43
0.0000001
 44
0.0000000001
 40
0.0
 40
0.0
 40
0.0
 40
0.0
 40
0.0028104035
 40
0.0056342314
 40
0.0084910398
 40
0.0113996623
 40
0.0143778412
 40
0.0174419726
 40
0.0238825885
 40
0.0272877133
 40
0.030829056
 40
0.034515488
 40
0.0383546107
 40
0.0423528274
 40
0.046515549
 40
0.050847211
 40
0.0553514523
 40
0.0600311785
 40
0.064888614
 40
0.069925454
 40
0.0751428194
 40
0.0805414107
 40
0.0861214942
 40
0.0978247434
 40
0.1102484458
 40
0.1233831824
 40
0.1372156448
 40
0.1517291677
 40
0.1669041492
 40
0.1827184011
 40
0.1991474241
 40
0.2161646382
 40
0.2337415803
 40
0.2518480692
 40
0.2704523719
 40
0.2895213457
 40
0.3090205676
 40
0.3289144566
 40
0.3491663855
 40
0.3697387957
 40
0.3905933111
 40
0.4116908437
 40
0.4544548935
 40
0.497708707
 40
0.5411244087
 40
0.584372537
 40
0.6271252706
 40
0.6482150711
 40
0.6690604924
 40
0.6896224674
 40
0.7098626461
 40
0.7297435072
 40
0.7492284596
 40
0.7682819551
 40
0.7868696091
 40
0.8049583215
 40
0.8225164194
 40
0.8395137846
 40
0.8559220117
 40
0.871714584
 40
0.8868670691
 40
0.9013573707
 40
0.9151659919
 40
0.9282763764
 40
0.9406753356
 40
0.9466052338
 40
0.9523541789
 40
0.9579217117
 40
0.9633077708
 40
0.9685126525
 40
0.9735370539
 40
0.9783821576
 40
0.9830496259
 40
0.9875418403
 40
0.9918618252
 40
0.9960131504
 40
1.0
 40
1.0
 40
1.0
 40
1.0
 10
11.2018424059
 20
10.8312652061
 30
0.0
 10
11.2018733958
 20
10.8323625244
 30
0.0
 10
11.2018395174
 20
10.8345663238
 30
0.0
 10
11.2014996643
 20
10.8378694603
 30
0.0
 10
11.2008712943
 20
10.8411692203
 30
0.0
 10
11.1999549831
 20
10.8444631753
 30
0.0
 10
11.1987515562
 20
10.8477496772
 30
0.0
 10
11.1967326031
 20
10.8521920705
 30
0.0
 10
11.1941529496
 20
10.8565456578
 30
0.0
 10
11.1910896294
 20
10.8607856249
 30
0.0
 10
11.1884680007
 20
10.8640099417
 30
0.0
 10
11.185566923
 20
10.8672170252
 30
0.0
 10
11.1823876448
 20
10.8704057826
 30
0.0
 10
11.1789319142
 20
10.8735746838
 30
0.0
 10
11.1752014039
 20
10.8767222059
 30
0.0
 10
11.1711980317
 20
10.879846895
 30
0.0
 10
11.1669237793
 20
10.8829472234
 30
0.0
 10
11.1623807773
 20
10.8860216649
 30
0.0
 10
11.1575713197
 20
10.8890687519
 30
0.0
 10
11.1524977833
 20
10.892086913
 30
0.0
 10
11.1471627425
 20
10.8950746942
 30
0.0
 10
11.1415688516
 20
10.898030594
 30
0.0
 10
11.1336425845
 20
10.9019902934
 30
0.0
 10
11.1230959782
 20
10.9068375462
 30
0.0
 10
11.1096493151
 20
10.9124149626
 30
0.0
 10
11.0952448629
 20
10.9178306303
 30
0.0
 10
11.0799116938
 20
10.9230735231
 30
0.0
 10
11.0636805599
 20
10.9281329634
 30
0.0
 10
11.0465842129
 20
10.9329986155
 30
0.0
 10
11.0286571976
 20
10.9376605259
 30
0.0
 10
11.0099357994
 20
10.9421091515
 30
0.0
 10
10.9904579521
 20
10.9463353815
 30
0.0
 10
10.9702631609
 20
10.9503305593
 30
0.0
 10
10.9493924155
 20
10.9540865098
 30
0.0
 10
10.9278880994
 20
10.9575955462
 30
0.0
 10
10.9057938962
 20
10.9608504878
 30
0.0
 10
10.8831546981
 20
10.9638446744
 30
0.0
 10
10.8600165165
 20
10.9665719773
 30
0.0
 10
10.8364263844
 20
10.9690268216
 30
0.0
 10
10.812432275
 20
10.9712041833
 30
0.0
 10
10.7880829357
 20
10.9730996425
 30
0.0
 10
10.7550620446
 20
10.9752553716
 30
0.0
 10
10.7132636643
 20
10.977212428
 30
0.0
 10
10.6627153723
 20
10.9783812909
 30
0.0
 10
10.611964316
 20
10.978371103
 30
0.0
 10
10.5614231387
 20
10.9771819257
 30
0.0
 10
10.5196352189
 20
10.9752080159
 30
0.0
 10
10.4866262185
 20
10.9730389192
 30
0.0
 10
10.4622883245
 20
10.9711336562
 30
0.0
 10
10.4383073617
 20
10.9689466295
 30
0.0
 10
10.4147320485
 20
10.9664822828
 30
0.0
 10
10.3916103239
 20
10.9637456645
 30
0.0
 10
10.3689891854
 20
10.9607423696
 30
0.0
 10
10.3469146107
 20
10.9574785409
 30
0.0
 10
10.3254314576
 20
10.9539608526
 30
0.0
 10
10.3045833658
 20
10.9501965035
 30
0.0
 10
10.2844126668
 20
10.9461932021
 30
0.0
 10
10.2649602954
 20
10.9419591454
 30
0.0
 10
10.246265705
 20
10.9375030021
 30
0.0
 10
10.2283667838
 20
10.9328338951
 30
0.0
 10
10.2112997563
 20
10.9279613775
 30
0.0
 10
10.1950991244
 20
10.9228954218
 30
0.0
 10
10.1797974867
 20
10.9176463773
 30
0.0
 10
10.1654258006
 20
10.9122249497
 30
0.0
 10
10.1540855731
 20
10.9075050953
 30
0.0
 10
10.1455099385
 20
10.9036423831
 30
0.0
 10
10.1394243329
 20
10.900752284
 30
0.0
 10
10.1335920245
 20
10.8978274298
 30
0.0
 10
10.1280159301
 20
10.8948692983
 30
0.0
 10
10.1226988571
 20
10.8918793757
 30
0.0
 10
10.1176434968
 20
10.8888591348
 30
0.0
 10
10.1128523686
 20
10.8858101525
 30
0.0
 10
10.1083278866
 20
10.8827338707
 30
0.0
 10
10.104072257
 20
10.8796318145
 30
0.0
 10
10.1000875871
 20
10.876505418
 30
0.0
 10
10.0963760753
 20
10.8733563841
 30
0.0
 10
10.0940387023
 20
10.8712002209
 30
0.0
 10
10.0929186209
 20
10.8701183053
 30
0.0
  0
SPLINE
  5
39B
100
AcDbEntity
  8
0
100
AcDbSpline
 62
7
  6
CONTINUOUS
 70
0
 71
3
 72
11
 73
7
 74
0
 42
0.0000001
 43
0.0000001
 44
0.0000000001
 40
0.0
 40
0.0
 40
0.0
 40
0.0
 40
0.2759151423
 40
0.5331028583
 40
0.7735888711
 40
1.0
 40
1.0
 40
1.0
 40
1.0
 10
10.1016889283
 20
10.8483366874
 30
0.0
 10
10.0998666654
 20
10.8465765165
 30
0.0
 10
10.0964723605
 20
10.843040085
 30
0.0
 10
10.0920302179
 20
10.8374829445
 30
0.0
 10
10.0884337945
 20
10.8318755551
 30
0.0
 10
10.0865572291
 20
10.8280058247
 30
0.0
 10
10.085779339
 20
10.8260778591
 30
0.0
  0
SPLINE
  5
39C
100
AcDbEntity
  8
0
100
AcDbSpline
 62
7
  6
CONTINUOUS
 70
0
 71
3
 72
18
 73
14
 74
0
 42
0.0000001
 43
0.0000001
 44
0.0000000001
 40
0.0
 40
0.0
 40
0.0
 40
0.0
 40
0.1483874372
 40
0.2881313926
 40
0.4199631025
 40
0.5448164204
 40
0.6638181664
 40
0.7215558082
 40
0.7783438291
 40
0.8343763079
 40
0.8898560265
 40
0.9449926394
 40
1.0
 40
1.0
 40
1.0
 40
1.0
 10
10.0929186209
 20
10.8701183053
 30
0.0
 10
10.0913340029
 20
10.8685876818
 30
0.0
 10
10.0883521279
 20
10.8655143756
 30
0.0
 10
10.0843559631
 20
10.8607196625
 30
0.0
 10
10.0809809853
 20
10.8558876396
 30
0.0
 10
10.0782327083
 20
10.85102338
 30
0.0
 10
10.076450857
 20
10.8469042447
 30
0.0
 10
10.0753576501
 20
10.8436120205
 30
0.0
 10
10.074704541
 20
10.8411637083
 30
0.0
 10
10.0742104742
 20
10.8387126061
 30
0.0
 10
10.073875677
 20
10.8362593698
 30
0.0
 10
10.0737002707
 20
10.8338049526
 30
0.0
 10
10.0736896456
 20
10.8321682989
 30
0.0
 10
10.0737108238
 20
10.8313518678
 30
0.0
  0
SPLINE
  5
39D
100
AcDbEntity
  8
0
100
AcDbSpline
 62
4
  6
CONTINUOUS
 70
0
 71
3
 72
332
 73
328
 74
0
 42
0.0000001
 43
0.0000001
 44
0.0000000001
 40
0.0
 40
0.0
 40
0.0
 40
0.0
 40
0.015625
 40
0.0234375
 40
0.03125
 40
0.0390625
 40
0.04296875
 40
0.046875
 40
0.05078125
 40
0.0546875
 40
0.056640625
 40
0.05859375
 40
0.060546875
 40
0.0615234375
 40
0.0620117188
 40
0.0625
 40
0.0629882812
 40
0.0634765625
 40
0.064453125
 40
0.06640625
 40
0.068359375
 40
0.0703125
 40
0.07421875
 40
0.078125
 40
0.08203125
 40
0.0859375
 40
0.09375
 40
0.1015625
 40
0.10546875
 40
0.109375
 40
0.11328125
 40
0.1171875
 40
0.119140625
 40
0.12109375
 40
0.123046875
 40
0.1240234375
 40
0.1245117188
 40
0.125
 40
0.1254882812
 40
0.1259765625
 40
0.126953125
 40
0.12890625
 40
0.130859375
 40
0.1328125
 40
0.13671875
 40
0.140625
 40
0.14453125
 40
0.1484375
 40
0.15625
 40
0.1640625
 40
0.16796875
 40
0.171875
 40
0.17578125
 40
0.1796875
 40
0.181640625
 40
0.18359375
 40
0.185546875
 40
0.1865234375
 40
0.1870117188
 40
0.1875
 40
0.1879882812
 40
0.1884765625
 40
0.189453125
 40
0.19140625
 40
0.193359375
 40
0.1953125
 40
0.19921875
 40
0.203125
 40
0.20703125
 40
0.2109375
 40
0.21875
 40
0.2265625
 40
0.23046875
 40
0.234375
 40
0.23828125
 40
0.2421875
 40
0.244140625
 40
0.24609375
 40
0.2470703125
 40
0.248046875
 40
0.2490234375
 40
0.2495117188
 40
0.25
 40
0.2504882812
 40
0.2509765625
 40
0.251953125
 40
0.2529296875
 40
0.25390625
 40
0.255859375
 40
0.2578125
 40
0.26171875
 40
0.265625
 40
0.26953125
 40
0.2734375
 40
0.28125
 40
0.2890625
 40
0.29296875
 40
0.296875
 40
0.30078125
 40
0.3046875
 40
0.306640625
 40
0.30859375
 40
0.310546875
 40
0.3115234375
 40
0.3120117188
 40
0.3125
 40
0.3129882812
 40
0.3134765625
 40
0.314453125
 40
0.31640625
 40
0.318359375
 40
0.3203125
 40
0.32421875
 40
0.328125
 40
0.33203125
 40
0.3359375
 40
0.34375
 40
0.3515625
 40
0.35546875
 40
0.359375
 40
0.36328125
 40
0.3671875
 40
0.369140625
 40
0.37109375
 40
0.373046875
 40
0.3740234375
 40
0.3745117188
 40
0.375
 40
0.3754882812
 40
0.3759765625
 40
0.376953125
 40
0.37890625
 40
0.380859375
 40
0.3828125
 40
0.38671875
 40
0.390625
 40
0.39453125
 40
0.3984375
 40
0.40625
 40
0.4140625
 40
0.41796875
 40
0.421875
 40
0.42578125
 40
0.4296875
 40
0.431640625
 40
0.43359375
 40
0.435546875
 40
0.4365234375
 40
0.4370117188
 40
0.4375
 40
0.4379882812
 40
0.4384765625
 40
0.439453125
 40
0.44140625
 40
0.443359375
 40
0.4453125
 40
0.44921875
 40
0.453125
 40
0.45703125
 40
0.4609375
 40
0.46875
 40
0.4765625
 40
0.48046875
 40
0.484375
 40
0.48828125
 40
0.4921875
 40
0.494140625
 40
0.49609375
 40
0.498046875
 40
0.4990234375
 40
0.4995117188
 40
0.5
 40
0.5004882812
 40
0.5009765625
 40
0.501953125
 40
0.50390625
 40
0.505859375
 40
0.5078125
 40
0.51171875
 40
0.515625
 40
0.51953125
 40
0.5234375
 40
0.53125
 40
0.5390625
 40
0.546875
 40
0.55078125
 40
0.5546875
 40
0.556640625
 40
0.55859375
 40
0.560546875
 40
0.5615234375
 40
0.5620117188
 40
0.5625
 40
0.5629882812
 40
0.5634765625
 40
0.564453125
 40
0.56640625
 40
0.568359375
 40
0.5703125
 40
0.57421875
 40
0.578125
 40
0.5859375
 40
0.59375
 40
0.6015625
 40
0.609375
 40
0.61328125
 40
0.6171875
 40
0.619140625
 40
0.62109375
 40
0.623046875
 40
0.6240234375
 40
0.6245117188
 40
0.625
 40
0.6254882812
 40
0.6259765625
 40
0.626953125
 40
0.62890625
 40
0.630859375
 40
0.6328125
 40
0.63671875
 40
0.640625
 40
0.6484375
 40
0.65625
 40
0.6640625
 40
0.671875
 40
0.67578125
 40
0.6796875
 40
0.681640625
 40
0.68359375
 40
0.685546875
 40
0.6865234375
 40
0.6870117188
 40
0.6875
 40
0.6879882812
 40
0.6884765625
 40
0.689453125
 40
0.69140625
 40
0.693359375
 40
0.6953125
 40
0.69921875
 40
0.703125
 40
0.7109375
 40
0.71875
 40
0.7265625
 40
0.734375
 40
0.73828125
 40
0.7421875
 40
0.744140625
 40
0.74609375
 40
0.748046875
 40
0.7490234375
 40
0.7495117188
 40
0.75
 40
0.7504882812
 40
0.7509765625
 40
0.751953125
 40
0.75390625
 40
0.755859375
 40
0.7578125
 40
0.76171875
 40
0.765625
 40
0.7734375
 40
0.78125
 40
0.7890625
 40
0.796875
 40
0.80078125
 40
0.8046875
 40
0.806640625
 40
0.80859375
 40
0.810546875
 40
0.8115234375
 40
0.8120117188
 40
0.8125
 40
0.8129882812
 40
0.8134765625
 40
0.814453125
 40
0.81640625
 40
0.818359375
 40
0.8203125
 40
0.82421875
 40
0.828125
 40
0.8359375
 40
0.84375
 40
0.8515625
 40
0.859375
 40
0.86328125
 40
0.8671875
 40
0.869140625
 40
0.87109375
 40
0.873046875
 40
0.8740234375
 40
0.8745117188
 40
0.875
 40
0.8754882812
 40
0.8759765625
 40
0.876953125
 40
0.87890625
 40
0.880859375
 40
0.8828125
 40
0.88671875
 40
0.890625
 40
0.8984375
 40
0.90625
 40
0.9140625
 40
0.921875
 40
0.92578125
 40
0.9296875
 40
0.931640625
 40
0.93359375
 40
0.935546875
 40
0.9365234375
 40
0.9370117188
 40
0.9375
 40
0.9379882812
 40
0.9384765625
 40
0.939453125
 40
0.94140625
 40
0.943359375
 40
0.9453125
 40
0.94921875
 40
0.953125
 40
0.95703125
 40
0.9609375
 40
0.96875
 40
0.9765625
 40
0.984375
 40
1.0
 40
1.0
 40
1.0
 40
1.0
 10
10.0134401805
 20
8.5733163555
 30
0.0
 10
10.0165733674
 20
8.5734062799
 30
0.0
 10
10.0212731478
 20
8.5735411666
 30
0.0
 10
10.0275395216
 20
8.5737210152
 30
0.0
 10
10.0322393019
 20
8.5738559024
 30
0.0
 10
10.0361557859
 20
8.5739683062
 30
0.0
 10
10.0392889721
 20
8.5740582341
 30
0.0
 10
10.0416388644
 20
8.574125667
 30
0.0
 10
10.0439887469
 20
8.5741931493
 30
0.0
 10
10.0459470125
 20
8.5742492307
 30
0.0
 10
10.0475135576
 20
8.5742944405
 30
0.0
 10
10.0486886504
 20
8.574327406
 30
0.0
 10
10.0496673092
 20
8.5743578731
 30
0.0
 10
10.0503535187
 20
8.5743733208
 30
0.0
 10
10.0507438454
 20
8.5743913281
 30
0.0
 10
10.0510416415
 20
8.5743789731
 30
0.0
 10
10.0513201296
 20
8.57446547
 30
0.0
 10
10.0516981819
 20
8.5745463186
 30
0.0
 10
10.0523566356
 20
8.5747038687
 30
0.0
 10
10.0532989241
 20
8.5749205412
 30
0.0
 10
10.0544289683
 20
8.5751841433
 30
0.0
 10
10.055935939
 20
8.575534357
 30
0.0
 10
10.0578195683
 20
8.575972555
 30
0.0
 10
10.0600799595
 20
8.5764982079
 30
0.0
 10
10.0623403411
 20
8.5770239102
 30
0.0
 10
10.0653541866
 20
8.5777248292
 30
0.0
 10
10.0691214921
 20
8.5786009846
 30
0.0
 10
10.0728887988
 20
8.5794771357
 30
0.0
 10
10.0759026423
 20
8.5801780615
 30
0.0
 10
10.0781630299
 20
8.5807037435
 30
0.0
 10
10.0804233985
 20
8.5812294727
 30
0.0
 10
10.0823070981
 20
8.5816674332
 30
0.0
 10
10.0838139256
 20
8.5820181313
 30
0.0
 10
10.0849444071
 20
8.5822802541
 30
0.0
 10
10.0858853271
 20
8.5825015548
 30
0.0
 10
10.086546224
 20
8.5826508428
 30
0.0
 10
10.0869203615
 20
8.5827449293
 30
0.0
 10
10.0872108746
 20
8.5827907636
 30
0.0
 10
10.0874635069
 20
8.5829311304
 30
0.0
 10
10.0878135633
 20
8.5830853121
 30
0.0
 10
10.0884200057
 20
8.5833704934
 30
0.0
 10
10.0892895705
 20
8.5837698631
 30
0.0
 10
10.0903316705
 20
8.5842525447
 30
0.0
 10
10.0917216186
 20
8.5848949193
 30
0.0
 10
10.0934588885
 20
8.5856982997
 30
0.0
 10
10.0955436831
 20
8.5866621794
 30
0.0
 10
10.0976284588
 20
8.5876261064
 30
0.0
 10
10.1004081664
 20
8.5889113259
 30
0.0
 10
10.1038827984
 20
8.5905178564
 30
0.0
 10
10.1073574323
 20
8.5921243828
 30
0.0
 10
10.1101371368
 20
8.5934096088
 30
0.0
 10
10.1122219216
 20
8.5943735161
 30
0.0
 10
10.1143066822
 20
8.5953374697
 30
0.0
 10
10.1160440582
 20
8.5961406202
 30
0.0
 10
10.1174337898
 20
8.5967834635
 30
0.0
 10
10.118476551
 20
8.5972647138
 30
0.0
 10
10.1193440471
 20
8.5976685619
 30
0.0
 10
10.1199541824
 20
8.5979457484
 30
0.0
 10
10.1202983218
 20
8.5981127398
 30
0.0
 10
10.1205691293
 20
8.5982137596
 30
0.0
 10
10.1207913794
 20
8.5984073746
 30
0.0
 10
10.1211046501
 20
8.5986332298
 30
0.0
 10
10.1216449825
 20
8.5990435246
 30
0.0
 10
10.1224210117
 20
8.5996217927
 30
0.0
 10
10.1233504807
 20
8.600319082
 30
0.0
 10
10.1245903896
 20
8.6012476246
 30
0.0
 10
10.126140064
 20
8.6024087066
 30
0.0
 10
10.1279997641
 20
8.6038018319
 30
0.0
 10
10.1298594399
 20
8.6051950035
 30
0.0
 10
10.1323390161
 20
8.6070525495
 30
0.0
 10
10.1354384836
 20
8.6093744875
 30
0.0
 10
10.1385379517
 20
8.6116964238
 30
0.0
 10
10.1410175269
 20
8.6135539724
 30
0.0
 10
10.1428772056
 20
8.6149471363
 30
0.0
 10
10.1447368948
 20
8.6163402906
 30
0.0
 10
10.1462866031
 20
8.6175012823
 30
0.0
 10
10.147526443
 20
8.6184300091
 30
0.0
 10
10.1483011761
 20
8.6190106148
 30
0.0
 10
10.1489213448
 20
8.6194747525
 30
0.0
 10
10.1493854246
 20
8.6198238053
 30
0.0
 10
10.1497754874
 20
8.6201116623
 30
0.0
 10
10.15008007
 20
8.6203487219
 30
0.0
 10
10.1503289121
 20
8.6205080069
 30
0.0
 10
10.1504998676
 20
8.6207379436
 30
0.0
 10
10.1507550151
 20
8.6210198463
 30
0.0
 10
10.1510646149
 20
8.6213806921
 30
0.0
 10
10.1514401302
 20
8.6218100827
 30
0.0
 10
10.1519394217
 20
8.6223838695
 30
0.0
 10
10.1525640139
 20
8.6231006695
 30
0.0
 10
10.1535630944
 20
8.6242477917
 30
0.0
 10
10.1548120367
 20
8.6256816113
 30
0.0
 10
10.1563107281
 20
8.6274022306
 30
0.0
 10
10.15780943
 20
8.6291228403
 30
0.0
 10
10.1598076956
 20
8.6314169898
 30
0.0
 10
10.1623055283
 20
8.634284676
 30
0.0
 10
10.1648033625
 20
8.6371523612
 30
0.0
 10
10.1668016259
 20
8.6394465122
 30
0.0
 10
10.1683003343
 20
8.6411671175
 30
0.0
 10
10.1697990014
 20
8.6428877533
 30
0.0
 10
10.1710480193
 20
8.6443215214
 30
0.0
 10
10.1720469455
 20
8.6454687487
 30
0.0
 10
10.1727969272
 20
8.6463285877
 30
0.0
 10
10.1734194085
 20
8.6470469698
 30
0.0
 10
10.1738600584
 20
8.6475462076
 30
0.0
 10
10.1741041871
 20
8.6478371538
 30
0.0
 10
10.1743088937
 20
8.6480393981
 30
0.0
 10
10.1744309955
 20
8.6483026701
 30
0.0
 10
10.1746226113
 20
8.6486324123
 30
0.0
 10
10.1749445143
 20
8.6492193793
 30
0.0
 10
10.1754113944
 20
8.6500527183
 30
0.0
 10
10.1759686463
 20
8.6510549446
 30
0.0
 10
10.1767126982
 20
8.652390471
 30
0.0
 10
10.177642403
 20
8.654060145
 30
0.0
 10
10.1787582032
 20
8.6560636398
 30
0.0
 10
10.179873962
 20
8.6580671651
 30
0.0
 10
10.1813616549
 20
8.6607385215
 30
0.0
 10
10.1832212656
 20
8.6640777209
 30
0.0
 10
10.1850808801
 20
8.667416918
 30
0.0
 10
10.1865685669
 20
8.6700882781
 30
0.0
 10
10.1876843441
 20
8.6720917923
 30
0.0
 10
10.1888000754
 20
8.6740953288
 30
0.0
 10
10.1897299943
 20
8.6757648731
 30
0.0
 10
10.1904736095
 20
8.677100664
 30
0.0
 10
10.1910321952
 20
8.6781020825
 30
0.0
 10
10.191494902
 20
8.6789379486
 30
0.0
 10
10.1918242551
 20
8.6795204043
 30
0.0
 10
10.1920039341
 20
8.6798573748
 30
0.0
 10
10.1921627019
 20
8.6800984439
 30
0.0
 10
10.1922296971
 20
8.6803840788
 30
0.0
 10
10.1923510353
 20
8.6807493802
 30
0.0
 10
10.1925484625
 20
8.6813959004
 30
0.0
 10
10.1928382989
 20
8.6823157141
 30
0.0
 10
10.1931827649
 20
8.6834211113
 30
0.0
 10
10.1936432188
 20
8.6848944081
 30
0.0
 10
10.1942183862
 20
8.6867362234
 30
0.0
 10
10.1949087585
 20
8.6889463185
 30
0.0
 10
10.195599085
 20
8.6911564358
 30
0.0
 10
10.1965195363
 20
8.6941032512
 30
0.0
 10
10.1976700944
 20
8.6977867732
 30
0.0
 10
10.1988206567
 20
8.7014702935
 30
0.0
 10
10.1997411014
 20
8.7044171116
 30
0.0
 10
10.2004314478
 20
8.7066272206
 30
0.0
 10
10.2011217454
 20
8.7088373472
 30
0.0
 10
10.2016971452
 20
8.7106790642
 30
0.0
 10
10.2021571252
 20
8.7121525616
 30
0.0
 10
10.2025030385
 20
8.7132573462
 30
0.0
 10
10.2027883468
 20
8.7141790765
 30
0.0
 10
10.2029938574
 20
8.7148221753
 30
0.0
 10
10.203102244
 20
8.7151929586
 30
0.0
 10
10.2032090222
 20
8.715461755
 30
0.0
 10
10.2032183715
 20
8.7157660664
 30
0.0
 10
10.2032648215
 20
8.7161594268
 30
0.0
 10
10.2033302751
 20
8.7168535794
 30
0.0
 10
10.2034320583
 20
8.7178422084
 30
0.0
 10
10.2035506549
 20
8.7190298548
 30
0.0
 10
10.2037100214
 20
8.7206129322
 30
0.0
 10
10.2039088048
 20
8.7225919337
 30
0.0
 10
10.204147527
 20
8.7249666692
 30
0.0
 10
10.2043862004
 20
8.7273414224
 30
0.0
 10
10.2047044488
 20
8.7305077539
 30
0.0
 10
10.2051022528
 20
8.7344656703
 30
0.0
 10
10.2055000611
 20
8.738423586
 30
0.0
 10
10.2058183025
 20
8.7415899186
 30
0.0
 10
10.2060569969
 20
8.7439646683
 30
0.0
 10
10.2062956406
 20
8.7463394171
 30
0.0
 10
10.206494668
 20
8.7483183773
 30
0.0
 10
10.206653537
 20
8.7499015389
 30
0.0
 10
10.2067736529
 20
8.7510889283
 30
0.0
 10
10.2068706827
 20
8.7520783614
 30
0.0
 10
10.206944622
 20
8.7527710785
 30
0.0
 10
10.2069774757
 20
8.7531667389
 30
0.0
 10
10.2070285884
 20
8.7534639854
 30
0.0
 10
10.2069785101
 20
8.7537593163
 30
0.0
 10
10.2069470355
 20
8.7541537589
 30
0.0
 10
10.2068755097
 20
8.7548437222
 30
0.0
 10
10.2067819278
 20
8.7558295469
 30
0.0
 10
10.2066659494
 20
8.7570124667
 30
0.0
 10
10.206512597
 20
8.7585897176
 30
0.0
 10
10.2063204655
 20
8.7605612728
 30
0.0
 10
10.2060900967
 20
8.7629271427
 30
0.0
 10
10.2058596773
 20
8.7652930116
 30
0.0
 10
10.2055524689
 20
8.7684475037
 30
0.0
 10
10.2051684544
 20
8.7723906191
 30
0.0
 10
10.20470763
 20
8.7771223563
 30
0.0
 10
10.2043236383
 20
8.7810654744
 30
0.0
 10
10.2040163799
 20
8.7842199605
 30
0.0
 10
10.2038244915
 20
8.7861915334
 30
0.0
 10
10.2036706416
 20
8.787768748
 30
0.0
 10
10.2035561831
 20
8.7889517785
 30
0.0
 10
10.2034578457
 20
8.7899372571
 30
0.0
 10
10.2033948092
 20
8.7906278382
 30
0.0
 10
10.2033497327
 20
8.7910212909
 30
0.0
 10
10.2033414354
 20
8.7913196625
 30
0.0
 10
10.2032356253
 20
8.7916054885
 30
0.0
 10
10.2031285588
 20
8.7919909659
 30
0.0
 10
10.2029253447
 20
8.7926635125
 30
0.0
 10
10.2026433243
 20
8.7936253593
 30
0.0
 10
10.2023013534
 20
8.7947791192
 30
0.0
 10
10.2018466308
 20
8.796317625
 30
0.0
 10
10.2012778035
 20
8.7982407028
 30
0.0
 10
10.2003679169
 20
8.8013176577
 30
0.0
 10
10.1992304768
 20
8.8051638407
 30
0.0
 10
10.1978655859
 20
8.8097792657
 30
0.0
 10
10.1965006769
 20
8.8143946864
 30
0.0
 10
10.1953632823
 20
8.81824088
 30
0.0
 10
10.1944533047
 20
8.8213178138
 30
0.0
 10
10.1938847085
 20
8.8232409452
 30
0.0
 10
10.1934295117
 20
8.8247793408
 30
0.0
 10
10.1930889897
 20
8.8259334376
 30
0.0
 10
10.192802436
 20
8.8268942301
 30
0.0
 10
10.1926073145
 20
8.8275686588
 30
0.0
 10
10.1924872816
 20
8.8279511206
 30
0.0
 10
10.1924213001
 20
8.8282462095
 30
0.0
 10
10.1922634132
 20
8.8285097914
 30
0.0
 10
10.192084955
 20
8.8288722239
 30
0.0
 10
10.1917577168
 20
8.8295013603
 30
0.0
 10
10.1912980426
 20
8.8304028036
 30
0.0
 10
10.1907430911
 20
8.8314833897
 30
0.0
 10
10.1900043232
 20
8.8329245714
 30
0.0
 10
10.1890804635
 20
8.8347259115
 30
0.0
 10
10.1876025116
 20
8.8376081323
 30
0.0
 10
10.1857549945
 20
8.8412108817
 30
0.0
 10
10.1835380092
 20
8.8455341934
 30
0.0
 10
10.1813210065
 20
8.849857498
 30
0.0
 10
10.1794735329
 20
8.8534602652
 30
0.0
 10
10.177995494
 20
8.8563424505
 30
0.0
 10
10.1770718553
 20
8.8581438807
 30
0.0
 10
10.1763326339
 20
8.8595848775
 30
0.0
 10
10.1757790679
 20
8.8606660287
 30
0.0
 10
10.1753150587
 20
8.861565704
 30
0.0
 10
10.1749955592
 20
8.8621979966
 30
0.0
 10
10.1748047017
 20
8.862555372
 30
0.0
 10
10.1746849013
 20
8.8628344877
 30
0.0
 10
10.1744758732
 20
8.8630712339
 30
0.0
 10
10.1742282926
 20
8.8634016744
 30
0.0
 10
10.1737805256
 20
8.8639730595
 30
0.0
 10
10.1731484397
 20
8.864792924
 30
0.0
 10
10.1723866916
 20
8.8657752204
 30
0.0
 10
10.1713721608
 20
8.8670854872
 30
0.0
 10
10.1701036093
 20
8.8687231364
 30
0.0
 10
10.1680741439
 20
8.8713434782
 30
0.0
 10
10.1655372373
 20
8.8746188697
 30
0.0
 10
10.162492983
 20
8.8785493565
 30
0.0
 10
10.1594487139
 20
8.8824798322
 30
0.0
 10
10.1569118443
 20
8.8857552515
 30
0.0
 10
10.1548823047
 20
8.8883755377
 30
0.0
 10
10.1536139417
 20
8.8900133281
 30
0.0
 10
10.1525990242
 20
8.8913233051
 30
0.0
 10
10.1518384576
 20
8.8923064867
 30
0.0
 10
10.151202675
 20
8.8931235818
 30
0.0
 10
10.1507615072
 20
8.8936999107
 30
0.0
 10
10.150503353
 20
8.8940224301
 30
0.0
 10
10.1503268037
 20
8.8942835075
 30
0.0
 10
10.1500850183
 20
8.8944712393
 30
0.0
 10
10.1497853928
 20
8.8947471321
 30
0.0
 10
10.1492504462
 20
8.8952180247
 30
0.0
 10
10.1484917796
 20
8.8958969602
 30
0.0
 10
10.1475790071
 20
8.8967090154
 30
0.0
 10
10.1463628059
 20
8.8977926874
 30
0.0
 10
10.1448422706
 20
8.8991469583
 30
0.0
 10
10.1424095727
 20
8.9013139701
 30
0.0
 10
10.1393686456
 20
8.9040226732
 30
0.0
 10
10.1357195579
 20
8.9072731453
 30
0.0
 10
10.1320704587
 20
8.9105236027
 30
0.0
 10
10.1290295605
 20
8.9132323424
 30
0.0
 10
10.1265968048
 20
8.9153992812
 30
0.0
 10
10.1250764165
 20
8.9167537376
 30
0.0
 10
10.1238599135
 20
8.9178370287
 30
0.0
 10
10.1229480631
 20
8.9186502475
 30
0.0
 10
10.1221865118
 20
8.9193255425
 30
0.0
 10
10.1216567148
 20
8.919802934
 30
0.0
 10
10.1213488382
 20
8.920068414
 30
0.0
 10
10.1211323975
 20
8.9202881308
 30
0.0
 10
10.1208606577
 20
8.9204290778
 30
0.0
 10
10.1205176268
 20
8.9206444829
 30
0.0
 10
10.1199083358
 20
8.9210086404
 30
0.0
 10
10.1190426186
 20
8.9215355582
 30
0.0
 10
10.1180017468
 20
8.9221649948
 30
0.0
 10
10.1166146201
 20
8.9230052442
 30
0.0
 10
10.1148804713
 20
8.9240552133
 30
0.0
 10
10.1121059677
 20
8.9257353555
 30
0.0
 10
10.1086377918
 20
8.927835467
 30
0.0
 10
10.1044760015
 20
8.9303556312
 30
0.0
 10
10.1003142022
 20
8.9328757794
 30
0.0
 10
10.0968460488
 20
8.9349759312
 30
0.0
 10
10.0940715002
 20
8.9366559928
 30
0.0
 10
10.0923374655
 20
8.9377061667
 30
0.0
 10
10.0909501048
 20
8.9385459957
 30
0.0
 10
10.0899099481
 20
8.9391767166
 30
0.0
 10
10.0890419932
 20
8.9396996162
 30
0.0
 10
10.0884366968
 20
8.9400709467
 30
0.0
 10
10.0880872655
 20
8.9402748589
 30
0.0
 10
10.0878351858
 20
8.9404511085
 30
0.0
 10
10.0875449049
 20
8.9405382347
 30
0.0
 10
10.0871711886
 20
8.9406854902
 30
0.0
 10
10.0865109768
 20
8.9409287033
 30
0.0
 10
10.0855710629
 20
8.9412837229
 30
0.0
 10
10.0844417769
 20
8.9417065052
 30
0.0
 10
10.0829365474
 20
8.9422713471
 30
0.0
 10
10.0810548445
 20
8.9429770118
 30
0.0
 10
10.0780442126
 20
8.944106292
 30
0.0
 10
10.0742808908
 20
8.9455178173
 30
0.0
 10
10.069764919
 20
8.9472116822
 30
0.0
 10
10.0652489407
 20
8.9489055293
 30
0.0
 10
10.061485635
 20
8.9503170989
 30
0.0
 10
10.058474971
 20
8.9514462906
 30
0.0
 10
10.0565933497
 20
8.9521521804
 30
0.0
 10
10.0550879526
 20
8.9527165601
 30
0.0
 10
10.0539591788
 20
8.9531407542
 30
0.0
 10
10.0530176623
 20
8.9534913569
 30
0.0
 10
10.0523603112
 20
8.9537424549
 30
0.0
 10
10.0519820114
 20
8.9538770767
 30
0.0
 10
10.0517058099
 20
8.9540030095
 30
0.0
 10
10.05140085
 20
8.9540335079
 30
0.0
 10
10.0510042681
 20
8.9541074609
 30
0.0
 10
10.0503055759
 20
8.9542213689
 30
0.0
 10
10.0493098878
 20
8.9543922034
 30
0.0
 10
10.0481140161
 20
8.954593734
 30
0.0
 10
10.046519886
 20
8.9548636538
 30
0.0
 10
10.0445270979
 20
8.9552006375
 30
0.0
 10
10.0421358059
 20
8.9556051963
 30
0.0
 10
10.0397444995
 20
8.9560097074
 30
0.0
 10
10.0365560961
 20
8.9565490723
 30
0.0
 10
10.0325705901
 20
8.9572232726
 30
0.0
 10
10.0277879836
 20
8.9580323154
 30
0.0
 10
10.0214111746
 20
8.9591110383
 30
0.0
 10
10.016628568
 20
8.9599200806
 30
0.0
 10
10.0134401636
 20
8.9604594421
 30
0.0
  0
SPLINE
  5
39E
100
AcDbEntity
  8
0
100
AcDbSpline
 62
4
  6
CONTINUOUS
 70
0
 71
3
 72
332
 73
328
 74
0
 42
0.0000001
 43
0.0000001
 44
0.0000000001
 40
0.0
 40
0.0
 40
0.0
 40
0.0
 40
0.015625
 40
0.0234375
 40
0.03125
 40
0.0390625
 40
0.04296875
 40
0.046875
 40
0.05078125
 40
0.0546875
 40
0.056640625
 40
0.05859375
 40
0.060546875
 40
0.0615234375
 40
0.0620117188
 40
0.0625
 40
0.0629882812
 40
0.0634765625
 40
0.064453125
 40
0.06640625
 40
0.068359375
 40
0.0703125
 40
0.07421875
 40
0.078125
 40
0.08203125
 40
0.0859375
 40
0.09375
 40
0.1015625
 40
0.10546875
 40
0.109375
 40
0.11328125
 40
0.1171875
 40
0.119140625
 40
0.12109375
 40
0.123046875
 40
0.1240234375
 40
0.1245117188
 40
0.125
 40
0.1254882812
 40
0.1259765625
 40
0.126953125
 40
0.12890625
 40
0.130859375
 40
0.1328125
 40
0.13671875
 40
0.140625
 40
0.14453125
 40
0.1484375
 40
0.15625
 40
0.1640625
 40
0.16796875
 40
0.171875
 40
0.17578125
 40
0.1796875
 40
0.181640625
 40
0.18359375
 40
0.185546875
 40
0.1865234375
 40
0.1870117188
 40
0.1875
 40
0.1879882812
 40
0.1884765625
 40
0.189453125
 40
0.19140625
 40
0.193359375
 40
0.1953125
 40
0.19921875
 40
0.203125
 40
0.20703125
 40
0.2109375
 40
0.21875
 40
0.2265625
 40
0.23046875
 40
0.234375
 40
0.23828125
 40
0.2421875
 40
0.244140625
 40
0.24609375
 40
0.2470703125
 40
0.248046875
 40
0.2490234375
 40
0.2495117188
 40
0.25
 40
0.2504882812
 40
0.2509765625
 40
0.251953125
 40
0.2529296875
 40
0.25390625
 40
0.255859375
 40
0.2578125
 40
0.26171875
 40
0.265625
 40
0.26953125
 40
0.2734375
 40
0.28125
 40
0.2890625
 40
0.29296875
 40
0.296875
 40
0.30078125
 40
0.3046875
 40
0.306640625
 40
0.30859375
 40
0.310546875
 40
0.3115234375
 40
0.3120117188
 40
0.3125
 40
0.3129882812
 40
0.3134765625
 40
0.314453125
 40
0.31640625
 40
0.318359375
 40
0.3203125
 40
0.32421875
 40
0.328125
 40
0.33203125
 40
0.3359375
 40
0.34375
 40
0.3515625
 40
0.35546875
 40
0.359375
 40
0.36328125
 40
0.3671875
 40
0.369140625
 40
0.37109375
 40
0.373046875
 40
0.3740234375
 40
0.3745117188
 40
0.375
 40
0.3754882812
 40
0.3759765625
 40
0.376953125
 40
0.37890625
 40
0.380859375
 40
0.3828125
 40
0.38671875
 40
0.390625
 40
0.39453125
 40
0.3984375
 40
0.40625
 40
0.4140625
 40
0.41796875
 40
0.421875
 40
0.42578125
 40
0.4296875
 40
0.431640625
 40
0.43359375
 40
0.435546875
 40
0.4365234375
 40
0.4370117188
 40
0.4375
 40
0.4379882812
 40
0.4384765625
 40
0.439453125
 40
0.44140625
 40
0.443359375
 40
0.4453125
 40
0.44921875
 40
0.453125
 40
0.45703125
 40
0.4609375
 40
0.46875
 40
0.4765625
 40
0.48046875
 40
0.484375
 40
0.48828125
 40
0.4921875
 40
0.494140625
 40
0.49609375
 40
0.498046875
 40
0.4990234375
 40
0.4995117188
 40
0.5
 40
0.5004882812
 40
0.5009765625
 40
0.501953125
 40
0.50390625
 40
0.505859375
 40
0.5078125
 40
0.51171875
 40
0.515625
 40
0.51953125
 40
0.5234375
 40
0.53125
 40
0.5390625
 40
0.546875
 40
0.55078125
 40
0.5546875
 40
0.556640625
 40
0.55859375
 40
0.560546875
 40
0.5615234375
 40
0.5620117188
 40
0.5625
 40
0.5629882812
 40
0.5634765625
 40
0.564453125
 40
0.56640625
 40
0.568359375
 40
0.5703125
 40
0.57421875
 40
0.578125
 40
0.5859375
 40
0.59375
 40
0.6015625
 40
0.609375
 40
0.61328125
 40
0.6171875
 40
0.619140625
 40
0.62109375
 40
0.623046875
 40
0.6240234375
 40
0.6245117188
 40
0.625
 40
0.6254882812
 40
0.6259765625
 40
0.626953125
 40
0.62890625
 40
0.630859375
 40
0.6328125
 40
0.63671875
 40
0.640625
 40
0.6484375
 40
0.65625
 40
0.6640625
 40
0.671875
 40
0.67578125
 40
0.6796875
 40
0.681640625
 40
0.68359375
 40
0.685546875
 40
0.6865234375
 40
0.6870117188
 40
0.6875
 40
0.6879882812
 40
0.6884765625
 40
0.689453125
 40
0.69140625
 40
0.693359375
 40
0.6953125
 40
0.69921875
 40
0.703125
 40
0.7109375
 40
0.71875
 40
0.7265625
 40
0.734375
 40
0.73828125
 40
0.7421875
 40
0.744140625
 40
0.74609375
 40
0.748046875
 40
0.7490234375
 40
0.7495117188
 40
0.75
 40
0.7504882812
 40
0.7509765625
 40
0.751953125
 40
0.75390625
 40
0.755859375
 40
0.7578125
 40
0.76171875
 40
0.765625
 40
0.7734375
 40
0.78125
 40
0.7890625
 40
0.796875
 40
0.80078125
 40
0.8046875
 40
0.806640625
 40
0.80859375
 40
0.810546875
 40
0.8115234375
 40
0.8120117188
 40
0.8125
 40
0.8129882812
 40
0.8134765625
 40
0.814453125
 40
0.81640625
 40
0.818359375
 40
0.8203125
 40
0.82421875
 40
0.828125
 40
0.8359375
 40
0.84375
 40
0.8515625
 40
0.859375
 40
0.86328125
 40
0.8671875
 40
0.869140625
 40
0.87109375
 40
0.873046875
 40
0.8740234375
 40
0.8745117188
 40
0.875
 40
0.8754882812
 40
0.8759765625
 40
0.876953125
 40
0.87890625
 40
0.880859375
 40
0.8828125
 40
0.88671875
 40
0.890625
 40
0.8984375
 40
0.90625
 40
0.9140625
 40
0.921875
 40
0.92578125
 40
0.9296875
 40
0.931640625
 40
0.93359375
 40
0.935546875
 40
0.9365234375
 40
0.9370117188
 40
0.9375
 40
0.9379882812
 40
0.9384765625
 40
0.939453125
 40
0.94140625
 40
0.943359375
 40
0.9453125
 40
0.94921875
 40
0.953125
 40
0.95703125
 40
0.9609375
 40
0.96875
 40
0.9765625
 40
0.984375
 40
1.0
 40
1.0
 40
1.0
 40
1.0
 10
10.0134401805
 20
8.960459441
 30
0.0
 10
10.0103069936
 20
8.9603695166
 30
0.0
 10
10.0056072132
 20
8.9602346299
 30
0.0
 10
9.9993408393
 20
8.9600547812
 30
0.0
 10
9.9946410591
 20
8.9599198941
 30
0.0
 10
9.9907245751
 20
8.9598074902
 30
0.0
 10
9.9875913888
 20
8.9597175624
 30
0.0
 10
9.9852414966
 20
8.9596501295
 30
0.0
 10
9.9828916141
 20
8.9595826472
 30
0.0
 10
9.9809333485
 20
8.9595265658
 30
0.0
 10
9.9793668034
 20
8.959481356
 30
0.0
 10
9.9781917106
 20
8.9594483905
 30
0.0
 10
9.9772130518
 20
8.9594179234
 30
0.0
 10
9.9765268423
 20
8.9594024757
 30
0.0
 10
9.9761365156
 20
8.9593844683
 30
0.0
 10
9.9758387195
 20
8.9593968233
 30
0.0
 10
9.9755602314
 20
8.9593103264
 30
0.0
 10
9.9751821791
 20
8.9592294779
 30
0.0
 10
9.9745237254
 20
8.9590719278
 30
0.0
 10
9.9735814368
 20
8.9588552553
 30
0.0
 10
9.9724513927
 20
8.9585916532
 30
0.0
 10
9.970944422
 20
8.9582414395
 30
0.0
 10
9.9690607927
 20
8.9578032415
 30
0.0
 10
9.9668004015
 20
8.9572775886
 30
0.0
 10
9.9645400199
 20
8.9567518863
 30
0.0
 10
9.9615261744
 20
8.9560509672
 30
0.0
 10
9.9577588689
 20
8.9551748119
 30
0.0
 10
9.9539915622
 20
8.9542986608
 30
0.0
 10
9.9509777187
 20
8.9535977349
 30
0.0
 10
9.9487173311
 20
8.953072053
 30
0.0
 10
9.9464569625
 20
8.9525463237
 30
0.0
 10
9.9445732629
 20
8.9521083633
 30
0.0
 10
9.9430664354
 20
8.9517576652
 30
0.0
 10
9.9419359538
 20
8.9514955424
 30
0.0
 10
9.9409950339
 20
8.9512742417
 30
0.0
 10
9.940334137
 20
8.9511249536
 30
0.0
 10
9.9399599995
 20
8.9510308672
 30
0.0
 10
9.9396694864
 20
8.9509850329
 30
0.0
 10
9.939416854
 20
8.9508446661
 30
0.0
 10
9.9390667977
 20
8.9506904843
 30
0.0
 10
9.9384603553
 20
8.9504053031
 30
0.0
 10
9.9375907905
 20
8.9500059334
 30
0.0
 10
9.9365486905
 20
8.9495232517
 30
0.0
 10
9.9351587424
 20
8.9488808771
 30
0.0
 10
9.9334214725
 20
8.9480774968
 30
0.0
 10
9.9313366779
 20
8.9471136171
 30
0.0
 10
9.9292519022
 20
8.94614969
 30
0.0
 10
9.9264721946
 20
8.9448644706
 30
0.0
 10
9.9229975626
 20
8.9432579401
 30
0.0
 10
9.9195229287
 20
8.9416514137
 30
0.0
 10
9.9167432242
 20
8.9403661877
 30
0.0
 10
9.9146584393
 20
8.9394022804
 30
0.0
 10
9.9125736788
 20
8.9384383267
 30
0.0
 10
9.9108363028
 20
8.9376351762
 30
0.0
 10
9.9094465712
 20
8.9369923329
 30
0.0
 10
9.90840381
 20
8.9365110827
 30
0.0
 10
9.9075363138
 20
8.9361072345
 30
0.0
 10
9.9069261786
 20
8.9358300481
 30
0.0
 10
9.9065820392
 20
8.9356630567
 30
0.0
 10
9.9063112316
 20
8.9355620369
 30
0.0
 10
9.9060889816
 20
8.9353684218
 30
0.0
 10
9.9057757109
 20
8.9351425667
 30
0.0
 10
9.9052353785
 20
8.9347322718
 30
0.0
 10
9.9044593493
 20
8.9341540037
 30
0.0
 10
9.9035298803
 20
8.9334567145
 30
0.0
 10
9.9022899714
 20
8.9325281718
 30
0.0
 10
9.900740297
 20
8.9313670899
 30
0.0
 10
9.8988805969
 20
8.9299739646
 30
0.0
 10
9.8970209211
 20
8.9285807929
 30
0.0
 10
9.8945413449
 20
8.9267232469
 30
0.0
 10
9.8914418774
 20
8.924401309
 30
0.0
 10
9.8883424093
 20
8.9220793727
 30
0.0
 10
9.8858628341
 20
8.9202218241
 30
0.0
 10
9.8840031554
 20
8.9188286602
 30
0.0
 10
9.8821434662
 20
8.9174355059
 30
0.0
 10
9.8805937579
 20
8.9162745142
 30
0.0
 10
9.879353918
 20
8.9153457874
 30
0.0
 10
9.8785791849
 20
8.9147651817
 30
0.0
 10
9.8779590162
 20
8.9143010439
 30
0.0
 10
9.8774949364
 20
8.9139519912
 30
0.0
 10
9.8771048736
 20
8.9136641341
 30
0.0
 10
9.8768002909
 20
8.9134270746
 30
0.0
 10
9.8765514489
 20
8.9132677896
 30
0.0
 10
9.8763804934
 20
8.9130378529
 30
0.0
 10
9.8761253459
 20
8.9127559502
 30
0.0
 10
9.875815746
 20
8.9123951044
 30
0.0
 10
9.8754402308
 20
8.9119657137
 30
0.0
 10
9.8749409393
 20
8.911391927
 30
0.0
 10
9.8743163471
 20
8.910675127
 30
0.0
 10
9.8733172666
 20
8.9095280048
 30
0.0
 10
9.8720683243
 20
8.9080941851
 30
0.0
 10
9.8705696329
 20
8.9063735659
 30
0.0
 10
9.869070931
 20
8.9046529562
 30
0.0
 10
9.8670726654
 20
8.9023588067
 30
0.0
 10
9.8645748327
 20
8.8994911205
 30
0.0
 10
9.8620769985
 20
8.8966234353
 30
0.0
 10
9.8600787351
 20
8.8943292843
 30
0.0
 10
9.8585800267
 20
8.892608679
 30
0.0
 10
9.8570813596
 20
8.8908880432
 30
0.0
 10
9.8558323417
 20
8.8894542751
 30
0.0
 10
9.8548334155
 20
8.8883070477
 30
0.0
 10
9.8540834338
 20
8.8874472087
 30
0.0
 10
9.8534609525
 20
8.8867288266
 30
0.0
 10
9.8530203026
 20
8.8862295889
 30
0.0
 10
9.8527761739
 20
8.8859386427
 30
0.0
 10
9.8525714673
 20
8.8857363984
 30
0.0
 10
9.8524493655
 20
8.8854731264
 30
0.0
 10
9.8522577497
 20
8.8851433841
 30
0.0
 10
9.8519358466
 20
8.8845564171
 30
0.0
 10
9.8514689666
 20
8.8837230781
 30
0.0
 10
9.8509117147
 20
8.8827208519
 30
0.0
 10
9.8501676628
 20
8.8813853255
 30
0.0
 10
9.849237958
 20
8.8797156514
 30
0.0
 10
9.8481221578
 20
8.8777121567
 30
0.0
 10
9.847006399
 20
8.8757086313
 30
0.0
 10
9.8455187061
 20
8.873037275
 30
0.0
 10
9.8436590954
 20
8.8696980756
 30
0.0
 10
9.8417994809
 20
8.8663588785
 30
0.0
 10
9.8403117941
 20
8.8636875184
 30
0.0
 10
9.8391960169
 20
8.8616840042
 30
0.0
 10
9.8380802856
 20
8.8596804677
 30
0.0
 10
9.8371503667
 20
8.8580109234
 30
0.0
 10
9.8364067515
 20
8.8566751325
 30
0.0
 10
9.8358481658
 20
8.8556737139
 30
0.0
 10
9.835385459
 20
8.8548378478
 30
0.0
 10
9.8350561059
 20
8.8542553922
 30
0.0
 10
9.8348764269
 20
8.8539184217
 30
0.0
 10
9.8347176591
 20
8.8536773525
 30
0.0
 10
9.8346506639
 20
8.8533917177
 30
0.0
 10
9.8345293257
 20
8.8530264163
 30
0.0
 10
9.8343318985
 20
8.8523798961
 30
0.0
 10
9.8340420621
 20
8.8514600824
 30
0.0
 10
9.8336975961
 20
8.8503546852
 30
0.0
 10
9.8332371422
 20
8.8488813883
 30
0.0
 10
9.8326619748
 20
8.847039573
 30
0.0
 10
9.8319716025
 20
8.844829478
 30
0.0
 10
9.831281276
 20
8.8426193606
 30
0.0
 10
9.8303608247
 20
8.8396725453
 30
0.0
 10
9.8292102665
 20
8.8359890233
 30
0.0
 10
9.8280597043
 20
8.832305503
 30
0.0
 10
9.8271392596
 20
8.8293586848
 30
0.0
 10
9.8264489132
 20
8.8271485759
 30
0.0
 10
9.8257586156
 20
8.8249384492
 30
0.0
 10
9.8251832158
 20
8.8230967323
 30
0.0
 10
9.8247232358
 20
8.8216232349
 30
0.0
 10
9.8243773225
 20
8.8205184502
 30
0.0
 10
9.8240920142
 20
8.81959672
 30
0.0
 10
9.8238865036
 20
8.8189536211
 30
0.0
 10
9.823778117
 20
8.8185828379
 30
0.0
 10
9.8236713388
 20
8.8183140414
 30
0.0
 10
9.8236619895
 20
8.8180097301
 30
0.0
 10
9.8236155395
 20
8.8176163697
 30
0.0
 10
9.8235500859
 20
8.8169222171
 30
0.0
 10
9.8234483027
 20
8.8159335881
 30
0.0
 10
9.8233297061
 20
8.8147459416
 30
0.0
 10
9.8231703396
 20
8.8131628643
 30
0.0
 10
9.8229715562
 20
8.8111838627
 30
0.0
 10
9.822732834
 20
8.8088091273
 30
0.0
 10
9.8224941606
 20
8.806434374
 30
0.0
 10
9.8221759122
 20
8.8032680426
 30
0.0
 10
9.8217781082
 20
8.7993101262
 30
0.0
 10
9.8213802999
 20
8.7953522105
 30
0.0
 10
9.8210620585
 20
8.7921858778
 30
0.0
 10
9.8208233641
 20
8.7898111282
 30
0.0
 10
9.8205847204
 20
8.7874363794
 30
0.0
 10
9.820385693
 20
8.7854574191
 30
0.0
 10
9.820226824
 20
8.7838742576
 30
0.0
 10
9.8201067081
 20
8.7826868682
 30
0.0
 10
9.8200096783
 20
8.7816974351
 30
0.0
 10
9.819935739
 20
8.781004718
 30
0.0
 10
9.8199028853
 20
8.7806090575
 30
0.0
 10
9.8198517726
 20
8.780311811
 30
0.0
 10
9.8199018509
 20
8.7800164802
 30
0.0
 10
9.8199333255
 20
8.7796220376
 30
0.0
 10
9.8200048513
 20
8.7789320742
 30
0.0
 10
9.8200984332
 20
8.7779462496
 30
0.0
 10
9.8202144116
 20
8.7767633297
 30
0.0
 10
9.8203677639
 20
8.7751860789
 30
0.0
 10
9.8205598955
 20
8.7732145236
 30
0.0
 10
9.8207902643
 20
8.7708486538
 30
0.0
 10
9.8210206837
 20
8.7684827849
 30
0.0
 10
9.8213278921
 20
8.7653282928
 30
0.0
 10
9.8217119066
 20
8.7613851774
 30
0.0
 10
9.8221727309
 20
8.7566534402
 30
0.0
 10
9.8225567227
 20
8.7527103221
 30
0.0
 10
9.8228639811
 20
8.749555836
 30
0.0
 10
9.8230558695
 20
8.7475842631
 30
0.0
 10
9.8232097194
 20
8.7460070484
 30
0.0
 10
9.8233241779
 20
8.7448240179
 30
0.0
 10
9.8234225153
 20
8.7438385394
 30
0.0
 10
9.8234855517
 20
8.7431479583
 30
0.0
 10
9.8235306283
 20
8.7427545055
 30
0.0
 10
9.8235389256
 20
8.742456134
 30
0.0
 10
9.8236447357
 20
8.7421703079
 30
0.0
 10
9.8237518022
 20
8.7417848305
 30
0.0
 10
9.8239550162
 20
8.7411122839
 30
0.0
 10
9.8242370367
 20
8.7401504372
 30
0.0
 10
9.8245790076
 20
8.7389966773
 30
0.0
 10
9.8250337302
 20
8.7374581714
 30
0.0
 10
9.8256025575
 20
8.7355350937
 30
0.0
 10
9.8265124441
 20
8.7324581388
 30
0.0
 10
9.8276498842
 20
8.7286119557
 30
0.0
 10
9.8290147751
 20
8.7239965308
 30
0.0
 10
9.8303796841
 20
8.7193811101
 30
0.0
 10
9.8315170787
 20
8.7155349165
 30
0.0
 10
9.8324270562
 20
8.7124579827
 30
0.0
 10
9.8329956525
 20
8.7105348512
 30
0.0
 10
9.8334508493
 20
8.7089964557
 30
0.0
 10
9.8337913713
 20
8.7078423588
 30
0.0
 10
9.834077925
 20
8.7068815663
 30
0.0
 10
9.8342730464
 20
8.7062071377
 30
0.0
 10
9.8343930794
 20
8.7058246758
 30
0.0
 10
9.8344590609
 20
8.705529587
 30
0.0
 10
9.8346169478
 20
8.7052660051
 30
0.0
 10
9.834795406
 20
8.7049035726
 30
0.0
 10
9.8351226442
 20
8.7042744362
 30
0.0
 10
9.8355823184
 20
8.7033729929
 30
0.0
 10
9.8361372699
 20
8.7022924068
 30
0.0
 10
9.8368760378
 20
8.7008512251
 30
0.0
 10
9.8377998975
 20
8.699049885
 30
0.0
 10
9.8392778494
 20
8.6961676642
 30
0.0
 10
9.8411253665
 20
8.6925649148
 30
0.0
 10
9.8433423518
 20
8.6882416031
 30
0.0
 10
9.8455593545
 20
8.6839182984
 30
0.0
 10
9.8474068281
 20
8.6803155313
 30
0.0
 10
9.848884867
 20
8.6774333459
 30
0.0
 10
9.8498085057
 20
8.6756319157
 30
0.0
 10
9.8505477271
 20
8.674190919
 30
0.0
 10
9.8511012931
 20
8.6731097678
 30
0.0
 10
9.8515653023
 20
8.6722100925
 30
0.0
 10
9.8518848018
 20
8.6715777999
 30
0.0
 10
9.8520756593
 20
8.6712204245
 30
0.0
 10
9.8521954597
 20
8.6709413088
 30
0.0
 10
9.8524044878
 20
8.6707045626
 30
0.0
 10
9.8526520684
 20
8.6703741221
 30
0.0
 10
9.8530998354
 20
8.6698027369
 30
0.0
 10
9.8537319213
 20
8.6689828725
 30
0.0
 10
9.8544936694
 20
8.668000576
 30
0.0
 10
9.8555082001
 20
8.6666903092
 30
0.0
 10
9.8567767516
 20
8.66505266
 30
0.0
 10
9.8588062171
 20
8.6624323183
 30
0.0
 10
9.8613431237
 20
8.6591569268
 30
0.0
 10
9.864387378
 20
8.65522644
 30
0.0
 10
9.8674316471
 20
8.6512959642
 30
0.0
 10
9.8699685167
 20
8.648020545
 30
0.0
 10
9.8719980563
 20
8.6454002588
 30
0.0
 10
9.8732664193
 20
8.6437624684
 30
0.0
 10
9.8742813368
 20
8.6424524913
 30
0.0
 10
9.8750419034
 20
8.6414693098
 30
0.0
 10
9.875677686
 20
8.6406522147
 30
0.0
 10
9.8761188538
 20
8.6400758858
 30
0.0
 10
9.876377008
 20
8.6397533664
 30
0.0
 10
9.8765535573
 20
8.639492289
 30
0.0
 10
9.8767953427
 20
8.6393045572
 30
0.0
 10
9.8770949682
 20
8.6390286643
 30
0.0
 10
9.8776299148
 20
8.6385577718
 30
0.0
 10
9.8783885814
 20
8.6378788362
 30
0.0
 10
9.8793013539
 20
8.637066781
 30
0.0
 10
9.8805175551
 20
8.6359831091
 30
0.0
 10
9.8820380904
 20
8.6346288382
 30
0.0
 10
9.8844707883
 20
8.6324618264
 30
0.0
 10
9.8875117154
 20
8.6297531232
 30
0.0
 10
9.8911608031
 20
8.6265026512
 30
0.0
 10
9.8948099023
 20
8.6232521937
 30
0.0
 10
9.8978508005
 20
8.6205434541
 30
0.0
 10
9.9002835562
 20
8.6183765153
 30
0.0
 10
9.9018039444
 20
8.6170220588
 30
0.0
 10
9.9030204475
 20
8.6159387677
 30
0.0
 10
9.9039322979
 20
8.615125549
 30
0.0
 10
9.9046938492
 20
8.614450254
 30
0.0
 10
9.9052236462
 20
8.6139728625
 30
0.0
 10
9.9055315227
 20
8.6137073825
 30
0.0
 10
9.9057479635
 20
8.6134876657
 30
0.0
 10
9.9060197033
 20
8.6133467187
 30
0.0
 10
9.9063627341
 20
8.6131313135
 30
0.0
 10
9.9069720252
 20
8.612767156
 30
0.0
 10
9.9078377424
 20
8.6122402383
 30
0.0
 10
9.9088786142
 20
8.6116108017
 30
0.0
 10
9.9102657409
 20
8.6107705523
 30
0.0
 10
9.9119998897
 20
8.6097205831
 30
0.0
 10
9.9147743933
 20
8.608040441
 30
0.0
 10
9.9182425692
 20
8.6059403295
 30
0.0
 10
9.9224043595
 20
8.6034201652
 30
0.0
 10
9.9265661588
 20
8.6009000171
 30
0.0
 10
9.9300343122
 20
8.5987998653
 30
0.0
 10
9.9328088608
 20
8.5971198037
 30
0.0
 10
9.9345428955
 20
8.5960696298
 30
0.0
 10
9.9359302562
 20
8.5952298007
 30
0.0
 10
9.9369704128
 20
8.5945990799
 30
0.0
 10
9.9378383678
 20
8.5940761802
 30
0.0
 10
9.9384436642
 20
8.5937048497
 30
0.0
 10
9.9387930954
 20
8.5935009375
 30
0.0
 10
9.9390451751
 20
8.5933246879
 30
0.0
 10
9.9393354561
 20
8.5932375617
 30
0.0
 10
9.9397091724
 20
8.5930903062
 30
0.0
 10
9.9403693842
 20
8.5928470932
 30
0.0
 10
9.9413092981
 20
8.5924920736
 30
0.0
 10
9.9424385841
 20
8.5920692912
 30
0.0
 10
9.9439438136
 20
8.5915044494
 30
0.0
 10
9.9458255165
 20
8.5907987847
 30
0.0
 10
9.9488361484
 20
8.5896695045
 30
0.0
 10
9.9525994702
 20
8.5882579791
 30
0.0
 10
9.957115442
 20
8.5865641143
 30
0.0
 10
9.9616314203
 20
8.5848702672
 30
0.0
 10
9.965394726
 20
8.5834586975
 30
0.0
 10
9.96840539
 20
8.5823295059
 30
0.0
 10
9.9702870113
 20
8.5816236161
 30
0.0
 10
9.9717924084
 20
8.5810592363
 30
0.0
 10
9.9729211822
 20
8.5806350423
 30
0.0
 10
9.9738626987
 20
8.5802844396
 30
0.0
 10
9.9745200497
 20
8.5800333416
 30
0.0
 10
9.9748983496
 20
8.5798987198
 30
0.0
 10
9.9751745511
 20
8.5797727869
 30
0.0
 10
9.975479511
 20
8.5797422886
 30
0.0
 10
9.9758760929
 20
8.5796683356
 30
0.0
 10
9.9765747851
 20
8.5795544275
 30
0.0
 10
9.9775704732
 20
8.5793835931
 30
0.0
 10
9.9787663448
 20
8.5791820625
 30
0.0
 10
9.980360475
 20
8.5789121427
 30
0.0
 10
9.9823532631
 20
8.578575159
 30
0.0
 10
9.9847445551
 20
8.5781706001
 30
0.0
 10
9.9871358614
 20
8.577766089
 30
0.0
 10
9.9903242649
 20
8.5772267242
 30
0.0
 10
9.9943097709
 20
8.5765525239
 30
0.0
 10
9.9990923774
 20
8.5757434811
 30
0.0
 10
10.0054691863
 20
8.5746647582
 30
0.0
 10
10.010251793
 20
8.5738557159
 30
0.0
 10
10.0134401974
 20
8.5733163543
 30
0.0
  0
ENDSEC
  0
SECTION
  2
OBJECTS
  0
DICTIONARY
  5
C
100
AcDbDictionary
280
0
281
1
  3
ACAD_GROUP
350
D
  3
ACAD_MLINESTYLE
350
17
  3
ACAD_LAYOUT
350
1A
  3
ACAD_PLOTSETTINGS
350
19
  3
ACAD_PLOTSTYLENAME
350
E
  3
ACAD_IMAGE_DICT
350
       3A0
  3
ACAD_IMAGE_VARS
350
       3A1
  3
ACAD_TABLESTYLE
350
       3A2
  0
IMAGEDEF_REACTOR
  5
39F
100
AcDbRasterImageDefReactor
 90
2
330
28F
  0
DICTIONARY
  5
D
102
{ACAD_REACTORS
330
C
102
}
100
AcDbDictionary
280
0
281
1
  0
ACDBDICTIONARYWDFLT
  5
E
102
{ACAD_REACTORS
330
C
102
}
100
AcDbDictionary
281
1
  3
Normal
350
F
100
AcDbDictionaryWithDefault
340
F
  0
DICTIONARY
  5
3A0
330
C
100
AcDbDictionary
281
1
  3
N4V_assy_2_img_1
350
       3A5
  0
RASTERVARIABLES
  5
3A1
330
C
100
AcDbRasterVariables
 90
0
 70
0
 71
1
 72
5
  0
DICTIONARY
  5
17
102
{ACAD_REACTORS
330
C
102
}
100
AcDbDictionary
280
0
281
1
  3
Standard
350
18
  0
DICTIONARY
  5
3A2
330
C
100
AcDbDictionary
281
1
  3
Standard
350
       3A6
  3
Standard1
350
       3A7
  0
DICTIONARY
  5
19
102
{ACAD_REACTORS
330
C
102
}
100
AcDbDictionary
281
1
  0
DICTIONARY
  5
1A
102
{ACAD_REACTORS
330
C
102
}
100
AcDbDictionary
281
1
  3
Model
350
3A3
  3
Layout1
350
3A4
  0
ACDBPLACEHOLDER
  5
F
102
{ACAD_REACTORS
330
E
102
}
  0
MLINESTYLE
  5
18
102
{ACAD_REACTORS
330
17
102
}
100
AcDbMlineStyle
  2
STANDARD
 70
0
  3

 62
256
 51
90.0
 52
90.0
 71
2
 49
0.5
 62
256
  6
BYLAYER
 49
-0.5
 62
256
  6
BYLAYER
  0
LAYOUT
  5
3A3
102
{ACAD_REACTORS
330
1A
102
}
100
AcDbPlotSettings
  1

  2
none_device
  4
ANSI_C_(22.00_x_17.00_Inches)
  6

 40
0.0
 41
0.0
 42
0.0
 43
0.0
 44
558.8
 45
431.8
 46
0.0
 47
0.0
 48
0.0
 49
0.0
140
0.0
141
0.0
142
1.0
143
1.0
 70
1024
 72
0
 73
0
 74
0
  7

 75
0
147
1.0
148
0.0
149
0.0
100
AcDbLayout
  1
Model
 70
0
 71
0
 10
0.0
 20
0.0
 11
22.0
 21
17.0
 12
0.0
 22
0.0
 32
0.0
 14
0.0
 24
0.0
 34
0.0
 15
0.0
 25
0.0
 35
0.0
146
0.0
 13
0.0
 23
0.0
 33
0.0
 16
1.0
 26
0.0
 36
0.0
 17
0.0
 27
1.0
 37
0.0
 76
0
330
20C
345
0
346
0
  0
LAYOUT
  5
3A4
102
{ACAD_REACTORS
330
1A
102
}
100
AcDbPlotSettings
  1

  2
none_device
  4
ANSI_C_(22.00_x_17.00_Inches)
  6

 40
0.0
 41
0.0
 42
0.0
 43
0.0
 44
558.8
 45
431.8
 46
0.0
 47
0.0
 48
0.0
 49
0.0
140
0.0
141
0.0
142
1.0
143
1.0
 70
0
 72
0
 73
0
 74
0
  7

 75
0
147
1.0
148
0.0
149
0.0
100
AcDbLayout
  1
Layout1
 70
0
 71
1
 10
0.0
 20
0.0
 11
22.0
 21
17.0
 12
0.0
 22
0.0
 32
0.0
 14
0.0
 24
0.0
 34
0.0
 15
0.0
 25
0.0
 35
0.0
146
0.0
 13
0.0
 23
0.0
 33
0.0
 16
1.0
 26
0.0
 36
0.0
 17
0.0
 27
1.0
 37
0.0
 76
0
330
20D
345
0
346
0
  0
IMAGEDEF
  5
3A5
102
{ACAD_REACTORS
330
3A0
330
39F
102
}
100
AcDbRasterImageDef
 90
0
  1
N4V_assy_2_img_1.png
 10
369.0
 20
92.0
 11
0.0066666667
 21
0.0066666667
280
1
281
0
  0
TABLESTYLE
  5
3A6
102
{ACAD_REACTORS
330
3A2
330
292
330
293
102
}
330
3A2
100
AcDbTableStyle
  3
Standard
 70
0
 71
0
 40
0.06
 41
0.06
280
1
281
1
  7
Standard
140
0.18
170
1
 62
0
 63
7
283
0
  7
Standard
140
0.18
170
1
 62
0
 63
7
283
0
  7
Standard
140
0.18
170
1
 62
0
 63
7
283
0
  0
TABLESTYLE
  5
3A7
102
{ACAD_REACTORS
330
3A2
330
291
102
}
330
3A2
100
AcDbTableStyle
  3
Standard1
 70
1
 71
0
 40
0.06
 41
0.06
280
1
281
1
  7
Standard
140
0.18
170
1
 62
0
 63
7
283
0
  7
Standard
140
0.18
170
1
 62
0
 63
7
283
0
  7
Standard
140
0.18
170
1
 62
0
 63
7
283
0
  0
ENDSEC
  0
EOF
