999
DXF file: N4L_assy_2.dxf
999
Pro/ENGINEER 2014200 by Parametric Technology Corporation
  0
SECTION
  2
HEADER
  9
$ACADVER
  1
AC1021
  9
$DWGCODEPAGE
  3
ANSI_1252
  9
$EXTMAX
 10
22.0
 20
17.0
 30
0.0
  9
$EXTMIN
 10
0.0
 20
0.0
 30
0.0
  9
$LIMMIN
 10
0.0
 20
0.0
  9
$LIMMAX
 10
22.0
 20
17.0
  9
$VIEWCTR
 10
11.0
 20
8.5
  9
$VIEWSIZE
 40
17.0
  9
$CLAYER
  8
0
  9
$LTSCALE
 40
1.21
  9
$CELTYPE
  6
BYLAYER
  9
$DIMSCALE
 40
1.0
  9
$DIMASZ
 40
0.1875
  9
$DIMEXO
 40
0.0625
  9
$DIMDLI
 40
0.836
  9
$DIMEXE
 40
0.125
  9
$DIMCEN
 40
0.198
  9
$DIMLFAC
 40
1.0
  9
$DIMBLK
  1
_FILLED
  9
$DIMTXT
 40
0.1
  9
$DIMTOL
 70
0
  9
$DIMLIM
 70
0
  9
$DIMTFAC
 40
1.0
  9
$DIMGAP
 40
0.09
  9
$DIMDSEP
 70
46
  9
$AUNITS
 70
0
  9
$PDMODE
 70
3
  9
$PDSIZE
 40
0.3125
  9
$HANDSEED
  5
3AE
  9
$TILEMODE
 70
1
  9
$MEASUREMENT
 70
0
  9
$INSUNITS
 70
1
  0
ENDSEC
  0
SECTION
  2
CLASSES
  0
CLASS
  1
ACDBDICTIONARYWDFLT
  2
AcDbDictionaryWithDefault
  3
AutoCAD 2000
 90
0
 91
1
280
0
281
0
  0
CLASS
  1
ACDBPLACEHOLDER
  2
AcDbPlaceHolder
  3
AutoCAD 2000
 90
0
 91
1
280
0
281
0
  0
CLASS
  1
LAYOUT
  2
AcDbLayout
  3
AutoCAD 2000
 90
0
 91
0
280
0
281
0
  0
CLASS
  1
RASTERVARIABLES
  2
AcDbRasterVariables
  3
ISM
 90
0
 91
1
280
0
281
0
  0
CLASS
  1
IMAGEDEF
  2
AcDbRasterImageDef
  3
ISM
 90
0
 91
1
280
0
281
0
  0
CLASS
  1
IMAGEDEF_REACTOR
  2
AcDbRasterImageDefReactor
  3
ISM
 90
0
 91
1
280
0
281
0
  0
CLASS
  1
IMAGE
  2
AcDbRasterImage
  3
ISM
 90
127
 91
1
280
0
281
1
  0
CLASS
  1
TABLESTYLE
  2
AcDbTableStyle
  3
ObjectDBX Classes
 90
2047
 91
1
280
0
281
0
  0
CLASS
  1
ACAD_TABLE
  2
AcDbTable
  3
ObjectDBX Classes
 90
1025
 91
3
280
0
281
1
  0
ENDSEC
  0
SECTION
  2
TABLES
  0
TABLE
  2
VPORT
  5
8
100
AcDbSymbolTable
 70
2
  0
VPORT
  5
1F4
100
AcDbSymbolTableRecord
100
AcDbViewportTableRecord
  2
*ACTIVE
 70
0
 10
0.0
 20
0.0
 11
1.0
 21
1.0
 12
11.0
 22
8.5
 13
0.0
 23
0.0
 14
1.0
 24
1.0
 15
0.0
 25
0.0
 16
0.0
 26
0.0
 36
1.0
 17
0.0
 27
0.0
 37
0.0
 40
17.0
 41
1.2941176471
 42
50.0
 43
0.0
 44
0.0
 50
0.0
 51
0.0
 71
0
 72
100
 73
1
 74
1
 75
0
 76
0
 77
0
 78
0
  0
ENDTAB
  0
TABLE
  2
LTYPE
  5
5
100
AcDbSymbolTable
 70
6
  0
LTYPE
  5
14
100
AcDbSymbolTableRecord
100
AcDbLinetypeTableRecord
  2
BYBLOCK
 70
0
  3

 72
65
 73
0
 40
0.0
  0
LTYPE
  5
15
100
AcDbSymbolTableRecord
100
AcDbLinetypeTableRecord
  2
BYLAYER
 70
0
  3

 72
65
 73
0
 40
0.0
  0
LTYPE
  5
16
100
AcDbSymbolTableRecord
100
AcDbLinetypeTableRecord
  2
CONTINUOUS
 70
64
  3
Solid line
 72
65
 73
0
 40
0.0
  0
LTYPE
  5
1F5
100
AcDbSymbolTableRecord
100
AcDbLinetypeTableRecord
  2
CENTER
 70
64
  3
____ _ ____ _ ____ _ ____ _ ____ _ ____ _ ____
 72
65
 73
4
 40
0.6
 49
0.375
 74
0
 49
-0.075
 74
0
 49
0.075
 74
0
 49
-0.075
 74
0
  0
LTYPE
  5
1F6
100
AcDbSymbolTableRecord
100
AcDbLinetypeTableRecord
  2
HIDDEN
 70
64
  3
- - - - - - - - - - - - - - - - - - - -
 72
65
 73
2
 40
0.2
 49
0.1
 74
0
 49
-0.1
 74
0
  0
LTYPE
  5
1F7
100
AcDbSymbolTableRecord
100
AcDbLinetypeTableRecord
  2
PHANTOM
 70
64
  3
_____ _ _ _____ _ _ _____ _ _ _____
 72
65
 73
6
 40
0.8
 49
0.45
 74
0
 49
-0.05
 74
0
 49
0.1
 74
0
 49
-0.05
 74
0
 49
0.1
 74
0
 49
-0.05
 74
0
  0
LTYPE
  5
1F8
100
AcDbSymbolTableRecord
100
AcDbLinetypeTableRecord
  2
DOT
 70
64
  3
. . . . . . . . . . . . . . . . . . . .
 72
65
 73
2
 40
0.2
 49
0.1
 74
0
 49
-0.1
 74
0
  0
LTYPE
  5
1F9
100
AcDbSymbolTableRecord
100
AcDbLinetypeTableRecord
  2
DASHED
 70
64
  3
- - - - - - - - - - - - - - - - - - - -
 72
65
 73
2
 40
0.2
 49
0.1
 74
0
 49
-0.1
 74
0
  0
ENDTAB
  0
TABLE
  2
LAYER
  5
2
100
AcDbSymbolTable
 70
36
  0
LAYER
  5
10
100
AcDbSymbolTableRecord
100
AcDbLayerTableRecord
  2
0
 70
0
 62
7
  6
CONTINUOUS
370
-3
390
F
  0
LAYER
  5
1FA
100
AcDbSymbolTableRecord
100
AcDbLayerTableRecord
  2
DEFAULT_1
 70
0
 62
7
  6
CENTER
370
-3
390
F
  0
LAYER
  5
1FB
100
AcDbSymbolTableRecord
100
AcDbLayerTableRecord
  2
DEFAULT_2
 70
0
 62
8
  6
HIDDEN
370
-3
390
F
  0
LAYER
  5
1FC
100
AcDbSymbolTableRecord
100
AcDbLayerTableRecord
  2
DEFAULT_3
 70
0
 62
7
  6
PHANTOM
370
-3
390
F
  0
LAYER
  5
1FD
100
AcDbSymbolTableRecord
100
AcDbLayerTableRecord
  2
01___PRT_ALL_DTM_PLN
 70
0
 62
7
  6
CONTINUOUS
370
-3
390
F
  0
LAYER
  5
1FE
100
AcDbSymbolTableRecord
100
AcDbLayerTableRecord
  2
01___PRT_DEF_DTM_PLN
 70
0
 62
7
  6
CONTINUOUS
370
-3
390
F
  0
LAYER
  5
1FF
100
AcDbSymbolTableRecord
100
AcDbLayerTableRecord
  2
02___PRT_ALL_AXES
 70
0
 62
7
  6
CONTINUOUS
370
-3
390
F
  0
LAYER
  5
200
100
AcDbSymbolTableRecord
100
AcDbLayerTableRecord
  2
03___PRT_ALL_CURVES
 70
0
 62
7
  6
CONTINUOUS
370
-3
390
F
  0
LAYER
  5
201
100
AcDbSymbolTableRecord
100
AcDbLayerTableRecord
  2
04___PRT_ALL_DTM_PNT
 70
0
 62
7
  6
CONTINUOUS
370
-3
390
F
  0
LAYER
  5
202
100
AcDbSymbolTableRecord
100
AcDbLayerTableRecord
  2
05___PRT_ALL_DTM_CSYS
 70
0
 62
7
  6
CONTINUOUS
370
-3
390
F
  0
LAYER
  5
203
100
AcDbSymbolTableRecord
100
AcDbLayerTableRecord
  2
05___PRT_DEF_DTM_CSYS
 70
0
 62
7
  6
CONTINUOUS
370
-3
390
F
  0
LAYER
  5
204
100
AcDbSymbolTableRecord
100
AcDbLayerTableRecord
  2
06___PRT_ALL_SURFS
 70
0
 62
7
  6
CONTINUOUS
370
-3
390
F
  0
LAYER
  5
205
100
AcDbSymbolTableRecord
100
AcDbLayerTableRecord
  2
DATUM_PLANES
 70
0
 62
7
  6
CONTINUOUS
370
-3
390
F
  0
LAYER
  5
206
100
AcDbSymbolTableRecord
100
AcDbLayerTableRecord
  2
PORT_AREAS
 70
0
 62
7
  6
CONTINUOUS
370
-3
390
F
  0
LAYER
  5
207
100
AcDbSymbolTableRecord
100
AcDbLayerTableRecord
  2
SUNNBOMCOSMETIC
 70
0
 62
7
  6
CONTINUOUS
370
-3
390
F
  0
LAYER
  5
208
100
AcDbSymbolTableRecord
100
AcDbLayerTableRecord
  2
SUNNBOMSTAMPING
 70
0
 62
7
  6
CONTINUOUS
370
-3
390
F
  0
LAYER
  5
209
100
AcDbSymbolTableRecord
100
AcDbLayerTableRecord
  2
THREADS
 70
0
 62
7
  6
CONTINUOUS
370
-3
390
F
  0
ENDTAB
  0
TABLE
  2
STYLE
  5
3
100
AcDbSymbolTable
 70
1
  0
STYLE
  5
11
100
AcDbSymbolTableRecord
100
AcDbTextStyleTableRecord
  2
STANDARD
 70
0
 40
0.0
 41
0.8
 50
0.0
 71
0
 42
0.2
  3
txt
  4

  0
STYLE
  5
20A
100
AcDbSymbolTableRecord
100
AcDbTextStyleTableRecord
  2
TEXTSTYLE_1
 70
0
 40
0.0
 41
0.8
 50
0.0
 71
0
 42
0.2
  3
gdt
  4

  0
ENDTAB
  0
TABLE
  2
VIEW
  5
6
100
AcDbSymbolTable
 70
0
  0
ENDTAB
  0
TABLE
  2
UCS
  5
7
100
AcDbSymbolTable
 70
0
  0
ENDTAB
  0
TABLE
  2
APPID
  5
9
100
AcDbSymbolTable
 70
1
  0
APPID
  5
20B
100
AcDbSymbolTableRecord
100
AcDbRegAppTableRecord
  2
ACAD
 70
0
  0
ENDTAB
  0
TABLE
  2
BLOCK_RECORD
  5
1
100
AcDbSymbolTable
 70
0
  0
BLOCK_RECORD
  5
20C
100
AcDbSymbolTableRecord
100
AcDbBlockTableRecord
  2
*Model_Space
  0
BLOCK_RECORD
  5
20D
100
AcDbSymbolTableRecord
100
AcDbBlockTableRecord
  2
*Paper_Space
  0
BLOCK_RECORD
  5
20E
100
AcDbSymbolTableRecord
100
AcDbBlockTableRecord
  2
SUN_FIRST_THIRD_ANGLE_BL0
  0
BLOCK_RECORD
  5
20F
100
AcDbSymbolTableRecord
100
AcDbBlockTableRecord
  2
*T1
  0
BLOCK_RECORD
  5
210
100
AcDbSymbolTableRecord
100
AcDbBlockTableRecord
  2
*T2
  0
BLOCK_RECORD
  5
211
100
AcDbSymbolTableRecord
100
AcDbBlockTableRecord
  2
*T3
  0
ENDTAB
  0
TABLE
  2
DIMSTYLE
  5
A
100
AcDbSymbolTable
 70
1
100
AcDbDimStyleTable
 71
0
  0
DIMSTYLE
105
212
100
AcDbSymbolTableRecord
100
AcDbDimStyleTableRecord
  2
STANDARD
 70
0
  3

  4

 40
1.0
 41
0.1875
 42
0.0625
 43
0.38
 44
0.125
 45
0.0
 46
0.0
 47
0.001
 48
0.001
140
0.1
141
0.09
142
0.0
143
25.4
144
1.0
145
0.0
146
1.0
147
0.09
 71
0.0
 72
0.0
 73
1
 74
1
 75
0
 76
0
 77
0
 78
4
170
0
171
2
172
0
173
0
174
0
175
0
176
0
177
0
178
0
270
2
271
3
272
3
273
2
274
2
275
0
280
0
281
0
282
0
283
1
284
4
285
0
286
0
287
3
288
0
340
11
278
46
  0
ENDTAB
  0
ENDSEC
  0
SECTION
  2
BLOCKS
  0
BLOCK
  5
20
100
AcDbEntity
  8
0
100
AcDbBlockBegin
  2
*Model_Space
 70
0
 10
0.0
 20
0.0
 30
0.0
  3
*Model_Space
  1

  0
ENDBLK
  5
21
100
AcDbEntity
  8
0
100
AcDbBlockEnd
  0
BLOCK
  5
1C
100
AcDbEntity
  8
0
100
AcDbBlockBegin
  2
*Paper_Space
 70
0
 10
0.0
 20
0.0
 30
0.0
  3
*Paper_Space
  1

  0
ENDBLK
  5
1D
100
AcDbEntity
  8
0
100
AcDbBlockEnd
  0
BLOCK
  5
213
100
AcDbEntity
  8
0
100
AcDbBlockBegin
 62
2
  6
CONTINUOUS
  2
SUN_FIRST_THIRD_ANGLE_BL0
 70
64
 10
20.4816717061
 20
1.2289683772
  3
SUN_FIRST_THIRD_ANGLE_BL0
  1

  0
TEXT
  5
214
100
AcDbEntity
  8
0
100
AcDbText
 62
2
  6
CONTINUOUS
 10
19.4750896608
 20
1.4136269581
  7
STANDARD
 40
0.08
  1
FIRST ANGLE
 41
0.8
 72
0
100
AcDbText
  0
TEXT
  5
215
100
AcDbEntity
  8
0
100
AcDbText
 62
2
  6
CONTINUOUS
 10
20.7842537513
 20
1.4047600029
  7
STANDARD
 40
0.08
  1
THIRD ANGLE
 41
0.8
 72
0
100
AcDbText
  0
LINE
  5
216
100
AcDbEntity
  8
0
100
AcDbLine
 62
7
  6
CONTINUOUS
 10
19.4767170086
 20
1.1727031207
 11
19.6334271527
 21
1.1717972817
  0
LINE
  5
217
100
AcDbEntity
  8
0
100
AcDbLine
 62
7
  6
CONTINUOUS
 10
19.6596964832
 20
1.1717972817
 11
19.6950230232
 21
1.171593082
  0
LINE
  5
218
100
AcDbEntity
  8
0
100
AcDbLine
 62
7
  6
CONTINUOUS
 10
19.7194818561
 20
1.1708914427
 11
19.8852396156
 21
1.1699333054
  0
LINE
  5
219
100
AcDbEntity
  8
0
100
AcDbLine
 62
7
  6
CONTINUOUS
 10
19.4758111696
 20
1.2723454088
 11
19.88525039
 21
1.3511534004
  0
LINE
  5
21A
100
AcDbEntity
  8
0
100
AcDbLine
 62
7
  6
CONTINUOUS
 10
19.88525039
 20
1.3511534004
 11
19.8831348489
 21
0.9851647912
  0
LINE
  5
21B
100
AcDbEntity
  8
0
100
AcDbLine
 62
7
  6
CONTINUOUS
 10
19.8831348489
 20
0.9851647912
 11
19.4767170086
 21
1.0658141206
  0
LINE
  5
21C
100
AcDbEntity
  8
0
100
AcDbLine
 62
7
  6
CONTINUOUS
 10
19.4767170086
 20
1.0658141206
 11
19.4779056764
 21
1.2714536432
  0
CIRCLE
  5
21D
100
AcDbEntity
  8
0
100
AcDbCircle
 62
7
  6
CONTINUOUS
 10
20.2068232291
 20
1.1717972817
 40
0.175742101
  0
CIRCLE
  5
21E
100
AcDbEntity
  8
0
100
AcDbCircle
 62
7
  6
CONTINUOUS
 10
20.2068232291
 20
1.1717972817
 40
0.1005522074
  0
LINE
  5
21F
100
AcDbEntity
  8
0
100
AcDbLine
 62
7
  6
CONTINUOUS
 10
20.2077290681
 20
1.3756110529
 11
20.2071171714
 21
1.2379342989
  0
LINE
  5
220
100
AcDbEntity
  8
0
100
AcDbLine
 62
7
  6
CONTINUOUS
 10
20.2077290681
 20
1.2016899681
 11
20.2074674401
 21
1.1428236749
  0
LINE
  5
221
100
AcDbEntity
  8
0
100
AcDbLine
 62
7
  6
CONTINUOUS
 10
20.208634907
 20
1.101141841
 11
20.2080230104
 21
0.963465087
  0
LINE
  5
222
100
AcDbEntity
  8
0
100
AcDbLine
 62
7
  6
CONTINUOUS
 10
20.0066328138
 20
1.1745147986
 11
20.1443095678
 21
1.1739029019
  0
LINE
  5
223
100
AcDbEntity
  8
0
100
AcDbLine
 62
7
  6
CONTINUOUS
 10
20.1832714155
 20
1.1727031207
 11
20.238153505
 21
1.172335442
  0
LINE
  5
224
100
AcDbEntity
  8
0
100
AcDbLine
 62
7
  6
CONTINUOUS
 10
20.2756669918
 20
1.1717972817
 11
20.407916871
 21
1.1712095044
  0
CIRCLE
  5
225
100
AcDbEntity
  8
0
100
AcDbCircle
 62
7
  6
CONTINUOUS
 10
20.7509457401
 20
1.1693297793
 40
0.1722024983
  0
CIRCLE
  5
226
100
AcDbEntity
  8
0
100
AcDbCircle
 62
7
  6
CONTINUOUS
 10
20.7509457401
 20
1.1693297793
 40
0.0985164967
  0
LINE
  5
227
100
AcDbEntity
  8
0
100
AcDbLine
 62
7
  6
CONTINUOUS
 10
20.7169767782
 20
1.170462078
 11
20.7825395137
 21
1.1682766535
  0
LINE
  5
228
100
AcDbEntity
  8
0
100
AcDbLine
 62
7
  6
CONTINUOUS
 10
20.8177513651
 20
1.1693297793
 11
20.947965719
 21
1.1693297793
  0
LINE
  5
229
100
AcDbEntity
  8
0
100
AcDbLine
 62
7
  6
CONTINUOUS
 10
20.6875370113
 20
1.170462078
 11
20.5573226574
 21
1.170462078
  0
LINE
  5
22A
100
AcDbEntity
  8
0
100
AcDbLine
 62
7
  6
CONTINUOUS
 10
20.7486811426
 20
1.1987695462
 11
20.7486811426
 21
1.1432869085
  0
LINE
  5
22B
100
AcDbEntity
  8
0
100
AcDbLine
 62
7
  6
CONTINUOUS
 10
20.7498134414
 20
1.1059210505
 11
20.7498134414
 21
0.9757066966
  0
LINE
  5
22C
100
AcDbEntity
  8
0
100
AcDbLine
 62
7
  6
CONTINUOUS
 10
20.7486811426
 20
1.2338708068
 11
20.7486811426
 21
1.3640851607
  0
LINE
  5
22D
100
AcDbEntity
  8
0
100
AcDbLine
 62
7
  6
CONTINUOUS
 10
21.0702539817
 20
1.2701043662
 11
21.4790138229
 21
1.3448360823
  0
LINE
  5
22E
100
AcDbEntity
  8
0
100
AcDbLine
 62
7
  6
CONTINUOUS
 10
21.4790138229
 20
1.3448360823
 11
21.4790138229
 21
0.9779712941
  0
LINE
  5
22F
100
AcDbEntity
  8
0
100
AcDbLine
 62
7
  6
CONTINUOUS
 10
21.4790138229
 20
0.9779712941
 11
21.069121683
 21
1.0617614
  0
LINE
  5
230
100
AcDbEntity
  8
0
100
AcDbLine
 62
7
  6
CONTINUOUS
 10
21.0702539817
 20
1.2701043662
 11
21.069121683
 21
1.0617614
  0
LINE
  5
231
100
AcDbEntity
  8
0
100
AcDbLine
 62
7
  6
CONTINUOUS
 10
21.4790138229
 20
1.1693297793
 11
21.3159628059
 21
1.1693297793
  0
LINE
  5
232
100
AcDbEntity
  8
0
100
AcDbLine
 62
7
  6
CONTINUOUS
 10
21.2876553377
 20
1.1693297793
 11
21.2502894796
 21
1.1693297793
  0
LINE
  5
233
100
AcDbEntity
  8
0
100
AcDbLine
 62
7
  6
CONTINUOUS
 10
21.2208497126
 20
1.1659328831
 11
21.0713862804
 21
1.1659328831
  0
LINE
  5
234
100
AcDbEntity
  8
0
100
AcDbLine
 62
7
  6
CONTINUOUS
 10
20.4796138713
 20
1.5284908897
 11
20.4766766948
 21
0.9294458646
  0
ENDBLK
  5
235
100
AcDbEntity
  8
0
  6
BYBLOCK
 62
0
100
AcDbBlockEnd
  0
BLOCK
  5
236
100
AcDbEntity
  8
0
100
AcDbBlockBegin
  2
*T1
 70
1
 10
0.0
 20
0.0
  3
*T1
  1

  0
LINE
  5
237
100
AcDbEntity
  8
0
100
AcDbLine
 62
2
  6
CONTINUOUS
 10
9.275
 20
0.0
 11
-0.0
 21
0.0
  0
LINE
  5
238
100
AcDbEntity
  8
0
100
AcDbLine
 62
2
  6
CONTINUOUS
 10
9.275
 20
0.0
 11
9.275
 21
1.25
  0
LINE
  5
239
100
AcDbEntity
  8
0
100
AcDbLine
 62
2
  6
CONTINUOUS
 10
9.275
 20
0.625
 11
-0.0
 21
0.625
  0
LINE
  5
23A
100
AcDbEntity
  8
0
100
AcDbLine
 62
2
  6
CONTINUOUS
 10
9.275
 20
1.25
 11
-0.0
 21
1.25
  0
LINE
  5
23B
100
AcDbEntity
  8
0
100
AcDbLine
 62
2
  6
CONTINUOUS
 10
6.8
 20
0.0
 11
6.8
 21
1.25
  0
LINE
  5
23C
100
AcDbEntity
  8
0
100
AcDbLine
 62
2
  6
CONTINUOUS
 10
6.4
 20
0.0
 11
6.4
 21
0.625
  0
LINE
  5
23D
100
AcDbEntity
  8
0
100
AcDbLine
 62
2
  6
CONTINUOUS
 10
5.9
 20
0.0
 11
5.9
 21
0.625
  0
LINE
  5
23E
100
AcDbEntity
  8
0
100
AcDbLine
 62
2
  6
CONTINUOUS
 10
5.2
 20
0.0
 11
5.2
 21
0.625
  0
LINE
  5
23F
100
AcDbEntity
  8
0
100
AcDbLine
 62
2
  6
CONTINUOUS
 10
4.1
 20
0.0
 11
4.1
 21
1.25
  0
LINE
  5
240
100
AcDbEntity
  8
0
100
AcDbLine
 62
2
  6
CONTINUOUS
 10
-0.0
 20
0.0
 11
-0.0
 21
1.25
  0
MTEXT
  5
241
100
AcDbEntity
  8
0
100
AcDbMText
 62
2
  6
CONTINUOUS
  7
STANDARD
 71
2
 72
1
 10
6.6
 20
0.325
 30
0.0
 11
1.0
 21
0.0
 31
0.0
 44
0.9
  1
2
 40
0.125
 41
0.2
  0
MTEXT
  5
242
100
AcDbEntity
  8
0
100
AcDbMText
 62
2
  6
CONTINUOUS
  7
STANDARD
 71
2
 72
1
 10
6.15
 20
0.325
 30
0.0
 11
1.0
 21
0.0
 31
0.0
 44
0.9
  1
C
 40
0.125
 41
0.2
  0
MTEXT
  5
243
100
AcDbEntity
  8
0
100
AcDbMText
 62
2
  6
CONTINUOUS
  7
STANDARD
 71
2
 72
1
 10
5.55
 20
0.325
 30
0.0
 11
1.0
 21
0.0
 31
0.0
 44
0.9
  1
1.000
 40
0.125
 41
1.0
  0
MTEXT
  5
244
100
AcDbEntity
  8
0
100
AcDbMText
 62
2
  6
CONTINUOUS
  7
STANDARD
 71
2
 72
1
 10
4.65
 20
0.325
 30
0.0
 11
1.0
 21
0.0
 31
0.0
 44
0.9
  1
Dec-31-19
 40
0.125
 41
1.8
  0
MTEXT
  5
245
100
AcDbEntity
  8
0
100
AcDbMText
 62
2
  6
CONTINUOUS
  7
STANDARD
 71
2
 72
1
 10
2.05
 20
0.4625
 30
0.0
 11
1.0
 21
0.0
 31
0.0
 44
0.9
  1
T-22A Line mount\P(See Technical Data for Body Features)
 40
0.125
 41
7.6
  0
MTEXT
  5
246
100
AcDbEntity
  8
0
100
AcDbMText
 62
2
  6
CONTINUOUS
  7
STANDARD
 71
1
 72
1
 10
6.45
 20
0.5625
 30
0.0
 11
1.0
 21
0.0
 31
0.0
 44
0.9
  1
SHEET
 40
0.06
 41
0.48
  0
MTEXT
  5
247
100
AcDbEntity
  8
0
100
AcDbMText
 62
2
  6
CONTINUOUS
  7
STANDARD
 71
1
 72
1
 10
5.95
 20
0.5625
 30
0.0
 11
1.0
 21
0.0
 31
0.0
 44
0.9
  1
DWG SIZE
 40
0.06
 41
0.768
  0
MTEXT
  5
248
100
AcDbEntity
  8
0
100
AcDbMText
 62
2
  6
CONTINUOUS
  7
STANDARD
 71
1
 72
1
 10
5.25
 20
0.5625
 30
0.0
 11
1.0
 21
0.0
 31
0.0
 44
0.9
  1
SCALE
 40
0.06
 41
0.48
  0
MTEXT
  5
249
100
AcDbEntity
  8
0
100
AcDbMText
 62
2
  6
CONTINUOUS
  7
STANDARD
 71
1
 72
1
 10
4.15
 20
0.5625
 30
0.0
 11
1.0
 21
0.0
 31
0.0
 44
0.9
  1
DATE
 40
0.06
 41
0.384
  0
MTEXT
  5
24A
100
AcDbEntity
  8
0
100
AcDbMText
 62
2
  6
CONTINUOUS
  7
STANDARD
 71
1
 72
1
 10
0.05
 20
0.5625
 30
0.0
 11
1.0
 21
0.0
 31
0.0
 44
0.9
  1
DESCRIPTION
 40
0.06
 41
1.056
  0
MTEXT
  5
24B
100
AcDbEntity
  8
0
100
AcDbMText
 62
2
  6
CONTINUOUS
  7
STANDARD
 71
2
 72
1
 10
5.45
 20
1.0375
 30
0.0
 11
1.0
 21
0.0
 31
0.0
 44
0.9
  1
ALL DIMENSIONS IN INCH\PVIEWS ARE THIRD ANGLE
 40
0.12
 41
4.224
  0
MTEXT
  5
24C
100
AcDbEntity
  8
0
100
AcDbMText
 62
2
  6
CONTINUOUS
  7
STANDARD
 71
2
 72
1
 10
2.05
 20
0.95
 30
0.0
 11
1.0
 21
0.0
 31
0.0
 44
0.9
  1
N4L
 40
0.125
 41
0.6
  0
MTEXT
  5
24D
100
AcDbEntity
  8
0
100
AcDbMText
 62
2
  6
CONTINUOUS
  7
STANDARD
 71
1
 72
1
 10
0.05
 20
1.1875
 30
0.0
 11
1.0
 21
0.0
 31
0.0
 44
0.9
  1
MODEL
 40
0.06
 41
0.48
  0
ENDBLK
  5
24E
100
AcDbEntity
  8
0
  6
BYBLOCK
 62
0
100
AcDbBlockEnd
  0
BLOCK
  5
24F
100
AcDbEntity
  8
0
100
AcDbBlockBegin
  2
*T2
 70
1
 10
0.0
 20
0.0
  3
*T2
  1

  0
LINE
  5
250
100
AcDbEntity
  8
0
100
AcDbLine
 62
2
  6
CONTINUOUS
 10
0.0
 20
0.0
 11
9.055
 21
0.0
  0
LINE
  5
251
100
AcDbEntity
  8
0
100
AcDbLine
 62
2
  6
CONTINUOUS
 10
0.0
 20
0.0
 11
0.0
 21
-2.594
  0
LINE
  5
252
100
AcDbEntity
  8
0
100
AcDbLine
 62
2
  6
CONTINUOUS
 10
0.0
 20
-0.344
 11
9.055
 21
-0.344
  0
LINE
  5
253
100
AcDbEntity
  8
0
100
AcDbLine
 62
2
  6
CONTINUOUS
 10
0.0
 20
-0.594
 11
9.055
 21
-0.594
  0
LINE
  5
254
100
AcDbEntity
  8
0
100
AcDbLine
 62
2
  6
CONTINUOUS
 10
0.0
 20
-0.844
 11
9.055
 21
-0.844
  0
LINE
  5
255
100
AcDbEntity
  8
0
100
AcDbLine
 62
2
  6
CONTINUOUS
 10
0.0
 20
-1.094
 11
9.055
 21
-1.094
  0
LINE
  5
256
100
AcDbEntity
  8
0
100
AcDbLine
 62
2
  6
CONTINUOUS
 10
0.0
 20
-1.344
 11
9.055
 21
-1.344
  0
LINE
  5
257
100
AcDbEntity
  8
0
100
AcDbLine
 62
2
  6
CONTINUOUS
 10
0.0
 20
-1.594
 11
9.055
 21
-1.594
  0
LINE
  5
258
100
AcDbEntity
  8
0
100
AcDbLine
 62
2
  6
CONTINUOUS
 10
0.0
 20
-1.844
 11
9.055
 21
-1.844
  0
LINE
  5
259
100
AcDbEntity
  8
0
100
AcDbLine
 62
2
  6
CONTINUOUS
 10
0.0
 20
-2.094
 11
9.055
 21
-2.094
  0
LINE
  5
25A
100
AcDbEntity
  8
0
100
AcDbLine
 62
2
  6
CONTINUOUS
 10
0.0
 20
-2.344
 11
9.055
 21
-2.344
  0
LINE
  5
25B
100
AcDbEntity
  8
0
100
AcDbLine
 62
2
  6
CONTINUOUS
 10
0.0
 20
-2.594
 11
9.055
 21
-2.594
  0
LINE
  5
25C
100
AcDbEntity
  8
0
100
AcDbLine
 62
2
  6
CONTINUOUS
 10
3.055
 20
0.0
 11
3.055
 21
-2.594
  0
LINE
  5
25D
100
AcDbEntity
  8
0
100
AcDbLine
 62
2
  6
CONTINUOUS
 10
9.055
 20
0.0
 11
9.055
 21
-2.594
  0
MTEXT
  5
25E
100
AcDbEntity
  8
0
100
AcDbMText
 62
2
  6
CONTINUOUS
  7
STANDARD
 71
2
 72
1
 10
1.5275
 20
-0.0995
 30
0.0
 11
1.0
 21
0.0
 31
0.0
 44
0.9
  1
Technical Data
 40
0.145
 41
3.248
  0
MTEXT
  5
25F
100
AcDbEntity
  8
0
100
AcDbMText
 62
2
  6
CONTINUOUS
  7
STANDARD
 71
2
 72
1
 10
4.555
 20
-0.0995
 30
0.0
 11
1.0
 21
0.0
 31
0.0
 44
0.9
  1
U.S. Units
 40
0.145
 41
2.32
  0
MTEXT
  5
260
100
AcDbEntity
  8
0
100
AcDbMText
 62
2
  6
CONTINUOUS
  7
STANDARD
 71
2
 72
1
 10
7.555
 20
-0.0995
 30
0.0
 11
1.0
 21
0.0
 31
0.0
 44
0.9
  1
Metric Units
 40
0.145
 41
2.784
  0
MTEXT
  5
261
100
AcDbEntity
  8
0
100
AcDbMText
 62
2
  6
CONTINUOUS
  7
STANDARD
 71
2
 72
1
 10
1.5275
 20
-0.4065
 30
0.0
 11
1.0
 21
0.0
 31
0.0
 44
0.9
  1
Cavity
 40
0.125
 41
1.2
  0
MTEXT
  5
262
100
AcDbEntity
  8
0
100
AcDbMText
 62
2
  6
CONTINUOUS
  7
STANDARD
 71
2
 72
1
 10
6.055
 20
-0.4065
 30
0.0
 11
1.0
 21
0.0
 31
0.0
 44
0.9
  1
T-22A
 40
0.125
 41
1.0
  0
MTEXT
  5
263
100
AcDbEntity
  8
0
100
AcDbMText
 62
2
  6
CONTINUOUS
  7
STANDARD
 71
2
 72
1
 10
1.5275
 20
-0.6565
 30
0.0
 11
1.0
 21
0.0
 31
0.0
 44
0.9
  1
Body Features
 40
0.125
 41
2.6
  0
MTEXT
  5
264
100
AcDbEntity
  8
0
100
AcDbMText
 62
2
  6
CONTINUOUS
  7
STANDARD
 71
2
 72
1
 10
6.055
 20
-0.6565
 30
0.0
 11
1.0
 21
0.0
 31
0.0
 44
0.9
  1
Ninety degree with reverse flow check - reducing
 40
0.125
 41
9.6
  0
MTEXT
  5
265
100
AcDbEntity
  8
0
100
AcDbMText
 62
2
  6
CONTINUOUS
  7
STANDARD
 71
2
 72
1
 10
1.5275
 20
-0.9065
 30
0.0
 11
1.0
 21
0.0
 31
0.0
 44
0.9
  1
Body Type
 40
0.125
 41
1.8
  0
MTEXT
  5
266
100
AcDbEntity
  8
0
100
AcDbMText
 62
2
  6
CONTINUOUS
  7
STANDARD
 71
2
 72
1
 10
6.055
 20
-0.9065
 30
0.0
 11
1.0
 21
0.0
 31
0.0
 44
0.9
  1
Line mount
 40
0.125
 41
2.0
  0
MTEXT
  5
267
100
AcDbEntity
  8
0
100
AcDbMText
 62
2
  6
CONTINUOUS
  7
STANDARD
 71
2
 72
1
 10
1.5275
 20
-1.1565
 30
0.0
 11
1.0
 21
0.0
 31
0.0
 44
0.9
  1
Interface
 40
0.125
 41
1.8
  0
MTEXT
  5
268
100
AcDbEntity
  8
0
100
AcDbMText
 62
2
  6
CONTINUOUS
  7
STANDARD
 71
2
 72
1
 10
6.055
 20
-1.1565
 30
0.0
 11
1.0
 21
0.0
 31
0.0
 44
0.9
  1
None
 40
0.125
 41
0.8
  0
MTEXT
  5
269
100
AcDbEntity
  8
0
100
AcDbMText
 62
2
  6
CONTINUOUS
  7
STANDARD
 71
2
 72
1
 10
1.5275
 20
-1.4065
 30
0.0
 11
1.0
 21
0.0
 31
0.0
 44
0.9
  1
Open Cavity Quantity
 40
0.125
 41
4.0
  0
MTEXT
  5
26A
100
AcDbEntity
  8
0
100
AcDbMText
 62
2
  6
CONTINUOUS
  7
STANDARD
 71
2
 72
1
 10
6.055
 20
-1.4065
 30
0.0
 11
1.0
 21
0.0
 31
0.0
 44
0.9
  1
1
 40
0.125
 41
0.2
  0
MTEXT
  5
26B
100
AcDbEntity
  8
0
100
AcDbMText
 62
2
  6
CONTINUOUS
  7
STANDARD
 71
2
 72
1
 10
1.5275
 20
-1.6565
 30
0.0
 11
1.0
 21
0.0
 31
0.0
 44
0.9
  1
Weight
 40
0.125
 41
1.2
  0
MTEXT
  5
26C
100
AcDbEntity
  8
0
100
AcDbMText
 62
2
  6
CONTINUOUS
  7
STANDARD
 71
2
 72
1
 10
4.555
 20
-1.6565
 30
0.0
 11
1.0
 21
0.0
 31
0.0
 44
0.9
  1
2.270 lb.
 40
0.125
 41
1.8
  0
MTEXT
  5
26D
100
AcDbEntity
  8
0
100
AcDbMText
 62
2
  6
CONTINUOUS
  7
STANDARD
 71
2
 72
1
 10
7.555
 20
-1.6565
 30
0.0
 11
1.0
 21
0.0
 31
0.0
 44
0.9
  1
1,030 kg.
 40
0.125
 41
1.8
  0
MTEXT
  5
26E
100
AcDbEntity
  8
0
100
AcDbMText
 62
2
  6
CONTINUOUS
  7
STANDARD
 71
2
 72
1
 10
1.5275
 20
-1.9065
 30
0.0
 11
1.0
 21
0.0
 31
0.0
 44
0.9
  1
Mounting Hole Diameter
 40
0.125
 41
4.4
  0
MTEXT
  5
26F
100
AcDbEntity
  8
0
100
AcDbMText
 62
2
  6
CONTINUOUS
  7
STANDARD
 71
2
 72
1
 10
4.555
 20
-1.9065
 30
0.0
 11
1.0
 21
0.0
 31
0.0
 44
0.9
  1
.41 in.
 40
0.125
 41
1.4
  0
MTEXT
  5
270
100
AcDbEntity
  8
0
100
AcDbMText
 62
2
  6
CONTINUOUS
  7
STANDARD
 71
2
 72
1
 10
7.555
 20
-1.9065
 30
0.0
 11
1.0
 21
0.0
 31
0.0
 44
0.9
  1
10,4 mm
 40
0.125
 41
1.4
  0
MTEXT
  5
271
100
AcDbEntity
  8
0
100
AcDbMText
 62
2
  6
CONTINUOUS
  7
STANDARD
 71
2
 72
1
 10
1.5275
 20
-2.1565
 30
0.0
 11
1.0
 21
0.0
 31
0.0
 44
0.9
  1
Mounting Hole Depth
 40
0.125
 41
3.8
  0
MTEXT
  5
272
100
AcDbEntity
  8
0
100
AcDbMText
 62
2
  6
CONTINUOUS
  7
STANDARD
 71
2
 72
1
 10
6.055
 20
-2.1565
 30
0.0
 11
1.0
 21
0.0
 31
0.0
 44
0.9
  1
Through
 40
0.125
 41
1.4
  0
MTEXT
  5
273
100
AcDbEntity
  8
0
100
AcDbMText
 62
2
  6
CONTINUOUS
  7
STANDARD
 71
2
 72
1
 10
1.5275
 20
-2.4065
 30
0.0
 11
1.0
 21
0.0
 31
0.0
 44
0.9
  1
Mounting Hole Quantity
 40
0.125
 41
4.4
  0
MTEXT
  5
274
100
AcDbEntity
  8
0
100
AcDbMText
 62
2
  6
CONTINUOUS
  7
STANDARD
 71
2
 72
1
 10
6.055
 20
-2.4065
 30
0.0
 11
1.0
 21
0.0
 31
0.0
 44
0.9
  1
2
 40
0.125
 41
0.2
  0
ENDBLK
  5
275
100
AcDbEntity
  8
0
  6
BYBLOCK
 62
0
100
AcDbBlockEnd
  0
BLOCK
  5
276
100
AcDbEntity
  8
0
100
AcDbBlockBegin
  2
*T3
 70
1
 10
0.0
 20
0.0
  3
*T3
  1

  0
LINE
  5
277
100
AcDbEntity
  8
0
100
AcDbLine
 62
2
  6
CONTINUOUS
 10
0.0
 20
0.0
 11
4.6
 21
0.0
  0
LINE
  5
278
100
AcDbEntity
  8
0
100
AcDbLine
 62
2
  6
CONTINUOUS
 10
0.0
 20
0.0
 11
0.0
 21
-1.68775
  0
LINE
  5
279
100
AcDbEntity
  8
0
100
AcDbLine
 62
2
  6
CONTINUOUS
 10
0.0
 20
-0.34375
 11
4.6
 21
-0.34375
  0
LINE
  5
27A
100
AcDbEntity
  8
0
100
AcDbLine
 62
2
  6
CONTINUOUS
 10
0.0
 20
-0.68775
 11
4.6
 21
-0.68775
  0
LINE
  5
27B
100
AcDbEntity
  8
0
100
AcDbLine
 62
2
  6
CONTINUOUS
 10
0.0
 20
-0.93775
 11
4.6
 21
-0.93775
  0
LINE
  5
27C
100
AcDbEntity
  8
0
100
AcDbLine
 62
2
  6
CONTINUOUS
 10
0.0
 20
-1.18775
 11
4.6
 21
-1.18775
  0
LINE
  5
27D
100
AcDbEntity
  8
0
100
AcDbLine
 62
2
  6
CONTINUOUS
 10
0.0
 20
-1.43775
 11
4.6
 21
-1.43775
  0
LINE
  5
27E
100
AcDbEntity
  8
0
100
AcDbLine
 62
2
  6
CONTINUOUS
 10
0.0
 20
-1.68775
 11
4.6
 21
-1.68775
  0
LINE
  5
27F
100
AcDbEntity
  8
0
100
AcDbLine
 62
2
  6
CONTINUOUS
 10
1.3
 20
-0.34375
 11
1.3
 21
-1.68775
  0
LINE
  5
280
100
AcDbEntity
  8
0
100
AcDbLine
 62
2
  6
CONTINUOUS
 10
3.3
 20
-0.34375
 11
3.3
 21
-1.68775
  0
LINE
  5
281
100
AcDbEntity
  8
0
100
AcDbLine
 62
2
  6
CONTINUOUS
 10
4.6
 20
0.0
 11
4.6
 21
-1.68775
  0
MTEXT
  5
282
100
AcDbEntity
  8
0
100
AcDbMText
 62
2
  6
CONTINUOUS
  7
STANDARD
 71
2
 72
1
 10
2.3
 20
-0.099375
 30
0.0
 11
1.0
 21
0.0
 31
0.0
 44
0.9
  1
Port Headings
 40
0.145
 41
3.016
  0
MTEXT
  5
283
100
AcDbEntity
  8
0
100
AcDbMText
 62
2
  6
CONTINUOUS
  7
STANDARD
 71
2
 72
1
 10
0.65
 20
-0.44325
 30
0.0
 11
1.0
 21
0.0
 31
0.0
 44
0.9
  1
Product
 40
0.145
 41
1.624
  0
MTEXT
  5
284
100
AcDbEntity
  8
0
100
AcDbMText
 62
2
  6
CONTINUOUS
  7
STANDARD
 71
2
 72
1
 10
2.3
 20
-0.44325
 30
0.0
 11
1.0
 21
0.0
 31
0.0
 44
0.9
  1
Port
 40
0.145
 41
0.928
  0
MTEXT
  5
285
100
AcDbEntity
  8
0
100
AcDbMText
 62
2
  6
CONTINUOUS
  7
STANDARD
 71
2
 72
1
 10
3.95
 20
-0.44325
 30
0.0
 11
1.0
 21
0.0
 31
0.0
 44
0.9
  1
Size
 40
0.145
 41
0.928
  0
MTEXT
  5
286
100
AcDbEntity
  8
0
100
AcDbMText
 62
2
  6
CONTINUOUS
  7
STANDARD
 71
2
 72
1
 10
0.65
 20
-0.75025
 30
0.0
 11
1.0
 21
0.0
 31
0.0
 44
0.9
  1
N4L
 40
0.125
 41
0.6
  0
MTEXT
  5
287
100
AcDbEntity
  8
0
100
AcDbMText
 62
2
  6
CONTINUOUS
  7
STANDARD
 71
2
 72
1
 10
2.3
 20
-0.75025
 30
0.0
 11
1.0
 21
0.0
 31
0.0
 44
0.9
  1
Ports 1 &  2
 40
0.125
 41
2.4
  0
MTEXT
  5
288
100
AcDbEntity
  8
0
100
AcDbMText
 62
2
  6
CONTINUOUS
  7
STANDARD
 71
2
 72
1
 10
3.95
 20
-0.75025
 30
0.0
 11
1.0
 21
0.0
 31
0.0
 44
0.9
  1
SAE 12
 40
0.125
 41
1.2
  0
MTEXT
  5
289
100
AcDbEntity
  8
0
100
AcDbMText
 62
2
  6
CONTINUOUS
  7
STANDARD
 71
2
 72
1
 10
0.65
 20
-1.00025
 30
0.0
 11
1.0
 21
0.0
 31
0.0
 44
0.9
  1
N4L
 40
0.125
 41
0.6
  0
MTEXT
  5
28A
100
AcDbEntity
  8
0
100
AcDbMText
 62
2
  6
CONTINUOUS
  7
STANDARD
 71
2
 72
1
 10
2.3
 20
-1.00025
 30
0.0
 11
1.0
 21
0.0
 31
0.0
 44
0.9
  1
Port 3
 40
0.125
 41
1.2
  0
MTEXT
  5
28B
100
AcDbEntity
  8
0
100
AcDbMText
 62
2
  6
CONTINUOUS
  7
STANDARD
 71
2
 72
1
 10
3.95
 20
-1.00025
 30
0.0
 11
1.0
 21
0.0
 31
0.0
 44
0.9
  1
SAE 10
 40
0.125
 41
1.2
  0
MTEXT
  5
28C
100
AcDbEntity
  8
0
100
AcDbMText
 62
2
  6
CONTINUOUS
  7
STANDARD
 71
2
 72
1
 10
0.65
 20
-1.25025
 30
0.0
 11
1.0
 21
0.0
 31
0.0
 44
0.9
  1
N4L
 40
0.125
 41
0.6
  0
MTEXT
  5
28D
100
AcDbEntity
  8
0
100
AcDbMText
 62
2
  6
CONTINUOUS
  7
STANDARD
 71
2
 72
1
 10
2.3
 20
-1.25025
 30
0.0
 11
1.0
 21
0.0
 31
0.0
 44
0.9
  1
Port 4
 40
0.125
 41
1.2
  0
MTEXT
  5
28E
100
AcDbEntity
  8
0
100
AcDbMText
 62
2
  6
CONTINUOUS
  7
STANDARD
 71
2
 72
1
 10
3.95
 20
-1.25025
 30
0.0
 11
1.0
 21
0.0
 31
0.0
 44
0.9
  1
SAE 6
 40
0.125
 41
1.0
  0
MTEXT
  5
28F
100
AcDbEntity
  8
0
100
AcDbMText
 62
2
  6
CONTINUOUS
  7
STANDARD
 71
2
 72
1
 10
0.65
 20
-1.50025
 30
0.0
 11
1.0
 21
0.0
 31
0.0
 44
0.9
  1
N4L
 40
0.125
 41
0.6
  0
MTEXT
  5
290
100
AcDbEntity
  8
0
100
AcDbMText
 62
2
  6
CONTINUOUS
  7
STANDARD
 71
2
 72
1
 10
2.3
 20
-1.50025
 30
0.0
 11
1.0
 21
0.0
 31
0.0
 44
0.9
  1
Gage Port
 40
0.125
 41
1.8
  0
MTEXT
  5
291
100
AcDbEntity
  8
0
100
AcDbMText
 62
2
  6
CONTINUOUS
  7
STANDARD
 71
2
 72
1
 10
3.95
 20
-1.50025
 30
0.0
 11
1.0
 21
0.0
 31
0.0
 44
0.9
  1
1/4" NPTF
 40
0.125
 41
1.8
  0
ENDBLK
  5
292
100
AcDbEntity
  8
0
  6
BYBLOCK
 62
0
100
AcDbBlockEnd
  0
ENDSEC
  0
SECTION
  2
ENTITIES
  0
IMAGE
  5
293
100
AcDbEntity
  8
0
100
AcDbRasterImage
 62
7
  6
CONTINUOUS
 10
19.2297077316
 20
0.3094318264
 30
0.0
 11
0.0066666667
 21
0.0
 31
0.0
 12
0.0
 22
0.0066666667
 32
0.0
 13
369.0
 23
92.0
340
       3AB
 70
9
280
0
281
50
282
50
283
0
360
       3A5
 71
1
 91
2
 14
-0.5
 24
-0.5
 14
368.5
 24
91.5
  0
INSERT
  5
294
100
AcDbEntity
  8
0
100
AcDbBlockReference
 62
2
  6
CONTINUOUS
  2
SUN_FIRST_THIRD_ANGLE_BL0
 10
20.4816717061
 20
1.2289683772
  0
ACAD_TABLE
  5
295
100
AcDbEntity
  8
0
 62
2
  6
CONTINUOUS
100
AcDbBlockReference
  2
*T1
 10
12.42375
 20
0.30125
 30
0.0
100
AcDbTable
342
       3AD
343
20F
 11
1.0
 21
0.0
 31
0.0
 90
6
 91
4
 92
6
 93
20
 94
0
 95
0
 96
0
 70
1
 41
0.0
141
0.525
141
0.1
141
0.525
141
0.1
142
4.1
142
1.1
142
0.7
142
0.5
142
0.4
142
2.475
171
1
172
0
173
0
174
0
175
1
176
1
 91
33
178
0
145
0.0
301
CELL_VALUE
 90
4
  1
T-22A Line mount\P(See Technical Data for Body Features)
304
ACVALUE_END
170
2
140
0.125
171
1
172
0
173
0
174
0
175
1
176
1
 91
33
178
0
145
0.0
301
CELL_VALUE
 90
4
  1
Dec-31-19
304
ACVALUE_END
170
5
140
0.125
171
1
172
0
173
0
174
0
175
1
176
1
 91
33
178
0
145
0.0
301
CELL_VALUE
 90
4
  1
1.000
304
ACVALUE_END
170
5
140
0.125
171
1
172
0
173
0
174
0
175
1
176
1
 91
33
178
0
145
0.0
301
CELL_VALUE
 90
4
  1
C
304
ACVALUE_END
170
5
140
0.125
171
1
172
0
173
0
174
0
175
1
176
1
 91
33
178
0
145
0.0
301
CELL_VALUE
 90
4
  1
2
304
ACVALUE_END
170
5
140
0.125
171
1
172
0
173
0
174
0
175
1
176
1
 91
33
178
0
145
0.0
301
CELL_VALUE
 90
4
  1
 
304
ACVALUE_END
170
1
140
0.125
171
1
172
0
173
0
174
0
175
1
176
1
 91
33
178
0
145
0.0
301
CELL_VALUE
 90
4
  1
DESCRIPTION
304
ACVALUE_END
170
1
140
0.06
171
1
172
0
173
0
174
0
175
1
176
1
 91
33
178
0
145
0.0
301
CELL_VALUE
 90
4
  1
DATE
304
ACVALUE_END
170
1
140
0.06
171
1
172
0
173
0
174
0
175
1
176
1
 91
33
178
0
145
0.0
301
CELL_VALUE
 90
4
  1
SCALE
304
ACVALUE_END
170
1
140
0.06
171
1
172
0
173
0
174
0
175
1
176
1
 91
33
178
0
145
0.0
301
CELL_VALUE
 90
4
  1
DWG SIZE
304
ACVALUE_END
170
1
140
0.06
171
1
172
0
173
0
174
0
175
1
176
1
 91
33
178
0
145
0.0
301
CELL_VALUE
 90
4
  1
SHEET
304
ACVALUE_END
170
1
140
0.06
171
1
172
0
173
0
174
0
175
1
176
1
 91
33
178
0
145
0.0
301
CELL_VALUE
 90
4
  1
 
304
ACVALUE_END
170
1
140
0.125
171
1
172
0
173
0
174
0
175
1
176
1
 91
33
178
0
145
0.0
301
CELL_VALUE
 90
4
  1
N4L
304
ACVALUE_END
170
5
140
0.125
171
1
172
0
173
0
174
0
175
4
176
1
 91
33
178
0
145
0.0
301
CELL_VALUE
 90
4
  1
ALL DIMENSIONS IN INCH\PVIEWS ARE THIRD ANGLE
304
ACVALUE_END
170
5
140
0.12
171
1
172
0
173
1
174
0
175
1
176
1
 91
1
178
0
145
0.0
170
1
171
1
172
0
173
1
174
0
175
1
176
1
 91
1
178
0
145
0.0
170
1
171
1
172
0
173
1
174
0
175
1
176
1
 91
1
178
0
145
0.0
170
5
171
1
172
0
173
0
174
0
175
1
176
1
 91
33
178
0
145
0.0
301
CELL_VALUE
 90
4
  1
 
304
ACVALUE_END
170
1
140
0.125
171
1
172
0
173
0
174
0
175
1
176
1
 91
33
178
0
145
0.0
301
CELL_VALUE
 90
4
  1
MODEL
304
ACVALUE_END
170
1
140
0.06
171
1
172
0
173
0
174
0
175
1
176
1
 91
33
178
0
145
0.0
301
CELL_VALUE
 90
4
  1
 
304
ACVALUE_END
170
1
140
0.125
171
1
172
0
173
0
174
0
175
1
176
1
 91
33
178
0
145
0.0
301
CELL_VALUE
 90
4
  1
 
304
ACVALUE_END
170
1
140
0.125
171
1
172
0
173
0
174
0
175
1
176
1
 91
33
178
0
145
0.0
301
CELL_VALUE
 90
4
  1
 
304
ACVALUE_END
170
1
140
0.125
171
1
172
0
173
0
174
0
175
1
176
1
 91
33
178
0
145
0.0
301
CELL_VALUE
 90
4
  1
 
304
ACVALUE_END
170
1
140
0.125
171
1
172
0
173
0
174
0
175
1
176
1
 91
33
178
0
145
0.0
301
CELL_VALUE
 90
4
  1
 
304
ACVALUE_END
170
1
140
0.125
  0
ACAD_TABLE
  5
296
100
AcDbEntity
  8
0
 62
2
  6
CONTINUOUS
100
AcDbBlockReference
  2
*T2
 10
12.4237499994
 20
16.47875
 30
0.0
100
AcDbTable
342
       3AC
343
210
 11
1.0
 21
0.0
 31
0.0
 90
22
 91
10
 92
3
 93
16
 94
0
 95
0
 96
0
 41
0.028
141
0.344
141
0.25
141
0.25
141
0.25
141
0.25
141
0.25
141
0.25
141
0.25
141
0.25
141
0.25
142
3.055
142
3.0
142
3.0
171
1
172
0
173
0
174
0
175
1
176
1
 91
33
178
0
145
0.0
301
CELL_VALUE
 90
4
  1
Technical Data
304
ACVALUE_END
170
5
140
0.145
171
1
172
0
173
0
174
0
175
1
176
1
 91
33
178
0
145
0.0
301
CELL_VALUE
 90
4
  1
U.S. Units
304
ACVALUE_END
170
5
140
0.145
171
1
172
0
173
0
174
0
175
1
176
1
 91
33
178
0
145
0.0
301
CELL_VALUE
 90
4
  1
Metric Units
304
ACVALUE_END
170
5
140
0.145
171
1
172
0
173
0
174
0
175
1
176
1
 91
33
178
0
145
0.0
301
CELL_VALUE
 90
4
  1
Cavity
304
ACVALUE_END
170
5
140
0.125
171
1
172
0
173
0
174
0
175
2
176
1
 91
33
178
0
145
0.0
301
CELL_VALUE
 90
4
  1
T-22A
304
ACVALUE_END
170
5
140
0.125
171
1
172
0
173
1
174
0
175
1
176
1
 91
1
178
0
145
0.0
170
1
171
1
172
0
173
0
174
0
175
1
176
1
 91
33
178
0
145
0.0
301
CELL_VALUE
 90
4
  1
Body Features
304
ACVALUE_END
170
5
140
0.125
171
1
172
0
173
0
174
0
175
2
176
1
 91
33
178
0
145
0.0
301
CELL_VALUE
 90
4
  1
Ninety degree with reverse flow check - reducing
304
ACVALUE_END
170
5
140
0.125
171
1
172
0
173
1
174
0
175
1
176
1
 91
1
178
0
145
0.0
170
1
171
1
172
0
173
0
174
0
175
1
176
1
 91
33
178
0
145
0.0
301
CELL_VALUE
 90
4
  1
Body Type
304
ACVALUE_END
170
5
140
0.125
171
1
172
0
173
0
174
0
175
2
176
1
 91
33
178
0
145
0.0
301
CELL_VALUE
 90
4
  1
Line mount
304
ACVALUE_END
170
5
140
0.125
171
1
172
0
173
1
174
0
175
1
176
1
 91
1
178
0
145
0.0
170
1
171
1
172
0
173
0
174
0
175
1
176
1
 91
33
178
0
145
0.0
301
CELL_VALUE
 90
4
  1
Interface
304
ACVALUE_END
170
5
140
0.125
171
1
172
0
173
0
174
0
175
2
176
1
 91
33
178
0
145
0.0
301
CELL_VALUE
 90
4
  1
None
304
ACVALUE_END
170
5
140
0.125
171
1
172
0
173
1
174
0
175
1
176
1
 91
1
178
0
145
0.0
170
1
171
1
172
0
173
0
174
0
175
1
176
1
 91
33
178
0
145
0.0
301
CELL_VALUE
 90
4
  1
Open Cavity Quantity
304
ACVALUE_END
170
5
140
0.125
171
1
172
0
173
0
174
0
175
2
176
1
 91
33
178
0
145
0.0
301
CELL_VALUE
 90
4
  1
1
304
ACVALUE_END
170
5
140
0.125
171
1
172
0
173
1
174
0
175
1
176
1
 91
1
178
0
145
0.0
170
1
171
1
172
0
173
0
174
0
175
1
176
1
 91
33
178
0
145
0.0
301
CELL_VALUE
 90
4
  1
Weight
304
ACVALUE_END
170
5
140
0.125
171
1
172
0
173
0
174
0
175
1
176
1
 91
33
178
0
145
0.0
301
CELL_VALUE
 90
4
  1
2.270 lb.
304
ACVALUE_END
170
5
140
0.125
171
1
172
0
173
0
174
0
175
1
176
1
 91
33
178
0
145
0.0
301
CELL_VALUE
 90
4
  1
1,030 kg.
304
ACVALUE_END
170
5
140
0.125
171
1
172
0
173
0
174
0
175
1
176
1
 91
33
178
0
145
0.0
301
CELL_VALUE
 90
4
  1
Mounting Hole Diameter
304
ACVALUE_END
170
5
140
0.125
171
1
172
0
173
0
174
0
175
1
176
1
 91
33
178
0
145
0.0
301
CELL_VALUE
 90
4
  1
.41 in.
304
ACVALUE_END
170
5
140
0.125
171
1
172
0
173
0
174
0
175
1
176
1
 91
33
178
0
145
0.0
301
CELL_VALUE
 90
4
  1
10,4 mm
304
ACVALUE_END
170
5
140
0.125
171
1
172
0
173
0
174
0
175
1
176
1
 91
33
178
0
145
0.0
301
CELL_VALUE
 90
4
  1
Mounting Hole Depth
304
ACVALUE_END
170
5
140
0.125
171
1
172
0
173
0
174
0
175
2
176
1
 91
33
178
0
145
0.0
301
CELL_VALUE
 90
4
  1
Through
304
ACVALUE_END
170
5
140
0.125
171
1
172
0
173
1
174
0
175
1
176
1
 91
1
178
0
145
0.0
170
1
171
1
172
0
173
0
174
0
175
1
176
1
 91
33
178
0
145
0.0
301
CELL_VALUE
 90
4
  1
Mounting Hole Quantity
304
ACVALUE_END
170
5
140
0.125
171
1
172
0
173
0
174
0
175
2
176
1
 91
33
178
0
145
0.0
301
CELL_VALUE
 90
4
  1
2
304
ACVALUE_END
170
5
140
0.125
171
1
172
0
173
1
174
0
175
1
176
1
 91
1
178
0
145
0.0
170
1
  0
ACAD_TABLE
  5
297
100
AcDbEntity
  8
0
 62
2
  6
CONTINUOUS
100
AcDbBlockReference
  2
*T3
 10
0.52125
 20
2.209
 30
0.0
100
AcDbTable
342
       3AC
343
211
 11
1.0
 21
0.0
 31
0.0
 90
22
 91
6
 92
3
 93
16
 94
0
 95
0
 96
0
 41
0.05
141
0.34375
141
0.344
141
0.25
141
0.25
141
0.25
141
0.25
142
1.3
142
2.0
142
1.3
171
1
172
0
173
0
174
0
175
3
176
1
 91
33
178
0
145
0.0
301
CELL_VALUE
 90
4
  1
Port Headings
304
ACVALUE_END
170
5
140
0.145
171
1
172
0
173
1
174
0
175
1
176
1
 91
1
178
0
145
0.0
170
1
171
1
172
0
173
1
174
0
175
1
176
1
 91
1
178
0
145
0.0
170
1
171
1
172
0
173
0
174
0
175
1
176
1
 91
33
178
0
145
0.0
301
CELL_VALUE
 90
4
  1
Product
304
ACVALUE_END
170
5
140
0.145
171
1
172
0
173
0
174
0
175
1
176
1
 91
33
178
0
145
0.0
301
CELL_VALUE
 90
4
  1
Port
304
ACVALUE_END
170
5
140
0.145
171
1
172
0
173
0
174
0
175
1
176
1
 91
33
178
0
145
0.0
301
CELL_VALUE
 90
4
  1
Size
304
ACVALUE_END
170
5
140
0.145
171
1
172
0
173
0
174
0
175
1
176
1
 91
33
178
0
145
0.0
301
CELL_VALUE
 90
4
  1
N4L
304
ACVALUE_END
170
5
140
0.125
171
1
172
0
173
0
174
0
175
1
176
1
 91
33
178
0
145
0.0
301
CELL_VALUE
 90
4
  1
Ports 1 &  2
304
ACVALUE_END
170
5
140
0.125
171
1
172
0
173
0
174
0
175
1
176
1
 91
33
178
0
145
0.0
301
CELL_VALUE
 90
4
  1
SAE 12
304
ACVALUE_END
170
5
140
0.125
171
1
172
0
173
0
174
0
175
1
176
1
 91
33
178
0
145
0.0
301
CELL_VALUE
 90
4
  1
N4L
304
ACVALUE_END
170
5
140
0.125
171
1
172
0
173
0
174
0
175
1
176
1
 91
33
178
0
145
0.0
301
CELL_VALUE
 90
4
  1
Port 3
304
ACVALUE_END
170
5
140
0.125
171
1
172
0
173
0
174
0
175
1
176
1
 91
33
178
0
145
0.0
301
CELL_VALUE
 90
4
  1
SAE 10
304
ACVALUE_END
170
5
140
0.125
171
1
172
0
173
0
174
0
175
1
176
1
 91
33
178
0
145
0.0
301
CELL_VALUE
 90
4
  1
N4L
304
ACVALUE_END
170
5
140
0.125
171
1
172
0
173
0
174
0
175
1
176
1
 91
33
178
0
145
0.0
301
CELL_VALUE
 90
4
  1
Port 4
304
ACVALUE_END
170
5
140
0.125
171
1
172
0
173
0
174
0
175
1
176
1
 91
33
178
0
145
0.0
301
CELL_VALUE
 90
4
  1
SAE 6
304
ACVALUE_END
170
5
140
0.125
171
1
172
0
173
0
174
0
175
1
176
1
 91
33
178
0
145
0.0
301
CELL_VALUE
 90
4
  1
N4L
304
ACVALUE_END
170
5
140
0.125
171
1
172
0
173
0
174
0
175
1
176
1
 91
33
178
0
145
0.0
301
CELL_VALUE
 90
4
  1
Gage Port
304
ACVALUE_END
170
5
140
0.125
171
1
172
0
173
0
174
0
175
1
176
1
 91
33
178
0
145
0.0
301
CELL_VALUE
 90
4
  1
1/4" NPTF
304
ACVALUE_END
170
5
140
0.125
  0
MTEXT
  5
298
100
AcDbEntity
  8
0
100
AcDbMText
 62
2
  6
CONTINUOUS
  7
STANDARD
 71
1
 72
1
 10
0.52125
 20
5.75995
 30
0.0
 11
1.0
 21
0.0
 31
0.0
 44
0.6
  3
Notes\P \P1. Important: Carefully consider\P   the maximum system pressure. The\P   pressure rating of the manifold is\P   dependent on the manifold material,\P   with the port type/size a secondary\P   consideration. Manifolds\P   constructed of alu
  1
minum are not\P   rated for pressures higher than\P   3000 psi (210 bar), regardless of\P   the port type/size specified.
 40
0.1
 41
3.04
  0
LINE
  5
299
100
AcDbEntity
  8
0
100
AcDbLine
 62
7
  6
CONTINUOUS
 10
0.30125
 20
0.30125
 11
0.30125
 21
16.69875
  0
LINE
  5
29A
100
AcDbEntity
  8
0
100
AcDbLine
 62
7
  6
CONTINUOUS
 10
0.30125
 20
0.30125
 11
21.69875
 21
0.30125
  0
LINE
  5
29B
100
AcDbEntity
  8
0
100
AcDbLine
 62
7
  6
CONTINUOUS
 10
0.30125
 20
16.69875
 11
21.69875
 21
16.69875
  0
LINE
  5
29C
100
AcDbEntity
  8
0
100
AcDbLine
 62
7
  6
CONTINUOUS
 10
21.69875
 20
0.30125
 11
21.69875
 21
16.69875
  0
LINE
  5
29D
100
AcDbEntity
  8
0
100
AcDbLine
 62
7
  6
CONTINUOUS
 10
9.2622623566
 20
11.2107129552
 11
8.8740341093
 21
10.8357132424
  0
LINE
  5
29E
100
AcDbEntity
  8
0
100
AcDbLine
 62
4
  6
CONTINUOUS
 10
9.1126178363
 20
9.8822193511
 11
9.1053733923
 21
9.8730624987
  0
LINE
  5
29F
100
AcDbEntity
  8
0
100
AcDbLine
 62
4
  6
CONTINUOUS
 10
9.1198622802
 20
9.8237613955
 11
9.1053733923
 21
9.8054476863
  0
LINE
  5
2A0
100
AcDbEntity
  8
0
100
AcDbLine
 62
7
  6
CONTINUOUS
 10
8.8740341093
 20
6.4890467666
 11
8.8740341093
 21
7.2271033279
  0
LINE
  5
2A1
100
AcDbEntity
  8
0
100
AcDbLine
 62
7
  6
CONTINUOUS
 10
8.8740341093
 20
7.8026168519
 11
8.8740341093
 21
10.8357132424
  0
LINE
  5
2A2
100
AcDbEntity
  8
0
100
AcDbLine
 62
7
  6
CONTINUOUS
 10
8.9049437383
 20
7.8004732619
 11
8.9049437383
 21
7.2249597378
  0
LINE
  5
2A3
100
AcDbEntity
  8
0
100
AcDbLine
 62
4
  6
CONTINUOUS
 10
9.0619067285
 20
9.9050546979
 11
9.0763956164
 21
9.9137091464
  0
LINE
  5
2A4
100
AcDbEntity
  8
0
100
AcDbLine
 62
4
  6
CONTINUOUS
 10
9.1053733923
 20
9.8730624987
 11
9.0908845044
 21
9.8644080432
  0
LINE
  5
2A5
100
AcDbEntity
  8
0
100
AcDbLine
 62
4
  6
CONTINUOUS
 10
9.1053733923
 20
9.8054476863
 11
9.0908845044
 21
9.7967932352
  0
LINE
  5
2A6
100
AcDbEntity
  8
0
100
AcDbLine
 62
7
  6
CONTINUOUS
 10
8.8740341093
 20
6.4890467666
 11
12.7377376434
 21
6.2210980164
  0
LINE
  5
2A7
100
AcDbEntity
  8
0
100
AcDbLine
 62
7
  6
CONTINUOUS
 10
11.4550988838
 20
5.8755624202
 11
11.4743167732
 21
5.8660691508
  0
LINE
  5
2A8
100
AcDbEntity
  8
0
100
AcDbLine
 62
4
  6
CONTINUOUS
 10
9.1126178363
 20
9.8918786074
 11
9.1126178363
 21
9.8822193511
  0
LINE
  5
2A9
100
AcDbEntity
  8
0
100
AcDbLine
 62
4
  6
CONTINUOUS
 10
9.1126178363
 20
7.6122934136
 11
9.1126178363
 21
7.4963823102
  0
LINE
  5
2AA
100
AcDbEntity
  8
0
100
AcDbLine
 62
4
  6
CONTINUOUS
 10
9.1198622802
 20
9.8334206552
 11
9.1198622802
 21
9.8237613955
  0
LINE
  5
2AB
100
AcDbEntity
  8
0
100
AcDbLine
 62
7
  6
CONTINUOUS
 10
11.2646636921
 20
10.8708842343
 11
11.26304458
 21
10.8693495424
  0
LINE
  5
2AC
100
AcDbEntity
  8
0
100
AcDbLine
 62
7
  6
CONTINUOUS
 10
8.8740341093
 20
7.2271033279
 11
8.9049437383
 21
7.2249597378
  0
LINE
  5
2AD
100
AcDbEntity
  8
0
100
AcDbLine
 62
4
  6
CONTINUOUS
 10
11.1782502634
 20
7.325118437
 11
11.1637613755
 21
7.3261232448
  0
LINE
  5
2AE
100
AcDbEntity
  8
0
100
AcDbLine
 62
4
  6
CONTINUOUS
 10
9.8965355649
 20
8.7998333564
 11
9.8965355649
 21
8.8163920845
  0
LINE
  5
2AF
100
AcDbEntity
  8
0
100
AcDbLine
 62
4
  6
CONTINUOUS
 10
9.9544911166
 20
8.7295792078
 11
9.9544911166
 21
8.7461379376
  0
LINE
  5
2B0
100
AcDbEntity
  8
0
100
AcDbLine
 62
4
  6
CONTINUOUS
 10
9.9876085728
 20
8.826634878
 11
9.9876085728
 21
8.7272825044
  0
LINE
  5
2B1
100
AcDbEntity
  8
0
100
AcDbLine
 62
4
  6
CONTINUOUS
 10
10.0234858332
 20
8.1170890506
 11
10.0234858332
 21
8.2330001541
  0
LINE
  5
2B2
100
AcDbEntity
  8
0
100
AcDbLine
 62
4
  6
CONTINUOUS
 10
10.0455641245
 20
8.7232632732
 11
10.0455641245
 21
8.8226156469
  0
LINE
  5
2B3
100
AcDbEntity
  8
0
100
AcDbLine
 62
4
  6
CONTINUOUS
 10
10.0786815806
 20
8.7044078401
 11
10.0786815806
 21
8.8203189435
  0
LINE
  5
2B4
100
AcDbEntity
  8
0
100
AcDbLine
 62
4
  6
CONTINUOUS
 10
10.081441378
 20
8.2124221953
 11
10.081441378
 21
8.1296285497
  0
LINE
  5
2B5
100
AcDbEntity
  8
0
100
AcDbLine
 62
4
  6
CONTINUOUS
 10
9.8965355649
 20
8.8163920845
 11
9.9130942947
 21
8.8318024608
  0
LINE
  5
2B6
100
AcDbEntity
  8
0
100
AcDbLine
 62
4
  6
CONTINUOUS
 10
11.1710058194
 20
7.3835763926
 11
11.1999835953
 21
7.381566777
  0
LINE
  5
2B7
100
AcDbEntity
  8
0
100
AcDbLine
 62
4
  6
CONTINUOUS
 10
11.1637613755
 20
7.4420343482
 11
11.1782502634
 21
7.4410295404
  0
LINE
  5
2B8
100
AcDbEntity
  8
0
100
AcDbLine
 62
4
  6
CONTINUOUS
 10
10.1366371323
 20
8.7003886089
 11
10.1366371323
 21
8.8162997123
  0
LINE
  5
2B9
100
AcDbEntity
  8
0
100
AcDbLine
 62
4
  6
CONTINUOUS
 10
10.2608275963
 20
8.691775971
 11
10.2608275963
 21
8.8076870744
  0
LINE
  5
2BA
100
AcDbEntity
  8
0
100
AcDbLine
 62
4
  6
CONTINUOUS
 10
10.2608276161
 20
8.1006293421
 11
10.2608276161
 21
8.2165404455
  0
LINE
  5
2BB
100
AcDbEntity
  8
0
100
AcDbLine
 62
4
  6
CONTINUOUS
 10
10.3105037875
 20
8.7628451952
 11
10.3105037875
 21
8.6883309154
  0
LINE
  5
2BC
100
AcDbEntity
  8
0
100
AcDbLine
 62
4
  6
CONTINUOUS
 10
10.3270624814
 20
8.3510403661
 11
10.3270624814
 21
8.4669514696
  0
LINE
  5
2BD
100
AcDbEntity
  8
0
100
AcDbLine
 62
4
  6
CONTINUOUS
 10
10.3270625284
 20
8.0960359353
 11
10.3270625284
 21
8.2119470387
  0
LINE
  5
2BE
100
AcDbEntity
  8
0
100
AcDbLine
 62
4
  6
CONTINUOUS
 10
10.1283577777
 20
8.1098161566
 11
10.1614752339
 21
8.2234305566
  0
LINE
  5
2BF
100
AcDbEntity
  8
0
100
AcDbLine
 62
4
  6
CONTINUOUS
 10
9.9379323885
 20
8.7141688297
 11
9.9544911166
 21
8.7295792078
  0
LINE
  5
2C0
100
AcDbEntity
  8
0
100
AcDbLine
 62
4
  6
CONTINUOUS
 10
10.0290054033
 20
8.7078528946
 11
10.0455641245
 21
8.7232632732
  0
LINE
  5
2C1
100
AcDbEntity
  8
0
100
AcDbLine
 62
7
  6
CONTINUOUS
 10
8.8740341093
 20
7.8026168519
 11
8.9049437383
 21
7.8004732619
  0
LINE
  5
2C2
100
AcDbEntity
  8
0
100
AcDbLine
 62
4
  6
CONTINUOUS
 10
9.957250914
 20
8.1713586456
 11
10.0014075257
 21
8.1462180683
  0
LINE
  5
2C3
100
AcDbEntity
  8
0
100
AcDbLine
 62
4
  6
CONTINUOUS
 10
11.1637613755
 20
7.3261232448
 11
11.1492724875
 21
7.3367873115
  0
LINE
  5
2C4
100
AcDbEntity
  8
0
100
AcDbLine
 62
4
  6
CONTINUOUS
 10
11.1782502634
 20
7.4410295404
 11
11.1927391513
 21
7.4303654763
  0
LINE
  5
2C5
100
AcDbEntity
  8
0
100
AcDbLine
 62
4
  6
CONTINUOUS
 10
10.06488265
 20
8.2301292751
 11
10.081441378
 21
8.2124221953
  0
LINE
  5
2C6
100
AcDbEntity
  8
0
100
AcDbLine
 62
4
  6
CONTINUOUS
 10
9.0619067285
 20
9.8084621097
 11
9.0546622846
 21
9.8186237725
  0
LINE
  5
2C7
100
AcDbEntity
  8
0
100
AcDbLine
 62
4
  6
CONTINUOUS
 10
9.1053733923
 20
9.8537439791
 11
9.1198622802
 21
9.8334206552
  0
LINE
  5
2C8
100
AcDbEntity
  8
0
100
AcDbLine
 62
4
  6
CONTINUOUS
 10
9.1053733923
 20
9.9020402745
 11
9.1126178363
 21
9.8918786074
  0
LINE
  5
2C9
100
AcDbEntity
  8
0
100
AcDbLine
 62
4
  6
CONTINUOUS
 10
10.0786815806
 20
8.8203189435
 11
10.1366371323
 21
8.7003886089
  0
LINE
  5
2CA
100
AcDbEntity
  8
0
100
AcDbLine
 62
4
  6
CONTINUOUS
 10
10.1614752339
 20
8.2234305566
 11
10.1945927038
 21
8.1052227489
  0
LINE
  5
2CB
100
AcDbEntity
  8
0
100
AcDbLine
 62
4
  6
CONTINUOUS
 10
10.3850180331
 20
8.347021135
 11
10.3850180331
 21
8.4629322384
  0
LINE
  5
2CC
100
AcDbEntity
  8
0
100
AcDbLine
 62
4
  6
CONTINUOUS
 10
10.4153757527
 20
8.6893373848
 11
10.4153757527
 21
8.7555722997
  0
LINE
  5
2CD
100
AcDbEntity
  8
0
100
AcDbLine
 62
4
  6
CONTINUOUS
 10
10.4567725284
 20
8.3420449438
 11
10.4567725284
 21
8.4000004955
  0
LINE
  5
2CE
100
AcDbEntity
  8
0
100
AcDbLine
 62
4
  6
CONTINUOUS
 10
10.4650519162
 20
8.7935240697
 11
10.4650519162
 21
8.6776129663
  0
LINE
  5
2CF
100
AcDbEntity
  8
0
100
AcDbLine
 62
4
  6
CONTINUOUS
 10
10.4981694138
 20
8.67531626
 11
10.4981694138
 21
8.7581099073
  0
LINE
  5
2D0
100
AcDbEntity
  8
0
100
AcDbLine
 62
4
  6
CONTINUOUS
 10
10.5009292112
 20
8.1005369697
 11
10.5009292112
 21
8.1833306153
  0
LINE
  5
2D1
100
AcDbEntity
  8
0
100
AcDbLine
 62
4
  6
CONTINUOUS
 10
10.5092084972
 20
8.4543196005
 11
10.5092084972
 21
8.338408497
  0
LINE
  5
2D2
100
AcDbEntity
  8
0
100
AcDbLine
 62
4
  6
CONTINUOUS
 10
10.5368064114
 20
8.7471510549
 11
10.5368064114
 21
8.7305923268
  0
LINE
  5
2D3
100
AcDbEntity
  8
0
100
AcDbLine
 62
4
  6
CONTINUOUS
 10
10.4181354893
 20
8.3695625254
 11
10.4429735849
 21
8.4589130072
  0
LINE
  5
2D4
100
AcDbEntity
  8
0
100
AcDbLine
 62
4
  6
CONTINUOUS
 10
10.3601799786
 20
8.657287978
 11
10.3932974209
 21
8.7653828047
  0
LINE
  5
2D5
100
AcDbEntity
  8
0
100
AcDbLine
 62
4
  6
CONTINUOUS
 10
10.4153757527
 20
8.7555722997
 11
10.4319344738
 21
8.762703316
  0
LINE
  5
2D6
100
AcDbEntity
  8
0
100
AcDbLine
 62
4
  6
CONTINUOUS
 10
10.7299915852
 20
8.0680927103
 11
10.6885947546
 21
8.0709635903
  0
LINE
  5
2D7
100
AcDbEntity
  8
0
100
AcDbLine
 62
4
  6
CONTINUOUS
 10
10.6389185911
 20
8.0744086439
 11
10.6140804817
 21
8.0761311726
  0
LINE
  5
2D8
100
AcDbEntity
  8
0
100
AcDbLine
 62
4
  6
CONTINUOUS
 10
10.5506053747
 20
8.0805331863
 11
10.5174879324
 21
8.0828298887
  0
LINE
  5
2D9
100
AcDbEntity
  8
0
100
AcDbLine
 62
4
  6
CONTINUOUS
 10
10.06488265
 20
8.1142181716
 11
10.0234858332
 21
8.1170890506
  0
LINE
  5
2DA
100
AcDbEntity
  8
0
100
AcDbLine
 62
4
  6
CONTINUOUS
 10
10.3270625284
 20
8.0960359353
 11
10.3767387196
 21
8.0925908798
  0
LINE
  5
2DB
100
AcDbEntity
  8
0
100
AcDbLine
 62
4
  6
CONTINUOUS
 10
10.7934667474
 20
8.0636906929
 11
10.8431429109
 21
8.0602456392
  0
LINE
  5
2DC
100
AcDbEntity
  8
0
100
AcDbLine
 62
4
  6
CONTINUOUS
 10
9.9544911166
 20
8.7461379376
 11
9.8965355649
 21
8.7998333564
  0
LINE
  5
2DD
100
AcDbEntity
  8
0
100
AcDbLine
 62
4
  6
CONTINUOUS
 10
9.8965355649
 20
8.725319074
 11
9.9048149298
 21
8.7164655332
  0
LINE
  5
2DE
100
AcDbEntity
  8
0
100
AcDbLine
 62
4
  6
CONTINUOUS
 10
10.5174879324
 20
8.0828298887
 11
10.5009292112
 21
8.1005369697
  0
LINE
  5
2DF
100
AcDbEntity
  8
0
100
AcDbLine
 62
4
  6
CONTINUOUS
 10
9.9876085728
 20
8.7272825044
 11
10.0041673008
 21
8.7095754229
  0
LINE
  5
2E0
100
AcDbEntity
  8
0
100
AcDbLine
 62
4
  6
CONTINUOUS
 10
10.6140804817
 20
8.0761311726
 11
10.5975217606
 21
8.0938382537
  0
LINE
  5
2E1
100
AcDbEntity
  8
0
100
AcDbLine
 62
4
  6
CONTINUOUS
 10
9.9462117526
 20
8.8295057573
 11
9.9544911166
 21
8.8206522139
  0
LINE
  5
2E2
100
AcDbEntity
  8
0
100
AcDbLine
 62
4
  6
CONTINUOUS
 10
10.6389185911
 20
8.1903197473
 11
10.6554773123
 21
8.1726126681
  0
LINE
  5
2E3
100
AcDbEntity
  8
0
100
AcDbLine
 62
4
  6
CONTINUOUS
 10
11.1492724875
 20
7.3367873115
 11
11.1347835996
 21
7.3571106362
  0
LINE
  5
2E4
100
AcDbEntity
  8
0
100
AcDbLine
 62
4
  6
CONTINUOUS
 10
11.1927391513
 20
7.4303654763
 11
11.1999835953
 21
7.4202038092
  0
LINE
  5
2E5
100
AcDbEntity
  8
0
100
AcDbLine
 62
4
  6
CONTINUOUS
 10
10.3270624814
 20
8.4669514696
 11
10.3850180331
 21
8.347021135
  0
LINE
  5
2E6
100
AcDbEntity
  8
0
100
AcDbLine
 62
4
  6
CONTINUOUS
 10
10.3436212574
 20
8.7688278583
 11
10.3684593668
 21
8.6843116823
  0
LINE
  5
2E7
100
AcDbEntity
  8
0
100
AcDbLine
 62
4
  6
CONTINUOUS
 10
10.5726836867
 20
8.6784280425
 11
10.5726836867
 21
8.7032661372
  0
LINE
  5
2E8
100
AcDbEntity
  8
0
100
AcDbLine
 62
4
  6
CONTINUOUS
 10
10.5975217606
 20
8.0938382537
 11
10.5975217606
 21
8.1766318992
  0
LINE
  5
2E9
100
AcDbEntity
  8
0
100
AcDbLine
 62
4
  6
CONTINUOUS
 10
10.6223598502
 20
8.666703624
 11
10.6223598502
 21
8.7329385432
  0
LINE
  5
2EA
100
AcDbEntity
  8
0
100
AcDbLine
 62
4
  6
CONTINUOUS
 10
10.6554772925
 20
8.7472005689
 11
10.6554772925
 21
8.6726862865
  0
LINE
  5
2EB
100
AcDbEntity
  8
0
100
AcDbLine
 62
4
  6
CONTINUOUS
 10
10.6554773123
 20
8.1726126681
 11
10.6554773123
 21
8.0898190225
  0
LINE
  5
2EC
100
AcDbEntity
  8
0
100
AcDbLine
 62
4
  6
CONTINUOUS
 10
10.6885947546
 20
8.0709635903
 11
10.6885947546
 21
8.1868746937
  0
LINE
  5
2ED
100
AcDbEntity
  8
0
100
AcDbLine
 62
4
  6
CONTINUOUS
 10
10.7051535113
 20
8.6609618641
 11
10.7051535113
 21
8.7437555114
  0
LINE
  5
2EE
100
AcDbEntity
  8
0
100
AcDbLine
 62
4
  6
CONTINUOUS
 10
10.7382709536
 20
8.6669445266
 11
10.7382709536
 21
8.7745762651
  0
LINE
  5
2EF
100
AcDbEntity
  8
0
100
AcDbLine
 62
4
  6
CONTINUOUS
 10
10.7465503063
 20
8.1662967345
 11
10.7465503063
 21
8.0835030889
  0
LINE
  5
2F0
100
AcDbEntity
  8
0
100
AcDbLine
 62
4
  6
CONTINUOUS
 10
10.7934667474
 20
8.0636906929
 11
10.7934667474
 21
8.1796017963
  0
LINE
  5
2F1
100
AcDbEntity
  8
0
100
AcDbLine
 62
4
  6
CONTINUOUS
 10
10.8155450041
 20
8.7692172915
 11
10.8127852265
 21
8.7611293152
  0
LINE
  5
2F2
100
AcDbEntity
  8
0
100
AcDbLine
 62
7
  6
CONTINUOUS
 10
12.7377376434
 20
10.5677644923
 11
13.1259658907
 21
10.942764205
  0
LINE
  5
2F3
100
AcDbEntity
  8
0
100
AcDbLine
 62
4
  6
CONTINUOUS
 10
10.081441378
 20
8.1296285497
 11
10.06488265
 21
8.1142181716
  0
LINE
  5
2F4
100
AcDbEntity
  8
0
100
AcDbLine
 62
4
  6
CONTINUOUS
 10
10.8569418347
 20
8.7249495879
 11
10.8652211676
 21
8.7326547817
  0
LINE
  5
2F5
100
AcDbEntity
  8
0
100
AcDbLine
 62
4
  6
CONTINUOUS
 10
10.9314561628
 20
8.7197820017
 11
10.9397354958
 21
8.7274871955
  0
LINE
  5
2F6
100
AcDbEntity
  8
0
100
AcDbLine
 62
4
  6
CONTINUOUS
 10
10.5726836867
 20
8.7032661372
 11
10.5892424078
 21
8.7103971501
  0
LINE
  5
2F7
100
AcDbEntity
  8
0
100
AcDbLine
 62
4
  6
CONTINUOUS
 10
10.1393969298
 20
8.1421680484
 11
10.183553538
 21
8.1391057772
  0
LINE
  5
2F8
100
AcDbEntity
  8
0
100
AcDbLine
 62
4
  6
CONTINUOUS
 10
10.8265841898
 20
8.1276289096
 11
10.7934667474
 21
8.1299256121
  0
LINE
  5
2F9
100
AcDbEntity
  8
0
100
AcDbLine
 62
4
  6
CONTINUOUS
 10
10.3601799984
 20
8.1599741502
 11
10.3270625284
 21
8.1622708545
  0
LINE
  5
2FA
100
AcDbEntity
  8
0
100
AcDbLine
 62
4
  6
CONTINUOUS
 10
10.0234858332
 20
8.2330001541
 11
10.06488265
 21
8.2301292751
  0
LINE
  5
2FB
100
AcDbEntity
  8
0
100
AcDbLine
 62
4
  6
CONTINUOUS
 10
10.2277101462
 20
8.2188371499
 11
10.2939450585
 21
8.2142437431
  0
LINE
  5
2FC
100
AcDbEntity
  8
0
100
AcDbLine
 62
4
  6
CONTINUOUS
 10
10.3270625284
 20
8.2119470387
 11
10.3767387196
 21
8.2085019832
  0
LINE
  5
2FD
100
AcDbEntity
  8
0
100
AcDbLine
 62
4
  6
CONTINUOUS
 10
10.5174879324
 20
8.1987409921
 11
10.5506053747
 21
8.1964442897
  0
LINE
  5
2FE
100
AcDbEntity
  8
0
100
AcDbLine
 62
4
  6
CONTINUOUS
 10
10.6140804817
 20
8.1920422761
 11
10.6389185911
 21
8.1903197473
  0
LINE
  5
2FF
100
AcDbEntity
  8
0
100
AcDbLine
 62
4
  6
CONTINUOUS
 10
10.6885947546
 20
8.1868746937
 11
10.7299915852
 21
8.1840038138
  0
LINE
  5
300
100
AcDbEntity
  8
0
100
AcDbLine
 62
4
  6
CONTINUOUS
 10
10.7934667474
 20
8.1796017963
 11
10.8431429109
 21
8.1761567427
  0
LINE
  5
301
100
AcDbEntity
  8
0
100
AcDbLine
 62
4
  6
CONTINUOUS
 10
10.8762603533
 20
8.129703432
 11
10.9204169615
 21
8.1045628533
  0
LINE
  5
302
100
AcDbEntity
  8
0
100
AcDbLine
 62
4
  6
CONTINUOUS
 10
10.7299915852
 20
8.1840038138
 11
10.7465503063
 21
8.1662967345
  0
LINE
  5
303
100
AcDbEntity
  8
0
100
AcDbLine
 62
4
  6
CONTINUOUS
 10
10.3022244269
 20
8.7716987383
 11
10.3105037875
 21
8.7628451952
  0
LINE
  5
304
100
AcDbEntity
  8
0
100
AcDbLine
 62
4
  6
CONTINUOUS
 10
10.5312868561
 20
8.7558132049
 11
10.5368064114
 21
8.7471510549
  0
LINE
  5
305
100
AcDbEntity
  8
0
100
AcDbLine
 62
4
  6
CONTINUOUS
 10
10.6223598502
 20
8.7329385432
 11
10.6140805172
 21
8.750071445
  0
LINE
  5
306
100
AcDbEntity
  8
0
100
AcDbLine
 62
4
  6
CONTINUOUS
 10
10.8127852265
 20
8.6534975793
 11
10.8127852265
 21
8.7362912266
  0
LINE
  5
307
100
AcDbEntity
  8
0
100
AcDbLine
 62
4
  6
CONTINUOUS
 10
10.8127852265
 20
8.7611293152
 11
10.8127852265
 21
8.7694086827
  0
LINE
  5
308
100
AcDbEntity
  8
0
100
AcDbLine
 62
4
  6
CONTINUOUS
 10
10.8569418347
 20
8.658714673
 11
10.8569418347
 21
8.7249495879
  0
LINE
  5
309
100
AcDbEntity
  8
0
100
AcDbLine
 62
4
  6
CONTINUOUS
 10
10.9314561628
 20
8.6949439096
 11
10.9314561628
 21
8.7197820017
  0
LINE
  5
30A
100
AcDbEntity
  8
0
100
AcDbLine
 62
4
  6
CONTINUOUS
 10
10.9811322711
 20
8.650102037
 11
10.9811322711
 21
8.6749401317
  0
LINE
  5
30B
100
AcDbEntity
  8
0
100
AcDbLine
 62
4
  6
CONTINUOUS
 10
10.9728529381
 20
8.6423968458
 11
10.9811322711
 21
8.650102037
  0
LINE
  5
30C
100
AcDbEntity
  8
0
100
AcDbLine
 62
4
  6
CONTINUOUS
 10
10.5009292112
 20
8.1833306153
 11
10.5174879324
 21
8.1987409921
  0
LINE
  5
30D
100
AcDbEntity
  8
0
100
AcDbLine
 62
4
  6
CONTINUOUS
 10
10.5975217606
 20
8.1766318992
 11
10.6140804817
 21
8.1920422761
  0
LINE
  5
30E
100
AcDbEntity
  8
0
100
AcDbLine
 62
4
  6
CONTINUOUS
 10
10.0014075257
 20
8.1903746817
 11
9.957250914
 21
8.1713586456
  0
LINE
  5
30F
100
AcDbEntity
  8
0
100
AcDbLine
 62
4
  6
CONTINUOUS
 10
10.5092084972
 20
8.338408497
 11
10.5506053277
 21
8.3355376171
  0
LINE
  5
310
100
AcDbEntity
  8
0
100
AcDbLine
 62
4
  6
CONTINUOUS
 10
10.476091041
 20
8.3655432943
 11
10.4181354893
 21
8.3695625254
  0
LINE
  5
311
100
AcDbEntity
  8
0
100
AcDbLine
 62
7
  6
CONTINUOUS
 10
12.7377376434
 20
8.2882685234
 11
12.7068280144
 21
8.2904121135
  0
LINE
  5
312
100
AcDbEntity
  8
0
100
AcDbLine
 62
4
  6
CONTINUOUS
 10
10.4319344738
 20
8.6799096687
 11
10.4153757527
 21
8.6893373848
  0
LINE
  5
313
100
AcDbEntity
  8
0
100
AcDbLine
 62
4
  6
CONTINUOUS
 10
10.5892424078
 20
8.6690003264
 11
10.5726836867
 21
8.6784280425
  0
LINE
  5
314
100
AcDbEntity
  8
0
100
AcDbLine
 62
4
  6
CONTINUOUS
 10
9.0763956164
 20
9.797798043
 11
9.0619067285
 21
9.8084621097
  0
LINE
  5
315
100
AcDbEntity
  8
0
100
AcDbLine
 62
4
  6
CONTINUOUS
 10
9.0908845044
 20
9.8644080432
 11
9.1053733923
 21
9.8537439791
  0
LINE
  5
316
100
AcDbEntity
  8
0
100
AcDbLine
 62
4
  6
CONTINUOUS
 10
9.0908845044
 20
9.9127043386
 11
9.1053733923
 21
9.9020402745
  0
LINE
  5
317
100
AcDbEntity
  8
0
100
AcDbLine
 62
4
  6
CONTINUOUS
 10
10.6554772925
 20
8.6726862865
 11
10.6637566807
 21
8.663832744
  0
LINE
  5
318
100
AcDbEntity
  8
0
100
AcDbLine
 62
4
  6
CONTINUOUS
 10
10.7465503418
 20
8.6580909841
 11
10.7382709536
 21
8.6669445266
  0
LINE
  5
319
100
AcDbEntity
  8
0
100
AcDbLine
 62
4
  6
CONTINUOUS
 10
10.8652211676
 20
8.6498611344
 11
10.8569418347
 21
8.658714673
  0
LINE
  5
31A
100
AcDbEntity
  8
0
100
AcDbLine
 62
4
  6
CONTINUOUS
 10
11.1347835996
 20
7.3571106362
 11
11.1275391556
 21
7.386590816
  0
LINE
  5
31B
100
AcDbEntity
  8
0
100
AcDbLine
 62
4
  6
CONTINUOUS
 10
11.1999835953
 20
7.381566777
 11
11.1999835953
 21
7.3429297431
  0
LINE
  5
31C
100
AcDbEntity
  8
0
100
AcDbLine
 62
4
  6
CONTINUOUS
 10
10.6554773123
 20
8.0898190225
 11
10.6389185911
 21
8.0744086439
  0
LINE
  5
31D
100
AcDbEntity
  8
0
100
AcDbLine
 62
4
  6
CONTINUOUS
 10
10.7465503063
 20
8.0835030889
 11
10.7299915852
 21
8.0680927103
  0
LINE
  5
31E
100
AcDbEntity
  8
0
100
AcDbLine
 62
4
  6
CONTINUOUS
 10
10.3436212574
 20
8.6584363292
 11
10.3601799786
 21
8.657287978
  0
LINE
  5
31F
100
AcDbEntity
  8
0
100
AcDbLine
 62
4
  6
CONTINUOUS
 10
10.8983387205
 20
8.6475644243
 11
10.8652211676
 21
8.6498611344
  0
LINE
  5
320
100
AcDbEntity
  8
0
100
AcDbLine
 62
4
  6
CONTINUOUS
 10
10.763109063
 20
8.6569426329
 11
10.7465503418
 21
8.6580909841
  0
LINE
  5
321
100
AcDbEntity
  8
0
100
AcDbLine
 62
4
  6
CONTINUOUS
 10
10.6223598502
 20
8.666703624
 11
10.5892424078
 21
8.6690003264
  0
LINE
  5
322
100
AcDbEntity
  8
0
100
AcDbLine
 62
4
  6
CONTINUOUS
 10
10.4650519162
 20
8.6776129663
 11
10.4319344738
 21
8.6799096687
  0
LINE
  5
323
100
AcDbEntity
  8
0
100
AcDbLine
 62
4
  6
CONTINUOUS
 10
9.9048149298
 20
8.7164655332
 11
9.9379323885
 21
8.7141688297
  0
LINE
  5
324
100
AcDbEntity
  8
0
100
AcDbLine
 62
4
  6
CONTINUOUS
 10
10.0041673008
 20
8.7095754229
 11
10.0290054033
 21
8.7078528946
  0
LINE
  5
325
100
AcDbEntity
  8
0
100
AcDbLine
 62
4
  6
CONTINUOUS
 10
10.6637566807
 20
8.663832744
 11
10.7051535113
 21
8.6609618641
  0
LINE
  5
326
100
AcDbEntity
  8
0
100
AcDbLine
 62
4
  6
CONTINUOUS
 10
10.9397354958
 20
8.6446935482
 11
10.9728529381
 21
8.6423968458
  0
LINE
  5
327
100
AcDbEntity
  8
0
100
AcDbLine
 62
4
  6
CONTINUOUS
 10
10.5892424078
 20
8.7103971501
 11
10.6223598502
 21
8.7081004476
  0
LINE
  5
328
100
AcDbEntity
  8
0
100
AcDbLine
 62
4
  6
CONTINUOUS
 10
12.4962561725
 20
8.5947040244
 11
12.5542117243
 21
8.5906847932
  0
LINE
  5
329
100
AcDbEntity
  8
0
100
AcDbLine
 62
4
  6
CONTINUOUS
 10
10.6140805172
 20
8.750071445
 11
10.5726836867
 21
8.7529423249
  0
LINE
  5
32A
100
AcDbEntity
  8
0
100
AcDbLine
 62
4
  6
CONTINUOUS
 10
10.2608275963
 20
8.7745696182
 11
10.3022244269
 21
8.7716987383
  0
LINE
  5
32B
100
AcDbEntity
  8
0
100
AcDbLine
 62
4
  6
CONTINUOUS
 10
10.4319344738
 20
8.762703316
 11
10.4650519162
 21
8.7604066136
  0
LINE
  5
32C
100
AcDbEntity
  8
0
100
AcDbLine
 62
4
  6
CONTINUOUS
 10
10.4981694138
 20
8.7581099073
 11
10.5312868561
 21
8.7558132049
  0
LINE
  5
32D
100
AcDbEntity
  8
0
100
AcDbLine
 62
4
  6
CONTINUOUS
 10
10.8652211676
 20
8.7326547817
 11
10.8983387205
 21
8.7303580716
  0
LINE
  5
32E
100
AcDbEntity
  8
0
100
AcDbLine
 62
4
  6
CONTINUOUS
 10
10.9397354958
 20
8.7274871955
 11
10.9728529381
 21
8.7251904931
  0
LINE
  5
32F
100
AcDbEntity
  8
0
100
AcDbLine
 62
4
  6
CONTINUOUS
 10
9.9130942947
 20
8.8318024608
 11
9.9462117526
 21
8.8295057573
  0
LINE
  5
330
100
AcDbEntity
  8
0
100
AcDbLine
 62
4
  6
CONTINUOUS
 10
10.8127852265
 20
8.7694086827
 11
10.8155450041
 21
8.7692172915
  0
LINE
  5
331
100
AcDbEntity
  8
0
100
AcDbLine
 62
4
  6
CONTINUOUS
 10
10.9728529381
 20
8.6810338814
 11
10.9397354958
 21
8.6888501599
  0
LINE
  5
332
100
AcDbEntity
  8
0
100
AcDbLine
 62
4
  6
CONTINUOUS
 10
10.9397354958
 20
8.6888501599
 11
10.9314561628
 21
8.6949439096
  0
LINE
  5
333
100
AcDbEntity
  8
0
100
AcDbLine
 62
4
  6
CONTINUOUS
 10
10.9811322711
 20
8.6749401317
 11
10.9728529381
 21
8.6810338814
  0
LINE
  5
334
100
AcDbEntity
  8
0
100
AcDbLine
 62
4
  6
CONTINUOUS
 10
10.9314561628
 20
8.6535470868
 11
10.9397354958
 21
8.6446935482
  0
LINE
  5
335
100
AcDbEntity
  8
0
100
AcDbLine
 62
4
  6
CONTINUOUS
 10
10.9728529381
 20
8.7251904931
 11
10.9811322711
 21
8.7163369519
  0
LINE
  5
336
100
AcDbEntity
  8
0
100
AcDbLine
 62
7
  6
CONTINUOUS
 10
11.3468986067
 20
6.3175530312
 11
11.3468986067
 21
6.0122420819
  0
LINE
  5
337
100
AcDbEntity
  8
0
100
AcDbLine
 62
4
  6
CONTINUOUS
 10
11.1275391556
 20
7.386590816
 11
11.1347835996
 21
7.4150661879
  0
LINE
  5
338
100
AcDbEntity
  8
0
100
AcDbLine
 62
4
  6
CONTINUOUS
 10
12.5469672803
 20
10.2139426236
 11
12.4962561725
 21
10.1305261233
  0
LINE
  5
339
100
AcDbEntity
  8
0
100
AcDbLine
 62
4
  6
CONTINUOUS
 10
10.9204169615
 20
8.1045628533
 11
10.8762603533
 21
8.0855468187
  0
LINE
  5
33A
100
AcDbEntity
  8
0
100
AcDbLine
 62
7
  6
CONTINUOUS
 10
13.1259658907
 20
8.6632682362
 11
13.0950562617
 21
8.6654118262
  0
LINE
  5
33B
100
AcDbEntity
  8
0
100
AcDbLine
 62
4
  6
CONTINUOUS
 10
12.5179895044
 20
8.7091079161
 11
12.5324783924
 21
8.7081031083
  0
LINE
  5
33C
100
AcDbEntity
  8
0
100
AcDbLine
 62
7
  6
CONTINUOUS
 10
12.7377376434
 20
8.8637820475
 11
12.7068280144
 21
8.8659256375
  0
LINE
  5
33D
100
AcDbEntity
  8
0
100
AcDbLine
 62
7
  6
CONTINUOUS
 10
11.4983185462
 20
6.2503853431
 11
11.4983185462
 21
5.8659819018
  0
LINE
  5
33E
100
AcDbEntity
  8
0
100
AcDbLine
 62
7
  6
CONTINUOUS
 10
11.5377913241
 20
6.2401690494
 11
11.5377913241
 21
5.8557656081
  0
LINE
  5
33F
100
AcDbEntity
  8
0
100
AcDbLine
 62
4
  6
CONTINUOUS
 10
12.5035006165
 20
8.7004534676
 11
12.5179895044
 21
8.7091079161
  0
LINE
  5
340
100
AcDbEntity
  8
0
100
AcDbLine
 62
4
  6
CONTINUOUS
 10
12.5469672803
 20
8.6588020051
 11
12.5179895044
 21
8.6414931046
  0
LINE
  5
341
100
AcDbEntity
  8
0
100
AcDbLine
 62
4
  6
CONTINUOUS
 10
11.1347835996
 20
7.4150661879
 11
11.1492724875
 21
7.4333798997
  0
LINE
  5
342
100
AcDbEntity
  8
0
100
AcDbLine
 62
4
  6
CONTINUOUS
 10
11.1999835953
 20
7.3429297431
 11
11.1927391513
 21
7.3337728881
  0
LINE
  5
343
100
AcDbEntity
  8
0
100
AcDbLine
 62
7
  6
CONTINUOUS
 10
13.1259658907
 20
9.2387817602
 11
13.0950562617
 21
9.2409253503
  0
LINE
  5
344
100
AcDbEntity
  8
0
100
AcDbLine
 62
7
  6
CONTINUOUS
 10
12.1028977987
 20
6.2009787823
 11
12.1028977987
 21
5.816575341
  0
LINE
  5
345
100
AcDbEntity
  8
0
100
AcDbLine
 62
7
  6
CONTINUOUS
 10
12.1568186009
 20
6.2047182092
 11
12.1568186009
 21
5.8203147679
  0
LINE
  5
346
100
AcDbEntity
  8
0
100
AcDbLine
 62
4
  6
CONTINUOUS
 10
12.4962561725
 20
8.6912966083
 11
12.5035006165
 21
8.7004534676
  0
LINE
  5
347
100
AcDbEntity
  8
0
100
AcDbLine
 62
4
  6
CONTINUOUS
 10
12.5179895044
 20
8.6414931046
 11
12.5035006165
 21
8.6231793963
  0
LINE
  5
348
100
AcDbEntity
  8
0
100
AcDbLine
 62
4
  6
CONTINUOUS
 10
12.5542117243
 20
8.6679588645
 11
12.5469672803
 21
8.6588020051
  0
LINE
  5
349
100
AcDbEntity
  8
0
100
AcDbLine
 62
4
  6
CONTINUOUS
 10
11.1492724875
 20
7.4333798997
 11
11.1637613755
 21
7.4420343482
  0
LINE
  5
34A
100
AcDbEntity
  8
0
100
AcDbLine
 62
4
  6
CONTINUOUS
 10
11.1927391513
 20
7.3337728881
 11
11.1782502634
 21
7.325118437
  0
LINE
  5
34B
100
AcDbEntity
  8
0
100
AcDbLine
 62
4
  6
CONTINUOUS
 10
9.0908845044
 20
9.7967932352
 11
9.0763956164
 21
9.797798043
  0
LINE
  5
34C
100
AcDbEntity
  8
0
100
AcDbLine
 62
4
  6
CONTINUOUS
 10
12.5324783924
 20
8.7081031083
 11
12.5469672803
 21
8.6974390442
  0
LINE
  5
34D
100
AcDbEntity
  8
0
100
AcDbLine
 62
4
  6
CONTINUOUS
 10
9.0763956164
 20
9.865412851
 11
9.0908845044
 21
9.8644080432
  0
LINE
  5
34E
100
AcDbEntity
  8
0
100
AcDbLine
 62
4
  6
CONTINUOUS
 10
9.0763956164
 20
9.9137091464
 11
9.0908845044
 21
9.9127043386
  0
LINE
  5
34F
100
AcDbEntity
  8
0
100
AcDbLine
 62
4
  6
CONTINUOUS
 10
12.5469672803
 20
8.6974390442
 11
12.5542117243
 21
8.6872773771
  0
LINE
  5
350
100
AcDbEntity
  8
0
100
AcDbLine
 62
4
  6
CONTINUOUS
 10
12.5469672803
 20
10.0980315201
 11
12.5469672803
 21
10.2139426236
  0
LINE
  5
351
100
AcDbEntity
  8
0
100
AcDbLine
 62
4
  6
CONTINUOUS
 10
12.5542117243
 20
8.6872773771
 11
12.5542117243
 21
8.6679588645
  0
LINE
  5
352
100
AcDbEntity
  8
0
100
AcDbLine
 62
7
  6
CONTINUOUS
 10
12.570505136
 20
6.2326956302
 11
12.570505136
 21
5.9273846809
  0
LINE
  5
353
100
AcDbEntity
  8
0
100
AcDbLine
 62
7
  6
CONTINUOUS
 10
12.5849531604
 20
6.2316936563
 11
12.5849531604
 21
5.9413404016
  0
LINE
  5
354
100
AcDbEntity
  8
0
100
AcDbLine
 62
4
  6
CONTINUOUS
 10
12.5035006165
 20
8.6231793963
 11
12.4962561725
 21
8.5947040244
  0
LINE
  5
355
100
AcDbEntity
  8
0
100
AcDbLine
 62
7
  6
CONTINUOUS
 10
12.7068280144
 20
8.8659256375
 11
12.7068280144
 21
8.2904121135
  0
LINE
  5
356
100
AcDbEntity
  8
0
100
AcDbLine
 62
7
  6
CONTINUOUS
 10
12.7377376434
 20
6.2210980164
 11
12.7377376434
 21
8.2882685234
  0
LINE
  5
357
100
AcDbEntity
  8
0
100
AcDbLine
 62
7
  6
CONTINUOUS
 10
12.7377376434
 20
8.8637820475
 11
12.7377376434
 21
10.5677644923
  0
LINE
  5
358
100
AcDbEntity
  8
0
100
AcDbLine
 62
4
  6
CONTINUOUS
 10
12.4962561725
 20
10.1305261233
 11
12.5614561682
 21
10.1260044882
  0
LINE
  5
359
100
AcDbEntity
  8
0
100
AcDbLine
 62
7
  6
CONTINUOUS
 10
13.0950562617
 20
9.2409253503
 11
13.0950562617
 21
8.6654118262
  0
LINE
  5
35A
100
AcDbEntity
  8
0
100
AcDbLine
 62
7
  6
CONTINUOUS
 10
13.1259658907
 20
6.5960977292
 11
13.1259658907
 21
8.6632682362
  0
LINE
  5
35B
100
AcDbEntity
  8
0
100
AcDbLine
 62
7
  6
CONTINUOUS
 10
13.1259658907
 20
9.2387817602
 11
13.1259658907
 21
10.942764205
  0
LINE
  5
35C
100
AcDbEntity
  8
0
100
AcDbLine
 62
7
  6
CONTINUOUS
 10
8.8740341093
 20
10.8357132424
 11
12.7377376434
 21
10.5677644923
  0
LINE
  5
35D
100
AcDbEntity
  8
0
100
AcDbLine
 62
7
  6
CONTINUOUS
 10
13.1259658907
 20
10.942764205
 11
9.2622623566
 21
11.2107129552
  0
LINE
  5
35E
100
AcDbEntity
  8
0
100
AcDbLine
 62
7
  6
CONTINUOUS
 10
12.7377376434
 20
6.2210980164
 11
13.1259658907
 21
6.5960977292
  0
LINE
  5
35F
100
AcDbEntity
  8
0
100
AcDbLine
 62
7
  6
CONTINUOUS
 10
12.4882090044
 20
5.8812215247
 11
12.4575349939
 21
5.8660691508
  0
ARC
  5
360
100
AcDbEntity
  8
0
100
AcDbCircle
 62
7
  6
CONTINUOUS
 10
11.9769654061
 20
8.0230882256
 40
2.210103635
100
AcDbArc
 50
273.2665005552
 51
274.6677615151
  0
ARC
  5
361
100
AcDbEntity
  8
0
100
AcDbCircle
 62
7
  6
CONTINUOUS
 10
11.9769654061
 20
8.4074916669
 40
2.210103635
100
AcDbArc
 50
273.2665005552
 51
274.6677615151
  0
ARC
  5
362
100
AcDbEntity
  8
0
100
AcDbCircle
 62
7
  6
CONTINUOUS
 10
11.7569908326
 20
7.168455783
 40
0.9538158545
100
AcDbArc
 50
254.2644742826
 51
256.7139235525
  0
ARC
  5
363
100
AcDbEntity
  8
0
100
AcDbCircle
 62
7
  6
CONTINUOUS
 10
11.7569908326
 20
6.7840523417
 40
0.9538158545
100
AcDbArc
 50
254.2644742826
 51
256.7139235525
  0
ARC
  5
364
100
AcDbEntity
  8
0
100
AcDbCircle
 62
7
  6
CONTINUOUS
 10
12.1493280027
 20
6.5661167258
 40
0.7641475746
100
AcDbArc
 50
293.7608747297
 51
296.3085175792
  0
ARC
  5
365
100
AcDbEntity
  8
0
100
AcDbCircle
 62
7
  6
CONTINUOUS
 10
10.7780095325
 20
7.5060911549
 40
0.1911988593
100
AcDbArc
 50
152.8420980265
 51
167.6189901192
  0
SPLINE
  5
366
100
AcDbEntity
  8
0
100
AcDbSpline
 62
7
  6
CONTINUOUS
 70
0
 71
3
 72
9
 73
5
 74
0
 42
0.0000001
 43
0.0000001
 44
0.0000000001
 40
0.0
 40
0.0
 40
0.0
 40
0.0
 40
0.2426770998
 40
1.0
 40
1.0
 40
1.0
 40
1.0
 10
12.5783228937
 20
5.9343213648
 30
0.0
 10
12.5777147032
 20
5.9337338979
 30
0.0
 10
12.5751816518
 20
5.9313410168
 30
0.0
 10
12.5725459381
 20
5.9290575472
 30
0.0
 10
12.570505136
 20
5.9273846809
 30
0.0
  0
SPLINE
  5
367
100
AcDbEntity
  8
0
100
AcDbSpline
 62
7
  6
CONTINUOUS
 70
0
 71
3
 72
9
 73
5
 74
0
 42
0.0000001
 43
0.0000001
 44
0.0000000001
 40
0.0
 40
0.0
 40
0.0
 40
0.0
 40
0.2426666479
 40
1.0
 40
1.0
 40
1.0
 40
1.0
 10
12.5849531604
 20
5.9413404016
 30
0.0
 10
12.5844455325
 20
5.9407466286
 30
0.0
 10
12.5823218367
 20
5.9383270442
 30
0.0
 10
12.5800764283
 20
5.9360151493
 30
0.0
 10
12.5783228937
 20
5.9343213648
 30
0.0
  0
SPLINE
  5
368
100
AcDbEntity
  8
0
100
AcDbSpline
 62
7
  6
CONTINUOUS
 70
0
 71
3
 72
9
 73
5
 74
0
 42
0.0000001
 43
0.0000001
 44
0.0000000001
 40
0.0
 40
0.0
 40
0.0
 40
0.0
 40
0.504378312
 40
1.0
 40
1.0
 40
1.0
 40
1.0
 10
12.570505136
 20
5.9273846809
 30
0.0
 10
12.5570013857
 20
5.9189758271
 30
0.0
 10
12.5298885483
 20
5.9028411711
 30
0.0
 10
12.5020157518
 20
5.8880439763
 30
0.0
 10
12.4880016139
 20
5.881119134
 30
0.0
  0
SPLINE
  5
369
100
AcDbEntity
  8
0
100
AcDbSpline
 62
7
  6
CONTINUOUS
 70
0
 71
3
 72
23
 73
19
 74
0
 42
0.0000001
 43
0.0000001
 44
0.0000000001
 40
0.0
 40
0.0
 40
0.0
 40
0.0
 40
0.0436203086
 40
0.0892268542
 40
0.137068591
 40
0.187353676
 40
0.2402538462
 40
0.2958872461
 40
0.3543311569
 40
0.4156094827
 40
0.4797102731
 40
0.5465788188
 40
0.6161346312
 40
0.6882694307
 40
0.7628606873
 40
0.8397744221
 40
0.9188692703
 40
1.0
 40
1.0
 40
1.0
 40
1.0
 10
11.4553071169
 20
5.8754595933
 30
0.0
 10
11.4529971813
 20
5.8766001619
 30
0.0
 10
11.4483600576
 20
5.8791152583
 30
0.0
 10
11.4415327681
 20
5.8834763104
 30
0.0
 10
11.4346963793
 20
5.8885185969
 30
0.0
 10
11.4278548296
 20
5.8942495292
 30
0.0
 10
11.4210137313
 20
5.9006731801
 30
0.0
 10
11.4141761908
 20
5.9077847525
 30
0.0
 10
11.4073479317
 20
5.9155755645
 30
0.0
 10
11.4005316876
 20
5.9240289669
 30
0.0
 10
11.3937325191
 20
5.9331248728
 30
0.0
 10
11.3869526689
 20
5.9428372548
 30
0.0
 10
11.380196002
 20
5.9531378029
 30
0.0
 10
11.3734641149
 20
5.9639947569
 30
0.0
 10
11.366759398
 20
5.9753756105
 30
0.0
 10
11.3600827487
 20
5.9872466929
 30
0.0
 10
11.3534352563
 20
5.999574532
 30
0.0
 10
11.3490761383
 20
6.007973949
 30
0.0
 10
11.3468986067
 20
6.0122420819
 30
0.0
  0
SPLINE
  5
36A
100
AcDbEntity
  8
0
100
AcDbSpline
 62
7
  6
CONTINUOUS
 70
0
 71
3
 72
47
 73
43
 74
0
 42
0.0000001
 43
0.0000001
 44
0.0000000001
 40
0.0
 40
0.0
 40
0.0
 40
0.0
 40
0.0099874638
 40
0.0204476834
 40
0.0313771515
 40
0.0427708334
 40
0.0546218702
 40
0.0669225517
 40
0.0796641282
 40
0.0928362942
 40
0.1204271347
 40
0.1495984091
 40
0.1802407165
 40
0.2122338314
 40
0.2454489836
 40
0.2797497839
 40
0.3149929168
 40
0.3510298084
 40
0.3877071885
 40
0.4248680172
 40
0.4623527228
 40
0.4999997959
 40
0.5376468789
 40
0.575131606
 40
0.6122924455
 40
0.6489698269
 40
0.6850067267
 40
0.7202498875
 40
0.7545507276
 40
0.7877659112
 40
0.8197590481
 40
0.8504013805
 40
0.8795726993
 40
0.9071635849
 40
0.9203357726
 40
0.933077377
 40
0.9453780958
 40
0.9572291635
 40
0.968622847
 40
0.9795522717
 40
0.9900124597
 40
1.0
 40
1.0
 40
1.0
 40
1.0
 10
12.4575388793
 20
5.8660711055
 30
0.0
 10
12.4545483449
 20
5.8645938277
 30
0.0
 10
12.4483746385
 20
5.8616719119
 30
0.0
 10
12.4387724401
 20
5.8574724682
 30
0.0
 10
12.428624262
 20
5.8533596335
 30
0.0
 10
12.4179418141
 20
5.8493384237
 30
0.0
 10
12.4067374384
 20
5.8454131185
 30
0.0
 10
12.3950239377
 20
5.8415883993
 30
0.0
 10
12.3828146818
 20
5.8378688286
 30
0.0
 10
12.3656268529
 20
5.8329792968
 30
0.0
 10
12.3429965407
 20
5.8271838153
 30
0.0
 10
12.3145052623
 20
5.820815143
 30
0.0
 10
12.2844052134
 20
5.8149596191
 30
0.0
 10
12.2528352071
 20
5.8096442774
 30
0.0
 10
12.2199405492
 20
5.8048941211
 30
0.0
 10
12.1858728981
 20
5.8007315889
 30
0.0
 10
12.1507894395
 20
5.7971758609
 30
0.0
 10
12.1148521187
 20
5.7942436906
 30
0.0
 10
12.0782268578
 20
5.7919489059
 30
0.0
 10
12.0410828253
 20
5.7903019585
 30
0.0
 10
12.0035916013
 20
5.7893107224
 30
0.0
 10
11.9659263611
 20
5.7889798659
 30
0.0
 10
11.9282611135
 20
5.7893107057
 30
0.0
 10
11.8907698751
 20
5.7903019257
 30
0.0
 10
11.8536258306
 20
5.7919488564
 30
0.0
 10
11.8170005619
 20
5.794243625
 30
0.0
 10
11.7810632271
 20
5.7971757784
 30
0.0
 10
11.7459797416
 20
5.8007314919
 30
0.0
 10
11.7119120554
 20
5.8048940093
 30
0.0
 10
11.679017364
 20
5.8096441523
 30
0.0
 10
11.6474473286
 20
5.8149594782
 30
0.0
 10
11.6173472458
 20
5.8208149878
 30
0.0
 10
11.5888559261
 20
5.8271836505
 30
0.0
 10
11.5662255722
 20
5.8329791185
 30
0.0
 10
11.5490377077
 20
5.8378686408
 30
0.0
 10
11.536828421
 20
5.8415882101
 30
0.0
 10
11.5251148888
 20
5.8454129365
 30
0.0
 10
11.5139104894
 20
5.8493382443
 30
0.0
 10
11.5032280387
 20
5.8533594357
 30
0.0
 10
11.4930798666
 20
5.8574722196
 30
0.0
 10
11.4834776507
 20
5.8616716249
 30
0.0
 10
11.4773039295
 20
5.8645935455
 30
0.0
 10
11.4743133764
 20
5.8660708432
 30
0.0
  0
SPLINE
  5
36B
100
AcDbEntity
  8
0
100
AcDbSpline
 62
7
  6
CONTINUOUS
 70
0
 71
3
 72
15
 73
11
 74
0
 42
0.0000001
 43
0.0000001
 44
0.0000000001
 40
0.0
 40
0.0
 40
0.0
 40
0.0
 40
0.1299708166
 40
0.2593283487
 40
0.3876617857
 40
0.5145654289
 40
0.6396384778
 40
0.7624890516
 40
0.8827334041
 40
1.0
 40
1.0
 40
1.0
 40
1.0
 10
11.9507047289
 20
6.2755429599
 30
0.0
 10
11.9402539009
 20
6.2756194923
 30
0.0
 10
11.9194023633
 20
6.2759296364
 30
0.0
 10
11.8882429464
 20
6.2768666057
 30
0.0
 10
11.8573479231
 20
6.278271912
 30
0.0
 10
11.8268225764
 20
6.2801402968
 30
0.0
 10
11.7967707793
 20
6.28246583
 30
0.0
 10
11.7672947783
 20
6.2852400441
 30
0.0
 10
11.7384950213
 20
6.2884538492
 30
0.0
 10
11.7195544248
 20
6.2909151751
 30
0.0
 10
11.7102157226
 20
6.2922209292
 30
0.0
  0
SPLINE
  5
36C
100
AcDbEntity
  8
0
100
AcDbSpline
 62
7
  6
CONTINUOUS
 70
0
 71
3
 72
10
 73
6
 74
0
 42
0.0000001
 43
0.0000001
 44
0.0000000001
 40
0.0
 40
0.0
 40
0.0
 40
0.0
 40
0.4950633206
 40
0.7463873743
 40
1.0
 40
1.0
 40
1.0
 40
1.0
 10
12.2482381421
 20
6.2553205115
 30
0.0
 10
12.2326782721
 20
6.2478732122
 30
0.0
 10
12.2095876036
 20
6.2358605863
 30
0.0
 10
12.1793607374
 20
6.2185228747
 30
0.0
 10
12.1643201091
 20
6.2093894364
 30
0.0
 10
12.1568186009
 20
6.2047182092
 30
0.0
  0
SPLINE
  5
36D
100
AcDbEntity
  8
0
100
AcDbSpline
 62
7
  6
CONTINUOUS
 70
0
 71
3
 72
21
 73
17
 74
0
 42
0.0000001
 43
0.0000001
 44
0.0000000001
 40
0.0
 40
0.0
 40
0.0
 40
0.0
 40
0.1230212981
 40
0.1847065752
 40
0.2465215318
 40
0.3084771567
 40
0.3705832678
 40
0.432847904
 40
0.4952752623
 40
0.5578663069
 40
0.6206183946
 40
0.6835249868
 40
0.7465773451
 40
0.8097643485
 40
0.8730733734
 40
1.0
 40
1.0
 40
1.0
 40
1.0
 10
12.1028977987
 20
5.816575341
 30
0.0
 10
12.0798186176
 20
5.8120279848
 30
0.0
 10
12.0449861761
 20
5.8060555784
 30
0.0
 10
11.9982149611
 20
5.8001454311
 30
0.0
 10
11.9629036525
 20
5.7968182171
 30
0.0
 10
11.9274192097
 20
5.7946838095
 30
0.0
 10
11.8917944887
 20
5.7938130731
 30
0.0
 10
11.8560712772
 20
5.7942619683
 30
0.0
 10
11.8202976555
 20
5.7960639671
 30
0.0
 10
11.7845251293
 20
5.799227253
 30
0.0
 10
11.7488051893
 20
5.8037362036
 30
0.0
 10
11.713185576
 20
5.8095504454
 30
0.0
 10
11.6777074365
 20
5.8166081594
 30
0.0
 10
11.6424032457
 20
5.8248338491
 30
0.0
 10
11.5955593196
 20
5.8372534012
 30
0.0
 10
11.5607989099
 20
5.8480411955
 30
0.0
 10
11.5377913241
 20
5.8557656081
 30
0.0
  0
SPLINE
  5
36E
100
AcDbEntity
  8
0
100
AcDbSpline
 62
7
  6
CONTINUOUS
 70
0
 71
3
 72
21
 73
17
 74
0
 42
0.0000001
 43
0.0000001
 44
0.0000000001
 40
0.0
 40
0.0
 40
0.0
 40
0.0
 40
0.1269266266
 40
0.1902356515
 40
0.253422655
 40
0.3164750132
 40
0.3793816055
 40
0.4421336932
 40
0.5047247377
 40
0.567152096
 40
0.6294167323
 40
0.6915228434
 40
0.7534784683
 40
0.8152934248
 40
0.8769787019
 40
1.0
 40
1.0
 40
1.0
 40
1.0
 10
12.1028977987
 20
6.2009787823
 30
0.0
 10
12.0798902129
 20
6.2087031948
 30
0.0
 10
12.0451298032
 20
6.2194909892
 30
0.0
 10
11.998285877
 20
6.2319105412
 30
0.0
 10
11.9629816862
 20
6.2401362309
 30
0.0
 10
11.9275035467
 20
6.247193945
 30
0.0
 10
11.8918839334
 20
6.2530081868
 30
0.0
 10
11.8561639934
 20
6.2575171374
 30
0.0
 10
11.8203914672
 20
6.2606804233
 30
0.0
 10
11.7846178455
 20
6.262482422
 30
0.0
 10
11.748894634
 20
6.2629313172
 30
0.0
 10
11.713269913
 20
6.2620605809
 30
0.0
 10
11.6777854702
 20
6.2599261733
 30
0.0
 10
11.6424741616
 20
6.2565989593
 30
0.0
 10
11.5957029466
 20
6.2506888119
 30
0.0
 10
11.5608705051
 20
6.2447164055
 30
0.0
 10
11.5377913241
 20
6.2401690494
 30
0.0
  0
SPLINE
  5
36F
100
AcDbEntity
  8
0
100
AcDbSpline
 62
7
  6
CONTINUOUS
 70
0
 71
3
 72
11
 73
7
 74
0
 42
0.0000001
 43
0.0000001
 44
0.0000000001
 40
0.0
 40
0.0
 40
0.0
 40
0.0
 40
0.2465919593
 40
0.494712682
 40
0.7454424776
 40
1.0
 40
1.0
 40
1.0
 40
1.0
 10
11.4983185462
 20
5.8659819018
 30
0.0
 10
11.4963761333
 20
5.8659270672
 30
0.0
 10
11.4924748236
 20
5.8659344136
 30
0.0
 10
11.4866091323
 20
5.8663179355
 30
0.0
 10
11.4807190603
 20
5.8670962178
 30
0.0
 10
11.4768126032
 20
5.8678857657
 30
0.0
 10
11.4748611581
 20
5.8683502271
 30
0.0
  0
SPLINE
  5
370
100
AcDbEntity
  8
0
100
AcDbSpline
 62
7
  6
CONTINUOUS
 70
0
 71
3
 72
10
 73
6
 74
0
 42
0.0000001
 43
0.0000001
 44
0.0000000001
 40
0.0
 40
0.0
 40
0.0
 40
0.0
 40
0.2418255986
 40
0.4885199497
 40
1.0
 40
1.0
 40
1.0
 40
1.0
 10
11.4748611581
 20
5.8683502271
 30
0.0
 10
11.4732266407
 20
5.8687392568
 30
0.0
 10
11.4699463303
 20
5.8696201174
 30
0.0
 10
11.46334743
 20
5.8718024227
 30
0.0
 10
11.4584935516
 20
5.873886239
 30
0.0
 10
11.4553071169
 20
5.8754595933
 30
0.0
  0
SPLINE
  5
371
100
AcDbEntity
  8
0
100
AcDbSpline
 62
7
  6
CONTINUOUS
 70
0
 71
3
 72
11
 73
7
 74
0
 42
0.0000001
 43
0.0000001
 44
0.0000000001
 40
0.0
 40
0.0
 40
0.0
 40
0.0
 40
0.2633952514
 40
0.5183435581
 40
0.764111363
 40
1.0
 40
1.0
 40
1.0
 40
1.0
 10
11.4983185462
 20
6.2503853431
 30
0.0
 10
11.4956020597
 20
6.25570987
 30
0.0
 10
11.490165262
 20
6.2661421798
 30
0.0
 10
11.4818390947
 20
6.2813546657
 30
0.0
 10
11.4734686344
 20
6.2958263088
 30
0.0
 10
11.4677371574
 20
6.3051360485
 30
0.0
 10
11.4648566368
 20
6.3096482032
 30
0.0
  0
LINE
  5
372
100
AcDbEntity
  8
0
100
AcDbLine
 62
7
  6
CONTINUOUS
 10
12.4572186557
 20
5.8667421041
 11
12.4564895417
 21
5.8664222164
  0
SPLINE
  5
373
100
AcDbEntity
  8
0
100
AcDbSpline
 62
7
  6
CONTINUOUS
 70
0
 71
3
 72
15
 73
11
 74
0
 42
0.0000001
 43
0.0000001
 44
0.0000000001
 40
0.0
 40
0.0
 40
0.0
 40
0.0
 40
0.1321602046
 40
0.2618009952
 40
0.3890353631
 40
0.5141096583
 40
0.6373677171
 40
0.75919507
 40
0.8799649792
 40
1.0
 40
1.0
 40
1.0
 40
1.0
 10
12.4564895417
 20
5.8664222164
 30
0.0
 10
12.4441084383
 20
5.8609984743
 30
0.0
 10
12.4192676744
 20
5.8509514851
 30
0.0
 10
12.3814736113
 20
5.8384180478
 30
0.0
 10
12.3436028418
 20
5.8287007582
 30
0.0
 10
12.3057764662
 20
5.821832254
 30
0.0
 10
12.2681090803
 20
5.8177324255
 30
0.0
 10
12.2306934983
 20
5.8162257377
 30
0.0
 10
12.1935926617
 20
5.8170725854
 30
0.0
 10
12.1690282422
 20
5.8190319353
 30
0.0
 10
12.1568186009
 20
5.8203147679
 30
0.0
  0
SPLINE
  5
374
100
AcDbEntity
  8
0
100
AcDbSpline
 62
7
  6
CONTINUOUS
 70
0
 71
3
 72
18
 73
14
 74
0
 42
0.0000001
 43
0.0000001
 44
0.0000000001
 40
0.0
 40
0.0
 40
0.0
 40
0.0
 40
0.1504680185
 40
0.2917144324
 40
0.4244425615
 40
0.4879099171
 40
0.5496094205
 40
0.6682625585
 40
0.7817882768
 40
0.8371379945
 40
0.8918078237
 40
0.9460192726
 40
1.0
 40
1.0
 40
1.0
 40
1.0
 10
12.931851767
 20
10.7475369416
 30
0.0
 10
12.9332427028
 20
10.7488804824
 30
0.0
 10
12.9360226888
 20
10.7514013564
 30
0.0
 10
12.9403272012
 20
10.7547607298
 30
0.0
 10
12.9439630978
 20
10.7571366525
 30
0.0
 10
12.946862402
 20
10.7587455536
 30
0.0
 10
12.9496764118
 20
10.7601268415
 30
0.0
 10
12.9531948151
 20
10.7615225859
 30
0.0
 10
12.9567758062
 20
10.7624750452
 30
0.0
 10
12.9596120574
 20
10.7629442354
 30
0.0
 10
12.9617141112
 20
10.7631524697
 30
0.0
 10
12.9638076618
 20
10.7632197099
 30
0.0
 10
12.9651985646
 20
10.7631705006
 30
0.0
 10
12.9658906775
 20
10.7631224986
 30
0.0
  0
SPLINE
  5
375
100
AcDbEntity
  8
0
100
AcDbSpline
 62
7
  6
CONTINUOUS
 70
0
 71
3
 72
21
 73
17
 74
0
 42
0.0000001
 43
0.0000001
 44
0.0000000001
 40
0.0
 40
0.0
 40
0.0
 40
0.0
 40
0.1273176984
 40
0.2537999461
 40
0.3167619614
 40
0.3795355204
 40
0.4421314992
 40
0.5045621453
 40
0.5668413456
 40
0.6289845231
 40
0.6910084433
 40
0.7529310869
 40
0.8147714401
 40
0.8765493236
 40
0.9382852134
 40
1.0
 40
1.0
 40
1.0
 40
1.0
 10
11.7341406504
 20
9.6115508568
 30
0.0
 10
11.7341406504
 20
9.6050524344
 30
0.0
 10
11.7335203326
 20
9.5920898667
 30
0.0
 10
11.7311775666
 20
9.5760653349
 30
0.0
 10
11.7283774645
 20
9.5634954929
 30
0.0
 10
11.7258239175
 20
9.5542239713
 30
0.0
 10
11.7228198222
 20
9.5451172
 30
0.0
 10
11.7193721046
 20
9.5361959133
 30
0.0
 10
11.7154887135
 20
9.5274807448
 30
0.0
 10
11.7111785251
 20
9.5189918087
 30
0.0
 10
11.7064515103
 20
9.5107486731
 30
0.0
 10
11.7013185705
 20
9.5027703354
 30
0.0
 10
11.6957914935
 20
9.4950752573
 30
0.0
 10
11.6898829913
 20
9.4876811116
 30
0.0
 10
11.6836069519
 20
9.480605156
 30
0.0
 10
11.6791866534
 20
9.4761100924
 30
0.0
 10
11.6769210061
 20
9.4739216584
 30
0.0
  0
SPLINE
  5
376
100
AcDbEntity
  8
0
100
AcDbSpline
 62
7
  6
CONTINUOUS
 70
0
 71
3
 72
21
 73
17
 74
0
 42
0.0000001
 43
0.0000001
 44
0.0000000001
 40
0.0
 40
0.0
 40
0.0
 40
0.0
 40
0.1273176984
 40
0.2537999461
 40
0.3167619614
 40
0.3795355204
 40
0.4421314992
 40
0.5045621453
 40
0.5668413456
 40
0.6289845231
 40
0.6910084433
 40
0.7529310869
 40
0.8147714401
 40
0.8765493236
 40
0.9382852134
 40
1.0
 40
1.0
 40
1.0
 40
1.0
 10
10.6474740315
 20
6.7282804966
 30
0.0
 10
10.6474740315
 20
6.7217820742
 30
0.0
 10
10.6468537136
 20
6.7088195065
 30
0.0
 10
10.6445109476
 20
6.6927949746
 30
0.0
 10
10.6417108455
 20
6.6802251327
 30
0.0
 10
10.6391572986
 20
6.6709536111
 30
0.0
 10
10.6361532032
 20
6.6618468398
 30
0.0
 10
10.6327054856
 20
6.6529255531
 30
0.0
 10
10.6288220946
 20
6.6442103846
 30
0.0
 10
10.6245119061
 20
6.6357214484
 30
0.0
 10
10.6197848913
 20
6.6274783129
 30
0.0
 10
10.6146519515
 20
6.6194999752
 30
0.0
 10
10.6091248745
 20
6.6118048971
 30
0.0
 10
10.6032163723
 20
6.6044107514
 30
0.0
 10
10.596940333
 20
6.5973347958
 30
0.0
 10
10.5925200345
 20
6.5928397321
 30
0.0
 10
10.5902543871
 20
6.5906512982
 30
0.0
  0
SPLINE
  5
377
100
AcDbEntity
  8
0
100
AcDbSpline
 62
7
  6
CONTINUOUS
 70
0
 71
3
 72
38
 73
34
 74
0
 42
0.0000001
 43
0.0000001
 44
0.0000000001
 40
0.0
 40
0.0
 40
0.0
 40
0.0
 40
0.0316972418
 40
0.0632145967
 40
0.0945614863
 40
0.1257550598
 40
0.1568197017
 40
0.1877858602
 40
0.218688579
 40
0.2495659671
 40
0.2804577416
 40
0.311403788
 40
0.3424429492
 40
0.3736118601
 40
0.4049438204
 40
0.4364676672
 40
0.5001527295
 40
0.5323565643
 40
0.5647880806
 40
0.5974238569
 40
0.6302210811
 40
0.6631144994
 40
0.6960147473
 40
0.7288091755
 40
0.7613666437
 40
0.7935464575
 40
0.8252110209
 40
0.8562398232
 40
0.8865417067
 40
0.9160631279
 40
0.9447909233
 40
0.9727503771
 40
1.0
 40
1.0
 40
1.0
 40
1.0
 10
10.5861564063
 20
7.5046433323
 30
0.0
 10
10.5861564063
 20
7.5002913217
 30
0.0
 10
10.5864804064
 20
7.4916083769
 30
0.0
 10
10.587942911
 20
7.4786959038
 30
0.0
 10
10.5903645723
 20
7.4659982222
 30
0.0
 10
10.5937197473
 20
7.4535795043
 30
0.0
 10
10.5979747178
 20
7.4414953391
 30
0.0
 10
10.6030896913
 20
7.4297934126
 30
0.0
 10
10.6090208592
 20
7.4185129209
 30
0.0
 10
10.6157223398
 20
7.407685042
 30
0.0
 10
10.6231478472
 20
7.3973336936
 30
0.0
 10
10.6312519632
 20
7.387476605
 30
0.0
 10
10.6399910792
 20
7.3781264909
 30
0.0
 10
10.6493236645
 20
7.3692924099
 30
0.0
 10
10.6592111573
 20
7.3609804734
 30
0.0
 10
10.6731283192
 20
7.3505681152
 30
0.0
 10
10.6879822642
 20
7.3412536917
 30
0.0
 10
10.7035834346
 20
7.3330568802
 30
0.0
 10
10.7157050941
 20
7.3274369214
 30
0.0
 10
10.7281594786
 20
7.3223803287
 30
0.0
 10
10.7408999608
 20
7.3179003042
 30
0.0
 10
10.7538714034
 20
7.3140129938
 30
0.0
 10
10.7670099469
 20
7.3107361182
 30
0.0
 10
10.7802425154
 20
7.3080879334
 30
0.0
 10
10.7934881858
 20
7.3060855447
 30
0.0
 10
10.8066612009
 20
7.3047431214
 30
0.0
 10
10.8196754469
 20
7.3040703323
 30
0.0
 10
10.8324495625
 20
7.3040714048
 30
0.0
 10
10.8449116297
 20
7.3047450851
 30
0.0
 10
10.857002291
 20
7.3060854175
 30
0.0
 10
10.8686762976
 20
7.3080832658
 30
0.0
 10
10.879900764
 20
7.3107275739
 30
0.0
 10
10.8871574587
 20
7.3129408484
 30
0.0
 10
10.8906968411
 20
7.314153495
 30
0.0
  0
SPLINE
  5
378
100
AcDbEntity
  8
0
100
AcDbSpline
 62
7
  6
CONTINUOUS
 70
0
 71
3
 72
11
 73
7
 74
0
 42
0.0000001
 43
0.0000001
 44
0.0000000001
 40
0.0
 40
0.0
 40
0.0
 40
0.0
 40
0.2515534554
 40
0.5021185579
 40
0.7516186878
 40
1.0
 40
1.0
 40
1.0
 40
1.0
 10
10.5912569947
 20
7.5470864767
 30
0.0
 10
10.5904167098
 20
7.5435937949
 30
0.0
 10
10.5889376005
 20
7.536572681
 30
0.0
 10
10.5873378971
 20
7.5259529518
 30
0.0
 10
10.5863726205
 20
7.5153022378
 30
0.0
 10
10.5861564063
 20
7.5081903718
 30
0.0
 10
10.5861564063
 20
7.5046433323
 30
0.0
  0
SPLINE
  5
379
100
AcDbEntity
  8
0
100
AcDbSpline
 62
7
  6
CONTINUOUS
 70
0
 71
3
 72
21
 73
17
 74
0
 42
0.0000001
 43
0.0000001
 44
0.0000000001
 40
0.0
 40
0.0
 40
0.0
 40
0.0
 40
0.1273177382
 40
0.253799893
 40
0.3167619527
 40
0.3795355237
 40
0.4421314869
 40
0.5045621428
 40
0.5668413495
 40
0.6289845239
 40
0.69100845
 40
0.7529310987
 40
0.8147714472
 40
0.8765493323
 40
0.9382852239
 40
1.0
 40
1.0
 40
1.0
 40
1.0
 10
10.9068140017
 20
7.3923748035
 30
0.0
 10
10.9068140017
 20
7.385876427
 30
0.0
 10
10.9061936979
 20
7.3729139571
 30
0.0
 10
10.903850952
 20
7.3568895444
 30
0.0
 10
10.9010509058
 20
7.3443197895
 30
0.0
 10
10.8984973934
 20
7.3350483295
 30
0.0
 10
10.8954933321
 20
7.3259416215
 30
0.0
 10
10.8920456812
 20
7.3170203849
 30
0.0
 10
10.8881623388
 20
7.3083052705
 30
0.0
 10
10.8838522029
 20
7.2998163866
 30
0.0
 10
10.8791252755
 20
7.2915732813
 30
0.0
 10
10.8739923971
 20
7.2835949863
 30
0.0
 10
10.8684653881
 20
7.2758999464
 30
0.0
 10
10.8625569916
 20
7.2685058053
 30
0.0
 10
10.8562810189
 20
7.2614298844
 30
0.0
 10
10.8518607876
 20
7.2569348206
 30
0.0
 10
10.8495951645
 20
7.2547463957
 30
0.0
  0
SPLINE
  5
37A
100
AcDbEntity
  8
0
100
AcDbSpline
 62
7
  6
CONTINUOUS
 70
0
 71
3
 72
43
 73
39
 74
0
 42
0.0000001
 43
0.0000001
 44
0.0000000001
 40
0.0
 40
0.0
 40
0.0
 40
0.0
 40
0.0310745218
 40
0.0466739617
 40
0.0623117346
 40
0.0936962008
 40
0.1252246462
 40
0.156885682
 40
0.1886651184
 40
0.2205463529
 40
0.2525107094
 40
0.2845378393
 40
0.316606137
 40
0.3486931771
 40
0.3807761618
 40
0.4128323741
 40
0.4448396288
 40
0.4767767175
 40
0.508623839
 40
0.5403630095
 40
0.5719784455
 40
0.6034569128
 40
0.6347880329
 40
0.6659645409
 40
0.6969824853
 40
0.7278413639
 40
0.7585441875
 40
0.7890974671
 40
0.8195111175
 40
0.8497982781
 40
0.8649022316
 40
0.8799808239
 40
0.9100659163
 40
0.9400802375
 40
0.9550708207
 40
0.9700522994
 40
0.9850276796
 40
1.0
 40
1.0
 40
1.0
 40
1.0
 10
10.9068140017
 20
7.3923748035
 30
0.0
 10
10.9068140017
 20
7.3974256503
 30
0.0
 10
10.9065316678
 20
7.4050158398
 30
0.0
 10
10.9055992339
 20
7.4151025564
 30
0.0
 10
10.9042927111
 20
7.4251989367
 30
0.0
 10
10.9019636625
 20
7.4377646152
 30
0.0
 10
10.8980788314
 20
7.4526509517
 30
0.0
 10
10.893121865
 20
7.4672834393
 30
0.0
 10
10.8871201551
 20
7.4815812739
 30
0.0
 10
10.8801067419
 20
7.4954661234
 30
0.0
 10
10.8721202106
 20
7.508861763
 30
0.0
 10
10.8632044613
 20
7.5216947008
 30
0.0
 10
10.8534084734
 20
7.5338945188
 30
0.0
 10
10.8427860377
 20
7.5453942703
 30
0.0
 10
10.8313954643
 20
7.5561308391
 30
0.0
 10
10.8192992652
 20
7.5660452833
 30
0.0
 10
10.8065638149
 20
7.5750831557
 30
0.0
 10
10.7932589908
 20
7.5831948
 30
0.0
 10
10.7794577936
 20
7.5903356219
 30
0.0
 10
10.7652359523
 20
7.596466332
 30
0.0
 10
10.7506715139
 20
7.601553162
 30
0.0
 10
10.7358444216
 20
7.6055680505
 30
0.0
 10
10.7208360815
 20
7.6084887994
 30
0.0
 10
10.7057289219
 20
7.6102991989
 30
0.0
 10
10.6906059501
 20
7.6109891239
 30
0.0
 10
10.6755502861
 20
7.6105545887
 30
0.0
 10
10.6606447701
 20
7.6089978063
 30
0.0
 10
10.6459712835
 20
7.6063270803
 30
0.0
 10
10.6316111382
 20
7.6025571615
 30
0.0
 10
10.6199584925
 20
7.5985120488
 30
0.0
 10
10.6108757964
 20
7.5947502424
 30
0.0
 10
10.6019769781
 20
7.5906498198
 30
0.0
 10
10.5911871203
 20
7.5848861091
 30
0.0
 10
10.5808974933
 20
7.5782966647
 30
0.0
 10
10.5730118993
 20
7.5725586498
 30
0.0
 10
10.5672781536
 20
7.5680278923
 30
0.0
 10
10.5617312174
 20
7.5632751601
 30
0.0
 10
10.5581624923
 20
7.5599625388
 30
0.0
 10
10.5564121161
 20
7.5582718043
 30
0.0
  0
SPLINE
  5
37B
100
AcDbEntity
  8
0
100
AcDbSpline
 62
7
  6
CONTINUOUS
 70
0
 71
3
 72
53
 73
49
 74
0
 42
0.0000001
 43
0.0000001
 44
0.0000000001
 40
0.0
 40
0.0
 40
0.0
 40
0.0
 40
0.0470070615
 40
0.0937047768
 40
0.1400011406
 40
0.1858066071
 40
0.2310320016
 40
0.2755899972
 40
0.3193948567
 40
0.3623628503
 40
0.4044124531
 40
0.4454646204
 40
0.4854430551
 40
0.5242744968
 40
0.5618890279
 40
0.5982204058
 40
0.6332064334
 40
0.6667893789
 40
0.6989164609
 40
0.7295404259
 40
0.7442760493
 40
0.7586210856
 40
0.7725714976
 40
0.7861238291
 40
0.7992750879
 40
0.8120229816
 40
0.8243657733
 40
0.8363025339
 40
0.8478330549
 40
0.8589580491
 40
0.8696791885
 40
0.8799992204
 40
0.8899221597
 40
0.8994533333
 40
0.9085997145
 40
0.9173699508
 40
0.9257747888
 40
0.9338271651
 40
0.9415426438
 40
0.948939623
 40
0.9560397038
 40
0.9628679719
 40
0.9694531937
 40
0.9758280028
 40
0.9820287693
 40
0.9880954154
 40
0.9940708056
 40
1.0
 40
1.0
 40
1.0
 40
1.0
 10
12.7377376434
 20
8.8637820475
 30
0.0
 10
12.7389098058
 20
8.8759275133
 30
0.0
 10
12.7413859044
 20
8.9001252988
 30
0.0
 10
12.745507231
 20
8.9362325655
 30
0.0
 10
12.7500173218
 20
8.9719790517
 30
0.0
 10
12.7549066775
 20
9.0072898683
 30
0.0
 10
12.7601650916
 20
9.0420913582
 30
0.0
 10
12.7657815243
 20
9.0763107544
 30
0.0
 10
12.7717442109
 20
9.1098765873
 30
0.0
 10
12.7780406455
 20
9.1427187353
 30
0.0
 10
12.7846576233
 20
9.1747686073
 30
0.0
 10
12.7915812621
 20
9.2059592785
 30
0.0
 10
12.7987970328
 20
9.2362256364
 30
0.0
 10
12.8062897879
 20
9.2655045211
 30
0.0
 10
12.8140437948
 20
9.2937348612
 30
0.0
 10
12.8220427687
 20
9.3208578135
 30
0.0
 10
12.8302699087
 20
9.34681687
 30
0.0
 10
12.8387079356
 20
9.3715580743
 30
0.0
 10
12.8473391327
 20
9.395029842
 30
0.0
 10
12.8547698341
 20
9.4137236024
 30
0.0
 10
12.8608074806
 20
9.4279975793
 30
0.0
 10
12.8653145689
 20
9.4382182231
 30
0.0
 10
12.8698563363
 20
9.4480863836
 30
0.0
 10
12.8744303872
 20
9.4575969512
 30
0.0
 10
12.8790343911
 20
9.4667449616
 30
0.0
 10
12.8836658841
 20
9.4755256853
 30
0.0
 10
12.8883225194
 20
9.4839345469
 30
0.0
 10
12.8930018249
 20
9.4919672094
 30
0.0
 10
12.8977014152
 20
9.4996195043
 30
0.0
 10
12.9024188442
 20
9.506887487
 30
0.0
 10
12.907151683
 20
9.5137674151
 30
0.0
 10
12.9118975362
 20
9.5202557354
 30
0.0
 10
12.9166539448
 20
9.5263491444
 30
0.0
 10
12.9214185768
 20
9.5320444778
 30
0.0
 10
12.9261889791
 20
9.5373388685
 30
0.0
 10
12.9309628831
 20
9.5422295399
 30
0.0
 10
12.9357378949
 20
9.5467140282
 30
0.0
 10
12.9405117996
 20
9.5507899365
 30
0.0
 10
12.945282309
 20
9.5544551321
 30
0.0
 10
12.9500472405
 20
9.5577075644
 30
0.0
 10
12.9548044039
 20
9.5605453241
 30
0.0
 10
12.9595515852
 20
9.5629666436
 30
0.0
 10
12.9642865681
 20
9.5649697371
 30
0.0
 10
12.9690069607
 20
9.5665530803
 30
0.0
 10
12.9737102333
 20
9.5677150532
 30
0.0
 10
12.9783937237
 20
9.5684544896
 30
0.0
 10
12.9830539375
 20
9.5687703051
 30
0.0
 10
12.9861483281
 20
9.5686979518
 30
0.0
 10
12.9876837156
 20
9.5685914661
 30
0.0
  0
SPLINE
  5
37C
100
AcDbEntity
  8
0
100
AcDbSpline
 62
7
  6
CONTINUOUS
 70
0
 71
3
 72
72
 73
68
 74
0
 42
0.0000001
 43
0.0000001
 44
0.0000000001
 40
0.0
 40
0.0
 40
0.0
 40
0.0
 40
0.0038007381
 40
0.007741717
 40
0.0118259762
 40
0.0160561861
 40
0.0204346248
 40
0.0249631083
 40
0.0296429507
 40
0.034475139
 40
0.0445982624
 40
0.0553349859
 40
0.0666830763
 40
0.0786369214
 40
0.0911880266
 40
0.1043253873
 40
0.1180357756
 40
0.1323040022
 40
0.1471131281
 40
0.162444632
 40
0.1782785371
 40
0.1945935439
 40
0.2113671532
 40
0.2285757639
 40
0.2461947509
 40
0.2641985494
 40
0.2825607465
 40
0.3012541554
 40
0.3202508788
 40
0.339522374
 40
0.3787721111
 40
0.4187655094
 40
0.459257996
 40
0.5000010196
 40
0.5407440307
 40
0.5812364821
 40
0.6212298196
 40
0.6604794759
 40
0.6797509194
 40
0.6987475868
 40
0.7174409382
 40
0.7358030696
 40
0.7538067944
 40
0.7714257037
 40
0.7886342371
 40
0.8054077625
 40
0.8217226764
 40
0.8375564847
 40
0.8528878938
 40
0.8676969213
 40
0.8819650398
 40
0.8956753162
 40
0.9088125679
 40
0.9213635649
 40
0.9333172929
 40
0.9446652617
 40
0.9554018688
 40
0.9605403345
 40
0.9655254594
 40
0.9703575751
 40
0.9750373564
 40
0.9795657872
 40
0.983944203
 40
0.9881743821
 40
0.9922585089
 40
0.996199292
 40
1.0
 40
1.0
 40
1.0
 40
1.0
 10
11.2630447083
 20
10.8693495332
 30
0.0
 10
11.2618460399
 20
10.8682340861
 30
0.0
 10
11.2593589368
 20
10.8660105505
 30
0.0
 10
11.2554389319
 20
10.8627548377
 30
0.0
 10
11.2512645784
 20
10.8595205713
 30
0.0
 10
11.2468377404
 20
10.856309117
 30
0.0
 10
11.2421601611
 20
10.8531216987
 30
0.0
 10
11.2372337038
 20
10.8499596034
 30
0.0
 10
11.2320603812
 20
10.8468240197
 30
0.0
 10
11.2247221128
 20
10.8426150451
 30
0.0
 10
11.2149338206
 20
10.8374401327
 30
0.0
 10
11.2024149275
 20
10.8314492091
 30
0.0
 10
11.1889673418
 20
10.8255942075
 30
0.0
 10
11.1746130362
 20
10.8198847325
 30
0.0
 10
11.1593752322
 20
10.8143301383
 30
0.0
 10
11.1432787701
 20
10.8089395951
 30
0.0
 10
11.1263499488
 20
10.8037220006
 30
0.0
 10
11.1086164942
 20
10.7986859857
 30
0.0
 10
11.0901074849
 20
10.7938398925
 30
0.0
 10
11.0708533048
 20
10.7891917598
 30
0.0
 10
11.0508855969
 20
10.7847492884
 30
0.0
 10
11.0302372031
 20
10.7805198357
 30
0.0
 10
11.0089420968
 20
10.7765104114
 30
0.0
 10
10.9870353256
 20
10.7727276662
 30
0.0
 10
10.9645529596
 20
10.769177869
 30
0.0
 10
10.9415320309
 20
10.7658668932
 30
0.0
 10
10.9180104602
 20
10.7628002208
 30
0.0
 10
10.8940270059
 20
10.759982942
 30
0.0
 10
10.8696211517
 20
10.7574196973
 30
0.0
 10
10.8363686623
 20
10.7543277693
 30
0.0
 10
10.7940439108
 20
10.7511377895
 30
0.0
 10
10.7425296363
 20
10.7484014713
 30
0.0
 10
10.6903254471
 20
10.7467523642
 30
0.0
 10
10.6377752788
 20
10.7462014766
 30
0.0
 10
10.5852251267
 20
10.7467524705
 30
0.0
 10
10.5330209874
 20
10.7484016795
 30
0.0
 10
10.481506795
 20
10.7511381056
 30
0.0
 10
10.439182133
 20
10.7543281648
 30
0.0
 10
10.4059297318
 20
10.7574201644
 30
0.0
 10
10.3815239544
 20
10.7599834591
 30
0.0
 10
10.3575405829
 20
10.7628007813
 30
0.0
 10
10.334019104
 20
10.7658675016
 30
0.0
 10
10.3109982768
 20
10.7691785259
 30
0.0
 10
10.2885160179
 20
10.7727283704
 30
0.0
 10
10.266609358
 20
10.7765111552
 30
0.0
 10
10.2453143709
 20
10.7805206214
 30
0.0
 10
10.2246661065
 20
10.7847501181
 30
0.0
 10
10.2046985337
 20
10.7891926321
 30
0.0
 10
10.1854444907
 20
10.7938408004
 30
0.0
 10
10.1669356245
 20
10.798686928
 30
0.0
 10
10.1492023229
 20
10.803722981
 30
0.0
 10
10.1322736624
 20
10.8089406121
 30
0.0
 10
10.1161773562
 20
10.8143311871
 30
0.0
 10
10.100939729
 20
10.8198858044
 30
0.0
 10
10.0865855469
 20
10.825595319
 30
0.0
 10
10.0731383125
 20
10.8314503227
 30
0.0
 10
10.0625565352
 20
10.8365141733
 30
0.0
 10
10.0545716929
 20
10.8406389306
 30
0.0
 10
10.0489111588
 20
10.8437175241
 30
0.0
 10
10.0434931851
 20
10.8468252342
 30
0.0
 10
10.038319957
 20
10.8499607898
 30
0.0
 10
10.0333935831
 20
10.8531229138
 30
0.0
 10
10.0287160866
 20
10.85631037
 30
0.0
 10
10.0242893444
 20
10.8595218204
 30
0.0
 10
10.0201151576
 20
10.8627560494
 30
0.0
 10
10.0161952974
 20
10.8660116945
 30
0.0
 10
10.0137082973
 20
10.8682352
 30
0.0
 10
10.0125096585
 20
10.8693506598
 30
0.0
  0
SPLINE
  5
37D
100
AcDbEntity
  8
0
100
AcDbSpline
 62
7
  6
CONTINUOUS
 70
0
 71
3
 72
42
 73
38
 74
0
 42
0.0000001
 43
0.0000001
 44
0.0000000001
 40
0.0
 40
0.0
 40
0.0
 40
0.0
 40
0.0299419634
 40
0.0449235299
 40
0.0599142017
 40
0.0899287029
 40
0.1200139772
 40
0.1350926626
 40
0.1501967046
 40
0.1804840506
 40
0.2108978877
 40
0.2414513551
 40
0.2721543675
 40
0.3030134354
 40
0.3340315696
 40
0.3652082675
 40
0.3965395775
 40
0.4280182343
 40
0.4596338596
 40
0.4913732188
 40
0.5232205284
 40
0.5551578047
 40
0.5871652463
 40
0.6192216448
 40
0.6513048151
 40
0.6833920402
 40
0.7154605222
 40
0.747487836
 40
0.7794523759
 40
0.8113337934
 40
0.8431134117
 40
0.8747746318
 40
0.9063032512
 40
0.9376879208
 40
0.9533258
 40
0.9689252634
 40
1.0
 40
1.0
 40
1.0
 40
1.0
 10
11.383739572
 20
9.7774486484
 30
0.0
 10
11.3872399937
 20
9.7808297756
 30
0.0
 10
11.3926969619
 20
9.7856965851
 30
0.0
 10
11.4003393229
 20
9.7917352359
 30
0.0
 10
11.4082250548
 20
9.7974733942
 30
0.0
 10
11.4185146382
 20
9.8040626589
 30
0.0
 10
11.4293045074
 20
9.8098263586
 30
0.0
 10
11.4382033531
 20
9.8139266602
 30
0.0
 10
11.4472860229
 20
9.8176884757
 30
0.0
 10
11.4589386765
 20
9.8217334904
 30
0.0
 10
11.4732988056
 20
9.8255033428
 30
0.0
 10
11.4879722751
 20
9.828173993
 30
0.0
 10
11.5028777665
 20
9.8297307073
 30
0.0
 10
11.5179334009
 20
9.8301651782
 30
0.0
 10
11.5330563379
 20
9.8294751944
 30
0.0
 10
11.5481634584
 20
9.8276647417
 30
0.0
 10
11.5631717554
 20
9.8247439456
 30
0.0
 10
11.5779988017
 20
9.8207290163
 30
0.0
 10
11.5925631913
 20
9.815642152
 30
0.0
 10
11.6067849823
 20
9.8095114142
 30
0.0
 10
11.620586128
 20
9.8023705713
 30
0.0
 10
11.6338909003
 20
9.7942589124
 30
0.0
 10
11.6466262991
 20
9.785221032
 30
0.0
 10
11.658722448
 20
9.775306586
 30
0.0
 10
11.6701129728
 20
9.7645700214
 30
0.0
 10
11.6807353621
 20
9.7530702796
 30
0.0
 10
11.6905313067
 20
9.7408704765
 30
0.0
 10
11.6994470161
 20
9.7280375582
 30
0.0
 10
11.7074335114
 20
9.7146419424
 30
0.0
 10
11.7144468925
 20
9.7007571201
 30
0.0
 10
11.7204485759
 20
9.6864593158
 30
0.0
 10
11.725405518
 20
9.6718268614
 30
0.0
 10
11.7292903353
 20
9.6569405576
 30
0.0
 10
11.7316193696
 20
9.6443749033
 30
0.0
 10
11.7329258888
 20
9.6342785524
 30
0.0
 10
11.7338583194
 20
9.624191863
 30
0.0
 10
11.7341406504
 20
9.616601697
 30
0.0
 10
11.7341406504
 20
9.6115508568
 30
0.0
  0
SPLINE
  5
37E
100
AcDbEntity
  8
0
100
AcDbSpline
 62
7
  6
CONTINUOUS
 70
0
 71
3
 72
42
 73
38
 74
0
 42
0.0000001
 43
0.0000001
 44
0.0000000001
 40
0.0
 40
0.0
 40
0.0
 40
0.0
 40
0.0299419634
 40
0.0449235299
 40
0.0599142017
 40
0.0899287029
 40
0.1200139772
 40
0.1350926626
 40
0.1501967046
 40
0.1804840506
 40
0.2108978877
 40
0.2414513551
 40
0.2721543675
 40
0.3030134354
 40
0.3340315696
 40
0.3652082675
 40
0.3965395775
 40
0.4280182343
 40
0.4596338596
 40
0.4913732188
 40
0.5232205284
 40
0.5551578047
 40
0.5871652463
 40
0.6192216448
 40
0.6513048151
 40
0.6833920402
 40
0.7154605222
 40
0.747487836
 40
0.7794523759
 40
0.8113337934
 40
0.8431134117
 40
0.8747746318
 40
0.9063032512
 40
0.9376879208
 40
0.9533258
 40
0.9689252634
 40
1.0
 40
1.0
 40
1.0
 40
1.0
 10
10.297072953
 20
6.8941782881
 30
0.0
 10
10.3005733747
 20
6.8975594153
 30
0.0
 10
10.3060303429
 20
6.9024262249
 30
0.0
 10
10.313672704
 20
6.9084648756
 30
0.0
 10
10.3215584358
 20
6.9142030339
 30
0.0
 10
10.3318480192
 20
6.9207922986
 30
0.0
 10
10.3426378884
 20
6.9265559983
 30
0.0
 10
10.3515367342
 20
6.9306563
 30
0.0
 10
10.360619404
 20
6.9344181154
 30
0.0
 10
10.3722720575
 20
6.9384631302
 30
0.0
 10
10.3866321867
 20
6.9422329825
 30
0.0
 10
10.4013056561
 20
6.9449036327
 30
0.0
 10
10.4162111475
 20
6.9464603471
 30
0.0
 10
10.431266782
 20
6.9468948179
 30
0.0
 10
10.4463897189
 20
6.9462048342
 30
0.0
 10
10.4614968394
 20
6.9443943814
 30
0.0
 10
10.4765051365
 20
6.9414735854
 30
0.0
 10
10.4913321827
 20
6.9374586561
 30
0.0
 10
10.5058965724
 20
6.9323717918
 30
0.0
 10
10.5201183633
 20
6.9262410539
 30
0.0
 10
10.533919509
 20
6.919100211
 30
0.0
 10
10.5472242814
 20
6.9109885522
 30
0.0
 10
10.5599596802
 20
6.9019506718
 30
0.0
 10
10.572055829
 20
6.8920362258
 30
0.0
 10
10.5834463538
 20
6.8812996612
 30
0.0
 10
10.5940687432
 20
6.8697999194
 30
0.0
 10
10.6038646878
 20
6.8576001162
 30
0.0
 10
10.6127803971
 20
6.844767198
 30
0.0
 10
10.6207668924
 20
6.8313715821
 30
0.0
 10
10.6277802735
 20
6.8174867599
 30
0.0
 10
10.6337819569
 20
6.8031889555
 30
0.0
 10
10.6387388991
 20
6.7885565012
 30
0.0
 10
10.6426237164
 20
6.7736701974
 30
0.0
 10
10.6449527507
 20
6.7611045431
 30
0.0
 10
10.6462592698
 20
6.7510081922
 30
0.0
 10
10.6471917005
 20
6.7409215027
 30
0.0
 10
10.6474740315
 20
6.7333313368
 30
0.0
 10
10.6474740315
 20
6.7282804966
 30
0.0
  0
SPLINE
  5
37F
100
AcDbEntity
  8
0
100
AcDbSpline
 62
7
  6
CONTINUOUS
 70
0
 71
3
 72
79
 73
75
 74
0
 42
0.0000001
 43
0.0000001
 44
0.0000000001
 40
0.0
 40
0.0
 40
0.0
 40
0.0
 40
0.0027164348
 40
0.0054532488
 40
0.0082303238
 40
0.0110666296
 40
0.0139798494
 40
0.0169861669
 40
0.0201001499
 40
0.0233346759
 40
0.0267010486
 40
0.0302090197
 40
0.033866944
 40
0.0376819361
 40
0.0416599221
 40
0.0458058696
 40
0.0501238218
 40
0.054617024
 40
0.0592880656
 40
0.0641388545
 40
0.0691708006
 40
0.074384804
 40
0.0853597431
 40
0.0970636284
 40
0.1094904134
 40
0.1226297074
 40
0.1364674168
 40
0.1509862678
 40
0.1661662017
 40
0.1819846886
 40
0.1984169698
 40
0.2154362816
 40
0.2330140556
 40
0.2511200805
 40
0.2697226443
 40
0.288788656
 40
0.3082837849
 40
0.3281725816
 40
0.3484185878
 40
0.3689844374
 40
0.4109215373
 40
0.4536716229
 40
0.4969137089
 40
0.5403220732
 40
0.5835694025
 40
0.626329929
 40
0.6682825613
 40
0.6888580368
 40
0.7091148873
 40
0.7290157181
 40
0.7485240296
 40
0.7676043366
 40
0.7862222804
 40
0.8043447369
 40
0.8219399383
 40
0.8389776102
 40
0.8554291351
 40
0.8712677027
 40
0.8864684895
 40
0.9010088736
 40
0.9148687043
 40
0.9280306255
 40
0.940480451
 40
0.9522076515
 40
0.9577984343
 40
0.9632066673
 40
0.9684323704
 40
0.9734759776
 40
0.978338344
 40
0.9830207986
 40
0.9875253576
 40
0.9918545995
 40
0.996011594
 40
1.0
 40
1.0
 40
1.0
 40
1.0
 10
12.8978128566
 20
9.7814803152
 30
0.0
 10
12.8968946001
 20
9.7815440015
 30
0.0
 10
12.8950559002
 20
9.781754969
 30
0.0
 10
12.8923212697
 20
9.7823195261
 30
0.0
 10
12.889607294
 20
9.7831320156
 30
0.0
 10
12.8869159318
 20
9.7841917397
 30
0.0
 10
12.8842485595
 20
9.7854977008
 30
0.0
 10
12.8816065332
 20
9.7870488748
 30
0.0
 10
12.8789911114
 20
9.7888442113
 30
0.0
 10
12.8764033974
 20
9.7908824948
 30
0.0
 10
12.8738445645
 20
9.7931626036
 30
0.0
 10
12.871315688
 20
9.7956832553
 30
0.0
 10
12.8688178588
 20
9.7984431307
 30
0.0
 10
12.8663522351
 20
9.8014408663
 30
0.0
 10
12.863919869
 20
9.8046749215
 30
0.0
 10
12.8615219351
 20
9.8081437338
 30
0.0
 10
12.8591595419
 20
9.8118455812
 30
0.0
 10
12.8568337922
 20
9.815778633
 30
0.0
 10
12.8545458599
 20
9.8199409765
 30
0.0
 10
12.852296808
 20
9.8243305285
 30
0.0
 10
12.8500877482
 20
9.8289451432
 30
0.0
 10
12.847146787
 20
9.8355075988
 30
0.0
 10
12.8435902863
 20
9.8442680615
 30
0.0
 10
12.839568844
 20
9.8554661488
 30
0.0
 10
12.8357318913
 20
9.8675006683
 30
0.0
 10
12.8320871498
 20
9.8803476611
 30
0.0
 10
12.8286419696
 20
9.8939817349
 30
0.0
 10
12.8254033375
 20
9.9083757365
 30
0.0
 10
12.8223778345
 20
9.9235009518
 30
0.0
 10
12.8195716212
 20
9.9393271391
 30
0.0
 10
12.8169904067
 20
9.9558226039
 30
0.0
 10
12.8146394395
 20
9.9729542714
 30
0.0
 10
12.8125235053
 20
9.990687768
 30
0.0
 10
12.8106469134
 20
10.0089874959
 30
0.0
 10
12.80901349
 20
10.0278167026
 30
0.0
 10
12.8076265563
 20
10.0471375545
 30
0.0
 10
12.8064889329
 20
10.0669112219
 30
0.0
 10
12.805602947
 20
10.0870979503
 30
0.0
 10
12.8049703832
 20
10.1076571924
 30
0.0
 10
12.8044634512
 20
10.1356926642
 30
0.0
 10
12.8044803601
 20
10.1713613656
 30
0.0
 10
12.8055169431
 20
10.2147014469
 30
0.0
 10
12.807562207
 20
10.2585047684
 30
0.0
 10
12.8105997737
 20
10.3024192785
 30
0.0
 10
12.8146052863
 20
10.3460923361
 30
0.0
 10
12.8195464347
 20
10.3891729492
 30
0.0
 10
12.8244413808
 20
10.4245163561
 30
0.0
 10
12.8288042027
 20
10.4522272687
 30
0.0
 10
12.8322621166
 20
10.4725146683
 30
0.0
 10
12.8359198337
 20
10.4923994362
 30
0.0
 10
12.839770011
 20
10.5118416258
 30
0.0
 10
12.8438048669
 20
10.5308021534
 30
0.0
 10
12.8480162531
 20
10.549242925
 30
0.0
 10
12.8523956638
 20
10.5671268968
 30
0.0
 10
12.856934254
 20
10.5844181524
 30
0.0
 10
12.8616228595
 20
10.6010819817
 30
0.0
 10
12.8664519999
 20
10.6170849622
 30
0.0
 10
12.8714119134
 20
10.6323950264
 30
0.0
 10
12.8764925765
 20
10.6469815237
 30
0.0
 10
12.8816837311
 20
10.6608152981
 30
0.0
 10
12.8869749027
 20
10.6738687387
 30
0.0
 10
12.8923554322
 20
10.6861159519
 30
0.0
 10
12.8978144943
 20
10.6975324868
 30
0.0
 10
12.902491626
 20
10.706472511
 30
0.0
 10
12.906271947
 20
10.713182118
 30
0.0
 10
12.9090747522
 20
10.7179123021
 30
0.0
 10
12.9118889967
 20
10.7224185527
 30
0.0
 10
12.9147132875
 20
10.7266986339
 30
0.0
 10
12.9175461877
 20
10.7307504269
 30
0.0
 10
12.9203863658
 20
10.7345719156
 30
0.0
 10
12.9232324198
 20
10.7381612723
 30
0.0
 10
12.9260830449
 20
10.7415167197
 30
0.0
 10
12.9289366759
 20
10.7446364367
 30
0.0
 10
12.9308797167
 20
10.746598013
 30
0.0
 10
12.931851767
 20
10.7475369416
 30
0.0
  0
SPLINE
  5
380
100
AcDbEntity
  8
0
100
AcDbSpline
 62
7
  6
CONTINUOUS
 70
0
 71
3
 72
62
 73
58
 74
0
 42
0.0000001
 43
0.0000001
 44
0.0000000001
 40
0.0
 40
0.0
 40
0.0
 40
0.0
 40
0.0027657873
 40
0.0055964562
 40
0.0115120409
 40
0.0178632548
 40
0.024737815
 40
0.0322013774
 40
0.040301285
 40
0.0490702537
 40
0.0585293799
 40
0.0686907018
 40
0.0795590649
 40
0.0911333856
 40
0.1034077985
 40
0.1163724521
 40
0.1300139795
 40
0.1443160599
 40
0.1592598041
 40
0.17482393
 40
0.1909850895
 40
0.2077180989
 40
0.2249960062
 40
0.2427903155
 40
0.2610711524
 40
0.2798072992
 40
0.2989663651
 40
0.3384177123
 40
0.3791474593
 40
0.4208646279
 40
0.4632688975
 40
0.5060535371
 40
0.5489083129
 40
0.5915223406
 40
0.6335869622
 40
0.6747985993
 40
0.7148616893
 40
0.7343735178
 40
0.7534925378
 40
0.7721853844
 40
0.7904198156
 40
0.8081647421
 40
0.825390373
 40
0.8420684026
 40
0.8581720522
 40
0.8736762532
 40
0.8885579009
 40
0.9027959489
 40
0.9163716799
 40
0.9292690998
 40
0.9414751799
 40
0.9529803541
 40
0.9637792737
 40
0.9738713494
 40
0.9832619427
 40
0.9919644311
 40
1.0
 40
1.0
 40
1.0
 40
1.0
 10
12.8753669351
 20
9.9669433192
 30
0.0
 10
12.8748059802
 20
9.9671080655
 30
0.0
 10
12.873684576
 20
9.9674899675
 30
0.0
 10
12.8714500303
 20
9.9684590115
 30
0.0
 10
12.8686797084
 20
9.9700684427
 30
0.0
 10
12.8654788709
 20
9.972559959
 30
0.0
 10
12.8623544161
 20
9.9756320437
 30
0.0
 10
12.8593100571
 20
9.9792774365
 30
0.0
 10
12.8563491004
 20
9.9834893276
 30
0.0
 10
12.8534758365
 20
9.9882602056
 30
0.0
 10
12.8506948171
 20
9.9935815641
 30
0.0
 10
12.8480108833
 20
9.9994437923
 30
0.0
 10
12.8454289602
 20
10.0058361334
 30
0.0
 10
12.8429538679
 20
10.0127466634
 30
0.0
 10
12.8405903354
 20
10.0201623715
 30
0.0
 10
12.8383429562
 20
10.0280691967
 30
0.0
 10
12.8362160736
 20
10.0364520485
 30
0.0
 10
12.834213831
 20
10.045294873
 30
0.0
 10
12.8323401667
 20
10.0545806954
 30
0.0
 10
12.8305987267
 20
10.0642916446
 30
0.0
 10
12.8289929127
 20
10.0744090076
 30
0.0
 10
12.8275258913
 20
10.0849132728
 30
0.0
 10
12.8262005198
 20
10.09578416
 30
0.0
 10
12.8250193831
 20
10.1070006714
 30
0.0
 10
12.823984821
 20
10.1185411295
 30
0.0
 10
12.8230988233
 20
10.1303832448
 30
0.0
 10
12.8221083407
 20
10.1467035871
 30
0.0
 10
12.8212633363
 20
10.1676882394
 30
0.0
 10
12.8208703151
 20
10.1934551795
 30
0.0
 10
12.8210922701
 20
10.2198483333
 30
0.0
 10
12.8219276647
 20
10.2466636409
 30
0.0
 10
12.8233701868
 20
10.2736939176
 30
0.0
 10
12.8254087577
 20
10.3007302411
 30
0.0
 10
12.8280276029
 20
10.3275636463
 30
0.0
 10
12.8312063525
 20
10.3539868075
 30
0.0
 10
12.8349203058
 20
10.3797954334
 30
0.0
 10
12.8384674877
 20
10.4008053774
 30
0.0
 10
12.8415588363
 20
10.4171507785
 30
0.0
 10
12.8439716412
 20
10.4290259234
 30
0.0
 10
12.8464943712
 20
10.4406019987
 30
0.0
 10
12.8491221305
 20
10.451856646
 30
0.0
 10
12.8518498161
 20
10.4627681069
 30
0.0
 10
12.8546721412
 20
10.473315299
 30
0.0
 10
12.8575835981
 20
10.4834778615
 30
0.0
 10
12.8605785342
 20
10.4932361807
 30
0.0
 10
12.8636511426
 20
10.5025714368
 30
0.0
 10
12.8667954277
 20
10.5114656593
 30
0.0
 10
12.8700052857
 20
10.5199017441
 30
0.0
 10
12.8732745063
 20
10.5278634971
 30
0.0
 10
12.8765967314
 20
10.5353356965
 30
0.0
 10
12.8799655496
 20
10.5423041052
 30
0.0
 10
12.8833745139
 20
10.5487555126
 30
0.0
 10
12.8868171358
 20
10.5546778043
 30
0.0
 10
12.8902869184
 20
10.5600599206
 30
0.0
 10
12.8937777226
 20
10.564892171
 30
0.0
 10
12.897283034
 20
10.5691652609
 30
0.0
 10
12.8997204115
 20
10.5717359976
 30
0.0
 10
12.900942138
 20
10.5729160949
 30
0.0
  0
SPLINE
  5
381
100
AcDbEntity
  8
0
100
AcDbSpline
 62
7
  6
CONTINUOUS
 70
0
 71
3
 72
15
 73
11
 74
0
 42
0.0000001
 43
0.0000001
 44
0.0000000001
 40
0.0
 40
0.0
 40
0.0
 40
0.0
 40
0.1080214509
 40
0.2193208526
 40
0.3348173573
 40
0.4553247049
 40
0.5815484391
 40
0.7140906288
 40
0.8534443495
 40
1.0
 40
1.0
 40
1.0
 40
1.0
 10
12.9180580245
 20
10.5825332745
 30
0.0
 10
12.9173476717
 20
10.58242796
 30
0.0
 10
12.9159156714
 20
10.5821384479
 30
0.0
 10
12.9137847852
 20
10.5814844143
 30
0.0
 10
12.9116460719
 20
10.5806065091
 30
0.0
 10
12.9095013541
 20
10.5795058192
 30
0.0
 10
12.9073518258
 20
10.5781835611
 30
0.0
 10
12.9051988202
 20
10.576640871
 30
0.0
 10
12.9030438
 20
10.5748791899
 30
0.0
 10
12.9016429
 20
10.573592979
 30
0.0
 10
12.900942138
 20
10.5729160949
 30
0.0
  0
SPLINE
  5
382
100
AcDbEntity
  8
0
100
AcDbSpline
 62
7
  6
CONTINUOUS
 70
0
 71
3
 72
40
 73
36
 74
0
 42
0.0000001
 43
0.0000001
 44
0.0000000001
 40
0.0
 40
0.0
 40
0.0
 40
0.0
 40
0.0077464972
 40
0.015517061
 40
0.0233355041
 40
0.0312251706
 40
0.0473022466
 40
0.0639246217
 40
0.0812447628
 40
0.099395323
 40
0.1184891472
 40
0.1386203238
 40
0.1598659349
 40
0.1822882695
 40
0.2059365609
 40
0.2308491825
 40
0.2570549105
 40
0.2845745873
 40
0.3134221033
 40
0.343605366
 40
0.3751272314
 40
0.407985872
 40
0.4421756833
 40
0.4776873389
 40
0.5145085008
 40
0.552623901
 40
0.5920156945
 40
0.6326637539
 40
0.6745456119
 40
0.7176369964
 40
0.7619117177
 40
0.8073418017
 40
0.8538972085
 40
0.9015476512
 40
1.0
 40
1.0
 40
1.0
 40
1.0
 10
12.8760198185
 20
7.9584588176
 30
0.0
 10
12.8750528499
 20
7.958525881
 30
0.0
 10
12.8731193216
 20
7.9587161667
 30
0.0
 10
12.8702332383
 20
7.9591689962
 30
0.0
 10
12.8673599844
 20
7.959789292
 30
0.0
 10
12.8635238633
 20
7.9608456569
 30
0.0
 10
12.8587460579
 20
7.9625993766
 30
0.0
 10
12.8531170936
 20
7.9653587461
 30
0.0
 10
12.8475593298
 20
7.968782181
 30
0.0
 10
12.8420772021
 20
7.9728649861
 30
0.0
 10
12.836674122
 20
7.9776027083
 30
0.0
 10
12.8313535758
 20
7.9829907924
 30
0.0
 10
12.8261189709
 20
7.9890244959
 30
0.0
 10
12.8209739369
 20
7.9956988603
 30
0.0
 10
12.8159220473
 20
8.0030084368
 30
0.0
 10
12.8109671158
 20
8.0109474142
 30
0.0
 10
12.8061128582
 20
8.0195094019
 30
0.0
 10
12.8013631043
 20
8.02868754
 30
0.0
 10
12.7967216288
 20
8.0384744174
 30
0.0
 10
12.79219215
 20
8.0488620932
 30
0.0
 10
12.7877784067
 20
8.0598421224
 30
0.0
 10
12.783483955
 20
8.0714055178
 30
0.0
 10
12.7793124018
 20
8.0835428158
 30
0.0
 10
12.7752671423
 20
8.0962440335
 30
0.0
 10
12.7713515699
 20
8.1094987206
 30
0.0
 10
12.7675689254
 20
8.1232959457
 30
0.0
 10
12.7639223452
 20
8.1376243185
 30
0.0
 10
12.760414901
 20
8.1524719979
 30
0.0
 10
12.7570494674
 20
8.1678266981
 30
0.0
 10
12.7538289013
 20
8.1836757223
 30
0.0
 10
12.7507558427
 20
8.2000059517
 30
0.0
 10
12.7478329061
 20
8.2168037945
 30
0.0
 10
12.7450624601
 20
8.2340554014
 30
0.0
 10
12.7415366872
 20
8.2579032472
 30
0.0
 10
12.7391888408
 20
8.27603531
 30
0.0
 10
12.7377376434
 20
8.2882685234
 30
0.0
  0
SPLINE
  5
383
100
AcDbEntity
  8
0
100
AcDbSpline
 62
7
  6
CONTINUOUS
 70
0
 71
3
 72
79
 73
75
 74
0
 42
0.0000001
 43
0.0000001
 44
0.0000000001
 40
0.0
 40
0.0
 40
0.0
 40
0.0
 40
0.0027966379
 40
0.005668168
 40
0.0086296961
 40
0.0116948219
 40
0.0181798611
 40
0.021622456
 40
0.0252084811
 40
0.0289446934
 40
0.032836775
 40
0.0368895163
 40
0.0411068217
 40
0.0454918871
 40
0.0500472582
 40
0.054774859
 40
0.0596761513
 40
0.0647520862
 40
0.0700032173
 40
0.075429748
 40
0.0810314923
 40
0.0927580784
 40
0.105176616
 40
0.1182763859
 40
0.1320434317
 40
0.1464609719
 40
0.1615097204
 40
0.1771681766
 40
0.1934128536
 40
0.2102184651
 40
0.2275580744
 40
0.2454032433
 40
0.263724175
 40
0.2824898325
 40
0.3016680432
 40
0.321225595
 40
0.3411283494
 40
0.36134134
 40
0.3818288643
 40
0.4234808514
 40
0.4657880735
 40
0.5084475313
 40
0.5511529964
 40
0.5935978253
 40
0.6354777522
 40
0.6561124935
 40
0.6764944266
 40
0.6965874473
 40
0.7163561375
 40
0.7357658522
 40
0.7547828119
 40
0.7733742056
 40
0.7915083035
 40
0.8091545527
 40
0.8262836872
 40
0.8428678503
 40
0.8588807471
 40
0.8742977924
 40
0.8890962719
 40
0.9032555427
 40
0.9167572812
 40
0.929585794
 40
0.941728368
 40
0.9531757216
 40
0.9586371635
 40
0.9639232462
 40
0.9690340583
 40
0.9739700796
 40
0.9787321761
 40
0.9833216622
 40
0.9877404875
 40
0.991991119
 40
0.9960764711
 40
1.0
 40
1.0
 40
1.0
 40
1.0
 10
12.851335436
 20
8.1941089151
 30
0.0
 10
12.8503001174
 20
8.1944749523
 30
0.0
 10
12.8482315967
 20
8.1953039948
 30
0.0
 10
12.8451913592
 20
8.196807186
 30
0.0
 10
12.8421790093
 20
8.1985834095
 30
0.0
 10
12.8381263682
 20
8.2013659502
 30
0.0
 10
12.8342115423
 20
8.204659795
 30
0.0
 10
12.8304381163
 20
8.208392303
 30
0.0
 10
12.8275857465
 20
8.2115142612
 30
0.0
 10
12.8247692617
 20
8.2149009239
 30
0.0
 10
12.8219895517
 20
8.218550932
 30
0.0
 10
12.8192479894
 20
8.222462529
 30
0.0
 10
12.8165457208
 20
8.2266338639
 30
0.0
 10
12.8138840006
 20
8.2310629878
 30
0.0
 10
12.8112640726
 20
8.2357478319
 30
0.0
 10
12.8086870972
 20
8.2406861695
 30
0.0
 10
12.8061543402
 20
8.2458756987
 30
0.0
 10
12.8036669503
 20
8.2513139527
 30
0.0
 10
12.8012261113
 20
8.2569983585
 30
0.0
 10
12.7988329888
 20
8.2629262417
 30
0.0
 10
12.7956587643
 20
8.2712788116
 30
0.0
 10
12.7918300533
 20
8.2823168354
 30
0.0
 10
12.7875107665
 20
8.2962914467
 30
0.0
 10
12.7834075735
 20
8.3111636705
 30
0.0
 10
12.7795283727
 20
8.3269051913
 30
0.0
 10
12.7758806653
 20
8.3434862054
 30
0.0
 10
12.7724714991
 20
8.3608751532
 30
0.0
 10
12.7693074741
 20
8.3790389014
 30
0.0
 10
12.7663947201
 20
8.3979427957
 30
0.0
 10
12.7637388874
 20
8.4175507387
 30
0.0
 10
12.7613451209
 20
8.4378252552
 30
0.0
 10
12.7592180523
 20
8.4587275715
 30
0.0
 10
12.7573618032
 20
8.4802177007
 30
0.0
 10
12.7557799737
 20
8.5022545235
 30
0.0
 10
12.754475638
 20
8.5247958613
 30
0.0
 10
12.7534513186
 20
8.5477985614
 30
0.0
 10
12.7527090105
 20
8.5712185688
 30
0.0
 10
12.7522501329
 20
8.5950110744
 30
0.0
 10
12.7520162706
 20
8.6273471825
 30
0.0
 10
12.7524455376
 20
8.6683606877
 30
0.0
 10
12.7540870156
 20
8.7180553084
 30
0.0
 10
12.7568456255
 20
8.7681147857
 30
0.0
 10
12.7607002403
 20
8.8181559936
 30
0.0
 10
12.7656214055
 20
8.8677959428
 30
0.0
 10
12.7706036487
 20
8.9087107336
 30
0.0
 10
12.7751017718
 20
8.9409490228
 30
0.0
 10
12.7786995114
 20
8.9646735487
 30
0.0
 10
12.7825309147
 20
8.9880169114
 30
0.0
 10
12.7865886488
 20
9.0109344474
 30
0.0
 10
12.7908649096
 20
9.0333822694
 30
0.0
 10
12.7953514847
 20
9.0553174023
 30
0.0
 10
12.8000397538
 20
9.0766978585
 30
0.0
 10
12.8049206961
 20
9.0974827279
 30
0.0
 10
12.8099849236
 20
9.1176322516
 30
0.0
 10
12.8152226952
 20
9.1371078948
 30
0.0
 10
12.8206239401
 20
9.155872427
 30
0.0
 10
12.8261782629
 20
9.1738900062
 30
0.0
 10
12.8318749703
 20
9.1911262526
 30
0.0
 10
12.8377031016
 20
9.2075483094
 30
0.0
 10
12.843651452
 20
9.2231249205
 30
0.0
 10
12.8497085993
 20
9.2378264792
 30
0.0
 10
12.8558629291
 20
9.2516252168
 30
0.0
 10
12.8621026533
 20
9.2644948958
 30
0.0
 10
12.8674441982
 20
9.2745777162
 30
0.0
 10
12.8717594651
 20
9.2821499839
 30
0.0
 10
12.8749589993
 20
9.2874926195
 30
0.0
 10
12.8781709675
 20
9.2925855069
 30
0.0
 10
12.881393849
 20
9.2974262421
 30
0.0
 10
12.8846260883
 20
9.3020125398
 30
0.0
 10
12.887866236
 20
9.3063422273
 30
0.0
 10
12.8911127691
 20
9.3104133327
 30
0.0
 10
12.8943642686
 20
9.3142239315
 30
0.0
 10
12.8976190273
 20
9.3177720524
 30
0.0
 10
12.8998340529
 20
9.3200057867
 30
0.0
 10
12.900942138
 20
9.3210761149
 30
0.0
  0
SPLINE
  5
384
100
AcDbEntity
  8
0
100
AcDbSpline
 62
7
  6
CONTINUOUS
 70
0
 71
3
 72
15
 73
11
 74
0
 42
0.0000001
 43
0.0000001
 44
0.0000000001
 40
0.0
 40
0.0
 40
0.0
 40
0.0
 40
0.10844093
 40
0.2203198905
 40
0.3363916014
 40
0.4573220686
 40
0.5836913784
 40
0.7159978661
 40
0.8546571412
 40
1.0
 40
1.0
 40
1.0
 40
1.0
 10
12.9307064613
 20
9.3386046056
 30
0.0
 10
12.9294670155
 20
9.3383516083
 30
0.0
 10
12.9269720105
 20
9.3377172145
 30
0.0
 10
12.9232656428
 20
9.3364143395
 30
0.0
 10
12.919547256
 20
9.3347491257
 30
0.0
 10
12.9158194865
 20
9.3327233204
 30
0.0
 10
12.912084244
 20
9.3303385945
 30
0.0
 10
12.9083435123
 20
9.3275967234
 30
0.0
 10
12.9045995741
 20
9.3244997771
 30
0.0
 10
12.9021616184
 20
9.3222540425
 30
0.0
 10
12.900942138
 20
9.3210761149
 30
0.0
  0
SPLINE
  5
385
100
AcDbEntity
  8
0
100
AcDbSpline
 62
7
  6
CONTINUOUS
 70
0
 71
3
 72
11
 73
7
 74
0
 42
0.0000001
 43
0.0000001
 44
0.0000000001
 40
0.0
 40
0.0
 40
0.0
 40
0.0
 40
0.2755422938
 40
0.5329409748
 40
0.7737466434
 40
1.0
 40
1.0
 40
1.0
 40
1.0
 10
12.900942138
 20
9.7992094622
 30
0.0
 10
12.8994470237
 20
9.7977652926
 30
0.0
 10
12.8964591726
 20
9.7950685699
 30
0.0
 10
12.8918203241
 20
9.7915137411
 30
0.0
 10
12.8871880167
 20
9.7885979964
 30
0.0
 10
12.8840176771
 20
9.7870404138
 30
0.0
 10
12.8824428214
 20
9.7863822276
 30
0.0
  0
SPLINE
  5
386
100
AcDbEntity
  8
0
100
AcDbSpline
 62
7
  6
CONTINUOUS
 70
0
 71
3
 72
19
 73
15
 74
0
 42
0.0000001
 43
0.0000001
 44
0.0000000001
 40
0.0
 40
0.0
 40
0.0
 40
0.0
 40
0.1528781462
 40
0.2945796176
 40
0.4262319095
 40
0.5493499192
 40
0.6083248902
 40
0.6659124368
 40
0.7224094839
 40
0.7781328005
 40
0.8334133979
 40
0.8885910732
 40
0.9440076235
 40
1.0
 40
1.0
 40
1.0
 40
1.0
 10
12.900942138
 20
9.9759738989
 30
0.0
 10
12.8998980703
 20
9.9749654069
 30
0.0
 10
12.8978118242
 20
9.9730965558
 30
0.0
 10
12.8945591049
 20
9.9706777332
 30
0.0
 10
12.8913108132
 20
9.9687595292
 30
0.0
 10
12.8885709435
 20
9.9675660184
 30
0.0
 10
12.8863986792
 20
9.9668816379
 30
0.0
 10
12.8847980002
 20
9.9665032617
 30
0.0
 10
12.8832035695
 20
9.9662529358
 30
0.0
 10
12.8816161213
 20
9.9661307998
 30
0.0
 10
12.8800364874
 20
9.9661370181
 30
0.0
 10
12.8784654787
 20
9.9662716764
 30
0.0
 10
12.8769040543
 20
9.9665345977
 30
0.0
 10
12.8758770453
 20
9.9667935054
 30
0.0
 10
12.8753669351
 20
9.9669433192
 30
0.0
  0
SPLINE
  5
387
100
AcDbEntity
  8
0
100
AcDbSpline
 62
7
  6
CONTINUOUS
 70
0
 71
3
 72
70
 73
66
 74
0
 42
0.0000001
 43
0.0000001
 44
0.0000000001
 40
0.0
 40
0.0
 40
0.0
 40
0.0
 40
0.0082508906
 40
0.0172131727
 40
0.0269097911
 40
0.0373546299
 40
0.0485526365
 40
0.0605021514
 40
0.0731961951
 40
0.0866231928
 40
0.1007676803
 40
0.1156109138
 40
0.1311312432
 40
0.1473043728
 40
0.1641037211
 40
0.1815006509
 40
0.1994645873
 40
0.2179632406
 40
0.2369627959
 40
0.2564279984
 40
0.2763222876
 40
0.2966079749
 40
0.3381968416
 40
0.3808752103
 40
0.4243116432
 40
0.4681670661
 40
0.5120982191
 40
0.5557610906
 40
0.5988143484
 40
0.6409227578
 40
0.6817606675
 40
0.7016054119
 40
0.7210166091
 40
0.7399578493
 40
0.7583940632
 40
0.7762915956
 40
0.7936183408
 40
0.8103439778
 40
0.8264400943
 40
0.8418803476
 40
0.8566407715
 40
0.8707000498
 40
0.8840397813
 40
0.8966449486
 40
0.9085045177
 40
0.9196120472
 40
0.9299666299
 40
0.9395742469
 40
0.9441027245
 40
0.9484507512
 40
0.9526218424
 40
0.9566204339
 40
0.9604518657
 40
0.9641226156
 40
0.9676404397
 40
0.9710144201
 40
0.9773714526
 40
0.9803845682
 40
0.9833067077
 40
0.9861554261
 40
0.9889498005
 40
0.9917101771
 40
0.9944577148
 40
0.9972138995
 40
1.0
 40
1.0
 40
1.0
 40
1.0
 10
12.900942138
 20
9.9759738989
 30
0.0
 10
12.9022135144
 20
9.9772019543
 30
0.0
 10
12.904749377
 20
9.9798860138
 30
0.0
 10
12.9083901427
 20
9.9843611742
 30
0.0
 10
12.9120146667
 20
9.9894389594
 30
0.0
 10
12.9156156832
 20
9.9951088806
 30
0.0
 10
12.9191862799
 20
10.0013599526
 30
0.0
 10
12.9227191961
 20
10.0081795663
 30
0.0
 10
12.9262071774
 20
10.015553905
 30
0.0
 10
12.9296429757
 20
10.0234678917
 30
0.0
 10
12.9330194426
 20
10.0319052346
 30
0.0
 10
12.9363295042
 20
10.0408485097
 30
0.0
 10
12.9395662045
 20
10.050279196
 30
0.0
 10
12.9427227699
 20
10.0601777052
 30
0.0
 10
12.9457925747
 20
10.0705234537
 30
0.0
 10
12.9487691574
 20
10.0812949117
 30
0.0
 10
12.9516462796
 20
10.0924696338
 30
0.0
 10
12.9544179107
 20
10.1040243188
 30
0.0
 10
12.9570782248
 20
10.1159348725
 30
0.0
 10
12.9596216326
 20
10.1281764395
 30
0.0
 10
12.9620428406
 20
10.1407234843
 30
0.0
 10
12.9651268354
 20
10.1579680953
 30
0.0
 10
12.9686315461
 20
10.1800938328
 30
0.0
 10
12.9722431567
 20
10.2072156023
 30
0.0
 10
12.9752642575
 20
10.2348979745
 30
0.0
 10
12.9776695023
 20
10.2629099251
 30
0.0
 10
12.9794387676
 20
10.2910178309
 30
0.0
 10
12.9805572892
 20
10.3189871892
 30
0.0
 10
12.9810159133
 20
10.346584739
 30
0.0
 10
12.9808109842
 20
10.3735801629
 30
0.0
 10
12.9800824003
 20
10.3955924062
 30
0.0
 10
12.9791593517
 20
10.4127269625
 30
0.0
 10
12.9783105667
 20
10.4251663786
 30
0.0
 10
12.9773005585
 20
10.4372909818
 30
0.0
 10
12.9761314541
 20
10.4490754955
 30
0.0
 10
12.9748057336
 20
10.4604953306
 30
0.0
 10
12.973326182
 20
10.4715266729
 30
0.0
 10
12.9716959419
 20
10.4821465368
 30
0.0
 10
12.9699184691
 20
10.4923328124
 30
0.0
 10
12.9679975059
 20
10.5020643078
 30
0.0
 10
12.9659371137
 20
10.5113208131
 30
0.0
 10
12.9637416589
 20
10.5200831521
 30
0.0
 10
12.9614157584
 20
10.5283332137
 30
0.0
 10
12.9589642788
 20
10.5360540241
 30
0.0
 10
12.9563923586
 20
10.5432297784
 30
0.0
 10
12.9537052811
 20
10.5498460047
 30
0.0
 10
12.950908509
 20
10.5558891657
 30
0.0
 10
12.9484446169
 20
10.5605253941
 30
0.0
 10
12.9464161322
 20
10.5639271285
 30
0.0
 10
12.9449010148
 20
10.5662768915
 30
0.0
 10
12.9433628165
 20
10.5684744763
 30
0.0
 10
12.9418023051
 20
10.5705187914
 30
0.0
 10
12.9402201789
 20
10.5724087779
 30
0.0
 10
12.9386172324
 20
10.5741433984
 30
0.0
 10
12.9369940164
 20
10.5757219418
 30
0.0
 10
12.9348469989
 20
10.5775799229
 30
0.0
 10
12.9326175387
 20
10.5791735559
 30
0.0
 10
12.9303152279
 20
10.5804565222
 30
0.0
 10
12.9286026495
 20
10.5812415985
 30
0.0
 10
12.9268747618
 20
10.5818658008
 30
0.0
 10
12.9251324725
 20
10.5823284988
 30
0.0
 10
12.923376972
 20
10.5826292662
 30
0.0
 10
12.9216094203
 20
10.5827678044
 30
0.0
 10
12.9198312585
 20
10.5827439486
 30
0.0
 10
12.9186484516
 20
10.5826208092
 30
0.0
 10
12.9180580245
 20
10.5825332745
 30
0.0
  0
SPLINE
  5
388
100
AcDbEntity
  8
0
100
AcDbSpline
 62
7
  6
CONTINUOUS
 70
0
 71
3
 72
35
 73
31
 74
0
 42
0.0000001
 43
0.0000001
 44
0.0000000001
 40
0.0
 40
0.0
 40
0.0
 40
0.0
 40
0.0246597879
 40
0.0505287181
 40
0.0775491499
 40
0.1056583108
 40
0.1347888235
 40
0.164869189
 40
0.1958242507
 40
0.2275755861
 40
0.2600418683
 40
0.2931391968
 40
0.3267814471
 40
0.3608806155
 40
0.4300885883
 40
0.5000350789
 40
0.569980389
 40
0.639184829
 40
0.6732813675
 40
0.7069204222
 40
0.7400139966
 40
0.7724759775
 40
0.8042224894
 40
0.8351722221
 40
0.8652467684
 40
0.8943709875
 40
0.9224734067
 40
0.9494866899
 40
0.9753480919
 40
1.0
 40
1.0
 40
1.0
 40
1.0
 10
12.830808905
 20
10.0635497774
 30
0.0
 10
12.8320221054
 20
10.0669091882
 30
0.0
 10
12.8344087782
 20
10.073828867
 30
0.0
 10
12.837800317
 20
10.0845380249
 30
0.0
 10
12.841081975
 20
10.0958026941
 30
0.0
 10
12.8442443933
 20
10.1075911046
 30
0.0
 10
12.8472785971
 20
10.1198701278
 30
0.0
 10
12.8501759739
 20
10.1326051758
 30
0.0
 10
12.8529283012
 20
10.1457603701
 30
0.0
 10
12.8555277695
 20
10.1592986319
 30
0.0
 10
12.8579670042
 20
10.1731817936
 30
0.0
 10
12.860239084
 20
10.1873706917
 30
0.0
 10
12.8623376052
 20
10.2018253267
 30
0.0
 10
12.8649087678
 20
10.2214945056
 30
0.0
 10
12.8676428043
 20
10.2464428688
 30
0.0
 10
12.8701366432
 20
10.2766298599
 30
0.0
 10
12.8718310043
 20
10.3068717485
 30
0.0
 10
12.8725647282
 20
10.3319576823
 30
0.0
 10
12.8727314648
 20
10.3517921449
 30
0.0
 10
12.8726469702
 20
10.3663966851
 30
0.0
 10
12.8723538994
 20
10.3807617282
 30
0.0
 10
12.8718530761
 20
10.3948467785
 30
0.0
 10
12.8711459585
 20
10.4086120988
 30
0.0
 10
12.8702345833
 20
10.4220188757
 30
0.0
 10
12.86912157
 20
10.4350293127
 30
0.0
 10
12.8678101118
 20
10.4476067456
 30
0.0
 10
12.8663039681
 20
10.4597157382
 30
0.0
 10
12.8646074632
 20
10.4713222515
 30
0.0
 10
12.8627254817
 20
10.4823935375
 30
0.0
 10
12.8613160331
 20
10.4895739946
 30
0.0
 10
12.8605777748
 20
10.4930674627
 30
0.0
  0
SPLINE
  5
389
100
AcDbEntity
  8
0
100
AcDbSpline
 62
7
  6
CONTINUOUS
 70
0
 71
3
 72
15
 73
11
 74
0
 42
0.0000001
 43
0.0000001
 44
0.0000000001
 40
0.0
 40
0.0
 40
0.0
 40
0.0
 40
0.1217262928
 40
0.2462470311
 40
0.3726460086
 40
0.4999892423
 40
0.6273338368
 40
0.7537368878
 40
0.8782643678
 40
1.0
 40
1.0
 40
1.0
 40
1.0
 10
12.8210382792
 20
10.1911221938
 30
0.0
 10
12.8221989108
 20
10.1982293258
 30
0.0
 10
12.8243645299
 20
10.2126370653
 30
0.0
 10
12.8271242645
 20
10.2345111088
 30
0.0
 10
12.8294181087
 20
10.2567730483
 30
0.0
 10
12.8312278357
 20
10.2792470861
 30
0.0
 10
12.8325391249
 20
10.3017559482
 30
0.0
 10
12.8333416808
 20
10.324122079
 30
0.0
 10
12.8336292731
 20
10.3461688423
 30
0.0
 10
12.8334741869
 20
10.3607385548
 30
0.0
 10
12.8333062177
 20
10.3679384253
 30
0.0
  0
SPLINE
  5
38A
100
AcDbEntity
  8
0
100
AcDbSpline
 62
7
  6
CONTINUOUS
 70
0
 71
3
 72
53
 73
49
 74
0
 42
0.0000001
 43
0.0000001
 44
0.0000000001
 40
0.0
 40
0.0
 40
0.0
 40
0.0
 40
0.0470070615
 40
0.0937047768
 40
0.1400011406
 40
0.1858066071
 40
0.2310320016
 40
0.2755899972
 40
0.3193948567
 40
0.3623628503
 40
0.4044124531
 40
0.4454646204
 40
0.4854430551
 40
0.5242744968
 40
0.5618890279
 40
0.5982204058
 40
0.6332064334
 40
0.6667893789
 40
0.6989164609
 40
0.7295404259
 40
0.7442760493
 40
0.7586210856
 40
0.7725714976
 40
0.7861238291
 40
0.7992750879
 40
0.8120229816
 40
0.8243657733
 40
0.8363025339
 40
0.8478330549
 40
0.8589580491
 40
0.8696791885
 40
0.8799992204
 40
0.8899221597
 40
0.8994533333
 40
0.9085997145
 40
0.9173699508
 40
0.9257747888
 40
0.9338271651
 40
0.9415426438
 40
0.948939623
 40
0.9560397038
 40
0.9628679719
 40
0.9694531937
 40
0.9758280028
 40
0.9820287693
 40
0.9880954154
 40
0.9940708056
 40
1.0
 40
1.0
 40
1.0
 40
1.0
 10
13.1259658907
 20
8.6632682362
 30
0.0
 10
13.1247937283
 20
8.6511227703
 30
0.0
 10
13.1223176297
 20
8.6269249848
 30
0.0
 10
13.1181963031
 20
8.5908177181
 30
0.0
 10
13.1136862123
 20
8.5550712319
 30
0.0
 10
13.1087968565
 20
8.5197604153
 30
0.0
 10
13.1035384424
 20
8.4849589254
 30
0.0
 10
13.0979220098
 20
8.4507395292
 30
0.0
 10
13.0919593232
 20
8.4171736963
 30
0.0
 10
13.0856628886
 20
8.3843315484
 30
0.0
 10
13.0790459108
 20
8.3522816763
 30
0.0
 10
13.072122272
 20
8.3210910051
 30
0.0
 10
13.0649065013
 20
8.2908246472
 30
0.0
 10
13.0574137461
 20
8.2615457625
 30
0.0
 10
13.0496597393
 20
8.2333154224
 30
0.0
 10
13.0416607654
 20
8.2061924702
 30
0.0
 10
13.0334336253
 20
8.1802334137
 30
0.0
 10
13.0249955985
 20
8.1554922093
 30
0.0
 10
13.0163644014
 20
8.1320204416
 30
0.0
 10
13.0089337
 20
8.1133266813
 30
0.0
 10
13.0028960535
 20
8.0990527044
 30
0.0
 10
12.9983889652
 20
8.0888320606
 30
0.0
 10
12.9938471978
 20
8.0789639
 30
0.0
 10
12.9892731469
 20
8.0694533324
 30
0.0
 10
12.984669143
 20
8.0603053221
 30
0.0
 10
12.98003765
 20
8.0515245983
 30
0.0
 10
12.9753810146
 20
8.0431157367
 30
0.0
 10
12.9707017092
 20
8.0350830742
 30
0.0
 10
12.9660021189
 20
8.0274307794
 30
0.0
 10
12.9612846899
 20
8.0201627967
 30
0.0
 10
12.956551851
 20
8.0132828685
 30
0.0
 10
12.9518059979
 20
8.0067945482
 30
0.0
 10
12.9470495893
 20
8.0007011393
 30
0.0
 10
12.9422849573
 20
7.9950058058
 30
0.0
 10
12.937514555
 20
7.9897114151
 30
0.0
 10
12.932740651
 20
7.9848207437
 30
0.0
 10
12.9279656392
 20
7.9803362554
 30
0.0
 10
12.9231917345
 20
7.9762603471
 30
0.0
 10
12.9184212251
 20
7.9725951515
 30
0.0
 10
12.9136562936
 20
7.9693427192
 30
0.0
 10
12.9088991302
 20
7.9665049595
 30
0.0
 10
12.9041519488
 20
7.96408364
 30
0.0
 10
12.899416966
 20
7.9620805466
 30
0.0
 10
12.8946965734
 20
7.9604972033
 30
0.0
 10
12.8899933007
 20
7.9593352304
 30
0.0
 10
12.8853098104
 20
7.958595794
 30
0.0
 10
12.8806495966
 20
7.9582799786
 30
0.0
 10
12.877555206
 20
7.9583523318
 30
0.0
 10
12.8760198185
 20
7.9584588176
 30
0.0
  0
SPLINE
  5
38B
100
AcDbEntity
  8
0
100
AcDbSpline
 62
7
  6
CONTINUOUS
 70
0
 71
3
 72
37
 73
33
 74
0
 42
0.0000001
 43
0.0000001
 44
0.0000000001
 40
0.0
 40
0.0
 40
0.0
 40
0.0
 40
0.0943610805
 40
0.185015609
 40
0.2288885779
 40
0.2717590451
 40
0.3136035929
 40
0.3544005136
 40
0.3941292814
 40
0.4327707852
 40
0.4703073509
 40
0.5067229983
 40
0.54200347
 40
0.5761364078
 40
0.6091115635
 40
0.6409209219
 40
0.671559078
 40
0.7010233314
 40
0.7293142659
 40
0.7564358628
 40
0.7823963103
 40
0.8072082086
 40
0.8308896448
 40
0.8534645864
 40
0.8749642533
 40
0.8954277929
 40
0.9149039358
 40
0.9334519612
 40
0.9511434487
 40
0.9680632547
 40
0.9843107579
 40
1.0
 40
1.0
 40
1.0
 40
1.0
 10
13.0950562617
 20
9.2409253503
 30
0.0
 10
13.0937235915
 20
9.2521594105
 30
0.0
 10
13.0908939491
 20
9.2741612811
 30
0.0
 10
13.0868061803
 20
9.3012987878
 30
0.0
 10
13.0832637347
 20
9.3222701763
 30
0.0
 10
13.0805088477
 20
9.3374387053
 30
0.0
 10
13.0776288569
 20
9.3522084387
 30
0.0
 10
13.0746257996
 20
9.3665690894
 30
0.0
 10
13.071501752
 20
9.3805106717
 30
0.0
 10
13.0682589251
 20
9.3940234895
 30
0.0
 10
13.0648995684
 20
9.4070981407
 30
0.0
 10
13.061426046
 20
9.4197255394
 30
0.0
 10
13.0578407808
 20
9.4318969177
 30
0.0
 10
13.0541462733
 20
9.4436038316
 30
0.0
 10
13.0503451125
 20
9.4548381706
 30
0.0
 10
13.0464399227
 20
9.4655921586
 30
0.0
 10
13.0424334468
 20
9.4758583741
 30
0.0
 10
13.0383284155
 20
9.485629733
 30
0.0
 10
13.0341277067
 20
9.4948995316
 30
0.0
 10
13.0298341339
 20
9.5036613994
 30
0.0
 10
13.0254506796
 20
9.5119093756
 30
0.0
 10
13.0209802059
 20
9.5196378177
 30
0.0
 10
13.016425752
 20
9.5268415207
 30
0.0
 10
13.0117901785
 20
9.5335155651
 30
0.0
 10
13.0070765132
 20
9.5396554828
 30
0.0
 10
13.0022875523
 20
9.5452570253
 30
0.0
 10
12.9974262416
 20
9.550316369
 30
0.0
 10
12.9924952654
 20
9.5548297966
 30
0.0
 10
12.9874975363
 20
9.5587939023
 30
0.0
 10
12.9824355834
 20
9.5622053082
 30
0.0
 10
12.9773131456
 20
9.5650605467
 30
0.0
 10
12.9738064592
 20
9.5666146295
 30
0.0
 10
12.9720513256
 20
9.5672910384
 30
0.0
  0
SPLINE
  5
38C
100
AcDbEntity
  8
0
100
AcDbSpline
 62
7
  6
CONTINUOUS
 70
0
 71
3
 72
23
 73
19
 74
0
 42
0.0000001
 43
0.0000001
 44
0.0000000001
 40
0.0
 40
0.0
 40
0.0
 40
0.0
 40
0.0781368527
 40
0.1532317188
 40
0.225404452
 40
0.2947998426
 40
0.3615916891
 40
0.4259789642
 40
0.4881874855
 40
0.5484707583
 40
0.6071107438
 40
0.6644176967
 40
0.7207260077
 40
0.7763899872
 40
0.8317774567
 40
0.887262179
 40
0.9432158246
 40
1.0
 40
1.0
 40
1.0
 40
1.0
 10
12.900942138
 20
8.2102613488
 30
0.0
 10
12.8999092854
 20
8.2092636897
 30
0.0
 10
12.8978441924
 20
8.207347588
 30
0.0
 10
12.8946845572
 20
8.2046664167
 30
0.0
 10
12.8915270159
 20
8.2022377683
 30
0.0
 10
12.8883729941
 20
8.2000630119
 30
0.0
 10
12.8852238076
 20
8.1981431407
 30
0.0
 10
12.8820806504
 20
8.1964791889
 30
0.0
 10
12.8789448213
 20
8.1950720596
 30
0.0
 10
12.8758176663
 20
8.1939226378
 30
0.0
 10
12.8727005723
 20
8.1930318593
 30
0.0
 10
12.869595078
 20
8.1924003686
 30
0.0
 10
12.8665027763
 20
8.1920288237
 30
0.0
 10
12.8634253887
 20
8.1919176713
 30
0.0
 10
12.8603647284
 20
8.192067019
 30
0.0
 10
12.8573225631
 20
8.1924769357
 30
0.0
 10
12.8543009209
 20
8.1931469436
 30
0.0
 10
12.8523193368
 20
8.1937610566
 30
0.0
 10
12.851335436
 20
8.1941089151
 30
0.0
  0
SPLINE
  5
38D
100
AcDbEntity
  8
0
100
AcDbSpline
 62
7
  6
CONTINUOUS
 70
0
 71
3
 72
95
 73
91
 74
0
 42
0.0000001
 43
0.0000001
 44
0.0000000001
 40
0.0
 40
0.0
 40
0.0
 40
0.0
 40
0.0041939594
 40
0.0085762782
 40
0.0131520573
 40
0.0179256173
 40
0.0229004891
 40
0.0280792353
 40
0.0334636269
 40
0.0390547837
 40
0.0448532429
 40
0.0508590315
 40
0.0570716617
 40
0.0634902595
 40
0.0701135134
 40
0.0769398105
 40
0.09119284
 40
0.1062306851
 40
0.1220299823
 40
0.1385637575
 40
0.1558018515
 40
0.1737112679
 40
0.1922564673
 40
0.2113996207
 40
0.2311008356
 40
0.2513183603
 40
0.272008772
 40
0.2931271544
 40
0.3146272662
 40
0.3364617034
 40
0.3585820579
 40
0.380939072
 40
0.4034827908
 40
0.4261627133
 40
0.448927942
 40
0.4717273316
 40
0.4945096381
 40
0.5172236671
 40
0.539818422
 40
0.5622432532
 40
0.5844480073
 40
0.6063831771
 40
0.6280000543
 40
0.6492508828
 40
0.6700890155
 40
0.690469076
 40
0.710347124
 40
0.7296808303
 40
0.748429661
 40
0.7665550762
 40
0.7840207471
 40
0.8007927993
 40
0.816840092
 40
0.8321345465
 40
0.8466515423
 40
0.8536121205
 40
0.860370937
 40
0.8669261464
 40
0.8732762126
 40
0.8794199799
 40
0.8853566932
 40
0.8910860295
 40
0.8966081824
 40
0.9019238591
 40
0.9070344273
 40
0.9119418968
 40
0.9166491158
 40
0.9211597694
 40
0.9254786037
 40
0.9296114746
 40
0.9335655778
 40
0.9373495665
 40
0.9409737611
 40
0.9477890579
 40
0.9510148461
 40
0.9541417235
 40
0.9571900969
 40
0.9601821554
 40
0.9631415091
 40
0.9660926235
 40
0.9690601892
 40
0.9720684542
 40
0.9751406083
 40
0.9782982941
 40
0.9815612373
 40
0.98494706
 40
0.9884713247
 40
0.992147593
 40
0.9959873756
 40
1.0
 40
1.0
 40
1.0
 40
1.0
 10
10.0108918953
 20
10.9578336038
 30
0.0
 10
10.0122967125
 20
10.959190553
 30
0.0
 10
10.0152392934
 20
10.9618937983
 30
0.0
 10
10.0199323669
 20
10.9658323586
 30
0.0
 10
10.0249969645
 20
10.9697396018
 30
0.0
 10
10.030429802
 20
10.9736131355
 30
0.0
 10
10.03622777
 20
10.9774507775
 30
0.0
 10
10.0423874508
 20
10.9812503606
 30
0.0
 10
10.0489052153
 20
10.9850096277
 30
0.0
 10
10.055777185
 20
10.9887263469
 30
0.0
 10
10.0629992699
 20
10.9923983362
 30
0.0
 10
10.070567184
 20
10.9960233765
 30
0.0
 10
10.0784764021
 20
10.999599351
 30
0.0
 10
10.0867222117
 20
11.0031240483
 30
0.0
 10
10.0952996768
 20
11.0065954509
 30
0.0
 10
10.1073455694
 20
11.0112166202
 30
0.0
 10
10.1232046022
 20
11.0168304844
 30
0.0
 10
10.143207867
 20
11.0232287955
 30
0.0
 10
10.1644004936
 20
11.0293666719
 30
0.0
 10
10.1867316358
 20
11.0352292364
 30
0.0
 10
10.210147903
 20
11.0408022644
 30
0.0
 10
10.234593135
 20
11.0460722293
 30
0.0
 10
10.2600086621
 20
11.0510263403
 30
0.0
 10
10.2863334277
 20
11.0556525756
 30
0.0
 10
10.3135041548
 20
11.0599397119
 30
0.0
 10
10.3414555024
 20
11.0638773515
 30
0.0
 10
10.3701202301
 20
11.0674559471
 30
0.0
 10
10.3994293635
 20
11.0706668246
 30
0.0
 10
10.4293123639
 20
11.0735022029
 30
0.0
 10
10.4596973004
 20
11.0759552125
 30
0.0
 10
10.4905110258
 20
11.0780199116
 30
0.0
 10
10.5216793539
 20
11.0796912994
 30
0.0
 10
10.5531272398
 20
11.0809653285
 30
0.0
 10
10.5847789616
 20
11.0818389139
 30
0.0
 10
10.6165583042
 20
11.0823099401
 30
0.0
 10
10.6483887432
 20
11.0823772668
 30
0.0
 10
10.6801936308
 20
11.0820407313
 30
0.0
 10
10.7118963812
 20
11.0813011486
 30
0.0
 10
10.7434206557
 20
11.0801603093
 30
0.0
 10
10.7746905477
 20
11.078620976
 30
0.0
 10
10.8056307667
 20
11.076686876
 30
0.0
 10
10.8361668199
 20
11.0743626934
 30
0.0
 10
10.8662251938
 20
11.0716540577
 30
0.0
 10
10.8957335325
 20
11.0685675307
 30
0.0
 10
10.9246208135
 20
11.0651105913
 30
0.0
 10
10.9528175216
 20
11.0612916182
 30
0.0
 10
10.9802558195
 20
11.0571198699
 30
0.0
 10
11.0068697145
 20
11.052605463
 30
0.0
 10
11.0325952242
 20
11.0477593489
 30
0.0
 10
11.0573705346
 20
11.0425932868
 30
0.0
 10
11.0811361657
 20
11.0371198151
 30
0.0
 10
11.1038350972
 20
11.0313522185
 30
0.0
 10
11.1254130222
 20
11.0253044945
 30
0.0
 10
11.145818146
 20
11.0189913035
 30
0.0
 10
11.1620240886
 20
11.0134469417
 30
0.0
 10
11.1743557158
 20
11.0088790783
 30
0.0
 10
11.1831514508
 20
11.0054444163
 30
0.0
 10
11.1916189266
 20
11.0019550451
 30
0.0
 10
11.1997530827
 20
10.9984130079
 30
0.0
 10
11.2075490541
 20
10.9948204446
 30
0.0
 10
11.2150021911
 20
10.9911795142
 30
0.0
 10
11.2221080415
 20
10.9874923637
 30
0.0
 10
11.2288623941
 20
10.9837612312
 30
0.0
 10
11.235261215
 20
10.9799882672
 30
0.0
 10
11.2413007443
 20
10.9761757651
 30
0.0
 10
11.2469773745
 20
10.9723258724
 30
0.0
 10
11.2522877982
 20
10.9684409018
 30
0.0
 10
11.2572288413
 20
10.9645229902
 30
0.0
 10
11.2617976231
 20
10.9605744333
 30
0.0
 10
11.2659914224
 20
10.9565973085
 30
0.0
 10
11.2698076435
 20
10.9525939948
 30
0.0
 10
11.2732443036
 20
10.9485659973
 30
0.0
 10
11.2772345158
 20
10.9432757421
 30
0.0
 10
11.2805741995
 20
10.9378281147
 30
0.0
 10
11.2831490971
 20
10.932256276
 30
0.0
 10
11.2846555737
 20
10.9281397709
 30
0.0
 10
11.285770629
 20
10.9240128709
 30
0.0
 10
11.2864928703
 20
10.9198782259
 30
0.0
 10
11.2868214256
 20
10.9157390933
 30
0.0
 10
11.2867556816
 20
10.9115988122
 30
0.0
 10
11.2862958624
 20
10.9074608088
 30
0.0
 10
11.2854425276
 20
10.9033284048
 30
0.0
 10
11.2841968741
 20
10.8992046751
 30
0.0
 10
11.2825603268
 20
10.8950924382
 30
0.0
 10
11.2805346
 20
10.8909942482
 30
0.0
 10
11.2781215566
 20
10.8869124136
 30
0.0
 10
11.2753230324
 20
10.8828491365
 30
0.0
 10
11.2721409997
 20
10.8788064512
 30
0.0
 10
11.268577734
 20
10.8747867453
 30
0.0
 10
11.2660077689
 20
10.8721825129
 30
0.0
 10
11.2646636921
 20
10.8708842343
 30
0.0
  0
SPLINE
  5
38E
100
AcDbEntity
  8
0
100
AcDbSpline
 62
7
  6
CONTINUOUS
 70
0
 71
3
 72
18
 73
14
 74
0
 42
0.0000001
 43
0.0000001
 44
0.0000000001
 40
0.0
 40
0.0
 40
0.0
 40
0.0
 40
0.1504680185
 40
0.2917144324
 40
0.4244425615
 40
0.4879099171
 40
0.5496094205
 40
0.6682625585
 40
0.7817882768
 40
0.8371379945
 40
0.8918078237
 40
0.9460192726
 40
1.0
 40
1.0
 40
1.0
 40
1.0
 10
12.931851767
 20
9.7970658722
 30
0.0
 10
12.9304608313
 20
9.7957223314
 30
0.0
 10
12.9276808453
 20
9.7932014573
 30
0.0
 10
12.9233763329
 20
9.789842084
 30
0.0
 10
12.9197404363
 20
9.7874661613
 30
0.0
 10
12.9168411321
 20
9.7858572602
 30
0.0
 10
12.9140271223
 20
9.7844759723
 30
0.0
 10
12.910508719
 20
9.7830802279
 30
0.0
 10
12.9069277279
 20
9.7821277686
 30
0.0
 10
12.9040914767
 20
9.7816585784
 30
0.0
 10
12.9019894229
 20
9.7814503441
 30
0.0
 10
12.8998958723
 20
9.7813831038
 30
0.0
 10
12.8985049695
 20
9.7814323132
 30
0.0
 10
12.8978128566
 20
9.7814803152
 30
0.0
  0
SPLINE
  5
38F
100
AcDbEntity
  8
0
100
AcDbSpline
 62
7
  6
CONTINUOUS
 70
0
 71
3
 72
86
 73
82
 74
0
 42
0.0000001
 43
0.0000001
 44
0.0000000001
 40
0.0
 40
0.0
 40
0.0
 40
0.0
 40
0.0040523213
 40
0.0082800614
 40
0.0126870952
 40
0.0172766744
 40
0.0220515046
 40
0.0270136454
 40
0.0321644254
 40
0.0375046968
 40
0.043034825
 40
0.0487547778
 40
0.0546641679
 40
0.0607622082
 40
0.0735192788
 40
0.0870146872
 40
0.1012326707
 40
0.1161540984
 40
0.1317568893
 40
0.1480163434
 40
0.1649054074
 40
0.1823949167
 40
0.2004537975
 40
0.2190492418
 40
0.2381468647
 40
0.2577108436
 40
0.2777040552
 40
0.2980882103
 40
0.3188239766
 40
0.3398710965
 40
0.3611885015
 40
0.382734423
 40
0.4044665098
 40
0.4263419405
 40
0.4703491184
 40
0.5144088505
 40
0.5581727542
 40
0.5798360017
 40
0.6012961973
 40
0.6225112098
 40
0.6434395381
 40
0.6640404216
 40
0.684273954
 40
0.7041011995
 40
0.7234843171
 40
0.7423866905
 40
0.760773053
 40
0.778609625
 40
0.7958642633
 40
0.8125066264
 40
0.8285083695
 40
0.8438433503
 40
0.8584878706
 40
0.8724209726
 40
0.8856248022
 40
0.8980850742
 40
0.9040333244
 40
0.9097922753
 40
0.9153614622
 40
0.920740738
 40
0.9259304281
 40
0.9309312631
 40
0.9357445078
 40
0.9403720096
 40
0.9448162219
 40
0.9490803874
 40
0.9531685218
 40
0.9570856193
 40
0.9608377318
 40
0.9644320938
 40
0.9678773343
 40
0.9711835333
 40
0.9774235544
 40
0.9803901573
 40
0.9832753391
 40
0.986097823
 40
0.9888777566
 40
0.9916362996
 40
0.9943951526
 40
0.9971760044
 40
1.0
 40
1.0
 40
1.0
 40
1.0
 10
12.900942138
 20
8.2102613488
 30
0.0
 10
12.9021061585
 20
8.2113857063
 30
0.0
 10
12.9044328556
 20
8.2137371439
 30
0.0
 10
12.9078481661
 20
8.2174815457
 30
0.0
 10
12.911259679
 20
8.2215147701
 30
0.0
 10
12.9146654683
 20
8.2258345228
 30
0.0
 10
12.9180638854
 20
8.230438586
 30
0.0
 10
12.9214531795
 20
8.2353246357
 30
0.0
 10
12.924831675
 20
8.2404901174
 30
0.0
 10
12.9281975457
 20
8.2459323638
 30
0.0
 10
12.9315490636
 20
8.2516485172
 30
0.0
 10
12.9348844781
 20
8.2576355933
 30
0.0
 10
12.9382020389
 20
8.263890484
 30
0.0
 10
12.9426666148
 20
8.2727161953
 30
0.0
 10
12.9481790882
 20
8.2844040768
 30
0.0
 10
12.9545998942
 20
8.299239217
 30
0.0
 10
12.9609086855
 20
8.3150566919
 30
0.0
 10
12.9670921151
 20
8.331823308
 30
0.0
 10
12.9731370918
 20
8.3495040492
 30
0.0
 10
12.9790307997
 20
8.3680618323
 30
0.0
 10
12.9847607484
 20
8.3874576902
 30
0.0
 10
12.9903147911
 20
8.4076508434
 30
0.0
 10
12.9956811545
 20
8.428598806
 30
0.0
 10
13.0008484646
 20
8.4502574798
 30
0.0
 10
13.0058057696
 20
8.4725812491
 30
0.0
 10
13.0105425681
 20
8.4955230773
 30
0.0
 10
13.0150488329
 20
8.5190346094
 30
0.0
 10
13.0193150246
 20
8.5430662804
 30
0.0
 10
13.0233321141
 20
8.5675674234
 30
0.0
 10
13.0270915996
 20
8.5924863756
 30
0.0
 10
13.0305855269
 20
8.6177705898
 30
0.0
 10
13.0338065023
 20
8.6433667283
 30
0.0
 10
13.036747749
 20
8.6692208451
 30
0.0
 10
13.040294903
 20
8.7040318117
 30
0.0
 10
13.0439853633
 20
8.7477882708
 30
0.0
 10
13.047208091
 20
8.8003430196
 30
0.0
 10
13.0488791582
 20
8.8440410813
 30
0.0
 10
13.049590526
 20
8.8787345586
 30
0.0
 10
13.0498091362
 20
8.9044290541
 30
0.0
 10
13.0497142799
 20
8.9298307854
 30
0.0
 10
13.0493061542
 20
8.954886224
 30
0.0
 10
13.0485856531
 20
8.979542519
 30
0.0
 10
13.0475543241
 20
9.0037476793
 30
0.0
 10
13.0462143753
 20
9.0274506659
 30
0.0
 10
13.0445686723
 20
9.0506015093
 30
0.0
 10
13.0426207377
 20
9.0731514166
 30
0.0
 10
13.040374735
 20
9.095052876
 30
0.0
 10
13.0378354625
 20
9.116259756
 30
0.0
 10
13.0350083433
 20
9.1367274061
 30
0.0
 10
13.0318994117
 20
9.1564127607
 30
0.0
 10
13.0285153112
 20
9.1752744382
 30
0.0
 10
13.0248632714
 20
9.1932728462
 30
0.0
 10
13.0209510867
 20
9.2103702421
 30
0.0
 10
13.0167870976
 20
9.2265309308
 30
0.0
 10
13.0123801486
 20
9.2417210066
 30
0.0
 10
13.0084546391
 20
9.2537233943
 30
0.0
 10
13.005189337
 20
9.2628065938
 30
0.0
 10
13.0027233915
 20
9.2692510842
 30
0.0
 10
13.0002038804
 20
9.2754301359
 30
0.0
 10
12.9976320267
 20
9.281340515
 30
0.0
 10
12.9950092417
 20
9.2869791566
 30
0.0
 10
12.9923368442
 20
9.2923431179
 30
0.0
 10
12.9896162173
 20
9.2974296144
 30
0.0
 10
12.9868487883
 20
9.3022360292
 30
0.0
 10
12.9840358946
 20
9.3067598489
 30
0.0
 10
12.9811790208
 20
9.310998777
 30
0.0
 10
12.978279512
 20
9.3149505988
 30
0.0
 10
12.9753388124
 20
9.318613277
 30
0.0
 10
12.9723582959
 20
9.3219849432
 30
0.0
 10
12.969339428
 20
9.3250636823
 30
0.0
 10
12.9662831904
 20
9.3278481822
 30
0.0
 10
12.9622398106
 20
9.3311025615
 30
0.0
 10
12.9580424383
 20
9.3338522357
 30
0.0
 10
12.953717034
 20
9.336009411
 30
0.0
 10
12.9504971808
 20
9.337298811
 30
0.0
 10
12.9472496291
 20
9.3382850594
 30
0.0
 10
12.9439763019
 20
9.3389673639
 30
0.0
 10
12.9406794952
 20
9.339344926
 30
0.0
 10
12.9373614999
 20
9.3394173599
 30
0.0
 10
12.934025027
 20
9.3391848479
 30
0.0
 10
12.9318114911
 20
9.3388301658
 30
0.0
 10
12.9307064613
 20
9.3386046056
 30
0.0
  0
SPLINE
  5
390
100
AcDbEntity
  8
0
100
AcDbSpline
 62
7
  6
CONTINUOUS
 70
0
 71
3
 72
55
 73
51
 74
0
 42
0.0000001
 43
0.0000001
 44
0.0000000001
 40
0.0
 40
0.0
 40
0.0
 40
0.0
 40
0.009481259
 40
0.0194701861
 40
0.0299649082
 40
0.0409614156
 40
0.0524538599
 40
0.0644348488
 40
0.0768954991
 40
0.0898256804
 40
0.1032141157
 40
0.1170484224
 40
0.1313153068
 40
0.1460005457
 40
0.1610890914
 40
0.176565169
 40
0.1924122423
 40
0.2086131548
 40
0.2420042399
 40
0.2765902305
 40
0.3122144933
 40
0.3487138248
 40
0.3859196025
 40
0.4236588924
 40
0.4617555395
 40
0.5000312568
 40
0.5383066921
 40
0.576402492
 40
0.6141403746
 40
0.6513442001
 40
0.6878410443
 40
0.7234622888
 40
0.7580447522
 40
0.7914318384
 40
0.8076305803
 40
0.823475379
 40
0.8389490527
 40
0.8540351218
 40
0.8687177679
 40
0.8829819654
 40
0.896813522
 40
0.9101990924
 40
0.9231263604
 40
0.9355840262
 40
0.947561949
 40
0.9590513123
 40
0.9700446644
 40
0.98053621
 40
0.9905219648
 40
1.0
 40
1.0
 40
1.0
 40
1.0
 10
12.7910346919
 20
8.285199906
 30
0.0
 10
12.7926971218
 20
8.2878628551
 30
0.0
 10
12.7960045828
 20
8.2933982984
 30
0.0
 10
12.8008010027
 20
8.3020851384
 30
0.0
 10
12.8055563435
 20
8.3113620151
 30
0.0
 10
12.8102646138
 20
8.3212173505
 30
0.0
 10
12.8149200117
 20
8.3316390263
 30
0.0
 10
12.8195166751
 20
8.3426141466
 30
0.0
 10
12.8240488946
 20
8.3541290951
 30
0.0
 10
12.8285109875
 20
8.3661695699
 30
0.0
 10
12.8328973423
 20
8.3787206004
 30
0.0
 10
12.8372024994
 20
8.3917665515
 30
0.0
 10
12.8414210284
 20
8.4052911738
 30
0.0
 10
12.8455476526
 20
8.4192776016
 30
0.0
 10
12.8495772145
 20
8.4337083865
 30
0.0
 10
12.8535046219
 20
8.4485655211
 30
0.0
 10
12.8573250141
 20
8.4638304701
 30
0.0
 10
12.8623199377
 20
8.4849143575
 30
0.0
 10
12.8682487805
 20
8.5121508019
 30
0.0
 10
12.8747948406
 20
8.5458256252
 30
0.0
 10
12.8808089305
 20
8.5806442643
 30
0.0
 10
12.8862608128
 20
8.6164328157
 30
0.0
 10
12.8911230605
 20
8.6530126844
 30
0.0
 10
12.8953712474
 20
8.6902012124
 30
0.0
 10
12.8989840654
 20
8.7278126816
 30
0.0
 10
12.9019434127
 20
8.765659236
 30
0.0
 10
12.904234486
 20
8.8035518355
 30
0.0
 10
12.9058458534
 20
8.8413012078
 30
0.0
 10
12.9067695317
 20
8.8787188009
 30
0.0
 10
12.9070010111
 20
8.9156177415
 30
0.0
 10
12.9065392754
 20
8.9518137563
 30
0.0
 10
12.9053868345
 20
8.9871261833
 30
0.0
 10
12.9035496463
 20
9.0213786268
 30
0.0
 10
12.9014354066
 20
9.0491693834
 30
0.0
 10
12.899397233
 20
9.070737978
 30
0.0
 10
12.8977195172
 20
9.086381762
 30
0.0
 10
12.8958794999
 20
9.1016362863
 30
0.0
 10
12.8938795074
 20
9.1164825254
 30
0.0
 10
12.8917220358
 20
9.1309019438
 30
0.0
 10
12.8894098087
 20
9.1448765523
 30
0.0
 10
12.8869457572
 20
9.158388923
 30
0.0
 10
12.8843329455
 20
9.1714222121
 30
0.0
 10
12.8815746996
 20
9.1839601901
 30
0.0
 10
12.8786744749
 20
9.1959872565
 30
0.0
 10
12.8756359018
 20
9.2074884619
 30
0.0
 10
12.8724628331
 20
9.2184495479
 30
0.0
 10
12.869159207
 20
9.2288569232
 30
0.0
 10
12.8657291497
 20
9.2386977988
 30
0.0
 10
12.8621770159
 20
9.2479598896
 30
0.0
 10
12.8596647643
 20
9.2538963648
 30
0.0
 10
12.8583855858
 20
9.2567620188
 30
0.0
  0
SPLINE
  5
391
100
AcDbEntity
  8
0
100
AcDbSpline
 62
7
  6
CONTINUOUS
 70
0
 71
3
 72
79
 73
75
 74
0
 42
0.0000001
 43
0.0000001
 44
0.0000000001
 40
0.0
 40
0.0
 40
0.0
 40
0.0
 40
0.0029804418
 40
0.0060540414
 40
0.0092329784
 40
0.0125281034
 40
0.0159489439
 40
0.0195037813
 40
0.023199793
 40
0.0270430713
 40
0.0310388063
 40
0.0351913393
 40
0.0395042369
 40
0.0439804421
 40
0.0486222476
 40
0.0534314436
 40
0.0584093437
 40
0.0635567978
 40
0.0688743211
 40
0.0743620289
 40
0.0858464819
 40
0.0980059709
 40
0.1108317699
 40
0.1243118069
 40
0.138431098
 40
0.1531721009
 40
0.1685150159
 40
0.1844380191
 40
0.2009174526
 40
0.2179279851
 40
0.2354427716
 40
0.2534335912
 40
0.2718709666
 40
0.2907242669
 40
0.3099618095
 40
0.3295509708
 40
0.3494582809
 40
0.3696495133
 40
0.3900897687
 40
0.4315742264
 40
0.4736231753
 40
0.5159422222
 40
0.5582345288
 40
0.6002034945
 40
0.6415554605
 40
0.6619101397
 40
0.682003163
 40
0.7017998646
 40
0.7212662794
 40
0.74036923
 40
0.7590764155
 40
0.7773565277
 40
0.7951793387
 40
0.8125158077
 40
0.8293381926
 40
0.8456201738
 40
0.8613370139
 40
0.8764656932
 40
0.8909850869
 40
0.9048761761
 40
0.9181223048
 40
0.9307095
 40
0.9426268359
 40
0.9538669124
 40
0.9592320928
 40
0.9644271647
 40
0.9694524942
 40
0.9743088405
 40
0.9789973687
 40
0.983519696
 40
0.9878780837
 40
0.9920753306
 40
0.9961146993
 40
1.0
 40
1.0
 40
1.0
 40
1.0
 10
11.1897837274
 20
10.8260592942
 30
0.0
 10
11.1893616792
 20
10.827106665
 30
0.0
 10
11.1884254395
 20
10.8292031075
 30
0.0
 10
11.1867815757
 20
10.8322936763
 30
0.0
 10
11.1848794823
 20
10.835373359
 30
0.0
 10
11.1827202812
 20
10.83844057
 30
0.0
 10
11.1803051118
 20
10.8414940852
 30
0.0
 10
11.1776352336
 20
10.8445326325
 30
0.0
 10
11.1747118911
 20
10.8475548717
 30
0.0
 10
11.1715365314
 20
10.8505595621
 30
0.0
 10
11.1681106133
 20
10.8535453658
 30
0.0
 10
11.1644357301
 20
10.8565109624
 30
0.0
 10
11.1605136089
 20
10.8594550715
 30
0.0
 10
11.1563460273
 20
10.8623763091
 30
0.0
 10
11.1519349445
 20
10.8652733994
 30
0.0
 10
11.1472823899
 20
10.8681449953
 30
0.0
 10
11.1423905144
 20
10.8709897606
 30
0.0
 10
11.1372616104
 20
10.8738064172
 30
0.0
 10
11.1318980322
 20
10.8765936313
 30
0.0
 10
11.1243218368
 20
10.8803256116
 30
0.0
 10
11.1142726901
 20
10.8848972757
 30
0.0
 10
11.1014963134
 20
10.8901654831
 30
0.0
 10
11.0878496378
 20
10.8952860891
 30
0.0
 10
11.0733581492
 20
10.9002494531
 30
0.0
 10
11.0580487423
 20
10.9050462329
 30
0.0
 10
11.0419499921
 20
10.9096673752
 30
0.0
 10
11.0250919794
 20
10.9141041447
 30
0.0
 10
11.0075062519
 20
10.918348148
 30
0.0
 10
10.9892257548
 20
10.9223913496
 30
0.0
 10
10.9702847709
 20
10.9262261057
 30
0.0
 10
10.9507188438
 20
10.929845164
 30
0.0
 10
10.9305647028
 20
10.9332416791
 30
0.0
 10
10.9098601922
 20
10.9364092238
 30
0.0
 10
10.8886442038
 20
10.9393418062
 30
0.0
 10
10.8669566036
 20
10.9420338884
 30
0.0
 10
10.8448381467
 20
10.9444803851
 30
0.0
 10
10.8223304113
 20
10.9466766655
 30
0.0
 10
10.7994756671
 20
10.9486186025
 30
0.0
 10
10.7684454636
 20
10.9508747486
 30
0.0
 10
10.7291075741
 20
10.9530268476
 30
0.0
 10
10.6814454972
 20
10.9545379181
 30
0.0
 10
10.6334553545
 20
10.9549783129
 30
0.0
 10
10.5854976709
 20
10.954344754
 30
0.0
 10
10.5379327269
 20
10.9526419831
 30
0.0
 10
10.4987169239
 20
10.9503310835
 30
0.0
 10
10.4678162943
 20
10.9479491686
 30
0.0
 10
10.4450815269
 20
10.9459152245
 30
0.0
 10
10.4227090737
 20
10.9436283816
 30
0.0
 10
10.4007409493
 20
10.9410929326
 30
0.0
 10
10.3792184514
 20
10.9383136756
 30
0.0
 10
10.3581820228
 20
10.9352958555
 30
0.0
 10
10.3376711861
 20
10.9320451812
 30
0.0
 10
10.3177244623
 20
10.928567803
 30
0.0
 10
10.2983793049
 20
10.9248702974
 30
0.0
 10
10.2796720278
 20
10.9209596566
 30
0.0
 10
10.2616377279
 20
10.9168432732
 30
0.0
 10
10.2443102108
 20
10.9125289415
 30
0.0
 10
10.227721925
 20
10.908024825
 30
0.0
 10
10.211903904
 20
10.9033394417
 30
0.0
 10
10.196885689
 20
10.8984816399
 30
0.0
 10
10.1826952845
 20
10.8934605849
 30
0.0
 10
10.1693589792
 20
10.8882857261
 30
0.0
 10
10.1569016625
 20
10.8829667847
 30
0.0
 10
10.147125812
 20
10.8783536862
 30
0.0
 10
10.1397728602
 20
10.8745901916
 30
0.0
 10
10.1345779597
 20
10.8717816507
 30
0.0
 10
10.1296194544
 20
10.868944616
 30
0.0
 10
10.1248996438
 20
10.8660803926
 30
0.0
 10
10.1204207144
 20
10.8631903449
 30
0.0
 10
10.11618475
 20
10.8602757329
 30
0.0
 10
10.1121936498
 20
10.8573379005
 30
0.0
 10
10.1084492602
 20
10.8543780965
 30
0.0
 10
10.104953494
 20
10.8513978425
 30
0.0
 10
10.1027476955
 20
10.8493593781
 30
0.0
 10
10.1016889283
 20
10.8483366874
 30
0.0
  0
SPLINE
  5
392
100
AcDbEntity
  8
0
100
AcDbSpline
 62
7
  6
CONTINUOUS
 70
0
 71
3
 72
39
 73
35
 74
0
 42
0.0000001
 43
0.0000001
 44
0.0000000001
 40
0.0
 40
0.0
 40
0.0
 40
0.0
 40
0.0234880714
 40
0.0483829249
 40
0.0746240602
 40
0.1021432943
 40
0.1308657087
 40
0.1607104347
 40
0.1915913286
 40
0.2234175714
 40
0.2560942155
 40
0.2895226956
 40
0.3236013144
 40
0.358225711
 40
0.3932893179
 40
0.4286838092
 40
0.4642995445
 40
0.5000260087
 40
0.5357522504
 40
0.5713673193
 40
0.6067607028
 40
0.6418227649
 40
0.6764451859
 40
0.7105214062
 40
0.7439470746
 40
0.7766205055
 40
0.8084431471
 40
0.8393200673
 40
0.8691604647
 40
0.8978782154
 40
0.9253924732
 40
0.9516283449
 40
0.9765176763
 40
1.0
 40
1.0
 40
1.0
 40
1.0
 10
12.7687385075
 20
8.3833688362
 30
0.0
 10
12.7710730971
 20
8.3890961119
 30
0.0
 10
12.7756675835
 20
8.4009819047
 30
0.0
 10
12.7821775027
 20
8.4195248228
 30
0.0
 10
12.78848957
 20
8.4392534559
 30
0.0
 10
12.7945826135
 20
8.4601026221
 30
0.0
 10
12.8004363307
 20
8.4820037406
 30
0.0
 10
12.8060311826
 20
8.5048845297
 30
0.0
 10
12.8113485141
 20
8.5286694318
 30
0.0
 10
12.8163706019
 20
8.5532798341
 30
0.0
 10
12.8210807167
 20
8.5786343549
 30
0.0
 10
12.8254631768
 20
8.6046491178
 30
0.0
 10
12.8295033994
 20
8.6312380384
 30
0.0
 10
12.8331879475
 20
8.6583131135
 30
0.0
 10
12.8365045737
 20
8.6857847171
 30
0.0
 10
12.83944226
 20
8.7135619003
 30
0.0
 10
12.8419912537
 20
8.7415526954
 30
0.0
 10
12.8441430996
 20
8.7696644227
 30
0.0
 10
12.8458906675
 20
8.7978039992
 30
0.0
 10
12.8472281758
 20
8.825878249
 30
0.0
 10
12.8481512113
 20
8.8537942139
 30
0.0
 10
12.8486567439
 20
8.8814594631
 30
0.0
 10
12.8487431375
 20
8.9087824014
 30
0.0
 10
12.8484101561
 20
8.9356725755
 30
0.0
 10
12.8476589661
 20
8.9620409762
 30
0.0
 10
12.8464921335
 20
8.9878003376
 30
0.0
 10
12.8449136174
 20
9.0128654305
 30
0.0
 10
12.8429287588
 20
9.0371533529
 30
0.0
 10
12.8405442654
 20
9.0605838089
 30
0.0
 10
12.8377681894
 20
9.0830794015
 30
0.0
 10
12.8346099101
 20
9.1045658568
 30
0.0
 10
12.8310800755
 20
9.1249724627
 30
0.0
 10
12.8271906569
 20
9.1442317526
 30
0.0
 10
12.8242798665
 20
9.1566347003
 30
0.0
 10
12.8227577142
 20
9.1626277237
 30
0.0
  0
SPLINE
  5
393
100
AcDbEntity
  8
0
100
AcDbSpline
 62
7
  6
CONTINUOUS
 70
0
 71
3
 72
21
 73
17
 74
0
 42
0.0000001
 43
0.0000001
 44
0.0000000001
 40
0.0
 40
0.0
 40
0.0
 40
0.0
 40
0.1273176984
 40
0.2537999461
 40
0.3167619614
 40
0.3795355204
 40
0.4421314992
 40
0.5045621453
 40
0.5668413456
 40
0.6289845231
 40
0.6910084433
 40
0.7529310869
 40
0.8147714401
 40
0.8765493236
 40
0.9382852134
 40
1.0
 40
1.0
 40
1.0
 40
1.0
 10
11.3265199276
 20
9.63981945
 30
0.0
 10
11.3265199276
 20
9.6463178724
 30
0.0
 10
11.3271402454
 20
9.65928044
 30
0.0
 10
11.3294830114
 20
9.6753049719
 30
0.0
 10
11.3322831135
 20
9.6878748139
 30
0.0
 10
11.3348366605
 20
9.6971463355
 30
0.0
 10
11.3378407558
 20
9.7062531068
 30
0.0
 10
11.3412884734
 20
9.7151743935
 30
0.0
 10
11.3451718645
 20
9.7238895619
 30
0.0
 10
11.3494820529
 20
9.7323784981
 30
0.0
 10
11.3542090677
 20
9.7406216337
 30
0.0
 10
11.3593420075
 20
9.7485999714
 30
0.0
 10
11.3648690845
 20
9.7562950494
 30
0.0
 10
11.3707775867
 20
9.7636891952
 30
0.0
 10
11.3770536261
 20
9.7707651508
 30
0.0
 10
11.3814739246
 20
9.7752602144
 30
0.0
 10
11.383739572
 20
9.7774486484
 30
0.0
  0
SPLINE
  5
394
100
AcDbEntity
  8
0
100
AcDbSpline
 62
7
  6
CONTINUOUS
 70
0
 71
3
 72
18
 73
14
 74
0
 42
0.0000001
 43
0.0000001
 44
0.0000000001
 40
0.0
 40
0.0
 40
0.0
 40
0.0
 40
0.1483874372
 40
0.2881313926
 40
0.4199631025
 40
0.5448164204
 40
0.6638181664
 40
0.7215558082
 40
0.7783438291
 40
0.8343763079
 40
0.8898560265
 40
0.9449926394
 40
1.0
 40
1.0
 40
1.0
 40
1.0
 10
10.0929186209
 20
10.8701183053
 30
0.0
 10
10.0913340029
 20
10.8685876818
 30
0.0
 10
10.0883521279
 20
10.8655143756
 30
0.0
 10
10.0843559631
 20
10.8607196625
 30
0.0
 10
10.0809809853
 20
10.8558876396
 30
0.0
 10
10.0782327083
 20
10.85102338
 30
0.0
 10
10.076450857
 20
10.8469042447
 30
0.0
 10
10.0753576501
 20
10.8436120205
 30
0.0
 10
10.074704541
 20
10.8411637083
 30
0.0
 10
10.0742104742
 20
10.8387126061
 30
0.0
 10
10.073875677
 20
10.8362593698
 30
0.0
 10
10.0737002707
 20
10.8338049526
 30
0.0
 10
10.0736896456
 20
10.8321682989
 30
0.0
 10
10.0737108238
 20
10.8313518678
 30
0.0
  0
SPLINE
  5
395
100
AcDbEntity
  8
0
100
AcDbSpline
 62
7
  6
CONTINUOUS
 70
0
 71
3
 72
29
 73
25
 74
0
 42
0.0000001
 43
0.0000001
 44
0.0000000001
 40
0.0
 40
0.0
 40
0.0
 40
0.0
 40
0.0749503488
 40
0.1455452737
 40
0.2121261891
 40
0.2751192851
 40
0.3350448404
 40
0.3640583593
 40
0.3925449884
 40
0.4205963601
 40
0.4483089338
 40
0.4757832092
 40
0.5031225081
 40
0.530431847
 40
0.5578166247
 40
0.5853812653
 40
0.6132280351
 40
0.6414557868
 40
0.6701590145
 40
0.7293218109
 40
0.7913860629
 40
0.8569001023
 40
0.9263189548
 40
1.0
 40
1.0
 40
1.0
 40
1.0
 10
10.0125096585
 20
10.8693506598
 30
0.0
 10
10.0106355913
 20
10.8710946769
 30
0.0
 10
10.0071002861
 20
10.8745960965
 30
0.0
 10
10.0023300093
 20
10.8800586849
 30
0.0
 10
9.9982622276
 20
10.8855647305
 30
0.0
 10
9.9949031162
 20
10.8911087636
 30
0.0
 10
9.9926750718
 20
10.8958077498
 30
0.0
 10
9.9912692353
 20
10.8995661594
 30
0.0
 10
9.9904057074
 20
10.902359612
 30
0.0
 10
9.9897222818
 20
10.9051567934
 30
0.0
 10
9.9892192404
 20
10.9079569328
 30
0.0
 10
9.9888967595
 20
10.9107591264
 30
0.0
 10
9.988754988
 20
10.9135624903
 30
0.0
 10
9.9887940481
 20
10.9163661143
 30
0.0
 10
9.9890138666
 20
10.9191690823
 30
0.0
 10
9.9894143359
 20
10.9219705014
 30
0.0
 10
9.9899953204
 20
10.9247694559
 30
0.0
 10
9.9907565837
 20
10.9275651632
 30
0.0
 10
9.9920239618
 20
10.9313245745
 30
0.0
 10
9.9940788676
 20
10.9360277444
 30
0.0
 10
9.9972356789
 20
10.9415818216
 30
0.0
 10
10.00110281
 20
10.947099341
 30
0.0
 10
10.0056740735
 20
10.9525745989
 30
0.0
 10
10.0090817692
 20
10.9560851562
 30
0.0
 10
10.0108918953
 20
10.9578336038
 30
0.0
  0
SPLINE
  5
396
100
AcDbEntity
  8
0
100
AcDbSpline
 62
7
  6
CONTINUOUS
 70
0
 71
3
 72
21
 73
17
 74
0
 42
0.0000001
 43
0.0000001
 44
0.0000000001
 40
0.0
 40
0.0
 40
0.0
 40
0.0
 40
0.1273176984
 40
0.2537999461
 40
0.3167619614
 40
0.3795355204
 40
0.4421314992
 40
0.5045621453
 40
0.5668413456
 40
0.6289845231
 40
0.6910084433
 40
0.7529310869
 40
0.8147714401
 40
0.8765493236
 40
0.9382852134
 40
1.0
 40
1.0
 40
1.0
 40
1.0
 10
10.2398533086
 20
6.7565490897
 30
0.0
 10
10.2398533086
 20
6.7630475121
 30
0.0
 10
10.2404736265
 20
6.7760100798
 30
0.0
 10
10.2428163925
 20
6.7920346117
 30
0.0
 10
10.2456164946
 20
6.8046044536
 30
0.0
 10
10.2481700415
 20
6.8138759752
 30
0.0
 10
10.2511741369
 20
6.8229827465
 30
0.0
 10
10.2546218545
 20
6.8319040332
 30
0.0
 10
10.2585052455
 20
6.8406192017
 30
0.0
 10
10.262815434
 20
6.8491081379
 30
0.0
 10
10.2675424488
 20
6.8573512734
 30
0.0
 10
10.2726753886
 20
6.8653296111
 30
0.0
 10
10.2782024656
 20
6.8730246892
 30
0.0
 10
10.2841109678
 20
6.880418835
 30
0.0
 10
10.2903870071
 20
6.8874947905
 30
0.0
 10
10.2948073056
 20
6.8919898542
 30
0.0
 10
10.297072953
 20
6.8941782881
 30
0.0
  0
SPLINE
  5
397
100
AcDbEntity
  8
0
100
AcDbSpline
 62
7
  6
CONTINUOUS
 70
0
 71
3
 72
43
 73
39
 74
0
 42
0.0000001
 43
0.0000001
 44
0.0000000001
 40
0.0
 40
0.0
 40
0.0
 40
0.0
 40
0.0149723204
 40
0.0299477006
 40
0.0449291793
 40
0.0599197625
 40
0.0899340837
 40
0.1200191761
 40
0.1350977684
 40
0.1502017219
 40
0.1804888825
 40
0.2109025329
 40
0.2414558125
 40
0.2721586361
 40
0.3030175147
 40
0.3340354591
 40
0.3652119671
 40
0.3965430872
 40
0.4280215545
 40
0.4596369905
 40
0.491376161
 40
0.5232232825
 40
0.5551603712
 40
0.5871676259
 40
0.6192238382
 40
0.6513068229
 40
0.683393863
 40
0.7154621607
 40
0.7474892906
 40
0.7794536471
 40
0.8113348816
 40
0.843114318
 40
0.8747753538
 40
0.9063037992
 40
0.9376882654
 40
0.9533260383
 40
0.9689254782
 40
1.0
 40
1.0
 40
1.0
 40
1.0
 10
10.8495951645
 20
7.2547463957
 30
0.0
 10
10.8478447883
 20
7.2530556613
 30
0.0
 10
10.8442760632
 20
7.24974304
 30
0.0
 10
10.838729127
 20
7.2449903078
 30
0.0
 10
10.8329953813
 20
7.2404595502
 30
0.0
 10
10.8251097873
 20
7.2347215354
 30
0.0
 10
10.8148201603
 20
7.228132091
 30
0.0
 10
10.8040303025
 20
7.2223683803
 30
0.0
 10
10.7951314842
 20
7.2182679577
 30
0.0
 10
10.7860487881
 20
7.2145061513
 30
0.0
 10
10.7743961424
 20
7.2104610386
 30
0.0
 10
10.7600359971
 20
7.2066911198
 30
0.0
 10
10.7453625105
 20
7.2040203938
 30
0.0
 10
10.7304569945
 20
7.2024636113
 30
0.0
 10
10.7154013305
 20
7.2020290762
 30
0.0
 10
10.7002783588
 20
7.2027190011
 30
0.0
 10
10.6851711991
 20
7.2045294007
 30
0.0
 10
10.6701628591
 20
7.2074501496
 30
0.0
 10
10.6553357667
 20
7.2114650381
 30
0.0
 10
10.6407713284
 20
7.2165518681
 30
0.0
 10
10.626549487
 20
7.2226825782
 30
0.0
 10
10.6127482898
 20
7.2298234
 30
0.0
 10
10.5994434657
 20
7.2379350444
 30
0.0
 10
10.5867080154
 20
7.2469729168
 30
0.0
 10
10.5746118163
 20
7.256887361
 30
0.0
 10
10.5632212429
 20
7.2676239298
 30
0.0
 10
10.5525988072
 20
7.2791236813
 30
0.0
 10
10.5428028193
 20
7.2913234993
 30
0.0
 10
10.53388707
 20
7.3041564371
 30
0.0
 10
10.5259005387
 20
7.3175520766
 30
0.0
 10
10.5188871255
 20
7.3314369262
 30
0.0
 10
10.5128854156
 20
7.3457347608
 30
0.0
 10
10.5079284492
 20
7.3603672484
 30
0.0
 10
10.5040436182
 20
7.3752535849
 30
0.0
 10
10.5017145696
 20
7.3878192634
 30
0.0
 10
10.5004080467
 20
7.3979156437
 30
0.0
 10
10.4994756128
 20
7.4080023602
 30
0.0
 10
10.4991932789
 20
7.4155925497
 30
0.0
 10
10.4991932789
 20
7.4206433966
 30
0.0
  0
SPLINE
  5
398
100
AcDbEntity
  8
0
100
AcDbSpline
 62
7
  6
CONTINUOUS
 70
0
 71
3
 72
21
 73
17
 74
0
 42
0.0000001
 43
0.0000001
 44
0.0000000001
 40
0.0
 40
0.0
 40
0.0
 40
0.0
 40
0.0617147761
 40
0.1234506677
 40
0.1852285528
 40
0.2470689013
 40
0.30899155
 40
0.3710154761
 40
0.4331586505
 40
0.4954378572
 40
0.5578685131
 40
0.6204644763
 40
0.6832380473
 40
0.746200107
 40
0.8726822618
 40
1.0
 40
1.0
 40
1.0
 40
1.0
 10
10.5564121161
 20
7.5582718043
 30
0.0
 10
10.554146493
 20
7.5560833794
 30
0.0
 10
10.5497262617
 20
7.5515883157
 30
0.0
 10
10.543450289
 20
7.5445123947
 30
0.0
 10
10.5375418925
 20
7.5371182536
 30
0.0
 10
10.5320148835
 20
7.5294232138
 30
0.0
 10
10.5268820051
 20
7.5214449187
 30
0.0
 10
10.5221550778
 20
7.5132018134
 30
0.0
 10
10.5178449418
 20
7.5047129295
 30
0.0
 10
10.5139615994
 20
7.4959978152
 30
0.0
 10
10.5105139485
 20
7.4870765785
 30
0.0
 10
10.5075098872
 20
7.4779698706
 30
0.0
 10
10.5049563748
 20
7.4686984106
 30
0.0
 10
10.5021563286
 20
7.4561286557
 30
0.0
 10
10.4998135827
 20
7.440104243
 30
0.0
 10
10.4991932789
 20
7.4271417731
 30
0.0
 10
10.4991932789
 20
7.4206433966
 30
0.0
  0
SPLINE
  5
399
100
AcDbEntity
  8
0
100
AcDbSpline
 62
7
  6
CONTINUOUS
 70
0
 71
3
 72
42
 73
38
 74
0
 42
0.0000001
 43
0.0000001
 44
0.0000000001
 40
0.0
 40
0.0
 40
0.0
 40
0.0
 40
0.0299419634
 40
0.0449235299
 40
0.0599142017
 40
0.0899287029
 40
0.1200139772
 40
0.1350926626
 40
0.1501967046
 40
0.1804840506
 40
0.2108978877
 40
0.2414513551
 40
0.2721543675
 40
0.3030134354
 40
0.3340315696
 40
0.3652082675
 40
0.3965395775
 40
0.4280182343
 40
0.4596338596
 40
0.4913732188
 40
0.5232205284
 40
0.5551578047
 40
0.5871652463
 40
0.6192216448
 40
0.6513048151
 40
0.6833920402
 40
0.7154605222
 40
0.747487836
 40
0.7794523759
 40
0.8113337934
 40
0.8431134117
 40
0.8747746318
 40
0.9063032512
 40
0.9376879208
 40
0.9533258
 40
0.9689252634
 40
1.0
 40
1.0
 40
1.0
 40
1.0
 10
11.6769210061
 20
9.4739216584
 30
0.0
 10
11.6734205843
 20
9.4705405312
 30
0.0
 10
11.6679636161
 20
9.4656737217
 30
0.0
 10
11.6603212551
 20
9.4596350709
 30
0.0
 10
11.6524355232
 20
9.4538969126
 30
0.0
 10
11.6421459399
 20
9.4473076479
 30
0.0
 10
11.6313560707
 20
9.4415439482
 30
0.0
 10
11.6224572249
 20
9.4374436466
 30
0.0
 10
11.6133745551
 20
9.4336818311
 30
0.0
 10
11.6017219016
 20
9.4296368163
 30
0.0
 10
11.5873617724
 20
9.425866964
 30
0.0
 10
11.572688303
 20
9.4231963138
 30
0.0
 10
11.5577828115
 20
9.4216395995
 30
0.0
 10
11.5427271771
 20
9.4212051286
 30
0.0
 10
11.5276042401
 20
9.4218951124
 30
0.0
 10
11.5124971196
 20
9.4237055651
 30
0.0
 10
11.4974888226
 20
9.4266263611
 30
0.0
 10
11.4826617764
 20
9.4306412905
 30
0.0
 10
11.4680973867
 20
9.4357281548
 30
0.0
 10
11.4538755958
 20
9.4418588926
 30
0.0
 10
11.44007445
 20
9.4489997355
 30
0.0
 10
11.4267696777
 20
9.4571113944
 30
0.0
 10
11.4140342789
 20
9.4661492748
 30
0.0
 10
11.4019381301
 20
9.4760637208
 30
0.0
 10
11.3905476053
 20
9.4868002854
 30
0.0
 10
11.3799252159
 20
9.4983000272
 30
0.0
 10
11.3701292713
 20
9.5104998303
 30
0.0
 10
11.361213562
 20
9.5233327486
 30
0.0
 10
11.3532270667
 20
9.5367283644
 30
0.0
 10
11.3462136856
 20
9.5506131867
 30
0.0
 10
11.3402120022
 20
9.564910991
 30
0.0
 10
11.33525506
 20
9.5795434453
 30
0.0
 10
11.3313702427
 20
9.5944297491
 30
0.0
 10
11.3290412084
 20
9.6069954034
 30
0.0
 10
11.3277346893
 20
9.6170917543
 30
0.0
 10
11.3268022586
 20
9.6271784438
 30
0.0
 10
11.3265199276
 20
9.6347686097
 30
0.0
 10
11.3265199276
 20
9.63981945
 30
0.0
  0
SPLINE
  5
39A
100
AcDbEntity
  8
0
100
AcDbSpline
 62
7
  6
CONTINUOUS
 70
0
 71
3
 72
42
 73
38
 74
0
 42
0.0000001
 43
0.0000001
 44
0.0000000001
 40
0.0
 40
0.0
 40
0.0
 40
0.0
 40
0.0299419634
 40
0.0449235299
 40
0.0599142017
 40
0.0899287029
 40
0.1200139772
 40
0.1350926626
 40
0.1501967046
 40
0.1804840506
 40
0.2108978877
 40
0.2414513551
 40
0.2721543675
 40
0.3030134354
 40
0.3340315696
 40
0.3652082675
 40
0.3965395775
 40
0.4280182343
 40
0.4596338596
 40
0.4913732188
 40
0.5232205284
 40
0.5551578047
 40
0.5871652463
 40
0.6192216448
 40
0.6513048151
 40
0.6833920402
 40
0.7154605222
 40
0.747487836
 40
0.7794523759
 40
0.8113337934
 40
0.8431134117
 40
0.8747746318
 40
0.9063032512
 40
0.9376879208
 40
0.9533258
 40
0.9689252634
 40
1.0
 40
1.0
 40
1.0
 40
1.0
 10
10.5902543871
 20
6.5906512982
 30
0.0
 10
10.5867539654
 20
6.587270171
 30
0.0
 10
10.5812969972
 20
6.5824033614
 30
0.0
 10
10.5736546361
 20
6.5763647107
 30
0.0
 10
10.5657689043
 20
6.5706265524
 30
0.0
 10
10.5554793209
 20
6.5640372877
 30
0.0
 10
10.5446894517
 20
6.558273588
 30
0.0
 10
10.5357906059
 20
6.5541732863
 30
0.0
 10
10.5267079361
 20
6.5504114709
 30
0.0
 10
10.5150552826
 20
6.5463664561
 30
0.0
 10
10.5006951534
 20
6.5425966038
 30
0.0
 10
10.486021684
 20
6.5399259536
 30
0.0
 10
10.4711161926
 20
6.5383692392
 30
0.0
 10
10.4560605581
 20
6.5379347684
 30
0.0
 10
10.4409376212
 20
6.5386247521
 30
0.0
 10
10.4258305007
 20
6.5404352049
 30
0.0
 10
10.4108222036
 20
6.5433560009
 30
0.0
 10
10.3959951574
 20
6.5473709302
 30
0.0
 10
10.3814307677
 20
6.5524577946
 30
0.0
 10
10.3672089768
 20
6.5585885324
 30
0.0
 10
10.3534078311
 20
6.5657293753
 30
0.0
 10
10.3401030587
 20
6.5738410341
 30
0.0
 10
10.3273676599
 20
6.5828789145
 30
0.0
 10
10.3152715111
 20
6.5927933605
 30
0.0
 10
10.3038809863
 20
6.6035299251
 30
0.0
 10
10.2932585969
 20
6.6150296669
 30
0.0
 10
10.2834626523
 20
6.6272294701
 30
0.0
 10
10.274546943
 20
6.6400623883
 30
0.0
 10
10.2665604477
 20
6.6534580042
 30
0.0
 10
10.2595470666
 20
6.6673428264
 30
0.0
 10
10.2535453832
 20
6.6816406308
 30
0.0
 10
10.248588441
 20
6.6962730851
 30
0.0
 10
10.2447036237
 20
6.7111593889
 30
0.0
 10
10.2423745894
 20
6.7237250432
 30
0.0
 10
10.2410680703
 20
6.7338213941
 30
0.0
 10
10.2401356396
 20
6.7439080836
 30
0.0
 10
10.2398533086
 20
6.7514982495
 30
0.0
 10
10.2398533086
 20
6.7565490897
 30
0.0
  0
SPLINE
  5
39B
100
AcDbEntity
  8
0
100
AcDbSpline
 62
7
  6
CONTINUOUS
 70
0
 71
3
 72
62
 73
58
 74
0
 42
0.0000001
 43
0.0000001
 44
0.0000000001
 40
0.0
 40
0.0
 40
0.0
 40
0.0
 40
0.0155852564
 40
0.0311184274
 40
0.0465988342
 40
0.0620286651
 40
0.0774094341
 40
0.0927434404
 40
0.108033465
 40
0.1232826932
 40
0.1384947499
 40
0.1536736422
 40
0.1688237253
 40
0.1839496573
 40
0.1990563494
 40
0.2141489182
 40
0.2292326324
 40
0.2443128549
 40
0.2593949845
 40
0.2744843993
 40
0.2895864013
 40
0.3047061587
 40
0.3198486493
 40
0.335018609
 40
0.3502204864
 40
0.3654583966
 40
0.3807360785
 40
0.3960568586
 40
0.4114236243
 40
0.4268387978
 40
0.4423043132
 40
0.4578216008
 40
0.4733915831
 40
0.4890146699
 40
0.5046907566
 40
0.5204192291
 40
0.53619898
 40
0.5520284227
 40
0.5679055075
 40
0.5838277441
 40
0.6157869295
 40
0.6478872653
 40
0.680096099
 40
0.7123769584
 40
0.7446908507
 40
0.7769976349
 40
0.8092574173
 40
0.84143194
 40
0.8734859364
 40
0.8894622347
 40
0.9053972103
 40
0.9212878322
 40
0.9371315158
 40
0.9529260972
 40
0.9686695788
 40
0.9843616165
 40
1.0
 40
1.0
 40
1.0
 40
1.0
 10
10.9556043883
 20
7.3705027007
 30
0.0
 10
10.9556043883
 20
7.3660853838
 30
0.0
 10
10.9553881862
 20
7.357263947
 30
0.0
 10
10.9544123819
 20
7.344087403
 30
0.0
 10
10.952787717
 20
7.331019048
 30
0.0
 10
10.9505182827
 20
7.318091
 30
0.0
 10
10.947609363
 20
7.3053341424
 30
0.0
 10
10.9440680009
 20
7.292779312
 30
0.0
 10
10.9399027151
 20
7.280456754
 30
0.0
 10
10.9351234976
 20
7.268396185
 30
0.0
 10
10.9297418226
 20
7.2566267051
 30
0.0
 10
10.9237706681
 20
7.2451766908
 30
0.0
 10
10.9172244198
 20
7.2340737561
 30
0.0
 10
10.9101188375
 20
7.2233446897
 30
0.0
 10
10.9024710195
 20
7.2130153943
 30
0.0
 10
10.894299426
 20
7.2031107741
 30
0.0
 10
10.8856237662
 20
7.1936547163
 30
0.0
 10
10.8764649537
 20
7.1846700379
 30
0.0
 10
10.8668450599
 20
7.1761784339
 30
0.0
 10
10.8567873121
 20
7.1682003623
 30
0.0
 10
10.8463159793
 20
7.1607550508
 30
0.0
 10
10.8354563164
 20
7.1538604542
 30
0.0
 10
10.824234508
 20
7.1475332135
 30
0.0
 10
10.8126776423
 20
7.1417885454
 30
0.0
 10
10.8008136001
 20
7.1366402725
 30
0.0
 10
10.7886709914
 20
7.1321007934
 30
0.0
 10
10.7762790916
 20
7.1281810549
 30
0.0
 10
10.7636677928
 20
7.1248904497
 30
0.0
 10
10.7508675015
 20
7.1222368695
 30
0.0
 10
10.7379090701
 20
7.1202266874
 30
0.0
 10
10.7248237278
 20
7.1188647443
 30
0.0
 10
10.7116430129
 20
7.1181542598
 30
0.0
 10
10.698398682
 20
7.1180969028
 30
0.0
 10
10.6851226396
 20
7.1186927888
 30
0.0
 10
10.6718468645
 20
7.1199404803
 30
0.0
 10
10.6586033351
 20
7.1218369092
 30
0.0
 10
10.6454239155
 20
7.1243774817
 30
0.0
 10
10.6323404299
 20
7.1275560183
 30
0.0
 10
10.6193840437
 20
7.1313650315
 30
0.0
 10
10.6023019417
 20
7.1372780411
 30
0.0
 10
10.5814236029
 20
7.1462016541
 30
0.0
 10
10.5574073099
 20
7.1592319675
 30
0.0
 10
10.534619867
 20
7.1744747146
 30
0.0
 10
10.5132815042
 20
7.1917828877
 30
0.0
 10
10.4935964253
 20
7.2109902279
 30
0.0
 10
10.4757538148
 20
7.2319122854
 30
0.0
 10
10.4599247413
 20
7.2543486035
 30
0.0
 10
10.4462620267
 20
7.2780825008
 30
0.0
 10
10.4367782701
 20
7.2987816257
 30
0.0
 10
10.4303994577
 20
7.3157578596
 30
0.0
 10
10.4262332001
 20
7.3286553426
 30
0.0
 10
10.4226906388
 20
7.3416986823
 30
0.0
 10
10.4197801674
 20
7.3548568382
 30
0.0
 10
10.4175089286
 20
7.3680979546
 30
0.0
 10
10.415882257
 20
7.3813904534
 30
0.0
 10
10.414904308
 20
7.3947016859
 30
0.0
 10
10.4146858935
 20
7.403583151
 30
0.0
 10
10.4146858935
 20
7.4080155258
 30
0.0
  0
SPLINE
  5
39C
100
AcDbEntity
  8
0
100
AcDbSpline
 62
7
  6
CONTINUOUS
 70
0
 71
3
 72
62
 73
58
 74
0
 42
0.0000001
 43
0.0000001
 44
0.0000000001
 40
0.0
 40
0.0
 40
0.0
 40
0.0
 40
0.0155852564
 40
0.0311184274
 40
0.0465988342
 40
0.0620286651
 40
0.0774094341
 40
0.0927434404
 40
0.108033465
 40
0.1232826932
 40
0.1384947499
 40
0.1536736422
 40
0.1688237253
 40
0.1839496573
 40
0.1990563494
 40
0.2141489182
 40
0.2292326324
 40
0.2443128549
 40
0.2593949845
 40
0.2744843993
 40
0.2895864013
 40
0.3047061587
 40
0.3198486493
 40
0.335018609
 40
0.3502204864
 40
0.3654583966
 40
0.3807360785
 40
0.3960568586
 40
0.4114236243
 40
0.4268387978
 40
0.4423043132
 40
0.4578216008
 40
0.4733915831
 40
0.4890146699
 40
0.5046907566
 40
0.5204192291
 40
0.53619898
 40
0.5520284227
 40
0.5679055075
 40
0.5838277441
 40
0.6157869295
 40
0.6478872653
 40
0.680096099
 40
0.7123769584
 40
0.7446908507
 40
0.7769976349
 40
0.8092574173
 40
0.84143194
 40
0.8734859364
 40
0.8894622347
 40
0.9053972103
 40
0.9212878322
 40
0.9371315158
 40
0.9529260972
 40
0.9686695788
 40
0.9843616165
 40
1.0
 40
1.0
 40
1.0
 40
1.0
 10
10.4146858935
 20
7.4080155258
 30
0.0
 10
10.4146858935
 20
7.4124328428
 30
0.0
 10
10.4149020957
 20
7.4212542795
 30
0.0
 10
10.4158779
 20
7.4344308235
 30
0.0
 10
10.4175025649
 20
7.4474991785
 30
0.0
 10
10.4197719992
 20
7.4604272265
 30
0.0
 10
10.4226809189
 20
7.4731840841
 30
0.0
 10
10.426222281
 20
7.4857389145
 30
0.0
 10
10.4303875668
 20
7.4980614725
 30
0.0
 10
10.4351667842
 20
7.5101220415
 30
0.0
 10
10.4405484593
 20
7.5218915214
 30
0.0
 10
10.4465196138
 20
7.5333415357
 30
0.0
 10
10.453065862
 20
7.5444444704
 30
0.0
 10
10.4601714444
 20
7.5551735368
 30
0.0
 10
10.4678192623
 20
7.5655028322
 30
0.0
 10
10.4759908558
 20
7.5754074524
 30
0.0
 10
10.4846665157
 20
7.5848635102
 30
0.0
 10
10.4938253282
 20
7.5938481886
 30
0.0
 10
10.503445222
 20
7.6023397926
 30
0.0
 10
10.5135029697
 20
7.6103178642
 30
0.0
 10
10.5239743026
 20
7.6177631757
 30
0.0
 10
10.5348339655
 20
7.6246577723
 30
0.0
 10
10.5460557738
 20
7.630985013
 30
0.0
 10
10.5576126395
 20
7.6367296811
 30
0.0
 10
10.5694766817
 20
7.641877954
 30
0.0
 10
10.5816192904
 20
7.6464174331
 30
0.0
 10
10.5940111903
 20
7.6503371716
 30
0.0
 10
10.6066224891
 20
7.6536277768
 30
0.0
 10
10.6194227804
 20
7.656281357
 30
0.0
 10
10.6323812118
 20
7.6582915391
 30
0.0
 10
10.6454665541
 20
7.6596534822
 30
0.0
 10
10.658647269
 20
7.6603639667
 30
0.0
 10
10.6718915999
 20
7.6604213237
 30
0.0
 10
10.6851676423
 20
7.6598254377
 30
0.0
 10
10.6984434174
 20
7.6585777462
 30
0.0
 10
10.7116869468
 20
7.6566813173
 30
0.0
 10
10.7248663663
 20
7.6541407448
 30
0.0
 10
10.7379498519
 20
7.6509622082
 30
0.0
 10
10.7509062382
 20
7.647153195
 30
0.0
 10
10.7679883401
 20
7.6412401854
 30
0.0
 10
10.788866679
 20
7.6323165724
 30
0.0
 10
10.812882972
 20
7.619286259
 30
0.0
 10
10.8356704149
 20
7.6040435119
 30
0.0
 10
10.8570087777
 20
7.5867353388
 30
0.0
 10
10.8766938566
 20
7.5675279986
 30
0.0
 10
10.894536467
 20
7.5466059411
 30
0.0
 10
10.9103655406
 20
7.524169623
 30
0.0
 10
10.9240282551
 20
7.5004357257
 30
0.0
 10
10.9335120117
 20
7.4797366008
 30
0.0
 10
10.9398908242
 20
7.4627603669
 30
0.0
 10
10.9440570817
 20
7.4498628839
 30
0.0
 10
10.947599643
 20
7.4368195442
 30
0.0
 10
10.9505101145
 20
7.4236613883
 30
0.0
 10
10.9527813532
 20
7.4104202719
 30
0.0
 10
10.9544080249
 20
7.3971277731
 30
0.0
 10
10.9553859739
 20
7.3838165406
 30
0.0
 10
10.9556043883
 20
7.3749350755
 30
0.0
 10
10.9556043883
 20
7.3705027007
 30
0.0
  0
SPLINE
  5
39D
100
AcDbEntity
  8
0
100
AcDbSpline
 62
7
  6
CONTINUOUS
 70
0
 71
3
 72
79
 73
75
 74
0
 42
0.0000001
 43
0.0000001
 44
0.0000000001
 40
0.0
 40
0.0
 40
0.0
 40
0.0
 40
0.0027164348
 40
0.0054532488
 40
0.0082303238
 40
0.0110666296
 40
0.0139798494
 40
0.0169861669
 40
0.0201001499
 40
0.0233346759
 40
0.0267010486
 40
0.0302090197
 40
0.033866944
 40
0.0376819361
 40
0.0416599221
 40
0.0458058696
 40
0.0501238218
 40
0.054617024
 40
0.0592880656
 40
0.0641388545
 40
0.0691708006
 40
0.074384804
 40
0.0853597431
 40
0.0970636284
 40
0.1094904134
 40
0.1226297074
 40
0.1364674168
 40
0.1509862678
 40
0.1661662017
 40
0.1819846886
 40
0.1984169698
 40
0.2154362816
 40
0.2330140556
 40
0.2511200805
 40
0.2697226443
 40
0.288788656
 40
0.3082837849
 40
0.3281725816
 40
0.3484185878
 40
0.3689844374
 40
0.4109215373
 40
0.4536716229
 40
0.4969137089
 40
0.5403220732
 40
0.5835694025
 40
0.626329929
 40
0.6682825613
 40
0.6888580368
 40
0.7091148873
 40
0.7290157181
 40
0.7485240296
 40
0.7676043366
 40
0.7862222804
 40
0.8043447369
 40
0.8219399383
 40
0.8389776102
 40
0.8554291351
 40
0.8712677027
 40
0.8864684895
 40
0.9010088736
 40
0.9148687043
 40
0.9280306255
 40
0.940480451
 40
0.9522076515
 40
0.9577984343
 40
0.9632066673
 40
0.9684323704
 40
0.9734759776
 40
0.978338344
 40
0.9830207986
 40
0.9875253576
 40
0.9918545995
 40
0.996011594
 40
1.0
 40
1.0
 40
1.0
 40
1.0
 10
12.9658906775
 20
10.7631224986
 30
0.0
 10
12.966808934
 20
10.7630588122
 30
0.0
 10
12.9686476339
 20
10.7628478447
 30
0.0
 10
12.9713822644
 20
10.7622832877
 30
0.0
 10
12.97409624
 20
10.7614707981
 30
0.0
 10
12.9767876023
 20
10.7604110741
 30
0.0
 10
12.9794549746
 20
10.759105113
 30
0.0
 10
12.9820970009
 20
10.7575539389
 30
0.0
 10
12.9847124227
 20
10.7557586025
 30
0.0
 10
12.9873001367
 20
10.753720319
 30
0.0
 10
12.9898589696
 20
10.7514402101
 30
0.0
 10
12.9923878461
 20
10.7489195584
 30
0.0
 10
12.9948856753
 20
10.746159683
 30
0.0
 10
12.997351299
 20
10.7431619475
 30
0.0
 10
12.9997836651
 20
10.7399278923
 30
0.0
 10
13.002181599
 20
10.7364590799
 30
0.0
 10
13.0045439922
 20
10.7327572325
 30
0.0
 10
13.0068697419
 20
10.7288241808
 30
0.0
 10
13.0091576742
 20
10.7246618372
 30
0.0
 10
13.0114067261
 20
10.7202722852
 30
0.0
 10
13.0136157859
 20
10.7156576706
 30
0.0
 10
13.0165567471
 20
10.7090952149
 30
0.0
 10
13.0201132478
 20
10.7003347523
 30
0.0
 10
13.0241346901
 20
10.689136665
 30
0.0
 10
13.0279716428
 20
10.6771021455
 30
0.0
 10
13.0316163843
 20
10.6642551526
 30
0.0
 10
13.0350615645
 20
10.6506210788
 30
0.0
 10
13.0383001966
 20
10.6362270773
 30
0.0
 10
13.0413256996
 20
10.6211018619
 30
0.0
 10
13.0441319128
 20
10.6052756747
 30
0.0
 10
13.0467131274
 20
10.5887802099
 30
0.0
 10
13.0490640946
 20
10.5716485423
 30
0.0
 10
13.0511800288
 20
10.5539150458
 30
0.0
 10
13.0530566207
 20
10.5356153179
 30
0.0
 10
13.0546900441
 20
10.5167861111
 30
0.0
 10
13.0560769778
 20
10.4974652593
 30
0.0
 10
13.0572146012
 20
10.4776915918
 30
0.0
 10
13.0581005871
 20
10.4575048634
 30
0.0
 10
13.0587331509
 20
10.4369456213
 30
0.0
 10
13.0592400829
 20
10.4089101496
 30
0.0
 10
13.059223174
 20
10.3732414481
 30
0.0
 10
13.0581865909
 20
10.3299013668
 30
0.0
 10
13.0561413271
 20
10.2860980453
 30
0.0
 10
13.0531037603
 20
10.2421835353
 30
0.0
 10
13.0490982478
 20
10.1985104777
 30
0.0
 10
13.0441570994
 20
10.1554298646
 30
0.0
 10
13.0392621533
 20
10.1200864577
 30
0.0
 10
13.0348993314
 20
10.0923755451
 30
0.0
 10
13.0314414175
 20
10.0720881455
 30
0.0
 10
13.0277837004
 20
10.0522033776
 30
0.0
 10
13.0239335231
 20
10.032761188
 30
0.0
 10
13.0198986672
 20
10.0138006604
 30
0.0
 10
13.015687281
 20
9.9953598888
 30
0.0
 10
13.0113078703
 20
9.9774759169
 30
0.0
 10
13.00676928
 20
9.9601846614
 30
0.0
 10
13.0020806745
 20
9.9435208321
 30
0.0
 10
12.9972515342
 20
9.9275178516
 30
0.0
 10
12.9922916207
 20
9.9122077873
 30
0.0
 10
12.9872109575
 20
9.8976212901
 30
0.0
 10
12.982019803
 20
9.8837875156
 30
0.0
 10
12.9767286314
 20
9.8707340751
 30
0.0
 10
12.9713481019
 20
9.8584868619
 30
0.0
 10
12.9658890398
 20
9.8470703269
 30
0.0
 10
12.9612119081
 20
9.8381303028
 30
0.0
 10
12.9574315871
 20
9.8314206957
 30
0.0
 10
12.9546287819
 20
9.8266905117
 30
0.0
 10
12.9518145374
 20
9.8221842611
 30
0.0
 10
12.9489902466
 20
9.8179041799
 30
0.0
 10
12.9461573464
 20
9.8138523869
 30
0.0
 10
12.9433171683
 20
9.8100308981
 30
0.0
 10
12.9404711143
 20
9.8064415414
 30
0.0
 10
12.9376204892
 20
9.8030860941
 30
0.0
 10
12.9347668582
 20
9.7999663771
 30
0.0
 10
12.9328238174
 20
9.7980048007
 30
0.0
 10
12.931851767
 20
9.7970658722
 30
0.0
  0
SPLINE
  5
39E
100
AcDbEntity
  8
0
100
AcDbSpline
 62
7
  6
CONTINUOUS
 70
0
 71
3
 72
51
 73
47
 74
0
 42
0.0000001
 43
0.0000001
 44
0.0000000001
 40
0.0
 40
0.0
 40
0.0
 40
0.0
 40
0.0060489562
 40
0.0122681931
 40
0.0186883459
 40
0.025336964
 40
0.0322384011
 40
0.0394140352
 40
0.0468823809
 40
0.0546593401
 40
0.0627584904
 40
0.0711912185
 40
0.0799671044
 40
0.0890939605
 40
0.0985781709
 40
0.1084247637
 40
0.1186375761
 40
0.1292194464
 40
0.140172189
 40
0.1514968703
 40
0.1631937049
 40
0.1752622815
 40
0.1877015372
 40
0.2005098164
 40
0.2136849968
 40
0.2272243844
 40
0.2553823659
 40
0.2849549817
 40
0.3159067715
 40
0.3481971239
 40
0.3817808298
 40
0.416608542
 40
0.452627164
 40
0.4897801804
 40
0.5280079593
 40
0.567248026
 40
0.6074353083
 40
0.6485023664
 40
0.690379607
 40
0.7329954906
 40
0.7762767338
 40
0.8201484593
 40
0.8645345941
 40
0.9093573677
 40
0.9545393372
 40
1.0
 40
1.0
 40
1.0
 40
1.0
 10
12.8607520998
 20
7.9619126945
 30
0.0
 10
12.8622500005
 20
7.9622633941
 30
0.0
 10
12.8652604452
 20
7.9630975089
 30
0.0
 10
12.869735415
 20
7.9647110192
 30
0.0
 10
12.8742234564
 20
7.9667009113
 30
0.0
 10
12.8787221285
 20
7.9690658533
 30
0.0
 10
12.8832296744
 20
7.9718043392
 30
0.0
 10
12.8877441342
 20
7.9749149085
 30
0.0
 10
12.8922636426
 20
7.9783959293
 30
0.0
 10
12.8967863122
 20
7.9822456701
 30
0.0
 10
12.9013101699
 20
7.9864623323
 30
0.0
 10
12.905833327
 20
7.9910438785
 30
0.0
 10
12.9103537284
 20
7.9959882417
 30
0.0
 10
12.9148694315
 20
8.0012930881
 30
0.0
 10
12.9193783687
 20
8.0069560031
 30
0.0
 10
12.9238785087
 20
8.0129743666
 30
0.0
 10
12.9283678187
 20
8.0193453923
 30
0.0
 10
12.9328441894
 20
8.0260661599
 30
0.0
 10
12.937305619
 20
8.0331335281
 30
0.0
 10
12.9417499745
 20
8.0405442505
 30
0.0
 10
12.9461752453
 20
8.0482948616
 30
0.0
 10
12.9505793369
 20
8.0563817711
 30
0.0
 10
12.9549602007
 20
8.0648012111
 30
0.0
 10
12.9593158037
 20
8.0735492493
 30
0.0
 10
12.9636440926
 20
8.0826218261
 30
0.0
 10
12.9694520539
 20
8.0953118944
 30
0.0
 10
12.9766172931
 20
8.1119643634
 30
0.0
 10
12.9849663484
 20
8.1329189812
 30
0.0
 10
12.9931590459
 20
8.1550592384
 30
0.0
 10
13.0011799592
 20
8.1783437222
 30
0.0
 10
13.0090139816
 20
8.2027290497
 30
0.0
 10
13.0166463507
 20
8.2281696564
 30
0.0
 10
13.0240626823
 20
8.2546179779
 30
0.0
 10
13.0312490029
 20
8.28202452
 30
0.0
 10
13.0381917755
 20
8.3103379662
 30
0.0
 10
13.0448779233
 20
8.3395052793
 30
0.0
 10
13.0512948558
 20
8.3694718066
 30
0.0
 10
13.0574304917
 20
8.4001813839
 30
0.0
 10
13.0632732814
 20
8.4315764434
 30
0.0
 10
13.0688122288
 20
8.4635981231
 30
0.0
 10
13.0740369114
 20
8.4961863685
 30
0.0
 10
13.0789375133
 20
8.5292800885
 30
0.0
 10
13.0835047939
 20
8.5628171382
 30
0.0
 10
13.0877302182
 20
8.596734792
 30
0.0
 10
13.0916057717
 20
8.630969182
 30
0.0
 10
13.0939455865
 20
8.6539034665
 30
0.0
 10
13.0950562617
 20
8.6654118262
 30
0.0
  0
SPLINE
  5
39F
100
AcDbEntity
  8
0
100
AcDbSpline
 62
7
  6
CONTINUOUS
 70
0
 71
3
 72
40
 73
36
 74
0
 42
0.0000001
 43
0.0000001
 44
0.0000000001
 40
0.0
 40
0.0
 40
0.0
 40
0.0
 40
0.0077464972
 40
0.015517061
 40
0.0233355041
 40
0.0312251706
 40
0.0473022466
 40
0.0639246217
 40
0.0812447628
 40
0.099395323
 40
0.1184891472
 40
0.1386203238
 40
0.1598659349
 40
0.1822882695
 40
0.2059365609
 40
0.2308491825
 40
0.2570549105
 40
0.2845745873
 40
0.3134221033
 40
0.343605366
 40
0.3751272314
 40
0.407985872
 40
0.4421756833
 40
0.4776873389
 40
0.5145085008
 40
0.552623901
 40
0.5920156945
 40
0.6326637539
 40
0.6745456119
 40
0.7176369964
 40
0.7619117177
 40
0.8073418017
 40
0.8538972085
 40
0.9015476512
 40
1.0
 40
1.0
 40
1.0
 40
1.0
 10
12.9876837156
 20
9.5685914661
 30
0.0
 10
12.9886506842
 20
9.5685244026
 30
0.0
 10
12.9905842125
 20
9.5683341169
 30
0.0
 10
12.9934702958
 20
9.5678812874
 30
0.0
 10
12.9963435497
 20
9.5672609916
 30
0.0
 10
13.0001796708
 20
9.5662046267
 30
0.0
 10
13.0049574762
 20
9.564450907
 30
0.0
 10
13.0105864405
 20
9.5616915375
 30
0.0
 10
13.0161442043
 20
9.5582681026
 30
0.0
 10
13.0216263319
 20
9.5541852976
 30
0.0
 10
13.0270294121
 20
9.5494475754
 30
0.0
 10
13.0323499583
 20
9.5440594912
 30
0.0
 10
13.0375845632
 20
9.5380257877
 30
0.0
 10
13.0427295972
 20
9.5313514233
 30
0.0
 10
13.0477814868
 20
9.5240418468
 30
0.0
 10
13.0527364182
 20
9.5161028695
 30
0.0
 10
13.0575906759
 20
9.5075408817
 30
0.0
 10
13.0623404298
 20
9.4983627436
 30
0.0
 10
13.0669819052
 20
9.4885758662
 30
0.0
 10
13.0715113841
 20
9.4781881905
 30
0.0
 10
13.0759251274
 20
9.4672081612
 30
0.0
 10
13.0802195791
 20
9.4556447658
 30
0.0
 10
13.0843911322
 20
9.4435074678
 30
0.0
 10
13.0884363918
 20
9.4308062501
 30
0.0
 10
13.0923519642
 20
9.417551563
 30
0.0
 10
13.0961346087
 20
9.403754338
 30
0.0
 10
13.0997811888
 20
9.3894259652
 30
0.0
 10
13.1032886331
 20
9.3745782857
 30
0.0
 10
13.1066540667
 20
9.3592235856
 30
0.0
 10
13.1098746328
 20
9.3433745613
 30
0.0
 10
13.1129476914
 20
9.327044332
 30
0.0
 10
13.115870628
 20
9.3102464892
 30
0.0
 10
13.118641074
 20
9.2929948823
 30
0.0
 10
13.1221668469
 20
9.2691470365
 30
0.0
 10
13.1245146933
 20
9.2510149736
 30
0.0
 10
13.1259658907
 20
9.2387817602
 30
0.0
  0
SPLINE
  5
3A0
100
AcDbEntity
  8
0
100
AcDbSpline
 62
7
  6
CONTINUOUS
 70
0
 71
3
 72
73
 73
69
 74
0
 42
0.0000001
 43
0.0000001
 44
0.0000000001
 40
0.0
 40
0.0
 40
0.0
 40
0.0
 40
0.0038702301
 40
0.0078968099
 40
0.0120830248
 40
0.0164316336
 40
0.0209449903
 40
0.0256249936
 40
0.0304729794
 40
0.0354897976
 40
0.0460310315
 40
0.0572495104
 40
0.06914077
 40
0.0816965136
 40
0.0949051756
 40
0.1087523427
 40
0.1232211384
 40
0.1382924985
 40
0.1539453635
 40
0.1701568827
 40
0.1869026025
 40
0.2041566002
 40
0.2218915808
 40
0.2400790159
 40
0.2586892626
 40
0.2776916501
 40
0.2970545551
 40
0.3167455167
 40
0.3569774026
 40
0.3981147598
 40
0.4398761875
 40
0.4819747599
 40
0.5241206045
 40
0.5660234327
 40
0.6073950779
 40
0.6479520663
 40
0.6678387422
 40
0.6874188931
 40
0.7066595642
 40
0.7255285771
 40
0.7439946261
 40
0.762027391
 40
0.7795976092
 40
0.7966771683
 40
0.8132392354
 40
0.829258389
 40
0.8447107214
 40
0.8595739823
 40
0.8738277842
 40
0.8874538027
 40
0.9004359897
 40
0.9127608747
 40
0.9244179809
 40
0.9354002816
 40
0.9457047956
 40
0.9506036222
 40
0.955334206
 40
0.9598977178
 40
0.9642957857
 40
0.9685305963
 40
0.9726048566
 40
0.9765219571
 40
0.9802860271
 40
0.9839019717
 40
0.9873756693
 40
0.9907139989
 40
0.9939249579
 40
1.0
 40
1.0
 40
1.0
 40
1.0
 10
12.900942138
 20
9.7992094622
 30
0.0
 10
12.9018703309
 20
9.8001060277
 30
0.0
 10
12.9037258073
 20
9.8019754901
 30
0.0
 10
12.9064534285
 20
9.8049418885
 30
0.0
 10
12.9091784559
 20
9.8081237909
 30
0.0
 10
12.9118994807
 20
9.8115196188
 30
0.0
 10
12.9146153636
 20
9.8151278089
 30
0.0
 10
12.9173248821
 20
9.8189467871
 30
0.0
 10
12.9200268822
 20
9.8229748404
 30
0.0
 10
12.9236782536
 20
9.8287170037
 30
0.0
 10
12.9282058143
 20
9.8364158336
 30
0.0
 10
12.9335032371
 20
9.8463100706
 30
0.0
 10
12.9387415172
 20
9.8569891032
 30
0.0
 10
12.9439110572
 20
9.8684335199
 30
0.0
 10
12.9490023989
 20
9.8806226815
 30
0.0
 10
12.9540061912
 20
9.8935344235
 30
0.0
 10
12.9589132172
 20
9.9071452335
 30
0.0
 10
12.9637144168
 20
9.921430273
 30
0.0
 10
12.9684009354
 20
9.9363634231
 30
0.0
 10
12.9729641323
 20
9.9519173427
 30
0.0
 10
12.9773955844
 20
9.9680635387
 30
0.0
 10
12.9816871033
 20
9.9847724168
 30
0.0
 10
12.9858307793
 20
10.0020133265
 30
0.0
 10
12.9898189735
 20
10.0197546274
 30
0.0
 10
12.9936443299
 20
10.0379637613
 30
0.0
 10
12.9972997781
 20
10.0566072951
 30
0.0
 10
13.0007786201
 20
10.075651017
 30
0.0
 10
13.0052045085
 20
10.1017155942
 30
0.0
 10
13.0102394192
 20
10.1350383945
 30
0.0
 10
13.0154425476
 20
10.1757675218
 30
0.0
 10
13.0198105947
 20
10.2172205729
 30
0.0
 10
13.0233113887
 20
10.2590931947
 30
0.0
 10
13.0259191178
 20
10.301078137
 30
0.0
 10
13.0276147367
 20
10.3428673026
 30
0.0
 10
13.0283858496
 20
10.3841538528
 30
0.0
 10
13.0282529073
 20
10.4181063171
 30
0.0
 10
13.0276709455
 20
10.4447837269
 30
0.0
 10
13.0270047856
 20
10.464348389
 30
0.0
 10
13.0261074322
 20
10.4835641202
 30
0.0
 10
13.0249805267
 20
10.5023956561
 30
0.0
 10
13.0236261637
 20
10.5208084067
 30
0.0
 10
13.02204687
 20
10.5387685715
 30
0.0
 10
13.0202455828
 20
10.5562431848
 30
0.0
 10
13.0182256404
 20
10.5732001766
 30
0.0
 10
13.0159907912
 20
10.5896084415
 30
0.0
 10
13.013545198
 20
10.6054379025
 30
0.0
 10
13.0108934048
 20
10.6206595591
 30
0.0
 10
13.008040325
 20
10.635245543
 30
0.0
 10
13.0049912572
 20
10.6491691891
 30
0.0
 10
13.0017518681
 20
10.6624050904
 30
0.0
 10
12.9983281574
 20
10.6749291501
 30
0.0
 10
12.9947264362
 20
10.6867186072
 30
0.0
 10
12.9909533287
 20
10.6977522304
 30
0.0
 10
12.9870157479
 20
10.7080099742
 30
0.0
 10
12.9835472135
 20
10.7160264088
 30
0.0
 10
12.9806869255
 20
10.7220269604
 30
0.0
 10
12.9785413229
 20
10.7262457683
 30
0.0
 10
12.976360082
 20
10.7302572336
 30
0.0
 10
12.9741441196
 20
10.7340595371
 30
0.0
 10
12.9718944774
 20
10.7376509884
 30
0.0
 10
12.9696120959
 20
10.7410299471
 30
0.0
 10
12.9672979718
 20
10.744194895
 30
0.0
 10
12.9649531362
 20
10.7471444227
 30
0.0
 10
12.9625784883
 20
10.7498771691
 30
0.0
 10
12.9601751551
 20
10.7523918397
 30
0.0
 10
12.9577437565
 20
10.7546875111
 30
0.0
 10
12.9545264785
 20
10.7574037994
 30
0.0
 10
12.951984415
 20
10.7591912597
 30
0.0
 10
12.9502484955
 20
10.7602352478
 30
0.0
  0
SPLINE
  5
3A1
100
AcDbEntity
  8
0
100
AcDbSpline
 62
7
  6
CONTINUOUS
 70
0
 71
3
 72
82
 73
78
 74
0
 42
0.0000001
 43
0.0000001
 44
0.0000000001
 40
0.0
 40
0.0
 40
0.0
 40
0.0
 40
0.0028104035
 40
0.0056342314
 40
0.0084910398
 40
0.0113996623
 40
0.0143778412
 40
0.0174419726
 40
0.0238825885
 40
0.0272877133
 40
0.030829056
 40
0.034515488
 40
0.0383546107
 40
0.0423528274
 40
0.046515549
 40
0.050847211
 40
0.0553514523
 40
0.0600311785
 40
0.064888614
 40
0.069925454
 40
0.0751428194
 40
0.0805414107
 40
0.0861214942
 40
0.0978247434
 40
0.1102484458
 40
0.1233831824
 40
0.1372156448
 40
0.1517291677
 40
0.1669041492
 40
0.1827184011
 40
0.1991474241
 40
0.2161646382
 40
0.2337415803
 40
0.2518480692
 40
0.2704523719
 40
0.2895213457
 40
0.3090205676
 40
0.3289144566
 40
0.3491663855
 40
0.3697387957
 40
0.3905933111
 40
0.4116908437
 40
0.4544548935
 40
0.497708707
 40
0.5411244087
 40
0.584372537
 40
0.6271252706
 40
0.6482150711
 40
0.6690604924
 40
0.6896224674
 40
0.7098626461
 40
0.7297435072
 40
0.7492284596
 40
0.7682819551
 40
0.7868696091
 40
0.8049583215
 40
0.8225164194
 40
0.8395137846
 40
0.8559220117
 40
0.871714584
 40
0.8868670691
 40
0.9013573707
 40
0.9151659919
 40
0.9282763764
 40
0.9406753356
 40
0.9466052338
 40
0.9523541789
 40
0.9579217117
 40
0.9633077708
 40
0.9685126525
 40
0.9735370539
 40
0.9783821576
 40
0.9830496259
 40
0.9875418403
 40
0.9918618252
 40
0.9960131504
 40
1.0
 40
1.0
 40
1.0
 40
1.0
 10
11.2018424059
 20
10.8312652061
 30
0.0
 10
11.2018733958
 20
10.8323625244
 30
0.0
 10
11.2018395174
 20
10.8345663238
 30
0.0
 10
11.2014996643
 20
10.8378694603
 30
0.0
 10
11.2008712943
 20
10.8411692203
 30
0.0
 10
11.1999549831
 20
10.8444631753
 30
0.0
 10
11.1987515562
 20
10.8477496772
 30
0.0
 10
11.1967326031
 20
10.8521920705
 30
0.0
 10
11.1941529496
 20
10.8565456578
 30
0.0
 10
11.1910896294
 20
10.8607856249
 30
0.0
 10
11.1884680007
 20
10.8640099417
 30
0.0
 10
11.185566923
 20
10.8672170252
 30
0.0
 10
11.1823876448
 20
10.8704057826
 30
0.0
 10
11.1789319142
 20
10.8735746838
 30
0.0
 10
11.1752014039
 20
10.8767222059
 30
0.0
 10
11.1711980317
 20
10.879846895
 30
0.0
 10
11.1669237793
 20
10.8829472234
 30
0.0
 10
11.1623807773
 20
10.8860216649
 30
0.0
 10
11.1575713197
 20
10.8890687519
 30
0.0
 10
11.1524977833
 20
10.892086913
 30
0.0
 10
11.1471627425
 20
10.8950746942
 30
0.0
 10
11.1415688516
 20
10.898030594
 30
0.0
 10
11.1336425845
 20
10.9019902934
 30
0.0
 10
11.1230959782
 20
10.9068375462
 30
0.0
 10
11.1096493151
 20
10.9124149626
 30
0.0
 10
11.0952448629
 20
10.9178306303
 30
0.0
 10
11.0799116938
 20
10.9230735231
 30
0.0
 10
11.0636805599
 20
10.9281329634
 30
0.0
 10
11.0465842129
 20
10.9329986155
 30
0.0
 10
11.0286571976
 20
10.9376605259
 30
0.0
 10
11.0099357994
 20
10.9421091515
 30
0.0
 10
10.9904579521
 20
10.9463353815
 30
0.0
 10
10.9702631609
 20
10.9503305593
 30
0.0
 10
10.9493924155
 20
10.9540865098
 30
0.0
 10
10.9278880994
 20
10.9575955462
 30
0.0
 10
10.9057938962
 20
10.9608504878
 30
0.0
 10
10.8831546981
 20
10.9638446744
 30
0.0
 10
10.8600165165
 20
10.9665719773
 30
0.0
 10
10.8364263844
 20
10.9690268216
 30
0.0
 10
10.812432275
 20
10.9712041833
 30
0.0
 10
10.7880829357
 20
10.9730996425
 30
0.0
 10
10.7550620446
 20
10.9752553716
 30
0.0
 10
10.7132636643
 20
10.977212428
 30
0.0
 10
10.6627153723
 20
10.9783812909
 30
0.0
 10
10.611964316
 20
10.978371103
 30
0.0
 10
10.5614231387
 20
10.9771819257
 30
0.0
 10
10.5196352189
 20
10.9752080159
 30
0.0
 10
10.4866262185
 20
10.9730389192
 30
0.0
 10
10.4622883245
 20
10.9711336562
 30
0.0
 10
10.4383073617
 20
10.9689466295
 30
0.0
 10
10.4147320485
 20
10.9664822828
 30
0.0
 10
10.3916103239
 20
10.9637456645
 30
0.0
 10
10.3689891854
 20
10.9607423696
 30
0.0
 10
10.3469146107
 20
10.9574785409
 30
0.0
 10
10.3254314576
 20
10.9539608526
 30
0.0
 10
10.3045833658
 20
10.9501965035
 30
0.0
 10
10.2844126668
 20
10.9461932021
 30
0.0
 10
10.2649602954
 20
10.9419591454
 30
0.0
 10
10.246265705
 20
10.9375030021
 30
0.0
 10
10.2283667838
 20
10.9328338951
 30
0.0
 10
10.2112997563
 20
10.9279613775
 30
0.0
 10
10.1950991244
 20
10.9228954218
 30
0.0
 10
10.1797974867
 20
10.9176463773
 30
0.0
 10
10.1654258006
 20
10.9122249497
 30
0.0
 10
10.1540855731
 20
10.9075050953
 30
0.0
 10
10.1455099385
 20
10.9036423831
 30
0.0
 10
10.1394243329
 20
10.900752284
 30
0.0
 10
10.1335920245
 20
10.8978274298
 30
0.0
 10
10.1280159301
 20
10.8948692983
 30
0.0
 10
10.1226988571
 20
10.8918793757
 30
0.0
 10
10.1176434968
 20
10.8888591348
 30
0.0
 10
10.1128523686
 20
10.8858101525
 30
0.0
 10
10.1083278866
 20
10.8827338707
 30
0.0
 10
10.104072257
 20
10.8796318145
 30
0.0
 10
10.1000875871
 20
10.876505418
 30
0.0
 10
10.0963760753
 20
10.8733563841
 30
0.0
 10
10.0940387023
 20
10.8712002209
 30
0.0
 10
10.0929186209
 20
10.8701183053
 30
0.0
  0
SPLINE
  5
3A2
100
AcDbEntity
  8
0
100
AcDbSpline
 62
7
  6
CONTINUOUS
 70
0
 71
3
 72
11
 73
7
 74
0
 42
0.0000001
 43
0.0000001
 44
0.0000000001
 40
0.0
 40
0.0
 40
0.0
 40
0.0
 40
0.2759151423
 40
0.5331028583
 40
0.7735888711
 40
1.0
 40
1.0
 40
1.0
 40
1.0
 10
10.1016889283
 20
10.8483366874
 30
0.0
 10
10.0998666654
 20
10.8465765165
 30
0.0
 10
10.0964723605
 20
10.843040085
 30
0.0
 10
10.0920302179
 20
10.8374829445
 30
0.0
 10
10.0884337945
 20
10.8318755551
 30
0.0
 10
10.0865572291
 20
10.8280058247
 30
0.0
 10
10.085779339
 20
10.8260778591
 30
0.0
  0
SPLINE
  5
3A3
100
AcDbEntity
  8
0
100
AcDbSpline
 62
4
  6
CONTINUOUS
 70
0
 71
3
 72
330
 73
326
 74
0
 42
0.0000001
 43
0.0000001
 44
0.0000000001
 40
0.0
 40
0.0
 40
0.0
 40
0.0
 40
0.015625
 40
0.0234375
 40
0.03125
 40
0.0390625
 40
0.04296875
 40
0.046875
 40
0.05078125
 40
0.0546875
 40
0.056640625
 40
0.05859375
 40
0.060546875
 40
0.0615234375
 40
0.0620117188
 40
0.0625
 40
0.0629882812
 40
0.0634765625
 40
0.064453125
 40
0.06640625
 40
0.068359375
 40
0.0703125
 40
0.07421875
 40
0.078125
 40
0.08203125
 40
0.0859375
 40
0.09375
 40
0.1015625
 40
0.10546875
 40
0.109375
 40
0.11328125
 40
0.1171875
 40
0.119140625
 40
0.12109375
 40
0.123046875
 40
0.1240234375
 40
0.1245117188
 40
0.125
 40
0.1254882812
 40
0.1259765625
 40
0.126953125
 40
0.12890625
 40
0.130859375
 40
0.1328125
 40
0.13671875
 40
0.140625
 40
0.14453125
 40
0.1484375
 40
0.15625
 40
0.1640625
 40
0.16796875
 40
0.171875
 40
0.17578125
 40
0.1796875
 40
0.181640625
 40
0.18359375
 40
0.185546875
 40
0.1865234375
 40
0.1870117188
 40
0.1875
 40
0.1879882812
 40
0.1884765625
 40
0.189453125
 40
0.19140625
 40
0.193359375
 40
0.1953125
 40
0.19921875
 40
0.203125
 40
0.20703125
 40
0.2109375
 40
0.21875
 40
0.2265625
 40
0.23046875
 40
0.234375
 40
0.23828125
 40
0.2421875
 40
0.244140625
 40
0.24609375
 40
0.248046875
 40
0.2490234375
 40
0.2495117188
 40
0.25
 40
0.2504882812
 40
0.2509765625
 40
0.251953125
 40
0.25390625
 40
0.255859375
 40
0.2578125
 40
0.26171875
 40
0.265625
 40
0.26953125
 40
0.2734375
 40
0.28125
 40
0.2890625
 40
0.29296875
 40
0.296875
 40
0.30078125
 40
0.3046875
 40
0.306640625
 40
0.30859375
 40
0.310546875
 40
0.3115234375
 40
0.3120117188
 40
0.3125
 40
0.3129882812
 40
0.3134765625
 40
0.314453125
 40
0.31640625
 40
0.318359375
 40
0.3203125
 40
0.32421875
 40
0.328125
 40
0.33203125
 40
0.3359375
 40
0.34375
 40
0.3515625
 40
0.35546875
 40
0.359375
 40
0.36328125
 40
0.3671875
 40
0.369140625
 40
0.37109375
 40
0.373046875
 40
0.3740234375
 40
0.3745117188
 40
0.375
 40
0.3754882812
 40
0.3759765625
 40
0.376953125
 40
0.37890625
 40
0.380859375
 40
0.3828125
 40
0.38671875
 40
0.390625
 40
0.39453125
 40
0.3984375
 40
0.40625
 40
0.4140625
 40
0.41796875
 40
0.421875
 40
0.42578125
 40
0.4296875
 40
0.431640625
 40
0.43359375
 40
0.435546875
 40
0.4365234375
 40
0.4370117188
 40
0.4375
 40
0.4379882812
 40
0.4384765625
 40
0.439453125
 40
0.44140625
 40
0.443359375
 40
0.4453125
 40
0.44921875
 40
0.453125
 40
0.45703125
 40
0.4609375
 40
0.46875
 40
0.4765625
 40
0.48046875
 40
0.484375
 40
0.48828125
 40
0.4921875
 40
0.494140625
 40
0.49609375
 40
0.498046875
 40
0.4990234375
 40
0.4995117188
 40
0.5
 40
0.5004882812
 40
0.5009765625
 40
0.501953125
 40
0.50390625
 40
0.505859375
 40
0.5078125
 40
0.51171875
 40
0.515625
 40
0.51953125
 40
0.5234375
 40
0.53125
 40
0.5390625
 40
0.546875
 40
0.55078125
 40
0.5546875
 40
0.556640625
 40
0.55859375
 40
0.560546875
 40
0.5615234375
 40
0.5620117188
 40
0.5625
 40
0.5629882812
 40
0.5634765625
 40
0.564453125
 40
0.56640625
 40
0.568359375
 40
0.5703125
 40
0.57421875
 40
0.578125
 40
0.5859375
 40
0.59375
 40
0.6015625
 40
0.609375
 40
0.61328125
 40
0.6171875
 40
0.619140625
 40
0.62109375
 40
0.623046875
 40
0.6240234375
 40
0.6245117188
 40
0.625
 40
0.6254882812
 40
0.6259765625
 40
0.626953125
 40
0.62890625
 40
0.630859375
 40
0.6328125
 40
0.63671875
 40
0.640625
 40
0.6484375
 40
0.65625
 40
0.6640625
 40
0.671875
 40
0.67578125
 40
0.6796875
 40
0.681640625
 40
0.68359375
 40
0.685546875
 40
0.6865234375
 40
0.6870117188
 40
0.6875
 40
0.6879882812
 40
0.6884765625
 40
0.689453125
 40
0.69140625
 40
0.693359375
 40
0.6953125
 40
0.69921875
 40
0.703125
 40
0.7109375
 40
0.71875
 40
0.7265625
 40
0.734375
 40
0.73828125
 40
0.7421875
 40
0.744140625
 40
0.74609375
 40
0.748046875
 40
0.7490234375
 40
0.7495117188
 40
0.75
 40
0.7504882812
 40
0.7509765625
 40
0.751953125
 40
0.75390625
 40
0.755859375
 40
0.7578125
 40
0.76171875
 40
0.765625
 40
0.7734375
 40
0.78125
 40
0.7890625
 40
0.796875
 40
0.80078125
 40
0.8046875
 40
0.806640625
 40
0.80859375
 40
0.810546875
 40
0.8115234375
 40
0.8120117188
 40
0.8125
 40
0.8129882812
 40
0.8134765625
 40
0.814453125
 40
0.81640625
 40
0.818359375
 40
0.8203125
 40
0.82421875
 40
0.828125
 40
0.8359375
 40
0.84375
 40
0.8515625
 40
0.859375
 40
0.86328125
 40
0.8671875
 40
0.869140625
 40
0.87109375
 40
0.873046875
 40
0.8740234375
 40
0.8745117188
 40
0.875
 40
0.8754882812
 40
0.8759765625
 40
0.876953125
 40
0.87890625
 40
0.880859375
 40
0.8828125
 40
0.88671875
 40
0.890625
 40
0.8984375
 40
0.90625
 40
0.9140625
 40
0.921875
 40
0.92578125
 40
0.9296875
 40
0.931640625
 40
0.93359375
 40
0.935546875
 40
0.9365234375
 40
0.9370117188
 40
0.9375
 40
0.9379882812
 40
0.9384765625
 40
0.939453125
 40
0.94140625
 40
0.943359375
 40
0.9453125
 40
0.94921875
 40
0.953125
 40
0.95703125
 40
0.9609375
 40
0.96875
 40
0.9765625
 40
0.984375
 40
1.0
 40
1.0
 40
1.0
 40
1.0
 10
10.0134401805
 20
8.5733163555
 30
0.0
 10
10.0165733674
 20
8.5734062799
 30
0.0
 10
10.0212731478
 20
8.5735411666
 30
0.0
 10
10.0275395216
 20
8.5737210152
 30
0.0
 10
10.0322393019
 20
8.5738559024
 30
0.0
 10
10.0361557859
 20
8.5739683062
 30
0.0
 10
10.0392889721
 20
8.5740582341
 30
0.0
 10
10.0416388644
 20
8.574125667
 30
0.0
 10
10.0439887469
 20
8.5741931493
 30
0.0
 10
10.0459470125
 20
8.5742492307
 30
0.0
 10
10.0475135576
 20
8.5742944405
 30
0.0
 10
10.0486886504
 20
8.574327406
 30
0.0
 10
10.0496673092
 20
8.5743578731
 30
0.0
 10
10.0503535187
 20
8.5743733208
 30
0.0
 10
10.0507438454
 20
8.5743913281
 30
0.0
 10
10.0510416415
 20
8.5743789731
 30
0.0
 10
10.0513201296
 20
8.57446547
 30
0.0
 10
10.0516981819
 20
8.5745463186
 30
0.0
 10
10.0523566356
 20
8.5747038687
 30
0.0
 10
10.0532989241
 20
8.5749205412
 30
0.0
 10
10.0544289683
 20
8.5751841433
 30
0.0
 10
10.055935939
 20
8.575534357
 30
0.0
 10
10.0578195683
 20
8.575972555
 30
0.0
 10
10.0600799595
 20
8.5764982079
 30
0.0
 10
10.0623403411
 20
8.5770239102
 30
0.0
 10
10.0653541866
 20
8.5777248292
 30
0.0
 10
10.0691214921
 20
8.5786009846
 30
0.0
 10
10.0728887988
 20
8.5794771357
 30
0.0
 10
10.0759026423
 20
8.5801780615
 30
0.0
 10
10.0781630299
 20
8.5807037435
 30
0.0
 10
10.0804233985
 20
8.5812294727
 30
0.0
 10
10.0823070981
 20
8.5816674332
 30
0.0
 10
10.0838139256
 20
8.5820181313
 30
0.0
 10
10.0849444071
 20
8.5822802541
 30
0.0
 10
10.0858853271
 20
8.5825015548
 30
0.0
 10
10.086546224
 20
8.5826508428
 30
0.0
 10
10.0869203615
 20
8.5827449293
 30
0.0
 10
10.0872108746
 20
8.5827907636
 30
0.0
 10
10.0874635069
 20
8.5829311304
 30
0.0
 10
10.0878135633
 20
8.5830853121
 30
0.0
 10
10.0884200057
 20
8.5833704934
 30
0.0
 10
10.0892895705
 20
8.5837698631
 30
0.0
 10
10.0903316705
 20
8.5842525447
 30
0.0
 10
10.0917216186
 20
8.5848949193
 30
0.0
 10
10.0934588885
 20
8.5856982997
 30
0.0
 10
10.0955436831
 20
8.5866621794
 30
0.0
 10
10.0976284588
 20
8.5876261064
 30
0.0
 10
10.1004081664
 20
8.5889113259
 30
0.0
 10
10.1038827984
 20
8.5905178564
 30
0.0
 10
10.1073574323
 20
8.5921243828
 30
0.0
 10
10.1101371368
 20
8.5934096088
 30
0.0
 10
10.1122219216
 20
8.5943735161
 30
0.0
 10
10.1143066822
 20
8.5953374697
 30
0.0
 10
10.1160440582
 20
8.5961406202
 30
0.0
 10
10.1174337898
 20
8.5967834635
 30
0.0
 10
10.118476551
 20
8.5972647138
 30
0.0
 10
10.1193440471
 20
8.5976685619
 30
0.0
 10
10.1199541824
 20
8.5979457484
 30
0.0
 10
10.1202983218
 20
8.5981127398
 30
0.0
 10
10.1205691293
 20
8.5982137596
 30
0.0
 10
10.1207913794
 20
8.5984073746
 30
0.0
 10
10.1211046501
 20
8.5986332298
 30
0.0
 10
10.1216449825
 20
8.5990435246
 30
0.0
 10
10.1224210117
 20
8.5996217927
 30
0.0
 10
10.1233504807
 20
8.600319082
 30
0.0
 10
10.1245903896
 20
8.6012476246
 30
0.0
 10
10.126140064
 20
8.6024087066
 30
0.0
 10
10.1279997641
 20
8.6038018319
 30
0.0
 10
10.1298594399
 20
8.6051950035
 30
0.0
 10
10.1323390162
 20
8.6070525495
 30
0.0
 10
10.1354384832
 20
8.6093744879
 30
0.0
 10
10.1385379529
 20
8.6116964227
 30
0.0
 10
10.1410175247
 20
8.6135539743
 30
0.0
 10
10.1428772138
 20
8.6149471288
 30
0.0
 10
10.144736864
 20
8.6163403185
 30
0.0
 10
10.1462866938
 20
8.6175012
 30
0.0
 10
10.147526286
 20
8.6184301515
 30
0.0
 10
10.1484567221
 20
8.6191261921
 30
0.0
 10
10.1492297255
 20
8.6197083668
 30
0.0
 10
10.1497754593
 20
8.6201116878
 30
0.0
 10
10.1500800757
 20
8.6203487168
 30
0.0
 10
10.1503289093
 20
8.6205080095
 30
0.0
 10
10.1504998732
 20
8.6207379385
 30
0.0
 10
10.150754987
 20
8.6210198718
 30
0.0
 10
10.1511887809
 20
8.6215247347
 30
0.0
 10
10.1518151027
 20
8.6222399657
 30
0.0
 10
10.1525638569
 20
8.6231008119
 30
0.0
 10
10.1535631851
 20
8.6242477094
 30
0.0
 10
10.1548120059
 20
8.6256816393
 30
0.0
 10
10.1563107363
 20
8.6274022231
 30
0.0
 10
10.1578094278
 20
8.6291228422
 30
0.0
 10
10.1598076968
 20
8.6314169887
 30
0.0
 10
10.1623055279
 20
8.6342846763
 30
0.0
 10
10.1648033625
 20
8.6371523611
 30
0.0
 10
10.1668016259
 20
8.6394465122
 30
0.0
 10
10.1683003343
 20
8.6411671175
 30
0.0
 10
10.1697990014
 20
8.6428877533
 30
0.0
 10
10.1710480193
 20
8.6443215214
 30
0.0
 10
10.1720469455
 20
8.6454687487
 30
0.0
 10
10.1727969272
 20
8.6463285877
 30
0.0
 10
10.1734194085
 20
8.6470469698
 30
0.0
 10
10.1738600584
 20
8.6475462076
 30
0.0
 10
10.1741041871
 20
8.6478371538
 30
0.0
 10
10.1743088937
 20
8.6480393981
 30
0.0
 10
10.1744309955
 20
8.6483026701
 30
0.0
 10
10.1746226113
 20
8.6486324123
 30
0.0
 10
10.1749445143
 20
8.6492193793
 30
0.0
 10
10.1754113944
 20
8.6500527183
 30
0.0
 10
10.1759686463
 20
8.6510549446
 30
0.0
 10
10.1767126982
 20
8.652390471
 30
0.0
 10
10.177642403
 20
8.654060145
 30
0.0
 10
10.1787582032
 20
8.6560636398
 30
0.0
 10
10.179873962
 20
8.6580671651
 30
0.0
 10
10.1813616549
 20
8.6607385215
 30
0.0
 10
10.1832212656
 20
8.6640777209
 30
0.0
 10
10.1850808801
 20
8.667416918
 30
0.0
 10
10.1865685669
 20
8.6700882781
 30
0.0
 10
10.1876843441
 20
8.6720917923
 30
0.0
 10
10.1888000754
 20
8.6740953288
 30
0.0
 10
10.1897299943
 20
8.6757648731
 30
0.0
 10
10.1904736095
 20
8.677100664
 30
0.0
 10
10.1910321952
 20
8.6781020825
 30
0.0
 10
10.191494902
 20
8.6789379486
 30
0.0
 10
10.1918242551
 20
8.6795204043
 30
0.0
 10
10.1920039341
 20
8.6798573748
 30
0.0
 10
10.1921627019
 20
8.6800984439
 30
0.0
 10
10.1922296971
 20
8.6803840788
 30
0.0
 10
10.1923510353
 20
8.6807493802
 30
0.0
 10
10.1925484625
 20
8.6813959004
 30
0.0
 10
10.1928382989
 20
8.6823157141
 30
0.0
 10
10.1931827649
 20
8.6834211113
 30
0.0
 10
10.1936432188
 20
8.6848944081
 30
0.0
 10
10.1942183862
 20
8.6867362234
 30
0.0
 10
10.1949087585
 20
8.6889463185
 30
0.0
 10
10.195599085
 20
8.6911564358
 30
0.0
 10
10.1965195363
 20
8.6941032512
 30
0.0
 10
10.1976700944
 20
8.6977867732
 30
0.0
 10
10.1988206567
 20
8.7014702935
 30
0.0
 10
10.1997411014
 20
8.7044171116
 30
0.0
 10
10.2004314478
 20
8.7066272206
 30
0.0
 10
10.2011217454
 20
8.7088373472
 30
0.0
 10
10.2016971452
 20
8.7106790642
 30
0.0
 10
10.2021571252
 20
8.7121525616
 30
0.0
 10
10.2025030385
 20
8.7132573462
 30
0.0
 10
10.2027883468
 20
8.7141790765
 30
0.0
 10
10.2029938574
 20
8.7148221753
 30
0.0
 10
10.203102244
 20
8.7151929586
 30
0.0
 10
10.2032090222
 20
8.715461755
 30
0.0
 10
10.2032183715
 20
8.7157660664
 30
0.0
 10
10.2032648215
 20
8.7161594268
 30
0.0
 10
10.2033302751
 20
8.7168535794
 30
0.0
 10
10.2034320583
 20
8.7178422084
 30
0.0
 10
10.2035506549
 20
8.7190298548
 30
0.0
 10
10.2037100214
 20
8.7206129322
 30
0.0
 10
10.2039088048
 20
8.7225919337
 30
0.0
 10
10.204147527
 20
8.7249666692
 30
0.0
 10
10.2043862004
 20
8.7273414224
 30
0.0
 10
10.2047044488
 20
8.7305077539
 30
0.0
 10
10.2051022528
 20
8.7344656703
 30
0.0
 10
10.2055000611
 20
8.738423586
 30
0.0
 10
10.2058183025
 20
8.7415899186
 30
0.0
 10
10.2060569969
 20
8.7439646683
 30
0.0
 10
10.2062956406
 20
8.7463394171
 30
0.0
 10
10.206494668
 20
8.7483183773
 30
0.0
 10
10.206653537
 20
8.7499015389
 30
0.0
 10
10.2067736529
 20
8.7510889283
 30
0.0
 10
10.2068706827
 20
8.7520783614
 30
0.0
 10
10.206944622
 20
8.7527710785
 30
0.0
 10
10.2069774757
 20
8.7531667389
 30
0.0
 10
10.2070285884
 20
8.7534639854
 30
0.0
 10
10.2069785101
 20
8.7537593163
 30
0.0
 10
10.2069470355
 20
8.7541537589
 30
0.0
 10
10.2068755097
 20
8.7548437222
 30
0.0
 10
10.2067819278
 20
8.7558295469
 30
0.0
 10
10.2066659494
 20
8.7570124667
 30
0.0
 10
10.206512597
 20
8.7585897176
 30
0.0
 10
10.2063204655
 20
8.7605612728
 30
0.0
 10
10.2060900967
 20
8.7629271427
 30
0.0
 10
10.2058596773
 20
8.7652930116
 30
0.0
 10
10.2055524689
 20
8.7684475037
 30
0.0
 10
10.2051684544
 20
8.7723906191
 30
0.0
 10
10.20470763
 20
8.7771223563
 30
0.0
 10
10.2043236383
 20
8.7810654744
 30
0.0
 10
10.2040163799
 20
8.7842199605
 30
0.0
 10
10.2038244915
 20
8.7861915334
 30
0.0
 10
10.2036706416
 20
8.787768748
 30
0.0
 10
10.2035561831
 20
8.7889517785
 30
0.0
 10
10.2034578457
 20
8.7899372571
 30
0.0
 10
10.2033948092
 20
8.7906278382
 30
0.0
 10
10.2033497327
 20
8.7910212909
 30
0.0
 10
10.2033414354
 20
8.7913196625
 30
0.0
 10
10.2032356253
 20
8.7916054885
 30
0.0
 10
10.2031285588
 20
8.7919909659
 30
0.0
 10
10.2029253447
 20
8.7926635125
 30
0.0
 10
10.2026433243
 20
8.7936253593
 30
0.0
 10
10.2023013534
 20
8.7947791192
 30
0.0
 10
10.2018466308
 20
8.796317625
 30
0.0
 10
10.2012778035
 20
8.7982407028
 30
0.0
 10
10.2003679169
 20
8.8013176577
 30
0.0
 10
10.1992304768
 20
8.8051638407
 30
0.0
 10
10.1978655859
 20
8.8097792657
 30
0.0
 10
10.1965006769
 20
8.8143946864
 30
0.0
 10
10.1953632823
 20
8.81824088
 30
0.0
 10
10.1944533047
 20
8.8213178138
 30
0.0
 10
10.1938847085
 20
8.8232409452
 30
0.0
 10
10.1934295117
 20
8.8247793408
 30
0.0
 10
10.1930889897
 20
8.8259334376
 30
0.0
 10
10.192802436
 20
8.8268942301
 30
0.0
 10
10.1926073145
 20
8.8275686588
 30
0.0
 10
10.1924872816
 20
8.8279511206
 30
0.0
 10
10.1924213001
 20
8.8282462095
 30
0.0
 10
10.1922634132
 20
8.8285097914
 30
0.0
 10
10.192084955
 20
8.8288722239
 30
0.0
 10
10.1917577168
 20
8.8295013603
 30
0.0
 10
10.1912980426
 20
8.8304028036
 30
0.0
 10
10.1907430911
 20
8.8314833897
 30
0.0
 10
10.1900043232
 20
8.8329245714
 30
0.0
 10
10.1890804635
 20
8.8347259115
 30
0.0
 10
10.1876025116
 20
8.8376081323
 30
0.0
 10
10.1857549945
 20
8.8412108817
 30
0.0
 10
10.1835380092
 20
8.8455341934
 30
0.0
 10
10.1813210065
 20
8.849857498
 30
0.0
 10
10.1794735329
 20
8.8534602652
 30
0.0
 10
10.177995494
 20
8.8563424505
 30
0.0
 10
10.1770718553
 20
8.8581438807
 30
0.0
 10
10.1763326339
 20
8.8595848775
 30
0.0
 10
10.1757790679
 20
8.8606660287
 30
0.0
 10
10.1753150587
 20
8.861565704
 30
0.0
 10
10.1749955592
 20
8.8621979966
 30
0.0
 10
10.1748047017
 20
8.862555372
 30
0.0
 10
10.1746849013
 20
8.8628344877
 30
0.0
 10
10.1744758732
 20
8.8630712339
 30
0.0
 10
10.1742282926
 20
8.8634016744
 30
0.0
 10
10.1737805256
 20
8.8639730595
 30
0.0
 10
10.1731484397
 20
8.864792924
 30
0.0
 10
10.1723866916
 20
8.8657752204
 30
0.0
 10
10.1713721608
 20
8.8670854872
 30
0.0
 10
10.1701036093
 20
8.8687231364
 30
0.0
 10
10.1680741439
 20
8.8713434782
 30
0.0
 10
10.1655372373
 20
8.8746188697
 30
0.0
 10
10.162492983
 20
8.8785493565
 30
0.0
 10
10.1594487139
 20
8.8824798322
 30
0.0
 10
10.1569118443
 20
8.8857552515
 30
0.0
 10
10.1548823047
 20
8.8883755377
 30
0.0
 10
10.1536139417
 20
8.8900133281
 30
0.0
 10
10.1525990242
 20
8.8913233051
 30
0.0
 10
10.1518384576
 20
8.8923064867
 30
0.0
 10
10.151202675
 20
8.8931235818
 30
0.0
 10
10.1507615072
 20
8.8936999107
 30
0.0
 10
10.150503353
 20
8.8940224301
 30
0.0
 10
10.1503268037
 20
8.8942835075
 30
0.0
 10
10.1500850183
 20
8.8944712393
 30
0.0
 10
10.1497853928
 20
8.8947471321
 30
0.0
 10
10.1492504462
 20
8.8952180247
 30
0.0
 10
10.1484917796
 20
8.8958969602
 30
0.0
 10
10.1475790071
 20
8.8967090154
 30
0.0
 10
10.1463628059
 20
8.8977926874
 30
0.0
 10
10.1448422706
 20
8.8991469583
 30
0.0
 10
10.1424095727
 20
8.9013139701
 30
0.0
 10
10.1393686456
 20
8.9040226732
 30
0.0
 10
10.1357195579
 20
8.9072731453
 30
0.0
 10
10.1320704587
 20
8.9105236027
 30
0.0
 10
10.1290295605
 20
8.9132323424
 30
0.0
 10
10.1265968048
 20
8.9153992812
 30
0.0
 10
10.1250764165
 20
8.9167537376
 30
0.0
 10
10.1238599135
 20
8.9178370287
 30
0.0
 10
10.1229480631
 20
8.9186502475
 30
0.0
 10
10.1221865118
 20
8.9193255425
 30
0.0
 10
10.1216567148
 20
8.919802934
 30
0.0
 10
10.1213488382
 20
8.920068414
 30
0.0
 10
10.1211323975
 20
8.9202881308
 30
0.0
 10
10.1208606577
 20
8.9204290778
 30
0.0
 10
10.1205176268
 20
8.9206444829
 30
0.0
 10
10.1199083358
 20
8.9210086404
 30
0.0
 10
10.1190426186
 20
8.9215355582
 30
0.0
 10
10.1180017468
 20
8.9221649948
 30
0.0
 10
10.1166146201
 20
8.9230052442
 30
0.0
 10
10.1148804713
 20
8.9240552133
 30
0.0
 10
10.1121059677
 20
8.9257353555
 30
0.0
 10
10.1086377918
 20
8.927835467
 30
0.0
 10
10.1044760015
 20
8.9303556312
 30
0.0
 10
10.1003142022
 20
8.9328757794
 30
0.0
 10
10.0968460488
 20
8.9349759312
 30
0.0
 10
10.0940715002
 20
8.9366559928
 30
0.0
 10
10.0923374655
 20
8.9377061667
 30
0.0
 10
10.0909501048
 20
8.9385459957
 30
0.0
 10
10.0899099481
 20
8.9391767166
 30
0.0
 10
10.0890419932
 20
8.9396996162
 30
0.0
 10
10.0884366968
 20
8.9400709467
 30
0.0
 10
10.0880872655
 20
8.9402748589
 30
0.0
 10
10.0878351858
 20
8.9404511085
 30
0.0
 10
10.0875449049
 20
8.9405382347
 30
0.0
 10
10.0871711886
 20
8.9406854902
 30
0.0
 10
10.0865109768
 20
8.9409287033
 30
0.0
 10
10.0855710629
 20
8.9412837229
 30
0.0
 10
10.0844417769
 20
8.9417065052
 30
0.0
 10
10.0829365474
 20
8.9422713471
 30
0.0
 10
10.0810548445
 20
8.9429770118
 30
0.0
 10
10.0780442126
 20
8.944106292
 30
0.0
 10
10.0742808908
 20
8.9455178173
 30
0.0
 10
10.069764919
 20
8.9472116822
 30
0.0
 10
10.0652489407
 20
8.9489055293
 30
0.0
 10
10.061485635
 20
8.9503170989
 30
0.0
 10
10.058474971
 20
8.9514462906
 30
0.0
 10
10.0565933497
 20
8.9521521804
 30
0.0
 10
10.0550879526
 20
8.9527165601
 30
0.0
 10
10.0539591788
 20
8.9531407542
 30
0.0
 10
10.0530176623
 20
8.9534913569
 30
0.0
 10
10.0523603112
 20
8.9537424549
 30
0.0
 10
10.0519820114
 20
8.9538770767
 30
0.0
 10
10.0517058099
 20
8.9540030095
 30
0.0
 10
10.05140085
 20
8.9540335079
 30
0.0
 10
10.0510042681
 20
8.9541074609
 30
0.0
 10
10.0503055759
 20
8.9542213689
 30
0.0
 10
10.0493098878
 20
8.9543922034
 30
0.0
 10
10.0481140161
 20
8.954593734
 30
0.0
 10
10.046519886
 20
8.9548636538
 30
0.0
 10
10.0445270979
 20
8.9552006375
 30
0.0
 10
10.0421358059
 20
8.9556051963
 30
0.0
 10
10.0397444995
 20
8.9560097074
 30
0.0
 10
10.0365560961
 20
8.9565490723
 30
0.0
 10
10.0325705901
 20
8.9572232726
 30
0.0
 10
10.0277879836
 20
8.9580323154
 30
0.0
 10
10.0214111746
 20
8.9591110383
 30
0.0
 10
10.016628568
 20
8.9599200806
 30
0.0
 10
10.0134401636
 20
8.9604594421
 30
0.0
  0
SPLINE
  5
3A4
100
AcDbEntity
  8
0
100
AcDbSpline
 62
4
  6
CONTINUOUS
 70
0
 71
3
 72
330
 73
326
 74
0
 42
0.0000001
 43
0.0000001
 44
0.0000000001
 40
0.0
 40
0.0
 40
0.0
 40
0.0
 40
0.015625
 40
0.0234375
 40
0.03125
 40
0.0390625
 40
0.04296875
 40
0.046875
 40
0.05078125
 40
0.0546875
 40
0.056640625
 40
0.05859375
 40
0.060546875
 40
0.0615234375
 40
0.0620117188
 40
0.0625
 40
0.0629882812
 40
0.0634765625
 40
0.064453125
 40
0.06640625
 40
0.068359375
 40
0.0703125
 40
0.07421875
 40
0.078125
 40
0.08203125
 40
0.0859375
 40
0.09375
 40
0.1015625
 40
0.10546875
 40
0.109375
 40
0.11328125
 40
0.1171875
 40
0.119140625
 40
0.12109375
 40
0.123046875
 40
0.1240234375
 40
0.1245117188
 40
0.125
 40
0.1254882812
 40
0.1259765625
 40
0.126953125
 40
0.12890625
 40
0.130859375
 40
0.1328125
 40
0.13671875
 40
0.140625
 40
0.14453125
 40
0.1484375
 40
0.15625
 40
0.1640625
 40
0.16796875
 40
0.171875
 40
0.17578125
 40
0.1796875
 40
0.181640625
 40
0.18359375
 40
0.185546875
 40
0.1865234375
 40
0.1870117188
 40
0.1875
 40
0.1879882812
 40
0.1884765625
 40
0.189453125
 40
0.19140625
 40
0.193359375
 40
0.1953125
 40
0.19921875
 40
0.203125
 40
0.20703125
 40
0.2109375
 40
0.21875
 40
0.2265625
 40
0.23046875
 40
0.234375
 40
0.23828125
 40
0.2421875
 40
0.244140625
 40
0.24609375
 40
0.248046875
 40
0.2490234375
 40
0.2495117188
 40
0.25
 40
0.2504882812
 40
0.2509765625
 40
0.251953125
 40
0.25390625
 40
0.255859375
 40
0.2578125
 40
0.26171875
 40
0.265625
 40
0.26953125
 40
0.2734375
 40
0.28125
 40
0.2890625
 40
0.29296875
 40
0.296875
 40
0.30078125
 40
0.3046875
 40
0.306640625
 40
0.30859375
 40
0.310546875
 40
0.3115234375
 40
0.3120117188
 40
0.3125
 40
0.3129882812
 40
0.3134765625
 40
0.314453125
 40
0.31640625
 40
0.318359375
 40
0.3203125
 40
0.32421875
 40
0.328125
 40
0.33203125
 40
0.3359375
 40
0.34375
 40
0.3515625
 40
0.35546875
 40
0.359375
 40
0.36328125
 40
0.3671875
 40
0.369140625
 40
0.37109375
 40
0.373046875
 40
0.3740234375
 40
0.3745117188
 40
0.375
 40
0.3754882812
 40
0.3759765625
 40
0.376953125
 40
0.37890625
 40
0.380859375
 40
0.3828125
 40
0.38671875
 40
0.390625
 40
0.39453125
 40
0.3984375
 40
0.40625
 40
0.4140625
 40
0.41796875
 40
0.421875
 40
0.42578125
 40
0.4296875
 40
0.431640625
 40
0.43359375
 40
0.435546875
 40
0.4365234375
 40
0.4370117188
 40
0.4375
 40
0.4379882812
 40
0.4384765625
 40
0.439453125
 40
0.44140625
 40
0.443359375
 40
0.4453125
 40
0.44921875
 40
0.453125
 40
0.45703125
 40
0.4609375
 40
0.46875
 40
0.4765625
 40
0.48046875
 40
0.484375
 40
0.48828125
 40
0.4921875
 40
0.494140625
 40
0.49609375
 40
0.498046875
 40
0.4990234375
 40
0.4995117188
 40
0.5
 40
0.5004882812
 40
0.5009765625
 40
0.501953125
 40
0.50390625
 40
0.505859375
 40
0.5078125
 40
0.51171875
 40
0.515625
 40
0.51953125
 40
0.5234375
 40
0.53125
 40
0.5390625
 40
0.546875
 40
0.55078125
 40
0.5546875
 40
0.556640625
 40
0.55859375
 40
0.560546875
 40
0.5615234375
 40
0.5620117188
 40
0.5625
 40
0.5629882812
 40
0.5634765625
 40
0.564453125
 40
0.56640625
 40
0.568359375
 40
0.5703125
 40
0.57421875
 40
0.578125
 40
0.5859375
 40
0.59375
 40
0.6015625
 40
0.609375
 40
0.61328125
 40
0.6171875
 40
0.619140625
 40
0.62109375
 40
0.623046875
 40
0.6240234375
 40
0.6245117188
 40
0.625
 40
0.6254882812
 40
0.6259765625
 40
0.626953125
 40
0.62890625
 40
0.630859375
 40
0.6328125
 40
0.63671875
 40
0.640625
 40
0.6484375
 40
0.65625
 40
0.6640625
 40
0.671875
 40
0.67578125
 40
0.6796875
 40
0.681640625
 40
0.68359375
 40
0.685546875
 40
0.6865234375
 40
0.6870117188
 40
0.6875
 40
0.6879882812
 40
0.6884765625
 40
0.689453125
 40
0.69140625
 40
0.693359375
 40
0.6953125
 40
0.69921875
 40
0.703125
 40
0.7109375
 40
0.71875
 40
0.7265625
 40
0.734375
 40
0.73828125
 40
0.7421875
 40
0.744140625
 40
0.74609375
 40
0.748046875
 40
0.7490234375
 40
0.7495117188
 40
0.75
 40
0.7504882812
 40
0.7509765625
 40
0.751953125
 40
0.75390625
 40
0.755859375
 40
0.7578125
 40
0.76171875
 40
0.765625
 40
0.7734375
 40
0.78125
 40
0.7890625
 40
0.796875
 40
0.80078125
 40
0.8046875
 40
0.806640625
 40
0.80859375
 40
0.810546875
 40
0.8115234375
 40
0.8120117188
 40
0.8125
 40
0.8129882812
 40
0.8134765625
 40
0.814453125
 40
0.81640625
 40
0.818359375
 40
0.8203125
 40
0.82421875
 40
0.828125
 40
0.8359375
 40
0.84375
 40
0.8515625
 40
0.859375
 40
0.86328125
 40
0.8671875
 40
0.869140625
 40
0.87109375
 40
0.873046875
 40
0.8740234375
 40
0.8745117188
 40
0.875
 40
0.8754882812
 40
0.8759765625
 40
0.876953125
 40
0.87890625
 40
0.880859375
 40
0.8828125
 40
0.88671875
 40
0.890625
 40
0.8984375
 40
0.90625
 40
0.9140625
 40
0.921875
 40
0.92578125
 40
0.9296875
 40
0.931640625
 40
0.93359375
 40
0.935546875
 40
0.9365234375
 40
0.9370117188
 40
0.9375
 40
0.9379882812
 40
0.9384765625
 40
0.939453125
 40
0.94140625
 40
0.943359375
 40
0.9453125
 40
0.94921875
 40
0.953125
 40
0.95703125
 40
0.9609375
 40
0.96875
 40
0.9765625
 40
0.984375
 40
1.0
 40
1.0
 40
1.0
 40
1.0
 10
10.0134401805
 20
8.960459441
 30
0.0
 10
10.0103069936
 20
8.9603695166
 30
0.0
 10
10.0056072132
 20
8.9602346299
 30
0.0
 10
9.9993408393
 20
8.9600547812
 30
0.0
 10
9.9946410591
 20
8.9599198941
 30
0.0
 10
9.9907245751
 20
8.9598074902
 30
0.0
 10
9.9875913888
 20
8.9597175624
 30
0.0
 10
9.9852414966
 20
8.9596501295
 30
0.0
 10
9.9828916141
 20
8.9595826472
 30
0.0
 10
9.9809333485
 20
8.9595265658
 30
0.0
 10
9.9793668034
 20
8.959481356
 30
0.0
 10
9.9781917106
 20
8.9594483905
 30
0.0
 10
9.9772130518
 20
8.9594179234
 30
0.0
 10
9.9765268423
 20
8.9594024757
 30
0.0
 10
9.9761365156
 20
8.9593844683
 30
0.0
 10
9.9758387195
 20
8.9593968233
 30
0.0
 10
9.9755602314
 20
8.9593103264
 30
0.0
 10
9.9751821791
 20
8.9592294779
 30
0.0
 10
9.9745237254
 20
8.9590719278
 30
0.0
 10
9.9735814368
 20
8.9588552553
 30
0.0
 10
9.9724513927
 20
8.9585916532
 30
0.0
 10
9.970944422
 20
8.9582414395
 30
0.0
 10
9.9690607927
 20
8.9578032415
 30
0.0
 10
9.9668004015
 20
8.9572775886
 30
0.0
 10
9.9645400199
 20
8.9567518863
 30
0.0
 10
9.9615261744
 20
8.9560509672
 30
0.0
 10
9.9577588689
 20
8.9551748119
 30
0.0
 10
9.9539915622
 20
8.9542986608
 30
0.0
 10
9.9509777187
 20
8.9535977349
 30
0.0
 10
9.9487173311
 20
8.953072053
 30
0.0
 10
9.9464569625
 20
8.9525463237
 30
0.0
 10
9.9445732629
 20
8.9521083633
 30
0.0
 10
9.9430664354
 20
8.9517576652
 30
0.0
 10
9.9419359538
 20
8.9514955424
 30
0.0
 10
9.9409950339
 20
8.9512742417
 30
0.0
 10
9.940334137
 20
8.9511249536
 30
0.0
 10
9.9399599995
 20
8.9510308672
 30
0.0
 10
9.9396694864
 20
8.9509850329
 30
0.0
 10
9.939416854
 20
8.9508446661
 30
0.0
 10
9.9390667977
 20
8.9506904843
 30
0.0
 10
9.9384603553
 20
8.9504053031
 30
0.0
 10
9.9375907905
 20
8.9500059334
 30
0.0
 10
9.9365486905
 20
8.9495232517
 30
0.0
 10
9.9351587424
 20
8.9488808771
 30
0.0
 10
9.9334214725
 20
8.9480774968
 30
0.0
 10
9.9313366779
 20
8.9471136171
 30
0.0
 10
9.9292519022
 20
8.94614969
 30
0.0
 10
9.9264721946
 20
8.9448644706
 30
0.0
 10
9.9229975626
 20
8.9432579401
 30
0.0
 10
9.9195229287
 20
8.9416514137
 30
0.0
 10
9.9167432242
 20
8.9403661877
 30
0.0
 10
9.9146584393
 20
8.9394022804
 30
0.0
 10
9.9125736788
 20
8.9384383267
 30
0.0
 10
9.9108363028
 20
8.9376351762
 30
0.0
 10
9.9094465712
 20
8.9369923329
 30
0.0
 10
9.90840381
 20
8.9365110827
 30
0.0
 10
9.9075363138
 20
8.9361072345
 30
0.0
 10
9.9069261786
 20
8.9358300481
 30
0.0
 10
9.9065820392
 20
8.9356630567
 30
0.0
 10
9.9063112316
 20
8.9355620369
 30
0.0
 10
9.9060889816
 20
8.9353684218
 30
0.0
 10
9.9057757109
 20
8.9351425667
 30
0.0
 10
9.9052353785
 20
8.9347322718
 30
0.0
 10
9.9044593493
 20
8.9341540037
 30
0.0
 10
9.9035298803
 20
8.9334567145
 30
0.0
 10
9.9022899714
 20
8.9325281718
 30
0.0
 10
9.900740297
 20
8.9313670899
 30
0.0
 10
9.8988805969
 20
8.9299739646
 30
0.0
 10
9.8970209211
 20
8.9285807929
 30
0.0
 10
9.8945413448
 20
8.926723247
 30
0.0
 10
9.8914418778
 20
8.9244013086
 30
0.0
 10
9.8883424081
 20
8.9220793738
 30
0.0
 10
9.8858628363
 20
8.9202218221
 30
0.0
 10
9.8840031471
 20
8.9188286677
 30
0.0
 10
9.882143497
 20
8.9174354779
 30
0.0
 10
9.8805936672
 20
8.9162745965
 30
0.0
 10
9.879354075
 20
8.9153456449
 30
0.0
 10
9.8784236389
 20
8.9146496043
 30
0.0
 10
9.8776506355
 20
8.9140674297
 30
0.0
 10
9.8771049017
 20
8.9136641086
 30
0.0
 10
9.8768002853
 20
8.9134270797
 30
0.0
 10
9.8765514517
 20
8.913267787
 30
0.0
 10
9.8763804877
 20
8.913037858
 30
0.0
 10
9.876125374
 20
8.9127559247
 30
0.0
 10
9.8756915801
 20
8.9122510618
 30
0.0
 10
9.8750652583
 20
8.9115358307
 30
0.0
 10
9.8743165041
 20
8.9106749846
 30
0.0
 10
9.8733171759
 20
8.909528087
 30
0.0
 10
9.8720683551
 20
8.9080941572
 30
0.0
 10
9.8705696247
 20
8.9063735734
 30
0.0
 10
9.8690709332
 20
8.9046529542
 30
0.0
 10
9.8670726642
 20
8.9023588078
 30
0.0
 10
9.8645748331
 20
8.8994911201
 30
0.0
 10
9.8620769985
 20
8.8966234353
 30
0.0
 10
9.8600787351
 20
8.8943292843
 30
0.0
 10
9.8585800267
 20
8.892608679
 30
0.0
 10
9.8570813596
 20
8.8908880432
 30
0.0
 10
9.8558323417
 20
8.8894542751
 30
0.0
 10
9.8548334155
 20
8.8883070477
 30
0.0
 10
9.8540834338
 20
8.8874472087
 30
0.0
 10
9.8534609525
 20
8.8867288266
 30
0.0
 10
9.8530203026
 20
8.8862295889
 30
0.0
 10
9.8527761739
 20
8.8859386427
 30
0.0
 10
9.8525714673
 20
8.8857363984
 30
0.0
 10
9.8524493655
 20
8.8854731264
 30
0.0
 10
9.8522577497
 20
8.8851433841
 30
0.0
 10
9.8519358466
 20
8.8845564171
 30
0.0
 10
9.8514689666
 20
8.8837230781
 30
0.0
 10
9.8509117147
 20
8.8827208519
 30
0.0
 10
9.8501676628
 20
8.8813853255
 30
0.0
 10
9.849237958
 20
8.8797156514
 30
0.0
 10
9.8481221578
 20
8.8777121567
 30
0.0
 10
9.847006399
 20
8.8757086313
 30
0.0
 10
9.8455187061
 20
8.873037275
 30
0.0
 10
9.8436590954
 20
8.8696980756
 30
0.0
 10
9.8417994809
 20
8.8663588785
 30
0.0
 10
9.8403117941
 20
8.8636875184
 30
0.0
 10
9.8391960169
 20
8.8616840042
 30
0.0
 10
9.8380802856
 20
8.8596804677
 30
0.0
 10
9.8371503667
 20
8.8580109234
 30
0.0
 10
9.8364067515
 20
8.8566751325
 30
0.0
 10
9.8358481658
 20
8.8556737139
 30
0.0
 10
9.835385459
 20
8.8548378478
 30
0.0
 10
9.8350561059
 20
8.8542553922
 30
0.0
 10
9.8348764269
 20
8.8539184217
 30
0.0
 10
9.8347176591
 20
8.8536773525
 30
0.0
 10
9.8346506639
 20
8.8533917177
 30
0.0
 10
9.8345293257
 20
8.8530264163
 30
0.0
 10
9.8343318985
 20
8.8523798961
 30
0.0
 10
9.8340420621
 20
8.8514600824
 30
0.0
 10
9.8336975961
 20
8.8503546852
 30
0.0
 10
9.8332371422
 20
8.8488813883
 30
0.0
 10
9.8326619748
 20
8.847039573
 30
0.0
 10
9.8319716025
 20
8.844829478
 30
0.0
 10
9.831281276
 20
8.8426193606
 30
0.0
 10
9.8303608247
 20
8.8396725453
 30
0.0
 10
9.8292102665
 20
8.8359890233
 30
0.0
 10
9.8280597043
 20
8.832305503
 30
0.0
 10
9.8271392596
 20
8.8293586848
 30
0.0
 10
9.8264489132
 20
8.8271485759
 30
0.0
 10
9.8257586156
 20
8.8249384492
 30
0.0
 10
9.8251832158
 20
8.8230967323
 30
0.0
 10
9.8247232358
 20
8.8216232349
 30
0.0
 10
9.8243773225
 20
8.8205184502
 30
0.0
 10
9.8240920142
 20
8.81959672
 30
0.0
 10
9.8238865036
 20
8.8189536211
 30
0.0
 10
9.823778117
 20
8.8185828379
 30
0.0
 10
9.8236713388
 20
8.8183140414
 30
0.0
 10
9.8236619895
 20
8.8180097301
 30
0.0
 10
9.8236155395
 20
8.8176163697
 30
0.0
 10
9.8235500859
 20
8.8169222171
 30
0.0
 10
9.8234483027
 20
8.8159335881
 30
0.0
 10
9.8233297061
 20
8.8147459416
 30
0.0
 10
9.8231703396
 20
8.8131628643
 30
0.0
 10
9.8229715562
 20
8.8111838627
 30
0.0
 10
9.822732834
 20
8.8088091273
 30
0.0
 10
9.8224941606
 20
8.806434374
 30
0.0
 10
9.8221759122
 20
8.8032680426
 30
0.0
 10
9.8217781082
 20
8.7993101262
 30
0.0
 10
9.8213802999
 20
8.7953522105
 30
0.0
 10
9.8210620585
 20
8.7921858778
 30
0.0
 10
9.8208233641
 20
8.7898111282
 30
0.0
 10
9.8205847204
 20
8.7874363794
 30
0.0
 10
9.820385693
 20
8.7854574191
 30
0.0
 10
9.820226824
 20
8.7838742576
 30
0.0
 10
9.8201067081
 20
8.7826868682
 30
0.0
 10
9.8200096783
 20
8.7816974351
 30
0.0
 10
9.819935739
 20
8.781004718
 30
0.0
 10
9.8199028853
 20
8.7806090575
 30
0.0
 10
9.8198517726
 20
8.780311811
 30
0.0
 10
9.8199018509
 20
8.7800164802
 30
0.0
 10
9.8199333255
 20
8.7796220376
 30
0.0
 10
9.8200048513
 20
8.7789320742
 30
0.0
 10
9.8200984332
 20
8.7779462496
 30
0.0
 10
9.8202144116
 20
8.7767633297
 30
0.0
 10
9.8203677639
 20
8.7751860789
 30
0.0
 10
9.8205598955
 20
8.7732145236
 30
0.0
 10
9.8207902643
 20
8.7708486538
 30
0.0
 10
9.8210206837
 20
8.7684827849
 30
0.0
 10
9.8213278921
 20
8.7653282928
 30
0.0
 10
9.8217119066
 20
8.7613851774
 30
0.0
 10
9.8221727309
 20
8.7566534402
 30
0.0
 10
9.8225567227
 20
8.7527103221
 30
0.0
 10
9.8228639811
 20
8.749555836
 30
0.0
 10
9.8230558695
 20
8.7475842631
 30
0.0
 10
9.8232097194
 20
8.7460070484
 30
0.0
 10
9.8233241779
 20
8.7448240179
 30
0.0
 10
9.8234225153
 20
8.7438385394
 30
0.0
 10
9.8234855517
 20
8.7431479583
 30
0.0
 10
9.8235306283
 20
8.7427545055
 30
0.0
 10
9.8235389256
 20
8.742456134
 30
0.0
 10
9.8236447357
 20
8.7421703079
 30
0.0
 10
9.8237518022
 20
8.7417848305
 30
0.0
 10
9.8239550162
 20
8.7411122839
 30
0.0
 10
9.8242370367
 20
8.7401504372
 30
0.0
 10
9.8245790076
 20
8.7389966773
 30
0.0
 10
9.8250337302
 20
8.7374581714
 30
0.0
 10
9.8256025575
 20
8.7355350937
 30
0.0
 10
9.8265124441
 20
8.7324581388
 30
0.0
 10
9.8276498842
 20
8.7286119557
 30
0.0
 10
9.8290147751
 20
8.7239965308
 30
0.0
 10
9.8303796841
 20
8.7193811101
 30
0.0
 10
9.8315170787
 20
8.7155349165
 30
0.0
 10
9.8324270562
 20
8.7124579827
 30
0.0
 10
9.8329956525
 20
8.7105348512
 30
0.0
 10
9.8334508493
 20
8.7089964557
 30
0.0
 10
9.8337913713
 20
8.7078423588
 30
0.0
 10
9.834077925
 20
8.7068815663
 30
0.0
 10
9.8342730464
 20
8.7062071377
 30
0.0
 10
9.8343930794
 20
8.7058246758
 30
0.0
 10
9.8344590609
 20
8.705529587
 30
0.0
 10
9.8346169478
 20
8.7052660051
 30
0.0
 10
9.834795406
 20
8.7049035726
 30
0.0
 10
9.8351226442
 20
8.7042744362
 30
0.0
 10
9.8355823184
 20
8.7033729929
 30
0.0
 10
9.8361372699
 20
8.7022924068
 30
0.0
 10
9.8368760378
 20
8.7008512251
 30
0.0
 10
9.8377998975
 20
8.699049885
 30
0.0
 10
9.8392778494
 20
8.6961676642
 30
0.0
 10
9.8411253665
 20
8.6925649148
 30
0.0
 10
9.8433423518
 20
8.6882416031
 30
0.0
 10
9.8455593545
 20
8.6839182984
 30
0.0
 10
9.8474068281
 20
8.6803155313
 30
0.0
 10
9.848884867
 20
8.6774333459
 30
0.0
 10
9.8498085057
 20
8.6756319157
 30
0.0
 10
9.8505477271
 20
8.674190919
 30
0.0
 10
9.8511012931
 20
8.6731097678
 30
0.0
 10
9.8515653023
 20
8.6722100925
 30
0.0
 10
9.8518848018
 20
8.6715777999
 30
0.0
 10
9.8520756593
 20
8.6712204245
 30
0.0
 10
9.8521954597
 20
8.6709413088
 30
0.0
 10
9.8524044878
 20
8.6707045626
 30
0.0
 10
9.8526520684
 20
8.6703741221
 30
0.0
 10
9.8530998354
 20
8.6698027369
 30
0.0
 10
9.8537319213
 20
8.6689828725
 30
0.0
 10
9.8544936694
 20
8.668000576
 30
0.0
 10
9.8555082001
 20
8.6666903092
 30
0.0
 10
9.8567767516
 20
8.66505266
 30
0.0
 10
9.8588062171
 20
8.6624323183
 30
0.0
 10
9.8613431237
 20
8.6591569268
 30
0.0
 10
9.864387378
 20
8.65522644
 30
0.0
 10
9.8674316471
 20
8.6512959642
 30
0.0
 10
9.8699685167
 20
8.648020545
 30
0.0
 10
9.8719980563
 20
8.6454002588
 30
0.0
 10
9.8732664193
 20
8.6437624684
 30
0.0
 10
9.8742813368
 20
8.6424524913
 30
0.0
 10
9.8750419034
 20
8.6414693098
 30
0.0
 10
9.875677686
 20
8.6406522147
 30
0.0
 10
9.8761188538
 20
8.6400758858
 30
0.0
 10
9.876377008
 20
8.6397533664
 30
0.0
 10
9.8765535573
 20
8.639492289
 30
0.0
 10
9.8767953427
 20
8.6393045572
 30
0.0
 10
9.8770949682
 20
8.6390286643
 30
0.0
 10
9.8776299148
 20
8.6385577718
 30
0.0
 10
9.8783885814
 20
8.6378788362
 30
0.0
 10
9.8793013539
 20
8.637066781
 30
0.0
 10
9.8805175551
 20
8.6359831091
 30
0.0
 10
9.8820380904
 20
8.6346288382
 30
0.0
 10
9.8844707883
 20
8.6324618264
 30
0.0
 10
9.8875117154
 20
8.6297531232
 30
0.0
 10
9.8911608031
 20
8.6265026512
 30
0.0
 10
9.8948099023
 20
8.6232521937
 30
0.0
 10
9.8978508005
 20
8.6205434541
 30
0.0
 10
9.9002835562
 20
8.6183765153
 30
0.0
 10
9.9018039444
 20
8.6170220588
 30
0.0
 10
9.9030204475
 20
8.6159387677
 30
0.0
 10
9.9039322979
 20
8.615125549
 30
0.0
 10
9.9046938492
 20
8.614450254
 30
0.0
 10
9.9052236462
 20
8.6139728625
 30
0.0
 10
9.9055315227
 20
8.6137073825
 30
0.0
 10
9.9057479635
 20
8.6134876657
 30
0.0
 10
9.9060197033
 20
8.6133467187
 30
0.0
 10
9.9063627341
 20
8.6131313135
 30
0.0
 10
9.9069720252
 20
8.612767156
 30
0.0
 10
9.9078377424
 20
8.6122402383
 30
0.0
 10
9.9088786142
 20
8.6116108017
 30
0.0
 10
9.9102657409
 20
8.6107705523
 30
0.0
 10
9.9119998897
 20
8.6097205831
 30
0.0
 10
9.9147743933
 20
8.608040441
 30
0.0
 10
9.9182425692
 20
8.6059403295
 30
0.0
 10
9.9224043595
 20
8.6034201652
 30
0.0
 10
9.9265661588
 20
8.6009000171
 30
0.0
 10
9.9300343122
 20
8.5987998653
 30
0.0
 10
9.9328088608
 20
8.5971198037
 30
0.0
 10
9.9345428955
 20
8.5960696298
 30
0.0
 10
9.9359302562
 20
8.5952298007
 30
0.0
 10
9.9369704128
 20
8.5945990799
 30
0.0
 10
9.9378383678
 20
8.5940761802
 30
0.0
 10
9.9384436642
 20
8.5937048497
 30
0.0
 10
9.9387930954
 20
8.5935009375
 30
0.0
 10
9.9390451751
 20
8.5933246879
 30
0.0
 10
9.9393354561
 20
8.5932375617
 30
0.0
 10
9.9397091724
 20
8.5930903062
 30
0.0
 10
9.9403693842
 20
8.5928470932
 30
0.0
 10
9.9413092981
 20
8.5924920736
 30
0.0
 10
9.9424385841
 20
8.5920692912
 30
0.0
 10
9.9439438136
 20
8.5915044494
 30
0.0
 10
9.9458255165
 20
8.5907987847
 30
0.0
 10
9.9488361484
 20
8.5896695045
 30
0.0
 10
9.9525994702
 20
8.5882579791
 30
0.0
 10
9.957115442
 20
8.5865641143
 30
0.0
 10
9.9616314203
 20
8.5848702672
 30
0.0
 10
9.965394726
 20
8.5834586975
 30
0.0
 10
9.96840539
 20
8.5823295059
 30
0.0
 10
9.9702870113
 20
8.5816236161
 30
0.0
 10
9.9717924084
 20
8.5810592363
 30
0.0
 10
9.9729211822
 20
8.5806350423
 30
0.0
 10
9.9738626987
 20
8.5802844396
 30
0.0
 10
9.9745200497
 20
8.5800333416
 30
0.0
 10
9.9748983496
 20
8.5798987198
 30
0.0
 10
9.9751745511
 20
8.5797727869
 30
0.0
 10
9.975479511
 20
8.5797422886
 30
0.0
 10
9.9758760929
 20
8.5796683356
 30
0.0
 10
9.9765747851
 20
8.5795544275
 30
0.0
 10
9.9775704732
 20
8.5793835931
 30
0.0
 10
9.9787663448
 20
8.5791820625
 30
0.0
 10
9.980360475
 20
8.5789121427
 30
0.0
 10
9.9823532631
 20
8.578575159
 30
0.0
 10
9.9847445551
 20
8.5781706001
 30
0.0
 10
9.9871358614
 20
8.577766089
 30
0.0
 10
9.9903242649
 20
8.5772267242
 30
0.0
 10
9.9943097709
 20
8.5765525239
 30
0.0
 10
9.9990923774
 20
8.5757434811
 30
0.0
 10
10.0054691863
 20
8.5746647582
 30
0.0
 10
10.010251793
 20
8.5738557159
 30
0.0
 10
10.0134401974
 20
8.5733163543
 30
0.0
  0
ENDSEC
  0
SECTION
  2
OBJECTS
  0
DICTIONARY
  5
C
100
AcDbDictionary
280
0
281
1
  3
ACAD_GROUP
350
D
  3
ACAD_MLINESTYLE
350
17
  3
ACAD_LAYOUT
350
1A
  3
ACAD_PLOTSETTINGS
350
19
  3
ACAD_PLOTSTYLENAME
350
E
  3
ACAD_IMAGE_DICT
350
       3A6
  3
ACAD_IMAGE_VARS
350
       3A7
  3
ACAD_TABLESTYLE
350
       3A8
  0
IMAGEDEF_REACTOR
  5
3A5
100
AcDbRasterImageDefReactor
 90
2
330
293
  0
DICTIONARY
  5
D
102
{ACAD_REACTORS
330
C
102
}
100
AcDbDictionary
280
0
281
1
  0
ACDBDICTIONARYWDFLT
  5
E
102
{ACAD_REACTORS
330
C
102
}
100
AcDbDictionary
281
1
  3
Normal
350
F
100
AcDbDictionaryWithDefault
340
F
  0
DICTIONARY
  5
3A6
330
C
100
AcDbDictionary
281
1
  3
N4L_assy_2_img_1
350
       3AB
  0
RASTERVARIABLES
  5
3A7
330
C
100
AcDbRasterVariables
 90
0
 70
0
 71
1
 72
5
  0
DICTIONARY
  5
17
102
{ACAD_REACTORS
330
C
102
}
100
AcDbDictionary
280
0
281
1
  3
Standard
350
18
  0
DICTIONARY
  5
3A8
330
C
100
AcDbDictionary
281
1
  3
Standard
350
       3AC
  3
Standard1
350
       3AD
  0
DICTIONARY
  5
19
102
{ACAD_REACTORS
330
C
102
}
100
AcDbDictionary
281
1
  0
DICTIONARY
  5
1A
102
{ACAD_REACTORS
330
C
102
}
100
AcDbDictionary
281
1
  3
Model
350
3A9
  3
Layout1
350
3AA
  0
ACDBPLACEHOLDER
  5
F
102
{ACAD_REACTORS
330
E
102
}
  0
MLINESTYLE
  5
18
102
{ACAD_REACTORS
330
17
102
}
100
AcDbMlineStyle
  2
STANDARD
 70
0
  3

 62
256
 51
90.0
 52
90.0
 71
2
 49
0.5
 62
256
  6
BYLAYER
 49
-0.5
 62
256
  6
BYLAYER
  0
LAYOUT
  5
3A9
102
{ACAD_REACTORS
330
1A
102
}
100
AcDbPlotSettings
  1

  2
none_device
  4
ANSI_C_(22.00_x_17.00_Inches)
  6

 40
0.0
 41
0.0
 42
0.0
 43
0.0
 44
558.8
 45
431.8
 46
0.0
 47
0.0
 48
0.0
 49
0.0
140
0.0
141
0.0
142
1.0
143
1.0
 70
1024
 72
0
 73
0
 74
0
  7

 75
0
147
1.0
148
0.0
149
0.0
100
AcDbLayout
  1
Model
 70
0
 71
0
 10
0.0
 20
0.0
 11
22.0
 21
17.0
 12
0.0
 22
0.0
 32
0.0
 14
0.0
 24
0.0
 34
0.0
 15
0.0
 25
0.0
 35
0.0
146
0.0
 13
0.0
 23
0.0
 33
0.0
 16
1.0
 26
0.0
 36
0.0
 17
0.0
 27
1.0
 37
0.0
 76
0
330
20C
345
0
346
0
  0
LAYOUT
  5
3AA
102
{ACAD_REACTORS
330
1A
102
}
100
AcDbPlotSettings
  1

  2
none_device
  4
ANSI_C_(22.00_x_17.00_Inches)
  6

 40
0.0
 41
0.0
 42
0.0
 43
0.0
 44
558.8
 45
431.8
 46
0.0
 47
0.0
 48
0.0
 49
0.0
140
0.0
141
0.0
142
1.0
143
1.0
 70
0
 72
0
 73
0
 74
0
  7

 75
0
147
1.0
148
0.0
149
0.0
100
AcDbLayout
  1
Layout1
 70
0
 71
1
 10
0.0
 20
0.0
 11
22.0
 21
17.0
 12
0.0
 22
0.0
 32
0.0
 14
0.0
 24
0.0
 34
0.0
 15
0.0
 25
0.0
 35
0.0
146
0.0
 13
0.0
 23
0.0
 33
0.0
 16
1.0
 26
0.0
 36
0.0
 17
0.0
 27
1.0
 37
0.0
 76
0
330
20D
345
0
346
0
  0
IMAGEDEF
  5
3AB
102
{ACAD_REACTORS
330
3A6
330
3A5
102
}
100
AcDbRasterImageDef
 90
0
  1
N4L_assy_2_img_1.png
 10
369.0
 20
92.0
 11
0.0066666667
 21
0.0066666667
280
1
281
0
  0
TABLESTYLE
  5
3AC
102
{ACAD_REACTORS
330
3A8
330
296
330
297
102
}
330
3A8
100
AcDbTableStyle
  3
Standard
 70
0
 71
0
 40
0.06
 41
0.06
280
1
281
1
  7
Standard
140
0.18
170
1
 62
0
 63
7
283
0
  7
Standard
140
0.18
170
1
 62
0
 63
7
283
0
  7
Standard
140
0.18
170
1
 62
0
 63
7
283
0
  0
TABLESTYLE
  5
3AD
102
{ACAD_REACTORS
330
3A8
330
295
102
}
330
3A8
100
AcDbTableStyle
  3
Standard1
 70
1
 71
0
 40
0.06
 41
0.06
280
1
281
1
  7
Standard
140
0.18
170
1
 62
0
 63
7
283
0
  7
Standard
140
0.18
170
1
 62
0
 63
7
283
0
  7
Standard
140
0.18
170
1
 62
0
 63
7
283
0
  0
ENDSEC
  0
EOF
