999
DXF file: N4K_assy_2.dxf
999
Pro/ENGINEER 2014200 by Parametric Technology Corporation
  0
SECTION
  2
HEADER
  9
$ACADVER
  1
AC1021
  9
$DWGCODEPAGE
  3
ANSI_1252
  9
$EXTMAX
 10
22.0
 20
17.0
 30
0.0
  9
$EXTMIN
 10
0.0
 20
0.0
 30
0.0
  9
$LIMMIN
 10
0.0
 20
0.0
  9
$LIMMAX
 10
22.0
 20
17.0
  9
$VIEWCTR
 10
11.0
 20
8.5
  9
$VIEWSIZE
 40
17.0
  9
$CLAYER
  8
0
  9
$LTSCALE
 40
1.21
  9
$CELTYPE
  6
BYLAYER
  9
$DIMSCALE
 40
1.0
  9
$DIMASZ
 40
0.1875
  9
$DIMEXO
 40
0.0625
  9
$DIMDLI
 40
0.836
  9
$DIMEXE
 40
0.125
  9
$DIMCEN
 40
0.198
  9
$DIMLFAC
 40
1.0
  9
$DIMBLK
  1
_FILLED
  9
$DIMTXT
 40
0.1
  9
$DIMTOL
 70
0
  9
$DIMLIM
 70
0
  9
$DIMTFAC
 40
1.0
  9
$DIMGAP
 40
0.09
  9
$DIMDSEP
 70
46
  9
$AUNITS
 70
0
  9
$PDMODE
 70
3
  9
$PDSIZE
 40
0.3125
  9
$HANDSEED
  5
3A2
  9
$TILEMODE
 70
1
  9
$MEASUREMENT
 70
0
  9
$INSUNITS
 70
1
  0
ENDSEC
  0
SECTION
  2
CLASSES
  0
CLASS
  1
ACDBDICTIONARYWDFLT
  2
AcDbDictionaryWithDefault
  3
AutoCAD 2000
 90
0
 91
1
280
0
281
0
  0
CLASS
  1
ACDBPLACEHOLDER
  2
AcDbPlaceHolder
  3
AutoCAD 2000
 90
0
 91
1
280
0
281
0
  0
CLASS
  1
LAYOUT
  2
AcDbLayout
  3
AutoCAD 2000
 90
0
 91
0
280
0
281
0
  0
CLASS
  1
RASTERVARIABLES
  2
AcDbRasterVariables
  3
ISM
 90
0
 91
1
280
0
281
0
  0
CLASS
  1
IMAGEDEF
  2
AcDbRasterImageDef
  3
ISM
 90
0
 91
1
280
0
281
0
  0
CLASS
  1
IMAGEDEF_REACTOR
  2
AcDbRasterImageDefReactor
  3
ISM
 90
0
 91
1
280
0
281
0
  0
CLASS
  1
IMAGE
  2
AcDbRasterImage
  3
ISM
 90
127
 91
1
280
0
281
1
  0
CLASS
  1
TABLESTYLE
  2
AcDbTableStyle
  3
ObjectDBX Classes
 90
2047
 91
1
280
0
281
0
  0
CLASS
  1
ACAD_TABLE
  2
AcDbTable
  3
ObjectDBX Classes
 90
1025
 91
3
280
0
281
1
  0
ENDSEC
  0
SECTION
  2
TABLES
  0
TABLE
  2
VPORT
  5
8
100
AcDbSymbolTable
 70
2
  0
VPORT
  5
1F4
100
AcDbSymbolTableRecord
100
AcDbViewportTableRecord
  2
*ACTIVE
 70
0
 10
0.0
 20
0.0
 11
1.0
 21
1.0
 12
11.0
 22
8.5
 13
0.0
 23
0.0
 14
1.0
 24
1.0
 15
0.0
 25
0.0
 16
0.0
 26
0.0
 36
1.0
 17
0.0
 27
0.0
 37
0.0
 40
17.0
 41
1.2941176471
 42
50.0
 43
0.0
 44
0.0
 50
0.0
 51
0.0
 71
0
 72
100
 73
1
 74
1
 75
0
 76
0
 77
0
 78
0
  0
ENDTAB
  0
TABLE
  2
LTYPE
  5
5
100
AcDbSymbolTable
 70
6
  0
LTYPE
  5
14
100
AcDbSymbolTableRecord
100
AcDbLinetypeTableRecord
  2
BYBLOCK
 70
0
  3

 72
65
 73
0
 40
0.0
  0
LTYPE
  5
15
100
AcDbSymbolTableRecord
100
AcDbLinetypeTableRecord
  2
BYLAYER
 70
0
  3

 72
65
 73
0
 40
0.0
  0
LTYPE
  5
16
100
AcDbSymbolTableRecord
100
AcDbLinetypeTableRecord
  2
CONTINUOUS
 70
64
  3
Solid line
 72
65
 73
0
 40
0.0
  0
LTYPE
  5
1F5
100
AcDbSymbolTableRecord
100
AcDbLinetypeTableRecord
  2
CENTER
 70
64
  3
____ _ ____ _ ____ _ ____ _ ____ _ ____ _ ____
 72
65
 73
4
 40
0.6
 49
0.375
 74
0
 49
-0.075
 74
0
 49
0.075
 74
0
 49
-0.075
 74
0
  0
LTYPE
  5
1F6
100
AcDbSymbolTableRecord
100
AcDbLinetypeTableRecord
  2
HIDDEN
 70
64
  3
- - - - - - - - - - - - - - - - - - - -
 72
65
 73
2
 40
0.2
 49
0.1
 74
0
 49
-0.1
 74
0
  0
LTYPE
  5
1F7
100
AcDbSymbolTableRecord
100
AcDbLinetypeTableRecord
  2
PHANTOM
 70
64
  3
_____ _ _ _____ _ _ _____ _ _ _____
 72
65
 73
6
 40
0.8
 49
0.45
 74
0
 49
-0.05
 74
0
 49
0.1
 74
0
 49
-0.05
 74
0
 49
0.1
 74
0
 49
-0.05
 74
0
  0
LTYPE
  5
1F8
100
AcDbSymbolTableRecord
100
AcDbLinetypeTableRecord
  2
DOT
 70
64
  3
. . . . . . . . . . . . . . . . . . . .
 72
65
 73
2
 40
0.2
 49
0.1
 74
0
 49
-0.1
 74
0
  0
LTYPE
  5
1F9
100
AcDbSymbolTableRecord
100
AcDbLinetypeTableRecord
  2
DASHED
 70
64
  3
- - - - - - - - - - - - - - - - - - - -
 72
65
 73
2
 40
0.2
 49
0.1
 74
0
 49
-0.1
 74
0
  0
ENDTAB
  0
TABLE
  2
LAYER
  5
2
100
AcDbSymbolTable
 70
36
  0
LAYER
  5
10
100
AcDbSymbolTableRecord
100
AcDbLayerTableRecord
  2
0
 70
0
 62
7
  6
CONTINUOUS
370
-3
390
F
  0
LAYER
  5
1FA
100
AcDbSymbolTableRecord
100
AcDbLayerTableRecord
  2
DEFAULT_1
 70
0
 62
7
  6
CENTER
370
-3
390
F
  0
LAYER
  5
1FB
100
AcDbSymbolTableRecord
100
AcDbLayerTableRecord
  2
DEFAULT_2
 70
0
 62
8
  6
HIDDEN
370
-3
390
F
  0
LAYER
  5
1FC
100
AcDbSymbolTableRecord
100
AcDbLayerTableRecord
  2
DEFAULT_3
 70
0
 62
7
  6
PHANTOM
370
-3
390
F
  0
LAYER
  5
1FD
100
AcDbSymbolTableRecord
100
AcDbLayerTableRecord
  2
01___PRT_ALL_DTM_PLN
 70
0
 62
7
  6
CONTINUOUS
370
-3
390
F
  0
LAYER
  5
1FE
100
AcDbSymbolTableRecord
100
AcDbLayerTableRecord
  2
01___PRT_DEF_DTM_PLN
 70
0
 62
7
  6
CONTINUOUS
370
-3
390
F
  0
LAYER
  5
1FF
100
AcDbSymbolTableRecord
100
AcDbLayerTableRecord
  2
02___PRT_ALL_AXES
 70
0
 62
7
  6
CONTINUOUS
370
-3
390
F
  0
LAYER
  5
200
100
AcDbSymbolTableRecord
100
AcDbLayerTableRecord
  2
03___PRT_ALL_CURVES
 70
0
 62
7
  6
CONTINUOUS
370
-3
390
F
  0
LAYER
  5
201
100
AcDbSymbolTableRecord
100
AcDbLayerTableRecord
  2
04___PRT_ALL_DTM_PNT
 70
0
 62
7
  6
CONTINUOUS
370
-3
390
F
  0
LAYER
  5
202
100
AcDbSymbolTableRecord
100
AcDbLayerTableRecord
  2
05___PRT_ALL_DTM_CSYS
 70
0
 62
7
  6
CONTINUOUS
370
-3
390
F
  0
LAYER
  5
203
100
AcDbSymbolTableRecord
100
AcDbLayerTableRecord
  2
05___PRT_DEF_DTM_CSYS
 70
0
 62
7
  6
CONTINUOUS
370
-3
390
F
  0
LAYER
  5
204
100
AcDbSymbolTableRecord
100
AcDbLayerTableRecord
  2
06___PRT_ALL_SURFS
 70
0
 62
7
  6
CONTINUOUS
370
-3
390
F
  0
LAYER
  5
205
100
AcDbSymbolTableRecord
100
AcDbLayerTableRecord
  2
DATUM_PLANES
 70
0
 62
7
  6
CONTINUOUS
370
-3
390
F
  0
LAYER
  5
206
100
AcDbSymbolTableRecord
100
AcDbLayerTableRecord
  2
PORT_AREAS
 70
0
 62
7
  6
CONTINUOUS
370
-3
390
F
  0
LAYER
  5
207
100
AcDbSymbolTableRecord
100
AcDbLayerTableRecord
  2
SUNNBOMCOSMETIC
 70
0
 62
7
  6
CONTINUOUS
370
-3
390
F
  0
LAYER
  5
208
100
AcDbSymbolTableRecord
100
AcDbLayerTableRecord
  2
SUNNBOMSTAMPING
 70
0
 62
7
  6
CONTINUOUS
370
-3
390
F
  0
LAYER
  5
209
100
AcDbSymbolTableRecord
100
AcDbLayerTableRecord
  2
THREADS
 70
0
 62
7
  6
CONTINUOUS
370
-3
390
F
  0
ENDTAB
  0
TABLE
  2
STYLE
  5
3
100
AcDbSymbolTable
 70
1
  0
STYLE
  5
11
100
AcDbSymbolTableRecord
100
AcDbTextStyleTableRecord
  2
STANDARD
 70
0
 40
0.0
 41
0.8
 50
0.0
 71
0
 42
0.2
  3
txt
  4

  0
STYLE
  5
20A
100
AcDbSymbolTableRecord
100
AcDbTextStyleTableRecord
  2
TEXTSTYLE_1
 70
0
 40
0.0
 41
0.8
 50
0.0
 71
0
 42
0.2
  3
gdt
  4

  0
ENDTAB
  0
TABLE
  2
VIEW
  5
6
100
AcDbSymbolTable
 70
0
  0
ENDTAB
  0
TABLE
  2
UCS
  5
7
100
AcDbSymbolTable
 70
0
  0
ENDTAB
  0
TABLE
  2
APPID
  5
9
100
AcDbSymbolTable
 70
1
  0
APPID
  5
20B
100
AcDbSymbolTableRecord
100
AcDbRegAppTableRecord
  2
ACAD
 70
0
  0
ENDTAB
  0
TABLE
  2
BLOCK_RECORD
  5
1
100
AcDbSymbolTable
 70
0
  0
BLOCK_RECORD
  5
20C
100
AcDbSymbolTableRecord
100
AcDbBlockTableRecord
  2
*Model_Space
  0
BLOCK_RECORD
  5
20D
100
AcDbSymbolTableRecord
100
AcDbBlockTableRecord
  2
*Paper_Space
  0
BLOCK_RECORD
  5
20E
100
AcDbSymbolTableRecord
100
AcDbBlockTableRecord
  2
SUN_FIRST_THIRD_ANGLE_BL0
  0
BLOCK_RECORD
  5
20F
100
AcDbSymbolTableRecord
100
AcDbBlockTableRecord
  2
*T1
  0
BLOCK_RECORD
  5
210
100
AcDbSymbolTableRecord
100
AcDbBlockTableRecord
  2
*T2
  0
BLOCK_RECORD
  5
211
100
AcDbSymbolTableRecord
100
AcDbBlockTableRecord
  2
*T3
  0
ENDTAB
  0
TABLE
  2
DIMSTYLE
  5
A
100
AcDbSymbolTable
 70
1
100
AcDbDimStyleTable
 71
0
  0
DIMSTYLE
105
212
100
AcDbSymbolTableRecord
100
AcDbDimStyleTableRecord
  2
STANDARD
 70
0
  3

  4

 40
1.0
 41
0.1875
 42
0.0625
 43
0.38
 44
0.125
 45
0.0
 46
0.0
 47
0.001
 48
0.001
140
0.1
141
0.09
142
0.0
143
25.4
144
1.0
145
0.0
146
1.0
147
0.09
 71
0.0
 72
0.0
 73
1
 74
1
 75
0
 76
0
 77
0
 78
4
170
0
171
2
172
0
173
0
174
0
175
0
176
0
177
0
178
0
270
2
271
3
272
3
273
2
274
2
275
0
280
0
281
0
282
0
283
1
284
4
285
0
286
0
287
3
288
0
340
11
278
46
  0
ENDTAB
  0
ENDSEC
  0
SECTION
  2
BLOCKS
  0
BLOCK
  5
20
100
AcDbEntity
  8
0
100
AcDbBlockBegin
  2
*Model_Space
 70
0
 10
0.0
 20
0.0
 30
0.0
  3
*Model_Space
  1

  0
ENDBLK
  5
21
100
AcDbEntity
  8
0
100
AcDbBlockEnd
  0
BLOCK
  5
1C
100
AcDbEntity
  8
0
100
AcDbBlockBegin
  2
*Paper_Space
 70
0
 10
0.0
 20
0.0
 30
0.0
  3
*Paper_Space
  1

  0
ENDBLK
  5
1D
100
AcDbEntity
  8
0
100
AcDbBlockEnd
  0
BLOCK
  5
213
100
AcDbEntity
  8
0
100
AcDbBlockBegin
 62
2
  6
CONTINUOUS
  2
SUN_FIRST_THIRD_ANGLE_BL0
 70
64
 10
20.4816717061
 20
1.2289683772
  3
SUN_FIRST_THIRD_ANGLE_BL0
  1

  0
TEXT
  5
214
100
AcDbEntity
  8
0
100
AcDbText
 62
2
  6
CONTINUOUS
 10
19.4750896608
 20
1.4136269581
  7
STANDARD
 40
0.08
  1
FIRST ANGLE
 41
0.8
 72
0
100
AcDbText
  0
TEXT
  5
215
100
AcDbEntity
  8
0
100
AcDbText
 62
2
  6
CONTINUOUS
 10
20.7842537513
 20
1.4047600029
  7
STANDARD
 40
0.08
  1
THIRD ANGLE
 41
0.8
 72
0
100
AcDbText
  0
LINE
  5
216
100
AcDbEntity
  8
0
100
AcDbLine
 62
7
  6
CONTINUOUS
 10
19.4767170086
 20
1.1727031207
 11
19.6334271527
 21
1.1717972817
  0
LINE
  5
217
100
AcDbEntity
  8
0
100
AcDbLine
 62
7
  6
CONTINUOUS
 10
19.6596964832
 20
1.1717972817
 11
19.6950230232
 21
1.171593082
  0
LINE
  5
218
100
AcDbEntity
  8
0
100
AcDbLine
 62
7
  6
CONTINUOUS
 10
19.7194818561
 20
1.1708914427
 11
19.8852396156
 21
1.1699333054
  0
LINE
  5
219
100
AcDbEntity
  8
0
100
AcDbLine
 62
7
  6
CONTINUOUS
 10
19.4758111696
 20
1.2723454088
 11
19.88525039
 21
1.3511534004
  0
LINE
  5
21A
100
AcDbEntity
  8
0
100
AcDbLine
 62
7
  6
CONTINUOUS
 10
19.88525039
 20
1.3511534004
 11
19.8831348489
 21
0.9851647912
  0
LINE
  5
21B
100
AcDbEntity
  8
0
100
AcDbLine
 62
7
  6
CONTINUOUS
 10
19.8831348489
 20
0.9851647912
 11
19.4767170086
 21
1.0658141206
  0
LINE
  5
21C
100
AcDbEntity
  8
0
100
AcDbLine
 62
7
  6
CONTINUOUS
 10
19.4767170086
 20
1.0658141206
 11
19.4779056764
 21
1.2714536432
  0
CIRCLE
  5
21D
100
AcDbEntity
  8
0
100
AcDbCircle
 62
7
  6
CONTINUOUS
 10
20.2068232291
 20
1.1717972817
 40
0.175742101
  0
CIRCLE
  5
21E
100
AcDbEntity
  8
0
100
AcDbCircle
 62
7
  6
CONTINUOUS
 10
20.2068232291
 20
1.1717972817
 40
0.1005522074
  0
LINE
  5
21F
100
AcDbEntity
  8
0
100
AcDbLine
 62
7
  6
CONTINUOUS
 10
20.2077290681
 20
1.3756110529
 11
20.2071171714
 21
1.2379342989
  0
LINE
  5
220
100
AcDbEntity
  8
0
100
AcDbLine
 62
7
  6
CONTINUOUS
 10
20.2077290681
 20
1.2016899681
 11
20.2074674401
 21
1.1428236749
  0
LINE
  5
221
100
AcDbEntity
  8
0
100
AcDbLine
 62
7
  6
CONTINUOUS
 10
20.208634907
 20
1.101141841
 11
20.2080230104
 21
0.963465087
  0
LINE
  5
222
100
AcDbEntity
  8
0
100
AcDbLine
 62
7
  6
CONTINUOUS
 10
20.0066328138
 20
1.1745147986
 11
20.1443095678
 21
1.1739029019
  0
LINE
  5
223
100
AcDbEntity
  8
0
100
AcDbLine
 62
7
  6
CONTINUOUS
 10
20.1832714155
 20
1.1727031207
 11
20.238153505
 21
1.172335442
  0
LINE
  5
224
100
AcDbEntity
  8
0
100
AcDbLine
 62
7
  6
CONTINUOUS
 10
20.2756669918
 20
1.1717972817
 11
20.407916871
 21
1.1712095044
  0
CIRCLE
  5
225
100
AcDbEntity
  8
0
100
AcDbCircle
 62
7
  6
CONTINUOUS
 10
20.7509457401
 20
1.1693297793
 40
0.1722024983
  0
CIRCLE
  5
226
100
AcDbEntity
  8
0
100
AcDbCircle
 62
7
  6
CONTINUOUS
 10
20.7509457401
 20
1.1693297793
 40
0.0985164967
  0
LINE
  5
227
100
AcDbEntity
  8
0
100
AcDbLine
 62
7
  6
CONTINUOUS
 10
20.7169767782
 20
1.170462078
 11
20.7825395137
 21
1.1682766535
  0
LINE
  5
228
100
AcDbEntity
  8
0
100
AcDbLine
 62
7
  6
CONTINUOUS
 10
20.8177513651
 20
1.1693297793
 11
20.947965719
 21
1.1693297793
  0
LINE
  5
229
100
AcDbEntity
  8
0
100
AcDbLine
 62
7
  6
CONTINUOUS
 10
20.6875370113
 20
1.170462078
 11
20.5573226574
 21
1.170462078
  0
LINE
  5
22A
100
AcDbEntity
  8
0
100
AcDbLine
 62
7
  6
CONTINUOUS
 10
20.7486811426
 20
1.1987695462
 11
20.7486811426
 21
1.1432869085
  0
LINE
  5
22B
100
AcDbEntity
  8
0
100
AcDbLine
 62
7
  6
CONTINUOUS
 10
20.7498134414
 20
1.1059210505
 11
20.7498134414
 21
0.9757066966
  0
LINE
  5
22C
100
AcDbEntity
  8
0
100
AcDbLine
 62
7
  6
CONTINUOUS
 10
20.7486811426
 20
1.2338708068
 11
20.7486811426
 21
1.3640851607
  0
LINE
  5
22D
100
AcDbEntity
  8
0
100
AcDbLine
 62
7
  6
CONTINUOUS
 10
21.0702539817
 20
1.2701043662
 11
21.4790138229
 21
1.3448360823
  0
LINE
  5
22E
100
AcDbEntity
  8
0
100
AcDbLine
 62
7
  6
CONTINUOUS
 10
21.4790138229
 20
1.3448360823
 11
21.4790138229
 21
0.9779712941
  0
LINE
  5
22F
100
AcDbEntity
  8
0
100
AcDbLine
 62
7
  6
CONTINUOUS
 10
21.4790138229
 20
0.9779712941
 11
21.069121683
 21
1.0617614
  0
LINE
  5
230
100
AcDbEntity
  8
0
100
AcDbLine
 62
7
  6
CONTINUOUS
 10
21.0702539817
 20
1.2701043662
 11
21.069121683
 21
1.0617614
  0
LINE
  5
231
100
AcDbEntity
  8
0
100
AcDbLine
 62
7
  6
CONTINUOUS
 10
21.4790138229
 20
1.1693297793
 11
21.3159628059
 21
1.1693297793
  0
LINE
  5
232
100
AcDbEntity
  8
0
100
AcDbLine
 62
7
  6
CONTINUOUS
 10
21.2876553377
 20
1.1693297793
 11
21.2502894796
 21
1.1693297793
  0
LINE
  5
233
100
AcDbEntity
  8
0
100
AcDbLine
 62
7
  6
CONTINUOUS
 10
21.2208497126
 20
1.1659328831
 11
21.0713862804
 21
1.1659328831
  0
LINE
  5
234
100
AcDbEntity
  8
0
100
AcDbLine
 62
7
  6
CONTINUOUS
 10
20.4796138713
 20
1.5284908897
 11
20.4766766948
 21
0.9294458646
  0
ENDBLK
  5
235
100
AcDbEntity
  8
0
  6
BYBLOCK
 62
0
100
AcDbBlockEnd
  0
BLOCK
  5
236
100
AcDbEntity
  8
0
100
AcDbBlockBegin
  2
*T1
 70
1
 10
0.0
 20
0.0
  3
*T1
  1

  0
LINE
  5
237
100
AcDbEntity
  8
0
100
AcDbLine
 62
2
  6
CONTINUOUS
 10
9.275
 20
0.0
 11
-0.0
 21
0.0
  0
LINE
  5
238
100
AcDbEntity
  8
0
100
AcDbLine
 62
2
  6
CONTINUOUS
 10
9.275
 20
0.0
 11
9.275
 21
1.25
  0
LINE
  5
239
100
AcDbEntity
  8
0
100
AcDbLine
 62
2
  6
CONTINUOUS
 10
9.275
 20
0.625
 11
-0.0
 21
0.625
  0
LINE
  5
23A
100
AcDbEntity
  8
0
100
AcDbLine
 62
2
  6
CONTINUOUS
 10
9.275
 20
1.25
 11
-0.0
 21
1.25
  0
LINE
  5
23B
100
AcDbEntity
  8
0
100
AcDbLine
 62
2
  6
CONTINUOUS
 10
6.8
 20
0.0
 11
6.8
 21
1.25
  0
LINE
  5
23C
100
AcDbEntity
  8
0
100
AcDbLine
 62
2
  6
CONTINUOUS
 10
6.4
 20
0.0
 11
6.4
 21
0.625
  0
LINE
  5
23D
100
AcDbEntity
  8
0
100
AcDbLine
 62
2
  6
CONTINUOUS
 10
5.9
 20
0.0
 11
5.9
 21
0.625
  0
LINE
  5
23E
100
AcDbEntity
  8
0
100
AcDbLine
 62
2
  6
CONTINUOUS
 10
5.2
 20
0.0
 11
5.2
 21
0.625
  0
LINE
  5
23F
100
AcDbEntity
  8
0
100
AcDbLine
 62
2
  6
CONTINUOUS
 10
4.1
 20
0.0
 11
4.1
 21
1.25
  0
LINE
  5
240
100
AcDbEntity
  8
0
100
AcDbLine
 62
2
  6
CONTINUOUS
 10
-0.0
 20
0.0
 11
-0.0
 21
1.25
  0
MTEXT
  5
241
100
AcDbEntity
  8
0
100
AcDbMText
 62
2
  6
CONTINUOUS
  7
STANDARD
 71
2
 72
1
 10
6.6
 20
0.325
 30
0.0
 11
1.0
 21
0.0
 31
0.0
 44
0.9
  1
2
 40
0.125
 41
0.2
  0
MTEXT
  5
242
100
AcDbEntity
  8
0
100
AcDbMText
 62
2
  6
CONTINUOUS
  7
STANDARD
 71
2
 72
1
 10
6.15
 20
0.325
 30
0.0
 11
1.0
 21
0.0
 31
0.0
 44
0.9
  1
C
 40
0.125
 41
0.2
  0
MTEXT
  5
243
100
AcDbEntity
  8
0
100
AcDbMText
 62
2
  6
CONTINUOUS
  7
STANDARD
 71
2
 72
1
 10
5.55
 20
0.325
 30
0.0
 11
1.0
 21
0.0
 31
0.0
 44
0.9
  1
1.000
 40
0.125
 41
1.0
  0
MTEXT
  5
244
100
AcDbEntity
  8
0
100
AcDbMText
 62
2
  6
CONTINUOUS
  7
STANDARD
 71
2
 72
1
 10
4.65
 20
0.325
 30
0.0
 11
1.0
 21
0.0
 31
0.0
 44
0.9
  1
Sep-02-21
 40
0.125
 41
1.8
  0
MTEXT
  5
245
100
AcDbEntity
  8
0
100
AcDbMText
 62
2
  6
CONTINUOUS
  7
STANDARD
 71
2
 72
1
 10
2.05
 20
0.4625
 30
0.0
 11
1.0
 21
0.0
 31
0.0
 44
0.9
  1
T-22A Line mount\P(See Technical Data for Body Features)
 40
0.125
 41
7.6
  0
MTEXT
  5
246
100
AcDbEntity
  8
0
100
AcDbMText
 62
2
  6
CONTINUOUS
  7
STANDARD
 71
1
 72
1
 10
6.45
 20
0.5625
 30
0.0
 11
1.0
 21
0.0
 31
0.0
 44
0.9
  1
SHEET
 40
0.06
 41
0.48
  0
MTEXT
  5
247
100
AcDbEntity
  8
0
100
AcDbMText
 62
2
  6
CONTINUOUS
  7
STANDARD
 71
1
 72
1
 10
5.95
 20
0.5625
 30
0.0
 11
1.0
 21
0.0
 31
0.0
 44
0.9
  1
DWG SIZE
 40
0.06
 41
0.768
  0
MTEXT
  5
248
100
AcDbEntity
  8
0
100
AcDbMText
 62
2
  6
CONTINUOUS
  7
STANDARD
 71
1
 72
1
 10
5.25
 20
0.5625
 30
0.0
 11
1.0
 21
0.0
 31
0.0
 44
0.9
  1
SCALE
 40
0.06
 41
0.48
  0
MTEXT
  5
249
100
AcDbEntity
  8
0
100
AcDbMText
 62
2
  6
CONTINUOUS
  7
STANDARD
 71
1
 72
1
 10
4.15
 20
0.5625
 30
0.0
 11
1.0
 21
0.0
 31
0.0
 44
0.9
  1
DATE
 40
0.06
 41
0.384
  0
MTEXT
  5
24A
100
AcDbEntity
  8
0
100
AcDbMText
 62
2
  6
CONTINUOUS
  7
STANDARD
 71
1
 72
1
 10
0.05
 20
0.5625
 30
0.0
 11
1.0
 21
0.0
 31
0.0
 44
0.9
  1
DESCRIPTION
 40
0.06
 41
1.056
  0
MTEXT
  5
24B
100
AcDbEntity
  8
0
100
AcDbMText
 62
2
  6
CONTINUOUS
  7
STANDARD
 71
2
 72
1
 10
5.45
 20
1.0375
 30
0.0
 11
1.0
 21
0.0
 31
0.0
 44
0.9
  1
ALL DIMENSIONS IN INCH\PVIEWS ARE THIRD ANGLE
 40
0.12
 41
4.224
  0
MTEXT
  5
24C
100
AcDbEntity
  8
0
100
AcDbMText
 62
2
  6
CONTINUOUS
  7
STANDARD
 71
2
 72
1
 10
2.05
 20
0.95
 30
0.0
 11
1.0
 21
0.0
 31
0.0
 44
0.9
  1
N4K
 40
0.125
 41
0.6
  0
MTEXT
  5
24D
100
AcDbEntity
  8
0
100
AcDbMText
 62
2
  6
CONTINUOUS
  7
STANDARD
 71
1
 72
1
 10
0.05
 20
1.1875
 30
0.0
 11
1.0
 21
0.0
 31
0.0
 44
0.9
  1
MODEL
 40
0.06
 41
0.48
  0
ENDBLK
  5
24E
100
AcDbEntity
  8
0
  6
BYBLOCK
 62
0
100
AcDbBlockEnd
  0
BLOCK
  5
24F
100
AcDbEntity
  8
0
100
AcDbBlockBegin
  2
*T2
 70
1
 10
0.0
 20
0.0
  3
*T2
  1

  0
LINE
  5
250
100
AcDbEntity
  8
0
100
AcDbLine
 62
2
  6
CONTINUOUS
 10
0.0
 20
0.0
 11
9.055
 21
0.0
  0
LINE
  5
251
100
AcDbEntity
  8
0
100
AcDbLine
 62
2
  6
CONTINUOUS
 10
0.0
 20
0.0
 11
0.0
 21
-2.844
  0
LINE
  5
252
100
AcDbEntity
  8
0
100
AcDbLine
 62
2
  6
CONTINUOUS
 10
0.0
 20
-0.344
 11
9.055
 21
-0.344
  0
LINE
  5
253
100
AcDbEntity
  8
0
100
AcDbLine
 62
2
  6
CONTINUOUS
 10
0.0
 20
-0.594
 11
9.055
 21
-0.594
  0
LINE
  5
254
100
AcDbEntity
  8
0
100
AcDbLine
 62
2
  6
CONTINUOUS
 10
0.0
 20
-0.844
 11
9.055
 21
-0.844
  0
LINE
  5
255
100
AcDbEntity
  8
0
100
AcDbLine
 62
2
  6
CONTINUOUS
 10
0.0
 20
-1.094
 11
9.055
 21
-1.094
  0
LINE
  5
256
100
AcDbEntity
  8
0
100
AcDbLine
 62
2
  6
CONTINUOUS
 10
0.0
 20
-1.344
 11
9.055
 21
-1.344
  0
LINE
  5
257
100
AcDbEntity
  8
0
100
AcDbLine
 62
2
  6
CONTINUOUS
 10
0.0
 20
-1.594
 11
9.055
 21
-1.594
  0
LINE
  5
258
100
AcDbEntity
  8
0
100
AcDbLine
 62
2
  6
CONTINUOUS
 10
0.0
 20
-1.844
 11
9.055
 21
-1.844
  0
LINE
  5
259
100
AcDbEntity
  8
0
100
AcDbLine
 62
2
  6
CONTINUOUS
 10
0.0
 20
-2.094
 11
9.055
 21
-2.094
  0
LINE
  5
25A
100
AcDbEntity
  8
0
100
AcDbLine
 62
2
  6
CONTINUOUS
 10
0.0
 20
-2.344
 11
9.055
 21
-2.344
  0
LINE
  5
25B
100
AcDbEntity
  8
0
100
AcDbLine
 62
2
  6
CONTINUOUS
 10
0.0
 20
-2.594
 11
9.055
 21
-2.594
  0
LINE
  5
25C
100
AcDbEntity
  8
0
100
AcDbLine
 62
2
  6
CONTINUOUS
 10
0.0
 20
-2.844
 11
9.055
 21
-2.844
  0
LINE
  5
25D
100
AcDbEntity
  8
0
100
AcDbLine
 62
2
  6
CONTINUOUS
 10
3.055
 20
0.0
 11
3.055
 21
-2.844
  0
LINE
  5
25E
100
AcDbEntity
  8
0
100
AcDbLine
 62
2
  6
CONTINUOUS
 10
9.055
 20
0.0
 11
9.055
 21
-2.844
  0
MTEXT
  5
25F
100
AcDbEntity
  8
0
100
AcDbMText
 62
2
  6
CONTINUOUS
  7
STANDARD
 71
2
 72
1
 10
1.5275
 20
-0.0995
 30
0.0
 11
1.0
 21
0.0
 31
0.0
 44
0.9
  1
Technical Data
 40
0.145
 41
3.248
  0
MTEXT
  5
260
100
AcDbEntity
  8
0
100
AcDbMText
 62
2
  6
CONTINUOUS
  7
STANDARD
 71
2
 72
1
 10
4.555
 20
-0.0995
 30
0.0
 11
1.0
 21
0.0
 31
0.0
 44
0.9
  1
U.S. Units
 40
0.145
 41
2.32
  0
MTEXT
  5
261
100
AcDbEntity
  8
0
100
AcDbMText
 62
2
  6
CONTINUOUS
  7
STANDARD
 71
2
 72
1
 10
7.555
 20
-0.0995
 30
0.0
 11
1.0
 21
0.0
 31
0.0
 44
0.9
  1
Metric Units
 40
0.145
 41
2.784
  0
MTEXT
  5
262
100
AcDbEntity
  8
0
100
AcDbMText
 62
2
  6
CONTINUOUS
  7
STANDARD
 71
2
 72
1
 10
1.5275
 20
-0.4065
 30
0.0
 11
1.0
 21
0.0
 31
0.0
 44
0.9
  1
Cavity
 40
0.125
 41
1.2
  0
MTEXT
  5
263
100
AcDbEntity
  8
0
100
AcDbMText
 62
2
  6
CONTINUOUS
  7
STANDARD
 71
2
 72
1
 10
6.055
 20
-0.4065
 30
0.0
 11
1.0
 21
0.0
 31
0.0
 44
0.9
  1
T-22A
 40
0.125
 41
1.0
  0
MTEXT
  5
264
100
AcDbEntity
  8
0
100
AcDbMText
 62
2
  6
CONTINUOUS
  7
STANDARD
 71
2
 72
1
 10
1.5275
 20
-0.6565
 30
0.0
 11
1.0
 21
0.0
 31
0.0
 44
0.9
  1
Body Features
 40
0.125
 41
2.6
  0
MTEXT
  5
265
100
AcDbEntity
  8
0
100
AcDbMText
 62
2
  6
CONTINUOUS
  7
STANDARD
 71
2
 72
1
 10
6.055
 20
-0.6565
 30
0.0
 11
1.0
 21
0.0
 31
0.0
 44
0.9
  1
Ninety degree with reverse flow check - reducing
 40
0.125
 41
9.6
  0
MTEXT
  5
266
100
AcDbEntity
  8
0
100
AcDbMText
 62
2
  6
CONTINUOUS
  7
STANDARD
 71
2
 72
1
 10
1.5275
 20
-0.9065
 30
0.0
 11
1.0
 21
0.0
 31
0.0
 44
0.9
  1
Body Type
 40
0.125
 41
1.8
  0
MTEXT
  5
267
100
AcDbEntity
  8
0
100
AcDbMText
 62
2
  6
CONTINUOUS
  7
STANDARD
 71
2
 72
1
 10
6.055
 20
-0.9065
 30
0.0
 11
1.0
 21
0.0
 31
0.0
 44
0.9
  1
Line mount
 40
0.125
 41
2.0
  0
MTEXT
  5
268
100
AcDbEntity
  8
0
100
AcDbMText
 62
2
  6
CONTINUOUS
  7
STANDARD
 71
2
 72
1
 10
1.5275
 20
-1.1565
 30
0.0
 11
1.0
 21
0.0
 31
0.0
 44
0.9
  1
Interface
 40
0.125
 41
1.8
  0
MTEXT
  5
269
100
AcDbEntity
  8
0
100
AcDbMText
 62
2
  6
CONTINUOUS
  7
STANDARD
 71
2
 72
1
 10
6.055
 20
-1.1565
 30
0.0
 11
1.0
 21
0.0
 31
0.0
 44
0.9
  1
None
 40
0.125
 41
0.8
  0
MTEXT
  5
26A
100
AcDbEntity
  8
0
100
AcDbMText
 62
2
  6
CONTINUOUS
  7
STANDARD
 71
2
 72
1
 10
1.5275
 20
-1.4065
 30
0.0
 11
1.0
 21
0.0
 31
0.0
 44
0.9
  1
Open Cavity Quantity
 40
0.125
 41
4.0
  0
MTEXT
  5
26B
100
AcDbEntity
  8
0
100
AcDbMText
 62
2
  6
CONTINUOUS
  7
STANDARD
 71
2
 72
1
 10
6.055
 20
-1.4065
 30
0.0
 11
1.0
 21
0.0
 31
0.0
 44
0.9
  1
1
 40
0.125
 41
0.2
  0
MTEXT
  5
26C
100
AcDbEntity
  8
0
100
AcDbMText
 62
2
  6
CONTINUOUS
  7
STANDARD
 71
2
 72
1
 10
1.5275
 20
-1.6565
 30
0.0
 11
1.0
 21
0.0
 31
0.0
 44
0.9
  1
Weight
 40
0.125
 41
1.2
  0
MTEXT
  5
26D
100
AcDbEntity
  8
0
100
AcDbMText
 62
2
  6
CONTINUOUS
  7
STANDARD
 71
2
 72
1
 10
4.555
 20
-1.6565
 30
0.0
 11
1.0
 21
0.0
 31
0.0
 44
0.9
  1
2.321 lb.
 40
0.125
 41
1.8
  0
MTEXT
  5
26E
100
AcDbEntity
  8
0
100
AcDbMText
 62
2
  6
CONTINUOUS
  7
STANDARD
 71
2
 72
1
 10
7.555
 20
-1.6565
 30
0.0
 11
1.0
 21
0.0
 31
0.0
 44
0.9
  1
1,053 kg.
 40
0.125
 41
1.8
  0
MTEXT
  5
26F
100
AcDbEntity
  8
0
100
AcDbMText
 62
2
  6
CONTINUOUS
  7
STANDARD
 71
2
 72
1
 10
1.5275
 20
-1.9065
 30
0.0
 11
1.0
 21
0.0
 31
0.0
 44
0.9
  1
Mounting Hole Diameter
 40
0.125
 41
4.4
  0
MTEXT
  5
270
100
AcDbEntity
  8
0
100
AcDbMText
 62
2
  6
CONTINUOUS
  7
STANDARD
 71
2
 72
1
 10
4.555
 20
-1.9065
 30
0.0
 11
1.0
 21
0.0
 31
0.0
 44
0.9
  1
.41 in.
 40
0.125
 41
1.4
  0
MTEXT
  5
271
100
AcDbEntity
  8
0
100
AcDbMText
 62
2
  6
CONTINUOUS
  7
STANDARD
 71
2
 72
1
 10
7.555
 20
-1.9065
 30
0.0
 11
1.0
 21
0.0
 31
0.0
 44
0.9
  1
10,4 mm
 40
0.125
 41
1.4
  0
MTEXT
  5
272
100
AcDbEntity
  8
0
100
AcDbMText
 62
2
  6
CONTINUOUS
  7
STANDARD
 71
2
 72
1
 10
1.5275
 20
-2.1565
 30
0.0
 11
1.0
 21
0.0
 31
0.0
 44
0.9
  1
Mounting Hole Depth
 40
0.125
 41
3.8
  0
MTEXT
  5
273
100
AcDbEntity
  8
0
100
AcDbMText
 62
2
  6
CONTINUOUS
  7
STANDARD
 71
2
 72
1
 10
6.055
 20
-2.1565
 30
0.0
 11
1.0
 21
0.0
 31
0.0
 44
0.9
  1
Through
 40
0.125
 41
1.4
  0
MTEXT
  5
274
100
AcDbEntity
  8
0
100
AcDbMText
 62
2
  6
CONTINUOUS
  7
STANDARD
 71
2
 72
1
 10
1.5275
 20
-2.4065
 30
0.0
 11
1.0
 21
0.0
 31
0.0
 44
0.9
  1
Mounting Hole Quantity
 40
0.125
 41
4.4
  0
MTEXT
  5
275
100
AcDbEntity
  8
0
100
AcDbMText
 62
2
  6
CONTINUOUS
  7
STANDARD
 71
2
 72
1
 10
6.055
 20
-2.4065
 30
0.0
 11
1.0
 21
0.0
 31
0.0
 44
0.9
  1
2
 40
0.125
 41
0.2
  0
MTEXT
  5
276
100
AcDbEntity
  8
0
100
AcDbMText
 62
2
  6
CONTINUOUS
  7
STANDARD
 71
2
 72
1
 10
1.5275
 20
-2.6565
 30
0.0
 11
1.0
 21
0.0
 31
0.0
 44
0.9
  1
Includes integral cartridge(s)
 40
0.125
 41
6.0
  0
MTEXT
  5
277
100
AcDbEntity
  8
0
100
AcDbMText
 62
2
  6
CONTINUOUS
  7
STANDARD
 71
2
 72
1
 10
6.055
 20
-2.6565
 30
0.0
 11
1.0
 21
0.0
 31
0.0
 44
0.9
  1
Yes (see Included Components)
 40
0.125
 41
5.8
  0
ENDBLK
  5
278
100
AcDbEntity
  8
0
  6
BYBLOCK
 62
0
100
AcDbBlockEnd
  0
BLOCK
  5
279
100
AcDbEntity
  8
0
100
AcDbBlockBegin
  2
*T3
 70
1
 10
0.0
 20
0.0
  3
*T3
  1

  0
LINE
  5
27A
100
AcDbEntity
  8
0
100
AcDbLine
 62
2
  6
CONTINUOUS
 10
0.0
 20
0.0
 11
4.6
 21
0.0
  0
LINE
  5
27B
100
AcDbEntity
  8
0
100
AcDbLine
 62
2
  6
CONTINUOUS
 10
0.0
 20
0.0
 11
0.0
 21
-1.43775
  0
LINE
  5
27C
100
AcDbEntity
  8
0
100
AcDbLine
 62
2
  6
CONTINUOUS
 10
0.0
 20
-0.34375
 11
4.6
 21
-0.34375
  0
LINE
  5
27D
100
AcDbEntity
  8
0
100
AcDbLine
 62
2
  6
CONTINUOUS
 10
0.0
 20
-0.68775
 11
4.6
 21
-0.68775
  0
LINE
  5
27E
100
AcDbEntity
  8
0
100
AcDbLine
 62
2
  6
CONTINUOUS
 10
0.0
 20
-0.93775
 11
4.6
 21
-0.93775
  0
LINE
  5
27F
100
AcDbEntity
  8
0
100
AcDbLine
 62
2
  6
CONTINUOUS
 10
0.0
 20
-1.18775
 11
4.6
 21
-1.18775
  0
LINE
  5
280
100
AcDbEntity
  8
0
100
AcDbLine
 62
2
  6
CONTINUOUS
 10
0.0
 20
-1.43775
 11
4.6
 21
-1.43775
  0
LINE
  5
281
100
AcDbEntity
  8
0
100
AcDbLine
 62
2
  6
CONTINUOUS
 10
1.3
 20
-0.34375
 11
1.3
 21
-1.43775
  0
LINE
  5
282
100
AcDbEntity
  8
0
100
AcDbLine
 62
2
  6
CONTINUOUS
 10
3.3
 20
-0.34375
 11
3.3
 21
-1.43775
  0
LINE
  5
283
100
AcDbEntity
  8
0
100
AcDbLine
 62
2
  6
CONTINUOUS
 10
4.6
 20
0.0
 11
4.6
 21
-1.43775
  0
MTEXT
  5
284
100
AcDbEntity
  8
0
100
AcDbMText
 62
2
  6
CONTINUOUS
  7
STANDARD
 71
2
 72
1
 10
2.3
 20
-0.099375
 30
0.0
 11
1.0
 21
0.0
 31
0.0
 44
0.9
  1
Port Headings
 40
0.145
 41
3.016
  0
MTEXT
  5
285
100
AcDbEntity
  8
0
100
AcDbMText
 62
2
  6
CONTINUOUS
  7
STANDARD
 71
2
 72
1
 10
0.65
 20
-0.44325
 30
0.0
 11
1.0
 21
0.0
 31
0.0
 44
0.9
  1
Product
 40
0.145
 41
1.624
  0
MTEXT
  5
286
100
AcDbEntity
  8
0
100
AcDbMText
 62
2
  6
CONTINUOUS
  7
STANDARD
 71
2
 72
1
 10
2.3
 20
-0.44325
 30
0.0
 11
1.0
 21
0.0
 31
0.0
 44
0.9
  1
Port
 40
0.145
 41
0.928
  0
MTEXT
  5
287
100
AcDbEntity
  8
0
100
AcDbMText
 62
2
  6
CONTINUOUS
  7
STANDARD
 71
2
 72
1
 10
3.95
 20
-0.44325
 30
0.0
 11
1.0
 21
0.0
 31
0.0
 44
0.9
  1
Size
 40
0.145
 41
0.928
  0
MTEXT
  5
288
100
AcDbEntity
  8
0
100
AcDbMText
 62
2
  6
CONTINUOUS
  7
STANDARD
 71
2
 72
1
 10
0.65
 20
-0.75025
 30
0.0
 11
1.0
 21
0.0
 31
0.0
 44
0.9
  1
N4K
 40
0.125
 41
0.6
  0
MTEXT
  5
289
100
AcDbEntity
  8
0
100
AcDbMText
 62
2
  6
CONTINUOUS
  7
STANDARD
 71
2
 72
1
 10
2.3
 20
-0.75025
 30
0.0
 11
1.0
 21
0.0
 31
0.0
 44
0.9
  1
Ports 1, 2, 3
 40
0.125
 41
2.6
  0
MTEXT
  5
28A
100
AcDbEntity
  8
0
100
AcDbMText
 62
2
  6
CONTINUOUS
  7
STANDARD
 71
2
 72
1
 10
3.95
 20
-0.75025
 30
0.0
 11
1.0
 21
0.0
 31
0.0
 44
0.9
  1
SAE 10
 40
0.125
 41
1.2
  0
MTEXT
  5
28B
100
AcDbEntity
  8
0
100
AcDbMText
 62
2
  6
CONTINUOUS
  7
STANDARD
 71
2
 72
1
 10
0.65
 20
-1.00025
 30
0.0
 11
1.0
 21
0.0
 31
0.0
 44
0.9
  1
N4K
 40
0.125
 41
0.6
  0
MTEXT
  5
28C
100
AcDbEntity
  8
0
100
AcDbMText
 62
2
  6
CONTINUOUS
  7
STANDARD
 71
2
 72
1
 10
2.3
 20
-1.00025
 30
0.0
 11
1.0
 21
0.0
 31
0.0
 44
0.9
  1
Port 4
 40
0.125
 41
1.2
  0
MTEXT
  5
28D
100
AcDbEntity
  8
0
100
AcDbMText
 62
2
  6
CONTINUOUS
  7
STANDARD
 71
2
 72
1
 10
3.95
 20
-1.00025
 30
0.0
 11
1.0
 21
0.0
 31
0.0
 44
0.9
  1
SAE 6
 40
0.125
 41
1.0
  0
MTEXT
  5
28E
100
AcDbEntity
  8
0
100
AcDbMText
 62
2
  6
CONTINUOUS
  7
STANDARD
 71
2
 72
1
 10
0.65
 20
-1.25025
 30
0.0
 11
1.0
 21
0.0
 31
0.0
 44
0.9
  1
N4K
 40
0.125
 41
0.6
  0
MTEXT
  5
28F
100
AcDbEntity
  8
0
100
AcDbMText
 62
2
  6
CONTINUOUS
  7
STANDARD
 71
2
 72
1
 10
2.3
 20
-1.25025
 30
0.0
 11
1.0
 21
0.0
 31
0.0
 44
0.9
  1
Gage Port
 40
0.125
 41
1.8
  0
MTEXT
  5
290
100
AcDbEntity
  8
0
100
AcDbMText
 62
2
  6
CONTINUOUS
  7
STANDARD
 71
2
 72
1
 10
3.95
 20
-1.25025
 30
0.0
 11
1.0
 21
0.0
 31
0.0
 44
0.9
  1
1/4" NPTF
 40
0.125
 41
1.8
  0
ENDBLK
  5
291
100
AcDbEntity
  8
0
  6
BYBLOCK
 62
0
100
AcDbBlockEnd
  0
ENDSEC
  0
SECTION
  2
ENTITIES
  0
IMAGE
  5
292
100
AcDbEntity
  8
0
100
AcDbRasterImage
 62
7
  6
CONTINUOUS
 10
19.2297077316
 20
0.3094318264
 30
0.0
 11
0.0066666667
 21
0.0
 31
0.0
 12
0.0
 22
0.0066666667
 32
0.0
 13
369.0
 23
92.0
340
       39F
 70
9
280
0
281
50
282
50
283
0
360
       399
 71
1
 91
2
 14
-0.5
 24
-0.5
 14
368.5
 24
91.5
  0
INSERT
  5
293
100
AcDbEntity
  8
0
100
AcDbBlockReference
 62
2
  6
CONTINUOUS
  2
SUN_FIRST_THIRD_ANGLE_BL0
 10
20.4816717061
 20
1.2289683772
  0
ACAD_TABLE
  5
294
100
AcDbEntity
  8
0
 62
2
  6
CONTINUOUS
100
AcDbBlockReference
  2
*T1
 10
12.42375
 20
0.30125
 30
0.0
100
AcDbTable
342
       3A1
343
20F
 11
1.0
 21
0.0
 31
0.0
 90
6
 91
4
 92
6
 93
20
 94
0
 95
0
 96
0
 70
1
 41
0.0
141
0.525
141
0.1
141
0.525
141
0.1
142
4.1
142
1.1
142
0.7
142
0.5
142
0.4
142
2.475
171
1
172
0
173
0
174
0
175
1
176
1
 91
33
178
0
145
0.0
301
CELL_VALUE
 90
4
  1
T-22A Line mount\P(See Technical Data for Body Features)
304
ACVALUE_END
170
2
140
0.125
171
1
172
0
173
0
174
0
175
1
176
1
 91
33
178
0
145
0.0
301
CELL_VALUE
 90
4
  1
Sep-02-21
304
ACVALUE_END
170
5
140
0.125
171
1
172
0
173
0
174
0
175
1
176
1
 91
33
178
0
145
0.0
301
CELL_VALUE
 90
4
  1
1.000
304
ACVALUE_END
170
5
140
0.125
171
1
172
0
173
0
174
0
175
1
176
1
 91
33
178
0
145
0.0
301
CELL_VALUE
 90
4
  1
C
304
ACVALUE_END
170
5
140
0.125
171
1
172
0
173
0
174
0
175
1
176
1
 91
33
178
0
145
0.0
301
CELL_VALUE
 90
4
  1
2
304
ACVALUE_END
170
5
140
0.125
171
1
172
0
173
0
174
0
175
1
176
1
 91
33
178
0
145
0.0
301
CELL_VALUE
 90
4
  1
 
304
ACVALUE_END
170
1
140
0.125
171
1
172
0
173
0
174
0
175
1
176
1
 91
33
178
0
145
0.0
301
CELL_VALUE
 90
4
  1
DESCRIPTION
304
ACVALUE_END
170
1
140
0.06
171
1
172
0
173
0
174
0
175
1
176
1
 91
33
178
0
145
0.0
301
CELL_VALUE
 90
4
  1
DATE
304
ACVALUE_END
170
1
140
0.06
171
1
172
0
173
0
174
0
175
1
176
1
 91
33
178
0
145
0.0
301
CELL_VALUE
 90
4
  1
SCALE
304
ACVALUE_END
170
1
140
0.06
171
1
172
0
173
0
174
0
175
1
176
1
 91
33
178
0
145
0.0
301
CELL_VALUE
 90
4
  1
DWG SIZE
304
ACVALUE_END
170
1
140
0.06
171
1
172
0
173
0
174
0
175
1
176
1
 91
33
178
0
145
0.0
301
CELL_VALUE
 90
4
  1
SHEET
304
ACVALUE_END
170
1
140
0.06
171
1
172
0
173
0
174
0
175
1
176
1
 91
33
178
0
145
0.0
301
CELL_VALUE
 90
4
  1
 
304
ACVALUE_END
170
1
140
0.125
171
1
172
0
173
0
174
0
175
1
176
1
 91
33
178
0
145
0.0
301
CELL_VALUE
 90
4
  1
N4K
304
ACVALUE_END
170
5
140
0.125
171
1
172
0
173
0
174
0
175
4
176
1
 91
33
178
0
145
0.0
301
CELL_VALUE
 90
4
  1
ALL DIMENSIONS IN INCH\PVIEWS ARE THIRD ANGLE
304
ACVALUE_END
170
5
140
0.12
171
1
172
0
173
1
174
0
175
1
176
1
 91
1
178
0
145
0.0
170
1
171
1
172
0
173
1
174
0
175
1
176
1
 91
1
178
0
145
0.0
170
1
171
1
172
0
173
1
174
0
175
1
176
1
 91
1
178
0
145
0.0
170
5
171
1
172
0
173
0
174
0
175
1
176
1
 91
33
178
0
145
0.0
301
CELL_VALUE
 90
4
  1
 
304
ACVALUE_END
170
1
140
0.125
171
1
172
0
173
0
174
0
175
1
176
1
 91
33
178
0
145
0.0
301
CELL_VALUE
 90
4
  1
MODEL
304
ACVALUE_END
170
1
140
0.06
171
1
172
0
173
0
174
0
175
1
176
1
 91
33
178
0
145
0.0
301
CELL_VALUE
 90
4
  1
 
304
ACVALUE_END
170
1
140
0.125
171
1
172
0
173
0
174
0
175
1
176
1
 91
33
178
0
145
0.0
301
CELL_VALUE
 90
4
  1
 
304
ACVALUE_END
170
1
140
0.125
171
1
172
0
173
0
174
0
175
1
176
1
 91
33
178
0
145
0.0
301
CELL_VALUE
 90
4
  1
 
304
ACVALUE_END
170
1
140
0.125
171
1
172
0
173
0
174
0
175
1
176
1
 91
33
178
0
145
0.0
301
CELL_VALUE
 90
4
  1
 
304
ACVALUE_END
170
1
140
0.125
171
1
172
0
173
0
174
0
175
1
176
1
 91
33
178
0
145
0.0
301
CELL_VALUE
 90
4
  1
 
304
ACVALUE_END
170
1
140
0.125
  0
ACAD_TABLE
  5
295
100
AcDbEntity
  8
0
 62
2
  6
CONTINUOUS
100
AcDbBlockReference
  2
*T2
 10
12.4237499994
 20
16.47875
 30
0.0
100
AcDbTable
342
       3A0
343
210
 11
1.0
 21
0.0
 31
0.0
 90
22
 91
11
 92
3
 93
16
 94
0
 95
0
 96
0
 41
0.028
141
0.344
141
0.25
141
0.25
141
0.25
141
0.25
141
0.25
141
0.25
141
0.25
141
0.25
141
0.25
141
0.25
142
3.055
142
3.0
142
3.0
171
1
172
0
173
0
174
0
175
1
176
1
 91
33
178
0
145
0.0
301
CELL_VALUE
 90
4
  1
Technical Data
304
ACVALUE_END
170
5
140
0.145
171
1
172
0
173
0
174
0
175
1
176
1
 91
33
178
0
145
0.0
301
CELL_VALUE
 90
4
  1
U.S. Units
304
ACVALUE_END
170
5
140
0.145
171
1
172
0
173
0
174
0
175
1
176
1
 91
33
178
0
145
0.0
301
CELL_VALUE
 90
4
  1
Metric Units
304
ACVALUE_END
170
5
140
0.145
171
1
172
0
173
0
174
0
175
1
176
1
 91
33
178
0
145
0.0
301
CELL_VALUE
 90
4
  1
Cavity
304
ACVALUE_END
170
5
140
0.125
171
1
172
0
173
0
174
0
175
2
176
1
 91
33
178
0
145
0.0
301
CELL_VALUE
 90
4
  1
T-22A
304
ACVALUE_END
170
5
140
0.125
171
1
172
0
173
1
174
0
175
1
176
1
 91
1
178
0
145
0.0
170
1
171
1
172
0
173
0
174
0
175
1
176
1
 91
33
178
0
145
0.0
301
CELL_VALUE
 90
4
  1
Body Features
304
ACVALUE_END
170
5
140
0.125
171
1
172
0
173
0
174
0
175
2
176
1
 91
33
178
0
145
0.0
301
CELL_VALUE
 90
4
  1
Ninety degree with reverse flow check - reducing
304
ACVALUE_END
170
5
140
0.125
171
1
172
0
173
1
174
0
175
1
176
1
 91
1
178
0
145
0.0
170
1
171
1
172
0
173
0
174
0
175
1
176
1
 91
33
178
0
145
0.0
301
CELL_VALUE
 90
4
  1
Body Type
304
ACVALUE_END
170
5
140
0.125
171
1
172
0
173
0
174
0
175
2
176
1
 91
33
178
0
145
0.0
301
CELL_VALUE
 90
4
  1
Line mount
304
ACVALUE_END
170
5
140
0.125
171
1
172
0
173
1
174
0
175
1
176
1
 91
1
178
0
145
0.0
170
1
171
1
172
0
173
0
174
0
175
1
176
1
 91
33
178
0
145
0.0
301
CELL_VALUE
 90
4
  1
Interface
304
ACVALUE_END
170
5
140
0.125
171
1
172
0
173
0
174
0
175
2
176
1
 91
33
178
0
145
0.0
301
CELL_VALUE
 90
4
  1
None
304
ACVALUE_END
170
5
140
0.125
171
1
172
0
173
1
174
0
175
1
176
1
 91
1
178
0
145
0.0
170
1
171
1
172
0
173
0
174
0
175
1
176
1
 91
33
178
0
145
0.0
301
CELL_VALUE
 90
4
  1
Open Cavity Quantity
304
ACVALUE_END
170
5
140
0.125
171
1
172
0
173
0
174
0
175
2
176
1
 91
33
178
0
145
0.0
301
CELL_VALUE
 90
4
  1
1
304
ACVALUE_END
170
5
140
0.125
171
1
172
0
173
1
174
0
175
1
176
1
 91
1
178
0
145
0.0
170
1
171
1
172
0
173
0
174
0
175
1
176
1
 91
33
178
0
145
0.0
301
CELL_VALUE
 90
4
  1
Weight
304
ACVALUE_END
170
5
140
0.125
171
1
172
0
173
0
174
0
175
1
176
1
 91
33
178
0
145
0.0
301
CELL_VALUE
 90
4
  1
2.321 lb.
304
ACVALUE_END
170
5
140
0.125
171
1
172
0
173
0
174
0
175
1
176
1
 91
33
178
0
145
0.0
301
CELL_VALUE
 90
4
  1
1,053 kg.
304
ACVALUE_END
170
5
140
0.125
171
1
172
0
173
0
174
0
175
1
176
1
 91
33
178
0
145
0.0
301
CELL_VALUE
 90
4
  1
Mounting Hole Diameter
304
ACVALUE_END
170
5
140
0.125
171
1
172
0
173
0
174
0
175
1
176
1
 91
33
178
0
145
0.0
301
CELL_VALUE
 90
4
  1
.41 in.
304
ACVALUE_END
170
5
140
0.125
171
1
172
0
173
0
174
0
175
1
176
1
 91
33
178
0
145
0.0
301
CELL_VALUE
 90
4
  1
10,4 mm
304
ACVALUE_END
170
5
140
0.125
171
1
172
0
173
0
174
0
175
1
176
1
 91
33
178
0
145
0.0
301
CELL_VALUE
 90
4
  1
Mounting Hole Depth
304
ACVALUE_END
170
5
140
0.125
171
1
172
0
173
0
174
0
175
2
176
1
 91
33
178
0
145
0.0
301
CELL_VALUE
 90
4
  1
Through
304
ACVALUE_END
170
5
140
0.125
171
1
172
0
173
1
174
0
175
1
176
1
 91
1
178
0
145
0.0
170
1
171
1
172
0
173
0
174
0
175
1
176
1
 91
33
178
0
145
0.0
301
CELL_VALUE
 90
4
  1
Mounting Hole Quantity
304
ACVALUE_END
170
5
140
0.125
171
1
172
0
173
0
174
0
175
2
176
1
 91
33
178
0
145
0.0
301
CELL_VALUE
 90
4
  1
2
304
ACVALUE_END
170
5
140
0.125
171
1
172
0
173
1
174
0
175
1
176
1
 91
1
178
0
145
0.0
170
1
171
1
172
0
173
0
174
0
175
1
176
1
 91
33
178
0
145
0.0
301
CELL_VALUE
 90
4
  1
Includes integral cartridge(s)
304
ACVALUE_END
170
5
140
0.125
171
1
172
0
173
0
174
0
175
2
176
1
 91
33
178
0
145
0.0
301
CELL_VALUE
 90
4
  1
Yes (see Included Components)
304
ACVALUE_END
170
5
140
0.125
171
1
172
0
173
1
174
0
175
1
176
1
 91
1
178
0
145
0.0
170
1
  0
ACAD_TABLE
  5
296
100
AcDbEntity
  8
0
 62
2
  6
CONTINUOUS
100
AcDbBlockReference
  2
*T3
 10
0.52125
 20
1.959
 30
0.0
100
AcDbTable
342
       3A0
343
211
 11
1.0
 21
0.0
 31
0.0
 90
22
 91
5
 92
3
 93
16
 94
0
 95
0
 96
0
 41
0.05
141
0.34375
141
0.344
141
0.25
141
0.25
141
0.25
142
1.3
142
2.0
142
1.3
171
1
172
0
173
0
174
0
175
3
176
1
 91
33
178
0
145
0.0
301
CELL_VALUE
 90
4
  1
Port Headings
304
ACVALUE_END
170
5
140
0.145
171
1
172
0
173
1
174
0
175
1
176
1
 91
1
178
0
145
0.0
170
1
171
1
172
0
173
1
174
0
175
1
176
1
 91
1
178
0
145
0.0
170
1
171
1
172
0
173
0
174
0
175
1
176
1
 91
33
178
0
145
0.0
301
CELL_VALUE
 90
4
  1
Product
304
ACVALUE_END
170
5
140
0.145
171
1
172
0
173
0
174
0
175
1
176
1
 91
33
178
0
145
0.0
301
CELL_VALUE
 90
4
  1
Port
304
ACVALUE_END
170
5
140
0.145
171
1
172
0
173
0
174
0
175
1
176
1
 91
33
178
0
145
0.0
301
CELL_VALUE
 90
4
  1
Size
304
ACVALUE_END
170
5
140
0.145
171
1
172
0
173
0
174
0
175
1
176
1
 91
33
178
0
145
0.0
301
CELL_VALUE
 90
4
  1
N4K
304
ACVALUE_END
170
5
140
0.125
171
1
172
0
173
0
174
0
175
1
176
1
 91
33
178
0
145
0.0
301
CELL_VALUE
 90
4
  1
Ports 1, 2, 3
304
ACVALUE_END
170
5
140
0.125
171
1
172
0
173
0
174
0
175
1
176
1
 91
33
178
0
145
0.0
301
CELL_VALUE
 90
4
  1
SAE 10
304
ACVALUE_END
170
5
140
0.125
171
1
172
0
173
0
174
0
175
1
176
1
 91
33
178
0
145
0.0
301
CELL_VALUE
 90
4
  1
N4K
304
ACVALUE_END
170
5
140
0.125
171
1
172
0
173
0
174
0
175
1
176
1
 91
33
178
0
145
0.0
301
CELL_VALUE
 90
4
  1
Port 4
304
ACVALUE_END
170
5
140
0.125
171
1
172
0
173
0
174
0
175
1
176
1
 91
33
178
0
145
0.0
301
CELL_VALUE
 90
4
  1
SAE 6
304
ACVALUE_END
170
5
140
0.125
171
1
172
0
173
0
174
0
175
1
176
1
 91
33
178
0
145
0.0
301
CELL_VALUE
 90
4
  1
N4K
304
ACVALUE_END
170
5
140
0.125
171
1
172
0
173
0
174
0
175
1
176
1
 91
33
178
0
145
0.0
301
CELL_VALUE
 90
4
  1
Gage Port
304
ACVALUE_END
170
5
140
0.125
171
1
172
0
173
0
174
0
175
1
176
1
 91
33
178
0
145
0.0
301
CELL_VALUE
 90
4
  1
1/4" NPTF
304
ACVALUE_END
170
5
140
0.125
  0
MTEXT
  5
297
100
AcDbEntity
  8
0
100
AcDbMText
 62
2
  6
CONTINUOUS
  7
STANDARD
 71
1
 72
1
 10
0.52125
 20
5.75995
 30
0.0
 11
1.0
 21
0.0
 31
0.0
 44
0.6
  3
Notes\P \P1. Important: Carefully consider\P   the maximum system pressure. The\P   pressure rating of the manifold is\P   dependent on the manifold material,\P   with the port type/size a secondary\P   consideration. Manifolds\P   constructed of alu
  1
minum are not\P   rated for pressures higher than\P   3000 psi (210 bar), regardless of\P   the port type/size specified.
 40
0.1
 41
3.04
  0
LINE
  5
298
100
AcDbEntity
  8
0
100
AcDbLine
 62
7
  6
CONTINUOUS
 10
0.30125
 20
0.30125
 11
0.30125
 21
16.69875
  0
LINE
  5
299
100
AcDbEntity
  8
0
100
AcDbLine
 62
7
  6
CONTINUOUS
 10
0.30125
 20
0.30125
 11
21.69875
 21
0.30125
  0
LINE
  5
29A
100
AcDbEntity
  8
0
100
AcDbLine
 62
7
  6
CONTINUOUS
 10
0.30125
 20
16.69875
 11
21.69875
 21
16.69875
  0
LINE
  5
29B
100
AcDbEntity
  8
0
100
AcDbLine
 62
7
  6
CONTINUOUS
 10
21.69875
 20
0.30125
 11
21.69875
 21
16.69875
  0
LINE
  5
29C
100
AcDbEntity
  8
0
100
AcDbLine
 62
7
  6
CONTINUOUS
 10
9.2622623566
 20
11.2107129552
 11
8.8740341093
 21
10.8357132424
  0
LINE
  5
29D
100
AcDbEntity
  8
0
100
AcDbLine
 62
4
  6
CONTINUOUS
 10
9.1126178363
 20
9.8822193511
 11
9.1053733923
 21
9.8730624987
  0
LINE
  5
29E
100
AcDbEntity
  8
0
100
AcDbLine
 62
4
  6
CONTINUOUS
 10
9.1198622802
 20
9.8237613955
 11
9.1053733923
 21
9.8054476863
  0
LINE
  5
29F
100
AcDbEntity
  8
0
100
AcDbLine
 62
7
  6
CONTINUOUS
 10
8.8740341093
 20
6.4890467666
 11
8.8740341093
 21
10.8357132424
  0
LINE
  5
2A0
100
AcDbEntity
  8
0
100
AcDbLine
 62
4
  6
CONTINUOUS
 10
9.0619067285
 20
9.9050546979
 11
9.0763956164
 21
9.9137091464
  0
LINE
  5
2A1
100
AcDbEntity
  8
0
100
AcDbLine
 62
4
  6
CONTINUOUS
 10
9.1053733923
 20
9.8730624987
 11
9.0908845044
 21
9.8644080432
  0
LINE
  5
2A2
100
AcDbEntity
  8
0
100
AcDbLine
 62
4
  6
CONTINUOUS
 10
9.1053733923
 20
9.8054476863
 11
9.0908845044
 21
9.7967932352
  0
LINE
  5
2A3
100
AcDbEntity
  8
0
100
AcDbLine
 62
7
  6
CONTINUOUS
 10
8.8740341093
 20
6.4890467666
 11
12.7377376434
 21
6.2210980164
  0
LINE
  5
2A4
100
AcDbEntity
  8
0
100
AcDbLine
 62
7
  6
CONTINUOUS
 10
11.4550988838
 20
5.8755624202
 11
11.4743167732
 21
5.8660691508
  0
LINE
  5
2A5
100
AcDbEntity
  8
0
100
AcDbLine
 62
4
  6
CONTINUOUS
 10
9.1126178363
 20
9.8918786074
 11
9.1126178363
 21
9.8822193511
  0
LINE
  5
2A6
100
AcDbEntity
  8
0
100
AcDbLine
 62
4
  6
CONTINUOUS
 10
9.1126178363
 20
7.6122934136
 11
9.1126178363
 21
7.4963823102
  0
LINE
  5
2A7
100
AcDbEntity
  8
0
100
AcDbLine
 62
4
  6
CONTINUOUS
 10
9.1198622802
 20
9.8334206552
 11
9.1198622802
 21
9.8237613955
  0
LINE
  5
2A8
100
AcDbEntity
  8
0
100
AcDbLine
 62
7
  6
CONTINUOUS
 10
11.2646636921
 20
10.8708842343
 11
11.26304458
 21
10.8693495424
  0
LINE
  5
2A9
100
AcDbEntity
  8
0
100
AcDbLine
 62
4
  6
CONTINUOUS
 10
11.1782502634
 20
7.325118437
 11
11.1637613755
 21
7.3261232448
  0
LINE
  5
2AA
100
AcDbEntity
  8
0
100
AcDbLine
 62
4
  6
CONTINUOUS
 10
10.1476765157
 20
9.1273901179
 11
10.1642352455
 21
9.1428004942
  0
LINE
  5
2AB
100
AcDbEntity
  8
0
100
AcDbLine
 62
4
  6
CONTINUOUS
 10
10.1890733393
 20
9.0251668631
 11
10.2056320674
 21
9.0405772412
  0
LINE
  5
2AC
100
AcDbEntity
  8
0
100
AcDbLine
 62
4
  6
CONTINUOUS
 10
11.1710058194
 20
7.3835763926
 11
11.1999835953
 21
7.381566777
  0
LINE
  5
2AD
100
AcDbEntity
  8
0
100
AcDbLine
 62
4
  6
CONTINUOUS
 10
11.1637613755
 20
7.4420343482
 11
11.1782502634
 21
7.4410295404
  0
LINE
  5
2AE
100
AcDbEntity
  8
0
100
AcDbLine
 62
4
  6
CONTINUOUS
 10
10.1476765157
 20
9.1108313898
 11
10.1476765157
 21
9.1273901179
  0
LINE
  5
2AF
100
AcDbEntity
  8
0
100
AcDbLine
 62
4
  6
CONTINUOUS
 10
10.2056320674
 20
9.0405772412
 11
10.2056320674
 21
9.057135971
  0
LINE
  5
2B0
100
AcDbEntity
  8
0
100
AcDbLine
 62
4
  6
CONTINUOUS
 10
10.2387495236
 20
9.1376329114
 11
10.2387495236
 21
9.0382805378
  0
LINE
  5
2B1
100
AcDbEntity
  8
0
100
AcDbLine
 62
4
  6
CONTINUOUS
 10
10.274626784
 20
8.428087084
 11
10.274626784
 21
8.5439981875
  0
LINE
  5
2B2
100
AcDbEntity
  8
0
100
AcDbLine
 62
4
  6
CONTINUOUS
 10
10.2967050753
 20
9.0342613066
 11
10.2967050753
 21
9.1336136803
  0
LINE
  5
2B3
100
AcDbEntity
  8
0
100
AcDbLine
 62
4
  6
CONTINUOUS
 10
10.3298225314
 20
9.0154058735
 11
10.3298225314
 21
9.1313169769
  0
LINE
  5
2B4
100
AcDbEntity
  8
0
100
AcDbLine
 62
4
  6
CONTINUOUS
 10
10.3325823288
 20
8.5234202287
 11
10.3325823288
 21
8.4406265831
  0
LINE
  5
2B5
100
AcDbEntity
  8
0
100
AcDbLine
 62
4
  6
CONTINUOUS
 10
10.2801463541
 20
9.018850928
 11
10.2967050753
 21
9.0342613066
  0
LINE
  5
2B6
100
AcDbEntity
  8
0
100
AcDbLine
 62
4
  6
CONTINUOUS
 10
11.1637613755
 20
7.3261232448
 11
11.1492724875
 21
7.3367873115
  0
LINE
  5
2B7
100
AcDbEntity
  8
0
100
AcDbLine
 62
4
  6
CONTINUOUS
 10
11.1782502634
 20
7.4410295404
 11
11.1927391513
 21
7.4303654763
  0
LINE
  5
2B8
100
AcDbEntity
  8
0
100
AcDbLine
 62
4
  6
CONTINUOUS
 10
9.0619067285
 20
9.8084621097
 11
9.0546622846
 21
9.8186237725
  0
LINE
  5
2B9
100
AcDbEntity
  8
0
100
AcDbLine
 62
4
  6
CONTINUOUS
 10
9.1053733923
 20
9.8537439791
 11
9.1198622802
 21
9.8334206552
  0
LINE
  5
2BA
100
AcDbEntity
  8
0
100
AcDbLine
 62
4
  6
CONTINUOUS
 10
9.1053733923
 20
9.9020402745
 11
9.1126178363
 21
9.8918786074
  0
LINE
  5
2BB
100
AcDbEntity
  8
0
100
AcDbLine
 62
4
  6
CONTINUOUS
 10
10.3877780831
 20
9.0113866423
 11
10.3877780831
 21
9.1272977457
  0
LINE
  5
2BC
100
AcDbEntity
  8
0
100
AcDbLine
 62
4
  6
CONTINUOUS
 10
10.5119685471
 20
9.0027740044
 11
10.5119685471
 21
9.1186851078
  0
LINE
  5
2BD
100
AcDbEntity
  8
0
100
AcDbLine
 62
4
  6
CONTINUOUS
 10
10.5119685669
 20
8.4116273755
 11
10.5119685669
 21
8.5275384789
  0
LINE
  5
2BE
100
AcDbEntity
  8
0
100
AcDbLine
 62
4
  6
CONTINUOUS
 10
10.5616447383
 20
9.0738432286
 11
10.5616447383
 21
8.9993289488
  0
LINE
  5
2BF
100
AcDbEntity
  8
0
100
AcDbLine
 62
4
  6
CONTINUOUS
 10
10.5699241083
 20
8.6626125726
 11
10.5699241083
 21
8.778523676
  0
LINE
  5
2C0
100
AcDbEntity
  8
0
100
AcDbLine
 62
4
  6
CONTINUOUS
 10
10.3794987285
 20
8.42081419
 11
10.4126161847
 21
8.53442859
  0
LINE
  5
2C1
100
AcDbEntity
  8
0
100
AcDbLine
 62
4
  6
CONTINUOUS
 10
10.6113209294
 20
8.9682860114
 11
10.6444383717
 21
9.0763808381
  0
LINE
  5
2C2
100
AcDbEntity
  8
0
100
AcDbLine
 62
4
  6
CONTINUOUS
 10
10.6665167035
 20
9.0665703331
 11
10.6830754246
 21
9.0737013494
  0
LINE
  5
2C3
100
AcDbEntity
  8
0
100
AcDbLine
 62
4
  6
CONTINUOUS
 10
10.8238246375
 20
9.0142641706
 11
10.8403833586
 21
9.0213951835
  0
LINE
  5
2C4
100
AcDbEntity
  8
0
100
AcDbLine
 62
4
  6
CONTINUOUS
 10
10.3160236008
 20
8.5411273085
 11
10.3325823288
 21
8.5234202287
  0
LINE
  5
2C5
100
AcDbEntity
  8
0
100
AcDbLine
 62
4
  6
CONTINUOUS
 10
11.1492724875
 20
7.3367873115
 11
11.1347835996
 21
7.3571106362
  0
LINE
  5
2C6
100
AcDbEntity
  8
0
100
AcDbLine
 62
4
  6
CONTINUOUS
 10
11.1927391513
 20
7.4303654763
 11
11.1999835953
 21
7.4202038092
  0
LINE
  5
2C7
100
AcDbEntity
  8
0
100
AcDbLine
 62
4
  6
CONTINUOUS
 10
10.4126161847
 20
8.53442859
 11
10.4457336546
 21
8.4162207823
  0
LINE
  5
2C8
100
AcDbEntity
  8
0
100
AcDbLine
 62
4
  6
CONTINUOUS
 10
10.5782034792
 20
8.4070339687
 11
10.5782034792
 21
8.5229450721
  0
LINE
  5
2C9
100
AcDbEntity
  8
0
100
AcDbLine
 62
4
  6
CONTINUOUS
 10
10.62787966
 20
8.6585933414
 11
10.62787966
 21
8.7745044449
  0
LINE
  5
2CA
100
AcDbEntity
  8
0
100
AcDbLine
 62
4
  6
CONTINUOUS
 10
10.6665167035
 20
9.0003354182
 11
10.6665167035
 21
9.0665703331
  0
LINE
  5
2CB
100
AcDbEntity
  8
0
100
AcDbLine
 62
4
  6
CONTINUOUS
 10
10.6996341552
 20
8.6536171503
 11
10.6996341552
 21
8.711572702
  0
LINE
  5
2CC
100
AcDbEntity
  8
0
100
AcDbLine
 62
4
  6
CONTINUOUS
 10
10.716192867
 20
9.1045221031
 11
10.716192867
 21
8.9886109997
  0
LINE
  5
2CD
100
AcDbEntity
  8
0
100
AcDbLine
 62
4
  6
CONTINUOUS
 10
10.7493103646
 20
8.9863142934
 11
10.7493103646
 21
9.0691079407
  0
LINE
  5
2CE
100
AcDbEntity
  8
0
100
AcDbLine
 62
4
  6
CONTINUOUS
 10
10.752070124
 20
8.6499807035
 11
10.752070124
 21
8.7658918069
  0
LINE
  5
2CF
100
AcDbEntity
  8
0
100
AcDbLine
 62
4
  6
CONTINUOUS
 10
10.752070162
 20
8.4115350031
 11
10.752070162
 21
8.4943286487
  0
LINE
  5
2D0
100
AcDbEntity
  8
0
100
AcDbLine
 62
4
  6
CONTINUOUS
 10
10.7879473622
 20
9.0581490883
 11
10.7879473622
 21
9.0415903602
  0
LINE
  5
2D1
100
AcDbEntity
  8
0
100
AcDbLine
 62
4
  6
CONTINUOUS
 10
10.6609971162
 20
8.6811347319
 11
10.6858352117
 21
8.7704852137
  0
LINE
  5
2D2
100
AcDbEntity
  8
0
100
AcDbLine
 62
4
  6
CONTINUOUS
 10
10.752070124
 20
8.6886177391
 11
10.8100256757
 21
8.7618725758
  0
LINE
  5
2D3
100
AcDbEntity
  8
0
100
AcDbLine
 62
7
  6
CONTINUOUS
 10
12.7377376434
 20
10.5677644923
 11
13.1259658907
 21
10.942764205
  0
LINE
  5
2D4
100
AcDbEntity
  8
0
100
AcDbLine
 62
4
  6
CONTINUOUS
 10
10.3325823288
 20
8.4406265831
 11
10.3160236008
 21
8.425216205
  0
LINE
  5
2D5
100
AcDbEntity
  8
0
100
AcDbLine
 62
4
  6
CONTINUOUS
 10
11.1080827855
 20
9.0359476213
 11
11.1163621184
 21
9.0436528151
  0
LINE
  5
2D6
100
AcDbEntity
  8
0
100
AcDbLine
 62
4
  6
CONTINUOUS
 10
11.1825971136
 20
9.0307800351
 11
11.1908764466
 21
9.0384852289
  0
LINE
  5
2D7
100
AcDbEntity
  8
0
100
AcDbLine
 62
4
  6
CONTINUOUS
 10
10.2525484765
 20
8.5013727151
 11
10.2083918648
 21
8.482356679
  0
LINE
  5
2D8
100
AcDbEntity
  8
0
100
AcDbLine
 62
4
  6
CONTINUOUS
 10
10.2083918648
 20
8.482356679
 11
10.2525484765
 21
8.4572161017
  0
LINE
  5
2D9
100
AcDbEntity
  8
0
100
AcDbLine
 62
4
  6
CONTINUOUS
 10
10.1476765157
 20
9.0363171074
 11
10.1559558806
 21
9.0274635666
  0
LINE
  5
2DA
100
AcDbEntity
  8
0
100
AcDbLine
 62
4
  6
CONTINUOUS
 10
10.7686288832
 20
8.3938279221
 11
10.752070162
 21
8.4115350031
  0
LINE
  5
2DB
100
AcDbEntity
  8
0
100
AcDbLine
 62
4
  6
CONTINUOUS
 10
10.3298225314
 20
9.1313169769
 11
10.3877780831
 21
9.0113866423
  0
LINE
  5
2DC
100
AcDbEntity
  8
0
100
AcDbLine
 62
4
  6
CONTINUOUS
 10
10.5699241083
 20
8.778523676
 11
10.62787966
 21
8.6585933414
  0
LINE
  5
2DD
100
AcDbEntity
  8
0
100
AcDbLine
 62
4
  6
CONTINUOUS
 10
10.5947622082
 20
9.0798258917
 11
10.6196003176
 21
8.9953097157
  0
LINE
  5
2DE
100
AcDbEntity
  8
0
100
AcDbLine
 62
4
  6
CONTINUOUS
 10
10.8238246375
 20
8.9894260759
 11
10.8238246375
 21
9.0142641706
  0
LINE
  5
2DF
100
AcDbEntity
  8
0
100
AcDbLine
 62
4
  6
CONTINUOUS
 10
10.8486627114
 20
8.4048362871
 11
10.8486627114
 21
8.4876299326
  0
LINE
  5
2E0
100
AcDbEntity
  8
0
100
AcDbLine
 62
4
  6
CONTINUOUS
 10
10.873500801
 20
8.9777016574
 11
10.873500801
 21
9.0439365766
  0
LINE
  5
2E1
100
AcDbEntity
  8
0
100
AcDbLine
 62
4
  6
CONTINUOUS
 10
10.9066182433
 20
9.0581986023
 11
10.9066182433
 21
8.9836843199
  0
LINE
  5
2E2
100
AcDbEntity
  8
0
100
AcDbLine
 62
4
  6
CONTINUOUS
 10
10.9066182631
 20
8.4836107015
 11
10.9066182631
 21
8.4008170559
  0
LINE
  5
2E3
100
AcDbEntity
  8
0
100
AcDbLine
 62
4
  6
CONTINUOUS
 10
10.9397357054
 20
8.3819616237
 11
10.9397357054
 21
8.4978727271
  0
LINE
  5
2E4
100
AcDbEntity
  8
0
100
AcDbLine
 62
4
  6
CONTINUOUS
 10
10.9562944621
 20
8.9719598975
 11
10.9562944621
 21
9.0547535448
  0
LINE
  5
2E5
100
AcDbEntity
  8
0
100
AcDbLine
 62
4
  6
CONTINUOUS
 10
10.9894119044
 20
8.97794256
 11
10.9894119044
 21
9.0855742985
  0
LINE
  5
2E6
100
AcDbEntity
  8
0
100
AcDbLine
 62
4
  6
CONTINUOUS
 10
10.9976912571
 20
8.4772947679
 11
10.9976912571
 21
8.3945011223
  0
LINE
  5
2E7
100
AcDbEntity
  8
0
100
AcDbLine
 62
4
  6
CONTINUOUS
 10
11.0666859549
 20
9.0802153249
 11
11.0639261773
 21
9.0721273486
  0
LINE
  5
2E8
100
AcDbEntity
  8
0
100
AcDbLine
 62
4
  6
CONTINUOUS
 10
11.2239938889
 20
8.9533948792
 11
11.2322732219
 21
8.9611000704
  0
LINE
  5
2E9
100
AcDbEntity
  8
0
100
AcDbLine
 62
4
  6
CONTINUOUS
 10
10.752070162
 20
8.4943286487
 11
10.7686288832
 21
8.5097390255
  0
LINE
  5
2EA
100
AcDbEntity
  8
0
100
AcDbLine
 62
4
  6
CONTINUOUS
 10
10.8486627114
 20
8.4876299326
 11
10.8652214325
 21
8.5030403095
  0
LINE
  5
2EB
100
AcDbEntity
  8
0
100
AcDbLine
 62
4
  6
CONTINUOUS
 10
10.9066182631
 20
8.4008170559
 11
10.8900595419
 21
8.3854066773
  0
LINE
  5
2EC
100
AcDbEntity
  8
0
100
AcDbLine
 62
4
  6
CONTINUOUS
 10
10.981132536
 20
8.3790907437
 11
10.9397357054
 21
8.3819616237
  0
LINE
  5
2ED
100
AcDbEntity
  8
0
100
AcDbLine
 62
4
  6
CONTINUOUS
 10
10.8900595419
 20
8.3854066773
 11
10.8652214325
 21
8.387129206
  0
LINE
  5
2EE
100
AcDbEntity
  8
0
100
AcDbLine
 62
4
  6
CONTINUOUS
 10
10.8017463255
 20
8.3915312197
 11
10.7686288832
 21
8.3938279221
  0
LINE
  5
2EF
100
AcDbEntity
  8
0
100
AcDbLine
 62
4
  6
CONTINUOUS
 10
10.3160236008
 20
8.425216205
 11
10.274626784
 21
8.428087084
  0
LINE
  5
2F0
100
AcDbEntity
  8
0
100
AcDbLine
 62
4
  6
CONTINUOUS
 10
10.5782034792
 20
8.4070339687
 11
10.6278796704
 21
8.4035889132
  0
LINE
  5
2F1
100
AcDbEntity
  8
0
100
AcDbLine
 62
4
  6
CONTINUOUS
 10
11.0446076982
 20
8.3746887263
 11
11.0942838617
 21
8.3712436726
  0
LINE
  5
2F2
100
AcDbEntity
  8
0
100
AcDbLine
 62
4
  6
CONTINUOUS
 10
10.3905378806
 20
8.4531660818
 11
10.4346944888
 21
8.4501038106
  0
LINE
  5
2F3
100
AcDbEntity
  8
0
100
AcDbLine
 62
4
  6
CONTINUOUS
 10
11.0777251406
 20
8.438626943
 11
11.0446076982
 21
8.4409236455
  0
LINE
  5
2F4
100
AcDbEntity
  8
0
100
AcDbLine
 62
4
  6
CONTINUOUS
 10
10.6113209492
 20
8.4709721836
 11
10.5782034792
 21
8.4732688879
  0
LINE
  5
2F5
100
AcDbEntity
  8
0
100
AcDbLine
 62
4
  6
CONTINUOUS
 10
10.274626784
 20
8.5439981875
 11
10.3160236008
 21
8.5411273085
  0
LINE
  5
2F6
100
AcDbEntity
  8
0
100
AcDbLine
 62
4
  6
CONTINUOUS
 10
10.478851097
 20
8.5298351833
 11
10.5450860093
 21
8.5252417765
  0
LINE
  5
2F7
100
AcDbEntity
  8
0
100
AcDbLine
 62
4
  6
CONTINUOUS
 10
10.5782034792
 20
8.5229450721
 11
10.6278796704
 21
8.5195000166
  0
LINE
  5
2F8
100
AcDbEntity
  8
0
100
AcDbLine
 62
4
  6
CONTINUOUS
 10
10.7686288832
 20
8.5097390255
 11
10.8017463255
 21
8.5074423231
  0
LINE
  5
2F9
100
AcDbEntity
  8
0
100
AcDbLine
 62
4
  6
CONTINUOUS
 10
10.8652214325
 20
8.5030403095
 11
10.8900595419
 21
8.5013177807
  0
LINE
  5
2FA
100
AcDbEntity
  8
0
100
AcDbLine
 62
4
  6
CONTINUOUS
 10
10.9397357054
 20
8.4978727271
 11
10.981132536
 21
8.4950018472
  0
LINE
  5
2FB
100
AcDbEntity
  8
0
100
AcDbLine
 62
4
  6
CONTINUOUS
 10
11.0446076982
 20
8.4905998297
 11
11.0942838617
 21
8.4871547761
  0
LINE
  5
2FC
100
AcDbEntity
  8
0
100
AcDbLine
 62
4
  6
CONTINUOUS
 10
11.1274013041
 20
8.4407014654
 11
11.1715579123
 21
8.4155608867
  0
LINE
  5
2FD
100
AcDbEntity
  8
0
100
AcDbLine
 62
4
  6
CONTINUOUS
 10
9.0763956164
 20
9.797798043
 11
9.0619067285
 21
9.8084621097
  0
LINE
  5
2FE
100
AcDbEntity
  8
0
100
AcDbLine
 62
4
  6
CONTINUOUS
 10
9.0908845044
 20
9.8644080432
 11
9.1053733923
 21
9.8537439791
  0
LINE
  5
2FF
100
AcDbEntity
  8
0
100
AcDbLine
 62
4
  6
CONTINUOUS
 10
9.0908845044
 20
9.9127043386
 11
9.1053733923
 21
9.9020402745
  0
LINE
  5
300
100
AcDbEntity
  8
0
100
AcDbLine
 62
4
  6
CONTINUOUS
 10
10.2056320674
 20
9.057135971
 11
10.1476765157
 21
9.1108313898
  0
LINE
  5
301
100
AcDbEntity
  8
0
100
AcDbLine
 62
4
  6
CONTINUOUS
 10
10.2387495236
 20
9.0382805378
 11
10.2553082516
 21
9.0205734563
  0
LINE
  5
302
100
AcDbEntity
  8
0
100
AcDbLine
 62
4
  6
CONTINUOUS
 10
10.8652214325
 20
8.387129206
 11
10.8486627114
 21
8.4048362871
  0
LINE
  5
303
100
AcDbEntity
  8
0
100
AcDbLine
 62
4
  6
CONTINUOUS
 10
10.1973527034
 20
9.1405037907
 11
10.2056320674
 21
9.1316502473
  0
LINE
  5
304
100
AcDbEntity
  8
0
100
AcDbLine
 62
4
  6
CONTINUOUS
 10
10.8900595419
 20
8.5013177807
 11
10.9066182631
 21
8.4836107015
  0
LINE
  5
305
100
AcDbEntity
  8
0
100
AcDbLine
 62
4
  6
CONTINUOUS
 10
10.981132536
 20
8.4950018472
 11
10.9976912571
 21
8.4772947679
  0
LINE
  5
306
100
AcDbEntity
  8
0
100
AcDbLine
 62
4
  6
CONTINUOUS
 10
10.7769082196
 20
8.7144930949
 11
10.8100256757
 21
8.6459614723
  0
LINE
  5
307
100
AcDbEntity
  8
0
100
AcDbLine
 62
4
  6
CONTINUOUS
 10
11.1347835996
 20
7.3571106362
 11
11.1275391556
 21
7.386590816
  0
LINE
  5
308
100
AcDbEntity
  8
0
100
AcDbLine
 62
4
  6
CONTINUOUS
 10
11.0446076982
 20
8.3746887263
 11
11.0446076982
 21
8.4905998297
  0
LINE
  5
309
100
AcDbEntity
  8
0
100
AcDbLine
 62
4
  6
CONTINUOUS
 10
11.0639261773
 20
8.9644956127
 11
11.0639261773
 21
9.04728926
  0
LINE
  5
30A
100
AcDbEntity
  8
0
100
AcDbLine
 62
4
  6
CONTINUOUS
 10
11.0639261773
 20
9.0721273486
 11
11.0639261773
 21
9.0804067161
  0
LINE
  5
30B
100
AcDbEntity
  8
0
100
AcDbLine
 62
4
  6
CONTINUOUS
 10
11.1080827855
 20
8.9697127064
 11
11.1080827855
 21
9.0359476213
  0
LINE
  5
30C
100
AcDbEntity
  8
0
100
AcDbLine
 62
4
  6
CONTINUOUS
 10
11.1825971136
 20
9.005941943
 11
11.1825971136
 21
9.0307800351
  0
LINE
  5
30D
100
AcDbEntity
  8
0
100
AcDbLine
 62
4
  6
CONTINUOUS
 10
11.1999835953
 20
7.381566777
 11
11.1999835953
 21
7.3429297431
  0
LINE
  5
30E
100
AcDbEntity
  8
0
100
AcDbLine
 62
4
  6
CONTINUOUS
 10
11.2322732219
 20
8.9611000704
 11
11.2322732219
 21
8.9859381651
  0
LINE
  5
30F
100
AcDbEntity
  8
0
100
AcDbLine
 62
4
  6
CONTINUOUS
 10
10.9976912571
 20
8.3945011223
 11
10.981132536
 21
8.3790907437
  0
LINE
  5
310
100
AcDbEntity
  8
0
100
AcDbLine
 62
4
  6
CONTINUOUS
 10
11.1715579123
 20
8.4155608867
 11
11.1274013041
 21
8.3965448521
  0
LINE
  5
311
100
AcDbEntity
  8
0
100
AcDbLine
 62
4
  6
CONTINUOUS
 10
10.7189526679
 20
8.6771155007
 11
10.6609971162
 21
8.6811347319
  0
LINE
  5
312
100
AcDbEntity
  8
0
100
AcDbLine
 62
4
  6
CONTINUOUS
 10
12.4962561725
 20
8.5947040244
 11
12.5542117243
 21
8.5906847932
  0
LINE
  5
313
100
AcDbEntity
  8
0
100
AcDbLine
 62
4
  6
CONTINUOUS
 10
10.5533653777
 20
9.0826967717
 11
10.5616447383
 21
9.0738432286
  0
LINE
  5
314
100
AcDbEntity
  8
0
100
AcDbLine
 62
4
  6
CONTINUOUS
 10
10.7824278069
 20
9.0668112383
 11
10.7879473622
 21
9.0581490883
  0
LINE
  5
315
100
AcDbEntity
  8
0
100
AcDbLine
 62
4
  6
CONTINUOUS
 10
10.873500801
 20
9.0439365766
 11
10.865221468
 21
9.0610694784
  0
LINE
  5
316
100
AcDbEntity
  8
0
100
AcDbLine
 62
7
  6
CONTINUOUS
 10
11.3468986067
 20
6.3175530312
 11
11.3468986067
 21
6.0122420819
  0
LINE
  5
317
100
AcDbEntity
  8
0
100
AcDbLine
 62
4
  6
CONTINUOUS
 10
11.1275391556
 20
7.386590816
 11
11.1347835996
 21
7.4150661879
  0
LINE
  5
318
100
AcDbEntity
  8
0
100
AcDbLine
 62
4
  6
CONTINUOUS
 10
12.5469672803
 20
10.2139426236
 11
12.4962561725
 21
10.1305261233
  0
LINE
  5
319
100
AcDbEntity
  8
0
100
AcDbLine
 62
4
  6
CONTINUOUS
 10
12.5179895044
 20
8.7091079161
 11
12.5324783924
 21
8.7081031083
  0
LINE
  5
31A
100
AcDbEntity
  8
0
100
AcDbLine
 62
4
  6
CONTINUOUS
 10
10.5947622082
 20
8.9694343626
 11
10.6113209294
 21
8.9682860114
  0
LINE
  5
31B
100
AcDbEntity
  8
0
100
AcDbLine
 62
4
  6
CONTINUOUS
 10
11.1494796713
 20
8.9585624577
 11
11.1163621184
 21
8.9608591678
  0
LINE
  5
31C
100
AcDbEntity
  8
0
100
AcDbLine
 62
4
  6
CONTINUOUS
 10
11.0142500138
 20
8.9679406663
 11
10.9976912926
 21
8.9690890175
  0
LINE
  5
31D
100
AcDbEntity
  8
0
100
AcDbLine
 62
4
  6
CONTINUOUS
 10
10.873500801
 20
8.9777016574
 11
10.8403833586
 21
8.9799983598
  0
LINE
  5
31E
100
AcDbEntity
  8
0
100
AcDbLine
 62
4
  6
CONTINUOUS
 10
10.716192867
 20
8.9886109997
 11
10.6830754246
 21
8.9909077021
  0
LINE
  5
31F
100
AcDbEntity
  8
0
100
AcDbLine
 62
4
  6
CONTINUOUS
 10
10.1559558806
 20
9.0274635666
 11
10.1890733393
 21
9.0251668631
  0
LINE
  5
320
100
AcDbEntity
  8
0
100
AcDbLine
 62
4
  6
CONTINUOUS
 10
10.2553082516
 20
9.0205734563
 11
10.2801463541
 21
9.018850928
  0
LINE
  5
321
100
AcDbEntity
  8
0
100
AcDbLine
 62
4
  6
CONTINUOUS
 10
10.9148976315
 20
8.9748307774
 11
10.9562944621
 21
8.9719598975
  0
LINE
  5
322
100
AcDbEntity
  8
0
100
AcDbLine
 62
4
  6
CONTINUOUS
 10
11.1908764466
 20
8.9556915816
 11
11.2239938889
 21
8.9533948792
  0
LINE
  5
323
100
AcDbEntity
  8
0
100
AcDbLine
 62
4
  6
CONTINUOUS
 10
10.6830754246
 20
8.9909077021
 11
10.6665167035
 21
9.0003354182
  0
LINE
  5
324
100
AcDbEntity
  8
0
100
AcDbLine
 62
4
  6
CONTINUOUS
 10
10.8403833586
 20
8.9799983598
 11
10.8238246375
 21
8.9894260759
  0
LINE
  5
325
100
AcDbEntity
  8
0
100
AcDbLine
 62
4
  6
CONTINUOUS
 10
10.9066182433
 20
8.9836843199
 11
10.9148976315
 21
8.9748307774
  0
LINE
  5
326
100
AcDbEntity
  8
0
100
AcDbLine
 62
4
  6
CONTINUOUS
 10
10.9976912926
 20
8.9690890175
 11
10.9894119044
 21
8.97794256
  0
LINE
  5
327
100
AcDbEntity
  8
0
100
AcDbLine
 62
4
  6
CONTINUOUS
 10
11.1163621184
 20
8.9608591678
 11
11.1080827855
 21
8.9697127064
  0
LINE
  5
328
100
AcDbEntity
  8
0
100
AcDbLine
 62
4
  6
CONTINUOUS
 10
11.1825971136
 20
8.9645451202
 11
11.1908764466
 21
8.9556915816
  0
LINE
  5
329
100
AcDbEntity
  8
0
100
AcDbLine
 62
7
  6
CONTINUOUS
 10
11.4983185462
 20
6.2503853431
 11
11.4983185462
 21
5.8659819018
  0
LINE
  5
32A
100
AcDbEntity
  8
0
100
AcDbLine
 62
7
  6
CONTINUOUS
 10
11.5377913241
 20
6.2401690494
 11
11.5377913241
 21
5.8557656081
  0
LINE
  5
32B
100
AcDbEntity
  8
0
100
AcDbLine
 62
4
  6
CONTINUOUS
 10
12.5035006165
 20
8.7004534676
 11
12.5179895044
 21
8.7091079161
  0
LINE
  5
32C
100
AcDbEntity
  8
0
100
AcDbLine
 62
4
  6
CONTINUOUS
 10
12.5469672803
 20
8.6588020051
 11
12.5179895044
 21
8.6414931046
  0
LINE
  5
32D
100
AcDbEntity
  8
0
100
AcDbLine
 62
4
  6
CONTINUOUS
 10
10.8403833586
 20
9.0213951835
 11
10.873500801
 21
9.019098481
  0
LINE
  5
32E
100
AcDbEntity
  8
0
100
AcDbLine
 62
4
  6
CONTINUOUS
 10
10.865221468
 20
9.0610694784
 11
10.8238246375
 21
9.0639403583
  0
LINE
  5
32F
100
AcDbEntity
  8
0
100
AcDbLine
 62
4
  6
CONTINUOUS
 10
10.5119685471
 20
9.0855676516
 11
10.5533653777
 21
9.0826967717
  0
LINE
  5
330
100
AcDbEntity
  8
0
100
AcDbLine
 62
4
  6
CONTINUOUS
 10
10.6830754246
 20
9.0737013494
 11
10.716192867
 21
9.071404647
  0
LINE
  5
331
100
AcDbEntity
  8
0
100
AcDbLine
 62
4
  6
CONTINUOUS
 10
10.7493103646
 20
9.0691079407
 11
10.7824278069
 21
9.0668112383
  0
LINE
  5
332
100
AcDbEntity
  8
0
100
AcDbLine
 62
4
  6
CONTINUOUS
 10
11.1163621184
 20
9.0436528151
 11
11.1494796713
 21
9.041356105
  0
LINE
  5
333
100
AcDbEntity
  8
0
100
AcDbLine
 62
4
  6
CONTINUOUS
 10
11.1908764466
 20
9.0384852289
 11
11.2239938889
 21
9.0361885265
  0
LINE
  5
334
100
AcDbEntity
  8
0
100
AcDbLine
 62
4
  6
CONTINUOUS
 10
10.1642352455
 20
9.1428004942
 11
10.1973527034
 21
9.1405037907
  0
LINE
  5
335
100
AcDbEntity
  8
0
100
AcDbLine
 62
4
  6
CONTINUOUS
 10
11.0639261773
 20
9.0804067161
 11
11.0666859549
 21
9.0802153249
  0
LINE
  5
336
100
AcDbEntity
  8
0
100
AcDbLine
 62
4
  6
CONTINUOUS
 10
11.2239938889
 20
8.9920319148
 11
11.1908764466
 21
8.9998481933
  0
LINE
  5
337
100
AcDbEntity
  8
0
100
AcDbLine
 62
4
  6
CONTINUOUS
 10
11.1908764466
 20
8.9998481933
 11
11.1825971136
 21
9.005941943
  0
LINE
  5
338
100
AcDbEntity
  8
0
100
AcDbLine
 62
4
  6
CONTINUOUS
 10
11.2322732219
 20
8.9859381651
 11
11.2239938889
 21
8.9920319148
  0
LINE
  5
339
100
AcDbEntity
  8
0
100
AcDbLine
 62
4
  6
CONTINUOUS
 10
11.2239938889
 20
9.0361885265
 11
11.2322732219
 21
9.0273349853
  0
LINE
  5
33A
100
AcDbEntity
  8
0
100
AcDbLine
 62
4
  6
CONTINUOUS
 10
11.1347835996
 20
7.4150661879
 11
11.1492724875
 21
7.4333798997
  0
LINE
  5
33B
100
AcDbEntity
  8
0
100
AcDbLine
 62
4
  6
CONTINUOUS
 10
11.1999835953
 20
7.3429297431
 11
11.1927391513
 21
7.3337728881
  0
LINE
  5
33C
100
AcDbEntity
  8
0
100
AcDbLine
 62
7
  6
CONTINUOUS
 10
12.1028977987
 20
6.2009787823
 11
12.1028977987
 21
5.816575341
  0
LINE
  5
33D
100
AcDbEntity
  8
0
100
AcDbLine
 62
7
  6
CONTINUOUS
 10
12.1568186009
 20
6.2047182092
 11
12.1568186009
 21
5.8203147679
  0
LINE
  5
33E
100
AcDbEntity
  8
0
100
AcDbLine
 62
4
  6
CONTINUOUS
 10
12.4962561725
 20
8.6912966083
 11
12.5035006165
 21
8.7004534676
  0
LINE
  5
33F
100
AcDbEntity
  8
0
100
AcDbLine
 62
4
  6
CONTINUOUS
 10
12.5179895044
 20
8.6414931046
 11
12.5035006165
 21
8.6231793963
  0
LINE
  5
340
100
AcDbEntity
  8
0
100
AcDbLine
 62
4
  6
CONTINUOUS
 10
12.5542117243
 20
8.6679588645
 11
12.5469672803
 21
8.6588020051
  0
LINE
  5
341
100
AcDbEntity
  8
0
100
AcDbLine
 62
4
  6
CONTINUOUS
 10
11.1492724875
 20
7.4333798997
 11
11.1637613755
 21
7.4420343482
  0
LINE
  5
342
100
AcDbEntity
  8
0
100
AcDbLine
 62
4
  6
CONTINUOUS
 10
11.1927391513
 20
7.3337728881
 11
11.1782502634
 21
7.325118437
  0
LINE
  5
343
100
AcDbEntity
  8
0
100
AcDbLine
 62
4
  6
CONTINUOUS
 10
9.0908845044
 20
9.7967932352
 11
9.0763956164
 21
9.797798043
  0
LINE
  5
344
100
AcDbEntity
  8
0
100
AcDbLine
 62
4
  6
CONTINUOUS
 10
12.5324783924
 20
8.7081031083
 11
12.5469672803
 21
8.6974390442
  0
LINE
  5
345
100
AcDbEntity
  8
0
100
AcDbLine
 62
4
  6
CONTINUOUS
 10
9.0763956164
 20
9.865412851
 11
9.0908845044
 21
9.8644080432
  0
LINE
  5
346
100
AcDbEntity
  8
0
100
AcDbLine
 62
4
  6
CONTINUOUS
 10
9.0763956164
 20
9.9137091464
 11
9.0908845044
 21
9.9127043386
  0
LINE
  5
347
100
AcDbEntity
  8
0
100
AcDbLine
 62
4
  6
CONTINUOUS
 10
12.5469672803
 20
8.6974390442
 11
12.5542117243
 21
8.6872773771
  0
LINE
  5
348
100
AcDbEntity
  8
0
100
AcDbLine
 62
4
  6
CONTINUOUS
 10
12.5469672803
 20
10.0980315201
 11
12.5469672803
 21
10.2139426236
  0
LINE
  5
349
100
AcDbEntity
  8
0
100
AcDbLine
 62
4
  6
CONTINUOUS
 10
12.5542117243
 20
8.6872773771
 11
12.5542117243
 21
8.6679588645
  0
LINE
  5
34A
100
AcDbEntity
  8
0
100
AcDbLine
 62
7
  6
CONTINUOUS
 10
12.570505136
 20
6.2326956302
 11
12.570505136
 21
5.9273846809
  0
LINE
  5
34B
100
AcDbEntity
  8
0
100
AcDbLine
 62
7
  6
CONTINUOUS
 10
12.5849531604
 20
6.2316936563
 11
12.5849531604
 21
5.9413404016
  0
LINE
  5
34C
100
AcDbEntity
  8
0
100
AcDbLine
 62
4
  6
CONTINUOUS
 10
12.5035006165
 20
8.6231793963
 11
12.4962561725
 21
8.5947040244
  0
LINE
  5
34D
100
AcDbEntity
  8
0
100
AcDbLine
 62
7
  6
CONTINUOUS
 10
12.7377376434
 20
6.2210980164
 11
12.7377376434
 21
10.5677644923
  0
LINE
  5
34E
100
AcDbEntity
  8
0
100
AcDbLine
 62
4
  6
CONTINUOUS
 10
12.4962561725
 20
10.1305261233
 11
12.5614561682
 21
10.1260044882
  0
LINE
  5
34F
100
AcDbEntity
  8
0
100
AcDbLine
 62
7
  6
CONTINUOUS
 10
13.1259658907
 20
6.5960977292
 11
13.1259658907
 21
10.942764205
  0
LINE
  5
350
100
AcDbEntity
  8
0
100
AcDbLine
 62
7
  6
CONTINUOUS
 10
8.8740341093
 20
10.8357132424
 11
12.7377376434
 21
10.5677644923
  0
LINE
  5
351
100
AcDbEntity
  8
0
100
AcDbLine
 62
7
  6
CONTINUOUS
 10
13.1259658907
 20
10.942764205
 11
9.2622623566
 21
11.2107129552
  0
LINE
  5
352
100
AcDbEntity
  8
0
100
AcDbLine
 62
7
  6
CONTINUOUS
 10
12.7377376434
 20
6.2210980164
 11
13.1259658907
 21
6.5960977292
  0
LINE
  5
353
100
AcDbEntity
  8
0
100
AcDbLine
 62
7
  6
CONTINUOUS
 10
12.4882090044
 20
5.8812215247
 11
12.4575349939
 21
5.8660691508
  0
ARC
  5
354
100
AcDbEntity
  8
0
100
AcDbCircle
 62
7
  6
CONTINUOUS
 10
11.9769654061
 20
8.0230882256
 40
2.210103635
100
AcDbArc
 50
273.2665005552
 51
274.6677615151
  0
ARC
  5
355
100
AcDbEntity
  8
0
100
AcDbCircle
 62
7
  6
CONTINUOUS
 10
11.9769654061
 20
8.4074916669
 40
2.210103635
100
AcDbArc
 50
273.2665005552
 51
274.6677615151
  0
ARC
  5
356
100
AcDbEntity
  8
0
100
AcDbCircle
 62
7
  6
CONTINUOUS
 10
11.7569908326
 20
7.168455783
 40
0.9538158545
100
AcDbArc
 50
254.2644742826
 51
256.7139235525
  0
ARC
  5
357
100
AcDbEntity
  8
0
100
AcDbCircle
 62
7
  6
CONTINUOUS
 10
11.7569908326
 20
6.7840523417
 40
0.9538158545
100
AcDbArc
 50
254.2644742826
 51
256.7139235525
  0
ARC
  5
358
100
AcDbEntity
  8
0
100
AcDbCircle
 62
7
  6
CONTINUOUS
 10
12.1493280027
 20
6.5661167258
 40
0.7641475746
100
AcDbArc
 50
293.7608747297
 51
296.3085175792
  0
ARC
  5
359
100
AcDbEntity
  8
0
100
AcDbCircle
 62
7
  6
CONTINUOUS
 10
10.7780095325
 20
7.5060911549
 40
0.1911988593
100
AcDbArc
 50
152.8420980265
 51
167.6189901192
  0
SPLINE
  5
35A
100
AcDbEntity
  8
0
100
AcDbSpline
 62
7
  6
CONTINUOUS
 70
0
 71
3
 72
9
 73
5
 74
0
 42
0.0000001
 43
0.0000001
 44
0.0000000001
 40
0.0
 40
0.0
 40
0.0
 40
0.0
 40
0.2426770998
 40
1.0
 40
1.0
 40
1.0
 40
1.0
 10
12.5783228937
 20
5.9343213648
 30
0.0
 10
12.5777147032
 20
5.9337338979
 30
0.0
 10
12.5751816518
 20
5.9313410168
 30
0.0
 10
12.5725459381
 20
5.9290575472
 30
0.0
 10
12.570505136
 20
5.9273846809
 30
0.0
  0
SPLINE
  5
35B
100
AcDbEntity
  8
0
100
AcDbSpline
 62
7
  6
CONTINUOUS
 70
0
 71
3
 72
9
 73
5
 74
0
 42
0.0000001
 43
0.0000001
 44
0.0000000001
 40
0.0
 40
0.0
 40
0.0
 40
0.0
 40
0.2426666479
 40
1.0
 40
1.0
 40
1.0
 40
1.0
 10
12.5849531604
 20
5.9413404016
 30
0.0
 10
12.5844455325
 20
5.9407466286
 30
0.0
 10
12.5823218367
 20
5.9383270442
 30
0.0
 10
12.5800764283
 20
5.9360151493
 30
0.0
 10
12.5783228937
 20
5.9343213648
 30
0.0
  0
SPLINE
  5
35C
100
AcDbEntity
  8
0
100
AcDbSpline
 62
7
  6
CONTINUOUS
 70
0
 71
3
 72
9
 73
5
 74
0
 42
0.0000001
 43
0.0000001
 44
0.0000000001
 40
0.0
 40
0.0
 40
0.0
 40
0.0
 40
0.504378312
 40
1.0
 40
1.0
 40
1.0
 40
1.0
 10
12.570505136
 20
5.9273846809
 30
0.0
 10
12.5570013857
 20
5.9189758271
 30
0.0
 10
12.5298885483
 20
5.9028411711
 30
0.0
 10
12.5020157518
 20
5.8880439763
 30
0.0
 10
12.4880016139
 20
5.881119134
 30
0.0
  0
SPLINE
  5
35D
100
AcDbEntity
  8
0
100
AcDbSpline
 62
7
  6
CONTINUOUS
 70
0
 71
3
 72
23
 73
19
 74
0
 42
0.0000001
 43
0.0000001
 44
0.0000000001
 40
0.0
 40
0.0
 40
0.0
 40
0.0
 40
0.0436203086
 40
0.0892268542
 40
0.137068591
 40
0.187353676
 40
0.2402538462
 40
0.2958872461
 40
0.3543311569
 40
0.4156094827
 40
0.4797102731
 40
0.5465788188
 40
0.6161346312
 40
0.6882694307
 40
0.7628606873
 40
0.8397744221
 40
0.9188692703
 40
1.0
 40
1.0
 40
1.0
 40
1.0
 10
11.4553071169
 20
5.8754595933
 30
0.0
 10
11.4529971813
 20
5.8766001619
 30
0.0
 10
11.4483600576
 20
5.8791152583
 30
0.0
 10
11.4415327681
 20
5.8834763104
 30
0.0
 10
11.4346963793
 20
5.8885185969
 30
0.0
 10
11.4278548296
 20
5.8942495292
 30
0.0
 10
11.4210137313
 20
5.9006731801
 30
0.0
 10
11.4141761908
 20
5.9077847525
 30
0.0
 10
11.4073479317
 20
5.9155755645
 30
0.0
 10
11.4005316876
 20
5.9240289669
 30
0.0
 10
11.3937325191
 20
5.9331248728
 30
0.0
 10
11.3869526689
 20
5.9428372548
 30
0.0
 10
11.380196002
 20
5.9531378029
 30
0.0
 10
11.3734641149
 20
5.9639947569
 30
0.0
 10
11.366759398
 20
5.9753756105
 30
0.0
 10
11.3600827487
 20
5.9872466929
 30
0.0
 10
11.3534352563
 20
5.999574532
 30
0.0
 10
11.3490761383
 20
6.007973949
 30
0.0
 10
11.3468986067
 20
6.0122420819
 30
0.0
  0
SPLINE
  5
35E
100
AcDbEntity
  8
0
100
AcDbSpline
 62
7
  6
CONTINUOUS
 70
0
 71
3
 72
47
 73
43
 74
0
 42
0.0000001
 43
0.0000001
 44
0.0000000001
 40
0.0
 40
0.0
 40
0.0
 40
0.0
 40
0.0099874638
 40
0.0204476834
 40
0.0313771515
 40
0.0427708334
 40
0.0546218702
 40
0.0669225517
 40
0.0796641282
 40
0.0928362942
 40
0.1204271347
 40
0.1495984091
 40
0.1802407165
 40
0.2122338314
 40
0.2454489836
 40
0.2797497839
 40
0.3149929168
 40
0.3510298084
 40
0.3877071885
 40
0.4248680172
 40
0.4623527228
 40
0.4999997959
 40
0.5376468789
 40
0.575131606
 40
0.6122924455
 40
0.6489698269
 40
0.6850067267
 40
0.7202498875
 40
0.7545507276
 40
0.7877659112
 40
0.8197590481
 40
0.8504013805
 40
0.8795726993
 40
0.9071635849
 40
0.9203357726
 40
0.933077377
 40
0.9453780958
 40
0.9572291635
 40
0.968622847
 40
0.9795522717
 40
0.9900124597
 40
1.0
 40
1.0
 40
1.0
 40
1.0
 10
12.4575388793
 20
5.8660711055
 30
0.0
 10
12.4545483449
 20
5.8645938277
 30
0.0
 10
12.4483746385
 20
5.8616719119
 30
0.0
 10
12.4387724401
 20
5.8574724682
 30
0.0
 10
12.428624262
 20
5.8533596335
 30
0.0
 10
12.4179418141
 20
5.8493384237
 30
0.0
 10
12.4067374384
 20
5.8454131185
 30
0.0
 10
12.3950239377
 20
5.8415883993
 30
0.0
 10
12.3828146818
 20
5.8378688286
 30
0.0
 10
12.3656268529
 20
5.8329792968
 30
0.0
 10
12.3429965407
 20
5.8271838153
 30
0.0
 10
12.3145052623
 20
5.820815143
 30
0.0
 10
12.2844052134
 20
5.8149596191
 30
0.0
 10
12.2528352071
 20
5.8096442774
 30
0.0
 10
12.2199405492
 20
5.8048941211
 30
0.0
 10
12.1858728981
 20
5.8007315889
 30
0.0
 10
12.1507894395
 20
5.7971758609
 30
0.0
 10
12.1148521187
 20
5.7942436906
 30
0.0
 10
12.0782268578
 20
5.7919489059
 30
0.0
 10
12.0410828253
 20
5.7903019585
 30
0.0
 10
12.0035916013
 20
5.7893107224
 30
0.0
 10
11.9659263611
 20
5.7889798659
 30
0.0
 10
11.9282611135
 20
5.7893107057
 30
0.0
 10
11.8907698751
 20
5.7903019257
 30
0.0
 10
11.8536258306
 20
5.7919488564
 30
0.0
 10
11.8170005619
 20
5.794243625
 30
0.0
 10
11.7810632271
 20
5.7971757784
 30
0.0
 10
11.7459797416
 20
5.8007314919
 30
0.0
 10
11.7119120554
 20
5.8048940093
 30
0.0
 10
11.679017364
 20
5.8096441523
 30
0.0
 10
11.6474473286
 20
5.8149594782
 30
0.0
 10
11.6173472458
 20
5.8208149878
 30
0.0
 10
11.5888559261
 20
5.8271836505
 30
0.0
 10
11.5662255722
 20
5.8329791185
 30
0.0
 10
11.5490377077
 20
5.8378686408
 30
0.0
 10
11.536828421
 20
5.8415882101
 30
0.0
 10
11.5251148888
 20
5.8454129365
 30
0.0
 10
11.5139104894
 20
5.8493382443
 30
0.0
 10
11.5032280387
 20
5.8533594357
 30
0.0
 10
11.4930798666
 20
5.8574722196
 30
0.0
 10
11.4834776507
 20
5.8616716249
 30
0.0
 10
11.4773039295
 20
5.8645935455
 30
0.0
 10
11.4743133764
 20
5.8660708432
 30
0.0
  0
SPLINE
  5
35F
100
AcDbEntity
  8
0
100
AcDbSpline
 62
7
  6
CONTINUOUS
 70
0
 71
3
 72
15
 73
11
 74
0
 42
0.0000001
 43
0.0000001
 44
0.0000000001
 40
0.0
 40
0.0
 40
0.0
 40
0.0
 40
0.1299708166
 40
0.2593283487
 40
0.3876617857
 40
0.5145654289
 40
0.6396384778
 40
0.7624890516
 40
0.8827334041
 40
1.0
 40
1.0
 40
1.0
 40
1.0
 10
11.9507047289
 20
6.2755429599
 30
0.0
 10
11.9402539009
 20
6.2756194923
 30
0.0
 10
11.9194023633
 20
6.2759296364
 30
0.0
 10
11.8882429464
 20
6.2768666057
 30
0.0
 10
11.8573479231
 20
6.278271912
 30
0.0
 10
11.8268225764
 20
6.2801402968
 30
0.0
 10
11.7967707793
 20
6.28246583
 30
0.0
 10
11.7672947783
 20
6.2852400441
 30
0.0
 10
11.7384950213
 20
6.2884538492
 30
0.0
 10
11.7195544248
 20
6.2909151751
 30
0.0
 10
11.7102157226
 20
6.2922209292
 30
0.0
  0
SPLINE
  5
360
100
AcDbEntity
  8
0
100
AcDbSpline
 62
7
  6
CONTINUOUS
 70
0
 71
3
 72
10
 73
6
 74
0
 42
0.0000001
 43
0.0000001
 44
0.0000000001
 40
0.0
 40
0.0
 40
0.0
 40
0.0
 40
0.4950633206
 40
0.7463873743
 40
1.0
 40
1.0
 40
1.0
 40
1.0
 10
12.2482381421
 20
6.2553205115
 30
0.0
 10
12.2326782721
 20
6.2478732122
 30
0.0
 10
12.2095876036
 20
6.2358605863
 30
0.0
 10
12.1793607374
 20
6.2185228747
 30
0.0
 10
12.1643201091
 20
6.2093894364
 30
0.0
 10
12.1568186009
 20
6.2047182092
 30
0.0
  0
SPLINE
  5
361
100
AcDbEntity
  8
0
100
AcDbSpline
 62
7
  6
CONTINUOUS
 70
0
 71
3
 72
21
 73
17
 74
0
 42
0.0000001
 43
0.0000001
 44
0.0000000001
 40
0.0
 40
0.0
 40
0.0
 40
0.0
 40
0.1230212981
 40
0.1847065752
 40
0.2465215318
 40
0.3084771567
 40
0.3705832678
 40
0.432847904
 40
0.4952752623
 40
0.5578663069
 40
0.6206183946
 40
0.6835249868
 40
0.7465773451
 40
0.8097643485
 40
0.8730733734
 40
1.0
 40
1.0
 40
1.0
 40
1.0
 10
12.1028977987
 20
5.816575341
 30
0.0
 10
12.0798186176
 20
5.8120279848
 30
0.0
 10
12.0449861761
 20
5.8060555784
 30
0.0
 10
11.9982149611
 20
5.8001454311
 30
0.0
 10
11.9629036525
 20
5.7968182171
 30
0.0
 10
11.9274192097
 20
5.7946838095
 30
0.0
 10
11.8917944887
 20
5.7938130731
 30
0.0
 10
11.8560712772
 20
5.7942619683
 30
0.0
 10
11.8202976555
 20
5.7960639671
 30
0.0
 10
11.7845251293
 20
5.799227253
 30
0.0
 10
11.7488051893
 20
5.8037362036
 30
0.0
 10
11.713185576
 20
5.8095504454
 30
0.0
 10
11.6777074365
 20
5.8166081594
 30
0.0
 10
11.6424032457
 20
5.8248338491
 30
0.0
 10
11.5955593196
 20
5.8372534012
 30
0.0
 10
11.5607989099
 20
5.8480411955
 30
0.0
 10
11.5377913241
 20
5.8557656081
 30
0.0
  0
SPLINE
  5
362
100
AcDbEntity
  8
0
100
AcDbSpline
 62
7
  6
CONTINUOUS
 70
0
 71
3
 72
21
 73
17
 74
0
 42
0.0000001
 43
0.0000001
 44
0.0000000001
 40
0.0
 40
0.0
 40
0.0
 40
0.0
 40
0.1269266266
 40
0.1902356515
 40
0.253422655
 40
0.3164750132
 40
0.3793816055
 40
0.4421336932
 40
0.5047247377
 40
0.567152096
 40
0.6294167323
 40
0.6915228434
 40
0.7534784683
 40
0.8152934248
 40
0.8769787019
 40
1.0
 40
1.0
 40
1.0
 40
1.0
 10
12.1028977987
 20
6.2009787823
 30
0.0
 10
12.0798902129
 20
6.2087031948
 30
0.0
 10
12.0451298032
 20
6.2194909892
 30
0.0
 10
11.998285877
 20
6.2319105412
 30
0.0
 10
11.9629816862
 20
6.2401362309
 30
0.0
 10
11.9275035467
 20
6.247193945
 30
0.0
 10
11.8918839334
 20
6.2530081868
 30
0.0
 10
11.8561639934
 20
6.2575171374
 30
0.0
 10
11.8203914672
 20
6.2606804233
 30
0.0
 10
11.7846178455
 20
6.262482422
 30
0.0
 10
11.748894634
 20
6.2629313172
 30
0.0
 10
11.713269913
 20
6.2620605809
 30
0.0
 10
11.6777854702
 20
6.2599261733
 30
0.0
 10
11.6424741616
 20
6.2565989593
 30
0.0
 10
11.5957029466
 20
6.2506888119
 30
0.0
 10
11.5608705051
 20
6.2447164055
 30
0.0
 10
11.5377913241
 20
6.2401690494
 30
0.0
  0
SPLINE
  5
363
100
AcDbEntity
  8
0
100
AcDbSpline
 62
7
  6
CONTINUOUS
 70
0
 71
3
 72
11
 73
7
 74
0
 42
0.0000001
 43
0.0000001
 44
0.0000000001
 40
0.0
 40
0.0
 40
0.0
 40
0.0
 40
0.2465919593
 40
0.494712682
 40
0.7454424776
 40
1.0
 40
1.0
 40
1.0
 40
1.0
 10
11.4983185462
 20
5.8659819018
 30
0.0
 10
11.4963761333
 20
5.8659270672
 30
0.0
 10
11.4924748236
 20
5.8659344136
 30
0.0
 10
11.4866091323
 20
5.8663179355
 30
0.0
 10
11.4807190603
 20
5.8670962178
 30
0.0
 10
11.4768126032
 20
5.8678857657
 30
0.0
 10
11.4748611581
 20
5.8683502271
 30
0.0
  0
SPLINE
  5
364
100
AcDbEntity
  8
0
100
AcDbSpline
 62
7
  6
CONTINUOUS
 70
0
 71
3
 72
10
 73
6
 74
0
 42
0.0000001
 43
0.0000001
 44
0.0000000001
 40
0.0
 40
0.0
 40
0.0
 40
0.0
 40
0.2418255986
 40
0.4885199497
 40
1.0
 40
1.0
 40
1.0
 40
1.0
 10
11.4748611581
 20
5.8683502271
 30
0.0
 10
11.4732266407
 20
5.8687392568
 30
0.0
 10
11.4699463303
 20
5.8696201174
 30
0.0
 10
11.46334743
 20
5.8718024227
 30
0.0
 10
11.4584935516
 20
5.873886239
 30
0.0
 10
11.4553071169
 20
5.8754595933
 30
0.0
  0
SPLINE
  5
365
100
AcDbEntity
  8
0
100
AcDbSpline
 62
7
  6
CONTINUOUS
 70
0
 71
3
 72
11
 73
7
 74
0
 42
0.0000001
 43
0.0000001
 44
0.0000000001
 40
0.0
 40
0.0
 40
0.0
 40
0.0
 40
0.2633952514
 40
0.5183435581
 40
0.764111363
 40
1.0
 40
1.0
 40
1.0
 40
1.0
 10
11.4983185462
 20
6.2503853431
 30
0.0
 10
11.4956020597
 20
6.25570987
 30
0.0
 10
11.490165262
 20
6.2661421798
 30
0.0
 10
11.4818390947
 20
6.2813546657
 30
0.0
 10
11.4734686344
 20
6.2958263088
 30
0.0
 10
11.4677371574
 20
6.3051360485
 30
0.0
 10
11.4648566368
 20
6.3096482032
 30
0.0
  0
LINE
  5
366
100
AcDbEntity
  8
0
100
AcDbLine
 62
7
  6
CONTINUOUS
 10
12.4572186557
 20
5.8667421041
 11
12.4564895417
 21
5.8664222164
  0
SPLINE
  5
367
100
AcDbEntity
  8
0
100
AcDbSpline
 62
7
  6
CONTINUOUS
 70
0
 71
3
 72
15
 73
11
 74
0
 42
0.0000001
 43
0.0000001
 44
0.0000000001
 40
0.0
 40
0.0
 40
0.0
 40
0.0
 40
0.1321602046
 40
0.2618009952
 40
0.3890353631
 40
0.5141096583
 40
0.6373677171
 40
0.75919507
 40
0.8799649792
 40
1.0
 40
1.0
 40
1.0
 40
1.0
 10
12.4564895417
 20
5.8664222164
 30
0.0
 10
12.4441084383
 20
5.8609984743
 30
0.0
 10
12.4192676744
 20
5.8509514851
 30
0.0
 10
12.3814736113
 20
5.8384180478
 30
0.0
 10
12.3436028418
 20
5.8287007582
 30
0.0
 10
12.3057764662
 20
5.821832254
 30
0.0
 10
12.2681090803
 20
5.8177324255
 30
0.0
 10
12.2306934983
 20
5.8162257377
 30
0.0
 10
12.1935926617
 20
5.8170725854
 30
0.0
 10
12.1690282422
 20
5.8190319353
 30
0.0
 10
12.1568186009
 20
5.8203147679
 30
0.0
  0
SPLINE
  5
368
100
AcDbEntity
  8
0
100
AcDbSpline
 62
7
  6
CONTINUOUS
 70
0
 71
3
 72
18
 73
14
 74
0
 42
0.0000001
 43
0.0000001
 44
0.0000000001
 40
0.0
 40
0.0
 40
0.0
 40
0.0
 40
0.1504680185
 40
0.2917144324
 40
0.4244425615
 40
0.4879099171
 40
0.5496094205
 40
0.6682625585
 40
0.7817882768
 40
0.8371379945
 40
0.8918078237
 40
0.9460192726
 40
1.0
 40
1.0
 40
1.0
 40
1.0
 10
12.931851767
 20
10.7475369416
 30
0.0
 10
12.9332427028
 20
10.7488804824
 30
0.0
 10
12.9360226888
 20
10.7514013564
 30
0.0
 10
12.9403272012
 20
10.7547607298
 30
0.0
 10
12.9439630978
 20
10.7571366525
 30
0.0
 10
12.946862402
 20
10.7587455536
 30
0.0
 10
12.9496764118
 20
10.7601268415
 30
0.0
 10
12.9531948151
 20
10.7615225859
 30
0.0
 10
12.9567758062
 20
10.7624750452
 30
0.0
 10
12.9596120574
 20
10.7629442354
 30
0.0
 10
12.9617141112
 20
10.7631524697
 30
0.0
 10
12.9638076618
 20
10.7632197099
 30
0.0
 10
12.9651985646
 20
10.7631705006
 30
0.0
 10
12.9658906775
 20
10.7631224986
 30
0.0
  0
SPLINE
  5
369
100
AcDbEntity
  8
0
100
AcDbSpline
 62
7
  6
CONTINUOUS
 70
0
 71
3
 72
19
 73
15
 74
0
 42
0.0000001
 43
0.0000001
 44
0.0000000001
 40
0.0
 40
0.0
 40
0.0
 40
0.0
 40
0.1504611406
 40
0.2916985742
 40
0.4244193292
 40
0.4878835935
 40
0.5495802133
 40
0.6682271463
 40
0.7255606136
 40
0.7817999183
 40
0.8371467056
 40
0.8918136429
 40
0.9460222308
 40
1.0
 40
1.0
 40
1.0
 40
1.0
 10
12.931851767
 20
9.4102125208
 30
0.0
 10
12.933744501
 20
9.4120407615
 30
0.0
 10
12.9375273553
 20
9.4154710581
 30
0.0
 10
12.9433847458
 20
9.420042316
 30
0.0
 10
12.9483322242
 20
9.4232753733
 30
0.0
 10
12.9522775306
 20
9.4254647071
 30
0.0
 10
12.9561064396
 20
9.4273443101
 30
0.0
 10
12.959980184
 20
9.428880708
 30
0.0
 10
12.9638757176
 20
9.4300368681
 30
0.0
 10
12.9667559688
 20
9.4307032942
 30
0.0
 10
12.969626635
 20
9.4311782842
 30
0.0
 10
12.9724869528
 20
9.4314616309
 30
0.0
 10
12.9753357687
 20
9.431553217
 30
0.0
 10
12.9772284415
 20
9.4314862885
 30
0.0
 10
12.9781702352
 20
9.431420978
 30
0.0
  0
SPLINE
  5
36A
100
AcDbEntity
  8
0
100
AcDbSpline
 62
7
  6
CONTINUOUS
 70
0
 71
3
 72
21
 73
17
 74
0
 42
0.0000001
 43
0.0000001
 44
0.0000000001
 40
0.0
 40
0.0
 40
0.0
 40
0.0
 40
0.1273176984
 40
0.2537999461
 40
0.3167619614
 40
0.3795355204
 40
0.4421314992
 40
0.5045621453
 40
0.5668413456
 40
0.6289845231
 40
0.6910084433
 40
0.7529310869
 40
0.8147714401
 40
0.8765493236
 40
0.9382852134
 40
1.0
 40
1.0
 40
1.0
 40
1.0
 10
11.7341406504
 20
9.6115508568
 30
0.0
 10
11.7341406504
 20
9.6050524344
 30
0.0
 10
11.7335203326
 20
9.5920898667
 30
0.0
 10
11.7311775666
 20
9.5760653349
 30
0.0
 10
11.7283774645
 20
9.5634954929
 30
0.0
 10
11.7258239175
 20
9.5542239713
 30
0.0
 10
11.7228198222
 20
9.5451172
 30
0.0
 10
11.7193721046
 20
9.5361959133
 30
0.0
 10
11.7154887135
 20
9.5274807448
 30
0.0
 10
11.7111785251
 20
9.5189918087
 30
0.0
 10
11.7064515103
 20
9.5107486731
 30
0.0
 10
11.7013185705
 20
9.5027703354
 30
0.0
 10
11.6957914935
 20
9.4950752573
 30
0.0
 10
11.6898829913
 20
9.4876811116
 30
0.0
 10
11.6836069519
 20
9.480605156
 30
0.0
 10
11.6791866534
 20
9.4761100924
 30
0.0
 10
11.6769210061
 20
9.4739216584
 30
0.0
  0
SPLINE
  5
36B
100
AcDbEntity
  8
0
100
AcDbSpline
 62
7
  6
CONTINUOUS
 70
0
 71
3
 72
21
 73
17
 74
0
 42
0.0000001
 43
0.0000001
 44
0.0000000001
 40
0.0
 40
0.0
 40
0.0
 40
0.0
 40
0.1273176984
 40
0.2537999461
 40
0.3167619614
 40
0.3795355204
 40
0.4421314992
 40
0.5045621453
 40
0.5668413456
 40
0.6289845231
 40
0.6910084433
 40
0.7529310869
 40
0.8147714401
 40
0.8765493236
 40
0.9382852134
 40
1.0
 40
1.0
 40
1.0
 40
1.0
 10
10.6474740315
 20
6.7282804966
 30
0.0
 10
10.6474740315
 20
6.7217820742
 30
0.0
 10
10.6468537136
 20
6.7088195065
 30
0.0
 10
10.6445109476
 20
6.6927949746
 30
0.0
 10
10.6417108455
 20
6.6802251327
 30
0.0
 10
10.6391572986
 20
6.6709536111
 30
0.0
 10
10.6361532032
 20
6.6618468398
 30
0.0
 10
10.6327054856
 20
6.6529255531
 30
0.0
 10
10.6288220946
 20
6.6442103846
 30
0.0
 10
10.6245119061
 20
6.6357214484
 30
0.0
 10
10.6197848913
 20
6.6274783129
 30
0.0
 10
10.6146519515
 20
6.6194999752
 30
0.0
 10
10.6091248745
 20
6.6118048971
 30
0.0
 10
10.6032163723
 20
6.6044107514
 30
0.0
 10
10.596940333
 20
6.5973347958
 30
0.0
 10
10.5925200345
 20
6.5928397321
 30
0.0
 10
10.5902543871
 20
6.5906512982
 30
0.0
  0
SPLINE
  5
36C
100
AcDbEntity
  8
0
100
AcDbSpline
 62
7
  6
CONTINUOUS
 70
0
 71
3
 72
38
 73
34
 74
0
 42
0.0000001
 43
0.0000001
 44
0.0000000001
 40
0.0
 40
0.0
 40
0.0
 40
0.0
 40
0.0316972418
 40
0.0632145967
 40
0.0945614863
 40
0.1257550598
 40
0.1568197017
 40
0.1877858602
 40
0.218688579
 40
0.2495659671
 40
0.2804577416
 40
0.311403788
 40
0.3424429492
 40
0.3736118601
 40
0.4049438204
 40
0.4364676672
 40
0.5001527295
 40
0.5323565643
 40
0.5647880806
 40
0.5974238569
 40
0.6302210811
 40
0.6631144994
 40
0.6960147473
 40
0.7288091755
 40
0.7613666437
 40
0.7935464575
 40
0.8252110209
 40
0.8562398232
 40
0.8865417067
 40
0.9160631279
 40
0.9447909233
 40
0.9727503771
 40
1.0
 40
1.0
 40
1.0
 40
1.0
 10
10.5861564063
 20
7.5046433323
 30
0.0
 10
10.5861564063
 20
7.5002913217
 30
0.0
 10
10.5864804064
 20
7.4916083769
 30
0.0
 10
10.587942911
 20
7.4786959038
 30
0.0
 10
10.5903645723
 20
7.4659982222
 30
0.0
 10
10.5937197473
 20
7.4535795043
 30
0.0
 10
10.5979747178
 20
7.4414953391
 30
0.0
 10
10.6030896913
 20
7.4297934126
 30
0.0
 10
10.6090208592
 20
7.4185129209
 30
0.0
 10
10.6157223398
 20
7.407685042
 30
0.0
 10
10.6231478472
 20
7.3973336936
 30
0.0
 10
10.6312519632
 20
7.387476605
 30
0.0
 10
10.6399910792
 20
7.3781264909
 30
0.0
 10
10.6493236645
 20
7.3692924099
 30
0.0
 10
10.6592111573
 20
7.3609804734
 30
0.0
 10
10.6731283192
 20
7.3505681152
 30
0.0
 10
10.6879822642
 20
7.3412536917
 30
0.0
 10
10.7035834346
 20
7.3330568802
 30
0.0
 10
10.7157050941
 20
7.3274369214
 30
0.0
 10
10.7281594786
 20
7.3223803287
 30
0.0
 10
10.7408999608
 20
7.3179003042
 30
0.0
 10
10.7538714034
 20
7.3140129938
 30
0.0
 10
10.7670099469
 20
7.3107361182
 30
0.0
 10
10.7802425154
 20
7.3080879334
 30
0.0
 10
10.7934881858
 20
7.3060855447
 30
0.0
 10
10.8066612009
 20
7.3047431214
 30
0.0
 10
10.8196754469
 20
7.3040703323
 30
0.0
 10
10.8324495625
 20
7.3040714048
 30
0.0
 10
10.8449116297
 20
7.3047450851
 30
0.0
 10
10.857002291
 20
7.3060854175
 30
0.0
 10
10.8686762976
 20
7.3080832658
 30
0.0
 10
10.879900764
 20
7.3107275739
 30
0.0
 10
10.8871574587
 20
7.3129408484
 30
0.0
 10
10.8906968411
 20
7.314153495
 30
0.0
  0
SPLINE
  5
36D
100
AcDbEntity
  8
0
100
AcDbSpline
 62
7
  6
CONTINUOUS
 70
0
 71
3
 72
11
 73
7
 74
0
 42
0.0000001
 43
0.0000001
 44
0.0000000001
 40
0.0
 40
0.0
 40
0.0
 40
0.0
 40
0.2515534554
 40
0.5021185579
 40
0.7516186878
 40
1.0
 40
1.0
 40
1.0
 40
1.0
 10
10.5912569947
 20
7.5470864767
 30
0.0
 10
10.5904167098
 20
7.5435937949
 30
0.0
 10
10.5889376005
 20
7.536572681
 30
0.0
 10
10.5873378971
 20
7.5259529518
 30
0.0
 10
10.5863726205
 20
7.5153022378
 30
0.0
 10
10.5861564063
 20
7.5081903718
 30
0.0
 10
10.5861564063
 20
7.5046433323
 30
0.0
  0
SPLINE
  5
36E
100
AcDbEntity
  8
0
100
AcDbSpline
 62
7
  6
CONTINUOUS
 70
0
 71
3
 72
21
 73
17
 74
0
 42
0.0000001
 43
0.0000001
 44
0.0000000001
 40
0.0
 40
0.0
 40
0.0
 40
0.0
 40
0.1273177382
 40
0.253799893
 40
0.3167619527
 40
0.3795355237
 40
0.4421314869
 40
0.5045621428
 40
0.5668413495
 40
0.6289845239
 40
0.69100845
 40
0.7529310987
 40
0.8147714472
 40
0.8765493323
 40
0.9382852239
 40
1.0
 40
1.0
 40
1.0
 40
1.0
 10
10.9068140017
 20
7.3923748035
 30
0.0
 10
10.9068140017
 20
7.385876427
 30
0.0
 10
10.9061936979
 20
7.3729139571
 30
0.0
 10
10.903850952
 20
7.3568895444
 30
0.0
 10
10.9010509058
 20
7.3443197895
 30
0.0
 10
10.8984973934
 20
7.3350483295
 30
0.0
 10
10.8954933321
 20
7.3259416215
 30
0.0
 10
10.8920456812
 20
7.3170203849
 30
0.0
 10
10.8881623388
 20
7.3083052705
 30
0.0
 10
10.8838522029
 20
7.2998163866
 30
0.0
 10
10.8791252755
 20
7.2915732813
 30
0.0
 10
10.8739923971
 20
7.2835949863
 30
0.0
 10
10.8684653881
 20
7.2758999464
 30
0.0
 10
10.8625569916
 20
7.2685058053
 30
0.0
 10
10.8562810189
 20
7.2614298844
 30
0.0
 10
10.8518607876
 20
7.2569348206
 30
0.0
 10
10.8495951645
 20
7.2547463957
 30
0.0
  0
SPLINE
  5
36F
100
AcDbEntity
  8
0
100
AcDbSpline
 62
7
  6
CONTINUOUS
 70
0
 71
3
 72
43
 73
39
 74
0
 42
0.0000001
 43
0.0000001
 44
0.0000000001
 40
0.0
 40
0.0
 40
0.0
 40
0.0
 40
0.0310745218
 40
0.0466739617
 40
0.0623117346
 40
0.0936962008
 40
0.1252246462
 40
0.156885682
 40
0.1886651184
 40
0.2205463529
 40
0.2525107094
 40
0.2845378393
 40
0.316606137
 40
0.3486931771
 40
0.3807761618
 40
0.4128323741
 40
0.4448396288
 40
0.4767767175
 40
0.508623839
 40
0.5403630095
 40
0.5719784455
 40
0.6034569128
 40
0.6347880329
 40
0.6659645409
 40
0.6969824853
 40
0.7278413639
 40
0.7585441875
 40
0.7890974671
 40
0.8195111175
 40
0.8497982781
 40
0.8649022316
 40
0.8799808239
 40
0.9100659163
 40
0.9400802375
 40
0.9550708207
 40
0.9700522994
 40
0.9850276796
 40
1.0
 40
1.0
 40
1.0
 40
1.0
 10
10.9068140017
 20
7.3923748035
 30
0.0
 10
10.9068140017
 20
7.3974256503
 30
0.0
 10
10.9065316678
 20
7.4050158398
 30
0.0
 10
10.9055992339
 20
7.4151025564
 30
0.0
 10
10.9042927111
 20
7.4251989367
 30
0.0
 10
10.9019636625
 20
7.4377646152
 30
0.0
 10
10.8980788314
 20
7.4526509517
 30
0.0
 10
10.893121865
 20
7.4672834393
 30
0.0
 10
10.8871201551
 20
7.4815812739
 30
0.0
 10
10.8801067419
 20
7.4954661234
 30
0.0
 10
10.8721202106
 20
7.508861763
 30
0.0
 10
10.8632044613
 20
7.5216947008
 30
0.0
 10
10.8534084734
 20
7.5338945188
 30
0.0
 10
10.8427860377
 20
7.5453942703
 30
0.0
 10
10.8313954643
 20
7.5561308391
 30
0.0
 10
10.8192992652
 20
7.5660452833
 30
0.0
 10
10.8065638149
 20
7.5750831557
 30
0.0
 10
10.7932589908
 20
7.5831948
 30
0.0
 10
10.7794577936
 20
7.5903356219
 30
0.0
 10
10.7652359523
 20
7.596466332
 30
0.0
 10
10.7506715139
 20
7.601553162
 30
0.0
 10
10.7358444216
 20
7.6055680505
 30
0.0
 10
10.7208360815
 20
7.6084887994
 30
0.0
 10
10.7057289219
 20
7.6102991989
 30
0.0
 10
10.6906059501
 20
7.6109891239
 30
0.0
 10
10.6755502861
 20
7.6105545887
 30
0.0
 10
10.6606447701
 20
7.6089978063
 30
0.0
 10
10.6459712835
 20
7.6063270803
 30
0.0
 10
10.6316111382
 20
7.6025571615
 30
0.0
 10
10.6199584925
 20
7.5985120488
 30
0.0
 10
10.6108757964
 20
7.5947502424
 30
0.0
 10
10.6019769781
 20
7.5906498198
 30
0.0
 10
10.5911871203
 20
7.5848861091
 30
0.0
 10
10.5808974933
 20
7.5782966647
 30
0.0
 10
10.5730118993
 20
7.5725586498
 30
0.0
 10
10.5672781536
 20
7.5680278923
 30
0.0
 10
10.5617312174
 20
7.5632751601
 30
0.0
 10
10.5581624923
 20
7.5599625388
 30
0.0
 10
10.5564121161
 20
7.5582718043
 30
0.0
  0
SPLINE
  5
370
100
AcDbEntity
  8
0
100
AcDbSpline
 62
7
  6
CONTINUOUS
 70
0
 71
3
 72
72
 73
68
 74
0
 42
0.0000001
 43
0.0000001
 44
0.0000000001
 40
0.0
 40
0.0
 40
0.0
 40
0.0
 40
0.0038007381
 40
0.007741717
 40
0.0118259762
 40
0.0160561861
 40
0.0204346248
 40
0.0249631083
 40
0.0296429507
 40
0.034475139
 40
0.0445982624
 40
0.0553349859
 40
0.0666830763
 40
0.0786369214
 40
0.0911880266
 40
0.1043253873
 40
0.1180357756
 40
0.1323040022
 40
0.1471131281
 40
0.162444632
 40
0.1782785371
 40
0.1945935439
 40
0.2113671532
 40
0.2285757639
 40
0.2461947509
 40
0.2641985494
 40
0.2825607465
 40
0.3012541554
 40
0.3202508788
 40
0.339522374
 40
0.3787721111
 40
0.4187655094
 40
0.459257996
 40
0.5000010196
 40
0.5407440307
 40
0.5812364821
 40
0.6212298196
 40
0.6604794759
 40
0.6797509194
 40
0.6987475868
 40
0.7174409382
 40
0.7358030696
 40
0.7538067944
 40
0.7714257037
 40
0.7886342371
 40
0.8054077625
 40
0.8217226764
 40
0.8375564847
 40
0.8528878938
 40
0.8676969213
 40
0.8819650398
 40
0.8956753162
 40
0.9088125679
 40
0.9213635649
 40
0.9333172929
 40
0.9446652617
 40
0.9554018688
 40
0.9605403345
 40
0.9655254594
 40
0.9703575751
 40
0.9750373564
 40
0.9795657872
 40
0.983944203
 40
0.9881743821
 40
0.9922585089
 40
0.996199292
 40
1.0
 40
1.0
 40
1.0
 40
1.0
 10
11.2630447083
 20
10.8693495332
 30
0.0
 10
11.2618460399
 20
10.8682340861
 30
0.0
 10
11.2593589368
 20
10.8660105505
 30
0.0
 10
11.2554389319
 20
10.8627548377
 30
0.0
 10
11.2512645784
 20
10.8595205713
 30
0.0
 10
11.2468377404
 20
10.856309117
 30
0.0
 10
11.2421601611
 20
10.8531216987
 30
0.0
 10
11.2372337038
 20
10.8499596034
 30
0.0
 10
11.2320603812
 20
10.8468240197
 30
0.0
 10
11.2247221128
 20
10.8426150451
 30
0.0
 10
11.2149338206
 20
10.8374401327
 30
0.0
 10
11.2024149275
 20
10.8314492091
 30
0.0
 10
11.1889673418
 20
10.8255942075
 30
0.0
 10
11.1746130362
 20
10.8198847325
 30
0.0
 10
11.1593752322
 20
10.8143301383
 30
0.0
 10
11.1432787701
 20
10.8089395951
 30
0.0
 10
11.1263499488
 20
10.8037220006
 30
0.0
 10
11.1086164942
 20
10.7986859857
 30
0.0
 10
11.0901074849
 20
10.7938398925
 30
0.0
 10
11.0708533048
 20
10.7891917598
 30
0.0
 10
11.0508855969
 20
10.7847492884
 30
0.0
 10
11.0302372031
 20
10.7805198357
 30
0.0
 10
11.0089420968
 20
10.7765104114
 30
0.0
 10
10.9870353256
 20
10.7727276662
 30
0.0
 10
10.9645529596
 20
10.769177869
 30
0.0
 10
10.9415320309
 20
10.7658668932
 30
0.0
 10
10.9180104602
 20
10.7628002208
 30
0.0
 10
10.8940270059
 20
10.759982942
 30
0.0
 10
10.8696211517
 20
10.7574196973
 30
0.0
 10
10.8363686623
 20
10.7543277693
 30
0.0
 10
10.7940439108
 20
10.7511377895
 30
0.0
 10
10.7425296363
 20
10.7484014713
 30
0.0
 10
10.6903254471
 20
10.7467523642
 30
0.0
 10
10.6377752788
 20
10.7462014766
 30
0.0
 10
10.5852251267
 20
10.7467524705
 30
0.0
 10
10.5330209874
 20
10.7484016795
 30
0.0
 10
10.481506795
 20
10.7511381056
 30
0.0
 10
10.439182133
 20
10.7543281648
 30
0.0
 10
10.4059297318
 20
10.7574201644
 30
0.0
 10
10.3815239544
 20
10.7599834591
 30
0.0
 10
10.3575405829
 20
10.7628007813
 30
0.0
 10
10.334019104
 20
10.7658675016
 30
0.0
 10
10.3109982768
 20
10.7691785259
 30
0.0
 10
10.2885160179
 20
10.7727283704
 30
0.0
 10
10.266609358
 20
10.7765111552
 30
0.0
 10
10.2453143709
 20
10.7805206214
 30
0.0
 10
10.2246661065
 20
10.7847501181
 30
0.0
 10
10.2046985337
 20
10.7891926321
 30
0.0
 10
10.1854444907
 20
10.7938408004
 30
0.0
 10
10.1669356245
 20
10.798686928
 30
0.0
 10
10.1492023229
 20
10.803722981
 30
0.0
 10
10.1322736624
 20
10.8089406121
 30
0.0
 10
10.1161773562
 20
10.8143311871
 30
0.0
 10
10.100939729
 20
10.8198858044
 30
0.0
 10
10.0865855469
 20
10.825595319
 30
0.0
 10
10.0731383125
 20
10.8314503227
 30
0.0
 10
10.0625565352
 20
10.8365141733
 30
0.0
 10
10.0545716929
 20
10.8406389306
 30
0.0
 10
10.0489111588
 20
10.8437175241
 30
0.0
 10
10.0434931851
 20
10.8468252342
 30
0.0
 10
10.038319957
 20
10.8499607898
 30
0.0
 10
10.0333935831
 20
10.8531229138
 30
0.0
 10
10.0287160866
 20
10.85631037
 30
0.0
 10
10.0242893444
 20
10.8595218204
 30
0.0
 10
10.0201151576
 20
10.8627560494
 30
0.0
 10
10.0161952974
 20
10.8660116945
 30
0.0
 10
10.0137082973
 20
10.8682352
 30
0.0
 10
10.0125096585
 20
10.8693506598
 30
0.0
  0
SPLINE
  5
371
100
AcDbEntity
  8
0
100
AcDbSpline
 62
7
  6
CONTINUOUS
 70
0
 71
3
 72
42
 73
38
 74
0
 42
0.0000001
 43
0.0000001
 44
0.0000000001
 40
0.0
 40
0.0
 40
0.0
 40
0.0
 40
0.0299419634
 40
0.0449235299
 40
0.0599142017
 40
0.0899287029
 40
0.1200139772
 40
0.1350926626
 40
0.1501967046
 40
0.1804840506
 40
0.2108978877
 40
0.2414513551
 40
0.2721543675
 40
0.3030134354
 40
0.3340315696
 40
0.3652082675
 40
0.3965395775
 40
0.4280182343
 40
0.4596338596
 40
0.4913732188
 40
0.5232205284
 40
0.5551578047
 40
0.5871652463
 40
0.6192216448
 40
0.6513048151
 40
0.6833920402
 40
0.7154605222
 40
0.747487836
 40
0.7794523759
 40
0.8113337934
 40
0.8431134117
 40
0.8747746318
 40
0.9063032512
 40
0.9376879208
 40
0.9533258
 40
0.9689252634
 40
1.0
 40
1.0
 40
1.0
 40
1.0
 10
11.383739572
 20
9.7774486484
 30
0.0
 10
11.3872399937
 20
9.7808297756
 30
0.0
 10
11.3926969619
 20
9.7856965851
 30
0.0
 10
11.4003393229
 20
9.7917352359
 30
0.0
 10
11.4082250548
 20
9.7974733942
 30
0.0
 10
11.4185146382
 20
9.8040626589
 30
0.0
 10
11.4293045074
 20
9.8098263586
 30
0.0
 10
11.4382033531
 20
9.8139266602
 30
0.0
 10
11.4472860229
 20
9.8176884757
 30
0.0
 10
11.4589386765
 20
9.8217334904
 30
0.0
 10
11.4732988056
 20
9.8255033428
 30
0.0
 10
11.4879722751
 20
9.828173993
 30
0.0
 10
11.5028777665
 20
9.8297307073
 30
0.0
 10
11.5179334009
 20
9.8301651782
 30
0.0
 10
11.5330563379
 20
9.8294751944
 30
0.0
 10
11.5481634584
 20
9.8276647417
 30
0.0
 10
11.5631717554
 20
9.8247439456
 30
0.0
 10
11.5779988017
 20
9.8207290163
 30
0.0
 10
11.5925631913
 20
9.815642152
 30
0.0
 10
11.6067849823
 20
9.8095114142
 30
0.0
 10
11.620586128
 20
9.8023705713
 30
0.0
 10
11.6338909003
 20
9.7942589124
 30
0.0
 10
11.6466262991
 20
9.785221032
 30
0.0
 10
11.658722448
 20
9.775306586
 30
0.0
 10
11.6701129728
 20
9.7645700214
 30
0.0
 10
11.6807353621
 20
9.7530702796
 30
0.0
 10
11.6905313067
 20
9.7408704765
 30
0.0
 10
11.6994470161
 20
9.7280375582
 30
0.0
 10
11.7074335114
 20
9.7146419424
 30
0.0
 10
11.7144468925
 20
9.7007571201
 30
0.0
 10
11.7204485759
 20
9.6864593158
 30
0.0
 10
11.725405518
 20
9.6718268614
 30
0.0
 10
11.7292903353
 20
9.6569405576
 30
0.0
 10
11.7316193696
 20
9.6443749033
 30
0.0
 10
11.7329258888
 20
9.6342785524
 30
0.0
 10
11.7338583194
 20
9.624191863
 30
0.0
 10
11.7341406504
 20
9.616601697
 30
0.0
 10
11.7341406504
 20
9.6115508568
 30
0.0
  0
SPLINE
  5
372
100
AcDbEntity
  8
0
100
AcDbSpline
 62
7
  6
CONTINUOUS
 70
0
 71
3
 72
42
 73
38
 74
0
 42
0.0000001
 43
0.0000001
 44
0.0000000001
 40
0.0
 40
0.0
 40
0.0
 40
0.0
 40
0.0299419634
 40
0.0449235299
 40
0.0599142017
 40
0.0899287029
 40
0.1200139772
 40
0.1350926626
 40
0.1501967046
 40
0.1804840506
 40
0.2108978877
 40
0.2414513551
 40
0.2721543675
 40
0.3030134354
 40
0.3340315696
 40
0.3652082675
 40
0.3965395775
 40
0.4280182343
 40
0.4596338596
 40
0.4913732188
 40
0.5232205284
 40
0.5551578047
 40
0.5871652463
 40
0.6192216448
 40
0.6513048151
 40
0.6833920402
 40
0.7154605222
 40
0.747487836
 40
0.7794523759
 40
0.8113337934
 40
0.8431134117
 40
0.8747746318
 40
0.9063032512
 40
0.9376879208
 40
0.9533258
 40
0.9689252634
 40
1.0
 40
1.0
 40
1.0
 40
1.0
 10
10.297072953
 20
6.8941782881
 30
0.0
 10
10.3005733747
 20
6.8975594153
 30
0.0
 10
10.3060303429
 20
6.9024262249
 30
0.0
 10
10.313672704
 20
6.9084648756
 30
0.0
 10
10.3215584358
 20
6.9142030339
 30
0.0
 10
10.3318480192
 20
6.9207922986
 30
0.0
 10
10.3426378884
 20
6.9265559983
 30
0.0
 10
10.3515367342
 20
6.9306563
 30
0.0
 10
10.360619404
 20
6.9344181154
 30
0.0
 10
10.3722720575
 20
6.9384631302
 30
0.0
 10
10.3866321867
 20
6.9422329825
 30
0.0
 10
10.4013056561
 20
6.9449036327
 30
0.0
 10
10.4162111475
 20
6.9464603471
 30
0.0
 10
10.431266782
 20
6.9468948179
 30
0.0
 10
10.4463897189
 20
6.9462048342
 30
0.0
 10
10.4614968394
 20
6.9443943814
 30
0.0
 10
10.4765051365
 20
6.9414735854
 30
0.0
 10
10.4913321827
 20
6.9374586561
 30
0.0
 10
10.5058965724
 20
6.9323717918
 30
0.0
 10
10.5201183633
 20
6.9262410539
 30
0.0
 10
10.533919509
 20
6.919100211
 30
0.0
 10
10.5472242814
 20
6.9109885522
 30
0.0
 10
10.5599596802
 20
6.9019506718
 30
0.0
 10
10.572055829
 20
6.8920362258
 30
0.0
 10
10.5834463538
 20
6.8812996612
 30
0.0
 10
10.5940687432
 20
6.8697999194
 30
0.0
 10
10.6038646878
 20
6.8576001162
 30
0.0
 10
10.6127803971
 20
6.844767198
 30
0.0
 10
10.6207668924
 20
6.8313715821
 30
0.0
 10
10.6277802735
 20
6.8174867599
 30
0.0
 10
10.6337819569
 20
6.8031889555
 30
0.0
 10
10.6387388991
 20
6.7885565012
 30
0.0
 10
10.6426237164
 20
6.7736701974
 30
0.0
 10
10.6449527507
 20
6.7611045431
 30
0.0
 10
10.6462592698
 20
6.7510081922
 30
0.0
 10
10.6471917005
 20
6.7409215027
 30
0.0
 10
10.6474740315
 20
6.7333313368
 30
0.0
 10
10.6474740315
 20
6.7282804966
 30
0.0
  0
SPLINE
  5
373
100
AcDbEntity
  8
0
100
AcDbSpline
 62
7
  6
CONTINUOUS
 70
0
 71
3
 72
80
 73
76
 74
0
 42
0.0000001
 43
0.0000001
 44
0.0000000001
 40
0.0
 40
0.0
 40
0.0
 40
0.0
 40
0.0027164327
 40
0.0054532447
 40
0.0082303176
 40
0.0110666212
 40
0.0139798388
 40
0.016986154
 40
0.0201001347
 40
0.0233346582
 40
0.0267010284
 40
0.0302089968
 40
0.0338669183
 40
0.0376819076
 40
0.0416598906
 40
0.0458058349
 40
0.0501237838
 40
0.0546169826
 40
0.0592880207
 40
0.0641388059
 40
0.0691707482
 40
0.0743847477
 40
0.0853596785
 40
0.0970635549
 40
0.1094903305
 40
0.1226296146
 40
0.1364673135
 40
0.1509861535
 40
0.1661660759
 40
0.1819845508
 40
0.1984168195
 40
0.2154361185
 40
0.2330138792
 40
0.2511198904
 40
0.2697224401
 40
0.2887884373
 40
0.3082835515
 40
0.3281723331
 40
0.348418324
 40
0.368984158
 40
0.3898316649
 40
0.4109219833
 40
0.4536720365
 40
0.4969140898
 40
0.5403224212
 40
0.5835697178
 40
0.6263302119
 40
0.6682828124
 40
0.6888582723
 40
0.7091151075
 40
0.7290159233
 40
0.74852422
 40
0.7676045125
 40
0.7862224423
 40
0.804344885
 40
0.8219400731
 40
0.8389777322
 40
0.8554292445
 40
0.8712678001
 40
0.8864685754
 40
0.9010089485
 40
0.9148687687
 40
0.92803068
 40
0.940480496
 40
0.9522076877
 40
0.9577984663
 40
0.9632066952
 40
0.9684323943
 40
0.9734759977
 40
0.9783383604
 40
0.9830208115
 40
0.987525367
 40
0.9918546057
 40
0.996011597
 40
1.0
 40
1.0
 40
1.0
 40
1.0
 10
12.8978128566
 20
9.7814803152
 30
0.0
 10
12.8968946001
 20
9.7815440015
 30
0.0
 10
12.8950559002
 20
9.781754969
 30
0.0
 10
12.8923212697
 20
9.7823195261
 30
0.0
 10
12.889607294
 20
9.7831320156
 30
0.0
 10
12.8869159318
 20
9.7841917397
 30
0.0
 10
12.8842485595
 20
9.7854977008
 30
0.0
 10
12.8816065332
 20
9.7870488748
 30
0.0
 10
12.8789911114
 20
9.7888442113
 30
0.0
 10
12.8764033974
 20
9.7908824948
 30
0.0
 10
12.8738445645
 20
9.7931626036
 30
0.0
 10
12.871315688
 20
9.7956832553
 30
0.0
 10
12.8688178588
 20
9.7984431307
 30
0.0
 10
12.8663522351
 20
9.8014408663
 30
0.0
 10
12.863919869
 20
9.8046749215
 30
0.0
 10
12.8615219351
 20
9.8081437338
 30
0.0
 10
12.8591595419
 20
9.8118455812
 30
0.0
 10
12.8568337922
 20
9.815778633
 30
0.0
 10
12.8545458599
 20
9.8199409765
 30
0.0
 10
12.852296808
 20
9.8243305285
 30
0.0
 10
12.8500877482
 20
9.8289451432
 30
0.0
 10
12.847146787
 20
9.8355075988
 30
0.0
 10
12.8435902863
 20
9.8442680615
 30
0.0
 10
12.839568844
 20
9.8554661488
 30
0.0
 10
12.8357318913
 20
9.8675006683
 30
0.0
 10
12.8320871498
 20
9.8803476611
 30
0.0
 10
12.8286419696
 20
9.8939817349
 30
0.0
 10
12.8254033375
 20
9.9083757365
 30
0.0
 10
12.8223778345
 20
9.9235009518
 30
0.0
 10
12.8195716212
 20
9.9393271391
 30
0.0
 10
12.8169904067
 20
9.9558226039
 30
0.0
 10
12.8146394395
 20
9.9729542714
 30
0.0
 10
12.8125235053
 20
9.990687768
 30
0.0
 10
12.8106469134
 20
10.0089874959
 30
0.0
 10
12.8090134901
 20
10.0278167025
 30
0.0
 10
12.807626556
 20
10.0471375548
 30
0.0
 10
12.8064889338
 20
10.0669112209
 30
0.0
 10
12.8056029435
 20
10.0870979544
 30
0.0
 10
12.8049703966
 20
10.1076571769
 30
0.0
 10
12.8045925978
 20
10.1285475426
 30
0.0
 10
12.8044702977
 20
10.1497270766
 30
0.0
 10
12.804649162
 20
10.1784235455
 30
0.0
 10
12.8055169828
 20
10.2147015575
 30
0.0
 10
12.8075621962
 20
10.2585047385
 30
0.0
 10
12.8105997766
 20
10.3024192865
 30
0.0
 10
12.8146052855
 20
10.346092334
 30
0.0
 10
12.8195464349
 20
10.3891729497
 30
0.0
 10
12.8244413808
 20
10.424516356
 30
0.0
 10
12.8288042027
 20
10.4522272687
 30
0.0
 10
12.8322621166
 20
10.4725146683
 30
0.0
 10
12.8359198337
 20
10.4923994362
 30
0.0
 10
12.839770011
 20
10.5118416258
 30
0.0
 10
12.8438048669
 20
10.5308021534
 30
0.0
 10
12.8480162531
 20
10.549242925
 30
0.0
 10
12.8523956638
 20
10.5671268968
 30
0.0
 10
12.856934254
 20
10.5844181524
 30
0.0
 10
12.8616228595
 20
10.6010819817
 30
0.0
 10
12.8664519999
 20
10.6170849622
 30
0.0
 10
12.8714119134
 20
10.6323950264
 30
0.0
 10
12.8764925765
 20
10.6469815237
 30
0.0
 10
12.8816837311
 20
10.6608152981
 30
0.0
 10
12.8869749027
 20
10.6738687387
 30
0.0
 10
12.8923554322
 20
10.6861159519
 30
0.0
 10
12.8978144943
 20
10.6975324868
 30
0.0
 10
12.902491626
 20
10.706472511
 30
0.0
 10
12.906271947
 20
10.713182118
 30
0.0
 10
12.9090747522
 20
10.7179123021
 30
0.0
 10
12.9118889967
 20
10.7224185527
 30
0.0
 10
12.9147132875
 20
10.7266986339
 30
0.0
 10
12.9175461877
 20
10.7307504269
 30
0.0
 10
12.9203863658
 20
10.7345719156
 30
0.0
 10
12.9232324198
 20
10.7381612723
 30
0.0
 10
12.9260830449
 20
10.7415167197
 30
0.0
 10
12.9289366759
 20
10.7446364367
 30
0.0
 10
12.9308797167
 20
10.746598013
 30
0.0
 10
12.931851767
 20
10.7475369416
 30
0.0
  0
SPLINE
  5
374
100
AcDbEntity
  8
0
100
AcDbSpline
 62
7
  6
CONTINUOUS
 70
0
 71
3
 72
62
 73
58
 74
0
 42
0.0000001
 43
0.0000001
 44
0.0000000001
 40
0.0
 40
0.0
 40
0.0
 40
0.0
 40
0.0027657873
 40
0.0055964562
 40
0.0115120409
 40
0.0178632548
 40
0.024737815
 40
0.0322013774
 40
0.040301285
 40
0.0490702537
 40
0.0585293799
 40
0.0686907018
 40
0.0795590649
 40
0.0911333856
 40
0.1034077985
 40
0.1163724521
 40
0.1300139795
 40
0.1443160599
 40
0.1592598041
 40
0.17482393
 40
0.1909850895
 40
0.2077180989
 40
0.2249960062
 40
0.2427903155
 40
0.2610711524
 40
0.2798072992
 40
0.2989663651
 40
0.3384177123
 40
0.3791474593
 40
0.4208646279
 40
0.4632688975
 40
0.5060535371
 40
0.5489083129
 40
0.5915223406
 40
0.6335869622
 40
0.6747985993
 40
0.7148616893
 40
0.7343735178
 40
0.7534925378
 40
0.7721853844
 40
0.7904198156
 40
0.8081647421
 40
0.825390373
 40
0.8420684026
 40
0.8581720522
 40
0.8736762532
 40
0.8885579009
 40
0.9027959489
 40
0.9163716799
 40
0.9292690998
 40
0.9414751799
 40
0.9529803541
 40
0.9637792737
 40
0.9738713494
 40
0.9832619427
 40
0.9919644311
 40
1.0
 40
1.0
 40
1.0
 40
1.0
 10
12.8753669351
 20
9.9669433192
 30
0.0
 10
12.8748059802
 20
9.9671080655
 30
0.0
 10
12.873684576
 20
9.9674899675
 30
0.0
 10
12.8714500303
 20
9.9684590115
 30
0.0
 10
12.8686797084
 20
9.9700684427
 30
0.0
 10
12.8654788709
 20
9.972559959
 30
0.0
 10
12.8623544161
 20
9.9756320437
 30
0.0
 10
12.8593100571
 20
9.9792774365
 30
0.0
 10
12.8563491004
 20
9.9834893276
 30
0.0
 10
12.8534758365
 20
9.9882602056
 30
0.0
 10
12.8506948171
 20
9.9935815641
 30
0.0
 10
12.8480108833
 20
9.9994437923
 30
0.0
 10
12.8454289602
 20
10.0058361334
 30
0.0
 10
12.8429538679
 20
10.0127466634
 30
0.0
 10
12.8405903354
 20
10.0201623715
 30
0.0
 10
12.8383429562
 20
10.0280691967
 30
0.0
 10
12.8362160736
 20
10.0364520485
 30
0.0
 10
12.834213831
 20
10.045294873
 30
0.0
 10
12.8323401667
 20
10.0545806954
 30
0.0
 10
12.8305987267
 20
10.0642916446
 30
0.0
 10
12.8289929127
 20
10.0744090076
 30
0.0
 10
12.8275258913
 20
10.0849132728
 30
0.0
 10
12.8262005198
 20
10.09578416
 30
0.0
 10
12.8250193831
 20
10.1070006714
 30
0.0
 10
12.823984821
 20
10.1185411295
 30
0.0
 10
12.8230988233
 20
10.1303832448
 30
0.0
 10
12.8221083407
 20
10.1467035871
 30
0.0
 10
12.8212633363
 20
10.1676882394
 30
0.0
 10
12.8208703151
 20
10.1934551795
 30
0.0
 10
12.8210922701
 20
10.2198483333
 30
0.0
 10
12.8219276647
 20
10.2466636409
 30
0.0
 10
12.8233701868
 20
10.2736939176
 30
0.0
 10
12.8254087577
 20
10.3007302411
 30
0.0
 10
12.8280276029
 20
10.3275636463
 30
0.0
 10
12.8312063525
 20
10.3539868075
 30
0.0
 10
12.8349203058
 20
10.3797954334
 30
0.0
 10
12.8384674877
 20
10.4008053774
 30
0.0
 10
12.8415588363
 20
10.4171507785
 30
0.0
 10
12.8439716412
 20
10.4290259234
 30
0.0
 10
12.8464943712
 20
10.4406019987
 30
0.0
 10
12.8491221305
 20
10.451856646
 30
0.0
 10
12.8518498161
 20
10.4627681069
 30
0.0
 10
12.8546721412
 20
10.473315299
 30
0.0
 10
12.8575835981
 20
10.4834778615
 30
0.0
 10
12.8605785342
 20
10.4932361807
 30
0.0
 10
12.8636511426
 20
10.5025714368
 30
0.0
 10
12.8667954277
 20
10.5114656593
 30
0.0
 10
12.8700052857
 20
10.5199017441
 30
0.0
 10
12.8732745063
 20
10.5278634971
 30
0.0
 10
12.8765967314
 20
10.5353356965
 30
0.0
 10
12.8799655496
 20
10.5423041052
 30
0.0
 10
12.8833745139
 20
10.5487555126
 30
0.0
 10
12.8868171358
 20
10.5546778043
 30
0.0
 10
12.8902869184
 20
10.5600599206
 30
0.0
 10
12.8937777226
 20
10.564892171
 30
0.0
 10
12.897283034
 20
10.5691652609
 30
0.0
 10
12.8997204115
 20
10.5717359976
 30
0.0
 10
12.900942138
 20
10.5729160949
 30
0.0
  0
SPLINE
  5
375
100
AcDbEntity
  8
0
100
AcDbSpline
 62
7
  6
CONTINUOUS
 70
0
 71
3
 72
15
 73
11
 74
0
 42
0.0000001
 43
0.0000001
 44
0.0000000001
 40
0.0
 40
0.0
 40
0.0
 40
0.0
 40
0.1080214509
 40
0.2193208526
 40
0.3348173573
 40
0.4553247049
 40
0.5815484391
 40
0.7140906288
 40
0.8534443495
 40
1.0
 40
1.0
 40
1.0
 40
1.0
 10
12.9180580245
 20
10.5825332745
 30
0.0
 10
12.9173476717
 20
10.58242796
 30
0.0
 10
12.9159156714
 20
10.5821384479
 30
0.0
 10
12.9137847852
 20
10.5814844143
 30
0.0
 10
12.9116460719
 20
10.5806065091
 30
0.0
 10
12.9095013541
 20
10.5795058192
 30
0.0
 10
12.9073518258
 20
10.5781835611
 30
0.0
 10
12.9051988202
 20
10.576640871
 30
0.0
 10
12.9030438
 20
10.5748791899
 30
0.0
 10
12.9016429
 20
10.573592979
 30
0.0
 10
12.900942138
 20
10.5729160949
 30
0.0
  0
SPLINE
  5
376
100
AcDbEntity
  8
0
100
AcDbSpline
 62
7
  6
CONTINUOUS
 70
0
 71
3
 72
87
 73
83
 74
0
 42
0.0000001
 43
0.0000001
 44
0.0000000001
 40
0.0
 40
0.0
 40
0.0
 40
0.0
 40
0.0027164299
 40
0.0054532321
 40
0.0082302981
 40
0.0110665844
 40
0.013979784
 40
0.0169860845
 40
0.023331123
 40
0.0266974588
 40
0.0302054004
 40
0.0338632989
 40
0.0376782464
 40
0.0416562097
 40
0.0458021134
 40
0.050120033
 40
0.0546132036
 40
0.059284201
 40
0.0641349608
 40
0.0691668649
 40
0.074380833
 40
0.0797773
 40
0.085356359
 40
0.0911176998
 40
0.0970607189
 40
0.1031845124
 40
0.1094878868
 40
0.1226271061
 40
0.1364647465
 40
0.1509835351
 40
0.1661634084
 40
0.181981828
 40
0.1984140399
 40
0.2154332916
 40
0.2330110148
 40
0.2511169902
 40
0.2697194985
 40
0.2887854553
 40
0.3082805352
 40
0.3281692889
 40
0.3484152538
 40
0.3689810612
 40
0.3898285444
 40
0.410918843
 40
0.4322125027
 40
0.453669576
 40
0.4969116041
 40
0.540319917
 40
0.5835672042
 40
0.6050288662
 40
0.6263284062
 40
0.6474258619
 40
0.668281762
 40
0.6888572259
 40
0.7091140641
 40
0.729014881
 40
0.7485231807
 40
0.7676034792
 40
0.7862214134
 40
0.8043438582
 40
0.8219390497
 40
0.8389767194
 40
0.8554282406
 40
0.8712667974
 40
0.8864675692
 40
0.901007944
 40
0.9148677755
 40
0.9280296968
 40
0.9343445773
 40
0.9404799644
 40
0.9464346373
 40
0.9522076918
 40
0.957798481
 40
0.9632066961
 40
0.9684323988
 40
0.973476
 40
0.9783383753
 40
0.9830208398
 40
0.9875253696
 40
0.9918545696
 40
0.9960115552
 40
1.0
 40
1.0
 40
1.0
 40
1.0
 10
12.8855332989
 20
8.0956293057
 30
0.0
 10
12.884283759
 20
8.0957159574
 30
0.0
 10
12.8817817077
 20
8.0960030189
 30
0.0
 10
12.8780604734
 20
8.096771121
 30
0.0
 10
12.8743673707
 20
8.0978767388
 30
0.0
 10
12.8707050418
 20
8.0993186642
 30
0.0
 10
12.8670752348
 20
8.1010957859
 30
0.0
 10
12.8621946778
 20
8.1039611807
 30
0.0
 10
12.8574702654
 20
8.1074691643
 30
0.0
 10
12.8529180007
 20
8.1115255272
 30
0.0
 10
12.8494765063
 20
8.1149557221
 30
0.0
 10
12.8460776091
 20
8.1187111845
 30
0.0
 10
12.8427223883
 20
8.122790362
 30
0.0
 10
12.8394125206
 20
8.1271911421
 30
0.0
 10
12.8361494358
 20
8.131911342
 30
0.0
 10
12.8329347539
 20
8.1369486722
 30
0.0
 10
12.8297699315
 20
8.1423006181
 30
0.0
 10
12.8266565461
 20
8.147964567
 30
0.0
 10
12.8235960969
 20
8.1539377136
 30
0.0
 10
12.8205900685
 20
8.1602170989
 30
0.0
 10
12.8176399937
 20
8.1667996243
 30
0.0
 10
12.8147472723
 20
8.173682001
 30
0.0
 10
12.8119134117
 20
8.1808608216
 30
0.0
 10
12.8091397756
 20
8.1883324948
 30
0.0
 10
12.8064277856
 20
8.1960932948
 30
0.0
 10
12.8037787797
 20
8.2041393535
 30
0.0
 10
12.8002841366
 20
8.2153985813
 30
0.0
 10
12.7960952116
 20
8.2301640094
 30
0.0
 10
12.7914070664
 20
8.248716714
 30
0.0
 10
12.7870000034
 20
8.268303666
 30
0.0
 10
12.7828829583
 20
8.2888855956
 30
0.0
 10
12.7790643109
 20
8.310421399
 30
0.0
 10
12.7755518315
 20
8.3328679362
 30
0.0
 10
12.7723526728
 20
8.356180213
 30
0.0
 10
12.7694733469
 20
8.3803114544
 30
0.0
 10
12.7669197124
 20
8.4052132124
 30
0.0
 10
12.7646969673
 20
8.43083547
 30
0.0
 10
12.7628096373
 20
8.4571267478
 30
0.0
 10
12.7612615678
 20
8.48403421
 30
0.0
 10
12.7600559166
 20
8.5115037719
 30
0.0
 10
12.7591951476
 20
8.5394802089
 30
0.0
 10
12.7586810218
 20
8.5679072682
 30
0.0
 10
12.7585145972
 20
8.5967277899
 30
0.0
 10
12.7586962378
 20
8.6258838033
 30
0.0
 10
12.7592255705
 20
8.6553167232
 30
0.0
 10
12.7603966469
 20
8.6949512484
 30
0.0
 10
12.7627219099
 20
8.7447497937
 30
0.0
 10
12.7668553199
 20
8.8045072908
 30
0.0
 10
12.7714087794
 20
8.8541562639
 30
0.0
 10
12.7757061747
 20
8.8935818207
 30
0.0
 10
12.7792347605
 20
8.9228154414
 30
0.0
 10
12.7830697266
 20
8.9517286922
 30
0.0
 10
12.7872033748
 20
8.9802634744
 30
0.0
 10
12.791627361
 20
9.0083623973
 30
0.0
 10
12.7963327652
 20
9.0359689648
 30
0.0
 10
12.8013100952
 20
9.0630276715
 30
0.0
 10
12.8065493093
 20
9.0894841223
 30
0.0
 10
12.8120398299
 20
9.1152851439
 30
0.0
 10
12.8177705706
 20
9.140378893
 30
0.0
 10
12.8237299576
 20
9.1647149614
 30
0.0
 10
12.8299059529
 20
9.188244479
 30
0.0
 10
12.8362860785
 20
9.2109202162
 30
0.0
 10
12.8428574434
 20
9.2326966844
 30
0.0
 10
12.8496067659
 20
9.2535302441
 30
0.0
 10
12.8565204047
 20
9.2733791773
 30
0.0
 10
12.8635843955
 20
9.2922038655
 30
0.0
 10
12.8707844779
 20
9.3099665807
 30
0.0
 10
12.8769681802
 20
9.3240422799
 30
0.0
 10
12.8819811402
 20
9.3347357968
 30
0.0
 10
12.885713886
 20
9.3423577786
 30
0.0
 10
12.8894697769
 20
9.3496887714
 30
0.0
 10
12.8932469097
 20
9.356725134
 30
0.0
 10
12.8970434116
 20
9.363463345
 30
0.0
 10
12.9008573933
 20
9.3699000462
 30
0.0
 10
12.9046869264
 20
9.3760320504
 30
0.0
 10
12.9085301613
 20
9.3818562778
 30
0.0
 10
12.9123851134
 20
9.3873698614
 30
0.0
 10
12.9162499482
 20
9.3925700545
 30
0.0
 10
12.9201227794
 20
9.3974543377
 30
0.0
 10
12.9240018039
 20
9.4020203338
 30
0.0
 10
12.9278849551
 20
9.4062655643
 30
0.0
 10
12.9305290114
 20
9.4089348369
 30
0.0
 10
12.931851767
 20
9.4102125208
 30
0.0
  0
SPLINE
  5
377
100
AcDbEntity
  8
0
100
AcDbSpline
 62
7
  6
CONTINUOUS
 70
0
 71
3
 72
74
 73
70
 74
0
 42
0.0000001
 43
0.0000001
 44
0.0000000001
 40
0.0
 40
0.0
 40
0.0
 40
0.0
 40
0.0027966546
 40
0.0056682183
 40
0.0116913545
 40
0.0148721981
 40
0.0181793217
 40
0.0216219649
 40
0.0252080308
 40
0.028944272
 40
0.0328364138
 40
0.036889186
 40
0.0411065363
 40
0.0454916585
 40
0.0500470582
 40
0.0547747194
 40
0.059676056
 40
0.0700025141
 40
0.0810302932
 40
0.0927569712
 40
0.1051756126
 40
0.1182754822
 40
0.1320426197
 40
0.1464602546
 40
0.1615091005
 40
0.1771676493
 40
0.193412418
 40
0.2102181257
 40
0.2275578249
 40
0.2454030779
 40
0.2637240969
 40
0.2824898479
 40
0.301668142
 40
0.3212257705
 40
0.3411286057
 40
0.3818285434
 40
0.4234806754
 40
0.4657880425
 40
0.508447634
 40
0.5511532257
 40
0.5935981755
 40
0.6354782143
 40
0.6764942703
 40
0.696587341
 40
0.7163560828
 40
0.7357658452
 40
0.7547828439
 40
0.7733742819
 40
0.7915084296
 40
0.8091547208
 40
0.8262838838
 40
0.8428680843
 40
0.8588810294
 40
0.874298112
 40
0.8890966136
 40
0.9032559139
 40
0.9167576967
 40
0.9295862426
 40
0.9417288371
 40
0.9531762129
 40
0.9639231508
 40
0.9690339726
 40
0.9739700079
 40
0.9787320973
 40
0.9833215957
 40
0.9877404596
 40
0.991991133
 40
0.9960764972
 40
1.0
 40
1.0
 40
1.0
 40
1.0
 10
12.8601778422
 20
8.2959958603
 30
0.0
 10
12.8593270818
 20
8.2962966552
 30
0.0
 10
12.8576272313
 20
8.2969779673
 30
0.0
 10
12.8542430562
 20
8.2986512515
 30
0.0
 10
12.8509530257
 20
8.300766251
 30
0.0
 10
12.8477772356
 20
8.3032606868
 30
0.0
 10
12.8453776497
 20
8.3053870966
 30
0.0
 10
12.8430056687
 20
8.307733479
 30
0.0
 10
12.8406618984
 20
8.310298821
 30
0.0
 10
12.8383474333
 20
8.313081833
 30
0.0
 10
12.8360632903
 20
8.3160812365
 30
0.0
 10
12.8338104233
 20
8.3192955717
 30
0.0
 10
12.8315898776
 20
8.3227233574
 30
0.0
 10
12.8294026649
 20
8.3263629849
 30
0.0
 10
12.8272497538
 20
8.330212723
 30
0.0
 10
12.8251321663
 20
8.3342707958
 30
0.0
 10
12.8223078847
 20
8.3400578846
 30
0.0
 10
12.8188840006
 20
8.3478105853
 30
0.0
 10
12.8150002252
 20
8.35775586
 30
0.0
 10
12.8112801462
 20
8.3684804566
 30
0.0
 10
12.8077308502
 20
8.379964078
 30
0.0
 10
12.8043591166
 20
8.3921851842
 30
0.0
 10
12.801171443
 20
8.4051206503
 30
0.0
 10
12.7981739993
 20
8.4187459477
 30
0.0
 10
12.7953725766
 20
8.4330351558
 30
0.0
 10
12.7927725924
 20
8.4479610419
 30
0.0
 10
12.7903790863
 20
8.4634951316
 30
0.0
 10
12.788196708
 20
8.4796077625
 30
0.0
 10
12.7862296751
 20
8.496268137
 30
0.0
 10
12.7844817947
 20
8.5134443935
 30
0.0
 10
12.7829564587
 20
8.5311036773
 30
0.0
 10
12.7816566312
 20
8.5492122002
 30
0.0
 10
12.780584828
 20
8.567735291
 30
0.0
 10
12.7797430986
 20
8.586637517
 30
0.0
 10
12.7789238037
 20
8.6124897056
 30
0.0
 10
12.7784958078
 20
8.645484057
 30
0.0
 10
12.77891665
 20
8.6857079278
 30
0.0
 10
12.7802656044
 20
8.726544018
 30
0.0
 10
12.7825324519
 20
8.7676797605
 30
0.0
 10
12.7856999779
 20
8.8088004805
 30
0.0
 10
12.7897438687
 20
8.8495916242
 30
0.0
 10
12.7946330846
 20
8.8897409742
 30
0.0
 10
12.7994124141
 20
8.9226294825
 30
0.0
 10
12.8036391014
 20
8.9483815718
 30
0.0
 10
12.806973516
 20
8.9672137816
 30
0.0
 10
12.8104874808
 20
8.9856599877
 30
0.0
 10
12.8141742814
 20
9.0036849001
 30
0.0
 10
12.8180268125
 20
9.0212540158
 30
0.0
 10
12.8220376667
 20
9.0383337189
 30
0.0
 10
12.8261991362
 20
9.0548913298
 30
0.0
 10
12.830503222
 20
9.0708951827
 30
0.0
 10
12.834941632
 20
9.0863146945
 30
0.0
 10
12.8395058243
 20
9.1011204139
 30
0.0
 10
12.8441870251
 20
9.1152840771
 30
0.0
 10
12.8489762297
 20
9.1287786839
 30
0.0
 10
12.8538642176
 20
9.1415785572
 30
0.0
 10
12.8588415986
 20
9.1536593932
 30
0.0
 10
12.8638988385
 20
9.1649982877
 30
0.0
 10
12.8690262835
 20
9.1755739204
 30
0.0
 10
12.874214137
 20
9.1853662535
 30
0.0
 10
12.8786508702
 20
9.1929814145
 30
0.0
 10
12.882230201
 20
9.198656907
 30
0.0
 10
12.8848785675
 20
9.2026347232
 30
0.0
 10
12.8875346165
 20
9.206403447
 30
0.0
 10
12.8901971699
 20
9.2099613153
 30
0.0
 10
12.8928649776
 20
9.213306711
 30
0.0
 10
12.8955368775
 20
9.2164380299
 30
0.0
 10
12.8982114316
 20
9.2193536543
 30
0.0
 10
12.9000315914
 20
9.2211891913
 30
0.0
 10
12.900942138
 20
9.2220687118
 30
0.0
  0
SPLINE
  5
378
100
AcDbEntity
  8
0
100
AcDbSpline
 62
7
  6
CONTINUOUS
 70
0
 71
3
 72
15
 73
11
 74
0
 42
0.0000001
 43
0.0000001
 44
0.0000000001
 40
0.0
 40
0.0
 40
0.0
 40
0.0
 40
0.1084411279
 40
0.2203204234
 40
0.3363917976
 40
0.4573220227
 40
0.5836916406
 40
0.7159994405
 40
0.8546588732
 40
1.0
 40
1.0
 40
1.0
 40
1.0
 10
12.9254002895
 20
9.2364724839
 30
0.0
 10
12.9243818007
 20
9.2362645822
 30
0.0
 10
12.9223315831
 20
9.2357432607
 30
0.0
 10
12.9192859692
 20
9.2346726062
 30
0.0
 10
12.9162304642
 20
9.2333042585
 30
0.0
 10
12.9131672669
 20
9.2316395682
 30
0.0
 10
12.9100979011
 20
9.2296799624
 30
0.0
 10
12.9070240341
 20
9.2274268595
 30
0.0
 10
12.903947537
 20
9.2248820096
 30
0.0
 10
12.9019442081
 20
9.2230366372
 30
0.0
 10
12.900942138
 20
9.2220687118
 30
0.0
  0
SPLINE
  5
379
100
AcDbEntity
  8
0
100
AcDbSpline
 62
7
  6
CONTINUOUS
 70
0
 71
3
 72
73
 73
69
 74
0
 42
0.0000001
 43
0.0000001
 44
0.0000000001
 40
0.0
 40
0.0
 40
0.0
 40
0.0
 40
0.0038702301
 40
0.0078968099
 40
0.0120830248
 40
0.0164316336
 40
0.0209449903
 40
0.0256249936
 40
0.0304729794
 40
0.0354897976
 40
0.0460310315
 40
0.0572495104
 40
0.06914077
 40
0.0816965136
 40
0.0949051756
 40
0.1087523427
 40
0.1232211384
 40
0.1382924985
 40
0.1539453635
 40
0.1701568827
 40
0.1869026025
 40
0.2041566002
 40
0.2218915808
 40
0.2400790159
 40
0.2586892626
 40
0.2776916501
 40
0.2970545551
 40
0.3167455167
 40
0.3569774026
 40
0.3981147598
 40
0.4398761875
 40
0.4819747599
 40
0.5241206045
 40
0.5660234327
 40
0.6073950779
 40
0.6479520663
 40
0.6678387422
 40
0.6874188931
 40
0.7066595642
 40
0.7255285771
 40
0.7439946261
 40
0.762027391
 40
0.7795976092
 40
0.7966771683
 40
0.8132392354
 40
0.829258389
 40
0.8447107214
 40
0.8595739823
 40
0.8738277842
 40
0.8874538027
 40
0.9004359897
 40
0.9127608747
 40
0.9244179809
 40
0.9354002816
 40
0.9457047956
 40
0.9506036222
 40
0.955334206
 40
0.9598977178
 40
0.9642957857
 40
0.9685305963
 40
0.9726048566
 40
0.9765219571
 40
0.9802860271
 40
0.9839019717
 40
0.9873756693
 40
0.9907139989
 40
0.9939249579
 40
1.0
 40
1.0
 40
1.0
 40
1.0
 10
12.900942138
 20
9.7992094622
 30
0.0
 10
12.9018703309
 20
9.8001060277
 30
0.0
 10
12.9037258073
 20
9.8019754901
 30
0.0
 10
12.9064534285
 20
9.8049418885
 30
0.0
 10
12.9091784559
 20
9.8081237909
 30
0.0
 10
12.9118994807
 20
9.8115196188
 30
0.0
 10
12.9146153636
 20
9.8151278089
 30
0.0
 10
12.9173248821
 20
9.8189467871
 30
0.0
 10
12.9200268822
 20
9.8229748404
 30
0.0
 10
12.9236782536
 20
9.8287170037
 30
0.0
 10
12.9282058143
 20
9.8364158336
 30
0.0
 10
12.9335032371
 20
9.8463100706
 30
0.0
 10
12.9387415172
 20
9.8569891032
 30
0.0
 10
12.9439110572
 20
9.8684335199
 30
0.0
 10
12.9490023989
 20
9.8806226815
 30
0.0
 10
12.9540061912
 20
9.8935344235
 30
0.0
 10
12.9589132172
 20
9.9071452335
 30
0.0
 10
12.9637144168
 20
9.921430273
 30
0.0
 10
12.9684009354
 20
9.9363634231
 30
0.0
 10
12.9729641323
 20
9.9519173427
 30
0.0
 10
12.9773955844
 20
9.9680635387
 30
0.0
 10
12.9816871033
 20
9.9847724168
 30
0.0
 10
12.9858307793
 20
10.0020133265
 30
0.0
 10
12.9898189735
 20
10.0197546274
 30
0.0
 10
12.9936443299
 20
10.0379637613
 30
0.0
 10
12.9972997781
 20
10.0566072951
 30
0.0
 10
13.0007786201
 20
10.075651017
 30
0.0
 10
13.0052045085
 20
10.1017155942
 30
0.0
 10
13.0102394192
 20
10.1350383945
 30
0.0
 10
13.0154425476
 20
10.1757675218
 30
0.0
 10
13.0198105947
 20
10.2172205729
 30
0.0
 10
13.0233113887
 20
10.2590931947
 30
0.0
 10
13.0259191178
 20
10.301078137
 30
0.0
 10
13.0276147367
 20
10.3428673026
 30
0.0
 10
13.0283858496
 20
10.3841538528
 30
0.0
 10
13.0282529073
 20
10.4181063171
 30
0.0
 10
13.0276709455
 20
10.4447837269
 30
0.0
 10
13.0270047856
 20
10.464348389
 30
0.0
 10
13.0261074322
 20
10.4835641202
 30
0.0
 10
13.0249805267
 20
10.5023956561
 30
0.0
 10
13.0236261637
 20
10.5208084067
 30
0.0
 10
13.02204687
 20
10.5387685715
 30
0.0
 10
13.0202455828
 20
10.5562431848
 30
0.0
 10
13.0182256404
 20
10.5732001766
 30
0.0
 10
13.0159907912
 20
10.5896084415
 30
0.0
 10
13.013545198
 20
10.6054379025
 30
0.0
 10
13.0108934048
 20
10.6206595591
 30
0.0
 10
13.008040325
 20
10.635245543
 30
0.0
 10
13.0049912572
 20
10.6491691891
 30
0.0
 10
13.0017518681
 20
10.6624050904
 30
0.0
 10
12.9983281574
 20
10.6749291501
 30
0.0
 10
12.9947264362
 20
10.6867186072
 30
0.0
 10
12.9909533287
 20
10.6977522304
 30
0.0
 10
12.9870157479
 20
10.7080099742
 30
0.0
 10
12.9835472135
 20
10.7160264088
 30
0.0
 10
12.9806869255
 20
10.7220269604
 30
0.0
 10
12.9785413229
 20
10.7262457683
 30
0.0
 10
12.976360082
 20
10.7302572336
 30
0.0
 10
12.9741441196
 20
10.7340595371
 30
0.0
 10
12.9718944774
 20
10.7376509884
 30
0.0
 10
12.9696120959
 20
10.7410299471
 30
0.0
 10
12.9672979718
 20
10.744194895
 30
0.0
 10
12.9649531362
 20
10.7471444227
 30
0.0
 10
12.9625784883
 20
10.7498771691
 30
0.0
 10
12.9601751551
 20
10.7523918397
 30
0.0
 10
12.9577437565
 20
10.7546875111
 30
0.0
 10
12.9545264785
 20
10.7574037994
 30
0.0
 10
12.951984415
 20
10.7591912597
 30
0.0
 10
12.9502484955
 20
10.7602352478
 30
0.0
  0
SPLINE
  5
37A
100
AcDbEntity
  8
0
100
AcDbSpline
 62
7
  6
CONTINUOUS
 70
0
 71
3
 72
11
 73
7
 74
0
 42
0.0000001
 43
0.0000001
 44
0.0000000001
 40
0.0
 40
0.0
 40
0.0
 40
0.0
 40
0.2755422938
 40
0.5329409748
 40
0.7737466434
 40
1.0
 40
1.0
 40
1.0
 40
1.0
 10
12.900942138
 20
9.7992094622
 30
0.0
 10
12.8994470237
 20
9.7977652926
 30
0.0
 10
12.8964591726
 20
9.7950685699
 30
0.0
 10
12.8918203241
 20
9.7915137411
 30
0.0
 10
12.8871880167
 20
9.7885979964
 30
0.0
 10
12.8840176771
 20
9.7870404138
 30
0.0
 10
12.8824428214
 20
9.7863822276
 30
0.0
  0
SPLINE
  5
37B
100
AcDbEntity
  8
0
100
AcDbSpline
 62
7
  6
CONTINUOUS
 70
0
 71
3
 72
19
 73
15
 74
0
 42
0.0000001
 43
0.0000001
 44
0.0000000001
 40
0.0
 40
0.0
 40
0.0
 40
0.0
 40
0.1528781462
 40
0.2945796176
 40
0.4262319095
 40
0.5493499192
 40
0.6083248902
 40
0.6659124368
 40
0.7224094839
 40
0.7781328005
 40
0.8334133979
 40
0.8885910732
 40
0.9440076235
 40
1.0
 40
1.0
 40
1.0
 40
1.0
 10
12.900942138
 20
9.9759738989
 30
0.0
 10
12.8998980703
 20
9.9749654069
 30
0.0
 10
12.8978118242
 20
9.9730965558
 30
0.0
 10
12.8945591049
 20
9.9706777332
 30
0.0
 10
12.8913108132
 20
9.9687595292
 30
0.0
 10
12.8885709435
 20
9.9675660184
 30
0.0
 10
12.8863986792
 20
9.9668816379
 30
0.0
 10
12.8847980002
 20
9.9665032617
 30
0.0
 10
12.8832035695
 20
9.9662529358
 30
0.0
 10
12.8816161213
 20
9.9661307998
 30
0.0
 10
12.8800364874
 20
9.9661370181
 30
0.0
 10
12.8784654787
 20
9.9662716764
 30
0.0
 10
12.8769040543
 20
9.9665345977
 30
0.0
 10
12.8758770453
 20
9.9667935054
 30
0.0
 10
12.8753669351
 20
9.9669433192
 30
0.0
  0
SPLINE
  5
37C
100
AcDbEntity
  8
0
100
AcDbSpline
 62
7
  6
CONTINUOUS
 70
0
 71
3
 72
70
 73
66
 74
0
 42
0.0000001
 43
0.0000001
 44
0.0000000001
 40
0.0
 40
0.0
 40
0.0
 40
0.0
 40
0.0082508906
 40
0.0172131727
 40
0.0269097911
 40
0.0373546299
 40
0.0485526365
 40
0.0605021514
 40
0.0731961951
 40
0.0866231928
 40
0.1007676803
 40
0.1156109138
 40
0.1311312432
 40
0.1473043728
 40
0.1641037211
 40
0.1815006509
 40
0.1994645873
 40
0.2179632406
 40
0.2369627959
 40
0.2564279984
 40
0.2763222876
 40
0.2966079749
 40
0.3381968416
 40
0.3808752103
 40
0.4243116432
 40
0.4681670661
 40
0.5120982191
 40
0.5557610906
 40
0.5988143484
 40
0.6409227578
 40
0.6817606675
 40
0.7016054119
 40
0.7210166091
 40
0.7399578493
 40
0.7583940632
 40
0.7762915956
 40
0.7936183408
 40
0.8103439778
 40
0.8264400943
 40
0.8418803476
 40
0.8566407715
 40
0.8707000498
 40
0.8840397813
 40
0.8966449486
 40
0.9085045177
 40
0.9196120472
 40
0.9299666299
 40
0.9395742469
 40
0.9441027245
 40
0.9484507512
 40
0.9526218424
 40
0.9566204339
 40
0.9604518657
 40
0.9641226156
 40
0.9676404397
 40
0.9710144201
 40
0.9773714526
 40
0.9803845682
 40
0.9833067077
 40
0.9861554261
 40
0.9889498005
 40
0.9917101771
 40
0.9944577148
 40
0.9972138995
 40
1.0
 40
1.0
 40
1.0
 40
1.0
 10
12.900942138
 20
9.9759738989
 30
0.0
 10
12.9022135144
 20
9.9772019543
 30
0.0
 10
12.904749377
 20
9.9798860138
 30
0.0
 10
12.9083901427
 20
9.9843611742
 30
0.0
 10
12.9120146667
 20
9.9894389594
 30
0.0
 10
12.9156156832
 20
9.9951088806
 30
0.0
 10
12.9191862799
 20
10.0013599526
 30
0.0
 10
12.9227191961
 20
10.0081795663
 30
0.0
 10
12.9262071774
 20
10.015553905
 30
0.0
 10
12.9296429757
 20
10.0234678917
 30
0.0
 10
12.9330194426
 20
10.0319052346
 30
0.0
 10
12.9363295042
 20
10.0408485097
 30
0.0
 10
12.9395662045
 20
10.050279196
 30
0.0
 10
12.9427227699
 20
10.0601777052
 30
0.0
 10
12.9457925747
 20
10.0705234537
 30
0.0
 10
12.9487691574
 20
10.0812949117
 30
0.0
 10
12.9516462796
 20
10.0924696338
 30
0.0
 10
12.9544179107
 20
10.1040243188
 30
0.0
 10
12.9570782248
 20
10.1159348725
 30
0.0
 10
12.9596216326
 20
10.1281764395
 30
0.0
 10
12.9620428406
 20
10.1407234843
 30
0.0
 10
12.9651268354
 20
10.1579680953
 30
0.0
 10
12.9686315461
 20
10.1800938328
 30
0.0
 10
12.9722431567
 20
10.2072156023
 30
0.0
 10
12.9752642575
 20
10.2348979745
 30
0.0
 10
12.9776695023
 20
10.2629099251
 30
0.0
 10
12.9794387676
 20
10.2910178309
 30
0.0
 10
12.9805572892
 20
10.3189871892
 30
0.0
 10
12.9810159133
 20
10.346584739
 30
0.0
 10
12.9808109842
 20
10.3735801629
 30
0.0
 10
12.9800824003
 20
10.3955924062
 30
0.0
 10
12.9791593517
 20
10.4127269625
 30
0.0
 10
12.9783105667
 20
10.4251663786
 30
0.0
 10
12.9773005585
 20
10.4372909818
 30
0.0
 10
12.9761314541
 20
10.4490754955
 30
0.0
 10
12.9748057336
 20
10.4604953306
 30
0.0
 10
12.973326182
 20
10.4715266729
 30
0.0
 10
12.9716959419
 20
10.4821465368
 30
0.0
 10
12.9699184691
 20
10.4923328124
 30
0.0
 10
12.9679975059
 20
10.5020643078
 30
0.0
 10
12.9659371137
 20
10.5113208131
 30
0.0
 10
12.9637416589
 20
10.5200831521
 30
0.0
 10
12.9614157584
 20
10.5283332137
 30
0.0
 10
12.9589642788
 20
10.5360540241
 30
0.0
 10
12.9563923586
 20
10.5432297784
 30
0.0
 10
12.9537052811
 20
10.5498460047
 30
0.0
 10
12.950908509
 20
10.5558891657
 30
0.0
 10
12.9484446169
 20
10.5605253941
 30
0.0
 10
12.9464161322
 20
10.5639271285
 30
0.0
 10
12.9449010148
 20
10.5662768915
 30
0.0
 10
12.9433628165
 20
10.5684744763
 30
0.0
 10
12.9418023051
 20
10.5705187914
 30
0.0
 10
12.9402201789
 20
10.5724087779
 30
0.0
 10
12.9386172324
 20
10.5741433984
 30
0.0
 10
12.9369940164
 20
10.5757219418
 30
0.0
 10
12.9348469989
 20
10.5775799229
 30
0.0
 10
12.9326175387
 20
10.5791735559
 30
0.0
 10
12.9303152279
 20
10.5804565222
 30
0.0
 10
12.9286026495
 20
10.5812415985
 30
0.0
 10
12.9268747618
 20
10.5818658008
 30
0.0
 10
12.9251324725
 20
10.5823284988
 30
0.0
 10
12.923376972
 20
10.5826292662
 30
0.0
 10
12.9216094203
 20
10.5827678044
 30
0.0
 10
12.9198312585
 20
10.5827439486
 30
0.0
 10
12.9186484516
 20
10.5826208092
 30
0.0
 10
12.9180580245
 20
10.5825332745
 30
0.0
  0
SPLINE
  5
37D
100
AcDbEntity
  8
0
100
AcDbSpline
 62
7
  6
CONTINUOUS
 70
0
 71
3
 72
35
 73
31
 74
0
 42
0.0000001
 43
0.0000001
 44
0.0000000001
 40
0.0
 40
0.0
 40
0.0
 40
0.0
 40
0.0246597879
 40
0.0505287181
 40
0.0775491499
 40
0.1056583108
 40
0.1347888235
 40
0.164869189
 40
0.1958242507
 40
0.2275755861
 40
0.2600418683
 40
0.2931391968
 40
0.3267814471
 40
0.3608806155
 40
0.4300885883
 40
0.5000350789
 40
0.569980389
 40
0.639184829
 40
0.6732813675
 40
0.7069204222
 40
0.7400139966
 40
0.7724759775
 40
0.8042224894
 40
0.8351722221
 40
0.8652467684
 40
0.8943709875
 40
0.9224734067
 40
0.9494866899
 40
0.9753480919
 40
1.0
 40
1.0
 40
1.0
 40
1.0
 10
12.830808905
 20
10.0635497774
 30
0.0
 10
12.8320221054
 20
10.0669091882
 30
0.0
 10
12.8344087782
 20
10.073828867
 30
0.0
 10
12.837800317
 20
10.0845380249
 30
0.0
 10
12.841081975
 20
10.0958026941
 30
0.0
 10
12.8442443933
 20
10.1075911046
 30
0.0
 10
12.8472785971
 20
10.1198701278
 30
0.0
 10
12.8501759739
 20
10.1326051758
 30
0.0
 10
12.8529283012
 20
10.1457603701
 30
0.0
 10
12.8555277695
 20
10.1592986319
 30
0.0
 10
12.8579670042
 20
10.1731817936
 30
0.0
 10
12.860239084
 20
10.1873706917
 30
0.0
 10
12.8623376052
 20
10.2018253267
 30
0.0
 10
12.8649087678
 20
10.2214945056
 30
0.0
 10
12.8676428043
 20
10.2464428688
 30
0.0
 10
12.8701366432
 20
10.2766298599
 30
0.0
 10
12.8718310043
 20
10.3068717485
 30
0.0
 10
12.8725647282
 20
10.3319576823
 30
0.0
 10
12.8727314648
 20
10.3517921449
 30
0.0
 10
12.8726469702
 20
10.3663966851
 30
0.0
 10
12.8723538994
 20
10.3807617282
 30
0.0
 10
12.8718530761
 20
10.3948467785
 30
0.0
 10
12.8711459585
 20
10.4086120988
 30
0.0
 10
12.8702345833
 20
10.4220188757
 30
0.0
 10
12.86912157
 20
10.4350293127
 30
0.0
 10
12.8678101118
 20
10.4476067456
 30
0.0
 10
12.8663039681
 20
10.4597157382
 30
0.0
 10
12.8646074632
 20
10.4713222515
 30
0.0
 10
12.8627254817
 20
10.4823935375
 30
0.0
 10
12.8613160331
 20
10.4895739946
 30
0.0
 10
12.8605777748
 20
10.4930674627
 30
0.0
  0
SPLINE
  5
37E
100
AcDbEntity
  8
0
100
AcDbSpline
 62
7
  6
CONTINUOUS
 70
0
 71
3
 72
15
 73
11
 74
0
 42
0.0000001
 43
0.0000001
 44
0.0000000001
 40
0.0
 40
0.0
 40
0.0
 40
0.0
 40
0.1217262928
 40
0.2462470311
 40
0.3726460086
 40
0.4999892423
 40
0.6273338368
 40
0.7537368878
 40
0.8782643678
 40
1.0
 40
1.0
 40
1.0
 40
1.0
 10
12.8210382792
 20
10.1911221938
 30
0.0
 10
12.8221989108
 20
10.1982293258
 30
0.0
 10
12.8243645299
 20
10.2126370653
 30
0.0
 10
12.8271242645
 20
10.2345111088
 30
0.0
 10
12.8294181087
 20
10.2567730483
 30
0.0
 10
12.8312278357
 20
10.2792470861
 30
0.0
 10
12.8325391249
 20
10.3017559482
 30
0.0
 10
12.8333416808
 20
10.324122079
 30
0.0
 10
12.8336292731
 20
10.3461688423
 30
0.0
 10
12.8334741869
 20
10.3607385548
 30
0.0
 10
12.8333062177
 20
10.3679384253
 30
0.0
  0
SPLINE
  5
37F
100
AcDbEntity
  8
0
100
AcDbSpline
 62
7
  6
CONTINUOUS
 70
0
 71
3
 72
18
 73
14
 74
0
 42
0.0000001
 43
0.0000001
 44
0.0000000001
 40
0.0
 40
0.0
 40
0.0
 40
0.0
 40
0.1504680185
 40
0.2917144324
 40
0.4244425615
 40
0.4879099171
 40
0.5496094205
 40
0.6682625585
 40
0.7817882768
 40
0.8371379945
 40
0.8918078237
 40
0.9460192726
 40
1.0
 40
1.0
 40
1.0
 40
1.0
 10
12.931851767
 20
9.7970658722
 30
0.0
 10
12.9304608313
 20
9.7957223314
 30
0.0
 10
12.9276808453
 20
9.7932014573
 30
0.0
 10
12.9233763329
 20
9.789842084
 30
0.0
 10
12.9197404363
 20
9.7874661613
 30
0.0
 10
12.9168411321
 20
9.7858572602
 30
0.0
 10
12.9140271223
 20
9.7844759723
 30
0.0
 10
12.910508719
 20
9.7830802279
 30
0.0
 10
12.9069277279
 20
9.7821277686
 30
0.0
 10
12.9040914767
 20
9.7816585784
 30
0.0
 10
12.9019894229
 20
9.7814503441
 30
0.0
 10
12.8998958723
 20
9.7813831038
 30
0.0
 10
12.8985049695
 20
9.7814323132
 30
0.0
 10
12.8978128566
 20
9.7814803152
 30
0.0
  0
SPLINE
  5
380
100
AcDbEntity
  8
0
100
AcDbSpline
 62
7
  6
CONTINUOUS
 70
0
 71
3
 72
83
 73
79
 74
0
 42
0.0000001
 43
0.0000001
 44
0.0000000001
 40
0.0
 40
0.0
 40
0.0
 40
0.0
 40
0.0039016173
 40
0.0079627728
 40
0.0121868602
 40
0.0165767596
 40
0.0211349106
 40
0.0258632297
 40
0.0307630128
 40
0.0358351405
 40
0.0410800952
 40
0.0464980009
 40
0.0520886997
 40
0.0578516811
 40
0.0698908519
 40
0.0826071479
 40
0.0959883278
 40
0.1100192363
 40
0.1246821597
 40
0.1399571019
 40
0.1558220312
 40
0.1722530825
 40
0.1892247252
 40
0.2067099078
 40
0.2246801813
 40
0.2431058284
 40
0.2619559775
 40
0.281198706
 40
0.3008011359
 40
0.3207295228
 40
0.3409493549
 40
0.3614254444
 40
0.3821220145
 40
0.4030027835
 40
0.445169133
 40
0.4876280458
 40
0.5300797825
 40
0.5722246667
 40
0.5930894017
 40
0.6137664489
 40
0.6342195697
 40
0.6544130403
 40
0.6743117348
 40
0.6938812123
 40
0.7130878058
 40
0.7318987222
 40
0.7502821359
 40
0.768207283
 40
0.7856445643
 40
0.802565657
 40
0.818943646
 40
0.8347531546
 40
0.8499704877
 40
0.8645738013
 40
0.8785433043
 40
0.8918615101
 40
0.9045135275
 40
0.9164874172
 40
0.9222174974
 40
0.9277751772
 40
0.9331600082
 40
0.9383718877
 40
0.9434109902
 40
0.9482778931
 40
0.952973567
 40
0.9574994115
 40
0.961857376
 40
0.9660499248
 40
0.9700801979
 40
0.9739520408
 40
0.9776700897
 40
0.9812399296
 40
0.9846681193
 40
0.9879623837
 40
0.9911316819
 40
0.9941863087
 40
0.9971380175
 40
1.0
 40
1.0
 40
1.0
 40
1.0
 10
12.900942138
 20
8.1189813528
 30
0.0
 10
12.9022212686
 20
8.1202168981
 30
0.0
 10
12.9047782274
 20
8.1227945011
 30
0.0
 10
12.9085360753
 20
8.1268870748
 30
0.0
 10
12.9122902103
 20
8.1312801809
 30
0.0
 10
12.9160387164
 20
8.1359715829
 30
0.0
 10
12.9197799747
 20
8.1409591151
 30
0.0
 10
12.9235122587
 20
8.146240535
 30
0.0
 10
12.9272339217
 20
8.1518133761
 30
0.0
 10
12.9309431827
 20
8.1576750615
 30
0.0
 10
12.9346383143
 20
8.163822851
 30
0.0
 10
12.9383176196
 20
8.1702538645
 30
0.0
 10
12.9419793574
 20
8.1769651318
 30
0.0
 10
12.9469079174
 20
8.1864211212
 30
0.0
 10
12.9530011863
 20
8.1989296306
 30
0.0
 10
12.9601135332
 20
8.2147939979
 30
0.0
 10
12.9671155314
 20
8.2316942788
 30
0.0
 10
12.9739939633
 20
8.2495988101
 30
0.0
 10
12.980735838
 20
8.2684742219
 30
0.0
 10
12.9873284131
 20
8.2882851716
 30
0.0
 10
12.9937592206
 20
8.3089945282
 30
0.0
 10
13.0000160935
 20
8.3305634305
 30
0.0
 10
13.0060871933
 20
8.3529513756
 30
0.0
 10
13.0119610299
 20
8.3761162926
 30
0.0
 10
13.0176264987
 20
8.4000146232
 30
0.0
 10
13.0230728891
 20
8.4246014114
 30
0.0
 10
13.028289905
 20
8.4498303966
 30
0.0
 10
13.0332676848
 20
8.4756541024
 30
0.0
 10
13.037996818
 20
8.5020239232
 30
0.0
 10
13.0424683738
 20
8.5288902135
 30
0.0
 10
13.0466739119
 20
8.55620239
 30
0.0
 10
13.0506054832
 20
8.5839090151
 30
0.0
 10
13.0542556948
 20
8.6119579558
 30
0.0
 10
13.0587526258
 20
8.6498643535
 30
0.0
 10
13.0636175675
 20
8.6977130397
 30
0.0
 10
13.0682204533
 20
8.7554577881
 30
0.0
 10
13.071572042
 20
8.813278858
 30
0.0
 10
13.0733073073
 20
8.8613225425
 30
0.0
 10
13.0740443752
 20
8.8994616383
 30
0.0
 10
13.0742697277
 20
8.9277195223
 30
0.0
 10
13.0741691473
 20
8.9556721393
 30
0.0
 10
13.0737428207
 20
8.9832668939
 30
0.0
 10
13.0729915801
 20
9.010451814
 30
0.0
 10
13.0719168633
 20
9.0371757145
 30
0.0
 10
13.0705207197
 20
9.0633882792
 30
0.0
 10
13.0688058156
 20
9.0890401643
 30
0.0
 10
13.0667754245
 20
9.1140830921
 30
0.0
 10
13.0644334157
 20
9.1384699402
 30
0.0
 10
13.0617842498
 20
9.1621548288
 30
0.0
 10
13.0588329673
 20
9.1850932137
 30
0.0
 10
13.0555851915
 20
9.2072419788
 30
0.0
 10
13.0520471129
 20
9.228559523
 30
0.0
 10
13.0482254701
 20
9.249005836
 30
0.0
 10
13.0441275391
 20
9.2685425873
 30
0.0
 10
13.0397611104
 20
9.2871331834
 30
0.0
 10
13.035134486
 20
9.3047429591
 30
0.0
 10
13.0302564352
 20
9.3213389144
 30
0.0
 10
13.0259284974
 20
9.3344844787
 30
0.0
 10
13.0223370727
 20
9.3444612759
 30
0.0
 10
13.0196259596
 20
9.3515613827
 30
0.0
 10
13.0168590086
 20
9.3583857191
 30
0.0
 10
13.0140375465
 20
9.3649311276
 30
0.0
 10
13.0111628407
 20
9.3711945394
 30
0.0
 10
13.0082362534
 20
9.3771730491
 30
0.0
 10
13.0052591492
 20
9.3828638865
 30
0.0
 10
13.0022328473
 20
9.3882643929
 30
0.0
 10
12.9991587967
 20
9.3933721006
 30
0.0
 10
12.9960383231
 20
9.3981846223
 30
0.0
 10
12.9928728541
 20
9.402699752
 30
0.0
 10
12.9896637947
 20
9.4069154146
 30
0.0
 10
12.9864124854
 20
9.4108296184
 30
0.0
 10
12.983120385
 20
9.4144405868
 30
0.0
 10
12.9797888055
 20
9.4177465513
 30
0.0
 10
12.9764191514
 20
9.4207459284
 30
0.0
 10
12.9730128276
 20
9.4234371949
 30
0.0
 10
12.9695710989
 20
9.4258188731
 30
0.0
 10
12.9660957617
 20
9.4278895275
 30
0.0
 10
12.9637241192
 20
9.4290783271
 30
0.0
 10
12.9625359863
 20
9.4296169758
 30
0.0
  0
SPLINE
  5
381
100
AcDbEntity
  8
0
100
AcDbSpline
 62
7
  6
CONTINUOUS
 70
0
 71
3
 72
15
 73
11
 74
0
 42
0.0000001
 43
0.0000001
 44
0.0000000001
 40
0.0
 40
0.0
 40
0.0
 40
0.0
 40
0.1432718809
 40
0.2806894299
 40
0.4124987639
 40
0.5390020908
 40
0.6605601955
 40
0.7775877711
 40
0.8905571141
 40
1.0
 40
1.0
 40
1.0
 40
1.0
 10
12.900942138
 20
8.1189813528
 30
0.0
 10
12.899680275
 20
8.1177624867
 30
0.0
 10
12.8971573828
 20
8.1154262349
 30
0.0
 10
12.8932934452
 20
8.1121699137
 30
0.0
 10
12.8894322802
 20
8.1092380932
 30
0.0
 10
12.8855757936
 20
8.1066325301
 30
0.0
 10
12.8817257077
 20
8.1043545955
 30
0.0
 10
12.877883548
 20
8.1024056628
 30
0.0
 10
12.8740514371
 20
8.1007870238
 30
0.0
 10
12.8714674083
 20
8.0999165445
 30
0.0
 10
12.8701812162
 20
8.099540068
 30
0.0
  0
SPLINE
  5
382
100
AcDbEntity
  8
0
100
AcDbSpline
 62
7
  6
CONTINUOUS
 70
0
 71
3
 72
22
 73
18
 74
0
 42
0.0000001
 43
0.0000001
 44
0.0000000001
 40
0.0
 40
0.0
 40
0.0
 40
0.0
 40
0.0781418398
 40
0.1532422123
 40
0.225421001
 40
0.2948219366
 40
0.3616186678
 40
0.4260103985
 40
0.5484368379
 40
0.6070812033
 40
0.6643922795
 40
0.720704732
 40
0.7763727871
 40
0.8317643897
 40
0.8872533099
 40
0.9432113249
 40
1.0
 40
1.0
 40
1.0
 40
1.0
 10
12.900942138
 20
8.3092687519
 30
0.0
 10
12.9000934007
 20
8.3084489346
 30
0.0
 10
12.8983964182
 20
8.3068743895
 30
0.0
 10
12.8957999918
 20
8.3046711477
 30
0.0
 10
12.8932052585
 20
8.3026753866
 30
0.0
 10
12.8906134847
 20
8.3008883004
 30
0.0
 10
12.8880254241
 20
8.2993105867
 30
0.0
 10
12.8846393645
 20
8.2975178745
 30
0.0
 10
12.8811988213
 20
8.2961003906
 30
0.0
 10
12.8777347027
 20
8.2951105546
 30
0.0
 10
12.8751826677
 20
8.2945916353
 30
0.0
 10
12.8726415967
 20
8.2942863367
 30
0.0
 10
12.870112747
 20
8.2941950295
 30
0.0
 10
12.8675976563
 20
8.2943178226
 30
0.0
 10
12.8650977528
 20
8.2946546668
 30
0.0
 10
12.8626147241
 20
8.2952053135
 30
0.0
 10
12.8609863638
 20
8.2957099995
 30
0.0
 10
12.8601778422
 20
8.2959958603
 30
0.0
  0
SPLINE
  5
383
100
AcDbEntity
  8
0
100
AcDbSpline
 62
7
  6
CONTINUOUS
 70
0
 71
3
 72
21
 73
17
 74
0
 42
0.0000001
 43
0.0000001
 44
0.0000000001
 40
0.0
 40
0.0
 40
0.0
 40
0.0
 40
0.1273176984
 40
0.2537999461
 40
0.3167619614
 40
0.3795355204
 40
0.4421314992
 40
0.5045621453
 40
0.5668413456
 40
0.6289845231
 40
0.6910084433
 40
0.7529310869
 40
0.8147714401
 40
0.8765493236
 40
0.9382852134
 40
1.0
 40
1.0
 40
1.0
 40
1.0
 10
11.3265199276
 20
9.63981945
 30
0.0
 10
11.3265199276
 20
9.6463178724
 30
0.0
 10
11.3271402454
 20
9.65928044
 30
0.0
 10
11.3294830114
 20
9.6753049719
 30
0.0
 10
11.3322831135
 20
9.6878748139
 30
0.0
 10
11.3348366605
 20
9.6971463355
 30
0.0
 10
11.3378407558
 20
9.7062531068
 30
0.0
 10
11.3412884734
 20
9.7151743935
 30
0.0
 10
11.3451718645
 20
9.7238895619
 30
0.0
 10
11.3494820529
 20
9.7323784981
 30
0.0
 10
11.3542090677
 20
9.7406216337
 30
0.0
 10
11.3593420075
 20
9.7485999714
 30
0.0
 10
11.3648690845
 20
9.7562950494
 30
0.0
 10
11.3707775867
 20
9.7636891952
 30
0.0
 10
11.3770536261
 20
9.7707651508
 30
0.0
 10
11.3814739246
 20
9.7752602144
 30
0.0
 10
11.383739572
 20
9.7774486484
 30
0.0
  0
SPLINE
  5
384
100
AcDbEntity
  8
0
100
AcDbSpline
 62
7
  6
CONTINUOUS
 70
0
 71
3
 72
21
 73
17
 74
0
 42
0.0000001
 43
0.0000001
 44
0.0000000001
 40
0.0
 40
0.0
 40
0.0
 40
0.0
 40
0.1273176984
 40
0.2537999461
 40
0.3167619614
 40
0.3795355204
 40
0.4421314992
 40
0.5045621453
 40
0.5668413456
 40
0.6289845231
 40
0.6910084433
 40
0.7529310869
 40
0.8147714401
 40
0.8765493236
 40
0.9382852134
 40
1.0
 40
1.0
 40
1.0
 40
1.0
 10
10.2398533086
 20
6.7565490897
 30
0.0
 10
10.2398533086
 20
6.7630475121
 30
0.0
 10
10.2404736265
 20
6.7760100798
 30
0.0
 10
10.2428163925
 20
6.7920346117
 30
0.0
 10
10.2456164946
 20
6.8046044536
 30
0.0
 10
10.2481700415
 20
6.8138759752
 30
0.0
 10
10.2511741369
 20
6.8229827465
 30
0.0
 10
10.2546218545
 20
6.8319040332
 30
0.0
 10
10.2585052455
 20
6.8406192017
 30
0.0
 10
10.262815434
 20
6.8491081379
 30
0.0
 10
10.2675424488
 20
6.8573512734
 30
0.0
 10
10.2726753886
 20
6.8653296111
 30
0.0
 10
10.2782024656
 20
6.8730246892
 30
0.0
 10
10.2841109678
 20
6.880418835
 30
0.0
 10
10.2903870071
 20
6.8874947905
 30
0.0
 10
10.2948073056
 20
6.8919898542
 30
0.0
 10
10.297072953
 20
6.8941782881
 30
0.0
  0
SPLINE
  5
385
100
AcDbEntity
  8
0
100
AcDbSpline
 62
7
  6
CONTINUOUS
 70
0
 71
3
 72
81
 73
77
 74
0
 42
0.0000001
 43
0.0000001
 44
0.0000000001
 40
0.0
 40
0.0
 40
0.0
 40
0.0
 40
0.0040523
 40
0.0082800607
 40
0.0126871453
 40
0.0172767676
 40
0.0220516095
 40
0.0270137572
 40
0.0321645622
 40
0.0375048519
 40
0.043035017
 40
0.0487549916
 40
0.0607619183
 40
0.0735190437
 40
0.087014504
 40
0.1012325497
 40
0.1161540562
 40
0.1317569258
 40
0.1480164485
 40
0.1649055806
 40
0.1823951717
 40
0.200454143
 40
0.2190496755
 40
0.2381473809
 40
0.2577114442
 40
0.2777047486
 40
0.2980889978
 40
0.3188248566
 40
0.3398720686
 40
0.3827347929
 40
0.4263417459
 40
0.4703491099
 40
0.514409022
 40
0.5581731
 40
0.6012959281
 40
0.6225110233
 40
0.6434394292
 40
0.6640403808
 40
0.6842739777
 40
0.7041012903
 40
0.7234844759
 40
0.7423869065
 40
0.7607733182
 40
0.7786099377
 40
0.7958646234
 40
0.8125070285
 40
0.8285088054
 40
0.8438438177
 40
0.8584883682
 40
0.8724214924
 40
0.8856253318
 40
0.8980856159
 40
0.9097922254
 40
0.9153614065
 40
0.9207407001
 40
0.9259303755
 40
0.9309312202
 40
0.9357444643
 40
0.9403719534
 40
0.9448161817
 40
0.949080328
 40
0.9531684682
 40
0.9570855643
 40
0.9608376623
 40
0.9644320366
 40
0.967877261
 40
0.9711834636
 40
0.9774234772
 40
0.9803900893
 40
0.9832752684
 40
0.9860977592
 40
0.9888777013
 40
0.991636254
 40
0.9943951185
 40
0.9971759862
 40
1.0
 40
1.0
 40
1.0
 40
1.0
 10
12.900942138
 20
8.3092687519
 30
0.0
 10
12.9018986512
 20
8.3101926727
 30
0.0
 10
12.9038105811
 20
8.3121249369
 30
0.0
 10
12.9066170755
 20
8.3152018626
 30
0.0
 10
12.9094204732
 20
8.3185161322
 30
0.0
 10
12.9122191515
 20
8.322065862
 30
0.0
 10
12.9150117699
 20
8.3258492033
 30
0.0
 10
12.9177968826
 20
8.3298642623
 30
0.0
 10
12.9205731156
 20
8.3341089481
 30
0.0
 10
12.9233389989
 20
8.3385810535
 30
0.0
 10
12.9260930814
 20
8.3432782576
 30
0.0
 10
12.9298077756
 20
8.3499462852
 30
0.0
 10
12.9344014541
 20
8.3588365326
 30
0.0
 10
12.9397586182
 20
8.3701947165
 30
0.0
 10
12.9450348627
 20
8.3823854782
 30
0.0
 10
12.9502190476
 20
8.3953832957
 30
0.0
 10
12.955300213
 20
8.4091611199
 30
0.0
 10
12.9602676071
 20
8.4236901012
 30
0.0
 10
12.9651107038
 20
8.4389397784
 30
0.0
 10
12.9698192351
 20
8.4548781318
 30
0.0
 10
12.9743832109
 20
8.4714716618
 30
0.0
 10
12.9787929597
 20
8.4886854539
 30
0.0
 10
12.9830391402
 20
8.506483263
 30
0.0
 10
12.9871127557
 20
8.5248276027
 30
0.0
 10
12.9910051724
 20
8.5436798251
 30
0.0
 10
12.9947081456
 20
8.563000201
 30
0.0
 10
12.9982138348
 20
8.5827479904
 30
0.0
 10
13.0015148538
 20
8.6028815856
 30
0.0
 10
13.0056588902
 20
8.6303500826
 30
0.0
 10
13.0102691076
 20
8.6653359047
 30
0.0
 10
13.0148543398
 20
8.7079129281
 30
0.0
 10
13.0184863976
 20
8.7509761701
 30
0.0
 10
13.0211346645
 20
8.7941627366
 30
0.0
 10
13.0227768009
 20
8.8371086951
 30
0.0
 10
13.0232984558
 20
8.8725850728
 30
0.0
 10
13.0231940361
 20
8.9005678385
 30
0.0
 10
13.0228586392
 20
8.9211569035
 30
0.0
 10
13.0222665645
 20
8.9414179459
 30
0.0
 10
13.0214190663
 20
8.9613082775
 30
0.0
 10
13.020317969
 20
8.9807859528
 30
0.0
 10
13.0189656244
 20
8.9998099099
 30
0.0
 10
13.0173649169
 20
9.0183400492
 30
0.0
 10
13.0155192738
 20
9.0363373279
 30
0.0
 10
13.0134326409
 20
9.0537638419
 30
0.0
 10
13.0111094756
 20
9.0705829013
 30
0.0
 10
13.008554733
 20
9.0867591145
 30
0.0
 10
13.0057738701
 20
9.1022584771
 30
0.0
 10
13.0027728327
 20
9.1170484509
 30
0.0
 10
12.9995580264
 20
9.1310980418
 30
0.0
 10
12.9961363005
 20
9.1443778439
 30
0.0
 10
12.9925149224
 20
9.1568602357
 30
0.0
 10
12.9887015674
 20
9.1685191029
 30
0.0
 10
12.9853165249
 20
9.1776750786
 30
0.0
 10
12.9825091745
 20
9.1845601462
 30
0.0
 10
12.9803957835
 20
9.1894169307
 30
0.0
 10
12.9782405103
 20
9.1940503939
 30
0.0
 10
12.9760445041
 20
9.1984581557
 30
0.0
 10
12.9738088553
 20
9.2026379094
 30
0.0
 10
12.9715347215
 20
9.2065874958
 30
0.0
 10
12.9692232847
 20
9.210304891
 30
0.0
 10
12.966875641
 20
9.2137881436
 30
0.0
 10
12.9644930113
 20
9.2170354951
 30
0.0
 10
12.9620765231
 20
9.2200452426
 30
0.0
 10
12.9596272833
 20
9.2228158254
 30
0.0
 10
12.9571465921
 20
9.2253457528
 30
0.0
 10
12.954635123
 20
9.2276338265
 30
0.0
 10
12.9513125378
 20
9.230308069
 30
0.0
 10
12.9478633552
 20
9.2325675033
 30
0.0
 10
12.9443090219
 20
9.2343401523
 30
0.0
 10
12.941663119
 20
9.2353996347
 30
0.0
 10
12.9389944812
 20
9.2362100593
 30
0.0
 10
12.9363046551
 20
9.2367707204
 30
0.0
 10
12.9335955319
 20
9.2370809078
 30
0.0
 10
12.9308690021
 20
9.2371404412
 30
0.0
 10
12.9281272885
 20
9.2369493131
 30
0.0
 10
12.9263083376
 20
9.2366578416
 30
0.0
 10
12.9254002895
 20
9.2364724839
 30
0.0
  0
SPLINE
  5
386
100
AcDbEntity
  8
0
100
AcDbSpline
 62
7
  6
CONTINUOUS
 70
0
 71
3
 72
79
 73
75
 74
0
 42
0.0000001
 43
0.0000001
 44
0.0000000001
 40
0.0
 40
0.0
 40
0.0
 40
0.0
 40
0.0029804418
 40
0.0060540414
 40
0.0092329784
 40
0.0125281034
 40
0.0159489439
 40
0.0195037813
 40
0.023199793
 40
0.0270430713
 40
0.0310388063
 40
0.0351913393
 40
0.0395042369
 40
0.0439804421
 40
0.0486222476
 40
0.0534314436
 40
0.0584093437
 40
0.0635567978
 40
0.0688743211
 40
0.0743620289
 40
0.0858464819
 40
0.0980059709
 40
0.1108317699
 40
0.1243118069
 40
0.138431098
 40
0.1531721009
 40
0.1685150159
 40
0.1844380191
 40
0.2009174526
 40
0.2179279851
 40
0.2354427716
 40
0.2534335912
 40
0.2718709666
 40
0.2907242669
 40
0.3099618095
 40
0.3295509708
 40
0.3494582809
 40
0.3696495133
 40
0.3900897687
 40
0.4315742264
 40
0.4736231753
 40
0.5159422222
 40
0.5582345288
 40
0.6002034945
 40
0.6415554605
 40
0.6619101397
 40
0.682003163
 40
0.7017998646
 40
0.7212662794
 40
0.74036923
 40
0.7590764155
 40
0.7773565277
 40
0.7951793387
 40
0.8125158077
 40
0.8293381926
 40
0.8456201738
 40
0.8613370139
 40
0.8764656932
 40
0.8909850869
 40
0.9048761761
 40
0.9181223048
 40
0.9307095
 40
0.9426268359
 40
0.9538669124
 40
0.9592320928
 40
0.9644271647
 40
0.9694524942
 40
0.9743088405
 40
0.9789973687
 40
0.983519696
 40
0.9878780837
 40
0.9920753306
 40
0.9961146993
 40
1.0
 40
1.0
 40
1.0
 40
1.0
 10
11.1897837274
 20
10.8260592942
 30
0.0
 10
11.1893616792
 20
10.827106665
 30
0.0
 10
11.1884254395
 20
10.8292031075
 30
0.0
 10
11.1867815757
 20
10.8322936763
 30
0.0
 10
11.1848794823
 20
10.835373359
 30
0.0
 10
11.1827202812
 20
10.83844057
 30
0.0
 10
11.1803051118
 20
10.8414940852
 30
0.0
 10
11.1776352336
 20
10.8445326325
 30
0.0
 10
11.1747118911
 20
10.8475548717
 30
0.0
 10
11.1715365314
 20
10.8505595621
 30
0.0
 10
11.1681106133
 20
10.8535453658
 30
0.0
 10
11.1644357301
 20
10.8565109624
 30
0.0
 10
11.1605136089
 20
10.8594550715
 30
0.0
 10
11.1563460273
 20
10.8623763091
 30
0.0
 10
11.1519349445
 20
10.8652733994
 30
0.0
 10
11.1472823899
 20
10.8681449953
 30
0.0
 10
11.1423905144
 20
10.8709897606
 30
0.0
 10
11.1372616104
 20
10.8738064172
 30
0.0
 10
11.1318980322
 20
10.8765936313
 30
0.0
 10
11.1243218368
 20
10.8803256116
 30
0.0
 10
11.1142726901
 20
10.8848972757
 30
0.0
 10
11.1014963134
 20
10.8901654831
 30
0.0
 10
11.0878496378
 20
10.8952860891
 30
0.0
 10
11.0733581492
 20
10.9002494531
 30
0.0
 10
11.0580487423
 20
10.9050462329
 30
0.0
 10
11.0419499921
 20
10.9096673752
 30
0.0
 10
11.0250919794
 20
10.9141041447
 30
0.0
 10
11.0075062519
 20
10.918348148
 30
0.0
 10
10.9892257548
 20
10.9223913496
 30
0.0
 10
10.9702847709
 20
10.9262261057
 30
0.0
 10
10.9507188438
 20
10.929845164
 30
0.0
 10
10.9305647028
 20
10.9332416791
 30
0.0
 10
10.9098601922
 20
10.9364092238
 30
0.0
 10
10.8886442038
 20
10.9393418062
 30
0.0
 10
10.8669566036
 20
10.9420338884
 30
0.0
 10
10.8448381467
 20
10.9444803851
 30
0.0
 10
10.8223304113
 20
10.9466766655
 30
0.0
 10
10.7994756671
 20
10.9486186025
 30
0.0
 10
10.7684454636
 20
10.9508747486
 30
0.0
 10
10.7291075741
 20
10.9530268476
 30
0.0
 10
10.6814454972
 20
10.9545379181
 30
0.0
 10
10.6334553545
 20
10.9549783129
 30
0.0
 10
10.5854976709
 20
10.954344754
 30
0.0
 10
10.5379327269
 20
10.9526419831
 30
0.0
 10
10.4987169239
 20
10.9503310835
 30
0.0
 10
10.4678162943
 20
10.9479491686
 30
0.0
 10
10.4450815269
 20
10.9459152245
 30
0.0
 10
10.4227090737
 20
10.9436283816
 30
0.0
 10
10.4007409493
 20
10.9410929326
 30
0.0
 10
10.3792184514
 20
10.9383136756
 30
0.0
 10
10.3581820228
 20
10.9352958555
 30
0.0
 10
10.3376711861
 20
10.9320451812
 30
0.0
 10
10.3177244623
 20
10.928567803
 30
0.0
 10
10.2983793049
 20
10.9248702974
 30
0.0
 10
10.2796720278
 20
10.9209596566
 30
0.0
 10
10.2616377279
 20
10.9168432732
 30
0.0
 10
10.2443102108
 20
10.9125289415
 30
0.0
 10
10.227721925
 20
10.908024825
 30
0.0
 10
10.211903904
 20
10.9033394417
 30
0.0
 10
10.196885689
 20
10.8984816399
 30
0.0
 10
10.1826952845
 20
10.8934605849
 30
0.0
 10
10.1693589792
 20
10.8882857261
 30
0.0
 10
10.1569016625
 20
10.8829667847
 30
0.0
 10
10.147125812
 20
10.8783536862
 30
0.0
 10
10.1397728602
 20
10.8745901916
 30
0.0
 10
10.1345779597
 20
10.8717816507
 30
0.0
 10
10.1296194544
 20
10.868944616
 30
0.0
 10
10.1248996438
 20
10.8660803926
 30
0.0
 10
10.1204207144
 20
10.8631903449
 30
0.0
 10
10.11618475
 20
10.8602757329
 30
0.0
 10
10.1121936498
 20
10.8573379005
 30
0.0
 10
10.1084492602
 20
10.8543780965
 30
0.0
 10
10.104953494
 20
10.8513978425
 30
0.0
 10
10.1027476955
 20
10.8493593781
 30
0.0
 10
10.1016889283
 20
10.8483366874
 30
0.0
  0
SPLINE
  5
387
100
AcDbEntity
  8
0
100
AcDbSpline
 62
7
  6
CONTINUOUS
 70
0
 71
3
 72
55
 73
51
 74
0
 42
0.0000001
 43
0.0000001
 44
0.0000000001
 40
0.0
 40
0.0
 40
0.0
 40
0.0
 40
0.0090760255
 40
0.018683184
 40
0.0288220167
 40
0.0394904674
 40
0.0506840419
 40
0.0623963009
 40
0.0746190101
 40
0.0873423417
 40
0.100555126
 40
0.1142448407
 40
0.1283978694
 40
0.1429995186
 40
0.1580340936
 40
0.1734850634
 40
0.1893349972
 40
0.2055657422
 40
0.2390928496
 40
0.2739084037
 40
0.309844655
 40
0.3467262431
 40
0.3843715387
 40
0.4225939334
 40
0.4612030981
 40
0.5000062336
 40
0.5388093123
 40
0.5774183063
 40
0.6156404171
 40
0.6532853187
 40
0.6901664053
 40
0.7261020501
 40
0.7609168956
 40
0.7944431975
 40
0.8106735089
 40
0.8265229828
 40
0.8419734746
 40
0.8570075515
 40
0.8716086807
 40
0.8857611769
 40
0.8994503372
 40
0.9126625543
 40
0.9253853056
 40
0.9376074184
 40
0.9493190766
 40
0.9605120342
 40
0.9711798666
 40
0.981318083
 40
0.9909245993
 40
1.0
 40
1.0
 40
1.0
 40
1.0
 10
12.8136022738
 20
8.3620319925
 30
0.0
 10
12.8150313193
 20
8.3641166634
 30
0.0
 10
12.8178757052
 20
8.3684752927
 30
0.0
 10
12.8219954959
 20
8.3753655171
 30
0.0
 10
12.8260843235
 20
8.3827847039
 30
0.0
 10
12.8301366517
 20
8.3907230088
 30
0.0
 10
12.8341472162
 20
8.3991700673
 30
0.0
 10
12.8381106425
 20
8.4081147606
 30
0.0
 10
12.8420216589
 20
8.4175452838
 30
0.0
 10
12.8458750722
 20
8.4274491533
 30
0.0
 10
12.849665687
 20
8.4378132537
 30
0.0
 10
12.853388479
 20
8.4486238196
 30
0.0
 10
12.8570384432
 20
8.4598664922
 30
0.0
 10
12.8606106917
 20
8.4715263223
 30
0.0
 10
12.8641004745
 20
8.4835877927
 30
0.0
 10
12.8675030734
 20
8.4960348489
 30
0.0
 10
12.8708140002
 20
8.5088509237
 30
0.0
 10
12.875147155
 20
8.5266002879
 30
0.0
 10
12.8802903222
 20
8.5495861767
 30
0.0
 10
12.8859651654
 20
8.5780678804
 30
0.0
 10
12.891177199
 20
8.6075868639
 30
0.0
 10
12.8958984453
 20
8.6379858195
 30
0.0
 10
12.9001035471
 20
8.6691028908
 30
0.0
 10
12.9037699507
 20
8.7007722847
 30
0.0
 10
12.906878017
 20
8.7328252433
 30
0.0
 10
12.9094111281
 20
8.7650909362
 30
0.0
 10
12.9113557641
 20
8.7973973891
 30
0.0
 10
12.9127015781
 20
8.8295724081
 30
0.0
 10
12.9134414493
 20
8.8614445049
 30
0.0
 10
12.9135715385
 20
8.8928438275
 30
0.0
 10
12.9130912991
 20
8.9236030588
 30
0.0
 10
12.9120035046
 20
8.9535583933
 30
0.0
 10
12.9103141528
 20
8.9825501696
 30
0.0
 10
12.9083928197
 20
9.0060253945
 30
0.0
 10
12.9065509799
 20
9.0242024817
 30
0.0
 10
12.9050406654
 20
9.037352495
 30
0.0
 10
12.9033886242
 20
9.0501496559
 30
0.0
 10
12.9015970112
 20
9.062576937
 30
0.0
 10
12.8996682804
 20
9.0746177868
 30
0.0
 10
12.897605004
 20
9.0862561819
 30
0.0
 10
12.895409948
 20
9.0974766414
 30
0.0
 10
12.8930860964
 20
9.1082642544
 30
0.0
 10
12.8906365237
 20
9.1186046945
 30
0.0
 10
12.888064559
 20
9.1284842547
 30
0.0
 10
12.8853736352
 20
9.1378898559
 30
0.0
 10
12.8825673313
 20
9.1468090781
 30
0.0
 10
12.8796494429
 20
9.15523017
 30
0.0
 10
12.8766237526
 20
9.1631421352
 30
0.0
 10
12.8734943847
 20
9.1705344628
 30
0.0
 10
12.8712788054
 20
9.1752435733
 30
0.0
 10
12.8701511583
 20
9.1775053329
 30
0.0
  0
SPLINE
  5
388
100
AcDbEntity
  8
0
100
AcDbSpline
 62
7
  6
CONTINUOUS
 70
0
 71
3
 72
39
 73
35
 74
0
 42
0.0000001
 43
0.0000001
 44
0.0000000001
 40
0.0
 40
0.0
 40
0.0
 40
0.0
 40
0.0228175549
 40
0.0471514142
 40
0.0729409076
 40
0.1001158503
 40
0.1285978127
 40
0.1583011451
 40
0.1891338374
 40
0.2209982666
 40
0.2537918694
 40
0.2874077626
 40
0.3217353288
 40
0.3566607778
 40
0.3920676922
 40
0.4278375625
 40
0.4638503144
 40
0.4999848328
 40
0.5361194822
 40
0.5721326265
 40
0.6079031487
 40
0.643310972
 40
0.6782375826
 40
0.7125665579
 40
0.7461841016
 40
0.7789795887
 40
0.8108461273
 40
0.8416811441
 40
0.8713870049
 40
0.8998716865
 40
0.9270495248
 40
0.9528420737
 40
0.9771791293
 40
1.0
 40
1.0
 40
1.0
 40
1.0
 10
12.7937555081
 20
8.4423988953
 30
0.0
 10
12.7957882191
 20
8.4470558006
 30
0.0
 10
12.7997894405
 20
8.4567668401
 30
0.0
 10
12.8054491501
 20
8.4719948886
 30
0.0
 10
12.8109439292
 20
8.4883104336
 30
0.0
 10
12.8162537769
 20
8.5056551285
 30
0.0
 10
12.8213595097
 20
8.5239672496
 30
0.0
 10
12.8262426394
 20
8.5431813523
 30
0.0
 10
12.8308855042
 20
8.5632287129
 30
0.0
 10
12.8352713178
 20
8.5840375456
 30
0.0
 10
12.8393842338
 20
8.6055332901
 30
0.0
 10
12.8432094007
 20
8.6276388861
 30
0.0
 10
12.8467330147
 20
8.6502750594
 30
0.0
 10
12.8499423675
 20
8.6733606121
 30
0.0
 10
12.8528258916
 20
8.6968127191
 30
0.0
 10
12.8553732003
 20
8.7205472287
 30
0.0
 10
12.857575125
 20
8.7444789681
 30
0.0
 10
12.8594237473
 20
8.7685220514
 30
0.0
 10
12.8609124272
 20
8.7925901901
 30
0.0
 10
12.8620358273
 20
8.8165970053
 30
0.0
 10
12.8627899319
 20
8.8404563393
 30
0.0
 10
12.8631720621
 20
8.8640825674
 30
0.0
 10
12.863180886
 20
8.8873909077
 30
0.0
 10
12.8628164248
 20
8.9102977283
 30
0.0
 10
12.8620800538
 20
8.9327208509
 30
0.0
 10
12.8609744991
 20
8.9545798505
 30
0.0
 10
12.8595038299
 20
8.9757963499
 30
0.0
 10
12.8576734461
 20
8.9962943096
 30
0.0
 10
12.8554900616
 20
9.0160003081
 30
0.0
 10
12.8529616796
 20
9.0348438349
 30
0.0
 10
12.8500975758
 20
9.052757513
 30
0.0
 10
12.846908225
 20
9.0696775529
 30
0.0
 10
12.8434053873
 20
9.0855434001
 30
0.0
 10
12.8407833918
 20
9.0957154026
 30
0.0
 10
12.8394131938
 20
9.1006091478
 30
0.0
  0
SPLINE
  5
389
100
AcDbEntity
  8
0
100
AcDbSpline
 62
7
  6
CONTINUOUS
 70
0
 71
3
 72
95
 73
91
 74
0
 42
0.0000001
 43
0.0000001
 44
0.0000000001
 40
0.0
 40
0.0
 40
0.0
 40
0.0
 40
0.0041939594
 40
0.0085762782
 40
0.0131520573
 40
0.0179256173
 40
0.0229004891
 40
0.0280792353
 40
0.0334636269
 40
0.0390547837
 40
0.0448532429
 40
0.0508590315
 40
0.0570716617
 40
0.0634902595
 40
0.0701135134
 40
0.0769398105
 40
0.09119284
 40
0.1062306851
 40
0.1220299823
 40
0.1385637575
 40
0.1558018515
 40
0.1737112679
 40
0.1922564673
 40
0.2113996207
 40
0.2311008356
 40
0.2513183603
 40
0.272008772
 40
0.2931271544
 40
0.3146272662
 40
0.3364617034
 40
0.3585820579
 40
0.380939072
 40
0.4034827908
 40
0.4261627133
 40
0.448927942
 40
0.4717273316
 40
0.4945096381
 40
0.5172236671
 40
0.539818422
 40
0.5622432532
 40
0.5844480073
 40
0.6063831771
 40
0.6280000543
 40
0.6492508828
 40
0.6700890155
 40
0.690469076
 40
0.710347124
 40
0.7296808303
 40
0.748429661
 40
0.7665550762
 40
0.7840207471
 40
0.8007927993
 40
0.816840092
 40
0.8321345465
 40
0.8466515423
 40
0.8536121205
 40
0.860370937
 40
0.8669261464
 40
0.8732762126
 40
0.8794199799
 40
0.8853566932
 40
0.8910860295
 40
0.8966081824
 40
0.9019238591
 40
0.9070344273
 40
0.9119418968
 40
0.9166491158
 40
0.9211597694
 40
0.9254786037
 40
0.9296114746
 40
0.9335655778
 40
0.9373495665
 40
0.9409737611
 40
0.9477890579
 40
0.9510148461
 40
0.9541417235
 40
0.9571900969
 40
0.9601821554
 40
0.9631415091
 40
0.9660926235
 40
0.9690601892
 40
0.9720684542
 40
0.9751406083
 40
0.9782982941
 40
0.9815612373
 40
0.98494706
 40
0.9884713247
 40
0.992147593
 40
0.9959873756
 40
1.0
 40
1.0
 40
1.0
 40
1.0
 10
10.0108918953
 20
10.9578336038
 30
0.0
 10
10.0122967125
 20
10.959190553
 30
0.0
 10
10.0152392934
 20
10.9618937983
 30
0.0
 10
10.0199323669
 20
10.9658323586
 30
0.0
 10
10.0249969645
 20
10.9697396018
 30
0.0
 10
10.030429802
 20
10.9736131355
 30
0.0
 10
10.03622777
 20
10.9774507775
 30
0.0
 10
10.0423874508
 20
10.9812503606
 30
0.0
 10
10.0489052153
 20
10.9850096277
 30
0.0
 10
10.055777185
 20
10.9887263469
 30
0.0
 10
10.0629992699
 20
10.9923983362
 30
0.0
 10
10.070567184
 20
10.9960233765
 30
0.0
 10
10.0784764021
 20
10.999599351
 30
0.0
 10
10.0867222117
 20
11.0031240483
 30
0.0
 10
10.0952996768
 20
11.0065954509
 30
0.0
 10
10.1073455694
 20
11.0112166202
 30
0.0
 10
10.1232046022
 20
11.0168304844
 30
0.0
 10
10.143207867
 20
11.0232287955
 30
0.0
 10
10.1644004936
 20
11.0293666719
 30
0.0
 10
10.1867316358
 20
11.0352292364
 30
0.0
 10
10.210147903
 20
11.0408022644
 30
0.0
 10
10.234593135
 20
11.0460722293
 30
0.0
 10
10.2600086621
 20
11.0510263403
 30
0.0
 10
10.2863334277
 20
11.0556525756
 30
0.0
 10
10.3135041548
 20
11.0599397119
 30
0.0
 10
10.3414555024
 20
11.0638773515
 30
0.0
 10
10.3701202301
 20
11.0674559471
 30
0.0
 10
10.3994293635
 20
11.0706668246
 30
0.0
 10
10.4293123639
 20
11.0735022029
 30
0.0
 10
10.4596973004
 20
11.0759552125
 30
0.0
 10
10.4905110258
 20
11.0780199116
 30
0.0
 10
10.5216793539
 20
11.0796912994
 30
0.0
 10
10.5531272398
 20
11.0809653285
 30
0.0
 10
10.5847789616
 20
11.0818389139
 30
0.0
 10
10.6165583042
 20
11.0823099401
 30
0.0
 10
10.6483887432
 20
11.0823772668
 30
0.0
 10
10.6801936308
 20
11.0820407313
 30
0.0
 10
10.7118963812
 20
11.0813011486
 30
0.0
 10
10.7434206557
 20
11.0801603093
 30
0.0
 10
10.7746905477
 20
11.078620976
 30
0.0
 10
10.8056307667
 20
11.076686876
 30
0.0
 10
10.8361668199
 20
11.0743626934
 30
0.0
 10
10.8662251938
 20
11.0716540577
 30
0.0
 10
10.8957335325
 20
11.0685675307
 30
0.0
 10
10.9246208135
 20
11.0651105913
 30
0.0
 10
10.9528175216
 20
11.0612916182
 30
0.0
 10
10.9802558195
 20
11.0571198699
 30
0.0
 10
11.0068697145
 20
11.052605463
 30
0.0
 10
11.0325952242
 20
11.0477593489
 30
0.0
 10
11.0573705346
 20
11.0425932868
 30
0.0
 10
11.0811361657
 20
11.0371198151
 30
0.0
 10
11.1038350972
 20
11.0313522185
 30
0.0
 10
11.1254130222
 20
11.0253044945
 30
0.0
 10
11.145818146
 20
11.0189913035
 30
0.0
 10
11.1620240886
 20
11.0134469417
 30
0.0
 10
11.1743557158
 20
11.0088790783
 30
0.0
 10
11.1831514508
 20
11.0054444163
 30
0.0
 10
11.1916189266
 20
11.0019550451
 30
0.0
 10
11.1997530827
 20
10.9984130079
 30
0.0
 10
11.2075490541
 20
10.9948204446
 30
0.0
 10
11.2150021911
 20
10.9911795142
 30
0.0
 10
11.2221080415
 20
10.9874923637
 30
0.0
 10
11.2288623941
 20
10.9837612312
 30
0.0
 10
11.235261215
 20
10.9799882672
 30
0.0
 10
11.2413007443
 20
10.9761757651
 30
0.0
 10
11.2469773745
 20
10.9723258724
 30
0.0
 10
11.2522877982
 20
10.9684409018
 30
0.0
 10
11.2572288413
 20
10.9645229902
 30
0.0
 10
11.2617976231
 20
10.9605744333
 30
0.0
 10
11.2659914224
 20
10.9565973085
 30
0.0
 10
11.2698076435
 20
10.9525939948
 30
0.0
 10
11.2732443036
 20
10.9485659973
 30
0.0
 10
11.2772345158
 20
10.9432757421
 30
0.0
 10
11.2805741995
 20
10.9378281147
 30
0.0
 10
11.2831490971
 20
10.932256276
 30
0.0
 10
11.2846555737
 20
10.9281397709
 30
0.0
 10
11.285770629
 20
10.9240128709
 30
0.0
 10
11.2864928703
 20
10.9198782259
 30
0.0
 10
11.2868214256
 20
10.9157390933
 30
0.0
 10
11.2867556816
 20
10.9115988122
 30
0.0
 10
11.2862958624
 20
10.9074608088
 30
0.0
 10
11.2854425276
 20
10.9033284048
 30
0.0
 10
11.2841968741
 20
10.8992046751
 30
0.0
 10
11.2825603268
 20
10.8950924382
 30
0.0
 10
11.2805346
 20
10.8909942482
 30
0.0
 10
11.2781215566
 20
10.8869124136
 30
0.0
 10
11.2753230324
 20
10.8828491365
 30
0.0
 10
11.2721409997
 20
10.8788064512
 30
0.0
 10
11.268577734
 20
10.8747867453
 30
0.0
 10
11.2660077689
 20
10.8721825129
 30
0.0
 10
11.2646636921
 20
10.8708842343
 30
0.0
  0
SPLINE
  5
38A
100
AcDbEntity
  8
0
100
AcDbSpline
 62
7
  6
CONTINUOUS
 70
0
 71
3
 72
19
 73
15
 74
0
 42
0.0000001
 43
0.0000001
 44
0.0000000001
 40
0.0
 40
0.0
 40
0.0
 40
0.0
 40
0.1504611406
 40
0.2916985742
 40
0.4244193292
 40
0.4878835935
 40
0.5495802133
 40
0.6682271463
 40
0.7255606136
 40
0.7817999183
 40
0.8371467056
 40
0.8918136429
 40
0.9460222308
 40
1.0
 40
1.0
 40
1.0
 40
1.0
 10
12.931851767
 20
8.1168377628
 30
0.0
 10
12.9299590331
 20
8.1150095221
 30
0.0
 10
12.9261761788
 20
8.1115792255
 30
0.0
 10
12.9203187883
 20
8.1070079676
 30
0.0
 10
12.9153713099
 20
8.1037749103
 30
0.0
 10
12.9114260035
 20
8.1015855765
 30
0.0
 10
12.9075970945
 20
8.0997059735
 30
0.0
 10
12.9037233501
 20
8.0981695757
 30
0.0
 10
12.8998278165
 20
8.0970134155
 30
0.0
 10
12.8969475653
 20
8.0963469894
 30
0.0
 10
12.8940768991
 20
8.0958719994
 30
0.0
 10
12.8912165813
 20
8.0955886527
 30
0.0
 10
12.8883677654
 20
8.0954970666
 30
0.0
 10
12.8864750926
 20
8.0955639952
 30
0.0
 10
12.8855332989
 20
8.0956293057
 30
0.0
  0
SPLINE
  5
38B
100
AcDbEntity
  8
0
100
AcDbSpline
 62
7
  6
CONTINUOUS
 70
0
 71
3
 72
43
 73
39
 74
0
 42
0.0000001
 43
0.0000001
 44
0.0000000001
 40
0.0
 40
0.0
 40
0.0
 40
0.0
 40
0.0149723204
 40
0.0299477006
 40
0.0449291793
 40
0.0599197625
 40
0.0899340837
 40
0.1200191761
 40
0.1350977684
 40
0.1502017219
 40
0.1804888825
 40
0.2109025329
 40
0.2414558125
 40
0.2721586361
 40
0.3030175147
 40
0.3340354591
 40
0.3652119671
 40
0.3965430872
 40
0.4280215545
 40
0.4596369905
 40
0.491376161
 40
0.5232232825
 40
0.5551603712
 40
0.5871676259
 40
0.6192238382
 40
0.6513068229
 40
0.683393863
 40
0.7154621607
 40
0.7474892906
 40
0.7794536471
 40
0.8113348816
 40
0.843114318
 40
0.8747753538
 40
0.9063037992
 40
0.9376882654
 40
0.9533260383
 40
0.9689254782
 40
1.0
 40
1.0
 40
1.0
 40
1.0
 10
10.8495951645
 20
7.2547463957
 30
0.0
 10
10.8478447883
 20
7.2530556613
 30
0.0
 10
10.8442760632
 20
7.24974304
 30
0.0
 10
10.838729127
 20
7.2449903078
 30
0.0
 10
10.8329953813
 20
7.2404595502
 30
0.0
 10
10.8251097873
 20
7.2347215354
 30
0.0
 10
10.8148201603
 20
7.228132091
 30
0.0
 10
10.8040303025
 20
7.2223683803
 30
0.0
 10
10.7951314842
 20
7.2182679577
 30
0.0
 10
10.7860487881
 20
7.2145061513
 30
0.0
 10
10.7743961424
 20
7.2104610386
 30
0.0
 10
10.7600359971
 20
7.2066911198
 30
0.0
 10
10.7453625105
 20
7.2040203938
 30
0.0
 10
10.7304569945
 20
7.2024636113
 30
0.0
 10
10.7154013305
 20
7.2020290762
 30
0.0
 10
10.7002783588
 20
7.2027190011
 30
0.0
 10
10.6851711991
 20
7.2045294007
 30
0.0
 10
10.6701628591
 20
7.2074501496
 30
0.0
 10
10.6553357667
 20
7.2114650381
 30
0.0
 10
10.6407713284
 20
7.2165518681
 30
0.0
 10
10.626549487
 20
7.2226825782
 30
0.0
 10
10.6127482898
 20
7.2298234
 30
0.0
 10
10.5994434657
 20
7.2379350444
 30
0.0
 10
10.5867080154
 20
7.2469729168
 30
0.0
 10
10.5746118163
 20
7.256887361
 30
0.0
 10
10.5632212429
 20
7.2676239298
 30
0.0
 10
10.5525988072
 20
7.2791236813
 30
0.0
 10
10.5428028193
 20
7.2913234993
 30
0.0
 10
10.53388707
 20
7.3041564371
 30
0.0
 10
10.5259005387
 20
7.3175520766
 30
0.0
 10
10.5188871255
 20
7.3314369262
 30
0.0
 10
10.5128854156
 20
7.3457347608
 30
0.0
 10
10.5079284492
 20
7.3603672484
 30
0.0
 10
10.5040436182
 20
7.3752535849
 30
0.0
 10
10.5017145696
 20
7.3878192634
 30
0.0
 10
10.5004080467
 20
7.3979156437
 30
0.0
 10
10.4994756128
 20
7.4080023602
 30
0.0
 10
10.4991932789
 20
7.4155925497
 30
0.0
 10
10.4991932789
 20
7.4206433966
 30
0.0
  0
SPLINE
  5
38C
100
AcDbEntity
  8
0
100
AcDbSpline
 62
7
  6
CONTINUOUS
 70
0
 71
3
 72
29
 73
25
 74
0
 42
0.0000001
 43
0.0000001
 44
0.0000000001
 40
0.0
 40
0.0
 40
0.0
 40
0.0
 40
0.0749503488
 40
0.1455452737
 40
0.2121261891
 40
0.2751192851
 40
0.3350448404
 40
0.3640583593
 40
0.3925449884
 40
0.4205963601
 40
0.4483089338
 40
0.4757832092
 40
0.5031225081
 40
0.530431847
 40
0.5578166247
 40
0.5853812653
 40
0.6132280351
 40
0.6414557868
 40
0.6701590145
 40
0.7293218109
 40
0.7913860629
 40
0.8569001023
 40
0.9263189548
 40
1.0
 40
1.0
 40
1.0
 40
1.0
 10
10.0125096585
 20
10.8693506598
 30
0.0
 10
10.0106355913
 20
10.8710946769
 30
0.0
 10
10.0071002861
 20
10.8745960965
 30
0.0
 10
10.0023300093
 20
10.8800586849
 30
0.0
 10
9.9982622276
 20
10.8855647305
 30
0.0
 10
9.9949031162
 20
10.8911087636
 30
0.0
 10
9.9926750718
 20
10.8958077498
 30
0.0
 10
9.9912692353
 20
10.8995661594
 30
0.0
 10
9.9904057074
 20
10.902359612
 30
0.0
 10
9.9897222818
 20
10.9051567934
 30
0.0
 10
9.9892192404
 20
10.9079569328
 30
0.0
 10
9.9888967595
 20
10.9107591264
 30
0.0
 10
9.988754988
 20
10.9135624903
 30
0.0
 10
9.9887940481
 20
10.9163661143
 30
0.0
 10
9.9890138666
 20
10.9191690823
 30
0.0
 10
9.9894143359
 20
10.9219705014
 30
0.0
 10
9.9899953204
 20
10.9247694559
 30
0.0
 10
9.9907565837
 20
10.9275651632
 30
0.0
 10
9.9920239618
 20
10.9313245745
 30
0.0
 10
9.9940788676
 20
10.9360277444
 30
0.0
 10
9.9972356789
 20
10.9415818216
 30
0.0
 10
10.00110281
 20
10.947099341
 30
0.0
 10
10.0056740735
 20
10.9525745989
 30
0.0
 10
10.0090817692
 20
10.9560851562
 30
0.0
 10
10.0108918953
 20
10.9578336038
 30
0.0
  0
SPLINE
  5
38D
100
AcDbEntity
  8
0
100
AcDbSpline
 62
7
  6
CONTINUOUS
 70
0
 71
3
 72
21
 73
17
 74
0
 42
0.0000001
 43
0.0000001
 44
0.0000000001
 40
0.0
 40
0.0
 40
0.0
 40
0.0
 40
0.0617147761
 40
0.1234506677
 40
0.1852285528
 40
0.2470689013
 40
0.30899155
 40
0.3710154761
 40
0.4331586505
 40
0.4954378572
 40
0.5578685131
 40
0.6204644763
 40
0.6832380473
 40
0.746200107
 40
0.8726822618
 40
1.0
 40
1.0
 40
1.0
 40
1.0
 10
10.5564121161
 20
7.5582718043
 30
0.0
 10
10.554146493
 20
7.5560833794
 30
0.0
 10
10.5497262617
 20
7.5515883157
 30
0.0
 10
10.543450289
 20
7.5445123947
 30
0.0
 10
10.5375418925
 20
7.5371182536
 30
0.0
 10
10.5320148835
 20
7.5294232138
 30
0.0
 10
10.5268820051
 20
7.5214449187
 30
0.0
 10
10.5221550778
 20
7.5132018134
 30
0.0
 10
10.5178449418
 20
7.5047129295
 30
0.0
 10
10.5139615994
 20
7.4959978152
 30
0.0
 10
10.5105139485
 20
7.4870765785
 30
0.0
 10
10.5075098872
 20
7.4779698706
 30
0.0
 10
10.5049563748
 20
7.4686984106
 30
0.0
 10
10.5021563286
 20
7.4561286557
 30
0.0
 10
10.4998135827
 20
7.440104243
 30
0.0
 10
10.4991932789
 20
7.4271417731
 30
0.0
 10
10.4991932789
 20
7.4206433966
 30
0.0
  0
SPLINE
  5
38E
100
AcDbEntity
  8
0
100
AcDbSpline
 62
7
  6
CONTINUOUS
 70
0
 71
3
 72
42
 73
38
 74
0
 42
0.0000001
 43
0.0000001
 44
0.0000000001
 40
0.0
 40
0.0
 40
0.0
 40
0.0
 40
0.0299419634
 40
0.0449235299
 40
0.0599142017
 40
0.0899287029
 40
0.1200139772
 40
0.1350926626
 40
0.1501967046
 40
0.1804840506
 40
0.2108978877
 40
0.2414513551
 40
0.2721543675
 40
0.3030134354
 40
0.3340315696
 40
0.3652082675
 40
0.3965395775
 40
0.4280182343
 40
0.4596338596
 40
0.4913732188
 40
0.5232205284
 40
0.5551578047
 40
0.5871652463
 40
0.6192216448
 40
0.6513048151
 40
0.6833920402
 40
0.7154605222
 40
0.747487836
 40
0.7794523759
 40
0.8113337934
 40
0.8431134117
 40
0.8747746318
 40
0.9063032512
 40
0.9376879208
 40
0.9533258
 40
0.9689252634
 40
1.0
 40
1.0
 40
1.0
 40
1.0
 10
11.6769210061
 20
9.4739216584
 30
0.0
 10
11.6734205843
 20
9.4705405312
 30
0.0
 10
11.6679636161
 20
9.4656737217
 30
0.0
 10
11.6603212551
 20
9.4596350709
 30
0.0
 10
11.6524355232
 20
9.4538969126
 30
0.0
 10
11.6421459399
 20
9.4473076479
 30
0.0
 10
11.6313560707
 20
9.4415439482
 30
0.0
 10
11.6224572249
 20
9.4374436466
 30
0.0
 10
11.6133745551
 20
9.4336818311
 30
0.0
 10
11.6017219016
 20
9.4296368163
 30
0.0
 10
11.5873617724
 20
9.425866964
 30
0.0
 10
11.572688303
 20
9.4231963138
 30
0.0
 10
11.5577828115
 20
9.4216395995
 30
0.0
 10
11.5427271771
 20
9.4212051286
 30
0.0
 10
11.5276042401
 20
9.4218951124
 30
0.0
 10
11.5124971196
 20
9.4237055651
 30
0.0
 10
11.4974888226
 20
9.4266263611
 30
0.0
 10
11.4826617764
 20
9.4306412905
 30
0.0
 10
11.4680973867
 20
9.4357281548
 30
0.0
 10
11.4538755958
 20
9.4418588926
 30
0.0
 10
11.44007445
 20
9.4489997355
 30
0.0
 10
11.4267696777
 20
9.4571113944
 30
0.0
 10
11.4140342789
 20
9.4661492748
 30
0.0
 10
11.4019381301
 20
9.4760637208
 30
0.0
 10
11.3905476053
 20
9.4868002854
 30
0.0
 10
11.3799252159
 20
9.4983000272
 30
0.0
 10
11.3701292713
 20
9.5104998303
 30
0.0
 10
11.361213562
 20
9.5233327486
 30
0.0
 10
11.3532270667
 20
9.5367283644
 30
0.0
 10
11.3462136856
 20
9.5506131867
 30
0.0
 10
11.3402120022
 20
9.564910991
 30
0.0
 10
11.33525506
 20
9.5795434453
 30
0.0
 10
11.3313702427
 20
9.5944297491
 30
0.0
 10
11.3290412084
 20
9.6069954034
 30
0.0
 10
11.3277346893
 20
9.6170917543
 30
0.0
 10
11.3268022586
 20
9.6271784438
 30
0.0
 10
11.3265199276
 20
9.6347686097
 30
0.0
 10
11.3265199276
 20
9.63981945
 30
0.0
  0
SPLINE
  5
38F
100
AcDbEntity
  8
0
100
AcDbSpline
 62
7
  6
CONTINUOUS
 70
0
 71
3
 72
62
 73
58
 74
0
 42
0.0000001
 43
0.0000001
 44
0.0000000001
 40
0.0
 40
0.0
 40
0.0
 40
0.0
 40
0.0155852564
 40
0.0311184274
 40
0.0465988342
 40
0.0620286651
 40
0.0774094341
 40
0.0927434404
 40
0.108033465
 40
0.1232826932
 40
0.1384947499
 40
0.1536736422
 40
0.1688237253
 40
0.1839496573
 40
0.1990563494
 40
0.2141489182
 40
0.2292326324
 40
0.2443128549
 40
0.2593949845
 40
0.2744843993
 40
0.2895864013
 40
0.3047061587
 40
0.3198486493
 40
0.335018609
 40
0.3502204864
 40
0.3654583966
 40
0.3807360785
 40
0.3960568586
 40
0.4114236243
 40
0.4268387978
 40
0.4423043132
 40
0.4578216008
 40
0.4733915831
 40
0.4890146699
 40
0.5046907566
 40
0.5204192291
 40
0.53619898
 40
0.5520284227
 40
0.5679055075
 40
0.5838277441
 40
0.6157869295
 40
0.6478872653
 40
0.680096099
 40
0.7123769584
 40
0.7446908507
 40
0.7769976349
 40
0.8092574173
 40
0.84143194
 40
0.8734859364
 40
0.8894622347
 40
0.9053972103
 40
0.9212878322
 40
0.9371315158
 40
0.9529260972
 40
0.9686695788
 40
0.9843616165
 40
1.0
 40
1.0
 40
1.0
 40
1.0
 10
10.9556043883
 20
7.3705027007
 30
0.0
 10
10.9556043883
 20
7.3660853838
 30
0.0
 10
10.9553881862
 20
7.357263947
 30
0.0
 10
10.9544123819
 20
7.344087403
 30
0.0
 10
10.952787717
 20
7.331019048
 30
0.0
 10
10.9505182827
 20
7.318091
 30
0.0
 10
10.947609363
 20
7.3053341424
 30
0.0
 10
10.9440680009
 20
7.292779312
 30
0.0
 10
10.9399027151
 20
7.280456754
 30
0.0
 10
10.9351234976
 20
7.268396185
 30
0.0
 10
10.9297418226
 20
7.2566267051
 30
0.0
 10
10.9237706681
 20
7.2451766908
 30
0.0
 10
10.9172244198
 20
7.2340737561
 30
0.0
 10
10.9101188375
 20
7.2233446897
 30
0.0
 10
10.9024710195
 20
7.2130153943
 30
0.0
 10
10.894299426
 20
7.2031107741
 30
0.0
 10
10.8856237662
 20
7.1936547163
 30
0.0
 10
10.8764649537
 20
7.1846700379
 30
0.0
 10
10.8668450599
 20
7.1761784339
 30
0.0
 10
10.8567873121
 20
7.1682003623
 30
0.0
 10
10.8463159793
 20
7.1607550508
 30
0.0
 10
10.8354563164
 20
7.1538604542
 30
0.0
 10
10.824234508
 20
7.1475332135
 30
0.0
 10
10.8126776423
 20
7.1417885454
 30
0.0
 10
10.8008136001
 20
7.1366402725
 30
0.0
 10
10.7886709914
 20
7.1321007934
 30
0.0
 10
10.7762790916
 20
7.1281810549
 30
0.0
 10
10.7636677928
 20
7.1248904497
 30
0.0
 10
10.7508675015
 20
7.1222368695
 30
0.0
 10
10.7379090701
 20
7.1202266874
 30
0.0
 10
10.7248237278
 20
7.1188647443
 30
0.0
 10
10.7116430129
 20
7.1181542598
 30
0.0
 10
10.698398682
 20
7.1180969028
 30
0.0
 10
10.6851226396
 20
7.1186927888
 30
0.0
 10
10.6718468645
 20
7.1199404803
 30
0.0
 10
10.6586033351
 20
7.1218369092
 30
0.0
 10
10.6454239155
 20
7.1243774817
 30
0.0
 10
10.6323404299
 20
7.1275560183
 30
0.0
 10
10.6193840437
 20
7.1313650315
 30
0.0
 10
10.6023019417
 20
7.1372780411
 30
0.0
 10
10.5814236029
 20
7.1462016541
 30
0.0
 10
10.5574073099
 20
7.1592319675
 30
0.0
 10
10.534619867
 20
7.1744747146
 30
0.0
 10
10.5132815042
 20
7.1917828877
 30
0.0
 10
10.4935964253
 20
7.2109902279
 30
0.0
 10
10.4757538148
 20
7.2319122854
 30
0.0
 10
10.4599247413
 20
7.2543486035
 30
0.0
 10
10.4462620267
 20
7.2780825008
 30
0.0
 10
10.4367782701
 20
7.2987816257
 30
0.0
 10
10.4303994577
 20
7.3157578596
 30
0.0
 10
10.4262332001
 20
7.3286553426
 30
0.0
 10
10.4226906388
 20
7.3416986823
 30
0.0
 10
10.4197801674
 20
7.3548568382
 30
0.0
 10
10.4175089286
 20
7.3680979546
 30
0.0
 10
10.415882257
 20
7.3813904534
 30
0.0
 10
10.414904308
 20
7.3947016859
 30
0.0
 10
10.4146858935
 20
7.403583151
 30
0.0
 10
10.4146858935
 20
7.4080155258
 30
0.0
  0
SPLINE
  5
390
100
AcDbEntity
  8
0
100
AcDbSpline
 62
7
  6
CONTINUOUS
 70
0
 71
3
 72
42
 73
38
 74
0
 42
0.0000001
 43
0.0000001
 44
0.0000000001
 40
0.0
 40
0.0
 40
0.0
 40
0.0
 40
0.0299419634
 40
0.0449235299
 40
0.0599142017
 40
0.0899287029
 40
0.1200139772
 40
0.1350926626
 40
0.1501967046
 40
0.1804840506
 40
0.2108978877
 40
0.2414513551
 40
0.2721543675
 40
0.3030134354
 40
0.3340315696
 40
0.3652082675
 40
0.3965395775
 40
0.4280182343
 40
0.4596338596
 40
0.4913732188
 40
0.5232205284
 40
0.5551578047
 40
0.5871652463
 40
0.6192216448
 40
0.6513048151
 40
0.6833920402
 40
0.7154605222
 40
0.747487836
 40
0.7794523759
 40
0.8113337934
 40
0.8431134117
 40
0.8747746318
 40
0.9063032512
 40
0.9376879208
 40
0.9533258
 40
0.9689252634
 40
1.0
 40
1.0
 40
1.0
 40
1.0
 10
10.5902543871
 20
6.5906512982
 30
0.0
 10
10.5867539654
 20
6.587270171
 30
0.0
 10
10.5812969972
 20
6.5824033614
 30
0.0
 10
10.5736546361
 20
6.5763647107
 30
0.0
 10
10.5657689043
 20
6.5706265524
 30
0.0
 10
10.5554793209
 20
6.5640372877
 30
0.0
 10
10.5446894517
 20
6.558273588
 30
0.0
 10
10.5357906059
 20
6.5541732863
 30
0.0
 10
10.5267079361
 20
6.5504114709
 30
0.0
 10
10.5150552826
 20
6.5463664561
 30
0.0
 10
10.5006951534
 20
6.5425966038
 30
0.0
 10
10.486021684
 20
6.5399259536
 30
0.0
 10
10.4711161926
 20
6.5383692392
 30
0.0
 10
10.4560605581
 20
6.5379347684
 30
0.0
 10
10.4409376212
 20
6.5386247521
 30
0.0
 10
10.4258305007
 20
6.5404352049
 30
0.0
 10
10.4108222036
 20
6.5433560009
 30
0.0
 10
10.3959951574
 20
6.5473709302
 30
0.0
 10
10.3814307677
 20
6.5524577946
 30
0.0
 10
10.3672089768
 20
6.5585885324
 30
0.0
 10
10.3534078311
 20
6.5657293753
 30
0.0
 10
10.3401030587
 20
6.5738410341
 30
0.0
 10
10.3273676599
 20
6.5828789145
 30
0.0
 10
10.3152715111
 20
6.5927933605
 30
0.0
 10
10.3038809863
 20
6.6035299251
 30
0.0
 10
10.2932585969
 20
6.6150296669
 30
0.0
 10
10.2834626523
 20
6.6272294701
 30
0.0
 10
10.274546943
 20
6.6400623883
 30
0.0
 10
10.2665604477
 20
6.6534580042
 30
0.0
 10
10.2595470666
 20
6.6673428264
 30
0.0
 10
10.2535453832
 20
6.6816406308
 30
0.0
 10
10.248588441
 20
6.6962730851
 30
0.0
 10
10.2447036237
 20
6.7111593889
 30
0.0
 10
10.2423745894
 20
6.7237250432
 30
0.0
 10
10.2410680703
 20
6.7338213941
 30
0.0
 10
10.2401356396
 20
6.7439080836
 30
0.0
 10
10.2398533086
 20
6.7514982495
 30
0.0
 10
10.2398533086
 20
6.7565490897
 30
0.0
  0
SPLINE
  5
391
100
AcDbEntity
  8
0
100
AcDbSpline
 62
7
  6
CONTINUOUS
 70
0
 71
3
 72
62
 73
58
 74
0
 42
0.0000001
 43
0.0000001
 44
0.0000000001
 40
0.0
 40
0.0
 40
0.0
 40
0.0
 40
0.0155852564
 40
0.0311184274
 40
0.0465988342
 40
0.0620286651
 40
0.0774094341
 40
0.0927434404
 40
0.108033465
 40
0.1232826932
 40
0.1384947499
 40
0.1536736422
 40
0.1688237253
 40
0.1839496573
 40
0.1990563494
 40
0.2141489182
 40
0.2292326324
 40
0.2443128549
 40
0.2593949845
 40
0.2744843993
 40
0.2895864013
 40
0.3047061587
 40
0.3198486493
 40
0.335018609
 40
0.3502204864
 40
0.3654583966
 40
0.3807360785
 40
0.3960568586
 40
0.4114236243
 40
0.4268387978
 40
0.4423043132
 40
0.4578216008
 40
0.4733915831
 40
0.4890146699
 40
0.5046907566
 40
0.5204192291
 40
0.53619898
 40
0.5520284227
 40
0.5679055075
 40
0.5838277441
 40
0.6157869295
 40
0.6478872653
 40
0.680096099
 40
0.7123769584
 40
0.7446908507
 40
0.7769976349
 40
0.8092574173
 40
0.84143194
 40
0.8734859364
 40
0.8894622347
 40
0.9053972103
 40
0.9212878322
 40
0.9371315158
 40
0.9529260972
 40
0.9686695788
 40
0.9843616165
 40
1.0
 40
1.0
 40
1.0
 40
1.0
 10
10.4146858935
 20
7.4080155258
 30
0.0
 10
10.4146858935
 20
7.4124328428
 30
0.0
 10
10.4149020957
 20
7.4212542795
 30
0.0
 10
10.4158779
 20
7.4344308235
 30
0.0
 10
10.4175025649
 20
7.4474991785
 30
0.0
 10
10.4197719992
 20
7.4604272265
 30
0.0
 10
10.4226809189
 20
7.4731840841
 30
0.0
 10
10.426222281
 20
7.4857389145
 30
0.0
 10
10.4303875668
 20
7.4980614725
 30
0.0
 10
10.4351667842
 20
7.5101220415
 30
0.0
 10
10.4405484593
 20
7.5218915214
 30
0.0
 10
10.4465196138
 20
7.5333415357
 30
0.0
 10
10.453065862
 20
7.5444444704
 30
0.0
 10
10.4601714444
 20
7.5551735368
 30
0.0
 10
10.4678192623
 20
7.5655028322
 30
0.0
 10
10.4759908558
 20
7.5754074524
 30
0.0
 10
10.4846665157
 20
7.5848635102
 30
0.0
 10
10.4938253282
 20
7.5938481886
 30
0.0
 10
10.503445222
 20
7.6023397926
 30
0.0
 10
10.5135029697
 20
7.6103178642
 30
0.0
 10
10.5239743026
 20
7.6177631757
 30
0.0
 10
10.5348339655
 20
7.6246577723
 30
0.0
 10
10.5460557738
 20
7.630985013
 30
0.0
 10
10.5576126395
 20
7.6367296811
 30
0.0
 10
10.5694766817
 20
7.641877954
 30
0.0
 10
10.5816192904
 20
7.6464174331
 30
0.0
 10
10.5940111903
 20
7.6503371716
 30
0.0
 10
10.6066224891
 20
7.6536277768
 30
0.0
 10
10.6194227804
 20
7.656281357
 30
0.0
 10
10.6323812118
 20
7.6582915391
 30
0.0
 10
10.6454665541
 20
7.6596534822
 30
0.0
 10
10.658647269
 20
7.6603639667
 30
0.0
 10
10.6718915999
 20
7.6604213237
 30
0.0
 10
10.6851676423
 20
7.6598254377
 30
0.0
 10
10.6984434174
 20
7.6585777462
 30
0.0
 10
10.7116869468
 20
7.6566813173
 30
0.0
 10
10.7248663663
 20
7.6541407448
 30
0.0
 10
10.7379498519
 20
7.6509622082
 30
0.0
 10
10.7509062382
 20
7.647153195
 30
0.0
 10
10.7679883401
 20
7.6412401854
 30
0.0
 10
10.788866679
 20
7.6323165724
 30
0.0
 10
10.812882972
 20
7.619286259
 30
0.0
 10
10.8356704149
 20
7.6040435119
 30
0.0
 10
10.8570087777
 20
7.5867353388
 30
0.0
 10
10.8766938566
 20
7.5675279986
 30
0.0
 10
10.894536467
 20
7.5466059411
 30
0.0
 10
10.9103655406
 20
7.524169623
 30
0.0
 10
10.9240282551
 20
7.5004357257
 30
0.0
 10
10.9335120117
 20
7.4797366008
 30
0.0
 10
10.9398908242
 20
7.4627603669
 30
0.0
 10
10.9440570817
 20
7.4498628839
 30
0.0
 10
10.947599643
 20
7.4368195442
 30
0.0
 10
10.9505101145
 20
7.4236613883
 30
0.0
 10
10.9527813532
 20
7.4104202719
 30
0.0
 10
10.9544080249
 20
7.3971277731
 30
0.0
 10
10.9553859739
 20
7.3838165406
 30
0.0
 10
10.9556043883
 20
7.3749350755
 30
0.0
 10
10.9556043883
 20
7.3705027007
 30
0.0
  0
SPLINE
  5
392
100
AcDbEntity
  8
0
100
AcDbSpline
 62
7
  6
CONTINUOUS
 70
0
 71
3
 72
80
 73
76
 74
0
 42
0.0000001
 43
0.0000001
 44
0.0000000001
 40
0.0
 40
0.0
 40
0.0
 40
0.0
 40
0.0027164327
 40
0.0054532447
 40
0.0082303176
 40
0.0110666212
 40
0.0139798388
 40
0.016986154
 40
0.0201001347
 40
0.0233346582
 40
0.0267010284
 40
0.0302089968
 40
0.0338669183
 40
0.0376819076
 40
0.0416598906
 40
0.0458058349
 40
0.0501237838
 40
0.0546169826
 40
0.0592880207
 40
0.0641388059
 40
0.0691707482
 40
0.0743847477
 40
0.0853596785
 40
0.0970635549
 40
0.1094903305
 40
0.1226296146
 40
0.1364673135
 40
0.1509861535
 40
0.1661660759
 40
0.1819845508
 40
0.1984168195
 40
0.2154361185
 40
0.2330138792
 40
0.2511198904
 40
0.2697224401
 40
0.2887884373
 40
0.3082835515
 40
0.3281723331
 40
0.348418324
 40
0.368984158
 40
0.3898316649
 40
0.4109219833
 40
0.4536720365
 40
0.4969140898
 40
0.5403224212
 40
0.5835697178
 40
0.6263302119
 40
0.6682828124
 40
0.6888582723
 40
0.7091151075
 40
0.7290159233
 40
0.74852422
 40
0.7676045125
 40
0.7862224423
 40
0.804344885
 40
0.8219400731
 40
0.8389777322
 40
0.8554292445
 40
0.8712678001
 40
0.8864685754
 40
0.9010089485
 40
0.9148687687
 40
0.92803068
 40
0.940480496
 40
0.9522076877
 40
0.9577984663
 40
0.9632066952
 40
0.9684323943
 40
0.9734759977
 40
0.9783383604
 40
0.9830208115
 40
0.987525367
 40
0.9918546057
 40
0.996011597
 40
1.0
 40
1.0
 40
1.0
 40
1.0
 10
12.9658906775
 20
10.7631224986
 30
0.0
 10
12.966808934
 20
10.7630588122
 30
0.0
 10
12.9686476339
 20
10.7628478447
 30
0.0
 10
12.9713822644
 20
10.7622832877
 30
0.0
 10
12.97409624
 20
10.7614707981
 30
0.0
 10
12.9767876023
 20
10.7604110741
 30
0.0
 10
12.9794549746
 20
10.759105113
 30
0.0
 10
12.9820970009
 20
10.7575539389
 30
0.0
 10
12.9847124227
 20
10.7557586025
 30
0.0
 10
12.9873001367
 20
10.753720319
 30
0.0
 10
12.9898589696
 20
10.7514402101
 30
0.0
 10
12.9923878461
 20
10.7489195584
 30
0.0
 10
12.9948856753
 20
10.746159683
 30
0.0
 10
12.997351299
 20
10.7431619475
 30
0.0
 10
12.9997836651
 20
10.7399278923
 30
0.0
 10
13.002181599
 20
10.7364590799
 30
0.0
 10
13.0045439922
 20
10.7327572325
 30
0.0
 10
13.0068697419
 20
10.7288241808
 30
0.0
 10
13.0091576742
 20
10.7246618372
 30
0.0
 10
13.0114067261
 20
10.7202722852
 30
0.0
 10
13.0136157859
 20
10.7156576706
 30
0.0
 10
13.0165567471
 20
10.7090952149
 30
0.0
 10
13.0201132478
 20
10.7003347523
 30
0.0
 10
13.0241346901
 20
10.689136665
 30
0.0
 10
13.0279716428
 20
10.6771021455
 30
0.0
 10
13.0316163843
 20
10.6642551526
 30
0.0
 10
13.0350615645
 20
10.6506210788
 30
0.0
 10
13.0383001966
 20
10.6362270773
 30
0.0
 10
13.0413256996
 20
10.6211018619
 30
0.0
 10
13.0441319128
 20
10.6052756747
 30
0.0
 10
13.0467131274
 20
10.5887802099
 30
0.0
 10
13.0490640946
 20
10.5716485423
 30
0.0
 10
13.0511800288
 20
10.5539150458
 30
0.0
 10
13.0530566207
 20
10.5356153179
 30
0.0
 10
13.054690044
 20
10.5167861112
 30
0.0
 10
13.0560769781
 20
10.497465259
 30
0.0
 10
13.0572146003
 20
10.4776915929
 30
0.0
 10
13.0581005906
 20
10.4575048594
 30
0.0
 10
13.0587331374
 20
10.4369456368
 30
0.0
 10
13.0591109363
 20
10.4160552712
 30
0.0
 10
13.0592332364
 20
10.3948757371
 30
0.0
 10
13.0590543721
 20
10.3661792682
 30
0.0
 10
13.0581865513
 20
10.3299012563
 30
0.0
 10
13.0561413378
 20
10.2860980752
 30
0.0
 10
13.0531037575
 20
10.2421835273
 30
0.0
 10
13.0490982485
 20
10.1985104798
 30
0.0
 10
13.0441570992
 20
10.155429864
 30
0.0
 10
13.0392621533
 20
10.1200864578
 30
0.0
 10
13.0348993314
 20
10.092375545
 30
0.0
 10
13.0314414175
 20
10.0720881455
 30
0.0
 10
13.0277837004
 20
10.0522033776
 30
0.0
 10
13.0239335231
 20
10.032761188
 30
0.0
 10
13.0198986672
 20
10.0138006604
 30
0.0
 10
13.015687281
 20
9.9953598888
 30
0.0
 10
13.0113078703
 20
9.9774759169
 30
0.0
 10
13.00676928
 20
9.9601846614
 30
0.0
 10
13.0020806745
 20
9.9435208321
 30
0.0
 10
12.9972515342
 20
9.9275178516
 30
0.0
 10
12.9922916207
 20
9.9122077873
 30
0.0
 10
12.9872109575
 20
9.8976212901
 30
0.0
 10
12.982019803
 20
9.8837875156
 30
0.0
 10
12.9767286314
 20
9.8707340751
 30
0.0
 10
12.9713481019
 20
9.8584868619
 30
0.0
 10
12.9658890398
 20
9.8470703269
 30
0.0
 10
12.9612119081
 20
9.8381303028
 30
0.0
 10
12.9574315871
 20
9.8314206957
 30
0.0
 10
12.9546287819
 20
9.8266905117
 30
0.0
 10
12.9518145374
 20
9.8221842611
 30
0.0
 10
12.9489902466
 20
9.8179041799
 30
0.0
 10
12.9461573464
 20
9.8138523869
 30
0.0
 10
12.9433171683
 20
9.8100308981
 30
0.0
 10
12.9404711143
 20
9.8064415414
 30
0.0
 10
12.9376204892
 20
9.8030860941
 30
0.0
 10
12.9347668582
 20
9.7999663771
 30
0.0
 10
12.9328238174
 20
9.7980048007
 30
0.0
 10
12.931851767
 20
9.7970658722
 30
0.0
  0
SPLINE
  5
393
100
AcDbEntity
  8
0
100
AcDbSpline
 62
7
  6
CONTINUOUS
 70
0
 71
3
 72
82
 73
78
 74
0
 42
0.0000001
 43
0.0000001
 44
0.0000000001
 40
0.0
 40
0.0
 40
0.0
 40
0.0
 40
0.0028104035
 40
0.0056342314
 40
0.0084910398
 40
0.0113996623
 40
0.0143778412
 40
0.0174419726
 40
0.0238825885
 40
0.0272877133
 40
0.030829056
 40
0.034515488
 40
0.0383546107
 40
0.0423528274
 40
0.046515549
 40
0.050847211
 40
0.0553514523
 40
0.0600311785
 40
0.064888614
 40
0.069925454
 40
0.0751428194
 40
0.0805414107
 40
0.0861214942
 40
0.0978247434
 40
0.1102484458
 40
0.1233831824
 40
0.1372156448
 40
0.1517291677
 40
0.1669041492
 40
0.1827184011
 40
0.1991474241
 40
0.2161646382
 40
0.2337415803
 40
0.2518480692
 40
0.2704523719
 40
0.2895213457
 40
0.3090205676
 40
0.3289144566
 40
0.3491663855
 40
0.3697387957
 40
0.3905933111
 40
0.4116908437
 40
0.4544548935
 40
0.497708707
 40
0.5411244087
 40
0.584372537
 40
0.6271252706
 40
0.6482150711
 40
0.6690604924
 40
0.6896224674
 40
0.7098626461
 40
0.7297435072
 40
0.7492284596
 40
0.7682819551
 40
0.7868696091
 40
0.8049583215
 40
0.8225164194
 40
0.8395137846
 40
0.8559220117
 40
0.871714584
 40
0.8868670691
 40
0.9013573707
 40
0.9151659919
 40
0.9282763764
 40
0.9406753356
 40
0.9466052338
 40
0.9523541789
 40
0.9579217117
 40
0.9633077708
 40
0.9685126525
 40
0.9735370539
 40
0.9783821576
 40
0.9830496259
 40
0.9875418403
 40
0.9918618252
 40
0.9960131504
 40
1.0
 40
1.0
 40
1.0
 40
1.0
 10
11.2018424059
 20
10.8312652061
 30
0.0
 10
11.2018733958
 20
10.8323625244
 30
0.0
 10
11.2018395174
 20
10.8345663238
 30
0.0
 10
11.2014996643
 20
10.8378694603
 30
0.0
 10
11.2008712943
 20
10.8411692203
 30
0.0
 10
11.1999549831
 20
10.8444631753
 30
0.0
 10
11.1987515562
 20
10.8477496772
 30
0.0
 10
11.1967326031
 20
10.8521920705
 30
0.0
 10
11.1941529496
 20
10.8565456578
 30
0.0
 10
11.1910896294
 20
10.8607856249
 30
0.0
 10
11.1884680007
 20
10.8640099417
 30
0.0
 10
11.185566923
 20
10.8672170252
 30
0.0
 10
11.1823876448
 20
10.8704057826
 30
0.0
 10
11.1789319142
 20
10.8735746838
 30
0.0
 10
11.1752014039
 20
10.8767222059
 30
0.0
 10
11.1711980317
 20
10.879846895
 30
0.0
 10
11.1669237793
 20
10.8829472234
 30
0.0
 10
11.1623807773
 20
10.8860216649
 30
0.0
 10
11.1575713197
 20
10.8890687519
 30
0.0
 10
11.1524977833
 20
10.892086913
 30
0.0
 10
11.1471627425
 20
10.8950746942
 30
0.0
 10
11.1415688516
 20
10.898030594
 30
0.0
 10
11.1336425845
 20
10.9019902934
 30
0.0
 10
11.1230959782
 20
10.9068375462
 30
0.0
 10
11.1096493151
 20
10.9124149626
 30
0.0
 10
11.0952448629
 20
10.9178306303
 30
0.0
 10
11.0799116938
 20
10.9230735231
 30
0.0
 10
11.0636805599
 20
10.9281329634
 30
0.0
 10
11.0465842129
 20
10.9329986155
 30
0.0
 10
11.0286571976
 20
10.9376605259
 30
0.0
 10
11.0099357994
 20
10.9421091515
 30
0.0
 10
10.9904579521
 20
10.9463353815
 30
0.0
 10
10.9702631609
 20
10.9503305593
 30
0.0
 10
10.9493924155
 20
10.9540865098
 30
0.0
 10
10.9278880994
 20
10.9575955462
 30
0.0
 10
10.9057938962
 20
10.9608504878
 30
0.0
 10
10.8831546981
 20
10.9638446744
 30
0.0
 10
10.8600165165
 20
10.9665719773
 30
0.0
 10
10.8364263844
 20
10.9690268216
 30
0.0
 10
10.812432275
 20
10.9712041833
 30
0.0
 10
10.7880829357
 20
10.9730996425
 30
0.0
 10
10.7550620446
 20
10.9752553716
 30
0.0
 10
10.7132636643
 20
10.977212428
 30
0.0
 10
10.6627153723
 20
10.9783812909
 30
0.0
 10
10.611964316
 20
10.978371103
 30
0.0
 10
10.5614231387
 20
10.9771819257
 30
0.0
 10
10.5196352189
 20
10.9752080159
 30
0.0
 10
10.4866262185
 20
10.9730389192
 30
0.0
 10
10.4622883245
 20
10.9711336562
 30
0.0
 10
10.4383073617
 20
10.9689466295
 30
0.0
 10
10.4147320485
 20
10.9664822828
 30
0.0
 10
10.3916103239
 20
10.9637456645
 30
0.0
 10
10.3689891854
 20
10.9607423696
 30
0.0
 10
10.3469146107
 20
10.9574785409
 30
0.0
 10
10.3254314576
 20
10.9539608526
 30
0.0
 10
10.3045833658
 20
10.9501965035
 30
0.0
 10
10.2844126668
 20
10.9461932021
 30
0.0
 10
10.2649602954
 20
10.9419591454
 30
0.0
 10
10.246265705
 20
10.9375030021
 30
0.0
 10
10.2283667838
 20
10.9328338951
 30
0.0
 10
10.2112997563
 20
10.9279613775
 30
0.0
 10
10.1950991244
 20
10.9228954218
 30
0.0
 10
10.1797974867
 20
10.9176463773
 30
0.0
 10
10.1654258006
 20
10.9122249497
 30
0.0
 10
10.1540855731
 20
10.9075050953
 30
0.0
 10
10.1455099385
 20
10.9036423831
 30
0.0
 10
10.1394243329
 20
10.900752284
 30
0.0
 10
10.1335920245
 20
10.8978274298
 30
0.0
 10
10.1280159301
 20
10.8948692983
 30
0.0
 10
10.1226988571
 20
10.8918793757
 30
0.0
 10
10.1176434968
 20
10.8888591348
 30
0.0
 10
10.1128523686
 20
10.8858101525
 30
0.0
 10
10.1083278866
 20
10.8827338707
 30
0.0
 10
10.104072257
 20
10.8796318145
 30
0.0
 10
10.1000875871
 20
10.876505418
 30
0.0
 10
10.0963760753
 20
10.8733563841
 30
0.0
 10
10.0940387023
 20
10.8712002209
 30
0.0
 10
10.0929186209
 20
10.8701183053
 30
0.0
  0
SPLINE
  5
394
100
AcDbEntity
  8
0
100
AcDbSpline
 62
7
  6
CONTINUOUS
 70
0
 71
3
 72
11
 73
7
 74
0
 42
0.0000001
 43
0.0000001
 44
0.0000000001
 40
0.0
 40
0.0
 40
0.0
 40
0.0
 40
0.2759151423
 40
0.5331028583
 40
0.7735888711
 40
1.0
 40
1.0
 40
1.0
 40
1.0
 10
10.1016889283
 20
10.8483366874
 30
0.0
 10
10.0998666654
 20
10.8465765165
 30
0.0
 10
10.0964723605
 20
10.843040085
 30
0.0
 10
10.0920302179
 20
10.8374829445
 30
0.0
 10
10.0884337945
 20
10.8318755551
 30
0.0
 10
10.0865572291
 20
10.8280058247
 30
0.0
 10
10.085779339
 20
10.8260778591
 30
0.0
  0
SPLINE
  5
395
100
AcDbEntity
  8
0
100
AcDbSpline
 62
7
  6
CONTINUOUS
 70
0
 71
3
 72
87
 73
83
 74
0
 42
0.0000001
 43
0.0000001
 44
0.0000000001
 40
0.0
 40
0.0
 40
0.0
 40
0.0
 40
0.0027164299
 40
0.0054532321
 40
0.0082302981
 40
0.0110665844
 40
0.013979784
 40
0.0169860845
 40
0.023331123
 40
0.0266974588
 40
0.0302054004
 40
0.0338632989
 40
0.0376782464
 40
0.0416562097
 40
0.0458021134
 40
0.050120033
 40
0.0546132036
 40
0.059284201
 40
0.0641349608
 40
0.0691668649
 40
0.074380833
 40
0.0797773
 40
0.085356359
 40
0.0911176998
 40
0.0970607189
 40
0.1031845124
 40
0.1094878868
 40
0.1226271061
 40
0.1364647465
 40
0.1509835351
 40
0.1661634084
 40
0.181981828
 40
0.1984140399
 40
0.2154332916
 40
0.2330110148
 40
0.2511169902
 40
0.2697194985
 40
0.2887854553
 40
0.3082805352
 40
0.3281692889
 40
0.3484152538
 40
0.3689810612
 40
0.3898285444
 40
0.410918843
 40
0.4322125027
 40
0.453669576
 40
0.4969116041
 40
0.540319917
 40
0.5835672042
 40
0.6050288662
 40
0.6263284062
 40
0.6474258619
 40
0.668281762
 40
0.6888572259
 40
0.7091140641
 40
0.729014881
 40
0.7485231807
 40
0.7676034792
 40
0.7862214134
 40
0.8043438582
 40
0.8219390497
 40
0.8389767194
 40
0.8554282406
 40
0.8712667974
 40
0.8864675692
 40
0.901007944
 40
0.9148677755
 40
0.9280296968
 40
0.9343445773
 40
0.9404799644
 40
0.9464346373
 40
0.9522076918
 40
0.957798481
 40
0.9632066961
 40
0.9684323988
 40
0.973476
 40
0.9783383753
 40
0.9830208398
 40
0.9875253696
 40
0.9918545696
 40
0.9960115552
 40
1.0
 40
1.0
 40
1.0
 40
1.0
 10
12.9781702352
 20
9.431420978
 30
0.0
 10
12.9794197751
 20
9.4313343262
 30
0.0
 10
12.9819218264
 20
9.4310472648
 30
0.0
 10
12.9856430607
 20
9.4302791626
 30
0.0
 10
12.9893361634
 20
9.4291735449
 30
0.0
 10
12.9929984923
 20
9.4277316194
 30
0.0
 10
12.9966282993
 20
9.4259544977
 30
0.0
 10
13.0015088562
 20
9.4230891029
 30
0.0
 10
13.0062332687
 20
9.4195811193
 30
0.0
 10
13.0107855334
 20
9.4155247564
 30
0.0
 10
13.0142270278
 20
9.4120945615
 30
0.0
 10
13.017625925
 20
9.4083390991
 30
0.0
 10
13.0209811458
 20
9.4042599216
 30
0.0
 10
13.0242910135
 20
9.3998591415
 30
0.0
 10
13.0275540983
 20
9.3951389416
 30
0.0
 10
13.0307687802
 20
9.3901016115
 30
0.0
 10
13.0339336026
 20
9.3847496656
 30
0.0
 10
13.037046988
 20
9.3790857167
 30
0.0
 10
13.0401074372
 20
9.37311257
 30
0.0
 10
13.0431134656
 20
9.3668331847
 30
0.0
 10
13.0460635404
 20
9.3602506594
 30
0.0
 10
13.0489562618
 20
9.3533682826
 30
0.0
 10
13.0517901224
 20
9.346189462
 30
0.0
 10
13.0545637585
 20
9.3387177888
 30
0.0
 10
13.0572757485
 20
9.3309569888
 30
0.0
 10
13.0599247544
 20
9.3229109301
 30
0.0
 10
13.0634193975
 20
9.3116517023
 30
0.0
 10
13.0676083225
 20
9.2968862742
 30
0.0
 10
13.0722964677
 20
9.2783335696
 30
0.0
 10
13.0767035307
 20
9.2587466176
 30
0.0
 10
13.0808205758
 20
9.2381646881
 30
0.0
 10
13.0846392232
 20
9.2166288846
 30
0.0
 10
13.0881517026
 20
9.1941823475
 30
0.0
 10
13.0913508613
 20
9.1708700706
 30
0.0
 10
13.0942301872
 20
9.1467388293
 30
0.0
 10
13.0967838217
 20
9.1218370713
 30
0.0
 10
13.0990065668
 20
9.0962148136
 30
0.0
 10
13.1008938968
 20
9.0699235358
 30
0.0
 10
13.1024419663
 20
9.0430160736
 30
0.0
 10
13.1036476175
 20
9.0155465118
 30
0.0
 10
13.1045083865
 20
8.9875700747
 30
0.0
 10
13.1050225123
 20
8.9591430154
 30
0.0
 10
13.1051889369
 20
8.9303224937
 30
0.0
 10
13.1050072963
 20
8.9011664803
 30
0.0
 10
13.1044779636
 20
8.8717335605
 30
0.0
 10
13.1033068872
 20
8.8320990352
 30
0.0
 10
13.1009816242
 20
8.7823004899
 30
0.0
 10
13.0968482142
 20
8.7225429928
 30
0.0
 10
13.0922947547
 20
8.6728940197
 30
0.0
 10
13.0879973594
 20
8.6334684629
 30
0.0
 10
13.0844687736
 20
8.6042348422
 30
0.0
 10
13.0806338075
 20
8.5753215914
 30
0.0
 10
13.0765001593
 20
8.5467868092
 30
0.0
 10
13.0720761731
 20
8.5186878864
 30
0.0
 10
13.0673707689
 20
8.4910813189
 30
0.0
 10
13.0623934389
 20
8.4640226121
 30
0.0
 10
13.0571542248
 20
8.4375661613
 30
0.0
 10
13.0516637042
 20
8.4117651398
 30
0.0
 10
13.0459329635
 20
8.3866713906
 30
0.0
 10
13.0399735765
 20
8.3623353222
 30
0.0
 10
13.0337975812
 20
8.3388058046
 30
0.0
 10
13.0274174556
 20
8.3161300674
 30
0.0
 10
13.0208460907
 20
8.2943535993
 30
0.0
 10
13.0140967682
 20
8.2735200395
 30
0.0
 10
13.0071831294
 20
8.2536711063
 30
0.0
 10
13.0001191386
 20
8.2348464182
 30
0.0
 10
12.9929190562
 20
8.2170837029
 30
0.0
 10
12.9867353539
 20
8.2030080037
 30
0.0
 10
12.9817223939
 20
8.1923144868
 30
0.0
 10
12.9779896481
 20
8.184692505
 30
0.0
 10
12.9742337572
 20
8.1773615122
 30
0.0
 10
12.9704566244
 20
8.1703251497
 30
0.0
 10
12.9666601225
 20
8.1635869386
 30
0.0
 10
12.9628461408
 20
8.1571502374
 30
0.0
 10
12.9590166076
 20
8.1510182333
 30
0.0
 10
12.9551733728
 20
8.1451940058
 30
0.0
 10
12.9513184207
 20
8.1396804222
 30
0.0
 10
12.9474535859
 20
8.1344802291
 30
0.0
 10
12.9435807547
 20
8.129595946
 30
0.0
 10
12.9397017302
 20
8.1250299498
 30
0.0
 10
12.935818579
 20
8.1207847194
 30
0.0
 10
12.9331745227
 20
8.1181154467
 30
0.0
 10
12.931851767
 20
8.1168377628
 30
0.0
  0
SPLINE
  5
396
100
AcDbEntity
  8
0
100
AcDbSpline
 62
7
  6
CONTINUOUS
 70
0
 71
3
 72
18
 73
14
 74
0
 42
0.0000001
 43
0.0000001
 44
0.0000000001
 40
0.0
 40
0.0
 40
0.0
 40
0.0
 40
0.1483874372
 40
0.2881313926
 40
0.4199631025
 40
0.5448164204
 40
0.6638181664
 40
0.7215558082
 40
0.7783438291
 40
0.8343763079
 40
0.8898560265
 40
0.9449926394
 40
1.0
 40
1.0
 40
1.0
 40
1.0
 10
10.0929186209
 20
10.8701183053
 30
0.0
 10
10.0913340029
 20
10.8685876818
 30
0.0
 10
10.0883521279
 20
10.8655143756
 30
0.0
 10
10.0843559631
 20
10.8607196625
 30
0.0
 10
10.0809809853
 20
10.8558876396
 30
0.0
 10
10.0782327083
 20
10.85102338
 30
0.0
 10
10.076450857
 20
10.8469042447
 30
0.0
 10
10.0753576501
 20
10.8436120205
 30
0.0
 10
10.074704541
 20
10.8411637083
 30
0.0
 10
10.0742104742
 20
10.8387126061
 30
0.0
 10
10.073875677
 20
10.8362593698
 30
0.0
 10
10.0737002707
 20
10.8338049526
 30
0.0
 10
10.0736896456
 20
10.8321682989
 30
0.0
 10
10.0737108238
 20
10.8313518678
 30
0.0
  0
SPLINE
  5
397
100
AcDbEntity
  8
0
100
AcDbSpline
 62
4
  6
CONTINUOUS
 70
0
 71
3
 72
332
 73
328
 74
0
 42
0.0000001
 43
0.0000001
 44
0.0000000001
 40
0.0
 40
0.0
 40
0.0
 40
0.0
 40
0.015625
 40
0.0234375
 40
0.03125
 40
0.0390625
 40
0.04296875
 40
0.046875
 40
0.05078125
 40
0.0546875
 40
0.056640625
 40
0.05859375
 40
0.060546875
 40
0.0615234375
 40
0.0620117188
 40
0.0625
 40
0.0629882812
 40
0.0634765625
 40
0.064453125
 40
0.06640625
 40
0.068359375
 40
0.0703125
 40
0.07421875
 40
0.078125
 40
0.08203125
 40
0.0859375
 40
0.09375
 40
0.1015625
 40
0.10546875
 40
0.109375
 40
0.11328125
 40
0.1171875
 40
0.119140625
 40
0.12109375
 40
0.123046875
 40
0.1240234375
 40
0.1245117188
 40
0.125
 40
0.1254882812
 40
0.1259765625
 40
0.126953125
 40
0.12890625
 40
0.130859375
 40
0.1328125
 40
0.13671875
 40
0.140625
 40
0.14453125
 40
0.1484375
 40
0.15625
 40
0.1640625
 40
0.16796875
 40
0.171875
 40
0.17578125
 40
0.1796875
 40
0.181640625
 40
0.18359375
 40
0.185546875
 40
0.1865234375
 40
0.1870117188
 40
0.1875
 40
0.1879882812
 40
0.1884765625
 40
0.189453125
 40
0.19140625
 40
0.193359375
 40
0.1953125
 40
0.19921875
 40
0.203125
 40
0.20703125
 40
0.2109375
 40
0.21875
 40
0.2265625
 40
0.23046875
 40
0.234375
 40
0.23828125
 40
0.2421875
 40
0.244140625
 40
0.24609375
 40
0.2470703125
 40
0.248046875
 40
0.2490234375
 40
0.2495117188
 40
0.25
 40
0.2504882812
 40
0.2509765625
 40
0.251953125
 40
0.2529296875
 40
0.25390625
 40
0.255859375
 40
0.2578125
 40
0.26171875
 40
0.265625
 40
0.26953125
 40
0.2734375
 40
0.28125
 40
0.2890625
 40
0.29296875
 40
0.296875
 40
0.30078125
 40
0.3046875
 40
0.306640625
 40
0.30859375
 40
0.310546875
 40
0.3115234375
 40
0.3120117188
 40
0.3125
 40
0.3129882812
 40
0.3134765625
 40
0.314453125
 40
0.31640625
 40
0.318359375
 40
0.3203125
 40
0.32421875
 40
0.328125
 40
0.33203125
 40
0.3359375
 40
0.34375
 40
0.3515625
 40
0.35546875
 40
0.359375
 40
0.36328125
 40
0.3671875
 40
0.369140625
 40
0.37109375
 40
0.373046875
 40
0.3740234375
 40
0.3745117188
 40
0.375
 40
0.3754882812
 40
0.3759765625
 40
0.376953125
 40
0.37890625
 40
0.380859375
 40
0.3828125
 40
0.38671875
 40
0.390625
 40
0.39453125
 40
0.3984375
 40
0.40625
 40
0.4140625
 40
0.41796875
 40
0.421875
 40
0.42578125
 40
0.4296875
 40
0.431640625
 40
0.43359375
 40
0.435546875
 40
0.4365234375
 40
0.4370117188
 40
0.4375
 40
0.4379882812
 40
0.4384765625
 40
0.439453125
 40
0.44140625
 40
0.443359375
 40
0.4453125
 40
0.44921875
 40
0.453125
 40
0.45703125
 40
0.4609375
 40
0.46875
 40
0.4765625
 40
0.48046875
 40
0.484375
 40
0.48828125
 40
0.4921875
 40
0.494140625
 40
0.49609375
 40
0.498046875
 40
0.4990234375
 40
0.4995117188
 40
0.5
 40
0.5004882812
 40
0.5009765625
 40
0.501953125
 40
0.50390625
 40
0.505859375
 40
0.5078125
 40
0.51171875
 40
0.515625
 40
0.51953125
 40
0.5234375
 40
0.53125
 40
0.5390625
 40
0.546875
 40
0.55078125
 40
0.5546875
 40
0.556640625
 40
0.55859375
 40
0.560546875
 40
0.5615234375
 40
0.5620117188
 40
0.5625
 40
0.5629882812
 40
0.5634765625
 40
0.564453125
 40
0.56640625
 40
0.568359375
 40
0.5703125
 40
0.57421875
 40
0.578125
 40
0.5859375
 40
0.59375
 40
0.6015625
 40
0.609375
 40
0.61328125
 40
0.6171875
 40
0.619140625
 40
0.62109375
 40
0.623046875
 40
0.6240234375
 40
0.6245117188
 40
0.625
 40
0.6254882812
 40
0.6259765625
 40
0.626953125
 40
0.62890625
 40
0.630859375
 40
0.6328125
 40
0.63671875
 40
0.640625
 40
0.6484375
 40
0.65625
 40
0.6640625
 40
0.671875
 40
0.67578125
 40
0.6796875
 40
0.681640625
 40
0.68359375
 40
0.685546875
 40
0.6865234375
 40
0.6870117188
 40
0.6875
 40
0.6879882812
 40
0.6884765625
 40
0.689453125
 40
0.69140625
 40
0.693359375
 40
0.6953125
 40
0.69921875
 40
0.703125
 40
0.7109375
 40
0.71875
 40
0.7265625
 40
0.734375
 40
0.73828125
 40
0.7421875
 40
0.744140625
 40
0.74609375
 40
0.748046875
 40
0.7490234375
 40
0.7495117188
 40
0.75
 40
0.7504882812
 40
0.7509765625
 40
0.751953125
 40
0.75390625
 40
0.755859375
 40
0.7578125
 40
0.76171875
 40
0.765625
 40
0.7734375
 40
0.78125
 40
0.7890625
 40
0.796875
 40
0.80078125
 40
0.8046875
 40
0.806640625
 40
0.80859375
 40
0.810546875
 40
0.8115234375
 40
0.8120117188
 40
0.8125
 40
0.8129882812
 40
0.8134765625
 40
0.814453125
 40
0.81640625
 40
0.818359375
 40
0.8203125
 40
0.82421875
 40
0.828125
 40
0.8359375
 40
0.84375
 40
0.8515625
 40
0.859375
 40
0.86328125
 40
0.8671875
 40
0.869140625
 40
0.87109375
 40
0.873046875
 40
0.8740234375
 40
0.8745117188
 40
0.875
 40
0.8754882812
 40
0.8759765625
 40
0.876953125
 40
0.87890625
 40
0.880859375
 40
0.8828125
 40
0.88671875
 40
0.890625
 40
0.8984375
 40
0.90625
 40
0.9140625
 40
0.921875
 40
0.92578125
 40
0.9296875
 40
0.931640625
 40
0.93359375
 40
0.935546875
 40
0.9365234375
 40
0.9370117188
 40
0.9375
 40
0.9379882812
 40
0.9384765625
 40
0.939453125
 40
0.94140625
 40
0.943359375
 40
0.9453125
 40
0.94921875
 40
0.953125
 40
0.95703125
 40
0.9609375
 40
0.96875
 40
0.9765625
 40
0.984375
 40
1.0
 40
1.0
 40
1.0
 40
1.0
 10
10.2645811313
 20
8.8843143889
 30
0.0
 10
10.2677143182
 20
8.8844043133
 30
0.0
 10
10.2724140986
 20
8.8845392
 30
0.0
 10
10.2786804724
 20
8.8847190486
 30
0.0
 10
10.2833802527
 20
8.8848539358
 30
0.0
 10
10.2872967367
 20
8.8849663396
 30
0.0
 10
10.2904299229
 20
8.8850562675
 30
0.0
 10
10.2927798152
 20
8.8851237004
 30
0.0
 10
10.2951296977
 20
8.8851911827
 30
0.0
 10
10.2970879633
 20
8.8852472641
 30
0.0
 10
10.2986545084
 20
8.8852924739
 30
0.0
 10
10.2998296012
 20
8.8853254394
 30
0.0
 10
10.30080826
 20
8.8853559065
 30
0.0
 10
10.3014944695
 20
8.8853713542
 30
0.0
 10
10.3018847962
 20
8.8853893615
 30
0.0
 10
10.3021825923
 20
8.8853770065
 30
0.0
 10
10.3024610804
 20
8.8854635034
 30
0.0
 10
10.3028391327
 20
8.885544352
 30
0.0
 10
10.3034975864
 20
8.8857019021
 30
0.0
 10
10.3044398749
 20
8.8859185746
 30
0.0
 10
10.3055699191
 20
8.8861821767
 30
0.0
 10
10.3070768898
 20
8.8865323904
 30
0.0
 10
10.3089605191
 20
8.8869705884
 30
0.0
 10
10.3112209103
 20
8.8874962413
 30
0.0
 10
10.3134812919
 20
8.8880219436
 30
0.0
 10
10.3164951374
 20
8.8887228626
 30
0.0
 10
10.3202624429
 20
8.889599018
 30
0.0
 10
10.3240297496
 20
8.8904751691
 30
0.0
 10
10.3270435931
 20
8.8911760949
 30
0.0
 10
10.3293039807
 20
8.8917017769
 30
0.0
 10
10.3315643493
 20
8.8922275061
 30
0.0
 10
10.3334480489
 20
8.8926654666
 30
0.0
 10
10.3349548764
 20
8.8930161647
 30
0.0
 10
10.3360853579
 20
8.8932782875
 30
0.0
 10
10.3370262779
 20
8.8934995882
 30
0.0
 10
10.3376871748
 20
8.8936488762
 30
0.0
 10
10.3380613123
 20
8.8937429627
 30
0.0
 10
10.3383518254
 20
8.893788797
 30
0.0
 10
10.3386044577
 20
8.8939291638
 30
0.0
 10
10.3389545141
 20
8.8940833455
 30
0.0
 10
10.3395609565
 20
8.8943685268
 30
0.0
 10
10.3404305212
 20
8.8947678965
 30
0.0
 10
10.3414726213
 20
8.8952505781
 30
0.0
 10
10.3428625694
 20
8.8958929527
 30
0.0
 10
10.3445998393
 20
8.8966963331
 30
0.0
 10
10.3466846339
 20
8.8976602128
 30
0.0
 10
10.3487694096
 20
8.8986241398
 30
0.0
 10
10.3515491172
 20
8.8999093593
 30
0.0
 10
10.3550237492
 20
8.9015158898
 30
0.0
 10
10.3584983831
 20
8.9031224162
 30
0.0
 10
10.3612780876
 20
8.9044076422
 30
0.0
 10
10.3633628724
 20
8.9053715495
 30
0.0
 10
10.365447633
 20
8.9063355031
 30
0.0
 10
10.367185009
 20
8.9071386536
 30
0.0
 10
10.3685747405
 20
8.9077814969
 30
0.0
 10
10.3696175018
 20
8.9082627472
 30
0.0
 10
10.3704849979
 20
8.9086665953
 30
0.0
 10
10.3710951332
 20
8.9089437818
 30
0.0
 10
10.3714392726
 20
8.9091107732
 30
0.0
 10
10.3717100801
 20
8.909211793
 30
0.0
 10
10.3719323302
 20
8.909405408
 30
0.0
 10
10.3722456009
 20
8.9096312632
 30
0.0
 10
10.3727859333
 20
8.910041558
 30
0.0
 10
10.3735619625
 20
8.9106198261
 30
0.0
 10
10.3744914315
 20
8.9113171154
 30
0.0
 10
10.3757313404
 20
8.912245658
 30
0.0
 10
10.3772810148
 20
8.91340674
 30
0.0
 10
10.3791407149
 20
8.9147998653
 30
0.0
 10
10.3810003907
 20
8.9161930369
 30
0.0
 10
10.3834799669
 20
8.9180505829
 30
0.0
 10
10.3865794344
 20
8.9203725209
 30
0.0
 10
10.3896789025
 20
8.9226944572
 30
0.0
 10
10.3921584777
 20
8.9245520058
 30
0.0
 10
10.3940181564
 20
8.9259451697
 30
0.0
 10
10.3958778456
 20
8.927338324
 30
0.0
 10
10.3974275539
 20
8.9284993157
 30
0.0
 10
10.3986673938
 20
8.9294280425
 30
0.0
 10
10.3994421269
 20
8.9300086482
 30
0.0
 10
10.4000622956
 20
8.9304727859
 30
0.0
 10
10.4005263754
 20
8.9308218387
 30
0.0
 10
10.4009164382
 20
8.9311096957
 30
0.0
 10
10.4012210208
 20
8.9313467553
 30
0.0
 10
10.4014698629
 20
8.9315060403
 30
0.0
 10
10.4016408184
 20
8.931735977
 30
0.0
 10
10.4018959659
 20
8.9320178797
 30
0.0
 10
10.4022055657
 20
8.9323787255
 30
0.0
 10
10.402581081
 20
8.9328081161
 30
0.0
 10
10.4030803725
 20
8.9333819029
 30
0.0
 10
10.4037049647
 20
8.9340987028
 30
0.0
 10
10.4047040452
 20
8.9352458251
 30
0.0
 10
10.4059529875
 20
8.9366796447
 30
0.0
 10
10.4074516789
 20
8.938400264
 30
0.0
 10
10.4089503808
 20
8.9401208737
 30
0.0
 10
10.4109486463
 20
8.9424150232
 30
0.0
 10
10.4134464791
 20
8.9452827094
 30
0.0
 10
10.4159443133
 20
8.9481503946
 30
0.0
 10
10.4179425767
 20
8.9504445456
 30
0.0
 10
10.4194412851
 20
8.9521651509
 30
0.0
 10
10.4209399522
 20
8.9538857867
 30
0.0
 10
10.4221889701
 20
8.9553195548
 30
0.0
 10
10.4231878963
 20
8.9564667821
 30
0.0
 10
10.423937878
 20
8.9573266211
 30
0.0
 10
10.4245603593
 20
8.9580450032
 30
0.0
 10
10.4250010092
 20
8.958544241
 30
0.0
 10
10.4252451378
 20
8.9588351872
 30
0.0
 10
10.4254498445
 20
8.9590374315
 30
0.0
 10
10.4255719463
 20
8.9593007035
 30
0.0
 10
10.4257635621
 20
8.9596304457
 30
0.0
 10
10.4260854651
 20
8.9602174127
 30
0.0
 10
10.4265523452
 20
8.9610507517
 30
0.0
 10
10.4271095971
 20
8.962052978
 30
0.0
 10
10.427853649
 20
8.9633885044
 30
0.0
 10
10.4287833538
 20
8.9650581784
 30
0.0
 10
10.429899154
 20
8.9670616732
 30
0.0
 10
10.4310149128
 20
8.9690651985
 30
0.0
 10
10.4325026057
 20
8.9717365549
 30
0.0
 10
10.4343622164
 20
8.9750757543
 30
0.0
 10
10.4362218309
 20
8.9784149514
 30
0.0
 10
10.4377095177
 20
8.9810863115
 30
0.0
 10
10.4388252949
 20
8.9830898257
 30
0.0
 10
10.4399410261
 20
8.9850933622
 30
0.0
 10
10.4408709451
 20
8.9867629065
 30
0.0
 10
10.4416145603
 20
8.9880986974
 30
0.0
 10
10.442173146
 20
8.9891001159
 30
0.0
 10
10.4426358528
 20
8.989935982
 30
0.0
 10
10.4429652059
 20
8.9905184377
 30
0.0
 10
10.4431448849
 20
8.9908554082
 30
0.0
 10
10.4433036527
 20
8.9910964773
 30
0.0
 10
10.4433706479
 20
8.9913821122
 30
0.0
 10
10.4434919861
 20
8.9917474136
 30
0.0
 10
10.4436894133
 20
8.9923939338
 30
0.0
 10
10.4439792497
 20
8.9933137475
 30
0.0
 10
10.4443237157
 20
8.9944191447
 30
0.0
 10
10.4447841696
 20
8.9958924415
 30
0.0
 10
10.445359337
 20
8.9977342568
 30
0.0
 10
10.4460497093
 20
8.9999443519
 30
0.0
 10
10.4467400358
 20
9.0021544692
 30
0.0
 10
10.4476604871
 20
9.0051012846
 30
0.0
 10
10.4488110452
 20
9.0087848066
 30
0.0
 10
10.4499616075
 20
9.0124683269
 30
0.0
 10
10.4508820522
 20
9.015415145
 30
0.0
 10
10.4515723986
 20
9.017625254
 30
0.0
 10
10.4522626962
 20
9.0198353806
 30
0.0
 10
10.452838096
 20
9.0216770976
 30
0.0
 10
10.453298076
 20
9.023150595
 30
0.0
 10
10.4536439893
 20
9.0242553796
 30
0.0
 10
10.4539292976
 20
9.0251771099
 30
0.0
 10
10.4541348082
 20
9.0258202087
 30
0.0
 10
10.4542431948
 20
9.026190992
 30
0.0
 10
10.454349973
 20
9.0264597884
 30
0.0
 10
10.4543593223
 20
9.0267640998
 30
0.0
 10
10.4544057723
 20
9.0271574602
 30
0.0
 10
10.4544712259
 20
9.0278516128
 30
0.0
 10
10.4545730091
 20
9.0288402418
 30
0.0
 10
10.4546916057
 20
9.0300278882
 30
0.0
 10
10.4548509722
 20
9.0316109656
 30
0.0
 10
10.4550497556
 20
9.0335899671
 30
0.0
 10
10.4552884778
 20
9.0359647026
 30
0.0
 10
10.4555271512
 20
9.0383394558
 30
0.0
 10
10.4558453996
 20
9.0415057873
 30
0.0
 10
10.4562432036
 20
9.0454637037
 30
0.0
 10
10.4566410119
 20
9.0494216194
 30
0.0
 10
10.4569592533
 20
9.052587952
 30
0.0
 10
10.4571979477
 20
9.0549627017
 30
0.0
 10
10.4574365914
 20
9.0573374505
 30
0.0
 10
10.4576356188
 20
9.0593164107
 30
0.0
 10
10.4577944878
 20
9.0608995723
 30
0.0
 10
10.4579146037
 20
9.0620869617
 30
0.0
 10
10.4580116335
 20
9.0630763948
 30
0.0
 10
10.4580855728
 20
9.0637691119
 30
0.0
 10
10.4581184265
 20
9.0641647723
 30
0.0
 10
10.4581695392
 20
9.0644620188
 30
0.0
 10
10.4581194609
 20
9.0647573497
 30
0.0
 10
10.4580879863
 20
9.0651517923
 30
0.0
 10
10.4580164605
 20
9.0658417556
 30
0.0
 10
10.4579228786
 20
9.0668275802
 30
0.0
 10
10.4578069002
 20
9.0680105001
 30
0.0
 10
10.4576535478
 20
9.069587751
 30
0.0
 10
10.4574614163
 20
9.0715593062
 30
0.0
 10
10.4572310475
 20
9.0739251761
 30
0.0
 10
10.4570006281
 20
9.076291045
 30
0.0
 10
10.4566934197
 20
9.0794455371
 30
0.0
 10
10.4563094052
 20
9.0833886525
 30
0.0
 10
10.4558485808
 20
9.0881203897
 30
0.0
 10
10.4554645891
 20
9.0920635078
 30
0.0
 10
10.4551573307
 20
9.0952179939
 30
0.0
 10
10.4549654423
 20
9.0971895668
 30
0.0
 10
10.4548115924
 20
9.0987667814
 30
0.0
 10
10.4546971339
 20
9.0999498119
 30
0.0
 10
10.4545987965
 20
9.1009352905
 30
0.0
 10
10.45453576
 20
9.1016258716
 30
0.0
 10
10.4544906835
 20
9.1020193243
 30
0.0
 10
10.4544823862
 20
9.1023176959
 30
0.0
 10
10.4543765761
 20
9.1026035219
 30
0.0
 10
10.4542695096
 20
9.1029889993
 30
0.0
 10
10.4540662955
 20
9.1036615459
 30
0.0
 10
10.4537842751
 20
9.1046233927
 30
0.0
 10
10.4534423042
 20
9.1057771526
 30
0.0
 10
10.4529875816
 20
9.1073156584
 30
0.0
 10
10.4524187543
 20
9.1092387362
 30
0.0
 10
10.4515088677
 20
9.1123156911
 30
0.0
 10
10.4503714276
 20
9.1161618741
 30
0.0
 10
10.4490065367
 20
9.1207772991
 30
0.0
 10
10.4476416277
 20
9.1253927198
 30
0.0
 10
10.4465042331
 20
9.1292389134
 30
0.0
 10
10.4455942555
 20
9.1323158472
 30
0.0
 10
10.4450256593
 20
9.1342389786
 30
0.0
 10
10.4445704625
 20
9.1357773742
 30
0.0
 10
10.4442299405
 20
9.136931471
 30
0.0
 10
10.4439433868
 20
9.1378922635
 30
0.0
 10
10.4437482653
 20
9.1385666922
 30
0.0
 10
10.4436282324
 20
9.138949154
 30
0.0
 10
10.4435622509
 20
9.1392442429
 30
0.0
 10
10.443404364
 20
9.1395078248
 30
0.0
 10
10.4432259058
 20
9.1398702573
 30
0.0
 10
10.4428986676
 20
9.1404993936
 30
0.0
 10
10.4424389934
 20
9.141400837
 30
0.0
 10
10.4418840419
 20
9.1424814231
 30
0.0
 10
10.441145274
 20
9.1439226048
 30
0.0
 10
10.4402214143
 20
9.1457239449
 30
0.0
 10
10.4387434624
 20
9.1486061656
 30
0.0
 10
10.4368959453
 20
9.1522089151
 30
0.0
 10
10.43467896
 20
9.1565322268
 30
0.0
 10
10.4324619573
 20
9.1608555314
 30
0.0
 10
10.4306144837
 20
9.1644582986
 30
0.0
 10
10.4291364448
 20
9.1673404839
 30
0.0
 10
10.4282128061
 20
9.1691419141
 30
0.0
 10
10.4274735847
 20
9.1705829109
 30
0.0
 10
10.4269200187
 20
9.1716640621
 30
0.0
 10
10.4264560095
 20
9.1725637373
 30
0.0
 10
10.42613651
 20
9.17319603
 30
0.0
 10
10.4259456525
 20
9.1735534054
 30
0.0
 10
10.4258258521
 20
9.1738325211
 30
0.0
 10
10.425616824
 20
9.1740692673
 30
0.0
 10
10.4253692434
 20
9.1743997078
 30
0.0
 10
10.4249214764
 20
9.1749710929
 30
0.0
 10
10.4242893905
 20
9.1757909574
 30
0.0
 10
10.4235276424
 20
9.1767732538
 30
0.0
 10
10.4225131116
 20
9.1780835206
 30
0.0
 10
10.4212445601
 20
9.1797211698
 30
0.0
 10
10.4192150947
 20
9.1823415116
 30
0.0
 10
10.4166781881
 20
9.1856169031
 30
0.0
 10
10.4136339338
 20
9.1895473899
 30
0.0
 10
10.4105896647
 20
9.1934778656
 30
0.0
 10
10.4080527951
 20
9.1967532849
 30
0.0
 10
10.4060232555
 20
9.1993735711
 30
0.0
 10
10.4047548925
 20
9.2010113615
 30
0.0
 10
10.403739975
 20
9.2023213385
 30
0.0
 10
10.4029794084
 20
9.2033045201
 30
0.0
 10
10.4023436258
 20
9.2041216152
 30
0.0
 10
10.401902458
 20
9.2046979441
 30
0.0
 10
10.4016443038
 20
9.2050204635
 30
0.0
 10
10.4014677545
 20
9.2052815409
 30
0.0
 10
10.4012259691
 20
9.2054692727
 30
0.0
 10
10.4009263436
 20
9.2057451655
 30
0.0
 10
10.400391397
 20
9.2062160581
 30
0.0
 10
10.3996327303
 20
9.2068949936
 30
0.0
 10
10.3987199579
 20
9.2077070488
 30
0.0
 10
10.3975037567
 20
9.2087907208
 30
0.0
 10
10.3959832214
 20
9.2101449917
 30
0.0
 10
10.3935505235
 20
9.2123120035
 30
0.0
 10
10.3905095964
 20
9.2150207066
 30
0.0
 10
10.3868605087
 20
9.2182711787
 30
0.0
 10
10.3832114095
 20
9.2215216361
 30
0.0
 10
10.3801705113
 20
9.2242303758
 30
0.0
 10
10.3777377556
 20
9.2263973146
 30
0.0
 10
10.3762173673
 20
9.227751771
 30
0.0
 10
10.3750008643
 20
9.2288350621
 30
0.0
 10
10.3740890139
 20
9.2296482809
 30
0.0
 10
10.3733274626
 20
9.2303235759
 30
0.0
 10
10.3727976656
 20
9.2308009674
 30
0.0
 10
10.372489789
 20
9.2310664474
 30
0.0
 10
10.3722733483
 20
9.2312861642
 30
0.0
 10
10.3720016085
 20
9.2314271112
 30
0.0
 10
10.3716585776
 20
9.2316425163
 30
0.0
 10
10.3710492866
 20
9.2320066738
 30
0.0
 10
10.3701835694
 20
9.2325335916
 30
0.0
 10
10.3691426976
 20
9.2331630282
 30
0.0
 10
10.3677555709
 20
9.2340032776
 30
0.0
 10
10.3660214221
 20
9.2350532467
 30
0.0
 10
10.3632469185
 20
9.2367333889
 30
0.0
 10
10.3597787426
 20
9.2388335004
 30
0.0
 10
10.3556169523
 20
9.2413536646
 30
0.0
 10
10.351455153
 20
9.2438738128
 30
0.0
 10
10.3479869996
 20
9.2459739646
 30
0.0
 10
10.345212451
 20
9.2476540262
 30
0.0
 10
10.3434784163
 20
9.2487042001
 30
0.0
 10
10.3420910556
 20
9.2495440291
 30
0.0
 10
10.3410508989
 20
9.25017475
 30
0.0
 10
10.340182944
 20
9.2506976496
 30
0.0
 10
10.3395776476
 20
9.2510689801
 30
0.0
 10
10.3392282163
 20
9.2512728923
 30
0.0
 10
10.3389761366
 20
9.2514491419
 30
0.0
 10
10.3386858557
 20
9.2515362681
 30
0.0
 10
10.3383121394
 20
9.2516835236
 30
0.0
 10
10.3376519276
 20
9.2519267367
 30
0.0
 10
10.3367120137
 20
9.2522817563
 30
0.0
 10
10.3355827277
 20
9.2527045386
 30
0.0
 10
10.3340774982
 20
9.2532693805
 30
0.0
 10
10.3321957953
 20
9.2539750452
 30
0.0
 10
10.3291851634
 20
9.2551043254
 30
0.0
 10
10.3254218416
 20
9.2565158507
 30
0.0
 10
10.3209058698
 20
9.2582097156
 30
0.0
 10
10.3163898915
 20
9.2599035627
 30
0.0
 10
10.3126265858
 20
9.2613151323
 30
0.0
 10
10.3096159218
 20
9.262444324
 30
0.0
 10
10.3077343005
 20
9.2631502138
 30
0.0
 10
10.3062289034
 20
9.2637145935
 30
0.0
 10
10.3051001296
 20
9.2641387876
 30
0.0
 10
10.3041586131
 20
9.2644893903
 30
0.0
 10
10.303501262
 20
9.2647404883
 30
0.0
 10
10.3031229622
 20
9.2648751101
 30
0.0
 10
10.3028467607
 20
9.2650010429
 30
0.0
 10
10.3025418008
 20
9.2650315413
 30
0.0
 10
10.3021452188
 20
9.2651054943
 30
0.0
 10
10.3014465267
 20
9.2652194023
 30
0.0
 10
10.3004508386
 20
9.2653902368
 30
0.0
 10
10.2992549669
 20
9.2655917674
 30
0.0
 10
10.2976608368
 20
9.2658616872
 30
0.0
 10
10.2956680487
 20
9.2661986709
 30
0.0
 10
10.2932767567
 20
9.2666032297
 30
0.0
 10
10.2908854503
 20
9.2670077408
 30
0.0
 10
10.2876970469
 20
9.2675471057
 30
0.0
 10
10.2837115409
 20
9.268221306
 30
0.0
 10
10.2789289344
 20
9.2690303488
 30
0.0
 10
10.2725521254
 20
9.2701090716
 30
0.0
 10
10.2677695188
 20
9.270918114
 30
0.0
 10
10.2645811144
 20
9.2714574755
 30
0.0
  0
SPLINE
  5
398
100
AcDbEntity
  8
0
100
AcDbSpline
 62
4
  6
CONTINUOUS
 70
0
 71
3
 72
332
 73
328
 74
0
 42
0.0000001
 43
0.0000001
 44
0.0000000001
 40
0.0
 40
0.0
 40
0.0
 40
0.0
 40
0.015625
 40
0.0234375
 40
0.03125
 40
0.0390625
 40
0.04296875
 40
0.046875
 40
0.05078125
 40
0.0546875
 40
0.056640625
 40
0.05859375
 40
0.060546875
 40
0.0615234375
 40
0.0620117188
 40
0.0625
 40
0.0629882812
 40
0.0634765625
 40
0.064453125
 40
0.06640625
 40
0.068359375
 40
0.0703125
 40
0.07421875
 40
0.078125
 40
0.08203125
 40
0.0859375
 40
0.09375
 40
0.1015625
 40
0.10546875
 40
0.109375
 40
0.11328125
 40
0.1171875
 40
0.119140625
 40
0.12109375
 40
0.123046875
 40
0.1240234375
 40
0.1245117188
 40
0.125
 40
0.1254882812
 40
0.1259765625
 40
0.126953125
 40
0.12890625
 40
0.130859375
 40
0.1328125
 40
0.13671875
 40
0.140625
 40
0.14453125
 40
0.1484375
 40
0.15625
 40
0.1640625
 40
0.16796875
 40
0.171875
 40
0.17578125
 40
0.1796875
 40
0.181640625
 40
0.18359375
 40
0.185546875
 40
0.1865234375
 40
0.1870117188
 40
0.1875
 40
0.1879882812
 40
0.1884765625
 40
0.189453125
 40
0.19140625
 40
0.193359375
 40
0.1953125
 40
0.19921875
 40
0.203125
 40
0.20703125
 40
0.2109375
 40
0.21875
 40
0.2265625
 40
0.23046875
 40
0.234375
 40
0.23828125
 40
0.2421875
 40
0.244140625
 40
0.24609375
 40
0.2470703125
 40
0.248046875
 40
0.2490234375
 40
0.2495117188
 40
0.25
 40
0.2504882812
 40
0.2509765625
 40
0.251953125
 40
0.2529296875
 40
0.25390625
 40
0.255859375
 40
0.2578125
 40
0.26171875
 40
0.265625
 40
0.26953125
 40
0.2734375
 40
0.28125
 40
0.2890625
 40
0.29296875
 40
0.296875
 40
0.30078125
 40
0.3046875
 40
0.306640625
 40
0.30859375
 40
0.310546875
 40
0.3115234375
 40
0.3120117188
 40
0.3125
 40
0.3129882812
 40
0.3134765625
 40
0.314453125
 40
0.31640625
 40
0.318359375
 40
0.3203125
 40
0.32421875
 40
0.328125
 40
0.33203125
 40
0.3359375
 40
0.34375
 40
0.3515625
 40
0.35546875
 40
0.359375
 40
0.36328125
 40
0.3671875
 40
0.369140625
 40
0.37109375
 40
0.373046875
 40
0.3740234375
 40
0.3745117188
 40
0.375
 40
0.3754882812
 40
0.3759765625
 40
0.376953125
 40
0.37890625
 40
0.380859375
 40
0.3828125
 40
0.38671875
 40
0.390625
 40
0.39453125
 40
0.3984375
 40
0.40625
 40
0.4140625
 40
0.41796875
 40
0.421875
 40
0.42578125
 40
0.4296875
 40
0.431640625
 40
0.43359375
 40
0.435546875
 40
0.4365234375
 40
0.4370117188
 40
0.4375
 40
0.4379882812
 40
0.4384765625
 40
0.439453125
 40
0.44140625
 40
0.443359375
 40
0.4453125
 40
0.44921875
 40
0.453125
 40
0.45703125
 40
0.4609375
 40
0.46875
 40
0.4765625
 40
0.48046875
 40
0.484375
 40
0.48828125
 40
0.4921875
 40
0.494140625
 40
0.49609375
 40
0.498046875
 40
0.4990234375
 40
0.4995117188
 40
0.5
 40
0.5004882812
 40
0.5009765625
 40
0.501953125
 40
0.50390625
 40
0.505859375
 40
0.5078125
 40
0.51171875
 40
0.515625
 40
0.51953125
 40
0.5234375
 40
0.53125
 40
0.5390625
 40
0.546875
 40
0.55078125
 40
0.5546875
 40
0.556640625
 40
0.55859375
 40
0.560546875
 40
0.5615234375
 40
0.5620117188
 40
0.5625
 40
0.5629882812
 40
0.5634765625
 40
0.564453125
 40
0.56640625
 40
0.568359375
 40
0.5703125
 40
0.57421875
 40
0.578125
 40
0.5859375
 40
0.59375
 40
0.6015625
 40
0.609375
 40
0.61328125
 40
0.6171875
 40
0.619140625
 40
0.62109375
 40
0.623046875
 40
0.6240234375
 40
0.6245117188
 40
0.625
 40
0.6254882812
 40
0.6259765625
 40
0.626953125
 40
0.62890625
 40
0.630859375
 40
0.6328125
 40
0.63671875
 40
0.640625
 40
0.6484375
 40
0.65625
 40
0.6640625
 40
0.671875
 40
0.67578125
 40
0.6796875
 40
0.681640625
 40
0.68359375
 40
0.685546875
 40
0.6865234375
 40
0.6870117188
 40
0.6875
 40
0.6879882812
 40
0.6884765625
 40
0.689453125
 40
0.69140625
 40
0.693359375
 40
0.6953125
 40
0.69921875
 40
0.703125
 40
0.7109375
 40
0.71875
 40
0.7265625
 40
0.734375
 40
0.73828125
 40
0.7421875
 40
0.744140625
 40
0.74609375
 40
0.748046875
 40
0.7490234375
 40
0.7495117188
 40
0.75
 40
0.7504882812
 40
0.7509765625
 40
0.751953125
 40
0.75390625
 40
0.755859375
 40
0.7578125
 40
0.76171875
 40
0.765625
 40
0.7734375
 40
0.78125
 40
0.7890625
 40
0.796875
 40
0.80078125
 40
0.8046875
 40
0.806640625
 40
0.80859375
 40
0.810546875
 40
0.8115234375
 40
0.8120117188
 40
0.8125
 40
0.8129882812
 40
0.8134765625
 40
0.814453125
 40
0.81640625
 40
0.818359375
 40
0.8203125
 40
0.82421875
 40
0.828125
 40
0.8359375
 40
0.84375
 40
0.8515625
 40
0.859375
 40
0.86328125
 40
0.8671875
 40
0.869140625
 40
0.87109375
 40
0.873046875
 40
0.8740234375
 40
0.8745117188
 40
0.875
 40
0.8754882812
 40
0.8759765625
 40
0.876953125
 40
0.87890625
 40
0.880859375
 40
0.8828125
 40
0.88671875
 40
0.890625
 40
0.8984375
 40
0.90625
 40
0.9140625
 40
0.921875
 40
0.92578125
 40
0.9296875
 40
0.931640625
 40
0.93359375
 40
0.935546875
 40
0.9365234375
 40
0.9370117188
 40
0.9375
 40
0.9379882812
 40
0.9384765625
 40
0.939453125
 40
0.94140625
 40
0.943359375
 40
0.9453125
 40
0.94921875
 40
0.953125
 40
0.95703125
 40
0.9609375
 40
0.96875
 40
0.9765625
 40
0.984375
 40
1.0
 40
1.0
 40
1.0
 40
1.0
 10
10.2645811313
 20
9.2714574744
 30
0.0
 10
10.2614479444
 20
9.27136755
 30
0.0
 10
10.256748164
 20
9.2712326633
 30
0.0
 10
10.2504817901
 20
9.2710528146
 30
0.0
 10
10.2457820099
 20
9.2709179275
 30
0.0
 10
10.2418655259
 20
9.2708055236
 30
0.0
 10
10.2387323396
 20
9.2707155958
 30
0.0
 10
10.2363824474
 20
9.2706481629
 30
0.0
 10
10.2340325649
 20
9.2705806806
 30
0.0
 10
10.2320742993
 20
9.2705245992
 30
0.0
 10
10.2305077542
 20
9.2704793894
 30
0.0
 10
10.2293326614
 20
9.2704464239
 30
0.0
 10
10.2283540026
 20
9.2704159567
 30
0.0
 10
10.2276677931
 20
9.2704005091
 30
0.0
 10
10.2272774664
 20
9.2703825017
 30
0.0
 10
10.2269796703
 20
9.2703948567
 30
0.0
 10
10.2267011822
 20
9.2703083598
 30
0.0
 10
10.2263231299
 20
9.2702275113
 30
0.0
 10
10.2256646762
 20
9.2700699612
 30
0.0
 10
10.2247223876
 20
9.2698532887
 30
0.0
 10
10.2235923435
 20
9.2695896866
 30
0.0
 10
10.2220853728
 20
9.2692394729
 30
0.0
 10
10.2202017435
 20
9.2688012749
 30
0.0
 10
10.2179413523
 20
9.268275622
 30
0.0
 10
10.2156809707
 20
9.2677499197
 30
0.0
 10
10.2126671252
 20
9.2670490006
 30
0.0
 10
10.2088998197
 20
9.2661728453
 30
0.0
 10
10.205132513
 20
9.2652966942
 30
0.0
 10
10.2021186695
 20
9.2645957683
 30
0.0
 10
10.1998582819
 20
9.2640700864
 30
0.0
 10
10.1975979133
 20
9.2635443571
 30
0.0
 10
10.1957142137
 20
9.2631063967
 30
0.0
 10
10.1942073862
 20
9.2627556986
 30
0.0
 10
10.1930769046
 20
9.2624935758
 30
0.0
 10
10.1921359847
 20
9.2622722751
 30
0.0
 10
10.1914750878
 20
9.262122987
 30
0.0
 10
10.1911009503
 20
9.2620289006
 30
0.0
 10
10.1908104372
 20
9.2619830663
 30
0.0
 10
10.1905578048
 20
9.2618426995
 30
0.0
 10
10.1902077485
 20
9.2616885177
 30
0.0
 10
10.1896013061
 20
9.2614033365
 30
0.0
 10
10.1887317413
 20
9.2610039668
 30
0.0
 10
10.1876896413
 20
9.2605212851
 30
0.0
 10
10.1862996932
 20
9.2598789105
 30
0.0
 10
10.1845624233
 20
9.2590755302
 30
0.0
 10
10.1824776287
 20
9.2581116505
 30
0.0
 10
10.180392853
 20
9.2571477234
 30
0.0
 10
10.1776131454
 20
9.255862504
 30
0.0
 10
10.1741385134
 20
9.2542559735
 30
0.0
 10
10.1706638795
 20
9.2526494471
 30
0.0
 10
10.167884175
 20
9.2513642211
 30
0.0
 10
10.1657993901
 20
9.2504003138
 30
0.0
 10
10.1637146296
 20
9.2494363601
 30
0.0
 10
10.1619772535
 20
9.2486332096
 30
0.0
 10
10.160587522
 20
9.2479903663
 30
0.0
 10
10.1595447608
 20
9.2475091161
 30
0.0
 10
10.1586772646
 20
9.2471052679
 30
0.0
 10
10.1580671294
 20
9.2468280815
 30
0.0
 10
10.15772299
 20
9.2466610901
 30
0.0
 10
10.1574521824
 20
9.2465600703
 30
0.0
 10
10.1572299324
 20
9.2463664552
 30
0.0
 10
10.1569166617
 20
9.2461406001
 30
0.0
 10
10.1563763293
 20
9.2457303052
 30
0.0
 10
10.1556003001
 20
9.2451520371
 30
0.0
 10
10.1546708311
 20
9.2444547479
 30
0.0
 10
10.1534309222
 20
9.2435262052
 30
0.0
 10
10.1518812478
 20
9.2423651233
 30
0.0
 10
10.1500215477
 20
9.240971998
 30
0.0
 10
10.1481618719
 20
9.2395788263
 30
0.0
 10
10.1456822957
 20
9.2377212803
 30
0.0
 10
10.1425828282
 20
9.2353993424
 30
0.0
 10
10.1394833601
 20
9.2330774061
 30
0.0
 10
10.1370037849
 20
9.2312198575
 30
0.0
 10
10.1351441062
 20
9.2298266936
 30
0.0
 10
10.133284417
 20
9.2284335393
 30
0.0
 10
10.1317347087
 20
9.2272725476
 30
0.0
 10
10.1304948688
 20
9.2263438208
 30
0.0
 10
10.1297201357
 20
9.2257632151
 30
0.0
 10
10.129099967
 20
9.2252990773
 30
0.0
 10
10.1286358872
 20
9.2249500246
 30
0.0
 10
10.1282458244
 20
9.2246621675
 30
0.0
 10
10.1279412417
 20
9.224425108
 30
0.0
 10
10.1276923997
 20
9.224265823
 30
0.0
 10
10.1275214442
 20
9.2240358863
 30
0.0
 10
10.1272662967
 20
9.2237539836
 30
0.0
 10
10.1269566968
 20
9.2233931378
 30
0.0
 10
10.1265811816
 20
9.2229637471
 30
0.0
 10
10.1260818901
 20
9.2223899604
 30
0.0
 10
10.1254572979
 20
9.2216731604
 30
0.0
 10
10.1244582174
 20
9.2205260382
 30
0.0
 10
10.1232092751
 20
9.2190922185
 30
0.0
 10
10.1217105837
 20
9.2173715993
 30
0.0
 10
10.1202118818
 20
9.2156509896
 30
0.0
 10
10.1182136162
 20
9.2133568401
 30
0.0
 10
10.1157157835
 20
9.2104891539
 30
0.0
 10
10.1132179493
 20
9.2076214687
 30
0.0
 10
10.1112196859
 20
9.2053273177
 30
0.0
 10
10.1097209775
 20
9.2036067124
 30
0.0
 10
10.1082223104
 20
9.2018860766
 30
0.0
 10
10.1069732925
 20
9.2004523085
 30
0.0
 10
10.1059743663
 20
9.1993050811
 30
0.0
 10
10.1052243846
 20
9.1984452421
 30
0.0
 10
10.1046019033
 20
9.19772686
 30
0.0
 10
10.1041612534
 20
9.1972276223
 30
0.0
 10
10.1039171247
 20
9.1969366761
 30
0.0
 10
10.1037124181
 20
9.1967344318
 30
0.0
 10
10.1035903163
 20
9.1964711598
 30
0.0
 10
10.1033987005
 20
9.1961414175
 30
0.0
 10
10.1030767974
 20
9.1955544505
 30
0.0
 10
10.1026099174
 20
9.1947211115
 30
0.0
 10
10.1020526655
 20
9.1937188853
 30
0.0
 10
10.1013086136
 20
9.1923833589
 30
0.0
 10
10.1003789088
 20
9.1907136848
 30
0.0
 10
10.0992631086
 20
9.1887101901
 30
0.0
 10
10.0981473498
 20
9.1867066647
 30
0.0
 10
10.0966596569
 20
9.1840353084
 30
0.0
 10
10.0948000462
 20
9.180696109
 30
0.0
 10
10.0929404317
 20
9.1773569119
 30
0.0
 10
10.0914527449
 20
9.1746855518
 30
0.0
 10
10.0903369677
 20
9.1726820376
 30
0.0
 10
10.0892212364
 20
9.1706785011
 30
0.0
 10
10.0882913175
 20
9.1690089568
 30
0.0
 10
10.0875477023
 20
9.1676731659
 30
0.0
 10
10.0869891165
 20
9.1666717473
 30
0.0
 10
10.0865264098
 20
9.1658358812
 30
0.0
 10
10.0861970567
 20
9.1652534256
 30
0.0
 10
10.0860173777
 20
9.1649164551
 30
0.0
 10
10.0858586099
 20
9.1646753859
 30
0.0
 10
10.0857916147
 20
9.1643897511
 30
0.0
 10
10.0856702765
 20
9.1640244497
 30
0.0
 10
10.0854728493
 20
9.1633779295
 30
0.0
 10
10.0851830129
 20
9.1624581158
 30
0.0
 10
10.0848385469
 20
9.1613527186
 30
0.0
 10
10.0843780929
 20
9.1598794217
 30
0.0
 10
10.0838029256
 20
9.1580376064
 30
0.0
 10
10.0831125533
 20
9.1558275114
 30
0.0
 10
10.0824222268
 20
9.153617394
 30
0.0
 10
10.0815017755
 20
9.1506705787
 30
0.0
 10
10.0803512173
 20
9.1469870567
 30
0.0
 10
10.0792006551
 20
9.1433035364
 30
0.0
 10
10.0782802104
 20
9.1403567182
 30
0.0
 10
10.077589864
 20
9.1381466093
 30
0.0
 10
10.0768995664
 20
9.1359364826
 30
0.0
 10
10.0763241666
 20
9.1340947657
 30
0.0
 10
10.0758641866
 20
9.1326212683
 30
0.0
 10
10.0755182733
 20
9.1315164836
 30
0.0
 10
10.075232965
 20
9.1305947534
 30
0.0
 10
10.0750274544
 20
9.1299516545
 30
0.0
 10
10.0749190678
 20
9.1295808713
 30
0.0
 10
10.0748122896
 20
9.1293120748
 30
0.0
 10
10.0748029403
 20
9.1290077635
 30
0.0
 10
10.0747564903
 20
9.1286144031
 30
0.0
 10
10.0746910367
 20
9.1279202505
 30
0.0
 10
10.0745892535
 20
9.1269316215
 30
0.0
 10
10.0744706569
 20
9.125743975
 30
0.0
 10
10.0743112904
 20
9.1241608977
 30
0.0
 10
10.074112507
 20
9.1221818961
 30
0.0
 10
10.0738737848
 20
9.1198071607
 30
0.0
 10
10.0736351114
 20
9.1174324074
 30
0.0
 10
10.073316863
 20
9.114266076
 30
0.0
 10
10.072919059
 20
9.1103081596
 30
0.0
 10
10.0725212507
 20
9.1063502439
 30
0.0
 10
10.0722030093
 20
9.1031839112
 30
0.0
 10
10.0719643149
 20
9.1008091616
 30
0.0
 10
10.0717256712
 20
9.0984344128
 30
0.0
 10
10.0715266438
 20
9.0964554525
 30
0.0
 10
10.0713677748
 20
9.094872291
 30
0.0
 10
10.0712476589
 20
9.0936849016
 30
0.0
 10
10.0711506291
 20
9.0926954685
 30
0.0
 10
10.0710766898
 20
9.0920027514
 30
0.0
 10
10.0710438361
 20
9.0916070909
 30
0.0
 10
10.0709927234
 20
9.0913098444
 30
0.0
 10
10.0710428017
 20
9.0910145136
 30
0.0
 10
10.0710742763
 20
9.090620071
 30
0.0
 10
10.0711458021
 20
9.0899301076
 30
0.0
 10
10.071239384
 20
9.088944283
 30
0.0
 10
10.0713553624
 20
9.0877613631
 30
0.0
 10
10.0715087147
 20
9.0861841123
 30
0.0
 10
10.0717008463
 20
9.084212557
 30
0.0
 10
10.0719312151
 20
9.0818466872
 30
0.0
 10
10.0721616345
 20
9.0794808183
 30
0.0
 10
10.0724688429
 20
9.0763263262
 30
0.0
 10
10.0728528574
 20
9.0723832108
 30
0.0
 10
10.0733136817
 20
9.0676514736
 30
0.0
 10
10.0736976735
 20
9.0637083555
 30
0.0
 10
10.0740049319
 20
9.0605538694
 30
0.0
 10
10.0741968203
 20
9.0585822965
 30
0.0
 10
10.0743506702
 20
9.0570050818
 30
0.0
 10
10.0744651287
 20
9.0558220513
 30
0.0
 10
10.0745634661
 20
9.0548365728
 30
0.0
 10
10.0746265025
 20
9.0541459916
 30
0.0
 10
10.0746715791
 20
9.0537525389
 30
0.0
 10
10.0746798764
 20
9.0534541674
 30
0.0
 10
10.0747856865
 20
9.0531683413
 30
0.0
 10
10.074892753
 20
9.0527828639
 30
0.0
 10
10.075095967
 20
9.0521103173
 30
0.0
 10
10.0753779875
 20
9.0511484706
 30
0.0
 10
10.0757199584
 20
9.0499947107
 30
0.0
 10
10.076174681
 20
9.0484562048
 30
0.0
 10
10.0767435083
 20
9.0465331271
 30
0.0
 10
10.0776533949
 20
9.0434561722
 30
0.0
 10
10.078790835
 20
9.0396099891
 30
0.0
 10
10.0801557259
 20
9.0349945642
 30
0.0
 10
10.0815206349
 20
9.0303791435
 30
0.0
 10
10.0826580295
 20
9.0265329499
 30
0.0
 10
10.083568007
 20
9.0234560161
 30
0.0
 10
10.0841366033
 20
9.0215328846
 30
0.0
 10
10.0845918001
 20
9.0199944891
 30
0.0
 10
10.0849323221
 20
9.0188403922
 30
0.0
 10
10.0852188758
 20
9.0178795997
 30
0.0
 10
10.0854139972
 20
9.0172051711
 30
0.0
 10
10.0855340302
 20
9.0168227092
 30
0.0
 10
10.0856000117
 20
9.0165276203
 30
0.0
 10
10.0857578986
 20
9.0162640385
 30
0.0
 10
10.0859363568
 20
9.015901606
 30
0.0
 10
10.086263595
 20
9.0152724696
 30
0.0
 10
10.0867232692
 20
9.0143710263
 30
0.0
 10
10.0872782207
 20
9.0132904402
 30
0.0
 10
10.0880169886
 20
9.0118492585
 30
0.0
 10
10.0889408483
 20
9.0100479184
 30
0.0
 10
10.0904188002
 20
9.0071656976
 30
0.0
 10
10.0922663173
 20
9.0035629482
 30
0.0
 10
10.0944833026
 20
8.9992396365
 30
0.0
 10
10.0967003053
 20
8.9949163318
 30
0.0
 10
10.0985477789
 20
8.9913135647
 30
0.0
 10
10.1000258178
 20
8.9884313793
 30
0.0
 10
10.1009494565
 20
8.9866299491
 30
0.0
 10
10.1016886779
 20
8.9851889524
 30
0.0
 10
10.1022422439
 20
8.9841078012
 30
0.0
 10
10.1027062531
 20
8.9832081259
 30
0.0
 10
10.1030257526
 20
8.9825758333
 30
0.0
 10
10.1032166101
 20
8.9822184579
 30
0.0
 10
10.1033364105
 20
8.9819393422
 30
0.0
 10
10.1035454386
 20
8.981702596
 30
0.0
 10
10.1037930192
 20
8.9813721555
 30
0.0
 10
10.1042407862
 20
8.9808007703
 30
0.0
 10
10.1048728721
 20
8.9799809059
 30
0.0
 10
10.1056346202
 20
8.9789986094
 30
0.0
 10
10.1066491509
 20
8.9776883426
 30
0.0
 10
10.1079177024
 20
8.9760506934
 30
0.0
 10
10.1099471679
 20
8.9734303517
 30
0.0
 10
10.1124840745
 20
8.9701549602
 30
0.0
 10
10.1155283288
 20
8.9662244734
 30
0.0
 10
10.1185725979
 20
8.9622939976
 30
0.0
 10
10.1211094675
 20
8.9590185784
 30
0.0
 10
10.123139007
 20
8.9563982922
 30
0.0
 10
10.1244073701
 20
8.9547605018
 30
0.0
 10
10.1254222876
 20
8.9534505247
 30
0.0
 10
10.1261828542
 20
8.9524673432
 30
0.0
 10
10.1268186368
 20
8.951650248
 30
0.0
 10
10.1272598046
 20
8.9510739192
 30
0.0
 10
10.1275179588
 20
8.9507513998
 30
0.0
 10
10.1276945081
 20
8.9504903224
 30
0.0
 10
10.1279362935
 20
8.9503025906
 30
0.0
 10
10.128235919
 20
8.9500266977
 30
0.0
 10
10.1287708656
 20
8.9495558052
 30
0.0
 10
10.1295295322
 20
8.9488768696
 30
0.0
 10
10.1304423047
 20
8.9480648144
 30
0.0
 10
10.1316585059
 20
8.9469811425
 30
0.0
 10
10.1331790412
 20
8.9456268716
 30
0.0
 10
10.1356117391
 20
8.9434598598
 30
0.0
 10
10.1386526662
 20
8.9407511566
 30
0.0
 10
10.1423017539
 20
8.9375006846
 30
0.0
 10
10.1459508531
 20
8.9342502271
 30
0.0
 10
10.1489917513
 20
8.9315414875
 30
0.0
 10
10.151424507
 20
8.9293745487
 30
0.0
 10
10.1529448952
 20
8.9280200922
 30
0.0
 10
10.1541613983
 20
8.9269368011
 30
0.0
 10
10.1550732487
 20
8.9261235824
 30
0.0
 10
10.1558348
 20
8.9254482873
 30
0.0
 10
10.156364597
 20
8.9249708959
 30
0.0
 10
10.1566724735
 20
8.9247054159
 30
0.0
 10
10.1568889143
 20
8.9244856991
 30
0.0
 10
10.1571606541
 20
8.9243447521
 30
0.0
 10
10.1575036849
 20
8.9241293469
 30
0.0
 10
10.158112976
 20
8.9237651894
 30
0.0
 10
10.1589786932
 20
8.9232382717
 30
0.0
 10
10.160019565
 20
8.9226088351
 30
0.0
 10
10.1614066917
 20
8.9217685857
 30
0.0
 10
10.1631408405
 20
8.9207186165
 30
0.0
 10
10.1659153441
 20
8.9190384744
 30
0.0
 10
10.16938352
 20
8.9169383629
 30
0.0
 10
10.1735453103
 20
8.9144181986
 30
0.0
 10
10.1777071096
 20
8.9118980505
 30
0.0
 10
10.181175263
 20
8.9097978987
 30
0.0
 10
10.1839498116
 20
8.9081178371
 30
0.0
 10
10.1856838463
 20
8.9070676632
 30
0.0
 10
10.187071207
 20
8.9062278341
 30
0.0
 10
10.1881113636
 20
8.9055971133
 30
0.0
 10
10.1889793186
 20
8.9050742136
 30
0.0
 10
10.189584615
 20
8.9047028831
 30
0.0
 10
10.1899340462
 20
8.9044989709
 30
0.0
 10
10.1901861259
 20
8.9043227213
 30
0.0
 10
10.1904764069
 20
8.9042355951
 30
0.0
 10
10.1908501232
 20
8.9040883396
 30
0.0
 10
10.191510335
 20
8.9038451266
 30
0.0
 10
10.1924502489
 20
8.903490107
 30
0.0
 10
10.1935795349
 20
8.9030673246
 30
0.0
 10
10.1950847644
 20
8.9025024828
 30
0.0
 10
10.1969664673
 20
8.9017968181
 30
0.0
 10
10.1999770992
 20
8.9006675379
 30
0.0
 10
10.203740421
 20
8.8992560125
 30
0.0
 10
10.2082563928
 20
8.8975621477
 30
0.0
 10
10.2127723711
 20
8.8958683006
 30
0.0
 10
10.2165356768
 20
8.8944567309
 30
0.0
 10
10.2195463408
 20
8.8933275393
 30
0.0
 10
10.2214279621
 20
8.8926216495
 30
0.0
 10
10.2229333592
 20
8.8920572697
 30
0.0
 10
10.224062133
 20
8.8916330757
 30
0.0
 10
10.2250036495
 20
8.891282473
 30
0.0
 10
10.2256610005
 20
8.891031375
 30
0.0
 10
10.2260393004
 20
8.8908967532
 30
0.0
 10
10.2263155019
 20
8.8907708203
 30
0.0
 10
10.2266204618
 20
8.890740322
 30
0.0
 10
10.2270170437
 20
8.890666369
 30
0.0
 10
10.2277157359
 20
8.8905524609
 30
0.0
 10
10.228711424
 20
8.8903816265
 30
0.0
 10
10.2299072956
 20
8.8901800959
 30
0.0
 10
10.2315014258
 20
8.8899101761
 30
0.0
 10
10.2334942139
 20
8.8895731924
 30
0.0
 10
10.2358855059
 20
8.8891686335
 30
0.0
 10
10.2382768122
 20
8.8887641224
 30
0.0
 10
10.2414652157
 20
8.8882247576
 30
0.0
 10
10.2454507217
 20
8.8875505573
 30
0.0
 10
10.2502333282
 20
8.8867415145
 30
0.0
 10
10.2566101371
 20
8.8856627916
 30
0.0
 10
10.2613927438
 20
8.8848537493
 30
0.0
 10
10.2645811482
 20
8.8843143877
 30
0.0
  0
ENDSEC
  0
SECTION
  2
OBJECTS
  0
DICTIONARY
  5
C
100
AcDbDictionary
280
0
281
1
  3
ACAD_GROUP
350
D
  3
ACAD_MLINESTYLE
350
17
  3
ACAD_LAYOUT
350
1A
  3
ACAD_PLOTSETTINGS
350
19
  3
ACAD_PLOTSTYLENAME
350
E
  3
ACAD_IMAGE_DICT
350
       39A
  3
ACAD_IMAGE_VARS
350
       39B
  3
ACAD_TABLESTYLE
350
       39C
  0
IMAGEDEF_REACTOR
  5
399
100
AcDbRasterImageDefReactor
 90
2
330
292
  0
DICTIONARY
  5
D
102
{ACAD_REACTORS
330
C
102
}
100
AcDbDictionary
280
0
281
1
  0
ACDBDICTIONARYWDFLT
  5
E
102
{ACAD_REACTORS
330
C
102
}
100
AcDbDictionary
281
1
  3
Normal
350
F
100
AcDbDictionaryWithDefault
340
F
  0
DICTIONARY
  5
39A
330
C
100
AcDbDictionary
281
1
  3
N4K_assy_2_img_1
350
       39F
  0
RASTERVARIABLES
  5
39B
330
C
100
AcDbRasterVariables
 90
0
 70
0
 71
1
 72
5
  0
DICTIONARY
  5
17
102
{ACAD_REACTORS
330
C
102
}
100
AcDbDictionary
280
0
281
1
  3
Standard
350
18
  0
DICTIONARY
  5
39C
330
C
100
AcDbDictionary
281
1
  3
Standard
350
       3A0
  3
Standard1
350
       3A1
  0
DICTIONARY
  5
19
102
{ACAD_REACTORS
330
C
102
}
100
AcDbDictionary
281
1
  0
DICTIONARY
  5
1A
102
{ACAD_REACTORS
330
C
102
}
100
AcDbDictionary
281
1
  3
Model
350
39D
  3
Layout1
350
39E
  0
ACDBPLACEHOLDER
  5
F
102
{ACAD_REACTORS
330
E
102
}
  0
MLINESTYLE
  5
18
102
{ACAD_REACTORS
330
17
102
}
100
AcDbMlineStyle
  2
STANDARD
 70
0
  3

 62
256
 51
90.0
 52
90.0
 71
2
 49
0.5
 62
256
  6
BYLAYER
 49
-0.5
 62
256
  6
BYLAYER
  0
LAYOUT
  5
39D
102
{ACAD_REACTORS
330
1A
102
}
100
AcDbPlotSettings
  1

  2
none_device
  4
ANSI_C_(22.00_x_17.00_Inches)
  6

 40
0.0
 41
0.0
 42
0.0
 43
0.0
 44
558.8
 45
431.8
 46
0.0
 47
0.0
 48
0.0
 49
0.0
140
0.0
141
0.0
142
1.0
143
1.0
 70
1024
 72
0
 73
0
 74
0
  7

 75
0
147
1.0
148
0.0
149
0.0
100
AcDbLayout
  1
Model
 70
0
 71
0
 10
0.0
 20
0.0
 11
22.0
 21
17.0
 12
0.0
 22
0.0
 32
0.0
 14
0.0
 24
0.0
 34
0.0
 15
0.0
 25
0.0
 35
0.0
146
0.0
 13
0.0
 23
0.0
 33
0.0
 16
1.0
 26
0.0
 36
0.0
 17
0.0
 27
1.0
 37
0.0
 76
0
330
20C
345
0
346
0
  0
LAYOUT
  5
39E
102
{ACAD_REACTORS
330
1A
102
}
100
AcDbPlotSettings
  1

  2
none_device
  4
ANSI_C_(22.00_x_17.00_Inches)
  6

 40
0.0
 41
0.0
 42
0.0
 43
0.0
 44
558.8
 45
431.8
 46
0.0
 47
0.0
 48
0.0
 49
0.0
140
0.0
141
0.0
142
1.0
143
1.0
 70
0
 72
0
 73
0
 74
0
  7

 75
0
147
1.0
148
0.0
149
0.0
100
AcDbLayout
  1
Layout1
 70
0
 71
1
 10
0.0
 20
0.0
 11
22.0
 21
17.0
 12
0.0
 22
0.0
 32
0.0
 14
0.0
 24
0.0
 34
0.0
 15
0.0
 25
0.0
 35
0.0
146
0.0
 13
0.0
 23
0.0
 33
0.0
 16
1.0
 26
0.0
 36
0.0
 17
0.0
 27
1.0
 37
0.0
 76
0
330
20D
345
0
346
0
  0
IMAGEDEF
  5
39F
102
{ACAD_REACTORS
330
39A
330
399
102
}
100
AcDbRasterImageDef
 90
0
  1
N4K_assy_2_img_1.png
 10
369.0
 20
92.0
 11
0.0066666667
 21
0.0066666667
280
1
281
0
  0
TABLESTYLE
  5
3A0
102
{ACAD_REACTORS
330
39C
330
295
330
296
102
}
330
39C
100
AcDbTableStyle
  3
Standard
 70
0
 71
0
 40
0.06
 41
0.06
280
1
281
1
  7
Standard
140
0.18
170
1
 62
0
 63
7
283
0
  7
Standard
140
0.18
170
1
 62
0
 63
7
283
0
  7
Standard
140
0.18
170
1
 62
0
 63
7
283
0
  0
TABLESTYLE
  5
3A1
102
{ACAD_REACTORS
330
39C
330
294
102
}
330
39C
100
AcDbTableStyle
  3
Standard1
 70
1
 71
0
 40
0.06
 41
0.06
280
1
281
1
  7
Standard
140
0.18
170
1
 62
0
 63
7
283
0
  7
Standard
140
0.18
170
1
 62
0
 63
7
283
0
  7
Standard
140
0.18
170
1
 62
0
 63
7
283
0
  0
ENDSEC
  0
EOF
