999
DXF file: N4J_assy_2.dxf
999
Pro/ENGINEER 2014200 by Parametric Technology Corporation
  0
SECTION
  2
HEADER
  9
$ACADVER
  1
AC1021
  9
$DWGCODEPAGE
  3
ANSI_1252
  9
$EXTMAX
 10
22.0
 20
17.0
 30
0.0
  9
$EXTMIN
 10
0.0
 20
0.0
 30
0.0
  9
$LIMMIN
 10
0.0
 20
0.0
  9
$LIMMAX
 10
22.0
 20
17.0
  9
$VIEWCTR
 10
11.0
 20
8.5
  9
$VIEWSIZE
 40
17.0
  9
$CLAYER
  8
0
  9
$LTSCALE
 40
1.21
  9
$CELTYPE
  6
BYLAYER
  9
$DIMSCALE
 40
1.0
  9
$DIMASZ
 40
0.1875
  9
$DIMEXO
 40
0.0625
  9
$DIMDLI
 40
0.836
  9
$DIMEXE
 40
0.125
  9
$DIMCEN
 40
0.198
  9
$DIMLFAC
 40
1.0
  9
$DIMBLK
  1
_FILLED
  9
$DIMTXT
 40
0.1
  9
$DIMTOL
 70
0
  9
$DIMLIM
 70
0
  9
$DIMTFAC
 40
1.0
  9
$DIMGAP
 40
0.09
  9
$DIMDSEP
 70
46
  9
$AUNITS
 70
0
  9
$PDMODE
 70
3
  9
$PDSIZE
 40
0.3125
  9
$HANDSEED
  5
388
  9
$TILEMODE
 70
1
  9
$MEASUREMENT
 70
0
  9
$INSUNITS
 70
1
  0
ENDSEC
  0
SECTION
  2
CLASSES
  0
CLASS
  1
ACDBDICTIONARYWDFLT
  2
AcDbDictionaryWithDefault
  3
AutoCAD 2000
 90
0
 91
1
280
0
281
0
  0
CLASS
  1
ACDBPLACEHOLDER
  2
AcDbPlaceHolder
  3
AutoCAD 2000
 90
0
 91
1
280
0
281
0
  0
CLASS
  1
LAYOUT
  2
AcDbLayout
  3
AutoCAD 2000
 90
0
 91
0
280
0
281
0
  0
CLASS
  1
RASTERVARIABLES
  2
AcDbRasterVariables
  3
ISM
 90
0
 91
1
280
0
281
0
  0
CLASS
  1
IMAGEDEF
  2
AcDbRasterImageDef
  3
ISM
 90
0
 91
1
280
0
281
0
  0
CLASS
  1
IMAGEDEF_REACTOR
  2
AcDbRasterImageDefReactor
  3
ISM
 90
0
 91
1
280
0
281
0
  0
CLASS
  1
IMAGE
  2
AcDbRasterImage
  3
ISM
 90
127
 91
1
280
0
281
1
  0
CLASS
  1
TABLESTYLE
  2
AcDbTableStyle
  3
ObjectDBX Classes
 90
2047
 91
1
280
0
281
0
  0
CLASS
  1
ACAD_TABLE
  2
AcDbTable
  3
ObjectDBX Classes
 90
1025
 91
3
280
0
281
1
  0
ENDSEC
  0
SECTION
  2
TABLES
  0
TABLE
  2
VPORT
  5
8
100
AcDbSymbolTable
 70
2
  0
VPORT
  5
1F4
100
AcDbSymbolTableRecord
100
AcDbViewportTableRecord
  2
*ACTIVE
 70
0
 10
0.0
 20
0.0
 11
1.0
 21
1.0
 12
11.0
 22
8.5
 13
0.0
 23
0.0
 14
1.0
 24
1.0
 15
0.0
 25
0.0
 16
0.0
 26
0.0
 36
1.0
 17
0.0
 27
0.0
 37
0.0
 40
17.0
 41
1.2941176471
 42
50.0
 43
0.0
 44
0.0
 50
0.0
 51
0.0
 71
0
 72
100
 73
1
 74
1
 75
0
 76
0
 77
0
 78
0
  0
ENDTAB
  0
TABLE
  2
LTYPE
  5
5
100
AcDbSymbolTable
 70
6
  0
LTYPE
  5
14
100
AcDbSymbolTableRecord
100
AcDbLinetypeTableRecord
  2
BYBLOCK
 70
0
  3

 72
65
 73
0
 40
0.0
  0
LTYPE
  5
15
100
AcDbSymbolTableRecord
100
AcDbLinetypeTableRecord
  2
BYLAYER
 70
0
  3

 72
65
 73
0
 40
0.0
  0
LTYPE
  5
16
100
AcDbSymbolTableRecord
100
AcDbLinetypeTableRecord
  2
CONTINUOUS
 70
64
  3
Solid line
 72
65
 73
0
 40
0.0
  0
LTYPE
  5
1F5
100
AcDbSymbolTableRecord
100
AcDbLinetypeTableRecord
  2
CENTER
 70
64
  3
____ _ ____ _ ____ _ ____ _ ____ _ ____ _ ____
 72
65
 73
4
 40
0.6
 49
0.375
 74
0
 49
-0.075
 74
0
 49
0.075
 74
0
 49
-0.075
 74
0
  0
LTYPE
  5
1F6
100
AcDbSymbolTableRecord
100
AcDbLinetypeTableRecord
  2
HIDDEN
 70
64
  3
- - - - - - - - - - - - - - - - - - - -
 72
65
 73
2
 40
0.2
 49
0.1
 74
0
 49
-0.1
 74
0
  0
LTYPE
  5
1F7
100
AcDbSymbolTableRecord
100
AcDbLinetypeTableRecord
  2
PHANTOM
 70
64
  3
_____ _ _ _____ _ _ _____ _ _ _____
 72
65
 73
6
 40
0.8
 49
0.45
 74
0
 49
-0.05
 74
0
 49
0.1
 74
0
 49
-0.05
 74
0
 49
0.1
 74
0
 49
-0.05
 74
0
  0
LTYPE
  5
1F8
100
AcDbSymbolTableRecord
100
AcDbLinetypeTableRecord
  2
DOT
 70
64
  3
. . . . . . . . . . . . . . . . . . . .
 72
65
 73
2
 40
0.2
 49
0.1
 74
0
 49
-0.1
 74
0
  0
LTYPE
  5
1F9
100
AcDbSymbolTableRecord
100
AcDbLinetypeTableRecord
  2
DASHED
 70
64
  3
- - - - - - - - - - - - - - - - - - - -
 72
65
 73
2
 40
0.2
 49
0.1
 74
0
 49
-0.1
 74
0
  0
ENDTAB
  0
TABLE
  2
LAYER
  5
2
100
AcDbSymbolTable
 70
36
  0
LAYER
  5
10
100
AcDbSymbolTableRecord
100
AcDbLayerTableRecord
  2
0
 70
0
 62
7
  6
CONTINUOUS
370
-3
390
F
  0
LAYER
  5
1FA
100
AcDbSymbolTableRecord
100
AcDbLayerTableRecord
  2
DEFAULT_1
 70
0
 62
7
  6
CENTER
370
-3
390
F
  0
LAYER
  5
1FB
100
AcDbSymbolTableRecord
100
AcDbLayerTableRecord
  2
DEFAULT_2
 70
0
 62
8
  6
HIDDEN
370
-3
390
F
  0
LAYER
  5
1FC
100
AcDbSymbolTableRecord
100
AcDbLayerTableRecord
  2
DEFAULT_3
 70
0
 62
7
  6
PHANTOM
370
-3
390
F
  0
LAYER
  5
1FD
100
AcDbSymbolTableRecord
100
AcDbLayerTableRecord
  2
01___PRT_ALL_DTM_PLN
 70
0
 62
7
  6
CONTINUOUS
370
-3
390
F
  0
LAYER
  5
1FE
100
AcDbSymbolTableRecord
100
AcDbLayerTableRecord
  2
01___PRT_DEF_DTM_PLN
 70
0
 62
7
  6
CONTINUOUS
370
-3
390
F
  0
LAYER
  5
1FF
100
AcDbSymbolTableRecord
100
AcDbLayerTableRecord
  2
02___PRT_ALL_AXES
 70
0
 62
7
  6
CONTINUOUS
370
-3
390
F
  0
LAYER
  5
200
100
AcDbSymbolTableRecord
100
AcDbLayerTableRecord
  2
03___PRT_ALL_CURVES
 70
0
 62
7
  6
CONTINUOUS
370
-3
390
F
  0
LAYER
  5
201
100
AcDbSymbolTableRecord
100
AcDbLayerTableRecord
  2
04___PRT_ALL_DTM_PNT
 70
0
 62
7
  6
CONTINUOUS
370
-3
390
F
  0
LAYER
  5
202
100
AcDbSymbolTableRecord
100
AcDbLayerTableRecord
  2
05___PRT_ALL_DTM_CSYS
 70
0
 62
7
  6
CONTINUOUS
370
-3
390
F
  0
LAYER
  5
203
100
AcDbSymbolTableRecord
100
AcDbLayerTableRecord
  2
05___PRT_DEF_DTM_CSYS
 70
0
 62
7
  6
CONTINUOUS
370
-3
390
F
  0
LAYER
  5
204
100
AcDbSymbolTableRecord
100
AcDbLayerTableRecord
  2
06___PRT_ALL_SURFS
 70
0
 62
7
  6
CONTINUOUS
370
-3
390
F
  0
LAYER
  5
205
100
AcDbSymbolTableRecord
100
AcDbLayerTableRecord
  2
DATUM_PLANES
 70
0
 62
7
  6
CONTINUOUS
370
-3
390
F
  0
LAYER
  5
206
100
AcDbSymbolTableRecord
100
AcDbLayerTableRecord
  2
PORT_AREAS
 70
0
 62
7
  6
CONTINUOUS
370
-3
390
F
  0
LAYER
  5
207
100
AcDbSymbolTableRecord
100
AcDbLayerTableRecord
  2
SUNNBOMCOSMETIC
 70
0
 62
7
  6
CONTINUOUS
370
-3
390
F
  0
LAYER
  5
208
100
AcDbSymbolTableRecord
100
AcDbLayerTableRecord
  2
SUNNBOMSTAMPING
 70
0
 62
7
  6
CONTINUOUS
370
-3
390
F
  0
LAYER
  5
209
100
AcDbSymbolTableRecord
100
AcDbLayerTableRecord
  2
THREADS
 70
0
 62
7
  6
CONTINUOUS
370
-3
390
F
  0
ENDTAB
  0
TABLE
  2
STYLE
  5
3
100
AcDbSymbolTable
 70
1
  0
STYLE
  5
11
100
AcDbSymbolTableRecord
100
AcDbTextStyleTableRecord
  2
STANDARD
 70
0
 40
0.0
 41
0.8
 50
0.0
 71
0
 42
0.2
  3
txt
  4

  0
STYLE
  5
20A
100
AcDbSymbolTableRecord
100
AcDbTextStyleTableRecord
  2
TEXTSTYLE_1
 70
0
 40
0.0
 41
0.8
 50
0.0
 71
0
 42
0.2
  3
gdt
  4

  0
ENDTAB
  0
TABLE
  2
VIEW
  5
6
100
AcDbSymbolTable
 70
0
  0
ENDTAB
  0
TABLE
  2
UCS
  5
7
100
AcDbSymbolTable
 70
0
  0
ENDTAB
  0
TABLE
  2
APPID
  5
9
100
AcDbSymbolTable
 70
1
  0
APPID
  5
20B
100
AcDbSymbolTableRecord
100
AcDbRegAppTableRecord
  2
ACAD
 70
0
  0
ENDTAB
  0
TABLE
  2
BLOCK_RECORD
  5
1
100
AcDbSymbolTable
 70
0
  0
BLOCK_RECORD
  5
20C
100
AcDbSymbolTableRecord
100
AcDbBlockTableRecord
  2
*Model_Space
  0
BLOCK_RECORD
  5
20D
100
AcDbSymbolTableRecord
100
AcDbBlockTableRecord
  2
*Paper_Space
  0
BLOCK_RECORD
  5
20E
100
AcDbSymbolTableRecord
100
AcDbBlockTableRecord
  2
SUN_FIRST_THIRD_ANGLE_BL0
  0
BLOCK_RECORD
  5
20F
100
AcDbSymbolTableRecord
100
AcDbBlockTableRecord
  2
*T1
  0
BLOCK_RECORD
  5
210
100
AcDbSymbolTableRecord
100
AcDbBlockTableRecord
  2
*T2
  0
BLOCK_RECORD
  5
211
100
AcDbSymbolTableRecord
100
AcDbBlockTableRecord
  2
*T3
  0
ENDTAB
  0
TABLE
  2
DIMSTYLE
  5
A
100
AcDbSymbolTable
 70
1
100
AcDbDimStyleTable
 71
0
  0
DIMSTYLE
105
212
100
AcDbSymbolTableRecord
100
AcDbDimStyleTableRecord
  2
STANDARD
 70
0
  3

  4

 40
1.0
 41
0.1875
 42
0.0625
 43
0.38
 44
0.125
 45
0.0
 46
0.0
 47
0.001
 48
0.001
140
0.1
141
0.09
142
0.0
143
25.4
144
1.0
145
0.0
146
1.0
147
0.09
 71
0.0
 72
0.0
 73
1
 74
1
 75
0
 76
0
 77
0
 78
4
170
0
171
2
172
0
173
0
174
0
175
0
176
0
177
0
178
0
270
2
271
3
272
3
273
2
274
2
275
0
280
0
281
0
282
0
283
1
284
4
285
0
286
0
287
3
288
0
340
11
278
46
  0
ENDTAB
  0
ENDSEC
  0
SECTION
  2
BLOCKS
  0
BLOCK
  5
20
100
AcDbEntity
  8
0
100
AcDbBlockBegin
  2
*Model_Space
 70
0
 10
0.0
 20
0.0
 30
0.0
  3
*Model_Space
  1

  0
ENDBLK
  5
21
100
AcDbEntity
  8
0
100
AcDbBlockEnd
  0
BLOCK
  5
1C
100
AcDbEntity
  8
0
100
AcDbBlockBegin
  2
*Paper_Space
 70
0
 10
0.0
 20
0.0
 30
0.0
  3
*Paper_Space
  1

  0
ENDBLK
  5
1D
100
AcDbEntity
  8
0
100
AcDbBlockEnd
  0
BLOCK
  5
213
100
AcDbEntity
  8
0
100
AcDbBlockBegin
 62
2
  6
CONTINUOUS
  2
SUN_FIRST_THIRD_ANGLE_BL0
 70
64
 10
20.4816717061
 20
1.2289683772
  3
SUN_FIRST_THIRD_ANGLE_BL0
  1

  0
TEXT
  5
214
100
AcDbEntity
  8
0
100
AcDbText
 62
2
  6
CONTINUOUS
 10
19.4750896608
 20
1.4136269581
  7
STANDARD
 40
0.08
  1
FIRST ANGLE
 41
0.8
 72
0
100
AcDbText
  0
TEXT
  5
215
100
AcDbEntity
  8
0
100
AcDbText
 62
2
  6
CONTINUOUS
 10
20.7842537513
 20
1.4047600029
  7
STANDARD
 40
0.08
  1
THIRD ANGLE
 41
0.8
 72
0
100
AcDbText
  0
LINE
  5
216
100
AcDbEntity
  8
0
100
AcDbLine
 62
7
  6
CONTINUOUS
 10
19.4767170086
 20
1.1727031207
 11
19.6334271527
 21
1.1717972817
  0
LINE
  5
217
100
AcDbEntity
  8
0
100
AcDbLine
 62
7
  6
CONTINUOUS
 10
19.6596964832
 20
1.1717972817
 11
19.6950230232
 21
1.171593082
  0
LINE
  5
218
100
AcDbEntity
  8
0
100
AcDbLine
 62
7
  6
CONTINUOUS
 10
19.7194818561
 20
1.1708914427
 11
19.8852396156
 21
1.1699333054
  0
LINE
  5
219
100
AcDbEntity
  8
0
100
AcDbLine
 62
7
  6
CONTINUOUS
 10
19.4758111696
 20
1.2723454088
 11
19.88525039
 21
1.3511534004
  0
LINE
  5
21A
100
AcDbEntity
  8
0
100
AcDbLine
 62
7
  6
CONTINUOUS
 10
19.88525039
 20
1.3511534004
 11
19.8831348489
 21
0.9851647912
  0
LINE
  5
21B
100
AcDbEntity
  8
0
100
AcDbLine
 62
7
  6
CONTINUOUS
 10
19.8831348489
 20
0.9851647912
 11
19.4767170086
 21
1.0658141206
  0
LINE
  5
21C
100
AcDbEntity
  8
0
100
AcDbLine
 62
7
  6
CONTINUOUS
 10
19.4767170086
 20
1.0658141206
 11
19.4779056764
 21
1.2714536432
  0
CIRCLE
  5
21D
100
AcDbEntity
  8
0
100
AcDbCircle
 62
7
  6
CONTINUOUS
 10
20.2068232291
 20
1.1717972817
 40
0.175742101
  0
CIRCLE
  5
21E
100
AcDbEntity
  8
0
100
AcDbCircle
 62
7
  6
CONTINUOUS
 10
20.2068232291
 20
1.1717972817
 40
0.1005522074
  0
LINE
  5
21F
100
AcDbEntity
  8
0
100
AcDbLine
 62
7
  6
CONTINUOUS
 10
20.2077290681
 20
1.3756110529
 11
20.2071171714
 21
1.2379342989
  0
LINE
  5
220
100
AcDbEntity
  8
0
100
AcDbLine
 62
7
  6
CONTINUOUS
 10
20.2077290681
 20
1.2016899681
 11
20.2074674401
 21
1.1428236749
  0
LINE
  5
221
100
AcDbEntity
  8
0
100
AcDbLine
 62
7
  6
CONTINUOUS
 10
20.208634907
 20
1.101141841
 11
20.2080230104
 21
0.963465087
  0
LINE
  5
222
100
AcDbEntity
  8
0
100
AcDbLine
 62
7
  6
CONTINUOUS
 10
20.0066328138
 20
1.1745147986
 11
20.1443095678
 21
1.1739029019
  0
LINE
  5
223
100
AcDbEntity
  8
0
100
AcDbLine
 62
7
  6
CONTINUOUS
 10
20.1832714155
 20
1.1727031207
 11
20.238153505
 21
1.172335442
  0
LINE
  5
224
100
AcDbEntity
  8
0
100
AcDbLine
 62
7
  6
CONTINUOUS
 10
20.2756669918
 20
1.1717972817
 11
20.407916871
 21
1.1712095044
  0
CIRCLE
  5
225
100
AcDbEntity
  8
0
100
AcDbCircle
 62
7
  6
CONTINUOUS
 10
20.7509457401
 20
1.1693297793
 40
0.1722024983
  0
CIRCLE
  5
226
100
AcDbEntity
  8
0
100
AcDbCircle
 62
7
  6
CONTINUOUS
 10
20.7509457401
 20
1.1693297793
 40
0.0985164967
  0
LINE
  5
227
100
AcDbEntity
  8
0
100
AcDbLine
 62
7
  6
CONTINUOUS
 10
20.7169767782
 20
1.170462078
 11
20.7825395137
 21
1.1682766535
  0
LINE
  5
228
100
AcDbEntity
  8
0
100
AcDbLine
 62
7
  6
CONTINUOUS
 10
20.8177513651
 20
1.1693297793
 11
20.947965719
 21
1.1693297793
  0
LINE
  5
229
100
AcDbEntity
  8
0
100
AcDbLine
 62
7
  6
CONTINUOUS
 10
20.6875370113
 20
1.170462078
 11
20.5573226574
 21
1.170462078
  0
LINE
  5
22A
100
AcDbEntity
  8
0
100
AcDbLine
 62
7
  6
CONTINUOUS
 10
20.7486811426
 20
1.1987695462
 11
20.7486811426
 21
1.1432869085
  0
LINE
  5
22B
100
AcDbEntity
  8
0
100
AcDbLine
 62
7
  6
CONTINUOUS
 10
20.7498134414
 20
1.1059210505
 11
20.7498134414
 21
0.9757066966
  0
LINE
  5
22C
100
AcDbEntity
  8
0
100
AcDbLine
 62
7
  6
CONTINUOUS
 10
20.7486811426
 20
1.2338708068
 11
20.7486811426
 21
1.3640851607
  0
LINE
  5
22D
100
AcDbEntity
  8
0
100
AcDbLine
 62
7
  6
CONTINUOUS
 10
21.0702539817
 20
1.2701043662
 11
21.4790138229
 21
1.3448360823
  0
LINE
  5
22E
100
AcDbEntity
  8
0
100
AcDbLine
 62
7
  6
CONTINUOUS
 10
21.4790138229
 20
1.3448360823
 11
21.4790138229
 21
0.9779712941
  0
LINE
  5
22F
100
AcDbEntity
  8
0
100
AcDbLine
 62
7
  6
CONTINUOUS
 10
21.4790138229
 20
0.9779712941
 11
21.069121683
 21
1.0617614
  0
LINE
  5
230
100
AcDbEntity
  8
0
100
AcDbLine
 62
7
  6
CONTINUOUS
 10
21.0702539817
 20
1.2701043662
 11
21.069121683
 21
1.0617614
  0
LINE
  5
231
100
AcDbEntity
  8
0
100
AcDbLine
 62
7
  6
CONTINUOUS
 10
21.4790138229
 20
1.1693297793
 11
21.3159628059
 21
1.1693297793
  0
LINE
  5
232
100
AcDbEntity
  8
0
100
AcDbLine
 62
7
  6
CONTINUOUS
 10
21.2876553377
 20
1.1693297793
 11
21.2502894796
 21
1.1693297793
  0
LINE
  5
233
100
AcDbEntity
  8
0
100
AcDbLine
 62
7
  6
CONTINUOUS
 10
21.2208497126
 20
1.1659328831
 11
21.0713862804
 21
1.1659328831
  0
LINE
  5
234
100
AcDbEntity
  8
0
100
AcDbLine
 62
7
  6
CONTINUOUS
 10
20.4796138713
 20
1.5284908897
 11
20.4766766948
 21
0.9294458646
  0
ENDBLK
  5
235
100
AcDbEntity
  8
0
  6
BYBLOCK
 62
0
100
AcDbBlockEnd
  0
BLOCK
  5
236
100
AcDbEntity
  8
0
100
AcDbBlockBegin
  2
*T1
 70
1
 10
0.0
 20
0.0
  3
*T1
  1

  0
LINE
  5
237
100
AcDbEntity
  8
0
100
AcDbLine
 62
2
  6
CONTINUOUS
 10
9.275
 20
0.0
 11
-0.0
 21
0.0
  0
LINE
  5
238
100
AcDbEntity
  8
0
100
AcDbLine
 62
2
  6
CONTINUOUS
 10
9.275
 20
0.0
 11
9.275
 21
1.25
  0
LINE
  5
239
100
AcDbEntity
  8
0
100
AcDbLine
 62
2
  6
CONTINUOUS
 10
9.275
 20
0.625
 11
-0.0
 21
0.625
  0
LINE
  5
23A
100
AcDbEntity
  8
0
100
AcDbLine
 62
2
  6
CONTINUOUS
 10
9.275
 20
1.25
 11
-0.0
 21
1.25
  0
LINE
  5
23B
100
AcDbEntity
  8
0
100
AcDbLine
 62
2
  6
CONTINUOUS
 10
6.8
 20
0.0
 11
6.8
 21
1.25
  0
LINE
  5
23C
100
AcDbEntity
  8
0
100
AcDbLine
 62
2
  6
CONTINUOUS
 10
6.4
 20
0.0
 11
6.4
 21
0.625
  0
LINE
  5
23D
100
AcDbEntity
  8
0
100
AcDbLine
 62
2
  6
CONTINUOUS
 10
5.9
 20
0.0
 11
5.9
 21
0.625
  0
LINE
  5
23E
100
AcDbEntity
  8
0
100
AcDbLine
 62
2
  6
CONTINUOUS
 10
5.2
 20
0.0
 11
5.2
 21
0.625
  0
LINE
  5
23F
100
AcDbEntity
  8
0
100
AcDbLine
 62
2
  6
CONTINUOUS
 10
4.1
 20
0.0
 11
4.1
 21
1.25
  0
LINE
  5
240
100
AcDbEntity
  8
0
100
AcDbLine
 62
2
  6
CONTINUOUS
 10
-0.0
 20
0.0
 11
-0.0
 21
1.25
  0
MTEXT
  5
241
100
AcDbEntity
  8
0
100
AcDbMText
 62
2
  6
CONTINUOUS
  7
STANDARD
 71
2
 72
1
 10
6.6
 20
0.325
 30
0.0
 11
1.0
 21
0.0
 31
0.0
 44
0.9
  1
2
 40
0.125
 41
0.2
  0
MTEXT
  5
242
100
AcDbEntity
  8
0
100
AcDbMText
 62
2
  6
CONTINUOUS
  7
STANDARD
 71
2
 72
1
 10
6.15
 20
0.325
 30
0.0
 11
1.0
 21
0.0
 31
0.0
 44
0.9
  1
C
 40
0.125
 41
0.2
  0
MTEXT
  5
243
100
AcDbEntity
  8
0
100
AcDbMText
 62
2
  6
CONTINUOUS
  7
STANDARD
 71
2
 72
1
 10
5.55
 20
0.325
 30
0.0
 11
1.0
 21
0.0
 31
0.0
 44
0.9
  1
1.000
 40
0.125
 41
1.0
  0
MTEXT
  5
244
100
AcDbEntity
  8
0
100
AcDbMText
 62
2
  6
CONTINUOUS
  7
STANDARD
 71
2
 72
1
 10
4.65
 20
0.325
 30
0.0
 11
1.0
 21
0.0
 31
0.0
 44
0.9
  1
Jun-20-24
 40
0.125
 41
1.8
  0
MTEXT
  5
245
100
AcDbEntity
  8
0
100
AcDbMText
 62
2
  6
CONTINUOUS
  7
STANDARD
 71
2
 72
1
 10
2.05
 20
0.4625
 30
0.0
 11
1.0
 21
0.0
 31
0.0
 44
0.9
  1
T-22A Line mount\P(See Technical Data for Body Features)
 40
0.125
 41
7.6
  0
MTEXT
  5
246
100
AcDbEntity
  8
0
100
AcDbMText
 62
2
  6
CONTINUOUS
  7
STANDARD
 71
1
 72
1
 10
6.45
 20
0.5625
 30
0.0
 11
1.0
 21
0.0
 31
0.0
 44
0.9
  1
SHEET
 40
0.06
 41
0.48
  0
MTEXT
  5
247
100
AcDbEntity
  8
0
100
AcDbMText
 62
2
  6
CONTINUOUS
  7
STANDARD
 71
1
 72
1
 10
5.95
 20
0.5625
 30
0.0
 11
1.0
 21
0.0
 31
0.0
 44
0.9
  1
DWG SIZE
 40
0.06
 41
0.768
  0
MTEXT
  5
248
100
AcDbEntity
  8
0
100
AcDbMText
 62
2
  6
CONTINUOUS
  7
STANDARD
 71
1
 72
1
 10
5.25
 20
0.5625
 30
0.0
 11
1.0
 21
0.0
 31
0.0
 44
0.9
  1
SCALE
 40
0.06
 41
0.48
  0
MTEXT
  5
249
100
AcDbEntity
  8
0
100
AcDbMText
 62
2
  6
CONTINUOUS
  7
STANDARD
 71
1
 72
1
 10
4.15
 20
0.5625
 30
0.0
 11
1.0
 21
0.0
 31
0.0
 44
0.9
  1
DATE
 40
0.06
 41
0.384
  0
MTEXT
  5
24A
100
AcDbEntity
  8
0
100
AcDbMText
 62
2
  6
CONTINUOUS
  7
STANDARD
 71
1
 72
1
 10
0.05
 20
0.5625
 30
0.0
 11
1.0
 21
0.0
 31
0.0
 44
0.9
  1
DESCRIPTION
 40
0.06
 41
1.056
  0
MTEXT
  5
24B
100
AcDbEntity
  8
0
100
AcDbMText
 62
2
  6
CONTINUOUS
  7
STANDARD
 71
2
 72
1
 10
5.45
 20
1.0375
 30
0.0
 11
1.0
 21
0.0
 31
0.0
 44
0.9
  1
ALL DIMENSIONS IN INCH\PVIEWS ARE THIRD ANGLE
 40
0.12
 41
4.224
  0
MTEXT
  5
24C
100
AcDbEntity
  8
0
100
AcDbMText
 62
2
  6
CONTINUOUS
  7
STANDARD
 71
2
 72
1
 10
2.05
 20
0.95
 30
0.0
 11
1.0
 21
0.0
 31
0.0
 44
0.9
  1
N4J
 40
0.125
 41
0.6
  0
MTEXT
  5
24D
100
AcDbEntity
  8
0
100
AcDbMText
 62
2
  6
CONTINUOUS
  7
STANDARD
 71
1
 72
1
 10
0.05
 20
1.1875
 30
0.0
 11
1.0
 21
0.0
 31
0.0
 44
0.9
  1
MODEL
 40
0.06
 41
0.48
  0
ENDBLK
  5
24E
100
AcDbEntity
  8
0
  6
BYBLOCK
 62
0
100
AcDbBlockEnd
  0
BLOCK
  5
24F
100
AcDbEntity
  8
0
100
AcDbBlockBegin
  2
*T2
 70
1
 10
0.0
 20
0.0
  3
*T2
  1

  0
LINE
  5
250
100
AcDbEntity
  8
0
100
AcDbLine
 62
2
  6
CONTINUOUS
 10
0.0
 20
0.0
 11
9.055
 21
0.0
  0
LINE
  5
251
100
AcDbEntity
  8
0
100
AcDbLine
 62
2
  6
CONTINUOUS
 10
0.0
 20
0.0
 11
0.0
 21
-2.844
  0
LINE
  5
252
100
AcDbEntity
  8
0
100
AcDbLine
 62
2
  6
CONTINUOUS
 10
0.0
 20
-0.344
 11
9.055
 21
-0.344
  0
LINE
  5
253
100
AcDbEntity
  8
0
100
AcDbLine
 62
2
  6
CONTINUOUS
 10
0.0
 20
-0.594
 11
9.055
 21
-0.594
  0
LINE
  5
254
100
AcDbEntity
  8
0
100
AcDbLine
 62
2
  6
CONTINUOUS
 10
0.0
 20
-0.844
 11
9.055
 21
-0.844
  0
LINE
  5
255
100
AcDbEntity
  8
0
100
AcDbLine
 62
2
  6
CONTINUOUS
 10
0.0
 20
-1.094
 11
9.055
 21
-1.094
  0
LINE
  5
256
100
AcDbEntity
  8
0
100
AcDbLine
 62
2
  6
CONTINUOUS
 10
0.0
 20
-1.344
 11
9.055
 21
-1.344
  0
LINE
  5
257
100
AcDbEntity
  8
0
100
AcDbLine
 62
2
  6
CONTINUOUS
 10
0.0
 20
-1.594
 11
9.055
 21
-1.594
  0
LINE
  5
258
100
AcDbEntity
  8
0
100
AcDbLine
 62
2
  6
CONTINUOUS
 10
0.0
 20
-1.844
 11
9.055
 21
-1.844
  0
LINE
  5
259
100
AcDbEntity
  8
0
100
AcDbLine
 62
2
  6
CONTINUOUS
 10
0.0
 20
-2.094
 11
9.055
 21
-2.094
  0
LINE
  5
25A
100
AcDbEntity
  8
0
100
AcDbLine
 62
2
  6
CONTINUOUS
 10
0.0
 20
-2.344
 11
9.055
 21
-2.344
  0
LINE
  5
25B
100
AcDbEntity
  8
0
100
AcDbLine
 62
2
  6
CONTINUOUS
 10
0.0
 20
-2.594
 11
9.055
 21
-2.594
  0
LINE
  5
25C
100
AcDbEntity
  8
0
100
AcDbLine
 62
2
  6
CONTINUOUS
 10
0.0
 20
-2.844
 11
9.055
 21
-2.844
  0
LINE
  5
25D
100
AcDbEntity
  8
0
100
AcDbLine
 62
2
  6
CONTINUOUS
 10
3.055
 20
0.0
 11
3.055
 21
-2.844
  0
LINE
  5
25E
100
AcDbEntity
  8
0
100
AcDbLine
 62
2
  6
CONTINUOUS
 10
9.055
 20
0.0
 11
9.055
 21
-2.844
  0
MTEXT
  5
25F
100
AcDbEntity
  8
0
100
AcDbMText
 62
2
  6
CONTINUOUS
  7
STANDARD
 71
2
 72
1
 10
1.5275
 20
-0.0995
 30
0.0
 11
1.0
 21
0.0
 31
0.0
 44
0.9
  1
Technical Data
 40
0.145
 41
3.248
  0
MTEXT
  5
260
100
AcDbEntity
  8
0
100
AcDbMText
 62
2
  6
CONTINUOUS
  7
STANDARD
 71
2
 72
1
 10
4.555
 20
-0.0995
 30
0.0
 11
1.0
 21
0.0
 31
0.0
 44
0.9
  1
U.S. Units
 40
0.145
 41
2.32
  0
MTEXT
  5
261
100
AcDbEntity
  8
0
100
AcDbMText
 62
2
  6
CONTINUOUS
  7
STANDARD
 71
2
 72
1
 10
7.555
 20
-0.0995
 30
0.0
 11
1.0
 21
0.0
 31
0.0
 44
0.9
  1
Metric Units
 40
0.145
 41
2.784
  0
MTEXT
  5
262
100
AcDbEntity
  8
0
100
AcDbMText
 62
2
  6
CONTINUOUS
  7
STANDARD
 71
2
 72
1
 10
1.5275
 20
-0.4065
 30
0.0
 11
1.0
 21
0.0
 31
0.0
 44
0.9
  1
Cavity
 40
0.125
 41
1.2
  0
MTEXT
  5
263
100
AcDbEntity
  8
0
100
AcDbMText
 62
2
  6
CONTINUOUS
  7
STANDARD
 71
2
 72
1
 10
6.055
 20
-0.4065
 30
0.0
 11
1.0
 21
0.0
 31
0.0
 44
0.9
  1
T-22A
 40
0.125
 41
1.0
  0
MTEXT
  5
264
100
AcDbEntity
  8
0
100
AcDbMText
 62
2
  6
CONTINUOUS
  7
STANDARD
 71
2
 72
1
 10
1.5275
 20
-0.6565
 30
0.0
 11
1.0
 21
0.0
 31
0.0
 44
0.9
  1
Body Features
 40
0.125
 41
2.6
  0
MTEXT
  5
265
100
AcDbEntity
  8
0
100
AcDbMText
 62
2
  6
CONTINUOUS
  7
STANDARD
 71
2
 72
1
 10
6.055
 20
-0.6565
 30
0.0
 11
1.0
 21
0.0
 31
0.0
 44
0.9
  1
Ninety degree with reverse flow check - reducing
 40
0.125
 41
9.6
  0
MTEXT
  5
266
100
AcDbEntity
  8
0
100
AcDbMText
 62
2
  6
CONTINUOUS
  7
STANDARD
 71
2
 72
1
 10
1.5275
 20
-0.9065
 30
0.0
 11
1.0
 21
0.0
 31
0.0
 44
0.9
  1
Body Type
 40
0.125
 41
1.8
  0
MTEXT
  5
267
100
AcDbEntity
  8
0
100
AcDbMText
 62
2
  6
CONTINUOUS
  7
STANDARD
 71
2
 72
1
 10
6.055
 20
-0.9065
 30
0.0
 11
1.0
 21
0.0
 31
0.0
 44
0.9
  1
Line mount
 40
0.125
 41
2.0
  0
MTEXT
  5
268
100
AcDbEntity
  8
0
100
AcDbMText
 62
2
  6
CONTINUOUS
  7
STANDARD
 71
2
 72
1
 10
1.5275
 20
-1.1565
 30
0.0
 11
1.0
 21
0.0
 31
0.0
 44
0.9
  1
Interface
 40
0.125
 41
1.8
  0
MTEXT
  5
269
100
AcDbEntity
  8
0
100
AcDbMText
 62
2
  6
CONTINUOUS
  7
STANDARD
 71
2
 72
1
 10
6.055
 20
-1.1565
 30
0.0
 11
1.0
 21
0.0
 31
0.0
 44
0.9
  1
None
 40
0.125
 41
0.8
  0
MTEXT
  5
26A
100
AcDbEntity
  8
0
100
AcDbMText
 62
2
  6
CONTINUOUS
  7
STANDARD
 71
2
 72
1
 10
1.5275
 20
-1.4065
 30
0.0
 11
1.0
 21
0.0
 31
0.0
 44
0.9
  1
Open Cavity Quantity
 40
0.125
 41
4.0
  0
MTEXT
  5
26B
100
AcDbEntity
  8
0
100
AcDbMText
 62
2
  6
CONTINUOUS
  7
STANDARD
 71
2
 72
1
 10
6.055
 20
-1.4065
 30
0.0
 11
1.0
 21
0.0
 31
0.0
 44
0.9
  1
1
 40
0.125
 41
0.2
  0
MTEXT
  5
26C
100
AcDbEntity
  8
0
100
AcDbMText
 62
2
  6
CONTINUOUS
  7
STANDARD
 71
2
 72
1
 10
1.5275
 20
-1.6565
 30
0.0
 11
1.0
 21
0.0
 31
0.0
 44
0.9
  1
Weight
 40
0.125
 41
1.2
  0
MTEXT
  5
26D
100
AcDbEntity
  8
0
100
AcDbMText
 62
2
  6
CONTINUOUS
  7
STANDARD
 71
2
 72
1
 10
4.555
 20
-1.6565
 30
0.0
 11
1.0
 21
0.0
 31
0.0
 44
0.9
  1
2.361 lb.
 40
0.125
 41
1.8
  0
MTEXT
  5
26E
100
AcDbEntity
  8
0
100
AcDbMText
 62
2
  6
CONTINUOUS
  7
STANDARD
 71
2
 72
1
 10
7.555
 20
-1.6565
 30
0.0
 11
1.0
 21
0.0
 31
0.0
 44
0.9
  1
1,071 kg.
 40
0.125
 41
1.8
  0
MTEXT
  5
26F
100
AcDbEntity
  8
0
100
AcDbMText
 62
2
  6
CONTINUOUS
  7
STANDARD
 71
2
 72
1
 10
1.5275
 20
-1.9065
 30
0.0
 11
1.0
 21
0.0
 31
0.0
 44
0.9
  1
Mounting Hole Diameter
 40
0.125
 41
4.4
  0
MTEXT
  5
270
100
AcDbEntity
  8
0
100
AcDbMText
 62
2
  6
CONTINUOUS
  7
STANDARD
 71
2
 72
1
 10
4.555
 20
-1.9065
 30
0.0
 11
1.0
 21
0.0
 31
0.0
 44
0.9
  1
.41 in.
 40
0.125
 41
1.4
  0
MTEXT
  5
271
100
AcDbEntity
  8
0
100
AcDbMText
 62
2
  6
CONTINUOUS
  7
STANDARD
 71
2
 72
1
 10
7.555
 20
-1.9065
 30
0.0
 11
1.0
 21
0.0
 31
0.0
 44
0.9
  1
10,4 mm
 40
0.125
 41
1.4
  0
MTEXT
  5
272
100
AcDbEntity
  8
0
100
AcDbMText
 62
2
  6
CONTINUOUS
  7
STANDARD
 71
2
 72
1
 10
1.5275
 20
-2.1565
 30
0.0
 11
1.0
 21
0.0
 31
0.0
 44
0.9
  1
Mounting Hole Depth
 40
0.125
 41
3.8
  0
MTEXT
  5
273
100
AcDbEntity
  8
0
100
AcDbMText
 62
2
  6
CONTINUOUS
  7
STANDARD
 71
2
 72
1
 10
6.055
 20
-2.1565
 30
0.0
 11
1.0
 21
0.0
 31
0.0
 44
0.9
  1
Through
 40
0.125
 41
1.4
  0
MTEXT
  5
274
100
AcDbEntity
  8
0
100
AcDbMText
 62
2
  6
CONTINUOUS
  7
STANDARD
 71
2
 72
1
 10
1.5275
 20
-2.4065
 30
0.0
 11
1.0
 21
0.0
 31
0.0
 44
0.9
  1
Mounting Hole Quantity
 40
0.125
 41
4.4
  0
MTEXT
  5
275
100
AcDbEntity
  8
0
100
AcDbMText
 62
2
  6
CONTINUOUS
  7
STANDARD
 71
2
 72
1
 10
6.055
 20
-2.4065
 30
0.0
 11
1.0
 21
0.0
 31
0.0
 44
0.9
  1
2
 40
0.125
 41
0.2
  0
MTEXT
  5
276
100
AcDbEntity
  8
0
100
AcDbMText
 62
2
  6
CONTINUOUS
  7
STANDARD
 71
2
 72
1
 10
1.5275
 20
-2.6565
 30
0.0
 11
1.0
 21
0.0
 31
0.0
 44
0.9
  1
Includes integral cartridge(s)
 40
0.125
 41
6.0
  0
MTEXT
  5
277
100
AcDbEntity
  8
0
100
AcDbMText
 62
2
  6
CONTINUOUS
  7
STANDARD
 71
2
 72
1
 10
6.055
 20
-2.6565
 30
0.0
 11
1.0
 21
0.0
 31
0.0
 44
0.9
  1
Yes (see Included Components)
 40
0.125
 41
5.8
  0
ENDBLK
  5
278
100
AcDbEntity
  8
0
  6
BYBLOCK
 62
0
100
AcDbBlockEnd
  0
BLOCK
  5
279
100
AcDbEntity
  8
0
100
AcDbBlockBegin
  2
*T3
 70
1
 10
0.0
 20
0.0
  3
*T3
  1

  0
LINE
  5
27A
100
AcDbEntity
  8
0
100
AcDbLine
 62
2
  6
CONTINUOUS
 10
0.0
 20
0.0
 11
4.6
 21
0.0
  0
LINE
  5
27B
100
AcDbEntity
  8
0
100
AcDbLine
 62
2
  6
CONTINUOUS
 10
0.0
 20
0.0
 11
0.0
 21
-1.43775
  0
LINE
  5
27C
100
AcDbEntity
  8
0
100
AcDbLine
 62
2
  6
CONTINUOUS
 10
0.0
 20
-0.34375
 11
4.6
 21
-0.34375
  0
LINE
  5
27D
100
AcDbEntity
  8
0
100
AcDbLine
 62
2
  6
CONTINUOUS
 10
0.0
 20
-0.68775
 11
4.6
 21
-0.68775
  0
LINE
  5
27E
100
AcDbEntity
  8
0
100
AcDbLine
 62
2
  6
CONTINUOUS
 10
0.0
 20
-0.93775
 11
4.6
 21
-0.93775
  0
LINE
  5
27F
100
AcDbEntity
  8
0
100
AcDbLine
 62
2
  6
CONTINUOUS
 10
0.0
 20
-1.18775
 11
4.6
 21
-1.18775
  0
LINE
  5
280
100
AcDbEntity
  8
0
100
AcDbLine
 62
2
  6
CONTINUOUS
 10
0.0
 20
-1.43775
 11
4.6
 21
-1.43775
  0
LINE
  5
281
100
AcDbEntity
  8
0
100
AcDbLine
 62
2
  6
CONTINUOUS
 10
1.3
 20
-0.34375
 11
1.3
 21
-1.43775
  0
LINE
  5
282
100
AcDbEntity
  8
0
100
AcDbLine
 62
2
  6
CONTINUOUS
 10
3.3
 20
-0.34375
 11
3.3
 21
-1.43775
  0
LINE
  5
283
100
AcDbEntity
  8
0
100
AcDbLine
 62
2
  6
CONTINUOUS
 10
4.6
 20
0.0
 11
4.6
 21
-1.43775
  0
MTEXT
  5
284
100
AcDbEntity
  8
0
100
AcDbMText
 62
2
  6
CONTINUOUS
  7
STANDARD
 71
2
 72
1
 10
2.3
 20
-0.099375
 30
0.0
 11
1.0
 21
0.0
 31
0.0
 44
0.9
  1
Port Headings
 40
0.145
 41
3.016
  0
MTEXT
  5
285
100
AcDbEntity
  8
0
100
AcDbMText
 62
2
  6
CONTINUOUS
  7
STANDARD
 71
2
 72
1
 10
0.65
 20
-0.44325
 30
0.0
 11
1.0
 21
0.0
 31
0.0
 44
0.9
  1
Product
 40
0.145
 41
1.624
  0
MTEXT
  5
286
100
AcDbEntity
  8
0
100
AcDbMText
 62
2
  6
CONTINUOUS
  7
STANDARD
 71
2
 72
1
 10
2.3
 20
-0.44325
 30
0.0
 11
1.0
 21
0.0
 31
0.0
 44
0.9
  1
Port
 40
0.145
 41
0.928
  0
MTEXT
  5
287
100
AcDbEntity
  8
0
100
AcDbMText
 62
2
  6
CONTINUOUS
  7
STANDARD
 71
2
 72
1
 10
3.95
 20
-0.44325
 30
0.0
 11
1.0
 21
0.0
 31
0.0
 44
0.9
  1
Size
 40
0.145
 41
0.928
  0
MTEXT
  5
288
100
AcDbEntity
  8
0
100
AcDbMText
 62
2
  6
CONTINUOUS
  7
STANDARD
 71
2
 72
1
 10
0.65
 20
-0.75025
 30
0.0
 11
1.0
 21
0.0
 31
0.0
 44
0.9
  1
N4J
 40
0.125
 41
0.6
  0
MTEXT
  5
289
100
AcDbEntity
  8
0
100
AcDbMText
 62
2
  6
CONTINUOUS
  7
STANDARD
 71
2
 72
1
 10
2.3
 20
-0.75025
 30
0.0
 11
1.0
 21
0.0
 31
0.0
 44
0.9
  1
Ports 1, 2, 3
 40
0.125
 41
2.6
  0
MTEXT
  5
28A
100
AcDbEntity
  8
0
100
AcDbMText
 62
2
  6
CONTINUOUS
  7
STANDARD
 71
2
 72
1
 10
3.95
 20
-0.75025
 30
0.0
 11
1.0
 21
0.0
 31
0.0
 44
0.9
  1
SAE 8
 40
0.125
 41
1.0
  0
MTEXT
  5
28B
100
AcDbEntity
  8
0
100
AcDbMText
 62
2
  6
CONTINUOUS
  7
STANDARD
 71
2
 72
1
 10
0.65
 20
-1.00025
 30
0.0
 11
1.0
 21
0.0
 31
0.0
 44
0.9
  1
N4J
 40
0.125
 41
0.6
  0
MTEXT
  5
28C
100
AcDbEntity
  8
0
100
AcDbMText
 62
2
  6
CONTINUOUS
  7
STANDARD
 71
2
 72
1
 10
2.3
 20
-1.00025
 30
0.0
 11
1.0
 21
0.0
 31
0.0
 44
0.9
  1
Port 4
 40
0.125
 41
1.2
  0
MTEXT
  5
28D
100
AcDbEntity
  8
0
100
AcDbMText
 62
2
  6
CONTINUOUS
  7
STANDARD
 71
2
 72
1
 10
3.95
 20
-1.00025
 30
0.0
 11
1.0
 21
0.0
 31
0.0
 44
0.9
  1
SAE 6
 40
0.125
 41
1.0
  0
MTEXT
  5
28E
100
AcDbEntity
  8
0
100
AcDbMText
 62
2
  6
CONTINUOUS
  7
STANDARD
 71
2
 72
1
 10
0.65
 20
-1.25025
 30
0.0
 11
1.0
 21
0.0
 31
0.0
 44
0.9
  1
N4J
 40
0.125
 41
0.6
  0
MTEXT
  5
28F
100
AcDbEntity
  8
0
100
AcDbMText
 62
2
  6
CONTINUOUS
  7
STANDARD
 71
2
 72
1
 10
2.3
 20
-1.25025
 30
0.0
 11
1.0
 21
0.0
 31
0.0
 44
0.9
  1
Gage Port
 40
0.125
 41
1.8
  0
MTEXT
  5
290
100
AcDbEntity
  8
0
100
AcDbMText
 62
2
  6
CONTINUOUS
  7
STANDARD
 71
2
 72
1
 10
3.95
 20
-1.25025
 30
0.0
 11
1.0
 21
0.0
 31
0.0
 44
0.9
  1
1/4" NPTF
 40
0.125
 41
1.8
  0
ENDBLK
  5
291
100
AcDbEntity
  8
0
  6
BYBLOCK
 62
0
100
AcDbBlockEnd
  0
ENDSEC
  0
SECTION
  2
ENTITIES
  0
IMAGE
  5
292
100
AcDbEntity
  8
0
100
AcDbRasterImage
 62
7
  6
CONTINUOUS
 10
19.2297077316
 20
0.3094318264
 30
0.0
 11
0.0066666667
 21
0.0
 31
0.0
 12
0.0
 22
0.0066666667
 32
0.0
 13
369.0
 23
92.0
340
       385
 70
9
280
0
281
50
282
50
283
0
360
       37F
 71
1
 91
2
 14
-0.5
 24
-0.5
 14
368.5
 24
91.5
  0
INSERT
  5
293
100
AcDbEntity
  8
0
100
AcDbBlockReference
 62
2
  6
CONTINUOUS
  2
SUN_FIRST_THIRD_ANGLE_BL0
 10
20.4816717061
 20
1.2289683772
  0
ACAD_TABLE
  5
294
100
AcDbEntity
  8
0
 62
2
  6
CONTINUOUS
100
AcDbBlockReference
  2
*T1
 10
12.42375
 20
0.30125
 30
0.0
100
AcDbTable
342
       387
343
20F
 11
1.0
 21
0.0
 31
0.0
 90
6
 91
4
 92
6
 93
20
 94
0
 95
0
 96
0
 70
1
 41
0.0
141
0.525
141
0.1
141
0.525
141
0.1
142
4.1
142
1.1
142
0.7
142
0.5
142
0.4
142
2.475
171
1
172
0
173
0
174
0
175
1
176
1
 91
33
178
0
145
0.0
301
CELL_VALUE
 90
4
  1
T-22A Line mount\P(See Technical Data for Body Features)
304
ACVALUE_END
170
2
140
0.125
171
1
172
0
173
0
174
0
175
1
176
1
 91
33
178
0
145
0.0
301
CELL_VALUE
 90
4
  1
Jun-20-24
304
ACVALUE_END
170
5
140
0.125
171
1
172
0
173
0
174
0
175
1
176
1
 91
33
178
0
145
0.0
301
CELL_VALUE
 90
4
  1
1.000
304
ACVALUE_END
170
5
140
0.125
171
1
172
0
173
0
174
0
175
1
176
1
 91
33
178
0
145
0.0
301
CELL_VALUE
 90
4
  1
C
304
ACVALUE_END
170
5
140
0.125
171
1
172
0
173
0
174
0
175
1
176
1
 91
33
178
0
145
0.0
301
CELL_VALUE
 90
4
  1
2
304
ACVALUE_END
170
5
140
0.125
171
1
172
0
173
0
174
0
175
1
176
1
 91
33
178
0
145
0.0
301
CELL_VALUE
 90
4
  1
 
304
ACVALUE_END
170
1
140
0.125
171
1
172
0
173
0
174
0
175
1
176
1
 91
33
178
0
145
0.0
301
CELL_VALUE
 90
4
  1
DESCRIPTION
304
ACVALUE_END
170
1
140
0.06
171
1
172
0
173
0
174
0
175
1
176
1
 91
33
178
0
145
0.0
301
CELL_VALUE
 90
4
  1
DATE
304
ACVALUE_END
170
1
140
0.06
171
1
172
0
173
0
174
0
175
1
176
1
 91
33
178
0
145
0.0
301
CELL_VALUE
 90
4
  1
SCALE
304
ACVALUE_END
170
1
140
0.06
171
1
172
0
173
0
174
0
175
1
176
1
 91
33
178
0
145
0.0
301
CELL_VALUE
 90
4
  1
DWG SIZE
304
ACVALUE_END
170
1
140
0.06
171
1
172
0
173
0
174
0
175
1
176
1
 91
33
178
0
145
0.0
301
CELL_VALUE
 90
4
  1
SHEET
304
ACVALUE_END
170
1
140
0.06
171
1
172
0
173
0
174
0
175
1
176
1
 91
33
178
0
145
0.0
301
CELL_VALUE
 90
4
  1
 
304
ACVALUE_END
170
1
140
0.125
171
1
172
0
173
0
174
0
175
1
176
1
 91
33
178
0
145
0.0
301
CELL_VALUE
 90
4
  1
N4J
304
ACVALUE_END
170
5
140
0.125
171
1
172
0
173
0
174
0
175
4
176
1
 91
33
178
0
145
0.0
301
CELL_VALUE
 90
4
  1
ALL DIMENSIONS IN INCH\PVIEWS ARE THIRD ANGLE
304
ACVALUE_END
170
5
140
0.12
171
1
172
0
173
1
174
0
175
1
176
1
 91
1
178
0
145
0.0
170
1
171
1
172
0
173
1
174
0
175
1
176
1
 91
1
178
0
145
0.0
170
1
171
1
172
0
173
1
174
0
175
1
176
1
 91
1
178
0
145
0.0
170
5
171
1
172
0
173
0
174
0
175
1
176
1
 91
33
178
0
145
0.0
301
CELL_VALUE
 90
4
  1
 
304
ACVALUE_END
170
1
140
0.125
171
1
172
0
173
0
174
0
175
1
176
1
 91
33
178
0
145
0.0
301
CELL_VALUE
 90
4
  1
MODEL
304
ACVALUE_END
170
1
140
0.06
171
1
172
0
173
0
174
0
175
1
176
1
 91
33
178
0
145
0.0
301
CELL_VALUE
 90
4
  1
 
304
ACVALUE_END
170
1
140
0.125
171
1
172
0
173
0
174
0
175
1
176
1
 91
33
178
0
145
0.0
301
CELL_VALUE
 90
4
  1
 
304
ACVALUE_END
170
1
140
0.125
171
1
172
0
173
0
174
0
175
1
176
1
 91
33
178
0
145
0.0
301
CELL_VALUE
 90
4
  1
 
304
ACVALUE_END
170
1
140
0.125
171
1
172
0
173
0
174
0
175
1
176
1
 91
33
178
0
145
0.0
301
CELL_VALUE
 90
4
  1
 
304
ACVALUE_END
170
1
140
0.125
171
1
172
0
173
0
174
0
175
1
176
1
 91
33
178
0
145
0.0
301
CELL_VALUE
 90
4
  1
 
304
ACVALUE_END
170
1
140
0.125
  0
ACAD_TABLE
  5
295
100
AcDbEntity
  8
0
 62
2
  6
CONTINUOUS
100
AcDbBlockReference
  2
*T2
 10
12.4237499994
 20
16.47875
 30
0.0
100
AcDbTable
342
       386
343
210
 11
1.0
 21
0.0
 31
0.0
 90
22
 91
11
 92
3
 93
16
 94
0
 95
0
 96
0
 41
0.028
141
0.344
141
0.25
141
0.25
141
0.25
141
0.25
141
0.25
141
0.25
141
0.25
141
0.25
141
0.25
141
0.25
142
3.055
142
3.0
142
3.0
171
1
172
0
173
0
174
0
175
1
176
1
 91
33
178
0
145
0.0
301
CELL_VALUE
 90
4
  1
Technical Data
304
ACVALUE_END
170
5
140
0.145
171
1
172
0
173
0
174
0
175
1
176
1
 91
33
178
0
145
0.0
301
CELL_VALUE
 90
4
  1
U.S. Units
304
ACVALUE_END
170
5
140
0.145
171
1
172
0
173
0
174
0
175
1
176
1
 91
33
178
0
145
0.0
301
CELL_VALUE
 90
4
  1
Metric Units
304
ACVALUE_END
170
5
140
0.145
171
1
172
0
173
0
174
0
175
1
176
1
 91
33
178
0
145
0.0
301
CELL_VALUE
 90
4
  1
Cavity
304
ACVALUE_END
170
5
140
0.125
171
1
172
0
173
0
174
0
175
2
176
1
 91
33
178
0
145
0.0
301
CELL_VALUE
 90
4
  1
T-22A
304
ACVALUE_END
170
5
140
0.125
171
1
172
0
173
1
174
0
175
1
176
1
 91
1
178
0
145
0.0
170
1
171
1
172
0
173
0
174
0
175
1
176
1
 91
33
178
0
145
0.0
301
CELL_VALUE
 90
4
  1
Body Features
304
ACVALUE_END
170
5
140
0.125
171
1
172
0
173
0
174
0
175
2
176
1
 91
33
178
0
145
0.0
301
CELL_VALUE
 90
4
  1
Ninety degree with reverse flow check - reducing
304
ACVALUE_END
170
5
140
0.125
171
1
172
0
173
1
174
0
175
1
176
1
 91
1
178
0
145
0.0
170
1
171
1
172
0
173
0
174
0
175
1
176
1
 91
33
178
0
145
0.0
301
CELL_VALUE
 90
4
  1
Body Type
304
ACVALUE_END
170
5
140
0.125
171
1
172
0
173
0
174
0
175
2
176
1
 91
33
178
0
145
0.0
301
CELL_VALUE
 90
4
  1
Line mount
304
ACVALUE_END
170
5
140
0.125
171
1
172
0
173
1
174
0
175
1
176
1
 91
1
178
0
145
0.0
170
1
171
1
172
0
173
0
174
0
175
1
176
1
 91
33
178
0
145
0.0
301
CELL_VALUE
 90
4
  1
Interface
304
ACVALUE_END
170
5
140
0.125
171
1
172
0
173
0
174
0
175
2
176
1
 91
33
178
0
145
0.0
301
CELL_VALUE
 90
4
  1
None
304
ACVALUE_END
170
5
140
0.125
171
1
172
0
173
1
174
0
175
1
176
1
 91
1
178
0
145
0.0
170
1
171
1
172
0
173
0
174
0
175
1
176
1
 91
33
178
0
145
0.0
301
CELL_VALUE
 90
4
  1
Open Cavity Quantity
304
ACVALUE_END
170
5
140
0.125
171
1
172
0
173
0
174
0
175
2
176
1
 91
33
178
0
145
0.0
301
CELL_VALUE
 90
4
  1
1
304
ACVALUE_END
170
5
140
0.125
171
1
172
0
173
1
174
0
175
1
176
1
 91
1
178
0
145
0.0
170
1
171
1
172
0
173
0
174
0
175
1
176
1
 91
33
178
0
145
0.0
301
CELL_VALUE
 90
4
  1
Weight
304
ACVALUE_END
170
5
140
0.125
171
1
172
0
173
0
174
0
175
1
176
1
 91
33
178
0
145
0.0
301
CELL_VALUE
 90
4
  1
2.361 lb.
304
ACVALUE_END
170
5
140
0.125
171
1
172
0
173
0
174
0
175
1
176
1
 91
33
178
0
145
0.0
301
CELL_VALUE
 90
4
  1
1,071 kg.
304
ACVALUE_END
170
5
140
0.125
171
1
172
0
173
0
174
0
175
1
176
1
 91
33
178
0
145
0.0
301
CELL_VALUE
 90
4
  1
Mounting Hole Diameter
304
ACVALUE_END
170
5
140
0.125
171
1
172
0
173
0
174
0
175
1
176
1
 91
33
178
0
145
0.0
301
CELL_VALUE
 90
4
  1
.41 in.
304
ACVALUE_END
170
5
140
0.125
171
1
172
0
173
0
174
0
175
1
176
1
 91
33
178
0
145
0.0
301
CELL_VALUE
 90
4
  1
10,4 mm
304
ACVALUE_END
170
5
140
0.125
171
1
172
0
173
0
174
0
175
1
176
1
 91
33
178
0
145
0.0
301
CELL_VALUE
 90
4
  1
Mounting Hole Depth
304
ACVALUE_END
170
5
140
0.125
171
1
172
0
173
0
174
0
175
2
176
1
 91
33
178
0
145
0.0
301
CELL_VALUE
 90
4
  1
Through
304
ACVALUE_END
170
5
140
0.125
171
1
172
0
173
1
174
0
175
1
176
1
 91
1
178
0
145
0.0
170
1
171
1
172
0
173
0
174
0
175
1
176
1
 91
33
178
0
145
0.0
301
CELL_VALUE
 90
4
  1
Mounting Hole Quantity
304
ACVALUE_END
170
5
140
0.125
171
1
172
0
173
0
174
0
175
2
176
1
 91
33
178
0
145
0.0
301
CELL_VALUE
 90
4
  1
2
304
ACVALUE_END
170
5
140
0.125
171
1
172
0
173
1
174
0
175
1
176
1
 91
1
178
0
145
0.0
170
1
171
1
172
0
173
0
174
0
175
1
176
1
 91
33
178
0
145
0.0
301
CELL_VALUE
 90
4
  1
Includes integral cartridge(s)
304
ACVALUE_END
170
5
140
0.125
171
1
172
0
173
0
174
0
175
2
176
1
 91
33
178
0
145
0.0
301
CELL_VALUE
 90
4
  1
Yes (see Included Components)
304
ACVALUE_END
170
5
140
0.125
171
1
172
0
173
1
174
0
175
1
176
1
 91
1
178
0
145
0.0
170
1
  0
ACAD_TABLE
  5
296
100
AcDbEntity
  8
0
 62
2
  6
CONTINUOUS
100
AcDbBlockReference
  2
*T3
 10
0.52125
 20
1.959
 30
0.0
100
AcDbTable
342
       386
343
211
 11
1.0
 21
0.0
 31
0.0
 90
22
 91
5
 92
3
 93
16
 94
0
 95
0
 96
0
 41
0.05
141
0.34375
141
0.344
141
0.25
141
0.25
141
0.25
142
1.3
142
2.0
142
1.3
171
1
172
0
173
0
174
0
175
3
176
1
 91
33
178
0
145
0.0
301
CELL_VALUE
 90
4
  1
Port Headings
304
ACVALUE_END
170
5
140
0.145
171
1
172
0
173
1
174
0
175
1
176
1
 91
1
178
0
145
0.0
170
1
171
1
172
0
173
1
174
0
175
1
176
1
 91
1
178
0
145
0.0
170
1
171
1
172
0
173
0
174
0
175
1
176
1
 91
33
178
0
145
0.0
301
CELL_VALUE
 90
4
  1
Product
304
ACVALUE_END
170
5
140
0.145
171
1
172
0
173
0
174
0
175
1
176
1
 91
33
178
0
145
0.0
301
CELL_VALUE
 90
4
  1
Port
304
ACVALUE_END
170
5
140
0.145
171
1
172
0
173
0
174
0
175
1
176
1
 91
33
178
0
145
0.0
301
CELL_VALUE
 90
4
  1
Size
304
ACVALUE_END
170
5
140
0.145
171
1
172
0
173
0
174
0
175
1
176
1
 91
33
178
0
145
0.0
301
CELL_VALUE
 90
4
  1
N4J
304
ACVALUE_END
170
5
140
0.125
171
1
172
0
173
0
174
0
175
1
176
1
 91
33
178
0
145
0.0
301
CELL_VALUE
 90
4
  1
Ports 1, 2, 3
304
ACVALUE_END
170
5
140
0.125
171
1
172
0
173
0
174
0
175
1
176
1
 91
33
178
0
145
0.0
301
CELL_VALUE
 90
4
  1
SAE 8
304
ACVALUE_END
170
5
140
0.125
171
1
172
0
173
0
174
0
175
1
176
1
 91
33
178
0
145
0.0
301
CELL_VALUE
 90
4
  1
N4J
304
ACVALUE_END
170
5
140
0.125
171
1
172
0
173
0
174
0
175
1
176
1
 91
33
178
0
145
0.0
301
CELL_VALUE
 90
4
  1
Port 4
304
ACVALUE_END
170
5
140
0.125
171
1
172
0
173
0
174
0
175
1
176
1
 91
33
178
0
145
0.0
301
CELL_VALUE
 90
4
  1
SAE 6
304
ACVALUE_END
170
5
140
0.125
171
1
172
0
173
0
174
0
175
1
176
1
 91
33
178
0
145
0.0
301
CELL_VALUE
 90
4
  1
N4J
304
ACVALUE_END
170
5
140
0.125
171
1
172
0
173
0
174
0
175
1
176
1
 91
33
178
0
145
0.0
301
CELL_VALUE
 90
4
  1
Gage Port
304
ACVALUE_END
170
5
140
0.125
171
1
172
0
173
0
174
0
175
1
176
1
 91
33
178
0
145
0.0
301
CELL_VALUE
 90
4
  1
1/4" NPTF
304
ACVALUE_END
170
5
140
0.125
  0
MTEXT
  5
297
100
AcDbEntity
  8
0
100
AcDbMText
 62
2
  6
CONTINUOUS
  7
STANDARD
 71
1
 72
1
 10
0.52125
 20
5.75995
 30
0.0
 11
1.0
 21
0.0
 31
0.0
 44
0.6
  3
Notes\P \P1. Important: Carefully consider\P   the maximum system pressure. The\P   pressure rating of the manifold is\P   dependent on the manifold material,\P   with the port type/size a secondary\P   consideration. Manifolds\P   constructed of alu
  3
minum are not\P   rated for pressures higher than\P   3000 psi (210 bar), regardless of\P   the port type/size specified.\P2. This drawing is for reference\P   only. It is generated by an\P   automated process and does not fall\P   under Sun's docume
  1
nt control\P   process.
 40
0.1
 41
3.04
  0
LINE
  5
298
100
AcDbEntity
  8
0
100
AcDbLine
 62
7
  6
CONTINUOUS
 10
0.30125
 20
0.30125
 11
0.30125
 21
16.69875
  0
LINE
  5
299
100
AcDbEntity
  8
0
100
AcDbLine
 62
7
  6
CONTINUOUS
 10
0.30125
 20
0.30125
 11
21.69875
 21
0.30125
  0
LINE
  5
29A
100
AcDbEntity
  8
0
100
AcDbLine
 62
7
  6
CONTINUOUS
 10
0.30125
 20
16.69875
 11
21.69875
 21
16.69875
  0
LINE
  5
29B
100
AcDbEntity
  8
0
100
AcDbLine
 62
7
  6
CONTINUOUS
 10
21.69875
 20
0.30125
 11
21.69875
 21
16.69875
  0
LINE
  5
29C
100
AcDbEntity
  8
0
100
AcDbLine
 62
7
  6
CONTINUOUS
 10
9.2622623566
 20
11.2107129552
 11
8.8740341093
 21
10.8357132424
  0
LINE
  5
29D
100
AcDbEntity
  8
0
100
AcDbLine
 62
4
  6
CONTINUOUS
 10
9.1126178363
 20
9.8822193511
 11
9.1053733923
 21
9.8730624987
  0
LINE
  5
29E
100
AcDbEntity
  8
0
100
AcDbLine
 62
4
  6
CONTINUOUS
 10
9.1198622802
 20
9.8237613955
 11
9.1053733923
 21
9.8054476863
  0
LINE
  5
29F
100
AcDbEntity
  8
0
100
AcDbLine
 62
7
  6
CONTINUOUS
 10
8.8740341093
 20
6.4890467666
 11
8.8740341093
 21
10.8357132424
  0
LINE
  5
2A0
100
AcDbEntity
  8
0
100
AcDbLine
 62
4
  6
CONTINUOUS
 10
9.0619067285
 20
9.9050546979
 11
9.0763956164
 21
9.9137091464
  0
LINE
  5
2A1
100
AcDbEntity
  8
0
100
AcDbLine
 62
4
  6
CONTINUOUS
 10
9.1053733923
 20
9.8730624987
 11
9.0908845044
 21
9.8644080432
  0
LINE
  5
2A2
100
AcDbEntity
  8
0
100
AcDbLine
 62
4
  6
CONTINUOUS
 10
9.1053733923
 20
9.8054476863
 11
9.0908845044
 21
9.7967932352
  0
LINE
  5
2A3
100
AcDbEntity
  8
0
100
AcDbLine
 62
7
  6
CONTINUOUS
 10
8.8740341093
 20
6.4890467666
 11
12.7377376434
 21
6.2210980164
  0
LINE
  5
2A4
100
AcDbEntity
  8
0
100
AcDbLine
 62
7
  6
CONTINUOUS
 10
11.4550988838
 20
5.8755624202
 11
11.4743167732
 21
5.8660691508
  0
LINE
  5
2A5
100
AcDbEntity
  8
0
100
AcDbLine
 62
4
  6
CONTINUOUS
 10
9.1126178363
 20
9.8918786074
 11
9.1126178363
 21
9.8822193511
  0
LINE
  5
2A6
100
AcDbEntity
  8
0
100
AcDbLine
 62
4
  6
CONTINUOUS
 10
9.1126178363
 20
7.6122934136
 11
9.1126178363
 21
7.4963823102
  0
LINE
  5
2A7
100
AcDbEntity
  8
0
100
AcDbLine
 62
4
  6
CONTINUOUS
 10
9.1198622802
 20
9.8334206552
 11
9.1198622802
 21
9.8237613955
  0
LINE
  5
2A8
100
AcDbEntity
  8
0
100
AcDbLine
 62
7
  6
CONTINUOUS
 10
11.2646636921
 20
10.8708842343
 11
11.26304458
 21
10.8693495424
  0
LINE
  5
2A9
100
AcDbEntity
  8
0
100
AcDbLine
 62
4
  6
CONTINUOUS
 10
11.1782502634
 20
7.325118437
 11
11.1637613755
 21
7.3261232448
  0
LINE
  5
2AA
100
AcDbEntity
  8
0
100
AcDbLine
 62
4
  6
CONTINUOUS
 10
11.1710058194
 20
7.3835763926
 11
11.1999835953
 21
7.381566777
  0
LINE
  5
2AB
100
AcDbEntity
  8
0
100
AcDbLine
 62
4
  6
CONTINUOUS
 10
11.1637613755
 20
7.4420343482
 11
11.1782502634
 21
7.4410295404
  0
LINE
  5
2AC
100
AcDbEntity
  8
0
100
AcDbLine
 62
4
  6
CONTINUOUS
 10
10.1403630644
 20
9.1444560355
 11
10.1403630644
 21
9.0865004838
  0
LINE
  5
2AD
100
AcDbEntity
  8
0
100
AcDbLine
 62
4
  6
CONTINUOUS
 10
10.1983186161
 20
9.0824812527
 11
10.1983186161
 21
9.024525701
  0
LINE
  5
2AE
100
AcDbEntity
  8
0
100
AcDbLine
 62
4
  6
CONTINUOUS
 10
10.227296392
 20
9.0225160854
 11
10.227296392
 21
9.1384271888
  0
LINE
  5
2AF
100
AcDbEntity
  8
0
100
AcDbLine
 62
4
  6
CONTINUOUS
 10
10.2746267553
 20
8.428087086
 11
10.2746267553
 21
8.5439981895
  0
LINE
  5
2B0
100
AcDbEntity
  8
0
100
AcDbLine
 62
4
  6
CONTINUOUS
 10
10.2852519437
 20
9.1344079576
 11
10.2852519437
 21
9.0184968542
  0
LINE
  5
2B1
100
AcDbEntity
  8
0
100
AcDbLine
 62
4
  6
CONTINUOUS
 10
10.3142297195
 20
9.1323983421
 11
10.3142297195
 21
9.0164872386
  0
LINE
  5
2B2
100
AcDbEntity
  8
0
100
AcDbLine
 62
4
  6
CONTINUOUS
 10
10.3325823001
 20
8.5234202307
 11
10.3325823001
 21
8.4406265851
  0
LINE
  5
2B3
100
AcDbEntity
  8
0
100
AcDbLine
 62
4
  6
CONTINUOUS
 10
11.1637613755
 20
7.3261232448
 11
11.1492724875
 21
7.3367873115
  0
LINE
  5
2B4
100
AcDbEntity
  8
0
100
AcDbLine
 62
4
  6
CONTINUOUS
 10
11.1782502634
 20
7.4410295404
 11
11.1927391513
 21
7.4303654763
  0
LINE
  5
2B5
100
AcDbEntity
  8
0
100
AcDbLine
 62
4
  6
CONTINUOUS
 10
9.0619067285
 20
9.8084621097
 11
9.0546622846
 21
9.8186237725
  0
LINE
  5
2B6
100
AcDbEntity
  8
0
100
AcDbLine
 62
4
  6
CONTINUOUS
 10
9.1053733923
 20
9.8537439791
 11
9.1198622802
 21
9.8334206552
  0
LINE
  5
2B7
100
AcDbEntity
  8
0
100
AcDbLine
 62
4
  6
CONTINUOUS
 10
9.1053733923
 20
9.9020402745
 11
9.1126178363
 21
9.8918786074
  0
LINE
  5
2B8
100
AcDbEntity
  8
0
100
AcDbLine
 62
4
  6
CONTINUOUS
 10
10.3721852713
 20
9.1283791109
 11
10.3721852713
 21
9.0124680075
  0
LINE
  5
2B9
100
AcDbEntity
  8
0
100
AcDbLine
 62
4
  6
CONTINUOUS
 10
10.4880963747
 20
9.0044295451
 11
10.4880963747
 21
9.1203406486
  0
LINE
  5
2BA
100
AcDbEntity
  8
0
100
AcDbLine
 62
4
  6
CONTINUOUS
 10
10.5119685381
 20
8.4116273775
 11
10.5119685381
 21
8.5275384809
  0
LINE
  5
2BB
100
AcDbEntity
  8
0
100
AcDbLine
 62
4
  6
CONTINUOUS
 10
10.5460519264
 20
9.000410314
 11
10.5460519264
 21
9.0583658657
  0
LINE
  5
2BC
100
AcDbEntity
  8
0
100
AcDbLine
 62
4
  6
CONTINUOUS
 10
10.3794986997
 20
8.420814192
 11
10.4126161559
 21
8.534428592
  0
LINE
  5
2BD
100
AcDbEntity
  8
0
100
AcDbLine
 62
4
  6
CONTINUOUS
 10
10.316023572
 20
8.5411273105
 11
10.3325823001
 21
8.5234202307
  0
LINE
  5
2BE
100
AcDbEntity
  8
0
100
AcDbLine
 62
4
  6
CONTINUOUS
 10
11.1492724875
 20
7.3367873115
 11
11.1347835996
 21
7.3571106362
  0
LINE
  5
2BF
100
AcDbEntity
  8
0
100
AcDbLine
 62
4
  6
CONTINUOUS
 10
11.1927391513
 20
7.4303654763
 11
11.1999835953
 21
7.4202038092
  0
LINE
  5
2C0
100
AcDbEntity
  8
0
100
AcDbLine
 62
4
  6
CONTINUOUS
 10
10.4126161559
 20
8.534428592
 11
10.4457336258
 21
8.4162207842
  0
LINE
  5
2C1
100
AcDbEntity
  8
0
100
AcDbLine
 62
4
  6
CONTINUOUS
 10
10.5782034504
 20
8.4070339707
 11
10.5782034504
 21
8.5229450741
  0
LINE
  5
2C2
100
AcDbEntity
  8
0
100
AcDbLine
 62
4
  6
CONTINUOUS
 10
10.578203461
 20
8.6620383975
 11
10.578203461
 21
8.777949501
  0
LINE
  5
2C3
100
AcDbEntity
  8
0
100
AcDbLine
 62
4
  6
CONTINUOUS
 10
10.5933822947
 20
8.9971279418
 11
10.5933822947
 21
9.0550834935
  0
LINE
  5
2C4
100
AcDbEntity
  8
0
100
AcDbLine
 62
4
  6
CONTINUOUS
 10
10.6361590127
 20
8.6580191664
 11
10.6361590127
 21
8.7739302698
  0
LINE
  5
2C5
100
AcDbEntity
  8
0
100
AcDbLine
 62
4
  6
CONTINUOUS
 10
10.6513378464
 20
9.0510642623
 11
10.6513378464
 21
8.9351531589
  0
LINE
  5
2C6
100
AcDbEntity
  8
0
100
AcDbLine
 62
4
  6
CONTINUOUS
 10
10.6899748809
 20
8.9904292232
 11
10.6899748809
 21
9.0483847749
  0
LINE
  5
2C7
100
AcDbEntity
  8
0
100
AcDbLine
 62
4
  6
CONTINUOUS
 10
10.707913508
 20
8.6530429752
 11
10.707913508
 21
8.7109985269
  0
LINE
  5
2C8
100
AcDbEntity
  8
0
100
AcDbLine
 62
4
  6
CONTINUOUS
 10
10.7479304326
 20
9.1023210955
 11
10.7479304326
 21
8.986409992
  0
LINE
  5
2C9
100
AcDbEntity
  8
0
100
AcDbLine
 62
4
  6
CONTINUOUS
 10
10.7520701332
 20
8.4115350051
 11
10.7520701332
 21
8.4943286507
  0
LINE
  5
2CA
100
AcDbEntity
  8
0
100
AcDbLine
 62
4
  6
CONTINUOUS
 10
10.7865674671
 20
9.0416860563
 11
10.7865674671
 21
8.9837305046
  0
LINE
  5
2CB
100
AcDbEntity
  8
0
100
AcDbLine
 62
4
  6
CONTINUOUS
 10
10.6692764689
 20
8.6805605568
 11
10.6941145644
 21
8.7699110386
  0
LINE
  5
2CC
100
AcDbEntity
  8
0
100
AcDbLine
 62
7
  6
CONTINUOUS
 10
12.7377376434
 20
10.5677644923
 11
13.1259658907
 21
10.942764205
  0
LINE
  5
2CD
100
AcDbEntity
  8
0
100
AcDbLine
 62
4
  6
CONTINUOUS
 10
10.3325823001
 20
8.4406265851
 11
10.316023572
 21
8.425216207
  0
LINE
  5
2CE
100
AcDbEntity
  8
0
100
AcDbLine
 62
4
  6
CONTINUOUS
 10
10.7851875723
 20
8.6476840007
 11
10.8017463073
 21
8.6630943783
  0
LINE
  5
2CF
100
AcDbEntity
  8
0
100
AcDbLine
 62
4
  6
CONTINUOUS
 10
10.2525484477
 20
8.5013727171
 11
10.208391836
 21
8.482356681
  0
LINE
  5
2D0
100
AcDbEntity
  8
0
100
AcDbLine
 62
4
  6
CONTINUOUS
 10
10.208391836
 20
8.482356681
 11
10.2525484477
 21
8.4572161037
  0
LINE
  5
2D1
100
AcDbEntity
  8
0
100
AcDbLine
 62
4
  6
CONTINUOUS
 10
10.7686288544
 20
8.3938279241
 11
10.7520701332
 21
8.4115350051
  0
LINE
  5
2D2
100
AcDbEntity
  8
0
100
AcDbLine
 62
4
  6
CONTINUOUS
 10
10.578203461
 20
8.777949501
 11
10.6361590127
 21
8.6580191664
  0
LINE
  5
2D3
100
AcDbEntity
  8
0
100
AcDbLine
 62
4
  6
CONTINUOUS
 10
10.8017463073
 20
8.6630943783
 11
10.8017463073
 21
8.7624467519
  0
LINE
  5
2D4
100
AcDbEntity
  8
0
100
AcDbLine
 62
4
  6
CONTINUOUS
 10
10.8486626826
 20
8.4048362891
 11
10.8486626826
 21
8.4876299346
  0
LINE
  5
2D5
100
AcDbEntity
  8
0
100
AcDbLine
 62
4
  6
CONTINUOUS
 10
10.8831600533
 20
8.977031786
 11
10.8831600533
 21
9.0156688205
  0
LINE
  5
2D6
100
AcDbEntity
  8
0
100
AcDbLine
 62
4
  6
CONTINUOUS
 10
10.9066182343
 20
8.4836107034
 11
10.9066182343
 21
8.4008170579
  0
LINE
  5
2D7
100
AcDbEntity
  8
0
100
AcDbLine
 62
4
  6
CONTINUOUS
 10
10.9397356766
 20
8.3819616257
 11
10.9397356766
 21
8.4978727291
  0
LINE
  5
2D8
100
AcDbEntity
  8
0
100
AcDbLine
 62
4
  6
CONTINUOUS
 10
10.941115605
 20
9.0309681065
 11
10.941115605
 21
8.9730125548
  0
LINE
  5
2D9
100
AcDbEntity
  8
0
100
AcDbLine
 62
4
  6
CONTINUOUS
 10
10.9797526395
 20
9.0282886191
 11
10.9797526395
 21
8.9703330674
  0
LINE
  5
2DA
100
AcDbEntity
  8
0
100
AcDbLine
 62
4
  6
CONTINUOUS
 10
10.9976912283
 20
8.4772947699
 11
10.9976912283
 21
8.3945011243
  0
LINE
  5
2DB
100
AcDbEntity
  8
0
100
AcDbLine
 62
4
  6
CONTINUOUS
 10
10.7520701332
 20
8.4943286507
 11
10.7686288544
 21
8.5097390275
  0
LINE
  5
2DC
100
AcDbEntity
  8
0
100
AcDbLine
 62
4
  6
CONTINUOUS
 10
10.8486626826
 20
8.4876299346
 11
10.8652214037
 21
8.5030403115
  0
LINE
  5
2DD
100
AcDbEntity
  8
0
100
AcDbLine
 62
4
  6
CONTINUOUS
 10
10.9066182343
 20
8.4008170579
 11
10.8900595131
 21
8.3854066793
  0
LINE
  5
2DE
100
AcDbEntity
  8
0
100
AcDbLine
 62
4
  6
CONTINUOUS
 10
10.9811325072
 20
8.3790907457
 11
10.9397356766
 21
8.3819616257
  0
LINE
  5
2DF
100
AcDbEntity
  8
0
100
AcDbLine
 62
4
  6
CONTINUOUS
 10
10.8900595131
 20
8.3854066793
 11
10.8652214037
 21
8.387129208
  0
LINE
  5
2E0
100
AcDbEntity
  8
0
100
AcDbLine
 62
4
  6
CONTINUOUS
 10
10.8017462967
 20
8.3915312217
 11
10.7686288544
 21
8.3938279241
  0
LINE
  5
2E1
100
AcDbEntity
  8
0
100
AcDbLine
 62
4
  6
CONTINUOUS
 10
10.316023572
 20
8.425216207
 11
10.2746267553
 21
8.428087086
  0
LINE
  5
2E2
100
AcDbEntity
  8
0
100
AcDbLine
 62
4
  6
CONTINUOUS
 10
10.5782034504
 20
8.4070339707
 11
10.6278796416
 21
8.4035889152
  0
LINE
  5
2E3
100
AcDbEntity
  8
0
100
AcDbLine
 62
4
  6
CONTINUOUS
 10
11.0446076695
 20
8.3746887283
 11
11.0942838329
 21
8.3712436746
  0
LINE
  5
2E4
100
AcDbEntity
  8
0
100
AcDbLine
 62
4
  6
CONTINUOUS
 10
10.3905378518
 20
8.4531660838
 11
10.43469446
 21
8.4501038126
  0
LINE
  5
2E5
100
AcDbEntity
  8
0
100
AcDbLine
 62
4
  6
CONTINUOUS
 10
11.0777251118
 20
8.438626945
 11
11.0446076695
 21
8.4409236475
  0
LINE
  5
2E6
100
AcDbEntity
  8
0
100
AcDbLine
 62
4
  6
CONTINUOUS
 10
10.6113209204
 20
8.4709721856
 11
10.5782034504
 21
8.4732688899
  0
LINE
  5
2E7
100
AcDbEntity
  8
0
100
AcDbLine
 62
4
  6
CONTINUOUS
 10
10.2746267553
 20
8.5439981895
 11
10.316023572
 21
8.5411273105
  0
LINE
  5
2E8
100
AcDbEntity
  8
0
100
AcDbLine
 62
4
  6
CONTINUOUS
 10
10.4788510682
 20
8.5298351853
 11
10.5450859805
 21
8.5252417785
  0
LINE
  5
2E9
100
AcDbEntity
  8
0
100
AcDbLine
 62
4
  6
CONTINUOUS
 10
10.5782034504
 20
8.5229450741
 11
10.6278796416
 21
8.5195000186
  0
LINE
  5
2EA
100
AcDbEntity
  8
0
100
AcDbLine
 62
4
  6
CONTINUOUS
 10
10.7686288544
 20
8.5097390275
 11
10.8017462967
 21
8.5074423251
  0
LINE
  5
2EB
100
AcDbEntity
  8
0
100
AcDbLine
 62
4
  6
CONTINUOUS
 10
10.8652214037
 20
8.5030403115
 11
10.8900595131
 21
8.5013177827
  0
LINE
  5
2EC
100
AcDbEntity
  8
0
100
AcDbLine
 62
4
  6
CONTINUOUS
 10
10.9397356766
 20
8.4978727291
 11
10.9811325072
 21
8.4950018491
  0
LINE
  5
2ED
100
AcDbEntity
  8
0
100
AcDbLine
 62
4
  6
CONTINUOUS
 10
11.0446076695
 20
8.4905998317
 11
11.0942838329
 21
8.4871547781
  0
LINE
  5
2EE
100
AcDbEntity
  8
0
100
AcDbLine
 62
4
  6
CONTINUOUS
 10
11.1274012753
 20
8.4407014674
 11
11.1715578835
 21
8.4155608887
  0
LINE
  5
2EF
100
AcDbEntity
  8
0
100
AcDbLine
 62
4
  6
CONTINUOUS
 10
9.0763956164
 20
9.797798043
 11
9.0619067285
 21
9.8084621097
  0
LINE
  5
2F0
100
AcDbEntity
  8
0
100
AcDbLine
 62
4
  6
CONTINUOUS
 10
9.0908845044
 20
9.8644080432
 11
9.1053733923
 21
9.8537439791
  0
LINE
  5
2F1
100
AcDbEntity
  8
0
100
AcDbLine
 62
4
  6
CONTINUOUS
 10
9.0908845044
 20
9.9127043386
 11
9.1053733923
 21
9.9020402745
  0
LINE
  5
2F2
100
AcDbEntity
  8
0
100
AcDbLine
 62
4
  6
CONTINUOUS
 10
10.8652214037
 20
8.387129208
 11
10.8486626826
 21
8.4048362891
  0
LINE
  5
2F3
100
AcDbEntity
  8
0
100
AcDbLine
 62
4
  6
CONTINUOUS
 10
10.8900595131
 20
8.5013177827
 11
10.9066182343
 21
8.4836107034
  0
LINE
  5
2F4
100
AcDbEntity
  8
0
100
AcDbLine
 62
4
  6
CONTINUOUS
 10
10.9811325072
 20
8.4950018491
 11
10.9976912283
 21
8.4772947699
  0
LINE
  5
2F5
100
AcDbEntity
  8
0
100
AcDbLine
 62
4
  6
CONTINUOUS
 10
11.1347835996
 20
7.3571106362
 11
11.1275391556
 21
7.386590816
  0
LINE
  5
2F6
100
AcDbEntity
  8
0
100
AcDbLine
 62
4
  6
CONTINUOUS
 10
11.0377081912
 20
8.9663138362
 11
11.0377081912
 21
9.0242693879
  0
LINE
  5
2F7
100
AcDbEntity
  8
0
100
AcDbLine
 62
4
  6
CONTINUOUS
 10
11.0446076695
 20
8.3746887283
 11
11.0446076695
 21
8.4905998317
  0
LINE
  5
2F8
100
AcDbEntity
  8
0
100
AcDbLine
 62
4
  6
CONTINUOUS
 10
11.0763452257
 20
8.9636343488
 11
11.0763452257
 21
9.0795454522
  0
LINE
  5
2F9
100
AcDbEntity
  8
0
100
AcDbLine
 62
4
  6
CONTINUOUS
 10
11.1149822601
 20
8.9609548613
 11
11.1149822601
 21
9.018910413
  0
LINE
  5
2FA
100
AcDbEntity
  8
0
100
AcDbLine
 62
4
  6
CONTINUOUS
 10
11.1536192946
 20
9.0162309256
 11
11.1536192946
 21
8.9582753739
  0
LINE
  5
2FB
100
AcDbEntity
  8
0
100
AcDbLine
 62
4
  6
CONTINUOUS
 10
11.1999835953
 20
7.381566777
 11
11.1999835953
 21
7.3429297431
  0
LINE
  5
2FC
100
AcDbEntity
  8
0
100
AcDbLine
 62
4
  6
CONTINUOUS
 10
11.2502118808
 20
9.009532207
 11
11.2502118808
 21
8.9805544311
  0
LINE
  5
2FD
100
AcDbEntity
  8
0
100
AcDbLine
 62
4
  6
CONTINUOUS
 10
10.9976912283
 20
8.3945011243
 11
10.9811325072
 21
8.3790907457
  0
LINE
  5
2FE
100
AcDbEntity
  8
0
100
AcDbLine
 62
4
  6
CONTINUOUS
 10
11.1715578835
 20
8.4155608887
 11
11.1274012753
 21
8.396544854
  0
LINE
  5
2FF
100
AcDbEntity
  8
0
100
AcDbLine
 62
4
  6
CONTINUOUS
 10
10.7603494767
 20
8.6494065284
 11
10.7851875723
 21
8.6476840007
  0
LINE
  5
300
100
AcDbEntity
  8
0
100
AcDbLine
 62
4
  6
CONTINUOUS
 10
10.7272320206
 20
8.6765413257
 11
10.6692764689
 21
8.6805605568
  0
LINE
  5
301
100
AcDbEntity
  8
0
100
AcDbLine
 62
4
  6
CONTINUOUS
 10
12.4962561725
 20
8.5947040244
 11
12.5542117243
 21
8.5906847932
  0
LINE
  5
302
100
AcDbEntity
  8
0
100
AcDbLine
 62
4
  6
CONTINUOUS
 10
11.3081674325
 20
8.9765352
 11
11.3081674325
 21
8.9475574241
  0
LINE
  5
303
100
AcDbEntity
  8
0
100
AcDbLine
 62
7
  6
CONTINUOUS
 10
11.3468986067
 20
6.3175530312
 11
11.3468986067
 21
6.0122420819
  0
LINE
  5
304
100
AcDbEntity
  8
0
100
AcDbLine
 62
4
  6
CONTINUOUS
 10
11.1275391556
 20
7.386590816
 11
11.1347835996
 21
7.4150661879
  0
LINE
  5
305
100
AcDbEntity
  8
0
100
AcDbLine
 62
4
  6
CONTINUOUS
 10
12.5469672803
 20
10.2139426236
 11
12.4962561725
 21
10.1305261233
  0
LINE
  5
306
100
AcDbEntity
  8
0
100
AcDbLine
 62
4
  6
CONTINUOUS
 10
12.5179895044
 20
8.7091079161
 11
12.5324783924
 21
8.7081031083
  0
LINE
  5
307
100
AcDbEntity
  8
0
100
AcDbLine
 62
4
  6
CONTINUOUS
 10
10.6513378464
 20
8.9351531589
 11
10.6127008119
 21
8.9378326463
  0
LINE
  5
308
100
AcDbEntity
  8
0
100
AcDbLine
 62
4
  6
CONTINUOUS
 10
11.3081674325
 20
8.9475574241
 11
11.2502118808
 21
8.9515766553
  0
LINE
  5
309
100
AcDbEntity
  8
0
100
AcDbLine
 62
4
  6
CONTINUOUS
 10
10.941115605
 20
8.9730125548
 11
10.8831600533
 21
8.977031786
  0
LINE
  5
30A
100
AcDbEntity
  8
0
100
AcDbLine
 62
4
  6
CONTINUOUS
 10
10.7479304326
 20
8.986409992
 11
10.6899748809
 21
8.9904292232
  0
LINE
  5
30B
100
AcDbEntity
  8
0
100
AcDbLine
 62
4
  6
CONTINUOUS
 10
10.6513378464
 20
8.9931087106
 11
10.5933822947
 21
8.9971279418
  0
LINE
  5
30C
100
AcDbEntity
  8
0
100
AcDbLine
 62
4
  6
CONTINUOUS
 10
10.2852519437
 20
9.0184968542
 11
10.227296392
 21
9.0225160854
  0
LINE
  5
30D
100
AcDbEntity
  8
0
100
AcDbLine
 62
4
  6
CONTINUOUS
 10
10.1983186161
 20
9.024525701
 11
10.1403630644
 21
9.0285449321
  0
LINE
  5
30E
100
AcDbEntity
  8
0
100
AcDbLine
 62
4
  6
CONTINUOUS
 10
10.9797526395
 20
8.9703330674
 11
11.0377081912
 21
8.9663138362
  0
LINE
  5
30F
100
AcDbEntity
  8
0
100
AcDbLine
 62
4
  6
CONTINUOUS
 10
11.1536192946
 20
8.9582753739
 11
11.2115748463
 21
8.9542561427
  0
LINE
  5
310
100
AcDbEntity
  8
0
100
AcDbLine
 62
7
  6
CONTINUOUS
 10
11.4983185462
 20
6.2503853431
 11
11.4983185462
 21
5.8659819018
  0
LINE
  5
311
100
AcDbEntity
  8
0
100
AcDbLine
 62
7
  6
CONTINUOUS
 10
11.5377913241
 20
6.2401690494
 11
11.5377913241
 21
5.8557656081
  0
LINE
  5
312
100
AcDbEntity
  8
0
100
AcDbLine
 62
4
  6
CONTINUOUS
 10
12.5035006165
 20
8.7004534676
 11
12.5179895044
 21
8.7091079161
  0
LINE
  5
313
100
AcDbEntity
  8
0
100
AcDbLine
 62
4
  6
CONTINUOUS
 10
12.5469672803
 20
8.6588020051
 11
12.5179895044
 21
8.6414931046
  0
LINE
  5
314
100
AcDbEntity
  8
0
100
AcDbLine
 62
4
  6
CONTINUOUS
 10
11.2502118808
 20
8.9805544311
 11
11.3081674325
 21
8.9765352
  0
LINE
  5
315
100
AcDbEntity
  8
0
100
AcDbLine
 62
4
  6
CONTINUOUS
 10
10.8831600533
 20
9.0156688205
 11
10.941115605
 21
9.0116495893
  0
LINE
  5
316
100
AcDbEntity
  8
0
100
AcDbLine
 62
4
  6
CONTINUOUS
 10
10.941115605
 20
9.0309681065
 11
10.9024785705
 21
9.033647594
  0
LINE
  5
317
100
AcDbEntity
  8
0
100
AcDbLine
 62
4
  6
CONTINUOUS
 10
10.5460519264
 20
9.0583658657
 11
10.4880963747
 21
9.0623850969
  0
LINE
  5
318
100
AcDbEntity
  8
0
100
AcDbLine
 62
4
  6
CONTINUOUS
 10
10.1403630644
 20
9.0865004838
 11
10.1983186161
 21
9.0824812527
  0
LINE
  5
319
100
AcDbEntity
  8
0
100
AcDbLine
 62
4
  6
CONTINUOUS
 10
10.6899748809
 20
9.0483847749
 11
10.7479304326
 21
9.0443655437
  0
LINE
  5
31A
100
AcDbEntity
  8
0
100
AcDbLine
 62
4
  6
CONTINUOUS
 10
10.7865674671
 20
9.0416860563
 11
10.8445230188
 21
9.0376668251
  0
LINE
  5
31B
100
AcDbEntity
  8
0
100
AcDbLine
 62
4
  6
CONTINUOUS
 10
11.1536192946
 20
9.0162309256
 11
11.2115748463
 21
9.0122116944
  0
LINE
  5
31C
100
AcDbEntity
  8
0
100
AcDbLine
 62
4
  6
CONTINUOUS
 10
11.2502118808
 20
9.009532207
 11
11.3081674325
 21
9.0055129758
  0
LINE
  5
31D
100
AcDbEntity
  8
0
100
AcDbLine
 62
4
  6
CONTINUOUS
 10
11.1077378162
 20
9.0483905928
 11
11.1222267041
 21
9.047385785
  0
LINE
  5
31E
100
AcDbEntity
  8
0
100
AcDbLine
 62
4
  6
CONTINUOUS
 10
10.1983186161
 20
9.1404368044
 11
10.1403630644
 21
9.1444560355
  0
LINE
  5
31F
100
AcDbEntity
  8
0
100
AcDbLine
 62
4
  6
CONTINUOUS
 10
10.3142297195
 20
9.1323983421
 11
10.3721852713
 21
9.1283791109
  0
LINE
  5
320
100
AcDbEntity
  8
0
100
AcDbLine
 62
4
  6
CONTINUOUS
 10
11.1347835996
 20
7.4150661879
 11
11.1492724875
 21
7.4333798997
  0
LINE
  5
321
100
AcDbEntity
  8
0
100
AcDbLine
 62
4
  6
CONTINUOUS
 10
11.1999835953
 20
7.3429297431
 11
11.1927391513
 21
7.3337728881
  0
LINE
  5
322
100
AcDbEntity
  8
0
100
AcDbLine
 62
7
  6
CONTINUOUS
 10
12.1028977987
 20
6.2009787823
 11
12.1028977987
 21
5.816575341
  0
LINE
  5
323
100
AcDbEntity
  8
0
100
AcDbLine
 62
7
  6
CONTINUOUS
 10
12.1568186009
 20
6.2047182092
 11
12.1568186009
 21
5.8203147679
  0
LINE
  5
324
100
AcDbEntity
  8
0
100
AcDbLine
 62
4
  6
CONTINUOUS
 10
12.4962561725
 20
8.6912966083
 11
12.5035006165
 21
8.7004534676
  0
LINE
  5
325
100
AcDbEntity
  8
0
100
AcDbLine
 62
4
  6
CONTINUOUS
 10
12.5179895044
 20
8.6414931046
 11
12.5035006165
 21
8.6231793963
  0
LINE
  5
326
100
AcDbEntity
  8
0
100
AcDbLine
 62
4
  6
CONTINUOUS
 10
12.5542117243
 20
8.6679588645
 11
12.5469672803
 21
8.6588020051
  0
LINE
  5
327
100
AcDbEntity
  8
0
100
AcDbLine
 62
4
  6
CONTINUOUS
 10
11.1492724875
 20
7.4333798997
 11
11.1637613755
 21
7.4420343482
  0
LINE
  5
328
100
AcDbEntity
  8
0
100
AcDbLine
 62
4
  6
CONTINUOUS
 10
11.1927391513
 20
7.3337728881
 11
11.1782502634
 21
7.325118437
  0
LINE
  5
329
100
AcDbEntity
  8
0
100
AcDbLine
 62
4
  6
CONTINUOUS
 10
9.0908845044
 20
9.7967932352
 11
9.0763956164
 21
9.797798043
  0
LINE
  5
32A
100
AcDbEntity
  8
0
100
AcDbLine
 62
4
  6
CONTINUOUS
 10
12.5324783924
 20
8.7081031083
 11
12.5469672803
 21
8.6974390442
  0
LINE
  5
32B
100
AcDbEntity
  8
0
100
AcDbLine
 62
4
  6
CONTINUOUS
 10
9.0763956164
 20
9.865412851
 11
9.0908845044
 21
9.8644080432
  0
LINE
  5
32C
100
AcDbEntity
  8
0
100
AcDbLine
 62
4
  6
CONTINUOUS
 10
9.0763956164
 20
9.9137091464
 11
9.0908845044
 21
9.9127043386
  0
LINE
  5
32D
100
AcDbEntity
  8
0
100
AcDbLine
 62
4
  6
CONTINUOUS
 10
12.5469672803
 20
8.6974390442
 11
12.5542117243
 21
8.6872773771
  0
LINE
  5
32E
100
AcDbEntity
  8
0
100
AcDbLine
 62
4
  6
CONTINUOUS
 10
12.5469672803
 20
10.0980315201
 11
12.5469672803
 21
10.2139426236
  0
LINE
  5
32F
100
AcDbEntity
  8
0
100
AcDbLine
 62
4
  6
CONTINUOUS
 10
12.5542117243
 20
8.6872773771
 11
12.5542117243
 21
8.6679588645
  0
LINE
  5
330
100
AcDbEntity
  8
0
100
AcDbLine
 62
7
  6
CONTINUOUS
 10
12.570505136
 20
6.2326956302
 11
12.570505136
 21
5.9273846809
  0
LINE
  5
331
100
AcDbEntity
  8
0
100
AcDbLine
 62
7
  6
CONTINUOUS
 10
12.5849531604
 20
6.2316936563
 11
12.5849531604
 21
5.9413404016
  0
LINE
  5
332
100
AcDbEntity
  8
0
100
AcDbLine
 62
4
  6
CONTINUOUS
 10
12.5035006165
 20
8.6231793963
 11
12.4962561725
 21
8.5947040244
  0
LINE
  5
333
100
AcDbEntity
  8
0
100
AcDbLine
 62
7
  6
CONTINUOUS
 10
12.7377376434
 20
6.2210980164
 11
12.7377376434
 21
10.5677644923
  0
LINE
  5
334
100
AcDbEntity
  8
0
100
AcDbLine
 62
4
  6
CONTINUOUS
 10
12.4962561725
 20
10.1305261233
 11
12.5614561682
 21
10.1260044882
  0
LINE
  5
335
100
AcDbEntity
  8
0
100
AcDbLine
 62
7
  6
CONTINUOUS
 10
13.1259658907
 20
6.5960977292
 11
13.1259658907
 21
10.942764205
  0
LINE
  5
336
100
AcDbEntity
  8
0
100
AcDbLine
 62
7
  6
CONTINUOUS
 10
8.8740341093
 20
10.8357132424
 11
12.7377376434
 21
10.5677644923
  0
LINE
  5
337
100
AcDbEntity
  8
0
100
AcDbLine
 62
7
  6
CONTINUOUS
 10
13.1259658907
 20
10.942764205
 11
9.2622623566
 21
11.2107129552
  0
LINE
  5
338
100
AcDbEntity
  8
0
100
AcDbLine
 62
7
  6
CONTINUOUS
 10
12.7377376434
 20
6.2210980164
 11
13.1259658907
 21
6.5960977292
  0
LINE
  5
339
100
AcDbEntity
  8
0
100
AcDbLine
 62
7
  6
CONTINUOUS
 10
12.4882090044
 20
5.8812215247
 11
12.4575349939
 21
5.8660691508
  0
ARC
  5
33A
100
AcDbEntity
  8
0
100
AcDbCircle
 62
7
  6
CONTINUOUS
 10
11.9769654061
 20
8.0230882256
 40
2.210103635
100
AcDbArc
 50
273.2665005552
 51
274.6677615151
  0
ARC
  5
33B
100
AcDbEntity
  8
0
100
AcDbCircle
 62
7
  6
CONTINUOUS
 10
11.9769654061
 20
8.4074916669
 40
2.210103635
100
AcDbArc
 50
273.2665005552
 51
274.6677615151
  0
ARC
  5
33C
100
AcDbEntity
  8
0
100
AcDbCircle
 62
7
  6
CONTINUOUS
 10
11.7569908326
 20
7.168455783
 40
0.9538158545
100
AcDbArc
 50
254.2644742826
 51
256.7139235525
  0
ARC
  5
33D
100
AcDbEntity
  8
0
100
AcDbCircle
 62
7
  6
CONTINUOUS
 10
11.7569908326
 20
6.7840523417
 40
0.9538158545
100
AcDbArc
 50
254.2644742826
 51
256.7139235525
  0
ARC
  5
33E
100
AcDbEntity
  8
0
100
AcDbCircle
 62
7
  6
CONTINUOUS
 10
12.1493280027
 20
6.5661167258
 40
0.7641475746
100
AcDbArc
 50
293.7608747297
 51
296.3085175792
  0
ARC
  5
33F
100
AcDbEntity
  8
0
100
AcDbCircle
 62
7
  6
CONTINUOUS
 10
10.6939029844
 20
7.5964184162
 40
0.1407402118
100
AcDbArc
 50
220.4030436288
 51
221.5194997897
  0
SPLINE
  5
340
100
AcDbEntity
  8
0
100
AcDbSpline
 62
7
  6
CONTINUOUS
 70
0
 71
3
 72
9
 73
5
 74
0
 42
0.0000001
 43
0.0000001
 44
0.0000000001
 40
0.0
 40
0.0
 40
0.0
 40
0.0
 40
0.2426770998
 40
1.0
 40
1.0
 40
1.0
 40
1.0
 10
12.5783228937
 20
5.9343213648
 30
0.0
 10
12.5777147032
 20
5.9337338979
 30
0.0
 10
12.5751816518
 20
5.9313410168
 30
0.0
 10
12.5725459381
 20
5.9290575472
 30
0.0
 10
12.570505136
 20
5.9273846809
 30
0.0
  0
SPLINE
  5
341
100
AcDbEntity
  8
0
100
AcDbSpline
 62
7
  6
CONTINUOUS
 70
0
 71
3
 72
9
 73
5
 74
0
 42
0.0000001
 43
0.0000001
 44
0.0000000001
 40
0.0
 40
0.0
 40
0.0
 40
0.0
 40
0.2426666479
 40
1.0
 40
1.0
 40
1.0
 40
1.0
 10
12.5849531604
 20
5.9413404016
 30
0.0
 10
12.5844455325
 20
5.9407466286
 30
0.0
 10
12.5823218367
 20
5.9383270442
 30
0.0
 10
12.5800764283
 20
5.9360151493
 30
0.0
 10
12.5783228937
 20
5.9343213648
 30
0.0
  0
SPLINE
  5
342
100
AcDbEntity
  8
0
100
AcDbSpline
 62
7
  6
CONTINUOUS
 70
0
 71
3
 72
9
 73
5
 74
0
 42
0.0000001
 43
0.0000001
 44
0.0000000001
 40
0.0
 40
0.0
 40
0.0
 40
0.0
 40
0.504378312
 40
1.0
 40
1.0
 40
1.0
 40
1.0
 10
12.570505136
 20
5.9273846809
 30
0.0
 10
12.5570013857
 20
5.9189758271
 30
0.0
 10
12.5298885483
 20
5.9028411711
 30
0.0
 10
12.5020157518
 20
5.8880439763
 30
0.0
 10
12.4880016139
 20
5.881119134
 30
0.0
  0
SPLINE
  5
343
100
AcDbEntity
  8
0
100
AcDbSpline
 62
7
  6
CONTINUOUS
 70
0
 71
3
 72
23
 73
19
 74
0
 42
0.0000001
 43
0.0000001
 44
0.0000000001
 40
0.0
 40
0.0
 40
0.0
 40
0.0
 40
0.0436203086
 40
0.0892268542
 40
0.137068591
 40
0.187353676
 40
0.2402538462
 40
0.2958872461
 40
0.3543311569
 40
0.4156094827
 40
0.4797102731
 40
0.5465788188
 40
0.6161346312
 40
0.6882694307
 40
0.7628606873
 40
0.8397744221
 40
0.9188692703
 40
1.0
 40
1.0
 40
1.0
 40
1.0
 10
11.4553071169
 20
5.8754595933
 30
0.0
 10
11.4529971813
 20
5.8766001619
 30
0.0
 10
11.4483600576
 20
5.8791152583
 30
0.0
 10
11.4415327681
 20
5.8834763104
 30
0.0
 10
11.4346963793
 20
5.8885185969
 30
0.0
 10
11.4278548296
 20
5.8942495292
 30
0.0
 10
11.4210137313
 20
5.9006731801
 30
0.0
 10
11.4141761908
 20
5.9077847525
 30
0.0
 10
11.4073479317
 20
5.9155755645
 30
0.0
 10
11.4005316876
 20
5.9240289669
 30
0.0
 10
11.3937325191
 20
5.9331248728
 30
0.0
 10
11.3869526689
 20
5.9428372548
 30
0.0
 10
11.380196002
 20
5.9531378029
 30
0.0
 10
11.3734641149
 20
5.9639947569
 30
0.0
 10
11.366759398
 20
5.9753756105
 30
0.0
 10
11.3600827487
 20
5.9872466929
 30
0.0
 10
11.3534352563
 20
5.999574532
 30
0.0
 10
11.3490761383
 20
6.007973949
 30
0.0
 10
11.3468986067
 20
6.0122420819
 30
0.0
  0
SPLINE
  5
344
100
AcDbEntity
  8
0
100
AcDbSpline
 62
7
  6
CONTINUOUS
 70
0
 71
3
 72
47
 73
43
 74
0
 42
0.0000001
 43
0.0000001
 44
0.0000000001
 40
0.0
 40
0.0
 40
0.0
 40
0.0
 40
0.0099874638
 40
0.0204476834
 40
0.0313771515
 40
0.0427708334
 40
0.0546218702
 40
0.0669225517
 40
0.0796641282
 40
0.0928362942
 40
0.1204271347
 40
0.1495984091
 40
0.1802407165
 40
0.2122338314
 40
0.2454489836
 40
0.2797497839
 40
0.3149929168
 40
0.3510298084
 40
0.3877071885
 40
0.4248680172
 40
0.4623527228
 40
0.4999997959
 40
0.5376468789
 40
0.575131606
 40
0.6122924455
 40
0.6489698269
 40
0.6850067267
 40
0.7202498875
 40
0.7545507276
 40
0.7877659112
 40
0.8197590481
 40
0.8504013805
 40
0.8795726993
 40
0.9071635849
 40
0.9203357726
 40
0.933077377
 40
0.9453780958
 40
0.9572291635
 40
0.968622847
 40
0.9795522717
 40
0.9900124597
 40
1.0
 40
1.0
 40
1.0
 40
1.0
 10
12.4575388793
 20
5.8660711055
 30
0.0
 10
12.4545483449
 20
5.8645938277
 30
0.0
 10
12.4483746385
 20
5.8616719119
 30
0.0
 10
12.4387724401
 20
5.8574724682
 30
0.0
 10
12.428624262
 20
5.8533596335
 30
0.0
 10
12.4179418141
 20
5.8493384237
 30
0.0
 10
12.4067374384
 20
5.8454131185
 30
0.0
 10
12.3950239377
 20
5.8415883993
 30
0.0
 10
12.3828146818
 20
5.8378688286
 30
0.0
 10
12.3656268529
 20
5.8329792968
 30
0.0
 10
12.3429965407
 20
5.8271838153
 30
0.0
 10
12.3145052623
 20
5.820815143
 30
0.0
 10
12.2844052134
 20
5.8149596191
 30
0.0
 10
12.2528352071
 20
5.8096442774
 30
0.0
 10
12.2199405492
 20
5.8048941211
 30
0.0
 10
12.1858728981
 20
5.8007315889
 30
0.0
 10
12.1507894395
 20
5.7971758609
 30
0.0
 10
12.1148521187
 20
5.7942436906
 30
0.0
 10
12.0782268578
 20
5.7919489059
 30
0.0
 10
12.0410828253
 20
5.7903019585
 30
0.0
 10
12.0035916013
 20
5.7893107224
 30
0.0
 10
11.9659263611
 20
5.7889798659
 30
0.0
 10
11.9282611135
 20
5.7893107057
 30
0.0
 10
11.8907698751
 20
5.7903019257
 30
0.0
 10
11.8536258306
 20
5.7919488564
 30
0.0
 10
11.8170005619
 20
5.794243625
 30
0.0
 10
11.7810632271
 20
5.7971757784
 30
0.0
 10
11.7459797416
 20
5.8007314919
 30
0.0
 10
11.7119120554
 20
5.8048940093
 30
0.0
 10
11.679017364
 20
5.8096441523
 30
0.0
 10
11.6474473286
 20
5.8149594782
 30
0.0
 10
11.6173472458
 20
5.8208149878
 30
0.0
 10
11.5888559261
 20
5.8271836505
 30
0.0
 10
11.5662255722
 20
5.8329791185
 30
0.0
 10
11.5490377077
 20
5.8378686408
 30
0.0
 10
11.536828421
 20
5.8415882101
 30
0.0
 10
11.5251148888
 20
5.8454129365
 30
0.0
 10
11.5139104894
 20
5.8493382443
 30
0.0
 10
11.5032280387
 20
5.8533594357
 30
0.0
 10
11.4930798666
 20
5.8574722196
 30
0.0
 10
11.4834776507
 20
5.8616716249
 30
0.0
 10
11.4773039295
 20
5.8645935455
 30
0.0
 10
11.4743133764
 20
5.8660708432
 30
0.0
  0
SPLINE
  5
345
100
AcDbEntity
  8
0
100
AcDbSpline
 62
7
  6
CONTINUOUS
 70
0
 71
3
 72
15
 73
11
 74
0
 42
0.0000001
 43
0.0000001
 44
0.0000000001
 40
0.0
 40
0.0
 40
0.0
 40
0.0
 40
0.1299708166
 40
0.2593283487
 40
0.3876617857
 40
0.5145654289
 40
0.6396384778
 40
0.7624890516
 40
0.8827334041
 40
1.0
 40
1.0
 40
1.0
 40
1.0
 10
11.9507047289
 20
6.2755429599
 30
0.0
 10
11.9402539009
 20
6.2756194923
 30
0.0
 10
11.9194023633
 20
6.2759296364
 30
0.0
 10
11.8882429464
 20
6.2768666057
 30
0.0
 10
11.8573479231
 20
6.278271912
 30
0.0
 10
11.8268225764
 20
6.2801402968
 30
0.0
 10
11.7967707793
 20
6.28246583
 30
0.0
 10
11.7672947783
 20
6.2852400441
 30
0.0
 10
11.7384950213
 20
6.2884538492
 30
0.0
 10
11.7195544248
 20
6.2909151751
 30
0.0
 10
11.7102157226
 20
6.2922209292
 30
0.0
  0
SPLINE
  5
346
100
AcDbEntity
  8
0
100
AcDbSpline
 62
7
  6
CONTINUOUS
 70
0
 71
3
 72
10
 73
6
 74
0
 42
0.0000001
 43
0.0000001
 44
0.0000000001
 40
0.0
 40
0.0
 40
0.0
 40
0.0
 40
0.4950633206
 40
0.7463873743
 40
1.0
 40
1.0
 40
1.0
 40
1.0
 10
12.2482381421
 20
6.2553205115
 30
0.0
 10
12.2326782721
 20
6.2478732122
 30
0.0
 10
12.2095876036
 20
6.2358605863
 30
0.0
 10
12.1793607374
 20
6.2185228747
 30
0.0
 10
12.1643201091
 20
6.2093894364
 30
0.0
 10
12.1568186009
 20
6.2047182092
 30
0.0
  0
SPLINE
  5
347
100
AcDbEntity
  8
0
100
AcDbSpline
 62
7
  6
CONTINUOUS
 70
0
 71
3
 72
21
 73
17
 74
0
 42
0.0000001
 43
0.0000001
 44
0.0000000001
 40
0.0
 40
0.0
 40
0.0
 40
0.0
 40
0.1230212981
 40
0.1847065752
 40
0.2465215318
 40
0.3084771567
 40
0.3705832678
 40
0.432847904
 40
0.4952752623
 40
0.5578663069
 40
0.6206183946
 40
0.6835249868
 40
0.7465773451
 40
0.8097643485
 40
0.8730733734
 40
1.0
 40
1.0
 40
1.0
 40
1.0
 10
12.1028977987
 20
5.816575341
 30
0.0
 10
12.0798186176
 20
5.8120279848
 30
0.0
 10
12.0449861761
 20
5.8060555784
 30
0.0
 10
11.9982149611
 20
5.8001454311
 30
0.0
 10
11.9629036525
 20
5.7968182171
 30
0.0
 10
11.9274192097
 20
5.7946838095
 30
0.0
 10
11.8917944887
 20
5.7938130731
 30
0.0
 10
11.8560712772
 20
5.7942619683
 30
0.0
 10
11.8202976555
 20
5.7960639671
 30
0.0
 10
11.7845251293
 20
5.799227253
 30
0.0
 10
11.7488051893
 20
5.8037362036
 30
0.0
 10
11.713185576
 20
5.8095504454
 30
0.0
 10
11.6777074365
 20
5.8166081594
 30
0.0
 10
11.6424032457
 20
5.8248338491
 30
0.0
 10
11.5955593196
 20
5.8372534012
 30
0.0
 10
11.5607989099
 20
5.8480411955
 30
0.0
 10
11.5377913241
 20
5.8557656081
 30
0.0
  0
SPLINE
  5
348
100
AcDbEntity
  8
0
100
AcDbSpline
 62
7
  6
CONTINUOUS
 70
0
 71
3
 72
21
 73
17
 74
0
 42
0.0000001
 43
0.0000001
 44
0.0000000001
 40
0.0
 40
0.0
 40
0.0
 40
0.0
 40
0.1269266266
 40
0.1902356515
 40
0.253422655
 40
0.3164750132
 40
0.3793816055
 40
0.4421336932
 40
0.5047247377
 40
0.567152096
 40
0.6294167323
 40
0.6915228434
 40
0.7534784683
 40
0.8152934248
 40
0.8769787019
 40
1.0
 40
1.0
 40
1.0
 40
1.0
 10
12.1028977987
 20
6.2009787823
 30
0.0
 10
12.0798902129
 20
6.2087031948
 30
0.0
 10
12.0451298032
 20
6.2194909892
 30
0.0
 10
11.998285877
 20
6.2319105412
 30
0.0
 10
11.9629816862
 20
6.2401362309
 30
0.0
 10
11.9275035467
 20
6.247193945
 30
0.0
 10
11.8918839334
 20
6.2530081868
 30
0.0
 10
11.8561639934
 20
6.2575171374
 30
0.0
 10
11.8203914672
 20
6.2606804233
 30
0.0
 10
11.7846178455
 20
6.262482422
 30
0.0
 10
11.748894634
 20
6.2629313172
 30
0.0
 10
11.713269913
 20
6.2620605809
 30
0.0
 10
11.6777854702
 20
6.2599261733
 30
0.0
 10
11.6424741616
 20
6.2565989593
 30
0.0
 10
11.5957029466
 20
6.2506888119
 30
0.0
 10
11.5608705051
 20
6.2447164055
 30
0.0
 10
11.5377913241
 20
6.2401690494
 30
0.0
  0
SPLINE
  5
349
100
AcDbEntity
  8
0
100
AcDbSpline
 62
7
  6
CONTINUOUS
 70
0
 71
3
 72
11
 73
7
 74
0
 42
0.0000001
 43
0.0000001
 44
0.0000000001
 40
0.0
 40
0.0
 40
0.0
 40
0.0
 40
0.2465919593
 40
0.494712682
 40
0.7454424776
 40
1.0
 40
1.0
 40
1.0
 40
1.0
 10
11.4983185462
 20
5.8659819018
 30
0.0
 10
11.4963761333
 20
5.8659270672
 30
0.0
 10
11.4924748236
 20
5.8659344136
 30
0.0
 10
11.4866091323
 20
5.8663179355
 30
0.0
 10
11.4807190603
 20
5.8670962178
 30
0.0
 10
11.4768126032
 20
5.8678857657
 30
0.0
 10
11.4748611581
 20
5.8683502271
 30
0.0
  0
SPLINE
  5
34A
100
AcDbEntity
  8
0
100
AcDbSpline
 62
7
  6
CONTINUOUS
 70
0
 71
3
 72
10
 73
6
 74
0
 42
0.0000001
 43
0.0000001
 44
0.0000000001
 40
0.0
 40
0.0
 40
0.0
 40
0.0
 40
0.2418255986
 40
0.4885199497
 40
1.0
 40
1.0
 40
1.0
 40
1.0
 10
11.4748611581
 20
5.8683502271
 30
0.0
 10
11.4732266407
 20
5.8687392568
 30
0.0
 10
11.4699463303
 20
5.8696201174
 30
0.0
 10
11.46334743
 20
5.8718024227
 30
0.0
 10
11.4584935516
 20
5.873886239
 30
0.0
 10
11.4553071169
 20
5.8754595933
 30
0.0
  0
SPLINE
  5
34B
100
AcDbEntity
  8
0
100
AcDbSpline
 62
7
  6
CONTINUOUS
 70
0
 71
3
 72
11
 73
7
 74
0
 42
0.0000001
 43
0.0000001
 44
0.0000000001
 40
0.0
 40
0.0
 40
0.0
 40
0.0
 40
0.2633952514
 40
0.5183435581
 40
0.764111363
 40
1.0
 40
1.0
 40
1.0
 40
1.0
 10
11.4983185462
 20
6.2503853431
 30
0.0
 10
11.4956020597
 20
6.25570987
 30
0.0
 10
11.490165262
 20
6.2661421798
 30
0.0
 10
11.4818390947
 20
6.2813546657
 30
0.0
 10
11.4734686344
 20
6.2958263088
 30
0.0
 10
11.4677371574
 20
6.3051360485
 30
0.0
 10
11.4648566368
 20
6.3096482032
 30
0.0
  0
LINE
  5
34C
100
AcDbEntity
  8
0
100
AcDbLine
 62
7
  6
CONTINUOUS
 10
12.4572186557
 20
5.8667421041
 11
12.4564895417
 21
5.8664222164
  0
SPLINE
  5
34D
100
AcDbEntity
  8
0
100
AcDbSpline
 62
7
  6
CONTINUOUS
 70
0
 71
3
 72
15
 73
11
 74
0
 42
0.0000001
 43
0.0000001
 44
0.0000000001
 40
0.0
 40
0.0
 40
0.0
 40
0.0
 40
0.1321602046
 40
0.2618009952
 40
0.3890353631
 40
0.5141096583
 40
0.6373677171
 40
0.75919507
 40
0.8799649792
 40
1.0
 40
1.0
 40
1.0
 40
1.0
 10
12.4564895417
 20
5.8664222164
 30
0.0
 10
12.4441084383
 20
5.8609984743
 30
0.0
 10
12.4192676744
 20
5.8509514851
 30
0.0
 10
12.3814736113
 20
5.8384180478
 30
0.0
 10
12.3436028418
 20
5.8287007582
 30
0.0
 10
12.3057764662
 20
5.821832254
 30
0.0
 10
12.2681090803
 20
5.8177324255
 30
0.0
 10
12.2306934983
 20
5.8162257377
 30
0.0
 10
12.1935926617
 20
5.8170725854
 30
0.0
 10
12.1690282422
 20
5.8190319353
 30
0.0
 10
12.1568186009
 20
5.8203147679
 30
0.0
  0
SPLINE
  5
34E
100
AcDbEntity
  8
0
100
AcDbSpline
 62
7
  6
CONTINUOUS
 70
0
 71
3
 72
18
 73
14
 74
0
 42
0.0000001
 43
0.0000001
 44
0.0000000001
 40
0.0
 40
0.0
 40
0.0
 40
0.0
 40
0.1504680185
 40
0.2917144324
 40
0.4244425615
 40
0.4879099171
 40
0.5496094205
 40
0.6682625585
 40
0.7817882768
 40
0.8371379945
 40
0.8918078237
 40
0.9460192726
 40
1.0
 40
1.0
 40
1.0
 40
1.0
 10
12.931851767
 20
10.7475369416
 30
0.0
 10
12.9332427028
 20
10.7488804824
 30
0.0
 10
12.9360226888
 20
10.7514013564
 30
0.0
 10
12.9403272012
 20
10.7547607298
 30
0.0
 10
12.9439630978
 20
10.7571366525
 30
0.0
 10
12.946862402
 20
10.7587455536
 30
0.0
 10
12.9496764118
 20
10.7601268415
 30
0.0
 10
12.9531948151
 20
10.7615225859
 30
0.0
 10
12.9567758062
 20
10.7624750452
 30
0.0
 10
12.9596120574
 20
10.7629442354
 30
0.0
 10
12.9617141112
 20
10.7631524697
 30
0.0
 10
12.9638076618
 20
10.7632197099
 30
0.0
 10
12.9651985646
 20
10.7631705006
 30
0.0
 10
12.9658906775
 20
10.7631224986
 30
0.0
  0
SPLINE
  5
34F
100
AcDbEntity
  8
0
100
AcDbSpline
 62
7
  6
CONTINUOUS
 70
0
 71
3
 72
19
 73
15
 74
0
 42
0.0000001
 43
0.0000001
 44
0.0000000001
 40
0.0
 40
0.0
 40
0.0
 40
0.0
 40
0.1504607152
 40
0.2916988954
 40
0.4244197706
 40
0.4878838785
 40
0.549580297
 40
0.6682271827
 40
0.7255606102
 40
0.7817998481
 40
0.8371466355
 40
0.8918135538
 40
0.9460221503
 40
1.0
 40
1.0
 40
1.0
 40
1.0
 10
12.931851767
 20
9.3334214131
 30
0.0
 10
12.9335197613
 20
9.3350325719
 30
0.0
 10
12.9368534653
 20
9.3380555671
 30
0.0
 10
12.9420153787
 20
9.3420840607
 30
0.0
 10
12.9463754365
 20
9.3449332264
 30
0.0
 10
12.9498522953
 20
9.3468625997
 30
0.0
 10
12.9532265848
 20
9.3485189955
 30
0.0
 10
12.9566403777
 20
9.349872956
 30
0.0
 10
12.9600733798
 20
9.3508918087
 30
0.0
 10
12.9626116487
 20
9.3514790715
 30
0.0
 10
12.965141465
 20
9.3518976517
 30
0.0
 10
12.9676621646
 20
9.3521473253
 30
0.0
 10
12.9701727271
 20
9.3522279909
 30
0.0
 10
12.9718406725
 20
9.3521689905
 30
0.0
 10
12.9726706426
 20
9.352111429
 30
0.0
  0
SPLINE
  5
350
100
AcDbEntity
  8
0
100
AcDbSpline
 62
7
  6
CONTINUOUS
 70
0
 71
3
 72
21
 73
17
 74
0
 42
0.0000001
 43
0.0000001
 44
0.0000000001
 40
0.0
 40
0.0
 40
0.0
 40
0.0
 40
0.1273176984
 40
0.2537999461
 40
0.3167619614
 40
0.3795355204
 40
0.4421314992
 40
0.5045621453
 40
0.5668413456
 40
0.6289845231
 40
0.6910084433
 40
0.7529310869
 40
0.8147714401
 40
0.8765493236
 40
0.9382852134
 40
1.0
 40
1.0
 40
1.0
 40
1.0
 10
11.7341406504
 20
9.6115508568
 30
0.0
 10
11.7341406504
 20
9.6050524344
 30
0.0
 10
11.7335203326
 20
9.5920898667
 30
0.0
 10
11.7311775666
 20
9.5760653349
 30
0.0
 10
11.7283774645
 20
9.5634954929
 30
0.0
 10
11.7258239175
 20
9.5542239713
 30
0.0
 10
11.7228198222
 20
9.5451172
 30
0.0
 10
11.7193721046
 20
9.5361959133
 30
0.0
 10
11.7154887135
 20
9.5274807448
 30
0.0
 10
11.7111785251
 20
9.5189918087
 30
0.0
 10
11.7064515103
 20
9.5107486731
 30
0.0
 10
11.7013185705
 20
9.5027703354
 30
0.0
 10
11.6957914935
 20
9.4950752573
 30
0.0
 10
11.6898829913
 20
9.4876811116
 30
0.0
 10
11.6836069519
 20
9.480605156
 30
0.0
 10
11.6791866534
 20
9.4761100924
 30
0.0
 10
11.6769210061
 20
9.4739216584
 30
0.0
  0
SPLINE
  5
351
100
AcDbEntity
  8
0
100
AcDbSpline
 62
7
  6
CONTINUOUS
 70
0
 71
3
 72
21
 73
17
 74
0
 42
0.0000001
 43
0.0000001
 44
0.0000000001
 40
0.0
 40
0.0
 40
0.0
 40
0.0
 40
0.1273176984
 40
0.2537999461
 40
0.3167619614
 40
0.3795355204
 40
0.4421314992
 40
0.5045621453
 40
0.5668413456
 40
0.6289845231
 40
0.6910084433
 40
0.7529310869
 40
0.8147714401
 40
0.8765493236
 40
0.9382852134
 40
1.0
 40
1.0
 40
1.0
 40
1.0
 10
10.6474740315
 20
6.7282804966
 30
0.0
 10
10.6474740315
 20
6.7217820742
 30
0.0
 10
10.6468537136
 20
6.7088195065
 30
0.0
 10
10.6445109476
 20
6.6927949746
 30
0.0
 10
10.6417108455
 20
6.6802251327
 30
0.0
 10
10.6391572986
 20
6.6709536111
 30
0.0
 10
10.6361532032
 20
6.6618468398
 30
0.0
 10
10.6327054856
 20
6.6529255531
 30
0.0
 10
10.6288220946
 20
6.6442103846
 30
0.0
 10
10.6245119061
 20
6.6357214484
 30
0.0
 10
10.6197848913
 20
6.6274783129
 30
0.0
 10
10.6146519515
 20
6.6194999752
 30
0.0
 10
10.6091248745
 20
6.6118048971
 30
0.0
 10
10.6032163723
 20
6.6044107514
 30
0.0
 10
10.596940333
 20
6.5973347958
 30
0.0
 10
10.5925200345
 20
6.5928397321
 30
0.0
 10
10.5902543871
 20
6.5906512982
 30
0.0
  0
SPLINE
  5
352
100
AcDbEntity
  8
0
100
AcDbSpline
 62
7
  6
CONTINUOUS
 70
0
 71
3
 72
38
 73
34
 74
0
 42
0.0000001
 43
0.0000001
 44
0.0000000001
 40
0.0
 40
0.0
 40
0.0
 40
0.0
 40
0.0316767828
 40
0.0631676526
 40
0.0944832012
 40
0.1256418078
 40
0.1566689157
 40
0.1875958499
 40
0.2184583056
 40
0.2492948699
 40
0.280145572
 40
0.3110505584
 40
0.3420489378
 40
0.3731777139
 40
0.4044707529
 40
0.4359577616
 40
0.4995813444
 40
0.5317630384
 40
0.5641813599
 40
0.596815421
 40
0.6296248578
 40
0.6625464078
 40
0.6954917194
 40
0.7283475761
 40
0.7609802495
 40
0.7932443381
 40
0.8249957843
 40
0.8561067689
 40
0.8864789805
 40
0.9160527565
 40
0.9448103213
 40
0.9727738435
 40
1.0
 40
1.0
 40
1.0
 40
1.0
 10
10.5885265425
 20
7.5031252615
 30
0.0
 10
10.5886193714
 20
7.4988392141
 30
0.0
 10
10.5891216074
 20
7.4902956274
 30
0.0
 10
10.5908268759
 20
7.4776111996
 30
0.0
 10
10.5934633755
 20
7.4651582119
 30
0.0
 10
10.5970034873
 20
7.452997183
 30
0.0
 10
10.6014122632
 20
7.4411799056
 30
0.0
 10
10.6066493822
 20
7.4297502815
 30
0.0
 10
10.6126711774
 20
7.4187439021
 30
0.0
 10
10.6194324719
 20
7.408188631
 30
0.0
 10
10.6268881349
 20
7.3981054216
 30
0.0
 10
10.6349942362
 20
7.388509406
 30
0.0
 10
10.6437088835
 20
7.3794110408
 30
0.0
 10
10.6529924278
 20
7.3708174114
 30
0.0
 10
10.6628082659
 20
7.3627329001
 30
0.0
 10
10.6766032235
 20
7.3526044133
 30
0.0
 10
10.6912975584
 20
7.3435415377
 30
0.0
 10
10.7067111225
 20
7.3355583886
 30
0.0
 10
10.718681348
 20
7.330078584
 30
0.0
 10
10.7309758292
 20
7.3251405556
 30
0.0
 10
10.7435506553
 20
7.3207562692
 30
0.0
 10
10.75635341
 20
7.3169407376
 30
0.0
 10
10.7693227575
 20
7.3137107774
 30
0.0
 10
10.7823877693
 20
7.3110840299
 30
0.0
 10
10.7954691233
 20
7.3090773241
 30
0.0
 10
10.8084820405
 20
7.3077048806
 30
0.0
 10
10.8213408398
 20
7.3069766801
 30
0.0
 10
10.8339642617
 20
7.3068974303
 30
0.0
 10
10.8462804548
 20
7.3074664275
 30
0.0
 10
10.8582303625
 20
7.3086782726
 30
0.0
 10
10.8697694189
 20
7.3105243594
 30
0.0
 10
10.8808659034
 20
7.3129941632
 30
0.0
 10
10.8880456258
 20
7.3150757599
 30
0.0
 10
10.891548447
 20
7.3162191669
 30
0.0
  0
SPLINE
  5
353
100
AcDbEntity
  8
0
100
AcDbSpline
 62
7
  6
CONTINUOUS
 70
0
 71
3
 72
21
 73
17
 74
0
 42
0.0000001
 43
0.0000001
 44
0.0000000001
 40
0.0
 40
0.0
 40
0.0
 40
0.0
 40
0.1273177382
 40
0.253799893
 40
0.3167619527
 40
0.3795355237
 40
0.4421314869
 40
0.5045621428
 40
0.5668413495
 40
0.6289845239
 40
0.69100845
 40
0.7529310987
 40
0.8147714472
 40
0.8765493323
 40
0.9382852239
 40
1.0
 40
1.0
 40
1.0
 40
1.0
 10
10.9068140017
 20
7.3923748035
 30
0.0
 10
10.9068140017
 20
7.385876427
 30
0.0
 10
10.9061936979
 20
7.3729139571
 30
0.0
 10
10.903850952
 20
7.3568895444
 30
0.0
 10
10.9010509058
 20
7.3443197895
 30
0.0
 10
10.8984973934
 20
7.3350483295
 30
0.0
 10
10.8954933321
 20
7.3259416215
 30
0.0
 10
10.8920456812
 20
7.3170203849
 30
0.0
 10
10.8881623388
 20
7.3083052705
 30
0.0
 10
10.8838522029
 20
7.2998163866
 30
0.0
 10
10.8791252755
 20
7.2915732813
 30
0.0
 10
10.8739923971
 20
7.2835949863
 30
0.0
 10
10.8684653881
 20
7.2758999464
 30
0.0
 10
10.8625569916
 20
7.2685058053
 30
0.0
 10
10.8562810189
 20
7.2614298844
 30
0.0
 10
10.8518607876
 20
7.2569348206
 30
0.0
 10
10.8495951645
 20
7.2547463957
 30
0.0
  0
SPLINE
  5
354
100
AcDbEntity
  8
0
100
AcDbSpline
 62
7
  6
CONTINUOUS
 70
0
 71
3
 72
43
 73
39
 74
0
 42
0.0000001
 43
0.0000001
 44
0.0000000001
 40
0.0
 40
0.0
 40
0.0
 40
0.0
 40
0.0310745218
 40
0.0466739617
 40
0.0623117346
 40
0.0936962008
 40
0.1252246462
 40
0.156885682
 40
0.1886651184
 40
0.2205463529
 40
0.2525107094
 40
0.2845378393
 40
0.316606137
 40
0.3486931771
 40
0.3807761618
 40
0.4128323741
 40
0.4448396288
 40
0.4767767175
 40
0.508623839
 40
0.5403630095
 40
0.5719784455
 40
0.6034569128
 40
0.6347880329
 40
0.6659645409
 40
0.6969824853
 40
0.7278413639
 40
0.7585441875
 40
0.7890974671
 40
0.8195111175
 40
0.8497982781
 40
0.8649022316
 40
0.8799808239
 40
0.9100659163
 40
0.9400802375
 40
0.9550708207
 40
0.9700522994
 40
0.9850276796
 40
1.0
 40
1.0
 40
1.0
 40
1.0
 10
10.9068140017
 20
7.3923748035
 30
0.0
 10
10.9068140017
 20
7.3974256503
 30
0.0
 10
10.9065316678
 20
7.4050158398
 30
0.0
 10
10.9055992339
 20
7.4151025564
 30
0.0
 10
10.9042927111
 20
7.4251989367
 30
0.0
 10
10.9019636625
 20
7.4377646152
 30
0.0
 10
10.8980788314
 20
7.4526509517
 30
0.0
 10
10.893121865
 20
7.4672834393
 30
0.0
 10
10.8871201551
 20
7.4815812739
 30
0.0
 10
10.8801067419
 20
7.4954661234
 30
0.0
 10
10.8721202106
 20
7.508861763
 30
0.0
 10
10.8632044613
 20
7.5216947008
 30
0.0
 10
10.8534084734
 20
7.5338945188
 30
0.0
 10
10.8427860377
 20
7.5453942703
 30
0.0
 10
10.8313954643
 20
7.5561308391
 30
0.0
 10
10.8192992652
 20
7.5660452833
 30
0.0
 10
10.8065638149
 20
7.5750831557
 30
0.0
 10
10.7932589908
 20
7.5831948
 30
0.0
 10
10.7794577936
 20
7.5903356219
 30
0.0
 10
10.7652359523
 20
7.596466332
 30
0.0
 10
10.7506715139
 20
7.601553162
 30
0.0
 10
10.7358444216
 20
7.6055680505
 30
0.0
 10
10.7208360815
 20
7.6084887994
 30
0.0
 10
10.7057289219
 20
7.6102991989
 30
0.0
 10
10.6906059501
 20
7.6109891239
 30
0.0
 10
10.6755502861
 20
7.6105545887
 30
0.0
 10
10.6606447701
 20
7.6089978063
 30
0.0
 10
10.6459712835
 20
7.6063270803
 30
0.0
 10
10.6316111382
 20
7.6025571615
 30
0.0
 10
10.6199584925
 20
7.5985120488
 30
0.0
 10
10.6108757964
 20
7.5947502424
 30
0.0
 10
10.6019769781
 20
7.5906498198
 30
0.0
 10
10.5911871203
 20
7.5848861091
 30
0.0
 10
10.5808974933
 20
7.5782966647
 30
0.0
 10
10.5730118993
 20
7.5725586498
 30
0.0
 10
10.5672781536
 20
7.5680278923
 30
0.0
 10
10.5617312174
 20
7.5632751601
 30
0.0
 10
10.5581624923
 20
7.5599625388
 30
0.0
 10
10.5564121161
 20
7.5582718043
 30
0.0
  0
SPLINE
  5
355
100
AcDbEntity
  8
0
100
AcDbSpline
 62
7
  6
CONTINUOUS
 70
0
 71
3
 72
72
 73
68
 74
0
 42
0.0000001
 43
0.0000001
 44
0.0000000001
 40
0.0
 40
0.0
 40
0.0
 40
0.0
 40
0.0038007381
 40
0.007741717
 40
0.0118259762
 40
0.0160561861
 40
0.0204346248
 40
0.0249631083
 40
0.0296429507
 40
0.034475139
 40
0.0445982624
 40
0.0553349859
 40
0.0666830763
 40
0.0786369214
 40
0.0911880266
 40
0.1043253873
 40
0.1180357756
 40
0.1323040022
 40
0.1471131281
 40
0.162444632
 40
0.1782785371
 40
0.1945935439
 40
0.2113671532
 40
0.2285757639
 40
0.2461947509
 40
0.2641985494
 40
0.2825607465
 40
0.3012541554
 40
0.3202508788
 40
0.339522374
 40
0.3787721111
 40
0.4187655094
 40
0.459257996
 40
0.5000010196
 40
0.5407440307
 40
0.5812364821
 40
0.6212298196
 40
0.6604794759
 40
0.6797509194
 40
0.6987475868
 40
0.7174409382
 40
0.7358030696
 40
0.7538067944
 40
0.7714257037
 40
0.7886342371
 40
0.8054077625
 40
0.8217226764
 40
0.8375564847
 40
0.8528878938
 40
0.8676969213
 40
0.8819650398
 40
0.8956753162
 40
0.9088125679
 40
0.9213635649
 40
0.9333172929
 40
0.9446652617
 40
0.9554018688
 40
0.9605403345
 40
0.9655254594
 40
0.9703575751
 40
0.9750373564
 40
0.9795657872
 40
0.983944203
 40
0.9881743821
 40
0.9922585089
 40
0.996199292
 40
1.0
 40
1.0
 40
1.0
 40
1.0
 10
11.2630447083
 20
10.8693495332
 30
0.0
 10
11.2618460399
 20
10.8682340861
 30
0.0
 10
11.2593589368
 20
10.8660105505
 30
0.0
 10
11.2554389319
 20
10.8627548377
 30
0.0
 10
11.2512645784
 20
10.8595205713
 30
0.0
 10
11.2468377404
 20
10.856309117
 30
0.0
 10
11.2421601611
 20
10.8531216987
 30
0.0
 10
11.2372337038
 20
10.8499596034
 30
0.0
 10
11.2320603812
 20
10.8468240197
 30
0.0
 10
11.2247221128
 20
10.8426150451
 30
0.0
 10
11.2149338206
 20
10.8374401327
 30
0.0
 10
11.2024149275
 20
10.8314492091
 30
0.0
 10
11.1889673418
 20
10.8255942075
 30
0.0
 10
11.1746130362
 20
10.8198847325
 30
0.0
 10
11.1593752322
 20
10.8143301383
 30
0.0
 10
11.1432787701
 20
10.8089395951
 30
0.0
 10
11.1263499488
 20
10.8037220006
 30
0.0
 10
11.1086164942
 20
10.7986859857
 30
0.0
 10
11.0901074849
 20
10.7938398925
 30
0.0
 10
11.0708533048
 20
10.7891917598
 30
0.0
 10
11.0508855969
 20
10.7847492884
 30
0.0
 10
11.0302372031
 20
10.7805198357
 30
0.0
 10
11.0089420968
 20
10.7765104114
 30
0.0
 10
10.9870353256
 20
10.7727276662
 30
0.0
 10
10.9645529596
 20
10.769177869
 30
0.0
 10
10.9415320309
 20
10.7658668932
 30
0.0
 10
10.9180104602
 20
10.7628002208
 30
0.0
 10
10.8940270059
 20
10.759982942
 30
0.0
 10
10.8696211517
 20
10.7574196973
 30
0.0
 10
10.8363686623
 20
10.7543277693
 30
0.0
 10
10.7940439108
 20
10.7511377895
 30
0.0
 10
10.7425296363
 20
10.7484014713
 30
0.0
 10
10.6903254471
 20
10.7467523642
 30
0.0
 10
10.6377752788
 20
10.7462014766
 30
0.0
 10
10.5852251267
 20
10.7467524705
 30
0.0
 10
10.5330209874
 20
10.7484016795
 30
0.0
 10
10.481506795
 20
10.7511381056
 30
0.0
 10
10.439182133
 20
10.7543281648
 30
0.0
 10
10.4059297318
 20
10.7574201644
 30
0.0
 10
10.3815239544
 20
10.7599834591
 30
0.0
 10
10.3575405829
 20
10.7628007813
 30
0.0
 10
10.334019104
 20
10.7658675016
 30
0.0
 10
10.3109982768
 20
10.7691785259
 30
0.0
 10
10.2885160179
 20
10.7727283704
 30
0.0
 10
10.266609358
 20
10.7765111552
 30
0.0
 10
10.2453143709
 20
10.7805206214
 30
0.0
 10
10.2246661065
 20
10.7847501181
 30
0.0
 10
10.2046985337
 20
10.7891926321
 30
0.0
 10
10.1854444907
 20
10.7938408004
 30
0.0
 10
10.1669356245
 20
10.798686928
 30
0.0
 10
10.1492023229
 20
10.803722981
 30
0.0
 10
10.1322736624
 20
10.8089406121
 30
0.0
 10
10.1161773562
 20
10.8143311871
 30
0.0
 10
10.100939729
 20
10.8198858044
 30
0.0
 10
10.0865855469
 20
10.825595319
 30
0.0
 10
10.0731383125
 20
10.8314503227
 30
0.0
 10
10.0625565352
 20
10.8365141733
 30
0.0
 10
10.0545716929
 20
10.8406389306
 30
0.0
 10
10.0489111588
 20
10.8437175241
 30
0.0
 10
10.0434931851
 20
10.8468252342
 30
0.0
 10
10.038319957
 20
10.8499607898
 30
0.0
 10
10.0333935831
 20
10.8531229138
 30
0.0
 10
10.0287160866
 20
10.85631037
 30
0.0
 10
10.0242893444
 20
10.8595218204
 30
0.0
 10
10.0201151576
 20
10.8627560494
 30
0.0
 10
10.0161952974
 20
10.8660116945
 30
0.0
 10
10.0137082973
 20
10.8682352
 30
0.0
 10
10.0125096585
 20
10.8693506598
 30
0.0
  0
SPLINE
  5
356
100
AcDbEntity
  8
0
100
AcDbSpline
 62
7
  6
CONTINUOUS
 70
0
 71
3
 72
15
 73
11
 74
0
 42
0.0000001
 43
0.0000001
 44
0.0000000001
 40
0.0
 40
0.0
 40
0.0
 40
0.0
 40
0.1250878295
 40
0.2499647148
 40
0.3747352885
 40
0.499497508
 40
0.6243393361
 40
0.749332495
 40
0.8745410646
 40
1.0
 40
1.0
 40
1.0
 40
1.0
 10
10.6078960153
 20
7.5933744229
 30
0.0
 10
10.606153985
 20
7.5899788856
 30
0.0
 10
10.6028744912
 20
7.5830878629
 30
0.0
 10
10.5985858769
 20
7.5724828179
 30
0.0
 10
10.5949423559
 20
7.5616492786
 30
0.0
 10
10.591951925
 20
7.5506188578
 30
0.0
 10
10.5896205374
 20
7.5394237111
 30
0.0
 10
10.5879524811
 20
7.5280969024
 30
0.0
 10
10.5869509064
 20
7.5166733872
 30
0.0
 10
10.5867287674
 20
7.5090238387
 30
0.0
 10
10.5867287674
 20
7.5051961907
 30
0.0
  0
SPLINE
  5
357
100
AcDbEntity
  8
0
100
AcDbSpline
 62
7
  6
CONTINUOUS
 70
0
 71
3
 72
42
 73
38
 74
0
 42
0.0000001
 43
0.0000001
 44
0.0000000001
 40
0.0
 40
0.0
 40
0.0
 40
0.0
 40
0.0299419634
 40
0.0449235299
 40
0.0599142017
 40
0.0899287029
 40
0.1200139772
 40
0.1350926626
 40
0.1501967046
 40
0.1804840506
 40
0.2108978877
 40
0.2414513551
 40
0.2721543675
 40
0.3030134354
 40
0.3340315696
 40
0.3652082675
 40
0.3965395775
 40
0.4280182343
 40
0.4596338596
 40
0.4913732188
 40
0.5232205284
 40
0.5551578047
 40
0.5871652463
 40
0.6192216448
 40
0.6513048151
 40
0.6833920402
 40
0.7154605222
 40
0.747487836
 40
0.7794523759
 40
0.8113337934
 40
0.8431134117
 40
0.8747746318
 40
0.9063032512
 40
0.9376879208
 40
0.9533258
 40
0.9689252634
 40
1.0
 40
1.0
 40
1.0
 40
1.0
 10
11.383739572
 20
9.7774486484
 30
0.0
 10
11.3872399937
 20
9.7808297756
 30
0.0
 10
11.3926969619
 20
9.7856965851
 30
0.0
 10
11.4003393229
 20
9.7917352359
 30
0.0
 10
11.4082250548
 20
9.7974733942
 30
0.0
 10
11.4185146382
 20
9.8040626589
 30
0.0
 10
11.4293045074
 20
9.8098263586
 30
0.0
 10
11.4382033531
 20
9.8139266602
 30
0.0
 10
11.4472860229
 20
9.8176884757
 30
0.0
 10
11.4589386765
 20
9.8217334904
 30
0.0
 10
11.4732988056
 20
9.8255033428
 30
0.0
 10
11.4879722751
 20
9.828173993
 30
0.0
 10
11.5028777665
 20
9.8297307073
 30
0.0
 10
11.5179334009
 20
9.8301651782
 30
0.0
 10
11.5330563379
 20
9.8294751944
 30
0.0
 10
11.5481634584
 20
9.8276647417
 30
0.0
 10
11.5631717554
 20
9.8247439456
 30
0.0
 10
11.5779988017
 20
9.8207290163
 30
0.0
 10
11.5925631913
 20
9.815642152
 30
0.0
 10
11.6067849823
 20
9.8095114142
 30
0.0
 10
11.620586128
 20
9.8023705713
 30
0.0
 10
11.6338909003
 20
9.7942589124
 30
0.0
 10
11.6466262991
 20
9.785221032
 30
0.0
 10
11.658722448
 20
9.775306586
 30
0.0
 10
11.6701129728
 20
9.7645700214
 30
0.0
 10
11.6807353621
 20
9.7530702796
 30
0.0
 10
11.6905313067
 20
9.7408704765
 30
0.0
 10
11.6994470161
 20
9.7280375582
 30
0.0
 10
11.7074335114
 20
9.7146419424
 30
0.0
 10
11.7144468925
 20
9.7007571201
 30
0.0
 10
11.7204485759
 20
9.6864593158
 30
0.0
 10
11.725405518
 20
9.6718268614
 30
0.0
 10
11.7292903353
 20
9.6569405576
 30
0.0
 10
11.7316193696
 20
9.6443749033
 30
0.0
 10
11.7329258888
 20
9.6342785524
 30
0.0
 10
11.7338583194
 20
9.624191863
 30
0.0
 10
11.7341406504
 20
9.616601697
 30
0.0
 10
11.7341406504
 20
9.6115508568
 30
0.0
  0
SPLINE
  5
358
100
AcDbEntity
  8
0
100
AcDbSpline
 62
7
  6
CONTINUOUS
 70
0
 71
3
 72
42
 73
38
 74
0
 42
0.0000001
 43
0.0000001
 44
0.0000000001
 40
0.0
 40
0.0
 40
0.0
 40
0.0
 40
0.0299419634
 40
0.0449235299
 40
0.0599142017
 40
0.0899287029
 40
0.1200139772
 40
0.1350926626
 40
0.1501967046
 40
0.1804840506
 40
0.2108978877
 40
0.2414513551
 40
0.2721543675
 40
0.3030134354
 40
0.3340315696
 40
0.3652082675
 40
0.3965395775
 40
0.4280182343
 40
0.4596338596
 40
0.4913732188
 40
0.5232205284
 40
0.5551578047
 40
0.5871652463
 40
0.6192216448
 40
0.6513048151
 40
0.6833920402
 40
0.7154605222
 40
0.747487836
 40
0.7794523759
 40
0.8113337934
 40
0.8431134117
 40
0.8747746318
 40
0.9063032512
 40
0.9376879208
 40
0.9533258
 40
0.9689252634
 40
1.0
 40
1.0
 40
1.0
 40
1.0
 10
10.297072953
 20
6.8941782881
 30
0.0
 10
10.3005733747
 20
6.8975594153
 30
0.0
 10
10.3060303429
 20
6.9024262249
 30
0.0
 10
10.313672704
 20
6.9084648756
 30
0.0
 10
10.3215584358
 20
6.9142030339
 30
0.0
 10
10.3318480192
 20
6.9207922986
 30
0.0
 10
10.3426378884
 20
6.9265559983
 30
0.0
 10
10.3515367342
 20
6.9306563
 30
0.0
 10
10.360619404
 20
6.9344181154
 30
0.0
 10
10.3722720575
 20
6.9384631302
 30
0.0
 10
10.3866321867
 20
6.9422329825
 30
0.0
 10
10.4013056561
 20
6.9449036327
 30
0.0
 10
10.4162111475
 20
6.9464603471
 30
0.0
 10
10.431266782
 20
6.9468948179
 30
0.0
 10
10.4463897189
 20
6.9462048342
 30
0.0
 10
10.4614968394
 20
6.9443943814
 30
0.0
 10
10.4765051365
 20
6.9414735854
 30
0.0
 10
10.4913321827
 20
6.9374586561
 30
0.0
 10
10.5058965724
 20
6.9323717918
 30
0.0
 10
10.5201183633
 20
6.9262410539
 30
0.0
 10
10.533919509
 20
6.919100211
 30
0.0
 10
10.5472242814
 20
6.9109885522
 30
0.0
 10
10.5599596802
 20
6.9019506718
 30
0.0
 10
10.572055829
 20
6.8920362258
 30
0.0
 10
10.5834463538
 20
6.8812996612
 30
0.0
 10
10.5940687432
 20
6.8697999194
 30
0.0
 10
10.6038646878
 20
6.8576001162
 30
0.0
 10
10.6127803971
 20
6.844767198
 30
0.0
 10
10.6207668924
 20
6.8313715821
 30
0.0
 10
10.6277802735
 20
6.8174867599
 30
0.0
 10
10.6337819569
 20
6.8031889555
 30
0.0
 10
10.6387388991
 20
6.7885565012
 30
0.0
 10
10.6426237164
 20
6.7736701974
 30
0.0
 10
10.6449527507
 20
6.7611045431
 30
0.0
 10
10.6462592698
 20
6.7510081922
 30
0.0
 10
10.6471917005
 20
6.7409215027
 30
0.0
 10
10.6474740315
 20
6.7333313368
 30
0.0
 10
10.6474740315
 20
6.7282804966
 30
0.0
  0
SPLINE
  5
359
100
AcDbEntity
  8
0
100
AcDbSpline
 62
7
  6
CONTINUOUS
 70
0
 71
3
 72
80
 73
76
 74
0
 42
0.0000001
 43
0.0000001
 44
0.0000000001
 40
0.0
 40
0.0
 40
0.0
 40
0.0
 40
0.0027164327
 40
0.0054532447
 40
0.0082303176
 40
0.0110666212
 40
0.0139798388
 40
0.016986154
 40
0.0201001347
 40
0.0233346582
 40
0.0267010284
 40
0.0302089968
 40
0.0338669183
 40
0.0376819076
 40
0.0416598906
 40
0.0458058349
 40
0.0501237838
 40
0.0546169826
 40
0.0592880207
 40
0.0641388059
 40
0.0691707482
 40
0.0743847477
 40
0.0853596785
 40
0.0970635549
 40
0.1094903305
 40
0.1226296146
 40
0.1364673135
 40
0.1509861535
 40
0.1661660759
 40
0.1819845508
 40
0.1984168195
 40
0.2154361185
 40
0.2330138792
 40
0.2511198904
 40
0.2697224401
 40
0.2887884373
 40
0.3082835515
 40
0.3281723331
 40
0.348418324
 40
0.368984158
 40
0.3898316649
 40
0.4109219833
 40
0.4536720365
 40
0.4969140898
 40
0.5403224212
 40
0.5835697178
 40
0.6263302119
 40
0.6682828124
 40
0.6888582723
 40
0.7091151075
 40
0.7290159233
 40
0.74852422
 40
0.7676045125
 40
0.7862224423
 40
0.804344885
 40
0.8219400731
 40
0.8389777322
 40
0.8554292445
 40
0.8712678001
 40
0.8864685754
 40
0.9010089485
 40
0.9148687687
 40
0.92803068
 40
0.940480496
 40
0.9522076877
 40
0.9577984663
 40
0.9632066952
 40
0.9684323943
 40
0.9734759977
 40
0.9783383604
 40
0.9830208115
 40
0.987525367
 40
0.9918546057
 40
0.996011597
 40
1.0
 40
1.0
 40
1.0
 40
1.0
 10
12.8978128566
 20
9.7814803152
 30
0.0
 10
12.8968946001
 20
9.7815440015
 30
0.0
 10
12.8950559002
 20
9.781754969
 30
0.0
 10
12.8923212697
 20
9.7823195261
 30
0.0
 10
12.889607294
 20
9.7831320156
 30
0.0
 10
12.8869159318
 20
9.7841917397
 30
0.0
 10
12.8842485595
 20
9.7854977008
 30
0.0
 10
12.8816065332
 20
9.7870488748
 30
0.0
 10
12.8789911114
 20
9.7888442113
 30
0.0
 10
12.8764033974
 20
9.7908824948
 30
0.0
 10
12.8738445645
 20
9.7931626036
 30
0.0
 10
12.871315688
 20
9.7956832553
 30
0.0
 10
12.8688178588
 20
9.7984431307
 30
0.0
 10
12.8663522351
 20
9.8014408663
 30
0.0
 10
12.863919869
 20
9.8046749215
 30
0.0
 10
12.8615219351
 20
9.8081437338
 30
0.0
 10
12.8591595419
 20
9.8118455812
 30
0.0
 10
12.8568337922
 20
9.815778633
 30
0.0
 10
12.8545458599
 20
9.8199409765
 30
0.0
 10
12.852296808
 20
9.8243305285
 30
0.0
 10
12.8500877482
 20
9.8289451432
 30
0.0
 10
12.847146787
 20
9.8355075988
 30
0.0
 10
12.8435902863
 20
9.8442680615
 30
0.0
 10
12.839568844
 20
9.8554661488
 30
0.0
 10
12.8357318913
 20
9.8675006683
 30
0.0
 10
12.8320871498
 20
9.8803476611
 30
0.0
 10
12.8286419696
 20
9.8939817349
 30
0.0
 10
12.8254033375
 20
9.9083757365
 30
0.0
 10
12.8223778345
 20
9.9235009518
 30
0.0
 10
12.8195716212
 20
9.9393271391
 30
0.0
 10
12.8169904067
 20
9.9558226039
 30
0.0
 10
12.8146394395
 20
9.9729542714
 30
0.0
 10
12.8125235053
 20
9.990687768
 30
0.0
 10
12.8106469134
 20
10.0089874959
 30
0.0
 10
12.8090134901
 20
10.0278167025
 30
0.0
 10
12.807626556
 20
10.0471375548
 30
0.0
 10
12.8064889338
 20
10.0669112209
 30
0.0
 10
12.8056029435
 20
10.0870979544
 30
0.0
 10
12.8049703966
 20
10.1076571769
 30
0.0
 10
12.8045925978
 20
10.1285475426
 30
0.0
 10
12.8044702977
 20
10.1497270766
 30
0.0
 10
12.804649162
 20
10.1784235455
 30
0.0
 10
12.8055169828
 20
10.2147015575
 30
0.0
 10
12.8075621962
 20
10.2585047385
 30
0.0
 10
12.8105997766
 20
10.3024192865
 30
0.0
 10
12.8146052855
 20
10.346092334
 30
0.0
 10
12.8195464349
 20
10.3891729497
 30
0.0
 10
12.8244413808
 20
10.424516356
 30
0.0
 10
12.8288042027
 20
10.4522272687
 30
0.0
 10
12.8322621166
 20
10.4725146683
 30
0.0
 10
12.8359198337
 20
10.4923994362
 30
0.0
 10
12.839770011
 20
10.5118416258
 30
0.0
 10
12.8438048669
 20
10.5308021534
 30
0.0
 10
12.8480162531
 20
10.549242925
 30
0.0
 10
12.8523956638
 20
10.5671268968
 30
0.0
 10
12.856934254
 20
10.5844181524
 30
0.0
 10
12.8616228595
 20
10.6010819817
 30
0.0
 10
12.8664519999
 20
10.6170849622
 30
0.0
 10
12.8714119134
 20
10.6323950264
 30
0.0
 10
12.8764925765
 20
10.6469815237
 30
0.0
 10
12.8816837311
 20
10.6608152981
 30
0.0
 10
12.8869749027
 20
10.6738687387
 30
0.0
 10
12.8923554322
 20
10.6861159519
 30
0.0
 10
12.8978144943
 20
10.6975324868
 30
0.0
 10
12.902491626
 20
10.706472511
 30
0.0
 10
12.906271947
 20
10.713182118
 30
0.0
 10
12.9090747522
 20
10.7179123021
 30
0.0
 10
12.9118889967
 20
10.7224185527
 30
0.0
 10
12.9147132875
 20
10.7266986339
 30
0.0
 10
12.9175461877
 20
10.7307504269
 30
0.0
 10
12.9203863658
 20
10.7345719156
 30
0.0
 10
12.9232324198
 20
10.7381612723
 30
0.0
 10
12.9260830449
 20
10.7415167197
 30
0.0
 10
12.9289366759
 20
10.7446364367
 30
0.0
 10
12.9308797167
 20
10.746598013
 30
0.0
 10
12.931851767
 20
10.7475369416
 30
0.0
  0
SPLINE
  5
35A
100
AcDbEntity
  8
0
100
AcDbSpline
 62
7
  6
CONTINUOUS
 70
0
 71
3
 72
62
 73
58
 74
0
 42
0.0000001
 43
0.0000001
 44
0.0000000001
 40
0.0
 40
0.0
 40
0.0
 40
0.0
 40
0.0027657873
 40
0.0055964562
 40
0.0115120409
 40
0.0178632548
 40
0.024737815
 40
0.0322013774
 40
0.040301285
 40
0.0490702537
 40
0.0585293799
 40
0.0686907018
 40
0.0795590649
 40
0.0911333856
 40
0.1034077985
 40
0.1163724521
 40
0.1300139795
 40
0.1443160599
 40
0.1592598041
 40
0.17482393
 40
0.1909850895
 40
0.2077180989
 40
0.2249960062
 40
0.2427903155
 40
0.2610711524
 40
0.2798072992
 40
0.2989663651
 40
0.3384177123
 40
0.3791474593
 40
0.4208646279
 40
0.4632688975
 40
0.5060535371
 40
0.5489083129
 40
0.5915223406
 40
0.6335869622
 40
0.6747985993
 40
0.7148616893
 40
0.7343735178
 40
0.7534925378
 40
0.7721853844
 40
0.7904198156
 40
0.8081647421
 40
0.825390373
 40
0.8420684026
 40
0.8581720522
 40
0.8736762532
 40
0.8885579009
 40
0.9027959489
 40
0.9163716799
 40
0.9292690998
 40
0.9414751799
 40
0.9529803541
 40
0.9637792737
 40
0.9738713494
 40
0.9832619427
 40
0.9919644311
 40
1.0
 40
1.0
 40
1.0
 40
1.0
 10
12.8753669351
 20
9.9669433192
 30
0.0
 10
12.8748059802
 20
9.9671080655
 30
0.0
 10
12.873684576
 20
9.9674899675
 30
0.0
 10
12.8714500303
 20
9.9684590115
 30
0.0
 10
12.8686797084
 20
9.9700684427
 30
0.0
 10
12.8654788709
 20
9.972559959
 30
0.0
 10
12.8623544161
 20
9.9756320437
 30
0.0
 10
12.8593100571
 20
9.9792774365
 30
0.0
 10
12.8563491004
 20
9.9834893276
 30
0.0
 10
12.8534758365
 20
9.9882602056
 30
0.0
 10
12.8506948171
 20
9.9935815641
 30
0.0
 10
12.8480108833
 20
9.9994437923
 30
0.0
 10
12.8454289602
 20
10.0058361334
 30
0.0
 10
12.8429538679
 20
10.0127466634
 30
0.0
 10
12.8405903354
 20
10.0201623715
 30
0.0
 10
12.8383429562
 20
10.0280691967
 30
0.0
 10
12.8362160736
 20
10.0364520485
 30
0.0
 10
12.834213831
 20
10.045294873
 30
0.0
 10
12.8323401667
 20
10.0545806954
 30
0.0
 10
12.8305987267
 20
10.0642916446
 30
0.0
 10
12.8289929127
 20
10.0744090076
 30
0.0
 10
12.8275258913
 20
10.0849132728
 30
0.0
 10
12.8262005198
 20
10.09578416
 30
0.0
 10
12.8250193831
 20
10.1070006714
 30
0.0
 10
12.823984821
 20
10.1185411295
 30
0.0
 10
12.8230988233
 20
10.1303832448
 30
0.0
 10
12.8221083407
 20
10.1467035871
 30
0.0
 10
12.8212633363
 20
10.1676882394
 30
0.0
 10
12.8208703151
 20
10.1934551795
 30
0.0
 10
12.8210922701
 20
10.2198483333
 30
0.0
 10
12.8219276647
 20
10.2466636409
 30
0.0
 10
12.8233701868
 20
10.2736939176
 30
0.0
 10
12.8254087577
 20
10.3007302411
 30
0.0
 10
12.8280276029
 20
10.3275636463
 30
0.0
 10
12.8312063525
 20
10.3539868075
 30
0.0
 10
12.8349203058
 20
10.3797954334
 30
0.0
 10
12.8384674877
 20
10.4008053774
 30
0.0
 10
12.8415588363
 20
10.4171507785
 30
0.0
 10
12.8439716412
 20
10.4290259234
 30
0.0
 10
12.8464943712
 20
10.4406019987
 30
0.0
 10
12.8491221305
 20
10.451856646
 30
0.0
 10
12.8518498161
 20
10.4627681069
 30
0.0
 10
12.8546721412
 20
10.473315299
 30
0.0
 10
12.8575835981
 20
10.4834778615
 30
0.0
 10
12.8605785342
 20
10.4932361807
 30
0.0
 10
12.8636511426
 20
10.5025714368
 30
0.0
 10
12.8667954277
 20
10.5114656593
 30
0.0
 10
12.8700052857
 20
10.5199017441
 30
0.0
 10
12.8732745063
 20
10.5278634971
 30
0.0
 10
12.8765967314
 20
10.5353356965
 30
0.0
 10
12.8799655496
 20
10.5423041052
 30
0.0
 10
12.8833745139
 20
10.5487555126
 30
0.0
 10
12.8868171358
 20
10.5546778043
 30
0.0
 10
12.8902869184
 20
10.5600599206
 30
0.0
 10
12.8937777226
 20
10.564892171
 30
0.0
 10
12.897283034
 20
10.5691652609
 30
0.0
 10
12.8997204115
 20
10.5717359976
 30
0.0
 10
12.900942138
 20
10.5729160949
 30
0.0
  0
SPLINE
  5
35B
100
AcDbEntity
  8
0
100
AcDbSpline
 62
7
  6
CONTINUOUS
 70
0
 71
3
 72
15
 73
11
 74
0
 42
0.0000001
 43
0.0000001
 44
0.0000000001
 40
0.0
 40
0.0
 40
0.0
 40
0.0
 40
0.1084413994
 40
0.2203207431
 40
0.3363918
 40
0.4573219028
 40
0.5836918599
 40
0.7160007178
 40
0.8546601937
 40
1.0
 40
1.0
 40
1.0
 40
1.0
 10
12.9219060802
 20
9.1692147693
 30
0.0
 10
12.9210330951
 20
9.1690365653
 30
0.0
 10
12.919275783
 20
9.1685896958
 30
0.0
 10
12.916665281
 20
9.1676719913
 30
0.0
 10
12.9140462999
 20
9.1664991313
 30
0.0
 10
12.911420732
 20
9.1650722496
 30
0.0
 10
12.9087898584
 20
9.1633925955
 30
0.0
 10
12.9061551353
 20
9.1614613599
 30
0.0
 10
12.9035181599
 20
9.1592800782
 30
0.0
 10
12.9018010407
 20
9.157698351
 30
0.0
 10
12.900942138
 20
9.1568687147
 30
0.0
  0
SPLINE
  5
35C
100
AcDbEntity
  8
0
100
AcDbSpline
 62
7
  6
CONTINUOUS
 70
0
 71
3
 72
68
 73
64
 74
0
 42
0.0000001
 43
0.0000001
 44
0.0000000001
 40
0.0
 40
0.0
 40
0.0
 40
0.0
 40
0.002796663
 40
0.0056682324
 40
0.0116913836
 40
0.0148722352
 40
0.0181793745
 40
0.0216220081
 40
0.0252080899
 40
0.028944343
 40
0.0328364748
 40
0.0368892721
 40
0.0411066266
 40
0.0454917473
 40
0.0500471784
 40
0.0596753103
 40
0.0700017947
 40
0.0810296288
 40
0.0927563455
 40
0.1051750163
 40
0.1182749484
 40
0.1320421585
 40
0.1464598466
 40
0.1615087558
 40
0.1771673941
 40
0.1934122489
 40
0.2102180325
 40
0.2275578283
 40
0.2454031873
 40
0.2637243074
 40
0.2824901626
 40
0.301668574
 40
0.3212263213
 40
0.3411292757
 40
0.3818294691
 40
0.4234818686
 40
0.4657895122
 40
0.5084493897
 40
0.5511552723
 40
0.5936005121
 40
0.6354808477
 40
0.6764971877
 40
0.7163584987
 40
0.7357683917
 40
0.754785535
 40
0.7733771129
 40
0.7915113792
 40
0.8091577948
 40
0.8262870959
 40
0.8428714129
 40
0.8588844611
 40
0.8743016615
 40
0.8891002805
 40
0.9032596728
 40
0.916761546
 40
0.9295901962
 40
0.941732877
 40
0.9531803244
 40
0.9639273456
 40
0.9739735021
 40
0.9833241884
 40
0.9919926297
 40
1.0
 40
1.0
 40
1.0
 40
1.0
 10
12.8660015943
 20
8.3630918926
 30
0.0
 10
12.8652723717
 20
8.3633497122
 30
0.0
 10
12.8638153516
 20
8.3639336657
 30
0.0
 10
12.860914622
 20
8.3653678711
 30
0.0
 10
12.8580945923
 20
8.3671807009
 30
0.0
 10
12.8553724744
 20
8.3693187595
 30
0.0
 10
12.8533157005
 20
8.3711413936
 30
0.0
 10
12.8512825416
 20
8.3731525309
 30
0.0
 10
12.8492736071
 20
8.3753513909
 30
0.0
 10
12.8472897817
 20
8.3777368133
 30
0.0
 10
12.8453319145
 20
8.3803076936
 30
0.0
 10
12.843400905
 20
8.3830628362
 30
0.0
 10
12.8414975715
 20
8.3860009128
 30
0.0
 10
12.8396227788
 20
8.3891205729
 30
0.0
 10
12.8371159425
 20
8.3936033913
 30
0.0
 10
12.8340698265
 20
8.3996631412
 30
0.0
 10
12.830606792
 20
8.4075040089
 30
0.0
 10
12.8272778214
 20
8.4160286884
 30
0.0
 10
12.8240891757
 20
8.4252211194
 30
0.0
 10
12.8210468963
 20
8.4350642074
 30
0.0
 10
12.8181568355
 20
8.4455394183
 30
0.0
 10
12.8154245412
 20
8.4566269472
 30
0.0
 10
12.8128552844
 20
8.4683057521
 30
0.0
 10
12.8104540494
 20
8.4805536269
 30
0.0
 10
12.8082254891
 20
8.4933472344
 30
0.0
 10
12.8061739046
 20
8.5066621592
 30
0.0
 10
12.8043032748
 20
8.5204729743
 30
0.0
 10
12.8026172394
 20
8.5347532888
 30
0.0
 10
12.8011190509
 20
8.5494757928
 30
0.0
 10
12.7998116087
 20
8.5646123195
 30
0.0
 10
12.7986974573
 20
8.5801339093
 30
0.0
 10
12.7977787636
 20
8.5960108466
 30
0.0
 10
12.7970572734
 20
8.6122127593
 30
0.0
 10
12.7963550061
 20
8.6343717867
 30
0.0
 10
12.7959881421
 20
8.6626526743
 30
0.0
 10
12.7963488506
 20
8.6971303008
 30
0.0
 10
12.7975050812
 20
8.7321326933
 30
0.0
 10
12.7994480911
 20
8.7673919317
 30
0.0
 10
12.8021630917
 20
8.8026383111
 30
0.0
 10
12.8056292981
 20
8.8376021528
 30
0.0
 10
12.809820007
 20
8.8720160572
 30
0.0
 10
12.8147029963
 20
8.9056166504
 30
0.0
 10
12.8193577269
 20
8.9329625155
 30
0.0
 10
12.8234095064
 20
8.9542323511
 30
0.0
 10
12.8265696331
 20
8.9696823145
 30
0.0
 10
12.8298717945
 20
8.9847415775
 30
0.0
 10
12.8333096806
 20
8.9993813415
 30
0.0
 10
12.8368766575
 20
9.0135736002
 30
0.0
 10
12.8405658658
 20
9.0272912146
 30
0.0
 10
12.8443702226
 20
9.0405079582
 30
0.0
 10
12.8482823974
 20
9.0531985894
 30
0.0
 10
12.8522948541
 20
9.0653388937
 30
0.0
 10
12.8563998832
 20
9.0769057217
 30
0.0
 10
12.8605895971
 20
9.0878770552
 30
0.0
 10
12.864855931
 20
9.0982320676
 30
0.0
 10
12.8691907052
 20
9.1079511496
 30
0.0
 10
12.8735856579
 20
9.1170159589
 30
0.0
 10
12.8780324167
 20
9.1254095076
 30
0.0
 10
12.8825226286
 20
9.1331161944
 30
0.0
 10
12.8870479362
 20
9.1401217426
 30
0.0
 10
12.8916003559
 20
9.1464136787
 30
0.0
 10
12.8961715026
 20
9.15198004
 30
0.0
 10
12.8993493101
 20
9.155330161
 30
0.0
 10
12.900942138
 20
9.1568687147
 30
0.0
  0
SPLINE
  5
35D
100
AcDbEntity
  8
0
100
AcDbSpline
 62
7
  6
CONTINUOUS
 70
0
 71
3
 72
15
 73
11
 74
0
 42
0.0000001
 43
0.0000001
 44
0.0000000001
 40
0.0
 40
0.0
 40
0.0
 40
0.0
 40
0.1080214509
 40
0.2193208526
 40
0.3348173573
 40
0.4553247049
 40
0.5815484391
 40
0.7140906288
 40
0.8534443495
 40
1.0
 40
1.0
 40
1.0
 40
1.0
 10
12.9180580245
 20
10.5825332745
 30
0.0
 10
12.9173476717
 20
10.58242796
 30
0.0
 10
12.9159156714
 20
10.5821384479
 30
0.0
 10
12.9137847852
 20
10.5814844143
 30
0.0
 10
12.9116460719
 20
10.5806065091
 30
0.0
 10
12.9095013541
 20
10.5795058192
 30
0.0
 10
12.9073518258
 20
10.5781835611
 30
0.0
 10
12.9051988202
 20
10.576640871
 30
0.0
 10
12.9030438
 20
10.5748791899
 30
0.0
 10
12.9016429
 20
10.573592979
 30
0.0
 10
12.900942138
 20
10.5729160949
 30
0.0
  0
SPLINE
  5
35E
100
AcDbEntity
  8
0
100
AcDbSpline
 62
7
  6
CONTINUOUS
 70
0
 71
3
 72
84
 73
80
 74
0
 42
0.0000001
 43
0.0000001
 44
0.0000000001
 40
0.0
 40
0.0
 40
0.0
 40
0.0
 40
0.0027164264
 40
0.0054532293
 40
0.008230295
 40
0.0110665896
 40
0.0139797932
 40
0.0169861044
 40
0.0201000661
 40
0.0233345812
 40
0.0267009392
 40
0.0302088856
 40
0.0338668056
 40
0.037681768
 40
0.0416597414
 40
0.0458056718
 40
0.050123593
 40
0.0546167913
 40
0.0592877975
 40
0.0641385717
 40
0.0691704988
 40
0.074384467
 40
0.0797809628
 40
0.0853600226
 40
0.0911213815
 40
0.0970644148
 40
0.1094911534
 40
0.122630387
 40
0.136468035
 40
0.1509868331
 40
0.1661667198
 40
0.1819851503
 40
0.1984173662
 40
0.2154366132
 40
0.2330143274
 40
0.2511202956
 40
0.2697227959
 40
0.2887887406
 40
0.3082838034
 40
0.3281725359
 40
0.3484184777
 40
0.3689842604
 40
0.3898317162
 40
0.4109219843
 40
0.4536719359
 40
0.4969138893
 40
0.5403221212
 40
0.5835693222
 40
0.6263297187
 40
0.6474271304
 40
0.6682829869
 40
0.6888584043
 40
0.7091151927
 40
0.7290159604
 40
0.748524216
 40
0.7676044742
 40
0.7862223676
 40
0.8043447661
 40
0.8219399096
 40
0.838977535
 40
0.8554290199
 40
0.8712675451
 40
0.8864682815
 40
0.9010086172
 40
0.9148684112
 40
0.9280303001
 40
0.9404800906
 40
0.946434749
 40
0.9522077946
 40
0.957798564
 40
0.9632067735
 40
0.9684324641
 40
0.9734760551
 40
0.9783384155
 40
0.983020862
 40
0.9875253935
 40
0.9918546029
 40
0.9960115831
 40
1.0
 40
1.0
 40
1.0
 40
1.0
 10
12.8910328915
 20
8.1749388547
 30
0.0
 10
12.8899317298
 20
8.1750152244
 30
0.0
 10
12.887726788
 20
8.1752682312
 30
0.0
 10
12.8844474456
 20
8.1759451924
 30
0.0
 10
12.8811928838
 20
8.1769195276
 30
0.0
 10
12.8779654382
 20
8.1781903242
 30
0.0
 10
12.8747667421
 20
8.1797563784
 30
0.0
 10
12.871598481
 20
8.1816165532
 30
0.0
 10
12.8684620742
 20
8.1837694519
 30
0.0
 10
12.8653589327
 20
8.1862137424
 30
0.0
 10
12.8622904152
 20
8.1889480092
 30
0.0
 10
12.8592577931
 20
8.1919707121
 30
0.0
 10
12.8562624619
 20
8.1952803368
 30
0.0
 10
12.8533056826
 20
8.1988751483
 30
0.0
 10
12.8503888356
 20
8.2027533877
 30
0.0
 10
12.8475132664
 20
8.2069131335
 30
0.0
 10
12.8446802868
 20
8.2113523192
 30
0.0
 10
12.8418913123
 20
8.2160687926
 30
0.0
 10
12.8391476191
 20
8.221060197
 30
0.0
 10
12.8364505935
 20
8.2263240912
 30
0.0
 10
12.8338015438
 20
8.2318578627
 30
0.0
 10
12.8312017572
 20
8.2376587629
 30
0.0
 10
12.8286525738
 20
8.2437239255
 30
0.0
 10
12.8261552089
 20
8.2500503121
 30
0.0
 10
12.8237109357
 20
8.2566347932
 30
0.0
 10
12.8204761441
 20
8.2658919661
 30
0.0
 10
12.8165861517
 20
8.2780931882
 30
0.0
 10
12.8122154063
 20
8.2934990147
 30
0.0
 10
12.8080839827
 20
8.3098488312
 30
0.0
 10
12.8042002523
 20
8.3271099152
 30
0.0
 10
12.8005721105
 20
8.3452478785
 30
0.0
 10
12.7972069313
 20
8.3642264313
 30
0.0
 10
12.7941115626
 20
8.3840075685
 30
0.0
 10
12.7912923052
 20
8.4045516331
 30
0.0
 10
12.7887548998
 20
8.4258174097
 30
0.0
 10
12.7865045158
 20
8.4477622068
 30
0.0
 10
12.7845457303
 20
8.4703419465
 30
0.0
 10
12.7828825299
 20
8.4935112593
 30
0.0
 10
12.7815183023
 20
8.5172235822
 30
0.0
 10
12.7804558307
 20
8.5414312531
 30
0.0
 10
12.7796972867
 20
8.5660856092
 30
0.0
 10
12.7792442302
 20
8.591137068
 30
0.0
 10
12.7790975651
 20
8.6165352943
 30
0.0
 10
12.7793120533
 20
8.6509477339
 30
0.0
 10
12.7803527255
 20
8.6944518689
 30
0.0
 10
12.782805315
 20
8.7469800771
 30
0.0
 10
12.7864479339
 20
8.7996418974
 30
0.0
 10
12.7912513092
 20
8.8520138934
 30
0.0
 10
12.7962108458
 20
8.8952562702
 30
0.0
 10
12.8007369812
 20
8.9293810852
 30
0.0
 10
12.8043797974
 20
8.9545274785
 30
0.0
 10
12.8082784534
 20
8.9792897387
 30
0.0
 10
12.812425119
 20
9.0036181124
 30
0.0
 10
12.8168114166
 20
9.0274636803
 30
0.0
 10
12.8214284963
 20
9.0507785123
 30
0.0
 10
12.8262670385
 20
9.0735157477
 30
0.0
 10
12.8313172762
 20
9.0956296946
 30
0.0
 10
12.8365690137
 20
9.117075927
 30
0.0
 10
12.842011638
 20
9.1378113808
 30
0.0
 10
12.8476341512
 20
9.1577944405
 30
0.0
 10
12.8534251908
 20
9.1769850237
 30
0.0
 10
12.8593730536
 20
9.1953446646
 30
0.0
 10
12.865465725
 20
9.2128366097
 30
0.0
 10
12.8716908947
 20
9.2294258817
 30
0.0
 10
12.878036001
 20
9.2450794545
 30
0.0
 10
12.8844882492
 20
9.2597660074
 30
0.0
 10
12.8900226573
 20
9.2713405063
 30
0.0
 10
12.8945024738
 20
9.2800846559
 30
0.0
 10
12.8978310941
 20
9.2862854793
 30
0.0
 10
12.9011767823
 20
9.2922235431
 30
0.0
 10
12.9045378589
 20
9.2978959119
 30
0.0
 10
12.9079126578
 20
9.3032997575
 30
0.0
 10
12.9112995195
 20
9.3084323765
 30
0.0
 10
12.9146967025
 20
9.3132912393
 30
0.0
 10
12.9181026056
 20
9.317873923
 30
0.0
 10
12.9215155539
 20
9.3221782232
 30
0.0
 10
12.924933972
 20
9.3262020281
 30
0.0
 10
12.9283560122
 20
9.329943153
 30
0.0
 10
12.9306860898
 20
9.3322954553
 30
0.0
 10
12.931851767
 20
9.3334214131
 30
0.0
  0
SPLINE
  5
35F
100
AcDbEntity
  8
0
100
AcDbSpline
 62
7
  6
CONTINUOUS
 70
0
 71
3
 72
19
 73
15
 74
0
 42
0.0000001
 43
0.0000001
 44
0.0000000001
 40
0.0
 40
0.0
 40
0.0
 40
0.0
 40
0.1504607152
 40
0.2916988954
 40
0.4244197706
 40
0.4878838785
 40
0.549580297
 40
0.6682271827
 40
0.7255606102
 40
0.7817998481
 40
0.8371466355
 40
0.8918135538
 40
0.9460221503
 40
1.0
 40
1.0
 40
1.0
 40
1.0
 10
12.931851767
 20
8.1936288705
 30
0.0
 10
12.9301837728
 20
8.1920177117
 30
0.0
 10
12.9268500688
 20
8.1889947166
 30
0.0
 10
12.9216881554
 20
8.1849662229
 30
0.0
 10
12.9173280976
 20
8.1821170572
 30
0.0
 10
12.9138512388
 20
8.1801876839
 30
0.0
 10
12.9104769492
 20
8.1785312881
 30
0.0
 10
12.9070631564
 20
8.1771773277
 30
0.0
 10
12.9036301543
 20
8.1761584749
 30
0.0
 10
12.9010918854
 20
8.1755712121
 30
0.0
 10
12.8985620691
 20
8.1751526319
 30
0.0
 10
12.8960413695
 20
8.1749029584
 30
0.0
 10
12.893530807
 20
8.1748222928
 30
0.0
 10
12.8918628616
 20
8.1748812931
 30
0.0
 10
12.8910328915
 20
8.1749388547
 30
0.0
  0
SPLINE
  5
360
100
AcDbEntity
  8
0
100
AcDbSpline
 62
7
  6
CONTINUOUS
 70
0
 71
3
 72
29
 73
25
 74
0
 42
0.0000001
 43
0.0000001
 44
0.0000000001
 40
0.0
 40
0.0
 40
0.0
 40
0.0
 40
0.0749503488
 40
0.1455452737
 40
0.2121261891
 40
0.2751192851
 40
0.3350448404
 40
0.3640583593
 40
0.3925449884
 40
0.4205963601
 40
0.4483089338
 40
0.4757832092
 40
0.5031225081
 40
0.530431847
 40
0.5578166247
 40
0.5853812653
 40
0.6132280351
 40
0.6414557868
 40
0.6701590145
 40
0.7293218109
 40
0.7913860629
 40
0.8569001023
 40
0.9263189548
 40
1.0
 40
1.0
 40
1.0
 40
1.0
 10
10.0125096585
 20
10.8693506598
 30
0.0
 10
10.0106355913
 20
10.8710946769
 30
0.0
 10
10.0071002861
 20
10.8745960965
 30
0.0
 10
10.0023300093
 20
10.8800586849
 30
0.0
 10
9.9982622276
 20
10.8855647305
 30
0.0
 10
9.9949031162
 20
10.8911087636
 30
0.0
 10
9.9926750718
 20
10.8958077498
 30
0.0
 10
9.9912692353
 20
10.8995661594
 30
0.0
 10
9.9904057074
 20
10.902359612
 30
0.0
 10
9.9897222818
 20
10.9051567934
 30
0.0
 10
9.9892192404
 20
10.9079569328
 30
0.0
 10
9.9888967595
 20
10.9107591264
 30
0.0
 10
9.988754988
 20
10.9135624903
 30
0.0
 10
9.9887940481
 20
10.9163661143
 30
0.0
 10
9.9890138666
 20
10.9191690823
 30
0.0
 10
9.9894143359
 20
10.9219705014
 30
0.0
 10
9.9899953204
 20
10.9247694559
 30
0.0
 10
9.9907565837
 20
10.9275651632
 30
0.0
 10
9.9920239618
 20
10.9313245745
 30
0.0
 10
9.9940788676
 20
10.9360277444
 30
0.0
 10
9.9972356789
 20
10.9415818216
 30
0.0
 10
10.00110281
 20
10.947099341
 30
0.0
 10
10.0056740735
 20
10.9525745989
 30
0.0
 10
10.0090817692
 20
10.9560851562
 30
0.0
 10
10.0108918953
 20
10.9578336038
 30
0.0
  0
SPLINE
  5
361
100
AcDbEntity
  8
0
100
AcDbSpline
 62
7
  6
CONTINUOUS
 70
0
 71
3
 72
62
 73
58
 74
0
 42
0.0000001
 43
0.0000001
 44
0.0000000001
 40
0.0
 40
0.0
 40
0.0
 40
0.0
 40
0.0155852564
 40
0.0311184274
 40
0.0465988342
 40
0.0620286651
 40
0.0774094341
 40
0.0927434404
 40
0.108033465
 40
0.1232826932
 40
0.1384947499
 40
0.1536736422
 40
0.1688237253
 40
0.1839496573
 40
0.1990563494
 40
0.2141489182
 40
0.2292326324
 40
0.2443128549
 40
0.2593949845
 40
0.2744843993
 40
0.2895864013
 40
0.3047061587
 40
0.3198486493
 40
0.335018609
 40
0.3502204864
 40
0.3654583966
 40
0.3807360785
 40
0.3960568586
 40
0.4114236243
 40
0.4268387978
 40
0.4423043132
 40
0.4578216008
 40
0.4733915831
 40
0.4890146699
 40
0.5046907566
 40
0.5204192291
 40
0.53619898
 40
0.5520284227
 40
0.5679055075
 40
0.5838277441
 40
0.6157869295
 40
0.6478872653
 40
0.680096099
 40
0.7123769584
 40
0.7446908507
 40
0.7769976349
 40
0.8092574173
 40
0.84143194
 40
0.8734859364
 40
0.8894622347
 40
0.9053972103
 40
0.9212878322
 40
0.9371315158
 40
0.9529260972
 40
0.9686695788
 40
0.9843616165
 40
1.0
 40
1.0
 40
1.0
 40
1.0
 10
10.9556043883
 20
7.3705027007
 30
0.0
 10
10.9556043883
 20
7.3660853838
 30
0.0
 10
10.9553881862
 20
7.357263947
 30
0.0
 10
10.9544123819
 20
7.344087403
 30
0.0
 10
10.952787717
 20
7.331019048
 30
0.0
 10
10.9505182827
 20
7.318091
 30
0.0
 10
10.947609363
 20
7.3053341424
 30
0.0
 10
10.9440680009
 20
7.292779312
 30
0.0
 10
10.9399027151
 20
7.280456754
 30
0.0
 10
10.9351234976
 20
7.268396185
 30
0.0
 10
10.9297418226
 20
7.2566267051
 30
0.0
 10
10.9237706681
 20
7.2451766908
 30
0.0
 10
10.9172244198
 20
7.2340737561
 30
0.0
 10
10.9101188375
 20
7.2233446897
 30
0.0
 10
10.9024710195
 20
7.2130153943
 30
0.0
 10
10.894299426
 20
7.2031107741
 30
0.0
 10
10.8856237662
 20
7.1936547163
 30
0.0
 10
10.8764649537
 20
7.1846700379
 30
0.0
 10
10.8668450599
 20
7.1761784339
 30
0.0
 10
10.8567873121
 20
7.1682003623
 30
0.0
 10
10.8463159793
 20
7.1607550508
 30
0.0
 10
10.8354563164
 20
7.1538604542
 30
0.0
 10
10.824234508
 20
7.1475332135
 30
0.0
 10
10.8126776423
 20
7.1417885454
 30
0.0
 10
10.8008136001
 20
7.1366402725
 30
0.0
 10
10.7886709914
 20
7.1321007934
 30
0.0
 10
10.7762790916
 20
7.1281810549
 30
0.0
 10
10.7636677928
 20
7.1248904497
 30
0.0
 10
10.7508675015
 20
7.1222368695
 30
0.0
 10
10.7379090701
 20
7.1202266874
 30
0.0
 10
10.7248237278
 20
7.1188647443
 30
0.0
 10
10.7116430129
 20
7.1181542598
 30
0.0
 10
10.698398682
 20
7.1180969028
 30
0.0
 10
10.6851226396
 20
7.1186927888
 30
0.0
 10
10.6718468645
 20
7.1199404803
 30
0.0
 10
10.6586033351
 20
7.1218369092
 30
0.0
 10
10.6454239155
 20
7.1243774817
 30
0.0
 10
10.6323404299
 20
7.1275560183
 30
0.0
 10
10.6193840437
 20
7.1313650315
 30
0.0
 10
10.6023019417
 20
7.1372780411
 30
0.0
 10
10.5814236029
 20
7.1462016541
 30
0.0
 10
10.5574073099
 20
7.1592319675
 30
0.0
 10
10.534619867
 20
7.1744747146
 30
0.0
 10
10.5132815042
 20
7.1917828877
 30
0.0
 10
10.4935964253
 20
7.2109902279
 30
0.0
 10
10.4757538148
 20
7.2319122854
 30
0.0
 10
10.4599247413
 20
7.2543486035
 30
0.0
 10
10.4462620267
 20
7.2780825008
 30
0.0
 10
10.4367782701
 20
7.2987816257
 30
0.0
 10
10.4303994577
 20
7.3157578596
 30
0.0
 10
10.4262332001
 20
7.3286553426
 30
0.0
 10
10.4226906388
 20
7.3416986823
 30
0.0
 10
10.4197801674
 20
7.3548568382
 30
0.0
 10
10.4175089286
 20
7.3680979546
 30
0.0
 10
10.415882257
 20
7.3813904534
 30
0.0
 10
10.414904308
 20
7.3947016859
 30
0.0
 10
10.4146858935
 20
7.403583151
 30
0.0
 10
10.4146858935
 20
7.4080155258
 30
0.0
  0
SPLINE
  5
362
100
AcDbEntity
  8
0
100
AcDbSpline
 62
7
  6
CONTINUOUS
 70
0
 71
3
 72
62
 73
58
 74
0
 42
0.0000001
 43
0.0000001
 44
0.0000000001
 40
0.0
 40
0.0
 40
0.0
 40
0.0
 40
0.0155852564
 40
0.0311184274
 40
0.0465988342
 40
0.0620286651
 40
0.0774094341
 40
0.0927434404
 40
0.108033465
 40
0.1232826932
 40
0.1384947499
 40
0.1536736422
 40
0.1688237253
 40
0.1839496573
 40
0.1990563494
 40
0.2141489182
 40
0.2292326324
 40
0.2443128549
 40
0.2593949845
 40
0.2744843993
 40
0.2895864013
 40
0.3047061587
 40
0.3198486493
 40
0.335018609
 40
0.3502204864
 40
0.3654583966
 40
0.3807360785
 40
0.3960568586
 40
0.4114236243
 40
0.4268387978
 40
0.4423043132
 40
0.4578216008
 40
0.4733915831
 40
0.4890146699
 40
0.5046907566
 40
0.5204192291
 40
0.53619898
 40
0.5520284227
 40
0.5679055075
 40
0.5838277441
 40
0.6157869295
 40
0.6478872653
 40
0.680096099
 40
0.7123769584
 40
0.7446908507
 40
0.7769976349
 40
0.8092574173
 40
0.84143194
 40
0.8734859364
 40
0.8894622347
 40
0.9053972103
 40
0.9212878322
 40
0.9371315158
 40
0.9529260972
 40
0.9686695788
 40
0.9843616165
 40
1.0
 40
1.0
 40
1.0
 40
1.0
 10
10.4146858935
 20
7.4080155258
 30
0.0
 10
10.4146858935
 20
7.4124328428
 30
0.0
 10
10.4149020957
 20
7.4212542795
 30
0.0
 10
10.4158779
 20
7.4344308235
 30
0.0
 10
10.4175025649
 20
7.4474991785
 30
0.0
 10
10.4197719992
 20
7.4604272265
 30
0.0
 10
10.4226809189
 20
7.4731840841
 30
0.0
 10
10.426222281
 20
7.4857389145
 30
0.0
 10
10.4303875668
 20
7.4980614725
 30
0.0
 10
10.4351667842
 20
7.5101220415
 30
0.0
 10
10.4405484593
 20
7.5218915214
 30
0.0
 10
10.4465196138
 20
7.5333415357
 30
0.0
 10
10.453065862
 20
7.5444444704
 30
0.0
 10
10.4601714444
 20
7.5551735368
 30
0.0
 10
10.4678192623
 20
7.5655028322
 30
0.0
 10
10.4759908558
 20
7.5754074524
 30
0.0
 10
10.4846665157
 20
7.5848635102
 30
0.0
 10
10.4938253282
 20
7.5938481886
 30
0.0
 10
10.503445222
 20
7.6023397926
 30
0.0
 10
10.5135029697
 20
7.6103178642
 30
0.0
 10
10.5239743026
 20
7.6177631757
 30
0.0
 10
10.5348339655
 20
7.6246577723
 30
0.0
 10
10.5460557738
 20
7.630985013
 30
0.0
 10
10.5576126395
 20
7.6367296811
 30
0.0
 10
10.5694766817
 20
7.641877954
 30
0.0
 10
10.5816192904
 20
7.6464174331
 30
0.0
 10
10.5940111903
 20
7.6503371716
 30
0.0
 10
10.6066224891
 20
7.6536277768
 30
0.0
 10
10.6194227804
 20
7.656281357
 30
0.0
 10
10.6323812118
 20
7.6582915391
 30
0.0
 10
10.6454665541
 20
7.6596534822
 30
0.0
 10
10.658647269
 20
7.6603639667
 30
0.0
 10
10.6718915999
 20
7.6604213237
 30
0.0
 10
10.6851676423
 20
7.6598254377
 30
0.0
 10
10.6984434174
 20
7.6585777462
 30
0.0
 10
10.7116869468
 20
7.6566813173
 30
0.0
 10
10.7248663663
 20
7.6541407448
 30
0.0
 10
10.7379498519
 20
7.6509622082
 30
0.0
 10
10.7509062382
 20
7.647153195
 30
0.0
 10
10.7679883401
 20
7.6412401854
 30
0.0
 10
10.788866679
 20
7.6323165724
 30
0.0
 10
10.812882972
 20
7.619286259
 30
0.0
 10
10.8356704149
 20
7.6040435119
 30
0.0
 10
10.8570087777
 20
7.5867353388
 30
0.0
 10
10.8766938566
 20
7.5675279986
 30
0.0
 10
10.894536467
 20
7.5466059411
 30
0.0
 10
10.9103655406
 20
7.524169623
 30
0.0
 10
10.9240282551
 20
7.5004357257
 30
0.0
 10
10.9335120117
 20
7.4797366008
 30
0.0
 10
10.9398908242
 20
7.4627603669
 30
0.0
 10
10.9440570817
 20
7.4498628839
 30
0.0
 10
10.947599643
 20
7.4368195442
 30
0.0
 10
10.9505101145
 20
7.4236613883
 30
0.0
 10
10.9527813532
 20
7.4104202719
 30
0.0
 10
10.9544080249
 20
7.3971277731
 30
0.0
 10
10.9553859739
 20
7.3838165406
 30
0.0
 10
10.9556043883
 20
7.3749350755
 30
0.0
 10
10.9556043883
 20
7.3705027007
 30
0.0
  0
SPLINE
  5
363
100
AcDbEntity
  8
0
100
AcDbSpline
 62
7
  6
CONTINUOUS
 70
0
 71
3
 72
73
 73
69
 74
0
 42
0.0000001
 43
0.0000001
 44
0.0000000001
 40
0.0
 40
0.0
 40
0.0
 40
0.0
 40
0.0038702301
 40
0.0078968099
 40
0.0120830248
 40
0.0164316336
 40
0.0209449903
 40
0.0256249936
 40
0.0304729794
 40
0.0354897976
 40
0.0460310315
 40
0.0572495104
 40
0.06914077
 40
0.0816965136
 40
0.0949051756
 40
0.1087523427
 40
0.1232211384
 40
0.1382924985
 40
0.1539453635
 40
0.1701568827
 40
0.1869026025
 40
0.2041566002
 40
0.2218915808
 40
0.2400790159
 40
0.2586892626
 40
0.2776916501
 40
0.2970545551
 40
0.3167455167
 40
0.3569774026
 40
0.3981147598
 40
0.4398761875
 40
0.4819747599
 40
0.5241206045
 40
0.5660234327
 40
0.6073950779
 40
0.6479520663
 40
0.6678387422
 40
0.6874188931
 40
0.7066595642
 40
0.7255285771
 40
0.7439946261
 40
0.762027391
 40
0.7795976092
 40
0.7966771683
 40
0.8132392354
 40
0.829258389
 40
0.8447107214
 40
0.8595739823
 40
0.8738277842
 40
0.8874538027
 40
0.9004359897
 40
0.9127608747
 40
0.9244179809
 40
0.9354002816
 40
0.9457047956
 40
0.9506036222
 40
0.955334206
 40
0.9598977178
 40
0.9642957857
 40
0.9685305963
 40
0.9726048566
 40
0.9765219571
 40
0.9802860271
 40
0.9839019717
 40
0.9873756693
 40
0.9907139989
 40
0.9939249579
 40
1.0
 40
1.0
 40
1.0
 40
1.0
 10
12.900942138
 20
9.7992094622
 30
0.0
 10
12.9018703309
 20
9.8001060277
 30
0.0
 10
12.9037258073
 20
9.8019754901
 30
0.0
 10
12.9064534285
 20
9.8049418885
 30
0.0
 10
12.9091784559
 20
9.8081237909
 30
0.0
 10
12.9118994807
 20
9.8115196188
 30
0.0
 10
12.9146153636
 20
9.8151278089
 30
0.0
 10
12.9173248821
 20
9.8189467871
 30
0.0
 10
12.9200268822
 20
9.8229748404
 30
0.0
 10
12.9236782536
 20
9.8287170037
 30
0.0
 10
12.9282058143
 20
9.8364158336
 30
0.0
 10
12.9335032371
 20
9.8463100706
 30
0.0
 10
12.9387415172
 20
9.8569891032
 30
0.0
 10
12.9439110572
 20
9.8684335199
 30
0.0
 10
12.9490023989
 20
9.8806226815
 30
0.0
 10
12.9540061912
 20
9.8935344235
 30
0.0
 10
12.9589132172
 20
9.9071452335
 30
0.0
 10
12.9637144168
 20
9.921430273
 30
0.0
 10
12.9684009354
 20
9.9363634231
 30
0.0
 10
12.9729641323
 20
9.9519173427
 30
0.0
 10
12.9773955844
 20
9.9680635387
 30
0.0
 10
12.9816871033
 20
9.9847724168
 30
0.0
 10
12.9858307793
 20
10.0020133265
 30
0.0
 10
12.9898189735
 20
10.0197546274
 30
0.0
 10
12.9936443299
 20
10.0379637613
 30
0.0
 10
12.9972997781
 20
10.0566072951
 30
0.0
 10
13.0007786201
 20
10.075651017
 30
0.0
 10
13.0052045085
 20
10.1017155942
 30
0.0
 10
13.0102394192
 20
10.1350383945
 30
0.0
 10
13.0154425476
 20
10.1757675218
 30
0.0
 10
13.0198105947
 20
10.2172205729
 30
0.0
 10
13.0233113887
 20
10.2590931947
 30
0.0
 10
13.0259191178
 20
10.301078137
 30
0.0
 10
13.0276147367
 20
10.3428673026
 30
0.0
 10
13.0283858496
 20
10.3841538528
 30
0.0
 10
13.0282529073
 20
10.4181063171
 30
0.0
 10
13.0276709455
 20
10.4447837269
 30
0.0
 10
13.0270047856
 20
10.464348389
 30
0.0
 10
13.0261074322
 20
10.4835641202
 30
0.0
 10
13.0249805267
 20
10.5023956561
 30
0.0
 10
13.0236261637
 20
10.5208084067
 30
0.0
 10
13.02204687
 20
10.5387685715
 30
0.0
 10
13.0202455828
 20
10.5562431848
 30
0.0
 10
13.0182256404
 20
10.5732001766
 30
0.0
 10
13.0159907912
 20
10.5896084415
 30
0.0
 10
13.013545198
 20
10.6054379025
 30
0.0
 10
13.0108934048
 20
10.6206595591
 30
0.0
 10
13.008040325
 20
10.635245543
 30
0.0
 10
13.0049912572
 20
10.6491691891
 30
0.0
 10
13.0017518681
 20
10.6624050904
 30
0.0
 10
12.9983281574
 20
10.6749291501
 30
0.0
 10
12.9947264362
 20
10.6867186072
 30
0.0
 10
12.9909533287
 20
10.6977522304
 30
0.0
 10
12.9870157479
 20
10.7080099742
 30
0.0
 10
12.9835472135
 20
10.7160264088
 30
0.0
 10
12.9806869255
 20
10.7220269604
 30
0.0
 10
12.9785413229
 20
10.7262457683
 30
0.0
 10
12.976360082
 20
10.7302572336
 30
0.0
 10
12.9741441196
 20
10.7340595371
 30
0.0
 10
12.9718944774
 20
10.7376509884
 30
0.0
 10
12.9696120959
 20
10.7410299471
 30
0.0
 10
12.9672979718
 20
10.744194895
 30
0.0
 10
12.9649531362
 20
10.7471444227
 30
0.0
 10
12.9625784883
 20
10.7498771691
 30
0.0
 10
12.9601751551
 20
10.7523918397
 30
0.0
 10
12.9577437565
 20
10.7546875111
 30
0.0
 10
12.9545264785
 20
10.7574037994
 30
0.0
 10
12.951984415
 20
10.7591912597
 30
0.0
 10
12.9502484955
 20
10.7602352478
 30
0.0
  0
SPLINE
  5
364
100
AcDbEntity
  8
0
100
AcDbSpline
 62
7
  6
CONTINUOUS
 70
0
 71
3
 72
11
 73
7
 74
0
 42
0.0000001
 43
0.0000001
 44
0.0000000001
 40
0.0
 40
0.0
 40
0.0
 40
0.0
 40
0.2755422938
 40
0.5329409748
 40
0.7737466434
 40
1.0
 40
1.0
 40
1.0
 40
1.0
 10
12.900942138
 20
9.7992094622
 30
0.0
 10
12.8994470237
 20
9.7977652926
 30
0.0
 10
12.8964591726
 20
9.7950685699
 30
0.0
 10
12.8918203241
 20
9.7915137411
 30
0.0
 10
12.8871880167
 20
9.7885979964
 30
0.0
 10
12.8840176771
 20
9.7870404138
 30
0.0
 10
12.8824428214
 20
9.7863822276
 30
0.0
  0
SPLINE
  5
365
100
AcDbEntity
  8
0
100
AcDbSpline
 62
7
  6
CONTINUOUS
 70
0
 71
3
 72
19
 73
15
 74
0
 42
0.0000001
 43
0.0000001
 44
0.0000000001
 40
0.0
 40
0.0
 40
0.0
 40
0.0
 40
0.1528781462
 40
0.2945796176
 40
0.4262319095
 40
0.5493499192
 40
0.6083248902
 40
0.6659124368
 40
0.7224094839
 40
0.7781328005
 40
0.8334133979
 40
0.8885910732
 40
0.9440076235
 40
1.0
 40
1.0
 40
1.0
 40
1.0
 10
12.900942138
 20
9.9759738989
 30
0.0
 10
12.8998980703
 20
9.9749654069
 30
0.0
 10
12.8978118242
 20
9.9730965558
 30
0.0
 10
12.8945591049
 20
9.9706777332
 30
0.0
 10
12.8913108132
 20
9.9687595292
 30
0.0
 10
12.8885709435
 20
9.9675660184
 30
0.0
 10
12.8863986792
 20
9.9668816379
 30
0.0
 10
12.8847980002
 20
9.9665032617
 30
0.0
 10
12.8832035695
 20
9.9662529358
 30
0.0
 10
12.8816161213
 20
9.9661307998
 30
0.0
 10
12.8800364874
 20
9.9661370181
 30
0.0
 10
12.8784654787
 20
9.9662716764
 30
0.0
 10
12.8769040543
 20
9.9665345977
 30
0.0
 10
12.8758770453
 20
9.9667935054
 30
0.0
 10
12.8753669351
 20
9.9669433192
 30
0.0
  0
SPLINE
  5
366
100
AcDbEntity
  8
0
100
AcDbSpline
 62
7
  6
CONTINUOUS
 70
0
 71
3
 72
70
 73
66
 74
0
 42
0.0000001
 43
0.0000001
 44
0.0000000001
 40
0.0
 40
0.0
 40
0.0
 40
0.0
 40
0.0082508906
 40
0.0172131727
 40
0.0269097911
 40
0.0373546299
 40
0.0485526365
 40
0.0605021514
 40
0.0731961951
 40
0.0866231928
 40
0.1007676803
 40
0.1156109138
 40
0.1311312432
 40
0.1473043728
 40
0.1641037211
 40
0.1815006509
 40
0.1994645873
 40
0.2179632406
 40
0.2369627959
 40
0.2564279984
 40
0.2763222876
 40
0.2966079749
 40
0.3381968416
 40
0.3808752103
 40
0.4243116432
 40
0.4681670661
 40
0.5120982191
 40
0.5557610906
 40
0.5988143484
 40
0.6409227578
 40
0.6817606675
 40
0.7016054119
 40
0.7210166091
 40
0.7399578493
 40
0.7583940632
 40
0.7762915956
 40
0.7936183408
 40
0.8103439778
 40
0.8264400943
 40
0.8418803476
 40
0.8566407715
 40
0.8707000498
 40
0.8840397813
 40
0.8966449486
 40
0.9085045177
 40
0.9196120472
 40
0.9299666299
 40
0.9395742469
 40
0.9441027245
 40
0.9484507512
 40
0.9526218424
 40
0.9566204339
 40
0.9604518657
 40
0.9641226156
 40
0.9676404397
 40
0.9710144201
 40
0.9773714526
 40
0.9803845682
 40
0.9833067077
 40
0.9861554261
 40
0.9889498005
 40
0.9917101771
 40
0.9944577148
 40
0.9972138995
 40
1.0
 40
1.0
 40
1.0
 40
1.0
 10
12.900942138
 20
9.9759738989
 30
0.0
 10
12.9022135144
 20
9.9772019543
 30
0.0
 10
12.904749377
 20
9.9798860138
 30
0.0
 10
12.9083901427
 20
9.9843611742
 30
0.0
 10
12.9120146667
 20
9.9894389594
 30
0.0
 10
12.9156156832
 20
9.9951088806
 30
0.0
 10
12.9191862799
 20
10.0013599526
 30
0.0
 10
12.9227191961
 20
10.0081795663
 30
0.0
 10
12.9262071774
 20
10.015553905
 30
0.0
 10
12.9296429757
 20
10.0234678917
 30
0.0
 10
12.9330194426
 20
10.0319052346
 30
0.0
 10
12.9363295042
 20
10.0408485097
 30
0.0
 10
12.9395662045
 20
10.050279196
 30
0.0
 10
12.9427227699
 20
10.0601777052
 30
0.0
 10
12.9457925747
 20
10.0705234537
 30
0.0
 10
12.9487691574
 20
10.0812949117
 30
0.0
 10
12.9516462796
 20
10.0924696338
 30
0.0
 10
12.9544179107
 20
10.1040243188
 30
0.0
 10
12.9570782248
 20
10.1159348725
 30
0.0
 10
12.9596216326
 20
10.1281764395
 30
0.0
 10
12.9620428406
 20
10.1407234843
 30
0.0
 10
12.9651268354
 20
10.1579680953
 30
0.0
 10
12.9686315461
 20
10.1800938328
 30
0.0
 10
12.9722431567
 20
10.2072156023
 30
0.0
 10
12.9752642575
 20
10.2348979745
 30
0.0
 10
12.9776695023
 20
10.2629099251
 30
0.0
 10
12.9794387676
 20
10.2910178309
 30
0.0
 10
12.9805572892
 20
10.3189871892
 30
0.0
 10
12.9810159133
 20
10.346584739
 30
0.0
 10
12.9808109842
 20
10.3735801629
 30
0.0
 10
12.9800824003
 20
10.3955924062
 30
0.0
 10
12.9791593517
 20
10.4127269625
 30
0.0
 10
12.9783105667
 20
10.4251663786
 30
0.0
 10
12.9773005585
 20
10.4372909818
 30
0.0
 10
12.9761314541
 20
10.4490754955
 30
0.0
 10
12.9748057336
 20
10.4604953306
 30
0.0
 10
12.973326182
 20
10.4715266729
 30
0.0
 10
12.9716959419
 20
10.4821465368
 30
0.0
 10
12.9699184691
 20
10.4923328124
 30
0.0
 10
12.9679975059
 20
10.5020643078
 30
0.0
 10
12.9659371137
 20
10.5113208131
 30
0.0
 10
12.9637416589
 20
10.5200831521
 30
0.0
 10
12.9614157584
 20
10.5283332137
 30
0.0
 10
12.9589642788
 20
10.5360540241
 30
0.0
 10
12.9563923586
 20
10.5432297784
 30
0.0
 10
12.9537052811
 20
10.5498460047
 30
0.0
 10
12.950908509
 20
10.5558891657
 30
0.0
 10
12.9484446169
 20
10.5605253941
 30
0.0
 10
12.9464161322
 20
10.5639271285
 30
0.0
 10
12.9449010148
 20
10.5662768915
 30
0.0
 10
12.9433628165
 20
10.5684744763
 30
0.0
 10
12.9418023051
 20
10.5705187914
 30
0.0
 10
12.9402201789
 20
10.5724087779
 30
0.0
 10
12.9386172324
 20
10.5741433984
 30
0.0
 10
12.9369940164
 20
10.5757219418
 30
0.0
 10
12.9348469989
 20
10.5775799229
 30
0.0
 10
12.9326175387
 20
10.5791735559
 30
0.0
 10
12.9303152279
 20
10.5804565222
 30
0.0
 10
12.9286026495
 20
10.5812415985
 30
0.0
 10
12.9268747618
 20
10.5818658008
 30
0.0
 10
12.9251324725
 20
10.5823284988
 30
0.0
 10
12.923376972
 20
10.5826292662
 30
0.0
 10
12.9216094203
 20
10.5827678044
 30
0.0
 10
12.9198312585
 20
10.5827439486
 30
0.0
 10
12.9186484516
 20
10.5826208092
 30
0.0
 10
12.9180580245
 20
10.5825332745
 30
0.0
  0
SPLINE
  5
367
100
AcDbEntity
  8
0
100
AcDbSpline
 62
7
  6
CONTINUOUS
 70
0
 71
3
 72
35
 73
31
 74
0
 42
0.0000001
 43
0.0000001
 44
0.0000000001
 40
0.0
 40
0.0
 40
0.0
 40
0.0
 40
0.0246597879
 40
0.0505287181
 40
0.0775491499
 40
0.1056583108
 40
0.1347888235
 40
0.164869189
 40
0.1958242507
 40
0.2275755861
 40
0.2600418683
 40
0.2931391968
 40
0.3267814471
 40
0.3608806155
 40
0.4300885883
 40
0.5000350789
 40
0.569980389
 40
0.639184829
 40
0.6732813675
 40
0.7069204222
 40
0.7400139966
 40
0.7724759775
 40
0.8042224894
 40
0.8351722221
 40
0.8652467684
 40
0.8943709875
 40
0.9224734067
 40
0.9494866899
 40
0.9753480919
 40
1.0
 40
1.0
 40
1.0
 40
1.0
 10
12.830808905
 20
10.0635497774
 30
0.0
 10
12.8320221054
 20
10.0669091882
 30
0.0
 10
12.8344087782
 20
10.073828867
 30
0.0
 10
12.837800317
 20
10.0845380249
 30
0.0
 10
12.841081975
 20
10.0958026941
 30
0.0
 10
12.8442443933
 20
10.1075911046
 30
0.0
 10
12.8472785971
 20
10.1198701278
 30
0.0
 10
12.8501759739
 20
10.1326051758
 30
0.0
 10
12.8529283012
 20
10.1457603701
 30
0.0
 10
12.8555277695
 20
10.1592986319
 30
0.0
 10
12.8579670042
 20
10.1731817936
 30
0.0
 10
12.860239084
 20
10.1873706917
 30
0.0
 10
12.8623376052
 20
10.2018253267
 30
0.0
 10
12.8649087678
 20
10.2214945056
 30
0.0
 10
12.8676428043
 20
10.2464428688
 30
0.0
 10
12.8701366432
 20
10.2766298599
 30
0.0
 10
12.8718310043
 20
10.3068717485
 30
0.0
 10
12.8725647282
 20
10.3319576823
 30
0.0
 10
12.8727314648
 20
10.3517921449
 30
0.0
 10
12.8726469702
 20
10.3663966851
 30
0.0
 10
12.8723538994
 20
10.3807617282
 30
0.0
 10
12.8718530761
 20
10.3948467785
 30
0.0
 10
12.8711459585
 20
10.4086120988
 30
0.0
 10
12.8702345833
 20
10.4220188757
 30
0.0
 10
12.86912157
 20
10.4350293127
 30
0.0
 10
12.8678101118
 20
10.4476067456
 30
0.0
 10
12.8663039681
 20
10.4597157382
 30
0.0
 10
12.8646074632
 20
10.4713222515
 30
0.0
 10
12.8627254817
 20
10.4823935375
 30
0.0
 10
12.8613160331
 20
10.4895739946
 30
0.0
 10
12.8605777748
 20
10.4930674627
 30
0.0
  0
SPLINE
  5
368
100
AcDbEntity
  8
0
100
AcDbSpline
 62
7
  6
CONTINUOUS
 70
0
 71
3
 72
15
 73
11
 74
0
 42
0.0000001
 43
0.0000001
 44
0.0000000001
 40
0.0
 40
0.0
 40
0.0
 40
0.0
 40
0.1217262928
 40
0.2462470311
 40
0.3726460086
 40
0.4999892423
 40
0.6273338368
 40
0.7537368878
 40
0.8782643678
 40
1.0
 40
1.0
 40
1.0
 40
1.0
 10
12.8210382792
 20
10.1911221938
 30
0.0
 10
12.8221989108
 20
10.1982293258
 30
0.0
 10
12.8243645299
 20
10.2126370653
 30
0.0
 10
12.8271242645
 20
10.2345111088
 30
0.0
 10
12.8294181087
 20
10.2567730483
 30
0.0
 10
12.8312278357
 20
10.2792470861
 30
0.0
 10
12.8325391249
 20
10.3017559482
 30
0.0
 10
12.8333416808
 20
10.324122079
 30
0.0
 10
12.8336292731
 20
10.3461688423
 30
0.0
 10
12.8334741869
 20
10.3607385548
 30
0.0
 10
12.8333062177
 20
10.3679384253
 30
0.0
  0
SPLINE
  5
369
100
AcDbEntity
  8
0
100
AcDbSpline
 62
7
  6
CONTINUOUS
 70
0
 71
3
 72
18
 73
14
 74
0
 42
0.0000001
 43
0.0000001
 44
0.0000000001
 40
0.0
 40
0.0
 40
0.0
 40
0.0
 40
0.1504680185
 40
0.2917144324
 40
0.4244425615
 40
0.4879099171
 40
0.5496094205
 40
0.6682625585
 40
0.7817882768
 40
0.8371379945
 40
0.8918078237
 40
0.9460192726
 40
1.0
 40
1.0
 40
1.0
 40
1.0
 10
12.931851767
 20
9.7970658722
 30
0.0
 10
12.9304608313
 20
9.7957223314
 30
0.0
 10
12.9276808453
 20
9.7932014573
 30
0.0
 10
12.9233763329
 20
9.789842084
 30
0.0
 10
12.9197404363
 20
9.7874661613
 30
0.0
 10
12.9168411321
 20
9.7858572602
 30
0.0
 10
12.9140271223
 20
9.7844759723
 30
0.0
 10
12.910508719
 20
9.7830802279
 30
0.0
 10
12.9069277279
 20
9.7821277686
 30
0.0
 10
12.9040914767
 20
9.7816585784
 30
0.0
 10
12.9019894229
 20
9.7814503441
 30
0.0
 10
12.8998958723
 20
9.7813831038
 30
0.0
 10
12.8985049695
 20
9.7814323132
 30
0.0
 10
12.8978128566
 20
9.7814803152
 30
0.0
  0
SPLINE
  5
36A
100
AcDbEntity
  8
0
100
AcDbSpline
 62
7
  6
CONTINUOUS
 70
0
 71
3
 72
79
 73
75
 74
0
 42
0.0000001
 43
0.0000001
 44
0.0000000001
 40
0.0
 40
0.0
 40
0.0
 40
0.0
 40
0.003891467
 40
0.0079414498
 40
0.0121533048
 40
0.0165298651
 40
0.0210735387
 40
0.0257862438
 40
0.0306692913
 40
0.0357235469
 40
0.0409495135
 40
0.0463473089
 40
0.0576569666
 40
0.0696483578
 40
0.0823127911
 40
0.0956382537
 40
0.1096098375
 40
0.124210086
 40
0.1394193012
 40
0.1552157776
 40
0.1715759914
 40
0.1884747497
 40
0.2058853548
 40
0.2237797408
 40
0.2421285884
 40
0.2609014202
 40
0.2800667083
 40
0.2995919833
 40
0.3194439248
 40
0.3395884444
 40
0.3599907704
 40
0.4014262472
 40
0.4434626492
 40
0.4858061532
 40
0.5281602097
 40
0.5702281714
 40
0.6117159401
 40
0.6321520395
 40
0.6523353233
 40
0.6722309354
 40
0.6918046785
 40
0.7110231146
 40
0.7298536519
 40
0.7482646293
 40
0.7662254103
 40
0.7837064953
 40
0.8006796377
 40
0.8171179454
 40
0.8329960054
 40
0.8482900326
 40
0.8629780536
 40
0.8770400803
 40
0.8904583288
 40
0.9032174968
 40
0.9153051278
 40
0.9267120387
 40
0.9321586655
 40
0.9374334594
 40
0.9425364645
 40
0.947468097
 40
0.9522290993
 40
0.9568206894
 40
0.9612445328
 40
0.9655028081
 40
0.9695983348
 40
0.973534549
 40
0.9773156747
 40
0.9809467836
 40
0.9844338657
 40
0.9877840216
 40
0.9910054876
 40
0.9941077928
 40
0.9971018563
 40
1.0
 40
1.0
 40
1.0
 40
1.0
 10
12.900942138
 20
8.1957724606
 30
0.0
 10
12.9020648265
 20
8.1968568944
 30
0.0
 10
12.9043090761
 20
8.1991188778
 30
0.0
 10
12.9076076281
 20
8.2027096204
 30
0.0
 10
12.9109029652
 20
8.206563141
 30
0.0
 10
12.9141933899
 20
8.2106774941
 30
0.0
 10
12.917477499
 20
8.2150507758
 30
0.0
 10
12.9207537879
 20
8.2196810447
 30
0.0
 10
12.92402082
 20
8.2245661646
 30
0.0
 10
12.9272770683
 20
8.2297038805
 30
0.0
 10
12.9305210166
 20
8.2350918326
 30
0.0
 10
12.9348960923
 20
8.2427252047
 30
0.0
 10
12.9403129442
 20
8.2528859567
 30
0.0
 10
12.9466432354
 20
8.2658518582
 30
0.0
 10
12.9528890605
 20
8.2797499182
 30
0.0
 10
12.9590387476
 20
8.2945543583
 30
0.0
 10
12.9650808016
 20
8.3102379002
 30
0.0
 10
12.9710039093
 20
8.3267714633
 30
0.0
 10
12.976796962
 20
8.3441243554
 30
0.0
 10
12.9824490869
 20
8.3622643138
 30
0.0
 10
12.987949667
 20
8.3811575747
 30
0.0
 10
12.9932883857
 20
8.4007689309
 30
0.0
 10
12.9984552262
 20
8.4210618132
 30
0.0
 10
13.0034404932
 20
8.4419983696
 30
0.0
 10
13.0082348276
 20
8.4635395352
 30
0.0
 10
13.012829239
 20
8.4856450991
 30
0.0
 10
13.017215118
 20
8.5082737831
 30
0.0
 10
13.0213842449
 20
8.5313833313
 30
0.0
 10
13.0253287938
 20
8.5549305771
 30
0.0
 10
13.0290413997
 20
8.5788715697
 30
0.0
 10
13.0336967221
 20
8.6114249253
 30
0.0
 10
13.0388788311
 20
8.6527702966
 30
0.0
 10
13.0440430125
 20
8.7029750988
 30
0.0
 10
13.048145457
 20
8.7536475151
 30
0.0
 10
13.0511554963
 20
8.8044092176
 30
0.0
 10
13.0530506781
 20
8.8548812103
 30
0.0
 10
13.0536926985
 20
8.896592295
 30
0.0
 10
13.0536297676
 20
8.9295268418
 30
0.0
 10
13.0532978701
 20
8.9537983269
 30
0.0
 10
13.052681772
 20
8.9777182445
 30
0.0
 10
13.0517826131
 20
9.0012419447
 30
0.0
 10
13.0506021096
 20
9.0243254784
 30
0.0
 10
13.0491425
 20
9.0469257393
 30
0.0
 10
13.0474065457
 20
9.0690005236
 30
0.0
 10
13.0453975221
 20
9.0905086142
 30
0.0
 10
13.0431192235
 20
9.111409865
 30
0.0
 10
13.0405759631
 20
9.1316652809
 30
0.0
 10
13.0377725476
 20
9.1512370877
 30
0.0
 10
13.0347142713
 20
9.1700887999
 30
0.0
 10
13.0314069039
 20
9.1881853029
 30
0.0
 10
13.0278567013
 20
9.20549293
 30
0.0
 10
13.0240703688
 20
9.2219795368
 30
0.0
 10
13.0200550475
 20
9.2376145335
 30
0.0
 10
13.0158182835
 20
9.2523690624
 30
0.0
 10
13.0113680285
 20
9.2662157327
 30
0.0
 10
13.0074301993
 20
9.2771392232
 30
0.0
 10
13.0041698994
 20
9.2853952305
 30
0.0
 10
13.0017142167
 20
9.2912488436
 30
0.0
 10
12.9992114952
 20
9.2968570625
 30
0.0
 10
12.9966629104
 20
9.3022173232
 30
0.0
 10
12.9940695817
 20
9.3073271297
 30
0.0
 10
12.9914327348
 20
9.3121841461
 30
0.0
 10
12.9887535674
 20
9.3167861437
 30
0.0
 10
12.9860332439
 20
9.3211309895
 30
0.0
 10
12.9832730415
 20
9.3252167277
 30
0.0
 10
12.9804741204
 20
9.329041458
 30
0.0
 10
12.9776377138
 20
9.3326034326
 30
0.0
 10
12.9747650606
 20
9.3359010316
 30
0.0
 10
12.9718573034
 20
9.338932661
 30
0.0
 10
12.9689157017
 20
9.3416969318
 30
0.0
 10
12.9659414359
 20
9.3441924423
 30
0.0
 10
12.9629356331
 20
9.3464179116
 30
0.0
 10
12.9598998141
 20
9.3483720482
 30
0.0
 10
12.9578256342
 20
9.3495101004
 30
0.0
 10
12.95678608
 20
9.3500303624
 30
0.0
  0
SPLINE
  5
36B
100
AcDbEntity
  8
0
100
AcDbSpline
 62
7
  6
CONTINUOUS
 70
0
 71
3
 72
14
 73
10
 74
0
 42
0.0000001
 43
0.0000001
 44
0.0000000001
 40
0.0
 40
0.0
 40
0.0
 40
0.0
 40
0.1419783418
 40
0.2785967165
 40
0.4100579536
 40
0.5366050111
 40
0.6585296473
 40
0.7761651711
 40
1.0
 40
1.0
 40
1.0
 40
1.0
 10
12.900942138
 20
8.1957724606
 30
0.0
 10
12.8999143537
 20
8.1947796971
 30
0.0
 10
12.8978593559
 20
8.1928706502
 30
0.0
 10
12.8947171004
 20
8.1901930117
 30
0.0
 10
12.8915767943
 20
8.1877587012
 30
0.0
 10
12.8884399075
 20
8.185569071
 30
0.0
 10
12.8853072286
 20
8.183624875
 30
0.0
 10
12.8812072936
 20
8.1813987215
 30
0.0
 10
12.8780370197
 20
8.1800378609
 30
0.0
 10
12.8759078472
 20
8.1793018003
 30
0.0
  0
SPLINE
  5
36C
100
AcDbEntity
  8
0
100
AcDbSpline
 62
7
  6
CONTINUOUS
 70
0
 71
3
 72
19
 73
15
 74
0
 42
0.0000001
 43
0.0000001
 44
0.0000000001
 40
0.0
 40
0.0
 40
0.0
 40
0.0
 40
0.1532259837
 40
0.2947794198
 40
0.4259268468
 40
0.5483710024
 40
0.6070241419
 40
0.664343639
 40
0.7206643342
 40
0.776340523
 40
0.8317401594
 40
0.887237108
 40
0.9432031319
 40
1.0
 40
1.0
 40
1.0
 40
1.0
 10
12.900942138
 20
8.374468749
 30
0.0
 10
12.8995158455
 20
8.3730910562
 30
0.0
 10
12.8966660406
 20
8.3705462074
 30
0.0
 10
12.8922147003
 20
8.3672786439
 30
0.0
 10
12.8877693242
 20
8.3647265989
 30
0.0
 10
12.8840195342
 20
8.3631816902
 30
0.0
 10
12.8810502003
 20
8.3623331772
 30
0.0
 10
12.8788627781
 20
8.3618883972
 30
0.0
 10
12.8766847285
 20
8.3616267048
 30
0.0
 10
12.8745171626
 20
8.3615484013
 30
0.0
 10
12.8723613874
 20
8.3616536544
 30
0.0
 10
12.8702186317
 20
8.3619423555
 30
0.0
 10
12.868090331
 20
8.3624142887
 30
0.0
 10
12.8666946076
 20
8.362846875
 30
0.0
 10
12.8660015943
 20
8.3630918926
 30
0.0
  0
SPLINE
  5
36D
100
AcDbEntity
  8
0
100
AcDbSpline
 62
7
  6
CONTINUOUS
 70
0
 71
3
 72
21
 73
17
 74
0
 42
0.0000001
 43
0.0000001
 44
0.0000000001
 40
0.0
 40
0.0
 40
0.0
 40
0.0
 40
0.1273176984
 40
0.2537999461
 40
0.3167619614
 40
0.3795355204
 40
0.4421314992
 40
0.5045621453
 40
0.5668413456
 40
0.6289845231
 40
0.6910084433
 40
0.7529310869
 40
0.8147714401
 40
0.8765493236
 40
0.9382852134
 40
1.0
 40
1.0
 40
1.0
 40
1.0
 10
11.3265199276
 20
9.63981945
 30
0.0
 10
11.3265199276
 20
9.6463178724
 30
0.0
 10
11.3271402454
 20
9.65928044
 30
0.0
 10
11.3294830114
 20
9.6753049719
 30
0.0
 10
11.3322831135
 20
9.6878748139
 30
0.0
 10
11.3348366605
 20
9.6971463355
 30
0.0
 10
11.3378407558
 20
9.7062531068
 30
0.0
 10
11.3412884734
 20
9.7151743935
 30
0.0
 10
11.3451718645
 20
9.7238895619
 30
0.0
 10
11.3494820529
 20
9.7323784981
 30
0.0
 10
11.3542090677
 20
9.7406216337
 30
0.0
 10
11.3593420075
 20
9.7485999714
 30
0.0
 10
11.3648690845
 20
9.7562950494
 30
0.0
 10
11.3707775867
 20
9.7636891952
 30
0.0
 10
11.3770536261
 20
9.7707651508
 30
0.0
 10
11.3814739246
 20
9.7752602144
 30
0.0
 10
11.383739572
 20
9.7774486484
 30
0.0
  0
SPLINE
  5
36E
100
AcDbEntity
  8
0
100
AcDbSpline
 62
7
  6
CONTINUOUS
 70
0
 71
3
 72
95
 73
91
 74
0
 42
0.0000001
 43
0.0000001
 44
0.0000000001
 40
0.0
 40
0.0
 40
0.0
 40
0.0
 40
0.0041939594
 40
0.0085762782
 40
0.0131520573
 40
0.0179256173
 40
0.0229004891
 40
0.0280792353
 40
0.0334636269
 40
0.0390547837
 40
0.0448532429
 40
0.0508590315
 40
0.0570716617
 40
0.0634902595
 40
0.0701135134
 40
0.0769398105
 40
0.09119284
 40
0.1062306851
 40
0.1220299823
 40
0.1385637575
 40
0.1558018515
 40
0.1737112679
 40
0.1922564673
 40
0.2113996207
 40
0.2311008356
 40
0.2513183603
 40
0.272008772
 40
0.2931271544
 40
0.3146272662
 40
0.3364617034
 40
0.3585820579
 40
0.380939072
 40
0.4034827908
 40
0.4261627133
 40
0.448927942
 40
0.4717273316
 40
0.4945096381
 40
0.5172236671
 40
0.539818422
 40
0.5622432532
 40
0.5844480073
 40
0.6063831771
 40
0.6280000543
 40
0.6492508828
 40
0.6700890155
 40
0.690469076
 40
0.710347124
 40
0.7296808303
 40
0.748429661
 40
0.7665550762
 40
0.7840207471
 40
0.8007927993
 40
0.816840092
 40
0.8321345465
 40
0.8466515423
 40
0.8536121205
 40
0.860370937
 40
0.8669261464
 40
0.8732762126
 40
0.8794199799
 40
0.8853566932
 40
0.8910860295
 40
0.8966081824
 40
0.9019238591
 40
0.9070344273
 40
0.9119418968
 40
0.9166491158
 40
0.9211597694
 40
0.9254786037
 40
0.9296114746
 40
0.9335655778
 40
0.9373495665
 40
0.9409737611
 40
0.9477890579
 40
0.9510148461
 40
0.9541417235
 40
0.9571900969
 40
0.9601821554
 40
0.9631415091
 40
0.9660926235
 40
0.9690601892
 40
0.9720684542
 40
0.9751406083
 40
0.9782982941
 40
0.9815612373
 40
0.98494706
 40
0.9884713247
 40
0.992147593
 40
0.9959873756
 40
1.0
 40
1.0
 40
1.0
 40
1.0
 10
10.0108918953
 20
10.9578336038
 30
0.0
 10
10.0122967125
 20
10.959190553
 30
0.0
 10
10.0152392934
 20
10.9618937983
 30
0.0
 10
10.0199323669
 20
10.9658323586
 30
0.0
 10
10.0249969645
 20
10.9697396018
 30
0.0
 10
10.030429802
 20
10.9736131355
 30
0.0
 10
10.03622777
 20
10.9774507775
 30
0.0
 10
10.0423874508
 20
10.9812503606
 30
0.0
 10
10.0489052153
 20
10.9850096277
 30
0.0
 10
10.055777185
 20
10.9887263469
 30
0.0
 10
10.0629992699
 20
10.9923983362
 30
0.0
 10
10.070567184
 20
10.9960233765
 30
0.0
 10
10.0784764021
 20
10.999599351
 30
0.0
 10
10.0867222117
 20
11.0031240483
 30
0.0
 10
10.0952996768
 20
11.0065954509
 30
0.0
 10
10.1073455694
 20
11.0112166202
 30
0.0
 10
10.1232046022
 20
11.0168304844
 30
0.0
 10
10.143207867
 20
11.0232287955
 30
0.0
 10
10.1644004936
 20
11.0293666719
 30
0.0
 10
10.1867316358
 20
11.0352292364
 30
0.0
 10
10.210147903
 20
11.0408022644
 30
0.0
 10
10.234593135
 20
11.0460722293
 30
0.0
 10
10.2600086621
 20
11.0510263403
 30
0.0
 10
10.2863334277
 20
11.0556525756
 30
0.0
 10
10.3135041548
 20
11.0599397119
 30
0.0
 10
10.3414555024
 20
11.0638773515
 30
0.0
 10
10.3701202301
 20
11.0674559471
 30
0.0
 10
10.3994293635
 20
11.0706668246
 30
0.0
 10
10.4293123639
 20
11.0735022029
 30
0.0
 10
10.4596973004
 20
11.0759552125
 30
0.0
 10
10.4905110258
 20
11.0780199116
 30
0.0
 10
10.5216793539
 20
11.0796912994
 30
0.0
 10
10.5531272398
 20
11.0809653285
 30
0.0
 10
10.5847789616
 20
11.0818389139
 30
0.0
 10
10.6165583042
 20
11.0823099401
 30
0.0
 10
10.6483887432
 20
11.0823772668
 30
0.0
 10
10.6801936308
 20
11.0820407313
 30
0.0
 10
10.7118963812
 20
11.0813011486
 30
0.0
 10
10.7434206557
 20
11.0801603093
 30
0.0
 10
10.7746905477
 20
11.078620976
 30
0.0
 10
10.8056307667
 20
11.076686876
 30
0.0
 10
10.8361668199
 20
11.0743626934
 30
0.0
 10
10.8662251938
 20
11.0716540577
 30
0.0
 10
10.8957335325
 20
11.0685675307
 30
0.0
 10
10.9246208135
 20
11.0651105913
 30
0.0
 10
10.9528175216
 20
11.0612916182
 30
0.0
 10
10.9802558195
 20
11.0571198699
 30
0.0
 10
11.0068697145
 20
11.052605463
 30
0.0
 10
11.0325952242
 20
11.0477593489
 30
0.0
 10
11.0573705346
 20
11.0425932868
 30
0.0
 10
11.0811361657
 20
11.0371198151
 30
0.0
 10
11.1038350972
 20
11.0313522185
 30
0.0
 10
11.1254130222
 20
11.0253044945
 30
0.0
 10
11.145818146
 20
11.0189913035
 30
0.0
 10
11.1620240886
 20
11.0134469417
 30
0.0
 10
11.1743557158
 20
11.0088790783
 30
0.0
 10
11.1831514508
 20
11.0054444163
 30
0.0
 10
11.1916189266
 20
11.0019550451
 30
0.0
 10
11.1997530827
 20
10.9984130079
 30
0.0
 10
11.2075490541
 20
10.9948204446
 30
0.0
 10
11.2150021911
 20
10.9911795142
 30
0.0
 10
11.2221080415
 20
10.9874923637
 30
0.0
 10
11.2288623941
 20
10.9837612312
 30
0.0
 10
11.235261215
 20
10.9799882672
 30
0.0
 10
11.2413007443
 20
10.9761757651
 30
0.0
 10
11.2469773745
 20
10.9723258724
 30
0.0
 10
11.2522877982
 20
10.9684409018
 30
0.0
 10
11.2572288413
 20
10.9645229902
 30
0.0
 10
11.2617976231
 20
10.9605744333
 30
0.0
 10
11.2659914224
 20
10.9565973085
 30
0.0
 10
11.2698076435
 20
10.9525939948
 30
0.0
 10
11.2732443036
 20
10.9485659973
 30
0.0
 10
11.2772345158
 20
10.9432757421
 30
0.0
 10
11.2805741995
 20
10.9378281147
 30
0.0
 10
11.2831490971
 20
10.932256276
 30
0.0
 10
11.2846555737
 20
10.9281397709
 30
0.0
 10
11.285770629
 20
10.9240128709
 30
0.0
 10
11.2864928703
 20
10.9198782259
 30
0.0
 10
11.2868214256
 20
10.9157390933
 30
0.0
 10
11.2867556816
 20
10.9115988122
 30
0.0
 10
11.2862958624
 20
10.9074608088
 30
0.0
 10
11.2854425276
 20
10.9033284048
 30
0.0
 10
11.2841968741
 20
10.8992046751
 30
0.0
 10
11.2825603268
 20
10.8950924382
 30
0.0
 10
11.2805346
 20
10.8909942482
 30
0.0
 10
11.2781215566
 20
10.8869124136
 30
0.0
 10
11.2753230324
 20
10.8828491365
 30
0.0
 10
11.2721409997
 20
10.8788064512
 30
0.0
 10
11.268577734
 20
10.8747867453
 30
0.0
 10
11.2660077689
 20
10.8721825129
 30
0.0
 10
11.2646636921
 20
10.8708842343
 30
0.0
  0
SPLINE
  5
36F
100
AcDbEntity
  8
0
100
AcDbSpline
 62
7
  6
CONTINUOUS
 70
0
 71
3
 72
21
 73
17
 74
0
 42
0.0000001
 43
0.0000001
 44
0.0000000001
 40
0.0
 40
0.0
 40
0.0
 40
0.0
 40
0.1273176984
 40
0.2537999461
 40
0.3167619614
 40
0.3795355204
 40
0.4421314992
 40
0.5045621453
 40
0.5668413456
 40
0.6289845231
 40
0.6910084433
 40
0.7529310869
 40
0.8147714401
 40
0.8765493236
 40
0.9382852134
 40
1.0
 40
1.0
 40
1.0
 40
1.0
 10
10.2398533086
 20
6.7565490897
 30
0.0
 10
10.2398533086
 20
6.7630475121
 30
0.0
 10
10.2404736265
 20
6.7760100798
 30
0.0
 10
10.2428163925
 20
6.7920346117
 30
0.0
 10
10.2456164946
 20
6.8046044536
 30
0.0
 10
10.2481700415
 20
6.8138759752
 30
0.0
 10
10.2511741369
 20
6.8229827465
 30
0.0
 10
10.2546218545
 20
6.8319040332
 30
0.0
 10
10.2585052455
 20
6.8406192017
 30
0.0
 10
10.262815434
 20
6.8491081379
 30
0.0
 10
10.2675424488
 20
6.8573512734
 30
0.0
 10
10.2726753886
 20
6.8653296111
 30
0.0
 10
10.2782024656
 20
6.8730246892
 30
0.0
 10
10.2841109678
 20
6.880418835
 30
0.0
 10
10.2903870071
 20
6.8874947905
 30
0.0
 10
10.2948073056
 20
6.8919898542
 30
0.0
 10
10.297072953
 20
6.8941782881
 30
0.0
  0
SPLINE
  5
370
100
AcDbEntity
  8
0
100
AcDbSpline
 62
7
  6
CONTINUOUS
 70
0
 71
3
 72
79
 73
75
 74
0
 42
0.0000001
 43
0.0000001
 44
0.0000000001
 40
0.0
 40
0.0
 40
0.0
 40
0.0
 40
0.0040522647
 40
0.0082800199
 40
0.0126871223
 40
0.0172767596
 40
0.0220515951
 40
0.0270137206
 40
0.0321645205
 40
0.0375048004
 40
0.0487542551
 40
0.0607611631
 40
0.0735182664
 40
0.0870137126
 40
0.1012317553
 40
0.116153243
 40
0.1317560847
 40
0.1480155893
 40
0.1649047168
 40
0.1823942891
 40
0.2004532296
 40
0.2190487398
 40
0.238146435
 40
0.2577104791
 40
0.2777037522
 40
0.2980879759
 40
0.3188238175
 40
0.3398710073
 40
0.3827336737
 40
0.4263405756
 40
0.4703478805
 40
0.5144077317
 40
0.5581717467
 40
0.6012945073
 40
0.6434371064
 40
0.6640380212
 40
0.6842715837
 40
0.7040988619
 40
0.7234820049
 40
0.7423843946
 40
0.7607707732
 40
0.7786073595
 40
0.7958619971
 40
0.8125043553
 40
0.8285061007
 40
0.8438410828
 40
0.858485583
 40
0.8724186541
 40
0.8856224624
 40
0.8980827203
 40
0.9097892811
 40
0.920736959
 40
0.925926637
 40
0.9309274468
 40
0.9357406726
 40
0.9403681574
 40
0.9448123458
 40
0.9490764891
 40
0.9531646097
 40
0.9570816787
 40
0.9608337757
 40
0.9644281207
 40
0.9678733341
 40
0.971179529
 40
0.9743584204
 40
0.9774235233
 40
0.9803901223
 40
0.9832752901
 40
0.9860977765
 40
0.9888777105
 40
0.9916362588
 40
0.9943951193
 40
0.9971759868
 40
1.0
 40
1.0
 40
1.0
 40
1.0
 10
12.900942138
 20
8.374468749
 30
0.0
 10
12.9017620009
 20
8.3752606758
 30
0.0
 10
12.9034007918
 20
8.3769168988
 30
0.0
 10
12.9058063571
 20
8.3795542656
 30
0.0
 10
12.9082092849
 20
8.3823950746
 30
0.0
 10
12.9106081592
 20
8.3854377135
 30
0.0
 10
12.913001835
 20
8.3886805813
 30
0.0
 10
12.9153890717
 20
8.3921220575
 30
0.0
 10
12.9177687085
 20
8.3957603651
 30
0.0
 10
12.9209856966
 20
8.400961985
 30
0.0
 10
12.9249699591
 20
8.4079533857
 30
0.0
 10
12.9296215547
 20
8.4169553461
 30
0.0
 10
12.9342134328
 20
8.426691078
 30
0.0
 10
12.9387359268
 20
8.4371402719
 30
0.0
 10
12.9431795097
 20
8.4482812872
 30
0.0
 10
12.9475347983
 20
8.4600908572
 30
0.0
 10
12.9517925716
 20
8.4725442767
 30
0.0
 10
12.9559438007
 20
8.4856154407
 30
0.0
 10
12.9599796781
 20
8.4992769057
 30
0.0
 10
12.9638916589
 20
8.5134999452
 30
0.0
 10
12.9676714508
 20
8.5282546324
 30
0.0
 10
12.9713110371
 20
8.5435099103
 30
0.0
 10
12.974802701
 20
8.5592336492
 30
0.0
 10
12.9781390563
 20
8.5753927132
 30
0.0
 10
12.9813130399
 20
8.5919530461
 30
0.0
 10
12.9843179188
 20
8.6088797357
 30
0.0
 10
12.9871473574
 20
8.6261371205
 30
0.0
 10
12.9906993831
 20
8.649681567
 30
0.0
 10
12.9946510097
 20
8.6796694368
 30
0.0
 10
12.9985811889
 20
8.7161640531
 30
0.0
 10
13.0016943923
 20
8.7530754373
 30
0.0
 10
13.0039643064
 20
8.7900924816
 30
0.0
 10
13.0053718995
 20
8.8269034531
 30
0.0
 10
13.0059054025
 20
8.8631980919
 30
0.0
 10
13.0056162289
 20
8.8929797105
 30
0.0
 10
13.0049345012
 20
8.9163112972
 30
0.0
 10
13.0042080533
 20
8.9333601737
 30
0.0
 10
13.0032642568
 20
8.950055321
 30
0.0
 10
13.002105093
 20
8.9663615696
 30
0.0
 10
13.0007330508
 20
8.9822445438
 30
0.0
 10
12.9991510675
 20
8.9976707828
 30
0.0
 10
12.997362523
 20
9.0126077921
 30
0.0
 10
12.9953712262
 20
9.0270241197
 30
0.0
 10
12.993181436
 20
9.0408894356
 30
0.0
 10
12.990797837
 20
9.0541745989
 30
0.0
 10
12.9882255187
 20
9.0668517143
 30
0.0
 10
12.9854699579
 20
9.0788942007
 30
0.0
 10
12.9825370353
 20
9.0902768824
 30
0.0
 10
12.979432996
 20
9.1009760199
 30
0.0
 10
12.9761644045
 20
9.110969481
 30
0.0
 10
12.9727381325
 20
9.1202364241
 30
0.0
 10
12.9697057389
 20
9.127461359
 30
0.0
 10
12.96719779
 20
9.1328532723
 30
0.0
 10
12.9653154575
 20
9.1366313402
 30
0.0
 10
12.9633991873
 20
9.140213973
 30
0.0
 10
12.9614499477
 20
9.1435993333
 30
0.0
 10
12.9594686811
 20
9.1467856429
 30
0.0
 10
12.9574564347
 20
9.1497712885
 30
0.0
 10
12.9554141762
 20
9.1525547197
 30
0.0
 10
12.9533428743
 20
9.155134479
 30
0.0
 10
12.9512435679
 20
9.1575092639
 30
0.0
 10
12.9491171761
 20
9.1596777744
 30
0.0
 10
12.9469646933
 20
9.161638847
 30
0.0
 10
12.9447871081
 20
9.1633913956
 30
0.0
 10
12.9425853441
 20
9.1649342863
 30
0.0
 10
12.9403604659
 20
9.1662665611
 30
0.0
 10
12.9381135234
 20
9.1673872114
 30
0.0
 10
12.9358456743
 20
9.1682952562
 30
0.0
 10
12.9335582571
 20
9.1689899349
 30
0.0
 10
12.9312526862
 20
9.1694704485
 30
0.0
 10
12.9289305806
 20
9.1697363233
 30
0.0
 10
12.9265935518
 20
9.1697873457
 30
0.0
 10
12.9242435113
 20
9.1696234815
 30
0.0
 10
12.9226844078
 20
9.1693736508
 30
0.0
 10
12.9219060802
 20
9.1692147693
 30
0.0
  0
SPLINE
  5
371
100
AcDbEntity
  8
0
100
AcDbSpline
 62
7
  6
CONTINUOUS
 70
0
 71
3
 72
79
 73
75
 74
0
 42
0.0000001
 43
0.0000001
 44
0.0000000001
 40
0.0
 40
0.0
 40
0.0
 40
0.0
 40
0.0029804418
 40
0.0060540414
 40
0.0092329784
 40
0.0125281034
 40
0.0159489439
 40
0.0195037813
 40
0.023199793
 40
0.0270430713
 40
0.0310388063
 40
0.0351913393
 40
0.0395042369
 40
0.0439804421
 40
0.0486222476
 40
0.0534314436
 40
0.0584093437
 40
0.0635567978
 40
0.0688743211
 40
0.0743620289
 40
0.0858464819
 40
0.0980059709
 40
0.1108317699
 40
0.1243118069
 40
0.138431098
 40
0.1531721009
 40
0.1685150159
 40
0.1844380191
 40
0.2009174526
 40
0.2179279851
 40
0.2354427716
 40
0.2534335912
 40
0.2718709666
 40
0.2907242669
 40
0.3099618095
 40
0.3295509708
 40
0.3494582809
 40
0.3696495133
 40
0.3900897687
 40
0.4315742264
 40
0.4736231753
 40
0.5159422222
 40
0.5582345288
 40
0.6002034945
 40
0.6415554605
 40
0.6619101397
 40
0.682003163
 40
0.7017998646
 40
0.7212662794
 40
0.74036923
 40
0.7590764155
 40
0.7773565277
 40
0.7951793387
 40
0.8125158077
 40
0.8293381926
 40
0.8456201738
 40
0.8613370139
 40
0.8764656932
 40
0.8909850869
 40
0.9048761761
 40
0.9181223048
 40
0.9307095
 40
0.9426268359
 40
0.9538669124
 40
0.9592320928
 40
0.9644271647
 40
0.9694524942
 40
0.9743088405
 40
0.9789973687
 40
0.983519696
 40
0.9878780837
 40
0.9920753306
 40
0.9961146993
 40
1.0
 40
1.0
 40
1.0
 40
1.0
 10
11.1897837274
 20
10.8260592942
 30
0.0
 10
11.1893616792
 20
10.827106665
 30
0.0
 10
11.1884254395
 20
10.8292031075
 30
0.0
 10
11.1867815757
 20
10.8322936763
 30
0.0
 10
11.1848794823
 20
10.835373359
 30
0.0
 10
11.1827202812
 20
10.83844057
 30
0.0
 10
11.1803051118
 20
10.8414940852
 30
0.0
 10
11.1776352336
 20
10.8445326325
 30
0.0
 10
11.1747118911
 20
10.8475548717
 30
0.0
 10
11.1715365314
 20
10.8505595621
 30
0.0
 10
11.1681106133
 20
10.8535453658
 30
0.0
 10
11.1644357301
 20
10.8565109624
 30
0.0
 10
11.1605136089
 20
10.8594550715
 30
0.0
 10
11.1563460273
 20
10.8623763091
 30
0.0
 10
11.1519349445
 20
10.8652733994
 30
0.0
 10
11.1472823899
 20
10.8681449953
 30
0.0
 10
11.1423905144
 20
10.8709897606
 30
0.0
 10
11.1372616104
 20
10.8738064172
 30
0.0
 10
11.1318980322
 20
10.8765936313
 30
0.0
 10
11.1243218368
 20
10.8803256116
 30
0.0
 10
11.1142726901
 20
10.8848972757
 30
0.0
 10
11.1014963134
 20
10.8901654831
 30
0.0
 10
11.0878496378
 20
10.8952860891
 30
0.0
 10
11.0733581492
 20
10.9002494531
 30
0.0
 10
11.0580487423
 20
10.9050462329
 30
0.0
 10
11.0419499921
 20
10.9096673752
 30
0.0
 10
11.0250919794
 20
10.9141041447
 30
0.0
 10
11.0075062519
 20
10.918348148
 30
0.0
 10
10.9892257548
 20
10.9223913496
 30
0.0
 10
10.9702847709
 20
10.9262261057
 30
0.0
 10
10.9507188438
 20
10.929845164
 30
0.0
 10
10.9305647028
 20
10.9332416791
 30
0.0
 10
10.9098601922
 20
10.9364092238
 30
0.0
 10
10.8886442038
 20
10.9393418062
 30
0.0
 10
10.8669566036
 20
10.9420338884
 30
0.0
 10
10.8448381467
 20
10.9444803851
 30
0.0
 10
10.8223304113
 20
10.9466766655
 30
0.0
 10
10.7994756671
 20
10.9486186025
 30
0.0
 10
10.7684454636
 20
10.9508747486
 30
0.0
 10
10.7291075741
 20
10.9530268476
 30
0.0
 10
10.6814454972
 20
10.9545379181
 30
0.0
 10
10.6334553545
 20
10.9549783129
 30
0.0
 10
10.5854976709
 20
10.954344754
 30
0.0
 10
10.5379327269
 20
10.9526419831
 30
0.0
 10
10.4987169239
 20
10.9503310835
 30
0.0
 10
10.4678162943
 20
10.9479491686
 30
0.0
 10
10.4450815269
 20
10.9459152245
 30
0.0
 10
10.4227090737
 20
10.9436283816
 30
0.0
 10
10.4007409493
 20
10.9410929326
 30
0.0
 10
10.3792184514
 20
10.9383136756
 30
0.0
 10
10.3581820228
 20
10.9352958555
 30
0.0
 10
10.3376711861
 20
10.9320451812
 30
0.0
 10
10.3177244623
 20
10.928567803
 30
0.0
 10
10.2983793049
 20
10.9248702974
 30
0.0
 10
10.2796720278
 20
10.9209596566
 30
0.0
 10
10.2616377279
 20
10.9168432732
 30
0.0
 10
10.2443102108
 20
10.9125289415
 30
0.0
 10
10.227721925
 20
10.908024825
 30
0.0
 10
10.211903904
 20
10.9033394417
 30
0.0
 10
10.196885689
 20
10.8984816399
 30
0.0
 10
10.1826952845
 20
10.8934605849
 30
0.0
 10
10.1693589792
 20
10.8882857261
 30
0.0
 10
10.1569016625
 20
10.8829667847
 30
0.0
 10
10.147125812
 20
10.8783536862
 30
0.0
 10
10.1397728602
 20
10.8745901916
 30
0.0
 10
10.1345779597
 20
10.8717816507
 30
0.0
 10
10.1296194544
 20
10.868944616
 30
0.0
 10
10.1248996438
 20
10.8660803926
 30
0.0
 10
10.1204207144
 20
10.8631903449
 30
0.0
 10
10.11618475
 20
10.8602757329
 30
0.0
 10
10.1121936498
 20
10.8573379005
 30
0.0
 10
10.1084492602
 20
10.8543780965
 30
0.0
 10
10.104953494
 20
10.8513978425
 30
0.0
 10
10.1027476955
 20
10.8493593781
 30
0.0
 10
10.1016889283
 20
10.8483366874
 30
0.0
  0
SPLINE
  5
372
100
AcDbEntity
  8
0
100
AcDbSpline
 62
7
  6
CONTINUOUS
 70
0
 71
3
 72
48
 73
44
 74
0
 42
0.0000001
 43
0.0000001
 44
0.0000000001
 40
0.0
 40
0.0
 40
0.0
 40
0.0
 40
0.0103099091
 40
0.0210729307
 40
0.0322840278
 40
0.0439367976
 40
0.0560238569
 40
0.0685366901
 40
0.0814659816
 40
0.0948014705
 40
0.1085322153
 40
0.1226464789
 40
0.1519749012
 40
0.1826813635
 40
0.2146511056
 40
0.2477618435
 40
0.2818847594
 40
0.3168854137
 40
0.352624605
 40
0.3889591982
 40
0.4257429295
 40
0.4628271986
 40
0.5000618523
 40
0.5372959634
 40
0.5743786076
 40
0.6111596398
 40
0.6474904736
 40
0.6832248645
 40
0.7182197023
 40
0.7523358166
 40
0.7854388047
 40
0.8173998925
 40
0.8480968465
 40
0.8774149645
 40
0.9052481856
 40
0.9185779241
 40
0.9315012822
 40
0.9440080791
 40
0.9560889291
 40
0.9677354268
 40
0.9789400953
 40
0.9896966652
 40
1.0
 40
1.0
 40
1.0
 40
1.0
 10
12.818554465
 20
8.4444623217
 30
0.0
 10
12.8196106118
 20
8.4464808347
 30
0.0
 10
12.8217103215
 20
8.450637659
 30
0.0
 10
12.8247627087
 20
8.4570859921
 30
0.0
 10
12.827782765
 20
8.4638756085
 30
0.0
 10
12.8307672703
 20
8.4709991408
 30
0.0
 10
12.8337129361
 20
8.4784489751
 30
0.0
 10
12.8366166361
 20
8.4862170829
 30
0.0
 10
12.8394751676
 20
8.4942951141
 30
0.0
 10
12.8422854789
 20
8.5026743554
 30
0.0
 10
12.8450445041
 20
8.5113457874
 30
0.0
 10
12.848697578
 20
8.5234397787
 30
0.0
 10
12.8531033854
 20
8.5392228306
 30
0.0
 10
12.8580749735
 20
8.558937251
 30
0.0
 10
12.8627747481
 20
8.5795761778
 30
0.0
 10
12.8671822506
 20
8.6010505131
 30
0.0
 10
12.871278277
 20
8.6232676661
 30
0.0
 10
12.8750450043
 20
8.6461317336
 30
0.0
 10
12.8784660526
 20
8.6695439947
 30
0.0
 10
12.8815265577
 20
8.6934033281
 30
0.0
 10
12.884213233
 20
8.7176066623
 30
0.0
 10
12.8865144255
 20
8.7420494247
 30
0.0
 10
12.8884201655
 20
8.7666259993
 30
0.0
 10
12.8899222094
 20
8.7912301864
 30
0.0
 10
12.8910140753
 20
8.8157556662
 30
0.0
 10
12.8916910712
 20
8.8400964614
 30
0.0
 10
12.8919503168
 20
8.8641473993
 30
0.0
 10
12.891790757
 20
8.8878045711
 30
0.0
 10
12.8912131687
 20
8.9109657868
 30
0.0
 10
12.8902201595
 20
8.9335310222
 30
0.0
 10
12.8888161618
 20
8.9554028671
 30
0.0
 10
12.8870074102
 20
8.9764869359
 30
0.0
 10
12.8848019438
 20
8.9966923751
 30
0.0
 10
12.8822094872
 20
9.0159319958
 30
0.0
 10
12.8797015397
 20
9.0313050805
 30
0.0
 10
12.8774990516
 20
9.0430519874
 30
0.0
 10
12.8757816418
 20
9.051443018
 30
0.0
 10
12.8739768047
 20
9.0595331907
 30
0.0
 10
12.8720864448
 20
9.0673138075
 30
0.0
 10
12.8701126635
 20
9.0747764919
 30
0.0
 10
12.8680575467
 20
9.0819132463
 30
0.0
 10
12.8659234019
 20
9.0887163479
 30
0.0
 10
12.8644167967
 20
9.0931199059
 30
0.0
 10
12.8636490129
 20
9.0952632054
 30
0.0
  0
SPLINE
  5
373
100
AcDbEntity
  8
0
100
AcDbSpline
 62
7
  6
CONTINUOUS
 70
0
 71
3
 72
37
 73
33
 74
0
 42
0.0000001
 43
0.0000001
 44
0.0000000001
 40
0.0
 40
0.0
 40
0.0
 40
0.0
 40
0.0248567203
 40
0.0508887461
 40
0.078039179
 40
0.106246335
 40
0.1354442606
 40
0.1655631731
 40
0.1965298554
 40
0.2282680103
 40
0.2606986045
 40
0.2937402136
 40
0.3273093361
 40
0.3613206982
 40
0.3956875509
 40
0.4303219646
 40
0.5000361782
 40
0.56974918
 40
0.6043820746
 40
0.6387468064
 40
0.6727554617
 40
0.7063213006
 40
0.7393590518
 40
0.7717852162
 40
0.8035183905
 40
0.8344795758
 40
0.8645924983
 40
0.8937839506
 40
0.9219841568
 40
0.9491271905
 40
0.9751514208
 40
1.0
 40
1.0
 40
1.0
 40
1.0
 10
12.8050544348
 20
8.515355949
 30
0.0
 10
12.8064838606
 20
8.519397087
 30
0.0
 10
12.8092957651
 20
8.5277112975
 30
0.0
 10
12.8132934655
 20
8.5405627351
 30
0.0
 10
12.8171604045
 20
8.5540561802
 30
0.0
 10
12.8208858766
 20
8.5681546755
 30
0.0
 10
12.8244596243
 20
8.5828197436
 30
0.0
 10
12.8278717949
 20
8.5980112842
 30
0.0
 10
12.8311129869
 20
8.6136877483
 30
0.0
 10
12.8341742739
 20
8.6298062355
 30
0.0
 10
12.8370472342
 20
8.6463226202
 30
0.0
 10
12.8397239638
 20
8.6631916774
 30
0.0
 10
12.8421971031
 20
8.680367214
 30
0.0
 10
12.8444598441
 20
8.6978021814
 30
0.0
 10
12.8465059933
 20
8.7154488548
 30
0.0
 10
12.848942976
 20
8.7392462301
 30
0.0
 10
12.8514086057
 20
8.7691650818
 30
0.0
 10
12.8530938128
 20
8.7991377591
 30
0.0
 10
12.8539628768
 20
8.8230429607
 30
0.0
 10
12.8543705486
 20
8.8408020915
 30
0.0
 10
12.8545344796
 20
8.8583811141
 30
0.0
 10
12.8544542167
 20
8.8757319095
 30
0.0
 10
12.8541300089
 20
8.8928069412
 30
0.0
 10
12.8535627694
 20
8.9095594456
 30
0.0
 10
12.8527540934
 20
8.925943548
 30
0.0
 10
12.8517062419
 20
8.9419143952
 30
0.0
 10
12.8504221377
 20
8.957428275
 30
0.0
 10
12.8489053573
 20
8.9724427427
 30
0.0
 10
12.8471601221
 20
8.9869167254
 30
0.0
 10
12.8451912877
 20
9.00081071
 30
0.0
 10
12.843004357
 20
9.0140866318
 30
0.0
 10
12.8413660621
 20
9.0227064162
 30
0.0
 10
12.8405076453
 20
9.0269046469
 30
0.0
  0
SPLINE
  5
374
100
AcDbEntity
  8
0
100
AcDbSpline
 62
7
  6
CONTINUOUS
 70
0
 71
3
 72
43
 73
39
 74
0
 42
0.0000001
 43
0.0000001
 44
0.0000000001
 40
0.0
 40
0.0
 40
0.0
 40
0.0
 40
0.0149723204
 40
0.0299477006
 40
0.0449291793
 40
0.0599197625
 40
0.0899340837
 40
0.1200191761
 40
0.1350977684
 40
0.1502017219
 40
0.1804888825
 40
0.2109025329
 40
0.2414558125
 40
0.2721586361
 40
0.3030175147
 40
0.3340354591
 40
0.3652119671
 40
0.3965430872
 40
0.4280215545
 40
0.4596369905
 40
0.491376161
 40
0.5232232825
 40
0.5551603712
 40
0.5871676259
 40
0.6192238382
 40
0.6513068229
 40
0.683393863
 40
0.7154621607
 40
0.7474892906
 40
0.7794536471
 40
0.8113348816
 40
0.843114318
 40
0.8747753538
 40
0.9063037992
 40
0.9376882654
 40
0.9533260383
 40
0.9689254782
 40
1.0
 40
1.0
 40
1.0
 40
1.0
 10
10.8495951645
 20
7.2547463957
 30
0.0
 10
10.8478447883
 20
7.2530556613
 30
0.0
 10
10.8442760632
 20
7.24974304
 30
0.0
 10
10.838729127
 20
7.2449903078
 30
0.0
 10
10.8329953813
 20
7.2404595502
 30
0.0
 10
10.8251097873
 20
7.2347215354
 30
0.0
 10
10.8148201603
 20
7.228132091
 30
0.0
 10
10.8040303025
 20
7.2223683803
 30
0.0
 10
10.7951314842
 20
7.2182679577
 30
0.0
 10
10.7860487881
 20
7.2145061513
 30
0.0
 10
10.7743961424
 20
7.2104610386
 30
0.0
 10
10.7600359971
 20
7.2066911198
 30
0.0
 10
10.7453625105
 20
7.2040203938
 30
0.0
 10
10.7304569945
 20
7.2024636113
 30
0.0
 10
10.7154013305
 20
7.2020290762
 30
0.0
 10
10.7002783588
 20
7.2027190011
 30
0.0
 10
10.6851711991
 20
7.2045294007
 30
0.0
 10
10.6701628591
 20
7.2074501496
 30
0.0
 10
10.6553357667
 20
7.2114650381
 30
0.0
 10
10.6407713284
 20
7.2165518681
 30
0.0
 10
10.626549487
 20
7.2226825782
 30
0.0
 10
10.6127482898
 20
7.2298234
 30
0.0
 10
10.5994434657
 20
7.2379350444
 30
0.0
 10
10.5867080154
 20
7.2469729168
 30
0.0
 10
10.5746118163
 20
7.256887361
 30
0.0
 10
10.5632212429
 20
7.2676239298
 30
0.0
 10
10.5525988072
 20
7.2791236813
 30
0.0
 10
10.5428028193
 20
7.2913234993
 30
0.0
 10
10.53388707
 20
7.3041564371
 30
0.0
 10
10.5259005387
 20
7.3175520766
 30
0.0
 10
10.5188871255
 20
7.3314369262
 30
0.0
 10
10.5128854156
 20
7.3457347608
 30
0.0
 10
10.5079284492
 20
7.3603672484
 30
0.0
 10
10.5040436182
 20
7.3752535849
 30
0.0
 10
10.5017145696
 20
7.3878192634
 30
0.0
 10
10.5004080467
 20
7.3979156437
 30
0.0
 10
10.4994756128
 20
7.4080023602
 30
0.0
 10
10.4991932789
 20
7.4155925497
 30
0.0
 10
10.4991932789
 20
7.4206433966
 30
0.0
  0
SPLINE
  5
375
100
AcDbEntity
  8
0
100
AcDbSpline
 62
7
  6
CONTINUOUS
 70
0
 71
3
 72
21
 73
17
 74
0
 42
0.0000001
 43
0.0000001
 44
0.0000000001
 40
0.0
 40
0.0
 40
0.0
 40
0.0
 40
0.0617147761
 40
0.1234506677
 40
0.1852285528
 40
0.2470689013
 40
0.30899155
 40
0.3710154761
 40
0.4331586505
 40
0.4954378572
 40
0.5578685131
 40
0.6204644763
 40
0.6832380473
 40
0.746200107
 40
0.8726822618
 40
1.0
 40
1.0
 40
1.0
 40
1.0
 10
10.5564121161
 20
7.5582718043
 30
0.0
 10
10.554146493
 20
7.5560833794
 30
0.0
 10
10.5497262617
 20
7.5515883157
 30
0.0
 10
10.543450289
 20
7.5445123947
 30
0.0
 10
10.5375418925
 20
7.5371182536
 30
0.0
 10
10.5320148835
 20
7.5294232138
 30
0.0
 10
10.5268820051
 20
7.5214449187
 30
0.0
 10
10.5221550778
 20
7.5132018134
 30
0.0
 10
10.5178449418
 20
7.5047129295
 30
0.0
 10
10.5139615994
 20
7.4959978152
 30
0.0
 10
10.5105139485
 20
7.4870765785
 30
0.0
 10
10.5075098872
 20
7.4779698706
 30
0.0
 10
10.5049563748
 20
7.4686984106
 30
0.0
 10
10.5021563286
 20
7.4561286557
 30
0.0
 10
10.4998135827
 20
7.440104243
 30
0.0
 10
10.4991932789
 20
7.4271417731
 30
0.0
 10
10.4991932789
 20
7.4206433966
 30
0.0
  0
SPLINE
  5
376
100
AcDbEntity
  8
0
100
AcDbSpline
 62
7
  6
CONTINUOUS
 70
0
 71
3
 72
42
 73
38
 74
0
 42
0.0000001
 43
0.0000001
 44
0.0000000001
 40
0.0
 40
0.0
 40
0.0
 40
0.0
 40
0.0299419634
 40
0.0449235299
 40
0.0599142017
 40
0.0899287029
 40
0.1200139772
 40
0.1350926626
 40
0.1501967046
 40
0.1804840506
 40
0.2108978877
 40
0.2414513551
 40
0.2721543675
 40
0.3030134354
 40
0.3340315696
 40
0.3652082675
 40
0.3965395775
 40
0.4280182343
 40
0.4596338596
 40
0.4913732188
 40
0.5232205284
 40
0.5551578047
 40
0.5871652463
 40
0.6192216448
 40
0.6513048151
 40
0.6833920402
 40
0.7154605222
 40
0.747487836
 40
0.7794523759
 40
0.8113337934
 40
0.8431134117
 40
0.8747746318
 40
0.9063032512
 40
0.9376879208
 40
0.9533258
 40
0.9689252634
 40
1.0
 40
1.0
 40
1.0
 40
1.0
 10
11.6769210061
 20
9.4739216584
 30
0.0
 10
11.6734205843
 20
9.4705405312
 30
0.0
 10
11.6679636161
 20
9.4656737217
 30
0.0
 10
11.6603212551
 20
9.4596350709
 30
0.0
 10
11.6524355232
 20
9.4538969126
 30
0.0
 10
11.6421459399
 20
9.4473076479
 30
0.0
 10
11.6313560707
 20
9.4415439482
 30
0.0
 10
11.6224572249
 20
9.4374436466
 30
0.0
 10
11.6133745551
 20
9.4336818311
 30
0.0
 10
11.6017219016
 20
9.4296368163
 30
0.0
 10
11.5873617724
 20
9.425866964
 30
0.0
 10
11.572688303
 20
9.4231963138
 30
0.0
 10
11.5577828115
 20
9.4216395995
 30
0.0
 10
11.5427271771
 20
9.4212051286
 30
0.0
 10
11.5276042401
 20
9.4218951124
 30
0.0
 10
11.5124971196
 20
9.4237055651
 30
0.0
 10
11.4974888226
 20
9.4266263611
 30
0.0
 10
11.4826617764
 20
9.4306412905
 30
0.0
 10
11.4680973867
 20
9.4357281548
 30
0.0
 10
11.4538755958
 20
9.4418588926
 30
0.0
 10
11.44007445
 20
9.4489997355
 30
0.0
 10
11.4267696777
 20
9.4571113944
 30
0.0
 10
11.4140342789
 20
9.4661492748
 30
0.0
 10
11.4019381301
 20
9.4760637208
 30
0.0
 10
11.3905476053
 20
9.4868002854
 30
0.0
 10
11.3799252159
 20
9.4983000272
 30
0.0
 10
11.3701292713
 20
9.5104998303
 30
0.0
 10
11.361213562
 20
9.5233327486
 30
0.0
 10
11.3532270667
 20
9.5367283644
 30
0.0
 10
11.3462136856
 20
9.5506131867
 30
0.0
 10
11.3402120022
 20
9.564910991
 30
0.0
 10
11.33525506
 20
9.5795434453
 30
0.0
 10
11.3313702427
 20
9.5944297491
 30
0.0
 10
11.3290412084
 20
9.6069954034
 30
0.0
 10
11.3277346893
 20
9.6170917543
 30
0.0
 10
11.3268022586
 20
9.6271784438
 30
0.0
 10
11.3265199276
 20
9.6347686097
 30
0.0
 10
11.3265199276
 20
9.63981945
 30
0.0
  0
SPLINE
  5
377
100
AcDbEntity
  8
0
100
AcDbSpline
 62
7
  6
CONTINUOUS
 70
0
 71
3
 72
42
 73
38
 74
0
 42
0.0000001
 43
0.0000001
 44
0.0000000001
 40
0.0
 40
0.0
 40
0.0
 40
0.0
 40
0.0299419634
 40
0.0449235299
 40
0.0599142017
 40
0.0899287029
 40
0.1200139772
 40
0.1350926626
 40
0.1501967046
 40
0.1804840506
 40
0.2108978877
 40
0.2414513551
 40
0.2721543675
 40
0.3030134354
 40
0.3340315696
 40
0.3652082675
 40
0.3965395775
 40
0.4280182343
 40
0.4596338596
 40
0.4913732188
 40
0.5232205284
 40
0.5551578047
 40
0.5871652463
 40
0.6192216448
 40
0.6513048151
 40
0.6833920402
 40
0.7154605222
 40
0.747487836
 40
0.7794523759
 40
0.8113337934
 40
0.8431134117
 40
0.8747746318
 40
0.9063032512
 40
0.9376879208
 40
0.9533258
 40
0.9689252634
 40
1.0
 40
1.0
 40
1.0
 40
1.0
 10
10.5902543871
 20
6.5906512982
 30
0.0
 10
10.5867539654
 20
6.587270171
 30
0.0
 10
10.5812969972
 20
6.5824033614
 30
0.0
 10
10.5736546361
 20
6.5763647107
 30
0.0
 10
10.5657689043
 20
6.5706265524
 30
0.0
 10
10.5554793209
 20
6.5640372877
 30
0.0
 10
10.5446894517
 20
6.558273588
 30
0.0
 10
10.5357906059
 20
6.5541732863
 30
0.0
 10
10.5267079361
 20
6.5504114709
 30
0.0
 10
10.5150552826
 20
6.5463664561
 30
0.0
 10
10.5006951534
 20
6.5425966038
 30
0.0
 10
10.486021684
 20
6.5399259536
 30
0.0
 10
10.4711161926
 20
6.5383692392
 30
0.0
 10
10.4560605581
 20
6.5379347684
 30
0.0
 10
10.4409376212
 20
6.5386247521
 30
0.0
 10
10.4258305007
 20
6.5404352049
 30
0.0
 10
10.4108222036
 20
6.5433560009
 30
0.0
 10
10.3959951574
 20
6.5473709302
 30
0.0
 10
10.3814307677
 20
6.5524577946
 30
0.0
 10
10.3672089768
 20
6.5585885324
 30
0.0
 10
10.3534078311
 20
6.5657293753
 30
0.0
 10
10.3401030587
 20
6.5738410341
 30
0.0
 10
10.3273676599
 20
6.5828789145
 30
0.0
 10
10.3152715111
 20
6.5927933605
 30
0.0
 10
10.3038809863
 20
6.6035299251
 30
0.0
 10
10.2932585969
 20
6.6150296669
 30
0.0
 10
10.2834626523
 20
6.6272294701
 30
0.0
 10
10.274546943
 20
6.6400623883
 30
0.0
 10
10.2665604477
 20
6.6534580042
 30
0.0
 10
10.2595470666
 20
6.6673428264
 30
0.0
 10
10.2535453832
 20
6.6816406308
 30
0.0
 10
10.248588441
 20
6.6962730851
 30
0.0
 10
10.2447036237
 20
6.7111593889
 30
0.0
 10
10.2423745894
 20
6.7237250432
 30
0.0
 10
10.2410680703
 20
6.7338213941
 30
0.0
 10
10.2401356396
 20
6.7439080836
 30
0.0
 10
10.2398533086
 20
6.7514982495
 30
0.0
 10
10.2398533086
 20
6.7565490897
 30
0.0
  0
SPLINE
  5
378
100
AcDbEntity
  8
0
100
AcDbSpline
 62
7
  6
CONTINUOUS
 70
0
 71
3
 72
84
 73
80
 74
0
 42
0.0000001
 43
0.0000001
 44
0.0000000001
 40
0.0
 40
0.0
 40
0.0
 40
0.0
 40
0.0027164264
 40
0.0054532293
 40
0.008230295
 40
0.0110665896
 40
0.0139797932
 40
0.0169861044
 40
0.0201000661
 40
0.0233345812
 40
0.0267009392
 40
0.0302088856
 40
0.0338668056
 40
0.037681768
 40
0.0416597414
 40
0.0458056718
 40
0.050123593
 40
0.0546167913
 40
0.0592877975
 40
0.0641385717
 40
0.0691704988
 40
0.074384467
 40
0.0797809628
 40
0.0853600226
 40
0.0911213815
 40
0.0970644148
 40
0.1094911534
 40
0.122630387
 40
0.136468035
 40
0.1509868331
 40
0.1661667198
 40
0.1819851503
 40
0.1984173662
 40
0.2154366132
 40
0.2330143274
 40
0.2511202956
 40
0.2697227959
 40
0.2887887406
 40
0.3082838034
 40
0.3281725359
 40
0.3484184777
 40
0.3689842604
 40
0.3898317162
 40
0.4109219843
 40
0.4536719359
 40
0.4969138893
 40
0.5403221212
 40
0.5835693222
 40
0.6263297187
 40
0.6474271304
 40
0.6682829869
 40
0.6888584043
 40
0.7091151927
 40
0.7290159604
 40
0.748524216
 40
0.7676044742
 40
0.7862223676
 40
0.8043447661
 40
0.8219399096
 40
0.838977535
 40
0.8554290199
 40
0.8712675451
 40
0.8864682815
 40
0.9010086172
 40
0.9148684112
 40
0.9280303001
 40
0.9404800906
 40
0.946434749
 40
0.9522077946
 40
0.957798564
 40
0.9632067735
 40
0.9684324641
 40
0.9734760551
 40
0.9783384155
 40
0.983020862
 40
0.9875253935
 40
0.9918546029
 40
0.9960115831
 40
1.0
 40
1.0
 40
1.0
 40
1.0
 10
12.9726706426
 20
9.352111429
 30
0.0
 10
12.9737718043
 20
9.3520350592
 30
0.0
 10
12.9759767461
 20
9.3517820524
 30
0.0
 10
12.9792560885
 20
9.3511050912
 30
0.0
 10
12.9825106503
 20
9.350130756
 30
0.0
 10
12.9857380959
 20
9.3488599594
 30
0.0
 10
12.988936792
 20
9.3472939053
 30
0.0
 10
12.9921050531
 20
9.3454337304
 30
0.0
 10
12.9952414598
 20
9.3432808317
 30
0.0
 10
12.9983446014
 20
9.3408365413
 30
0.0
 10
13.0014131189
 20
9.3381022744
 30
0.0
 10
13.004445741
 20
9.3350795715
 30
0.0
 10
13.0074410722
 20
9.3317699469
 30
0.0
 10
13.0103978515
 20
9.3281751354
 30
0.0
 10
13.0133146985
 20
9.3242968959
 30
0.0
 10
13.0161902677
 20
9.3201371501
 30
0.0
 10
13.0190232473
 20
9.3156979644
 30
0.0
 10
13.0218122218
 20
9.3109814911
 30
0.0
 10
13.024555915
 20
9.3059900866
 30
0.0
 10
13.0272529406
 20
9.3007261924
 30
0.0
 10
13.0299019903
 20
9.2951924209
 30
0.0
 10
13.0325017769
 20
9.2893915207
 30
0.0
 10
13.0350509603
 20
9.2833263581
 30
0.0
 10
13.0375483251
 20
9.2769999715
 30
0.0
 10
13.0399925983
 20
9.2704154904
 30
0.0
 10
13.04322739
 20
9.2611583175
 30
0.0
 10
13.0471173824
 20
9.2489570954
 30
0.0
 10
13.0514881278
 20
9.2335512689
 30
0.0
 10
13.0556195514
 20
9.2172014524
 30
0.0
 10
13.0595032818
 20
9.1999403684
 30
0.0
 10
13.0631314236
 20
9.1818024051
 30
0.0
 10
13.0664966028
 20
9.1628238523
 30
0.0
 10
13.0695919715
 20
9.1430427151
 30
0.0
 10
13.0724112289
 20
9.1224986506
 30
0.0
 10
13.0749486343
 20
9.101232874
 30
0.0
 10
13.0771990182
 20
9.0792880768
 30
0.0
 10
13.0791578038
 20
9.0567083371
 30
0.0
 10
13.0808210042
 20
9.0335390243
 30
0.0
 10
13.0821852318
 20
9.0098267014
 30
0.0
 10
13.0832477034
 20
8.9856190305
 30
0.0
 10
13.0840062474
 20
8.9609646745
 30
0.0
 10
13.0844593039
 20
8.9359132157
 30
0.0
 10
13.084605969
 20
8.9105149893
 30
0.0
 10
13.0843914808
 20
8.8761025497
 30
0.0
 10
13.0833508085
 20
8.8325984147
 30
0.0
 10
13.0808982191
 20
8.7800702065
 30
0.0
 10
13.0772556002
 20
8.7274083862
 30
0.0
 10
13.0724522249
 20
8.6750363902
 30
0.0
 10
13.0674926883
 20
8.6317940135
 30
0.0
 10
13.0629665529
 20
8.5976691984
 30
0.0
 10
13.0593237367
 20
8.5725228051
 30
0.0
 10
13.0554250807
 20
8.547760545
 30
0.0
 10
13.051278415
 20
8.5234321712
 30
0.0
 10
13.0468921175
 20
8.4995866033
 30
0.0
 10
13.0422750378
 20
8.4762717713
 30
0.0
 10
13.0374364956
 20
8.453534536
 30
0.0
 10
13.0323862579
 20
8.4314205891
 30
0.0
 10
13.0271345204
 20
8.4099743566
 30
0.0
 10
13.0216918961
 20
8.3892389028
 30
0.0
 10
13.0160693829
 20
8.3692558431
 30
0.0
 10
13.0102783433
 20
8.3500652599
 30
0.0
 10
13.0043304805
 20
8.331705619
 30
0.0
 10
12.9982378091
 20
8.3142136739
 30
0.0
 10
12.9920126394
 20
8.2976244019
 30
0.0
 10
12.9856675331
 20
8.2819708291
 30
0.0
 10
12.9792152849
 20
8.2672842762
 30
0.0
 10
12.9736808768
 20
8.2557097774
 30
0.0
 10
12.9692010603
 20
8.2469656277
 30
0.0
 10
12.96587244
 20
8.2407648044
 30
0.0
 10
12.9625267518
 20
8.2348267405
 30
0.0
 10
12.9591656752
 20
8.2291543717
 30
0.0
 10
12.9557908763
 20
8.2237505261
 30
0.0
 10
12.9524040146
 20
8.2186179072
 30
0.0
 10
12.9490068316
 20
8.2137590444
 30
0.0
 10
12.9456009285
 20
8.2091763606
 30
0.0
 10
12.9421879802
 20
8.2048720604
 30
0.0
 10
12.9387695621
 20
8.2008482555
 30
0.0
 10
12.9353475219
 20
8.1971071306
 30
0.0
 10
12.9330174443
 20
8.1947548283
 30
0.0
 10
12.931851767
 20
8.1936288705
 30
0.0
  0
SPLINE
  5
379
100
AcDbEntity
  8
0
100
AcDbSpline
 62
7
  6
CONTINUOUS
 70
0
 71
3
 72
80
 73
76
 74
0
 42
0.0000001
 43
0.0000001
 44
0.0000000001
 40
0.0
 40
0.0
 40
0.0
 40
0.0
 40
0.0027164327
 40
0.0054532447
 40
0.0082303176
 40
0.0110666212
 40
0.0139798388
 40
0.016986154
 40
0.0201001347
 40
0.0233346582
 40
0.0267010284
 40
0.0302089968
 40
0.0338669183
 40
0.0376819076
 40
0.0416598906
 40
0.0458058349
 40
0.0501237838
 40
0.0546169826
 40
0.0592880207
 40
0.0641388059
 40
0.0691707482
 40
0.0743847477
 40
0.0853596785
 40
0.0970635549
 40
0.1094903305
 40
0.1226296146
 40
0.1364673135
 40
0.1509861535
 40
0.1661660759
 40
0.1819845508
 40
0.1984168195
 40
0.2154361185
 40
0.2330138792
 40
0.2511198904
 40
0.2697224401
 40
0.2887884373
 40
0.3082835515
 40
0.3281723331
 40
0.348418324
 40
0.368984158
 40
0.3898316649
 40
0.4109219833
 40
0.4536720365
 40
0.4969140898
 40
0.5403224212
 40
0.5835697178
 40
0.6263302119
 40
0.6682828124
 40
0.6888582723
 40
0.7091151075
 40
0.7290159233
 40
0.74852422
 40
0.7676045125
 40
0.7862224423
 40
0.804344885
 40
0.8219400731
 40
0.8389777322
 40
0.8554292445
 40
0.8712678001
 40
0.8864685754
 40
0.9010089485
 40
0.9148687687
 40
0.92803068
 40
0.940480496
 40
0.9522076877
 40
0.9577984663
 40
0.9632066952
 40
0.9684323943
 40
0.9734759977
 40
0.9783383604
 40
0.9830208115
 40
0.987525367
 40
0.9918546057
 40
0.996011597
 40
1.0
 40
1.0
 40
1.0
 40
1.0
 10
12.9658906775
 20
10.7631224986
 30
0.0
 10
12.966808934
 20
10.7630588122
 30
0.0
 10
12.9686476339
 20
10.7628478447
 30
0.0
 10
12.9713822644
 20
10.7622832877
 30
0.0
 10
12.97409624
 20
10.7614707981
 30
0.0
 10
12.9767876023
 20
10.7604110741
 30
0.0
 10
12.9794549746
 20
10.759105113
 30
0.0
 10
12.9820970009
 20
10.7575539389
 30
0.0
 10
12.9847124227
 20
10.7557586025
 30
0.0
 10
12.9873001367
 20
10.753720319
 30
0.0
 10
12.9898589696
 20
10.7514402101
 30
0.0
 10
12.9923878461
 20
10.7489195584
 30
0.0
 10
12.9948856753
 20
10.746159683
 30
0.0
 10
12.997351299
 20
10.7431619475
 30
0.0
 10
12.9997836651
 20
10.7399278923
 30
0.0
 10
13.002181599
 20
10.7364590799
 30
0.0
 10
13.0045439922
 20
10.7327572325
 30
0.0
 10
13.0068697419
 20
10.7288241808
 30
0.0
 10
13.0091576742
 20
10.7246618372
 30
0.0
 10
13.0114067261
 20
10.7202722852
 30
0.0
 10
13.0136157859
 20
10.7156576706
 30
0.0
 10
13.0165567471
 20
10.7090952149
 30
0.0
 10
13.0201132478
 20
10.7003347523
 30
0.0
 10
13.0241346901
 20
10.689136665
 30
0.0
 10
13.0279716428
 20
10.6771021455
 30
0.0
 10
13.0316163843
 20
10.6642551526
 30
0.0
 10
13.0350615645
 20
10.6506210788
 30
0.0
 10
13.0383001966
 20
10.6362270773
 30
0.0
 10
13.0413256996
 20
10.6211018619
 30
0.0
 10
13.0441319128
 20
10.6052756747
 30
0.0
 10
13.0467131274
 20
10.5887802099
 30
0.0
 10
13.0490640946
 20
10.5716485423
 30
0.0
 10
13.0511800288
 20
10.5539150458
 30
0.0
 10
13.0530566207
 20
10.5356153179
 30
0.0
 10
13.054690044
 20
10.5167861112
 30
0.0
 10
13.0560769781
 20
10.497465259
 30
0.0
 10
13.0572146003
 20
10.4776915929
 30
0.0
 10
13.0581005906
 20
10.4575048594
 30
0.0
 10
13.0587331374
 20
10.4369456368
 30
0.0
 10
13.0591109363
 20
10.4160552712
 30
0.0
 10
13.0592332364
 20
10.3948757371
 30
0.0
 10
13.0590543721
 20
10.3661792682
 30
0.0
 10
13.0581865513
 20
10.3299012563
 30
0.0
 10
13.0561413378
 20
10.2860980752
 30
0.0
 10
13.0531037575
 20
10.2421835273
 30
0.0
 10
13.0490982485
 20
10.1985104798
 30
0.0
 10
13.0441570992
 20
10.155429864
 30
0.0
 10
13.0392621533
 20
10.1200864578
 30
0.0
 10
13.0348993314
 20
10.092375545
 30
0.0
 10
13.0314414175
 20
10.0720881455
 30
0.0
 10
13.0277837004
 20
10.0522033776
 30
0.0
 10
13.0239335231
 20
10.032761188
 30
0.0
 10
13.0198986672
 20
10.0138006604
 30
0.0
 10
13.015687281
 20
9.9953598888
 30
0.0
 10
13.0113078703
 20
9.9774759169
 30
0.0
 10
13.00676928
 20
9.9601846614
 30
0.0
 10
13.0020806745
 20
9.9435208321
 30
0.0
 10
12.9972515342
 20
9.9275178516
 30
0.0
 10
12.9922916207
 20
9.9122077873
 30
0.0
 10
12.9872109575
 20
9.8976212901
 30
0.0
 10
12.982019803
 20
9.8837875156
 30
0.0
 10
12.9767286314
 20
9.8707340751
 30
0.0
 10
12.9713481019
 20
9.8584868619
 30
0.0
 10
12.9658890398
 20
9.8470703269
 30
0.0
 10
12.9612119081
 20
9.8381303028
 30
0.0
 10
12.9574315871
 20
9.8314206957
 30
0.0
 10
12.9546287819
 20
9.8266905117
 30
0.0
 10
12.9518145374
 20
9.8221842611
 30
0.0
 10
12.9489902466
 20
9.8179041799
 30
0.0
 10
12.9461573464
 20
9.8138523869
 30
0.0
 10
12.9433171683
 20
9.8100308981
 30
0.0
 10
12.9404711143
 20
9.8064415414
 30
0.0
 10
12.9376204892
 20
9.8030860941
 30
0.0
 10
12.9347668582
 20
9.7999663771
 30
0.0
 10
12.9328238174
 20
9.7980048007
 30
0.0
 10
12.931851767
 20
9.7970658722
 30
0.0
  0
SPLINE
  5
37A
100
AcDbEntity
  8
0
100
AcDbSpline
 62
7
  6
CONTINUOUS
 70
0
 71
3
 72
82
 73
78
 74
0
 42
0.0000001
 43
0.0000001
 44
0.0000000001
 40
0.0
 40
0.0
 40
0.0
 40
0.0
 40
0.0028104035
 40
0.0056342314
 40
0.0084910398
 40
0.0113996623
 40
0.0143778412
 40
0.0174419726
 40
0.0238825885
 40
0.0272877133
 40
0.030829056
 40
0.034515488
 40
0.0383546107
 40
0.0423528274
 40
0.046515549
 40
0.050847211
 40
0.0553514523
 40
0.0600311785
 40
0.064888614
 40
0.069925454
 40
0.0751428194
 40
0.0805414107
 40
0.0861214942
 40
0.0978247434
 40
0.1102484458
 40
0.1233831824
 40
0.1372156448
 40
0.1517291677
 40
0.1669041492
 40
0.1827184011
 40
0.1991474241
 40
0.2161646382
 40
0.2337415803
 40
0.2518480692
 40
0.2704523719
 40
0.2895213457
 40
0.3090205676
 40
0.3289144566
 40
0.3491663855
 40
0.3697387957
 40
0.3905933111
 40
0.4116908437
 40
0.4544548935
 40
0.497708707
 40
0.5411244087
 40
0.584372537
 40
0.6271252706
 40
0.6482150711
 40
0.6690604924
 40
0.6896224674
 40
0.7098626461
 40
0.7297435072
 40
0.7492284596
 40
0.7682819551
 40
0.7868696091
 40
0.8049583215
 40
0.8225164194
 40
0.8395137846
 40
0.8559220117
 40
0.871714584
 40
0.8868670691
 40
0.9013573707
 40
0.9151659919
 40
0.9282763764
 40
0.9406753356
 40
0.9466052338
 40
0.9523541789
 40
0.9579217117
 40
0.9633077708
 40
0.9685126525
 40
0.9735370539
 40
0.9783821576
 40
0.9830496259
 40
0.9875418403
 40
0.9918618252
 40
0.9960131504
 40
1.0
 40
1.0
 40
1.0
 40
1.0
 10
11.2018424059
 20
10.8312652061
 30
0.0
 10
11.2018733958
 20
10.8323625244
 30
0.0
 10
11.2018395174
 20
10.8345663238
 30
0.0
 10
11.2014996643
 20
10.8378694603
 30
0.0
 10
11.2008712943
 20
10.8411692203
 30
0.0
 10
11.1999549831
 20
10.8444631753
 30
0.0
 10
11.1987515562
 20
10.8477496772
 30
0.0
 10
11.1967326031
 20
10.8521920705
 30
0.0
 10
11.1941529496
 20
10.8565456578
 30
0.0
 10
11.1910896294
 20
10.8607856249
 30
0.0
 10
11.1884680007
 20
10.8640099417
 30
0.0
 10
11.185566923
 20
10.8672170252
 30
0.0
 10
11.1823876448
 20
10.8704057826
 30
0.0
 10
11.1789319142
 20
10.8735746838
 30
0.0
 10
11.1752014039
 20
10.8767222059
 30
0.0
 10
11.1711980317
 20
10.879846895
 30
0.0
 10
11.1669237793
 20
10.8829472234
 30
0.0
 10
11.1623807773
 20
10.8860216649
 30
0.0
 10
11.1575713197
 20
10.8890687519
 30
0.0
 10
11.1524977833
 20
10.892086913
 30
0.0
 10
11.1471627425
 20
10.8950746942
 30
0.0
 10
11.1415688516
 20
10.898030594
 30
0.0
 10
11.1336425845
 20
10.9019902934
 30
0.0
 10
11.1230959782
 20
10.9068375462
 30
0.0
 10
11.1096493151
 20
10.9124149626
 30
0.0
 10
11.0952448629
 20
10.9178306303
 30
0.0
 10
11.0799116938
 20
10.9230735231
 30
0.0
 10
11.0636805599
 20
10.9281329634
 30
0.0
 10
11.0465842129
 20
10.9329986155
 30
0.0
 10
11.0286571976
 20
10.9376605259
 30
0.0
 10
11.0099357994
 20
10.9421091515
 30
0.0
 10
10.9904579521
 20
10.9463353815
 30
0.0
 10
10.9702631609
 20
10.9503305593
 30
0.0
 10
10.9493924155
 20
10.9540865098
 30
0.0
 10
10.9278880994
 20
10.9575955462
 30
0.0
 10
10.9057938962
 20
10.9608504878
 30
0.0
 10
10.8831546981
 20
10.9638446744
 30
0.0
 10
10.8600165165
 20
10.9665719773
 30
0.0
 10
10.8364263844
 20
10.9690268216
 30
0.0
 10
10.812432275
 20
10.9712041833
 30
0.0
 10
10.7880829357
 20
10.9730996425
 30
0.0
 10
10.7550620446
 20
10.9752553716
 30
0.0
 10
10.7132636643
 20
10.977212428
 30
0.0
 10
10.6627153723
 20
10.9783812909
 30
0.0
 10
10.611964316
 20
10.978371103
 30
0.0
 10
10.5614231387
 20
10.9771819257
 30
0.0
 10
10.5196352189
 20
10.9752080159
 30
0.0
 10
10.4866262185
 20
10.9730389192
 30
0.0
 10
10.4622883245
 20
10.9711336562
 30
0.0
 10
10.4383073617
 20
10.9689466295
 30
0.0
 10
10.4147320485
 20
10.9664822828
 30
0.0
 10
10.3916103239
 20
10.9637456645
 30
0.0
 10
10.3689891854
 20
10.9607423696
 30
0.0
 10
10.3469146107
 20
10.9574785409
 30
0.0
 10
10.3254314576
 20
10.9539608526
 30
0.0
 10
10.3045833658
 20
10.9501965035
 30
0.0
 10
10.2844126668
 20
10.9461932021
 30
0.0
 10
10.2649602954
 20
10.9419591454
 30
0.0
 10
10.246265705
 20
10.9375030021
 30
0.0
 10
10.2283667838
 20
10.9328338951
 30
0.0
 10
10.2112997563
 20
10.9279613775
 30
0.0
 10
10.1950991244
 20
10.9228954218
 30
0.0
 10
10.1797974867
 20
10.9176463773
 30
0.0
 10
10.1654258006
 20
10.9122249497
 30
0.0
 10
10.1540855731
 20
10.9075050953
 30
0.0
 10
10.1455099385
 20
10.9036423831
 30
0.0
 10
10.1394243329
 20
10.900752284
 30
0.0
 10
10.1335920245
 20
10.8978274298
 30
0.0
 10
10.1280159301
 20
10.8948692983
 30
0.0
 10
10.1226988571
 20
10.8918793757
 30
0.0
 10
10.1176434968
 20
10.8888591348
 30
0.0
 10
10.1128523686
 20
10.8858101525
 30
0.0
 10
10.1083278866
 20
10.8827338707
 30
0.0
 10
10.104072257
 20
10.8796318145
 30
0.0
 10
10.1000875871
 20
10.876505418
 30
0.0
 10
10.0963760753
 20
10.8733563841
 30
0.0
 10
10.0940387023
 20
10.8712002209
 30
0.0
 10
10.0929186209
 20
10.8701183053
 30
0.0
  0
SPLINE
  5
37B
100
AcDbEntity
  8
0
100
AcDbSpline
 62
7
  6
CONTINUOUS
 70
0
 71
3
 72
11
 73
7
 74
0
 42
0.0000001
 43
0.0000001
 44
0.0000000001
 40
0.0
 40
0.0
 40
0.0
 40
0.0
 40
0.2759151423
 40
0.5331028583
 40
0.7735888711
 40
1.0
 40
1.0
 40
1.0
 40
1.0
 10
10.1016889283
 20
10.8483366874
 30
0.0
 10
10.0998666654
 20
10.8465765165
 30
0.0
 10
10.0964723605
 20
10.843040085
 30
0.0
 10
10.0920302179
 20
10.8374829445
 30
0.0
 10
10.0884337945
 20
10.8318755551
 30
0.0
 10
10.0865572291
 20
10.8280058247
 30
0.0
 10
10.085779339
 20
10.8260778591
 30
0.0
  0
SPLINE
  5
37C
100
AcDbEntity
  8
0
100
AcDbSpline
 62
7
  6
CONTINUOUS
 70
0
 71
3
 72
18
 73
14
 74
0
 42
0.0000001
 43
0.0000001
 44
0.0000000001
 40
0.0
 40
0.0
 40
0.0
 40
0.0
 40
0.1483874372
 40
0.2881313926
 40
0.4199631025
 40
0.5448164204
 40
0.6638181664
 40
0.7215558082
 40
0.7783438291
 40
0.8343763079
 40
0.8898560265
 40
0.9449926394
 40
1.0
 40
1.0
 40
1.0
 40
1.0
 10
10.0929186209
 20
10.8701183053
 30
0.0
 10
10.0913340029
 20
10.8685876818
 30
0.0
 10
10.0883521279
 20
10.8655143756
 30
0.0
 10
10.0843559631
 20
10.8607196625
 30
0.0
 10
10.0809809853
 20
10.8558876396
 30
0.0
 10
10.0782327083
 20
10.85102338
 30
0.0
 10
10.076450857
 20
10.8469042447
 30
0.0
 10
10.0753576501
 20
10.8436120205
 30
0.0
 10
10.074704541
 20
10.8411637083
 30
0.0
 10
10.0742104742
 20
10.8387126061
 30
0.0
 10
10.073875677
 20
10.8362593698
 30
0.0
 10
10.0737002707
 20
10.8338049526
 30
0.0
 10
10.0736896456
 20
10.8321682989
 30
0.0
 10
10.0737108238
 20
10.8313518678
 30
0.0
  0
SPLINE
  5
37D
100
AcDbEntity
  8
0
100
AcDbSpline
 62
4
  6
CONTINUOUS
 70
0
 71
3
 72
313
 73
309
 74
0
 42
0.0000001
 43
0.0000001
 44
0.0000000001
 40
0.0
 40
0.0
 40
0.0
 40
0.0
 40
0.015625
 40
0.0234375
 40
0.03125
 40
0.0390625
 40
0.046875
 40
0.05078125
 40
0.0546875
 40
0.056640625
 40
0.05859375
 40
0.060546875
 40
0.0615234375
 40
0.0620117188
 40
0.0625
 40
0.0629882812
 40
0.0634765625
 40
0.064453125
 40
0.06640625
 40
0.068359375
 40
0.0703125
 40
0.07421875
 40
0.078125
 40
0.0859375
 40
0.09375
 40
0.1015625
 40
0.109375
 40
0.11328125
 40
0.1171875
 40
0.119140625
 40
0.12109375
 40
0.123046875
 40
0.1240234375
 40
0.1245117188
 40
0.125
 40
0.1254882812
 40
0.1259765625
 40
0.126953125
 40
0.12890625
 40
0.130859375
 40
0.1328125
 40
0.13671875
 40
0.140625
 40
0.1484375
 40
0.15625
 40
0.1640625
 40
0.171875
 40
0.17578125
 40
0.1796875
 40
0.181640625
 40
0.18359375
 40
0.185546875
 40
0.1865234375
 40
0.1870117188
 40
0.1875
 40
0.1879882812
 40
0.1884765625
 40
0.189453125
 40
0.19140625
 40
0.193359375
 40
0.1953125
 40
0.19921875
 40
0.203125
 40
0.2109375
 40
0.21875
 40
0.2265625
 40
0.234375
 40
0.23828125
 40
0.2421875
 40
0.244140625
 40
0.24609375
 40
0.248046875
 40
0.2490234375
 40
0.2495117188
 40
0.25
 40
0.2504882812
 40
0.2509765625
 40
0.251953125
 40
0.25390625
 40
0.255859375
 40
0.2578125
 40
0.26171875
 40
0.265625
 40
0.2734375
 40
0.28125
 40
0.2890625
 40
0.296875
 40
0.30078125
 40
0.3046875
 40
0.306640625
 40
0.30859375
 40
0.310546875
 40
0.3115234375
 40
0.3120117188
 40
0.3125
 40
0.3129882812
 40
0.3134765625
 40
0.314453125
 40
0.31640625
 40
0.318359375
 40
0.3203125
 40
0.32421875
 40
0.328125
 40
0.3359375
 40
0.34375
 40
0.3515625
 40
0.359375
 40
0.36328125
 40
0.3671875
 40
0.369140625
 40
0.37109375
 40
0.373046875
 40
0.3740234375
 40
0.3745117188
 40
0.375
 40
0.3754882812
 40
0.3759765625
 40
0.376953125
 40
0.37890625
 40
0.380859375
 40
0.3828125
 40
0.38671875
 40
0.390625
 40
0.3984375
 40
0.40625
 40
0.4140625
 40
0.421875
 40
0.42578125
 40
0.4296875
 40
0.431640625
 40
0.43359375
 40
0.435546875
 40
0.4365234375
 40
0.4370117188
 40
0.4375
 40
0.4379882812
 40
0.4384765625
 40
0.439453125
 40
0.44140625
 40
0.443359375
 40
0.4453125
 40
0.44921875
 40
0.453125
 40
0.4609375
 40
0.46875
 40
0.4765625
 40
0.484375
 40
0.48828125
 40
0.4921875
 40
0.494140625
 40
0.49609375
 40
0.498046875
 40
0.4990234375
 40
0.4995117188
 40
0.5
 40
0.5004882812
 40
0.5009765625
 40
0.501953125
 40
0.50390625
 40
0.505859375
 40
0.5078125
 40
0.51171875
 40
0.515625
 40
0.5234375
 40
0.53125
 40
0.5390625
 40
0.546875
 40
0.55078125
 40
0.5546875
 40
0.556640625
 40
0.55859375
 40
0.560546875
 40
0.5615234375
 40
0.5620117188
 40
0.5625
 40
0.5629882812
 40
0.5634765625
 40
0.564453125
 40
0.56640625
 40
0.568359375
 40
0.5703125
 40
0.57421875
 40
0.578125
 40
0.5859375
 40
0.59375
 40
0.6015625
 40
0.609375
 40
0.61328125
 40
0.6171875
 40
0.619140625
 40
0.62109375
 40
0.623046875
 40
0.6240234375
 40
0.6245117188
 40
0.625
 40
0.6254882812
 40
0.6259765625
 40
0.626953125
 40
0.62890625
 40
0.630859375
 40
0.6328125
 40
0.63671875
 40
0.640625
 40
0.6484375
 40
0.65625
 40
0.6640625
 40
0.671875
 40
0.67578125
 40
0.6796875
 40
0.681640625
 40
0.68359375
 40
0.685546875
 40
0.6865234375
 40
0.6870117188
 40
0.6875
 40
0.6879882812
 40
0.6884765625
 40
0.689453125
 40
0.69140625
 40
0.693359375
 40
0.6953125
 40
0.69921875
 40
0.703125
 40
0.7109375
 40
0.71875
 40
0.7265625
 40
0.734375
 40
0.73828125
 40
0.7421875
 40
0.744140625
 40
0.74609375
 40
0.748046875
 40
0.7490234375
 40
0.7495117188
 40
0.75
 40
0.7504882812
 40
0.7509765625
 40
0.751953125
 40
0.75390625
 40
0.755859375
 40
0.7578125
 40
0.76171875
 40
0.765625
 40
0.7734375
 40
0.78125
 40
0.7890625
 40
0.796875
 40
0.80078125
 40
0.8046875
 40
0.806640625
 40
0.80859375
 40
0.810546875
 40
0.8115234375
 40
0.8120117188
 40
0.8125
 40
0.8129882812
 40
0.8134765625
 40
0.814453125
 40
0.81640625
 40
0.818359375
 40
0.8203125
 40
0.82421875
 40
0.828125
 40
0.8359375
 40
0.84375
 40
0.8515625
 40
0.859375
 40
0.86328125
 40
0.8671875
 40
0.869140625
 40
0.87109375
 40
0.873046875
 40
0.8740234375
 40
0.8745117188
 40
0.875
 40
0.8754882812
 40
0.8759765625
 40
0.876953125
 40
0.87890625
 40
0.880859375
 40
0.8828125
 40
0.88671875
 40
0.890625
 40
0.8984375
 40
0.90625
 40
0.9140625
 40
0.921875
 40
0.92578125
 40
0.9296875
 40
0.931640625
 40
0.93359375
 40
0.935546875
 40
0.9365234375
 40
0.9370117188
 40
0.9375
 40
0.9379882812
 40
0.9384765625
 40
0.939453125
 40
0.94140625
 40
0.943359375
 40
0.9453125
 40
0.94921875
 40
0.953125
 40
0.9609375
 40
0.96875
 40
0.9765625
 40
0.984375
 40
1.0
 40
1.0
 40
1.0
 40
1.0
 10
10.2562741678
 20
8.9045953664
 30
0.0
 10
10.2590884076
 20
8.9046761368
 30
0.0
 10
10.2633097672
 20
8.9047972922
 30
0.0
 10
10.2689382466
 20
8.9049588337
 30
0.0
 10
10.2731596066
 20
8.9050799875
 30
0.0
 10
10.2773809649
 20
8.9052011499
 30
0.0
 10
10.2808987687
 20
8.905302092
 30
0.0
 10
10.2837130001
 20
8.905382905
 30
0.0
 10
10.2854719211
 20
8.9054332783
 30
0.0
 10
10.2868789975
 20
8.9054738858
 30
0.0
 10
10.2879344701
 20
8.9055034955
 30
0.0
 10
10.288813505
 20
8.9055308612
 30
0.0
 10
10.2894298608
 20
8.9055447364
 30
0.0
 10
10.2897804536
 20
8.9055609106
 30
0.0
 10
10.2900479352
 20
8.9055498133
 30
0.0
 10
10.2902980742
 20
8.9056275051
 30
0.0
 10
10.2906376422
 20
8.9057001236
 30
0.0
 10
10.2912290676
 20
8.9058416357
 30
0.0
 10
10.2920754346
 20
8.9060362517
 30
0.0
 10
10.2930904443
 20
8.90627302
 30
0.0
 10
10.2944440108
 20
8.9065875833
 30
0.0
 10
10.2961358935
 20
8.9069811736
 30
0.0
 10
10.2988429481
 20
8.9076107021
 30
0.0
 10
10.3022267516
 20
8.9083976874
 30
0.0
 10
10.306287323
 20
8.9093420356
 30
0.0
 10
10.3103478894
 20
8.9102864006
 30
0.0
 10
10.3137317053
 20
8.9110733441
 30
0.0
 10
10.3164387352
 20
8.911702956
 30
0.0
 10
10.3181306806
 20
8.9120963344
 30
0.0
 10
10.3194841185
 20
8.9124113326
 30
0.0
 10
10.3204995211
 20
8.9126467723
 30
0.0
 10
10.3213446588
 20
8.9128455454
 30
0.0
 10
10.3219382788
 20
8.9129796364
 30
0.0
 10
10.3222743304
 20
8.9130641452
 30
0.0
 10
10.3225352703
 20
8.9131053137
 30
0.0
 10
10.3227621856
 20
8.9132313917
 30
0.0
 10
10.3230766075
 20
8.9133698783
 30
0.0
 10
10.3236213162
 20
8.9136260291
 30
0.0
 10
10.3244023624
 20
8.9139847444
 30
0.0
 10
10.3253383804
 20
8.9144182908
 30
0.0
 10
10.3265868367
 20
8.9149952741
 30
0.0
 10
10.3281472591
 20
8.9157168724
 30
0.0
 10
10.3306440176
 20
8.9168712234
 30
0.0
 10
10.333764937
 20
8.9183142334
 30
0.0
 10
10.3375100537
 20
8.9200458128
 30
0.0
 10
10.341255163
 20
8.9217774084
 30
0.0
 10
10.3443761011
 20
8.923220378
 30
0.0
 10
10.3468728224
 20
8.9243748097
 30
0.0
 10
10.3484333394
 20
8.925096203
 30
0.0
 10
10.3496816013
 20
8.9256736071
 30
0.0
 10
10.3506182132
 20
8.9261058678
 30
0.0
 10
10.3513974013
 20
8.9264686057
 30
0.0
 10
10.3519454271
 20
8.9267175756
 30
0.0
 10
10.3522545342
 20
8.9268675678
 30
0.0
 10
10.3524977746
 20
8.9269583041
 30
0.0
 10
10.3526974003
 20
8.9271322099
 30
0.0
 10
10.3529787813
 20
8.9273350738
 30
0.0
 10
10.3534641097
 20
8.9277036021
 30
0.0
 10
10.3541611419
 20
8.9282230046
 30
0.0
 10
10.3549959943
 20
8.9288493123
 30
0.0
 10
10.3561096849
 20
8.9296833327
 30
0.0
 10
10.3575016084
 20
8.93072622
 30
0.0
 10
10.3597287922
 20
8.9323946374
 30
0.0
 10
10.362512735
 20
8.934480229
 30
0.0
 10
10.3658534839
 20
8.9369829074
 30
0.0
 10
10.3691942219
 20
8.9394855999
 30
0.0
 10
10.371978192
 20
8.9415711563
 30
0.0
 10
10.3742053212
 20
8.9432396441
 30
0.0
 10
10.3755973833
 20
8.9442823525
 30
0.0
 10
10.3767107895
 20
8.94511674
 30
0.0
 10
10.3775465106
 20
8.9457419262
 30
0.0
 10
10.378240825
 20
8.9462648376
 30
0.0
 10
10.3787310051
 20
8.946627102
 30
0.0
 10
10.3790046126
 20
8.9468400022
 30
0.0
 10
10.3792281158
 20
8.9469830795
 30
0.0
 10
10.3793816763
 20
8.9471896026
 30
0.0
 10
10.3796108204
 20
8.9474428361
 30
0.0
 10
10.3800004556
 20
8.9478963058
 30
0.0
 10
10.3805630201
 20
8.9485387288
 30
0.0
 10
10.3812355538
 20
8.949311944
 30
0.0
 10
10.3821331539
 20
8.9503420915
 30
0.0
 10
10.3832548498
 20
8.9516300519
 30
0.0
 10
10.3850497333
 20
8.9536906343
 30
0.0
 10
10.3872932789
 20
8.9562664155
 30
0.0
 10
10.3899855606
 20
8.9593573288
 30
0.0
 10
10.3926778285
 20
8.9624482534
 30
0.0
 10
10.3949214087
 20
8.9650240063
 30
0.0
 10
10.3967162231
 20
8.9670846454
 30
0.0
 10
10.3978380948
 20
8.9683724615
 30
0.0
 10
10.398735334
 20
8.9694029052
 30
0.0
 10
10.3994089703
 20
8.9701752157
 30
0.0
 10
10.3999680852
 20
8.970820469
 30
0.0
 10
10.4003638785
 20
8.9712688862
 30
0.0
 10
10.4005831557
 20
8.9715302151
 30
0.0
 10
10.400767024
 20
8.9717118716
 30
0.0
 10
10.4008766962
 20
8.9719483436
 30
0.0
 10
10.4010488063
 20
8.9722445192
 30
0.0
 10
10.4013379407
 20
8.9727717351
 30
0.0
 10
10.4017572941
 20
8.9735202431
 30
0.0
 10
10.4022578198
 20
8.9744204464
 30
0.0
 10
10.4029261298
 20
8.975620021
 30
0.0
 10
10.4037611946
 20
8.9771197278
 30
0.0
 10
10.4050974787
 20
8.9795191253
 30
0.0
 10
10.4067677716
 20
8.9825184182
 30
0.0
 10
10.4087721516
 20
8.9861175489
 30
0.0
 10
10.4107765167
 20
8.9897166888
 30
0.0
 10
10.4124468471
 20
8.9927159589
 30
0.0
 10
10.413783056
 20
8.9951154019
 30
0.0
 10
10.4146183119
 20
8.996614993
 30
0.0
 10
10.4152862298
 20
8.9978148051
 30
0.0
 10
10.4157879535
 20
8.9987142828
 30
0.0
 10
10.4162035584
 20
8.9994650608
 30
0.0
 10
10.4164993845
 20
8.9999882246
 30
0.0
 10
10.4166607729
 20
9.0002908927
 30
0.0
 10
10.4168033787
 20
9.0005074218
 30
0.0
 10
10.416863554
 20
9.0007639801
 30
0.0
 10
10.4169725404
 20
9.0010920951
 30
0.0
 10
10.4171498702
 20
9.0016728019
 30
0.0
 10
10.4174102023
 20
9.0024989818
 30
0.0
 10
10.4177196029
 20
9.0034918536
 30
0.0
 10
10.4181331842
 20
9.0048151741
 30
0.0
 10
10.4186498023
 20
9.0064694989
 30
0.0
 10
10.4194765917
 20
9.0091163212
 30
0.0
 10
10.4205100092
 20
9.0124248827
 30
0.0
 10
10.4217501419
 20
9.0163951413
 30
0.0
 10
10.4229902583
 20
9.0203654068
 30
0.0
 10
10.4240237166
 20
9.023673951
 30
0.0
 10
10.4248504244
 20
9.0263208078
 30
0.0
 10
10.4253672498
 20
9.0279750448
 30
0.0
 10
10.4257804056
 20
9.0292985455
 30
0.0
 10
10.4260911062
 20
9.030290867
 30
0.0
 10
10.4263473711
 20
9.0311187684
 30
0.0
 10
10.4265319614
 20
9.0316964021
 30
0.0
 10
10.4266293147
 20
9.032029441
 30
0.0
 10
10.4267252233
 20
9.0322708749
 30
0.0
 10
10.4267336208
 20
9.0325442084
 30
0.0
 10
10.4267753424
 20
9.0328975262
 30
0.0
 10
10.426834133
 20
9.0335210166
 30
0.0
 10
10.4269255551
 20
9.0344090067
 30
0.0
 10
10.427032079
 20
9.035475755
 30
0.0
 10
10.4271752224
 20
9.0368976808
 30
0.0
 10
10.4273537712
 20
9.0386752268
 30
0.0
 10
10.4276396619
 20
9.0415192229
 30
0.0
 10
10.4279969518
 20
9.0450742446
 30
0.0
 10
10.4284257334
 20
9.0493402593
 30
0.0
 10
10.4288544978
 20
9.0536062769
 30
0.0
 10
10.4292118306
 20
9.0571612913
 30
0.0
 10
10.4294976357
 20
9.0600053019
 30
0.0
 10
10.429676402
 20
9.0617828111
 30
0.0
 10
10.4298190988
 20
9.0632048125
 30
0.0
 10
10.4299269873
 20
9.0642713299
 30
0.0
 10
10.4300141398
 20
9.0651600423
 30
0.0
 10
10.4300805524
 20
9.0657822433
 30
0.0
 10
10.4301100617
 20
9.0661376269
 30
0.0
 10
10.4301559713
 20
9.0664046148
 30
0.0
 10
10.4301109908
 20
9.066669882
 30
0.0
 10
10.4300827202
 20
9.0670241718
 30
0.0
 10
10.4300184755
 20
9.0676438993
 30
0.0
 10
10.4299344199
 20
9.0685293706
 30
0.0
 10
10.4298302477
 20
9.0695918735
 30
0.0
 10
10.429692506
 20
9.0710085658
 30
0.0
 10
10.4295199335
 20
9.0727794238
 30
0.0
 10
10.4292440385
 20
9.0756128008
 30
0.0
 10
10.4288990934
 20
9.0791545206
 30
0.0
 10
10.4284851941
 20
9.0834045852
 30
0.0
 10
10.4280712777
 20
9.0876546485
 30
0.0
 10
10.4277263755
 20
9.0911963714
 30
0.0
 10
10.4274503948
 20
9.0940297421
 30
0.0
 10
10.42727804
 20
9.0958006159
 30
0.0
 10
10.4271398514
 20
9.0972172758
 30
0.0
 10
10.4270370444
 20
9.0982798781
 30
0.0
 10
10.4269487174
 20
9.0991650384
 30
0.0
 10
10.4268920978
 20
9.0997853209
 30
0.0
 10
10.4268516099
 20
9.1001387215
 30
0.0
 10
10.4268441573
 20
9.10040672
 30
0.0
 10
10.4267491183
 20
9.1006634499
 30
0.0
 10
10.4266529507
 20
9.1010096871
 30
0.0
 10
10.4264704231
 20
9.1016137709
 30
0.0
 10
10.4262171113
 20
9.1024777051
 30
0.0
 10
10.4259099518
 20
9.1035140164
 30
0.0
 10
10.4255015184
 20
9.1048959078
 30
0.0
 10
10.4249905957
 20
9.1066232232
 30
0.0
 10
10.4241733323
 20
9.1093869552
 30
0.0
 10
10.4231516795
 20
9.1128416106
 30
0.0
 10
10.4219257296
 20
9.1169872018
 30
0.0
 10
10.4206997634
 20
9.1211327893
 30
0.0
 10
10.4196781514
 20
9.1245874542
 30
0.0
 10
10.4188608064
 20
9.1273511672
 30
0.0
 10
10.4183500912
 20
9.1290785308
 30
0.0
 10
10.4179412318
 20
9.1304603232
 30
0.0
 10
10.4176353737
 20
9.1314969371
 30
0.0
 10
10.4173779901
 20
9.1323599244
 30
0.0
 10
10.4172027313
 20
9.1329656987
 30
0.0
 10
10.4170949173
 20
9.1333092273
 30
0.0
 10
10.4170356525
 20
9.1335742771
 30
0.0
 10
10.4168938379
 20
9.1338110273
 30
0.0
 10
10.4167335461
 20
9.1341365655
 30
0.0
 10
10.4164396196
 20
9.134701658
 30
0.0
 10
10.4160267386
 20
9.1355113377
 30
0.0
 10
10.4155282791
 20
9.136481924
 30
0.0
 10
10.4148647151
 20
9.1377763986
 30
0.0
 10
10.4140349011
 20
9.1393943687
 30
0.0
 10
10.4127073993
 20
9.1419831898
 30
0.0
 10
10.4110479528
 20
9.1452191923
 30
0.0
 10
10.4090566487
 20
9.1491024064
 30
0.0
 10
10.4070653289
 20
9.1529856141
 30
0.0
 10
10.4054059215
 20
9.1562216326
 30
0.0
 10
10.4040783416
 20
9.1588104218
 30
0.0
 10
10.4032487261
 20
9.1604284729
 30
0.0
 10
10.4025847547
 20
9.1617227813
 30
0.0
 10
10.4020875398
 20
9.1626938752
 30
0.0
 10
10.401670765
 20
9.1635019668
 30
0.0
 10
10.4013837894
 20
9.1640698943
 30
0.0
 10
10.4012123605
 20
9.1643908901
 30
0.0
 10
10.4011047554
 20
9.1646415929
 30
0.0
 10
10.4009170056
 20
9.1648542391
 30
0.0
 10
10.4006946278
 20
9.165151042
 30
0.0
 10
10.4002924418
 20
9.1656642622
 30
0.0
 10
10.3997247
 20
9.1664006674
 30
0.0
 10
10.3990404951
 20
9.1672829696
 30
0.0
 10
10.39812924
 20
9.1684598559
 30
0.0
 10
10.3969898225
 20
9.1699307983
 30
0.0
 10
10.3951669493
 20
9.1722843987
 30
0.0
 10
10.3928882907
 20
9.1752263671
 30
0.0
 10
10.3901539305
 20
9.1787567445
 30
0.0
 10
10.3874195571
 20
9.1822871119
 30
0.0
 10
10.3851409317
 20
9.1852291052
 30
0.0
 10
10.383317992
 20
9.1875826558
 30
0.0
 10
10.3821787437
 20
9.1890537249
 30
0.0
 10
10.3812671412
 20
9.1902303511
 30
0.0
 10
10.3805839976
 20
9.1911134483
 30
0.0
 10
10.3800129354
 20
9.191847366
 30
0.0
 10
10.3796166768
 20
9.1923650267
 30
0.0
 10
10.3793848018
 20
9.1926547148
 30
0.0
 10
10.3792262246
 20
9.1928892154
 30
0.0
 10
10.379009052
 20
9.1930578368
 30
0.0
 10
10.3787399274
 20
9.1933056448
 30
0.0
 10
10.3782594364
 20
9.1937286022
 30
0.0
 10
10.3775779993
 20
9.1943384245
 30
0.0
 10
10.3767581438
 20
9.1950678154
 30
0.0
 10
10.3756657475
 20
9.1960411734
 30
0.0
 10
10.3742999972
 20
9.1972575844
 30
0.0
 10
10.3721149393
 20
9.1992040022
 30
0.0
 10
10.3693835676
 20
9.2016369691
 30
0.0
 10
10.366105944
 20
9.2045565548
 30
0.0
 10
10.3628283099
 20
9.2074761273
 30
0.0
 10
10.3600969643
 20
9.209909127
 30
0.0
 10
10.3579118543
 20
9.2118554792
 30
0.0
 10
10.3565462361
 20
9.2130720569
 30
0.0
 10
10.3554535687
 20
9.2140450729
 30
0.0
 10
10.3546345414
 20
9.2147755089
 30
0.0
 10
10.3539505133
 20
9.2153820613
 30
0.0
 10
10.3534746478
 20
9.215810856
 30
0.0
 10
10.3531981119
 20
9.2160493111
 30
0.0
 10
10.3530037041
 20
9.2162466615
 30
0.0
 10
10.3527596264
 20
9.2163732606
 30
0.0
 10
10.3524515148
 20
9.2165667383
 30
0.0
 10
10.3519042474
 20
9.2168938259
 30
0.0
 10
10.3511266571
 20
9.2173671053
 30
0.0
 10
10.3501917423
 20
9.2179324675
 30
0.0
 10
10.3489458202
 20
9.2186871825
 30
0.0
 10
10.3473882015
 20
9.2196302686
 30
0.0
 10
10.3448961324
 20
9.2211393783
 30
0.0
 10
10.3417810043
 20
9.223025706
 30
0.0
 10
10.3380428693
 20
9.2252893266
 30
0.0
 10
10.3343047263
 20
9.2275529327
 30
0.0
 10
10.3311896184
 20
9.2294392966
 30
0.0
 10
10.3286975089
 20
9.230948334
 30
0.0
 10
10.3271399927
 20
9.231891604
 30
0.0
 10
10.3258938603
 20
9.2326459414
 30
0.0
 10
10.3249595879
 20
9.2332124571
 30
0.0
 10
10.3241799876
 20
9.2336821275
 30
0.0
 10
10.3236363082
 20
9.2340156579
 30
0.0
 10
10.3233224478
 20
9.2341988126
 30
0.0
 10
10.3230960289
 20
9.2343571206
 30
0.0
 10
10.3228352975
 20
9.2344353776
 30
0.0
 10
10.3224996242
 20
9.2345676431
 30
0.0
 10
10.3219066196
 20
9.2347860979
 30
0.0
 10
10.3210623855
 20
9.2351049778
 30
0.0
 10
10.3200480568
 20
9.2354847224
 30
0.0
 10
10.3186960543
 20
9.2359920654
 30
0.0
 10
10.3170059019
 20
9.2366258959
 30
0.0
 10
10.3143017416
 20
9.2376402195
 30
0.0
 10
10.3109215124
 20
9.2389080566
 30
0.0
 10
10.3068652503
 20
9.2404294921
 30
0.0
 10
10.3028089824
 20
9.2419509117
 30
0.0
 10
10.2994287676
 20
9.2432187886
 30
0.0
 10
10.2967245784
 20
9.2442330326
 30
0.0
 10
10.2950344994
 20
9.2448670653
 30
0.0
 10
10.2936823464
 20
9.2453739933
 30
0.0
 10
10.2926684776
 20
9.2457550059
 30
0.0
 10
10.2918228042
 20
9.2460699185
 30
0.0
 10
10.2912323691
 20
9.2462954556
 30
0.0
 10
10.2908925788
 20
9.2464163734
 30
0.0
 10
10.2906444936
 20
9.2465294868
 30
0.0
 10
10.2903705775
 20
9.2465568804
 30
0.0
 10
10.2900143662
 20
9.2466233053
 30
0.0
 10
10.2893867984
 20
9.2467256179
 30
0.0
 10
10.2884924678
 20
9.2468790621
 30
0.0
 10
10.2874183316
 20
9.2470600776
 30
0.0
 10
10.2859864781
 20
9.2473025204
 30
0.0
 10
10.2841965489
 20
9.2476052011
 30
0.0
 10
10.281332725
 20
9.2480896987
 30
0.0
 10
10.2777529235
 20
9.2486952491
 30
0.0
 10
10.273457171
 20
9.2494219403
 30
0.0
 10
10.269161416
 20
9.2501486233
 30
0.0
 10
10.2634337435
 20
9.2511175368
 30
0.0
 10
10.2591379889
 20
9.2518442212
 30
0.0
 10
10.2562741526
 20
9.2523286777
 30
0.0
  0
SPLINE
  5
37E
100
AcDbEntity
  8
0
100
AcDbSpline
 62
4
  6
CONTINUOUS
 70
0
 71
3
 72
313
 73
309
 74
0
 42
0.0000001
 43
0.0000001
 44
0.0000000001
 40
0.0
 40
0.0
 40
0.0
 40
0.0
 40
0.015625
 40
0.0234375
 40
0.03125
 40
0.0390625
 40
0.046875
 40
0.05078125
 40
0.0546875
 40
0.056640625
 40
0.05859375
 40
0.060546875
 40
0.0615234375
 40
0.0620117188
 40
0.0625
 40
0.0629882812
 40
0.0634765625
 40
0.064453125
 40
0.06640625
 40
0.068359375
 40
0.0703125
 40
0.07421875
 40
0.078125
 40
0.0859375
 40
0.09375
 40
0.1015625
 40
0.109375
 40
0.11328125
 40
0.1171875
 40
0.119140625
 40
0.12109375
 40
0.123046875
 40
0.1240234375
 40
0.1245117188
 40
0.125
 40
0.1254882812
 40
0.1259765625
 40
0.126953125
 40
0.12890625
 40
0.130859375
 40
0.1328125
 40
0.13671875
 40
0.140625
 40
0.1484375
 40
0.15625
 40
0.1640625
 40
0.171875
 40
0.17578125
 40
0.1796875
 40
0.181640625
 40
0.18359375
 40
0.185546875
 40
0.1865234375
 40
0.1870117188
 40
0.1875
 40
0.1879882812
 40
0.1884765625
 40
0.189453125
 40
0.19140625
 40
0.193359375
 40
0.1953125
 40
0.19921875
 40
0.203125
 40
0.2109375
 40
0.21875
 40
0.2265625
 40
0.234375
 40
0.23828125
 40
0.2421875
 40
0.244140625
 40
0.24609375
 40
0.248046875
 40
0.2490234375
 40
0.2495117188
 40
0.25
 40
0.2504882812
 40
0.2509765625
 40
0.251953125
 40
0.25390625
 40
0.255859375
 40
0.2578125
 40
0.26171875
 40
0.265625
 40
0.2734375
 40
0.28125
 40
0.2890625
 40
0.296875
 40
0.30078125
 40
0.3046875
 40
0.306640625
 40
0.30859375
 40
0.310546875
 40
0.3115234375
 40
0.3120117188
 40
0.3125
 40
0.3129882812
 40
0.3134765625
 40
0.314453125
 40
0.31640625
 40
0.318359375
 40
0.3203125
 40
0.32421875
 40
0.328125
 40
0.3359375
 40
0.34375
 40
0.3515625
 40
0.359375
 40
0.36328125
 40
0.3671875
 40
0.369140625
 40
0.37109375
 40
0.373046875
 40
0.3740234375
 40
0.3745117188
 40
0.375
 40
0.3754882812
 40
0.3759765625
 40
0.376953125
 40
0.37890625
 40
0.380859375
 40
0.3828125
 40
0.38671875
 40
0.390625
 40
0.3984375
 40
0.40625
 40
0.4140625
 40
0.421875
 40
0.42578125
 40
0.4296875
 40
0.431640625
 40
0.43359375
 40
0.435546875
 40
0.4365234375
 40
0.4370117188
 40
0.4375
 40
0.4379882812
 40
0.4384765625
 40
0.439453125
 40
0.44140625
 40
0.443359375
 40
0.4453125
 40
0.44921875
 40
0.453125
 40
0.4609375
 40
0.46875
 40
0.4765625
 40
0.484375
 40
0.48828125
 40
0.4921875
 40
0.494140625
 40
0.49609375
 40
0.498046875
 40
0.4990234375
 40
0.4995117188
 40
0.5
 40
0.5004882812
 40
0.5009765625
 40
0.501953125
 40
0.50390625
 40
0.505859375
 40
0.5078125
 40
0.51171875
 40
0.515625
 40
0.5234375
 40
0.53125
 40
0.5390625
 40
0.546875
 40
0.55078125
 40
0.5546875
 40
0.556640625
 40
0.55859375
 40
0.560546875
 40
0.5615234375
 40
0.5620117188
 40
0.5625
 40
0.5629882812
 40
0.5634765625
 40
0.564453125
 40
0.56640625
 40
0.568359375
 40
0.5703125
 40
0.57421875
 40
0.578125
 40
0.5859375
 40
0.59375
 40
0.6015625
 40
0.609375
 40
0.61328125
 40
0.6171875
 40
0.619140625
 40
0.62109375
 40
0.623046875
 40
0.6240234375
 40
0.6245117188
 40
0.625
 40
0.6254882812
 40
0.6259765625
 40
0.626953125
 40
0.62890625
 40
0.630859375
 40
0.6328125
 40
0.63671875
 40
0.640625
 40
0.6484375
 40
0.65625
 40
0.6640625
 40
0.671875
 40
0.67578125
 40
0.6796875
 40
0.681640625
 40
0.68359375
 40
0.685546875
 40
0.6865234375
 40
0.6870117188
 40
0.6875
 40
0.6879882812
 40
0.6884765625
 40
0.689453125
 40
0.69140625
 40
0.693359375
 40
0.6953125
 40
0.69921875
 40
0.703125
 40
0.7109375
 40
0.71875
 40
0.7265625
 40
0.734375
 40
0.73828125
 40
0.7421875
 40
0.744140625
 40
0.74609375
 40
0.748046875
 40
0.7490234375
 40
0.7495117188
 40
0.75
 40
0.7504882812
 40
0.7509765625
 40
0.751953125
 40
0.75390625
 40
0.755859375
 40
0.7578125
 40
0.76171875
 40
0.765625
 40
0.7734375
 40
0.78125
 40
0.7890625
 40
0.796875
 40
0.80078125
 40
0.8046875
 40
0.806640625
 40
0.80859375
 40
0.810546875
 40
0.8115234375
 40
0.8120117188
 40
0.8125
 40
0.8129882812
 40
0.8134765625
 40
0.814453125
 40
0.81640625
 40
0.818359375
 40
0.8203125
 40
0.82421875
 40
0.828125
 40
0.8359375
 40
0.84375
 40
0.8515625
 40
0.859375
 40
0.86328125
 40
0.8671875
 40
0.869140625
 40
0.87109375
 40
0.873046875
 40
0.8740234375
 40
0.8745117188
 40
0.875
 40
0.8754882812
 40
0.8759765625
 40
0.876953125
 40
0.87890625
 40
0.880859375
 40
0.8828125
 40
0.88671875
 40
0.890625
 40
0.8984375
 40
0.90625
 40
0.9140625
 40
0.921875
 40
0.92578125
 40
0.9296875
 40
0.931640625
 40
0.93359375
 40
0.935546875
 40
0.9365234375
 40
0.9370117188
 40
0.9375
 40
0.9379882812
 40
0.9384765625
 40
0.939453125
 40
0.94140625
 40
0.943359375
 40
0.9453125
 40
0.94921875
 40
0.953125
 40
0.9609375
 40
0.96875
 40
0.9765625
 40
0.984375
 40
1.0
 40
1.0
 40
1.0
 40
1.0
 10
10.2562741678
 20
9.2523286767
 30
0.0
 10
10.2534599281
 20
9.2522479062
 30
0.0
 10
10.2492385684
 20
9.2521267508
 30
0.0
 10
10.243610089
 20
9.2519652093
 30
0.0
 10
10.2393887291
 20
9.2518440555
 30
0.0
 10
10.2351673708
 20
9.2517228931
 30
0.0
 10
10.231649567
 20
9.251621951
 30
0.0
 10
10.2288353356
 20
9.251541138
 30
0.0
 10
10.2270764146
 20
9.2514907648
 30
0.0
 10
10.2256693381
 20
9.2514501572
 30
0.0
 10
10.2246138656
 20
9.2514205475
 30
0.0
 10
10.2237348307
 20
9.2513931818
 30
0.0
 10
10.2231184748
 20
9.2513793066
 30
0.0
 10
10.222767882
 20
9.2513631324
 30
0.0
 10
10.2225004004
 20
9.2513742297
 30
0.0
 10
10.2222502614
 20
9.2512965379
 30
0.0
 10
10.2219106935
 20
9.2512239194
 30
0.0
 10
10.2213192681
 20
9.2510824074
 30
0.0
 10
10.2204729011
 20
9.2508877913
 30
0.0
 10
10.2194578914
 20
9.250651023
 30
0.0
 10
10.2181043249
 20
9.2503364597
 30
0.0
 10
10.2164124421
 20
9.2499428694
 30
0.0
 10
10.2137053876
 20
9.2493133409
 30
0.0
 10
10.210321584
 20
9.2485263557
 30
0.0
 10
10.2062610127
 20
9.2475820074
 30
0.0
 10
10.2022004462
 20
9.2466376424
 30
0.0
 10
10.1988166304
 20
9.2458506989
 30
0.0
 10
10.1961096005
 20
9.245221087
 30
0.0
 10
10.1944176551
 20
9.2448277086
 30
0.0
 10
10.1930642171
 20
9.2445127104
 30
0.0
 10
10.1920488145
 20
9.2442772707
 30
0.0
 10
10.1912036769
 20
9.2440784976
 30
0.0
 10
10.1906100569
 20
9.2439444066
 30
0.0
 10
10.1902740052
 20
9.2438598978
 30
0.0
 10
10.1900130654
 20
9.2438187293
 30
0.0
 10
10.1897861501
 20
9.2436926513
 30
0.0
 10
10.1894717282
 20
9.2435541647
 30
0.0
 10
10.1889270195
 20
9.2432980139
 30
0.0
 10
10.1881459733
 20
9.2429392986
 30
0.0
 10
10.1872099552
 20
9.2425057522
 30
0.0
 10
10.1859614989
 20
9.241928769
 30
0.0
 10
10.1844010766
 20
9.2412071706
 30
0.0
 10
10.1819043181
 20
9.2400528196
 30
0.0
 10
10.1787833986
 20
9.2386098096
 30
0.0
 10
10.1750382819
 20
9.2368782302
 30
0.0
 10
10.1712931726
 20
9.2351466346
 30
0.0
 10
10.1681722345
 20
9.233703665
 30
0.0
 10
10.1656755133
 20
9.2325492334
 30
0.0
 10
10.1641149962
 20
9.23182784
 30
0.0
 10
10.1628667344
 20
9.2312504359
 30
0.0
 10
10.1619301224
 20
9.2308181752
 30
0.0
 10
10.1611509343
 20
9.2304554373
 30
0.0
 10
10.1606029086
 20
9.2302064675
 30
0.0
 10
10.1602938014
 20
9.2300564752
 30
0.0
 10
10.1600505611
 20
9.2299657389
 30
0.0
 10
10.1598509353
 20
9.2297918331
 30
0.0
 10
10.1595695544
 20
9.2295889692
 30
0.0
 10
10.1590842259
 20
9.2292204409
 30
0.0
 10
10.1583871937
 20
9.2287010384
 30
0.0
 10
10.1575523413
 20
9.2280747307
 30
0.0
 10
10.1564386507
 20
9.2272407103
 30
0.0
 10
10.1550467272
 20
9.226197823
 30
0.0
 10
10.1528195435
 20
9.2245294056
 30
0.0
 10
10.1500356006
 20
9.222443814
 30
0.0
 10
10.1466948517
 20
9.2199411356
 30
0.0
 10
10.1433541138
 20
9.2174384431
 30
0.0
 10
10.1405701437
 20
9.2153528867
 30
0.0
 10
10.1383430144
 20
9.2136843989
 30
0.0
 10
10.1369509524
 20
9.2126416905
 30
0.0
 10
10.1358375461
 20
9.211807303
 30
0.0
 10
10.1350018251
 20
9.2111821168
 30
0.0
 10
10.1343075106
 20
9.2106592055
 30
0.0
 10
10.1338173306
 20
9.210296941
 30
0.0
 10
10.1335437231
 20
9.2100840408
 30
0.0
 10
10.1333202198
 20
9.2099409635
 30
0.0
 10
10.1331666594
 20
9.2097344404
 30
0.0
 10
10.1329375153
 20
9.2094812069
 30
0.0
 10
10.1325478801
 20
9.2090277373
 30
0.0
 10
10.1319853155
 20
9.2083853142
 30
0.0
 10
10.1313127818
 20
9.2076120991
 30
0.0
 10
10.1304151817
 20
9.2065819515
 30
0.0
 10
10.1292934858
 20
9.2052939911
 30
0.0
 10
10.1274986023
 20
9.2032334087
 30
0.0
 10
10.1252550567
 20
9.2006576275
 30
0.0
 10
10.122562775
 20
9.1975667142
 30
0.0
 10
10.1198705071
 20
9.1944757896
 30
0.0
 10
10.1176269269
 20
9.1919000368
 30
0.0
 10
10.1158321126
 20
9.1898393976
 30
0.0
 10
10.1147102409
 20
9.1885515815
 30
0.0
 10
10.1138130017
 20
9.1875211378
 30
0.0
 10
10.1131393654
 20
9.1867488273
 30
0.0
 10
10.1125802505
 20
9.186103574
 30
0.0
 10
10.1121844572
 20
9.1856551568
 30
0.0
 10
10.1119651799
 20
9.1853938279
 30
0.0
 10
10.1117813117
 20
9.1852121714
 30
0.0
 10
10.1116716394
 20
9.1849756995
 30
0.0
 10
10.1114995294
 20
9.1846795238
 30
0.0
 10
10.1112103949
 20
9.1841523079
 30
0.0
 10
10.1107910416
 20
9.1834037999
 30
0.0
 10
10.1102905159
 20
9.1825035966
 30
0.0
 10
10.1096222059
 20
9.181304022
 30
0.0
 10
10.108787141
 20
9.1798043152
 30
0.0
 10
10.1074508569
 20
9.1774049177
 30
0.0
 10
10.1057805641
 20
9.1744056249
 30
0.0
 10
10.103776184
 20
9.1708064941
 30
0.0
 10
10.101771819
 20
9.1672073542
 30
0.0
 10
10.1001014886
 20
9.1642080841
 30
0.0
 10
10.0987652796
 20
9.1618086411
 30
0.0
 10
10.0979300237
 20
9.16030905
 30
0.0
 10
10.0972621059
 20
9.1591092379
 30
0.0
 10
10.0967603821
 20
9.1582097602
 30
0.0
 10
10.0963447772
 20
9.1574589822
 30
0.0
 10
10.0960489511
 20
9.1569358184
 30
0.0
 10
10.0958875628
 20
9.1566331503
 30
0.0
 10
10.095744957
 20
9.1564166212
 30
0.0
 10
10.0956847817
 20
9.156160063
 30
0.0
 10
10.0955757953
 20
9.1558319479
 30
0.0
 10
10.0953984655
 20
9.1552512411
 30
0.0
 10
10.0951381334
 20
9.1544250612
 30
0.0
 10
10.0948287327
 20
9.1534321894
 30
0.0
 10
10.0944151514
 20
9.1521088689
 30
0.0
 10
10.0938985333
 20
9.1504545441
 30
0.0
 10
10.093071744
 20
9.1478077218
 30
0.0
 10
10.0920383265
 20
9.1444991603
 30
0.0
 10
10.0907981937
 20
9.1405289017
 30
0.0
 10
10.0895580773
 20
9.1365586362
 30
0.0
 10
10.0885246191
 20
9.133250092
 30
0.0
 10
10.0876979112
 20
9.1306032352
 30
0.0
 10
10.0871810859
 20
9.1289489982
 30
0.0
 10
10.0867679301
 20
9.1276254976
 30
0.0
 10
10.0864572295
 20
9.126633176
 30
0.0
 10
10.0862009645
 20
9.1258052746
 30
0.0
 10
10.0860163742
 20
9.1252276409
 30
0.0
 10
10.085919021
 20
9.124894602
 30
0.0
 10
10.0858231124
 20
9.1246531681
 30
0.0
 10
10.0858147148
 20
9.1243798346
 30
0.0
 10
10.0857729933
 20
9.1240265168
 30
0.0
 10
10.0857142027
 20
9.1234030264
 30
0.0
 10
10.0856227806
 20
9.1225150363
 30
0.0
 10
10.0855162567
 20
9.1214482881
 30
0.0
 10
10.0853731132
 20
9.1200263622
 30
0.0
 10
10.0851945645
 20
9.1182488162
 30
0.0
 10
10.0849086737
 20
9.1154048201
 30
0.0
 10
10.0845513838
 20
9.1118497984
 30
0.0
 10
10.0841226023
 20
9.1075837837
 30
0.0
 10
10.0836938378
 20
9.1033177661
 30
0.0
 10
10.0833365051
 20
9.0997627517
 30
0.0
 10
10.0830507
 20
9.0969187411
 30
0.0
 10
10.0828719336
 20
9.0951412319
 30
0.0
 10
10.0827292368
 20
9.0937192305
 30
0.0
 10
10.0826213483
 20
9.0926527131
 30
0.0
 10
10.0825341958
 20
9.0917640007
 30
0.0
 10
10.0824677833
 20
9.0911417997
 30
0.0
 10
10.0824382739
 20
9.0907864161
 30
0.0
 10
10.0823923643
 20
9.0905194282
 30
0.0
 10
10.0824373449
 20
9.090254161
 30
0.0
 10
10.0824656154
 20
9.0898998712
 30
0.0
 10
10.0825298601
 20
9.0892801437
 30
0.0
 10
10.0826139157
 20
9.0883946724
 30
0.0
 10
10.0827180879
 20
9.0873321696
 30
0.0
 10
10.0828558297
 20
9.0859154772
 30
0.0
 10
10.0830284022
 20
9.0841446192
 30
0.0
 10
10.0833042972
 20
9.0813112422
 30
0.0
 10
10.0836492423
 20
9.0777695224
 30
0.0
 10
10.0840631415
 20
9.0735194579
 30
0.0
 10
10.0844770579
 20
9.0692693945
 30
0.0
 10
10.0848219602
 20
9.0657276717
 30
0.0
 10
10.0850979408
 20
9.0628943009
 30
0.0
 10
10.0852702956
 20
9.0611234271
 30
0.0
 10
10.0854084842
 20
9.0597067672
 30
0.0
 10
10.0855112913
 20
9.0586441649
 30
0.0
 10
10.0855996182
 20
9.0577590046
 30
0.0
 10
10.0856562378
 20
9.0571387221
 30
0.0
 10
10.0856967258
 20
9.0567853215
 30
0.0
 10
10.0857041784
 20
9.0565173231
 30
0.0
 10
10.0857992174
 20
9.0562605931
 30
0.0
 10
10.0858953849
 20
9.0559143559
 30
0.0
 10
10.0860779125
 20
9.0553102721
 30
0.0
 10
10.0863312243
 20
9.0544463379
 30
0.0
 10
10.0866383838
 20
9.0534100267
 30
0.0
 10
10.0870468172
 20
9.0520281352
 30
0.0
 10
10.08755774
 20
9.0503008198
 30
0.0
 10
10.0883750034
 20
9.0475370878
 30
0.0
 10
10.0893966562
 20
9.0440824324
 30
0.0
 10
10.0906226061
 20
9.0399368412
 30
0.0
 10
10.0918485722
 20
9.0357912537
 30
0.0
 10
10.0928701842
 20
9.0323365888
 30
0.0
 10
10.0936875293
 20
9.0295728758
 30
0.0
 10
10.0941982445
 20
9.0278455122
 30
0.0
 10
10.0946071039
 20
9.0264637198
 30
0.0
 10
10.094912962
 20
9.0254271059
 30
0.0
 10
10.0951703456
 20
9.0245641186
 30
0.0
 10
10.0953456043
 20
9.0239583444
 30
0.0
 10
10.0954534183
 20
9.0236148158
 30
0.0
 10
10.0955126831
 20
9.0233497659
 30
0.0
 10
10.0956544977
 20
9.0231130157
 30
0.0
 10
10.0958147895
 20
9.0227874775
 30
0.0
 10
10.096108716
 20
9.022222385
 30
0.0
 10
10.0965215971
 20
9.0214127053
 30
0.0
 10
10.0970200565
 20
9.020442119
 30
0.0
 10
10.0976836205
 20
9.0191476444
 30
0.0
 10
10.0985134346
 20
9.0175296743
 30
0.0
 10
10.0998409363
 20
9.0149408532
 30
0.0
 10
10.1015003828
 20
9.0117048507
 30
0.0
 10
10.103491687
 20
9.0078216366
 30
0.0
 10
10.1054830067
 20
9.0039384289
 30
0.0
 10
10.1071424142
 20
9.0007024104
 30
0.0
 10
10.108469994
 20
8.9981136212
 30
0.0
 10
10.1092996096
 20
8.9964955702
 30
0.0
 10
10.1099635809
 20
8.9952012617
 30
0.0
 10
10.1104607959
 20
8.9942301678
 30
0.0
 10
10.1108775706
 20
8.9934220763
 30
0.0
 10
10.1111645462
 20
8.9928541487
 30
0.0
 10
10.1113359751
 20
8.9925331529
 30
0.0
 10
10.1114435802
 20
8.9922824501
 30
0.0
 10
10.1116313301
 20
8.9920698039
 30
0.0
 10
10.1118537078
 20
8.991773001
 30
0.0
 10
10.1122558938
 20
8.9912597808
 30
0.0
 10
10.1128236356
 20
8.9905233756
 30
0.0
 10
10.1135078405
 20
8.9896410734
 30
0.0
 10
10.1144190957
 20
8.9884641871
 30
0.0
 10
10.1155585132
 20
8.9869932447
 30
0.0
 10
10.1173813863
 20
8.9846396443
 30
0.0
 10
10.119660045
 20
8.9816976759
 30
0.0
 10
10.1223944051
 20
8.9781672985
 30
0.0
 10
10.1251287786
 20
8.9746369311
 30
0.0
 10
10.1274074039
 20
8.9716949378
 30
0.0
 10
10.1292303437
 20
8.9693413872
 30
0.0
 10
10.1303695919
 20
8.9678703181
 30
0.0
 10
10.1312811944
 20
8.9666936919
 30
0.0
 10
10.1319643381
 20
8.9658105947
 30
0.0
 10
10.1325354003
 20
8.965076677
 30
0.0
 10
10.1329316588
 20
8.9645590163
 30
0.0
 10
10.1331635338
 20
8.9642693282
 30
0.0
 10
10.1333221111
 20
8.9640348276
 30
0.0
 10
10.1335392836
 20
8.9638662062
 30
0.0
 10
10.1338084083
 20
8.9636183982
 30
0.0
 10
10.1342888993
 20
8.9631954408
 30
0.0
 10
10.1349703363
 20
8.9625856185
 30
0.0
 10
10.1357901918
 20
8.9618562276
 30
0.0
 10
10.1368825882
 20
8.9608828696
 30
0.0
 10
10.1382483384
 20
8.9596664586
 30
0.0
 10
10.1404333964
 20
8.9577200408
 30
0.0
 10
10.143164768
 20
8.9552870739
 30
0.0
 10
10.1464423917
 20
8.9523674882
 30
0.0
 10
10.1497200258
 20
8.9494479157
 30
0.0
 10
10.1524513714
 20
8.947014916
 30
0.0
 10
10.1546364813
 20
8.9450685638
 30
0.0
 10
10.1560020995
 20
8.9438519861
 30
0.0
 10
10.1570947669
 20
8.9428789702
 30
0.0
 10
10.1579137943
 20
8.9421485342
 30
0.0
 10
10.1585978224
 20
8.9415419817
 30
0.0
 10
10.1590736879
 20
8.941113187
 30
0.0
 10
10.1593502237
 20
8.9408747319
 30
0.0
 10
10.1595446316
 20
8.9406773815
 30
0.0
 10
10.1597887093
 20
8.9405507824
 30
0.0
 10
10.1600968208
 20
8.9403573047
 30
0.0
 10
10.1606440882
 20
8.9400302171
 30
0.0
 10
10.1614216785
 20
8.9395569377
 30
0.0
 10
10.1623565933
 20
8.9389915755
 30
0.0
 10
10.1636025155
 20
8.9382368605
 30
0.0
 10
10.1651601342
 20
8.9372937744
 30
0.0
 10
10.1676522033
 20
8.9357846647
 30
0.0
 10
10.1707673313
 20
8.933898337
 30
0.0
 10
10.1745054663
 20
8.9316347164
 30
0.0
 10
10.1782436094
 20
8.9293711103
 30
0.0
 10
10.1813587173
 20
8.9274847464
 30
0.0
 10
10.1838508267
 20
8.9259757091
 30
0.0
 10
10.185408343
 20
8.9250324391
 30
0.0
 10
10.1866544754
 20
8.9242781016
 30
0.0
 10
10.1875887478
 20
8.9237115859
 30
0.0
 10
10.188368348
 20
8.9232419155
 30
0.0
 10
10.1889120274
 20
8.9229083851
 30
0.0
 10
10.1892258878
 20
8.9227252305
 30
0.0
 10
10.1894523067
 20
8.9225669224
 30
0.0
 10
10.1897130381
 20
8.9224886654
 30
0.0
 10
10.1900487114
 20
8.9223563999
 30
0.0
 10
10.190641716
 20
8.9221379451
 30
0.0
 10
10.1914859501
 20
8.9218190652
 30
0.0
 10
10.1925002789
 20
8.9214393206
 30
0.0
 10
10.1938522814
 20
8.9209319776
 30
0.0
 10
10.1955424337
 20
8.9202981471
 30
0.0
 10
10.1982465941
 20
8.9192838235
 30
0.0
 10
10.2016268233
 20
8.9180159864
 30
0.0
 10
10.2056830854
 20
8.9164945509
 30
0.0
 10
10.2097393532
 20
8.9149731313
 30
0.0
 10
10.213119568
 20
8.9137052544
 30
0.0
 10
10.2158237572
 20
8.9126910104
 30
0.0
 10
10.2175138362
 20
8.9120569777
 30
0.0
 10
10.2188659893
 20
8.9115500497
 30
0.0
 10
10.219879858
 20
8.9111690371
 30
0.0
 10
10.2207255315
 20
8.9108541245
 30
0.0
 10
10.2213159666
 20
8.9106285874
 30
0.0
 10
10.2216557569
 20
8.9105076696
 30
0.0
 10
10.221903842
 20
8.9103945563
 30
0.0
 10
10.2221777581
 20
8.9103671626
 30
0.0
 10
10.2225339694
 20
8.9103007377
 30
0.0
 10
10.2231615372
 20
8.9101984251
 30
0.0
 10
10.2240558679
 20
8.9100449809
 30
0.0
 10
10.2251300041
 20
8.9098639654
 30
0.0
 10
10.2265618575
 20
8.9096215226
 30
0.0
 10
10.2283517868
 20
8.9093188419
 30
0.0
 10
10.2312156107
 20
8.9088343443
 30
0.0
 10
10.2347954122
 20
8.9082287939
 30
0.0
 10
10.2390911647
 20
8.9075021027
 30
0.0
 10
10.2433869197
 20
8.9067754197
 30
0.0
 10
10.2491145922
 20
8.9058065062
 30
0.0
 10
10.2534103467
 20
8.9050798218
 30
0.0
 10
10.256274183
 20
8.9045953653
 30
0.0
  0
ENDSEC
  0
SECTION
  2
OBJECTS
  0
DICTIONARY
  5
C
100
AcDbDictionary
280
0
281
1
  3
ACAD_GROUP
350
D
  3
ACAD_MLINESTYLE
350
17
  3
ACAD_LAYOUT
350
1A
  3
ACAD_PLOTSETTINGS
350
19
  3
ACAD_PLOTSTYLENAME
350
E
  3
ACAD_IMAGE_DICT
350
       380
  3
ACAD_IMAGE_VARS
350
       381
  3
ACAD_TABLESTYLE
350
       382
  0
IMAGEDEF_REACTOR
  5
37F
100
AcDbRasterImageDefReactor
 90
2
330
292
  0
DICTIONARY
  5
D
102
{ACAD_REACTORS
330
C
102
}
100
AcDbDictionary
280
0
281
1
  0
ACDBDICTIONARYWDFLT
  5
E
102
{ACAD_REACTORS
330
C
102
}
100
AcDbDictionary
281
1
  3
Normal
350
F
100
AcDbDictionaryWithDefault
340
F
  0
DICTIONARY
  5
380
330
C
100
AcDbDictionary
281
1
  3
N4J_assy_2_img_1
350
       385
  0
RASTERVARIABLES
  5
381
330
C
100
AcDbRasterVariables
 90
0
 70
0
 71
1
 72
5
  0
DICTIONARY
  5
17
102
{ACAD_REACTORS
330
C
102
}
100
AcDbDictionary
280
0
281
1
  3
Standard
350
18
  0
DICTIONARY
  5
382
330
C
100
AcDbDictionary
281
1
  3
Standard
350
       386
  3
Standard1
350
       387
  0
DICTIONARY
  5
19
102
{ACAD_REACTORS
330
C
102
}
100
AcDbDictionary
281
1
  0
DICTIONARY
  5
1A
102
{ACAD_REACTORS
330
C
102
}
100
AcDbDictionary
281
1
  3
Model
350
383
  3
Layout1
350
384
  0
ACDBPLACEHOLDER
  5
F
102
{ACAD_REACTORS
330
E
102
}
  0
MLINESTYLE
  5
18
102
{ACAD_REACTORS
330
17
102
}
100
AcDbMlineStyle
  2
STANDARD
 70
0
  3

 62
256
 51
90.0
 52
90.0
 71
2
 49
0.5
 62
256
  6
BYLAYER
 49
-0.5
 62
256
  6
BYLAYER
  0
LAYOUT
  5
383
102
{ACAD_REACTORS
330
1A
102
}
100
AcDbPlotSettings
  1

  2
none_device
  4
ANSI_C_(22.00_x_17.00_Inches)
  6

 40
0.0
 41
0.0
 42
0.0
 43
0.0
 44
558.8
 45
431.8
 46
0.0
 47
0.0
 48
0.0
 49
0.0
140
0.0
141
0.0
142
1.0
143
1.0
 70
1024
 72
0
 73
0
 74
0
  7

 75
0
147
1.0
148
0.0
149
0.0
100
AcDbLayout
  1
Model
 70
0
 71
0
 10
0.0
 20
0.0
 11
22.0
 21
17.0
 12
0.0
 22
0.0
 32
0.0
 14
0.0
 24
0.0
 34
0.0
 15
0.0
 25
0.0
 35
0.0
146
0.0
 13
0.0
 23
0.0
 33
0.0
 16
1.0
 26
0.0
 36
0.0
 17
0.0
 27
1.0
 37
0.0
 76
0
330
20C
345
0
346
0
  0
LAYOUT
  5
384
102
{ACAD_REACTORS
330
1A
102
}
100
AcDbPlotSettings
  1

  2
none_device
  4
ANSI_C_(22.00_x_17.00_Inches)
  6

 40
0.0
 41
0.0
 42
0.0
 43
0.0
 44
558.8
 45
431.8
 46
0.0
 47
0.0
 48
0.0
 49
0.0
140
0.0
141
0.0
142
1.0
143
1.0
 70
0
 72
0
 73
0
 74
0
  7

 75
0
147
1.0
148
0.0
149
0.0
100
AcDbLayout
  1
Layout1
 70
0
 71
1
 10
0.0
 20
0.0
 11
22.0
 21
17.0
 12
0.0
 22
0.0
 32
0.0
 14
0.0
 24
0.0
 34
0.0
 15
0.0
 25
0.0
 35
0.0
146
0.0
 13
0.0
 23
0.0
 33
0.0
 16
1.0
 26
0.0
 36
0.0
 17
0.0
 27
1.0
 37
0.0
 76
0
330
20D
345
0
346
0
  0
IMAGEDEF
  5
385
102
{ACAD_REACTORS
330
380
330
37F
102
}
100
AcDbRasterImageDef
 90
0
  1
N4J_assy_2_img_1.png
 10
369.0
 20
92.0
 11
0.0066666667
 21
0.0066666667
280
1
281
0
  0
TABLESTYLE
  5
386
102
{ACAD_REACTORS
330
382
330
295
330
296
102
}
330
382
100
AcDbTableStyle
  3
Standard
 70
0
 71
0
 40
0.06
 41
0.06
280
1
281
1
  7
Standard
140
0.18
170
1
 62
0
 63
7
283
0
  7
Standard
140
0.18
170
1
 62
0
 63
7
283
0
  7
Standard
140
0.18
170
1
 62
0
 63
7
283
0
  0
TABLESTYLE
  5
387
102
{ACAD_REACTORS
330
382
330
294
102
}
330
382
100
AcDbTableStyle
  3
Standard1
 70
1
 71
0
 40
0.06
 41
0.06
280
1
281
1
  7
Standard
140
0.18
170
1
 62
0
 63
7
283
0
  7
Standard
140
0.18
170
1
 62
0
 63
7
283
0
  7
Standard
140
0.18
170
1
 62
0
 63
7
283
0
  0
ENDSEC
  0
EOF
