999
DXF file: MB3_assy_2.dxf
999
Pro/ENGINEER 2014200 by Parametric Technology Corporation
  0
SECTION
  2
HEADER
  9
$ACADVER
  1
AC1021
  9
$DWGCODEPAGE
  3
ANSI_1252
  9
$EXTMAX
 10
22.0
 20
17.0
 30
0.0
  9
$EXTMIN
 10
0.0
 20
0.0
 30
0.0
  9
$LIMMIN
 10
0.0
 20
0.0
  9
$LIMMAX
 10
22.0
 20
17.0
  9
$VIEWCTR
 10
11.0
 20
8.5
  9
$VIEWSIZE
 40
17.0
  9
$CLAYER
  8
0
  9
$LTSCALE
 40
1.21
  9
$CELTYPE
  6
BYLAYER
  9
$DIMSCALE
 40
1.0
  9
$DIMASZ
 40
0.1875
  9
$DIMEXO
 40
0.0625
  9
$DIMDLI
 40
0.836
  9
$DIMEXE
 40
0.125
  9
$DIMCEN
 40
0.198
  9
$DIMLFAC
 40
1.0
  9
$DIMBLK
  1
_FILLED
  9
$DIMTXT
 40
0.1
  9
$DIMTOL
 70
0
  9
$DIMLIM
 70
0
  9
$DIMTFAC
 40
1.0
  9
$DIMGAP
 40
0.09
  9
$DIMDSEP
 70
46
  9
$AUNITS
 70
0
  9
$PDMODE
 70
3
  9
$PDSIZE
 40
0.3125
  9
$HANDSEED
  5
354
  9
$TILEMODE
 70
1
  9
$MEASUREMENT
 70
0
  9
$INSUNITS
 70
1
  0
ENDSEC
  0
SECTION
  2
CLASSES
  0
CLASS
  1
ACDBDICTIONARYWDFLT
  2
AcDbDictionaryWithDefault
  3
AutoCAD 2000
 90
0
 91
1
280
0
281
0
  0
CLASS
  1
ACDBPLACEHOLDER
  2
AcDbPlaceHolder
  3
AutoCAD 2000
 90
0
 91
1
280
0
281
0
  0
CLASS
  1
LAYOUT
  2
AcDbLayout
  3
AutoCAD 2000
 90
0
 91
0
280
0
281
0
  0
CLASS
  1
RASTERVARIABLES
  2
AcDbRasterVariables
  3
ISM
 90
0
 91
1
280
0
281
0
  0
CLASS
  1
IMAGEDEF
  2
AcDbRasterImageDef
  3
ISM
 90
0
 91
1
280
0
281
0
  0
CLASS
  1
IMAGEDEF_REACTOR
  2
AcDbRasterImageDefReactor
  3
ISM
 90
0
 91
1
280
0
281
0
  0
CLASS
  1
IMAGE
  2
AcDbRasterImage
  3
ISM
 90
127
 91
1
280
0
281
1
  0
CLASS
  1
TABLESTYLE
  2
AcDbTableStyle
  3
ObjectDBX Classes
 90
2047
 91
1
280
0
281
0
  0
CLASS
  1
ACAD_TABLE
  2
AcDbTable
  3
ObjectDBX Classes
 90
1025
 91
3
280
0
281
1
  0
ENDSEC
  0
SECTION
  2
TABLES
  0
TABLE
  2
VPORT
  5
8
100
AcDbSymbolTable
 70
2
  0
VPORT
  5
1F4
100
AcDbSymbolTableRecord
100
AcDbViewportTableRecord
  2
*ACTIVE
 70
0
 10
0.0
 20
0.0
 11
1.0
 21
1.0
 12
11.0
 22
8.5
 13
0.0
 23
0.0
 14
1.0
 24
1.0
 15
0.0
 25
0.0
 16
0.0
 26
0.0
 36
1.0
 17
0.0
 27
0.0
 37
0.0
 40
17.0
 41
1.2941176471
 42
50.0
 43
0.0
 44
0.0
 50
0.0
 51
0.0
 71
0
 72
100
 73
1
 74
1
 75
0
 76
0
 77
0
 78
0
  0
ENDTAB
  0
TABLE
  2
LTYPE
  5
5
100
AcDbSymbolTable
 70
6
  0
LTYPE
  5
14
100
AcDbSymbolTableRecord
100
AcDbLinetypeTableRecord
  2
BYBLOCK
 70
0
  3

 72
65
 73
0
 40
0.0
  0
LTYPE
  5
15
100
AcDbSymbolTableRecord
100
AcDbLinetypeTableRecord
  2
BYLAYER
 70
0
  3

 72
65
 73
0
 40
0.0
  0
LTYPE
  5
16
100
AcDbSymbolTableRecord
100
AcDbLinetypeTableRecord
  2
CONTINUOUS
 70
64
  3
Solid line
 72
65
 73
0
 40
0.0
  0
LTYPE
  5
1F5
100
AcDbSymbolTableRecord
100
AcDbLinetypeTableRecord
  2
CENTER
 70
64
  3
____ _ ____ _ ____ _ ____ _ ____ _ ____ _ ____
 72
65
 73
4
 40
0.6
 49
0.375
 74
0
 49
-0.075
 74
0
 49
0.075
 74
0
 49
-0.075
 74
0
  0
LTYPE
  5
1F6
100
AcDbSymbolTableRecord
100
AcDbLinetypeTableRecord
  2
HIDDEN
 70
64
  3
- - - - - - - - - - - - - - - - - - - -
 72
65
 73
2
 40
0.2
 49
0.1
 74
0
 49
-0.1
 74
0
  0
LTYPE
  5
1F7
100
AcDbSymbolTableRecord
100
AcDbLinetypeTableRecord
  2
PHANTOM
 70
64
  3
_____ _ _ _____ _ _ _____ _ _ _____
 72
65
 73
6
 40
0.8
 49
0.45
 74
0
 49
-0.05
 74
0
 49
0.1
 74
0
 49
-0.05
 74
0
 49
0.1
 74
0
 49
-0.05
 74
0
  0
LTYPE
  5
1F8
100
AcDbSymbolTableRecord
100
AcDbLinetypeTableRecord
  2
DOT
 70
64
  3
. . . . . . . . . . . . . . . . . . . .
 72
65
 73
2
 40
0.2
 49
0.1
 74
0
 49
-0.1
 74
0
  0
LTYPE
  5
1F9
100
AcDbSymbolTableRecord
100
AcDbLinetypeTableRecord
  2
DASHED
 70
64
  3
- - - - - - - - - - - - - - - - - - - -
 72
65
 73
2
 40
0.2
 49
0.1
 74
0
 49
-0.1
 74
0
  0
ENDTAB
  0
TABLE
  2
LAYER
  5
2
100
AcDbSymbolTable
 70
36
  0
LAYER
  5
10
100
AcDbSymbolTableRecord
100
AcDbLayerTableRecord
  2
0
 70
0
 62
7
  6
CONTINUOUS
370
-3
390
F
  0
LAYER
  5
1FA
100
AcDbSymbolTableRecord
100
AcDbLayerTableRecord
  2
DEFAULT_1
 70
0
 62
7
  6
CENTER
370
-3
390
F
  0
LAYER
  5
1FB
100
AcDbSymbolTableRecord
100
AcDbLayerTableRecord
  2
DEFAULT_2
 70
0
 62
8
  6
HIDDEN
370
-3
390
F
  0
LAYER
  5
1FC
100
AcDbSymbolTableRecord
100
AcDbLayerTableRecord
  2
DEFAULT_3
 70
0
 62
7
  6
PHANTOM
370
-3
390
F
  0
LAYER
  5
1FD
100
AcDbSymbolTableRecord
100
AcDbLayerTableRecord
  2
01___PRT_ALL_DTM_PLN
 70
0
 62
7
  6
CONTINUOUS
370
-3
390
F
  0
LAYER
  5
1FE
100
AcDbSymbolTableRecord
100
AcDbLayerTableRecord
  2
01___PRT_DEF_DTM_PLN
 70
0
 62
7
  6
CONTINUOUS
370
-3
390
F
  0
LAYER
  5
1FF
100
AcDbSymbolTableRecord
100
AcDbLayerTableRecord
  2
02___PRT_ALL_AXES
 70
0
 62
7
  6
CONTINUOUS
370
-3
390
F
  0
LAYER
  5
200
100
AcDbSymbolTableRecord
100
AcDbLayerTableRecord
  2
03___PRT_ALL_CURVES
 70
0
 62
7
  6
CONTINUOUS
370
-3
390
F
  0
LAYER
  5
201
100
AcDbSymbolTableRecord
100
AcDbLayerTableRecord
  2
04___PRT_ALL_DTM_PNT
 70
0
 62
7
  6
CONTINUOUS
370
-3
390
F
  0
LAYER
  5
202
100
AcDbSymbolTableRecord
100
AcDbLayerTableRecord
  2
05___PRT_ALL_DTM_CSYS
 70
0
 62
7
  6
CONTINUOUS
370
-3
390
F
  0
LAYER
  5
203
100
AcDbSymbolTableRecord
100
AcDbLayerTableRecord
  2
05___PRT_DEF_DTM_CSYS
 70
0
 62
7
  6
CONTINUOUS
370
-3
390
F
  0
LAYER
  5
204
100
AcDbSymbolTableRecord
100
AcDbLayerTableRecord
  2
06___PRT_ALL_SURFS
 70
0
 62
7
  6
CONTINUOUS
370
-3
390
F
  0
LAYER
  5
205
100
AcDbSymbolTableRecord
100
AcDbLayerTableRecord
  2
DATUM_PLANES
 70
0
 62
7
  6
CONTINUOUS
370
-3
390
F
  0
LAYER
  5
206
100
AcDbSymbolTableRecord
100
AcDbLayerTableRecord
  2
DIMENSIONS
 70
0
 62
7
  6
CONTINUOUS
370
-3
390
F
  0
LAYER
  5
207
100
AcDbSymbolTableRecord
100
AcDbLayerTableRecord
  2
PARAMETERDIMENSIONS
 70
0
 62
7
  6
CONTINUOUS
370
-3
390
F
  0
LAYER
  5
208
100
AcDbSymbolTableRecord
100
AcDbLayerTableRecord
  2
PLANE
 70
0
 62
7
  6
CONTINUOUS
370
-3
390
F
  0
LAYER
  5
209
100
AcDbSymbolTableRecord
100
AcDbLayerTableRecord
  2
PORT_AREAS
 70
0
 62
7
  6
CONTINUOUS
370
-3
390
F
  0
LAYER
  5
20A
100
AcDbSymbolTableRecord
100
AcDbLayerTableRecord
  2
SUNNBOMCOSMETIC
 70
0
 62
7
  6
CONTINUOUS
370
-3
390
F
  0
LAYER
  5
20B
100
AcDbSymbolTableRecord
100
AcDbLayerTableRecord
  2
SUNNBOMSTAMPING
 70
0
 62
7
  6
CONTINUOUS
370
-3
390
F
  0
LAYER
  5
20C
100
AcDbSymbolTableRecord
100
AcDbLayerTableRecord
  2
THREADS
 70
0
 62
7
  6
CONTINUOUS
370
-3
390
F
  0
ENDTAB
  0
TABLE
  2
STYLE
  5
3
100
AcDbSymbolTable
 70
1
  0
STYLE
  5
11
100
AcDbSymbolTableRecord
100
AcDbTextStyleTableRecord
  2
STANDARD
 70
0
 40
0.0
 41
0.8
 50
0.0
 71
0
 42
0.2
  3
txt
  4

  0
STYLE
  5
20D
100
AcDbSymbolTableRecord
100
AcDbTextStyleTableRecord
  2
TEXTSTYLE_1
 70
0
 40
0.0
 41
0.8
 50
0.0
 71
0
 42
0.2
  3
gdt
  4

  0
ENDTAB
  0
TABLE
  2
VIEW
  5
6
100
AcDbSymbolTable
 70
0
  0
ENDTAB
  0
TABLE
  2
UCS
  5
7
100
AcDbSymbolTable
 70
0
  0
ENDTAB
  0
TABLE
  2
APPID
  5
9
100
AcDbSymbolTable
 70
1
  0
APPID
  5
20E
100
AcDbSymbolTableRecord
100
AcDbRegAppTableRecord
  2
ACAD
 70
0
  0
ENDTAB
  0
TABLE
  2
BLOCK_RECORD
  5
1
100
AcDbSymbolTable
 70
0
  0
BLOCK_RECORD
  5
20F
100
AcDbSymbolTableRecord
100
AcDbBlockTableRecord
  2
*Model_Space
  0
BLOCK_RECORD
  5
210
100
AcDbSymbolTableRecord
100
AcDbBlockTableRecord
  2
*Paper_Space
  0
BLOCK_RECORD
  5
211
100
AcDbSymbolTableRecord
100
AcDbBlockTableRecord
  2
SUN_FIRST_THIRD_ANGLE_BL0
  0
BLOCK_RECORD
  5
212
100
AcDbSymbolTableRecord
100
AcDbBlockTableRecord
  2
*T1
  0
BLOCK_RECORD
  5
213
100
AcDbSymbolTableRecord
100
AcDbBlockTableRecord
  2
*T2
  0
BLOCK_RECORD
  5
214
100
AcDbSymbolTableRecord
100
AcDbBlockTableRecord
  2
*T3
  0
ENDTAB
  0
TABLE
  2
DIMSTYLE
  5
A
100
AcDbSymbolTable
 70
1
100
AcDbDimStyleTable
 71
0
  0
DIMSTYLE
105
215
100
AcDbSymbolTableRecord
100
AcDbDimStyleTableRecord
  2
STANDARD
 70
0
  3

  4

 40
1.0
 41
0.1875
 42
0.0625
 43
0.38
 44
0.125
 45
0.0
 46
0.0
 47
0.001
 48
0.001
140
0.1
141
0.09
142
0.0
143
25.4
144
1.0
145
0.0
146
1.0
147
0.09
 71
0.0
 72
0.0
 73
1
 74
1
 75
0
 76
0
 77
0
 78
4
170
0
171
2
172
0
173
0
174
0
175
0
176
0
177
0
178
0
270
2
271
3
272
3
273
2
274
2
275
0
280
0
281
0
282
0
283
1
284
4
285
0
286
0
287
3
288
0
340
11
278
46
  0
ENDTAB
  0
ENDSEC
  0
SECTION
  2
BLOCKS
  0
BLOCK
  5
20
100
AcDbEntity
  8
0
100
AcDbBlockBegin
  2
*Model_Space
 70
0
 10
0.0
 20
0.0
 30
0.0
  3
*Model_Space
  1

  0
ENDBLK
  5
21
100
AcDbEntity
  8
0
100
AcDbBlockEnd
  0
BLOCK
  5
1C
100
AcDbEntity
  8
0
100
AcDbBlockBegin
  2
*Paper_Space
 70
0
 10
0.0
 20
0.0
 30
0.0
  3
*Paper_Space
  1

  0
ENDBLK
  5
1D
100
AcDbEntity
  8
0
100
AcDbBlockEnd
  0
BLOCK
  5
216
100
AcDbEntity
  8
0
100
AcDbBlockBegin
 62
2
  6
CONTINUOUS
  2
SUN_FIRST_THIRD_ANGLE_BL0
 70
64
 10
20.4816717061
 20
1.2289683772
  3
SUN_FIRST_THIRD_ANGLE_BL0
  1

  0
TEXT
  5
217
100
AcDbEntity
  8
0
100
AcDbText
 62
2
  6
CONTINUOUS
 10
19.4750896608
 20
1.4136269581
  7
STANDARD
 40
0.08
  1
FIRST ANGLE
 41
0.8
 72
0
100
AcDbText
  0
TEXT
  5
218
100
AcDbEntity
  8
0
100
AcDbText
 62
2
  6
CONTINUOUS
 10
20.7842537513
 20
1.4047600029
  7
STANDARD
 40
0.08
  1
THIRD ANGLE
 41
0.8
 72
0
100
AcDbText
  0
LINE
  5
219
100
AcDbEntity
  8
0
100
AcDbLine
 62
7
  6
CONTINUOUS
 10
19.4767170086
 20
1.1727031207
 11
19.6334271527
 21
1.1717972817
  0
LINE
  5
21A
100
AcDbEntity
  8
0
100
AcDbLine
 62
7
  6
CONTINUOUS
 10
19.6596964832
 20
1.1717972817
 11
19.6950230232
 21
1.171593082
  0
LINE
  5
21B
100
AcDbEntity
  8
0
100
AcDbLine
 62
7
  6
CONTINUOUS
 10
19.7194818561
 20
1.1708914427
 11
19.8852396156
 21
1.1699333054
  0
LINE
  5
21C
100
AcDbEntity
  8
0
100
AcDbLine
 62
7
  6
CONTINUOUS
 10
19.4758111696
 20
1.2723454088
 11
19.88525039
 21
1.3511534004
  0
LINE
  5
21D
100
AcDbEntity
  8
0
100
AcDbLine
 62
7
  6
CONTINUOUS
 10
19.88525039
 20
1.3511534004
 11
19.8831348489
 21
0.9851647912
  0
LINE
  5
21E
100
AcDbEntity
  8
0
100
AcDbLine
 62
7
  6
CONTINUOUS
 10
19.8831348489
 20
0.9851647912
 11
19.4767170086
 21
1.0658141206
  0
LINE
  5
21F
100
AcDbEntity
  8
0
100
AcDbLine
 62
7
  6
CONTINUOUS
 10
19.4767170086
 20
1.0658141206
 11
19.4779056764
 21
1.2714536432
  0
CIRCLE
  5
220
100
AcDbEntity
  8
0
100
AcDbCircle
 62
7
  6
CONTINUOUS
 10
20.2068232291
 20
1.1717972817
 40
0.175742101
  0
CIRCLE
  5
221
100
AcDbEntity
  8
0
100
AcDbCircle
 62
7
  6
CONTINUOUS
 10
20.2068232291
 20
1.1717972817
 40
0.1005522074
  0
LINE
  5
222
100
AcDbEntity
  8
0
100
AcDbLine
 62
7
  6
CONTINUOUS
 10
20.2077290681
 20
1.3756110529
 11
20.2071171714
 21
1.2379342989
  0
LINE
  5
223
100
AcDbEntity
  8
0
100
AcDbLine
 62
7
  6
CONTINUOUS
 10
20.2077290681
 20
1.2016899681
 11
20.2074674401
 21
1.1428236749
  0
LINE
  5
224
100
AcDbEntity
  8
0
100
AcDbLine
 62
7
  6
CONTINUOUS
 10
20.208634907
 20
1.101141841
 11
20.2080230104
 21
0.963465087
  0
LINE
  5
225
100
AcDbEntity
  8
0
100
AcDbLine
 62
7
  6
CONTINUOUS
 10
20.0066328138
 20
1.1745147986
 11
20.1443095678
 21
1.1739029019
  0
LINE
  5
226
100
AcDbEntity
  8
0
100
AcDbLine
 62
7
  6
CONTINUOUS
 10
20.1832714155
 20
1.1727031207
 11
20.238153505
 21
1.172335442
  0
LINE
  5
227
100
AcDbEntity
  8
0
100
AcDbLine
 62
7
  6
CONTINUOUS
 10
20.2756669918
 20
1.1717972817
 11
20.407916871
 21
1.1712095044
  0
CIRCLE
  5
228
100
AcDbEntity
  8
0
100
AcDbCircle
 62
7
  6
CONTINUOUS
 10
20.7509457401
 20
1.1693297793
 40
0.1722024983
  0
CIRCLE
  5
229
100
AcDbEntity
  8
0
100
AcDbCircle
 62
7
  6
CONTINUOUS
 10
20.7509457401
 20
1.1693297793
 40
0.0985164967
  0
LINE
  5
22A
100
AcDbEntity
  8
0
100
AcDbLine
 62
7
  6
CONTINUOUS
 10
20.7169767782
 20
1.170462078
 11
20.7825395137
 21
1.1682766535
  0
LINE
  5
22B
100
AcDbEntity
  8
0
100
AcDbLine
 62
7
  6
CONTINUOUS
 10
20.8177513651
 20
1.1693297793
 11
20.947965719
 21
1.1693297793
  0
LINE
  5
22C
100
AcDbEntity
  8
0
100
AcDbLine
 62
7
  6
CONTINUOUS
 10
20.6875370113
 20
1.170462078
 11
20.5573226574
 21
1.170462078
  0
LINE
  5
22D
100
AcDbEntity
  8
0
100
AcDbLine
 62
7
  6
CONTINUOUS
 10
20.7486811426
 20
1.1987695462
 11
20.7486811426
 21
1.1432869085
  0
LINE
  5
22E
100
AcDbEntity
  8
0
100
AcDbLine
 62
7
  6
CONTINUOUS
 10
20.7498134414
 20
1.1059210505
 11
20.7498134414
 21
0.9757066966
  0
LINE
  5
22F
100
AcDbEntity
  8
0
100
AcDbLine
 62
7
  6
CONTINUOUS
 10
20.7486811426
 20
1.2338708068
 11
20.7486811426
 21
1.3640851607
  0
LINE
  5
230
100
AcDbEntity
  8
0
100
AcDbLine
 62
7
  6
CONTINUOUS
 10
21.0702539817
 20
1.2701043662
 11
21.4790138229
 21
1.3448360823
  0
LINE
  5
231
100
AcDbEntity
  8
0
100
AcDbLine
 62
7
  6
CONTINUOUS
 10
21.4790138229
 20
1.3448360823
 11
21.4790138229
 21
0.9779712941
  0
LINE
  5
232
100
AcDbEntity
  8
0
100
AcDbLine
 62
7
  6
CONTINUOUS
 10
21.4790138229
 20
0.9779712941
 11
21.069121683
 21
1.0617614
  0
LINE
  5
233
100
AcDbEntity
  8
0
100
AcDbLine
 62
7
  6
CONTINUOUS
 10
21.0702539817
 20
1.2701043662
 11
21.069121683
 21
1.0617614
  0
LINE
  5
234
100
AcDbEntity
  8
0
100
AcDbLine
 62
7
  6
CONTINUOUS
 10
21.4790138229
 20
1.1693297793
 11
21.3159628059
 21
1.1693297793
  0
LINE
  5
235
100
AcDbEntity
  8
0
100
AcDbLine
 62
7
  6
CONTINUOUS
 10
21.2876553377
 20
1.1693297793
 11
21.2502894796
 21
1.1693297793
  0
LINE
  5
236
100
AcDbEntity
  8
0
100
AcDbLine
 62
7
  6
CONTINUOUS
 10
21.2208497126
 20
1.1659328831
 11
21.0713862804
 21
1.1659328831
  0
LINE
  5
237
100
AcDbEntity
  8
0
100
AcDbLine
 62
7
  6
CONTINUOUS
 10
20.4796138713
 20
1.5284908897
 11
20.4766766948
 21
0.9294458646
  0
ENDBLK
  5
238
100
AcDbEntity
  8
0
  6
BYBLOCK
 62
0
100
AcDbBlockEnd
  0
BLOCK
  5
239
100
AcDbEntity
  8
0
100
AcDbBlockBegin
  2
*T1
 70
1
 10
0.0
 20
0.0
  3
*T1
  1

  0
LINE
  5
23A
100
AcDbEntity
  8
0
100
AcDbLine
 62
2
  6
CONTINUOUS
 10
9.275
 20
0.0
 11
-0.0
 21
0.0
  0
LINE
  5
23B
100
AcDbEntity
  8
0
100
AcDbLine
 62
2
  6
CONTINUOUS
 10
9.275
 20
0.0
 11
9.275
 21
1.25
  0
LINE
  5
23C
100
AcDbEntity
  8
0
100
AcDbLine
 62
2
  6
CONTINUOUS
 10
9.275
 20
0.625
 11
-0.0
 21
0.625
  0
LINE
  5
23D
100
AcDbEntity
  8
0
100
AcDbLine
 62
2
  6
CONTINUOUS
 10
9.275
 20
1.25
 11
-0.0
 21
1.25
  0
LINE
  5
23E
100
AcDbEntity
  8
0
100
AcDbLine
 62
2
  6
CONTINUOUS
 10
6.8
 20
0.0
 11
6.8
 21
1.25
  0
LINE
  5
23F
100
AcDbEntity
  8
0
100
AcDbLine
 62
2
  6
CONTINUOUS
 10
6.4
 20
0.0
 11
6.4
 21
0.625
  0
LINE
  5
240
100
AcDbEntity
  8
0
100
AcDbLine
 62
2
  6
CONTINUOUS
 10
5.9
 20
0.0
 11
5.9
 21
0.625
  0
LINE
  5
241
100
AcDbEntity
  8
0
100
AcDbLine
 62
2
  6
CONTINUOUS
 10
5.2
 20
0.0
 11
5.2
 21
0.625
  0
LINE
  5
242
100
AcDbEntity
  8
0
100
AcDbLine
 62
2
  6
CONTINUOUS
 10
4.1
 20
0.0
 11
4.1
 21
1.25
  0
LINE
  5
243
100
AcDbEntity
  8
0
100
AcDbLine
 62
2
  6
CONTINUOUS
 10
-0.0
 20
0.0
 11
-0.0
 21
1.25
  0
MTEXT
  5
244
100
AcDbEntity
  8
0
100
AcDbMText
 62
2
  6
CONTINUOUS
  7
STANDARD
 71
2
 72
1
 10
6.6
 20
0.325
 30
0.0
 11
1.0
 21
0.0
 31
0.0
 44
0.9
  1
2
 40
0.125
 41
0.2
  0
MTEXT
  5
245
100
AcDbEntity
  8
0
100
AcDbMText
 62
2
  6
CONTINUOUS
  7
STANDARD
 71
2
 72
1
 10
6.15
 20
0.325
 30
0.0
 11
1.0
 21
0.0
 31
0.0
 44
0.9
  1
C
 40
0.125
 41
0.2
  0
MTEXT
  5
246
100
AcDbEntity
  8
0
100
AcDbMText
 62
2
  6
CONTINUOUS
  7
STANDARD
 71
2
 72
1
 10
5.55
 20
0.325
 30
0.0
 11
1.0
 21
0.0
 31
0.0
 44
0.9
  1
2.000
 40
0.125
 41
1.0
  0
MTEXT
  5
247
100
AcDbEntity
  8
0
100
AcDbMText
 62
2
  6
CONTINUOUS
  7
STANDARD
 71
2
 72
1
 10
4.65
 20
0.325
 30
0.0
 11
1.0
 21
0.0
 31
0.0
 44
0.9
  1
Feb-10-20
 40
0.125
 41
1.8
  0
MTEXT
  5
248
100
AcDbEntity
  8
0
100
AcDbMText
 62
2
  6
CONTINUOUS
  7
STANDARD
 71
2
 72
1
 10
2.05
 20
0.4625
 30
0.0
 11
1.0
 21
0.0
 31
0.0
 44
0.9
  1
T-21A Sandwich ISO 03\P(See Notes for Body Features)
 40
0.125
 41
5.8
  0
MTEXT
  5
249
100
AcDbEntity
  8
0
100
AcDbMText
 62
2
  6
CONTINUOUS
  7
STANDARD
 71
1
 72
1
 10
6.45
 20
0.5625
 30
0.0
 11
1.0
 21
0.0
 31
0.0
 44
0.9
  1
SHEET
 40
0.06
 41
0.48
  0
MTEXT
  5
24A
100
AcDbEntity
  8
0
100
AcDbMText
 62
2
  6
CONTINUOUS
  7
STANDARD
 71
1
 72
1
 10
5.95
 20
0.5625
 30
0.0
 11
1.0
 21
0.0
 31
0.0
 44
0.9
  1
DWG SIZE
 40
0.06
 41
0.768
  0
MTEXT
  5
24B
100
AcDbEntity
  8
0
100
AcDbMText
 62
2
  6
CONTINUOUS
  7
STANDARD
 71
1
 72
1
 10
5.25
 20
0.5625
 30
0.0
 11
1.0
 21
0.0
 31
0.0
 44
0.9
  1
SCALE
 40
0.06
 41
0.48
  0
MTEXT
  5
24C
100
AcDbEntity
  8
0
100
AcDbMText
 62
2
  6
CONTINUOUS
  7
STANDARD
 71
1
 72
1
 10
4.15
 20
0.5625
 30
0.0
 11
1.0
 21
0.0
 31
0.0
 44
0.9
  1
DATE
 40
0.06
 41
0.384
  0
MTEXT
  5
24D
100
AcDbEntity
  8
0
100
AcDbMText
 62
2
  6
CONTINUOUS
  7
STANDARD
 71
1
 72
1
 10
0.05
 20
0.5625
 30
0.0
 11
1.0
 21
0.0
 31
0.0
 44
0.9
  1
DESCRIPTION
 40
0.06
 41
1.056
  0
MTEXT
  5
24E
100
AcDbEntity
  8
0
100
AcDbMText
 62
2
  6
CONTINUOUS
  7
STANDARD
 71
2
 72
1
 10
5.45
 20
1.0375
 30
0.0
 11
1.0
 21
0.0
 31
0.0
 44
0.9
  1
ALL DIMENSIONS IN INCH\PVIEWS ARE THIRD ANGLE
 40
0.12
 41
4.224
  0
MTEXT
  5
24F
100
AcDbEntity
  8
0
100
AcDbMText
 62
2
  6
CONTINUOUS
  7
STANDARD
 71
2
 72
1
 10
2.05
 20
0.95
 30
0.0
 11
1.0
 21
0.0
 31
0.0
 44
0.9
  1
MB3
 40
0.125
 41
0.6
  0
MTEXT
  5
250
100
AcDbEntity
  8
0
100
AcDbMText
 62
2
  6
CONTINUOUS
  7
STANDARD
 71
1
 72
1
 10
0.05
 20
1.1875
 30
0.0
 11
1.0
 21
0.0
 31
0.0
 44
0.9
  1
MODEL
 40
0.06
 41
0.48
  0
ENDBLK
  5
251
100
AcDbEntity
  8
0
  6
BYBLOCK
 62
0
100
AcDbBlockEnd
  0
BLOCK
  5
252
100
AcDbEntity
  8
0
100
AcDbBlockBegin
  2
*T2
 70
1
 10
0.0
 20
0.0
  3
*T2
  1

  0
LINE
  5
253
100
AcDbEntity
  8
0
100
AcDbLine
 62
2
  6
CONTINUOUS
 10
0.0
 20
0.0
 11
9.055
 21
0.0
  0
LINE
  5
254
100
AcDbEntity
  8
0
100
AcDbLine
 62
2
  6
CONTINUOUS
 10
0.0
 20
0.0
 11
0.0
 21
-2.094
  0
LINE
  5
255
100
AcDbEntity
  8
0
100
AcDbLine
 62
2
  6
CONTINUOUS
 10
0.0
 20
-0.344
 11
9.055
 21
-0.344
  0
LINE
  5
256
100
AcDbEntity
  8
0
100
AcDbLine
 62
2
  6
CONTINUOUS
 10
0.0
 20
-0.594
 11
9.055
 21
-0.594
  0
LINE
  5
257
100
AcDbEntity
  8
0
100
AcDbLine
 62
2
  6
CONTINUOUS
 10
0.0
 20
-0.844
 11
9.055
 21
-0.844
  0
LINE
  5
258
100
AcDbEntity
  8
0
100
AcDbLine
 62
2
  6
CONTINUOUS
 10
0.0
 20
-1.094
 11
9.055
 21
-1.094
  0
LINE
  5
259
100
AcDbEntity
  8
0
100
AcDbLine
 62
2
  6
CONTINUOUS
 10
0.0
 20
-1.344
 11
9.055
 21
-1.344
  0
LINE
  5
25A
100
AcDbEntity
  8
0
100
AcDbLine
 62
2
  6
CONTINUOUS
 10
0.0
 20
-1.594
 11
9.055
 21
-1.594
  0
LINE
  5
25B
100
AcDbEntity
  8
0
100
AcDbLine
 62
2
  6
CONTINUOUS
 10
0.0
 20
-1.844
 11
9.055
 21
-1.844
  0
LINE
  5
25C
100
AcDbEntity
  8
0
100
AcDbLine
 62
2
  6
CONTINUOUS
 10
0.0
 20
-2.094
 11
9.055
 21
-2.094
  0
LINE
  5
25D
100
AcDbEntity
  8
0
100
AcDbLine
 62
2
  6
CONTINUOUS
 10
3.055
 20
0.0
 11
3.055
 21
-2.094
  0
LINE
  5
25E
100
AcDbEntity
  8
0
100
AcDbLine
 62
2
  6
CONTINUOUS
 10
9.055
 20
0.0
 11
9.055
 21
-2.094
  0
MTEXT
  5
25F
100
AcDbEntity
  8
0
100
AcDbMText
 62
2
  6
CONTINUOUS
  7
STANDARD
 71
2
 72
1
 10
1.5275
 20
-0.0995
 30
0.0
 11
1.0
 21
0.0
 31
0.0
 44
0.9
  1
Technical Data
 40
0.145
 41
3.248
  0
MTEXT
  5
260
100
AcDbEntity
  8
0
100
AcDbMText
 62
2
  6
CONTINUOUS
  7
STANDARD
 71
2
 72
1
 10
4.555
 20
-0.0995
 30
0.0
 11
1.0
 21
0.0
 31
0.0
 44
0.9
  1
U.S. Units
 40
0.145
 41
2.32
  0
MTEXT
  5
261
100
AcDbEntity
  8
0
100
AcDbMText
 62
2
  6
CONTINUOUS
  7
STANDARD
 71
2
 72
1
 10
7.555
 20
-0.0995
 30
0.0
 11
1.0
 21
0.0
 31
0.0
 44
0.9
  1
Metric Units
 40
0.145
 41
2.784
  0
MTEXT
  5
262
100
AcDbEntity
  8
0
100
AcDbMText
 62
2
  6
CONTINUOUS
  7
STANDARD
 71
2
 72
1
 10
1.5275
 20
-0.4065
 30
0.0
 11
1.0
 21
0.0
 31
0.0
 44
0.9
  1
Cavity
 40
0.125
 41
1.2
  0
MTEXT
  5
263
100
AcDbEntity
  8
0
100
AcDbMText
 62
2
  6
CONTINUOUS
  7
STANDARD
 71
2
 72
1
 10
6.055
 20
-0.4065
 30
0.0
 11
1.0
 21
0.0
 31
0.0
 44
0.9
  1
T-21A
 40
0.125
 41
1.0
  0
MTEXT
  5
264
100
AcDbEntity
  8
0
100
AcDbMText
 62
2
  6
CONTINUOUS
  7
STANDARD
 71
2
 72
1
 10
1.5275
 20
-0.6565
 30
0.0
 11
1.0
 21
0.0
 31
0.0
 44
0.9
  1
Body Features
 40
0.125
 41
2.6
  0
MTEXT
  5
265
100
AcDbEntity
  8
0
100
AcDbMText
 62
2
  6
CONTINUOUS
  7
STANDARD
 71
2
 72
1
 10
6.055
 20
-0.6565
 30
0.0
 11
1.0
 21
0.0
 31
0.0
 44
0.9
  1
(See Notes)
 40
0.125
 41
2.2
  0
MTEXT
  5
266
100
AcDbEntity
  8
0
100
AcDbMText
 62
2
  6
CONTINUOUS
  7
STANDARD
 71
2
 72
1
 10
1.5275
 20
-0.9065
 30
0.0
 11
1.0
 21
0.0
 31
0.0
 44
0.9
  1
Body Type
 40
0.125
 41
1.8
  0
MTEXT
  5
267
100
AcDbEntity
  8
0
100
AcDbMText
 62
2
  6
CONTINUOUS
  7
STANDARD
 71
2
 72
1
 10
6.055
 20
-0.9065
 30
0.0
 11
1.0
 21
0.0
 31
0.0
 44
0.9
  1
Sandwich
 40
0.125
 41
1.6
  0
MTEXT
  5
268
100
AcDbEntity
  8
0
100
AcDbMText
 62
2
  6
CONTINUOUS
  7
STANDARD
 71
2
 72
1
 10
1.5275
 20
-1.1565
 30
0.0
 11
1.0
 21
0.0
 31
0.0
 44
0.9
  1
Interface
 40
0.125
 41
1.8
  0
MTEXT
  5
269
100
AcDbEntity
  8
0
100
AcDbMText
 62
2
  6
CONTINUOUS
  7
STANDARD
 71
2
 72
1
 10
6.055
 20
-1.1565
 30
0.0
 11
1.0
 21
0.0
 31
0.0
 44
0.9
  1
ISO 03
 40
0.125
 41
1.2
  0
MTEXT
  5
26A
100
AcDbEntity
  8
0
100
AcDbMText
 62
2
  6
CONTINUOUS
  7
STANDARD
 71
2
 72
1
 10
1.5275
 20
-1.4065
 30
0.0
 11
1.0
 21
0.0
 31
0.0
 44
0.9
  1
Open Cavity Quantity
 40
0.125
 41
4.0
  0
MTEXT
  5
26B
100
AcDbEntity
  8
0
100
AcDbMText
 62
2
  6
CONTINUOUS
  7
STANDARD
 71
2
 72
1
 10
6.055
 20
-1.4065
 30
0.0
 11
1.0
 21
0.0
 31
0.0
 44
0.9
  1
1
 40
0.125
 41
0.2
  0
MTEXT
  5
26C
100
AcDbEntity
  8
0
100
AcDbMText
 62
2
  6
CONTINUOUS
  7
STANDARD
 71
2
 72
1
 10
1.5275
 20
-1.6565
 30
0.0
 11
1.0
 21
0.0
 31
0.0
 44
0.9
  1
Stack Height
 40
0.125
 41
2.4
  0
MTEXT
  5
26D
100
AcDbEntity
  8
0
100
AcDbMText
 62
2
  6
CONTINUOUS
  7
STANDARD
 71
2
 72
1
 10
4.555
 20
-1.6565
 30
0.0
 11
1.0
 21
0.0
 31
0.0
 44
0.9
  1
2.49 in.
 40
0.125
 41
1.6
  0
MTEXT
  5
26E
100
AcDbEntity
  8
0
100
AcDbMText
 62
2
  6
CONTINUOUS
  7
STANDARD
 71
2
 72
1
 10
7.555
 20
-1.6565
 30
0.0
 11
1.0
 21
0.0
 31
0.0
 44
0.9
  1
63 mm
 40
0.125
 41
1.0
  0
MTEXT
  5
26F
100
AcDbEntity
  8
0
100
AcDbMText
 62
2
  6
CONTINUOUS
  7
STANDARD
 71
2
 72
1
 10
1.5275
 20
-1.9065
 30
0.0
 11
1.0
 21
0.0
 31
0.0
 44
0.9
  1
Weight
 40
0.125
 41
1.2
  0
MTEXT
  5
270
100
AcDbEntity
  8
0
100
AcDbMText
 62
2
  6
CONTINUOUS
  7
STANDARD
 71
2
 72
1
 10
4.555
 20
-1.9065
 30
0.0
 11
1.0
 21
0.0
 31
0.0
 44
0.9
  1
1.865 lb.
 40
0.125
 41
1.8
  0
MTEXT
  5
271
100
AcDbEntity
  8
0
100
AcDbMText
 62
2
  6
CONTINUOUS
  7
STANDARD
 71
2
 72
1
 10
7.555
 20
-1.9065
 30
0.0
 11
1.0
 21
0.0
 31
0.0
 44
0.9
  1
0,846 kg.
 40
0.125
 41
1.8
  0
ENDBLK
  5
272
100
AcDbEntity
  8
0
  6
BYBLOCK
 62
0
100
AcDbBlockEnd
  0
BLOCK
  5
273
100
AcDbEntity
  8
0
100
AcDbBlockBegin
  2
*T3
 70
1
 10
0.0
 20
0.0
  3
*T3
  1

  0
LINE
  5
274
100
AcDbEntity
  8
0
100
AcDbLine
 62
2
  6
CONTINUOUS
 10
0.0
 20
0.0
 11
4.6
 21
0.0
  0
LINE
  5
275
100
AcDbEntity
  8
0
100
AcDbLine
 62
2
  6
CONTINUOUS
 10
0.0
 20
0.0
 11
0.0
 21
-1.18775
  0
LINE
  5
276
100
AcDbEntity
  8
0
100
AcDbLine
 62
2
  6
CONTINUOUS
 10
0.0
 20
-0.34375
 11
4.6
 21
-0.34375
  0
LINE
  5
277
100
AcDbEntity
  8
0
100
AcDbLine
 62
2
  6
CONTINUOUS
 10
0.0
 20
-0.68775
 11
4.6
 21
-0.68775
  0
LINE
  5
278
100
AcDbEntity
  8
0
100
AcDbLine
 62
2
  6
CONTINUOUS
 10
0.0
 20
-0.93775
 11
4.6
 21
-0.93775
  0
LINE
  5
279
100
AcDbEntity
  8
0
100
AcDbLine
 62
2
  6
CONTINUOUS
 10
0.0
 20
-1.18775
 11
4.6
 21
-1.18775
  0
LINE
  5
27A
100
AcDbEntity
  8
0
100
AcDbLine
 62
2
  6
CONTINUOUS
 10
1.3
 20
-0.34375
 11
1.3
 21
-1.18775
  0
LINE
  5
27B
100
AcDbEntity
  8
0
100
AcDbLine
 62
2
  6
CONTINUOUS
 10
3.3
 20
-0.34375
 11
3.3
 21
-1.18775
  0
LINE
  5
27C
100
AcDbEntity
  8
0
100
AcDbLine
 62
2
  6
CONTINUOUS
 10
4.6
 20
0.0
 11
4.6
 21
-1.18775
  0
MTEXT
  5
27D
100
AcDbEntity
  8
0
100
AcDbMText
 62
2
  6
CONTINUOUS
  7
STANDARD
 71
2
 72
1
 10
2.3
 20
-0.099375
 30
0.0
 11
1.0
 21
0.0
 31
0.0
 44
0.9
  1
Port Headings
 40
0.145
 41
3.016
  0
MTEXT
  5
27E
100
AcDbEntity
  8
0
100
AcDbMText
 62
2
  6
CONTINUOUS
  7
STANDARD
 71
2
 72
1
 10
0.65
 20
-0.44325
 30
0.0
 11
1.0
 21
0.0
 31
0.0
 44
0.9
  1
Product
 40
0.145
 41
1.624
  0
MTEXT
  5
27F
100
AcDbEntity
  8
0
100
AcDbMText
 62
2
  6
CONTINUOUS
  7
STANDARD
 71
2
 72
1
 10
2.3
 20
-0.44325
 30
0.0
 11
1.0
 21
0.0
 31
0.0
 44
0.9
  1
Port
 40
0.145
 41
0.928
  0
MTEXT
  5
280
100
AcDbEntity
  8
0
100
AcDbMText
 62
2
  6
CONTINUOUS
  7
STANDARD
 71
2
 72
1
 10
3.95
 20
-0.44325
 30
0.0
 11
1.0
 21
0.0
 31
0.0
 44
0.9
  1
Size
 40
0.145
 41
0.928
  0
MTEXT
  5
281
100
AcDbEntity
  8
0
100
AcDbMText
 62
2
  6
CONTINUOUS
  7
STANDARD
 71
2
 72
1
 10
0.65
 20
-0.75025
 30
0.0
 11
1.0
 21
0.0
 31
0.0
 44
0.9
  1
MB3
 40
0.125
 41
0.6
  0
MTEXT
  5
282
100
AcDbEntity
  8
0
100
AcDbMText
 62
2
  6
CONTINUOUS
  7
STANDARD
 71
2
 72
1
 10
2.3
 20
-0.75025
 30
0.0
 11
1.0
 21
0.0
 31
0.0
 44
0.9
  1
Vent Port
 40
0.125
 41
1.8
  0
MTEXT
  5
283
100
AcDbEntity
  8
0
100
AcDbMText
 62
2
  6
CONTINUOUS
  7
STANDARD
 71
2
 72
1
 10
3.95
 20
-0.75025
 30
0.0
 11
1.0
 21
0.0
 31
0.0
 44
0.9
  1
SAE 6
 40
0.125
 41
1.0
  0
MTEXT
  5
284
100
AcDbEntity
  8
0
100
AcDbMText
 62
2
  6
CONTINUOUS
  7
STANDARD
 71
2
 72
1
 10
0.65
 20
-1.00025
 30
0.0
 11
1.0
 21
0.0
 31
0.0
 44
0.9
  1
MB3
 40
0.125
 41
0.6
  0
MTEXT
  5
285
100
AcDbEntity
  8
0
100
AcDbMText
 62
2
  6
CONTINUOUS
  7
STANDARD
 71
2
 72
1
 10
2.3
 20
-1.00025
 30
0.0
 11
1.0
 21
0.0
 31
0.0
 44
0.9
  1
Gage Port (Plugged)
 40
0.125
 41
3.8
  0
MTEXT
  5
286
100
AcDbEntity
  8
0
100
AcDbMText
 62
2
  6
CONTINUOUS
  7
STANDARD
 71
2
 72
1
 10
3.95
 20
-1.00025
 30
0.0
 11
1.0
 21
0.0
 31
0.0
 44
0.9
  1
1/4" NPTF
 40
0.125
 41
1.8
  0
ENDBLK
  5
287
100
AcDbEntity
  8
0
  6
BYBLOCK
 62
0
100
AcDbBlockEnd
  0
ENDSEC
  0
SECTION
  2
ENTITIES
  0
IMAGE
  5
288
100
AcDbEntity
  8
0
100
AcDbRasterImage
 62
7
  6
CONTINUOUS
 10
19.2297077316
 20
0.3094318264
 30
0.0
 11
0.0066666667
 21
0.0
 31
0.0
 12
0.0
 22
0.0066666667
 32
0.0
 13
369.0
 23
92.0
340
       351
 70
9
280
0
281
50
282
50
283
0
360
       34B
 71
1
 91
2
 14
-0.5
 24
-0.5
 14
368.5
 24
91.5
  0
INSERT
  5
289
100
AcDbEntity
  8
0
100
AcDbBlockReference
 62
2
  6
CONTINUOUS
  2
SUN_FIRST_THIRD_ANGLE_BL0
 10
20.4816717061
 20
1.2289683772
  0
ACAD_TABLE
  5
28A
100
AcDbEntity
  8
0
 62
2
  6
CONTINUOUS
100
AcDbBlockReference
  2
*T1
 10
12.42375
 20
0.30125
 30
0.0
100
AcDbTable
342
       353
343
212
 11
1.0
 21
0.0
 31
0.0
 90
6
 91
4
 92
6
 93
20
 94
0
 95
0
 96
0
 70
1
 41
0.0
141
0.525
141
0.1
141
0.525
141
0.1
142
4.1
142
1.1
142
0.7
142
0.5
142
0.4
142
2.475
171
1
172
0
173
0
174
0
175
1
176
1
 91
33
178
0
145
0.0
301
CELL_VALUE
 90
4
  1
T-21A Sandwich ISO 03\P(See Notes for Body Features)
304
ACVALUE_END
170
2
140
0.125
171
1
172
0
173
0
174
0
175
1
176
1
 91
33
178
0
145
0.0
301
CELL_VALUE
 90
4
  1
Feb-10-20
304
ACVALUE_END
170
5
140
0.125
171
1
172
0
173
0
174
0
175
1
176
1
 91
33
178
0
145
0.0
301
CELL_VALUE
 90
4
  1
2.000
304
ACVALUE_END
170
5
140
0.125
171
1
172
0
173
0
174
0
175
1
176
1
 91
33
178
0
145
0.0
301
CELL_VALUE
 90
4
  1
C
304
ACVALUE_END
170
5
140
0.125
171
1
172
0
173
0
174
0
175
1
176
1
 91
33
178
0
145
0.0
301
CELL_VALUE
 90
4
  1
2
304
ACVALUE_END
170
5
140
0.125
171
1
172
0
173
0
174
0
175
1
176
1
 91
33
178
0
145
0.0
301
CELL_VALUE
 90
4
  1
 
304
ACVALUE_END
170
1
140
0.125
171
1
172
0
173
0
174
0
175
1
176
1
 91
33
178
0
145
0.0
301
CELL_VALUE
 90
4
  1
DESCRIPTION
304
ACVALUE_END
170
1
140
0.06
171
1
172
0
173
0
174
0
175
1
176
1
 91
33
178
0
145
0.0
301
CELL_VALUE
 90
4
  1
DATE
304
ACVALUE_END
170
1
140
0.06
171
1
172
0
173
0
174
0
175
1
176
1
 91
33
178
0
145
0.0
301
CELL_VALUE
 90
4
  1
SCALE
304
ACVALUE_END
170
1
140
0.06
171
1
172
0
173
0
174
0
175
1
176
1
 91
33
178
0
145
0.0
301
CELL_VALUE
 90
4
  1
DWG SIZE
304
ACVALUE_END
170
1
140
0.06
171
1
172
0
173
0
174
0
175
1
176
1
 91
33
178
0
145
0.0
301
CELL_VALUE
 90
4
  1
SHEET
304
ACVALUE_END
170
1
140
0.06
171
1
172
0
173
0
174
0
175
1
176
1
 91
33
178
0
145
0.0
301
CELL_VALUE
 90
4
  1
 
304
ACVALUE_END
170
1
140
0.125
171
1
172
0
173
0
174
0
175
1
176
1
 91
33
178
0
145
0.0
301
CELL_VALUE
 90
4
  1
MB3
304
ACVALUE_END
170
5
140
0.125
171
1
172
0
173
0
174
0
175
4
176
1
 91
33
178
0
145
0.0
301
CELL_VALUE
 90
4
  1
ALL DIMENSIONS IN INCH\PVIEWS ARE THIRD ANGLE
304
ACVALUE_END
170
5
140
0.12
171
1
172
0
173
1
174
0
175
1
176
1
 91
1
178
0
145
0.0
170
1
171
1
172
0
173
1
174
0
175
1
176
1
 91
1
178
0
145
0.0
170
1
171
1
172
0
173
1
174
0
175
1
176
1
 91
1
178
0
145
0.0
170
5
171
1
172
0
173
0
174
0
175
1
176
1
 91
33
178
0
145
0.0
301
CELL_VALUE
 90
4
  1
 
304
ACVALUE_END
170
1
140
0.125
171
1
172
0
173
0
174
0
175
1
176
1
 91
33
178
0
145
0.0
301
CELL_VALUE
 90
4
  1
MODEL
304
ACVALUE_END
170
1
140
0.06
171
1
172
0
173
0
174
0
175
1
176
1
 91
33
178
0
145
0.0
301
CELL_VALUE
 90
4
  1
 
304
ACVALUE_END
170
1
140
0.125
171
1
172
0
173
0
174
0
175
1
176
1
 91
33
178
0
145
0.0
301
CELL_VALUE
 90
4
  1
 
304
ACVALUE_END
170
1
140
0.125
171
1
172
0
173
0
174
0
175
1
176
1
 91
33
178
0
145
0.0
301
CELL_VALUE
 90
4
  1
 
304
ACVALUE_END
170
1
140
0.125
171
1
172
0
173
0
174
0
175
1
176
1
 91
33
178
0
145
0.0
301
CELL_VALUE
 90
4
  1
 
304
ACVALUE_END
170
1
140
0.125
171
1
172
0
173
0
174
0
175
1
176
1
 91
33
178
0
145
0.0
301
CELL_VALUE
 90
4
  1
 
304
ACVALUE_END
170
1
140
0.125
  0
ACAD_TABLE
  5
28B
100
AcDbEntity
  8
0
 62
2
  6
CONTINUOUS
100
AcDbBlockReference
  2
*T2
 10
12.4237499994
 20
16.47875
 30
0.0
100
AcDbTable
342
       352
343
213
 11
1.0
 21
0.0
 31
0.0
 90
22
 91
8
 92
3
 93
16
 94
0
 95
0
 96
0
 41
0.028
141
0.344
141
0.25
141
0.25
141
0.25
141
0.25
141
0.25
141
0.25
141
0.25
142
3.055
142
3.0
142
3.0
171
1
172
0
173
0
174
0
175
1
176
1
 91
33
178
0
145
0.0
301
CELL_VALUE
 90
4
  1
Technical Data
304
ACVALUE_END
170
5
140
0.145
171
1
172
0
173
0
174
0
175
1
176
1
 91
33
178
0
145
0.0
301
CELL_VALUE
 90
4
  1
U.S. Units
304
ACVALUE_END
170
5
140
0.145
171
1
172
0
173
0
174
0
175
1
176
1
 91
33
178
0
145
0.0
301
CELL_VALUE
 90
4
  1
Metric Units
304
ACVALUE_END
170
5
140
0.145
171
1
172
0
173
0
174
0
175
1
176
1
 91
33
178
0
145
0.0
301
CELL_VALUE
 90
4
  1
Cavity
304
ACVALUE_END
170
5
140
0.125
171
1
172
0
173
0
174
0
175
2
176
1
 91
33
178
0
145
0.0
301
CELL_VALUE
 90
4
  1
T-21A
304
ACVALUE_END
170
5
140
0.125
171
1
172
0
173
1
174
0
175
1
176
1
 91
1
178
0
145
0.0
170
1
171
1
172
0
173
0
174
0
175
1
176
1
 91
33
178
0
145
0.0
301
CELL_VALUE
 90
4
  1
Body Features
304
ACVALUE_END
170
5
140
0.125
171
1
172
0
173
0
174
0
175
2
176
1
 91
33
178
0
145
0.0
301
CELL_VALUE
 90
4
  1
(See Notes)
304
ACVALUE_END
170
5
140
0.125
171
1
172
0
173
1
174
0
175
1
176
1
 91
1
178
0
145
0.0
170
1
171
1
172
0
173
0
174
0
175
1
176
1
 91
33
178
0
145
0.0
301
CELL_VALUE
 90
4
  1
Body Type
304
ACVALUE_END
170
5
140
0.125
171
1
172
0
173
0
174
0
175
2
176
1
 91
33
178
0
145
0.0
301
CELL_VALUE
 90
4
  1
Sandwich
304
ACVALUE_END
170
5
140
0.125
171
1
172
0
173
1
174
0
175
1
176
1
 91
1
178
0
145
0.0
170
1
171
1
172
0
173
0
174
0
175
1
176
1
 91
33
178
0
145
0.0
301
CELL_VALUE
 90
4
  1
Interface
304
ACVALUE_END
170
5
140
0.125
171
1
172
0
173
0
174
0
175
2
176
1
 91
33
178
0
145
0.0
301
CELL_VALUE
 90
4
  1
ISO 03
304
ACVALUE_END
170
5
140
0.125
171
1
172
0
173
1
174
0
175
1
176
1
 91
1
178
0
145
0.0
170
1
171
1
172
0
173
0
174
0
175
1
176
1
 91
33
178
0
145
0.0
301
CELL_VALUE
 90
4
  1
Open Cavity Quantity
304
ACVALUE_END
170
5
140
0.125
171
1
172
0
173
0
174
0
175
2
176
1
 91
33
178
0
145
0.0
301
CELL_VALUE
 90
4
  1
1
304
ACVALUE_END
170
5
140
0.125
171
1
172
0
173
1
174
0
175
1
176
1
 91
1
178
0
145
0.0
170
1
171
1
172
0
173
0
174
0
175
1
176
1
 91
33
178
0
145
0.0
301
CELL_VALUE
 90
4
  1
Stack Height
304
ACVALUE_END
170
5
140
0.125
171
1
172
0
173
0
174
0
175
1
176
1
 91
33
178
0
145
0.0
301
CELL_VALUE
 90
4
  1
2.49 in.
304
ACVALUE_END
170
5
140
0.125
171
1
172
0
173
0
174
0
175
1
176
1
 91
33
178
0
145
0.0
301
CELL_VALUE
 90
4
  1
63 mm
304
ACVALUE_END
170
5
140
0.125
171
1
172
0
173
0
174
0
175
1
176
1
 91
33
178
0
145
0.0
301
CELL_VALUE
 90
4
  1
Weight
304
ACVALUE_END
170
5
140
0.125
171
1
172
0
173
0
174
0
175
1
176
1
 91
33
178
0
145
0.0
301
CELL_VALUE
 90
4
  1
1.865 lb.
304
ACVALUE_END
170
5
140
0.125
171
1
172
0
173
0
174
0
175
1
176
1
 91
33
178
0
145
0.0
301
CELL_VALUE
 90
4
  1
0,846 kg.
304
ACVALUE_END
170
5
140
0.125
  0
ACAD_TABLE
  5
28C
100
AcDbEntity
  8
0
 62
2
  6
CONTINUOUS
100
AcDbBlockReference
  2
*T3
 10
0.52125
 20
1.709
 30
0.0
100
AcDbTable
342
       352
343
214
 11
1.0
 21
0.0
 31
0.0
 90
22
 91
4
 92
3
 93
16
 94
0
 95
0
 96
0
 41
0.05
141
0.34375
141
0.344
141
0.25
141
0.25
142
1.3
142
2.0
142
1.3
171
1
172
0
173
0
174
0
175
3
176
1
 91
33
178
0
145
0.0
301
CELL_VALUE
 90
4
  1
Port Headings
304
ACVALUE_END
170
5
140
0.145
171
1
172
0
173
1
174
0
175
1
176
1
 91
1
178
0
145
0.0
170
1
171
1
172
0
173
1
174
0
175
1
176
1
 91
1
178
0
145
0.0
170
1
171
1
172
0
173
0
174
0
175
1
176
1
 91
33
178
0
145
0.0
301
CELL_VALUE
 90
4
  1
Product
304
ACVALUE_END
170
5
140
0.145
171
1
172
0
173
0
174
0
175
1
176
1
 91
33
178
0
145
0.0
301
CELL_VALUE
 90
4
  1
Port
304
ACVALUE_END
170
5
140
0.145
171
1
172
0
173
0
174
0
175
1
176
1
 91
33
178
0
145
0.0
301
CELL_VALUE
 90
4
  1
Size
304
ACVALUE_END
170
5
140
0.145
171
1
172
0
173
0
174
0
175
1
176
1
 91
33
178
0
145
0.0
301
CELL_VALUE
 90
4
  1
MB3
304
ACVALUE_END
170
5
140
0.125
171
1
172
0
173
0
174
0
175
1
176
1
 91
33
178
0
145
0.0
301
CELL_VALUE
 90
4
  1
Vent Port
304
ACVALUE_END
170
5
140
0.125
171
1
172
0
173
0
174
0
175
1
176
1
 91
33
178
0
145
0.0
301
CELL_VALUE
 90
4
  1
SAE 6
304
ACVALUE_END
170
5
140
0.125
171
1
172
0
173
0
174
0
175
1
176
1
 91
33
178
0
145
0.0
301
CELL_VALUE
 90
4
  1
MB3
304
ACVALUE_END
170
5
140
0.125
171
1
172
0
173
0
174
0
175
1
176
1
 91
33
178
0
145
0.0
301
CELL_VALUE
 90
4
  1
Gage Port (Plugged)
304
ACVALUE_END
170
5
140
0.125
171
1
172
0
173
0
174
0
175
1
176
1
 91
33
178
0
145
0.0
301
CELL_VALUE
 90
4
  1
1/4" NPTF
304
ACVALUE_END
170
5
140
0.125
  0
MTEXT
  5
28D
100
AcDbEntity
  8
0
100
AcDbMText
 62
2
  6
CONTINUOUS
  7
STANDARD
 71
1
 72
1
 10
0.52125
 20
5.75995
 30
0.0
 11
1.0
 21
0.0
 31
0.0
 44
0.6
  3
Notes\P \P1. This manifold has been designed\P   with provisions to internally\P   increase pilot flow to the "V"\P   port. To do so, remove 340-001 plug\P   and install 280-038-*** orifice.\P2. Stack height value in technical\P   data table includes
  3
 seal retainer\P   plate.\P3. Important: Carefully consider\P   the maximum system pressure. The\P   pressure rating of the manifold is\P   dependent on the manifold material,\P   with the port type/size a secondary\P   consideration. Manifolds\P   c
  3
onstructed of aluminum are not\P   rated for pressures higher than\P   3000 psi (210 bar), regardless of\P   the port type/size specified.\P4. Items without balloons are\P   shipped loose.\P5. Body Features: Reducer/reliever\P   on B with reverse flo
  1
w check and\P   port 4 external.
 40
0.1
 41
3.04
  0
LINE
  5
28E
100
AcDbEntity
  8
0
100
AcDbLine
 62
7
  6
CONTINUOUS
 10
0.30125
 20
0.30125
 11
0.30125
 21
16.69875
  0
LINE
  5
28F
100
AcDbEntity
  8
0
100
AcDbLine
 62
7
  6
CONTINUOUS
 10
0.30125
 20
0.30125
 11
21.69875
 21
0.30125
  0
LINE
  5
290
100
AcDbEntity
  8
0
100
AcDbLine
 62
7
  6
CONTINUOUS
 10
0.30125
 20
16.69875
 11
21.69875
 21
16.69875
  0
LINE
  5
291
100
AcDbEntity
  8
0
100
AcDbLine
 62
7
  6
CONTINUOUS
 10
21.69875
 20
0.30125
 11
21.69875
 21
16.69875
  0
LINE
  5
292
100
AcDbEntity
  8
0
100
AcDbLine
 62
7
  6
CONTINUOUS
 10
8.2131763276
 20
5.7705616189
 11
8.1693356904
 21
5.7902148127
  0
LINE
  5
293
100
AcDbEntity
  8
0
100
AcDbLine
 62
7
  6
CONTINUOUS
 10
10.5841503992
 20
4.8983024312
 11
8.8937801031
 21
5.0155300094
  0
LINE
  5
294
100
AcDbEntity
  8
0
100
AcDbLine
 62
7
  6
CONTINUOUS
 10
10.5681036317
 20
4.9426898479
 11
8.8777333355
 21
5.059917426
  0
LINE
  5
295
100
AcDbEntity
  8
0
100
AcDbLine
 62
7
  6
CONTINUOUS
 10
8.8777333355
 20
5.059917426
 11
8.8937801031
 21
5.0155300094
  0
LINE
  5
296
100
AcDbEntity
  8
0
100
AcDbLine
 62
7
  6
CONTINUOUS
 10
8.1693356904
 20
5.7902148127
 11
8.1693356904
 21
8.9893613389
  0
LINE
  5
297
100
AcDbEntity
  8
0
100
AcDbLine
 62
7
  6
CONTINUOUS
 10
8.2131763276
 20
5.7705616189
 11
8.2131763276
 21
8.9697081452
  0
LINE
  5
298
100
AcDbEntity
  8
0
100
AcDbLine
 62
7
  6
CONTINUOUS
 10
10.134744191
 20
11.7691542872
 11
8.9695417257
 21
10.6436550664
  0
LINE
  5
299
100
AcDbEntity
  8
0
100
AcDbLine
 62
7
  6
CONTINUOUS
 10
11.2326606395
 20
5.5611596707
 11
11.3085948119
 21
5.5725064532
  0
LINE
  5
29A
100
AcDbEntity
  8
0
100
AcDbLine
 62
7
  6
CONTINUOUS
 10
10.7013638221
 20
11.7298590824
 11
10.8947896419
 21
11.9166940882
  0
LINE
  5
29B
100
AcDbEntity
  8
0
100
AcDbLine
 62
7
  6
CONTINUOUS
 10
9.2946328407
 20
10.3690612163
 11
8.3727201441
 21
9.4785618803
  0
LINE
  5
29C
100
AcDbEntity
  8
0
100
AcDbLine
 62
7
  6
CONTINUOUS
 10
12.350282318
 20
5.699345372
 11
11.7836626869
 21
5.7386405769
  0
LINE
  5
29D
100
AcDbEntity
  8
0
100
AcDbLine
 62
7
  6
CONTINUOUS
 10
8.8777333355
 20
9.588177968
 11
8.8937801031
 21
9.6635653609
  0
LINE
  5
29E
100
AcDbEntity
  8
0
100
AcDbLine
 62
7
  6
CONTINUOUS
 10
11.4158496008
 20
12.1016975688
 11
11.0088197894
 21
11.7085369386
  0
LINE
  5
29F
100
AcDbEntity
  8
0
100
AcDbLine
 62
7
  6
CONTINUOUS
 10
8.8937801031
 20
9.6635653609
 11
9.8156927996
 21
10.5540646969
  0
LINE
  5
2A0
100
AcDbEntity
  8
0
100
AcDbLine
 62
7
  6
CONTINUOUS
 10
8.9695417257
 20
10.0550472938
 11
8.9695417257
 21
10.6436550664
  0
LINE
  5
2A1
100
AcDbEntity
  8
0
100
AcDbLine
 62
7
  6
CONTINUOUS
 10
9.4519853966
 20
8.1016793059
 11
9.4520490163
 21
8.1010754921
  0
LINE
  5
2A2
100
AcDbEntity
  8
0
100
AcDbLine
 62
7
  6
CONTINUOUS
 10
9.4500102594
 20
8.8105266067
 11
9.3945189813
 21
8.7182612268
  0
LINE
  5
2A3
100
AcDbEntity
  8
0
100
AcDbLine
 62
7
  6
CONTINUOUS
 10
10.5681036317
 20
4.9426898479
 11
10.5841503992
 21
4.8983024312
  0
LINE
  5
2A4
100
AcDbEntity
  8
0
100
AcDbLine
 62
7
  6
CONTINUOUS
 10
9.464559762
 20
8.802257159
 11
9.4411063709
 21
8.7632611923
  0
LINE
  5
2A5
100
AcDbEntity
  8
0
100
AcDbLine
 62
7
  6
CONTINUOUS
 10
9.3945189813
 20
8.7182612268
 11
9.4411063709
 21
8.7632611923
  0
LINE
  5
2A6
100
AcDbEntity
  8
0
100
AcDbLine
 62
7
  6
CONTINUOUS
 10
9.3945189813
 20
8.7182612268
 11
9.481516682
 21
8.5615434779
  0
LINE
  5
2A7
100
AcDbEntity
  8
0
100
AcDbLine
 62
7
  6
CONTINUOUS
 10
9.4411063709
 20
8.7632611923
 11
9.5281040717
 21
8.6065434434
  0
LINE
  5
2A8
100
AcDbEntity
  8
0
100
AcDbLine
 62
4
  6
CONTINUOUS
 10
9.9827525206
 20
8.9493756138
 11
10.0551969603
 21
9.1761737817
  0
LINE
  5
2A9
100
AcDbEntity
  8
0
100
AcDbLine
 62
7
  6
CONTINUOUS
 10
9.6555120835
 20
8.5494768558
 11
9.672295777
 21
8.5773831125
  0
LINE
  5
2AA
100
AcDbEntity
  8
0
100
AcDbLine
 62
7
  6
CONTINUOUS
 10
9.481516682
 20
8.5615434779
 11
9.5281040717
 21
8.6065434434
  0
LINE
  5
2AB
100
AcDbEntity
  8
0
100
AcDbLine
 62
7
  6
CONTINUOUS
 10
13.1062198969
 20
11.9844699906
 11
12.6991900856
 21
11.5913093604
  0
LINE
  5
2AC
100
AcDbEntity
  8
0
100
AcDbLine
 62
7
  6
CONTINUOUS
 10
10.5841503992
 20
9.5463377827
 11
11.5060630958
 21
10.4368371187
  0
LINE
  5
2AD
100
AcDbEntity
  8
0
100
AcDbLine
 62
7
  6
CONTINUOUS
 10
10.5681036317
 20
9.4709503898
 11
10.5841503992
 21
9.5463377827
  0
LINE
  5
2AE
100
AcDbEntity
  8
0
100
AcDbLine
 62
7
  6
CONTINUOUS
 10
8.2131763276
 20
8.9697081452
 11
8.1693356904
 21
8.9893613389
  0
LINE
  5
2AF
100
AcDbEntity
  8
0
100
AcDbLine
 62
4
  6
CONTINUOUS
 10
9.910308081
 20
9.1862218596
 11
9.9827525206
 21
8.9493756138
  0
LINE
  5
2B0
100
AcDbEntity
  8
0
100
AcDbLine
 62
7
  6
CONTINUOUS
 10
12.350282318
 20
10.40919991
 11
13.5154847833
 21
11.5346991308
  0
LINE
  5
2B1
100
AcDbEntity
  8
0
100
AcDbLine
 62
7
  6
CONTINUOUS
 10
13.8306643096
 20
11.2097851873
 11
13.5154847833
 21
10.9053451249
  0
LINE
  5
2B2
100
AcDbEntity
  8
0
100
AcDbLine
 62
7
  6
CONTINUOUS
 10
11.3085948119
 20
8.7716529794
 11
12.2305075084
 21
9.6621523154
  0
LINE
  5
2B3
100
AcDbEntity
  8
0
100
AcDbLine
 62
7
  6
CONTINUOUS
 10
9.481516682
 20
8.5615434779
 11
9.6555120835
 21
8.5494768558
  0
LINE
  5
2B4
100
AcDbEntity
  8
0
100
AcDbLine
 62
7
  6
CONTINUOUS
 10
9.5281040717
 20
8.6065434434
 11
9.6616892287
 21
8.5972792813
  0
LINE
  5
2B5
100
AcDbEntity
  8
0
100
AcDbLine
 62
7
  6
CONTINUOUS
 10
11.2326606395
 20
8.7603061969
 11
11.2326606395
 21
5.5611596707
  0
LINE
  5
2B6
100
AcDbEntity
  8
0
100
AcDbLine
 62
7
  6
CONTINUOUS
 10
11.3085948119
 20
8.7716529794
 11
11.3085948119
 21
5.5725064532
  0
LINE
  5
2B7
100
AcDbEntity
  8
0
100
AcDbLine
 62
7
  6
CONTINUOUS
 10
11.2326606395
 20
8.7603061969
 11
11.3085948119
 21
8.7716529794
  0
LINE
  5
2B8
100
AcDbEntity
  8
0
100
AcDbLine
 62
7
  6
CONTINUOUS
 10
8.8777333355
 20
9.588177968
 11
10.5681036317
 21
9.4709503898
  0
LINE
  5
2B9
100
AcDbEntity
  8
0
100
AcDbLine
 62
7
  6
CONTINUOUS
 10
12.2305075084
 20
9.6621523154
 11
12.2305075084
 21
6.4630057892
  0
LINE
  5
2BA
100
AcDbEntity
  8
0
100
AcDbLine
 62
7
  6
CONTINUOUS
 10
8.8937801031
 20
9.6635653609
 11
10.5841503992
 21
9.5463377827
  0
LINE
  5
2BB
100
AcDbEntity
  8
0
100
AcDbLine
 62
7
  6
CONTINUOUS
 10
12.350282318
 20
5.699345372
 11
12.350282318
 21
10.40919991
  0
LINE
  5
2BC
100
AcDbEntity
  8
0
100
AcDbLine
 62
7
  6
CONTINUOUS
 10
9.8156927996
 20
10.5540646969
 11
11.5060630958
 21
10.4368371187
  0
LINE
  5
2BD
100
AcDbEntity
  8
0
100
AcDbLine
 62
7
  6
CONTINUOUS
 10
12.350282318
 20
10.40919991
 11
8.9695417257
 21
10.6436550664
  0
LINE
  5
2BE
100
AcDbEntity
  8
0
100
AcDbLine
 62
7
  6
CONTINUOUS
 10
13.8306643096
 20
8.0106386611
 11
13.5154847833
 21
7.7061985987
  0
LINE
  5
2BF
100
AcDbEntity
  8
0
100
AcDbLine
 62
7
  6
CONTINUOUS
 10
11.3085948119
 20
5.5725064532
 11
12.2305075084
 21
6.4630057892
  0
LINE
  5
2C0
100
AcDbEntity
  8
0
100
AcDbLine
 62
7
  6
CONTINUOUS
 10
13.5154847833
 20
6.8248445928
 11
13.5154847833
 21
11.5346991308
  0
LINE
  5
2C1
100
AcDbEntity
  8
0
100
AcDbLine
 62
7
  6
CONTINUOUS
 10
13.5154847833
 20
7.4134523654
 11
13.6272798559
 21
7.5214381197
  0
LINE
  5
2C2
100
AcDbEntity
  8
0
100
AcDbLine
 62
7
  6
CONTINUOUS
 10
12.0271230547
 20
5.9738052477
 11
11.1052103581
 21
5.0833059118
  0
LINE
  5
2C3
100
AcDbEntity
  8
0
100
AcDbLine
 62
7
  6
CONTINUOUS
 10
13.8306643096
 20
8.0106386611
 11
13.8306643096
 21
11.2097851873
  0
LINE
  5
2C4
100
AcDbEntity
  8
0
100
AcDbLine
 62
7
  6
CONTINUOUS
 10
12.350282318
 20
5.699345372
 11
13.5154847833
 21
6.8248445928
  0
LINE
  5
2C5
100
AcDbEntity
  8
0
100
AcDbLine
 62
7
  6
CONTINUOUS
 10
13.5154847833
 20
11.5346991308
 11
10.134744191
 21
11.7691542872
  0
LINE
  5
2C6
100
AcDbEntity
  8
0
100
AcDbLine
 62
7
  6
CONTINUOUS
 10
13.1062198969
 20
11.9844699906
 11
11.4158496008
 21
12.1016975688
  0
ARC
  5
2C7
100
AcDbEntity
  8
0
100
AcDbCircle
 62
7
  6
CONTINUOUS
 10
11.2447483035
 20
8.5905781456
 40
1.827163759
100
AcDbArc
 50
193.7446171785
 51
194.6378797035
  0
ARC
  5
2C8
100
AcDbEntity
  8
0
100
AcDbCircle
 62
7
  6
CONTINUOUS
 10
9.0920047076
 20
8.391516951
 40
0.7052798487
100
AcDbArc
 50
134.8067633542
 51
135.8778734966
  0
ARC
  5
2C9
100
AcDbEntity
  8
0
100
AcDbCircle
 62
7
  6
CONTINUOUS
 10
9.2376179806
 20
8.2407642418
 40
0.7051262429
100
AcDbArc
 50
312.1374009866
 51
312.9143445936
  0
SPLINE
  5
2CA
100
AcDbEntity
  8
02___PRT_ALL_AXES
100
AcDbSpline
 62
7
  6
CONTINUOUS
 70
0
 71
3
 72
33
 73
29
 74
0
 42
0.0000001
 43
0.0000001
 44
0.0000000001
 40
0.0
 40
0.0
 40
0.0
 40
0.0
 40
0.0614042141
 40
0.0922630482
 40
0.1232170961
 40
0.1542626893
 40
0.1853950449
 40
0.2166088549
 40
0.2478982858
 40
0.3106599507
 40
0.3421334057
 40
0.3736524002
 40
0.4052081416
 40
0.4367918061
 40
0.4683943298
 40
0.500006238
 40
0.5632048767
 40
0.6263286098
 40
0.6578475522
 40
0.6893212699
 40
0.7207415607
 40
0.7521006985
 40
0.7833908711
 40
0.8146043518
 40
0.8767616078
 40
0.9077177769
 40
0.9385854147
 40
1.0
 40
1.0
 40
1.0
 40
1.0
 10
9.643497239
 20
8.6279974395
 30
0.0
 10
9.6386640114
 20
8.6283344684
 30
0.0
 10
9.6314201437
 20
8.6291900875
 30
0.0
 10
9.6218670536
 20
8.6310079067
 30
0.0
 10
9.6147386677
 20
8.6327140048
 30
0.0
 10
9.6076769978
 20
8.6347558924
 30
0.0
 10
9.6006977617
 20
8.6371283678
 30
0.0
 10
9.5938171012
 20
8.6398268111
 30
0.0
 10
9.5847882729
 20
8.6438542107
 30
0.0
 10
9.576025297
 20
8.6485048187
 30
0.0
 10
9.5675943423
 20
8.6537413922
 30
0.0
 10
9.5614384864
 20
8.6579602597
 30
0.0
 10
9.5554715546
 20
8.6624564681
 30
0.0
 10
9.5497076025
 20
8.6672204804
 30
0.0
 10
9.5441593789
 20
8.6722408407
 30
0.0
 10
9.53706785
 20
8.6792589149
 30
0.0
 10
9.5288073952
 20
8.6886127895
 30
0.0
 10
9.5214204139
 20
8.6986617743
 30
0.0
 10
9.5160797561
 20
8.7070614574
 30
0.0
 10
9.5123684226
 20
8.7135236097
 30
0.0
 10
9.5089587893
 20
8.7201356189
 30
0.0
 10
9.5058593391
 20
8.7268826355
 30
0.0
 10
9.5030763018
 20
8.733748836
 30
0.0
 10
9.4998010388
 20
8.7430263319
 30
0.0
 10
9.4971767137
 20
8.7524958438
 30
0.0
 10
9.495227978
 20
8.762085294
 30
0.0
 10
9.4937399013
 20
8.7716972083
 30
0.0
 10
9.4931347157
 20
8.7789677014
 30
0.0
 10
9.49296402
 20
8.7838104765
 30
0.0
  0
SPLINE
  5
2CB
100
AcDbEntity
  8
02___PRT_ALL_AXES
100
AcDbSpline
 62
7
  6
CONTINUOUS
 70
0
 71
3
 72
44
 73
40
 74
0
 42
0.0000001
 43
0.0000001
 44
0.0000000001
 40
0.0
 40
0.0
 40
0.0
 40
0.0
 40
0.0299344457
 40
0.0599383845
 40
0.0900294473
 40
0.1051151995
 40
0.1202285783
 40
0.1505396768
 40
0.1809792014
 40
0.2115559735
 40
0.2422762393
 40
0.2576936673
 40
0.2731479576
 40
0.3041625356
 40
0.3353223781
 40
0.3666225425
 40
0.3980556035
 40
0.4296115753
 40
0.4454341473
 40
0.4612827226
 40
0.4930463311
 40
0.5248910388
 40
0.5408404929
 40
0.5568036736
 40
0.5887577729
 40
0.6207382557
 40
0.6527257763
 40
0.6847005506
 40
0.7166432781
 40
0.7485348436
 40
0.7803574261
 40
0.8120945715
 40
0.8437308632
 40
0.8752511276
 40
0.9066441378
 40
0.9379068319
 40
0.9534904998
 40
0.9690371895
 40
1.0
 40
1.0
 40
1.0
 40
1.0
 10
9.6939628579
 20
8.5271691175
 30
0.0
 10
9.6900467824
 20
8.5245563844
 30
0.0
 10
9.6820098409
 20
8.5196114629
 30
0.0
 10
9.6694290632
 20
8.5130907769
 30
0.0
 10
9.6585534234
 20
8.5084235929
 30
0.0
 10
9.6496483272
 20
8.5051628076
 30
0.0
 10
9.640598499
 20
8.5022145585
 30
0.0
 10
9.6290611111
 20
8.499132773
 30
0.0
 10
9.6149441578
 20
8.4964238733
 30
0.0
 10
9.600607507
 20
8.494710086
 30
0.0
 10
9.588546757
 20
8.4941206823
 30
0.0
 10
9.578858864
 20
8.4941508355
 30
0.0
 10
9.5691314831
 20
8.4945167806
 30
0.0
 10
9.5569614645
 20
8.4956063169
 30
0.0
 10
9.5424318092
 20
8.497910903
 30
0.0
 10
9.5280262909
 20
8.5012051749
 30
0.0
 10
9.5138137354
 20
8.5054716603
 30
0.0
 10
9.5021959662
 20
8.5098179872
 30
0.0
 10
9.4930646616
 20
8.5137577355
 30
0.0
 10
9.4840376956
 20
8.5180083697
 30
0.0
 10
9.4729992467
 20
8.5238849595
 30
0.0
 10
9.462352648
 20
8.5304747359
 30
0.0
 10
9.4540913896
 20
8.5361597776
 30
0.0
 10
9.4460045992
 20
8.5421193654
 30
0.0
 10
9.4362543755
 20
8.55006002
 30
0.0
 10
9.4251869852
 20
8.5603257014
 30
0.0
 10
9.4147997917
 20
8.571284004
 30
0.0
 10
9.4051418114
 20
8.582882305
 30
0.0
 10
9.3962595936
 20
8.5950662857
 30
0.0
 10
9.3881941876
 20
8.6077774144
 30
0.0
 10
9.3809851648
 20
8.620956302
 30
0.0
 10
9.3746653124
 20
8.6345397885
 30
0.0
 10
9.3692665343
 20
8.6484640311
 30
0.0
 10
9.3648121572
 20
8.6626619997
 30
0.0
 10
9.361325534
 20
8.6770674451
 30
0.0
 10
9.359236433
 20
8.6892034014
 30
0.0
 10
9.3580656082
 20
8.6989473003
 30
0.0
 10
9.3572300731
 20
8.7086779184
 30
0.0
 10
9.3569766143
 20
8.7159954169
 30
0.0
 10
9.3569766143
 20
8.7208647988
 30
0.0
  0
SPLINE
  5
2CC
100
AcDbEntity
  8
02___PRT_ALL_AXES
100
AcDbSpline
 62
7
  6
CONTINUOUS
 70
0
 71
3
 72
18
 73
14
 74
0
 42
0.0000001
 43
0.0000001
 44
0.0000000001
 40
0.0
 40
0.0
 40
0.0
 40
0.0
 40
0.0616648903
 40
0.1233979985
 40
0.1852110198
 40
0.2471150139
 40
0.3091207353
 40
0.3712379724
 40
0.4958140112
 40
0.6209259228
 40
0.746646736
 40
0.8730287338
 40
1.0
 40
1.0
 40
1.0
 40
1.0
 10
9.3939880338
 20
8.8378335456
 30
0.0
 10
9.3924918427
 20
8.8357529257
 30
0.0
 10
9.3895809426
 20
8.8315288683
 30
0.0
 10
9.3854694438
 20
8.8250194925
 30
0.0
 10
9.3816155828
 20
8.8183427319
 30
0.0
 10
9.3780248123
 20
8.8115081537
 30
0.0
 10
9.3747025556
 20
8.8045249563
 30
0.0
 10
9.3706339987
 20
8.795021365
 30
0.0
 10
9.366240883
 20
8.7828150292
 30
0.0
 10
9.3621159926
 20
8.7677527657
 30
0.0
 10
9.359153084
 20
8.7523425537
 30
0.0
 10
9.3573719455
 20
8.7366750473
 30
0.0
 10
9.3569766143
 20
8.726141588
 30
0.0
 10
9.3569766143
 20
8.7208647988
 30
0.0
  0
SPLINE
  5
2CD
100
AcDbEntity
  8
0
100
AcDbSpline
 62
7
  6
CONTINUOUS
 70
0
 71
3
 72
11
 73
7
 74
0
 42
0.0000001
 43
0.0000001
 44
0.0000000001
 40
0.0
 40
0.0
 40
0.0
 40
0.0
 40
0.2470231567
 40
0.4961966925
 40
0.7473033472
 40
1.0
 40
1.0
 40
1.0
 40
1.0
 10
9.4644173346
 20
8.7616445715
 30
0.0
 10
9.4644173346
 20
8.7550446683
 30
0.0
 10
9.4652905822
 20
8.7417721293
 30
0.0
 10
9.469155987
 20
8.7221305956
 30
0.0
 10
9.4755128125
 20
8.7029895931
 30
0.0
 10
9.481328359
 20
8.6908052611
 30
0.0
 10
9.4846052213
 20
8.6849023179
 30
0.0
  0
SPLINE
  5
2CE
100
AcDbEntity
  8
0
100
AcDbSpline
 62
7
  6
CONTINUOUS
 70
0
 71
3
 72
11
 73
7
 74
0
 42
0.0000001
 43
0.0000001
 44
0.0000000001
 40
0.0
 40
0.0
 40
0.0
 40
0.0
 40
0.2483950388
 40
0.4978604599
 40
0.748437358
 40
1.0
 40
1.0
 40
1.0
 40
1.0
 10
9.4692748821
 20
8.7992592074
 30
0.0
 10
9.4684682778
 20
8.7962157391
 30
0.0
 10
9.4670525164
 20
8.7900604745
 30
0.0
 10
9.4655328556
 20
8.7806895924
 30
0.0
 10
9.4646199574
 20
8.7712000233
 30
0.0
 10
9.4644173346
 20
8.7648332635
 30
0.0
 10
9.4644173346
 20
8.7616445715
 30
0.0
  0
SPLINE
  5
2CF
100
AcDbEntity
  8
0
100
AcDbSpline
 62
7
  6
CONTINUOUS
 70
0
 71
3
 72
23
 73
19
 74
0
 42
0.0000001
 43
0.0000001
 44
0.0000000001
 40
0.0
 40
0.0
 40
0.0
 40
0.0
 40
0.062789468
 40
0.1257292392
 40
0.1887410583
 40
0.2517832392
 40
0.314833225
 40
0.3778618922
 40
0.4408312783
 40
0.503705731
 40
0.5664543315
 40
0.6290478621
 40
0.6914568728
 40
0.753653057
 40
0.8156206121
 40
0.8773537379
 40
0.9388313152
 40
1.0
 40
1.0
 40
1.0
 40
1.0
 10
9.4846052213
 20
8.6849023179
 30
0.0
 10
9.4862498187
 20
8.6819397384
 30
0.0
 10
9.4897275424
 20
8.6761078904
 30
0.0
 10
9.4954734369
 20
8.667690558
 30
0.0
 10
9.5017326898
 20
8.6596298472
 30
0.0
 10
9.5084764934
 20
8.6519621886
 30
0.0
 10
9.5156763067
 20
8.6447196867
 30
0.0
 10
9.5233018411
 20
8.6379328077
 30
0.0
 10
9.5313199763
 20
8.6316298289
 30
0.0
 10
9.5396973679
 20
8.6258393436
 30
0.0
 10
9.5483971166
 20
8.6205845491
 30
0.0
 10
9.5573830445
 20
8.6158895755
 30
0.0
 10
9.5666156366
 20
8.6117730214
 30
0.0
 10
9.5760558931
 20
8.6082532992
 30
0.0
 10
9.5856640895
 20
8.6053452929
 30
0.0
 10
9.5953998766
 20
8.6030615031
 30
0.0
 10
9.60521899
 20
8.6014127975
 30
0.0
 10
9.6118087001
 20
8.6007385077
 30
0.0
 10
9.6151017724
 20
8.6005101324
 30
0.0
  0
SPLINE
  5
2D0
100
AcDbEntity
  8
0
100
AcDbSpline
 62
7
  6
CONTINUOUS
 70
0
 71
3
 72
11
 73
7
 74
0
 42
0.0000001
 43
0.0000001
 44
0.0000000001
 40
0.0
 40
0.0
 40
0.0
 40
0.0
 40
0.2517773111
 40
0.5024466954
 40
0.7518344732
 40
1.0
 40
1.0
 40
1.0
 40
1.0
 10
9.6151017724
 20
8.6005101324
 30
0.0
 10
9.6187274881
 20
8.6002586882
 30
0.0
 10
9.625983784
 20
8.6000176257
 30
0.0
 10
9.6368374934
 20
8.6004453384
 30
0.0
 10
9.6475786647
 20
8.6016644364
 30
0.0
 10
9.6546430773
 20
8.603002799
 30
0.0
 10
9.6581352367
 20
8.6038013019
 30
0.0
  0
SPLINE
  5
2D1
100
AcDbEntity
  8
0
100
AcDbSpline
 62
7
  6
CONTINUOUS
 70
0
 71
3
 72
37
 73
33
 74
0
 42
0.0000001
 43
0.0000001
 44
0.0000000001
 40
0.0
 40
0.0
 40
0.0
 40
0.0
 40
0.0958321372
 40
0.1891019121
 40
0.2792425465
 40
0.3657115305
 40
0.4074101378
 40
0.4480031117
 40
0.4874331589
 40
0.5256456456
 40
0.5625894675
 40
0.5982165282
 40
0.6324830688
 40
0.665348975
 40
0.6967793974
 40
0.7267441687
 40
0.7552196034
 40
0.7821883904
 40
0.8076415214
 40
0.8315791003
 40
0.8540125631
 40
0.8749669375
 40
0.894483817
 40
0.9126256757
 40
0.9294802133
 40
0.9451667887
 40
0.9598415117
 40
0.9737025915
 40
0.9804060739
 40
0.98699956
 40
0.9935185817
 40
1.0
 40
1.0
 40
1.0
 40
1.0
 10
9.5461970825
 20
10.7006614014
 30
0.0
 10
9.5384874881
 20
10.7011960636
 30
0.0
 10
9.5232855625
 20
10.7024206573
 30
0.0
 10
9.500886334
 20
10.7047582262
 30
0.0
 10
9.4793013214
 20
10.7075595539
 30
0.0
 10
9.4619078866
 20
10.7102965483
 30
0.0
 10
9.4485146149
 20
10.7127139142
 30
0.0
 10
9.4388828297
 20
10.714608397
 30
0.0
 10
9.4295585526
 20
10.7166029831
 30
0.0
 10
9.4205573307
 20
10.7186944089
 30
0.0
 10
9.4118941768
 20
10.7208790684
 30
0.0
 10
9.4035835329
 20
10.7231533873
 30
0.0
 10
9.3956392261
 20
10.7255134319
 30
0.0
 10
9.3880744752
 20
10.7279553555
 30
0.0
 10
9.3809018161
 20
10.7304749406
 30
0.0
 10
9.3741331385
 20
10.7330680854
 30
0.0
 10
9.3677795857
 20
10.7357303557
 30
0.0
 10
9.36185161
 20
10.7384574261
 30
0.0
 10
9.3563588656
 20
10.7412447401
 30
0.0
 10
9.3513102576
 20
10.7440878231
 30
0.0
 10
9.3467138767
 20
10.7469821471
 30
0.0
 10
9.3425770027
 20
10.7499232576
 30
0.0
 10
9.3389061872
 20
10.7529069154
 30
0.0
 10
9.3357071896
 20
10.7559290222
 30
0.0
 10
9.3329854269
 20
10.7589859468
 30
0.0
 10
9.3307458513
 20
10.7620743808
 30
0.0
 10
9.3289940766
 20
10.7651905962
 30
0.0
 10
9.3279336674
 20
10.767837966
 30
0.0
 10
9.3273470405
 20
10.7699498413
 30
0.0
 10
9.3270358733
 20
10.7715189075
 30
0.0
 10
9.3268490531
 20
10.7730894501
 30
0.0
 10
9.3268074639
 20
10.7741383034
 30
0.0
 10
9.3268074591
 20
10.7746609791
 30
0.0
  0
SPLINE
  5
2D2
100
AcDbEntity
  8
0
100
AcDbSpline
 62
7
  6
CONTINUOUS
 70
0
 71
3
 72
37
 73
33
 74
0
 42
0.0000001
 43
0.0000001
 44
0.0000000001
 40
0.0
 40
0.0
 40
0.0
 40
0.0
 40
0.0958321372
 40
0.1891019121
 40
0.2792425465
 40
0.3657115305
 40
0.4074101378
 40
0.4480031117
 40
0.4874331589
 40
0.5256456456
 40
0.5625894675
 40
0.5982165282
 40
0.6324830688
 40
0.665348975
 40
0.6967793974
 40
0.7267441687
 40
0.7552196034
 40
0.7821883904
 40
0.8076415214
 40
0.8315791003
 40
0.8540125631
 40
0.8749669375
 40
0.894483817
 40
0.9126256757
 40
0.9294802133
 40
0.9451667887
 40
0.9598415117
 40
0.9737025915
 40
0.9804060739
 40
0.98699956
 40
0.9935185817
 40
1.0
 40
1.0
 40
1.0
 40
1.0
 10
10.3707938461
 20
11.4971607589
 30
0.0
 10
10.3630842517
 20
11.497695421
 30
0.0
 10
10.3478823261
 20
11.4989200147
 30
0.0
 10
10.3254830976
 20
11.5012575837
 30
0.0
 10
10.303898085
 20
11.5040589113
 30
0.0
 10
10.2865046502
 20
11.5067959057
 30
0.0
 10
10.2731113785
 20
11.5092132717
 30
0.0
 10
10.2634795933
 20
11.5111077545
 30
0.0
 10
10.2541553162
 20
11.5131023406
 30
0.0
 10
10.2451540943
 20
11.5151937664
 30
0.0
 10
10.2364909404
 20
11.5173784258
 30
0.0
 10
10.2281802965
 20
11.5196527447
 30
0.0
 10
10.2202359897
 20
11.5220127893
 30
0.0
 10
10.2126712388
 20
11.524454713
 30
0.0
 10
10.2054985797
 20
11.526974298
 30
0.0
 10
10.1987299021
 20
11.5295674428
 30
0.0
 10
10.1923763493
 20
11.5322297131
 30
0.0
 10
10.1864483736
 20
11.5349567836
 30
0.0
 10
10.1809556292
 20
11.5377440976
 30
0.0
 10
10.1759070213
 20
11.5405871805
 30
0.0
 10
10.1713106403
 20
11.5434815046
 30
0.0
 10
10.1671737663
 20
11.546422615
 30
0.0
 10
10.1635029508
 20
11.5494062728
 30
0.0
 10
10.1603039532
 20
11.5524283796
 30
0.0
 10
10.1575821905
 20
11.5554853043
 30
0.0
 10
10.155342615
 20
11.5585737383
 30
0.0
 10
10.1535908402
 20
11.5616899537
 30
0.0
 10
10.152530431
 20
11.5643373234
 30
0.0
 10
10.1519438041
 20
11.5664491987
 30
0.0
 10
10.1516326369
 20
11.5680182649
 30
0.0
 10
10.1514458167
 20
11.5695888076
 30
0.0
 10
10.1514042275
 20
11.5706376609
 30
0.0
 10
10.1514042227
 20
11.5711603365
 30
0.0
  0
SPLINE
  5
2D3
100
AcDbEntity
  8
0
100
AcDbSpline
 62
7
  6
CONTINUOUS
 70
0
 71
3
 72
37
 73
33
 74
0
 42
0.0000001
 43
0.0000001
 44
0.0000000001
 40
0.0
 40
0.0
 40
0.0
 40
0.0
 40
0.0958321372
 40
0.1891019121
 40
0.2792425465
 40
0.3657115305
 40
0.4074101378
 40
0.4480031117
 40
0.4874331589
 40
0.5256456456
 40
0.5625894675
 40
0.5982165282
 40
0.6324830688
 40
0.665348975
 40
0.6967793974
 40
0.7267441687
 40
0.7552196034
 40
0.7821883904
 40
0.8076415214
 40
0.8315791003
 40
0.8540125631
 40
0.8749669375
 40
0.894483817
 40
0.9126256757
 40
0.9294802133
 40
0.9451667887
 40
0.9598415117
 40
0.9737025915
 40
0.9804060739
 40
0.98699956
 40
0.9935185817
 40
1.0
 40
1.0
 40
1.0
 40
1.0
 10
11.9610117913
 20
10.5331934326
 30
0.0
 10
11.9533021969
 20
10.5337280948
 30
0.0
 10
11.9381002713
 20
10.5349526884
 30
0.0
 10
11.9157010428
 20
10.5372902574
 30
0.0
 10
11.8941160302
 20
10.540091585
 30
0.0
 10
11.8767225954
 20
10.5428285794
 30
0.0
 10
11.8633293237
 20
10.5452459454
 30
0.0
 10
11.8536975385
 20
10.5471404282
 30
0.0
 10
11.8443732614
 20
10.5491350143
 30
0.0
 10
11.8353720395
 20
10.5512264401
 30
0.0
 10
11.8267088856
 20
10.5534110995
 30
0.0
 10
11.8183982417
 20
10.5556854184
 30
0.0
 10
11.8104539349
 20
10.558045463
 30
0.0
 10
11.802889184
 20
10.5604873867
 30
0.0
 10
11.7957165249
 20
10.5630069717
 30
0.0
 10
11.7889478473
 20
10.5656001165
 30
0.0
 10
11.7825942945
 20
10.5682623868
 30
0.0
 10
11.7766663188
 20
10.5709894573
 30
0.0
 10
11.7711735744
 20
10.5737767713
 30
0.0
 10
11.7661249665
 20
10.5766198542
 30
0.0
 10
11.7615285855
 20
10.5795141783
 30
0.0
 10
11.7573917115
 20
10.5824552887
 30
0.0
 10
11.753720896
 20
10.5854389465
 30
0.0
 10
11.7505218984
 20
10.5884610533
 30
0.0
 10
11.7478001357
 20
10.591517978
 30
0.0
 10
11.7455605602
 20
10.594606412
 30
0.0
 10
11.7438087854
 20
10.5977226274
 30
0.0
 10
11.7427483762
 20
10.6003699972
 30
0.0
 10
11.7421617493
 20
10.6024818725
 30
0.0
 10
11.7418505821
 20
10.6040509386
 30
0.0
 10
11.7416637619
 20
10.6056214813
 30
0.0
 10
11.7416221727
 20
10.6066703346
 30
0.0
 10
11.7416221679
 20
10.6071930102
 30
0.0
  0
SPLINE
  5
2D4
100
AcDbEntity
  8
0
100
AcDbSpline
 62
7
  6
CONTINUOUS
 70
0
 71
3
 72
37
 73
33
 74
0
 42
0.0000001
 43
0.0000001
 44
0.0000000001
 40
0.0
 40
0.0
 40
0.0
 40
0.0
 40
0.0958321372
 40
0.1891019121
 40
0.2792425465
 40
0.3657115305
 40
0.4074101378
 40
0.4480031117
 40
0.4874331589
 40
0.5256456456
 40
0.5625894675
 40
0.5982165282
 40
0.6324830688
 40
0.665348975
 40
0.6967793974
 40
0.7267441687
 40
0.7552196034
 40
0.7821883904
 40
0.8076415214
 40
0.8315791003
 40
0.8540125631
 40
0.8749669375
 40
0.894483817
 40
0.9126256757
 40
0.9294802133
 40
0.9451667887
 40
0.9598415117
 40
0.9737025915
 40
0.9804060739
 40
0.98699956
 40
0.9935185817
 40
1.0
 40
1.0
 40
1.0
 40
1.0
 10
12.7856085549
 20
11.32969279
 30
0.0
 10
12.7778989606
 20
11.3302274522
 30
0.0
 10
12.7626970349
 20
11.3314520458
 30
0.0
 10
12.7402978064
 20
11.3337896148
 30
0.0
 10
12.7187127938
 20
11.3365909424
 30
0.0
 10
12.701319359
 20
11.3393279368
 30
0.0
 10
12.6879260873
 20
11.3417453028
 30
0.0
 10
12.6782943022
 20
11.3436397856
 30
0.0
 10
12.668970025
 20
11.3456343717
 30
0.0
 10
12.6599688031
 20
11.3477257975
 30
0.0
 10
12.6513056492
 20
11.3499104569
 30
0.0
 10
12.6429950053
 20
11.3521847758
 30
0.0
 10
12.6350506986
 20
11.3545448205
 30
0.0
 10
12.6274859476
 20
11.3569867441
 30
0.0
 10
12.6203132885
 20
11.3595063292
 30
0.0
 10
12.6135446109
 20
11.362099474
 30
0.0
 10
12.6071910581
 20
11.3647617443
 30
0.0
 10
12.6012630824
 20
11.3674888147
 30
0.0
 10
12.595770338
 20
11.3702761287
 30
0.0
 10
12.5907217301
 20
11.3731192116
 30
0.0
 10
12.5861253491
 20
11.3760135357
 30
0.0
 10
12.5819884751
 20
11.3789546462
 30
0.0
 10
12.5783176596
 20
11.3819383039
 30
0.0
 10
12.575118662
 20
11.3849604108
 30
0.0
 10
12.5723968993
 20
11.3880173354
 30
0.0
 10
12.5701573238
 20
11.3911057694
 30
0.0
 10
12.568405549
 20
11.3942219848
 30
0.0
 10
12.5673451398
 20
11.3968693546
 30
0.0
 10
12.5667585129
 20
11.3989812299
 30
0.0
 10
12.5664473457
 20
11.4005502961
 30
0.0
 10
12.5662605255
 20
11.4021208387
 30
0.0
 10
12.5662189363
 20
11.403169692
 30
0.0
 10
12.5662189315
 20
11.4036923677
 30
0.0
  0
SPLINE
  5
2D5
100
AcDbEntity
  8
0
100
AcDbSpline
 62
7
  6
CONTINUOUS
 70
0
 71
3
 72
65
 73
61
 74
0
 42
0.0000001
 43
0.0000001
 44
0.0000000001
 40
0.0
 40
0.0
 40
0.0
 40
0.0
 40
0.0081861379
 40
0.0170828171
 40
0.0267165109
 40
0.0371038041
 40
0.0482512937
 40
0.0601577635
 40
0.0728157425
 40
0.086212885
 40
0.1003323876
 40
0.1151538196
 40
0.130653741
 40
0.1468058325
 40
0.1635816086
 40
0.1809504049
 40
0.1988798301
 40
0.2173359605
 40
0.2362834404
 40
0.2556858539
 40
0.2957036503
 40
0.3370812878
 40
0.3795001341
 40
0.4226356884
 40
0.4661606184
 40
0.5097473603
 40
0.5530703982
 40
0.5958083343
 40
0.6376458665
 40
0.6782758002
 40
0.6980451583
 40
0.7174022501
 40
0.7363120011
 40
0.7547402742
 40
0.772654127
 40
0.790021717
 40
0.8068127105
 40
0.8229982144
 40
0.838551135
 40
0.8534463937
 40
0.8676610917
 40
0.8811751366
 40
0.8939713393
 40
0.9060363344
 40
0.9173610606
 40
0.9279418039
 40
0.9377816073
 40
0.9468916785
 40
0.9552941034
 40
0.9630245059
 40
0.9701361644
 40
0.9767044722
 40
0.9798176587
 40
0.9828355905
 40
0.9857754415
 40
0.9886559806
 40
0.9914973736
 40
0.9943207658
 40
0.9971477792
 40
1.0
 40
1.0
 40
1.0
 40
1.0
 10
10.6735317615
 20
11.1289039538
 30
0.0
 10
10.6724898303
 20
11.1278975255
 30
0.0
 10
10.6702121214
 20
11.1259030211
 30
0.0
 10
10.6664172852
 20
11.1230769109
 30
0.0
 10
10.6621142812
 20
11.1203010328
 30
0.0
 10
10.6573129615
 20
11.1175811835
 30
0.0
 10
10.6520235822
 20
11.1149226437
 30
0.0
 10
10.6462578471
 20
11.1123311796
 30
0.0
 10
10.6400287432
 20
11.1098121891
 30
0.0
 10
10.6333503314
 20
11.1073711413
 30
0.0
 10
10.62623777
 20
11.1050132279
 30
0.0
 10
10.6187072196
 20
11.1027434421
 30
0.0
 10
10.6107757503
 20
11.100566645
 30
0.0
 10
10.6024613084
 20
11.0984873027
 30
0.0
 10
10.5937826025
 20
11.096509792
 30
0.0
 10
10.584759066
 20
11.094638111
 30
0.0
 10
10.5754107722
 20
11.0928760329
 30
0.0
 10
10.565758372
 20
11.0912271067
 30
0.0
 10
10.5558230168
 20
11.0896944723
 30
0.0
 10
10.5420858597
 20
11.0877905519
 30
0.0
 10
10.5243651061
 20
11.0857324545
 30
0.0
 10
10.5025387039
 20
11.0837900635
 30
0.0
 10
10.480119678
 20
11.0823644379
 30
0.0
 10
10.4572932469
 20
11.0814652468
 30
0.0
 10
10.4342454268
 20
11.0810980252
 30
0.0
 10
10.4111621221
 20
11.0812642097
 30
0.0
 10
10.3882280553
 20
11.0819612749
 30
0.0
 10
10.3656258135
 20
11.083182804
 30
0.0
 10
10.3435352212
 20
11.0849186398
 30
0.0
 10
10.3255388793
 20
11.0867987321
 30
0.0
 10
10.3115347017
 20
11.0885573205
 30
0.0
 10
10.3013636521
 20
11.0899832726
 30
0.0
 10
10.2914496642
 20
11.0915254147
 30
0.0
 10
10.2818129656
 20
11.0931808442
 30
0.0
 10
10.2724733749
 20
11.0949463073
 30
0.0
 10
10.2634502488
 20
11.0968184681
 30
0.0
 10
10.2547624371
 20
11.0987936308
 30
0.0
 10
10.2464282582
 20
11.100867991
 30
0.0
 10
10.2384654435
 20
11.1030374749
 30
0.0
 10
10.230891093
 20
11.105297776
 30
0.0
 10
10.223721644
 20
11.1076444784
 30
0.0
 10
10.2169727748
 20
11.1100728123
 30
0.0
 10
10.2106594112
 20
11.1125780024
 30
0.0
 10
10.2047955946
 20
11.1151549525
 30
0.0
 10
10.1993944698
 20
11.1177985166
 30
0.0
 10
10.1944682165
 20
11.1205034837
 30
0.0
 10
10.1900279169
 20
11.1232644957
 30
0.0
 10
10.1860836724
 20
11.1260765365
 30
0.0
 10
10.1826444322
 20
11.1289345432
 30
0.0
 10
10.1797182476
 20
11.1318343864
 30
0.0
 10
10.1773130016
 20
11.1347716521
 30
0.0
 10
10.1757211992
 20
11.1372928237
 30
0.0
 10
10.1747356983
 20
11.1393146133
 30
0.0
 10
10.1741445901
 20
11.140808863
 30
0.0
 10
10.1736890417
 20
11.142306983
 30
0.0
 10
10.1733696865
 20
11.1438081358
 30
0.0
 10
10.1731870121
 20
11.1453112885
 30
0.0
 10
10.1731412675
 20
11.1468154065
 30
0.0
 10
10.1732326212
 20
11.1483192444
 30
0.0
 10
10.1733839802
 20
11.1493143707
 30
0.0
 10
10.1734815638
 20
11.1498095792
 30
0.0
  0
SPLINE
  5
2D6
100
AcDbEntity
  8
0
100
AcDbSpline
 62
7
  6
CONTINUOUS
 70
0
 71
3
 72
60
 73
56
 74
0
 42
0.0000001
 43
0.0000001
 44
0.0000000001
 40
0.0
 40
0.0
 40
0.0
 40
0.0
 40
0.0078607254
 40
0.0164207643
 40
0.0257057291
 40
0.0357306225
 40
0.0464998855
 40
0.0580098088
 40
0.0702501504
 40
0.0832056657
 40
0.0968566552
 40
0.1111799093
 40
0.1261494169
 40
0.1417366651
 40
0.1579113593
 40
0.1746415732
 40
0.1918942515
 40
0.2096353946
 40
0.2278303667
 40
0.2464440645
 40
0.2847852933
 40
0.3243766684
 40
0.3649366366
 40
0.4061879576
 40
0.4478591069
 40
0.4896848784
 40
0.5314064078
 40
0.5727708136
 40
0.6135306316
 40
0.6534432024
 40
0.6922701642
 40
0.729777211
 40
0.747964134
 40
0.7657352121
 40
0.7830625069
 40
0.7999184919
 40
0.8162761686
 40
0.832109134
 40
0.8473917764
 40
0.8620993878
 40
0.87620846
 40
0.8896968994
 40
0.9025444325
 40
0.9147330503
 40
0.9262475378
 40
0.9370763581
 40
0.9472124216
 40
0.9566546855
 40
0.9654095792
 40
0.9734936416
 40
0.9772936967
 40
0.9809385285
 40
0.9877867091
 40
0.9941088597
 40
1.0
 40
1.0
 40
1.0
 40
1.0
 10
11.6850655107
 20
11.2506053346
 30
0.0
 10
11.6840418945
 20
11.2496165972
 30
0.0
 10
11.6817992569
 20
11.2476578258
 30
0.0
 10
11.6780556142
 20
11.2448864966
 30
0.0
 10
11.6738019963
 20
11.2421660023
 30
0.0
 10
11.6690492809
 20
11.2395021817
 30
0.0
 10
11.6638090008
 20
11.2369002812
 30
0.0
 10
11.6580943534
 20
11.2343660187
 30
0.0
 10
11.6519199985
 20
11.2319046119
 30
0.0
 10
11.6453017592
 20
11.2295212921
 30
0.0
 10
11.6382565893
 20
11.227220915
 30
0.0
 10
11.6308024172
 20
11.2250080288
 30
0.0
 10
11.6229579712
 20
11.2228869829
 30
0.0
 10
11.6147427061
 20
11.2208616186
 30
0.0
 10
11.6061766122
 20
11.2189356377
 30
0.0
 10
11.5972801452
 20
11.2171122642
 30
0.0
 10
11.5880740874
 20
11.2153944769
 30
0.0
 10
11.578579452
 20
11.2137849438
 30
0.0
 10
11.5688173905
 20
11.2122859336
 30
0.0
 10
11.5553399785
 20
11.2104191188
 30
0.0
 10
11.537976749
 20
11.2083869387
 30
0.0
 10
11.5166107161
 20
11.2064370177
 30
0.0
 10
11.4946787929
 20
11.2049601379
 30
0.0
 10
11.4723431919
 20
11.2039605357
 30
0.0
 10
11.4497621564
 20
11.2034395699
 30
0.0
 10
11.4270900757
 20
11.2033960107
 30
0.0
 10
11.4044775938
 20
11.2038263564
 30
0.0
 10
11.3820719919
 20
11.2047250446
 30
0.0
 10
11.360017687
 20
11.2060845964
 30
0.0
 10
11.3384567004
 20
11.2078956552
 30
0.0
 10
11.3175293755
 20
11.2101470375
 30
0.0
 10
11.3005636154
 20
11.2124015394
 30
0.0
 10
11.287417317
 20
11.2144243896
 30
0.0
 10
11.2779039503
 20
11.216027613
 30
0.0
 10
11.2686527438
 20
11.2177301564
 30
0.0
 10
11.2596807223
 20
11.2195297077
 30
0.0
 10
11.2510048268
 20
11.2214236472
 30
0.0
 10
11.2426419148
 20
11.2234093164
 30
0.0
 10
11.2346086892
 20
11.2254837302
 30
0.0
 10
11.2269217184
 20
11.227643852
 30
0.0
 10
11.2195973351
 20
11.2298863106
 30
0.0
 10
11.2126516404
 20
11.2322076336
 30
0.0
 10
11.2061003982
 20
11.2346040674
 30
0.0
 10
11.1999589846
 20
11.2370716569
 30
0.0
 10
11.1942423219
 20
11.239606296
 30
0.0
 10
11.1889647104
 20
11.2422035624
 30
0.0
 10
11.1841398916
 20
11.2448590649
 30
0.0
 10
11.179780616
 20
11.2475681341
 30
0.0
 10
11.1758992599
 20
11.2503261729
 30
0.0
 10
11.1730150173
 20
11.2527086999
 30
0.0
 10
11.1709697448
 20
11.2546391779
 30
0.0
 10
11.1691734752
 20
11.2565028623
 30
0.0
 10
11.1672279201
 20
11.2588533555
 30
0.0
 10
11.1653622858
 20
11.2617675972
 30
0.0
 10
11.164445288
 20
11.2637912601
 30
0.0
 10
11.1640885929
 20
11.2647964218
 30
0.0
  0
SPLINE
  5
2D7
100
AcDbEntity
  8
0
100
AcDbSpline
 62
7
  6
CONTINUOUS
 70
0
 71
3
 72
37
 73
33
 74
0
 42
0.0000001
 43
0.0000001
 44
0.0000000001
 40
0.0
 40
0.0
 40
0.0
 40
0.0
 40
0.0958324821
 40
0.1891028286
 40
0.2792437745
 40
0.3657130835
 40
0.4074117671
 40
0.4480048975
 40
0.4874349834
 40
0.5256475863
 40
0.5625913988
 40
0.598218533
 40
0.6324850295
 40
0.6653509486
 40
0.6967813057
 40
0.7267460147
 40
0.7552213753
 40
0.7821900158
 40
0.8076430717
 40
0.8315804228
 40
0.8540138128
 40
0.8749678959
 40
0.8944847045
 40
0.9126262459
 40
0.9294807153
 40
0.9451670076
 40
0.9598416765
 40
0.9737025863
 40
0.9804060777
 40
0.9869995516
 40
0.9935185591
 40
1.0
 40
1.0
 40
1.0
 40
1.0
 10
11.9913768863
 20
10.9705238562
 30
0.0
 10
11.984865359
 20
10.9709754321
 30
0.0
 10
11.9720257892
 20
10.9720097281
 30
0.0
 10
11.9531073746
 20
10.9739840433
 30
0.0
 10
11.9348766479
 20
10.9763500616
 30
0.0
 10
11.9201861491
 20
10.9786617302
 30
0.0
 10
11.9088741935
 20
10.9807034655
 30
0.0
 10
11.900739193
 20
10.9823035394
 30
0.0
 10
11.8928639176
 20
10.9839881947
 30
0.0
 10
11.8852614977
 20
10.9857546052
 30
0.0
 10
11.8779446161
 20
10.9875997986
 30
0.0
 10
11.8709254658
 20
10.989520682
 30
0.0
 10
11.8642157315
 20
10.9915140037
 30
0.0
 10
11.8578265709
 20
10.9935764518
 30
0.0
 10
11.8517685787
 20
10.9957045138
 30
0.0
 10
11.8460517922
 20
10.9978946944
 30
0.0
 10
11.840685624
 20
11.0001432551
 30
0.0
 10
11.8356789086
 20
11.0024465649
 30
0.0
 10
11.8310397824
 20
11.00480072
 30
0.0
 10
11.8267758005
 20
11.0072020324
 30
0.0
 10
11.8228937405
 20
11.0096465484
 30
0.0
 10
11.8193998354
 20
11.0121306732
 30
0.0
 10
11.8162994982
 20
11.014650623
 30
0.0
 10
11.8135977574
 20
11.01720317
 30
0.0
 10
11.8112989733
 20
11.0197849929
 30
0.0
 10
11.8094075993
 20
11.0223935591
 30
0.0
 10
11.8079280469
 20
11.0250254666
 30
0.0
 10
11.8070326093
 20
11.0272614855
 30
0.0
 10
11.8065371487
 20
11.0290451565
 30
0.0
 10
11.8062743818
 20
11.0303703956
 30
0.0
 10
11.8061166927
 20
11.0316968837
 30
0.0
 10
11.8060816087
 20
11.0325827435
 30
0.0
 10
11.8060816138
 20
11.0330241955
 30
0.0
  0
SPLINE
  5
2D8
100
AcDbEntity
  8
0
100
AcDbSpline
 62
7
  6
CONTINUOUS
 70
0
 71
3
 72
37
 73
33
 74
0
 42
0.0000001
 43
0.0000001
 44
0.0000000001
 40
0.0
 40
0.0
 40
0.0
 40
0.0
 40
0.0986334585
 40
0.1943357562
 40
0.286434705
 40
0.3743085757
 40
0.4164869474
 40
0.4574069551
 40
0.4970117371
 40
0.5352487647
 40
0.5720718916
 40
0.6074399293
 40
0.6413183522
 40
0.6736784956
 40
0.7044986731
 40
0.7337642592
 40
0.7614683476
 40
0.7876127883
 40
0.8122087455
 40
0.8352787706
 40
0.8568577931
 40
0.8769964083
 40
0.8957629119
 40
0.9132479509
 40
0.9295677884
 40
0.9448694435
 40
0.9593331596
 40
0.9731736182
 40
0.9799399408
 40
0.9866440637
 40
0.9933194945
 40
1.0
 40
1.0
 40
1.0
 40
1.0
 10
10.9879894513
 20
10.8433259691
 30
0.0
 10
10.9812866604
 20
10.8437908092
 30
0.0
 10
10.9680907197
 20
10.8448669043
 30
0.0
 10
10.9486885818
 20
10.8469543223
 30
0.0
 10
10.93007729
 20
10.8494763961
 30
0.0
 10
10.9151458562
 20
10.8519542107
 30
0.0
 10
10.903706937
 20
10.8541463696
 30
0.0
 10
10.8955258621
 20
10.855861696
 30
0.0
 10
10.8876393
 20
10.8576668151
 30
0.0
 10
10.8800602079
 20
10.8595580026
 30
0.0
 10
10.8728006529
 20
10.861531153
 30
0.0
 10
10.8658717784
 20
10.8635822642
 30
0.0
 10
10.8592838101
 20
10.8657070803
 30
0.0
 10
10.8530460708
 20
10.8679014077
 30
0.0
 10
10.8471669851
 20
10.8701609256
 30
0.0
 10
10.8416541066
 20
10.8724813271
 30
0.0
 10
10.8365141386
 20
10.8748583078
 30
0.0
 10
10.8317529479
 20
10.8772875405
 30
0.0
 10
10.8273756273
 20
10.8797648293
 30
0.0
 10
10.8233864711
 20
10.8822859507
 30
0.0
 10
10.8197891148
 20
10.8848469499
 30
0.0
 10
10.8165864669
 20
10.8874438932
 30
0.0
 10
10.8137809887
 20
10.8900732594
 30
0.0
 10
10.8113746164
 20
10.892731638
 30
0.0
 10
10.8093692785
 20
10.8954160231
 30
0.0
 10
10.8077668246
 20
10.8981235054
 30
0.0
 10
10.8065696609
 20
10.9008504714
 30
0.0
 10
10.8059067601
 20
10.9031544247
 30
0.0
 10
10.8055877269
 20
10.9049886873
 30
0.0
 10
10.8054513279
 20
10.906355518
 30
0.0
 10
10.8054160506
 20
10.907722721
 30
0.0
 10
10.8054597474
 20
10.9086324459
 30
0.0
 10
10.8054981503
 20
10.9090858972
 30
0.0
  0
SPLINE
  5
2D9
100
AcDbEntity
  8
0
100
AcDbSpline
 62
7
  6
CONTINUOUS
 70
0
 71
3
 72
33
 73
29
 74
0
 42
0.0000001
 43
0.0000001
 44
0.0000000001
 40
0.0
 40
0.0
 40
0.0
 40
0.0
 40
0.0958324715
 40
0.1891069824
 40
0.2792482339
 40
0.3657196617
 40
0.4480104483
 40
0.5256518902
 40
0.5625965704
 40
0.5982245785
 40
0.6324918371
 40
0.6653587712
 40
0.6967897932
 40
0.7267555871
 40
0.7552315829
 40
0.7822012831
 40
0.8076550335
 40
0.8315933456
 40
0.8540275264
 40
0.8749824413
 40
0.8945001021
 40
0.9126423572
 40
0.9294976319
 40
0.9451845512
 40
0.9598598551
 40
0.973721282
 40
0.987009278
 40
1.0
 40
1.0
 40
1.0
 40
1.0
 10
11.2091255448
 20
11.0569270456
 30
0.0
 10
11.205739655
 20
11.0571618579
 30
0.0
 10
11.1990631354
 20
11.0576996951
 30
0.0
 10
11.1892257134
 20
11.0587263019
 30
0.0
 10
11.179745758
 20
11.0599566254
 30
0.0
 10
11.1706866281
 20
11.061382193
 30
0.0
 10
11.1621086112
 20
11.062993394
 30
0.0
 10
11.1553002623
 20
11.0645054682
 30
0.0
 10
11.1501414427
 20
11.0658063521
 30
0.0
 10
11.1464915016
 20
11.0668051955
 30
0.0
 10
11.1430024584
 20
11.0678417157
 30
0.0
 10
11.1396801
 20
11.0689141392
 30
0.0
 10
11.1365299538
 20
11.0700207439
 30
0.0
 10
11.1335572144
 20
11.0711595741
 30
0.0
 10
11.1307668085
 20
11.0723288431
 30
0.0
 10
11.1281632919
 20
11.0735265026
 30
0.0
 10
11.1257509349
 20
11.0747506698
 30
0.0
 10
11.1235336294
 20
11.0759993068
 30
0.0
 10
11.1215149272
 20
11.077270441
 30
0.0
 10
11.1196980574
 20
11.0785621622
 30
0.0
 10
11.1180858258
 20
11.0798725025
 30
0.0
 10
11.1166808807
 20
11.0811998153
 30
0.0
 10
11.1154854338
 20
11.0825423337
 30
0.0
 10
11.114501873
 20
11.0838987385
 30
0.0
 10
11.1137324072
 20
11.0852674332
 30
0.0
 10
11.1131797527
 20
11.0866469262
 30
0.0
 10
11.1128465881
 20
11.0880342361
 30
0.0
 10
11.1127720113
 20
11.088966529
 30
0.0
 10
11.1127720005
 20
11.089426611
 30
0.0
  0
SPLINE
  5
2DA
100
AcDbEntity
  8
0
100
AcDbSpline
 62
7
  6
CONTINUOUS
 70
0
 71
3
 72
33
 73
29
 74
0
 42
0.0000001
 43
0.0000001
 44
0.0000000001
 40
0.0
 40
0.0
 40
0.0
 40
0.0
 40
0.0958336213
 40
0.1891081202
 40
0.2792503045
 40
0.3657220889
 40
0.4480132641
 40
0.5256549075
 40
0.5625997422
 40
0.5982276624
 40
0.6324950734
 40
0.6653617928
 40
0.6967929111
 40
0.7267584475
 40
0.7552344057
 40
0.7822038982
 40
0.8076574015
 40
0.8315955933
 40
0.8540293233
 40
0.8749841742
 40
0.8945012814
 40
0.9126434623
 40
0.9294982434
 40
0.9451850253
 40
0.9598600352
 40
0.9737213109
 40
0.9870092528
 40
1.0
 40
1.0
 40
1.0
 40
1.0
 10
9.7290717704
 20
10.9093048012
 30
0.0
 10
9.7250086319
 20
10.9095865808
 30
0.0
 10
9.7169967167
 20
10.9102319906
 30
0.0
 10
9.7051916601
 20
10.9114639462
 30
0.0
 10
9.6938155984
 20
10.9129403513
 30
0.0
 10
9.6829445164
 20
10.914651072
 30
0.0
 10
9.672650803
 20
10.9165845449
 30
0.0
 10
9.6644807175
 20
10.9183990857
 30
0.0
 10
9.6582900885
 20
10.9199601554
 30
0.0
 10
9.6539101381
 20
10.9211588178
 30
0.0
 10
9.6497232657
 20
10.9224026339
 30
0.0
 10
9.6457364301
 20
10.9236896034
 30
0.0
 10
9.6419562454
 20
10.9250175199
 30
0.0
 10
9.6383889663
 20
10.926384172
 30
0.0
 10
9.6350404847
 20
10.9277873025
 30
0.0
 10
9.6319162805
 20
10.9292245243
 30
0.0
 10
9.6290214821
 20
10.9306935669
 30
0.0
 10
9.626360731
 20
10.9321919244
 30
0.0
 10
9.6239383537
 20
10.9337173649
 30
0.0
 10
9.6217581182
 20
10.9352673918
 30
0.0
 10
9.6198235447
 20
10.9368399011
 30
0.0
 10
9.618137614
 20
10.9384326312
 30
0.0
 10
9.6167032059
 20
10.9400437431
 30
0.0
 10
9.6155229578
 20
10.9416714103
 30
0.0
 10
9.6145997109
 20
10.943313895
 30
0.0
 10
9.6139366216
 20
10.9449693072
 30
0.0
 10
9.6135368727
 20
10.9466340994
 30
0.0
 10
9.6134475279
 20
10.9477528661
 30
0.0
 10
9.6134475331
 20
10.9483049686
 30
0.0
  0
SPLINE
  5
2DB
100
AcDbEntity
  8
0
100
AcDbSpline
 62
7
  6
CONTINUOUS
 70
0
 71
3
 72
33
 73
29
 74
0
 42
0.0000001
 43
0.0000001
 44
0.0000000001
 40
0.0
 40
0.0
 40
0.0
 40
0.0
 40
0.0958324715
 40
0.1891069824
 40
0.2792482339
 40
0.3657196617
 40
0.4480104483
 40
0.5256518902
 40
0.5625965704
 40
0.5982245785
 40
0.6324918371
 40
0.6653587712
 40
0.6967897932
 40
0.7267555871
 40
0.7552315829
 40
0.7822012831
 40
0.8076550335
 40
0.8315933456
 40
0.8540275264
 40
0.8749824413
 40
0.8945001021
 40
0.9126423572
 40
0.9294976319
 40
0.9451845512
 40
0.9598598551
 40
0.973721282
 40
0.987009278
 40
1.0
 40
1.0
 40
1.0
 40
1.0
 10
10.2052984539
 20
11.3693044812
 30
0.0
 10
10.2019125641
 20
11.3695392935
 30
0.0
 10
10.1952360446
 20
11.3700771307
 30
0.0
 10
10.1853986226
 20
11.3711037375
 30
0.0
 10
10.1759186672
 20
11.372334061
 30
0.0
 10
10.1668595373
 20
11.3737596286
 30
0.0
 10
10.1582815203
 20
11.3753708296
 30
0.0
 10
10.1514731714
 20
11.3768829038
 30
0.0
 10
10.1463143518
 20
11.3781837877
 30
0.0
 10
10.1426644107
 20
11.3791826311
 30
0.0
 10
10.1391753676
 20
11.3802191513
 30
0.0
 10
10.1358530091
 20
11.3812915748
 30
0.0
 10
10.1327028629
 20
11.3823981795
 30
0.0
 10
10.1297301236
 20
11.3835370097
 30
0.0
 10
10.1269397176
 20
11.3847062787
 30
0.0
 10
10.124336201
 20
11.3859039382
 30
0.0
 10
10.1219238441
 20
11.3871281055
 30
0.0
 10
10.1197065386
 20
11.3883767424
 30
0.0
 10
10.1176878363
 20
11.3896478766
 30
0.0
 10
10.1158709666
 20
11.3909395978
 30
0.0
 10
10.1142587349
 20
11.3922499381
 30
0.0
 10
10.1128537898
 20
11.3935772509
 30
0.0
 10
10.1116583429
 20
11.3949197693
 30
0.0
 10
10.1106747821
 20
11.3962761741
 30
0.0
 10
10.1099053163
 20
11.3976448688
 30
0.0
 10
10.1093526619
 20
11.3990243618
 30
0.0
 10
10.1090194973
 20
11.4004116717
 30
0.0
 10
10.1089449204
 20
11.4013439646
 30
0.0
 10
10.1089449096
 20
11.4018040466
 30
0.0
  0
SPLINE
  5
2DC
100
AcDbEntity
  8
0
100
AcDbSpline
 62
7
  6
CONTINUOUS
 70
0
 71
3
 72
53
 73
49
 74
0
 42
0.0000001
 43
0.0000001
 44
0.0000000001
 40
0.0
 40
0.0
 40
0.0
 40
0.0
 40
0.0311426888
 40
0.0624383834
 40
0.0938812314
 40
0.1254614885
 40
0.1571669808
 40
0.1889829482
 40
0.2208924459
 40
0.2528766916
 40
0.2849154445
 40
0.3169874062
 40
0.3490706365
 40
0.3811429784
 40
0.4131824845
 40
0.4451678416
 40
0.4770787872
 40
0.5088965106
 40
0.5406040329
 40
0.5721865609
 40
0.5879294758
 40
0.6036367624
 40
0.6193073265
 40
0.6349402568
 40
0.6505348413
 40
0.6660905685
 40
0.6816071266
 40
0.697084418
 40
0.7125225498
 40
0.7279218407
 40
0.7432828238
 40
0.7586062348
 40
0.7738930224
 40
0.7891443357
 40
0.8043615201
 40
0.8195461178
 40
0.8346998503
 40
0.8498246176
 40
0.864922487
 40
0.8799956765
 40
0.8950465519
 40
0.9100776065
 40
0.9250914484
 40
0.9400907904
 40
0.9550784267
 40
0.9700572226
 40
0.9850300968
 40
1.0
 40
1.0
 40
1.0
 40
1.0
 10
9.1481926004
 20
9.0825948813
 30
0.0
 10
9.1672980853
 20
9.0812699115
 30
0.0
 10
9.2055201566
 20
9.0772150217
 30
0.0
 10
9.2623898697
 20
9.0670006048
 30
0.0
 10
9.3186504518
 20
9.0526933334
 30
0.0
 10
9.3739980788
 20
9.0343700812
 30
0.0
 10
9.4281386717
 20
9.0121290337
 30
0.0
 10
9.4807834362
 20
8.9860891829
 30
0.0
 10
9.5316519417
 20
8.9563897126
 30
0.0
 10
9.5804731332
 20
8.9231891957
 30
0.0
 10
9.6269868705
 20
8.8866647557
 30
0.0
 10
9.6709452997
 20
8.8470111881
 30
0.0
 10
9.7121141961
 20
8.8044399408
 30
0.0
 10
9.7502741327
 20
8.7591779191
 30
0.0
 10
9.7852216391
 20
8.7114663227
 30
0.0
 10
9.8167702946
 20
8.6615593277
 30
0.0
 10
9.8447517557
 20
8.6097230201
 30
0.0
 10
9.8690167248
 20
8.5562330918
 30
0.0
 10
9.8894350911
 20
8.5013764862
 30
0.0
 10
9.9031701603
 20
8.4547101613
 30
0.0
 10
9.9121289665
 20
8.4169904618
 30
0.0
 10
9.9178217409
 20
8.3885714504
 30
0.0
 10
9.9224868553
 20
8.3600346291
 30
0.0
 10
9.9261180166
 20
8.3314176239
 30
0.0
 10
9.9287104734
 20
8.3027587806
 30
0.0
 10
9.9302607198
 20
8.2740963213
 30
0.0
 10
9.9307665621
 20
8.2454685229
 30
0.0
 10
9.9302274864
 20
8.216913611
 30
0.0
 10
9.9286440191
 20
8.1884697167
 30
0.0
 10
9.9260183298
 20
8.1601748255
 30
0.0
 10
9.9223539646
 20
8.1320667144
 30
0.0
 10
9.9176556239
 20
8.104182949
 30
0.0
 10
9.9119297512
 20
8.0765607437
 30
0.0
 10
9.905183863
 20
8.0492370123
 30
0.0
 10
9.8974269283
 20
8.0222482672
 30
0.0
 10
9.888669426
 20
7.9956305207
 30
0.0
 10
9.8789228483
 20
7.9694193961
 30
0.0
 10
9.8682003377
 20
7.9436498678
 30
0.0
 10
9.8565161818
 20
7.91835637
 30
0.0
 10
9.8438858688
 20
7.8935727561
 30
0.0
 10
9.8303264304
 20
7.8693320571
 30
0.0
 10
9.8158558215
 20
7.8456667463
 30
0.0
 10
9.8004934236
 20
7.8226084257
 30
0.0
 10
9.7842598103
 20
7.8001878542
 30
0.0
 10
9.7671765456
 20
7.7784351347
 30
0.0
 10
9.7492664975
 20
7.7573791167
 30
0.0
 10
9.7305539125
 20
7.7370483898
 30
0.0
 10
9.7175590659
 20
7.7239948307
 30
0.0
 10
9.7109377352
 20
7.717599111
 30
0.0
  0
SPLINE
  5
2DD
100
AcDbEntity
  8
0
100
AcDbSpline
 62
7
  6
CONTINUOUS
 70
0
 71
3
 72
30
 73
26
 74
0
 42
0.0000001
 43
0.0000001
 44
0.0000000001
 40
0.0
 40
0.0
 40
0.0
 40
0.0
 40
0.064541273
 40
0.129053338
 40
0.1934520643
 40
0.2576539304
 40
0.3215847549
 40
0.385180317
 40
0.4483896726
 40
0.5111772607
 40
0.5735246712
 40
0.6045429522
 40
0.6354526831
 40
0.6662567944
 40
0.6969592981
 40
0.7275653673
 40
0.7580812196
 40
0.7885140728
 40
0.8188721118
 40
0.8491643218
 40
0.8794004929
 40
0.9095910171
 40
0.9397468367
 40
0.9698792996
 40
1.0
 40
1.0
 40
1.0
 40
1.0
 10
10.4234801804
 20
7.4520556451
 30
0.0
 10
10.4274252707
 20
7.4484717283
 30
0.0
 10
10.4349754844
 20
7.4409228163
 30
0.0
 10
10.4451571101
 20
7.4285819301
 30
0.0
 10
10.454096481
 20
7.4153453673
 30
0.0
 10
10.4616983497
 20
7.4013527177
 30
0.0
 10
10.4678832568
 20
7.3867501375
 30
0.0
 10
10.4725859288
 20
7.371690571
 30
0.0
 10
10.4757566041
 20
7.3563313838
 30
0.0
 10
10.4773615808
 20
7.3408346317
 30
0.0
 10
10.4773793634
 20
7.3279144848
 30
0.0
 10
10.4765978608
 20
7.3176775809
 30
0.0
 10
10.4756184292
 20
7.3100788258
 30
0.0
 10
10.4742474312
 20
7.3025675429
 30
0.0
 10
10.4724882189
 20
7.2951632746
 30
0.0
 10
10.4703456402
 20
7.2878855072
 30
0.0
 10
10.4678251112
 20
7.2807534204
 30
0.0
 10
10.4649333554
 20
7.2737857514
 30
0.0
 10
10.4616779519
 20
7.2670008302
 30
0.0
 10
10.4580673582
 20
7.2604165663
 30
0.0
 10
10.4541112281
 20
7.2540501874
 30
0.0
 10
10.449819759
 20
7.2479186036
 30
0.0
 10
10.4452043953
 20
7.2420377504
 30
0.0
 10
10.4402773089
 20
7.2364234537
 30
0.0
 10
10.4367927518
 20
7.2328673204
 30
0.0
 10
10.4350036725
 20
7.2311391825
 30
0.0
  0
SPLINE
  5
2DE
100
AcDbEntity
  8
0
100
AcDbSpline
 62
7
  6
CONTINUOUS
 70
0
 71
3
 72
33
 73
29
 74
0
 42
0.0000001
 43
0.0000001
 44
0.0000000001
 40
0.0
 40
0.0
 40
0.0
 40
0.0
 40
0.0146364366
 40
0.0295541201
 40
0.0448894648
 40
0.0607684136
 40
0.0773061335
 40
0.0946060724
 40
0.1127602736
 40
0.1318514897
 40
0.1519545691
 40
0.1731382581
 40
0.1954662052
 40
0.2189979488
 40
0.243790251
 40
0.2698969513
 40
0.2973702168
 40
0.3262597907
 40
0.3566132454
 40
0.3884755817
 40
0.4218878787
 40
0.4568871382
 40
0.531749275
 40
0.6132138327
 40
0.7012307772
 40
0.7954925154
 40
0.895385365
 40
1.0
 40
1.0
 40
1.0
 40
1.0
 10
9.4520490163
 20
8.1010754921
 30
0.0
 10
9.4521210073
 20
8.1005012804
 30
0.0
 10
9.4523320241
 20
8.0993490724
 30
0.0
 10
9.452841168
 20
8.0976454429
 30
0.0
 10
9.4535439924
 20
8.0959588322
 30
0.0
 10
9.4544398047
 20
8.0942935698
 30
0.0
 10
9.4555284126
 20
8.0926536615
 30
0.0
 10
9.4568095804
 20
8.0910430283
 30
0.0
 10
9.4582839025
 20
8.0894661029
 30
0.0
 10
9.4599519801
 20
8.0879273723
 30
0.0
 10
9.461814788
 20
8.0864316086
 30
0.0
 10
9.4638737022
 20
8.084984089
 30
0.0
 10
9.4661300457
 20
8.0835900169
 30
0.0
 10
9.4685856394
 20
8.0822554005
 30
0.0
 10
9.4712421766
 20
8.080986202
 30
0.0
 10
9.4741015895
 20
8.079788998
 30
0.0
 10
9.4771657427
 20
8.0786706456
 30
0.0
 10
9.4804364135
 20
8.0776383165
 30
0.0
 10
9.4839152299
 20
8.0766996894
 30
0.0
 10
9.4876034237
 20
8.075862599
 30
0.0
 10
9.4915018585
 20
8.075135339
 30
0.0
 10
9.49710662
 20
8.0743046713
 30
0.0
 10
9.5046461277
 20
8.073608584
 30
0.0
 10
9.5143107322
 20
8.0733673599
 30
0.0
 10
9.5247378162
 20
8.0737652901
 30
0.0
 10
9.535847691
 20
8.0748523807
 30
0.0
 10
9.5475275179
 20
8.0766576264
 30
0.0
 10
9.5554471226
 20
8.078309381
 30
0.0
 10
9.5594749608
 20
8.0792505483
 30
0.0
  0
SPLINE
  5
2DF
100
AcDbEntity
  8
0
100
AcDbSpline
 62
7
  6
CONTINUOUS
 70
0
 71
3
 72
15
 73
11
 74
0
 42
0.0000001
 43
0.0000001
 44
0.0000000001
 40
0.0
 40
0.0
 40
0.0
 40
0.0
 40
0.1267141969
 40
0.2563032611
 40
0.3866446621
 40
0.5159348509
 40
0.6427851208
 40
0.7661882358
 40
0.8854313848
 40
1.0
 40
1.0
 40
1.0
 40
1.0
 10
9.5594749608
 20
8.0792505483
 30
0.0
 10
9.5645765772
 20
8.0804426208
 30
0.0
 10
9.5748244184
 20
8.0831670144
 30
0.0
 10
9.5900357364
 20
8.0881042539
 30
0.0
 10
9.605087194
 20
8.093814733
 30
0.0
 10
9.6197689782
 20
8.100133411
 30
0.0
 10
9.6339321113
 20
8.1068986411
 30
0.0
 10
9.6474802712
 20
8.1139639653
 30
0.0
 10
9.6603564909
 20
8.1212022726
 30
0.0
 10
9.6686473908
 20
8.1261760385
 30
0.0
 10
9.6726772849
 20
8.1286656057
 30
0.0
  0
SPLINE
  5
2E0
100
AcDbEntity
  8
0
100
AcDbSpline
 62
7
  6
CONTINUOUS
 70
0
 71
3
 72
39
 73
35
 74
0
 42
0.0000001
 43
0.0000001
 44
0.0000000001
 40
0.0
 40
0.0
 40
0.0
 40
0.0
 40
0.0306730466
 40
0.0614497887
 40
0.0923258225
 40
0.1232995021
 40
0.1543663057
 40
0.185521462
 40
0.2167593041
 40
0.2480733921
 40
0.2794566283
 40
0.310901285
 40
0.3423990901
 40
0.3739413052
 40
0.405518803
 40
0.4371221471
 40
0.4687416723
 40
0.5003675737
 40
0.5319899931
 40
0.5635991029
 40
0.5951851887
 40
0.6267387358
 40
0.6582505174
 40
0.6897116734
 40
0.7211137882
 40
0.7524489668
 40
0.78370991
 40
0.814889997
 40
0.84598331
 40
0.8769847454
 40
0.9078901327
 40
0.9386955846
 40
0.9694001122
 40
1.0
 40
1.0
 40
1.0
 40
1.0
 10
8.8937801031
 20
5.0155300094
 30
0.0
 10
8.8819077455
 20
5.0163533602
 30
0.0
 10
8.8581592654
 20
5.0185853082
 30
0.0
 10
8.8226862208
 20
5.0236648417
 30
0.0
 10
8.7873838959
 20
5.0304701019
 30
0.0
 10
8.7523388266
 20
5.038984037
 30
0.0
 10
8.7176347439
 20
5.0491864678
 30
0.0
 10
8.683355412
 20
5.0610526366
 30
0.0
 10
8.6495832778
 20
5.0745538974
 30
0.0
 10
8.6163996362
 20
5.0896576974
 30
0.0
 10
8.5838843582
 20
5.1063276341
 30
0.0
 10
8.5521157259
 20
5.1245235853
 30
0.0
 10
8.5211701839
 20
5.1442016802
 30
0.0
 10
8.4911221946
 20
5.1653145008
 30
0.0
 10
8.4620440732
 20
5.187811206
 30
0.0
 10
8.4340058239
 20
5.2116376542
 30
0.0
 10
8.4070749484
 20
5.2367364965
 30
0.0
 10
8.3813162356
 20
5.263047274
 30
0.0
 10
8.3567916812
 20
5.2905066488
 30
0.0
 10
8.3335603274
 20
5.3190485341
 30
0.0
 10
8.3116781436
 20
5.3486042623
 30
0.0
 10
8.291197802
 20
5.3791026815
 30
0.0
 10
8.2721685939
 20
5.4104703708
 30
0.0
 10
8.2546363502
 20
5.4426318382
 30
0.0
 10
8.2386433297
 20
5.4755096917
 30
0.0
 10
8.2242281068
 20
5.5090248118
 30
0.0
 10
8.2114253799
 20
5.5430965096
 30
0.0
 10
8.2002660175
 20
5.5776427722
 30
0.0
 10
8.1907769397
 20
5.6125804362
 30
0.0
 10
8.1829810794
 20
5.647825462
 30
0.0
 10
8.1768973896
 20
5.6832927668
 30
0.0
 10
8.1725402469
 20
5.7188976213
 30
0.0
 10
8.1699207054
 20
5.7545527078
 30
0.0
 10
8.1693356904
 20
5.7783423246
 30
0.0
 10
8.1693356904
 20
5.7902148127
 30
0.0
  0
SPLINE
  5
2E1
100
AcDbEntity
  8
0
100
AcDbSpline
 62
7
  6
CONTINUOUS
 70
0
 71
3
 72
25
 73
21
 74
0
 42
0.0000001
 43
0.0000001
 44
0.0000000001
 40
0.0
 40
0.0
 40
0.0
 40
0.0
 40
0.0637762839
 40
0.1273436975
 40
0.190700085
 40
0.2538536198
 40
0.2853583847
 40
0.3168148883
 40
0.3795831508
 40
0.4421738332
 40
0.5045991695
 40
0.5668730861
 40
0.6290109869
 40
0.6910296434
 40
0.7220023556
 40
0.7529520811
 40
0.814787183
 40
0.8765598236
 40
0.9382904646
 40
1.0
 40
1.0
 40
1.0
 40
1.0
 10
8.1693356904
 20
8.9893613389
 30
0.0
 10
8.1693356904
 20
9.0009328711
 30
0.0
 10
8.1698895673
 20
9.0240419391
 30
0.0
 10
8.1723894129
 20
9.0585650636
 30
0.0
 10
8.1765516375
 20
9.0928141389
 30
0.0
 10
8.1814013124
 20
9.1210837752
 30
0.0
 10
8.1861021258
 20
9.1434799776
 30
0.0
 10
8.1913387149
 20
9.1656851554
 30
0.0
 10
8.1988972011
 20
9.1931285346
 30
0.0
 10
8.2095749781
 20
9.2254982266
 30
0.0
 10
8.2218296859
 20
9.2572088075
 30
0.0
 10
8.2356331289
 20
9.2881867425
 30
0.0
 10
8.2509532661
 20
9.3183602485
 30
0.0
 10
8.2649615702
 20
9.3427885526
 30
0.0
 10
8.2768878738
 20
9.3618557905
 30
0.0
 10
8.2892789962
 20
9.3805843603
 30
0.0
 10
8.3056460021
 20
9.4033717739
 30
0.0
 10
8.3266473059
 20
9.4296539228
 30
0.0
 10
8.3489553483
 20
9.4548053432
 30
0.0
 10
8.3646669733
 20
9.4707831269
 30
0.0
 10
8.3727201544
 20
9.4785618697
 30
0.0
  0
SPLINE
  5
2E2
100
AcDbEntity
  8
0
100
AcDbSpline
 62
7
  6
CONTINUOUS
 70
0
 71
3
 72
39
 73
35
 74
0
 42
0.0000001
 43
0.0000001
 44
0.0000000001
 40
0.0
 40
0.0
 40
0.0
 40
0.0
 40
0.0305998878
 40
0.0613044154
 40
0.0921098673
 40
0.1230152546
 40
0.15401669
 40
0.185110003
 40
0.21629009
 40
0.2475510332
 40
0.2788862118
 40
0.3102883266
 40
0.3417494826
 40
0.3732612642
 40
0.4048148113
 40
0.4364008971
 40
0.4680100069
 40
0.4996324263
 40
0.5312583277
 40
0.5628778529
 40
0.594481197
 40
0.6260586948
 40
0.6576009099
 40
0.689098715
 40
0.7205433717
 40
0.7519266079
 40
0.7832406959
 40
0.814478538
 40
0.8456336943
 40
0.8767004979
 40
0.9076741775
 40
0.9385502113
 40
0.9693269534
 40
1.0
 40
1.0
 40
1.0
 40
1.0
 10
13.8306643096
 20
11.2097851873
 30
0.0
 10
13.8306643096
 20
11.2216576754
 30
0.0
 10
13.8300792946
 20
11.2454472922
 30
0.0
 10
13.8274597531
 20
11.2811023787
 30
0.0
 10
13.8231026104
 20
11.3167072332
 30
0.0
 10
13.8170189206
 20
11.352174538
 30
0.0
 10
13.8092230603
 20
11.3874195638
 30
0.0
 10
13.7997339825
 20
11.4223572278
 30
0.0
 10
13.7885746201
 20
11.4569034904
 30
0.0
 10
13.7757718932
 20
11.4909751882
 30
0.0
 10
13.7613566703
 20
11.5244903083
 30
0.0
 10
13.7453636498
 20
11.5573681618
 30
0.0
 10
13.7278314061
 20
11.5895296292
 30
0.0
 10
13.708802198
 20
11.6208973185
 30
0.0
 10
13.6883218564
 20
11.6513957377
 30
0.0
 10
13.6664396726
 20
11.6809514659
 30
0.0
 10
13.6432083188
 20
11.7094933512
 30
0.0
 10
13.6186837644
 20
11.736952726
 30
0.0
 10
13.5929250516
 20
11.7632635035
 30
0.0
 10
13.5659941761
 20
11.7883623458
 30
0.0
 10
13.5379559268
 20
11.812188794
 30
0.0
 10
13.5088778054
 20
11.8346854992
 30
0.0
 10
13.4788298161
 20
11.8557983198
 30
0.0
 10
13.4478842741
 20
11.8754764147
 30
0.0
 10
13.4161156418
 20
11.8936723659
 30
0.0
 10
13.3836003638
 20
11.9103423026
 30
0.0
 10
13.3504167222
 20
11.9254461026
 30
0.0
 10
13.316644588
 20
11.9389473634
 30
0.0
 10
13.2823652561
 20
11.9508135322
 30
0.0
 10
13.2476611734
 20
11.961015963
 30
0.0
 10
13.2126161041
 20
11.9695298981
 30
0.0
 10
13.1773137792
 20
11.9763351583
 30
0.0
 10
13.1418407346
 20
11.9814146918
 30
0.0
 10
13.1180922545
 20
11.9836466398
 30
0.0
 10
13.1062198969
 20
11.9844699906
 30
0.0
  0
SPLINE
  5
2E3
100
AcDbEntity
  8
0
100
AcDbSpline
 62
7
  6
CONTINUOUS
 70
0
 71
3
 72
26
 73
22
 74
0
 42
0.0000001
 43
0.0000001
 44
0.0000000001
 40
0.0
 40
0.0
 40
0.0
 40
0.0
 40
0.0638603912
 40
0.1275011672
 40
0.1909199231
 40
0.2541235341
 40
0.285648735
 40
0.3171224533
 40
0.3799149561
 40
0.4425168286
 40
0.5049406578
 40
0.5672009721
 40
0.6293140433
 40
0.6912977487
 40
0.7222498195
 40
0.7531768941
 40
0.8149609732
 40
0.8766769996
 40
0.9075192067
 40
0.9383527946
 40
1.0
 40
1.0
 40
1.0
 40
1.0
 10
11.4158496008
 20
12.1016975688
 30
0.0
 10
11.4037567815
 20
12.1025362087
 30
0.0
 10
11.3795665699
 20
12.103608956
 30
0.0
 10
11.3433123924
 20
12.1033929247
 30
0.0
 10
11.3072394629
 20
12.101349327
 30
0.0
 10
11.2773795647
 20
12.0981248865
 30
0.0
 10
11.2536769675
 20
12.0946370838
 30
0.0
 10
11.2301488993
 20
12.0905537898
 30
0.0
 10
11.2010159561
 20
12.0843273232
 30
0.0
 10
11.1665710853
 20
12.0750702213
 30
0.0
 10
11.1327526875
 20
12.0640564409
 30
0.0
 10
11.0996463831
 20
12.0513136592
 30
0.0
 10
11.0673359771
 20
12.0368741692
 30
0.0
 10
11.0411276753
 20
12.0234501898
 30
0.0
 10
11.0206446286
 20
12.011902687
 30
0.0
 10
11.0005094627
 20
11.9998322076
 30
0.0
 10
10.9759794874
 20
11.9837570728
 30
0.0
 10
10.9523590485
 20
11.9664002058
 30
0.0
 10
10.9340567067
 20
11.9517804972
 30
0.0
 10
10.9161639255
 20
11.9366834528
 30
0.0
 10
10.9032062148
 20
11.9248238188
 30
0.0
 10
10.8947896521
 20
11.9166940776
 30
0.0
  0
SPLINE
  5
2E4
100
AcDbEntity
  8
0
100
AcDbSpline
 62
7
  6
CONTINUOUS
 70
0
 71
3
 72
49
 73
45
 74
0
 42
0.0000001
 43
0.0000001
 44
0.0000000001
 40
0.0
 40
0.0
 40
0.0
 40
0.0
 40
0.0055575652
 40
0.0111779989
 40
0.0169219414
 40
0.0228458413
 40
0.0290005862
 40
0.0354310054
 40
0.0421754419
 40
0.0492662547
 40
0.0567303348
 40
0.0645894055
 40
0.0728610837
 40
0.081559144
 40
0.0906940366
 40
0.1002736841
 40
0.1103033552
 40
0.1207863534
 40
0.131724296
 40
0.1431169483
 40
0.1549629335
 40
0.167259542
 40
0.1931868013
 40
0.2208582139
 40
0.2502183164
 40
0.281200247
 40
0.3137274299
 40
0.3477148798
 40
0.3830701696
 40
0.4196941701
 40
0.4574819135
 40
0.4963233105
 40
0.5361037302
 40
0.5767045149
 40
0.6180036379
 40
0.6598762574
 40
0.7021952159
 40
0.7448315601
 40
0.7876550186
 40
0.8305347645
 40
0.873339678
 40
0.9159378915
 40
0.9582026976
 40
1.0
 40
1.0
 40
1.0
 40
1.0
 10
9.9188074541
 20
10.7746617104
 30
0.0
 10
9.9188074608
 20
10.7739294625
 30
0.0
 10
9.91872547
 20
10.7724554103
 30
0.0
 10
9.9183575984
 20
10.7702521861
 30
0.0
 10
9.917745303
 20
10.7680538805
 30
0.0
 10
9.916889813
 20
10.765863053
 30
0.0
 10
9.9157926178
 20
10.7636814287
 30
0.0
 10
9.9144550508
 20
10.7615107587
 30
0.0
 10
9.912878749
 20
10.7593524703
 30
0.0
 10
9.9110652343
 20
10.7572080178
 30
0.0
 10
9.9090160645
 20
10.7550789168
 30
0.0
 10
9.9067330557
 20
10.7529665412
 30
0.0
 10
9.9042179908
 20
10.750872481
 30
0.0
 10
9.9014728998
 20
10.7487982723
 30
0.0
 10
9.8985000037
 20
10.7467454226
 30
0.0
 10
9.8953016128
 20
10.7447156184
 30
0.0
 10
9.8918803275
 20
10.742710379
 30
0.0
 10
9.8882388819
 20
10.7407313067
 30
0.0
 10
9.8843801798
 20
10.7387800503
 30
0.0
 10
9.8803073731
 20
10.7368581037
 30
0.0
 10
9.8760237268
 20
10.734967063
 30
0.0
 10
9.8699275498
 20
10.7324443036
 30
0.0
 10
9.861797467
 20
10.7293901439
 30
0.0
 10
9.851425656
 20
10.725933803
 30
0.0
 10
9.8403061456
 20
10.7226356771
 30
0.0
 10
9.8284751516
 20
10.7195066407
 30
0.0
 10
9.8159710727
 20
10.7165570453
 30
0.0
 10
9.8028346571
 20
10.7137966634
 30
0.0
 10
9.7891087617
 20
10.7112346567
 30
0.0
 10
9.7748382415
 20
10.7088794928
 30
0.0
 10
9.760069769
 20
10.7067389582
 30
0.0
 10
9.7448516624
 20
10.7048201376
 30
0.0
 10
9.7292337325
 20
10.7031293932
 30
0.0
 10
9.7132671238
 20
10.7016722986
 30
0.0
 10
9.697004135
 20
10.7004536608
 30
0.0
 10
9.6804980373
 20
10.6994775094
 30
0.0
 10
9.6638029038
 20
10.6987470838
 30
0.0
 10
9.6469734436
 20
10.6982647836
 30
0.0
 10
9.6300647944
 20
10.6980321893
 30
0.0
 10
9.6131323462
 20
10.6980500771
 30
0.0
 10
9.5962316964
 20
10.6983184147
 30
0.0
 10
9.5794178906
 20
10.6988362585
 30
0.0
 10
9.5627464764
 20
10.6996019799
 30
0.0
 10
9.5516909723
 20
10.7002803989
 30
0.0
 10
9.5461970825
 20
10.7006614014
 30
0.0
  0
SPLINE
  5
2E5
100
AcDbEntity
  8
0
100
AcDbSpline
 62
7
  6
CONTINUOUS
 70
0
 71
3
 72
49
 73
45
 74
0
 42
0.0000001
 43
0.0000001
 44
0.0000000001
 40
0.0
 40
0.0
 40
0.0
 40
0.0
 40
0.0055575652
 40
0.0111779989
 40
0.0169219414
 40
0.0228458413
 40
0.0290005862
 40
0.0354310054
 40
0.0421754419
 40
0.0492662547
 40
0.0567303348
 40
0.0645894055
 40
0.0728610837
 40
0.081559144
 40
0.0906940366
 40
0.1002736841
 40
0.1103033552
 40
0.1207863534
 40
0.131724296
 40
0.1431169483
 40
0.1549629335
 40
0.167259542
 40
0.1931868013
 40
0.2208582139
 40
0.2502183164
 40
0.281200247
 40
0.3137274299
 40
0.3477148798
 40
0.3830701696
 40
0.4196941701
 40
0.4574819135
 40
0.4963233105
 40
0.5361037302
 40
0.5767045149
 40
0.6180036379
 40
0.6598762574
 40
0.7021952159
 40
0.7448315601
 40
0.7876550186
 40
0.8305347645
 40
0.873339678
 40
0.9159378915
 40
0.9582026976
 40
1.0
 40
1.0
 40
1.0
 40
1.0
 10
10.7434042177
 20
11.5711610678
 30
0.0
 10
10.7434042245
 20
11.57042882
 30
0.0
 10
10.7433222336
 20
11.5689547677
 30
0.0
 10
10.742954362
 20
11.5667515436
 30
0.0
 10
10.7423420666
 20
11.564553238
 30
0.0
 10
10.7414865766
 20
11.5623624105
 30
0.0
 10
10.7403893814
 20
11.5601807862
 30
0.0
 10
10.7390518144
 20
11.5580101162
 30
0.0
 10
10.7374755126
 20
11.5558518277
 30
0.0
 10
10.7356619979
 20
11.5537073753
 30
0.0
 10
10.7336128281
 20
11.5515782742
 30
0.0
 10
10.7313298193
 20
11.5494658986
 30
0.0
 10
10.7288147544
 20
11.5473718384
 30
0.0
 10
10.7260696634
 20
11.5452976297
 30
0.0
 10
10.7230967674
 20
11.54324478
 30
0.0
 10
10.7198983764
 20
11.5412149758
 30
0.0
 10
10.7164770912
 20
11.5392097364
 30
0.0
 10
10.7128356455
 20
11.5372306641
 30
0.0
 10
10.7089769434
 20
11.5352794078
 30
0.0
 10
10.7049041367
 20
11.5333574611
 30
0.0
 10
10.7006204904
 20
11.5314664204
 30
0.0
 10
10.6945243134
 20
11.528943661
 30
0.0
 10
10.6863942306
 20
11.5258895014
 30
0.0
 10
10.6760224196
 20
11.5224331605
 30
0.0
 10
10.6649029092
 20
11.5191350345
 30
0.0
 10
10.6530719152
 20
11.5160059981
 30
0.0
 10
10.6405678363
 20
11.5130564027
 30
0.0
 10
10.6274314207
 20
11.5102960208
 30
0.0
 10
10.6137055253
 20
11.5077340142
 30
0.0
 10
10.5994350051
 20
11.5053788503
 30
0.0
 10
10.5846665326
 20
11.5032383156
 30
0.0
 10
10.569448426
 20
11.501319495
 30
0.0
 10
10.5538304961
 20
11.4996287507
 30
0.0
 10
10.5378638874
 20
11.498171656
 30
0.0
 10
10.5216008986
 20
11.4969530183
 30
0.0
 10
10.505094801
 20
11.4959768668
 30
0.0
 10
10.4883996674
 20
11.4952464412
 30
0.0
 10
10.4715702073
 20
11.494764141
 30
0.0
 10
10.4546615581
 20
11.4945315467
 30
0.0
 10
10.4377291098
 20
11.4945494345
 30
0.0
 10
10.42082846
 20
11.4948177721
 30
0.0
 10
10.4040146542
 20
11.4953356159
 30
0.0
 10
10.38734324
 20
11.4961013373
 30
0.0
 10
10.3762877359
 20
11.4967797563
 30
0.0
 10
10.3707938461
 20
11.4971607589
 30
0.0
  0
SPLINE
  5
2E6
100
AcDbEntity
  8
0
100
AcDbSpline
 62
7
  6
CONTINUOUS
 70
0
 71
3
 72
49
 73
45
 74
0
 42
0.0000001
 43
0.0000001
 44
0.0000000001
 40
0.0
 40
0.0
 40
0.0
 40
0.0
 40
0.0055575652
 40
0.0111779989
 40
0.0169219414
 40
0.0228458413
 40
0.0290005862
 40
0.0354310054
 40
0.0421754419
 40
0.0492662547
 40
0.0567303348
 40
0.0645894055
 40
0.0728610837
 40
0.081559144
 40
0.0906940366
 40
0.1002736841
 40
0.1103033552
 40
0.1207863534
 40
0.131724296
 40
0.1431169483
 40
0.1549629335
 40
0.167259542
 40
0.1931868013
 40
0.2208582139
 40
0.2502183164
 40
0.281200247
 40
0.3137274299
 40
0.3477148798
 40
0.3830701696
 40
0.4196941701
 40
0.4574819135
 40
0.4963233105
 40
0.5361037302
 40
0.5767045149
 40
0.6180036379
 40
0.6598762574
 40
0.7021952159
 40
0.7448315601
 40
0.7876550186
 40
0.8305347645
 40
0.873339678
 40
0.9159378915
 40
0.9582026976
 40
1.0
 40
1.0
 40
1.0
 40
1.0
 10
12.3336221629
 20
10.6071937416
 30
0.0
 10
12.3336221697
 20
10.6064614937
 30
0.0
 10
12.3335401788
 20
10.6049874414
 30
0.0
 10
12.3331723072
 20
10.6027842173
 30
0.0
 10
12.3325600118
 20
10.6005859117
 30
0.0
 10
12.3317045218
 20
10.5983950842
 30
0.0
 10
12.3306073266
 20
10.5962134599
 30
0.0
 10
12.3292697596
 20
10.5940427899
 30
0.0
 10
12.3276934578
 20
10.5918845014
 30
0.0
 10
12.3258799431
 20
10.589740049
 30
0.0
 10
12.3238307733
 20
10.5876109479
 30
0.0
 10
12.3215477645
 20
10.5854985723
 30
0.0
 10
12.3190326996
 20
10.5834045121
 30
0.0
 10
12.3162876086
 20
10.5813303035
 30
0.0
 10
12.3133147126
 20
10.5792774537
 30
0.0
 10
12.3101163216
 20
10.5772476496
 30
0.0
 10
12.3066950364
 20
10.5752424101
 30
0.0
 10
12.3030535907
 20
10.5732633378
 30
0.0
 10
12.2991948886
 20
10.5713120815
 30
0.0
 10
12.2951220819
 20
10.5693901348
 30
0.0
 10
12.2908384356
 20
10.5674990941
 30
0.0
 10
12.2847422586
 20
10.5649763347
 30
0.0
 10
12.2766121758
 20
10.5619221751
 30
0.0
 10
12.2662403648
 20
10.5584658342
 30
0.0
 10
12.2551208544
 20
10.5551677082
 30
0.0
 10
12.2432898604
 20
10.5520386718
 30
0.0
 10
12.2307857815
 20
10.5490890764
 30
0.0
 10
12.2176493659
 20
10.5463286945
 30
0.0
 10
12.2039234705
 20
10.5437666879
 30
0.0
 10
12.1896529503
 20
10.541411524
 30
0.0
 10
12.1748844778
 20
10.5392709893
 30
0.0
 10
12.1596663712
 20
10.5373521687
 30
0.0
 10
12.1440484413
 20
10.5356614244
 30
0.0
 10
12.1280818326
 20
10.5342043297
 30
0.0
 10
12.1118188438
 20
10.532985692
 30
0.0
 10
12.0953127462
 20
10.5320095406
 30
0.0
 10
12.0786176126
 20
10.5312791149
 30
0.0
 10
12.0617881525
 20
10.5307968147
 30
0.0
 10
12.0448795033
 20
10.5305642204
 30
0.0
 10
12.027947055
 20
10.5305821082
 30
0.0
 10
12.0110464052
 20
10.5308504458
 30
0.0
 10
11.9942325994
 20
10.5313682896
 30
0.0
 10
11.9775611852
 20
10.5321340111
 30
0.0
 10
11.9665056811
 20
10.53281243
 30
0.0
 10
11.9610117913
 20
10.5331934326
 30
0.0
  0
SPLINE
  5
2E7
100
AcDbEntity
  8
0
100
AcDbSpline
 62
7
  6
CONTINUOUS
 70
0
 71
3
 72
49
 73
45
 74
0
 42
0.0000001
 43
0.0000001
 44
0.0000000001
 40
0.0
 40
0.0
 40
0.0
 40
0.0
 40
0.0055575652
 40
0.0111779989
 40
0.0169219414
 40
0.0228458413
 40
0.0290005862
 40
0.0354310054
 40
0.0421754419
 40
0.0492662547
 40
0.0567303348
 40
0.0645894055
 40
0.0728610837
 40
0.081559144
 40
0.0906940366
 40
0.1002736841
 40
0.1103033552
 40
0.1207863534
 40
0.131724296
 40
0.1431169483
 40
0.1549629335
 40
0.167259542
 40
0.1931868013
 40
0.2208582139
 40
0.2502183164
 40
0.281200247
 40
0.3137274299
 40
0.3477148798
 40
0.3830701696
 40
0.4196941701
 40
0.4574819135
 40
0.4963233105
 40
0.5361037302
 40
0.5767045149
 40
0.6180036379
 40
0.6598762574
 40
0.7021952159
 40
0.7448315601
 40
0.7876550186
 40
0.8305347645
 40
0.873339678
 40
0.9159378915
 40
0.9582026976
 40
1.0
 40
1.0
 40
1.0
 40
1.0
 10
13.1582189265
 20
11.403693099
 30
0.0
 10
13.1582189333
 20
11.4029608511
 30
0.0
 10
13.1581369424
 20
11.4014867988
 30
0.0
 10
13.1577690708
 20
11.3992835747
 30
0.0
 10
13.1571567754
 20
11.3970852691
 30
0.0
 10
13.1563012854
 20
11.3948944416
 30
0.0
 10
13.1552040902
 20
11.3927128173
 30
0.0
 10
13.1538665232
 20
11.3905421473
 30
0.0
 10
13.1522902214
 20
11.3883838588
 30
0.0
 10
13.1504767067
 20
11.3862394064
 30
0.0
 10
13.1484275369
 20
11.3841103054
 30
0.0
 10
13.1461445281
 20
11.3819979298
 30
0.0
 10
13.1436294632
 20
11.3799038695
 30
0.0
 10
13.1408843722
 20
11.3778296609
 30
0.0
 10
13.1379114762
 20
11.3757768112
 30
0.0
 10
13.1347130852
 20
11.373747007
 30
0.0
 10
13.1312918
 20
11.3717417675
 30
0.0
 10
13.1276503543
 20
11.3697626953
 30
0.0
 10
13.1237916522
 20
11.3678114389
 30
0.0
 10
13.1197188455
 20
11.3658894922
 30
0.0
 10
13.1154351992
 20
11.3639984516
 30
0.0
 10
13.1093390222
 20
11.3614756922
 30
0.0
 10
13.1012089394
 20
11.3584215325
 30
0.0
 10
13.0908371284
 20
11.3549651916
 30
0.0
 10
13.079717618
 20
11.3516670656
 30
0.0
 10
13.067886624
 20
11.3485380293
 30
0.0
 10
13.0553825451
 20
11.3455884338
 30
0.0
 10
13.0422461295
 20
11.3428280519
 30
0.0
 10
13.0285202341
 20
11.3402660453
 30
0.0
 10
13.0142497139
 20
11.3379108814
 30
0.0
 10
12.9994812414
 20
11.3357703468
 30
0.0
 10
12.9842631348
 20
11.3338515262
 30
0.0
 10
12.9686452049
 20
11.3321607818
 30
0.0
 10
12.9526785962
 20
11.3307036871
 30
0.0
 10
12.9364156074
 20
11.3294850494
 30
0.0
 10
12.9199095098
 20
11.328508898
 30
0.0
 10
12.9032143763
 20
11.3277784723
 30
0.0
 10
12.8863849161
 20
11.3272961721
 30
0.0
 10
12.8694762669
 20
11.3270635778
 30
0.0
 10
12.8525438186
 20
11.3270814657
 30
0.0
 10
12.8356431688
 20
11.3273498032
 30
0.0
 10
12.818829363
 20
11.3278676471
 30
0.0
 10
12.8021579488
 20
11.3286333685
 30
0.0
 10
12.7911024447
 20
11.3293117875
 30
0.0
 10
12.7856085549
 20
11.32969279
 30
0.0
  0
SPLINE
  5
2E8
100
AcDbEntity
  8
0
100
AcDbSpline
 62
7
  6
CONTINUOUS
 70
0
 71
3
 72
15
 73
11
 74
0
 42
0.0000001
 43
0.0000001
 44
0.0000000001
 40
0.0
 40
0.0
 40
0.0
 40
0.0
 40
0.1096516674
 40
0.2221903866
 40
0.3384792516
 40
0.4592933036
 40
0.5853157988
 40
0.7171352315
 40
0.8552311763
 40
1.0
 40
1.0
 40
1.0
 40
1.0
 10
10.6815795655
 20
11.1421188324
 30
0.0
 10
10.6814685549
 20
11.1415554861
 30
0.0
 10
10.6811867388
 20
11.140424452
 30
0.0
 10
10.6805976197
 20
11.1387503323
 30
0.0
 10
10.6798382594
 20
11.1370818673
 30
0.0
 10
10.6789095756
 20
11.1354203398
 30
0.0
 10
10.6778123662
 20
11.1337666876
 30
0.0
 10
10.6765474782
 20
11.1321220046
 30
0.0
 10
10.6751161747
 20
11.1304873405
 30
0.0
 10
10.6740770047
 20
11.1294306183
 30
0.0
 10
10.6735317615
 20
11.1289039538
 30
0.0
  0
SPLINE
  5
2E9
100
AcDbEntity
  8
0
100
AcDbSpline
 62
7
  6
CONTINUOUS
 70
0
 71
3
 72
20
 73
16
 74
0
 42
0.0000001
 43
0.0000001
 44
0.0000000001
 40
0.0
 40
0.0
 40
0.0
 40
0.0
 40
0.0589181585
 40
0.1166822313
 40
0.1736371012
 40
0.2301466373
 40
0.2865863679
 40
0.3433360123
 40
0.4007698357
 40
0.4592488782
 40
0.5191154956
 40
0.5806883624
 40
0.7100179714
 40
0.8492977459
 40
1.0
 40
1.0
 40
1.0
 40
1.0
 10
11.692084001
 20
11.2720573855
 30
0.0
 10
11.6922414542
 20
11.2716136847
 30
0.0
 10
11.692520663
 20
11.2707229297
 30
0.0
 10
11.692829955
 20
11.2693688397
 30
0.0
 10
11.6930243895
 20
11.2680128394
 30
0.0
 10
11.6931035599
 20
11.266655837
 30
0.0
 10
11.6930671303
 20
11.2652986347
 30
0.0
 10
11.6929148062
 20
11.2639421061
 30
0.0
 10
11.6926466244
 20
11.2625870936
 30
0.0
 10
11.6922627111
 20
11.2612344045
 30
0.0
 10
11.6917631606
 20
11.2598847555
 30
0.0
 10
11.6909297248
 20
11.2580607137
 30
0.0
 10
11.6895803426
 20
11.2557835794
 30
0.0
 10
11.6875313577
 20
11.2531242301
 30
0.0
 10
11.6859316719
 20
11.2514419821
 30
0.0
 10
11.6850655107
 20
11.2506053346
 30
0.0
  0
SPLINE
  5
2EA
100
AcDbEntity
  8
0
100
AcDbSpline
 62
7
  6
CONTINUOUS
 70
0
 71
3
 72
49
 73
45
 74
0
 42
0.0000001
 43
0.0000001
 44
0.0000000001
 40
0.0
 40
0.0
 40
0.0
 40
0.0
 40
0.0055575494
 40
0.0111780127
 40
0.016921981
 40
0.02284591
 40
0.0290007711
 40
0.0354312177
 40
0.0421757498
 40
0.0492667027
 40
0.0567307994
 40
0.0645900305
 40
0.0728618107
 40
0.0815599039
 40
0.0906949877
 40
0.1002746759
 40
0.110304423
 40
0.1207875892
 40
0.1317255293
 40
0.1431183046
 40
0.1549643931
 40
0.1672609915
 40
0.1931884293
 40
0.2208599832
 40
0.2502201094
 40
0.2812020715
 40
0.3137293329
 40
0.3477168071
 40
0.3830720369
 40
0.419696003
 40
0.4574837207
 40
0.4963250438
 40
0.5361053464
 40
0.5767060331
 40
0.6180050468
 40
0.659877527
 40
0.702196338
 40
0.7448325357
 40
0.7876558238
 40
0.8305354397
 40
0.8733401576
 40
0.9159381478
 40
0.9582030408
 40
1.0
 40
1.0
 40
1.0
 40
1.0
 10
12.3060815746
 20
11.0330234211
 30
0.0
 10
12.3060815674
 20
11.0324049716
 30
0.0
 10
12.30601232
 20
11.0311599934
 30
0.0
 10
12.3057014616
 20
11.0292991862
 30
0.0
 10
12.3051842788
 20
11.0274425201
 30
0.0
 10
12.3044617033
 20
11.025592152
 30
0.0
 10
12.3035348804
 20
11.0237496177
 30
0.0
 10
12.3024051777
 20
11.0219162588
 30
0.0
 10
12.3010737645
 20
11.020093402
 30
0.0
 10
12.2995419937
 20
11.0182822548
 30
0.0
 10
12.297811271
 20
11.0164839905
 30
0.0
 10
12.2958829661
 20
11.0146999448
 30
0.0
 10
12.2937587126
 20
11.0129313257
 30
0.0
 10
12.2914401997
 20
11.0111794399
 30
0.0
 10
12.2889292337
 20
11.0094456807
 30
0.0
 10
12.2862278691
 20
11.0077313024
 30
0.0
 10
12.2833382336
 20
11.0060376994
 30
0.0
 10
12.2802626379
 20
11.0043662385
 30
0.0
 10
12.2770035854
 20
11.0027181908
 30
0.0
 10
12.2735636766
 20
11.0010949653
 30
0.0
 10
12.2699457047
 20
10.9994978264
 30
0.0
 10
12.2647968908
 20
10.9973671067
 30
0.0
 10
12.2579302244
 20
10.9947876365
 30
0.0
 10
12.2491702175
 20
10.9918684663
 30
0.0
 10
12.239778732
 20
10.9890829062
 30
0.0
 10
12.2297863383
 20
10.9864401648
 30
0.0
 10
12.2192254588
 20
10.9839489947
 30
0.0
 10
12.2081305254
 20
10.9816176257
 30
0.0
 10
12.1965377387
 20
10.9794537831
 30
0.0
 10
12.1844849692
 20
10.977464652
 30
0.0
 10
12.1720116339
 20
10.9756568014
 30
0.0
 10
12.1591585518
 20
10.9740362013
 30
0.0
 10
12.1459677917
 20
10.9726082179
 30
0.0
 10
12.1324825427
 20
10.971377587
 30
0.0
 10
12.1187469761
 20
10.9703483547
 30
0.0
 10
12.1048060879
 20
10.9695239169
 30
0.0
 10
12.0907055458
 20
10.9689070093
 30
0.0
 10
12.0764915556
 20
10.9684996758
 30
0.0
 10
12.0622106813
 20
10.9683032375
 30
0.0
 10
12.0479097121
 20
10.9683183505
 30
0.0
 10
12.0336356055
 20
10.9685449869
 30
0.0
 10
12.0194348227
 20
10.9689823568
 30
0.0
 10
12.0053543193
 20
10.969629083
 30
0.0
 10
11.9960169482
 20
10.9702020668
 30
0.0
 10
11.9913768863
 20
10.9705238562
 30
0.0
  0
SPLINE
  5
2EB
100
AcDbEntity
  8
0
100
AcDbSpline
 62
7
  6
CONTINUOUS
 70
0
 71
3
 72
49
 73
45
 74
0
 42
0.0000001
 43
0.0000001
 44
0.0000000001
 40
0.0
 40
0.0
 40
0.0
 40
0.0
 40
0.0056661087
 40
0.0114309139
 40
0.0173445378
 40
0.0234528627
 40
0.0297968221
 40
0.0364122376
 40
0.0433300259
 40
0.0505763328
 40
0.0581731012
 40
0.066138625
 40
0.0744877654
 40
0.0832325967
 40
0.09238283
 40
0.1019458619
 40
0.1119273451
 40
0.1223314113
 40
0.1331605774
 40
0.1444162647
 40
0.1560988467
 40
0.1682074886
 40
0.1936946885
 40
0.2208570069
 40
0.2496608182
 40
0.28006224
 40
0.3120079115
 40
0.3454357611
 40
0.3802751724
 40
0.4164468902
 40
0.453863441
 40
0.492429252
 40
0.5320405007
 40
0.5725853085
 40
0.6139442034
 40
0.6559904222
 40
0.6985902322
 40
0.7416037281
 40
0.7848856463
 40
0.8282864517
 40
0.8716534598
 40
0.9148306723
 40
0.9576660725
 40
1.0
 40
1.0
 40
1.0
 40
1.0
 10
11.3073468267
 20
10.9097685249
 30
0.0
 10
11.3072927953
 20
10.9091305368
 30
0.0
 10
11.3071174441
 20
10.9078481655
 30
0.0
 10
11.3066594418
 20
10.9059394672
 30
0.0
 10
11.3060060838
 20
10.9040356451
 30
0.0
 10
11.3051585314
 20
10.9021384319
 30
0.0
 10
11.3041180912
 20
10.9002490093
 30
0.0
 10
11.3028860414
 20
10.8983685368
 30
0.0
 10
11.3014635602
 20
10.8964981553
 30
0.0
 10
11.2998519343
 20
10.8946389204
 30
0.0
 10
11.2980524201
 20
10.8927919126
 30
0.0
 10
11.2960662625
 20
10.8909582918
 30
0.0
 10
11.2938948431
 20
10.8891391537
 30
0.0
 10
11.2915395654
 20
10.8873356552
 30
0.0
 10
11.2890018843
 20
10.8855490173
 30
0.0
 10
11.2862833984
 20
10.8837803889
 30
0.0
 10
11.2833857544
 20
10.8820309811
 30
0.0
 10
11.2803106797
 20
10.8803020433
 30
0.0
 10
11.2770600388
 20
10.8785947468
 30
0.0
 10
11.2736357603
 20
10.8769103329
 30
0.0
 10
11.2700398638
 20
10.8752500297
 30
0.0
 10
11.2649317276
 20
10.8730320544
 30
0.0
 10
11.2581260556
 20
10.8703369366
 30
0.0
 10
11.2494454934
 20
10.8672710463
 30
0.0
 10
11.2401378061
 20
10.8643302348
 30
0.0
 10
11.2302258834
 20
10.861524108
 30
0.0
 10
11.2197344828
 20
10.858862159
 30
0.0
 10
11.2086905742
 20
10.8563537645
 30
0.0
 10
11.1971233804
 20
10.8540081246
 30
0.0
 10
11.1850645103
 20
10.8518341648
 30
0.0
 10
11.1725480119
 20
10.8498405376
 30
0.0
 10
11.1596104278
 20
10.8480355596
 30
0.0
 10
11.1462908579
 20
10.8464271056
 30
0.0
 10
11.1326309616
 20
10.8450225293
 30
0.0
 10
11.1186748936
 20
10.8438286124
 30
0.0
 10
11.1044692212
 20
10.8428514778
 30
0.0
 10
11.0900627978
 20
10.8420964606
 30
0.0
 10
11.0755065659
 20
10.8415680363
 30
0.0
 10
11.0608532723
 20
10.8412697491
 30
0.0
 10
11.0461571394
 20
10.8412041422
 30
0.0
 10
11.0314736554
 20
10.8413726863
 30
0.0
 10
11.0168586236
 20
10.8417756294
 30
0.0
 10
11.002368779
 20
10.8424121967
 30
0.0
 10
10.9927617355
 20
10.8429950101
 30
0.0
 10
10.9879894513
 20
10.8433259691
 30
0.0
  0
SPLINE
  5
2EC
100
AcDbEntity
  8
0
100
AcDbSpline
 62
7
  6
CONTINUOUS
 70
0
 71
3
 72
39
 73
35
 74
0
 42
0.0000001
 43
0.0000001
 44
0.0000000001
 40
0.0
 40
0.0
 40
0.0
 40
0.0
 40
0.0055577586
 40
0.0111783654
 40
0.0169224615
 40
0.0228465493
 40
0.0354202971
 40
0.0421649593
 40
0.0492559747
 40
0.0567201248
 40
0.0645794678
 40
0.072851386
 40
0.0815495594
 40
0.0906847526
 40
0.1002646826
 40
0.1207751622
 40
0.1431043256
 40
0.1672459648
 40
0.193173928
 40
0.2208463125
 40
0.2502072694
 40
0.2811901547
 40
0.3137184682
 40
0.3477069902
 40
0.3830634975
 40
0.4196887183
 40
0.4574777258
 40
0.4963205319
 40
0.576701635
 40
0.6598737369
 40
0.7448295884
 40
0.8305338314
 40
0.9159369972
 40
1.0
 40
1.0
 40
1.0
 40
1.0
 10
11.3727719852
 20
11.0894274305
 30
0.0
 10
11.3727719928
 20
11.0891058342
 30
0.0
 10
11.3727359964
 20
11.0884584428
 30
0.0
 10
11.3725744702
 20
11.0874908177
 30
0.0
 10
11.3723055734
 20
11.0865252942
 30
0.0
 10
11.3717946773
 20
11.0852168038
 30
0.0
 10
11.3710702116
 20
11.0839384594
 30
0.0
 10
11.3701683827
 20
11.0827038548
 30
0.0
 10
11.3693718477
 20
11.0817619035
 30
0.0
 10
11.3684719471
 20
11.0808268276
 30
0.0
 10
11.3674692629
 20
11.0798991027
 30
0.0
 10
11.3663646894
 20
11.0789794162
 30
0.0
 10
11.3651591104
 20
11.0780684177
 30
0.0
 10
11.3638534496
 20
11.0771668274
 30
0.0
 10
11.3619366034
 20
11.075950399
 30
0.0
 10
11.3592894753
 20
11.0744645742
 30
0.0
 10
11.3558023405
 20
11.0727687922
 30
0.0
 10
11.3519464753
 20
11.0711270065
 30
0.0
 10
11.3477342353
 20
11.0695445166
 30
0.0
 10
11.3431789931
 20
11.0680265445
 30
0.0
 10
11.3382954501
 20
11.0665780172
 30
0.0
 10
11.3330994055
 20
11.0652037619
 30
0.0
 10
11.3276077463
 20
11.0639083357
 30
0.0
 10
11.3218383689
 20
11.062695982
 30
0.0
 10
11.3158100954
 20
11.0615707742
 30
0.0
 10
11.3095426294
 20
11.0605364045
 30
0.0
 10
11.3030564516
 20
11.0595962692
 30
0.0
 10
11.2940419286
 20
11.0584597436
 30
0.0
 10
11.2823850978
 20
11.0573040942
 30
0.0
 10
11.2680348573
 20
11.0563475449
 30
0.0
 10
11.2533543001
 20
11.0558189483
 30
0.0
 10
11.2385354721
 20
11.0557253712
 30
0.0
 10
11.2237721159
 20
11.0560680336
 30
0.0
 10
11.2139781439
 20
11.0565905167
 30
0.0
 10
11.2091255448
 20
11.0569270456
 30
0.0
  0
SPLINE
  5
2ED
100
AcDbEntity
  8
0
100
AcDbSpline
 62
7
  6
CONTINUOUS
 70
0
 71
3
 72
42
 73
38
 74
0
 42
0.0000001
 43
0.0000001
 44
0.0000000001
 40
0.0
 40
0.0
 40
0.0
 40
0.0
 40
0.0055576372
 40
0.0111781844
 40
0.0169222645
 40
0.0228462606
 40
0.0290011924
 40
0.0354318012
 40
0.0421763813
 40
0.0492674042
 40
0.0567317137
 40
0.0645909869
 40
0.0728628518
 40
0.0815611869
 40
0.0906963311
 40
0.100276129
 40
0.1103061204
 40
0.1207893916
 40
0.143118388
 40
0.1672597522
 40
0.1931876351
 40
0.2208595732
 40
0.2502201712
 40
0.2812026868
 40
0.313730372
 40
0.3477184148
 40
0.3830742697
 40
0.4196987506
 40
0.4574871018
 40
0.4963290675
 40
0.5361099938
 40
0.5767113608
 40
0.6598816138
 40
0.7448355482
 40
0.8305377415
 40
0.9159389833
 40
1.0
 40
1.0
 40
1.0
 40
1.0
 10
9.9254474831
 20
10.948304574
 30
0.0
 10
9.9254474795
 20
10.9479186615
 30
0.0
 10
9.925404284
 20
10.9471417954
 30
0.0
 10
9.925210324
 20
10.9459806461
 30
0.0
 10
9.9248875704
 20
10.9448220963
 30
0.0
 10
9.9244367135
 20
10.9436674591
 30
0.0
 10
9.9238583941
 20
10.9425177055
 30
0.0
 10
9.9231534211
 20
10.9413737157
 30
0.0
 10
9.9223226534
 20
10.9402362337
 30
0.0
 10
9.9213668414
 20
10.9391060647
 30
0.0
 10
9.9202868379
 20
10.9379839826
 30
0.0
 10
9.9190836052
 20
10.9368707112
 30
0.0
 10
9.9177580793
 20
10.9357670832
 30
0.0
 10
9.9163113054
 20
10.9346739391
 30
0.0
 10
9.9147444829
 20
10.9335920467
 30
0.0
 10
9.9130588376
 20
10.9325222723
 30
0.0
 10
9.9112556923
 20
10.931465473
 30
0.0
 10
9.9086414625
 20
10.9300447861
 30
0.0
 10
9.9050828655
 20
10.9283144624
 30
0.0
 10
9.9004559405
 20
10.9263443411
 30
0.0
 10
9.8954011567
 20
10.924445427
 30
0.0
 10
9.889934862
 20
10.9226238572
 30
0.0
 10
9.8840745902
 20
10.9208856637
 30
0.0
 10
9.8778393294
 20
10.9192366083
 30
0.0
 10
9.871249347
 20
10.9176820953
 30
0.0
 10
9.8643261065
 20
10.9162273246
 30
0.0
 10
9.857092203
 20
10.9148770996
 30
0.0
 10
9.8495712756
 20
10.9136358613
 30
0.0
 10
9.8417879123
 20
10.9125077677
 30
0.0
 10
9.8337675879
 20
10.91149652
 30
0.0
 10
9.8255365372
 20
10.9106054328
 30
0.0
 10
9.8142262861
 20
10.9095733719
 30
0.0
 10
9.7997621996
 20
10.9086094027
 30
0.0
 10
9.7821458106
 20
10.9079750632
 30
0.0
 10
9.764363345
 20
10.9078627969
 30
0.0
 10
9.7466474938
 20
10.9082739952
 30
0.0
 10
9.7348948329
 20
10.9089009704
 30
0.0
 10
9.7290717704
 20
10.9093048012
 30
0.0
  0
SPLINE
  5
2EE
100
AcDbEntity
  8
0
100
AcDbSpline
 62
7
  6
CONTINUOUS
 70
0
 71
3
 72
39
 73
35
 74
0
 42
0.0000001
 43
0.0000001
 44
0.0000000001
 40
0.0
 40
0.0
 40
0.0
 40
0.0
 40
0.0055577586
 40
0.0111783654
 40
0.0169224615
 40
0.0228465493
 40
0.0354202971
 40
0.0421649593
 40
0.0492559747
 40
0.0567201248
 40
0.0645794678
 40
0.072851386
 40
0.0815495594
 40
0.0906847526
 40
0.1002646826
 40
0.1207751622
 40
0.1431043256
 40
0.1672459648
 40
0.193173928
 40
0.2208463125
 40
0.2502072694
 40
0.2811901547
 40
0.3137184682
 40
0.3477069902
 40
0.3830634975
 40
0.4196887183
 40
0.4574777258
 40
0.4963205319
 40
0.576701635
 40
0.6598737369
 40
0.7448295884
 40
0.8305338314
 40
0.9159369972
 40
1.0
 40
1.0
 40
1.0
 40
1.0
 10
10.3689448944
 20
11.4018048661
 30
0.0
 10
10.3689449019
 20
11.4014832698
 30
0.0
 10
10.3689089055
 20
11.4008358784
 30
0.0
 10
10.3687473793
 20
11.3998682534
 30
0.0
 10
10.3684784825
 20
11.3989027298
 30
0.0
 10
10.3679675865
 20
11.3975942394
 30
0.0
 10
10.3672431207
 20
11.396315895
 30
0.0
 10
10.3663412918
 20
11.3950812904
 30
0.0
 10
10.3655447569
 20
11.3941393391
 30
0.0
 10
10.3646448562
 20
11.3932042632
 30
0.0
 10
10.363642172
 20
11.3922765383
 30
0.0
 10
10.3625375985
 20
11.3913568518
 30
0.0
 10
10.3613320195
 20
11.3904458533
 30
0.0
 10
10.3600263587
 20
11.389544263
 30
0.0
 10
10.3581095125
 20
11.3883278346
 30
0.0
 10
10.3554623845
 20
11.3868420098
 30
0.0
 10
10.3519752496
 20
11.3851462278
 30
0.0
 10
10.3481193844
 20
11.3835044421
 30
0.0
 10
10.3439071445
 20
11.3819219522
 30
0.0
 10
10.3393519022
 20
11.3804039801
 30
0.0
 10
10.3344683593
 20
11.3789554528
 30
0.0
 10
10.3292723146
 20
11.3775811975
 30
0.0
 10
10.3237806555
 20
11.3762857713
 30
0.0
 10
10.318011278
 20
11.3750734176
 30
0.0
 10
10.3119830045
 20
11.3739482099
 30
0.0
 10
10.3057155386
 20
11.3729138401
 30
0.0
 10
10.2992293607
 20
11.3719737048
 30
0.0
 10
10.2902148377
 20
11.3708371792
 30
0.0
 10
10.278558007
 20
11.3696815298
 30
0.0
 10
10.2642077665
 20
11.3687249805
 30
0.0
 10
10.2495272093
 20
11.3681963839
 30
0.0
 10
10.2347083813
 20
11.3681028068
 30
0.0
 10
10.219945025
 20
11.3684454692
 30
0.0
 10
10.2101510531
 20
11.3689679523
 30
0.0
 10
10.2052984539
 20
11.3693044812
 30
0.0
  0
SPLINE
  5
2EF
100
AcDbEntity
  8
0
100
AcDbSpline
 62
7
  6
CONTINUOUS
 70
0
 71
3
 72
53
 73
49
 74
0
 42
0.0000001
 43
0.0000001
 44
0.0000000001
 40
0.0
 40
0.0
 40
0.0
 40
0.0
 40
0.0311343605
 40
0.062436383
 40
0.0938993273
 40
0.125512407
 40
0.1572621303
 40
0.1891322824
 40
0.2211043164
 40
0.253157743
 40
0.2852705286
 40
0.3174195275
 40
0.3495809165
 40
0.3817306422
 40
0.4138448686
 40
0.4459004216
 40
0.4778752298
 40
0.5097487479
 40
0.5415023689
 40
0.5731197998
 40
0.5888755438
 40
0.6045923763
 40
0.6202690672
 40
0.6359045847
 40
0.6514981138
 40
0.6670490555
 40
0.6825570276
 40
0.6980218837
 40
0.7134437033
 40
0.7288227942
 40
0.7441597044
 40
0.7594552076
 40
0.7747103105
 40
0.7899262489
 40
0.8051044738
 40
0.8202466582
 40
0.8353546836
 40
0.8504306246
 40
0.8654767494
 40
0.8804955033
 40
0.8954894938
 40
0.910461466
 40
0.9254143183
 40
0.9403511017
 40
0.955274769
 40
0.9701885444
 40
0.9850964147
 40
1.0
 40
1.0
 40
1.0
 40
1.0
 10
9.7397790135
 20
7.0571333636
 30
0.0
 10
9.7607785215
 20
7.0556770428
 30
0.0
 10
9.8027995662
 20
7.0512184113
 30
0.0
 10
9.86533563
 20
7.039985158
 30
0.0
 10
9.9272289202
 20
7.0242452411
 30
0.0
 10
9.9881425269
 20
7.0040808601
 30
0.0
 10
10.0477498317
 20
6.9795982957
 30
0.0
 10
10.105729696
 20
6.9509274121
 30
0.0
 10
10.1617699788
 20
6.9182208528
 30
0.0
 10
10.2155687829
 20
6.8816532575
 30
0.0
 10
10.2668364091
 20
6.8414204716
 30
0.0
 10
10.3152968503
 20
6.7977383146
 30
0.0
 10
10.3606892966
 20
6.7508413683
 30
0.0
 10
10.4027696636
 20
6.7009817756
 30
0.0
 10
10.4413119882
 20
6.648427875
 30
0.0
 10
10.4761095651
 20
6.5934625326
 30
0.0
 10
10.5069760278
 20
6.5363818439
 30
0.0
 10
10.5337467523
 20
6.4774926607
 30
0.0
 10
10.5562788658
 20
6.4171141608
 30
0.0
 10
10.5714435303
 20
6.3657605495
 30
0.0
 10
10.5813400418
 20
6.3242617779
 30
0.0
 10
10.58763173
 20
6.2930040413
 30
0.0
 10
10.5927922126
 20
6.2616224891
 30
0.0
 10
10.5968149431
 20
6.2301587919
 30
0.0
 10
10.5996949995
 20
6.1986553502
 30
0.0
 10
10.6014289231
 20
6.167154392
 30
0.0
 10
10.6020146874
 20
6.1356981486
 30
0.0
 10
10.6014520867
 20
6.1043287434
 30
0.0
 10
10.5997422258
 20
6.0730881321
 30
0.0
 10
10.5968877784
 20
6.0420180611
 30
0.0
 10
10.5928931343
 20
6.0111599773
 30
0.0
 10
10.5877639297
 20
5.9805550197
 30
0.0
 10
10.5815074675
 20
5.9502439239
 30
0.0
 10
10.5741325964
 20
5.9202669589
 30
0.0
 10
10.5656493918
 20
5.8906639576
 30
0.0
 10
10.556069634
 20
5.8614741429
 30
0.0
 10
10.5454064467
 20
5.8327361525
 30
0.0
 10
10.5336742093
 20
5.8044880448
 30
0.0
 10
10.5208889533
 20
5.7767670799
 30
0.0
 10
10.5070678658
 20
5.7496098556
 30
0.0
 10
10.4922294497
 20
5.7230522241
 30
0.0
 10
10.4763937165
 20
5.6971290916
 30
0.0
 10
10.4595816862
 20
5.6718746245
 30
0.0
 10
10.4418157426
 20
5.6473221313
 30
0.0
 10
10.4231197023
 20
5.62350386
 30
0.0
 10
10.4035178182
 20
5.600450801
 30
0.0
 10
10.383036745
 20
5.5781942799
 30
0.0
 10
10.3688130438
 20
5.5639051817
 30
0.0
 10
10.3615656073
 20
5.5569046952
 30
0.0
  0
SPLINE
  5
2F0
100
AcDbEntity
  8
0
100
AcDbSpline
 62
7
  6
CONTINUOUS
 70
0
 71
3
 72
27
 73
23
 74
0
 42
0.0000001
 43
0.0000001
 44
0.0000000001
 40
0.0
 40
0.0
 40
0.0
 40
0.0
 40
0.0615541397
 40
0.0923430749
 40
0.1231405217
 40
0.1847713266
 40
0.2464782822
 40
0.2773703156
 40
0.3082901532
 40
0.3702188692
 40
0.4322912183
 40
0.4945269425
 40
0.5569439367
 40
0.6195580976
 40
0.6823831842
 40
0.7138810917
 40
0.7454358259
 40
0.8087148915
 40
0.8722316814
 40
0.9040832702
 40
0.9359968279
 40
1.0
 40
1.0
 40
1.0
 40
1.0
 10
9.1235271449
 20
6.8386163499
 30
0.0
 10
9.1334649408
 20
6.8482155241
 30
0.0
 10
9.1487653288
 20
6.8622186892
 30
0.0
 10
9.1698933657
 20
6.8800442952
 30
0.0
 10
9.1915067974
 20
6.8973068505
 30
0.0
 10
9.2194027795
 20
6.9178022163
 30
0.0
 10
9.2483751249
 20
6.936784265
 30
0.0
 10
9.2721594873
 20
6.9510384444
 30
0.0
 10
9.2963592157
 20
6.964677031
 30
0.0
 10
9.3273281225
 20
6.9805336002
 30
0.0
 10
9.3655142988
 20
6.9975914623
 30
0.0
 10
9.4046510183
 20
7.0126475585
 30
0.0
 10
9.4446405607
 20
7.0256631622
 30
0.0
 10
9.4853828677
 20
7.036604918
 30
0.0
 10
9.5198498932
 20
7.0439651848
 30
0.0
 10
9.547692359
 20
7.0487929005
 30
0.0
 10
9.5757507523
 20
7.0529173194
 30
0.0
 10
9.6111065034
 20
7.0567305784
 30
0.0
 10
9.6466767796
 20
7.0587418097
 30
0.0
 10
9.6752450524
 20
7.0592724772
 30
0.0
 10
9.7039262116
 20
7.0590822457
 30
0.0
 10
9.725446914
 20
7.0581272981
 30
0.0
 10
9.7397790135
 20
7.0571333636
 30
0.0
  0
SPLINE
  5
2F1
100
AcDbEntity
  8
0
100
AcDbSpline
 62
7
  6
CONTINUOUS
 70
0
 71
3
 72
27
 73
23
 74
0
 42
0.0000001
 43
0.0000001
 44
0.0000000001
 40
0.0
 40
0.0
 40
0.0
 40
0.0
 40
0.0616468912
 40
0.0924803241
 40
0.1233223729
 40
0.1850380881
 40
0.2468218578
 40
0.2777487744
 40
0.3087006913
 40
0.3706840809
 40
0.4327968328
 40
0.4950568287
 40
0.5574803458
 40
0.6200818975
 40
0.6828740978
 40
0.7143476641
 40
0.7458726855
 40
0.8090759358
 40
0.8724945777
 40
0.9042888408
 40
0.9361395977
 40
1.0
 40
1.0
 40
1.0
 40
1.0
 10
8.5854474656
 20
8.8827907204
 30
0.0
 10
8.5945373391
 20
8.8915708714
 30
0.0
 10
8.6085317139
 20
8.9043792488
 30
0.0
 10
8.6278558674
 20
8.9206841502
 30
0.0
 10
8.6476224322
 20
8.9364734285
 30
0.0
 10
8.6731324844
 20
8.9552189208
 30
0.0
 10
8.6996248717
 20
8.9725801031
 30
0.0
 10
8.7213708926
 20
8.985616197
 30
0.0
 10
8.7434925867
 20
8.9980875398
 30
0.0
 10
8.7717975907
 20
9.0125854255
 30
0.0
 10
8.8066928395
 20
9.0281801278
 30
0.0
 10
8.842447663
 20
9.0419423895
 30
0.0
 10
8.8789715581
 20
9.0538373048
 30
0.0
 10
8.9161720533
 20
9.0638349948
 30
0.0
 10
8.9476356806
 20
9.0705595192
 30
0.0
 10
8.9730459937
 20
9.0749695709
 30
0.0
 10
8.9986448577
 20
9.0787363263
 30
0.0
 10
9.0308933236
 20
9.0822188051
 30
0.0
 10
9.0633321613
 20
9.084056434
 30
0.0
 10
9.0893788225
 20
9.0845422521
 30
0.0
 10
9.115519473
 20
9.0843703312
 30
0.0
 10
9.1351322754
 20
9.083500618
 30
0.0
 10
9.1481926004
 20
9.0825948813
 30
0.0
  0
SPLINE
  5
2F2
100
AcDbEntity
  8
0
100
AcDbSpline
 62
7
  6
CONTINUOUS
 70
0
 71
3
 72
11
 73
7
 74
0
 42
0.0000001
 43
0.0000001
 44
0.0000000001
 40
0.0
 40
0.0
 40
0.0
 40
0.0
 40
0.2485997228
 40
0.498118479
 40
0.7485857854
 40
1.0
 40
1.0
 40
1.0
 40
1.0
 10
9.0346395341
 20
8.9097864081
 30
0.0
 10
9.0453267276
 20
8.9114240942
 30
0.0
 10
9.0668376714
 20
8.914103655
 30
0.0
 10
9.0993351158
 20
8.916322978
 30
0.0
 10
9.1320278302
 20
8.9167434722
 30
0.0
 10
9.1538488562
 20
8.9158254344
 30
0.0
 10
9.164757006
 20
8.9150689516
 30
0.0
  0
SPLINE
  5
2F3
100
AcDbEntity
  8
0
100
AcDbSpline
 62
7
  6
CONTINUOUS
 70
0
 71
3
 72
25
 73
21
 74
0
 42
0.0000001
 43
0.0000001
 44
0.0000000001
 40
0.0
 40
0.0
 40
0.0
 40
0.0
 40
0.0616475283
 40
0.0924812764
 40
0.1233236458
 40
0.185039992
 40
0.2468243932
 40
0.277751632
 40
0.3087038641
 40
0.3706878948
 40
0.4328012858
 40
0.4950619192
 40
0.5574860816
 40
0.6200882953
 40
0.6828810776
 40
0.7458751905
 40
0.8090790872
 40
0.8724979095
 40
0.9361399199
 40
1.0
 40
1.0
 40
1.0
 40
1.0
 10
8.8796673546
 20
8.7498868469
 30
0.0
 10
8.8853906204
 20
8.7554150677
 30
0.0
 10
8.8942018536
 20
8.7634796295
 30
0.0
 10
8.9063689501
 20
8.7737456137
 30
0.0
 10
8.9188145496
 20
8.7836870064
 30
0.0
 10
8.934876452
 20
8.7954896668
 30
0.0
 10
8.9515568007
 20
8.8064208144
 30
0.0
 10
8.9652487554
 20
8.81462867
 30
0.0
 10
8.9791771876
 20
8.8224810421
 30
0.0
 10
8.996998873
 20
8.831609275
 30
0.0
 10
9.0189699319
 20
8.8414281454
 30
0.0
 10
9.0414822211
 20
8.85009328
 30
0.0
 10
9.0644786689
 20
8.857582639
 30
0.0
 10
9.0879014353
 20
8.8638774668
 30
0.0
 10
9.1116914847
 20
8.8689620481
 30
0.0
 10
9.1357889552
 20
8.872823616
 30
0.0
 10
9.1601329977
 20
8.8754523959
 30
0.0
 10
9.1846629177
 20
8.8768420879
 30
0.0
 10
9.2093156883
 20
8.876988927
 30
0.0
 10
9.2257650815
 20
8.8762594945
 30
0.0
 10
9.2339881156
 20
8.8756892251
 30
0.0
  0
SPLINE
  5
2F4
100
AcDbEntity
  8
0
100
AcDbSpline
 62
7
  6
CONTINUOUS
 70
0
 71
3
 72
41
 73
37
 74
0
 42
0.0000001
 43
0.0000001
 44
0.0000000001
 40
0.0
 40
0.0
 40
0.0
 40
0.0
 40
0.0303123233
 40
0.0455119758
 40
0.0607401566
 40
0.0912802333
 40
0.121936709
 40
0.1373100178
 40
0.1527122338
 40
0.1835995404
 40
0.2145985381
 40
0.2457049903
 40
0.276913419
 40
0.3082171803
 40
0.339608549
 40
0.371078815
 40
0.4026183873
 40
0.4342169077
 40
0.4658633703
 40
0.497546244
 40
0.5292536006
 40
0.5609732447
 40
0.5926928465
 40
0.6244000762
 40
0.6560827398
 40
0.6877289111
 40
0.7193270622
 40
0.7508661916
 40
0.782335946
 40
0.8137267397
 40
0.8450298757
 40
0.8762375994
 40
0.9073434106
 40
0.9383414282
 40
0.9692283985
 40
1.0
 40
1.0
 40
1.0
 40
1.0
 10
9.7534829288
 20
8.1655855441
 30
0.0
 10
9.7554934386
 20
8.1762278529
 30
0.0
 10
9.75806246
 20
8.1922963601
 30
0.0
 10
9.7605896301
 20
8.2138530749
 30
0.0
 10
9.7625236165
 20
8.2355534015
 30
0.0
 10
9.7638151142
 20
8.2628440353
 30
0.0
 10
9.7636038712
 20
8.2902160572
 30
0.0
 10
9.7625370429
 20
8.3121420581
 30
0.0
 10
9.7608685173
 20
8.3341131836
 30
0.0
 10
9.7576578213
 20
8.3615556914
 30
0.0
 10
9.7520258953
 20
8.3943168357
 30
0.0
 10
9.7446280848
 20
8.4268429225
 30
0.0
 10
9.7354867793
 20
8.4590355893
 30
0.0
 10
9.7246295214
 20
8.4907982705
 30
0.0
 10
9.7120890154
 20
8.5220354886
 30
0.0
 10
9.6979030006
 20
8.5526534029
 30
0.0
 10
9.6821141715
 20
8.5825600313
 30
0.0
 10
9.6647700288
 20
8.6116655389
 30
0.0
 10
9.6459227291
 20
8.6398824963
 30
0.0
 10
9.6256289308
 20
8.6671261418
 30
0.0
 10
9.6039496247
 20
8.6933146323
 30
0.0
 10
9.5809499534
 20
8.718369288
 30
0.0
 10
9.5566990149
 20
8.7422148233
 30
0.0
 10
9.5312696769
 20
8.764779595
 30
0.0
 10
9.5047383408
 20
8.7859958021
 30
0.0
 10
9.4771847094
 20
8.8057996831
 30
0.0
 10
9.4486915514
 20
8.8241317075
 30
0.0
 10
9.4193444547
 20
8.8409367521
 30
0.0
 10
9.3892315733
 20
8.8561642659
 30
0.0
 10
9.3584433609
 20
8.8697684257
 30
0.0
 10
9.3270723299
 20
8.8817082725
 30
0.0
 10
9.2952126867
 20
8.8919479137
 30
0.0
 10
9.2629603337
 20
8.9004563504
 30
0.0
 10
9.2304116437
 20
8.9072081972
 30
0.0
 10
9.1976659673
 20
8.9121825992
 30
0.0
 10
9.1757253147
 20
8.9143082968
 30
0.0
 10
9.164757006
 20
8.9150689516
 30
0.0
  0
SPLINE
  5
2F5
100
AcDbEntity
  8
0
100
AcDbSpline
 62
7
  6
CONTINUOUS
 70
0
 71
3
 72
39
 73
35
 74
0
 42
0.0000001
 43
0.0000001
 44
0.0000000001
 40
0.0
 40
0.0
 40
0.0
 40
0.0
 40
0.0299393048
 40
0.0599022805
 40
0.0899120377
 40
0.1199905847
 40
0.1501583176
 40
0.1804335596
 40
0.2108321599
 40
0.2413671613
 40
0.2720485441
 40
0.3028830468
 40
0.3338740671
 40
0.3650216381
 40
0.3963224779
 40
0.427770107
 40
0.4593550261
 40
0.4910649487
 40
0.5228850814
 40
0.5547984441
 40
0.5867862241
 40
0.6188281569
 40
0.6509029277
 40
0.6829885877
 40
0.7150629778
 40
0.7471041567
 40
0.7790908242
 40
0.8110027386
 40
0.8428211132
 40
0.8745290119
 40
0.9061116497
 40
0.9375568881
 40
0.9688550053
 40
1.0
 40
1.0
 40
1.0
 40
1.0
 10
9.5883088766
 20
8.0162472022
 30
0.0
 10
9.5966461047
 20
8.0243003034
 30
0.0
 10
9.612702655
 20
8.0410741565
 30
0.0
 10
9.6347543995
 20
8.068053145
 30
0.0
 10
9.6546657113
 20
8.0967164684
 30
0.0
 10
9.6723281764
 20
8.1269086153
 30
0.0
 10
9.6876480439
 20
8.1584684016
 30
0.0
 10
9.700543508
 20
8.1912266961
 30
0.0
 10
9.7109459934
 20
8.2250082027
 30
0.0
 10
9.7188002706
 20
8.2596321883
 30
0.0
 10
9.7240647903
 20
8.2949135239
 30
0.0
 10
9.7267118647
 20
8.3306636655
 30
0.0
 10
9.726727795
 20
8.3666916661
 30
0.0
 10
9.7241129216
 20
8.4028051908
 30
0.0
 10
9.718881603
 20
8.4388115359
 30
0.0
 10
9.7110621224
 20
8.4745186456
 30
0.0
 10
9.7006965249
 20
8.5097361241
 30
0.0
 10
9.6878403843
 20
8.5442762372
 30
0.0
 10
9.6725625007
 20
8.5779548995
 30
0.0
 10
9.6549445311
 20
8.6105926418
 30
0.0
 10
9.6350805544
 20
8.6420155563
 30
0.0
 10
9.6130765736
 20
8.6720562129
 30
0.0
 10
9.5890499505
 20
8.7005545397
 30
0.0
 10
9.5631287851
 20
8.7273586666
 30
0.0
 10
9.5354512397
 20
8.7523257259
 30
0.0
 10
9.5061648083
 20
8.7753226067
 30
0.0
 10
9.4754255416
 20
8.7962266583
 30
0.0
 10
9.4433972174
 20
8.8149263354
 30
0.0
 10
9.4102505016
 20
8.8313218006
 30
0.0
 10
9.376161972
 20
8.8453254229
 30
0.0
 10
9.3413134645
 20
8.8568623188
 30
0.0
 10
9.3058901072
 20
8.8658706191
 30
0.0
 10
9.2700832338
 20
8.8723019071
 30
0.0
 10
9.2460174783
 20
8.874854986
 30
0.0
 10
9.2339881156
 20
8.8756892251
 30
0.0
  0
SPLINE
  5
2F6
100
AcDbEntity
  8
0
100
AcDbSpline
 62
7
  6
CONTINUOUS
 70
0
 71
3
 72
30
 73
26
 74
0
 42
0.0000001
 43
0.0000001
 44
0.0000000001
 40
0.0
 40
0.0
 40
0.0
 40
0.0
 40
0.0302118855
 40
0.0604336227
 40
0.0906750021
 40
0.1209455835
 40
0.1512546736
 40
0.1816111852
 40
0.2120235828
 40
0.2424997973
 40
0.2730471351
 40
0.3036722569
 40
0.3343810511
 40
0.3651786773
 40
0.3960694114
 40
0.4270567451
 40
0.4893131187
 40
0.5519754568
 40
0.6150393474
 40
0.6784864916
 40
0.7422856211
 40
0.8063936073
 40
0.8707575361
 40
0.9353152193
 40
1.0
 40
1.0
 40
1.0
 40
1.0
 10
10.2182405091
 20
7.4555444178
 30
0.0
 10
10.2198771093
 20
7.4571252704
 30
0.0
 10
10.2232309168
 20
7.4602057901
 30
0.0
 10
10.2284883994
 20
7.4645686648
 30
0.0
 10
10.2339618487
 20
7.4686649966
 30
0.0
 10
10.239639148
 20
7.4724854787
 30
0.0
 10
10.2455077312
 20
7.4760219069
 30
0.0
 10
10.2515547758
 20
7.4792663002
 30
0.0
 10
10.2577668524
 20
7.4822117473
 30
0.0
 10
10.2641303959
 20
7.4848515271
 30
0.0
 10
10.2706312874
 20
7.4871801077
 30
0.0
 10
10.2772553109
 20
7.4891920926
 30
0.0
 10
10.2839878124
 20
7.4908833587
 30
0.0
 10
10.2908139934
 20
7.4922499071
 30
0.0
 10
10.2977189749
 20
7.4932890202
 30
0.0
 10
10.3070231037
 20
7.4942359829
 30
0.0
 10
10.3187791909
 20
7.4945873981
 30
0.0
 10
10.3329280972
 20
7.4936781652
 30
0.0
 10
10.3470207096
 20
7.4914476204
 30
0.0
 10
10.3609324647
 20
7.4879156335
 30
0.0
 10
10.3745415772
 20
7.4831135709
 30
0.0
 10
10.3877286247
 20
7.4770839419
 30
0.0
 10
10.4003782909
 20
7.4698795849
 30
0.0
 10
10.4123787333
 20
7.4615648763
 30
0.0
 10
10.4198742132
 20
7.4553314855
 30
0.0
 10
10.4234801804
 20
7.4520556451
 30
0.0
  0
SPLINE
  5
2F7
100
AcDbEntity
  8
0
100
AcDbSpline
 62
7
  6
CONTINUOUS
 70
0
 71
3
 72
26
 73
22
 74
0
 42
0.0000001
 43
0.0000001
 44
0.0000000001
 40
0.0
 40
0.0
 40
0.0
 40
0.0
 40
0.0616472054
 40
0.0924807933
 40
0.1233230004
 40
0.1850390268
 40
0.2468231059
 40
0.2777501805
 40
0.3087022513
 40
0.3706859567
 40
0.4327990279
 40
0.4950593422
 40
0.5574831714
 40
0.6200850439
 40
0.6828775467
 40
0.714351265
 40
0.7458764659
 40
0.8090800769
 40
0.8724988328
 40
0.9361396088
 40
1.0
 40
1.0
 40
1.0
 40
1.0
 10
11.1052103479
 20
5.0833059224
 30
0.0
 10
11.0967937852
 20
5.0751761812
 30
0.0
 10
11.0838360745
 20
5.0633165472
 30
0.0
 10
11.0659432933
 20
5.0482195028
 30
0.0
 10
11.0476409515
 20
5.0335997942
 30
0.0
 10
11.0240205126
 20
5.0162429272
 30
0.0
 10
10.9994905373
 20
5.0001677924
 30
0.0
 10
10.9793553714
 20
4.988097313
 30
0.0
 10
10.9588723247
 20
4.9765498102
 30
0.0
 10
10.9326640229
 20
4.9631258308
 30
0.0
 10
10.9003536169
 20
4.9486863408
 30
0.0
 10
10.8672473125
 20
4.9359435591
 30
0.0
 10
10.8334289147
 20
4.9249297787
 30
0.0
 10
10.7989840439
 20
4.9156726768
 30
0.0
 10
10.7698511007
 20
4.9094462102
 30
0.0
 10
10.7463230325
 20
4.9053629162
 30
0.0
 10
10.7226204353
 20
4.9018751135
 30
0.0
 10
10.6927605371
 20
4.898650673
 30
0.0
 10
10.6566876076
 20
4.8966070753
 30
0.0
 10
10.6204334301
 20
4.896391044
 30
0.0
 10
10.5962432185
 20
4.8974637913
 30
0.0
 10
10.5841503992
 20
4.8983024312
 30
0.0
  0
SPLINE
  5
2F8
100
AcDbEntity
  8
0
100
AcDbSpline
 62
7
  6
CONTINUOUS
 70
0
 71
3
 72
25
 73
21
 74
0
 42
0.0000001
 43
0.0000001
 44
0.0000000001
 40
0.0
 40
0.0
 40
0.0
 40
0.0
 40
0.0617095354
 40
0.1234401764
 40
0.185212817
 40
0.2470479189
 40
0.2779976444
 40
0.3089703566
 40
0.3709890131
 40
0.4331269139
 40
0.4954008305
 40
0.5578261668
 40
0.6204168492
 40
0.6831851117
 40
0.7146416153
 40
0.7461463802
 40
0.809299915
 40
0.8726563025
 40
0.9362237161
 40
1.0
 40
1.0
 40
1.0
 40
1.0
 10
13.6272798456
 20
7.5214381303
 30
0.0
 10
13.6353330267
 20
7.5292168731
 30
0.0
 10
13.6510446517
 20
7.5451946568
 30
0.0
 10
13.6733526941
 20
7.5703460772
 30
0.0
 10
13.6943539979
 20
7.5966282261
 30
0.0
 10
13.7107210038
 20
7.6194156397
 30
0.0
 10
13.7231121262
 20
7.6381442095
 30
0.0
 10
13.7350384298
 20
7.6572114474
 30
0.0
 10
13.7490467339
 20
7.6816397515
 30
0.0
 10
13.7643668711
 20
7.7118132575
 30
0.0
 10
13.7781703141
 20
7.7427911925
 30
0.0
 10
13.7904250219
 20
7.7745017734
 30
0.0
 10
13.8011027989
 20
7.8068714654
 30
0.0
 10
13.8086612851
 20
7.8343148446
 30
0.0
 10
13.8138978742
 20
7.8565200224
 30
0.0
 10
13.8185986876
 20
7.8789162248
 30
0.0
 10
13.8234483625
 20
7.9071858611
 30
0.0
 10
13.8276105871
 20
7.9414349364
 30
0.0
 10
13.8301104327
 20
7.9759580609
 30
0.0
 10
13.8306643096
 20
7.9990671289
 30
0.0
 10
13.8306643096
 20
8.0106386611
 30
0.0
  0
SPLINE
  5
2F9
100
AcDbEntity
  8
0
100
AcDbSpline
 62
7
  6
CONTINUOUS
 70
0
 71
3
 72
37
 73
33
 74
0
 42
0.0000001
 43
0.0000001
 44
0.0000000001
 40
0.0
 40
0.0
 40
0.0
 40
0.0
 40
0.0958324821
 40
0.1891028286
 40
0.2792437745
 40
0.3657130835
 40
0.4074117671
 40
0.4480048975
 40
0.4874349834
 40
0.5256475863
 40
0.5625913988
 40
0.598218533
 40
0.6324850295
 40
0.6653509486
 40
0.6967813057
 40
0.7267460147
 40
0.7552213753
 40
0.7821900158
 40
0.8076430717
 40
0.8315804228
 40
0.8540138128
 40
0.8749678959
 40
0.8944847045
 40
0.9126262459
 40
0.9294807153
 40
0.9451670076
 40
0.9598416765
 40
0.9737025863
 40
0.9804060777
 40
0.9869995516
 40
0.9935185591
 40
1.0
 40
1.0
 40
1.0
 40
1.0
 10
12.120786302
 20
11.0955237604
 30
0.0
 10
12.1272978293
 20
11.0950721845
 30
0.0
 10
12.1401373991
 20
11.0940378886
 30
0.0
 10
12.1590558138
 20
11.0920635733
 30
0.0
 10
12.1772865404
 20
11.089697555
 30
0.0
 10
12.1919770392
 20
11.0873858864
 30
0.0
 10
12.2032889948
 20
11.0853441511
 30
0.0
 10
12.2114239953
 20
11.0837440772
 30
0.0
 10
12.2192992707
 20
11.0820594219
 30
0.0
 10
12.2269016907
 20
11.0802930114
 30
0.0
 10
12.2342185722
 20
11.0784478181
 30
0.0
 10
12.2412377225
 20
11.0765269346
 30
0.0
 10
12.2479474568
 20
11.0745336129
 30
0.0
 10
12.2543366174
 20
11.0724711648
 30
0.0
 10
12.2603946096
 20
11.0703431028
 30
0.0
 10
12.2661113961
 20
11.0681529223
 30
0.0
 10
12.2714775643
 20
11.0659043615
 30
0.0
 10
12.2764842797
 20
11.0636010517
 30
0.0
 10
12.2811234059
 20
11.0612468967
 30
0.0
 10
12.2853873879
 20
11.0588455842
 30
0.0
 10
12.2892694479
 20
11.0564010682
 30
0.0
 10
12.2927633529
 20
11.0539169434
 30
0.0
 10
12.2958636901
 20
11.0513969936
 30
0.0
 10
12.298565431
 20
11.0488444467
 30
0.0
 10
12.300864215
 20
11.0462626237
 30
0.0
 10
12.302755589
 20
11.0436540575
 30
0.0
 10
12.3042351414
 20
11.04102215
 30
0.0
 10
12.3051305791
 20
11.0387861311
 30
0.0
 10
12.3056260396
 20
11.0370024602
 30
0.0
 10
12.3058888065
 20
11.035677221
 30
0.0
 10
12.3060464957
 20
11.0343507329
 30
0.0
 10
12.3060815797
 20
11.0334648731
 30
0.0
 10
12.3060815746
 20
11.0330234211
 30
0.0
  0
SPLINE
  5
2FA
100
AcDbEntity
  8
0
100
AcDbSpline
 62
7
  6
CONTINUOUS
 70
0
 71
3
 72
23
 73
19
 74
0
 42
0.0000001
 43
0.0000001
 44
0.0000000001
 40
0.0
 40
0.0
 40
0.0
 40
0.0
 40
0.0636941729
 40
0.1272104729
 40
0.1905440924
 40
0.2537002507
 40
0.3166815441
 40
0.3794922373
 40
0.4421381646
 40
0.5046260711
 40
0.5669638714
 40
0.6291605725
 40
0.6912261808
 40
0.7531716382
 40
0.8150087844
 40
0.876750248
 40
0.9384093379
 40
1.0
 40
1.0
 40
1.0
 40
1.0
 10
10.0016240265
 20
5.6163481451
 30
0.0
 10
10.0129809604
 20
5.6155605391
 30
0.0
 10
10.0356979697
 20
5.6144499297
 30
0.0
 10
10.0697625011
 20
5.6141845535
 30
0.0
 10
10.1037135003
 20
5.6153227921
 30
0.0
 10
10.1374925317
 20
5.617862555
 30
0.0
 10
10.171043347
 20
5.6217997165
 30
0.0
 10
10.2043092968
 20
5.627127631
 30
0.0
 10
10.2372343783
 20
5.6338373723
 30
0.0
 10
10.2697631492
 20
5.6419177659
 30
0.0
 10
10.301840844
 20
5.651355147
 30
0.0
 10
10.3334134453
 20
5.6621336644
 30
0.0
 10
10.364427739
 20
5.6742352882
 30
0.0
 10
10.3948315156
 20
5.6876396176
 30
0.0
 10
10.4245735287
 20
5.7023240365
 30
0.0
 10
10.45360383
 20
5.7182640254
 30
0.0
 10
10.4818728023
 20
5.7354323085
 30
0.0
 10
10.500189977
 20
5.7476843685
 30
0.0
 10
10.5092035967
 20
5.7540038732
 30
0.0
  0
SPLINE
  5
2FB
100
AcDbEntity
  8
0
100
AcDbSpline
 62
7
  6
CONTINUOUS
 70
0
 71
3
 72
23
 73
19
 74
0
 42
0.0000001
 43
0.0000001
 44
0.0000000001
 40
0.0
 40
0.0
 40
0.0
 40
0.0
 40
0.0636651876
 40
0.1271588073
 40
0.1904754819
 40
0.2536202482
 40
0.3165955842
 40
0.3794051474
 40
0.4420542313
 40
0.5045489396
 40
0.5668964131
 40
0.6291047934
 40
0.6911831569
 40
0.7531414529
 40
0.8149904412
 40
0.8767416415
 40
0.9384072366
 40
1.0
 40
1.0
 40
1.0
 40
1.0
 10
9.9943035244
 20
5.5979605571
 30
0.0
 10
10.0054396585
 20
5.5971882636
 30
0.0
 10
10.0277148953
 20
5.5960844156
 30
0.0
 10
10.0611191492
 20
5.5957569251
 30
0.0
 10
10.0944192446
 20
5.5967607854
 30
0.0
 10
10.1275614736
 20
5.5990942802
 30
0.0
 10
10.1604942473
 20
5.6027537808
 30
0.0
 10
10.193165539
 20
5.6077335582
 30
0.0
 10
10.2255238499
 20
5.6140258562
 30
0.0
 10
10.2575182224
 20
5.6216207699
 30
0.0
 10
10.2890982527
 20
5.6305063007
 30
0.0
 10
10.3202141482
 20
5.6406685754
 30
0.0
 10
10.3508168665
 20
5.6520915958
 30
0.0
 10
10.3808582193
 20
5.6647573138
 30
0.0
 10
10.4102907783
 20
5.678645844
 30
0.0
 10
10.4390683014
 20
5.6937354576
 30
0.0
 10
10.467144846
 20
5.7100018614
 30
0.0
 10
10.4853767201
 20
5.7216207314
 30
0.0
 10
10.4943590256
 20
5.7276163601
 30
0.0
  0
SPLINE
  5
2FC
100
AcDbEntity
  8
0
100
AcDbSpline
 62
7
  6
CONTINUOUS
 70
0
 71
3
 72
37
 73
33
 74
0
 42
0.0000001
 43
0.0000001
 44
0.0000000001
 40
0.0
 40
0.0
 40
0.0
 40
0.0
 40
0.098633459
 40
0.1943357621
 40
0.2864347119
 40
0.3743085819
 40
0.4164869524
 40
0.4574069586
 40
0.4970117389
 40
0.5352487646
 40
0.5720718894
 40
0.6074399251
 40
0.641318346
 40
0.6736784873
 40
0.7044986629
 40
0.7337642473
 40
0.761468334
 40
0.7876127735
 40
0.8122087297
 40
0.8352787542
 40
0.8568577765
 40
0.8769963918
 40
0.895762896
 40
0.9132479361
 40
0.9295677751
 40
0.9448694322
 40
0.9593331507
 40
0.9731736121
 40
0.9799399362
 40
0.9866440605
 40
0.9933194929
 40
1.0
 40
1.0
 40
1.0
 40
1.0
 10
11.1248556511
 20
10.9755284457
 30
0.0
 10
11.1315584379
 20
10.9750636058
 30
0.0
 10
11.1447543704
 20
10.9739875056
 30
0.0
 10
11.1641564968
 20
10.971900088
 30
0.0
 10
11.182767777
 20
10.9693780123
 30
0.0
 10
11.1976992013
 20
10.9669001972
 30
0.0
 10
11.2091381129
 20
10.9647080379
 30
0.0
 10
11.2173191822
 20
10.9629927113
 30
0.0
 10
11.2252057388
 20
10.9611875922
 30
0.0
 10
11.2327848256
 20
10.9592964048
 30
0.0
 10
11.2400443755
 20
10.9573232545
 30
0.0
 10
11.2469732449
 20
10.9552721436
 30
0.0
 10
11.2535612084
 20
10.9531473278
 30
0.0
 10
11.2597989431
 20
10.9509530008
 30
0.0
 10
11.2656780244
 20
10.9486934834
 30
0.0
 10
11.2711908988
 20
10.9463730825
 30
0.0
 10
11.2763308629
 20
10.9439961024
 30
0.0
 10
11.28109205
 20
10.9415668704
 30
0.0
 10
11.2854693673
 20
10.9390895823
 30
0.0
 10
11.2894585204
 20
10.9365684617
 30
0.0
 10
11.2930558738
 20
10.9340074633
 30
0.0
 10
11.2962585192
 20
10.9314105209
 30
0.0
 10
11.2990639952
 20
10.9287811556
 30
0.0
 10
11.3014703655
 20
10.926122778
 30
0.0
 10
11.3034757019
 20
10.9234383939
 30
0.0
 10
11.3050781544
 20
10.9207309125
 30
0.0
 10
11.3062753172
 20
10.9180039476
 30
0.0
 10
11.3069382173
 20
10.9156999951
 30
0.0
 10
11.3072572502
 20
10.9138657333
 30
0.0
 10
11.3073936491
 20
10.9124989031
 30
0.0
 10
11.3074289263
 20
10.9111317007
 30
0.0
 10
11.3073852296
 20
10.9102219761
 30
0.0
 10
11.3073468267
 20
10.9097685249
 30
0.0
  0
SPLINE
  5
2FD
100
AcDbEntity
  8
0
100
AcDbSpline
 62
7
  6
CONTINUOUS
 70
0
 71
3
 72
46
 73
42
 74
0
 42
0.0000001
 43
0.0000001
 44
0.0000000001
 40
0.0
 40
0.0
 40
0.0
 40
0.0
 40
0.0149594366
 40
0.0299335695
 40
0.0449246879
 40
0.0599349967
 40
0.0749666056
 40
0.0900215138
 40
0.1051016097
 40
0.1202086505
 40
0.1353442643
 40
0.1505099393
 40
0.1657070126
 40
0.1809366746
 40
0.1961999528
 40
0.2114977191
 40
0.2421948337
 40
0.2730362536
 40
0.3040229306
 40
0.3351531505
 40
0.3664226001
 40
0.3978244803
 40
0.4293496549
 40
0.460986841
 40
0.492722822
 40
0.524542697
 40
0.5564301435
 40
0.5883677049
 40
0.6203370838
 40
0.6523194562
 40
0.6842957772
 40
0.7162471071
 40
0.7481549204
 40
0.7800014164
 40
0.8117698289
 40
0.8434446998
 40
0.8750121774
 40
0.9064602237
 40
0.937778984
 40
0.9689604839
 40
1.0
 40
1.0
 40
1.0
 40
1.0
 10
9.2989904811
 20
6.9657649378
 30
0.0
 10
9.2935975602
 20
6.9582713035
 30
0.0
 10
9.2830771629
 20
6.9430796869
 30
0.0
 10
9.268123276
 20
6.9197252669
 30
0.0
 10
9.2540054701
 20
6.8958192576
 30
0.0
 10
9.2407401116
 20
6.8713896841
 30
0.0
 10
9.2283426092
 20
6.8464644721
 30
0.0
 10
9.2168270409
 20
6.8210724698
 30
0.0
 10
9.2062068035
 20
6.7952428486
 30
0.0
 10
9.1964940658
 20
6.7690053917
 30
0.0
 10
9.1876999359
 20
6.7423903366
 30
0.0
 10
9.1798346946
 20
6.7154282966
 30
0.0
 10
9.1729071583
 20
6.6881503583
 30
0.0
 10
9.1669255189
 20
6.6605879951
 30
0.0
 10
9.1618964619
 20
6.6327725591
 30
0.0
 10
9.1564631919
 20
6.5953522937
 30
0.0
 10
9.1520868253
 20
6.5480929205
 30
0.0
 10
9.1507201568
 20
6.4909628575
 30
0.0
 10
9.1532369034
 20
6.4336035429
 30
0.0
 10
9.15962529
 20
6.3762807384
 30
0.0
 10
9.1698553776
 20
6.3192576628
 30
0.0
 10
9.1838797108
 20
6.2627966967
 30
0.0
 10
9.2016334119
 20
6.207157407
 30
0.0
 10
9.2230345223
 20
6.1525955831
 30
0.0
 10
9.2479843347
 20
6.0993619982
 30
0.0
 10
9.2763678942
 20
6.0477012994
 30
0.0
 10
9.3080545262
 20
5.9978508907
 30
0.0
 10
9.3428984326
 20
5.9500398599
 30
0.0
 10
9.3807393593
 20
5.9044879337
 30
0.0
 10
9.4214033241
 20
5.8614044834
 30
0.0
 10
9.4647033829
 20
5.8209875374
 30
0.0
 10
9.510440513
 20
5.7834229056
 30
0.0
 10
9.5584045228
 20
5.7488833375
 30
0.0
 10
9.6083750007
 20
5.7175277269
 30
0.0
 10
9.6601223266
 20
5.6895003985
 30
0.0
 10
9.7134086862
 20
5.6649304331
 30
0.0
 10
9.7679892335
 20
5.6439310621
 30
0.0
 10
9.8236128682
 20
5.6265991146
 30
0.0
 10
9.8800246909
 20
5.6130147326
 30
0.0
 10
9.9369619785
 20
5.6032408091
 30
0.0
 10
9.9751929009
 20
5.5992858833
 30
0.0
 10
9.9943035244
 20
5.5979605571
 30
0.0
  0
SPLINE
  5
2FE
100
AcDbEntity
  8
0
100
AcDbSpline
 62
7
  6
CONTINUOUS
 70
0
 71
3
 72
27
 73
23
 74
0
 42
0.0000001
 43
0.0000001
 44
0.0000000001
 40
0.0
 40
0.0
 40
0.0
 40
0.0
 40
0.0638605453
 40
0.0957110817
 40
0.1275052675
 40
0.1909240352
 40
0.2541272547
 40
0.2856522746
 40
0.3171258514
 40
0.3799180546
 40
0.4425196113
 40
0.5049431319
 40
0.567203139
 40
0.6293158935
 40
0.6912992907
 40
0.7222512094
 40
0.7531781264
 40
0.8149618973
 40
0.8766776168
 40
0.9075196676
 40
0.9383530997
 40
1.0
 40
1.0
 40
1.0
 40
1.0
 10
9.7425463761
 20
5.3371205603
 30
0.0
 10
9.756912753
 20
5.3361242487
 30
0.0
 10
9.7784867984
 20
5.3351675454
 30
0.0
 10
9.8072414536
 20
5.3349784601
 30
0.0
 10
9.8358927162
 20
5.3355128437
 30
0.0
 10
9.8715754121
 20
5.3375342105
 30
0.0
 10
9.9070487107
 20
5.3413649599
 30
0.0
 10
9.9352074362
 20
5.3455083521
 30
0.0
 10
9.9631587534
 20
5.3503594343
 30
0.0
 10
9.9977687198
 20
5.3577563859
 30
0.0
 10
10.0386892352
 20
5.368753818
 30
0.0
 10
10.0788655008
 20
5.3818381752
 30
0.0
 10
10.1181957839
 20
5.3969766282
 30
0.0
 10
10.1565805383
 20
5.4141307662
 30
0.0
 10
10.187716005
 20
5.4300784489
 30
0.0
 10
10.2120498788
 20
5.4437968619
 30
0.0
 10
10.2359704544
 20
5.4581365978
 30
0.0
 10
10.2651120772
 20
5.4772338461
 30
0.0
 10
10.2931731266
 20
5.4978538491
 30
0.0
 10
10.314916356
 20
5.5152220073
 30
0.0
 10
10.336172923
 20
5.5331573656
 30
0.0
 10
10.3515667568
 20
5.5472465333
 30
0.0
 10
10.3615656066
 20
5.556904696
 30
0.0
  0
SPLINE
  5
2FF
100
AcDbEntity
  8
0
100
AcDbSpline
 62
7
  6
CONTINUOUS
 70
0
 71
3
 72
73
 73
69
 74
0
 42
0.0000001
 43
0.0000001
 44
0.0000000001
 40
0.0
 40
0.0
 40
0.0
 40
0.0
 40
0.0156217254
 40
0.0234135234
 40
0.0311918184
 40
0.0467077821
 40
0.0621720981
 40
0.0698858584
 40
0.0775872563
 40
0.0929528021
 40
0.1082723638
 40
0.1235488281
 40
0.1387855262
 40
0.1539861936
 40
0.169154946
 40
0.1842962308
 40
0.1994147839
 40
0.2145155859
 40
0.2296037995
 40
0.2446847289
 40
0.2597637503
 40
0.274846264
 40
0.2899376323
 40
0.3050431212
 40
0.320167849
 40
0.3353167271
 40
0.3504944119
 40
0.3657052583
 40
0.3809532721
 40
0.396242076
 40
0.4115748716
 40
0.4269544098
 40
0.4423829727
 40
0.4578623439
 40
0.47339381
 40
0.4889781395
 40
0.5046155905
 40
0.5203059093
 40
0.5360483349
 40
0.5518416204
 40
0.5676840357
 40
0.5835734024
 40
0.5995071067
 40
0.6154821335
 40
0.6314950954
 40
0.6475422622
 40
0.6636196016
 40
0.6797228127
 40
0.6958473656
 40
0.7119885461
 40
0.7281414921
 40
0.7443012403
 40
0.7604627691
 40
0.7766210374
 40
0.7927710384
 40
0.80890783
 40
0.8250265927
 40
0.8411226601
 40
0.8571915662
 40
0.8732290875
 40
0.8892312724
 40
0.9051944918
 40
0.9211154629
 40
0.9369912729
 40
0.9528194884
 40
0.9685978956
 40
0.9843252801
 40
1.0
 40
1.0
 40
1.0
 40
1.0
 10
9.7352258741
 20
5.3187329723
 30
0.0
 10
9.7494674917
 20
5.3177453127
 30
0.0
 10
9.7708535703
 20
5.3167854404
 30
0.0
 10
9.7993592048
 20
5.3165592596
 30
0.0
 10
9.8277656683
 20
5.3170348606
 30
0.0
 10
9.8631490042
 20
5.3189421093
 30
0.0
 10
9.8983349608
 20
5.3226044361
 30
0.0
 10
9.9262750288
 20
5.3265811729
 30
0.0
 10
9.9540170501
 20
5.3312449707
 30
0.0
 10
9.9883820007
 20
5.3383689129
 30
0.0
 10
10.0290402272
 20
5.3489777331
 30
0.0
 10
10.0689916208
 20
5.3616149673
 30
0.0
 10
10.1081391874
 20
5.3762501471
 30
0.0
 10
10.1463886964
 20
5.3928480862
 30
0.0
 10
10.1836478438
 20
5.4113688316
 30
0.0
 10
10.2198267676
 20
5.4317677862
 30
0.0
 10
10.2548381844
 20
5.4539958168
 30
0.0
 10
10.2885976257
 20
5.4779993599
 30
0.0
 10
10.3210236378
 20
5.5037205655
 30
0.0
 10
10.3520379948
 20
5.531097406
 30
0.0
 10
10.3815658899
 20
5.5600638488
 30
0.0
 10
10.4095361031
 20
5.5905500216
 30
0.0
 10
10.4358811844
 20
5.6224823789
 30
0.0
 10
10.4605376104
 20
5.655783887
 30
0.0
 10
10.4834459435
 20
5.6903742054
 30
0.0
 10
10.504550969
 20
5.7261698898
 30
0.0
 10
10.5238018511
 20
5.7630845813
 30
0.0
 10
10.5411522453
 20
5.8010292265
 30
0.0
 10
10.5565604008
 20
5.839912302
 30
0.0
 10
10.5699892561
 20
5.8796400349
 30
0.0
 10
10.5814065322
 20
5.9201166296
 30
0.0
 10
10.5907848019
 20
5.9612445026
 30
0.0
 10
10.5981015537
 20
6.0029245122
 30
0.0
 10
10.603339263
 20
6.045056203
 30
0.0
 10
10.6064854254
 20
6.0875380425
 30
0.0
 10
10.6075325747
 20
6.1302676769
 30
0.0
 10
10.6064782913
 20
6.1731421703
 30
0.0
 10
10.6033252175
 20
6.2160582532
 30
0.0
 10
10.5980810372
 20
6.2589125712
 30
0.0
 10
10.5907584634
 20
6.301601925
 30
0.0
 10
10.5813752152
 20
6.3440235289
 30
0.0
 10
10.5699539796
 20
6.38607525
 30
0.0
 10
10.556522337
 20
6.4276558592
 30
0.0
 10
10.541112694
 20
6.4686652658
 30
0.0
 10
10.5237622099
 20
6.5090047602
 30
0.0
 10
10.5045127017
 20
6.548577248
 30
0.0
 10
10.4834105471
 20
6.5872874799
 30
0.0
 10
10.46050658
 20
6.6250422852
 30
0.0
 10
10.4358559779
 20
6.6617508029
 30
0.0
 10
10.4095181072
 20
6.697324686
 30
0.0
 10
10.3815563871
 20
6.7316783184
 30
0.0
 10
10.3520381327
 20
6.7647290137
 30
0.0
 10
10.3210344016
 20
6.7963972168
 30
0.0
 10
10.2886198141
 20
6.8266066915
 30
0.0
 10
10.2548723895
 20
6.8552847055
 30
0.0
 10
10.2198733604
 20
6.8823622258
 30
0.0
 10
10.1837069649
 20
6.9077740553
 30
0.0
 10
10.1464602479
 20
6.9314590037
 30
0.0
 10
10.1082228483
 20
6.9533600204
 30
0.0
 10
10.0690867942
 20
6.9734243421
 30
0.0
 10
10.0291462722
 20
6.9916036101
 30
0.0
 10
9.9884974125
 20
7.0078540003
 30
0.0
 10
9.9472380734
 20
7.0221363198
 30
0.0
 10
9.9054675229
 20
7.0344161727
 30
0.0
 10
9.8632864991
 20
7.0446637875
 30
0.0
 10
9.820795993
 20
7.0528546656
 30
0.0
 10
9.7780999054
 20
7.0589685756
 30
0.0
 10
9.7495158044
 20
7.061654938
 30
0.0
 10
9.7352258741
 20
7.062645948
 30
0.0
  0
SPLINE
  5
300
100
AcDbEntity
  8
0
100
AcDbSpline
 62
7
  6
CONTINUOUS
 70
0
 71
3
 72
73
 73
69
 74
0
 42
0.0000001
 43
0.0000001
 44
0.0000000001
 40
0.0
 40
0.0
 40
0.0
 40
0.0
 40
0.0156217256
 40
0.0234135236
 40
0.0311918183
 40
0.046707782
 40
0.0621720981
 40
0.0698858584
 40
0.0775872562
 40
0.092952802
 40
0.1082723638
 40
0.123548828
 40
0.1387855262
 40
0.1539861936
 40
0.169154946
 40
0.1842962308
 40
0.1994147839
 40
0.2145155859
 40
0.2296037995
 40
0.2446847289
 40
0.2597637503
 40
0.274846264
 40
0.2899376322
 40
0.3050431212
 40
0.320167849
 40
0.3353167271
 40
0.3504944119
 40
0.3657052583
 40
0.3809532721
 40
0.396242076
 40
0.4115748716
 40
0.4269544098
 40
0.4423829727
 40
0.4578623439
 40
0.47339381
 40
0.4889781395
 40
0.5046155905
 40
0.5203059093
 40
0.5360483349
 40
0.5518416204
 40
0.5676840357
 40
0.5835734024
 40
0.5995071067
 40
0.6154821335
 40
0.6314950954
 40
0.6475422622
 40
0.6636196016
 40
0.6797228127
 40
0.6958473656
 40
0.7119885461
 40
0.7281414921
 40
0.7443012403
 40
0.7604627691
 40
0.7766210374
 40
0.7927710384
 40
0.80890783
 40
0.8250265927
 40
0.8411226601
 40
0.8571915662
 40
0.8732290876
 40
0.8892312724
 40
0.9051944918
 40
0.9211154629
 40
0.9369912729
 40
0.9528194885
 40
0.9685978956
 40
0.9843252799
 40
1.0
 40
1.0
 40
1.0
 40
1.0
 10
9.7352258741
 20
7.062645948
 30
0.0
 10
9.7209842563
 20
7.0636336076
 30
0.0
 10
9.6995981775
 20
7.0645934791
 30
0.0
 10
9.6710925431
 20
7.0648196602
 30
0.0
 10
9.6426860799
 20
7.0643440602
 30
0.0
 10
9.607302744
 20
7.0624368112
 30
0.0
 10
9.5721167875
 20
7.058774484
 30
0.0
 10
9.5441767194
 20
7.0547977475
 30
0.0
 10
9.5164346982
 20
7.0501339497
 30
0.0
 10
9.4820697475
 20
7.0430100074
 30
0.0
 10
9.4414115211
 20
7.0324011873
 30
0.0
 10
9.4014601274
 20
7.0197639531
 30
0.0
 10
9.3623125609
 20
7.0051287733
 30
0.0
 10
9.3240630518
 20
6.9885308341
 30
0.0
 10
9.2868039044
 20
6.9700100887
 30
0.0
 10
9.2506249806
 20
6.9496111341
 30
0.0
 10
9.2156135638
 20
6.9273831035
 30
0.0
 10
9.1818541226
 20
6.9033795604
 30
0.0
 10
9.1494281105
 20
6.8776583548
 30
0.0
 10
9.1184137534
 20
6.8502815143
 30
0.0
 10
9.0888858583
 20
6.8213150715
 30
0.0
 10
9.0609156451
 20
6.7908288987
 30
0.0
 10
9.0345705638
 20
6.7588965414
 30
0.0
 10
9.0099141379
 20
6.7255950333
 30
0.0
 10
8.9870058047
 20
6.6910047149
 30
0.0
 10
8.9659007792
 20
6.6552090305
 30
0.0
 10
8.9466498971
 20
6.618294339
 30
0.0
 10
8.9292995029
 20
6.5803496938
 30
0.0
 10
8.9138913475
 20
6.5414666183
 30
0.0
 10
8.9004624921
 20
6.5017388854
 30
0.0
 10
8.889045216
 20
6.4612622907
 30
0.0
 10
8.8796669463
 20
6.4201344177
 30
0.0
 10
8.8723501945
 20
6.3784544081
 30
0.0
 10
8.8671124852
 20
6.3363227173
 30
0.0
 10
8.8639663228
 20
6.2938408778
 30
0.0
 10
8.8629191735
 20
6.2511112434
 30
0.0
 10
8.8639734569
 20
6.20823675
 30
0.0
 10
8.8671265307
 20
6.1653206671
 30
0.0
 10
8.872370711
 20
6.1224663491
 30
0.0
 10
8.8796932848
 20
6.0797769953
 30
0.0
 10
8.889076533
 20
6.0373553914
 30
0.0
 10
8.9004977687
 20
5.9953036703
 30
0.0
 10
8.9139294112
 20
5.9537230611
 30
0.0
 10
8.9293390542
 20
5.9127136545
 30
0.0
 10
8.9466895384
 20
5.8723741601
 30
0.0
 10
8.9659390465
 20
5.8328016723
 30
0.0
 10
8.9870412011
 20
5.7940914404
 30
0.0
 10
9.0099451682
 20
5.7563366351
 30
0.0
 10
9.0345957703
 20
5.7196281174
 30
0.0
 10
9.060933641
 20
5.6840542343
 30
0.0
 10
9.0888953611
 20
5.6497006019
 30
0.0
 10
9.1184136155
 20
5.6166499066
 30
0.0
 10
9.1494173466
 20
5.5849817035
 30
0.0
 10
9.1818319341
 20
5.5547722288
 30
0.0
 10
9.2155793587
 20
5.5260942149
 30
0.0
 10
9.2505783879
 20
5.4990166945
 30
0.0
 10
9.2867447833
 20
5.473604865
 30
0.0
 10
9.3239915004
 20
5.4499199167
 30
0.0
 10
9.3622288999
 20
5.4280189
 30
0.0
 10
9.401364954
 20
5.4079545783
 30
0.0
 10
9.441305476
 20
5.3897753103
 30
0.0
 10
9.4819543357
 20
5.37352492
 30
0.0
 10
9.5232136749
 20
5.3592426008
 30
0.0
 10
9.5649842253
 20
5.3469627473
 30
0.0
 10
9.6071652493
 20
5.3367151331
 30
0.0
 10
9.6496557552
 20
5.3285242552
 30
0.0
 10
9.6923518426
 20
5.3224103434
 30
0.0
 10
9.7209359436
 20
5.3197239823
 30
0.0
 10
9.7352258741
 20
5.3187329723
 30
0.0
  0
SPLINE
  5
301
100
AcDbEntity
  8
0
100
AcDbSpline
 62
7
  6
CONTINUOUS
 70
0
 71
3
 72
11
 73
7
 74
0
 42
0.0000001
 43
0.0000001
 44
0.0000000001
 40
0.0
 40
0.0
 40
0.0
 40
0.0
 40
0.2782395742
 40
0.5375840395
 40
0.7780694409
 40
1.0
 40
1.0
 40
1.0
 40
1.0
 10
9.4925479969
 20
8.1653085787
 30
0.0
 10
9.4903910777
 20
8.1646425498
 30
0.0
 10
9.486242167
 20
8.1632944762
 30
0.0
 10
9.4803112214
 20
8.1611280262
 30
0.0
 10
9.4748998727
 20
8.1588853023
 30
0.0
 10
9.4715085562
 20
8.1572756592
 30
0.0
 10
9.469906483
 20
8.156453838
 30
0.0
  0
SPLINE
  5
302
100
AcDbEntity
  8
0
100
AcDbSpline
 62
7
  6
CONTINUOUS
 70
0
 71
3
 72
21
 73
17
 74
0
 42
0.0000001
 43
0.0000001
 44
0.0000000001
 40
0.0
 40
0.0
 40
0.0
 40
0.0
 40
0.1335721997
 40
0.2702366029
 40
0.3388366344
 40
0.4071343207
 40
0.4747697039
 40
0.541386747
 40
0.6066371896
 40
0.6701854232
 40
0.7317138958
 40
0.7909294347
 40
0.8475699738
 40
0.9014089668
 40
0.952265771
 40
1.0
 40
1.0
 40
1.0
 40
1.0
 10
9.6512245946
 20
8.1988753852
 30
0.0
 10
9.6441934177
 20
8.1972191423
 30
0.0
 10
9.6299326879
 20
8.1940182051
 30
0.0
 10
9.6119845278
 20
8.1903208004
 30
0.0
 10
9.5974662086
 20
8.1874762973
 30
0.0
 10
9.5866009931
 20
8.1854031593
 30
0.0
 10
9.5758346092
 20
8.1833846884
 30
0.0
 10
9.5652277637
 20
8.1814096597
 30
0.0
 10
9.5548401551
 20
8.1794646727
 30
0.0
 10
9.5447297389
 20
8.17753471
 30
0.0
 10
9.5349519051
 20
8.1756038147
 30
0.0
 10
9.5255585764
 20
8.1736557993
 30
0.0
 10
9.5165974223
 20
8.1716749316
 30
0.0
 10
9.5081107813
 20
8.1696466222
 30
0.0
 10
9.500135587
 20
8.1675579911
 30
0.0
 10
9.4950145585
 20
8.1660702212
 30
0.0
 10
9.4925479969
 20
8.1653085787
 30
0.0
  0
SPLINE
  5
303
100
AcDbEntity
  8
0
100
AcDbSpline
 62
7
  6
CONTINUOUS
 70
0
 71
3
 72
33
 73
29
 74
0
 42
0.0000001
 43
0.0000001
 44
0.0000000001
 40
0.0
 40
0.0
 40
0.0
 40
0.0
 40
0.0958324715
 40
0.1891069824
 40
0.2792482339
 40
0.3657196617
 40
0.4480104483
 40
0.5256518902
 40
0.5625965704
 40
0.5982245785
 40
0.6324918371
 40
0.6653587712
 40
0.6967897932
 40
0.7267555871
 40
0.7552315829
 40
0.7822012831
 40
0.8076550335
 40
0.8315933456
 40
0.8540275264
 40
0.8749824413
 40
0.8945001021
 40
0.9126423572
 40
0.9294976319
 40
0.9451845512
 40
0.9598598551
 40
0.973721282
 40
0.987009278
 40
1.0
 40
1.0
 40
1.0
 40
1.0
 10
11.276418441
 20
11.1219269958
 30
0.0
 10
11.2798043307
 20
11.1216921836
 30
0.0
 10
11.2864808503
 20
11.1211543464
 30
0.0
 10
11.2963182723
 20
11.1201277396
 30
0.0
 10
11.3057982277
 20
11.118897416
 30
0.0
 10
11.3148573576
 20
11.1174718484
 30
0.0
 10
11.3234353746
 20
11.1158606474
 30
0.0
 10
11.3302437234
 20
11.1143485733
 30
0.0
 10
11.3354025431
 20
11.1130476893
 30
0.0
 10
11.3390524842
 20
11.1120488459
 30
0.0
 10
11.3425415273
 20
11.1110123257
 30
0.0
 10
11.3458638858
 20
11.1099399023
 30
0.0
 10
11.349014032
 20
11.1088332976
 30
0.0
 10
11.3519867713
 20
11.1076944674
 30
0.0
 10
11.3547771772
 20
11.1065251984
 30
0.0
 10
11.3573806938
 20
11.1053275389
 30
0.0
 10
11.3597930508
 20
11.1041033716
 30
0.0
 10
11.3620103563
 20
11.1028547346
 30
0.0
 10
11.3640290585
 20
11.1015836004
 30
0.0
 10
11.3658459283
 20
11.1002918793
 30
0.0
 10
11.36745816
 20
11.098981539
 30
0.0
 10
11.368863105
 20
11.0976542261
 30
0.0
 10
11.3700585519
 20
11.0963117077
 30
0.0
 10
11.3710421127
 20
11.0949553029
 30
0.0
 10
11.3718115786
 20
11.0935866082
 30
0.0
 10
11.372364233
 20
11.0922071152
 30
0.0
 10
11.3726973976
 20
11.0908198054
 30
0.0
 10
11.3727719744
 20
11.0898875125
 30
0.0
 10
11.3727719852
 20
11.0894274305
 30
0.0
  0
SPLINE
  5
304
100
AcDbEntity
  8
0
100
AcDbSpline
 62
7
  6
CONTINUOUS
 70
0
 71
3
 72
23
 73
19
 74
0
 42
0.0000001
 43
0.0000001
 44
0.0000000001
 40
0.0
 40
0.0
 40
0.0
 40
0.0
 40
0.0911033057
 40
0.1774046827
 40
0.2589970536
 40
0.3360227835
 40
0.40865857
 40
0.4771066075
 40
0.5415975653
 40
0.6023955741
 40
0.6598016671
 40
0.7141559597
 40
0.7658359029
 40
0.8152612728
 40
0.8628897288
 40
0.9092129351
 40
0.9547447287
 40
1.0
 40
1.0
 40
1.0
 40
1.0
 10
9.4768900602
 20
8.1288372724
 30
0.0
 10
9.475810683
 20
8.1283411526
 30
0.0
 10
9.473724035
 20
8.1273413872
 30
0.0
 10
9.4707326714
 20
8.1257721781
 30
0.0
 10
9.4679660061
 20
8.1241750216
 30
0.0
 10
9.4654237669
 20
8.1225512866
 30
0.0
 10
9.4631050897
 20
8.1209021558
 30
0.0
 10
9.4610087299
 20
8.1192291692
 30
0.0
 10
9.4591332617
 20
8.1175340933
 30
0.0
 10
9.4574772476
 20
8.1158187647
 30
0.0
 10
9.4560389753
 20
8.1140853688
 30
0.0
 10
9.4548169432
 20
8.112336116
 30
0.0
 10
9.4538096108
 20
8.1105735516
 30
0.0
 10
9.4530156417
 20
8.1088004448
 30
0.0
 10
9.4524338929
 20
8.1070198742
 30
0.0
 10
9.4520633659
 20
8.1052352061
 30
0.0
 10
9.4519029119
 20
8.1034507263
 30
0.0
 10
9.4519353419
 20
8.1022641812
 30
0.0
 10
9.4519856599
 20
8.1016762274
 30
0.0
  0
SPLINE
  5
305
100
AcDbEntity
  8
0
100
AcDbSpline
 62
7
  6
CONTINUOUS
 70
0
 71
3
 72
33
 73
29
 74
0
 42
0.0000001
 43
0.0000001
 44
0.0000000001
 40
0.0
 40
0.0
 40
0.0
 40
0.0
 40
0.0958336213
 40
0.1891081202
 40
0.2792503045
 40
0.3657220889
 40
0.4480132641
 40
0.5256549075
 40
0.5625997422
 40
0.5982276624
 40
0.6324950734
 40
0.6653617928
 40
0.6967929111
 40
0.7267584475
 40
0.7552344057
 40
0.7822038982
 40
0.8076574015
 40
0.8315955933
 40
0.8540293233
 40
0.8749841742
 40
0.8945012814
 40
0.9126434623
 40
0.9294982434
 40
0.9451850253
 40
0.9598600352
 40
0.9737213109
 40
0.9870092528
 40
1.0
 40
1.0
 40
1.0
 40
1.0
 10
9.8098232458
 20
10.9873047414
 30
0.0
 10
9.8138863842
 20
10.9870229618
 30
0.0
 10
9.8218982995
 20
10.986377552
 30
0.0
 10
9.8337033561
 20
10.9851455964
 30
0.0
 10
9.8450794177
 20
10.9836691913
 30
0.0
 10
9.8559504998
 20
10.9819584706
 30
0.0
 10
9.8662442132
 20
10.9800249977
 30
0.0
 10
9.8744142987
 20
10.9782104569
 30
0.0
 10
9.8806049276
 20
10.9766493872
 30
0.0
 10
9.8849848781
 20
10.9754507248
 30
0.0
 10
9.8891717505
 20
10.9742069087
 30
0.0
 10
9.8931585861
 20
10.9729199392
 30
0.0
 10
9.8969387708
 20
10.9715920227
 30
0.0
 10
9.9005060499
 20
10.9702253706
 30
0.0
 10
9.9038545315
 20
10.9688222401
 30
0.0
 10
9.9069787357
 20
10.9673850183
 30
0.0
 10
9.9098735341
 20
10.9659159757
 30
0.0
 10
9.9125342852
 20
10.9644176182
 30
0.0
 10
9.9149566625
 20
10.9628921777
 30
0.0
 10
9.917136898
 20
10.9613421508
 30
0.0
 10
9.9190714715
 20
10.9597696415
 30
0.0
 10
9.9207574021
 20
10.9581769114
 30
0.0
 10
9.9221918103
 20
10.9565657995
 30
0.0
 10
9.9233720584
 20
10.9549381323
 30
0.0
 10
9.9242953053
 20
10.9532956476
 30
0.0
 10
9.9249583946
 20
10.9516402354
 30
0.0
 10
9.9253581435
 20
10.9499754432
 30
0.0
 10
9.9254474883
 20
10.9488566765
 30
0.0
 10
9.9254474831
 20
10.948304574
 30
0.0
  0
SPLINE
  5
306
100
AcDbEntity
  8
0
100
AcDbSpline
 62
7
  6
CONTINUOUS
 70
0
 71
3
 72
33
 73
29
 74
0
 42
0.0000001
 43
0.0000001
 44
0.0000000001
 40
0.0
 40
0.0
 40
0.0
 40
0.0
 40
0.0958324715
 40
0.1891069824
 40
0.2792482339
 40
0.3657196617
 40
0.4480104483
 40
0.5256518902
 40
0.5625965704
 40
0.5982245785
 40
0.6324918371
 40
0.6653587712
 40
0.6967897932
 40
0.7267555871
 40
0.7552315829
 40
0.7822012831
 40
0.8076550335
 40
0.8315933456
 40
0.8540275264
 40
0.8749824413
 40
0.8945001021
 40
0.9126423572
 40
0.9294976319
 40
0.9451845512
 40
0.9598598551
 40
0.973721282
 40
0.987009278
 40
1.0
 40
1.0
 40
1.0
 40
1.0
 10
10.2725913501
 20
11.4343044314
 30
0.0
 10
10.2759772399
 20
11.4340696192
 30
0.0
 10
10.2826537594
 20
11.433531782
 30
0.0
 10
10.2924911815
 20
11.4325051752
 30
0.0
 10
10.3019711368
 20
11.4312748516
 30
0.0
 10
10.3110302667
 20
11.429849284
 30
0.0
 10
10.3196082837
 20
11.428238083
 30
0.0
 10
10.3264166326
 20
11.4267260089
 30
0.0
 10
10.3315754522
 20
11.4254251249
 30
0.0
 10
10.3352253933
 20
11.4244262815
 30
0.0
 10
10.3387144364
 20
11.4233897614
 30
0.0
 10
10.3420367949
 20
11.4223173379
 30
0.0
 10
10.3451869411
 20
11.4212107332
 30
0.0
 10
10.3481596805
 20
11.420071903
 30
0.0
 10
10.3509500864
 20
11.418902634
 30
0.0
 10
10.353553603
 20
11.4177049745
 30
0.0
 10
10.35596596
 20
11.4164808072
 30
0.0
 10
10.3581832655
 20
11.4152321702
 30
0.0
 10
10.3602019677
 20
11.413961036
 30
0.0
 10
10.3620188375
 20
11.4126693149
 30
0.0
 10
10.3636310691
 20
11.4113589746
 30
0.0
 10
10.3650360142
 20
11.4100316617
 30
0.0
 10
10.3662314611
 20
11.4086891434
 30
0.0
 10
10.3672150219
 20
11.4073327386
 30
0.0
 10
10.3679844877
 20
11.4059640438
 30
0.0
 10
10.3685371422
 20
11.4045845508
 30
0.0
 10
10.3688703067
 20
11.403197241
 30
0.0
 10
10.3689448836
 20
11.4022649481
 30
0.0
 10
10.3689448944
 20
11.4018048661
 30
0.0
  0
SPLINE
  5
307
100
AcDbEntity
  8
0
100
AcDbSpline
 62
7
  6
CONTINUOUS
 70
0
 71
3
 72
23
 73
19
 74
0
 42
0.0000001
 43
0.0000001
 44
0.0000000001
 40
0.0
 40
0.0
 40
0.0
 40
0.0
 40
0.0636058029
 40
0.1270526157
 40
0.1903336044
 40
0.2534532633
 40
0.3164142996
 40
0.3792192015
 40
0.4418722319
 40
0.5043784446
 40
0.5667435776
 40
0.6289742691
 40
0.6910779443
 40
0.7530627466
 40
0.8149375465
 40
0.8767118558
 40
0.9383957848
 40
1.0
 40
1.0
 40
1.0
 40
1.0
 10
9.9895712107
 20
5.5757282419
 30
0.0
 10
10.0001965092
 20
5.574991375
 30
0.0
 10
10.0214498057
 20
5.5739106934
 30
0.0
 10
10.0533252471
 20
5.5734735923
 30
0.0
 10
10.085113946
 20
5.5742234705
 30
0.0
 10
10.1167709511
 20
5.5761592061
 30
0.0
 10
10.1482533531
 20
5.57927795
 30
0.0
 10
10.1795177518
 20
5.5835757227
 30
0.0
 10
10.2105210769
 20
5.5890465133
 30
0.0
 10
10.2412207262
 20
5.5956827374
 30
0.0
 10
10.2715744191
 20
5.603475494
 30
0.0
 10
10.3015404265
 20
5.6124138977
 30
0.0
 10
10.3310775
 20
5.6224857371
 30
0.0
 10
10.360144968
 20
5.6336772655
 30
0.0
 10
10.3887028563
 20
5.6459729045
 30
0.0
 10
10.4167119389
 20
5.6593560069
 30
0.0
 10
10.4441331426
 20
5.6738077818
 30
0.0
 10
10.4620087297
 20
5.6841483233
 30
0.0
 10
10.4708341861
 20
5.6894891096
 30
0.0
  0
SPLINE
  5
308
100
AcDbEntity
  8
0
100
AcDbSpline
 62
7
  6
CONTINUOUS
 70
0
 71
3
 72
26
 73
22
 74
0
 42
0.0000001
 43
0.0000001
 44
0.0000000001
 40
0.0
 40
0.0
 40
0.0
 40
0.0
 40
0.0638303152
 40
0.1274493386
 40
0.1908547409
 40
0.2540526785
 40
0.2855775318
 40
0.3170525429
 40
0.3798524157
 40
0.4424664902
 40
0.5049059589
 40
0.5671837731
 40
0.6293144756
 40
0.6913140903
 40
0.7222726532
 40
0.7532050543
 40
0.8149957087
 40
0.8767106248
 40
0.9075485571
 40
0.9383752048
 40
1.0
 40
1.0
 40
1.0
 40
1.0
 10
9.164757006
 20
7.5337949382
 30
0.0
 10
9.1773228639
 20
7.532923493
 30
0.0
 10
9.2024589645
 20
7.5317850317
 30
0.0
 10
9.2401355266
 20
7.5319016679
 30
0.0
 10
9.2776377323
 20
7.533845349
 30
0.0
 10
9.3086973814
 20
7.5369864366
 30
0.0
 10
9.3333668417
 20
7.5404080482
 30
0.0
 10
9.3578665834
 20
7.5444260333
 30
0.0
 10
9.3882244251
 20
7.5505722988
 30
0.0
 10
9.4241596697
 20
7.5597368921
 30
0.0
 10
9.4594915023
 20
7.5706640421
 30
0.0
 10
9.4941371392
 20
7.5833283347
 30
0.0
 10
9.528015411
 20
7.5977000654
 30
0.0
 10
9.5555569763
 20
7.6110789632
 30
0.0
 10
9.5771233862
 20
7.6225990681
 30
0.0
 10
9.5983515818
 20
7.6346478739
 30
0.0
 10
9.6242695158
 20
7.6507081116
 30
0.0
 10
9.6493108338
 20
7.668070943
 30
0.0
 10
9.6687689419
 20
7.6827096458
 30
0.0
 10
9.687828317
 20
7.6978343478
 30
0.0
 10
9.7016771037
 20
7.7097274812
 30
0.0
 10
9.7106948036
 20
7.7178863038
 30
0.0
  0
SPLINE
  5
309
100
AcDbEntity
  8
0
100
AcDbSpline
 62
7
  6
CONTINUOUS
 70
0
 71
3
 72
50
 73
46
 74
0
 42
0.0000001
 43
0.0000001
 44
0.0000000001
 40
0.0
 40
0.0
 40
0.0
 40
0.0
 40
0.0311249296
 40
0.0624008555
 40
0.0938221587
 40
0.1253794154
 40
0.1570609103
 40
0.188852401
 40
0.2207375331
 40
0.2526981562
 40
0.2847146847
 40
0.3167664766
 40
0.3488322252
 40
0.3808903617
 40
0.4129194605
 40
0.4448986424
 40
0.4768079704
 40
0.5086288328
 40
0.5403443093
 40
0.5719395128
 40
0.6034019004
 40
0.634721547
 40
0.6658913779
 40
0.6814212262
 40
0.696912369
 40
0.7123647977
 40
0.7277787011
 40
0.7431544778
 40
0.7584927213
 40
0.7737942297
 40
0.7890599989
 40
0.8042912137
 40
0.8194892544
 40
0.8346556765
 40
0.8497922146
 40
0.8649007692
 40
0.8799833938
 40
0.8950422932
 40
0.9100798012
 40
0.9250983757
 40
0.9401005834
 40
0.955089081
 40
0.9700666085
 40
0.9850359656
 40
1.0
 40
1.0
 40
1.0
 40
1.0
 10
9.164757006
 20
7.5337949382
 30
0.0
 10
9.1459009101
 20
7.5351026129
 30
0.0
 10
9.1081780284
 20
7.5390863909
 30
0.0
 10
9.0520410193
 20
7.5490878121
 30
0.0
 10
8.9964896664
 20
7.5630778155
 30
0.0
 10
8.9418162122
 20
7.5809831942
 30
0.0
 10
8.8883036437
 20
7.6027104304
 30
0.0
 10
8.8362300505
 20
7.6281463515
 30
0.0
 10
8.7858656702
 20
7.6571585118
 30
0.0
 10
8.7374719356
 20
7.6895959886
 30
0.0
 10
8.6913000275
 20
7.7252901621
 30
0.0
 10
8.6475896185
 20
7.7640555806
 30
0.0
 10
8.6065676458
 20
7.8056909219
 30
0.0
 10
8.5684470985
 20
7.8499799792
 30
0.0
 10
8.5334259395
 20
7.8966928052
 30
0.0
 10
8.5016861134
 20
7.9455869123
 30
0.0
 10
8.4733926028
 20
7.996408512
 30
0.0
 10
8.4486925922
 20
8.0488938045
 30
0.0
 10
8.4277146534
 20
8.1027703659
 30
0.0
 10
8.4105680841
 20
8.1577583281
 30
0.0
 10
8.3973423678
 20
8.2135726828
 30
0.0
 10
8.3881067532
 20
8.2699215708
 30
0.0
 10
8.3837703916
 20
8.3171458968
 30
0.0
 10
8.3823422005
 20
8.3548924875
 30
0.0
 10
8.3822898287
 20
8.3831209748
 30
0.0
 10
8.3832553263
 20
8.4112622317
 30
0.0
 10
8.3852375012
 20
8.4392800989
 30
0.0
 10
8.3882336082
 20
8.4671380229
 30
0.0
 10
8.3922400024
 20
8.49479977
 30
0.0
 10
8.3972513076
 20
8.5222293641
 30
0.0
 10
8.403261089
 20
8.5493911124
 30
0.0
 10
8.4102616223
 20
8.5762496486
 30
0.0
 10
8.418243633
 20
8.6027700726
 30
0.0
 10
8.4271969846
 20
8.6289178022
 30
0.0
 10
8.4371098513
 20
8.6546588682
 30
0.0
 10
8.4479694337
 20
8.6799597422
 30
0.0
 10
8.4597616649
 20
8.7047874643
 30
0.0
 10
8.4724710518
 20
8.7291097971
 30
0.0
 10
8.4860812818
 20
8.7528949676
 30
0.0
 10
8.5005744609
 20
8.7761121148
 30
0.0
 10
8.515931838
 20
8.7987309701
 30
0.0
 10
8.5321334314
 20
8.8207220341
 30
0.0
 10
8.5491581254
 20
8.842056887
 30
0.0
 10
8.5669835956
 20
8.8627072037
 30
0.0
 10
8.5793878077
 20
8.876002405
 30
0.0
 10
8.5857142812
 20
8.8825257789
 30
0.0
  0
SPLINE
  5
30A
100
AcDbEntity
  8
0
100
AcDbSpline
 62
7
  6
CONTINUOUS
 70
0
 71
3
 72
71
 73
67
 74
0
 42
0.0000001
 43
0.0000001
 44
0.0000000001
 40
0.0
 40
0.0
 40
0.0
 40
0.0
 40
0.0156655916
 40
0.031380854
 40
0.047143234
 40
0.0629523778
 40
0.0788064012
 40
0.0947032231
 40
0.1106405231
 40
0.1266155898
 40
0.1426254339
 40
0.1586668018
 40
0.1747361932
 40
0.1908298914
 40
0.206943996
 40
0.2230744534
 40
0.2392170834
 40
0.2553676136
 40
0.271521715
 40
0.2876750302
 40
0.3038232056
 40
0.3199619294
 40
0.3360869611
 40
0.3521941605
 40
0.3682795248
 40
0.3843392188
 40
0.4003696007
 40
0.4163672531
 40
0.4323290152
 40
0.448252003
 40
0.4641336331
 40
0.4799716516
 40
0.4957641519
 40
0.5115095876
 40
0.5272067942
 40
0.5428550034
 40
0.5584538473
 40
0.5740033658
 40
0.5895040162
 40
0.6049566697
 40
0.6203626033
 40
0.635723499
 40
0.6510414331
 40
0.6663188565
 40
0.6815585767
 40
0.6967637412
 40
0.7119378078
 40
0.7270845125
 40
0.7422078413
 40
0.7573119962
 40
0.7724013539
 40
0.7874804256
 40
0.8025538196
 40
0.8176261977
 40
0.8327022291
 40
0.8477865486
 40
0.8628837165
 40
0.8779981747
 40
0.8931342037
 40
0.9082958868
 40
0.9234870759
 40
0.9387113543
 40
0.9539720029
 40
0.969271985
 40
0.9846139091
 40
1.0
 40
1.0
 40
1.0
 40
1.0
 10
9.164757006
 20
7.717320856
 30
0.0
 10
9.1556277657
 20
7.717953971
 30
0.0
 10
9.1373665484
 20
7.719638776
 30
0.0
 10
9.110077357
 20
7.7234052992
 30
0.0
 10
9.0829017064
 20
7.7284078791
 30
0.0
 10
9.0558974502
 20
7.7346356215
 30
0.0
 10
9.0291202852
 20
7.7420757328
 30
0.0
 10
9.0026261587
 20
7.750712574
 30
0.0
 10
8.9764702539
 20
7.7605281025
 30
0.0
 10
8.9507070878
 20
7.7715019327
 30
0.0
 10
8.9253903088
 20
7.7836110814
 30
0.0
 10
8.900572645
 20
7.7968302778
 30
0.0
 10
8.8763058342
 20
7.8111320287
 30
0.0
 10
8.8526404253
 20
7.8264865005
 30
0.0
 10
8.82962568
 20
7.8428616309
 30
0.0
 10
8.8073095579
 20
7.8602233199
 30
0.0
 10
8.7857385949
 20
7.8785354387
 30
0.0
 10
8.7649576751
 20
7.8977597606
 30
0.0
 10
8.74501008
 20
7.917856223
 30
0.0
 10
8.7259374277
 20
7.9387830118
 30
0.0
 10
8.7077794422
 20
7.960496508
 30
0.0
 10
8.6905739107
 20
7.982951437
 30
0.0
 10
8.6743567161
 20
8.0061010453
 30
0.0
 10
8.6591617122
 20
8.0298971406
 30
0.0
 10
8.6450204988
 20
8.0542901014
 30
0.0
 10
8.6319625463
 20
8.0792291127
 30
0.0
 10
8.620015158
 20
8.1046622589
 30
0.0
 10
8.6092032219
 20
8.1305365372
 30
0.0
 10
8.599549239
 20
8.1567980231
 30
0.0
 10
8.5910733954
 20
8.1833920212
 30
0.0
 10
8.5837934429
 20
8.2102631356
 30
0.0
 10
8.5777245028
 20
8.2373553517
 30
0.0
 10
8.5728792566
 20
8.2646122201
 30
0.0
 10
8.5692679315
 20
8.2919769525
 30
0.0
 10
8.5668980557
 20
8.3193925069
 30
0.0
 10
8.5657745613
 20
8.3468017395
 30
0.0
 10
8.5658998884
 20
8.3741475192
 30
0.0
 10
8.5672738757
 20
8.4013728307
 30
0.0
 10
8.5698936186
 20
8.4284209113
 30
0.0
 10
8.5737537063
 20
8.4552353638
 30
0.0
 10
8.5788462304
 20
8.4817602491
 30
0.0
 10
8.5851605665
 20
8.5079402455
 30
0.0
 10
8.5926835461
 20
8.533720754
 30
0.0
 10
8.6013995788
 20
8.5590479729
 30
0.0
 10
8.6112905646
 20
8.5838690337
 30
0.0
 10
8.6223358239
 20
8.6081321701
 30
0.0
 10
8.6345123559
 20
8.6317867459
 30
0.0
 10
8.6477948675
 20
8.6547833415
 30
0.0
 10
8.6621556118
 20
8.6770739802
 30
0.0
 10
8.6775646077
 20
8.6986121577
 30
0.0
 10
8.6939897678
 20
8.7193528766
 30
0.0
 10
8.7113968464
 20
8.7392528146
 30
0.0
 10
8.7297494525
 20
8.7582704894
 30
0.0
 10
8.7490092968
 20
8.7763662022
 30
0.0
 10
8.7691362412
 20
8.793502115
 30
0.0
 10
8.7900882222
 20
8.8096425199
 30
0.0
 10
8.8118214831
 20
8.8247537748
 30
0.0
 10
8.8342906961
 20
8.8388043032
 30
0.0
 10
8.8574489626
 20
8.8517647819
 30
0.0
 10
8.8812478999
 20
8.8636082665
 30
0.0
 10
8.9056378414
 20
8.8743100625
 30
0.0
 10
8.9305679298
 20
8.8838477927
 30
0.0
 10
8.9559860511
 20
8.8922016639
 30
0.0
 10
8.9818393655
 20
8.8993543478
 30
0.0
 10
9.0080731791
 20
8.9052907924
 30
0.0
 10
9.0257553429
 20
8.9084250108
 30
0.0
 10
9.0346395341
 20
8.9097864081
 30
0.0
  0
SPLINE
  5
30B
100
AcDbEntity
  8
0
100
AcDbSpline
 62
7
  6
CONTINUOUS
 70
0
 71
3
 72
71
 73
67
 74
0
 42
0.0000001
 43
0.0000001
 44
0.0000000001
 40
0.0
 40
0.0
 40
0.0
 40
0.0
 40
0.0156602349
 40
0.0313693564
 40
0.0471246128
 40
0.0629257802
 40
0.0787711298
 40
0.0946586307
 40
0.1105861032
 40
0.1265509791
 40
0.1425504201
 40
0.1585813417
 40
0.1746404158
 40
0.1907241094
 40
0.2068287118
 40
0.222950355
 40
0.2390850479
 40
0.2552287078
 40
0.2713771828
 40
0.2875262869
 40
0.303671833
 40
0.3198096554
 40
0.3359356454
 40
0.3520457836
 40
0.3681361617
 40
0.3842030167
 40
0.4002427612
 40
0.4162520041
 40
0.4322275796
 40
0.4481665772
 40
0.4640663569
 40
0.4799245732
 40
0.4957392022
 40
0.511508551
 40
0.5272312735
 40
0.5429063932
 40
0.558533306
 40
0.5741117863
 40
0.589642002
 40
0.6051245109
 40
0.6205602551
 40
0.6359505665
 40
0.6512971558
 40
0.6666020952
 40
0.6818678119
 40
0.69709707
 40
0.7122929427
 40
0.7274587923
 40
0.7425982461
 40
0.7577151597
 40
0.7728135857
 40
0.7878977433
 40
0.8029719777
 40
0.8180407192
 40
0.8331084497
 40
0.8481796611
 40
0.8632588115
 40
0.8783502887
 40
0.8934583738
 40
0.9085871992
 40
0.9237407121
 40
0.938922647
 40
0.95413649
 40
0.9693854449
 40
0.9846724213
 40
1.0
 40
1.0
 40
1.0
 40
1.0
 10
9.2165207723
 20
7.8083835947
 30
0.0
 10
9.2081817674
 20
7.8089619066
 30
0.0
 10
9.1915012494
 20
7.8104934934
 30
0.0
 10
9.1665713892
 20
7.8139011995
 30
0.0
 10
9.14174125
 20
7.8184165524
 30
0.0
 10
9.1170617646
 20
7.8240301137
 30
0.0
 10
9.0925818149
 20
7.8307306957
 30
0.0
 10
9.0683505974
 20
7.8385048119
 30
0.0
 10
9.0444167022
 20
7.8473369002
 30
0.0
 10
9.0208280647
 20
7.8572092161
 30
0.0
 10
8.9976319282
 20
7.8681018824
 30
0.0
 10
8.9748748099
 20
7.8799931296
 30
0.0
 10
8.9526023128
 20
7.8928591078
 30
0.0
 10
8.9308590154
 20
7.9066739354
 30
0.0
 10
8.9096885192
 20
7.9214099763
 30
0.0
 10
8.8891332717
 20
7.9370377214
 30
0.0
 10
8.8692343933
 20
7.9535257574
 30
0.0
 10
8.85003178
 20
7.9708410746
 30
0.0
 10
8.8315639668
 20
7.9889490265
 30
0.0
 10
8.8138678828
 20
8.0078132419
 30
0.0
 10
8.796978997
 20
8.0273959327
 30
0.0
 10
8.7809312382
 20
8.0476579241
 30
0.0
 10
8.7657566912
 20
8.0685585485
 30
0.0
 10
8.7514857569
 20
8.0900559227
 30
0.0
 10
8.7381471401
 20
8.1121070336
 30
0.0
 10
8.7257675196
 20
8.1346676529
 30
0.0
 10
8.7143716777
 20
8.1576925587
 30
0.0
 10
8.7039825692
 20
8.1811356637
 30
0.0
 10
8.6946210004
 20
8.2049499711
 30
0.0
 10
8.6863056875
 20
8.2290877377
 30
0.0
 10
8.6790534118
 20
8.2535006257
 30
0.0
 10
8.6728787415
 20
8.278139706
 30
0.0
 10
8.6677939904
 20
8.3029555767
 30
0.0
 10
8.6638094541
 20
8.327898518
 30
0.0
 10
8.6609332021
 20
8.3529185347
 30
0.0
 10
8.6591709265
 20
8.3779654588
 30
0.0
 10
8.6585262434
 20
8.4029890847
 30
0.0
 10
8.6590005701
 20
8.4279392368
 30
0.0
 10
8.6605928801
 20
8.4527658846
 30
0.0
 10
8.6633000365
 20
8.4774192452
 30
0.0
 10
8.6671167622
 20
8.5018498552
 30
0.0
 10
8.672035337
 20
8.5260087208
 30
0.0
 10
8.6780459214
 20
8.5498473847
 30
0.0
 10
8.6851366145
 20
8.5733179842
 30
0.0
 10
8.6932931496
 20
8.5963734393
 30
0.0
 10
8.7024991546
 20
8.6189675014
 30
0.0
 10
8.7127362981
 20
8.6410547773
 30
0.0
 10
8.7239840257
 20
8.6625909425
 30
0.0
 10
8.7362197255
 20
8.6835328036
 30
0.0
 10
8.7494189508
 20
8.7038382689
 30
0.0
 10
8.7635552265
 20
8.7234665641
 30
0.0
 10
8.7786001121
 20
8.7423783422
 30
0.0
 10
8.794523481
 20
8.7605355905
 30
0.0
 10
8.8112934075
 20
8.7779018193
 30
0.0
 10
8.8288761464
 20
8.7944422475
 30
0.0
 10
8.8472364382
 20
8.8101236447
 30
0.0
 10
8.8663374749
 20
8.8249144682
 30
0.0
 10
8.8861408315
 20
8.8387851322
 30
0.0
 10
8.9066067631
 20
8.8517078008
 30
0.0
 10
8.927694238
 20
8.8636564567
 30
0.0
 10
8.9493608585
 20
8.874607234
 30
0.0
 10
8.9715631411
 20
8.8845382015
 30
0.0
 10
8.9942565165
 20
8.893429339
 30
0.0
 10
9.0173955805
 20
8.9012629479
 30
0.0
 10
9.0409332097
 20
8.9080232703
 30
0.0
 10
9.0568390256
 20
8.9118006418
 30
0.0
 10
9.0648406307
 20
8.9135067415
 30
0.0
  0
SPLINE
  5
30C
100
AcDbEntity
  8
0
100
AcDbSpline
 62
7
  6
CONTINUOUS
 70
0
 71
3
 72
39
 73
35
 74
0
 42
0.0000001
 43
0.0000001
 44
0.0000000001
 40
0.0
 40
0.0
 40
0.0
 40
0.0
 40
0.0311449947
 40
0.0624431119
 40
0.0938883503
 40
0.1254709881
 40
0.1571788868
 40
0.1889972614
 40
0.2209091758
 40
0.2528958433
 40
0.2849370222
 40
0.3170114123
 40
0.3490970723
 40
0.3811718431
 40
0.4132137759
 40
0.4452015559
 40
0.4771149186
 40
0.5089350513
 40
0.5406449739
 40
0.572229893
 40
0.6036775221
 40
0.6349783619
 40
0.6661259329
 40
0.6971169532
 40
0.7279514559
 40
0.7586328387
 40
0.7891678401
 40
0.8195664404
 40
0.8498416824
 40
0.8800094153
 40
0.9100879623
 40
0.9400977195
 40
0.9700606952
 40
1.0
 40
1.0
 40
1.0
 40
1.0
 10
9.2339881156
 20
7.8904448239
 30
0.0
 10
9.2219587529
 20
7.891279063
 30
0.0
 10
9.1978929973
 20
7.893832142
 30
0.0
 10
9.162086124
 20
7.90026343
 30
0.0
 10
9.1266627667
 20
7.9092717302
 30
0.0
 10
9.0918142592
 20
7.9208086261
 30
0.0
 10
9.0577257296
 20
7.9348122484
 30
0.0
 10
9.0245790137
 20
7.9512077136
 30
0.0
 10
8.9925506896
 20
7.9699073907
 30
0.0
 10
8.9618114229
 20
7.9908114423
 30
0.0
 10
8.9325249915
 20
8.0138083231
 30
0.0
 10
8.9048474461
 20
8.0387753825
 30
0.0
 10
8.8789262807
 20
8.0655795093
 30
0.0
 10
8.8548996575
 20
8.0940778361
 30
0.0
 10
8.8328956767
 20
8.1241184927
 30
0.0
 10
8.8130317001
 20
8.1555414072
 30
0.0
 10
8.7954137305
 20
8.1881791496
 30
0.0
 10
8.7801358469
 20
8.2218578118
 30
0.0
 10
8.7672797062
 20
8.2563979249
 30
0.0
 10
8.7569141088
 20
8.2916154034
 30
0.0
 10
8.7490946282
 20
8.3273225131
 30
0.0
 10
8.7438633095
 20
8.3633288582
 30
0.0
 10
8.7412484362
 20
8.399442383
 30
0.0
 10
8.7412643665
 20
8.4354703835
 30
0.0
 10
8.7439114408
 20
8.4712205251
 30
0.0
 10
8.7491759606
 20
8.5065018607
 30
0.0
 10
8.7570302377
 20
8.5411258463
 30
0.0
 10
8.7674327232
 20
8.5749073529
 30
0.0
 10
8.7803281873
 20
8.6076656474
 30
0.0
 10
8.7956480547
 20
8.6392254337
 30
0.0
 10
8.8133105198
 20
8.6694175806
 30
0.0
 10
8.8332218317
 20
8.698080904
 30
0.0
 10
8.8552735762
 20
8.7250598925
 30
0.0
 10
8.8713301264
 20
8.7418337456
 30
0.0
 10
8.8796673546
 20
8.7498868469
 30
0.0
  0
SPLINE
  5
30D
100
AcDbEntity
  8
0
100
AcDbSpline
 62
7
  6
CONTINUOUS
 70
0
 71
3
 72
43
 73
39
 74
0
 42
0.0000001
 43
0.0000001
 44
0.0000000001
 40
0.0
 40
0.0
 40
0.0
 40
0.0
 40
0.0309206476
 40
0.0619698361
 40
0.0931423722
 40
0.1244329802
 40
0.1558336639
 40
0.1873352898
 40
0.2189271521
 40
0.2505973326
 40
0.2664594131
 40
0.2823361101
 40
0.3141229819
 40
0.3459466268
 40
0.377791927
 40
0.4096434706
 40
0.4414857613
 40
0.4733034286
 40
0.5050814372
 40
0.5368052928
 40
0.5684612425
 40
0.6000364691
 40
0.6315192743
 40
0.6628992519
 40
0.6941674466
 40
0.7253164966
 40
0.7563407567
 40
0.7872364005
 40
0.8180014988
 40
0.8333368513
 40
0.8486397366
 40
0.8639104732
 40
0.87914949
 40
0.9095309659
 40
0.93979377
 40
0.9548849385
 40
0.9699495027
 40
1.0
 40
1.0
 40
1.0
 40
1.0
 10
9.4768900602
 20
8.1288372724
 30
0.0
 10
9.4667993859
 20
8.1296113369
 30
0.0
 10
9.446618234
 20
8.1317812631
 30
0.0
 10
9.4165425553
 20
8.136869044
 30
0.0
 10
9.3867070185
 20
8.1437779154
 30
0.0
 10
9.3572253359
 20
8.1524813887
 30
0.0
 10
9.3282077652
 20
8.1629468364
 30
0.0
 10
9.2997632989
 20
8.1751347947
 30
0.0
 10
9.2719992573
 20
8.1889990925
 30
0.0
 10
9.2495262639
 20
8.2019005936
 30
0.0
 10
9.2319896021
 20
8.2130040033
 30
0.0
 10
9.2147484122
 20
8.2246293704
 30
0.0
 10
9.1938130599
 20
8.2401006735
 30
0.0
 10
9.1697802408
 20
8.2600899705
 30
0.0
 10
9.1469150883
 20
8.2814367898
 30
0.0
 10
9.1253040046
 20
8.3040605752
 30
0.0
 10
9.1050280124
 20
8.3278764538
 30
0.0
 10
9.0861633151
 20
8.3527949611
 30
0.0
 10
9.0687807819
 20
8.3787225331
 30
0.0
 10
9.0529457451
 20
8.4055618119
 30
0.0
 10
9.0387177395
 20
8.4332120196
 30
0.0
 10
9.0261502842
 20
8.4615693295
 30
0.0
 10
9.0152906805
 20
8.4905272553
 30
0.0
 10
9.0061798346
 20
8.51997704
 30
0.0
 10
8.998852094
 20
8.5498080824
 30
0.0
 10
8.9933351195
 20
8.5799082632
 30
0.0
 10
8.989649806
 20
8.6101646942
 30
0.0
 10
8.9878101013
 20
8.6404629053
 30
0.0
 10
8.9878211293
 20
8.6656809819
 30
0.0
 10
8.9887590811
 20
8.6857590199
 30
0.0
 10
8.9899243191
 20
8.7007422633
 30
0.0
 10
8.9915508999
 20
8.7156507617
 30
0.0
 10
8.9943296456
 20
8.7353885011
 30
0.0
 10
8.9989453238
 20
8.7598101721
 30
0.0
 10
9.0050813634
 20
8.7838450792
 30
0.0
 10
9.0108832805
 20
8.8027530008
 30
0.0
 10
9.0172628143
 20
8.8213997293
 30
0.0
 10
9.022712995
 20
8.8351376504
 30
0.0
 10
9.0266332728
 20
8.8441581207
 30
0.0
  0
SPLINE
  5
30E
100
AcDbEntity
  8
0
100
AcDbSpline
 62
7
  6
CONTINUOUS
 70
0
 71
3
 72
73
 73
69
 74
0
 42
0.0000001
 43
0.0000001
 44
0.0000000001
 40
0.0
 40
0.0
 40
0.0
 40
0.0
 40
0.0156747269
 40
0.0314021214
 40
0.0471805288
 40
0.0630087433
 40
0.0788845528
 40
0.0948055238
 40
0.1107687417
 40
0.1267709271
 40
0.1428084469
 40
0.1588773531
 40
0.1749734198
 40
0.1910921815
 40
0.2072289734
 40
0.2233789728
 40
0.2395372414
 40
0.255698769
 40
0.2718585169
 40
0.2880114623
 40
0.3041526419
 40
0.3202771946
 40
0.3363804047
 40
0.3524577435
 40
0.36850491
 40
0.3845178707
 40
0.4004928973
 40
0.416426601
 40
0.4323159667
 40
0.4481583822
 40
0.4639516661
 40
0.4796940921
 40
0.4953844097
 40
0.5110218603
 40
0.5266061895
 40
0.5421376544
 40
0.5576170261
 40
0.5730455874
 40
0.5884251258
 40
0.6037579205
 40
0.6190467238
 40
0.6342947373
 40
0.6495055828
 40
0.6646832674
 40
0.6798321448
 40
0.6949568718
 40
0.7100623606
 40
0.725153728
 40
0.7402362412
 40
0.7553152624
 40
0.7703961906
 40
0.7854844046
 40
0.8005852051
 40
0.8157037584
 40
0.8308450423
 40
0.846013794
 40
0.8612144614
 40
0.8764511581
 40
0.8917276228
 40
0.9070471831
 40
0.9224127288
 40
0.9301141266
 40
0.9378278864
 40
0.9532922014
 40
0.9688081653
 40
0.9765864636
 40
0.9843782678
 40
1.0
 40
1.0
 40
1.0
 40
1.0
 10
9.7219525577
 20
5.2563751974
 30
0.0
 10
9.7068507952
 20
5.2574225082
 30
0.0
 10
9.6766427864
 20
5.26026149
 30
0.0
 10
9.6315210738
 20
5.2667227381
 30
0.0
 10
9.5866166307
 20
5.2753789532
 30
0.0
 10
9.5420392618
 20
5.2862087473
 30
0.0
 10
9.4978956858
 20
5.2991862325
 30
0.0
 10
9.4542923643
 20
5.3142799464
 30
0.0
 10
9.4113342032
 20
5.3314535396
 30
0.0
 10
9.3691246227
 20
5.3506655916
 30
0.0
 10
9.327765211
 20
5.3718697885
 30
0.0
 10
9.287355509
 20
5.3950150254
 30
0.0
 10
9.2479927697
 20
5.4200455394
 30
0.0
 10
9.209771727
 20
5.446901042
 30
0.0
 10
9.1727843698
 20
5.4755168631
 30
0.0
 10
9.1371197216
 20
5.5058241051
 30
0.0
 10
9.1028636313
 20
5.5377498103
 30
0.0
 10
9.0700985482
 20
5.5712171161
 30
0.0
 10
9.0389033344
 20
5.6061454545
 30
0.0
 10
9.009353082
 20
5.6424507507
 30
0.0
 10
8.9815189322
 20
5.6800456218
 30
0.0
 10
8.9554679061
 20
5.7188395865
 30
0.0
 10
8.9312627431
 20
5.7587392797
 30
0.0
 10
8.9089617553
 20
5.799648678
 30
0.0
 10
8.8886186647
 20
5.8414693177
 30
0.0
 10
8.8702824827
 20
5.8841005385
 30
0.0
 10
8.8539974038
 20
5.9274397298
 30
0.0
 10
8.8398026965
 20
5.9713825739
 30
0.0
 10
8.8277326101
 20
6.0158232951
 30
0.0
 10
8.8178162906
 20
6.0606549111
 30
0.0
 10
8.8100777143
 20
6.1057694897
 30
0.0
 10
8.8045356077
 20
6.1510584028
 30
0.0
 10
8.801203404
 20
6.1964125908
 30
0.0
 10
8.8000892267
 20
6.2417228261
 30
0.0
 10
8.8011958646
 20
6.2868799727
 30
0.0
 10
8.8045207642
 20
6.3317752476
 30
0.0
 10
8.8100560321
 20
6.3763004804
 30
0.0
 10
8.8177884556
 20
6.420348373
 30
0.0
 10
8.8276995137
 20
6.4638127602
 30
0.0
 10
8.8397654157
 20
6.5065888704
 30
0.0
 10
8.8539571775
 20
6.5485735747
 30
0.0
 10
8.8702406842
 20
6.589665636
 30
0.0
 10
8.8885767711
 20
6.629765954
 30
0.0
 10
8.9089213137
 20
6.6687778055
 30
0.0
 10
8.9312253355
 20
6.7066070783
 30
0.0
 10
8.9554351125
 20
6.7431625072
 30
0.0
 10
8.9814922934
 20
6.7783559069
 30
0.0
 10
9.0093340635
 20
6.8121023738
 30
0.0
 10
9.0388932914
 20
6.8443204963
 30
0.0
 10
9.0700986937
 20
6.8749325521
 30
0.0
 10
9.1028750065
 20
6.9038646989
 30
0.0
 10
9.1371431704
 20
6.9310471523
 30
0.0
 10
9.172820518
 20
6.9564143623
 30
0.0
 10
9.2098209667
 20
6.9799051896
 30
0.0
 10
9.2480552496
 20
7.0014630312
 30
0.0
 10
9.2874311254
 20
7.0210359588
 30
0.0
 10
9.3278536251
 20
7.0385768454
 30
0.0
 10
9.3692252033
 20
7.0540434656
 30
0.0
 10
9.4114462732
 20
7.0673986356
 30
0.0
 10
9.4544143333
 20
7.0786101555
 30
0.0
 10
9.4907315898
 20
7.086138818
 30
0.0
 10
9.5200496628
 20
7.0910675714
 30
0.0
 10
9.5495770327
 20
7.0952702321
 30
0.0
 10
9.5867619377
 20
7.0991406215
 30
0.0
 10
9.6241554393
 20
7.1011562256
 30
0.0
 10
9.6541757123
 20
7.1016588458
 30
0.0
 10
9.6843007967
 20
7.1014198139
 30
0.0
 10
9.7069018528
 20
7.1004054131
 30
0.0
 10
9.7219525577
 20
7.0993616431
 30
0.0
  0
SPLINE
  5
30F
100
AcDbEntity
  8
0
100
AcDbSpline
 62
7
  6
CONTINUOUS
 70
0
 71
3
 72
44
 73
40
 74
0
 42
0.0000001
 43
0.0000001
 44
0.0000000001
 40
0.0
 40
0.0
 40
0.0
 40
0.0
 40
0.0309924446
 40
0.0621143108
 40
0.0933601098
 40
0.1247233606
 40
0.1561953228
 40
0.1719707173
 40
0.1877693611
 40
0.2194268928
 40
0.2511585454
 40
0.2670495578
 40
0.2829538067
 40
0.3147910923
 40
0.3466583946
 40
0.3785398768
 40
0.4104195028
 40
0.4422812622
 40
0.4741093963
 40
0.50588862
 40
0.5376043401
 40
0.5692428668
 40
0.600791615
 40
0.6322392948
 40
0.6635760868
 40
0.6947938014
 40
0.7258860178
 40
0.7568482011
 40
0.7876777944
 40
0.8183742829
 40
0.8336749321
 40
0.8489430622
 40
0.8641792006
 40
0.8793839882
 40
0.9096988196
 40
0.9398991075
 40
0.9549612145
 40
0.9699984144
 40
1.0
 40
1.0
 40
1.0
 40
1.0
 10
9.469906483
 20
8.156453838
 30
0.0
 10
9.4601676216
 20
8.1573878938
 30
0.0
 10
9.4407020419
 20
8.1598657588
 30
0.0
 10
9.4117325485
 20
8.1653759642
 30
0.0
 10
9.3830372106
 20
8.1726665626
 30
0.0
 10
9.3547297235
 20
8.1817085063
 30
0.0
 10
9.3315707509
 20
8.1906675461
 30
0.0
 10
9.3133456552
 20
8.1986699066
 30
0.0
 10
9.2953130916
 20
8.2072347951
 30
0.0
 10
9.2732178833
 20
8.2189590006
 30
0.0
 10
9.251826397
 20
8.2319786188
 30
0.0
 10
9.2351685367
 20
8.243148878
 30
0.0
 10
9.2188176598
 20
8.2548212692
 30
0.0
 10
9.1990115076
 20
8.2703145437
 30
0.0
 10
9.1763563658
 20
8.2902702813
 30
0.0
 10
9.1548909852
 20
8.3115202431
 30
0.0
 10
9.1346993306
 20
8.3339814734
 30
0.0
 10
9.1158597419
 20
8.3575667779
 30
0.0
 10
9.098445503
 20
8.3821844793
 30
0.0
 10
9.0825243244
 20
8.4077389268
 30
0.0
 10
9.0681581449
 20
8.4341308226
 30
0.0
 10
9.0554028745
 20
8.4612576159
 30
0.0
 10
9.0443081805
 20
8.4890138937
 30
0.0
 10
9.034917295
 20
8.5172917901
 30
0.0
 10
9.0272668458
 20
8.5459813948
 30
0.0
 10
9.0213867157
 20
8.5749712001
 30
0.0
 10
9.0172999121
 20
8.6041484405
 30
0.0
 10
9.01502252
 20
8.6333998603
 30
0.0
 10
9.0145634666
 20
8.6626109121
 30
0.0
 10
9.0156994128
 20
8.6868540491
 30
0.0
 10
9.0175182352
 20
8.7061109438
 30
0.0
 10
9.0193334122
 20
8.7204585723
 30
0.0
 10
9.0215991072
 20
8.7347113626
 30
0.0
 10
9.0252139737
 20
8.7535494846
 30
0.0
 10
9.0308449762
 20
8.7767977591
 30
0.0
 10
9.0379530471
 20
8.7995907523
 30
0.0
 10
9.0445022349
 20
8.8174670383
 30
0.0
 10
9.0516078428
 20
8.8350611096
 30
0.0
 10
9.057578689
 20
8.8479790784
 30
0.0
 10
9.0618339067
 20
8.8564400744
 30
0.0
  0
SPLINE
  5
310
100
AcDbEntity
  8
0
100
AcDbSpline
 62
7
  6
CONTINUOUS
 70
0
 71
3
 72
39
 73
35
 74
0
 42
0.0000001
 43
0.0000001
 44
0.0000000001
 40
0.0
 40
0.0
 40
0.0
 40
0.0
 40
0.032018058
 40
0.0639422038
 40
0.0957691379
 40
0.1275020698
 40
0.1591427441
 40
0.1906935939
 40
0.2221581172
 40
0.2535403395
 40
0.2848449477
 40
0.3160772627
 40
0.3472431783
 40
0.3783491332
 40
0.4094020484
 40
0.4404092784
 40
0.4713785609
 40
0.5023179425
 40
0.5332357146
 40
0.564140355
 40
0.5950404492
 40
0.6259446154
 40
0.656861443
 40
0.6877994176
 40
0.7187668425
 40
0.7497717794
 40
0.7808219851
 40
0.8119248365
 40
0.8430872793
 40
0.8743157811
 40
0.9056162685
 40
0.9369940857
 40
0.9684539691
 40
1.0
 40
1.0
 40
1.0
 40
1.0
 10
9.164757006
 20
7.717320856
 30
0.0
 10
9.173392138
 20
7.7167220076
 30
0.0
 10
9.1906651861
 20
7.7158973069
 30
0.0
 10
9.2165632784
 20
7.7157849371
 30
0.0
 10
9.242365161
 20
7.7167996378
 30
0.0
 10
9.2680212191
 20
7.7189393775
 30
0.0
 10
9.2934838814
 20
7.7222001557
 30
0.0
 10
9.3187052148
 20
7.726575915
 30
0.0
 10
9.3436378275
 20
7.7320585445
 30
0.0
 10
9.368234936
 20
7.7386377227
 30
0.0
 10
9.392450357
 20
7.7463010908
 30
0.0
 10
9.4162385685
 20
7.7550344073
 30
0.0
 10
9.4395549053
 20
7.7648212384
 30
0.0
 10
9.462355595
 20
7.7756431758
 30
0.0
 10
9.4845977487
 20
7.78748003
 30
0.0
 10
9.5062395932
 20
7.800309545
 30
0.0
 10
9.5272405103
 20
7.8141075737
 30
0.0
 10
9.5475609774
 20
7.8288483089
 30
0.0
 10
9.5671628214
 20
7.8445040466
 30
0.0
 10
9.5860092741
 20
7.8610453113
 30
0.0
 10
9.6040648589
 20
7.8784411125
 30
0.0
 10
9.6212956491
 20
7.8966587653
 30
0.0
 10
9.6376693567
 20
7.9156639705
 30
0.0
 10
9.6531551606
 20
7.9354210823
 30
0.0
 10
9.6677239548
 20
7.9558929879
 30
0.0
 10
9.681348482
 20
7.9770411541
 30
0.0
 10
9.6940031045
 20
7.9988258905
 30
0.0
 10
9.7056640275
 20
8.0212062861
 30
0.0
 10
9.7163094836
 20
8.0441402324
 30
0.0
 10
9.7259194566
 20
8.0675846883
 30
0.0
 10
9.7344758536
 20
8.0914955888
 30
0.0
 10
9.741962789
 20
8.1158281517
 30
0.0
 10
9.7483660929
 20
8.1405360456
 30
0.0
 10
9.7518998004
 20
8.1572055101
 30
0.0
 10
9.7534829288
 20
8.1655855441
 30
0.0
  0
SPLINE
  5
311
100
AcDbEntity
  8
0
100
AcDbSpline
 62
7
  6
CONTINUOUS
 70
0
 71
3
 72
39
 73
35
 74
0
 42
0.0000001
 43
0.0000001
 44
0.0000000001
 40
0.0
 40
0.0
 40
0.0
 40
0.0
 40
0.0320318542
 40
0.0639740399
 40
0.0958225715
 40
0.1275804632
 40
0.1592495642
 40
0.1908318064
 40
0.2223302691
 40
0.253748562
 40
0.2850907984
 40
0.3163616949
 40
0.3475665003
 40
0.3787109351
 40
0.4098011846
 40
0.440843843
 40
0.4718458545
 40
0.5028144826
 40
0.5337572431
 40
0.5646818431
 40
0.5955961388
 40
0.6265080606
 40
0.6574255533
 40
0.688356528
 40
0.7193087861
 40
0.7502899634
 40
0.7813074842
 40
0.8123684869
 40
0.8434797808
 40
0.8746478042
 40
0.9058785563
 40
0.9371775748
 40
0.9685498955
 40
1.0
 40
1.0
 40
1.0
 40
1.0
 10
9.2165207723
 20
7.8083835947
 30
0.0
 10
9.2242428828
 20
7.8078480645
 30
0.0
 10
9.2396895429
 20
7.8070972854
 30
0.0
 10
9.2628513936
 20
7.8069364821
 30
0.0
 10
9.2859339733
 20
7.8077433126
 30
0.0
 10
9.3088962562
 20
7.8095162906
 30
0.0
 10
9.3316990811
 20
7.8122521993
 30
0.0
 10
9.3543028944
 20
7.8159465623
 30
0.0
 10
9.3766685281
 20
7.8205929559
 30
0.0
 10
9.3987573331
 20
7.8261832456
 30
0.0
 10
9.420531033
 20
7.8327079712
 30
0.0
 10
9.4419519575
 20
7.8401557555
 30
0.0
 10
9.4629830469
 20
7.8485136948
 30
0.0
 10
9.4835878251
 20
7.8577675003
 30
0.0
 10
9.5037306845
 20
7.8679010127
 30
0.0
 10
9.5233767273
 20
7.8788967656
 30
0.0
 10
9.5424918839
 20
7.8907358149
 30
0.0
 10
9.5610431471
 20
7.9033975278
 30
0.0
 10
9.5789983158
 20
7.9168601136
 30
0.0
 10
9.5963263011
 20
7.9311002531
 30
0.0
 10
9.61299718
 20
7.9460932043
 30
0.0
 10
9.6289819642
 20
7.9618131463
 30
0.0
 10
9.6442530564
 20
7.9782327716
 30
0.0
 10
9.6587840478
 20
7.9953236329
 30
0.0
 10
9.672549658
 20
8.0130562367
 30
0.0
 10
9.6855262022
 20
8.0313997638
 30
0.0
 10
9.6976911709
 20
8.0503224956
 30
0.0
 10
9.7090234462
 20
8.0697917023
 30
0.0
 10
9.7195035758
 20
8.0897735834
 30
0.0
 10
9.7291133096
 20
8.1102336221
 30
0.0
 10
9.7378360456
 20
8.1311363374
 30
0.0
 10
9.7456568566
 20
8.1524456439
 30
0.0
 10
9.7525619095
 20
8.1741241851
 30
0.0
 10
9.7565421867
 20
8.1887802208
 30
0.0
 10
9.7583762617
 20
8.196155674
 30
0.0
  0
SPLINE
  5
312
100
AcDbEntity
  8
0
100
AcDbSpline
 62
7
  6
CONTINUOUS
 70
0
 71
3
 72
49
 73
45
 74
0
 42
0.0000001
 43
0.0000001
 44
0.0000000001
 40
0.0
 40
0.0
 40
0.0
 40
0.0
 40
0.0055575652
 40
0.0111779989
 40
0.0169219414
 40
0.0228458413
 40
0.0290005862
 40
0.0354310054
 40
0.0421754419
 40
0.0492662547
 40
0.0567303348
 40
0.0645894055
 40
0.0728610837
 40
0.081559144
 40
0.0906940366
 40
0.1002736841
 40
0.1103033552
 40
0.1207863534
 40
0.131724296
 40
0.1431169483
 40
0.1549629335
 40
0.167259542
 40
0.1931868013
 40
0.2208582139
 40
0.2502183164
 40
0.281200247
 40
0.3137274299
 40
0.3477148798
 40
0.3830701696
 40
0.4196941701
 40
0.4574819135
 40
0.4963233105
 40
0.5361037302
 40
0.5767045149
 40
0.6180036379
 40
0.6598762574
 40
0.7021952159
 40
0.7448315601
 40
0.7876550186
 40
0.8305347645
 40
0.873339678
 40
0.9159378915
 40
0.9582026976
 40
1.0
 40
1.0
 40
1.0
 40
1.0
 10
9.3268074591
 20
10.7746609791
 30
0.0
 10
9.3268074523
 20
10.775393227
 30
0.0
 10
9.3268894432
 20
10.7768672792
 30
0.0
 10
9.3272573148
 20
10.7790705034
 30
0.0
 10
9.3278696101
 20
10.7812688089
 30
0.0
 10
9.3287251002
 20
10.7834596365
 30
0.0
 10
9.3298222954
 20
10.7856412607
 30
0.0
 10
9.3311598624
 20
10.7878119308
 30
0.0
 10
9.3327361642
 20
10.7899702192
 30
0.0
 10
9.3345496789
 20
10.7921146717
 30
0.0
 10
9.3365988487
 20
10.7942437727
 30
0.0
 10
9.3388818575
 20
10.7963561483
 30
0.0
 10
9.3413969224
 20
10.7984502085
 30
0.0
 10
9.3441420134
 20
10.8005244172
 30
0.0
 10
9.3471149094
 20
10.8025772669
 30
0.0
 10
9.3503133004
 20
10.8046070711
 30
0.0
 10
9.3537345856
 20
10.8066123105
 30
0.0
 10
9.3573760313
 20
10.8085913828
 30
0.0
 10
9.3612347334
 20
10.8105426392
 30
0.0
 10
9.3653075401
 20
10.8124645858
 30
0.0
 10
9.3695911864
 20
10.8143556265
 30
0.0
 10
9.3756873634
 20
10.8168783859
 30
0.0
 10
9.3838174461
 20
10.8199325456
 30
0.0
 10
9.3941892572
 20
10.8233888865
 30
0.0
 10
9.4053087675
 20
10.8266870124
 30
0.0
 10
9.4171397616
 20
10.8298160488
 30
0.0
 10
9.4296438405
 20
10.8327656442
 30
0.0
 10
9.4427802561
 20
10.8355260261
 30
0.0
 10
9.4565061515
 20
10.8380880327
 30
0.0
 10
9.4707766717
 20
10.8404431967
 30
0.0
 10
9.4855451442
 20
10.8425837313
 30
0.0
 10
9.5007632508
 20
10.8445025519
 30
0.0
 10
9.5163811807
 20
10.8461932963
 30
0.0
 10
9.5323477894
 20
10.8476503909
 30
0.0
 10
9.5486107782
 20
10.8488690286
 30
0.0
 10
9.5651168758
 20
10.8498451801
 30
0.0
 10
9.5818120093
 20
10.8505756057
 30
0.0
 10
9.5986414695
 20
10.8510579059
 30
0.0
 10
9.6155501187
 20
10.8512905002
 30
0.0
 10
9.632482567
 20
10.8512726124
 30
0.0
 10
9.6493832168
 20
10.8510042748
 30
0.0
 10
9.6661970226
 20
10.850486431
 30
0.0
 10
9.6828684368
 20
10.8497207096
 30
0.0
 10
9.6939239409
 20
10.8490422906
 30
0.0
 10
9.6994178307
 20
10.8486612881
 30
0.0
  0
SPLINE
  5
313
100
AcDbEntity
  8
0
100
AcDbSpline
 62
7
  6
CONTINUOUS
 70
0
 71
3
 72
25
 73
21
 74
0
 42
0.0000001
 43
0.0000001
 44
0.0000000001
 40
0.0
 40
0.0
 40
0.0
 40
0.0
 40
0.0638600801
 40
0.1275020905
 40
0.1909209128
 40
0.2541248095
 40
0.3171189224
 40
0.3799117047
 40
0.4425139184
 40
0.5049380808
 40
0.5671987142
 40
0.6293121052
 40
0.6912961359
 40
0.722248368
 40
0.7531756068
 40
0.814960008
 40
0.8766763542
 40
0.9075187236
 40
0.9383524717
 40
1.0
 40
1.0
 40
1.0
 40
1.0
 10
9.2339881156
 20
7.8904448239
 30
0.0
 10
9.2422111496
 20
7.8898745546
 30
0.0
 10
9.2586605429
 20
7.889145122
 30
0.0
 10
9.2833133135
 20
7.8892919611
 30
0.0
 10
9.3078432335
 20
7.8906816531
 30
0.0
 10
9.3321872759
 20
7.893310433
 30
0.0
 10
9.3562847465
 20
7.8971720009
 30
0.0
 10
9.3800747959
 20
7.9022565822
 30
0.0
 10
9.4034975623
 20
7.90855141
 30
0.0
 10
9.4264940101
 20
7.916040769
 30
0.0
 10
9.4490062993
 20
7.9247059036
 30
0.0
 10
9.4709773582
 20
7.934524774
 30
0.0
 10
9.4887990436
 20
7.943653007
 30
0.0
 10
9.5027274757
 20
7.951505379
 30
0.0
 10
9.5164194305
 20
7.9597132346
 30
0.0
 10
9.5330997791
 20
7.9706443822
 30
0.0
 10
9.5491616816
 20
7.9824470426
 30
0.0
 10
9.5616072811
 20
7.9923884353
 30
0.0
 10
9.5737743776
 20
8.0026544195
 30
0.0
 10
9.5825856108
 20
8.0107189813
 30
0.0
 10
9.5883088766
 20
8.0162472022
 30
0.0
  0
SPLINE
  5
314
100
AcDbEntity
  8
0
100
AcDbSpline
 62
7
  6
CONTINUOUS
 70
0
 71
3
 72
49
 73
45
 74
0
 42
0.0000001
 43
0.0000001
 44
0.0000000001
 40
0.0
 40
0.0
 40
0.0
 40
0.0
 40
0.0055575652
 40
0.0111779989
 40
0.0169219414
 40
0.0228458413
 40
0.0290005862
 40
0.0354310054
 40
0.0421754419
 40
0.0492662547
 40
0.0567303348
 40
0.0645894055
 40
0.0728610837
 40
0.081559144
 40
0.0906940366
 40
0.1002736841
 40
0.1103033552
 40
0.1207863534
 40
0.131724296
 40
0.1431169483
 40
0.1549629335
 40
0.167259542
 40
0.1931868013
 40
0.2208582139
 40
0.2502183164
 40
0.281200247
 40
0.3137274299
 40
0.3477148798
 40
0.3830701696
 40
0.4196941701
 40
0.4574819135
 40
0.4963233105
 40
0.5361037302
 40
0.5767045149
 40
0.6180036379
 40
0.6598762574
 40
0.7021952159
 40
0.7448315601
 40
0.7876550186
 40
0.8305347645
 40
0.873339678
 40
0.9159378915
 40
0.9582026976
 40
1.0
 40
1.0
 40
1.0
 40
1.0
 10
10.1514042227
 20
11.5711603365
 30
0.0
 10
10.1514042159
 20
11.5718925844
 30
0.0
 10
10.1514862068
 20
11.5733666367
 30
0.0
 10
10.1518540784
 20
11.5755698608
 30
0.0
 10
10.1524663737
 20
11.5777681664
 30
0.0
 10
10.1533218638
 20
11.5799589939
 30
0.0
 10
10.154419059
 20
11.5821406182
 30
0.0
 10
10.155756626
 20
11.5843112882
 30
0.0
 10
10.1573329278
 20
11.5864695767
 30
0.0
 10
10.1591464425
 20
11.5886140291
 30
0.0
 10
10.1611956123
 20
11.5907431301
 30
0.0
 10
10.1634786211
 20
11.5928555057
 30
0.0
 10
10.165993686
 20
11.594949566
 30
0.0
 10
10.168738777
 20
11.5970237746
 30
0.0
 10
10.171711673
 20
11.5990766243
 30
0.0
 10
10.174910064
 20
11.6011064285
 30
0.0
 10
10.1783313492
 20
11.603111668
 30
0.0
 10
10.1819727949
 20
11.6050907402
 30
0.0
 10
10.185831497
 20
11.6070419966
 30
0.0
 10
10.1899043037
 20
11.6089639433
 30
0.0
 10
10.19418795
 20
11.6108549839
 30
0.0
 10
10.200284127
 20
11.6133777433
 30
0.0
 10
10.2084142098
 20
11.616431903
 30
0.0
 10
10.2187860208
 20
11.6198882439
 30
0.0
 10
10.2299055311
 20
11.6231863699
 30
0.0
 10
10.2417365252
 20
11.6263154062
 30
0.0
 10
10.2542406041
 20
11.6292650017
 30
0.0
 10
10.2673770197
 20
11.6320253836
 30
0.0
 10
10.2811029151
 20
11.6345873902
 30
0.0
 10
10.2953734353
 20
11.6369425541
 30
0.0
 10
10.3101419078
 20
11.6390830887
 30
0.0
 10
10.3253600144
 20
11.6410019093
 30
0.0
 10
10.3409779443
 20
11.6426926537
 30
0.0
 10
10.356944553
 20
11.6441497484
 30
0.0
 10
10.3732075418
 20
11.6453683861
 30
0.0
 10
10.3897136394
 20
11.6463445375
 30
0.0
 10
10.4064087729
 20
11.6470749632
 30
0.0
 10
10.4232382331
 20
11.6475572634
 30
0.0
 10
10.4401468823
 20
11.6477898577
 30
0.0
 10
10.4570793306
 20
11.6477719698
 30
0.0
 10
10.4739799804
 20
11.6475036323
 30
0.0
 10
10.4907937862
 20
11.6469857884
 30
0.0
 10
10.5074652004
 20
11.646220067
 30
0.0
 10
10.5185207045
 20
11.645541648
 30
0.0
 10
10.5240145943
 20
11.6451606455
 30
0.0
  0
SPLINE
  5
315
100
AcDbEntity
  8
0
100
AcDbSpline
 62
7
  6
CONTINUOUS
 70
0
 71
3
 72
41
 73
37
 74
0
 42
0.0000001
 43
0.0000001
 44
0.0000000001
 40
0.0
 40
0.0
 40
0.0
 40
0.0
 40
0.0309844298
 40
0.0621063761
 40
0.0933594997
 40
0.1247380901
 40
0.1562327553
 40
0.1878329048
 40
0.2195260505
 40
0.2512983006
 40
0.2831345113
 40
0.3150185478
 40
0.3469335377
 40
0.3788621328
 40
0.4107867766
 40
0.442689973
 40
0.4745545549
 40
0.5063639492
 40
0.5381024365
 40
0.5697554025
 40
0.601309575
 40
0.632753245
 40
0.664076468
 40
0.6952712429
 40
0.7263316657
 40
0.7572540527
 40
0.7880370325
 40
0.8186816018
 40
0.8491911398
 40
0.8643991155
 40
0.8795756724
 40
0.909834634
 40
0.939982504
 40
0.955020729
 40
0.9700359128
 40
1.0
 40
1.0
 40
1.0
 40
1.0
 10
9.5624215149
 20
8.400872322
 30
0.0
 10
9.5558976041
 20
8.4013247568
 30
0.0
 10
9.5428464873
 20
8.4026575347
 30
0.0
 10
9.5234005864
 20
8.4059175998
 30
0.0
 10
9.5041203439
 20
8.4104295859
 30
0.0
 10
9.485088908
 20
8.4161738234
 30
0.0
 10
9.4663866964
 20
8.4231260336
 30
0.0
 10
9.4480932608
 20
8.4312564673
 30
0.0
 10
9.4302862485
 20
8.4405305619
 30
0.0
 10
9.4130412792
 20
8.450908845
 30
0.0
 10
9.3964315747
 20
8.4623471933
 30
0.0
 10
9.3805276528
 20
8.4747969768
 30
0.0
 10
9.3653970377
 20
8.48820529
 30
0.0
 10
9.3511039756
 20
8.502515172
 30
0.0
 10
9.3377091657
 20
8.5176658459
 30
0.0
 10
9.3252695047
 20
8.5335929751
 30
0.0
 10
9.313837847
 20
8.5502289327
 30
0.0
 10
9.3034627843
 20
8.5675030873
 30
0.0
 10
9.2941884317
 20
8.5853420938
 30
0.0
 10
9.2860542337
 20
8.6036702024
 30
0.0
 10
9.279094812
 20
8.6224095852
 30
0.0
 10
9.2733398161
 20
8.6414806609
 30
0.0
 10
9.2688137978
 20
8.6608024299
 30
0.0
 10
9.2655361045
 20
8.6802928093
 30
0.0
 10
9.2635207985
 20
8.6998689935
 30
0.0
 10
9.2627765809
 20
8.7194477395
 30
0.0
 10
9.2633067962
 20
8.73894595
 30
0.0
 10
9.2651091865
 20
8.7582801624
 30
0.0
 10
9.2676682936
 20
8.774205858
 30
0.0
 10
9.2703426751
 20
8.7867789804
 30
0.0
 10
9.273425362
 20
8.7992038108
 30
0.0
 10
9.2780482872
 20
8.8144854654
 30
0.0
 10
9.2836892393
 20
8.8293903045
 30
0.0
 10
9.2887925145
 20
8.8410290227
 30
0.0
 10
9.294275321
 20
8.8524502291
 30
0.0
 10
9.2988250866
 20
8.8607936139
 30
0.0
 10
9.3020435375
 20
8.8662376395
 30
0.0
  0
SPLINE
  5
316
100
AcDbEntity
  8
0
100
AcDbSpline
 62
7
  6
CONTINUOUS
 70
0
 71
3
 72
43
 73
39
 74
0
 42
0.0000001
 43
0.0000001
 44
0.0000000001
 40
0.0
 40
0.0
 40
0.0
 40
0.0
 40
0.0308742769
 40
0.0463610785
 40
0.0618781635
 40
0.0929998989
 40
0.124238323
 40
0.1555860059
 40
0.187034554
 40
0.2185740331
 40
0.2501933427
 40
0.2660307475
 40
0.2818834648
 40
0.3136250204
 40
0.3454073843
 40
0.3772162424
 40
0.4090369357
 40
0.4408546514
 40
0.4726546154
 40
0.5044222839
 40
0.5361435335
 40
0.567804848
 40
0.5993935003
 40
0.6308977249
 40
0.6623068821
 40
0.6936116095
 40
0.7248039608
 40
0.755877529
 40
0.7868275516
 40
0.817650997
 40
0.8483466294
 40
0.8636483842
 40
0.8789185661
 40
0.9093622213
 40
0.9396853976
 40
0.9548054565
 40
0.9698978189
 40
1.0
 40
1.0
 40
1.0
 40
1.0
 10
9.5364208476
 20
8.2076865008
 30
0.0
 10
9.527051431
 20
8.2083362721
 30
0.0
 10
9.5130068363
 20
8.2097335697
 30
0.0
 10
9.4943752457
 20
8.212426477
 30
0.0
 10
9.4757564721
 20
8.2156807014
 30
0.0
 10
9.4526083123
 20
8.2207877943
 30
0.0
 10
9.4251620348
 20
8.2285452141
 30
0.0
 10
9.3981163155
 20
8.2379100982
 30
0.0
 10
9.3715689186
 20
8.2488485262
 30
0.0
 10
9.3456156082
 20
8.2613208649
 30
0.0
 10
9.3245703448
 20
8.2729500011
 30
0.0
 10
9.3081221838
 20
8.282971913
 30
0.0
 10
9.2919321477
 20
8.2934741929
 30
0.0
 10
9.2722370646
 20
8.3074676311
 30
0.0
 10
9.2495653841
 20
8.325574661
 30
0.0
 10
9.2279256438
 20
8.3449399148
 30
0.0
 10
9.207396119
 20
8.3654934226
 30
0.0
 10
9.1880504943
 20
8.3871613669
 30
0.0
 10
9.1699583725
 20
8.4098658226
 30
0.0
 10
9.1531848187
 20
8.4335251745
 30
0.0
 10
9.1377901858
 20
8.4580543721
 30
0.0
 10
9.1238298723
 20
8.4833652356
 30
0.0
 10
9.1113541271
 20
8.5093667712
 30
0.0
 10
9.1004078788
 20
8.5359655018
 30
0.0
 10
9.0910305731
 20
8.5630657997
 30
0.0
 10
9.0832560303
 20
8.5905702216
 30
0.0
 10
9.0771123254
 20
8.6183798752
 30
0.0
 10
9.0726216783
 20
8.646394695
 30
0.0
 10
9.0698003996
 20
8.6745140817
 30
0.0
 10
9.0686587235
 20
8.7026362083
 30
0.0
 10
9.0691112035
 20
8.7260160014
 30
0.0
 10
9.0703165881
 20
8.74461698
 30
0.0
 10
9.072078312
 20
8.7630965599
 30
0.0
 10
9.0753238896
 20
8.7860135561
 30
0.0
 10
9.0799611672
 20
8.8086435462
 30
0.0
 10
9.0844924744
 20
8.8264950066
 30
0.0
 10
9.0895571973
 20
8.8441319109
 30
0.0
 10
9.0939686943
 20
8.8571655103
 30
0.0
 10
9.0971757567
 20
8.8657425909
 30
0.0
  0
SPLINE
  5
317
100
AcDbEntity
  8
0
100
AcDbSpline
 62
7
  6
CONTINUOUS
 70
0
 71
3
 72
49
 73
45
 74
0
 42
0.0000001
 43
0.0000001
 44
0.0000000001
 40
0.0
 40
0.0
 40
0.0
 40
0.0
 40
0.0055575652
 40
0.0111779989
 40
0.0169219414
 40
0.0228458413
 40
0.0290005862
 40
0.0354310054
 40
0.0421754419
 40
0.0492662547
 40
0.0567303348
 40
0.0645894055
 40
0.0728610837
 40
0.081559144
 40
0.0906940366
 40
0.1002736841
 40
0.1103033552
 40
0.1207863534
 40
0.131724296
 40
0.1431169483
 40
0.1549629335
 40
0.167259542
 40
0.1931868013
 40
0.2208582139
 40
0.2502183164
 40
0.281200247
 40
0.3137274299
 40
0.3477148798
 40
0.3830701696
 40
0.4196941701
 40
0.4574819135
 40
0.4963233105
 40
0.5361037302
 40
0.5767045149
 40
0.6180036379
 40
0.6598762574
 40
0.7021952159
 40
0.7448315601
 40
0.7876550186
 40
0.8305347645
 40
0.873339678
 40
0.9159378915
 40
0.9582026976
 40
1.0
 40
1.0
 40
1.0
 40
1.0
 10
11.7416221679
 20
10.6071930102
 30
0.0
 10
11.7416221611
 20
10.6079252581
 30
0.0
 10
11.741704152
 20
10.6093993104
 30
0.0
 10
11.7420720236
 20
10.6116025345
 30
0.0
 10
11.7426843189
 20
10.6138008401
 30
0.0
 10
11.743539809
 20
10.6159916676
 30
0.0
 10
11.7446370042
 20
10.6181732919
 30
0.0
 10
11.7459745712
 20
10.6203439619
 30
0.0
 10
11.747550873
 20
10.6225022504
 30
0.0
 10
11.7493643877
 20
10.6246467028
 30
0.0
 10
11.7514135575
 20
10.6267758039
 30
0.0
 10
11.7536965663
 20
10.6288881794
 30
0.0
 10
11.7562116312
 20
10.6309822397
 30
0.0
 10
11.7589567222
 20
10.6330564483
 30
0.0
 10
11.7619296182
 20
10.6351092981
 30
0.0
 10
11.7651280092
 20
10.6371391022
 30
0.0
 10
11.7685492944
 20
10.6391443417
 30
0.0
 10
11.7721907401
 20
10.6411234139
 30
0.0
 10
11.7760494422
 20
10.6430746703
 30
0.0
 10
11.7801222489
 20
10.644996617
 30
0.0
 10
11.7844058952
 20
10.6468876576
 30
0.0
 10
11.7905020722
 20
10.649410417
 30
0.0
 10
11.798632155
 20
10.6524645767
 30
0.0
 10
11.809003966
 20
10.6559209176
 30
0.0
 10
11.8201234763
 20
10.6592190436
 30
0.0
 10
11.8319544704
 20
10.66234808
 30
0.0
 10
11.8444585493
 20
10.6652976754
 30
0.0
 10
11.8575949649
 20
10.6680580573
 30
0.0
 10
11.8713208603
 20
10.6706200639
 30
0.0
 10
11.8855913805
 20
10.6729752278
 30
0.0
 10
11.900359853
 20
10.6751157624
 30
0.0
 10
11.9155779596
 20
10.6770345831
 30
0.0
 10
11.9311958895
 20
10.6787253274
 30
0.0
 10
11.9471624982
 20
10.6801824221
 30
0.0
 10
11.963425487
 20
10.6814010598
 30
0.0
 10
11.9799315846
 20
10.6823772112
 30
0.0
 10
11.9966267181
 20
10.6831076369
 30
0.0
 10
12.0134561783
 20
10.6835899371
 30
0.0
 10
12.0303648275
 20
10.6838225314
 30
0.0
 10
12.0472972758
 20
10.6838046436
 30
0.0
 10
12.0641979256
 20
10.683536306
 30
0.0
 10
12.0810117314
 20
10.6830184621
 30
0.0
 10
12.0976831456
 20
10.6822527407
 30
0.0
 10
12.1087386497
 20
10.6815743218
 30
0.0
 10
12.1142325395
 20
10.6811933192
 30
0.0
  0
SPLINE
  5
318
100
AcDbEntity
  8
0
100
AcDbSpline
 62
7
  6
CONTINUOUS
 70
0
 71
3
 72
73
 73
69
 74
0
 42
0.0000001
 43
0.0000001
 44
0.0000000001
 40
0.0
 40
0.0
 40
0.0
 40
0.0
 40
0.0156747269
 40
0.0314021214
 40
0.0471805288
 40
0.0630087433
 40
0.0788845528
 40
0.0948055238
 40
0.1107687417
 40
0.1267709271
 40
0.1428084469
 40
0.1588773531
 40
0.1749734198
 40
0.1910921815
 40
0.2072289734
 40
0.2233789728
 40
0.2395372414
 40
0.255698769
 40
0.2718585169
 40
0.2880114623
 40
0.3041526419
 40
0.3202771946
 40
0.3363804047
 40
0.3524577435
 40
0.36850491
 40
0.3845178707
 40
0.4004928973
 40
0.416426601
 40
0.4323159667
 40
0.4481583822
 40
0.4639516661
 40
0.4796940921
 40
0.4953844097
 40
0.5110218603
 40
0.5266061895
 40
0.5421376544
 40
0.5576170261
 40
0.5730455874
 40
0.5884251258
 40
0.6037579205
 40
0.6190467238
 40
0.6342947373
 40
0.6495055828
 40
0.6646832674
 40
0.6798321448
 40
0.6949568718
 40
0.7100623606
 40
0.725153728
 40
0.7402362412
 40
0.7553152624
 40
0.7703961906
 40
0.7854844046
 40
0.8005852051
 40
0.8157037584
 40
0.8308450423
 40
0.846013794
 40
0.8612144614
 40
0.8764511581
 40
0.8917276228
 40
0.9070471831
 40
0.9224127288
 40
0.9301141266
 40
0.9378278864
 40
0.9532922014
 40
0.9688081653
 40
0.9765864636
 40
0.9843782678
 40
1.0
 40
1.0
 40
1.0
 40
1.0
 10
9.7219525577
 20
7.0993616431
 30
0.0
 10
9.7370543203
 20
7.0983143324
 30
0.0
 10
9.767262329
 20
7.0954753506
 30
0.0
 10
9.8123840416
 20
7.0890141025
 30
0.0
 10
9.8572884847
 20
7.0803578874
 30
0.0
 10
9.9018658536
 20
7.0695280933
 30
0.0
 10
9.9460094296
 20
7.0565506081
 30
0.0
 10
9.9896127511
 20
7.0414568941
 30
0.0
 10
10.0325709122
 20
7.024283301
 30
0.0
 10
10.0747804927
 20
7.005071249
 30
0.0
 10
10.1161399044
 20
6.9838670521
 30
0.0
 10
10.1565496064
 20
6.9607218152
 30
0.0
 10
10.1959123457
 20
6.9356913012
 30
0.0
 10
10.2341333884
 20
6.9088357986
 30
0.0
 10
10.2711207456
 20
6.8802199775
 30
0.0
 10
10.3067853938
 20
6.8499127355
 30
0.0
 10
10.3410414841
 20
6.8179870303
 30
0.0
 10
10.3738065672
 20
6.7845197245
 30
0.0
 10
10.405001781
 20
6.749591386
 30
0.0
 10
10.4345520334
 20
6.7132860899
 30
0.0
 10
10.4623861832
 20
6.6756912188
 30
0.0
 10
10.4884372093
 20
6.6368972541
 30
0.0
 10
10.5126423723
 20
6.5969975609
 30
0.0
 10
10.5349433601
 20
6.5560881625
 30
0.0
 10
10.5552864507
 20
6.5142675228
 30
0.0
 10
10.5736226327
 20
6.4716363021
 30
0.0
 10
10.5899077116
 20
6.4282971108
 30
0.0
 10
10.6041024189
 20
6.3843542667
 30
0.0
 10
10.6161725053
 20
6.3399135455
 30
0.0
 10
10.6260888248
 20
6.2950819294
 30
0.0
 10
10.6338274011
 20
6.2499673508
 30
0.0
 10
10.6393695077
 20
6.2046784378
 30
0.0
 10
10.6427017114
 20
6.1593242497
 30
0.0
 10
10.6438158887
 20
6.1140140144
 30
0.0
 10
10.6427092508
 20
6.0688568678
 30
0.0
 10
10.6393843512
 20
6.023961593
 30
0.0
 10
10.6338490833
 20
5.9794363602
 30
0.0
 10
10.6261166598
 20
5.9353884676
 30
0.0
 10
10.6162056017
 20
5.8919240804
 30
0.0
 10
10.6041396997
 20
5.8491479701
 30
0.0
 10
10.589947938
 20
5.8071632658
 30
0.0
 10
10.5736644312
 20
5.7660712045
 30
0.0
 10
10.5553283443
 20
5.7259708866
 30
0.0
 10
10.5349838017
 20
5.6869590351
 30
0.0
 10
10.5126797799
 20
5.6491297623
 30
0.0
 10
10.4884700029
 20
5.6125743333
 30
0.0
 10
10.462412822
 20
5.5773809337
 30
0.0
 10
10.4345710519
 20
5.5436344668
 30
0.0
 10
10.405011824
 20
5.5114163443
 30
0.0
 10
10.3738064217
 20
5.4808042884
 30
0.0
 10
10.3410301089
 20
5.4518721417
 30
0.0
 10
10.306761945
 20
5.4246896882
 30
0.0
 10
10.2710845974
 20
5.3993224782
 30
0.0
 10
10.2340841487
 20
5.375831651
 30
0.0
 10
10.1958498658
 20
5.3542738094
 30
0.0
 10
10.15647399
 20
5.3347008817
 30
0.0
 10
10.1160514903
 20
5.3171599952
 30
0.0
 10
10.0746799121
 20
5.301693375
 30
0.0
 10
10.0324588422
 20
5.2883382049
 30
0.0
 10
9.9894907821
 20
5.2771266851
 30
0.0
 10
9.9531735256
 20
5.2695980225
 30
0.0
 10
9.9238554526
 20
5.2646692691
 30
0.0
 10
9.8943280827
 20
5.2604666085
 30
0.0
 10
9.8571431777
 20
5.2565962191
 30
0.0
 10
9.8197496761
 20
5.2545806149
 30
0.0
 10
9.7897294031
 20
5.2540779948
 30
0.0
 10
9.7596043187
 20
5.2543170266
 30
0.0
 10
9.7370032626
 20
5.2553314275
 30
0.0
 10
9.7219525577
 20
5.2563751974
 30
0.0
  0
SPLINE
  5
319
100
AcDbEntity
  8
0
100
AcDbSpline
 62
7
  6
CONTINUOUS
 70
0
 71
3
 72
49
 73
45
 74
0
 42
0.0000001
 43
0.0000001
 44
0.0000000001
 40
0.0
 40
0.0
 40
0.0
 40
0.0
 40
0.0055575652
 40
0.0111779989
 40
0.0169219414
 40
0.0228458413
 40
0.0290005862
 40
0.0354310054
 40
0.0421754419
 40
0.0492662547
 40
0.0567303348
 40
0.0645894055
 40
0.0728610837
 40
0.081559144
 40
0.0906940366
 40
0.1002736841
 40
0.1103033552
 40
0.1207863534
 40
0.131724296
 40
0.1431169483
 40
0.1549629335
 40
0.167259542
 40
0.1931868013
 40
0.2208582139
 40
0.2502183164
 40
0.281200247
 40
0.3137274299
 40
0.3477148798
 40
0.3830701696
 40
0.4196941701
 40
0.4574819135
 40
0.4963233105
 40
0.5361037302
 40
0.5767045149
 40
0.6180036379
 40
0.6598762574
 40
0.7021952159
 40
0.7448315601
 40
0.7876550186
 40
0.8305347645
 40
0.873339678
 40
0.9159378915
 40
0.9582026976
 40
1.0
 40
1.0
 40
1.0
 40
1.0
 10
12.5662189315
 20
11.4036923677
 30
0.0
 10
12.5662189247
 20
11.4044246155
 30
0.0
 10
12.5663009156
 20
11.4058986678
 30
0.0
 10
12.5666687872
 20
11.4081018919
 30
0.0
 10
12.5672810825
 20
11.4103001975
 30
0.0
 10
12.5681365726
 20
11.412491025
 30
0.0
 10
12.5692337678
 20
11.4146726493
 30
0.0
 10
12.5705713348
 20
11.4168433193
 30
0.0
 10
12.5721476366
 20
11.4190016078
 30
0.0
 10
12.5739611513
 20
11.4211460602
 30
0.0
 10
12.5760103211
 20
11.4232751613
 30
0.0
 10
12.5782933299
 20
11.4253875369
 30
0.0
 10
12.5808083948
 20
11.4274815971
 30
0.0
 10
12.5835534858
 20
11.4295558058
 30
0.0
 10
12.5865263818
 20
11.4316086555
 30
0.0
 10
12.5897247728
 20
11.4336384597
 30
0.0
 10
12.593146058
 20
11.4356436991
 30
0.0
 10
12.5967875037
 20
11.4376227714
 30
0.0
 10
12.6006462058
 20
11.4395740278
 30
0.0
 10
12.6047190125
 20
11.4414959744
 30
0.0
 10
12.6090026588
 20
11.4433870151
 30
0.0
 10
12.6150988358
 20
11.4459097745
 30
0.0
 10
12.6232289186
 20
11.4489639341
 30
0.0
 10
12.6336007296
 20
11.4524202751
 30
0.0
 10
12.64472024
 20
11.455718401
 30
0.0
 10
12.656551234
 20
11.4588474374
 30
0.0
 10
12.6690553129
 20
11.4617970328
 30
0.0
 10
12.6821917285
 20
11.4645574147
 30
0.0
 10
12.6959176239
 20
11.4671194213
 30
0.0
 10
12.7101881441
 20
11.4694745853
 30
0.0
 10
12.7249566166
 20
11.4716151199
 30
0.0
 10
12.7401747232
 20
11.4735339405
 30
0.0
 10
12.7557926531
 20
11.4752246848
 30
0.0
 10
12.7717592618
 20
11.4766817795
 30
0.0
 10
12.7880222506
 20
11.4779004172
 30
0.0
 10
12.8045283482
 20
11.4788765687
 30
0.0
 10
12.8212234817
 20
11.4796069943
 30
0.0
 10
12.8380529419
 20
11.4800892945
 30
0.0
 10
12.8549615911
 20
11.4803218888
 30
0.0
 10
12.8718940394
 20
11.480304001
 30
0.0
 10
12.8887946892
 20
11.4800356634
 30
0.0
 10
12.905608495
 20
11.4795178196
 30
0.0
 10
12.9222799092
 20
11.4787520982
 30
0.0
 10
12.9333354133
 20
11.4780736792
 30
0.0
 10
12.9388293031
 20
11.4776926766
 30
0.0
  0
SPLINE
  5
31A
100
AcDbEntity
  8
0
100
AcDbSpline
 62
7
  6
CONTINUOUS
 70
0
 71
3
 72
15
 73
11
 74
0
 42
0.0000001
 43
0.0000001
 44
0.0000000001
 40
0.0
 40
0.0
 40
0.0
 40
0.0
 40
0.1264121354
 40
0.252412775
 40
0.3779893663
 40
0.503157595
 40
0.6279265499
 40
0.7523102622
 40
0.8763275313
 40
1.0
 40
1.0
 40
1.0
 40
1.0
 10
9.5364208476
 20
8.2076865008
 30
0.0
 10
9.5438871436
 20
8.2071687114
 30
0.0
 10
9.558822599
 20
8.2064902942
 30
0.0
 10
9.5812096418
 20
8.2065503951
 30
0.0
 10
9.6034946074
 20
8.2076901023
 30
0.0
 10
9.6256250096
 20
8.2099066074
 30
0.0
 10
9.6475503733
 20
8.2131949451
 30
0.0
 10
9.6692202196
 20
8.2175476001
 30
0.0
 10
9.690583924
 20
8.2229543531
 30
0.0
 10
9.7046097451
 20
8.2272596789
 30
0.0
 10
9.7115532272
 20
8.2295834977
 30
0.0
  0
SPLINE
  5
31B
100
AcDbEntity
  8
0
100
AcDbSpline
 62
7
  6
CONTINUOUS
 70
0
 71
3
 72
41
 73
37
 74
0
 42
0.0000001
 43
0.0000001
 44
0.0000000001
 40
0.0
 40
0.0
 40
0.0
 40
0.0
 40
0.030967343
 40
0.0620708261
 40
0.0933036506
 40
0.1246607467
 40
0.1561328815
 40
0.1877098582
 40
0.2193796035
 40
0.2511286683
 40
0.2829423908
 40
0.3148051281
 40
0.3467005016
 40
0.3786116407
 40
0.4105214365
 40
0.4424127983
 40
0.4742689137
 40
0.5060735021
 40
0.5378110614
 40
0.5694671055
 40
0.6010283912
 40
0.6324831325
 40
0.6638212016
 40
0.6950343052
 40
0.7261161356
 40
0.7570624946
 40
0.787871388
 40
0.8185430869
 40
0.8490801583
 40
0.8643017137
 40
0.8794916188
 40
0.9097762127
 40
0.9399473169
 40
0.9549958876
 40
0.9700204439
 40
1.0
 40
1.0
 40
1.0
 40
1.0
 10
9.5685143707
 20
8.4067575691
 30
0.0
 10
9.5620707348
 20
8.4072044368
 30
0.0
 10
9.5491802131
 20
8.4085156175
 30
0.0
 10
9.5299709875
 20
8.4117126184
 30
0.0
 10
9.5109213712
 20
8.4161314343
 30
0.0
 10
9.4921115738
 20
8.4217531658
 30
0.0
 10
9.47361909
 20
8.4285547045
 30
0.0
 10
9.4555206854
 20
8.4365076338
 30
0.0
 10
9.4378913119
 20
8.4455789887
 30
0.0
 10
9.4208040085
 20
8.4557310866
 30
0.0
 10
9.4043295486
 20
8.4669217973
 30
0.0
 10
9.3885361722
 20
8.4791047079
 30
0.0
 10
9.3734893017
 20
8.4922293125
 30
0.0
 10
9.3592512765
 20
8.5062412198
 30
0.0
 10
9.3458811016
 20
8.5210823778
 30
0.0
 10
9.333434187
 20
8.5366912958
 30
0.0
 10
9.3219621105
 20
8.5530032961
 30
0.0
 10
9.3115124303
 20
8.5699508024
 30
0.0
 10
9.3021284856
 20
8.5874636112
 30
0.0
 10
9.2938492201
 20
8.6054691783
 30
0.0
 10
9.2867090233
 20
8.6238929156
 30
0.0
 10
9.2807375812
 20
8.6426584919
 30
0.0
 10
9.27595972
 20
8.6616881412
 30
0.0
 10
9.2723953407
 20
8.6809029927
 30
0.0
 10
9.2700593352
 20
8.7002234073
 30
0.0
 10
9.2689615097
 20
8.7195692411
 30
0.0
 10
9.2691065925
 20
8.7388603982
 30
0.0
 10
9.2704940176
 20
8.7580163217
 30
0.0
 10
9.2726835695
 20
8.7738195334
 30
0.0
 10
9.2750495064
 20
8.7863120054
 30
0.0
 10
9.2778161373
 20
8.7986679509
 30
0.0
 10
9.282029227
 20
8.8138859778
 30
0.0
 10
9.2872424026
 20
8.8287600009
 30
0.0
 10
9.2919946845
 20
8.8403947058
 30
0.0
 10
9.2971212918
 20
8.8518250511
 30
0.0
 10
9.3013980396
 20
8.8601917968
 30
0.0
 10
9.3044327621
 20
8.8656591078
 30
0.0
  0
SPLINE
  5
31C
100
AcDbEntity
  8
0
100
AcDbSpline
 62
7
  6
CONTINUOUS
 70
0
 71
3
 72
15
 73
11
 74
0
 42
0.0000001
 43
0.0000001
 44
0.0000000001
 40
0.0
 40
0.0
 40
0.0
 40
0.0
 40
0.1096516758
 40
0.2221904002
 40
0.3384792656
 40
0.4592933135
 40
0.5853158019
 40
0.7171352278
 40
0.8552311701
 40
1.0
 40
1.0
 40
1.0
 40
1.0
 10
10.1734815638
 20
11.1498095792
 30
0.0
 10
10.1735925743
 20
11.150372925
 30
0.0
 10
10.1738743902
 20
11.1515039582
 30
0.0
 10
10.1744635086
 20
11.1531780766
 30
0.0
 10
10.1752228678
 20
11.1548465403
 30
0.0
 10
10.1761515504
 20
11.1565080665
 30
0.0
 10
10.1772487584
 20
11.1581617174
 30
0.0
 10
10.178513645
 20
11.1598063991
 30
0.0
 10
10.1799449469
 20
11.161441062
 30
0.0
 10
10.180984116
 20
11.1624977832
 30
0.0
 10
10.1815293588
 20
11.1630244474
 30
0.0
  0
SPLINE
  5
31D
100
AcDbEntity
  8
0
100
AcDbSpline
 62
7
  6
CONTINUOUS
 70
0
 71
3
 72
15
 73
11
 74
0
 42
0.0000001
 43
0.0000001
 44
0.0000000001
 40
0.0
 40
0.0
 40
0.0
 40
0.0
 40
0.126860797
 40
0.2531501153
 40
0.3788694768
 40
0.5040442131
 40
0.6287012747
 40
0.7528801161
 40
0.8766279038
 40
1.0
 40
1.0
 40
1.0
 40
1.0
 10
9.5685143707
 20
8.4067575691
 30
0.0
 10
9.5750481303
 20
8.4063044513
 30
0.0
 10
9.5881198187
 20
8.4058250068
 30
0.0
 10
9.6076849945
 20
8.4063972974
 30
0.0
 10
9.6270832709
 20
8.4082604163
 30
0.0
 10
9.6462298158
 20
8.4114062383
 30
0.0
 10
9.6650425326
 20
8.4158215459
 30
0.0
 10
9.6834404749
 20
8.4214874997
 30
0.0
 10
9.7013432797
 20
8.4283793021
 30
0.0
 10
9.71291521
 20
8.4337800715
 30
0.0
 10
9.7185896307
 20
8.4366730729
 30
0.0
  0
SPLINE
  5
31E
100
AcDbEntity
  8
0
100
AcDbSpline
 62
7
  6
CONTINUOUS
 70
0
 71
3
 72
20
 73
16
 74
0
 42
0.0000001
 43
0.0000001
 44
0.0000000001
 40
0.0
 40
0.0
 40
0.0
 40
0.0
 40
0.0589181512
 40
0.1166822163
 40
0.1736370785
 40
0.2301466075
 40
0.286586332
 40
0.3433359716
 40
0.4007697922
 40
0.4592488342
 40
0.5191154542
 40
0.5806883268
 40
0.7100179545
 40
0.8492977469
 40
1.0
 40
1.0
 40
1.0
 40
1.0
 10
11.1640885929
 20
11.2647964218
 30
0.0
 10
11.1639311396
 20
11.2652401229
 30
0.0
 10
11.1636519306
 20
11.2661308785
 30
0.0
 10
11.1633426386
 20
11.2674849694
 30
0.0
 10
11.1631482041
 20
11.2688409706
 30
0.0
 10
11.1630690339
 20
11.270197974
 30
0.0
 10
11.1631054639
 20
11.2715551772
 30
0.0
 10
11.1632577885
 20
11.2729117067
 30
0.0
 10
11.1635259711
 20
11.2742667202
 30
0.0
 10
11.1639098851
 20
11.2756194102
 30
0.0
 10
11.1644094367
 20
11.2769690601
 30
0.0
 10
11.1652428742
 20
11.2787931031
 30
0.0
 10
11.1665922588
 20
11.2810702388
 30
0.0
 10
11.1686412464
 20
11.2837295897
 30
0.0
 10
11.1702409339
 20
11.2854118389
 30
0.0
 10
11.1711070957
 20
11.2862484871
 30
0.0
  0
SPLINE
  5
31F
100
AcDbEntity
  8
0
100
AcDbSpline
 62
7
  6
CONTINUOUS
 70
0
 71
3
 72
49
 73
45
 74
0
 42
0.0000001
 43
0.0000001
 44
0.0000000001
 40
0.0
 40
0.0
 40
0.0
 40
0.0
 40
0.0055575494
 40
0.0111780127
 40
0.016921981
 40
0.02284591
 40
0.0290007711
 40
0.0354312177
 40
0.0421757498
 40
0.0492667027
 40
0.0567307994
 40
0.0645900305
 40
0.0728618107
 40
0.0815599039
 40
0.0906949877
 40
0.1002746759
 40
0.110304423
 40
0.1207875892
 40
0.1317255293
 40
0.1431183046
 40
0.1549643931
 40
0.1672609915
 40
0.1931884293
 40
0.2208599832
 40
0.2502201094
 40
0.2812020715
 40
0.3137293329
 40
0.3477168071
 40
0.3830720369
 40
0.419696003
 40
0.4574837207
 40
0.4963250438
 40
0.5361053464
 40
0.5767060331
 40
0.6180050468
 40
0.659877527
 40
0.702196338
 40
0.7448325357
 40
0.7876558238
 40
0.8305354397
 40
0.8733401576
 40
0.9159381478
 40
0.9582030408
 40
1.0
 40
1.0
 40
1.0
 40
1.0
 10
11.8060816138
 20
11.0330241955
 30
0.0
 10
11.8060816209
 20
11.0336426451
 30
0.0
 10
11.8061508683
 20
11.0348876232
 30
0.0
 10
11.8064617267
 20
11.0367484304
 30
0.0
 10
11.8069789095
 20
11.0386050965
 30
0.0
 10
11.807701485
 20
11.0404554646
 30
0.0
 10
11.808628308
 20
11.0422979989
 30
0.0
 10
11.8097580107
 20
11.0441313578
 30
0.0
 10
11.8110894238
 20
11.0459542146
 30
0.0
 10
11.8126211946
 20
11.0477653618
 30
0.0
 10
11.8143519173
 20
11.0495636261
 30
0.0
 10
11.8162802222
 20
11.0513476718
 30
0.0
 10
11.8184044758
 20
11.0531162909
 30
0.0
 10
11.8207229886
 20
11.0548681767
 30
0.0
 10
11.8232339547
 20
11.0566019359
 30
0.0
 10
11.8259353192
 20
11.0583163143
 30
0.0
 10
11.8288249548
 20
11.0600099172
 30
0.0
 10
11.8319005505
 20
11.0616813781
 30
0.0
 10
11.8351596029
 20
11.0633294258
 30
0.0
 10
11.8385995118
 20
11.0649526513
 30
0.0
 10
11.8422174836
 20
11.0665497902
 30
0.0
 10
11.8473662975
 20
11.0686805099
 30
0.0
 10
11.8542329639
 20
11.0712599801
 30
0.0
 10
11.8629929708
 20
11.0741791503
 30
0.0
 10
11.8723844563
 20
11.0769647104
 30
0.0
 10
11.88237685
 20
11.0796074518
 30
0.0
 10
11.8929377295
 20
11.082098622
 30
0.0
 10
11.9040326629
 20
11.0844299909
 30
0.0
 10
11.9156254496
 20
11.0865938335
 30
0.0
 10
11.9276782192
 20
11.0885829646
 30
0.0
 10
11.9401515544
 20
11.0903908153
 30
0.0
 10
11.9530046365
 20
11.0920114153
 30
0.0
 10
11.9661953966
 20
11.0934393987
 30
0.0
 10
11.9796806456
 20
11.0946700297
 30
0.0
 10
11.9934162122
 20
11.0956992619
 30
0.0
 10
12.0073571005
 20
11.0965236997
 30
0.0
 10
12.0214576425
 20
11.0971406073
 30
0.0
 10
12.0356716327
 20
11.0975479408
 30
0.0
 10
12.049952507
 20
11.0977443791
 30
0.0
 10
12.0642534762
 20
11.0977292661
 30
0.0
 10
12.0785275828
 20
11.0975026297
 30
0.0
 10
12.0927283656
 20
11.0970652598
 30
0.0
 10
12.106808869
 20
11.0964185336
 30
0.0
 10
12.1161462402
 20
11.0958455498
 30
0.0
 10
12.120786302
 20
11.0955237604
 30
0.0
  0
SPLINE
  5
320
100
AcDbEntity
  8
0
100
AcDbSpline
 62
7
  6
CONTINUOUS
 70
0
 71
3
 72
53
 73
49
 74
0
 42
0.0000001
 43
0.0000001
 44
0.0000000001
 40
0.0
 40
0.0
 40
0.0
 40
0.0
 40
0.0311426888
 40
0.0624383834
 40
0.0938812314
 40
0.1254614885
 40
0.1571669808
 40
0.1889829482
 40
0.2208924459
 40
0.2528766916
 40
0.2849154445
 40
0.3169874062
 40
0.3490706365
 40
0.3811429784
 40
0.4131824845
 40
0.4451678416
 40
0.4770787872
 40
0.5088965106
 40
0.5406040329
 40
0.5721865609
 40
0.5879294758
 40
0.6036367624
 40
0.6193073265
 40
0.6349402568
 40
0.6505348413
 40
0.6660905685
 40
0.6816071266
 40
0.697084418
 40
0.7125225498
 40
0.7279218407
 40
0.7432828238
 40
0.7586062348
 40
0.7738930224
 40
0.7891443357
 40
0.8043615201
 40
0.8195461178
 40
0.8346998503
 40
0.8498246176
 40
0.864922487
 40
0.8799956765
 40
0.8950465519
 40
0.9100776065
 40
0.9250914484
 40
0.9400907904
 40
0.9550784267
 40
0.9700572226
 40
0.9850300968
 40
1.0
 40
1.0
 40
1.0
 40
1.0
 10
9.1481926004
 20
7.51779495
 30
0.0
 10
9.1290871154
 20
7.5191199199
 30
0.0
 10
9.0908650442
 20
7.5231748097
 30
0.0
 10
9.0339953311
 20
7.5333892266
 30
0.0
 10
8.977734749
 20
7.547696498
 30
0.0
 10
8.922387122
 20
7.5660197502
 30
0.0
 10
8.8682465291
 20
7.5882607977
 30
0.0
 10
8.8156017646
 20
7.6143006485
 30
0.0
 10
8.7647332591
 20
7.6440001188
 30
0.0
 10
8.7159120676
 20
7.6772006357
 30
0.0
 10
8.6693983303
 20
7.7137250757
 30
0.0
 10
8.625439901
 20
7.7533786432
 30
0.0
 10
8.5842710047
 20
7.7959498906
 30
0.0
 10
8.5461110681
 20
7.8412119123
 30
0.0
 10
8.5111635617
 20
7.8889235087
 30
0.0
 10
8.4796149062
 20
7.9388305037
 30
0.0
 10
8.451633445
 20
7.9906668113
 30
0.0
 10
8.4273684759
 20
8.0441567396
 30
0.0
 10
8.4069501096
 20
8.0990133452
 30
0.0
 10
8.3932150405
 20
8.1456796701
 30
0.0
 10
8.3842562343
 20
8.1833993696
 30
0.0
 10
8.3785634599
 20
8.211818381
 30
0.0
 10
8.3738983455
 20
8.2403552023
 30
0.0
 10
8.3702671841
 20
8.2689722075
 30
0.0
 10
8.3676747274
 20
8.2976310508
 30
0.0
 10
8.366124481
 20
8.3262935101
 30
0.0
 10
8.3656186387
 20
8.3549213085
 30
0.0
 10
8.3661577144
 20
8.3834762204
 30
0.0
 10
8.3677411817
 20
8.4119201147
 30
0.0
 10
8.370366871
 20
8.4402150059
 30
0.0
 10
8.3740312362
 20
8.468323117
 30
0.0
 10
8.3787295769
 20
8.4962068823
 30
0.0
 10
8.3844554496
 20
8.5238290877
 30
0.0
 10
8.3912013377
 20
8.5511528191
 30
0.0
 10
8.3989582725
 20
8.5781415642
 30
0.0
 10
8.4077157748
 20
8.6047593107
 30
0.0
 10
8.4174623525
 20
8.6309704352
 30
0.0
 10
8.4281848631
 20
8.6567399635
 30
0.0
 10
8.439869019
 20
8.6820334613
 30
0.0
 10
8.452499332
 20
8.7068170753
 30
0.0
 10
8.4660587704
 20
8.7310577742
 30
0.0
 10
8.4805293793
 20
8.7547230851
 30
0.0
 10
8.4958917771
 20
8.7777814057
 30
0.0
 10
8.5121253904
 20
8.8002019772
 30
0.0
 10
8.5292086552
 20
8.8219546967
 30
0.0
 10
8.5471187033
 20
8.8430107147
 30
0.0
 10
8.5658312883
 20
8.8633414416
 30
0.0
 10
8.5788261349
 20
8.8763950007
 30
0.0
 10
8.5854474656
 20
8.8827907204
 30
0.0
  0
SPLINE
  5
321
100
AcDbEntity
  8
0
100
AcDbSpline
 62
7
  6
CONTINUOUS
 70
0
 71
3
 72
49
 73
45
 74
0
 42
0.0000001
 43
0.0000001
 44
0.0000000001
 40
0.0
 40
0.0
 40
0.0
 40
0.0
 40
0.0056661082
 40
0.0114309129
 40
0.0173445363
 40
0.0234528608
 40
0.0297968199
 40
0.0364122352
 40
0.0433300233
 40
0.0505763302
 40
0.0581730988
 40
0.0661386228
 40
0.0744877635
 40
0.0832325952
 40
0.092382829
 40
0.1019458615
 40
0.1119273454
 40
0.1223314123
 40
0.1331605794
 40
0.1444162676
 40
0.1560988506
 40
0.1682074936
 40
0.1936946958
 40
0.2208570168
 40
0.2496608309
 40
0.2800622555
 40
0.3120079298
 40
0.3454357824
 40
0.3802751964
 40
0.4164469169
 40
0.45386347
 40
0.4924292831
 40
0.5320405335
 40
0.5725853425
 40
0.613944238
 40
0.6559904566
 40
0.6985902657
 40
0.7416037598
 40
0.7848856752
 40
0.8282864767
 40
0.8716534797
 40
0.9148306856
 40
0.9576660785
 40
1.0
 40
1.0
 40
1.0
 40
1.0
 10
10.8054981503
 20
10.9090858972
 30
0.0
 10
10.8055521817
 20
10.9097238855
 30
0.0
 10
10.8057275329
 20
10.9110062572
 30
0.0
 10
10.8061855354
 20
10.912914956
 30
0.0
 10
10.8068388938
 20
10.9148187786
 30
0.0
 10
10.8076864466
 20
10.9167159923
 30
0.0
 10
10.8087268873
 20
10.9186054155
 30
0.0
 10
10.8099589378
 20
10.9204858884
 30
0.0
 10
10.8113814197
 20
10.9223562704
 30
0.0
 10
10.8129930464
 20
10.9242155058
 30
0.0
 10
10.8147925615
 20
10.9260625141
 30
0.0
 10
10.8167787202
 20
10.9278961354
 30
0.0
 10
10.8189501407
 20
10.929715274
 30
0.0
 10
10.8213054196
 20
10.9315187729
 30
0.0
 10
10.823843102
 20
10.9333054112
 30
0.0
 10
10.8265615893
 20
10.93507404
 30
0.0
 10
10.8294592349
 20
10.9368234482
 30
0.0
 10
10.8325343111
 20
10.9385523864
 30
0.0
 10
10.8357849537
 20
10.9402596832
 30
0.0
 10
10.839209234
 20
10.9419440975
 30
0.0
 10
10.8428051323
 20
10.943604401
 30
0.0
 10
10.8479132711
 20
10.9458223767
 30
0.0
 10
10.8547189466
 20
10.948517495
 30
0.0
 10
10.8633995132
 20
10.9515833858
 30
0.0
 10
10.8727072051
 20
10.9545241976
 30
0.0
 10
10.8826191327
 20
10.9573303246
 30
0.0
 10
10.8931105384
 20
10.9599922737
 30
0.0
 10
10.9041544523
 20
10.9625006683
 30
0.0
 10
10.9157216516
 20
10.964846308
 30
0.0
 10
10.9277805272
 20
10.9670202676
 30
0.0
 10
10.9402970312
 20
10.9690138944
 30
0.0
 10
10.953234621
 20
10.9708188718
 30
0.0
 10
10.9665541966
 20
10.9724273252
 30
0.0
 10
10.9802140985
 20
10.9738319007
 30
0.0
 10
10.994170172
 20
10.9750258166
 30
0.0
 10
11.0083758496
 20
10.9760029501
 30
0.0
 10
11.0227822782
 20
10.9767579659
 30
0.0
 10
11.0373385148
 20
10.9772863888
 30
0.0
 10
11.0519918129
 20
10.9775846744
 30
0.0
 10
11.06668795
 20
10.9776502795
 30
0.0
 10
11.0813714377
 20
10.9774817337
 30
0.0
 10
11.0959864727
 20
10.9770787884
 30
0.0
 10
11.1104763203
 20
10.976442219
 30
0.0
 10
11.1200833658
 20
10.9758594048
 30
0.0
 10
11.1248556511
 20
10.9755284457
 30
0.0
  0
SPLINE
  5
322
100
AcDbEntity
  8
0
100
AcDbSpline
 62
7
  6
CONTINUOUS
 70
0
 71
3
 72
39
 73
35
 74
0
 42
0.0000001
 43
0.0000001
 44
0.0000000001
 40
0.0
 40
0.0
 40
0.0
 40
0.0
 40
0.0055577586
 40
0.0111783654
 40
0.0169224615
 40
0.0228465493
 40
0.0354202971
 40
0.0421649593
 40
0.0492559747
 40
0.0567201248
 40
0.0645794678
 40
0.072851386
 40
0.0815495594
 40
0.0906847526
 40
0.1002646826
 40
0.1207751622
 40
0.1431043256
 40
0.1672459648
 40
0.193173928
 40
0.2208463125
 40
0.2502072694
 40
0.2811901547
 40
0.3137184682
 40
0.3477069902
 40
0.3830634975
 40
0.4196887183
 40
0.4574777258
 40
0.4963205319
 40
0.576701635
 40
0.6598737369
 40
0.7448295884
 40
0.8305338314
 40
0.9159369972
 40
1.0
 40
1.0
 40
1.0
 40
1.0
 10
11.1127720005
 20
11.089426611
 30
0.0
 10
11.1127719929
 20
11.0897482073
 30
0.0
 10
11.1128079894
 20
11.0903955986
 30
0.0
 10
11.1129695155
 20
11.0913632237
 30
0.0
 10
11.1132384124
 20
11.0923287473
 30
0.0
 10
11.1137493084
 20
11.0936372376
 30
0.0
 10
11.1144737741
 20
11.0949155821
 30
0.0
 10
11.1153756031
 20
11.0961501867
 30
0.0
 10
11.116172138
 20
11.0970921379
 30
0.0
 10
11.1170720386
 20
11.0980272139
 30
0.0
 10
11.1180747229
 20
11.0989549388
 30
0.0
 10
11.1191792964
 20
11.0998746253
 30
0.0
 10
11.1203848753
 20
11.1007856237
 30
0.0
 10
11.1216905361
 20
11.1016872141
 30
0.0
 10
11.1236073824
 20
11.1029036425
 30
0.0
 10
11.1262545104
 20
11.1043894673
 30
0.0
 10
11.1297416453
 20
11.1060852492
 30
0.0
 10
11.1335975105
 20
11.107727035
 30
0.0
 10
11.1378097504
 20
11.1093095249
 30
0.0
 10
11.1423649927
 20
11.110827497
 30
0.0
 10
11.1472485356
 20
11.1122760243
 30
0.0
 10
11.1524445803
 20
11.1136502796
 30
0.0
 10
11.1579362394
 20
11.1149457057
 30
0.0
 10
11.1637056169
 20
11.1161580595
 30
0.0
 10
11.1697338903
 20
11.1172832672
 30
0.0
 10
11.1760013563
 20
11.1183176369
 30
0.0
 10
11.1824875341
 20
11.1192577723
 30
0.0
 10
11.1915020571
 20
11.1203942979
 30
0.0
 10
11.2031588879
 20
11.1215499472
 30
0.0
 10
11.2175091284
 20
11.1225064965
 30
0.0
 10
11.2321896856
 20
11.1230350932
 30
0.0
 10
11.2470085136
 20
11.1231286703
 30
0.0
 10
11.2617718699
 20
11.1227860078
 30
0.0
 10
11.2715658418
 20
11.1222635247
 30
0.0
 10
11.276418441
 20
11.1219269958
 30
0.0
  0
SPLINE
  5
323
100
AcDbEntity
  8
0
100
AcDbSpline
 62
7
  6
CONTINUOUS
 70
0
 71
3
 72
30
 73
26
 74
0
 42
0.0000001
 43
0.0000001
 44
0.0000000001
 40
0.0
 40
0.0
 40
0.0
 40
0.0
 40
0.064541273
 40
0.129053338
 40
0.1934520643
 40
0.2576539304
 40
0.3215847549
 40
0.385180317
 40
0.4483896726
 40
0.5111772607
 40
0.5735246712
 40
0.6045429522
 40
0.6354526831
 40
0.6662567944
 40
0.6969592981
 40
0.7275653673
 40
0.7580812196
 40
0.7885140728
 40
0.8188721118
 40
0.8491643218
 40
0.8794004929
 40
0.9095910171
 40
0.9397468367
 40
0.9698792996
 40
1.0
 40
1.0
 40
1.0
 40
1.0
 10
10.2297640012
 20
7.2346279552
 30
0.0
 10
10.2258189109
 20
7.238211872
 30
0.0
 10
10.2182686971
 20
7.245760784
 30
0.0
 10
10.2080870715
 20
7.2581016702
 30
0.0
 10
10.1991477005
 20
7.271338233
 30
0.0
 10
10.1915458318
 20
7.2853308826
 30
0.0
 10
10.1853609247
 20
7.2999334628
 30
0.0
 10
10.1806582528
 20
7.3149930293
 30
0.0
 10
10.1774875775
 20
7.3303522164
 30
0.0
 10
10.1758826007
 20
7.3458489686
 30
0.0
 10
10.1758648182
 20
7.3587691154
 30
0.0
 10
10.1766463207
 20
7.3690060193
 30
0.0
 10
10.1776257523
 20
7.3766047744
 30
0.0
 10
10.1789967504
 20
7.3841160573
 30
0.0
 10
10.1807559627
 20
7.3915203256
 30
0.0
 10
10.1828985414
 20
7.3987980931
 30
0.0
 10
10.1854190704
 20
7.4059301798
 30
0.0
 10
10.1883108262
 20
7.4128978488
 30
0.0
 10
10.1915662296
 20
7.4196827701
 30
0.0
 10
10.1951768234
 20
7.426267034
 30
0.0
 10
10.1991329535
 20
7.4326334129
 30
0.0
 10
10.2034244226
 20
7.4387649967
 30
0.0
 10
10.2080397862
 20
7.4446458499
 30
0.0
 10
10.2129668727
 20
7.4502601465
 30
0.0
 10
10.2164514297
 20
7.4538162799
 30
0.0
 10
10.2182405091
 20
7.4555444178
 30
0.0
  0
SPLINE
  5
324
100
AcDbEntity
  8
0
100
AcDbSpline
 62
7
  6
CONTINUOUS
 70
0
 71
3
 72
42
 73
38
 74
0
 42
0.0000001
 43
0.0000001
 44
0.0000000001
 40
0.0
 40
0.0
 40
0.0
 40
0.0
 40
0.0055576372
 40
0.0111781844
 40
0.0169222645
 40
0.0228462606
 40
0.0290011924
 40
0.0354318012
 40
0.0421763813
 40
0.0492674042
 40
0.0567317137
 40
0.0645909869
 40
0.0728628518
 40
0.0815611869
 40
0.0906963311
 40
0.100276129
 40
0.1103061204
 40
0.1207893916
 40
0.143118388
 40
0.1672597522
 40
0.1931876351
 40
0.2208595732
 40
0.2502201712
 40
0.2812026868
 40
0.313730372
 40
0.3477184148
 40
0.3830742697
 40
0.4196987506
 40
0.4574871018
 40
0.4963290675
 40
0.5361099938
 40
0.5767113608
 40
0.6598816138
 40
0.7448355482
 40
0.8305377415
 40
0.9159389833
 40
1.0
 40
1.0
 40
1.0
 40
1.0
 10
9.6134475331
 20
10.9483049686
 30
0.0
 10
9.6134475367
 20
10.9486908811
 30
0.0
 10
9.6134907322
 20
10.9494677472
 30
0.0
 10
9.6136846922
 20
10.9506288965
 30
0.0
 10
9.6140074458
 20
10.9517874463
 30
0.0
 10
9.6144583027
 20
10.9529420835
 30
0.0
 10
9.615036622
 20
10.9540918371
 30
0.0
 10
9.6157415951
 20
10.9552358269
 30
0.0
 10
9.6165723628
 20
10.9563733089
 30
0.0
 10
9.6175281747
 20
10.9575034779
 30
0.0
 10
9.6186081783
 20
10.95862556
 30
0.0
 10
9.619811411
 20
10.9597388314
 30
0.0
 10
9.6211369369
 20
10.9608424594
 30
0.0
 10
9.6225837107
 20
10.9619356035
 30
0.0
 10
9.6241505332
 20
10.9630174959
 30
0.0
 10
9.6258361785
 20
10.9640872703
 30
0.0
 10
9.6276393239
 20
10.9651440696
 30
0.0
 10
9.6302535537
 20
10.9665647565
 30
0.0
 10
9.6338121507
 20
10.9682950802
 30
0.0
 10
9.6384390756
 20
10.9702652015
 30
0.0
 10
9.6434938595
 20
10.9721641156
 30
0.0
 10
9.6489601542
 20
10.9739856854
 30
0.0
 10
9.654820426
 20
10.9757238789
 30
0.0
 10
9.6610556868
 20
10.9773729343
 30
0.0
 10
9.6676456692
 20
10.9789274473
 30
0.0
 10
9.6745689097
 20
10.980382218
 30
0.0
 10
9.6818028132
 20
10.981732443
 30
0.0
 10
9.6893237406
 20
10.9829736813
 30
0.0
 10
9.6971071038
 20
10.9841017749
 30
0.0
 10
9.7051274282
 20
10.9851130226
 30
0.0
 10
9.713358479
 20
10.9860041098
 30
0.0
 10
9.72466873
 20
10.9870361707
 30
0.0
 10
9.7391328166
 20
10.9880001399
 30
0.0
 10
9.7567492056
 20
10.9886344794
 30
0.0
 10
9.7745316712
 20
10.9887467457
 30
0.0
 10
9.7922475224
 20
10.9883355474
 30
0.0
 10
9.8040001833
 20
10.9877085722
 30
0.0
 10
9.8098232458
 20
10.9873047414
 30
0.0
  0
SPLINE
  5
325
100
AcDbEntity
  8
0
100
AcDbSpline
 62
7
  6
CONTINUOUS
 70
0
 71
3
 72
37
 73
33
 74
0
 42
0.0000001
 43
0.0000001
 44
0.0000000001
 40
0.0
 40
0.0
 40
0.0
 40
0.0
 40
0.0958321372
 40
0.1891019121
 40
0.2792425465
 40
0.3657115305
 40
0.4074101378
 40
0.4480031117
 40
0.4874331589
 40
0.5256456456
 40
0.5625894675
 40
0.5982165282
 40
0.6324830688
 40
0.665348975
 40
0.6967793974
 40
0.7267441687
 40
0.7552196034
 40
0.7821883904
 40
0.8076415214
 40
0.8315791003
 40
0.8540125631
 40
0.8749669375
 40
0.894483817
 40
0.9126256757
 40
0.9294802133
 40
0.9451667887
 40
0.9598415117
 40
0.9737025915
 40
0.9804060739
 40
0.98699956
 40
0.9935185817
 40
1.0
 40
1.0
 40
1.0
 40
1.0
 10
9.6994178307
 20
10.8486612881
 30
0.0
 10
9.707127425
 20
10.8481266259
 30
0.0
 10
9.7223293507
 20
10.8469020322
 30
0.0
 10
9.7447285792
 20
10.8445644633
 30
0.0
 10
9.7663135918
 20
10.8417631356
 30
0.0
 10
9.7837070266
 20
10.8390261412
 30
0.0
 10
9.7971002983
 20
10.8366087753
 30
0.0
 10
9.8067320834
 20
10.8347142925
 30
0.0
 10
9.8160563606
 20
10.8327197063
 30
0.0
 10
9.8250575824
 20
10.8306282806
 30
0.0
 10
9.8337207364
 20
10.8284436211
 30
0.0
 10
9.8420313803
 20
10.8261693022
 30
0.0
 10
9.849975687
 20
10.8238092576
 30
0.0
 10
9.8575404379
 20
10.821367334
 30
0.0
 10
9.8647130971
 20
10.8188477489
 30
0.0
 10
9.8714817747
 20
10.8162546041
 30
0.0
 10
9.8778353274
 20
10.8135923338
 30
0.0
 10
9.8837633032
 20
10.8108652634
 30
0.0
 10
9.8892560476
 20
10.8080779494
 30
0.0
 10
9.8943046555
 20
10.8052348664
 30
0.0
 10
9.8989010365
 20
10.8023405424
 30
0.0
 10
9.9030379105
 20
10.7993994319
 30
0.0
 10
9.906708726
 20
10.7964157741
 30
0.0
 10
9.9099077236
 20
10.7933936673
 30
0.0
 10
9.9126294863
 20
10.7903367426
 30
0.0
 10
9.9148690618
 20
10.7872483087
 30
0.0
 10
9.9166208366
 20
10.7841320933
 30
0.0
 10
9.9176812457
 20
10.7814847235
 30
0.0
 10
9.9182678727
 20
10.7793728482
 30
0.0
 10
9.9185790399
 20
10.777803782
 30
0.0
 10
9.9187658601
 20
10.7762332394
 30
0.0
 10
9.9188074493
 20
10.7751843861
 30
0.0
 10
9.9188074541
 20
10.7746617104
 30
0.0
  0
SPLINE
  5
326
100
AcDbEntity
  8
0
100
AcDbSpline
 62
7
  6
CONTINUOUS
 70
0
 71
3
 72
39
 73
35
 74
0
 42
0.0000001
 43
0.0000001
 44
0.0000000001
 40
0.0
 40
0.0
 40
0.0
 40
0.0
 40
0.0055577586
 40
0.0111783654
 40
0.0169224615
 40
0.0228465493
 40
0.0354202971
 40
0.0421649593
 40
0.0492559747
 40
0.0567201248
 40
0.0645794678
 40
0.072851386
 40
0.0815495594
 40
0.0906847526
 40
0.1002646826
 40
0.1207751622
 40
0.1431043256
 40
0.1672459648
 40
0.193173928
 40
0.2208463125
 40
0.2502072694
 40
0.2811901547
 40
0.3137184682
 40
0.3477069902
 40
0.3830634975
 40
0.4196887183
 40
0.4574777258
 40
0.4963205319
 40
0.576701635
 40
0.6598737369
 40
0.7448295884
 40
0.8305338314
 40
0.9159369972
 40
1.0
 40
1.0
 40
1.0
 40
1.0
 10
10.1089449096
 20
11.4018040466
 30
0.0
 10
10.1089449021
 20
11.4021256429
 30
0.0
 10
10.1089808985
 20
11.4027730342
 30
0.0
 10
10.1091424247
 20
11.4037406593
 30
0.0
 10
10.1094113215
 20
11.4047061829
 30
0.0
 10
10.1099222175
 20
11.4060146732
 30
0.0
 10
10.1106466833
 20
11.4072930177
 30
0.0
 10
10.1115485122
 20
11.4085276223
 30
0.0
 10
10.1123450471
 20
11.4094695735
 30
0.0
 10
10.1132449478
 20
11.4104046495
 30
0.0
 10
10.114247632
 20
11.4113323744
 30
0.0
 10
10.1153522055
 20
11.4122520609
 30
0.0
 10
10.1165577845
 20
11.4131630594
 30
0.0
 10
10.1178634453
 20
11.4140646497
 30
0.0
 10
10.1197802915
 20
11.4152810781
 30
0.0
 10
10.1224274195
 20
11.4167669029
 30
0.0
 10
10.1259145544
 20
11.4184626848
 30
0.0
 10
10.1297704196
 20
11.4201044706
 30
0.0
 10
10.1339826596
 20
11.4216869605
 30
0.0
 10
10.1385379018
 20
11.4232049326
 30
0.0
 10
10.1434214448
 20
11.4246534599
 30
0.0
 10
10.1486174894
 20
11.4260277152
 30
0.0
 10
10.1541091486
 20
11.4273231413
 30
0.0
 10
10.159878526
 20
11.4285354951
 30
0.0
 10
10.1659067995
 20
11.4296607028
 30
0.0
 10
10.1721742654
 20
11.4306950725
 30
0.0
 10
10.1786604433
 20
11.4316352079
 30
0.0
 10
10.1876749663
 20
11.4327717335
 30
0.0
 10
10.199331797
 20
11.4339273829
 30
0.0
 10
10.2136820375
 20
11.4348839321
 30
0.0
 10
10.2283625948
 20
11.4354125288
 30
0.0
 10
10.2431814228
 20
11.4355061059
 30
0.0
 10
10.257944779
 20
11.4351634434
 30
0.0
 10
10.267738751
 20
11.4346409603
 30
0.0
 10
10.2725913501
 20
11.4343044314
 30
0.0
  0
SPLINE
  5
327
100
AcDbEntity
  8
0
100
AcDbSpline
 62
7
  6
CONTINUOUS
 70
0
 71
3
 72
15
 73
11
 74
0
 42
0.0000001
 43
0.0000001
 44
0.0000000001
 40
0.0
 40
0.0
 40
0.0
 40
0.0
 40
0.1261819997
 40
0.2520252177
 40
0.3775169727
 40
0.5026676557
 40
0.6274828164
 40
0.7519692971
 40
0.8761376295
 40
1.0
 40
1.0
 40
1.0
 40
1.0
 10
10.3369060826
 20
5.9653198344
 30
0.0
 10
10.347562585
 20
5.9645808034
 30
0.0
 10
10.368878543
 20
5.9635245789
 30
0.0
 10
10.4008442343
 20
5.9632114655
 30
0.0
 10
10.4327102459
 20
5.9641725892
 30
0.0
 10
10.464425091
 20
5.9664063358
 30
0.0
 10
10.4959394013
 20
5.969909094
 30
0.0
 10
10.5272035731
 20
5.9746755379
 30
0.0
 10
10.5581675904
 20
5.9806980827
 30
0.0
 10
10.578603811
 20
5.9855502928
 30
0.0
 10
10.5887537619
 20
5.9881825836
 30
0.0
  0
SPLINE
  5
328
100
AcDbEntity
  8
0
100
AcDbSpline
 62
7
  6
CONTINUOUS
 70
0
 71
3
 72
25
 73
21
 74
0
 42
0.0000001
 43
0.0000001
 44
0.0000000001
 40
0.0
 40
0.0
 40
0.0
 40
0.0
 40
0.0638791981
 40
0.1277568579
 40
0.1915764872
 40
0.2552941582
 40
0.3188616699
 40
0.3822366206
 40
0.4453801454
 40
0.5082587361
 40
0.5708448993
 40
0.6331178677
 40
0.6950641905
 40
0.7259186035
 40
0.7566898718
 40
0.8179737413
 40
0.8789378672
 40
0.9093115582
 40
0.9396128386
 40
1.0
 40
1.0
 40
1.0
 40
1.0
 10
10.3105154766
 20
7.3126278954
 30
0.0
 10
10.3075224012
 20
7.3153469544
 30
0.0
 10
10.3017316929
 20
7.3210046209
 30
0.0
 10
10.2936877672
 20
7.330093809
 30
0.0
 10
10.2863304376
 20
7.3397351922
 30
0.0
 10
10.2797046367
 20
7.3498696135
 30
0.0
 10
10.2738503046
 20
7.360436386
 30
0.0
 10
10.2688028494
 20
7.3713715733
 30
0.0
 10
10.2645928624
 20
7.3826092658
 30
0.0
 10
10.2612458586
 20
7.3940815843
 30
0.0
 10
10.2587821623
 20
7.4057193945
 30
0.0
 10
10.2572167911
 20
7.4174519622
 30
0.0
 10
10.2566681875
 20
7.4272638666
 30
0.0
 10
10.256687218
 20
7.4350880152
 30
0.0
 10
10.2570095142
 20
7.4428635846
 30
0.0
 10
10.2579794023
 20
7.4525121627
 30
0.0
 10
10.2597062706
 20
7.4620290089
 30
0.0
 10
10.2615344499
 20
7.4695109032
 30
0.0
 10
10.2636518765
 20
7.4768776627
 30
0.0
 10
10.2655717537
 20
7.482296773
 30
0.0
 10
10.2669944959
 20
7.4858448247
 30
0.0
  0
SPLINE
  5
329
100
AcDbEntity
  8
0
100
AcDbSpline
 62
7
  6
CONTINUOUS
 70
0
 71
3
 72
25
 73
21
 74
0
 42
0.0000001
 43
0.0000001
 44
0.0000000001
 40
0.0
 40
0.0
 40
0.0
 40
0.0
 40
0.0641094824
 40
0.1282107556
 40
0.1922375394
 40
0.2561353062
 40
0.3198472163
 40
0.3833237431
 40
0.4465209773
 40
0.5094028822
 40
0.5719421413
 40
0.6341211336
 40
0.6959325935
 40
0.7267084221
 40
0.7573945674
 40
0.8184922303
 40
0.8792650442
 40
0.9095477791
 40
0.9397631615
 40
1.0
 40
1.0
 40
1.0
 40
1.0
 10
10.3377863013
 20
7.3419812818
 30
0.0
 10
10.3351436185
 20
7.3443820266
 30
0.0
 10
10.3300484554
 20
7.3493970891
 30
0.0
 10
10.32303551
 20
7.3575007354
 30
0.0
 10
10.3166996468
 20
7.3661303715
 30
0.0
 10
10.3110878585
 20
7.3752218671
 30
0.0
 10
10.3062412231
 20
7.3847090683
 30
0.0
 10
10.3021953378
 20
7.3945223433
 30
0.0
 10
10.2989800013
 20
7.4045898945
 30
0.0
 10
10.2966189267
 20
7.414837917
 30
0.0
 10
10.2951296396
 20
7.4251914436
 30
0.0
 10
10.2945231792
 20
7.4355740554
 30
0.0
 10
10.2947579652
 20
7.4442015953
 30
0.0
 10
10.295390261
 20
7.4510395625
 30
0.0
 10
10.2963142035
 20
7.4578041498
 30
0.0
 10
10.2980153871
 20
7.4661400593
 30
0.0
 10
10.3004411283
 20
7.4742714617
 30
0.0
 10
10.3028026761
 20
7.4806011009
 30
0.0
 10
10.3054340607
 20
7.4867904412
 30
0.0
 10
10.3077180088
 20
7.4912905024
 30
0.0
 10
10.3093708935
 20
7.4942097117
 30
0.0
  0
SPLINE
  5
32A
100
AcDbEntity
  8
0
100
AcDbSpline
 62
7
  6
CONTINUOUS
 70
0
 71
3
 72
53
 73
49
 74
0
 42
0.0000001
 43
0.0000001
 44
0.0000000001
 40
0.0
 40
0.0
 40
0.0
 40
0.0
 40
0.0149699035
 40
0.029942777
 40
0.0449215746
 40
0.0599092113
 40
0.0749085524
 40
0.0899223958
 40
0.1049534507
 40
0.1200043257
 40
0.1350775163
 40
0.1501753856
 40
0.1653001534
 40
0.1804538862
 40
0.1956384836
 40
0.2108556693
 40
0.2261069822
 40
0.2413937695
 40
0.2567171824
 40
0.2720781644
 40
0.2874774553
 40
0.3029155888
 40
0.3183928796
 40
0.3339094374
 40
0.3494651659
 40
0.3650597508
 40
0.3806926801
 40
0.3963632456
 40
0.412070533
 40
0.4278134464
 40
0.4593959768
 40
0.4911034992
 40
0.5229212231
 40
0.5548321697
 40
0.5868175281
 40
0.6188570355
 40
0.6509293773
 40
0.6830126096
 40
0.7150845717
 40
0.7471233251
 40
0.7791075736
 40
0.8110170707
 40
0.842833039
 40
0.8745385324
 40
0.9061187943
 40
0.9375616314
 40
0.9688573338
 40
1.0
 40
1.0
 40
1.0
 40
1.0
 10
9.1235268685
 20
6.8386160814
 30
0.0
 10
9.1162434099
 20
6.8315807825
 30
0.0
 10
9.1019490966
 20
6.8172218466
 30
0.0
 10
9.0813652456
 20
6.7948580504
 30
0.0
 10
9.0616641256
 20
6.7716964801
 30
0.0
 10
9.0428726118
 20
6.7477684225
 30
0.0
 10
9.0250155665
 20
6.723105842
 30
0.0
 10
9.0081169203
 20
6.6977416875
 30
0.0
 10
8.9921992987
 20
6.6717098127
 30
0.0
 10
8.9772838302
 20
6.6450450875
 30
0.0
 10
8.9633905331
 20
6.6177830824
 30
0.0
 10
8.9505379501
 20
6.5899602373
 30
0.0
 10
8.9387431312
 20
6.5616137744
 30
0.0
 10
8.9280219575
 20
6.5327815104
 30
0.0
 10
8.9183886524
 20
6.5035020031
 30
0.0
 10
8.909856015
 20
6.4738143808
 30
0.0
 10
8.9024355663
 20
6.4437582661
 30
0.0
 10
8.8961370584
 20
6.4133738458
 30
0.0
 10
8.8909689059
 20
6.3827016957
 30
0.0
 10
8.8869380899
 20
6.3517827718
 30
0.0
 10
8.8840498168
 20
6.3206583887
 30
0.0
 10
8.8823080128
 20
6.2893701003
 30
0.0
 10
8.8817150093
 20
6.2579596935
 30
0.0
 10
8.882271446
 20
6.2264691117
 30
0.0
 10
8.8839766961
 20
6.194940401
 30
0.0
 10
8.8868284058
 20
6.1634156696
 30
0.0
 10
8.8908226825
 20
6.1319369603
 30
0.0
 10
8.8959542811
 20
6.1005464474
 30
0.0
 10
8.9022163698
 20
6.0692855384
 30
0.0
 10
8.9120710005
 20
6.0277938497
 30
0.0
 10
8.9271796301
 20
5.9764608994
 30
0.0
 10
8.9496398114
 20
5.916118618
 30
0.0
 10
8.9763312467
 20
5.8572796732
 30
0.0
 10
9.0071108543
 20
5.8002597231
 30
0.0
 10
9.0418144223
 20
5.745362047
 30
0.0
 10
9.0802566655
 20
5.692879272
 30
0.0
 10
9.1222325622
 20
5.6430910067
 30
0.0
 10
9.1675183672
 20
5.5962626384
 30
0.0
 10
9.2158726759
 20
5.5526437418
 30
0.0
 10
9.2670377792
 20
5.5124668349
 30
0.0
 10
9.3207410722
 20
5.4759462224
 30
0.0
 10
9.3766964511
 20
5.4432768235
 30
0.0
 10
9.4346057111
 20
5.4146330096
 30
0.0
 10
9.4941603664
 20
5.3901678358
 30
0.0
 10
9.5550427556
 20
5.3700122432
 30
0.0
 10
9.6169294064
 20
5.3542742503
 30
0.0
 10
9.6794860832
 20
5.3430384095
 30
0.0
 10
9.7215303556
 20
5.3385780263
 30
0.0
 10
9.7425463761
 20
5.3371205603
 30
0.0
  0
SPLINE
  5
32B
100
AcDbEntity
  8
0
100
AcDbSpline
 62
7
  6
CONTINUOUS
 70
0
 71
3
 72
48
 73
44
 74
0
 42
0.0000001
 43
0.0000001
 44
0.0000000001
 40
0.0
 40
0.0
 40
0.0
 40
0.0
 40
0.0149576889
 40
0.0299287767
 40
0.0449156462
 40
0.0599206012
 40
0.0749458477
 40
0.0899934929
 40
0.1050655269
 40
0.1201638158
 40
0.1352900954
 40
0.1504459568
 40
0.1656328491
 40
0.1808520618
 40
0.1961047275
 40
0.2113918172
 40
0.2267141283
 40
0.2420722952
 40
0.2574667737
 40
0.272897851
 40
0.3038655717
 40
0.3349788672
 40
0.3662338808
 40
0.3976241686
 40
0.4291408487
 40
0.4607727909
 40
0.4925068335
 40
0.5243280373
 40
0.5562199549
 40
0.5881649285
 40
0.6201443929
 40
0.6521392002
 40
0.6841299373
 40
0.7160972655
 40
0.7480222393
 40
0.7798866352
 40
0.8116732683
 40
0.8433662829
 40
0.8749514598
 40
0.906416438
 40
0.9377510893
 40
0.9689472276
 40
1.0
 40
1.0
 40
1.0
 40
1.0
 10
9.3256474598
 20
6.9793661333
 30
0.0
 10
9.32011286
 20
6.9720276671
 30
0.0
 10
9.3093064739
 20
6.9571399923
 30
0.0
 10
9.2939169517
 20
6.9342207388
 30
0.0
 10
9.2793578532
 20
6.9107305963
 30
0.0
 10
9.2656467666
 20
6.8866974102
 30
0.0
 10
9.2527995545
 20
6.8621493912
 30
0.0
 10
9.2408313613
 20
6.8371153643
 30
0.0
 10
9.2297562877
 20
6.8116246953
 30
0.0
 10
9.219587163
 20
6.7857073862
 30
0.0
 10
9.2103361277
 20
6.7593937874
 30
0.0
 10
9.2020138274
 20
6.7327148682
 30
0.0
 10
9.1946301389
 20
6.7057019109
 30
0.0
 10
9.188193707
 20
6.6783866388
 30
0.0
 10
9.1827119603
 20
6.6508011388
 30
0.0
 10
9.1781915166
 20
6.6229777663
 30
0.0
 10
9.1746374407
 20
6.5949491882
 30
0.0
 10
9.1720540631
 20
6.5667483928
 30
0.0
 10
9.1704443375
 20
6.5384080694
 30
0.0
 10
9.1695976241
 20
6.5004391079
 30
0.0
 10
9.1709889604
 20
6.4527874479
 30
0.0
 10
9.1765545393
 20
6.3956599248
 30
0.0
 10
9.1859912309
 20
6.3387789221
 30
0.0
 10
9.1992544055
 20
6.2824129207
 30
0.0
 10
9.2162814579
 20
6.2268256237
 30
0.0
 10
9.2369922312
 20
6.1722776513
 30
0.0
 10
9.2612893664
 20
6.1190245517
 30
0.0
 10
9.2890587219
 20
6.0673158089
 30
0.0
 10
9.3201699497
 20
6.01739364
 30
0.0
 10
9.3544771107
 20
5.9694918971
 30
0.0
 10
9.3918193516
 20
5.923834976
 30
0.0
 10
9.4320216548
 20
5.8806367861
 30
0.0
 10
9.4748956396
 20
5.8400997425
 30
0.0
 10
9.5202404147
 20
5.8024138028
 30
0.0
 10
9.5678435553
 20
5.7677556201
 30
0.0
 10
9.6174820729
 20
5.7362877135
 30
0.0
 10
9.6689234597
 20
5.7081577211
 30
0.0
 10
9.7219267376
 20
5.6834977076
 30
0.0
 10
9.7762436556
 20
5.6624235279
 30
0.0
 10
9.8316194878
 20
5.6450342364
 30
0.0
 10
9.8877955601
 20
5.6314117867
 30
0.0
 10
9.9445051864
 20
5.6216204877
 30
0.0
 10
9.9825876833
 20
5.61766832
 30
0.0
 10
10.0016240265
 20
5.6163481451
 30
0.0
  0
SPLINE
  5
32C
100
AcDbEntity
  8
0
100
AcDbSpline
 62
7
  6
CONTINUOUS
 70
0
 71
3
 72
23
 73
19
 74
0
 42
0.0000001
 43
0.0000001
 44
0.0000000001
 40
0.0
 40
0.0
 40
0.0
 40
0.0
 40
0.0640171951
 40
0.1279622758
 40
0.1917859219
 40
0.2554602447
 40
0.3189503426
 40
0.3822268783
 40
0.4452644341
 40
0.5080414896
 40
0.5705413829
 40
0.6327525338
 40
0.6946687547
 40
0.7562894045
 40
0.8176194623
 40
0.8786695849
 40
0.9394559564
 40
1.0
 40
1.0
 40
1.0
 40
1.0
 10
10.3105154766
 20
7.3126278954
 30
0.0
 10
10.3131698424
 20
7.3102165372
 30
0.0
 10
10.318632536
 20
7.3055661033
 30
0.0
 10
10.3272509469
 20
7.2991396859
 30
0.0
 10
10.3362515019
 20
7.2932946886
 30
0.0
 10
10.3455904507
 20
7.288059222
 30
0.0
 10
10.355223905
 20
7.2834581897
 30
0.0
 10
10.3651058824
 20
7.2795135071
 30
0.0
 10
10.3751894093
 20
7.2762439492
 30
0.0
 10
10.3854265538
 20
7.2736651847
 30
0.0
 10
10.3957686188
 20
7.2717896118
 30
0.0
 10
10.4061663815
 20
7.2706261772
 30
0.0
 10
10.4165703515
 20
7.2701804932
 30
0.0
 10
10.4269310068
 20
7.2704548156
 30
0.0
 10
10.4371989378
 20
7.2714479745
 30
0.0
 10
10.4473253916
 20
7.2731553337
 30
0.0
 10
10.4572614376
 20
7.2755685909
 30
0.0
 10
10.4637405631
 20
7.2776449098
 30
0.0
 10
10.4669307038
 20
7.2787963136
 30
0.0
  0
SPLINE
  5
32D
100
AcDbEntity
  8
0
100
AcDbSpline
 62
7
  6
CONTINUOUS
 70
0
 71
3
 72
24
 73
20
 74
0
 42
0.0000001
 43
0.0000001
 44
0.0000000001
 40
0.0
 40
0.0
 40
0.0
 40
0.0
 40
0.0642513133
 40
0.1284157858
 40
0.1924359991
 40
0.2562761305
 40
0.319894353
 40
0.3832567813
 40
0.4463347449
 40
0.5091058603
 40
0.5715548321
 40
0.6336737185
 40
0.6954623397
 40
0.7569284129
 40
0.8180874628
 40
0.8789625388
 40
0.9093088818
 40
0.9395961088
 40
1.0
 40
1.0
 40
1.0
 40
1.0
 10
10.3377863013
 20
7.3419812818
 30
0.0
 10
10.3401571134
 20
7.3398275178
 30
0.0
 10
10.345051976
 20
7.3356915517
 30
0.0
 10
10.3528122623
 20
7.3300381868
 30
0.0
 10
10.3609435072
 20
7.3249703445
 30
0.0
 10
10.3693967238
 20
7.3205182693
 30
0.0
 10
10.3781224939
 20
7.3167083164
 30
0.0
 10
10.3870691131
 20
7.3135630872
 30
0.0
 10
10.3961837571
 20
7.3111012113
 30
0.0
 10
10.4054125706
 20
7.3093373479
 30
0.0
 10
10.4147010028
 20
7.3082820438
 30
0.0
 10
10.4239941351
 20
7.3079417238
 30
0.0
 10
10.4332369494
 20
7.3083185016
 30
0.0
 10
10.4423748226
 20
7.3094102838
 30
0.0
 10
10.451353287
 20
7.3112106292
 30
0.0
 10
10.4586672512
 20
7.3132952772
 30
0.0
 10
10.4643831535
 20
7.3153049448
 30
0.0
 10
10.4699911892
 20
7.3175347837
 30
0.0
 10
10.4740890637
 20
7.3194602087
 30
0.0
 10
10.4767598527
 20
7.320851048
 30
0.0
  0
SPLINE
  5
32E
100
AcDbEntity
  8
0
100
AcDbSpline
 62
7
  6
CONTINUOUS
 70
0
 71
3
 72
39
 73
35
 74
0
 42
0.0000001
 43
0.0000001
 44
0.0000000001
 40
0.0
 40
0.0
 40
0.0
 40
0.0
 40
0.0306730466
 40
0.0614497887
 40
0.0923258225
 40
0.1232995021
 40
0.1543663057
 40
0.185521462
 40
0.2167593041
 40
0.2480733921
 40
0.2794566283
 40
0.310901285
 40
0.3423990901
 40
0.3739413052
 40
0.405518803
 40
0.4371221471
 40
0.4687416723
 40
0.5003675737
 40
0.5319899931
 40
0.5635991029
 40
0.5951851887
 40
0.6267387358
 40
0.6582505174
 40
0.6897116734
 40
0.7211137882
 40
0.7524489668
 40
0.78370991
 40
0.814889997
 40
0.84598331
 40
0.8769847454
 40
0.9078901327
 40
0.9386955846
 40
0.9694001122
 40
1.0
 40
1.0
 40
1.0
 40
1.0
 10
11.5060630958
 20
10.4368371187
 30
0.0
 10
11.5179354533
 20
10.4360137679
 30
0.0
 10
11.5416839334
 20
10.4337818199
 30
0.0
 10
11.5771569781
 20
10.4287022864
 30
0.0
 10
11.612459303
 20
10.4218970261
 30
0.0
 10
11.6475043722
 20
10.413383091
 30
0.0
 10
11.682208455
 20
10.4031806603
 30
0.0
 10
11.7164877869
 20
10.3913144915
 30
0.0
 10
11.750259921
 20
10.3778132307
 30
0.0
 10
11.7834435626
 20
10.3627094307
 30
0.0
 10
11.8159588407
 20
10.346039494
 30
0.0
 10
11.847727473
 20
10.3278435428
 30
0.0
 10
11.878673015
 20
10.3081654479
 30
0.0
 10
11.9087210042
 20
10.2870526273
 30
0.0
 10
11.9377991256
 20
10.2645559221
 30
0.0
 10
11.9658373749
 20
10.2407294739
 30
0.0
 10
11.9927682505
 20
10.2156306316
 30
0.0
 10
12.0185269632
 20
10.1893198541
 30
0.0
 10
12.0430515176
 20
10.1618604793
 30
0.0
 10
12.0662828715
 20
10.133318594
 30
0.0
 10
12.0881650553
 20
10.1037628657
 30
0.0
 10
12.1086453969
 20
10.0732644466
 30
0.0
 10
12.1276746049
 20
10.0418967573
 30
0.0
 10
12.1452068487
 20
10.0097352899
 30
0.0
 10
12.1611998692
 20
9.9768574364
 30
0.0
 10
12.1756150921
 20
9.9433423163
 30
0.0
 10
12.1884178189
 20
9.9092706185
 30
0.0
 10
12.1995771813
 20
9.8747243559
 30
0.0
 10
12.2090662592
 20
9.8397866918
 30
0.0
 10
12.2168621195
 20
9.8045416661
 30
0.0
 10
12.2229458093
 20
9.7690743613
 30
0.0
 10
12.2273029519
 20
9.7334695068
 30
0.0
 10
12.2299224934
 20
9.6978144203
 30
0.0
 10
12.2305075084
 20
9.6740248035
 30
0.0
 10
12.2305075084
 20
9.6621523154
 30
0.0
  0
SPLINE
  5
32F
100
AcDbEntity
  8
0
100
AcDbSpline
 62
7
  6
CONTINUOUS
 70
0
 71
3
 72
15
 73
11
 74
0
 42
0.0000001
 43
0.0000001
 44
0.0000000001
 40
0.0
 40
0.0
 40
0.0
 40
0.0
 40
0.1261910779
 40
0.2520404171
 40
0.3775355839
 40
0.5026871153
 40
0.6275005625
 40
0.7519830502
 40
0.8761453742
 40
1.0
 40
1.0
 40
1.0
 40
1.0
 10
10.3463201173
 20
5.9946975377
 30
0.0
 10
10.3567916387
 20
5.9939713352
 30
0.0
 10
10.3777376074
 20
5.9929367521
 30
0.0
 10
10.4091479824
 20
5.9926440764
 30
0.0
 10
10.4404588302
 20
5.9936135474
 30
0.0
 10
10.4716187665
 20
5.9958435093
 30
0.0
 10
10.5025784946
 20
5.9993303262
 30
0.0
 10
10.5332884982
 20
6.0040685797
 30
0.0
 10
10.563698863
 20
6.0100506198
 30
0.0
 10
10.5837660667
 20
6.0148675664
 30
0.0
 10
10.5937316286
 20
6.0174801255
 30
0.0
  0
SPLINE
  5
330
100
AcDbEntity
  8
0
100
AcDbSpline
 62
7
  6
CONTINUOUS
 70
0
 71
3
 72
25
 73
21
 74
0
 42
0.0000001
 43
0.0000001
 44
0.0000000001
 40
0.0
 40
0.0
 40
0.0
 40
0.0
 40
0.0637762802
 40
0.1273436913
 40
0.1907000773
 40
0.2538536116
 40
0.2853583766
 40
0.3168148804
 40
0.3795831441
 40
0.4421738281
 40
0.5045991665
 40
0.5668730853
 40
0.6290109882
 40
0.6910296467
 40
0.7220023597
 40
0.7529520858
 40
0.8147871883
 40
0.8765598284
 40
0.9382904678
 40
1.0
 40
1.0
 40
1.0
 40
1.0
 10
12.2305075084
 20
6.4630057892
 30
0.0
 10
12.2305075084
 20
6.4514343166
 30
0.0
 10
12.2299536373
 20
6.4283253677
 30
0.0
 10
12.2274538174
 20
6.3938024198
 30
0.0
 10
12.2232916358
 20
6.3595535174
 30
0.0
 10
12.2184420108
 20
6.3312840214
 30
0.0
 10
12.2137412456
 20
6.3088879282
 30
0.0
 10
12.2085047101
 20
6.286682857
 30
0.0
 10
12.2009463011
 20
6.2592396067
 30
0.0
 10
12.1902686326
 20
6.2268700611
 30
0.0
 10
12.1780140488
 20
6.1951596172
 30
0.0
 10
12.1642107444
 20
6.1641818086
 30
0.0
 10
12.14889076
 20
6.1340084174
 30
0.0
 10
12.1348825944
 20
6.1095801985
 30
0.0
 10
12.1229564079
 20
6.0905130219
 30
0.0
 10
12.1105654066
 20
6.0717845089
 30
0.0
 10
12.0941985595
 20
6.0489971574
 30
0.0
 10
12.0731974572
 20
6.0227150676
 30
0.0
 10
12.0508896262
 20
5.9975636903
 30
0.0
 10
12.0351781477
 20
5.9815859241
 30
0.0
 10
12.0271250413
 20
5.9738071871
 30
0.0
  0
SPLINE
  5
331
100
AcDbEntity
  8
0
100
AcDbSpline
 62
7
  6
CONTINUOUS
 70
0
 71
3
 72
11
 73
7
 74
0
 42
0.0000001
 43
0.0000001
 44
0.0000000001
 40
0.0
 40
0.0
 40
0.0
 40
0.0
 40
0.2515060505
 40
0.5019981132
 40
0.7514868403
 40
1.0
 40
1.0
 40
1.0
 40
1.0
 10
10.417657558
 20
6.0636042182
 30
0.0
 10
10.4329076327
 20
6.0625466219
 30
0.0
 10
10.4634149605
 20
6.061316966
 30
0.0
 10
10.5091086197
 20
6.0621498247
 30
0.0
 10
10.554492607
 20
6.0656603251
 30
0.0
 10
10.5845003038
 20
6.069786787
 30
0.0
 10
10.5993958025
 20
6.0722925591
 30
0.0
  0
SPLINE
  5
332
100
AcDbEntity
  8
0
100
AcDbSpline
 62
7
  6
CONTINUOUS
 70
0
 71
3
 72
11
 73
7
 74
0
 42
0.0000001
 43
0.0000001
 44
0.0000000001
 40
0.0
 40
0.0
 40
0.0
 40
0.0
 40
0.2514955097
 40
0.5019849872
 40
0.75147701
 40
1.0
 40
1.0
 40
1.0
 40
1.0
 10
10.4383630645
 20
6.1608782736
 30
0.0
 10
10.4520192027
 20
6.1599312172
 30
0.0
 10
10.4793378644
 20
6.1588246132
 30
0.0
 10
10.5202569351
 20
6.159545485
 30
0.0
 10
10.5609025447
 20
6.1626475861
 30
0.0
 10
10.5877807252
 20
6.1663040793
 30
0.0
 10
10.6011241451
 20
6.1685259601
 30
0.0
  0
SPLINE
  5
333
100
AcDbEntity
  8
0
100
AcDbSpline
 62
7
  6
CONTINUOUS
 70
0
 71
3
 72
37
 73
33
 74
0
 42
0.0000001
 43
0.0000001
 44
0.0000000001
 40
0.0
 40
0.0
 40
0.0
 40
0.0
 40
0.0958321372
 40
0.1891019121
 40
0.2792425465
 40
0.3657115305
 40
0.4074101378
 40
0.4480031117
 40
0.4874331589
 40
0.5256456456
 40
0.5625894675
 40
0.5982165282
 40
0.6324830688
 40
0.665348975
 40
0.6967793974
 40
0.7267441687
 40
0.7552196034
 40
0.7821883904
 40
0.8076415214
 40
0.8315791003
 40
0.8540125631
 40
0.8749669375
 40
0.894483817
 40
0.9126256757
 40
0.9294802133
 40
0.9451667887
 40
0.9598415117
 40
0.9737025915
 40
0.9804060739
 40
0.98699956
 40
0.9935185817
 40
1.0
 40
1.0
 40
1.0
 40
1.0
 10
10.5240145943
 20
11.6451606455
 30
0.0
 10
10.5317241886
 20
11.6446259833
 30
0.0
 10
10.5469261143
 20
11.6434013897
 30
0.0
 10
10.5693253428
 20
11.6410638207
 30
0.0
 10
10.5909103554
 20
11.6382624931
 30
0.0
 10
10.6083037902
 20
11.6355254987
 30
0.0
 10
10.6216970619
 20
11.6331081327
 30
0.0
 10
10.631328847
 20
11.6312136499
 30
0.0
 10
10.6406531242
 20
11.6292190638
 30
0.0
 10
10.649654346
 20
11.627127638
 30
0.0
 10
10.6583175
 20
11.6249429786
 30
0.0
 10
10.6666281439
 20
11.6226686597
 30
0.0
 10
10.6745724506
 20
11.620308615
 30
0.0
 10
10.6821372015
 20
11.6178666914
 30
0.0
 10
10.6893098607
 20
11.6153471063
 30
0.0
 10
10.6960785383
 20
11.6127539615
 30
0.0
 10
10.702432091
 20
11.6100916913
 30
0.0
 10
10.7083600668
 20
11.6073646208
 30
0.0
 10
10.7138528112
 20
11.6045773068
 30
0.0
 10
10.7189014191
 20
11.6017342239
 30
0.0
 10
10.7234978001
 20
11.5988398998
 30
0.0
 10
10.7276346741
 20
11.5958987893
 30
0.0
 10
10.7313054896
 20
11.5929151316
 30
0.0
 10
10.7345044872
 20
11.5898930247
 30
0.0
 10
10.7372262499
 20
11.5868361001
 30
0.0
 10
10.7394658254
 20
11.5837476661
 30
0.0
 10
10.7412176002
 20
11.5806314507
 30
0.0
 10
10.7422780093
 20
11.5779840809
 30
0.0
 10
10.7428646363
 20
11.5758722056
 30
0.0
 10
10.7431758035
 20
11.5743031395
 30
0.0
 10
10.7433626237
 20
11.5727325968
 30
0.0
 10
10.7434042129
 20
11.5716837435
 30
0.0
 10
10.7434042177
 20
11.5711610678
 30
0.0
  0
SPLINE
  5
334
100
AcDbEntity
  8
0
100
AcDbSpline
 62
7
  6
CONTINUOUS
 70
0
 71
3
 72
39
 73
35
 74
0
 42
0.0000001
 43
0.0000001
 44
0.0000000001
 40
0.0
 40
0.0
 40
0.0
 40
0.0
 40
0.0306729027
 40
0.0614498476
 40
0.0923258199
 40
0.1232994902
 40
0.1543663149
 40
0.1855214594
 40
0.2167593029
 40
0.2480733926
 40
0.2794566298
 40
0.3109012849
 40
0.3423990884
 40
0.3739413052
 40
0.4055188049
 40
0.437122147
 40
0.4687416705
 40
0.5003675737
 40
0.5319899949
 40
0.5635991029
 40
0.5951851868
 40
0.6267387359
 40
0.6582505191
 40
0.6897116734
 40
0.7211137867
 40
0.7524489664
 40
0.7837099113
 40
0.8148899995
 40
0.8459833007
 40
0.8769847573
 40
0.9078901352
 40
0.9386955258
 40
0.9694002558
 40
1.0
 40
1.0
 40
1.0
 40
1.0
 10
8.8777333355
 20
5.059917426
 30
0.0
 10
8.8668424773
 20
5.0606727096
 30
0.0
 10
8.8450571865
 20
5.0627201729
 30
0.0
 10
8.8125165768
 20
5.0673797664
 30
0.0
 10
8.7801325321
 20
5.0736224727
 30
0.0
 10
8.7479845379
 20
5.0814325798
 30
0.0
 10
8.7161493325
 20
5.090791632
 30
0.0
 10
8.6847037562
 20
5.1016768663
 30
0.0
 10
8.6537234446
 20
5.1140619955
 30
0.0
 10
8.6232829757
 20
5.1279172019
 30
0.0
 10
8.5934556503
 20
5.1432091364
 30
0.0
 10
8.5643132276
 20
5.1599008898
 30
0.0
 10
8.535925832
 20
5.1779522315
 30
0.0
 10
8.5083617929
 20
5.197319704
 30
0.0
 10
8.4816874924
 20
5.2179567216
 30
0.0
 10
8.4559670903
 20
5.2398135358
 30
0.0
 10
8.431262474
 20
5.2628375099
 30
0.0
 10
8.4076331192
 20
5.2869732367
 30
0.0
 10
8.3851359562
 20
5.3121626636
 30
0.0
 10
8.3638250933
 20
5.3383451108
 30
0.0
 10
8.3437518164
 20
5.3654575483
 30
0.0
 10
8.3249644744
 20
5.393434738
 30
0.0
 10
8.3075083702
 20
5.4222093804
 30
0.0
 10
8.2914254906
 20
5.4517121828
 30
0.0
 10
8.2767545588
 20
5.4818721311
 30
0.0
 10
8.2635309468
 20
5.5126166482
 30
0.0
 10
8.2517865921
 20
5.5438717597
 30
0.0
 10
8.2415497649
 20
5.5755622033
 30
0.0
 10
8.2328451155
 20
5.6076116897
 30
0.0
 10
8.2256936901
 20
5.6399431217
 30
0.0
 10
8.2201129271
 20
5.6724784462
 30
0.0
 10
8.2161159638
 20
5.7051400121
 30
0.0
 10
8.2137130031
 20
5.7378476125
 30
0.0
 10
8.2131763276
 20
5.759670641
 30
0.0
 10
8.2131763276
 20
5.7705616189
 30
0.0
  0
SPLINE
  5
335
100
AcDbEntity
  8
0
100
AcDbSpline
 62
7
  6
CONTINUOUS
 70
0
 71
3
 72
41
 73
37
 74
0
 42
0.0000001
 43
0.0000001
 44
0.0000000001
 40
0.0
 40
0.0
 40
0.0
 40
0.0
 40
0.0318705743
 40
0.063634638
 40
0.0952908034
 40
0.1268435451
 40
0.1425832863
 40
0.158298473
 40
0.1896552613
 40
0.2209221107
 40
0.2521055347
 40
0.283212946
 40
0.3142525389
 40
0.3452332193
 40
0.3761645126
 40
0.4070564619
 40
0.4379195303
 40
0.4687644916
 40
0.4996023129
 40
0.5304440338
 40
0.5613006525
 40
0.5921830111
 40
0.6231016779
 40
0.6540668322
 40
0.6850881586
 40
0.7161747543
 40
0.7473350336
 40
0.7785766416
 40
0.8099063908
 40
0.8413301516
 40
0.8570801326
 40
0.8728554293
 40
0.9044812253
 40
0.936212405
 40
0.9680527092
 40
1.0
 40
1.0
 40
1.0
 40
1.0
 10
8.2131763276
 20
8.9697081452
 30
0.0
 10
8.2131763276
 20
8.9805621241
 30
0.0
 10
8.2137075633
 20
9.0022376351
 30
0.0
 10
8.2161052713
 20
9.0346143726
 30
0.0
 10
8.2200972414
 20
9.0667248718
 30
0.0
 10
8.2247481578
 20
9.0932191153
 30
0.0
 10
8.2292558046
 20
9.1142005129
 30
0.0
 10
8.2342766903
 20
9.1349963689
 30
0.0
 10
8.2415229415
 20
9.1606858574
 30
0.0
 10
8.2517575653
 20
9.1909638352
 30
0.0
 10
8.2635008063
 20
9.2205984583
 30
0.0
 10
8.2767243451
 20
9.2495177298
 30
0.0
 10
8.2913963262
 20
9.2776520565
 30
0.0
 10
8.307481393
 20
9.3049335517
 30
0.0
 10
8.3249408239
 20
9.3312964011
 30
0.0
 10
8.3437326053
 20
9.3566769552
 30
0.0
 10
8.3638113779
 20
9.3810140221
 30
0.0
 10
8.3851287134
 20
9.404248907
 30
0.0
 10
8.4076332242
 20
9.4263255453
 30
0.0
 10
8.4312706776
 20
9.4471906294
 30
0.0
 10
8.4559840006
 20
9.4667938911
 30
0.0
 10
8.4817135613
 20
9.485088085
 30
0.0
 10
8.5083973043
 20
9.5020290938
 30
0.0
 10
8.535970891
 20
9.517576028
 30
0.0
 10
8.5643677594
 20
9.5316914982
 30
0.0
 10
8.5935194119
 20
9.544341541
 30
0.0
 10
8.6233555137
 20
9.555495685
 30
0.0
 10
8.6538042656
 20
9.5651270608
 30
0.0
 10
8.6847917169
 20
9.5732124841
 30
0.0
 10
8.710982756
 20
9.5786420327
 30
0.0
 10
8.7321262088
 20
9.5821964595
 30
0.0
 10
8.753420558
 20
9.5852273991
 30
0.0
 10
8.7802375154
 20
9.5880185372
 30
0.0
 10
8.8126244792
 20
9.5897643835
 30
0.0
 10
8.8451671206
 20
9.5899052083
 30
0.0
 10
8.8668792994
 20
9.588930698
 30
0.0
 10
8.8777333355
 20
9.588177968
 30
0.0
  0
SPLINE
  5
336
100
AcDbEntity
  8
0
100
AcDbSpline
 62
7
  6
CONTINUOUS
 70
0
 71
3
 72
11
 73
7
 74
0
 42
0.0000001
 43
0.0000001
 44
0.0000000001
 40
0.0
 40
0.0
 40
0.0
 40
0.0
 40
0.2244529639
 40
0.4680303966
 40
0.7276181201
 40
1.0
 40
1.0
 40
1.0
 40
1.0
 10
9.7073181115
 20
8.2139332988
 30
0.0
 10
9.7031588797
 20
8.2126727317
 30
0.0
 10
9.6944678236
 20
8.2101037626
 30
0.0
 10
9.6808962917
 20
8.2063189654
 30
0.0
 10
9.6663663258
 20
8.202523484
 30
0.0
 10
9.6563581959
 20
8.2000846409
 30
0.0
 10
9.6512245946
 20
8.1988753852
 30
0.0
  0
SPLINE
  5
337
100
AcDbEntity
  8
0
100
AcDbSpline
 62
7
  6
CONTINUOUS
 70
0
 71
3
 72
39
 73
35
 74
0
 42
0.0000001
 43
0.0000001
 44
0.0000000001
 40
0.0
 40
0.0
 40
0.0
 40
0.0
 40
0.0306729027
 40
0.0614498476
 40
0.0923258199
 40
0.1232994902
 40
0.1543663149
 40
0.1855214594
 40
0.2167593029
 40
0.2480733926
 40
0.2794566298
 40
0.3109012849
 40
0.3423990884
 40
0.3739413052
 40
0.4055188049
 40
0.437122147
 40
0.4687416705
 40
0.5003675737
 40
0.5319899949
 40
0.5635991029
 40
0.5951851868
 40
0.6267387359
 40
0.6582505191
 40
0.6897116734
 40
0.7211137867
 40
0.7524489664
 40
0.7837099113
 40
0.8148899995
 40
0.8459833007
 40
0.8769847573
 40
0.9078901352
 40
0.9386955258
 40
0.9694002558
 40
1.0
 40
1.0
 40
1.0
 40
1.0
 10
10.5681036317
 20
9.4709503898
 30
0.0
 10
10.5789944898
 20
9.4701951062
 30
0.0
 10
10.6007797807
 20
9.468147643
 30
0.0
 10
10.6333203904
 20
9.4634880494
 30
0.0
 10
10.665704435
 20
9.4572453431
 30
0.0
 10
10.6978524293
 20
9.4494352361
 30
0.0
 10
10.7296876347
 20
9.4400761838
 30
0.0
 10
10.761133211
 20
9.4291909495
 30
0.0
 10
10.7921135226
 20
9.4168058204
 30
0.0
 10
10.8225539914
 20
9.402950614
 30
0.0
 10
10.8523813168
 20
9.3876586795
 30
0.0
 10
10.8815237396
 20
9.370966926
 30
0.0
 10
10.9099111352
 20
9.3529155844
 30
0.0
 10
10.9374751743
 20
9.3335481119
 30
0.0
 10
10.9641494747
 20
9.3129110943
 30
0.0
 10
10.9898698768
 20
9.29105428
 30
0.0
 10
11.0145744932
 20
9.268030306
 30
0.0
 10
11.038203848
 20
9.2438945791
 30
0.0
 10
11.060701011
 20
9.2187051522
 30
0.0
 10
11.0820118738
 20
9.1925227051
 30
0.0
 10
11.1020851508
 20
9.1654102676
 30
0.0
 10
11.1208724928
 20
9.1374330779
 30
0.0
 10
11.138328597
 20
9.1086584355
 30
0.0
 10
11.1544114765
 20
9.079155633
 30
0.0
 10
11.1690824084
 20
9.0489956847
 30
0.0
 10
11.1823060203
 20
9.0182511677
 30
0.0
 10
11.1940503751
 20
8.9869960562
 30
0.0
 10
11.2042872023
 20
8.9553056126
 30
0.0
 10
11.2129918516
 20
8.9232561262
 30
0.0
 10
11.220143277
 20
8.8909246941
 30
0.0
 10
11.2257240401
 20
8.8583893697
 30
0.0
 10
11.2297210034
 20
8.8257278038
 30
0.0
 10
11.2321239641
 20
8.7930202033
 30
0.0
 10
11.2326606395
 20
8.7711971748
 30
0.0
 10
11.2326606395
 20
8.7603061969
 30
0.0
  0
SPLINE
  5
338
100
AcDbEntity
  8
0
100
AcDbSpline
 62
7
  6
CONTINUOUS
 70
0
 71
3
 72
39
 73
35
 74
0
 42
0.0000001
 43
0.0000001
 44
0.0000000001
 40
0.0
 40
0.0
 40
0.0
 40
0.0
 40
0.0306730466
 40
0.0614497887
 40
0.0923258225
 40
0.1232995021
 40
0.1543663057
 40
0.185521462
 40
0.2167593041
 40
0.2480733921
 40
0.2794566283
 40
0.310901285
 40
0.3423990901
 40
0.3739413052
 40
0.405518803
 40
0.4371221471
 40
0.4687416723
 40
0.5003675737
 40
0.5319899931
 40
0.5635991029
 40
0.5951851887
 40
0.6267387358
 40
0.6582505174
 40
0.6897116734
 40
0.7211137882
 40
0.7524489668
 40
0.78370991
 40
0.814889997
 40
0.84598331
 40
0.8769847454
 40
0.9078901327
 40
0.9386955846
 40
0.9694001122
 40
1.0
 40
1.0
 40
1.0
 40
1.0
 10
10.5841503992
 20
9.5463377827
 30
0.0
 10
10.5960227567
 20
9.5455144319
 30
0.0
 10
10.6197712368
 20
9.5432824839
 30
0.0
 10
10.6552442815
 20
9.5382029504
 30
0.0
 10
10.6905466064
 20
9.5313976902
 30
0.0
 10
10.7255916756
 20
9.5228837551
 30
0.0
 10
10.7602957584
 20
9.5126813243
 30
0.0
 10
10.7945750903
 20
9.5008151555
 30
0.0
 10
10.8283472245
 20
9.4873138947
 30
0.0
 10
10.861530866
 20
9.4722100947
 30
0.0
 10
10.8940461441
 20
9.455540158
 30
0.0
 10
10.9258147764
 20
9.4373442068
 30
0.0
 10
10.9567603184
 20
9.4176661119
 30
0.0
 10
10.9868083077
 20
9.3965532913
 30
0.0
 10
11.0158864291
 20
9.3740565861
 30
0.0
 10
11.0439246784
 20
9.3502301379
 30
0.0
 10
11.0708555539
 20
9.3251312956
 30
0.0
 10
11.0966142667
 20
9.2988205181
 30
0.0
 10
11.121138821
 20
9.2713611433
 30
0.0
 10
11.1443701749
 20
9.242819258
 30
0.0
 10
11.1662523587
 20
9.2132635298
 30
0.0
 10
11.1867327003
 20
9.1827651107
 30
0.0
 10
11.2057619083
 20
9.1513974213
 30
0.0
 10
11.2232941521
 20
9.1192359539
 30
0.0
 10
11.2392871726
 20
9.0863581004
 30
0.0
 10
11.2537023955
 20
9.0528429803
 30
0.0
 10
11.2665051224
 20
9.0187712825
 30
0.0
 10
11.2776644848
 20
8.9842250199
 30
0.0
 10
11.2871535626
 20
8.9492873559
 30
0.0
 10
11.2949494229
 20
8.9140423301
 30
0.0
 10
11.3010331127
 20
8.8785750253
 30
0.0
 10
11.3053902553
 20
8.8429701708
 30
0.0
 10
11.3080097968
 20
8.8073150843
 30
0.0
 10
11.3085948119
 20
8.7835254675
 30
0.0
 10
11.3085948119
 20
8.7716529794
 30
0.0
  0
SPLINE
  5
339
100
AcDbEntity
  8
0
100
AcDbSpline
 62
7
  6
CONTINUOUS
 70
0
 71
3
 72
41
 73
37
 74
0
 42
0.0000001
 43
0.0000001
 44
0.0000000001
 40
0.0
 40
0.0
 40
0.0
 40
0.0
 40
0.0318705743
 40
0.063634638
 40
0.0952908034
 40
0.1268435451
 40
0.1425832863
 40
0.158298473
 40
0.1896552613
 40
0.2209221107
 40
0.2521055347
 40
0.283212946
 40
0.3142525389
 40
0.3452332193
 40
0.3761645126
 40
0.4070564619
 40
0.4379195303
 40
0.4687644916
 40
0.4996023129
 40
0.5304440338
 40
0.5613006525
 40
0.5921830111
 40
0.6231016779
 40
0.6540668322
 40
0.6850881586
 40
0.7161747543
 40
0.7473350336
 40
0.7785766416
 40
0.8099063908
 40
0.8413301516
 40
0.8570801326
 40
0.8728554293
 40
0.9044812253
 40
0.936212405
 40
0.9680527092
 40
1.0
 40
1.0
 40
1.0
 40
1.0
 10
11.2326606395
 20
5.5611596707
 30
0.0
 10
11.2326606395
 20
5.5503056918
 30
0.0
 10
11.2321294039
 20
5.5286301807
 30
0.0
 10
11.2297316959
 20
5.4962534433
 30
0.0
 10
11.2257397257
 20
5.464142944
 30
0.0
 10
11.2210888094
 20
5.4376487005
 30
0.0
 10
11.2165811625
 20
5.416667303
 30
0.0
 10
11.2115602768
 20
5.3958714469
 30
0.0
 10
11.2043140256
 20
5.3701819585
 30
0.0
 10
11.1940794019
 20
5.3399039807
 30
0.0
 10
11.1823361608
 20
5.3102693575
 30
0.0
 10
11.1691126221
 20
5.281350086
 30
0.0
 10
11.154440641
 20
5.2532157594
 30
0.0
 10
11.1383555742
 20
5.2259342642
 30
0.0
 10
11.1208961432
 20
5.1995714148
 30
0.0
 10
11.1021043619
 20
5.1741908606
 30
0.0
 10
11.0820255893
 20
5.1498537937
 30
0.0
 10
11.0607082537
 20
5.1266189088
 30
0.0
 10
11.038203743
 20
5.1045422706
 30
0.0
 10
11.0145662896
 20
5.0836771865
 30
0.0
 10
10.9898529666
 20
5.0640739247
 30
0.0
 10
10.9641234059
 20
5.0457797308
 30
0.0
 10
10.9374396629
 20
5.0288387221
 30
0.0
 10
10.9098660762
 20
5.0132917878
 30
0.0
 10
10.8814692078
 20
4.9991763176
 30
0.0
 10
10.8523175553
 20
4.9865262748
 30
0.0
 10
10.8224814534
 20
4.9753721308
 30
0.0
 10
10.7920327016
 20
4.9657407551
 30
0.0
 10
10.7610452503
 20
4.9576553318
 30
0.0
 10
10.7348542111
 20
4.9522257831
 30
0.0
 10
10.7137107584
 20
4.9486713563
 30
0.0
 10
10.6924164092
 20
4.9456404168
 30
0.0
 10
10.6655994517
 20
4.9428492787
 30
0.0
 10
10.633212488
 20
4.9411034324
 30
0.0
 10
10.6006698465
 20
4.9409626076
 30
0.0
 10
10.5789576678
 20
4.9419371179
 30
0.0
 10
10.5681036317
 20
4.9426898479
 30
0.0
  0
SPLINE
  5
33A
100
AcDbEntity
  8
0
100
AcDbSpline
 62
7
  6
CONTINUOUS
 70
0
 71
3
 72
25
 73
21
 74
0
 42
0.0000001
 43
0.0000001
 44
0.0000000001
 40
0.0
 40
0.0
 40
0.0
 40
0.0
 40
0.0637762839
 40
0.1273436975
 40
0.190700085
 40
0.2538536198
 40
0.2853583847
 40
0.3168148883
 40
0.3795831508
 40
0.4421738332
 40
0.5045991695
 40
0.5668730861
 40
0.6290109869
 40
0.6910296434
 40
0.7220023556
 40
0.7529520811
 40
0.814787183
 40
0.8765598236
 40
0.9382904646
 40
1.0
 40
1.0
 40
1.0
 40
1.0
 10
11.3085948119
 20
5.5725064532
 30
0.0
 10
11.3085948119
 20
5.560934921
 30
0.0
 10
11.308040935
 20
5.5378258531
 30
0.0
 10
11.3055410893
 20
5.5033027285
 30
0.0
 10
11.3013788648
 20
5.4690536532
 30
0.0
 10
11.2965291899
 20
5.4407840169
 30
0.0
 10
11.2918283765
 20
5.4183878145
 30
0.0
 10
11.2865917874
 20
5.3961826367
 30
0.0
 10
11.2790333012
 20
5.3687392575
 30
0.0
 10
11.2683555242
 20
5.3363695655
 30
0.0
 10
11.2561008164
 20
5.3046589847
 30
0.0
 10
11.2422973734
 20
5.2736810496
 30
0.0
 10
11.2269772362
 20
5.2435075436
 30
0.0
 10
11.2129689321
 20
5.2190792395
 30
0.0
 10
11.2010426285
 20
5.2000120016
 30
0.0
 10
11.1886515061
 20
5.1812834318
 30
0.0
 10
11.1722845002
 20
5.1584960183
 30
0.0
 10
11.1512831963
 20
5.1322138693
 30
0.0
 10
11.128975154
 20
5.1070624489
 30
0.0
 10
11.1132635289
 20
5.0910846652
 30
0.0
 10
11.1052103479
 20
5.0833059224
 30
0.0
  0
SPLINE
  5
33B
100
AcDbEntity
  8
0
100
AcDbSpline
 62
7
  6
CONTINUOUS
 70
0
 71
3
 72
27
 73
23
 74
0
 42
0.0000001
 43
0.0000001
 44
0.0000000001
 40
0.0
 40
0.0
 40
0.0
 40
0.0
 40
0.0616468912
 40
0.0924803241
 40
0.1233223729
 40
0.1850380881
 40
0.2468218578
 40
0.2777487744
 40
0.3087006913
 40
0.3706840809
 40
0.4327968328
 40
0.4950568287
 40
0.5574803458
 40
0.6200818975
 40
0.6828740978
 40
0.7143476641
 40
0.7458726855
 40
0.8090759358
 40
0.8724945777
 40
0.9042888408
 40
0.9361395977
 40
1.0
 40
1.0
 40
1.0
 40
1.0
 10
9.7109377352
 20
7.717599111
 30
0.0
 10
9.7018478617
 20
7.70881896
 30
0.0
 10
9.6878534869
 20
7.6960105826
 30
0.0
 10
9.6685293334
 20
7.6797056812
 30
0.0
 10
9.6487627686
 20
7.6639164029
 30
0.0
 10
9.6232527164
 20
7.6451709106
 30
0.0
 10
9.5967603291
 20
7.6278097283
 30
0.0
 10
9.5750143082
 20
7.6147736344
 30
0.0
 10
9.5528926141
 20
7.6023022916
 30
0.0
 10
9.5245876101
 20
7.5878044059
 30
0.0
 10
9.4896923613
 20
7.5722097035
 30
0.0
 10
9.4539375377
 20
7.5584474419
 30
0.0
 10
9.4174136427
 20
7.5465525266
 30
0.0
 10
9.3802131475
 20
7.5365548366
 30
0.0
 10
9.3487495202
 20
7.5298303121
 30
0.0
 10
9.3233392071
 20
7.5254202605
 30
0.0
 10
9.2977403431
 20
7.5216535051
 30
0.0
 10
9.2654918772
 20
7.5181710263
 30
0.0
 10
9.2330530394
 20
7.5163333974
 30
0.0
 10
9.2070063783
 20
7.5158475793
 30
0.0
 10
9.1808657278
 20
7.5160195001
 30
0.0
 10
9.1612529254
 20
7.5168892134
 30
0.0
 10
9.1481926004
 20
7.51779495
 30
0.0
  0
SPLINE
  5
33C
100
AcDbEntity
  8
0
100
AcDbSpline
 62
7
  6
CONTINUOUS
 70
0
 71
3
 72
37
 73
33
 74
0
 42
0.0000001
 43
0.0000001
 44
0.0000000001
 40
0.0
 40
0.0
 40
0.0
 40
0.0
 40
0.0958321372
 40
0.1891019121
 40
0.2792425465
 40
0.3657115305
 40
0.4074101378
 40
0.4480031117
 40
0.4874331589
 40
0.5256456456
 40
0.5625894675
 40
0.5982165282
 40
0.6324830688
 40
0.665348975
 40
0.6967793974
 40
0.7267441687
 40
0.7552196034
 40
0.7821883904
 40
0.8076415214
 40
0.8315791003
 40
0.8540125631
 40
0.8749669375
 40
0.894483817
 40
0.9126256757
 40
0.9294802133
 40
0.9451667887
 40
0.9598415117
 40
0.9737025915
 40
0.9804060739
 40
0.98699956
 40
0.9935185817
 40
1.0
 40
1.0
 40
1.0
 40
1.0
 10
12.9388293031
 20
11.4776926766
 30
0.0
 10
12.9465388974
 20
11.4771580145
 30
0.0
 10
12.9617408231
 20
11.4759334208
 30
0.0
 10
12.9841400516
 20
11.4735958519
 30
0.0
 10
13.0057250642
 20
11.4707945242
 30
0.0
 10
13.023118499
 20
11.4680575298
 30
0.0
 10
13.0365117707
 20
11.4656401638
 30
0.0
 10
13.0461435558
 20
11.463745681
 30
0.0
 10
13.055467833
 20
11.4617510949
 30
0.0
 10
13.0644690549
 20
11.4596596691
 30
0.0
 10
13.0731322088
 20
11.4574750097
 30
0.0
 10
13.0814428527
 20
11.4552006908
 30
0.0
 10
13.0893871594
 20
11.4528406462
 30
0.0
 10
13.0969519103
 20
11.4503987226
 30
0.0
 10
13.1041245695
 20
11.4478791375
 30
0.0
 10
13.1108932471
 20
11.4452859927
 30
0.0
 10
13.1172467999
 20
11.4426237224
 30
0.0
 10
13.1231747756
 20
11.4398966519
 30
0.0
 10
13.12866752
 20
11.4371093379
 30
0.0
 10
13.1337161279
 20
11.434266255
 30
0.0
 10
13.1383125089
 20
11.4313719309
 30
0.0
 10
13.1424493829
 20
11.4284308205
 30
0.0
 10
13.1461201984
 20
11.4254471627
 30
0.0
 10
13.149319196
 20
11.4224250559
 30
0.0
 10
13.1520409587
 20
11.4193681312
 30
0.0
 10
13.1542805342
 20
11.4162796972
 30
0.0
 10
13.156032309
 20
11.4131634819
 30
0.0
 10
13.1570927182
 20
11.4105161121
 30
0.0
 10
13.1576793451
 20
11.4084042368
 30
0.0
 10
13.1579905123
 20
11.4068351706
 30
0.0
 10
13.1581773325
 20
11.4052646279
 30
0.0
 10
13.1582189217
 20
11.4042157746
 30
0.0
 10
13.1582189265
 20
11.403693099
 30
0.0
  0
SPLINE
  5
33D
100
AcDbEntity
  8
0
100
AcDbSpline
 62
7
  6
CONTINUOUS
 70
0
 71
3
 72
15
 73
11
 74
0
 42
0.0000001
 43
0.0000001
 44
0.0000000001
 40
0.0
 40
0.0
 40
0.0
 40
0.0
 40
0.123335384
 40
0.2470434832
 40
0.3711877408
 40
0.4958225436
 40
0.6209930149
 40
0.7467319991
 40
0.8730651188
 40
1.0
 40
1.0
 40
1.0
 40
1.0
 10
9.7190379487
 20
8.4342346925
 30
0.0
 10
9.7131785099
 20
8.4310452725
 30
0.0
 10
9.7012035747
 20
8.4250841013
 30
0.0
 10
9.6826120525
 20
8.417459316
 30
0.0
 10
9.6634513055
 20
8.4111732797
 30
0.0
 10
9.6438133809
 20
8.4062562337
 30
0.0
 10
9.6237911261
 20
8.4027311785
 30
0.0
 10
9.6034790475
 20
8.4006145507
 30
0.0
 10
9.58297465
 20
8.3999162565
 30
0.0
 10
9.5692709996
 20
8.4003973086
 30
0.0
 10
9.5624215149
 20
8.400872322
 30
0.0
  0
SPLINE
  5
33E
100
AcDbEntity
  8
0
100
AcDbSpline
 62
7
  6
CONTINUOUS
 70
0
 71
3
 72
37
 73
33
 74
0
 42
0.0000001
 43
0.0000001
 44
0.0000000001
 40
0.0
 40
0.0
 40
0.0
 40
0.0
 40
0.0958321372
 40
0.1891019121
 40
0.2792425465
 40
0.3657115305
 40
0.4074101378
 40
0.4480031117
 40
0.4874331589
 40
0.5256456456
 40
0.5625894675
 40
0.5982165282
 40
0.6324830688
 40
0.665348975
 40
0.6967793974
 40
0.7267441687
 40
0.7552196034
 40
0.7821883904
 40
0.8076415214
 40
0.8315791003
 40
0.8540125631
 40
0.8749669375
 40
0.894483817
 40
0.9126256757
 40
0.9294802133
 40
0.9451667887
 40
0.9598415117
 40
0.9737025915
 40
0.9804060739
 40
0.98699956
 40
0.9935185817
 40
1.0
 40
1.0
 40
1.0
 40
1.0
 10
12.1142325395
 20
10.6811933192
 30
0.0
 10
12.1219421338
 20
10.680658657
 30
0.0
 10
12.1371440595
 20
10.6794340634
 30
0.0
 10
12.159543288
 20
10.6770964944
 30
0.0
 10
12.1811283006
 20
10.6742951668
 30
0.0
 10
12.1985217354
 20
10.6715581724
 30
0.0
 10
12.2119150071
 20
10.6691408064
 30
0.0
 10
12.2215467922
 20
10.6672463236
 30
0.0
 10
12.2308710694
 20
10.6652517375
 30
0.0
 10
12.2398722912
 20
10.6631603117
 30
0.0
 10
12.2485354452
 20
10.6609756523
 30
0.0
 10
12.2568460891
 20
10.6587013334
 30
0.0
 10
12.2647903958
 20
10.6563412887
 30
0.0
 10
12.2723551467
 20
10.6538993651
 30
0.0
 10
12.2795278059
 20
10.6513797801
 30
0.0
 10
12.2862964835
 20
10.6487866352
 30
0.0
 10
12.2926500362
 20
10.646124365
 30
0.0
 10
12.298578012
 20
10.6433972945
 30
0.0
 10
12.3040707564
 20
10.6406099805
 30
0.0
 10
12.3091193643
 20
10.6377668976
 30
0.0
 10
12.3137157453
 20
10.6348725735
 30
0.0
 10
12.3178526193
 20
10.6319314631
 30
0.0
 10
12.3215234348
 20
10.6289478053
 30
0.0
 10
12.3247224324
 20
10.6259256984
 30
0.0
 10
12.3274441951
 20
10.6228687738
 30
0.0
 10
12.3296837706
 20
10.6197803398
 30
0.0
 10
12.3314355454
 20
10.6166641244
 30
0.0
 10
12.3324959545
 20
10.6140167546
 30
0.0
 10
12.3330825815
 20
10.6119048793
 30
0.0
 10
12.3333937487
 20
10.6103358132
 30
0.0
 10
12.3335805689
 20
10.6087652705
 30
0.0
 10
12.3336221581
 20
10.6077164172
 30
0.0
 10
12.3336221629
 20
10.6071937416
 30
0.0
  0
SPLINE
  5
33F
100
AcDbEntity
  8
0
100
AcDbSpline
 62
7
  6
CONTINUOUS
 70
0
 71
3
 72
30
 73
26
 74
0
 42
0.0000001
 43
0.0000001
 44
0.0000000001
 40
0.0
 40
0.0
 40
0.0
 40
0.0
 40
0.0302118855
 40
0.0604336227
 40
0.0906750021
 40
0.1209455835
 40
0.1512546736
 40
0.1816111852
 40
0.2120235828
 40
0.2424997973
 40
0.2730471351
 40
0.3036722569
 40
0.3343810511
 40
0.3651786773
 40
0.3960694114
 40
0.4270567451
 40
0.4893131187
 40
0.5519754568
 40
0.6150393474
 40
0.6784864916
 40
0.7422856211
 40
0.8063936073
 40
0.8707575361
 40
0.9353152193
 40
1.0
 40
1.0
 40
1.0
 40
1.0
 10
10.4350036725
 20
7.2311391825
 30
0.0
 10
10.4333670723
 20
7.2295583298
 30
0.0
 10
10.4300132647
 20
7.2264778102
 30
0.0
 10
10.4247557822
 20
7.2221149355
 30
0.0
 10
10.4192823328
 20
7.2180186036
 30
0.0
 10
10.4136050336
 20
7.2141981215
 30
0.0
 10
10.4077364503
 20
7.2106616934
 30
0.0
 10
10.4016894057
 20
7.2074173001
 30
0.0
 10
10.3954773291
 20
7.2044718529
 30
0.0
 10
10.3891137856
 20
7.2018320732
 30
0.0
 10
10.3826128942
 20
7.1995034926
 30
0.0
 10
10.3759888707
 20
7.1974915076
 30
0.0
 10
10.3692563692
 20
7.1958002416
 30
0.0
 10
10.3624301882
 20
7.1944336932
 30
0.0
 10
10.3555252067
 20
7.1933945801
 30
0.0
 10
10.3462210779
 20
7.1924476173
 30
0.0
 10
10.3344649907
 20
7.1920962022
 30
0.0
 10
10.3203160844
 20
7.193005435
 30
0.0
 10
10.3062234719
 20
7.1952359799
 30
0.0
 10
10.2923117169
 20
7.1987679668
 30
0.0
 10
10.2787026043
 20
7.2035700294
 30
0.0
 10
10.2655155569
 20
7.2095996584
 30
0.0
 10
10.2528658907
 20
7.2168040154
 30
0.0
 10
10.2408654482
 20
7.225118724
 30
0.0
 10
10.2333699684
 20
7.2313521148
 30
0.0
 10
10.2297640012
 20
7.2346279552
 30
0.0
  0
SPLINE
  5
340
100
AcDbEntity
  8
0
100
AcDbSpline
 62
7
  6
CONTINUOUS
 70
0
 71
3
 72
26
 73
22
 74
0
 42
0.0000001
 43
0.0000001
 44
0.0000000001
 40
0.0
 40
0.0
 40
0.0
 40
0.0
 40
0.0616472087
 40
0.0924807976
 40
0.1233230054
 40
0.1850390322
 40
0.2468231106
 40
0.2777501846
 40
0.3087022546
 40
0.3706859579
 40
0.4327990268
 40
0.4950593387
 40
0.5574831658
 40
0.6200850367
 40
0.6828775384
 40
0.7143512564
 40
0.7458764573
 40
0.8090800689
 40
0.8724988264
 40
0.9361396051
 40
1.0
 40
1.0
 40
1.0
 40
1.0
 10
9.2946308542
 20
10.369059277
 30
0.0
 10
9.3030474238
 20
10.377189094
 30
0.0
 10
9.3160051494
 20
10.3890488398
 30
0.0
 10
9.3338979595
 20
10.4041460285
 30
0.0
 10
9.3522003355
 20
10.4187658779
 30
0.0
 10
9.3758208275
 20
10.4361229141
 30
0.0
 10
9.4003508692
 20
10.4521982084
 30
0.0
 10
9.4204860955
 20
10.4642688089
 30
0.0
 10
9.4409692072
 20
10.4758164284
 30
0.0
 10
9.467177599
 20
10.4892405452
 30
0.0
 10
9.4994881255
 20
10.5036801854
 30
0.0
 10
9.532594562
 20
10.5164231022
 30
0.0
 10
9.5664131023
 20
10.5274370016
 30
0.0
 10
9.6008581247
 20
10.5366942061
 30
0.0
 10
9.6299912008
 20
10.542920744
 30
0.0
 10
9.6535193784
 20
10.5470040863
 30
0.0
 10
9.6772220875
 20
10.5504919316
 30
0.0
 10
9.7070821289
 20
10.5537164143
 30
0.0
 10
9.7431552339
 20
10.5557600446
 30
0.0
 10
9.7794095898
 20
10.5559760905
 30
0.0
 10
9.8035999207
 20
10.5549033409
 30
0.0
 10
9.8156927996
 20
10.5540646969
 30
0.0
  0
SPLINE
  5
341
100
AcDbEntity
  8
0
100
AcDbSpline
 62
7
  6
CONTINUOUS
 70
0
 71
3
 72
26
 73
22
 74
0
 42
0.0000001
 43
0.0000001
 44
0.0000000001
 40
0.0
 40
0.0
 40
0.0
 40
0.0
 40
0.0616472054
 40
0.0924807933
 40
0.1233230004
 40
0.1850390268
 40
0.2468231059
 40
0.2777501805
 40
0.3087022513
 40
0.3706859567
 40
0.4327990279
 40
0.4950593422
 40
0.5574831714
 40
0.6200850439
 40
0.6828775467
 40
0.714351265
 40
0.7458764659
 40
0.8090800769
 40
0.8724988328
 40
0.9361396088
 40
1.0
 40
1.0
 40
1.0
 40
1.0
 10
8.3727201544
 20
9.4785618697
 30
0.0
 10
8.3811367171
 20
9.4866916109
 30
0.0
 10
8.3940944277
 20
9.498551245
 30
0.0
 10
8.411987209
 20
9.5136482893
 30
0.0
 10
8.4302895507
 20
9.5282679979
 30
0.0
 10
8.4539099897
 20
9.5456248649
 30
0.0
 10
8.478439965
 20
9.5616999997
 30
0.0
 10
8.4985751309
 20
9.5737704791
 30
0.0
 10
8.5190581776
 20
9.5853179819
 30
0.0
 10
8.5452664794
 20
9.5987419614
 30
0.0
 10
8.5775768853
 20
9.6131814513
 30
0.0
 10
8.6106831898
 20
9.625924233
 30
0.0
 10
8.6445015876
 20
9.6369380134
 30
0.0
 10
8.6789464584
 20
9.6461951153
 30
0.0
 10
8.7080794016
 20
9.6524215819
 30
0.0
 10
8.7316074698
 20
9.6565048759
 30
0.0
 10
8.755310067
 20
9.6599926786
 30
0.0
 10
8.7851699652
 20
9.6632171191
 30
0.0
 10
8.8212428946
 20
9.6652607168
 30
0.0
 10
8.8574970722
 20
9.6654767481
 30
0.0
 10
8.8816872838
 20
9.6644040008
 30
0.0
 10
8.8937801031
 20
9.6635653609
 30
0.0
  0
SPLINE
  5
342
100
AcDbEntity
  8
0
100
AcDbSpline
 62
7
  6
CONTINUOUS
 70
0
 71
3
 72
65
 73
61
 74
0
 42
0.0000001
 43
0.0000001
 44
0.0000000001
 40
0.0
 40
0.0
 40
0.0
 40
0.0
 40
0.0081861352
 40
0.0170828101
 40
0.0267165018
 40
0.0371037931
 40
0.0482512803
 40
0.0601577481
 40
0.072815725
 40
0.0862128656
 40
0.1003323665
 40
0.1151537968
 40
0.1306537167
 40
0.1468058068
 40
0.1635815816
 40
0.1809503769
 40
0.1988798011
 40
0.2173359307
 40
0.2362834099
 40
0.2556858228
 40
0.2957036186
 40
0.3370812558
 40
0.3795001024
 40
0.4226356574
 40
0.4661605884
 40
0.5097473318
 40
0.5530703714
 40
0.5958083094
 40
0.6376458436
 40
0.6782757796
 40
0.6980451388
 40
0.7174022318
 40
0.7363119839
 40
0.7547402583
 40
0.7726541122
 40
0.7900217034
 40
0.806812698
 40
0.8229982031
 40
0.8385511248
 40
0.8534463845
 40
0.8676610835
 40
0.8811751294
 40
0.893971333
 40
0.906036329
 40
0.9173610561
 40
0.9279418
 40
0.9377816042
 40
0.946891676
 40
0.9552941014
 40
0.9630245044
 40
0.9701361633
 40
0.9767044714
 40
0.9798176581
 40
0.9828355899
 40
0.9857754411
 40
0.9886559802
 40
0.9914973734
 40
0.9943207656
 40
0.9971477791
 40
1.0
 40
1.0
 40
1.0
 40
1.0
 10
10.1815293588
 20
11.1630244474
 30
0.0
 10
10.1825712896
 20
11.1640308754
 30
0.0
 10
10.1848489964
 20
11.1660253803
 30
0.0
 10
10.18864383
 20
11.1688514915
 30
0.0
 10
10.1929468326
 20
11.1716273694
 30
0.0
 10
10.197748151
 20
11.1743472191
 30
0.0
 10
10.203037529
 20
11.1770057593
 30
0.0
 10
10.2088032629
 20
11.1795972238
 30
0.0
 10
10.2150323656
 20
11.1821162146
 30
0.0
 10
10.2217107765
 20
11.1845572628
 30
0.0
 10
10.2288233369
 20
11.1869151766
 30
0.0
 10
10.2363538865
 20
11.1891849628
 30
0.0
 10
10.244285355
 20
11.1913617603
 30
0.0
 10
10.2525997964
 20
11.193441103
 30
0.0
 10
10.2612785017
 20
11.1954186141
 30
0.0
 10
10.2703020377
 20
11.1972902956
 30
0.0
 10
10.2796503313
 20
11.1990523741
 30
0.0
 10
10.2893027311
 20
11.2007013007
 30
0.0
 10
10.2992380862
 20
11.2022339354
 30
0.0
 10
10.3129752432
 20
11.2041378563
 30
0.0
 10
10.3306959969
 20
11.2061959544
 30
0.0
 10
10.3525223996
 20
11.2081383461
 30
0.0
 10
10.3749414261
 20
11.2095639724
 30
0.0
 10
10.3977678581
 20
11.2104631642
 30
0.0
 10
10.4208156794
 20
11.2108303863
 30
0.0
 10
10.4438989854
 20
11.2106642023
 30
0.0
 10
10.4668330537
 20
11.2099671375
 30
0.0
 10
10.4894352971
 20
11.2087456089
 30
0.0
 10
10.5115258911
 20
11.2070097733
 30
0.0
 10
10.5295222345
 20
11.2051296813
 30
0.0
 10
10.5435264133
 20
11.203371093
 30
0.0
 10
10.5536974638
 20
11.201945141
 30
0.0
 10
10.5636114526
 20
11.200402999
 30
0.0
 10
10.5732481521
 20
11.1987475695
 30
0.0
 10
10.5825877437
 20
11.1969821064
 30
0.0
 10
10.5916108706
 20
11.1951099456
 30
0.0
 10
10.6002986832
 20
11.193134783
 30
0.0
 10
10.608632863
 20
11.1910604227
 30
0.0
 10
10.6165956785
 20
11.1888909388
 30
0.0
 10
10.6241700298
 20
11.1866306377
 30
0.0
 10
10.6313394795
 20
11.1842839352
 30
0.0
 10
10.6380883495
 20
11.1818556013
 30
0.0
 10
10.6444017137
 20
11.1793504111
 30
0.0
 10
10.650265531
 20
11.1767734608
 30
0.0
 10
10.6556666564
 20
11.1741298966
 30
0.0
 10
10.6605929103
 20
11.1714249294
 30
0.0
 10
10.6650332103
 20
11.1686639173
 30
0.0
 10
10.6689774553
 20
11.1658518764
 30
0.0
 10
10.6724166959
 20
11.1629938695
 30
0.0
 10
10.6753428808
 20
11.1600940262
 30
0.0
 10
10.6777481271
 20
11.1571567603
 30
0.0
 10
10.6793399298
 20
11.1546355886
 30
0.0
 10
10.6803254308
 20
11.1526137989
 30
0.0
 10
10.6809165391
 20
11.1511195491
 30
0.0
 10
10.6813720875
 20
11.149621429
 30
0.0
 10
10.6816914428
 20
11.1481202762
 30
0.0
 10
10.6818741172
 20
11.1466171234
 30
0.0
 10
10.6819198619
 20
11.1451130052
 30
0.0
 10
10.6818285081
 20
11.1436091673
 30
0.0
 10
10.6816771492
 20
11.1426140409
 30
0.0
 10
10.6815795655
 20
11.1421188324
 30
0.0
  0
SPLINE
  5
343
100
AcDbEntity
  8
0
100
AcDbSpline
 62
7
  6
CONTINUOUS
 70
0
 71
3
 72
45
 73
41
 74
0
 42
0.0000001
 43
0.0000001
 44
0.0000000001
 40
0.0
 40
0.0
 40
0.0
 40
0.0
 40
0.0310122919
 40
0.0621638095
 40
0.0934500512
 40
0.1248634756
 40
0.1563947615
 40
0.188032502
 40
0.2197635602
 40
0.2515732639
 40
0.2834456633
 40
0.3153637959
 40
0.3473099644
 40
0.3792660226
 40
0.4112136661
 40
0.4431347253
 40
0.4750114561
 40
0.5068268264
 40
0.5385647946
 40
0.5702105763
 40
0.6017508967
 40
0.6331742235
 40
0.6644709772
 40
0.6956337149
 40
0.7266572843
 40
0.7575389422
 40
0.7882784355
 40
0.8188780404
 40
0.834129003
 40
0.8493470015
 40
0.8645330239
 40
0.8796881998
 40
0.8948138104
 40
0.9099112682
 40
0.9249821248
 40
0.9400280542
 40
0.9550508505
 40
0.9700524205
 40
0.9850347692
 40
1.0
 40
1.0
 40
1.0
 40
1.0
 10
9.9895712107
 20
5.5757282419
 30
0.0
 10
9.9704376714
 20
5.5770551574
 30
0.0
 10
9.9321612442
 20
5.5809894668
 30
0.0
 10
9.8751430459
 20
5.5906636954
 30
0.0
 10
9.8186308634
 20
5.6040814831
 30
0.0
 10
9.7628778426
 20
5.6211830706
 30
0.0
 10
9.7081297132
 20
5.6418924008
 30
0.0
 10
9.6546287319
 20
5.6661176295
 30
0.0
 10
9.6026113415
 20
5.6937513612
 30
0.0
 10
9.5523074855
 20
5.7246712066
 30
0.0
 10
9.5039395061
 20
5.7587402937
 30
0.0
 10
9.4577211881
 20
5.7958078646
 30
0.0
 10
9.4138568212
 20
5.8357099496
 30
0.0
 10
9.3725403102
 20
5.8782700905
 30
0.0
 10
9.3339543252
 20
5.9233001142
 30
0.0
 10
9.2982695003
 20
5.9706009571
 30
0.0
 10
9.2656436863
 20
6.0199635373
 30
0.0
 10
9.2362212565
 20
6.0711696697
 30
0.0
 10
9.210132475
 20
6.1239930217
 30
0.0
 10
9.1874929059
 20
6.1782000958
 30
0.0
 10
9.1684029102
 20
6.2335512573
 30
0.0
 10
9.1529472092
 20
6.2898017883
 30
0.0
 10
9.1411945016
 20
6.3467029416
 30
0.0
 10
9.1331971658
 20
6.4040030826
 30
0.0
 10
9.1289909779
 20
6.4614485859
 30
0.0
 10
9.1285950964
 20
6.5187856985
 30
0.0
 10
9.1320113898
 20
6.5757588619
 30
0.0
 10
9.1380308487
 20
6.6227817367
 30
0.0
 10
9.1447338474
 20
6.6599560214
 30
0.0
 10
9.1506915344
 20
6.6875614706
 30
0.0
 10
9.1575781087
 20
6.7148885859
 30
0.0
 10
9.1653861561
 20
6.7419074698
 30
0.0
 10
9.174106797
 20
6.7685881521
 30
0.0
 10
9.1837306651
 20
6.7949010177
 30
0.0
 10
9.1942468372
 20
6.8208170049
 30
0.0
 10
9.2056439114
 20
6.8463073231
 30
0.0
 10
9.2179091013
 20
6.8713437681
 30
0.0
 10
9.2310289592
 20
6.8958986792
 30
0.0
 10
9.2449887411
 20
6.9199444457
 30
0.0
 10
9.2548506245
 20
6.9356269601
 30
0.0
 10
9.2599156544
 20
6.9433732211
 30
0.0
  0
SPLINE
  5
344
100
AcDbEntity
  8
0
100
AcDbSpline
 62
7
  6
CONTINUOUS
 70
0
 71
3
 72
15
 73
11
 74
0
 42
0.0000001
 43
0.0000001
 44
0.0000000001
 40
0.0
 40
0.0
 40
0.0
 40
0.0
 40
0.1261223139
 40
0.2519245857
 40
0.3773936018
 40
0.5025385783
 40
0.6273648137
 40
0.7518776288
 40
0.8760858861
 40
1.0
 40
1.0
 40
1.0
 40
1.0
 10
10.3369060826
 20
5.9402057614
 30
0.0
 10
10.3473172271
 20
5.9394837461
 30
0.0
 10
10.3681421964
 20
5.9384302227
 30
0.0
 10
10.3993745452
 20
5.9380263136
 30
0.0
 10
10.4305194935
 20
5.9388017594
 30
0.0
 10
10.4615318006
 20
5.9407553804
 30
0.0
 10
10.4923681838
 20
5.9438842443
 30
0.0
 10
10.5229850896
 20
5.9481842224
 30
0.0
 10
10.5533385496
 20
5.9536490614
 30
0.0
 10
10.5733945995
 20
5.9580690696
 30
0.0
 10
10.5833627963
 20
5.9604707111
 30
0.0
  0
SPLINE
  5
345
100
AcDbEntity
  8
0
100
AcDbSpline
 62
7
  6
CONTINUOUS
 70
0
 71
3
 72
41
 73
37
 74
0
 42
0.0000001
 43
0.0000001
 44
0.0000000001
 40
0.0
 40
0.0
 40
0.0
 40
0.0
 40
0.030821543
 40
0.0617632394
 40
0.0928215779
 40
0.1239919003
 40
0.1552679289
 40
0.1866421501
 40
0.2181058019
 40
0.2496490347
 40
0.2812610258
 40
0.3129301215
 40
0.3446439802
 40
0.3763897246
 40
0.4081540968
 40
0.439923617
 40
0.471684744
 40
0.5034240366
 40
0.5351283139
 40
0.566784813
 40
0.5983813439
 40
0.6299064392
 40
0.6613494973
 40
0.6927009182
 40
0.7239522296
 40
0.7550962022
 40
0.7861269527
 40
0.8170400323
 40
0.8478324994
 40
0.8631845877
 40
0.8785061404
 40
0.9090548456
 40
0.9394836164
 40
0.9546556747
 40
0.9697991773
 40
1.0
 40
1.0
 40
1.0
 40
1.0
 10
10.3369060826
 20
5.9402057614
 30
0.0
 10
10.3209633033
 20
5.9413113969
 30
0.0
 10
10.2890716996
 20
5.9444422107
 30
0.0
 10
10.2414929739
 20
5.9518541418
 30
0.0
 10
10.1942279791
 20
5.9619670037
 30
0.0
 10
10.1474344089
 20
5.9747470987
 30
0.0
 10
10.1012656718
 20
5.9901522884
 30
0.0
 10
10.0558738631
 20
6.0081316714
 30
0.0
 10
10.0114082959
 20
6.0286259585
 30
0.0
 10
9.9680152807
 20
6.0515675783
 30
0.0
 10
9.9258375774
 20
6.0768809378
 30
0.0
 10
9.885013947
 20
6.1044826557
 30
0.0
 10
9.8456786942
 20
6.1342818422
 30
0.0
 10
9.8079612304
 20
6.1661803942
 30
0.0
 10
9.7719856496
 20
6.2000733181
 30
0.0
 10
9.737870324
 20
6.2358490727
 30
0.0
 10
9.7057275161
 20
6.2733899346
 30
0.0
 10
9.6756630118
 20
6.3125723831
 30
0.0
 10
9.6477757745
 20
6.3532675039
 30
0.0
 10
9.6221576206
 20
6.3953414104
 30
0.0
 10
9.598892919
 20
6.4386556818
 30
0.0
 10
9.5780583142
 20
6.4830678136
 30
0.0
 10
9.5597224745
 20
6.5284316861
 30
0.0
 10
9.5439458663
 20
6.5745980324
 30
0.0
 10
9.5307805543
 20
6.6214149571
 30
0.0
 10
9.5202700292
 20
6.6687283147
 30
0.0
 10
9.512449061
 20
6.7163826486
 30
0.0
 10
9.5073435886
 20
6.7642200803
 30
0.0
 10
9.5053641085
 20
6.804149257
 30
0.0
 10
9.5051549423
 20
6.8360227332
 30
0.0
 10
9.505858509
 20
6.8677627459
 30
0.0
 10
9.508445174
 20
6.9072629127
 30
0.0
 10
9.5133140797
 20
6.9464693359
 30
0.0
 10
9.5185674831
 20
6.9775284949
 30
0.0
 10
9.5247084427
 20
7.0083028919
 30
0.0
 10
9.5303292657
 20
7.0311509712
 30
0.0
 10
9.5345213192
 20
7.0462386496
 30
0.0
  0
SPLINE
  5
346
100
AcDbEntity
  8
0
100
AcDbSpline
 62
7
  6
CONTINUOUS
 70
0
 71
3
 72
42
 73
38
 74
0
 42
0.0000001
 43
0.0000001
 44
0.0000000001
 40
0.0
 40
0.0
 40
0.0
 40
0.0
 40
0.0308319659
 40
0.0617852387
 40
0.0928561445
 40
0.1240399583
 40
0.1553302158
 40
0.1867192192
 40
0.2181979802
 40
0.2497564038
 40
0.2813834021
 40
0.3130670436
 40
0.3447947028
 40
0.3765532175
 40
0.4083290505
 40
0.4401084546
 40
0.4718776395
 40
0.5036229386
 40
0.5353309752
 40
0.5669888261
 40
0.5985841812
 40
0.6301054979
 40
0.6615421487
 40
0.6928845602
 40
0.7241243418
 40
0.7552544033
 40
0.7862690582
 40
0.817164113
 40
0.8479369382
 40
0.8632787449
 40
0.8785897555
 40
0.9091167351
 40
0.9395234106
 40
0.9546844748
 40
0.9698170821
 40
0.9849219757
 40
1.0
 40
1.0
 40
1.0
 40
1.0
 10
10.3369060826
 20
5.9653198344
 30
0.0
 10
10.3213030591
 20
5.9664019078
 30
0.0
 10
10.2900909734
 20
5.9694742806
 30
0.0
 10
10.2435298232
 20
5.9767647329
 30
0.0
 10
10.1972813484
 20
5.9867221919
 30
0.0
 10
10.1515027016
 20
5.999312837
 30
0.0
 10
10.1063467035
 20
6.0144944131
 30
0.0
 10
10.0619648486
 20
6.0322158231
 30
0.0
 10
10.0185058048
 20
6.0524175614
 30
0.0
 10
9.9761151946
 20
6.0750317957
 30
0.0
 10
9.9349350387
 20
6.0999826455
 30
0.0
 10
9.8951033019
 20
6.1271864156
 30
0.0
 10
9.8567534306
 20
6.1565518832
 30
0.0
 10
9.8200139096
 20
6.1879806004
 30
0.0
 10
9.7850078346
 20
6.2213672225
 30
0.0
 10
9.7518525026
 20
6.2565998599
 30
0.0
 10
9.7206590214
 20
6.2935604498
 30
0.0
 10
9.6915319395
 20
6.3321251504
 30
0.0
 10
9.6645688975
 20
6.3721647523
 30
0.0
 10
9.6398603029
 20
6.4135451089
 30
0.0
 10
9.6174890283
 20
6.4561275828
 30
0.0
 10
9.5975301343
 20
6.4997695059
 30
0.0
 10
9.5800506186
 20
6.5443246561
 30
0.0
 10
9.5651091916
 20
6.5896437348
 30
0.0
 10
9.5527560785
 20
6.6355748945
 30
0.0
 10
9.543032849
 20
6.6819641259
 30
0.0
 10
9.5359722798
 20
6.7286562059
 30
0.0
 10
9.5315982252
 20
6.7754935947
 30
0.0
 10
9.5302029436
 20
6.8145578746
 30
0.0
 10
9.5304444178
 20
6.845720839
 30
0.0
 10
9.531586237
 20
6.8767390639
 30
0.0
 10
9.5346985679
 20
6.9153146679
 30
0.0
 10
9.5400627281
 20
6.9535658529
 30
0.0
 10
9.5456917919
 20
6.9838429931
 30
0.0
 10
9.5505736295
 20
7.0063531808
 30
0.0
 10
9.5561150446
 20
7.0286663447
 30
0.0
 10
9.5602498196
 20
7.043411568
 30
0.0
 10
9.5624255627
 20
7.0507444002
 30
0.0
  0
SPLINE
  5
347
100
AcDbEntity
  8
0
100
AcDbSpline
 62
7
  6
CONTINUOUS
 70
0
 71
3
 72
42
 73
38
 74
0
 42
0.0000001
 43
0.0000001
 44
0.0000000001
 40
0.0
 40
0.0
 40
0.0
 40
0.0
 40
0.0308335335
 40
0.0617885332
 40
0.0928613227
 40
0.1240471515
 40
0.1553395346
 40
0.1867307438
 40
0.2182117583
 40
0.2497724462
 40
0.2814016799
 40
0.3130874868
 40
0.3448171991
 40
0.3765776122
 40
0.4083551475
 40
0.4401360184
 40
0.4719063976
 40
0.5036525854
 40
0.5353611763
 40
0.5670192237
 40
0.5986144004
 40
0.6301351534
 40
0.6615708519
 40
0.6929119274
 40
0.7241500024
 40
0.7552780083
 40
0.7862902892
 40
0.8171826903
 40
0.8479526295
 40
0.8632929283
 40
0.8786023946
 40
0.9091261982
 40
0.9395296537
 40
0.95468912
 40
0.9698201476
 40
0.984923489
 40
1.0
 40
1.0
 40
1.0
 40
1.0
 10
10.3463201173
 20
5.9946975377
 30
0.0
 10
10.331089097
 20
5.9957538126
 30
0.0
 10
10.3006211493
 20
5.9987541275
 30
0.0
 10
10.2551706293
 20
6.0058760242
 30
0.0
 10
10.2100261482
 20
6.0156047443
 30
0.0
 10
10.1653415156
 20
6.0279071595
 30
0.0
 10
10.1212663013
 20
6.0427418685
 30
0.0
 10
10.0779487688
 20
6.0600588094
 30
0.0
 10
10.0355344092
 20
6.0797996782
 30
0.0
 10
9.9941657249
 20
6.1018980131
 30
0.0
 10
9.9539816836
 20
6.126279466
 30
0.0
 10
9.9151172732
 20
6.1528620329
 30
0.0
 10
9.8777030477
 20
6.1815563358
 30
0.0
 10
9.8418646927
 20
6.2122659192
 30
0.0
 10
9.8077226061
 20
6.244887574
 30
0.0
 10
9.7753914963
 20
6.2793116813
 30
0.0
 10
9.7449799991
 20
6.3154225796
 30
0.0
 10
9.7165903153
 20
6.3530989499
 30
0.0
 10
9.690317869
 20
6.3922142218
 30
0.0
 10
9.6662509884
 20
6.4326369948
 30
0.0
 10
9.6444706105
 20
6.4742314771
 30
0.0
 10
9.6250500101
 20
6.5168579378
 30
0.0
 10
9.6080545537
 20
6.5603731746
 30
0.0
 10
9.5935414797
 20
6.604630983
 30
0.0
 10
9.5815597059
 20
6.6494826741
 30
0.0
 10
9.5721496622
 20
6.6947774549
 30
0.0
 10
9.565343157
 20
6.740363358
 30
0.0
 10
9.5611632518
 20
6.7860861629
 30
0.0
 10
9.559879428
 20
6.8242164354
 30
0.0
 10
9.5601795029
 20
6.8546313784
 30
0.0
 10
9.5613594374
 20
6.884902983
 30
0.0
 10
9.5644812846
 20
6.9225462299
 30
0.0
 10
9.5698038196
 20
6.9598673825
 30
0.0
 10
9.5753689294
 20
6.9894047486
 30
0.0
 10
9.5801875491
 20
7.0113630986
 30
0.0
 10
9.5856505603
 20
7.0331273306
 30
0.0
 10
9.5897228671
 20
7.047508468
 30
0.0
 10
9.5918648581
 20
7.0546598925
 30
0.0
  0
SPLINE
  5
348
100
AcDbEntity
  8
0
100
AcDbSpline
 62
7
  6
CONTINUOUS
 70
0
 71
3
 72
41
 73
37
 74
0
 42
0.0000001
 43
0.0000001
 44
0.0000000001
 40
0.0
 40
0.0
 40
0.0
 40
0.0
 40
0.0307802285
 40
0.0616763777
 40
0.0926848115
 40
0.1238016645
 40
0.1550211361
 40
0.1863365131
 40
0.2177398769
 40
0.249222337
 40
0.2807740973
 40
0.3123845842
 40
0.3440425666
 40
0.3757362848
 40
0.4074535823
 40
0.4391820423
 40
0.4709091244
 40
0.5026223039
 40
0.5343092097
 40
0.5659577613
 40
0.597556304
 40
0.6290937402
 40
0.6605596569
 40
0.6919444464
 40
0.7232394219
 40
0.7544369236
 40
0.7855304164
 40
0.8165145772
 40
0.8473853692
 40
0.862778803
 40
0.8781430029
 40
0.9087803885
 40
0.9393005592
 40
0.9545186224
 40
0.9697080913
 40
1.0
 40
1.0
 40
1.0
 40
1.0
 10
10.417657558
 20
6.0636042182
 30
0.0
 10
10.4031396691
 20
6.0646110372
 30
0.0
 10
10.3740986537
 20
6.0674311543
 30
0.0
 10
10.3307587712
 20
6.074044295
 30
0.0
 10
10.2876839543
 20
6.083028704
 30
0.0
 10
10.2450076642
 20
6.0943564392
 30
0.0
 10
10.2028596495
 20
6.1079929676
 30
0.0
 10
10.1613687959
 20
6.1238964123
 30
0.0
 10
10.120661746
 20
6.1420181408
 30
0.0
 10
10.0808628012
 20
6.1623026959
 30
0.0
 10
10.0420934693
 20
6.184688059
 30
0.0
 10
10.0044721144
 20
6.209105802
 30
0.0
 10
9.9681135949
 20
6.23548131
 30
0.0
 10
9.9331289156
 20
6.2637340031
 30
0.0
 10
9.8996248904
 20
6.2937775821
 30
0.0
 10
9.8677038146
 20
6.3255202875
 30
0.0
 10
9.8374631585
 20
6.3588651834
 30
0.0
 10
9.8089952707
 20
6.3937104511
 30
0.0
 10
9.782387098
 20
6.4299496985
 30
0.0
 10
9.7577199216
 20
6.4674722826
 30
0.0
 10
9.7350691097
 20
6.5061636457
 30
0.0
 10
9.7145038885
 20
6.5459056613
 30
0.0
 10
9.6960871315
 20
6.586576995
 30
0.0
 10
9.6798751678
 20
6.6280534645
 30
0.0
 10
9.665917609
 20
6.6702084423
 30
0.0
 10
9.6542572018
 20
6.7129131414
 30
0.0
 10
9.6449296784
 20
6.7560373683
 30
0.0
 10
9.6379636985
 20
6.7994485691
 30
0.0
 10
9.6341407726
 20
6.8357904417
 30
0.0
 10
9.6322844951
 20
6.8648720697
 30
0.0
 10
9.6312312406
 20
6.8938834474
 30
0.0
 10
9.6314125675
 20
6.9300817373
 30
0.0
 10
9.6335994437
 20
6.9661454127
 30
0.0
 10
9.6365496064
 20
6.994803802
 30
0.0
 10
9.6402893718
 20
7.0232601965
 30
0.0
 10
9.6439920343
 20
7.0444577665
 30
0.0
 10
9.6468568703
 20
7.058490195
 30
0.0
  0
SPLINE
  5
349
100
AcDbEntity
  8
0
100
AcDbSpline
 62
7
  6
CONTINUOUS
 70
0
 71
3
 72
43
 73
39
 74
0
 42
0.0000001
 43
0.0000001
 44
0.0000000001
 40
0.0
 40
0.0
 40
0.0
 40
0.0
 40
0.030779035
 40
0.0462139429
 40
0.0616768417
 40
0.0926838783
 40
0.123799289
 40
0.1550172261
 40
0.1863310149
 40
0.2177327516
 40
0.2492135698
 40
0.264981955
 40
0.2807663763
 40
0.3123752653
 40
0.3440317107
 40
0.3757239791
 40
0.407439941
 40
0.4391672056
 40
0.4708932575
 40
0.5026055948
 40
0.5342918668
 40
0.5659400105
 40
0.5975383849
 40
0.6290759023
 40
0.660542155
 40
0.6919275372
 40
0.7232233593
 40
0.7544219541
 40
0.785516774
 40
0.8165024777
 40
0.8473750051
 40
0.8627693665
 40
0.8781345309
 40
0.9087739448
 40
0.9392962339
 40
0.9545153703
 40
0.9697059245
 40
1.0
 40
1.0
 40
1.0
 40
1.0
 10
10.4383630645
 20
6.1608782736
 30
0.0
 10
10.4252842248
 20
6.1617852942
 30
0.0
 10
10.405678736
 20
6.1636887028
 30
0.0
 10
10.3796539287
 20
6.1672942424
 30
0.0
 10
10.3536402643
 20
6.1716216865
 30
0.0
 10
10.3212713025
 20
6.1783688127
 30
0.0
 10
10.2828241059
 20
6.1885668298
 30
0.0
 10
10.2448515028
 20
6.2008430571
 30
0.0
 10
10.2074698361
 20
6.2151598308
 30
0.0
 10
10.1707934266
 20
6.2314731646
 30
0.0
 10
10.140925116
 20
6.2466825834
 30
0.0
 10
10.1174924407
 20
6.2597944023
 30
0.0
 10
10.0943624067
 20
6.2735401325
 30
0.0
 10
10.0660964821
 20
6.2918673208
 30
0.0
 10
10.0333305829
 20
6.3156113629
 30
0.0
 10
10.0017997274
 20
6.3410459995
 30
0.0
 10
9.9716005905
 20
6.3680933222
 30
0.0
 10
9.942825047
 20
6.3966709734
 30
0.0
 10
9.9155608409
 20
6.4266918201
 30
0.0
 10
9.8898910658
 20
6.4580643726
 30
0.0
 10
9.8658939809
 20
6.4906930198
 30
0.0
 10
9.8436427563
 20
6.5244783296
 30
0.0
 10
9.823205255
 20
6.559317347
 30
0.0
 10
9.8046438275
 20
6.5951039062
 30
0.0
 10
9.7880151137
 20
6.6317289496
 30
0.0
 10
9.7733698733
 20
6.6690808542
 30
0.0
 10
9.7607528345
 20
6.7070457956
 30
0.0
 10
9.7502025621
 20
6.7455080034
 30
0.0
 10
9.7417513185
 20
6.7843504374
 30
0.0
 10
9.7354250421
 20
6.8234539304
 30
0.0
 10
9.7319366671
 20
6.8561918548
 30
0.0
 10
9.7302278421
 20
6.8823910431
 30
0.0
 10
9.7292416575
 20
6.9085280386
 30
0.0
 10
9.729357179
 20
6.9411418716
 30
0.0
 10
9.7312776718
 20
6.9736372502
 30
0.0
 10
9.7338950096
 20
6.9994619104
 30
0.0
 10
9.737223019
 20
7.025105863
 30
0.0
 10
9.7405274129
 20
7.0442098479
 30
0.0
 10
9.7430871156
 20
7.0568571016
 30
0.0
  0
SPLINE
  5
34A
100
AcDbEntity
  8
0
100
AcDbSpline
 62
7
  6
CONTINUOUS
 70
0
 71
3
 72
60
 73
56
 74
0
 42
0.0000001
 43
0.0000001
 44
0.0000000001
 40
0.0
 40
0.0
 40
0.0
 40
0.0
 40
0.0078607292
 40
0.016420774
 40
0.0257057417
 40
0.0357306377
 40
0.0464999039
 40
0.0580098301
 40
0.0702501744
 40
0.0832056922
 40
0.0968566841
 40
0.1111799404
 40
0.12614945
 40
0.1417367
 40
0.1579113958
 40
0.1746416111
 40
0.1918942906
 40
0.2096354348
 40
0.2278304076
 40
0.2464441061
 40
0.2847853357
 40
0.3243767109
 40
0.3649366787
 40
0.4061879987
 40
0.4478591467
 40
0.4896849164
 40
0.5314064436
 40
0.572770847
 40
0.6135306625
 40
0.6534432305
 40
0.6922701894
 40
0.7297772333
 40
0.7479641548
 40
0.7657352314
 40
0.7830625248
 40
0.7999185084
 40
0.8162761837
 40
0.8321091476
 40
0.8473917887
 40
0.8620993988
 40
0.8762084697
 40
0.889696908
 40
0.9025444399
 40
0.9147330566
 40
0.9262475431
 40
0.9370763625
 40
0.9472124252
 40
0.9566546882
 40
0.9654095813
 40
0.9734936432
 40
0.9772936979
 40
0.9809385295
 40
0.9877867097
 40
0.9941088599
 40
1.0
 40
1.0
 40
1.0
 40
1.0
 10
11.1711070957
 20
11.2862484871
 30
0.0
 10
11.1721307124
 20
11.2872372249
 30
0.0
 10
11.174373353
 20
11.2891959956
 30
0.0
 10
11.1781169993
 20
11.2919673233
 30
0.0
 10
11.1823706192
 20
11.2946878179
 30
0.0
 10
11.1871233364
 20
11.2973516381
 30
0.0
 10
11.1923636184
 20
11.2999535379
 30
0.0
 10
11.1980782676
 20
11.3024877999
 30
0.0
 10
11.2042526239
 20
11.3049492062
 30
0.0
 10
11.2108708647
 20
11.3073325254
 30
0.0
 10
11.2179160359
 20
11.309632902
 30
0.0
 10
11.2253702091
 20
11.3118457876
 30
0.0
 10
11.2332146561
 20
11.313966833
 30
0.0
 10
11.241429922
 20
11.3159921967
 30
0.0
 10
11.2499960166
 20
11.317918177
 30
0.0
 10
11.2588924842
 20
11.31974155
 30
0.0
 10
11.2680985424
 20
11.3214593367
 30
0.0
 10
11.2775931782
 20
11.3230688693
 30
0.0
 10
11.2873552398
 20
11.3245678789
 30
0.0
 10
11.3008326519
 20
11.326434693
 30
0.0
 10
11.3181958812
 20
11.3284668723
 30
0.0
 10
11.3395619135
 20
11.3304167924
 30
0.0
 10
11.3614938357
 20
11.3318936713
 30
0.0
 10
11.3838294355
 20
11.3328932727
 30
0.0
 10
11.4064104695
 20
11.3334142377
 30
0.0
 10
11.4290825484
 20
11.3334577963
 30
0.0
 10
11.4516950284
 20
11.33302745
 30
0.0
 10
11.4741006281
 20
11.3321287613
 30
0.0
 10
11.4961549309
 20
11.3307692091
 30
0.0
 10
11.5177159152
 20
11.32895815
 30
0.0
 10
11.5386432378
 20
11.3267067674
 30
0.0
 10
11.555608996
 20
11.3244522654
 30
0.0
 10
11.5687552928
 20
11.3224294151
 30
0.0
 10
11.5782686583
 20
11.3208261917
 30
0.0
 10
11.5875198637
 20
11.3191236482
 30
0.0
 10
11.5964918841
 20
11.317324097
 30
0.0
 10
11.6051677785
 20
11.3154301575
 30
0.0
 10
11.6135306894
 20
11.3134444883
 30
0.0
 10
11.6215639139
 20
11.3113700746
 30
0.0
 10
11.6292508838
 20
11.3092099529
 30
0.0
 10
11.6365752661
 20
11.3069674944
 30
0.0
 10
11.6435209599
 20
11.3046461715
 30
0.0
 10
11.6500722012
 20
11.3022497378
 30
0.0
 10
11.6562136139
 20
11.2997821484
 30
0.0
 10
11.6619302759
 20
11.2972475094
 30
0.0
 10
11.6672078867
 20
11.2946502432
 30
0.0
 10
11.6720327049
 20
11.2919947409
 30
0.0
 10
11.6763919799
 20
11.2892856719
 30
0.0
 10
11.6802733354
 20
11.2865276332
 30
0.0
 10
11.6831575777
 20
11.2841451065
 30
0.0
 10
11.6852028499
 20
11.2822146286
 30
0.0
 10
11.6869991193
 20
11.2803509443
 30
0.0
 10
11.6889446741
 20
11.2780004513
 30
0.0
 10
11.6908103082
 20
11.2750862099
 30
0.0
 10
11.6917273059
 20
11.2730625471
 30
0.0
 10
11.692084001
 20
11.2720573855
 30
0.0
  0
ENDSEC
  0
SECTION
  2
OBJECTS
  0
DICTIONARY
  5
C
100
AcDbDictionary
280
0
281
1
  3
ACAD_GROUP
350
D
  3
ACAD_MLINESTYLE
350
17
  3
ACAD_LAYOUT
350
1A
  3
ACAD_PLOTSETTINGS
350
19
  3
ACAD_PLOTSTYLENAME
350
E
  3
ACAD_IMAGE_DICT
350
       34C
  3
ACAD_IMAGE_VARS
350
       34D
  3
ACAD_TABLESTYLE
350
       34E
  0
IMAGEDEF_REACTOR
  5
34B
100
AcDbRasterImageDefReactor
 90
2
330
288
  0
DICTIONARY
  5
D
102
{ACAD_REACTORS
330
C
102
}
100
AcDbDictionary
280
0
281
1
  0
ACDBDICTIONARYWDFLT
  5
E
102
{ACAD_REACTORS
330
C
102
}
100
AcDbDictionary
281
1
  3
Normal
350
F
100
AcDbDictionaryWithDefault
340
F
  0
DICTIONARY
  5
34C
330
C
100
AcDbDictionary
281
1
  3
MB3_assy_2_img_1
350
       351
  0
RASTERVARIABLES
  5
34D
330
C
100
AcDbRasterVariables
 90
0
 70
0
 71
1
 72
5
  0
DICTIONARY
  5
17
102
{ACAD_REACTORS
330
C
102
}
100
AcDbDictionary
280
0
281
1
  3
Standard
350
18
  0
DICTIONARY
  5
34E
330
C
100
AcDbDictionary
281
1
  3
Standard
350
       352
  3
Standard1
350
       353
  0
DICTIONARY
  5
19
102
{ACAD_REACTORS
330
C
102
}
100
AcDbDictionary
281
1
  0
DICTIONARY
  5
1A
102
{ACAD_REACTORS
330
C
102
}
100
AcDbDictionary
281
1
  3
Model
350
34F
  3
Layout1
350
350
  0
ACDBPLACEHOLDER
  5
F
102
{ACAD_REACTORS
330
E
102
}
  0
MLINESTYLE
  5
18
102
{ACAD_REACTORS
330
17
102
}
100
AcDbMlineStyle
  2
STANDARD
 70
0
  3

 62
256
 51
90.0
 52
90.0
 71
2
 49
0.5
 62
256
  6
BYLAYER
 49
-0.5
 62
256
  6
BYLAYER
  0
LAYOUT
  5
34F
102
{ACAD_REACTORS
330
1A
102
}
100
AcDbPlotSettings
  1

  2
none_device
  4
ANSI_C_(22.00_x_17.00_Inches)
  6

 40
0.0
 41
0.0
 42
0.0
 43
0.0
 44
558.8
 45
431.8
 46
0.0
 47
0.0
 48
0.0
 49
0.0
140
0.0
141
0.0
142
1.0
143
1.0
 70
1024
 72
0
 73
0
 74
0
  7

 75
0
147
1.0
148
0.0
149
0.0
100
AcDbLayout
  1
Model
 70
0
 71
0
 10
0.0
 20
0.0
 11
22.0
 21
17.0
 12
0.0
 22
0.0
 32
0.0
 14
0.0
 24
0.0
 34
0.0
 15
0.0
 25
0.0
 35
0.0
146
0.0
 13
0.0
 23
0.0
 33
0.0
 16
1.0
 26
0.0
 36
0.0
 17
0.0
 27
1.0
 37
0.0
 76
0
330
20F
345
0
346
0
  0
LAYOUT
  5
350
102
{ACAD_REACTORS
330
1A
102
}
100
AcDbPlotSettings
  1

  2
none_device
  4
ANSI_C_(22.00_x_17.00_Inches)
  6

 40
0.0
 41
0.0
 42
0.0
 43
0.0
 44
558.8
 45
431.8
 46
0.0
 47
0.0
 48
0.0
 49
0.0
140
0.0
141
0.0
142
1.0
143
1.0
 70
0
 72
0
 73
0
 74
0
  7

 75
0
147
1.0
148
0.0
149
0.0
100
AcDbLayout
  1
Layout1
 70
0
 71
1
 10
0.0
 20
0.0
 11
22.0
 21
17.0
 12
0.0
 22
0.0
 32
0.0
 14
0.0
 24
0.0
 34
0.0
 15
0.0
 25
0.0
 35
0.0
146
0.0
 13
0.0
 23
0.0
 33
0.0
 16
1.0
 26
0.0
 36
0.0
 17
0.0
 27
1.0
 37
0.0
 76
0
330
210
345
0
346
0
  0
IMAGEDEF
  5
351
102
{ACAD_REACTORS
330
34C
330
34B
102
}
100
AcDbRasterImageDef
 90
0
  1
MB3_assy_2_img_1.png
 10
369.0
 20
92.0
 11
0.0066666667
 21
0.0066666667
280
1
281
0
  0
TABLESTYLE
  5
352
102
{ACAD_REACTORS
330
34E
330
28B
330
28C
102
}
330
34E
100
AcDbTableStyle
  3
Standard
 70
0
 71
0
 40
0.06
 41
0.06
280
1
281
1
  7
Standard
140
0.18
170
1
 62
0
 63
7
283
0
  7
Standard
140
0.18
170
1
 62
0
 63
7
283
0
  7
Standard
140
0.18
170
1
 62
0
 63
7
283
0
  0
TABLESTYLE
  5
353
102
{ACAD_REACTORS
330
34E
330
28A
102
}
330
34E
100
AcDbTableStyle
  3
Standard1
 70
1
 71
0
 40
0.06
 41
0.06
280
1
281
1
  7
Standard
140
0.18
170
1
 62
0
 63
7
283
0
  7
Standard
140
0.18
170
1
 62
0
 63
7
283
0
  7
Standard
140
0.18
170
1
 62
0
 63
7
283
0
  0
ENDSEC
  0
EOF
