999
DXF file: M4V_assy_2.dxf
999
Pro/ENGINEER 2014200 by Parametric Technology Corporation
  0
SECTION
  2
HEADER
  9
$ACADVER
  1
AC1021
  9
$DWGCODEPAGE
  3
ANSI_1252
  9
$EXTMAX
 10
22.0
 20
17.0
 30
0.0
  9
$EXTMIN
 10
0.0
 20
0.0
 30
0.0
  9
$LIMMIN
 10
0.0
 20
0.0
  9
$LIMMAX
 10
22.0
 20
17.0
  9
$VIEWCTR
 10
11.0
 20
8.5
  9
$VIEWSIZE
 40
17.0
  9
$CLAYER
  8
0
  9
$LTSCALE
 40
1.21
  9
$CELTYPE
  6
BYLAYER
  9
$DIMSCALE
 40
1.0
  9
$DIMASZ
 40
0.1875
  9
$DIMEXO
 40
0.0625
  9
$DIMDLI
 40
0.836
  9
$DIMEXE
 40
0.125
  9
$DIMCEN
 40
0.198
  9
$DIMLFAC
 40
1.0
  9
$DIMBLK
  1
_FILLED
  9
$DIMTXT
 40
0.1
  9
$DIMTOL
 70
0
  9
$DIMLIM
 70
0
  9
$DIMTFAC
 40
1.0
  9
$DIMGAP
 40
0.09
  9
$DIMDSEP
 70
46
  9
$AUNITS
 70
0
  9
$PDMODE
 70
3
  9
$PDSIZE
 40
0.3125
  9
$HANDSEED
  5
3AC
  9
$TILEMODE
 70
1
  9
$MEASUREMENT
 70
0
  9
$INSUNITS
 70
1
  0
ENDSEC
  0
SECTION
  2
CLASSES
  0
CLASS
  1
ACDBDICTIONARYWDFLT
  2
AcDbDictionaryWithDefault
  3
AutoCAD 2000
 90
0
 91
1
280
0
281
0
  0
CLASS
  1
ACDBPLACEHOLDER
  2
AcDbPlaceHolder
  3
AutoCAD 2000
 90
0
 91
1
280
0
281
0
  0
CLASS
  1
LAYOUT
  2
AcDbLayout
  3
AutoCAD 2000
 90
0
 91
0
280
0
281
0
  0
CLASS
  1
RASTERVARIABLES
  2
AcDbRasterVariables
  3
ISM
 90
0
 91
1
280
0
281
0
  0
CLASS
  1
IMAGEDEF
  2
AcDbRasterImageDef
  3
ISM
 90
0
 91
1
280
0
281
0
  0
CLASS
  1
IMAGEDEF_REACTOR
  2
AcDbRasterImageDefReactor
  3
ISM
 90
0
 91
1
280
0
281
0
  0
CLASS
  1
IMAGE
  2
AcDbRasterImage
  3
ISM
 90
127
 91
1
280
0
281
1
  0
CLASS
  1
TABLESTYLE
  2
AcDbTableStyle
  3
ObjectDBX Classes
 90
2047
 91
1
280
0
281
0
  0
CLASS
  1
ACAD_TABLE
  2
AcDbTable
  3
ObjectDBX Classes
 90
1025
 91
3
280
0
281
1
  0
ENDSEC
  0
SECTION
  2
TABLES
  0
TABLE
  2
VPORT
  5
8
100
AcDbSymbolTable
 70
2
  0
VPORT
  5
1F4
100
AcDbSymbolTableRecord
100
AcDbViewportTableRecord
  2
*ACTIVE
 70
0
 10
0.0
 20
0.0
 11
1.0
 21
1.0
 12
11.0
 22
8.5
 13
0.0
 23
0.0
 14
1.0
 24
1.0
 15
0.0
 25
0.0
 16
0.0
 26
0.0
 36
1.0
 17
0.0
 27
0.0
 37
0.0
 40
17.0
 41
1.2941176471
 42
50.0
 43
0.0
 44
0.0
 50
0.0
 51
0.0
 71
0
 72
100
 73
1
 74
1
 75
0
 76
0
 77
0
 78
0
  0
ENDTAB
  0
TABLE
  2
LTYPE
  5
5
100
AcDbSymbolTable
 70
6
  0
LTYPE
  5
14
100
AcDbSymbolTableRecord
100
AcDbLinetypeTableRecord
  2
BYBLOCK
 70
0
  3

 72
65
 73
0
 40
0.0
  0
LTYPE
  5
15
100
AcDbSymbolTableRecord
100
AcDbLinetypeTableRecord
  2
BYLAYER
 70
0
  3

 72
65
 73
0
 40
0.0
  0
LTYPE
  5
16
100
AcDbSymbolTableRecord
100
AcDbLinetypeTableRecord
  2
CONTINUOUS
 70
64
  3
Solid line
 72
65
 73
0
 40
0.0
  0
LTYPE
  5
1F5
100
AcDbSymbolTableRecord
100
AcDbLinetypeTableRecord
  2
CENTER
 70
64
  3
____ _ ____ _ ____ _ ____ _ ____ _ ____ _ ____
 72
65
 73
4
 40
0.6
 49
0.375
 74
0
 49
-0.075
 74
0
 49
0.075
 74
0
 49
-0.075
 74
0
  0
LTYPE
  5
1F6
100
AcDbSymbolTableRecord
100
AcDbLinetypeTableRecord
  2
HIDDEN
 70
64
  3
- - - - - - - - - - - - - - - - - - - -
 72
65
 73
2
 40
0.2
 49
0.1
 74
0
 49
-0.1
 74
0
  0
LTYPE
  5
1F7
100
AcDbSymbolTableRecord
100
AcDbLinetypeTableRecord
  2
PHANTOM
 70
64
  3
_____ _ _ _____ _ _ _____ _ _ _____
 72
65
 73
6
 40
0.8
 49
0.45
 74
0
 49
-0.05
 74
0
 49
0.1
 74
0
 49
-0.05
 74
0
 49
0.1
 74
0
 49
-0.05
 74
0
  0
LTYPE
  5
1F8
100
AcDbSymbolTableRecord
100
AcDbLinetypeTableRecord
  2
DOT
 70
64
  3
. . . . . . . . . . . . . . . . . . . .
 72
65
 73
2
 40
0.2
 49
0.1
 74
0
 49
-0.1
 74
0
  0
LTYPE
  5
1F9
100
AcDbSymbolTableRecord
100
AcDbLinetypeTableRecord
  2
DASHED
 70
64
  3
- - - - - - - - - - - - - - - - - - - -
 72
65
 73
2
 40
0.2
 49
0.1
 74
0
 49
-0.1
 74
0
  0
ENDTAB
  0
TABLE
  2
LAYER
  5
2
100
AcDbSymbolTable
 70
36
  0
LAYER
  5
10
100
AcDbSymbolTableRecord
100
AcDbLayerTableRecord
  2
0
 70
0
 62
7
  6
CONTINUOUS
370
-3
390
F
  0
LAYER
  5
1FA
100
AcDbSymbolTableRecord
100
AcDbLayerTableRecord
  2
DEFAULT_1
 70
0
 62
7
  6
CENTER
370
-3
390
F
  0
LAYER
  5
1FB
100
AcDbSymbolTableRecord
100
AcDbLayerTableRecord
  2
DEFAULT_2
 70
0
 62
8
  6
HIDDEN
370
-3
390
F
  0
LAYER
  5
1FC
100
AcDbSymbolTableRecord
100
AcDbLayerTableRecord
  2
DEFAULT_3
 70
0
 62
7
  6
PHANTOM
370
-3
390
F
  0
LAYER
  5
1FD
100
AcDbSymbolTableRecord
100
AcDbLayerTableRecord
  2
01___PRT_ALL_DTM_PLN
 70
0
 62
7
  6
CONTINUOUS
370
-3
390
F
  0
LAYER
  5
1FE
100
AcDbSymbolTableRecord
100
AcDbLayerTableRecord
  2
01___PRT_DEF_DTM_PLN
 70
0
 62
7
  6
CONTINUOUS
370
-3
390
F
  0
LAYER
  5
1FF
100
AcDbSymbolTableRecord
100
AcDbLayerTableRecord
  2
02___PRT_ALL_AXES
 70
0
 62
7
  6
CONTINUOUS
370
-3
390
F
  0
LAYER
  5
200
100
AcDbSymbolTableRecord
100
AcDbLayerTableRecord
  2
03___PRT_ALL_CURVES
 70
0
 62
7
  6
CONTINUOUS
370
-3
390
F
  0
LAYER
  5
201
100
AcDbSymbolTableRecord
100
AcDbLayerTableRecord
  2
04___PRT_ALL_DTM_PNT
 70
0
 62
7
  6
CONTINUOUS
370
-3
390
F
  0
LAYER
  5
202
100
AcDbSymbolTableRecord
100
AcDbLayerTableRecord
  2
05___PRT_ALL_DTM_CSYS
 70
0
 62
7
  6
CONTINUOUS
370
-3
390
F
  0
LAYER
  5
203
100
AcDbSymbolTableRecord
100
AcDbLayerTableRecord
  2
05___PRT_DEF_DTM_CSYS
 70
0
 62
7
  6
CONTINUOUS
370
-3
390
F
  0
LAYER
  5
204
100
AcDbSymbolTableRecord
100
AcDbLayerTableRecord
  2
06___PRT_ALL_SURFS
 70
0
 62
7
  6
CONTINUOUS
370
-3
390
F
  0
LAYER
  5
205
100
AcDbSymbolTableRecord
100
AcDbLayerTableRecord
  2
DATUM_PLANES
 70
0
 62
7
  6
CONTINUOUS
370
-3
390
F
  0
LAYER
  5
206
100
AcDbSymbolTableRecord
100
AcDbLayerTableRecord
  2
PORT_AREAS
 70
0
 62
7
  6
CONTINUOUS
370
-3
390
F
  0
LAYER
  5
207
100
AcDbSymbolTableRecord
100
AcDbLayerTableRecord
  2
SUNNBOMCOSMETIC
 70
0
 62
7
  6
CONTINUOUS
370
-3
390
F
  0
LAYER
  5
208
100
AcDbSymbolTableRecord
100
AcDbLayerTableRecord
  2
SUNNBOMSTAMPING
 70
0
 62
7
  6
CONTINUOUS
370
-3
390
F
  0
LAYER
  5
209
100
AcDbSymbolTableRecord
100
AcDbLayerTableRecord
  2
THREADS
 70
0
 62
7
  6
CONTINUOUS
370
-3
390
F
  0
ENDTAB
  0
TABLE
  2
STYLE
  5
3
100
AcDbSymbolTable
 70
1
  0
STYLE
  5
11
100
AcDbSymbolTableRecord
100
AcDbTextStyleTableRecord
  2
STANDARD
 70
0
 40
0.0
 41
0.8
 50
0.0
 71
0
 42
0.2
  3
txt
  4

  0
STYLE
  5
20A
100
AcDbSymbolTableRecord
100
AcDbTextStyleTableRecord
  2
TEXTSTYLE_1
 70
0
 40
0.0
 41
0.8
 50
0.0
 71
0
 42
0.2
  3
gdt
  4

  0
ENDTAB
  0
TABLE
  2
VIEW
  5
6
100
AcDbSymbolTable
 70
0
  0
ENDTAB
  0
TABLE
  2
UCS
  5
7
100
AcDbSymbolTable
 70
0
  0
ENDTAB
  0
TABLE
  2
APPID
  5
9
100
AcDbSymbolTable
 70
1
  0
APPID
  5
20B
100
AcDbSymbolTableRecord
100
AcDbRegAppTableRecord
  2
ACAD
 70
0
  0
ENDTAB
  0
TABLE
  2
BLOCK_RECORD
  5
1
100
AcDbSymbolTable
 70
0
  0
BLOCK_RECORD
  5
20C
100
AcDbSymbolTableRecord
100
AcDbBlockTableRecord
  2
*Model_Space
  0
BLOCK_RECORD
  5
20D
100
AcDbSymbolTableRecord
100
AcDbBlockTableRecord
  2
*Paper_Space
  0
BLOCK_RECORD
  5
20E
100
AcDbSymbolTableRecord
100
AcDbBlockTableRecord
  2
SUN_FIRST_THIRD_ANGLE_BL0
  0
BLOCK_RECORD
  5
20F
100
AcDbSymbolTableRecord
100
AcDbBlockTableRecord
  2
*T1
  0
BLOCK_RECORD
  5
210
100
AcDbSymbolTableRecord
100
AcDbBlockTableRecord
  2
*T2
  0
BLOCK_RECORD
  5
211
100
AcDbSymbolTableRecord
100
AcDbBlockTableRecord
  2
*T3
  0
ENDTAB
  0
TABLE
  2
DIMSTYLE
  5
A
100
AcDbSymbolTable
 70
1
100
AcDbDimStyleTable
 71
0
  0
DIMSTYLE
105
212
100
AcDbSymbolTableRecord
100
AcDbDimStyleTableRecord
  2
STANDARD
 70
0
  3

  4

 40
1.0
 41
0.1875
 42
0.0625
 43
0.38
 44
0.125
 45
0.0
 46
0.0
 47
0.001
 48
0.001
140
0.1
141
0.09
142
0.0
143
25.4
144
1.0
145
0.0
146
1.0
147
0.09
 71
0.0
 72
0.0
 73
1
 74
1
 75
0
 76
0
 77
0
 78
4
170
0
171
2
172
0
173
0
174
0
175
0
176
0
177
0
178
0
270
2
271
3
272
3
273
2
274
2
275
0
280
0
281
0
282
0
283
1
284
4
285
0
286
0
287
3
288
0
340
11
278
46
  0
ENDTAB
  0
ENDSEC
  0
SECTION
  2
BLOCKS
  0
BLOCK
  5
20
100
AcDbEntity
  8
0
100
AcDbBlockBegin
  2
*Model_Space
 70
0
 10
0.0
 20
0.0
 30
0.0
  3
*Model_Space
  1

  0
ENDBLK
  5
21
100
AcDbEntity
  8
0
100
AcDbBlockEnd
  0
BLOCK
  5
1C
100
AcDbEntity
  8
0
100
AcDbBlockBegin
  2
*Paper_Space
 70
0
 10
0.0
 20
0.0
 30
0.0
  3
*Paper_Space
  1

  0
ENDBLK
  5
1D
100
AcDbEntity
  8
0
100
AcDbBlockEnd
  0
BLOCK
  5
213
100
AcDbEntity
  8
0
100
AcDbBlockBegin
 62
2
  6
CONTINUOUS
  2
SUN_FIRST_THIRD_ANGLE_BL0
 70
64
 10
20.4816717061
 20
1.2289683772
  3
SUN_FIRST_THIRD_ANGLE_BL0
  1

  0
TEXT
  5
214
100
AcDbEntity
  8
0
100
AcDbText
 62
2
  6
CONTINUOUS
 10
19.4750896608
 20
1.4136269581
  7
STANDARD
 40
0.08
  1
FIRST ANGLE
 41
0.8
 72
0
100
AcDbText
  0
TEXT
  5
215
100
AcDbEntity
  8
0
100
AcDbText
 62
2
  6
CONTINUOUS
 10
20.7842537513
 20
1.4047600029
  7
STANDARD
 40
0.08
  1
THIRD ANGLE
 41
0.8
 72
0
100
AcDbText
  0
LINE
  5
216
100
AcDbEntity
  8
0
100
AcDbLine
 62
7
  6
CONTINUOUS
 10
19.4767170086
 20
1.1727031207
 11
19.6334271527
 21
1.1717972817
  0
LINE
  5
217
100
AcDbEntity
  8
0
100
AcDbLine
 62
7
  6
CONTINUOUS
 10
19.6596964832
 20
1.1717972817
 11
19.6950230232
 21
1.171593082
  0
LINE
  5
218
100
AcDbEntity
  8
0
100
AcDbLine
 62
7
  6
CONTINUOUS
 10
19.7194818561
 20
1.1708914427
 11
19.8852396156
 21
1.1699333054
  0
LINE
  5
219
100
AcDbEntity
  8
0
100
AcDbLine
 62
7
  6
CONTINUOUS
 10
19.4758111696
 20
1.2723454088
 11
19.88525039
 21
1.3511534004
  0
LINE
  5
21A
100
AcDbEntity
  8
0
100
AcDbLine
 62
7
  6
CONTINUOUS
 10
19.88525039
 20
1.3511534004
 11
19.8831348489
 21
0.9851647912
  0
LINE
  5
21B
100
AcDbEntity
  8
0
100
AcDbLine
 62
7
  6
CONTINUOUS
 10
19.8831348489
 20
0.9851647912
 11
19.4767170086
 21
1.0658141206
  0
LINE
  5
21C
100
AcDbEntity
  8
0
100
AcDbLine
 62
7
  6
CONTINUOUS
 10
19.4767170086
 20
1.0658141206
 11
19.4779056764
 21
1.2714536432
  0
CIRCLE
  5
21D
100
AcDbEntity
  8
0
100
AcDbCircle
 62
7
  6
CONTINUOUS
 10
20.2068232291
 20
1.1717972817
 40
0.175742101
  0
CIRCLE
  5
21E
100
AcDbEntity
  8
0
100
AcDbCircle
 62
7
  6
CONTINUOUS
 10
20.2068232291
 20
1.1717972817
 40
0.1005522074
  0
LINE
  5
21F
100
AcDbEntity
  8
0
100
AcDbLine
 62
7
  6
CONTINUOUS
 10
20.2077290681
 20
1.3756110529
 11
20.2071171714
 21
1.2379342989
  0
LINE
  5
220
100
AcDbEntity
  8
0
100
AcDbLine
 62
7
  6
CONTINUOUS
 10
20.2077290681
 20
1.2016899681
 11
20.2074674401
 21
1.1428236749
  0
LINE
  5
221
100
AcDbEntity
  8
0
100
AcDbLine
 62
7
  6
CONTINUOUS
 10
20.208634907
 20
1.101141841
 11
20.2080230104
 21
0.963465087
  0
LINE
  5
222
100
AcDbEntity
  8
0
100
AcDbLine
 62
7
  6
CONTINUOUS
 10
20.0066328138
 20
1.1745147986
 11
20.1443095678
 21
1.1739029019
  0
LINE
  5
223
100
AcDbEntity
  8
0
100
AcDbLine
 62
7
  6
CONTINUOUS
 10
20.1832714155
 20
1.1727031207
 11
20.238153505
 21
1.172335442
  0
LINE
  5
224
100
AcDbEntity
  8
0
100
AcDbLine
 62
7
  6
CONTINUOUS
 10
20.2756669918
 20
1.1717972817
 11
20.407916871
 21
1.1712095044
  0
CIRCLE
  5
225
100
AcDbEntity
  8
0
100
AcDbCircle
 62
7
  6
CONTINUOUS
 10
20.7509457401
 20
1.1693297793
 40
0.1722024983
  0
CIRCLE
  5
226
100
AcDbEntity
  8
0
100
AcDbCircle
 62
7
  6
CONTINUOUS
 10
20.7509457401
 20
1.1693297793
 40
0.0985164967
  0
LINE
  5
227
100
AcDbEntity
  8
0
100
AcDbLine
 62
7
  6
CONTINUOUS
 10
20.7169767782
 20
1.170462078
 11
20.7825395137
 21
1.1682766535
  0
LINE
  5
228
100
AcDbEntity
  8
0
100
AcDbLine
 62
7
  6
CONTINUOUS
 10
20.8177513651
 20
1.1693297793
 11
20.947965719
 21
1.1693297793
  0
LINE
  5
229
100
AcDbEntity
  8
0
100
AcDbLine
 62
7
  6
CONTINUOUS
 10
20.6875370113
 20
1.170462078
 11
20.5573226574
 21
1.170462078
  0
LINE
  5
22A
100
AcDbEntity
  8
0
100
AcDbLine
 62
7
  6
CONTINUOUS
 10
20.7486811426
 20
1.1987695462
 11
20.7486811426
 21
1.1432869085
  0
LINE
  5
22B
100
AcDbEntity
  8
0
100
AcDbLine
 62
7
  6
CONTINUOUS
 10
20.7498134414
 20
1.1059210505
 11
20.7498134414
 21
0.9757066966
  0
LINE
  5
22C
100
AcDbEntity
  8
0
100
AcDbLine
 62
7
  6
CONTINUOUS
 10
20.7486811426
 20
1.2338708068
 11
20.7486811426
 21
1.3640851607
  0
LINE
  5
22D
100
AcDbEntity
  8
0
100
AcDbLine
 62
7
  6
CONTINUOUS
 10
21.0702539817
 20
1.2701043662
 11
21.4790138229
 21
1.3448360823
  0
LINE
  5
22E
100
AcDbEntity
  8
0
100
AcDbLine
 62
7
  6
CONTINUOUS
 10
21.4790138229
 20
1.3448360823
 11
21.4790138229
 21
0.9779712941
  0
LINE
  5
22F
100
AcDbEntity
  8
0
100
AcDbLine
 62
7
  6
CONTINUOUS
 10
21.4790138229
 20
0.9779712941
 11
21.069121683
 21
1.0617614
  0
LINE
  5
230
100
AcDbEntity
  8
0
100
AcDbLine
 62
7
  6
CONTINUOUS
 10
21.0702539817
 20
1.2701043662
 11
21.069121683
 21
1.0617614
  0
LINE
  5
231
100
AcDbEntity
  8
0
100
AcDbLine
 62
7
  6
CONTINUOUS
 10
21.4790138229
 20
1.1693297793
 11
21.3159628059
 21
1.1693297793
  0
LINE
  5
232
100
AcDbEntity
  8
0
100
AcDbLine
 62
7
  6
CONTINUOUS
 10
21.2876553377
 20
1.1693297793
 11
21.2502894796
 21
1.1693297793
  0
LINE
  5
233
100
AcDbEntity
  8
0
100
AcDbLine
 62
7
  6
CONTINUOUS
 10
21.2208497126
 20
1.1659328831
 11
21.0713862804
 21
1.1659328831
  0
LINE
  5
234
100
AcDbEntity
  8
0
100
AcDbLine
 62
7
  6
CONTINUOUS
 10
20.4796138713
 20
1.5284908897
 11
20.4766766948
 21
0.9294458646
  0
ENDBLK
  5
235
100
AcDbEntity
  8
0
  6
BYBLOCK
 62
0
100
AcDbBlockEnd
  0
BLOCK
  5
236
100
AcDbEntity
  8
0
100
AcDbBlockBegin
  2
*T1
 70
1
 10
0.0
 20
0.0
  3
*T1
  1

  0
LINE
  5
237
100
AcDbEntity
  8
0
100
AcDbLine
 62
2
  6
CONTINUOUS
 10
9.275
 20
0.0
 11
-0.0
 21
0.0
  0
LINE
  5
238
100
AcDbEntity
  8
0
100
AcDbLine
 62
2
  6
CONTINUOUS
 10
9.275
 20
0.0
 11
9.275
 21
1.25
  0
LINE
  5
239
100
AcDbEntity
  8
0
100
AcDbLine
 62
2
  6
CONTINUOUS
 10
9.275
 20
0.625
 11
-0.0
 21
0.625
  0
LINE
  5
23A
100
AcDbEntity
  8
0
100
AcDbLine
 62
2
  6
CONTINUOUS
 10
9.275
 20
1.25
 11
-0.0
 21
1.25
  0
LINE
  5
23B
100
AcDbEntity
  8
0
100
AcDbLine
 62
2
  6
CONTINUOUS
 10
6.8
 20
0.0
 11
6.8
 21
1.25
  0
LINE
  5
23C
100
AcDbEntity
  8
0
100
AcDbLine
 62
2
  6
CONTINUOUS
 10
6.4
 20
0.0
 11
6.4
 21
0.625
  0
LINE
  5
23D
100
AcDbEntity
  8
0
100
AcDbLine
 62
2
  6
CONTINUOUS
 10
5.9
 20
0.0
 11
5.9
 21
0.625
  0
LINE
  5
23E
100
AcDbEntity
  8
0
100
AcDbLine
 62
2
  6
CONTINUOUS
 10
5.2
 20
0.0
 11
5.2
 21
0.625
  0
LINE
  5
23F
100
AcDbEntity
  8
0
100
AcDbLine
 62
2
  6
CONTINUOUS
 10
4.1
 20
0.0
 11
4.1
 21
1.25
  0
LINE
  5
240
100
AcDbEntity
  8
0
100
AcDbLine
 62
2
  6
CONTINUOUS
 10
-0.0
 20
0.0
 11
-0.0
 21
1.25
  0
MTEXT
  5
241
100
AcDbEntity
  8
0
100
AcDbMText
 62
2
  6
CONTINUOUS
  7
STANDARD
 71
2
 72
1
 10
6.6
 20
0.325
 30
0.0
 11
1.0
 21
0.0
 31
0.0
 44
0.9
  1
2
 40
0.125
 41
0.2
  0
MTEXT
  5
242
100
AcDbEntity
  8
0
100
AcDbMText
 62
2
  6
CONTINUOUS
  7
STANDARD
 71
2
 72
1
 10
6.15
 20
0.325
 30
0.0
 11
1.0
 21
0.0
 31
0.0
 44
0.9
  1
C
 40
0.125
 41
0.2
  0
MTEXT
  5
243
100
AcDbEntity
  8
0
100
AcDbMText
 62
2
  6
CONTINUOUS
  7
STANDARD
 71
2
 72
1
 10
5.55
 20
0.325
 30
0.0
 11
1.0
 21
0.0
 31
0.0
 44
0.9
  1
1.000
 40
0.125
 41
1.0
  0
MTEXT
  5
244
100
AcDbEntity
  8
0
100
AcDbMText
 62
2
  6
CONTINUOUS
  7
STANDARD
 71
2
 72
1
 10
4.65
 20
0.325
 30
0.0
 11
1.0
 21
0.0
 31
0.0
 44
0.9
  1
Sep-12-19
 40
0.125
 41
1.8
  0
MTEXT
  5
245
100
AcDbEntity
  8
0
100
AcDbMText
 62
2
  6
CONTINUOUS
  7
STANDARD
 71
2
 72
1
 10
2.05
 20
0.4625
 30
0.0
 11
1.0
 21
0.0
 31
0.0
 44
0.9
  1
T-21A Line mount\P(See Technical Data for Body Features)
 40
0.125
 41
7.6
  0
MTEXT
  5
246
100
AcDbEntity
  8
0
100
AcDbMText
 62
2
  6
CONTINUOUS
  7
STANDARD
 71
1
 72
1
 10
6.45
 20
0.5625
 30
0.0
 11
1.0
 21
0.0
 31
0.0
 44
0.9
  1
SHEET
 40
0.06
 41
0.48
  0
MTEXT
  5
247
100
AcDbEntity
  8
0
100
AcDbMText
 62
2
  6
CONTINUOUS
  7
STANDARD
 71
1
 72
1
 10
5.95
 20
0.5625
 30
0.0
 11
1.0
 21
0.0
 31
0.0
 44
0.9
  1
DWG SIZE
 40
0.06
 41
0.768
  0
MTEXT
  5
248
100
AcDbEntity
  8
0
100
AcDbMText
 62
2
  6
CONTINUOUS
  7
STANDARD
 71
1
 72
1
 10
5.25
 20
0.5625
 30
0.0
 11
1.0
 21
0.0
 31
0.0
 44
0.9
  1
SCALE
 40
0.06
 41
0.48
  0
MTEXT
  5
249
100
AcDbEntity
  8
0
100
AcDbMText
 62
2
  6
CONTINUOUS
  7
STANDARD
 71
1
 72
1
 10
4.15
 20
0.5625
 30
0.0
 11
1.0
 21
0.0
 31
0.0
 44
0.9
  1
DATE
 40
0.06
 41
0.384
  0
MTEXT
  5
24A
100
AcDbEntity
  8
0
100
AcDbMText
 62
2
  6
CONTINUOUS
  7
STANDARD
 71
1
 72
1
 10
0.05
 20
0.5625
 30
0.0
 11
1.0
 21
0.0
 31
0.0
 44
0.9
  1
DESCRIPTION
 40
0.06
 41
1.056
  0
MTEXT
  5
24B
100
AcDbEntity
  8
0
100
AcDbMText
 62
2
  6
CONTINUOUS
  7
STANDARD
 71
2
 72
1
 10
5.45
 20
1.0375
 30
0.0
 11
1.0
 21
0.0
 31
0.0
 44
0.9
  1
ALL DIMENSIONS IN INCH\PVIEWS ARE THIRD ANGLE
 40
0.12
 41
4.224
  0
MTEXT
  5
24C
100
AcDbEntity
  8
0
100
AcDbMText
 62
2
  6
CONTINUOUS
  7
STANDARD
 71
2
 72
1
 10
2.05
 20
0.95
 30
0.0
 11
1.0
 21
0.0
 31
0.0
 44
0.9
  1
M4V
 40
0.125
 41
0.6
  0
MTEXT
  5
24D
100
AcDbEntity
  8
0
100
AcDbMText
 62
2
  6
CONTINUOUS
  7
STANDARD
 71
1
 72
1
 10
0.05
 20
1.1875
 30
0.0
 11
1.0
 21
0.0
 31
0.0
 44
0.9
  1
MODEL
 40
0.06
 41
0.48
  0
ENDBLK
  5
24E
100
AcDbEntity
  8
0
  6
BYBLOCK
 62
0
100
AcDbBlockEnd
  0
BLOCK
  5
24F
100
AcDbEntity
  8
0
100
AcDbBlockBegin
  2
*T2
 70
1
 10
0.0
 20
0.0
  3
*T2
  1

  0
LINE
  5
250
100
AcDbEntity
  8
0
100
AcDbLine
 62
2
  6
CONTINUOUS
 10
0.0
 20
0.0
 11
9.055
 21
0.0
  0
LINE
  5
251
100
AcDbEntity
  8
0
100
AcDbLine
 62
2
  6
CONTINUOUS
 10
0.0
 20
0.0
 11
0.0
 21
-2.594
  0
LINE
  5
252
100
AcDbEntity
  8
0
100
AcDbLine
 62
2
  6
CONTINUOUS
 10
0.0
 20
-0.344
 11
9.055
 21
-0.344
  0
LINE
  5
253
100
AcDbEntity
  8
0
100
AcDbLine
 62
2
  6
CONTINUOUS
 10
0.0
 20
-0.594
 11
9.055
 21
-0.594
  0
LINE
  5
254
100
AcDbEntity
  8
0
100
AcDbLine
 62
2
  6
CONTINUOUS
 10
0.0
 20
-0.844
 11
9.055
 21
-0.844
  0
LINE
  5
255
100
AcDbEntity
  8
0
100
AcDbLine
 62
2
  6
CONTINUOUS
 10
0.0
 20
-1.094
 11
9.055
 21
-1.094
  0
LINE
  5
256
100
AcDbEntity
  8
0
100
AcDbLine
 62
2
  6
CONTINUOUS
 10
0.0
 20
-1.344
 11
9.055
 21
-1.344
  0
LINE
  5
257
100
AcDbEntity
  8
0
100
AcDbLine
 62
2
  6
CONTINUOUS
 10
0.0
 20
-1.594
 11
9.055
 21
-1.594
  0
LINE
  5
258
100
AcDbEntity
  8
0
100
AcDbLine
 62
2
  6
CONTINUOUS
 10
0.0
 20
-1.844
 11
9.055
 21
-1.844
  0
LINE
  5
259
100
AcDbEntity
  8
0
100
AcDbLine
 62
2
  6
CONTINUOUS
 10
0.0
 20
-2.094
 11
9.055
 21
-2.094
  0
LINE
  5
25A
100
AcDbEntity
  8
0
100
AcDbLine
 62
2
  6
CONTINUOUS
 10
0.0
 20
-2.344
 11
9.055
 21
-2.344
  0
LINE
  5
25B
100
AcDbEntity
  8
0
100
AcDbLine
 62
2
  6
CONTINUOUS
 10
0.0
 20
-2.594
 11
9.055
 21
-2.594
  0
LINE
  5
25C
100
AcDbEntity
  8
0
100
AcDbLine
 62
2
  6
CONTINUOUS
 10
3.055
 20
0.0
 11
3.055
 21
-2.594
  0
LINE
  5
25D
100
AcDbEntity
  8
0
100
AcDbLine
 62
2
  6
CONTINUOUS
 10
9.055
 20
0.0
 11
9.055
 21
-2.594
  0
MTEXT
  5
25E
100
AcDbEntity
  8
0
100
AcDbMText
 62
2
  6
CONTINUOUS
  7
STANDARD
 71
2
 72
1
 10
1.5275
 20
-0.0995
 30
0.0
 11
1.0
 21
0.0
 31
0.0
 44
0.9
  1
Technical Data
 40
0.145
 41
3.248
  0
MTEXT
  5
25F
100
AcDbEntity
  8
0
100
AcDbMText
 62
2
  6
CONTINUOUS
  7
STANDARD
 71
2
 72
1
 10
4.555
 20
-0.0995
 30
0.0
 11
1.0
 21
0.0
 31
0.0
 44
0.9
  1
U.S. Units
 40
0.145
 41
2.32
  0
MTEXT
  5
260
100
AcDbEntity
  8
0
100
AcDbMText
 62
2
  6
CONTINUOUS
  7
STANDARD
 71
2
 72
1
 10
7.555
 20
-0.0995
 30
0.0
 11
1.0
 21
0.0
 31
0.0
 44
0.9
  1
Metric Units
 40
0.145
 41
2.784
  0
MTEXT
  5
261
100
AcDbEntity
  8
0
100
AcDbMText
 62
2
  6
CONTINUOUS
  7
STANDARD
 71
2
 72
1
 10
1.5275
 20
-0.4065
 30
0.0
 11
1.0
 21
0.0
 31
0.0
 44
0.9
  1
Cavity
 40
0.125
 41
1.2
  0
MTEXT
  5
262
100
AcDbEntity
  8
0
100
AcDbMText
 62
2
  6
CONTINUOUS
  7
STANDARD
 71
2
 72
1
 10
6.055
 20
-0.4065
 30
0.0
 11
1.0
 21
0.0
 31
0.0
 44
0.9
  1
T-21A
 40
0.125
 41
1.0
  0
MTEXT
  5
263
100
AcDbEntity
  8
0
100
AcDbMText
 62
2
  6
CONTINUOUS
  7
STANDARD
 71
2
 72
1
 10
1.5275
 20
-0.6565
 30
0.0
 11
1.0
 21
0.0
 31
0.0
 44
0.9
  1
Body Features
 40
0.125
 41
2.6
  0
MTEXT
  5
264
100
AcDbEntity
  8
0
100
AcDbMText
 62
2
  6
CONTINUOUS
  7
STANDARD
 71
2
 72
1
 10
6.055
 20
-0.6565
 30
0.0
 11
1.0
 21
0.0
 31
0.0
 44
0.9
  1
Ninety degree with reverse flow check - reducing
 40
0.125
 41
9.6
  0
MTEXT
  5
265
100
AcDbEntity
  8
0
100
AcDbMText
 62
2
  6
CONTINUOUS
  7
STANDARD
 71
2
 72
1
 10
1.5275
 20
-0.9065
 30
0.0
 11
1.0
 21
0.0
 31
0.0
 44
0.9
  1
Body Type
 40
0.125
 41
1.8
  0
MTEXT
  5
266
100
AcDbEntity
  8
0
100
AcDbMText
 62
2
  6
CONTINUOUS
  7
STANDARD
 71
2
 72
1
 10
6.055
 20
-0.9065
 30
0.0
 11
1.0
 21
0.0
 31
0.0
 44
0.9
  1
Line mount
 40
0.125
 41
2.0
  0
MTEXT
  5
267
100
AcDbEntity
  8
0
100
AcDbMText
 62
2
  6
CONTINUOUS
  7
STANDARD
 71
2
 72
1
 10
1.5275
 20
-1.1565
 30
0.0
 11
1.0
 21
0.0
 31
0.0
 44
0.9
  1
Interface
 40
0.125
 41
1.8
  0
MTEXT
  5
268
100
AcDbEntity
  8
0
100
AcDbMText
 62
2
  6
CONTINUOUS
  7
STANDARD
 71
2
 72
1
 10
6.055
 20
-1.1565
 30
0.0
 11
1.0
 21
0.0
 31
0.0
 44
0.9
  1
None
 40
0.125
 41
0.8
  0
MTEXT
  5
269
100
AcDbEntity
  8
0
100
AcDbMText
 62
2
  6
CONTINUOUS
  7
STANDARD
 71
2
 72
1
 10
1.5275
 20
-1.4065
 30
0.0
 11
1.0
 21
0.0
 31
0.0
 44
0.9
  1
Open Cavity Quantity
 40
0.125
 41
4.0
  0
MTEXT
  5
26A
100
AcDbEntity
  8
0
100
AcDbMText
 62
2
  6
CONTINUOUS
  7
STANDARD
 71
2
 72
1
 10
6.055
 20
-1.4065
 30
0.0
 11
1.0
 21
0.0
 31
0.0
 44
0.9
  1
1
 40
0.125
 41
0.2
  0
MTEXT
  5
26B
100
AcDbEntity
  8
0
100
AcDbMText
 62
2
  6
CONTINUOUS
  7
STANDARD
 71
2
 72
1
 10
1.5275
 20
-1.6565
 30
0.0
 11
1.0
 21
0.0
 31
0.0
 44
0.9
  1
Weight
 40
0.125
 41
1.2
  0
MTEXT
  5
26C
100
AcDbEntity
  8
0
100
AcDbMText
 62
2
  6
CONTINUOUS
  7
STANDARD
 71
2
 72
1
 10
4.555
 20
-1.6565
 30
0.0
 11
1.0
 21
0.0
 31
0.0
 44
0.9
  1
1.326 lb.
 40
0.125
 41
1.8
  0
MTEXT
  5
26D
100
AcDbEntity
  8
0
100
AcDbMText
 62
2
  6
CONTINUOUS
  7
STANDARD
 71
2
 72
1
 10
7.555
 20
-1.6565
 30
0.0
 11
1.0
 21
0.0
 31
0.0
 44
0.9
  1
0,601 kg.
 40
0.125
 41
1.8
  0
MTEXT
  5
26E
100
AcDbEntity
  8
0
100
AcDbMText
 62
2
  6
CONTINUOUS
  7
STANDARD
 71
2
 72
1
 10
1.5275
 20
-1.9065
 30
0.0
 11
1.0
 21
0.0
 31
0.0
 44
0.9
  1
Mounting Hole Diameter
 40
0.125
 41
4.4
  0
MTEXT
  5
26F
100
AcDbEntity
  8
0
100
AcDbMText
 62
2
  6
CONTINUOUS
  7
STANDARD
 71
2
 72
1
 10
4.555
 20
-1.9065
 30
0.0
 11
1.0
 21
0.0
 31
0.0
 44
0.9
  1
.34 in.
 40
0.125
 41
1.4
  0
MTEXT
  5
270
100
AcDbEntity
  8
0
100
AcDbMText
 62
2
  6
CONTINUOUS
  7
STANDARD
 71
2
 72
1
 10
7.555
 20
-1.9065
 30
0.0
 11
1.0
 21
0.0
 31
0.0
 44
0.9
  1
8.6 mm
 40
0.125
 41
1.2
  0
MTEXT
  5
271
100
AcDbEntity
  8
0
100
AcDbMText
 62
2
  6
CONTINUOUS
  7
STANDARD
 71
2
 72
1
 10
1.5275
 20
-2.1565
 30
0.0
 11
1.0
 21
0.0
 31
0.0
 44
0.9
  1
Mounting Hole Depth
 40
0.125
 41
3.8
  0
MTEXT
  5
272
100
AcDbEntity
  8
0
100
AcDbMText
 62
2
  6
CONTINUOUS
  7
STANDARD
 71
2
 72
1
 10
6.055
 20
-2.1565
 30
0.0
 11
1.0
 21
0.0
 31
0.0
 44
0.9
  1
Through
 40
0.125
 41
1.4
  0
MTEXT
  5
273
100
AcDbEntity
  8
0
100
AcDbMText
 62
2
  6
CONTINUOUS
  7
STANDARD
 71
2
 72
1
 10
1.5275
 20
-2.4065
 30
0.0
 11
1.0
 21
0.0
 31
0.0
 44
0.9
  1
Mounting Hole Quantity
 40
0.125
 41
4.4
  0
MTEXT
  5
274
100
AcDbEntity
  8
0
100
AcDbMText
 62
2
  6
CONTINUOUS
  7
STANDARD
 71
2
 72
1
 10
6.055
 20
-2.4065
 30
0.0
 11
1.0
 21
0.0
 31
0.0
 44
0.9
  1
2
 40
0.125
 41
0.2
  0
ENDBLK
  5
275
100
AcDbEntity
  8
0
  6
BYBLOCK
 62
0
100
AcDbBlockEnd
  0
BLOCK
  5
276
100
AcDbEntity
  8
0
100
AcDbBlockBegin
  2
*T3
 70
1
 10
0.0
 20
0.0
  3
*T3
  1

  0
LINE
  5
277
100
AcDbEntity
  8
0
100
AcDbLine
 62
2
  6
CONTINUOUS
 10
0.0
 20
0.0
 11
4.6
 21
0.0
  0
LINE
  5
278
100
AcDbEntity
  8
0
100
AcDbLine
 62
2
  6
CONTINUOUS
 10
0.0
 20
0.0
 11
0.0
 21
-1.68775
  0
LINE
  5
279
100
AcDbEntity
  8
0
100
AcDbLine
 62
2
  6
CONTINUOUS
 10
0.0
 20
-0.34375
 11
4.6
 21
-0.34375
  0
LINE
  5
27A
100
AcDbEntity
  8
0
100
AcDbLine
 62
2
  6
CONTINUOUS
 10
0.0
 20
-0.68775
 11
4.6
 21
-0.68775
  0
LINE
  5
27B
100
AcDbEntity
  8
0
100
AcDbLine
 62
2
  6
CONTINUOUS
 10
0.0
 20
-0.93775
 11
4.6
 21
-0.93775
  0
LINE
  5
27C
100
AcDbEntity
  8
0
100
AcDbLine
 62
2
  6
CONTINUOUS
 10
0.0
 20
-1.18775
 11
4.6
 21
-1.18775
  0
LINE
  5
27D
100
AcDbEntity
  8
0
100
AcDbLine
 62
2
  6
CONTINUOUS
 10
0.0
 20
-1.43775
 11
4.6
 21
-1.43775
  0
LINE
  5
27E
100
AcDbEntity
  8
0
100
AcDbLine
 62
2
  6
CONTINUOUS
 10
0.0
 20
-1.68775
 11
4.6
 21
-1.68775
  0
LINE
  5
27F
100
AcDbEntity
  8
0
100
AcDbLine
 62
2
  6
CONTINUOUS
 10
1.3
 20
-0.34375
 11
1.3
 21
-1.68775
  0
LINE
  5
280
100
AcDbEntity
  8
0
100
AcDbLine
 62
2
  6
CONTINUOUS
 10
3.3
 20
-0.34375
 11
3.3
 21
-1.68775
  0
LINE
  5
281
100
AcDbEntity
  8
0
100
AcDbLine
 62
2
  6
CONTINUOUS
 10
4.6
 20
0.0
 11
4.6
 21
-1.68775
  0
MTEXT
  5
282
100
AcDbEntity
  8
0
100
AcDbMText
 62
2
  6
CONTINUOUS
  7
STANDARD
 71
2
 72
1
 10
2.3
 20
-0.099375
 30
0.0
 11
1.0
 21
0.0
 31
0.0
 44
0.9
  1
Port Headings
 40
0.145
 41
3.016
  0
MTEXT
  5
283
100
AcDbEntity
  8
0
100
AcDbMText
 62
2
  6
CONTINUOUS
  7
STANDARD
 71
2
 72
1
 10
0.65
 20
-0.44325
 30
0.0
 11
1.0
 21
0.0
 31
0.0
 44
0.9
  1
Product
 40
0.145
 41
1.624
  0
MTEXT
  5
284
100
AcDbEntity
  8
0
100
AcDbMText
 62
2
  6
CONTINUOUS
  7
STANDARD
 71
2
 72
1
 10
2.3
 20
-0.44325
 30
0.0
 11
1.0
 21
0.0
 31
0.0
 44
0.9
  1
Port
 40
0.145
 41
0.928
  0
MTEXT
  5
285
100
AcDbEntity
  8
0
100
AcDbMText
 62
2
  6
CONTINUOUS
  7
STANDARD
 71
2
 72
1
 10
3.95
 20
-0.44325
 30
0.0
 11
1.0
 21
0.0
 31
0.0
 44
0.9
  1
Size
 40
0.145
 41
0.928
  0
MTEXT
  5
286
100
AcDbEntity
  8
0
100
AcDbMText
 62
2
  6
CONTINUOUS
  7
STANDARD
 71
2
 72
1
 10
0.65
 20
-0.75025
 30
0.0
 11
1.0
 21
0.0
 31
0.0
 44
0.9
  1
M4V
 40
0.125
 41
0.6
  0
MTEXT
  5
287
100
AcDbEntity
  8
0
100
AcDbMText
 62
2
  6
CONTINUOUS
  7
STANDARD
 71
2
 72
1
 10
2.3
 20
-0.75025
 30
0.0
 11
1.0
 21
0.0
 31
0.0
 44
0.9
  1
Ports 1 &  2
 40
0.125
 41
2.4
  0
MTEXT
  5
288
100
AcDbEntity
  8
0
100
AcDbMText
 62
2
  6
CONTINUOUS
  7
STANDARD
 71
2
 72
1
 10
3.95
 20
-0.75025
 30
0.0
 11
1.0
 21
0.0
 31
0.0
 44
0.9
  1
1/2" BSPP
 40
0.125
 41
1.8
  0
MTEXT
  5
289
100
AcDbEntity
  8
0
100
AcDbMText
 62
2
  6
CONTINUOUS
  7
STANDARD
 71
2
 72
1
 10
0.65
 20
-1.00025
 30
0.0
 11
1.0
 21
0.0
 31
0.0
 44
0.9
  1
M4V
 40
0.125
 41
0.6
  0
MTEXT
  5
28A
100
AcDbEntity
  8
0
100
AcDbMText
 62
2
  6
CONTINUOUS
  7
STANDARD
 71
2
 72
1
 10
2.3
 20
-1.00025
 30
0.0
 11
1.0
 21
0.0
 31
0.0
 44
0.9
  1
Port 3
 40
0.125
 41
1.2
  0
MTEXT
  5
28B
100
AcDbEntity
  8
0
100
AcDbMText
 62
2
  6
CONTINUOUS
  7
STANDARD
 71
2
 72
1
 10
3.95
 20
-1.00025
 30
0.0
 11
1.0
 21
0.0
 31
0.0
 44
0.9
  1
3/8" BSPP
 40
0.125
 41
1.8
  0
MTEXT
  5
28C
100
AcDbEntity
  8
0
100
AcDbMText
 62
2
  6
CONTINUOUS
  7
STANDARD
 71
2
 72
1
 10
0.65
 20
-1.25025
 30
0.0
 11
1.0
 21
0.0
 31
0.0
 44
0.9
  1
M4V
 40
0.125
 41
0.6
  0
MTEXT
  5
28D
100
AcDbEntity
  8
0
100
AcDbMText
 62
2
  6
CONTINUOUS
  7
STANDARD
 71
2
 72
1
 10
2.3
 20
-1.25025
 30
0.0
 11
1.0
 21
0.0
 31
0.0
 44
0.9
  1
Port 4
 40
0.125
 41
1.2
  0
MTEXT
  5
28E
100
AcDbEntity
  8
0
100
AcDbMText
 62
2
  6
CONTINUOUS
  7
STANDARD
 71
2
 72
1
 10
3.95
 20
-1.25025
 30
0.0
 11
1.0
 21
0.0
 31
0.0
 44
0.9
  1
1/4" BSPP
 40
0.125
 41
1.8
  0
MTEXT
  5
28F
100
AcDbEntity
  8
0
100
AcDbMText
 62
2
  6
CONTINUOUS
  7
STANDARD
 71
2
 72
1
 10
0.65
 20
-1.50025
 30
0.0
 11
1.0
 21
0.0
 31
0.0
 44
0.9
  1
M4V
 40
0.125
 41
0.6
  0
MTEXT
  5
290
100
AcDbEntity
  8
0
100
AcDbMText
 62
2
  6
CONTINUOUS
  7
STANDARD
 71
2
 72
1
 10
2.3
 20
-1.50025
 30
0.0
 11
1.0
 21
0.0
 31
0.0
 44
0.9
  1
Gage Port
 40
0.125
 41
1.8
  0
MTEXT
  5
291
100
AcDbEntity
  8
0
100
AcDbMText
 62
2
  6
CONTINUOUS
  7
STANDARD
 71
2
 72
1
 10
3.95
 20
-1.50025
 30
0.0
 11
1.0
 21
0.0
 31
0.0
 44
0.9
  1
1/4" BSPP
 40
0.125
 41
1.8
  0
ENDBLK
  5
292
100
AcDbEntity
  8
0
  6
BYBLOCK
 62
0
100
AcDbBlockEnd
  0
ENDSEC
  0
SECTION
  2
ENTITIES
  0
IMAGE
  5
293
100
AcDbEntity
  8
0
100
AcDbRasterImage
 62
7
  6
CONTINUOUS
 10
19.2297077316
 20
0.3094318264
 30
0.0
 11
0.0066666667
 21
0.0
 31
0.0
 12
0.0
 22
0.0066666667
 32
0.0
 13
369.0
 23
92.0
340
       3A9
 70
9
280
0
281
50
282
50
283
0
360
       3A3
 71
1
 91
2
 14
-0.5
 24
-0.5
 14
368.5
 24
91.5
  0
INSERT
  5
294
100
AcDbEntity
  8
0
100
AcDbBlockReference
 62
2
  6
CONTINUOUS
  2
SUN_FIRST_THIRD_ANGLE_BL0
 10
20.4816717061
 20
1.2289683772
  0
ACAD_TABLE
  5
295
100
AcDbEntity
  8
0
 62
2
  6
CONTINUOUS
100
AcDbBlockReference
  2
*T1
 10
12.42375
 20
0.30125
 30
0.0
100
AcDbTable
342
       3AB
343
20F
 11
1.0
 21
0.0
 31
0.0
 90
6
 91
4
 92
6
 93
20
 94
0
 95
0
 96
0
 70
1
 41
0.0
141
0.525
141
0.1
141
0.525
141
0.1
142
4.1
142
1.1
142
0.7
142
0.5
142
0.4
142
2.475
171
1
172
0
173
0
174
0
175
1
176
1
 91
33
178
0
145
0.0
301
CELL_VALUE
 90
4
  1
T-21A Line mount\P(See Technical Data for Body Features)
304
ACVALUE_END
170
2
140
0.125
171
1
172
0
173
0
174
0
175
1
176
1
 91
33
178
0
145
0.0
301
CELL_VALUE
 90
4
  1
Sep-12-19
304
ACVALUE_END
170
5
140
0.125
171
1
172
0
173
0
174
0
175
1
176
1
 91
33
178
0
145
0.0
301
CELL_VALUE
 90
4
  1
1.000
304
ACVALUE_END
170
5
140
0.125
171
1
172
0
173
0
174
0
175
1
176
1
 91
33
178
0
145
0.0
301
CELL_VALUE
 90
4
  1
C
304
ACVALUE_END
170
5
140
0.125
171
1
172
0
173
0
174
0
175
1
176
1
 91
33
178
0
145
0.0
301
CELL_VALUE
 90
4
  1
2
304
ACVALUE_END
170
5
140
0.125
171
1
172
0
173
0
174
0
175
1
176
1
 91
33
178
0
145
0.0
301
CELL_VALUE
 90
4
  1
 
304
ACVALUE_END
170
1
140
0.125
171
1
172
0
173
0
174
0
175
1
176
1
 91
33
178
0
145
0.0
301
CELL_VALUE
 90
4
  1
DESCRIPTION
304
ACVALUE_END
170
1
140
0.06
171
1
172
0
173
0
174
0
175
1
176
1
 91
33
178
0
145
0.0
301
CELL_VALUE
 90
4
  1
DATE
304
ACVALUE_END
170
1
140
0.06
171
1
172
0
173
0
174
0
175
1
176
1
 91
33
178
0
145
0.0
301
CELL_VALUE
 90
4
  1
SCALE
304
ACVALUE_END
170
1
140
0.06
171
1
172
0
173
0
174
0
175
1
176
1
 91
33
178
0
145
0.0
301
CELL_VALUE
 90
4
  1
DWG SIZE
304
ACVALUE_END
170
1
140
0.06
171
1
172
0
173
0
174
0
175
1
176
1
 91
33
178
0
145
0.0
301
CELL_VALUE
 90
4
  1
SHEET
304
ACVALUE_END
170
1
140
0.06
171
1
172
0
173
0
174
0
175
1
176
1
 91
33
178
0
145
0.0
301
CELL_VALUE
 90
4
  1
 
304
ACVALUE_END
170
1
140
0.125
171
1
172
0
173
0
174
0
175
1
176
1
 91
33
178
0
145
0.0
301
CELL_VALUE
 90
4
  1
M4V
304
ACVALUE_END
170
5
140
0.125
171
1
172
0
173
0
174
0
175
4
176
1
 91
33
178
0
145
0.0
301
CELL_VALUE
 90
4
  1
ALL DIMENSIONS IN INCH\PVIEWS ARE THIRD ANGLE
304
ACVALUE_END
170
5
140
0.12
171
1
172
0
173
1
174
0
175
1
176
1
 91
1
178
0
145
0.0
170
1
171
1
172
0
173
1
174
0
175
1
176
1
 91
1
178
0
145
0.0
170
1
171
1
172
0
173
1
174
0
175
1
176
1
 91
1
178
0
145
0.0
170
5
171
1
172
0
173
0
174
0
175
1
176
1
 91
33
178
0
145
0.0
301
CELL_VALUE
 90
4
  1
 
304
ACVALUE_END
170
1
140
0.125
171
1
172
0
173
0
174
0
175
1
176
1
 91
33
178
0
145
0.0
301
CELL_VALUE
 90
4
  1
MODEL
304
ACVALUE_END
170
1
140
0.06
171
1
172
0
173
0
174
0
175
1
176
1
 91
33
178
0
145
0.0
301
CELL_VALUE
 90
4
  1
 
304
ACVALUE_END
170
1
140
0.125
171
1
172
0
173
0
174
0
175
1
176
1
 91
33
178
0
145
0.0
301
CELL_VALUE
 90
4
  1
 
304
ACVALUE_END
170
1
140
0.125
171
1
172
0
173
0
174
0
175
1
176
1
 91
33
178
0
145
0.0
301
CELL_VALUE
 90
4
  1
 
304
ACVALUE_END
170
1
140
0.125
171
1
172
0
173
0
174
0
175
1
176
1
 91
33
178
0
145
0.0
301
CELL_VALUE
 90
4
  1
 
304
ACVALUE_END
170
1
140
0.125
171
1
172
0
173
0
174
0
175
1
176
1
 91
33
178
0
145
0.0
301
CELL_VALUE
 90
4
  1
 
304
ACVALUE_END
170
1
140
0.125
  0
ACAD_TABLE
  5
296
100
AcDbEntity
  8
0
 62
2
  6
CONTINUOUS
100
AcDbBlockReference
  2
*T2
 10
12.4237499994
 20
16.47875
 30
0.0
100
AcDbTable
342
       3AA
343
210
 11
1.0
 21
0.0
 31
0.0
 90
22
 91
10
 92
3
 93
16
 94
0
 95
0
 96
0
 41
0.028
141
0.344
141
0.25
141
0.25
141
0.25
141
0.25
141
0.25
141
0.25
141
0.25
141
0.25
141
0.25
142
3.055
142
3.0
142
3.0
171
1
172
0
173
0
174
0
175
1
176
1
 91
33
178
0
145
0.0
301
CELL_VALUE
 90
4
  1
Technical Data
304
ACVALUE_END
170
5
140
0.145
171
1
172
0
173
0
174
0
175
1
176
1
 91
33
178
0
145
0.0
301
CELL_VALUE
 90
4
  1
U.S. Units
304
ACVALUE_END
170
5
140
0.145
171
1
172
0
173
0
174
0
175
1
176
1
 91
33
178
0
145
0.0
301
CELL_VALUE
 90
4
  1
Metric Units
304
ACVALUE_END
170
5
140
0.145
171
1
172
0
173
0
174
0
175
1
176
1
 91
33
178
0
145
0.0
301
CELL_VALUE
 90
4
  1
Cavity
304
ACVALUE_END
170
5
140
0.125
171
1
172
0
173
0
174
0
175
2
176
1
 91
33
178
0
145
0.0
301
CELL_VALUE
 90
4
  1
T-21A
304
ACVALUE_END
170
5
140
0.125
171
1
172
0
173
1
174
0
175
1
176
1
 91
1
178
0
145
0.0
170
1
171
1
172
0
173
0
174
0
175
1
176
1
 91
33
178
0
145
0.0
301
CELL_VALUE
 90
4
  1
Body Features
304
ACVALUE_END
170
5
140
0.125
171
1
172
0
173
0
174
0
175
2
176
1
 91
33
178
0
145
0.0
301
CELL_VALUE
 90
4
  1
Ninety degree with reverse flow check - reducing
304
ACVALUE_END
170
5
140
0.125
171
1
172
0
173
1
174
0
175
1
176
1
 91
1
178
0
145
0.0
170
1
171
1
172
0
173
0
174
0
175
1
176
1
 91
33
178
0
145
0.0
301
CELL_VALUE
 90
4
  1
Body Type
304
ACVALUE_END
170
5
140
0.125
171
1
172
0
173
0
174
0
175
2
176
1
 91
33
178
0
145
0.0
301
CELL_VALUE
 90
4
  1
Line mount
304
ACVALUE_END
170
5
140
0.125
171
1
172
0
173
1
174
0
175
1
176
1
 91
1
178
0
145
0.0
170
1
171
1
172
0
173
0
174
0
175
1
176
1
 91
33
178
0
145
0.0
301
CELL_VALUE
 90
4
  1
Interface
304
ACVALUE_END
170
5
140
0.125
171
1
172
0
173
0
174
0
175
2
176
1
 91
33
178
0
145
0.0
301
CELL_VALUE
 90
4
  1
None
304
ACVALUE_END
170
5
140
0.125
171
1
172
0
173
1
174
0
175
1
176
1
 91
1
178
0
145
0.0
170
1
171
1
172
0
173
0
174
0
175
1
176
1
 91
33
178
0
145
0.0
301
CELL_VALUE
 90
4
  1
Open Cavity Quantity
304
ACVALUE_END
170
5
140
0.125
171
1
172
0
173
0
174
0
175
2
176
1
 91
33
178
0
145
0.0
301
CELL_VALUE
 90
4
  1
1
304
ACVALUE_END
170
5
140
0.125
171
1
172
0
173
1
174
0
175
1
176
1
 91
1
178
0
145
0.0
170
1
171
1
172
0
173
0
174
0
175
1
176
1
 91
33
178
0
145
0.0
301
CELL_VALUE
 90
4
  1
Weight
304
ACVALUE_END
170
5
140
0.125
171
1
172
0
173
0
174
0
175
1
176
1
 91
33
178
0
145
0.0
301
CELL_VALUE
 90
4
  1
1.326 lb.
304
ACVALUE_END
170
5
140
0.125
171
1
172
0
173
0
174
0
175
1
176
1
 91
33
178
0
145
0.0
301
CELL_VALUE
 90
4
  1
0,601 kg.
304
ACVALUE_END
170
5
140
0.125
171
1
172
0
173
0
174
0
175
1
176
1
 91
33
178
0
145
0.0
301
CELL_VALUE
 90
4
  1
Mounting Hole Diameter
304
ACVALUE_END
170
5
140
0.125
171
1
172
0
173
0
174
0
175
1
176
1
 91
33
178
0
145
0.0
301
CELL_VALUE
 90
4
  1
.34 in.
304
ACVALUE_END
170
5
140
0.125
171
1
172
0
173
0
174
0
175
1
176
1
 91
33
178
0
145
0.0
301
CELL_VALUE
 90
4
  1
8.6 mm
304
ACVALUE_END
170
5
140
0.125
171
1
172
0
173
0
174
0
175
1
176
1
 91
33
178
0
145
0.0
301
CELL_VALUE
 90
4
  1
Mounting Hole Depth
304
ACVALUE_END
170
5
140
0.125
171
1
172
0
173
0
174
0
175
2
176
1
 91
33
178
0
145
0.0
301
CELL_VALUE
 90
4
  1
Through
304
ACVALUE_END
170
5
140
0.125
171
1
172
0
173
1
174
0
175
1
176
1
 91
1
178
0
145
0.0
170
1
171
1
172
0
173
0
174
0
175
1
176
1
 91
33
178
0
145
0.0
301
CELL_VALUE
 90
4
  1
Mounting Hole Quantity
304
ACVALUE_END
170
5
140
0.125
171
1
172
0
173
0
174
0
175
2
176
1
 91
33
178
0
145
0.0
301
CELL_VALUE
 90
4
  1
2
304
ACVALUE_END
170
5
140
0.125
171
1
172
0
173
1
174
0
175
1
176
1
 91
1
178
0
145
0.0
170
1
  0
ACAD_TABLE
  5
297
100
AcDbEntity
  8
0
 62
2
  6
CONTINUOUS
100
AcDbBlockReference
  2
*T3
 10
0.52125
 20
2.209
 30
0.0
100
AcDbTable
342
       3AA
343
211
 11
1.0
 21
0.0
 31
0.0
 90
22
 91
6
 92
3
 93
16
 94
0
 95
0
 96
0
 41
0.05
141
0.34375
141
0.344
141
0.25
141
0.25
141
0.25
141
0.25
142
1.3
142
2.0
142
1.3
171
1
172
0
173
0
174
0
175
3
176
1
 91
33
178
0
145
0.0
301
CELL_VALUE
 90
4
  1
Port Headings
304
ACVALUE_END
170
5
140
0.145
171
1
172
0
173
1
174
0
175
1
176
1
 91
1
178
0
145
0.0
170
1
171
1
172
0
173
1
174
0
175
1
176
1
 91
1
178
0
145
0.0
170
1
171
1
172
0
173
0
174
0
175
1
176
1
 91
33
178
0
145
0.0
301
CELL_VALUE
 90
4
  1
Product
304
ACVALUE_END
170
5
140
0.145
171
1
172
0
173
0
174
0
175
1
176
1
 91
33
178
0
145
0.0
301
CELL_VALUE
 90
4
  1
Port
304
ACVALUE_END
170
5
140
0.145
171
1
172
0
173
0
174
0
175
1
176
1
 91
33
178
0
145
0.0
301
CELL_VALUE
 90
4
  1
Size
304
ACVALUE_END
170
5
140
0.145
171
1
172
0
173
0
174
0
175
1
176
1
 91
33
178
0
145
0.0
301
CELL_VALUE
 90
4
  1
M4V
304
ACVALUE_END
170
5
140
0.125
171
1
172
0
173
0
174
0
175
1
176
1
 91
33
178
0
145
0.0
301
CELL_VALUE
 90
4
  1
Ports 1 &  2
304
ACVALUE_END
170
5
140
0.125
171
1
172
0
173
0
174
0
175
1
176
1
 91
33
178
0
145
0.0
301
CELL_VALUE
 90
4
  1
1/2" BSPP
304
ACVALUE_END
170
5
140
0.125
171
1
172
0
173
0
174
0
175
1
176
1
 91
33
178
0
145
0.0
301
CELL_VALUE
 90
4
  1
M4V
304
ACVALUE_END
170
5
140
0.125
171
1
172
0
173
0
174
0
175
1
176
1
 91
33
178
0
145
0.0
301
CELL_VALUE
 90
4
  1
Port 3
304
ACVALUE_END
170
5
140
0.125
171
1
172
0
173
0
174
0
175
1
176
1
 91
33
178
0
145
0.0
301
CELL_VALUE
 90
4
  1
3/8" BSPP
304
ACVALUE_END
170
5
140
0.125
171
1
172
0
173
0
174
0
175
1
176
1
 91
33
178
0
145
0.0
301
CELL_VALUE
 90
4
  1
M4V
304
ACVALUE_END
170
5
140
0.125
171
1
172
0
173
0
174
0
175
1
176
1
 91
33
178
0
145
0.0
301
CELL_VALUE
 90
4
  1
Port 4
304
ACVALUE_END
170
5
140
0.125
171
1
172
0
173
0
174
0
175
1
176
1
 91
33
178
0
145
0.0
301
CELL_VALUE
 90
4
  1
1/4" BSPP
304
ACVALUE_END
170
5
140
0.125
171
1
172
0
173
0
174
0
175
1
176
1
 91
33
178
0
145
0.0
301
CELL_VALUE
 90
4
  1
M4V
304
ACVALUE_END
170
5
140
0.125
171
1
172
0
173
0
174
0
175
1
176
1
 91
33
178
0
145
0.0
301
CELL_VALUE
 90
4
  1
Gage Port
304
ACVALUE_END
170
5
140
0.125
171
1
172
0
173
0
174
0
175
1
176
1
 91
33
178
0
145
0.0
301
CELL_VALUE
 90
4
  1
1/4" BSPP
304
ACVALUE_END
170
5
140
0.125
  0
MTEXT
  5
298
100
AcDbEntity
  8
0
100
AcDbMText
 62
2
  6
CONTINUOUS
  7
STANDARD
 71
1
 72
1
 10
0.52125
 20
5.75995
 30
0.0
 11
1.0
 21
0.0
 31
0.0
 44
0.6
  3
Notes\P \P1. Important: Carefully consider\P   the maximum system pressure. The\P   pressure rating of the manifold is\P   dependent on the manifold material,\P   with the port type/size a secondary\P   consideration. Manifolds\P   constructed of alu
  1
minum are not\P   rated for pressures higher than\P   3000 psi (210 bar), regardless of\P   the port type/size specified.
 40
0.1
 41
3.04
  0
LINE
  5
299
100
AcDbEntity
  8
0
100
AcDbLine
 62
7
  6
CONTINUOUS
 10
0.30125
 20
0.30125
 11
0.30125
 21
16.69875
  0
LINE
  5
29A
100
AcDbEntity
  8
0
100
AcDbLine
 62
7
  6
CONTINUOUS
 10
0.30125
 20
0.30125
 11
21.69875
 21
0.30125
  0
LINE
  5
29B
100
AcDbEntity
  8
0
100
AcDbLine
 62
7
  6
CONTINUOUS
 10
0.30125
 20
16.69875
 11
21.69875
 21
16.69875
  0
LINE
  5
29C
100
AcDbEntity
  8
0
100
AcDbLine
 62
7
  6
CONTINUOUS
 10
21.69875
 20
0.30125
 11
21.69875
 21
16.69875
  0
LINE
  5
29D
100
AcDbEntity
  8
0
100
AcDbLine
 62
7
  6
CONTINUOUS
 10
9.7128729444
 20
10.9840450073
 11
9.389349405
 21
10.6715452467
  0
LINE
  5
29E
100
AcDbEntity
  8
0
100
AcDbLine
 62
7
  6
CONTINUOUS
 10
11.2065145113
 20
6.0836455976
 11
11.2228173394
 21
6.0755923126
  0
LINE
  5
29F
100
AcDbEntity
  8
0
100
AcDbLine
 62
4
  6
CONTINUOUS
 10
9.543897453
 20
9.6610940118
 11
9.536653009
 21
9.6519371594
  0
LINE
  5
2A0
100
AcDbEntity
  8
0
100
AcDbLine
 62
4
  6
CONTINUOUS
 10
9.5511418969
 20
9.6026360562
 11
9.536653009
 21
9.584322347
  0
LINE
  5
2A1
100
AcDbEntity
  8
0
100
AcDbLine
 62
4
  6
CONTINUOUS
 10
9.4931863452
 20
9.6839293586
 11
9.5076752332
 21
9.6925838071
  0
LINE
  5
2A2
100
AcDbEntity
  8
0
100
AcDbLine
 62
7
  6
CONTINUOUS
 10
9.389349405
 20
6.6871009772
 11
12.2871270556
 21
6.4861394146
  0
LINE
  5
2A3
100
AcDbEntity
  8
0
100
AcDbLine
 62
7
  6
CONTINUOUS
 10
9.389349405
 20
6.6871009772
 11
9.389349405
 21
10.6715452467
  0
LINE
  5
2A4
100
AcDbEntity
  8
0
100
AcDbLine
 62
4
  6
CONTINUOUS
 10
9.536653009
 20
9.6519371594
 11
9.5221641211
 21
9.643282704
  0
LINE
  5
2A5
100
AcDbEntity
  8
0
100
AcDbLine
 62
4
  6
CONTINUOUS
 10
9.536653009
 20
9.584322347
 11
9.5221641211
 21
9.5756678959
  0
LINE
  5
2A6
100
AcDbEntity
  8
0
100
AcDbLine
 62
4
  6
CONTINUOUS
 10
9.543897453
 20
9.6707532681
 11
9.543897453
 21
9.6610940118
  0
LINE
  5
2A7
100
AcDbEntity
  8
0
100
AcDbLine
 62
4
  6
CONTINUOUS
 10
9.543897453
 20
7.6712867164
 11
9.543897453
 21
7.555375613
  0
LINE
  5
2A8
100
AcDbEntity
  8
0
100
AcDbLine
 62
4
  6
CONTINUOUS
 10
9.5511418969
 20
9.612295316
 11
9.5511418969
 21
9.6026360562
  0
LINE
  5
2A9
100
AcDbEntity
  8
0
100
AcDbLine
 62
4
  6
CONTINUOUS
 10
10.2959398651
 20
9.0804402477
 11
10.3124985949
 21
9.095850624
  0
LINE
  5
2AA
100
AcDbEntity
  8
0
100
AcDbLine
 62
4
  6
CONTINUOUS
 10
10.3373366887
 20
8.9782169929
 11
10.3538954168
 21
8.993627371
  0
LINE
  5
2AB
100
AcDbEntity
  8
0
100
AcDbLine
 62
4
  6
CONTINUOUS
 10
10.2959398651
 20
9.0638815196
 11
10.2959398651
 21
9.0804402477
  0
LINE
  5
2AC
100
AcDbEntity
  8
0
100
AcDbLine
 62
4
  6
CONTINUOUS
 10
10.3538954168
 20
8.993627371
 11
10.3538954168
 21
9.0101861008
  0
LINE
  5
2AD
100
AcDbEntity
  8
0
100
AcDbLine
 62
4
  6
CONTINUOUS
 10
10.387012873
 20
9.0906830412
 11
10.387012873
 21
8.9913306676
  0
LINE
  5
2AE
100
AcDbEntity
  8
0
100
AcDbLine
 62
4
  6
CONTINUOUS
 10
10.4228901335
 20
8.3811372138
 11
10.4228901335
 21
8.4970483173
  0
LINE
  5
2AF
100
AcDbEntity
  8
0
100
AcDbLine
 62
4
  6
CONTINUOUS
 10
10.4284097035
 20
8.9719010578
 11
10.4449684247
 21
8.9873114364
  0
LINE
  5
2B0
100
AcDbEntity
  8
0
100
AcDbLine
 62
4
  6
CONTINUOUS
 10
11.326513728
 20
7.854826314
 11
11.31202484
 21
7.8558311218
  0
LINE
  5
2B1
100
AcDbEntity
  8
0
100
AcDbLine
 62
4
  6
CONTINUOUS
 10
9.4931863452
 20
9.5873367704
 11
9.4859419013
 21
9.5974984332
  0
LINE
  5
2B2
100
AcDbEntity
  8
0
100
AcDbLine
 62
4
  6
CONTINUOUS
 10
10.4449684247
 20
8.9873114364
 11
10.4449684247
 21
9.0866638101
  0
LINE
  5
2B3
100
AcDbEntity
  8
0
100
AcDbLine
 62
4
  6
CONTINUOUS
 10
10.4780858808
 20
8.9684560032
 11
10.4780858808
 21
9.0843671067
  0
LINE
  5
2B4
100
AcDbEntity
  8
0
100
AcDbLine
 62
4
  6
CONTINUOUS
 10
10.4808456783
 20
8.4764703585
 11
10.4808456783
 21
8.3936767129
  0
LINE
  5
2B5
100
AcDbEntity
  8
0
100
AcDbLine
 62
4
  6
CONTINUOUS
 10
10.5360414326
 20
8.9644367721
 11
10.5360414326
 21
9.0803478755
  0
LINE
  5
2B6
100
AcDbEntity
  8
0
100
AcDbLine
 62
4
  6
CONTINUOUS
 10
10.5277620779
 20
8.3738643198
 11
10.5608795341
 21
8.4874787198
  0
LINE
  5
2B7
100
AcDbEntity
  8
0
100
AcDbLine
 62
7
  6
CONTINUOUS
 10
12.2871270556
 20
10.4705836841
 11
12.610650595
 21
10.7830834447
  0
LINE
  5
2B8
100
AcDbEntity
  8
0
100
AcDbLine
 62
7
  6
CONTINUOUS
 10
12.4186273794
 20
10.4025991227
 11
12.4179791963
 21
10.4019845718
  0
LINE
  5
2B9
100
AcDbEntity
  8
0
100
AcDbLine
 62
4
  6
CONTINUOUS
 10
10.8147800529
 20
9.0196204629
 11
10.8313387741
 21
9.0267514792
  0
LINE
  5
2BA
100
AcDbEntity
  8
0
100
AcDbLine
 62
4
  6
CONTINUOUS
 10
10.9720879869
 20
8.9673143004
 11
10.988646708
 21
8.9744453133
  0
LINE
  5
2BB
100
AcDbEntity
  8
0
100
AcDbLine
 62
4
  6
CONTINUOUS
 10
11.319269284
 20
7.9132842696
 11
11.3482470599
 21
7.911274654
  0
LINE
  5
2BC
100
AcDbEntity
  8
0
100
AcDbLine
 62
4
  6
CONTINUOUS
 10
11.31202484
 20
7.9717422252
 11
11.326513728
 21
7.9707374174
  0
LINE
  5
2BD
100
AcDbEntity
  8
0
100
AcDbLine
 62
4
  6
CONTINUOUS
 10
10.3566552143
 20
8.4354068087
 11
10.4008118259
 21
8.4102662315
  0
LINE
  5
2BE
100
AcDbEntity
  8
0
100
AcDbLine
 62
4
  6
CONTINUOUS
 10
10.4642869502
 20
8.4941774383
 11
10.4808456783
 21
8.4764703585
  0
LINE
  5
2BF
100
AcDbEntity
  8
0
100
AcDbLine
 62
4
  6
CONTINUOUS
 10
9.536653009
 20
9.6326186398
 11
9.5511418969
 21
9.612295316
  0
LINE
  5
2C0
100
AcDbEntity
  8
0
100
AcDbLine
 62
4
  6
CONTINUOUS
 10
9.536653009
 20
9.6809149352
 11
9.543897453
 21
9.6707532681
  0
LINE
  5
2C1
100
AcDbEntity
  8
0
100
AcDbLine
 62
4
  6
CONTINUOUS
 10
10.5608795341
 20
8.4874787198
 11
10.593997004
 21
8.369270912
  0
LINE
  5
2C2
100
AcDbEntity
  8
0
100
AcDbLine
 62
4
  6
CONTINUOUS
 10
10.6602318966
 20
8.9558241341
 11
10.6602318966
 21
9.0717352376
  0
LINE
  5
2C3
100
AcDbEntity
  8
0
100
AcDbLine
 62
4
  6
CONTINUOUS
 10
10.6602319163
 20
8.3646775053
 11
10.6602319163
 21
8.4805886087
  0
LINE
  5
2C4
100
AcDbEntity
  8
0
100
AcDbLine
 62
4
  6
CONTINUOUS
 10
10.7099080877
 20
9.0268933584
 11
10.7099080877
 21
8.9523790786
  0
LINE
  5
2C5
100
AcDbEntity
  8
0
100
AcDbLine
 62
4
  6
CONTINUOUS
 10
10.7099081338
 20
8.6162368754
 11
10.7099081338
 21
8.7321479789
  0
LINE
  5
2C6
100
AcDbEntity
  8
0
100
AcDbLine
 62
4
  6
CONTINUOUS
 10
10.7264668286
 20
8.3600840985
 11
10.7264668286
 21
8.4759952019
  0
LINE
  5
2C7
100
AcDbEntity
  8
0
100
AcDbLine
 62
4
  6
CONTINUOUS
 10
10.776143053
 20
8.7275545716
 11
10.776143053
 21
8.6116434682
  0
LINE
  5
2C8
100
AcDbEntity
  8
0
100
AcDbLine
 62
4
  6
CONTINUOUS
 10
10.8147800529
 20
8.953385548
 11
10.8147800529
 21
9.0196204629
  0
LINE
  5
2C9
100
AcDbEntity
  8
0
100
AcDbLine
 62
4
  6
CONTINUOUS
 10
10.8092605092
 20
8.6341848586
 11
10.8340985978
 21
8.7235353409
  0
LINE
  5
2CA
100
AcDbEntity
  8
0
100
AcDbLine
 62
4
  6
CONTINUOUS
 10
10.7595842788
 20
8.9213361412
 11
10.7927017212
 21
9.0294309679
  0
LINE
  5
2CB
100
AcDbEntity
  8
0
100
AcDbLine
 62
4
  6
CONTINUOUS
 10
10.7430255934
 20
8.6636163595
 11
10.776143053
 21
8.7275545716
  0
LINE
  5
2CC
100
AcDbEntity
  8
0
100
AcDbLine
 62
4
  6
CONTINUOUS
 10
10.4808456783
 20
8.3936767129
 11
10.4642869502
 21
8.3782663348
  0
LINE
  5
2CD
100
AcDbEntity
  8
0
100
AcDbLine
 62
4
  6
CONTINUOUS
 10
11.2563461349
 20
8.9889977511
 11
11.2646254678
 21
8.9967029449
  0
LINE
  5
2CE
100
AcDbEntity
  8
0
100
AcDbLine
 62
4
  6
CONTINUOUS
 10
10.4008118259
 20
8.4544228449
 11
10.3566552143
 21
8.4354068087
  0
LINE
  5
2CF
100
AcDbEntity
  8
0
100
AcDbLine
 62
4
  6
CONTINUOUS
 10
11.31202484
 20
7.8558311218
 11
11.2975359521
 21
7.8664951885
  0
LINE
  5
2D0
100
AcDbEntity
  8
0
100
AcDbLine
 62
4
  6
CONTINUOUS
 10
11.326513728
 20
7.9707374174
 11
11.3410026159
 21
7.9600733533
  0
LINE
  5
2D1
100
AcDbEntity
  8
0
100
AcDbLine
 62
4
  6
CONTINUOUS
 10
10.2959398651
 20
8.9893672372
 11
10.30421923
 21
8.9805136964
  0
LINE
  5
2D2
100
AcDbEntity
  8
0
100
AcDbLine
 62
4
  6
CONTINUOUS
 10
10.4780858808
 20
9.0843671067
 11
10.5360414326
 21
8.9644367721
  0
LINE
  5
2D3
100
AcDbEntity
  8
0
100
AcDbLine
 62
4
  6
CONTINUOUS
 10
10.8478975413
 20
8.6066672775
 11
10.8478975413
 21
8.6646228292
  0
LINE
  5
2D4
100
AcDbEntity
  8
0
100
AcDbLine
 62
4
  6
CONTINUOUS
 10
10.8644562164
 20
9.0575722329
 11
10.8644562164
 21
8.9416611295
  0
LINE
  5
2D5
100
AcDbEntity
  8
0
100
AcDbLine
 62
4
  6
CONTINUOUS
 10
10.897573714
 20
8.9393644232
 11
10.897573714
 21
9.0221580705
  0
LINE
  5
2D6
100
AcDbEntity
  8
0
100
AcDbLine
 62
4
  6
CONTINUOUS
 10
10.9003335114
 20
8.3645851329
 11
10.9003335114
 21
8.4473787785
  0
LINE
  5
2D7
100
AcDbEntity
  8
0
100
AcDbLine
 62
4
  6
CONTINUOUS
 10
10.9362107116
 20
9.0111992181
 11
10.9362107116
 21
8.99464049
  0
LINE
  5
2D8
100
AcDbEntity
  8
0
100
AcDbLine
 62
4
  6
CONTINUOUS
 10
10.9720879869
 20
8.9424762057
 11
10.9720879869
 21
8.9673143004
  0
LINE
  5
2D9
100
AcDbEntity
  8
0
100
AcDbLine
 62
4
  6
CONTINUOUS
 10
10.9969260608
 20
8.3578864169
 11
10.9969260608
 21
8.4406800624
  0
LINE
  5
2DA
100
AcDbEntity
  8
0
100
AcDbLine
 62
4
  6
CONTINUOUS
 10
11.0217641504
 20
8.9307517872
 11
11.0217641504
 21
8.9969867064
  0
LINE
  5
2DB
100
AcDbEntity
  8
0
100
AcDbLine
 62
4
  6
CONTINUOUS
 10
10.9334509801
 20
8.6007341264
 11
10.9665684224
 21
8.7143485274
  0
LINE
  5
2DC
100
AcDbEntity
  8
0
100
AcDbLine
 62
4
  6
CONTINUOUS
 10
11.330860463
 20
8.9838301649
 11
11.339139796
 21
8.9915353587
  0
LINE
  5
2DD
100
AcDbEntity
  8
0
100
AcDbLine
 62
4
  6
CONTINUOUS
 10
11.3722572383
 20
8.906445009
 11
11.3805365713
 21
8.9141502002
  0
LINE
  5
2DE
100
AcDbEntity
  8
0
100
AcDbLine
 62
4
  6
CONTINUOUS
 10
10.9003335114
 20
8.4473787785
 11
10.9168922326
 21
8.4627891553
  0
LINE
  5
2DF
100
AcDbEntity
  8
0
100
AcDbLine
 62
4
  6
CONTINUOUS
 10
11.1293958854
 20
8.3321408735
 11
11.0879990548
 21
8.3350117535
  0
LINE
  5
2E0
100
AcDbEntity
  8
0
100
AcDbLine
 62
4
  6
CONTINUOUS
 10
11.0383228913
 20
8.3384568071
 11
11.0134847819
 21
8.3401793358
  0
LINE
  5
2E1
100
AcDbEntity
  8
0
100
AcDbLine
 62
4
  6
CONTINUOUS
 10
10.9500096749
 20
8.3445813495
 11
10.9168922326
 21
8.3468780519
  0
LINE
  5
2E2
100
AcDbEntity
  8
0
100
AcDbLine
 62
4
  6
CONTINUOUS
 10
10.4642869502
 20
8.3782663348
 11
10.4228901335
 21
8.3811372138
  0
LINE
  5
2E3
100
AcDbEntity
  8
0
100
AcDbLine
 62
4
  6
CONTINUOUS
 10
10.7264668286
 20
8.3600840985
 11
10.7761430198
 21
8.3566390429
  0
LINE
  5
2E4
100
AcDbEntity
  8
0
100
AcDbLine
 62
4
  6
CONTINUOUS
 10
11.1928710477
 20
8.3277388561
 11
11.2425472112
 21
8.3242938024
  0
LINE
  5
2E5
100
AcDbEntity
  8
0
100
AcDbLine
 62
4
  6
CONTINUOUS
 10
10.53880123
 20
8.4062162116
 11
10.5829578382
 21
8.4031539404
  0
LINE
  5
2E6
100
AcDbEntity
  8
0
100
AcDbLine
 62
4
  6
CONTINUOUS
 10
11.22598849
 20
8.3916770728
 11
11.1928710477
 21
8.3939737753
  0
LINE
  5
2E7
100
AcDbEntity
  8
0
100
AcDbLine
 62
4
  6
CONTINUOUS
 10
10.7595842986
 20
8.4240223134
 11
10.7264668286
 21
8.4263190177
  0
LINE
  5
2E8
100
AcDbEntity
  8
0
100
AcDbLine
 62
4
  6
CONTINUOUS
 10
10.4228901335
 20
8.4970483173
 11
10.4642869502
 21
8.4941774383
  0
LINE
  5
2E9
100
AcDbEntity
  8
0
100
AcDbLine
 62
4
  6
CONTINUOUS
 10
10.6271144464
 20
8.482885313
 11
10.6933493587
 21
8.4782919063
  0
LINE
  5
2EA
100
AcDbEntity
  8
0
100
AcDbLine
 62
4
  6
CONTINUOUS
 10
10.7264668286
 20
8.4759952019
 11
10.7761430198
 21
8.4725501464
  0
LINE
  5
2EB
100
AcDbEntity
  8
0
100
AcDbLine
 62
4
  6
CONTINUOUS
 10
10.9168922326
 20
8.4627891553
 11
10.9500096749
 21
8.4604924529
  0
LINE
  5
2EC
100
AcDbEntity
  8
0
100
AcDbLine
 62
4
  6
CONTINUOUS
 10
11.0134847819
 20
8.4560904393
 11
11.0383228913
 21
8.4543679105
  0
LINE
  5
2ED
100
AcDbEntity
  8
0
100
AcDbLine
 62
4
  6
CONTINUOUS
 10
11.0879990548
 20
8.4509228569
 11
11.1293958854
 21
8.4480519769
  0
LINE
  5
2EE
100
AcDbEntity
  8
0
100
AcDbLine
 62
4
  6
CONTINUOUS
 10
11.1928710477
 20
8.4436499595
 11
11.2425472112
 21
8.4402049058
  0
LINE
  5
2EF
100
AcDbEntity
  8
0
100
AcDbLine
 62
4
  6
CONTINUOUS
 10
9.5076752332
 20
9.5766727037
 11
9.4931863452
 21
9.5873367704
  0
LINE
  5
2F0
100
AcDbEntity
  8
0
100
AcDbLine
 62
4
  6
CONTINUOUS
 10
10.3538954168
 20
9.0101861008
 11
10.2959398651
 21
9.0638815196
  0
LINE
  5
2F1
100
AcDbEntity
  8
0
100
AcDbLine
 62
4
  6
CONTINUOUS
 10
10.9168922326
 20
8.3468780519
 11
10.9003335114
 21
8.3645851329
  0
LINE
  5
2F2
100
AcDbEntity
  8
0
100
AcDbLine
 62
4
  6
CONTINUOUS
 10
10.387012873
 20
8.9913306676
 11
10.403571601
 21
8.9736235861
  0
LINE
  5
2F3
100
AcDbEntity
  8
0
100
AcDbLine
 62
4
  6
CONTINUOUS
 10
11.0134847819
 20
8.3401793358
 11
10.9969260608
 21
8.3578864169
  0
LINE
  5
2F4
100
AcDbEntity
  8
0
100
AcDbLine
 62
4
  6
CONTINUOUS
 10
10.3456160528
 20
9.0935539205
 11
10.3538954168
 21
9.0847003771
  0
LINE
  5
2F5
100
AcDbEntity
  8
0
100
AcDbLine
 62
4
  6
CONTINUOUS
 10
11.0383228913
 20
8.4543679105
 11
11.0548816125
 21
8.4366608312
  0
LINE
  5
2F6
100
AcDbEntity
  8
0
100
AcDbLine
 62
4
  6
CONTINUOUS
 10
11.2975359521
 20
7.8664951885
 11
11.2830470642
 21
7.8868185132
  0
LINE
  5
2F7
100
AcDbEntity
  8
0
100
AcDbLine
 62
4
  6
CONTINUOUS
 10
11.3410026159
 20
7.9600733533
 11
11.3482470599
 21
7.9499116862
  0
LINE
  5
2F8
100
AcDbEntity
  8
0
100
AcDbLine
 62
4
  6
CONTINUOUS
 10
10.7099081338
 20
8.7321479789
 11
10.7430255934
 21
8.6636163595
  0
LINE
  5
2F9
100
AcDbEntity
  8
0
100
AcDbLine
 62
4
  6
CONTINUOUS
 10
10.7430255577
 20
9.0328760215
 11
10.7678636671
 21
8.9483598455
  0
LINE
  5
2FA
100
AcDbEntity
  8
0
100
AcDbLine
 62
4
  6
CONTINUOUS
 10
10.9003335239
 20
8.7189419332
 11
10.9334509801
 21
8.6007341264
  0
LINE
  5
2FB
100
AcDbEntity
  8
0
100
AcDbLine
 62
4
  6
CONTINUOUS
 10
11.0548815927
 20
9.011248732
 11
11.0548815927
 21
8.9367344497
  0
LINE
  5
2FC
100
AcDbEntity
  8
0
100
AcDbLine
 62
4
  6
CONTINUOUS
 10
11.0548816125
 20
8.4366608312
 11
11.0548816125
 21
8.3538671857
  0
LINE
  5
2FD
100
AcDbEntity
  8
0
100
AcDbLine
 62
4
  6
CONTINUOUS
 10
11.0879990548
 20
8.3350117535
 11
11.0879990548
 21
8.4509228569
  0
LINE
  5
2FE
100
AcDbEntity
  8
0
100
AcDbLine
 62
4
  6
CONTINUOUS
 10
11.1045578115
 20
8.9250100273
 11
11.1045578115
 21
9.0078036746
  0
LINE
  5
2FF
100
AcDbEntity
  8
0
100
AcDbLine
 62
7
  6
CONTINUOUS
 10
11.1245682596
 20
6.5667631409
 11
11.1245682596
 21
6.1854392567
  0
LINE
  5
300
100
AcDbEntity
  8
0
100
AcDbLine
 62
4
  6
CONTINUOUS
 10
11.1376752538
 20
8.9309926898
 11
11.1376752538
 21
9.0386244283
  0
LINE
  5
301
100
AcDbEntity
  8
0
100
AcDbLine
 62
4
  6
CONTINUOUS
 10
11.1459546065
 20
8.4303448977
 11
11.1459546065
 21
8.3475512521
  0
LINE
  5
302
100
AcDbEntity
  8
0
100
AcDbLine
 62
4
  6
CONTINUOUS
 10
11.1928710477
 20
8.3277388561
 11
11.1928710477
 21
8.4436499595
  0
LINE
  5
303
100
AcDbEntity
  8
0
100
AcDbLine
 62
4
  6
CONTINUOUS
 10
11.2121895267
 20
8.9175457425
 11
11.2121895267
 21
9.0003393898
  0
LINE
  5
304
100
AcDbEntity
  8
0
100
AcDbLine
 62
4
  6
CONTINUOUS
 10
11.2121895267
 20
9.0251774784
 11
11.2121895267
 21
9.0334568459
  0
LINE
  5
305
100
AcDbEntity
  8
0
100
AcDbLine
 62
4
  6
CONTINUOUS
 10
11.2149493043
 20
9.0332654547
 11
11.2121895267
 21
9.0251774784
  0
LINE
  5
306
100
AcDbEntity
  8
0
100
AcDbLine
 62
4
  6
CONTINUOUS
 10
12.1562441035
 20
10.1077788694
 11
12.1055329957
 21
10.0243623691
  0
LINE
  5
307
100
AcDbEntity
  8
0
100
AcDbLine
 62
4
  6
CONTINUOUS
 10
10.9969260608
 20
8.4406800624
 11
11.0134847819
 21
8.4560904393
  0
LINE
  5
308
100
AcDbEntity
  8
0
100
AcDbLine
 62
4
  6
CONTINUOUS
 10
11.0548816125
 20
8.3538671857
 11
11.0383228913
 21
8.3384568071
  0
LINE
  5
309
100
AcDbEntity
  8
0
100
AcDbLine
 62
4
  6
CONTINUOUS
 10
11.1459546065
 20
8.3475512521
 11
11.1293958854
 21
8.3321408735
  0
LINE
  5
30A
100
AcDbEntity
  8
0
100
AcDbLine
 62
4
  6
CONTINUOUS
 10
12.1055329957
 20
8.4885402702
 11
12.1634885474
 21
8.484521039
  0
LINE
  5
30B
100
AcDbEntity
  8
0
100
AcDbLine
 62
4
  6
CONTINUOUS
 10
10.867216054
 20
8.630165628
 11
10.8092605092
 21
8.6341848586
  0
LINE
  5
30C
100
AcDbEntity
  8
0
100
AcDbLine
 62
4
  6
CONTINUOUS
 10
12.1272663276
 20
8.6029441619
 11
12.1417552155
 21
8.6019393541
  0
LINE
  5
30D
100
AcDbEntity
  8
0
100
AcDbLine
 62
4
  6
CONTINUOUS
 10
11.2756646535
 20
8.3937515952
 11
11.3198212617
 21
8.3686110165
  0
LINE
  5
30E
100
AcDbEntity
  8
0
100
AcDbLine
 62
4
  6
CONTINUOUS
 10
9.5221641211
 20
9.643282704
 11
9.536653009
 21
9.6326186398
  0
LINE
  5
30F
100
AcDbEntity
  8
0
100
AcDbLine
 62
4
  6
CONTINUOUS
 10
9.5221641211
 20
9.6915789994
 11
9.536653009
 21
9.6809149352
  0
LINE
  5
310
100
AcDbEntity
  8
0
100
AcDbLine
 62
4
  6
CONTINUOUS
 10
11.1293958854
 20
8.4480519769
 11
11.1459546065
 21
8.4303448977
  0
LINE
  5
311
100
AcDbEntity
  8
0
100
AcDbLine
 62
4
  6
CONTINUOUS
 10
10.7016287271
 20
9.0357469015
 11
10.7099080877
 21
9.0268933584
  0
LINE
  5
312
100
AcDbEntity
  8
0
100
AcDbLine
 62
4
  6
CONTINUOUS
 10
10.9306911563
 20
9.0198613681
 11
10.9362107116
 21
9.0111992181
  0
LINE
  5
313
100
AcDbEntity
  8
0
100
AcDbLine
 62
4
  6
CONTINUOUS
 10
11.2830470642
 20
7.8868185132
 11
11.2758026202
 21
7.916298693
  0
LINE
  5
314
100
AcDbEntity
  8
0
100
AcDbLine
 62
7
  6
CONTINUOUS
 10
11.2376230716
 20
6.4968361065
 11
11.2376230716
 21
6.0762368808
  0
LINE
  5
315
100
AcDbEntity
  8
0
100
AcDbLine
 62
4
  6
CONTINUOUS
 10
11.2563461349
 20
8.9227628362
 11
11.2563461349
 21
8.9889977511
  0
LINE
  5
316
100
AcDbEntity
  8
0
100
AcDbLine
 62
7
  6
CONTINUOUS
 10
11.2795032991
 20
6.4859967198
 11
11.2795032991
 21
6.065397494
  0
LINE
  5
317
100
AcDbEntity
  8
0
100
AcDbLine
 62
4
  6
CONTINUOUS
 10
11.330860463
 20
8.9589920728
 11
11.330860463
 21
8.9838301649
  0
LINE
  5
318
100
AcDbEntity
  8
0
100
AcDbLine
 62
4
  6
CONTINUOUS
 10
11.3482470599
 20
7.911274654
 11
11.3482470599
 21
7.8726376201
  0
LINE
  5
319
100
AcDbEntity
  8
0
100
AcDbLine
 62
4
  6
CONTINUOUS
 10
11.3805365713
 20
8.9141502002
 11
11.3805365713
 21
8.9389882949
  0
LINE
  5
31A
100
AcDbEntity
  8
0
100
AcDbLine
 62
4
  6
CONTINUOUS
 10
11.2758026202
 20
7.916298693
 11
11.2830470642
 21
7.9447740649
  0
LINE
  5
31B
100
AcDbEntity
  8
0
100
AcDbLine
 62
4
  6
CONTINUOUS
 10
11.3198212617
 20
8.3686110165
 11
11.2756646535
 21
8.3495949818
  0
LINE
  5
31C
100
AcDbEntity
  8
0
100
AcDbLine
 62
4
  6
CONTINUOUS
 10
10.7430255577
 20
8.9224844924
 11
10.7595842788
 21
8.9213361412
  0
LINE
  5
31D
100
AcDbEntity
  8
0
100
AcDbLine
 62
4
  6
CONTINUOUS
 10
10.8313387741
 20
8.9439578319
 11
10.8147800529
 21
8.953385548
  0
LINE
  5
31E
100
AcDbEntity
  8
0
100
AcDbLine
 62
4
  6
CONTINUOUS
 10
10.988646708
 20
8.9330484896
 11
10.9720879869
 21
8.9424762057
  0
LINE
  5
31F
100
AcDbEntity
  8
0
100
AcDbLine
 62
4
  6
CONTINUOUS
 10
11.0548815927
 20
8.9367344497
 11
11.0631609809
 21
8.9278809072
  0
LINE
  5
320
100
AcDbEntity
  8
0
100
AcDbLine
 62
4
  6
CONTINUOUS
 10
11.145954642
 20
8.9221391473
 11
11.1376752538
 21
8.9309926898
  0
LINE
  5
321
100
AcDbEntity
  8
0
100
AcDbLine
 62
4
  6
CONTINUOUS
 10
11.0217641504
 20
8.9969867064
 11
11.0134848174
 21
9.0141196082
  0
LINE
  5
322
100
AcDbEntity
  8
0
100
AcDbLine
 62
4
  6
CONTINUOUS
 10
11.2830470642
 20
7.9447740649
 11
11.2975359521
 21
7.9630877767
  0
LINE
  5
323
100
AcDbEntity
  8
0
100
AcDbLine
 62
7
  6
CONTINUOUS
 10
12.4189940071
 20
9.0380935536
 11
12.4179791963
 21
9.0371313334
  0
LINE
  5
324
100
AcDbEntity
  8
0
100
AcDbLine
 62
4
  6
CONTINUOUS
 10
12.1127774397
 20
8.5942897134
 11
12.1272663276
 21
8.6029441619
  0
LINE
  5
325
100
AcDbEntity
  8
0
100
AcDbLine
 62
4
  6
CONTINUOUS
 10
12.1562441035
 20
8.5526382509
 11
12.1272663276
 21
8.5353293504
  0
LINE
  5
326
100
AcDbEntity
  8
0
100
AcDbLine
 62
4
  6
CONTINUOUS
 10
11.2975359521
 20
7.9630877767
 11
11.31202484
 21
7.9717422252
  0
LINE
  5
327
100
AcDbEntity
  8
0
100
AcDbLine
 62
4
  6
CONTINUOUS
 10
11.2977430207
 20
8.9116125875
 11
11.2646254678
 21
8.9139092976
  0
LINE
  5
328
100
AcDbEntity
  8
0
100
AcDbLine
 62
4
  6
CONTINUOUS
 10
11.1625133632
 20
8.9209907961
 11
11.145954642
 21
8.9221391473
  0
LINE
  5
329
100
AcDbEntity
  8
0
100
AcDbLine
 62
4
  6
CONTINUOUS
 10
11.0217641504
 20
8.9307517872
 11
10.988646708
 21
8.9330484896
  0
LINE
  5
32A
100
AcDbEntity
  8
0
100
AcDbLine
 62
4
  6
CONTINUOUS
 10
10.8644562164
 20
8.9416611295
 11
10.8313387741
 21
8.9439578319
  0
LINE
  5
32B
100
AcDbEntity
  8
0
100
AcDbLine
 62
4
  6
CONTINUOUS
 10
10.30421923
 20
8.9805136964
 11
10.3373366887
 21
8.9782169929
  0
LINE
  5
32C
100
AcDbEntity
  8
0
100
AcDbLine
 62
4
  6
CONTINUOUS
 10
10.403571601
 20
8.9736235861
 11
10.4284097035
 21
8.9719010578
  0
LINE
  5
32D
100
AcDbEntity
  8
0
100
AcDbLine
 62
4
  6
CONTINUOUS
 10
11.0631609809
 20
8.9278809072
 11
11.1045578115
 21
8.9250100273
  0
LINE
  5
32E
100
AcDbEntity
  8
0
100
AcDbLine
 62
4
  6
CONTINUOUS
 10
11.339139796
 20
8.9087417114
 11
11.3722572383
 21
8.906445009
  0
LINE
  5
32F
100
AcDbEntity
  8
0
100
AcDbLine
 62
4
  6
CONTINUOUS
 10
10.988646708
 20
8.9744453133
 11
11.0217641504
 21
8.9721486108
  0
LINE
  5
330
100
AcDbEntity
  8
0
100
AcDbLine
 62
4
  6
CONTINUOUS
 10
11.0134848174
 20
9.0141196082
 11
10.9720879869
 21
9.0169904881
  0
LINE
  5
331
100
AcDbEntity
  8
0
100
AcDbLine
 62
4
  6
CONTINUOUS
 10
10.6602318966
 20
9.0386177814
 11
10.7016287271
 21
9.0357469015
  0
LINE
  5
332
100
AcDbEntity
  8
0
100
AcDbLine
 62
4
  6
CONTINUOUS
 10
10.8313387741
 20
9.0267514792
 11
10.8644562164
 21
9.0244547767
  0
LINE
  5
333
100
AcDbEntity
  8
0
100
AcDbLine
 62
4
  6
CONTINUOUS
 10
10.897573714
 20
9.0221580705
 11
10.9306911563
 21
9.0198613681
  0
LINE
  5
334
100
AcDbEntity
  8
0
100
AcDbLine
 62
4
  6
CONTINUOUS
 10
11.2646254678
 20
8.9967029449
 11
11.2977430207
 21
8.9944062348
  0
LINE
  5
335
100
AcDbEntity
  8
0
100
AcDbLine
 62
4
  6
CONTINUOUS
 10
11.339139796
 20
8.9915353587
 11
11.3722572383
 21
8.9892386563
  0
LINE
  5
336
100
AcDbEntity
  8
0
100
AcDbLine
 62
4
  6
CONTINUOUS
 10
10.3124985949
 20
9.095850624
 11
10.3456160528
 21
9.0935539205
  0
LINE
  5
337
100
AcDbEntity
  8
0
100
AcDbLine
 62
4
  6
CONTINUOUS
 10
11.2121895267
 20
9.0334568459
 11
11.2149493043
 21
9.0332654547
  0
LINE
  5
338
100
AcDbEntity
  8
0
100
AcDbLine
 62
4
  6
CONTINUOUS
 10
11.3722572383
 20
8.9450820446
 11
11.339139796
 21
8.9528983231
  0
LINE
  5
339
100
AcDbEntity
  8
0
100
AcDbLine
 62
4
  6
CONTINUOUS
 10
11.339139796
 20
8.9528983231
 11
11.330860463
 21
8.9589920728
  0
LINE
  5
33A
100
AcDbEntity
  8
0
100
AcDbLine
 62
4
  6
CONTINUOUS
 10
11.3805365713
 20
8.9389882949
 11
11.3722572383
 21
8.9450820446
  0
LINE
  5
33B
100
AcDbEntity
  8
0
100
AcDbLine
 62
4
  6
CONTINUOUS
 10
11.2646254678
 20
8.9139092976
 11
11.2563461349
 21
8.9227628362
  0
LINE
  5
33C
100
AcDbEntity
  8
0
100
AcDbLine
 62
4
  6
CONTINUOUS
 10
11.330860463
 20
8.91759525
 11
11.339139796
 21
8.9087417114
  0
LINE
  5
33D
100
AcDbEntity
  8
0
100
AcDbLine
 62
4
  6
CONTINUOUS
 10
11.3722572383
 20
8.9892386563
 11
11.3805365713
 21
8.9803851151
  0
LINE
  5
33E
100
AcDbEntity
  8
0
100
AcDbLine
 62
7
  6
CONTINUOUS
 10
11.701429278
 20
6.4567360538
 11
11.701429278
 21
6.036136828
  0
LINE
  5
33F
100
AcDbEntity
  8
0
100
AcDbLine
 62
7
  6
CONTINUOUS
 10
11.7586387166
 20
6.4607035488
 11
11.7586387166
 21
6.0401043231
  0
LINE
  5
340
100
AcDbEntity
  8
0
100
AcDbLine
 62
4
  6
CONTINUOUS
 10
11.3482470599
 20
7.8726376201
 11
11.3410026159
 21
7.8634807651
  0
LINE
  5
341
100
AcDbEntity
  8
0
100
AcDbLine
 62
4
  6
CONTINUOUS
 10
12.1055329957
 20
8.5851328541
 11
12.1127774397
 21
8.5942897134
  0
LINE
  5
342
100
AcDbEntity
  8
0
100
AcDbLine
 62
4
  6
CONTINUOUS
 10
11.3410026159
 20
7.8634807651
 11
11.326513728
 21
7.854826314
  0
LINE
  5
343
100
AcDbEntity
  8
0
100
AcDbLine
 62
4
  6
CONTINUOUS
 10
12.1417552155
 20
8.6019393541
 11
12.1562441035
 21
8.59127529
  0
LINE
  5
344
100
AcDbEntity
  8
0
100
AcDbLine
 62
4
  6
CONTINUOUS
 10
12.1272663276
 20
8.5353293504
 11
12.1127774397
 21
8.5170156421
  0
LINE
  5
345
100
AcDbEntity
  8
0
100
AcDbLine
 62
4
  6
CONTINUOUS
 10
12.1634885474
 20
8.5617951103
 11
12.1562441035
 21
8.5526382509
  0
LINE
  5
346
100
AcDbEntity
  8
0
100
AcDbLine
 62
4
  6
CONTINUOUS
 10
9.5221641211
 20
9.5756678959
 11
9.5076752332
 21
9.5766727037
  0
LINE
  5
347
100
AcDbEntity
  8
0
100
AcDbLine
 62
4
  6
CONTINUOUS
 10
12.1562441035
 20
8.59127529
 11
12.1634885474
 21
8.5811136229
  0
LINE
  5
348
100
AcDbEntity
  8
0
100
AcDbLine
 62
7
  6
CONTINUOUS
 10
12.0675098836
 20
6.5013699172
 11
12.0675098836
 21
6.120046033
  0
LINE
  5
349
100
AcDbEntity
  8
0
100
AcDbLine
 62
7
  6
CONTINUOUS
 10
12.0828390948
 20
6.5003068328
 11
12.0828390948
 21
6.1348529148
  0
LINE
  5
34A
100
AcDbEntity
  8
0
100
AcDbLine
 62
4
  6
CONTINUOUS
 10
12.1562441035
 20
9.9918677659
 11
12.1562441035
 21
10.1077788694
  0
LINE
  5
34B
100
AcDbEntity
  8
0
100
AcDbLine
 62
4
  6
CONTINUOUS
 10
12.1634885474
 20
8.5811136229
 11
12.1634885474
 21
8.5617951103
  0
LINE
  5
34C
100
AcDbEntity
  8
0
100
AcDbLine
 62
4
  6
CONTINUOUS
 10
12.1127774397
 20
8.5170156421
 11
12.1055329957
 21
8.4885402702
  0
LINE
  5
34D
100
AcDbEntity
  8
0
100
AcDbLine
 62
4
  6
CONTINUOUS
 10
9.5076752332
 20
9.6442875117
 11
9.5221641211
 21
9.643282704
  0
LINE
  5
34E
100
AcDbEntity
  8
0
100
AcDbLine
 62
4
  6
CONTINUOUS
 10
9.5076752332
 20
9.6925838071
 11
9.5221641211
 21
9.6915789994
  0
LINE
  5
34F
100
AcDbEntity
  8
0
100
AcDbLine
 62
7
  6
CONTINUOUS
 10
12.2871270556
 20
6.4861394146
 11
12.2871270556
 21
10.4705836841
  0
LINE
  5
350
100
AcDbEntity
  8
0
100
AcDbLine
 62
4
  6
CONTINUOUS
 10
12.1055329957
 20
10.0243623691
 11
12.1707329914
 21
10.019840734
  0
LINE
  5
351
100
AcDbEntity
  8
0
100
AcDbLine
 62
7
  6
CONTINUOUS
 10
12.610650595
 20
6.7986391752
 11
12.610650595
 21
10.7830834447
  0
LINE
  5
352
100
AcDbEntity
  8
0
100
AcDbLine
 62
7
  6
CONTINUOUS
 10
9.389349405
 20
10.6715452467
 11
12.2871270556
 21
10.4705836841
  0
LINE
  5
353
100
AcDbEntity
  8
0
100
AcDbLine
 62
7
  6
CONTINUOUS
 10
12.2871270556
 20
6.4861394146
 11
12.610650595
 21
6.7986391752
  0
LINE
  5
354
100
AcDbEntity
  8
0
100
AcDbLine
 62
7
  6
CONTINUOUS
 10
12.610650595
 20
10.7830834447
 11
9.7128729444
 21
10.9840450073
  0
LINE
  5
355
100
AcDbEntity
  8
0
100
AcDbLine
 62
7
  6
CONTINUOUS
 10
12.0097556245
 20
6.0880236419
 11
11.984590015
 21
6.0755923126
  0
ARC
  5
356
100
AcDbEntity
  8
0
100
AcDbCircle
 62
7
  6
CONTINUOUS
 10
11.6115059339
 20
8.167839501
 40
1.7134646816
100
AcDbArc
 50
273.0082884861
 51
274.9259735842
  0
ARC
  5
357
100
AcDbEntity
  8
0
100
AcDbCircle
 62
7
  6
CONTINUOUS
 10
11.6115059339
 20
7.7472402753
 40
1.7134646816
100
AcDbArc
 50
273.0082884861
 51
274.9259735842
  0
ARC
  5
358
100
AcDbEntity
  8
0
100
AcDbCircle
 62
7
  6
CONTINUOUS
 10
11.7472714954
 20
6.6189591341
 40
0.5922756118
100
AcDbArc
 50
293.5909107106
 51
296.3039528614
  0
ARC
  5
359
100
AcDbEntity
  8
0
100
AcDbCircle
 62
7
  6
CONTINUOUS
 10
10.8860832118
 20
7.4287903371
 40
0.383054131
100
AcDbArc
 50
312.2846961057
 51
313.0580785487
  0
ARC
  5
35A
100
AcDbEntity
  8
0
100
AcDbCircle
 62
7
  6
CONTINUOUS
 10
10.8069347365
 20
7.5107301243
 40
0.3830221365
100
AcDbArc
 50
134.7034546905
 51
135.5734689435
  0
ARC
  5
35B
100
AcDbEntity
  8
0
100
AcDbCircle
 62
7
  6
CONTINUOUS
 10
12.4042405277
 20
10.3677550542
 40
0.0147409655
100
AcDbArc
 50
86.035573573
 51
92.3770878313
  0
ARC
  5
35C
100
AcDbEntity
  8
0
100
AcDbCircle
 62
7
  6
CONTINUOUS
 10
12.373763777
 20
9.9282921531
 40
0.0147406186
100
AcDbArc
 50
259.8277854464
 51
266.0297713929
  0
SPLINE
  5
35D
100
AcDbEntity
  8
0
100
AcDbSpline
 62
7
  6
CONTINUOUS
 70
0
 71
3
 72
9
 73
5
 74
0
 42
0.0000001
 43
0.0000001
 44
0.0000000001
 40
0.0
 40
0.0
 40
0.0
 40
0.0
 40
0.4865082157
 40
1.0
 40
1.0
 40
1.0
 40
1.0
 10
12.0760414342
 20
6.127389351
 30
0.0
 10
12.0747279642
 20
6.1261206363
 30
0.0
 10
12.0719468229
 20
6.1235962314
 30
0.0
 10
12.0690335169
 20
6.121226527
 30
0.0
 10
12.0675098836
 20
6.120046033
 30
0.0
  0
SPLINE
  5
35E
100
AcDbEntity
  8
0
100
AcDbSpline
 62
7
  6
CONTINUOUS
 70
0
 71
3
 72
9
 73
5
 74
0
 42
0.0000001
 43
0.0000001
 44
0.0000000001
 40
0.0
 40
0.0
 40
0.0
 40
0.0
 40
0.4864210225
 40
1.0
 40
1.0
 40
1.0
 40
1.0
 10
12.0828390948
 20
6.1348529148
 30
0.0
 10
12.0818253878
 20
6.1335665647
 30
0.0
 10
12.0796388976
 20
6.1310017799
 30
0.0
 10
12.0772851785
 20
6.1285907158
 30
0.0
 10
12.0760414342
 20
6.127389351
 30
0.0
  0
SPLINE
  5
35F
100
AcDbEntity
  8
0
100
AcDbSpline
 62
7
  6
CONTINUOUS
 70
0
 71
3
 72
9
 73
5
 74
0
 42
0.0000001
 43
0.0000001
 44
0.0000000001
 40
0.0
 40
0.0
 40
0.0
 40
0.0
 40
0.503991706
 40
1.0
 40
1.0
 40
1.0
 40
1.0
 10
12.0675098836
 20
6.120046033
 30
0.0
 10
12.0580365361
 20
6.1142571578
 30
0.0
 10
12.0390211191
 20
6.1031239775
 30
0.0
 10
12.0195244542
 20
6.092849464
 30
0.0
 10
12.0097283871
 20
6.0880101908
 30
0.0
  0
SPLINE
  5
360
100
AcDbEntity
  8
0
100
AcDbSpline
 62
7
  6
CONTINUOUS
 70
0
 71
3
 72
23
 73
19
 74
0
 42
0.0000001
 43
0.0000001
 44
0.0000000001
 40
0.0
 40
0.0
 40
0.0
 40
0.0
 40
0.0439943064
 40
0.0899281819
 40
0.1380403338
 40
0.1885309998
 40
0.2415683448
 40
0.2972701743
 40
0.3557174883
 40
0.4169406608
 40
0.4809367475
 40
0.5476614984
 40
0.617045644
 40
0.688992165
 40
0.7633891149
 40
0.8401121098
 40
0.9190285012
 40
1.0
 40
1.0
 40
1.0
 40
1.0
 10
11.206515405
 20
6.0836451561
 30
0.0
 10
11.2047715237
 20
6.0845066156
 30
0.0
 10
11.201271393
 20
6.0864009222
 30
0.0
 10
11.1961149208
 20
6.0896735969
 30
0.0
 10
11.1909515278
 20
6.0934456943
 30
0.0
 10
11.1857838084
 20
6.0977225606
 30
0.0
 10
11.1806159683
 20
6.1025077969
 30
0.0
 10
11.1754500776
 20
6.1077984062
 30
0.0
 10
11.1702904092
 20
6.1135890432
 30
0.0
 10
11.1651388447
 20
6.1198684794
 30
0.0
 10
11.1599991712
 20
6.1266232369
 30
0.0
 10
11.1548730069
 20
6.133835402
 30
0.0
 10
11.1497632772
 20
6.1414854362
 30
0.0
 10
11.1446712101
 20
6.1495511202
 30
0.0
 10
11.1395986736
 20
6.1580095777
 30
0.0
 10
11.1345464214
 20
6.1668368931
 30
0.0
 10
11.1295153937
 20
6.1760091284
 30
0.0
 10
11.1262163251
 20
6.1822613085
 30
0.0
 10
11.1245682596
 20
6.1854392567
 30
0.0
  0
SPLINE
  5
361
100
AcDbEntity
  8
0
100
AcDbSpline
 62
7
  6
CONTINUOUS
 70
0
 71
3
 72
46
 73
42
 74
0
 42
0.0000001
 43
0.0000001
 44
0.0000000001
 40
0.0
 40
0.0
 40
0.0
 40
0.0
 40
0.0099874435
 40
0.0204476157
 40
0.0313771114
 40
0.0427707225
 40
0.054621686
 40
0.0669224317
 40
0.0796639566
 40
0.0928360449
 40
0.1204269131
 40
0.1495981875
 40
0.1802403745
 40
0.2122335405
 40
0.2454486791
 40
0.2797494061
 40
0.3149926211
 40
0.3510295021
 40
0.387706851
 40
0.4248677397
 40
0.4623524596
 40
0.499999592
 40
0.537646712
 40
0.5751314595
 40
0.6122923998
 40
0.6489698028
 40
0.6850067986
 40
0.7202500982
 40
0.7545508962
 40
0.7877662248
 40
0.8197595459
 40
0.8504018313
 40
0.8795733387
 40
0.9071643906
 40
0.9330770134
 40
0.9453779539
 40
0.9572290359
 40
0.9686226679
 40
0.9795523026
 40
0.9900125123
 40
1.0
 40
1.0
 40
1.0
 40
1.0
 10
11.9845935448
 20
6.0755941
 30
0.0
 10
11.9822765659
 20
6.074449539
 30
0.0
 10
11.9774933731
 20
6.072185689
 30
0.0
 10
11.9700538708
 20
6.0689320296
 30
0.0
 10
11.9621913311
 20
6.0657455721
 30
0.0
 10
11.9539148968
 20
6.0626300127
 30
0.0
 10
11.9452340775
 20
6.059588747
 30
0.0
 10
11.9361587631
 20
6.0566255135
 30
0.0
 10
11.9266993856
 20
6.0537436409
 30
0.0
 10
11.913382749
 20
6.0499553119
 30
0.0
 10
11.8958493845
 20
6.0454651523
 30
0.0
 10
11.8737751165
 20
6.0405308797
 30
0.0
 10
11.8504544306
 20
6.0359940628
 30
0.0
 10
11.8259948337
 20
6.0318759236
 30
0.0
 10
11.8005089302
 20
6.0281956215
 30
0.0
 10
11.7741142258
 20
6.0249704872
 30
0.0
 10
11.7469324796
 20
6.022215662
 30
0.0
 10
11.719089182
 20
6.0199438717
 30
0.0
 10
11.6907128957
 20
6.0181658221
 30
0.0
 10
11.6619346625
 20
6.016889882
 30
0.0
 10
11.6328874167
 20
6.0161218606
 30
0.0
 10
11.6037053518
 20
6.0158654157
 30
0.0
 10
11.5745232798
 20
6.0161218252
 30
0.0
 10
11.545476014
 20
6.0168897428
 30
0.0
 10
11.516697744
 20
6.0181656427
 30
0.0
 10
11.4883213993
 20
6.0199436655
 30
0.0
 10
11.4604780276
 20
6.0222153526
 30
0.0
 10
11.4332962066
 20
6.024970136
 30
0.0
 10
11.406901409
 20
6.0281952531
 30
0.0
 10
11.3814153879
 20
6.0318754574
 30
0.0
 10
11.3569556485
 20
6.0359935497
 30
0.0
 10
11.3336348986
 20
6.040530382
 30
0.0
 10
11.311560252
 20
6.0454645021
 30
0.0
 10
11.2908333129
 20
6.0507728146
 30
0.0
 10
11.2744906424
 20
6.0555671766
 30
0.0
 10
11.2621753032
 20
6.0595880186
 30
0.0
 10
11.2534943792
 20
6.0626293013
 30
0.0
 10
11.2452178902
 20
6.0657449052
 30
0.0
 10
11.2373552501
 20
6.0689312519
 30
0.0
 10
11.2299156633
 20
6.0721848629
 30
0.0
 10
11.2251324562
 20
6.0744487326
 30
0.0
 10
11.2228154642
 20
6.0755932928
 30
0.0
  0
SPLINE
  5
362
100
AcDbEntity
  8
0
100
AcDbSpline
 62
7
  6
CONTINUOUS
 70
0
 71
3
 72
9
 73
5
 74
0
 42
0.0000001
 43
0.0000001
 44
0.0000000001
 40
0.0
 40
0.0
 40
0.0
 40
0.0
 40
0.5132482879
 40
1.0
 40
1.0
 40
1.0
 40
1.0
 10
11.2795032991
 20
6.4859967198
 30
0.0
 10
11.2722885177
 20
6.4876504158
 30
0.0
 10
11.2582722734
 20
6.4910542752
 30
0.0
 10
11.2443609716
 20
6.4948669356
 30
0.0
 10
11.2376230716
 20
6.4968361065
 30
0.0
  0
SPLINE
  5
363
100
AcDbEntity
  8
0
100
AcDbSpline
 62
7
  6
CONTINUOUS
 70
0
 71
3
 72
17
 73
13
 74
0
 42
0.0000001
 43
0.0000001
 44
0.0000000001
 40
0.0
 40
0.0
 40
0.0
 40
0.0
 40
0.131593939
 40
0.2633887997
 40
0.3943193775
 40
0.5233296479
 40
0.64938366
 40
0.7714770019
 40
0.8307377895
 40
0.888652
 40
0.9451084391
 40
1.0
 40
1.0
 40
1.0
 40
1.0
 10
11.6509171416
 20
6.5301815621
 30
0.0
 10
11.6376837352
 20
6.5298009398
 30
0.0
 10
11.6111863355
 20
6.5293625098
 30
0.0
 10
11.571513701
 20
6.5296592409
 30
0.0
 10
11.532119287
 20
6.5309055566
 30
0.0
 10
11.493344057
 20
6.5330904189
 30
0.0
 10
11.4555234611
 20
6.5361946291
 30
0.0
 10
11.4247757681
 20
6.5395570495
 30
0.0
 10
11.4009098147
 20
6.5427008348
 30
0.0
 10
11.3836274525
 20
6.5452459647
 30
0.0
 10
11.3668218134
 20
6.5479960793
 30
0.0
 10
11.3557982106
 20
6.5499914106
 30
0.0
 10
11.3503733628
 20
6.551024344
 30
0.0
  0
SPLINE
  5
364
100
AcDbEntity
  8
0
100
AcDbSpline
 62
7
  6
CONTINUOUS
 70
0
 71
3
 72
9
 73
5
 74
0
 42
0.0000001
 43
0.0000001
 44
0.0000000001
 40
0.0
 40
0.0
 40
0.0
 40
0.0
 40
0.5132482879
 40
1.0
 40
1.0
 40
1.0
 40
1.0
 10
11.2795032991
 20
6.065397494
 30
0.0
 10
11.2722885177
 20
6.06705119
 30
0.0
 10
11.2582722734
 20
6.0704550494
 30
0.0
 10
11.2443609716
 20
6.0742677098
 30
0.0
 10
11.2376230716
 20
6.0762368808
 30
0.0
  0
SPLINE
  5
365
100
AcDbEntity
  8
0
100
AcDbSpline
 62
7
  6
CONTINUOUS
 70
0
 71
3
 72
11
 73
7
 74
0
 42
0.0000001
 43
0.0000001
 44
0.0000000001
 40
0.0
 40
0.0
 40
0.0
 40
0.0
 40
0.2432253995
 40
0.4912799274
 40
0.7437055985
 40
1.0
 40
1.0
 40
1.0
 40
1.0
 10
11.8360239493
 20
6.5175522656
 30
0.0
 10
11.8293071172
 20
6.5135964924
 30
0.0
 10
11.8159788569
 20
6.5051956633
 30
0.0
 10
11.7964969748
 20
6.491448769
 30
0.0
 10
11.7773259526
 20
6.4765805474
 30
0.0
 10
11.7648389603
 20
6.4660911581
 30
0.0
 10
11.7586387166
 20
6.4607035488
 30
0.0
  0
SPLINE
  5
366
100
AcDbEntity
  8
0
100
AcDbSpline
 62
7
  6
CONTINUOUS
 70
0
 71
3
 72
21
 73
17
 74
0
 42
0.0000001
 43
0.0000001
 44
0.0000000001
 40
0.0
 40
0.0
 40
0.0
 40
0.0
 40
0.1230814817
 40
0.1847942657
 40
0.2466337258
 40
0.3086097846
 40
0.3707312098
 40
0.4330051319
 40
0.4954352436
 40
0.5580223626
 40
0.6207641208
 40
0.6836547008
 40
0.7466862848
 40
0.8098488395
 40
0.8731308835
 40
1.0
 40
1.0
 40
1.0
 40
1.0
 10
11.701429278
 20
6.036136828
 30
0.0
 10
11.6841766374
 20
6.0328844446
 30
0.0
 10
11.6581454998
 20
6.0286337261
 30
0.0
 10
11.6232089096
 20
6.0244663767
 30
0.0
 10
11.596842212
 20
6.0221443303
 30
0.0
 10
11.5703551452
 20
6.0206846302
 30
0.0
 10
11.5437710861
 20
6.0201344884
 30
0.0
 10
11.5171192218
 20
6.02053092
 30
0.0
 10
11.4904327289
 20
6.0218959077
 30
0.0
 10
11.4637469571
 20
6.0242347312
 30
0.0
 10
11.437097254
 20
6.0275370206
 30
0.0
 10
11.4105165899
 20
6.0317760402
 30
0.0
 10
11.3840337466
 20
6.0369106814
 30
0.0
 10
11.3576718692
 20
6.0428904293
 30
0.0
 10
11.3226811947
 20
6.051919549
 30
0.0
 10
11.2967027362
 20
6.0597695702
 30
0.0
 10
11.2795032991
 20
6.065397494
 30
0.0
  0
SPLINE
  5
367
100
AcDbEntity
  8
0
100
AcDbSpline
 62
7
  6
CONTINUOUS
 70
0
 71
3
 72
28
 73
24
 74
0
 42
0.0000001
 43
0.0000001
 44
0.0000000001
 40
0.0
 40
0.0
 40
0.0
 40
0.0
 40
0.0640274484
 40
0.1279405369
 40
0.1917105404
 40
0.2553123355
 40
0.3187161223
 40
0.3818930725
 40
0.4133919091
 40
0.4448254452
 40
0.4761912782
 40
0.5074882562
 40
0.5387156619
 40
0.5698732312
 40
0.6009621492
 40
0.6319833386
 40
0.6938248821
 40
0.7554274775
 40
0.8168179251
 40
0.8780243018
 40
0.9085700262
 40
0.9390802882
 40
1.0
 40
1.0
 40
1.0
 40
1.0
 10
11.701429278
 20
6.4567360538
 30
0.0
 10
11.6931284273
 20
6.4610191775
 30
0.0
 10
11.6763973676
 20
6.4693025647
 30
0.0
 10
11.6508782013
 20
6.4807645511
 30
0.0
 10
11.624954423
 20
6.4911188135
 30
0.0
 10
11.5986412479
 20
6.5002208695
 30
0.0
 10
11.5719734182
 20
6.5079243439
 30
0.0
 10
11.5494779861
 20
6.5130685758
 30
0.0
 10
11.531373914
 20
6.5163556313
 30
0.0
 10
11.5177666586
 20
6.5183943579
 30
0.0
 10
11.504131331
 20
6.5200010351
 30
0.0
 10
11.4904814799
 20
6.521168112
 30
0.0
 10
11.4768315465
 20
6.5218952619
 30
0.0
 10
11.4631956391
 20
6.5221807942
 30
0.0
 10
11.4495875897
 20
6.5220303207
 30
0.0
 10
11.4315187653
 20
6.5212570451
 30
0.0
 10
11.4090592758
 20
6.5192416413
 30
0.0
 10
11.382378319
 20
6.5152405348
 30
0.0
 10
11.3560519573
 20
6.5097898205
 30
0.0
 10
11.3344234847
 20
6.5041539957
 30
0.0
 10
11.3173278898
 20
6.4990626375
 30
0.0
 10
11.3003873686
 20
6.4936124094
 30
0.0
 10
11.2878185241
 20
6.4891339348
 30
0.0
 10
11.2795032991
 20
6.4859967198
 30
0.0
  0
SPLINE
  5
368
100
AcDbEntity
  8
0
100
AcDbSpline
 62
7
  6
CONTINUOUS
 70
0
 71
3
 72
13
 73
9
 74
0
 42
0.0000001
 43
0.0000001
 44
0.0000000001
 40
0.0
 40
0.0
 40
0.0
 40
0.0
 40
0.2392401476
 40
0.3604630295
 40
0.4832816768
 40
0.6081576999
 40
0.7355839368
 40
1.0
 40
1.0
 40
1.0
 40
1.0
 10
11.2376230716
 20
6.0762368808
 30
0.0
 10
11.2350510601
 20
6.0762460329
 30
0.0
 10
11.2311718337
 20
6.0764649248
 30
0.0
 10
11.2260254741
 20
6.0771937426
 30
0.0
 10
11.2221347149
 20
6.0779754812
 30
0.0
 10
11.2182316966
 20
6.0790002125
 30
0.0
 10
11.2129484779
 20
6.0807244173
 30
0.0
 10
11.2090640815
 20
6.082386136
 30
0.0
 10
11.206515405
 20
6.0836451561
 30
0.0
  0
SPLINE
  5
369
100
AcDbEntity
  8
0
100
AcDbSpline
 62
7
  6
CONTINUOUS
 70
0
 71
3
 72
14
 73
10
 74
0
 42
0.0000001
 43
0.0000001
 44
0.0000000001
 40
0.0
 40
0.0
 40
0.0
 40
0.0
 40
0.2696294493
 40
0.4000826278
 40
0.5273422312
 40
0.6511852899
 40
0.7713928731
 40
0.8877388029
 40
1.0
 40
1.0
 40
1.0
 40
1.0
 10
11.2376230716
 20
6.4968361065
 30
0.0
 10
11.2353828618
 20
6.50273411
 30
0.0
 10
11.2319718618
 20
6.5114533473
 30
0.0
 10
11.2272606745
 20
6.5228582801
 30
0.0
 10
11.2237380573
 20
6.5310624374
 30
0.0
 10
11.2201874299
 20
6.5389925929
 30
0.0
 10
11.2166091507
 20
6.5466293091
 30
0.0
 10
11.2130041011
 20
6.5539525794
 30
0.0
 10
11.2105379331
 20
6.5587000372
 30
0.0
 10
11.2092980831
 20
6.561015848
 30
0.0
  0
SPLINE
  5
36A
100
AcDbEntity
  8
0
100
AcDbSpline
 62
7
  6
CONTINUOUS
 70
0
 71
3
 72
15
 73
11
 74
0
 42
0.0000001
 43
0.0000001
 44
0.0000000001
 40
0.0
 40
0.0
 40
0.0
 40
0.0
 40
0.1319943798
 40
0.2615530082
 40
0.3887795478
 40
0.5138991626
 40
0.6372282088
 40
0.759125931
 40
0.8799459217
 40
1.0
 40
1.0
 40
1.0
 40
1.0
 10
11.9843023616
 20
6.0761822288
 30
0.0
 10
11.9749803544
 20
6.0721199466
 30
0.0
 10
11.9562794724
 20
6.0645807637
 30
0.0
 10
11.9278409127
 20
6.055119323
 30
0.0
 10
11.8993449249
 20
6.0477059474
 30
0.0
 10
11.8708764255
 20
6.0423670732
 30
0.0
 10
11.8425164758
 20
6.0390522006
 30
0.0
 10
11.8143322091
 20
6.0376442725
 30
0.0
 10
11.7863710472
 20
6.0379796086
 30
0.0
 10
11.7678474202
 20
6.0392439376
 30
0.0
 10
11.7586387166
 20
6.0401043231
 30
0.0
  0
SPLINE
  5
36B
100
AcDbEntity
  8
0
100
AcDbSpline
 62
7
  6
CONTINUOUS
 70
0
 71
3
 72
86
 73
82
 74
0
 42
0.0000001
 43
0.0000001
 44
0.0000000001
 40
0.0
 40
0.0
 40
0.0
 40
0.0
 40
0.0039801513
 40
0.008124084
 40
0.0124359564
 40
0.0169193168
 40
0.0215771741
 40
0.0264119028
 40
0.0314251627
 40
0.0366181356
 40
0.0419915235
 40
0.0475456275
 40
0.053280397
 40
0.0591953838
 40
0.0715623696
 40
0.0846380241
 40
0.098409314
 40
0.1128598612
 40
0.1279703666
 40
0.1437189434
 40
0.1600813876
 40
0.1770314207
 40
0.1945408892
 40
0.212579937
 40
0.2311171586
 40
0.2501197324
 40
0.2695535554
 40
0.2893833698
 40
0.3095728782
 40
0.330084854
 40
0.3508812463
 40
0.3719232845
 40
0.3931715874
 40
0.4145862648
 40
0.4577524943
 40
0.5010972215
 40
0.5442931877
 40
0.5657338055
 40
0.5870153489
 40
0.6080978459
 40
0.6289418171
 40
0.6495083765
 40
0.6697593333
 40
0.6896572975
 40
0.709165794
 40
0.7282493704
 40
0.7468737097
 40
0.765005749
 40
0.7826138079
 40
0.799667733
 40
0.8161390526
 40
0.8320011386
 40
0.8472293986
 40
0.8618014998
 40
0.8756976395
 40
0.8889008818
 40
0.9013975545
 40
0.9073779486
 40
0.9131783323
 40
0.9187981834
 40
0.9242373016
 40
0.9294958263
 40
0.9345743472
 40
0.939473844
 40
0.9441958406
 40
0.9487423954
 40
0.9531161817
 40
0.9573206117
 40
0.9613598365
 40
0.9652389461
 40
0.9689639973
 40
0.9725421665
 40
0.9759818867
 40
0.9792929065
 40
0.9824864724
 40
0.985575332
 40
0.9885738044
 40
0.9914977317
 40
0.9943643325
 40
0.9971920101
 40
1.0
 40
1.0
 40
1.0
 40
1.0
 10
11.211537751
 20
10.7126441529
 30
0.0
 10
11.2105474762
 20
10.7116876209
 30
0.0
 10
11.2084812048
 20
10.7097813157
 30
0.0
 10
11.2052005929
 20
10.7069970028
 30
0.0
 10
11.2016790679
 20
10.7042326446
 30
0.0
 10
11.197918563
 20
10.701489742
 30
0.0
 10
11.1939209325
 20
10.6987695565
 30
0.0
 10
11.1896881143
 20
10.696073431
 30
0.0
 10
11.1852222308
 20
10.693402633
 30
0.0
 10
11.180525497
 20
10.6907585478
 30
0.0
 10
11.1756002771
 20
10.6881424746
 30
0.0
 10
11.1704490395
 20
10.6855557177
 30
0.0
 10
11.165074346
 20
10.6829995806
 30
0.0
 10
11.1575009952
 20
10.6795831217
 30
0.0
 10
11.1474866614
 20
10.6754081529
 30
0.0
 10
11.1347957348
 20
10.6706119089
 30
0.0
 10
11.1212841259
 20
10.6659675015
 30
0.0
 10
11.1069790317
 20
10.6614843555
 30
0.0
 10
11.0919090909
 20
10.6571715829
 30
0.0
 10
11.0761046135
 20
10.6530379648
 30
0.0
 10
11.059597424
 20
10.6490919154
 30
0.0
 10
11.0424208071
 20
10.6453414723
 30
0.0
 10
11.0246094239
 20
10.6417942754
 30
0.0
 10
11.0061992376
 20
10.6384575508
 30
0.0
 10
10.9872274402
 20
10.6353380973
 30
0.0
 10
10.9677323759
 20
10.6324422648
 30
0.0
 10
10.9477534601
 20
10.6297759455
 30
0.0
 10
10.9273310937
 20
10.6273445651
 30
0.0
 10
10.9065065794
 20
10.6251530712
 30
0.0
 10
10.8853220393
 20
10.6232059245
 30
0.0
 10
10.8638203268
 20
10.6215070859
 30
0.0
 10
10.8420449551
 20
10.6200600131
 30
0.0
 10
10.8200399451
 20
10.6188676236
 30
0.0
 10
10.7903758068
 20
10.6176174342
 30
0.0
 10
10.7530496262
 20
10.6167093535
 30
0.0
 10
10.7081778449
 20
10.6166620144
 30
0.0
 10
10.6708305724
 20
10.6174911601
 30
0.0
 10
10.6411330651
 20
10.6186783281
 30
0.0
 10
10.6190910683
 20
10.6198241192
 30
0.0
 10
10.5972706451
 20
10.6212250743
 30
0.0
 10
10.5757159061
 20
10.6228783674
 30
0.0
 10
10.5544704702
 20
10.6247806302
 30
0.0
 10
10.5335773165
 20
10.6269279967
 30
0.0
 10
10.5130787104
 20
10.6293161014
 30
0.0
 10
10.4930161106
 20
10.6319400833
 30
0.0
 10
10.4734300857
 20
10.6347946002
 30
0.0
 10
10.4543602326
 20
10.6378738416
 30
0.0
 10
10.4358450967
 20
10.6411715386
 30
0.0
 10
10.4179220898
 20
10.6446809787
 30
0.0
 10
10.4006274081
 20
10.6483950147
 30
0.0
 10
10.3839959526
 20
10.6523060772
 30
0.0
 10
10.3680612589
 20
10.6564061981
 30
0.0
 10
10.352855419
 20
10.6606870271
 30
0.0
 10
10.3384090308
 20
10.6651398504
 30
0.0
 10
10.3247510397
 20
10.6697556223
 30
0.0
 10
10.3119089434
 20
10.6745249628
 30
0.0
 10
10.3017648511
 20
10.6786779681
 30
0.0
 10
10.2940852253
 20
10.6820776152
 30
0.0
 10
10.2886299214
 20
10.6846223118
 30
0.0
 10
10.283397098
 20
10.6871980759
 30
0.0
 10
10.2783893669
 20
10.6898036265
 30
0.0
 10
10.2736092537
 20
10.6924376897
 30
0.0
 10
10.2690591267
 20
10.6950988998
 30
0.0
 10
10.2647412794
 20
10.6977859852
 30
0.0
 10
10.2606578496
 20
10.7004975849
 30
0.0
 10
10.2568108683
 20
10.7032323714
 30
0.0
 10
10.2532022675
 20
10.7059890427
 30
0.0
 10
10.2498338076
 20
10.7087662191
 30
0.0
 10
10.2467072082
 20
10.7115626385
 30
0.0
 10
10.2438240033
 20
10.7143769414
 30
0.0
 10
10.2411856668
 20
10.7172078457
 30
0.0
 10
10.2387935828
 20
10.720054075
 30
0.0
 10
10.2366489816
 20
10.7229143042
 30
0.0
 10
10.2347531352
 20
10.725787305
 30
0.0
 10
10.2331071156
 20
10.7286717268
 30
0.0
 10
10.2317120412
 20
10.73156626
 30
0.0
 10
10.2305689308
 20
10.7344694988
 30
0.0
 10
10.2296786626
 20
10.7373798991
 30
0.0
 10
10.2290421388
 20
10.7402959387
 30
0.0
 10
10.2286599001
 20
10.7432155426
 30
0.0
 10
10.2285748211
 20
10.745166073
 30
0.0
 10
10.2285748164
 20
10.746137408
 30
0.0
  0
SPLINE
  5
36C
100
AcDbEntity
  8
0
100
AcDbSpline
 62
7
  6
CONTINUOUS
 70
0
 71
3
 72
18
 73
14
 74
0
 42
0.0000001
 43
0.0000001
 44
0.0000000001
 40
0.0
 40
0.0
 40
0.0
 40
0.0
 40
0.1504683897
 40
0.2917144302
 40
0.4244424337
 40
0.4879098403
 40
0.5496094316
 40
0.6682625858
 40
0.7817882724
 40
0.8371379912
 40
0.8918078094
 40
0.9460192717
 40
1.0
 40
1.0
 40
1.0
 40
1.0
 10
12.4488888253
 20
10.5688780114
 30
0.0
 10
12.4501327543
 20
10.5700795546
 30
0.0
 10
12.452618918
 20
10.5723339965
 30
0.0
 10
12.456468483
 20
10.575338308
 30
0.0
 10
12.4597200906
 20
10.5774631169
 30
0.0
 10
12.4623129653
 20
10.5789019682
 30
0.0
 10
12.4648295585
 20
10.5801372705
 30
0.0
 10
12.4679760983
 20
10.5813854971
 30
0.0
 10
12.4711786093
 20
10.5822372897
 30
0.0
 10
12.4737150924
 20
10.5826568945
 30
0.0
 10
12.4755949782
 20
10.5828431125
 30
0.0
 10
12.4774672583
 20
10.5829032523
 30
0.0
 10
12.4787111553
 20
10.5828592472
 30
0.0
 10
12.4793301179
 20
10.5828163187
 30
0.0
  0
SPLINE
  5
36D
100
AcDbEntity
  8
0
100
AcDbSpline
 62
7
  6
CONTINUOUS
 70
0
 71
3
 72
20
 73
16
 74
0
 42
0.0000001
 43
0.0000001
 44
0.0000000001
 40
0.0
 40
0.0
 40
0.0
 40
0.0
 40
0.1504572429
 40
0.2222009552
 40
0.2917179917
 40
0.4244350495
 40
0.4878976342
 40
0.5495926289
 40
0.6682362658
 40
0.7255681682
 40
0.781805938
 40
0.8371511931
 40
0.8918166409
 40
0.9460237365
 40
1.0
 40
1.0
 40
1.0
 40
1.0
 10
12.4488888253
 20
9.2088544024
 30
0.0
 10
12.4505709407
 20
9.2104792012
 30
0.0
 10
12.4531322228
 20
9.2128018295
 30
0.0
 10
12.4566581353
 20
9.2156545398
 30
0.0
 10
12.4600726726
 20
9.2182008949
 30
0.0
 10
12.4635353953
 20
9.2204636621
 30
0.0
 10
12.4670416193
 20
9.2224093411
 30
0.0
 10
12.4704444613
 20
9.2240798006
 30
0.0
 10
12.4738871368
 20
9.225445224
 30
0.0
 10
12.4773491776
 20
9.2264727374
 30
0.0
 10
12.4799089163
 20
9.227065012
 30
0.0
 10
12.4824601389
 20
9.227487142
 30
0.0
 10
12.4850021625
 20
9.2277389686
 30
0.0
 10
12.4875339653
 20
9.2278203747
 30
0.0
 10
12.4892160232
 20
9.2277608904
 30
0.0
 10
12.4900530149
 20
9.2277028486
 30
0.0
  0
SPLINE
  5
36E
100
AcDbEntity
  8
0
100
AcDbSpline
 62
7
  6
CONTINUOUS
 70
0
 71
3
 72
23
 73
19
 74
0
 42
0.0000001
 43
0.0000001
 44
0.0000000001
 40
0.0
 40
0.0
 40
0.0
 40
0.0
 40
0.0637775561
 40
0.1273446565
 40
0.1907020307
 40
0.2538561431
 40
0.3168131834
 40
0.3795821015
 40
0.4421733894
 40
0.5045993415
 40
0.5668738676
 40
0.6290123791
 40
0.6910316472
 40
0.7529496401
 40
0.8147853492
 40
0.8765585998
 40
0.9382898533
 40
1.0
 40
1.0
 40
1.0
 40
1.0
 10
11.2632456191
 20
7.4322747013
 30
0.0
 10
11.2632456191
 20
7.4254859796
 30
0.0
 10
11.2629207018
 20
7.4119286365
 30
0.0
 10
11.2614540827
 20
7.3916750558
 30
0.0
 10
11.259012225
 20
7.3715820776
 30
0.0
 10
11.2556008575
 20
7.3516967449
 30
0.0
 10
11.2512276915
 20
7.3320646239
 30
0.0
 10
11.2459028147
 20
7.3127310601
 30
0.0
 10
11.2396384313
 20
7.2937406057
 30
0.0
 10
11.2324489453
 20
7.2751370612
 30
0.0
 10
11.2243508986
 20
7.2569633292
 30
0.0
 10
11.2153629317
 20
7.2392613267
 30
0.0
 10
11.2055057448
 20
7.2220718904
 30
0.0
 10
11.1948020342
 20
7.2054346669
 30
0.0
 10
11.1832764995
 20
7.1893880751
 30
0.0
 10
11.1709555702
 20
7.1739690143
 30
0.0
 10
11.1578681508
 20
7.1592135314
 30
0.0
 10
11.1486505686
 20
7.1498399189
 30
0.0
 10
11.1439260247
 20
7.1452763714
 30
0.0
  0
SPLINE
  5
36F
100
AcDbEntity
  8
0
100
AcDbSpline
 62
7
  6
CONTINUOUS
 70
0
 71
3
 72
21
 73
17
 74
0
 42
0.0000001
 43
0.0000001
 44
0.0000000001
 40
0.0
 40
0.0
 40
0.0
 40
0.0
 40
0.1273176984
 40
0.2537999461
 40
0.3167619614
 40
0.3795355204
 40
0.4421314992
 40
0.5045621453
 40
0.5668413456
 40
0.6289845231
 40
0.6910084433
 40
0.7529310869
 40
0.8147714401
 40
0.8765493236
 40
0.9382852134
 40
1.0
 40
1.0
 40
1.0
 40
1.0
 10
11.487340424
 20
9.4992698962
 30
0.0
 10
11.487340424
 20
9.493972604
 30
0.0
 10
11.4868347621
 20
9.4834059612
 30
0.0
 10
11.4849250192
 20
9.4703433096
 30
0.0
 10
11.4826424715
 20
9.4600968034
 30
0.0
 10
11.4805609072
 20
9.4525389753
 30
0.0
 10
11.4781120712
 20
9.4451154461
 30
0.0
 10
11.4753016094
 20
9.4378431176
 30
0.0
 10
11.4721360015
 20
9.4307388097
 30
0.0
 10
11.468622483
 20
9.4238189186
 30
0.0
 10
11.4647691818
 20
9.4170993957
 30
0.0
 10
11.4605849845
 20
9.4105957271
 30
0.0
 10
11.4560794999
 20
9.404322962
 30
0.0
 10
11.4512630905
 20
9.3982955067
 30
0.0
 10
11.4461470774
 20
9.3925274292
 30
0.0
 10
11.4425438009
 20
9.3888632067
 30
0.0
 10
11.4406969225
 20
9.38707927
 30
0.0
  0
SPLINE
  5
370
100
AcDbEntity
  8
0
100
AcDbSpline
 62
7
  6
CONTINUOUS
 70
0
 71
3
 72
21
 73
17
 74
0
 42
0.0000001
 43
0.0000001
 44
0.0000000001
 40
0.0
 40
0.0
 40
0.0
 40
0.0
 40
0.1273176984
 40
0.2537999461
 40
0.3167619614
 40
0.3795355204
 40
0.4421314992
 40
0.5045621453
 40
0.5668413456
 40
0.6289845231
 40
0.6910084433
 40
0.7529310869
 40
0.8147714401
 40
0.8765493236
 40
0.9382852134
 40
1.0
 40
1.0
 40
1.0
 40
1.0
 10
10.5214145405
 20
6.9099608753
 30
0.0
 10
10.5214145405
 20
6.9046635831
 30
0.0
 10
10.5209088786
 20
6.8940969402
 30
0.0
 10
10.5189991357
 20
6.8810342887
 30
0.0
 10
10.516716588
 20
6.8707877824
 30
0.0
 10
10.5146350236
 20
6.8632299544
 30
0.0
 10
10.5121861876
 20
6.8558064252
 30
0.0
 10
10.5093757259
 20
6.8485340967
 30
0.0
 10
10.506210118
 20
6.8414297887
 30
0.0
 10
10.5026965995
 20
6.8345098976
 30
0.0
 10
10.4988432983
 20
6.8277903748
 30
0.0
 10
10.4946591009
 20
6.8212867062
 30
0.0
 10
10.4901536164
 20
6.8150139411
 30
0.0
 10
10.485337207
 20
6.8089864858
 30
0.0
 10
10.4802211939
 20
6.8032184083
 30
0.0
 10
10.4766179174
 20
6.7995541858
 30
0.0
 10
10.4747710389
 20
6.7977702491
 30
0.0
  0
SPLINE
  5
371
100
AcDbEntity
  8
0
100
AcDbSpline
 62
7
  6
CONTINUOUS
 70
0
 71
3
 72
39
 73
35
 74
0
 42
0.0000001
 43
0.0000001
 44
0.0000000001
 40
0.0
 40
0.0
 40
0.0
 40
0.0
 40
0.0326072156
 40
0.0649204046
 40
0.0969430036
 40
0.1286917188
 40
0.1601970942
 40
0.1915005149
 40
0.222651508
 40
0.2537048466
 40
0.2847181695
 40
0.3157501238
 40
0.3468588931
 40
0.3781012645
 40
0.4095318475
 40
0.441202107
 40
0.4731591159
 40
0.5054432581
 40
0.5380842853
 40
0.5710949938
 40
0.6044618278
 40
0.638131864
 40
0.6719978011
 40
0.7058853122
 40
0.7395516271
 40
0.7727058041
 40
0.8050523892
 40
0.8363463389
 40
0.8664351109
 40
0.8952733241
 40
0.9229105714
 40
0.9494656473
 40
0.9751005224
 40
1.0
 40
1.0
 40
1.0
 40
1.0
 10
10.6921265325
 20
7.5556159931
 30
0.0
 10
10.6921265325
 20
7.5504320797
 30
0.0
 10
10.6925520564
 20
7.5401056373
 30
0.0
 10
10.6944766175
 20
7.5247967178
 30
0.0
 10
10.6976545805
 20
7.5098366782
 30
0.0
 10
10.702038589
 20
7.495319481
 30
0.0
 10
10.7075676467
 20
7.4813221849
 30
0.0
 10
10.7141719522
 20
7.4679058131
 30
0.0
 10
10.7217773234
 20
7.4551152221
 30
0.0
 10
10.7303091588
 20
7.4429807565
 30
0.0
 10
10.7396954851
 20
7.4315203879
 30
0.0
 10
10.7498690821
 20
7.4207421719
 30
0.0
 10
10.760768761
 20
7.4106466698
 30
0.0
 10
10.7723399208
 20
7.4012291788
 30
0.0
 10
10.7845345177
 20
7.3924817037
 30
0.0
 10
10.7973105221
 20
7.3843946796
 30
0.0
 10
10.8106308386
 20
7.3769585001
 30
0.0
 10
10.8244615774
 20
7.3701649212
 30
0.0
 10
10.8387694314
 20
7.3640084343
 30
0.0
 10
10.8535178579
 20
7.3584876097
 30
0.0
 10
10.8686617576
 20
7.3536063674
 30
0.0
 10
10.8841406666
 20
7.3493749314
 30
0.0
 10
10.8998712832
 20
7.3458100491
 30
0.0
 10
10.9157416491
 20
7.3429338746
 30
0.0
 10
10.9316107755
 20
7.340771011
 30
0.0
 10
10.9473172213
 20
7.3393441089
 30
0.0
 10
10.9626968143
 20
7.3386692793
 30
0.0
 10
10.9776042053
 20
7.3387530384
 30
0.0
 10
10.9919301878
 20
7.3395925553
 30
0.0
 10
11.0056085819
 20
7.3411784322
 30
0.0
 10
11.0186121858
 20
7.3434988234
 30
0.0
 10
11.0309426643
 20
7.3465433759
 30
0.0
 10
11.0426172427
 20
7.3503048863
 30
0.0
 10
11.0500710999
 20
7.3533262697
 30
0.0
 10
11.0536794049
 20
7.3549541879
 30
0.0
  0
SPLINE
  5
372
100
AcDbEntity
  8
0
100
AcDbSpline
 62
7
  6
CONTINUOUS
 70
0
 71
3
 72
21
 73
17
 74
0
 42
0.0000001
 43
0.0000001
 44
0.0000000001
 40
0.0
 40
0.0
 40
0.0
 40
0.0
 40
0.1273175206
 40
0.2538000425
 40
0.3167619346
 40
0.3795354981
 40
0.4421315046
 40
0.5045621465
 40
0.5668413435
 40
0.6289845248
 40
0.6910084554
 40
0.7529310971
 40
0.8147714458
 40
0.876549335
 40
0.938285224
 40
1.0
 40
1.0
 40
1.0
 40
1.0
 10
11.0812775807
 20
7.4615070631
 30
0.0
 10
11.0812775807
 20
7.4542695471
 30
0.0
 10
11.0805867057
 20
7.4398326666
 30
0.0
 10
11.0779775344
 20
7.4219855647
 30
0.0
 10
11.0748589632
 20
7.4079860704
 30
0.0
 10
11.0720149884
 20
7.3976600498
 30
0.0
 10
11.0686692799
 20
7.3875174908
 30
0.0
 10
11.0648294529
 20
7.3775815237
 30
0.0
 10
11.0605043821
 20
7.3678751284
 30
0.0
 10
11.0557040324
 20
7.3584206645
 30
0.0
 10
11.0504394338
 20
7.3492399596
 30
0.0
 10
11.0447226983
 20
7.3403541961
 30
0.0
 10
11.0385670504
 20
7.3317838731
 30
0.0
 10
11.0319866042
 20
7.3235486945
 30
0.0
 10
11.0249967644
 20
7.3156679408
 30
0.0
 10
11.0200737685
 20
7.31066158
 30
0.0
 10
11.0175504434
 20
7.3082242356
 30
0.0
  0
SPLINE
  5
373
100
AcDbEntity
  8
0
100
AcDbSpline
 62
7
  6
CONTINUOUS
 70
0
 71
3
 72
41
 73
37
 74
0
 42
0.0000001
 43
0.0000001
 44
0.0000000001
 40
0.0
 40
0.0
 40
0.0
 40
0.0
 40
0.031075024
 40
0.0623072971
 40
0.0936922211
 40
0.1252210624
 40
0.1568825118
 40
0.1727610974
 40
0.1886673052
 40
0.2205489535
 40
0.2525137254
 40
0.2685233959
 40
0.284546102
 40
0.3166148171
 40
0.3487022747
 40
0.3807856767
 40
0.4128423056
 40
0.4448499765
 40
0.4767874807
 40
0.5086350171
 40
0.5403746015
 40
0.5719904501
 40
0.6034693279
 40
0.6348008563
 40
0.6659777703
 40
0.6969961186
 40
0.7278553991
 40
0.7585586231
 40
0.7891123015
 40
0.8195263493
 40
0.8498139058
 40
0.87999107
 40
0.9100765552
 40
0.9400912679
 40
0.9700578221
 40
1.0
 40
1.0
 40
1.0
 40
1.0
 10
11.0812775807
 20
7.4615070631
 30
0.0
 10
11.0812775807
 20
7.4671324316
 30
0.0
 10
11.0808579397
 20
7.4784159684
 30
0.0
 10
11.078984347
 20
7.4952872313
 30
0.0
 10
11.0758755458
 20
7.5120595311
 30
0.0
 10
11.0715489174
 20
7.5286390842
 30
0.0
 10
11.0669521028
 20
7.5422081672
 30
0.0
 10
11.0626945624
 20
7.5528774736
 30
0.0
 10
11.0580473257
 20
7.5634265489
 30
0.0
 10
11.0515325654
 20
7.5763244408
 30
0.0
 10
11.0441232707
 20
7.5887517205
 30
0.0
 10
11.0376786792
 20
7.5983813279
 30
0.0
 10
11.030892718
 20
7.6077966549
 30
0.0
 10
11.02179734
 20
7.61912402
 30
0.0
 10
11.009966856
 20
7.6319315317
 30
0.0
 10
10.9972806185
 20
7.6438893906
 30
0.0
 10
10.9838085612
 20
7.6549315235
 30
0.0
 10
10.9696245256
 20
7.6649974056
 30
0.0
 10
10.9548063589
 20
7.6740317023
 30
0.0
 10
10.9394353587
 20
7.6819847546
 30
0.0
 10
10.9235958686
 20
7.6888128011
 30
0.0
 10
10.9073748123
 20
7.6944782316
 30
0.0
 10
10.8908612252
 20
7.6989497895
 30
0.0
 10
10.8741457743
 20
7.7022027532
 30
0.0
 10
10.8573202646
 20
7.7042190719
 30
0.0
 10
10.8404771422
 20
7.7049874686
 30
0.0
 10
10.8237089924
 20
7.7045035108
 30
0.0
 10
10.8071080353
 20
7.7027696434
 30
0.0
 10
10.7907656226
 20
7.6997951874
 30
0.0
 10
10.7747717327
 20
7.6955962986
 30
0.0
 10
10.7592144811
 20
7.6901958998
 30
0.0
 10
10.744179599
 20
7.683623536
 30
0.0
 10
10.7297500628
 20
7.6759153367
 30
0.0
 10
10.7160052038
 20
7.6671134163
 30
0.0
 10
10.7030218209
 20
7.6572671528
 30
0.0
 10
10.6949181249
 20
7.6500395996
 30
0.0
 10
10.6910195528
 20
7.6462738688
 30
0.0
  0
SPLINE
  5
374
100
AcDbEntity
  8
0
100
AcDbSpline
 62
7
  6
CONTINUOUS
 70
0
 71
3
 72
17
 73
13
 74
0
 42
0.0000001
 43
0.0000001
 44
0.0000000001
 40
0.0
 40
0.0
 40
0.0
 40
0.0
 40
0.0548647422
 40
0.1099333913
 40
0.1654074837
 40
0.2214837877
 40
0.336145709
 40
0.4553802063
 40
0.5804211709
 40
0.7123203349
 40
0.8519514223
 40
1.0
 40
1.0
 40
1.0
 40
1.0
 10
11.2285748021
 20
10.7461380852
 30
0.0
 10
11.2285748055
 20
10.7454319389
 30
0.0
 10
11.228529995
 20
10.7440166137
 30
0.0
 10
11.2283285121
 20
10.7418959398
 30
0.0
 10
11.2279927302
 20
10.7397764394
 30
0.0
 10
11.2273617415
 20
10.7369325672
 30
0.0
 10
11.2262249375
 20
10.733368071
 30
0.0
 10
11.224334963
 20
10.7291432256
 30
0.0
 10
11.2219132518
 20
10.7249419061
 30
0.0
 10
11.2189638398
 20
10.7207682332
 30
0.0
 10
11.2154910819
 20
10.7166258228
 30
0.0
 10
11.2129082801
 20
10.7139679824
 30
0.0
 10
11.211537751
 20
10.7126441529
 30
0.0
  0
SPLINE
  5
375
100
AcDbEntity
  8
0
100
AcDbSpline
 62
7
  6
CONTINUOUS
 70
0
 71
3
 72
39
 73
35
 74
0
 42
0.0000001
 43
0.0000001
 44
0.0000000001
 40
0.0
 40
0.0
 40
0.0
 40
0.0
 40
0.0299424701
 40
0.0599093174
 40
0.0899243244
 40
0.1200101043
 40
0.1501875649
 40
0.1804754189
 40
0.2108897652
 40
0.2414437446
 40
0.2721472716
 40
0.303006856
 40
0.3340255105
 40
0.3652027321
 40
0.396534568
 40
0.4280137546
 40
0.459629913
 40
0.4913698074
 40
0.5232176551
 40
0.555155472
 40
0.5871634555
 40
0.6192203971
 40
0.6513041118
 40
0.6833918814
 40
0.7154609078
 40
0.747488765
 40
0.7794538478
 40
0.811335806
 40
0.8431159644
 40
0.874777716
 40
0.9063068848
 40
0.9376920706
 40
0.9689246614
 40
1.0
 40
1.0
 40
1.0
 40
1.0
 10
10.5325504359
 20
7.7782217563
 30
0.0
 10
10.5398498912
 20
7.785272471
 30
0.0
 10
10.5550227939
 20
7.7988048552
 30
0.0
 10
10.5793321384
 20
7.8172403218
 30
0.0
 10
10.6050672132
 20
7.8337204283
 30
0.0
 10
10.6320842201
 20
7.8481527364
 30
0.0
 10
10.6602346456
 20
7.8604583509
 30
0.0
 10
10.6893631093
 20
7.8705696684
 30
0.0
 10
10.7193090982
 20
7.8784313762
 30
0.0
 10
10.7499076433
 20
7.8840005019
 30
0.0
 10
10.7809902646
 20
7.8872468297
 30
0.0
 10
10.8123859233
 20
7.8881529256
 30
0.0
 10
10.8439219525
 20
7.8867141615
 30
0.0
 10
10.8754249984
 20
7.8829388653
 30
0.0
 10
10.9067219777
 20
7.8768481798
 30
0.0
 10
10.9376409929
 20
7.8684758601
 30
0.0
 10
10.9680122879
 20
7.8578682115
 30
0.0
 10
10.9976691709
 20
7.8450837815
 30
0.0
 10
11.0264488747
 20
7.8301929482
 30
0.0
 10
11.0541934797
 20
7.8132776456
 30
0.0
 10
11.0807507793
 20
7.7944308999
 30
0.0
 10
11.1059750396
 20
7.7737562288
 30
0.0
 10
11.1297278408
 20
7.7513671664
 30
0.0
 10
11.1518788577
 20
7.7273866562
 30
0.0
 10
11.1723064775
 20
7.7019462927
 30
0.0
 10
11.1908985115
 20
7.675185671
 30
0.0
 10
11.2075528629
 20
7.6472516567
 30
0.0
 10
11.2221779695
 20
7.6182975057
 30
0.0
 10
11.2346933461
 20
7.5884820964
 30
0.0
 10
11.2450301132
 20
7.5579690252
 30
0.0
 10
11.2531312542
 20
7.5269259234
 30
0.0
 10
11.2589519049
 20
7.4955226527
 30
0.0
 10
11.2624599043
 20
7.4639338999
 30
0.0
 10
11.2632456191
 20
7.4428072998
 30
0.0
 10
11.2632456191
 20
7.4322747013
 30
0.0
  0
SPLINE
  5
376
100
AcDbEntity
  8
0
100
AcDbSpline
 62
7
  6
CONTINUOUS
 70
0
 71
3
 72
16
 73
12
 74
0
 42
0.0000001
 43
0.0000001
 44
0.0000000001
 40
0.0
 40
0.0
 40
0.0
 40
0.0
 40
0.1263766822
 40
0.2526232764
 40
0.3786276837
 40
0.504255568
 40
0.6293563142
 40
0.753773341
 40
0.8156892715
 40
0.8773796462
 40
1.0
 40
1.0
 40
1.0
 40
1.0
 10
10.7308083171
 20
7.6762958029
 30
0.0
 10
10.727800109
 20
7.6717928551
 30
0.0
 10
10.7220698555
 20
7.6625984144
 30
0.0
 10
10.7144042423
 20
7.6482859171
 30
0.0
 10
10.7077439718
 20
7.6335122585
 30
0.0
 10
10.7021642088
 20
7.6183488389
 30
0.0
 10
10.697735569
 20
7.6028802643
 30
0.0
 10
10.6950515789
 20
7.5897927826
 30
0.0
 10
10.6935384199
 20
7.5792704324
 30
0.0
 10
10.6924566858
 20
7.5687730531
 30
0.0
 10
10.6921265325
 20
7.5608703668
 30
0.0
 10
10.6921265325
 20
7.5556159931
 30
0.0
  0
SPLINE
  5
377
100
AcDbEntity
  8
0
100
AcDbSpline
 62
7
  6
CONTINUOUS
 70
0
 71
3
 72
42
 73
38
 74
0
 42
0.0000001
 43
0.0000001
 44
0.0000000001
 40
0.0
 40
0.0
 40
0.0
 40
0.0
 40
0.0299419634
 40
0.0449235299
 40
0.0599142017
 40
0.0899287029
 40
0.1200139772
 40
0.1350926626
 40
0.1501967046
 40
0.1804840506
 40
0.2108978877
 40
0.2414513551
 40
0.2721543675
 40
0.3030134354
 40
0.3340315696
 40
0.3652082675
 40
0.3965395775
 40
0.4280182343
 40
0.4596338596
 40
0.4913732188
 40
0.5232205284
 40
0.5551578047
 40
0.5871652463
 40
0.6192216448
 40
0.6513048151
 40
0.6833920402
 40
0.7154605222
 40
0.747487836
 40
0.7794523759
 40
0.8113337934
 40
0.8431134117
 40
0.8747746318
 40
0.9063032512
 40
0.9376879208
 40
0.9533258
 40
0.9689252634
 40
1.0
 40
1.0
 40
1.0
 40
1.0
 10
11.2017054217
 20
9.6345041149
 30
0.0
 10
11.204558846
 20
9.6372602944
 30
0.0
 10
11.2090071803
 20
9.6412275515
 30
0.0
 10
11.2152369722
 20
9.6461500535
 30
0.0
 10
11.2216651517
 20
9.6508276044
 30
0.0
 10
11.230052869
 20
9.6561989481
 30
0.0
 10
11.2388484022
 20
9.6608973194
 30
0.0
 10
11.2461024376
 20
9.6642397454
 30
0.0
 10
11.2535063201
 20
9.667306249
 30
0.0
 10
11.2630051656
 20
9.670603607
 30
0.0
 10
11.2747110529
 20
9.673676662
 30
0.0
 10
11.2866723645
 20
9.6758536849
 30
0.0
 10
11.2988228125
 20
9.6771226653
 30
0.0
 10
11.3110956519
 20
9.6774768312
 30
0.0
 10
11.3234233541
 20
9.6769143799
 30
0.0
 10
11.3357381632
 20
9.6754385606
 30
0.0
 10
11.3479724149
 20
9.6730576274
 30
0.0
 10
11.360058917
 20
9.669784794
 30
0.0
 10
11.3719313105
 20
9.6656381558
 30
0.0
 10
11.3835244291
 20
9.6606405875
 30
0.0
 10
11.3947746522
 20
9.654819616
 30
0.0
 10
11.4056202486
 20
9.6482072685
 30
0.0
 10
11.4160017111
 20
9.6408398968
 30
0.0
 10
11.4258620789
 20
9.6327579788
 30
0.0
 10
11.435147246
 20
9.6240058977
 30
0.0
 10
11.4438062554
 20
9.6146317006
 30
0.0
 10
11.4517915751
 20
9.6046868373
 30
0.0
 10
11.4590593571
 20
9.5942258803
 30
0.0
 10
11.4655696756
 20
9.5833062313
 30
0.0
 10
11.4712867446
 20
9.5719877981
 30
0.0
 10
11.4761791121
 20
9.5603327158
 30
0.0
 10
11.4802198422
 20
9.5484048384
 30
0.0
 10
11.4833866127
 20
9.5362700315
 30
0.0
 10
11.485285162
 20
9.5260269389
 30
0.0
 10
11.4863501918
 20
9.5177967381
 30
0.0
 10
11.4871102774
 20
9.5095744131
 30
0.0
 10
11.487340424
 20
9.5033871688
 30
0.0
 10
11.487340424
 20
9.4992698962
 30
0.0
  0
SPLINE
  5
378
100
AcDbEntity
  8
0
100
AcDbSpline
 62
7
  6
CONTINUOUS
 70
0
 71
3
 72
42
 73
38
 74
0
 42
0.0000001
 43
0.0000001
 44
0.0000000001
 40
0.0
 40
0.0
 40
0.0
 40
0.0
 40
0.0299419634
 40
0.0449235299
 40
0.0599142017
 40
0.0899287029
 40
0.1200139772
 40
0.1350926626
 40
0.1501967046
 40
0.1804840506
 40
0.2108978877
 40
0.2414513551
 40
0.2721543675
 40
0.3030134354
 40
0.3340315696
 40
0.3652082675
 40
0.3965395775
 40
0.4280182343
 40
0.4596338596
 40
0.4913732188
 40
0.5232205284
 40
0.5551578047
 40
0.5871652463
 40
0.6192216448
 40
0.6513048151
 40
0.6833920402
 40
0.7154605222
 40
0.747487836
 40
0.7794523759
 40
0.8113337934
 40
0.8431134117
 40
0.8747746318
 40
0.9063032512
 40
0.9376879208
 40
0.9533258
 40
0.9689252634
 40
1.0
 40
1.0
 40
1.0
 40
1.0
 10
10.2357795382
 20
7.045195094
 30
0.0
 10
10.2386329625
 20
7.0479512735
 30
0.0
 10
10.2430812968
 20
7.0519185306
 30
0.0
 10
10.2493110887
 20
7.0568410326
 30
0.0
 10
10.2557392682
 20
7.0615185834
 30
0.0
 10
10.2641269855
 20
7.0668899272
 30
0.0
 10
10.2729225187
 20
7.0715882985
 30
0.0
 10
10.2801765541
 20
7.0749307245
 30
0.0
 10
10.2875804366
 20
7.0779972281
 30
0.0
 10
10.2970792821
 20
7.0812945861
 30
0.0
 10
10.3087851694
 20
7.0843676411
 30
0.0
 10
10.320746481
 20
7.086544664
 30
0.0
 10
10.332896929
 20
7.0878136444
 30
0.0
 10
10.3451697684
 20
7.0881678102
 30
0.0
 10
10.3574974706
 20
7.087605359
 30
0.0
 10
10.3698122797
 20
7.0861295397
 30
0.0
 10
10.3820465313
 20
7.0837486065
 30
0.0
 10
10.3941330335
 20
7.0804757731
 30
0.0
 10
10.4060054269
 20
7.0763291348
 30
0.0
 10
10.4175985456
 20
7.0713315666
 30
0.0
 10
10.4288487687
 20
7.0655105951
 30
0.0
 10
10.4396943651
 20
7.0588982476
 30
0.0
 10
10.4500758276
 20
7.0515308759
 30
0.0
 10
10.4599361954
 20
7.0434489578
 30
0.0
 10
10.4692213625
 20
7.0346968767
 30
0.0
 10
10.4778803719
 20
7.0253226796
 30
0.0
 10
10.4858656916
 20
7.0153778164
 30
0.0
 10
10.4931334736
 20
7.0049168593
 30
0.0
 10
10.4996437921
 20
6.9939972104
 30
0.0
 10
10.505360861
 20
6.9826787771
 30
0.0
 10
10.5102532285
 20
6.9710236949
 30
0.0
 10
10.5142939587
 20
6.9590958174
 30
0.0
 10
10.5174607292
 20
6.9469610105
 30
0.0
 10
10.5193592784
 20
6.9367179179
 30
0.0
 10
10.5204243083
 20
6.9284877172
 30
0.0
 10
10.5211843939
 20
6.9202653921
 30
0.0
 10
10.5214145405
 20
6.9140781479
 30
0.0
 10
10.5214145405
 20
6.9099608753
 30
0.0
  0
SPLINE
  5
379
100
AcDbEntity
  8
0
100
AcDbSpline
 62
7
  6
CONTINUOUS
 70
0
 71
3
 72
82
 73
78
 74
0
 42
0.0000001
 43
0.0000001
 44
0.0000000001
 40
0.0
 40
0.0
 40
0.0
 40
0.0
 40
0.0027164291
 40
0.0054532364
 40
0.0082303053
 40
0.0110666058
 40
0.0139798164
 40
0.016986131
 40
0.0201001037
 40
0.0233346222
 40
0.0267009905
 40
0.0302089475
 40
0.0338668707
 40
0.0376818493
 40
0.0416598249
 40
0.0458057691
 40
0.0501237025
 40
0.0546169039
 40
0.0592879295
 40
0.0641387045
 40
0.069170648
 40
0.0743846285
 40
0.0797811279
 40
0.0853602093
 40
0.0970640744
 40
0.1094908292
 40
0.122630084
 40
0.1364677626
 40
0.1509865887
 40
0.1661664945
 40
0.1819849411
 40
0.1984171777
 40
0.2154364542
 40
0.233014197
 40
0.2511201854
 40
0.2697227022
 40
0.2887886669
 40
0.3082837565
 40
0.3281725155
 40
0.3484184781
 40
0.3689842782
 40
0.3898317536
 40
0.4109220451
 40
0.4536720397
 40
0.4969140311
 40
0.540322302
 40
0.5835695392
 40
0.6263299734
 40
0.6474273998
 40
0.6682832705
 40
0.6888587055
 40
0.7091155138
 40
0.7290162972
 40
0.7485245643
 40
0.7676048337
 40
0.786222742
 40
0.8043451595
 40
0.821940317
 40
0.8389779517
 40
0.8554294454
 40
0.8712679825
 40
0.8864687352
 40
0.9010090829
 40
0.9148688848
 40
0.9280307811
 40
0.9404805813
 40
0.9522077554
 40
0.9577985268
 40
0.9632067444
 40
0.9684324379
 40
0.9734760336
 40
0.9783383943
 40
0.9830208414
 40
0.9875253833
 40
0.9918546059
 40
0.9960115907
 40
1.0
 40
1.0
 40
1.0
 40
1.0
 10
12.4184475327
 20
9.7049249266
 30
0.0
 10
12.4176263276
 20
9.7049818817
 30
0.0
 10
12.4159819634
 20
9.7051705624
 30
0.0
 10
12.4135363568
 20
9.7056754377
 30
0.0
 10
12.411109224
 20
9.7064020566
 30
0.0
 10
12.4087023181
 20
9.7073497828
 30
0.0
 10
12.4063168552
 20
9.708517701
 30
0.0
 10
12.4039540773
 20
9.7099049454
 30
0.0
 10
12.4016150747
 20
9.7115105188
 30
0.0
 10
12.399300859
 20
9.7133333746
 30
0.0
 10
12.3970124794
 20
9.7153725023
 30
0.0
 10
12.3947508687
 20
9.7176267316
 30
0.0
 10
12.3925170526
 20
9.7200949245
 30
0.0
 10
12.3903120137
 20
9.7227758178
 30
0.0
 10
12.3881367256
 20
9.7256680614
 30
0.0
 10
12.3859922425
 20
9.7287702564
 30
0.0
 10
12.3838795166
 20
9.7320808431
 30
0.0
 10
12.3817995936
 20
9.735598214
 30
0.0
 10
12.3797534675
 20
9.7393206295
 30
0.0
 10
12.3777421126
 20
9.7432462447
 30
0.0
 10
12.3757665603
 20
9.7473731349
 30
0.0
 10
12.3738277431
 20
9.7516992344
 30
0.0
 10
12.3719266344
 20
9.7562224137
 30
0.0
 10
12.3694030259
 20
9.7626155191
 30
0.0
 10
12.3663593884
 20
9.7710912238
 30
0.0
 10
12.3629279694
 20
9.7818536531
 30
0.0
 10
12.359668437
 20
9.79334287
 30
0.0
 10
12.3565873822
 20
9.8055359307
 30
0.0
 10
12.3536910475
 20
9.8184086227
 30
0.0
 10
12.350985316
 20
9.8319352395
 30
0.0
 10
12.3484756915
 20
9.8460887372
 30
0.0
 10
12.3461672827
 20
9.8608407741
 30
0.0
 10
12.3440647927
 20
9.8761617779
 30
0.0
 10
12.3421724974
 20
9.8920210066
 30
0.0
 10
12.3404942468
 20
9.9083866183
 30
0.0
 10
12.3390334574
 20
9.9252257432
 30
0.0
 10
12.3377931054
 20
9.9425045513
 30
0.0
 10
12.3367757214
 20
9.960188319
 30
0.0
 10
12.3359833765
 20
9.9782414984
 30
0.0
 10
12.3354176851
 20
9.9966277956
 30
0.0
 10
12.3350798115
 20
10.0153102347
 30
0.0
 10
12.3349704338
 20
10.0342512805
 30
0.0
 10
12.3351303977
 20
10.0599147902
 30
0.0
 10
12.335906502
 20
10.0923585444
 30
0.0
 10
12.3377355436
 20
10.1315321133
 30
0.0
 10
12.3404520855
 20
10.1708053217
 30
0.0
 10
12.3440342637
 20
10.2098623907
 30
0.0
 10
12.3477328984
 20
10.2421109312
 30
0.0
 10
12.3511083268
 20
10.2675599346
 30
0.0
 10
12.3538250055
 20
10.2863131681
 30
0.0
 10
12.3567324766
 20
10.3047799318
 30
0.0
 10
12.3598249018
 20
10.3229231204
 30
0.0
 10
12.3630960397
 20
10.3407062483
 30
0.0
 10
12.3665392876
 20
10.3580935705
 30
0.0
 10
12.3701476933
 20
10.375050143
 30
0.0
 10
12.3739139716
 20
10.3915418934
 30
0.0
 10
12.3778305175
 20
10.4075356896
 30
0.0
 10
12.3818894235
 20
10.4229994115
 30
0.0
 10
12.386082485
 20
10.4379020229
 30
0.0
 10
12.3904012267
 20
10.4522136348
 30
0.0
 10
12.3948369205
 20
10.4659055651
 30
0.0
 10
12.3993806035
 20
10.4789503995
 30
0.0
 10
12.4040231026
 20
10.4913220652
 30
0.0
 10
12.4087550435
 20
10.5029958745
 30
0.0
 10
12.4135668984
 20
10.5139486695
 30
0.0
 10
12.4184489852
 20
10.5241585811
 30
0.0
 10
12.4226317892
 20
10.5321537235
 30
0.0
 10
12.4260125616
 20
10.5381541854
 30
0.0
 10
12.4285191385
 20
10.542384429
 30
0.0
 10
12.4310359376
 20
10.5464144116
 30
0.0
 10
12.4335617301
 20
10.5502421262
 30
0.0
 10
12.4360952195
 20
10.5538656825
 30
0.0
 10
12.4386352154
 20
10.5572832748
 30
0.0
 10
12.4411804654
 20
10.5604932642
 30
0.0
 10
12.443729799
 20
10.5634940688
 30
0.0
 10
12.4462818276
 20
10.5662840596
 30
0.0
 10
12.4480195094
 20
10.5680383167
 30
0.0
 10
12.4488888253
 20
10.5688780114
 30
0.0
  0
SPLINE
  5
37A
100
AcDbEntity
  8
0
100
AcDbSpline
 62
7
  6
CONTINUOUS
 70
0
 71
3
 72
57
 73
53
 74
0
 42
0.0000001
 43
0.0000001
 44
0.0000000001
 40
0.0
 40
0.0
 40
0.0
 40
0.0
 40
0.0075207525
 40
0.0156240325
 40
0.0243308614
 40
0.0336546301
 40
0.0436024271
 40
0.0541763765
 40
0.0653744283
 40
0.0771909745
 40
0.0896175297
 40
0.1026429528
 40
0.1162538654
 40
0.1304349454
 40
0.1451689843
 40
0.1604372353
 40
0.1762194622
 40
0.1924940453
 40
0.2092382131
 40
0.2264279957
 40
0.2620427487
 40
0.2991284251
 40
0.3374614636
 40
0.3768078207
 40
0.4169251328
 40
0.4575648304
 40
0.4984741812
 40
0.5393983111
 40
0.5800822305
 40
0.6202728557
 40
0.6597210261
 40
0.6981835546
 40
0.7354253343
 40
0.7712214718
 40
0.7885109206
 40
0.8053604621
 40
0.8217458644
 40
0.8376440784
 40
0.8530332192
 40
0.8678926933
 40
0.8822034212
 40
0.895947816
 40
0.9091100893
 40
0.9216764187
 40
0.9336350908
 40
0.9449769803
 40
0.9556957931
 40
0.9657885947
 40
0.9752564015
 40
0.9841051066
 40
0.9923469445
 40
1.0
 40
1.0
 40
1.0
 40
1.0
 10
12.3832026472
 20
9.8917964707
 30
0.0
 10
12.3823680148
 20
9.8928226868
 30
0.0
 10
12.3807235012
 20
9.8950282254
 30
0.0
 10
12.3784092752
 20
9.8986311249
 30
0.0
 10
12.3761610943
 20
9.902643145
 30
0.0
 10
12.3739825818
 20
9.9070577412
 30
0.0
 10
12.3718769826
 20
9.9118680256
 30
0.0
 10
12.3698477065
 20
9.9170662961
 30
0.0
 10
12.367898061
 20
9.9226441737
 30
0.0
 10
12.366031228
 20
9.928592578
 30
0.0
 10
12.364250346
 20
9.9349017893
 30
0.0
 10
12.3625583656
 20
9.941561441
 30
0.0
 10
12.3609581111
 20
9.9485605628
 30
0.0
 10
12.3594522941
 20
9.9558876028
 30
0.0
 10
12.3580434069
 20
9.9635304411
 30
0.0
 10
12.3567338329
 20
9.9714764246
 30
0.0
 10
12.3555257741
 20
9.9797123864
 30
0.0
 10
12.3544212401
 20
9.9882246645
 30
0.0
 10
12.3534220923
 20
9.9969991496
 30
0.0
 10
12.3522184953
 20
10.0091726137
 30
0.0
 10
12.350998971
 20
10.0249378157
 30
0.0
 10
12.3499937426
 20
10.0444427635
 30
0.0
 10
12.3494371468
 20
10.0646221652
 30
0.0
 10
12.349333067
 20
10.0853420308
 30
0.0
 10
12.3496823774
 20
10.1064648871
 30
0.0
 10
12.3504828743
 20
10.1278504976
 30
0.0
 10
12.3517293182
 20
10.1493568718
 30
0.0
 10
12.3534134609
 20
10.1708412037
 30
0.0
 10
12.355524093
 20
10.1921608368
 30
0.0
 10
12.3580471344
 20
10.2131742257
 30
0.0
 10
12.3609657292
 20
10.2337418716
 30
0.0
 10
12.3642603346
 20
10.25372733
 30
0.0
 10
12.3679088914
 20
10.2729979197
 30
0.0
 10
12.3712614298
 20
10.2885293629
 30
0.0
 10
12.3741100703
 20
10.3004957489
 30
0.0
 10
12.3762945306
 20
10.3091098194
 30
0.0
 10
12.3785480369
 20
10.3174528922
 30
0.0
 10
12.3808668287
 20
10.3255111408
 30
0.0
 10
12.3832470349
 20
10.3332712
 30
0.0
 10
12.3856847028
 20
10.3407202084
 30
0.0
 10
12.3881757339
 20
10.3478458401
 30
0.0
 10
12.3907159993
 20
10.3546363073
 30
0.0
 10
12.3933012579
 20
10.3610804013
 30
0.0
 10
12.395927187
 20
10.3671675124
 30
0.0
 10
12.3985894609
 20
10.3728876291
 30
0.0
 10
12.4012836393
 20
10.3782314061
 30
0.0
 10
12.4040052998
 20
10.3831901468
 30
0.0
 10
12.4067500391
 20
10.3877558186
 30
0.0
 10
12.4095133659
 20
10.391921115
 30
0.0
 10
12.4122911185
 20
10.3956795594
 30
0.0
 10
12.4150788092
 20
10.3990248708
 30
0.0
 10
12.4170110481
 20
10.4010494125
 30
0.0
 10
12.4179791963
 20
10.4019845718
 30
0.0
  0
SPLINE
  5
37B
100
AcDbEntity
  8
0
100
AcDbSpline
 62
7
  6
CONTINUOUS
 70
0
 71
3
 72
90
 73
86
 74
0
 42
0.0000001
 43
0.0000001
 44
0.0000000001
 40
0.0
 40
0.0
 40
0.0
 40
0.0
 40
0.0027164161
 40
0.0054532042
 40
0.0082302557
 40
0.0110665249
 40
0.0139797103
 40
0.0169859906
 40
0.0200999233
 40
0.0233344115
 40
0.0267007267
 40
0.03020865
 40
0.0338665219
 40
0.037681453
 40
0.0416593866
 40
0.0458052705
 40
0.0501231624
 40
0.0546163044
 40
0.05928728
 40
0.0641380041
 40
0.0691698883
 40
0.074383819
 40
0.0797802599
 40
0.0853592863
 40
0.0911205905
 40
0.0970635843
 40
0.1094902289
 40
0.1226293717
 40
0.1364669317
 40
0.1509856416
 40
0.1661654371
 40
0.1819837774
 40
0.1984159058
 40
0.215435067
 40
0.2330126943
 40
0.2511185732
 40
0.2697209872
 40
0.2887868504
 40
0.3082818346
 40
0.3281704884
 40
0.3484163492
 40
0.3689820511
 40
0.3898294297
 40
0.410919625
 40
0.4322131812
 40
0.4536701493
 40
0.4752501863
 40
0.4969126541
 40
0.5186167167
 40
0.5403214385
 40
0.5619858817
 40
0.583569205
 40
0.605030762
 40
0.6263301992
 40
0.6474275545
 40
0.6682833559
 40
0.6888587212
 40
0.70911546
 40
0.7290161786
 40
0.7485243844
 40
0.7676045932
 40
0.7862224409
 40
0.8043448006
 40
0.8219399072
 40
0.8389774919
 40
0.8554289325
 40
0.8712674145
 40
0.8864681158
 40
0.9010084229
 40
0.9148681885
 40
0.9280300453
 40
0.9343448951
 40
0.9404802507
 40
0.9464348979
 40
0.9522079219
 40
0.9577986875
 40
0.9632068744
 40
0.9684325511
 40
0.9734761281
 40
0.9783384812
 40
0.9830209275
 40
0.9875254311
 40
0.9918546016
 40
0.9960115654
 40
1.0
 40
1.0
 40
1.0
 40
1.0
 10
12.4077246356
 20
8.0405541548
 30
0.0
 10
12.4066141407
 20
8.0406311628
 30
0.0
 10
12.4043905093
 20
8.040886267
 30
0.0
 10
12.4010833599
 20
8.0415688927
 30
0.0
 10
12.3978012222
 20
8.0425514736
 30
0.0
 10
12.3945463948
 20
8.0438329401
 30
0.0
 10
12.3913206033
 20
8.0454122597
 30
0.0
 10
12.3881254673
 20
8.0472881223
 30
0.0
 10
12.3849624715
 20
8.0494592224
 30
0.0
 10
12.3818330377
 20
8.0519241956
 30
0.0
 10
12.3787384747
 20
8.0546815595
 30
0.0
 10
12.3756801798
 20
8.0577298673
 30
0.0
 10
12.372659419
 20
8.061067468
 30
0.0
 10
12.369677593
 20
8.0646927177
 30
0.0
 10
12.3667360129
 20
8.0686037789
 30
0.0
 10
12.363836048
 20
8.0727987292
 30
0.0
 10
12.3609790784
 20
8.0772755103
 30
0.0
 10
12.3581664224
 20
8.0820318996
 30
0.0
 10
12.3553994963
 20
8.0870655799
 30
0.0
 10
12.3526795848
 20
8.0923740406
 30
0.0
 10
12.3500080771
 20
8.0979546761
 30
0.0
 10
12.3473862587
 20
8.1038047067
 30
0.0
 10
12.3448154392
 20
8.1099212313
 30
0.0
 10
12.3422969223
 20
8.116301206
 30
0.0
 10
12.3398319028
 20
8.1229414534
 30
0.0
 10
12.3365696978
 20
8.1322770421
 30
0.0
 10
12.3326467075
 20
8.1445816175
 30
0.0
 10
12.3282389016
 20
8.1601179549
 30
0.0
 10
12.3240724434
 20
8.1766062885
 30
0.0
 10
12.3201557787
 20
8.1940136171
 30
0.0
 10
12.3164968653
 20
8.2123052588
 30
0.0
 10
12.3131031444
 20
8.2314446184
 30
0.0
 10
12.309981522
 20
8.2513933705
 30
0.0
 10
12.3071383521
 20
8.2721115207
 30
0.0
 10
12.3045794225
 20
8.2935575017
 30
0.0
 10
12.3023099432
 20
8.3156882605
 30
0.0
 10
12.300334536
 20
8.3384593482
 30
0.0
 10
12.298657222
 20
8.361825013
 30
0.0
 10
12.2972814169
 20
8.3857382953
 30
0.0
 10
12.2962099254
 20
8.4101511266
 30
0.0
 10
12.2954449353
 20
8.4350144275
 30
0.0
 10
12.2949880139
 20
8.4602782075
 30
0.0
 10
12.2948401052
 20
8.4858916663
 30
0.0
 10
12.2950015285
 20
8.5118032958
 30
0.0
 10
12.2954719744
 20
8.5379609848
 30
0.0
 10
12.296250509
 20
8.5643121249
 30
0.0
 10
12.2973355759
 20
8.5908037177
 30
0.0
 10
12.2987249998
 20
8.6173824815
 30
0.0
 10
12.3004159909
 20
8.6439949588
 30
0.0
 10
12.3024051503
 20
8.6705876235
 30
0.0
 10
12.3046884774
 20
8.6971069892
 30
0.0
 10
12.3072613743
 20
8.7234997177
 30
0.0
 10
12.3101186583
 20
8.7497127271
 30
0.0
 10
12.3132545724
 20
8.7756932987
 30
0.0
 10
12.3166627968
 20
8.8013891832
 30
0.0
 10
12.3203364613
 20
8.8267487059
 30
0.0
 10
12.3242681592
 20
8.851720871
 30
0.0
 10
12.3284499618
 20
8.8762554657
 30
0.0
 10
12.3328734314
 20
8.9003031637
 30
0.0
 10
12.3375296408
 20
8.9238156252
 30
0.0
 10
12.3424091912
 20
8.946745594
 30
0.0
 10
12.3475022308
 20
8.9690469944
 30
0.0
 10
12.3527984744
 20
8.9906750253
 30
0.0
 10
12.3582872239
 20
9.0115862529
 30
0.0
 10
12.3639573909
 20
9.031738704
 30
0.0
 10
12.3697975151
 20
9.0510919549
 30
0.0
 10
12.3757957929
 20
9.0696072242
 30
0.0
 10
12.3819401023
 20
9.0872474347
 30
0.0
 10
12.3882180336
 20
9.1039773745
 30
0.0
 10
12.3946169124
 20
9.1197635129
 30
0.0
 10
12.4001125134
 20
9.1322729121
 30
0.0
 10
12.4045676451
 20
9.141776488
 30
0.0
 10
12.4078850262
 20
9.1485503186
 30
0.0
 10
12.4112229674
 20
9.1550655443
 30
0.0
 10
12.4145797991
 20
9.1613189211
 30
0.0
 10
12.4179538327
 20
9.1673073279
 30
0.0
 10
12.4213434099
 20
9.1730277718
 30
0.0
 10
12.4247468024
 20
9.1784774262
 30
0.0
 10
12.4281623733
 20
9.1836535532
 30
0.0
 10
12.4315883628
 20
9.1885536026
 30
0.0
 10
12.435023129
 20
9.1931751368
 30
0.0
 10
12.4384650033
 20
9.1975159084
 30
0.0
 10
12.4419123758
 20
9.2015738124
 30
0.0
 10
12.4453634222
 20
9.2053466466
 30
0.0
 10
12.447713259
 20
9.2077188925
 30
0.0
 10
12.4488888253
 20
9.2088544024
 30
0.0
  0
SPLINE
  5
37C
100
AcDbEntity
  8
0
100
AcDbSpline
 62
7
  6
CONTINUOUS
 70
0
 71
3
 72
61
 73
57
 74
0
 42
0.0000001
 43
0.0000001
 44
0.0000000001
 40
0.0
 40
0.0
 40
0.0
 40
0.0
 40
0.007520736
 40
0.0156240064
 40
0.0243308314
 40
0.0336545627
 40
0.0436023576
 40
0.0541762911
 40
0.065374298
 40
0.0771908404
 40
0.0896173637
 40
0.1026427459
 40
0.1162536401
 40
0.1304346776
 40
0.1451686827
 40
0.1604368921
 40
0.1762190747
 40
0.1924936262
 40
0.2092377338
 40
0.2264274719
 40
0.2440378492
 40
0.2620429285
 40
0.2804159201
 40
0.2991292233
 40
0.337462144
 40
0.3768083795
 40
0.4169255651
 40
0.4575651352
 40
0.4984743559
 40
0.5393983541
 40
0.5800821394
 40
0.6202726307
 40
0.6597206676
 40
0.6981830696
 40
0.7169711587
 40
0.73542544
 40
0.7535181279
 40
0.7712222409
 40
0.788511644
 40
0.8053611137
 40
0.821746466
 40
0.8376446296
 40
0.8530337122
 40
0.8678931419
 40
0.8822038118
 40
0.8959481707
 40
0.9091104
 40
0.921676668
 40
0.9336353219
 40
0.9449771721
 40
0.9556959291
 40
0.9657887028
 40
0.9752565161
 40
0.9841051753
 40
0.9923468585
 40
1.0
 40
1.0
 40
1.0
 40
1.0
 10
12.3635177173
 20
8.2381576253
 30
0.0
 10
12.3622106522
 20
8.2397647209
 30
0.0
 10
12.3596352819
 20
8.2432186841
 30
0.0
 10
12.3560111194
 20
8.2488609758
 30
0.0
 10
12.352490403
 20
8.2551439688
 30
0.0
 10
12.3490787475
 20
8.262057393
 30
0.0
 10
12.3457813221
 20
8.2695904992
 30
0.0
 10
12.342603407
 20
8.2777311976
 30
0.0
 10
12.3395501698
 20
8.2864663672
 30
0.0
 10
12.3366266654
 20
8.2957818074
 30
0.0
 10
12.3338377339
 20
8.3056622777
 30
0.0
 10
12.3311880236
 20
8.3160915483
 30
0.0
 10
12.3286819827
 20
8.3270524456
 30
0.0
 10
12.32632381
 20
8.3385268728
 30
0.0
 10
12.3241174484
 20
8.35049585
 30
0.0
 10
12.3220666083
 20
8.3629395637
 30
0.0
 10
12.3201747425
 20
8.3758373947
 30
0.0
 10
12.3184450116
 20
8.38916795
 30
0.0
 10
12.3168803203
 20
8.4029091117
 30
0.0
 10
12.3154833095
 20
8.4170380741
 30
0.0
 10
12.3142563135
 20
8.4315313774
 30
0.0
 10
12.3132013929
 20
8.4463649441
 30
0.0
 10
12.3123203087
 20
8.4615141579
 30
0.0
 10
12.3113718045
 20
8.4822664403
 30
0.0
 10
12.3106397765
 20
8.5088093765
 30
0.0
 10
12.3104767625
 20
8.5412573812
 30
0.0
 10
12.3110238042
 20
8.5743365841
 30
0.0
 10
12.3122774172
 20
8.6078272411
 30
0.0
 10
12.3142294074
 20
8.6415070243
 30
0.0
 10
12.3168668283
 20
8.6751522882
 30
0.0
 10
12.3201721666
 20
8.7085396173
 30
0.0
 10
12.3241233424
 20
8.7414473833
 30
0.0
 10
12.3286939919
 20
8.7736569962
 30
0.0
 10
12.3330265921
 20
8.7999395866
 30
0.0
 10
12.3367873284
 20
8.8204502569
 30
0.0
 10
12.3397206236
 20
8.8354072683
 30
0.0
 10
12.3427836894
 20
8.8500333332
 30
0.0
 10
12.3459714298
 20
8.8643041804
 30
0.0
 10
12.3492785202
 20
8.8781961069
 30
0.0
 10
12.352699459
 20
8.8916860454
 30
0.0
 10
12.3562285326
 20
8.9047516082
 30
0.0
 10
12.3598598441
 20
8.9173711233
 30
0.0
 10
12.3635873427
 20
8.9295236612
 30
0.0
 10
12.367404813
 20
8.9411890829
 30
0.0
 10
12.3713058714
 20
8.9523480832
 30
0.0
 10
12.3752840129
 20
8.9629822087
 30
0.0
 10
12.3793326215
 20
8.9730738965
 30
0.0
 10
12.3834449422
 20
8.98260653
 30
0.0
 10
12.38761414
 20
8.9915644547
 30
0.0
 10
12.3918333325
 20
8.999933003
 30
0.0
 10
12.3960955665
 20
9.0076985615
 30
0.0
 10
12.4003939033
 20
9.0148485962
 30
0.0
 10
12.404721406
 20
9.021371594
 30
0.0
 10
12.4090714526
 20
9.0272574315
 30
0.0
 10
12.4134370479
 20
9.0324963286
 30
0.0
 10
12.4164630184
 20
9.035666818
 30
0.0
 10
12.4179791963
 20
9.0371313334
 30
0.0
  0
SPLINE
  5
37D
100
AcDbEntity
  8
0
100
AcDbSpline
 62
7
  6
CONTINUOUS
 70
0
 71
3
 72
9
 73
5
 74
0
 42
0.0000001
 43
0.0000001
 44
0.0000000001
 40
0.0
 40
0.0
 40
0.0
 40
0.0
 40
0.4960663398
 40
1.0
 40
1.0
 40
1.0
 40
1.0
 10
12.353398137
 20
8.264850126
 30
0.0
 10
12.3523759654
 20
8.2649210146
 30
0.0
 10
12.3503226472
 20
8.2652000312
 30
0.0
 10
12.3483231997
 20
8.2657422616
 30
0.0
 10
12.3473370227
 20
8.2660752471
 30
0.0
  0
SPLINE
  5
37E
100
AcDbEntity
  8
0
100
AcDbSpline
 62
7
  6
CONTINUOUS
 70
0
 71
3
 72
9
 73
5
 74
0
 42
0.0000001
 43
0.0000001
 44
0.0000000001
 40
0.0
 40
0.0
 40
0.0
 40
0.0
 40
0.4959662776
 40
1.0
 40
1.0
 40
1.0
 40
1.0
 10
12.4052861848
 20
9.0130530325
 30
0.0
 10
12.4042507513
 20
9.0131248408
 30
0.0
 10
12.4021510836
 20
9.0131302097
 30
0.0
 10
12.4000693647
 20
9.0128604953
 30
0.0
 10
12.3990336089
 20
9.0126609453
 30
0.0
  0
SPLINE
  5
37F
100
AcDbEntity
  8
0
100
AcDbSpline
 62
7
  6
CONTINUOUS
 70
0
 71
3
 72
11
 73
7
 74
0
 42
0.0000001
 43
0.0000001
 44
0.0000000001
 40
0.0
 40
0.0
 40
0.0
 40
0.0
 40
0.2727440821
 40
0.5295125884
 40
0.7714401284
 40
1.0
 40
1.0
 40
1.0
 40
1.0
 10
12.4179791963
 20
9.721006824
 30
0.0
 10
12.4167904953
 20
9.7198586269
 30
0.0
 10
12.4144146455
 20
9.7176981901
 30
0.0
 10
12.4107410539
 20
9.7148006481
 30
0.0
 10
12.4070721196
 20
9.7123508806
 30
0.0
 10
12.4045653085
 20
9.7109825242
 30
0.0
 10
12.4033174224
 20
9.7103817984
 30
0.0
  0
SPLINE
  5
380
100
AcDbEntity
  8
0
100
AcDbSpline
 62
7
  6
CONTINUOUS
 70
0
 71
3
 72
23
 73
19
 74
0
 42
0.0000001
 43
0.0000001
 44
0.0000000001
 40
0.0
 40
0.0
 40
0.0
 40
0.0
 40
0.0755954479
 40
0.1466391714
 40
0.2134657403
 40
0.2765145402
 40
0.3363265376
 40
0.3935471486
 40
0.4489234403
 40
0.5032885643
 40
0.5575265067
 40
0.6125277807
 40
0.6691438784
 40
0.7281492575
 40
0.7902198463
 40
0.8559237775
 40
0.9257267722
 40
1.0
 40
1.0
 40
1.0
 40
1.0
 10
12.4179791963
 20
9.8900438536
 30
0.0
 10
12.4172427047
 20
9.8893324573
 30
0.0
 10
12.4157706755
 20
9.8879962262
 30
0.0
 10
12.4134925727
 20
9.886211076
 30
0.0
 10
12.4112171184
 20
9.8847118054
 30
0.0
 10
12.408946449
 20
9.883500658
 30
0.0
 10
12.4066824302
 20
9.8825798689
 30
0.0
 10
12.404427417
 20
9.8819516113
 30
0.0
 10
12.402184337
 20
9.8816182064
 30
0.0
 10
12.3999569515
 20
9.8815811227
 30
0.0
 10
12.3977495361
 20
9.8818410271
 30
0.0
 10
12.395566355
 20
9.8823970184
 30
0.0
 10
12.3934111449
 20
9.8832473436
 30
0.0
 10
12.3912867225
 20
9.8843894126
 30
0.0
 10
12.3891952898
 20
9.8858207079
 30
0.0
 10
12.3871384732
 20
9.8875386599
 30
0.0
 10
12.3851180038
 20
9.8895408081
 30
0.0
 10
12.3838374392
 20
9.8910159669
 30
0.0
 10
12.3832026472
 20
9.8917964707
 30
0.0
  0
SPLINE
  5
381
100
AcDbEntity
  8
0
100
AcDbSpline
 62
7
  6
CONTINUOUS
 70
0
 71
3
 72
16
 73
12
 74
0
 42
0.0000001
 43
0.0000001
 44
0.0000000001
 40
0.0
 40
0.0
 40
0.0
 40
0.0
 40
0.1504815401
 40
0.2917481174
 40
0.4244944817
 40
0.4879692635
 40
0.5496755268
 40
0.6683417309
 40
0.7818818905
 40
0.8918563508
 40
1.0
 40
1.0
 40
1.0
 40
1.0
 10
12.3890014198
 20
9.9210312457
 30
0.0
 10
12.388337076
 20
9.9203895388
 30
0.0
 10
12.3870092449
 20
9.9191854908
 30
0.0
 10
12.3849532579
 20
9.9175809007
 30
0.0
 10
12.38321659
 20
9.916446051
 30
0.0
 10
12.3818317626
 20
9.9156775698
 30
0.0
 10
12.3804877208
 20
9.9150178014
 30
0.0
 10
12.3788070664
 20
9.9143511785
 30
0.0
 10
12.3767722855
 20
9.9138097857
 30
0.0
 10
12.3747489914
 20
9.9135394785
 30
0.0
 10
12.3734053595
 20
9.9135409829
 30
0.0
 10
12.3727431642
 20
9.9135869096
 30
0.0
  0
SPLINE
  5
382
100
AcDbEntity
  8
0
100
AcDbSpline
 62
7
  6
CONTINUOUS
 70
0
 71
3
 72
82
 73
78
 74
0
 42
0.0000001
 43
0.0000001
 44
0.0000000001
 40
0.0
 40
0.0
 40
0.0
 40
0.0
 40
0.0042066704
 40
0.0086074962
 40
0.0132069135
 40
0.0180085258
 40
0.0230152793
 40
0.0282294268
 40
0.0336523646
 40
0.0392848013
 40
0.0511777638
 40
0.0639051627
 40
0.0774564198
 40
0.0918155646
 40
0.1069620718
 40
0.1228714352
 40
0.1395157172
 40
0.1568639525
 40
0.1748824481
 40
0.1935350295
 40
0.2127833283
 40
0.2325869988
 40
0.2529038911
 40
0.2736902129
 40
0.2949007378
 40
0.3164889679
 40
0.3606060865
 40
0.4056507364
 40
0.4512203431
 40
0.4969063066
 40
0.542298703
 40
0.5869909704
 40
0.6089500453
 40
0.6305855494
 40
0.6518497144
 40
0.6726958629
 40
0.6930785804
 40
0.7129538992
 40
0.7322794383
 40
0.751014572
 40
0.7691206481
 40
0.7865612195
 40
0.8033022406
 40
0.8193123279
 40
0.8345631126
 40
0.8490296432
 40
0.8626908148
 40
0.8755299705
 40
0.8875357386
 40
0.8987031077
 40
0.9039734433
 40
0.9090359803
 40
0.9138925993
 40
0.9185460171
 40
0.9229997464
 40
0.927258381
 40
0.9313276641
 40
0.9352146052
 40
0.9389278058
 40
0.94247751
 40
0.9458758658
 40
0.9491371456
 40
0.9522777749
 40
0.9553164865
 40
0.9582741976
 40
0.9611737579
 40
0.9640395775
 40
0.9668969949
 40
0.9697716017
 40
0.9726884911
 40
0.9756716096
 40
0.9787431704
 40
0.9852252847
 40
0.9886742265
 40
0.9922790764
 40
0.9960512687
 40
1.0
 40
1.0
 40
1.0
 40
1.0
 10
12.4179791963
 20
9.8900438536
 30
0.0
 10
12.4185514513
 20
9.8905966095
 30
0.0
 10
12.419695212
 20
9.8917560219
 30
0.0
 10
12.4213717252
 20
9.8936085714
 30
0.0
 10
12.4230461479
 20
9.8956120073
 30
0.0
 10
12.4247173641
 20
9.8977650438
 30
0.0
 10
12.4263844741
 20
9.9000663984
 30
0.0
 10
12.4280464966
 20
9.9025147689
 30
0.0
 10
12.4297025165
 20
9.9051087204
 30
0.0
 10
12.4319419444
 20
9.908827153
 30
0.0
 10
12.4347121128
 20
9.9138361771
 30
0.0
 10
12.4379392001
 20
9.9202962706
 30
0.0
 10
12.4411191887
 20
9.9272952539
 30
0.0
 10
12.4442444729
 20
9.9348165644
 30
0.0
 10
12.4473075657
 20
9.9428425174
 30
0.0
 10
12.4503011171
 20
9.9513540857
 30
0.0
 10
12.4532179273
 20
9.9603310541
 30
0.0
 10
12.4560509722
 20
9.9697520607
 30
0.0
 10
12.4587934247
 20
9.9795946529
 30
0.0
 10
12.4614386927
 20
9.9898353393
 30
0.0
 10
12.4639804115
 20
10.0004496621
 30
0.0
 10
12.4664124624
 20
10.0114122627
 30
0.0
 10
12.4687289921
 20
10.0226969385
 30
0.0
 10
12.4709244335
 20
10.0342766959
 30
0.0
 10
12.472993536
 20
10.0461238556
 30
0.0
 10
12.4755958845
 20
10.0623557125
 30
0.0
 10
12.4784910114
 20
10.083103881
 30
0.0
 10
12.4813673474
 20
10.1084258463
 30
0.0
 10
12.4836425538
 20
10.1341067971
 30
0.0
 10
12.4852948726
 20
10.1599012183
 30
0.0
 10
12.486308445
 20
10.1855625173
 30
0.0
 10
12.4866148163
 20
10.2067540653
 30
0.0
 10
12.4865275737
 20
10.2234522508
 30
0.0
 10
12.4862987254
 20
10.2357174724
 30
0.0
 10
12.4859067169
 20
10.2477679642
 30
0.0
 10
12.4853524819
 20
10.2595749148
 30
0.0
 10
12.4846373716
 20
10.2711100722
 30
0.0
 10
12.4837631319
 20
10.2823458519
 30
0.0
 10
12.4827318883
 20
10.2932553896
 30
0.0
 10
12.4815461389
 20
10.3038126066
 30
0.0
 10
12.4802087595
 20
10.3139922816
 30
0.0
 10
12.4787230058
 20
10.3237701174
 30
0.0
 10
12.4770924862
 20
10.3331227957
 30
0.0
 10
12.4753211517
 20
10.342028036
 30
0.0
 10
12.4734132958
 20
10.3504646649
 30
0.0
 10
12.4713735495
 20
10.3584126911
 30
0.0
 10
12.4692068427
 20
10.365853327
 30
0.0
 10
12.4669183685
 20
10.3727691532
 30
0.0
 10
12.4645135835
 20
10.3791438524
 30
0.0
 10
12.4623780724
 20
10.3840843233
 30
0.0
 10
12.4606088647
 20
10.3877462572
 30
0.0
 10
12.4592821196
 20
10.3902949205
 30
0.0
 10
12.457930631
 20
10.3926975818
 30
0.0
 10
12.4565551937
 20
10.3949528617
 30
0.0
 10
12.4551565478
 20
10.3970594208
 30
0.0
 10
12.4537354893
 20
10.399016039
 30
0.0
 10
12.452292813
 20
10.4008215884
 30
0.0
 10
12.4508292363
 20
10.4024749667
 30
0.0
 10
12.4493455662
 20
10.4039752173
 30
0.0
 10
12.4478425327
 20
10.4053213961
 30
0.0
 10
12.4463208643
 20
10.4065125894
 30
0.0
 10
12.4447813648
 20
10.4075480006
 30
0.0
 10
12.4432247871
 20
10.4084267466
 30
0.0
 10
12.4416520153
 20
10.4091480438
 30
0.0
 10
12.4400640288
 20
10.4097111736
 30
0.0
 10
12.438461906
 20
10.4101153886
 30
0.0
 10
12.4368469139
 20
10.4103602536
 30
0.0
 10
12.435220388
 20
10.4104454405
 30
0.0
 10
12.4335837171
 20
10.4103708533
 30
0.0
 10
12.4319382734
 20
10.4101367805
 30
0.0
 10
12.430285234
 20
10.4097434921
 30
0.0
 10
12.4280328953
 20
10.4089945107
 30
0.0
 10
12.42580414
 20
10.4079283326
 30
0.0
 10
12.4236196288
 20
10.40659141
 30
0.0
 10
12.4219441048
 20
10.4054119254
 30
0.0
 10
12.4202670849
 20
10.4040775672
 30
0.0
 10
12.4191740934
 20
10.4031080248
 30
0.0
 10
12.4186273797
 20
10.4025992319
 30
0.0
  0
SPLINE
  5
383
100
AcDbEntity
  8
0
100
AcDbSpline
 62
7
  6
CONTINUOUS
 70
0
 71
3
 72
58
 73
54
 74
0
 42
0.0000001
 43
0.0000001
 44
0.0000000001
 40
0.0
 40
0.0
 40
0.0
 40
0.0
 40
0.0089746348
 40
0.0184814028
 40
0.0285227728
 40
0.0390981035
 40
0.0502041727
 40
0.0618354777
 40
0.073984513
 40
0.0866420716
 40
0.0997973697
 40
0.113438207
 40
0.1275511566
 40
0.1421216115
 40
0.1571338953
 40
0.1725713941
 40
0.1884165684
 40
0.2046510447
 40
0.2212557115
 40
0.23821072
 40
0.2730885426
 40
0.3091142707
 40
0.3461088136
 40
0.3838863639
 40
0.4222558147
 40
0.4610220987
 40
0.4999875097
 40
0.5389530333
 40
0.5777196514
 40
0.6160896616
 40
0.6538679914
 40
0.6908635174
 40
0.7268904414
 40
0.7444847131
 40
0.7617702885
 40
0.7787260563
 40
0.7953315362
 40
0.8115668779
 40
0.8274129414
 40
0.8428513819
 40
0.8578646524
 40
0.8724361102
 40
0.886550113
 40
0.9001920384
 40
0.913348433
 40
0.9260071336
 40
0.9381573333
 40
0.9497898012
 40
0.9608970715
 40
0.9714736091
 40
0.9815161668
 40
0.9910241571
 40
1.0
 40
1.0
 40
1.0
 40
1.0
 10
11.1916889413
 20
10.6973617674
 30
0.0
 10
11.1892935296
 20
10.6988851037
 30
0.0
 10
11.1842828923
 20
10.701900932
 30
0.0
 10
11.1763604342
 20
10.7062220137
 30
0.0
 10
11.1678263568
 20
10.7104644913
 30
0.0
 10
11.1586923221
 20
10.7146225627
 30
0.0
 10
11.1489705084
 20
10.7186906276
 30
0.0
 10
11.1386740478
 20
10.7226631368
 30
0.0
 10
11.1278168752
 20
10.7265346914
 30
0.0
 10
11.1164137152
 20
10.7302999646
 30
0.0
 10
11.1044800702
 20
10.7339537917
 30
0.0
 10
11.0920321942
 20
10.7374911736
 30
0.0
 10
11.0790870497
 20
10.7409072262
 30
0.0
 10
11.0656623003
 20
10.744197257
 30
0.0
 10
11.051776279
 20
10.7473567578
 30
0.0
 10
11.0374479518
 20
10.7503813618
 30
0.0
 10
11.0226969013
 20
10.7532669181
 30
0.0
 10
11.0075433021
 20
10.7560094652
 30
0.0
 10
10.9920078541
 20
10.7586052377
 30
0.0
 10
10.9706116403
 20
10.761896699
 30
0.0
 10
10.9430669512
 20
10.765606553
 30
0.0
 10
10.9091444315
 20
10.7693812947
 30
0.0
 10
10.8742343274
 20
10.7724987058
 30
0.0
 10
10.83852763
 20
10.7749415588
 30
0.0
 10
10.8022195279
 20
10.7766962994
 30
0.0
 10
10.7655086015
 20
10.7777531984
 30
0.0
 10
10.7285956446
 20
10.7781064171
 30
0.0
 10
10.6916825751
 20
10.7777539991
 30
0.0
 10
10.6549713053
 20
10.7766978819
 30
0.0
 10
10.6186626448
 20
10.7749439246
 30
0.0
 10
10.5829551249
 20
10.7725018559
 30
0.0
 10
10.5480441355
 20
10.7693851583
 30
0.0
 10
10.5195543348
 20
10.7662158005
 30
0.0
 10
10.4973096197
 20
10.7633473214
 30
0.0
 10
10.4810740166
 20
10.7610559731
 30
0.0
 10
10.4651772155
 20
10.7586109085
 30
0.0
 10
10.4496409416
 20
10.7560154877
 30
0.0
 10
10.4344864531
 20
10.7532732728
 30
0.0
 10
10.4197344743
 20
10.7503880247
 30
0.0
 10
10.4054051705
 20
10.747363732
 30
0.0
 10
10.3915181283
 20
10.7442045394
 30
0.0
 10
10.3780923202
 20
10.7409147858
 30
0.0
 10
10.3651460725
 20
10.7374990167
 30
0.0
 10
10.3526970534
 20
10.733961911
 30
0.0
 10
10.3407622337
 20
10.7303083274
 30
0.0
 10
10.3293578573
 20
10.7265433066
 30
0.0
 10
10.3184994339
 20
10.7226719928
 30
0.0
 10
10.3082016977
 20
10.7186996904
 30
0.0
 10
10.298478569
 20
10.7146318439
 30
0.0
 10
10.2893431927
 20
10.710473975
 30
0.0
 10
10.2808077556
 20
10.7062316652
 30
0.0
 10
10.2728838934
 20
10.7019107689
 30
0.0
 10
10.2678723008
 20
10.6988950394
 30
0.0
 10
10.2654763973
 20
10.6973717643
 30
0.0
  0
SPLINE
  5
384
100
AcDbEntity
  8
0
100
AcDbSpline
 62
7
  6
CONTINUOUS
 70
0
 71
3
 72
63
 73
59
 74
0
 42
0.0000001
 43
0.0000001
 44
0.0000000001
 40
0.0
 40
0.0
 40
0.0
 40
0.0
 40
0.00814383
 40
0.0169767484
 40
0.0265207354
 40
0.036789459
 40
0.0477880958
 40
0.0595155357
 40
0.0719656535
 40
0.0851278824
 40
0.0989880196
 40
0.1135287455
 40
0.1287298773
 40
0.1445687927
 40
0.1610207079
 40
0.1780587756
 40
0.1956543633
 40
0.2137772383
 40
0.2323956117
 40
0.2514763479
 40
0.2908854812
 40
0.3317179125
 40
0.3736714937
 40
0.4164329886
 40
0.4596812912
 40
0.5030906273
 40
0.546333675
 40
0.5890847111
 40
0.6310227339
 40
0.6718346511
 40
0.7112185258
 40
0.7302849348
 40
0.7488878996
 40
0.7669943144
 40
0.7845724514
 40
0.8015921263
 40
0.8180247474
 40
0.8338435456
 40
0.8490238026
 40
0.863542955
 40
0.8773809225
 40
0.8905204779
 40
0.902947514
 40
0.9146516138
 40
0.9256267683
 40
0.9358720989
 40
0.9453930714
 40
0.9542031177
 40
0.962325578
 40
0.969796515
 40
0.9766682872
 40
0.9830134983
 40
0.986019868
 40
0.9889331402
 40
0.9917695051
 40
0.9945466359
 40
0.9972835059
 40
1.0
 40
1.0
 40
1.0
 40
1.0
 10
12.3890014198
 20
9.9210312457
 30
0.0
 10
12.3899494267
 20
9.9219469502
 30
0.0
 10
12.3918405209
 20
9.9239450368
 30
0.0
 10
12.3945578967
 20
9.9272713815
 30
0.0
 10
12.3972635911
 20
9.9310393634
 30
0.0
 10
12.3999523625
 20
9.9352414634
 30
0.0
 10
12.402619269
 20
9.9398698267
 30
0.0
 10
12.4052590759
 20
9.9449154747
 30
0.0
 10
12.4078665573
 20
9.9503685614
 30
0.0
 10
12.4104365249
 20
9.9562183414
 30
0.0
 10
12.4129638201
 20
9.9624532299
 30
0.0
 10
12.4154433317
 20
9.9690608355
 30
0.0
 10
12.4178700732
 20
9.9760279728
 30
0.0
 10
12.4202391457
 20
9.9833407152
 30
0.0
 10
12.422545743
 20
9.9909844298
 30
0.0
 10
12.4247852174
 20
9.9989437925
 30
0.0
 10
12.4269530494
 20
10.0072028373
 30
0.0
 10
12.4290448349
 20
10.0157449886
 30
0.0
 10
12.4310563846
 20
10.0245531025
 30
0.0
 10
12.4336539321
 20
10.0367597769
 30
0.0
 10
12.4366622603
 20
10.0525528589
 30
0.0
 10
12.4398553569
 20
10.0720721438
 30
0.0
 10
12.4426432349
 20
10.0922012406
 30
0.0
 10
12.4450033195
 20
10.1127784416
 30
0.0
 10
12.4469165195
 20
10.1336385479
 30
0.0
 10
12.4483673906
 20
10.1546140024
 30
0.0
 10
12.4493442754
 20
10.1755363243
 30
0.0
 10
12.4498394086
 20
10.1962374466
 30
0.0
 10
12.4498489628
 20
10.2165511558
 30
0.0
 10
12.4493730303
 20
10.2363142376
 30
0.0
 10
12.4485670292
 20
10.2523613343
 30
0.0
 10
12.4476741517
 20
10.2648004206
 30
0.0
 10
12.4468939431
 20
10.2737940543
 30
0.0
 10
12.4459976039
 20
10.2825347737
 30
0.0
 10
12.4449869328
 20
10.2910050387
 30
0.0
 10
12.4438640096
 20
10.2991878425
 30
0.0
 10
12.4426311067
 20
10.3070667663
 30
0.0
 10
12.4412907276
 20
10.3146260132
 30
0.0
 10
12.4398456189
 20
10.3218504487
 30
0.0
 10
12.4382987086
 20
10.3287256241
 30
0.0
 10
12.4366531305
 20
10.3352378174
 30
0.0
 10
12.4349122431
 20
10.3413740767
 30
0.0
 10
12.4330795523
 20
10.3471222387
 30
0.0
 10
12.4311587234
 20
10.3524709727
 30
0.0
 10
12.429153595
 20
10.3574098339
 30
0.0
 10
12.4270680604
 20
10.3619292756
 30
0.0
 10
12.4249060411
 20
10.3660206819
 30
0.0
 10
12.422671418
 20
10.3696764263
 30
0.0
 10
12.4203678864
 20
10.3728897505
 30
0.0
 10
12.4179985244
 20
10.3756547654
 30
0.0
 10
12.4155666095
 20
10.3779656928
 30
0.0
 10
12.4134517736
 20
10.3795361164
 30
0.0
 10
12.4117385895
 20
10.3805419278
 30
0.0
 10
12.4104645089
 20
10.3811657054
 30
0.0
 10
12.4091790084
 20
10.3816718664
 30
0.0
 10
12.4078826931
 20
10.3820599317
 30
0.0
 10
12.4065765131
 20
10.3823295549
 30
0.0
 10
12.4056982736
 20
10.3824303279
 30
0.0
 10
12.4052596753
 20
10.382460747
 30
0.0
  0
SPLINE
  5
385
100
AcDbEntity
  8
0
100
AcDbSpline
 62
7
  6
CONTINUOUS
 70
0
 71
3
 72
21
 73
17
 74
0
 42
0.0000001
 43
0.0000001
 44
0.0000000001
 40
0.0
 40
0.0
 40
0.0
 40
0.0
 40
0.1273176984
 40
0.2537999461
 40
0.3167619614
 40
0.3795355204
 40
0.4421314992
 40
0.5045621453
 40
0.5668413456
 40
0.6289845231
 40
0.6910084433
 40
0.7529310869
 40
0.8147714401
 40
0.8765493236
 40
0.9382852134
 40
1.0
 40
1.0
 40
1.0
 40
1.0
 10
11.1550619201
 20
9.5223134887
 30
0.0
 10
11.1550619201
 20
9.5276107809
 30
0.0
 10
11.1555675821
 20
9.5381774238
 30
0.0
 10
11.1574773249
 20
9.5512400753
 30
0.0
 10
11.1597598726
 20
9.5614865816
 30
0.0
 10
11.161841437
 20
9.5690444096
 30
0.0
 10
11.164290273
 20
9.5764679388
 30
0.0
 10
11.1671007347
 20
9.5837402673
 30
0.0
 10
11.1702663426
 20
9.5908445753
 30
0.0
 10
11.1737798611
 20
9.5977644664
 30
0.0
 10
11.1776331623
 20
9.6044839892
 30
0.0
 10
11.1818173597
 20
9.6109876578
 30
0.0
 10
11.1863228442
 20
9.6172604229
 30
0.0
 10
11.1911392536
 20
9.6232878782
 30
0.0
 10
11.1962552667
 20
9.6290559557
 30
0.0
 10
11.1998585433
 20
9.6327201782
 30
0.0
 10
11.2017054217
 20
9.6345041149
 30
0.0
  0
SPLINE
  5
386
100
AcDbEntity
  8
0
100
AcDbSpline
 62
7
  6
CONTINUOUS
 70
0
 71
3
 72
83
 73
79
 74
0
 42
0.0000001
 43
0.0000001
 44
0.0000000001
 40
0.0
 40
0.0
 40
0.0
 40
0.0
 40
0.0038903728
 40
0.0079391127
 40
0.0121495813
 40
0.0165246402
 40
0.0210667141
 40
0.0257777014
 40
0.0306588913
 40
0.0357111697
 40
0.0409350216
 40
0.046330589
 40
0.0518977231
 40
0.057635932
 40
0.0696220334
 40
0.0822807293
 40
0.0956000194
 40
0.1095650211
 40
0.1241583241
 40
0.1393602664
 40
0.1551491661
 40
0.1715015258
 40
0.1883922001
 40
0.2057945404
 40
0.2236805216
 40
0.2420208557
 40
0.2607851085
 40
0.2799418037
 40
0.2994585188
 40
0.3193019767
 40
0.3394381315
 40
0.3598322609
 40
0.3804490549
 40
0.4012526996
 40
0.4432746287
 40
0.485605253
 40
0.527948374
 40
0.5700076773
 40
0.5908392443
 40
0.6114900391
 40
0.6319241691
 40
0.6521062307
 40
0.6720013988
 40
0.6915755118
 40
0.7107951564
 40
0.7296277568
 40
0.748041666
 40
0.7660062684
 40
0.7834920829
 40
0.8004708646
 40
0.8169157204
 40
0.832801236
 40
0.8481036239
 40
0.8628008927
 40
0.8768730289
 40
0.8903022202
 40
0.9030731298
 40
0.915173238
 40
0.9209689428
 40
0.9265937778
 40
0.9320471954
 40
0.9373288983
 40
0.9424389471
 40
0.9473776943
 40
0.9521459027
 40
0.9567447488
 40
0.9611758549
 40
0.965441412
 40
0.9695441524
 40
0.97348751
 40
0.9772756524
 40
0.9809135756
 40
0.9844072538
 40
0.9877636734
 40
0.9909910231
 40
0.994098747
 40
0.9970976532
 40
1.0
 40
1.0
 40
1.0
 40
1.0
 10
12.4179791963
 20
8.0615461911
 30
0.0
 10
12.4191109019
 20
8.0626393348
 30
0.0
 10
12.4213731701
 20
8.0649194321
 30
0.0
 10
12.4246982232
 20
8.0685388384
 30
0.0
 10
12.4280200149
 20
8.0724230125
 30
0.0
 10
12.4313368736
 20
8.0765699937
 30
0.0
 10
12.4346473752
 20
8.0809778902
 30
0.0
 10
12.437950008
 20
8.0856447329
 30
0.0
 10
12.4412433251
 20
8.0905683604
 30
0.0
 10
12.4445257575
 20
8.0957465182
 30
0.0
 10
12.4477958035
 20
8.1011768017
 30
0.0
 10
12.4510519614
 20
8.1068566956
 30
0.0
 10
12.4542927134
 20
8.112783595
 30
0.0
 10
12.4586546835
 20
8.1211334817
 30
0.0
 10
12.4640479757
 20
8.1321778351
 30
0.0
 10
12.4703442622
 20
8.1461843425
 30
0.0
 10
12.4765437435
 20
8.1611043878
 30
0.0
 10
12.4826348213
 20
8.1769102598
 30
0.0
 10
12.4886060954
 20
8.1935727602
 30
0.0
 10
12.4944463738
 20
8.2110609674
 30
0.0
 10
12.5001447109
 20
8.229342392
 30
0.0
 10
12.5056904207
 20
8.2483830273
 30
0.0
 10
12.5110731034
 20
8.268147429
 30
0.0
 10
12.5162826646
 20
8.2885987832
 30
0.0
 10
12.5213093346
 20
8.309698975
 30
0.0
 10
12.5261436958
 20
8.331408661
 30
0.0
 10
12.5307766902
 20
8.3536873496
 30
0.0
 10
12.5351996385
 20
8.3764934809
 30
0.0
 10
12.5394042555
 20
8.3997845056
 30
0.0
 10
12.543382664
 20
8.4235169621
 30
0.0
 10
12.5471274195
 20
8.4476465602
 30
0.0
 10
12.5506315085
 20
8.4721282522
 30
0.0
 10
12.5538884008
 20
8.4969163744
 30
0.0
 10
12.5579063636
 20
8.5304247887
 30
0.0
 10
12.5622638685
 20
8.5727346419
 30
0.0
 10
12.5664062166
 20
8.6238122984
 30
0.0
 10
12.5694479642
 20
8.6749824365
 30
0.0
 10
12.5710519694
 20
8.7175173066
 30
0.0
 10
12.5717622882
 20
8.7512984464
 30
0.0
 10
12.5720065989
 20
8.7763396415
 30
0.0
 10
12.5719638008
 20
8.8011192901
 30
0.0
 10
12.5716339641
 20
8.8255911722
 30
0.0
 10
12.5710177316
 20
8.8497095992
 30
0.0
 10
12.5701162766
 20
8.8734295599
 30
0.0
 10
12.5689313084
 20
8.8967067869
 30
0.0
 10
12.5674650679
 20
8.9194978432
 30
0.0
 10
12.5657203224
 20
8.9417602039
 30
0.0
 10
12.5637003674
 20
8.9634523415
 30
0.0
 10
12.5614090206
 20
8.9845338049
 30
0.0
 10
12.5588506088
 20
9.0049652954
 30
0.0
 10
12.5560299615
 20
9.0247087393
 30
0.0
 10
12.5529524014
 20
9.0437273644
 30
0.0
 10
12.5496237349
 20
9.0619857763
 30
0.0
 10
12.5460502489
 20
9.0794500401
 30
0.0
 10
12.5422386847
 20
9.0960877264
 30
0.0
 10
12.5381962259
 20
9.1118680608
 30
0.0
 10
12.5339304685
 20
9.1267617089
 30
0.0
 10
12.5301438856
 20
9.1385752247
 30
0.0
 10
12.5270001545
 20
9.147554047
 30
0.0
 10
12.5246254141
 20
9.1539525997
 30
0.0
 10
12.5222009843
 20
9.1601096227
 30
0.0
 10
12.5197279197
 20
9.1660222622
 30
0.0
 10
12.5172074258
 20
9.171687797
 30
0.0
 10
12.5146406197
 20
9.1771036
 30
0.0
 10
12.5120287005
 20
9.1822671805
 30
0.0
 10
12.5093728759
 20
9.187176171
 30
0.0
 10
12.5066743075
 20
9.1918282981
 30
0.0
 10
12.5039342702
 20
9.1962214578
 30
0.0
 10
12.5011539301
 20
9.2003536137
 30
0.0
 10
12.4983345428
 20
9.2042228899
 30
0.0
 10
12.4954773357
 20
9.2078275183
 30
0.0
 10
12.4925834891
 20
9.2111658072
 30
0.0
 10
12.4896542787
 20
9.2142362454
 30
0.0
 10
12.4866908446
 20
9.2170373226
 30
0.0
 10
12.4836944552
 20
9.219567687
 30
0.0
 10
12.480666244
 20
9.2218260606
 30
0.0
 10
12.4776076698
 20
9.2238110398
 30
0.0
 10
12.4755177197
 20
9.2249687785
 30
0.0
 10
12.4744702052
 20
9.2254985086
 30
0.0
  0
SPLINE
  5
387
100
AcDbEntity
  8
0
100
AcDbSpline
 62
7
  6
CONTINUOUS
 70
0
 71
3
 72
15
 73
11
 74
0
 42
0.0000001
 43
0.0000001
 44
0.0000000001
 40
0.0
 40
0.0
 40
0.0
 40
0.0
 40
0.1420968464
 40
0.2787832416
 40
0.410266159
 40
0.5367957922
 40
0.6586705713
 40
0.7762311624
 40
0.8898634269
 40
1.0
 40
1.0
 40
1.0
 40
1.0
 10
12.4179791963
 20
8.0615461911
 30
0.0
 10
12.4169340632
 20
8.0605366699
 30
0.0
 10
12.4148443995
 20
8.0585960444
 30
0.0
 10
12.4116486195
 20
8.0558758406
 30
0.0
 10
12.4084548864
 20
8.0534052643
 30
0.0
 10
12.4052645827
 20
8.051185616
 30
0.0
 10
12.40207899
 20
8.0492178677
 30
0.0
 10
12.398899206
 20
8.047503001
 30
0.0
 10
12.3957267298
 20
8.0460419477
 30
0.0
 10
12.3935865682
 20
8.0452259589
 30
0.0
 10
12.39252037
 20
8.0448630981
 30
0.0
  0
SPLINE
  5
388
100
AcDbEntity
  8
0
100
AcDbSpline
 62
7
  6
CONTINUOUS
 70
0
 71
3
 72
23
 73
19
 74
0
 42
0.0000001
 43
0.0000001
 44
0.0000000001
 40
0.0
 40
0.0
 40
0.0
 40
0.0
 40
0.0755970481
 40
0.1466395192
 40
0.2134651039
 40
0.2765141432
 40
0.3363266137
 40
0.3935468688
 40
0.4489231172
 40
0.5032882226
 40
0.5575261408
 40
0.6125274601
 40
0.6691434874
 40
0.7281489695
 40
0.7902195499
 40
0.8559235776
 40
0.9257266248
 40
1.0
 40
1.0
 40
1.0
 40
1.0
 10
12.4179791963
 20
8.2354128501
 30
0.0
 10
12.4168257956
 20
8.2342987506
 30
0.0
 10
12.414520545
 20
8.2322061362
 30
0.0
 10
12.4109529314
 20
8.2294105531
 30
0.0
 10
12.4073895177
 20
8.2270626445
 30
0.0
 10
12.4038335435
 20
8.2251659783
 30
0.0
 10
12.4002880156
 20
8.2237239091
 30
0.0
 10
12.3967565467
 20
8.22274012
 30
0.0
 10
12.3932438097
 20
8.2222179226
 30
0.0
 10
12.3897556322
 20
8.2221599337
 30
0.0
 10
12.3862987208
 20
8.2225668838
 30
0.0
 10
12.3828797865
 20
8.2234376624
 30
0.0
 10
12.3795046239
 20
8.2247692689
 30
0.0
 10
12.3761777082
 20
8.2265578342
 30
0.0
 10
12.3729024291
 20
8.2287992935
 30
0.0
 10
12.3696813802
 20
8.2314896966
 30
0.0
 10
12.3665172371
 20
8.2346251476
 30
0.0
 10
12.3645118285
 20
8.2369353208
 30
0.0
 10
12.3635177173
 20
8.2381576253
 30
0.0
  0
SPLINE
  5
389
100
AcDbEntity
  8
0
100
AcDbSpline
 62
7
  6
CONTINUOUS
 70
0
 71
3
 72
18
 73
14
 74
0
 42
0.0000001
 43
0.0000001
 44
0.0000000001
 40
0.0
 40
0.0
 40
0.0
 40
0.0
 40
0.1504665368
 40
0.2917140793
 40
0.424442781
 40
0.4879100458
 40
0.5496093226
 40
0.6682623342
 40
0.7817883693
 40
0.8371380845
 40
0.8918079515
 40
0.946019356
 40
1.0
 40
1.0
 40
1.0
 40
1.0
 10
12.3793421609
 20
8.2767293729
 30
0.0
 10
12.3782820166
 20
8.2757053521
 30
0.0
 10
12.3761631419
 20
8.2737839801
 30
0.0
 10
12.3728823043
 20
8.2712234882
 30
0.0
 10
12.3701110536
 20
8.2694125797
 30
0.0
 10
12.3679012436
 20
8.26818628
 30
0.0
 10
12.3657564457
 20
8.2671334732
 30
0.0
 10
12.3630747612
 20
8.2660696562
 30
0.0
 10
12.3603453812
 20
8.2653436601
 30
0.0
 10
12.3581836205
 20
8.2649860503
 30
0.0
 10
12.3565814637
 20
8.2648273054
 30
0.0
 10
12.3549857851
 20
8.2647760347
 30
0.0
 10
12.3539256566
 20
8.2648135421
 30
0.0
 10
12.353398137
 20
8.264850126
 30
0.0
  0
SPLINE
  5
38A
100
AcDbEntity
  8
0
100
AcDbSpline
 62
7
  6
CONTINUOUS
 70
0
 71
3
 72
21
 73
17
 74
0
 42
0.0000001
 43
0.0000001
 44
0.0000000001
 40
0.0
 40
0.0
 40
0.0
 40
0.0
 40
0.1273176984
 40
0.2537999461
 40
0.3167619614
 40
0.3795355204
 40
0.4421314992
 40
0.5045621453
 40
0.5668413456
 40
0.6289845231
 40
0.6910084433
 40
0.7529310869
 40
0.8147714401
 40
0.8765493236
 40
0.9382852134
 40
1.0
 40
1.0
 40
1.0
 40
1.0
 10
10.1891360366
 20
6.9330044678
 30
0.0
 10
10.1891360366
 20
6.93830176
 30
0.0
 10
10.1896416985
 20
6.9488684028
 30
0.0
 10
10.1915514414
 20
6.9619310544
 30
0.0
 10
10.1938339891
 20
6.9721775606
 30
0.0
 10
10.1959155535
 20
6.9797353887
 30
0.0
 10
10.1983643895
 20
6.9871589179
 30
0.0
 10
10.2011748512
 20
6.9944312464
 30
0.0
 10
10.2043404591
 20
7.0015355543
 30
0.0
 10
10.2078539776
 20
7.0084554454
 30
0.0
 10
10.2117072788
 20
7.0151749683
 30
0.0
 10
10.2158914762
 20
7.0216786369
 30
0.0
 10
10.2203969607
 20
7.027951402
 30
0.0
 10
10.2252133701
 20
7.0339788573
 30
0.0
 10
10.2303293832
 20
7.0397469348
 30
0.0
 10
10.2339326597
 20
7.0434111573
 30
0.0
 10
10.2357795382
 20
7.045195094
 30
0.0
  0
SPLINE
  5
38B
100
AcDbEntity
  8
0
100
AcDbSpline
 62
7
  6
CONTINUOUS
 70
0
 71
3
 72
91
 73
87
 74
0
 42
0.0000001
 43
0.0000001
 44
0.0000000001
 40
0.0
 40
0.0
 40
0.0
 40
0.0
 40
0.0042067388
 40
0.0086075288
 40
0.013206835
 40
0.018008354
 40
0.0230150942
 40
0.0282292465
 40
0.033652143
 40
0.039284555
 40
0.0451266553
 40
0.0511781755
 40
0.0574383809
 40
0.0639061069
 40
0.0774572848
 40
0.0918163502
 40
0.1069627538
 40
0.1228720099
 40
0.1395161902
 40
0.156864317
 40
0.1748826889
 40
0.1935351512
 40
0.2127833363
 40
0.232586884
 40
0.2529036368
 40
0.27368982
 40
0.294900212
 40
0.3164883057
 40
0.3384064647
 40
0.360606083
 40
0.3830377358
 40
0.4056513289
 40
0.4512206295
 40
0.4969062808
 40
0.5196649952
 40
0.542299238
 40
0.5647583322
 40
0.5869921015
 40
0.6089510212
 40
0.6305863683
 40
0.6518503715
 40
0.6726963629
 40
0.6930789359
 40
0.7129541061
 40
0.732279485
 40
0.7510144635
 40
0.7691204004
 40
0.786560832
 40
0.8033017071
 40
0.8193116572
 40
0.8345623164
 40
0.8490287137
 40
0.8626897448
 40
0.8692131526
 40
0.8755293802
 40
0.8816372149
 40
0.8875357842
 40
0.8932246735
 40
0.898703963
 40
0.9039742277
 40
0.9090367159
 40
0.9138932891
 40
0.9185466451
 40
0.9230003351
 40
0.9272589207
 40
0.9313281543
 40
0.935215056
 40
0.9389282163
 40
0.9424778737
 40
0.9458762006
 40
0.9491374406
 40
0.9522780362
 40
0.9553167246
 40
0.9582744004
 40
0.9611739398
 40
0.9640397373
 40
0.9668971388
 40
0.9697717281
 40
0.972688605
 40
0.975671695
 40
0.9787432457
 40
0.9852253979
 40
0.9886743159
 40
0.9922790719
 40
0.9960512095
 40
1.0
 40
1.0
 40
1.0
 40
1.0
 10
12.4179791963
 20
8.2354128501
 30
0.0
 10
12.4188753906
 20
8.2362785074
 30
0.0
 10
12.4206665887
 20
8.2380942069
 30
0.0
 10
12.4232920809
 20
8.2409953706
 30
0.0
 10
12.4259142429
 20
8.2441328143
 30
0.0
 10
12.4285314205
 20
8.2475045183
 30
0.0
 10
12.4311421718
 20
8.251108535
 30
0.0
 10
12.4337449807
 20
8.2549427917
 30
0.0
 10
12.4363383789
 20
8.2590050192
 30
0.0
 10
12.4389207676
 20
8.2632928411
 30
0.0
 10
12.4414906666
 20
8.2678036977
 30
0.0
 10
12.4440465214
 20
8.2725349305
 30
0.0
 10
12.4465868405
 20
8.2774837383
 30
0.0
 10
12.4500044367
 20
8.2844774623
 30
0.0
 10
12.4542173304
 20
8.2937500822
 30
0.0
 10
12.4591116403
 20
8.3055286747
 30
0.0
 10
12.4639085688
 20
8.3180976601
 30
0.0
 10
12.4685965885
 20
8.3314271052
 30
0.0
 10
12.4731644236
 20
8.3454853992
 30
0.0
 10
12.4776010786
 20
8.3602390707
 30
0.0
 10
12.4818958711
 20
8.3756529591
 30
0.0
 10
12.4860384628
 20
8.3916902823
 30
0.0
 10
12.4900188868
 20
8.4083127401
 30
0.0
 10
12.4938275676
 20
8.4254806117
 30
0.0
 10
12.4974553459
 20
8.4431528575
 30
0.0
 10
12.5008934996
 20
8.4612872195
 30
0.0
 10
12.5041337646
 20
8.4798403243
 30
0.0
 10
12.5071683539
 20
8.4987677864
 30
0.0
 10
12.5099899834
 20
8.518024319
 30
0.0
 10
12.5125918723
 20
8.5375638324
 30
0.0
 10
12.514967803
 20
8.5573395964
 30
0.0
 10
12.5178338983
 20
8.5840260677
 30
0.0
 10
12.5208104931
 20
8.6176251052
 30
0.0
 10
12.5229695964
 20
8.6513295888
 30
0.0
 10
12.5241981694
 20
8.6782789727
 30
0.0
 10
12.5248646213
 20
8.6983657293
 30
0.0
 10
12.525275719
 20
8.718303801
 30
0.0
 10
12.5254304689
 20
8.7380455019
 30
0.0
 10
12.5253285234
 20
8.7575435739
 30
0.0
 10
12.5249701489
 20
8.7767513583
 30
0.0
 10
12.5243562305
 20
8.7956228929
 30
0.0
 10
12.5234882688
 20
8.814113026
 30
0.0
 10
12.5223683774
 20
8.832177524
 30
0.0
 10
12.5209992777
 20
8.8497731798
 30
0.0
 10
12.5193842946
 20
8.8668579205
 30
0.0
 10
12.5175273524
 20
8.8833909122
 30
0.0
 10
12.515432961
 20
8.8993326619
 30
0.0
 10
12.5131062059
 20
8.9146451129
 30
0.0
 10
12.510552736
 20
8.9292917486
 30
0.0
 10
12.5077787473
 20
8.9432376684
 30
0.0
 10
12.5047909699
 20
8.9564497621
 30
0.0
 10
12.5015966314
 20
8.968896548
 30
0.0
 10
12.4987265974
 20
8.9787527403
 30
0.0
 10
12.4963247652
 20
8.986225967
 30
0.0
 10
12.4945042919
 20
8.9915349994
 30
0.0
 10
12.4926381231
 20
8.9966315158
 30
0.0
 10
12.4907273219
 20
9.0015124958
 30
0.0
 10
12.4887730305
 20
9.0061750448
 30
0.0
 10
12.4867764317
 20
9.0106164155
 30
0.0
 10
12.484738652
 20
9.0148339719
 30
0.0
 10
12.4826609457
 20
9.0188252545
 30
0.0
 10
12.4805444609
 20
9.0225879013
 30
0.0
 10
12.4783904527
 20
9.0261197266
 30
0.0
 10
12.4762001298
 20
9.0294186672
 30
0.0
 10
12.473974689
 20
9.0324827839
 30
0.0
 10
12.4717153935
 20
9.0353103178
 30
0.0
 10
12.4694233764
 20
9.0378995538
 30
0.0
 10
12.4670998929
 20
9.0402489867
 30
0.0
 10
12.4647460653
 20
9.0423571149
 30
0.0
 10
12.4623630881
 20
9.0442225669
 30
0.0
 10
12.4599521593
 20
9.0458440264
 30
0.0
 10
12.4575144897
 20
9.0472201393
 30
0.0
 10
12.4550514831
 20
9.048349736
 30
0.0
 10
12.4525646099
 20
9.0492315333
 30
0.0
 10
12.4500556371
 20
9.0498645753
 30
0.0
 10
12.4475264871
 20
9.050248005
 30
0.0
 10
12.4449792827
 20
9.0503813489
 30
0.0
 10
12.4424161853
 20
9.0502645777
 30
0.0
 10
12.439839368
 20
9.0498979209
 30
0.0
 10
12.4372506365
 20
9.0492820417
 30
0.0
 10
12.4337233763
 20
9.0481090496
 30
0.0
 10
12.4302330496
 20
9.0464393305
 30
0.0
 10
12.4268120405
 20
9.0443456166
 30
0.0
 10
12.4241881284
 20
9.0424985152
 30
0.0
 10
12.4215618602
 20
9.0404088497
 30
0.0
 10
12.4198501954
 20
9.0388904798
 30
0.0
 10
12.4189940074
 20
9.0380936667
 30
0.0
  0
SPLINE
  5
38C
100
AcDbEntity
  8
0
100
AcDbSpline
 62
7
  6
CONTINUOUS
 70
0
 71
3
 72
78
 73
74
 74
0
 42
0.0000001
 43
0.0000001
 44
0.0000000001
 40
0.0
 40
0.0
 40
0.0
 40
0.0
 40
0.0039883708
 40
0.0081453713
 40
0.0124746514
 40
0.0169792446
 40
0.0216617048
 40
0.0265240573
 40
0.0315676738
 40
0.0367933803
 40
0.0477917732
 40
0.0595189875
 40
0.0719688241
 40
0.0851307675
 40
0.098990636
 40
0.1135310453
 40
0.1287318459
 40
0.144570439
 40
0.1610220047
 40
0.17805971
 40
0.1956549318
 40
0.2137774167
 40
0.2323953998
 40
0.2514757423
 40
0.2709840821
 40
0.2908849441
 40
0.3111418307
 40
0.3317173399
 40
0.3736700372
 40
0.4164306268
 40
0.4596780178
 40
0.5030864378
 40
0.5463285753
 40
0.5890787058
 40
0.6310158441
 40
0.6515817044
 40
0.6718277277
 40
0.6917165425
 40
0.711211677
 40
0.7302776898
 40
0.7488802598
 40
0.766986293
 40
0.7845640637
 40
0.8015833694
 40
0.8180156465
 40
0.8338341259
 40
0.8490140463
 40
0.8635328858
 40
0.8773705842
 40
0.8905098544
 40
0.9029366124
 40
0.9146404815
 40
0.925615406
 40
0.9308293801
 40
0.935861322
 40
0.9407121007
 40
0.9453831132
 40
0.9498763212
 40
0.9541942469
 40
0.9583401792
 40
0.9623181651
 40
0.9661331254
 40
0.9697910493
 40
0.9732990064
 40
0.9766653582
 40
0.9798998867
 40
0.9830138495
 40
0.9860201614
 40
0.988933379
 40
0.9917696733
 40
0.9945467499
 40
0.9972835631
 40
1.0
 40
1.0
 40
1.0
 40
1.0
 10
12.3793421609
 20
8.2767293729
 30
0.0
 10
12.3800830462
 20
8.2774450132
 30
0.0
 10
12.381564015
 20
8.2789401129
 30
0.0
 10
12.3837390374
 20
8.2813179487
 30
0.0
 10
12.3859117894
 20
8.2838754631
 30
0.0
 10
12.3880810471
 20
8.2866112702
 30
0.0
 10
12.3902458206
 20
8.2895239952
 30
0.0
 10
12.3924050414
 20
8.2926122492
 30
0.0
 10
12.3945577064
 20
8.2958745133
 30
0.0
 10
12.3974674839
 20
8.3005338368
 30
0.0
 10
12.4010727867
 20
8.3067910225
 30
0.0
 10
12.4052852145
 20
8.3148424826
 30
0.0
 10
12.4094461098
 20
8.32354424
 30
0.0
 10
12.4135471232
 20
8.3328789846
 30
0.0
 10
12.4175800256
 20
8.3428282855
 30
0.0
 10
12.4215367016
 20
8.3533723338
 30
0.0
 10
12.425409167
 20
8.3644901025
 30
0.0
 10
12.4291895927
 20
8.376159375
 30
0.0
 10
12.4328703364
 20
8.3883567926
 30
0.0
 10
12.4364439687
 20
8.401057903
 30
0.0
 10
12.4399032675
 20
8.4142372292
 30
0.0
 10
12.4432412359
 20
8.4278683235
 30
0.0
 10
12.4464511308
 20
8.4419238131
 30
0.0
 10
12.4495264771
 20
8.4563754574
 30
0.0
 10
12.4524610669
 20
8.471194219
 30
0.0
 10
12.4552489624
 20
8.486350312
 30
0.0
 10
12.4578845644
 20
8.501813291
 30
0.0
 10
12.4612098846
 20
8.5229344421
 30
0.0
 10
12.4649407861
 20
8.5498730483
 30
0.0
 10
12.4687069021
 20
8.5827089208
 30
0.0
 10
12.4717598735
 20
8.6159963495
 30
0.0
 10
12.4740750885
 20
8.6494678083
 30
0.0
 10
12.4756339641
 20
8.6828545158
 30
0.0
 10
12.476424033
 20
8.7158881389
 30
0.0
 10
12.4764369117
 20
8.743074665
 30
0.0
 10
12.4760505139
 20
8.7644431749
 30
0.0
 10
12.475568373
 20
8.7801133358
 30
0.0
 10
12.4748930756
 20
8.7954995673
 30
0.0
 10
12.4740259726
 20
8.8105709611
 30
0.0
 10
12.4729688466
 20
8.825297218
 30
0.0
 10
12.4717238516
 20
8.8396487464
 30
0.0
 10
12.4702935175
 20
8.8535967077
 30
0.0
 10
12.4686807507
 20
8.8671130863
 30
0.0
 10
12.466888844
 20
8.8801707505
 30
0.0
 10
12.4649214464
 20
8.8927435033
 30
0.0
 10
12.4627825551
 20
8.9048061339
 30
0.0
 10
12.4604765195
 20
8.9163344846
 30
0.0
 10
12.4580080403
 20
8.927305507
 30
0.0
 10
12.4553821342
 20
8.9376973142
 30
0.0
 10
12.4526041166
 20
8.9474892058
 30
0.0
 10
12.449679597
 20
8.9566618325
 30
0.0
 10
12.4466144624
 20
8.9651969367
 30
0.0
 10
12.4439037219
 20
8.9718741028
 30
0.0
 10
12.4416621088
 20
8.976875947
 30
0.0
 10
12.4399783779
 20
8.9803931714
 30
0.0
 10
12.4382641633
 20
8.9837388539
 30
0.0
 10
12.4365202858
 20
8.9869113458
 30
0.0
 10
12.4347476322
 20
8.9899090951
 30
0.0
 10
12.4329470064
 20
8.9927305999
 30
0.0
 10
12.4311193045
 20
8.9953744908
 30
0.0
 10
12.4292653843
 20
8.9978394692
 30
0.0
 10
12.427386064
 20
9.0001242886
 30
0.0
 10
12.4254822467
 20
9.0022278485
 30
0.0
 10
12.4235547432
 20
9.0041490582
 30
0.0
 10
12.4216043914
 20
9.0058869062
 30
0.0
 10
12.41963207
 20
9.0074404865
 30
0.0
 10
12.4176385826
 20
9.0088088353
 30
0.0
 10
12.4156248449
 20
9.009991117
 30
0.0
 10
12.4135917912
 20
9.0109865139
 30
0.0
 10
12.4115404287
 20
9.0117941697
 30
0.0
 10
12.4094718574
 20
9.0124134559
 30
0.0
 10
12.4073875262
 20
9.0128437228
 30
0.0
 10
12.405986076
 20
9.0130044944
 30
0.0
 10
12.4052861848
 20
9.0130530325
 30
0.0
  0
SPLINE
  5
38D
100
AcDbEntity
  8
0
100
AcDbSpline
 62
7
  6
CONTINUOUS
 70
0
 71
3
 72
44
 73
40
 74
0
 42
0.0000001
 43
0.0000001
 44
0.0000000001
 40
0.0
 40
0.0
 40
0.0
 40
0.0
 40
0.011444028
 40
0.0232551984
 40
0.0354270375
 40
0.047952363
 40
0.0608234999
 40
0.0740321579
 40
0.1014260633
 40
0.1300593014
 40
0.1598498451
 40
0.1907098639
 40
0.2225463979
 40
0.2552619724
 40
0.2887551615
 40
0.3229211263
 40
0.3576521265
 40
0.3928380218
 40
0.4283667592
 40
0.4641248576
 40
0.4999978842
 40
0.5358709324
 40
0.5716290943
 40
0.6071579381
 40
0.6423439808
 40
0.6770751697
 40
0.7112413629
 40
0.7447348191
 40
0.7774506984
 40
0.8092875724
 40
0.8401479665
 40
0.8699389168
 40
0.8985725937
 40
0.9259669652
 40
0.9520465817
 40
0.964572177
 40
0.9767442627
 40
0.9885557185
 40
1.0
 40
1.0
 40
1.0
 40
1.0
 10
11.0877404269
 20
10.6561516956
 30
0.0
 10
11.08512352
 20
10.6570746491
 30
0.0
 10
11.0797872912
 20
10.6588981841
 30
0.0
 10
11.0716094679
 20
10.6615290681
 30
0.0
 10
11.0631372821
 20
10.6640969097
 30
0.0
 10
11.0543780328
 20
10.6665995338
 30
0.0
 10
11.0453391925
 20
10.6690347623
 30
0.0
 10
11.0327720815
 20
10.6722278772
 30
0.0
 10
11.0164170694
 20
10.6760253214
 30
0.0
 10
10.9960353767
 20
10.6802283882
 30
0.0
 10
10.9747364666
 20
10.6841164817
 30
0.0
 10
10.9525933574
 20
10.6876761421
 30
0.0
 10
10.9296818431
 20
10.6908950207
 30
0.0
 10
10.9060804462
 20
10.6937619654
 30
0.0
 10
10.8818700734
 20
10.6962670458
 30
0.0
 10
10.857133749
 20
10.6984015889
 30
0.0
 10
10.8319563189
 20
10.7001582073
 30
0.0
 10
10.8064241563
 20
10.7015308234
 30
0.0
 10
10.7806248614
 20
10.7025146893
 30
0.0
 10
10.7546469585
 20
10.7031064021
 30
0.0
 10
10.7285795884
 20
10.7033039158
 30
0.0
 10
10.7025122019
 20
10.7031065474
 30
0.0
 10
10.6765342492
 20
10.7025149793
 30
0.0
 10
10.6507348719
 20
10.7015312572
 30
0.0
 10
10.6252025943
 20
10.7001587831
 30
0.0
 10
10.6000250171
 20
10.6984023046
 30
0.0
 10
10.5752885144
 20
10.6962678987
 30
0.0
 10
10.5510779328
 20
10.6937629524
 30
0.0
 10
10.5274762966
 20
10.6908961382
 30
0.0
 10
10.5045645174
 20
10.6876773855
 30
0.0
 10
10.4824211042
 20
10.6841178487
 30
0.0
 10
10.4611219037
 20
10.6802298664
 30
0.0
 10
10.4407397512
 20
10.6760269319
 30
0.0
 10
10.4213444725
 20
10.671523604
 30
0.0
 10
10.4058576591
 20
10.6674810945
 30
0.0
 10
10.39401865
 20
10.6640987875
 30
0.0
 10
10.3855462465
 20
10.661530958
 30
0.0
 10
10.3773682037
 20
10.6589001439
 30
0.0
 10
10.3720318305
 20
10.6570766253
 30
0.0
 10
10.3694148527
 20
10.6561536878
 30
0.0
  0
SPLINE
  5
38E
100
AcDbEntity
  8
0
100
AcDbSpline
 62
7
  6
CONTINUOUS
 70
0
 71
3
 72
49
 73
45
 74
0
 42
0.0000001
 43
0.0000001
 44
0.0000000001
 40
0.0
 40
0.0
 40
0.0
 40
0.0
 40
0.010710767
 40
0.0218440328
 40
0.0333941547
 40
0.0453545163
 40
0.0577175895
 40
0.0704749841
 40
0.0836175977
 40
0.0971355549
 40
0.1110183959
 40
0.1252549935
 40
0.1547417013
 40
0.1854968708
 40
0.2174135963
 40
0.2503785
 40
0.2842725733
 40
0.3189719594
 40
0.35434869
 40
0.3902713996
 40
0.4266060211
 40
0.4632164706
 40
0.4999653214
 40
0.5367144769
 40
0.5733258369
 40
0.6096619705
 40
0.6455867841
 40
0.680966203
 40
0.7156688496
 40
0.7495667409
 40
0.7825359978
 40
0.8144575891
 40
0.8452181051
 40
0.8747106105
 40
0.8889502659
 40
0.9028362617
 40
0.9163574854
 40
0.9295034289
 40
0.9422642676
 40
0.9546308313
 40
0.9665947806
 40
0.9781485332
 40
0.9892854881
 40
1.0
 40
1.0
 40
1.0
 40
1.0
 10
11.1121941074
 20
10.6631477698
 30
0.0
 10
11.1096269393
 20
10.6642195254
 30
0.0
 10
11.1043631188
 20
10.6663382255
 30
0.0
 10
11.0962432843
 20
10.6693892925
 30
0.0
 10
11.0877534215
 20
10.6723723301
 30
0.0
 10
11.0789020968
 20
10.6752842951
 30
0.0
 10
11.0696981585
 20
10.6781222477
 30
0.0
 10
11.0601508476
 20
10.6808833468
 30
0.0
 10
11.0502697412
 20
10.6835647671
 30
0.0
 10
11.0400647722
 20
10.6861638366
 30
0.0
 10
11.0295461801
 20
10.6886779122
 30
0.0
 10
11.0149462455
 20
10.6919515946
 30
0.0
 10
10.995986557
 20
10.6958015835
 30
0.0
 10
10.972417802
 20
10.699992453
 30
0.0
 10
10.9478679607
 20
10.7037894015
 30
0.0
 10
10.9224357975
 20
10.7071769946
 30
0.0
 10
10.8962234984
 20
10.7101414321
 30
0.0
 10
10.8693364898
 20
10.7126706544
 30
0.0
 10
10.841882933
 20
10.7147543743
 30
0.0
 10
10.8139733005
 20
10.7163841229
 30
0.0
 10
10.7857199169
 20
10.7175532784
 30
0.0
 10
10.7572365032
 20
10.7182570911
 30
0.0
 10
10.7286377135
 20
10.7184927023
 30
0.0
 10
10.7000386704
 20
10.7182591547
 30
0.0
 10
10.6715544976
 20
10.7175573964
 30
0.0
 10
10.6432998533
 20
10.7163902768
 30
0.0
 10
10.6153884635
 20
10.7147625373
 30
0.0
 10
10.5879326596
 20
10.7126807938
 30
0.0
 10
10.5610429213
 20
10.7101535087
 30
0.0
 10
10.5348274211
 20
10.7071909607
 30
0.0
 10
10.5093915986
 20
10.7038052005
 30
0.0
 10
10.4848376567
 20
10.7000100202
 30
0.0
 10
10.4612643778
 20
10.6958208469
 30
0.0
 10
10.4423006463
 20
10.69197224
 30
0.0
 10
10.4276972743
 20
10.6886996321
 30
0.0
 10
10.4171759715
 20
10.6861863085
 30
0.0
 10
10.4069681986
 20
10.6835879876
 30
0.0
 10
10.3970842022
 20
10.6809072619
 30
0.0
 10
10.3875339116
 20
10.6781468712
 30
0.0
 10
10.3783269154
 20
10.6753095628
 30
0.0
 10
10.3694724487
 20
10.6723982503
 30
0.0
 10
10.3609793718
 20
10.6694158161
 30
0.0
 10
10.3528562479
 20
10.6663653354
 30
0.0
 10
10.3475901876
 20
10.6642470312
 30
0.0
 10
10.345021883
 20
10.6631754732
 30
0.0
  0
SPLINE
  5
38F
100
AcDbEntity
  8
0
100
AcDbSpline
 62
7
  6
CONTINUOUS
 70
0
 71
3
 72
39
 73
35
 74
0
 42
0.0000001
 43
0.0000001
 44
0.0000000001
 40
0.0
 40
0.0
 40
0.0
 40
0.0
 40
0.0299424701
 40
0.0599093174
 40
0.0899243244
 40
0.1200101043
 40
0.1501875649
 40
0.1804754189
 40
0.2108897652
 40
0.2414437446
 40
0.2721472716
 40
0.303006856
 40
0.3340255105
 40
0.3652027321
 40
0.396534568
 40
0.4280137546
 40
0.459629913
 40
0.4913698074
 40
0.5232176551
 40
0.555155472
 40
0.5871634555
 40
0.6192203971
 40
0.6513041118
 40
0.6833918814
 40
0.7154609078
 40
0.747488765
 40
0.7794538478
 40
0.811335806
 40
0.8431159644
 40
0.874777716
 40
0.9063068848
 40
0.9376920706
 40
0.9689246614
 40
1.0
 40
1.0
 40
1.0
 40
1.0
 10
11.1439260247
 20
7.1452763714
 30
0.0
 10
11.1366265694
 20
7.1382256568
 30
0.0
 10
11.1214536668
 20
7.1246932725
 30
0.0
 10
11.0971443223
 20
7.1062578059
 30
0.0
 10
11.0714092474
 20
7.0897776994
 30
0.0
 10
11.0443922405
 20
7.0753453914
 30
0.0
 10
11.016241815
 20
7.0630397768
 30
0.0
 10
10.9871133513
 20
7.0529284593
 30
0.0
 10
10.9571673624
 20
7.0450667515
 30
0.0
 10
10.9265688173
 20
7.0394976259
 30
0.0
 10
10.895486196
 20
7.036251298
 30
0.0
 10
10.8640905373
 20
7.0353452022
 30
0.0
 10
10.8325545081
 20
7.0367839663
 30
0.0
 10
10.8010514622
 20
7.0405592624
 30
0.0
 10
10.769754483
 20
7.0466499479
 30
0.0
 10
10.7388354677
 20
7.0550222676
 30
0.0
 10
10.7084641728
 20
7.0656299162
 30
0.0
 10
10.6788072898
 20
7.0784143462
 30
0.0
 10
10.6500275859
 20
7.0933051795
 30
0.0
 10
10.6222829809
 20
7.1102204821
 30
0.0
 10
10.5957256813
 20
7.1290672278
 30
0.0
 10
10.570501421
 20
7.1497418989
 30
0.0
 10
10.5467486198
 20
7.1721309613
 30
0.0
 10
10.5245976029
 20
7.1961114715
 30
0.0
 10
10.5041699831
 20
7.221551835
 30
0.0
 10
10.4855779491
 20
7.2483124568
 30
0.0
 10
10.4689235977
 20
7.276246471
 30
0.0
 10
10.4542984911
 20
7.305200622
 30
0.0
 10
10.4417831145
 20
7.3350160313
 30
0.0
 10
10.4314463474
 20
7.3655291025
 30
0.0
 10
10.4233452064
 20
7.3965722043
 30
0.0
 10
10.4175245557
 20
7.427975475
 30
0.0
 10
10.4140165563
 20
7.4595642278
 30
0.0
 10
10.4132308416
 20
7.4806908279
 30
0.0
 10
10.4132308416
 20
7.4912234264
 30
0.0
  0
SPLINE
  5
390
100
AcDbEntity
  8
0
100
AcDbSpline
 62
7
  6
CONTINUOUS
 70
0
 71
3
 72
39
 73
35
 74
0
 42
0.0000001
 43
0.0000001
 44
0.0000000001
 40
0.0
 40
0.0
 40
0.0
 40
0.0
 40
0.0299337031
 40
0.0599001872
 40
0.0899223172
 40
0.1200216423
 40
0.1502178986
 40
0.180528563
 40
0.2109684772
 40
0.2415495427
 40
0.272280489
 40
0.3031667271
 40
0.334210283
 40
0.3654098032
 40
0.3967606309
 40
0.428254955
 40
0.4598820137
 40
0.4916283486
 40
0.5234781062
 40
0.5554133795
 40
0.5874145771
 40
0.6194608168
 40
0.6515303401
 40
0.6836009365
 40
0.7156503751
 40
0.7476568352
 40
0.7795993325
 40
0.8114581326
 40
0.8432151505
 40
0.8748543197
 40
0.9063619353
 40
0.937727004
 40
0.9689411725
 40
1.0
 40
1.0
 40
1.0
 40
1.0
 10
11.1438077508
 20
7.1454027416
 30
0.0
 10
11.1363868161
 20
7.1386538358
 30
0.0
 10
11.1209991316
 20
7.1257266304
 30
0.0
 10
11.0964547421
 20
7.1081952129
 30
0.0
 10
11.0705664246
 20
7.0926058382
 30
0.0
 10
11.0434754288
 20
7.0790439014
 30
0.0
 10
11.0153271622
 20
7.0675817328
 30
0.0
 10
10.9862733136
 20
7.0582807918
 30
0.0
 10
10.9564701902
 20
7.051190735
 30
0.0
 10
10.9260780895
 20
7.046349364
 30
0.0
 10
10.8952603905
 20
7.0437822957
 30
0.0
 10
10.8641826671
 20
7.0435029119
 30
0.0
 10
10.8330117986
 20
7.0455123522
 30
0.0
 10
10.8019150914
 20
7.0497994906
 30
0.0
 10
10.7710593733
 20
7.0563409405
 30
0.0
 10
10.7406101179
 20
7.0651012943
 30
0.0
 10
10.7107305828
 20
7.0760333214
 30
0.0
 10
10.6815809206
 20
7.0890781433
 30
0.0
 10
10.6533173343
 20
7.1041655918
 30
0.0
 10
10.6260912783
 20
7.121214634
 30
0.0
 10
10.6000486524
 20
7.1401337754
 30
0.0
 10
10.5753289798
 20
7.1608214856
 30
0.0
 10
10.5520647207
 20
7.1831668229
 30
0.0
 10
10.5303805851
 20
7.2070500205
 30
0.0
 10
10.5103928133
 20
7.2323430645
 30
0.0
 10
10.4922085688
 20
7.2589103958
 30
0.0
 10
10.4759254181
 20
7.2866096626
 30
0.0
 10
10.4616308002
 20
7.3152924591
 30
0.0
 10
10.4494014788
 20
7.3448050541
 30
0.0
 10
10.4393032179
 20
7.3749893252
 30
0.0
 10
10.4313904282
 20
7.4056833387
 30
0.0
 10
10.4257058731
 20
7.4367230613
 30
0.0
 10
10.4222802218
 20
7.4679398889
 30
0.0
 10
10.4215130444
 20
7.4888155362
 30
0.0
 10
10.4215130444
 20
7.4992234204
 30
0.0
  0
SPLINE
  5
391
100
AcDbEntity
  8
0
100
AcDbSpline
 62
7
  6
CONTINUOUS
 70
0
 71
3
 72
41
 73
37
 74
0
 42
0.0000001
 43
0.0000001
 44
0.0000000001
 40
0.0
 40
0.0
 40
0.0
 40
0.0
 40
0.0299421779
 40
0.0599087321
 40
0.0899234448
 40
0.12000893
 40
0.1501860942
 40
0.1804736507
 40
0.2108876985
 40
0.2414413769
 40
0.2721446009
 40
0.3030038814
 40
0.3340222297
 40
0.3651991437
 40
0.3965306721
 40
0.4280095499
 40
0.4596253985
 40
0.4913649829
 40
0.5232125193
 40
0.5551500235
 40
0.5871576944
 40
0.6192143233
 40
0.6512977253
 40
0.6833851829
 40
0.715453898
 40
0.7314766041
 40
0.7474862746
 40
0.7794510465
 40
0.8113326948
 40
0.8272389026
 40
0.8431174882
 40
0.8747789376
 40
0.9063077789
 40
0.9376927029
 40
0.968924976
 40
1.0
 40
1.0
 40
1.0
 40
1.0
 10
11.0175504434
 20
7.3082242356
 30
0.0
 10
11.0136518712
 20
7.3044585048
 30
0.0
 10
11.0055481752
 20
7.2972309516
 30
0.0
 10
10.9925647924
 20
7.2873846881
 30
0.0
 10
10.9788199334
 20
7.2785827677
 30
0.0
 10
10.9643903971
 20
7.2708745684
 30
0.0
 10
10.9493555151
 20
7.2643022045
 30
0.0
 10
10.9337982634
 20
7.2589018057
 30
0.0
 10
10.9178043735
 20
7.254702917
 30
0.0
 10
10.9014619608
 20
7.2517284609
 30
0.0
 10
10.8848610037
 20
7.2499945935
 30
0.0
 10
10.8680928539
 20
7.2495106357
 30
0.0
 10
10.8512497315
 20
7.2502790325
 30
0.0
 10
10.8344242219
 20
7.2522953511
 30
0.0
 10
10.8177087709
 20
7.2555483148
 30
0.0
 10
10.8011951839
 20
7.2600198727
 30
0.0
 10
10.7849741275
 20
7.2656853032
 30
0.0
 10
10.7691346374
 20
7.2725133498
 30
0.0
 10
10.7537636373
 20
7.2804664021
 30
0.0
 10
10.7389454705
 20
7.2895006988
 30
0.0
 10
10.7247614349
 20
7.2995665809
 30
0.0
 10
10.7112893776
 20
7.3106087138
 30
0.0
 10
10.6986031402
 20
7.3225665727
 30
0.0
 10
10.6867726561
 20
7.3353740843
 30
0.0
 10
10.6776772781
 20
7.3467014494
 30
0.0
 10
10.670891317
 20
7.3561167765
 30
0.0
 10
10.6644467254
 20
7.3657463838
 30
0.0
 10
10.6570374307
 20
7.3781736636
 30
0.0
 10
10.6505226704
 20
7.3910715554
 30
0.0
 10
10.6458754337
 20
7.4016206307
 30
0.0
 10
10.6416178933
 20
7.4122899372
 30
0.0
 10
10.6370210788
 20
7.4258590201
 30
0.0
 10
10.6326944503
 20
7.4424385733
 30
0.0
 10
10.6295856491
 20
7.4592108731
 30
0.0
 10
10.6277120564
 20
7.476082136
 30
0.0
 10
10.6272924154
 20
7.4873656728
 30
0.0
 10
10.6272924154
 20
7.4929910412
 30
0.0
  0
SPLINE
  5
392
100
AcDbEntity
  8
0
100
AcDbSpline
 62
7
  6
CONTINUOUS
 70
0
 71
3
 72
17
 73
13
 74
0
 42
0.0000001
 43
0.0000001
 44
0.0000000001
 40
0.0
 40
0.0
 40
0.0
 40
0.0
 40
0.0548647422
 40
0.1099333913
 40
0.1654074837
 40
0.2214837877
 40
0.336145709
 40
0.4553802063
 40
0.5804211709
 40
0.7123203349
 40
0.8519514223
 40
1.0
 40
1.0
 40
1.0
 40
1.0
 10
10.2285748164
 20
10.746137408
 30
0.0
 10
10.228574813
 20
10.7468435544
 30
0.0
 10
10.2286196235
 20
10.7482588796
 30
0.0
 10
10.2288211064
 20
10.7503795535
 30
0.0
 10
10.2291568883
 20
10.7524990539
 30
0.0
 10
10.2297878769
 20
10.755342926
 30
0.0
 10
10.2309246809
 20
10.7589074222
 30
0.0
 10
10.2328146555
 20
10.7631322677
 30
0.0
 10
10.2352363666
 20
10.7673335872
 30
0.0
 10
10.2381857787
 20
10.7715072601
 30
0.0
 10
10.2416585365
 20
10.7756496704
 30
0.0
 10
10.2442413384
 20
10.7783075109
 30
0.0
 10
10.2456118675
 20
10.7796313404
 30
0.0
  0
LINE
  5
393
100
AcDbEntity
  8
0
100
AcDbLine
 62
7
  6
CONTINUOUS
 10
10.5334000059
 20
7.778843362
 11
10.5326783538
 21
7.7781051293
  0
SPLINE
  5
394
100
AcDbEntity
  8
0
100
AcDbSpline
 62
7
  6
CONTINUOUS
 70
0
 71
3
 72
23
 73
19
 74
0
 42
0.0000001
 43
0.0000001
 44
0.0000000001
 40
0.0
 40
0.0
 40
0.0
 40
0.0
 40
0.0616898513
 40
0.1234110791
 40
0.1851828831
 40
0.2470239855
 40
0.3089524542
 40
0.370985535
 40
0.4331394916
 40
0.4954294645
 40
0.5578693332
 40
0.6204716148
 40
0.6832473269
 40
0.7462058981
 40
0.8093553679
 40
0.8727010171
 40
0.9362494298
 40
1.0
 40
1.0
 40
1.0
 40
1.0
 10
10.5326783538
 20
7.7781051293
 30
0.0
 10
10.5282596103
 20
7.7735726566
 30
0.0
 10
10.5196431443
 20
7.7642846096
 30
0.0
 10
10.5074210635
 20
7.7497257414
 30
0.0
 10
10.4959242227
 20
7.7345675616
 30
0.0
 10
10.4851776564
 20
7.7188429705
 30
0.0
 10
10.4752042442
 20
7.7025855257
 30
0.0
 10
10.4660253618
 20
7.6858300689
 30
0.0
 10
10.4576606279
 20
7.6686124751
 30
0.0
 10
10.4501279134
 20
7.6509696209
 30
0.0
 10
10.4434433071
 20
7.6329392815
 30
0.0
 10
10.4376210864
 20
7.6145600547
 30
0.0
 10
10.4326736889
 20
7.5958712856
 30
0.0
 10
10.428611654
 20
7.5769129466
 30
0.0
 10
10.4254436799
 20
7.5577257103
 30
0.0
 10
10.4231763756
 20
7.5383503407
 30
0.0
 10
10.4218147421
 20
7.5188290128
 30
0.0
 10
10.4215130444
 20
7.5057648467
 30
0.0
 10
10.4215130444
 20
7.4992234204
 30
0.0
  0
SPLINE
  5
395
100
AcDbEntity
  8
0
100
AcDbSpline
 62
7
  6
CONTINUOUS
 70
0
 71
3
 72
21
 73
17
 74
0
 42
0.0000001
 43
0.0000001
 44
0.0000000001
 40
0.0
 40
0.0
 40
0.0
 40
0.0
 40
0.061714776
 40
0.123450665
 40
0.1852285542
 40
0.2470689029
 40
0.3089915446
 40
0.3710154752
 40
0.4331586565
 40
0.4954378535
 40
0.5578684954
 40
0.6204645019
 40
0.6832380654
 40
0.7461999575
 40
0.8726824794
 40
1.0
 40
1.0
 40
1.0
 40
1.0
 10
10.6910195528
 20
7.6462738688
 30
0.0
 10
10.6884962276
 20
7.6438365243
 30
0.0
 10
10.6835732317
 20
7.6388301635
 30
0.0
 10
10.6765833919
 20
7.6309494098
 30
0.0
 10
10.6700029458
 20
7.6227142313
 30
0.0
 10
10.6638472978
 20
7.6141439082
 30
0.0
 10
10.6581305624
 20
7.6052581448
 30
0.0
 10
10.6528659637
 20
7.5960774399
 30
0.0
 10
10.648065614
 20
7.5866229759
 30
0.0
 10
10.6437405432
 20
7.5769165806
 30
0.0
 10
10.6399007162
 20
7.5669806136
 30
0.0
 10
10.6365550077
 20
7.5568380545
 30
0.0
 10
10.6337110329
 20
7.546512034
 30
0.0
 10
10.6305924617
 20
7.5325125396
 30
0.0
 10
10.6279832904
 20
7.5146654378
 30
0.0
 10
10.6272924154
 20
7.5002285573
 30
0.0
 10
10.6272924154
 20
7.4929910412
 30
0.0
  0
SPLINE
  5
396
100
AcDbEntity
  8
0
100
AcDbSpline
 62
7
  6
CONTINUOUS
 70
0
 71
3
 72
42
 73
38
 74
0
 42
0.0000001
 43
0.0000001
 44
0.0000000001
 40
0.0
 40
0.0
 40
0.0
 40
0.0
 40
0.0299419634
 40
0.0449235299
 40
0.0599142017
 40
0.0899287029
 40
0.1200139772
 40
0.1350926626
 40
0.1501967046
 40
0.1804840506
 40
0.2108978877
 40
0.2414513551
 40
0.2721543675
 40
0.3030134354
 40
0.3340315696
 40
0.3652082675
 40
0.3965395775
 40
0.4280182343
 40
0.4596338596
 40
0.4913732188
 40
0.5232205284
 40
0.5551578047
 40
0.5871652463
 40
0.6192216448
 40
0.6513048151
 40
0.6833920402
 40
0.7154605222
 40
0.747487836
 40
0.7794523759
 40
0.8113337934
 40
0.8431134117
 40
0.8747746318
 40
0.9063032512
 40
0.9376879208
 40
0.9533258
 40
0.9689252634
 40
1.0
 40
1.0
 40
1.0
 40
1.0
 10
11.4406969225
 20
9.38707927
 30
0.0
 10
11.4378434981
 20
9.3843230905
 30
0.0
 10
11.4333951638
 20
9.3803558334
 30
0.0
 10
11.4271653719
 20
9.3754333314
 30
0.0
 10
11.4207371924
 20
9.3707557805
 30
0.0
 10
11.4123494751
 20
9.3653844368
 30
0.0
 10
11.403553942
 20
9.3606860655
 30
0.0
 10
11.3962999065
 20
9.3573436395
 30
0.0
 10
11.388896024
 20
9.3542771359
 30
0.0
 10
11.3793971785
 20
9.3509797779
 30
0.0
 10
11.3676912912
 20
9.3479067229
 30
0.0
 10
11.3557299797
 20
9.3457297
 30
0.0
 10
11.3435795317
 20
9.3444607196
 30
0.0
 10
11.3313066922
 20
9.3441065538
 30
0.0
 10
11.31897899
 20
9.344669005
 30
0.0
 10
11.3066641809
 20
9.3461448243
 30
0.0
 10
11.2944299293
 20
9.3485257575
 30
0.0
 10
11.2823434272
 20
9.3517985909
 30
0.0
 10
11.2704710337
 20
9.3559452292
 30
0.0
 10
11.258877915
 20
9.3609427974
 30
0.0
 10
11.2476276919
 20
9.3667637689
 30
0.0
 10
11.2367820955
 20
9.3733761164
 30
0.0
 10
11.226400633
 20
9.3807434881
 30
0.0
 10
11.2165402653
 20
9.3888254061
 30
0.0
 10
11.2072550981
 20
9.3975774873
 30
0.0
 10
11.1985960888
 20
9.4069516844
 30
0.0
 10
11.190610769
 20
9.4168965476
 30
0.0
 10
11.183342987
 20
9.4273575047
 30
0.0
 10
11.1768326685
 20
9.4382771536
 30
0.0
 10
11.1711155996
 20
9.4495955869
 30
0.0
 10
11.1662232321
 20
9.4612506691
 30
0.0
 10
11.162182502
 20
9.4731785466
 30
0.0
 10
11.1590157315
 20
9.4853133535
 30
0.0
 10
11.1571171822
 20
9.4955564461
 30
0.0
 10
11.1560521524
 20
9.5037866468
 30
0.0
 10
11.1552920667
 20
9.5120089719
 30
0.0
 10
11.1550619201
 20
9.5181962161
 30
0.0
 10
11.1550619201
 20
9.5223134887
 30
0.0
  0
SPLINE
  5
397
100
AcDbEntity
  8
0
100
AcDbSpline
 62
7
  6
CONTINUOUS
 70
0
 71
3
 72
42
 73
38
 74
0
 42
0.0000001
 43
0.0000001
 44
0.0000000001
 40
0.0
 40
0.0
 40
0.0
 40
0.0
 40
0.0299419634
 40
0.0449235299
 40
0.0599142017
 40
0.0899287029
 40
0.1200139772
 40
0.1350926626
 40
0.1501967046
 40
0.1804840506
 40
0.2108978877
 40
0.2414513551
 40
0.2721543675
 40
0.3030134354
 40
0.3340315696
 40
0.3652082675
 40
0.3965395775
 40
0.4280182343
 40
0.4596338596
 40
0.4913732188
 40
0.5232205284
 40
0.5551578047
 40
0.5871652463
 40
0.6192216448
 40
0.6513048151
 40
0.6833920402
 40
0.7154605222
 40
0.747487836
 40
0.7794523759
 40
0.8113337934
 40
0.8431134117
 40
0.8747746318
 40
0.9063032512
 40
0.9376879208
 40
0.9533258
 40
0.9689252634
 40
1.0
 40
1.0
 40
1.0
 40
1.0
 10
10.4747710389
 20
6.7977702491
 30
0.0
 10
10.4719176146
 20
6.7950140696
 30
0.0
 10
10.4674692803
 20
6.7910468125
 30
0.0
 10
10.4612394884
 20
6.7861243105
 30
0.0
 10
10.4548113089
 20
6.7814467596
 30
0.0
 10
10.4464235916
 20
6.7760754159
 30
0.0
 10
10.4376280584
 20
6.7713770446
 30
0.0
 10
10.430374023
 20
6.7680346186
 30
0.0
 10
10.4229701405
 20
6.764968115
 30
0.0
 10
10.413471295
 20
6.761670757
 30
0.0
 10
10.4017654077
 20
6.758597702
 30
0.0
 10
10.3898040961
 20
6.7564206791
 30
0.0
 10
10.3776536481
 20
6.7551516987
 30
0.0
 10
10.3653808087
 20
6.7547975328
 30
0.0
 10
10.3530531065
 20
6.7553599841
 30
0.0
 10
10.3407382974
 20
6.7568358033
 30
0.0
 10
10.3285040458
 20
6.7592167366
 30
0.0
 10
10.3164175436
 20
6.76248957
 30
0.0
 10
10.3045451502
 20
6.7666362082
 30
0.0
 10
10.2929520315
 20
6.7716337765
 30
0.0
 10
10.2817018084
 20
6.777454748
 30
0.0
 10
10.270856212
 20
6.7840670955
 30
0.0
 10
10.2604747495
 20
6.7914344672
 30
0.0
 10
10.2506143817
 20
6.7995163852
 30
0.0
 10
10.2413292146
 20
6.8082684663
 30
0.0
 10
10.2326702052
 20
6.8176426634
 30
0.0
 10
10.2246848855
 20
6.8275875267
 30
0.0
 10
10.2174171035
 20
6.8380484837
 30
0.0
 10
10.210906785
 20
6.8489681327
 30
0.0
 10
10.2051897161
 20
6.8602865659
 30
0.0
 10
10.2002973486
 20
6.8719416482
 30
0.0
 10
10.1962566184
 20
6.8838695256
 30
0.0
 10
10.1930898479
 20
6.8960043325
 30
0.0
 10
10.1911912987
 20
6.9062474251
 30
0.0
 10
10.1901262688
 20
6.9144776259
 30
0.0
 10
10.1893661832
 20
6.9226999509
 30
0.0
 10
10.1891360366
 20
6.9288871952
 30
0.0
 10
10.1891360366
 20
6.9330044678
 30
0.0
  0
SPLINE
  5
398
100
AcDbEntity
  8
0
100
AcDbSpline
 62
7
  6
CONTINUOUS
 70
0
 71
3
 72
67
 73
63
 74
0
 42
0.0000001
 43
0.0000001
 44
0.0000000001
 40
0.0
 40
0.0
 40
0.0
 40
0.0
 40
0.0155845825
 40
0.0311170818
 40
0.0465968193
 40
0.062025983
 40
0.0774060868
 40
0.0927394301
 40
0.1080287936
 40
0.1232773624
 40
0.1384887613
 40
0.1536669973
 40
0.1688164253
 40
0.1839417032
 40
0.1990477421
 40
0.2141396583
 40
0.2292227202
 40
0.2443022907
 40
0.2593837681
 40
0.2744725304
 40
0.2895738795
 40
0.3046929831
 40
0.3198348189
 40
0.3350041227
 40
0.3502053427
 40
0.3654425939
 40
0.3807196152
 40
0.3960397329
 40
0.4114058342
 40
0.4268203411
 40
0.4422851877
 40
0.4578018044
 40
0.4733711134
 40
0.4889935247
 40
0.5046689335
 40
0.5203967259
 40
0.5361757944
 40
0.5520045527
 40
0.567880951
 40
0.5838024991
 40
0.5997662972
 40
0.6157690646
 40
0.6318071685
 40
0.6478766593
 40
0.6639733112
 40
0.68009266
 40
0.7123721236
 40
0.7446846186
 40
0.7769900059
 40
0.8092483934
 40
0.8253521894
 40
0.8414301121
 40
0.8574778624
 40
0.8734914069
 40
0.8894670144
 40
0.9054013009
 40
0.9212912358
 40
0.9371342343
 40
0.9529281327
 40
0.9686709336
 40
0.9843622928
 40
1.0
 40
1.0
 40
1.0
 40
1.0
 10
11.1024907922
 20
7.4519974532
 30
0.0
 10
11.1024907922
 20
7.4478167782
 30
0.0
 10
11.1022861724
 20
7.4394679184
 30
0.0
 10
11.1013626433
 20
7.4269972607
 30
0.0
 10
11.099825014
 20
7.4146289961
 30
0.0
 10
11.0976771566
 20
7.4023935221
 30
0.0
 10
11.0949240718
 20
7.3903200677
 30
0.0
 10
11.0915724256
 20
7.3784378175
 30
0.0
 10
11.0876302801
 20
7.3667753965
 30
0.0
 10
11.0831070921
 20
7.3553609294
 30
0.0
 10
11.0780137211
 20
7.3442219573
 30
0.0
 10
11.0723624499
 20
7.3333853367
 30
0.0
 10
11.0661668935
 20
7.322877202
 30
0.0
 10
11.0594419674
 20
7.312722907
 30
0.0
 10
11.0522038539
 20
7.3029469668
 30
0.0
 10
11.0444700244
 20
7.2935729512
 30
0.0
 10
11.036259132
 20
7.2846234679
 30
0.0
 10
11.0275909702
 20
7.2761201116
 30
0.0
 10
11.0184864278
 20
7.268083415
 30
0.0
 10
11.008967488
 20
7.26053274
 30
0.0
 10
10.9990571194
 20
7.2534862845
 30
0.0
 10
10.9887792242
 20
7.2469610413
 30
0.0
 10
10.9781585841
 20
7.24097276
 30
0.0
 10
10.9672208362
 20
7.2355358419
 30
0.0
 10
10.9559923677
 20
7.2306633694
 30
0.0
 10
10.9445002559
 20
7.2263670767
 30
0.0
 10
10.9327722079
 20
7.2226573241
 30
0.0
 10
10.9208365143
 20
7.2195430014
 30
0.0
 10
10.9087219529
 20
7.2170315772
 30
0.0
 10
10.8964577232
 20
7.2151290835
 30
0.0
 10
10.8840733814
 20
7.2138401016
 30
0.0
 10
10.8715987762
 20
7.2131676787
 30
0.0
 10
10.8590639631
 20
7.2131133944
 30
0.0
 10
10.846499137
 20
7.2136773581
 30
0.0
 10
10.8339345651
 20
7.2148582085
 30
0.0
 10
10.8214005067
 20
7.2166530449
 30
0.0
 10
10.8089271418
 20
7.2190575084
 30
0.0
 10
10.7965445035
 20
7.2220657921
 30
0.0
 10
10.7842824109
 20
7.225670654
 30
0.0
 10
10.7721703774
 20
7.229863365
 30
0.0
 10
10.7602375528
 20
7.2346338033
 30
0.0
 10
10.7485126663
 20
7.2399704705
 30
0.0
 10
10.7370239316
 20
7.245860543
 30
0.0
 10
10.7257990603
 20
7.2522897409
 30
0.0
 10
10.7148647958
 20
7.2592428002
 30
0.0
 10
10.7007043396
 20
7.2691923009
 30
0.0
 10
10.6838631949
 20
7.2828522787
 30
0.0
 10
10.6652333265
 20
7.3010303361
 30
0.0
 10
10.6483467983
 20
7.320830983
 30
0.0
 10
10.6358529743
 20
7.3385402484
 30
0.0
 10
10.6268844685
 20
7.3533241536
 30
0.0
 10
10.6206896218
 20
7.3646880533
 30
0.0
 10
10.6150387897
 20
7.3763048471
 30
0.0
 10
10.6099453832
 20
7.3881468611
 30
0.0
 10
10.6054217607
 20
7.4001855272
 30
0.0
 10
10.601478796
 20
7.4123918763
 30
0.0
 10
10.598125988
 20
7.4247365183
 30
0.0
 10
10.5953714418
 20
7.4371897589
 30
0.0
 10
10.5932218746
 20
7.4497215336
 30
0.0
 10
10.5916823466
 20
7.4623019332
 30
0.0
 10
10.5907567876
 20
7.4749000642
 30
0.0
 10
10.590550074
 20
7.4833057365
 30
0.0
 10
10.590550074
 20
7.4875006626
 30
0.0
  0
SPLINE
  5
399
100
AcDbEntity
  8
0
100
AcDbSpline
 62
7
  6
CONTINUOUS
 70
0
 71
3
 72
23
 73
19
 74
0
 42
0.0000001
 43
0.0000001
 44
0.0000000001
 40
0.0
 40
0.0
 40
0.0
 40
0.0
 40
0.0637775561
 40
0.1273446565
 40
0.1907020307
 40
0.2538561431
 40
0.3168131834
 40
0.3795821015
 40
0.4421733894
 40
0.5045993415
 40
0.5668738676
 40
0.6290123791
 40
0.6910316472
 40
0.7529496401
 40
0.8147853492
 40
0.8765585998
 40
0.9382898533
 40
1.0
 40
1.0
 40
1.0
 40
1.0
 10
10.4132308416
 20
7.4912234264
 30
0.0
 10
10.4132308416
 20
7.4980121481
 30
0.0
 10
10.4135557588
 20
7.5115694912
 30
0.0
 10
10.4150223779
 20
7.5318230719
 30
0.0
 10
10.4174642356
 20
7.5519160502
 30
0.0
 10
10.4208756031
 20
7.5718013828
 30
0.0
 10
10.4252487692
 20
7.5914335039
 30
0.0
 10
10.4305736459
 20
7.6107670676
 30
0.0
 10
10.4368380293
 20
7.629757522
 30
0.0
 10
10.4440275153
 20
7.6483610665
 30
0.0
 10
10.4521255621
 20
7.6665347986
 30
0.0
 10
10.4611135289
 20
7.684236801
 30
0.0
 10
10.4709707158
 20
7.7014262373
 30
0.0
 10
10.4816744264
 20
7.7180634608
 30
0.0
 10
10.4931999612
 20
7.7341100526
 30
0.0
 10
10.5055208904
 20
7.7495291134
 30
0.0
 10
10.5186083098
 20
7.7642845963
 30
0.0
 10
10.527825892
 20
7.7736582088
 30
0.0
 10
10.5325504359
 20
7.7782217563
 30
0.0
  0
SPLINE
  5
39A
100
AcDbEntity
  8
0
100
AcDbSpline
 62
7
  6
CONTINUOUS
 70
0
 71
3
 72
82
 73
78
 74
0
 42
0.0000001
 43
0.0000001
 44
0.0000000001
 40
0.0
 40
0.0
 40
0.0
 40
0.0
 40
0.0027164291
 40
0.0054532364
 40
0.0082303053
 40
0.0110666058
 40
0.0139798164
 40
0.016986131
 40
0.0201001037
 40
0.0233346222
 40
0.0267009905
 40
0.0302089475
 40
0.0338668707
 40
0.0376818493
 40
0.0416598249
 40
0.0458057691
 40
0.0501237025
 40
0.0546169039
 40
0.0592879295
 40
0.0641387045
 40
0.069170648
 40
0.0743846285
 40
0.0797811279
 40
0.0853602093
 40
0.0970640744
 40
0.1094908292
 40
0.122630084
 40
0.1364677626
 40
0.1509865887
 40
0.1661664945
 40
0.1819849411
 40
0.1984171777
 40
0.2154364542
 40
0.233014197
 40
0.2511201854
 40
0.2697227022
 40
0.2887886669
 40
0.3082837565
 40
0.3281725155
 40
0.3484184781
 40
0.3689842782
 40
0.3898317536
 40
0.4109220451
 40
0.4536720397
 40
0.4969140311
 40
0.540322302
 40
0.5835695392
 40
0.6263299734
 40
0.6474273998
 40
0.6682832705
 40
0.6888587055
 40
0.7091155138
 40
0.7290162972
 40
0.7485245643
 40
0.7676048337
 40
0.786222742
 40
0.8043451595
 40
0.821940317
 40
0.8389779517
 40
0.8554294454
 40
0.8712679825
 40
0.8864687352
 40
0.9010090829
 40
0.9148688848
 40
0.9280307811
 40
0.9404805813
 40
0.9522077554
 40
0.9577985268
 40
0.9632067444
 40
0.9684324379
 40
0.9734760336
 40
0.9783383943
 40
0.9830208414
 40
0.9875253833
 40
0.9918546059
 40
0.9960115907
 40
1.0
 40
1.0
 40
1.0
 40
1.0
 10
12.4793301179
 20
10.5828163187
 30
0.0
 10
12.4801513229
 20
10.5827593636
 30
0.0
 10
12.4817956871
 20
10.5825706829
 30
0.0
 10
12.4842412938
 20
10.5820658076
 30
0.0
 10
12.4866684266
 20
10.5813391887
 30
0.0
 10
12.4890753325
 20
10.5803914625
 30
0.0
 10
12.4914607954
 20
10.5792235443
 30
0.0
 10
12.4938235732
 20
10.5778362999
 30
0.0
 10
12.4961625759
 20
10.5762307265
 30
0.0
 10
12.4984767916
 20
10.5744078707
 30
0.0
 10
12.5007651712
 20
10.572368743
 30
0.0
 10
12.5030267818
 20
10.5701145137
 30
0.0
 10
12.505260598
 20
10.5676463207
 30
0.0
 10
12.5074656369
 20
10.5649654275
 30
0.0
 10
12.509640925
 20
10.5620731839
 30
0.0
 10
12.511785408
 20
10.5589709889
 30
0.0
 10
12.5138981339
 20
10.5556604022
 30
0.0
 10
12.5159780569
 20
10.5521430313
 30
0.0
 10
12.5180241831
 20
10.5484206158
 30
0.0
 10
12.520035538
 20
10.5444950006
 30
0.0
 10
12.5220110902
 20
10.5403681104
 30
0.0
 10
12.5239499075
 20
10.5360420109
 30
0.0
 10
12.5258510161
 20
10.5315188316
 30
0.0
 10
12.5283746247
 20
10.5251257262
 30
0.0
 10
12.5314182622
 20
10.5166500215
 30
0.0
 10
12.5348496812
 20
10.5058875922
 30
0.0
 10
12.5381092135
 20
10.4943983753
 30
0.0
 10
12.5411902684
 20
10.4822053146
 30
0.0
 10
12.5440866031
 20
10.4693326226
 30
0.0
 10
12.5467923345
 20
10.4558060058
 30
0.0
 10
12.5493019591
 20
10.4416525081
 30
0.0
 10
12.5516103679
 20
10.4269004712
 30
0.0
 10
12.5537128578
 20
10.4115794674
 30
0.0
 10
12.5556051531
 20
10.3957202387
 30
0.0
 10
12.5572834037
 20
10.379354627
 30
0.0
 10
12.5587441932
 20
10.3625155021
 30
0.0
 10
12.5599845452
 20
10.345236694
 30
0.0
 10
12.5610019292
 20
10.3275529263
 30
0.0
 10
12.5617942741
 20
10.3094997469
 30
0.0
 10
12.5623599654
 20
10.2911134497
 30
0.0
 10
12.5626978391
 20
10.2724310106
 30
0.0
 10
12.5628072167
 20
10.2534899648
 30
0.0
 10
12.5626472529
 20
10.2278264551
 30
0.0
 10
12.5618711486
 20
10.1953827009
 30
0.0
 10
12.560042107
 20
10.156209132
 30
0.0
 10
12.5573255651
 20
10.1169359236
 30
0.0
 10
12.5537433868
 20
10.0778788546
 30
0.0
 10
12.5500447521
 20
10.0456303141
 30
0.0
 10
12.5466693238
 20
10.0201813107
 30
0.0
 10
12.5439526451
 20
10.0014280772
 30
0.0
 10
12.541045174
 20
9.9829613135
 30
0.0
 10
12.5379527488
 20
9.9648181249
 30
0.0
 10
12.5346816109
 20
9.947034997
 30
0.0
 10
12.531238363
 20
9.9296476748
 30
0.0
 10
12.5276299573
 20
9.9126911023
 30
0.0
 10
12.523863679
 20
9.8961993518
 30
0.0
 10
12.519947133
 20
9.8802055557
 30
0.0
 10
12.515888227
 20
9.8647418338
 30
0.0
 10
12.5116951656
 20
9.8498392224
 30
0.0
 10
12.5073764239
 20
9.8355276105
 30
0.0
 10
12.5029407301
 20
9.8218356802
 30
0.0
 10
12.4983970471
 20
9.8087908458
 30
0.0
 10
12.4937545479
 20
9.7964191801
 30
0.0
 10
12.4890226071
 20
9.7847453708
 30
0.0
 10
12.4842107521
 20
9.7737925758
 30
0.0
 10
12.4793286653
 20
9.7635826642
 30
0.0
 10
12.4751458613
 20
9.7555875218
 30
0.0
 10
12.471765089
 20
9.7495870599
 30
0.0
 10
12.469258512
 20
9.7453568163
 30
0.0
 10
12.466741713
 20
9.7413268337
 30
0.0
 10
12.4642159204
 20
9.7374991191
 30
0.0
 10
12.461682431
 20
9.7338755628
 30
0.0
 10
12.4591424351
 20
9.7304579705
 30
0.0
 10
12.4565971852
 20
9.7272479811
 30
0.0
 10
12.4540478516
 20
9.7242471765
 30
0.0
 10
12.4514958229
 20
9.7214571857
 30
0.0
 10
12.4497581412
 20
9.7197029286
 30
0.0
 10
12.4488888253
 20
9.7188632339
 30
0.0
  0
SPLINE
  5
39B
100
AcDbEntity
  8
0
100
AcDbSpline
 62
7
  6
CONTINUOUS
 70
0
 71
3
 72
86
 73
82
 74
0
 42
0.0000001
 43
0.0000001
 44
0.0000000001
 40
0.0
 40
0.0
 40
0.0
 40
0.0
 40
0.0039801513
 40
0.008124084
 40
0.0124359564
 40
0.0169193168
 40
0.0215771741
 40
0.0264119028
 40
0.0314251627
 40
0.0366181356
 40
0.0419915235
 40
0.0475456275
 40
0.053280397
 40
0.0591953838
 40
0.0715623696
 40
0.0846380241
 40
0.098409314
 40
0.1128598612
 40
0.1279703666
 40
0.1437189434
 40
0.1600813876
 40
0.1770314207
 40
0.1945408892
 40
0.212579937
 40
0.2311171586
 40
0.2501197324
 40
0.2695535554
 40
0.2893833698
 40
0.3095728782
 40
0.330084854
 40
0.3508812463
 40
0.3719232845
 40
0.3931715874
 40
0.4145862648
 40
0.4577524943
 40
0.5010972215
 40
0.5442931877
 40
0.5657338055
 40
0.5870153489
 40
0.6080978459
 40
0.6289418171
 40
0.6495083765
 40
0.6697593333
 40
0.6896572975
 40
0.709165794
 40
0.7282493704
 40
0.7468737097
 40
0.765005749
 40
0.7826138079
 40
0.799667733
 40
0.8161390526
 40
0.8320011386
 40
0.8472293986
 40
0.8618014998
 40
0.8756976395
 40
0.8889008818
 40
0.9013975545
 40
0.9073779486
 40
0.9131783323
 40
0.9187981834
 40
0.9242373016
 40
0.9294958263
 40
0.9345743472
 40
0.939473844
 40
0.9441958406
 40
0.9487423954
 40
0.9531161817
 40
0.9573206117
 40
0.9613598365
 40
0.9652389461
 40
0.9689639973
 40
0.9725421665
 40
0.9759818867
 40
0.9792929065
 40
0.9824864724
 40
0.985575332
 40
0.9885738044
 40
0.9914977317
 40
0.9943643325
 40
0.9971920101
 40
1.0
 40
1.0
 40
1.0
 40
1.0
 10
10.2456118675
 20
10.7796313404
 30
0.0
 10
10.2466021422
 20
10.7805878724
 30
0.0
 10
10.2486684137
 20
10.7824941775
 30
0.0
 10
10.2519490255
 20
10.7852784904
 30
0.0
 10
10.2554705506
 20
10.7880428487
 30
0.0
 10
10.2592310554
 20
10.7907857512
 30
0.0
 10
10.2632286859
 20
10.7935059368
 30
0.0
 10
10.2674615041
 20
10.7962020623
 30
0.0
 10
10.2719273876
 20
10.7988728603
 30
0.0
 10
10.2766241214
 20
10.8015169455
 30
0.0
 10
10.2815493413
 20
10.8041330187
 30
0.0
 10
10.2867005789
 20
10.8067197756
 30
0.0
 10
10.2920752724
 20
10.8092759127
 30
0.0
 10
10.2996486232
 20
10.8126923716
 30
0.0
 10
10.309662957
 20
10.8168673403
 30
0.0
 10
10.3223538837
 20
10.8216635844
 30
0.0
 10
10.3358654926
 20
10.8263079917
 30
0.0
 10
10.3501705867
 20
10.8307911378
 30
0.0
 10
10.3652405275
 20
10.8351039104
 30
0.0
 10
10.3810450049
 20
10.8392375285
 30
0.0
 10
10.3975521945
 20
10.8431835778
 30
0.0
 10
10.4147288113
 20
10.846934021
 30
0.0
 10
10.4325401946
 20
10.8504812179
 30
0.0
 10
10.4509503808
 20
10.8538179425
 30
0.0
 10
10.4699221783
 20
10.856937396
 30
0.0
 10
10.4894172426
 20
10.8598332285
 30
0.0
 10
10.5093961584
 20
10.8624995478
 30
0.0
 10
10.5298185248
 20
10.8649309281
 30
0.0
 10
10.5506430391
 20
10.8671224221
 30
0.0
 10
10.5718275792
 20
10.8690695687
 30
0.0
 10
10.5933292916
 20
10.8707684073
 30
0.0
 10
10.6151046634
 20
10.8722154802
 30
0.0
 10
10.6371096733
 20
10.8734078697
 30
0.0
 10
10.6667738117
 20
10.8746580591
 30
0.0
 10
10.7040999923
 20
10.8755661397
 30
0.0
 10
10.7489717735
 20
10.8756134788
 30
0.0
 10
10.7863190461
 20
10.8747843332
 30
0.0
 10
10.8160165533
 20
10.8735971652
 30
0.0
 10
10.8380585502
 20
10.8724513741
 30
0.0
 10
10.8598789733
 20
10.871050419
 30
0.0
 10
10.8814337124
 20
10.8693971259
 30
0.0
 10
10.9026791482
 20
10.867494863
 30
0.0
 10
10.9235723019
 20
10.8653474966
 30
0.0
 10
10.944070908
 20
10.8629593918
 30
0.0
 10
10.9641335078
 20
10.86033541
 30
0.0
 10
10.9837195327
 20
10.8574808931
 30
0.0
 10
11.0027893858
 20
10.8544016517
 30
0.0
 10
11.0213045217
 20
10.8511039547
 30
0.0
 10
11.0392275286
 20
10.8475945145
 30
0.0
 10
11.0565222103
 20
10.8438804786
 30
0.0
 10
11.0731536658
 20
10.8399694161
 30
0.0
 10
11.0890883595
 20
10.8358692952
 30
0.0
 10
11.1042941994
 20
10.8315884662
 30
0.0
 10
11.1187405876
 20
10.8271356428
 30
0.0
 10
11.1323985788
 20
10.822519871
 30
0.0
 10
11.1452406751
 20
10.8177505305
 30
0.0
 10
11.1553847674
 20
10.8135975251
 30
0.0
 10
11.1630643932
 20
10.8101978781
 30
0.0
 10
11.1685196971
 20
10.8076531814
 30
0.0
 10
11.1737525204
 20
10.8050774174
 30
0.0
 10
11.1787602515
 20
10.8024718668
 30
0.0
 10
11.1835403648
 20
10.7998378036
 30
0.0
 10
11.1880904918
 20
10.7971765935
 30
0.0
 10
11.192408339
 20
10.7944895081
 30
0.0
 10
11.1964917689
 20
10.7917779083
 30
0.0
 10
11.2003387501
 20
10.7890431219
 30
0.0
 10
11.2039473509
 20
10.7862864505
 30
0.0
 10
11.2073158109
 20
10.7835092741
 30
0.0
 10
11.2104424103
 20
10.7807128547
 30
0.0
 10
11.2133256151
 20
10.7778985518
 30
0.0
 10
11.2159639516
 20
10.7750676475
 30
0.0
 10
11.2183560356
 20
10.7722214183
 30
0.0
 10
11.2205006368
 20
10.7693611891
 30
0.0
 10
11.2223964833
 20
10.7664881883
 30
0.0
 10
11.2240425028
 20
10.7636037664
 30
0.0
 10
11.2254375773
 20
10.7607092332
 30
0.0
 10
11.2265806877
 20
10.7578059945
 30
0.0
 10
11.2274709559
 20
10.7548955942
 30
0.0
 10
11.2281074797
 20
10.7519795546
 30
0.0
 10
11.2284897184
 20
10.7490599506
 30
0.0
 10
11.2285747974
 20
10.7471094202
 30
0.0
 10
11.2285748021
 20
10.7461380852
 30
0.0
  0
SPLINE
  5
39C
100
AcDbEntity
  8
0
100
AcDbSpline
 62
7
  6
CONTINUOUS
 70
0
 71
3
 72
67
 73
63
 74
0
 42
0.0000001
 43
0.0000001
 44
0.0000000001
 40
0.0
 40
0.0
 40
0.0
 40
0.0
 40
0.0156377072
 40
0.0313290664
 40
0.0470718673
 40
0.0628657657
 40
0.0787087642
 40
0.0945986991
 40
0.1105329856
 40
0.1265085931
 40
0.1425221376
 40
0.1585698879
 40
0.1746478106
 40
0.1907516066
 40
0.2230099941
 40
0.2553153814
 40
0.2876278764
 40
0.31990734
 40
0.3360266888
 40
0.3521233407
 40
0.3681928315
 40
0.3842309354
 40
0.4002337028
 40
0.4161975009
 40
0.432119049
 40
0.4479954473
 40
0.4638242056
 40
0.4796032741
 40
0.4953310665
 40
0.5110064753
 40
0.5266288866
 40
0.5421981956
 40
0.5577148123
 40
0.5731796589
 40
0.5885941658
 40
0.6039602671
 40
0.6192803848
 40
0.6345574061
 40
0.6497946573
 40
0.6649958773
 40
0.6801651811
 40
0.6953070169
 40
0.7104261205
 40
0.7255274696
 40
0.7406162319
 40
0.7556977093
 40
0.7707772798
 40
0.7858603417
 40
0.8009522579
 40
0.8160582968
 40
0.8311835747
 40
0.8463330027
 40
0.8615112387
 40
0.8767226376
 40
0.8919712064
 40
0.9072605699
 40
0.9225939132
 40
0.937974017
 40
0.9534031807
 40
0.9688829182
 40
0.9844154175
 40
1.0
 40
1.0
 40
1.0
 40
1.0
 10
11.1024907922
 20
7.4519974532
 30
0.0
 10
11.1024907922
 20
7.4561923793
 30
0.0
 10
11.1022840786
 20
7.4645980516
 30
0.0
 10
11.1013585196
 20
7.4771961826
 30
0.0
 10
11.0998189916
 20
7.4897765823
 30
0.0
 10
11.0976694244
 20
7.5023083569
 30
0.0
 10
11.0949148783
 20
7.5147615975
 30
0.0
 10
11.0915620702
 20
7.5271062396
 30
0.0
 10
11.0876191056
 20
7.5393125887
 30
0.0
 10
11.0830954831
 20
7.5513512547
 30
0.0
 10
11.0780020765
 20
7.5631932687
 30
0.0
 10
11.0723512444
 20
7.5748100625
 30
0.0
 10
11.0661563977
 20
7.5861739623
 30
0.0
 10
11.057187892
 20
7.6009578674
 30
0.0
 10
11.0446940679
 20
7.6186671329
 30
0.0
 10
11.0278075397
 20
7.6384677797
 30
0.0
 10
11.0091776713
 20
7.6566458371
 30
0.0
 10
10.9923365267
 20
7.6703058149
 30
0.0
 10
10.9781760705
 20
7.6802553156
 30
0.0
 10
10.967241806
 20
7.6872083749
 30
0.0
 10
10.9560169346
 20
7.6936375728
 30
0.0
 10
10.9445281999
 20
7.6995276453
 30
0.0
 10
10.9328033134
 20
7.7048643125
 30
0.0
 10
10.9208704889
 20
7.7096347509
 30
0.0
 10
10.9087584553
 20
7.7138274619
 30
0.0
 10
10.8964963628
 20
7.7174323238
 30
0.0
 10
10.8841137244
 20
7.7204406075
 30
0.0
 10
10.8716403595
 20
7.722845071
 30
0.0
 10
10.8591063011
 20
7.7246399074
 30
0.0
 10
10.8465417293
 20
7.7258207578
 30
0.0
 10
10.8339769031
 20
7.7263847214
 30
0.0
 10
10.82144209
 20
7.7263304371
 30
0.0
 10
10.8089674848
 20
7.7256580142
 30
0.0
 10
10.7965831431
 20
7.7243690324
 30
0.0
 10
10.7843189133
 20
7.7224665386
 30
0.0
 10
10.7722043519
 20
7.7199551145
 30
0.0
 10
10.7602686584
 20
7.7168407918
 30
0.0
 10
10.7485406103
 20
7.7131310392
 30
0.0
 10
10.7370484985
 20
7.7088347465
 30
0.0
 10
10.72582003
 20
7.7039622739
 30
0.0
 10
10.7148822821
 20
7.6985253559
 30
0.0
 10
10.7042616421
 20
7.6925370745
 30
0.0
 10
10.6939837468
 20
7.6860118313
 30
0.0
 10
10.6840733782
 20
7.6789653758
 30
0.0
 10
10.6745544384
 20
7.6714147009
 30
0.0
 10
10.665449896
 20
7.6633780042
 30
0.0
 10
10.6567817342
 20
7.6548746479
 30
0.0
 10
10.6485708419
 20
7.6459251646
 30
0.0
 10
10.6408370123
 20
7.6365511491
 30
0.0
 10
10.6335988989
 20
7.6267752088
 30
0.0
 10
10.6268739727
 20
7.6166209138
 30
0.0
 10
10.6206784163
 20
7.6061127791
 30
0.0
 10
10.6150271451
 20
7.5952761585
 30
0.0
 10
10.6099337741
 20
7.5841371865
 30
0.0
 10
10.6054105861
 20
7.5727227193
 30
0.0
 10
10.6014684406
 20
7.5610602984
 30
0.0
 10
10.5981167944
 20
7.5491780482
 30
0.0
 10
10.5953637097
 20
7.5371045937
 30
0.0
 10
10.5932158522
 20
7.5248691197
 30
0.0
 10
10.5916782229
 20
7.5125008551
 30
0.0
 10
10.5907546939
 20
7.5000301974
 30
0.0
 10
10.590550074
 20
7.4916813376
 30
0.0
 10
10.590550074
 20
7.4875006626
 30
0.0
  0
SPLINE
  5
39D
100
AcDbEntity
  8
0
100
AcDbSpline
 62
7
  6
CONTINUOUS
 70
0
 71
3
 72
20
 73
16
 74
0
 42
0.0000001
 43
0.0000001
 44
0.0000000001
 40
0.0
 40
0.0
 40
0.0
 40
0.0
 40
0.1504572429
 40
0.2222009552
 40
0.2917179917
 40
0.4244350495
 40
0.4878976342
 40
0.5495926289
 40
0.6682362658
 40
0.7255681682
 40
0.781805938
 40
0.8371511931
 40
0.8918166409
 40
0.9460237365
 40
1.0
 40
1.0
 40
1.0
 40
1.0
 10
12.4488888253
 20
8.059402601
 30
0.0
 10
12.4472067099
 20
8.0577778022
 30
0.0
 10
12.4446454278
 20
8.0554551739
 30
0.0
 10
12.4411195152
 20
8.0526024636
 30
0.0
 10
12.437704978
 20
8.0500561085
 30
0.0
 10
12.4342422552
 20
8.0477933413
 30
0.0
 10
12.4307360313
 20
8.0458476623
 30
0.0
 10
12.4273331893
 20
8.0441772029
 30
0.0
 10
12.4238905138
 20
8.0428117795
 30
0.0
 10
12.4204284729
 20
8.041784266
 30
0.0
 10
12.4178687343
 20
8.0411919914
 30
0.0
 10
12.4153175116
 20
8.0407698614
 30
0.0
 10
12.412775488
 20
8.0405180348
 30
0.0
 10
12.4102436853
 20
8.0404366288
 30
0.0
 10
12.4085616273
 20
8.040496113
 30
0.0
 10
12.4077246356
 20
8.0405541548
 30
0.0
  0
SPLINE
  5
39E
100
AcDbEntity
  8
0
100
AcDbSpline
 62
7
  6
CONTINUOUS
 70
0
 71
3
 72
90
 73
86
 74
0
 42
0.0000001
 43
0.0000001
 44
0.0000000001
 40
0.0
 40
0.0
 40
0.0
 40
0.0
 40
0.0027164161
 40
0.0054532042
 40
0.0082302557
 40
0.0110665249
 40
0.0139797103
 40
0.0169859906
 40
0.0200999233
 40
0.0233344115
 40
0.0267007267
 40
0.03020865
 40
0.0338665219
 40
0.037681453
 40
0.0416593866
 40
0.0458052705
 40
0.0501231624
 40
0.0546163044
 40
0.05928728
 40
0.0641380041
 40
0.0691698883
 40
0.074383819
 40
0.0797802599
 40
0.0853592863
 40
0.0911205905
 40
0.0970635843
 40
0.1094902289
 40
0.1226293717
 40
0.1364669317
 40
0.1509856416
 40
0.1661654371
 40
0.1819837774
 40
0.1984159058
 40
0.215435067
 40
0.2330126943
 40
0.2511185732
 40
0.2697209872
 40
0.2887868504
 40
0.3082818346
 40
0.3281704884
 40
0.3484163492
 40
0.3689820511
 40
0.3898294297
 40
0.410919625
 40
0.4322131812
 40
0.4536701493
 40
0.4752501863
 40
0.4969126541
 40
0.5186167167
 40
0.5403214385
 40
0.5619858817
 40
0.583569205
 40
0.605030762
 40
0.6263301992
 40
0.6474275545
 40
0.6682833559
 40
0.6888587212
 40
0.70911546
 40
0.7290161786
 40
0.7485243844
 40
0.7676045932
 40
0.7862224409
 40
0.8043448006
 40
0.8219399072
 40
0.8389774919
 40
0.8554289325
 40
0.8712674145
 40
0.8864681158
 40
0.9010084229
 40
0.9148681885
 40
0.9280300453
 40
0.9343448951
 40
0.9404802507
 40
0.9464348979
 40
0.9522079219
 40
0.9577986875
 40
0.9632068744
 40
0.9684325511
 40
0.9734761281
 40
0.9783384812
 40
0.9830209275
 40
0.9875254311
 40
0.9918546016
 40
0.9960115654
 40
1.0
 40
1.0
 40
1.0
 40
1.0
 10
12.4900530149
 20
9.2277028486
 30
0.0
 10
12.4911635099
 20
9.2276258406
 30
0.0
 10
12.4933871412
 20
9.2273707364
 30
0.0
 10
12.4966942906
 20
9.2266881107
 30
0.0
 10
12.4999764284
 20
9.2257055298
 30
0.0
 10
12.5032312558
 20
9.2244240633
 30
0.0
 10
12.5064570473
 20
9.2228447437
 30
0.0
 10
12.5096521833
 20
9.2209688811
 30
0.0
 10
12.5128151791
 20
9.218797781
 30
0.0
 10
12.5159446129
 20
9.2163328078
 30
0.0
 10
12.5190391759
 20
9.213575444
 30
0.0
 10
12.5220974707
 20
9.2105271361
 30
0.0
 10
12.5251182315
 20
9.2071895354
 30
0.0
 10
12.5281000575
 20
9.2035642857
 30
0.0
 10
12.5310416377
 20
9.1996532245
 30
0.0
 10
12.5339416026
 20
9.1954582742
 30
0.0
 10
12.5367985721
 20
9.1909814931
 30
0.0
 10
12.5396112282
 20
9.1862251038
 30
0.0
 10
12.5423781542
 20
9.1811914235
 30
0.0
 10
12.5450980658
 20
9.1758829628
 30
0.0
 10
12.5477695734
 20
9.1703023273
 30
0.0
 10
12.5503913918
 20
9.1644522967
 30
0.0
 10
12.5529622113
 20
9.1583357721
 30
0.0
 10
12.5554807282
 20
9.1519557974
 30
0.0
 10
12.5579457477
 20
9.14531555
 30
0.0
 10
12.5612079528
 20
9.1359799613
 30
0.0
 10
12.5651309431
 20
9.1236753859
 30
0.0
 10
12.569538749
 20
9.1081390485
 30
0.0
 10
12.5737052072
 20
9.0916507149
 30
0.0
 10
12.5776218719
 20
9.0742433863
 30
0.0
 10
12.5812807852
 20
9.0559517446
 30
0.0
 10
12.5846745062
 20
9.036812385
 30
0.0
 10
12.5877961285
 20
9.0168636329
 30
0.0
 10
12.5906392985
 20
8.9961454828
 30
0.0
 10
12.593198228
 20
8.9746995017
 30
0.0
 10
12.5954677074
 20
8.9525687429
 30
0.0
 10
12.5974431145
 20
8.9297976552
 30
0.0
 10
12.5991204286
 20
8.9064319905
 30
0.0
 10
12.6004962336
 20
8.8825187081
 30
0.0
 10
12.6015677252
 20
8.8581058768
 30
0.0
 10
12.6023327153
 20
8.833242576
 30
0.0
 10
12.6027896367
 20
8.8079787959
 30
0.0
 10
12.6029375454
 20
8.7823653371
 30
0.0
 10
12.6027761221
 20
8.7564537076
 30
0.0
 10
12.6023056761
 20
8.7302960186
 30
0.0
 10
12.6015271416
 20
8.7039448785
 30
0.0
 10
12.6004420747
 20
8.6774532857
 30
0.0
 10
12.5990526508
 20
8.6508745219
 30
0.0
 10
12.5973616597
 20
8.6242620446
 30
0.0
 10
12.5953725003
 20
8.5976693799
 30
0.0
 10
12.5930891732
 20
8.5711500142
 30
0.0
 10
12.5905162763
 20
8.5447572857
 30
0.0
 10
12.5876589923
 20
8.5185442763
 30
0.0
 10
12.5845230782
 20
8.4925637047
 30
0.0
 10
12.5811148538
 20
8.4668678202
 30
0.0
 10
12.5774411892
 20
8.4415082975
 30
0.0
 10
12.5735094914
 20
8.4165361325
 30
0.0
 10
12.5693276888
 20
8.3920015377
 30
0.0
 10
12.5649042191
 20
8.3679538397
 30
0.0
 10
12.5602480097
 20
8.3444413783
 30
0.0
 10
12.5553684593
 20
8.3215114094
 30
0.0
 10
12.5502754197
 20
8.299210009
 30
0.0
 10
12.5449791761
 20
8.2775819782
 30
0.0
 10
12.5394904266
 20
8.2566707505
 30
0.0
 10
12.5338202597
 20
8.2365182994
 30
0.0
 10
12.5279801355
 20
8.2171650485
 30
0.0
 10
12.5219818577
 20
8.1986497792
 30
0.0
 10
12.5158375483
 20
8.1810095687
 30
0.0
 10
12.509559617
 20
8.1642796289
 30
0.0
 10
12.5031607382
 20
8.1484934905
 30
0.0
 10
12.4976651371
 20
8.1359840913
 30
0.0
 10
12.4932100055
 20
8.1264805154
 30
0.0
 10
12.4898926244
 20
8.1197066848
 30
0.0
 10
12.4865546832
 20
8.1131914591
 30
0.0
 10
12.4831978514
 20
8.1069380823
 30
0.0
 10
12.4798238178
 20
8.1009496755
 30
0.0
 10
12.4764342406
 20
8.0952292316
 30
0.0
 10
12.4730308482
 20
8.0897795773
 30
0.0
 10
12.4696152773
 20
8.0846034503
 30
0.0
 10
12.4661892878
 20
8.0797034008
 30
0.0
 10
12.4627545216
 20
8.0750818666
 30
0.0
 10
12.4593126473
 20
8.070741095
 30
0.0
 10
12.4558652747
 20
8.066683191
 30
0.0
 10
12.4524142284
 20
8.0629103568
 30
0.0
 10
12.4500643915
 20
8.0605381109
 30
0.0
 10
12.4488888253
 20
8.059402601
 30
0.0
  0
SPLINE
  5
39F
100
AcDbEntity
  8
0
100
AcDbSpline
 62
7
  6
CONTINUOUS
 70
0
 71
3
 72
18
 73
14
 74
0
 42
0.0000001
 43
0.0000001
 44
0.0000000001
 40
0.0
 40
0.0
 40
0.0
 40
0.0
 40
0.1504683897
 40
0.2917144302
 40
0.4244424337
 40
0.4879098403
 40
0.5496094316
 40
0.6682625858
 40
0.7817882724
 40
0.8371379912
 40
0.8918078094
 40
0.9460192717
 40
1.0
 40
1.0
 40
1.0
 40
1.0
 10
12.4488888253
 20
9.7188632339
 30
0.0
 10
12.4476448963
 20
9.7176616907
 30
0.0
 10
12.4451587326
 20
9.7154072488
 30
0.0
 10
12.4413091676
 20
9.7124029372
 30
0.0
 10
12.43805756
 20
9.7102781284
 30
0.0
 10
12.4354646853
 20
9.7088392771
 30
0.0
 10
12.432948092
 20
9.7076039748
 30
0.0
 10
12.4298015522
 20
9.7063557482
 30
0.0
 10
12.4265990413
 20
9.7055039556
 30
0.0
 10
12.4240625582
 20
9.7050843508
 30
0.0
 10
12.4221826723
 20
9.7048981328
 30
0.0
 10
12.4203103923
 20
9.704837993
 30
0.0
 10
12.4190664953
 20
9.7048819981
 30
0.0
 10
12.4184475327
 20
9.7049249266
 30
0.0
  0
SPLINE
  5
3A0
100
AcDbEntity
  8
0
100
AcDbSpline
 62
7
  6
CONTINUOUS
 70
0
 71
3
 72
73
 73
69
 74
0
 42
0.0000001
 43
0.0000001
 44
0.0000000001
 40
0.0
 40
0.0
 40
0.0
 40
0.0
 40
0.0038570788
 40
0.0078691344
 40
0.0120394141
 40
0.0163706536
 40
0.0208651904
 40
0.0255249084
 40
0.0303511275
 40
0.0353447045
 40
0.0458350677
 40
0.056996931
 40
0.0688260051
 40
0.0813142232
 40
0.0944503063
 40
0.1082201599
 40
0.1226072512
 40
0.1375928889
 40
0.1531564302
 40
0.1692754508
 40
0.1859259374
 40
0.20308243
 40
0.2207181302
 40
0.2388050029
 40
0.2573139064
 40
0.2762146899
 40
0.2954762706
 40
0.3150667176
 40
0.3551021585
 40
0.3960528288
 40
0.4376416543
 40
0.4795859934
 40
0.5216001135
 40
0.5633976775
 40
0.6046942309
 40
0.6452096679
 40
0.665089106
 40
0.6846714969
 40
0.7039241829
 40
0.7228152695
 40
0.7413136954
 40
0.7593893175
 40
0.7770130232
 40
0.7941568285
 40
0.8107939629
 40
0.826898981
 40
0.8424479138
 40
0.857418405
 40
0.8717898508
 40
0.8855435883
 40
0.8986631533
 40
0.9111345455
 40
0.9229465481
 40
0.9340911649
 40
0.944564215
 40
0.9495491695
 40
0.9543667837
 40
0.9590179928
 40
0.9635041315
 40
0.9678269799
 40
0.971988899
 40
0.9759927914
 40
0.9798422411
 40
0.9835416024
 40
0.9870960205
 40
0.9905116239
 40
0.9937955688
 40
1.0
 40
1.0
 40
1.0
 40
1.0
 10
12.4179791963
 20
9.721006824
 30
0.0
 10
12.4188047998
 20
9.7218042957
 30
0.0
 10
12.4204552057
 20
9.7234667627
 30
0.0
 10
12.4228816257
 20
9.7261040058
 30
0.0
 10
12.4253057581
 20
9.7289319515
 30
0.0
 10
12.4277263696
 20
9.7319492109
 30
0.0
 10
12.4301424574
 20
9.7351544139
 30
0.0
 10
12.4325529425
 20
9.7385461771
 30
0.0
 10
12.4349568136
 20
9.7421229901
 30
0.0
 10
12.4382051953
 20
9.7472207595
 30
0.0
 10
12.4422334075
 20
9.7540542994
 30
0.0
 10
12.4469473214
 20
9.7628352041
 30
0.0
 10
12.4516091687
 20
9.7723110759
 30
0.0
 10
12.4562105034
 20
9.7824648689
 30
0.0
 10
12.460742992
 20
9.7932784699
 30
0.0
 10
12.4651983983
 20
9.8047324251
 30
0.0
 10
12.469568605
 20
9.8168060945
 30
0.0
 10
12.4738456348
 20
9.8294776767
 30
0.0
 10
12.4780216744
 20
9.8427242538
 30
0.0
 10
12.4820891082
 20
9.8565218299
 30
0.0
 10
12.4860405104
 20
9.8708453928
 30
0.0
 10
12.4898686626
 20
9.8856689668
 30
0.0
 10
12.493566572
 20
9.9009656525
 30
0.0
 10
12.497127498
 20
9.9167076747
 30
0.0
 10
12.5005449457
 20
9.9328664454
 30
0.0
 10
12.5038126694
 20
9.9494126111
 30
0.0
 10
12.5069247324
 20
9.9663161343
 30
0.0
 10
12.5108875045
 20
9.9894565501
 30
0.0
 10
12.5154021822
 20
10.019048583
 30
0.0
 10
12.5200789993
 20
10.0552285935
 30
0.0
 10
12.5240190449
 20
10.0920676014
 30
0.0
 10
12.5271935489
 20
10.1292979917
 30
0.0
 10
12.5295794044
 20
10.1666494616
 30
0.0
 10
12.5311592999
 20
10.203850814
 30
0.0
 10
12.5319218594
 20
10.2406317748
 30
0.0
 10
12.5318716151
 20
10.2708978436
 30
0.0
 10
12.5314108208
 20
10.2946949544
 30
0.0
 10
12.5308614576
 20
10.3121601083
 30
0.0
 10
12.5301072463
 20
10.3293232066
 30
0.0
 10
12.5291495621
 20
10.3461530888
 30
0.0
 10
12.5279901733
 20
10.3626191687
 30
0.0
 10
12.5266312031
 20
10.3786915317
 30
0.0
 10
12.5250751514
 20
10.3943409857
 30
0.0
 10
12.5233248847
 20
10.4095391188
 30
0.0
 10
12.5213836199
 20
10.4242583441
 30
0.0
 10
12.5192549157
 20
10.4384719532
 30
0.0
 10
12.5169426868
 20
10.4521541756
 30
0.0
 10
12.5144511884
 20
10.4652802292
 30
0.0
 10
12.5117849976
 20
10.4778263608
 30
0.0
 10
12.5089489988
 20
10.4897698946
 30
0.0
 10
12.5059483952
 20
10.5010893014
 30
0.0
 10
12.5027886842
 20
10.5117642197
 30
0.0
 10
12.4994756172
 20
10.5217755881
 30
0.0
 10
12.4960151996
 20
10.5311053772
 30
0.0
 10
12.4929657209
 20
10.5384143396
 30
0.0
 10
12.4904497513
 20
10.5438993192
 30
0.0
 10
12.4885609354
 20
10.5477643715
 30
0.0
 10
12.4866400607
 20
10.5514469837
 30
0.0
 10
12.4846879605
 20
10.554945519
 30
0.0
 10
12.4827054645
 20
10.5582583933
 30
0.0
 10
12.4806934853
 20
10.5613841525
 30
0.0
 10
12.4786528629
 20
10.5643213916
 30
0.0
 10
12.4765844683
 20
10.567068788
 30
0.0
 10
12.4744891883
 20
10.5696251586
 30
0.0
 10
12.47236792
 20
10.571989251
 30
0.0
 10
12.4702212797
 20
10.5741602329
 30
0.0
 10
12.4673811702
 20
10.5767463215
 30
0.0
 10
12.465134851
 20
10.5784724704
 30
0.0
 10
12.4635978566
 20
10.5794956731
 30
0.0
  0
SPLINE
  5
3A1
100
AcDbEntity
  8
0
100
AcDbSpline
 62
4
  6
CONTINUOUS
 70
0
 71
3
 72
403
 73
399
 74
0
 42
0.0000001
 43
0.0000001
 44
0.0000000001
 40
0.0
 40
0.0
 40
0.0
 40
0.0
 40
0.015625
 40
0.0234375
 40
0.03125
 40
0.0390625
 40
0.04296875
 40
0.046875
 40
0.05078125
 40
0.0546875
 40
0.056640625
 40
0.05859375
 40
0.0595703125
 40
0.060546875
 40
0.0615234375
 40
0.0620117188
 40
0.0622558594
 40
0.0625
 40
0.0627441406
 40
0.0629882812
 40
0.0634765625
 40
0.064453125
 40
0.0654296875
 40
0.06640625
 40
0.068359375
 40
0.0703125
 40
0.07421875
 40
0.078125
 40
0.08203125
 40
0.0859375
 40
0.09375
 40
0.1015625
 40
0.10546875
 40
0.109375
 40
0.11328125
 40
0.1171875
 40
0.119140625
 40
0.12109375
 40
0.1220703125
 40
0.123046875
 40
0.1240234375
 40
0.1245117188
 40
0.1247558594
 40
0.125
 40
0.1252441406
 40
0.1254882812
 40
0.1259765625
 40
0.126953125
 40
0.1279296875
 40
0.12890625
 40
0.130859375
 40
0.1328125
 40
0.13671875
 40
0.140625
 40
0.14453125
 40
0.1484375
 40
0.15625
 40
0.1640625
 40
0.16796875
 40
0.171875
 40
0.17578125
 40
0.1796875
 40
0.181640625
 40
0.18359375
 40
0.1845703125
 40
0.185546875
 40
0.1865234375
 40
0.1870117188
 40
0.1872558594
 40
0.1875
 40
0.1877441406
 40
0.1879882812
 40
0.1884765625
 40
0.189453125
 40
0.1904296875
 40
0.19140625
 40
0.193359375
 40
0.1953125
 40
0.19921875
 40
0.203125
 40
0.20703125
 40
0.2109375
 40
0.21875
 40
0.2265625
 40
0.23046875
 40
0.234375
 40
0.23828125
 40
0.2421875
 40
0.244140625
 40
0.24609375
 40
0.2470703125
 40
0.248046875
 40
0.2490234375
 40
0.2495117188
 40
0.2497558594
 40
0.25
 40
0.2502441406
 40
0.2504882812
 40
0.2509765625
 40
0.251953125
 40
0.2529296875
 40
0.25390625
 40
0.255859375
 40
0.2578125
 40
0.26171875
 40
0.265625
 40
0.26953125
 40
0.2734375
 40
0.28125
 40
0.2890625
 40
0.29296875
 40
0.296875
 40
0.30078125
 40
0.3046875
 40
0.306640625
 40
0.30859375
 40
0.3095703125
 40
0.310546875
 40
0.3115234375
 40
0.3120117188
 40
0.3122558594
 40
0.3125
 40
0.3127441406
 40
0.3129882812
 40
0.3134765625
 40
0.314453125
 40
0.3154296875
 40
0.31640625
 40
0.318359375
 40
0.3203125
 40
0.32421875
 40
0.328125
 40
0.33203125
 40
0.3359375
 40
0.34375
 40
0.3515625
 40
0.35546875
 40
0.359375
 40
0.36328125
 40
0.3671875
 40
0.369140625
 40
0.37109375
 40
0.3720703125
 40
0.373046875
 40
0.3740234375
 40
0.3745117188
 40
0.3747558594
 40
0.375
 40
0.3752441406
 40
0.3754882812
 40
0.3759765625
 40
0.376953125
 40
0.3779296875
 40
0.37890625
 40
0.380859375
 40
0.3828125
 40
0.38671875
 40
0.390625
 40
0.39453125
 40
0.3984375
 40
0.40625
 40
0.4140625
 40
0.41796875
 40
0.421875
 40
0.42578125
 40
0.4296875
 40
0.431640625
 40
0.43359375
 40
0.4345703125
 40
0.435546875
 40
0.4365234375
 40
0.4370117188
 40
0.4372558594
 40
0.4375
 40
0.4377441406
 40
0.4379882812
 40
0.4384765625
 40
0.439453125
 40
0.4404296875
 40
0.44140625
 40
0.443359375
 40
0.4453125
 40
0.44921875
 40
0.453125
 40
0.45703125
 40
0.4609375
 40
0.46875
 40
0.4765625
 40
0.48046875
 40
0.484375
 40
0.48828125
 40
0.4921875
 40
0.494140625
 40
0.49609375
 40
0.4970703125
 40
0.498046875
 40
0.4990234375
 40
0.4995117188
 40
0.4997558594
 40
0.5
 40
0.5002441406
 40
0.5004882812
 40
0.5009765625
 40
0.501953125
 40
0.5029296875
 40
0.50390625
 40
0.505859375
 40
0.5078125
 40
0.51171875
 40
0.515625
 40
0.51953125
 40
0.5234375
 40
0.53125
 40
0.5390625
 40
0.54296875
 40
0.546875
 40
0.55078125
 40
0.5546875
 40
0.556640625
 40
0.55859375
 40
0.5595703125
 40
0.560546875
 40
0.5615234375
 40
0.5620117188
 40
0.5622558594
 40
0.5625
 40
0.5627441406
 40
0.5629882812
 40
0.5634765625
 40
0.564453125
 40
0.5654296875
 40
0.56640625
 40
0.568359375
 40
0.5703125
 40
0.57421875
 40
0.578125
 40
0.58203125
 40
0.5859375
 40
0.59375
 40
0.6015625
 40
0.60546875
 40
0.609375
 40
0.61328125
 40
0.6171875
 40
0.619140625
 40
0.62109375
 40
0.6220703125
 40
0.623046875
 40
0.6240234375
 40
0.6245117188
 40
0.6247558594
 40
0.625
 40
0.6252441406
 40
0.6254882812
 40
0.6259765625
 40
0.626953125
 40
0.6279296875
 40
0.62890625
 40
0.630859375
 40
0.6328125
 40
0.63671875
 40
0.640625
 40
0.64453125
 40
0.6484375
 40
0.65625
 40
0.6640625
 40
0.66796875
 40
0.671875
 40
0.67578125
 40
0.6796875
 40
0.681640625
 40
0.68359375
 40
0.6845703125
 40
0.685546875
 40
0.6865234375
 40
0.6870117188
 40
0.6872558594
 40
0.6875
 40
0.6877441406
 40
0.6879882812
 40
0.6884765625
 40
0.689453125
 40
0.6904296875
 40
0.69140625
 40
0.693359375
 40
0.6953125
 40
0.69921875
 40
0.703125
 40
0.70703125
 40
0.7109375
 40
0.71875
 40
0.7265625
 40
0.73046875
 40
0.734375
 40
0.73828125
 40
0.7421875
 40
0.744140625
 40
0.74609375
 40
0.7470703125
 40
0.748046875
 40
0.7490234375
 40
0.7495117188
 40
0.7497558594
 40
0.75
 40
0.7502441406
 40
0.7504882812
 40
0.7509765625
 40
0.751953125
 40
0.7529296875
 40
0.75390625
 40
0.755859375
 40
0.7578125
 40
0.76171875
 40
0.765625
 40
0.76953125
 40
0.7734375
 40
0.78125
 40
0.7890625
 40
0.79296875
 40
0.796875
 40
0.80078125
 40
0.8046875
 40
0.806640625
 40
0.80859375
 40
0.8095703125
 40
0.810546875
 40
0.8115234375
 40
0.8120117188
 40
0.8122558594
 40
0.8125
 40
0.8127441406
 40
0.8129882812
 40
0.8134765625
 40
0.814453125
 40
0.8154296875
 40
0.81640625
 40
0.818359375
 40
0.8203125
 40
0.82421875
 40
0.828125
 40
0.83203125
 40
0.8359375
 40
0.84375
 40
0.8515625
 40
0.85546875
 40
0.859375
 40
0.86328125
 40
0.8671875
 40
0.869140625
 40
0.87109375
 40
0.8720703125
 40
0.873046875
 40
0.8740234375
 40
0.8745117188
 40
0.8747558594
 40
0.875
 40
0.8752441406
 40
0.8754882812
 40
0.8759765625
 40
0.876953125
 40
0.8779296875
 40
0.87890625
 40
0.880859375
 40
0.8828125
 40
0.88671875
 40
0.890625
 40
0.89453125
 40
0.8984375
 40
0.90625
 40
0.9140625
 40
0.91796875
 40
0.921875
 40
0.92578125
 40
0.9296875
 40
0.931640625
 40
0.93359375
 40
0.9345703125
 40
0.935546875
 40
0.9365234375
 40
0.9370117188
 40
0.9372558594
 40
0.9375
 40
0.9377441406
 40
0.9379882812
 40
0.9384765625
 40
0.939453125
 40
0.9404296875
 40
0.94140625
 40
0.943359375
 40
0.9453125
 40
0.94921875
 40
0.953125
 40
0.95703125
 40
0.9609375
 40
0.96875
 40
0.9765625
 40
0.984375
 40
1.0
 40
1.0
 40
1.0
 40
1.0
 10
10.4128444807
 20
8.8373645187
 30
0.0
 10
10.4159776676
 20
8.8374544431
 30
0.0
 10
10.420677448
 20
8.8375893297
 30
0.0
 10
10.4269438218
 20
8.8377691785
 30
0.0
 10
10.4316436022
 20
8.8379040652
 30
0.0
 10
10.4355600859
 20
8.8380164706
 30
0.0
 10
10.4386932727
 20
8.8381063953
 30
0.0
 10
10.4410431631
 20
8.8381738376
 30
0.0
 10
10.4433930526
 20
8.8382412847
 30
0.0
 10
10.4453512967
 20
8.8382974758
 30
0.0
 10
10.4469178855
 20
8.8383424617
 30
0.0
 10
10.4478970182
 20
8.8383705028
 30
0.0
 10
10.4486802908
 20
8.8383931076
 30
0.0
 10
10.4492678372
 20
8.8384095904
 30
0.0
 10
10.4497571666
 20
8.838424824
 30
0.0
 10
10.4501002713
 20
8.8384325478
 30
0.0
 10
10.4502954347
 20
8.8384415515
 30
0.0
 10
10.4504443327
 20
8.838435374
 30
0.0
 10
10.4505835768
 20
8.8384786224
 30
0.0
 10
10.4507726029
 20
8.8385190467
 30
0.0
 10
10.4511018298
 20
8.8385978217
 30
0.0
 10
10.451572974
 20
8.838706158
 30
0.0
 10
10.4521379961
 20
8.8388379591
 30
0.0
 10
10.4528914815
 20
8.8390130659
 30
0.0
 10
10.4538332962
 20
8.8392321645
 30
0.0
 10
10.4553402232
 20
8.8395826021
 30
0.0
 10
10.457223874
 20
8.8400206903
 30
0.0
 10
10.4594842583
 20
8.8405463785
 30
0.0
 10
10.4617446417
 20
8.8410720714
 30
0.0
 10
10.4647584866
 20
8.8417729936
 30
0.0
 10
10.4685257925
 20
8.842649147
 30
0.0
 10
10.4722930986
 20
8.8435253
 30
0.0
 10
10.4753069433
 20
8.8442262228
 30
0.0
 10
10.4775673273
 20
8.8447519138
 30
0.0
 10
10.4798277094
 20
8.8452776093
 30
0.0
 10
10.4817113669
 20
8.8457156748
 30
0.0
 10
10.4832182802
 20
8.8460661587
 30
0.0
 10
10.4841601298
 20
8.8462851393
 30
0.0
 10
10.4849135436
 20
8.8464604883
 30
0.0
 10
10.4854787844
 20
8.8465915497
 30
0.0
 10
10.4859492443
 20
8.8467022001
 30
0.0
 10
10.4862796928
 20
8.8467768441
 30
0.0
 10
10.4864667616
 20
8.8468238873
 30
0.0
 10
10.4866120181
 20
8.8468468045
 30
0.0
 10
10.4867383343
 20
8.8469169879
 30
0.0
 10
10.4869133624
 20
8.8469940788
 30
0.0
 10
10.4872165836
 20
8.8471366694
 30
0.0
 10
10.487651366
 20
8.8473363542
 30
0.0
 10
10.4881724161
 20
8.8475776951
 30
0.0
 10
10.48886739
 20
8.8478988824
 30
0.0
 10
10.4897360252
 20
8.8483005722
 30
0.0
 10
10.4911258874
 20
8.8489431609
 30
0.0
 10
10.4928631993
 20
8.8497464362
 30
0.0
 10
10.4949479805
 20
8.8507103497
 30
0.0
 10
10.4970327598
 20
8.8516742677
 30
0.0
 10
10.4998124662
 20
8.8529594902
 30
0.0
 10
10.503287099
 20
8.8545660188
 30
0.0
 10
10.5067617319
 20
8.8561725471
 30
0.0
 10
10.509541438
 20
8.8574577701
 30
0.0
 10
10.5116262182
 20
8.8584216863
 30
0.0
 10
10.5137109961
 20
8.8593856068
 30
0.0
 10
10.5154483182
 20
8.8601888602
 30
0.0
 10
10.5168381597
 20
8.8608314938
 30
0.0
 10
10.5177068475
 20
8.8612330694
 30
0.0
 10
10.5184017133
 20
8.861554491
 30
0.0
 10
10.5189230939
 20
8.8617951161
 30
0.0
 10
10.519356842
 20
8.8619970402
 30
0.0
 10
10.5196619096
 20
8.8621356335
 30
0.0
 10
10.5198339793
 20
8.8622191291
 30
0.0
 10
10.5199693831
 20
8.862269639
 30
0.0
 10
10.5200805081
 20
8.8623664466
 30
0.0
 10
10.5202371435
 20
8.8624793741
 30
0.0
 10
10.5205073097
 20
8.8626845216
 30
0.0
 10
10.5208953243
 20
8.8629736556
 30
0.0
 10
10.5213600588
 20
8.8633223002
 30
0.0
 10
10.5219800132
 20
8.8637865716
 30
0.0
 10
10.5227548506
 20
8.8643671122
 30
0.0
 10
10.5239946495
 20
8.8652958646
 30
0.0
 10
10.5255443779
 20
8.8664568437
 30
0.0
 10
10.5274040607
 20
8.8678500021
 30
0.0
 10
10.5292637411
 20
8.8692431649
 30
0.0
 10
10.5317433158
 20
8.8711007138
 30
0.0
 10
10.5348427839
 20
8.8734226504
 30
0.0
 10
10.5379422522
 20
8.8757445867
 30
0.0
 10
10.5404218265
 20
8.8776021361
 30
0.0
 10
10.5422815082
 20
8.8789952973
 30
0.0
 10
10.5441411862
 20
8.8803884618
 30
0.0
 10
10.5456909294
 20
8.8815494218
 30
0.0
 10
10.546930698
 20
8.8824782133
 30
0.0
 10
10.5477056126
 20
8.8830586543
 30
0.0
 10
10.5483254087
 20
8.88352313
 30
0.0
 10
10.5487906268
 20
8.8838711504
 30
0.0
 10
10.5491771285
 20
8.8841622377
 30
0.0
 10
10.5494499954
 20
8.8843638982
 30
0.0
 10
10.5496023036
 20
8.8844824127
 30
0.0
 10
10.5497267204
 20
8.884562059
 30
0.0
 10
10.5498122023
 20
8.8846770235
 30
0.0
 10
10.5499397592
 20
8.8848179902
 30
0.0
 10
10.5501566562
 20
8.8850704216
 30
0.0
 10
10.5504698171
 20
8.8854280371
 30
0.0
 10
10.5508441942
 20
8.8858584602
 30
0.0
 10
10.5513438582
 20
8.886431909
 30
0.0
 10
10.5519682689
 20
8.8871488737
 30
0.0
 10
10.5529674207
 20
8.8882959312
 30
0.0
 10
10.554216328
 20
8.8897297826
 30
0.0
 10
10.5557150306
 20
8.8914503916
 30
0.0
 10
10.5572137296
 20
8.893171004
 30
0.0
 10
10.5592119961
 20
8.8954651527
 30
0.0
 10
10.5617098288
 20
8.898332839
 30
0.0
 10
10.5642076618
 20
8.901200525
 30
0.0
 10
10.5662059277
 20
8.9034946742
 30
0.0
 10
10.5677046283
 20
8.9052152853
 30
0.0
 10
10.5692033249
 20
8.9069358993
 30
0.0
 10
10.570452251
 20
8.9083697352
 30
0.0
 10
10.5714513643
 20
8.9095168243
 30
0.0
 10
10.5720758729
 20
8.9102337086
 30
0.0
 10
10.5725753361
 20
8.9108073222
 30
0.0
 10
10.5729503269
 20
8.9112372417
 30
0.0
 10
10.5732615676
 20
8.9115964328
 30
0.0
 10
10.5734818925
 20
8.9118460517
 30
0.0
 10
10.5736039568
 20
8.9119915248
 30
0.0
 10
10.5737063102
 20
8.9120926469
 30
0.0
 10
10.573767361
 20
8.9122242829
 30
0.0
 10
10.573863169
 20
8.912389154
 30
0.0
 10
10.5740241205
 20
8.9126826375
 30
0.0
 10
10.5742575605
 20
8.913099307
 30
0.0
 10
10.5745361865
 20
8.9136004202
 30
0.0
 10
10.5749082124
 20
8.9142681834
 30
0.0
 10
10.5753730651
 20
8.9151030201
 30
0.0
 10
10.57611693
 20
8.9164386848
 30
0.0
 10
10.5770467265
 20
8.918108291
 30
0.0
 10
10.5781624971
 20
8.9201118076
 30
0.0
 10
10.5792782638
 20
8.9221153271
 30
0.0
 10
10.5807659541
 20
8.9247866854
 30
0.0
 10
10.5826255665
 20
8.9281258837
 30
0.0
 10
10.5844851792
 20
8.9314650817
 30
0.0
 10
10.5859728689
 20
8.9341364404
 30
0.0
 10
10.5870886374
 20
8.9361399588
 30
0.0
 10
10.5882044014
 20
8.9381434794
 30
0.0
 10
10.5891342185
 20
8.9398130732
 30
0.0
 10
10.5898780415
 20
8.9411487632
 30
0.0
 10
10.5903430006
 20
8.9419835355
 30
0.0
 10
10.5907148082
 20
8.942651431
 30
0.0
 10
10.5909941011
 20
8.9431521402
 30
0.0
 10
10.5912254545
 20
8.9435700733
 30
0.0
 10
10.591390131
 20
8.9438613011
 30
0.0
 10
10.5914799705
 20
8.9440297864
 30
0.0
 10
10.5915593544
 20
8.9441503209
 30
0.0
 10
10.591592852
 20
8.9442931383
 30
0.0
 10
10.5916535211
 20
8.9444757891
 30
0.0
 10
10.5917522347
 20
8.9447990491
 30
0.0
 10
10.5918971529
 20
8.945258956
 30
0.0
 10
10.5920693859
 20
8.9458116546
 30
0.0
 10
10.5922996128
 20
8.946548303
 30
0.0
 10
10.5925871969
 20
8.9474692105
 30
0.0
 10
10.593047443
 20
8.9489426083
 30
0.0
 10
10.5936227123
 20
8.9507843741
 30
0.0
 10
10.5943130518
 20
8.952994485
 30
0.0
 10
10.595003387
 20
8.9552045982
 30
0.0
 10
10.5959238354
 20
8.9581514149
 30
0.0
 10
10.5970743954
 20
8.9618349361
 30
0.0
 10
10.5982249558
 20
8.9655184571
 30
0.0
 10
10.5991454036
 20
8.9684652741
 30
0.0
 10
10.5998357407
 20
8.9706753864
 30
0.0
 10
10.6005260731
 20
8.9728855004
 30
0.0
 10
10.6011013646
 20
8.9747272568
 30
0.0
 10
10.6015615653
 20
8.9762006738
 30
0.0
 10
10.6018492648
 20
8.9771215324
 30
0.0
 10
10.6020792549
 20
8.9778582811
 30
0.0
 10
10.6022522115
 20
8.9784106734
 30
0.0
 10
10.6023948657
 20
8.9788715385
 30
0.0
 10
10.6024976209
 20
8.979193088
 30
0.0
 10
10.6025518143
 20
8.9793784796
 30
0.0
 10
10.6026052034
 20
8.9795128778
 30
0.0
 10
10.602609878
 20
8.9796650335
 30
0.0
 10
10.602633103
 20
8.9798617137
 30
0.0
 10
10.6026658298
 20
8.98020879
 30
0.0
 10
10.6027167214
 20
8.9807031045
 30
0.0
 10
10.6027760197
 20
8.9812969277
 30
0.0
 10
10.6028557029
 20
8.9820884664
 30
0.0
 10
10.602955095
 20
8.983077967
 30
0.0
 10
10.6031142408
 20
8.9846611248
 30
0.0
 10
10.6033131325
 20
8.9866400869
 30
0.0
 10
10.6035518198
 20
8.9890148351
 30
0.0
 10
10.6037905026
 20
8.9913895849
 30
0.0
 10
10.6041087478
 20
8.9945559175
 30
0.0
 10
10.6045065538
 20
8.9985138334
 30
0.0
 10
10.6049043602
 20
9.0024717492
 30
0.0
 10
10.6052226047
 20
9.0056380818
 30
0.0
 10
10.6054612895
 20
9.0080128314
 30
0.0
 10
10.6056999693
 20
9.0103875808
 30
0.0
 10
10.6058988843
 20
9.0123665389
 30
0.0
 10
10.6060579825
 20
9.0139497048
 30
0.0
 10
10.6061574958
 20
9.0149391849
 30
0.0
 10
10.6062369303
 20
9.0157307657
 30
0.0
 10
10.6062969883
 20
9.0163244604
 30
0.0
 10
10.6063455032
 20
9.016819177
 30
0.0
 10
10.6063824728
 20
9.0171655355
 30
0.0
 10
10.6063988997
 20
9.0173633657
 30
0.0
 10
10.606424456
 20
9.017511989
 30
0.0
 10
10.6063994169
 20
9.0176596544
 30
0.0
 10
10.6063836796
 20
9.0178568757
 30
0.0
 10
10.6063479167
 20
9.0182018574
 30
0.0
 10
10.6063011257
 20
9.0186947697
 30
0.0
 10
10.6062431365
 20
9.0192862296
 30
0.0
 10
10.6061664603
 20
9.0200748551
 30
0.0
 10
10.606070395
 20
9.0210606327
 30
0.0
 10
10.6059168134
 20
9.0226378792
 30
0.0
 10
10.6057247942
 20
9.0246094366
 30
0.0
 10
10.6054943893
 20
9.0269753057
 30
0.0
 10
10.6052639795
 20
9.0293411748
 30
0.0
 10
10.6049567682
 20
9.0324956669
 30
0.0
 10
10.6045727534
 20
9.0364387821
 30
0.0
 10
10.604188739
 20
9.0403818972
 30
0.0
 10
10.603881527
 20
9.0435363893
 30
0.0
 10
10.6036511193
 20
9.0459022585
 30
0.0
 10
10.6034207068
 20
9.0482681271
 30
0.0
 10
10.603228711
 20
9.0502396862
 30
0.0
 10
10.6030750818
 20
9.0518169292
 30
0.0
 10
10.6029791376
 20
9.0528027157
 30
0.0
 10
10.6029022126
 20
9.053591323
 30
0.0
 10
10.6028449834
 20
9.0541828382
 30
0.0
 10
10.6027958147
 20
9.0546755775
 30
0.0
 10
10.6027642965
 20
9.0550208681
 30
0.0
 10
10.6027417582
 20
9.0552175945
 30
0.0
 10
10.6027376096
 20
9.0553667802
 30
0.0
 10
10.6026847045
 20
9.0555096933
 30
0.0
 10
10.6026311712
 20
9.055702432
 30
0.0
 10
10.6025295642
 20
9.0560387052
 30
0.0
 10
10.602388554
 20
9.0565196286
 30
0.0
 10
10.6022175685
 20
9.0570965086
 30
0.0
 10
10.6019902073
 20
9.0578657615
 30
0.0
 10
10.6017057936
 20
9.0588273004
 30
0.0
 10
10.6012508503
 20
9.0603657778
 30
0.0
 10
10.6006821304
 20
9.0622888694
 30
0.0
 10
10.5999996841
 20
9.0645965816
 30
0.0
 10
10.5993172331
 20
9.0669042931
 30
0.0
 10
10.5984073
 20
9.069981242
 30
0.0
 10
10.597269883
 20
9.0738274281
 30
0.0
 10
10.5961324665
 20
9.0776736143
 30
0.0
 10
10.5952225328
 20
9.0807505631
 30
0.0
 10
10.5945400837
 20
9.0830582751
 30
0.0
 10
10.5938576302
 20
9.0853659856
 30
0.0
 10
10.5932889326
 20
9.0872890823
 30
0.0
 10
10.5928339439
 20
9.0888275492
 30
0.0
 10
10.5925496457
 20
9.089789115
 30
0.0
 10
10.5923220473
 20
9.0905583128
 30
0.0
 10
10.5921517863
 20
9.0911353612
 30
0.0
 10
10.5920085095
 20
9.0916157574
 30
0.0
 10
10.5919109488
 20
9.0919529718
 30
0.0
 10
10.5918509323
 20
9.0921442027
 30
0.0
 10
10.5918179416
 20
9.0922917471
 30
0.0
 10
10.5917389981
 20
9.0924235381
 30
0.0
 10
10.591649769
 20
9.0926047543
 30
0.0
 10
10.5914861499
 20
9.0929193225
 30
0.0
 10
10.5912563128
 20
9.0933700441
 30
0.0
 10
10.590978837
 20
9.0939103372
 30
0.0
 10
10.5906094531
 20
9.0946309281
 30
0.0
 10
10.5901475233
 20
9.0955315981
 30
0.0
 10
10.5894085473
 20
9.0969727085
 30
0.0
 10
10.5884847889
 20
9.0987740833
 30
0.0
 10
10.5873762954
 20
9.1009357387
 30
0.0
 10
10.5862677974
 20
9.1030973926
 30
0.0
 10
10.5847898017
 20
9.1059795984
 30
0.0
 10
10.5829423064
 20
9.1095823554
 30
0.0
 10
10.5810948116
 20
9.1131851125
 30
0.0
 10
10.5796168152
 20
9.116067318
 30
0.0
 10
10.5785083191
 20
9.1182289727
 30
0.0
 10
10.5773998187
 20
9.1203906253
 30
0.0
 10
10.5764760816
 20
9.1221920088
 30
0.0
 10
10.5757370622
 20
9.1236331015
 30
0.0
 10
10.5752752429
 20
9.1245338166
 30
0.0
 10
10.5749056322
 20
9.125254315
 30
0.0
 10
10.5746288492
 20
9.1257948906
 30
0.0
 10
10.5743968446
 20
9.1262447282
 30
0.0
 10
10.5742370948
 20
9.1265608746
 30
0.0
 10
10.5741416661
 20
9.1267395622
 30
0.0
 10
10.5740817659
 20
9.1268791201
 30
0.0
 10
10.5739772518
 20
9.1269974932
 30
0.0
 10
10.5738534615
 20
9.1271627135
 30
0.0
 10
10.573629578
 20
9.127448406
 30
0.0
 10
10.5733135351
 20
9.1278583382
 30
0.0
 10
10.572932661
 20
9.1283494865
 30
0.0
 10
10.5724253957
 20
9.1290046199
 30
0.0
 10
10.5717911199
 20
9.1298234445
 30
0.0
 10
10.5707763872
 20
9.1311336153
 30
0.0
 10
10.569507934
 20
9.1327713112
 30
0.0
 10
10.5679858062
 20
9.1347365539
 30
0.0
 10
10.5664636741
 20
9.1367017946
 30
0.0
 10
10.5644341662
 20
9.1393221161
 30
0.0
 10
10.5618972807
 20
9.1425975178
 30
0.0
 10
10.5593603955
 20
9.1458729197
 30
0.0
 10
10.557330887
 20
9.1484932409
 30
0.0
 10
10.5558087565
 20
9.1504584827
 30
0.0
 10
10.5542866228
 20
9.152423721
 30
0.0
 10
10.5530181879
 20
9.1540614305
 30
0.0
 10
10.5520034181
 20
9.1553715736
 30
0.0
 10
10.5513692366
 20
9.1561904688
 30
0.0
 10
10.5508617778
 20
9.1568454574
 30
0.0
 10
10.5504814945
 20
9.1573370481
 30
0.0
 10
10.5501636032
 20
9.1577455957
 30
0.0
 10
10.5499430193
 20
9.1580337601
 30
0.0
 10
10.5498139422
 20
9.1581950198
 30
0.0
 10
10.5497256676
 20
9.1583255585
 30
0.0
 10
10.5496047749
 20
9.1584194244
 30
0.0
 10
10.5494549621
 20
9.1585573709
 30
0.0
 10
10.5491874888
 20
9.1587928171
 30
0.0
 10
10.5488081555
 20
9.1591322849
 30
0.0
 10
10.5483517693
 20
9.1595383125
 30
0.0
 10
10.5477436687
 20
9.1600801485
 30
0.0
 10
10.546983401
 20
9.1607572839
 30
0.0
 10
10.5457670521
 20
9.1618407898
 30
0.0
 10
10.5442465887
 20
9.1631951416
 30
0.0
 10
10.5424220442
 20
9.1648203768
 30
0.0
 10
10.5405974967
 20
9.1664456085
 30
0.0
 10
10.5381647678
 20
9.1686125854
 30
0.0
 10
10.5351238562
 20
9.171321306
 30
0.0
 10
10.5320829448
 20
9.1740300269
 30
0.0
 10
10.5296502155
 20
9.1761970032
 30
0.0
 10
10.5278256692
 20
9.1778222365
 30
0.0
 10
10.5260011202
 20
9.179447466
 30
0.0
 10
10.524480671
 20
9.1808018356
 30
0.0
 10
10.5232642931
 20
9.181885305
 30
0.0
 10
10.522504099
 20
9.1825625333
 30
0.0
 10
10.5218958475
 20
9.1831041788
 30
0.0
 10
10.5214399223
 20
9.1835107882
 30
0.0
 10
10.5210591466
 20
9.1838484357
 30
0.0
 10
10.5207942481
 20
9.1840871314
 30
0.0
 10
10.5206403098
 20
9.1842198714
 30
0.0
 10
10.5205320895
 20
9.1843297298
 30
0.0
 10
10.5203962196
 20
9.1844002033
 30
0.0
 10
10.5202247041
 20
9.1845079059
 30
0.0
 10
10.5199200586
 20
9.1846899847
 30
0.0
 10
10.5194872
 20
9.1849534435
 30
0.0
 10
10.5189667641
 20
9.1852681618
 30
0.0
 10
10.5182732008
 20
9.1856882865
 30
0.0
 10
10.5174061264
 20
9.1862132711
 30
0.0
 10
10.5160188745
 20
9.1870533421
 30
0.0
 10
10.5142847867
 20
9.1881033981
 30
0.0
 10
10.5122038912
 20
9.1893634793
 30
0.0
 10
10.510122993
 20
9.1906235568
 30
0.0
 10
10.507348463
 20
9.1923036614
 30
0.0
 10
10.5038803002
 20
9.1944037917
 30
0.0
 10
10.5004121375
 20
9.1965039223
 30
0.0
 10
10.4976376072
 20
9.1981840263
 30
0.0
 10
10.49555671
 20
9.1994441055
 30
0.0
 10
10.4934758109
 20
9.2007041804
 30
0.0
 10
10.4917417341
 20
9.2017542561
 30
0.0
 10
10.4903544598
 20
9.2025942869
 30
0.0
 10
10.4894874424
 20
9.2031193738
 30
0.0
 10
10.4887937621
 20
9.2035392884
 30
0.0
 10
10.4882736838
 20
9.2038546488
 30
0.0
 10
10.4878397063
 20
9.2041160986
 30
0.0
 10
10.4875370581
 20
9.2043017639
 30
0.0
 10
10.4873623425
 20
9.20440372
 30
0.0
 10
10.4872363026
 20
9.2044918448
 30
0.0
 10
10.4870911621
 20
9.2045354079
 30
0.0
 10
10.486904304
 20
9.2046090356
 30
0.0
 10
10.4865741981
 20
9.2047306421
 30
0.0
 10
10.4861042411
 20
9.204908152
 30
0.0
 10
10.4855395981
 20
9.2051195431
 30
0.0
 10
10.4847869834
 20
9.205401964
 30
0.0
 10
10.4838461319
 20
9.2057547964
 30
0.0
 10
10.482340816
 20
9.2063194365
 30
0.0
 10
10.4804591551
 20
9.2070251994
 30
0.0
 10
10.478201169
 20
9.2078721308
 30
0.0
 10
10.4759431809
 20
9.208719058
 30
0.0
 10
10.4729325309
 20
9.2098482957
 30
0.0
 10
10.4691692181
 20
9.2112598423
 30
0.0
 10
10.4654059054
 20
9.2126713893
 30
0.0
 10
10.4623952551
 20
9.2138006264
 30
0.0
 10
10.4601372678
 20
9.2146475555
 30
0.0
 10
10.4578792791
 20
9.2154944799
 30
0.0
 10
10.4559976261
 20
9.2162002645
 30
0.0
 10
10.4544922941
 20
9.2167648604
 30
0.0
 10
10.4535514835
 20
9.2171178053
 30
0.0
 10
10.4527987849
 20
9.2173999952
 30
0.0
 10
10.452234398
 20
9.2176120922
 30
0.0
 10
10.4517636398
 20
9.2177873935
 30
0.0
 10
10.4514349642
 20
9.2179129425
 30
0.0
 10
10.4512458143
 20
9.2179802534
 30
0.0
 10
10.4511077136
 20
9.2180432199
 30
0.0
 10
10.4509552336
 20
9.218058469
 30
0.0
 10
10.4507569426
 20
9.2180954455
 30
0.0
 10
10.4504075966
 20
9.2181523996
 30
0.0
 10
10.4499097525
 20
9.2182378168
 30
0.0
 10
10.4493118167
 20
9.2183385821
 30
0.0
 10
10.4485147516
 20
9.2184735419
 30
0.0
 10
10.4475183577
 20
9.2186420342
 30
0.0
 10
10.4459241623
 20
9.2189117378
 30
0.0
 10
10.4439314062
 20
9.2192488276
 30
0.0
 10
10.4415401039
 20
9.2196533523
 30
0.0
 10
10.4391488003
 20
9.2200578725
 30
0.0
 10
10.435960396
 20
9.2205972344
 30
0.0
 10
10.4319748904
 20
9.2212714361
 30
0.0
 10
10.4271922838
 20
9.2220804785
 30
0.0
 10
10.4208154749
 20
9.2231592015
 30
0.0
 10
10.4160328682
 20
9.2239682438
 30
0.0
 10
10.4128444638
 20
9.2245076053
 30
0.0
  0
SPLINE
  5
3A2
100
AcDbEntity
  8
0
100
AcDbSpline
 62
4
  6
CONTINUOUS
 70
0
 71
3
 72
403
 73
399
 74
0
 42
0.0000001
 43
0.0000001
 44
0.0000000001
 40
0.0
 40
0.0
 40
0.0
 40
0.0
 40
0.015625
 40
0.0234375
 40
0.03125
 40
0.0390625
 40
0.04296875
 40
0.046875
 40
0.05078125
 40
0.0546875
 40
0.056640625
 40
0.05859375
 40
0.0595703125
 40
0.060546875
 40
0.0615234375
 40
0.0620117188
 40
0.0622558594
 40
0.0625
 40
0.0627441406
 40
0.0629882812
 40
0.0634765625
 40
0.064453125
 40
0.0654296875
 40
0.06640625
 40
0.068359375
 40
0.0703125
 40
0.07421875
 40
0.078125
 40
0.08203125
 40
0.0859375
 40
0.09375
 40
0.1015625
 40
0.10546875
 40
0.109375
 40
0.11328125
 40
0.1171875
 40
0.119140625
 40
0.12109375
 40
0.1220703125
 40
0.123046875
 40
0.1240234375
 40
0.1245117188
 40
0.1247558594
 40
0.125
 40
0.1252441406
 40
0.1254882812
 40
0.1259765625
 40
0.126953125
 40
0.1279296875
 40
0.12890625
 40
0.130859375
 40
0.1328125
 40
0.13671875
 40
0.140625
 40
0.14453125
 40
0.1484375
 40
0.15625
 40
0.1640625
 40
0.16796875
 40
0.171875
 40
0.17578125
 40
0.1796875
 40
0.181640625
 40
0.18359375
 40
0.1845703125
 40
0.185546875
 40
0.1865234375
 40
0.1870117188
 40
0.1872558594
 40
0.1875
 40
0.1877441406
 40
0.1879882812
 40
0.1884765625
 40
0.189453125
 40
0.1904296875
 40
0.19140625
 40
0.193359375
 40
0.1953125
 40
0.19921875
 40
0.203125
 40
0.20703125
 40
0.2109375
 40
0.21875
 40
0.2265625
 40
0.23046875
 40
0.234375
 40
0.23828125
 40
0.2421875
 40
0.244140625
 40
0.24609375
 40
0.2470703125
 40
0.248046875
 40
0.2490234375
 40
0.2495117188
 40
0.2497558594
 40
0.25
 40
0.2502441406
 40
0.2504882812
 40
0.2509765625
 40
0.251953125
 40
0.2529296875
 40
0.25390625
 40
0.255859375
 40
0.2578125
 40
0.26171875
 40
0.265625
 40
0.26953125
 40
0.2734375
 40
0.28125
 40
0.2890625
 40
0.29296875
 40
0.296875
 40
0.30078125
 40
0.3046875
 40
0.306640625
 40
0.30859375
 40
0.3095703125
 40
0.310546875
 40
0.3115234375
 40
0.3120117188
 40
0.3122558594
 40
0.3125
 40
0.3127441406
 40
0.3129882812
 40
0.3134765625
 40
0.314453125
 40
0.3154296875
 40
0.31640625
 40
0.318359375
 40
0.3203125
 40
0.32421875
 40
0.328125
 40
0.33203125
 40
0.3359375
 40
0.34375
 40
0.3515625
 40
0.35546875
 40
0.359375
 40
0.36328125
 40
0.3671875
 40
0.369140625
 40
0.37109375
 40
0.3720703125
 40
0.373046875
 40
0.3740234375
 40
0.3745117188
 40
0.3747558594
 40
0.375
 40
0.3752441406
 40
0.3754882812
 40
0.3759765625
 40
0.376953125
 40
0.3779296875
 40
0.37890625
 40
0.380859375
 40
0.3828125
 40
0.38671875
 40
0.390625
 40
0.39453125
 40
0.3984375
 40
0.40625
 40
0.4140625
 40
0.41796875
 40
0.421875
 40
0.42578125
 40
0.4296875
 40
0.431640625
 40
0.43359375
 40
0.4345703125
 40
0.435546875
 40
0.4365234375
 40
0.4370117188
 40
0.4372558594
 40
0.4375
 40
0.4377441406
 40
0.4379882812
 40
0.4384765625
 40
0.439453125
 40
0.4404296875
 40
0.44140625
 40
0.443359375
 40
0.4453125
 40
0.44921875
 40
0.453125
 40
0.45703125
 40
0.4609375
 40
0.46875
 40
0.4765625
 40
0.48046875
 40
0.484375
 40
0.48828125
 40
0.4921875
 40
0.494140625
 40
0.49609375
 40
0.4970703125
 40
0.498046875
 40
0.4990234375
 40
0.4995117188
 40
0.4997558594
 40
0.5
 40
0.5002441406
 40
0.5004882812
 40
0.5009765625
 40
0.501953125
 40
0.5029296875
 40
0.50390625
 40
0.505859375
 40
0.5078125
 40
0.51171875
 40
0.515625
 40
0.51953125
 40
0.5234375
 40
0.53125
 40
0.5390625
 40
0.54296875
 40
0.546875
 40
0.55078125
 40
0.5546875
 40
0.556640625
 40
0.55859375
 40
0.5595703125
 40
0.560546875
 40
0.5615234375
 40
0.5620117188
 40
0.5622558594
 40
0.5625
 40
0.5627441406
 40
0.5629882812
 40
0.5634765625
 40
0.564453125
 40
0.5654296875
 40
0.56640625
 40
0.568359375
 40
0.5703125
 40
0.57421875
 40
0.578125
 40
0.58203125
 40
0.5859375
 40
0.59375
 40
0.6015625
 40
0.60546875
 40
0.609375
 40
0.61328125
 40
0.6171875
 40
0.619140625
 40
0.62109375
 40
0.6220703125
 40
0.623046875
 40
0.6240234375
 40
0.6245117188
 40
0.6247558594
 40
0.625
 40
0.6252441406
 40
0.6254882812
 40
0.6259765625
 40
0.626953125
 40
0.6279296875
 40
0.62890625
 40
0.630859375
 40
0.6328125
 40
0.63671875
 40
0.640625
 40
0.64453125
 40
0.6484375
 40
0.65625
 40
0.6640625
 40
0.66796875
 40
0.671875
 40
0.67578125
 40
0.6796875
 40
0.681640625
 40
0.68359375
 40
0.6845703125
 40
0.685546875
 40
0.6865234375
 40
0.6870117188
 40
0.6872558594
 40
0.6875
 40
0.6877441406
 40
0.6879882812
 40
0.6884765625
 40
0.689453125
 40
0.6904296875
 40
0.69140625
 40
0.693359375
 40
0.6953125
 40
0.69921875
 40
0.703125
 40
0.70703125
 40
0.7109375
 40
0.71875
 40
0.7265625
 40
0.73046875
 40
0.734375
 40
0.73828125
 40
0.7421875
 40
0.744140625
 40
0.74609375
 40
0.7470703125
 40
0.748046875
 40
0.7490234375
 40
0.7495117188
 40
0.7497558594
 40
0.75
 40
0.7502441406
 40
0.7504882812
 40
0.7509765625
 40
0.751953125
 40
0.7529296875
 40
0.75390625
 40
0.755859375
 40
0.7578125
 40
0.76171875
 40
0.765625
 40
0.76953125
 40
0.7734375
 40
0.78125
 40
0.7890625
 40
0.79296875
 40
0.796875
 40
0.80078125
 40
0.8046875
 40
0.806640625
 40
0.80859375
 40
0.8095703125
 40
0.810546875
 40
0.8115234375
 40
0.8120117188
 40
0.8122558594
 40
0.8125
 40
0.8127441406
 40
0.8129882812
 40
0.8134765625
 40
0.814453125
 40
0.8154296875
 40
0.81640625
 40
0.818359375
 40
0.8203125
 40
0.82421875
 40
0.828125
 40
0.83203125
 40
0.8359375
 40
0.84375
 40
0.8515625
 40
0.85546875
 40
0.859375
 40
0.86328125
 40
0.8671875
 40
0.869140625
 40
0.87109375
 40
0.8720703125
 40
0.873046875
 40
0.8740234375
 40
0.8745117188
 40
0.8747558594
 40
0.875
 40
0.8752441406
 40
0.8754882812
 40
0.8759765625
 40
0.876953125
 40
0.8779296875
 40
0.87890625
 40
0.880859375
 40
0.8828125
 40
0.88671875
 40
0.890625
 40
0.89453125
 40
0.8984375
 40
0.90625
 40
0.9140625
 40
0.91796875
 40
0.921875
 40
0.92578125
 40
0.9296875
 40
0.931640625
 40
0.93359375
 40
0.9345703125
 40
0.935546875
 40
0.9365234375
 40
0.9370117188
 40
0.9372558594
 40
0.9375
 40
0.9377441406
 40
0.9379882812
 40
0.9384765625
 40
0.939453125
 40
0.9404296875
 40
0.94140625
 40
0.943359375
 40
0.9453125
 40
0.94921875
 40
0.953125
 40
0.95703125
 40
0.9609375
 40
0.96875
 40
0.9765625
 40
0.984375
 40
1.0
 40
1.0
 40
1.0
 40
1.0
 10
10.4128444807
 20
9.2245076042
 30
0.0
 10
10.4097112938
 20
9.2244176797
 30
0.0
 10
10.4050115134
 20
9.2242827931
 30
0.0
 10
10.3987451396
 20
9.2241029443
 30
0.0
 10
10.3940453592
 20
9.2239680576
 30
0.0
 10
10.3901288755
 20
9.2238556523
 30
0.0
 10
10.3869956887
 20
9.2237657275
 30
0.0
 10
10.3846457983
 20
9.2236982852
 30
0.0
 10
10.3822959088
 20
9.2236308382
 30
0.0
 10
10.3803376647
 20
9.223574647
 30
0.0
 10
10.3787710759
 20
9.2235296611
 30
0.0
 10
10.3777919432
 20
9.2235016201
 30
0.0
 10
10.3770086707
 20
9.2234790152
 30
0.0
 10
10.3764211243
 20
9.2234625324
 30
0.0
 10
10.3759317949
 20
9.2234472989
 30
0.0
 10
10.3755886901
 20
9.223439575
 30
0.0
 10
10.3753935268
 20
9.2234305714
 30
0.0
 10
10.3752446287
 20
9.2234367489
 30
0.0
 10
10.3751053847
 20
9.2233935004
 30
0.0
 10
10.3749163585
 20
9.2233530762
 30
0.0
 10
10.3745871317
 20
9.2232743011
 30
0.0
 10
10.3741159874
 20
9.2231659648
 30
0.0
 10
10.3735509653
 20
9.2230341638
 30
0.0
 10
10.37279748
 20
9.2228590569
 30
0.0
 10
10.3718556652
 20
9.2226399583
 30
0.0
 10
10.3703487382
 20
9.2222895207
 30
0.0
 10
10.3684650875
 20
9.2218514325
 30
0.0
 10
10.3662047031
 20
9.2213257444
 30
0.0
 10
10.3639443197
 20
9.2208000514
 30
0.0
 10
10.3609304749
 20
9.2200991292
 30
0.0
 10
10.3571631689
 20
9.2192229758
 30
0.0
 10
10.3533958628
 20
9.2183468229
 30
0.0
 10
10.3503820182
 20
9.2176459
 30
0.0
 10
10.3481216342
 20
9.217120209
 30
0.0
 10
10.345861252
 20
9.2165945136
 30
0.0
 10
10.3439775946
 20
9.2161564481
 30
0.0
 10
10.3424706812
 20
9.2158059642
 30
0.0
 10
10.3415288316
 20
9.2155869835
 30
0.0
 10
10.3407754179
 20
9.2154116345
 30
0.0
 10
10.3402101771
 20
9.2152805731
 30
0.0
 10
10.3397397171
 20
9.2151699228
 30
0.0
 10
10.3394092686
 20
9.2150952787
 30
0.0
 10
10.3392221999
 20
9.2150482355
 30
0.0
 10
10.3390769434
 20
9.2150253184
 30
0.0
 10
10.3389506272
 20
9.214955135
 30
0.0
 10
10.338775599
 20
9.2148780441
 30
0.0
 10
10.3384723778
 20
9.2147354535
 30
0.0
 10
10.3380375954
 20
9.2145357686
 30
0.0
 10
10.3375165454
 20
9.2142944278
 30
0.0
 10
10.3368215714
 20
9.2139732404
 30
0.0
 10
10.3359529363
 20
9.2135715507
 30
0.0
 10
10.3345630741
 20
9.212928962
 30
0.0
 10
10.3328257621
 20
9.2121256866
 30
0.0
 10
10.330740981
 20
9.2111617731
 30
0.0
 10
10.3286562016
 20
9.2101978551
 30
0.0
 10
10.3258764952
 20
9.2089126327
 30
0.0
 10
10.3224018625
 20
9.207306104
 30
0.0
 10
10.3189272295
 20
9.2056995758
 30
0.0
 10
10.3161475234
 20
9.2044143527
 30
0.0
 10
10.3140627432
 20
9.2034504366
 30
0.0
 10
10.3119779654
 20
9.202486516
 30
0.0
 10
10.3102406432
 20
9.2016832627
 30
0.0
 10
10.3088508017
 20
9.2010406291
 30
0.0
 10
10.3079821139
 20
9.2006390534
 30
0.0
 10
10.3072872481
 20
9.2003176318
 30
0.0
 10
10.3067658675
 20
9.2000770067
 30
0.0
 10
10.3063321194
 20
9.1998750826
 30
0.0
 10
10.3060270518
 20
9.1997364894
 30
0.0
 10
10.3058549821
 20
9.1996529937
 30
0.0
 10
10.3057195783
 20
9.1996024838
 30
0.0
 10
10.3056084533
 20
9.1995056763
 30
0.0
 10
10.3054518179
 20
9.1993927487
 30
0.0
 10
10.3051816517
 20
9.1991876013
 30
0.0
 10
10.3047936372
 20
9.1988984672
 30
0.0
 10
10.3043289027
 20
9.1985498226
 30
0.0
 10
10.3037089482
 20
9.1980855513
 30
0.0
 10
10.3029341108
 20
9.1975050107
 30
0.0
 10
10.3016943119
 20
9.1965762583
 30
0.0
 10
10.3001445835
 20
9.1954152792
 30
0.0
 10
10.2982849008
 20
9.1940221208
 30
0.0
 10
10.2964252203
 20
9.192628958
 30
0.0
 10
10.2939456456
 20
9.1907714091
 30
0.0
 10
10.2908461776
 20
9.1884494724
 30
0.0
 10
10.2877467092
 20
9.1861275361
 30
0.0
 10
10.2852671349
 20
9.1842699867
 30
0.0
 10
10.2834074532
 20
9.1828768256
 30
0.0
 10
10.2815477753
 20
9.181483661
 30
0.0
 10
10.279998032
 20
9.1803227011
 30
0.0
 10
10.2787582634
 20
9.1793939096
 30
0.0
 10
10.2779833489
 20
9.1788134685
 30
0.0
 10
10.2773635527
 20
9.1783489928
 30
0.0
 10
10.2768983347
 20
9.1780009725
 30
0.0
 10
10.2765118329
 20
9.1777098852
 30
0.0
 10
10.276238966
 20
9.1775082247
 30
0.0
 10
10.2760866579
 20
9.1773897102
 30
0.0
 10
10.2759622411
 20
9.1773100638
 30
0.0
 10
10.2758767591
 20
9.1771950993
 30
0.0
 10
10.2757492022
 20
9.1770541327
 30
0.0
 10
10.2755323053
 20
9.1768017012
 30
0.0
 10
10.2752191444
 20
9.1764440857
 30
0.0
 10
10.2748447673
 20
9.1760136626
 30
0.0
 10
10.2743451032
 20
9.1754402138
 30
0.0
 10
10.2737206925
 20
9.1747232492
 30
0.0
 10
10.2727215407
 20
9.1735761917
 30
0.0
 10
10.2714726334
 20
9.1721423403
 30
0.0
 10
10.2699739308
 20
9.1704217312
 30
0.0
 10
10.2684752319
 20
9.1687011188
 30
0.0
 10
10.2664769653
 20
9.1664069701
 30
0.0
 10
10.2639791327
 20
9.1635392838
 30
0.0
 10
10.2614812997
 20
9.1606715978
 30
0.0
 10
10.2594830337
 20
9.1583774487
 30
0.0
 10
10.2579843332
 20
9.1566568376
 30
0.0
 10
10.2564856366
 20
9.1549362236
 30
0.0
 10
10.2552367104
 20
9.1535023877
 30
0.0
 10
10.2542375971
 20
9.1523552986
 30
0.0
 10
10.2536130885
 20
9.1516384143
 30
0.0
 10
10.2531136254
 20
9.1510648006
 30
0.0
 10
10.2527386345
 20
9.1506348811
 30
0.0
 10
10.2524273939
 20
9.1502756901
 30
0.0
 10
10.2522070689
 20
9.1500260712
 30
0.0
 10
10.2520850046
 20
9.1498805981
 30
0.0
 10
10.2519826513
 20
9.149779476
 30
0.0
 10
10.2519216004
 20
9.1496478399
 30
0.0
 10
10.2518257925
 20
9.1494829688
 30
0.0
 10
10.2516648409
 20
9.1491894853
 30
0.0
 10
10.2514314009
 20
9.1487728158
 30
0.0
 10
10.251152775
 20
9.1482717027
 30
0.0
 10
10.250780749
 20
9.1476039395
 30
0.0
 10
10.2503158963
 20
9.1467691027
 30
0.0
 10
10.2495720315
 20
9.1454334381
 30
0.0
 10
10.2486422349
 20
9.1437638318
 30
0.0
 10
10.2475264643
 20
9.1417603152
 30
0.0
 10
10.2464106976
 20
9.1397567957
 30
0.0
 10
10.2449230073
 20
9.1370854374
 30
0.0
 10
10.2430633949
 20
9.1337462392
 30
0.0
 10
10.2412037822
 20
9.1304070411
 30
0.0
 10
10.2397160925
 20
9.1277356825
 30
0.0
 10
10.2386003241
 20
9.125732164
 30
0.0
 10
10.23748456
 20
9.1237286434
 30
0.0
 10
10.236554743
 20
9.1220590496
 30
0.0
 10
10.2358109199
 20
9.1207233597
 30
0.0
 10
10.2353459608
 20
9.1198885873
 30
0.0
 10
10.2349741532
 20
9.1192206919
 30
0.0
 10
10.2346948603
 20
9.1187199826
 30
0.0
 10
10.234463507
 20
9.1183020496
 30
0.0
 10
10.2342988304
 20
9.1180108217
 30
0.0
 10
10.2342089909
 20
9.1178423365
 30
0.0
 10
10.234129607
 20
9.1177218019
 30
0.0
 10
10.2340961094
 20
9.1175789845
 30
0.0
 10
10.2340354403
 20
9.1173963338
 30
0.0
 10
10.2339367267
 20
9.1170730737
 30
0.0
 10
10.2337918085
 20
9.1166131668
 30
0.0
 10
10.2336195755
 20
9.1160604682
 30
0.0
 10
10.2333893486
 20
9.1153238198
 30
0.0
 10
10.2331017645
 20
9.1144029123
 30
0.0
 10
10.2326415185
 20
9.1129295146
 30
0.0
 10
10.2320662492
 20
9.1110877488
 30
0.0
 10
10.2313759096
 20
9.1088776378
 30
0.0
 10
10.2306855744
 20
9.1066675247
 30
0.0
 10
10.229765126
 20
9.103720708
 30
0.0
 10
10.228614566
 20
9.1000371868
 30
0.0
 10
10.2274640056
 20
9.0963536657
 30
0.0
 10
10.2265435578
 20
9.0934068487
 30
0.0
 10
10.2258532208
 20
9.0911967364
 30
0.0
 10
10.2251628883
 20
9.0889866224
 30
0.0
 10
10.2245875968
 20
9.087144866
 30
0.0
 10
10.2241273961
 20
9.0856714491
 30
0.0
 10
10.2238396966
 20
9.0847505905
 30
0.0
 10
10.2236097066
 20
9.0840138418
 30
0.0
 10
10.2234367499
 20
9.0834614495
 30
0.0
 10
10.2232940958
 20
9.0830005843
 30
0.0
 10
10.2231913405
 20
9.0826790349
 30
0.0
 10
10.2231371472
 20
9.0824936433
 30
0.0
 10
10.2230837581
 20
9.0823592451
 30
0.0
 10
10.2230790834
 20
9.0822070894
 30
0.0
 10
10.2230558584
 20
9.0820104092
 30
0.0
 10
10.2230231317
 20
9.0816633329
 30
0.0
 10
10.22297224
 20
9.0811690184
 30
0.0
 10
10.2229129417
 20
9.0805751952
 30
0.0
 10
10.2228332585
 20
9.0797836565
 30
0.0
 10
10.2227338664
 20
9.0787941558
 30
0.0
 10
10.2225747206
 20
9.077210998
 30
0.0
 10
10.222375829
 20
9.0752320359
 30
0.0
 10
10.2221371416
 20
9.0728572878
 30
0.0
 10
10.2218984589
 20
9.0704825379
 30
0.0
 10
10.2215802136
 20
9.0673162054
 30
0.0
 10
10.2211824076
 20
9.0633582895
 30
0.0
 10
10.2207846013
 20
9.0594003737
 30
0.0
 10
10.2204663567
 20
9.056234041
 30
0.0
 10
10.220227672
 20
9.0538592915
 30
0.0
 10
10.2199889921
 20
9.0514845421
 30
0.0
 10
10.2197900771
 20
9.0495055839
 30
0.0
 10
10.2196309789
 20
9.047922418
 30
0.0
 10
10.2195314656
 20
9.0469329379
 30
0.0
 10
10.2194520311
 20
9.0461413572
 30
0.0
 10
10.2193919732
 20
9.0455476625
 30
0.0
 10
10.2193434583
 20
9.0450529459
 30
0.0
 10
10.2193064886
 20
9.0447065873
 30
0.0
 10
10.2192900618
 20
9.0445087571
 30
0.0
 10
10.2192645054
 20
9.0443601339
 30
0.0
 10
10.2192895446
 20
9.0442124685
 30
0.0
 10
10.2193052818
 20
9.0440152471
 30
0.0
 10
10.2193410447
 20
9.0436702655
 30
0.0
 10
10.2193878357
 20
9.0431773532
 30
0.0
 10
10.2194458249
 20
9.0425858932
 30
0.0
 10
10.2195225011
 20
9.0417972678
 30
0.0
 10
10.2196185665
 20
9.0408114902
 30
0.0
 10
10.2197721481
 20
9.0392342436
 30
0.0
 10
10.2199641672
 20
9.0372626863
 30
0.0
 10
10.2201945722
 20
9.0348968171
 30
0.0
 10
10.2204249819
 20
9.0325309481
 30
0.0
 10
10.2207321933
 20
9.0293764559
 30
0.0
 10
10.221116208
 20
9.0254333408
 30
0.0
 10
10.2215002224
 20
9.0214902256
 30
0.0
 10
10.2218074344
 20
9.0183357335
 30
0.0
 10
10.2220378422
 20
9.0159698643
 30
0.0
 10
10.2222682546
 20
9.0136039957
 30
0.0
 10
10.2224602504
 20
9.0116324367
 30
0.0
 10
10.2226138796
 20
9.0100551936
 30
0.0
 10
10.2227098238
 20
9.0090694072
 30
0.0
 10
10.2227867488
 20
9.0082807999
 30
0.0
 10
10.222843978
 20
9.0076892846
 30
0.0
 10
10.2228931467
 20
9.0071965453
 30
0.0
 10
10.222924665
 20
9.0068512548
 30
0.0
 10
10.2229472032
 20
9.0066545284
 30
0.0
 10
10.2229513519
 20
9.0065053426
 30
0.0
 10
10.2230042569
 20
9.0063624296
 30
0.0
 10
10.2230577902
 20
9.0061696909
 30
0.0
 10
10.2231593972
 20
9.0058334176
 30
0.0
 10
10.2233004074
 20
9.0053524942
 30
0.0
 10
10.2234713929
 20
9.0047756143
 30
0.0
 10
10.2236987542
 20
9.0040063614
 30
0.0
 10
10.2239831678
 20
9.0030448225
 30
0.0
 10
10.2244381112
 20
9.001506345
 30
0.0
 10
10.225006831
 20
8.9995832534
 30
0.0
 10
10.2256892773
 20
8.9972755413
 30
0.0
 10
10.2263717284
 20
8.9949678297
 30
0.0
 10
10.2272816614
 20
8.9918908808
 30
0.0
 10
10.2284190784
 20
8.9880446947
 30
0.0
 10
10.2295564949
 20
8.9841985085
 30
0.0
 10
10.2304664286
 20
8.9811215597
 30
0.0
 10
10.2311488777
 20
8.9788138478
 30
0.0
 10
10.2318313313
 20
8.9765061373
 30
0.0
 10
10.2324000288
 20
8.9745830405
 30
0.0
 10
10.2328550176
 20
8.9730445736
 30
0.0
 10
10.2331393157
 20
8.9720830079
 30
0.0
 10
10.2333669141
 20
8.9713138101
 30
0.0
 10
10.2335371751
 20
8.9707367617
 30
0.0
 10
10.233680452
 20
8.9702563654
 30
0.0
 10
10.2337780127
 20
8.9699191511
 30
0.0
 10
10.2338380291
 20
8.9697279202
 30
0.0
 10
10.2338710199
 20
8.9695803757
 30
0.0
 10
10.2339499633
 20
8.9694485848
 30
0.0
 10
10.2340391924
 20
8.9692673686
 30
0.0
 10
10.2342028115
 20
8.9689528004
 30
0.0
 10
10.2344326486
 20
8.9685020787
 30
0.0
 10
10.2347101244
 20
8.9679617856
 30
0.0
 10
10.2350795084
 20
8.9672411948
 30
0.0
 10
10.2355414382
 20
8.9663405247
 30
0.0
 10
10.2362804142
 20
8.9648994144
 30
0.0
 10
10.2372041725
 20
8.9630980395
 30
0.0
 10
10.2383126661
 20
8.9609363841
 30
0.0
 10
10.239421164
 20
8.9587747302
 30
0.0
 10
10.2408991598
 20
8.9558925244
 30
0.0
 10
10.242746655
 20
8.9522897675
 30
0.0
 10
10.2445941499
 20
8.9486870103
 30
0.0
 10
10.2460721462
 20
8.9458048048
 30
0.0
 10
10.2471806423
 20
8.9436431501
 30
0.0
 10
10.2482891427
 20
8.9414814975
 30
0.0
 10
10.2492128798
 20
8.939680114
 30
0.0
 10
10.2499518992
 20
8.9382390213
 30
0.0
 10
10.2504137185
 20
8.9373383062
 30
0.0
 10
10.2507833292
 20
8.9366178079
 30
0.0
 10
10.2510601122
 20
8.9360772323
 30
0.0
 10
10.2512921168
 20
8.9356273946
 30
0.0
 10
10.2514518666
 20
8.9353112483
 30
0.0
 10
10.2515472953
 20
8.9351325606
 30
0.0
 10
10.2516071955
 20
8.9349930027
 30
0.0
 10
10.2517117096
 20
8.9348746297
 30
0.0
 10
10.2518354999
 20
8.9347094094
 30
0.0
 10
10.2520593834
 20
8.9344237168
 30
0.0
 10
10.2523754264
 20
8.9340137846
 30
0.0
 10
10.2527563004
 20
8.9335226364
 30
0.0
 10
10.2532635658
 20
8.932867503
 30
0.0
 10
10.2538978415
 20
8.9320486784
 30
0.0
 10
10.2549125743
 20
8.9307385075
 30
0.0
 10
10.2561810274
 20
8.9291008116
 30
0.0
 10
10.2577031552
 20
8.9271355689
 30
0.0
 10
10.2592252873
 20
8.9251703283
 30
0.0
 10
10.2612547953
 20
8.9225500067
 30
0.0
 10
10.2637916808
 20
8.919274605
 30
0.0
 10
10.2663285659
 20
8.9159992031
 30
0.0
 10
10.2683580744
 20
8.9133788819
 30
0.0
 10
10.2698802049
 20
8.9114136401
 30
0.0
 10
10.2714023386
 20
8.9094484018
 30
0.0
 10
10.2726707736
 20
8.9078106923
 30
0.0
 10
10.2736855433
 20
8.9065005492
 30
0.0
 10
10.2743197249
 20
8.905681654
 30
0.0
 10
10.2748271836
 20
8.9050266655
 30
0.0
 10
10.2752074669
 20
8.9045350747
 30
0.0
 10
10.2755253582
 20
8.9041265271
 30
0.0
 10
10.2757459421
 20
8.9038383627
 30
0.0
 10
10.2758750192
 20
8.903677103
 30
0.0
 10
10.2759632939
 20
8.9035465643
 30
0.0
 10
10.2760841866
 20
8.9034526984
 30
0.0
 10
10.2762339993
 20
8.903314752
 30
0.0
 10
10.2765014726
 20
8.9030793057
 30
0.0
 10
10.2768808059
 20
8.9027398379
 30
0.0
 10
10.2773371922
 20
8.9023338103
 30
0.0
 10
10.2779452928
 20
8.9017919744
 30
0.0
 10
10.2787055604
 20
8.9011148389
 30
0.0
 10
10.2799219094
 20
8.900031333
 30
0.0
 10
10.2814423728
 20
8.8986769813
 30
0.0
 10
10.2832669172
 20
8.897051746
 30
0.0
 10
10.2850914647
 20
8.8954265143
 30
0.0
 10
10.2875241937
 20
8.8932595375
 30
0.0
 10
10.2905651053
 20
8.8905508169
 30
0.0
 10
10.2936060166
 20
8.887842096
 30
0.0
 10
10.2960387459
 20
8.8856751196
 30
0.0
 10
10.2978632923
 20
8.8840498864
 30
0.0
 10
10.2996878412
 20
8.8824246569
 30
0.0
 10
10.3012082905
 20
8.8810702872
 30
0.0
 10
10.3024246683
 20
8.8799868178
 30
0.0
 10
10.3031848624
 20
8.8793095896
 30
0.0
 10
10.303793114
 20
8.878767944
 30
0.0
 10
10.3042490392
 20
8.8783613347
 30
0.0
 10
10.3046298148
 20
8.8780236872
 30
0.0
 10
10.3048947133
 20
8.8777849914
 30
0.0
 10
10.3050486516
 20
8.8776522514
 30
0.0
 10
10.3051568719
 20
8.877542393
 30
0.0
 10
10.3052927419
 20
8.8774719195
 30
0.0
 10
10.3054642573
 20
8.8773642169
 30
0.0
 10
10.3057689028
 20
8.8771821382
 30
0.0
 10
10.3062017614
 20
8.8769186793
 30
0.0
 10
10.3067221973
 20
8.876603961
 30
0.0
 10
10.3074157606
 20
8.8761838363
 30
0.0
 10
10.308282835
 20
8.8756588517
 30
0.0
 10
10.3096700869
 20
8.8748187807
 30
0.0
 10
10.3114041747
 20
8.8737687247
 30
0.0
 10
10.3134850703
 20
8.8725086435
 30
0.0
 10
10.3155659685
 20
8.871248566
 30
0.0
 10
10.3183404984
 20
8.8695684614
 30
0.0
 10
10.3218086613
 20
8.8674683312
 30
0.0
 10
10.3252768239
 20
8.8653682006
 30
0.0
 10
10.3280513542
 20
8.8636880965
 30
0.0
 10
10.3301322514
 20
8.8624280174
 30
0.0
 10
10.3322131505
 20
8.8611679425
 30
0.0
 10
10.3339472274
 20
8.8601178668
 30
0.0
 10
10.3353345016
 20
8.859277836
 30
0.0
 10
10.336201519
 20
8.858752749
 30
0.0
 10
10.3368951994
 20
8.8583328345
 30
0.0
 10
10.3374152777
 20
8.8580174741
 30
0.0
 10
10.3378492551
 20
8.8577560242
 30
0.0
 10
10.3381519033
 20
8.857570359
 30
0.0
 10
10.338326619
 20
8.8574684029
 30
0.0
 10
10.3384526588
 20
8.8573802781
 30
0.0
 10
10.3385977993
 20
8.857336715
 30
0.0
 10
10.3387846574
 20
8.8572630872
 30
0.0
 10
10.3391147633
 20
8.8571414807
 30
0.0
 10
10.3395847203
 20
8.8569639709
 30
0.0
 10
10.3401493633
 20
8.8567525797
 30
0.0
 10
10.340901978
 20
8.8564701588
 30
0.0
 10
10.3418428295
 20
8.8561173265
 30
0.0
 10
10.3433481454
 20
8.8555526864
 30
0.0
 10
10.3452298063
 20
8.8548469235
 30
0.0
 10
10.3474877925
 20
8.853999992
 30
0.0
 10
10.3497457805
 20
8.8531530649
 30
0.0
 10
10.3527564306
 20
8.8520238271
 30
0.0
 10
10.3565197434
 20
8.8506122805
 30
0.0
 10
10.360283056
 20
8.8492007335
 30
0.0
 10
10.3632937063
 20
8.8480714964
 30
0.0
 10
10.3655516936
 20
8.8472245674
 30
0.0
 10
10.3678096824
 20
8.8463776429
 30
0.0
 10
10.3696913353
 20
8.8456718583
 30
0.0
 10
10.3711966673
 20
8.8451072625
 30
0.0
 10
10.372137478
 20
8.8447543176
 30
0.0
 10
10.3728901765
 20
8.8444721277
 30
0.0
 10
10.3734545634
 20
8.8442600307
 30
0.0
 10
10.3739253217
 20
8.8440847293
 30
0.0
 10
10.3742539972
 20
8.8439591803
 30
0.0
 10
10.3744431471
 20
8.8438918694
 30
0.0
 10
10.3745812479
 20
8.843828903
 30
0.0
 10
10.3747337278
 20
8.8438136538
 30
0.0
 10
10.3749320188
 20
8.8437766773
 30
0.0
 10
10.3752813648
 20
8.8437197233
 30
0.0
 10
10.3757792089
 20
8.8436343061
 30
0.0
 10
10.3763771447
 20
8.8435335408
 30
0.0
 10
10.3771742098
 20
8.8433985809
 30
0.0
 10
10.3781706038
 20
8.8432300886
 30
0.0
 10
10.3797647991
 20
8.842960385
 30
0.0
 10
10.3817575552
 20
8.8426232953
 30
0.0
 10
10.3841488575
 20
8.8422187705
 30
0.0
 10
10.3865401611
 20
8.8418142503
 30
0.0
 10
10.3897285654
 20
8.8412748885
 30
0.0
 10
10.393714071
 20
8.8406006867
 30
0.0
 10
10.3984966777
 20
8.8397916444
 30
0.0
 10
10.4048734865
 20
8.8387129213
 30
0.0
 10
10.4096560932
 20
8.837903879
 30
0.0
 10
10.4128444976
 20
8.8373645175
 30
0.0
  0
ENDSEC
  0
SECTION
  2
OBJECTS
  0
DICTIONARY
  5
C
100
AcDbDictionary
280
0
281
1
  3
ACAD_GROUP
350
D
  3
ACAD_MLINESTYLE
350
17
  3
ACAD_LAYOUT
350
1A
  3
ACAD_PLOTSETTINGS
350
19
  3
ACAD_PLOTSTYLENAME
350
E
  3
ACAD_IMAGE_DICT
350
       3A4
  3
ACAD_IMAGE_VARS
350
       3A5
  3
ACAD_TABLESTYLE
350
       3A6
  0
IMAGEDEF_REACTOR
  5
3A3
100
AcDbRasterImageDefReactor
 90
2
330
293
  0
DICTIONARY
  5
D
102
{ACAD_REACTORS
330
C
102
}
100
AcDbDictionary
280
0
281
1
  0
ACDBDICTIONARYWDFLT
  5
E
102
{ACAD_REACTORS
330
C
102
}
100
AcDbDictionary
281
1
  3
Normal
350
F
100
AcDbDictionaryWithDefault
340
F
  0
DICTIONARY
  5
3A4
330
C
100
AcDbDictionary
281
1
  3
M4V_assy_2_img_1
350
       3A9
  0
RASTERVARIABLES
  5
3A5
330
C
100
AcDbRasterVariables
 90
0
 70
0
 71
1
 72
5
  0
DICTIONARY
  5
17
102
{ACAD_REACTORS
330
C
102
}
100
AcDbDictionary
280
0
281
1
  3
Standard
350
18
  0
DICTIONARY
  5
3A6
330
C
100
AcDbDictionary
281
1
  3
Standard
350
       3AA
  3
Standard1
350
       3AB
  0
DICTIONARY
  5
19
102
{ACAD_REACTORS
330
C
102
}
100
AcDbDictionary
281
1
  0
DICTIONARY
  5
1A
102
{ACAD_REACTORS
330
C
102
}
100
AcDbDictionary
281
1
  3
Model
350
3A7
  3
Layout1
350
3A8
  0
ACDBPLACEHOLDER
  5
F
102
{ACAD_REACTORS
330
E
102
}
  0
MLINESTYLE
  5
18
102
{ACAD_REACTORS
330
17
102
}
100
AcDbMlineStyle
  2
STANDARD
 70
0
  3

 62
256
 51
90.0
 52
90.0
 71
2
 49
0.5
 62
256
  6
BYLAYER
 49
-0.5
 62
256
  6
BYLAYER
  0
LAYOUT
  5
3A7
102
{ACAD_REACTORS
330
1A
102
}
100
AcDbPlotSettings
  1

  2
none_device
  4
ANSI_C_(22.00_x_17.00_Inches)
  6

 40
0.0
 41
0.0
 42
0.0
 43
0.0
 44
558.8
 45
431.8
 46
0.0
 47
0.0
 48
0.0
 49
0.0
140
0.0
141
0.0
142
1.0
143
1.0
 70
1024
 72
0
 73
0
 74
0
  7

 75
0
147
1.0
148
0.0
149
0.0
100
AcDbLayout
  1
Model
 70
0
 71
0
 10
0.0
 20
0.0
 11
22.0
 21
17.0
 12
0.0
 22
0.0
 32
0.0
 14
0.0
 24
0.0
 34
0.0
 15
0.0
 25
0.0
 35
0.0
146
0.0
 13
0.0
 23
0.0
 33
0.0
 16
1.0
 26
0.0
 36
0.0
 17
0.0
 27
1.0
 37
0.0
 76
0
330
20C
345
0
346
0
  0
LAYOUT
  5
3A8
102
{ACAD_REACTORS
330
1A
102
}
100
AcDbPlotSettings
  1

  2
none_device
  4
ANSI_C_(22.00_x_17.00_Inches)
  6

 40
0.0
 41
0.0
 42
0.0
 43
0.0
 44
558.8
 45
431.8
 46
0.0
 47
0.0
 48
0.0
 49
0.0
140
0.0
141
0.0
142
1.0
143
1.0
 70
0
 72
0
 73
0
 74
0
  7

 75
0
147
1.0
148
0.0
149
0.0
100
AcDbLayout
  1
Layout1
 70
0
 71
1
 10
0.0
 20
0.0
 11
22.0
 21
17.0
 12
0.0
 22
0.0
 32
0.0
 14
0.0
 24
0.0
 34
0.0
 15
0.0
 25
0.0
 35
0.0
146
0.0
 13
0.0
 23
0.0
 33
0.0
 16
1.0
 26
0.0
 36
0.0
 17
0.0
 27
1.0
 37
0.0
 76
0
330
20D
345
0
346
0
  0
IMAGEDEF
  5
3A9
102
{ACAD_REACTORS
330
3A4
330
3A3
102
}
100
AcDbRasterImageDef
 90
0
  1
M4V_assy_2_img_1.png
 10
369.0
 20
92.0
 11
0.0066666667
 21
0.0066666667
280
1
281
0
  0
TABLESTYLE
  5
3AA
102
{ACAD_REACTORS
330
3A6
330
296
330
297
102
}
330
3A6
100
AcDbTableStyle
  3
Standard
 70
0
 71
0
 40
0.06
 41
0.06
280
1
281
1
  7
Standard
140
0.18
170
1
 62
0
 63
7
283
0
  7
Standard
140
0.18
170
1
 62
0
 63
7
283
0
  7
Standard
140
0.18
170
1
 62
0
 63
7
283
0
  0
TABLESTYLE
  5
3AB
102
{ACAD_REACTORS
330
3A6
330
295
102
}
330
3A6
100
AcDbTableStyle
  3
Standard1
 70
1
 71
0
 40
0.06
 41
0.06
280
1
281
1
  7
Standard
140
0.18
170
1
 62
0
 63
7
283
0
  7
Standard
140
0.18
170
1
 62
0
 63
7
283
0
  7
Standard
140
0.18
170
1
 62
0
 63
7
283
0
  0
ENDSEC
  0
EOF
