999
DXF file: M4T_assy_2.dxf
999
Pro/ENGINEER 2014200 by Parametric Technology Corporation
  0
SECTION
  2
HEADER
  9
$ACADVER
  1
AC1021
  9
$DWGCODEPAGE
  3
ANSI_1252
  9
$EXTMAX
 10
22.0
 20
17.0
 30
0.0
  9
$EXTMIN
 10
0.0
 20
0.0
 30
0.0
  9
$LIMMIN
 10
0.0
 20
0.0
  9
$LIMMAX
 10
22.0
 20
17.0
  9
$VIEWCTR
 10
11.0
 20
8.5
  9
$VIEWSIZE
 40
17.0
  9
$CLAYER
  8
0
  9
$LTSCALE
 40
1.21
  9
$CELTYPE
  6
BYLAYER
  9
$DIMSCALE
 40
1.0
  9
$DIMASZ
 40
0.1875
  9
$DIMEXO
 40
0.0625
  9
$DIMDLI
 40
0.836
  9
$DIMEXE
 40
0.125
  9
$DIMCEN
 40
0.198
  9
$DIMLFAC
 40
1.0
  9
$DIMBLK
  1
_FILLED
  9
$DIMTXT
 40
0.1
  9
$DIMTOL
 70
0
  9
$DIMLIM
 70
0
  9
$DIMTFAC
 40
1.0
  9
$DIMGAP
 40
0.09
  9
$DIMDSEP
 70
46
  9
$AUNITS
 70
0
  9
$PDMODE
 70
3
  9
$PDSIZE
 40
0.3125
  9
$HANDSEED
  5
3A9
  9
$TILEMODE
 70
1
  9
$MEASUREMENT
 70
0
  9
$INSUNITS
 70
1
  0
ENDSEC
  0
SECTION
  2
CLASSES
  0
CLASS
  1
ACDBDICTIONARYWDFLT
  2
AcDbDictionaryWithDefault
  3
AutoCAD 2000
 90
0
 91
1
280
0
281
0
  0
CLASS
  1
ACDBPLACEHOLDER
  2
AcDbPlaceHolder
  3
AutoCAD 2000
 90
0
 91
1
280
0
281
0
  0
CLASS
  1
LAYOUT
  2
AcDbLayout
  3
AutoCAD 2000
 90
0
 91
0
280
0
281
0
  0
CLASS
  1
RASTERVARIABLES
  2
AcDbRasterVariables
  3
ISM
 90
0
 91
1
280
0
281
0
  0
CLASS
  1
IMAGEDEF
  2
AcDbRasterImageDef
  3
ISM
 90
0
 91
1
280
0
281
0
  0
CLASS
  1
IMAGEDEF_REACTOR
  2
AcDbRasterImageDefReactor
  3
ISM
 90
0
 91
1
280
0
281
0
  0
CLASS
  1
IMAGE
  2
AcDbRasterImage
  3
ISM
 90
127
 91
1
280
0
281
1
  0
CLASS
  1
TABLESTYLE
  2
AcDbTableStyle
  3
ObjectDBX Classes
 90
2047
 91
1
280
0
281
0
  0
CLASS
  1
ACAD_TABLE
  2
AcDbTable
  3
ObjectDBX Classes
 90
1025
 91
3
280
0
281
1
  0
ENDSEC
  0
SECTION
  2
TABLES
  0
TABLE
  2
VPORT
  5
8
100
AcDbSymbolTable
 70
2
  0
VPORT
  5
1F4
100
AcDbSymbolTableRecord
100
AcDbViewportTableRecord
  2
*ACTIVE
 70
0
 10
0.0
 20
0.0
 11
1.0
 21
1.0
 12
11.0
 22
8.5
 13
0.0
 23
0.0
 14
1.0
 24
1.0
 15
0.0
 25
0.0
 16
0.0
 26
0.0
 36
1.0
 17
0.0
 27
0.0
 37
0.0
 40
17.0
 41
1.2941176471
 42
50.0
 43
0.0
 44
0.0
 50
0.0
 51
0.0
 71
0
 72
100
 73
1
 74
1
 75
0
 76
0
 77
0
 78
0
  0
ENDTAB
  0
TABLE
  2
LTYPE
  5
5
100
AcDbSymbolTable
 70
6
  0
LTYPE
  5
14
100
AcDbSymbolTableRecord
100
AcDbLinetypeTableRecord
  2
BYBLOCK
 70
0
  3

 72
65
 73
0
 40
0.0
  0
LTYPE
  5
15
100
AcDbSymbolTableRecord
100
AcDbLinetypeTableRecord
  2
BYLAYER
 70
0
  3

 72
65
 73
0
 40
0.0
  0
LTYPE
  5
16
100
AcDbSymbolTableRecord
100
AcDbLinetypeTableRecord
  2
CONTINUOUS
 70
64
  3
Solid line
 72
65
 73
0
 40
0.0
  0
LTYPE
  5
1F5
100
AcDbSymbolTableRecord
100
AcDbLinetypeTableRecord
  2
CENTER
 70
64
  3
____ _ ____ _ ____ _ ____ _ ____ _ ____ _ ____
 72
65
 73
4
 40
0.6
 49
0.375
 74
0
 49
-0.075
 74
0
 49
0.075
 74
0
 49
-0.075
 74
0
  0
LTYPE
  5
1F6
100
AcDbSymbolTableRecord
100
AcDbLinetypeTableRecord
  2
HIDDEN
 70
64
  3
- - - - - - - - - - - - - - - - - - - -
 72
65
 73
2
 40
0.2
 49
0.1
 74
0
 49
-0.1
 74
0
  0
LTYPE
  5
1F7
100
AcDbSymbolTableRecord
100
AcDbLinetypeTableRecord
  2
PHANTOM
 70
64
  3
_____ _ _ _____ _ _ _____ _ _ _____
 72
65
 73
6
 40
0.8
 49
0.45
 74
0
 49
-0.05
 74
0
 49
0.1
 74
0
 49
-0.05
 74
0
 49
0.1
 74
0
 49
-0.05
 74
0
  0
LTYPE
  5
1F8
100
AcDbSymbolTableRecord
100
AcDbLinetypeTableRecord
  2
DOT
 70
64
  3
. . . . . . . . . . . . . . . . . . . .
 72
65
 73
2
 40
0.2
 49
0.1
 74
0
 49
-0.1
 74
0
  0
LTYPE
  5
1F9
100
AcDbSymbolTableRecord
100
AcDbLinetypeTableRecord
  2
DASHED
 70
64
  3
- - - - - - - - - - - - - - - - - - - -
 72
65
 73
2
 40
0.2
 49
0.1
 74
0
 49
-0.1
 74
0
  0
ENDTAB
  0
TABLE
  2
LAYER
  5
2
100
AcDbSymbolTable
 70
36
  0
LAYER
  5
10
100
AcDbSymbolTableRecord
100
AcDbLayerTableRecord
  2
0
 70
0
 62
7
  6
CONTINUOUS
370
-3
390
F
  0
LAYER
  5
1FA
100
AcDbSymbolTableRecord
100
AcDbLayerTableRecord
  2
DEFAULT_1
 70
0
 62
7
  6
CENTER
370
-3
390
F
  0
LAYER
  5
1FB
100
AcDbSymbolTableRecord
100
AcDbLayerTableRecord
  2
DEFAULT_2
 70
0
 62
8
  6
HIDDEN
370
-3
390
F
  0
LAYER
  5
1FC
100
AcDbSymbolTableRecord
100
AcDbLayerTableRecord
  2
DEFAULT_3
 70
0
 62
7
  6
PHANTOM
370
-3
390
F
  0
LAYER
  5
1FD
100
AcDbSymbolTableRecord
100
AcDbLayerTableRecord
  2
01___PRT_ALL_DTM_PLN
 70
0
 62
7
  6
CONTINUOUS
370
-3
390
F
  0
LAYER
  5
1FE
100
AcDbSymbolTableRecord
100
AcDbLayerTableRecord
  2
01___PRT_DEF_DTM_PLN
 70
0
 62
7
  6
CONTINUOUS
370
-3
390
F
  0
LAYER
  5
1FF
100
AcDbSymbolTableRecord
100
AcDbLayerTableRecord
  2
02___PRT_ALL_AXES
 70
0
 62
7
  6
CONTINUOUS
370
-3
390
F
  0
LAYER
  5
200
100
AcDbSymbolTableRecord
100
AcDbLayerTableRecord
  2
03___PRT_ALL_CURVES
 70
0
 62
7
  6
CONTINUOUS
370
-3
390
F
  0
LAYER
  5
201
100
AcDbSymbolTableRecord
100
AcDbLayerTableRecord
  2
04___PRT_ALL_DTM_PNT
 70
0
 62
7
  6
CONTINUOUS
370
-3
390
F
  0
LAYER
  5
202
100
AcDbSymbolTableRecord
100
AcDbLayerTableRecord
  2
05___PRT_ALL_DTM_CSYS
 70
0
 62
7
  6
CONTINUOUS
370
-3
390
F
  0
LAYER
  5
203
100
AcDbSymbolTableRecord
100
AcDbLayerTableRecord
  2
05___PRT_DEF_DTM_CSYS
 70
0
 62
7
  6
CONTINUOUS
370
-3
390
F
  0
LAYER
  5
204
100
AcDbSymbolTableRecord
100
AcDbLayerTableRecord
  2
06___PRT_ALL_SURFS
 70
0
 62
7
  6
CONTINUOUS
370
-3
390
F
  0
LAYER
  5
205
100
AcDbSymbolTableRecord
100
AcDbLayerTableRecord
  2
DATUM_PLANES
 70
0
 62
7
  6
CONTINUOUS
370
-3
390
F
  0
LAYER
  5
206
100
AcDbSymbolTableRecord
100
AcDbLayerTableRecord
  2
PORT_AREAS
 70
0
 62
7
  6
CONTINUOUS
370
-3
390
F
  0
LAYER
  5
207
100
AcDbSymbolTableRecord
100
AcDbLayerTableRecord
  2
SUNNBOMCOSMETIC
 70
0
 62
7
  6
CONTINUOUS
370
-3
390
F
  0
LAYER
  5
208
100
AcDbSymbolTableRecord
100
AcDbLayerTableRecord
  2
SUNNBOMSTAMPING
 70
0
 62
7
  6
CONTINUOUS
370
-3
390
F
  0
LAYER
  5
209
100
AcDbSymbolTableRecord
100
AcDbLayerTableRecord
  2
THREADS
 70
0
 62
7
  6
CONTINUOUS
370
-3
390
F
  0
ENDTAB
  0
TABLE
  2
STYLE
  5
3
100
AcDbSymbolTable
 70
1
  0
STYLE
  5
11
100
AcDbSymbolTableRecord
100
AcDbTextStyleTableRecord
  2
STANDARD
 70
0
 40
0.0
 41
0.8
 50
0.0
 71
0
 42
0.2
  3
txt
  4

  0
STYLE
  5
20A
100
AcDbSymbolTableRecord
100
AcDbTextStyleTableRecord
  2
TEXTSTYLE_1
 70
0
 40
0.0
 41
0.8
 50
0.0
 71
0
 42
0.2
  3
gdt
  4

  0
ENDTAB
  0
TABLE
  2
VIEW
  5
6
100
AcDbSymbolTable
 70
0
  0
ENDTAB
  0
TABLE
  2
UCS
  5
7
100
AcDbSymbolTable
 70
0
  0
ENDTAB
  0
TABLE
  2
APPID
  5
9
100
AcDbSymbolTable
 70
1
  0
APPID
  5
20B
100
AcDbSymbolTableRecord
100
AcDbRegAppTableRecord
  2
ACAD
 70
0
  0
ENDTAB
  0
TABLE
  2
BLOCK_RECORD
  5
1
100
AcDbSymbolTable
 70
0
  0
BLOCK_RECORD
  5
20C
100
AcDbSymbolTableRecord
100
AcDbBlockTableRecord
  2
*Model_Space
  0
BLOCK_RECORD
  5
20D
100
AcDbSymbolTableRecord
100
AcDbBlockTableRecord
  2
*Paper_Space
  0
BLOCK_RECORD
  5
20E
100
AcDbSymbolTableRecord
100
AcDbBlockTableRecord
  2
SUN_FIRST_THIRD_ANGLE_BL0
  0
BLOCK_RECORD
  5
20F
100
AcDbSymbolTableRecord
100
AcDbBlockTableRecord
  2
*T1
  0
BLOCK_RECORD
  5
210
100
AcDbSymbolTableRecord
100
AcDbBlockTableRecord
  2
*T2
  0
BLOCK_RECORD
  5
211
100
AcDbSymbolTableRecord
100
AcDbBlockTableRecord
  2
*T3
  0
ENDTAB
  0
TABLE
  2
DIMSTYLE
  5
A
100
AcDbSymbolTable
 70
1
100
AcDbDimStyleTable
 71
0
  0
DIMSTYLE
105
212
100
AcDbSymbolTableRecord
100
AcDbDimStyleTableRecord
  2
STANDARD
 70
0
  3

  4

 40
1.0
 41
0.1875
 42
0.0625
 43
0.38
 44
0.125
 45
0.0
 46
0.0
 47
0.001
 48
0.001
140
0.1
141
0.09
142
0.0
143
25.4
144
1.0
145
0.0
146
1.0
147
0.09
 71
0.0
 72
0.0
 73
1
 74
1
 75
0
 76
0
 77
0
 78
4
170
0
171
2
172
0
173
0
174
0
175
0
176
0
177
0
178
0
270
2
271
3
272
3
273
2
274
2
275
0
280
0
281
0
282
0
283
1
284
4
285
0
286
0
287
3
288
0
340
11
278
46
  0
ENDTAB
  0
ENDSEC
  0
SECTION
  2
BLOCKS
  0
BLOCK
  5
20
100
AcDbEntity
  8
0
100
AcDbBlockBegin
  2
*Model_Space
 70
0
 10
0.0
 20
0.0
 30
0.0
  3
*Model_Space
  1

  0
ENDBLK
  5
21
100
AcDbEntity
  8
0
100
AcDbBlockEnd
  0
BLOCK
  5
1C
100
AcDbEntity
  8
0
100
AcDbBlockBegin
  2
*Paper_Space
 70
0
 10
0.0
 20
0.0
 30
0.0
  3
*Paper_Space
  1

  0
ENDBLK
  5
1D
100
AcDbEntity
  8
0
100
AcDbBlockEnd
  0
BLOCK
  5
213
100
AcDbEntity
  8
0
100
AcDbBlockBegin
 62
2
  6
CONTINUOUS
  2
SUN_FIRST_THIRD_ANGLE_BL0
 70
64
 10
20.4816717061
 20
1.2289683772
  3
SUN_FIRST_THIRD_ANGLE_BL0
  1

  0
TEXT
  5
214
100
AcDbEntity
  8
0
100
AcDbText
 62
2
  6
CONTINUOUS
 10
19.4750896608
 20
1.4136269581
  7
STANDARD
 40
0.08
  1
FIRST ANGLE
 41
0.8
 72
0
100
AcDbText
  0
TEXT
  5
215
100
AcDbEntity
  8
0
100
AcDbText
 62
2
  6
CONTINUOUS
 10
20.7842537513
 20
1.4047600029
  7
STANDARD
 40
0.08
  1
THIRD ANGLE
 41
0.8
 72
0
100
AcDbText
  0
LINE
  5
216
100
AcDbEntity
  8
0
100
AcDbLine
 62
7
  6
CONTINUOUS
 10
19.4767170086
 20
1.1727031207
 11
19.6334271527
 21
1.1717972817
  0
LINE
  5
217
100
AcDbEntity
  8
0
100
AcDbLine
 62
7
  6
CONTINUOUS
 10
19.6596964832
 20
1.1717972817
 11
19.6950230232
 21
1.171593082
  0
LINE
  5
218
100
AcDbEntity
  8
0
100
AcDbLine
 62
7
  6
CONTINUOUS
 10
19.7194818561
 20
1.1708914427
 11
19.8852396156
 21
1.1699333054
  0
LINE
  5
219
100
AcDbEntity
  8
0
100
AcDbLine
 62
7
  6
CONTINUOUS
 10
19.4758111696
 20
1.2723454088
 11
19.88525039
 21
1.3511534004
  0
LINE
  5
21A
100
AcDbEntity
  8
0
100
AcDbLine
 62
7
  6
CONTINUOUS
 10
19.88525039
 20
1.3511534004
 11
19.8831348489
 21
0.9851647912
  0
LINE
  5
21B
100
AcDbEntity
  8
0
100
AcDbLine
 62
7
  6
CONTINUOUS
 10
19.8831348489
 20
0.9851647912
 11
19.4767170086
 21
1.0658141206
  0
LINE
  5
21C
100
AcDbEntity
  8
0
100
AcDbLine
 62
7
  6
CONTINUOUS
 10
19.4767170086
 20
1.0658141206
 11
19.4779056764
 21
1.2714536432
  0
CIRCLE
  5
21D
100
AcDbEntity
  8
0
100
AcDbCircle
 62
7
  6
CONTINUOUS
 10
20.2068232291
 20
1.1717972817
 40
0.175742101
  0
CIRCLE
  5
21E
100
AcDbEntity
  8
0
100
AcDbCircle
 62
7
  6
CONTINUOUS
 10
20.2068232291
 20
1.1717972817
 40
0.1005522074
  0
LINE
  5
21F
100
AcDbEntity
  8
0
100
AcDbLine
 62
7
  6
CONTINUOUS
 10
20.2077290681
 20
1.3756110529
 11
20.2071171714
 21
1.2379342989
  0
LINE
  5
220
100
AcDbEntity
  8
0
100
AcDbLine
 62
7
  6
CONTINUOUS
 10
20.2077290681
 20
1.2016899681
 11
20.2074674401
 21
1.1428236749
  0
LINE
  5
221
100
AcDbEntity
  8
0
100
AcDbLine
 62
7
  6
CONTINUOUS
 10
20.208634907
 20
1.101141841
 11
20.2080230104
 21
0.963465087
  0
LINE
  5
222
100
AcDbEntity
  8
0
100
AcDbLine
 62
7
  6
CONTINUOUS
 10
20.0066328138
 20
1.1745147986
 11
20.1443095678
 21
1.1739029019
  0
LINE
  5
223
100
AcDbEntity
  8
0
100
AcDbLine
 62
7
  6
CONTINUOUS
 10
20.1832714155
 20
1.1727031207
 11
20.238153505
 21
1.172335442
  0
LINE
  5
224
100
AcDbEntity
  8
0
100
AcDbLine
 62
7
  6
CONTINUOUS
 10
20.2756669918
 20
1.1717972817
 11
20.407916871
 21
1.1712095044
  0
CIRCLE
  5
225
100
AcDbEntity
  8
0
100
AcDbCircle
 62
7
  6
CONTINUOUS
 10
20.7509457401
 20
1.1693297793
 40
0.1722024983
  0
CIRCLE
  5
226
100
AcDbEntity
  8
0
100
AcDbCircle
 62
7
  6
CONTINUOUS
 10
20.7509457401
 20
1.1693297793
 40
0.0985164967
  0
LINE
  5
227
100
AcDbEntity
  8
0
100
AcDbLine
 62
7
  6
CONTINUOUS
 10
20.7169767782
 20
1.170462078
 11
20.7825395137
 21
1.1682766535
  0
LINE
  5
228
100
AcDbEntity
  8
0
100
AcDbLine
 62
7
  6
CONTINUOUS
 10
20.8177513651
 20
1.1693297793
 11
20.947965719
 21
1.1693297793
  0
LINE
  5
229
100
AcDbEntity
  8
0
100
AcDbLine
 62
7
  6
CONTINUOUS
 10
20.6875370113
 20
1.170462078
 11
20.5573226574
 21
1.170462078
  0
LINE
  5
22A
100
AcDbEntity
  8
0
100
AcDbLine
 62
7
  6
CONTINUOUS
 10
20.7486811426
 20
1.1987695462
 11
20.7486811426
 21
1.1432869085
  0
LINE
  5
22B
100
AcDbEntity
  8
0
100
AcDbLine
 62
7
  6
CONTINUOUS
 10
20.7498134414
 20
1.1059210505
 11
20.7498134414
 21
0.9757066966
  0
LINE
  5
22C
100
AcDbEntity
  8
0
100
AcDbLine
 62
7
  6
CONTINUOUS
 10
20.7486811426
 20
1.2338708068
 11
20.7486811426
 21
1.3640851607
  0
LINE
  5
22D
100
AcDbEntity
  8
0
100
AcDbLine
 62
7
  6
CONTINUOUS
 10
21.0702539817
 20
1.2701043662
 11
21.4790138229
 21
1.3448360823
  0
LINE
  5
22E
100
AcDbEntity
  8
0
100
AcDbLine
 62
7
  6
CONTINUOUS
 10
21.4790138229
 20
1.3448360823
 11
21.4790138229
 21
0.9779712941
  0
LINE
  5
22F
100
AcDbEntity
  8
0
100
AcDbLine
 62
7
  6
CONTINUOUS
 10
21.4790138229
 20
0.9779712941
 11
21.069121683
 21
1.0617614
  0
LINE
  5
230
100
AcDbEntity
  8
0
100
AcDbLine
 62
7
  6
CONTINUOUS
 10
21.0702539817
 20
1.2701043662
 11
21.069121683
 21
1.0617614
  0
LINE
  5
231
100
AcDbEntity
  8
0
100
AcDbLine
 62
7
  6
CONTINUOUS
 10
21.4790138229
 20
1.1693297793
 11
21.3159628059
 21
1.1693297793
  0
LINE
  5
232
100
AcDbEntity
  8
0
100
AcDbLine
 62
7
  6
CONTINUOUS
 10
21.2876553377
 20
1.1693297793
 11
21.2502894796
 21
1.1693297793
  0
LINE
  5
233
100
AcDbEntity
  8
0
100
AcDbLine
 62
7
  6
CONTINUOUS
 10
21.2208497126
 20
1.1659328831
 11
21.0713862804
 21
1.1659328831
  0
LINE
  5
234
100
AcDbEntity
  8
0
100
AcDbLine
 62
7
  6
CONTINUOUS
 10
20.4796138713
 20
1.5284908897
 11
20.4766766948
 21
0.9294458646
  0
ENDBLK
  5
235
100
AcDbEntity
  8
0
  6
BYBLOCK
 62
0
100
AcDbBlockEnd
  0
BLOCK
  5
236
100
AcDbEntity
  8
0
100
AcDbBlockBegin
  2
*T1
 70
1
 10
0.0
 20
0.0
  3
*T1
  1

  0
LINE
  5
237
100
AcDbEntity
  8
0
100
AcDbLine
 62
2
  6
CONTINUOUS
 10
9.275
 20
0.0
 11
-0.0
 21
0.0
  0
LINE
  5
238
100
AcDbEntity
  8
0
100
AcDbLine
 62
2
  6
CONTINUOUS
 10
9.275
 20
0.0
 11
9.275
 21
1.25
  0
LINE
  5
239
100
AcDbEntity
  8
0
100
AcDbLine
 62
2
  6
CONTINUOUS
 10
9.275
 20
0.625
 11
-0.0
 21
0.625
  0
LINE
  5
23A
100
AcDbEntity
  8
0
100
AcDbLine
 62
2
  6
CONTINUOUS
 10
9.275
 20
1.25
 11
-0.0
 21
1.25
  0
LINE
  5
23B
100
AcDbEntity
  8
0
100
AcDbLine
 62
2
  6
CONTINUOUS
 10
6.8
 20
0.0
 11
6.8
 21
1.25
  0
LINE
  5
23C
100
AcDbEntity
  8
0
100
AcDbLine
 62
2
  6
CONTINUOUS
 10
6.4
 20
0.0
 11
6.4
 21
0.625
  0
LINE
  5
23D
100
AcDbEntity
  8
0
100
AcDbLine
 62
2
  6
CONTINUOUS
 10
5.9
 20
0.0
 11
5.9
 21
0.625
  0
LINE
  5
23E
100
AcDbEntity
  8
0
100
AcDbLine
 62
2
  6
CONTINUOUS
 10
5.2
 20
0.0
 11
5.2
 21
0.625
  0
LINE
  5
23F
100
AcDbEntity
  8
0
100
AcDbLine
 62
2
  6
CONTINUOUS
 10
4.1
 20
0.0
 11
4.1
 21
1.25
  0
LINE
  5
240
100
AcDbEntity
  8
0
100
AcDbLine
 62
2
  6
CONTINUOUS
 10
-0.0
 20
0.0
 11
-0.0
 21
1.25
  0
MTEXT
  5
241
100
AcDbEntity
  8
0
100
AcDbMText
 62
2
  6
CONTINUOUS
  7
STANDARD
 71
2
 72
1
 10
6.6
 20
0.325
 30
0.0
 11
1.0
 21
0.0
 31
0.0
 44
0.9
  1
2
 40
0.125
 41
0.2
  0
MTEXT
  5
242
100
AcDbEntity
  8
0
100
AcDbMText
 62
2
  6
CONTINUOUS
  7
STANDARD
 71
2
 72
1
 10
6.15
 20
0.325
 30
0.0
 11
1.0
 21
0.0
 31
0.0
 44
0.9
  1
C
 40
0.125
 41
0.2
  0
MTEXT
  5
243
100
AcDbEntity
  8
0
100
AcDbMText
 62
2
  6
CONTINUOUS
  7
STANDARD
 71
2
 72
1
 10
5.55
 20
0.325
 30
0.0
 11
1.0
 21
0.0
 31
0.0
 44
0.9
  1
1.000
 40
0.125
 41
1.0
  0
MTEXT
  5
244
100
AcDbEntity
  8
0
100
AcDbMText
 62
2
  6
CONTINUOUS
  7
STANDARD
 71
2
 72
1
 10
4.65
 20
0.325
 30
0.0
 11
1.0
 21
0.0
 31
0.0
 44
0.9
  1
May-17-22
 40
0.125
 41
1.8
  0
MTEXT
  5
245
100
AcDbEntity
  8
0
100
AcDbMText
 62
2
  6
CONTINUOUS
  7
STANDARD
 71
2
 72
1
 10
2.05
 20
0.4625
 30
0.0
 11
1.0
 21
0.0
 31
0.0
 44
0.9
  1
T-21A Line mount\P(See Technical Data for Body Features)
 40
0.125
 41
7.6
  0
MTEXT
  5
246
100
AcDbEntity
  8
0
100
AcDbMText
 62
2
  6
CONTINUOUS
  7
STANDARD
 71
1
 72
1
 10
6.45
 20
0.5625
 30
0.0
 11
1.0
 21
0.0
 31
0.0
 44
0.9
  1
SHEET
 40
0.06
 41
0.48
  0
MTEXT
  5
247
100
AcDbEntity
  8
0
100
AcDbMText
 62
2
  6
CONTINUOUS
  7
STANDARD
 71
1
 72
1
 10
5.95
 20
0.5625
 30
0.0
 11
1.0
 21
0.0
 31
0.0
 44
0.9
  1
DWG SIZE
 40
0.06
 41
0.768
  0
MTEXT
  5
248
100
AcDbEntity
  8
0
100
AcDbMText
 62
2
  6
CONTINUOUS
  7
STANDARD
 71
1
 72
1
 10
5.25
 20
0.5625
 30
0.0
 11
1.0
 21
0.0
 31
0.0
 44
0.9
  1
SCALE
 40
0.06
 41
0.48
  0
MTEXT
  5
249
100
AcDbEntity
  8
0
100
AcDbMText
 62
2
  6
CONTINUOUS
  7
STANDARD
 71
1
 72
1
 10
4.15
 20
0.5625
 30
0.0
 11
1.0
 21
0.0
 31
0.0
 44
0.9
  1
DATE
 40
0.06
 41
0.384
  0
MTEXT
  5
24A
100
AcDbEntity
  8
0
100
AcDbMText
 62
2
  6
CONTINUOUS
  7
STANDARD
 71
1
 72
1
 10
0.05
 20
0.5625
 30
0.0
 11
1.0
 21
0.0
 31
0.0
 44
0.9
  1
DESCRIPTION
 40
0.06
 41
1.056
  0
MTEXT
  5
24B
100
AcDbEntity
  8
0
100
AcDbMText
 62
2
  6
CONTINUOUS
  7
STANDARD
 71
2
 72
1
 10
5.45
 20
1.0375
 30
0.0
 11
1.0
 21
0.0
 31
0.0
 44
0.9
  1
ALL DIMENSIONS IN INCH\PVIEWS ARE THIRD ANGLE
 40
0.12
 41
4.224
  0
MTEXT
  5
24C
100
AcDbEntity
  8
0
100
AcDbMText
 62
2
  6
CONTINUOUS
  7
STANDARD
 71
2
 72
1
 10
2.05
 20
0.95
 30
0.0
 11
1.0
 21
0.0
 31
0.0
 44
0.9
  1
M4T
 40
0.125
 41
0.6
  0
MTEXT
  5
24D
100
AcDbEntity
  8
0
100
AcDbMText
 62
2
  6
CONTINUOUS
  7
STANDARD
 71
1
 72
1
 10
0.05
 20
1.1875
 30
0.0
 11
1.0
 21
0.0
 31
0.0
 44
0.9
  1
MODEL
 40
0.06
 41
0.48
  0
ENDBLK
  5
24E
100
AcDbEntity
  8
0
  6
BYBLOCK
 62
0
100
AcDbBlockEnd
  0
BLOCK
  5
24F
100
AcDbEntity
  8
0
100
AcDbBlockBegin
  2
*T2
 70
1
 10
0.0
 20
0.0
  3
*T2
  1

  0
LINE
  5
250
100
AcDbEntity
  8
0
100
AcDbLine
 62
2
  6
CONTINUOUS
 10
0.0
 20
0.0
 11
9.055
 21
0.0
  0
LINE
  5
251
100
AcDbEntity
  8
0
100
AcDbLine
 62
2
  6
CONTINUOUS
 10
0.0
 20
0.0
 11
0.0
 21
-2.594
  0
LINE
  5
252
100
AcDbEntity
  8
0
100
AcDbLine
 62
2
  6
CONTINUOUS
 10
0.0
 20
-0.344
 11
9.055
 21
-0.344
  0
LINE
  5
253
100
AcDbEntity
  8
0
100
AcDbLine
 62
2
  6
CONTINUOUS
 10
0.0
 20
-0.594
 11
9.055
 21
-0.594
  0
LINE
  5
254
100
AcDbEntity
  8
0
100
AcDbLine
 62
2
  6
CONTINUOUS
 10
0.0
 20
-0.844
 11
9.055
 21
-0.844
  0
LINE
  5
255
100
AcDbEntity
  8
0
100
AcDbLine
 62
2
  6
CONTINUOUS
 10
0.0
 20
-1.094
 11
9.055
 21
-1.094
  0
LINE
  5
256
100
AcDbEntity
  8
0
100
AcDbLine
 62
2
  6
CONTINUOUS
 10
0.0
 20
-1.344
 11
9.055
 21
-1.344
  0
LINE
  5
257
100
AcDbEntity
  8
0
100
AcDbLine
 62
2
  6
CONTINUOUS
 10
0.0
 20
-1.594
 11
9.055
 21
-1.594
  0
LINE
  5
258
100
AcDbEntity
  8
0
100
AcDbLine
 62
2
  6
CONTINUOUS
 10
0.0
 20
-1.844
 11
9.055
 21
-1.844
  0
LINE
  5
259
100
AcDbEntity
  8
0
100
AcDbLine
 62
2
  6
CONTINUOUS
 10
0.0
 20
-2.094
 11
9.055
 21
-2.094
  0
LINE
  5
25A
100
AcDbEntity
  8
0
100
AcDbLine
 62
2
  6
CONTINUOUS
 10
0.0
 20
-2.344
 11
9.055
 21
-2.344
  0
LINE
  5
25B
100
AcDbEntity
  8
0
100
AcDbLine
 62
2
  6
CONTINUOUS
 10
0.0
 20
-2.594
 11
9.055
 21
-2.594
  0
LINE
  5
25C
100
AcDbEntity
  8
0
100
AcDbLine
 62
2
  6
CONTINUOUS
 10
3.055
 20
0.0
 11
3.055
 21
-2.594
  0
LINE
  5
25D
100
AcDbEntity
  8
0
100
AcDbLine
 62
2
  6
CONTINUOUS
 10
9.055
 20
0.0
 11
9.055
 21
-2.594
  0
MTEXT
  5
25E
100
AcDbEntity
  8
0
100
AcDbMText
 62
2
  6
CONTINUOUS
  7
STANDARD
 71
2
 72
1
 10
1.5275
 20
-0.0995
 30
0.0
 11
1.0
 21
0.0
 31
0.0
 44
0.9
  1
Technical Data
 40
0.145
 41
3.248
  0
MTEXT
  5
25F
100
AcDbEntity
  8
0
100
AcDbMText
 62
2
  6
CONTINUOUS
  7
STANDARD
 71
2
 72
1
 10
4.555
 20
-0.0995
 30
0.0
 11
1.0
 21
0.0
 31
0.0
 44
0.9
  1
U.S. Units
 40
0.145
 41
2.32
  0
MTEXT
  5
260
100
AcDbEntity
  8
0
100
AcDbMText
 62
2
  6
CONTINUOUS
  7
STANDARD
 71
2
 72
1
 10
7.555
 20
-0.0995
 30
0.0
 11
1.0
 21
0.0
 31
0.0
 44
0.9
  1
Metric Units
 40
0.145
 41
2.784
  0
MTEXT
  5
261
100
AcDbEntity
  8
0
100
AcDbMText
 62
2
  6
CONTINUOUS
  7
STANDARD
 71
2
 72
1
 10
1.5275
 20
-0.4065
 30
0.0
 11
1.0
 21
0.0
 31
0.0
 44
0.9
  1
Cavity
 40
0.125
 41
1.2
  0
MTEXT
  5
262
100
AcDbEntity
  8
0
100
AcDbMText
 62
2
  6
CONTINUOUS
  7
STANDARD
 71
2
 72
1
 10
6.055
 20
-0.4065
 30
0.0
 11
1.0
 21
0.0
 31
0.0
 44
0.9
  1
T-21A
 40
0.125
 41
1.0
  0
MTEXT
  5
263
100
AcDbEntity
  8
0
100
AcDbMText
 62
2
  6
CONTINUOUS
  7
STANDARD
 71
2
 72
1
 10
1.5275
 20
-0.6565
 30
0.0
 11
1.0
 21
0.0
 31
0.0
 44
0.9
  1
Body Features
 40
0.125
 41
2.6
  0
MTEXT
  5
264
100
AcDbEntity
  8
0
100
AcDbMText
 62
2
  6
CONTINUOUS
  7
STANDARD
 71
2
 72
1
 10
6.055
 20
-0.6565
 30
0.0
 11
1.0
 21
0.0
 31
0.0
 44
0.9
  1
Ninety degree with reverse flow check - reducing
 40
0.125
 41
9.6
  0
MTEXT
  5
265
100
AcDbEntity
  8
0
100
AcDbMText
 62
2
  6
CONTINUOUS
  7
STANDARD
 71
2
 72
1
 10
1.5275
 20
-0.9065
 30
0.0
 11
1.0
 21
0.0
 31
0.0
 44
0.9
  1
Body Type
 40
0.125
 41
1.8
  0
MTEXT
  5
266
100
AcDbEntity
  8
0
100
AcDbMText
 62
2
  6
CONTINUOUS
  7
STANDARD
 71
2
 72
1
 10
6.055
 20
-0.9065
 30
0.0
 11
1.0
 21
0.0
 31
0.0
 44
0.9
  1
Line mount
 40
0.125
 41
2.0
  0
MTEXT
  5
267
100
AcDbEntity
  8
0
100
AcDbMText
 62
2
  6
CONTINUOUS
  7
STANDARD
 71
2
 72
1
 10
1.5275
 20
-1.1565
 30
0.0
 11
1.0
 21
0.0
 31
0.0
 44
0.9
  1
Interface
 40
0.125
 41
1.8
  0
MTEXT
  5
268
100
AcDbEntity
  8
0
100
AcDbMText
 62
2
  6
CONTINUOUS
  7
STANDARD
 71
2
 72
1
 10
6.055
 20
-1.1565
 30
0.0
 11
1.0
 21
0.0
 31
0.0
 44
0.9
  1
None
 40
0.125
 41
0.8
  0
MTEXT
  5
269
100
AcDbEntity
  8
0
100
AcDbMText
 62
2
  6
CONTINUOUS
  7
STANDARD
 71
2
 72
1
 10
1.5275
 20
-1.4065
 30
0.0
 11
1.0
 21
0.0
 31
0.0
 44
0.9
  1
Open Cavity Quantity
 40
0.125
 41
4.0
  0
MTEXT
  5
26A
100
AcDbEntity
  8
0
100
AcDbMText
 62
2
  6
CONTINUOUS
  7
STANDARD
 71
2
 72
1
 10
6.055
 20
-1.4065
 30
0.0
 11
1.0
 21
0.0
 31
0.0
 44
0.9
  1
1
 40
0.125
 41
0.2
  0
MTEXT
  5
26B
100
AcDbEntity
  8
0
100
AcDbMText
 62
2
  6
CONTINUOUS
  7
STANDARD
 71
2
 72
1
 10
1.5275
 20
-1.6565
 30
0.0
 11
1.0
 21
0.0
 31
0.0
 44
0.9
  1
Weight
 40
0.125
 41
1.2
  0
MTEXT
  5
26C
100
AcDbEntity
  8
0
100
AcDbMText
 62
2
  6
CONTINUOUS
  7
STANDARD
 71
2
 72
1
 10
4.555
 20
-1.6565
 30
0.0
 11
1.0
 21
0.0
 31
0.0
 44
0.9
  1
1.398 lb.
 40
0.125
 41
1.8
  0
MTEXT
  5
26D
100
AcDbEntity
  8
0
100
AcDbMText
 62
2
  6
CONTINUOUS
  7
STANDARD
 71
2
 72
1
 10
7.555
 20
-1.6565
 30
0.0
 11
1.0
 21
0.0
 31
0.0
 44
0.9
  1
0,634 kg.
 40
0.125
 41
1.8
  0
MTEXT
  5
26E
100
AcDbEntity
  8
0
100
AcDbMText
 62
2
  6
CONTINUOUS
  7
STANDARD
 71
2
 72
1
 10
1.5275
 20
-1.9065
 30
0.0
 11
1.0
 21
0.0
 31
0.0
 44
0.9
  1
Mounting Hole Diameter
 40
0.125
 41
4.4
  0
MTEXT
  5
26F
100
AcDbEntity
  8
0
100
AcDbMText
 62
2
  6
CONTINUOUS
  7
STANDARD
 71
2
 72
1
 10
4.555
 20
-1.9065
 30
0.0
 11
1.0
 21
0.0
 31
0.0
 44
0.9
  1
.34 in.
 40
0.125
 41
1.4
  0
MTEXT
  5
270
100
AcDbEntity
  8
0
100
AcDbMText
 62
2
  6
CONTINUOUS
  7
STANDARD
 71
2
 72
1
 10
7.555
 20
-1.9065
 30
0.0
 11
1.0
 21
0.0
 31
0.0
 44
0.9
  1
8.6 mm
 40
0.125
 41
1.2
  0
MTEXT
  5
271
100
AcDbEntity
  8
0
100
AcDbMText
 62
2
  6
CONTINUOUS
  7
STANDARD
 71
2
 72
1
 10
1.5275
 20
-2.1565
 30
0.0
 11
1.0
 21
0.0
 31
0.0
 44
0.9
  1
Mounting Hole Depth
 40
0.125
 41
3.8
  0
MTEXT
  5
272
100
AcDbEntity
  8
0
100
AcDbMText
 62
2
  6
CONTINUOUS
  7
STANDARD
 71
2
 72
1
 10
6.055
 20
-2.1565
 30
0.0
 11
1.0
 21
0.0
 31
0.0
 44
0.9
  1
Through
 40
0.125
 41
1.4
  0
MTEXT
  5
273
100
AcDbEntity
  8
0
100
AcDbMText
 62
2
  6
CONTINUOUS
  7
STANDARD
 71
2
 72
1
 10
1.5275
 20
-2.4065
 30
0.0
 11
1.0
 21
0.0
 31
0.0
 44
0.9
  1
Mounting Hole Quantity
 40
0.125
 41
4.4
  0
MTEXT
  5
274
100
AcDbEntity
  8
0
100
AcDbMText
 62
2
  6
CONTINUOUS
  7
STANDARD
 71
2
 72
1
 10
6.055
 20
-2.4065
 30
0.0
 11
1.0
 21
0.0
 31
0.0
 44
0.9
  1
2
 40
0.125
 41
0.2
  0
ENDBLK
  5
275
100
AcDbEntity
  8
0
  6
BYBLOCK
 62
0
100
AcDbBlockEnd
  0
BLOCK
  5
276
100
AcDbEntity
  8
0
100
AcDbBlockBegin
  2
*T3
 70
1
 10
0.0
 20
0.0
  3
*T3
  1

  0
LINE
  5
277
100
AcDbEntity
  8
0
100
AcDbLine
 62
2
  6
CONTINUOUS
 10
0.0
 20
0.0
 11
4.6
 21
0.0
  0
LINE
  5
278
100
AcDbEntity
  8
0
100
AcDbLine
 62
2
  6
CONTINUOUS
 10
0.0
 20
0.0
 11
0.0
 21
-1.18775
  0
LINE
  5
279
100
AcDbEntity
  8
0
100
AcDbLine
 62
2
  6
CONTINUOUS
 10
0.0
 20
-0.34375
 11
4.6
 21
-0.34375
  0
LINE
  5
27A
100
AcDbEntity
  8
0
100
AcDbLine
 62
2
  6
CONTINUOUS
 10
0.0
 20
-0.68775
 11
4.6
 21
-0.68775
  0
LINE
  5
27B
100
AcDbEntity
  8
0
100
AcDbLine
 62
2
  6
CONTINUOUS
 10
0.0
 20
-0.93775
 11
4.6
 21
-0.93775
  0
LINE
  5
27C
100
AcDbEntity
  8
0
100
AcDbLine
 62
2
  6
CONTINUOUS
 10
0.0
 20
-1.18775
 11
4.6
 21
-1.18775
  0
LINE
  5
27D
100
AcDbEntity
  8
0
100
AcDbLine
 62
2
  6
CONTINUOUS
 10
1.3
 20
-0.34375
 11
1.3
 21
-1.18775
  0
LINE
  5
27E
100
AcDbEntity
  8
0
100
AcDbLine
 62
2
  6
CONTINUOUS
 10
3.3
 20
-0.34375
 11
3.3
 21
-1.18775
  0
LINE
  5
27F
100
AcDbEntity
  8
0
100
AcDbLine
 62
2
  6
CONTINUOUS
 10
4.6
 20
0.0
 11
4.6
 21
-1.18775
  0
MTEXT
  5
280
100
AcDbEntity
  8
0
100
AcDbMText
 62
2
  6
CONTINUOUS
  7
STANDARD
 71
2
 72
1
 10
2.3
 20
-0.099375
 30
0.0
 11
1.0
 21
0.0
 31
0.0
 44
0.9
  1
Port Headings
 40
0.145
 41
3.016
  0
MTEXT
  5
281
100
AcDbEntity
  8
0
100
AcDbMText
 62
2
  6
CONTINUOUS
  7
STANDARD
 71
2
 72
1
 10
0.65
 20
-0.44325
 30
0.0
 11
1.0
 21
0.0
 31
0.0
 44
0.9
  1
Product
 40
0.145
 41
1.624
  0
MTEXT
  5
282
100
AcDbEntity
  8
0
100
AcDbMText
 62
2
  6
CONTINUOUS
  7
STANDARD
 71
2
 72
1
 10
2.3
 20
-0.44325
 30
0.0
 11
1.0
 21
0.0
 31
0.0
 44
0.9
  1
Port
 40
0.145
 41
0.928
  0
MTEXT
  5
283
100
AcDbEntity
  8
0
100
AcDbMText
 62
2
  6
CONTINUOUS
  7
STANDARD
 71
2
 72
1
 10
3.95
 20
-0.44325
 30
0.0
 11
1.0
 21
0.0
 31
0.0
 44
0.9
  1
Size
 40
0.145
 41
0.928
  0
MTEXT
  5
284
100
AcDbEntity
  8
0
100
AcDbMText
 62
2
  6
CONTINUOUS
  7
STANDARD
 71
2
 72
1
 10
0.65
 20
-0.75025
 30
0.0
 11
1.0
 21
0.0
 31
0.0
 44
0.9
  1
M4T
 40
0.125
 41
0.6
  0
MTEXT
  5
285
100
AcDbEntity
  8
0
100
AcDbMText
 62
2
  6
CONTINUOUS
  7
STANDARD
 71
2
 72
1
 10
2.3
 20
-0.75025
 30
0.0
 11
1.0
 21
0.0
 31
0.0
 44
0.9
  1
Ports 1, 2, 3, 4
 40
0.125
 41
3.2
  0
MTEXT
  5
286
100
AcDbEntity
  8
0
100
AcDbMText
 62
2
  6
CONTINUOUS
  7
STANDARD
 71
2
 72
1
 10
3.95
 20
-0.75025
 30
0.0
 11
1.0
 21
0.0
 31
0.0
 44
0.9
  1
1/4" BSPP
 40
0.125
 41
1.8
  0
MTEXT
  5
287
100
AcDbEntity
  8
0
100
AcDbMText
 62
2
  6
CONTINUOUS
  7
STANDARD
 71
2
 72
1
 10
0.65
 20
-1.00025
 30
0.0
 11
1.0
 21
0.0
 31
0.0
 44
0.9
  1
M4T
 40
0.125
 41
0.6
  0
MTEXT
  5
288
100
AcDbEntity
  8
0
100
AcDbMText
 62
2
  6
CONTINUOUS
  7
STANDARD
 71
2
 72
1
 10
2.3
 20
-1.00025
 30
0.0
 11
1.0
 21
0.0
 31
0.0
 44
0.9
  1
Gage Port
 40
0.125
 41
1.8
  0
MTEXT
  5
289
100
AcDbEntity
  8
0
100
AcDbMText
 62
2
  6
CONTINUOUS
  7
STANDARD
 71
2
 72
1
 10
3.95
 20
-1.00025
 30
0.0
 11
1.0
 21
0.0
 31
0.0
 44
0.9
  1
1/4" BSPP
 40
0.125
 41
1.8
  0
ENDBLK
  5
28A
100
AcDbEntity
  8
0
  6
BYBLOCK
 62
0
100
AcDbBlockEnd
  0
ENDSEC
  0
SECTION
  2
ENTITIES
  0
IMAGE
  5
28B
100
AcDbEntity
  8
0
100
AcDbRasterImage
 62
7
  6
CONTINUOUS
 10
19.2297077316
 20
0.3094318264
 30
0.0
 11
0.0066666667
 21
0.0
 31
0.0
 12
0.0
 22
0.0066666667
 32
0.0
 13
369.0
 23
92.0
340
       3A6
 70
9
280
0
281
50
282
50
283
0
360
       3A0
 71
1
 91
2
 14
-0.5
 24
-0.5
 14
368.5
 24
91.5
  0
INSERT
  5
28C
100
AcDbEntity
  8
0
100
AcDbBlockReference
 62
2
  6
CONTINUOUS
  2
SUN_FIRST_THIRD_ANGLE_BL0
 10
20.4816717061
 20
1.2289683772
  0
ACAD_TABLE
  5
28D
100
AcDbEntity
  8
0
 62
2
  6
CONTINUOUS
100
AcDbBlockReference
  2
*T1
 10
12.42375
 20
0.30125
 30
0.0
100
AcDbTable
342
       3A8
343
20F
 11
1.0
 21
0.0
 31
0.0
 90
6
 91
4
 92
6
 93
20
 94
0
 95
0
 96
0
 70
1
 41
0.0
141
0.525
141
0.1
141
0.525
141
0.1
142
4.1
142
1.1
142
0.7
142
0.5
142
0.4
142
2.475
171
1
172
0
173
0
174
0
175
1
176
1
 91
33
178
0
145
0.0
301
CELL_VALUE
 90
4
  1
T-21A Line mount\P(See Technical Data for Body Features)
304
ACVALUE_END
170
2
140
0.125
171
1
172
0
173
0
174
0
175
1
176
1
 91
33
178
0
145
0.0
301
CELL_VALUE
 90
4
  1
May-17-22
304
ACVALUE_END
170
5
140
0.125
171
1
172
0
173
0
174
0
175
1
176
1
 91
33
178
0
145
0.0
301
CELL_VALUE
 90
4
  1
1.000
304
ACVALUE_END
170
5
140
0.125
171
1
172
0
173
0
174
0
175
1
176
1
 91
33
178
0
145
0.0
301
CELL_VALUE
 90
4
  1
C
304
ACVALUE_END
170
5
140
0.125
171
1
172
0
173
0
174
0
175
1
176
1
 91
33
178
0
145
0.0
301
CELL_VALUE
 90
4
  1
2
304
ACVALUE_END
170
5
140
0.125
171
1
172
0
173
0
174
0
175
1
176
1
 91
33
178
0
145
0.0
301
CELL_VALUE
 90
4
  1
 
304
ACVALUE_END
170
1
140
0.125
171
1
172
0
173
0
174
0
175
1
176
1
 91
33
178
0
145
0.0
301
CELL_VALUE
 90
4
  1
DESCRIPTION
304
ACVALUE_END
170
1
140
0.06
171
1
172
0
173
0
174
0
175
1
176
1
 91
33
178
0
145
0.0
301
CELL_VALUE
 90
4
  1
DATE
304
ACVALUE_END
170
1
140
0.06
171
1
172
0
173
0
174
0
175
1
176
1
 91
33
178
0
145
0.0
301
CELL_VALUE
 90
4
  1
SCALE
304
ACVALUE_END
170
1
140
0.06
171
1
172
0
173
0
174
0
175
1
176
1
 91
33
178
0
145
0.0
301
CELL_VALUE
 90
4
  1
DWG SIZE
304
ACVALUE_END
170
1
140
0.06
171
1
172
0
173
0
174
0
175
1
176
1
 91
33
178
0
145
0.0
301
CELL_VALUE
 90
4
  1
SHEET
304
ACVALUE_END
170
1
140
0.06
171
1
172
0
173
0
174
0
175
1
176
1
 91
33
178
0
145
0.0
301
CELL_VALUE
 90
4
  1
 
304
ACVALUE_END
170
1
140
0.125
171
1
172
0
173
0
174
0
175
1
176
1
 91
33
178
0
145
0.0
301
CELL_VALUE
 90
4
  1
M4T
304
ACVALUE_END
170
5
140
0.125
171
1
172
0
173
0
174
0
175
4
176
1
 91
33
178
0
145
0.0
301
CELL_VALUE
 90
4
  1
ALL DIMENSIONS IN INCH\PVIEWS ARE THIRD ANGLE
304
ACVALUE_END
170
5
140
0.12
171
1
172
0
173
1
174
0
175
1
176
1
 91
1
178
0
145
0.0
170
1
171
1
172
0
173
1
174
0
175
1
176
1
 91
1
178
0
145
0.0
170
1
171
1
172
0
173
1
174
0
175
1
176
1
 91
1
178
0
145
0.0
170
5
171
1
172
0
173
0
174
0
175
1
176
1
 91
33
178
0
145
0.0
301
CELL_VALUE
 90
4
  1
 
304
ACVALUE_END
170
1
140
0.125
171
1
172
0
173
0
174
0
175
1
176
1
 91
33
178
0
145
0.0
301
CELL_VALUE
 90
4
  1
MODEL
304
ACVALUE_END
170
1
140
0.06
171
1
172
0
173
0
174
0
175
1
176
1
 91
33
178
0
145
0.0
301
CELL_VALUE
 90
4
  1
 
304
ACVALUE_END
170
1
140
0.125
171
1
172
0
173
0
174
0
175
1
176
1
 91
33
178
0
145
0.0
301
CELL_VALUE
 90
4
  1
 
304
ACVALUE_END
170
1
140
0.125
171
1
172
0
173
0
174
0
175
1
176
1
 91
33
178
0
145
0.0
301
CELL_VALUE
 90
4
  1
 
304
ACVALUE_END
170
1
140
0.125
171
1
172
0
173
0
174
0
175
1
176
1
 91
33
178
0
145
0.0
301
CELL_VALUE
 90
4
  1
 
304
ACVALUE_END
170
1
140
0.125
171
1
172
0
173
0
174
0
175
1
176
1
 91
33
178
0
145
0.0
301
CELL_VALUE
 90
4
  1
 
304
ACVALUE_END
170
1
140
0.125
  0
ACAD_TABLE
  5
28E
100
AcDbEntity
  8
0
 62
2
  6
CONTINUOUS
100
AcDbBlockReference
  2
*T2
 10
12.4237499994
 20
16.47875
 30
0.0
100
AcDbTable
342
       3A7
343
210
 11
1.0
 21
0.0
 31
0.0
 90
22
 91
10
 92
3
 93
16
 94
0
 95
0
 96
0
 41
0.028
141
0.344
141
0.25
141
0.25
141
0.25
141
0.25
141
0.25
141
0.25
141
0.25
141
0.25
141
0.25
142
3.055
142
3.0
142
3.0
171
1
172
0
173
0
174
0
175
1
176
1
 91
33
178
0
145
0.0
301
CELL_VALUE
 90
4
  1
Technical Data
304
ACVALUE_END
170
5
140
0.145
171
1
172
0
173
0
174
0
175
1
176
1
 91
33
178
0
145
0.0
301
CELL_VALUE
 90
4
  1
U.S. Units
304
ACVALUE_END
170
5
140
0.145
171
1
172
0
173
0
174
0
175
1
176
1
 91
33
178
0
145
0.0
301
CELL_VALUE
 90
4
  1
Metric Units
304
ACVALUE_END
170
5
140
0.145
171
1
172
0
173
0
174
0
175
1
176
1
 91
33
178
0
145
0.0
301
CELL_VALUE
 90
4
  1
Cavity
304
ACVALUE_END
170
5
140
0.125
171
1
172
0
173
0
174
0
175
2
176
1
 91
33
178
0
145
0.0
301
CELL_VALUE
 90
4
  1
T-21A
304
ACVALUE_END
170
5
140
0.125
171
1
172
0
173
1
174
0
175
1
176
1
 91
1
178
0
145
0.0
170
1
171
1
172
0
173
0
174
0
175
1
176
1
 91
33
178
0
145
0.0
301
CELL_VALUE
 90
4
  1
Body Features
304
ACVALUE_END
170
5
140
0.125
171
1
172
0
173
0
174
0
175
2
176
1
 91
33
178
0
145
0.0
301
CELL_VALUE
 90
4
  1
Ninety degree with reverse flow check - reducing
304
ACVALUE_END
170
5
140
0.125
171
1
172
0
173
1
174
0
175
1
176
1
 91
1
178
0
145
0.0
170
1
171
1
172
0
173
0
174
0
175
1
176
1
 91
33
178
0
145
0.0
301
CELL_VALUE
 90
4
  1
Body Type
304
ACVALUE_END
170
5
140
0.125
171
1
172
0
173
0
174
0
175
2
176
1
 91
33
178
0
145
0.0
301
CELL_VALUE
 90
4
  1
Line mount
304
ACVALUE_END
170
5
140
0.125
171
1
172
0
173
1
174
0
175
1
176
1
 91
1
178
0
145
0.0
170
1
171
1
172
0
173
0
174
0
175
1
176
1
 91
33
178
0
145
0.0
301
CELL_VALUE
 90
4
  1
Interface
304
ACVALUE_END
170
5
140
0.125
171
1
172
0
173
0
174
0
175
2
176
1
 91
33
178
0
145
0.0
301
CELL_VALUE
 90
4
  1
None
304
ACVALUE_END
170
5
140
0.125
171
1
172
0
173
1
174
0
175
1
176
1
 91
1
178
0
145
0.0
170
1
171
1
172
0
173
0
174
0
175
1
176
1
 91
33
178
0
145
0.0
301
CELL_VALUE
 90
4
  1
Open Cavity Quantity
304
ACVALUE_END
170
5
140
0.125
171
1
172
0
173
0
174
0
175
2
176
1
 91
33
178
0
145
0.0
301
CELL_VALUE
 90
4
  1
1
304
ACVALUE_END
170
5
140
0.125
171
1
172
0
173
1
174
0
175
1
176
1
 91
1
178
0
145
0.0
170
1
171
1
172
0
173
0
174
0
175
1
176
1
 91
33
178
0
145
0.0
301
CELL_VALUE
 90
4
  1
Weight
304
ACVALUE_END
170
5
140
0.125
171
1
172
0
173
0
174
0
175
1
176
1
 91
33
178
0
145
0.0
301
CELL_VALUE
 90
4
  1
1.398 lb.
304
ACVALUE_END
170
5
140
0.125
171
1
172
0
173
0
174
0
175
1
176
1
 91
33
178
0
145
0.0
301
CELL_VALUE
 90
4
  1
0,634 kg.
304
ACVALUE_END
170
5
140
0.125
171
1
172
0
173
0
174
0
175
1
176
1
 91
33
178
0
145
0.0
301
CELL_VALUE
 90
4
  1
Mounting Hole Diameter
304
ACVALUE_END
170
5
140
0.125
171
1
172
0
173
0
174
0
175
1
176
1
 91
33
178
0
145
0.0
301
CELL_VALUE
 90
4
  1
.34 in.
304
ACVALUE_END
170
5
140
0.125
171
1
172
0
173
0
174
0
175
1
176
1
 91
33
178
0
145
0.0
301
CELL_VALUE
 90
4
  1
8.6 mm
304
ACVALUE_END
170
5
140
0.125
171
1
172
0
173
0
174
0
175
1
176
1
 91
33
178
0
145
0.0
301
CELL_VALUE
 90
4
  1
Mounting Hole Depth
304
ACVALUE_END
170
5
140
0.125
171
1
172
0
173
0
174
0
175
2
176
1
 91
33
178
0
145
0.0
301
CELL_VALUE
 90
4
  1
Through
304
ACVALUE_END
170
5
140
0.125
171
1
172
0
173
1
174
0
175
1
176
1
 91
1
178
0
145
0.0
170
1
171
1
172
0
173
0
174
0
175
1
176
1
 91
33
178
0
145
0.0
301
CELL_VALUE
 90
4
  1
Mounting Hole Quantity
304
ACVALUE_END
170
5
140
0.125
171
1
172
0
173
0
174
0
175
2
176
1
 91
33
178
0
145
0.0
301
CELL_VALUE
 90
4
  1
2
304
ACVALUE_END
170
5
140
0.125
171
1
172
0
173
1
174
0
175
1
176
1
 91
1
178
0
145
0.0
170
1
  0
ACAD_TABLE
  5
28F
100
AcDbEntity
  8
0
 62
2
  6
CONTINUOUS
100
AcDbBlockReference
  2
*T3
 10
0.52125
 20
1.709
 30
0.0
100
AcDbTable
342
       3A7
343
211
 11
1.0
 21
0.0
 31
0.0
 90
22
 91
4
 92
3
 93
16
 94
0
 95
0
 96
0
 41
0.05
141
0.34375
141
0.344
141
0.25
141
0.25
142
1.3
142
2.0
142
1.3
171
1
172
0
173
0
174
0
175
3
176
1
 91
33
178
0
145
0.0
301
CELL_VALUE
 90
4
  1
Port Headings
304
ACVALUE_END
170
5
140
0.145
171
1
172
0
173
1
174
0
175
1
176
1
 91
1
178
0
145
0.0
170
1
171
1
172
0
173
1
174
0
175
1
176
1
 91
1
178
0
145
0.0
170
1
171
1
172
0
173
0
174
0
175
1
176
1
 91
33
178
0
145
0.0
301
CELL_VALUE
 90
4
  1
Product
304
ACVALUE_END
170
5
140
0.145
171
1
172
0
173
0
174
0
175
1
176
1
 91
33
178
0
145
0.0
301
CELL_VALUE
 90
4
  1
Port
304
ACVALUE_END
170
5
140
0.145
171
1
172
0
173
0
174
0
175
1
176
1
 91
33
178
0
145
0.0
301
CELL_VALUE
 90
4
  1
Size
304
ACVALUE_END
170
5
140
0.145
171
1
172
0
173
0
174
0
175
1
176
1
 91
33
178
0
145
0.0
301
CELL_VALUE
 90
4
  1
M4T
304
ACVALUE_END
170
5
140
0.125
171
1
172
0
173
0
174
0
175
1
176
1
 91
33
178
0
145
0.0
301
CELL_VALUE
 90
4
  1
Ports 1, 2, 3, 4
304
ACVALUE_END
170
5
140
0.125
171
1
172
0
173
0
174
0
175
1
176
1
 91
33
178
0
145
0.0
301
CELL_VALUE
 90
4
  1
1/4" BSPP
304
ACVALUE_END
170
5
140
0.125
171
1
172
0
173
0
174
0
175
1
176
1
 91
33
178
0
145
0.0
301
CELL_VALUE
 90
4
  1
M4T
304
ACVALUE_END
170
5
140
0.125
171
1
172
0
173
0
174
0
175
1
176
1
 91
33
178
0
145
0.0
301
CELL_VALUE
 90
4
  1
Gage Port
304
ACVALUE_END
170
5
140
0.125
171
1
172
0
173
0
174
0
175
1
176
1
 91
33
178
0
145
0.0
301
CELL_VALUE
 90
4
  1
1/4" BSPP
304
ACVALUE_END
170
5
140
0.125
  0
MTEXT
  5
290
100
AcDbEntity
  8
0
100
AcDbMText
 62
2
  6
CONTINUOUS
  7
STANDARD
 71
1
 72
1
 10
0.52125
 20
5.75995
 30
0.0
 11
1.0
 21
0.0
 31
0.0
 44
0.6
  3
Notes\P \P1. Important: Carefully consider\P   the maximum system pressure. The\P   pressure rating of the manifold is\P   dependent on the manifold material,\P   with the port type/size a secondary\P   consideration. Manifolds\P   constructed of alu
  1
minum are not\P   rated for pressures higher than\P   3000 psi (210 bar), regardless of\P   the port type/size specified.
 40
0.1
 41
3.04
  0
LINE
  5
291
100
AcDbEntity
  8
0
100
AcDbLine
 62
7
  6
CONTINUOUS
 10
0.30125
 20
0.30125
 11
0.30125
 21
16.69875
  0
LINE
  5
292
100
AcDbEntity
  8
0
100
AcDbLine
 62
7
  6
CONTINUOUS
 10
0.30125
 20
0.30125
 11
21.69875
 21
0.30125
  0
LINE
  5
293
100
AcDbEntity
  8
0
100
AcDbLine
 62
7
  6
CONTINUOUS
 10
0.30125
 20
16.69875
 11
21.69875
 21
16.69875
  0
LINE
  5
294
100
AcDbEntity
  8
0
100
AcDbLine
 62
7
  6
CONTINUOUS
 10
21.69875
 20
0.30125
 11
21.69875
 21
16.69875
  0
LINE
  5
295
100
AcDbEntity
  8
0
100
AcDbLine
 62
7
  6
CONTINUOUS
 10
9.7128729444
 20
10.9840450073
 11
9.389349405
 21
10.6715452467
  0
LINE
  5
296
100
AcDbEntity
  8
0
100
AcDbLine
 62
7
  6
CONTINUOUS
 10
11.2065145113
 20
6.0836455976
 11
11.2228173394
 21
6.0755923126
  0
LINE
  5
297
100
AcDbEntity
  8
0
100
AcDbLine
 62
4
  6
CONTINUOUS
 10
9.543897453
 20
9.6610940118
 11
9.536653009
 21
9.6519371594
  0
LINE
  5
298
100
AcDbEntity
  8
0
100
AcDbLine
 62
4
  6
CONTINUOUS
 10
9.5511418969
 20
9.6026360562
 11
9.536653009
 21
9.584322347
  0
LINE
  5
299
100
AcDbEntity
  8
0
100
AcDbLine
 62
4
  6
CONTINUOUS
 10
9.4931863452
 20
9.6839293586
 11
9.5076752332
 21
9.6925838071
  0
LINE
  5
29A
100
AcDbEntity
  8
0
100
AcDbLine
 62
7
  6
CONTINUOUS
 10
9.389349405
 20
6.6871009772
 11
12.2871270556
 21
6.4861394146
  0
LINE
  5
29B
100
AcDbEntity
  8
0
100
AcDbLine
 62
7
  6
CONTINUOUS
 10
9.389349405
 20
6.6871009772
 11
9.389349405
 21
10.6715452467
  0
LINE
  5
29C
100
AcDbEntity
  8
0
100
AcDbLine
 62
4
  6
CONTINUOUS
 10
9.536653009
 20
9.6519371594
 11
9.5221641211
 21
9.643282704
  0
LINE
  5
29D
100
AcDbEntity
  8
0
100
AcDbLine
 62
4
  6
CONTINUOUS
 10
9.536653009
 20
9.584322347
 11
9.5221641211
 21
9.5756678959
  0
LINE
  5
29E
100
AcDbEntity
  8
0
100
AcDbLine
 62
4
  6
CONTINUOUS
 10
9.543897453
 20
9.6707532681
 11
9.543897453
 21
9.6610940118
  0
LINE
  5
29F
100
AcDbEntity
  8
0
100
AcDbLine
 62
4
  6
CONTINUOUS
 10
9.543897453
 20
7.6712867164
 11
9.543897453
 21
7.555375613
  0
LINE
  5
2A0
100
AcDbEntity
  8
0
100
AcDbLine
 62
4
  6
CONTINUOUS
 10
9.5511418969
 20
9.612295316
 11
9.5511418969
 21
9.6026360562
  0
LINE
  5
2A1
100
AcDbEntity
  8
0
100
AcDbLine
 62
7
  6
CONTINUOUS
 10
10.8716409562
 20
7.4153939025
 11
10.8767415109
 21
7.4151789588
  0
LINE
  5
2A2
100
AcDbEntity
  8
0
100
AcDbLine
 62
4
  6
CONTINUOUS
 10
10.2959398651
 20
9.0804402477
 11
10.3124985949
 21
9.095850624
  0
LINE
  5
2A3
100
AcDbEntity
  8
0
100
AcDbLine
 62
4
  6
CONTINUOUS
 10
10.3373366887
 20
8.9782169929
 11
10.3538954168
 21
8.993627371
  0
LINE
  5
2A4
100
AcDbEntity
  8
0
100
AcDbLine
 62
4
  6
CONTINUOUS
 10
10.2959398651
 20
9.0638815196
 11
10.2959398651
 21
9.0804402477
  0
LINE
  5
2A5
100
AcDbEntity
  8
0
100
AcDbLine
 62
4
  6
CONTINUOUS
 10
10.3538954168
 20
8.993627371
 11
10.3538954168
 21
9.0101861008
  0
LINE
  5
2A6
100
AcDbEntity
  8
0
100
AcDbLine
 62
4
  6
CONTINUOUS
 10
10.387012873
 20
9.0906830412
 11
10.387012873
 21
8.9913306676
  0
LINE
  5
2A7
100
AcDbEntity
  8
0
100
AcDbLine
 62
4
  6
CONTINUOUS
 10
10.4228901335
 20
8.3811372138
 11
10.4228901335
 21
8.4970483173
  0
LINE
  5
2A8
100
AcDbEntity
  8
0
100
AcDbLine
 62
4
  6
CONTINUOUS
 10
10.4284097035
 20
8.9719010578
 11
10.4449684247
 21
8.9873114364
  0
LINE
  5
2A9
100
AcDbEntity
  8
0
100
AcDbLine
 62
4
  6
CONTINUOUS
 10
11.326513728
 20
7.854826314
 11
11.31202484
 21
7.8558311218
  0
LINE
  5
2AA
100
AcDbEntity
  8
0
100
AcDbLine
 62
4
  6
CONTINUOUS
 10
9.4931863452
 20
9.5873367704
 11
9.4859419013
 21
9.5974984332
  0
LINE
  5
2AB
100
AcDbEntity
  8
0
100
AcDbLine
 62
4
  6
CONTINUOUS
 10
10.4449684247
 20
8.9873114364
 11
10.4449684247
 21
9.0866638101
  0
LINE
  5
2AC
100
AcDbEntity
  8
0
100
AcDbLine
 62
4
  6
CONTINUOUS
 10
10.4780858808
 20
8.9684560032
 11
10.4780858808
 21
9.0843671067
  0
LINE
  5
2AD
100
AcDbEntity
  8
0
100
AcDbLine
 62
4
  6
CONTINUOUS
 10
10.4808456783
 20
8.4764703585
 11
10.4808456783
 21
8.3936767129
  0
LINE
  5
2AE
100
AcDbEntity
  8
0
100
AcDbLine
 62
4
  6
CONTINUOUS
 10
10.5360414326
 20
8.9644367721
 11
10.5360414326
 21
9.0803478755
  0
LINE
  5
2AF
100
AcDbEntity
  8
0
100
AcDbLine
 62
4
  6
CONTINUOUS
 10
10.5277620779
 20
8.3738643198
 11
10.5608795341
 21
8.4874787198
  0
LINE
  5
2B0
100
AcDbEntity
  8
0
100
AcDbLine
 62
7
  6
CONTINUOUS
 10
12.2871270556
 20
10.4705836841
 11
12.610650595
 21
10.7830834447
  0
LINE
  5
2B1
100
AcDbEntity
  8
0
100
AcDbLine
 62
7
  6
CONTINUOUS
 10
12.4340821935
 20
10.4015273277
 11
12.4334340104
 21
10.4009127768
  0
LINE
  5
2B2
100
AcDbEntity
  8
0
100
AcDbLine
 62
4
  6
CONTINUOUS
 10
10.8147800529
 20
9.0196204629
 11
10.8313387741
 21
9.0267514792
  0
LINE
  5
2B3
100
AcDbEntity
  8
0
100
AcDbLine
 62
4
  6
CONTINUOUS
 10
10.9720879869
 20
8.9673143004
 11
10.988646708
 21
8.9744453133
  0
LINE
  5
2B4
100
AcDbEntity
  8
0
100
AcDbLine
 62
4
  6
CONTINUOUS
 10
11.319269284
 20
7.9132842696
 11
11.3482470599
 21
7.911274654
  0
LINE
  5
2B5
100
AcDbEntity
  8
0
100
AcDbLine
 62
4
  6
CONTINUOUS
 10
11.31202484
 20
7.9717422252
 11
11.326513728
 21
7.9707374174
  0
LINE
  5
2B6
100
AcDbEntity
  8
0
100
AcDbLine
 62
4
  6
CONTINUOUS
 10
10.3566552143
 20
8.4354068087
 11
10.4008118259
 21
8.4102662315
  0
LINE
  5
2B7
100
AcDbEntity
  8
0
100
AcDbLine
 62
4
  6
CONTINUOUS
 10
10.4642869502
 20
8.4941774383
 11
10.4808456783
 21
8.4764703585
  0
LINE
  5
2B8
100
AcDbEntity
  8
0
100
AcDbLine
 62
4
  6
CONTINUOUS
 10
9.536653009
 20
9.6326186398
 11
9.5511418969
 21
9.612295316
  0
LINE
  5
2B9
100
AcDbEntity
  8
0
100
AcDbLine
 62
4
  6
CONTINUOUS
 10
9.536653009
 20
9.6809149352
 11
9.543897453
 21
9.6707532681
  0
LINE
  5
2BA
100
AcDbEntity
  8
0
100
AcDbLine
 62
4
  6
CONTINUOUS
 10
10.5608795341
 20
8.4874787198
 11
10.593997004
 21
8.369270912
  0
LINE
  5
2BB
100
AcDbEntity
  8
0
100
AcDbLine
 62
4
  6
CONTINUOUS
 10
10.6602318966
 20
8.9558241341
 11
10.6602318966
 21
9.0717352376
  0
LINE
  5
2BC
100
AcDbEntity
  8
0
100
AcDbLine
 62
4
  6
CONTINUOUS
 10
10.6602319163
 20
8.3646775053
 11
10.6602319163
 21
8.4805886087
  0
LINE
  5
2BD
100
AcDbEntity
  8
0
100
AcDbLine
 62
4
  6
CONTINUOUS
 10
10.7099080877
 20
9.0268933584
 11
10.7099080877
 21
8.9523790786
  0
LINE
  5
2BE
100
AcDbEntity
  8
0
100
AcDbLine
 62
4
  6
CONTINUOUS
 10
10.7099081338
 20
8.6162368754
 11
10.7099081338
 21
8.7321479789
  0
LINE
  5
2BF
100
AcDbEntity
  8
0
100
AcDbLine
 62
4
  6
CONTINUOUS
 10
10.7264668286
 20
8.3600840985
 11
10.7264668286
 21
8.4759952019
  0
LINE
  5
2C0
100
AcDbEntity
  8
0
100
AcDbLine
 62
4
  6
CONTINUOUS
 10
10.776143053
 20
8.7275545716
 11
10.776143053
 21
8.6116434682
  0
LINE
  5
2C1
100
AcDbEntity
  8
0
100
AcDbLine
 62
4
  6
CONTINUOUS
 10
10.8147800529
 20
8.953385548
 11
10.8147800529
 21
9.0196204629
  0
LINE
  5
2C2
100
AcDbEntity
  8
0
100
AcDbLine
 62
4
  6
CONTINUOUS
 10
10.8092605092
 20
8.6341848586
 11
10.8340985978
 21
8.7235353409
  0
LINE
  5
2C3
100
AcDbEntity
  8
0
100
AcDbLine
 62
4
  6
CONTINUOUS
 10
10.7595842788
 20
8.9213361412
 11
10.7927017212
 21
9.0294309679
  0
LINE
  5
2C4
100
AcDbEntity
  8
0
100
AcDbLine
 62
4
  6
CONTINUOUS
 10
10.7430255934
 20
8.6636163595
 11
10.776143053
 21
8.7275545716
  0
LINE
  5
2C5
100
AcDbEntity
  8
0
100
AcDbLine
 62
4
  6
CONTINUOUS
 10
10.4808456783
 20
8.3936767129
 11
10.4642869502
 21
8.3782663348
  0
LINE
  5
2C6
100
AcDbEntity
  8
0
100
AcDbLine
 62
4
  6
CONTINUOUS
 10
11.2563461349
 20
8.9889977511
 11
11.2646254678
 21
8.9967029449
  0
LINE
  5
2C7
100
AcDbEntity
  8
0
100
AcDbLine
 62
4
  6
CONTINUOUS
 10
10.4008118259
 20
8.4544228449
 11
10.3566552143
 21
8.4354068087
  0
LINE
  5
2C8
100
AcDbEntity
  8
0
100
AcDbLine
 62
4
  6
CONTINUOUS
 10
11.31202484
 20
7.8558311218
 11
11.2975359521
 21
7.8664951885
  0
LINE
  5
2C9
100
AcDbEntity
  8
0
100
AcDbLine
 62
4
  6
CONTINUOUS
 10
11.326513728
 20
7.9707374174
 11
11.3410026159
 21
7.9600733533
  0
LINE
  5
2CA
100
AcDbEntity
  8
0
100
AcDbLine
 62
4
  6
CONTINUOUS
 10
10.2959398651
 20
8.9893672372
 11
10.30421923
 21
8.9805136964
  0
LINE
  5
2CB
100
AcDbEntity
  8
0
100
AcDbLine
 62
4
  6
CONTINUOUS
 10
10.4780858808
 20
9.0843671067
 11
10.5360414326
 21
8.9644367721
  0
LINE
  5
2CC
100
AcDbEntity
  8
0
100
AcDbLine
 62
4
  6
CONTINUOUS
 10
10.8478975413
 20
8.6066672775
 11
10.8478975413
 21
8.6646228292
  0
LINE
  5
2CD
100
AcDbEntity
  8
0
100
AcDbLine
 62
4
  6
CONTINUOUS
 10
10.8644562164
 20
9.0575722329
 11
10.8644562164
 21
8.9416611295
  0
LINE
  5
2CE
100
AcDbEntity
  8
0
100
AcDbLine
 62
4
  6
CONTINUOUS
 10
10.897573714
 20
8.9393644232
 11
10.897573714
 21
9.0221580705
  0
LINE
  5
2CF
100
AcDbEntity
  8
0
100
AcDbLine
 62
4
  6
CONTINUOUS
 10
10.9003335114
 20
8.3645851329
 11
10.9003335114
 21
8.4473787785
  0
LINE
  5
2D0
100
AcDbEntity
  8
0
100
AcDbLine
 62
4
  6
CONTINUOUS
 10
10.9334509801
 20
8.6007341264
 11
10.9334509801
 21
8.7166452298
  0
LINE
  5
2D1
100
AcDbEntity
  8
0
100
AcDbLine
 62
4
  6
CONTINUOUS
 10
10.9362107116
 20
9.0111992181
 11
10.9362107116
 21
8.99464049
  0
LINE
  5
2D2
100
AcDbEntity
  8
0
100
AcDbLine
 62
4
  6
CONTINUOUS
 10
10.9720879869
 20
8.9424762057
 11
10.9720879869
 21
8.9673143004
  0
LINE
  5
2D3
100
AcDbEntity
  8
0
100
AcDbLine
 62
4
  6
CONTINUOUS
 10
10.9969260608
 20
8.3578864169
 11
10.9969260608
 21
8.4406800624
  0
LINE
  5
2D4
100
AcDbEntity
  8
0
100
AcDbLine
 62
4
  6
CONTINUOUS
 10
11.0217641504
 20
8.9307517872
 11
11.0217641504
 21
8.9969867064
  0
LINE
  5
2D5
100
AcDbEntity
  8
0
100
AcDbLine
 62
4
  6
CONTINUOUS
 10
11.330860463
 20
8.9838301649
 11
11.339139796
 21
8.9915353587
  0
LINE
  5
2D6
100
AcDbEntity
  8
0
100
AcDbLine
 62
4
  6
CONTINUOUS
 10
11.3722572383
 20
8.906445009
 11
11.3805365713
 21
8.9141502002
  0
LINE
  5
2D7
100
AcDbEntity
  8
0
100
AcDbLine
 62
4
  6
CONTINUOUS
 10
10.9003335114
 20
8.4473787785
 11
10.9168922326
 21
8.4627891553
  0
LINE
  5
2D8
100
AcDbEntity
  8
0
100
AcDbLine
 62
4
  6
CONTINUOUS
 10
11.1293958854
 20
8.3321408735
 11
11.0879990548
 21
8.3350117535
  0
LINE
  5
2D9
100
AcDbEntity
  8
0
100
AcDbLine
 62
4
  6
CONTINUOUS
 10
11.0383228913
 20
8.3384568071
 11
11.0134847819
 21
8.3401793358
  0
LINE
  5
2DA
100
AcDbEntity
  8
0
100
AcDbLine
 62
4
  6
CONTINUOUS
 10
10.9500096749
 20
8.3445813495
 11
10.9168922326
 21
8.3468780519
  0
LINE
  5
2DB
100
AcDbEntity
  8
0
100
AcDbLine
 62
4
  6
CONTINUOUS
 10
10.4642869502
 20
8.3782663348
 11
10.4228901335
 21
8.3811372138
  0
LINE
  5
2DC
100
AcDbEntity
  8
0
100
AcDbLine
 62
4
  6
CONTINUOUS
 10
10.7264668286
 20
8.3600840985
 11
10.7761430198
 21
8.3566390429
  0
LINE
  5
2DD
100
AcDbEntity
  8
0
100
AcDbLine
 62
4
  6
CONTINUOUS
 10
11.1928710477
 20
8.3277388561
 11
11.2425472112
 21
8.3242938024
  0
LINE
  5
2DE
100
AcDbEntity
  8
0
100
AcDbLine
 62
4
  6
CONTINUOUS
 10
10.53880123
 20
8.4062162116
 11
10.5829578382
 21
8.4031539404
  0
LINE
  5
2DF
100
AcDbEntity
  8
0
100
AcDbLine
 62
4
  6
CONTINUOUS
 10
11.22598849
 20
8.3916770728
 11
11.1928710477
 21
8.3939737753
  0
LINE
  5
2E0
100
AcDbEntity
  8
0
100
AcDbLine
 62
4
  6
CONTINUOUS
 10
10.7595842986
 20
8.4240223134
 11
10.7264668286
 21
8.4263190177
  0
LINE
  5
2E1
100
AcDbEntity
  8
0
100
AcDbLine
 62
4
  6
CONTINUOUS
 10
10.4228901335
 20
8.4970483173
 11
10.4642869502
 21
8.4941774383
  0
LINE
  5
2E2
100
AcDbEntity
  8
0
100
AcDbLine
 62
4
  6
CONTINUOUS
 10
10.6271144464
 20
8.482885313
 11
10.6933493587
 21
8.4782919063
  0
LINE
  5
2E3
100
AcDbEntity
  8
0
100
AcDbLine
 62
4
  6
CONTINUOUS
 10
10.7264668286
 20
8.4759952019
 11
10.7761430198
 21
8.4725501464
  0
LINE
  5
2E4
100
AcDbEntity
  8
0
100
AcDbLine
 62
4
  6
CONTINUOUS
 10
10.9168922326
 20
8.4627891553
 11
10.9500096749
 21
8.4604924529
  0
LINE
  5
2E5
100
AcDbEntity
  8
0
100
AcDbLine
 62
4
  6
CONTINUOUS
 10
11.0134847819
 20
8.4560904393
 11
11.0383228913
 21
8.4543679105
  0
LINE
  5
2E6
100
AcDbEntity
  8
0
100
AcDbLine
 62
4
  6
CONTINUOUS
 10
11.0879990548
 20
8.4509228569
 11
11.1293958854
 21
8.4480519769
  0
LINE
  5
2E7
100
AcDbEntity
  8
0
100
AcDbLine
 62
4
  6
CONTINUOUS
 10
11.1928710477
 20
8.4436499595
 11
11.2425472112
 21
8.4402049058
  0
LINE
  5
2E8
100
AcDbEntity
  8
0
100
AcDbLine
 62
4
  6
CONTINUOUS
 10
9.5076752332
 20
9.5766727037
 11
9.4931863452
 21
9.5873367704
  0
LINE
  5
2E9
100
AcDbEntity
  8
0
100
AcDbLine
 62
4
  6
CONTINUOUS
 10
10.3538954168
 20
9.0101861008
 11
10.2959398651
 21
9.0638815196
  0
LINE
  5
2EA
100
AcDbEntity
  8
0
100
AcDbLine
 62
4
  6
CONTINUOUS
 10
10.9168922326
 20
8.3468780519
 11
10.9003335114
 21
8.3645851329
  0
LINE
  5
2EB
100
AcDbEntity
  8
0
100
AcDbLine
 62
4
  6
CONTINUOUS
 10
10.387012873
 20
8.9913306676
 11
10.403571601
 21
8.9736235861
  0
LINE
  5
2EC
100
AcDbEntity
  8
0
100
AcDbLine
 62
4
  6
CONTINUOUS
 10
11.0134847819
 20
8.3401793358
 11
10.9969260608
 21
8.3578864169
  0
LINE
  5
2ED
100
AcDbEntity
  8
0
100
AcDbLine
 62
4
  6
CONTINUOUS
 10
10.3456160528
 20
9.0935539205
 11
10.3538954168
 21
9.0847003771
  0
LINE
  5
2EE
100
AcDbEntity
  8
0
100
AcDbLine
 62
4
  6
CONTINUOUS
 10
11.0383228913
 20
8.4543679105
 11
11.0548816125
 21
8.4366608312
  0
LINE
  5
2EF
100
AcDbEntity
  8
0
100
AcDbLine
 62
4
  6
CONTINUOUS
 10
11.2975359521
 20
7.8664951885
 11
11.2830470642
 21
7.8868185132
  0
LINE
  5
2F0
100
AcDbEntity
  8
0
100
AcDbLine
 62
4
  6
CONTINUOUS
 10
11.3410026159
 20
7.9600733533
 11
11.3482470599
 21
7.9499116862
  0
LINE
  5
2F1
100
AcDbEntity
  8
0
100
AcDbLine
 62
4
  6
CONTINUOUS
 10
10.7099081338
 20
8.7321479789
 11
10.7430255934
 21
8.6636163595
  0
LINE
  5
2F2
100
AcDbEntity
  8
0
100
AcDbLine
 62
4
  6
CONTINUOUS
 10
10.7430255577
 20
9.0328760215
 11
10.7678636671
 21
8.9483598455
  0
LINE
  5
2F3
100
AcDbEntity
  8
0
100
AcDbLine
 62
4
  6
CONTINUOUS
 10
11.0548815927
 20
9.011248732
 11
11.0548815927
 21
8.9367344497
  0
LINE
  5
2F4
100
AcDbEntity
  8
0
100
AcDbLine
 62
4
  6
CONTINUOUS
 10
11.0548816125
 20
8.4366608312
 11
11.0548816125
 21
8.3538671857
  0
LINE
  5
2F5
100
AcDbEntity
  8
0
100
AcDbLine
 62
4
  6
CONTINUOUS
 10
11.0879990548
 20
8.3350117535
 11
11.0879990548
 21
8.4509228569
  0
LINE
  5
2F6
100
AcDbEntity
  8
0
100
AcDbLine
 62
4
  6
CONTINUOUS
 10
11.1045578115
 20
8.9250100273
 11
11.1045578115
 21
9.0078036746
  0
LINE
  5
2F7
100
AcDbEntity
  8
0
100
AcDbLine
 62
7
  6
CONTINUOUS
 10
11.1245682596
 20
6.5667631409
 11
11.1245682596
 21
6.1854392567
  0
LINE
  5
2F8
100
AcDbEntity
  8
0
100
AcDbLine
 62
4
  6
CONTINUOUS
 10
11.1376752538
 20
8.9309926898
 11
11.1376752538
 21
9.0386244283
  0
LINE
  5
2F9
100
AcDbEntity
  8
0
100
AcDbLine
 62
4
  6
CONTINUOUS
 10
11.1459546065
 20
8.4303448977
 11
11.1459546065
 21
8.3475512521
  0
LINE
  5
2FA
100
AcDbEntity
  8
0
100
AcDbLine
 62
4
  6
CONTINUOUS
 10
11.1928710477
 20
8.3277388561
 11
11.1928710477
 21
8.4436499595
  0
LINE
  5
2FB
100
AcDbEntity
  8
0
100
AcDbLine
 62
4
  6
CONTINUOUS
 10
11.2121895267
 20
8.9175457425
 11
11.2121895267
 21
9.0003393898
  0
LINE
  5
2FC
100
AcDbEntity
  8
0
100
AcDbLine
 62
4
  6
CONTINUOUS
 10
11.2121895267
 20
9.0251774784
 11
11.2121895267
 21
9.0334568459
  0
LINE
  5
2FD
100
AcDbEntity
  8
0
100
AcDbLine
 62
4
  6
CONTINUOUS
 10
11.2149493043
 20
9.0332654547
 11
11.2121895267
 21
9.0251774784
  0
LINE
  5
2FE
100
AcDbEntity
  8
0
100
AcDbLine
 62
4
  6
CONTINUOUS
 10
12.1562441035
 20
10.1077788694
 11
12.1055329957
 21
10.0243623691
  0
LINE
  5
2FF
100
AcDbEntity
  8
0
100
AcDbLine
 62
4
  6
CONTINUOUS
 10
10.9969260608
 20
8.4406800624
 11
11.0134847819
 21
8.4560904393
  0
LINE
  5
300
100
AcDbEntity
  8
0
100
AcDbLine
 62
4
  6
CONTINUOUS
 10
11.0548816125
 20
8.3538671857
 11
11.0383228913
 21
8.3384568071
  0
LINE
  5
301
100
AcDbEntity
  8
0
100
AcDbLine
 62
4
  6
CONTINUOUS
 10
11.1459546065
 20
8.3475512521
 11
11.1293958854
 21
8.3321408735
  0
LINE
  5
302
100
AcDbEntity
  8
0
100
AcDbLine
 62
4
  6
CONTINUOUS
 10
12.1055329957
 20
8.4885402702
 11
12.1634885474
 21
8.484521039
  0
LINE
  5
303
100
AcDbEntity
  8
0
100
AcDbLine
 62
4
  6
CONTINUOUS
 10
10.867216054
 20
8.630165628
 11
10.8092605092
 21
8.6341848586
  0
LINE
  5
304
100
AcDbEntity
  8
0
100
AcDbLine
 62
4
  6
CONTINUOUS
 10
12.1272663276
 20
8.6029441619
 11
12.1417552155
 21
8.6019393541
  0
LINE
  5
305
100
AcDbEntity
  8
0
100
AcDbLine
 62
4
  6
CONTINUOUS
 10
10.9003335239
 20
8.7189419332
 11
10.9665684224
 21
8.7143485274
  0
LINE
  5
306
100
AcDbEntity
  8
0
100
AcDbLine
 62
4
  6
CONTINUOUS
 10
11.2756646535
 20
8.3937515952
 11
11.3198212617
 21
8.3686110165
  0
LINE
  5
307
100
AcDbEntity
  8
0
100
AcDbLine
 62
4
  6
CONTINUOUS
 10
9.5221641211
 20
9.643282704
 11
9.536653009
 21
9.6326186398
  0
LINE
  5
308
100
AcDbEntity
  8
0
100
AcDbLine
 62
4
  6
CONTINUOUS
 10
9.5221641211
 20
9.6915789994
 11
9.536653009
 21
9.6809149352
  0
LINE
  5
309
100
AcDbEntity
  8
0
100
AcDbLine
 62
4
  6
CONTINUOUS
 10
11.1293958854
 20
8.4480519769
 11
11.1459546065
 21
8.4303448977
  0
LINE
  5
30A
100
AcDbEntity
  8
0
100
AcDbLine
 62
4
  6
CONTINUOUS
 10
10.7016287271
 20
9.0357469015
 11
10.7099080877
 21
9.0268933584
  0
LINE
  5
30B
100
AcDbEntity
  8
0
100
AcDbLine
 62
4
  6
CONTINUOUS
 10
10.9306911563
 20
9.0198613681
 11
10.9362107116
 21
9.0111992181
  0
LINE
  5
30C
100
AcDbEntity
  8
0
100
AcDbLine
 62
4
  6
CONTINUOUS
 10
11.2830470642
 20
7.8868185132
 11
11.2758026202
 21
7.916298693
  0
LINE
  5
30D
100
AcDbEntity
  8
0
100
AcDbLine
 62
7
  6
CONTINUOUS
 10
11.2376230716
 20
6.4968361065
 11
11.2376230716
 21
6.0762368808
  0
LINE
  5
30E
100
AcDbEntity
  8
0
100
AcDbLine
 62
4
  6
CONTINUOUS
 10
11.2563461349
 20
8.9227628362
 11
11.2563461349
 21
8.9889977511
  0
LINE
  5
30F
100
AcDbEntity
  8
0
100
AcDbLine
 62
7
  6
CONTINUOUS
 10
11.2795032991
 20
6.4859967198
 11
11.2795032991
 21
6.065397494
  0
LINE
  5
310
100
AcDbEntity
  8
0
100
AcDbLine
 62
4
  6
CONTINUOUS
 10
11.330860463
 20
8.9589920728
 11
11.330860463
 21
8.9838301649
  0
LINE
  5
311
100
AcDbEntity
  8
0
100
AcDbLine
 62
4
  6
CONTINUOUS
 10
11.3482470599
 20
7.911274654
 11
11.3482470599
 21
7.8726376201
  0
LINE
  5
312
100
AcDbEntity
  8
0
100
AcDbLine
 62
4
  6
CONTINUOUS
 10
11.3805365713
 20
8.9141502002
 11
11.3805365713
 21
8.9389882949
  0
LINE
  5
313
100
AcDbEntity
  8
0
100
AcDbLine
 62
4
  6
CONTINUOUS
 10
11.2758026202
 20
7.916298693
 11
11.2830470642
 21
7.9447740649
  0
LINE
  5
314
100
AcDbEntity
  8
0
100
AcDbLine
 62
4
  6
CONTINUOUS
 10
11.3198212617
 20
8.3686110165
 11
11.2756646535
 21
8.3495949818
  0
LINE
  5
315
100
AcDbEntity
  8
0
100
AcDbLine
 62
4
  6
CONTINUOUS
 10
10.7430255577
 20
8.9224844924
 11
10.7595842788
 21
8.9213361412
  0
LINE
  5
316
100
AcDbEntity
  8
0
100
AcDbLine
 62
4
  6
CONTINUOUS
 10
10.8313387741
 20
8.9439578319
 11
10.8147800529
 21
8.953385548
  0
LINE
  5
317
100
AcDbEntity
  8
0
100
AcDbLine
 62
4
  6
CONTINUOUS
 10
10.988646708
 20
8.9330484896
 11
10.9720879869
 21
8.9424762057
  0
LINE
  5
318
100
AcDbEntity
  8
0
100
AcDbLine
 62
4
  6
CONTINUOUS
 10
11.0548815927
 20
8.9367344497
 11
11.0631609809
 21
8.9278809072
  0
LINE
  5
319
100
AcDbEntity
  8
0
100
AcDbLine
 62
4
  6
CONTINUOUS
 10
11.145954642
 20
8.9221391473
 11
11.1376752538
 21
8.9309926898
  0
LINE
  5
31A
100
AcDbEntity
  8
0
100
AcDbLine
 62
4
  6
CONTINUOUS
 10
11.0217641504
 20
8.9969867064
 11
11.0134848174
 21
9.0141196082
  0
LINE
  5
31B
100
AcDbEntity
  8
0
100
AcDbLine
 62
4
  6
CONTINUOUS
 10
11.2830470642
 20
7.9447740649
 11
11.2975359521
 21
7.9630877767
  0
LINE
  5
31C
100
AcDbEntity
  8
0
100
AcDbLine
 62
4
  6
CONTINUOUS
 10
12.1127774397
 20
8.5942897134
 11
12.1272663276
 21
8.6029441619
  0
LINE
  5
31D
100
AcDbEntity
  8
0
100
AcDbLine
 62
4
  6
CONTINUOUS
 10
12.1562441035
 20
8.5526382509
 11
12.1272663276
 21
8.5353293504
  0
LINE
  5
31E
100
AcDbEntity
  8
0
100
AcDbLine
 62
4
  6
CONTINUOUS
 10
11.2975359521
 20
7.9630877767
 11
11.31202484
 21
7.9717422252
  0
LINE
  5
31F
100
AcDbEntity
  8
0
100
AcDbLine
 62
4
  6
CONTINUOUS
 10
11.2977430207
 20
8.9116125875
 11
11.2646254678
 21
8.9139092976
  0
LINE
  5
320
100
AcDbEntity
  8
0
100
AcDbLine
 62
4
  6
CONTINUOUS
 10
11.1625133632
 20
8.9209907961
 11
11.145954642
 21
8.9221391473
  0
LINE
  5
321
100
AcDbEntity
  8
0
100
AcDbLine
 62
4
  6
CONTINUOUS
 10
11.0217641504
 20
8.9307517872
 11
10.988646708
 21
8.9330484896
  0
LINE
  5
322
100
AcDbEntity
  8
0
100
AcDbLine
 62
4
  6
CONTINUOUS
 10
10.8644562164
 20
8.9416611295
 11
10.8313387741
 21
8.9439578319
  0
LINE
  5
323
100
AcDbEntity
  8
0
100
AcDbLine
 62
4
  6
CONTINUOUS
 10
10.30421923
 20
8.9805136964
 11
10.3373366887
 21
8.9782169929
  0
LINE
  5
324
100
AcDbEntity
  8
0
100
AcDbLine
 62
4
  6
CONTINUOUS
 10
10.403571601
 20
8.9736235861
 11
10.4284097035
 21
8.9719010578
  0
LINE
  5
325
100
AcDbEntity
  8
0
100
AcDbLine
 62
4
  6
CONTINUOUS
 10
11.0631609809
 20
8.9278809072
 11
11.1045578115
 21
8.9250100273
  0
LINE
  5
326
100
AcDbEntity
  8
0
100
AcDbLine
 62
4
  6
CONTINUOUS
 10
11.339139796
 20
8.9087417114
 11
11.3722572383
 21
8.906445009
  0
LINE
  5
327
100
AcDbEntity
  8
0
100
AcDbLine
 62
4
  6
CONTINUOUS
 10
10.988646708
 20
8.9744453133
 11
11.0217641504
 21
8.9721486108
  0
LINE
  5
328
100
AcDbEntity
  8
0
100
AcDbLine
 62
4
  6
CONTINUOUS
 10
11.0134848174
 20
9.0141196082
 11
10.9720879869
 21
9.0169904881
  0
LINE
  5
329
100
AcDbEntity
  8
0
100
AcDbLine
 62
4
  6
CONTINUOUS
 10
10.6602318966
 20
9.0386177814
 11
10.7016287271
 21
9.0357469015
  0
LINE
  5
32A
100
AcDbEntity
  8
0
100
AcDbLine
 62
4
  6
CONTINUOUS
 10
10.8313387741
 20
9.0267514792
 11
10.8644562164
 21
9.0244547767
  0
LINE
  5
32B
100
AcDbEntity
  8
0
100
AcDbLine
 62
4
  6
CONTINUOUS
 10
10.897573714
 20
9.0221580705
 11
10.9306911563
 21
9.0198613681
  0
LINE
  5
32C
100
AcDbEntity
  8
0
100
AcDbLine
 62
4
  6
CONTINUOUS
 10
11.2646254678
 20
8.9967029449
 11
11.2977430207
 21
8.9944062348
  0
LINE
  5
32D
100
AcDbEntity
  8
0
100
AcDbLine
 62
4
  6
CONTINUOUS
 10
11.339139796
 20
8.9915353587
 11
11.3722572383
 21
8.9892386563
  0
LINE
  5
32E
100
AcDbEntity
  8
0
100
AcDbLine
 62
4
  6
CONTINUOUS
 10
10.3124985949
 20
9.095850624
 11
10.3456160528
 21
9.0935539205
  0
LINE
  5
32F
100
AcDbEntity
  8
0
100
AcDbLine
 62
4
  6
CONTINUOUS
 10
11.2121895267
 20
9.0334568459
 11
11.2149493043
 21
9.0332654547
  0
LINE
  5
330
100
AcDbEntity
  8
0
100
AcDbLine
 62
4
  6
CONTINUOUS
 10
11.3722572383
 20
8.9450820446
 11
11.339139796
 21
8.9528983231
  0
LINE
  5
331
100
AcDbEntity
  8
0
100
AcDbLine
 62
4
  6
CONTINUOUS
 10
11.339139796
 20
8.9528983231
 11
11.330860463
 21
8.9589920728
  0
LINE
  5
332
100
AcDbEntity
  8
0
100
AcDbLine
 62
4
  6
CONTINUOUS
 10
11.3805365713
 20
8.9389882949
 11
11.3722572383
 21
8.9450820446
  0
LINE
  5
333
100
AcDbEntity
  8
0
100
AcDbLine
 62
4
  6
CONTINUOUS
 10
11.2646254678
 20
8.9139092976
 11
11.2563461349
 21
8.9227628362
  0
LINE
  5
334
100
AcDbEntity
  8
0
100
AcDbLine
 62
4
  6
CONTINUOUS
 10
11.330860463
 20
8.91759525
 11
11.339139796
 21
8.9087417114
  0
LINE
  5
335
100
AcDbEntity
  8
0
100
AcDbLine
 62
4
  6
CONTINUOUS
 10
11.3722572383
 20
8.9892386563
 11
11.3805365713
 21
8.9803851151
  0
LINE
  5
336
100
AcDbEntity
  8
0
100
AcDbLine
 62
7
  6
CONTINUOUS
 10
11.701429278
 20
6.4567360538
 11
11.701429278
 21
6.036136828
  0
LINE
  5
337
100
AcDbEntity
  8
0
100
AcDbLine
 62
7
  6
CONTINUOUS
 10
11.7586387166
 20
6.4607035488
 11
11.7586387166
 21
6.0401043231
  0
LINE
  5
338
100
AcDbEntity
  8
0
100
AcDbLine
 62
4
  6
CONTINUOUS
 10
11.3482470599
 20
7.8726376201
 11
11.3410026159
 21
7.8634807651
  0
LINE
  5
339
100
AcDbEntity
  8
0
100
AcDbLine
 62
4
  6
CONTINUOUS
 10
12.1055329957
 20
8.5851328541
 11
12.1127774397
 21
8.5942897134
  0
LINE
  5
33A
100
AcDbEntity
  8
0
100
AcDbLine
 62
7
  6
CONTINUOUS
 10
12.4340821935
 20
8.8917852068
 11
12.4334340104
 21
8.8911706559
  0
LINE
  5
33B
100
AcDbEntity
  8
0
100
AcDbLine
 62
4
  6
CONTINUOUS
 10
11.3410026159
 20
7.8634807651
 11
11.326513728
 21
7.854826314
  0
LINE
  5
33C
100
AcDbEntity
  8
0
100
AcDbLine
 62
4
  6
CONTINUOUS
 10
12.1417552155
 20
8.6019393541
 11
12.1562441035
 21
8.59127529
  0
LINE
  5
33D
100
AcDbEntity
  8
0
100
AcDbLine
 62
4
  6
CONTINUOUS
 10
12.1272663276
 20
8.5353293504
 11
12.1127774397
 21
8.5170156421
  0
LINE
  5
33E
100
AcDbEntity
  8
0
100
AcDbLine
 62
4
  6
CONTINUOUS
 10
12.1634885474
 20
8.5617951103
 11
12.1562441035
 21
8.5526382509
  0
LINE
  5
33F
100
AcDbEntity
  8
0
100
AcDbLine
 62
4
  6
CONTINUOUS
 10
9.5221641211
 20
9.5756678959
 11
9.5076752332
 21
9.5766727037
  0
LINE
  5
340
100
AcDbEntity
  8
0
100
AcDbLine
 62
4
  6
CONTINUOUS
 10
12.1562441035
 20
8.59127529
 11
12.1634885474
 21
8.5811136229
  0
LINE
  5
341
100
AcDbEntity
  8
0
100
AcDbLine
 62
7
  6
CONTINUOUS
 10
12.0675098836
 20
6.5013699172
 11
12.0675098836
 21
6.120046033
  0
LINE
  5
342
100
AcDbEntity
  8
0
100
AcDbLine
 62
7
  6
CONTINUOUS
 10
12.0828390948
 20
6.5003068328
 11
12.0828390948
 21
6.1348529148
  0
LINE
  5
343
100
AcDbEntity
  8
0
100
AcDbLine
 62
4
  6
CONTINUOUS
 10
12.1562441035
 20
9.9918677659
 11
12.1562441035
 21
10.1077788694
  0
LINE
  5
344
100
AcDbEntity
  8
0
100
AcDbLine
 62
4
  6
CONTINUOUS
 10
12.1634885474
 20
8.5811136229
 11
12.1634885474
 21
8.5617951103
  0
LINE
  5
345
100
AcDbEntity
  8
0
100
AcDbLine
 62
4
  6
CONTINUOUS
 10
12.1127774397
 20
8.5170156421
 11
12.1055329957
 21
8.4885402702
  0
LINE
  5
346
100
AcDbEntity
  8
0
100
AcDbLine
 62
4
  6
CONTINUOUS
 10
9.5076752332
 20
9.6442875117
 11
9.5221641211
 21
9.643282704
  0
LINE
  5
347
100
AcDbEntity
  8
0
100
AcDbLine
 62
4
  6
CONTINUOUS
 10
9.5076752332
 20
9.6925838071
 11
9.5221641211
 21
9.6915789994
  0
LINE
  5
348
100
AcDbEntity
  8
0
100
AcDbLine
 62
7
  6
CONTINUOUS
 10
12.2871270556
 20
6.4861394146
 11
12.2871270556
 21
10.4705836841
  0
LINE
  5
349
100
AcDbEntity
  8
0
100
AcDbLine
 62
4
  6
CONTINUOUS
 10
12.1055329957
 20
10.0243623691
 11
12.1707329914
 21
10.019840734
  0
LINE
  5
34A
100
AcDbEntity
  8
0
100
AcDbLine
 62
7
  6
CONTINUOUS
 10
12.610650595
 20
6.7986391752
 11
12.610650595
 21
10.7830834447
  0
LINE
  5
34B
100
AcDbEntity
  8
0
100
AcDbLine
 62
7
  6
CONTINUOUS
 10
9.389349405
 20
10.6715452467
 11
12.2871270556
 21
10.4705836841
  0
LINE
  5
34C
100
AcDbEntity
  8
0
100
AcDbLine
 62
7
  6
CONTINUOUS
 10
12.2871270556
 20
6.4861394146
 11
12.610650595
 21
6.7986391752
  0
LINE
  5
34D
100
AcDbEntity
  8
0
100
AcDbLine
 62
7
  6
CONTINUOUS
 10
12.610650595
 20
10.7830834447
 11
9.7128729444
 21
10.9840450073
  0
LINE
  5
34E
100
AcDbEntity
  8
0
100
AcDbLine
 62
7
  6
CONTINUOUS
 10
12.0097556245
 20
6.0880236419
 11
11.984590015
 21
6.0755923126
  0
ARC
  5
34F
100
AcDbEntity
  8
0
100
AcDbCircle
 62
7
  6
CONTINUOUS
 10
11.6115059339
 20
8.167839501
 40
1.7134646816
100
AcDbArc
 50
273.0082884861
 51
274.9259735842
  0
ARC
  5
350
100
AcDbEntity
  8
0
100
AcDbCircle
 62
7
  6
CONTINUOUS
 10
11.6115059339
 20
7.7472402753
 40
1.7134646816
100
AcDbArc
 50
273.0082884861
 51
274.9259735842
  0
ARC
  5
351
100
AcDbEntity
  8
0
100
AcDbCircle
 62
7
  6
CONTINUOUS
 10
11.7472714954
 20
6.6189591341
 40
0.5922756118
100
AcDbArc
 50
293.5909107106
 51
296.3039528614
  0
ARC
  5
352
100
AcDbEntity
  8
0
100
AcDbCircle
 62
7
  6
CONTINUOUS
 10
10.8083745148
 20
8.0505028085
 40
0.3619807935
100
AcDbArc
 50
263.6968081384
 51
264.2642789156
  0
ARC
  5
353
100
AcDbEntity
  8
0
100
AcDbCircle
 62
7
  6
CONTINUOUS
 10
10.8077877562
 20
8.0443248633
 40
0.3557751394
100
AcDbArc
 50
264.2588672521
 51
267.806884669
  0
ARC
  5
354
100
AcDbEntity
  8
0
100
AcDbCircle
 62
7
  6
CONTINUOUS
 10
10.8939903416
 20
7.5809885166
 40
0.1755936977
100
AcDbArc
 50
179.1544570271
 51
179.9991982799
  0
ARC
  5
355
100
AcDbEntity
  8
0
100
AcDbCircle
 62
7
  6
CONTINUOUS
 10
12.4196953419
 20
10.3666832592
 40
0.0147409655
100
AcDbArc
 50
86.0355735729
 51
92.3770878315
  0
ARC
  5
356
100
AcDbEntity
  8
0
100
AcDbCircle
 62
7
  6
CONTINUOUS
 10
12.4196953419
 20
8.8569411382
 40
0.0147409655
100
AcDbArc
 50
86.0355735729
 51
92.3770878314
  0
ARC
  5
357
100
AcDbEntity
  8
0
100
AcDbCircle
 62
7
  6
CONTINUOUS
 10
12.3892185911
 20
9.9272203581
 40
0.0147406186
100
AcDbArc
 50
259.8277854465
 51
266.0297713926
  0
ARC
  5
358
100
AcDbEntity
  8
0
100
AcDbCircle
 62
7
  6
CONTINUOUS
 10
12.3892185911
 20
8.4174782372
 40
0.0147406186
100
AcDbArc
 50
259.8277854464
 51
266.0297713928
  0
SPLINE
  5
359
100
AcDbEntity
  8
0
100
AcDbSpline
 62
7
  6
CONTINUOUS
 70
0
 71
3
 72
9
 73
5
 74
0
 42
0.0000001
 43
0.0000001
 44
0.0000000001
 40
0.0
 40
0.0
 40
0.0
 40
0.0
 40
0.4865082157
 40
1.0
 40
1.0
 40
1.0
 40
1.0
 10
12.0760414342
 20
6.127389351
 30
0.0
 10
12.0747279642
 20
6.1261206363
 30
0.0
 10
12.0719468229
 20
6.1235962314
 30
0.0
 10
12.0690335169
 20
6.121226527
 30
0.0
 10
12.0675098836
 20
6.120046033
 30
0.0
  0
SPLINE
  5
35A
100
AcDbEntity
  8
0
100
AcDbSpline
 62
7
  6
CONTINUOUS
 70
0
 71
3
 72
9
 73
5
 74
0
 42
0.0000001
 43
0.0000001
 44
0.0000000001
 40
0.0
 40
0.0
 40
0.0
 40
0.0
 40
0.4864210225
 40
1.0
 40
1.0
 40
1.0
 40
1.0
 10
12.0828390948
 20
6.1348529148
 30
0.0
 10
12.0818253878
 20
6.1335665647
 30
0.0
 10
12.0796388976
 20
6.1310017799
 30
0.0
 10
12.0772851785
 20
6.1285907158
 30
0.0
 10
12.0760414342
 20
6.127389351
 30
0.0
  0
SPLINE
  5
35B
100
AcDbEntity
  8
0
100
AcDbSpline
 62
7
  6
CONTINUOUS
 70
0
 71
3
 72
9
 73
5
 74
0
 42
0.0000001
 43
0.0000001
 44
0.0000000001
 40
0.0
 40
0.0
 40
0.0
 40
0.0
 40
0.503991706
 40
1.0
 40
1.0
 40
1.0
 40
1.0
 10
12.0675098836
 20
6.120046033
 30
0.0
 10
12.0580365361
 20
6.1142571578
 30
0.0
 10
12.0390211191
 20
6.1031239775
 30
0.0
 10
12.0195244542
 20
6.092849464
 30
0.0
 10
12.0097283871
 20
6.0880101908
 30
0.0
  0
SPLINE
  5
35C
100
AcDbEntity
  8
0
100
AcDbSpline
 62
7
  6
CONTINUOUS
 70
0
 71
3
 72
23
 73
19
 74
0
 42
0.0000001
 43
0.0000001
 44
0.0000000001
 40
0.0
 40
0.0
 40
0.0
 40
0.0
 40
0.0439943064
 40
0.0899281819
 40
0.1380403338
 40
0.1885309998
 40
0.2415683448
 40
0.2972701743
 40
0.3557174883
 40
0.4169406608
 40
0.4809367475
 40
0.5476614984
 40
0.617045644
 40
0.688992165
 40
0.7633891149
 40
0.8401121098
 40
0.9190285012
 40
1.0
 40
1.0
 40
1.0
 40
1.0
 10
11.206515405
 20
6.0836451561
 30
0.0
 10
11.2047715237
 20
6.0845066156
 30
0.0
 10
11.201271393
 20
6.0864009222
 30
0.0
 10
11.1961149208
 20
6.0896735969
 30
0.0
 10
11.1909515278
 20
6.0934456943
 30
0.0
 10
11.1857838084
 20
6.0977225606
 30
0.0
 10
11.1806159683
 20
6.1025077969
 30
0.0
 10
11.1754500776
 20
6.1077984062
 30
0.0
 10
11.1702904092
 20
6.1135890432
 30
0.0
 10
11.1651388447
 20
6.1198684794
 30
0.0
 10
11.1599991712
 20
6.1266232369
 30
0.0
 10
11.1548730069
 20
6.133835402
 30
0.0
 10
11.1497632772
 20
6.1414854362
 30
0.0
 10
11.1446712101
 20
6.1495511202
 30
0.0
 10
11.1395986736
 20
6.1580095777
 30
0.0
 10
11.1345464214
 20
6.1668368931
 30
0.0
 10
11.1295153937
 20
6.1760091284
 30
0.0
 10
11.1262163251
 20
6.1822613085
 30
0.0
 10
11.1245682596
 20
6.1854392567
 30
0.0
  0
SPLINE
  5
35D
100
AcDbEntity
  8
0
100
AcDbSpline
 62
7
  6
CONTINUOUS
 70
0
 71
3
 72
46
 73
42
 74
0
 42
0.0000001
 43
0.0000001
 44
0.0000000001
 40
0.0
 40
0.0
 40
0.0
 40
0.0
 40
0.0099874435
 40
0.0204476157
 40
0.0313771114
 40
0.0427707225
 40
0.054621686
 40
0.0669224317
 40
0.0796639566
 40
0.0928360449
 40
0.1204269131
 40
0.1495981875
 40
0.1802403745
 40
0.2122335405
 40
0.2454486791
 40
0.2797494061
 40
0.3149926211
 40
0.3510295021
 40
0.387706851
 40
0.4248677397
 40
0.4623524596
 40
0.499999592
 40
0.537646712
 40
0.5751314595
 40
0.6122923998
 40
0.6489698028
 40
0.6850067986
 40
0.7202500982
 40
0.7545508962
 40
0.7877662248
 40
0.8197595459
 40
0.8504018313
 40
0.8795733387
 40
0.9071643906
 40
0.9330770134
 40
0.9453779539
 40
0.9572290359
 40
0.9686226679
 40
0.9795523026
 40
0.9900125123
 40
1.0
 40
1.0
 40
1.0
 40
1.0
 10
11.9845935448
 20
6.0755941
 30
0.0
 10
11.9822765659
 20
6.074449539
 30
0.0
 10
11.9774933731
 20
6.072185689
 30
0.0
 10
11.9700538708
 20
6.0689320296
 30
0.0
 10
11.9621913311
 20
6.0657455721
 30
0.0
 10
11.9539148968
 20
6.0626300127
 30
0.0
 10
11.9452340775
 20
6.059588747
 30
0.0
 10
11.9361587631
 20
6.0566255135
 30
0.0
 10
11.9266993856
 20
6.0537436409
 30
0.0
 10
11.913382749
 20
6.0499553119
 30
0.0
 10
11.8958493845
 20
6.0454651523
 30
0.0
 10
11.8737751165
 20
6.0405308797
 30
0.0
 10
11.8504544306
 20
6.0359940628
 30
0.0
 10
11.8259948337
 20
6.0318759236
 30
0.0
 10
11.8005089302
 20
6.0281956215
 30
0.0
 10
11.7741142258
 20
6.0249704872
 30
0.0
 10
11.7469324796
 20
6.022215662
 30
0.0
 10
11.719089182
 20
6.0199438717
 30
0.0
 10
11.6907128957
 20
6.0181658221
 30
0.0
 10
11.6619346625
 20
6.016889882
 30
0.0
 10
11.6328874167
 20
6.0161218606
 30
0.0
 10
11.6037053518
 20
6.0158654157
 30
0.0
 10
11.5745232798
 20
6.0161218252
 30
0.0
 10
11.545476014
 20
6.0168897428
 30
0.0
 10
11.516697744
 20
6.0181656427
 30
0.0
 10
11.4883213993
 20
6.0199436655
 30
0.0
 10
11.4604780276
 20
6.0222153526
 30
0.0
 10
11.4332962066
 20
6.024970136
 30
0.0
 10
11.406901409
 20
6.0281952531
 30
0.0
 10
11.3814153879
 20
6.0318754574
 30
0.0
 10
11.3569556485
 20
6.0359935497
 30
0.0
 10
11.3336348986
 20
6.040530382
 30
0.0
 10
11.311560252
 20
6.0454645021
 30
0.0
 10
11.2908333129
 20
6.0507728146
 30
0.0
 10
11.2744906424
 20
6.0555671766
 30
0.0
 10
11.2621753032
 20
6.0595880186
 30
0.0
 10
11.2534943792
 20
6.0626293013
 30
0.0
 10
11.2452178902
 20
6.0657449052
 30
0.0
 10
11.2373552501
 20
6.0689312519
 30
0.0
 10
11.2299156633
 20
6.0721848629
 30
0.0
 10
11.2251324562
 20
6.0744487326
 30
0.0
 10
11.2228154642
 20
6.0755932928
 30
0.0
  0
SPLINE
  5
35E
100
AcDbEntity
  8
0
100
AcDbSpline
 62
7
  6
CONTINUOUS
 70
0
 71
3
 72
9
 73
5
 74
0
 42
0.0000001
 43
0.0000001
 44
0.0000000001
 40
0.0
 40
0.0
 40
0.0
 40
0.0
 40
0.5132482879
 40
1.0
 40
1.0
 40
1.0
 40
1.0
 10
11.2795032991
 20
6.4859967198
 30
0.0
 10
11.2722885177
 20
6.4876504158
 30
0.0
 10
11.2582722734
 20
6.4910542752
 30
0.0
 10
11.2443609716
 20
6.4948669356
 30
0.0
 10
11.2376230716
 20
6.4968361065
 30
0.0
  0
SPLINE
  5
35F
100
AcDbEntity
  8
0
100
AcDbSpline
 62
7
  6
CONTINUOUS
 70
0
 71
3
 72
17
 73
13
 74
0
 42
0.0000001
 43
0.0000001
 44
0.0000000001
 40
0.0
 40
0.0
 40
0.0
 40
0.0
 40
0.131593939
 40
0.2633887997
 40
0.3943193775
 40
0.5233296479
 40
0.64938366
 40
0.7714770019
 40
0.8307377895
 40
0.888652
 40
0.9451084391
 40
1.0
 40
1.0
 40
1.0
 40
1.0
 10
11.6509171416
 20
6.5301815621
 30
0.0
 10
11.6376837352
 20
6.5298009398
 30
0.0
 10
11.6111863355
 20
6.5293625098
 30
0.0
 10
11.571513701
 20
6.5296592409
 30
0.0
 10
11.532119287
 20
6.5309055566
 30
0.0
 10
11.493344057
 20
6.5330904189
 30
0.0
 10
11.4555234611
 20
6.5361946291
 30
0.0
 10
11.4247757681
 20
6.5395570495
 30
0.0
 10
11.4009098147
 20
6.5427008348
 30
0.0
 10
11.3836274525
 20
6.5452459647
 30
0.0
 10
11.3668218134
 20
6.5479960793
 30
0.0
 10
11.3557982106
 20
6.5499914106
 30
0.0
 10
11.3503733628
 20
6.551024344
 30
0.0
  0
SPLINE
  5
360
100
AcDbEntity
  8
0
100
AcDbSpline
 62
7
  6
CONTINUOUS
 70
0
 71
3
 72
9
 73
5
 74
0
 42
0.0000001
 43
0.0000001
 44
0.0000000001
 40
0.0
 40
0.0
 40
0.0
 40
0.0
 40
0.5132482879
 40
1.0
 40
1.0
 40
1.0
 40
1.0
 10
11.2795032991
 20
6.065397494
 30
0.0
 10
11.2722885177
 20
6.06705119
 30
0.0
 10
11.2582722734
 20
6.0704550494
 30
0.0
 10
11.2443609716
 20
6.0742677098
 30
0.0
 10
11.2376230716
 20
6.0762368808
 30
0.0
  0
SPLINE
  5
361
100
AcDbEntity
  8
0
100
AcDbSpline
 62
7
  6
CONTINUOUS
 70
0
 71
3
 72
11
 73
7
 74
0
 42
0.0000001
 43
0.0000001
 44
0.0000000001
 40
0.0
 40
0.0
 40
0.0
 40
0.0
 40
0.2432253995
 40
0.4912799274
 40
0.7437055985
 40
1.0
 40
1.0
 40
1.0
 40
1.0
 10
11.8360239493
 20
6.5175522656
 30
0.0
 10
11.8293071172
 20
6.5135964924
 30
0.0
 10
11.8159788569
 20
6.5051956633
 30
0.0
 10
11.7964969748
 20
6.491448769
 30
0.0
 10
11.7773259526
 20
6.4765805474
 30
0.0
 10
11.7648389603
 20
6.4660911581
 30
0.0
 10
11.7586387166
 20
6.4607035488
 30
0.0
  0
SPLINE
  5
362
100
AcDbEntity
  8
0
100
AcDbSpline
 62
7
  6
CONTINUOUS
 70
0
 71
3
 72
21
 73
17
 74
0
 42
0.0000001
 43
0.0000001
 44
0.0000000001
 40
0.0
 40
0.0
 40
0.0
 40
0.0
 40
0.1230814817
 40
0.1847942657
 40
0.2466337258
 40
0.3086097846
 40
0.3707312098
 40
0.4330051319
 40
0.4954352436
 40
0.5580223626
 40
0.6207641208
 40
0.6836547008
 40
0.7466862848
 40
0.8098488395
 40
0.8731308835
 40
1.0
 40
1.0
 40
1.0
 40
1.0
 10
11.701429278
 20
6.036136828
 30
0.0
 10
11.6841766374
 20
6.0328844446
 30
0.0
 10
11.6581454998
 20
6.0286337261
 30
0.0
 10
11.6232089096
 20
6.0244663767
 30
0.0
 10
11.596842212
 20
6.0221443303
 30
0.0
 10
11.5703551452
 20
6.0206846302
 30
0.0
 10
11.5437710861
 20
6.0201344884
 30
0.0
 10
11.5171192218
 20
6.02053092
 30
0.0
 10
11.4904327289
 20
6.0218959077
 30
0.0
 10
11.4637469571
 20
6.0242347312
 30
0.0
 10
11.437097254
 20
6.0275370206
 30
0.0
 10
11.4105165899
 20
6.0317760402
 30
0.0
 10
11.3840337466
 20
6.0369106814
 30
0.0
 10
11.3576718692
 20
6.0428904293
 30
0.0
 10
11.3226811947
 20
6.051919549
 30
0.0
 10
11.2967027362
 20
6.0597695702
 30
0.0
 10
11.2795032991
 20
6.065397494
 30
0.0
  0
SPLINE
  5
363
100
AcDbEntity
  8
0
100
AcDbSpline
 62
7
  6
CONTINUOUS
 70
0
 71
3
 72
28
 73
24
 74
0
 42
0.0000001
 43
0.0000001
 44
0.0000000001
 40
0.0
 40
0.0
 40
0.0
 40
0.0
 40
0.0640274484
 40
0.1279405369
 40
0.1917105404
 40
0.2553123355
 40
0.3187161223
 40
0.3818930725
 40
0.4133919091
 40
0.4448254452
 40
0.4761912782
 40
0.5074882562
 40
0.5387156619
 40
0.5698732312
 40
0.6009621492
 40
0.6319833386
 40
0.6938248821
 40
0.7554274775
 40
0.8168179251
 40
0.8780243018
 40
0.9085700262
 40
0.9390802882
 40
1.0
 40
1.0
 40
1.0
 40
1.0
 10
11.701429278
 20
6.4567360538
 30
0.0
 10
11.6931284273
 20
6.4610191775
 30
0.0
 10
11.6763973676
 20
6.4693025647
 30
0.0
 10
11.6508782013
 20
6.4807645511
 30
0.0
 10
11.624954423
 20
6.4911188135
 30
0.0
 10
11.5986412479
 20
6.5002208695
 30
0.0
 10
11.5719734182
 20
6.5079243439
 30
0.0
 10
11.5494779861
 20
6.5130685758
 30
0.0
 10
11.531373914
 20
6.5163556313
 30
0.0
 10
11.5177666586
 20
6.5183943579
 30
0.0
 10
11.504131331
 20
6.5200010351
 30
0.0
 10
11.4904814799
 20
6.521168112
 30
0.0
 10
11.4768315465
 20
6.5218952619
 30
0.0
 10
11.4631956391
 20
6.5221807942
 30
0.0
 10
11.4495875897
 20
6.5220303207
 30
0.0
 10
11.4315187653
 20
6.5212570451
 30
0.0
 10
11.4090592758
 20
6.5192416413
 30
0.0
 10
11.382378319
 20
6.5152405348
 30
0.0
 10
11.3560519573
 20
6.5097898205
 30
0.0
 10
11.3344234847
 20
6.5041539957
 30
0.0
 10
11.3173278898
 20
6.4990626375
 30
0.0
 10
11.3003873686
 20
6.4936124094
 30
0.0
 10
11.2878185241
 20
6.4891339348
 30
0.0
 10
11.2795032991
 20
6.4859967198
 30
0.0
  0
SPLINE
  5
364
100
AcDbEntity
  8
0
100
AcDbSpline
 62
7
  6
CONTINUOUS
 70
0
 71
3
 72
13
 73
9
 74
0
 42
0.0000001
 43
0.0000001
 44
0.0000000001
 40
0.0
 40
0.0
 40
0.0
 40
0.0
 40
0.2392401476
 40
0.3604630295
 40
0.4832816768
 40
0.6081576999
 40
0.7355839368
 40
1.0
 40
1.0
 40
1.0
 40
1.0
 10
11.2376230716
 20
6.0762368808
 30
0.0
 10
11.2350510601
 20
6.0762460329
 30
0.0
 10
11.2311718337
 20
6.0764649248
 30
0.0
 10
11.2260254741
 20
6.0771937426
 30
0.0
 10
11.2221347149
 20
6.0779754812
 30
0.0
 10
11.2182316966
 20
6.0790002125
 30
0.0
 10
11.2129484779
 20
6.0807244173
 30
0.0
 10
11.2090640815
 20
6.082386136
 30
0.0
 10
11.206515405
 20
6.0836451561
 30
0.0
  0
SPLINE
  5
365
100
AcDbEntity
  8
0
100
AcDbSpline
 62
7
  6
CONTINUOUS
 70
0
 71
3
 72
14
 73
10
 74
0
 42
0.0000001
 43
0.0000001
 44
0.0000000001
 40
0.0
 40
0.0
 40
0.0
 40
0.0
 40
0.2696294493
 40
0.4000826278
 40
0.5273422312
 40
0.6511852899
 40
0.7713928731
 40
0.8877388029
 40
1.0
 40
1.0
 40
1.0
 40
1.0
 10
11.2376230716
 20
6.4968361065
 30
0.0
 10
11.2353828618
 20
6.50273411
 30
0.0
 10
11.2319718618
 20
6.5114533473
 30
0.0
 10
11.2272606745
 20
6.5228582801
 30
0.0
 10
11.2237380573
 20
6.5310624374
 30
0.0
 10
11.2201874299
 20
6.5389925929
 30
0.0
 10
11.2166091507
 20
6.5466293091
 30
0.0
 10
11.2130041011
 20
6.5539525794
 30
0.0
 10
11.2105379331
 20
6.5587000372
 30
0.0
 10
11.2092980831
 20
6.561015848
 30
0.0
  0
SPLINE
  5
366
100
AcDbEntity
  8
0
100
AcDbSpline
 62
7
  6
CONTINUOUS
 70
0
 71
3
 72
15
 73
11
 74
0
 42
0.0000001
 43
0.0000001
 44
0.0000000001
 40
0.0
 40
0.0
 40
0.0
 40
0.0
 40
0.1319943798
 40
0.2615530082
 40
0.3887795478
 40
0.5138991626
 40
0.6372282088
 40
0.759125931
 40
0.8799459217
 40
1.0
 40
1.0
 40
1.0
 40
1.0
 10
11.9843023616
 20
6.0761822288
 30
0.0
 10
11.9749803544
 20
6.0721199466
 30
0.0
 10
11.9562794724
 20
6.0645807637
 30
0.0
 10
11.9278409127
 20
6.055119323
 30
0.0
 10
11.8993449249
 20
6.0477059474
 30
0.0
 10
11.8708764255
 20
6.0423670732
 30
0.0
 10
11.8425164758
 20
6.0390522006
 30
0.0
 10
11.8143322091
 20
6.0376442725
 30
0.0
 10
11.7863710472
 20
6.0379796086
 30
0.0
 10
11.7678474202
 20
6.0392439376
 30
0.0
 10
11.7586387166
 20
6.0401043231
 30
0.0
  0
SPLINE
  5
367
100
AcDbEntity
  8
0
100
AcDbSpline
 62
7
  6
CONTINUOUS
 70
0
 71
3
 72
86
 73
82
 74
0
 42
0.0000001
 43
0.0000001
 44
0.0000000001
 40
0.0
 40
0.0
 40
0.0
 40
0.0
 40
0.0039801513
 40
0.008124084
 40
0.0124359564
 40
0.0169193168
 40
0.0215771741
 40
0.0264119028
 40
0.0314251627
 40
0.0366181356
 40
0.0419915235
 40
0.0475456275
 40
0.053280397
 40
0.0591953838
 40
0.0715623696
 40
0.0846380241
 40
0.098409314
 40
0.1128598612
 40
0.1279703666
 40
0.1437189434
 40
0.1600813876
 40
0.1770314207
 40
0.1945408892
 40
0.212579937
 40
0.2311171586
 40
0.2501197324
 40
0.2695535554
 40
0.2893833698
 40
0.3095728782
 40
0.330084854
 40
0.3508812463
 40
0.3719232845
 40
0.3931715874
 40
0.4145862648
 40
0.4577524943
 40
0.5010972215
 40
0.5442931877
 40
0.5657338055
 40
0.5870153489
 40
0.6080978459
 40
0.6289418171
 40
0.6495083765
 40
0.6697593333
 40
0.6896572975
 40
0.709165794
 40
0.7282493704
 40
0.7468737097
 40
0.765005749
 40
0.7826138079
 40
0.799667733
 40
0.8161390526
 40
0.8320011386
 40
0.8472293986
 40
0.8618014998
 40
0.8756976395
 40
0.8889008818
 40
0.9013975545
 40
0.9073779486
 40
0.9131783323
 40
0.9187981834
 40
0.9242373016
 40
0.9294958263
 40
0.9345743472
 40
0.939473844
 40
0.9441958406
 40
0.9487423954
 40
0.9531161817
 40
0.9573206117
 40
0.9613598365
 40
0.9652389461
 40
0.9689639973
 40
0.9725421665
 40
0.9759818867
 40
0.9792929065
 40
0.9824864724
 40
0.985575332
 40
0.9885738044
 40
0.9914977317
 40
0.9943643325
 40
0.9971920101
 40
1.0
 40
1.0
 40
1.0
 40
1.0
 10
11.211537751
 20
10.7126441529
 30
0.0
 10
11.2105474762
 20
10.7116876209
 30
0.0
 10
11.2084812048
 20
10.7097813157
 30
0.0
 10
11.2052005929
 20
10.7069970028
 30
0.0
 10
11.2016790679
 20
10.7042326446
 30
0.0
 10
11.197918563
 20
10.701489742
 30
0.0
 10
11.1939209325
 20
10.6987695565
 30
0.0
 10
11.1896881143
 20
10.696073431
 30
0.0
 10
11.1852222308
 20
10.693402633
 30
0.0
 10
11.180525497
 20
10.6907585478
 30
0.0
 10
11.1756002771
 20
10.6881424746
 30
0.0
 10
11.1704490395
 20
10.6855557177
 30
0.0
 10
11.165074346
 20
10.6829995806
 30
0.0
 10
11.1575009952
 20
10.6795831217
 30
0.0
 10
11.1474866614
 20
10.6754081529
 30
0.0
 10
11.1347957348
 20
10.6706119089
 30
0.0
 10
11.1212841259
 20
10.6659675015
 30
0.0
 10
11.1069790317
 20
10.6614843555
 30
0.0
 10
11.0919090909
 20
10.6571715829
 30
0.0
 10
11.0761046135
 20
10.6530379648
 30
0.0
 10
11.059597424
 20
10.6490919154
 30
0.0
 10
11.0424208071
 20
10.6453414723
 30
0.0
 10
11.0246094239
 20
10.6417942754
 30
0.0
 10
11.0061992376
 20
10.6384575508
 30
0.0
 10
10.9872274402
 20
10.6353380973
 30
0.0
 10
10.9677323759
 20
10.6324422648
 30
0.0
 10
10.9477534601
 20
10.6297759455
 30
0.0
 10
10.9273310937
 20
10.6273445651
 30
0.0
 10
10.9065065794
 20
10.6251530712
 30
0.0
 10
10.8853220393
 20
10.6232059245
 30
0.0
 10
10.8638203268
 20
10.6215070859
 30
0.0
 10
10.8420449551
 20
10.6200600131
 30
0.0
 10
10.8200399451
 20
10.6188676236
 30
0.0
 10
10.7903758068
 20
10.6176174342
 30
0.0
 10
10.7530496262
 20
10.6167093535
 30
0.0
 10
10.7081778449
 20
10.6166620144
 30
0.0
 10
10.6708305724
 20
10.6174911601
 30
0.0
 10
10.6411330651
 20
10.6186783281
 30
0.0
 10
10.6190910683
 20
10.6198241192
 30
0.0
 10
10.5972706451
 20
10.6212250743
 30
0.0
 10
10.5757159061
 20
10.6228783674
 30
0.0
 10
10.5544704702
 20
10.6247806302
 30
0.0
 10
10.5335773165
 20
10.6269279967
 30
0.0
 10
10.5130787104
 20
10.6293161014
 30
0.0
 10
10.4930161106
 20
10.6319400833
 30
0.0
 10
10.4734300857
 20
10.6347946002
 30
0.0
 10
10.4543602326
 20
10.6378738416
 30
0.0
 10
10.4358450967
 20
10.6411715386
 30
0.0
 10
10.4179220898
 20
10.6446809787
 30
0.0
 10
10.4006274081
 20
10.6483950147
 30
0.0
 10
10.3839959526
 20
10.6523060772
 30
0.0
 10
10.3680612589
 20
10.6564061981
 30
0.0
 10
10.352855419
 20
10.6606870271
 30
0.0
 10
10.3384090308
 20
10.6651398504
 30
0.0
 10
10.3247510397
 20
10.6697556223
 30
0.0
 10
10.3119089434
 20
10.6745249628
 30
0.0
 10
10.3017648511
 20
10.6786779681
 30
0.0
 10
10.2940852253
 20
10.6820776152
 30
0.0
 10
10.2886299214
 20
10.6846223118
 30
0.0
 10
10.283397098
 20
10.6871980759
 30
0.0
 10
10.2783893669
 20
10.6898036265
 30
0.0
 10
10.2736092537
 20
10.6924376897
 30
0.0
 10
10.2690591267
 20
10.6950988998
 30
0.0
 10
10.2647412794
 20
10.6977859852
 30
0.0
 10
10.2606578496
 20
10.7004975849
 30
0.0
 10
10.2568108683
 20
10.7032323714
 30
0.0
 10
10.2532022675
 20
10.7059890427
 30
0.0
 10
10.2498338076
 20
10.7087662191
 30
0.0
 10
10.2467072082
 20
10.7115626385
 30
0.0
 10
10.2438240033
 20
10.7143769414
 30
0.0
 10
10.2411856668
 20
10.7172078457
 30
0.0
 10
10.2387935828
 20
10.720054075
 30
0.0
 10
10.2366489816
 20
10.7229143042
 30
0.0
 10
10.2347531352
 20
10.725787305
 30
0.0
 10
10.2331071156
 20
10.7286717268
 30
0.0
 10
10.2317120412
 20
10.73156626
 30
0.0
 10
10.2305689308
 20
10.7344694988
 30
0.0
 10
10.2296786626
 20
10.7373798991
 30
0.0
 10
10.2290421388
 20
10.7402959387
 30
0.0
 10
10.2286599001
 20
10.7432155426
 30
0.0
 10
10.2285748211
 20
10.745166073
 30
0.0
 10
10.2285748164
 20
10.746137408
 30
0.0
  0
SPLINE
  5
368
100
AcDbEntity
  8
0
100
AcDbSpline
 62
7
  6
CONTINUOUS
 70
0
 71
3
 72
18
 73
14
 74
0
 42
0.0000001
 43
0.0000001
 44
0.0000000001
 40
0.0
 40
0.0
 40
0.0
 40
0.0
 40
0.1504683897
 40
0.2917144302
 40
0.4244424337
 40
0.4879098403
 40
0.5496094316
 40
0.6682625858
 40
0.7817882724
 40
0.8371379912
 40
0.8918078094
 40
0.9460192717
 40
1.0
 40
1.0
 40
1.0
 40
1.0
 10
12.4488888253
 20
10.5688780114
 30
0.0
 10
12.4501327543
 20
10.5700795546
 30
0.0
 10
12.452618918
 20
10.5723339965
 30
0.0
 10
12.456468483
 20
10.575338308
 30
0.0
 10
12.4597200906
 20
10.5774631169
 30
0.0
 10
12.4623129653
 20
10.5789019682
 30
0.0
 10
12.4648295585
 20
10.5801372705
 30
0.0
 10
12.4679760983
 20
10.5813854971
 30
0.0
 10
12.4711786093
 20
10.5822372897
 30
0.0
 10
12.4737150924
 20
10.5826568945
 30
0.0
 10
12.4755949782
 20
10.5828431125
 30
0.0
 10
12.4774672583
 20
10.5829032523
 30
0.0
 10
12.4787111553
 20
10.5828592472
 30
0.0
 10
12.4793301179
 20
10.5828163187
 30
0.0
  0
SPLINE
  5
369
100
AcDbEntity
  8
0
100
AcDbSpline
 62
7
  6
CONTINUOUS
 70
0
 71
3
 72
18
 73
14
 74
0
 42
0.0000001
 43
0.0000001
 44
0.0000000001
 40
0.0
 40
0.0
 40
0.0
 40
0.0
 40
0.1504683897
 40
0.2917144302
 40
0.4244424337
 40
0.4879098403
 40
0.5496094316
 40
0.6682625858
 40
0.7817882724
 40
0.8371379912
 40
0.8918078094
 40
0.9460192717
 40
1.0
 40
1.0
 40
1.0
 40
1.0
 10
12.4488888253
 20
9.0591358905
 30
0.0
 10
12.4501327543
 20
9.0603374337
 30
0.0
 10
12.452618918
 20
9.0625918756
 30
0.0
 10
12.456468483
 20
9.0655961871
 30
0.0
 10
12.4597200906
 20
9.0677209959
 30
0.0
 10
12.4623129653
 20
9.0691598473
 30
0.0
 10
12.4648295585
 20
9.0703951495
 30
0.0
 10
12.4679760983
 20
9.0716433761
 30
0.0
 10
12.4711786093
 20
9.0724951687
 30
0.0
 10
12.4737150924
 20
9.0729147736
 30
0.0
 10
12.4755949782
 20
9.0731009915
 30
0.0
 10
12.4774672583
 20
9.0731611313
 30
0.0
 10
12.4787111553
 20
9.0731171263
 30
0.0
 10
12.4793301179
 20
9.0730741978
 30
0.0
  0
SPLINE
  5
36A
100
AcDbEntity
  8
0
100
AcDbSpline
 62
7
  6
CONTINUOUS
 70
0
 71
3
 72
23
 73
19
 74
0
 42
0.0000001
 43
0.0000001
 44
0.0000000001
 40
0.0
 40
0.0
 40
0.0
 40
0.0
 40
0.0637775561
 40
0.1273446565
 40
0.1907020307
 40
0.2538561431
 40
0.3168131834
 40
0.3795821015
 40
0.4421733894
 40
0.5045993415
 40
0.5668738676
 40
0.6290123791
 40
0.6910316472
 40
0.7529496401
 40
0.8147853492
 40
0.8765585998
 40
0.9382898533
 40
1.0
 40
1.0
 40
1.0
 40
1.0
 10
11.2632456191
 20
7.4322747013
 30
0.0
 10
11.2632456191
 20
7.4254859796
 30
0.0
 10
11.2629207018
 20
7.4119286365
 30
0.0
 10
11.2614540827
 20
7.3916750558
 30
0.0
 10
11.259012225
 20
7.3715820776
 30
0.0
 10
11.2556008575
 20
7.3516967449
 30
0.0
 10
11.2512276915
 20
7.3320646239
 30
0.0
 10
11.2459028147
 20
7.3127310601
 30
0.0
 10
11.2396384313
 20
7.2937406057
 30
0.0
 10
11.2324489453
 20
7.2751370612
 30
0.0
 10
11.2243508986
 20
7.2569633292
 30
0.0
 10
11.2153629317
 20
7.2392613267
 30
0.0
 10
11.2055057448
 20
7.2220718904
 30
0.0
 10
11.1948020342
 20
7.2054346669
 30
0.0
 10
11.1832764995
 20
7.1893880751
 30
0.0
 10
11.1709555702
 20
7.1739690143
 30
0.0
 10
11.1578681508
 20
7.1592135314
 30
0.0
 10
11.1486505686
 20
7.1498399189
 30
0.0
 10
11.1439260247
 20
7.1452763714
 30
0.0
  0
SPLINE
  5
36B
100
AcDbEntity
  8
0
100
AcDbSpline
 62
7
  6
CONTINUOUS
 70
0
 71
3
 72
21
 73
17
 74
0
 42
0.0000001
 43
0.0000001
 44
0.0000000001
 40
0.0
 40
0.0
 40
0.0
 40
0.0
 40
0.1273176984
 40
0.2537999461
 40
0.3167619614
 40
0.3795355204
 40
0.4421314992
 40
0.5045621453
 40
0.5668413456
 40
0.6289845231
 40
0.6910084433
 40
0.7529310869
 40
0.8147714401
 40
0.8765493236
 40
0.9382852134
 40
1.0
 40
1.0
 40
1.0
 40
1.0
 10
11.487340424
 20
9.4992698962
 30
0.0
 10
11.487340424
 20
9.493972604
 30
0.0
 10
11.4868347621
 20
9.4834059612
 30
0.0
 10
11.4849250192
 20
9.4703433096
 30
0.0
 10
11.4826424715
 20
9.4600968034
 30
0.0
 10
11.4805609072
 20
9.4525389753
 30
0.0
 10
11.4781120712
 20
9.4451154461
 30
0.0
 10
11.4753016094
 20
9.4378431176
 30
0.0
 10
11.4721360015
 20
9.4307388097
 30
0.0
 10
11.468622483
 20
9.4238189186
 30
0.0
 10
11.4647691818
 20
9.4170993957
 30
0.0
 10
11.4605849845
 20
9.4105957271
 30
0.0
 10
11.4560794999
 20
9.404322962
 30
0.0
 10
11.4512630905
 20
9.3982955067
 30
0.0
 10
11.4461470774
 20
9.3925274292
 30
0.0
 10
11.4425438009
 20
9.3888632067
 30
0.0
 10
11.4406969225
 20
9.38707927
 30
0.0
  0
SPLINE
  5
36C
100
AcDbEntity
  8
0
100
AcDbSpline
 62
7
  6
CONTINUOUS
 70
0
 71
3
 72
21
 73
17
 74
0
 42
0.0000001
 43
0.0000001
 44
0.0000000001
 40
0.0
 40
0.0
 40
0.0
 40
0.0
 40
0.1273176984
 40
0.2537999461
 40
0.3167619614
 40
0.3795355204
 40
0.4421314992
 40
0.5045621453
 40
0.5668413456
 40
0.6289845231
 40
0.6910084433
 40
0.7529310869
 40
0.8147714401
 40
0.8765493236
 40
0.9382852134
 40
1.0
 40
1.0
 40
1.0
 40
1.0
 10
10.5214145405
 20
6.9099608753
 30
0.0
 10
10.5214145405
 20
6.9046635831
 30
0.0
 10
10.5209088786
 20
6.8940969402
 30
0.0
 10
10.5189991357
 20
6.8810342887
 30
0.0
 10
10.516716588
 20
6.8707877824
 30
0.0
 10
10.5146350236
 20
6.8632299544
 30
0.0
 10
10.5121861876
 20
6.8558064252
 30
0.0
 10
10.5093757259
 20
6.8485340967
 30
0.0
 10
10.506210118
 20
6.8414297887
 30
0.0
 10
10.5026965995
 20
6.8345098976
 30
0.0
 10
10.4988432983
 20
6.8277903748
 30
0.0
 10
10.4946591009
 20
6.8212867062
 30
0.0
 10
10.4901536164
 20
6.8150139411
 30
0.0
 10
10.485337207
 20
6.8089864858
 30
0.0
 10
10.4802211939
 20
6.8032184083
 30
0.0
 10
10.4766179174
 20
6.7995541858
 30
0.0
 10
10.4747710389
 20
6.7977702491
 30
0.0
  0
SPLINE
  5
36D
100
AcDbEntity
  8
0
100
AcDbSpline
 62
7
  6
CONTINUOUS
 70
0
 71
3
 72
10
 73
6
 74
0
 42
0.0000001
 43
0.0000001
 44
0.0000000001
 40
0.0
 40
0.0
 40
0.0
 40
0.0
 40
0.4871489081
 40
0.7403407881
 40
1.0
 40
1.0
 40
1.0
 40
1.0
 10
10.7075411798
 20
7.5983954631
 30
0.0
 10
10.7091037914
 20
7.5958499393
 30
0.0
 10
10.7116528173
 20
7.5920857222
 30
0.0
 10
10.7153781502
 20
7.5872149875
 30
0.0
 10
10.7173806755
 20
7.5847893963
 30
0.0
 10
10.7184157643
 20
7.5835797481
 30
0.0
  0
SPLINE
  5
36E
100
AcDbEntity
  8
0
100
AcDbSpline
 62
7
  6
CONTINUOUS
 70
0
 71
3
 72
35
 73
31
 74
0
 42
0.0000001
 43
0.0000001
 44
0.0000000001
 40
0.0
 40
0.0
 40
0.0
 40
0.0
 40
0.0367352261
 40
0.0731170334
 40
0.1091188542
 40
0.1447249869
 40
0.1799240585
 40
0.2147120448
 40
0.2490905969
 40
0.283066708
 40
0.3166514899
 40
0.3498589523
 40
0.3827052184
 40
0.4152078143
 40
0.4473842435
 40
0.4792513382
 40
0.5108251403
 40
0.5421194732
 40
0.6038989305
 40
0.6646633752
 40
0.7244102914
 40
0.7830578931
 40
0.811920403
 40
0.8404261393
 40
0.8685254418
 40
0.8961566481
 40
0.9232372927
 40
0.9496643228
 40
0.9753064425
 40
1.0
 40
1.0
 40
1.0
 40
1.0
 10
10.7183966439
 20
7.5809909736
 30
0.0
 10
10.7183966439
 20
7.5779629243
 30
0.0
 10
10.7185533537
 20
7.5719347073
 30
0.0
 10
10.719263711
 20
7.5629641517
 30
0.0
 10
10.7204419584
 20
7.55413658
 30
0.0
 10
10.7220774519
 20
7.5454814481
 30
0.0
 10
10.7241561751
 20
7.5370249633
 30
0.0
 10
10.7266609377
 20
7.5287905231
 30
0.0
 10
10.72957216
 20
7.5207981633
 30
0.0
 10
10.7328684335
 20
7.5130645947
 30
0.0
 10
10.7365271989
 20
7.5056033073
 30
0.0
 10
10.7405252868
 20
7.4984248083
 30
0.0
 10
10.7448393157
 20
7.4915368493
 30
0.0
 10
10.749446072
 20
7.4849447671
 30
0.0
 10
10.7543228761
 20
7.478651896
 30
0.0
 10
10.759447613
 20
7.4726599024
 30
0.0
 10
10.7647991115
 20
7.4669689606
 30
0.0
 10
10.7721764532
 20
7.4598133612
 30
0.0
 10
10.7818633439
 20
7.4516025691
 30
0.0
 10
10.7941280687
 20
7.4428920376
 30
0.0
 10
10.8068407937
 20
7.435346209
 30
0.0
 10
10.8177477561
 20
7.4299887052
 30
0.0
 10
10.8265651547
 20
7.42628147
 30
0.0
 10
10.8331624798
 20
7.4238048179
 30
0.0
 10
10.8397553735
 20
7.4216205897
 30
0.0
 10
10.846317343
 20
7.419733531
 30
0.0
 10
10.8528176254
 20
7.4181509552
 30
0.0
 10
10.8592196279
 20
7.4168825108
 30
0.0
 10
10.8654789693
 20
7.4159410095
 30
0.0
 10
10.869610512
 20
7.41553354
 30
0.0
 10
10.8716411817
 20
7.4153938862
 30
0.0
  0
SPLINE
  5
36F
100
AcDbEntity
  8
0
100
AcDbSpline
 62
7
  6
CONTINUOUS
 70
0
 71
3
 72
21
 73
17
 74
0
 42
0.0000001
 43
0.0000001
 44
0.0000000001
 40
0.0
 40
0.0
 40
0.0
 40
0.0
 40
0.1273175206
 40
0.2538000425
 40
0.3167619346
 40
0.3795354981
 40
0.4421315046
 40
0.5045621465
 40
0.5668413435
 40
0.6289845248
 40
0.6910084554
 40
0.7529310971
 40
0.8147714458
 40
0.876549335
 40
0.938285224
 40
1.0
 40
1.0
 40
1.0
 40
1.0
 10
11.0771364794
 20
7.4575070662
 30
0.0
 10
11.0771364794
 20
7.4502695501
 30
0.0
 10
11.0764456044
 20
7.4358326696
 30
0.0
 10
11.0738364331
 20
7.4179855678
 30
0.0
 10
11.0707178619
 20
7.4039860735
 30
0.0
 10
11.0678738871
 20
7.3936600529
 30
0.0
 10
11.0645281786
 20
7.3835174938
 30
0.0
 10
11.0606883516
 20
7.3735815268
 30
0.0
 10
11.0563632808
 20
7.3638751315
 30
0.0
 10
11.0515629311
 20
7.3544206675
 30
0.0
 10
11.0462983325
 20
7.3452399627
 30
0.0
 10
11.040581597
 20
7.3363541992
 30
0.0
 10
11.0344259491
 20
7.3277838762
 30
0.0
 10
11.0278455029
 20
7.3195486976
 30
0.0
 10
11.0208556631
 20
7.3116679439
 30
0.0
 10
11.0159326672
 20
7.3066615831
 30
0.0
 10
11.0134093421
 20
7.3042242386
 30
0.0
  0
SPLINE
  5
370
100
AcDbEntity
  8
0
100
AcDbSpline
 62
7
  6
CONTINUOUS
 70
0
 71
3
 72
41
 73
37
 74
0
 42
0.0000001
 43
0.0000001
 44
0.0000000001
 40
0.0
 40
0.0
 40
0.0
 40
0.0
 40
0.031075024
 40
0.0623072971
 40
0.0936922211
 40
0.1252210624
 40
0.1568825118
 40
0.1727610974
 40
0.1886673052
 40
0.2205489535
 40
0.2525137254
 40
0.2685233959
 40
0.284546102
 40
0.3166148171
 40
0.3487022747
 40
0.3807856767
 40
0.4128423056
 40
0.4448499765
 40
0.4767874807
 40
0.5086350171
 40
0.5403746015
 40
0.5719904501
 40
0.6034693279
 40
0.6348008563
 40
0.6659777703
 40
0.6969961186
 40
0.7278553991
 40
0.7585586231
 40
0.7891123015
 40
0.8195263493
 40
0.8498139058
 40
0.87999107
 40
0.9100765552
 40
0.9400912679
 40
0.9700578221
 40
1.0
 40
1.0
 40
1.0
 40
1.0
 10
11.0771364794
 20
7.4575070662
 30
0.0
 10
11.0771364794
 20
7.4631324347
 30
0.0
 10
11.0767168384
 20
7.4744159714
 30
0.0
 10
11.0748432457
 20
7.4912872343
 30
0.0
 10
11.0717344445
 20
7.5080595342
 30
0.0
 10
11.067407816
 20
7.5246390873
 30
0.0
 10
11.0628110015
 20
7.5382081702
 30
0.0
 10
11.0585534611
 20
7.5488774767
 30
0.0
 10
11.0539062244
 20
7.559426552
 30
0.0
 10
11.0473914641
 20
7.5723244438
 30
0.0
 10
11.0399821694
 20
7.5847517236
 30
0.0
 10
11.0335375779
 20
7.594381331
 30
0.0
 10
11.0267516167
 20
7.603796658
 30
0.0
 10
11.0176562387
 20
7.6151240231
 30
0.0
 10
11.0058257547
 20
7.6279315347
 30
0.0
 10
10.9931395172
 20
7.6398893936
 30
0.0
 10
10.9796674599
 20
7.6509315265
 30
0.0
 10
10.9654834243
 20
7.6609974086
 30
0.0
 10
10.9506652576
 20
7.6700317053
 30
0.0
 10
10.9352942574
 20
7.6779847576
 30
0.0
 10
10.9194547673
 20
7.6848128042
 30
0.0
 10
10.903233711
 20
7.6904782347
 30
0.0
 10
10.8867201239
 20
7.6949497926
 30
0.0
 10
10.870004673
 20
7.6982027563
 30
0.0
 10
10.8531791633
 20
7.7002190749
 30
0.0
 10
10.8363360409
 20
7.7009874717
 30
0.0
 10
10.8195678911
 20
7.7005035139
 30
0.0
 10
10.802966934
 20
7.6987696465
 30
0.0
 10
10.7866245213
 20
7.6957951905
 30
0.0
 10
10.7706306314
 20
7.6915963017
 30
0.0
 10
10.7550733798
 20
7.6861959029
 30
0.0
 10
10.7400384977
 20
7.679623539
 30
0.0
 10
10.7256089615
 20
7.6719153398
 30
0.0
 10
10.7118641025
 20
7.6631134193
 30
0.0
 10
10.6988807196
 20
7.6532671559
 30
0.0
 10
10.6907770236
 20
7.6460396026
 30
0.0
 10
10.6868784514
 20
7.6422738718
 30
0.0
  0
SPLINE
  5
371
100
AcDbEntity
  8
0
100
AcDbSpline
 62
7
  6
CONTINUOUS
 70
0
 71
3
 72
17
 73
13
 74
0
 42
0.0000001
 43
0.0000001
 44
0.0000000001
 40
0.0
 40
0.0
 40
0.0
 40
0.0
 40
0.0548647422
 40
0.1099333913
 40
0.1654074837
 40
0.2214837877
 40
0.336145709
 40
0.4553802063
 40
0.5804211709
 40
0.7123203349
 40
0.8519514223
 40
1.0
 40
1.0
 40
1.0
 40
1.0
 10
11.2285748021
 20
10.7461380852
 30
0.0
 10
11.2285748055
 20
10.7454319389
 30
0.0
 10
11.228529995
 20
10.7440166137
 30
0.0
 10
11.2283285121
 20
10.7418959398
 30
0.0
 10
11.2279927302
 20
10.7397764394
 30
0.0
 10
11.2273617415
 20
10.7369325672
 30
0.0
 10
11.2262249375
 20
10.733368071
 30
0.0
 10
11.224334963
 20
10.7291432256
 30
0.0
 10
11.2219132518
 20
10.7249419061
 30
0.0
 10
11.2189638398
 20
10.7207682332
 30
0.0
 10
11.2154910819
 20
10.7166258228
 30
0.0
 10
11.2129082801
 20
10.7139679824
 30
0.0
 10
11.211537751
 20
10.7126441529
 30
0.0
  0
SPLINE
  5
372
100
AcDbEntity
  8
0
100
AcDbSpline
 62
7
  6
CONTINUOUS
 70
0
 71
3
 72
39
 73
35
 74
0
 42
0.0000001
 43
0.0000001
 44
0.0000000001
 40
0.0
 40
0.0
 40
0.0
 40
0.0
 40
0.0299424701
 40
0.0599093174
 40
0.0899243244
 40
0.1200101043
 40
0.1501875649
 40
0.1804754189
 40
0.2108897652
 40
0.2414437446
 40
0.2721472716
 40
0.303006856
 40
0.3340255105
 40
0.3652027321
 40
0.396534568
 40
0.4280137546
 40
0.459629913
 40
0.4913698074
 40
0.5232176551
 40
0.555155472
 40
0.5871634555
 40
0.6192203971
 40
0.6513041118
 40
0.6833918814
 40
0.7154609078
 40
0.747488765
 40
0.7794538478
 40
0.811335806
 40
0.8431159644
 40
0.874777716
 40
0.9063068848
 40
0.9376920706
 40
0.9689246614
 40
1.0
 40
1.0
 40
1.0
 40
1.0
 10
10.5325504359
 20
7.7782217563
 30
0.0
 10
10.5398498912
 20
7.785272471
 30
0.0
 10
10.5550227939
 20
7.7988048552
 30
0.0
 10
10.5793321384
 20
7.8172403218
 30
0.0
 10
10.6050672132
 20
7.8337204283
 30
0.0
 10
10.6320842201
 20
7.8481527364
 30
0.0
 10
10.6602346456
 20
7.8604583509
 30
0.0
 10
10.6893631093
 20
7.8705696684
 30
0.0
 10
10.7193090982
 20
7.8784313762
 30
0.0
 10
10.7499076433
 20
7.8840005019
 30
0.0
 10
10.7809902646
 20
7.8872468297
 30
0.0
 10
10.8123859233
 20
7.8881529256
 30
0.0
 10
10.8439219525
 20
7.8867141615
 30
0.0
 10
10.8754249984
 20
7.8829388653
 30
0.0
 10
10.9067219777
 20
7.8768481798
 30
0.0
 10
10.9376409929
 20
7.8684758601
 30
0.0
 10
10.9680122879
 20
7.8578682115
 30
0.0
 10
10.9976691709
 20
7.8450837815
 30
0.0
 10
11.0264488747
 20
7.8301929482
 30
0.0
 10
11.0541934797
 20
7.8132776456
 30
0.0
 10
11.0807507793
 20
7.7944308999
 30
0.0
 10
11.1059750396
 20
7.7737562288
 30
0.0
 10
11.1297278408
 20
7.7513671664
 30
0.0
 10
11.1518788577
 20
7.7273866562
 30
0.0
 10
11.1723064775
 20
7.7019462927
 30
0.0
 10
11.1908985115
 20
7.675185671
 30
0.0
 10
11.2075528629
 20
7.6472516567
 30
0.0
 10
11.2221779695
 20
7.6182975057
 30
0.0
 10
11.2346933461
 20
7.5884820964
 30
0.0
 10
11.2450301132
 20
7.5579690252
 30
0.0
 10
11.2531312542
 20
7.5269259234
 30
0.0
 10
11.2589519049
 20
7.4955226527
 30
0.0
 10
11.2624599043
 20
7.4639338999
 30
0.0
 10
11.2632456191
 20
7.4428072998
 30
0.0
 10
11.2632456191
 20
7.4322747013
 30
0.0
  0
SPLINE
  5
373
100
AcDbEntity
  8
0
100
AcDbSpline
 62
7
  6
CONTINUOUS
 70
0
 71
3
 72
15
 73
11
 74
0
 42
0.0000001
 43
0.0000001
 44
0.0000000001
 40
0.0
 40
0.0
 40
0.0
 40
0.0
 40
0.1259781255
 40
0.2515379689
 40
0.376745136
 40
0.5016718107
 40
0.6263914528
 40
0.7509742651
 40
0.8754948933
 40
1.0
 40
1.0
 40
1.0
 40
1.0
 10
10.7347250527
 20
7.6766208037
 30
0.0
 10
10.7329605017
 20
7.6735988373
 30
0.0
 10
10.7295811465
 20
7.6674795363
 30
0.0
 10
10.724969727
 20
7.6580807209
 30
0.0
 10
10.7208328819
 20
7.6484950863
 30
0.0
 10
10.7171775019
 20
7.6387406918
 30
0.0
 10
10.7140088148
 20
7.628835732
 30
0.0
 10
10.7113307153
 20
7.6187986478
 30
0.0
 10
10.7091464599
 20
7.6086490269
 30
0.0
 10
10.7080208816
 20
7.6018205334
 30
0.0
 10
10.7075411798
 20
7.5983954631
 30
0.0
  0
SPLINE
  5
374
100
AcDbEntity
  8
0
100
AcDbSpline
 62
7
  6
CONTINUOUS
 70
0
 71
3
 72
42
 73
38
 74
0
 42
0.0000001
 43
0.0000001
 44
0.0000000001
 40
0.0
 40
0.0
 40
0.0
 40
0.0
 40
0.0299419634
 40
0.0449235299
 40
0.0599142017
 40
0.0899287029
 40
0.1200139772
 40
0.1350926626
 40
0.1501967046
 40
0.1804840506
 40
0.2108978877
 40
0.2414513551
 40
0.2721543675
 40
0.3030134354
 40
0.3340315696
 40
0.3652082675
 40
0.3965395775
 40
0.4280182343
 40
0.4596338596
 40
0.4913732188
 40
0.5232205284
 40
0.5551578047
 40
0.5871652463
 40
0.6192216448
 40
0.6513048151
 40
0.6833920402
 40
0.7154605222
 40
0.747487836
 40
0.7794523759
 40
0.8113337934
 40
0.8431134117
 40
0.8747746318
 40
0.9063032512
 40
0.9376879208
 40
0.9533258
 40
0.9689252634
 40
1.0
 40
1.0
 40
1.0
 40
1.0
 10
11.2017054217
 20
9.6345041149
 30
0.0
 10
11.204558846
 20
9.6372602944
 30
0.0
 10
11.2090071803
 20
9.6412275515
 30
0.0
 10
11.2152369722
 20
9.6461500535
 30
0.0
 10
11.2216651517
 20
9.6508276044
 30
0.0
 10
11.230052869
 20
9.6561989481
 30
0.0
 10
11.2388484022
 20
9.6608973194
 30
0.0
 10
11.2461024376
 20
9.6642397454
 30
0.0
 10
11.2535063201
 20
9.667306249
 30
0.0
 10
11.2630051656
 20
9.670603607
 30
0.0
 10
11.2747110529
 20
9.673676662
 30
0.0
 10
11.2866723645
 20
9.6758536849
 30
0.0
 10
11.2988228125
 20
9.6771226653
 30
0.0
 10
11.3110956519
 20
9.6774768312
 30
0.0
 10
11.3234233541
 20
9.6769143799
 30
0.0
 10
11.3357381632
 20
9.6754385606
 30
0.0
 10
11.3479724149
 20
9.6730576274
 30
0.0
 10
11.360058917
 20
9.669784794
 30
0.0
 10
11.3719313105
 20
9.6656381558
 30
0.0
 10
11.3835244291
 20
9.6606405875
 30
0.0
 10
11.3947746522
 20
9.654819616
 30
0.0
 10
11.4056202486
 20
9.6482072685
 30
0.0
 10
11.4160017111
 20
9.6408398968
 30
0.0
 10
11.4258620789
 20
9.6327579788
 30
0.0
 10
11.435147246
 20
9.6240058977
 30
0.0
 10
11.4438062554
 20
9.6146317006
 30
0.0
 10
11.4517915751
 20
9.6046868373
 30
0.0
 10
11.4590593571
 20
9.5942258803
 30
0.0
 10
11.4655696756
 20
9.5833062313
 30
0.0
 10
11.4712867446
 20
9.5719877981
 30
0.0
 10
11.4761791121
 20
9.5603327158
 30
0.0
 10
11.4802198422
 20
9.5484048384
 30
0.0
 10
11.4833866127
 20
9.5362700315
 30
0.0
 10
11.485285162
 20
9.5260269389
 30
0.0
 10
11.4863501918
 20
9.5177967381
 30
0.0
 10
11.4871102774
 20
9.5095744131
 30
0.0
 10
11.487340424
 20
9.5033871688
 30
0.0
 10
11.487340424
 20
9.4992698962
 30
0.0
  0
SPLINE
  5
375
100
AcDbEntity
  8
0
100
AcDbSpline
 62
7
  6
CONTINUOUS
 70
0
 71
3
 72
42
 73
38
 74
0
 42
0.0000001
 43
0.0000001
 44
0.0000000001
 40
0.0
 40
0.0
 40
0.0
 40
0.0
 40
0.0299419634
 40
0.0449235299
 40
0.0599142017
 40
0.0899287029
 40
0.1200139772
 40
0.1350926626
 40
0.1501967046
 40
0.1804840506
 40
0.2108978877
 40
0.2414513551
 40
0.2721543675
 40
0.3030134354
 40
0.3340315696
 40
0.3652082675
 40
0.3965395775
 40
0.4280182343
 40
0.4596338596
 40
0.4913732188
 40
0.5232205284
 40
0.5551578047
 40
0.5871652463
 40
0.6192216448
 40
0.6513048151
 40
0.6833920402
 40
0.7154605222
 40
0.747487836
 40
0.7794523759
 40
0.8113337934
 40
0.8431134117
 40
0.8747746318
 40
0.9063032512
 40
0.9376879208
 40
0.9533258
 40
0.9689252634
 40
1.0
 40
1.0
 40
1.0
 40
1.0
 10
10.2357795382
 20
7.045195094
 30
0.0
 10
10.2386329625
 20
7.0479512735
 30
0.0
 10
10.2430812968
 20
7.0519185306
 30
0.0
 10
10.2493110887
 20
7.0568410326
 30
0.0
 10
10.2557392682
 20
7.0615185834
 30
0.0
 10
10.2641269855
 20
7.0668899272
 30
0.0
 10
10.2729225187
 20
7.0715882985
 30
0.0
 10
10.2801765541
 20
7.0749307245
 30
0.0
 10
10.2875804366
 20
7.0779972281
 30
0.0
 10
10.2970792821
 20
7.0812945861
 30
0.0
 10
10.3087851694
 20
7.0843676411
 30
0.0
 10
10.320746481
 20
7.086544664
 30
0.0
 10
10.332896929
 20
7.0878136444
 30
0.0
 10
10.3451697684
 20
7.0881678102
 30
0.0
 10
10.3574974706
 20
7.087605359
 30
0.0
 10
10.3698122797
 20
7.0861295397
 30
0.0
 10
10.3820465313
 20
7.0837486065
 30
0.0
 10
10.3941330335
 20
7.0804757731
 30
0.0
 10
10.4060054269
 20
7.0763291348
 30
0.0
 10
10.4175985456
 20
7.0713315666
 30
0.0
 10
10.4288487687
 20
7.0655105951
 30
0.0
 10
10.4396943651
 20
7.0588982476
 30
0.0
 10
10.4500758276
 20
7.0515308759
 30
0.0
 10
10.4599361954
 20
7.0434489578
 30
0.0
 10
10.4692213625
 20
7.0346968767
 30
0.0
 10
10.4778803719
 20
7.0253226796
 30
0.0
 10
10.4858656916
 20
7.0153778164
 30
0.0
 10
10.4931334736
 20
7.0049168593
 30
0.0
 10
10.4996437921
 20
6.9939972104
 30
0.0
 10
10.505360861
 20
6.9826787771
 30
0.0
 10
10.5102532285
 20
6.9710236949
 30
0.0
 10
10.5142939587
 20
6.9590958174
 30
0.0
 10
10.5174607292
 20
6.9469610105
 30
0.0
 10
10.5193592784
 20
6.9367179179
 30
0.0
 10
10.5204243083
 20
6.9284877172
 30
0.0
 10
10.5211843939
 20
6.9202653921
 30
0.0
 10
10.5214145405
 20
6.9140781479
 30
0.0
 10
10.5214145405
 20
6.9099608753
 30
0.0
  0
SPLINE
  5
376
100
AcDbEntity
  8
0
100
AcDbSpline
 62
7
  6
CONTINUOUS
 70
0
 71
3
 72
82
 73
78
 74
0
 42
0.0000001
 43
0.0000001
 44
0.0000000001
 40
0.0
 40
0.0
 40
0.0
 40
0.0
 40
0.0027164291
 40
0.0054532364
 40
0.0082303053
 40
0.0110666058
 40
0.0139798164
 40
0.016986131
 40
0.0201001037
 40
0.0233346222
 40
0.0267009905
 40
0.0302089475
 40
0.0338668707
 40
0.0376818493
 40
0.0416598249
 40
0.0458057691
 40
0.0501237025
 40
0.0546169039
 40
0.0592879295
 40
0.0641387045
 40
0.069170648
 40
0.0743846285
 40
0.0797811279
 40
0.0853602093
 40
0.0970640744
 40
0.1094908292
 40
0.122630084
 40
0.1364677626
 40
0.1509865887
 40
0.1661664945
 40
0.1819849411
 40
0.1984171777
 40
0.2154364542
 40
0.233014197
 40
0.2511201854
 40
0.2697227022
 40
0.2887886669
 40
0.3082837565
 40
0.3281725155
 40
0.3484184781
 40
0.3689842782
 40
0.3898317536
 40
0.4109220451
 40
0.4536720397
 40
0.4969140311
 40
0.540322302
 40
0.5835695392
 40
0.6263299734
 40
0.6474273998
 40
0.6682832705
 40
0.6888587055
 40
0.7091155138
 40
0.7290162972
 40
0.7485245643
 40
0.7676048337
 40
0.786222742
 40
0.8043451595
 40
0.821940317
 40
0.8389779517
 40
0.8554294454
 40
0.8712679825
 40
0.8864687352
 40
0.9010090829
 40
0.9148688848
 40
0.9280307811
 40
0.9404805813
 40
0.9522077554
 40
0.9577985268
 40
0.9632067444
 40
0.9684324379
 40
0.9734760336
 40
0.9783383943
 40
0.9830208414
 40
0.9875253833
 40
0.9918546059
 40
0.9960115907
 40
1.0
 40
1.0
 40
1.0
 40
1.0
 10
12.4184475327
 20
9.7049249266
 30
0.0
 10
12.4176263276
 20
9.7049818817
 30
0.0
 10
12.4159819634
 20
9.7051705624
 30
0.0
 10
12.4135363568
 20
9.7056754377
 30
0.0
 10
12.411109224
 20
9.7064020566
 30
0.0
 10
12.4087023181
 20
9.7073497828
 30
0.0
 10
12.4063168552
 20
9.708517701
 30
0.0
 10
12.4039540773
 20
9.7099049454
 30
0.0
 10
12.4016150747
 20
9.7115105188
 30
0.0
 10
12.399300859
 20
9.7133333746
 30
0.0
 10
12.3970124794
 20
9.7153725023
 30
0.0
 10
12.3947508687
 20
9.7176267316
 30
0.0
 10
12.3925170526
 20
9.7200949245
 30
0.0
 10
12.3903120137
 20
9.7227758178
 30
0.0
 10
12.3881367256
 20
9.7256680614
 30
0.0
 10
12.3859922425
 20
9.7287702564
 30
0.0
 10
12.3838795166
 20
9.7320808431
 30
0.0
 10
12.3817995936
 20
9.735598214
 30
0.0
 10
12.3797534675
 20
9.7393206295
 30
0.0
 10
12.3777421126
 20
9.7432462447
 30
0.0
 10
12.3757665603
 20
9.7473731349
 30
0.0
 10
12.3738277431
 20
9.7516992344
 30
0.0
 10
12.3719266344
 20
9.7562224137
 30
0.0
 10
12.3694030259
 20
9.7626155191
 30
0.0
 10
12.3663593884
 20
9.7710912238
 30
0.0
 10
12.3629279694
 20
9.7818536531
 30
0.0
 10
12.359668437
 20
9.79334287
 30
0.0
 10
12.3565873822
 20
9.8055359307
 30
0.0
 10
12.3536910475
 20
9.8184086227
 30
0.0
 10
12.350985316
 20
9.8319352395
 30
0.0
 10
12.3484756915
 20
9.8460887372
 30
0.0
 10
12.3461672827
 20
9.8608407741
 30
0.0
 10
12.3440647927
 20
9.8761617779
 30
0.0
 10
12.3421724974
 20
9.8920210066
 30
0.0
 10
12.3404942468
 20
9.9083866183
 30
0.0
 10
12.3390334574
 20
9.9252257432
 30
0.0
 10
12.3377931054
 20
9.9425045513
 30
0.0
 10
12.3367757214
 20
9.960188319
 30
0.0
 10
12.3359833765
 20
9.9782414984
 30
0.0
 10
12.3354176851
 20
9.9966277956
 30
0.0
 10
12.3350798115
 20
10.0153102347
 30
0.0
 10
12.3349704338
 20
10.0342512805
 30
0.0
 10
12.3351303977
 20
10.0599147902
 30
0.0
 10
12.335906502
 20
10.0923585444
 30
0.0
 10
12.3377355436
 20
10.1315321133
 30
0.0
 10
12.3404520855
 20
10.1708053217
 30
0.0
 10
12.3440342637
 20
10.2098623907
 30
0.0
 10
12.3477328984
 20
10.2421109312
 30
0.0
 10
12.3511083268
 20
10.2675599346
 30
0.0
 10
12.3538250055
 20
10.2863131681
 30
0.0
 10
12.3567324766
 20
10.3047799318
 30
0.0
 10
12.3598249018
 20
10.3229231204
 30
0.0
 10
12.3630960397
 20
10.3407062483
 30
0.0
 10
12.3665392876
 20
10.3580935705
 30
0.0
 10
12.3701476933
 20
10.375050143
 30
0.0
 10
12.3739139716
 20
10.3915418934
 30
0.0
 10
12.3778305175
 20
10.4075356896
 30
0.0
 10
12.3818894235
 20
10.4229994115
 30
0.0
 10
12.386082485
 20
10.4379020229
 30
0.0
 10
12.3904012267
 20
10.4522136348
 30
0.0
 10
12.3948369205
 20
10.4659055651
 30
0.0
 10
12.3993806035
 20
10.4789503995
 30
0.0
 10
12.4040231026
 20
10.4913220652
 30
0.0
 10
12.4087550435
 20
10.5029958745
 30
0.0
 10
12.4135668984
 20
10.5139486695
 30
0.0
 10
12.4184489852
 20
10.5241585811
 30
0.0
 10
12.4226317892
 20
10.5321537235
 30
0.0
 10
12.4260125616
 20
10.5381541854
 30
0.0
 10
12.4285191385
 20
10.542384429
 30
0.0
 10
12.4310359376
 20
10.5464144116
 30
0.0
 10
12.4335617301
 20
10.5502421262
 30
0.0
 10
12.4360952195
 20
10.5538656825
 30
0.0
 10
12.4386352154
 20
10.5572832748
 30
0.0
 10
12.4411804654
 20
10.5604932642
 30
0.0
 10
12.443729799
 20
10.5634940688
 30
0.0
 10
12.4462818276
 20
10.5662840596
 30
0.0
 10
12.4480195094
 20
10.5680383167
 30
0.0
 10
12.4488888253
 20
10.5688780114
 30
0.0
  0
SPLINE
  5
377
100
AcDbEntity
  8
0
100
AcDbSpline
 62
7
  6
CONTINUOUS
 70
0
 71
3
 72
57
 73
53
 74
0
 42
0.0000001
 43
0.0000001
 44
0.0000000001
 40
0.0
 40
0.0
 40
0.0
 40
0.0
 40
0.0075207525
 40
0.0156240325
 40
0.0243308614
 40
0.0336546301
 40
0.0436024271
 40
0.0541763765
 40
0.0653744283
 40
0.0771909745
 40
0.0896175297
 40
0.1026429528
 40
0.1162538654
 40
0.1304349454
 40
0.1451689843
 40
0.1604372353
 40
0.1762194622
 40
0.1924940453
 40
0.2092382131
 40
0.2264279957
 40
0.2620427487
 40
0.2991284251
 40
0.3374614636
 40
0.3768078207
 40
0.4169251328
 40
0.4575648304
 40
0.4984741812
 40
0.5393983111
 40
0.5800822305
 40
0.6202728557
 40
0.6597210261
 40
0.6981835546
 40
0.7354253343
 40
0.7712214718
 40
0.7885109206
 40
0.8053604621
 40
0.8217458644
 40
0.8376440784
 40
0.8530332192
 40
0.8678926933
 40
0.8822034212
 40
0.895947816
 40
0.9091100893
 40
0.9216764187
 40
0.9336350908
 40
0.9449769803
 40
0.9556957931
 40
0.9657885947
 40
0.9752564015
 40
0.9841051066
 40
0.9923469445
 40
1.0
 40
1.0
 40
1.0
 40
1.0
 10
12.3986574614
 20
9.8907246757
 30
0.0
 10
12.397822829
 20
9.8917508918
 30
0.0
 10
12.3961783153
 20
9.8939564304
 30
0.0
 10
12.3938640893
 20
9.8975593299
 30
0.0
 10
12.3916159084
 20
9.90157135
 30
0.0
 10
12.3894373959
 20
9.9059859462
 30
0.0
 10
12.3873317967
 20
9.9107962306
 30
0.0
 10
12.3853025206
 20
9.9159945011
 30
0.0
 10
12.3833528751
 20
9.9215723787
 30
0.0
 10
12.3814860422
 20
9.927520783
 30
0.0
 10
12.3797051601
 20
9.9338299943
 30
0.0
 10
12.3780131797
 20
9.940489646
 30
0.0
 10
12.3764129252
 20
9.9474887678
 30
0.0
 10
12.3749071082
 20
9.9548158078
 30
0.0
 10
12.373498221
 20
9.9624586461
 30
0.0
 10
12.3721886471
 20
9.9704046296
 30
0.0
 10
12.3709805882
 20
9.9786405914
 30
0.0
 10
12.3698760542
 20
9.9871528695
 30
0.0
 10
12.3688769065
 20
9.9959273546
 30
0.0
 10
12.3676733095
 20
10.0081008187
 30
0.0
 10
12.3664537852
 20
10.0238660207
 30
0.0
 10
12.3654485567
 20
10.0433709685
 30
0.0
 10
12.3648919609
 20
10.0635503702
 30
0.0
 10
12.3647878811
 20
10.0842702358
 30
0.0
 10
12.3651371916
 20
10.1053930921
 30
0.0
 10
12.3659376884
 20
10.1267787026
 30
0.0
 10
12.3671841324
 20
10.1482850768
 30
0.0
 10
12.368868275
 20
10.1697694087
 30
0.0
 10
12.3709789071
 20
10.1910890418
 30
0.0
 10
12.3735019486
 20
10.2121024307
 30
0.0
 10
12.3764205433
 20
10.2326700766
 30
0.0
 10
12.3797151487
 20
10.252655535
 30
0.0
 10
12.3833637056
 20
10.2719261247
 30
0.0
 10
12.3867162439
 20
10.2874575679
 30
0.0
 10
12.3895648844
 20
10.2994239539
 30
0.0
 10
12.3917493448
 20
10.3080380244
 30
0.0
 10
12.3940028511
 20
10.3163810972
 30
0.0
 10
12.3963216428
 20
10.3244393458
 30
0.0
 10
12.398701849
 20
10.332199405
 30
0.0
 10
12.401139517
 20
10.3396484134
 30
0.0
 10
12.4036305481
 20
10.3467740451
 30
0.0
 10
12.4061708134
 20
10.3535645123
 30
0.0
 10
12.408756072
 20
10.3600086063
 30
0.0
 10
12.4113820011
 20
10.3660957174
 30
0.0
 10
12.414044275
 20
10.3718158341
 30
0.0
 10
12.4167384534
 20
10.3771596111
 30
0.0
 10
12.4194601139
 20
10.3821183518
 30
0.0
 10
12.4222048533
 20
10.3866840236
 30
0.0
 10
12.4249681801
 20
10.39084932
 30
0.0
 10
12.4277459326
 20
10.3946077644
 30
0.0
 10
12.4305336234
 20
10.3979530758
 30
0.0
 10
12.4324658623
 20
10.3999776175
 30
0.0
 10
12.4334340104
 20
10.4009127768
 30
0.0
  0
SPLINE
  5
378
100
AcDbEntity
  8
0
100
AcDbSpline
 62
7
  6
CONTINUOUS
 70
0
 71
3
 72
82
 73
78
 74
0
 42
0.0000001
 43
0.0000001
 44
0.0000000001
 40
0.0
 40
0.0
 40
0.0
 40
0.0
 40
0.0027164291
 40
0.0054532364
 40
0.0082303053
 40
0.0110666058
 40
0.0139798164
 40
0.016986131
 40
0.0201001037
 40
0.0233346222
 40
0.0267009905
 40
0.0302089475
 40
0.0338668707
 40
0.0376818493
 40
0.0416598249
 40
0.0458057691
 40
0.0501237025
 40
0.0546169039
 40
0.0592879295
 40
0.0641387045
 40
0.069170648
 40
0.0743846285
 40
0.0797811279
 40
0.0853602093
 40
0.0970640744
 40
0.1094908292
 40
0.122630084
 40
0.1364677626
 40
0.1509865887
 40
0.1661664945
 40
0.1819849411
 40
0.1984171777
 40
0.2154364542
 40
0.233014197
 40
0.2511201854
 40
0.2697227022
 40
0.2887886669
 40
0.3082837565
 40
0.3281725155
 40
0.3484184781
 40
0.3689842782
 40
0.3898317536
 40
0.4109220451
 40
0.4536720397
 40
0.4969140311
 40
0.540322302
 40
0.5835695392
 40
0.6263299734
 40
0.6474273998
 40
0.6682832705
 40
0.6888587055
 40
0.7091155138
 40
0.7290162972
 40
0.7485245643
 40
0.7676048337
 40
0.786222742
 40
0.8043451595
 40
0.821940317
 40
0.8389779517
 40
0.8554294454
 40
0.8712679825
 40
0.8864687352
 40
0.9010090829
 40
0.9148688848
 40
0.9280307811
 40
0.9404805813
 40
0.9522077554
 40
0.9577985268
 40
0.9632067444
 40
0.9684324379
 40
0.9734760336
 40
0.9783383943
 40
0.9830208414
 40
0.9875253833
 40
0.9918546059
 40
0.9960115907
 40
1.0
 40
1.0
 40
1.0
 40
1.0
 10
12.4184475327
 20
8.1951828056
 30
0.0
 10
12.4176263276
 20
8.1952397608
 30
0.0
 10
12.4159819634
 20
8.1954284415
 30
0.0
 10
12.4135363568
 20
8.1959333167
 30
0.0
 10
12.411109224
 20
8.1966599357
 30
0.0
 10
12.4087023181
 20
8.1976076619
 30
0.0
 10
12.4063168552
 20
8.1987755801
 30
0.0
 10
12.4039540773
 20
8.2001628244
 30
0.0
 10
12.4016150747
 20
8.2017683978
 30
0.0
 10
12.399300859
 20
8.2035912536
 30
0.0
 10
12.3970124794
 20
8.2056303814
 30
0.0
 10
12.3947508687
 20
8.2078846106
 30
0.0
 10
12.3925170526
 20
8.2103528036
 30
0.0
 10
12.3903120137
 20
8.2130336969
 30
0.0
 10
12.3881367256
 20
8.2159259404
 30
0.0
 10
12.3859922425
 20
8.2190281355
 30
0.0
 10
12.3838795166
 20
8.2223387221
 30
0.0
 10
12.3817995936
 20
8.2258560931
 30
0.0
 10
12.3797534675
 20
8.2295785086
 30
0.0
 10
12.3777421126
 20
8.2335041237
 30
0.0
 10
12.3757665603
 20
8.237631014
 30
0.0
 10
12.3738277431
 20
8.2419571134
 30
0.0
 10
12.3719266344
 20
8.2464802928
 30
0.0
 10
12.3694030259
 20
8.2528733982
 30
0.0
 10
12.3663593884
 20
8.2613491029
 30
0.0
 10
12.3629279694
 20
8.2721115321
 30
0.0
 10
12.359668437
 20
8.283600749
 30
0.0
 10
12.3565873822
 20
8.2957938097
 30
0.0
 10
12.3536910475
 20
8.3086665018
 30
0.0
 10
12.350985316
 20
8.3221931186
 30
0.0
 10
12.3484756915
 20
8.3363466163
 30
0.0
 10
12.3461672827
 20
8.3510986532
 30
0.0
 10
12.3440647927
 20
8.366419657
 30
0.0
 10
12.3421724974
 20
8.3822788857
 30
0.0
 10
12.3404942468
 20
8.3986444974
 30
0.0
 10
12.3390334574
 20
8.4154836223
 30
0.0
 10
12.3377931054
 20
8.4327624304
 30
0.0
 10
12.3367757214
 20
8.4504461981
 30
0.0
 10
12.3359833765
 20
8.4684993775
 30
0.0
 10
12.3354176851
 20
8.4868856747
 30
0.0
 10
12.3350798115
 20
8.5055681137
 30
0.0
 10
12.3349704338
 20
8.5245091596
 30
0.0
 10
12.3351303977
 20
8.5501726693
 30
0.0
 10
12.335906502
 20
8.5826164235
 30
0.0
 10
12.3377355436
 20
8.6217899924
 30
0.0
 10
12.3404520855
 20
8.6610632008
 30
0.0
 10
12.3440342637
 20
8.7001202697
 30
0.0
 10
12.3477328984
 20
8.7323688103
 30
0.0
 10
12.3511083268
 20
8.7578178136
 30
0.0
 10
12.3538250055
 20
8.7765710472
 30
0.0
 10
12.3567324766
 20
8.7950378109
 30
0.0
 10
12.3598249018
 20
8.8131809995
 30
0.0
 10
12.3630960397
 20
8.8309641274
 30
0.0
 10
12.3665392876
 20
8.8483514496
 30
0.0
 10
12.3701476933
 20
8.8653080221
 30
0.0
 10
12.3739139716
 20
8.8817997725
 30
0.0
 10
12.3778305175
 20
8.8977935687
 30
0.0
 10
12.3818894235
 20
8.9132572905
 30
0.0
 10
12.386082485
 20
8.928159902
 30
0.0
 10
12.3904012267
 20
8.9424715139
 30
0.0
 10
12.3948369205
 20
8.9561634442
 30
0.0
 10
12.3993806035
 20
8.9692082786
 30
0.0
 10
12.4040231026
 20
8.9815799443
 30
0.0
 10
12.4087550435
 20
8.9932537536
 30
0.0
 10
12.4135668984
 20
9.0042065485
 30
0.0
 10
12.4184489852
 20
9.0144164602
 30
0.0
 10
12.4226317892
 20
9.0224116026
 30
0.0
 10
12.4260125616
 20
9.0284120645
 30
0.0
 10
12.4285191385
 20
9.0326423081
 30
0.0
 10
12.4310359376
 20
9.0366722907
 30
0.0
 10
12.4335617301
 20
9.0405000053
 30
0.0
 10
12.4360952195
 20
9.0441235616
 30
0.0
 10
12.4386352154
 20
9.0475411538
 30
0.0
 10
12.4411804654
 20
9.0507511433
 30
0.0
 10
12.443729799
 20
9.0537519479
 30
0.0
 10
12.4462818276
 20
9.0565419386
 30
0.0
 10
12.4480195094
 20
9.0582961957
 30
0.0
 10
12.4488888253
 20
9.0591358905
 30
0.0
  0
SPLINE
  5
379
100
AcDbEntity
  8
0
100
AcDbSpline
 62
7
  6
CONTINUOUS
 70
0
 71
3
 72
57
 73
53
 74
0
 42
0.0000001
 43
0.0000001
 44
0.0000000001
 40
0.0
 40
0.0
 40
0.0
 40
0.0
 40
0.0075207525
 40
0.0156240325
 40
0.0243308614
 40
0.0336546301
 40
0.0436024271
 40
0.0541763765
 40
0.0653744283
 40
0.0771909745
 40
0.0896175297
 40
0.1026429528
 40
0.1162538654
 40
0.1304349454
 40
0.1451689843
 40
0.1604372353
 40
0.1762194622
 40
0.1924940453
 40
0.2092382131
 40
0.2264279957
 40
0.2620427487
 40
0.2991284251
 40
0.3374614636
 40
0.3768078207
 40
0.4169251328
 40
0.4575648304
 40
0.4984741812
 40
0.5393983111
 40
0.5800822305
 40
0.6202728557
 40
0.6597210261
 40
0.6981835546
 40
0.7354253343
 40
0.7712214718
 40
0.7885109206
 40
0.8053604621
 40
0.8217458644
 40
0.8376440784
 40
0.8530332192
 40
0.8678926933
 40
0.8822034212
 40
0.895947816
 40
0.9091100893
 40
0.9216764187
 40
0.9336350908
 40
0.9449769803
 40
0.9556957931
 40
0.9657885947
 40
0.9752564015
 40
0.9841051066
 40
0.9923469445
 40
1.0
 40
1.0
 40
1.0
 40
1.0
 10
12.3986574614
 20
8.3809825547
 30
0.0
 10
12.397822829
 20
8.3820087709
 30
0.0
 10
12.3961783153
 20
8.3842143095
 30
0.0
 10
12.3938640893
 20
8.3878172089
 30
0.0
 10
12.3916159084
 20
8.3918292291
 30
0.0
 10
12.3894373959
 20
8.3962438253
 30
0.0
 10
12.3873317967
 20
8.4010541096
 30
0.0
 10
12.3853025206
 20
8.4062523801
 30
0.0
 10
12.3833528751
 20
8.4118302577
 30
0.0
 10
12.3814860422
 20
8.4177786621
 30
0.0
 10
12.3797051601
 20
8.4240878734
 30
0.0
 10
12.3780131797
 20
8.4307475251
 30
0.0
 10
12.3764129252
 20
8.4377466469
 30
0.0
 10
12.3749071082
 20
8.4450736868
 30
0.0
 10
12.373498221
 20
8.4527165252
 30
0.0
 10
12.3721886471
 20
8.4606625087
 30
0.0
 10
12.3709805882
 20
8.4688984705
 30
0.0
 10
12.3698760542
 20
8.4774107486
 30
0.0
 10
12.3688769065
 20
8.4861852336
 30
0.0
 10
12.3676733095
 20
8.4983586978
 30
0.0
 10
12.3664537852
 20
8.5141238997
 30
0.0
 10
12.3654485567
 20
8.5336288476
 30
0.0
 10
12.3648919609
 20
8.5538082492
 30
0.0
 10
12.3647878811
 20
8.5745281149
 30
0.0
 10
12.3651371916
 20
8.5956509712
 30
0.0
 10
12.3659376884
 20
8.6170365816
 30
0.0
 10
12.3671841324
 20
8.6385429558
 30
0.0
 10
12.368868275
 20
8.6600272878
 30
0.0
 10
12.3709789071
 20
8.6813469209
 30
0.0
 10
12.3735019486
 20
8.7023603097
 30
0.0
 10
12.3764205433
 20
8.7229279557
 30
0.0
 10
12.3797151487
 20
8.742913414
 30
0.0
 10
12.3833637056
 20
8.7621840038
 30
0.0
 10
12.3867162439
 20
8.777715447
 30
0.0
 10
12.3895648844
 20
8.789681833
 30
0.0
 10
12.3917493448
 20
8.7982959034
 30
0.0
 10
12.3940028511
 20
8.8066389763
 30
0.0
 10
12.3963216428
 20
8.8146972249
 30
0.0
 10
12.398701849
 20
8.8224572841
 30
0.0
 10
12.401139517
 20
8.8299062924
 30
0.0
 10
12.4036305481
 20
8.8370319242
 30
0.0
 10
12.4061708134
 20
8.8438223914
 30
0.0
 10
12.408756072
 20
8.8502664854
 30
0.0
 10
12.4113820011
 20
8.8563535964
 30
0.0
 10
12.414044275
 20
8.8620737132
 30
0.0
 10
12.4167384534
 20
8.8674174902
 30
0.0
 10
12.4194601139
 20
8.8723762309
 30
0.0
 10
12.4222048533
 20
8.8769419026
 30
0.0
 10
12.4249681801
 20
8.8811071991
 30
0.0
 10
12.4277459326
 20
8.8848656434
 30
0.0
 10
12.4305336234
 20
8.8882109548
 30
0.0
 10
12.4324658623
 20
8.8902354966
 30
0.0
 10
12.4334340104
 20
8.8911706559
 30
0.0
  0
SPLINE
  5
37A
100
AcDbEntity
  8
0
100
AcDbSpline
 62
7
  6
CONTINUOUS
 70
0
 71
3
 72
67
 73
63
 74
0
 42
0.0000001
 43
0.0000001
 44
0.0000000001
 40
0.0
 40
0.0
 40
0.0
 40
0.0
 40
0.0156377072
 40
0.0313290664
 40
0.0470718673
 40
0.0628657657
 40
0.0787087642
 40
0.0945986991
 40
0.1105329856
 40
0.1265085931
 40
0.1425221376
 40
0.1585698879
 40
0.1746478106
 40
0.1907516066
 40
0.2230099941
 40
0.2553153814
 40
0.2876278764
 40
0.31990734
 40
0.3360266888
 40
0.3521233407
 40
0.3681928315
 40
0.3842309354
 40
0.4002337028
 40
0.4161975009
 40
0.432119049
 40
0.4479954473
 40
0.4638242056
 40
0.4796032741
 40
0.4953310665
 40
0.5110064753
 40
0.5266288866
 40
0.5421981956
 40
0.5577148123
 40
0.5731796589
 40
0.5885941658
 40
0.6039602671
 40
0.6192803848
 40
0.6345574061
 40
0.6497946573
 40
0.6649958773
 40
0.6801651811
 40
0.6953070169
 40
0.7104261205
 40
0.7255274696
 40
0.7406162319
 40
0.7556977093
 40
0.7707772798
 40
0.7858603417
 40
0.8009522579
 40
0.8160582968
 40
0.8311835747
 40
0.8463330027
 40
0.8615112387
 40
0.8767226376
 40
0.8919712064
 40
0.9072605699
 40
0.9225939132
 40
0.937974017
 40
0.9534031807
 40
0.9688829182
 40
0.9844154175
 40
1.0
 40
1.0
 40
1.0
 40
1.0
 10
11.0983496909
 20
7.4479974563
 30
0.0
 10
11.0983496909
 20
7.4521923824
 30
0.0
 10
11.0981429773
 20
7.4605980547
 30
0.0
 10
11.0972174183
 20
7.4731961857
 30
0.0
 10
11.0956778903
 20
7.4857765853
 30
0.0
 10
11.0935283231
 20
7.49830836
 30
0.0
 10
11.090773777
 20
7.5107616006
 30
0.0
 10
11.0874209689
 20
7.5231062426
 30
0.0
 10
11.0834780043
 20
7.5353125917
 30
0.0
 10
11.0789543818
 20
7.5473512578
 30
0.0
 10
11.0738609752
 20
7.5591932718
 30
0.0
 10
11.0682101431
 20
7.5708100656
 30
0.0
 10
11.0620152964
 20
7.5821739653
 30
0.0
 10
11.0530467907
 20
7.5969578705
 30
0.0
 10
11.0405529666
 20
7.6146671359
 30
0.0
 10
11.0236664384
 20
7.6344677828
 30
0.0
 10
11.00503657
 20
7.6526458402
 30
0.0
 10
10.9881954254
 20
7.666305818
 30
0.0
 10
10.9740349692
 20
7.6762553187
 30
0.0
 10
10.9631007047
 20
7.683208378
 30
0.0
 10
10.9518758333
 20
7.6896375759
 30
0.0
 10
10.9403870986
 20
7.6955276484
 30
0.0
 10
10.9286622121
 20
7.7008643156
 30
0.0
 10
10.9167293875
 20
7.7056347539
 30
0.0
 10
10.904617354
 20
7.7098274649
 30
0.0
 10
10.8923552615
 20
7.7134323268
 30
0.0
 10
10.8799726231
 20
7.7164406105
 30
0.0
 10
10.8674992582
 20
7.718845074
 30
0.0
 10
10.8549651998
 20
7.7206399104
 30
0.0
 10
10.842400628
 20
7.7218207608
 30
0.0
 10
10.8298358018
 20
7.7223847245
 30
0.0
 10
10.8173009887
 20
7.7223304402
 30
0.0
 10
10.8048263835
 20
7.7216580173
 30
0.0
 10
10.7924420418
 20
7.7203690354
 30
0.0
 10
10.780177812
 20
7.7184665417
 30
0.0
 10
10.7680632506
 20
7.7159551175
 30
0.0
 10
10.7561275571
 20
7.7128407948
 30
0.0
 10
10.744399509
 20
7.7091310422
 30
0.0
 10
10.7329073972
 20
7.7048347495
 30
0.0
 10
10.7216789287
 20
7.699962277
 30
0.0
 10
10.7107411808
 20
7.6945253589
 30
0.0
 10
10.7001205408
 20
7.6885370776
 30
0.0
 10
10.6898426455
 20
7.6820118344
 30
0.0
 10
10.6799322769
 20
7.6749653789
 30
0.0
 10
10.6704133371
 20
7.6674147039
 30
0.0
 10
10.6613087947
 20
7.6593780073
 30
0.0
 10
10.6526406329
 20
7.650874651
 30
0.0
 10
10.6444297406
 20
7.6419251677
 30
0.0
 10
10.636695911
 20
7.6325511521
 30
0.0
 10
10.6294577975
 20
7.6227752119
 30
0.0
 10
10.6227328714
 20
7.6126209169
 30
0.0
 10
10.616537315
 20
7.6021127822
 30
0.0
 10
10.6108860438
 20
7.5912761616
 30
0.0
 10
10.6057926728
 20
7.5801371895
 30
0.0
 10
10.6012694848
 20
7.5687227224
 30
0.0
 10
10.5973273393
 20
7.5570603014
 30
0.0
 10
10.5939756931
 20
7.5451780512
 30
0.0
 10
10.5912226084
 20
7.5331045968
 30
0.0
 10
10.5890747509
 20
7.5208691228
 30
0.0
 10
10.5875371216
 20
7.5085008582
 30
0.0
 10
10.5866135926
 20
7.4960302005
 30
0.0
 10
10.5864089727
 20
7.4876813407
 30
0.0
 10
10.5864089727
 20
7.4835006657
 30
0.0
  0
SPLINE
  5
37B
100
AcDbEntity
  8
0
100
AcDbSpline
 62
7
  6
CONTINUOUS
 70
0
 71
3
 72
23
 73
19
 74
0
 42
0.0000001
 43
0.0000001
 44
0.0000000001
 40
0.0
 40
0.0
 40
0.0
 40
0.0
 40
0.0637775561
 40
0.1273446565
 40
0.1907020307
 40
0.2538561431
 40
0.3168131834
 40
0.3795821015
 40
0.4421733894
 40
0.5045993415
 40
0.5668738676
 40
0.6290123791
 40
0.6910316472
 40
0.7529496401
 40
0.8147853492
 40
0.8765585998
 40
0.9382898533
 40
1.0
 40
1.0
 40
1.0
 40
1.0
 10
10.4132308416
 20
7.4912234264
 30
0.0
 10
10.4132308416
 20
7.4980121481
 30
0.0
 10
10.4135557588
 20
7.5115694912
 30
0.0
 10
10.4150223779
 20
7.5318230719
 30
0.0
 10
10.4174642356
 20
7.5519160502
 30
0.0
 10
10.4208756031
 20
7.5718013828
 30
0.0
 10
10.4252487692
 20
7.5914335039
 30
0.0
 10
10.4305736459
 20
7.6107670676
 30
0.0
 10
10.4368380293
 20
7.629757522
 30
0.0
 10
10.4440275153
 20
7.6483610665
 30
0.0
 10
10.4521255621
 20
7.6665347986
 30
0.0
 10
10.4611135289
 20
7.684236801
 30
0.0
 10
10.4709707158
 20
7.7014262373
 30
0.0
 10
10.4816744264
 20
7.7180634608
 30
0.0
 10
10.4931999612
 20
7.7341100526
 30
0.0
 10
10.5055208904
 20
7.7495291134
 30
0.0
 10
10.5186083098
 20
7.7642845963
 30
0.0
 10
10.527825892
 20
7.7736582088
 30
0.0
 10
10.5325504359
 20
7.7782217563
 30
0.0
  0
SPLINE
  5
37C
100
AcDbEntity
  8
0
100
AcDbSpline
 62
7
  6
CONTINUOUS
 70
0
 71
3
 72
78
 73
74
 74
0
 42
0.0000001
 43
0.0000001
 44
0.0000000001
 40
0.0
 40
0.0
 40
0.0
 40
0.0
 40
0.0039200379
 40
0.0080015516
 40
0.0122479837
 40
0.0166622287
 40
0.02124674
 40
0.0260034681
 40
0.030933738
 40
0.0360384073
 40
0.041317965
 40
0.0467724974
 40
0.0582048983
 40
0.0703310537
 40
0.0831417496
 40
0.0966243555
 40
0.1107632557
 40
0.1255402179
 40
0.1409347078
 40
0.1569241286
 40
0.1734840082
 40
0.1905881611
 40
0.2082088628
 40
0.2263169855
 40
0.2448821136
 40
0.2638726419
 40
0.2832559005
 40
0.3029982599
 40
0.323065224
 40
0.3434215125
 40
0.3640311626
 40
0.4058631755
 40
0.4482640754
 40
0.4909307312
 40
0.533557597
 40
0.5758394908
 40
0.617474365
 40
0.637956694
 40
0.6581668689
 40
0.6780692687
 40
0.6976290081
 40
0.7168120318
 40
0.735585199
 40
0.7539163799
 40
0.7717745712
 40
0.7891300149
 40
0.8059542996
 40
0.8222204846
 40
0.8379032501
 40
0.8529790792
 40
0.8674264233
 40
0.8812259152
 40
0.8943606374
 40
0.9068164771
 40
0.9185825208
 40
0.9296515687
 40
0.9349239697
 40
0.940021519
 40
0.944944684
 40
0.9496943779
 40
0.9542719666
 40
0.958679282
 40
0.962918785
 40
0.9669935308
 40
0.9709073068
 40
0.9746647435
 40
0.9782713374
 40
0.9817336616
 40
0.9882547469
 40
0.991335611
 40
0.9943109876
 40
0.9971941828
 40
1.0
 40
1.0
 40
1.0
 40
1.0
 10
12.4334340104
 20
9.719935029
 30
0.0
 10
12.4342807817
 20
9.7207529472
 30
0.0
 10
12.4359734541
 20
9.722459818
 30
0.0
 10
12.4384607399
 20
9.7251708753
 30
0.0
 10
12.440945549
 20
9.7280822571
 30
0.0
 10
12.4434265691
 20
9.7311924617
 30
0.0
 10
12.4459027203
 20
9.7345000153
 30
0.0
 10
12.4483728431
 20
9.7380034179
 30
0.0
 10
12.4508358292
 20
9.7417010194
 30
0.0
 10
12.4532905066
 20
9.745591073
 30
0.0
 10
12.4557357012
 20
9.7496717544
 30
0.0
 10
12.4590335717
 20
9.7554551638
 30
0.0
 10
12.4631158616
 20
9.7631557571
 30
0.0
 10
12.4678848015
 20
9.772984504
 30
0.0
 10
12.4725886536
 20
9.7835224759
 30
0.0
 10
12.4772184269
 20
9.7947496909
 30
0.0
 10
12.4817652743
 20
9.8066449944
 30
0.0
 10
12.4862204893
 20
9.8191858345
 30
0.0
 10
12.4905755273
 20
9.8323484096
 30
0.0
 10
12.4948220281
 20
9.8461076996
 30
0.0
 10
12.4989518377
 20
9.8604375175
 30
0.0
 10
12.5029570379
 20
9.8753105595
 30
0.0
 10
12.5068299435
 20
9.8906984711
 30
0.0
 10
12.5105631231
 20
9.9065719077
 30
0.0
 10
12.5141494096
 20
9.9229005864
 30
0.0
 10
12.5175819324
 20
9.9396533411
 30
0.0
 10
12.5208541126
 20
9.9567981883
 30
0.0
 10
12.5239596795
 20
9.9743023972
 30
0.0
 10
12.5268926698
 20
9.9921325385
 30
0.0
 10
12.5296474909
 20
10.0102545848
 30
0.0
 10
12.5330928599
 20
10.0348816181
 30
0.0
 10
12.5369111421
 20
10.0661392205
 30
0.0
 10
12.5406863234
 20
10.1040660688
 30
0.0
 10
12.543648025
 20
10.1423045843
 30
0.0
 10
12.5457736201
 20
10.1805628913
 30
0.0
 10
12.5470469324
 20
10.218548956
 30
0.0
 10
12.5473918332
 20
10.2499038718
 30
0.0
 10
12.5472272968
 20
10.2746288817
 30
0.0
 10
12.546887465
 20
10.2928244129
 30
0.0
 10
12.5463312724
 20
10.3107374054
 30
0.0
 10
12.5455597812
 20
10.3283336768
 30
0.0
 10
12.544574497
 20
10.3455796202
 30
0.0
 10
12.5433773254
 20
10.3624423099
 30
0.0
 10
12.5419705767
 20
10.3788895516
 30
0.0
 10
12.5403569677
 20
10.3948899546
 30
0.0
 10
12.5385396236
 20
10.4104129941
 30
0.0
 10
12.5365220569
 20
10.4254290669
 30
0.0
 10
12.5343081635
 20
10.4399095459
 30
0.0
 10
12.5319022144
 20
10.4538268454
 30
0.0
 10
12.5293088657
 20
10.4671544841
 30
0.0
 10
12.5265331276
 20
10.4798671341
 30
0.0
 10
12.5235803553
 20
10.4919406779
 30
0.0
 10
12.5204562287
 20
10.5033522434
 30
0.0
 10
12.5171667542
 20
10.5140803631
 30
0.0
 10
12.5137182271
 20
10.5241047151
 30
0.0
 10
12.5106699316
 20
10.5319793124
 30
0.0
 10
12.5081489771
 20
10.5379044906
 30
0.0
 10
12.506253337
 20
10.5420884615
 30
0.0
 10
12.5043229343
 20
10.5460828828
 30
0.0
 10
12.5023586627
 20
10.5498858833
 30
0.0
 10
12.5003614661
 20
10.5534956837
 30
0.0
 10
12.4983322214
 20
10.556910568
 30
0.0
 10
12.4962719069
 20
10.5601289611
 30
0.0
 10
12.4941814384
 20
10.5631493421
 30
0.0
 10
12.4920617216
 20
10.5659703032
 30
0.0
 10
12.4899137929
 20
10.5685904886
 30
0.0
 10
12.4877383223
 20
10.5710088346
 30
0.0
 10
12.4848603062
 20
10.5739042232
 30
0.0
 10
12.4818743038
 20
10.5764660655
 30
0.0
 10
12.4787820455
 20
10.57863946
 30
0.0
 10
12.4764837225
 20
10.5800315922
 30
0.0
 10
12.4741639467
 20
10.5812155108
 30
0.0
 10
12.4725848043
 20
10.5818733561
 30
0.0
 10
12.471794309
 20
10.5821652357
 30
0.0
  0
SPLINE
  5
37D
100
AcDbEntity
  8
0
100
AcDbSpline
 62
7
  6
CONTINUOUS
 70
0
 71
3
 72
15
 73
11
 74
0
 42
0.0000001
 43
0.0000001
 44
0.0000000001
 40
0.0
 40
0.0
 40
0.0
 40
0.0
 40
0.1453870045
 40
0.2840723358
 40
0.4163886154
 40
0.5427536322
 40
0.6636693082
 40
0.7797200424
 40
0.8915769359
 40
1.0
 40
1.0
 40
1.0
 40
1.0
 10
12.4334340104
 20
9.719935029
 30
0.0
 10
12.4324985311
 20
9.7190314253
 30
0.0
 10
12.4306283426
 20
9.7173088958
 30
0.0
 10
12.4277561411
 20
9.7149340381
 30
0.0
 10
12.4248864066
 20
9.7128322714
 30
0.0
 10
12.4220208974
 20
9.7110052033
 30
0.0
 10
12.4191611503
 20
9.7094541938
 30
0.0
 10
12.4163086259
 20
9.7081805465
 30
0.0
 10
12.4134653681
 20
9.7071855849
 30
0.0
 10
12.4115514764
 20
9.7067025006
 30
0.0
 10
12.4106007575
 20
9.7065103308
 30
0.0
  0
SPLINE
  5
37E
100
AcDbEntity
  8
0
100
AcDbSpline
 62
7
  6
CONTINUOUS
 70
0
 71
3
 72
23
 73
19
 74
0
 42
0.0000001
 43
0.0000001
 44
0.0000000001
 40
0.0
 40
0.0
 40
0.0
 40
0.0
 40
0.0755954479
 40
0.1466391714
 40
0.2134657403
 40
0.2765145402
 40
0.3363265376
 40
0.3935471486
 40
0.4489234403
 40
0.5032885643
 40
0.5575265067
 40
0.6125277807
 40
0.6691438784
 40
0.7281492575
 40
0.7902198463
 40
0.8559237775
 40
0.9257267722
 40
1.0
 40
1.0
 40
1.0
 40
1.0
 10
12.4334340104
 20
9.8889720586
 30
0.0
 10
12.4326975189
 20
9.8882606623
 30
0.0
 10
12.4312254896
 20
9.8869244312
 30
0.0
 10
12.4289473868
 20
9.885139281
 30
0.0
 10
12.4266719326
 20
9.8836400104
 30
0.0
 10
12.4244012631
 20
9.882428863
 30
0.0
 10
12.4221372444
 20
9.8815080739
 30
0.0
 10
12.4198822311
 20
9.8808798163
 30
0.0
 10
12.4176391512
 20
9.8805464114
 30
0.0
 10
12.4154117657
 20
9.8805093277
 30
0.0
 10
12.4132043502
 20
9.8807692321
 30
0.0
 10
12.4110211692
 20
9.8813252234
 30
0.0
 10
12.408865959
 20
9.8821755486
 30
0.0
 10
12.4067415367
 20
9.8833176176
 30
0.0
 10
12.4046501039
 20
9.8847489129
 30
0.0
 10
12.4025932873
 20
9.8864668649
 30
0.0
 10
12.4005728179
 20
9.8884690131
 30
0.0
 10
12.3992922533
 20
9.8899441719
 30
0.0
 10
12.3986574614
 20
9.8907246757
 30
0.0
  0
SPLINE
  5
37F
100
AcDbEntity
  8
0
100
AcDbSpline
 62
7
  6
CONTINUOUS
 70
0
 71
3
 72
16
 73
12
 74
0
 42
0.0000001
 43
0.0000001
 44
0.0000000001
 40
0.0
 40
0.0
 40
0.0
 40
0.0
 40
0.1504815401
 40
0.2917481174
 40
0.4244944817
 40
0.4879692635
 40
0.5496755268
 40
0.6683417309
 40
0.7818818905
 40
0.8918563508
 40
1.0
 40
1.0
 40
1.0
 40
1.0
 10
12.4044562339
 20
9.9199594507
 30
0.0
 10
12.4037918901
 20
9.9193177438
 30
0.0
 10
12.4024640591
 20
9.9181136958
 30
0.0
 10
12.400408072
 20
9.9165091057
 30
0.0
 10
12.3986714041
 20
9.915374256
 30
0.0
 10
12.3972865767
 20
9.9146057748
 30
0.0
 10
12.3959425349
 20
9.9139460064
 30
0.0
 10
12.3942618805
 20
9.9132793835
 30
0.0
 10
12.3922270997
 20
9.9127379907
 30
0.0
 10
12.3902038056
 20
9.9124676835
 30
0.0
 10
12.3888601736
 20
9.9124691879
 30
0.0
 10
12.3881979784
 20
9.9125151146
 30
0.0
  0
SPLINE
  5
380
100
AcDbEntity
  8
0
100
AcDbSpline
 62
7
  6
CONTINUOUS
 70
0
 71
3
 72
82
 73
78
 74
0
 42
0.0000001
 43
0.0000001
 44
0.0000000001
 40
0.0
 40
0.0
 40
0.0
 40
0.0
 40
0.0042066704
 40
0.0086074962
 40
0.0132069135
 40
0.0180085258
 40
0.0230152793
 40
0.0282294268
 40
0.0336523646
 40
0.0392848013
 40
0.0511777638
 40
0.0639051627
 40
0.0774564198
 40
0.0918155646
 40
0.1069620718
 40
0.1228714352
 40
0.1395157172
 40
0.1568639525
 40
0.1748824481
 40
0.1935350295
 40
0.2127833283
 40
0.2325869988
 40
0.2529038911
 40
0.2736902129
 40
0.2949007378
 40
0.3164889679
 40
0.3606060865
 40
0.4056507364
 40
0.4512203431
 40
0.4969063066
 40
0.542298703
 40
0.5869909704
 40
0.6089500453
 40
0.6305855494
 40
0.6518497144
 40
0.6726958629
 40
0.6930785804
 40
0.7129538992
 40
0.7322794383
 40
0.751014572
 40
0.7691206481
 40
0.7865612195
 40
0.8033022406
 40
0.8193123279
 40
0.8345631126
 40
0.8490296432
 40
0.8626908148
 40
0.8755299705
 40
0.8875357386
 40
0.8987031077
 40
0.9039734433
 40
0.9090359803
 40
0.9138925993
 40
0.9185460171
 40
0.9229997464
 40
0.927258381
 40
0.9313276641
 40
0.9352146052
 40
0.9389278058
 40
0.94247751
 40
0.9458758658
 40
0.9491371456
 40
0.9522777749
 40
0.9553164865
 40
0.9582741976
 40
0.9611737579
 40
0.9640395775
 40
0.9668969949
 40
0.9697716017
 40
0.9726884911
 40
0.9756716096
 40
0.9787431704
 40
0.9852252847
 40
0.9886742265
 40
0.9922790764
 40
0.9960512687
 40
1.0
 40
1.0
 40
1.0
 40
1.0
 10
12.4334340104
 20
9.8889720586
 30
0.0
 10
12.4340062654
 20
9.8895248145
 30
0.0
 10
12.4351500262
 20
9.8906842269
 30
0.0
 10
12.4368265393
 20
9.8925367764
 30
0.0
 10
12.438500962
 20
9.8945402123
 30
0.0
 10
12.4401721782
 20
9.8966932488
 30
0.0
 10
12.4418392883
 20
9.8989946034
 30
0.0
 10
12.4435013107
 20
9.9014429739
 30
0.0
 10
12.4451573306
 20
9.9040369254
 30
0.0
 10
12.4473967585
 20
9.907755358
 30
0.0
 10
12.4501669269
 20
9.9127643821
 30
0.0
 10
12.4533940142
 20
9.9192244756
 30
0.0
 10
12.4565740028
 20
9.9262234589
 30
0.0
 10
12.459699287
 20
9.9337447694
 30
0.0
 10
12.4627623798
 20
9.9417707224
 30
0.0
 10
12.4657559312
 20
9.9502822907
 30
0.0
 10
12.4686727415
 20
9.9592592591
 30
0.0
 10
12.4715057863
 20
9.9686802657
 30
0.0
 10
12.4742482388
 20
9.9785228579
 30
0.0
 10
12.4768935068
 20
9.9887635443
 30
0.0
 10
12.4794352256
 20
9.9993778671
 30
0.0
 10
12.4818672765
 20
10.0103404677
 30
0.0
 10
12.4841838062
 20
10.0216251435
 30
0.0
 10
12.4863792476
 20
10.0332049009
 30
0.0
 10
12.4884483501
 20
10.0450520606
 30
0.0
 10
12.4910506986
 20
10.0612839175
 30
0.0
 10
12.4939458255
 20
10.082032086
 30
0.0
 10
12.4968221615
 20
10.1073540513
 30
0.0
 10
12.499097368
 20
10.1330350021
 30
0.0
 10
12.5007496868
 20
10.1588294233
 30
0.0
 10
12.5017632592
 20
10.1844907223
 30
0.0
 10
12.5020696304
 20
10.2056822703
 30
0.0
 10
12.5019823878
 20
10.2223804558
 30
0.0
 10
12.5017535395
 20
10.2346456774
 30
0.0
 10
12.501361531
 20
10.2466961692
 30
0.0
 10
12.500807296
 20
10.2585031198
 30
0.0
 10
12.5000921857
 20
10.2700382772
 30
0.0
 10
12.4992179461
 20
10.2812740569
 30
0.0
 10
12.4981867024
 20
10.2921835946
 30
0.0
 10
12.4970009531
 20
10.3027408116
 30
0.0
 10
12.4956635736
 20
10.3129204866
 30
0.0
 10
12.4941778199
 20
10.3226983224
 30
0.0
 10
12.4925473004
 20
10.3320510007
 30
0.0
 10
12.4907759658
 20
10.340956241
 30
0.0
 10
12.4888681099
 20
10.3493928699
 30
0.0
 10
12.4868283636
 20
10.3573408961
 30
0.0
 10
12.4846616568
 20
10.364781532
 30
0.0
 10
12.4823731827
 20
10.3716973582
 30
0.0
 10
12.4799683976
 20
10.3780720574
 30
0.0
 10
12.4778328865
 20
10.3830125283
 30
0.0
 10
12.4760636789
 20
10.3866744622
 30
0.0
 10
12.4747369338
 20
10.3892231255
 30
0.0
 10
12.4733854451
 20
10.3916257868
 30
0.0
 10
12.4720100078
 20
10.3938810667
 30
0.0
 10
12.4706113619
 20
10.3959876258
 30
0.0
 10
12.4691903035
 20
10.397944244
 30
0.0
 10
12.4677476271
 20
10.3997497934
 30
0.0
 10
12.4662840504
 20
10.4014031717
 30
0.0
 10
12.4648003803
 20
10.4029034223
 30
0.0
 10
12.4632973468
 20
10.4042496011
 30
0.0
 10
12.4617756784
 20
10.4054407944
 30
0.0
 10
12.460236179
 20
10.4064762056
 30
0.0
 10
12.4586796012
 20
10.4073549516
 30
0.0
 10
12.4571068294
 20
10.4080762488
 30
0.0
 10
12.455518843
 20
10.4086393786
 30
0.0
 10
12.4539167201
 20
10.4090435936
 30
0.0
 10
12.4523017281
 20
10.4092884586
 30
0.0
 10
12.4506752022
 20
10.4093736455
 30
0.0
 10
12.4490385312
 20
10.4092990583
 30
0.0
 10
12.4473930875
 20
10.4090649855
 30
0.0
 10
12.4457400482
 20
10.4086716971
 30
0.0
 10
12.4434877094
 20
10.4079227157
 30
0.0
 10
12.4412589541
 20
10.4068565376
 30
0.0
 10
12.4390744429
 20
10.405519615
 30
0.0
 10
12.4373989189
 20
10.4043401304
 30
0.0
 10
12.435721899
 20
10.4030057722
 30
0.0
 10
12.4346289075
 20
10.4020362298
 30
0.0
 10
12.4340821938
 20
10.4015274369
 30
0.0
  0
SPLINE
  5
381
100
AcDbEntity
  8
0
100
AcDbSpline
 62
7
  6
CONTINUOUS
 70
0
 71
3
 72
63
 73
59
 74
0
 42
0.0000001
 43
0.0000001
 44
0.0000000001
 40
0.0
 40
0.0
 40
0.0
 40
0.0
 40
0.00814383
 40
0.0169767484
 40
0.0265207354
 40
0.036789459
 40
0.0477880958
 40
0.0595155357
 40
0.0719656535
 40
0.0851278824
 40
0.0989880196
 40
0.1135287455
 40
0.1287298773
 40
0.1445687927
 40
0.1610207079
 40
0.1780587756
 40
0.1956543633
 40
0.2137772383
 40
0.2323956117
 40
0.2514763479
 40
0.2908854812
 40
0.3317179125
 40
0.3736714937
 40
0.4164329886
 40
0.4596812912
 40
0.5030906273
 40
0.546333675
 40
0.5890847111
 40
0.6310227339
 40
0.6718346511
 40
0.7112185258
 40
0.7302849348
 40
0.7488878996
 40
0.7669943144
 40
0.7845724514
 40
0.8015921263
 40
0.8180247474
 40
0.8338435456
 40
0.8490238026
 40
0.863542955
 40
0.8773809225
 40
0.8905204779
 40
0.902947514
 40
0.9146516138
 40
0.9256267683
 40
0.9358720989
 40
0.9453930714
 40
0.9542031177
 40
0.962325578
 40
0.969796515
 40
0.9766682872
 40
0.9830134983
 40
0.986019868
 40
0.9889331402
 40
0.9917695051
 40
0.9945466359
 40
0.9972835059
 40
1.0
 40
1.0
 40
1.0
 40
1.0
 10
12.4044562339
 20
9.9199594507
 30
0.0
 10
12.4054042409
 20
9.9208751552
 30
0.0
 10
12.4072953351
 20
9.9228732418
 30
0.0
 10
12.4100127109
 20
9.9261995865
 30
0.0
 10
12.4127184053
 20
9.9299675684
 30
0.0
 10
12.4154071766
 20
9.9341696684
 30
0.0
 10
12.4180740832
 20
9.9387980317
 30
0.0
 10
12.42071389
 20
9.9438436797
 30
0.0
 10
12.4233213714
 20
9.9492967664
 30
0.0
 10
12.4258913391
 20
9.9551465464
 30
0.0
 10
12.4284186343
 20
9.9613814349
 30
0.0
 10
12.4308981458
 20
9.9679890405
 30
0.0
 10
12.4333248873
 20
9.9749561778
 30
0.0
 10
12.4356939599
 20
9.9822689202
 30
0.0
 10
12.4380005571
 20
9.9899126348
 30
0.0
 10
12.4402400315
 20
9.9978719975
 30
0.0
 10
12.4424078635
 20
10.0061310423
 30
0.0
 10
12.444499649
 20
10.0146731936
 30
0.0
 10
12.4465111988
 20
10.0234813075
 30
0.0
 10
12.4491087462
 20
10.0356879819
 30
0.0
 10
12.4521170744
 20
10.0514810639
 30
0.0
 10
12.455310171
 20
10.0710003488
 30
0.0
 10
12.4580980491
 20
10.0911294456
 30
0.0
 10
12.4604581336
 20
10.1117066466
 30
0.0
 10
12.4623713337
 20
10.1325667529
 30
0.0
 10
12.4638222048
 20
10.1535422074
 30
0.0
 10
12.4647990895
 20
10.1744645293
 30
0.0
 10
12.4652942228
 20
10.1951656516
 30
0.0
 10
12.4653037769
 20
10.2154793608
 30
0.0
 10
12.4648278444
 20
10.2352424426
 30
0.0
 10
12.4640218433
 20
10.2512895393
 30
0.0
 10
12.4631289658
 20
10.2637286256
 30
0.0
 10
12.4623487572
 20
10.2727222593
 30
0.0
 10
12.461452418
 20
10.2814629787
 30
0.0
 10
12.460441747
 20
10.2899332437
 30
0.0
 10
12.4593188238
 20
10.2981160475
 30
0.0
 10
12.4580859208
 20
10.3059949713
 30
0.0
 10
12.4567455417
 20
10.3135542182
 30
0.0
 10
12.4553004331
 20
10.3207786537
 30
0.0
 10
12.4537535228
 20
10.3276538291
 30
0.0
 10
12.4521079446
 20
10.3341660224
 30
0.0
 10
12.4503670572
 20
10.3403022817
 30
0.0
 10
12.4485343665
 20
10.3460504437
 30
0.0
 10
12.4466135376
 20
10.3513991777
 30
0.0
 10
12.4446084091
 20
10.3563380389
 30
0.0
 10
12.4425228745
 20
10.3608574806
 30
0.0
 10
12.4403608552
 20
10.3649488868
 30
0.0
 10
12.4381262321
 20
10.3686046313
 30
0.0
 10
12.4358227005
 20
10.3718179555
 30
0.0
 10
12.4334533386
 20
10.3745829704
 30
0.0
 10
12.4310214236
 20
10.3768938978
 30
0.0
 10
12.4289065877
 20
10.3784643214
 30
0.0
 10
12.4271934037
 20
10.3794701328
 30
0.0
 10
12.425919323
 20
10.3800939104
 30
0.0
 10
12.4246338225
 20
10.3806000714
 30
0.0
 10
12.4233375072
 20
10.3809881367
 30
0.0
 10
12.4220313272
 20
10.3812577599
 30
0.0
 10
12.4211530878
 20
10.3813585329
 30
0.0
 10
12.4207144894
 20
10.381388952
 30
0.0
  0
SPLINE
  5
382
100
AcDbEntity
  8
0
100
AcDbSpline
 62
7
  6
CONTINUOUS
 70
0
 71
3
 72
58
 73
54
 74
0
 42
0.0000001
 43
0.0000001
 44
0.0000000001
 40
0.0
 40
0.0
 40
0.0
 40
0.0
 40
0.0089746348
 40
0.0184814028
 40
0.0285227728
 40
0.0390981035
 40
0.0502041727
 40
0.0618354777
 40
0.073984513
 40
0.0866420716
 40
0.0997973697
 40
0.113438207
 40
0.1275511566
 40
0.1421216115
 40
0.1571338953
 40
0.1725713941
 40
0.1884165684
 40
0.2046510447
 40
0.2212557115
 40
0.23821072
 40
0.2730885426
 40
0.3091142707
 40
0.3461088136
 40
0.3838863639
 40
0.4222558147
 40
0.4610220987
 40
0.4999875097
 40
0.5389530333
 40
0.5777196514
 40
0.6160896616
 40
0.6538679914
 40
0.6908635174
 40
0.7268904414
 40
0.7444847131
 40
0.7617702885
 40
0.7787260563
 40
0.7953315362
 40
0.8115668779
 40
0.8274129414
 40
0.8428513819
 40
0.8578646524
 40
0.8724361102
 40
0.886550113
 40
0.9001920384
 40
0.913348433
 40
0.9260071336
 40
0.9381573333
 40
0.9497898012
 40
0.9608970715
 40
0.9714736091
 40
0.9815161668
 40
0.9910241571
 40
1.0
 40
1.0
 40
1.0
 40
1.0
 10
11.1916889413
 20
10.6973617674
 30
0.0
 10
11.1892935296
 20
10.6988851037
 30
0.0
 10
11.1842828923
 20
10.701900932
 30
0.0
 10
11.1763604342
 20
10.7062220137
 30
0.0
 10
11.1678263568
 20
10.7104644913
 30
0.0
 10
11.1586923221
 20
10.7146225627
 30
0.0
 10
11.1489705084
 20
10.7186906276
 30
0.0
 10
11.1386740478
 20
10.7226631368
 30
0.0
 10
11.1278168752
 20
10.7265346914
 30
0.0
 10
11.1164137152
 20
10.7302999646
 30
0.0
 10
11.1044800702
 20
10.7339537917
 30
0.0
 10
11.0920321942
 20
10.7374911736
 30
0.0
 10
11.0790870497
 20
10.7409072262
 30
0.0
 10
11.0656623003
 20
10.744197257
 30
0.0
 10
11.051776279
 20
10.7473567578
 30
0.0
 10
11.0374479518
 20
10.7503813618
 30
0.0
 10
11.0226969013
 20
10.7532669181
 30
0.0
 10
11.0075433021
 20
10.7560094652
 30
0.0
 10
10.9920078541
 20
10.7586052377
 30
0.0
 10
10.9706116403
 20
10.761896699
 30
0.0
 10
10.9430669512
 20
10.765606553
 30
0.0
 10
10.9091444315
 20
10.7693812947
 30
0.0
 10
10.8742343274
 20
10.7724987058
 30
0.0
 10
10.83852763
 20
10.7749415588
 30
0.0
 10
10.8022195279
 20
10.7766962994
 30
0.0
 10
10.7655086015
 20
10.7777531984
 30
0.0
 10
10.7285956446
 20
10.7781064171
 30
0.0
 10
10.6916825751
 20
10.7777539991
 30
0.0
 10
10.6549713053
 20
10.7766978819
 30
0.0
 10
10.6186626448
 20
10.7749439246
 30
0.0
 10
10.5829551249
 20
10.7725018559
 30
0.0
 10
10.5480441355
 20
10.7693851583
 30
0.0
 10
10.5195543348
 20
10.7662158005
 30
0.0
 10
10.4973096197
 20
10.7633473214
 30
0.0
 10
10.4810740166
 20
10.7610559731
 30
0.0
 10
10.4651772155
 20
10.7586109085
 30
0.0
 10
10.4496409416
 20
10.7560154877
 30
0.0
 10
10.4344864531
 20
10.7532732728
 30
0.0
 10
10.4197344743
 20
10.7503880247
 30
0.0
 10
10.4054051705
 20
10.747363732
 30
0.0
 10
10.3915181283
 20
10.7442045394
 30
0.0
 10
10.3780923202
 20
10.7409147858
 30
0.0
 10
10.3651460725
 20
10.7374990167
 30
0.0
 10
10.3526970534
 20
10.733961911
 30
0.0
 10
10.3407622337
 20
10.7303083274
 30
0.0
 10
10.3293578573
 20
10.7265433066
 30
0.0
 10
10.3184994339
 20
10.7226719928
 30
0.0
 10
10.3082016977
 20
10.7186996904
 30
0.0
 10
10.298478569
 20
10.7146318439
 30
0.0
 10
10.2893431927
 20
10.710473975
 30
0.0
 10
10.2808077556
 20
10.7062316652
 30
0.0
 10
10.2728838934
 20
10.7019107689
 30
0.0
 10
10.2678723008
 20
10.6988950394
 30
0.0
 10
10.2654763973
 20
10.6973717643
 30
0.0
  0
SPLINE
  5
383
100
AcDbEntity
  8
0
100
AcDbSpline
 62
7
  6
CONTINUOUS
 70
0
 71
3
 72
78
 73
74
 74
0
 42
0.0000001
 43
0.0000001
 44
0.0000000001
 40
0.0
 40
0.0
 40
0.0
 40
0.0
 40
0.0039200379
 40
0.0080015516
 40
0.0122479837
 40
0.0166622287
 40
0.02124674
 40
0.0260034681
 40
0.030933738
 40
0.0360384073
 40
0.041317965
 40
0.0467724974
 40
0.0582048983
 40
0.0703310537
 40
0.0831417496
 40
0.0966243555
 40
0.1107632557
 40
0.1255402179
 40
0.1409347078
 40
0.1569241286
 40
0.1734840082
 40
0.1905881611
 40
0.2082088628
 40
0.2263169855
 40
0.2448821136
 40
0.2638726419
 40
0.2832559005
 40
0.3029982599
 40
0.323065224
 40
0.3434215125
 40
0.3640311626
 40
0.4058631755
 40
0.4482640754
 40
0.4909307312
 40
0.533557597
 40
0.5758394908
 40
0.617474365
 40
0.637956694
 40
0.6581668689
 40
0.6780692687
 40
0.6976290081
 40
0.7168120318
 40
0.735585199
 40
0.7539163799
 40
0.7717745712
 40
0.7891300149
 40
0.8059542996
 40
0.8222204846
 40
0.8379032501
 40
0.8529790792
 40
0.8674264233
 40
0.8812259152
 40
0.8943606374
 40
0.9068164771
 40
0.9185825208
 40
0.9296515687
 40
0.9349239697
 40
0.940021519
 40
0.944944684
 40
0.9496943779
 40
0.9542719666
 40
0.958679282
 40
0.962918785
 40
0.9669935308
 40
0.9709073068
 40
0.9746647435
 40
0.9782713374
 40
0.9817336616
 40
0.9882547469
 40
0.991335611
 40
0.9943109876
 40
0.9971941828
 40
1.0
 40
1.0
 40
1.0
 40
1.0
 10
12.4334340104
 20
8.210192908
 30
0.0
 10
12.4342807817
 20
8.2110108263
 30
0.0
 10
12.4359734541
 20
8.2127176971
 30
0.0
 10
12.4384607399
 20
8.2154287544
 30
0.0
 10
12.440945549
 20
8.2183401362
 30
0.0
 10
12.4434265691
 20
8.2214503408
 30
0.0
 10
12.4459027203
 20
8.2247578944
 30
0.0
 10
12.4483728431
 20
8.228261297
 30
0.0
 10
12.4508358292
 20
8.2319588985
 30
0.0
 10
12.4532905066
 20
8.235848952
 30
0.0
 10
12.4557357012
 20
8.2399296335
 30
0.0
 10
12.4590335717
 20
8.2457130429
 30
0.0
 10
12.4631158616
 20
8.2534136362
 30
0.0
 10
12.4678848015
 20
8.263242383
 30
0.0
 10
12.4725886536
 20
8.273780355
 30
0.0
 10
12.4772184269
 20
8.2850075699
 30
0.0
 10
12.4817652743
 20
8.2969028734
 30
0.0
 10
12.4862204893
 20
8.3094437135
 30
0.0
 10
12.4905755273
 20
8.3226062886
 30
0.0
 10
12.4948220281
 20
8.3363655786
 30
0.0
 10
12.4989518377
 20
8.3506953966
 30
0.0
 10
12.5029570379
 20
8.3655684386
 30
0.0
 10
12.5068299435
 20
8.3809563502
 30
0.0
 10
12.5105631231
 20
8.3968297867
 30
0.0
 10
12.5141494096
 20
8.4131584655
 30
0.0
 10
12.5175819324
 20
8.4299112201
 30
0.0
 10
12.5208541126
 20
8.4470560674
 30
0.0
 10
12.5239596795
 20
8.4645602762
 30
0.0
 10
12.5268926698
 20
8.4823904176
 30
0.0
 10
12.5296474909
 20
8.5005124639
 30
0.0
 10
12.5330928599
 20
8.5251394972
 30
0.0
 10
12.5369111421
 20
8.5563970995
 30
0.0
 10
12.5406863234
 20
8.5943239479
 30
0.0
 10
12.543648025
 20
8.6325624633
 30
0.0
 10
12.5457736201
 20
8.6708207704
 30
0.0
 10
12.5470469324
 20
8.7088068351
 30
0.0
 10
12.5473918332
 20
8.7401617508
 30
0.0
 10
12.5472272968
 20
8.7648867608
 30
0.0
 10
12.546887465
 20
8.783082292
 30
0.0
 10
12.5463312724
 20
8.8009952845
 30
0.0
 10
12.5455597812
 20
8.8185915558
 30
0.0
 10
12.544574497
 20
8.8358374993
 30
0.0
 10
12.5433773254
 20
8.8527001889
 30
0.0
 10
12.5419705767
 20
8.8691474306
 30
0.0
 10
12.5403569677
 20
8.8851478337
 30
0.0
 10
12.5385396236
 20
8.9006708732
 30
0.0
 10
12.5365220569
 20
8.9156869459
 30
0.0
 10
12.5343081635
 20
8.930167425
 30
0.0
 10
12.5319022144
 20
8.9440847245
 30
0.0
 10
12.5293088657
 20
8.9574123631
 30
0.0
 10
12.5265331276
 20
8.9701250132
 30
0.0
 10
12.5235803553
 20
8.982198557
 30
0.0
 10
12.5204562287
 20
8.9936101224
 30
0.0
 10
12.5171667542
 20
9.0043382422
 30
0.0
 10
12.5137182271
 20
9.0143625942
 30
0.0
 10
12.5106699316
 20
9.0222371914
 30
0.0
 10
12.5081489771
 20
9.0281623697
 30
0.0
 10
12.506253337
 20
9.0323463405
 30
0.0
 10
12.5043229343
 20
9.0363407618
 30
0.0
 10
12.5023586627
 20
9.0401437624
 30
0.0
 10
12.5003614661
 20
9.0437535628
 30
0.0
 10
12.4983322214
 20
9.0471684471
 30
0.0
 10
12.4962719069
 20
9.0503868401
 30
0.0
 10
12.4941814384
 20
9.0534072211
 30
0.0
 10
12.4920617216
 20
9.0562281823
 30
0.0
 10
12.4899137929
 20
9.0588483676
 30
0.0
 10
12.4877383223
 20
9.0612667136
 30
0.0
 10
12.4848603062
 20
9.0641621023
 30
0.0
 10
12.4818743038
 20
9.0667239446
 30
0.0
 10
12.4787820455
 20
9.0688973391
 30
0.0
 10
12.4764837225
 20
9.0702894712
 30
0.0
 10
12.4741639467
 20
9.0714733899
 30
0.0
 10
12.4725848043
 20
9.0721312351
 30
0.0
 10
12.471794309
 20
9.0724231148
 30
0.0
  0
SPLINE
  5
384
100
AcDbEntity
  8
0
100
AcDbSpline
 62
7
  6
CONTINUOUS
 70
0
 71
3
 72
15
 73
11
 74
0
 42
0.0000001
 43
0.0000001
 44
0.0000000001
 40
0.0
 40
0.0
 40
0.0
 40
0.0
 40
0.1453870045
 40
0.2840723358
 40
0.4163886154
 40
0.5427536322
 40
0.6636693082
 40
0.7797200424
 40
0.8915769359
 40
1.0
 40
1.0
 40
1.0
 40
1.0
 10
12.4334340104
 20
8.210192908
 30
0.0
 10
12.4324985311
 20
8.2092893043
 30
0.0
 10
12.4306283426
 20
8.2075667749
 30
0.0
 10
12.4277561411
 20
8.2051919172
 30
0.0
 10
12.4248864066
 20
8.2030901504
 30
0.0
 10
12.4220208974
 20
8.2012630824
 30
0.0
 10
12.4191611503
 20
8.1997120729
 30
0.0
 10
12.4163086259
 20
8.1984384256
 30
0.0
 10
12.4134653681
 20
8.197443464
 30
0.0
 10
12.4115514764
 20
8.1969603797
 30
0.0
 10
12.4106007575
 20
8.1967682098
 30
0.0
  0
SPLINE
  5
385
100
AcDbEntity
  8
0
100
AcDbSpline
 62
7
  6
CONTINUOUS
 70
0
 71
3
 72
23
 73
19
 74
0
 42
0.0000001
 43
0.0000001
 44
0.0000000001
 40
0.0
 40
0.0
 40
0.0
 40
0.0
 40
0.0755954479
 40
0.1466391714
 40
0.2134657403
 40
0.2765145402
 40
0.3363265376
 40
0.3935471486
 40
0.4489234403
 40
0.5032885643
 40
0.5575265067
 40
0.6125277807
 40
0.6691438784
 40
0.7281492575
 40
0.7902198463
 40
0.8559237775
 40
0.9257267722
 40
1.0
 40
1.0
 40
1.0
 40
1.0
 10
12.4334340104
 20
8.3792299376
 30
0.0
 10
12.4326975189
 20
8.3785185414
 30
0.0
 10
12.4312254896
 20
8.3771823103
 30
0.0
 10
12.4289473868
 20
8.3753971601
 30
0.0
 10
12.4266719326
 20
8.3738978895
 30
0.0
 10
12.4244012631
 20
8.3726867421
 30
0.0
 10
12.4221372444
 20
8.3717659529
 30
0.0
 10
12.4198822311
 20
8.3711376953
 30
0.0
 10
12.4176391512
 20
8.3708042905
 30
0.0
 10
12.4154117657
 20
8.3707672068
 30
0.0
 10
12.4132043502
 20
8.3710271112
 30
0.0
 10
12.4110211692
 20
8.3715831025
 30
0.0
 10
12.408865959
 20
8.3724334277
 30
0.0
 10
12.4067415367
 20
8.3735754967
 30
0.0
 10
12.4046501039
 20
8.3750067919
 30
0.0
 10
12.4025932873
 20
8.3767247439
 30
0.0
 10
12.4005728179
 20
8.3787268921
 30
0.0
 10
12.3992922533
 20
8.380202051
 30
0.0
 10
12.3986574614
 20
8.3809825547
 30
0.0
  0
SPLINE
  5
386
100
AcDbEntity
  8
0
100
AcDbSpline
 62
7
  6
CONTINUOUS
 70
0
 71
3
 72
16
 73
12
 74
0
 42
0.0000001
 43
0.0000001
 44
0.0000000001
 40
0.0
 40
0.0
 40
0.0
 40
0.0
 40
0.1504815401
 40
0.2917481174
 40
0.4244944817
 40
0.4879692635
 40
0.5496755268
 40
0.6683417309
 40
0.7818818905
 40
0.8918563508
 40
1.0
 40
1.0
 40
1.0
 40
1.0
 10
12.4044562339
 20
8.4102173298
 30
0.0
 10
12.4037918901
 20
8.4095756229
 30
0.0
 10
12.4024640591
 20
8.4083715748
 30
0.0
 10
12.400408072
 20
8.4067669848
 30
0.0
 10
12.3986714041
 20
8.405632135
 30
0.0
 10
12.3972865767
 20
8.4048636538
 30
0.0
 10
12.3959425349
 20
8.4042038855
 30
0.0
 10
12.3942618805
 20
8.4035372625
 30
0.0
 10
12.3922270997
 20
8.4029958697
 30
0.0
 10
12.3902038056
 20
8.4027255625
 30
0.0
 10
12.3888601736
 20
8.402727067
 30
0.0
 10
12.3881979784
 20
8.4027729937
 30
0.0
  0
SPLINE
  5
387
100
AcDbEntity
  8
0
100
AcDbSpline
 62
7
  6
CONTINUOUS
 70
0
 71
3
 72
82
 73
78
 74
0
 42
0.0000001
 43
0.0000001
 44
0.0000000001
 40
0.0
 40
0.0
 40
0.0
 40
0.0
 40
0.0042066704
 40
0.0086074962
 40
0.0132069135
 40
0.0180085258
 40
0.0230152793
 40
0.0282294268
 40
0.0336523646
 40
0.0392848013
 40
0.0511777638
 40
0.0639051627
 40
0.0774564198
 40
0.0918155646
 40
0.1069620718
 40
0.1228714352
 40
0.1395157172
 40
0.1568639525
 40
0.1748824481
 40
0.1935350295
 40
0.2127833283
 40
0.2325869988
 40
0.2529038911
 40
0.2736902129
 40
0.2949007378
 40
0.3164889679
 40
0.3606060865
 40
0.4056507364
 40
0.4512203431
 40
0.4969063066
 40
0.542298703
 40
0.5869909704
 40
0.6089500453
 40
0.6305855494
 40
0.6518497144
 40
0.6726958629
 40
0.6930785804
 40
0.7129538992
 40
0.7322794383
 40
0.751014572
 40
0.7691206481
 40
0.7865612195
 40
0.8033022406
 40
0.8193123279
 40
0.8345631126
 40
0.8490296432
 40
0.8626908148
 40
0.8755299705
 40
0.8875357386
 40
0.8987031077
 40
0.9039734433
 40
0.9090359803
 40
0.9138925993
 40
0.9185460171
 40
0.9229997464
 40
0.927258381
 40
0.9313276641
 40
0.9352146052
 40
0.9389278058
 40
0.94247751
 40
0.9458758658
 40
0.9491371456
 40
0.9522777749
 40
0.9553164865
 40
0.9582741976
 40
0.9611737579
 40
0.9640395775
 40
0.9668969949
 40
0.9697716017
 40
0.9726884911
 40
0.9756716096
 40
0.9787431704
 40
0.9852252847
 40
0.9886742265
 40
0.9922790764
 40
0.9960512687
 40
1.0
 40
1.0
 40
1.0
 40
1.0
 10
12.4334340104
 20
8.3792299376
 30
0.0
 10
12.4340062654
 20
8.3797826935
 30
0.0
 10
12.4351500262
 20
8.380942106
 30
0.0
 10
12.4368265393
 20
8.3827946554
 30
0.0
 10
12.438500962
 20
8.3847980913
 30
0.0
 10
12.4401721782
 20
8.3869511279
 30
0.0
 10
12.4418392883
 20
8.3892524825
 30
0.0
 10
12.4435013107
 20
8.391700853
 30
0.0
 10
12.4451573306
 20
8.3942948045
 30
0.0
 10
12.4473967585
 20
8.3980132371
 30
0.0
 10
12.4501669269
 20
8.4030222612
 30
0.0
 10
12.4533940142
 20
8.4094823547
 30
0.0
 10
12.4565740028
 20
8.416481338
 30
0.0
 10
12.459699287
 20
8.4240026485
 30
0.0
 10
12.4627623798
 20
8.4320286015
 30
0.0
 10
12.4657559312
 20
8.4405401698
 30
0.0
 10
12.4686727415
 20
8.4495171382
 30
0.0
 10
12.4715057863
 20
8.4589381447
 30
0.0
 10
12.4742482388
 20
8.468780737
 30
0.0
 10
12.4768935068
 20
8.4790214233
 30
0.0
 10
12.4794352256
 20
8.4896357462
 30
0.0
 10
12.4818672765
 20
8.5005983468
 30
0.0
 10
12.4841838062
 20
8.5118830226
 30
0.0
 10
12.4863792476
 20
8.52346278
 30
0.0
 10
12.4884483501
 20
8.5353099397
 30
0.0
 10
12.4910506986
 20
8.5515417965
 30
0.0
 10
12.4939458255
 20
8.5722899651
 30
0.0
 10
12.4968221615
 20
8.5976119304
 30
0.0
 10
12.499097368
 20
8.6232928811
 30
0.0
 10
12.5007496868
 20
8.6490873023
 30
0.0
 10
12.5017632592
 20
8.6747486014
 30
0.0
 10
12.5020696304
 20
8.6959401493
 30
0.0
 10
12.5019823878
 20
8.7126383349
 30
0.0
 10
12.5017535395
 20
8.7249035565
 30
0.0
 10
12.501361531
 20
8.7369540483
 30
0.0
 10
12.500807296
 20
8.7487609988
 30
0.0
 10
12.5000921857
 20
8.7602961563
 30
0.0
 10
12.4992179461
 20
8.771531936
 30
0.0
 10
12.4981867024
 20
8.7824414737
 30
0.0
 10
12.4970009531
 20
8.7929986907
 30
0.0
 10
12.4956635736
 20
8.8031783657
 30
0.0
 10
12.4941778199
 20
8.8129562014
 30
0.0
 10
12.4925473004
 20
8.8223088797
 30
0.0
 10
12.4907759658
 20
8.83121412
 30
0.0
 10
12.4888681099
 20
8.839650749
 30
0.0
 10
12.4868283636
 20
8.8475987751
 30
0.0
 10
12.4846616568
 20
8.8550394111
 30
0.0
 10
12.4823731827
 20
8.8619552373
 30
0.0
 10
12.4799683976
 20
8.8683299365
 30
0.0
 10
12.4778328865
 20
8.8732704073
 30
0.0
 10
12.4760636789
 20
8.8769323413
 30
0.0
 10
12.4747369338
 20
8.8794810046
 30
0.0
 10
12.4733854451
 20
8.8818836658
 30
0.0
 10
12.4720100078
 20
8.8841389458
 30
0.0
 10
12.4706113619
 20
8.8862455049
 30
0.0
 10
12.4691903035
 20
8.8882021231
 30
0.0
 10
12.4677476271
 20
8.8900076725
 30
0.0
 10
12.4662840504
 20
8.8916610507
 30
0.0
 10
12.4648003803
 20
8.8931613014
 30
0.0
 10
12.4632973468
 20
8.8945074802
 30
0.0
 10
12.4617756784
 20
8.8956986734
 30
0.0
 10
12.460236179
 20
8.8967340847
 30
0.0
 10
12.4586796012
 20
8.8976128306
 30
0.0
 10
12.4571068294
 20
8.8983341279
 30
0.0
 10
12.455518843
 20
8.8988972577
 30
0.0
 10
12.4539167201
 20
8.8993014727
 30
0.0
 10
12.4523017281
 20
8.8995463377
 30
0.0
 10
12.4506752022
 20
8.8996315246
 30
0.0
 10
12.4490385312
 20
8.8995569374
 30
0.0
 10
12.4473930875
 20
8.8993228646
 30
0.0
 10
12.4457400482
 20
8.8989295761
 30
0.0
 10
12.4434877094
 20
8.8981805948
 30
0.0
 10
12.4412589541
 20
8.8971144166
 30
0.0
 10
12.4390744429
 20
8.8957774941
 30
0.0
 10
12.4373989189
 20
8.8945980095
 30
0.0
 10
12.435721899
 20
8.8932636513
 30
0.0
 10
12.4346289075
 20
8.8922941088
 30
0.0
 10
12.4340821938
 20
8.8917853159
 30
0.0
  0
SPLINE
  5
388
100
AcDbEntity
  8
0
100
AcDbSpline
 62
7
  6
CONTINUOUS
 70
0
 71
3
 72
63
 73
59
 74
0
 42
0.0000001
 43
0.0000001
 44
0.0000000001
 40
0.0
 40
0.0
 40
0.0
 40
0.0
 40
0.00814383
 40
0.0169767484
 40
0.0265207354
 40
0.036789459
 40
0.0477880958
 40
0.0595155357
 40
0.0719656535
 40
0.0851278824
 40
0.0989880196
 40
0.1135287455
 40
0.1287298773
 40
0.1445687927
 40
0.1610207079
 40
0.1780587756
 40
0.1956543633
 40
0.2137772383
 40
0.2323956117
 40
0.2514763479
 40
0.2908854812
 40
0.3317179125
 40
0.3736714937
 40
0.4164329886
 40
0.4596812912
 40
0.5030906273
 40
0.546333675
 40
0.5890847111
 40
0.6310227339
 40
0.6718346511
 40
0.7112185258
 40
0.7302849348
 40
0.7488878996
 40
0.7669943144
 40
0.7845724514
 40
0.8015921263
 40
0.8180247474
 40
0.8338435456
 40
0.8490238026
 40
0.863542955
 40
0.8773809225
 40
0.8905204779
 40
0.902947514
 40
0.9146516138
 40
0.9256267683
 40
0.9358720989
 40
0.9453930714
 40
0.9542031177
 40
0.962325578
 40
0.969796515
 40
0.9766682872
 40
0.9830134983
 40
0.986019868
 40
0.9889331402
 40
0.9917695051
 40
0.9945466359
 40
0.9972835059
 40
1.0
 40
1.0
 40
1.0
 40
1.0
 10
12.4044562339
 20
8.4102173298
 30
0.0
 10
12.4054042409
 20
8.4111330342
 30
0.0
 10
12.4072953351
 20
8.4131311209
 30
0.0
 10
12.4100127109
 20
8.4164574655
 30
0.0
 10
12.4127184053
 20
8.4202254474
 30
0.0
 10
12.4154071766
 20
8.4244275475
 30
0.0
 10
12.4180740832
 20
8.4290559107
 30
0.0
 10
12.42071389
 20
8.4341015588
 30
0.0
 10
12.4233213714
 20
8.4395546454
 30
0.0
 10
12.4258913391
 20
8.4454044255
 30
0.0
 10
12.4284186343
 20
8.4516393139
 30
0.0
 10
12.4308981458
 20
8.4582469195
 30
0.0
 10
12.4333248873
 20
8.4652140569
 30
0.0
 10
12.4356939599
 20
8.4725267993
 30
0.0
 10
12.4380005571
 20
8.4801705138
 30
0.0
 10
12.4402400315
 20
8.4881298766
 30
0.0
 10
12.4424078635
 20
8.4963889213
 30
0.0
 10
12.444499649
 20
8.5049310727
 30
0.0
 10
12.4465111988
 20
8.5137391865
 30
0.0
 10
12.4491087462
 20
8.525945861
 30
0.0
 10
12.4521170744
 20
8.5417389429
 30
0.0
 10
12.455310171
 20
8.5612582279
 30
0.0
 10
12.4580980491
 20
8.5813873246
 30
0.0
 10
12.4604581336
 20
8.6019645257
 30
0.0
 10
12.4623713337
 20
8.622824632
 30
0.0
 10
12.4638222048
 20
8.6438000865
 30
0.0
 10
12.4647990895
 20
8.6647224084
 30
0.0
 10
12.4652942228
 20
8.6854235307
 30
0.0
 10
12.4653037769
 20
8.7057372399
 30
0.0
 10
12.4648278444
 20
8.7255003216
 30
0.0
 10
12.4640218433
 20
8.7415474184
 30
0.0
 10
12.4631289658
 20
8.7539865047
 30
0.0
 10
12.4623487572
 20
8.7629801384
 30
0.0
 10
12.461452418
 20
8.7717208578
 30
0.0
 10
12.460441747
 20
8.7801911227
 30
0.0
 10
12.4593188238
 20
8.7883739265
 30
0.0
 10
12.4580859208
 20
8.7962528503
 30
0.0
 10
12.4567455417
 20
8.8038120973
 30
0.0
 10
12.4553004331
 20
8.8110365328
 30
0.0
 10
12.4537535228
 20
8.8179117082
 30
0.0
 10
12.4521079446
 20
8.8244239015
 30
0.0
 10
12.4503670572
 20
8.8305601607
 30
0.0
 10
12.4485343665
 20
8.8363083228
 30
0.0
 10
12.4466135376
 20
8.8416570567
 30
0.0
 10
12.4446084091
 20
8.846595918
 30
0.0
 10
12.4425228745
 20
8.8511153597
 30
0.0
 10
12.4403608552
 20
8.8552067659
 30
0.0
 10
12.4381262321
 20
8.8588625104
 30
0.0
 10
12.4358227005
 20
8.8620758346
 30
0.0
 10
12.4334533386
 20
8.8648408494
 30
0.0
 10
12.4310214236
 20
8.8671517769
 30
0.0
 10
12.4289065877
 20
8.8687222005
 30
0.0
 10
12.4271934037
 20
8.8697280119
 30
0.0
 10
12.425919323
 20
8.8703517895
 30
0.0
 10
12.4246338225
 20
8.8708579505
 30
0.0
 10
12.4233375072
 20
8.8712460157
 30
0.0
 10
12.4220313272
 20
8.8715156389
 30
0.0
 10
12.4211530878
 20
8.871616412
 30
0.0
 10
12.4207144894
 20
8.8716468311
 30
0.0
  0
SPLINE
  5
389
100
AcDbEntity
  8
0
100
AcDbSpline
 62
7
  6
CONTINUOUS
 70
0
 71
3
 72
44
 73
40
 74
0
 42
0.0000001
 43
0.0000001
 44
0.0000000001
 40
0.0
 40
0.0
 40
0.0
 40
0.0
 40
0.011444028
 40
0.0232551984
 40
0.0354270375
 40
0.047952363
 40
0.0608234999
 40
0.0740321579
 40
0.1014260633
 40
0.1300593014
 40
0.1598498451
 40
0.1907098639
 40
0.2225463979
 40
0.2552619724
 40
0.2887551615
 40
0.3229211263
 40
0.3576521265
 40
0.3928380218
 40
0.4283667592
 40
0.4641248576
 40
0.4999978842
 40
0.5358709324
 40
0.5716290943
 40
0.6071579381
 40
0.6423439808
 40
0.6770751697
 40
0.7112413629
 40
0.7447348191
 40
0.7774506984
 40
0.8092875724
 40
0.8401479665
 40
0.8699389168
 40
0.8985725937
 40
0.9259669652
 40
0.9520465817
 40
0.964572177
 40
0.9767442627
 40
0.9885557185
 40
1.0
 40
1.0
 40
1.0
 40
1.0
 10
11.0877404269
 20
10.6561516956
 30
0.0
 10
11.08512352
 20
10.6570746491
 30
0.0
 10
11.0797872912
 20
10.6588981841
 30
0.0
 10
11.0716094679
 20
10.6615290681
 30
0.0
 10
11.0631372821
 20
10.6640969097
 30
0.0
 10
11.0543780328
 20
10.6665995338
 30
0.0
 10
11.0453391925
 20
10.6690347623
 30
0.0
 10
11.0327720815
 20
10.6722278772
 30
0.0
 10
11.0164170694
 20
10.6760253214
 30
0.0
 10
10.9960353767
 20
10.6802283882
 30
0.0
 10
10.9747364666
 20
10.6841164817
 30
0.0
 10
10.9525933574
 20
10.6876761421
 30
0.0
 10
10.9296818431
 20
10.6908950207
 30
0.0
 10
10.9060804462
 20
10.6937619654
 30
0.0
 10
10.8818700734
 20
10.6962670458
 30
0.0
 10
10.857133749
 20
10.6984015889
 30
0.0
 10
10.8319563189
 20
10.7001582073
 30
0.0
 10
10.8064241563
 20
10.7015308234
 30
0.0
 10
10.7806248614
 20
10.7025146893
 30
0.0
 10
10.7546469585
 20
10.7031064021
 30
0.0
 10
10.7285795884
 20
10.7033039158
 30
0.0
 10
10.7025122019
 20
10.7031065474
 30
0.0
 10
10.6765342492
 20
10.7025149793
 30
0.0
 10
10.6507348719
 20
10.7015312572
 30
0.0
 10
10.6252025943
 20
10.7001587831
 30
0.0
 10
10.6000250171
 20
10.6984023046
 30
0.0
 10
10.5752885144
 20
10.6962678987
 30
0.0
 10
10.5510779328
 20
10.6937629524
 30
0.0
 10
10.5274762966
 20
10.6908961382
 30
0.0
 10
10.5045645174
 20
10.6876773855
 30
0.0
 10
10.4824211042
 20
10.6841178487
 30
0.0
 10
10.4611219037
 20
10.6802298664
 30
0.0
 10
10.4407397512
 20
10.6760269319
 30
0.0
 10
10.4213444725
 20
10.671523604
 30
0.0
 10
10.4058576591
 20
10.6674810945
 30
0.0
 10
10.39401865
 20
10.6640987875
 30
0.0
 10
10.3855462465
 20
10.661530958
 30
0.0
 10
10.3773682037
 20
10.6589001439
 30
0.0
 10
10.3720318305
 20
10.6570766253
 30
0.0
 10
10.3694148527
 20
10.6561536878
 30
0.0
  0
SPLINE
  5
38A
100
AcDbEntity
  8
0
100
AcDbSpline
 62
7
  6
CONTINUOUS
 70
0
 71
3
 72
14
 73
10
 74
0
 42
0.0000001
 43
0.0000001
 44
0.0000000001
 40
0.0
 40
0.0
 40
0.0
 40
0.0
 40
0.1260179891
 40
0.2517563446
 40
0.3772113734
 40
0.50237896
 40
0.6272523551
 40
0.7518231729
 40
1.0
 40
1.0
 40
1.0
 40
1.0
 10
10.7941730466
 20
7.6888103215
 30
0.0
 10
10.7979097258
 20
7.6886673177
 30
0.0
 10
10.8053798227
 20
7.6884994606
 30
0.0
 10
10.816574303
 20
7.6885948005
 30
0.0
 10
10.8277356849
 20
7.6890238379
 30
0.0
 10
10.8388545103
 20
7.6897685099
 30
0.0
 10
10.8499232375
 20
7.6908076269
 30
0.0
 10
10.8645871264
 20
7.6925525267
 30
0.0
 10
10.8755235127
 20
7.694235197
 30
0.0
 10
10.8827796322
 20
7.6954929139
 30
0.0
  0
SPLINE
  5
38B
100
AcDbEntity
  8
0
100
AcDbSpline
 62
7
  6
CONTINUOUS
 70
0
 71
3
 72
18
 73
14
 74
0
 42
0.0000001
 43
0.0000001
 44
0.0000000001
 40
0.0
 40
0.0
 40
0.0
 40
0.0
 40
0.1504683897
 40
0.2917144302
 40
0.4244424337
 40
0.4879098403
 40
0.5496094316
 40
0.6682625858
 40
0.7817882724
 40
0.8371379912
 40
0.8918078094
 40
0.9460192717
 40
1.0
 40
1.0
 40
1.0
 40
1.0
 10
12.4488888253
 20
9.7188632339
 30
0.0
 10
12.4476448963
 20
9.7176616907
 30
0.0
 10
12.4451587326
 20
9.7154072488
 30
0.0
 10
12.4413091676
 20
9.7124029372
 30
0.0
 10
12.43805756
 20
9.7102781284
 30
0.0
 10
12.4354646853
 20
9.7088392771
 30
0.0
 10
12.432948092
 20
9.7076039748
 30
0.0
 10
12.4298015522
 20
9.7063557482
 30
0.0
 10
12.4265990413
 20
9.7055039556
 30
0.0
 10
12.4240625582
 20
9.7050843508
 30
0.0
 10
12.4221826723
 20
9.7048981328
 30
0.0
 10
12.4203103923
 20
9.704837993
 30
0.0
 10
12.4190664953
 20
9.7048819981
 30
0.0
 10
12.4184475327
 20
9.7049249266
 30
0.0
  0
SPLINE
  5
38C
100
AcDbEntity
  8
0
100
AcDbSpline
 62
7
  6
CONTINUOUS
 70
0
 71
3
 72
19
 73
15
 74
0
 42
0.0000001
 43
0.0000001
 44
0.0000000001
 40
0.0
 40
0.0
 40
0.0
 40
0.0
 40
0.1291539398
 40
0.2580323135
 40
0.3862480966
 40
0.4499543837
 40
0.5133008198
 40
0.5762165001
 40
0.6386333515
 40
0.7004898816
 40
0.7617344369
 40
0.8223275264
 40
0.8822429057
 40
1.0
 40
1.0
 40
1.0
 40
1.0
 10
10.8767415109
 20
7.4151789588
 30
0.0
 10
10.8850685765
 20
7.4146771675
 30
0.0
 10
10.9017079429
 20
7.4137246891
 30
0.0
 10
10.9266184003
 20
7.4123547983
 30
0.0
 10
10.9473062144
 20
7.4111853911
 30
0.0
 10
10.9637645433
 20
7.4101958975
 30
0.0
 10
10.9760104307
 20
7.4094229996
 30
0.0
 10
10.9881704972
 20
7.4086136208
 30
0.0
 10
11.0002315208
 20
7.4077664461
 30
0.0
 10
11.012181708
 20
7.4068829922
 30
0.0
 10
11.0240113352
 20
7.4059675495
 30
0.0
 10
11.0357131922
 20
7.4050268423
 30
0.0
 10
11.0510505981
 20
7.4037580103
 30
0.0
 10
11.0624853808
 20
7.4027858502
 30
0.0
 10
11.0700643771
 20
7.402145044
 30
0.0
  0
SPLINE
  5
38D
100
AcDbEntity
  8
0
100
AcDbSpline
 62
7
  6
CONTINUOUS
 70
0
 71
3
 72
39
 73
35
 74
0
 42
0.0000001
 43
0.0000001
 44
0.0000000001
 40
0.0
 40
0.0
 40
0.0
 40
0.0
 40
0.0299424701
 40
0.0599093174
 40
0.0899243244
 40
0.1200101043
 40
0.1501875649
 40
0.1804754189
 40
0.2108897652
 40
0.2414437446
 40
0.2721472716
 40
0.303006856
 40
0.3340255105
 40
0.3652027321
 40
0.396534568
 40
0.4280137546
 40
0.459629913
 40
0.4913698074
 40
0.5232176551
 40
0.555155472
 40
0.5871634555
 40
0.6192203971
 40
0.6513041118
 40
0.6833918814
 40
0.7154609078
 40
0.747488765
 40
0.7794538478
 40
0.811335806
 40
0.8431159644
 40
0.874777716
 40
0.9063068848
 40
0.9376920706
 40
0.9689246614
 40
1.0
 40
1.0
 40
1.0
 40
1.0
 10
11.1439260247
 20
7.1452763714
 30
0.0
 10
11.1366265694
 20
7.1382256568
 30
0.0
 10
11.1214536668
 20
7.1246932725
 30
0.0
 10
11.0971443223
 20
7.1062578059
 30
0.0
 10
11.0714092474
 20
7.0897776994
 30
0.0
 10
11.0443922405
 20
7.0753453914
 30
0.0
 10
11.016241815
 20
7.0630397768
 30
0.0
 10
10.9871133513
 20
7.0529284593
 30
0.0
 10
10.9571673624
 20
7.0450667515
 30
0.0
 10
10.9265688173
 20
7.0394976259
 30
0.0
 10
10.895486196
 20
7.036251298
 30
0.0
 10
10.8640905373
 20
7.0353452022
 30
0.0
 10
10.8325545081
 20
7.0367839663
 30
0.0
 10
10.8010514622
 20
7.0405592624
 30
0.0
 10
10.769754483
 20
7.0466499479
 30
0.0
 10
10.7388354677
 20
7.0550222676
 30
0.0
 10
10.7084641728
 20
7.0656299162
 30
0.0
 10
10.6788072898
 20
7.0784143462
 30
0.0
 10
10.6500275859
 20
7.0933051795
 30
0.0
 10
10.6222829809
 20
7.1102204821
 30
0.0
 10
10.5957256813
 20
7.1290672278
 30
0.0
 10
10.570501421
 20
7.1497418989
 30
0.0
 10
10.5467486198
 20
7.1721309613
 30
0.0
 10
10.5245976029
 20
7.1961114715
 30
0.0
 10
10.5041699831
 20
7.221551835
 30
0.0
 10
10.4855779491
 20
7.2483124568
 30
0.0
 10
10.4689235977
 20
7.276246471
 30
0.0
 10
10.4542984911
 20
7.305200622
 30
0.0
 10
10.4417831145
 20
7.3350160313
 30
0.0
 10
10.4314463474
 20
7.3655291025
 30
0.0
 10
10.4233452064
 20
7.3965722043
 30
0.0
 10
10.4175245557
 20
7.427975475
 30
0.0
 10
10.4140165563
 20
7.4595642278
 30
0.0
 10
10.4132308416
 20
7.4806908279
 30
0.0
 10
10.4132308416
 20
7.4912234264
 30
0.0
  0
SPLINE
  5
38E
100
AcDbEntity
  8
0
100
AcDbSpline
 62
7
  6
CONTINUOUS
 70
0
 71
3
 72
39
 73
35
 74
0
 42
0.0000001
 43
0.0000001
 44
0.0000000001
 40
0.0
 40
0.0
 40
0.0
 40
0.0
 40
0.0299377059
 40
0.0599040296
 40
0.0899223011
 40
0.1200146053
 40
0.1502012657
 40
0.1805003782
 40
0.2109274105
 40
0.2414948792
 40
0.2722121041
 40
0.30308504
 40
0.3341161987
 40
0.3653046476
 40
0.3966460771
 40
0.4281329424
 40
0.4597546683
 40
0.4914979049
 40
0.523346829
 40
0.5552834915
 40
0.5872881942
 40
0.6193398896
 40
0.6514166045
 40
0.6834958745
 40
0.715555185
 40
0.7475724136
 40
0.779526266
 40
0.8113967008
 40
0.8431653398
 40
0.8748158472
 40
0.9063342829
 40
0.9377094559
 40
0.9689328727
 40
1.0
 40
1.0
 40
1.0
 40
1.0
 10
11.1438966357
 20
7.1453081511
 30
0.0
 10
11.1365351035
 20
7.1384082973
 30
0.0
 10
11.1212521808
 20
7.1251785395
 30
0.0
 10
11.0968215642
 20
7.1071955351
 30
0.0
 10
11.0710063313
 20
7.091161541
 30
0.0
 10
11.0439490405
 20
7.077165415
 30
0.0
 10
11.015796664
 20
7.0652827314
 30
0.0
 10
10.9867027325
 20
7.0555780241
 30
0.0
 10
10.9568256767
 20
7.0481037139
 30
0.0
 10
10.9263281356
 20
7.0429001209
 30
0.0
 10
10.8953760263
 20
7.0399951902
 30
0.0
 10
10.8641376583
 20
7.0394042781
 30
0.0
 10
10.8327827953
 20
7.0411301962
 30
0.0
 10
10.8014817556
 20
7.0451632292
 30
0.0
 10
10.7704044889
 20
7.0514811065
 30
0.0
 10
10.7397196558
 20
7.0600491731
 30
0.0
 10
10.7095937437
 20
7.0708206515
 30
0.0
 10
10.6801901749
 20
7.0837368579
 30
0.0
 10
10.6516683971
 20
7.0987274586
 30
0.0
 10
10.6241830689
 20
7.1157109542
 30
0.0
 10
10.5978832455
 20
7.1345951147
 30
0.0
 10
10.5729115235
 20
7.1552773913
 30
0.0
 10
10.5494033034
 20
7.1776455264
 30
0.0
 10
10.5274861008
 20
7.201578189
 30
0.0
 10
10.5072788281
 20
7.22694558
 30
0.0
 10
10.4888911131
 20
7.2536101066
 30
0.0
 10
10.4724227851
 20
7.2814271826
 30
0.0
 10
10.4579633403
 20
7.3102459925
 30
0.0
 10
10.4455913622
 20
7.339910231
 30
0.0
 10
10.4353741699
 20
7.3702590589
 30
0.0
 10
10.4273674732
 20
7.4011277118
 30
0.0
 10
10.4216150679
 20
7.4323492531
 30
0.0
 10
10.4181483606
 20
7.4637520583
 30
0.0
 10
10.4173719431
 20
7.4847531805
 30
0.0
 10
10.4173719431
 20
7.4952234235
 30
0.0
  0
SPLINE
  5
38F
100
AcDbEntity
  8
0
100
AcDbSpline
 62
7
  6
CONTINUOUS
 70
0
 71
3
 72
41
 73
37
 74
0
 42
0.0000001
 43
0.0000001
 44
0.0000000001
 40
0.0
 40
0.0
 40
0.0
 40
0.0
 40
0.0299421779
 40
0.0599087321
 40
0.0899234448
 40
0.12000893
 40
0.1501860942
 40
0.1804736507
 40
0.2108876985
 40
0.2414413769
 40
0.2721446009
 40
0.3030038814
 40
0.3340222297
 40
0.3651991437
 40
0.3965306721
 40
0.4280095499
 40
0.4596253985
 40
0.4913649829
 40
0.5232125193
 40
0.5551500235
 40
0.5871576944
 40
0.6192143233
 40
0.6512977253
 40
0.6833851829
 40
0.715453898
 40
0.7314766041
 40
0.7474862746
 40
0.7794510465
 40
0.8113326948
 40
0.8272389026
 40
0.8431174882
 40
0.8747789376
 40
0.9063077789
 40
0.9376927029
 40
0.968924976
 40
1.0
 40
1.0
 40
1.0
 40
1.0
 10
11.0134093421
 20
7.3042242386
 30
0.0
 10
11.0095107699
 20
7.3004585078
 30
0.0
 10
11.0014070739
 20
7.2932309546
 30
0.0
 10
10.9884236911
 20
7.2833846911
 30
0.0
 10
10.9746788321
 20
7.2745827707
 30
0.0
 10
10.9602492958
 20
7.2668745714
 30
0.0
 10
10.9452144137
 20
7.2603022076
 30
0.0
 10
10.9296571621
 20
7.2549018088
 30
0.0
 10
10.9136632722
 20
7.25070292
 30
0.0
 10
10.8973208595
 20
7.247728464
 30
0.0
 10
10.8807199024
 20
7.2459945966
 30
0.0
 10
10.8639517526
 20
7.2455106388
 30
0.0
 10
10.8471086302
 20
7.2462790355
 30
0.0
 10
10.8302831206
 20
7.2482953542
 30
0.0
 10
10.8135676696
 20
7.2515483179
 30
0.0
 10
10.7970540825
 20
7.2560198758
 30
0.0
 10
10.7808330262
 20
7.2616853063
 30
0.0
 10
10.7649935361
 20
7.2685133529
 30
0.0
 10
10.749622536
 20
7.2764664051
 30
0.0
 10
10.7348043692
 20
7.2855007018
 30
0.0
 10
10.7206203336
 20
7.295566584
 30
0.0
 10
10.7071482763
 20
7.3066087169
 30
0.0
 10
10.6944620388
 20
7.3185665758
 30
0.0
 10
10.6826315548
 20
7.3313740874
 30
0.0
 10
10.6735361768
 20
7.3427014525
 30
0.0
 10
10.6667502157
 20
7.3521167795
 30
0.0
 10
10.6603056241
 20
7.3617463869
 30
0.0
 10
10.6528963294
 20
7.3741736666
 30
0.0
 10
10.6463815691
 20
7.3870715585
 30
0.0
 10
10.6417343324
 20
7.3976206338
 30
0.0
 10
10.637476792
 20
7.4082899402
 30
0.0
 10
10.6328799775
 20
7.4218590232
 30
0.0
 10
10.628553349
 20
7.4384385763
 30
0.0
 10
10.6254445478
 20
7.4552108761
 30
0.0
 10
10.6235709551
 20
7.4720821391
 30
0.0
 10
10.6231513141
 20
7.4833656758
 30
0.0
 10
10.6231513141
 20
7.4889910443
 30
0.0
  0
SPLINE
  5
390
100
AcDbEntity
  8
0
100
AcDbSpline
 62
7
  6
CONTINUOUS
 70
0
 71
3
 72
86
 73
82
 74
0
 42
0.0000001
 43
0.0000001
 44
0.0000000001
 40
0.0
 40
0.0
 40
0.0
 40
0.0
 40
0.0039801513
 40
0.008124084
 40
0.0124359564
 40
0.0169193168
 40
0.0215771741
 40
0.0264119028
 40
0.0314251627
 40
0.0366181356
 40
0.0419915235
 40
0.0475456275
 40
0.053280397
 40
0.0591953838
 40
0.0715623696
 40
0.0846380241
 40
0.098409314
 40
0.1128598612
 40
0.1279703666
 40
0.1437189434
 40
0.1600813876
 40
0.1770314207
 40
0.1945408892
 40
0.212579937
 40
0.2311171586
 40
0.2501197324
 40
0.2695535554
 40
0.2893833698
 40
0.3095728782
 40
0.330084854
 40
0.3508812463
 40
0.3719232845
 40
0.3931715874
 40
0.4145862648
 40
0.4577524943
 40
0.5010972215
 40
0.5442931877
 40
0.5657338055
 40
0.5870153489
 40
0.6080978459
 40
0.6289418171
 40
0.6495083765
 40
0.6697593333
 40
0.6896572975
 40
0.709165794
 40
0.7282493704
 40
0.7468737097
 40
0.765005749
 40
0.7826138079
 40
0.799667733
 40
0.8161390526
 40
0.8320011386
 40
0.8472293986
 40
0.8618014998
 40
0.8756976395
 40
0.8889008818
 40
0.9013975545
 40
0.9073779486
 40
0.9131783323
 40
0.9187981834
 40
0.9242373016
 40
0.9294958263
 40
0.9345743472
 40
0.939473844
 40
0.9441958406
 40
0.9487423954
 40
0.9531161817
 40
0.9573206117
 40
0.9613598365
 40
0.9652389461
 40
0.9689639973
 40
0.9725421665
 40
0.9759818867
 40
0.9792929065
 40
0.9824864724
 40
0.985575332
 40
0.9885738044
 40
0.9914977317
 40
0.9943643325
 40
0.9971920101
 40
1.0
 40
1.0
 40
1.0
 40
1.0
 10
10.2456118675
 20
10.7796313404
 30
0.0
 10
10.2466021422
 20
10.7805878724
 30
0.0
 10
10.2486684137
 20
10.7824941775
 30
0.0
 10
10.2519490255
 20
10.7852784904
 30
0.0
 10
10.2554705506
 20
10.7880428487
 30
0.0
 10
10.2592310554
 20
10.7907857512
 30
0.0
 10
10.2632286859
 20
10.7935059368
 30
0.0
 10
10.2674615041
 20
10.7962020623
 30
0.0
 10
10.2719273876
 20
10.7988728603
 30
0.0
 10
10.2766241214
 20
10.8015169455
 30
0.0
 10
10.2815493413
 20
10.8041330187
 30
0.0
 10
10.2867005789
 20
10.8067197756
 30
0.0
 10
10.2920752724
 20
10.8092759127
 30
0.0
 10
10.2996486232
 20
10.8126923716
 30
0.0
 10
10.309662957
 20
10.8168673403
 30
0.0
 10
10.3223538837
 20
10.8216635844
 30
0.0
 10
10.3358654926
 20
10.8263079917
 30
0.0
 10
10.3501705867
 20
10.8307911378
 30
0.0
 10
10.3652405275
 20
10.8351039104
 30
0.0
 10
10.3810450049
 20
10.8392375285
 30
0.0
 10
10.3975521945
 20
10.8431835778
 30
0.0
 10
10.4147288113
 20
10.846934021
 30
0.0
 10
10.4325401946
 20
10.8504812179
 30
0.0
 10
10.4509503808
 20
10.8538179425
 30
0.0
 10
10.4699221783
 20
10.856937396
 30
0.0
 10
10.4894172426
 20
10.8598332285
 30
0.0
 10
10.5093961584
 20
10.8624995478
 30
0.0
 10
10.5298185248
 20
10.8649309281
 30
0.0
 10
10.5506430391
 20
10.8671224221
 30
0.0
 10
10.5718275792
 20
10.8690695687
 30
0.0
 10
10.5933292916
 20
10.8707684073
 30
0.0
 10
10.6151046634
 20
10.8722154802
 30
0.0
 10
10.6371096733
 20
10.8734078697
 30
0.0
 10
10.6667738117
 20
10.8746580591
 30
0.0
 10
10.7040999923
 20
10.8755661397
 30
0.0
 10
10.7489717735
 20
10.8756134788
 30
0.0
 10
10.7863190461
 20
10.8747843332
 30
0.0
 10
10.8160165533
 20
10.8735971652
 30
0.0
 10
10.8380585502
 20
10.8724513741
 30
0.0
 10
10.8598789733
 20
10.871050419
 30
0.0
 10
10.8814337124
 20
10.8693971259
 30
0.0
 10
10.9026791482
 20
10.867494863
 30
0.0
 10
10.9235723019
 20
10.8653474966
 30
0.0
 10
10.944070908
 20
10.8629593918
 30
0.0
 10
10.9641335078
 20
10.86033541
 30
0.0
 10
10.9837195327
 20
10.8574808931
 30
0.0
 10
11.0027893858
 20
10.8544016517
 30
0.0
 10
11.0213045217
 20
10.8511039547
 30
0.0
 10
11.0392275286
 20
10.8475945145
 30
0.0
 10
11.0565222103
 20
10.8438804786
 30
0.0
 10
11.0731536658
 20
10.8399694161
 30
0.0
 10
11.0890883595
 20
10.8358692952
 30
0.0
 10
11.1042941994
 20
10.8315884662
 30
0.0
 10
11.1187405876
 20
10.8271356428
 30
0.0
 10
11.1323985788
 20
10.822519871
 30
0.0
 10
11.1452406751
 20
10.8177505305
 30
0.0
 10
11.1553847674
 20
10.8135975251
 30
0.0
 10
11.1630643932
 20
10.8101978781
 30
0.0
 10
11.1685196971
 20
10.8076531814
 30
0.0
 10
11.1737525204
 20
10.8050774174
 30
0.0
 10
11.1787602515
 20
10.8024718668
 30
0.0
 10
11.1835403648
 20
10.7998378036
 30
0.0
 10
11.1880904918
 20
10.7971765935
 30
0.0
 10
11.192408339
 20
10.7944895081
 30
0.0
 10
11.1964917689
 20
10.7917779083
 30
0.0
 10
11.2003387501
 20
10.7890431219
 30
0.0
 10
11.2039473509
 20
10.7862864505
 30
0.0
 10
11.2073158109
 20
10.7835092741
 30
0.0
 10
11.2104424103
 20
10.7807128547
 30
0.0
 10
11.2133256151
 20
10.7778985518
 30
0.0
 10
11.2159639516
 20
10.7750676475
 30
0.0
 10
11.2183560356
 20
10.7722214183
 30
0.0
 10
11.2205006368
 20
10.7693611891
 30
0.0
 10
11.2223964833
 20
10.7664881883
 30
0.0
 10
11.2240425028
 20
10.7636037664
 30
0.0
 10
11.2254375773
 20
10.7607092332
 30
0.0
 10
11.2265806877
 20
10.7578059945
 30
0.0
 10
11.2274709559
 20
10.7548955942
 30
0.0
 10
11.2281074797
 20
10.7519795546
 30
0.0
 10
11.2284897184
 20
10.7490599506
 30
0.0
 10
11.2285747974
 20
10.7471094202
 30
0.0
 10
11.2285748021
 20
10.7461380852
 30
0.0
  0
SPLINE
  5
391
100
AcDbEntity
  8
0
100
AcDbSpline
 62
7
  6
CONTINUOUS
 70
0
 71
3
 72
23
 73
19
 74
0
 42
0.0000001
 43
0.0000001
 44
0.0000000001
 40
0.0
 40
0.0
 40
0.0
 40
0.0
 40
0.0616994034
 40
0.1234251675
 40
0.1851973347
 40
0.2470354909
 40
0.3089585741
 40
0.3709846903
 40
0.4331309434
 40
0.4954132778
 40
0.557846327
 40
0.6204432945
 40
0.6832158241
 40
0.7461738639
 40
0.8093259129
 40
0.8726776493
 40
0.9362357225
 40
1.0
 40
1.0
 40
1.0
 40
1.0
 10
10.5325809207
 20
7.7781910748
 30
0.0
 10
10.5280101866
 20
7.7736413581
 30
0.0
 10
10.5190950871
 20
7.7643072432
 30
0.0
 10
10.50644331
 20
7.7496457298
 30
0.0
 10
10.4945374502
 20
7.7343532825
 30
0.0
 10
10.4834044165
 20
7.7184643693
 30
0.0
 10
10.4730688283
 20
7.70201419
 30
0.0
 10
10.4635536739
 20
7.6850393561
 30
0.0
 10
10.4548800596
 20
7.6675776066
 30
0.0
 10
10.4470672335
 20
7.6496677666
 30
0.0
 10
10.4401325246
 20
7.6313496482
 30
0.0
 10
10.4340913112
 20
7.6126639648
 30
0.0
 10
10.4289569945
 20
7.5936522478
 30
0.0
 10
10.4247409151
 20
7.5743567194
 30
0.0
 10
10.4214524496
 20
7.5548203494
 30
0.0
 10
10.4190987345
 20
7.5350862487
 30
0.0
 10
10.4176851364
 20
7.5151989906
 30
0.0
 10
10.4173719431
 20
7.5018884049
 30
0.0
 10
10.4173719431
 20
7.4952234235
 30
0.0
  0
SPLINE
  5
392
100
AcDbEntity
  8
0
100
AcDbSpline
 62
7
  6
CONTINUOUS
 70
0
 71
3
 72
21
 73
17
 74
0
 42
0.0000001
 43
0.0000001
 44
0.0000000001
 40
0.0
 40
0.0
 40
0.0
 40
0.0
 40
0.061714776
 40
0.123450665
 40
0.1852285542
 40
0.2470689029
 40
0.3089915446
 40
0.3710154752
 40
0.4331586565
 40
0.4954378535
 40
0.5578684954
 40
0.6204645019
 40
0.6832380654
 40
0.7461999575
 40
0.8726824794
 40
1.0
 40
1.0
 40
1.0
 40
1.0
 10
10.6868784514
 20
7.6422738718
 30
0.0
 10
10.6843551263
 20
7.6398365274
 30
0.0
 10
10.6794321304
 20
7.6348301666
 30
0.0
 10
10.6724422906
 20
7.6269494129
 30
0.0
 10
10.6658618445
 20
7.6187142343
 30
0.0
 10
10.6597061965
 20
7.6101439113
 30
0.0
 10
10.6539894611
 20
7.6012581478
 30
0.0
 10
10.6487248624
 20
7.5920774429
 30
0.0
 10
10.6439245127
 20
7.582622979
 30
0.0
 10
10.6395994419
 20
7.5729165837
 30
0.0
 10
10.6357596149
 20
7.5629806167
 30
0.0
 10
10.6324139064
 20
7.5528380576
 30
0.0
 10
10.6295699316
 20
7.542512037
 30
0.0
 10
10.6264513604
 20
7.5285125427
 30
0.0
 10
10.6238421891
 20
7.5106654409
 30
0.0
 10
10.6231513141
 20
7.4962285604
 30
0.0
 10
10.6231513141
 20
7.4889910443
 30
0.0
  0
SPLINE
  5
393
100
AcDbEntity
  8
0
100
AcDbSpline
 62
7
  6
CONTINUOUS
 70
0
 71
3
 72
42
 73
38
 74
0
 42
0.0000001
 43
0.0000001
 44
0.0000000001
 40
0.0
 40
0.0
 40
0.0
 40
0.0
 40
0.0299419634
 40
0.0449235299
 40
0.0599142017
 40
0.0899287029
 40
0.1200139772
 40
0.1350926626
 40
0.1501967046
 40
0.1804840506
 40
0.2108978877
 40
0.2414513551
 40
0.2721543675
 40
0.3030134354
 40
0.3340315696
 40
0.3652082675
 40
0.3965395775
 40
0.4280182343
 40
0.4596338596
 40
0.4913732188
 40
0.5232205284
 40
0.5551578047
 40
0.5871652463
 40
0.6192216448
 40
0.6513048151
 40
0.6833920402
 40
0.7154605222
 40
0.747487836
 40
0.7794523759
 40
0.8113337934
 40
0.8431134117
 40
0.8747746318
 40
0.9063032512
 40
0.9376879208
 40
0.9533258
 40
0.9689252634
 40
1.0
 40
1.0
 40
1.0
 40
1.0
 10
11.4406969225
 20
9.38707927
 30
0.0
 10
11.4378434981
 20
9.3843230905
 30
0.0
 10
11.4333951638
 20
9.3803558334
 30
0.0
 10
11.4271653719
 20
9.3754333314
 30
0.0
 10
11.4207371924
 20
9.3707557805
 30
0.0
 10
11.4123494751
 20
9.3653844368
 30
0.0
 10
11.403553942
 20
9.3606860655
 30
0.0
 10
11.3962999065
 20
9.3573436395
 30
0.0
 10
11.388896024
 20
9.3542771359
 30
0.0
 10
11.3793971785
 20
9.3509797779
 30
0.0
 10
11.3676912912
 20
9.3479067229
 30
0.0
 10
11.3557299797
 20
9.3457297
 30
0.0
 10
11.3435795317
 20
9.3444607196
 30
0.0
 10
11.3313066922
 20
9.3441065538
 30
0.0
 10
11.31897899
 20
9.344669005
 30
0.0
 10
11.3066641809
 20
9.3461448243
 30
0.0
 10
11.2944299293
 20
9.3485257575
 30
0.0
 10
11.2823434272
 20
9.3517985909
 30
0.0
 10
11.2704710337
 20
9.3559452292
 30
0.0
 10
11.258877915
 20
9.3609427974
 30
0.0
 10
11.2476276919
 20
9.3667637689
 30
0.0
 10
11.2367820955
 20
9.3733761164
 30
0.0
 10
11.226400633
 20
9.3807434881
 30
0.0
 10
11.2165402653
 20
9.3888254061
 30
0.0
 10
11.2072550981
 20
9.3975774873
 30
0.0
 10
11.1985960888
 20
9.4069516844
 30
0.0
 10
11.190610769
 20
9.4168965476
 30
0.0
 10
11.183342987
 20
9.4273575047
 30
0.0
 10
11.1768326685
 20
9.4382771536
 30
0.0
 10
11.1711155996
 20
9.4495955869
 30
0.0
 10
11.1662232321
 20
9.4612506691
 30
0.0
 10
11.162182502
 20
9.4731785466
 30
0.0
 10
11.1590157315
 20
9.4853133535
 30
0.0
 10
11.1571171822
 20
9.4955564461
 30
0.0
 10
11.1560521524
 20
9.5037866468
 30
0.0
 10
11.1552920667
 20
9.5120089719
 30
0.0
 10
11.1550619201
 20
9.5181962161
 30
0.0
 10
11.1550619201
 20
9.5223134887
 30
0.0
  0
SPLINE
  5
394
100
AcDbEntity
  8
0
100
AcDbSpline
 62
7
  6
CONTINUOUS
 70
0
 71
3
 72
18
 73
14
 74
0
 42
0.0000001
 43
0.0000001
 44
0.0000000001
 40
0.0
 40
0.0
 40
0.0
 40
0.0
 40
0.1504683897
 40
0.2917144302
 40
0.4244424337
 40
0.4879098403
 40
0.5496094316
 40
0.6682625858
 40
0.7817882724
 40
0.8371379912
 40
0.8918078094
 40
0.9460192717
 40
1.0
 40
1.0
 40
1.0
 40
1.0
 10
12.4488888253
 20
8.209121113
 30
0.0
 10
12.4476448963
 20
8.2079195697
 30
0.0
 10
12.4451587326
 20
8.2056651278
 30
0.0
 10
12.4413091676
 20
8.2026608163
 30
0.0
 10
12.43805756
 20
8.2005360075
 30
0.0
 10
12.4354646853
 20
8.1990971562
 30
0.0
 10
12.432948092
 20
8.1978618539
 30
0.0
 10
12.4298015522
 20
8.1966136273
 30
0.0
 10
12.4265990413
 20
8.1957618347
 30
0.0
 10
12.4240625582
 20
8.1953422298
 30
0.0
 10
12.4221826723
 20
8.1951560119
 30
0.0
 10
12.4203103923
 20
8.1950958721
 30
0.0
 10
12.4190664953
 20
8.1951398772
 30
0.0
 10
12.4184475327
 20
8.1951828056
 30
0.0
  0
SPLINE
  5
395
100
AcDbEntity
  8
0
100
AcDbSpline
 62
7
  6
CONTINUOUS
 70
0
 71
3
 72
17
 73
13
 74
0
 42
0.0000001
 43
0.0000001
 44
0.0000000001
 40
0.0
 40
0.0
 40
0.0
 40
0.0
 40
0.0548647422
 40
0.1099333913
 40
0.1654074837
 40
0.2214837877
 40
0.336145709
 40
0.4553802063
 40
0.5804211709
 40
0.7123203349
 40
0.8519514223
 40
1.0
 40
1.0
 40
1.0
 40
1.0
 10
10.2285748164
 20
10.746137408
 30
0.0
 10
10.228574813
 20
10.7468435544
 30
0.0
 10
10.2286196235
 20
10.7482588796
 30
0.0
 10
10.2288211064
 20
10.7503795535
 30
0.0
 10
10.2291568883
 20
10.7524990539
 30
0.0
 10
10.2297878769
 20
10.755342926
 30
0.0
 10
10.2309246809
 20
10.7589074222
 30
0.0
 10
10.2328146555
 20
10.7631322677
 30
0.0
 10
10.2352363666
 20
10.7673335872
 30
0.0
 10
10.2381857787
 20
10.7715072601
 30
0.0
 10
10.2416585365
 20
10.7756496704
 30
0.0
 10
10.2442413384
 20
10.7783075109
 30
0.0
 10
10.2456118675
 20
10.7796313404
 30
0.0
  0
SPLINE
  5
396
100
AcDbEntity
  8
0
100
AcDbSpline
 62
7
  6
CONTINUOUS
 70
0
 71
3
 72
21
 73
17
 74
0
 42
0.0000001
 43
0.0000001
 44
0.0000000001
 40
0.0
 40
0.0
 40
0.0
 40
0.0
 40
0.1273176984
 40
0.2537999461
 40
0.3167619614
 40
0.3795355204
 40
0.4421314992
 40
0.5045621453
 40
0.5668413456
 40
0.6289845231
 40
0.6910084433
 40
0.7529310869
 40
0.8147714401
 40
0.8765493236
 40
0.9382852134
 40
1.0
 40
1.0
 40
1.0
 40
1.0
 10
11.1550619201
 20
9.5223134887
 30
0.0
 10
11.1550619201
 20
9.5276107809
 30
0.0
 10
11.1555675821
 20
9.5381774238
 30
0.0
 10
11.1574773249
 20
9.5512400753
 30
0.0
 10
11.1597598726
 20
9.5614865816
 30
0.0
 10
11.161841437
 20
9.5690444096
 30
0.0
 10
11.164290273
 20
9.5764679388
 30
0.0
 10
11.1671007347
 20
9.5837402673
 30
0.0
 10
11.1702663426
 20
9.5908445753
 30
0.0
 10
11.1737798611
 20
9.5977644664
 30
0.0
 10
11.1776331623
 20
9.6044839892
 30
0.0
 10
11.1818173597
 20
9.6109876578
 30
0.0
 10
11.1863228442
 20
9.6172604229
 30
0.0
 10
11.1911392536
 20
9.6232878782
 30
0.0
 10
11.1962552667
 20
9.6290559557
 30
0.0
 10
11.1998585433
 20
9.6327201782
 30
0.0
 10
11.2017054217
 20
9.6345041149
 30
0.0
  0
SPLINE
  5
397
100
AcDbEntity
  8
0
100
AcDbSpline
 62
7
  6
CONTINUOUS
 70
0
 71
3
 72
42
 73
38
 74
0
 42
0.0000001
 43
0.0000001
 44
0.0000000001
 40
0.0
 40
0.0
 40
0.0
 40
0.0
 40
0.0299419634
 40
0.0449235299
 40
0.0599142017
 40
0.0899287029
 40
0.1200139772
 40
0.1350926626
 40
0.1501967046
 40
0.1804840506
 40
0.2108978877
 40
0.2414513551
 40
0.2721543675
 40
0.3030134354
 40
0.3340315696
 40
0.3652082675
 40
0.3965395775
 40
0.4280182343
 40
0.4596338596
 40
0.4913732188
 40
0.5232205284
 40
0.5551578047
 40
0.5871652463
 40
0.6192216448
 40
0.6513048151
 40
0.6833920402
 40
0.7154605222
 40
0.747487836
 40
0.7794523759
 40
0.8113337934
 40
0.8431134117
 40
0.8747746318
 40
0.9063032512
 40
0.9376879208
 40
0.9533258
 40
0.9689252634
 40
1.0
 40
1.0
 40
1.0
 40
1.0
 10
10.4747710389
 20
6.7977702491
 30
0.0
 10
10.4719176146
 20
6.7950140696
 30
0.0
 10
10.4674692803
 20
6.7910468125
 30
0.0
 10
10.4612394884
 20
6.7861243105
 30
0.0
 10
10.4548113089
 20
6.7814467596
 30
0.0
 10
10.4464235916
 20
6.7760754159
 30
0.0
 10
10.4376280584
 20
6.7713770446
 30
0.0
 10
10.430374023
 20
6.7680346186
 30
0.0
 10
10.4229701405
 20
6.764968115
 30
0.0
 10
10.413471295
 20
6.761670757
 30
0.0
 10
10.4017654077
 20
6.758597702
 30
0.0
 10
10.3898040961
 20
6.7564206791
 30
0.0
 10
10.3776536481
 20
6.7551516987
 30
0.0
 10
10.3653808087
 20
6.7547975328
 30
0.0
 10
10.3530531065
 20
6.7553599841
 30
0.0
 10
10.3407382974
 20
6.7568358033
 30
0.0
 10
10.3285040458
 20
6.7592167366
 30
0.0
 10
10.3164175436
 20
6.76248957
 30
0.0
 10
10.3045451502
 20
6.7666362082
 30
0.0
 10
10.2929520315
 20
6.7716337765
 30
0.0
 10
10.2817018084
 20
6.777454748
 30
0.0
 10
10.270856212
 20
6.7840670955
 30
0.0
 10
10.2604747495
 20
6.7914344672
 30
0.0
 10
10.2506143817
 20
6.7995163852
 30
0.0
 10
10.2413292146
 20
6.8082684663
 30
0.0
 10
10.2326702052
 20
6.8176426634
 30
0.0
 10
10.2246848855
 20
6.8275875267
 30
0.0
 10
10.2174171035
 20
6.8380484837
 30
0.0
 10
10.210906785
 20
6.8489681327
 30
0.0
 10
10.2051897161
 20
6.8602865659
 30
0.0
 10
10.2002973486
 20
6.8719416482
 30
0.0
 10
10.1962566184
 20
6.8838695256
 30
0.0
 10
10.1930898479
 20
6.8960043325
 30
0.0
 10
10.1911912987
 20
6.9062474251
 30
0.0
 10
10.1901262688
 20
6.9144776259
 30
0.0
 10
10.1893661832
 20
6.9226999509
 30
0.0
 10
10.1891360366
 20
6.9288871952
 30
0.0
 10
10.1891360366
 20
6.9330044678
 30
0.0
  0
SPLINE
  5
398
100
AcDbEntity
  8
0
100
AcDbSpline
 62
7
  6
CONTINUOUS
 70
0
 71
3
 72
67
 73
63
 74
0
 42
0.0000001
 43
0.0000001
 44
0.0000000001
 40
0.0
 40
0.0
 40
0.0
 40
0.0
 40
0.0155845825
 40
0.0311170818
 40
0.0465968193
 40
0.062025983
 40
0.0774060868
 40
0.0927394301
 40
0.1080287936
 40
0.1232773624
 40
0.1384887613
 40
0.1536669973
 40
0.1688164253
 40
0.1839417032
 40
0.1990477421
 40
0.2141396583
 40
0.2292227202
 40
0.2443022907
 40
0.2593837681
 40
0.2744725304
 40
0.2895738795
 40
0.3046929831
 40
0.3198348189
 40
0.3350041227
 40
0.3502053427
 40
0.3654425939
 40
0.3807196152
 40
0.3960397329
 40
0.4114058342
 40
0.4268203411
 40
0.4422851877
 40
0.4578018044
 40
0.4733711134
 40
0.4889935247
 40
0.5046689335
 40
0.5203967259
 40
0.5361757944
 40
0.5520045527
 40
0.567880951
 40
0.5838024991
 40
0.5997662972
 40
0.6157690646
 40
0.6318071685
 40
0.6478766593
 40
0.6639733112
 40
0.68009266
 40
0.7123721236
 40
0.7446846186
 40
0.7769900059
 40
0.8092483934
 40
0.8253521894
 40
0.8414301121
 40
0.8574778624
 40
0.8734914069
 40
0.8894670144
 40
0.9054013009
 40
0.9212912358
 40
0.9371342343
 40
0.9529281327
 40
0.9686709336
 40
0.9843622928
 40
1.0
 40
1.0
 40
1.0
 40
1.0
 10
11.0983496909
 20
7.4479974563
 30
0.0
 10
11.0983496909
 20
7.4438167813
 30
0.0
 10
11.0981450711
 20
7.4354679215
 30
0.0
 10
11.097221542
 20
7.4229972638
 30
0.0
 10
11.0956839127
 20
7.4106289992
 30
0.0
 10
11.0935360553
 20
7.3983935252
 30
0.0
 10
11.0907829705
 20
7.3863200707
 30
0.0
 10
11.0874313243
 20
7.3744378206
 30
0.0
 10
11.0834891788
 20
7.3627753996
 30
0.0
 10
11.0789659908
 20
7.3513609325
 30
0.0
 10
11.0738726198
 20
7.3402219604
 30
0.0
 10
11.0682213486
 20
7.3293853398
 30
0.0
 10
11.0620257922
 20
7.3188772051
 30
0.0
 10
11.0553008661
 20
7.3087229101
 30
0.0
 10
11.0480627526
 20
7.2989469698
 30
0.0
 10
11.0403289231
 20
7.2895729543
 30
0.0
 10
11.0321180307
 20
7.280623471
 30
0.0
 10
11.0234498689
 20
7.2721201147
 30
0.0
 10
11.0143453265
 20
7.264083418
 30
0.0
 10
11.0048263867
 20
7.2565327431
 30
0.0
 10
10.9949160181
 20
7.2494862876
 30
0.0
 10
10.9846381229
 20
7.2429610444
 30
0.0
 10
10.9740174828
 20
7.236972763
 30
0.0
 10
10.9630797349
 20
7.231535845
 30
0.0
 10
10.9518512664
 20
7.2266633724
 30
0.0
 10
10.9403591546
 20
7.2223670797
 30
0.0
 10
10.9286311066
 20
7.2186573271
 30
0.0
 10
10.916695413
 20
7.2155430044
 30
0.0
 10
10.9045808516
 20
7.2130315803
 30
0.0
 10
10.8923166219
 20
7.2111290865
 30
0.0
 10
10.8799322801
 20
7.2098401047
 30
0.0
 10
10.8674576749
 20
7.2091676818
 30
0.0
 10
10.8549228618
 20
7.2091133975
 30
0.0
 10
10.8423580357
 20
7.2096773611
 30
0.0
 10
10.8297934638
 20
7.2108582115
 30
0.0
 10
10.8172594054
 20
7.2126530479
 30
0.0
 10
10.8047860405
 20
7.2150575114
 30
0.0
 10
10.7924034022
 20
7.2180657951
 30
0.0
 10
10.7801413096
 20
7.221670657
 30
0.0
 10
10.7680292761
 20
7.225863368
 30
0.0
 10
10.7560964515
 20
7.2306338064
 30
0.0
 10
10.744371565
 20
7.2359704736
 30
0.0
 10
10.7328828303
 20
7.2418605461
 30
0.0
 10
10.721657959
 20
7.248289744
 30
0.0
 10
10.7107236945
 20
7.2552428033
 30
0.0
 10
10.6965632383
 20
7.265192304
 30
0.0
 10
10.6797220936
 20
7.2788522818
 30
0.0
 10
10.6610922252
 20
7.2970303392
 30
0.0
 10
10.644205697
 20
7.316830986
 30
0.0
 10
10.631711873
 20
7.3345402515
 30
0.0
 10
10.6227433672
 20
7.3493241566
 30
0.0
 10
10.6165485205
 20
7.3606880564
 30
0.0
 10
10.6108976884
 20
7.3723048502
 30
0.0
 10
10.6058042819
 20
7.3841468642
 30
0.0
 10
10.6012806594
 20
7.3961855302
 30
0.0
 10
10.5973376947
 20
7.4083918793
 30
0.0
 10
10.5939848867
 20
7.4207365214
 30
0.0
 10
10.5912303405
 20
7.433189762
 30
0.0
 10
10.5890807733
 20
7.4457215366
 30
0.0
 10
10.5875412453
 20
7.4583019363
 30
0.0
 10
10.5866156863
 20
7.4709000673
 30
0.0
 10
10.5864089727
 20
7.4793057396
 30
0.0
 10
10.5864089727
 20
7.4835006657
 30
0.0
  0
SPLINE
  5
399
100
AcDbEntity
  8
0
100
AcDbSpline
 62
7
  6
CONTINUOUS
 70
0
 71
3
 72
82
 73
78
 74
0
 42
0.0000001
 43
0.0000001
 44
0.0000000001
 40
0.0
 40
0.0
 40
0.0
 40
0.0
 40
0.0027164291
 40
0.0054532364
 40
0.0082303053
 40
0.0110666058
 40
0.0139798164
 40
0.016986131
 40
0.0201001037
 40
0.0233346222
 40
0.0267009905
 40
0.0302089475
 40
0.0338668707
 40
0.0376818493
 40
0.0416598249
 40
0.0458057691
 40
0.0501237025
 40
0.0546169039
 40
0.0592879295
 40
0.0641387045
 40
0.069170648
 40
0.0743846285
 40
0.0797811279
 40
0.0853602093
 40
0.0970640744
 40
0.1094908292
 40
0.122630084
 40
0.1364677626
 40
0.1509865887
 40
0.1661664945
 40
0.1819849411
 40
0.1984171777
 40
0.2154364542
 40
0.233014197
 40
0.2511201854
 40
0.2697227022
 40
0.2887886669
 40
0.3082837565
 40
0.3281725155
 40
0.3484184781
 40
0.3689842782
 40
0.3898317536
 40
0.4109220451
 40
0.4536720397
 40
0.4969140311
 40
0.540322302
 40
0.5835695392
 40
0.6263299734
 40
0.6474273998
 40
0.6682832705
 40
0.6888587055
 40
0.7091155138
 40
0.7290162972
 40
0.7485245643
 40
0.7676048337
 40
0.786222742
 40
0.8043451595
 40
0.821940317
 40
0.8389779517
 40
0.8554294454
 40
0.8712679825
 40
0.8864687352
 40
0.9010090829
 40
0.9148688848
 40
0.9280307811
 40
0.9404805813
 40
0.9522077554
 40
0.9577985268
 40
0.9632067444
 40
0.9684324379
 40
0.9734760336
 40
0.9783383943
 40
0.9830208414
 40
0.9875253833
 40
0.9918546059
 40
0.9960115907
 40
1.0
 40
1.0
 40
1.0
 40
1.0
 10
12.4793301179
 20
10.5828163187
 30
0.0
 10
12.4801513229
 20
10.5827593636
 30
0.0
 10
12.4817956871
 20
10.5825706829
 30
0.0
 10
12.4842412938
 20
10.5820658076
 30
0.0
 10
12.4866684266
 20
10.5813391887
 30
0.0
 10
12.4890753325
 20
10.5803914625
 30
0.0
 10
12.4914607954
 20
10.5792235443
 30
0.0
 10
12.4938235732
 20
10.5778362999
 30
0.0
 10
12.4961625759
 20
10.5762307265
 30
0.0
 10
12.4984767916
 20
10.5744078707
 30
0.0
 10
12.5007651712
 20
10.572368743
 30
0.0
 10
12.5030267818
 20
10.5701145137
 30
0.0
 10
12.505260598
 20
10.5676463207
 30
0.0
 10
12.5074656369
 20
10.5649654275
 30
0.0
 10
12.509640925
 20
10.5620731839
 30
0.0
 10
12.511785408
 20
10.5589709889
 30
0.0
 10
12.5138981339
 20
10.5556604022
 30
0.0
 10
12.5159780569
 20
10.5521430313
 30
0.0
 10
12.5180241831
 20
10.5484206158
 30
0.0
 10
12.520035538
 20
10.5444950006
 30
0.0
 10
12.5220110902
 20
10.5403681104
 30
0.0
 10
12.5239499075
 20
10.5360420109
 30
0.0
 10
12.5258510161
 20
10.5315188316
 30
0.0
 10
12.5283746247
 20
10.5251257262
 30
0.0
 10
12.5314182622
 20
10.5166500215
 30
0.0
 10
12.5348496812
 20
10.5058875922
 30
0.0
 10
12.5381092135
 20
10.4943983753
 30
0.0
 10
12.5411902684
 20
10.4822053146
 30
0.0
 10
12.5440866031
 20
10.4693326226
 30
0.0
 10
12.5467923345
 20
10.4558060058
 30
0.0
 10
12.5493019591
 20
10.4416525081
 30
0.0
 10
12.5516103679
 20
10.4269004712
 30
0.0
 10
12.5537128578
 20
10.4115794674
 30
0.0
 10
12.5556051531
 20
10.3957202387
 30
0.0
 10
12.5572834037
 20
10.379354627
 30
0.0
 10
12.5587441932
 20
10.3625155021
 30
0.0
 10
12.5599845452
 20
10.345236694
 30
0.0
 10
12.5610019292
 20
10.3275529263
 30
0.0
 10
12.5617942741
 20
10.3094997469
 30
0.0
 10
12.5623599654
 20
10.2911134497
 30
0.0
 10
12.5626978391
 20
10.2724310106
 30
0.0
 10
12.5628072167
 20
10.2534899648
 30
0.0
 10
12.5626472529
 20
10.2278264551
 30
0.0
 10
12.5618711486
 20
10.1953827009
 30
0.0
 10
12.560042107
 20
10.156209132
 30
0.0
 10
12.5573255651
 20
10.1169359236
 30
0.0
 10
12.5537433868
 20
10.0778788546
 30
0.0
 10
12.5500447521
 20
10.0456303141
 30
0.0
 10
12.5466693238
 20
10.0201813107
 30
0.0
 10
12.5439526451
 20
10.0014280772
 30
0.0
 10
12.541045174
 20
9.9829613135
 30
0.0
 10
12.5379527488
 20
9.9648181249
 30
0.0
 10
12.5346816109
 20
9.947034997
 30
0.0
 10
12.531238363
 20
9.9296476748
 30
0.0
 10
12.5276299573
 20
9.9126911023
 30
0.0
 10
12.523863679
 20
9.8961993518
 30
0.0
 10
12.519947133
 20
9.8802055557
 30
0.0
 10
12.515888227
 20
9.8647418338
 30
0.0
 10
12.5116951656
 20
9.8498392224
 30
0.0
 10
12.5073764239
 20
9.8355276105
 30
0.0
 10
12.5029407301
 20
9.8218356802
 30
0.0
 10
12.4983970471
 20
9.8087908458
 30
0.0
 10
12.4937545479
 20
9.7964191801
 30
0.0
 10
12.4890226071
 20
9.7847453708
 30
0.0
 10
12.4842107521
 20
9.7737925758
 30
0.0
 10
12.4793286653
 20
9.7635826642
 30
0.0
 10
12.4751458613
 20
9.7555875218
 30
0.0
 10
12.471765089
 20
9.7495870599
 30
0.0
 10
12.469258512
 20
9.7453568163
 30
0.0
 10
12.466741713
 20
9.7413268337
 30
0.0
 10
12.4642159204
 20
9.7374991191
 30
0.0
 10
12.461682431
 20
9.7338755628
 30
0.0
 10
12.4591424351
 20
9.7304579705
 30
0.0
 10
12.4565971852
 20
9.7272479811
 30
0.0
 10
12.4540478516
 20
9.7242471765
 30
0.0
 10
12.4514958229
 20
9.7214571857
 30
0.0
 10
12.4497581412
 20
9.7197029286
 30
0.0
 10
12.4488888253
 20
9.7188632339
 30
0.0
  0
SPLINE
  5
39A
100
AcDbEntity
  8
0
100
AcDbSpline
 62
7
  6
CONTINUOUS
 70
0
 71
3
 72
21
 73
17
 74
0
 42
0.0000001
 43
0.0000001
 44
0.0000000001
 40
0.0
 40
0.0
 40
0.0
 40
0.0
 40
0.1273176984
 40
0.2537999461
 40
0.3167619614
 40
0.3795355204
 40
0.4421314992
 40
0.5045621453
 40
0.5668413456
 40
0.6289845231
 40
0.6910084433
 40
0.7529310869
 40
0.8147714401
 40
0.8765493236
 40
0.9382852134
 40
1.0
 40
1.0
 40
1.0
 40
1.0
 10
10.1891360366
 20
6.9330044678
 30
0.0
 10
10.1891360366
 20
6.93830176
 30
0.0
 10
10.1896416985
 20
6.9488684028
 30
0.0
 10
10.1915514414
 20
6.9619310544
 30
0.0
 10
10.1938339891
 20
6.9721775606
 30
0.0
 10
10.1959155535
 20
6.9797353887
 30
0.0
 10
10.1983643895
 20
6.9871589179
 30
0.0
 10
10.2011748512
 20
6.9944312464
 30
0.0
 10
10.2043404591
 20
7.0015355543
 30
0.0
 10
10.2078539776
 20
7.0084554454
 30
0.0
 10
10.2117072788
 20
7.0151749683
 30
0.0
 10
10.2158914762
 20
7.0216786369
 30
0.0
 10
10.2203969607
 20
7.027951402
 30
0.0
 10
10.2252133701
 20
7.0339788573
 30
0.0
 10
10.2303293832
 20
7.0397469348
 30
0.0
 10
10.2339326597
 20
7.0434111573
 30
0.0
 10
10.2357795382
 20
7.045195094
 30
0.0
  0
SPLINE
  5
39B
100
AcDbEntity
  8
0
100
AcDbSpline
 62
7
  6
CONTINUOUS
 70
0
 71
3
 72
23
 73
19
 74
0
 42
0.0000001
 43
0.0000001
 44
0.0000000001
 40
0.0
 40
0.0
 40
0.0
 40
0.0
 40
0.0608921874
 40
0.1219836694
 40
0.1832863836
 40
0.2448093859
 40
0.3065591537
 40
0.3685394832
 40
0.4307514671
 40
0.4931935236
 40
0.555861433
 40
0.6187484212
 40
0.6818452667
 40
0.7451403376
 40
0.8086201845
 40
0.8722681695
 40
0.9360688671
 40
1.0
 40
1.0
 40
1.0
 40
1.0
 10
11.0657191112
 20
7.3872886355
 30
0.0
 10
11.0618904528
 20
7.3861450527
 30
0.0
 10
11.0541544814
 20
7.3840692926
 30
0.0
 10
11.0423765045
 20
7.3816036104
 30
0.0
 10
11.0304388255
 20
7.3797875759
 30
0.0
 10
11.0183765213
 20
7.3786265714
 30
0.0
 10
11.0062244389
 20
7.3781238704
 30
0.0
 10
10.9940178361
 20
7.3782808935
 30
0.0
 10
10.9817920768
 20
7.3790971385
 30
0.0
 10
10.9695825861
 20
7.3805701999
 30
0.0
 10
10.9574247328
 20
7.3826957722
 30
0.0
 10
10.9453537314
 20
7.3854676658
 30
0.0
 10
10.9334045481
 20
7.3888778189
 30
0.0
 10
10.9216117565
 20
7.3929163103
 30
0.0
 10
10.9100095825
 20
7.3975714183
 30
0.0
 10
10.8986313965
 20
7.4028296644
 30
0.0
 10
10.8875106557
 20
7.4086756313
 30
0.0
 10
10.8802956174
 20
7.4129500191
 30
0.0
 10
10.8767415109
 20
7.4151789588
 30
0.0
  0
SPLINE
  5
39C
100
AcDbEntity
  8
0
100
AcDbSpline
 62
7
  6
CONTINUOUS
 70
0
 71
3
 72
82
 73
78
 74
0
 42
0.0000001
 43
0.0000001
 44
0.0000000001
 40
0.0
 40
0.0
 40
0.0
 40
0.0
 40
0.0027164291
 40
0.0054532364
 40
0.0082303053
 40
0.0110666058
 40
0.0139798164
 40
0.016986131
 40
0.0201001037
 40
0.0233346222
 40
0.0267009905
 40
0.0302089475
 40
0.0338668707
 40
0.0376818493
 40
0.0416598249
 40
0.0458057691
 40
0.0501237025
 40
0.0546169039
 40
0.0592879295
 40
0.0641387045
 40
0.069170648
 40
0.0743846285
 40
0.0797811279
 40
0.0853602093
 40
0.0970640744
 40
0.1094908292
 40
0.122630084
 40
0.1364677626
 40
0.1509865887
 40
0.1661664945
 40
0.1819849411
 40
0.1984171777
 40
0.2154364542
 40
0.233014197
 40
0.2511201854
 40
0.2697227022
 40
0.2887886669
 40
0.3082837565
 40
0.3281725155
 40
0.3484184781
 40
0.3689842782
 40
0.3898317536
 40
0.4109220451
 40
0.4536720397
 40
0.4969140311
 40
0.540322302
 40
0.5835695392
 40
0.6263299734
 40
0.6474273998
 40
0.6682832705
 40
0.6888587055
 40
0.7091155138
 40
0.7290162972
 40
0.7485245643
 40
0.7676048337
 40
0.786222742
 40
0.8043451595
 40
0.821940317
 40
0.8389779517
 40
0.8554294454
 40
0.8712679825
 40
0.8864687352
 40
0.9010090829
 40
0.9148688848
 40
0.9280307811
 40
0.9404805813
 40
0.9522077554
 40
0.9577985268
 40
0.9632067444
 40
0.9684324379
 40
0.9734760336
 40
0.9783383943
 40
0.9830208414
 40
0.9875253833
 40
0.9918546059
 40
0.9960115907
 40
1.0
 40
1.0
 40
1.0
 40
1.0
 10
12.4793301179
 20
9.0730741978
 30
0.0
 10
12.4801513229
 20
9.0730172427
 30
0.0
 10
12.4817956871
 20
9.0728285619
 30
0.0
 10
12.4842412938
 20
9.0723236867
 30
0.0
 10
12.4866684266
 20
9.0715970678
 30
0.0
 10
12.4890753325
 20
9.0706493415
 30
0.0
 10
12.4914607954
 20
9.0694814234
 30
0.0
 10
12.4938235732
 20
9.068094179
 30
0.0
 10
12.4961625759
 20
9.0664886056
 30
0.0
 10
12.4984767916
 20
9.0646657498
 30
0.0
 10
12.5007651712
 20
9.062626622
 30
0.0
 10
12.5030267818
 20
9.0603723928
 30
0.0
 10
12.505260598
 20
9.0579041998
 30
0.0
 10
12.5074656369
 20
9.0552233065
 30
0.0
 10
12.509640925
 20
9.052331063
 30
0.0
 10
12.511785408
 20
9.0492288679
 30
0.0
 10
12.5138981339
 20
9.0459182813
 30
0.0
 10
12.5159780569
 20
9.0424009103
 30
0.0
 10
12.5180241831
 20
9.0386784948
 30
0.0
 10
12.520035538
 20
9.0347528797
 30
0.0
 10
12.5220110902
 20
9.0306259895
 30
0.0
 10
12.5239499075
 20
9.02629989
 30
0.0
 10
12.5258510161
 20
9.0217767106
 30
0.0
 10
12.5283746247
 20
9.0153836052
 30
0.0
 10
12.5314182622
 20
9.0069079006
 30
0.0
 10
12.5348496812
 20
8.9961454713
 30
0.0
 10
12.5381092135
 20
8.9846562544
 30
0.0
 10
12.5411902684
 20
8.9724631937
 30
0.0
 10
12.5440866031
 20
8.9595905017
 30
0.0
 10
12.5467923345
 20
8.9460638848
 30
0.0
 10
12.5493019591
 20
8.9319103872
 30
0.0
 10
12.5516103679
 20
8.9171583503
 30
0.0
 10
12.5537128578
 20
8.9018373464
 30
0.0
 10
12.5556051531
 20
8.8859781178
 30
0.0
 10
12.5572834037
 20
8.869612506
 30
0.0
 10
12.5587441932
 20
8.8527733811
 30
0.0
 10
12.5599845452
 20
8.835494573
 30
0.0
 10
12.5610019292
 20
8.8178108053
 30
0.0
 10
12.5617942741
 20
8.7997576259
 30
0.0
 10
12.5623599654
 20
8.7813713287
 30
0.0
 10
12.5626978391
 20
8.7626888897
 30
0.0
 10
12.5628072167
 20
8.7437478438
 30
0.0
 10
12.5626472529
 20
8.7180843341
 30
0.0
 10
12.5618711486
 20
8.6856405799
 30
0.0
 10
12.560042107
 20
8.646467011
 30
0.0
 10
12.5573255651
 20
8.6071938026
 30
0.0
 10
12.5537433868
 20
8.5681367337
 30
0.0
 10
12.5500447521
 20
8.5358881931
 30
0.0
 10
12.5466693238
 20
8.5104391898
 30
0.0
 10
12.5439526451
 20
8.4916859563
 30
0.0
 10
12.541045174
 20
8.4732191925
 30
0.0
 10
12.5379527488
 20
8.4550760039
 30
0.0
 10
12.5346816109
 20
8.4372928761
 30
0.0
 10
12.531238363
 20
8.4199055538
 30
0.0
 10
12.5276299573
 20
8.4029489813
 30
0.0
 10
12.523863679
 20
8.3864572309
 30
0.0
 10
12.519947133
 20
8.3704634348
 30
0.0
 10
12.515888227
 20
8.3549997129
 30
0.0
 10
12.5116951656
 20
8.3400971014
 30
0.0
 10
12.5073764239
 20
8.3257854895
 30
0.0
 10
12.5029407301
 20
8.3120935592
 30
0.0
 10
12.4983970471
 20
8.2990487248
 30
0.0
 10
12.4937545479
 20
8.2866770592
 30
0.0
 10
12.4890226071
 20
8.2750032499
 30
0.0
 10
12.4842107521
 20
8.2640504549
 30
0.0
 10
12.4793286653
 20
8.2538405432
 30
0.0
 10
12.4751458613
 20
8.2458454008
 30
0.0
 10
12.471765089
 20
8.239844939
 30
0.0
 10
12.469258512
 20
8.2356146953
 30
0.0
 10
12.466741713
 20
8.2315847128
 30
0.0
 10
12.4642159204
 20
8.2277569982
 30
0.0
 10
12.461682431
 20
8.2241334419
 30
0.0
 10
12.4591424351
 20
8.2207158496
 30
0.0
 10
12.4565971852
 20
8.2175058601
 30
0.0
 10
12.4540478516
 20
8.2145050555
 30
0.0
 10
12.4514958229
 20
8.2117150648
 30
0.0
 10
12.4497581412
 20
8.2099608077
 30
0.0
 10
12.4488888253
 20
8.209121113
 30
0.0
  0
SPLINE
  5
39D
100
AcDbEntity
  8
0
100
AcDbSpline
 62
7
  6
CONTINUOUS
 70
0
 71
3
 72
49
 73
45
 74
0
 42
0.0000001
 43
0.0000001
 44
0.0000000001
 40
0.0
 40
0.0
 40
0.0
 40
0.0
 40
0.010710767
 40
0.0218440328
 40
0.0333941547
 40
0.0453545163
 40
0.0577175895
 40
0.0704749841
 40
0.0836175977
 40
0.0971355549
 40
0.1110183959
 40
0.1252549935
 40
0.1547417013
 40
0.1854968708
 40
0.2174135963
 40
0.2503785
 40
0.2842725733
 40
0.3189719594
 40
0.35434869
 40
0.3902713996
 40
0.4266060211
 40
0.4632164706
 40
0.4999653214
 40
0.5367144769
 40
0.5733258369
 40
0.6096619705
 40
0.6455867841
 40
0.680966203
 40
0.7156688496
 40
0.7495667409
 40
0.7825359978
 40
0.8144575891
 40
0.8452181051
 40
0.8747106105
 40
0.8889502659
 40
0.9028362617
 40
0.9163574854
 40
0.9295034289
 40
0.9422642676
 40
0.9546308313
 40
0.9665947806
 40
0.9781485332
 40
0.9892854881
 40
1.0
 40
1.0
 40
1.0
 40
1.0
 10
11.1121941074
 20
10.6631477698
 30
0.0
 10
11.1096269393
 20
10.6642195254
 30
0.0
 10
11.1043631188
 20
10.6663382255
 30
0.0
 10
11.0962432843
 20
10.6693892925
 30
0.0
 10
11.0877534215
 20
10.6723723301
 30
0.0
 10
11.0789020968
 20
10.6752842951
 30
0.0
 10
11.0696981585
 20
10.6781222477
 30
0.0
 10
11.0601508476
 20
10.6808833468
 30
0.0
 10
11.0502697412
 20
10.6835647671
 30
0.0
 10
11.0400647722
 20
10.6861638366
 30
0.0
 10
11.0295461801
 20
10.6886779122
 30
0.0
 10
11.0149462455
 20
10.6919515946
 30
0.0
 10
10.995986557
 20
10.6958015835
 30
0.0
 10
10.972417802
 20
10.699992453
 30
0.0
 10
10.9478679607
 20
10.7037894015
 30
0.0
 10
10.9224357975
 20
10.7071769946
 30
0.0
 10
10.8962234984
 20
10.7101414321
 30
0.0
 10
10.8693364898
 20
10.7126706544
 30
0.0
 10
10.841882933
 20
10.7147543743
 30
0.0
 10
10.8139733005
 20
10.7163841229
 30
0.0
 10
10.7857199169
 20
10.7175532784
 30
0.0
 10
10.7572365032
 20
10.7182570911
 30
0.0
 10
10.7286377135
 20
10.7184927023
 30
0.0
 10
10.7000386704
 20
10.7182591547
 30
0.0
 10
10.6715544976
 20
10.7175573964
 30
0.0
 10
10.6432998533
 20
10.7163902768
 30
0.0
 10
10.6153884635
 20
10.7147625373
 30
0.0
 10
10.5879326596
 20
10.7126807938
 30
0.0
 10
10.5610429213
 20
10.7101535087
 30
0.0
 10
10.5348274211
 20
10.7071909607
 30
0.0
 10
10.5093915986
 20
10.7038052005
 30
0.0
 10
10.4848376567
 20
10.7000100202
 30
0.0
 10
10.4612643778
 20
10.6958208469
 30
0.0
 10
10.4423006463
 20
10.69197224
 30
0.0
 10
10.4276972743
 20
10.6886996321
 30
0.0
 10
10.4171759715
 20
10.6861863085
 30
0.0
 10
10.4069681986
 20
10.6835879876
 30
0.0
 10
10.3970842022
 20
10.6809072619
 30
0.0
 10
10.3875339116
 20
10.6781468712
 30
0.0
 10
10.3783269154
 20
10.6753095628
 30
0.0
 10
10.3694724487
 20
10.6723982503
 30
0.0
 10
10.3609793718
 20
10.6694158161
 30
0.0
 10
10.3528562479
 20
10.6663653354
 30
0.0
 10
10.3475901876
 20
10.6642470312
 30
0.0
 10
10.345021883
 20
10.6631754732
 30
0.0
  0
SPLINE
  5
39E
100
AcDbEntity
  8
0
100
AcDbSpline
 62
4
  6
CONTINUOUS
 70
0
 71
3
 72
403
 73
399
 74
0
 42
0.0000001
 43
0.0000001
 44
0.0000000001
 40
0.0
 40
0.0
 40
0.0
 40
0.0
 40
0.015625
 40
0.0234375
 40
0.03125
 40
0.0390625
 40
0.04296875
 40
0.046875
 40
0.05078125
 40
0.0546875
 40
0.056640625
 40
0.05859375
 40
0.0595703125
 40
0.060546875
 40
0.0615234375
 40
0.0620117188
 40
0.0622558594
 40
0.0625
 40
0.0627441406
 40
0.0629882812
 40
0.0634765625
 40
0.064453125
 40
0.0654296875
 40
0.06640625
 40
0.068359375
 40
0.0703125
 40
0.07421875
 40
0.078125
 40
0.08203125
 40
0.0859375
 40
0.09375
 40
0.1015625
 40
0.10546875
 40
0.109375
 40
0.11328125
 40
0.1171875
 40
0.119140625
 40
0.12109375
 40
0.1220703125
 40
0.123046875
 40
0.1240234375
 40
0.1245117188
 40
0.1247558594
 40
0.125
 40
0.1252441406
 40
0.1254882812
 40
0.1259765625
 40
0.126953125
 40
0.1279296875
 40
0.12890625
 40
0.130859375
 40
0.1328125
 40
0.13671875
 40
0.140625
 40
0.14453125
 40
0.1484375
 40
0.15625
 40
0.1640625
 40
0.16796875
 40
0.171875
 40
0.17578125
 40
0.1796875
 40
0.181640625
 40
0.18359375
 40
0.1845703125
 40
0.185546875
 40
0.1865234375
 40
0.1870117188
 40
0.1872558594
 40
0.1875
 40
0.1877441406
 40
0.1879882812
 40
0.1884765625
 40
0.189453125
 40
0.1904296875
 40
0.19140625
 40
0.193359375
 40
0.1953125
 40
0.19921875
 40
0.203125
 40
0.20703125
 40
0.2109375
 40
0.21875
 40
0.2265625
 40
0.23046875
 40
0.234375
 40
0.23828125
 40
0.2421875
 40
0.244140625
 40
0.24609375
 40
0.2470703125
 40
0.248046875
 40
0.2490234375
 40
0.2495117188
 40
0.2497558594
 40
0.25
 40
0.2502441406
 40
0.2504882812
 40
0.2509765625
 40
0.251953125
 40
0.2529296875
 40
0.25390625
 40
0.255859375
 40
0.2578125
 40
0.26171875
 40
0.265625
 40
0.26953125
 40
0.2734375
 40
0.28125
 40
0.2890625
 40
0.29296875
 40
0.296875
 40
0.30078125
 40
0.3046875
 40
0.306640625
 40
0.30859375
 40
0.3095703125
 40
0.310546875
 40
0.3115234375
 40
0.3120117188
 40
0.3122558594
 40
0.3125
 40
0.3127441406
 40
0.3129882812
 40
0.3134765625
 40
0.314453125
 40
0.3154296875
 40
0.31640625
 40
0.318359375
 40
0.3203125
 40
0.32421875
 40
0.328125
 40
0.33203125
 40
0.3359375
 40
0.34375
 40
0.3515625
 40
0.35546875
 40
0.359375
 40
0.36328125
 40
0.3671875
 40
0.369140625
 40
0.37109375
 40
0.3720703125
 40
0.373046875
 40
0.3740234375
 40
0.3745117188
 40
0.3747558594
 40
0.375
 40
0.3752441406
 40
0.3754882812
 40
0.3759765625
 40
0.376953125
 40
0.3779296875
 40
0.37890625
 40
0.380859375
 40
0.3828125
 40
0.38671875
 40
0.390625
 40
0.39453125
 40
0.3984375
 40
0.40625
 40
0.4140625
 40
0.41796875
 40
0.421875
 40
0.42578125
 40
0.4296875
 40
0.431640625
 40
0.43359375
 40
0.4345703125
 40
0.435546875
 40
0.4365234375
 40
0.4370117188
 40
0.4372558594
 40
0.4375
 40
0.4377441406
 40
0.4379882812
 40
0.4384765625
 40
0.439453125
 40
0.4404296875
 40
0.44140625
 40
0.443359375
 40
0.4453125
 40
0.44921875
 40
0.453125
 40
0.45703125
 40
0.4609375
 40
0.46875
 40
0.4765625
 40
0.48046875
 40
0.484375
 40
0.48828125
 40
0.4921875
 40
0.494140625
 40
0.49609375
 40
0.4970703125
 40
0.498046875
 40
0.4990234375
 40
0.4995117188
 40
0.4997558594
 40
0.5
 40
0.5002441406
 40
0.5004882812
 40
0.5009765625
 40
0.501953125
 40
0.5029296875
 40
0.50390625
 40
0.505859375
 40
0.5078125
 40
0.51171875
 40
0.515625
 40
0.51953125
 40
0.5234375
 40
0.53125
 40
0.5390625
 40
0.54296875
 40
0.546875
 40
0.55078125
 40
0.5546875
 40
0.556640625
 40
0.55859375
 40
0.5595703125
 40
0.560546875
 40
0.5615234375
 40
0.5620117188
 40
0.5622558594
 40
0.5625
 40
0.5627441406
 40
0.5629882812
 40
0.5634765625
 40
0.564453125
 40
0.5654296875
 40
0.56640625
 40
0.568359375
 40
0.5703125
 40
0.57421875
 40
0.578125
 40
0.58203125
 40
0.5859375
 40
0.59375
 40
0.6015625
 40
0.60546875
 40
0.609375
 40
0.61328125
 40
0.6171875
 40
0.619140625
 40
0.62109375
 40
0.6220703125
 40
0.623046875
 40
0.6240234375
 40
0.6245117188
 40
0.6247558594
 40
0.625
 40
0.6252441406
 40
0.6254882812
 40
0.6259765625
 40
0.626953125
 40
0.6279296875
 40
0.62890625
 40
0.630859375
 40
0.6328125
 40
0.63671875
 40
0.640625
 40
0.64453125
 40
0.6484375
 40
0.65625
 40
0.6640625
 40
0.66796875
 40
0.671875
 40
0.67578125
 40
0.6796875
 40
0.681640625
 40
0.68359375
 40
0.6845703125
 40
0.685546875
 40
0.6865234375
 40
0.6870117188
 40
0.6872558594
 40
0.6875
 40
0.6877441406
 40
0.6879882812
 40
0.6884765625
 40
0.689453125
 40
0.6904296875
 40
0.69140625
 40
0.693359375
 40
0.6953125
 40
0.69921875
 40
0.703125
 40
0.70703125
 40
0.7109375
 40
0.71875
 40
0.7265625
 40
0.73046875
 40
0.734375
 40
0.73828125
 40
0.7421875
 40
0.744140625
 40
0.74609375
 40
0.7470703125
 40
0.748046875
 40
0.7490234375
 40
0.7495117188
 40
0.7497558594
 40
0.75
 40
0.7502441406
 40
0.7504882812
 40
0.7509765625
 40
0.751953125
 40
0.7529296875
 40
0.75390625
 40
0.755859375
 40
0.7578125
 40
0.76171875
 40
0.765625
 40
0.76953125
 40
0.7734375
 40
0.78125
 40
0.7890625
 40
0.79296875
 40
0.796875
 40
0.80078125
 40
0.8046875
 40
0.806640625
 40
0.80859375
 40
0.8095703125
 40
0.810546875
 40
0.8115234375
 40
0.8120117188
 40
0.8122558594
 40
0.8125
 40
0.8127441406
 40
0.8129882812
 40
0.8134765625
 40
0.814453125
 40
0.8154296875
 40
0.81640625
 40
0.818359375
 40
0.8203125
 40
0.82421875
 40
0.828125
 40
0.83203125
 40
0.8359375
 40
0.84375
 40
0.8515625
 40
0.85546875
 40
0.859375
 40
0.86328125
 40
0.8671875
 40
0.869140625
 40
0.87109375
 40
0.8720703125
 40
0.873046875
 40
0.8740234375
 40
0.8745117188
 40
0.8747558594
 40
0.875
 40
0.8752441406
 40
0.8754882812
 40
0.8759765625
 40
0.876953125
 40
0.8779296875
 40
0.87890625
 40
0.880859375
 40
0.8828125
 40
0.88671875
 40
0.890625
 40
0.89453125
 40
0.8984375
 40
0.90625
 40
0.9140625
 40
0.91796875
 40
0.921875
 40
0.92578125
 40
0.9296875
 40
0.931640625
 40
0.93359375
 40
0.9345703125
 40
0.935546875
 40
0.9365234375
 40
0.9370117188
 40
0.9372558594
 40
0.9375
 40
0.9377441406
 40
0.9379882812
 40
0.9384765625
 40
0.939453125
 40
0.9404296875
 40
0.94140625
 40
0.943359375
 40
0.9453125
 40
0.94921875
 40
0.953125
 40
0.95703125
 40
0.9609375
 40
0.96875
 40
0.9765625
 40
0.984375
 40
1.0
 40
1.0
 40
1.0
 40
1.0
 10
10.4128444807
 20
8.8373645187
 30
0.0
 10
10.4159776676
 20
8.8374544431
 30
0.0
 10
10.420677448
 20
8.8375893297
 30
0.0
 10
10.4269438218
 20
8.8377691785
 30
0.0
 10
10.4316436022
 20
8.8379040652
 30
0.0
 10
10.4355600859
 20
8.8380164706
 30
0.0
 10
10.4386932727
 20
8.8381063953
 30
0.0
 10
10.4410431631
 20
8.8381738376
 30
0.0
 10
10.4433930526
 20
8.8382412847
 30
0.0
 10
10.4453512967
 20
8.8382974758
 30
0.0
 10
10.4469178855
 20
8.8383424617
 30
0.0
 10
10.4478970182
 20
8.8383705028
 30
0.0
 10
10.4486802908
 20
8.8383931076
 30
0.0
 10
10.4492678372
 20
8.8384095904
 30
0.0
 10
10.4497571666
 20
8.838424824
 30
0.0
 10
10.4501002713
 20
8.8384325478
 30
0.0
 10
10.4502954347
 20
8.8384415515
 30
0.0
 10
10.4504443327
 20
8.838435374
 30
0.0
 10
10.4505835768
 20
8.8384786224
 30
0.0
 10
10.4507726029
 20
8.8385190467
 30
0.0
 10
10.4511018298
 20
8.8385978217
 30
0.0
 10
10.451572974
 20
8.838706158
 30
0.0
 10
10.4521379961
 20
8.8388379591
 30
0.0
 10
10.4528914815
 20
8.8390130659
 30
0.0
 10
10.4538332962
 20
8.8392321645
 30
0.0
 10
10.4553402232
 20
8.8395826021
 30
0.0
 10
10.457223874
 20
8.8400206903
 30
0.0
 10
10.4594842583
 20
8.8405463785
 30
0.0
 10
10.4617446417
 20
8.8410720714
 30
0.0
 10
10.4647584866
 20
8.8417729936
 30
0.0
 10
10.4685257925
 20
8.842649147
 30
0.0
 10
10.4722930986
 20
8.8435253
 30
0.0
 10
10.4753069433
 20
8.8442262228
 30
0.0
 10
10.4775673273
 20
8.8447519138
 30
0.0
 10
10.4798277094
 20
8.8452776093
 30
0.0
 10
10.4817113669
 20
8.8457156748
 30
0.0
 10
10.4832182802
 20
8.8460661587
 30
0.0
 10
10.4841601298
 20
8.8462851393
 30
0.0
 10
10.4849135436
 20
8.8464604883
 30
0.0
 10
10.4854787844
 20
8.8465915497
 30
0.0
 10
10.4859492443
 20
8.8467022001
 30
0.0
 10
10.4862796928
 20
8.8467768441
 30
0.0
 10
10.4864667616
 20
8.8468238873
 30
0.0
 10
10.4866120181
 20
8.8468468045
 30
0.0
 10
10.4867383343
 20
8.8469169879
 30
0.0
 10
10.4869133624
 20
8.8469940788
 30
0.0
 10
10.4872165836
 20
8.8471366694
 30
0.0
 10
10.487651366
 20
8.8473363542
 30
0.0
 10
10.4881724161
 20
8.8475776951
 30
0.0
 10
10.48886739
 20
8.8478988824
 30
0.0
 10
10.4897360252
 20
8.8483005722
 30
0.0
 10
10.4911258874
 20
8.8489431609
 30
0.0
 10
10.4928631993
 20
8.8497464362
 30
0.0
 10
10.4949479805
 20
8.8507103497
 30
0.0
 10
10.4970327598
 20
8.8516742677
 30
0.0
 10
10.4998124662
 20
8.8529594902
 30
0.0
 10
10.503287099
 20
8.8545660188
 30
0.0
 10
10.5067617319
 20
8.8561725471
 30
0.0
 10
10.509541438
 20
8.8574577701
 30
0.0
 10
10.5116262182
 20
8.8584216863
 30
0.0
 10
10.5137109961
 20
8.8593856068
 30
0.0
 10
10.5154483182
 20
8.8601888602
 30
0.0
 10
10.5168381597
 20
8.8608314938
 30
0.0
 10
10.5177068475
 20
8.8612330694
 30
0.0
 10
10.5184017133
 20
8.861554491
 30
0.0
 10
10.5189230939
 20
8.8617951161
 30
0.0
 10
10.519356842
 20
8.8619970402
 30
0.0
 10
10.5196619096
 20
8.8621356335
 30
0.0
 10
10.5198339793
 20
8.8622191291
 30
0.0
 10
10.5199693831
 20
8.862269639
 30
0.0
 10
10.5200805081
 20
8.8623664466
 30
0.0
 10
10.5202371435
 20
8.8624793741
 30
0.0
 10
10.5205073097
 20
8.8626845216
 30
0.0
 10
10.5208953243
 20
8.8629736556
 30
0.0
 10
10.5213600588
 20
8.8633223002
 30
0.0
 10
10.5219800132
 20
8.8637865716
 30
0.0
 10
10.5227548506
 20
8.8643671122
 30
0.0
 10
10.5239946495
 20
8.8652958646
 30
0.0
 10
10.5255443779
 20
8.8664568437
 30
0.0
 10
10.5274040607
 20
8.8678500021
 30
0.0
 10
10.5292637411
 20
8.8692431649
 30
0.0
 10
10.5317433158
 20
8.8711007138
 30
0.0
 10
10.5348427839
 20
8.8734226504
 30
0.0
 10
10.5379422522
 20
8.8757445867
 30
0.0
 10
10.5404218265
 20
8.8776021361
 30
0.0
 10
10.5422815082
 20
8.8789952973
 30
0.0
 10
10.5441411862
 20
8.8803884618
 30
0.0
 10
10.5456909294
 20
8.8815494218
 30
0.0
 10
10.546930698
 20
8.8824782133
 30
0.0
 10
10.5477056126
 20
8.8830586543
 30
0.0
 10
10.5483254087
 20
8.88352313
 30
0.0
 10
10.5487906268
 20
8.8838711504
 30
0.0
 10
10.5491771285
 20
8.8841622377
 30
0.0
 10
10.5494499954
 20
8.8843638982
 30
0.0
 10
10.5496023036
 20
8.8844824127
 30
0.0
 10
10.5497267204
 20
8.884562059
 30
0.0
 10
10.5498122023
 20
8.8846770235
 30
0.0
 10
10.5499397592
 20
8.8848179902
 30
0.0
 10
10.5501566562
 20
8.8850704216
 30
0.0
 10
10.5504698171
 20
8.8854280371
 30
0.0
 10
10.5508441942
 20
8.8858584602
 30
0.0
 10
10.5513438582
 20
8.886431909
 30
0.0
 10
10.5519682689
 20
8.8871488737
 30
0.0
 10
10.5529674207
 20
8.8882959312
 30
0.0
 10
10.554216328
 20
8.8897297826
 30
0.0
 10
10.5557150306
 20
8.8914503916
 30
0.0
 10
10.5572137296
 20
8.893171004
 30
0.0
 10
10.5592119961
 20
8.8954651527
 30
0.0
 10
10.5617098288
 20
8.898332839
 30
0.0
 10
10.5642076618
 20
8.901200525
 30
0.0
 10
10.5662059277
 20
8.9034946742
 30
0.0
 10
10.5677046283
 20
8.9052152853
 30
0.0
 10
10.5692033249
 20
8.9069358993
 30
0.0
 10
10.570452251
 20
8.9083697352
 30
0.0
 10
10.5714513643
 20
8.9095168243
 30
0.0
 10
10.5720758729
 20
8.9102337086
 30
0.0
 10
10.5725753361
 20
8.9108073222
 30
0.0
 10
10.5729503269
 20
8.9112372417
 30
0.0
 10
10.5732615676
 20
8.9115964328
 30
0.0
 10
10.5734818925
 20
8.9118460517
 30
0.0
 10
10.5736039568
 20
8.9119915248
 30
0.0
 10
10.5737063102
 20
8.9120926469
 30
0.0
 10
10.573767361
 20
8.9122242829
 30
0.0
 10
10.573863169
 20
8.912389154
 30
0.0
 10
10.5740241205
 20
8.9126826375
 30
0.0
 10
10.5742575605
 20
8.913099307
 30
0.0
 10
10.5745361865
 20
8.9136004202
 30
0.0
 10
10.5749082124
 20
8.9142681834
 30
0.0
 10
10.5753730651
 20
8.9151030201
 30
0.0
 10
10.57611693
 20
8.9164386848
 30
0.0
 10
10.5770467265
 20
8.918108291
 30
0.0
 10
10.5781624971
 20
8.9201118076
 30
0.0
 10
10.5792782638
 20
8.9221153271
 30
0.0
 10
10.5807659541
 20
8.9247866854
 30
0.0
 10
10.5826255665
 20
8.9281258837
 30
0.0
 10
10.5844851792
 20
8.9314650817
 30
0.0
 10
10.5859728689
 20
8.9341364404
 30
0.0
 10
10.5870886374
 20
8.9361399588
 30
0.0
 10
10.5882044014
 20
8.9381434794
 30
0.0
 10
10.5891342185
 20
8.9398130732
 30
0.0
 10
10.5898780415
 20
8.9411487632
 30
0.0
 10
10.5903430006
 20
8.9419835355
 30
0.0
 10
10.5907148082
 20
8.942651431
 30
0.0
 10
10.5909941011
 20
8.9431521402
 30
0.0
 10
10.5912254545
 20
8.9435700733
 30
0.0
 10
10.591390131
 20
8.9438613011
 30
0.0
 10
10.5914799705
 20
8.9440297864
 30
0.0
 10
10.5915593544
 20
8.9441503209
 30
0.0
 10
10.591592852
 20
8.9442931383
 30
0.0
 10
10.5916535211
 20
8.9444757891
 30
0.0
 10
10.5917522347
 20
8.9447990491
 30
0.0
 10
10.5918971529
 20
8.945258956
 30
0.0
 10
10.5920693859
 20
8.9458116546
 30
0.0
 10
10.5922996128
 20
8.946548303
 30
0.0
 10
10.5925871969
 20
8.9474692105
 30
0.0
 10
10.593047443
 20
8.9489426083
 30
0.0
 10
10.5936227123
 20
8.9507843741
 30
0.0
 10
10.5943130518
 20
8.952994485
 30
0.0
 10
10.595003387
 20
8.9552045982
 30
0.0
 10
10.5959238354
 20
8.9581514149
 30
0.0
 10
10.5970743954
 20
8.9618349361
 30
0.0
 10
10.5982249558
 20
8.9655184571
 30
0.0
 10
10.5991454036
 20
8.9684652741
 30
0.0
 10
10.5998357407
 20
8.9706753864
 30
0.0
 10
10.6005260731
 20
8.9728855004
 30
0.0
 10
10.6011013646
 20
8.9747272568
 30
0.0
 10
10.6015615653
 20
8.9762006738
 30
0.0
 10
10.6018492648
 20
8.9771215324
 30
0.0
 10
10.6020792549
 20
8.9778582811
 30
0.0
 10
10.6022522115
 20
8.9784106734
 30
0.0
 10
10.6023948657
 20
8.9788715385
 30
0.0
 10
10.6024976209
 20
8.979193088
 30
0.0
 10
10.6025518143
 20
8.9793784796
 30
0.0
 10
10.6026052034
 20
8.9795128778
 30
0.0
 10
10.602609878
 20
8.9796650335
 30
0.0
 10
10.602633103
 20
8.9798617137
 30
0.0
 10
10.6026658298
 20
8.98020879
 30
0.0
 10
10.6027167214
 20
8.9807031045
 30
0.0
 10
10.6027760197
 20
8.9812969277
 30
0.0
 10
10.6028557029
 20
8.9820884664
 30
0.0
 10
10.602955095
 20
8.983077967
 30
0.0
 10
10.6031142408
 20
8.9846611248
 30
0.0
 10
10.6033131325
 20
8.9866400869
 30
0.0
 10
10.6035518198
 20
8.9890148351
 30
0.0
 10
10.6037905026
 20
8.9913895849
 30
0.0
 10
10.6041087478
 20
8.9945559175
 30
0.0
 10
10.6045065538
 20
8.9985138334
 30
0.0
 10
10.6049043602
 20
9.0024717492
 30
0.0
 10
10.6052226047
 20
9.0056380818
 30
0.0
 10
10.6054612895
 20
9.0080128314
 30
0.0
 10
10.6056999693
 20
9.0103875808
 30
0.0
 10
10.6058988843
 20
9.0123665389
 30
0.0
 10
10.6060579825
 20
9.0139497048
 30
0.0
 10
10.6061574958
 20
9.0149391849
 30
0.0
 10
10.6062369303
 20
9.0157307657
 30
0.0
 10
10.6062969883
 20
9.0163244604
 30
0.0
 10
10.6063455032
 20
9.016819177
 30
0.0
 10
10.6063824728
 20
9.0171655355
 30
0.0
 10
10.6063988997
 20
9.0173633657
 30
0.0
 10
10.606424456
 20
9.017511989
 30
0.0
 10
10.6063994169
 20
9.0176596544
 30
0.0
 10
10.6063836796
 20
9.0178568757
 30
0.0
 10
10.6063479167
 20
9.0182018574
 30
0.0
 10
10.6063011257
 20
9.0186947697
 30
0.0
 10
10.6062431365
 20
9.0192862296
 30
0.0
 10
10.6061664603
 20
9.0200748551
 30
0.0
 10
10.606070395
 20
9.0210606327
 30
0.0
 10
10.6059168134
 20
9.0226378792
 30
0.0
 10
10.6057247942
 20
9.0246094366
 30
0.0
 10
10.6054943893
 20
9.0269753057
 30
0.0
 10
10.6052639795
 20
9.0293411748
 30
0.0
 10
10.6049567682
 20
9.0324956669
 30
0.0
 10
10.6045727534
 20
9.0364387821
 30
0.0
 10
10.604188739
 20
9.0403818972
 30
0.0
 10
10.603881527
 20
9.0435363893
 30
0.0
 10
10.6036511193
 20
9.0459022585
 30
0.0
 10
10.6034207068
 20
9.0482681271
 30
0.0
 10
10.603228711
 20
9.0502396862
 30
0.0
 10
10.6030750818
 20
9.0518169292
 30
0.0
 10
10.6029791376
 20
9.0528027157
 30
0.0
 10
10.6029022126
 20
9.053591323
 30
0.0
 10
10.6028449834
 20
9.0541828382
 30
0.0
 10
10.6027958147
 20
9.0546755775
 30
0.0
 10
10.6027642965
 20
9.0550208681
 30
0.0
 10
10.6027417582
 20
9.0552175945
 30
0.0
 10
10.6027376096
 20
9.0553667802
 30
0.0
 10
10.6026847045
 20
9.0555096933
 30
0.0
 10
10.6026311712
 20
9.055702432
 30
0.0
 10
10.6025295642
 20
9.0560387052
 30
0.0
 10
10.602388554
 20
9.0565196286
 30
0.0
 10
10.6022175685
 20
9.0570965086
 30
0.0
 10
10.6019902073
 20
9.0578657615
 30
0.0
 10
10.6017057936
 20
9.0588273004
 30
0.0
 10
10.6012508503
 20
9.0603657778
 30
0.0
 10
10.6006821304
 20
9.0622888694
 30
0.0
 10
10.5999996841
 20
9.0645965816
 30
0.0
 10
10.5993172331
 20
9.0669042931
 30
0.0
 10
10.5984073
 20
9.069981242
 30
0.0
 10
10.597269883
 20
9.0738274281
 30
0.0
 10
10.5961324665
 20
9.0776736143
 30
0.0
 10
10.5952225328
 20
9.0807505631
 30
0.0
 10
10.5945400837
 20
9.0830582751
 30
0.0
 10
10.5938576302
 20
9.0853659856
 30
0.0
 10
10.5932889326
 20
9.0872890823
 30
0.0
 10
10.5928339439
 20
9.0888275492
 30
0.0
 10
10.5925496457
 20
9.089789115
 30
0.0
 10
10.5923220473
 20
9.0905583128
 30
0.0
 10
10.5921517863
 20
9.0911353612
 30
0.0
 10
10.5920085095
 20
9.0916157574
 30
0.0
 10
10.5919109488
 20
9.0919529718
 30
0.0
 10
10.5918509323
 20
9.0921442027
 30
0.0
 10
10.5918179416
 20
9.0922917471
 30
0.0
 10
10.5917389981
 20
9.0924235381
 30
0.0
 10
10.591649769
 20
9.0926047543
 30
0.0
 10
10.5914861499
 20
9.0929193225
 30
0.0
 10
10.5912563128
 20
9.0933700441
 30
0.0
 10
10.590978837
 20
9.0939103372
 30
0.0
 10
10.5906094531
 20
9.0946309281
 30
0.0
 10
10.5901475233
 20
9.0955315981
 30
0.0
 10
10.5894085473
 20
9.0969727085
 30
0.0
 10
10.5884847889
 20
9.0987740833
 30
0.0
 10
10.5873762954
 20
9.1009357387
 30
0.0
 10
10.5862677974
 20
9.1030973926
 30
0.0
 10
10.5847898017
 20
9.1059795984
 30
0.0
 10
10.5829423064
 20
9.1095823554
 30
0.0
 10
10.5810948116
 20
9.1131851125
 30
0.0
 10
10.5796168152
 20
9.116067318
 30
0.0
 10
10.5785083191
 20
9.1182289727
 30
0.0
 10
10.5773998187
 20
9.1203906253
 30
0.0
 10
10.5764760816
 20
9.1221920088
 30
0.0
 10
10.5757370622
 20
9.1236331015
 30
0.0
 10
10.5752752429
 20
9.1245338166
 30
0.0
 10
10.5749056322
 20
9.125254315
 30
0.0
 10
10.5746288492
 20
9.1257948906
 30
0.0
 10
10.5743968446
 20
9.1262447282
 30
0.0
 10
10.5742370948
 20
9.1265608746
 30
0.0
 10
10.5741416661
 20
9.1267395622
 30
0.0
 10
10.5740817659
 20
9.1268791201
 30
0.0
 10
10.5739772518
 20
9.1269974932
 30
0.0
 10
10.5738534615
 20
9.1271627135
 30
0.0
 10
10.573629578
 20
9.127448406
 30
0.0
 10
10.5733135351
 20
9.1278583382
 30
0.0
 10
10.572932661
 20
9.1283494865
 30
0.0
 10
10.5724253957
 20
9.1290046199
 30
0.0
 10
10.5717911199
 20
9.1298234445
 30
0.0
 10
10.5707763872
 20
9.1311336153
 30
0.0
 10
10.569507934
 20
9.1327713112
 30
0.0
 10
10.5679858062
 20
9.1347365539
 30
0.0
 10
10.5664636741
 20
9.1367017946
 30
0.0
 10
10.5644341662
 20
9.1393221161
 30
0.0
 10
10.5618972807
 20
9.1425975178
 30
0.0
 10
10.5593603955
 20
9.1458729197
 30
0.0
 10
10.557330887
 20
9.1484932409
 30
0.0
 10
10.5558087565
 20
9.1504584827
 30
0.0
 10
10.5542866228
 20
9.152423721
 30
0.0
 10
10.5530181879
 20
9.1540614305
 30
0.0
 10
10.5520034181
 20
9.1553715736
 30
0.0
 10
10.5513692366
 20
9.1561904688
 30
0.0
 10
10.5508617778
 20
9.1568454574
 30
0.0
 10
10.5504814945
 20
9.1573370481
 30
0.0
 10
10.5501636032
 20
9.1577455957
 30
0.0
 10
10.5499430193
 20
9.1580337601
 30
0.0
 10
10.5498139422
 20
9.1581950198
 30
0.0
 10
10.5497256676
 20
9.1583255585
 30
0.0
 10
10.5496047749
 20
9.1584194244
 30
0.0
 10
10.5494549621
 20
9.1585573709
 30
0.0
 10
10.5491874888
 20
9.1587928171
 30
0.0
 10
10.5488081555
 20
9.1591322849
 30
0.0
 10
10.5483517693
 20
9.1595383125
 30
0.0
 10
10.5477436687
 20
9.1600801485
 30
0.0
 10
10.546983401
 20
9.1607572839
 30
0.0
 10
10.5457670521
 20
9.1618407898
 30
0.0
 10
10.5442465887
 20
9.1631951416
 30
0.0
 10
10.5424220442
 20
9.1648203768
 30
0.0
 10
10.5405974967
 20
9.1664456085
 30
0.0
 10
10.5381647678
 20
9.1686125854
 30
0.0
 10
10.5351238562
 20
9.171321306
 30
0.0
 10
10.5320829448
 20
9.1740300269
 30
0.0
 10
10.5296502155
 20
9.1761970032
 30
0.0
 10
10.5278256692
 20
9.1778222365
 30
0.0
 10
10.5260011202
 20
9.179447466
 30
0.0
 10
10.524480671
 20
9.1808018356
 30
0.0
 10
10.5232642931
 20
9.181885305
 30
0.0
 10
10.522504099
 20
9.1825625333
 30
0.0
 10
10.5218958475
 20
9.1831041788
 30
0.0
 10
10.5214399223
 20
9.1835107882
 30
0.0
 10
10.5210591466
 20
9.1838484357
 30
0.0
 10
10.5207942481
 20
9.1840871314
 30
0.0
 10
10.5206403098
 20
9.1842198714
 30
0.0
 10
10.5205320895
 20
9.1843297298
 30
0.0
 10
10.5203962196
 20
9.1844002033
 30
0.0
 10
10.5202247041
 20
9.1845079059
 30
0.0
 10
10.5199200586
 20
9.1846899847
 30
0.0
 10
10.5194872
 20
9.1849534435
 30
0.0
 10
10.5189667641
 20
9.1852681618
 30
0.0
 10
10.5182732008
 20
9.1856882865
 30
0.0
 10
10.5174061264
 20
9.1862132711
 30
0.0
 10
10.5160188745
 20
9.1870533421
 30
0.0
 10
10.5142847867
 20
9.1881033981
 30
0.0
 10
10.5122038912
 20
9.1893634793
 30
0.0
 10
10.510122993
 20
9.1906235568
 30
0.0
 10
10.507348463
 20
9.1923036614
 30
0.0
 10
10.5038803002
 20
9.1944037917
 30
0.0
 10
10.5004121375
 20
9.1965039223
 30
0.0
 10
10.4976376072
 20
9.1981840263
 30
0.0
 10
10.49555671
 20
9.1994441055
 30
0.0
 10
10.4934758109
 20
9.2007041804
 30
0.0
 10
10.4917417341
 20
9.2017542561
 30
0.0
 10
10.4903544598
 20
9.2025942869
 30
0.0
 10
10.4894874424
 20
9.2031193738
 30
0.0
 10
10.4887937621
 20
9.2035392884
 30
0.0
 10
10.4882736838
 20
9.2038546488
 30
0.0
 10
10.4878397063
 20
9.2041160986
 30
0.0
 10
10.4875370581
 20
9.2043017639
 30
0.0
 10
10.4873623425
 20
9.20440372
 30
0.0
 10
10.4872363026
 20
9.2044918448
 30
0.0
 10
10.4870911621
 20
9.2045354079
 30
0.0
 10
10.486904304
 20
9.2046090356
 30
0.0
 10
10.4865741981
 20
9.2047306421
 30
0.0
 10
10.4861042411
 20
9.204908152
 30
0.0
 10
10.4855395981
 20
9.2051195431
 30
0.0
 10
10.4847869834
 20
9.205401964
 30
0.0
 10
10.4838461319
 20
9.2057547964
 30
0.0
 10
10.482340816
 20
9.2063194365
 30
0.0
 10
10.4804591551
 20
9.2070251994
 30
0.0
 10
10.478201169
 20
9.2078721308
 30
0.0
 10
10.4759431809
 20
9.208719058
 30
0.0
 10
10.4729325309
 20
9.2098482957
 30
0.0
 10
10.4691692181
 20
9.2112598423
 30
0.0
 10
10.4654059054
 20
9.2126713893
 30
0.0
 10
10.4623952551
 20
9.2138006264
 30
0.0
 10
10.4601372678
 20
9.2146475555
 30
0.0
 10
10.4578792791
 20
9.2154944799
 30
0.0
 10
10.4559976261
 20
9.2162002645
 30
0.0
 10
10.4544922941
 20
9.2167648604
 30
0.0
 10
10.4535514835
 20
9.2171178053
 30
0.0
 10
10.4527987849
 20
9.2173999952
 30
0.0
 10
10.452234398
 20
9.2176120922
 30
0.0
 10
10.4517636398
 20
9.2177873935
 30
0.0
 10
10.4514349642
 20
9.2179129425
 30
0.0
 10
10.4512458143
 20
9.2179802534
 30
0.0
 10
10.4511077136
 20
9.2180432199
 30
0.0
 10
10.4509552336
 20
9.218058469
 30
0.0
 10
10.4507569426
 20
9.2180954455
 30
0.0
 10
10.4504075966
 20
9.2181523996
 30
0.0
 10
10.4499097525
 20
9.2182378168
 30
0.0
 10
10.4493118167
 20
9.2183385821
 30
0.0
 10
10.4485147516
 20
9.2184735419
 30
0.0
 10
10.4475183577
 20
9.2186420342
 30
0.0
 10
10.4459241623
 20
9.2189117378
 30
0.0
 10
10.4439314062
 20
9.2192488276
 30
0.0
 10
10.4415401039
 20
9.2196533523
 30
0.0
 10
10.4391488003
 20
9.2200578725
 30
0.0
 10
10.435960396
 20
9.2205972344
 30
0.0
 10
10.4319748904
 20
9.2212714361
 30
0.0
 10
10.4271922838
 20
9.2220804785
 30
0.0
 10
10.4208154749
 20
9.2231592015
 30
0.0
 10
10.4160328682
 20
9.2239682438
 30
0.0
 10
10.4128444638
 20
9.2245076053
 30
0.0
  0
SPLINE
  5
39F
100
AcDbEntity
  8
0
100
AcDbSpline
 62
4
  6
CONTINUOUS
 70
0
 71
3
 72
403
 73
399
 74
0
 42
0.0000001
 43
0.0000001
 44
0.0000000001
 40
0.0
 40
0.0
 40
0.0
 40
0.0
 40
0.015625
 40
0.0234375
 40
0.03125
 40
0.0390625
 40
0.04296875
 40
0.046875
 40
0.05078125
 40
0.0546875
 40
0.056640625
 40
0.05859375
 40
0.0595703125
 40
0.060546875
 40
0.0615234375
 40
0.0620117188
 40
0.0622558594
 40
0.0625
 40
0.0627441406
 40
0.0629882812
 40
0.0634765625
 40
0.064453125
 40
0.0654296875
 40
0.06640625
 40
0.068359375
 40
0.0703125
 40
0.07421875
 40
0.078125
 40
0.08203125
 40
0.0859375
 40
0.09375
 40
0.1015625
 40
0.10546875
 40
0.109375
 40
0.11328125
 40
0.1171875
 40
0.119140625
 40
0.12109375
 40
0.1220703125
 40
0.123046875
 40
0.1240234375
 40
0.1245117188
 40
0.1247558594
 40
0.125
 40
0.1252441406
 40
0.1254882812
 40
0.1259765625
 40
0.126953125
 40
0.1279296875
 40
0.12890625
 40
0.130859375
 40
0.1328125
 40
0.13671875
 40
0.140625
 40
0.14453125
 40
0.1484375
 40
0.15625
 40
0.1640625
 40
0.16796875
 40
0.171875
 40
0.17578125
 40
0.1796875
 40
0.181640625
 40
0.18359375
 40
0.1845703125
 40
0.185546875
 40
0.1865234375
 40
0.1870117188
 40
0.1872558594
 40
0.1875
 40
0.1877441406
 40
0.1879882812
 40
0.1884765625
 40
0.189453125
 40
0.1904296875
 40
0.19140625
 40
0.193359375
 40
0.1953125
 40
0.19921875
 40
0.203125
 40
0.20703125
 40
0.2109375
 40
0.21875
 40
0.2265625
 40
0.23046875
 40
0.234375
 40
0.23828125
 40
0.2421875
 40
0.244140625
 40
0.24609375
 40
0.2470703125
 40
0.248046875
 40
0.2490234375
 40
0.2495117188
 40
0.2497558594
 40
0.25
 40
0.2502441406
 40
0.2504882812
 40
0.2509765625
 40
0.251953125
 40
0.2529296875
 40
0.25390625
 40
0.255859375
 40
0.2578125
 40
0.26171875
 40
0.265625
 40
0.26953125
 40
0.2734375
 40
0.28125
 40
0.2890625
 40
0.29296875
 40
0.296875
 40
0.30078125
 40
0.3046875
 40
0.306640625
 40
0.30859375
 40
0.3095703125
 40
0.310546875
 40
0.3115234375
 40
0.3120117188
 40
0.3122558594
 40
0.3125
 40
0.3127441406
 40
0.3129882812
 40
0.3134765625
 40
0.314453125
 40
0.3154296875
 40
0.31640625
 40
0.318359375
 40
0.3203125
 40
0.32421875
 40
0.328125
 40
0.33203125
 40
0.3359375
 40
0.34375
 40
0.3515625
 40
0.35546875
 40
0.359375
 40
0.36328125
 40
0.3671875
 40
0.369140625
 40
0.37109375
 40
0.3720703125
 40
0.373046875
 40
0.3740234375
 40
0.3745117188
 40
0.3747558594
 40
0.375
 40
0.3752441406
 40
0.3754882812
 40
0.3759765625
 40
0.376953125
 40
0.3779296875
 40
0.37890625
 40
0.380859375
 40
0.3828125
 40
0.38671875
 40
0.390625
 40
0.39453125
 40
0.3984375
 40
0.40625
 40
0.4140625
 40
0.41796875
 40
0.421875
 40
0.42578125
 40
0.4296875
 40
0.431640625
 40
0.43359375
 40
0.4345703125
 40
0.435546875
 40
0.4365234375
 40
0.4370117188
 40
0.4372558594
 40
0.4375
 40
0.4377441406
 40
0.4379882812
 40
0.4384765625
 40
0.439453125
 40
0.4404296875
 40
0.44140625
 40
0.443359375
 40
0.4453125
 40
0.44921875
 40
0.453125
 40
0.45703125
 40
0.4609375
 40
0.46875
 40
0.4765625
 40
0.48046875
 40
0.484375
 40
0.48828125
 40
0.4921875
 40
0.494140625
 40
0.49609375
 40
0.4970703125
 40
0.498046875
 40
0.4990234375
 40
0.4995117188
 40
0.4997558594
 40
0.5
 40
0.5002441406
 40
0.5004882812
 40
0.5009765625
 40
0.501953125
 40
0.5029296875
 40
0.50390625
 40
0.505859375
 40
0.5078125
 40
0.51171875
 40
0.515625
 40
0.51953125
 40
0.5234375
 40
0.53125
 40
0.5390625
 40
0.54296875
 40
0.546875
 40
0.55078125
 40
0.5546875
 40
0.556640625
 40
0.55859375
 40
0.5595703125
 40
0.560546875
 40
0.5615234375
 40
0.5620117188
 40
0.5622558594
 40
0.5625
 40
0.5627441406
 40
0.5629882812
 40
0.5634765625
 40
0.564453125
 40
0.5654296875
 40
0.56640625
 40
0.568359375
 40
0.5703125
 40
0.57421875
 40
0.578125
 40
0.58203125
 40
0.5859375
 40
0.59375
 40
0.6015625
 40
0.60546875
 40
0.609375
 40
0.61328125
 40
0.6171875
 40
0.619140625
 40
0.62109375
 40
0.6220703125
 40
0.623046875
 40
0.6240234375
 40
0.6245117188
 40
0.6247558594
 40
0.625
 40
0.6252441406
 40
0.6254882812
 40
0.6259765625
 40
0.626953125
 40
0.6279296875
 40
0.62890625
 40
0.630859375
 40
0.6328125
 40
0.63671875
 40
0.640625
 40
0.64453125
 40
0.6484375
 40
0.65625
 40
0.6640625
 40
0.66796875
 40
0.671875
 40
0.67578125
 40
0.6796875
 40
0.681640625
 40
0.68359375
 40
0.6845703125
 40
0.685546875
 40
0.6865234375
 40
0.6870117188
 40
0.6872558594
 40
0.6875
 40
0.6877441406
 40
0.6879882812
 40
0.6884765625
 40
0.689453125
 40
0.6904296875
 40
0.69140625
 40
0.693359375
 40
0.6953125
 40
0.69921875
 40
0.703125
 40
0.70703125
 40
0.7109375
 40
0.71875
 40
0.7265625
 40
0.73046875
 40
0.734375
 40
0.73828125
 40
0.7421875
 40
0.744140625
 40
0.74609375
 40
0.7470703125
 40
0.748046875
 40
0.7490234375
 40
0.7495117188
 40
0.7497558594
 40
0.75
 40
0.7502441406
 40
0.7504882812
 40
0.7509765625
 40
0.751953125
 40
0.7529296875
 40
0.75390625
 40
0.755859375
 40
0.7578125
 40
0.76171875
 40
0.765625
 40
0.76953125
 40
0.7734375
 40
0.78125
 40
0.7890625
 40
0.79296875
 40
0.796875
 40
0.80078125
 40
0.8046875
 40
0.806640625
 40
0.80859375
 40
0.8095703125
 40
0.810546875
 40
0.8115234375
 40
0.8120117188
 40
0.8122558594
 40
0.8125
 40
0.8127441406
 40
0.8129882812
 40
0.8134765625
 40
0.814453125
 40
0.8154296875
 40
0.81640625
 40
0.818359375
 40
0.8203125
 40
0.82421875
 40
0.828125
 40
0.83203125
 40
0.8359375
 40
0.84375
 40
0.8515625
 40
0.85546875
 40
0.859375
 40
0.86328125
 40
0.8671875
 40
0.869140625
 40
0.87109375
 40
0.8720703125
 40
0.873046875
 40
0.8740234375
 40
0.8745117188
 40
0.8747558594
 40
0.875
 40
0.8752441406
 40
0.8754882812
 40
0.8759765625
 40
0.876953125
 40
0.8779296875
 40
0.87890625
 40
0.880859375
 40
0.8828125
 40
0.88671875
 40
0.890625
 40
0.89453125
 40
0.8984375
 40
0.90625
 40
0.9140625
 40
0.91796875
 40
0.921875
 40
0.92578125
 40
0.9296875
 40
0.931640625
 40
0.93359375
 40
0.9345703125
 40
0.935546875
 40
0.9365234375
 40
0.9370117188
 40
0.9372558594
 40
0.9375
 40
0.9377441406
 40
0.9379882812
 40
0.9384765625
 40
0.939453125
 40
0.9404296875
 40
0.94140625
 40
0.943359375
 40
0.9453125
 40
0.94921875
 40
0.953125
 40
0.95703125
 40
0.9609375
 40
0.96875
 40
0.9765625
 40
0.984375
 40
1.0
 40
1.0
 40
1.0
 40
1.0
 10
10.4128444807
 20
9.2245076042
 30
0.0
 10
10.4097112938
 20
9.2244176797
 30
0.0
 10
10.4050115134
 20
9.2242827931
 30
0.0
 10
10.3987451396
 20
9.2241029443
 30
0.0
 10
10.3940453592
 20
9.2239680576
 30
0.0
 10
10.3901288755
 20
9.2238556523
 30
0.0
 10
10.3869956887
 20
9.2237657275
 30
0.0
 10
10.3846457983
 20
9.2236982852
 30
0.0
 10
10.3822959088
 20
9.2236308382
 30
0.0
 10
10.3803376647
 20
9.223574647
 30
0.0
 10
10.3787710759
 20
9.2235296611
 30
0.0
 10
10.3777919432
 20
9.2235016201
 30
0.0
 10
10.3770086707
 20
9.2234790152
 30
0.0
 10
10.3764211243
 20
9.2234625324
 30
0.0
 10
10.3759317949
 20
9.2234472989
 30
0.0
 10
10.3755886901
 20
9.223439575
 30
0.0
 10
10.3753935268
 20
9.2234305714
 30
0.0
 10
10.3752446287
 20
9.2234367489
 30
0.0
 10
10.3751053847
 20
9.2233935004
 30
0.0
 10
10.3749163585
 20
9.2233530762
 30
0.0
 10
10.3745871317
 20
9.2232743011
 30
0.0
 10
10.3741159874
 20
9.2231659648
 30
0.0
 10
10.3735509653
 20
9.2230341638
 30
0.0
 10
10.37279748
 20
9.2228590569
 30
0.0
 10
10.3718556652
 20
9.2226399583
 30
0.0
 10
10.3703487382
 20
9.2222895207
 30
0.0
 10
10.3684650875
 20
9.2218514325
 30
0.0
 10
10.3662047031
 20
9.2213257444
 30
0.0
 10
10.3639443197
 20
9.2208000514
 30
0.0
 10
10.3609304749
 20
9.2200991292
 30
0.0
 10
10.3571631689
 20
9.2192229758
 30
0.0
 10
10.3533958628
 20
9.2183468229
 30
0.0
 10
10.3503820182
 20
9.2176459
 30
0.0
 10
10.3481216342
 20
9.217120209
 30
0.0
 10
10.345861252
 20
9.2165945136
 30
0.0
 10
10.3439775946
 20
9.2161564481
 30
0.0
 10
10.3424706812
 20
9.2158059642
 30
0.0
 10
10.3415288316
 20
9.2155869835
 30
0.0
 10
10.3407754179
 20
9.2154116345
 30
0.0
 10
10.3402101771
 20
9.2152805731
 30
0.0
 10
10.3397397171
 20
9.2151699228
 30
0.0
 10
10.3394092686
 20
9.2150952787
 30
0.0
 10
10.3392221999
 20
9.2150482355
 30
0.0
 10
10.3390769434
 20
9.2150253184
 30
0.0
 10
10.3389506272
 20
9.214955135
 30
0.0
 10
10.338775599
 20
9.2148780441
 30
0.0
 10
10.3384723778
 20
9.2147354535
 30
0.0
 10
10.3380375954
 20
9.2145357686
 30
0.0
 10
10.3375165454
 20
9.2142944278
 30
0.0
 10
10.3368215714
 20
9.2139732404
 30
0.0
 10
10.3359529363
 20
9.2135715507
 30
0.0
 10
10.3345630741
 20
9.212928962
 30
0.0
 10
10.3328257621
 20
9.2121256866
 30
0.0
 10
10.330740981
 20
9.2111617731
 30
0.0
 10
10.3286562016
 20
9.2101978551
 30
0.0
 10
10.3258764952
 20
9.2089126327
 30
0.0
 10
10.3224018625
 20
9.207306104
 30
0.0
 10
10.3189272295
 20
9.2056995758
 30
0.0
 10
10.3161475234
 20
9.2044143527
 30
0.0
 10
10.3140627432
 20
9.2034504366
 30
0.0
 10
10.3119779654
 20
9.202486516
 30
0.0
 10
10.3102406432
 20
9.2016832627
 30
0.0
 10
10.3088508017
 20
9.2010406291
 30
0.0
 10
10.3079821139
 20
9.2006390534
 30
0.0
 10
10.3072872481
 20
9.2003176318
 30
0.0
 10
10.3067658675
 20
9.2000770067
 30
0.0
 10
10.3063321194
 20
9.1998750826
 30
0.0
 10
10.3060270518
 20
9.1997364894
 30
0.0
 10
10.3058549821
 20
9.1996529937
 30
0.0
 10
10.3057195783
 20
9.1996024838
 30
0.0
 10
10.3056084533
 20
9.1995056763
 30
0.0
 10
10.3054518179
 20
9.1993927487
 30
0.0
 10
10.3051816517
 20
9.1991876013
 30
0.0
 10
10.3047936372
 20
9.1988984672
 30
0.0
 10
10.3043289027
 20
9.1985498226
 30
0.0
 10
10.3037089482
 20
9.1980855513
 30
0.0
 10
10.3029341108
 20
9.1975050107
 30
0.0
 10
10.3016943119
 20
9.1965762583
 30
0.0
 10
10.3001445835
 20
9.1954152792
 30
0.0
 10
10.2982849008
 20
9.1940221208
 30
0.0
 10
10.2964252203
 20
9.192628958
 30
0.0
 10
10.2939456456
 20
9.1907714091
 30
0.0
 10
10.2908461776
 20
9.1884494724
 30
0.0
 10
10.2877467092
 20
9.1861275361
 30
0.0
 10
10.2852671349
 20
9.1842699867
 30
0.0
 10
10.2834074532
 20
9.1828768256
 30
0.0
 10
10.2815477753
 20
9.181483661
 30
0.0
 10
10.279998032
 20
9.1803227011
 30
0.0
 10
10.2787582634
 20
9.1793939096
 30
0.0
 10
10.2779833489
 20
9.1788134685
 30
0.0
 10
10.2773635527
 20
9.1783489928
 30
0.0
 10
10.2768983347
 20
9.1780009725
 30
0.0
 10
10.2765118329
 20
9.1777098852
 30
0.0
 10
10.276238966
 20
9.1775082247
 30
0.0
 10
10.2760866579
 20
9.1773897102
 30
0.0
 10
10.2759622411
 20
9.1773100638
 30
0.0
 10
10.2758767591
 20
9.1771950993
 30
0.0
 10
10.2757492022
 20
9.1770541327
 30
0.0
 10
10.2755323053
 20
9.1768017012
 30
0.0
 10
10.2752191444
 20
9.1764440857
 30
0.0
 10
10.2748447673
 20
9.1760136626
 30
0.0
 10
10.2743451032
 20
9.1754402138
 30
0.0
 10
10.2737206925
 20
9.1747232492
 30
0.0
 10
10.2727215407
 20
9.1735761917
 30
0.0
 10
10.2714726334
 20
9.1721423403
 30
0.0
 10
10.2699739308
 20
9.1704217312
 30
0.0
 10
10.2684752319
 20
9.1687011188
 30
0.0
 10
10.2664769653
 20
9.1664069701
 30
0.0
 10
10.2639791327
 20
9.1635392838
 30
0.0
 10
10.2614812997
 20
9.1606715978
 30
0.0
 10
10.2594830337
 20
9.1583774487
 30
0.0
 10
10.2579843332
 20
9.1566568376
 30
0.0
 10
10.2564856366
 20
9.1549362236
 30
0.0
 10
10.2552367104
 20
9.1535023877
 30
0.0
 10
10.2542375971
 20
9.1523552986
 30
0.0
 10
10.2536130885
 20
9.1516384143
 30
0.0
 10
10.2531136254
 20
9.1510648006
 30
0.0
 10
10.2527386345
 20
9.1506348811
 30
0.0
 10
10.2524273939
 20
9.1502756901
 30
0.0
 10
10.2522070689
 20
9.1500260712
 30
0.0
 10
10.2520850046
 20
9.1498805981
 30
0.0
 10
10.2519826513
 20
9.149779476
 30
0.0
 10
10.2519216004
 20
9.1496478399
 30
0.0
 10
10.2518257925
 20
9.1494829688
 30
0.0
 10
10.2516648409
 20
9.1491894853
 30
0.0
 10
10.2514314009
 20
9.1487728158
 30
0.0
 10
10.251152775
 20
9.1482717027
 30
0.0
 10
10.250780749
 20
9.1476039395
 30
0.0
 10
10.2503158963
 20
9.1467691027
 30
0.0
 10
10.2495720315
 20
9.1454334381
 30
0.0
 10
10.2486422349
 20
9.1437638318
 30
0.0
 10
10.2475264643
 20
9.1417603152
 30
0.0
 10
10.2464106976
 20
9.1397567957
 30
0.0
 10
10.2449230073
 20
9.1370854374
 30
0.0
 10
10.2430633949
 20
9.1337462392
 30
0.0
 10
10.2412037822
 20
9.1304070411
 30
0.0
 10
10.2397160925
 20
9.1277356825
 30
0.0
 10
10.2386003241
 20
9.125732164
 30
0.0
 10
10.23748456
 20
9.1237286434
 30
0.0
 10
10.236554743
 20
9.1220590496
 30
0.0
 10
10.2358109199
 20
9.1207233597
 30
0.0
 10
10.2353459608
 20
9.1198885873
 30
0.0
 10
10.2349741532
 20
9.1192206919
 30
0.0
 10
10.2346948603
 20
9.1187199826
 30
0.0
 10
10.234463507
 20
9.1183020496
 30
0.0
 10
10.2342988304
 20
9.1180108217
 30
0.0
 10
10.2342089909
 20
9.1178423365
 30
0.0
 10
10.234129607
 20
9.1177218019
 30
0.0
 10
10.2340961094
 20
9.1175789845
 30
0.0
 10
10.2340354403
 20
9.1173963338
 30
0.0
 10
10.2339367267
 20
9.1170730737
 30
0.0
 10
10.2337918085
 20
9.1166131668
 30
0.0
 10
10.2336195755
 20
9.1160604682
 30
0.0
 10
10.2333893486
 20
9.1153238198
 30
0.0
 10
10.2331017645
 20
9.1144029123
 30
0.0
 10
10.2326415185
 20
9.1129295146
 30
0.0
 10
10.2320662492
 20
9.1110877488
 30
0.0
 10
10.2313759096
 20
9.1088776378
 30
0.0
 10
10.2306855744
 20
9.1066675247
 30
0.0
 10
10.229765126
 20
9.103720708
 30
0.0
 10
10.228614566
 20
9.1000371868
 30
0.0
 10
10.2274640056
 20
9.0963536657
 30
0.0
 10
10.2265435578
 20
9.0934068487
 30
0.0
 10
10.2258532208
 20
9.0911967364
 30
0.0
 10
10.2251628883
 20
9.0889866224
 30
0.0
 10
10.2245875968
 20
9.087144866
 30
0.0
 10
10.2241273961
 20
9.0856714491
 30
0.0
 10
10.2238396966
 20
9.0847505905
 30
0.0
 10
10.2236097066
 20
9.0840138418
 30
0.0
 10
10.2234367499
 20
9.0834614495
 30
0.0
 10
10.2232940958
 20
9.0830005843
 30
0.0
 10
10.2231913405
 20
9.0826790349
 30
0.0
 10
10.2231371472
 20
9.0824936433
 30
0.0
 10
10.2230837581
 20
9.0823592451
 30
0.0
 10
10.2230790834
 20
9.0822070894
 30
0.0
 10
10.2230558584
 20
9.0820104092
 30
0.0
 10
10.2230231317
 20
9.0816633329
 30
0.0
 10
10.22297224
 20
9.0811690184
 30
0.0
 10
10.2229129417
 20
9.0805751952
 30
0.0
 10
10.2228332585
 20
9.0797836565
 30
0.0
 10
10.2227338664
 20
9.0787941558
 30
0.0
 10
10.2225747206
 20
9.077210998
 30
0.0
 10
10.222375829
 20
9.0752320359
 30
0.0
 10
10.2221371416
 20
9.0728572878
 30
0.0
 10
10.2218984589
 20
9.0704825379
 30
0.0
 10
10.2215802136
 20
9.0673162054
 30
0.0
 10
10.2211824076
 20
9.0633582895
 30
0.0
 10
10.2207846013
 20
9.0594003737
 30
0.0
 10
10.2204663567
 20
9.056234041
 30
0.0
 10
10.220227672
 20
9.0538592915
 30
0.0
 10
10.2199889921
 20
9.0514845421
 30
0.0
 10
10.2197900771
 20
9.0495055839
 30
0.0
 10
10.2196309789
 20
9.047922418
 30
0.0
 10
10.2195314656
 20
9.0469329379
 30
0.0
 10
10.2194520311
 20
9.0461413572
 30
0.0
 10
10.2193919732
 20
9.0455476625
 30
0.0
 10
10.2193434583
 20
9.0450529459
 30
0.0
 10
10.2193064886
 20
9.0447065873
 30
0.0
 10
10.2192900618
 20
9.0445087571
 30
0.0
 10
10.2192645054
 20
9.0443601339
 30
0.0
 10
10.2192895446
 20
9.0442124685
 30
0.0
 10
10.2193052818
 20
9.0440152471
 30
0.0
 10
10.2193410447
 20
9.0436702655
 30
0.0
 10
10.2193878357
 20
9.0431773532
 30
0.0
 10
10.2194458249
 20
9.0425858932
 30
0.0
 10
10.2195225011
 20
9.0417972678
 30
0.0
 10
10.2196185665
 20
9.0408114902
 30
0.0
 10
10.2197721481
 20
9.0392342436
 30
0.0
 10
10.2199641672
 20
9.0372626863
 30
0.0
 10
10.2201945722
 20
9.0348968171
 30
0.0
 10
10.2204249819
 20
9.0325309481
 30
0.0
 10
10.2207321933
 20
9.0293764559
 30
0.0
 10
10.221116208
 20
9.0254333408
 30
0.0
 10
10.2215002224
 20
9.0214902256
 30
0.0
 10
10.2218074344
 20
9.0183357335
 30
0.0
 10
10.2220378422
 20
9.0159698643
 30
0.0
 10
10.2222682546
 20
9.0136039957
 30
0.0
 10
10.2224602504
 20
9.0116324367
 30
0.0
 10
10.2226138796
 20
9.0100551936
 30
0.0
 10
10.2227098238
 20
9.0090694072
 30
0.0
 10
10.2227867488
 20
9.0082807999
 30
0.0
 10
10.222843978
 20
9.0076892846
 30
0.0
 10
10.2228931467
 20
9.0071965453
 30
0.0
 10
10.222924665
 20
9.0068512548
 30
0.0
 10
10.2229472032
 20
9.0066545284
 30
0.0
 10
10.2229513519
 20
9.0065053426
 30
0.0
 10
10.2230042569
 20
9.0063624296
 30
0.0
 10
10.2230577902
 20
9.0061696909
 30
0.0
 10
10.2231593972
 20
9.0058334176
 30
0.0
 10
10.2233004074
 20
9.0053524942
 30
0.0
 10
10.2234713929
 20
9.0047756143
 30
0.0
 10
10.2236987542
 20
9.0040063614
 30
0.0
 10
10.2239831678
 20
9.0030448225
 30
0.0
 10
10.2244381112
 20
9.001506345
 30
0.0
 10
10.225006831
 20
8.9995832534
 30
0.0
 10
10.2256892773
 20
8.9972755413
 30
0.0
 10
10.2263717284
 20
8.9949678297
 30
0.0
 10
10.2272816614
 20
8.9918908808
 30
0.0
 10
10.2284190784
 20
8.9880446947
 30
0.0
 10
10.2295564949
 20
8.9841985085
 30
0.0
 10
10.2304664286
 20
8.9811215597
 30
0.0
 10
10.2311488777
 20
8.9788138478
 30
0.0
 10
10.2318313313
 20
8.9765061373
 30
0.0
 10
10.2324000288
 20
8.9745830405
 30
0.0
 10
10.2328550176
 20
8.9730445736
 30
0.0
 10
10.2331393157
 20
8.9720830079
 30
0.0
 10
10.2333669141
 20
8.9713138101
 30
0.0
 10
10.2335371751
 20
8.9707367617
 30
0.0
 10
10.233680452
 20
8.9702563654
 30
0.0
 10
10.2337780127
 20
8.9699191511
 30
0.0
 10
10.2338380291
 20
8.9697279202
 30
0.0
 10
10.2338710199
 20
8.9695803757
 30
0.0
 10
10.2339499633
 20
8.9694485848
 30
0.0
 10
10.2340391924
 20
8.9692673686
 30
0.0
 10
10.2342028115
 20
8.9689528004
 30
0.0
 10
10.2344326486
 20
8.9685020787
 30
0.0
 10
10.2347101244
 20
8.9679617856
 30
0.0
 10
10.2350795084
 20
8.9672411948
 30
0.0
 10
10.2355414382
 20
8.9663405247
 30
0.0
 10
10.2362804142
 20
8.9648994144
 30
0.0
 10
10.2372041725
 20
8.9630980395
 30
0.0
 10
10.2383126661
 20
8.9609363841
 30
0.0
 10
10.239421164
 20
8.9587747302
 30
0.0
 10
10.2408991598
 20
8.9558925244
 30
0.0
 10
10.242746655
 20
8.9522897675
 30
0.0
 10
10.2445941499
 20
8.9486870103
 30
0.0
 10
10.2460721462
 20
8.9458048048
 30
0.0
 10
10.2471806423
 20
8.9436431501
 30
0.0
 10
10.2482891427
 20
8.9414814975
 30
0.0
 10
10.2492128798
 20
8.939680114
 30
0.0
 10
10.2499518992
 20
8.9382390213
 30
0.0
 10
10.2504137185
 20
8.9373383062
 30
0.0
 10
10.2507833292
 20
8.9366178079
 30
0.0
 10
10.2510601122
 20
8.9360772323
 30
0.0
 10
10.2512921168
 20
8.9356273946
 30
0.0
 10
10.2514518666
 20
8.9353112483
 30
0.0
 10
10.2515472953
 20
8.9351325606
 30
0.0
 10
10.2516071955
 20
8.9349930027
 30
0.0
 10
10.2517117096
 20
8.9348746297
 30
0.0
 10
10.2518354999
 20
8.9347094094
 30
0.0
 10
10.2520593834
 20
8.9344237168
 30
0.0
 10
10.2523754264
 20
8.9340137846
 30
0.0
 10
10.2527563004
 20
8.9335226364
 30
0.0
 10
10.2532635658
 20
8.932867503
 30
0.0
 10
10.2538978415
 20
8.9320486784
 30
0.0
 10
10.2549125743
 20
8.9307385075
 30
0.0
 10
10.2561810274
 20
8.9291008116
 30
0.0
 10
10.2577031552
 20
8.9271355689
 30
0.0
 10
10.2592252873
 20
8.9251703283
 30
0.0
 10
10.2612547953
 20
8.9225500067
 30
0.0
 10
10.2637916808
 20
8.919274605
 30
0.0
 10
10.2663285659
 20
8.9159992031
 30
0.0
 10
10.2683580744
 20
8.9133788819
 30
0.0
 10
10.2698802049
 20
8.9114136401
 30
0.0
 10
10.2714023386
 20
8.9094484018
 30
0.0
 10
10.2726707736
 20
8.9078106923
 30
0.0
 10
10.2736855433
 20
8.9065005492
 30
0.0
 10
10.2743197249
 20
8.905681654
 30
0.0
 10
10.2748271836
 20
8.9050266655
 30
0.0
 10
10.2752074669
 20
8.9045350747
 30
0.0
 10
10.2755253582
 20
8.9041265271
 30
0.0
 10
10.2757459421
 20
8.9038383627
 30
0.0
 10
10.2758750192
 20
8.903677103
 30
0.0
 10
10.2759632939
 20
8.9035465643
 30
0.0
 10
10.2760841866
 20
8.9034526984
 30
0.0
 10
10.2762339993
 20
8.903314752
 30
0.0
 10
10.2765014726
 20
8.9030793057
 30
0.0
 10
10.2768808059
 20
8.9027398379
 30
0.0
 10
10.2773371922
 20
8.9023338103
 30
0.0
 10
10.2779452928
 20
8.9017919744
 30
0.0
 10
10.2787055604
 20
8.9011148389
 30
0.0
 10
10.2799219094
 20
8.900031333
 30
0.0
 10
10.2814423728
 20
8.8986769813
 30
0.0
 10
10.2832669172
 20
8.897051746
 30
0.0
 10
10.2850914647
 20
8.8954265143
 30
0.0
 10
10.2875241937
 20
8.8932595375
 30
0.0
 10
10.2905651053
 20
8.8905508169
 30
0.0
 10
10.2936060166
 20
8.887842096
 30
0.0
 10
10.2960387459
 20
8.8856751196
 30
0.0
 10
10.2978632923
 20
8.8840498864
 30
0.0
 10
10.2996878412
 20
8.8824246569
 30
0.0
 10
10.3012082905
 20
8.8810702872
 30
0.0
 10
10.3024246683
 20
8.8799868178
 30
0.0
 10
10.3031848624
 20
8.8793095896
 30
0.0
 10
10.303793114
 20
8.878767944
 30
0.0
 10
10.3042490392
 20
8.8783613347
 30
0.0
 10
10.3046298148
 20
8.8780236872
 30
0.0
 10
10.3048947133
 20
8.8777849914
 30
0.0
 10
10.3050486516
 20
8.8776522514
 30
0.0
 10
10.3051568719
 20
8.877542393
 30
0.0
 10
10.3052927419
 20
8.8774719195
 30
0.0
 10
10.3054642573
 20
8.8773642169
 30
0.0
 10
10.3057689028
 20
8.8771821382
 30
0.0
 10
10.3062017614
 20
8.8769186793
 30
0.0
 10
10.3067221973
 20
8.876603961
 30
0.0
 10
10.3074157606
 20
8.8761838363
 30
0.0
 10
10.308282835
 20
8.8756588517
 30
0.0
 10
10.3096700869
 20
8.8748187807
 30
0.0
 10
10.3114041747
 20
8.8737687247
 30
0.0
 10
10.3134850703
 20
8.8725086435
 30
0.0
 10
10.3155659685
 20
8.871248566
 30
0.0
 10
10.3183404984
 20
8.8695684614
 30
0.0
 10
10.3218086613
 20
8.8674683312
 30
0.0
 10
10.3252768239
 20
8.8653682006
 30
0.0
 10
10.3280513542
 20
8.8636880965
 30
0.0
 10
10.3301322514
 20
8.8624280174
 30
0.0
 10
10.3322131505
 20
8.8611679425
 30
0.0
 10
10.3339472274
 20
8.8601178668
 30
0.0
 10
10.3353345016
 20
8.859277836
 30
0.0
 10
10.336201519
 20
8.858752749
 30
0.0
 10
10.3368951994
 20
8.8583328345
 30
0.0
 10
10.3374152777
 20
8.8580174741
 30
0.0
 10
10.3378492551
 20
8.8577560242
 30
0.0
 10
10.3381519033
 20
8.857570359
 30
0.0
 10
10.338326619
 20
8.8574684029
 30
0.0
 10
10.3384526588
 20
8.8573802781
 30
0.0
 10
10.3385977993
 20
8.857336715
 30
0.0
 10
10.3387846574
 20
8.8572630872
 30
0.0
 10
10.3391147633
 20
8.8571414807
 30
0.0
 10
10.3395847203
 20
8.8569639709
 30
0.0
 10
10.3401493633
 20
8.8567525797
 30
0.0
 10
10.340901978
 20
8.8564701588
 30
0.0
 10
10.3418428295
 20
8.8561173265
 30
0.0
 10
10.3433481454
 20
8.8555526864
 30
0.0
 10
10.3452298063
 20
8.8548469235
 30
0.0
 10
10.3474877925
 20
8.853999992
 30
0.0
 10
10.3497457805
 20
8.8531530649
 30
0.0
 10
10.3527564306
 20
8.8520238271
 30
0.0
 10
10.3565197434
 20
8.8506122805
 30
0.0
 10
10.360283056
 20
8.8492007335
 30
0.0
 10
10.3632937063
 20
8.8480714964
 30
0.0
 10
10.3655516936
 20
8.8472245674
 30
0.0
 10
10.3678096824
 20
8.8463776429
 30
0.0
 10
10.3696913353
 20
8.8456718583
 30
0.0
 10
10.3711966673
 20
8.8451072625
 30
0.0
 10
10.372137478
 20
8.8447543176
 30
0.0
 10
10.3728901765
 20
8.8444721277
 30
0.0
 10
10.3734545634
 20
8.8442600307
 30
0.0
 10
10.3739253217
 20
8.8440847293
 30
0.0
 10
10.3742539972
 20
8.8439591803
 30
0.0
 10
10.3744431471
 20
8.8438918694
 30
0.0
 10
10.3745812479
 20
8.843828903
 30
0.0
 10
10.3747337278
 20
8.8438136538
 30
0.0
 10
10.3749320188
 20
8.8437766773
 30
0.0
 10
10.3752813648
 20
8.8437197233
 30
0.0
 10
10.3757792089
 20
8.8436343061
 30
0.0
 10
10.3763771447
 20
8.8435335408
 30
0.0
 10
10.3771742098
 20
8.8433985809
 30
0.0
 10
10.3781706038
 20
8.8432300886
 30
0.0
 10
10.3797647991
 20
8.842960385
 30
0.0
 10
10.3817575552
 20
8.8426232953
 30
0.0
 10
10.3841488575
 20
8.8422187705
 30
0.0
 10
10.3865401611
 20
8.8418142503
 30
0.0
 10
10.3897285654
 20
8.8412748885
 30
0.0
 10
10.393714071
 20
8.8406006867
 30
0.0
 10
10.3984966777
 20
8.8397916444
 30
0.0
 10
10.4048734865
 20
8.8387129213
 30
0.0
 10
10.4096560932
 20
8.837903879
 30
0.0
 10
10.4128444976
 20
8.8373645175
 30
0.0
  0
ENDSEC
  0
SECTION
  2
OBJECTS
  0
DICTIONARY
  5
C
100
AcDbDictionary
280
0
281
1
  3
ACAD_GROUP
350
D
  3
ACAD_MLINESTYLE
350
17
  3
ACAD_LAYOUT
350
1A
  3
ACAD_PLOTSETTINGS
350
19
  3
ACAD_PLOTSTYLENAME
350
E
  3
ACAD_IMAGE_DICT
350
       3A1
  3
ACAD_IMAGE_VARS
350
       3A2
  3
ACAD_TABLESTYLE
350
       3A3
  0
IMAGEDEF_REACTOR
  5
3A0
100
AcDbRasterImageDefReactor
 90
2
330
28B
  0
DICTIONARY
  5
D
102
{ACAD_REACTORS
330
C
102
}
100
AcDbDictionary
280
0
281
1
  0
ACDBDICTIONARYWDFLT
  5
E
102
{ACAD_REACTORS
330
C
102
}
100
AcDbDictionary
281
1
  3
Normal
350
F
100
AcDbDictionaryWithDefault
340
F
  0
DICTIONARY
  5
3A1
330
C
100
AcDbDictionary
281
1
  3
M4T_assy_2_img_1
350
       3A6
  0
RASTERVARIABLES
  5
3A2
330
C
100
AcDbRasterVariables
 90
0
 70
0
 71
1
 72
5
  0
DICTIONARY
  5
17
102
{ACAD_REACTORS
330
C
102
}
100
AcDbDictionary
280
0
281
1
  3
Standard
350
18
  0
DICTIONARY
  5
3A3
330
C
100
AcDbDictionary
281
1
  3
Standard
350
       3A7
  3
Standard1
350
       3A8
  0
DICTIONARY
  5
19
102
{ACAD_REACTORS
330
C
102
}
100
AcDbDictionary
281
1
  0
DICTIONARY
  5
1A
102
{ACAD_REACTORS
330
C
102
}
100
AcDbDictionary
281
1
  3
Model
350
3A4
  3
Layout1
350
3A5
  0
ACDBPLACEHOLDER
  5
F
102
{ACAD_REACTORS
330
E
102
}
  0
MLINESTYLE
  5
18
102
{ACAD_REACTORS
330
17
102
}
100
AcDbMlineStyle
  2
STANDARD
 70
0
  3

 62
256
 51
90.0
 52
90.0
 71
2
 49
0.5
 62
256
  6
BYLAYER
 49
-0.5
 62
256
  6
BYLAYER
  0
LAYOUT
  5
3A4
102
{ACAD_REACTORS
330
1A
102
}
100
AcDbPlotSettings
  1

  2
none_device
  4
ANSI_C_(22.00_x_17.00_Inches)
  6

 40
0.0
 41
0.0
 42
0.0
 43
0.0
 44
558.8
 45
431.8
 46
0.0
 47
0.0
 48
0.0
 49
0.0
140
0.0
141
0.0
142
1.0
143
1.0
 70
1024
 72
0
 73
0
 74
0
  7

 75
0
147
1.0
148
0.0
149
0.0
100
AcDbLayout
  1
Model
 70
0
 71
0
 10
0.0
 20
0.0
 11
22.0
 21
17.0
 12
0.0
 22
0.0
 32
0.0
 14
0.0
 24
0.0
 34
0.0
 15
0.0
 25
0.0
 35
0.0
146
0.0
 13
0.0
 23
0.0
 33
0.0
 16
1.0
 26
0.0
 36
0.0
 17
0.0
 27
1.0
 37
0.0
 76
0
330
20C
345
0
346
0
  0
LAYOUT
  5
3A5
102
{ACAD_REACTORS
330
1A
102
}
100
AcDbPlotSettings
  1

  2
none_device
  4
ANSI_C_(22.00_x_17.00_Inches)
  6

 40
0.0
 41
0.0
 42
0.0
 43
0.0
 44
558.8
 45
431.8
 46
0.0
 47
0.0
 48
0.0
 49
0.0
140
0.0
141
0.0
142
1.0
143
1.0
 70
0
 72
0
 73
0
 74
0
  7

 75
0
147
1.0
148
0.0
149
0.0
100
AcDbLayout
  1
Layout1
 70
0
 71
1
 10
0.0
 20
0.0
 11
22.0
 21
17.0
 12
0.0
 22
0.0
 32
0.0
 14
0.0
 24
0.0
 34
0.0
 15
0.0
 25
0.0
 35
0.0
146
0.0
 13
0.0
 23
0.0
 33
0.0
 16
1.0
 26
0.0
 36
0.0
 17
0.0
 27
1.0
 37
0.0
 76
0
330
20D
345
0
346
0
  0
IMAGEDEF
  5
3A6
102
{ACAD_REACTORS
330
3A1
330
3A0
102
}
100
AcDbRasterImageDef
 90
0
  1
M4T_assy_2_img_1.png
 10
369.0
 20
92.0
 11
0.0066666667
 21
0.0066666667
280
1
281
0
  0
TABLESTYLE
  5
3A7
102
{ACAD_REACTORS
330
3A3
330
28E
330
28F
102
}
330
3A3
100
AcDbTableStyle
  3
Standard
 70
0
 71
0
 40
0.06
 41
0.06
280
1
281
1
  7
Standard
140
0.18
170
1
 62
0
 63
7
283
0
  7
Standard
140
0.18
170
1
 62
0
 63
7
283
0
  7
Standard
140
0.18
170
1
 62
0
 63
7
283
0
  0
TABLESTYLE
  5
3A8
102
{ACAD_REACTORS
330
3A3
330
28D
102
}
330
3A3
100
AcDbTableStyle
  3
Standard1
 70
1
 71
0
 40
0.06
 41
0.06
280
1
281
1
  7
Standard
140
0.18
170
1
 62
0
 63
7
283
0
  7
Standard
140
0.18
170
1
 62
0
 63
7
283
0
  7
Standard
140
0.18
170
1
 62
0
 63
7
283
0
  0
ENDSEC
  0
EOF
