999
DXF file: M4I_assy_2.dxf
999
Pro/ENGINEER 2014200 by Parametric Technology Corporation
  0
SECTION
  2
HEADER
  9
$ACADVER
  1
AC1021
  9
$DWGCODEPAGE
  3
ANSI_1252
  9
$EXTMAX
 10
22.0
 20
17.0
 30
0.0
  9
$EXTMIN
 10
0.0
 20
0.0
 30
0.0
  9
$LIMMIN
 10
0.0
 20
0.0
  9
$LIMMAX
 10
22.0
 20
17.0
  9
$VIEWCTR
 10
11.0
 20
8.5
  9
$VIEWSIZE
 40
17.0
  9
$CLAYER
  8
0
  9
$LTSCALE
 40
1.21
  9
$CELTYPE
  6
BYLAYER
  9
$DIMSCALE
 40
1.0
  9
$DIMASZ
 40
0.1875
  9
$DIMEXO
 40
0.0625
  9
$DIMDLI
 40
0.836
  9
$DIMEXE
 40
0.125
  9
$DIMCEN
 40
0.198
  9
$DIMLFAC
 40
1.0
  9
$DIMBLK
  1
_FILLED
  9
$DIMTXT
 40
0.1
  9
$DIMTOL
 70
0
  9
$DIMLIM
 70
0
  9
$DIMTFAC
 40
1.0
  9
$DIMGAP
 40
0.09
  9
$DIMDSEP
 70
46
  9
$AUNITS
 70
0
  9
$PDMODE
 70
3
  9
$PDSIZE
 40
0.3125
  9
$HANDSEED
  5
3A2
  9
$TILEMODE
 70
1
  9
$MEASUREMENT
 70
0
  9
$INSUNITS
 70
1
  0
ENDSEC
  0
SECTION
  2
CLASSES
  0
CLASS
  1
ACDBDICTIONARYWDFLT
  2
AcDbDictionaryWithDefault
  3
AutoCAD 2000
 90
0
 91
1
280
0
281
0
  0
CLASS
  1
ACDBPLACEHOLDER
  2
AcDbPlaceHolder
  3
AutoCAD 2000
 90
0
 91
1
280
0
281
0
  0
CLASS
  1
LAYOUT
  2
AcDbLayout
  3
AutoCAD 2000
 90
0
 91
0
280
0
281
0
  0
CLASS
  1
RASTERVARIABLES
  2
AcDbRasterVariables
  3
ISM
 90
0
 91
1
280
0
281
0
  0
CLASS
  1
IMAGEDEF
  2
AcDbRasterImageDef
  3
ISM
 90
0
 91
1
280
0
281
0
  0
CLASS
  1
IMAGEDEF_REACTOR
  2
AcDbRasterImageDefReactor
  3
ISM
 90
0
 91
1
280
0
281
0
  0
CLASS
  1
IMAGE
  2
AcDbRasterImage
  3
ISM
 90
127
 91
1
280
0
281
1
  0
CLASS
  1
TABLESTYLE
  2
AcDbTableStyle
  3
ObjectDBX Classes
 90
2047
 91
1
280
0
281
0
  0
CLASS
  1
ACAD_TABLE
  2
AcDbTable
  3
ObjectDBX Classes
 90
1025
 91
3
280
0
281
1
  0
ENDSEC
  0
SECTION
  2
TABLES
  0
TABLE
  2
VPORT
  5
8
100
AcDbSymbolTable
 70
2
  0
VPORT
  5
1F4
100
AcDbSymbolTableRecord
100
AcDbViewportTableRecord
  2
*ACTIVE
 70
0
 10
0.0
 20
0.0
 11
1.0
 21
1.0
 12
11.0
 22
8.5
 13
0.0
 23
0.0
 14
1.0
 24
1.0
 15
0.0
 25
0.0
 16
0.0
 26
0.0
 36
1.0
 17
0.0
 27
0.0
 37
0.0
 40
17.0
 41
1.2941176471
 42
50.0
 43
0.0
 44
0.0
 50
0.0
 51
0.0
 71
0
 72
100
 73
1
 74
1
 75
0
 76
0
 77
0
 78
0
  0
ENDTAB
  0
TABLE
  2
LTYPE
  5
5
100
AcDbSymbolTable
 70
6
  0
LTYPE
  5
14
100
AcDbSymbolTableRecord
100
AcDbLinetypeTableRecord
  2
BYBLOCK
 70
0
  3

 72
65
 73
0
 40
0.0
  0
LTYPE
  5
15
100
AcDbSymbolTableRecord
100
AcDbLinetypeTableRecord
  2
BYLAYER
 70
0
  3

 72
65
 73
0
 40
0.0
  0
LTYPE
  5
16
100
AcDbSymbolTableRecord
100
AcDbLinetypeTableRecord
  2
CONTINUOUS
 70
64
  3
Solid line
 72
65
 73
0
 40
0.0
  0
LTYPE
  5
1F5
100
AcDbSymbolTableRecord
100
AcDbLinetypeTableRecord
  2
CENTER
 70
64
  3
____ _ ____ _ ____ _ ____ _ ____ _ ____ _ ____
 72
65
 73
4
 40
0.6
 49
0.375
 74
0
 49
-0.075
 74
0
 49
0.075
 74
0
 49
-0.075
 74
0
  0
LTYPE
  5
1F6
100
AcDbSymbolTableRecord
100
AcDbLinetypeTableRecord
  2
HIDDEN
 70
64
  3
- - - - - - - - - - - - - - - - - - - -
 72
65
 73
2
 40
0.2
 49
0.1
 74
0
 49
-0.1
 74
0
  0
LTYPE
  5
1F7
100
AcDbSymbolTableRecord
100
AcDbLinetypeTableRecord
  2
PHANTOM
 70
64
  3
_____ _ _ _____ _ _ _____ _ _ _____
 72
65
 73
6
 40
0.8
 49
0.45
 74
0
 49
-0.05
 74
0
 49
0.1
 74
0
 49
-0.05
 74
0
 49
0.1
 74
0
 49
-0.05
 74
0
  0
LTYPE
  5
1F8
100
AcDbSymbolTableRecord
100
AcDbLinetypeTableRecord
  2
DOT
 70
64
  3
. . . . . . . . . . . . . . . . . . . .
 72
65
 73
2
 40
0.2
 49
0.1
 74
0
 49
-0.1
 74
0
  0
LTYPE
  5
1F9
100
AcDbSymbolTableRecord
100
AcDbLinetypeTableRecord
  2
DASHED
 70
64
  3
- - - - - - - - - - - - - - - - - - - -
 72
65
 73
2
 40
0.2
 49
0.1
 74
0
 49
-0.1
 74
0
  0
ENDTAB
  0
TABLE
  2
LAYER
  5
2
100
AcDbSymbolTable
 70
36
  0
LAYER
  5
10
100
AcDbSymbolTableRecord
100
AcDbLayerTableRecord
  2
0
 70
0
 62
7
  6
CONTINUOUS
370
-3
390
F
  0
LAYER
  5
1FA
100
AcDbSymbolTableRecord
100
AcDbLayerTableRecord
  2
DEFAULT_1
 70
0
 62
7
  6
CENTER
370
-3
390
F
  0
LAYER
  5
1FB
100
AcDbSymbolTableRecord
100
AcDbLayerTableRecord
  2
DEFAULT_2
 70
0
 62
8
  6
HIDDEN
370
-3
390
F
  0
LAYER
  5
1FC
100
AcDbSymbolTableRecord
100
AcDbLayerTableRecord
  2
DEFAULT_3
 70
0
 62
7
  6
PHANTOM
370
-3
390
F
  0
LAYER
  5
1FD
100
AcDbSymbolTableRecord
100
AcDbLayerTableRecord
  2
01___PRT_ALL_DTM_PLN
 70
0
 62
7
  6
CONTINUOUS
370
-3
390
F
  0
LAYER
  5
1FE
100
AcDbSymbolTableRecord
100
AcDbLayerTableRecord
  2
01___PRT_DEF_DTM_PLN
 70
0
 62
7
  6
CONTINUOUS
370
-3
390
F
  0
LAYER
  5
1FF
100
AcDbSymbolTableRecord
100
AcDbLayerTableRecord
  2
02___PRT_ALL_AXES
 70
0
 62
7
  6
CONTINUOUS
370
-3
390
F
  0
LAYER
  5
200
100
AcDbSymbolTableRecord
100
AcDbLayerTableRecord
  2
03___PRT_ALL_CURVES
 70
0
 62
7
  6
CONTINUOUS
370
-3
390
F
  0
LAYER
  5
201
100
AcDbSymbolTableRecord
100
AcDbLayerTableRecord
  2
04___PRT_ALL_DTM_PNT
 70
0
 62
7
  6
CONTINUOUS
370
-3
390
F
  0
LAYER
  5
202
100
AcDbSymbolTableRecord
100
AcDbLayerTableRecord
  2
05___PRT_ALL_DTM_CSYS
 70
0
 62
7
  6
CONTINUOUS
370
-3
390
F
  0
LAYER
  5
203
100
AcDbSymbolTableRecord
100
AcDbLayerTableRecord
  2
05___PRT_DEF_DTM_CSYS
 70
0
 62
7
  6
CONTINUOUS
370
-3
390
F
  0
LAYER
  5
204
100
AcDbSymbolTableRecord
100
AcDbLayerTableRecord
  2
06___PRT_ALL_SURFS
 70
0
 62
7
  6
CONTINUOUS
370
-3
390
F
  0
LAYER
  5
205
100
AcDbSymbolTableRecord
100
AcDbLayerTableRecord
  2
DATUM_PLANES
 70
0
 62
7
  6
CONTINUOUS
370
-3
390
F
  0
LAYER
  5
206
100
AcDbSymbolTableRecord
100
AcDbLayerTableRecord
  2
PORT_AREAS
 70
0
 62
7
  6
CONTINUOUS
370
-3
390
F
  0
LAYER
  5
207
100
AcDbSymbolTableRecord
100
AcDbLayerTableRecord
  2
SUNNBOMCOSMETIC
 70
0
 62
7
  6
CONTINUOUS
370
-3
390
F
  0
LAYER
  5
208
100
AcDbSymbolTableRecord
100
AcDbLayerTableRecord
  2
SUNNBOMSTAMPING
 70
0
 62
7
  6
CONTINUOUS
370
-3
390
F
  0
LAYER
  5
209
100
AcDbSymbolTableRecord
100
AcDbLayerTableRecord
  2
THREADS
 70
0
 62
7
  6
CONTINUOUS
370
-3
390
F
  0
ENDTAB
  0
TABLE
  2
STYLE
  5
3
100
AcDbSymbolTable
 70
1
  0
STYLE
  5
11
100
AcDbSymbolTableRecord
100
AcDbTextStyleTableRecord
  2
STANDARD
 70
0
 40
0.0
 41
0.8
 50
0.0
 71
0
 42
0.2
  3
txt
  4

  0
STYLE
  5
20A
100
AcDbSymbolTableRecord
100
AcDbTextStyleTableRecord
  2
TEXTSTYLE_1
 70
0
 40
0.0
 41
0.8
 50
0.0
 71
0
 42
0.2
  3
gdt
  4

  0
ENDTAB
  0
TABLE
  2
VIEW
  5
6
100
AcDbSymbolTable
 70
0
  0
ENDTAB
  0
TABLE
  2
UCS
  5
7
100
AcDbSymbolTable
 70
0
  0
ENDTAB
  0
TABLE
  2
APPID
  5
9
100
AcDbSymbolTable
 70
1
  0
APPID
  5
20B
100
AcDbSymbolTableRecord
100
AcDbRegAppTableRecord
  2
ACAD
 70
0
  0
ENDTAB
  0
TABLE
  2
BLOCK_RECORD
  5
1
100
AcDbSymbolTable
 70
0
  0
BLOCK_RECORD
  5
20C
100
AcDbSymbolTableRecord
100
AcDbBlockTableRecord
  2
*Model_Space
  0
BLOCK_RECORD
  5
20D
100
AcDbSymbolTableRecord
100
AcDbBlockTableRecord
  2
*Paper_Space
  0
BLOCK_RECORD
  5
20E
100
AcDbSymbolTableRecord
100
AcDbBlockTableRecord
  2
SUN_FIRST_THIRD_ANGLE_BL0
  0
BLOCK_RECORD
  5
20F
100
AcDbSymbolTableRecord
100
AcDbBlockTableRecord
  2
*T1
  0
BLOCK_RECORD
  5
210
100
AcDbSymbolTableRecord
100
AcDbBlockTableRecord
  2
*T2
  0
BLOCK_RECORD
  5
211
100
AcDbSymbolTableRecord
100
AcDbBlockTableRecord
  2
*T3
  0
ENDTAB
  0
TABLE
  2
DIMSTYLE
  5
A
100
AcDbSymbolTable
 70
1
100
AcDbDimStyleTable
 71
0
  0
DIMSTYLE
105
212
100
AcDbSymbolTableRecord
100
AcDbDimStyleTableRecord
  2
STANDARD
 70
0
  3

  4

 40
1.0
 41
0.1875
 42
0.0625
 43
0.38
 44
0.125
 45
0.0
 46
0.0
 47
0.001
 48
0.001
140
0.1
141
0.09
142
0.0
143
25.4
144
1.0
145
0.0
146
1.0
147
0.09
 71
0.0
 72
0.0
 73
1
 74
1
 75
0
 76
0
 77
0
 78
4
170
0
171
2
172
0
173
0
174
0
175
0
176
0
177
0
178
0
270
2
271
3
272
3
273
2
274
2
275
0
280
0
281
0
282
0
283
1
284
4
285
0
286
0
287
3
288
0
340
11
278
46
  0
ENDTAB
  0
ENDSEC
  0
SECTION
  2
BLOCKS
  0
BLOCK
  5
20
100
AcDbEntity
  8
0
100
AcDbBlockBegin
  2
*Model_Space
 70
0
 10
0.0
 20
0.0
 30
0.0
  3
*Model_Space
  1

  0
ENDBLK
  5
21
100
AcDbEntity
  8
0
100
AcDbBlockEnd
  0
BLOCK
  5
1C
100
AcDbEntity
  8
0
100
AcDbBlockBegin
  2
*Paper_Space
 70
0
 10
0.0
 20
0.0
 30
0.0
  3
*Paper_Space
  1

  0
ENDBLK
  5
1D
100
AcDbEntity
  8
0
100
AcDbBlockEnd
  0
BLOCK
  5
213
100
AcDbEntity
  8
0
100
AcDbBlockBegin
 62
2
  6
CONTINUOUS
  2
SUN_FIRST_THIRD_ANGLE_BL0
 70
64
 10
20.4816717061
 20
1.2289683772
  3
SUN_FIRST_THIRD_ANGLE_BL0
  1

  0
TEXT
  5
214
100
AcDbEntity
  8
0
100
AcDbText
 62
2
  6
CONTINUOUS
 10
19.4750896608
 20
1.4136269581
  7
STANDARD
 40
0.08
  1
FIRST ANGLE
 41
0.8
 72
0
100
AcDbText
  0
TEXT
  5
215
100
AcDbEntity
  8
0
100
AcDbText
 62
2
  6
CONTINUOUS
 10
20.7842537513
 20
1.4047600029
  7
STANDARD
 40
0.08
  1
THIRD ANGLE
 41
0.8
 72
0
100
AcDbText
  0
LINE
  5
216
100
AcDbEntity
  8
0
100
AcDbLine
 62
7
  6
CONTINUOUS
 10
19.4767170086
 20
1.1727031207
 11
19.6334271527
 21
1.1717972817
  0
LINE
  5
217
100
AcDbEntity
  8
0
100
AcDbLine
 62
7
  6
CONTINUOUS
 10
19.6596964832
 20
1.1717972817
 11
19.6950230232
 21
1.171593082
  0
LINE
  5
218
100
AcDbEntity
  8
0
100
AcDbLine
 62
7
  6
CONTINUOUS
 10
19.7194818561
 20
1.1708914427
 11
19.8852396156
 21
1.1699333054
  0
LINE
  5
219
100
AcDbEntity
  8
0
100
AcDbLine
 62
7
  6
CONTINUOUS
 10
19.4758111696
 20
1.2723454088
 11
19.88525039
 21
1.3511534004
  0
LINE
  5
21A
100
AcDbEntity
  8
0
100
AcDbLine
 62
7
  6
CONTINUOUS
 10
19.88525039
 20
1.3511534004
 11
19.8831348489
 21
0.9851647912
  0
LINE
  5
21B
100
AcDbEntity
  8
0
100
AcDbLine
 62
7
  6
CONTINUOUS
 10
19.8831348489
 20
0.9851647912
 11
19.4767170086
 21
1.0658141206
  0
LINE
  5
21C
100
AcDbEntity
  8
0
100
AcDbLine
 62
7
  6
CONTINUOUS
 10
19.4767170086
 20
1.0658141206
 11
19.4779056764
 21
1.2714536432
  0
CIRCLE
  5
21D
100
AcDbEntity
  8
0
100
AcDbCircle
 62
7
  6
CONTINUOUS
 10
20.2068232291
 20
1.1717972817
 40
0.175742101
  0
CIRCLE
  5
21E
100
AcDbEntity
  8
0
100
AcDbCircle
 62
7
  6
CONTINUOUS
 10
20.2068232291
 20
1.1717972817
 40
0.1005522074
  0
LINE
  5
21F
100
AcDbEntity
  8
0
100
AcDbLine
 62
7
  6
CONTINUOUS
 10
20.2077290681
 20
1.3756110529
 11
20.2071171714
 21
1.2379342989
  0
LINE
  5
220
100
AcDbEntity
  8
0
100
AcDbLine
 62
7
  6
CONTINUOUS
 10
20.2077290681
 20
1.2016899681
 11
20.2074674401
 21
1.1428236749
  0
LINE
  5
221
100
AcDbEntity
  8
0
100
AcDbLine
 62
7
  6
CONTINUOUS
 10
20.208634907
 20
1.101141841
 11
20.2080230104
 21
0.963465087
  0
LINE
  5
222
100
AcDbEntity
  8
0
100
AcDbLine
 62
7
  6
CONTINUOUS
 10
20.0066328138
 20
1.1745147986
 11
20.1443095678
 21
1.1739029019
  0
LINE
  5
223
100
AcDbEntity
  8
0
100
AcDbLine
 62
7
  6
CONTINUOUS
 10
20.1832714155
 20
1.1727031207
 11
20.238153505
 21
1.172335442
  0
LINE
  5
224
100
AcDbEntity
  8
0
100
AcDbLine
 62
7
  6
CONTINUOUS
 10
20.2756669918
 20
1.1717972817
 11
20.407916871
 21
1.1712095044
  0
CIRCLE
  5
225
100
AcDbEntity
  8
0
100
AcDbCircle
 62
7
  6
CONTINUOUS
 10
20.7509457401
 20
1.1693297793
 40
0.1722024983
  0
CIRCLE
  5
226
100
AcDbEntity
  8
0
100
AcDbCircle
 62
7
  6
CONTINUOUS
 10
20.7509457401
 20
1.1693297793
 40
0.0985164967
  0
LINE
  5
227
100
AcDbEntity
  8
0
100
AcDbLine
 62
7
  6
CONTINUOUS
 10
20.7169767782
 20
1.170462078
 11
20.7825395137
 21
1.1682766535
  0
LINE
  5
228
100
AcDbEntity
  8
0
100
AcDbLine
 62
7
  6
CONTINUOUS
 10
20.8177513651
 20
1.1693297793
 11
20.947965719
 21
1.1693297793
  0
LINE
  5
229
100
AcDbEntity
  8
0
100
AcDbLine
 62
7
  6
CONTINUOUS
 10
20.6875370113
 20
1.170462078
 11
20.5573226574
 21
1.170462078
  0
LINE
  5
22A
100
AcDbEntity
  8
0
100
AcDbLine
 62
7
  6
CONTINUOUS
 10
20.7486811426
 20
1.1987695462
 11
20.7486811426
 21
1.1432869085
  0
LINE
  5
22B
100
AcDbEntity
  8
0
100
AcDbLine
 62
7
  6
CONTINUOUS
 10
20.7498134414
 20
1.1059210505
 11
20.7498134414
 21
0.9757066966
  0
LINE
  5
22C
100
AcDbEntity
  8
0
100
AcDbLine
 62
7
  6
CONTINUOUS
 10
20.7486811426
 20
1.2338708068
 11
20.7486811426
 21
1.3640851607
  0
LINE
  5
22D
100
AcDbEntity
  8
0
100
AcDbLine
 62
7
  6
CONTINUOUS
 10
21.0702539817
 20
1.2701043662
 11
21.4790138229
 21
1.3448360823
  0
LINE
  5
22E
100
AcDbEntity
  8
0
100
AcDbLine
 62
7
  6
CONTINUOUS
 10
21.4790138229
 20
1.3448360823
 11
21.4790138229
 21
0.9779712941
  0
LINE
  5
22F
100
AcDbEntity
  8
0
100
AcDbLine
 62
7
  6
CONTINUOUS
 10
21.4790138229
 20
0.9779712941
 11
21.069121683
 21
1.0617614
  0
LINE
  5
230
100
AcDbEntity
  8
0
100
AcDbLine
 62
7
  6
CONTINUOUS
 10
21.0702539817
 20
1.2701043662
 11
21.069121683
 21
1.0617614
  0
LINE
  5
231
100
AcDbEntity
  8
0
100
AcDbLine
 62
7
  6
CONTINUOUS
 10
21.4790138229
 20
1.1693297793
 11
21.3159628059
 21
1.1693297793
  0
LINE
  5
232
100
AcDbEntity
  8
0
100
AcDbLine
 62
7
  6
CONTINUOUS
 10
21.2876553377
 20
1.1693297793
 11
21.2502894796
 21
1.1693297793
  0
LINE
  5
233
100
AcDbEntity
  8
0
100
AcDbLine
 62
7
  6
CONTINUOUS
 10
21.2208497126
 20
1.1659328831
 11
21.0713862804
 21
1.1659328831
  0
LINE
  5
234
100
AcDbEntity
  8
0
100
AcDbLine
 62
7
  6
CONTINUOUS
 10
20.4796138713
 20
1.5284908897
 11
20.4766766948
 21
0.9294458646
  0
ENDBLK
  5
235
100
AcDbEntity
  8
0
  6
BYBLOCK
 62
0
100
AcDbBlockEnd
  0
BLOCK
  5
236
100
AcDbEntity
  8
0
100
AcDbBlockBegin
  2
*T1
 70
1
 10
0.0
 20
0.0
  3
*T1
  1

  0
LINE
  5
237
100
AcDbEntity
  8
0
100
AcDbLine
 62
2
  6
CONTINUOUS
 10
9.275
 20
0.0
 11
-0.0
 21
0.0
  0
LINE
  5
238
100
AcDbEntity
  8
0
100
AcDbLine
 62
2
  6
CONTINUOUS
 10
9.275
 20
0.0
 11
9.275
 21
1.25
  0
LINE
  5
239
100
AcDbEntity
  8
0
100
AcDbLine
 62
2
  6
CONTINUOUS
 10
9.275
 20
0.625
 11
-0.0
 21
0.625
  0
LINE
  5
23A
100
AcDbEntity
  8
0
100
AcDbLine
 62
2
  6
CONTINUOUS
 10
9.275
 20
1.25
 11
-0.0
 21
1.25
  0
LINE
  5
23B
100
AcDbEntity
  8
0
100
AcDbLine
 62
2
  6
CONTINUOUS
 10
6.8
 20
0.0
 11
6.8
 21
1.25
  0
LINE
  5
23C
100
AcDbEntity
  8
0
100
AcDbLine
 62
2
  6
CONTINUOUS
 10
6.4
 20
0.0
 11
6.4
 21
0.625
  0
LINE
  5
23D
100
AcDbEntity
  8
0
100
AcDbLine
 62
2
  6
CONTINUOUS
 10
5.9
 20
0.0
 11
5.9
 21
0.625
  0
LINE
  5
23E
100
AcDbEntity
  8
0
100
AcDbLine
 62
2
  6
CONTINUOUS
 10
5.2
 20
0.0
 11
5.2
 21
0.625
  0
LINE
  5
23F
100
AcDbEntity
  8
0
100
AcDbLine
 62
2
  6
CONTINUOUS
 10
4.1
 20
0.0
 11
4.1
 21
1.25
  0
LINE
  5
240
100
AcDbEntity
  8
0
100
AcDbLine
 62
2
  6
CONTINUOUS
 10
-0.0
 20
0.0
 11
-0.0
 21
1.25
  0
MTEXT
  5
241
100
AcDbEntity
  8
0
100
AcDbMText
 62
2
  6
CONTINUOUS
  7
STANDARD
 71
2
 72
1
 10
6.6
 20
0.325
 30
0.0
 11
1.0
 21
0.0
 31
0.0
 44
0.9
  1
2
 40
0.125
 41
0.2
  0
MTEXT
  5
242
100
AcDbEntity
  8
0
100
AcDbMText
 62
2
  6
CONTINUOUS
  7
STANDARD
 71
2
 72
1
 10
6.15
 20
0.325
 30
0.0
 11
1.0
 21
0.0
 31
0.0
 44
0.9
  1
C
 40
0.125
 41
0.2
  0
MTEXT
  5
243
100
AcDbEntity
  8
0
100
AcDbMText
 62
2
  6
CONTINUOUS
  7
STANDARD
 71
2
 72
1
 10
5.55
 20
0.325
 30
0.0
 11
1.0
 21
0.0
 31
0.0
 44
0.9
  1
1.000
 40
0.125
 41
1.0
  0
MTEXT
  5
244
100
AcDbEntity
  8
0
100
AcDbMText
 62
2
  6
CONTINUOUS
  7
STANDARD
 71
2
 72
1
 10
4.65
 20
0.325
 30
0.0
 11
1.0
 21
0.0
 31
0.0
 44
0.9
  1
Sep-06-19
 40
0.125
 41
1.8
  0
MTEXT
  5
245
100
AcDbEntity
  8
0
100
AcDbMText
 62
2
  6
CONTINUOUS
  7
STANDARD
 71
2
 72
1
 10
2.05
 20
0.4625
 30
0.0
 11
1.0
 21
0.0
 31
0.0
 44
0.9
  1
T-21A Line mount\P(See Technical Data for Body Features)
 40
0.125
 41
7.6
  0
MTEXT
  5
246
100
AcDbEntity
  8
0
100
AcDbMText
 62
2
  6
CONTINUOUS
  7
STANDARD
 71
1
 72
1
 10
6.45
 20
0.5625
 30
0.0
 11
1.0
 21
0.0
 31
0.0
 44
0.9
  1
SHEET
 40
0.06
 41
0.48
  0
MTEXT
  5
247
100
AcDbEntity
  8
0
100
AcDbMText
 62
2
  6
CONTINUOUS
  7
STANDARD
 71
1
 72
1
 10
5.95
 20
0.5625
 30
0.0
 11
1.0
 21
0.0
 31
0.0
 44
0.9
  1
DWG SIZE
 40
0.06
 41
0.768
  0
MTEXT
  5
248
100
AcDbEntity
  8
0
100
AcDbMText
 62
2
  6
CONTINUOUS
  7
STANDARD
 71
1
 72
1
 10
5.25
 20
0.5625
 30
0.0
 11
1.0
 21
0.0
 31
0.0
 44
0.9
  1
SCALE
 40
0.06
 41
0.48
  0
MTEXT
  5
249
100
AcDbEntity
  8
0
100
AcDbMText
 62
2
  6
CONTINUOUS
  7
STANDARD
 71
1
 72
1
 10
4.15
 20
0.5625
 30
0.0
 11
1.0
 21
0.0
 31
0.0
 44
0.9
  1
DATE
 40
0.06
 41
0.384
  0
MTEXT
  5
24A
100
AcDbEntity
  8
0
100
AcDbMText
 62
2
  6
CONTINUOUS
  7
STANDARD
 71
1
 72
1
 10
0.05
 20
0.5625
 30
0.0
 11
1.0
 21
0.0
 31
0.0
 44
0.9
  1
DESCRIPTION
 40
0.06
 41
1.056
  0
MTEXT
  5
24B
100
AcDbEntity
  8
0
100
AcDbMText
 62
2
  6
CONTINUOUS
  7
STANDARD
 71
2
 72
1
 10
5.45
 20
1.0375
 30
0.0
 11
1.0
 21
0.0
 31
0.0
 44
0.9
  1
ALL DIMENSIONS IN INCH\PVIEWS ARE THIRD ANGLE
 40
0.12
 41
4.224
  0
MTEXT
  5
24C
100
AcDbEntity
  8
0
100
AcDbMText
 62
2
  6
CONTINUOUS
  7
STANDARD
 71
2
 72
1
 10
2.05
 20
0.95
 30
0.0
 11
1.0
 21
0.0
 31
0.0
 44
0.9
  1
M4I
 40
0.125
 41
0.6
  0
MTEXT
  5
24D
100
AcDbEntity
  8
0
100
AcDbMText
 62
2
  6
CONTINUOUS
  7
STANDARD
 71
1
 72
1
 10
0.05
 20
1.1875
 30
0.0
 11
1.0
 21
0.0
 31
0.0
 44
0.9
  1
MODEL
 40
0.06
 41
0.48
  0
ENDBLK
  5
24E
100
AcDbEntity
  8
0
  6
BYBLOCK
 62
0
100
AcDbBlockEnd
  0
BLOCK
  5
24F
100
AcDbEntity
  8
0
100
AcDbBlockBegin
  2
*T2
 70
1
 10
0.0
 20
0.0
  3
*T2
  1

  0
LINE
  5
250
100
AcDbEntity
  8
0
100
AcDbLine
 62
2
  6
CONTINUOUS
 10
0.0
 20
0.0
 11
9.055
 21
0.0
  0
LINE
  5
251
100
AcDbEntity
  8
0
100
AcDbLine
 62
2
  6
CONTINUOUS
 10
0.0
 20
0.0
 11
0.0
 21
-2.594
  0
LINE
  5
252
100
AcDbEntity
  8
0
100
AcDbLine
 62
2
  6
CONTINUOUS
 10
0.0
 20
-0.344
 11
9.055
 21
-0.344
  0
LINE
  5
253
100
AcDbEntity
  8
0
100
AcDbLine
 62
2
  6
CONTINUOUS
 10
0.0
 20
-0.594
 11
9.055
 21
-0.594
  0
LINE
  5
254
100
AcDbEntity
  8
0
100
AcDbLine
 62
2
  6
CONTINUOUS
 10
0.0
 20
-0.844
 11
9.055
 21
-0.844
  0
LINE
  5
255
100
AcDbEntity
  8
0
100
AcDbLine
 62
2
  6
CONTINUOUS
 10
0.0
 20
-1.094
 11
9.055
 21
-1.094
  0
LINE
  5
256
100
AcDbEntity
  8
0
100
AcDbLine
 62
2
  6
CONTINUOUS
 10
0.0
 20
-1.344
 11
9.055
 21
-1.344
  0
LINE
  5
257
100
AcDbEntity
  8
0
100
AcDbLine
 62
2
  6
CONTINUOUS
 10
0.0
 20
-1.594
 11
9.055
 21
-1.594
  0
LINE
  5
258
100
AcDbEntity
  8
0
100
AcDbLine
 62
2
  6
CONTINUOUS
 10
0.0
 20
-1.844
 11
9.055
 21
-1.844
  0
LINE
  5
259
100
AcDbEntity
  8
0
100
AcDbLine
 62
2
  6
CONTINUOUS
 10
0.0
 20
-2.094
 11
9.055
 21
-2.094
  0
LINE
  5
25A
100
AcDbEntity
  8
0
100
AcDbLine
 62
2
  6
CONTINUOUS
 10
0.0
 20
-2.344
 11
9.055
 21
-2.344
  0
LINE
  5
25B
100
AcDbEntity
  8
0
100
AcDbLine
 62
2
  6
CONTINUOUS
 10
0.0
 20
-2.594
 11
9.055
 21
-2.594
  0
LINE
  5
25C
100
AcDbEntity
  8
0
100
AcDbLine
 62
2
  6
CONTINUOUS
 10
3.055
 20
0.0
 11
3.055
 21
-2.594
  0
LINE
  5
25D
100
AcDbEntity
  8
0
100
AcDbLine
 62
2
  6
CONTINUOUS
 10
9.055
 20
0.0
 11
9.055
 21
-2.594
  0
MTEXT
  5
25E
100
AcDbEntity
  8
0
100
AcDbMText
 62
2
  6
CONTINUOUS
  7
STANDARD
 71
2
 72
1
 10
1.5275
 20
-0.0995
 30
0.0
 11
1.0
 21
0.0
 31
0.0
 44
0.9
  1
Technical Data
 40
0.145
 41
3.248
  0
MTEXT
  5
25F
100
AcDbEntity
  8
0
100
AcDbMText
 62
2
  6
CONTINUOUS
  7
STANDARD
 71
2
 72
1
 10
4.555
 20
-0.0995
 30
0.0
 11
1.0
 21
0.0
 31
0.0
 44
0.9
  1
U.S. Units
 40
0.145
 41
2.32
  0
MTEXT
  5
260
100
AcDbEntity
  8
0
100
AcDbMText
 62
2
  6
CONTINUOUS
  7
STANDARD
 71
2
 72
1
 10
7.555
 20
-0.0995
 30
0.0
 11
1.0
 21
0.0
 31
0.0
 44
0.9
  1
Metric Units
 40
0.145
 41
2.784
  0
MTEXT
  5
261
100
AcDbEntity
  8
0
100
AcDbMText
 62
2
  6
CONTINUOUS
  7
STANDARD
 71
2
 72
1
 10
1.5275
 20
-0.4065
 30
0.0
 11
1.0
 21
0.0
 31
0.0
 44
0.9
  1
Cavity
 40
0.125
 41
1.2
  0
MTEXT
  5
262
100
AcDbEntity
  8
0
100
AcDbMText
 62
2
  6
CONTINUOUS
  7
STANDARD
 71
2
 72
1
 10
6.055
 20
-0.4065
 30
0.0
 11
1.0
 21
0.0
 31
0.0
 44
0.9
  1
T-21A
 40
0.125
 41
1.0
  0
MTEXT
  5
263
100
AcDbEntity
  8
0
100
AcDbMText
 62
2
  6
CONTINUOUS
  7
STANDARD
 71
2
 72
1
 10
1.5275
 20
-0.6565
 30
0.0
 11
1.0
 21
0.0
 31
0.0
 44
0.9
  1
Body Features
 40
0.125
 41
2.6
  0
MTEXT
  5
264
100
AcDbEntity
  8
0
100
AcDbMText
 62
2
  6
CONTINUOUS
  7
STANDARD
 71
2
 72
1
 10
6.055
 20
-0.6565
 30
0.0
 11
1.0
 21
0.0
 31
0.0
 44
0.9
  1
Ninety degree with reverse flow check - reducing
 40
0.125
 41
9.6
  0
MTEXT
  5
265
100
AcDbEntity
  8
0
100
AcDbMText
 62
2
  6
CONTINUOUS
  7
STANDARD
 71
2
 72
1
 10
1.5275
 20
-0.9065
 30
0.0
 11
1.0
 21
0.0
 31
0.0
 44
0.9
  1
Body Type
 40
0.125
 41
1.8
  0
MTEXT
  5
266
100
AcDbEntity
  8
0
100
AcDbMText
 62
2
  6
CONTINUOUS
  7
STANDARD
 71
2
 72
1
 10
6.055
 20
-0.9065
 30
0.0
 11
1.0
 21
0.0
 31
0.0
 44
0.9
  1
Line mount
 40
0.125
 41
2.0
  0
MTEXT
  5
267
100
AcDbEntity
  8
0
100
AcDbMText
 62
2
  6
CONTINUOUS
  7
STANDARD
 71
2
 72
1
 10
1.5275
 20
-1.1565
 30
0.0
 11
1.0
 21
0.0
 31
0.0
 44
0.9
  1
Interface
 40
0.125
 41
1.8
  0
MTEXT
  5
268
100
AcDbEntity
  8
0
100
AcDbMText
 62
2
  6
CONTINUOUS
  7
STANDARD
 71
2
 72
1
 10
6.055
 20
-1.1565
 30
0.0
 11
1.0
 21
0.0
 31
0.0
 44
0.9
  1
None
 40
0.125
 41
0.8
  0
MTEXT
  5
269
100
AcDbEntity
  8
0
100
AcDbMText
 62
2
  6
CONTINUOUS
  7
STANDARD
 71
2
 72
1
 10
1.5275
 20
-1.4065
 30
0.0
 11
1.0
 21
0.0
 31
0.0
 44
0.9
  1
Open Cavity Quantity
 40
0.125
 41
4.0
  0
MTEXT
  5
26A
100
AcDbEntity
  8
0
100
AcDbMText
 62
2
  6
CONTINUOUS
  7
STANDARD
 71
2
 72
1
 10
6.055
 20
-1.4065
 30
0.0
 11
1.0
 21
0.0
 31
0.0
 44
0.9
  1
1
 40
0.125
 41
0.2
  0
MTEXT
  5
26B
100
AcDbEntity
  8
0
100
AcDbMText
 62
2
  6
CONTINUOUS
  7
STANDARD
 71
2
 72
1
 10
1.5275
 20
-1.6565
 30
0.0
 11
1.0
 21
0.0
 31
0.0
 44
0.9
  1
Weight
 40
0.125
 41
1.2
  0
MTEXT
  5
26C
100
AcDbEntity
  8
0
100
AcDbMText
 62
2
  6
CONTINUOUS
  7
STANDARD
 71
2
 72
1
 10
4.555
 20
-1.6565
 30
0.0
 11
1.0
 21
0.0
 31
0.0
 44
0.9
  1
1.381 lb.
 40
0.125
 41
1.8
  0
MTEXT
  5
26D
100
AcDbEntity
  8
0
100
AcDbMText
 62
2
  6
CONTINUOUS
  7
STANDARD
 71
2
 72
1
 10
7.555
 20
-1.6565
 30
0.0
 11
1.0
 21
0.0
 31
0.0
 44
0.9
  1
0,627 kg.
 40
0.125
 41
1.8
  0
MTEXT
  5
26E
100
AcDbEntity
  8
0
100
AcDbMText
 62
2
  6
CONTINUOUS
  7
STANDARD
 71
2
 72
1
 10
1.5275
 20
-1.9065
 30
0.0
 11
1.0
 21
0.0
 31
0.0
 44
0.9
  1
Mounting Hole Diameter
 40
0.125
 41
4.4
  0
MTEXT
  5
26F
100
AcDbEntity
  8
0
100
AcDbMText
 62
2
  6
CONTINUOUS
  7
STANDARD
 71
2
 72
1
 10
4.555
 20
-1.9065
 30
0.0
 11
1.0
 21
0.0
 31
0.0
 44
0.9
  1
.34 in.
 40
0.125
 41
1.4
  0
MTEXT
  5
270
100
AcDbEntity
  8
0
100
AcDbMText
 62
2
  6
CONTINUOUS
  7
STANDARD
 71
2
 72
1
 10
7.555
 20
-1.9065
 30
0.0
 11
1.0
 21
0.0
 31
0.0
 44
0.9
  1
8.6 mm
 40
0.125
 41
1.2
  0
MTEXT
  5
271
100
AcDbEntity
  8
0
100
AcDbMText
 62
2
  6
CONTINUOUS
  7
STANDARD
 71
2
 72
1
 10
1.5275
 20
-2.1565
 30
0.0
 11
1.0
 21
0.0
 31
0.0
 44
0.9
  1
Mounting Hole Depth
 40
0.125
 41
3.8
  0
MTEXT
  5
272
100
AcDbEntity
  8
0
100
AcDbMText
 62
2
  6
CONTINUOUS
  7
STANDARD
 71
2
 72
1
 10
6.055
 20
-2.1565
 30
0.0
 11
1.0
 21
0.0
 31
0.0
 44
0.9
  1
Through
 40
0.125
 41
1.4
  0
MTEXT
  5
273
100
AcDbEntity
  8
0
100
AcDbMText
 62
2
  6
CONTINUOUS
  7
STANDARD
 71
2
 72
1
 10
1.5275
 20
-2.4065
 30
0.0
 11
1.0
 21
0.0
 31
0.0
 44
0.9
  1
Mounting Hole Quantity
 40
0.125
 41
4.4
  0
MTEXT
  5
274
100
AcDbEntity
  8
0
100
AcDbMText
 62
2
  6
CONTINUOUS
  7
STANDARD
 71
2
 72
1
 10
6.055
 20
-2.4065
 30
0.0
 11
1.0
 21
0.0
 31
0.0
 44
0.9
  1
2
 40
0.125
 41
0.2
  0
ENDBLK
  5
275
100
AcDbEntity
  8
0
  6
BYBLOCK
 62
0
100
AcDbBlockEnd
  0
BLOCK
  5
276
100
AcDbEntity
  8
0
100
AcDbBlockBegin
  2
*T3
 70
1
 10
0.0
 20
0.0
  3
*T3
  1

  0
LINE
  5
277
100
AcDbEntity
  8
0
100
AcDbLine
 62
2
  6
CONTINUOUS
 10
0.0
 20
0.0
 11
4.6
 21
0.0
  0
LINE
  5
278
100
AcDbEntity
  8
0
100
AcDbLine
 62
2
  6
CONTINUOUS
 10
0.0
 20
0.0
 11
0.0
 21
-1.68775
  0
LINE
  5
279
100
AcDbEntity
  8
0
100
AcDbLine
 62
2
  6
CONTINUOUS
 10
0.0
 20
-0.34375
 11
4.6
 21
-0.34375
  0
LINE
  5
27A
100
AcDbEntity
  8
0
100
AcDbLine
 62
2
  6
CONTINUOUS
 10
0.0
 20
-0.68775
 11
4.6
 21
-0.68775
  0
LINE
  5
27B
100
AcDbEntity
  8
0
100
AcDbLine
 62
2
  6
CONTINUOUS
 10
0.0
 20
-0.93775
 11
4.6
 21
-0.93775
  0
LINE
  5
27C
100
AcDbEntity
  8
0
100
AcDbLine
 62
2
  6
CONTINUOUS
 10
0.0
 20
-1.18775
 11
4.6
 21
-1.18775
  0
LINE
  5
27D
100
AcDbEntity
  8
0
100
AcDbLine
 62
2
  6
CONTINUOUS
 10
0.0
 20
-1.43775
 11
4.6
 21
-1.43775
  0
LINE
  5
27E
100
AcDbEntity
  8
0
100
AcDbLine
 62
2
  6
CONTINUOUS
 10
0.0
 20
-1.68775
 11
4.6
 21
-1.68775
  0
LINE
  5
27F
100
AcDbEntity
  8
0
100
AcDbLine
 62
2
  6
CONTINUOUS
 10
1.3
 20
-0.34375
 11
1.3
 21
-1.68775
  0
LINE
  5
280
100
AcDbEntity
  8
0
100
AcDbLine
 62
2
  6
CONTINUOUS
 10
3.3
 20
-0.34375
 11
3.3
 21
-1.68775
  0
LINE
  5
281
100
AcDbEntity
  8
0
100
AcDbLine
 62
2
  6
CONTINUOUS
 10
4.6
 20
0.0
 11
4.6
 21
-1.68775
  0
MTEXT
  5
282
100
AcDbEntity
  8
0
100
AcDbMText
 62
2
  6
CONTINUOUS
  7
STANDARD
 71
2
 72
1
 10
2.3
 20
-0.099375
 30
0.0
 11
1.0
 21
0.0
 31
0.0
 44
0.9
  1
Port Headings
 40
0.145
 41
3.016
  0
MTEXT
  5
283
100
AcDbEntity
  8
0
100
AcDbMText
 62
2
  6
CONTINUOUS
  7
STANDARD
 71
2
 72
1
 10
0.65
 20
-0.44325
 30
0.0
 11
1.0
 21
0.0
 31
0.0
 44
0.9
  1
Product
 40
0.145
 41
1.624
  0
MTEXT
  5
284
100
AcDbEntity
  8
0
100
AcDbMText
 62
2
  6
CONTINUOUS
  7
STANDARD
 71
2
 72
1
 10
2.3
 20
-0.44325
 30
0.0
 11
1.0
 21
0.0
 31
0.0
 44
0.9
  1
Port
 40
0.145
 41
0.928
  0
MTEXT
  5
285
100
AcDbEntity
  8
0
100
AcDbMText
 62
2
  6
CONTINUOUS
  7
STANDARD
 71
2
 72
1
 10
3.95
 20
-0.44325
 30
0.0
 11
1.0
 21
0.0
 31
0.0
 44
0.9
  1
Size
 40
0.145
 41
0.928
  0
MTEXT
  5
286
100
AcDbEntity
  8
0
100
AcDbMText
 62
2
  6
CONTINUOUS
  7
STANDARD
 71
2
 72
1
 10
0.65
 20
-0.75025
 30
0.0
 11
1.0
 21
0.0
 31
0.0
 44
0.9
  1
M4I
 40
0.125
 41
0.6
  0
MTEXT
  5
287
100
AcDbEntity
  8
0
100
AcDbMText
 62
2
  6
CONTINUOUS
  7
STANDARD
 71
2
 72
1
 10
2.3
 20
-0.75025
 30
0.0
 11
1.0
 21
0.0
 31
0.0
 44
0.9
  1
Ports 1 &  2
 40
0.125
 41
2.4
  0
MTEXT
  5
288
100
AcDbEntity
  8
0
100
AcDbMText
 62
2
  6
CONTINUOUS
  7
STANDARD
 71
2
 72
1
 10
3.95
 20
-0.75025
 30
0.0
 11
1.0
 21
0.0
 31
0.0
 44
0.9
  1
SAE 6
 40
0.125
 41
1.0
  0
MTEXT
  5
289
100
AcDbEntity
  8
0
100
AcDbMText
 62
2
  6
CONTINUOUS
  7
STANDARD
 71
2
 72
1
 10
0.65
 20
-1.00025
 30
0.0
 11
1.0
 21
0.0
 31
0.0
 44
0.9
  1
M4I
 40
0.125
 41
0.6
  0
MTEXT
  5
28A
100
AcDbEntity
  8
0
100
AcDbMText
 62
2
  6
CONTINUOUS
  7
STANDARD
 71
2
 72
1
 10
2.3
 20
-1.00025
 30
0.0
 11
1.0
 21
0.0
 31
0.0
 44
0.9
  1
Port 3
 40
0.125
 41
1.2
  0
MTEXT
  5
28B
100
AcDbEntity
  8
0
100
AcDbMText
 62
2
  6
CONTINUOUS
  7
STANDARD
 71
2
 72
1
 10
3.95
 20
-1.00025
 30
0.0
 11
1.0
 21
0.0
 31
0.0
 44
0.9
  1
SAE 6
 40
0.125
 41
1.0
  0
MTEXT
  5
28C
100
AcDbEntity
  8
0
100
AcDbMText
 62
2
  6
CONTINUOUS
  7
STANDARD
 71
2
 72
1
 10
0.65
 20
-1.25025
 30
0.0
 11
1.0
 21
0.0
 31
0.0
 44
0.9
  1
M4I
 40
0.125
 41
0.6
  0
MTEXT
  5
28D
100
AcDbEntity
  8
0
100
AcDbMText
 62
2
  6
CONTINUOUS
  7
STANDARD
 71
2
 72
1
 10
2.3
 20
-1.25025
 30
0.0
 11
1.0
 21
0.0
 31
0.0
 44
0.9
  1
Port 4
 40
0.125
 41
1.2
  0
MTEXT
  5
28E
100
AcDbEntity
  8
0
100
AcDbMText
 62
2
  6
CONTINUOUS
  7
STANDARD
 71
2
 72
1
 10
3.95
 20
-1.25025
 30
0.0
 11
1.0
 21
0.0
 31
0.0
 44
0.9
  1
SAE 6
 40
0.125
 41
1.0
  0
MTEXT
  5
28F
100
AcDbEntity
  8
0
100
AcDbMText
 62
2
  6
CONTINUOUS
  7
STANDARD
 71
2
 72
1
 10
0.65
 20
-1.50025
 30
0.0
 11
1.0
 21
0.0
 31
0.0
 44
0.9
  1
M4I
 40
0.125
 41
0.6
  0
MTEXT
  5
290
100
AcDbEntity
  8
0
100
AcDbMText
 62
2
  6
CONTINUOUS
  7
STANDARD
 71
2
 72
1
 10
2.3
 20
-1.50025
 30
0.0
 11
1.0
 21
0.0
 31
0.0
 44
0.9
  1
Gage Port
 40
0.125
 41
1.8
  0
MTEXT
  5
291
100
AcDbEntity
  8
0
100
AcDbMText
 62
2
  6
CONTINUOUS
  7
STANDARD
 71
2
 72
1
 10
3.95
 20
-1.50025
 30
0.0
 11
1.0
 21
0.0
 31
0.0
 44
0.9
  1
1/4" NPTF
 40
0.125
 41
1.8
  0
ENDBLK
  5
292
100
AcDbEntity
  8
0
  6
BYBLOCK
 62
0
100
AcDbBlockEnd
  0
ENDSEC
  0
SECTION
  2
ENTITIES
  0
IMAGE
  5
293
100
AcDbEntity
  8
0
100
AcDbRasterImage
 62
7
  6
CONTINUOUS
 10
19.2297077316
 20
0.3094318264
 30
0.0
 11
0.0066666667
 21
0.0
 31
0.0
 12
0.0
 22
0.0066666667
 32
0.0
 13
369.0
 23
92.0
340
       39F
 70
9
280
0
281
50
282
50
283
0
360
       399
 71
1
 91
2
 14
-0.5
 24
-0.5
 14
368.5
 24
91.5
  0
INSERT
  5
294
100
AcDbEntity
  8
0
100
AcDbBlockReference
 62
2
  6
CONTINUOUS
  2
SUN_FIRST_THIRD_ANGLE_BL0
 10
20.4816717061
 20
1.2289683772
  0
ACAD_TABLE
  5
295
100
AcDbEntity
  8
0
 62
2
  6
CONTINUOUS
100
AcDbBlockReference
  2
*T1
 10
12.42375
 20
0.30125
 30
0.0
100
AcDbTable
342
       3A1
343
20F
 11
1.0
 21
0.0
 31
0.0
 90
6
 91
4
 92
6
 93
20
 94
0
 95
0
 96
0
 70
1
 41
0.0
141
0.525
141
0.1
141
0.525
141
0.1
142
4.1
142
1.1
142
0.7
142
0.5
142
0.4
142
2.475
171
1
172
0
173
0
174
0
175
1
176
1
 91
33
178
0
145
0.0
301
CELL_VALUE
 90
4
  1
T-21A Line mount\P(See Technical Data for Body Features)
304
ACVALUE_END
170
2
140
0.125
171
1
172
0
173
0
174
0
175
1
176
1
 91
33
178
0
145
0.0
301
CELL_VALUE
 90
4
  1
Sep-06-19
304
ACVALUE_END
170
5
140
0.125
171
1
172
0
173
0
174
0
175
1
176
1
 91
33
178
0
145
0.0
301
CELL_VALUE
 90
4
  1
1.000
304
ACVALUE_END
170
5
140
0.125
171
1
172
0
173
0
174
0
175
1
176
1
 91
33
178
0
145
0.0
301
CELL_VALUE
 90
4
  1
C
304
ACVALUE_END
170
5
140
0.125
171
1
172
0
173
0
174
0
175
1
176
1
 91
33
178
0
145
0.0
301
CELL_VALUE
 90
4
  1
2
304
ACVALUE_END
170
5
140
0.125
171
1
172
0
173
0
174
0
175
1
176
1
 91
33
178
0
145
0.0
301
CELL_VALUE
 90
4
  1
 
304
ACVALUE_END
170
1
140
0.125
171
1
172
0
173
0
174
0
175
1
176
1
 91
33
178
0
145
0.0
301
CELL_VALUE
 90
4
  1
DESCRIPTION
304
ACVALUE_END
170
1
140
0.06
171
1
172
0
173
0
174
0
175
1
176
1
 91
33
178
0
145
0.0
301
CELL_VALUE
 90
4
  1
DATE
304
ACVALUE_END
170
1
140
0.06
171
1
172
0
173
0
174
0
175
1
176
1
 91
33
178
0
145
0.0
301
CELL_VALUE
 90
4
  1
SCALE
304
ACVALUE_END
170
1
140
0.06
171
1
172
0
173
0
174
0
175
1
176
1
 91
33
178
0
145
0.0
301
CELL_VALUE
 90
4
  1
DWG SIZE
304
ACVALUE_END
170
1
140
0.06
171
1
172
0
173
0
174
0
175
1
176
1
 91
33
178
0
145
0.0
301
CELL_VALUE
 90
4
  1
SHEET
304
ACVALUE_END
170
1
140
0.06
171
1
172
0
173
0
174
0
175
1
176
1
 91
33
178
0
145
0.0
301
CELL_VALUE
 90
4
  1
 
304
ACVALUE_END
170
1
140
0.125
171
1
172
0
173
0
174
0
175
1
176
1
 91
33
178
0
145
0.0
301
CELL_VALUE
 90
4
  1
M4I
304
ACVALUE_END
170
5
140
0.125
171
1
172
0
173
0
174
0
175
4
176
1
 91
33
178
0
145
0.0
301
CELL_VALUE
 90
4
  1
ALL DIMENSIONS IN INCH\PVIEWS ARE THIRD ANGLE
304
ACVALUE_END
170
5
140
0.12
171
1
172
0
173
1
174
0
175
1
176
1
 91
1
178
0
145
0.0
170
1
171
1
172
0
173
1
174
0
175
1
176
1
 91
1
178
0
145
0.0
170
1
171
1
172
0
173
1
174
0
175
1
176
1
 91
1
178
0
145
0.0
170
5
171
1
172
0
173
0
174
0
175
1
176
1
 91
33
178
0
145
0.0
301
CELL_VALUE
 90
4
  1
 
304
ACVALUE_END
170
1
140
0.125
171
1
172
0
173
0
174
0
175
1
176
1
 91
33
178
0
145
0.0
301
CELL_VALUE
 90
4
  1
MODEL
304
ACVALUE_END
170
1
140
0.06
171
1
172
0
173
0
174
0
175
1
176
1
 91
33
178
0
145
0.0
301
CELL_VALUE
 90
4
  1
 
304
ACVALUE_END
170
1
140
0.125
171
1
172
0
173
0
174
0
175
1
176
1
 91
33
178
0
145
0.0
301
CELL_VALUE
 90
4
  1
 
304
ACVALUE_END
170
1
140
0.125
171
1
172
0
173
0
174
0
175
1
176
1
 91
33
178
0
145
0.0
301
CELL_VALUE
 90
4
  1
 
304
ACVALUE_END
170
1
140
0.125
171
1
172
0
173
0
174
0
175
1
176
1
 91
33
178
0
145
0.0
301
CELL_VALUE
 90
4
  1
 
304
ACVALUE_END
170
1
140
0.125
171
1
172
0
173
0
174
0
175
1
176
1
 91
33
178
0
145
0.0
301
CELL_VALUE
 90
4
  1
 
304
ACVALUE_END
170
1
140
0.125
  0
ACAD_TABLE
  5
296
100
AcDbEntity
  8
0
 62
2
  6
CONTINUOUS
100
AcDbBlockReference
  2
*T2
 10
12.4237499994
 20
16.47875
 30
0.0
100
AcDbTable
342
       3A0
343
210
 11
1.0
 21
0.0
 31
0.0
 90
22
 91
10
 92
3
 93
16
 94
0
 95
0
 96
0
 41
0.028
141
0.344
141
0.25
141
0.25
141
0.25
141
0.25
141
0.25
141
0.25
141
0.25
141
0.25
141
0.25
142
3.055
142
3.0
142
3.0
171
1
172
0
173
0
174
0
175
1
176
1
 91
33
178
0
145
0.0
301
CELL_VALUE
 90
4
  1
Technical Data
304
ACVALUE_END
170
5
140
0.145
171
1
172
0
173
0
174
0
175
1
176
1
 91
33
178
0
145
0.0
301
CELL_VALUE
 90
4
  1
U.S. Units
304
ACVALUE_END
170
5
140
0.145
171
1
172
0
173
0
174
0
175
1
176
1
 91
33
178
0
145
0.0
301
CELL_VALUE
 90
4
  1
Metric Units
304
ACVALUE_END
170
5
140
0.145
171
1
172
0
173
0
174
0
175
1
176
1
 91
33
178
0
145
0.0
301
CELL_VALUE
 90
4
  1
Cavity
304
ACVALUE_END
170
5
140
0.125
171
1
172
0
173
0
174
0
175
2
176
1
 91
33
178
0
145
0.0
301
CELL_VALUE
 90
4
  1
T-21A
304
ACVALUE_END
170
5
140
0.125
171
1
172
0
173
1
174
0
175
1
176
1
 91
1
178
0
145
0.0
170
1
171
1
172
0
173
0
174
0
175
1
176
1
 91
33
178
0
145
0.0
301
CELL_VALUE
 90
4
  1
Body Features
304
ACVALUE_END
170
5
140
0.125
171
1
172
0
173
0
174
0
175
2
176
1
 91
33
178
0
145
0.0
301
CELL_VALUE
 90
4
  1
Ninety degree with reverse flow check - reducing
304
ACVALUE_END
170
5
140
0.125
171
1
172
0
173
1
174
0
175
1
176
1
 91
1
178
0
145
0.0
170
1
171
1
172
0
173
0
174
0
175
1
176
1
 91
33
178
0
145
0.0
301
CELL_VALUE
 90
4
  1
Body Type
304
ACVALUE_END
170
5
140
0.125
171
1
172
0
173
0
174
0
175
2
176
1
 91
33
178
0
145
0.0
301
CELL_VALUE
 90
4
  1
Line mount
304
ACVALUE_END
170
5
140
0.125
171
1
172
0
173
1
174
0
175
1
176
1
 91
1
178
0
145
0.0
170
1
171
1
172
0
173
0
174
0
175
1
176
1
 91
33
178
0
145
0.0
301
CELL_VALUE
 90
4
  1
Interface
304
ACVALUE_END
170
5
140
0.125
171
1
172
0
173
0
174
0
175
2
176
1
 91
33
178
0
145
0.0
301
CELL_VALUE
 90
4
  1
None
304
ACVALUE_END
170
5
140
0.125
171
1
172
0
173
1
174
0
175
1
176
1
 91
1
178
0
145
0.0
170
1
171
1
172
0
173
0
174
0
175
1
176
1
 91
33
178
0
145
0.0
301
CELL_VALUE
 90
4
  1
Open Cavity Quantity
304
ACVALUE_END
170
5
140
0.125
171
1
172
0
173
0
174
0
175
2
176
1
 91
33
178
0
145
0.0
301
CELL_VALUE
 90
4
  1
1
304
ACVALUE_END
170
5
140
0.125
171
1
172
0
173
1
174
0
175
1
176
1
 91
1
178
0
145
0.0
170
1
171
1
172
0
173
0
174
0
175
1
176
1
 91
33
178
0
145
0.0
301
CELL_VALUE
 90
4
  1
Weight
304
ACVALUE_END
170
5
140
0.125
171
1
172
0
173
0
174
0
175
1
176
1
 91
33
178
0
145
0.0
301
CELL_VALUE
 90
4
  1
1.381 lb.
304
ACVALUE_END
170
5
140
0.125
171
1
172
0
173
0
174
0
175
1
176
1
 91
33
178
0
145
0.0
301
CELL_VALUE
 90
4
  1
0,627 kg.
304
ACVALUE_END
170
5
140
0.125
171
1
172
0
173
0
174
0
175
1
176
1
 91
33
178
0
145
0.0
301
CELL_VALUE
 90
4
  1
Mounting Hole Diameter
304
ACVALUE_END
170
5
140
0.125
171
1
172
0
173
0
174
0
175
1
176
1
 91
33
178
0
145
0.0
301
CELL_VALUE
 90
4
  1
.34 in.
304
ACVALUE_END
170
5
140
0.125
171
1
172
0
173
0
174
0
175
1
176
1
 91
33
178
0
145
0.0
301
CELL_VALUE
 90
4
  1
8.6 mm
304
ACVALUE_END
170
5
140
0.125
171
1
172
0
173
0
174
0
175
1
176
1
 91
33
178
0
145
0.0
301
CELL_VALUE
 90
4
  1
Mounting Hole Depth
304
ACVALUE_END
170
5
140
0.125
171
1
172
0
173
0
174
0
175
2
176
1
 91
33
178
0
145
0.0
301
CELL_VALUE
 90
4
  1
Through
304
ACVALUE_END
170
5
140
0.125
171
1
172
0
173
1
174
0
175
1
176
1
 91
1
178
0
145
0.0
170
1
171
1
172
0
173
0
174
0
175
1
176
1
 91
33
178
0
145
0.0
301
CELL_VALUE
 90
4
  1
Mounting Hole Quantity
304
ACVALUE_END
170
5
140
0.125
171
1
172
0
173
0
174
0
175
2
176
1
 91
33
178
0
145
0.0
301
CELL_VALUE
 90
4
  1
2
304
ACVALUE_END
170
5
140
0.125
171
1
172
0
173
1
174
0
175
1
176
1
 91
1
178
0
145
0.0
170
1
  0
ACAD_TABLE
  5
297
100
AcDbEntity
  8
0
 62
2
  6
CONTINUOUS
100
AcDbBlockReference
  2
*T3
 10
0.52125
 20
2.209
 30
0.0
100
AcDbTable
342
       3A0
343
211
 11
1.0
 21
0.0
 31
0.0
 90
22
 91
6
 92
3
 93
16
 94
0
 95
0
 96
0
 41
0.05
141
0.34375
141
0.344
141
0.25
141
0.25
141
0.25
141
0.25
142
1.3
142
2.0
142
1.3
171
1
172
0
173
0
174
0
175
3
176
1
 91
33
178
0
145
0.0
301
CELL_VALUE
 90
4
  1
Port Headings
304
ACVALUE_END
170
5
140
0.145
171
1
172
0
173
1
174
0
175
1
176
1
 91
1
178
0
145
0.0
170
1
171
1
172
0
173
1
174
0
175
1
176
1
 91
1
178
0
145
0.0
170
1
171
1
172
0
173
0
174
0
175
1
176
1
 91
33
178
0
145
0.0
301
CELL_VALUE
 90
4
  1
Product
304
ACVALUE_END
170
5
140
0.145
171
1
172
0
173
0
174
0
175
1
176
1
 91
33
178
0
145
0.0
301
CELL_VALUE
 90
4
  1
Port
304
ACVALUE_END
170
5
140
0.145
171
1
172
0
173
0
174
0
175
1
176
1
 91
33
178
0
145
0.0
301
CELL_VALUE
 90
4
  1
Size
304
ACVALUE_END
170
5
140
0.145
171
1
172
0
173
0
174
0
175
1
176
1
 91
33
178
0
145
0.0
301
CELL_VALUE
 90
4
  1
M4I
304
ACVALUE_END
170
5
140
0.125
171
1
172
0
173
0
174
0
175
1
176
1
 91
33
178
0
145
0.0
301
CELL_VALUE
 90
4
  1
Ports 1 &  2
304
ACVALUE_END
170
5
140
0.125
171
1
172
0
173
0
174
0
175
1
176
1
 91
33
178
0
145
0.0
301
CELL_VALUE
 90
4
  1
SAE 6
304
ACVALUE_END
170
5
140
0.125
171
1
172
0
173
0
174
0
175
1
176
1
 91
33
178
0
145
0.0
301
CELL_VALUE
 90
4
  1
M4I
304
ACVALUE_END
170
5
140
0.125
171
1
172
0
173
0
174
0
175
1
176
1
 91
33
178
0
145
0.0
301
CELL_VALUE
 90
4
  1
Port 3
304
ACVALUE_END
170
5
140
0.125
171
1
172
0
173
0
174
0
175
1
176
1
 91
33
178
0
145
0.0
301
CELL_VALUE
 90
4
  1
SAE 6
304
ACVALUE_END
170
5
140
0.125
171
1
172
0
173
0
174
0
175
1
176
1
 91
33
178
0
145
0.0
301
CELL_VALUE
 90
4
  1
M4I
304
ACVALUE_END
170
5
140
0.125
171
1
172
0
173
0
174
0
175
1
176
1
 91
33
178
0
145
0.0
301
CELL_VALUE
 90
4
  1
Port 4
304
ACVALUE_END
170
5
140
0.125
171
1
172
0
173
0
174
0
175
1
176
1
 91
33
178
0
145
0.0
301
CELL_VALUE
 90
4
  1
SAE 6
304
ACVALUE_END
170
5
140
0.125
171
1
172
0
173
0
174
0
175
1
176
1
 91
33
178
0
145
0.0
301
CELL_VALUE
 90
4
  1
M4I
304
ACVALUE_END
170
5
140
0.125
171
1
172
0
173
0
174
0
175
1
176
1
 91
33
178
0
145
0.0
301
CELL_VALUE
 90
4
  1
Gage Port
304
ACVALUE_END
170
5
140
0.125
171
1
172
0
173
0
174
0
175
1
176
1
 91
33
178
0
145
0.0
301
CELL_VALUE
 90
4
  1
1/4" NPTF
304
ACVALUE_END
170
5
140
0.125
  0
MTEXT
  5
298
100
AcDbEntity
  8
0
100
AcDbMText
 62
2
  6
CONTINUOUS
  7
STANDARD
 71
1
 72
1
 10
0.52125
 20
5.75995
 30
0.0
 11
1.0
 21
0.0
 31
0.0
 44
0.6
  3
Notes\P \P1. Important: Carefully consider\P   the maximum system pressure. The\P   pressure rating of the manifold is\P   dependent on the manifold material,\P   with the port type/size a secondary\P   consideration. Manifolds\P   constructed of alu
  1
minum are not\P   rated for pressures higher than\P   3000 psi (210 bar), regardless of\P   the port type/size specified.
 40
0.1
 41
3.04
  0
LINE
  5
299
100
AcDbEntity
  8
0
100
AcDbLine
 62
7
  6
CONTINUOUS
 10
0.30125
 20
0.30125
 11
0.30125
 21
16.69875
  0
LINE
  5
29A
100
AcDbEntity
  8
0
100
AcDbLine
 62
7
  6
CONTINUOUS
 10
0.30125
 20
0.30125
 11
21.69875
 21
0.30125
  0
LINE
  5
29B
100
AcDbEntity
  8
0
100
AcDbLine
 62
7
  6
CONTINUOUS
 10
0.30125
 20
16.69875
 11
21.69875
 21
16.69875
  0
LINE
  5
29C
100
AcDbEntity
  8
0
100
AcDbLine
 62
7
  6
CONTINUOUS
 10
21.69875
 20
0.30125
 11
21.69875
 21
16.69875
  0
LINE
  5
29D
100
AcDbEntity
  8
0
100
AcDbLine
 62
7
  6
CONTINUOUS
 10
9.7128729444
 20
10.9840450073
 11
9.389349405
 21
10.6715452467
  0
LINE
  5
29E
100
AcDbEntity
  8
0
100
AcDbLine
 62
7
  6
CONTINUOUS
 10
11.2065145113
 20
6.0836455976
 11
11.2228173394
 21
6.0755923126
  0
LINE
  5
29F
100
AcDbEntity
  8
0
100
AcDbLine
 62
4
  6
CONTINUOUS
 10
9.543897453
 20
9.6610940118
 11
9.536653009
 21
9.6519371594
  0
LINE
  5
2A0
100
AcDbEntity
  8
0
100
AcDbLine
 62
4
  6
CONTINUOUS
 10
9.5511418969
 20
9.6026360562
 11
9.536653009
 21
9.584322347
  0
LINE
  5
2A1
100
AcDbEntity
  8
0
100
AcDbLine
 62
4
  6
CONTINUOUS
 10
9.4931863452
 20
9.6839293586
 11
9.5076752332
 21
9.6925838071
  0
LINE
  5
2A2
100
AcDbEntity
  8
0
100
AcDbLine
 62
7
  6
CONTINUOUS
 10
9.389349405
 20
6.6871009772
 11
12.2871270556
 21
6.4861394146
  0
LINE
  5
2A3
100
AcDbEntity
  8
0
100
AcDbLine
 62
7
  6
CONTINUOUS
 10
9.389349405
 20
6.6871009772
 11
9.389349405
 21
10.6715452467
  0
LINE
  5
2A4
100
AcDbEntity
  8
0
100
AcDbLine
 62
4
  6
CONTINUOUS
 10
9.536653009
 20
9.6519371594
 11
9.5221641211
 21
9.643282704
  0
LINE
  5
2A5
100
AcDbEntity
  8
0
100
AcDbLine
 62
4
  6
CONTINUOUS
 10
9.536653009
 20
9.584322347
 11
9.5221641211
 21
9.5756678959
  0
LINE
  5
2A6
100
AcDbEntity
  8
0
100
AcDbLine
 62
4
  6
CONTINUOUS
 10
9.543897453
 20
9.6707532681
 11
9.543897453
 21
9.6610940118
  0
LINE
  5
2A7
100
AcDbEntity
  8
0
100
AcDbLine
 62
4
  6
CONTINUOUS
 10
9.543897453
 20
7.6712867164
 11
9.543897453
 21
7.555375613
  0
LINE
  5
2A8
100
AcDbEntity
  8
0
100
AcDbLine
 62
4
  6
CONTINUOUS
 10
9.5511418969
 20
9.612295316
 11
9.5511418969
 21
9.6026360562
  0
LINE
  5
2A9
100
AcDbEntity
  8
0
100
AcDbLine
 62
4
  6
CONTINUOUS
 10
10.2959398651
 20
9.0804402477
 11
10.3124985949
 21
9.095850624
  0
LINE
  5
2AA
100
AcDbEntity
  8
0
100
AcDbLine
 62
4
  6
CONTINUOUS
 10
10.3373366887
 20
8.9782169929
 11
10.3538954168
 21
8.993627371
  0
LINE
  5
2AB
100
AcDbEntity
  8
0
100
AcDbLine
 62
4
  6
CONTINUOUS
 10
10.2959398651
 20
9.0638815196
 11
10.2959398651
 21
9.0804402477
  0
LINE
  5
2AC
100
AcDbEntity
  8
0
100
AcDbLine
 62
4
  6
CONTINUOUS
 10
10.3538954168
 20
8.993627371
 11
10.3538954168
 21
9.0101861008
  0
LINE
  5
2AD
100
AcDbEntity
  8
0
100
AcDbLine
 62
4
  6
CONTINUOUS
 10
10.387012873
 20
9.0906830412
 11
10.387012873
 21
8.9913306676
  0
LINE
  5
2AE
100
AcDbEntity
  8
0
100
AcDbLine
 62
4
  6
CONTINUOUS
 10
10.4228901335
 20
8.3811372138
 11
10.4228901335
 21
8.4970483173
  0
LINE
  5
2AF
100
AcDbEntity
  8
0
100
AcDbLine
 62
4
  6
CONTINUOUS
 10
10.4284097035
 20
8.9719010578
 11
10.4449684247
 21
8.9873114364
  0
LINE
  5
2B0
100
AcDbEntity
  8
0
100
AcDbLine
 62
4
  6
CONTINUOUS
 10
11.193215945
 20
7.7694097622
 11
11.1787270571
 21
7.77041457
  0
LINE
  5
2B1
100
AcDbEntity
  8
0
100
AcDbLine
 62
4
  6
CONTINUOUS
 10
11.185971501
 20
7.8278677178
 11
11.2149492769
 21
7.8258581022
  0
LINE
  5
2B2
100
AcDbEntity
  8
0
100
AcDbLine
 62
4
  6
CONTINUOUS
 10
11.1787270571
 20
7.8863256734
 11
11.193215945
 21
7.8853208656
  0
LINE
  5
2B3
100
AcDbEntity
  8
0
100
AcDbLine
 62
4
  6
CONTINUOUS
 10
9.4931863452
 20
9.5873367704
 11
9.4859419013
 21
9.5974984332
  0
LINE
  5
2B4
100
AcDbEntity
  8
0
100
AcDbLine
 62
4
  6
CONTINUOUS
 10
10.4449684247
 20
8.9873114364
 11
10.4449684247
 21
9.0866638101
  0
LINE
  5
2B5
100
AcDbEntity
  8
0
100
AcDbLine
 62
4
  6
CONTINUOUS
 10
10.4780858808
 20
8.9684560032
 11
10.4780858808
 21
9.0843671067
  0
LINE
  5
2B6
100
AcDbEntity
  8
0
100
AcDbLine
 62
4
  6
CONTINUOUS
 10
10.4808456783
 20
8.4764703585
 11
10.4808456783
 21
8.3936767129
  0
LINE
  5
2B7
100
AcDbEntity
  8
0
100
AcDbLine
 62
4
  6
CONTINUOUS
 10
10.5360414326
 20
8.9644367721
 11
10.5360414326
 21
9.0803478755
  0
LINE
  5
2B8
100
AcDbEntity
  8
0
100
AcDbLine
 62
4
  6
CONTINUOUS
 10
10.5277620779
 20
8.3738643198
 11
10.5608795341
 21
8.4874787198
  0
LINE
  5
2B9
100
AcDbEntity
  8
0
100
AcDbLine
 62
7
  6
CONTINUOUS
 10
12.2871270556
 20
10.4705836841
 11
12.610650595
 21
10.7830834447
  0
LINE
  5
2BA
100
AcDbEntity
  8
0
100
AcDbLine
 62
4
  6
CONTINUOUS
 10
10.8147800529
 20
9.0196204629
 11
10.8313387741
 21
9.0267514792
  0
LINE
  5
2BB
100
AcDbEntity
  8
0
100
AcDbLine
 62
4
  6
CONTINUOUS
 10
10.9720879869
 20
8.9673143004
 11
10.988646708
 21
8.9744453133
  0
LINE
  5
2BC
100
AcDbEntity
  8
0
100
AcDbLine
 62
4
  6
CONTINUOUS
 10
10.3566552143
 20
8.4354068087
 11
10.4008118259
 21
8.4102662315
  0
LINE
  5
2BD
100
AcDbEntity
  8
0
100
AcDbLine
 62
4
  6
CONTINUOUS
 10
11.1787270571
 20
7.77041457
 11
11.1642381691
 21
7.7810786366
  0
LINE
  5
2BE
100
AcDbEntity
  8
0
100
AcDbLine
 62
4
  6
CONTINUOUS
 10
11.193215945
 20
7.8853208656
 11
11.2077048329
 21
7.8746568015
  0
LINE
  5
2BF
100
AcDbEntity
  8
0
100
AcDbLine
 62
4
  6
CONTINUOUS
 10
10.4642869502
 20
8.4941774383
 11
10.4808456783
 21
8.4764703585
  0
LINE
  5
2C0
100
AcDbEntity
  8
0
100
AcDbLine
 62
4
  6
CONTINUOUS
 10
9.536653009
 20
9.6326186398
 11
9.5511418969
 21
9.612295316
  0
LINE
  5
2C1
100
AcDbEntity
  8
0
100
AcDbLine
 62
4
  6
CONTINUOUS
 10
9.536653009
 20
9.6809149352
 11
9.543897453
 21
9.6707532681
  0
LINE
  5
2C2
100
AcDbEntity
  8
0
100
AcDbLine
 62
4
  6
CONTINUOUS
 10
10.5608795341
 20
8.4874787198
 11
10.593997004
 21
8.369270912
  0
LINE
  5
2C3
100
AcDbEntity
  8
0
100
AcDbLine
 62
4
  6
CONTINUOUS
 10
10.6602318966
 20
8.9558241341
 11
10.6602318966
 21
9.0717352376
  0
LINE
  5
2C4
100
AcDbEntity
  8
0
100
AcDbLine
 62
4
  6
CONTINUOUS
 10
10.6602319163
 20
8.3646775053
 11
10.6602319163
 21
8.4805886087
  0
LINE
  5
2C5
100
AcDbEntity
  8
0
100
AcDbLine
 62
4
  6
CONTINUOUS
 10
10.7099080877
 20
9.0268933584
 11
10.7099080877
 21
8.9523790786
  0
LINE
  5
2C6
100
AcDbEntity
  8
0
100
AcDbLine
 62
4
  6
CONTINUOUS
 10
10.7264668286
 20
8.3600840985
 11
10.7264668286
 21
8.4759952019
  0
LINE
  5
2C7
100
AcDbEntity
  8
0
100
AcDbLine
 62
4
  6
CONTINUOUS
 10
10.7319863693
 20
8.6147057446
 11
10.7319863693
 21
8.730616848
  0
LINE
  5
2C8
100
AcDbEntity
  8
0
100
AcDbLine
 62
4
  6
CONTINUOUS
 10
10.7982212885
 20
8.7260234408
 11
10.7982212885
 21
8.6101123374
  0
LINE
  5
2C9
100
AcDbEntity
  8
0
100
AcDbLine
 62
4
  6
CONTINUOUS
 10
10.8147800529
 20
8.953385548
 11
10.8147800529
 21
9.0196204629
  0
LINE
  5
2CA
100
AcDbEntity
  8
0
100
AcDbLine
 62
4
  6
CONTINUOUS
 10
10.8313387447
 20
8.6326537278
 11
10.8561768333
 21
8.7220042101
  0
LINE
  5
2CB
100
AcDbEntity
  8
0
100
AcDbLine
 62
4
  6
CONTINUOUS
 10
10.7595842788
 20
8.9213361412
 11
10.7927017212
 21
9.0294309679
  0
LINE
  5
2CC
100
AcDbEntity
  8
0
100
AcDbLine
 62
4
  6
CONTINUOUS
 10
10.7651038289
 20
8.6620852287
 11
10.7982212885
 21
8.7260234408
  0
LINE
  5
2CD
100
AcDbEntity
  8
0
100
AcDbLine
 62
4
  6
CONTINUOUS
 10
10.4808456783
 20
8.3936767129
 11
10.4642869502
 21
8.3782663348
  0
LINE
  5
2CE
100
AcDbEntity
  8
0
100
AcDbLine
 62
4
  6
CONTINUOUS
 10
11.2563461349
 20
8.9889977511
 11
11.2646254678
 21
8.9967029449
  0
LINE
  5
2CF
100
AcDbEntity
  8
0
100
AcDbLine
 62
4
  6
CONTINUOUS
 10
10.4008118259
 20
8.4544228449
 11
10.3566552143
 21
8.4354068087
  0
LINE
  5
2D0
100
AcDbEntity
  8
0
100
AcDbLine
 62
4
  6
CONTINUOUS
 10
10.2959398651
 20
8.9893672372
 11
10.30421923
 21
8.9805136964
  0
LINE
  5
2D1
100
AcDbEntity
  8
0
100
AcDbLine
 62
4
  6
CONTINUOUS
 10
11.1642381691
 20
7.7810786366
 11
11.1497492812
 21
7.8014019614
  0
LINE
  5
2D2
100
AcDbEntity
  8
0
100
AcDbLine
 62
4
  6
CONTINUOUS
 10
11.2077048329
 20
7.8746568015
 11
11.2149492769
 21
7.8644951344
  0
LINE
  5
2D3
100
AcDbEntity
  8
0
100
AcDbLine
 62
4
  6
CONTINUOUS
 10
10.4780858808
 20
9.0843671067
 11
10.5360414326
 21
8.9644367721
  0
LINE
  5
2D4
100
AcDbEntity
  8
0
100
AcDbLine
 62
4
  6
CONTINUOUS
 10
10.8644562164
 20
9.0575722329
 11
10.8644562164
 21
8.9416611295
  0
LINE
  5
2D5
100
AcDbEntity
  8
0
100
AcDbLine
 62
4
  6
CONTINUOUS
 10
10.8699757768
 20
8.6051361467
 11
10.8699757768
 21
8.6630916984
  0
LINE
  5
2D6
100
AcDbEntity
  8
0
100
AcDbLine
 62
4
  6
CONTINUOUS
 10
10.897573714
 20
8.9393644232
 11
10.897573714
 21
9.0221580705
  0
LINE
  5
2D7
100
AcDbEntity
  8
0
100
AcDbLine
 62
4
  6
CONTINUOUS
 10
10.9003335114
 20
8.3645851329
 11
10.9003335114
 21
8.4473787785
  0
LINE
  5
2D8
100
AcDbEntity
  8
0
100
AcDbLine
 62
4
  6
CONTINUOUS
 10
10.9362107116
 20
9.0111992181
 11
10.9362107116
 21
8.99464049
  0
LINE
  5
2D9
100
AcDbEntity
  8
0
100
AcDbLine
 62
4
  6
CONTINUOUS
 10
10.9444900635
 20
8.5999685634
 11
10.9444900635
 21
8.7158796668
  0
LINE
  5
2DA
100
AcDbEntity
  8
0
100
AcDbLine
 62
4
  6
CONTINUOUS
 10
10.9720879869
 20
8.9424762057
 11
10.9720879869
 21
8.9673143004
  0
LINE
  5
2DB
100
AcDbEntity
  8
0
100
AcDbLine
 62
4
  6
CONTINUOUS
 10
10.9969260608
 20
8.3578864169
 11
10.9969260608
 21
8.4406800624
  0
LINE
  5
2DC
100
AcDbEntity
  8
0
100
AcDbLine
 62
4
  6
CONTINUOUS
 10
11.0217641504
 20
8.9307517872
 11
11.0217641504
 21
8.9969867064
  0
LINE
  5
2DD
100
AcDbEntity
  8
0
100
AcDbLine
 62
4
  6
CONTINUOUS
 10
11.330860463
 20
8.9838301649
 11
11.339139796
 21
8.9915353587
  0
LINE
  5
2DE
100
AcDbEntity
  8
0
100
AcDbLine
 62
4
  6
CONTINUOUS
 10
11.3722572383
 20
8.906445009
 11
11.3805365713
 21
8.9141502002
  0
LINE
  5
2DF
100
AcDbEntity
  8
0
100
AcDbLine
 62
4
  6
CONTINUOUS
 10
10.9003335114
 20
8.4473787785
 11
10.9168922326
 21
8.4627891553
  0
LINE
  5
2E0
100
AcDbEntity
  8
0
100
AcDbLine
 62
4
  6
CONTINUOUS
 10
11.1293958854
 20
8.3321408735
 11
11.0879990548
 21
8.3350117535
  0
LINE
  5
2E1
100
AcDbEntity
  8
0
100
AcDbLine
 62
4
  6
CONTINUOUS
 10
11.0383228913
 20
8.3384568071
 11
11.0134847819
 21
8.3401793358
  0
LINE
  5
2E2
100
AcDbEntity
  8
0
100
AcDbLine
 62
4
  6
CONTINUOUS
 10
10.9500096749
 20
8.3445813495
 11
10.9168922326
 21
8.3468780519
  0
LINE
  5
2E3
100
AcDbEntity
  8
0
100
AcDbLine
 62
4
  6
CONTINUOUS
 10
10.4642869502
 20
8.3782663348
 11
10.4228901335
 21
8.3811372138
  0
LINE
  5
2E4
100
AcDbEntity
  8
0
100
AcDbLine
 62
4
  6
CONTINUOUS
 10
10.7264668286
 20
8.3600840985
 11
10.7761430198
 21
8.3566390429
  0
LINE
  5
2E5
100
AcDbEntity
  8
0
100
AcDbLine
 62
4
  6
CONTINUOUS
 10
11.1928710477
 20
8.3277388561
 11
11.2425472112
 21
8.3242938024
  0
LINE
  5
2E6
100
AcDbEntity
  8
0
100
AcDbLine
 62
4
  6
CONTINUOUS
 10
10.53880123
 20
8.4062162116
 11
10.5829578382
 21
8.4031539404
  0
LINE
  5
2E7
100
AcDbEntity
  8
0
100
AcDbLine
 62
4
  6
CONTINUOUS
 10
11.22598849
 20
8.3916770728
 11
11.1928710477
 21
8.3939737753
  0
LINE
  5
2E8
100
AcDbEntity
  8
0
100
AcDbLine
 62
4
  6
CONTINUOUS
 10
10.7595842986
 20
8.4240223134
 11
10.7264668286
 21
8.4263190177
  0
LINE
  5
2E9
100
AcDbEntity
  8
0
100
AcDbLine
 62
4
  6
CONTINUOUS
 10
10.4228901335
 20
8.4970483173
 11
10.4642869502
 21
8.4941774383
  0
LINE
  5
2EA
100
AcDbEntity
  8
0
100
AcDbLine
 62
4
  6
CONTINUOUS
 10
10.6271144464
 20
8.482885313
 11
10.6933493587
 21
8.4782919063
  0
LINE
  5
2EB
100
AcDbEntity
  8
0
100
AcDbLine
 62
4
  6
CONTINUOUS
 10
10.7264668286
 20
8.4759952019
 11
10.7761430198
 21
8.4725501464
  0
LINE
  5
2EC
100
AcDbEntity
  8
0
100
AcDbLine
 62
4
  6
CONTINUOUS
 10
10.9168922326
 20
8.4627891553
 11
10.9500096749
 21
8.4604924529
  0
LINE
  5
2ED
100
AcDbEntity
  8
0
100
AcDbLine
 62
4
  6
CONTINUOUS
 10
11.0134847819
 20
8.4560904393
 11
11.0383228913
 21
8.4543679105
  0
LINE
  5
2EE
100
AcDbEntity
  8
0
100
AcDbLine
 62
4
  6
CONTINUOUS
 10
11.0879990548
 20
8.4509228569
 11
11.1293958854
 21
8.4480519769
  0
LINE
  5
2EF
100
AcDbEntity
  8
0
100
AcDbLine
 62
4
  6
CONTINUOUS
 10
11.1928710477
 20
8.4436499595
 11
11.2425472112
 21
8.4402049058
  0
LINE
  5
2F0
100
AcDbEntity
  8
0
100
AcDbLine
 62
4
  6
CONTINUOUS
 10
9.5076752332
 20
9.5766727037
 11
9.4931863452
 21
9.5873367704
  0
LINE
  5
2F1
100
AcDbEntity
  8
0
100
AcDbLine
 62
4
  6
CONTINUOUS
 10
10.3538954168
 20
9.0101861008
 11
10.2959398651
 21
9.0638815196
  0
LINE
  5
2F2
100
AcDbEntity
  8
0
100
AcDbLine
 62
4
  6
CONTINUOUS
 10
10.9168922326
 20
8.3468780519
 11
10.9003335114
 21
8.3645851329
  0
LINE
  5
2F3
100
AcDbEntity
  8
0
100
AcDbLine
 62
4
  6
CONTINUOUS
 10
10.387012873
 20
8.9913306676
 11
10.403571601
 21
8.9736235861
  0
LINE
  5
2F4
100
AcDbEntity
  8
0
100
AcDbLine
 62
4
  6
CONTINUOUS
 10
11.0134847819
 20
8.3401793358
 11
10.9969260608
 21
8.3578864169
  0
LINE
  5
2F5
100
AcDbEntity
  8
0
100
AcDbLine
 62
4
  6
CONTINUOUS
 10
10.3456160528
 20
9.0935539205
 11
10.3538954168
 21
9.0847003771
  0
LINE
  5
2F6
100
AcDbEntity
  8
0
100
AcDbLine
 62
4
  6
CONTINUOUS
 10
11.0383228913
 20
8.4543679105
 11
11.0548816125
 21
8.4366608312
  0
LINE
  5
2F7
100
AcDbEntity
  8
0
100
AcDbLine
 62
4
  6
CONTINUOUS
 10
10.7319863693
 20
8.730616848
 11
10.7651038289
 21
8.6620852287
  0
LINE
  5
2F8
100
AcDbEntity
  8
0
100
AcDbLine
 62
4
  6
CONTINUOUS
 10
10.7430255577
 20
9.0328760215
 11
10.7678636671
 21
8.9483598455
  0
LINE
  5
2F9
100
AcDbEntity
  8
0
100
AcDbLine
 62
4
  6
CONTINUOUS
 10
11.1497492812
 20
7.8014019614
 11
11.1425048372
 21
7.8308821411
  0
LINE
  5
2FA
100
AcDbEntity
  8
0
100
AcDbLine
 62
4
  6
CONTINUOUS
 10
11.0548815927
 20
9.011248732
 11
11.0548815927
 21
8.9367344497
  0
LINE
  5
2FB
100
AcDbEntity
  8
0
100
AcDbLine
 62
4
  6
CONTINUOUS
 10
11.0548816125
 20
8.4366608312
 11
11.0548816125
 21
8.3538671857
  0
LINE
  5
2FC
100
AcDbEntity
  8
0
100
AcDbLine
 62
4
  6
CONTINUOUS
 10
11.0879990548
 20
8.3350117535
 11
11.0879990548
 21
8.4509228569
  0
LINE
  5
2FD
100
AcDbEntity
  8
0
100
AcDbLine
 62
4
  6
CONTINUOUS
 10
11.1045578115
 20
8.9250100273
 11
11.1045578115
 21
9.0078036746
  0
LINE
  5
2FE
100
AcDbEntity
  8
0
100
AcDbLine
 62
7
  6
CONTINUOUS
 10
11.1245682596
 20
6.5667631409
 11
11.1245682596
 21
6.1854392567
  0
LINE
  5
2FF
100
AcDbEntity
  8
0
100
AcDbLine
 62
4
  6
CONTINUOUS
 10
11.1376752538
 20
8.9309926898
 11
11.1376752538
 21
9.0386244283
  0
LINE
  5
300
100
AcDbEntity
  8
0
100
AcDbLine
 62
4
  6
CONTINUOUS
 10
11.1459546065
 20
8.4303448977
 11
11.1459546065
 21
8.3475512521
  0
LINE
  5
301
100
AcDbEntity
  8
0
100
AcDbLine
 62
4
  6
CONTINUOUS
 10
11.1928710477
 20
8.3277388561
 11
11.1928710477
 21
8.4436499595
  0
LINE
  5
302
100
AcDbEntity
  8
0
100
AcDbLine
 62
4
  6
CONTINUOUS
 10
11.2121895267
 20
8.9175457425
 11
11.2121895267
 21
9.0003393898
  0
LINE
  5
303
100
AcDbEntity
  8
0
100
AcDbLine
 62
4
  6
CONTINUOUS
 10
11.2121895267
 20
9.0251774784
 11
11.2121895267
 21
9.0334568459
  0
LINE
  5
304
100
AcDbEntity
  8
0
100
AcDbLine
 62
4
  6
CONTINUOUS
 10
11.2149492769
 20
7.8258581022
 11
11.2149492769
 21
7.7872210683
  0
LINE
  5
305
100
AcDbEntity
  8
0
100
AcDbLine
 62
4
  6
CONTINUOUS
 10
11.2149493043
 20
9.0332654547
 11
11.2121895267
 21
9.0251774784
  0
LINE
  5
306
100
AcDbEntity
  8
0
100
AcDbLine
 62
4
  6
CONTINUOUS
 10
12.1562441035
 20
10.1077788694
 11
12.1055329957
 21
10.0243623691
  0
LINE
  5
307
100
AcDbEntity
  8
0
100
AcDbLine
 62
4
  6
CONTINUOUS
 10
10.9969260608
 20
8.4406800624
 11
11.0134847819
 21
8.4560904393
  0
LINE
  5
308
100
AcDbEntity
  8
0
100
AcDbLine
 62
4
  6
CONTINUOUS
 10
11.0548816125
 20
8.3538671857
 11
11.0383228913
 21
8.3384568071
  0
LINE
  5
309
100
AcDbEntity
  8
0
100
AcDbLine
 62
4
  6
CONTINUOUS
 10
11.1459546065
 20
8.3475512521
 11
11.1293958854
 21
8.3321408735
  0
LINE
  5
30A
100
AcDbEntity
  8
0
100
AcDbLine
 62
4
  6
CONTINUOUS
 10
12.1055329957
 20
8.4885402702
 11
12.1634885474
 21
8.484521039
  0
LINE
  5
30B
100
AcDbEntity
  8
0
100
AcDbLine
 62
4
  6
CONTINUOUS
 10
10.8892942895
 20
8.6286344971
 11
10.8313387447
 21
8.6326537278
  0
LINE
  5
30C
100
AcDbEntity
  8
0
100
AcDbLine
 62
4
  6
CONTINUOUS
 10
12.1272663276
 20
8.6029441619
 11
12.1417552155
 21
8.6019393541
  0
LINE
  5
30D
100
AcDbEntity
  8
0
100
AcDbLine
 62
4
  6
CONTINUOUS
 10
11.2756646535
 20
8.3937515952
 11
11.3198212617
 21
8.3686110165
  0
LINE
  5
30E
100
AcDbEntity
  8
0
100
AcDbLine
 62
4
  6
CONTINUOUS
 10
9.5221641211
 20
9.643282704
 11
9.536653009
 21
9.6326186398
  0
LINE
  5
30F
100
AcDbEntity
  8
0
100
AcDbLine
 62
4
  6
CONTINUOUS
 10
9.5221641211
 20
9.6915789994
 11
9.536653009
 21
9.6809149352
  0
LINE
  5
310
100
AcDbEntity
  8
0
100
AcDbLine
 62
4
  6
CONTINUOUS
 10
11.1293958854
 20
8.4480519769
 11
11.1459546065
 21
8.4303448977
  0
LINE
  5
311
100
AcDbEntity
  8
0
100
AcDbLine
 62
4
  6
CONTINUOUS
 10
10.7016287271
 20
9.0357469015
 11
10.7099080877
 21
9.0268933584
  0
LINE
  5
312
100
AcDbEntity
  8
0
100
AcDbLine
 62
4
  6
CONTINUOUS
 10
10.9306911563
 20
9.0198613681
 11
10.9362107116
 21
9.0111992181
  0
LINE
  5
313
100
AcDbEntity
  8
0
100
AcDbLine
 62
7
  6
CONTINUOUS
 10
11.2376230716
 20
6.4968361065
 11
11.2376230716
 21
6.0762368808
  0
LINE
  5
314
100
AcDbEntity
  8
0
100
AcDbLine
 62
4
  6
CONTINUOUS
 10
11.2563461349
 20
8.9227628362
 11
11.2563461349
 21
8.9889977511
  0
LINE
  5
315
100
AcDbEntity
  8
0
100
AcDbLine
 62
7
  6
CONTINUOUS
 10
11.2795032991
 20
6.4859967198
 11
11.2795032991
 21
6.065397494
  0
LINE
  5
316
100
AcDbEntity
  8
0
100
AcDbLine
 62
4
  6
CONTINUOUS
 10
11.330860463
 20
8.9589920728
 11
11.330860463
 21
8.9838301649
  0
LINE
  5
317
100
AcDbEntity
  8
0
100
AcDbLine
 62
4
  6
CONTINUOUS
 10
11.3805365713
 20
8.9141502002
 11
11.3805365713
 21
8.9389882949
  0
LINE
  5
318
100
AcDbEntity
  8
0
100
AcDbLine
 62
4
  6
CONTINUOUS
 10
11.1425048372
 20
7.8308821411
 11
11.1497492812
 21
7.8593575131
  0
LINE
  5
319
100
AcDbEntity
  8
0
100
AcDbLine
 62
4
  6
CONTINUOUS
 10
11.3198212617
 20
8.3686110165
 11
11.2756646535
 21
8.3495949818
  0
LINE
  5
31A
100
AcDbEntity
  8
0
100
AcDbLine
 62
4
  6
CONTINUOUS
 10
10.7430255577
 20
8.9224844924
 11
10.7595842788
 21
8.9213361412
  0
LINE
  5
31B
100
AcDbEntity
  8
0
100
AcDbLine
 62
4
  6
CONTINUOUS
 10
10.8313387741
 20
8.9439578319
 11
10.8147800529
 21
8.953385548
  0
LINE
  5
31C
100
AcDbEntity
  8
0
100
AcDbLine
 62
4
  6
CONTINUOUS
 10
10.988646708
 20
8.9330484896
 11
10.9720879869
 21
8.9424762057
  0
LINE
  5
31D
100
AcDbEntity
  8
0
100
AcDbLine
 62
4
  6
CONTINUOUS
 10
11.0548815927
 20
8.9367344497
 11
11.0631609809
 21
8.9278809072
  0
LINE
  5
31E
100
AcDbEntity
  8
0
100
AcDbLine
 62
4
  6
CONTINUOUS
 10
11.145954642
 20
8.9221391473
 11
11.1376752538
 21
8.9309926898
  0
LINE
  5
31F
100
AcDbEntity
  8
0
100
AcDbLine
 62
4
  6
CONTINUOUS
 10
11.0217641504
 20
8.9969867064
 11
11.0134848174
 21
9.0141196082
  0
LINE
  5
320
100
AcDbEntity
  8
0
100
AcDbLine
 62
4
  6
CONTINUOUS
 10
11.1497492812
 20
7.8593575131
 11
11.1642381691
 21
7.8776712249
  0
LINE
  5
321
100
AcDbEntity
  8
0
100
AcDbLine
 62
4
  6
CONTINUOUS
 10
11.2149492769
 20
7.7872210683
 11
11.2077048329
 21
7.7780642133
  0
LINE
  5
322
100
AcDbEntity
  8
0
100
AcDbLine
 62
4
  6
CONTINUOUS
 10
12.1127774397
 20
8.5942897134
 11
12.1272663276
 21
8.6029441619
  0
LINE
  5
323
100
AcDbEntity
  8
0
100
AcDbLine
 62
4
  6
CONTINUOUS
 10
12.1562441035
 20
8.5526382509
 11
12.1272663276
 21
8.5353293504
  0
LINE
  5
324
100
AcDbEntity
  8
0
100
AcDbLine
 62
4
  6
CONTINUOUS
 10
11.1642381691
 20
7.8776712249
 11
11.1787270571
 21
7.8863256734
  0
LINE
  5
325
100
AcDbEntity
  8
0
100
AcDbLine
 62
4
  6
CONTINUOUS
 10
11.2977430207
 20
8.9116125875
 11
11.2646254678
 21
8.9139092976
  0
LINE
  5
326
100
AcDbEntity
  8
0
100
AcDbLine
 62
4
  6
CONTINUOUS
 10
11.1625133632
 20
8.9209907961
 11
11.145954642
 21
8.9221391473
  0
LINE
  5
327
100
AcDbEntity
  8
0
100
AcDbLine
 62
4
  6
CONTINUOUS
 10
11.0217641504
 20
8.9307517872
 11
10.988646708
 21
8.9330484896
  0
LINE
  5
328
100
AcDbEntity
  8
0
100
AcDbLine
 62
4
  6
CONTINUOUS
 10
10.8644562164
 20
8.9416611295
 11
10.8313387741
 21
8.9439578319
  0
LINE
  5
329
100
AcDbEntity
  8
0
100
AcDbLine
 62
4
  6
CONTINUOUS
 10
10.30421923
 20
8.9805136964
 11
10.3373366887
 21
8.9782169929
  0
LINE
  5
32A
100
AcDbEntity
  8
0
100
AcDbLine
 62
4
  6
CONTINUOUS
 10
10.403571601
 20
8.9736235861
 11
10.4284097035
 21
8.9719010578
  0
LINE
  5
32B
100
AcDbEntity
  8
0
100
AcDbLine
 62
4
  6
CONTINUOUS
 10
11.0631609809
 20
8.9278809072
 11
11.1045578115
 21
8.9250100273
  0
LINE
  5
32C
100
AcDbEntity
  8
0
100
AcDbLine
 62
4
  6
CONTINUOUS
 10
11.339139796
 20
8.9087417114
 11
11.3722572383
 21
8.906445009
  0
LINE
  5
32D
100
AcDbEntity
  8
0
100
AcDbLine
 62
4
  6
CONTINUOUS
 10
10.988646708
 20
8.9744453133
 11
11.0217641504
 21
8.9721486108
  0
LINE
  5
32E
100
AcDbEntity
  8
0
100
AcDbLine
 62
4
  6
CONTINUOUS
 10
11.0134848174
 20
9.0141196082
 11
10.9720879869
 21
9.0169904881
  0
LINE
  5
32F
100
AcDbEntity
  8
0
100
AcDbLine
 62
4
  6
CONTINUOUS
 10
10.6602318966
 20
9.0386177814
 11
10.7016287271
 21
9.0357469015
  0
LINE
  5
330
100
AcDbEntity
  8
0
100
AcDbLine
 62
4
  6
CONTINUOUS
 10
10.8313387741
 20
9.0267514792
 11
10.8644562164
 21
9.0244547767
  0
LINE
  5
331
100
AcDbEntity
  8
0
100
AcDbLine
 62
4
  6
CONTINUOUS
 10
10.897573714
 20
9.0221580705
 11
10.9306911563
 21
9.0198613681
  0
LINE
  5
332
100
AcDbEntity
  8
0
100
AcDbLine
 62
4
  6
CONTINUOUS
 10
11.2646254678
 20
8.9967029449
 11
11.2977430207
 21
8.9944062348
  0
LINE
  5
333
100
AcDbEntity
  8
0
100
AcDbLine
 62
4
  6
CONTINUOUS
 10
11.339139796
 20
8.9915353587
 11
11.3722572383
 21
8.9892386563
  0
LINE
  5
334
100
AcDbEntity
  8
0
100
AcDbLine
 62
4
  6
CONTINUOUS
 10
10.3124985949
 20
9.095850624
 11
10.3456160528
 21
9.0935539205
  0
LINE
  5
335
100
AcDbEntity
  8
0
100
AcDbLine
 62
4
  6
CONTINUOUS
 10
11.2121895267
 20
9.0334568459
 11
11.2149493043
 21
9.0332654547
  0
LINE
  5
336
100
AcDbEntity
  8
0
100
AcDbLine
 62
4
  6
CONTINUOUS
 10
11.3722572383
 20
8.9450820446
 11
11.339139796
 21
8.9528983231
  0
LINE
  5
337
100
AcDbEntity
  8
0
100
AcDbLine
 62
4
  6
CONTINUOUS
 10
11.339139796
 20
8.9528983231
 11
11.330860463
 21
8.9589920728
  0
LINE
  5
338
100
AcDbEntity
  8
0
100
AcDbLine
 62
4
  6
CONTINUOUS
 10
11.3805365713
 20
8.9389882949
 11
11.3722572383
 21
8.9450820446
  0
LINE
  5
339
100
AcDbEntity
  8
0
100
AcDbLine
 62
4
  6
CONTINUOUS
 10
11.2646254678
 20
8.9139092976
 11
11.2563461349
 21
8.9227628362
  0
LINE
  5
33A
100
AcDbEntity
  8
0
100
AcDbLine
 62
4
  6
CONTINUOUS
 10
11.330860463
 20
8.91759525
 11
11.339139796
 21
8.9087417114
  0
LINE
  5
33B
100
AcDbEntity
  8
0
100
AcDbLine
 62
4
  6
CONTINUOUS
 10
11.3722572383
 20
8.9892386563
 11
11.3805365713
 21
8.9803851151
  0
LINE
  5
33C
100
AcDbEntity
  8
0
100
AcDbLine
 62
7
  6
CONTINUOUS
 10
11.701429278
 20
6.4567360538
 11
11.701429278
 21
6.036136828
  0
LINE
  5
33D
100
AcDbEntity
  8
0
100
AcDbLine
 62
7
  6
CONTINUOUS
 10
11.7586387166
 20
6.4607035488
 11
11.7586387166
 21
6.0401043231
  0
LINE
  5
33E
100
AcDbEntity
  8
0
100
AcDbLine
 62
4
  6
CONTINUOUS
 10
12.1055329957
 20
8.5851328541
 11
12.1127774397
 21
8.5942897134
  0
LINE
  5
33F
100
AcDbEntity
  8
0
100
AcDbLine
 62
4
  6
CONTINUOUS
 10
11.2077048329
 20
7.7780642133
 11
11.193215945
 21
7.7694097622
  0
LINE
  5
340
100
AcDbEntity
  8
0
100
AcDbLine
 62
4
  6
CONTINUOUS
 10
12.1417552155
 20
8.6019393541
 11
12.1562441035
 21
8.59127529
  0
LINE
  5
341
100
AcDbEntity
  8
0
100
AcDbLine
 62
4
  6
CONTINUOUS
 10
12.1272663276
 20
8.5353293504
 11
12.1127774397
 21
8.5170156421
  0
LINE
  5
342
100
AcDbEntity
  8
0
100
AcDbLine
 62
4
  6
CONTINUOUS
 10
12.1634885474
 20
8.5617951103
 11
12.1562441035
 21
8.5526382509
  0
LINE
  5
343
100
AcDbEntity
  8
0
100
AcDbLine
 62
4
  6
CONTINUOUS
 10
9.5221641211
 20
9.5756678959
 11
9.5076752332
 21
9.5766727037
  0
LINE
  5
344
100
AcDbEntity
  8
0
100
AcDbLine
 62
4
  6
CONTINUOUS
 10
12.1562441035
 20
8.59127529
 11
12.1634885474
 21
8.5811136229
  0
LINE
  5
345
100
AcDbEntity
  8
0
100
AcDbLine
 62
7
  6
CONTINUOUS
 10
12.0675098836
 20
6.5013699172
 11
12.0675098836
 21
6.120046033
  0
LINE
  5
346
100
AcDbEntity
  8
0
100
AcDbLine
 62
7
  6
CONTINUOUS
 10
12.0828390948
 20
6.5003068328
 11
12.0828390948
 21
6.1348529148
  0
LINE
  5
347
100
AcDbEntity
  8
0
100
AcDbLine
 62
4
  6
CONTINUOUS
 10
12.1562441035
 20
9.9918677659
 11
12.1562441035
 21
10.1077788694
  0
LINE
  5
348
100
AcDbEntity
  8
0
100
AcDbLine
 62
4
  6
CONTINUOUS
 10
12.1634885474
 20
8.5811136229
 11
12.1634885474
 21
8.5617951103
  0
LINE
  5
349
100
AcDbEntity
  8
0
100
AcDbLine
 62
4
  6
CONTINUOUS
 10
12.1127774397
 20
8.5170156421
 11
12.1055329957
 21
8.4885402702
  0
LINE
  5
34A
100
AcDbEntity
  8
0
100
AcDbLine
 62
4
  6
CONTINUOUS
 10
9.5076752332
 20
9.6442875117
 11
9.5221641211
 21
9.643282704
  0
LINE
  5
34B
100
AcDbEntity
  8
0
100
AcDbLine
 62
4
  6
CONTINUOUS
 10
9.5076752332
 20
9.6925838071
 11
9.5221641211
 21
9.6915789994
  0
LINE
  5
34C
100
AcDbEntity
  8
0
100
AcDbLine
 62
7
  6
CONTINUOUS
 10
12.2871270556
 20
6.4861394146
 11
12.2871270556
 21
10.4705836841
  0
LINE
  5
34D
100
AcDbEntity
  8
0
100
AcDbLine
 62
4
  6
CONTINUOUS
 10
12.1055329957
 20
10.0243623691
 11
12.1707329914
 21
10.019840734
  0
LINE
  5
34E
100
AcDbEntity
  8
0
100
AcDbLine
 62
7
  6
CONTINUOUS
 10
12.610650595
 20
6.7986391752
 11
12.610650595
 21
10.7830834447
  0
LINE
  5
34F
100
AcDbEntity
  8
0
100
AcDbLine
 62
7
  6
CONTINUOUS
 10
9.389349405
 20
10.6715452467
 11
12.2871270556
 21
10.4705836841
  0
LINE
  5
350
100
AcDbEntity
  8
0
100
AcDbLine
 62
7
  6
CONTINUOUS
 10
12.2871270556
 20
6.4861394146
 11
12.610650595
 21
6.7986391752
  0
LINE
  5
351
100
AcDbEntity
  8
0
100
AcDbLine
 62
7
  6
CONTINUOUS
 10
12.610650595
 20
10.7830834447
 11
9.7128729444
 21
10.9840450073
  0
LINE
  5
352
100
AcDbEntity
  8
0
100
AcDbLine
 62
7
  6
CONTINUOUS
 10
12.0097556245
 20
6.0880236419
 11
11.984590015
 21
6.0755923126
  0
ARC
  5
353
100
AcDbEntity
  8
0
100
AcDbCircle
 62
7
  6
CONTINUOUS
 10
11.6115059339
 20
8.167839501
 40
1.7134646816
100
AcDbArc
 50
273.0082884861
 51
274.9259735842
  0
ARC
  5
354
100
AcDbEntity
  8
0
100
AcDbCircle
 62
7
  6
CONTINUOUS
 10
11.6115059339
 20
7.7472402753
 40
1.7134646816
100
AcDbArc
 50
273.0082884861
 51
274.9259735842
  0
ARC
  5
355
100
AcDbEntity
  8
0
100
AcDbCircle
 62
7
  6
CONTINUOUS
 10
11.7472714954
 20
6.6189591341
 40
0.5922756118
100
AcDbArc
 50
293.5909107106
 51
296.3039528614
  0
ARC
  5
356
100
AcDbEntity
  8
0
100
AcDbCircle
 62
7
  6
CONTINUOUS
 10
10.9035169051
 20
7.5715235213
 40
0.1699614592
100
AcDbArc
 50
172.3726807415
 51
179.9629967994
  0
ARC
  5
357
100
AcDbEntity
  8
0
100
AcDbCircle
 62
7
  6
CONTINUOUS
 10
10.8041470222
 20
7.6414896644
 40
0.0837889113
100
AcDbArc
 50
211.1188650147
 51
214.4575007904
  0
SPLINE
  5
358
100
AcDbEntity
  8
0
100
AcDbSpline
 62
7
  6
CONTINUOUS
 70
0
 71
3
 72
9
 73
5
 74
0
 42
0.0000001
 43
0.0000001
 44
0.0000000001
 40
0.0
 40
0.0
 40
0.0
 40
0.0
 40
0.4865082157
 40
1.0
 40
1.0
 40
1.0
 40
1.0
 10
12.0760414342
 20
6.127389351
 30
0.0
 10
12.0747279642
 20
6.1261206363
 30
0.0
 10
12.0719468229
 20
6.1235962314
 30
0.0
 10
12.0690335169
 20
6.121226527
 30
0.0
 10
12.0675098836
 20
6.120046033
 30
0.0
  0
SPLINE
  5
359
100
AcDbEntity
  8
0
100
AcDbSpline
 62
7
  6
CONTINUOUS
 70
0
 71
3
 72
9
 73
5
 74
0
 42
0.0000001
 43
0.0000001
 44
0.0000000001
 40
0.0
 40
0.0
 40
0.0
 40
0.0
 40
0.4864210225
 40
1.0
 40
1.0
 40
1.0
 40
1.0
 10
12.0828390948
 20
6.1348529148
 30
0.0
 10
12.0818253878
 20
6.1335665647
 30
0.0
 10
12.0796388976
 20
6.1310017799
 30
0.0
 10
12.0772851785
 20
6.1285907158
 30
0.0
 10
12.0760414342
 20
6.127389351
 30
0.0
  0
SPLINE
  5
35A
100
AcDbEntity
  8
0
100
AcDbSpline
 62
7
  6
CONTINUOUS
 70
0
 71
3
 72
9
 73
5
 74
0
 42
0.0000001
 43
0.0000001
 44
0.0000000001
 40
0.0
 40
0.0
 40
0.0
 40
0.0
 40
0.503991706
 40
1.0
 40
1.0
 40
1.0
 40
1.0
 10
12.0675098836
 20
6.120046033
 30
0.0
 10
12.0580365361
 20
6.1142571578
 30
0.0
 10
12.0390211191
 20
6.1031239775
 30
0.0
 10
12.0195244542
 20
6.092849464
 30
0.0
 10
12.0097283871
 20
6.0880101908
 30
0.0
  0
SPLINE
  5
35B
100
AcDbEntity
  8
0
100
AcDbSpline
 62
7
  6
CONTINUOUS
 70
0
 71
3
 72
23
 73
19
 74
0
 42
0.0000001
 43
0.0000001
 44
0.0000000001
 40
0.0
 40
0.0
 40
0.0
 40
0.0
 40
0.0439943064
 40
0.0899281819
 40
0.1380403338
 40
0.1885309998
 40
0.2415683448
 40
0.2972701743
 40
0.3557174883
 40
0.4169406608
 40
0.4809367475
 40
0.5476614984
 40
0.617045644
 40
0.688992165
 40
0.7633891149
 40
0.8401121098
 40
0.9190285012
 40
1.0
 40
1.0
 40
1.0
 40
1.0
 10
11.206515405
 20
6.0836451561
 30
0.0
 10
11.2047715237
 20
6.0845066156
 30
0.0
 10
11.201271393
 20
6.0864009222
 30
0.0
 10
11.1961149208
 20
6.0896735969
 30
0.0
 10
11.1909515278
 20
6.0934456943
 30
0.0
 10
11.1857838084
 20
6.0977225606
 30
0.0
 10
11.1806159683
 20
6.1025077969
 30
0.0
 10
11.1754500776
 20
6.1077984062
 30
0.0
 10
11.1702904092
 20
6.1135890432
 30
0.0
 10
11.1651388447
 20
6.1198684794
 30
0.0
 10
11.1599991712
 20
6.1266232369
 30
0.0
 10
11.1548730069
 20
6.133835402
 30
0.0
 10
11.1497632772
 20
6.1414854362
 30
0.0
 10
11.1446712101
 20
6.1495511202
 30
0.0
 10
11.1395986736
 20
6.1580095777
 30
0.0
 10
11.1345464214
 20
6.1668368931
 30
0.0
 10
11.1295153937
 20
6.1760091284
 30
0.0
 10
11.1262163251
 20
6.1822613085
 30
0.0
 10
11.1245682596
 20
6.1854392567
 30
0.0
  0
SPLINE
  5
35C
100
AcDbEntity
  8
0
100
AcDbSpline
 62
7
  6
CONTINUOUS
 70
0
 71
3
 72
46
 73
42
 74
0
 42
0.0000001
 43
0.0000001
 44
0.0000000001
 40
0.0
 40
0.0
 40
0.0
 40
0.0
 40
0.0099874435
 40
0.0204476157
 40
0.0313771114
 40
0.0427707225
 40
0.054621686
 40
0.0669224317
 40
0.0796639566
 40
0.0928360449
 40
0.1204269131
 40
0.1495981875
 40
0.1802403745
 40
0.2122335405
 40
0.2454486791
 40
0.2797494061
 40
0.3149926211
 40
0.3510295021
 40
0.387706851
 40
0.4248677397
 40
0.4623524596
 40
0.499999592
 40
0.537646712
 40
0.5751314595
 40
0.6122923998
 40
0.6489698028
 40
0.6850067986
 40
0.7202500982
 40
0.7545508962
 40
0.7877662248
 40
0.8197595459
 40
0.8504018313
 40
0.8795733387
 40
0.9071643906
 40
0.9330770134
 40
0.9453779539
 40
0.9572290359
 40
0.9686226679
 40
0.9795523026
 40
0.9900125123
 40
1.0
 40
1.0
 40
1.0
 40
1.0
 10
11.9845935448
 20
6.0755941
 30
0.0
 10
11.9822765659
 20
6.074449539
 30
0.0
 10
11.9774933731
 20
6.072185689
 30
0.0
 10
11.9700538708
 20
6.0689320296
 30
0.0
 10
11.9621913311
 20
6.0657455721
 30
0.0
 10
11.9539148968
 20
6.0626300127
 30
0.0
 10
11.9452340775
 20
6.059588747
 30
0.0
 10
11.9361587631
 20
6.0566255135
 30
0.0
 10
11.9266993856
 20
6.0537436409
 30
0.0
 10
11.913382749
 20
6.0499553119
 30
0.0
 10
11.8958493845
 20
6.0454651523
 30
0.0
 10
11.8737751165
 20
6.0405308797
 30
0.0
 10
11.8504544306
 20
6.0359940628
 30
0.0
 10
11.8259948337
 20
6.0318759236
 30
0.0
 10
11.8005089302
 20
6.0281956215
 30
0.0
 10
11.7741142258
 20
6.0249704872
 30
0.0
 10
11.7469324796
 20
6.022215662
 30
0.0
 10
11.719089182
 20
6.0199438717
 30
0.0
 10
11.6907128957
 20
6.0181658221
 30
0.0
 10
11.6619346625
 20
6.016889882
 30
0.0
 10
11.6328874167
 20
6.0161218606
 30
0.0
 10
11.6037053518
 20
6.0158654157
 30
0.0
 10
11.5745232798
 20
6.0161218252
 30
0.0
 10
11.545476014
 20
6.0168897428
 30
0.0
 10
11.516697744
 20
6.0181656427
 30
0.0
 10
11.4883213993
 20
6.0199436655
 30
0.0
 10
11.4604780276
 20
6.0222153526
 30
0.0
 10
11.4332962066
 20
6.024970136
 30
0.0
 10
11.406901409
 20
6.0281952531
 30
0.0
 10
11.3814153879
 20
6.0318754574
 30
0.0
 10
11.3569556485
 20
6.0359935497
 30
0.0
 10
11.3336348986
 20
6.040530382
 30
0.0
 10
11.311560252
 20
6.0454645021
 30
0.0
 10
11.2908333129
 20
6.0507728146
 30
0.0
 10
11.2744906424
 20
6.0555671766
 30
0.0
 10
11.2621753032
 20
6.0595880186
 30
0.0
 10
11.2534943792
 20
6.0626293013
 30
0.0
 10
11.2452178902
 20
6.0657449052
 30
0.0
 10
11.2373552501
 20
6.0689312519
 30
0.0
 10
11.2299156633
 20
6.0721848629
 30
0.0
 10
11.2251324562
 20
6.0744487326
 30
0.0
 10
11.2228154642
 20
6.0755932928
 30
0.0
  0
SPLINE
  5
35D
100
AcDbEntity
  8
0
100
AcDbSpline
 62
7
  6
CONTINUOUS
 70
0
 71
3
 72
9
 73
5
 74
0
 42
0.0000001
 43
0.0000001
 44
0.0000000001
 40
0.0
 40
0.0
 40
0.0
 40
0.0
 40
0.5132482879
 40
1.0
 40
1.0
 40
1.0
 40
1.0
 10
11.2795032991
 20
6.4859967198
 30
0.0
 10
11.2722885177
 20
6.4876504158
 30
0.0
 10
11.2582722734
 20
6.4910542752
 30
0.0
 10
11.2443609716
 20
6.4948669356
 30
0.0
 10
11.2376230716
 20
6.4968361065
 30
0.0
  0
SPLINE
  5
35E
100
AcDbEntity
  8
0
100
AcDbSpline
 62
7
  6
CONTINUOUS
 70
0
 71
3
 72
17
 73
13
 74
0
 42
0.0000001
 43
0.0000001
 44
0.0000000001
 40
0.0
 40
0.0
 40
0.0
 40
0.0
 40
0.131593939
 40
0.2633887997
 40
0.3943193775
 40
0.5233296479
 40
0.64938366
 40
0.7714770019
 40
0.8307377895
 40
0.888652
 40
0.9451084391
 40
1.0
 40
1.0
 40
1.0
 40
1.0
 10
11.6509171416
 20
6.5301815621
 30
0.0
 10
11.6376837352
 20
6.5298009398
 30
0.0
 10
11.6111863355
 20
6.5293625098
 30
0.0
 10
11.571513701
 20
6.5296592409
 30
0.0
 10
11.532119287
 20
6.5309055566
 30
0.0
 10
11.493344057
 20
6.5330904189
 30
0.0
 10
11.4555234611
 20
6.5361946291
 30
0.0
 10
11.4247757681
 20
6.5395570495
 30
0.0
 10
11.4009098147
 20
6.5427008348
 30
0.0
 10
11.3836274525
 20
6.5452459647
 30
0.0
 10
11.3668218134
 20
6.5479960793
 30
0.0
 10
11.3557982106
 20
6.5499914106
 30
0.0
 10
11.3503733628
 20
6.551024344
 30
0.0
  0
SPLINE
  5
35F
100
AcDbEntity
  8
0
100
AcDbSpline
 62
7
  6
CONTINUOUS
 70
0
 71
3
 72
9
 73
5
 74
0
 42
0.0000001
 43
0.0000001
 44
0.0000000001
 40
0.0
 40
0.0
 40
0.0
 40
0.0
 40
0.5132482879
 40
1.0
 40
1.0
 40
1.0
 40
1.0
 10
11.2795032991
 20
6.065397494
 30
0.0
 10
11.2722885177
 20
6.06705119
 30
0.0
 10
11.2582722734
 20
6.0704550494
 30
0.0
 10
11.2443609716
 20
6.0742677098
 30
0.0
 10
11.2376230716
 20
6.0762368808
 30
0.0
  0
SPLINE
  5
360
100
AcDbEntity
  8
0
100
AcDbSpline
 62
7
  6
CONTINUOUS
 70
0
 71
3
 72
11
 73
7
 74
0
 42
0.0000001
 43
0.0000001
 44
0.0000000001
 40
0.0
 40
0.0
 40
0.0
 40
0.0
 40
0.2432253995
 40
0.4912799274
 40
0.7437055985
 40
1.0
 40
1.0
 40
1.0
 40
1.0
 10
11.8360239493
 20
6.5175522656
 30
0.0
 10
11.8293071172
 20
6.5135964924
 30
0.0
 10
11.8159788569
 20
6.5051956633
 30
0.0
 10
11.7964969748
 20
6.491448769
 30
0.0
 10
11.7773259526
 20
6.4765805474
 30
0.0
 10
11.7648389603
 20
6.4660911581
 30
0.0
 10
11.7586387166
 20
6.4607035488
 30
0.0
  0
SPLINE
  5
361
100
AcDbEntity
  8
0
100
AcDbSpline
 62
7
  6
CONTINUOUS
 70
0
 71
3
 72
21
 73
17
 74
0
 42
0.0000001
 43
0.0000001
 44
0.0000000001
 40
0.0
 40
0.0
 40
0.0
 40
0.0
 40
0.1230814817
 40
0.1847942657
 40
0.2466337258
 40
0.3086097846
 40
0.3707312098
 40
0.4330051319
 40
0.4954352436
 40
0.5580223626
 40
0.6207641208
 40
0.6836547008
 40
0.7466862848
 40
0.8098488395
 40
0.8731308835
 40
1.0
 40
1.0
 40
1.0
 40
1.0
 10
11.701429278
 20
6.036136828
 30
0.0
 10
11.6841766374
 20
6.0328844446
 30
0.0
 10
11.6581454998
 20
6.0286337261
 30
0.0
 10
11.6232089096
 20
6.0244663767
 30
0.0
 10
11.596842212
 20
6.0221443303
 30
0.0
 10
11.5703551452
 20
6.0206846302
 30
0.0
 10
11.5437710861
 20
6.0201344884
 30
0.0
 10
11.5171192218
 20
6.02053092
 30
0.0
 10
11.4904327289
 20
6.0218959077
 30
0.0
 10
11.4637469571
 20
6.0242347312
 30
0.0
 10
11.437097254
 20
6.0275370206
 30
0.0
 10
11.4105165899
 20
6.0317760402
 30
0.0
 10
11.3840337466
 20
6.0369106814
 30
0.0
 10
11.3576718692
 20
6.0428904293
 30
0.0
 10
11.3226811947
 20
6.051919549
 30
0.0
 10
11.2967027362
 20
6.0597695702
 30
0.0
 10
11.2795032991
 20
6.065397494
 30
0.0
  0
SPLINE
  5
362
100
AcDbEntity
  8
0
100
AcDbSpline
 62
7
  6
CONTINUOUS
 70
0
 71
3
 72
28
 73
24
 74
0
 42
0.0000001
 43
0.0000001
 44
0.0000000001
 40
0.0
 40
0.0
 40
0.0
 40
0.0
 40
0.0640274484
 40
0.1279405369
 40
0.1917105404
 40
0.2553123355
 40
0.3187161223
 40
0.3818930725
 40
0.4133919091
 40
0.4448254452
 40
0.4761912782
 40
0.5074882562
 40
0.5387156619
 40
0.5698732312
 40
0.6009621492
 40
0.6319833386
 40
0.6938248821
 40
0.7554274775
 40
0.8168179251
 40
0.8780243018
 40
0.9085700262
 40
0.9390802882
 40
1.0
 40
1.0
 40
1.0
 40
1.0
 10
11.701429278
 20
6.4567360538
 30
0.0
 10
11.6931284273
 20
6.4610191775
 30
0.0
 10
11.6763973676
 20
6.4693025647
 30
0.0
 10
11.6508782013
 20
6.4807645511
 30
0.0
 10
11.624954423
 20
6.4911188135
 30
0.0
 10
11.5986412479
 20
6.5002208695
 30
0.0
 10
11.5719734182
 20
6.5079243439
 30
0.0
 10
11.5494779861
 20
6.5130685758
 30
0.0
 10
11.531373914
 20
6.5163556313
 30
0.0
 10
11.5177666586
 20
6.5183943579
 30
0.0
 10
11.504131331
 20
6.5200010351
 30
0.0
 10
11.4904814799
 20
6.521168112
 30
0.0
 10
11.4768315465
 20
6.5218952619
 30
0.0
 10
11.4631956391
 20
6.5221807942
 30
0.0
 10
11.4495875897
 20
6.5220303207
 30
0.0
 10
11.4315187653
 20
6.5212570451
 30
0.0
 10
11.4090592758
 20
6.5192416413
 30
0.0
 10
11.382378319
 20
6.5152405348
 30
0.0
 10
11.3560519573
 20
6.5097898205
 30
0.0
 10
11.3344234847
 20
6.5041539957
 30
0.0
 10
11.3173278898
 20
6.4990626375
 30
0.0
 10
11.3003873686
 20
6.4936124094
 30
0.0
 10
11.2878185241
 20
6.4891339348
 30
0.0
 10
11.2795032991
 20
6.4859967198
 30
0.0
  0
SPLINE
  5
363
100
AcDbEntity
  8
0
100
AcDbSpline
 62
7
  6
CONTINUOUS
 70
0
 71
3
 72
13
 73
9
 74
0
 42
0.0000001
 43
0.0000001
 44
0.0000000001
 40
0.0
 40
0.0
 40
0.0
 40
0.0
 40
0.2392401476
 40
0.3604630295
 40
0.4832816768
 40
0.6081576999
 40
0.7355839368
 40
1.0
 40
1.0
 40
1.0
 40
1.0
 10
11.2376230716
 20
6.0762368808
 30
0.0
 10
11.2350510601
 20
6.0762460329
 30
0.0
 10
11.2311718337
 20
6.0764649248
 30
0.0
 10
11.2260254741
 20
6.0771937426
 30
0.0
 10
11.2221347149
 20
6.0779754812
 30
0.0
 10
11.2182316966
 20
6.0790002125
 30
0.0
 10
11.2129484779
 20
6.0807244173
 30
0.0
 10
11.2090640815
 20
6.082386136
 30
0.0
 10
11.206515405
 20
6.0836451561
 30
0.0
  0
SPLINE
  5
364
100
AcDbEntity
  8
0
100
AcDbSpline
 62
7
  6
CONTINUOUS
 70
0
 71
3
 72
14
 73
10
 74
0
 42
0.0000001
 43
0.0000001
 44
0.0000000001
 40
0.0
 40
0.0
 40
0.0
 40
0.0
 40
0.2696294493
 40
0.4000826278
 40
0.5273422312
 40
0.6511852899
 40
0.7713928731
 40
0.8877388029
 40
1.0
 40
1.0
 40
1.0
 40
1.0
 10
11.2376230716
 20
6.4968361065
 30
0.0
 10
11.2353828618
 20
6.50273411
 30
0.0
 10
11.2319718618
 20
6.5114533473
 30
0.0
 10
11.2272606745
 20
6.5228582801
 30
0.0
 10
11.2237380573
 20
6.5310624374
 30
0.0
 10
11.2201874299
 20
6.5389925929
 30
0.0
 10
11.2166091507
 20
6.5466293091
 30
0.0
 10
11.2130041011
 20
6.5539525794
 30
0.0
 10
11.2105379331
 20
6.5587000372
 30
0.0
 10
11.2092980831
 20
6.561015848
 30
0.0
  0
SPLINE
  5
365
100
AcDbEntity
  8
0
100
AcDbSpline
 62
7
  6
CONTINUOUS
 70
0
 71
3
 72
15
 73
11
 74
0
 42
0.0000001
 43
0.0000001
 44
0.0000000001
 40
0.0
 40
0.0
 40
0.0
 40
0.0
 40
0.1319943798
 40
0.2615530082
 40
0.3887795478
 40
0.5138991626
 40
0.6372282088
 40
0.759125931
 40
0.8799459217
 40
1.0
 40
1.0
 40
1.0
 40
1.0
 10
11.9843023616
 20
6.0761822288
 30
0.0
 10
11.9749803544
 20
6.0721199466
 30
0.0
 10
11.9562794724
 20
6.0645807637
 30
0.0
 10
11.9278409127
 20
6.055119323
 30
0.0
 10
11.8993449249
 20
6.0477059474
 30
0.0
 10
11.8708764255
 20
6.0423670732
 30
0.0
 10
11.8425164758
 20
6.0390522006
 30
0.0
 10
11.8143322091
 20
6.0376442725
 30
0.0
 10
11.7863710472
 20
6.0379796086
 30
0.0
 10
11.7678474202
 20
6.0392439376
 30
0.0
 10
11.7586387166
 20
6.0401043231
 30
0.0
  0
SPLINE
  5
366
100
AcDbEntity
  8
0
100
AcDbSpline
 62
7
  6
CONTINUOUS
 70
0
 71
3
 72
86
 73
82
 74
0
 42
0.0000001
 43
0.0000001
 44
0.0000000001
 40
0.0
 40
0.0
 40
0.0
 40
0.0
 40
0.0039801513
 40
0.008124084
 40
0.0124359564
 40
0.0169193168
 40
0.0215771741
 40
0.0264119028
 40
0.0314251627
 40
0.0366181356
 40
0.0419915235
 40
0.0475456275
 40
0.053280397
 40
0.0591953838
 40
0.0715623696
 40
0.0846380241
 40
0.098409314
 40
0.1128598612
 40
0.1279703666
 40
0.1437189434
 40
0.1600813876
 40
0.1770314207
 40
0.1945408892
 40
0.212579937
 40
0.2311171586
 40
0.2501197324
 40
0.2695535554
 40
0.2893833698
 40
0.3095728782
 40
0.330084854
 40
0.3508812463
 40
0.3719232845
 40
0.3931715874
 40
0.4145862648
 40
0.4577524943
 40
0.5010972215
 40
0.5442931877
 40
0.5657338055
 40
0.5870153489
 40
0.6080978459
 40
0.6289418171
 40
0.6495083765
 40
0.6697593333
 40
0.6896572975
 40
0.709165794
 40
0.7282493704
 40
0.7468737097
 40
0.765005749
 40
0.7826138079
 40
0.799667733
 40
0.8161390526
 40
0.8320011386
 40
0.8472293986
 40
0.8618014998
 40
0.8756976395
 40
0.8889008818
 40
0.9013975545
 40
0.9073779486
 40
0.9131783323
 40
0.9187981834
 40
0.9242373016
 40
0.9294958263
 40
0.9345743472
 40
0.939473844
 40
0.9441958406
 40
0.9487423954
 40
0.9531161817
 40
0.9573206117
 40
0.9613598365
 40
0.9652389461
 40
0.9689639973
 40
0.9725421665
 40
0.9759818867
 40
0.9792929065
 40
0.9824864724
 40
0.985575332
 40
0.9885738044
 40
0.9914977317
 40
0.9943643325
 40
0.9971920101
 40
1.0
 40
1.0
 40
1.0
 40
1.0
 10
11.211537751
 20
10.7126441529
 30
0.0
 10
11.2105474762
 20
10.7116876209
 30
0.0
 10
11.2084812048
 20
10.7097813157
 30
0.0
 10
11.2052005929
 20
10.7069970028
 30
0.0
 10
11.2016790679
 20
10.7042326446
 30
0.0
 10
11.197918563
 20
10.701489742
 30
0.0
 10
11.1939209325
 20
10.6987695565
 30
0.0
 10
11.1896881143
 20
10.696073431
 30
0.0
 10
11.1852222308
 20
10.693402633
 30
0.0
 10
11.180525497
 20
10.6907585478
 30
0.0
 10
11.1756002771
 20
10.6881424746
 30
0.0
 10
11.1704490395
 20
10.6855557177
 30
0.0
 10
11.165074346
 20
10.6829995806
 30
0.0
 10
11.1575009952
 20
10.6795831217
 30
0.0
 10
11.1474866614
 20
10.6754081529
 30
0.0
 10
11.1347957348
 20
10.6706119089
 30
0.0
 10
11.1212841259
 20
10.6659675015
 30
0.0
 10
11.1069790317
 20
10.6614843555
 30
0.0
 10
11.0919090909
 20
10.6571715829
 30
0.0
 10
11.0761046135
 20
10.6530379648
 30
0.0
 10
11.059597424
 20
10.6490919154
 30
0.0
 10
11.0424208071
 20
10.6453414723
 30
0.0
 10
11.0246094239
 20
10.6417942754
 30
0.0
 10
11.0061992376
 20
10.6384575508
 30
0.0
 10
10.9872274402
 20
10.6353380973
 30
0.0
 10
10.9677323759
 20
10.6324422648
 30
0.0
 10
10.9477534601
 20
10.6297759455
 30
0.0
 10
10.9273310937
 20
10.6273445651
 30
0.0
 10
10.9065065794
 20
10.6251530712
 30
0.0
 10
10.8853220393
 20
10.6232059245
 30
0.0
 10
10.8638203268
 20
10.6215070859
 30
0.0
 10
10.8420449551
 20
10.6200600131
 30
0.0
 10
10.8200399451
 20
10.6188676236
 30
0.0
 10
10.7903758068
 20
10.6176174342
 30
0.0
 10
10.7530496262
 20
10.6167093535
 30
0.0
 10
10.7081778449
 20
10.6166620144
 30
0.0
 10
10.6708305724
 20
10.6174911601
 30
0.0
 10
10.6411330651
 20
10.6186783281
 30
0.0
 10
10.6190910683
 20
10.6198241192
 30
0.0
 10
10.5972706451
 20
10.6212250743
 30
0.0
 10
10.5757159061
 20
10.6228783674
 30
0.0
 10
10.5544704702
 20
10.6247806302
 30
0.0
 10
10.5335773165
 20
10.6269279967
 30
0.0
 10
10.5130787104
 20
10.6293161014
 30
0.0
 10
10.4930161106
 20
10.6319400833
 30
0.0
 10
10.4734300857
 20
10.6347946002
 30
0.0
 10
10.4543602326
 20
10.6378738416
 30
0.0
 10
10.4358450967
 20
10.6411715386
 30
0.0
 10
10.4179220898
 20
10.6446809787
 30
0.0
 10
10.4006274081
 20
10.6483950147
 30
0.0
 10
10.3839959526
 20
10.6523060772
 30
0.0
 10
10.3680612589
 20
10.6564061981
 30
0.0
 10
10.352855419
 20
10.6606870271
 30
0.0
 10
10.3384090308
 20
10.6651398504
 30
0.0
 10
10.3247510397
 20
10.6697556223
 30
0.0
 10
10.3119089434
 20
10.6745249628
 30
0.0
 10
10.3017648511
 20
10.6786779681
 30
0.0
 10
10.2940852253
 20
10.6820776152
 30
0.0
 10
10.2886299214
 20
10.6846223118
 30
0.0
 10
10.283397098
 20
10.6871980759
 30
0.0
 10
10.2783893669
 20
10.6898036265
 30
0.0
 10
10.2736092537
 20
10.6924376897
 30
0.0
 10
10.2690591267
 20
10.6950988998
 30
0.0
 10
10.2647412794
 20
10.6977859852
 30
0.0
 10
10.2606578496
 20
10.7004975849
 30
0.0
 10
10.2568108683
 20
10.7032323714
 30
0.0
 10
10.2532022675
 20
10.7059890427
 30
0.0
 10
10.2498338076
 20
10.7087662191
 30
0.0
 10
10.2467072082
 20
10.7115626385
 30
0.0
 10
10.2438240033
 20
10.7143769414
 30
0.0
 10
10.2411856668
 20
10.7172078457
 30
0.0
 10
10.2387935828
 20
10.720054075
 30
0.0
 10
10.2366489816
 20
10.7229143042
 30
0.0
 10
10.2347531352
 20
10.725787305
 30
0.0
 10
10.2331071156
 20
10.7286717268
 30
0.0
 10
10.2317120412
 20
10.73156626
 30
0.0
 10
10.2305689308
 20
10.7344694988
 30
0.0
 10
10.2296786626
 20
10.7373798991
 30
0.0
 10
10.2290421388
 20
10.7402959387
 30
0.0
 10
10.2286599001
 20
10.7432155426
 30
0.0
 10
10.2285748211
 20
10.745166073
 30
0.0
 10
10.2285748164
 20
10.746137408
 30
0.0
  0
SPLINE
  5
367
100
AcDbEntity
  8
0
100
AcDbSpline
 62
7
  6
CONTINUOUS
 70
0
 71
3
 72
18
 73
14
 74
0
 42
0.0000001
 43
0.0000001
 44
0.0000000001
 40
0.0
 40
0.0
 40
0.0
 40
0.0
 40
0.1504675778
 40
0.2917143634
 40
0.4244426495
 40
0.4879099663
 40
0.5496093894
 40
0.6682625047
 40
0.7817882978
 40
0.8371380147
 40
0.8918078593
 40
0.9460192908
 40
1.0
 40
1.0
 40
1.0
 40
1.0
 10
12.4488888253
 20
10.5350706055
 30
0.0
 10
12.4500337973
 20
10.5361765636
 30
0.0
 10
12.4523221972
 20
10.5382516667
 30
0.0
 10
12.4558655358
 20
10.5410170049
 30
0.0
 10
12.4588584988
 20
10.5429727927
 30
0.0
 10
12.4612451144
 20
10.5442971951
 30
0.0
 10
12.4635615192
 20
10.5454342281
 30
0.0
 10
12.4664577594
 20
10.546583162
 30
0.0
 10
12.4694055191
 20
10.5473672066
 30
0.0
 10
12.4717402347
 20
10.5477534276
 30
0.0
 10
12.4734705792
 20
10.5479248516
 30
0.0
 10
12.4751939255
 20
10.5479802024
 30
0.0
 10
12.4763388733
 20
10.5479396937
 30
0.0
 10
12.4769085992
 20
10.5479001807
 30
0.0
  0
SPLINE
  5
368
100
AcDbEntity
  8
0
100
AcDbSpline
 62
7
  6
CONTINUOUS
 70
0
 71
3
 72
18
 73
14
 74
0
 42
0.0000001
 43
0.0000001
 44
0.0000000001
 40
0.0
 40
0.0
 40
0.0
 40
0.0
 40
0.1504675778
 40
0.2917143634
 40
0.4244426495
 40
0.4879099663
 40
0.5496093894
 40
0.6682625047
 40
0.7817882978
 40
0.8371380147
 40
0.8918078593
 40
0.9460192908
 40
1.0
 40
1.0
 40
1.0
 40
1.0
 10
12.4488888253
 20
9.0253284845
 30
0.0
 10
12.4500337973
 20
9.0264344426
 30
0.0
 10
12.4523221972
 20
9.0285095458
 30
0.0
 10
12.4558655358
 20
9.031274884
 30
0.0
 10
12.4588584988
 20
9.0332306718
 30
0.0
 10
12.4612451144
 20
9.0345550741
 30
0.0
 10
12.4635615192
 20
9.0356921071
 30
0.0
 10
12.4664577594
 20
9.0368410411
 30
0.0
 10
12.4694055191
 20
9.0376250856
 30
0.0
 10
12.4717402347
 20
9.0380113067
 30
0.0
 10
12.4734705792
 20
9.0381827306
 30
0.0
 10
12.4751939255
 20
9.0382380815
 30
0.0
 10
12.4763388733
 20
9.0381975728
 30
0.0
 10
12.4769085992
 20
9.0381580597
 30
0.0
  0
SPLINE
  5
369
100
AcDbEntity
  8
0
100
AcDbSpline
 62
7
  6
CONTINUOUS
 70
0
 71
3
 72
21
 73
17
 74
0
 42
0.0000001
 43
0.0000001
 44
0.0000000001
 40
0.0
 40
0.0
 40
0.0
 40
0.0
 40
0.1273176984
 40
0.2537999461
 40
0.3167619614
 40
0.3795355204
 40
0.4421314992
 40
0.5045621453
 40
0.5668413456
 40
0.6289845231
 40
0.6910084433
 40
0.7529310869
 40
0.8147714401
 40
0.8765493236
 40
0.9382852134
 40
1.0
 40
1.0
 40
1.0
 40
1.0
 10
11.487340424
 20
9.4992698962
 30
0.0
 10
11.487340424
 20
9.493972604
 30
0.0
 10
11.4868347621
 20
9.4834059612
 30
0.0
 10
11.4849250192
 20
9.4703433096
 30
0.0
 10
11.4826424715
 20
9.4600968034
 30
0.0
 10
11.4805609072
 20
9.4525389753
 30
0.0
 10
11.4781120712
 20
9.4451154461
 30
0.0
 10
11.4753016094
 20
9.4378431176
 30
0.0
 10
11.4721360015
 20
9.4307388097
 30
0.0
 10
11.468622483
 20
9.4238189186
 30
0.0
 10
11.4647691818
 20
9.4170993957
 30
0.0
 10
11.4605849845
 20
9.4105957271
 30
0.0
 10
11.4560794999
 20
9.404322962
 30
0.0
 10
11.4512630905
 20
9.3982955067
 30
0.0
 10
11.4461470774
 20
9.3925274292
 30
0.0
 10
11.4425438009
 20
9.3888632067
 30
0.0
 10
11.4406969225
 20
9.38707927
 30
0.0
  0
SPLINE
  5
36A
100
AcDbEntity
  8
0
100
AcDbSpline
 62
7
  6
CONTINUOUS
 70
0
 71
3
 72
21
 73
17
 74
0
 42
0.0000001
 43
0.0000001
 44
0.0000000001
 40
0.0
 40
0.0
 40
0.0
 40
0.0
 40
0.1273176984
 40
0.2537999461
 40
0.3167619614
 40
0.3795355204
 40
0.4421314992
 40
0.5045621453
 40
0.5668413456
 40
0.6289845231
 40
0.6910084433
 40
0.7529310869
 40
0.8147714401
 40
0.8765493236
 40
0.9382852134
 40
1.0
 40
1.0
 40
1.0
 40
1.0
 10
10.5214145405
 20
6.9099608753
 30
0.0
 10
10.5214145405
 20
6.9046635831
 30
0.0
 10
10.5209088786
 20
6.8940969402
 30
0.0
 10
10.5189991357
 20
6.8810342887
 30
0.0
 10
10.516716588
 20
6.8707877824
 30
0.0
 10
10.5146350236
 20
6.8632299544
 30
0.0
 10
10.5121861876
 20
6.8558064252
 30
0.0
 10
10.5093757259
 20
6.8485340967
 30
0.0
 10
10.506210118
 20
6.8414297887
 30
0.0
 10
10.5026965995
 20
6.8345098976
 30
0.0
 10
10.4988432983
 20
6.8277903748
 30
0.0
 10
10.4946591009
 20
6.8212867062
 30
0.0
 10
10.4901536164
 20
6.8150139411
 30
0.0
 10
10.485337207
 20
6.8089864858
 30
0.0
 10
10.4802211939
 20
6.8032184083
 30
0.0
 10
10.4766179174
 20
6.7995541858
 30
0.0
 10
10.4747710389
 20
6.7977702491
 30
0.0
  0
SPLINE
  5
36B
100
AcDbEntity
  8
0
100
AcDbSpline
 62
7
  6
CONTINUOUS
 70
0
 71
3
 72
42
 73
38
 74
0
 42
0.0000001
 43
0.0000001
 44
0.0000000001
 40
0.0
 40
0.0
 40
0.0
 40
0.0
 40
0.0331574546
 40
0.0659393581
 40
0.0983368397
 40
0.1303575433
 40
0.1620260793
 40
0.1933805464
 40
0.2244690358
 40
0.2553461183
 40
0.2860699757
 40
0.3167001217
 40
0.3472960389
 40
0.3779165974
 40
0.4086200718
 40
0.4394644939
 40
0.4705083084
 40
0.5018109684
 40
0.565420002
 40
0.5978662991
 40
0.6308081963
 40
0.6642769177
 40
0.6982542882
 40
0.7326267338
 40
0.767125781
 40
0.7842871989
 40
0.8012954769
 40
0.8180738363
 40
0.8345481085
 40
0.8506536233
 40
0.8663409075
 40
0.8815786505
 40
0.8963534104
 40
0.9245335985
 40
0.9510323079
 40
0.9760962593
 40
1.0
 40
1.0
 40
1.0
 40
1.0
 10
10.7335554814
 20
7.5716332871
 30
0.0
 10
10.7335554814
 20
7.5671129483
 30
0.0
 10
10.7339250415
 20
7.5581187655
 30
0.0
 10
10.7355991128
 20
7.5448021688
 30
0.0
 10
10.7383603626
 20
7.5318254217
 30
0.0
 10
10.7421623963
 20
7.5192737644
 30
0.0
 10
10.7469457696
 20
7.5072158013
 30
0.0
 10
10.7526428719
 20
7.495704267
 30
0.0
 10
10.7591823285
 20
7.4847761563
 30
0.0
 10
10.7664928508
 20
7.4744545154
 30
0.0
 10
10.7745061173
 20
7.464750653
 30
0.0
 10
10.783158747
 20
7.4556665455
 30
0.0
 10
10.7923934896
 20
7.4471970839
 30
0.0
 10
10.8021598373
 20
7.4393320164
 30
0.0
 10
10.8124142943
 20
7.4320575248
 30
0.0
 10
10.8231201903
 20
7.4253575286
 30
0.0
 10
10.8342480644
 20
7.4192144143
 30
0.0
 10
10.8496962203
 20
7.4117030451
 30
0.0
 10
10.8658570154
 20
7.4052742562
 30
0.0
 10
10.8825895715
 20
7.3998510908
 30
0.0
 10
10.8955742006
 20
7.3962262555
 30
0.0
 10
10.908891728
 20
7.3930591331
 30
0.0
 10
10.922506789
 20
7.3903406779
 30
0.0
 10
10.936345287
 20
7.3880680513
 30
0.0
 10
10.9479771627
 20
7.3865459389
 30
0.0
 10
10.9572864702
 20
7.3855549819
 30
0.0
 10
10.9642044717
 20
7.3849314582
 30
0.0
 10
10.9710383572
 20
7.3844286507
 30
0.0
 10
10.9777569357
 20
7.3840488125
 30
0.0
 10
10.9843325832
 20
7.3837938184
 30
0.0
 10
10.9907433249
 20
7.3836650875
 30
0.0
 10
10.9969740259
 20
7.3836635383
 30
0.0
 10
11.0049061258
 20
7.3838292974
 30
0.0
 10
11.0143646667
 20
7.3843417908
 30
0.0
 10
11.0251812095
 20
7.3854834508
 30
0.0
 10
11.035340076
 20
7.3871464758
 30
0.0
 10
11.041852969
 20
7.3886376009
 30
0.0
 10
11.0450025117
 20
7.3894742957
 30
0.0
  0
SPLINE
  5
36C
100
AcDbEntity
  8
0
100
AcDbSpline
 62
7
  6
CONTINUOUS
 70
0
 71
3
 72
21
 73
17
 74
0
 42
0.0000001
 43
0.0000001
 44
0.0000000001
 40
0.0
 40
0.0
 40
0.0
 40
0.0
 40
0.1273176368
 40
0.2537999758
 40
0.3167619477
 40
0.3795355043
 40
0.4421314993
 40
0.504562144
 40
0.5668413432
 40
0.6289845282
 40
0.6910084527
 40
0.7529310934
 40
0.8147714494
 40
0.8765493364
 40
0.9382852193
 40
1.0
 40
1.0
 40
1.0
 40
1.0
 10
11.0599070911
 20
7.4648647541
 30
0.0
 10
11.0599070911
 20
7.4583663827
 30
0.0
 10
11.0592867786
 20
7.4454039098
 30
0.0
 10
11.0569440596
 20
7.4293794926
 30
0.0
 10
11.0541439895
 20
7.4168097382
 30
0.0
 10
11.0515904761
 20
7.4075382829
 30
0.0
 10
11.0485864394
 20
7.3984315661
 30
0.0
 10
11.0451387626
 20
7.3895103381
 30
0.0
 10
11.0412554202
 20
7.3807952253
 30
0.0
 10
11.0369453131
 20
7.3723063259
 30
0.0
 10
11.0322183559
 20
7.364063237
 30
0.0
 10
11.0270854771
 20
7.3560849437
 30
0.0
 10
11.0215584997
 20
7.3483898802
 30
0.0
 10
11.0156500723
 20
7.3409957627
 30
0.0
 10
11.0093740983
 20
7.3339198448
 30
0.0
 10
11.0049538886
 20
7.3294247596
 30
0.0
 10
11.0026882648
 20
7.3272363351
 30
0.0
  0
SPLINE
  5
36D
100
AcDbEntity
  8
0
100
AcDbSpline
 62
7
  6
CONTINUOUS
 70
0
 71
3
 72
41
 73
37
 74
0
 42
0.0000001
 43
0.0000001
 44
0.0000000001
 40
0.0
 40
0.0
 40
0.0
 40
0.0
 40
0.0310749795
 40
0.0466744934
 40
0.0623125012
 40
0.0936974042
 40
0.1252262392
 40
0.1568876811
 40
0.1886675208
 40
0.2205491607
 40
0.2525139234
 40
0.2685235891
 40
0.284546292
 40
0.3166149974
 40
0.3487024458
 40
0.3807858392
 40
0.4128424602
 40
0.4448501235
 40
0.4767876202
 40
0.5086351488
 40
0.540374725
 40
0.5719905649
 40
0.6034694342
 40
0.6348009542
 40
0.6659778599
 40
0.6969961999
 40
0.727855472
 40
0.7585586874
 40
0.7891123568
 40
0.8195263956
 40
0.8498139432
 40
0.879991099
 40
0.9100765763
 40
0.9400912818
 40
0.9700578289
 40
1.0
 40
1.0
 40
1.0
 40
1.0
 10
11.0599070911
 20
7.4648647541
 30
0.0
 10
11.0599070911
 20
7.4699156109
 30
0.0
 10
11.0596247594
 20
7.4775057903
 30
0.0
 10
11.0586923242
 20
7.4875925022
 30
0.0
 10
11.0573857956
 20
7.4976888732
 30
0.0
 10
11.0550567528
 20
7.5102545614
 30
0.0
 10
11.0511719103
 20
7.525140905
 30
0.0
 10
11.046214957
 20
7.5397733739
 30
0.0
 10
11.0402132002
 20
7.554071271
 30
0.0
 10
11.0331999551
 20
7.5679558823
 30
0.0
 10
11.0265472274
 20
7.5791142232
 30
0.0
 10
11.0207608646
 20
7.5877603789
 30
0.0
 10
11.0146678892
 20
7.5962141162
 30
0.0
 10
11.0065014264
 20
7.6063846569
 30
0.0
 10
10.9958791585
 20
7.6178841668
 30
0.0
 10
10.9844885427
 20
7.6286208026
 30
0.0
 10
10.9723923573
 20
7.6385352317
 30
0.0
 10
10.9596569054
 20
7.6475731112
 30
0.0
 10
10.9463520831
 20
7.6556847567
 30
0.0
 10
10.9325508858
 20
7.6628255803
 30
0.0
 10
10.918329044
 20
7.6689562905
 30
0.0
 10
10.9037646049
 20
7.6740431196
 30
0.0
 10
10.8889375118
 20
7.6780580066
 30
0.0
 10
10.8739291711
 20
7.6809787537
 30
0.0
 10
10.8588220116
 20
7.6827891518
 30
0.0
 10
10.843699038
 20
7.6834790748
 30
0.0
 10
10.8286433803
 20
7.6830445419
 30
0.0
 10
10.8137378406
 20
7.6814877485
 30
0.0
 10
10.7990644412
 20
7.678817064
 30
0.0
 10
10.784703971
 20
7.6750469955
 30
0.0
 10
10.7707355459
 20
7.6701981258
 30
0.0
 10
10.7572361404
 20
7.6642969849
 30
0.0
 10
10.7442802561
 20
7.6573760113
 30
0.0
 10
10.7319391238
 20
7.6494730156
 30
0.0
 10
10.7202817004
 20
7.6406323313
 30
0.0
 10
10.7130056145
 20
7.6341429121
 30
0.0
 10
10.7095051946
 20
7.6307617662
 30
0.0
  0
SPLINE
  5
36E
100
AcDbEntity
  8
0
100
AcDbSpline
 62
7
  6
CONTINUOUS
 70
0
 71
3
 72
17
 73
13
 74
0
 42
0.0000001
 43
0.0000001
 44
0.0000000001
 40
0.0
 40
0.0
 40
0.0
 40
0.0
 40
0.0548647422
 40
0.1099333913
 40
0.1654074837
 40
0.2214837877
 40
0.336145709
 40
0.4553802063
 40
0.5804211709
 40
0.7123203349
 40
0.8519514223
 40
1.0
 40
1.0
 40
1.0
 40
1.0
 10
11.2285748021
 20
10.7461380852
 30
0.0
 10
11.2285748055
 20
10.7454319389
 30
0.0
 10
11.228529995
 20
10.7440166137
 30
0.0
 10
11.2283285121
 20
10.7418959398
 30
0.0
 10
11.2279927302
 20
10.7397764394
 30
0.0
 10
11.2273617415
 20
10.7369325672
 30
0.0
 10
11.2262249375
 20
10.733368071
 30
0.0
 10
11.224334963
 20
10.7291432256
 30
0.0
 10
11.2219132518
 20
10.7249419061
 30
0.0
 10
11.2189638398
 20
10.7207682332
 30
0.0
 10
11.2154910819
 20
10.7166258228
 30
0.0
 10
11.2129082801
 20
10.7139679824
 30
0.0
 10
11.211537751
 20
10.7126441529
 30
0.0
  0
SPLINE
  5
36F
100
AcDbEntity
  8
0
100
AcDbSpline
 62
7
  6
CONTINUOUS
 70
0
 71
3
 72
11
 73
7
 74
0
 42
0.0000001
 43
0.0000001
 44
0.0000000001
 40
0.0
 40
0.0
 40
0.0
 40
0.0
 40
0.2517939707
 40
0.5021769366
 40
0.7514598969
 40
1.0
 40
1.0
 40
1.0
 40
1.0
 10
10.7553497446
 20
7.6631724232
 30
0.0
 10
10.752476176
 20
7.658118933
 30
0.0
 10
10.7471809155
 20
7.6477847551
 30
0.0
 10
10.7406666508
 20
7.631680311
 30
0.0
 10
10.7356495748
 20
7.6151268182
 30
0.0
 10
10.7333206309
 20
7.6038526931
 30
0.0
 10
10.7324155894
 20
7.5981862788
 30
0.0
  0
SPLINE
  5
370
100
AcDbEntity
  8
0
100
AcDbSpline
 62
7
  6
CONTINUOUS
 70
0
 71
3
 72
42
 73
38
 74
0
 42
0.0000001
 43
0.0000001
 44
0.0000000001
 40
0.0
 40
0.0
 40
0.0
 40
0.0
 40
0.0299419634
 40
0.0449235299
 40
0.0599142017
 40
0.0899287029
 40
0.1200139772
 40
0.1350926626
 40
0.1501967046
 40
0.1804840506
 40
0.2108978877
 40
0.2414513551
 40
0.2721543675
 40
0.3030134354
 40
0.3340315696
 40
0.3652082675
 40
0.3965395775
 40
0.4280182343
 40
0.4596338596
 40
0.4913732188
 40
0.5232205284
 40
0.5551578047
 40
0.5871652463
 40
0.6192216448
 40
0.6513048151
 40
0.6833920402
 40
0.7154605222
 40
0.747487836
 40
0.7794523759
 40
0.8113337934
 40
0.8431134117
 40
0.8747746318
 40
0.9063032512
 40
0.9376879208
 40
0.9533258
 40
0.9689252634
 40
1.0
 40
1.0
 40
1.0
 40
1.0
 10
11.2017054217
 20
9.6345041149
 30
0.0
 10
11.204558846
 20
9.6372602944
 30
0.0
 10
11.2090071803
 20
9.6412275515
 30
0.0
 10
11.2152369722
 20
9.6461500535
 30
0.0
 10
11.2216651517
 20
9.6508276044
 30
0.0
 10
11.230052869
 20
9.6561989481
 30
0.0
 10
11.2388484022
 20
9.6608973194
 30
0.0
 10
11.2461024376
 20
9.6642397454
 30
0.0
 10
11.2535063201
 20
9.667306249
 30
0.0
 10
11.2630051656
 20
9.670603607
 30
0.0
 10
11.2747110529
 20
9.673676662
 30
0.0
 10
11.2866723645
 20
9.6758536849
 30
0.0
 10
11.2988228125
 20
9.6771226653
 30
0.0
 10
11.3110956519
 20
9.6774768312
 30
0.0
 10
11.3234233541
 20
9.6769143799
 30
0.0
 10
11.3357381632
 20
9.6754385606
 30
0.0
 10
11.3479724149
 20
9.6730576274
 30
0.0
 10
11.360058917
 20
9.669784794
 30
0.0
 10
11.3719313105
 20
9.6656381558
 30
0.0
 10
11.3835244291
 20
9.6606405875
 30
0.0
 10
11.3947746522
 20
9.654819616
 30
0.0
 10
11.4056202486
 20
9.6482072685
 30
0.0
 10
11.4160017111
 20
9.6408398968
 30
0.0
 10
11.4258620789
 20
9.6327579788
 30
0.0
 10
11.435147246
 20
9.6240058977
 30
0.0
 10
11.4438062554
 20
9.6146317006
 30
0.0
 10
11.4517915751
 20
9.6046868373
 30
0.0
 10
11.4590593571
 20
9.5942258803
 30
0.0
 10
11.4655696756
 20
9.5833062313
 30
0.0
 10
11.4712867446
 20
9.5719877981
 30
0.0
 10
11.4761791121
 20
9.5603327158
 30
0.0
 10
11.4802198422
 20
9.5484048384
 30
0.0
 10
11.4833866127
 20
9.5362700315
 30
0.0
 10
11.485285162
 20
9.5260269389
 30
0.0
 10
11.4863501918
 20
9.5177967381
 30
0.0
 10
11.4871102774
 20
9.5095744131
 30
0.0
 10
11.487340424
 20
9.5033871688
 30
0.0
 10
11.487340424
 20
9.4992698962
 30
0.0
  0
SPLINE
  5
371
100
AcDbEntity
  8
0
100
AcDbSpline
 62
7
  6
CONTINUOUS
 70
0
 71
3
 72
42
 73
38
 74
0
 42
0.0000001
 43
0.0000001
 44
0.0000000001
 40
0.0
 40
0.0
 40
0.0
 40
0.0
 40
0.0299419634
 40
0.0449235299
 40
0.0599142017
 40
0.0899287029
 40
0.1200139772
 40
0.1350926626
 40
0.1501967046
 40
0.1804840506
 40
0.2108978877
 40
0.2414513551
 40
0.2721543675
 40
0.3030134354
 40
0.3340315696
 40
0.3652082675
 40
0.3965395775
 40
0.4280182343
 40
0.4596338596
 40
0.4913732188
 40
0.5232205284
 40
0.5551578047
 40
0.5871652463
 40
0.6192216448
 40
0.6513048151
 40
0.6833920402
 40
0.7154605222
 40
0.747487836
 40
0.7794523759
 40
0.8113337934
 40
0.8431134117
 40
0.8747746318
 40
0.9063032512
 40
0.9376879208
 40
0.9533258
 40
0.9689252634
 40
1.0
 40
1.0
 40
1.0
 40
1.0
 10
10.2357795382
 20
7.045195094
 30
0.0
 10
10.2386329625
 20
7.0479512735
 30
0.0
 10
10.2430812968
 20
7.0519185306
 30
0.0
 10
10.2493110887
 20
7.0568410326
 30
0.0
 10
10.2557392682
 20
7.0615185834
 30
0.0
 10
10.2641269855
 20
7.0668899272
 30
0.0
 10
10.2729225187
 20
7.0715882985
 30
0.0
 10
10.2801765541
 20
7.0749307245
 30
0.0
 10
10.2875804366
 20
7.0779972281
 30
0.0
 10
10.2970792821
 20
7.0812945861
 30
0.0
 10
10.3087851694
 20
7.0843676411
 30
0.0
 10
10.320746481
 20
7.086544664
 30
0.0
 10
10.332896929
 20
7.0878136444
 30
0.0
 10
10.3451697684
 20
7.0881678102
 30
0.0
 10
10.3574974706
 20
7.087605359
 30
0.0
 10
10.3698122797
 20
7.0861295397
 30
0.0
 10
10.3820465313
 20
7.0837486065
 30
0.0
 10
10.3941330335
 20
7.0804757731
 30
0.0
 10
10.4060054269
 20
7.0763291348
 30
0.0
 10
10.4175985456
 20
7.0713315666
 30
0.0
 10
10.4288487687
 20
7.0655105951
 30
0.0
 10
10.4396943651
 20
7.0588982476
 30
0.0
 10
10.4500758276
 20
7.0515308759
 30
0.0
 10
10.4599361954
 20
7.0434489578
 30
0.0
 10
10.4692213625
 20
7.0346968767
 30
0.0
 10
10.4778803719
 20
7.0253226796
 30
0.0
 10
10.4858656916
 20
7.0153778164
 30
0.0
 10
10.4931334736
 20
7.0049168593
 30
0.0
 10
10.4996437921
 20
6.9939972104
 30
0.0
 10
10.505360861
 20
6.9826787771
 30
0.0
 10
10.5102532285
 20
6.9710236949
 30
0.0
 10
10.5142939587
 20
6.9590958174
 30
0.0
 10
10.5174607292
 20
6.9469610105
 30
0.0
 10
10.5193592784
 20
6.9367179179
 30
0.0
 10
10.5204243083
 20
6.9284877172
 30
0.0
 10
10.5211843939
 20
6.9202653921
 30
0.0
 10
10.5214145405
 20
6.9140781479
 30
0.0
 10
10.5214145405
 20
6.9099608753
 30
0.0
  0
SPLINE
  5
372
100
AcDbEntity
  8
0
100
AcDbSpline
 62
7
  6
CONTINUOUS
 70
0
 71
3
 72
79
 73
75
 74
0
 42
0.0000001
 43
0.0000001
 44
0.0000000001
 40
0.0
 40
0.0
 40
0.0
 40
0.0
 40
0.0027164347
 40
0.0054532488
 40
0.0082303236
 40
0.0110666256
 40
0.0139798465
 40
0.0169861596
 40
0.02010014
 40
0.0233346673
 40
0.0267010303
 40
0.0302090039
 40
0.0338669236
 40
0.0376819087
 40
0.0416598992
 40
0.0458058334
 40
0.050123788
 40
0.0546169889
 40
0.0592880183
 40
0.0641388147
 40
0.0691707474
 40
0.0743847509
 40
0.0853596772
 40
0.0970635614
 40
0.1094903495
 40
0.122629634
 40
0.1364673293
 40
0.1509861741
 40
0.1661661143
 40
0.1819846001
 40
0.1984168698
 40
0.2154361725
 40
0.2330139498
 40
0.2511199804
 40
0.269722539
 40
0.2887885422
 40
0.3082836705
 40
0.3281724738
 40
0.3484184816
 40
0.3689843266
 40
0.4109214294
 40
0.4536715193
 40
0.4969136093
 40
0.540321979
 40
0.5835693174
 40
0.6263298478
 40
0.6682824923
 40
0.6888579727
 40
0.7091148233
 40
0.7290156552
 40
0.7485239752
 40
0.7676042909
 40
0.7862222357
 40
0.8043446912
 40
0.8219398969
 40
0.8389775799
 40
0.8554291082
 40
0.8712676747
 40
0.8864684624
 40
0.9010088541
 40
0.9148686911
 40
0.9280306123
 40
0.9404804379
 40
0.9522076406
 40
0.9577984259
 40
0.9632066633
 40
0.9684323655
 40
0.9734759744
 40
0.9783383356
 40
0.9830207896
 40
0.9875253575
 40
0.9918546105
 40
0.9960116061
 40
1.0
 40
1.0
 40
1.0
 40
1.0
 10
12.4208690514
 20
9.7398410646
 30
0.0
 10
12.4201131694
 20
9.7398934885
 30
0.0
 10
12.418599604
 20
9.7400671376
 30
0.0
 10
12.4163485354
 20
9.7405318645
 30
0.0
 10
12.4141144722
 20
9.7412006835
 30
0.0
 10
12.4118990141
 20
9.7420729977
 30
0.0
 10
12.4097033179
 20
9.7431480365
 30
0.0
 10
12.4075284731
 20
9.7444249033
 30
0.0
 10
12.4053755323
 20
9.7459027673
 30
0.0
 10
12.4032454097
 20
9.7475806272
 30
0.0
 10
12.4011390389
 20
9.7494575276
 30
0.0
 10
12.3990573519
 20
9.7515324607
 30
0.0
 10
12.3970012078
 20
9.7538043017
 30
0.0
 10
12.394971571
 20
9.7562719419
 30
0.0
 10
12.3929693313
 20
9.7589341258
 30
0.0
 10
12.3909954053
 20
9.7617895368
 30
0.0
 10
12.3890507609
 20
9.7648367913
 30
0.0
 10
12.3871362727
 20
9.7680743613
 30
0.0
 10
12.3852529006
 20
9.7715006721
 30
0.0
 10
12.3834015623
 20
9.7751140253
 30
0.0
 10
12.3815831131
 20
9.7789126319
 30
0.0
 10
12.3791622094
 20
9.7843146502
 30
0.0
 10
12.3762345894
 20
9.7915259977
 30
0.0
 10
12.3729242585
 20
9.8007439342
 30
0.0
 10
12.3697657938
 20
9.8106503977
 30
0.0
 10
12.3667655444
 20
9.8212256596
 30
0.0
 10
12.3639295667
 20
9.8324488209
 30
0.0
 10
12.3612636156
 20
9.8442975377
 30
0.0
 10
12.3587731142
 20
9.8567481738
 30
0.0
 10
12.3564631205
 20
9.869775827
 30
0.0
 10
12.354338334
 20
9.8833544046
 30
0.0
 10
12.3524030807
 20
9.8974566873
 30
0.0
 10
12.3506613065
 20
9.9120543839
 30
0.0
 10
12.3491165541
 20
9.9271181867
 30
0.0
 10
12.3477719636
 20
9.9426178371
 30
0.0
 10
12.3466302736
 20
9.9585221936
 30
0.0
 10
12.3456938127
 20
9.9747992982
 30
0.0
 10
12.3449644986
 20
9.9914164257
 30
0.0
 10
12.3444437911
 20
10.0083401943
 30
0.0
 10
12.3440264906
 20
10.0314181755
 30
0.0
 10
12.3440404081
 20
10.0607796095
 30
0.0
 10
12.3448936961
 20
10.0964559014
 30
0.0
 10
12.3465772844
 20
10.1325135208
 30
0.0
 10
12.3490777323
 20
10.1686626671
 30
0.0
 10
12.3523749365
 20
10.2046130591
 30
0.0
 10
12.3564423579
 20
10.2400757672
 30
0.0
 10
12.3604717249
 20
10.2691694345
 30
0.0
 10
12.3640630721
 20
10.2919802534
 30
0.0
 10
12.3669095287
 20
10.3086802494
 30
0.0
 10
12.3699204564
 20
10.3250488119
 30
0.0
 10
12.3730898063
 20
10.3410530603
 30
0.0
 10
12.3764111793
 20
10.3566608186
 30
0.0
 10
12.3798778718
 20
10.3718407251
 30
0.0
 10
12.3834828769
 20
10.3865622891
 30
0.0
 10
12.3872189122
 20
10.4007959496
 30
0.0
 10
12.3910784312
 20
10.4145131338
 30
0.0
 10
12.3950536398
 20
10.4276863235
 30
0.0
 10
12.3991364978
 20
10.4402891214
 30
0.0
 10
12.403318753
 20
10.4522963015
 30
0.0
 10
12.407591958
 20
10.4636838656
 30
0.0
 10
12.411947495
 20
10.4744290811
 30
0.0
 10
12.4163765918
 20
10.4845106304
 30
0.0
 10
12.4208703341
 20
10.4939083883
 30
0.0
 10
12.4247204114
 20
10.501267557
 30
0.0
 10
12.4278322622
 20
10.5067907119
 30
0.0
 10
12.430139448
 20
10.5106844642
 30
0.0
 10
12.4324560567
 20
10.5143938767
 30
0.0
 10
12.4347809263
 20
10.5179171158
 30
0.0
 10
12.4371128867
 20
10.5212524323
 30
0.0
 10
12.4394508391
 20
10.5243981707
 30
0.0
 10
12.4417936299
 20
10.5273528294
 30
0.0
 10
12.4441401875
 20
10.5301149381
 30
0.0
 10
12.4464892126
 20
10.5326829985
 30
0.0
 10
12.4480886643
 20
10.5342977093
 30
0.0
 10
12.4488888253
 20
10.5350706055
 30
0.0
  0
SPLINE
  5
373
100
AcDbEntity
  8
0
100
AcDbSpline
 62
7
  6
CONTINUOUS
 70
0
 71
3
 72
24
 73
20
 74
0
 42
0.0000001
 43
0.0000001
 44
0.0000000001
 40
0.0
 40
0.0
 40
0.0
 40
0.0
 40
0.0174479687
 40
0.0353006349
 40
0.0725901313
 40
0.1125924036
 40
0.1558541596
 40
0.202786502
 40
0.2536867289
 40
0.3087613032
 40
0.3681450711
 40
0.4319158599
 40
0.5001064224
 40
0.5727132673
 40
0.6497025909
 40
0.7310153105
 40
0.8165711698
 40
0.9062712336
 40
1.0
 40
1.0
 40
1.0
 40
1.0
 10
12.3923216103
 20
9.837517275
 30
0.0
 10
12.3917639153
 20
9.8376810582
 30
0.0
 10
12.3906490483
 20
9.8380602238
 30
0.0
 10
12.3884274942
 20
9.8390207242
 30
0.0
 10
12.3856730199
 20
9.8406134599
 30
0.0
 10
12.3824889906
 20
9.8430771167
 30
0.0
 10
12.3793799863
 20
9.8461131105
 30
0.0
 10
12.3763497271
 20
9.8497144099
 30
0.0
 10
12.3734014265
 20
9.8538743365
 30
0.0
 10
12.3705392448
 20
9.8585855716
 30
0.0
 10
12.3677676858
 20
9.8638398948
 30
0.0
 10
12.3650914558
 20
9.8696279653
 30
0.0
 10
12.3625153337
 20
9.8759393388
 30
0.0
 10
12.360044087
 20
9.8827624788
 30
0.0
 10
12.3576823426
 20
9.8900847674
 30
0.0
 10
12.3554345647
 20
9.897892554
 30
0.0
 10
12.3533050523
 20
9.906171232
 30
0.0
 10
12.3512978998
 20
9.914905181
 30
0.0
 10
12.3500702793
 20
9.9208918206
 30
0.0
 10
12.3494756312
 20
9.9239570779
 30
0.0
  0
SPLINE
  5
374
100
AcDbEntity
  8
0
100
AcDbSpline
 62
7
  6
CONTINUOUS
 70
0
 71
3
 72
22
 73
18
 74
0
 42
0.0000001
 43
0.0000001
 44
0.0000000001
 40
0.0
 40
0.0
 40
0.0
 40
0.0
 40
0.1606344869
 40
0.2373287125
 40
0.3115425113
 40
0.3832341392
 40
0.4523670593
 40
0.5189101967
 40
0.5828389919
 40
0.6441355465
 40
0.7027904032
 40
0.7588022704
 40
0.8121803508
 40
0.8629454581
 40
0.9111344456
 40
0.9567978168
 40
1.0
 40
1.0
 40
1.0
 40
1.0
 10
12.3807034128
 20
10.3751679087
 30
0.0
 10
12.3820928122
 20
10.3792304176
 30
0.0
 10
12.3842330588
 20
10.3852034529
 30
0.0
 10
12.387242698
 20
10.3929679805
 30
0.0
 10
12.3894929411
 20
10.3984762024
 30
0.0
 10
12.3917690197
 20
10.4037544123
 30
0.0
 10
12.3940688764
 20
10.4087978521
 30
0.0
 10
12.3963904283
 20
10.4136019492
 30
0.0
 10
12.3987315412
 20
10.4181623763
 30
0.0
 10
12.401090129
 20
10.4224750171
 30
0.0
 10
12.4034640279
 20
10.4265360141
 30
0.0
 10
12.4058511501
 20
10.4303417038
 30
0.0
 10
12.4082493012
 20
10.4338887207
 30
0.0
 10
12.4106564434
 20
10.4371739048
 30
0.0
 10
12.4130705123
 20
10.4401944459
 30
0.0
 10
12.4154893256
 20
10.4429474314
 30
0.0
 10
12.4171486494
 20
10.4446489899
 30
0.0
 10
12.4179791963
 20
10.4454512366
 30
0.0
  0
SPLINE
  5
375
100
AcDbEntity
  8
0
100
AcDbSpline
 62
7
  6
CONTINUOUS
 70
0
 71
3
 72
15
 73
11
 74
0
 42
0.0000001
 43
0.0000001
 44
0.0000000001
 40
0.0
 40
0.0
 40
0.0
 40
0.0
 40
0.1080211785
 40
0.2193204717
 40
0.334817338
 40
0.4553248275
 40
0.5815481723
 40
0.7140890849
 40
0.8534427369
 40
1.0
 40
1.0
 40
1.0
 40
1.0
 10
12.4351506788
 20
10.455099568
 30
0.0
 10
12.4344380209
 20
10.4549939159
 30
0.0
 10
12.433001369
 20
10.4547034904
 30
0.0
 10
12.4308635592
 20
10.4540473473
 30
0.0
 10
12.4287179001
 20
10.4531665913
 30
0.0
 10
12.4265662088
 20
10.4520623463
 30
0.0
 10
12.4244097103
 20
10.4507358004
 30
0.0
 10
12.4222497145
 20
10.4491881222
 30
0.0
 10
12.4200876957
 20
10.4474207207
 30
0.0
 10
12.4186822411
 20
10.4461303258
 30
0.0
 10
12.4179791963
 20
10.4454512366
 30
0.0
  0
SPLINE
  5
376
100
AcDbEntity
  8
0
100
AcDbSpline
 62
7
  6
CONTINUOUS
 70
0
 71
3
 72
79
 73
75
 74
0
 42
0.0000001
 43
0.0000001
 44
0.0000000001
 40
0.0
 40
0.0
 40
0.0
 40
0.0
 40
0.0027164347
 40
0.0054532488
 40
0.0082303236
 40
0.0110666256
 40
0.0139798465
 40
0.0169861596
 40
0.02010014
 40
0.0233346673
 40
0.0267010303
 40
0.0302090039
 40
0.0338669236
 40
0.0376819087
 40
0.0416598992
 40
0.0458058334
 40
0.050123788
 40
0.0546169889
 40
0.0592880183
 40
0.0641388147
 40
0.0691707474
 40
0.0743847509
 40
0.0853596772
 40
0.0970635614
 40
0.1094903495
 40
0.122629634
 40
0.1364673293
 40
0.1509861741
 40
0.1661661143
 40
0.1819846001
 40
0.1984168698
 40
0.2154361725
 40
0.2330139498
 40
0.2511199804
 40
0.269722539
 40
0.2887885422
 40
0.3082836705
 40
0.3281724738
 40
0.3484184816
 40
0.3689843266
 40
0.4109214294
 40
0.4536715193
 40
0.4969136093
 40
0.540321979
 40
0.5835693174
 40
0.6263298478
 40
0.6682824923
 40
0.6888579727
 40
0.7091148233
 40
0.7290156552
 40
0.7485239752
 40
0.7676042909
 40
0.7862222357
 40
0.8043446912
 40
0.8219398969
 40
0.8389775799
 40
0.8554291082
 40
0.8712676747
 40
0.8864684624
 40
0.9010088541
 40
0.9148686911
 40
0.9280306123
 40
0.9404804379
 40
0.9522076406
 40
0.9577984259
 40
0.9632066633
 40
0.9684323655
 40
0.9734759744
 40
0.9783383356
 40
0.9830207896
 40
0.9875253575
 40
0.9918546105
 40
0.9960116061
 40
1.0
 40
1.0
 40
1.0
 40
1.0
 10
12.4208690514
 20
8.2300989437
 30
0.0
 10
12.4201131694
 20
8.2301513675
 30
0.0
 10
12.418599604
 20
8.2303250167
 30
0.0
 10
12.4163485354
 20
8.2307897436
 30
0.0
 10
12.4141144722
 20
8.2314585626
 30
0.0
 10
12.4118990141
 20
8.2323308768
 30
0.0
 10
12.4097033179
 20
8.2334059155
 30
0.0
 10
12.4075284731
 20
8.2346827824
 30
0.0
 10
12.4053755323
 20
8.2361606463
 30
0.0
 10
12.4032454097
 20
8.2378385063
 30
0.0
 10
12.4011390389
 20
8.2397154067
 30
0.0
 10
12.3990573519
 20
8.2417903397
 30
0.0
 10
12.3970012078
 20
8.2440621808
 30
0.0
 10
12.394971571
 20
8.246529821
 30
0.0
 10
12.3929693313
 20
8.2491920048
 30
0.0
 10
12.3909954053
 20
8.2520474159
 30
0.0
 10
12.3890507609
 20
8.2550946704
 30
0.0
 10
12.3871362727
 20
8.2583322404
 30
0.0
 10
12.3852529006
 20
8.2617585511
 30
0.0
 10
12.3834015623
 20
8.2653719044
 30
0.0
 10
12.3815831131
 20
8.2691705109
 30
0.0
 10
12.3791622094
 20
8.2745725293
 30
0.0
 10
12.3762345894
 20
8.2817838768
 30
0.0
 10
12.3729242585
 20
8.2910018133
 30
0.0
 10
12.3697657938
 20
8.3009082767
 30
0.0
 10
12.3667655444
 20
8.3114835387
 30
0.0
 10
12.3639295667
 20
8.3227066999
 30
0.0
 10
12.3612636156
 20
8.3345554168
 30
0.0
 10
12.3587731142
 20
8.3470060529
 30
0.0
 10
12.3564631205
 20
8.360033706
 30
0.0
 10
12.354338334
 20
8.3736122837
 30
0.0
 10
12.3524030807
 20
8.3877145664
 30
0.0
 10
12.3506613065
 20
8.4023122629
 30
0.0
 10
12.3491165541
 20
8.4173760658
 30
0.0
 10
12.3477719636
 20
8.4328757162
 30
0.0
 10
12.3466302736
 20
8.4487800726
 30
0.0
 10
12.3456938127
 20
8.4650571773
 30
0.0
 10
12.3449644986
 20
8.4816743047
 30
0.0
 10
12.3444437911
 20
8.4985980733
 30
0.0
 10
12.3440264906
 20
8.5216760546
 30
0.0
 10
12.3440404081
 20
8.5510374886
 30
0.0
 10
12.3448936961
 20
8.5867137805
 30
0.0
 10
12.3465772844
 20
8.6227713998
 30
0.0
 10
12.3490777323
 20
8.6589205461
 30
0.0
 10
12.3523749365
 20
8.6948709382
 30
0.0
 10
12.3564423579
 20
8.7303336462
 30
0.0
 10
12.3604717249
 20
8.7594273136
 30
0.0
 10
12.3640630721
 20
8.7822381325
 30
0.0
 10
12.3669095287
 20
8.7989381285
 30
0.0
 10
12.3699204564
 20
8.815306691
 30
0.0
 10
12.3730898063
 20
8.8313109394
 30
0.0
 10
12.3764111793
 20
8.8469186977
 30
0.0
 10
12.3798778718
 20
8.8620986042
 30
0.0
 10
12.3834828769
 20
8.8768201682
 30
0.0
 10
12.3872189122
 20
8.8910538287
 30
0.0
 10
12.3910784312
 20
8.9047710129
 30
0.0
 10
12.3950536398
 20
8.9179442025
 30
0.0
 10
12.3991364978
 20
8.9305470005
 30
0.0
 10
12.403318753
 20
8.9425541805
 30
0.0
 10
12.407591958
 20
8.9539417447
 30
0.0
 10
12.411947495
 20
8.9646869602
 30
0.0
 10
12.4163765918
 20
8.9747685095
 30
0.0
 10
12.4208703341
 20
8.9841662674
 30
0.0
 10
12.4247204114
 20
8.9915254361
 30
0.0
 10
12.4278322622
 20
8.997048591
 30
0.0
 10
12.430139448
 20
9.0009423432
 30
0.0
 10
12.4324560567
 20
9.0046517558
 30
0.0
 10
12.4347809263
 20
9.0081749949
 30
0.0
 10
12.4371128867
 20
9.0115103113
 30
0.0
 10
12.4394508391
 20
9.0146560497
 30
0.0
 10
12.4417936299
 20
9.0176107084
 30
0.0
 10
12.4441401875
 20
9.0203728171
 30
0.0
 10
12.4464892126
 20
9.0229408776
 30
0.0
 10
12.4480886643
 20
9.0245555883
 30
0.0
 10
12.4488888253
 20
9.0253284845
 30
0.0
  0
SPLINE
  5
377
100
AcDbEntity
  8
0
100
AcDbSpline
 62
7
  6
CONTINUOUS
 70
0
 71
3
 72
24
 73
20
 74
0
 42
0.0000001
 43
0.0000001
 44
0.0000000001
 40
0.0
 40
0.0
 40
0.0
 40
0.0
 40
0.0174479687
 40
0.0353006349
 40
0.0725901313
 40
0.1125924036
 40
0.1558541596
 40
0.202786502
 40
0.2536867289
 40
0.3087613032
 40
0.3681450711
 40
0.4319158599
 40
0.5001064224
 40
0.5727132673
 40
0.6497025909
 40
0.7310153105
 40
0.8165711698
 40
0.9062712336
 40
1.0
 40
1.0
 40
1.0
 40
1.0
 10
12.3923216103
 20
8.3277751541
 30
0.0
 10
12.3917639153
 20
8.3279389373
 30
0.0
 10
12.3906490483
 20
8.3283181028
 30
0.0
 10
12.3884274942
 20
8.3292786032
 30
0.0
 10
12.3856730199
 20
8.330871339
 30
0.0
 10
12.3824889906
 20
8.3333349957
 30
0.0
 10
12.3793799863
 20
8.3363709896
 30
0.0
 10
12.3763497271
 20
8.339972289
 30
0.0
 10
12.3734014265
 20
8.3441322156
 30
0.0
 10
12.3705392448
 20
8.3488434507
 30
0.0
 10
12.3677676858
 20
8.3540977738
 30
0.0
 10
12.3650914558
 20
8.3598858444
 30
0.0
 10
12.3625153337
 20
8.3661972178
 30
0.0
 10
12.360044087
 20
8.3730203578
 30
0.0
 10
12.3576823426
 20
8.3803426465
 30
0.0
 10
12.3554345647
 20
8.3881504331
 30
0.0
 10
12.3533050523
 20
8.3964291111
 30
0.0
 10
12.3512978998
 20
8.40516306
 30
0.0
 10
12.3500702793
 20
8.4111496996
 30
0.0
 10
12.3494756312
 20
8.414214957
 30
0.0
  0
SPLINE
  5
378
100
AcDbEntity
  8
0
100
AcDbSpline
 62
7
  6
CONTINUOUS
 70
0
 71
3
 72
22
 73
18
 74
0
 42
0.0000001
 43
0.0000001
 44
0.0000000001
 40
0.0
 40
0.0
 40
0.0
 40
0.0
 40
0.1606344869
 40
0.2373287125
 40
0.3115425113
 40
0.3832341392
 40
0.4523670593
 40
0.5189101967
 40
0.5828389919
 40
0.6441355465
 40
0.7027904032
 40
0.7588022704
 40
0.8121803508
 40
0.8629454581
 40
0.9111344456
 40
0.9567978168
 40
1.0
 40
1.0
 40
1.0
 40
1.0
 10
12.3807034128
 20
8.8654257878
 30
0.0
 10
12.3820928122
 20
8.8694882966
 30
0.0
 10
12.3842330588
 20
8.875461332
 30
0.0
 10
12.387242698
 20
8.8832258596
 30
0.0
 10
12.3894929411
 20
8.8887340815
 30
0.0
 10
12.3917690197
 20
8.8940122913
 30
0.0
 10
12.3940688764
 20
8.8990557311
 30
0.0
 10
12.3963904283
 20
8.9038598283
 30
0.0
 10
12.3987315412
 20
8.9084202554
 30
0.0
 10
12.401090129
 20
8.9127328961
 30
0.0
 10
12.4034640279
 20
8.9167938931
 30
0.0
 10
12.4058511501
 20
8.9205995828
 30
0.0
 10
12.4082493012
 20
8.9241465997
 30
0.0
 10
12.4106564434
 20
8.9274317838
 30
0.0
 10
12.4130705123
 20
8.9304523249
 30
0.0
 10
12.4154893256
 20
8.9332053104
 30
0.0
 10
12.4171486494
 20
8.9349068689
 30
0.0
 10
12.4179791963
 20
8.9357091157
 30
0.0
  0
SPLINE
  5
379
100
AcDbEntity
  8
0
100
AcDbSpline
 62
7
  6
CONTINUOUS
 70
0
 71
3
 72
15
 73
11
 74
0
 42
0.0000001
 43
0.0000001
 44
0.0000000001
 40
0.0
 40
0.0
 40
0.0
 40
0.0
 40
0.1080211785
 40
0.2193204717
 40
0.334817338
 40
0.4553248275
 40
0.5815481723
 40
0.7140890849
 40
0.8534427369
 40
1.0
 40
1.0
 40
1.0
 40
1.0
 10
12.4351506788
 20
8.9453574471
 30
0.0
 10
12.4344380209
 20
8.945251795
 30
0.0
 10
12.433001369
 20
8.9449613695
 30
0.0
 10
12.4308635592
 20
8.9443052264
 30
0.0
 10
12.4287179001
 20
8.9434244704
 30
0.0
 10
12.4265662088
 20
8.9423202254
 30
0.0
 10
12.4244097103
 20
8.9409936795
 30
0.0
 10
12.4222497145
 20
8.9394460013
 30
0.0
 10
12.4200876957
 20
8.9376785997
 30
0.0
 10
12.4186822411
 20
8.9363882048
 30
0.0
 10
12.4179791963
 20
8.9357091157
 30
0.0
  0
SPLINE
  5
37A
100
AcDbEntity
  8
0
100
AcDbSpline
 62
7
  6
CONTINUOUS
 70
0
 71
3
 72
71
 73
67
 74
0
 42
0.0000001
 43
0.0000001
 44
0.0000000001
 40
0.0
 40
0.0
 40
0.0
 40
0.0
 40
0.0038468659
 40
0.007847678
 40
0.0120056475
 40
0.0163234647
 40
0.0208034324
 40
0.02544742
 40
0.030256778
 40
0.0352323516
 40
0.0456833137
 40
0.0568012958
 40
0.0685821709
 40
0.0810180618
 40
0.094097874
 40
0.1078077646
 40
0.122131493
 40
0.1370506518
 40
0.1525448835
 40
0.1685921126
 40
0.1851686913
 40
0.2022494954
 40
0.2198080877
 40
0.2378168412
 40
0.2562470113
 40
0.2750688272
 40
0.2942516163
 40
0.3137638805
 40
0.3536464245
 40
0.3944516259
 40
0.435905773
 40
0.4777295367
 40
0.5196403954
 40
0.5613550833
 40
0.6025920243
 40
0.6430737551
 40
0.6825294035
 40
0.7017905943
 40
0.7206979732
 40
0.7392206525
 40
0.7573286591
 40
0.7749930179
 40
0.7921858194
 40
0.8088803326
 40
0.825051151
 40
0.8406742712
 40
0.8557272171
 40
0.8701892385
 40
0.884041482
 40
0.8972671652
 40
0.9098518518
 40
0.9217838189
 40
0.9330544082
 40
0.9436585308
 40
0.953595392
 40
0.958315152
 40
0.9628702247
 40
0.9672621807
 40
0.9714930689
 40
0.975565448
 40
0.9794825553
 40
0.9832482864
 40
0.9868673012
 40
0.9903451836
 40
0.9936884448
 40
1.0
 40
1.0
 40
1.0
 40
1.0
 10
12.4179791963
 20
9.7548142299
 30
0.0
 10
12.4187358925
 20
9.7555451423
 30
0.0
 10
12.4202485619
 20
9.7570685975
 30
0.0
 10
12.422472677
 20
9.7594848256
 30
0.0
 10
12.4246947284
 20
9.7620751431
 30
0.0
 10
12.4269135749
 20
9.7648382893
 30
0.0
 10
12.4291283013
 20
9.767773007
 30
0.0
 10
12.4313379368
 20
9.7708780376
 30
0.0
 10
12.4335415482
 20
9.7741520257
 30
0.0
 10
12.436519258
 20
9.7788173867
 30
0.0
 10
12.4402120537
 20
9.7850703415
 30
0.0
 10
12.4445339986
 20
9.7931042714
 30
0.0
 10
12.4488086062
 20
9.8017729559
 30
0.0
 10
12.4530281869
 20
9.8110609346
 30
0.0
 10
12.4571851839
 20
9.8209517634
 30
0.0
 10
12.4612721008
 20
9.8314278002
 30
0.0
 10
12.4652815426
 20
9.8424703353
 30
0.0
 10
12.4692062541
 20
9.8540595908
 30
0.0
 10
12.473039143
 20
9.8661747708
 30
0.0
 10
12.4767732667
 20
9.8787941193
 30
0.0
 10
12.4804018518
 20
9.8918949583
 30
0.0
 10
12.4839183396
 20
9.9054537185
 30
0.0
 10
12.4873163686
 20
9.919445996
 30
0.0
 10
12.4905897802
 20
9.933846604
 30
0.0
 10
12.49373265
 20
9.9486296106
 30
0.0
 10
12.4967392969
 20
9.9637683772
 30
0.0
 10
12.4996043065
 20
9.9792356497
 30
0.0
 10
12.503254974
 20
10.0004134715
 30
0.0
 10
12.5074187686
 20
10.0275011858
 30
0.0
 10
12.5117401368
 20
10.0606270443
 30
0.0
 10
12.5153905099
 20
10.0943675726
 30
0.0
 10
12.5183434489
 20
10.1284796976
 30
0.0
 10
12.5205776454
 20
10.1627178264
 30
0.0
 10
12.5220769927
 20
10.1968353815
 30
0.0
 10
12.5228308401
 20
10.2305867298
 30
0.0
 10
12.5228338823
 20
10.2637287124
 30
0.0
 10
12.5222062428
 20
10.2908535356
 30
0.0
 10
12.5213195738
 20
10.3120644701
 30
0.0
 10
12.5204738595
 20
10.3275459908
 30
0.0
 10
12.5194437282
 20
10.3427002526
 30
0.0
 10
12.5182310397
 20
10.3574999773
 30
0.0
 10
12.516838019
 20
10.3719185037
 30
0.0
 10
12.5152671987
 20
10.385929866
 30
0.0
 10
12.5135214317
 20
10.3995088387
 30
0.0
 10
12.5116039121
 20
10.4126309915
 30
0.0
 10
12.5095181367
 20
10.4252727279
 30
0.0
 10
12.5072678932
 20
10.4374113263
 30
0.0
 10
12.5048572841
 20
10.4490249978
 30
0.0
 10
12.5022907087
 20
10.4600929302
 30
0.0
 10
12.4995728311
 20
10.4705953171
 30
0.0
 10
12.4967085696
 20
10.4805134176
 30
0.0
 10
12.4937031233
 20
10.4898295875
 30
0.0
 10
12.4905618912
 20
10.4985274114
 30
0.0
 10
12.4872904853
 20
10.5065913974
 30
0.0
 10
12.4844132556
 20
10.5128752977
 30
0.0
 10
12.4820437833
 20
10.5175653638
 30
0.0
 10
12.4802683274
 20
10.5208549717
 30
0.0
 10
12.4784647842
 20
10.5239758049
 30
0.0
 10
12.4766339291
 20
10.5269264981
 30
0.0
 10
12.4747765135
 20
10.5297057204
 30
0.0
 10
12.4728933728
 20
10.5323122616
 30
0.0
 10
12.4709852761
 20
10.5347449841
 30
0.0
 10
12.4690530454
 20
10.5370027187
 30
0.0
 10
12.4670972867
 20
10.5390846955
 30
0.0
 10
12.4645096728
 20
10.5415765216
 30
0.0
 10
12.4624618407
 20
10.5432558278
 30
0.0
 10
12.4610587405
 20
10.5442611949
 30
0.0
  0
SPLINE
  5
37B
100
AcDbEntity
  8
0
100
AcDbSpline
 62
7
  6
CONTINUOUS
 70
0
 71
3
 72
11
 73
7
 74
0
 42
0.0000001
 43
0.0000001
 44
0.0000000001
 40
0.0
 40
0.0
 40
0.0
 40
0.0
 40
0.2705085878
 40
0.5267277512
 40
0.7695214023
 40
1.0
 40
1.0
 40
1.0
 40
1.0
 10
12.4179791963
 20
9.7548142299
 30
0.0
 10
12.416992389
 20
9.7538610472
 30
0.0
 10
12.4150198289
 20
9.7520567494
 30
0.0
 10
12.4119793933
 20
9.749605183
 30
0.0
 10
12.4089423397
 20
9.7474865783
 30
0.0
 10
12.4068706914
 20
9.7462678282
 30
0.0
 10
12.4058381412
 20
9.7457198272
 30
0.0
  0
SPLINE
  5
37C
100
AcDbEntity
  8
0
100
AcDbSpline
 62
7
  6
CONTINUOUS
 70
0
 71
3
 72
19
 73
15
 74
0
 42
0.0000001
 43
0.0000001
 44
0.0000000001
 40
0.0
 40
0.0
 40
0.0
 40
0.0
 40
0.152879049
 40
0.2945793953
 40
0.426231647
 40
0.549350323
 40
0.6083254354
 40
0.665912891
 40
0.7224099865
 40
0.7781333313
 40
0.8334138893
 40
0.8885914803
 40
0.9440078235
 40
1.0
 40
1.0
 40
1.0
 40
1.0
 10
12.4179791963
 20
9.8465771888
 30
0.0
 10
12.4169317581
 20
9.8455654412
 30
0.0
 10
12.4148387972
 20
9.8436905624
 30
0.0
 10
12.4115755962
 20
9.8412639509
 30
0.0
 10
12.4083168521
 20
9.8393395515
 30
0.0
 10
12.4055681569
 20
9.8381421719
 30
0.0
 10
12.4033888955
 20
9.8374555538
 30
0.0
 10
12.4017830573
 20
9.8370759599
 30
0.0
 10
12.4001834945
 20
9.836824798
 30
0.0
 10
12.3985909326
 20
9.8367022348
 30
0.0
 10
12.3970062096
 20
9.8367084708
 30
0.0
 10
12.3954301396
 20
9.8368435258
 30
0.0
 10
12.3938636802
 20
9.8371072488
 30
0.0
 10
12.3928333638
 20
9.8373669839
 30
0.0
 10
12.3923216103
 20
9.837517275
 30
0.0
  0
SPLINE
  5
37D
100
AcDbEntity
  8
0
100
AcDbSpline
 62
7
  6
CONTINUOUS
 70
0
 71
3
 72
77
 73
73
 74
0
 42
0.0000001
 43
0.0000001
 44
0.0000000001
 40
0.0
 40
0.0
 40
0.0
 40
0.0
 40
0.004039223
 40
0.0082525334
 40
0.0126437408
 40
0.017215986
 40
0.0219718974
 40
0.0269135517
 40
0.0320423559
 40
0.0373591096
 40
0.0485569818
 40
0.060506372
 40
0.0732002631
 40
0.0866270962
 40
0.1007714344
 40
0.1156145015
 40
0.131134632
 40
0.1473075814
 40
0.1641067507
 40
0.1815034662
 40
0.1994671869
 40
0.2179656427
 40
0.2369649791
 40
0.2564299435
 40
0.2763240105
 40
0.296609474
 40
0.3381978533
 40
0.3808757424
 40
0.4243116835
 40
0.4681666137
 40
0.5120972782
 40
0.5557596699
 40
0.5988124584
 40
0.6409204146
 40
0.6615182853
 40
0.6817587903
 40
0.701603323
 40
0.7210143205
 40
0.739955375
 40
0.758391396
 40
0.7762887423
 40
0.7936153325
 40
0.8103408066
 40
0.8264367533
 40
0.8418768706
 40
0.8566371751
 40
0.8706963097
 40
0.8840359157
 40
0.8966410001
 40
0.9085004683
 40
0.9196078862
 40
0.929962404
 40
0.9348593731
 40
0.9395710396
 40
0.9440994645
 40
0.9484474599
 40
0.9526185408
 40
0.956617084
 40
0.9604484982
 40
0.9641192317
 40
0.9676370152
 40
0.9710109853
 40
0.97425176
 40
0.9773716694
 40
0.9803847729
 40
0.9833068852
 40
0.9861555754
 40
0.9889499275
 40
0.9917102747
 40
0.9944577831
 40
0.9972139344
 40
1.0
 40
1.0
 40
1.0
 40
1.0
 10
12.4179791963
 20
9.8465771888
 30
0.0
 10
12.4186036192
 20
9.847180335
 30
0.0
 10
12.419851763
 20
9.8484414736
 30
0.0
 10
12.4216841006
 20
9.8504491968
 30
0.0
 10
12.423514458
 20
9.8526111423
 30
0.0
 10
12.425341755
 20
9.8549260958
 30
0.0
 10
12.4271651262
 20
9.857392843
 30
0.0
 10
12.4289836413
 20
9.8600101626
 30
0.0
 10
12.4307964164
 20
9.8627767248
 30
0.0
 10
12.433247022
 20
9.8667312117
 30
0.0
 10
12.4362823765
 20
9.8720454414
 30
0.0
 10
12.4398267043
 20
9.8788870231
 30
0.0
 10
12.4433259784
 20
9.8862852422
 30
0.0
 10
12.4467728967
 20
9.894224819
 30
0.0
 10
12.4501602823
 20
9.9026894628
 30
0.0
 10
12.4534810499
 20
9.9116616687
 30
0.0
 10
12.4567282337
 20
9.9211228567
 30
0.0
 10
12.4598950089
 20
9.9310533881
 30
0.0
 10
12.4629747387
 20
9.9414326081
 30
0.0
 10
12.4659609597
 20
9.9522389072
 30
0.0
 10
12.4688473967
 20
9.9634497759
 30
0.0
 10
12.4716279874
 20
9.9750418432
 30
0.0
 10
12.4742969095
 20
9.9869909272
 30
0.0
 10
12.4768485575
 20
9.9992720914
 30
0.0
 10
12.479277597
 20
10.0118597265
 30
0.0
 10
12.4823715638
 20
10.0291601262
 30
0.0
 10
12.4858876341
 20
10.0513574395
 30
0.0
 10
12.489510922
 20
10.0785669512
 30
0.0
 10
12.4925418103
 20
10.1063388802
 30
0.0
 10
12.4949548447
 20
10.134441459
 30
0.0
 10
12.4967298358
 20
10.1626402961
 30
0.0
 10
12.4978520016
 20
10.1907001796
 30
0.0
 10
12.4983120734
 20
10.2183869116
 30
0.0
 10
12.4981396472
 20
10.2411196114
 30
0.0
 10
12.4976604594
 20
10.2589413081
 30
0.0
 10
12.4971375041
 20
10.2719738451
 30
0.0
 10
12.4964495529
 20
10.2847432623
 30
0.0
 10
12.4955980436
 20
10.2972229229
 30
0.0
 10
12.4945847745
 20
10.3093867695
 30
0.0
 10
12.4934118908
 20
10.3212094209
 30
0.0
 10
12.4920818816
 20
10.3326662173
 30
0.0
 10
12.4905975585
 20
10.3437332682
 30
0.0
 10
12.4889620492
 20
10.3543875075
 30
0.0
 10
12.4871788227
 20
10.3646067539
 30
0.0
 10
12.4852516544
 20
10.3743697558
 30
0.0
 10
12.4831846111
 20
10.3836562338
 30
0.0
 10
12.4809820497
 20
10.392446938
 30
0.0
 10
12.4786486232
 20
10.4007237166
 30
0.0
 10
12.4761892341
 20
10.4084695229
 30
0.0
 10
12.4736089897
 20
10.4156685698
 30
0.0
 10
12.4709132343
 20
10.4223060453
 30
0.0
 10
12.4685327566
 20
10.4274500868
 30
0.0
 10
12.4665680403
 20
10.4312651253
 30
0.0
 10
12.4650965924
 20
10.4339241241
 30
0.0
 10
12.4636004856
 20
10.4364329389
 30
0.0
 10
12.4620804845
 20
10.4387903142
 30
0.0
 10
12.4605373297
 20
10.440995039
 30
0.0
 10
12.4589717454
 20
10.4430459693
 30
0.0
 10
12.4573845228
 20
10.444942084
 30
0.0
 10
12.4557763651
 20
10.4466823735
 30
0.0
 10
12.4541480116
 20
10.4482659152
 30
0.0
 10
12.4525002241
 20
10.4496918758
 30
0.0
 10
12.4508336894
 20
10.4509593818
 30
0.0
 10
12.4491491849
 20
10.4520676748
 30
0.0
 10
12.4474474944
 20
10.4530160121
 30
0.0
 10
12.4457294233
 20
10.4538036029
 30
0.0
 10
12.4439959289
 20
10.4544298331
 30
0.0
 10
12.4422480163
 20
10.4548940758
 30
0.0
 10
12.4404868311
 20
10.4551958149
 30
0.0
 10
12.4387135633
 20
10.4553348134
 30
0.0
 10
12.4369296486
 20
10.4553109202
 30
0.0
 10
12.4357430158
 20
10.4551873824
 30
0.0
 10
12.4351506788
 20
10.455099568
 30
0.0
  0
SPLINE
  5
37E
100
AcDbEntity
  8
0
100
AcDbSpline
 62
7
  6
CONTINUOUS
 70
0
 71
3
 72
39
 73
35
 74
0
 42
0.0000001
 43
0.0000001
 44
0.0000000001
 40
0.0
 40
0.0
 40
0.0
 40
0.0
 40
0.0236788328
 40
0.0487320442
 40
0.0750994248
 40
0.1027135608
 40
0.1315007027
 40
0.1613814909
 40
0.1922715841
 40
0.224082219
 40
0.2567207241
 40
0.2900910005
 40
0.3240939784
 40
0.358628061
 40
0.3935895599
 40
0.42887312
 40
0.4643721392
 40
0.4999791852
 40
0.53558641
 40
0.5710859641
 40
0.6063704108
 40
0.6413331422
 40
0.6758687986
 40
0.7098736876
 40
0.7432462088
 40
0.7758872855
 40
0.8077008071
 40
0.8385940875
 40
0.8684783456
 40
0.8972692197
 40
0.924887333
 40
0.9512589206
 40
0.9763165525
 40
1.0
 40
1.0
 40
1.0
 40
1.0
 10
12.3498318202
 20
9.9222768894
 30
0.0
 10
12.3511815819
 20
9.9256541038
 30
0.0
 10
12.353837786
 20
9.932653606
 30
0.0
 10
12.3576032181
 20
9.9435581516
 30
0.0
 10
12.3612529461
 20
9.9551373078
 30
0.0
 10
12.3647750311
 20
9.9673537502
 30
0.0
 10
12.36815803
 20
9.9801682672
 30
0.0
 10
12.3713909323
 20
9.9935396008
 30
0.0
 10
12.3744632271
 20
10.0074246789
 30
0.0
 10
12.3773649291
 20
10.0217787382
 30
0.0
 10
12.3800866125
 20
10.0365554819
 30
0.0
 10
12.3826194404
 20
10.0517072316
 30
0.0
 10
12.3849551939
 20
10.0671850854
 30
0.0
 10
12.3870862984
 20
10.082939078
 30
0.0
 10
12.3890058464
 20
10.098918346
 30
0.0
 10
12.3907076195
 20
10.1150712934
 30
0.0
 10
12.3921861081
 20
10.1313457599
 30
0.0
 10
12.3934365292
 20
10.1476891904
 30
0.0
 10
12.3944548417
 20
10.1640488056
 30
0.0
 10
12.3952377593
 20
10.1803717729
 30
0.0
 10
12.3957827611
 20
10.1966053786
 30
0.0
 10
12.3960881015
 20
10.2126971993
 30
0.0
 10
12.3961528157
 20
10.2285952727
 30
0.0
 10
12.3959767226
 20
10.2442482673
 30
0.0
 10
12.3955604259
 20
10.2596056492
 30
0.0
 10
12.3949053128
 20
10.2746178473
 30
0.0
 10
12.3940135507
 20
10.2892364157
 30
0.0
 10
12.3928880812
 20
10.3034141939
 30
0.0
 10
12.3915326118
 20
10.317105462
 30
0.0
 10
12.3899516038
 20
10.3302661021
 30
0.0
 10
12.388150265
 20
10.3428537253
 30
0.0
 10
12.3861345165
 20
10.3548279113
 30
0.0
 10
12.3839110245
 20
10.3661500396
 30
0.0
 10
12.3822469019
 20
10.3734507187
 30
0.0
 10
12.3813764641
 20
10.3769827051
 30
0.0
  0
SPLINE
  5
37F
100
AcDbEntity
  8
0
100
AcDbSpline
 62
7
  6
CONTINUOUS
 70
0
 71
3
 72
15
 73
11
 74
0
 42
0.0000001
 43
0.0000001
 44
0.0000000001
 40
0.0
 40
0.0
 40
0.0
 40
0.0
 40
0.1227703911
 40
0.2474526897
 40
0.3734156847
 40
0.5000198511
 40
0.6266215186
 40
0.7525770291
 40
0.8772469
 40
1.0
 40
1.0
 40
1.0
 40
1.0
 10
12.344534592
 20
10.0769416955
 30
0.0
 10
12.3454105728
 20
10.0829450587
 30
0.0
 10
12.3470543023
 20
10.0950633715
 30
0.0
 10
12.3491824862
 20
10.1133943493
 30
0.0
 10
12.3509848776
 20
10.1319506214
 30
0.0
 10
12.3524516606
 20
10.15063154
 30
0.0
 10
12.3535748779
 20
10.1693358897
 30
0.0
 10
12.354348453
 20
10.1879623264
 30
0.0
 10
12.3547682265
 20
10.2064098157
 30
0.0
 10
12.3548111462
 20
10.2186375549
 30
0.0
 10
12.3547712938
 20
10.2247035054
 30
0.0
  0
SPLINE
  5
380
100
AcDbEntity
  8
0
100
AcDbSpline
 62
7
  6
CONTINUOUS
 70
0
 71
3
 72
18
 73
14
 74
0
 42
0.0000001
 43
0.0000001
 44
0.0000000001
 40
0.0
 40
0.0
 40
0.0
 40
0.0
 40
0.1504675778
 40
0.2917143634
 40
0.4244426495
 40
0.4879099663
 40
0.5496093894
 40
0.6682625047
 40
0.7817882978
 40
0.8371380147
 40
0.8918078593
 40
0.9460192908
 40
1.0
 40
1.0
 40
1.0
 40
1.0
 10
12.4488888253
 20
8.2429285189
 30
0.0
 10
12.4477438533
 20
8.2418225608
 30
0.0
 10
12.4454554533
 20
8.2397474577
 30
0.0
 10
12.4419121148
 20
8.2369821194
 30
0.0
 10
12.4389191518
 20
8.2350263316
 30
0.0
 10
12.4365325362
 20
8.2337019293
 30
0.0
 10
12.4342161313
 20
8.2325648963
 30
0.0
 10
12.4313198912
 20
8.2314159624
 30
0.0
 10
12.4283721314
 20
8.2306319178
 30
0.0
 10
12.4260374159
 20
8.2302456967
 30
0.0
 10
12.4243070713
 20
8.2300742728
 30
0.0
 10
12.422583725
 20
8.2300189219
 30
0.0
 10
12.4214387772
 20
8.2300594306
 30
0.0
 10
12.4208690514
 20
8.2300989437
 30
0.0
  0
SPLINE
  5
381
100
AcDbEntity
  8
0
100
AcDbSpline
 62
7
  6
CONTINUOUS
 70
0
 71
3
 72
58
 73
54
 74
0
 42
0.0000001
 43
0.0000001
 44
0.0000000001
 40
0.0
 40
0.0
 40
0.0
 40
0.0
 40
0.0089746348
 40
0.0184814028
 40
0.0285227728
 40
0.0390981035
 40
0.0502041727
 40
0.0618354777
 40
0.073984513
 40
0.0866420716
 40
0.0997973697
 40
0.113438207
 40
0.1275511566
 40
0.1421216115
 40
0.1571338953
 40
0.1725713941
 40
0.1884165684
 40
0.2046510447
 40
0.2212557115
 40
0.23821072
 40
0.2730885426
 40
0.3091142707
 40
0.3461088136
 40
0.3838863639
 40
0.4222558147
 40
0.4610220987
 40
0.4999875097
 40
0.5389530333
 40
0.5777196514
 40
0.6160896616
 40
0.6538679914
 40
0.6908635174
 40
0.7268904414
 40
0.7444847131
 40
0.7617702885
 40
0.7787260563
 40
0.7953315362
 40
0.8115668779
 40
0.8274129414
 40
0.8428513819
 40
0.8578646524
 40
0.8724361102
 40
0.886550113
 40
0.9001920384
 40
0.913348433
 40
0.9260071336
 40
0.9381573333
 40
0.9497898012
 40
0.9608970715
 40
0.9714736091
 40
0.9815161668
 40
0.9910241571
 40
1.0
 40
1.0
 40
1.0
 40
1.0
 10
11.1916889413
 20
10.6973617674
 30
0.0
 10
11.1892935296
 20
10.6988851037
 30
0.0
 10
11.1842828923
 20
10.701900932
 30
0.0
 10
11.1763604342
 20
10.7062220137
 30
0.0
 10
11.1678263568
 20
10.7104644913
 30
0.0
 10
11.1586923221
 20
10.7146225627
 30
0.0
 10
11.1489705084
 20
10.7186906276
 30
0.0
 10
11.1386740478
 20
10.7226631368
 30
0.0
 10
11.1278168752
 20
10.7265346914
 30
0.0
 10
11.1164137152
 20
10.7302999646
 30
0.0
 10
11.1044800702
 20
10.7339537917
 30
0.0
 10
11.0920321942
 20
10.7374911736
 30
0.0
 10
11.0790870497
 20
10.7409072262
 30
0.0
 10
11.0656623003
 20
10.744197257
 30
0.0
 10
11.051776279
 20
10.7473567578
 30
0.0
 10
11.0374479518
 20
10.7503813618
 30
0.0
 10
11.0226969013
 20
10.7532669181
 30
0.0
 10
11.0075433021
 20
10.7560094652
 30
0.0
 10
10.9920078541
 20
10.7586052377
 30
0.0
 10
10.9706116403
 20
10.761896699
 30
0.0
 10
10.9430669512
 20
10.765606553
 30
0.0
 10
10.9091444315
 20
10.7693812947
 30
0.0
 10
10.8742343274
 20
10.7724987058
 30
0.0
 10
10.83852763
 20
10.7749415588
 30
0.0
 10
10.8022195279
 20
10.7766962994
 30
0.0
 10
10.7655086015
 20
10.7777531984
 30
0.0
 10
10.7285956446
 20
10.7781064171
 30
0.0
 10
10.6916825751
 20
10.7777539991
 30
0.0
 10
10.6549713053
 20
10.7766978819
 30
0.0
 10
10.6186626448
 20
10.7749439246
 30
0.0
 10
10.5829551249
 20
10.7725018559
 30
0.0
 10
10.5480441355
 20
10.7693851583
 30
0.0
 10
10.5195543348
 20
10.7662158005
 30
0.0
 10
10.4973096197
 20
10.7633473214
 30
0.0
 10
10.4810740166
 20
10.7610559731
 30
0.0
 10
10.4651772155
 20
10.7586109085
 30
0.0
 10
10.4496409416
 20
10.7560154877
 30
0.0
 10
10.4344864531
 20
10.7532732728
 30
0.0
 10
10.4197344743
 20
10.7503880247
 30
0.0
 10
10.4054051705
 20
10.747363732
 30
0.0
 10
10.3915181283
 20
10.7442045394
 30
0.0
 10
10.3780923202
 20
10.7409147858
 30
0.0
 10
10.3651460725
 20
10.7374990167
 30
0.0
 10
10.3526970534
 20
10.733961911
 30
0.0
 10
10.3407622337
 20
10.7303083274
 30
0.0
 10
10.3293578573
 20
10.7265433066
 30
0.0
 10
10.3184994339
 20
10.7226719928
 30
0.0
 10
10.3082016977
 20
10.7186996904
 30
0.0
 10
10.298478569
 20
10.7146318439
 30
0.0
 10
10.2893431927
 20
10.710473975
 30
0.0
 10
10.2808077556
 20
10.7062316652
 30
0.0
 10
10.2728838934
 20
10.7019107689
 30
0.0
 10
10.2678723008
 20
10.6988950394
 30
0.0
 10
10.2654763973
 20
10.6973717643
 30
0.0
  0
SPLINE
  5
382
100
AcDbEntity
  8
0
100
AcDbSpline
 62
7
  6
CONTINUOUS
 70
0
 71
3
 72
71
 73
67
 74
0
 42
0.0000001
 43
0.0000001
 44
0.0000000001
 40
0.0
 40
0.0
 40
0.0
 40
0.0
 40
0.0038468659
 40
0.007847678
 40
0.0120056475
 40
0.0163234647
 40
0.0208034324
 40
0.02544742
 40
0.030256778
 40
0.0352323516
 40
0.0456833137
 40
0.0568012958
 40
0.0685821709
 40
0.0810180618
 40
0.094097874
 40
0.1078077646
 40
0.122131493
 40
0.1370506518
 40
0.1525448835
 40
0.1685921126
 40
0.1851686913
 40
0.2022494954
 40
0.2198080877
 40
0.2378168412
 40
0.2562470113
 40
0.2750688272
 40
0.2942516163
 40
0.3137638805
 40
0.3536464245
 40
0.3944516259
 40
0.435905773
 40
0.4777295367
 40
0.5196403954
 40
0.5613550833
 40
0.6025920243
 40
0.6430737551
 40
0.6825294035
 40
0.7017905943
 40
0.7206979732
 40
0.7392206525
 40
0.7573286591
 40
0.7749930179
 40
0.7921858194
 40
0.8088803326
 40
0.825051151
 40
0.8406742712
 40
0.8557272171
 40
0.8701892385
 40
0.884041482
 40
0.8972671652
 40
0.9098518518
 40
0.9217838189
 40
0.9330544082
 40
0.9436585308
 40
0.953595392
 40
0.958315152
 40
0.9628702247
 40
0.9672621807
 40
0.9714930689
 40
0.975565448
 40
0.9794825553
 40
0.9832482864
 40
0.9868673012
 40
0.9903451836
 40
0.9936884448
 40
1.0
 40
1.0
 40
1.0
 40
1.0
 10
12.4179791963
 20
8.2450721089
 30
0.0
 10
12.4187358925
 20
8.2458030214
 30
0.0
 10
12.4202485619
 20
8.2473264765
 30
0.0
 10
12.422472677
 20
8.2497427047
 30
0.0
 10
12.4246947284
 20
8.2523330222
 30
0.0
 10
12.4269135749
 20
8.2550961684
 30
0.0
 10
12.4291283013
 20
8.258030886
 30
0.0
 10
12.4313379368
 20
8.2611359166
 30
0.0
 10
12.4335415482
 20
8.2644099047
 30
0.0
 10
12.436519258
 20
8.2690752657
 30
0.0
 10
12.4402120537
 20
8.2753282205
 30
0.0
 10
12.4445339986
 20
8.2833621505
 30
0.0
 10
12.4488086062
 20
8.2920308349
 30
0.0
 10
12.4530281869
 20
8.3013188136
 30
0.0
 10
12.4571851839
 20
8.3112096424
 30
0.0
 10
12.4612721008
 20
8.3216856793
 30
0.0
 10
12.4652815426
 20
8.3327282144
 30
0.0
 10
12.4692062541
 20
8.3443174699
 30
0.0
 10
12.473039143
 20
8.3564326499
 30
0.0
 10
12.4767732667
 20
8.3690519983
 30
0.0
 10
12.4804018518
 20
8.3821528373
 30
0.0
 10
12.4839183396
 20
8.3957115976
 30
0.0
 10
12.4873163686
 20
8.4097038751
 30
0.0
 10
12.4905897802
 20
8.424104483
 30
0.0
 10
12.49373265
 20
8.4388874897
 30
0.0
 10
12.4967392969
 20
8.4540262563
 30
0.0
 10
12.4996043065
 20
8.4694935288
 30
0.0
 10
12.503254974
 20
8.4906713505
 30
0.0
 10
12.5074187686
 20
8.5177590649
 30
0.0
 10
12.5117401368
 20
8.5508849234
 30
0.0
 10
12.5153905099
 20
8.5846254516
 30
0.0
 10
12.5183434489
 20
8.6187375766
 30
0.0
 10
12.5205776454
 20
8.6529757055
 30
0.0
 10
12.5220769927
 20
8.6870932606
 30
0.0
 10
12.5228308401
 20
8.7208446088
 30
0.0
 10
12.5228338823
 20
8.7539865915
 30
0.0
 10
12.5222062428
 20
8.7811114147
 30
0.0
 10
12.5213195738
 20
8.8023223491
 30
0.0
 10
12.5204738595
 20
8.8178038698
 30
0.0
 10
12.5194437282
 20
8.8329581316
 30
0.0
 10
12.5182310397
 20
8.8477578564
 30
0.0
 10
12.516838019
 20
8.8621763828
 30
0.0
 10
12.5152671987
 20
8.8761877451
 30
0.0
 10
12.5135214317
 20
8.8897667177
 30
0.0
 10
12.5116039121
 20
8.9028888706
 30
0.0
 10
12.5095181367
 20
8.9155306069
 30
0.0
 10
12.5072678932
 20
8.9276692054
 30
0.0
 10
12.5048572841
 20
8.9392828769
 30
0.0
 10
12.5022907087
 20
8.9503508092
 30
0.0
 10
12.4995728311
 20
8.9608531962
 30
0.0
 10
12.4967085696
 20
8.9707712967
 30
0.0
 10
12.4937031233
 20
8.9800874666
 30
0.0
 10
12.4905618912
 20
8.9887852904
 30
0.0
 10
12.4872904853
 20
8.9968492765
 30
0.0
 10
12.4844132556
 20
9.0031331767
 30
0.0
 10
12.4820437833
 20
9.0078232429
 30
0.0
 10
12.4802683274
 20
9.0111128507
 30
0.0
 10
12.4784647842
 20
9.014233684
 30
0.0
 10
12.4766339291
 20
9.0171843772
 30
0.0
 10
12.4747765135
 20
9.0199635995
 30
0.0
 10
12.4728933728
 20
9.0225701406
 30
0.0
 10
12.4709852761
 20
9.0250028632
 30
0.0
 10
12.4690530454
 20
9.0272605977
 30
0.0
 10
12.4670972867
 20
9.0293425746
 30
0.0
 10
12.4645096728
 20
9.0318344006
 30
0.0
 10
12.4624618407
 20
9.0335137069
 30
0.0
 10
12.4610587405
 20
9.0345190739
 30
0.0
  0
SPLINE
  5
383
100
AcDbEntity
  8
0
100
AcDbSpline
 62
7
  6
CONTINUOUS
 70
0
 71
3
 72
11
 73
7
 74
0
 42
0.0000001
 43
0.0000001
 44
0.0000000001
 40
0.0
 40
0.0
 40
0.0
 40
0.0
 40
0.2705085878
 40
0.5267277512
 40
0.7695214023
 40
1.0
 40
1.0
 40
1.0
 40
1.0
 10
12.4179791963
 20
8.2450721089
 30
0.0
 10
12.416992389
 20
8.2441189263
 30
0.0
 10
12.4150198289
 20
8.2423146285
 30
0.0
 10
12.4119793933
 20
8.2398630621
 30
0.0
 10
12.4089423397
 20
8.2377444573
 30
0.0
 10
12.4068706914
 20
8.2365257072
 30
0.0
 10
12.4058381412
 20
8.2359777063
 30
0.0
  0
SPLINE
  5
384
100
AcDbEntity
  8
0
100
AcDbSpline
 62
7
  6
CONTINUOUS
 70
0
 71
3
 72
19
 73
15
 74
0
 42
0.0000001
 43
0.0000001
 44
0.0000000001
 40
0.0
 40
0.0
 40
0.0
 40
0.0
 40
0.152879049
 40
0.2945793953
 40
0.426231647
 40
0.549350323
 40
0.6083254354
 40
0.665912891
 40
0.7224099865
 40
0.7781333313
 40
0.8334138893
 40
0.8885914803
 40
0.9440078235
 40
1.0
 40
1.0
 40
1.0
 40
1.0
 10
12.4179791963
 20
8.3368350679
 30
0.0
 10
12.4169317581
 20
8.3358233202
 30
0.0
 10
12.4148387972
 20
8.3339484414
 30
0.0
 10
12.4115755962
 20
8.33152183
 30
0.0
 10
12.4083168521
 20
8.3295974306
 30
0.0
 10
12.4055681569
 20
8.3284000509
 30
0.0
 10
12.4033888955
 20
8.3277134329
 30
0.0
 10
12.4017830573
 20
8.327333839
 30
0.0
 10
12.4001834945
 20
8.327082677
 30
0.0
 10
12.3985909326
 20
8.3269601139
 30
0.0
 10
12.3970062096
 20
8.3269663498
 30
0.0
 10
12.3954301396
 20
8.3271014048
 30
0.0
 10
12.3938636802
 20
8.3273651278
 30
0.0
 10
12.3928333638
 20
8.327624863
 30
0.0
 10
12.3923216103
 20
8.3277751541
 30
0.0
  0
SPLINE
  5
385
100
AcDbEntity
  8
0
100
AcDbSpline
 62
7
  6
CONTINUOUS
 70
0
 71
3
 72
21
 73
17
 74
0
 42
0.0000001
 43
0.0000001
 44
0.0000000001
 40
0.0
 40
0.0
 40
0.0
 40
0.0
 40
0.1273176984
 40
0.2537999461
 40
0.3167619614
 40
0.3795355204
 40
0.4421314992
 40
0.5045621453
 40
0.5668413456
 40
0.6289845231
 40
0.6910084433
 40
0.7529310869
 40
0.8147714401
 40
0.8765493236
 40
0.9382852134
 40
1.0
 40
1.0
 40
1.0
 40
1.0
 10
10.1891360366
 20
6.9330044678
 30
0.0
 10
10.1891360366
 20
6.93830176
 30
0.0
 10
10.1896416985
 20
6.9488684028
 30
0.0
 10
10.1915514414
 20
6.9619310544
 30
0.0
 10
10.1938339891
 20
6.9721775606
 30
0.0
 10
10.1959155535
 20
6.9797353887
 30
0.0
 10
10.1983643895
 20
6.9871589179
 30
0.0
 10
10.2011748512
 20
6.9944312464
 30
0.0
 10
10.2043404591
 20
7.0015355543
 30
0.0
 10
10.2078539776
 20
7.0084554454
 30
0.0
 10
10.2117072788
 20
7.0151749683
 30
0.0
 10
10.2158914762
 20
7.0216786369
 30
0.0
 10
10.2203969607
 20
7.027951402
 30
0.0
 10
10.2252133701
 20
7.0339788573
 30
0.0
 10
10.2303293832
 20
7.0397469348
 30
0.0
 10
10.2339326597
 20
7.0434111573
 30
0.0
 10
10.2357795382
 20
7.045195094
 30
0.0
  0
SPLINE
  5
386
100
AcDbEntity
  8
0
100
AcDbSpline
 62
7
  6
CONTINUOUS
 70
0
 71
3
 72
18
 73
14
 74
0
 42
0.0000001
 43
0.0000001
 44
0.0000000001
 40
0.0
 40
0.0
 40
0.0
 40
0.0
 40
0.1504675778
 40
0.2917143634
 40
0.4244426495
 40
0.4879099663
 40
0.5496093894
 40
0.6682625047
 40
0.7817882978
 40
0.8371380147
 40
0.8918078593
 40
0.9460192908
 40
1.0
 40
1.0
 40
1.0
 40
1.0
 10
12.4488888253
 20
9.7526706398
 30
0.0
 10
12.4477438533
 20
9.7515646817
 30
0.0
 10
12.4454554533
 20
9.7494895786
 30
0.0
 10
12.4419121148
 20
9.7467242404
 30
0.0
 10
12.4389191518
 20
9.7447684526
 30
0.0
 10
12.4365325362
 20
9.7434440502
 30
0.0
 10
12.4342161313
 20
9.7423070172
 30
0.0
 10
12.4313198912
 20
9.7411580833
 30
0.0
 10
12.4283721314
 20
9.7403740387
 30
0.0
 10
12.4260374159
 20
9.7399878177
 30
0.0
 10
12.4243070713
 20
9.7398163937
 30
0.0
 10
12.422583725
 20
9.7397610429
 30
0.0
 10
12.4214387772
 20
9.7398015516
 30
0.0
 10
12.4208690514
 20
9.7398410646
 30
0.0
  0
SPLINE
  5
387
100
AcDbEntity
  8
0
100
AcDbSpline
 62
7
  6
CONTINUOUS
 70
0
 71
3
 72
77
 73
73
 74
0
 42
0.0000001
 43
0.0000001
 44
0.0000000001
 40
0.0
 40
0.0
 40
0.0
 40
0.0
 40
0.004039223
 40
0.0082525334
 40
0.0126437408
 40
0.017215986
 40
0.0219718974
 40
0.0269135517
 40
0.0320423559
 40
0.0373591096
 40
0.0485569818
 40
0.060506372
 40
0.0732002631
 40
0.0866270962
 40
0.1007714344
 40
0.1156145015
 40
0.131134632
 40
0.1473075814
 40
0.1641067507
 40
0.1815034662
 40
0.1994671869
 40
0.2179656427
 40
0.2369649791
 40
0.2564299435
 40
0.2763240105
 40
0.296609474
 40
0.3381978533
 40
0.3808757424
 40
0.4243116835
 40
0.4681666137
 40
0.5120972782
 40
0.5557596699
 40
0.5988124584
 40
0.6409204146
 40
0.6615182853
 40
0.6817587903
 40
0.701603323
 40
0.7210143205
 40
0.739955375
 40
0.758391396
 40
0.7762887423
 40
0.7936153325
 40
0.8103408066
 40
0.8264367533
 40
0.8418768706
 40
0.8566371751
 40
0.8706963097
 40
0.8840359157
 40
0.8966410001
 40
0.9085004683
 40
0.9196078862
 40
0.929962404
 40
0.9348593731
 40
0.9395710396
 40
0.9440994645
 40
0.9484474599
 40
0.9526185408
 40
0.956617084
 40
0.9604484982
 40
0.9641192317
 40
0.9676370152
 40
0.9710109853
 40
0.97425176
 40
0.9773716694
 40
0.9803847729
 40
0.9833068852
 40
0.9861555754
 40
0.9889499275
 40
0.9917102747
 40
0.9944577831
 40
0.9972139344
 40
1.0
 40
1.0
 40
1.0
 40
1.0
 10
12.4179791963
 20
8.3368350679
 30
0.0
 10
12.4186036192
 20
8.3374382141
 30
0.0
 10
12.419851763
 20
8.3386993526
 30
0.0
 10
12.4216841006
 20
8.3407070758
 30
0.0
 10
12.423514458
 20
8.3428690214
 30
0.0
 10
12.425341755
 20
8.3451839749
 30
0.0
 10
12.4271651262
 20
8.3476507221
 30
0.0
 10
12.4289836413
 20
8.3502680416
 30
0.0
 10
12.4307964164
 20
8.3530346038
 30
0.0
 10
12.433247022
 20
8.3569890908
 30
0.0
 10
12.4362823765
 20
8.3623033205
 30
0.0
 10
12.4398267043
 20
8.3691449022
 30
0.0
 10
12.4433259784
 20
8.3765431213
 30
0.0
 10
12.4467728967
 20
8.3844826981
 30
0.0
 10
12.4501602823
 20
8.3929473419
 30
0.0
 10
12.4534810499
 20
8.4019195477
 30
0.0
 10
12.4567282337
 20
8.4113807358
 30
0.0
 10
12.4598950089
 20
8.4213112671
 30
0.0
 10
12.4629747387
 20
8.4316904872
 30
0.0
 10
12.4659609597
 20
8.4424967862
 30
0.0
 10
12.4688473967
 20
8.4537076549
 30
0.0
 10
12.4716279874
 20
8.4652997222
 30
0.0
 10
12.4742969095
 20
8.4772488063
 30
0.0
 10
12.4768485575
 20
8.4895299704
 30
0.0
 10
12.479277597
 20
8.5021176056
 30
0.0
 10
12.4823715638
 20
8.5194180053
 30
0.0
 10
12.4858876341
 20
8.5416153185
 30
0.0
 10
12.489510922
 20
8.5688248303
 30
0.0
 10
12.4925418103
 20
8.5965967592
 30
0.0
 10
12.4949548447
 20
8.6246993381
 30
0.0
 10
12.4967298358
 20
8.6528981751
 30
0.0
 10
12.4978520016
 20
8.6809580587
 30
0.0
 10
12.4983120734
 20
8.7086447906
 30
0.0
 10
12.4981396472
 20
8.7313774904
 30
0.0
 10
12.4976604594
 20
8.7491991871
 30
0.0
 10
12.4971375041
 20
8.7622317242
 30
0.0
 10
12.4964495529
 20
8.7750011413
 30
0.0
 10
12.4955980436
 20
8.787480802
 30
0.0
 10
12.4945847745
 20
8.7996446486
 30
0.0
 10
12.4934118908
 20
8.8114672999
 30
0.0
 10
12.4920818816
 20
8.8229240964
 30
0.0
 10
12.4905975585
 20
8.8339911473
 30
0.0
 10
12.4889620492
 20
8.8446453866
 30
0.0
 10
12.4871788227
 20
8.854864633
 30
0.0
 10
12.4852516544
 20
8.8646276349
 30
0.0
 10
12.4831846111
 20
8.8739141128
 30
0.0
 10
12.4809820497
 20
8.8827048171
 30
0.0
 10
12.4786486232
 20
8.8909815956
 30
0.0
 10
12.4761892341
 20
8.898727402
 30
0.0
 10
12.4736089897
 20
8.9059264489
 30
0.0
 10
12.4709132343
 20
8.9125639243
 30
0.0
 10
12.4685327566
 20
8.9177079659
 30
0.0
 10
12.4665680403
 20
8.9215230044
 30
0.0
 10
12.4650965924
 20
8.9241820032
 30
0.0
 10
12.4636004856
 20
8.926690818
 30
0.0
 10
12.4620804845
 20
8.9290481932
 30
0.0
 10
12.4605373297
 20
8.9312529181
 30
0.0
 10
12.4589717454
 20
8.9333038484
 30
0.0
 10
12.4573845228
 20
8.9351999631
 30
0.0
 10
12.4557763651
 20
8.9369402525
 30
0.0
 10
12.4541480116
 20
8.9385237943
 30
0.0
 10
12.4525002241
 20
8.9399497549
 30
0.0
 10
12.4508336894
 20
8.9412172608
 30
0.0
 10
12.4491491849
 20
8.9423255538
 30
0.0
 10
12.4474474944
 20
8.9432738912
 30
0.0
 10
12.4457294233
 20
8.944061482
 30
0.0
 10
12.4439959289
 20
8.9446877122
 30
0.0
 10
12.4422480163
 20
8.9451519549
 30
0.0
 10
12.4404868311
 20
8.9454536939
 30
0.0
 10
12.4387135633
 20
8.9455926924
 30
0.0
 10
12.4369296486
 20
8.9455687993
 30
0.0
 10
12.4357430158
 20
8.9454452615
 30
0.0
 10
12.4351506788
 20
8.9453574471
 30
0.0
  0
SPLINE
  5
388
100
AcDbEntity
  8
0
100
AcDbSpline
 62
7
  6
CONTINUOUS
 70
0
 71
3
 72
39
 73
35
 74
0
 42
0.0000001
 43
0.0000001
 44
0.0000000001
 40
0.0
 40
0.0
 40
0.0
 40
0.0
 40
0.0236788328
 40
0.0487320442
 40
0.0750994248
 40
0.1027135608
 40
0.1315007027
 40
0.1613814909
 40
0.1922715841
 40
0.224082219
 40
0.2567207241
 40
0.2900910005
 40
0.3240939784
 40
0.358628061
 40
0.3935895599
 40
0.42887312
 40
0.4643721392
 40
0.4999791852
 40
0.53558641
 40
0.5710859641
 40
0.6063704108
 40
0.6413331422
 40
0.6758687986
 40
0.7098736876
 40
0.7432462088
 40
0.7758872855
 40
0.8077008071
 40
0.8385940875
 40
0.8684783456
 40
0.8972692197
 40
0.924887333
 40
0.9512589206
 40
0.9763165525
 40
1.0
 40
1.0
 40
1.0
 40
1.0
 10
12.3498318202
 20
8.4125347685
 30
0.0
 10
12.3511815819
 20
8.4159119828
 30
0.0
 10
12.353837786
 20
8.422911485
 30
0.0
 10
12.3576032181
 20
8.4338160306
 30
0.0
 10
12.3612529461
 20
8.4453951868
 30
0.0
 10
12.3647750311
 20
8.4576116292
 30
0.0
 10
12.36815803
 20
8.4704261462
 30
0.0
 10
12.3713909323
 20
8.4837974799
 30
0.0
 10
12.3744632271
 20
8.497682558
 30
0.0
 10
12.3773649291
 20
8.5120366172
 30
0.0
 10
12.3800866125
 20
8.5268133609
 30
0.0
 10
12.3826194404
 20
8.5419651107
 30
0.0
 10
12.3849551939
 20
8.5574429644
 30
0.0
 10
12.3870862984
 20
8.5731969571
 30
0.0
 10
12.3890058464
 20
8.5891762251
 30
0.0
 10
12.3907076195
 20
8.6053291724
 30
0.0
 10
12.3921861081
 20
8.6216036389
 30
0.0
 10
12.3934365292
 20
8.6379470695
 30
0.0
 10
12.3944548417
 20
8.6543066846
 30
0.0
 10
12.3952377593
 20
8.670629652
 30
0.0
 10
12.3957827611
 20
8.6868632577
 30
0.0
 10
12.3960881015
 20
8.7029550783
 30
0.0
 10
12.3961528157
 20
8.7188531518
 30
0.0
 10
12.3959767226
 20
8.7345061464
 30
0.0
 10
12.3955604259
 20
8.7498635283
 30
0.0
 10
12.3949053128
 20
8.7648757264
 30
0.0
 10
12.3940135507
 20
8.7794942948
 30
0.0
 10
12.3928880812
 20
8.793672073
 30
0.0
 10
12.3915326118
 20
8.807363341
 30
0.0
 10
12.3899516038
 20
8.8205239812
 30
0.0
 10
12.388150265
 20
8.8331116044
 30
0.0
 10
12.3861345165
 20
8.8450857903
 30
0.0
 10
12.3839110245
 20
8.8564079187
 30
0.0
 10
12.3822469019
 20
8.8637085978
 30
0.0
 10
12.3813764641
 20
8.8672405841
 30
0.0
  0
SPLINE
  5
389
100
AcDbEntity
  8
0
100
AcDbSpline
 62
7
  6
CONTINUOUS
 70
0
 71
3
 72
15
 73
11
 74
0
 42
0.0000001
 43
0.0000001
 44
0.0000000001
 40
0.0
 40
0.0
 40
0.0
 40
0.0
 40
0.1227703911
 40
0.2474526897
 40
0.3734156847
 40
0.5000198511
 40
0.6266215186
 40
0.7525770291
 40
0.8772469
 40
1.0
 40
1.0
 40
1.0
 40
1.0
 10
12.344534592
 20
8.5671995745
 30
0.0
 10
12.3454105728
 20
8.5732029377
 30
0.0
 10
12.3470543023
 20
8.5853212506
 30
0.0
 10
12.3491824862
 20
8.6036522283
 30
0.0
 10
12.3509848776
 20
8.6222085004
 30
0.0
 10
12.3524516606
 20
8.6408894191
 30
0.0
 10
12.3535748779
 20
8.6595937688
 30
0.0
 10
12.354348453
 20
8.6782202055
 30
0.0
 10
12.3547682265
 20
8.6966676947
 30
0.0
 10
12.3548111462
 20
8.7088954339
 30
0.0
 10
12.3547712938
 20
8.7149613845
 30
0.0
  0
SPLINE
  5
38A
100
AcDbEntity
  8
0
100
AcDbSpline
 62
7
  6
CONTINUOUS
 70
0
 71
3
 72
44
 73
40
 74
0
 42
0.0000001
 43
0.0000001
 44
0.0000000001
 40
0.0
 40
0.0
 40
0.0
 40
0.0
 40
0.011444028
 40
0.0232551984
 40
0.0354270375
 40
0.047952363
 40
0.0608234999
 40
0.0740321579
 40
0.1014260633
 40
0.1300593014
 40
0.1598498451
 40
0.1907098639
 40
0.2225463979
 40
0.2552619724
 40
0.2887551615
 40
0.3229211263
 40
0.3576521265
 40
0.3928380218
 40
0.4283667592
 40
0.4641248576
 40
0.4999978842
 40
0.5358709324
 40
0.5716290943
 40
0.6071579381
 40
0.6423439808
 40
0.6770751697
 40
0.7112413629
 40
0.7447348191
 40
0.7774506984
 40
0.8092875724
 40
0.8401479665
 40
0.8699389168
 40
0.8985725937
 40
0.9259669652
 40
0.9520465817
 40
0.964572177
 40
0.9767442627
 40
0.9885557185
 40
1.0
 40
1.0
 40
1.0
 40
1.0
 10
11.0877404269
 20
10.6561516956
 30
0.0
 10
11.08512352
 20
10.6570746491
 30
0.0
 10
11.0797872912
 20
10.6588981841
 30
0.0
 10
11.0716094679
 20
10.6615290681
 30
0.0
 10
11.0631372821
 20
10.6640969097
 30
0.0
 10
11.0543780328
 20
10.6665995338
 30
0.0
 10
11.0453391925
 20
10.6690347623
 30
0.0
 10
11.0327720815
 20
10.6722278772
 30
0.0
 10
11.0164170694
 20
10.6760253214
 30
0.0
 10
10.9960353767
 20
10.6802283882
 30
0.0
 10
10.9747364666
 20
10.6841164817
 30
0.0
 10
10.9525933574
 20
10.6876761421
 30
0.0
 10
10.9296818431
 20
10.6908950207
 30
0.0
 10
10.9060804462
 20
10.6937619654
 30
0.0
 10
10.8818700734
 20
10.6962670458
 30
0.0
 10
10.857133749
 20
10.6984015889
 30
0.0
 10
10.8319563189
 20
10.7001582073
 30
0.0
 10
10.8064241563
 20
10.7015308234
 30
0.0
 10
10.7806248614
 20
10.7025146893
 30
0.0
 10
10.7546469585
 20
10.7031064021
 30
0.0
 10
10.7285795884
 20
10.7033039158
 30
0.0
 10
10.7025122019
 20
10.7031065474
 30
0.0
 10
10.6765342492
 20
10.7025149793
 30
0.0
 10
10.6507348719
 20
10.7015312572
 30
0.0
 10
10.6252025943
 20
10.7001587831
 30
0.0
 10
10.6000250171
 20
10.6984023046
 30
0.0
 10
10.5752885144
 20
10.6962678987
 30
0.0
 10
10.5510779328
 20
10.6937629524
 30
0.0
 10
10.5274762966
 20
10.6908961382
 30
0.0
 10
10.5045645174
 20
10.6876773855
 30
0.0
 10
10.4824211042
 20
10.6841178487
 30
0.0
 10
10.4611219037
 20
10.6802298664
 30
0.0
 10
10.4407397512
 20
10.6760269319
 30
0.0
 10
10.4213444725
 20
10.671523604
 30
0.0
 10
10.4058576591
 20
10.6674810945
 30
0.0
 10
10.39401865
 20
10.6640987875
 30
0.0
 10
10.3855462465
 20
10.661530958
 30
0.0
 10
10.3773682037
 20
10.6589001439
 30
0.0
 10
10.3720318305
 20
10.6570766253
 30
0.0
 10
10.3694148527
 20
10.6561536878
 30
0.0
  0
SPLINE
  5
38B
100
AcDbEntity
  8
0
100
AcDbSpline
 62
7
  6
CONTINUOUS
 70
0
 71
3
 72
49
 73
45
 74
0
 42
0.0000001
 43
0.0000001
 44
0.0000000001
 40
0.0
 40
0.0
 40
0.0
 40
0.0
 40
0.010710767
 40
0.0218440328
 40
0.0333941547
 40
0.0453545163
 40
0.0577175895
 40
0.0704749841
 40
0.0836175977
 40
0.0971355549
 40
0.1110183959
 40
0.1252549935
 40
0.1547417013
 40
0.1854968708
 40
0.2174135963
 40
0.2503785
 40
0.2842725733
 40
0.3189719594
 40
0.35434869
 40
0.3902713996
 40
0.4266060211
 40
0.4632164706
 40
0.4999653214
 40
0.5367144769
 40
0.5733258369
 40
0.6096619705
 40
0.6455867841
 40
0.680966203
 40
0.7156688496
 40
0.7495667409
 40
0.7825359978
 40
0.8144575891
 40
0.8452181051
 40
0.8747106105
 40
0.8889502659
 40
0.9028362617
 40
0.9163574854
 40
0.9295034289
 40
0.9422642676
 40
0.9546308313
 40
0.9665947806
 40
0.9781485332
 40
0.9892854881
 40
1.0
 40
1.0
 40
1.0
 40
1.0
 10
11.1121941074
 20
10.6631477698
 30
0.0
 10
11.1096269393
 20
10.6642195254
 30
0.0
 10
11.1043631188
 20
10.6663382255
 30
0.0
 10
11.0962432843
 20
10.6693892925
 30
0.0
 10
11.0877534215
 20
10.6723723301
 30
0.0
 10
11.0789020968
 20
10.6752842951
 30
0.0
 10
11.0696981585
 20
10.6781222477
 30
0.0
 10
11.0601508476
 20
10.6808833468
 30
0.0
 10
11.0502697412
 20
10.6835647671
 30
0.0
 10
11.0400647722
 20
10.6861638366
 30
0.0
 10
11.0295461801
 20
10.6886779122
 30
0.0
 10
11.0149462455
 20
10.6919515946
 30
0.0
 10
10.995986557
 20
10.6958015835
 30
0.0
 10
10.972417802
 20
10.699992453
 30
0.0
 10
10.9478679607
 20
10.7037894015
 30
0.0
 10
10.9224357975
 20
10.7071769946
 30
0.0
 10
10.8962234984
 20
10.7101414321
 30
0.0
 10
10.8693364898
 20
10.7126706544
 30
0.0
 10
10.841882933
 20
10.7147543743
 30
0.0
 10
10.8139733005
 20
10.7163841229
 30
0.0
 10
10.7857199169
 20
10.7175532784
 30
0.0
 10
10.7572365032
 20
10.7182570911
 30
0.0
 10
10.7286377135
 20
10.7184927023
 30
0.0
 10
10.7000386704
 20
10.7182591547
 30
0.0
 10
10.6715544976
 20
10.7175573964
 30
0.0
 10
10.6432998533
 20
10.7163902768
 30
0.0
 10
10.6153884635
 20
10.7147625373
 30
0.0
 10
10.5879326596
 20
10.7126807938
 30
0.0
 10
10.5610429213
 20
10.7101535087
 30
0.0
 10
10.5348274211
 20
10.7071909607
 30
0.0
 10
10.5093915986
 20
10.7038052005
 30
0.0
 10
10.4848376567
 20
10.7000100202
 30
0.0
 10
10.4612643778
 20
10.6958208469
 30
0.0
 10
10.4423006463
 20
10.69197224
 30
0.0
 10
10.4276972743
 20
10.6886996321
 30
0.0
 10
10.4171759715
 20
10.6861863085
 30
0.0
 10
10.4069681986
 20
10.6835879876
 30
0.0
 10
10.3970842022
 20
10.6809072619
 30
0.0
 10
10.3875339116
 20
10.6781468712
 30
0.0
 10
10.3783269154
 20
10.6753095628
 30
0.0
 10
10.3694724487
 20
10.6723982503
 30
0.0
 10
10.3609793718
 20
10.6694158161
 30
0.0
 10
10.3528562479
 20
10.6663653354
 30
0.0
 10
10.3475901876
 20
10.6642470312
 30
0.0
 10
10.345021883
 20
10.6631754732
 30
0.0
  0
SPLINE
  5
38C
100
AcDbEntity
  8
0
100
AcDbSpline
 62
7
  6
CONTINUOUS
 70
0
 71
3
 72
17
 73
13
 74
0
 42
0.0000001
 43
0.0000001
 44
0.0000000001
 40
0.0
 40
0.0
 40
0.0
 40
0.0
 40
0.0548647422
 40
0.1099333913
 40
0.1654074837
 40
0.2214837877
 40
0.336145709
 40
0.4553802063
 40
0.5804211709
 40
0.7123203349
 40
0.8519514223
 40
1.0
 40
1.0
 40
1.0
 40
1.0
 10
10.2285748164
 20
10.746137408
 30
0.0
 10
10.228574813
 20
10.7468435544
 30
0.0
 10
10.2286196235
 20
10.7482588796
 30
0.0
 10
10.2288211064
 20
10.7503795535
 30
0.0
 10
10.2291568883
 20
10.7524990539
 30
0.0
 10
10.2297878769
 20
10.755342926
 30
0.0
 10
10.2309246809
 20
10.7589074222
 30
0.0
 10
10.2328146555
 20
10.7631322677
 30
0.0
 10
10.2352363666
 20
10.7673335872
 30
0.0
 10
10.2381857787
 20
10.7715072601
 30
0.0
 10
10.2416585365
 20
10.7756496704
 30
0.0
 10
10.2442413384
 20
10.7783075109
 30
0.0
 10
10.2456118675
 20
10.7796313404
 30
0.0
  0
SPLINE
  5
38D
100
AcDbEntity
  8
0
100
AcDbSpline
 62
7
  6
CONTINUOUS
 70
0
 71
3
 72
41
 73
37
 74
0
 42
0.0000001
 43
0.0000001
 44
0.0000000001
 40
0.0
 40
0.0
 40
0.0
 40
0.0
 40
0.0299421711
 40
0.0599087182
 40
0.0899234237
 40
0.120008901
 40
0.1501860568
 40
0.1804736044
 40
0.2108876432
 40
0.2414413126
 40
0.272144528
 40
0.3030038001
 40
0.3340221401
 40
0.3651990458
 40
0.3965305658
 40
0.4280094351
 40
0.459625275
 40
0.4913648512
 40
0.5232123798
 40
0.5551498765
 40
0.5871575398
 40
0.6192141608
 40
0.6512975542
 40
0.6833850026
 40
0.715453708
 40
0.7314764109
 40
0.7474860766
 40
0.7794508393
 40
0.8113324792
 40
0.8431123189
 40
0.8747737608
 40
0.9063025958
 40
0.9376874988
 40
0.9533255066
 40
0.9689250205
 40
1.0
 40
1.0
 40
1.0
 40
1.0
 10
11.0026882648
 20
7.3272363351
 30
0.0
 10
10.9991878448
 20
7.3238551892
 30
0.0
 10
10.991911759
 20
7.31736577
 30
0.0
 10
10.9802543356
 20
7.3085250857
 30
0.0
 10
10.9679132033
 20
7.30062209
 30
0.0
 10
10.954957319
 20
7.2937011163
 30
0.0
 10
10.9414579134
 20
7.2877999755
 30
0.0
 10
10.9274894884
 20
7.2829511058
 30
0.0
 10
10.9131290182
 20
7.2791810373
 30
0.0
 10
10.8984556188
 20
7.2765103528
 30
0.0
 10
10.8835500791
 20
7.2749535594
 30
0.0
 10
10.8684944214
 20
7.2745190265
 30
0.0
 10
10.8533714478
 20
7.2752089495
 30
0.0
 10
10.8382642883
 20
7.2770193476
 30
0.0
 10
10.8232559475
 20
7.2799400947
 30
0.0
 10
10.8084288544
 20
7.2839549816
 30
0.0
 10
10.7938644153
 20
7.2890418108
 30
0.0
 10
10.7796425735
 20
7.2951725209
 30
0.0
 10
10.7658413763
 20
7.3023133446
 30
0.0
 10
10.7525365539
 20
7.31042499
 30
0.0
 10
10.739801102
 20
7.3194628696
 30
0.0
 10
10.7277049166
 20
7.3293772987
 30
0.0
 10
10.7163143009
 20
7.3401139345
 30
0.0
 10
10.705692033
 20
7.3516134444
 30
0.0
 10
10.6975255702
 20
7.3617839851
 30
0.0
 10
10.6914325948
 20
7.3702377224
 30
0.0
 10
10.685646232
 20
7.3788838781
 30
0.0
 10
10.6789935043
 20
7.390042219
 30
0.0
 10
10.6719802592
 20
7.4039268303
 30
0.0
 10
10.6659785024
 20
7.4182247274
 30
0.0
 10
10.6610215491
 20
7.4328571963
 30
0.0
 10
10.6571367066
 20
7.4477435399
 30
0.0
 10
10.6548076638
 20
7.4603092281
 30
0.0
 10
10.6535011351
 20
7.4704055991
 30
0.0
 10
10.6525686999
 20
7.480492311
 30
0.0
 10
10.6522863683
 20
7.4880824904
 30
0.0
 10
10.6522863683
 20
7.4931333472
 30
0.0
  0
SPLINE
  5
38E
100
AcDbEntity
  8
0
100
AcDbSpline
 62
7
  6
CONTINUOUS
 70
0
 71
3
 72
21
 73
17
 74
0
 42
0.0000001
 43
0.0000001
 44
0.0000000001
 40
0.0
 40
0.0
 40
0.0
 40
0.0
 40
0.0617147807
 40
0.1234506636
 40
0.1852285506
 40
0.2470689066
 40
0.3089915473
 40
0.3710154718
 40
0.4331586568
 40
0.495437856
 40
0.5578685007
 40
0.6204644957
 40
0.6832380523
 40
0.7462000242
 40
0.8726823632
 40
1.0
 40
1.0
 40
1.0
 40
1.0
 10
10.7095051946
 20
7.6307617662
 30
0.0
 10
10.7072395707
 20
7.6285733417
 30
0.0
 10
10.7028193611
 20
7.6240782565
 30
0.0
 10
10.6965433871
 20
7.6170023386
 30
0.0
 10
10.6906349597
 20
7.6096082211
 30
0.0
 10
10.6851079822
 20
7.6019131576
 30
0.0
 10
10.6799751035
 20
7.5939348643
 30
0.0
 10
10.6752481463
 20
7.5856917754
 30
0.0
 10
10.6709380392
 20
7.577202876
 30
0.0
 10
10.6670546968
 20
7.5684877632
 30
0.0
 10
10.66360702
 20
7.5595665352
 30
0.0
 10
10.6606029833
 20
7.5504598184
 30
0.0
 10
10.6580494698
 20
7.5411883631
 30
0.0
 10
10.6552493997
 20
7.5286186087
 30
0.0
 10
10.6529066808
 20
7.5125941915
 30
0.0
 10
10.6522863683
 20
7.4996317186
 30
0.0
 10
10.6522863683
 20
7.4931333472
 30
0.0
  0
SPLINE
  5
38F
100
AcDbEntity
  8
0
100
AcDbSpline
 62
7
  6
CONTINUOUS
 70
0
 71
3
 72
71
 73
67
 74
0
 42
0.0000001
 43
0.0000001
 44
0.0000000001
 40
0.0
 40
0.0
 40
0.0
 40
0.0
 40
0.0155841267
 40
0.0311159948
 40
0.046595237
 40
0.0620238811
 40
0.0774034528
 40
0.0927362808
 40
0.108025123
 40
0.1232731726
 40
0.1384840554
 40
0.1536617766
 40
0.1688106897
 40
0.1839354524
 40
0.1990409778
 40
0.2141323823
 40
0.2292149324
 40
0.2442939895
 40
0.2593749535
 40
0.2744632036
 40
0.2895640407
 40
0.3046826304
 40
0.3198239505
 40
0.3349927386
 40
0.3501934431
 40
0.3654301773
 40
0.3807066784
 40
0.3960262749
 40
0.4113918546
 40
0.4268058385
 40
0.4422701591
 40
0.4577862482
 40
0.4733550284
 40
0.4889769089
 40
0.5046517849
 40
0.520379043
 40
0.5361575757
 40
0.5519857956
 40
0.567861654
 40
0.5837826618
 40
0.599745918
 40
0.6157481409
 40
0.631785699
 40
0.6478546447
 40
0.6639507505
 40
0.6800695507
 40
0.6962063813
 40
0.7123564198
 40
0.7285147273
 40
0.7446762932
 40
0.7608360797
 40
0.7769890647
 40
0.7931302839
 40
0.8092548751
 40
0.8253581231
 40
0.8414355003
 40
0.8574827061
 40
0.8734957059
 40
0.8894707697
 40
0.9054045141
 40
0.921293915
 40
0.9371363644
 40
0.9529297309
 40
0.9686720281
 40
0.9843627508
 40
1.0
 40
1.0
 40
1.0
 40
1.0
 10
11.1086974777
 20
7.4429926513
 30
0.0
 10
11.1086974777
 20
7.4385753134
 30
0.0
 10
11.1084812844
 20
7.4297538847
 30
0.0
 10
11.107505467
 20
7.4165773413
 30
0.0
 10
11.1058808067
 20
7.4035090052
 30
0.0
 10
11.1036113688
 20
7.3905809503
 30
0.0
 10
11.1007024586
 20
7.3778240904
 30
0.0
 10
11.0971610975
 20
7.365269261
 30
0.0
 10
11.0929958
 20
7.3529467059
 30
0.0
 10
11.0882165768
 20
7.3408861402
 30
0.0
 10
11.0828349218
 20
7.329116651
 30
0.0
 10
11.0768637677
 20
7.3176666354
 30
0.0
 10
11.070317506
 20
7.3065637085
 30
0.0
 10
11.0632119142
 20
7.2958346493
 30
0.0
 10
11.0555641138
 20
7.2855053414
 30
0.0
 10
11.0473925286
 20
7.275600713
 30
0.0
 10
11.0387168554
 20
7.2661446666
 30
0.0
 10
11.0295580314
 20
7.257160001
 30
0.0
 10
11.0199381495
 20
7.2486683847
 30
0.0
 10
11.0098804122
 20
7.2406902989
 30
0.0
 10
10.9994090718
 20
7.2332449963
 30
0.0
 10
10.9885493976
 20
7.2263504181
 30
0.0
 10
10.9773275959
 20
7.2200231675
 30
0.0
 10
10.965770737
 20
7.2142784853
 30
0.0
 10
10.9539066935
 20
7.2091302131
 30
0.0
 10
10.941764077
 20
7.2045907545
 30
0.0
 10
10.9293721798
 20
7.2006710096
 30
0.0
 10
10.9167608838
 20
7.1973803943
 30
0.0
 10
10.9039605926
 20
7.1947268115
 30
0.0
 10
10.8910021588
 20
7.1927166428
 30
0.0
 10
10.877916817
 20
7.1913546971
 30
0.0
 10
10.8647361024
 20
7.1906442071
 30
0.0
 10
10.8514917714
 20
7.1905868507
 30
0.0
 10
10.8382157289
 20
7.1911827409
 30
0.0
 10
10.8249399545
 20
7.1924304277
 30
0.0
 10
10.8116964208
 20
7.1943268582
 30
0.0
 10
10.7985170172
 20
7.1968674287
 30
0.0
 10
10.7854334758
 20
7.200045995
 30
0.0
 10
10.7724772989
 20
7.2038548929
 30
0.0
 10
10.7596796786
 20
7.20828493
 30
0.0
 10
10.7470714155
 20
7.213325402
 30
0.0
 10
10.734682856
 20
7.2189641531
 30
0.0
 10
10.7225438189
 20
7.2251875964
 30
0.0
 10
10.7106835295
 20
7.2319807515
 30
0.0
 10
10.6991305271
 20
7.2393272402
 30
0.0
 10
10.6879126112
 20
7.2472093599
 30
0.0
 10
10.6770567792
 20
7.2556081299
 30
0.0
 10
10.6665891661
 20
7.2645033372
 30
0.0
 10
10.6565349726
 20
7.2738735717
 30
0.0
 10
10.6469183865
 20
7.2836962619
 30
0.0
 10
10.6377625528
 20
7.2939477619
 30
0.0
 10
10.629089514
 20
7.304603399
 30
0.0
 10
10.6209201654
 20
7.3156375376
 30
0.0
 10
10.6132741712
 20
7.327023614
 30
0.0
 10
10.6061699336
 20
7.338734218
 30
0.0
 10
10.5996245626
 20
7.3507411659
 30
0.0
 10
10.5936538349
 20
7.3630155645
 30
0.0
 10
10.5882721517
 20
7.375527876
 30
0.0
 10
10.583492467
 20
7.3882479765
 30
0.0
 10
10.579326305
 20
7.4011452479
 30
0.0
 10
10.575783716
 20
7.4141886425
 30
0.0
 10
10.5728732615
 20
7.4273467854
 30
0.0
 10
10.5706020173
 20
7.4405879126
 30
0.0
 10
10.5689753507
 20
7.4538803916
 30
0.0
 10
10.5679973885
 20
7.4671916239
 30
0.0
 10
10.5677789829
 20
7.4760730808
 30
0.0
 10
10.5677789829
 20
7.4805054764
 30
0.0
  0
SPLINE
  5
390
100
AcDbEntity
  8
0
100
AcDbSpline
 62
7
  6
CONTINUOUS
 70
0
 71
3
 72
42
 73
38
 74
0
 42
0.0000001
 43
0.0000001
 44
0.0000000001
 40
0.0
 40
0.0
 40
0.0
 40
0.0
 40
0.0299419634
 40
0.0449235299
 40
0.0599142017
 40
0.0899287029
 40
0.1200139772
 40
0.1350926626
 40
0.1501967046
 40
0.1804840506
 40
0.2108978877
 40
0.2414513551
 40
0.2721543675
 40
0.3030134354
 40
0.3340315696
 40
0.3652082675
 40
0.3965395775
 40
0.4280182343
 40
0.4596338596
 40
0.4913732188
 40
0.5232205284
 40
0.5551578047
 40
0.5871652463
 40
0.6192216448
 40
0.6513048151
 40
0.6833920402
 40
0.7154605222
 40
0.747487836
 40
0.7794523759
 40
0.8113337934
 40
0.8431134117
 40
0.8747746318
 40
0.9063032512
 40
0.9376879208
 40
0.9533258
 40
0.9689252634
 40
1.0
 40
1.0
 40
1.0
 40
1.0
 10
11.4406969225
 20
9.38707927
 30
0.0
 10
11.4378434981
 20
9.3843230905
 30
0.0
 10
11.4333951638
 20
9.3803558334
 30
0.0
 10
11.4271653719
 20
9.3754333314
 30
0.0
 10
11.4207371924
 20
9.3707557805
 30
0.0
 10
11.4123494751
 20
9.3653844368
 30
0.0
 10
11.403553942
 20
9.3606860655
 30
0.0
 10
11.3962999065
 20
9.3573436395
 30
0.0
 10
11.388896024
 20
9.3542771359
 30
0.0
 10
11.3793971785
 20
9.3509797779
 30
0.0
 10
11.3676912912
 20
9.3479067229
 30
0.0
 10
11.3557299797
 20
9.3457297
 30
0.0
 10
11.3435795317
 20
9.3444607196
 30
0.0
 10
11.3313066922
 20
9.3441065538
 30
0.0
 10
11.31897899
 20
9.344669005
 30
0.0
 10
11.3066641809
 20
9.3461448243
 30
0.0
 10
11.2944299293
 20
9.3485257575
 30
0.0
 10
11.2823434272
 20
9.3517985909
 30
0.0
 10
11.2704710337
 20
9.3559452292
 30
0.0
 10
11.258877915
 20
9.3609427974
 30
0.0
 10
11.2476276919
 20
9.3667637689
 30
0.0
 10
11.2367820955
 20
9.3733761164
 30
0.0
 10
11.226400633
 20
9.3807434881
 30
0.0
 10
11.2165402653
 20
9.3888254061
 30
0.0
 10
11.2072550981
 20
9.3975774873
 30
0.0
 10
11.1985960888
 20
9.4069516844
 30
0.0
 10
11.190610769
 20
9.4168965476
 30
0.0
 10
11.183342987
 20
9.4273575047
 30
0.0
 10
11.1768326685
 20
9.4382771536
 30
0.0
 10
11.1711155996
 20
9.4495955869
 30
0.0
 10
11.1662232321
 20
9.4612506691
 30
0.0
 10
11.162182502
 20
9.4731785466
 30
0.0
 10
11.1590157315
 20
9.4853133535
 30
0.0
 10
11.1571171822
 20
9.4955564461
 30
0.0
 10
11.1560521524
 20
9.5037866468
 30
0.0
 10
11.1552920667
 20
9.5120089719
 30
0.0
 10
11.1550619201
 20
9.5181962161
 30
0.0
 10
11.1550619201
 20
9.5223134887
 30
0.0
  0
SPLINE
  5
391
100
AcDbEntity
  8
0
100
AcDbSpline
 62
7
  6
CONTINUOUS
 70
0
 71
3
 72
42
 73
38
 74
0
 42
0.0000001
 43
0.0000001
 44
0.0000000001
 40
0.0
 40
0.0
 40
0.0
 40
0.0
 40
0.0299419634
 40
0.0449235299
 40
0.0599142017
 40
0.0899287029
 40
0.1200139772
 40
0.1350926626
 40
0.1501967046
 40
0.1804840506
 40
0.2108978877
 40
0.2414513551
 40
0.2721543675
 40
0.3030134354
 40
0.3340315696
 40
0.3652082675
 40
0.3965395775
 40
0.4280182343
 40
0.4596338596
 40
0.4913732188
 40
0.5232205284
 40
0.5551578047
 40
0.5871652463
 40
0.6192216448
 40
0.6513048151
 40
0.6833920402
 40
0.7154605222
 40
0.747487836
 40
0.7794523759
 40
0.8113337934
 40
0.8431134117
 40
0.8747746318
 40
0.9063032512
 40
0.9376879208
 40
0.9533258
 40
0.9689252634
 40
1.0
 40
1.0
 40
1.0
 40
1.0
 10
10.4747710389
 20
6.7977702491
 30
0.0
 10
10.4719176146
 20
6.7950140696
 30
0.0
 10
10.4674692803
 20
6.7910468125
 30
0.0
 10
10.4612394884
 20
6.7861243105
 30
0.0
 10
10.4548113089
 20
6.7814467596
 30
0.0
 10
10.4464235916
 20
6.7760754159
 30
0.0
 10
10.4376280584
 20
6.7713770446
 30
0.0
 10
10.430374023
 20
6.7680346186
 30
0.0
 10
10.4229701405
 20
6.764968115
 30
0.0
 10
10.413471295
 20
6.761670757
 30
0.0
 10
10.4017654077
 20
6.758597702
 30
0.0
 10
10.3898040961
 20
6.7564206791
 30
0.0
 10
10.3776536481
 20
6.7551516987
 30
0.0
 10
10.3653808087
 20
6.7547975328
 30
0.0
 10
10.3530531065
 20
6.7553599841
 30
0.0
 10
10.3407382974
 20
6.7568358033
 30
0.0
 10
10.3285040458
 20
6.7592167366
 30
0.0
 10
10.3164175436
 20
6.76248957
 30
0.0
 10
10.3045451502
 20
6.7666362082
 30
0.0
 10
10.2929520315
 20
6.7716337765
 30
0.0
 10
10.2817018084
 20
6.777454748
 30
0.0
 10
10.270856212
 20
6.7840670955
 30
0.0
 10
10.2604747495
 20
6.7914344672
 30
0.0
 10
10.2506143817
 20
6.7995163852
 30
0.0
 10
10.2413292146
 20
6.8082684663
 30
0.0
 10
10.2326702052
 20
6.8176426634
 30
0.0
 10
10.2246848855
 20
6.8275875267
 30
0.0
 10
10.2174171035
 20
6.8380484837
 30
0.0
 10
10.210906785
 20
6.8489681327
 30
0.0
 10
10.2051897161
 20
6.8602865659
 30
0.0
 10
10.2002973486
 20
6.8719416482
 30
0.0
 10
10.1962566184
 20
6.8838695256
 30
0.0
 10
10.1930898479
 20
6.8960043325
 30
0.0
 10
10.1911912987
 20
6.9062474251
 30
0.0
 10
10.1901262688
 20
6.9144776259
 30
0.0
 10
10.1893661832
 20
6.9226999509
 30
0.0
 10
10.1891360366
 20
6.9288871952
 30
0.0
 10
10.1891360366
 20
6.9330044678
 30
0.0
  0
SPLINE
  5
392
100
AcDbEntity
  8
0
100
AcDbSpline
 62
7
  6
CONTINUOUS
 70
0
 71
3
 72
71
 73
67
 74
0
 42
0.0000001
 43
0.0000001
 44
0.0000000001
 40
0.0
 40
0.0
 40
0.0
 40
0.0
 40
0.0155841267
 40
0.0311159948
 40
0.046595237
 40
0.0620238811
 40
0.0774034528
 40
0.0927362808
 40
0.108025123
 40
0.1232731726
 40
0.1384840554
 40
0.1536617766
 40
0.1688106897
 40
0.1839354524
 40
0.1990409778
 40
0.2141323823
 40
0.2292149324
 40
0.2442939895
 40
0.2593749535
 40
0.2744632036
 40
0.2895640407
 40
0.3046826304
 40
0.3198239505
 40
0.3349927386
 40
0.3501934431
 40
0.3654301773
 40
0.3807066784
 40
0.3960262749
 40
0.4113918546
 40
0.4268058385
 40
0.4422701591
 40
0.4577862482
 40
0.4733550284
 40
0.4889769089
 40
0.5046517849
 40
0.520379043
 40
0.5361575757
 40
0.5519857956
 40
0.567861654
 40
0.5837826618
 40
0.599745918
 40
0.6157481409
 40
0.631785699
 40
0.6478546447
 40
0.6639507505
 40
0.6800695507
 40
0.6962063813
 40
0.7123564198
 40
0.7285147273
 40
0.7446762932
 40
0.7608360797
 40
0.7769890647
 40
0.7931302839
 40
0.8092548751
 40
0.8253581231
 40
0.8414355003
 40
0.8574827061
 40
0.8734957059
 40
0.8894707697
 40
0.9054045141
 40
0.921293915
 40
0.9371363644
 40
0.9529297309
 40
0.9686720281
 40
0.9843627508
 40
1.0
 40
1.0
 40
1.0
 40
1.0
 10
10.5677789829
 20
7.4805054764
 30
0.0
 10
10.5677789829
 20
7.4849228143
 30
0.0
 10
10.5679951762
 20
7.493744243
 30
0.0
 10
10.5689709936
 20
7.5069207864
 30
0.0
 10
10.570595654
 20
7.5199891225
 30
0.0
 10
10.5728650918
 20
7.5329171774
 30
0.0
 10
10.575774002
 20
7.5456740373
 30
0.0
 10
10.5793153632
 20
7.5582288667
 30
0.0
 10
10.5834806606
 20
7.5705514218
 30
0.0
 10
10.5882598838
 20
7.5826119875
 30
0.0
 10
10.5936415389
 20
7.5943814767
 30
0.0
 10
10.5996126929
 20
7.6058314923
 30
0.0
 10
10.6061589546
 20
7.6169344192
 30
0.0
 10
10.6132645464
 20
7.6276634784
 30
0.0
 10
10.6209123468
 20
7.6379927863
 30
0.0
 10
10.629083932
 20
7.6478974147
 30
0.0
 10
10.6377596053
 20
7.6573534611
 30
0.0
 10
10.6469184292
 20
7.6663381267
 30
0.0
 10
10.6565383111
 20
7.674829743
 30
0.0
 10
10.6665960484
 20
7.6828078289
 30
0.0
 10
10.6770673888
 20
7.6902531314
 30
0.0
 10
10.687927063
 20
7.6971477096
 30
0.0
 10
10.6991488648
 20
7.7034749603
 30
0.0
 10
10.7107057236
 20
7.7092196424
 30
0.0
 10
10.7225697671
 20
7.7143679146
 30
0.0
 10
10.7347123836
 20
7.7189073732
 30
0.0
 10
10.7471042808
 20
7.7228271181
 30
0.0
 10
10.7597155768
 20
7.7261177334
 30
0.0
 10
10.7725158681
 20
7.7287713162
 30
0.0
 10
10.7854743019
 20
7.7307814849
 30
0.0
 10
10.7985596436
 20
7.7321434307
 30
0.0
 10
10.8117403582
 20
7.7328539206
 30
0.0
 10
10.8249846892
 20
7.7329112771
 30
0.0
 10
10.8382607317
 20
7.7323153869
 30
0.0
 10
10.8515365061
 20
7.7310677
 30
0.0
 10
10.8647800399
 20
7.7291712695
 30
0.0
 10
10.8779594434
 20
7.726630699
 30
0.0
 10
10.8910429848
 20
7.7234521327
 30
0.0
 10
10.9039991617
 20
7.7196432348
 30
0.0
 10
10.916796782
 20
7.7152131977
 30
0.0
 10
10.9294050451
 20
7.7101727258
 30
0.0
 10
10.9417936046
 20
7.7045339747
 30
0.0
 10
10.9539326417
 20
7.6983105313
 30
0.0
 10
10.9657929311
 20
7.6915173763
 30
0.0
 10
10.9773459335
 20
7.6841708875
 30
0.0
 10
10.9885638495
 20
7.6762887678
 30
0.0
 10
10.9994196814
 20
7.6678899979
 30
0.0
 10
11.0098872945
 20
7.6589947905
 30
0.0
 10
11.0199414881
 20
7.6496245561
 30
0.0
 10
11.0295580742
 20
7.6398018658
 30
0.0
 10
11.0387139078
 20
7.6295503659
 30
0.0
 10
11.0473869466
 20
7.6188947287
 30
0.0
 10
11.0555562952
 20
7.6078605901
 30
0.0
 10
11.0632022894
 20
7.5964745137
 30
0.0
 10
11.070306527
 20
7.5847639097
 30
0.0
 10
11.0768518981
 20
7.5727569618
 30
0.0
 10
11.0828226257
 20
7.5604825632
 30
0.0
 10
11.0882043089
 20
7.5479702517
 30
0.0
 10
11.0929839936
 20
7.5352501512
 30
0.0
 10
11.0971501556
 20
7.5223528798
 30
0.0
 10
11.1006927446
 20
7.5093094852
 30
0.0
 10
11.1036031991
 20
7.4961513423
 30
0.0
 10
11.1058744433
 20
7.4829102151
 30
0.0
 10
11.1075011099
 20
7.4696177361
 30
0.0
 10
11.1084790721
 20
7.4563065039
 30
0.0
 10
11.1086974777
 20
7.4474250469
 30
0.0
 10
11.1086974777
 20
7.4429926513
 30
0.0
  0
SPLINE
  5
393
100
AcDbEntity
  8
0
100
AcDbSpline
 62
7
  6
CONTINUOUS
 70
0
 71
3
 72
86
 73
82
 74
0
 42
0.0000001
 43
0.0000001
 44
0.0000000001
 40
0.0
 40
0.0
 40
0.0
 40
0.0
 40
0.0039801513
 40
0.008124084
 40
0.0124359564
 40
0.0169193168
 40
0.0215771741
 40
0.0264119028
 40
0.0314251627
 40
0.0366181356
 40
0.0419915235
 40
0.0475456275
 40
0.053280397
 40
0.0591953838
 40
0.0715623696
 40
0.0846380241
 40
0.098409314
 40
0.1128598612
 40
0.1279703666
 40
0.1437189434
 40
0.1600813876
 40
0.1770314207
 40
0.1945408892
 40
0.212579937
 40
0.2311171586
 40
0.2501197324
 40
0.2695535554
 40
0.2893833698
 40
0.3095728782
 40
0.330084854
 40
0.3508812463
 40
0.3719232845
 40
0.3931715874
 40
0.4145862648
 40
0.4577524943
 40
0.5010972215
 40
0.5442931877
 40
0.5657338055
 40
0.5870153489
 40
0.6080978459
 40
0.6289418171
 40
0.6495083765
 40
0.6697593333
 40
0.6896572975
 40
0.709165794
 40
0.7282493704
 40
0.7468737097
 40
0.765005749
 40
0.7826138079
 40
0.799667733
 40
0.8161390526
 40
0.8320011386
 40
0.8472293986
 40
0.8618014998
 40
0.8756976395
 40
0.8889008818
 40
0.9013975545
 40
0.9073779486
 40
0.9131783323
 40
0.9187981834
 40
0.9242373016
 40
0.9294958263
 40
0.9345743472
 40
0.939473844
 40
0.9441958406
 40
0.9487423954
 40
0.9531161817
 40
0.9573206117
 40
0.9613598365
 40
0.9652389461
 40
0.9689639973
 40
0.9725421665
 40
0.9759818867
 40
0.9792929065
 40
0.9824864724
 40
0.985575332
 40
0.9885738044
 40
0.9914977317
 40
0.9943643325
 40
0.9971920101
 40
1.0
 40
1.0
 40
1.0
 40
1.0
 10
10.2456118675
 20
10.7796313404
 30
0.0
 10
10.2466021422
 20
10.7805878724
 30
0.0
 10
10.2486684137
 20
10.7824941775
 30
0.0
 10
10.2519490255
 20
10.7852784904
 30
0.0
 10
10.2554705506
 20
10.7880428487
 30
0.0
 10
10.2592310554
 20
10.7907857512
 30
0.0
 10
10.2632286859
 20
10.7935059368
 30
0.0
 10
10.2674615041
 20
10.7962020623
 30
0.0
 10
10.2719273876
 20
10.7988728603
 30
0.0
 10
10.2766241214
 20
10.8015169455
 30
0.0
 10
10.2815493413
 20
10.8041330187
 30
0.0
 10
10.2867005789
 20
10.8067197756
 30
0.0
 10
10.2920752724
 20
10.8092759127
 30
0.0
 10
10.2996486232
 20
10.8126923716
 30
0.0
 10
10.309662957
 20
10.8168673403
 30
0.0
 10
10.3223538837
 20
10.8216635844
 30
0.0
 10
10.3358654926
 20
10.8263079917
 30
0.0
 10
10.3501705867
 20
10.8307911378
 30
0.0
 10
10.3652405275
 20
10.8351039104
 30
0.0
 10
10.3810450049
 20
10.8392375285
 30
0.0
 10
10.3975521945
 20
10.8431835778
 30
0.0
 10
10.4147288113
 20
10.846934021
 30
0.0
 10
10.4325401946
 20
10.8504812179
 30
0.0
 10
10.4509503808
 20
10.8538179425
 30
0.0
 10
10.4699221783
 20
10.856937396
 30
0.0
 10
10.4894172426
 20
10.8598332285
 30
0.0
 10
10.5093961584
 20
10.8624995478
 30
0.0
 10
10.5298185248
 20
10.8649309281
 30
0.0
 10
10.5506430391
 20
10.8671224221
 30
0.0
 10
10.5718275792
 20
10.8690695687
 30
0.0
 10
10.5933292916
 20
10.8707684073
 30
0.0
 10
10.6151046634
 20
10.8722154802
 30
0.0
 10
10.6371096733
 20
10.8734078697
 30
0.0
 10
10.6667738117
 20
10.8746580591
 30
0.0
 10
10.7040999923
 20
10.8755661397
 30
0.0
 10
10.7489717735
 20
10.8756134788
 30
0.0
 10
10.7863190461
 20
10.8747843332
 30
0.0
 10
10.8160165533
 20
10.8735971652
 30
0.0
 10
10.8380585502
 20
10.8724513741
 30
0.0
 10
10.8598789733
 20
10.871050419
 30
0.0
 10
10.8814337124
 20
10.8693971259
 30
0.0
 10
10.9026791482
 20
10.867494863
 30
0.0
 10
10.9235723019
 20
10.8653474966
 30
0.0
 10
10.944070908
 20
10.8629593918
 30
0.0
 10
10.9641335078
 20
10.86033541
 30
0.0
 10
10.9837195327
 20
10.8574808931
 30
0.0
 10
11.0027893858
 20
10.8544016517
 30
0.0
 10
11.0213045217
 20
10.8511039547
 30
0.0
 10
11.0392275286
 20
10.8475945145
 30
0.0
 10
11.0565222103
 20
10.8438804786
 30
0.0
 10
11.0731536658
 20
10.8399694161
 30
0.0
 10
11.0890883595
 20
10.8358692952
 30
0.0
 10
11.1042941994
 20
10.8315884662
 30
0.0
 10
11.1187405876
 20
10.8271356428
 30
0.0
 10
11.1323985788
 20
10.822519871
 30
0.0
 10
11.1452406751
 20
10.8177505305
 30
0.0
 10
11.1553847674
 20
10.8135975251
 30
0.0
 10
11.1630643932
 20
10.8101978781
 30
0.0
 10
11.1685196971
 20
10.8076531814
 30
0.0
 10
11.1737525204
 20
10.8050774174
 30
0.0
 10
11.1787602515
 20
10.8024718668
 30
0.0
 10
11.1835403648
 20
10.7998378036
 30
0.0
 10
11.1880904918
 20
10.7971765935
 30
0.0
 10
11.192408339
 20
10.7944895081
 30
0.0
 10
11.1964917689
 20
10.7917779083
 30
0.0
 10
11.2003387501
 20
10.7890431219
 30
0.0
 10
11.2039473509
 20
10.7862864505
 30
0.0
 10
11.2073158109
 20
10.7835092741
 30
0.0
 10
11.2104424103
 20
10.7807128547
 30
0.0
 10
11.2133256151
 20
10.7778985518
 30
0.0
 10
11.2159639516
 20
10.7750676475
 30
0.0
 10
11.2183560356
 20
10.7722214183
 30
0.0
 10
11.2205006368
 20
10.7693611891
 30
0.0
 10
11.2223964833
 20
10.7664881883
 30
0.0
 10
11.2240425028
 20
10.7636037664
 30
0.0
 10
11.2254375773
 20
10.7607092332
 30
0.0
 10
11.2265806877
 20
10.7578059945
 30
0.0
 10
11.2274709559
 20
10.7548955942
 30
0.0
 10
11.2281074797
 20
10.7519795546
 30
0.0
 10
11.2284897184
 20
10.7490599506
 30
0.0
 10
11.2285747974
 20
10.7471094202
 30
0.0
 10
11.2285748021
 20
10.7461380852
 30
0.0
  0
SPLINE
  5
394
100
AcDbEntity
  8
0
100
AcDbSpline
 62
7
  6
CONTINUOUS
 70
0
 71
3
 72
79
 73
75
 74
0
 42
0.0000001
 43
0.0000001
 44
0.0000000001
 40
0.0
 40
0.0
 40
0.0
 40
0.0
 40
0.0027164347
 40
0.0054532488
 40
0.0082303236
 40
0.0110666256
 40
0.0139798465
 40
0.0169861596
 40
0.02010014
 40
0.0233346673
 40
0.0267010303
 40
0.0302090039
 40
0.0338669236
 40
0.0376819087
 40
0.0416598992
 40
0.0458058334
 40
0.050123788
 40
0.0546169889
 40
0.0592880183
 40
0.0641388147
 40
0.0691707474
 40
0.0743847509
 40
0.0853596772
 40
0.0970635614
 40
0.1094903495
 40
0.122629634
 40
0.1364673293
 40
0.1509861741
 40
0.1661661143
 40
0.1819846001
 40
0.1984168698
 40
0.2154361725
 40
0.2330139498
 40
0.2511199804
 40
0.269722539
 40
0.2887885422
 40
0.3082836705
 40
0.3281724738
 40
0.3484184816
 40
0.3689843266
 40
0.4109214294
 40
0.4536715193
 40
0.4969136093
 40
0.540321979
 40
0.5835693174
 40
0.6263298478
 40
0.6682824923
 40
0.6888579727
 40
0.7091148233
 40
0.7290156552
 40
0.7485239752
 40
0.7676042909
 40
0.7862222357
 40
0.8043446912
 40
0.8219398969
 40
0.8389775799
 40
0.8554291082
 40
0.8712676747
 40
0.8864684624
 40
0.9010088541
 40
0.9148686911
 40
0.9280306123
 40
0.9404804379
 40
0.9522076406
 40
0.9577984259
 40
0.9632066633
 40
0.9684323655
 40
0.9734759744
 40
0.9783383356
 40
0.9830207896
 40
0.9875253575
 40
0.9918546105
 40
0.9960116061
 40
1.0
 40
1.0
 40
1.0
 40
1.0
 10
12.4769085992
 20
10.5479001807
 30
0.0
 10
12.4776644811
 20
10.5478477568
 30
0.0
 10
12.4791780466
 20
10.5476741077
 30
0.0
 10
12.4814291152
 20
10.5472093808
 30
0.0
 10
12.4836631784
 20
10.5465405618
 30
0.0
 10
12.4858786364
 20
10.5456682476
 30
0.0
 10
12.4880743327
 20
10.5445932088
 30
0.0
 10
12.4902491774
 20
10.543316342
 30
0.0
 10
12.4924021183
 20
10.541838478
 30
0.0
 10
12.4945322409
 20
10.5401606181
 30
0.0
 10
12.4966386117
 20
10.5382837177
 30
0.0
 10
12.4987202987
 20
10.5362087846
 30
0.0
 10
12.5007764428
 20
10.5339369436
 30
0.0
 10
12.5028060796
 20
10.5314693034
 30
0.0
 10
12.5048083193
 20
10.5288071195
 30
0.0
 10
12.5067822453
 20
10.5259517085
 30
0.0
 10
12.5087268897
 20
10.522904454
 30
0.0
 10
12.5106413779
 20
10.519666884
 30
0.0
 10
12.51252475
 20
10.5162405732
 30
0.0
 10
12.5143760883
 20
10.51262722
 30
0.0
 10
12.5161945375
 20
10.5088286134
 30
0.0
 10
12.5186154412
 20
10.5034265951
 30
0.0
 10
12.5215430611
 20
10.4962152476
 30
0.0
 10
12.5248533921
 20
10.4869973111
 30
0.0
 10
12.5280118567
 20
10.4770908476
 30
0.0
 10
12.5310121062
 20
10.4665155857
 30
0.0
 10
12.5338480839
 20
10.4552924244
 30
0.0
 10
12.536514035
 20
10.4434437076
 30
0.0
 10
12.5390045364
 20
10.4309930715
 30
0.0
 10
12.5413145301
 20
10.4179654183
 30
0.0
 10
12.5434393165
 20
10.4043868407
 30
0.0
 10
12.5453745699
 20
10.390284558
 30
0.0
 10
12.547116344
 20
10.3756868614
 30
0.0
 10
12.5486610965
 20
10.3606230586
 30
0.0
 10
12.5500056869
 20
10.3451234082
 30
0.0
 10
12.5511473769
 20
10.3292190517
 30
0.0
 10
12.5520838379
 20
10.3129419471
 30
0.0
 10
12.5528131519
 20
10.2963248196
 30
0.0
 10
12.5533338594
 20
10.279401051
 30
0.0
 10
12.55375116
 20
10.2563230698
 30
0.0
 10
12.5537372424
 20
10.2269616358
 30
0.0
 10
12.5528839545
 20
10.1912853439
 30
0.0
 10
12.5512003662
 20
10.1552277245
 30
0.0
 10
12.5486999182
 20
10.1190785782
 30
0.0
 10
12.5454027141
 20
10.0831281862
 30
0.0
 10
12.5413352927
 20
10.0476654781
 30
0.0
 10
12.5373059256
 20
10.0185718107
 30
0.0
 10
12.5337145785
 20
9.9957609919
 30
0.0
 10
12.5308681219
 20
9.9790609959
 30
0.0
 10
12.5278571942
 20
9.9626924334
 30
0.0
 10
12.5246878442
 20
9.9466881849
 30
0.0
 10
12.5213664713
 20
9.9310804267
 30
0.0
 10
12.5178997788
 20
9.9159005201
 30
0.0
 10
12.5142947737
 20
9.9011789562
 30
0.0
 10
12.5105587383
 20
9.8869452957
 30
0.0
 10
12.5066992194
 20
9.8732281115
 30
0.0
 10
12.5027240107
 20
9.8600549218
 30
0.0
 10
12.4986411528
 20
9.8474521239
 30
0.0
 10
12.4944588975
 20
9.8354449438
 30
0.0
 10
12.4901856926
 20
9.8240573797
 30
0.0
 10
12.4858301555
 20
9.8133121642
 30
0.0
 10
12.4814010588
 20
9.8032306149
 30
0.0
 10
12.4769073165
 20
9.793832857
 30
0.0
 10
12.4730572392
 20
9.7864736883
 30
0.0
 10
12.4699453884
 20
9.7809505334
 30
0.0
 10
12.4676382026
 20
9.7770567811
 30
0.0
 10
12.4653215938
 20
9.7733473686
 30
0.0
 10
12.4629967243
 20
9.7698241295
 30
0.0
 10
12.4606647638
 20
9.766488813
 30
0.0
 10
12.4583268115
 20
9.7633430746
 30
0.0
 10
12.4559840206
 20
9.7603884159
 30
0.0
 10
12.4536374631
 20
9.7576263072
 30
0.0
 10
12.451288438
 20
9.7550582468
 30
0.0
 10
12.4496889863
 20
9.753443536
 30
0.0
 10
12.4488888253
 20
9.7526706398
 30
0.0
  0
SPLINE
  5
395
100
AcDbEntity
  8
0
100
AcDbSpline
 62
7
  6
CONTINUOUS
 70
0
 71
3
 72
21
 73
17
 74
0
 42
0.0000001
 43
0.0000001
 44
0.0000000001
 40
0.0
 40
0.0
 40
0.0
 40
0.0
 40
0.1273176984
 40
0.2537999461
 40
0.3167619614
 40
0.3795355204
 40
0.4421314992
 40
0.5045621453
 40
0.5668413456
 40
0.6289845231
 40
0.6910084433
 40
0.7529310869
 40
0.8147714401
 40
0.8765493236
 40
0.9382852134
 40
1.0
 40
1.0
 40
1.0
 40
1.0
 10
11.1550619201
 20
9.5223134887
 30
0.0
 10
11.1550619201
 20
9.5276107809
 30
0.0
 10
11.1555675821
 20
9.5381774238
 30
0.0
 10
11.1574773249
 20
9.5512400753
 30
0.0
 10
11.1597598726
 20
9.5614865816
 30
0.0
 10
11.161841437
 20
9.5690444096
 30
0.0
 10
11.164290273
 20
9.5764679388
 30
0.0
 10
11.1671007347
 20
9.5837402673
 30
0.0
 10
11.1702663426
 20
9.5908445753
 30
0.0
 10
11.1737798611
 20
9.5977644664
 30
0.0
 10
11.1776331623
 20
9.6044839892
 30
0.0
 10
11.1818173597
 20
9.6109876578
 30
0.0
 10
11.1863228442
 20
9.6172604229
 30
0.0
 10
11.1911392536
 20
9.6232878782
 30
0.0
 10
11.1962552667
 20
9.6290559557
 30
0.0
 10
11.1998585433
 20
9.6327201782
 30
0.0
 10
11.2017054217
 20
9.6345041149
 30
0.0
  0
SPLINE
  5
396
100
AcDbEntity
  8
0
100
AcDbSpline
 62
7
  6
CONTINUOUS
 70
0
 71
3
 72
79
 73
75
 74
0
 42
0.0000001
 43
0.0000001
 44
0.0000000001
 40
0.0
 40
0.0
 40
0.0
 40
0.0
 40
0.0027164347
 40
0.0054532488
 40
0.0082303236
 40
0.0110666256
 40
0.0139798465
 40
0.0169861596
 40
0.02010014
 40
0.0233346673
 40
0.0267010303
 40
0.0302090039
 40
0.0338669236
 40
0.0376819087
 40
0.0416598992
 40
0.0458058334
 40
0.050123788
 40
0.0546169889
 40
0.0592880183
 40
0.0641388147
 40
0.0691707474
 40
0.0743847509
 40
0.0853596772
 40
0.0970635614
 40
0.1094903495
 40
0.122629634
 40
0.1364673293
 40
0.1509861741
 40
0.1661661143
 40
0.1819846001
 40
0.1984168698
 40
0.2154361725
 40
0.2330139498
 40
0.2511199804
 40
0.269722539
 40
0.2887885422
 40
0.3082836705
 40
0.3281724738
 40
0.3484184816
 40
0.3689843266
 40
0.4109214294
 40
0.4536715193
 40
0.4969136093
 40
0.540321979
 40
0.5835693174
 40
0.6263298478
 40
0.6682824923
 40
0.6888579727
 40
0.7091148233
 40
0.7290156552
 40
0.7485239752
 40
0.7676042909
 40
0.7862222357
 40
0.8043446912
 40
0.8219398969
 40
0.8389775799
 40
0.8554291082
 40
0.8712676747
 40
0.8864684624
 40
0.9010088541
 40
0.9148686911
 40
0.9280306123
 40
0.9404804379
 40
0.9522076406
 40
0.9577984259
 40
0.9632066633
 40
0.9684323655
 40
0.9734759744
 40
0.9783383356
 40
0.9830207896
 40
0.9875253575
 40
0.9918546105
 40
0.9960116061
 40
1.0
 40
1.0
 40
1.0
 40
1.0
 10
12.4769085992
 20
9.0381580597
 30
0.0
 10
12.4776644811
 20
9.0381056359
 30
0.0
 10
12.4791780466
 20
9.0379319868
 30
0.0
 10
12.4814291152
 20
9.0374672599
 30
0.0
 10
12.4836631784
 20
9.0367984408
 30
0.0
 10
12.4858786364
 20
9.0359261266
 30
0.0
 10
12.4880743327
 20
9.0348510879
 30
0.0
 10
12.4902491774
 20
9.033574221
 30
0.0
 10
12.4924021183
 20
9.0320963571
 30
0.0
 10
12.4945322409
 20
9.0304184972
 30
0.0
 10
12.4966386117
 20
9.0285415967
 30
0.0
 10
12.4987202987
 20
9.0264666637
 30
0.0
 10
12.5007764428
 20
9.0241948226
 30
0.0
 10
12.5028060796
 20
9.0217271825
 30
0.0
 10
12.5048083193
 20
9.0190649986
 30
0.0
 10
12.5067822453
 20
9.0162095876
 30
0.0
 10
12.5087268897
 20
9.013162333
 30
0.0
 10
12.5106413779
 20
9.009924763
 30
0.0
 10
12.51252475
 20
9.0064984523
 30
0.0
 10
12.5143760883
 20
9.002885099
 30
0.0
 10
12.5161945375
 20
8.9990864925
 30
0.0
 10
12.5186154412
 20
8.9936844741
 30
0.0
 10
12.5215430611
 20
8.9864731267
 30
0.0
 10
12.5248533921
 20
8.9772551901
 30
0.0
 10
12.5280118567
 20
8.9673487267
 30
0.0
 10
12.5310121062
 20
8.9567734647
 30
0.0
 10
12.5338480839
 20
8.9455503035
 30
0.0
 10
12.536514035
 20
8.9337015866
 30
0.0
 10
12.5390045364
 20
8.9212509505
 30
0.0
 10
12.5413145301
 20
8.9082232974
 30
0.0
 10
12.5434393165
 20
8.8946447197
 30
0.0
 10
12.5453745699
 20
8.880542437
 30
0.0
 10
12.547116344
 20
8.8659447405
 30
0.0
 10
12.5486610965
 20
8.8508809376
 30
0.0
 10
12.5500056869
 20
8.8353812872
 30
0.0
 10
12.5511473769
 20
8.8194769308
 30
0.0
 10
12.5520838379
 20
8.8031998262
 30
0.0
 10
12.5528131519
 20
8.7865826987
 30
0.0
 10
12.5533338594
 20
8.7696589301
 30
0.0
 10
12.55375116
 20
8.7465809488
 30
0.0
 10
12.5537372424
 20
8.7172195148
 30
0.0
 10
12.5528839545
 20
8.6815432229
 30
0.0
 10
12.5512003662
 20
8.6454856036
 30
0.0
 10
12.5486999182
 20
8.6093364573
 30
0.0
 10
12.5454027141
 20
8.5733860652
 30
0.0
 10
12.5413352927
 20
8.5379233572
 30
0.0
 10
12.5373059256
 20
8.5088296898
 30
0.0
 10
12.5337145785
 20
8.486018871
 30
0.0
 10
12.5308681219
 20
8.469318875
 30
0.0
 10
12.5278571942
 20
8.4529503124
 30
0.0
 10
12.5246878442
 20
8.436946064
 30
0.0
 10
12.5213664713
 20
8.4213383057
 30
0.0
 10
12.5178997788
 20
8.4061583992
 30
0.0
 10
12.5142947737
 20
8.3914368352
 30
0.0
 10
12.5105587383
 20
8.3772031747
 30
0.0
 10
12.5066992194
 20
8.3634859905
 30
0.0
 10
12.5027240107
 20
8.3503128009
 30
0.0
 10
12.4986411528
 20
8.3377100029
 30
0.0
 10
12.4944588975
 20
8.3257028229
 30
0.0
 10
12.4901856926
 20
8.3143152588
 30
0.0
 10
12.4858301555
 20
8.3035700432
 30
0.0
 10
12.4814010588
 20
8.293488494
 30
0.0
 10
12.4769073165
 20
8.2840907361
 30
0.0
 10
12.4730572392
 20
8.2767315673
 30
0.0
 10
12.4699453884
 20
8.2712084124
 30
0.0
 10
12.4676382026
 20
8.2673146602
 30
0.0
 10
12.4653215938
 20
8.2636052476
 30
0.0
 10
12.4629967243
 20
8.2600820085
 30
0.0
 10
12.4606647638
 20
8.2567466921
 30
0.0
 10
12.4583268115
 20
8.2536009537
 30
0.0
 10
12.4559840206
 20
8.250646295
 30
0.0
 10
12.4536374631
 20
8.2478841863
 30
0.0
 10
12.451288438
 20
8.2453161258
 30
0.0
 10
12.4496889863
 20
8.2437014151
 30
0.0
 10
12.4488888253
 20
8.2429285189
 30
0.0
  0
SPLINE
  5
397
100
AcDbEntity
  8
0
100
AcDbSpline
 62
4
  6
CONTINUOUS
 70
0
 71
3
 72
403
 73
399
 74
0
 42
0.0000001
 43
0.0000001
 44
0.0000000001
 40
0.0
 40
0.0
 40
0.0
 40
0.0
 40
0.015625
 40
0.0234375
 40
0.03125
 40
0.0390625
 40
0.04296875
 40
0.046875
 40
0.05078125
 40
0.0546875
 40
0.056640625
 40
0.05859375
 40
0.0595703125
 40
0.060546875
 40
0.0615234375
 40
0.0620117188
 40
0.0622558594
 40
0.0625
 40
0.0627441406
 40
0.0629882812
 40
0.0634765625
 40
0.064453125
 40
0.0654296875
 40
0.06640625
 40
0.068359375
 40
0.0703125
 40
0.07421875
 40
0.078125
 40
0.08203125
 40
0.0859375
 40
0.09375
 40
0.1015625
 40
0.10546875
 40
0.109375
 40
0.11328125
 40
0.1171875
 40
0.119140625
 40
0.12109375
 40
0.1220703125
 40
0.123046875
 40
0.1240234375
 40
0.1245117188
 40
0.1247558594
 40
0.125
 40
0.1252441406
 40
0.1254882812
 40
0.1259765625
 40
0.126953125
 40
0.1279296875
 40
0.12890625
 40
0.130859375
 40
0.1328125
 40
0.13671875
 40
0.140625
 40
0.14453125
 40
0.1484375
 40
0.15625
 40
0.1640625
 40
0.16796875
 40
0.171875
 40
0.17578125
 40
0.1796875
 40
0.181640625
 40
0.18359375
 40
0.1845703125
 40
0.185546875
 40
0.1865234375
 40
0.1870117188
 40
0.1872558594
 40
0.1875
 40
0.1877441406
 40
0.1879882812
 40
0.1884765625
 40
0.189453125
 40
0.1904296875
 40
0.19140625
 40
0.193359375
 40
0.1953125
 40
0.19921875
 40
0.203125
 40
0.20703125
 40
0.2109375
 40
0.21875
 40
0.2265625
 40
0.23046875
 40
0.234375
 40
0.23828125
 40
0.2421875
 40
0.244140625
 40
0.24609375
 40
0.2470703125
 40
0.248046875
 40
0.2490234375
 40
0.2495117188
 40
0.2497558594
 40
0.25
 40
0.2502441406
 40
0.2504882812
 40
0.2509765625
 40
0.251953125
 40
0.2529296875
 40
0.25390625
 40
0.255859375
 40
0.2578125
 40
0.26171875
 40
0.265625
 40
0.26953125
 40
0.2734375
 40
0.28125
 40
0.2890625
 40
0.29296875
 40
0.296875
 40
0.30078125
 40
0.3046875
 40
0.306640625
 40
0.30859375
 40
0.3095703125
 40
0.310546875
 40
0.3115234375
 40
0.3120117188
 40
0.3122558594
 40
0.3125
 40
0.3127441406
 40
0.3129882812
 40
0.3134765625
 40
0.314453125
 40
0.3154296875
 40
0.31640625
 40
0.318359375
 40
0.3203125
 40
0.32421875
 40
0.328125
 40
0.33203125
 40
0.3359375
 40
0.34375
 40
0.3515625
 40
0.35546875
 40
0.359375
 40
0.36328125
 40
0.3671875
 40
0.369140625
 40
0.37109375
 40
0.3720703125
 40
0.373046875
 40
0.3740234375
 40
0.3745117188
 40
0.3747558594
 40
0.375
 40
0.3752441406
 40
0.3754882812
 40
0.3759765625
 40
0.376953125
 40
0.3779296875
 40
0.37890625
 40
0.380859375
 40
0.3828125
 40
0.38671875
 40
0.390625
 40
0.39453125
 40
0.3984375
 40
0.40625
 40
0.4140625
 40
0.41796875
 40
0.421875
 40
0.42578125
 40
0.4296875
 40
0.431640625
 40
0.43359375
 40
0.4345703125
 40
0.435546875
 40
0.4365234375
 40
0.4370117188
 40
0.4372558594
 40
0.4375
 40
0.4377441406
 40
0.4379882812
 40
0.4384765625
 40
0.439453125
 40
0.4404296875
 40
0.44140625
 40
0.443359375
 40
0.4453125
 40
0.44921875
 40
0.453125
 40
0.45703125
 40
0.4609375
 40
0.46875
 40
0.4765625
 40
0.48046875
 40
0.484375
 40
0.48828125
 40
0.4921875
 40
0.494140625
 40
0.49609375
 40
0.4970703125
 40
0.498046875
 40
0.4990234375
 40
0.4995117188
 40
0.4997558594
 40
0.5
 40
0.5002441406
 40
0.5004882812
 40
0.5009765625
 40
0.501953125
 40
0.5029296875
 40
0.50390625
 40
0.505859375
 40
0.5078125
 40
0.51171875
 40
0.515625
 40
0.51953125
 40
0.5234375
 40
0.53125
 40
0.5390625
 40
0.54296875
 40
0.546875
 40
0.55078125
 40
0.5546875
 40
0.556640625
 40
0.55859375
 40
0.5595703125
 40
0.560546875
 40
0.5615234375
 40
0.5620117188
 40
0.5622558594
 40
0.5625
 40
0.5627441406
 40
0.5629882812
 40
0.5634765625
 40
0.564453125
 40
0.5654296875
 40
0.56640625
 40
0.568359375
 40
0.5703125
 40
0.57421875
 40
0.578125
 40
0.58203125
 40
0.5859375
 40
0.59375
 40
0.6015625
 40
0.60546875
 40
0.609375
 40
0.61328125
 40
0.6171875
 40
0.619140625
 40
0.62109375
 40
0.6220703125
 40
0.623046875
 40
0.6240234375
 40
0.6245117188
 40
0.6247558594
 40
0.625
 40
0.6252441406
 40
0.6254882812
 40
0.6259765625
 40
0.626953125
 40
0.6279296875
 40
0.62890625
 40
0.630859375
 40
0.6328125
 40
0.63671875
 40
0.640625
 40
0.64453125
 40
0.6484375
 40
0.65625
 40
0.6640625
 40
0.66796875
 40
0.671875
 40
0.67578125
 40
0.6796875
 40
0.681640625
 40
0.68359375
 40
0.6845703125
 40
0.685546875
 40
0.6865234375
 40
0.6870117188
 40
0.6872558594
 40
0.6875
 40
0.6877441406
 40
0.6879882812
 40
0.6884765625
 40
0.689453125
 40
0.6904296875
 40
0.69140625
 40
0.693359375
 40
0.6953125
 40
0.69921875
 40
0.703125
 40
0.70703125
 40
0.7109375
 40
0.71875
 40
0.7265625
 40
0.73046875
 40
0.734375
 40
0.73828125
 40
0.7421875
 40
0.744140625
 40
0.74609375
 40
0.7470703125
 40
0.748046875
 40
0.7490234375
 40
0.7495117188
 40
0.7497558594
 40
0.75
 40
0.7502441406
 40
0.7504882812
 40
0.7509765625
 40
0.751953125
 40
0.7529296875
 40
0.75390625
 40
0.755859375
 40
0.7578125
 40
0.76171875
 40
0.765625
 40
0.76953125
 40
0.7734375
 40
0.78125
 40
0.7890625
 40
0.79296875
 40
0.796875
 40
0.80078125
 40
0.8046875
 40
0.806640625
 40
0.80859375
 40
0.8095703125
 40
0.810546875
 40
0.8115234375
 40
0.8120117188
 40
0.8122558594
 40
0.8125
 40
0.8127441406
 40
0.8129882812
 40
0.8134765625
 40
0.814453125
 40
0.8154296875
 40
0.81640625
 40
0.818359375
 40
0.8203125
 40
0.82421875
 40
0.828125
 40
0.83203125
 40
0.8359375
 40
0.84375
 40
0.8515625
 40
0.85546875
 40
0.859375
 40
0.86328125
 40
0.8671875
 40
0.869140625
 40
0.87109375
 40
0.8720703125
 40
0.873046875
 40
0.8740234375
 40
0.8745117188
 40
0.8747558594
 40
0.875
 40
0.8752441406
 40
0.8754882812
 40
0.8759765625
 40
0.876953125
 40
0.8779296875
 40
0.87890625
 40
0.880859375
 40
0.8828125
 40
0.88671875
 40
0.890625
 40
0.89453125
 40
0.8984375
 40
0.90625
 40
0.9140625
 40
0.91796875
 40
0.921875
 40
0.92578125
 40
0.9296875
 40
0.931640625
 40
0.93359375
 40
0.9345703125
 40
0.935546875
 40
0.9365234375
 40
0.9370117188
 40
0.9372558594
 40
0.9375
 40
0.9377441406
 40
0.9379882812
 40
0.9384765625
 40
0.939453125
 40
0.9404296875
 40
0.94140625
 40
0.943359375
 40
0.9453125
 40
0.94921875
 40
0.953125
 40
0.95703125
 40
0.9609375
 40
0.96875
 40
0.9765625
 40
0.984375
 40
1.0
 40
1.0
 40
1.0
 40
1.0
 10
10.4128444807
 20
8.8373645187
 30
0.0
 10
10.4159776676
 20
8.8374544431
 30
0.0
 10
10.420677448
 20
8.8375893297
 30
0.0
 10
10.4269438218
 20
8.8377691785
 30
0.0
 10
10.4316436022
 20
8.8379040652
 30
0.0
 10
10.4355600859
 20
8.8380164706
 30
0.0
 10
10.4386932727
 20
8.8381063953
 30
0.0
 10
10.4410431631
 20
8.8381738376
 30
0.0
 10
10.4433930526
 20
8.8382412847
 30
0.0
 10
10.4453512967
 20
8.8382974758
 30
0.0
 10
10.4469178855
 20
8.8383424617
 30
0.0
 10
10.4478970182
 20
8.8383705028
 30
0.0
 10
10.4486802908
 20
8.8383931076
 30
0.0
 10
10.4492678372
 20
8.8384095904
 30
0.0
 10
10.4497571666
 20
8.838424824
 30
0.0
 10
10.4501002713
 20
8.8384325478
 30
0.0
 10
10.4502954347
 20
8.8384415515
 30
0.0
 10
10.4504443327
 20
8.838435374
 30
0.0
 10
10.4505835768
 20
8.8384786224
 30
0.0
 10
10.4507726029
 20
8.8385190467
 30
0.0
 10
10.4511018298
 20
8.8385978217
 30
0.0
 10
10.451572974
 20
8.838706158
 30
0.0
 10
10.4521379961
 20
8.8388379591
 30
0.0
 10
10.4528914815
 20
8.8390130659
 30
0.0
 10
10.4538332962
 20
8.8392321645
 30
0.0
 10
10.4553402232
 20
8.8395826021
 30
0.0
 10
10.457223874
 20
8.8400206903
 30
0.0
 10
10.4594842583
 20
8.8405463785
 30
0.0
 10
10.4617446417
 20
8.8410720714
 30
0.0
 10
10.4647584866
 20
8.8417729936
 30
0.0
 10
10.4685257925
 20
8.842649147
 30
0.0
 10
10.4722930986
 20
8.8435253
 30
0.0
 10
10.4753069433
 20
8.8442262228
 30
0.0
 10
10.4775673273
 20
8.8447519138
 30
0.0
 10
10.4798277094
 20
8.8452776093
 30
0.0
 10
10.4817113669
 20
8.8457156748
 30
0.0
 10
10.4832182802
 20
8.8460661587
 30
0.0
 10
10.4841601298
 20
8.8462851393
 30
0.0
 10
10.4849135436
 20
8.8464604883
 30
0.0
 10
10.4854787844
 20
8.8465915497
 30
0.0
 10
10.4859492443
 20
8.8467022001
 30
0.0
 10
10.4862796928
 20
8.8467768441
 30
0.0
 10
10.4864667616
 20
8.8468238873
 30
0.0
 10
10.4866120181
 20
8.8468468045
 30
0.0
 10
10.4867383343
 20
8.8469169879
 30
0.0
 10
10.4869133624
 20
8.8469940788
 30
0.0
 10
10.4872165836
 20
8.8471366694
 30
0.0
 10
10.487651366
 20
8.8473363542
 30
0.0
 10
10.4881724161
 20
8.8475776951
 30
0.0
 10
10.48886739
 20
8.8478988824
 30
0.0
 10
10.4897360252
 20
8.8483005722
 30
0.0
 10
10.4911258874
 20
8.8489431609
 30
0.0
 10
10.4928631993
 20
8.8497464362
 30
0.0
 10
10.4949479805
 20
8.8507103497
 30
0.0
 10
10.4970327598
 20
8.8516742677
 30
0.0
 10
10.4998124662
 20
8.8529594902
 30
0.0
 10
10.503287099
 20
8.8545660188
 30
0.0
 10
10.5067617319
 20
8.8561725471
 30
0.0
 10
10.509541438
 20
8.8574577701
 30
0.0
 10
10.5116262182
 20
8.8584216863
 30
0.0
 10
10.5137109961
 20
8.8593856068
 30
0.0
 10
10.5154483182
 20
8.8601888602
 30
0.0
 10
10.5168381597
 20
8.8608314938
 30
0.0
 10
10.5177068475
 20
8.8612330694
 30
0.0
 10
10.5184017133
 20
8.861554491
 30
0.0
 10
10.5189230939
 20
8.8617951161
 30
0.0
 10
10.519356842
 20
8.8619970402
 30
0.0
 10
10.5196619096
 20
8.8621356335
 30
0.0
 10
10.5198339793
 20
8.8622191291
 30
0.0
 10
10.5199693831
 20
8.862269639
 30
0.0
 10
10.5200805081
 20
8.8623664466
 30
0.0
 10
10.5202371435
 20
8.8624793741
 30
0.0
 10
10.5205073097
 20
8.8626845216
 30
0.0
 10
10.5208953243
 20
8.8629736556
 30
0.0
 10
10.5213600588
 20
8.8633223002
 30
0.0
 10
10.5219800132
 20
8.8637865716
 30
0.0
 10
10.5227548506
 20
8.8643671122
 30
0.0
 10
10.5239946495
 20
8.8652958646
 30
0.0
 10
10.5255443779
 20
8.8664568437
 30
0.0
 10
10.5274040607
 20
8.8678500021
 30
0.0
 10
10.5292637411
 20
8.8692431649
 30
0.0
 10
10.5317433158
 20
8.8711007138
 30
0.0
 10
10.5348427839
 20
8.8734226504
 30
0.0
 10
10.5379422522
 20
8.8757445867
 30
0.0
 10
10.5404218265
 20
8.8776021361
 30
0.0
 10
10.5422815082
 20
8.8789952973
 30
0.0
 10
10.5441411862
 20
8.8803884618
 30
0.0
 10
10.5456909294
 20
8.8815494218
 30
0.0
 10
10.546930698
 20
8.8824782133
 30
0.0
 10
10.5477056126
 20
8.8830586543
 30
0.0
 10
10.5483254087
 20
8.88352313
 30
0.0
 10
10.5487906268
 20
8.8838711504
 30
0.0
 10
10.5491771285
 20
8.8841622377
 30
0.0
 10
10.5494499954
 20
8.8843638982
 30
0.0
 10
10.5496023036
 20
8.8844824127
 30
0.0
 10
10.5497267204
 20
8.884562059
 30
0.0
 10
10.5498122023
 20
8.8846770235
 30
0.0
 10
10.5499397592
 20
8.8848179902
 30
0.0
 10
10.5501566562
 20
8.8850704216
 30
0.0
 10
10.5504698171
 20
8.8854280371
 30
0.0
 10
10.5508441942
 20
8.8858584602
 30
0.0
 10
10.5513438582
 20
8.886431909
 30
0.0
 10
10.5519682689
 20
8.8871488737
 30
0.0
 10
10.5529674207
 20
8.8882959312
 30
0.0
 10
10.554216328
 20
8.8897297826
 30
0.0
 10
10.5557150306
 20
8.8914503916
 30
0.0
 10
10.5572137296
 20
8.893171004
 30
0.0
 10
10.5592119961
 20
8.8954651527
 30
0.0
 10
10.5617098288
 20
8.898332839
 30
0.0
 10
10.5642076618
 20
8.901200525
 30
0.0
 10
10.5662059277
 20
8.9034946742
 30
0.0
 10
10.5677046283
 20
8.9052152853
 30
0.0
 10
10.5692033249
 20
8.9069358993
 30
0.0
 10
10.570452251
 20
8.9083697352
 30
0.0
 10
10.5714513643
 20
8.9095168243
 30
0.0
 10
10.5720758729
 20
8.9102337086
 30
0.0
 10
10.5725753361
 20
8.9108073222
 30
0.0
 10
10.5729503269
 20
8.9112372417
 30
0.0
 10
10.5732615676
 20
8.9115964328
 30
0.0
 10
10.5734818925
 20
8.9118460517
 30
0.0
 10
10.5736039568
 20
8.9119915248
 30
0.0
 10
10.5737063102
 20
8.9120926469
 30
0.0
 10
10.573767361
 20
8.9122242829
 30
0.0
 10
10.573863169
 20
8.912389154
 30
0.0
 10
10.5740241205
 20
8.9126826375
 30
0.0
 10
10.5742575605
 20
8.913099307
 30
0.0
 10
10.5745361865
 20
8.9136004202
 30
0.0
 10
10.5749082124
 20
8.9142681834
 30
0.0
 10
10.5753730651
 20
8.9151030201
 30
0.0
 10
10.57611693
 20
8.9164386848
 30
0.0
 10
10.5770467265
 20
8.918108291
 30
0.0
 10
10.5781624971
 20
8.9201118076
 30
0.0
 10
10.5792782638
 20
8.9221153271
 30
0.0
 10
10.5807659541
 20
8.9247866854
 30
0.0
 10
10.5826255665
 20
8.9281258837
 30
0.0
 10
10.5844851792
 20
8.9314650817
 30
0.0
 10
10.5859728689
 20
8.9341364404
 30
0.0
 10
10.5870886374
 20
8.9361399588
 30
0.0
 10
10.5882044014
 20
8.9381434794
 30
0.0
 10
10.5891342185
 20
8.9398130732
 30
0.0
 10
10.5898780415
 20
8.9411487632
 30
0.0
 10
10.5903430006
 20
8.9419835355
 30
0.0
 10
10.5907148082
 20
8.942651431
 30
0.0
 10
10.5909941011
 20
8.9431521402
 30
0.0
 10
10.5912254545
 20
8.9435700733
 30
0.0
 10
10.591390131
 20
8.9438613011
 30
0.0
 10
10.5914799705
 20
8.9440297864
 30
0.0
 10
10.5915593544
 20
8.9441503209
 30
0.0
 10
10.591592852
 20
8.9442931383
 30
0.0
 10
10.5916535211
 20
8.9444757891
 30
0.0
 10
10.5917522347
 20
8.9447990491
 30
0.0
 10
10.5918971529
 20
8.945258956
 30
0.0
 10
10.5920693859
 20
8.9458116546
 30
0.0
 10
10.5922996128
 20
8.946548303
 30
0.0
 10
10.5925871969
 20
8.9474692105
 30
0.0
 10
10.593047443
 20
8.9489426083
 30
0.0
 10
10.5936227123
 20
8.9507843741
 30
0.0
 10
10.5943130518
 20
8.952994485
 30
0.0
 10
10.595003387
 20
8.9552045982
 30
0.0
 10
10.5959238354
 20
8.9581514149
 30
0.0
 10
10.5970743954
 20
8.9618349361
 30
0.0
 10
10.5982249558
 20
8.9655184571
 30
0.0
 10
10.5991454036
 20
8.9684652741
 30
0.0
 10
10.5998357407
 20
8.9706753864
 30
0.0
 10
10.6005260731
 20
8.9728855004
 30
0.0
 10
10.6011013646
 20
8.9747272568
 30
0.0
 10
10.6015615653
 20
8.9762006738
 30
0.0
 10
10.6018492648
 20
8.9771215324
 30
0.0
 10
10.6020792549
 20
8.9778582811
 30
0.0
 10
10.6022522115
 20
8.9784106734
 30
0.0
 10
10.6023948657
 20
8.9788715385
 30
0.0
 10
10.6024976209
 20
8.979193088
 30
0.0
 10
10.6025518143
 20
8.9793784796
 30
0.0
 10
10.6026052034
 20
8.9795128778
 30
0.0
 10
10.602609878
 20
8.9796650335
 30
0.0
 10
10.602633103
 20
8.9798617137
 30
0.0
 10
10.6026658298
 20
8.98020879
 30
0.0
 10
10.6027167214
 20
8.9807031045
 30
0.0
 10
10.6027760197
 20
8.9812969277
 30
0.0
 10
10.6028557029
 20
8.9820884664
 30
0.0
 10
10.602955095
 20
8.983077967
 30
0.0
 10
10.6031142408
 20
8.9846611248
 30
0.0
 10
10.6033131325
 20
8.9866400869
 30
0.0
 10
10.6035518198
 20
8.9890148351
 30
0.0
 10
10.6037905026
 20
8.9913895849
 30
0.0
 10
10.6041087478
 20
8.9945559175
 30
0.0
 10
10.6045065538
 20
8.9985138334
 30
0.0
 10
10.6049043602
 20
9.0024717492
 30
0.0
 10
10.6052226047
 20
9.0056380818
 30
0.0
 10
10.6054612895
 20
9.0080128314
 30
0.0
 10
10.6056999693
 20
9.0103875808
 30
0.0
 10
10.6058988843
 20
9.0123665389
 30
0.0
 10
10.6060579825
 20
9.0139497048
 30
0.0
 10
10.6061574958
 20
9.0149391849
 30
0.0
 10
10.6062369303
 20
9.0157307657
 30
0.0
 10
10.6062969883
 20
9.0163244604
 30
0.0
 10
10.6063455032
 20
9.016819177
 30
0.0
 10
10.6063824728
 20
9.0171655355
 30
0.0
 10
10.6063988997
 20
9.0173633657
 30
0.0
 10
10.606424456
 20
9.017511989
 30
0.0
 10
10.6063994169
 20
9.0176596544
 30
0.0
 10
10.6063836796
 20
9.0178568757
 30
0.0
 10
10.6063479167
 20
9.0182018574
 30
0.0
 10
10.6063011257
 20
9.0186947697
 30
0.0
 10
10.6062431365
 20
9.0192862296
 30
0.0
 10
10.6061664603
 20
9.0200748551
 30
0.0
 10
10.606070395
 20
9.0210606327
 30
0.0
 10
10.6059168134
 20
9.0226378792
 30
0.0
 10
10.6057247942
 20
9.0246094366
 30
0.0
 10
10.6054943893
 20
9.0269753057
 30
0.0
 10
10.6052639795
 20
9.0293411748
 30
0.0
 10
10.6049567682
 20
9.0324956669
 30
0.0
 10
10.6045727534
 20
9.0364387821
 30
0.0
 10
10.604188739
 20
9.0403818972
 30
0.0
 10
10.603881527
 20
9.0435363893
 30
0.0
 10
10.6036511193
 20
9.0459022585
 30
0.0
 10
10.6034207068
 20
9.0482681271
 30
0.0
 10
10.603228711
 20
9.0502396862
 30
0.0
 10
10.6030750818
 20
9.0518169292
 30
0.0
 10
10.6029791376
 20
9.0528027157
 30
0.0
 10
10.6029022126
 20
9.053591323
 30
0.0
 10
10.6028449834
 20
9.0541828382
 30
0.0
 10
10.6027958147
 20
9.0546755775
 30
0.0
 10
10.6027642965
 20
9.0550208681
 30
0.0
 10
10.6027417582
 20
9.0552175945
 30
0.0
 10
10.6027376096
 20
9.0553667802
 30
0.0
 10
10.6026847045
 20
9.0555096933
 30
0.0
 10
10.6026311712
 20
9.055702432
 30
0.0
 10
10.6025295642
 20
9.0560387052
 30
0.0
 10
10.602388554
 20
9.0565196286
 30
0.0
 10
10.6022175685
 20
9.0570965086
 30
0.0
 10
10.6019902073
 20
9.0578657615
 30
0.0
 10
10.6017057936
 20
9.0588273004
 30
0.0
 10
10.6012508503
 20
9.0603657778
 30
0.0
 10
10.6006821304
 20
9.0622888694
 30
0.0
 10
10.5999996841
 20
9.0645965816
 30
0.0
 10
10.5993172331
 20
9.0669042931
 30
0.0
 10
10.5984073
 20
9.069981242
 30
0.0
 10
10.597269883
 20
9.0738274281
 30
0.0
 10
10.5961324665
 20
9.0776736143
 30
0.0
 10
10.5952225328
 20
9.0807505631
 30
0.0
 10
10.5945400837
 20
9.0830582751
 30
0.0
 10
10.5938576302
 20
9.0853659856
 30
0.0
 10
10.5932889326
 20
9.0872890823
 30
0.0
 10
10.5928339439
 20
9.0888275492
 30
0.0
 10
10.5925496457
 20
9.089789115
 30
0.0
 10
10.5923220473
 20
9.0905583128
 30
0.0
 10
10.5921517863
 20
9.0911353612
 30
0.0
 10
10.5920085095
 20
9.0916157574
 30
0.0
 10
10.5919109488
 20
9.0919529718
 30
0.0
 10
10.5918509323
 20
9.0921442027
 30
0.0
 10
10.5918179416
 20
9.0922917471
 30
0.0
 10
10.5917389981
 20
9.0924235381
 30
0.0
 10
10.591649769
 20
9.0926047543
 30
0.0
 10
10.5914861499
 20
9.0929193225
 30
0.0
 10
10.5912563128
 20
9.0933700441
 30
0.0
 10
10.590978837
 20
9.0939103372
 30
0.0
 10
10.5906094531
 20
9.0946309281
 30
0.0
 10
10.5901475233
 20
9.0955315981
 30
0.0
 10
10.5894085473
 20
9.0969727085
 30
0.0
 10
10.5884847889
 20
9.0987740833
 30
0.0
 10
10.5873762954
 20
9.1009357387
 30
0.0
 10
10.5862677974
 20
9.1030973926
 30
0.0
 10
10.5847898017
 20
9.1059795984
 30
0.0
 10
10.5829423064
 20
9.1095823554
 30
0.0
 10
10.5810948116
 20
9.1131851125
 30
0.0
 10
10.5796168152
 20
9.116067318
 30
0.0
 10
10.5785083191
 20
9.1182289727
 30
0.0
 10
10.5773998187
 20
9.1203906253
 30
0.0
 10
10.5764760816
 20
9.1221920088
 30
0.0
 10
10.5757370622
 20
9.1236331015
 30
0.0
 10
10.5752752429
 20
9.1245338166
 30
0.0
 10
10.5749056322
 20
9.125254315
 30
0.0
 10
10.5746288492
 20
9.1257948906
 30
0.0
 10
10.5743968446
 20
9.1262447282
 30
0.0
 10
10.5742370948
 20
9.1265608746
 30
0.0
 10
10.5741416661
 20
9.1267395622
 30
0.0
 10
10.5740817659
 20
9.1268791201
 30
0.0
 10
10.5739772518
 20
9.1269974932
 30
0.0
 10
10.5738534615
 20
9.1271627135
 30
0.0
 10
10.573629578
 20
9.127448406
 30
0.0
 10
10.5733135351
 20
9.1278583382
 30
0.0
 10
10.572932661
 20
9.1283494865
 30
0.0
 10
10.5724253957
 20
9.1290046199
 30
0.0
 10
10.5717911199
 20
9.1298234445
 30
0.0
 10
10.5707763872
 20
9.1311336153
 30
0.0
 10
10.569507934
 20
9.1327713112
 30
0.0
 10
10.5679858062
 20
9.1347365539
 30
0.0
 10
10.5664636741
 20
9.1367017946
 30
0.0
 10
10.5644341662
 20
9.1393221161
 30
0.0
 10
10.5618972807
 20
9.1425975178
 30
0.0
 10
10.5593603955
 20
9.1458729197
 30
0.0
 10
10.557330887
 20
9.1484932409
 30
0.0
 10
10.5558087565
 20
9.1504584827
 30
0.0
 10
10.5542866228
 20
9.152423721
 30
0.0
 10
10.5530181879
 20
9.1540614305
 30
0.0
 10
10.5520034181
 20
9.1553715736
 30
0.0
 10
10.5513692366
 20
9.1561904688
 30
0.0
 10
10.5508617778
 20
9.1568454574
 30
0.0
 10
10.5504814945
 20
9.1573370481
 30
0.0
 10
10.5501636032
 20
9.1577455957
 30
0.0
 10
10.5499430193
 20
9.1580337601
 30
0.0
 10
10.5498139422
 20
9.1581950198
 30
0.0
 10
10.5497256676
 20
9.1583255585
 30
0.0
 10
10.5496047749
 20
9.1584194244
 30
0.0
 10
10.5494549621
 20
9.1585573709
 30
0.0
 10
10.5491874888
 20
9.1587928171
 30
0.0
 10
10.5488081555
 20
9.1591322849
 30
0.0
 10
10.5483517693
 20
9.1595383125
 30
0.0
 10
10.5477436687
 20
9.1600801485
 30
0.0
 10
10.546983401
 20
9.1607572839
 30
0.0
 10
10.5457670521
 20
9.1618407898
 30
0.0
 10
10.5442465887
 20
9.1631951416
 30
0.0
 10
10.5424220442
 20
9.1648203768
 30
0.0
 10
10.5405974967
 20
9.1664456085
 30
0.0
 10
10.5381647678
 20
9.1686125854
 30
0.0
 10
10.5351238562
 20
9.171321306
 30
0.0
 10
10.5320829448
 20
9.1740300269
 30
0.0
 10
10.5296502155
 20
9.1761970032
 30
0.0
 10
10.5278256692
 20
9.1778222365
 30
0.0
 10
10.5260011202
 20
9.179447466
 30
0.0
 10
10.524480671
 20
9.1808018356
 30
0.0
 10
10.5232642931
 20
9.181885305
 30
0.0
 10
10.522504099
 20
9.1825625333
 30
0.0
 10
10.5218958475
 20
9.1831041788
 30
0.0
 10
10.5214399223
 20
9.1835107882
 30
0.0
 10
10.5210591466
 20
9.1838484357
 30
0.0
 10
10.5207942481
 20
9.1840871314
 30
0.0
 10
10.5206403098
 20
9.1842198714
 30
0.0
 10
10.5205320895
 20
9.1843297298
 30
0.0
 10
10.5203962196
 20
9.1844002033
 30
0.0
 10
10.5202247041
 20
9.1845079059
 30
0.0
 10
10.5199200586
 20
9.1846899847
 30
0.0
 10
10.5194872
 20
9.1849534435
 30
0.0
 10
10.5189667641
 20
9.1852681618
 30
0.0
 10
10.5182732008
 20
9.1856882865
 30
0.0
 10
10.5174061264
 20
9.1862132711
 30
0.0
 10
10.5160188745
 20
9.1870533421
 30
0.0
 10
10.5142847867
 20
9.1881033981
 30
0.0
 10
10.5122038912
 20
9.1893634793
 30
0.0
 10
10.510122993
 20
9.1906235568
 30
0.0
 10
10.507348463
 20
9.1923036614
 30
0.0
 10
10.5038803002
 20
9.1944037917
 30
0.0
 10
10.5004121375
 20
9.1965039223
 30
0.0
 10
10.4976376072
 20
9.1981840263
 30
0.0
 10
10.49555671
 20
9.1994441055
 30
0.0
 10
10.4934758109
 20
9.2007041804
 30
0.0
 10
10.4917417341
 20
9.2017542561
 30
0.0
 10
10.4903544598
 20
9.2025942869
 30
0.0
 10
10.4894874424
 20
9.2031193738
 30
0.0
 10
10.4887937621
 20
9.2035392884
 30
0.0
 10
10.4882736838
 20
9.2038546488
 30
0.0
 10
10.4878397063
 20
9.2041160986
 30
0.0
 10
10.4875370581
 20
9.2043017639
 30
0.0
 10
10.4873623425
 20
9.20440372
 30
0.0
 10
10.4872363026
 20
9.2044918448
 30
0.0
 10
10.4870911621
 20
9.2045354079
 30
0.0
 10
10.486904304
 20
9.2046090356
 30
0.0
 10
10.4865741981
 20
9.2047306421
 30
0.0
 10
10.4861042411
 20
9.204908152
 30
0.0
 10
10.4855395981
 20
9.2051195431
 30
0.0
 10
10.4847869834
 20
9.205401964
 30
0.0
 10
10.4838461319
 20
9.2057547964
 30
0.0
 10
10.482340816
 20
9.2063194365
 30
0.0
 10
10.4804591551
 20
9.2070251994
 30
0.0
 10
10.478201169
 20
9.2078721308
 30
0.0
 10
10.4759431809
 20
9.208719058
 30
0.0
 10
10.4729325309
 20
9.2098482957
 30
0.0
 10
10.4691692181
 20
9.2112598423
 30
0.0
 10
10.4654059054
 20
9.2126713893
 30
0.0
 10
10.4623952551
 20
9.2138006264
 30
0.0
 10
10.4601372678
 20
9.2146475555
 30
0.0
 10
10.4578792791
 20
9.2154944799
 30
0.0
 10
10.4559976261
 20
9.2162002645
 30
0.0
 10
10.4544922941
 20
9.2167648604
 30
0.0
 10
10.4535514835
 20
9.2171178053
 30
0.0
 10
10.4527987849
 20
9.2173999952
 30
0.0
 10
10.452234398
 20
9.2176120922
 30
0.0
 10
10.4517636398
 20
9.2177873935
 30
0.0
 10
10.4514349642
 20
9.2179129425
 30
0.0
 10
10.4512458143
 20
9.2179802534
 30
0.0
 10
10.4511077136
 20
9.2180432199
 30
0.0
 10
10.4509552336
 20
9.218058469
 30
0.0
 10
10.4507569426
 20
9.2180954455
 30
0.0
 10
10.4504075966
 20
9.2181523996
 30
0.0
 10
10.4499097525
 20
9.2182378168
 30
0.0
 10
10.4493118167
 20
9.2183385821
 30
0.0
 10
10.4485147516
 20
9.2184735419
 30
0.0
 10
10.4475183577
 20
9.2186420342
 30
0.0
 10
10.4459241623
 20
9.2189117378
 30
0.0
 10
10.4439314062
 20
9.2192488276
 30
0.0
 10
10.4415401039
 20
9.2196533523
 30
0.0
 10
10.4391488003
 20
9.2200578725
 30
0.0
 10
10.435960396
 20
9.2205972344
 30
0.0
 10
10.4319748904
 20
9.2212714361
 30
0.0
 10
10.4271922838
 20
9.2220804785
 30
0.0
 10
10.4208154749
 20
9.2231592015
 30
0.0
 10
10.4160328682
 20
9.2239682438
 30
0.0
 10
10.4128444638
 20
9.2245076053
 30
0.0
  0
SPLINE
  5
398
100
AcDbEntity
  8
0
100
AcDbSpline
 62
4
  6
CONTINUOUS
 70
0
 71
3
 72
403
 73
399
 74
0
 42
0.0000001
 43
0.0000001
 44
0.0000000001
 40
0.0
 40
0.0
 40
0.0
 40
0.0
 40
0.015625
 40
0.0234375
 40
0.03125
 40
0.0390625
 40
0.04296875
 40
0.046875
 40
0.05078125
 40
0.0546875
 40
0.056640625
 40
0.05859375
 40
0.0595703125
 40
0.060546875
 40
0.0615234375
 40
0.0620117188
 40
0.0622558594
 40
0.0625
 40
0.0627441406
 40
0.0629882812
 40
0.0634765625
 40
0.064453125
 40
0.0654296875
 40
0.06640625
 40
0.068359375
 40
0.0703125
 40
0.07421875
 40
0.078125
 40
0.08203125
 40
0.0859375
 40
0.09375
 40
0.1015625
 40
0.10546875
 40
0.109375
 40
0.11328125
 40
0.1171875
 40
0.119140625
 40
0.12109375
 40
0.1220703125
 40
0.123046875
 40
0.1240234375
 40
0.1245117188
 40
0.1247558594
 40
0.125
 40
0.1252441406
 40
0.1254882812
 40
0.1259765625
 40
0.126953125
 40
0.1279296875
 40
0.12890625
 40
0.130859375
 40
0.1328125
 40
0.13671875
 40
0.140625
 40
0.14453125
 40
0.1484375
 40
0.15625
 40
0.1640625
 40
0.16796875
 40
0.171875
 40
0.17578125
 40
0.1796875
 40
0.181640625
 40
0.18359375
 40
0.1845703125
 40
0.185546875
 40
0.1865234375
 40
0.1870117188
 40
0.1872558594
 40
0.1875
 40
0.1877441406
 40
0.1879882812
 40
0.1884765625
 40
0.189453125
 40
0.1904296875
 40
0.19140625
 40
0.193359375
 40
0.1953125
 40
0.19921875
 40
0.203125
 40
0.20703125
 40
0.2109375
 40
0.21875
 40
0.2265625
 40
0.23046875
 40
0.234375
 40
0.23828125
 40
0.2421875
 40
0.244140625
 40
0.24609375
 40
0.2470703125
 40
0.248046875
 40
0.2490234375
 40
0.2495117188
 40
0.2497558594
 40
0.25
 40
0.2502441406
 40
0.2504882812
 40
0.2509765625
 40
0.251953125
 40
0.2529296875
 40
0.25390625
 40
0.255859375
 40
0.2578125
 40
0.26171875
 40
0.265625
 40
0.26953125
 40
0.2734375
 40
0.28125
 40
0.2890625
 40
0.29296875
 40
0.296875
 40
0.30078125
 40
0.3046875
 40
0.306640625
 40
0.30859375
 40
0.3095703125
 40
0.310546875
 40
0.3115234375
 40
0.3120117188
 40
0.3122558594
 40
0.3125
 40
0.3127441406
 40
0.3129882812
 40
0.3134765625
 40
0.314453125
 40
0.3154296875
 40
0.31640625
 40
0.318359375
 40
0.3203125
 40
0.32421875
 40
0.328125
 40
0.33203125
 40
0.3359375
 40
0.34375
 40
0.3515625
 40
0.35546875
 40
0.359375
 40
0.36328125
 40
0.3671875
 40
0.369140625
 40
0.37109375
 40
0.3720703125
 40
0.373046875
 40
0.3740234375
 40
0.3745117188
 40
0.3747558594
 40
0.375
 40
0.3752441406
 40
0.3754882812
 40
0.3759765625
 40
0.376953125
 40
0.3779296875
 40
0.37890625
 40
0.380859375
 40
0.3828125
 40
0.38671875
 40
0.390625
 40
0.39453125
 40
0.3984375
 40
0.40625
 40
0.4140625
 40
0.41796875
 40
0.421875
 40
0.42578125
 40
0.4296875
 40
0.431640625
 40
0.43359375
 40
0.4345703125
 40
0.435546875
 40
0.4365234375
 40
0.4370117188
 40
0.4372558594
 40
0.4375
 40
0.4377441406
 40
0.4379882812
 40
0.4384765625
 40
0.439453125
 40
0.4404296875
 40
0.44140625
 40
0.443359375
 40
0.4453125
 40
0.44921875
 40
0.453125
 40
0.45703125
 40
0.4609375
 40
0.46875
 40
0.4765625
 40
0.48046875
 40
0.484375
 40
0.48828125
 40
0.4921875
 40
0.494140625
 40
0.49609375
 40
0.4970703125
 40
0.498046875
 40
0.4990234375
 40
0.4995117188
 40
0.4997558594
 40
0.5
 40
0.5002441406
 40
0.5004882812
 40
0.5009765625
 40
0.501953125
 40
0.5029296875
 40
0.50390625
 40
0.505859375
 40
0.5078125
 40
0.51171875
 40
0.515625
 40
0.51953125
 40
0.5234375
 40
0.53125
 40
0.5390625
 40
0.54296875
 40
0.546875
 40
0.55078125
 40
0.5546875
 40
0.556640625
 40
0.55859375
 40
0.5595703125
 40
0.560546875
 40
0.5615234375
 40
0.5620117188
 40
0.5622558594
 40
0.5625
 40
0.5627441406
 40
0.5629882812
 40
0.5634765625
 40
0.564453125
 40
0.5654296875
 40
0.56640625
 40
0.568359375
 40
0.5703125
 40
0.57421875
 40
0.578125
 40
0.58203125
 40
0.5859375
 40
0.59375
 40
0.6015625
 40
0.60546875
 40
0.609375
 40
0.61328125
 40
0.6171875
 40
0.619140625
 40
0.62109375
 40
0.6220703125
 40
0.623046875
 40
0.6240234375
 40
0.6245117188
 40
0.6247558594
 40
0.625
 40
0.6252441406
 40
0.6254882812
 40
0.6259765625
 40
0.626953125
 40
0.6279296875
 40
0.62890625
 40
0.630859375
 40
0.6328125
 40
0.63671875
 40
0.640625
 40
0.64453125
 40
0.6484375
 40
0.65625
 40
0.6640625
 40
0.66796875
 40
0.671875
 40
0.67578125
 40
0.6796875
 40
0.681640625
 40
0.68359375
 40
0.6845703125
 40
0.685546875
 40
0.6865234375
 40
0.6870117188
 40
0.6872558594
 40
0.6875
 40
0.6877441406
 40
0.6879882812
 40
0.6884765625
 40
0.689453125
 40
0.6904296875
 40
0.69140625
 40
0.693359375
 40
0.6953125
 40
0.69921875
 40
0.703125
 40
0.70703125
 40
0.7109375
 40
0.71875
 40
0.7265625
 40
0.73046875
 40
0.734375
 40
0.73828125
 40
0.7421875
 40
0.744140625
 40
0.74609375
 40
0.7470703125
 40
0.748046875
 40
0.7490234375
 40
0.7495117188
 40
0.7497558594
 40
0.75
 40
0.7502441406
 40
0.7504882812
 40
0.7509765625
 40
0.751953125
 40
0.7529296875
 40
0.75390625
 40
0.755859375
 40
0.7578125
 40
0.76171875
 40
0.765625
 40
0.76953125
 40
0.7734375
 40
0.78125
 40
0.7890625
 40
0.79296875
 40
0.796875
 40
0.80078125
 40
0.8046875
 40
0.806640625
 40
0.80859375
 40
0.8095703125
 40
0.810546875
 40
0.8115234375
 40
0.8120117188
 40
0.8122558594
 40
0.8125
 40
0.8127441406
 40
0.8129882812
 40
0.8134765625
 40
0.814453125
 40
0.8154296875
 40
0.81640625
 40
0.818359375
 40
0.8203125
 40
0.82421875
 40
0.828125
 40
0.83203125
 40
0.8359375
 40
0.84375
 40
0.8515625
 40
0.85546875
 40
0.859375
 40
0.86328125
 40
0.8671875
 40
0.869140625
 40
0.87109375
 40
0.8720703125
 40
0.873046875
 40
0.8740234375
 40
0.8745117188
 40
0.8747558594
 40
0.875
 40
0.8752441406
 40
0.8754882812
 40
0.8759765625
 40
0.876953125
 40
0.8779296875
 40
0.87890625
 40
0.880859375
 40
0.8828125
 40
0.88671875
 40
0.890625
 40
0.89453125
 40
0.8984375
 40
0.90625
 40
0.9140625
 40
0.91796875
 40
0.921875
 40
0.92578125
 40
0.9296875
 40
0.931640625
 40
0.93359375
 40
0.9345703125
 40
0.935546875
 40
0.9365234375
 40
0.9370117188
 40
0.9372558594
 40
0.9375
 40
0.9377441406
 40
0.9379882812
 40
0.9384765625
 40
0.939453125
 40
0.9404296875
 40
0.94140625
 40
0.943359375
 40
0.9453125
 40
0.94921875
 40
0.953125
 40
0.95703125
 40
0.9609375
 40
0.96875
 40
0.9765625
 40
0.984375
 40
1.0
 40
1.0
 40
1.0
 40
1.0
 10
10.4128444807
 20
9.2245076042
 30
0.0
 10
10.4097112938
 20
9.2244176797
 30
0.0
 10
10.4050115134
 20
9.2242827931
 30
0.0
 10
10.3987451396
 20
9.2241029443
 30
0.0
 10
10.3940453592
 20
9.2239680576
 30
0.0
 10
10.3901288755
 20
9.2238556523
 30
0.0
 10
10.3869956887
 20
9.2237657275
 30
0.0
 10
10.3846457983
 20
9.2236982852
 30
0.0
 10
10.3822959088
 20
9.2236308382
 30
0.0
 10
10.3803376647
 20
9.223574647
 30
0.0
 10
10.3787710759
 20
9.2235296611
 30
0.0
 10
10.3777919432
 20
9.2235016201
 30
0.0
 10
10.3770086707
 20
9.2234790152
 30
0.0
 10
10.3764211243
 20
9.2234625324
 30
0.0
 10
10.3759317949
 20
9.2234472989
 30
0.0
 10
10.3755886901
 20
9.223439575
 30
0.0
 10
10.3753935268
 20
9.2234305714
 30
0.0
 10
10.3752446287
 20
9.2234367489
 30
0.0
 10
10.3751053847
 20
9.2233935004
 30
0.0
 10
10.3749163585
 20
9.2233530762
 30
0.0
 10
10.3745871317
 20
9.2232743011
 30
0.0
 10
10.3741159874
 20
9.2231659648
 30
0.0
 10
10.3735509653
 20
9.2230341638
 30
0.0
 10
10.37279748
 20
9.2228590569
 30
0.0
 10
10.3718556652
 20
9.2226399583
 30
0.0
 10
10.3703487382
 20
9.2222895207
 30
0.0
 10
10.3684650875
 20
9.2218514325
 30
0.0
 10
10.3662047031
 20
9.2213257444
 30
0.0
 10
10.3639443197
 20
9.2208000514
 30
0.0
 10
10.3609304749
 20
9.2200991292
 30
0.0
 10
10.3571631689
 20
9.2192229758
 30
0.0
 10
10.3533958628
 20
9.2183468229
 30
0.0
 10
10.3503820182
 20
9.2176459
 30
0.0
 10
10.3481216342
 20
9.217120209
 30
0.0
 10
10.345861252
 20
9.2165945136
 30
0.0
 10
10.3439775946
 20
9.2161564481
 30
0.0
 10
10.3424706812
 20
9.2158059642
 30
0.0
 10
10.3415288316
 20
9.2155869835
 30
0.0
 10
10.3407754179
 20
9.2154116345
 30
0.0
 10
10.3402101771
 20
9.2152805731
 30
0.0
 10
10.3397397171
 20
9.2151699228
 30
0.0
 10
10.3394092686
 20
9.2150952787
 30
0.0
 10
10.3392221999
 20
9.2150482355
 30
0.0
 10
10.3390769434
 20
9.2150253184
 30
0.0
 10
10.3389506272
 20
9.214955135
 30
0.0
 10
10.338775599
 20
9.2148780441
 30
0.0
 10
10.3384723778
 20
9.2147354535
 30
0.0
 10
10.3380375954
 20
9.2145357686
 30
0.0
 10
10.3375165454
 20
9.2142944278
 30
0.0
 10
10.3368215714
 20
9.2139732404
 30
0.0
 10
10.3359529363
 20
9.2135715507
 30
0.0
 10
10.3345630741
 20
9.212928962
 30
0.0
 10
10.3328257621
 20
9.2121256866
 30
0.0
 10
10.330740981
 20
9.2111617731
 30
0.0
 10
10.3286562016
 20
9.2101978551
 30
0.0
 10
10.3258764952
 20
9.2089126327
 30
0.0
 10
10.3224018625
 20
9.207306104
 30
0.0
 10
10.3189272295
 20
9.2056995758
 30
0.0
 10
10.3161475234
 20
9.2044143527
 30
0.0
 10
10.3140627432
 20
9.2034504366
 30
0.0
 10
10.3119779654
 20
9.202486516
 30
0.0
 10
10.3102406432
 20
9.2016832627
 30
0.0
 10
10.3088508017
 20
9.2010406291
 30
0.0
 10
10.3079821139
 20
9.2006390534
 30
0.0
 10
10.3072872481
 20
9.2003176318
 30
0.0
 10
10.3067658675
 20
9.2000770067
 30
0.0
 10
10.3063321194
 20
9.1998750826
 30
0.0
 10
10.3060270518
 20
9.1997364894
 30
0.0
 10
10.3058549821
 20
9.1996529937
 30
0.0
 10
10.3057195783
 20
9.1996024838
 30
0.0
 10
10.3056084533
 20
9.1995056763
 30
0.0
 10
10.3054518179
 20
9.1993927487
 30
0.0
 10
10.3051816517
 20
9.1991876013
 30
0.0
 10
10.3047936372
 20
9.1988984672
 30
0.0
 10
10.3043289027
 20
9.1985498226
 30
0.0
 10
10.3037089482
 20
9.1980855513
 30
0.0
 10
10.3029341108
 20
9.1975050107
 30
0.0
 10
10.3016943119
 20
9.1965762583
 30
0.0
 10
10.3001445835
 20
9.1954152792
 30
0.0
 10
10.2982849008
 20
9.1940221208
 30
0.0
 10
10.2964252203
 20
9.192628958
 30
0.0
 10
10.2939456456
 20
9.1907714091
 30
0.0
 10
10.2908461776
 20
9.1884494724
 30
0.0
 10
10.2877467092
 20
9.1861275361
 30
0.0
 10
10.2852671349
 20
9.1842699867
 30
0.0
 10
10.2834074532
 20
9.1828768256
 30
0.0
 10
10.2815477753
 20
9.181483661
 30
0.0
 10
10.279998032
 20
9.1803227011
 30
0.0
 10
10.2787582634
 20
9.1793939096
 30
0.0
 10
10.2779833489
 20
9.1788134685
 30
0.0
 10
10.2773635527
 20
9.1783489928
 30
0.0
 10
10.2768983347
 20
9.1780009725
 30
0.0
 10
10.2765118329
 20
9.1777098852
 30
0.0
 10
10.276238966
 20
9.1775082247
 30
0.0
 10
10.2760866579
 20
9.1773897102
 30
0.0
 10
10.2759622411
 20
9.1773100638
 30
0.0
 10
10.2758767591
 20
9.1771950993
 30
0.0
 10
10.2757492022
 20
9.1770541327
 30
0.0
 10
10.2755323053
 20
9.1768017012
 30
0.0
 10
10.2752191444
 20
9.1764440857
 30
0.0
 10
10.2748447673
 20
9.1760136626
 30
0.0
 10
10.2743451032
 20
9.1754402138
 30
0.0
 10
10.2737206925
 20
9.1747232492
 30
0.0
 10
10.2727215407
 20
9.1735761917
 30
0.0
 10
10.2714726334
 20
9.1721423403
 30
0.0
 10
10.2699739308
 20
9.1704217312
 30
0.0
 10
10.2684752319
 20
9.1687011188
 30
0.0
 10
10.2664769653
 20
9.1664069701
 30
0.0
 10
10.2639791327
 20
9.1635392838
 30
0.0
 10
10.2614812997
 20
9.1606715978
 30
0.0
 10
10.2594830337
 20
9.1583774487
 30
0.0
 10
10.2579843332
 20
9.1566568376
 30
0.0
 10
10.2564856366
 20
9.1549362236
 30
0.0
 10
10.2552367104
 20
9.1535023877
 30
0.0
 10
10.2542375971
 20
9.1523552986
 30
0.0
 10
10.2536130885
 20
9.1516384143
 30
0.0
 10
10.2531136254
 20
9.1510648006
 30
0.0
 10
10.2527386345
 20
9.1506348811
 30
0.0
 10
10.2524273939
 20
9.1502756901
 30
0.0
 10
10.2522070689
 20
9.1500260712
 30
0.0
 10
10.2520850046
 20
9.1498805981
 30
0.0
 10
10.2519826513
 20
9.149779476
 30
0.0
 10
10.2519216004
 20
9.1496478399
 30
0.0
 10
10.2518257925
 20
9.1494829688
 30
0.0
 10
10.2516648409
 20
9.1491894853
 30
0.0
 10
10.2514314009
 20
9.1487728158
 30
0.0
 10
10.251152775
 20
9.1482717027
 30
0.0
 10
10.250780749
 20
9.1476039395
 30
0.0
 10
10.2503158963
 20
9.1467691027
 30
0.0
 10
10.2495720315
 20
9.1454334381
 30
0.0
 10
10.2486422349
 20
9.1437638318
 30
0.0
 10
10.2475264643
 20
9.1417603152
 30
0.0
 10
10.2464106976
 20
9.1397567957
 30
0.0
 10
10.2449230073
 20
9.1370854374
 30
0.0
 10
10.2430633949
 20
9.1337462392
 30
0.0
 10
10.2412037822
 20
9.1304070411
 30
0.0
 10
10.2397160925
 20
9.1277356825
 30
0.0
 10
10.2386003241
 20
9.125732164
 30
0.0
 10
10.23748456
 20
9.1237286434
 30
0.0
 10
10.236554743
 20
9.1220590496
 30
0.0
 10
10.2358109199
 20
9.1207233597
 30
0.0
 10
10.2353459608
 20
9.1198885873
 30
0.0
 10
10.2349741532
 20
9.1192206919
 30
0.0
 10
10.2346948603
 20
9.1187199826
 30
0.0
 10
10.234463507
 20
9.1183020496
 30
0.0
 10
10.2342988304
 20
9.1180108217
 30
0.0
 10
10.2342089909
 20
9.1178423365
 30
0.0
 10
10.234129607
 20
9.1177218019
 30
0.0
 10
10.2340961094
 20
9.1175789845
 30
0.0
 10
10.2340354403
 20
9.1173963338
 30
0.0
 10
10.2339367267
 20
9.1170730737
 30
0.0
 10
10.2337918085
 20
9.1166131668
 30
0.0
 10
10.2336195755
 20
9.1160604682
 30
0.0
 10
10.2333893486
 20
9.1153238198
 30
0.0
 10
10.2331017645
 20
9.1144029123
 30
0.0
 10
10.2326415185
 20
9.1129295146
 30
0.0
 10
10.2320662492
 20
9.1110877488
 30
0.0
 10
10.2313759096
 20
9.1088776378
 30
0.0
 10
10.2306855744
 20
9.1066675247
 30
0.0
 10
10.229765126
 20
9.103720708
 30
0.0
 10
10.228614566
 20
9.1000371868
 30
0.0
 10
10.2274640056
 20
9.0963536657
 30
0.0
 10
10.2265435578
 20
9.0934068487
 30
0.0
 10
10.2258532208
 20
9.0911967364
 30
0.0
 10
10.2251628883
 20
9.0889866224
 30
0.0
 10
10.2245875968
 20
9.087144866
 30
0.0
 10
10.2241273961
 20
9.0856714491
 30
0.0
 10
10.2238396966
 20
9.0847505905
 30
0.0
 10
10.2236097066
 20
9.0840138418
 30
0.0
 10
10.2234367499
 20
9.0834614495
 30
0.0
 10
10.2232940958
 20
9.0830005843
 30
0.0
 10
10.2231913405
 20
9.0826790349
 30
0.0
 10
10.2231371472
 20
9.0824936433
 30
0.0
 10
10.2230837581
 20
9.0823592451
 30
0.0
 10
10.2230790834
 20
9.0822070894
 30
0.0
 10
10.2230558584
 20
9.0820104092
 30
0.0
 10
10.2230231317
 20
9.0816633329
 30
0.0
 10
10.22297224
 20
9.0811690184
 30
0.0
 10
10.2229129417
 20
9.0805751952
 30
0.0
 10
10.2228332585
 20
9.0797836565
 30
0.0
 10
10.2227338664
 20
9.0787941558
 30
0.0
 10
10.2225747206
 20
9.077210998
 30
0.0
 10
10.222375829
 20
9.0752320359
 30
0.0
 10
10.2221371416
 20
9.0728572878
 30
0.0
 10
10.2218984589
 20
9.0704825379
 30
0.0
 10
10.2215802136
 20
9.0673162054
 30
0.0
 10
10.2211824076
 20
9.0633582895
 30
0.0
 10
10.2207846013
 20
9.0594003737
 30
0.0
 10
10.2204663567
 20
9.056234041
 30
0.0
 10
10.220227672
 20
9.0538592915
 30
0.0
 10
10.2199889921
 20
9.0514845421
 30
0.0
 10
10.2197900771
 20
9.0495055839
 30
0.0
 10
10.2196309789
 20
9.047922418
 30
0.0
 10
10.2195314656
 20
9.0469329379
 30
0.0
 10
10.2194520311
 20
9.0461413572
 30
0.0
 10
10.2193919732
 20
9.0455476625
 30
0.0
 10
10.2193434583
 20
9.0450529459
 30
0.0
 10
10.2193064886
 20
9.0447065873
 30
0.0
 10
10.2192900618
 20
9.0445087571
 30
0.0
 10
10.2192645054
 20
9.0443601339
 30
0.0
 10
10.2192895446
 20
9.0442124685
 30
0.0
 10
10.2193052818
 20
9.0440152471
 30
0.0
 10
10.2193410447
 20
9.0436702655
 30
0.0
 10
10.2193878357
 20
9.0431773532
 30
0.0
 10
10.2194458249
 20
9.0425858932
 30
0.0
 10
10.2195225011
 20
9.0417972678
 30
0.0
 10
10.2196185665
 20
9.0408114902
 30
0.0
 10
10.2197721481
 20
9.0392342436
 30
0.0
 10
10.2199641672
 20
9.0372626863
 30
0.0
 10
10.2201945722
 20
9.0348968171
 30
0.0
 10
10.2204249819
 20
9.0325309481
 30
0.0
 10
10.2207321933
 20
9.0293764559
 30
0.0
 10
10.221116208
 20
9.0254333408
 30
0.0
 10
10.2215002224
 20
9.0214902256
 30
0.0
 10
10.2218074344
 20
9.0183357335
 30
0.0
 10
10.2220378422
 20
9.0159698643
 30
0.0
 10
10.2222682546
 20
9.0136039957
 30
0.0
 10
10.2224602504
 20
9.0116324367
 30
0.0
 10
10.2226138796
 20
9.0100551936
 30
0.0
 10
10.2227098238
 20
9.0090694072
 30
0.0
 10
10.2227867488
 20
9.0082807999
 30
0.0
 10
10.222843978
 20
9.0076892846
 30
0.0
 10
10.2228931467
 20
9.0071965453
 30
0.0
 10
10.222924665
 20
9.0068512548
 30
0.0
 10
10.2229472032
 20
9.0066545284
 30
0.0
 10
10.2229513519
 20
9.0065053426
 30
0.0
 10
10.2230042569
 20
9.0063624296
 30
0.0
 10
10.2230577902
 20
9.0061696909
 30
0.0
 10
10.2231593972
 20
9.0058334176
 30
0.0
 10
10.2233004074
 20
9.0053524942
 30
0.0
 10
10.2234713929
 20
9.0047756143
 30
0.0
 10
10.2236987542
 20
9.0040063614
 30
0.0
 10
10.2239831678
 20
9.0030448225
 30
0.0
 10
10.2244381112
 20
9.001506345
 30
0.0
 10
10.225006831
 20
8.9995832534
 30
0.0
 10
10.2256892773
 20
8.9972755413
 30
0.0
 10
10.2263717284
 20
8.9949678297
 30
0.0
 10
10.2272816614
 20
8.9918908808
 30
0.0
 10
10.2284190784
 20
8.9880446947
 30
0.0
 10
10.2295564949
 20
8.9841985085
 30
0.0
 10
10.2304664286
 20
8.9811215597
 30
0.0
 10
10.2311488777
 20
8.9788138478
 30
0.0
 10
10.2318313313
 20
8.9765061373
 30
0.0
 10
10.2324000288
 20
8.9745830405
 30
0.0
 10
10.2328550176
 20
8.9730445736
 30
0.0
 10
10.2331393157
 20
8.9720830079
 30
0.0
 10
10.2333669141
 20
8.9713138101
 30
0.0
 10
10.2335371751
 20
8.9707367617
 30
0.0
 10
10.233680452
 20
8.9702563654
 30
0.0
 10
10.2337780127
 20
8.9699191511
 30
0.0
 10
10.2338380291
 20
8.9697279202
 30
0.0
 10
10.2338710199
 20
8.9695803757
 30
0.0
 10
10.2339499633
 20
8.9694485848
 30
0.0
 10
10.2340391924
 20
8.9692673686
 30
0.0
 10
10.2342028115
 20
8.9689528004
 30
0.0
 10
10.2344326486
 20
8.9685020787
 30
0.0
 10
10.2347101244
 20
8.9679617856
 30
0.0
 10
10.2350795084
 20
8.9672411948
 30
0.0
 10
10.2355414382
 20
8.9663405247
 30
0.0
 10
10.2362804142
 20
8.9648994144
 30
0.0
 10
10.2372041725
 20
8.9630980395
 30
0.0
 10
10.2383126661
 20
8.9609363841
 30
0.0
 10
10.239421164
 20
8.9587747302
 30
0.0
 10
10.2408991598
 20
8.9558925244
 30
0.0
 10
10.242746655
 20
8.9522897675
 30
0.0
 10
10.2445941499
 20
8.9486870103
 30
0.0
 10
10.2460721462
 20
8.9458048048
 30
0.0
 10
10.2471806423
 20
8.9436431501
 30
0.0
 10
10.2482891427
 20
8.9414814975
 30
0.0
 10
10.2492128798
 20
8.939680114
 30
0.0
 10
10.2499518992
 20
8.9382390213
 30
0.0
 10
10.2504137185
 20
8.9373383062
 30
0.0
 10
10.2507833292
 20
8.9366178079
 30
0.0
 10
10.2510601122
 20
8.9360772323
 30
0.0
 10
10.2512921168
 20
8.9356273946
 30
0.0
 10
10.2514518666
 20
8.9353112483
 30
0.0
 10
10.2515472953
 20
8.9351325606
 30
0.0
 10
10.2516071955
 20
8.9349930027
 30
0.0
 10
10.2517117096
 20
8.9348746297
 30
0.0
 10
10.2518354999
 20
8.9347094094
 30
0.0
 10
10.2520593834
 20
8.9344237168
 30
0.0
 10
10.2523754264
 20
8.9340137846
 30
0.0
 10
10.2527563004
 20
8.9335226364
 30
0.0
 10
10.2532635658
 20
8.932867503
 30
0.0
 10
10.2538978415
 20
8.9320486784
 30
0.0
 10
10.2549125743
 20
8.9307385075
 30
0.0
 10
10.2561810274
 20
8.9291008116
 30
0.0
 10
10.2577031552
 20
8.9271355689
 30
0.0
 10
10.2592252873
 20
8.9251703283
 30
0.0
 10
10.2612547953
 20
8.9225500067
 30
0.0
 10
10.2637916808
 20
8.919274605
 30
0.0
 10
10.2663285659
 20
8.9159992031
 30
0.0
 10
10.2683580744
 20
8.9133788819
 30
0.0
 10
10.2698802049
 20
8.9114136401
 30
0.0
 10
10.2714023386
 20
8.9094484018
 30
0.0
 10
10.2726707736
 20
8.9078106923
 30
0.0
 10
10.2736855433
 20
8.9065005492
 30
0.0
 10
10.2743197249
 20
8.905681654
 30
0.0
 10
10.2748271836
 20
8.9050266655
 30
0.0
 10
10.2752074669
 20
8.9045350747
 30
0.0
 10
10.2755253582
 20
8.9041265271
 30
0.0
 10
10.2757459421
 20
8.9038383627
 30
0.0
 10
10.2758750192
 20
8.903677103
 30
0.0
 10
10.2759632939
 20
8.9035465643
 30
0.0
 10
10.2760841866
 20
8.9034526984
 30
0.0
 10
10.2762339993
 20
8.903314752
 30
0.0
 10
10.2765014726
 20
8.9030793057
 30
0.0
 10
10.2768808059
 20
8.9027398379
 30
0.0
 10
10.2773371922
 20
8.9023338103
 30
0.0
 10
10.2779452928
 20
8.9017919744
 30
0.0
 10
10.2787055604
 20
8.9011148389
 30
0.0
 10
10.2799219094
 20
8.900031333
 30
0.0
 10
10.2814423728
 20
8.8986769813
 30
0.0
 10
10.2832669172
 20
8.897051746
 30
0.0
 10
10.2850914647
 20
8.8954265143
 30
0.0
 10
10.2875241937
 20
8.8932595375
 30
0.0
 10
10.2905651053
 20
8.8905508169
 30
0.0
 10
10.2936060166
 20
8.887842096
 30
0.0
 10
10.2960387459
 20
8.8856751196
 30
0.0
 10
10.2978632923
 20
8.8840498864
 30
0.0
 10
10.2996878412
 20
8.8824246569
 30
0.0
 10
10.3012082905
 20
8.8810702872
 30
0.0
 10
10.3024246683
 20
8.8799868178
 30
0.0
 10
10.3031848624
 20
8.8793095896
 30
0.0
 10
10.303793114
 20
8.878767944
 30
0.0
 10
10.3042490392
 20
8.8783613347
 30
0.0
 10
10.3046298148
 20
8.8780236872
 30
0.0
 10
10.3048947133
 20
8.8777849914
 30
0.0
 10
10.3050486516
 20
8.8776522514
 30
0.0
 10
10.3051568719
 20
8.877542393
 30
0.0
 10
10.3052927419
 20
8.8774719195
 30
0.0
 10
10.3054642573
 20
8.8773642169
 30
0.0
 10
10.3057689028
 20
8.8771821382
 30
0.0
 10
10.3062017614
 20
8.8769186793
 30
0.0
 10
10.3067221973
 20
8.876603961
 30
0.0
 10
10.3074157606
 20
8.8761838363
 30
0.0
 10
10.308282835
 20
8.8756588517
 30
0.0
 10
10.3096700869
 20
8.8748187807
 30
0.0
 10
10.3114041747
 20
8.8737687247
 30
0.0
 10
10.3134850703
 20
8.8725086435
 30
0.0
 10
10.3155659685
 20
8.871248566
 30
0.0
 10
10.3183404984
 20
8.8695684614
 30
0.0
 10
10.3218086613
 20
8.8674683312
 30
0.0
 10
10.3252768239
 20
8.8653682006
 30
0.0
 10
10.3280513542
 20
8.8636880965
 30
0.0
 10
10.3301322514
 20
8.8624280174
 30
0.0
 10
10.3322131505
 20
8.8611679425
 30
0.0
 10
10.3339472274
 20
8.8601178668
 30
0.0
 10
10.3353345016
 20
8.859277836
 30
0.0
 10
10.336201519
 20
8.858752749
 30
0.0
 10
10.3368951994
 20
8.8583328345
 30
0.0
 10
10.3374152777
 20
8.8580174741
 30
0.0
 10
10.3378492551
 20
8.8577560242
 30
0.0
 10
10.3381519033
 20
8.857570359
 30
0.0
 10
10.338326619
 20
8.8574684029
 30
0.0
 10
10.3384526588
 20
8.8573802781
 30
0.0
 10
10.3385977993
 20
8.857336715
 30
0.0
 10
10.3387846574
 20
8.8572630872
 30
0.0
 10
10.3391147633
 20
8.8571414807
 30
0.0
 10
10.3395847203
 20
8.8569639709
 30
0.0
 10
10.3401493633
 20
8.8567525797
 30
0.0
 10
10.340901978
 20
8.8564701588
 30
0.0
 10
10.3418428295
 20
8.8561173265
 30
0.0
 10
10.3433481454
 20
8.8555526864
 30
0.0
 10
10.3452298063
 20
8.8548469235
 30
0.0
 10
10.3474877925
 20
8.853999992
 30
0.0
 10
10.3497457805
 20
8.8531530649
 30
0.0
 10
10.3527564306
 20
8.8520238271
 30
0.0
 10
10.3565197434
 20
8.8506122805
 30
0.0
 10
10.360283056
 20
8.8492007335
 30
0.0
 10
10.3632937063
 20
8.8480714964
 30
0.0
 10
10.3655516936
 20
8.8472245674
 30
0.0
 10
10.3678096824
 20
8.8463776429
 30
0.0
 10
10.3696913353
 20
8.8456718583
 30
0.0
 10
10.3711966673
 20
8.8451072625
 30
0.0
 10
10.372137478
 20
8.8447543176
 30
0.0
 10
10.3728901765
 20
8.8444721277
 30
0.0
 10
10.3734545634
 20
8.8442600307
 30
0.0
 10
10.3739253217
 20
8.8440847293
 30
0.0
 10
10.3742539972
 20
8.8439591803
 30
0.0
 10
10.3744431471
 20
8.8438918694
 30
0.0
 10
10.3745812479
 20
8.843828903
 30
0.0
 10
10.3747337278
 20
8.8438136538
 30
0.0
 10
10.3749320188
 20
8.8437766773
 30
0.0
 10
10.3752813648
 20
8.8437197233
 30
0.0
 10
10.3757792089
 20
8.8436343061
 30
0.0
 10
10.3763771447
 20
8.8435335408
 30
0.0
 10
10.3771742098
 20
8.8433985809
 30
0.0
 10
10.3781706038
 20
8.8432300886
 30
0.0
 10
10.3797647991
 20
8.842960385
 30
0.0
 10
10.3817575552
 20
8.8426232953
 30
0.0
 10
10.3841488575
 20
8.8422187705
 30
0.0
 10
10.3865401611
 20
8.8418142503
 30
0.0
 10
10.3897285654
 20
8.8412748885
 30
0.0
 10
10.393714071
 20
8.8406006867
 30
0.0
 10
10.3984966777
 20
8.8397916444
 30
0.0
 10
10.4048734865
 20
8.8387129213
 30
0.0
 10
10.4096560932
 20
8.837903879
 30
0.0
 10
10.4128444976
 20
8.8373645175
 30
0.0
  0
ENDSEC
  0
SECTION
  2
OBJECTS
  0
DICTIONARY
  5
C
100
AcDbDictionary
280
0
281
1
  3
ACAD_GROUP
350
D
  3
ACAD_MLINESTYLE
350
17
  3
ACAD_LAYOUT
350
1A
  3
ACAD_PLOTSETTINGS
350
19
  3
ACAD_PLOTSTYLENAME
350
E
  3
ACAD_IMAGE_DICT
350
       39A
  3
ACAD_IMAGE_VARS
350
       39B
  3
ACAD_TABLESTYLE
350
       39C
  0
IMAGEDEF_REACTOR
  5
399
100
AcDbRasterImageDefReactor
 90
2
330
293
  0
DICTIONARY
  5
D
102
{ACAD_REACTORS
330
C
102
}
100
AcDbDictionary
280
0
281
1
  0
ACDBDICTIONARYWDFLT
  5
E
102
{ACAD_REACTORS
330
C
102
}
100
AcDbDictionary
281
1
  3
Normal
350
F
100
AcDbDictionaryWithDefault
340
F
  0
DICTIONARY
  5
39A
330
C
100
AcDbDictionary
281
1
  3
M4I_assy_2_img_1
350
       39F
  0
RASTERVARIABLES
  5
39B
330
C
100
AcDbRasterVariables
 90
0
 70
0
 71
1
 72
5
  0
DICTIONARY
  5
17
102
{ACAD_REACTORS
330
C
102
}
100
AcDbDictionary
280
0
281
1
  3
Standard
350
18
  0
DICTIONARY
  5
39C
330
C
100
AcDbDictionary
281
1
  3
Standard
350
       3A0
  3
Standard1
350
       3A1
  0
DICTIONARY
  5
19
102
{ACAD_REACTORS
330
C
102
}
100
AcDbDictionary
281
1
  0
DICTIONARY
  5
1A
102
{ACAD_REACTORS
330
C
102
}
100
AcDbDictionary
281
1
  3
Model
350
39D
  3
Layout1
350
39E
  0
ACDBPLACEHOLDER
  5
F
102
{ACAD_REACTORS
330
E
102
}
  0
MLINESTYLE
  5
18
102
{ACAD_REACTORS
330
17
102
}
100
AcDbMlineStyle
  2
STANDARD
 70
0
  3

 62
256
 51
90.0
 52
90.0
 71
2
 49
0.5
 62
256
  6
BYLAYER
 49
-0.5
 62
256
  6
BYLAYER
  0
LAYOUT
  5
39D
102
{ACAD_REACTORS
330
1A
102
}
100
AcDbPlotSettings
  1

  2
none_device
  4
ANSI_C_(22.00_x_17.00_Inches)
  6

 40
0.0
 41
0.0
 42
0.0
 43
0.0
 44
558.8
 45
431.8
 46
0.0
 47
0.0
 48
0.0
 49
0.0
140
0.0
141
0.0
142
1.0
143
1.0
 70
1024
 72
0
 73
0
 74
0
  7

 75
0
147
1.0
148
0.0
149
0.0
100
AcDbLayout
  1
Model
 70
0
 71
0
 10
0.0
 20
0.0
 11
22.0
 21
17.0
 12
0.0
 22
0.0
 32
0.0
 14
0.0
 24
0.0
 34
0.0
 15
0.0
 25
0.0
 35
0.0
146
0.0
 13
0.0
 23
0.0
 33
0.0
 16
1.0
 26
0.0
 36
0.0
 17
0.0
 27
1.0
 37
0.0
 76
0
330
20C
345
0
346
0
  0
LAYOUT
  5
39E
102
{ACAD_REACTORS
330
1A
102
}
100
AcDbPlotSettings
  1

  2
none_device
  4
ANSI_C_(22.00_x_17.00_Inches)
  6

 40
0.0
 41
0.0
 42
0.0
 43
0.0
 44
558.8
 45
431.8
 46
0.0
 47
0.0
 48
0.0
 49
0.0
140
0.0
141
0.0
142
1.0
143
1.0
 70
0
 72
0
 73
0
 74
0
  7

 75
0
147
1.0
148
0.0
149
0.0
100
AcDbLayout
  1
Layout1
 70
0
 71
1
 10
0.0
 20
0.0
 11
22.0
 21
17.0
 12
0.0
 22
0.0
 32
0.0
 14
0.0
 24
0.0
 34
0.0
 15
0.0
 25
0.0
 35
0.0
146
0.0
 13
0.0
 23
0.0
 33
0.0
 16
1.0
 26
0.0
 36
0.0
 17
0.0
 27
1.0
 37
0.0
 76
0
330
20D
345
0
346
0
  0
IMAGEDEF
  5
39F
102
{ACAD_REACTORS
330
39A
330
399
102
}
100
AcDbRasterImageDef
 90
0
  1
M4I_assy_2_img_1.png
 10
369.0
 20
92.0
 11
0.0066666667
 21
0.0066666667
280
1
281
0
  0
TABLESTYLE
  5
3A0
102
{ACAD_REACTORS
330
39C
330
296
330
297
102
}
330
39C
100
AcDbTableStyle
  3
Standard
 70
0
 71
0
 40
0.06
 41
0.06
280
1
281
1
  7
Standard
140
0.18
170
1
 62
0
 63
7
283
0
  7
Standard
140
0.18
170
1
 62
0
 63
7
283
0
  7
Standard
140
0.18
170
1
 62
0
 63
7
283
0
  0
TABLESTYLE
  5
3A1
102
{ACAD_REACTORS
330
39C
330
295
102
}
330
39C
100
AcDbTableStyle
  3
Standard1
 70
1
 71
0
 40
0.06
 41
0.06
280
1
281
1
  7
Standard
140
0.18
170
1
 62
0
 63
7
283
0
  7
Standard
140
0.18
170
1
 62
0
 63
7
283
0
  7
Standard
140
0.18
170
1
 62
0
 63
7
283
0
  0
ENDSEC
  0
EOF
