999
DXF file: LNS_6.dxf
999
Pro/ENGINEER 2006240 by Parametric Technology Corporation
  0
SECTION
  2
HEADER
  9
$ACADVER
  1
AC1015
  9
$DWGCODEPAGE
  3
ANSI_1252
  9
$EXTMAX
 10
22.0
 20
17.0
 30
0.0
  9
$EXTMIN
 10
0.0
 20
0.0
 30
0.0
  9
$LIMMIN
 10
0.0
 20
0.0
  9
$LIMMAX
 10
22.0
 20
17.0
  9
$VIEWCTR
 10
11.0
 20
8.5
  9
$VIEWSIZE
 40
17.0
  9
$CLAYER
  8
0
  9
$LTSCALE
 40
1.21
  9
$CELTYPE
  6
BYLAYER
  9
$DIMSCALE
 40
1.0
  9
$DIMASZ
 40
0.1875
  9
$DIMEXO
 40
0.1375
  9
$DIMDLI
 40
0.836
  9
$DIMEXE
 40
0.396
  9
$DIMCEN
 40
0.198
  9
$DIMLFAC
 40
1.0
  9
$DIMBLK
  1
_CLOSED
  9
$DIMTXT
 40
0.15625
  9
$DIMTOL
 70
0
  9
$DIMLIM
 70
0
  9
$DIMTFAC
 40
1.0
  9
$PDMODE
 70
3
  9
$PDSIZE
 40
0.3125
  9
$HANDSEED
  5
582
  9
$MEASUREMENT
 70
0
  9
$INSUNITS
 70
1
  0
ENDSEC
  0
SECTION
  2
CLASSES
  0
CLASS
  1
ACDBDICTIONARYWDFLT
  2
AcDbDictionaryWithDefault
  3
AutoCAD 2000
 90
0
280
0
281
0
  0
CLASS
  1
ACDBPLACEHOLDER
  2
AcDbPlaceHolder
  3
AutoCAD 2000
 90
0
280
0
281
0
  0
CLASS
  1
LAYOUT
  2
AcDbLayout
  3
AutoCAD 2000
 90
0
280
0
281
0
  0
ENDSEC
  0
SECTION
  2
TABLES
  0
TABLE
  2
VPORT
  5
8
100
AcDbSymbolTable
 70
2
  0
VPORT
  5
1F4
100
AcDbSymbolTableRecord
100
AcDbViewportTableRecord
  2
*ACTIVE
 70
0
 10
0.0
 20
0.0
 11
1.0
 21
1.0
 12
11.0
 22
8.5
 13
0.0
 23
0.0
 14
1.0
 24
1.0
 15
0.0
 25
0.0
 16
0.0
 26
0.0
 36
1.0
 17
0.0
 27
0.0
 37
0.0
 40
17.0
 41
1.2941176471
 42
50.0
 43
0.0
 44
0.0
 50
0.0
 51
0.0
 71
0
 72
100
 73
1
 74
1
 75
0
 76
0
 77
0
 78
0
  0
ENDTAB
  0
TABLE
  2
LTYPE
  5
5
100
AcDbSymbolTable
 70
6
  0
LTYPE
  5
14
100
AcDbSymbolTableRecord
100
AcDbLinetypeTableRecord
  2
BYBLOCK
 70
0
  3

 72
65
 73
0
 40
0.0
  0
LTYPE
  5
15
100
AcDbSymbolTableRecord
100
AcDbLinetypeTableRecord
  2
BYLAYER
 70
0
  3

 72
65
 73
0
 40
0.0
  0
LTYPE
  5
16
100
AcDbSymbolTableRecord
100
AcDbLinetypeTableRecord
  2
CONTINUOUS
 70
64
  3
Solid line
 72
65
 73
0
 40
0.0
  0
LTYPE
  5
1F5
100
AcDbSymbolTableRecord
100
AcDbLinetypeTableRecord
  2
CENTER
 70
64
  3
____ _ ____ _ ____ _ ____ _ ____ _ ____ _ ____
 72
65
 73
4
 40
0.6
 49
0.375
 74
0
 49
-0.075
 74
0
 49
0.075
 74
0
 49
-0.075
 74
0
  0
LTYPE
  5
1F6
100
AcDbSymbolTableRecord
100
AcDbLinetypeTableRecord
  2
HIDDEN
 70
64
  3
- - - - - - - - - - - - - - - - - - - -
 72
65
 73
2
 40
0.2
 49
0.1
 74
0
 49
-0.1
 74
0
  0
LTYPE
  5
1F7
100
AcDbSymbolTableRecord
100
AcDbLinetypeTableRecord
  2
PHANTOM
 70
64
  3
_____ _ _ _____ _ _ _____ _ _ _____
 72
65
 73
6
 40
0.8
 49
0.45
 74
0
 49
-0.05
 74
0
 49
0.1
 74
0
 49
-0.05
 74
0
 49
0.1
 74
0
 49
-0.05
 74
0
  0
LTYPE
  5
1F8
100
AcDbSymbolTableRecord
100
AcDbLinetypeTableRecord
  2
DOT
 70
64
  3
. . . . . . . . . . . . . . . . . . . .
 72
65
 73
2
 40
0.2
 49
0.1
 74
0
 49
-0.1
 74
0
  0
LTYPE
  5
1F9
100
AcDbSymbolTableRecord
100
AcDbLinetypeTableRecord
  2
DASHED
 70
64
  3
- - - - - - - - - - - - - - - - - - - -
 72
65
 73
2
 40
0.2
 49
0.1
 74
0
 49
-0.1
 74
0
  0
ENDTAB
  0
TABLE
  2
LAYER
  5
2
100
AcDbSymbolTable
 70
36
  0
LAYER
  5
10
100
AcDbSymbolTableRecord
100
AcDbLayerTableRecord
  2
0
 70
0
 62
7
  6
CONTINUOUS
370
-3
390
F
  0
LAYER
  5
1FA
100
AcDbSymbolTableRecord
100
AcDbLayerTableRecord
  2
DEFAULT_1
 70
0
 62
7
  6
CENTER
370
-3
390
F
  0
LAYER
  5
1FB
100
AcDbSymbolTableRecord
100
AcDbLayerTableRecord
  2
DEFAULT_2
 70
0
 62
8
  6
HIDDEN
370
-3
390
F
  0
LAYER
  5
1FC
100
AcDbSymbolTableRecord
100
AcDbLayerTableRecord
  2
DEFAULT_3
 70
0
 62
7
  6
PHANTOM
370
-3
390
F
  0
LAYER
  5
1FD
100
AcDbSymbolTableRecord
100
AcDbLayerTableRecord
  2
01_ALL_DTM_PLN
 70
0
 62
7
  6
CONTINUOUS
370
-3
390
F
  0
LAYER
  5
1FE
100
AcDbSymbolTableRecord
100
AcDbLayerTableRecord
  2
01__ASM_ALL_DTM_PLN
 70
0
 62
7
  6
CONTINUOUS
370
-3
390
F
  0
LAYER
  5
1FF
100
AcDbSymbolTableRecord
100
AcDbLayerTableRecord
  2
01__ASM_DEF_DTM_PLN
 70
0
 62
7
  6
CONTINUOUS
370
-3
390
F
  0
LAYER
  5
200
100
AcDbSymbolTableRecord
100
AcDbLayerTableRecord
  2
01___PRT_ALL_DTM_PLN
 70
0
 62
7
  6
CONTINUOUS
370
-3
390
F
  0
LAYER
  5
201
100
AcDbSymbolTableRecord
100
AcDbLayerTableRecord
  2
01___PRT_DEF_DTM_PLN
 70
0
 62
7
  6
CONTINUOUS
370
-3
390
F
  0
LAYER
  5
202
100
AcDbSymbolTableRecord
100
AcDbLayerTableRecord
  2
02_ALL_AXES
 70
0
 62
7
  6
CONTINUOUS
370
-3
390
F
  0
LAYER
  5
203
100
AcDbSymbolTableRecord
100
AcDbLayerTableRecord
  2
02__ASM_ALL_AXES
 70
0
 62
7
  6
CONTINUOUS
370
-3
390
F
  0
LAYER
  5
204
100
AcDbSymbolTableRecord
100
AcDbLayerTableRecord
  2
02___PRT_ALL_AXES
 70
0
 62
7
  6
CONTINUOUS
370
-3
390
F
  0
LAYER
  5
205
100
AcDbSymbolTableRecord
100
AcDbLayerTableRecord
  2
03_ALL_CURVES
 70
0
 62
7
  6
CONTINUOUS
370
-3
390
F
  0
LAYER
  5
206
100
AcDbSymbolTableRecord
100
AcDbLayerTableRecord
  2
03__ASM_ALL_CURVES
 70
0
 62
7
  6
CONTINUOUS
370
-3
390
F
  0
LAYER
  5
207
100
AcDbSymbolTableRecord
100
AcDbLayerTableRecord
  2
03___PRT_ALL_CURVES
 70
0
 62
7
  6
CONTINUOUS
370
-3
390
F
  0
LAYER
  5
208
100
AcDbSymbolTableRecord
100
AcDbLayerTableRecord
  2
04_ALL_DTM_PNT
 70
0
 62
7
  6
CONTINUOUS
370
-3
390
F
  0
LAYER
  5
209
100
AcDbSymbolTableRecord
100
AcDbLayerTableRecord
  2
04__ASM_ALL_DTM_PNT
 70
0
 62
7
  6
CONTINUOUS
370
-3
390
F
  0
LAYER
  5
20A
100
AcDbSymbolTableRecord
100
AcDbLayerTableRecord
  2
04___PRT_ALL_DTM_PNT
 70
0
 62
7
  6
CONTINUOUS
370
-3
390
F
  0
LAYER
  5
20B
100
AcDbSymbolTableRecord
100
AcDbLayerTableRecord
  2
05_ALL_DTM_CSYS
 70
0
 62
7
  6
CONTINUOUS
370
-3
390
F
  0
LAYER
  5
20C
100
AcDbSymbolTableRecord
100
AcDbLayerTableRecord
  2
05__ASM_ALL_DTM_CSYS
 70
0
 62
7
  6
CONTINUOUS
370
-3
390
F
  0
LAYER
  5
20D
100
AcDbSymbolTableRecord
100
AcDbLayerTableRecord
  2
05__ASM_DEF_DTM_CSYS
 70
0
 62
7
  6
CONTINUOUS
370
-3
390
F
  0
LAYER
  5
20E
100
AcDbSymbolTableRecord
100
AcDbLayerTableRecord
  2
05___PRT_ALL_DTM_CSYS
 70
0
 62
7
  6
CONTINUOUS
370
-3
390
F
  0
LAYER
  5
20F
100
AcDbSymbolTableRecord
100
AcDbLayerTableRecord
  2
05___PRT_DEF_DTM_CSYS
 70
0
 62
7
  6
CONTINUOUS
370
-3
390
F
  0
LAYER
  5
210
100
AcDbSymbolTableRecord
100
AcDbLayerTableRecord
  2
06_ALL_SURFS
 70
0
 62
7
  6
CONTINUOUS
370
-3
390
F
  0
LAYER
  5
211
100
AcDbSymbolTableRecord
100
AcDbLayerTableRecord
  2
06__ASM_ALL_SURFS
 70
0
 62
7
  6
CONTINUOUS
370
-3
390
F
  0
LAYER
  5
212
100
AcDbSymbolTableRecord
100
AcDbLayerTableRecord
  2
06___PRT_ALL_SURFS
 70
0
 62
7
  6
CONTINUOUS
370
-3
390
F
  0
LAYER
  5
213
100
AcDbSymbolTableRecord
100
AcDbLayerTableRecord
  2
07__ASM_ALL_SKELETONS
 70
0
 62
7
  6
CONTINUOUS
370
-3
390
F
  0
LAYER
  5
214
100
AcDbSymbolTableRecord
100
AcDbLayerTableRecord
  2
COPY_GEO_FET
 70
0
 62
7
  6
CONTINUOUS
370
-3
390
F
  0
LAYER
  5
215
100
AcDbSymbolTableRecord
100
AcDbLayerTableRecord
  2
COSMETIC
 70
0
 62
7
  6
CONTINUOUS
370
-3
390
F
  0
LAYER
  5
216
100
AcDbSymbolTableRecord
100
AcDbLayerTableRecord
  2
CUT_REF_SURF
 70
0
 62
7
  6
CONTINUOUS
370
-3
390
F
  0
LAYER
  5
217
100
AcDbSymbolTableRecord
100
AcDbLayerTableRecord
  2
DATESTAMP
 70
0
 62
7
  6
CONTINUOUS
370
-3
390
F
  0
LAYER
  5
218
100
AcDbSymbolTableRecord
100
AcDbLayerTableRecord
  2
DATUM
 70
0
 62
7
  6
CONTINUOUS
370
-3
390
F
  0
LAYER
  5
219
100
AcDbSymbolTableRecord
100
AcDbLayerTableRecord
  2
DATUM_B
 70
0
 62
7
  6
CONTINUOUS
370
-3
390
F
  0
LAYER
  5
21A
100
AcDbSymbolTableRecord
100
AcDbLayerTableRecord
  2
DATUM_PLANES
 70
0
 62
7
  6
CONTINUOUS
370
-3
390
F
  0
LAYER
  5
21B
100
AcDbSymbolTableRecord
100
AcDbLayerTableRecord
  2
DIM
 70
0
 62
7
  6
CONTINUOUS
370
-3
390
F
  0
LAYER
  5
21C
100
AcDbSymbolTableRecord
100
AcDbLayerTableRecord
  2
DIM_1
 70
0
 62
7
  6
CONTINUOUS
370
-3
390
F
  0
LAYER
  5
21D
100
AcDbSymbolTableRecord
100
AcDbLayerTableRecord
  2
DIM_2
 70
0
 62
7
  6
CONTINUOUS
370
-3
390
F
  0
LAYER
  5
21E
100
AcDbSymbolTableRecord
100
AcDbLayerTableRecord
  2
DIM_3
 70
0
 62
7
  6
CONTINUOUS
370
-3
390
F
  0
LAYER
  5
21F
100
AcDbSymbolTableRecord
100
AcDbLayerTableRecord
  2
DIM_4
 70
0
 62
7
  6
CONTINUOUS
370
-3
390
F
  0
LAYER
  5
220
100
AcDbSymbolTableRecord
100
AcDbLayerTableRecord
  2
DIM_5
 70
0
 62
7
  6
CONTINUOUS
370
-3
390
F
  0
LAYER
  5
221
100
AcDbSymbolTableRecord
100
AcDbLayerTableRecord
  2
DTM
 70
0
 62
7
  6
CONTINUOUS
370
-3
390
F
  0
LAYER
  5
222
100
AcDbSymbolTableRecord
100
AcDbLayerTableRecord
  2
EXT_COPY_GEO
 70
0
 62
7
  6
CONTINUOUS
370
-3
390
F
  0
LAYER
  5
223
100
AcDbSymbolTableRecord
100
AcDbLayerTableRecord
  2
LNS_10
 70
0
 62
7
  6
CONTINUOUS
370
-3
390
F
  0
LAYER
  5
224
100
AcDbSymbolTableRecord
100
AcDbLayerTableRecord
  2
LNS_14
 70
0
 62
7
  6
CONTINUOUS
370
-3
390
F
  0
LAYER
  5
225
100
AcDbSymbolTableRecord
100
AcDbLayerTableRecord
  2
LNS_2
 70
0
 62
7
  6
CONTINUOUS
370
-3
390
F
  0
LAYER
  5
226
100
AcDbSymbolTableRecord
100
AcDbLayerTableRecord
  2
LNS_5
 70
0
 62
7
  6
CONTINUOUS
370
-3
390
F
  0
LAYER
  5
227
100
AcDbSymbolTableRecord
100
AcDbLayerTableRecord
  2
LNS_6
 70
0
 62
7
  6
CONTINUOUS
370
-3
390
F
  0
LAYER
  5
228
100
AcDbSymbolTableRecord
100
AcDbLayerTableRecord
  2
LNS_7
 70
0
 62
7
  6
CONTINUOUS
370
-3
390
F
  0
LAYER
  5
229
100
AcDbSymbolTableRecord
100
AcDbLayerTableRecord
  2
LS
 70
0
 62
7
  6
CONTINUOUS
370
-3
390
F
  0
LAYER
  5
22A
100
AcDbSymbolTableRecord
100
AcDbLayerTableRecord
  2
ORIGIN
 70
0
 62
7
  6
CONTINUOUS
370
-3
390
F
  0
LAYER
  5
22B
100
AcDbSymbolTableRecord
100
AcDbLayerTableRecord
  2
PARTNUMBER
 70
0
 62
7
  6
CONTINUOUS
370
-3
390
F
  0
LAYER
  5
22C
100
AcDbSymbolTableRecord
100
AcDbLayerTableRecord
  2
PORT_AREAS
 70
0
 62
7
  6
CONTINUOUS
370
-3
390
F
  0
LAYER
  5
22D
100
AcDbSymbolTableRecord
100
AcDbLayerTableRecord
  2
TEXT
 70
0
 62
7
  6
CONTINUOUS
370
-3
390
F
  0
LAYER
  5
22E
100
AcDbSymbolTableRecord
100
AcDbLayerTableRecord
  2
THREAD
 70
0
 62
7
  6
CONTINUOUS
370
-3
390
F
  0
LAYER
  5
22F
100
AcDbSymbolTableRecord
100
AcDbLayerTableRecord
  2
THREADS
 70
0
 62
7
  6
CONTINUOUS
370
-3
390
F
  0
ENDTAB
  0
TABLE
  2
STYLE
  5
3
100
AcDbSymbolTable
 70
1
  0
STYLE
  5
11
100
AcDbSymbolTableRecord
100
AcDbTextStyleTableRecord
  2
STANDARD
 70
0
 40
0.0
 41
0.8
 50
0.0
 71
0
 42
0.2
  3
txt
  4

  0
ENDTAB
  0
TABLE
  2
VIEW
  5
6
100
AcDbSymbolTable
 70
0
  0
ENDTAB
  0
TABLE
  2
UCS
  5
7
100
AcDbSymbolTable
 70
0
  0
ENDTAB
  0
TABLE
  2
APPID
  5
9
100
AcDbSymbolTable
 70
1
  0
APPID
  5
230
100
AcDbSymbolTableRecord
100
AcDbRegAppTableRecord
  2
ACAD
 70
0
  0
ENDTAB
  0
TABLE
  2
BLOCK_RECORD
  5
1
100
AcDbSymbolTable
 70
0
  0
BLOCK_RECORD
  5
1F
100
AcDbSymbolTableRecord
100
AcDbBlockTableRecord
  2
*MODEL_SPACE
  0
BLOCK_RECORD
  5
1B
100
AcDbSymbolTableRecord
100
AcDbBlockTableRecord
  2
*PAPER_SPACE
  0
ENDTAB
  0
TABLE
  2
DIMSTYLE
  5
A
100
AcDbSymbolTable
 70
1
100
AcDbDimStyleTable
 71
0
  0
DIMSTYLE
105
231
100
AcDbSymbolTableRecord
100
AcDbDimStyleTableRecord
  2
STANDARD
 70
0
  3

  4

 40
1.0
 41
0.1875
 42
0.0625
 43
0.38
 44
0.18
 45
0.0
 46
0.0
 47
0.01
 48
0.01
140
0.15625
141
0.09
142
0.0
143
25.4
144
1.0
145
0.0
146
1.0
147
0.09
 71
0.0
 72
0.0
 73
1
 74
1
 75
0
 76
0
 77
0
 78
4
170
0
171
2
172
0
173
0
174
0
175
0
176
0
177
0
178
0
270
2
271
2
272
2
273
2
274
2
275
0
280
0
281
0
282
0
283
1
284
4
285
0
286
0
287
3
288
0
340
11
  0
ENDTAB
  0
ENDSEC
  0
SECTION
  2
BLOCKS
  0
BLOCK
  5
20
100
AcDbEntity
  8
0
100
AcDbBlockBegin
  2
*MODEL_SPACE
 70
0
 10
0.0
 20
0.0
 30
0.0
  3
*MODEL_SPACE
  1

  0
ENDBLK
  5
21
100
AcDbEntity
  8
0
100
AcDbBlockEnd
  0
BLOCK
  5
1C
100
AcDbEntity
  8
0
100
AcDbBlockBegin
  2
*PAPER_SPACE
 70
0
 10
0.0
 20
0.0
 30
0.0
  3
*PAPER_SPACE
  1

  0
ENDBLK
  5
1D
100
AcDbEntity
  8
0
100
AcDbBlockEnd
  0
ENDSEC
  0
SECTION
  2
ENTITIES
  0
LINE
  5
232
100
AcDbEntity
  8
03__ASM_ALL_CURVES
100
AcDbLine
 62
4
  6
CONTINUOUS
 10
4.7232660135
 20
13.8389351862
 11
4.6444066385
 21
13.7037476862
  0
LINE
  5
233
100
AcDbEntity
  8
03__ASM_ALL_CURVES
100
AcDbLine
 62
4
  6
CONTINUOUS
 10
5.0161722635
 20
13.808893516
 11
5.0274378885
 21
13.8239143565
  0
LINE
  5
234
100
AcDbEntity
  8
03__ASM_ALL_CURVES
100
AcDbLine
 62
4
  6
CONTINUOUS
 10
5.0837660135
 20
13.6887268538
 11
5.0725003885
 21
13.67370602
  0
LINE
  5
235
100
AcDbEntity
  8
03__ASM_ALL_CURVES
100
AcDbLine
 62
4
  6
CONTINUOUS
 10
5.2752816385
 20
13.7938726862
 11
5.2640160135
 21
13.7788518565
  0
LINE
  5
236
100
AcDbEntity
  8
03__ASM_ALL_CURVES
100
AcDbLine
 62
4
  6
CONTINUOUS
 10
5.0274378885
 20
13.8239143565
 11
5.0499691385
 21
13.8389351862
  0
LINE
  5
237
100
AcDbEntity
  8
03__ASM_ALL_CURVES
100
AcDbLine
 62
4
  6
CONTINUOUS
 10
5.0049066385
 20
13.7788518565
 11
5.0161722635
 21
13.808893516
  0
LINE
  5
238
100
AcDbEntity
  8
03__ASM_ALL_CURVES
100
AcDbLine
 62
4
  6
CONTINUOUS
 10
5.0950316385
 20
13.7788518565
 11
5.0837660135
 21
13.7488101862
  0
LINE
  5
239
100
AcDbEntity
  8
03__ASM_ALL_CURVES
100
AcDbLine
 62
4
  6
CONTINUOUS
 10
5.0950316385
 20
13.7187685214
 11
5.0837660135
 21
13.6887268538
  0
LINE
  5
23A
100
AcDbEntity
  8
03__ASM_ALL_CURVES
100
AcDbLine
 62
4
  6
CONTINUOUS
 10
5.2865472635
 20
13.7037476862
 11
5.2640160135
 21
13.67370602
  0
LINE
  5
23B
100
AcDbEntity
  8
03__ASM_ALL_CURVES
100
AcDbLine
 62
4
  6
CONTINUOUS
 10
5.6019847635
 20
13.8389351862
 11
5.5794535135
 21
13.808893516
  0
LINE
  5
23C
100
AcDbEntity
  8
03__ASM_ALL_CURVES
100
AcDbLine
 62
4
  6
CONTINUOUS
 10
5.9061566385
 20
13.808893516
 11
5.9174222635
 21
13.8239143565
  0
LINE
  5
23D
100
AcDbEntity
  8
03__ASM_ALL_CURVES
100
AcDbLine
 62
4
  6
CONTINUOUS
 10
5.1964222635
 20
13.8239143565
 11
5.2189535135
 21
13.8389351862
  0
LINE
  5
23E
100
AcDbEntity
  8
03__ASM_ALL_CURVES
100
AcDbLine
 62
4
  6
CONTINUOUS
 10
5.0725003885
 20
13.67370602
 11
5.0499691385
 21
13.6586851862
  0
LINE
  5
23F
100
AcDbEntity
  8
03__ASM_ALL_CURVES
100
AcDbLine
 62
4
  6
CONTINUOUS
 10
5.2640160135
 20
13.7788518565
 11
5.2414847635
 21
13.763831016
  0
LINE
  5
240
100
AcDbEntity
  8
03__ASM_ALL_CURVES
100
AcDbLine
 62
4
  6
CONTINUOUS
 10
5.2640160135
 20
13.67370602
 11
5.2414847635
 21
13.6586851862
  0
LINE
  5
241
100
AcDbEntity
  8
03__ASM_ALL_CURVES
100
AcDbLine
 62
4
  6
CONTINUOUS
 10
5.9174222635
 20
13.8239143565
 11
5.9399535135
 21
13.8389351862
  0
LINE
  5
242
100
AcDbEntity
  8
03__ASM_ALL_CURVES
100
AcDbLine
 62
4
  6
CONTINUOUS
 10
5.0837660135
 20
13.7488101862
 11
5.0499691385
 21
13.7337893511
  0
LINE
  5
243
100
AcDbEntity
  8
03__ASM_ALL_CURVES
100
AcDbLine
 62
4
  6
CONTINUOUS
 10
5.2640160135
 20
12.3699351862
 11
5.1851566385
 21
12.2347476862
  0
LINE
  5
244
100
AcDbEntity
  8
03__ASM_ALL_CURVES
100
AcDbLine
 62
4
  6
CONTINUOUS
 10
5.9399535135
 20
13.7337893511
 11
5.9174222635
 21
13.7037476862
  0
LINE
  5
245
100
AcDbEntity
  8
03__ASM_ALL_CURVES
100
AcDbLine
 62
4
  6
CONTINUOUS
 10
5.9962816385
 20
13.7788518565
 11
5.9850160135
 21
13.763831016
  0
LINE
  5
246
100
AcDbEntity
  8
03__ASM_ALL_CURVES
100
AcDbLine
 62
4
  6
CONTINUOUS
 10
4.9147816385
 20
12.3248726862
 11
4.9035160135
 21
12.3098518565
  0
LINE
  5
247
100
AcDbEntity
  8
03__ASM_ALL_CURVES
100
AcDbLine
 62
4
  6
CONTINUOUS
 10
4.9260472635
 20
12.2347476862
 11
4.9035160135
 21
12.20470602
  0
LINE
  5
248
100
AcDbEntity
  8
03__ASM_ALL_CURVES
100
AcDbLine
 62
4
  6
CONTINUOUS
 10
6.1765316385
 20
13.6887268538
 11
6.1652660135
 21
13.67370602
  0
LINE
  5
249
100
AcDbEntity
  8
03__ASM_ALL_CURVES
100
AcDbLine
 62
4
  6
CONTINUOUS
 10
6.4469066385
 20
13.808893516
 11
6.4581722635
 21
13.8239143565
  0
LINE
  5
24A
100
AcDbEntity
  8
03__ASM_ALL_CURVES
100
AcDbLine
 62
4
  6
CONTINUOUS
 10
5.3766722635
 20
12.339893516
 11
5.3879378885
 21
12.3549143565
  0
LINE
  5
24B
100
AcDbEntity
  8
03__ASM_ALL_CURVES
100
AcDbLine
 62
4
  6
CONTINUOUS
 10
5.9850160135
 20
13.763831016
 11
5.9399535135
 21
13.7337893511
  0
LINE
  5
24C
100
AcDbEntity
  8
03__ASM_ALL_CURVES
100
AcDbLine
 62
4
  6
CONTINUOUS
 10
6.0976722635
 20
13.763831016
 11
6.1202035135
 21
13.7788518565
  0
LINE
  5
24D
100
AcDbEntity
  8
03__ASM_ALL_CURVES
100
AcDbLine
 62
4
  6
CONTINUOUS
 10
6.1652660135
 20
13.67370602
 11
6.1427347635
 21
13.6586851862
  0
LINE
  5
24E
100
AcDbEntity
  8
03__ASM_ALL_CURVES
100
AcDbLine
 62
4
  6
CONTINUOUS
 10
6.4581722635
 20
13.8239143565
 11
6.4807035135
 21
13.8389351862
  0
LINE
  5
24F
100
AcDbEntity
  8
03__ASM_ALL_CURVES
100
AcDbLine
 62
4
  6
CONTINUOUS
 10
6.5257660135
 20
13.763831016
 11
6.4807035135
 21
13.7337893511
  0
LINE
  5
250
100
AcDbEntity
  8
03__ASM_ALL_CURVES
100
AcDbLine
 62
4
  6
CONTINUOUS
 10
6.6384222635
 20
13.8239143565
 11
6.6609535135
 21
13.8389351862
  0
LINE
  5
251
100
AcDbEntity
  8
03__ASM_ALL_CURVES
100
AcDbLine
 62
4
  6
CONTINUOUS
 10
6.7060160135
 20
13.763831016
 11
6.6609535135
 21
13.7337893511
  0
LINE
  5
252
100
AcDbEntity
  8
03__ASM_ALL_CURVES
100
AcDbLine
 62
4
  6
CONTINUOUS
 10
4.7232660135
 20
13.6586851862
 11
4.7232660135
 21
13.8389351862
  0
LINE
  5
253
100
AcDbEntity
  8
03__ASM_ALL_CURVES
100
AcDbLine
 62
4
  6
CONTINUOUS
 10
4.897883201
 20
13.6586851862
 11
4.897883201
 21
13.6812164369
  0
LINE
  5
254
100
AcDbEntity
  8
03__ASM_ALL_CURVES
100
AcDbLine
 62
4
  6
CONTINUOUS
 10
4.9147816385
 20
12.339893516
 11
4.9147816385
 21
12.3248726862
  0
LINE
  5
255
100
AcDbEntity
  8
03__ASM_ALL_CURVES
100
AcDbLine
 62
4
  6
CONTINUOUS
 10
4.9260472635
 20
12.2497685214
 11
4.9260472635
 21
12.2347476862
  0
LINE
  5
256
100
AcDbEntity
  8
03__ASM_ALL_CURVES
100
AcDbLine
 62
4
  6
CONTINUOUS
 10
5.5794535135
 20
13.808893516
 11
5.5681878885
 21
13.763831016
  0
LINE
  5
257
100
AcDbEntity
  8
03__ASM_ALL_CURVES
100
AcDbLine
 62
4
  6
CONTINUOUS
 10
5.9174222635
 20
13.7037476862
 11
5.9061566385
 21
13.6586851862
  0
LINE
  5
258
100
AcDbEntity
  8
03__ASM_ALL_CURVES
100
AcDbLine
 62
4
  6
CONTINUOUS
 10
5.3654066385
 20
12.3098518565
 11
5.3766722635
 21
12.339893516
  0
LINE
  5
259
100
AcDbEntity
  8
03__ASM_ALL_CURVES
100
AcDbLine
 62
4
  6
CONTINUOUS
 10
5.3654066385
 20
12.2497685214
 11
5.3766722635
 21
12.2798101862
  0
LINE
  5
25A
100
AcDbEntity
  8
03__ASM_ALL_CURVES
100
AcDbLine
 62
4
  6
CONTINUOUS
 10
5.4555316385
 20
12.2497685214
 11
5.4442660135
 21
12.2197268538
  0
LINE
  5
25B
100
AcDbEntity
  8
03__ASM_ALL_CURVES
100
AcDbLine
 62
4
  6
CONTINUOUS
 10
6.1877972635
 20
13.7187685214
 11
6.1765316385
 21
13.6887268538
  0
LINE
  5
25C
100
AcDbEntity
  8
03__ASM_ALL_CURVES
100
AcDbLine
 62
4
  6
CONTINUOUS
 10
6.4807035135
 20
13.7337893511
 11
6.4581722635
 21
13.7037476862
  0
LINE
  5
25D
100
AcDbEntity
  8
03__ASM_ALL_CURVES
100
AcDbLine
 62
4
  6
CONTINUOUS
 10
6.5370316385
 20
13.7788518565
 11
6.5257660135
 21
13.763831016
  0
LINE
  5
25E
100
AcDbEntity
  8
03__ASM_ALL_CURVES
100
AcDbLine
 62
4
  6
CONTINUOUS
 10
6.6271566385
 20
13.808893516
 11
6.6384222635
 21
13.8239143565
  0
LINE
  5
25F
100
AcDbEntity
  8
03__ASM_ALL_CURVES
100
AcDbLine
 62
4
  6
CONTINUOUS
 10
5.4442660135
 20
12.2197268538
 11
5.4330003885
 21
12.20470602
  0
LINE
  5
260
100
AcDbEntity
  8
03__ASM_ALL_CURVES
100
AcDbLine
 62
4
  6
CONTINUOUS
 10
6.6609535135
 20
13.7337893511
 11
6.6384222635
 21
13.7037476862
  0
LINE
  5
261
100
AcDbEntity
  8
03__ASM_ALL_CURVES
100
AcDbLine
 62
4
  6
CONTINUOUS
 10
6.7172816385
 20
13.7788518565
 11
6.7060160135
 21
13.763831016
  0
LINE
  5
262
100
AcDbEntity
  8
03__ASM_ALL_CURVES
100
AcDbLine
 62
4
  6
CONTINUOUS
 10
5.7822347635
 20
12.3699351862
 11
5.7597035135
 21
12.339893516
  0
LINE
  5
263
100
AcDbEntity
  8
03__ASM_ALL_CURVES
100
AcDbLine
 62
4
  6
CONTINUOUS
 10
6.8637347635
 20
13.6887268538
 11
6.8412035135
 21
13.6586851862
  0
LINE
  5
264
100
AcDbEntity
  8
03__ASM_ALL_CURVES
100
AcDbLine
 62
4
  6
CONTINUOUS
 10
5.9061566385
 20
12.339893516
 11
5.9174222635
 21
12.3549143565
  0
LINE
  5
265
100
AcDbEntity
  8
03__ASM_ALL_CURVES
100
AcDbLine
 62
4
  6
CONTINUOUS
 10
5.8948910135
 20
12.2497685214
 11
5.9174222635
 21
12.2798101862
  0
LINE
  5
266
100
AcDbEntity
  8
03__ASM_ALL_CURVES
100
AcDbLine
 62
4
  6
CONTINUOUS
 10
5.9962816385
 20
12.3248726862
 11
5.9850160135
 21
12.3098518565
  0
LINE
  5
267
100
AcDbEntity
  8
03__ASM_ALL_CURVES
100
AcDbLine
 62
4
  6
CONTINUOUS
 10
4.8359222635
 20
12.3549143565
 11
4.8584535135
 21
12.3699351862
  0
LINE
  5
268
100
AcDbEntity
  8
03__ASM_ALL_CURVES
100
AcDbLine
 62
4
  6
CONTINUOUS
 10
4.9035160135
 20
12.3098518565
 11
4.8809847635
 21
12.294831016
  0
LINE
  5
269
100
AcDbEntity
  8
03__ASM_ALL_CURVES
100
AcDbLine
 62
4
  6
CONTINUOUS
 10
4.9035160135
 20
12.20470602
 11
4.8809847635
 21
12.1896851862
  0
LINE
  5
26A
100
AcDbEntity
  8
03__ASM_ALL_CURVES
100
AcDbLine
 62
4
  6
CONTINUOUS
 10
5.3879378885
 20
12.3549143565
 11
5.4104691385
 21
12.3699351862
  0
LINE
  5
26B
100
AcDbEntity
  8
03__ASM_ALL_CURVES
100
AcDbLine
 62
4
  6
CONTINUOUS
 10
5.078133201
 20
12.1896851862
 11
5.078133201
 21
12.2122164369
  0
LINE
  5
26C
100
AcDbEntity
  8
03__ASM_ALL_CURVES
100
AcDbLine
 62
4
  6
CONTINUOUS
 10
5.0950316385
 20
13.7788518565
 11
5.0950316385
 21
13.7187685214
  0
LINE
  5
26D
100
AcDbEntity
  8
03__ASM_ALL_CURVES
100
AcDbLine
 62
4
  6
CONTINUOUS
 10
5.2640160135
 20
12.1896851862
 11
5.2640160135
 21
12.3699351862
  0
LINE
  5
26E
100
AcDbEntity
  8
03__ASM_ALL_CURVES
100
AcDbLine
 62
4
  6
CONTINUOUS
 10
5.2752816385
 20
13.808893516
 11
5.2752816385
 21
13.7938726862
  0
LINE
  5
26F
100
AcDbEntity
  8
03__ASM_ALL_CURVES
100
AcDbLine
 62
4
  6
CONTINUOUS
 10
5.2865472635
 20
13.7187685214
 11
5.2865472635
 21
13.7037476862
  0
LINE
  5
270
100
AcDbEntity
  8
03__ASM_ALL_CURVES
100
AcDbLine
 62
4
  6
CONTINUOUS
 10
5.3654066385
 20
12.2497685214
 11
5.3654066385
 21
12.3098518565
  0
LINE
  5
271
100
AcDbEntity
  8
03__ASM_ALL_CURVES
100
AcDbLine
 62
4
  6
CONTINUOUS
 10
6.1089378885
 20
13.8389351862
 11
6.0976722635
 21
13.763831016
  0
LINE
  5
272
100
AcDbEntity
  8
03__ASM_ALL_CURVES
100
AcDbLine
 62
4
  6
CONTINUOUS
 10
5.7597035135
 20
12.339893516
 11
5.7484378885
 21
12.294831016
  0
LINE
  5
273
100
AcDbEntity
  8
03__ASM_ALL_CURVES
100
AcDbLine
 62
4
  6
CONTINUOUS
 10
6.4581722635
 20
13.7037476862
 11
6.4469066385
 21
13.6586851862
  0
LINE
  5
274
100
AcDbEntity
  8
03__ASM_ALL_CURVES
100
AcDbLine
 62
4
  6
CONTINUOUS
 10
6.1540003885
 20
12.3098518565
 11
6.1765316385
 21
12.3699351862
  0
LINE
  5
275
100
AcDbEntity
  8
03__ASM_ALL_CURVES
100
AcDbLine
 62
4
  6
CONTINUOUS
 10
6.0075472635
 20
12.2347476862
 11
5.9850160135
 21
12.20470602
  0
LINE
  5
276
100
AcDbEntity
  8
03__ASM_ALL_CURVES
100
AcDbLine
 62
4
  6
CONTINUOUS
 10
6.4469066385
 20
12.339893516
 11
6.4581722635
 21
12.3549143565
  0
LINE
  5
277
100
AcDbEntity
  8
03__ASM_ALL_CURVES
100
AcDbLine
 62
4
  6
CONTINUOUS
 10
6.4356410135
 20
12.2497685214
 11
6.4581722635
 21
12.2798101862
  0
LINE
  5
278
100
AcDbEntity
  8
03__ASM_ALL_CURVES
100
AcDbLine
 62
4
  6
CONTINUOUS
 10
6.5370316385
 20
12.3248726862
 11
6.5257660135
 21
12.3098518565
  0
LINE
  5
279
100
AcDbEntity
  8
03__ASM_ALL_CURVES
100
AcDbLine
 62
4
  6
CONTINUOUS
 10
6.5482972635
 20
12.2347476862
 11
6.5257660135
 21
12.20470602
  0
LINE
  5
27A
100
AcDbEntity
  8
03__ASM_ALL_CURVES
100
AcDbLine
 62
4
  6
CONTINUOUS
 10
6.6271566385
 20
12.339893516
 11
6.6384222635
 21
12.3549143565
  0
LINE
  5
27B
100
AcDbEntity
  8
03__ASM_ALL_CURVES
100
AcDbLine
 62
4
  6
CONTINUOUS
 10
5.4330003885
 20
12.20470602
 11
5.4104691385
 21
12.1896851862
  0
LINE
  5
27C
100
AcDbEntity
  8
03__ASM_ALL_CURVES
100
AcDbLine
 62
4
  6
CONTINUOUS
 10
5.9174222635
 20
12.3549143565
 11
5.9399535135
 21
12.3699351862
  0
LINE
  5
27D
100
AcDbEntity
  8
03__ASM_ALL_CURVES
100
AcDbLine
 62
4
  6
CONTINUOUS
 10
5.9174222635
 20
12.2798101862
 11
5.9399535135
 21
12.294831016
  0
LINE
  5
27E
100
AcDbEntity
  8
03__ASM_ALL_CURVES
100
AcDbLine
 62
4
  6
CONTINUOUS
 10
5.9850160135
 20
12.3098518565
 11
5.9624847635
 21
12.294831016
  0
LINE
  5
27F
100
AcDbEntity
  8
03__ASM_ALL_CURVES
100
AcDbLine
 62
4
  6
CONTINUOUS
 10
5.9850160135
 20
12.20470602
 11
5.9624847635
 21
12.1896851862
  0
LINE
  5
280
100
AcDbEntity
  8
03__ASM_ALL_CURVES
100
AcDbLine
 62
4
  6
CONTINUOUS
 10
5.3766722635
 20
12.2798101862
 11
5.4104691385
 21
12.294831016
  0
LINE
  5
281
100
AcDbEntity
  8
03__ASM_ALL_CURVES
100
AcDbLine
 62
4
  6
CONTINUOUS
 10
5.5681878885
 20
13.763831016
 11
5.5681878885
 21
13.7337893511
  0
LINE
  5
282
100
AcDbEntity
  8
03__ASM_ALL_CURVES
100
AcDbLine
 62
4
  6
CONTINUOUS
 10
5.7484378885
 20
12.294831016
 11
5.7484378885
 21
12.2647893511
  0
LINE
  5
283
100
AcDbEntity
  8
03__ASM_ALL_CURVES
100
AcDbLine
 62
4
  6
CONTINUOUS
 10
5.7709691385
 20
13.8389351862
 11
5.7709691385
 21
13.6586851862
  0
LINE
  5
284
100
AcDbEntity
  8
03__ASM_ALL_CURVES
100
AcDbLine
 62
4
  6
CONTINUOUS
 10
5.8948910135
 20
12.2347476862
 11
5.8948910135
 21
12.2497685214
  0
LINE
  5
285
100
AcDbEntity
  8
03__ASM_ALL_CURVES
100
AcDbLine
 62
4
  6
CONTINUOUS
 10
5.9061566385
 20
12.3248726862
 11
5.9061566385
 21
12.339893516
  0
LINE
  5
286
100
AcDbEntity
  8
03__ASM_ALL_CURVES
100
AcDbLine
 62
4
  6
CONTINUOUS
 10
6.1314691385
 20
12.1896851862
 11
6.1427347635
 21
12.2647893511
  0
LINE
  5
287
100
AcDbEntity
  8
03__ASM_ALL_CURVES
100
AcDbLine
 62
4
  6
CONTINUOUS
 10
6.1427347635
 20
12.2647893511
 11
6.1540003885
 21
12.3098518565
  0
LINE
  5
288
100
AcDbEntity
  8
03__ASM_ALL_CURVES
100
AcDbLine
 62
4
  6
CONTINUOUS
 10
6.6384222635
 20
13.7037476862
 11
6.6271566385
 21
13.6586851862
  0
LINE
  5
289
100
AcDbEntity
  8
03__ASM_ALL_CURVES
100
AcDbLine
 62
4
  6
CONTINUOUS
 10
6.8750003885
 20
13.7337893511
 11
6.8637347635
 21
13.6887268538
  0
LINE
  5
28A
100
AcDbEntity
  8
03__ASM_ALL_CURVES
100
AcDbLine
 62
4
  6
CONTINUOUS
 10
6.6158910135
 20
12.2497685214
 11
6.6384222635
 21
12.2798101862
  0
LINE
  5
28B
100
AcDbEntity
  8
03__ASM_ALL_CURVES
100
AcDbLine
 62
4
  6
CONTINUOUS
 10
6.7172816385
 20
12.3248726862
 11
6.7060160135
 21
12.3098518565
  0
LINE
  5
28C
100
AcDbEntity
  8
03__ASM_ALL_CURVES
100
AcDbLine
 62
4
  6
CONTINUOUS
 10
6.7285472635
 20
12.2347476862
 11
6.7060160135
 21
12.20470602
  0
LINE
  5
28D
100
AcDbEntity
  8
03__ASM_ALL_CURVES
100
AcDbLine
 62
4
  6
CONTINUOUS
 10
6.8637347635
 20
12.2197268538
 11
6.8412035135
 21
12.1896851862
  0
LINE
  5
28E
100
AcDbEntity
  8
03__ASM_ALL_CURVES
100
AcDbLine
 62
4
  6
CONTINUOUS
 10
6.4581722635
 20
12.3549143565
 11
6.4807035135
 21
12.3699351862
  0
LINE
  5
28F
100
AcDbEntity
  8
03__ASM_ALL_CURVES
100
AcDbLine
 62
4
  6
CONTINUOUS
 10
6.4581722635
 20
12.2798101862
 11
6.4807035135
 21
12.294831016
  0
LINE
  5
290
100
AcDbEntity
  8
03__ASM_ALL_CURVES
100
AcDbLine
 62
4
  6
CONTINUOUS
 10
6.5257660135
 20
12.3098518565
 11
6.5032347635
 21
12.294831016
  0
LINE
  5
291
100
AcDbEntity
  8
03__ASM_ALL_CURVES
100
AcDbLine
 62
4
  6
CONTINUOUS
 10
6.6384222635
 20
12.3549143565
 11
6.6609535135
 21
12.3699351862
  0
LINE
  5
292
100
AcDbEntity
  8
03__ASM_ALL_CURVES
100
AcDbLine
 62
4
  6
CONTINUOUS
 10
6.5257660135
 20
12.20470602
 11
6.5032347635
 21
12.1896851862
  0
LINE
  5
293
100
AcDbEntity
  8
03__ASM_ALL_CURVES
100
AcDbLine
 62
4
  6
CONTINUOUS
 10
6.6384222635
 20
12.2798101862
 11
6.6609535135
 21
12.294831016
  0
LINE
  5
294
100
AcDbEntity
  8
03__ASM_ALL_CURVES
100
AcDbLine
 62
4
  6
CONTINUOUS
 10
6.7060160135
 20
12.3098518565
 11
6.6834847635
 21
12.294831016
  0
LINE
  5
295
100
AcDbEntity
  8
03__ASM_ALL_CURVES
100
AcDbLine
 62
4
  6
CONTINUOUS
 10
6.7060160135
 20
12.20470602
 11
6.6834847635
 21
12.1896851862
  0
LINE
  5
296
100
AcDbEntity
  8
03__ASM_ALL_CURVES
100
AcDbLine
 62
4
  6
CONTINUOUS
 10
15.5432149736
 20
5.8141539362
 11
15.5882774709
 21
5.8254195612
  0
LINE
  5
297
100
AcDbEntity
  8
03__ASM_ALL_CURVES
100
AcDbLine
 62
4
  6
CONTINUOUS
 10
5.9962816385
 20
13.808893516
 11
5.9962816385
 21
13.7788518565
  0
LINE
  5
298
100
AcDbEntity
  8
03__ASM_ALL_CURVES
100
AcDbLine
 62
4
  6
CONTINUOUS
 10
5.9962816385
 20
12.339893516
 11
5.9962816385
 21
12.3248726862
  0
LINE
  5
299
100
AcDbEntity
  8
03__ASM_ALL_CURVES
100
AcDbLine
 62
4
  6
CONTINUOUS
 10
6.0075472635
 20
12.2497685214
 11
6.0075472635
 21
12.2347476862
  0
LINE
  5
29A
100
AcDbEntity
  8
03__ASM_ALL_CURVES
100
AcDbLine
 62
4
  6
CONTINUOUS
 10
6.339883201
 20
12.1896851862
 11
6.339883201
 21
12.2122164369
  0
LINE
  5
29B
100
AcDbEntity
  8
03__ASM_ALL_CURVES
100
AcDbLine
 62
4
  6
CONTINUOUS
 10
6.339883201
 20
13.6586851862
 11
6.339883201
 21
13.6812164369
  0
LINE
  5
29C
100
AcDbEntity
  8
03__ASM_ALL_CURVES
100
AcDbLine
 62
4
  6
CONTINUOUS
 10
6.4356410135
 20
12.2347476862
 11
6.4356410135
 21
12.2497685214
  0
LINE
  5
29D
100
AcDbEntity
  8
03__ASM_ALL_CURVES
100
AcDbLine
 62
4
  6
CONTINUOUS
 10
6.4469066385
 20
12.3248726862
 11
6.4469066385
 21
12.339893516
  0
LINE
  5
29E
100
AcDbEntity
  8
03__ASM_ALL_CURVES
100
AcDbLine
 62
4
  6
CONTINUOUS
 10
6.8750003885
 20
12.2647893511
 11
6.8637347635
 21
12.2197268538
  0
LINE
  5
29F
100
AcDbEntity
  8
03__ASM_ALL_CURVES
100
AcDbLine
 62
4
  6
CONTINUOUS
 10
15.8552149736
 20
6.5351539362
 11
15.9002774709
 21
6.5464195612
  0
LINE
  5
2A0
100
AcDbEntity
  8
03__ASM_ALL_CURVES
100
AcDbLine
 62
4
  6
CONTINUOUS
 10
15.5582358034
 20
4.8903726862
 11
15.4981524682
 21
4.8903726862
  0
LINE
  5
2A1
100
AcDbEntity
  8
03__ASM_ALL_CURVES
100
AcDbLine
 62
4
  6
CONTINUOUS
 10
15.6183191385
 20
5.1438492487
 11
15.5957878878
 21
5.1438492487
  0
LINE
  5
2A2
100
AcDbEntity
  8
03__ASM_ALL_CURVES
100
AcDbLine
 62
4
  6
CONTINUOUS
 10
15.6183191385
 20
5.3297320612
 11
15.4380691385
 21
5.3297320612
  0
LINE
  5
2A3
100
AcDbEntity
  8
03__ASM_ALL_CURVES
100
AcDbLine
 62
4
  6
CONTINUOUS
 10
8.1851524682
 20
5.7916226862
 11
8.1551108087
 21
5.8028883112
  0
LINE
  5
2A4
100
AcDbEntity
  8
03__ASM_ALL_CURVES
100
AcDbLine
 62
4
  6
CONTINUOUS
 10
8.1551108087
 20
5.8028883112
 11
8.1400899682
 21
5.8141539362
  0
LINE
  5
2A5
100
AcDbEntity
  8
03__ASM_ALL_CURVES
100
AcDbLine
 62
4
  6
CONTINUOUS
 10
8.2752774709
 20
5.8704820612
 11
8.2902983047
 21
5.8592164362
  0
LINE
  5
2A6
100
AcDbEntity
  8
03__ASM_ALL_CURVES
100
AcDbLine
 62
4
  6
CONTINUOUS
 10
6.5370316385
 20
13.808893516
 11
6.5370316385
 21
13.7788518565
  0
LINE
  5
2A7
100
AcDbEntity
  8
03__ASM_ALL_CURVES
100
AcDbLine
 62
4
  6
CONTINUOUS
 10
6.5370316385
 20
12.339893516
 11
6.5370316385
 21
12.3248726862
  0
LINE
  5
2A8
100
AcDbEntity
  8
03__ASM_ALL_CURVES
100
AcDbLine
 62
4
  6
CONTINUOUS
 10
6.5482972635
 20
12.2497685214
 11
6.5482972635
 21
12.2347476862
  0
LINE
  5
2A9
100
AcDbEntity
  8
03__ASM_ALL_CURVES
100
AcDbLine
 62
4
  6
CONTINUOUS
 10
6.6158910135
 20
12.2347476862
 11
6.6158910135
 21
12.2497685214
  0
LINE
  5
2AA
100
AcDbEntity
  8
03__ASM_ALL_CURVES
100
AcDbLine
 62
4
  6
CONTINUOUS
 10
6.6271566385
 20
12.3248726862
 11
6.6271566385
 21
12.339893516
  0
LINE
  5
2AB
100
AcDbEntity
  8
03__ASM_ALL_CURVES
100
AcDbLine
 62
4
  6
CONTINUOUS
 10
6.7172816385
 20
13.808893516
 11
6.7172816385
 21
13.7788518565
  0
LINE
  5
2AC
100
AcDbEntity
  8
03__ASM_ALL_CURVES
100
AcDbLine
 62
4
  6
CONTINUOUS
 10
6.7172816385
 20
12.339893516
 11
6.7172816385
 21
12.3248726862
  0
LINE
  5
2AD
100
AcDbEntity
  8
03__ASM_ALL_CURVES
100
AcDbLine
 62
4
  6
CONTINUOUS
 10
6.7285472635
 20
12.2497685214
 11
6.7285472635
 21
12.2347476862
  0
LINE
  5
2AE
100
AcDbEntity
  8
03__ASM_ALL_CURVES
100
AcDbLine
 62
4
  6
CONTINUOUS
 10
6.8750003885
 20
13.763831016
 11
6.8750003885
 21
13.7337893511
  0
LINE
  5
2AF
100
AcDbEntity
  8
03__ASM_ALL_CURVES
100
AcDbLine
 62
4
  6
CONTINUOUS
 10
6.8750003885
 20
12.294831016
 11
6.8750003885
 21
12.2647893511
  0
LINE
  5
2B0
100
AcDbEntity
  8
03__ASM_ALL_CURVES
100
AcDbLine
 62
4
  6
CONTINUOUS
 10
15.4681108087
 20
5.5212476862
 11
15.4831316385
 21
5.5212476862
  0
LINE
  5
2B1
100
AcDbEntity
  8
03__ASM_ALL_CURVES
100
AcDbLine
 62
4
  6
CONTINUOUS
 10
15.5582358034
 20
5.5325133112
 11
15.5732566385
 21
5.5325133112
  0
LINE
  5
2B2
100
AcDbEntity
  8
03__ASM_ALL_CURVES
100
AcDbLine
 62
4
  6
CONTINUOUS
 10
15.8702358034
 20
5.6113726862
 11
15.8101524682
 21
5.6113726862
  0
LINE
  5
2B3
100
AcDbEntity
  8
03__ASM_ALL_CURVES
100
AcDbLine
 62
4
  6
CONTINUOUS
 10
8.2452358034
 20
5.7916226862
 11
8.1851524682
 21
5.7916226862
  0
LINE
  5
2B4
100
AcDbEntity
  8
03__ASM_ALL_CURVES
100
AcDbLine
 62
4
  6
CONTINUOUS
 10
15.5131733087
 20
5.8141539362
 11
15.5432149736
 21
5.8141539362
  0
LINE
  5
2B5
100
AcDbEntity
  8
03__ASM_ALL_CURVES
100
AcDbLine
 62
4
  6
CONTINUOUS
 10
8.2452358034
 20
5.8817476862
 11
8.2752774709
 21
5.8704820612
  0
LINE
  5
2B6
100
AcDbEntity
  8
03__ASM_ALL_CURVES
100
AcDbLine
 62
4
  6
CONTINUOUS
 10
8.1851524682
 20
6.3999664362
 11
8.1250691385
 21
6.4224976862
  0
LINE
  5
2B7
100
AcDbEntity
  8
03__ASM_ALL_CURVES
100
AcDbLine
 62
4
  6
CONTINUOUS
 10
8.1551108087
 20
6.1521226862
 11
8.1400899682
 21
6.1633883112
  0
LINE
  5
2B8
100
AcDbEntity
  8
03__ASM_ALL_CURVES
100
AcDbLine
 62
4
  6
CONTINUOUS
 10
8.2452358034
 20
6.1408570612
 11
8.2151941385
 21
6.1633883112
  0
LINE
  5
2B9
100
AcDbEntity
  8
03__ASM_ALL_CURVES
100
AcDbLine
 62
4
  6
CONTINUOUS
 10
8.1701316385
 20
6.2422476862
 11
8.1851524682
 21
6.2309820612
  0
LINE
  5
2BA
100
AcDbEntity
  8
03__ASM_ALL_CURVES
100
AcDbLine
 62
4
  6
CONTINUOUS
 10
8.2602566385
 20
6.2535133112
 11
8.2902983047
 21
6.2309820612
  0
LINE
  5
2BB
100
AcDbEntity
  8
03__ASM_ALL_CURVES
100
AcDbLine
 62
4
  6
CONTINUOUS
 10
8.1400899682
 20
5.8141539362
 11
8.1250691385
 21
5.8366851862
  0
LINE
  5
2BC
100
AcDbEntity
  8
03__ASM_ALL_CURVES
100
AcDbLine
 62
4
  6
CONTINUOUS
 10
8.2902983047
 20
5.8592164362
 11
8.3053191385
 21
5.8366851862
  0
LINE
  5
2BD
100
AcDbEntity
  8
03__ASM_ALL_CURVES
100
AcDbLine
 62
4
  6
CONTINUOUS
 10
8.1400899682
 20
6.1633883112
 11
8.1250691385
 21
6.1859195612
  0
LINE
  5
2BE
100
AcDbEntity
  8
03__ASM_ALL_CURVES
100
AcDbLine
 62
4
  6
CONTINUOUS
 10
8.2151941385
 20
6.1633883112
 11
8.2001733087
 21
6.1859195612
  0
LINE
  5
2BF
100
AcDbEntity
  8
03__ASM_ALL_CURVES
100
AcDbLine
 62
4
  6
CONTINUOUS
 10
8.1851524682
 20
6.2309820612
 11
8.2001733087
 21
6.2084508112
  0
LINE
  5
2C0
100
AcDbEntity
  8
03__ASM_ALL_CURVES
100
AcDbLine
 62
4
  6
CONTINUOUS
 10
5.3766722635
 20
12.2197268538
 11
5.3654066385
 21
12.2497685214
  0
LINE
  5
2C1
100
AcDbEntity
  8
03__ASM_ALL_CURVES
100
AcDbLine
 62
4
  6
CONTINUOUS
 10
5.4442660135
 20
12.2798101862
 11
5.4555316385
 21
12.2497685214
  0
LINE
  5
2C2
100
AcDbEntity
  8
03__ASM_ALL_CURVES
100
AcDbLine
 62
4
  6
CONTINUOUS
 10
5.7484378885
 20
12.2647893511
 11
5.7597035135
 21
12.2197268538
  0
LINE
  5
2C3
100
AcDbEntity
  8
03__ASM_ALL_CURVES
100
AcDbLine
 62
4
  6
CONTINUOUS
 10
5.5681878885
 20
13.7337893511
 11
5.5794535135
 21
13.6887268538
  0
LINE
  5
2C4
100
AcDbEntity
  8
03__ASM_ALL_CURVES
100
AcDbLine
 62
4
  6
CONTINUOUS
 10
15.4681108087
 20
7.1097008112
 11
15.5131733087
 21
7.1209664362
  0
LINE
  5
2C5
100
AcDbEntity
  8
03__ASM_ALL_CURVES
100
AcDbLine
 62
4
  6
CONTINUOUS
 10
15.5432149736
 20
7.4364039362
 11
15.5882774709
 21
7.4476695612
  0
LINE
  5
2C6
100
AcDbEntity
  8
03__ASM_ALL_CURVES
100
AcDbLine
 62
4
  6
CONTINUOUS
 10
15.9303191385
 20
5.8648492487
 11
15.9077878878
 21
5.8648492487
  0
LINE
  5
2C7
100
AcDbEntity
  8
03__ASM_ALL_CURVES
100
AcDbLine
 62
4
  6
CONTINUOUS
 10
8.1851524682
 20
5.8817476862
 11
8.2452358034
 21
5.8817476862
  0
LINE
  5
2C8
100
AcDbEntity
  8
03__ASM_ALL_CURVES
100
AcDbLine
 62
4
  6
CONTINUOUS
 10
15.4380691385
 20
6.0169351862
 11
15.6183191385
 21
6.0169351862
  0
LINE
  5
2C9
100
AcDbEntity
  8
03__ASM_ALL_CURVES
100
AcDbLine
 62
4
  6
CONTINUOUS
 10
8.3053191385
 20
6.0450992487
 11
8.2827878878
 21
6.0450992487
  0
LINE
  5
2CA
100
AcDbEntity
  8
03__ASM_ALL_CURVES
100
AcDbLine
 62
4
  6
CONTINUOUS
 10
8.2602566385
 20
6.1408570612
 11
8.2452358034
 21
6.1408570612
  0
LINE
  5
2CB
100
AcDbEntity
  8
03__ASM_ALL_CURVES
100
AcDbLine
 62
4
  6
CONTINUOUS
 10
15.5582358034
 20
6.1521226862
 11
15.4981524682
 21
6.1521226862
  0
LINE
  5
2CC
100
AcDbEntity
  8
03__ASM_ALL_CURVES
100
AcDbLine
 62
4
  6
CONTINUOUS
 10
8.1701316385
 20
6.1521226862
 11
8.1551108087
 21
6.1521226862
  0
LINE
  5
2CD
100
AcDbEntity
  8
03__ASM_ALL_CURVES
100
AcDbLine
 62
4
  6
CONTINUOUS
 10
8.1551108087
 20
6.2422476862
 11
8.1701316385
 21
6.2422476862
  0
LINE
  5
2CE
100
AcDbEntity
  8
03__ASM_ALL_CURVES
100
AcDbLine
 62
4
  6
CONTINUOUS
 10
11.0301108087
 20
6.2422476862
 11
11.0601524682
 21
6.2422476862
  0
LINE
  5
2CF
100
AcDbEntity
  8
03__ASM_ALL_CURVES
100
AcDbLine
 62
4
  6
CONTINUOUS
 10
8.2452358034
 20
6.2535133112
 11
8.2602566385
 21
6.2535133112
  0
LINE
  5
2D0
100
AcDbEntity
  8
03__ASM_ALL_CURVES
100
AcDbLine
 62
4
  6
CONTINUOUS
 10
8.3053191385
 20
6.3774351862
 11
8.2302149736
 21
6.3887008112
  0
LINE
  5
2D1
100
AcDbEntity
  8
03__ASM_ALL_CURVES
100
AcDbLine
 62
4
  6
CONTINUOUS
 10
8.2302149736
 20
6.3887008112
 11
8.1851524682
 21
6.3999664362
  0
LINE
  5
2D2
100
AcDbEntity
  8
03__ASM_ALL_CURVES
100
AcDbLine
 62
4
  6
CONTINUOUS
 10
8.1551108087
 20
6.7266695612
 11
8.2001733087
 21
6.7154039362
  0
LINE
  5
2D3
100
AcDbEntity
  8
03__ASM_ALL_CURVES
100
AcDbLine
 62
4
  6
CONTINUOUS
 10
8.1250691385
 20
6.7492008112
 11
8.1551108087
 21
6.7266695612
  0
LINE
  5
2D4
100
AcDbEntity
  8
03__ASM_ALL_CURVES
100
AcDbLine
 62
4
  6
CONTINUOUS
 10
8.1551108087
 20
6.8731226862
 11
8.1400899682
 21
6.8843883112
  0
LINE
  5
2D5
100
AcDbEntity
  8
03__ASM_ALL_CURVES
100
AcDbLine
 62
4
  6
CONTINUOUS
 10
8.2302149736
 20
6.9069195612
 11
8.2602566385
 21
6.8843883112
  0
LINE
  5
2D6
100
AcDbEntity
  8
03__ASM_ALL_CURVES
100
AcDbLine
 62
4
  6
CONTINUOUS
 10
8.1851524682
 20
6.9632476862
 11
8.2001733087
 21
6.9519820612
  0
LINE
  5
2D7
100
AcDbEntity
  8
03__ASM_ALL_CURVES
100
AcDbLine
 62
4
  6
CONTINUOUS
 10
8.1551108087
 20
7.0533726862
 11
8.1400899682
 21
7.0646383112
  0
LINE
  5
2D8
100
AcDbEntity
  8
03__ASM_ALL_CURVES
100
AcDbLine
 62
4
  6
CONTINUOUS
 10
8.2302149736
 20
7.0871695612
 11
8.2602566385
 21
7.0646383112
  0
LINE
  5
2D9
100
AcDbEntity
  8
03__ASM_ALL_CURVES
100
AcDbLine
 62
4
  6
CONTINUOUS
 10
8.1851524682
 20
7.1434976862
 11
8.2001733087
 21
7.1322320612
  0
LINE
  5
2DA
100
AcDbEntity
  8
03__ASM_ALL_CURVES
100
AcDbLine
 62
4
  6
CONTINUOUS
 10
8.2902983047
 20
6.2309820612
 11
8.3053191385
 21
6.2084508112
  0
LINE
  5
2DB
100
AcDbEntity
  8
03__ASM_ALL_CURVES
100
AcDbLine
 62
4
  6
CONTINUOUS
 10
8.1400899682
 20
6.8843883112
 11
8.1250691385
 21
6.9069195612
  0
LINE
  5
2DC
100
AcDbEntity
  8
03__ASM_ALL_CURVES
100
AcDbLine
 62
4
  6
CONTINUOUS
 10
8.2001733087
 20
6.9519820612
 11
8.2302149736
 21
6.9069195612
  0
LINE
  5
2DD
100
AcDbEntity
  8
03__ASM_ALL_CURVES
100
AcDbLine
 62
4
  6
CONTINUOUS
 10
8.1400899682
 20
7.0646383112
 11
8.1250691385
 21
7.0871695612
  0
LINE
  5
2DE
100
AcDbEntity
  8
03__ASM_ALL_CURVES
100
AcDbLine
 62
4
  6
CONTINUOUS
 10
8.2001733087
 20
7.1322320612
 11
8.2302149736
 21
7.0871695612
  0
LINE
  5
2DF
100
AcDbEntity
  8
03__ASM_ALL_CURVES
100
AcDbLine
 62
4
  6
CONTINUOUS
 10
5.0161722635
 20
13.7488101862
 11
5.0049066385
 21
13.7788518565
  0
LINE
  5
2E0
100
AcDbEntity
  8
03__ASM_ALL_CURVES
100
AcDbLine
 62
4
  6
CONTINUOUS
 10
5.0837660135
 20
13.808893516
 11
5.0950316385
 21
13.7788518565
  0
LINE
  5
2E1
100
AcDbEntity
  8
03__ASM_ALL_CURVES
100
AcDbLine
 62
4
  6
CONTINUOUS
 10
7.8735066385
 20
8.7807685214
 11
7.8735066385
 21
8.8408518565
  0
LINE
  5
2E2
100
AcDbEntity
  8
0
100
AcDbLine
 62
7
  6
CONTINUOUS
 10
8.2819955818
 20
11.2025136802
 11
8.2151941385
 21
11.0868101862
  0
LINE
  5
2E3
100
AcDbEntity
  8
03__ASM_ALL_CURVES
100
AcDbLine
 62
4
  6
CONTINUOUS
 10
15.7801108087
 20
7.8307008112
 11
15.8251733087
 21
7.8419664362
  0
LINE
  5
2E4
100
AcDbEntity
  8
03__ASM_ALL_CURVES
100
AcDbLine
 62
4
  6
CONTINUOUS
 10
11.1052149736
 20
6.8956539362
 11
11.1502774709
 21
6.9069195612
  0
LINE
  5
2E5
100
AcDbEntity
  8
03__ASM_ALL_CURVES
100
AcDbLine
 62
4
  6
CONTINUOUS
 10
15.4681108087
 20
8.0109508112
 11
15.5131733087
 21
8.0222164362
  0
LINE
  5
2E6
100
AcDbEntity
  8
03__ASM_ALL_CURVES
100
AcDbLine
 62
4
  6
CONTINUOUS
 10
11.1803191385
 20
6.4055992487
 11
11.1577878878
 21
6.4055992487
  0
LINE
  5
2E7
100
AcDbEntity
  8
03__ASM_ALL_CURVES
100
AcDbLine
 62
4
  6
CONTINUOUS
 10
15.4681108087
 20
6.4224976862
 11
15.4831316385
 21
6.4224976862
  0
LINE
  5
2E8
100
AcDbEntity
  8
03__ASM_ALL_CURVES
100
AcDbLine
 62
4
  6
CONTINUOUS
 10
15.5582358034
 20
6.4337633112
 11
15.5732566385
 21
6.4337633112
  0
LINE
  5
2E9
100
AcDbEntity
  8
03__ASM_ALL_CURVES
100
AcDbLine
 62
4
  6
CONTINUOUS
 10
11.1202358034
 20
6.5126226862
 11
11.0601524682
 21
6.5126226862
  0
LINE
  5
2EA
100
AcDbEntity
  8
03__ASM_ALL_CURVES
100
AcDbLine
 62
4
  6
CONTINUOUS
 10
15.8251733087
 20
6.5351539362
 11
15.8552149736
 21
6.5351539362
  0
LINE
  5
2EB
100
AcDbEntity
  8
03__ASM_ALL_CURVES
100
AcDbLine
 62
4
  6
CONTINUOUS
 10
15.6183191385
 20
6.5858492487
 11
15.5957878878
 21
6.5858492487
  0
LINE
  5
2EC
100
AcDbEntity
  8
03__ASM_ALL_CURVES
100
AcDbLine
 62
4
  6
CONTINUOUS
 10
11.0601524682
 20
6.6027476862
 11
11.1202358034
 21
6.6027476862
  0
LINE
  5
2ED
100
AcDbEntity
  8
03__ASM_ALL_CURVES
100
AcDbLine
 62
4
  6
CONTINUOUS
 10
8.2001733087
 20
6.7154039362
 11
8.2302149736
 21
6.7154039362
  0
LINE
  5
2EE
100
AcDbEntity
  8
03__ASM_ALL_CURVES
100
AcDbLine
 62
4
  6
CONTINUOUS
 10
15.7500691385
 20
6.7379351862
 11
15.9303191385
 21
6.7379351862
  0
LINE
  5
2EF
100
AcDbEntity
  8
03__ASM_ALL_CURVES
100
AcDbLine
 62
4
  6
CONTINUOUS
 10
15.4681108087
 20
6.7829976862
 11
15.4831316385
 21
6.7829976862
  0
LINE
  5
2F0
100
AcDbEntity
  8
03__ASM_ALL_CURVES
100
AcDbLine
 62
4
  6
CONTINUOUS
 10
15.5582358034
 20
6.7942633112
 11
15.5732566385
 21
6.7942633112
  0
LINE
  5
2F1
100
AcDbEntity
  8
03__ASM_ALL_CURVES
100
AcDbLine
 62
4
  6
CONTINUOUS
 10
11.1352566385
 20
6.1633883112
 11
11.1803191385
 21
6.1521226862
  0
LINE
  5
2F2
100
AcDbEntity
  8
03__ASM_ALL_CURVES
100
AcDbLine
 62
4
  6
CONTINUOUS
 10
8.2602566385
 20
6.8843883112
 11
8.3053191385
 21
6.8731226862
  0
LINE
  5
2F3
100
AcDbEntity
  8
03__ASM_ALL_CURVES
100
AcDbLine
 62
4
  6
CONTINUOUS
 10
8.2602566385
 20
7.0646383112
 11
8.3053191385
 21
7.0533726862
  0
LINE
  5
2F4
100
AcDbEntity
  8
03__ASM_ALL_CURVES
100
AcDbLine
 62
4
  6
CONTINUOUS
 10
8.1851524682
 20
7.4138726862
 11
8.1551108087
 21
7.4251383112
  0
LINE
  5
2F5
100
AcDbEntity
  8
03__ASM_ALL_CURVES
100
AcDbLine
 62
4
  6
CONTINUOUS
 10
8.1551108087
 20
7.4251383112
 11
8.1400899682
 21
7.4364039362
  0
LINE
  5
2F6
100
AcDbEntity
  8
03__ASM_ALL_CURVES
100
AcDbLine
 62
4
  6
CONTINUOUS
 10
8.2752774709
 20
7.4927320612
 11
8.2902983047
 21
7.4814664362
  0
LINE
  5
2F7
100
AcDbEntity
  8
03__ASM_ALL_CURVES
100
AcDbLine
 62
4
  6
CONTINUOUS
 10
8.1551108087
 20
7.6053883112
 11
8.1400899682
 21
7.6166539362
  0
LINE
  5
2F8
100
AcDbEntity
  8
03__ASM_ALL_CURVES
100
AcDbLine
 62
4
  6
CONTINUOUS
 10
8.2752774709
 20
7.6729820612
 11
8.2902983047
 21
7.6617164362
  0
LINE
  5
2F9
100
AcDbEntity
  8
03__ASM_ALL_CURVES
100
AcDbLine
 62
4
  6
CONTINUOUS
 10
4.8359222635
 20
12.20470602
 11
4.8246566385
 21
12.2197268538
  0
LINE
  5
2FA
100
AcDbEntity
  8
03__ASM_ALL_CURVES
100
AcDbLine
 62
4
  6
CONTINUOUS
 10
4.9035160135
 20
12.2798101862
 11
4.9260472635
 21
12.2497685214
  0
LINE
  5
2FB
100
AcDbEntity
  8
03__ASM_ALL_CURVES
100
AcDbLine
 62
4
  6
CONTINUOUS
 10
4.9035160135
 20
12.3549143565
 11
4.9147816385
 21
12.339893516
  0
LINE
  5
2FC
100
AcDbEntity
  8
03__ASM_ALL_CURVES
100
AcDbLine
 62
4
  6
CONTINUOUS
 10
8.1400899682
 20
7.4364039362
 11
8.1250691385
 21
7.4589351862
  0
LINE
  5
2FD
100
AcDbEntity
  8
03__ASM_ALL_CURVES
100
AcDbLine
 62
4
  6
CONTINUOUS
 10
8.1400899682
 20
7.6166539362
 11
8.1250691385
 21
7.6391851862
  0
LINE
  5
2FE
100
AcDbEntity
  8
03__ASM_ALL_CURVES
100
AcDbLine
 62
4
  6
CONTINUOUS
 10
8.2902983047
 20
7.4814664362
 11
8.3053191385
 21
7.4589351862
  0
LINE
  5
2FF
100
AcDbEntity
  8
03__ASM_ALL_CURVES
100
AcDbLine
 62
4
  6
CONTINUOUS
 10
8.2902983047
 20
7.6617164362
 11
8.3053191385
 21
7.6391851862
  0
LINE
  5
300
100
AcDbEntity
  8
03__ASM_ALL_CURVES
100
AcDbLine
 62
4
  6
CONTINUOUS
 10
8.2151941385
 20
7.6729820612
 11
8.2302149736
 21
7.6391851862
  0
LINE
  5
301
100
AcDbEntity
  8
03__ASM_ALL_CURVES
100
AcDbLine
 62
4
  6
CONTINUOUS
 10
7.8847722635
 20
8.7507268538
 11
7.8735066385
 21
8.7807685214
  0
LINE
  5
302
100
AcDbEntity
  8
03__ASM_ALL_CURVES
100
AcDbLine
 62
4
  6
CONTINUOUS
 10
6.8637347635
 20
12.339893516
 11
6.8750003885
 21
12.294831016
  0
LINE
  5
303
100
AcDbEntity
  8
03__ASM_ALL_CURVES
100
AcDbLine
 62
4
  6
CONTINUOUS
 10
7.9636316385
 20
8.8408518565
 11
7.9636316385
 21
8.7807685214
  0
LINE
  5
304
100
AcDbEntity
  8
03__ASM_ALL_CURVES
100
AcDbLine
 62
4
  6
CONTINUOUS
 10
8.1250691385
 20
6.4224976862
 11
8.1250691385
 21
6.3323726862
  0
LINE
  5
305
100
AcDbEntity
  8
03__ASM_ALL_CURVES
100
AcDbLine
 62
4
  6
CONTINUOUS
 10
8.1250691385
 20
6.1859195612
 11
8.1250691385
 21
6.2084508112
  0
LINE
  5
306
100
AcDbEntity
  8
03__ASM_ALL_CURVES
100
AcDbLine
 62
4
  6
CONTINUOUS
 10
8.1250691385
 20
6.9069195612
 11
8.1250691385
 21
6.9294508112
  0
LINE
  5
307
100
AcDbEntity
  8
03__ASM_ALL_CURVES
100
AcDbLine
 62
4
  6
CONTINUOUS
 10
8.1250691385
 20
7.0871695612
 11
8.1250691385
 21
7.1097008112
  0
LINE
  5
308
100
AcDbEntity
  8
03__ASM_ALL_CURVES
100
AcDbLine
 62
4
  6
CONTINUOUS
 10
8.2001733087
 20
6.1859195612
 11
8.2001733087
 21
6.2084508112
  0
LINE
  5
309
100
AcDbEntity
  8
03__ASM_ALL_CURVES
100
AcDbLine
 62
4
  6
CONTINUOUS
 10
8.2151941385
 20
8.6305601862
 11
8.2151941385
 21
8.0898101862
  0
LINE
  5
30A
100
AcDbEntity
  8
0
100
AcDbLine
 62
7
  6
CONTINUOUS
 10
8.2151941385
 20
9.4728101862
 11
8.2151941385
 21
11.0868101862
  0
LINE
  5
30B
100
AcDbEntity
  8
0
100
AcDbLine
 62
7
  6
CONTINUOUS
 10
8.2821667697
 20
9.3568101862
 11
8.2821667697
 21
9.3572055277
  0
LINE
  5
30C
100
AcDbEntity
  8
0
100
AcDbLine
 62
7
  6
CONTINUOUS
 10
8.2821667697
 20
9.7951148448
 11
8.2821667697
 21
9.8419008691
  0
LINE
  5
30D
100
AcDbEntity
  8
0
100
AcDbLine
 62
7
  6
CONTINUOUS
 10
8.2821667697
 20
10.7177195033
 11
8.2821667697
 21
10.7645055277
  0
LINE
  5
30E
100
AcDbEntity
  8
0
100
AcDbLine
 62
7
  6
CONTINUOUS
 10
8.2821667697
 20
11.2024148448
 11
8.2821667697
 21
11.2028101862
  0
LINE
  5
30F
100
AcDbEntity
  8
03__ASM_ALL_CURVES
100
AcDbLine
 62
4
  6
CONTINUOUS
 10
8.3053191385
 20
7.3237476862
 11
8.3053191385
 21
7.3068492487
  0
LINE
  5
310
100
AcDbEntity
  8
03__ASM_ALL_CURVES
100
AcDbLine
 62
4
  6
CONTINUOUS
 10
8.3053191385
 20
6.2084508112
 11
8.3053191385
 21
6.1859195612
  0
LINE
  5
311
100
AcDbEntity
  8
03__ASM_ALL_CURVES
100
AcDbLine
 62
4
  6
CONTINUOUS
 10
8.3053191385
 20
6.0619976862
 11
8.3053191385
 21
6.0450992487
  0
LINE
  5
312
100
AcDbEntity
  8
03__ASM_ALL_CURVES
100
AcDbLine
 62
4
  6
CONTINUOUS
 10
8.3053191385
 20
6.8731226862
 11
8.3053191385
 21
6.9632476862
  0
LINE
  5
313
100
AcDbEntity
  8
03__ASM_ALL_CURVES
100
AcDbLine
 62
4
  6
CONTINUOUS
 10
8.3053191385
 20
7.0533726862
 11
8.3053191385
 21
7.1434976862
  0
LINE
  5
314
100
AcDbEntity
  8
03__ASM_ALL_CURVES
100
AcDbLine
 62
4
  6
CONTINUOUS
 10
7.8735066385
 20
8.8408518565
 11
7.8847722635
 21
8.870893516
  0
LINE
  5
315
100
AcDbEntity
  8
03__ASM_ALL_CURVES
100
AcDbLine
 62
4
  6
CONTINUOUS
 10
7.9636316385
 20
8.7807685214
 11
7.9523660135
 21
8.7507268538
  0
LINE
  5
316
100
AcDbEntity
  8
03__ASM_ALL_CURVES
100
AcDbLine
 62
4
  6
CONTINUOUS
 10
8.2302149736
 20
6.7154039362
 11
8.2752774709
 21
6.7266695612
  0
LINE
  5
317
100
AcDbEntity
  8
03__ASM_ALL_CURVES
100
AcDbLine
 62
4
  6
CONTINUOUS
 10
11.0751733087
 20
6.8956539362
 11
11.1052149736
 21
6.8956539362
  0
LINE
  5
318
100
AcDbEntity
  8
03__ASM_ALL_CURVES
100
AcDbLine
 62
4
  6
CONTINUOUS
 10
8.1551108087
 20
6.9632476862
 11
8.1851524682
 21
6.9632476862
  0
LINE
  5
319
100
AcDbEntity
  8
03__ASM_ALL_CURVES
100
AcDbLine
 62
4
  6
CONTINUOUS
 10
15.4681108087
 20
6.9632476862
 11
15.4981524682
 21
6.9632476862
  0
LINE
  5
31A
100
AcDbEntity
  8
03__ASM_ALL_CURVES
100
AcDbLine
 62
4
  6
CONTINUOUS
 10
15.7500691385
 20
7.0984351862
 11
15.9303191385
 21
7.0984351862
  0
LINE
  5
31B
100
AcDbEntity
  8
03__ASM_ALL_CURVES
100
AcDbLine
 62
4
  6
CONTINUOUS
 10
15.5131733087
 20
7.1209664362
 11
15.5432149736
 21
7.1209664362
  0
LINE
  5
31C
100
AcDbEntity
  8
03__ASM_ALL_CURVES
100
AcDbLine
 62
4
  6
CONTINUOUS
 10
8.1551108087
 20
7.1434976862
 11
8.1851524682
 21
7.1434976862
  0
LINE
  5
31D
100
AcDbEntity
  8
03__ASM_ALL_CURVES
100
AcDbLine
 62
4
  6
CONTINUOUS
 10
11.1202358034
 20
7.2336226862
 11
11.0601524682
 21
7.2336226862
  0
LINE
  5
31E
100
AcDbEntity
  8
03__ASM_ALL_CURVES
100
AcDbLine
 62
4
  6
CONTINUOUS
 10
15.9303191385
 20
7.3068492487
 11
15.9077878878
 21
7.3068492487
  0
LINE
  5
31F
100
AcDbEntity
  8
03__ASM_ALL_CURVES
100
AcDbLine
 62
4
  6
CONTINUOUS
 10
8.3053191385
 20
7.3068492487
 11
8.2827878878
 21
7.3068492487
  0
LINE
  5
320
100
AcDbEntity
  8
03__ASM_ALL_CURVES
100
AcDbLine
 62
4
  6
CONTINUOUS
 10
15.9303191385
 20
6.0169351862
 11
15.8552149736
 21
6.0282008112
  0
LINE
  5
321
100
AcDbEntity
  8
03__ASM_ALL_CURVES
100
AcDbLine
 62
4
  6
CONTINUOUS
 10
15.7500691385
 20
6.1746539362
 11
15.8251733087
 21
6.1633883112
  0
LINE
  5
322
100
AcDbEntity
  8
03__ASM_ALL_CURVES
100
AcDbLine
 62
4
  6
CONTINUOUS
 10
11.0000691385
 20
7.0759039362
 11
11.0751733087
 21
7.0646383112
  0
LINE
  5
323
100
AcDbEntity
  8
03__ASM_ALL_CURVES
100
AcDbLine
 62
4
  6
CONTINUOUS
 10
11.0301108087
 20
6.9069195612
 11
11.0751733087
 21
6.8956539362
  0
LINE
  5
324
100
AcDbEntity
  8
03__ASM_ALL_CURVES
100
AcDbLine
 62
4
  6
CONTINUOUS
 10
15.4681108087
 20
5.8254195612
 11
15.5131733087
 21
5.8141539362
  0
LINE
  5
325
100
AcDbEntity
  8
03__ASM_ALL_CURVES
100
AcDbLine
 62
4
  6
CONTINUOUS
 10
8.2452358034
 20
7.5039976862
 11
8.2752774709
 21
7.4927320612
  0
LINE
  5
326
100
AcDbEntity
  8
03__ASM_ALL_CURVES
100
AcDbLine
 62
4
  6
CONTINUOUS
 10
11.0601524682
 20
6.5126226862
 11
11.0301108087
 21
6.5238883112
  0
LINE
  5
327
100
AcDbEntity
  8
03__ASM_ALL_CURVES
100
AcDbLine
 62
4
  6
CONTINUOUS
 10
8.1851524682
 20
7.5941226862
 11
8.1551108087
 21
7.6053883112
  0
LINE
  5
328
100
AcDbEntity
  8
03__ASM_ALL_CURVES
100
AcDbLine
 62
4
  6
CONTINUOUS
 10
15.4981524682
 20
4.8903726862
 11
15.4681108087
 21
4.9016383112
  0
LINE
  5
329
100
AcDbEntity
  8
03__ASM_ALL_CURVES
100
AcDbLine
 62
4
  6
CONTINUOUS
 10
15.5582358034
 20
4.8903726862
 11
15.5281941385
 21
4.9016383112
  0
LINE
  5
32A
100
AcDbEntity
  8
03__ASM_ALL_CURVES
100
AcDbLine
 62
4
  6
CONTINUOUS
 10
8.1851524682
 20
7.6842476862
 11
8.2151941385
 21
7.6729820612
  0
LINE
  5
32B
100
AcDbEntity
  8
03__ASM_ALL_CURVES
100
AcDbLine
 62
4
  6
CONTINUOUS
 10
11.1202358034
 20
6.6027476862
 11
11.1502774709
 21
6.5914820612
  0
LINE
  5
32C
100
AcDbEntity
  8
03__ASM_ALL_CURVES
100
AcDbLine
 62
4
  6
CONTINUOUS
 10
8.2452358034
 20
7.6842476862
 11
8.2752774709
 21
7.6729820612
  0
LINE
  5
32D
100
AcDbEntity
  8
03__ASM_ALL_CURVES
100
AcDbLine
 62
4
  6
CONTINUOUS
 10
15.5582358034
 20
4.9804976862
 11
15.5882774709
 21
4.9692320612
  0
LINE
  5
32E
100
AcDbEntity
  8
03__ASM_ALL_CURVES
100
AcDbLine
 62
4
  6
CONTINUOUS
 10
9.0601524682
 20
7.5941226862
 11
9.0301108087
 21
7.6053883112
  0
LINE
  5
32F
100
AcDbEntity
  8
03__ASM_ALL_CURVES
100
AcDbLine
 62
4
  6
CONTINUOUS
 10
8.2752774709
 20
7.8307008112
 11
8.3053191385
 21
7.8081695612
  0
LINE
  5
330
100
AcDbEntity
  8
03__ASM_ALL_CURVES
100
AcDbLine
 62
4
  6
CONTINUOUS
 10
9.0301108087
 20
7.6053883112
 11
9.0150899682
 21
7.6166539362
  0
LINE
  5
331
100
AcDbEntity
  8
03__ASM_ALL_CURVES
100
AcDbLine
 62
4
  6
CONTINUOUS
 10
11.0301108087
 20
6.1521226862
 11
11.0150899682
 21
6.1633883112
  0
LINE
  5
332
100
AcDbEntity
  8
03__ASM_ALL_CURVES
100
AcDbLine
 62
4
  6
CONTINUOUS
 10
11.1052149736
 20
6.1859195612
 11
11.1352566385
 21
6.1633883112
  0
LINE
  5
333
100
AcDbEntity
  8
03__ASM_ALL_CURVES
100
AcDbLine
 62
4
  6
CONTINUOUS
 10
9.1502774709
 20
7.6729820612
 11
9.1652983047
 21
7.6617164362
  0
LINE
  5
334
100
AcDbEntity
  8
03__ASM_ALL_CURVES
100
AcDbLine
 62
4
  6
CONTINUOUS
 10
11.0601524682
 20
6.2422476862
 11
11.0751733087
 21
6.2309820612
  0
LINE
  5
335
100
AcDbEntity
  8
03__ASM_ALL_CURVES
100
AcDbLine
 62
4
  6
CONTINUOUS
 10
5.078133201
 20
12.2122164369
 11
5.0950316385
 21
12.1896851862
  0
LINE
  5
336
100
AcDbEntity
  8
03__ASM_ALL_CURVES
100
AcDbLine
 62
4
  6
CONTINUOUS
 10
7.8960378885
 20
8.73570602
 11
7.8847722635
 21
8.7507268538
  0
LINE
  5
337
100
AcDbEntity
  8
03__ASM_ALL_CURVES
100
AcDbLine
 62
4
  6
CONTINUOUS
 10
5.3879378885
 20
12.20470602
 11
5.3766722635
 21
12.2197268538
  0
LINE
  5
338
100
AcDbEntity
  8
03__ASM_ALL_CURVES
100
AcDbLine
 62
4
  6
CONTINUOUS
 10
7.9411003885
 20
8.8859143565
 11
7.9523660135
 21
8.870893516
  0
LINE
  5
339
100
AcDbEntity
  8
03__ASM_ALL_CURVES
100
AcDbLine
 62
4
  6
CONTINUOUS
 10
5.4330003885
 20
12.3549143565
 11
5.4442660135
 21
12.339893516
  0
LINE
  5
33A
100
AcDbEntity
  8
03__ASM_ALL_CURVES
100
AcDbLine
 62
4
  6
CONTINUOUS
 10
9.0150899682
 20
7.6166539362
 11
9.0000691385
 21
7.6391851862
  0
LINE
  5
33B
100
AcDbEntity
  8
03__ASM_ALL_CURVES
100
AcDbLine
 62
4
  6
CONTINUOUS
 10
7.9523660135
 20
8.870893516
 11
7.9636316385
 21
8.8408518565
  0
LINE
  5
33C
100
AcDbEntity
  8
03__ASM_ALL_CURVES
100
AcDbLine
 62
4
  6
CONTINUOUS
 10
6.1765316385
 20
13.7488101862
 11
6.1877972635
 21
13.7187685214
  0
LINE
  5
33D
100
AcDbEntity
  8
03__ASM_ALL_CURVES
100
AcDbLine
 62
4
  6
CONTINUOUS
 10
6.8637347635
 20
13.808893516
 11
6.8750003885
 21
13.763831016
  0
LINE
  5
33E
100
AcDbEntity
  8
03__ASM_ALL_CURVES
100
AcDbLine
 62
4
  6
CONTINUOUS
 10
7.8847722635
 20
8.870893516
 11
7.8960378885
 21
8.8859143565
  0
LINE
  5
33F
100
AcDbEntity
  8
03__ASM_ALL_CURVES
100
AcDbLine
 62
4
  6
CONTINUOUS
 10
7.9523660135
 20
8.7507268538
 11
7.9411003885
 21
8.73570602
  0
LINE
  5
340
100
AcDbEntity
  8
03__ASM_ALL_CURVES
100
AcDbLine
 62
4
  6
CONTINUOUS
 10
11.0301108087
 20
7.8307008112
 11
11.0751733087
 21
7.8419664362
  0
LINE
  5
341
100
AcDbEntity
  8
03__ASM_ALL_CURVES
100
AcDbLine
 62
4
  6
CONTINUOUS
 10
11.0601524682
 20
7.3237476862
 11
11.1202358034
 21
7.3237476862
  0
LINE
  5
342
100
AcDbEntity
  8
03__ASM_ALL_CURVES
100
AcDbLine
 62
4
  6
CONTINUOUS
 10
8.2452358034
 20
7.4138726862
 11
8.1851524682
 21
7.4138726862
  0
LINE
  5
343
100
AcDbEntity
  8
03__ASM_ALL_CURVES
100
AcDbLine
 62
4
  6
CONTINUOUS
 10
15.5131733087
 20
7.4364039362
 11
15.5432149736
 21
7.4364039362
  0
LINE
  5
344
100
AcDbEntity
  8
03__ASM_ALL_CURVES
100
AcDbLine
 62
4
  6
CONTINUOUS
 10
11.1803191385
 20
7.4870992487
 11
11.1577878878
 21
7.4870992487
  0
LINE
  5
345
100
AcDbEntity
  8
03__ASM_ALL_CURVES
100
AcDbLine
 62
4
  6
CONTINUOUS
 10
15.9303191385
 20
7.4927320612
 11
15.7500691385
 21
7.4927320612
  0
LINE
  5
346
100
AcDbEntity
  8
03__ASM_ALL_CURVES
100
AcDbLine
 62
4
  6
CONTINUOUS
 10
8.1851524682
 20
7.5039976862
 11
8.2452358034
 21
7.5039976862
  0
LINE
  5
347
100
AcDbEntity
  8
03__ASM_ALL_CURVES
100
AcDbLine
 62
4
  6
CONTINUOUS
 10
11.1352566385
 20
7.5828570612
 11
11.1202358034
 21
7.5828570612
  0
LINE
  5
348
100
AcDbEntity
  8
03__ASM_ALL_CURVES
100
AcDbLine
 62
4
  6
CONTINUOUS
 10
11.0451316385
 20
7.5941226862
 11
11.0301108087
 21
7.5941226862
  0
LINE
  5
349
100
AcDbEntity
  8
03__ASM_ALL_CURVES
100
AcDbLine
 62
4
  6
CONTINUOUS
 10
9.1202358034
 20
7.5941226862
 11
9.0601524682
 21
7.5941226862
  0
LINE
  5
34A
100
AcDbEntity
  8
03__ASM_ALL_CURVES
100
AcDbLine
 62
4
  6
CONTINUOUS
 10
15.4380691385
 20
7.5941226862
 11
15.6183191385
 21
7.5941226862
  0
LINE
  5
34B
100
AcDbEntity
  8
03__ASM_ALL_CURVES
100
AcDbLine
 62
4
  6
CONTINUOUS
 10
8.1851524682
 20
7.6842476862
 11
8.2452358034
 21
7.6842476862
  0
LINE
  5
34C
100
AcDbEntity
  8
03__ASM_ALL_CURVES
100
AcDbLine
 62
4
  6
CONTINUOUS
 10
9.0601524682
 20
7.6842476862
 11
9.1202358034
 21
7.6842476862
  0
LINE
  5
34D
100
AcDbEntity
  8
03__ASM_ALL_CURVES
100
AcDbLine
 62
4
  6
CONTINUOUS
 10
11.0301108087
 20
7.6842476862
 11
11.0451316385
 21
7.6842476862
  0
LINE
  5
34E
100
AcDbEntity
  8
03__ASM_ALL_CURVES
100
AcDbLine
 62
4
  6
CONTINUOUS
 10
11.1202358034
 20
7.6955133112
 11
11.1352566385
 21
7.6955133112
  0
LINE
  5
34F
100
AcDbEntity
  8
03__ASM_ALL_CURVES
100
AcDbLine
 62
4
  6
CONTINUOUS
 10
15.4681108087
 20
7.7743726862
 11
15.4831316385
 21
7.7743726862
  0
LINE
  5
350
100
AcDbEntity
  8
03__ASM_ALL_CURVES
100
AcDbLine
 62
4
  6
CONTINUOUS
 10
15.9303191385
 20
6.9181851862
 11
15.8552149736
 21
6.9294508112
  0
LINE
  5
351
100
AcDbEntity
  8
03__ASM_ALL_CURVES
100
AcDbLine
 62
4
  6
CONTINUOUS
 10
8.2302149736
 20
7.8419664362
 11
8.2752774709
 21
7.8307008112
  0
LINE
  5
352
100
AcDbEntity
  8
03__ASM_ALL_CURVES
100
AcDbLine
 62
4
  6
CONTINUOUS
 10
15.8552149736
 20
6.0282008112
 11
15.8101524682
 21
6.0394664362
  0
LINE
  5
353
100
AcDbEntity
  8
03__ASM_ALL_CURVES
100
AcDbLine
 62
4
  6
CONTINUOUS
 10
9.1202358034
 20
7.6842476862
 11
9.1502774709
 21
7.6729820612
  0
LINE
  5
354
100
AcDbEntity
  8
03__ASM_ALL_CURVES
100
AcDbLine
 62
4
  6
CONTINUOUS
 10
11.1202358034
 20
7.1547633112
 11
11.1502774709
 21
7.1434976862
  0
LINE
  5
355
100
AcDbEntity
  8
03__ASM_ALL_CURVES
100
AcDbLine
 62
4
  6
CONTINUOUS
 10
11.0601524682
 20
7.2336226862
 11
11.0301108087
 21
7.2448883112
  0
LINE
  5
356
100
AcDbEntity
  8
03__ASM_ALL_CURVES
100
AcDbLine
 62
4
  6
CONTINUOUS
 10
11.1202358034
 20
7.3237476862
 11
11.1502774709
 21
7.3124820612
  0
LINE
  5
357
100
AcDbEntity
  8
03__ASM_ALL_CURVES
100
AcDbLine
 62
4
  6
CONTINUOUS
 10
15.8101524682
 20
5.6113726862
 11
15.7801108087
 21
5.6226383112
  0
LINE
  5
358
100
AcDbEntity
  8
03__ASM_ALL_CURVES
100
AcDbLine
 62
4
  6
CONTINUOUS
 10
7.9185691385
 20
8.7206851862
 11
7.8960378885
 21
8.73570602
  0
LINE
  5
359
100
AcDbEntity
  8
03__ASM_ALL_CURVES
100
AcDbLine
 62
4
  6
CONTINUOUS
 10
7.9185691385
 20
8.9009351862
 11
7.9411003885
 21
8.8859143565
  0
LINE
  5
35A
100
AcDbEntity
  8
03__ASM_ALL_CURVES
100
AcDbLine
 62
4
  6
CONTINUOUS
 10
11.0301108087
 20
6.5238883112
 11
11.0150899682
 21
6.5351539362
  0
LINE
  5
35B
100
AcDbEntity
  8
03__ASM_ALL_CURVES
100
AcDbLine
 62
4
  6
CONTINUOUS
 10
11.1502774709
 20
6.5914820612
 11
11.1652983047
 21
6.5802164362
  0
LINE
  5
35C
100
AcDbEntity
  8
03__ASM_ALL_CURVES
100
AcDbLine
 62
4
  6
CONTINUOUS
 10
5.7597035135
 20
12.2197268538
 11
5.7822347635
 21
12.1896851862
  0
LINE
  5
35D
100
AcDbEntity
  8
03__ASM_ALL_CURVES
100
AcDbLine
 62
4
  6
CONTINUOUS
 10
5.9174222635
 20
12.20470602
 11
5.8948910135
 21
12.2347476862
  0
LINE
  5
35E
100
AcDbEntity
  8
03__ASM_ALL_CURVES
100
AcDbLine
 62
4
  6
CONTINUOUS
 10
5.9174222635
 20
12.3098518565
 11
5.9061566385
 21
12.3248726862
  0
LINE
  5
35F
100
AcDbEntity
  8
03__ASM_ALL_CURVES
100
AcDbLine
 62
4
  6
CONTINUOUS
 10
4.897883201
 20
13.6812164369
 11
4.9147816385
 21
13.6586851862
  0
LINE
  5
360
100
AcDbEntity
  8
03__ASM_ALL_CURVES
100
AcDbLine
 62
4
  6
CONTINUOUS
 10
5.9850160135
 20
12.2798101862
 11
6.0075472635
 21
12.2497685214
  0
LINE
  5
361
100
AcDbEntity
  8
03__ASM_ALL_CURVES
100
AcDbLine
 62
4
  6
CONTINUOUS
 10
5.9850160135
 20
12.3549143565
 11
5.9962816385
 21
12.339893516
  0
LINE
  5
362
100
AcDbEntity
  8
03__ASM_ALL_CURVES
100
AcDbLine
 62
4
  6
CONTINUOUS
 10
5.0274378885
 20
13.67370602
 11
5.0161722635
 21
13.6887268538
  0
LINE
  5
363
100
AcDbEntity
  8
03__ASM_ALL_CURVES
100
AcDbLine
 62
4
  6
CONTINUOUS
 10
9.1652983047
 20
7.6617164362
 11
9.1803191385
 21
7.6391851862
  0
LINE
  5
364
100
AcDbEntity
  8
0
100
AcDbLine
 62
7
  6
CONTINUOUS
 10
8.2819955818
 20
9.3571066923
 11
8.2151941385
 21
9.4728101862
  0
LINE
  5
365
100
AcDbEntity
  8
03__ASM_ALL_CURVES
100
AcDbLine
 62
4
  6
CONTINUOUS
 10
9.0901941385
 20
8.6305601862
 11
9.0901941385
 21
8.0898101862
  0
LINE
  5
366
100
AcDbEntity
  8
0
100
AcDbLine
 62
7
  6
CONTINUOUS
 10
9.0901941385
 20
8.8108101862
 11
9.0901941385
 21
13.7488103884
  0
LINE
  5
367
100
AcDbEntity
  8
03__ASM_ALL_CURVES
100
AcDbLine
 62
4
  6
CONTINUOUS
 10
8.2302149736
 20
7.6391851862
 11
8.2151941385
 21
7.6053883112
  0
LINE
  5
368
100
AcDbEntity
  8
03__ASM_ALL_CURVES
100
AcDbLine
 62
4
  6
CONTINUOUS
 10
8.1250691385
 20
7.6391851862
 11
8.1400899682
 21
7.6617164362
  0
LINE
  5
369
100
AcDbEntity
  8
03__ASM_ALL_CURVES
100
AcDbLine
 62
4
  6
CONTINUOUS
 10
11.5481941391
 20
11.7358101862
 11
11.5881941385
 21
11.7658101862
  0
LINE
  5
36A
100
AcDbEntity
  8
03__ASM_ALL_CURVES
100
AcDbLine
 62
4
  6
CONTINUOUS
 10
11.7481941433
 20
11.6458101862
 11
11.7281941337
 21
11.6308101862
  0
LINE
  5
36B
100
AcDbEntity
  8
03__ASM_ALL_CURVES
100
AcDbLine
 62
4
  6
CONTINUOUS
 10
7.8960378885
 20
8.8859143565
 11
7.9185691385
 21
8.9009351862
  0
LINE
  5
36C
100
AcDbEntity
  8
03__ASM_ALL_CURVES
100
AcDbLine
 62
4
  6
CONTINUOUS
 10
7.9411003885
 20
8.73570602
 11
7.9185691385
 21
8.7206851862
  0
LINE
  5
36D
100
AcDbEntity
  8
03__ASM_ALL_CURVES
100
AcDbLine
 62
4
  6
CONTINUOUS
 10
13.6226741385
 20
11.5730101862
 11
13.5057941385
 21
11.5364851862
  0
LINE
  5
36E
100
AcDbEntity
  8
03__ASM_ALL_CURVES
100
AcDbLine
 62
4
  6
CONTINUOUS
 10
8.2001733087
 20
7.8419664362
 11
8.2302149736
 21
7.8419664362
  0
LINE
  5
36F
100
AcDbEntity
  8
03__ASM_ALL_CURVES
100
AcDbLine
 62
4
  6
CONTINUOUS
 10
11.0751733087
 20
7.8419664362
 11
11.1052149736
 21
7.8419664362
  0
LINE
  5
370
100
AcDbEntity
  8
03__ASM_ALL_CURVES
100
AcDbLine
 62
4
  6
CONTINUOUS
 10
15.8251733087
 20
7.8419664362
 11
15.8552149736
 21
7.8419664362
  0
LINE
  5
371
100
AcDbEntity
  8
03__ASM_ALL_CURVES
100
AcDbLine
 62
4
  6
CONTINUOUS
 10
15.5582358034
 20
7.8644976862
 11
15.5882774709
 21
7.8644976862
  0
LINE
  5
372
100
AcDbEntity
  8
03__ASM_ALL_CURVES
100
AcDbLine
 62
4
  6
CONTINUOUS
 10
15.5131733087
 20
8.0222164362
 11
15.5432149736
 21
8.0222164362
  0
LINE
  5
373
100
AcDbEntity
  8
03__ASM_ALL_CURVES
100
AcDbLine
 62
4
  6
CONTINUOUS
 10
15.7801108087
 20
6.5464195612
 11
15.8251733087
 21
6.5351539362
  0
LINE
  5
374
100
AcDbEntity
  8
03__ASM_ALL_CURVES
100
AcDbLine
 62
4
  6
CONTINUOUS
 10
11.1052149736
 20
7.8419664362
 11
11.1502774709
 21
7.8307008112
  0
LINE
  5
375
100
AcDbEntity
  8
03__ASM_ALL_CURVES
100
AcDbLine
 62
4
  6
CONTINUOUS
 10
15.5732566385
 20
6.8843883112
 11
15.6183191385
 21
6.8731226862
  0
LINE
  5
376
100
AcDbEntity
  8
03__ASM_ALL_CURVES
100
AcDbLine
 62
4
  6
CONTINUOUS
 10
15.8702358034
 20
5.6113726862
 11
15.8401941385
 21
5.6226383112
  0
LINE
  5
377
100
AcDbEntity
  8
03__ASM_ALL_CURVES
100
AcDbLine
 62
4
  6
CONTINUOUS
 10
15.8702358034
 20
5.7014976862
 11
15.9002774709
 21
5.6902320612
  0
LINE
  5
378
100
AcDbEntity
  8
03__ASM_ALL_CURVES
100
AcDbLine
 62
4
  6
CONTINUOUS
 10
15.4981524682
 20
6.1521226862
 11
15.4681108087
 21
6.1633883112
  0
LINE
  5
379
100
AcDbEntity
  8
03__ASM_ALL_CURVES
100
AcDbLine
 62
4
  6
CONTINUOUS
 10
15.8101524682
 20
6.0394664362
 11
15.7500691385
 21
6.0619976862
  0
LINE
  5
37A
100
AcDbEntity
  8
03__ASM_ALL_CURVES
100
AcDbLine
 62
4
  6
CONTINUOUS
 10
15.5582358034
 20
6.1521226862
 11
15.5281941385
 21
6.1633883112
  0
LINE
  5
37B
100
AcDbEntity
  8
03__ASM_ALL_CURVES
100
AcDbLine
 62
4
  6
CONTINUOUS
 10
15.5582358034
 20
6.2422476862
 11
15.5882774709
 21
6.2309820612
  0
LINE
  5
37C
100
AcDbEntity
  8
03__ASM_ALL_CURVES
100
AcDbLine
 62
4
  6
CONTINUOUS
 10
11.0000691385
 20
6.9294508112
 11
11.0301108087
 21
6.9069195612
  0
LINE
  5
37D
100
AcDbEntity
  8
03__ASM_ALL_CURVES
100
AcDbLine
 62
4
  6
CONTINUOUS
 10
11.1502774709
 20
7.1434976862
 11
11.1652983047
 21
7.1322320612
  0
LINE
  5
37E
100
AcDbEntity
  8
03__ASM_ALL_CURVES
100
AcDbLine
 62
4
  6
CONTINUOUS
 10
11.0301108087
 20
7.2448883112
 11
11.0150899682
 21
7.2561539362
  0
LINE
  5
37F
100
AcDbEntity
  8
03__ASM_ALL_CURVES
100
AcDbLine
 62
4
  6
CONTINUOUS
 10
11.1502774709
 20
7.3124820612
 11
11.1652983047
 21
7.3012164362
  0
LINE
  5
380
100
AcDbEntity
  8
03__ASM_ALL_CURVES
100
AcDbLine
 62
4
  6
CONTINUOUS
 10
5.0725003885
 20
13.8239143565
 11
5.0837660135
 21
13.808893516
  0
LINE
  5
381
100
AcDbEntity
  8
03__ASM_ALL_CURVES
100
AcDbLine
 62
4
  6
CONTINUOUS
 10
5.1964222635
 20
13.67370602
 11
5.1851566385
 21
13.6887268538
  0
LINE
  5
382
100
AcDbEntity
  8
03__ASM_ALL_CURVES
100
AcDbLine
 62
4
  6
CONTINUOUS
 10
6.339883201
 20
12.2122164369
 11
6.3567816385
 21
12.1896851862
  0
LINE
  5
383
100
AcDbEntity
  8
03__ASM_ALL_CURVES
100
AcDbLine
 62
4
  6
CONTINUOUS
 10
5.2640160135
 20
13.7488101862
 11
5.2865472635
 21
13.7187685214
  0
LINE
  5
384
100
AcDbEntity
  8
03__ASM_ALL_CURVES
100
AcDbLine
 62
4
  6
CONTINUOUS
 10
6.4581722635
 20
12.20470602
 11
6.4356410135
 21
12.2347476862
  0
LINE
  5
385
100
AcDbEntity
  8
03__ASM_ALL_CURVES
100
AcDbLine
 62
4
  6
CONTINUOUS
 10
5.2640160135
 20
13.8239143565
 11
5.2752816385
 21
13.808893516
  0
LINE
  5
386
100
AcDbEntity
  8
03__ASM_ALL_CURVES
100
AcDbLine
 62
4
  6
CONTINUOUS
 10
6.4581722635
 20
12.3098518565
 11
6.4469066385
 21
12.3248726862
  0
LINE
  5
387
100
AcDbEntity
  8
03__ASM_ALL_CURVES
100
AcDbLine
 62
4
  6
CONTINUOUS
 10
6.5257660135
 20
12.2798101862
 11
6.5482972635
 21
12.2497685214
  0
LINE
  5
388
100
AcDbEntity
  8
03__ASM_ALL_CURVES
100
AcDbLine
 62
4
  6
CONTINUOUS
 10
6.5257660135
 20
12.3549143565
 11
6.5370316385
 21
12.339893516
  0
LINE
  5
389
100
AcDbEntity
  8
03__ASM_ALL_CURVES
100
AcDbLine
 62
4
  6
CONTINUOUS
 10
6.6384222635
 20
12.20470602
 11
6.6158910135
 21
12.2347476862
  0
LINE
  5
38A
100
AcDbEntity
  8
03__ASM_ALL_CURVES
100
AcDbLine
 62
4
  6
CONTINUOUS
 10
5.5794535135
 20
13.6887268538
 11
5.6019847635
 21
13.6586851862
  0
LINE
  5
38B
100
AcDbEntity
  8
03__ASM_ALL_CURVES
100
AcDbLine
 62
4
  6
CONTINUOUS
 10
6.6384222635
 20
12.3098518565
 11
6.6271566385
 21
12.3248726862
  0
LINE
  5
38C
100
AcDbEntity
  8
03__ASM_ALL_CURVES
100
AcDbLine
 62
4
  6
CONTINUOUS
 10
6.7060160135
 20
12.2798101862
 11
6.7285472635
 21
12.2497685214
  0
LINE
  5
38D
100
AcDbEntity
  8
03__ASM_ALL_CURVES
100
AcDbLine
 62
4
  6
CONTINUOUS
 10
6.7060160135
 20
12.3549143565
 11
6.7172816385
 21
12.339893516
  0
LINE
  5
38E
100
AcDbEntity
  8
03__ASM_ALL_CURVES
100
AcDbLine
 62
4
  6
CONTINUOUS
 10
11.0150899682
 20
6.1633883112
 11
11.0000691385
 21
6.1859195612
  0
LINE
  5
38F
100
AcDbEntity
  8
03__ASM_ALL_CURVES
100
AcDbLine
 62
4
  6
CONTINUOUS
 10
11.0751733087
 20
6.2309820612
 11
11.1052149736
 21
6.1859195612
  0
LINE
  5
390
100
AcDbEntity
  8
03__ASM_ALL_CURVES
100
AcDbLine
 62
4
  6
CONTINUOUS
 10
8.1250691385
 20
7.4589351862
 11
8.1400899682
 21
7.4814664362
  0
LINE
  5
391
100
AcDbEntity
  8
03__ASM_ALL_CURVES
100
AcDbLine
 62
4
  6
CONTINUOUS
 10
8.3053191385
 20
7.6391851862
 11
8.2902983047
 21
7.6166539362
  0
LINE
  5
392
100
AcDbEntity
  8
03__ASM_ALL_CURVES
100
AcDbLine
 62
4
  6
CONTINUOUS
 10
8.3053191385
 20
7.4589351862
 11
8.2902983047
 21
7.4364039362
  0
LINE
  5
393
100
AcDbEntity
  8
03__ASM_ALL_CURVES
100
AcDbLine
 62
4
  6
CONTINUOUS
 10
8.1250691385
 20
7.1097008112
 11
8.1400899682
 21
7.1322320612
  0
LINE
  5
394
100
AcDbEntity
  8
03__ASM_ALL_CURVES
100
AcDbLine
 62
4
  6
CONTINUOUS
 10
8.1250691385
 20
6.9294508112
 11
8.1400899682
 21
6.9519820612
  0
LINE
  5
395
100
AcDbEntity
  8
03__ASM_ALL_CURVES
100
AcDbLine
 62
4
  6
CONTINUOUS
 10
8.1551108087
 20
7.8307008112
 11
8.2001733087
 21
7.8419664362
  0
LINE
  5
396
100
AcDbEntity
  8
03__ASM_ALL_CURVES
100
AcDbLine
 62
4
  6
CONTINUOUS
 10
15.7500691385
 20
7.6166539362
 11
15.8251733087
 21
7.6053883112
  0
LINE
  5
397
100
AcDbEntity
  8
03__ASM_ALL_CURVES
100
AcDbLine
 62
4
  6
CONTINUOUS
 10
15.8552149736
 20
6.9294508112
 11
15.8101524682
 21
6.9407164362
  0
LINE
  5
398
100
AcDbEntity
  8
03__ASM_ALL_CURVES
100
AcDbLine
 62
4
  6
CONTINUOUS
 10
15.5432149736
 20
7.1209664362
 11
15.5882774709
 21
7.1097008112
  0
LINE
  5
399
100
AcDbEntity
  8
03__ASM_ALL_CURVES
100
AcDbLine
 62
4
  6
CONTINUOUS
 10
15.4681108087
 20
7.4476695612
 11
15.5131733087
 21
7.4364039362
  0
LINE
  5
39A
100
AcDbEntity
  8
03__ASM_ALL_CURVES
100
AcDbLine
 62
4
  6
CONTINUOUS
 10
15.8702358034
 20
6.2535133112
 11
15.9002774709
 21
6.2422476862
  0
LINE
  5
39B
100
AcDbEntity
  8
03__ASM_ALL_CURVES
100
AcDbLine
 62
4
  6
CONTINUOUS
 10
15.4380691385
 20
5.3297320612
 11
15.5732566385
 21
5.2508726862
  0
LINE
  5
39C
100
AcDbEntity
  8
03__ASM_ALL_CURVES
100
AcDbLine
 62
4
  6
CONTINUOUS
 10
4.8584535135
 20
12.1896851862
 11
4.8359222635
 21
12.20470602
  0
LINE
  5
39D
100
AcDbEntity
  8
03__ASM_ALL_CURVES
100
AcDbLine
 62
4
  6
CONTINUOUS
 10
11.0301108087
 20
7.5941226862
 11
11.0150899682
 21
7.6053883112
  0
LINE
  5
39E
100
AcDbEntity
  8
03__ASM_ALL_CURVES
100
AcDbLine
 62
4
  6
CONTINUOUS
 10
11.1202358034
 20
7.5828570612
 11
11.0901941385
 21
7.6053883112
  0
LINE
  5
39F
100
AcDbEntity
  8
03__ASM_ALL_CURVES
100
AcDbLine
 62
4
  6
CONTINUOUS
 10
11.0451316385
 20
7.6842476862
 11
11.0601524682
 21
7.6729820612
  0
LINE
  5
3A0
100
AcDbEntity
  8
03__ASM_ALL_CURVES
100
AcDbLine
 62
4
  6
CONTINUOUS
 10
11.1352566385
 20
7.6955133112
 11
11.1652983047
 21
7.6729820612
  0
LINE
  5
3A1
100
AcDbEntity
  8
03__ASM_ALL_CURVES
100
AcDbLine
 62
4
  6
CONTINUOUS
 10
11.1502774709
 20
7.8307008112
 11
11.1803191385
 21
7.8081695612
  0
LINE
  5
3A2
100
AcDbEntity
  8
03__ASM_ALL_CURVES
100
AcDbLine
 62
4
  6
CONTINUOUS
 10
6.8412035135
 20
12.3699351862
 11
6.8637347635
 21
12.339893516
  0
LINE
  5
3A3
100
AcDbEntity
  8
03__ASM_ALL_CURVES
100
AcDbLine
 62
4
  6
CONTINUOUS
 10
5.9850160135
 20
13.8239143565
 11
5.9962816385
 21
13.808893516
  0
LINE
  5
3A4
100
AcDbEntity
  8
03__ASM_ALL_CURVES
100
AcDbLine
 62
4
  6
CONTINUOUS
 10
6.0976722635
 20
13.67370602
 11
6.0864066385
 21
13.6887268538
  0
LINE
  5
3A5
100
AcDbEntity
  8
03__ASM_ALL_CURVES
100
AcDbLine
 62
4
  6
CONTINUOUS
 10
6.1652660135
 20
13.763831016
 11
6.1765316385
 21
13.7488101862
  0
LINE
  5
3A6
100
AcDbEntity
  8
03__ASM_ALL_CURVES
100
AcDbLine
 62
4
  6
CONTINUOUS
 10
6.339883201
 20
13.6812164369
 11
6.3567816385
 21
13.6586851862
  0
LINE
  5
3A7
100
AcDbEntity
  8
03__ASM_ALL_CURVES
100
AcDbLine
 62
4
  6
CONTINUOUS
 10
11.0150899682
 20
6.5351539362
 11
11.0000691385
 21
6.5576851862
  0
LINE
  5
3A8
100
AcDbEntity
  8
03__ASM_ALL_CURVES
100
AcDbLine
 62
4
  6
CONTINUOUS
 10
11.1652983047
 20
6.5802164362
 11
11.1803191385
 21
6.5576851862
  0
LINE
  5
3A9
100
AcDbEntity
  8
03__ASM_ALL_CURVES
100
AcDbLine
 62
4
  6
CONTINUOUS
 10
11.0751733087
 20
7.0646383112
 11
11.0601524682
 21
7.0871695612
  0
LINE
  5
3AA
100
AcDbEntity
  8
03__ASM_ALL_CURVES
100
AcDbLine
 62
4
  6
CONTINUOUS
 10
11.0150899682
 20
7.2561539362
 11
11.0000691385
 21
7.2786851862
  0
LINE
  5
3AB
100
AcDbEntity
  8
03__ASM_ALL_CURVES
100
AcDbLine
 62
4
  6
CONTINUOUS
 10
11.5281941385
 20
11.7058101862
 11
11.5481941391
 21
11.7358101862
  0
LINE
  5
3AC
100
AcDbEntity
  8
03__ASM_ALL_CURVES
100
AcDbLine
 62
4
  6
CONTINUOUS
 10
9.0000691385
 20
7.6391851862
 11
9.0150899682
 21
7.6617164362
  0
LINE
  5
3AD
100
AcDbEntity
  8
03__ASM_ALL_CURVES
100
AcDbLine
 62
4
  6
CONTINUOUS
 10
11.7681941385
 20
11.6758101862
 11
11.7481941433
 21
11.6458101862
  0
LINE
  5
3AE
100
AcDbEntity
  8
03__ASM_ALL_CURVES
100
AcDbLine
 62
4
  6
CONTINUOUS
 10
8.1250691385
 20
6.2084508112
 11
8.1400899682
 21
6.2309820612
  0
LINE
  5
3AF
100
AcDbEntity
  8
03__ASM_ALL_CURVES
100
AcDbLine
 62
4
  6
CONTINUOUS
 10
8.2001733087
 20
6.2084508112
 11
8.2151941385
 21
6.2309820612
  0
LINE
  5
3B0
100
AcDbEntity
  8
03__ASM_ALL_CURVES
100
AcDbLine
 62
4
  6
CONTINUOUS
 10
8.2001733087
 20
6.1859195612
 11
8.1851524682
 21
6.1633883112
  0
LINE
  5
3B1
100
AcDbEntity
  8
03__ASM_ALL_CURVES
100
AcDbLine
 62
4
  6
CONTINUOUS
 10
9.1803191385
 20
7.6391851862
 11
9.1652983047
 21
7.6166539362
  0
LINE
  5
3B2
100
AcDbEntity
  8
03__ASM_ALL_CURVES
100
AcDbLine
 62
4
  6
CONTINUOUS
 10
8.3053191385
 20
6.1859195612
 11
8.2902983047
 21
6.1633883112
  0
LINE
  5
3B3
100
AcDbEntity
  8
03__ASM_ALL_CURVES
100
AcDbLine
 62
4
  6
CONTINUOUS
 10
8.1250691385
 20
5.8366851862
 11
8.1400899682
 21
5.8592164362
  0
LINE
  5
3B4
100
AcDbEntity
  8
03__ASM_ALL_CURVES
100
AcDbLine
 62
4
  6
CONTINUOUS
 10
8.1250691385
 20
7.8081695612
 11
8.1551108087
 21
7.8307008112
  0
LINE
  5
3B5
100
AcDbEntity
  8
03__ASM_ALL_CURVES
100
AcDbLine
 62
4
  6
CONTINUOUS
 10
13.5252741391
 20
11.8140751862
 11
13.5057941385
 21
11.7994651862
  0
LINE
  5
3B6
100
AcDbEntity
  8
03__ASM_ALL_CURVES
100
AcDbLine
 62
4
  6
CONTINUOUS
 10
8.1400899682
 20
7.6617164362
 11
8.1551108087
 21
7.6729820612
  0
LINE
  5
3B7
100
AcDbEntity
  8
03__ASM_ALL_CURVES
100
AcDbLine
 62
4
  6
CONTINUOUS
 10
13.6129341408
 20
11.6752801862
 11
13.5934541385
 21
11.6606701862
  0
LINE
  5
3B8
100
AcDbEntity
  8
03__ASM_ALL_CURVES
100
AcDbLine
 62
4
  6
CONTINUOUS
 10
8.2902983047
 20
7.6166539362
 11
8.2752774709
 21
7.6053883112
  0
LINE
  5
3B9
100
AcDbEntity
  8
03__ASM_ALL_CURVES
100
AcDbLine
 62
4
  6
CONTINUOUS
 10
13.8564341385
 20
11.3100301862
 11
13.7395541385
 21
11.2515901862
  0
LINE
  5
3BA
100
AcDbEntity
  8
03__ASM_ALL_CURVES
100
AcDbLine
 62
4
  6
CONTINUOUS
 10
8.9099441385
 20
8.8108101862
 11
8.3691941385
 21
8.8108101862
  0
LINE
  5
3BB
100
AcDbEntity
  8
0
100
AcDbLine
 62
7
  6
CONTINUOUS
 10
9.0901941385
 20
8.8108101862
 11
15.8401941385
 21
8.8108101862
  0
LINE
  5
3BC
100
AcDbEntity
  8
03__ASM_ALL_CURVES
100
AcDbLine
 62
4
  6
CONTINUOUS
 10
13.9801941337
 20
8.9188101862
 11
13.9401941433
 21
8.9188101862
  0
LINE
  5
3BD
100
AcDbEntity
  8
03__ASM_ALL_CURVES
100
AcDbLine
 62
4
  6
CONTINUOUS
 10
15.8552149736
 20
7.8419664362
 11
15.9002774709
 21
7.8307008112
  0
LINE
  5
3BE
100
AcDbEntity
  8
03__ASM_ALL_CURVES
100
AcDbLine
 62
4
  6
CONTINUOUS
 10
15.8101524682
 20
6.9407164362
 11
15.7500691385
 21
6.9632476862
  0
LINE
  5
3BF
100
AcDbEntity
  8
03__ASM_ALL_CURVES
100
AcDbLine
 62
4
  6
CONTINUOUS
 10
4.8809847635
 20
12.294831016
 11
4.9035160135
 21
12.2798101862
  0
LINE
  5
3C0
100
AcDbEntity
  8
03__ASM_ALL_CURVES
100
AcDbLine
 62
4
  6
CONTINUOUS
 10
4.8809847635
 20
12.3699351862
 11
4.9035160135
 21
12.3549143565
  0
LINE
  5
3C1
100
AcDbEntity
  8
03__ASM_ALL_CURVES
100
AcDbLine
 62
4
  6
CONTINUOUS
 10
5.4104691385
 20
12.1896851862
 11
5.3879378885
 21
12.20470602
  0
LINE
  5
3C2
100
AcDbEntity
  8
03__ASM_ALL_CURVES
100
AcDbLine
 62
4
  6
CONTINUOUS
 10
5.4104691385
 20
12.3699351862
 11
5.4330003885
 21
12.3549143565
  0
LINE
  5
3C3
100
AcDbEntity
  8
03__ASM_ALL_CURVES
100
AcDbLine
 62
4
  6
CONTINUOUS
 10
15.4681108087
 20
4.9016383112
 11
15.4530899682
 21
4.9129039362
  0
LINE
  5
3C4
100
AcDbEntity
  8
03__ASM_ALL_CURVES
100
AcDbLine
 62
4
  6
CONTINUOUS
 10
15.5882774709
 20
4.9692320612
 11
15.6032983047
 21
4.9579664362
  0
LINE
  5
3C5
100
AcDbEntity
  8
03__ASM_ALL_CURVES
100
AcDbLine
 62
4
  6
CONTINUOUS
 10
6.5257660135
 20
13.8239143565
 11
6.5370316385
 21
13.808893516
  0
LINE
  5
3C6
100
AcDbEntity
  8
03__ASM_ALL_CURVES
100
AcDbLine
 62
4
  6
CONTINUOUS
 10
6.7060160135
 20
13.8239143565
 11
6.7172816385
 21
13.808893516
  0
LINE
  5
3C7
100
AcDbEntity
  8
03__ASM_ALL_CURVES
100
AcDbLine
 62
4
  6
CONTINUOUS
 10
6.8412035135
 20
13.8389351862
 11
6.8637347635
 21
13.808893516
  0
LINE
  5
3C8
100
AcDbEntity
  8
03__ASM_ALL_CURVES
100
AcDbLine
 62
4
  6
CONTINUOUS
 10
11.1652983047
 20
7.1322320612
 11
11.1803191385
 21
7.1097008112
  0
LINE
  5
3C9
100
AcDbEntity
  8
03__ASM_ALL_CURVES
100
AcDbLine
 62
4
  6
CONTINUOUS
 10
11.1652983047
 20
7.3012164362
 11
11.1803191385
 21
7.2786851862
  0
LINE
  5
3CA
100
AcDbEntity
  8
03__ASM_ALL_CURVES
100
AcDbLine
 62
4
  6
CONTINUOUS
 10
11.0150899682
 20
7.6053883112
 11
11.0000691385
 21
7.6279195612
  0
LINE
  5
3CB
100
AcDbEntity
  8
03__ASM_ALL_CURVES
100
AcDbLine
 62
4
  6
CONTINUOUS
 10
11.0901941385
 20
7.6053883112
 11
11.0751733087
 21
7.6279195612
  0
LINE
  5
3CC
100
AcDbEntity
  8
03__ASM_ALL_CURVES
100
AcDbLine
 62
4
  6
CONTINUOUS
 10
11.0601524682
 20
7.6729820612
 11
11.0751733087
 21
7.6504508112
  0
LINE
  5
3CD
100
AcDbEntity
  8
03__ASM_ALL_CURVES
100
AcDbLine
 62
4
  6
CONTINUOUS
 10
11.1652983047
 20
7.6729820612
 11
11.1803191385
 21
7.6504508112
  0
LINE
  5
3CE
100
AcDbEntity
  8
03__ASM_ALL_CURVES
100
AcDbLine
 62
4
  6
CONTINUOUS
 10
8.3053191385
 20
5.8366851862
 11
8.2902983047
 21
5.8141539362
  0
LINE
  5
3CF
100
AcDbEntity
  8
03__ASM_ALL_CURVES
100
AcDbLine
 62
4
  6
CONTINUOUS
 10
8.1400899682
 20
7.4814664362
 11
8.1551108087
 21
7.4927320612
  0
LINE
  5
3D0
100
AcDbEntity
  8
03__ASM_ALL_CURVES
100
AcDbLine
 62
4
  6
CONTINUOUS
 10
8.2902983047
 20
7.4364039362
 11
8.2752774709
 21
7.4251383112
  0
LINE
  5
3D1
100
AcDbEntity
  8
03__ASM_ALL_CURVES
100
AcDbLine
 62
4
  6
CONTINUOUS
 10
13.5155341388
 20
11.2442851862
 11
13.5350141385
 21
11.2588951862
  0
LINE
  5
3D2
100
AcDbEntity
  8
03__ASM_ALL_CURVES
100
AcDbLine
 62
4
  6
CONTINUOUS
 10
8.2827878878
 20
7.3068492487
 11
8.3053191385
 21
7.3237476862
  0
LINE
  5
3D3
100
AcDbEntity
  8
03__ASM_ALL_CURVES
100
AcDbLine
 62
4
  6
CONTINUOUS
 10
8.1400899682
 20
7.1322320612
 11
8.1551108087
 21
7.1434976862
  0
LINE
  5
3D4
100
AcDbEntity
  8
03__ASM_ALL_CURVES
100
AcDbLine
 62
4
  6
CONTINUOUS
 10
13.6129341408
 20
11.2004551862
 11
13.6031941362
 21
11.1931501862
  0
LINE
  5
3D5
100
AcDbEntity
  8
03__ASM_ALL_CURVES
100
AcDbLine
 62
4
  6
CONTINUOUS
 10
13.5155341388
 20
11.1274051862
 11
13.5350141385
 21
11.1420151862
  0
LINE
  5
3D6
100
AcDbEntity
  8
03__ASM_ALL_CURVES
100
AcDbLine
 62
4
  6
CONTINUOUS
 10
9.0150899682
 20
7.6617164362
 11
9.0301108087
 21
7.6729820612
  0
LINE
  5
3D7
100
AcDbEntity
  8
03__ASM_ALL_CURVES
100
AcDbLine
 62
4
  6
CONTINUOUS
 10
13.7492941388
 20
11.1858451862
 11
13.7687741385
 21
11.2004551862
  0
LINE
  5
3D8
100
AcDbEntity
  8
03__ASM_ALL_CURVES
100
AcDbLine
 62
4
  6
CONTINUOUS
 10
13.6129341408
 20
11.0835751862
 11
13.5934541385
 21
11.0689651862
  0
LINE
  5
3D9
100
AcDbEntity
  8
03__ASM_ALL_CURVES
100
AcDbLine
 62
4
  6
CONTINUOUS
 10
8.1400899682
 20
6.9519820612
 11
8.1551108087
 21
6.9632476862
  0
LINE
  5
3DA
100
AcDbEntity
  8
03__ASM_ALL_CURVES
100
AcDbLine
 62
4
  6
CONTINUOUS
 10
13.8272141385
 20
11.1931501862
 11
13.8174741408
 21
11.1858451862
  0
LINE
  5
3DB
100
AcDbEntity
  8
03__ASM_ALL_CURVES
100
AcDbLine
 62
4
  6
CONTINUOUS
 10
13.7882541373
 20
11.1420151862
 11
13.7785141396
 21
11.1347101862
  0
LINE
  5
3DC
100
AcDbEntity
  8
0
100
AcDbLine
 62
7
  6
CONTINUOUS
 10
9.0901941385
 20
9.3568101862
 11
8.2821667697
 21
9.3568101862
  0
LINE
  5
3DD
100
AcDbEntity
  8
0
100
AcDbLine
 62
7
  6
CONTINUOUS
 10
9.0901941385
 20
9.3572055277
 11
8.2821667697
 21
9.3572055277
  0
LINE
  5
3DE
100
AcDbEntity
  8
03__ASM_ALL_CURVES
100
AcDbLine
 62
4
  6
CONTINUOUS
 10
15.5432149736
 20
8.0222164362
 11
15.5882774709
 21
8.0109508112
  0
LINE
  5
3DF
100
AcDbEntity
  8
03__ASM_ALL_CURVES
100
AcDbLine
 62
4
  6
CONTINUOUS
 10
5.9399535135
 20
12.1896851862
 11
5.9174222635
 21
12.20470602
  0
LINE
  5
3E0
100
AcDbEntity
  8
03__ASM_ALL_CURVES
100
AcDbLine
 62
4
  6
CONTINUOUS
 10
5.9399535135
 20
12.294831016
 11
5.9174222635
 21
12.3098518565
  0
LINE
  5
3E1
100
AcDbEntity
  8
03__ASM_ALL_CURVES
100
AcDbLine
 62
4
  6
CONTINUOUS
 10
5.9624847635
 20
12.294831016
 11
5.9850160135
 21
12.2798101862
  0
LINE
  5
3E2
100
AcDbEntity
  8
03__ASM_ALL_CURVES
100
AcDbLine
 62
4
  6
CONTINUOUS
 10
5.9624847635
 20
12.3699351862
 11
5.9850160135
 21
12.3549143565
  0
LINE
  5
3E3
100
AcDbEntity
  8
03__ASM_ALL_CURVES
100
AcDbLine
 62
4
  6
CONTINUOUS
 10
6.4807035135
 20
12.1896851862
 11
6.4581722635
 21
12.20470602
  0
LINE
  5
3E4
100
AcDbEntity
  8
03__ASM_ALL_CURVES
100
AcDbLine
 62
4
  6
CONTINUOUS
 10
6.4807035135
 20
12.294831016
 11
6.4581722635
 21
12.3098518565
  0
LINE
  5
3E5
100
AcDbEntity
  8
03__ASM_ALL_CURVES
100
AcDbLine
 62
4
  6
CONTINUOUS
 10
6.6609535135
 20
12.1896851862
 11
6.6384222635
 21
12.20470602
  0
LINE
  5
3E6
100
AcDbEntity
  8
03__ASM_ALL_CURVES
100
AcDbLine
 62
4
  6
CONTINUOUS
 10
6.5032347635
 20
12.294831016
 11
6.5257660135
 21
12.2798101862
  0
LINE
  5
3E7
100
AcDbEntity
  8
03__ASM_ALL_CURVES
100
AcDbLine
 62
4
  6
CONTINUOUS
 10
6.5032347635
 20
12.3699351862
 11
6.5257660135
 21
12.3549143565
  0
LINE
  5
3E8
100
AcDbEntity
  8
03__ASM_ALL_CURVES
100
AcDbLine
 62
4
  6
CONTINUOUS
 10
15.4831316385
 20
5.5212476862
 11
15.4981524682
 21
5.5099820612
  0
LINE
  5
3E9
100
AcDbEntity
  8
03__ASM_ALL_CURVES
100
AcDbLine
 62
4
  6
CONTINUOUS
 10
15.5732566385
 20
5.5325133112
 11
15.6032983047
 21
5.5099820612
  0
LINE
  5
3EA
100
AcDbEntity
  8
03__ASM_ALL_CURVES
100
AcDbLine
 62
4
  6
CONTINUOUS
 10
15.4380691385
 20
5.8479508112
 11
15.4681108087
 21
5.8254195612
  0
LINE
  5
3EB
100
AcDbEntity
  8
03__ASM_ALL_CURVES
100
AcDbLine
 62
4
  6
CONTINUOUS
 10
15.7801108087
 20
5.6226383112
 11
15.7650899682
 21
5.6339039362
  0
LINE
  5
3EC
100
AcDbEntity
  8
03__ASM_ALL_CURVES
100
AcDbLine
 62
4
  6
CONTINUOUS
 10
11.0000691385
 20
7.1434976862
 11
11.0000691385
 21
7.0759039362
  0
LINE
  5
3ED
100
AcDbEntity
  8
03__ASM_ALL_CURVES
100
AcDbLine
 62
4
  6
CONTINUOUS
 10
11.0000691385
 20
6.1859195612
 11
11.0000691385
 21
6.2084508112
  0
LINE
  5
3EE
100
AcDbEntity
  8
03__ASM_ALL_CURVES
100
AcDbLine
 62
4
  6
CONTINUOUS
 10
11.0000691385
 20
7.6279195612
 11
11.0000691385
 21
7.6504508112
  0
LINE
  5
3EF
100
AcDbEntity
  8
03__ASM_ALL_CURVES
100
AcDbLine
 62
4
  6
CONTINUOUS
 10
11.0601524682
 20
7.0871695612
 11
11.0601524682
 21
7.1097008112
  0
LINE
  5
3F0
100
AcDbEntity
  8
03__ASM_ALL_CURVES
100
AcDbLine
 62
4
  6
CONTINUOUS
 10
11.0751733087
 20
7.6279195612
 11
11.0751733087
 21
7.6504508112
  0
LINE
  5
3F1
100
AcDbEntity
  8
03__ASM_ALL_CURVES
100
AcDbLine
 62
4
  6
CONTINUOUS
 10
11.0901941385
 20
8.6305601862
 11
11.0901941385
 21
8.0898101862
  0
LINE
  5
3F2
100
AcDbEntity
  8
03__ASM_ALL_CURVES
100
AcDbLine
 62
4
  6
CONTINUOUS
 10
11.1803191385
 20
7.6504508112
 11
11.1803191385
 21
7.6279195612
  0
LINE
  5
3F3
100
AcDbEntity
  8
03__ASM_ALL_CURVES
100
AcDbLine
 62
4
  6
CONTINUOUS
 10
11.1803191385
 20
7.5039976862
 11
11.1803191385
 21
7.4870992487
  0
LINE
  5
3F4
100
AcDbEntity
  8
03__ASM_ALL_CURVES
100
AcDbLine
 62
4
  6
CONTINUOUS
 10
11.1803191385
 20
7.1097008112
 11
11.1803191385
 21
7.0871695612
  0
LINE
  5
3F5
100
AcDbEntity
  8
03__ASM_ALL_CURVES
100
AcDbLine
 62
4
  6
CONTINUOUS
 10
11.1803191385
 20
6.4224976862
 11
11.1803191385
 21
6.4055992487
  0
LINE
  5
3F6
100
AcDbEntity
  8
03__ASM_ALL_CURVES
100
AcDbLine
 62
4
  6
CONTINUOUS
 10
11.1803191385
 20
6.1521226862
 11
11.1803191385
 21
6.2422476862
  0
LINE
  5
3F7
100
AcDbEntity
  8
03__ASM_ALL_CURVES
100
AcDbLine
 62
4
  6
CONTINUOUS
 10
13.6129341408
 20
10.9740001862
 11
13.5934541385
 21
10.9593901862
  0
LINE
  5
3F8
100
AcDbEntity
  8
03__ASM_ALL_CURVES
100
AcDbLine
 62
4
  6
CONTINUOUS
 10
13.8369541362
 20
11.1347101862
 11
13.8466941408
 21
11.1420151862
  0
LINE
  5
3F9
100
AcDbEntity
  8
03__ASM_ALL_CURVES
100
AcDbLine
 62
4
  6
CONTINUOUS
 10
9.1652983047
 20
7.6166539362
 11
9.1502774709
 21
7.6053883112
  0
LINE
  5
3FA
100
AcDbEntity
  8
03__ASM_ALL_CURVES
100
AcDbLine
 62
4
  6
CONTINUOUS
 10
13.6226741385
 20
10.7621551862
 11
13.6031941362
 21
10.7475451862
  0
LINE
  5
3FB
100
AcDbEntity
  8
03__ASM_ALL_CURVES
100
AcDbLine
 62
4
  6
CONTINUOUS
 10
8.2752774709
 20
6.7266695612
 11
8.3053191385
 21
6.7492008112
  0
LINE
  5
3FC
100
AcDbEntity
  8
03__ASM_ALL_CURVES
100
AcDbLine
 62
4
  6
CONTINUOUS
 10
8.1551108087
 20
7.6729820612
 11
8.1851524682
 21
7.6842476862
  0
LINE
  5
3FD
100
AcDbEntity
  8
03__ASM_ALL_CURVES
100
AcDbLine
 62
4
  6
CONTINUOUS
 10
8.2151941385
 20
7.6053883112
 11
8.1851524682
 21
7.5941226862
  0
LINE
  5
3FE
100
AcDbEntity
  8
03__ASM_ALL_CURVES
100
AcDbLine
 62
4
  6
CONTINUOUS
 10
8.1551108087
 20
7.4927320612
 11
8.1851524682
 21
7.5039976862
  0
LINE
  5
3FF
100
AcDbEntity
  8
03__ASM_ALL_CURVES
100
AcDbLine
 62
4
  6
CONTINUOUS
 10
8.2752774709
 20
7.4251383112
 11
8.2452358034
 21
7.4138726862
  0
LINE
  5
400
100
AcDbEntity
  8
03__ASM_ALL_CURVES
100
AcDbLine
 62
4
  6
CONTINUOUS
 10
9.0301108087
 20
7.6729820612
 11
9.0601524682
 21
7.6842476862
  0
LINE
  5
401
100
AcDbEntity
  8
03__ASM_ALL_CURVES
100
AcDbLine
 62
4
  6
CONTINUOUS
 10
13.6031941362
 20
10.7475451862
 11
13.5739741362
 21
10.7402401862
  0
LINE
  5
402
100
AcDbEntity
  8
03__ASM_ALL_CURVES
100
AcDbLine
 62
4
  6
CONTINUOUS
 10
13.5934541385
 20
10.9593901862
 11
13.5642341385
 21
10.9520851862
  0
LINE
  5
403
100
AcDbEntity
  8
03__ASM_ALL_CURVES
100
AcDbLine
 62
4
  6
CONTINUOUS
 10
13.5934541385
 20
11.0689651862
 11
13.5642341385
 21
11.0616601862
  0
LINE
  5
404
100
AcDbEntity
  8
0
100
AcDbLine
 62
7
  6
CONTINUOUS
 10
9.0901941385
 20
9.7951148448
 11
8.2821667697
 21
9.7951148448
  0
LINE
  5
405
100
AcDbEntity
  8
0
100
AcDbLine
 62
7
  6
CONTINUOUS
 10
9.0901941385
 20
9.8419008691
 11
8.2821667697
 21
9.8419008691
  0
LINE
  5
406
100
AcDbEntity
  8
03__ASM_ALL_CURVES
100
AcDbLine
 62
4
  6
CONTINUOUS
 10
13.8401941385
 20
9.0238101862
 11
13.7801941385
 21
9.0388101862
  0
LINE
  5
407
100
AcDbEntity
  8
03__ASM_ALL_CURVES
100
AcDbLine
 62
4
  6
CONTINUOUS
 10
15.8702358034
 20
7.6955133112
 11
15.9002774709
 21
7.6842476862
  0
LINE
  5
408
100
AcDbEntity
  8
03__ASM_ALL_CURVES
100
AcDbLine
 62
4
  6
CONTINUOUS
 10
5.4104691385
 20
12.294831016
 11
5.4442660135
 21
12.2798101862
  0
LINE
  5
409
100
AcDbEntity
  8
03__ASM_ALL_CURVES
100
AcDbLine
 62
4
  6
CONTINUOUS
 10
6.6609535135
 20
12.294831016
 11
6.6384222635
 21
12.3098518565
  0
LINE
  5
40A
100
AcDbEntity
  8
03__ASM_ALL_CURVES
100
AcDbLine
 62
4
  6
CONTINUOUS
 10
6.6834847635
 20
12.294831016
 11
6.7060160135
 21
12.2798101862
  0
LINE
  5
40B
100
AcDbEntity
  8
03__ASM_ALL_CURVES
100
AcDbLine
 62
4
  6
CONTINUOUS
 10
6.6834847635
 20
12.3699351862
 11
6.7060160135
 21
12.3549143565
  0
LINE
  5
40C
100
AcDbEntity
  8
03__ASM_ALL_CURVES
100
AcDbLine
 62
4
  6
CONTINUOUS
 10
5.0499691385
 20
13.6586851862
 11
5.0274378885
 21
13.67370602
  0
LINE
  5
40D
100
AcDbEntity
  8
03__ASM_ALL_CURVES
100
AcDbLine
 62
4
  6
CONTINUOUS
 10
5.2189535135
 20
13.6586851862
 11
5.1964222635
 21
13.67370602
  0
LINE
  5
40E
100
AcDbEntity
  8
03__ASM_ALL_CURVES
100
AcDbLine
 62
4
  6
CONTINUOUS
 10
5.0499691385
 20
13.8389351862
 11
5.0725003885
 21
13.8239143565
  0
LINE
  5
40F
100
AcDbEntity
  8
03__ASM_ALL_CURVES
100
AcDbLine
 62
4
  6
CONTINUOUS
 10
5.2414847635
 20
13.763831016
 11
5.2640160135
 21
13.7488101862
  0
LINE
  5
410
100
AcDbEntity
  8
03__ASM_ALL_CURVES
100
AcDbLine
 62
4
  6
CONTINUOUS
 10
15.9002774709
 20
5.6902320612
 11
15.9152983047
 21
5.6789664362
  0
LINE
  5
411
100
AcDbEntity
  8
03__ASM_ALL_CURVES
100
AcDbLine
 62
4
  6
CONTINUOUS
 10
15.4681108087
 20
6.1633883112
 11
15.4530899682
 21
6.1746539362
  0
LINE
  5
412
100
AcDbEntity
  8
03__ASM_ALL_CURVES
100
AcDbLine
 62
4
  6
CONTINUOUS
 10
15.5882774709
 20
6.2309820612
 11
15.6032983047
 21
6.2197164362
  0
LINE
  5
413
100
AcDbEntity
  8
03__ASM_ALL_CURVES
100
AcDbLine
 62
4
  6
CONTINUOUS
 10
15.4831316385
 20
6.4224976862
 11
15.4981524682
 21
6.4112320612
  0
LINE
  5
414
100
AcDbEntity
  8
03__ASM_ALL_CURVES
100
AcDbLine
 62
4
  6
CONTINUOUS
 10
15.5732566385
 20
6.4337633112
 11
15.6032983047
 21
6.4112320612
  0
LINE
  5
415
100
AcDbEntity
  8
03__ASM_ALL_CURVES
100
AcDbLine
 62
4
  6
CONTINUOUS
 10
15.9002774709
 20
6.2422476862
 11
15.9152983047
 21
6.2309820612
  0
LINE
  5
416
100
AcDbEntity
  8
03__ASM_ALL_CURVES
100
AcDbLine
 62
4
  6
CONTINUOUS
 10
11.5281941385
 20
11.6758101862
 11
11.5281941385
 21
11.7058101862
  0
LINE
  5
417
100
AcDbEntity
  8
03__ASM_ALL_CURVES
100
AcDbLine
 62
4
  6
CONTINUOUS
 10
11.6481941385
 20
11.6908101862
 11
11.6481941385
 21
11.6308101862
  0
LINE
  5
418
100
AcDbEntity
  8
03__ASM_ALL_CURVES
100
AcDbLine
 62
4
  6
CONTINUOUS
 10
11.7681941385
 20
11.7058101862
 11
11.7681941385
 21
11.6758101862
  0
LINE
  5
419
100
AcDbEntity
  8
03__ASM_ALL_CURVES
100
AcDbLine
 62
4
  6
CONTINUOUS
 10
13.6226741385
 20
11.6898901862
 11
13.6129341408
 21
11.6752801862
  0
LINE
  5
41A
100
AcDbEntity
  8
03__ASM_ALL_CURVES
100
AcDbLine
 62
4
  6
CONTINUOUS
 10
11.0000691385
 20
7.6504508112
 11
11.0150899682
 21
7.6729820612
  0
LINE
  5
41B
100
AcDbEntity
  8
03__ASM_ALL_CURVES
100
AcDbLine
 62
4
  6
CONTINUOUS
 10
11.0751733087
 20
7.6504508112
 11
11.0901941385
 21
7.6729820612
  0
LINE
  5
41C
100
AcDbEntity
  8
03__ASM_ALL_CURVES
100
AcDbLine
 62
4
  6
CONTINUOUS
 10
11.0751733087
 20
7.6279195612
 11
11.0601524682
 21
7.6053883112
  0
LINE
  5
41D
100
AcDbEntity
  8
03__ASM_ALL_CURVES
100
AcDbLine
 62
4
  6
CONTINUOUS
 10
8.1400899682
 20
6.2309820612
 11
8.1551108087
 21
6.2422476862
  0
LINE
  5
41E
100
AcDbEntity
  8
03__ASM_ALL_CURVES
100
AcDbLine
 62
4
  6
CONTINUOUS
 10
8.2151941385
 20
6.2309820612
 11
8.2452358034
 21
6.2535133112
  0
LINE
  5
41F
100
AcDbEntity
  8
03__ASM_ALL_CURVES
100
AcDbLine
 62
4
  6
CONTINUOUS
 10
8.1851524682
 20
6.1633883112
 11
8.1701316385
 21
6.1521226862
  0
LINE
  5
420
100
AcDbEntity
  8
03__ASM_ALL_CURVES
100
AcDbLine
 62
4
  6
CONTINUOUS
 10
8.2902983047
 20
6.1633883112
 11
8.2602566385
 21
6.1408570612
  0
LINE
  5
421
100
AcDbEntity
  8
03__ASM_ALL_CURVES
100
AcDbLine
 62
4
  6
CONTINUOUS
 10
8.2827878878
 20
6.0450992487
 11
8.3053191385
 21
6.0619976862
  0
LINE
  5
422
100
AcDbEntity
  8
03__ASM_ALL_CURVES
100
AcDbLine
 62
4
  6
CONTINUOUS
 10
8.1400899682
 20
5.8592164362
 11
8.1551108087
 21
5.8704820612
  0
LINE
  5
423
100
AcDbEntity
  8
03__ASM_ALL_CURVES
100
AcDbLine
 62
4
  6
CONTINUOUS
 10
8.2902983047
 20
5.8141539362
 11
8.2752774709
 21
5.8028883112
  0
LINE
  5
424
100
AcDbEntity
  8
03__ASM_ALL_CURVES
100
AcDbLine
 62
4
  6
CONTINUOUS
 10
9.1502774709
 20
7.6053883112
 11
9.1202358034
 21
7.5941226862
  0
LINE
  5
425
100
AcDbEntity
  8
03__ASM_ALL_CURVES
100
AcDbLine
 62
4
  6
CONTINUOUS
 10
13.5350141385
 20
11.1420151862
 11
13.5642341385
 21
11.1493201862
  0
LINE
  5
426
100
AcDbEntity
  8
03__ASM_ALL_CURVES
100
AcDbLine
 62
4
  6
CONTINUOUS
 10
13.5350141385
 20
11.2588951862
 11
13.5642341385
 21
11.2662001862
  0
LINE
  5
427
100
AcDbEntity
  8
0
100
AcDbLine
 62
7
  6
CONTINUOUS
 10
9.0901941385
 20
10.7177195033
 11
8.2821667697
 21
10.7177195033
  0
LINE
  5
428
100
AcDbEntity
  8
03__ASM_ALL_CURVES
100
AcDbLine
 62
4
  6
CONTINUOUS
 10
15.7500691385
 20
7.4927320612
 11
15.8852566385
 21
7.4138726862
  0
LINE
  5
429
100
AcDbEntity
  8
03__ASM_ALL_CURVES
100
AcDbLine
 62
4
  6
CONTINUOUS
 10
5.2414847635
 20
13.8389351862
 11
5.2640160135
 21
13.8239143565
  0
LINE
  5
42A
100
AcDbEntity
  8
03__ASM_ALL_CURVES
100
AcDbLine
 62
4
  6
CONTINUOUS
 10
6.1202035135
 20
13.6586851862
 11
6.0976722635
 21
13.67370602
  0
LINE
  5
42B
100
AcDbEntity
  8
03__ASM_ALL_CURVES
100
AcDbLine
 62
4
  6
CONTINUOUS
 10
5.9624847635
 20
13.8389351862
 11
5.9850160135
 21
13.8239143565
  0
LINE
  5
42C
100
AcDbEntity
  8
03__ASM_ALL_CURVES
100
AcDbLine
 62
4
  6
CONTINUOUS
 10
6.1427347635
 20
13.7788518565
 11
6.1652660135
 21
13.763831016
  0
LINE
  5
42D
100
AcDbEntity
  8
03__ASM_ALL_CURVES
100
AcDbLine
 62
4
  6
CONTINUOUS
 10
15.7500691385
 20
6.5689508112
 11
15.7801108087
 21
6.5464195612
  0
LINE
  5
42E
100
AcDbEntity
  8
03__ASM_ALL_CURVES
100
AcDbLine
 62
4
  6
CONTINUOUS
 10
15.4831316385
 20
6.7829976862
 11
15.4981524682
 21
6.7717320612
  0
LINE
  5
42F
100
AcDbEntity
  8
03__ASM_ALL_CURVES
100
AcDbLine
 62
4
  6
CONTINUOUS
 10
15.4681108087
 20
6.8731226862
 11
15.4530899682
 21
6.8843883112
  0
LINE
  5
430
100
AcDbEntity
  8
03__ASM_ALL_CURVES
100
AcDbLine
 62
4
  6
CONTINUOUS
 10
15.5732566385
 20
6.7942633112
 11
15.6032983047
 21
6.7717320612
  0
LINE
  5
431
100
AcDbEntity
  8
03__ASM_ALL_CURVES
100
AcDbLine
 62
4
  6
CONTINUOUS
 10
15.5432149736
 20
6.9069195612
 11
15.5732566385
 21
6.8843883112
  0
LINE
  5
432
100
AcDbEntity
  8
03__ASM_ALL_CURVES
100
AcDbLine
 62
4
  6
CONTINUOUS
 10
15.4981524682
 20
6.9632476862
 11
15.5131733087
 21
6.9519820612
  0
LINE
  5
433
100
AcDbEntity
  8
03__ASM_ALL_CURVES
100
AcDbLine
 62
4
  6
CONTINUOUS
 10
15.5882774709
 20
7.1097008112
 11
15.6183191385
 21
7.0871695612
  0
LINE
  5
434
100
AcDbEntity
  8
03__ASM_ALL_CURVES
100
AcDbLine
 62
4
  6
CONTINUOUS
 10
13.5057941385
 20
11.2296751862
 11
13.5155341388
 21
11.2442851862
  0
LINE
  5
435
100
AcDbEntity
  8
03__ASM_ALL_CURVES
100
AcDbLine
 62
4
  6
CONTINUOUS
 10
11.1803191385
 20
7.6279195612
 11
11.1652983047
 21
7.6053883112
  0
LINE
  5
436
100
AcDbEntity
  8
03__ASM_ALL_CURVES
100
AcDbLine
 62
4
  6
CONTINUOUS
 10
13.5057941385
 20
11.1127951862
 11
13.5155341388
 21
11.1274051862
  0
LINE
  5
437
100
AcDbEntity
  8
03__ASM_ALL_CURVES
100
AcDbLine
 62
4
  6
CONTINUOUS
 10
13.6226741385
 20
11.2150651862
 11
13.6129341408
 21
11.2004551862
  0
LINE
  5
438
100
AcDbEntity
  8
03__ASM_ALL_CURVES
100
AcDbLine
 62
4
  6
CONTINUOUS
 10
11.0000691385
 20
7.2786851862
 11
11.0150899682
 21
7.3012164362
  0
LINE
  5
439
100
AcDbEntity
  8
03__ASM_ALL_CURVES
100
AcDbLine
 62
4
  6
CONTINUOUS
 10
13.6226741385
 20
11.0981851862
 11
13.6129341408
 21
11.0835751862
  0
LINE
  5
43A
100
AcDbEntity
  8
03__ASM_ALL_CURVES
100
AcDbLine
 62
4
  6
CONTINUOUS
 10
13.7395541385
 20
11.1712351862
 11
13.7492941388
 21
11.1858451862
  0
LINE
  5
43B
100
AcDbEntity
  8
03__ASM_ALL_CURVES
100
AcDbLine
 62
4
  6
CONTINUOUS
 10
13.6226741385
 20
10.9886101862
 11
13.6129341408
 21
10.9740001862
  0
LINE
  5
43C
100
AcDbEntity
  8
03__ASM_ALL_CURVES
100
AcDbLine
 62
4
  6
CONTINUOUS
 10
11.0601524682
 20
7.1097008112
 11
11.0751733087
 21
7.1322320612
  0
LINE
  5
43D
100
AcDbEntity
  8
03__ASM_ALL_CURVES
100
AcDbLine
 62
4
  6
CONTINUOUS
 10
11.1803191385
 20
7.2786851862
 11
11.1652983047
 21
7.2561539362
  0
LINE
  5
43E
100
AcDbEntity
  8
03__ASM_ALL_CURVES
100
AcDbLine
 62
4
  6
CONTINUOUS
 10
13.8174741408
 20
11.1858451862
 11
13.7882541373
 21
11.1420151862
  0
LINE
  5
43F
100
AcDbEntity
  8
03__ASM_ALL_CURVES
100
AcDbLine
 62
4
  6
CONTINUOUS
 10
13.8466941408
 20
11.1420151862
 11
13.8564341385
 21
11.1566251862
  0
LINE
  5
440
100
AcDbEntity
  8
03__ASM_ALL_CURVES
100
AcDbLine
 62
4
  6
CONTINUOUS
 10
11.1803191385
 20
7.0871695612
 11
11.1652983047
 21
7.0646383112
  0
LINE
  5
441
100
AcDbEntity
  8
03__ASM_ALL_CURVES
100
AcDbLine
 62
4
  6
CONTINUOUS
 10
11.0000691385
 20
7.8081695612
 11
11.0301108087
 21
7.8307008112
  0
LINE
  5
442
100
AcDbEntity
  8
03__ASM_ALL_CURVES
100
AcDbLine
 62
4
  6
CONTINUOUS
 10
11.0150899682
 20
7.6729820612
 11
11.0301108087
 21
7.6842476862
  0
LINE
  5
443
100
AcDbEntity
  8
03__ASM_ALL_CURVES
100
AcDbLine
 62
4
  6
CONTINUOUS
 10
11.0901941385
 20
7.6729820612
 11
11.1202358034
 21
7.6955133112
  0
LINE
  5
444
100
AcDbEntity
  8
03__ASM_ALL_CURVES
100
AcDbLine
 62
4
  6
CONTINUOUS
 10
11.0601524682
 20
7.6053883112
 11
11.0451316385
 21
7.5941226862
  0
LINE
  5
445
100
AcDbEntity
  8
03__ASM_ALL_CURVES
100
AcDbLine
 62
4
  6
CONTINUOUS
 10
11.1652983047
 20
7.6053883112
 11
11.1352566385
 21
7.5828570612
  0
LINE
  5
446
100
AcDbEntity
  8
03__ASM_ALL_CURVES
100
AcDbLine
 62
4
  6
CONTINUOUS
 10
11.1577878878
 20
7.4870992487
 11
11.1803191385
 21
7.5039976862
  0
LINE
  5
447
100
AcDbEntity
  8
03__ASM_ALL_CURVES
100
AcDbLine
 62
4
  6
CONTINUOUS
 10
11.0150899682
 20
7.3012164362
 11
11.0301108087
 21
7.3124820612
  0
LINE
  5
448
100
AcDbEntity
  8
03__ASM_ALL_CURVES
100
AcDbLine
 62
4
  6
CONTINUOUS
 10
13.5934541385
 20
11.6606701862
 11
13.5642341385
 21
11.6533651862
  0
LINE
  5
449
100
AcDbEntity
  8
03__ASM_ALL_CURVES
100
AcDbLine
 62
4
  6
CONTINUOUS
 10
13.5544941373
 20
11.8213801862
 11
13.5252741391
 21
11.8140751862
  0
LINE
  5
44A
100
AcDbEntity
  8
03__ASM_ALL_CURVES
100
AcDbLine
 62
4
  6
CONTINUOUS
 10
13.5739741362
 20
10.7402401862
 11
13.5544941373
 21
10.7402401862
  0
LINE
  5
44B
100
AcDbEntity
  8
0
100
AcDbLine
 62
7
  6
CONTINUOUS
 10
14.0609741385
 20
10.7548501862
 11
14.0317541385
 21
10.7548501862
  0
LINE
  5
44C
100
AcDbEntity
  8
0
100
AcDbLine
 62
7
  6
CONTINUOUS
 10
9.0901941385
 20
10.7645055277
 11
8.2821667697
 21
10.7645055277
  0
LINE
  5
44D
100
AcDbEntity
  8
0
100
AcDbLine
 62
7
  6
CONTINUOUS
 10
14.0901941385
 20
10.8132901862
 11
14.0609741385
 21
10.8132901862
  0
LINE
  5
44E
100
AcDbEntity
  8
03__ASM_ALL_CURVES
100
AcDbLine
 62
4
  6
CONTINUOUS
 10
13.5057941385
 20
10.9009501862
 11
13.6226741385
 21
10.9009501862
  0
LINE
  5
44F
100
AcDbEntity
  8
0
100
AcDbLine
 62
7
  6
CONTINUOUS
 10
14.0901941385
 20
10.9106901862
 11
14.0317541385
 21
10.9106901862
  0
LINE
  5
450
100
AcDbEntity
  8
0
100
AcDbLine
 62
7
  6
CONTINUOUS
 10
14.0317541385
 20
10.9496501862
 11
14.0901941385
 21
10.9496501862
  0
LINE
  5
451
100
AcDbEntity
  8
0
100
AcDbLine
 62
7
  6
CONTINUOUS
 10
14.0317541385
 20
10.9886101862
 11
14.1486341385
 21
10.9886101862
  0
LINE
  5
452
100
AcDbEntity
  8
03__ASM_ALL_CURVES
100
AcDbLine
 62
4
  6
CONTINUOUS
 10
13.5057941385
 20
11.0178301862
 11
13.6226741385
 21
11.0178301862
  0
LINE
  5
453
100
AcDbEntity
  8
0
100
AcDbLine
 62
7
  6
CONTINUOUS
 10
14.0317541385
 20
11.0275701862
 11
14.0901941385
 21
11.0275701862
  0
LINE
  5
454
100
AcDbEntity
  8
0
100
AcDbLine
 62
7
  6
CONTINUOUS
 10
14.0901941385
 20
11.0860101862
 11
14.0317541385
 21
11.0860101862
  0
LINE
  5
455
100
AcDbEntity
  8
0
100
AcDbLine
 62
7
  6
CONTINUOUS
 10
14.0901941385
 20
11.1249701862
 11
14.0317541385
 21
11.1249701862
  0
LINE
  5
456
100
AcDbEntity
  8
03__ASM_ALL_CURVES
100
AcDbLine
 62
4
  6
CONTINUOUS
 10
13.7785141396
 20
11.1347101862
 11
13.7590341391
 21
11.1347101862
  0
LINE
  5
457
100
AcDbEntity
  8
0
100
AcDbLine
 62
7
  6
CONTINUOUS
 10
14.0317541385
 20
11.1834101862
 11
14.0707141385
 21
11.1834101862
  0
LINE
  5
458
100
AcDbEntity
  8
03__ASM_ALL_CURVES
100
AcDbLine
 62
4
  6
CONTINUOUS
 10
13.8369541362
 20
11.1931501862
 11
13.8272141385
 21
11.1931501862
  0
LINE
  5
459
100
AcDbEntity
  8
0
100
AcDbLine
 62
7
  6
CONTINUOUS
 10
9.0901941385
 20
11.2024148448
 11
8.2821667697
 21
11.2024148448
  0
LINE
  5
45A
100
AcDbEntity
  8
0
100
AcDbLine
 62
7
  6
CONTINUOUS
 10
9.0901941385
 20
11.2028101862
 11
8.2821667697
 21
11.2028101862
  0
LINE
  5
45B
100
AcDbEntity
  8
03__ASM_ALL_CURVES
100
AcDbLine
 62
4
  6
CONTINUOUS
 10
6.5032347635
 20
13.8389351862
 11
6.5257660135
 21
13.8239143565
  0
LINE
  5
45C
100
AcDbEntity
  8
03__ASM_ALL_CURVES
100
AcDbLine
 62
4
  6
CONTINUOUS
 10
6.6834847635
 20
13.8389351862
 11
6.7060160135
 21
13.8239143565
  0
LINE
  5
45D
100
AcDbEntity
  8
03__ASM_ALL_CURVES
100
AcDbLine
 62
4
  6
CONTINUOUS
 10
15.4380691385
 20
7.4702008112
 11
15.4681108087
 21
7.4476695612
  0
LINE
  5
45E
100
AcDbEntity
  8
03__ASM_ALL_CURVES
100
AcDbLine
 62
4
  6
CONTINUOUS
 10
13.9401941433
 20
8.9188101862
 11
13.9201941337
 21
8.9338101862
  0
LINE
  5
45F
100
AcDbEntity
  8
03__ASM_ALL_CURVES
100
AcDbLine
 62
4
  6
CONTINUOUS
 10
15.4530899682
 20
7.7856383112
 11
15.4681108087
 21
7.7743726862
  0
LINE
  5
460
100
AcDbEntity
  8
03__ASM_ALL_CURVES
100
AcDbLine
 62
4
  6
CONTINUOUS
 10
13.8801941361
 20
8.9938101862
 11
13.8401941385
 21
9.0238101862
  0
LINE
  5
461
100
AcDbEntity
  8
03__ASM_ALL_CURVES
100
AcDbLine
 62
4
  6
CONTINUOUS
 10
15.4530899682
 20
4.9129039362
 11
15.4380691385
 21
4.9354351862
  0
LINE
  5
462
100
AcDbEntity
  8
03__ASM_ALL_CURVES
100
AcDbLine
 62
4
  6
CONTINUOUS
 10
11.0000691385
 20
6.5576851862
 11
11.0150899682
 21
6.5802164362
  0
LINE
  5
463
100
AcDbEntity
  8
03__ASM_ALL_CURVES
100
AcDbLine
 62
4
  6
CONTINUOUS
 10
11.1803191385
 20
6.5576851862
 11
11.1652983047
 21
6.5351539362
  0
LINE
  5
464
100
AcDbEntity
  8
03__ASM_ALL_CURVES
100
AcDbLine
 62
4
  6
CONTINUOUS
 10
11.0000691385
 20
6.2084508112
 11
11.0150899682
 21
6.2309820612
  0
LINE
  5
465
100
AcDbEntity
  8
03__ASM_ALL_CURVES
100
AcDbLine
 62
4
  6
CONTINUOUS
 10
11.1652983047
 20
7.2561539362
 11
11.1502774709
 21
7.2448883112
  0
LINE
  5
466
100
AcDbEntity
  8
03__ASM_ALL_CURVES
100
AcDbLine
 62
4
  6
CONTINUOUS
 10
11.0751733087
 20
7.1322320612
 11
11.0901941385
 21
7.1434976862
  0
LINE
  5
467
100
AcDbEntity
  8
03__ASM_ALL_CURVES
100
AcDbLine
 62
4
  6
CONTINUOUS
 10
11.1652983047
 20
7.0646383112
 11
11.1502774709
 21
7.0533726862
  0
LINE
  5
468
100
AcDbEntity
  8
03__ASM_ALL_CURVES
100
AcDbLine
 62
4
  6
CONTINUOUS
 10
11.1502774709
 20
6.9069195612
 11
11.1803191385
 21
6.9294508112
  0
LINE
  5
469
100
AcDbEntity
  8
03__ASM_ALL_CURVES
100
AcDbLine
 62
4
  6
CONTINUOUS
 10
14.0001941433
 20
8.9338101862
 11
13.9801941337
 21
8.9188101862
  0
LINE
  5
46A
100
AcDbEntity
  8
03__ASM_ALL_CURVES
100
AcDbLine
 62
4
  6
CONTINUOUS
 10
11.0301108087
 20
7.3124820612
 11
11.0601524682
 21
7.3237476862
  0
LINE
  5
46B
100
AcDbEntity
  8
03__ASM_ALL_CURVES
100
AcDbLine
 62
4
  6
CONTINUOUS
 10
11.1502774709
 20
7.2448883112
 11
11.1202358034
 21
7.2336226862
  0
LINE
  5
46C
100
AcDbEntity
  8
03__ASM_ALL_CURVES
100
AcDbLine
 62
4
  6
CONTINUOUS
 10
11.0901941385
 20
7.1434976862
 11
11.1202358034
 21
7.1547633112
  0
LINE
  5
46D
100
AcDbEntity
  8
03__ASM_ALL_CURVES
100
AcDbLine
 62
4
  6
CONTINUOUS
 10
8.1551108087
 20
5.8704820612
 11
8.1851524682
 21
5.8817476862
  0
LINE
  5
46E
100
AcDbEntity
  8
03__ASM_ALL_CURVES
100
AcDbLine
 62
4
  6
CONTINUOUS
 10
8.2752774709
 20
5.8028883112
 11
8.2452358034
 21
5.7916226862
  0
LINE
  5
46F
100
AcDbEntity
  8
03__ASM_ALL_CURVES
100
AcDbLine
 62
4
  6
CONTINUOUS
 10
11.5881941385
 20
11.7658101862
 11
11.6481941385
 21
11.7808101862
  0
LINE
  5
470
100
AcDbEntity
  8
03__ASM_ALL_CURVES
100
AcDbLine
 62
4
  6
CONTINUOUS
 10
13.7395541385
 20
11.2515901862
 11
13.8564341385
 21
11.2515901862
  0
LINE
  5
471
100
AcDbEntity
  8
0
100
AcDbLine
 62
7
  6
CONTINUOUS
 10
14.0901941385
 20
11.2808101862
 11
14.0317541385
 21
11.2808101862
  0
LINE
  5
472
100
AcDbEntity
  8
03__ASM_ALL_CURVES
100
AcDbLine
 62
4
  6
CONTINUOUS
 10
13.7395541385
 20
11.3100301862
 11
13.8564341385
 21
11.3100301862
  0
LINE
  5
473
100
AcDbEntity
  8
0
100
AcDbLine
 62
7
  6
CONTINUOUS
 10
14.1486341385
 20
11.3197701862
 11
14.0317541385
 21
11.3197701862
  0
LINE
  5
474
100
AcDbEntity
  8
03__ASM_ALL_CURVES
100
AcDbLine
 62
4
  6
CONTINUOUS
 10
13.5057941385
 20
11.3684701862
 11
13.6226741385
 21
11.3684701862
  0
LINE
  5
475
100
AcDbEntity
  8
0
100
AcDbLine
 62
7
  6
CONTINUOUS
 10
14.0317541385
 20
11.3782101862
 11
14.0901941385
 21
11.3782101862
  0
LINE
  5
476
100
AcDbEntity
  8
0
100
AcDbLine
 62
7
  6
CONTINUOUS
 10
14.0901941385
 20
11.4171701862
 11
13.9733141385
 21
11.4171701862
  0
LINE
  5
477
100
AcDbEntity
  8
03__ASM_ALL_CURVES
100
AcDbLine
 62
4
  6
CONTINUOUS
 10
13.8564341385
 20
11.4269101862
 11
13.7395541385
 21
11.4269101862
  0
LINE
  5
478
100
AcDbEntity
  8
03__ASM_ALL_CURVES
100
AcDbLine
 62
4
  6
CONTINUOUS
 10
13.6226741385
 20
11.4561301862
 11
13.5057941385
 21
11.4561301862
  0
LINE
  5
479
100
AcDbEntity
  8
0
100
AcDbLine
 62
7
  6
CONTINUOUS
 10
14.0317541385
 20
11.4756101862
 11
14.0901941385
 21
11.4756101862
  0
LINE
  5
47A
100
AcDbEntity
  8
0
100
AcDbLine
 62
7
  6
CONTINUOUS
 10
14.0317541385
 20
11.5145701862
 11
14.0901941385
 21
11.5145701862
  0
LINE
  5
47B
100
AcDbEntity
  8
0
100
AcDbLine
 62
7
  6
CONTINUOUS
 10
14.0317541385
 20
11.5730101862
 11
14.1486341385
 21
11.5730101862
  0
LINE
  5
47C
100
AcDbEntity
  8
03__ASM_ALL_CURVES
100
AcDbLine
 62
4
  6
CONTINUOUS
 10
11.6481941385
 20
11.6308101862
 11
11.5681941397
 21
11.6308101862
  0
LINE
  5
47D
100
AcDbEntity
  8
0
100
AcDbLine
 62
7
  6
CONTINUOUS
 10
14.1486341385
 20
11.6898901862
 11
14.0317541385
 21
11.6898901862
  0
LINE
  5
47E
100
AcDbEntity
  8
03__ASM_ALL_CURVES
100
AcDbLine
 62
4
  6
CONTINUOUS
 10
13.5544941373
 20
10.7402401862
 11
13.5252741391
 21
10.7475451862
  0
LINE
  5
47F
100
AcDbEntity
  8
03__ASM_ALL_CURVES
100
AcDbLine
 62
4
  6
CONTINUOUS
 10
13.5642341385
 20
10.9520851862
 11
13.5350141385
 21
10.9593901862
  0
LINE
  5
480
100
AcDbEntity
  8
03__ASM_ALL_CURVES
100
AcDbLine
 62
4
  6
CONTINUOUS
 10
5.0499691385
 20
13.7337893511
 11
5.0161722635
 21
13.7488101862
  0
LINE
  5
481
100
AcDbEntity
  8
03__ASM_ALL_CURVES
100
AcDbLine
 62
4
  6
CONTINUOUS
 10
13.9801941337
 20
9.0388101862
 11
14.0001941433
 21
9.0238101862
  0
LINE
  5
482
100
AcDbEntity
  8
03__ASM_ALL_CURVES
100
AcDbLine
 62
4
  6
CONTINUOUS
 10
15.5882774709
 20
7.8644976862
 11
15.6032983047
 21
7.8532320612
  0
LINE
  5
483
100
AcDbEntity
  8
03__ASM_ALL_CURVES
100
AcDbLine
 62
4
  6
CONTINUOUS
 10
15.9002774709
 20
7.6842476862
 11
15.9152983047
 21
7.6729820612
  0
LINE
  5
484
100
AcDbEntity
  8
03__ASM_ALL_CURVES
100
AcDbLine
 62
4
  6
CONTINUOUS
 10
15.5882774709
 20
8.0109508112
 11
15.6183191385
 21
7.9884195612
  0
LINE
  5
485
100
AcDbEntity
  8
03__ASM_ALL_CURVES
100
AcDbLine
 62
4
  6
CONTINUOUS
 10
15.9002774709
 20
7.8307008112
 11
15.9303191385
 21
7.8081695612
  0
LINE
  5
486
100
AcDbEntity
  8
03__ASM_ALL_CURVES
100
AcDbLine
 62
4
  6
CONTINUOUS
 10
15.6032983047
 20
4.9579664362
 11
15.6183191385
 21
4.9354351862
  0
LINE
  5
487
100
AcDbEntity
  8
03__ASM_ALL_CURVES
100
AcDbLine
 62
4
  6
CONTINUOUS
 10
15.4530899682
 20
5.4423883112
 11
15.4380691385
 21
5.4649195612
  0
LINE
  5
488
100
AcDbEntity
  8
03__ASM_ALL_CURVES
100
AcDbLine
 62
4
  6
CONTINUOUS
 10
15.4981524682
 20
5.5099820612
 11
15.5131733087
 21
5.4874508112
  0
LINE
  5
489
100
AcDbEntity
  8
03__ASM_ALL_CURVES
100
AcDbLine
 62
4
  6
CONTINUOUS
 10
15.6032983047
 20
5.5099820612
 11
15.6183191385
 21
5.4874508112
  0
LINE
  5
48A
100
AcDbEntity
  8
03__ASM_ALL_CURVES
100
AcDbLine
 62
4
  6
CONTINUOUS
 10
11.5481941391
 20
11.6458101862
 11
11.5281941385
 21
11.6758101862
  0
LINE
  5
48B
100
AcDbEntity
  8
03__ASM_ALL_CURVES
100
AcDbLine
 62
4
  6
CONTINUOUS
 10
11.0150899682
 20
6.5802164362
 11
11.0301108087
 21
6.5914820612
  0
LINE
  5
48C
100
AcDbEntity
  8
03__ASM_ALL_CURVES
100
AcDbLine
 62
4
  6
CONTINUOUS
 10
11.1652983047
 20
6.5351539362
 11
11.1502774709
 21
6.5238883112
  0
LINE
  5
48D
100
AcDbEntity
  8
03__ASM_ALL_CURVES
100
AcDbLine
 62
4
  6
CONTINUOUS
 10
11.1577878878
 20
6.4055992487
 11
11.1803191385
 21
6.4224976862
  0
LINE
  5
48E
100
AcDbEntity
  8
03__ASM_ALL_CURVES
100
AcDbLine
 62
4
  6
CONTINUOUS
 10
11.0150899682
 20
6.2309820612
 11
11.0301108087
 21
6.2422476862
  0
LINE
  5
48F
100
AcDbEntity
  8
03__ASM_ALL_CURVES
100
AcDbLine
 62
4
  6
CONTINUOUS
 10
11.0301108087
 20
6.5914820612
 11
11.0601524682
 21
6.6027476862
  0
LINE
  5
490
100
AcDbEntity
  8
03__ASM_ALL_CURVES
100
AcDbLine
 62
4
  6
CONTINUOUS
 10
11.1502774709
 20
6.5238883112
 11
11.1202358034
 21
6.5126226862
  0
LINE
  5
491
100
AcDbEntity
  8
03__ASM_ALL_CURVES
100
AcDbLine
 62
4
  6
CONTINUOUS
 10
13.5057941385
 20
11.7191101862
 11
13.6226741385
 21
11.7191101862
  0
LINE
  5
492
100
AcDbEntity
  8
0
100
AcDbLine
 62
7
  6
CONTINUOUS
 10
14.1486341385
 20
11.7483301862
 11
14.0317541385
 21
11.7483301862
  0
LINE
  5
493
100
AcDbEntity
  8
0
100
AcDbLine
 62
7
  6
CONTINUOUS
 10
14.1486341385
 20
11.7775501862
 11
14.0317541385
 21
11.7775501862
  0
LINE
  5
494
100
AcDbEntity
  8
03__ASM_ALL_CURVES
100
AcDbLine
 62
4
  6
CONTINUOUS
 10
13.5739741362
 20
11.8213801862
 11
13.5544941373
 21
11.8213801862
  0
LINE
  5
495
100
AcDbEntity
  8
0
100
AcDbLine
 62
7
  6
CONTINUOUS
 10
14.0317541385
 20
11.8359901862
 11
14.1486341385
 21
11.8359901862
  0
LINE
  5
496
100
AcDbEntity
  8
0
100
AcDbLine
 62
7
  6
CONTINUOUS
 10
14.0901941385
 20
11.8652101862
 11
14.0317541385
 21
11.8652101862
  0
LINE
  5
497
100
AcDbEntity
  8
0
100
AcDbLine
 62
7
  6
CONTINUOUS
 10
14.1486341385
 20
11.9236501862
 11
14.0901941385
 21
11.9236501862
  0
LINE
  5
498
100
AcDbEntity
  8
03__ASM_ALL_CURVES
100
AcDbLine
 62
4
  6
CONTINUOUS
 10
13.5642341385
 20
11.0616601862
 11
13.5350141385
 21
11.0689651862
  0
LINE
  5
499
100
AcDbEntity
  8
03__ASM_ALL_CURVES
100
AcDbLine
 62
4
  6
CONTINUOUS
 10
13.5642341385
 20
11.1493201862
 11
13.5934541385
 21
11.1420151862
  0
LINE
  5
49A
100
AcDbEntity
  8
03__ASM_ALL_CURVES
100
AcDbLine
 62
4
  6
CONTINUOUS
 10
13.5642341385
 20
11.2662001862
 11
13.5934541385
 21
11.2588951862
  0
LINE
  5
49B
100
AcDbEntity
  8
03__ASM_ALL_CURVES
100
AcDbLine
 62
4
  6
CONTINUOUS
 10
11.6481941385
 20
11.7808101862
 11
11.7081941385
 21
11.7658101862
  0
LINE
  5
49C
100
AcDbEntity
  8
03__ASM_ALL_CURVES
100
AcDbLine
 62
4
  6
CONTINUOUS
 10
11.5681941397
 20
11.6308101862
 11
11.5481941391
 21
11.6458101862
  0
LINE
  5
49D
100
AcDbEntity
  8
03__ASM_ALL_CURVES
100
AcDbLine
 62
4
  6
CONTINUOUS
 10
11.7081941385
 20
11.7658101862
 11
11.7481941433
 21
11.7358101862
  0
LINE
  5
49E
100
AcDbEntity
  8
03__ASM_ALL_CURVES
100
AcDbLine
 62
4
  6
CONTINUOUS
 10
15.7650899682
 20
5.6339039362
 11
15.7500691385
 21
5.6564351862
  0
LINE
  5
49F
100
AcDbEntity
  8
03__ASM_ALL_CURVES
100
AcDbLine
 62
4
  6
CONTINUOUS
 10
15.4530899682
 20
6.1746539362
 11
15.4380691385
 21
6.1971851862
  0
LINE
  5
4A0
100
AcDbEntity
  8
03__ASM_ALL_CURVES
100
AcDbLine
 62
4
  6
CONTINUOUS
 10
11.7481941433
 20
11.7358101862
 11
11.7681941385
 21
11.7058101862
  0
LINE
  5
4A1
100
AcDbEntity
  8
03__ASM_ALL_CURVES
100
AcDbLine
 62
4
  6
CONTINUOUS
 10
15.4530899682
 20
6.3436383112
 11
15.4380691385
 21
6.3661695612
  0
LINE
  5
4A2
100
AcDbEntity
  8
03__ASM_ALL_CURVES
100
AcDbLine
 62
4
  6
CONTINUOUS
 10
15.9152983047
 20
5.6789664362
 11
15.9303191385
 21
5.6564351862
  0
LINE
  5
4A3
100
AcDbEntity
  8
03__ASM_ALL_CURVES
100
AcDbLine
 62
4
  6
CONTINUOUS
 10
15.6032983047
 20
6.2197164362
 11
15.6183191385
 21
6.1971851862
  0
LINE
  5
4A4
100
AcDbEntity
  8
03__ASM_ALL_CURVES
100
AcDbLine
 62
4
  6
CONTINUOUS
 10
15.4981524682
 20
6.4112320612
 11
15.5131733087
 21
6.3887008112
  0
LINE
  5
4A5
100
AcDbEntity
  8
03__ASM_ALL_CURVES
100
AcDbLine
 62
4
  6
CONTINUOUS
 10
13.9201941337
 20
8.9338101862
 11
13.8801941361
 21
8.9938101862
  0
LINE
  5
4A6
100
AcDbEntity
  8
03__ASM_ALL_CURVES
100
AcDbLine
 62
4
  6
CONTINUOUS
 10
15.6032983047
 20
6.4112320612
 11
15.6183191385
 21
6.3887008112
  0
LINE
  5
4A7
100
AcDbEntity
  8
03__ASM_ALL_CURVES
100
AcDbLine
 62
4
  6
CONTINUOUS
 10
15.4530899682
 20
6.7041383112
 11
15.4380691385
 21
6.7266695612
  0
LINE
  5
4A8
100
AcDbEntity
  8
03__ASM_ALL_CURVES
100
AcDbLine
 62
4
  6
CONTINUOUS
 10
15.8251733087
 20
6.1633883112
 11
15.8101524682
 21
6.1859195612
  0
LINE
  5
4A9
100
AcDbEntity
  8
03__ASM_ALL_CURVES
100
AcDbLine
 62
4
  6
CONTINUOUS
 10
13.5057941385
 20
10.8425101862
 11
13.5057941385
 21
10.9009501862
  0
LINE
  5
4AA
100
AcDbEntity
  8
03__ASM_ALL_CURVES
100
AcDbLine
 62
4
  6
CONTINUOUS
 10
13.5057941385
 20
10.9886101862
 11
13.5057941385
 21
11.0178301862
  0
LINE
  5
4AB
100
AcDbEntity
  8
03__ASM_ALL_CURVES
100
AcDbLine
 62
4
  6
CONTINUOUS
 10
13.5057941385
 20
11.0981851862
 11
13.5057941385
 21
11.1127951862
  0
LINE
  5
4AC
100
AcDbEntity
  8
03__ASM_ALL_CURVES
100
AcDbLine
 62
4
  6
CONTINUOUS
 10
13.5057941385
 20
11.2150651862
 11
13.5057941385
 21
11.2296751862
  0
LINE
  5
4AD
100
AcDbEntity
  8
03__ASM_ALL_CURVES
100
AcDbLine
 62
4
  6
CONTINUOUS
 10
13.5057941385
 20
11.3100301862
 11
13.5057941385
 21
11.3684701862
  0
LINE
  5
4AE
100
AcDbEntity
  8
03__ASM_ALL_CURVES
100
AcDbLine
 62
4
  6
CONTINUOUS
 10
13.5057941385
 20
11.6898901862
 11
13.5057941385
 21
11.7191101862
  0
LINE
  5
4AF
100
AcDbEntity
  8
03__ASM_ALL_CURVES
100
AcDbLine
 62
4
  6
CONTINUOUS
 10
13.5447541396
 20
11.5949251862
 11
13.5447541396
 21
11.5510951862
  0
LINE
  5
4B0
100
AcDbEntity
  8
03__ASM_ALL_CURVES
100
AcDbLine
 62
4
  6
CONTINUOUS
 10
13.5642341385
 20
11.3684701862
 11
13.5642341385
 21
11.3319451862
  0
LINE
  5
4B1
100
AcDbEntity
  8
03__ASM_ALL_CURVES
100
AcDbLine
 62
4
  6
CONTINUOUS
 10
13.5642341385
 20
10.9009501862
 11
13.5642341385
 21
10.8644251862
  0
LINE
  5
4B2
100
AcDbEntity
  8
03__ASM_ALL_CURVES
100
AcDbLine
 62
4
  6
CONTINUOUS
 10
13.6226741385
 20
11.7191101862
 11
13.6226741385
 21
11.6898901862
  0
LINE
  5
4B3
100
AcDbEntity
  8
03__ASM_ALL_CURVES
100
AcDbLine
 62
4
  6
CONTINUOUS
 10
13.6226741385
 20
11.4926551862
 11
13.6226741385
 21
11.4196051862
  0
LINE
  5
4B4
100
AcDbEntity
  8
03__ASM_ALL_CURVES
100
AcDbLine
 62
4
  6
CONTINUOUS
 10
13.6226741385
 20
11.3684701862
 11
13.6226741385
 21
11.3100301862
  0
LINE
  5
4B5
100
AcDbEntity
  8
03__ASM_ALL_CURVES
100
AcDbLine
 62
4
  6
CONTINUOUS
 10
13.6226741385
 20
11.2296751862
 11
13.6226741385
 21
11.2150651862
  0
LINE
  5
4B6
100
AcDbEntity
  8
03__ASM_ALL_CURVES
100
AcDbLine
 62
4
  6
CONTINUOUS
 10
13.6226741385
 20
11.1127951862
 11
13.6226741385
 21
11.0981851862
  0
LINE
  5
4B7
100
AcDbEntity
  8
03__ASM_ALL_CURVES
100
AcDbLine
 62
4
  6
CONTINUOUS
 10
13.6226741385
 20
11.0178301862
 11
13.6226741385
 21
10.9886101862
  0
LINE
  5
4B8
100
AcDbEntity
  8
03__ASM_ALL_CURVES
100
AcDbLine
 62
4
  6
CONTINUOUS
 10
13.6226741385
 20
10.9009501862
 11
13.6226741385
 21
10.8425101862
  0
LINE
  5
4B9
100
AcDbEntity
  8
03__ASM_ALL_CURVES
100
AcDbLine
 62
4
  6
CONTINUOUS
 10
13.7395541385
 20
11.4269101862
 11
13.7395541385
 21
11.3684701862
  0
LINE
  5
4BA
100
AcDbEntity
  8
03__ASM_ALL_CURVES
100
AcDbLine
 62
4
  6
CONTINUOUS
 10
13.7395541385
 20
11.1566251862
 11
13.7395541385
 21
11.1712351862
  0
LINE
  5
4BB
100
AcDbEntity
  8
03__ASM_ALL_CURVES
100
AcDbLine
 62
4
  6
CONTINUOUS
 10
14.0201941385
 20
8.9638101862
 11
14.0001941433
 21
8.9338101862
  0
LINE
  5
4BC
100
AcDbEntity
  8
03__ASM_ALL_CURVES
100
AcDbLine
 62
4
  6
CONTINUOUS
 10
15.8401941385
 20
7.6842476862
 11
15.8702358034
 21
7.6955133112
  0
LINE
  5
4BD
100
AcDbEntity
  8
03__ASM_ALL_CURVES
100
AcDbLine
 62
4
  6
CONTINUOUS
 10
6.6834847635
 20
12.1896851862
 11
6.6609535135
 21
12.1896851862
  0
LINE
  5
4BE
100
AcDbEntity
  8
03__ASM_ALL_CURVES
100
AcDbLine
 62
4
  6
CONTINUOUS
 10
6.5032347635
 20
12.1896851862
 11
6.4807035135
 21
12.1896851862
  0
LINE
  5
4BF
100
AcDbEntity
  8
03__ASM_ALL_CURVES
100
AcDbLine
 62
4
  6
CONTINUOUS
 10
6.3567816385
 20
12.1896851862
 11
6.339883201
 21
12.1896851862
  0
LINE
  5
4C0
100
AcDbEntity
  8
03__ASM_ALL_CURVES
100
AcDbLine
 62
4
  6
CONTINUOUS
 10
5.9624847635
 20
12.1896851862
 11
5.9399535135
 21
12.1896851862
  0
LINE
  5
4C1
100
AcDbEntity
  8
03__ASM_ALL_CURVES
100
AcDbLine
 62
4
  6
CONTINUOUS
 10
5.0950316385
 20
12.1896851862
 11
5.078133201
 21
12.1896851862
  0
LINE
  5
4C2
100
AcDbEntity
  8
03__ASM_ALL_CURVES
100
AcDbLine
 62
4
  6
CONTINUOUS
 10
4.8809847635
 20
12.1896851862
 11
4.8584535135
 21
12.1896851862
  0
LINE
  5
4C3
100
AcDbEntity
  8
03__ASM_ALL_CURVES
100
AcDbLine
 62
4
  6
CONTINUOUS
 10
5.1851566385
 20
12.2347476862
 11
5.2865472635
 21
12.2347476862
  0
LINE
  5
4C4
100
AcDbEntity
  8
03__ASM_ALL_CURVES
100
AcDbLine
 62
4
  6
CONTINUOUS
 10
8.9099441385
 20
12.2798101862
 11
7.6635941385
 21
12.2798101862
  0
LINE
  5
4C5
100
AcDbEntity
  8
03__ASM_ALL_CURVES
100
AcDbLine
 62
4
  6
CONTINUOUS
 10
4.8584535135
 20
12.294831016
 11
4.8809847635
 21
12.294831016
  0
LINE
  5
4C6
100
AcDbEntity
  8
03__ASM_ALL_CURVES
100
AcDbLine
 62
4
  6
CONTINUOUS
 10
5.9399535135
 20
12.294831016
 11
5.9624847635
 21
12.294831016
  0
LINE
  5
4C7
100
AcDbEntity
  8
03__ASM_ALL_CURVES
100
AcDbLine
 62
4
  6
CONTINUOUS
 10
6.4807035135
 20
12.294831016
 11
6.5032347635
 21
12.294831016
  0
LINE
  5
4C8
100
AcDbEntity
  8
03__ASM_ALL_CURVES
100
AcDbLine
 62
4
  6
CONTINUOUS
 10
6.6609535135
 20
12.294831016
 11
6.6834847635
 21
12.294831016
  0
LINE
  5
4C9
100
AcDbEntity
  8
03__ASM_ALL_CURVES
100
AcDbLine
 62
4
  6
CONTINUOUS
 10
6.1765316385
 20
12.3699351862
 11
6.0864066385
 21
12.3699351862
  0
LINE
  5
4CA
100
AcDbEntity
  8
03__ASM_ALL_CURVES
100
AcDbLine
 62
4
  6
CONTINUOUS
 10
4.8584535135
 20
12.3699351862
 11
4.8809847635
 21
12.3699351862
  0
LINE
  5
4CB
100
AcDbEntity
  8
03__ASM_ALL_CURVES
100
AcDbLine
 62
4
  6
CONTINUOUS
 10
5.9399535135
 20
12.3699351862
 11
5.9624847635
 21
12.3699351862
  0
LINE
  5
4CC
100
AcDbEntity
  8
03__ASM_ALL_CURVES
100
AcDbLine
 62
4
  6
CONTINUOUS
 10
6.4807035135
 20
12.3699351862
 11
6.5032347635
 21
12.3699351862
  0
LINE
  5
4CD
100
AcDbEntity
  8
03__ASM_ALL_CURVES
100
AcDbLine
 62
4
  6
CONTINUOUS
 10
6.6609535135
 20
12.3699351862
 11
6.6834847635
 21
12.3699351862
  0
LINE
  5
4CE
100
AcDbEntity
  8
03__ASM_ALL_CURVES
100
AcDbLine
 62
4
  6
CONTINUOUS
 10
13.5642341385
 20
11.6533651862
 11
13.5350141385
 21
11.6606701862
  0
LINE
  5
4CF
100
AcDbEntity
  8
03__ASM_ALL_CURVES
100
AcDbLine
 62
4
  6
CONTINUOUS
 10
13.6031941362
 20
11.8140751862
 11
13.5739741362
 21
11.8213801862
  0
LINE
  5
4D0
100
AcDbEntity
  8
03__ASM_ALL_CURVES
100
AcDbLine
 62
4
  6
CONTINUOUS
 10
13.5057941385
 20
11.6095351862
 11
13.6226741385
 21
11.5730101862
  0
LINE
  5
4D1
100
AcDbEntity
  8
03__ASM_ALL_CURVES
100
AcDbLine
 62
4
  6
CONTINUOUS
 10
13.5252741391
 20
10.7475451862
 11
13.5057941385
 21
10.7621551862
  0
LINE
  5
4D2
100
AcDbEntity
  8
03__ASM_ALL_CURVES
100
AcDbLine
 62
4
  6
CONTINUOUS
 10
13.5350141385
 20
10.9593901862
 11
13.5155341388
 21
10.9740001862
  0
LINE
  5
4D3
100
AcDbEntity
  8
03__ASM_ALL_CURVES
100
AcDbLine
 62
4
  6
CONTINUOUS
 10
13.5350141385
 20
11.0689651862
 11
13.5155341388
 21
11.0835751862
  0
LINE
  5
4D4
100
AcDbEntity
  8
03__ASM_ALL_CURVES
100
AcDbLine
 62
4
  6
CONTINUOUS
 10
15.4981524682
 20
6.7717320612
 11
15.5131733087
 21
6.7492008112
  0
LINE
  5
4D5
100
AcDbEntity
  8
03__ASM_ALL_CURVES
100
AcDbLine
 62
4
  6
CONTINUOUS
 10
14.0001941433
 20
9.0238101862
 11
14.0201941385
 21
8.9938101862
  0
LINE
  5
4D6
100
AcDbEntity
  8
03__ASM_ALL_CURVES
100
AcDbLine
 62
4
  6
CONTINUOUS
 10
15.4530899682
 20
6.8843883112
 11
15.4380691385
 21
6.9069195612
  0
LINE
  5
4D7
100
AcDbEntity
  8
03__ASM_ALL_CURVES
100
AcDbLine
 62
4
  6
CONTINUOUS
 10
15.9152983047
 20
6.2309820612
 11
15.9303191385
 21
6.2084508112
  0
LINE
  5
4D8
100
AcDbEntity
  8
03__ASM_ALL_CURVES
100
AcDbLine
 62
4
  6
CONTINUOUS
 10
15.6032983047
 20
6.7717320612
 11
15.6183191385
 21
6.7492008112
  0
LINE
  5
4D9
100
AcDbEntity
  8
03__ASM_ALL_CURVES
100
AcDbLine
 62
4
  6
CONTINUOUS
 10
15.5131733087
 20
6.9519820612
 11
15.5432149736
 21
6.9069195612
  0
LINE
  5
4DA
100
AcDbEntity
  8
03__ASM_ALL_CURVES
100
AcDbLine
 62
4
  6
CONTINUOUS
 10
15.5281941385
 20
4.9016383112
 11
15.5131733087
 21
4.9354351862
  0
LINE
  5
4DB
100
AcDbEntity
  8
03__ASM_ALL_CURVES
100
AcDbLine
 62
4
  6
CONTINUOUS
 10
13.7801941385
 20
9.0388101862
 11
13.7801941385
 21
8.9188101862
  0
LINE
  5
4DC
100
AcDbEntity
  8
03__ASM_ALL_CURVES
100
AcDbLine
 62
4
  6
CONTINUOUS
 10
13.8564341385
 20
11.1566251862
 11
13.8564341385
 21
11.1712351862
  0
LINE
  5
4DD
100
AcDbEntity
  8
0
100
AcDbLine
 62
7
  6
CONTINUOUS
 10
13.9733141385
 20
11.4171701862
 11
13.9733141385
 21
11.4561301862
  0
LINE
  5
4DE
100
AcDbEntity
  8
03__ASM_ALL_CURVES
100
AcDbLine
 62
4
  6
CONTINUOUS
 10
14.0201941385
 20
8.9938101862
 11
14.0201941385
 21
8.9638101862
  0
LINE
  5
4DF
100
AcDbEntity
  8
0
100
AcDbLine
 62
7
  6
CONTINUOUS
 10
14.0317541385
 20
11.0860101862
 11
14.0317541385
 21
11.0275701862
  0
LINE
  5
4E0
100
AcDbEntity
  8
0
100
AcDbLine
 62
7
  6
CONTINUOUS
 10
14.0317541385
 20
10.9106901862
 11
14.0317541385
 21
10.8522501862
  0
LINE
  5
4E1
100
AcDbEntity
  8
0
100
AcDbLine
 62
7
  6
CONTINUOUS
 10
14.0317541385
 20
10.7548501862
 11
14.0317541385
 21
10.8132901862
  0
LINE
  5
4E2
100
AcDbEntity
  8
0
100
AcDbLine
 62
7
  6
CONTINUOUS
 10
14.0317541385
 20
11.1249701862
 11
14.0317541385
 21
11.1834101862
  0
LINE
  5
4E3
100
AcDbEntity
  8
0
100
AcDbLine
 62
7
  6
CONTINUOUS
 10
14.0317541385
 20
11.3197701862
 11
14.0317541385
 21
11.3782101862
  0
LINE
  5
4E4
100
AcDbEntity
  8
0
100
AcDbLine
 62
7
  6
CONTINUOUS
 10
14.0317541385
 20
11.4171701862
 11
14.0317541385
 21
11.4756101862
  0
LINE
  5
4E5
100
AcDbEntity
  8
0
100
AcDbLine
 62
7
  6
CONTINUOUS
 10
14.0317541385
 20
11.7775501862
 11
14.0317541385
 21
11.8359901862
  0
LINE
  5
4E6
100
AcDbEntity
  8
0
100
AcDbLine
 62
7
  6
CONTINUOUS
 10
14.0317541385
 20
11.8652101862
 11
14.0317541385
 21
11.9236501862
  0
LINE
  5
4E7
100
AcDbEntity
  8
0
100
AcDbLine
 62
7
  6
CONTINUOUS
 10
14.0609741385
 20
10.8132901862
 11
14.0609741385
 21
10.7548501862
  0
LINE
  5
4E8
100
AcDbEntity
  8
0
100
AcDbLine
 62
7
  6
CONTINUOUS
 10
14.0707141385
 20
11.1834101862
 11
14.0707141385
 21
11.1249701862
  0
LINE
  5
4E9
100
AcDbEntity
  8
0
100
AcDbLine
 62
7
  6
CONTINUOUS
 10
14.0901941385
 20
11.9236501862
 11
14.0901941385
 21
11.8652101862
  0
LINE
  5
4EA
100
AcDbEntity
  8
0
100
AcDbLine
 62
7
  6
CONTINUOUS
 10
14.0901941385
 20
11.3782101862
 11
14.0901941385
 21
11.3197701862
  0
LINE
  5
4EB
100
AcDbEntity
  8
0
100
AcDbLine
 62
7
  6
CONTINUOUS
 10
14.0901941385
 20
11.2808101862
 11
14.0901941385
 21
11.2223701862
  0
LINE
  5
4EC
100
AcDbEntity
  8
0
100
AcDbLine
 62
7
  6
CONTINUOUS
 10
14.0901941385
 20
10.9106901862
 11
14.0901941385
 21
10.8522501862
  0
LINE
  5
4ED
100
AcDbEntity
  8
0
100
AcDbLine
 62
7
  6
CONTINUOUS
 10
14.0901941385
 20
10.8132901862
 11
14.0901941385
 21
10.7548501862
  0
LINE
  5
4EE
100
AcDbEntity
  8
0
100
AcDbLine
 62
7
  6
CONTINUOUS
 10
14.0901941385
 20
11.1249701862
 11
14.0901941385
 21
11.1639301862
  0
LINE
  5
4EF
100
AcDbEntity
  8
0
100
AcDbLine
 62
7
  6
CONTINUOUS
 10
14.0901941385
 20
11.5145701862
 11
14.0901941385
 21
11.5730101862
  0
LINE
  5
4F0
100
AcDbEntity
  8
0
100
AcDbLine
 62
7
  6
CONTINUOUS
 10
14.1194141385
 20
10.9569551862
 11
14.1194141385
 21
10.9423451862
  0
LINE
  5
4F1
100
AcDbEntity
  8
0
100
AcDbLine
 62
7
  6
CONTINUOUS
 10
14.1486341385
 20
11.7483301862
 11
14.1486341385
 21
11.6898901862
  0
LINE
  5
4F2
100
AcDbEntity
  8
0
100
AcDbLine
 62
7
  6
CONTINUOUS
 10
14.1486341385
 20
11.8652101862
 11
14.1486341385
 21
11.9236501862
  0
LINE
  5
4F3
100
AcDbEntity
  8
03__ASM_ALL_CURVES
100
AcDbLine
 62
4
  6
CONTINUOUS
 10
13.5252741391
 20
11.1931501862
 11
13.5155341388
 21
11.2004551862
  0
LINE
  5
4F4
100
AcDbEntity
  8
03__ASM_ALL_CURVES
100
AcDbLine
 62
4
  6
CONTINUOUS
 10
13.5934541385
 20
11.1420151862
 11
13.6129341408
 21
11.1274051862
  0
LINE
  5
4F5
100
AcDbEntity
  8
03__ASM_ALL_CURVES
100
AcDbLine
 62
4
  6
CONTINUOUS
 10
13.7590341391
 20
11.1347101862
 11
13.7492941388
 21
11.1420151862
  0
LINE
  5
4F6
100
AcDbEntity
  8
03__ASM_ALL_CURVES
100
AcDbLine
 62
4
  6
CONTINUOUS
 10
13.5934541385
 20
11.2588951862
 11
13.6129341408
 21
11.2442851862
  0
LINE
  5
4F7
100
AcDbEntity
  8
03__ASM_ALL_CURVES
100
AcDbLine
 62
4
  6
CONTINUOUS
 10
13.8466941408
 20
11.1858451862
 11
13.8369541362
 21
11.1931501862
  0
LINE
  5
4F8
100
AcDbEntity
  8
03__ASM_ALL_CURVES
100
AcDbLine
 62
4
  6
CONTINUOUS
 10
13.5350141385
 20
11.6606701862
 11
13.5155341388
 21
11.6752801862
  0
LINE
  5
4F9
100
AcDbEntity
  8
03__ASM_ALL_CURVES
100
AcDbLine
 62
4
  6
CONTINUOUS
 10
15.4380691385
 20
7.8081695612
 11
15.4530899682
 21
7.7856383112
  0
LINE
  5
4FA
100
AcDbEntity
  8
03__ASM_ALL_CURVES
100
AcDbLine
 62
4
  6
CONTINUOUS
 10
13.5155341388
 20
10.9740001862
 11
13.5057941385
 21
10.9886101862
  0
LINE
  5
4FB
100
AcDbEntity
  8
03__ASM_ALL_CURVES
100
AcDbLine
 62
4
  6
CONTINUOUS
 10
15.6032983047
 20
7.8532320612
 11
15.6183191385
 21
7.8307008112
  0
LINE
  5
4FC
100
AcDbEntity
  8
03__ASM_ALL_CURVES
100
AcDbLine
 62
4
  6
CONTINUOUS
 10
15.8251733087
 20
7.6053883112
 11
15.8101524682
 21
7.6279195612
  0
LINE
  5
4FD
100
AcDbEntity
  8
03__ASM_ALL_CURVES
100
AcDbLine
 62
4
  6
CONTINUOUS
 10
13.5155341388
 20
11.0835751862
 11
13.5057941385
 21
11.0981851862
  0
LINE
  5
4FE
100
AcDbEntity
  8
03__ASM_ALL_CURVES
100
AcDbLine
 62
4
  6
CONTINUOUS
 10
13.5155341388
 20
11.2004551862
 11
13.5057941385
 21
11.2150651862
  0
LINE
  5
4FF
100
AcDbEntity
  8
03__ASM_ALL_CURVES
100
AcDbLine
 62
4
  6
CONTINUOUS
 10
15.9152983047
 20
7.6729820612
 11
15.9303191385
 21
7.6504508112
  0
LINE
  5
500
100
AcDbEntity
  8
03__ASM_ALL_CURVES
100
AcDbLine
 62
4
  6
CONTINUOUS
 10
13.6129341408
 20
11.1274051862
 11
13.6226741385
 21
11.1127951862
  0
LINE
  5
501
100
AcDbEntity
  8
03__ASM_ALL_CURVES
100
AcDbLine
 62
4
  6
CONTINUOUS
 10
13.6129341408
 20
11.2442851862
 11
13.6226741385
 21
11.2296751862
  0
LINE
  5
502
100
AcDbEntity
  8
03__ASM_ALL_CURVES
100
AcDbLine
 62
4
  6
CONTINUOUS
 10
13.7492941388
 20
11.1420151862
 11
13.7395541385
 21
11.1566251862
  0
LINE
  5
503
100
AcDbEntity
  8
03__ASM_ALL_CURVES
100
AcDbLine
 62
4
  6
CONTINUOUS
 10
15.5281941385
 20
6.1633883112
 11
15.5131733087
 21
6.1971851862
  0
LINE
  5
504
100
AcDbEntity
  8
03__ASM_ALL_CURVES
100
AcDbLine
 62
4
  6
CONTINUOUS
 10
15.8401941385
 20
5.6226383112
 11
15.8251733087
 21
5.6564351862
  0
LINE
  5
505
100
AcDbEntity
  8
03__ASM_ALL_CURVES
100
AcDbLine
 62
4
  6
CONTINUOUS
 10
15.4380691385
 20
7.9884195612
 11
15.4681108087
 21
8.0109508112
  0
LINE
  5
506
100
AcDbEntity
  8
03__ASM_ALL_CURVES
100
AcDbLine
 62
4
  6
CONTINUOUS
 10
15.4681108087
 20
7.8644976862
 11
15.4530899682
 21
7.8532320612
  0
LINE
  5
507
100
AcDbEntity
  8
03__ASM_ALL_CURVES
100
AcDbLine
 62
4
  6
CONTINUOUS
 10
15.5432149736
 20
7.8532320612
 11
15.5582358034
 21
7.8644976862
  0
LINE
  5
508
100
AcDbEntity
  8
03__ASM_ALL_CURVES
100
AcDbLine
 62
4
  6
CONTINUOUS
 10
15.4831316385
 20
7.7743726862
 11
15.4981524682
 21
7.7856383112
  0
LINE
  5
509
100
AcDbEntity
  8
03__ASM_ALL_CURVES
100
AcDbLine
 62
4
  6
CONTINUOUS
 10
15.6032983047
 20
7.7856383112
 11
15.5732566385
 21
7.7631070612
  0
LINE
  5
50A
100
AcDbEntity
  8
03__ASM_ALL_CURVES
100
AcDbLine
 62
4
  6
CONTINUOUS
 10
15.7500691385
 20
7.8081695612
 11
15.7801108087
 21
7.8307008112
  0
LINE
  5
50B
100
AcDbEntity
  8
03__ASM_ALL_CURVES
100
AcDbLine
 62
4
  6
CONTINUOUS
 10
11.3001941385
 20
13.4308101862
 11
11.0601941385
 21
13.4308101862
  0
LINE
  5
50C
100
AcDbEntity
  8
03__ASM_ALL_CURVES
100
AcDbLine
 62
4
  6
CONTINUOUS
 10
13.6226741385
 20
11.7994651862
 11
13.6031941362
 21
11.8140751862
  0
LINE
  5
50D
100
AcDbEntity
  8
03__ASM_ALL_CURVES
100
AcDbLine
 62
4
  6
CONTINUOUS
 10
13.5155341388
 20
11.6752801862
 11
13.5057941385
 21
11.6898901862
  0
LINE
  5
50E
100
AcDbEntity
  8
03__ASM_ALL_CURVES
100
AcDbLine
 62
4
  6
CONTINUOUS
 10
13.8564341385
 20
11.1712351862
 11
13.8466941408
 21
11.1858451862
  0
LINE
  5
50F
100
AcDbEntity
  8
03__ASM_ALL_CURVES
100
AcDbLine
 62
4
  6
CONTINUOUS
 10
15.8251733087
 20
7.6729820612
 11
15.8401941385
 21
7.6842476862
  0
LINE
  5
510
100
AcDbEntity
  8
03__ASM_ALL_CURVES
100
AcDbLine
 62
4
  6
CONTINUOUS
 10
15.5882774709
 20
7.4476695612
 11
15.6183191385
 21
7.4702008112
  0
LINE
  5
511
100
AcDbEntity
  8
03__ASM_ALL_CURVES
100
AcDbLine
 62
4
  6
CONTINUOUS
 10
15.9152983047
 20
7.6053883112
 11
15.9002774709
 21
7.5941226862
  0
LINE
  5
512
100
AcDbEntity
  8
03__ASM_ALL_CURVES
100
AcDbLine
 62
4
  6
CONTINUOUS
 10
15.4380691385
 20
7.0871695612
 11
15.4681108087
 21
7.1097008112
  0
LINE
  5
513
100
AcDbEntity
  8
03__ASM_ALL_CURVES
100
AcDbLine
 62
4
  6
CONTINUOUS
 10
15.9077878878
 20
7.3068492487
 11
15.9303191385
 21
7.3237476862
  0
LINE
  5
514
100
AcDbEntity
  8
03__ASM_ALL_CURVES
100
AcDbLine
 62
4
  6
CONTINUOUS
 10
15.4530899682
 20
6.9519820612
 11
15.4681108087
 21
6.9632476862
  0
LINE
  5
515
100
AcDbEntity
  8
03__ASM_ALL_CURVES
100
AcDbLine
 62
4
  6
CONTINUOUS
 10
15.5281941385
 20
6.2309820612
 11
15.5582358034
 21
6.2422476862
  0
LINE
  5
516
100
AcDbEntity
  8
03__ASM_ALL_CURVES
100
AcDbLine
 62
4
  6
CONTINUOUS
 10
15.5882774709
 20
6.1633883112
 11
15.5582358034
 21
6.1521226862
  0
LINE
  5
517
100
AcDbEntity
  8
03__ASM_ALL_CURVES
100
AcDbLine
 62
4
  6
CONTINUOUS
 10
15.8401941385
 20
6.2422476862
 11
15.8702358034
 21
6.2535133112
  0
LINE
  5
518
100
AcDbEntity
  8
03__ASM_ALL_CURVES
100
AcDbLine
 62
4
  6
CONTINUOUS
 10
6.3567816385
 20
13.6586851862
 11
6.339883201
 21
13.6586851862
  0
LINE
  5
519
100
AcDbEntity
  8
03__ASM_ALL_CURVES
100
AcDbLine
 62
4
  6
CONTINUOUS
 10
6.1427347635
 20
13.6586851862
 11
6.1202035135
 21
13.6586851862
  0
LINE
  5
51A
100
AcDbEntity
  8
03__ASM_ALL_CURVES
100
AcDbLine
 62
4
  6
CONTINUOUS
 10
5.2414847635
 20
13.6586851862
 11
5.2189535135
 21
13.6586851862
  0
LINE
  5
51B
100
AcDbEntity
  8
03__ASM_ALL_CURVES
100
AcDbLine
 62
4
  6
CONTINUOUS
 10
4.9147816385
 20
13.6586851862
 11
4.897883201
 21
13.6586851862
  0
LINE
  5
51C
100
AcDbEntity
  8
03__ASM_ALL_CURVES
100
AcDbLine
 62
4
  6
CONTINUOUS
 10
5.9061566385
 20
13.6586851862
 11
5.9962816385
 21
13.6586851862
  0
LINE
  5
51D
100
AcDbEntity
  8
03__ASM_ALL_CURVES
100
AcDbLine
 62
4
  6
CONTINUOUS
 10
6.4469066385
 20
13.6586851862
 11
6.5370316385
 21
13.6586851862
  0
LINE
  5
51E
100
AcDbEntity
  8
03__ASM_ALL_CURVES
100
AcDbLine
 62
4
  6
CONTINUOUS
 10
6.6271566385
 20
13.6586851862
 11
6.7172816385
 21
13.6586851862
  0
LINE
  5
51F
100
AcDbEntity
  8
03__ASM_ALL_CURVES
100
AcDbLine
 62
4
  6
CONTINUOUS
 10
4.6444066385
 20
13.7037476862
 11
4.7457972635
 21
13.7037476862
  0
LINE
  5
520
100
AcDbEntity
  8
03__ASM_ALL_CURVES
100
AcDbLine
 62
4
  6
CONTINUOUS
 10
8.9099441385
 20
13.7488101862
 11
7.6635941385
 21
13.7488101862
  0
LINE
  5
521
100
AcDbEntity
  8
0
100
AcDbLine
 62
7
  6
CONTINUOUS
 10
9.0901941385
 20
13.7488103884
 11
15.8401941385
 21
13.7488103884
  0
LINE
  5
522
100
AcDbEntity
  8
03__ASM_ALL_CURVES
100
AcDbLine
 62
4
  6
CONTINUOUS
 10
5.2189535135
 20
13.763831016
 11
5.2414847635
 21
13.763831016
  0
LINE
  5
523
100
AcDbEntity
  8
03__ASM_ALL_CURVES
100
AcDbLine
 62
4
  6
CONTINUOUS
 10
6.1202035135
 20
13.7788518565
 11
6.1427347635
 21
13.7788518565
  0
LINE
  5
524
100
AcDbEntity
  8
03__ASM_ALL_CURVES
100
AcDbLine
 62
4
  6
CONTINUOUS
 10
6.1765316385
 20
13.8389351862
 11
6.1089378885
 21
13.8389351862
  0
LINE
  5
525
100
AcDbEntity
  8
03__ASM_ALL_CURVES
100
AcDbLine
 62
4
  6
CONTINUOUS
 10
5.2189535135
 20
13.8389351862
 11
5.2414847635
 21
13.8389351862
  0
LINE
  5
526
100
AcDbEntity
  8
03__ASM_ALL_CURVES
100
AcDbLine
 62
4
  6
CONTINUOUS
 10
5.9399535135
 20
13.8389351862
 11
5.9624847635
 21
13.8389351862
  0
LINE
  5
527
100
AcDbEntity
  8
03__ASM_ALL_CURVES
100
AcDbLine
 62
4
  6
CONTINUOUS
 10
6.4807035135
 20
13.8389351862
 11
6.5032347635
 21
13.8389351862
  0
LINE
  5
528
100
AcDbEntity
  8
03__ASM_ALL_CURVES
100
AcDbLine
 62
4
  6
CONTINUOUS
 10
6.6609535135
 20
13.8389351862
 11
6.6834847635
 21
13.8389351862
  0
LINE
  5
529
100
AcDbEntity
  8
03__ASM_ALL_CURVES
100
AcDbLine
 62
4
  6
CONTINUOUS
 10
15.4380691385
 20
7.8307008112
 11
15.4380691385
 21
7.8081695612
  0
LINE
  5
52A
100
AcDbEntity
  8
03__ASM_ALL_CURVES
100
AcDbLine
 62
4
  6
CONTINUOUS
 10
15.4380691385
 20
5.4649195612
 11
15.4380691385
 21
5.4874508112
  0
LINE
  5
52B
100
AcDbEntity
  8
03__ASM_ALL_CURVES
100
AcDbLine
 62
4
  6
CONTINUOUS
 10
15.4380691385
 20
6.3661695612
 11
15.4380691385
 21
6.3887008112
  0
LINE
  5
52C
100
AcDbEntity
  8
03__ASM_ALL_CURVES
100
AcDbLine
 62
4
  6
CONTINUOUS
 10
15.4380691385
 20
6.7266695612
 11
15.4380691385
 21
6.7492008112
  0
LINE
  5
52D
100
AcDbEntity
  8
03__ASM_ALL_CURVES
100
AcDbLine
 62
4
  6
CONTINUOUS
 10
15.4380691385
 20
6.9069195612
 11
15.4380691385
 21
6.9294508112
  0
LINE
  5
52E
100
AcDbEntity
  8
03__ASM_ALL_CURVES
100
AcDbLine
 62
4
  6
CONTINUOUS
 10
15.5131733087
 20
5.4649195612
 11
15.5131733087
 21
5.4874508112
  0
LINE
  5
52F
100
AcDbEntity
  8
03__ASM_ALL_CURVES
100
AcDbLine
 62
4
  6
CONTINUOUS
 10
15.5131733087
 20
6.3661695612
 11
15.5131733087
 21
6.3887008112
  0
LINE
  5
530
100
AcDbEntity
  8
03__ASM_ALL_CURVES
100
AcDbLine
 62
4
  6
CONTINUOUS
 10
15.5131733087
 20
6.7266695612
 11
15.5131733087
 21
6.7492008112
  0
LINE
  5
531
100
AcDbEntity
  8
03__ASM_ALL_CURVES
100
AcDbLine
 62
4
  6
CONTINUOUS
 10
15.5281941385
 20
8.6305601862
 11
15.5281941385
 21
8.0898101862
  0
LINE
  5
532
100
AcDbEntity
  8
03__ASM_ALL_CURVES
100
AcDbLine
 62
4
  6
CONTINUOUS
 10
15.5732566385
 20
5.2508726862
 11
15.5732566385
 21
5.3522633112
  0
LINE
  5
533
100
AcDbEntity
  8
03__ASM_ALL_CURVES
100
AcDbLine
 62
4
  6
CONTINUOUS
 10
15.6183191385
 20
7.8307008112
 11
15.6183191385
 21
7.8081695612
  0
LINE
  5
534
100
AcDbEntity
  8
03__ASM_ALL_CURVES
100
AcDbLine
 62
4
  6
CONTINUOUS
 10
15.6183191385
 20
6.7492008112
 11
15.6183191385
 21
6.7266695612
  0
LINE
  5
535
100
AcDbEntity
  8
03__ASM_ALL_CURVES
100
AcDbLine
 62
4
  6
CONTINUOUS
 10
15.6183191385
 20
6.6027476862
 11
15.6183191385
 21
6.5858492487
  0
LINE
  5
536
100
AcDbEntity
  8
03__ASM_ALL_CURVES
100
AcDbLine
 62
4
  6
CONTINUOUS
 10
15.6183191385
 20
6.3887008112
 11
15.6183191385
 21
6.3661695612
  0
LINE
  5
537
100
AcDbEntity
  8
03__ASM_ALL_CURVES
100
AcDbLine
 62
4
  6
CONTINUOUS
 10
15.6183191385
 20
5.4874508112
 11
15.6183191385
 21
5.4649195612
  0
LINE
  5
538
100
AcDbEntity
  8
03__ASM_ALL_CURVES
100
AcDbLine
 62
4
  6
CONTINUOUS
 10
15.6183191385
 20
5.1607476862
 11
15.6183191385
 21
5.1438492487
  0
LINE
  5
539
100
AcDbEntity
  8
03__ASM_ALL_CURVES
100
AcDbLine
 62
4
  6
CONTINUOUS
 10
15.6183191385
 20
6.8731226862
 11
15.6183191385
 21
6.9632476862
  0
LINE
  5
53A
100
AcDbEntity
  8
03__ASM_ALL_CURVES
100
AcDbLine
 62
4
  6
CONTINUOUS
 10
15.6183191385
 20
7.5941226862
 11
15.6183191385
 21
7.6842476862
  0
LINE
  5
53B
100
AcDbEntity
  8
03__ASM_ALL_CURVES
100
AcDbLine
 62
4
  6
CONTINUOUS
 10
15.4530899682
 20
7.8532320612
 11
15.4380691385
 21
7.8307008112
  0
LINE
  5
53C
100
AcDbEntity
  8
03__ASM_ALL_CURVES
100
AcDbLine
 62
4
  6
CONTINUOUS
 10
15.4981524682
 20
7.7856383112
 11
15.5432149736
 21
7.8532320612
  0
LINE
  5
53D
100
AcDbEntity
  8
03__ASM_ALL_CURVES
100
AcDbLine
 62
4
  6
CONTINUOUS
 10
15.6183191385
 20
7.8081695612
 11
15.6032983047
 21
7.7856383112
  0
LINE
  5
53E
100
AcDbEntity
  8
03__ASM_ALL_CURVES
100
AcDbLine
 62
4
  6
CONTINUOUS
 10
15.4530899682
 20
6.7717320612
 11
15.4681108087
 21
6.7829976862
  0
LINE
  5
53F
100
AcDbEntity
  8
03__ASM_ALL_CURVES
100
AcDbLine
 62
4
  6
CONTINUOUS
 10
15.5281941385
 20
6.7717320612
 11
15.5582358034
 21
6.7942633112
  0
LINE
  5
540
100
AcDbEntity
  8
03__ASM_ALL_CURVES
100
AcDbLine
 62
4
  6
CONTINUOUS
 10
15.6032983047
 20
6.7041383112
 11
15.5882774709
 21
6.6928726862
  0
LINE
  5
541
100
AcDbEntity
  8
03__ASM_ALL_CURVES
100
AcDbLine
 62
4
  6
CONTINUOUS
 10
15.5957878878
 20
6.5858492487
 11
15.6183191385
 21
6.6027476862
  0
LINE
  5
542
100
AcDbEntity
  8
03__ASM_ALL_CURVES
100
AcDbLine
 62
4
  6
CONTINUOUS
 10
15.4530899682
 20
6.4112320612
 11
15.4681108087
 21
6.4224976862
  0
LINE
  5
543
100
AcDbEntity
  8
03__ASM_ALL_CURVES
100
AcDbLine
 62
4
  6
CONTINUOUS
 10
15.5281941385
 20
6.4112320612
 11
15.5582358034
 21
6.4337633112
  0
LINE
  5
544
100
AcDbEntity
  8
03__ASM_ALL_CURVES
100
AcDbLine
 62
4
  6
CONTINUOUS
 10
15.8401941385
 20
5.6902320612
 11
15.8702358034
 21
5.7014976862
  0
LINE
  5
545
100
AcDbEntity
  8
03__ASM_ALL_CURVES
100
AcDbLine
 62
4
  6
CONTINUOUS
 10
15.9002774709
 20
5.6226383112
 11
15.8702358034
 21
5.6113726862
  0
LINE
  5
546
100
AcDbEntity
  8
03__ASM_ALL_CURVES
100
AcDbLine
 62
4
  6
CONTINUOUS
 10
15.7500691385
 20
7.6842476862
 11
15.7500691385
 21
7.6166539362
  0
LINE
  5
547
100
AcDbEntity
  8
03__ASM_ALL_CURVES
100
AcDbLine
 62
4
  6
CONTINUOUS
 10
15.7500691385
 20
6.9632476862
 11
15.7500691385
 21
6.8731226862
  0
LINE
  5
548
100
AcDbEntity
  8
03__ASM_ALL_CURVES
100
AcDbLine
 62
4
  6
CONTINUOUS
 10
15.7500691385
 20
6.2422476862
 11
15.7500691385
 21
6.1746539362
  0
LINE
  5
549
100
AcDbEntity
  8
03__ASM_ALL_CURVES
100
AcDbLine
 62
4
  6
CONTINUOUS
 10
15.7500691385
 20
6.0619976862
 11
15.7500691385
 21
5.9718726862
  0
LINE
  5
54A
100
AcDbEntity
  8
03__ASM_ALL_CURVES
100
AcDbLine
 62
4
  6
CONTINUOUS
 10
15.8101524682
 20
6.1859195612
 11
15.8101524682
 21
6.2084508112
  0
LINE
  5
54B
100
AcDbEntity
  8
03__ASM_ALL_CURVES
100
AcDbLine
 62
4
  6
CONTINUOUS
 10
15.8101524682
 20
7.6279195612
 11
15.8101524682
 21
7.6504508112
  0
LINE
  5
54C
100
AcDbEntity
  8
03__ASM_ALL_CURVES
100
AcDbLine
 62
4
  6
CONTINUOUS
 10
15.8401941385
 20
8.6305601862
 11
15.8401941385
 21
8.0898101862
  0
LINE
  5
54D
100
AcDbEntity
  8
0
100
AcDbLine
 62
7
  6
CONTINUOUS
 10
15.8401941385
 20
8.8108101862
 11
15.8401941385
 21
13.7488103884
  0
LINE
  5
54E
100
AcDbEntity
  8
03__ASM_ALL_CURVES
100
AcDbLine
 62
4
  6
CONTINUOUS
 10
15.8852566385
 20
7.4138726862
 11
15.8852566385
 21
7.5152633112
  0
LINE
  5
54F
100
AcDbEntity
  8
03__ASM_ALL_CURVES
100
AcDbLine
 62
4
  6
CONTINUOUS
 10
15.9303191385
 20
7.6504508112
 11
15.9303191385
 21
7.6279195612
  0
LINE
  5
550
100
AcDbEntity
  8
03__ASM_ALL_CURVES
100
AcDbLine
 62
4
  6
CONTINUOUS
 10
15.9303191385
 20
7.3237476862
 11
15.9303191385
 21
7.3068492487
  0
LINE
  5
551
100
AcDbEntity
  8
03__ASM_ALL_CURVES
100
AcDbLine
 62
4
  6
CONTINUOUS
 10
15.9303191385
 20
6.2084508112
 11
15.9303191385
 21
6.1859195612
  0
LINE
  5
552
100
AcDbEntity
  8
03__ASM_ALL_CURVES
100
AcDbLine
 62
4
  6
CONTINUOUS
 10
15.9303191385
 20
5.8817476862
 11
15.9303191385
 21
5.8648492487
  0
LINE
  5
553
100
AcDbEntity
  8
03__ASM_ALL_CURVES
100
AcDbLine
 62
4
  6
CONTINUOUS
 10
15.8101524682
 20
7.6504508112
 11
15.8251733087
 21
7.6729820612
  0
LINE
  5
554
100
AcDbEntity
  8
03__ASM_ALL_CURVES
100
AcDbLine
 62
4
  6
CONTINUOUS
 10
15.4380691385
 20
6.9294508112
 11
15.4530899682
 21
6.9519820612
  0
LINE
  5
555
100
AcDbEntity
  8
03__ASM_ALL_CURVES
100
AcDbLine
 62
4
  6
CONTINUOUS
 10
15.9303191385
 20
7.6279195612
 11
15.9152983047
 21
7.6053883112
  0
LINE
  5
556
100
AcDbEntity
  8
03__ASM_ALL_CURVES
100
AcDbLine
 62
4
  6
CONTINUOUS
 10
15.4380691385
 20
6.7492008112
 11
15.4530899682
 21
6.7717320612
  0
LINE
  5
557
100
AcDbEntity
  8
03__ASM_ALL_CURVES
100
AcDbLine
 62
4
  6
CONTINUOUS
 10
15.5131733087
 20
6.7492008112
 11
15.5281941385
 21
6.7717320612
  0
LINE
  5
558
100
AcDbEntity
  8
03__ASM_ALL_CURVES
100
AcDbLine
 62
4
  6
CONTINUOUS
 10
15.6183191385
 20
6.7266695612
 11
15.6032983047
 21
6.7041383112
  0
LINE
  5
559
100
AcDbEntity
  8
03__ASM_ALL_CURVES
100
AcDbLine
 62
4
  6
CONTINUOUS
 10
15.4380691385
 20
6.3887008112
 11
15.4530899682
 21
6.4112320612
  0
LINE
  5
55A
100
AcDbEntity
  8
03__ASM_ALL_CURVES
100
AcDbLine
 62
4
  6
CONTINUOUS
 10
15.5131733087
 20
6.3887008112
 11
15.5281941385
 21
6.4112320612
  0
LINE
  5
55B
100
AcDbEntity
  8
03__ASM_ALL_CURVES
100
AcDbLine
 62
4
  6
CONTINUOUS
 10
15.6032983047
 20
6.3436383112
 11
15.5882774709
 21
6.3323726862
  0
LINE
  5
55C
100
AcDbEntity
  8
03__ASM_ALL_CURVES
100
AcDbLine
 62
4
  6
CONTINUOUS
 10
15.4530899682
 20
6.2197164362
 11
15.4681108087
 21
6.2309820612
  0
LINE
  5
55D
100
AcDbEntity
  8
03__ASM_ALL_CURVES
100
AcDbLine
 62
4
  6
CONTINUOUS
 10
15.9002774709
 20
6.5464195612
 11
15.9303191385
 21
6.5689508112
  0
LINE
  5
55E
100
AcDbEntity
  8
03__ASM_ALL_CURVES
100
AcDbLine
 62
4
  6
CONTINUOUS
 10
15.6032983047
 20
6.1746539362
 11
15.5882774709
 21
6.1633883112
  0
LINE
  5
55F
100
AcDbEntity
  8
03__ASM_ALL_CURVES
100
AcDbLine
 62
4
  6
CONTINUOUS
 10
15.8251733087
 20
6.2309820612
 11
15.8401941385
 21
6.2422476862
  0
LINE
  5
560
100
AcDbEntity
  8
03__ASM_ALL_CURVES
100
AcDbLine
 62
4
  6
CONTINUOUS
 10
15.9152983047
 20
6.1633883112
 11
15.9002774709
 21
6.1521226862
  0
LINE
  5
561
100
AcDbEntity
  8
03__ASM_ALL_CURVES
100
AcDbLine
 62
4
  6
CONTINUOUS
 10
15.5882774709
 20
5.8254195612
 11
15.6183191385
 21
5.8479508112
  0
LINE
  5
562
100
AcDbEntity
  8
03__ASM_ALL_CURVES
100
AcDbLine
 62
4
  6
CONTINUOUS
 10
15.5281941385
 20
4.9692320612
 11
15.5582358034
 21
4.9804976862
  0
LINE
  5
563
100
AcDbEntity
  8
03__ASM_ALL_CURVES
100
AcDbLine
 62
4
  6
CONTINUOUS
 10
15.5882774709
 20
4.9016383112
 11
15.5582358034
 21
4.8903726862
  0
LINE
  5
564
100
AcDbEntity
  8
03__ASM_ALL_CURVES
100
AcDbLine
 62
4
  6
CONTINUOUS
 10
15.5131733087
 20
6.1971851862
 11
15.5281941385
 21
6.2309820612
  0
LINE
  5
565
100
AcDbEntity
  8
03__ASM_ALL_CURVES
100
AcDbLine
 62
4
  6
CONTINUOUS
 10
15.4380691385
 20
6.1971851862
 11
15.4530899682
 21
6.2197164362
  0
LINE
  5
566
100
AcDbEntity
  8
03__ASM_ALL_CURVES
100
AcDbLine
 62
4
  6
CONTINUOUS
 10
15.6183191385
 20
6.3661695612
 11
15.6032983047
 21
6.3436383112
  0
LINE
  5
567
100
AcDbEntity
  8
03__ASM_ALL_CURVES
100
AcDbLine
 62
4
  6
CONTINUOUS
 10
15.6183191385
 20
6.1971851862
 11
15.6032983047
 21
6.1746539362
  0
LINE
  5
568
100
AcDbEntity
  8
03__ASM_ALL_CURVES
100
AcDbLine
 62
4
  6
CONTINUOUS
 10
15.8101524682
 20
6.2084508112
 11
15.8251733087
 21
6.2309820612
  0
LINE
  5
569
100
AcDbEntity
  8
03__ASM_ALL_CURVES
100
AcDbLine
 62
4
  6
CONTINUOUS
 10
15.4380691385
 20
5.4874508112
 11
15.4530899682
 21
5.5099820612
  0
LINE
  5
56A
100
AcDbEntity
  8
03__ASM_ALL_CURVES
100
AcDbLine
 62
4
  6
CONTINUOUS
 10
15.9303191385
 20
6.1859195612
 11
15.9152983047
 21
6.1633883112
  0
LINE
  5
56B
100
AcDbEntity
  8
03__ASM_ALL_CURVES
100
AcDbLine
 62
4
  6
CONTINUOUS
 10
15.9077878878
 20
5.8648492487
 11
15.9303191385
 21
5.8817476862
  0
LINE
  5
56C
100
AcDbEntity
  8
03__ASM_ALL_CURVES
100
AcDbLine
 62
4
  6
CONTINUOUS
 10
15.4530899682
 20
5.5099820612
 11
15.4681108087
 21
5.5212476862
  0
LINE
  5
56D
100
AcDbEntity
  8
03__ASM_ALL_CURVES
100
AcDbLine
 62
4
  6
CONTINUOUS
 10
15.5281941385
 20
5.5099820612
 11
15.5582358034
 21
5.5325133112
  0
LINE
  5
56E
100
AcDbEntity
  8
03__ASM_ALL_CURVES
100
AcDbLine
 62
4
  6
CONTINUOUS
 10
15.7650899682
 20
5.6789664362
 11
15.7801108087
 21
5.6902320612
  0
LINE
  5
56F
100
AcDbEntity
  8
03__ASM_ALL_CURVES
100
AcDbLine
 62
4
  6
CONTINUOUS
 10
15.6032983047
 20
5.4423883112
 11
15.5882774709
 21
5.4311226862
  0
LINE
  5
570
100
AcDbEntity
  8
03__ASM_ALL_CURVES
100
AcDbLine
 62
4
  6
CONTINUOUS
 10
15.9152983047
 20
5.6339039362
 11
15.9002774709
 21
5.6226383112
  0
LINE
  5
571
100
AcDbEntity
  8
03__ASM_ALL_CURVES
100
AcDbLine
 62
4
  6
CONTINUOUS
 10
15.8251733087
 20
5.6564351862
 11
15.8401941385
 21
5.6902320612
  0
LINE
  5
572
100
AcDbEntity
  8
03__ASM_ALL_CURVES
100
AcDbLine
 62
4
  6
CONTINUOUS
 10
15.5131733087
 20
4.9354351862
 11
15.5281941385
 21
4.9692320612
  0
LINE
  5
573
100
AcDbEntity
  8
03__ASM_ALL_CURVES
100
AcDbLine
 62
4
  6
CONTINUOUS
 10
15.5131733087
 20
5.4874508112
 11
15.5281941385
 21
5.5099820612
  0
LINE
  5
574
100
AcDbEntity
  8
03__ASM_ALL_CURVES
100
AcDbLine
 62
4
  6
CONTINUOUS
 10
15.6183191385
 20
5.4649195612
 11
15.6032983047
 21
5.4423883112
  0
LINE
  5
575
100
AcDbEntity
  8
03__ASM_ALL_CURVES
100
AcDbLine
 62
4
  6
CONTINUOUS
 10
15.7500691385
 20
5.6564351862
 11
15.7650899682
 21
5.6789664362
  0
LINE
  5
576
100
AcDbEntity
  8
03__ASM_ALL_CURVES
100
AcDbLine
 62
4
  6
CONTINUOUS
 10
15.4380691385
 20
4.9354351862
 11
15.4530899682
 21
4.9579664362
  0
LINE
  5
577
100
AcDbEntity
  8
03__ASM_ALL_CURVES
100
AcDbLine
 62
4
  6
CONTINUOUS
 10
15.9303191385
 20
5.6564351862
 11
15.9152983047
 21
5.6339039362
  0
LINE
  5
578
100
AcDbEntity
  8
03__ASM_ALL_CURVES
100
AcDbLine
 62
4
  6
CONTINUOUS
 10
15.6183191385
 20
4.9354351862
 11
15.6032983047
 21
4.9129039362
  0
LINE
  5
579
100
AcDbEntity
  8
03__ASM_ALL_CURVES
100
AcDbLine
 62
4
  6
CONTINUOUS
 10
15.5957878878
 20
5.1438492487
 11
15.6183191385
 21
5.1607476862
  0
LINE
  5
57A
100
AcDbEntity
  8
03__ASM_ALL_CURVES
100
AcDbLine
 62
4
  6
CONTINUOUS
 10
15.4530899682
 20
4.9579664362
 11
15.4681108087
 21
4.9692320612
  0
LINE
  5
57B
100
AcDbEntity
  8
03__ASM_ALL_CURVES
100
AcDbLine
 62
4
  6
CONTINUOUS
 10
15.6032983047
 20
4.9129039362
 11
15.5882774709
 21
4.9016383112
  0
CIRCLE
  5
57C
100
AcDbEntity
  8
0
100
AcDbCircle
 62
7
  6
CONTINUOUS
 10
11.0901941385
 20
12.2798102873
 40
0.28
  0
CIRCLE
  5
57D
100
AcDbEntity
  8
0
100
AcDbCircle
 62
7
  6
CONTINUOUS
 10
11.0901941385
 20
12.2798102873
 40
0.211
  0
CIRCLE
  5
57E
100
AcDbEntity
  8
0
100
AcDbCircle
 62
7
  6
CONTINUOUS
 10
14.0901941385
 20
11.8067701862
 40
0.17532
  0
SPLINE
  5
57F
100
AcDbEntity
  8
0
100
AcDbSpline
 62
7
  6
CONTINUOUS
 70
0
 71
3
 72
20
 73
16
 74
14
 42
0.0000001
 43
0.0000001
 44
0.0000000001
 12
-0.2214657768
 22
0.4042544147
 32
0.0
 13
0.2214657768
 23
0.4042544147
 33
0.0
 40
0.0
 40
0.0
 40
0.0
 40
0.0
 40
0.0853077823
 40
0.1660700899
 40
0.2434301233
 40
0.3183561817
 40
0.3916408071
 40
0.4639826105
 40
0.5360173904
 40
0.6083591937
 40
0.6816438191
 40
0.7565698775
 40
0.8339299107
 40
0.9146922177
 40
1.0
 40
1.0
 40
1.0
 40
1.0
 10
8.2821667697
 20
9.3572055277
 30
0.0
 10
8.275869185
 20
9.3687008769
 30
0.0
 10
8.2641799445
 20
9.3913999884
 30
0.0
 10
8.2490843195
 20
9.4256479631
 30
0.0
 10
8.2369055737
 20
9.459354112
 30
0.0
 10
8.2276526286
 20
9.492793567
 30
0.0
 10
8.2214003026
 20
9.5261437157
 30
0.0
 10
8.2182426095
 20
9.5594860123
 30
0.0
 10
8.2182426095
 20
9.5928343605
 30
0.0
 10
8.2214003026
 20
9.6261766572
 30
0.0
 10
8.2276526287
 20
9.6595268058
 30
0.0
 10
8.2369055738
 20
9.6929662608
 30
0.0
 10
8.2490843196
 20
9.7266724096
 30
0.0
 10
8.2641799445
 20
9.7609203842
 30
0.0
 10
8.2758691849
 20
9.7836194956
 30
0.0
 10
8.2821667697
 20
9.7951148448
 30
0.0
 11
8.2821667697
 21
9.3572055277
 31
0.0
 11
8.2642270149
 21
9.3921967958
 31
0.0
 11
8.2492756779
 21
9.4262892502
 31
0.0
 11
8.2372200228
 21
9.4598480961
 31
0.0
 11
8.2280652738
 21
9.4931493236
 31
0.0
 11
8.2218840283
 21
9.5263590276
 31
0.0
 11
8.2187640161
 21
9.559558212
 31
0.0
 11
8.2187640162
 21
9.5927621609
 31
0.0
 11
8.2218840284
 21
9.6259613453
 31
0.0
 11
8.2280652739
 21
9.6591710493
 31
0.0
 11
8.2372200229
 21
9.6924722767
 31
0.0
 11
8.249275678
 21
9.7260311225
 31
0.0
 11
8.2642270149
 21
9.7601235767
 31
0.0
 11
8.2821667697
 21
9.7951148448
 31
0.0
  0
SPLINE
  5
580
100
AcDbEntity
  8
0
100
AcDbSpline
 62
7
  6
CONTINUOUS
 70
0
 71
3
 72
20
 73
16
 74
14
 42
0.0000001
 43
0.0000001
 44
0.0000000001
 12
-0.2345201498
 22
0.8561666478
 32
0.0
 13
0.2345201498
 23
0.8561666478
 33
0.0
 40
0.0
 40
0.0
 40
0.0
 40
0.0
 40
0.0813843647
 40
0.1600195683
 40
0.236837628
 40
0.3125707272
 40
0.3877154844
 40
0.4625957607
 40
0.5374042402
 40
0.6122845165
 40
0.6874292736
 40
0.7631623728
 40
0.8399804323
 40
0.9186156352
 40
1.0
 40
1.0
 40
1.0
 40
1.0
 10
8.2821667697
 20
9.8419008691
 30
0.0
 10
8.2758046786
 20
9.8651270621
 30
0.0
 10
8.2640111973
 20
9.9109956462
 30
0.0
 10
8.248950438
 20
9.9794542801
 30
0.0
 10
8.2368109578
 20
10.0467954092
 30
0.0
 10
8.2275979962
 20
10.1135587312
 30
0.0
 10
8.2213798754
 20
10.1800936899
 30
0.0
 10
8.2182422837
 20
10.2465725763
 30
0.0
 10
8.2182422837
 20
10.313047797
 30
0.0
 10
8.2213798755
 20
10.3795266833
 30
0.0
 10
8.2275979962
 20
10.446061642
 30
0.0
 10
8.2368109579
 20
10.512824964
 30
0.0
 10
8.248950438
 20
10.5801660928
 30
0.0
 10
8.2640111973
 20
10.6486247264
 30
0.0
 10
8.2758046786
 20
10.6944933104
 30
0.0
 10
8.2821667697
 20
10.7177195033
 30
0.0
 11
8.2821667697
 21
9.8419008691
 31
0.0
 11
8.2642270149
 21
9.9118834053
 31
0.0
 11
8.2492756779
 21
9.9800683142
 31
0.0
 11
8.2372200228
 21
10.0471860059
 31
0.0
 11
8.2280652738
 21
10.1137884609
 31
0.0
 11
8.2218840283
 21
10.1802078689
 31
0.0
 11
8.2187640161
 21
10.2466062378
 31
0.0
 11
8.2187640162
 21
10.3130141355
 31
0.0
 11
8.2218840284
 21
10.3794125043
 31
0.0
 11
8.2280652739
 21
10.4458319123
 31
0.0
 11
8.2372200229
 21
10.5124343672
 31
0.0
 11
8.249275678
 21
10.5795520588
 31
0.0
 11
8.2642270149
 21
10.6477369672
 31
0.0
 11
8.2821667697
 21
10.7177195033
 31
0.0
  0
SPLINE
  5
581
100
AcDbEntity
  8
0
100
AcDbSpline
 62
7
  6
CONTINUOUS
 70
0
 71
3
 72
20
 73
16
 74
14
 42
0.0000001
 43
0.0000001
 44
0.0000000001
 12
-0.2214657768
 22
0.4042544147
 32
0.0
 13
0.2214657768
 23
0.4042544147
 33
0.0
 40
0.0
 40
0.0
 40
0.0
 40
0.0
 40
0.0853077823
 40
0.1660700899
 40
0.2434301233
 40
0.3183561817
 40
0.3916408071
 40
0.4639826105
 40
0.5360173904
 40
0.6083591937
 40
0.6816438191
 40
0.7565698775
 40
0.8339299107
 40
0.9146922177
 40
1.0
 40
1.0
 40
1.0
 40
1.0
 10
8.2821667697
 20
10.7645055277
 30
0.0
 10
8.275869185
 20
10.7760008769
 30
0.0
 10
8.2641799445
 20
10.7986999884
 30
0.0
 10
8.2490843195
 20
10.8329479631
 30
0.0
 10
8.2369055737
 20
10.866654112
 30
0.0
 10
8.2276526286
 20
10.900093567
 30
0.0
 10
8.2214003026
 20
10.9334437157
 30
0.0
 10
8.2182426095
 20
10.9667860123
 30
0.0
 10
8.2182426095
 20
11.0001343605
 30
0.0
 10
8.2214003026
 20
11.0334766572
 30
0.0
 10
8.2276526287
 20
11.0668268058
 30
0.0
 10
8.2369055738
 20
11.1002662608
 30
0.0
 10
8.2490843196
 20
11.1339724096
 30
0.0
 10
8.2641799445
 20
11.1682203842
 30
0.0
 10
8.2758691849
 20
11.1909194956
 30
0.0
 10
8.2821667697
 20
11.2024148448
 30
0.0
 11
8.2821667697
 21
10.7645055277
 31
0.0
 11
8.2642270149
 21
10.7994967958
 31
0.0
 11
8.2492756779
 21
10.8335892502
 31
0.0
 11
8.2372200228
 21
10.8671480961
 31
0.0
 11
8.2280652738
 21
10.9004493236
 31
0.0
 11
8.2218840283
 21
10.9336590276
 31
0.0
 11
8.2187640161
 21
10.966858212
 31
0.0
 11
8.2187640162
 21
11.0000621609
 31
0.0
 11
8.2218840284
 21
11.0332613453
 31
0.0
 11
8.2280652739
 21
11.0664710493
 31
0.0
 11
8.2372200229
 21
11.0997722767
 31
0.0
 11
8.249275678
 21
11.1333311225
 31
0.0
 11
8.2642270149
 21
11.1674235767
 31
0.0
 11
8.2821667697
 21
11.2024148448
 31
0.0
  0
ENDSEC
  0
SECTION
  2
OBJECTS
  0
DICTIONARY
  5
C
100
AcDbDictionary
280
0
281
1
  3
ACAD_GROUP
350
D
  3
ACAD_MLINESTYLE
350
17
  3
ACAD_LAYOUT
350
1A
  3
ACAD_PLOTSETTINGS
350
19
  3
ACAD_PLOTSTYLENAME
350
E
  0
DICTIONARY
  5
D
102
{ACAD_REACTORS
330
C
102
}
100
AcDbDictionary
280
0
281
1
  0
ACDBDICTIONARYWDFLT
  5
E
102
{ACAD_REACTORS
330
C
102
}
100
AcDbDictionary
281
1
  3
Normal
350
F
100
AcDbDictionaryWithDefault
340
F
  0
DICTIONARY
  5
17
102
{ACAD_REACTORS
330
C
102
}
100
AcDbDictionary
280
0
281
1
  3
Standard
350
18
  0
DICTIONARY
  5
19
102
{ACAD_REACTORS
330
C
102
}
100
AcDbDictionary
281
1
  0
DICTIONARY
  5
1A
102
{ACAD_REACTORS
330
C
102
}
100
AcDbDictionary
281
1
  3
Layout1
350
1E
  3
Model
350
22
  0
ACDBPLACEHOLDER
  5
F
102
{ACAD_REACTORS
330
E
102
}
  0
MLINESTYLE
  5
18
102
{ACAD_REACTORS
330
17
102
}
100
AcDbMlineStyle
  2
STANDARD
 70
0
  3

 62
256
 51
90.0
 52
90.0
 71
2
 49
0.5
 62
256
  6
BYLAYER
 49
-0.5
 62
256
  6
BYLAYER
  0
LAYOUT
  5
1E
102
{ACAD_REACTORS
330
1A
102
}
100
AcDbPlotSettings
  1

  2

  4

  6

 40
0.0
 41
0.0
 42
0.0
 43
0.0
 44
0.0
 45
0.0
 46
0.0
 47
0.0
 48
0.0
 49
0.0
140
0.0
141
0.0
142
1.0
143
1.0
 70
0
 72
0
 73
0
 74
0
  7

 75
0
147
1.0
148
0.0
149
0.0
100
AcDbLayout
  1
Layout1
 70
0
 71
0
 10
0.0
 20
0.0
 11
0.0
 21
0.0
 12
0.0
 22
0.0
 32
0.0
 14
0.0
 24
0.0
 34
0.0
 15
0.0
 25
0.0
 35
0.0
146
0.0
 13
0.0
 23
0.0
 33
0.0
 16
0.0
 26
0.0
 36
0.0
 17
0.0
 27
0.0
 37
0.0
 76
0
330
1B
331
0
345
0
346
0
  0
LAYOUT
  5
22
102
{ACAD_REACTORS
330
1A
102
}
100
AcDbPlotSettings
  1

  2

  4

  6

 40
0.0
 41
0.0
 42
0.0
 43
0.0
 44
0.0
 45
0.0
 46
0.0
 47
0.0
 48
0.0
 49
0.0
140
0.0
141
0.0
142
1.0
143
1.0
 70
0
 72
0
 73
0
 74
0
  7

 75
0
147
1.0
148
0.0
149
0.0
100
AcDbLayout
  1
Model
 70
0
 71
0
 10
0.0
 20
0.0
 11
0.0
 21
0.0
 12
0.0
 22
0.0
 32
0.0
 14
0.0
 24
0.0
 34
0.0
 15
0.0
 25
0.0
 35
0.0
146
0.0
 13
0.0
 23
0.0
 33
0.0
 16
0.0
 26
0.0
 36
0.0
 17
0.0
 27
0.0
 37
0.0
 76
0
330
1F
331
0
345
0
346
0
  0
ENDSEC
  0
EOF
