999
DXF file: LNS_2.dxf
999
Pro/ENGINEER 2006240 by Parametric Technology Corporation
  0
SECTION
  2
HEADER
  9
$ACADVER
  1
AC1015
  9
$DWGCODEPAGE
  3
ANSI_1252
  9
$EXTMAX
 10
22.0
 20
17.0
 30
0.0
  9
$EXTMIN
 10
0.0
 20
0.0
 30
0.0
  9
$LIMMIN
 10
0.0
 20
0.0
  9
$LIMMAX
 10
22.0
 20
17.0
  9
$VIEWCTR
 10
11.0
 20
8.5
  9
$VIEWSIZE
 40
17.0
  9
$CLAYER
  8
0
  9
$LTSCALE
 40
1.21
  9
$CELTYPE
  6
BYLAYER
  9
$DIMSCALE
 40
1.0
  9
$DIMASZ
 40
0.1875
  9
$DIMEXO
 40
0.1375
  9
$DIMDLI
 40
0.836
  9
$DIMEXE
 40
0.396
  9
$DIMCEN
 40
0.198
  9
$DIMLFAC
 40
1.0
  9
$DIMBLK
  1
_CLOSED
  9
$DIMTXT
 40
0.15625
  9
$DIMTOL
 70
0
  9
$DIMLIM
 70
0
  9
$DIMTFAC
 40
1.0
  9
$PDMODE
 70
3
  9
$PDSIZE
 40
0.3125
  9
$HANDSEED
  5
4AA
  9
$MEASUREMENT
 70
0
  9
$INSUNITS
 70
1
  0
ENDSEC
  0
SECTION
  2
CLASSES
  0
CLASS
  1
ACDBDICTIONARYWDFLT
  2
AcDbDictionaryWithDefault
  3
AutoCAD 2000
 90
0
280
0
281
0
  0
CLASS
  1
ACDBPLACEHOLDER
  2
AcDbPlaceHolder
  3
AutoCAD 2000
 90
0
280
0
281
0
  0
CLASS
  1
LAYOUT
  2
AcDbLayout
  3
AutoCAD 2000
 90
0
280
0
281
0
  0
ENDSEC
  0
SECTION
  2
TABLES
  0
TABLE
  2
VPORT
  5
8
100
AcDbSymbolTable
 70
2
  0
VPORT
  5
1F4
100
AcDbSymbolTableRecord
100
AcDbViewportTableRecord
  2
*ACTIVE
 70
0
 10
0.0
 20
0.0
 11
1.0
 21
1.0
 12
11.0
 22
8.5
 13
0.0
 23
0.0
 14
1.0
 24
1.0
 15
0.0
 25
0.0
 16
0.0
 26
0.0
 36
1.0
 17
0.0
 27
0.0
 37
0.0
 40
17.0
 41
1.2941176471
 42
50.0
 43
0.0
 44
0.0
 50
0.0
 51
0.0
 71
0
 72
100
 73
1
 74
1
 75
0
 76
0
 77
0
 78
0
  0
ENDTAB
  0
TABLE
  2
LTYPE
  5
5
100
AcDbSymbolTable
 70
6
  0
LTYPE
  5
14
100
AcDbSymbolTableRecord
100
AcDbLinetypeTableRecord
  2
BYBLOCK
 70
0
  3

 72
65
 73
0
 40
0.0
  0
LTYPE
  5
15
100
AcDbSymbolTableRecord
100
AcDbLinetypeTableRecord
  2
BYLAYER
 70
0
  3

 72
65
 73
0
 40
0.0
  0
LTYPE
  5
16
100
AcDbSymbolTableRecord
100
AcDbLinetypeTableRecord
  2
CONTINUOUS
 70
64
  3
Solid line
 72
65
 73
0
 40
0.0
  0
LTYPE
  5
1F5
100
AcDbSymbolTableRecord
100
AcDbLinetypeTableRecord
  2
CENTER
 70
64
  3
____ _ ____ _ ____ _ ____ _ ____ _ ____ _ ____
 72
65
 73
4
 40
0.6
 49
0.375
 74
0
 49
-0.075
 74
0
 49
0.075
 74
0
 49
-0.075
 74
0
  0
LTYPE
  5
1F6
100
AcDbSymbolTableRecord
100
AcDbLinetypeTableRecord
  2
HIDDEN
 70
64
  3
- - - - - - - - - - - - - - - - - - - -
 72
65
 73
2
 40
0.2
 49
0.1
 74
0
 49
-0.1
 74
0
  0
LTYPE
  5
1F7
100
AcDbSymbolTableRecord
100
AcDbLinetypeTableRecord
  2
PHANTOM
 70
64
  3
_____ _ _ _____ _ _ _____ _ _ _____
 72
65
 73
6
 40
0.8
 49
0.45
 74
0
 49
-0.05
 74
0
 49
0.1
 74
0
 49
-0.05
 74
0
 49
0.1
 74
0
 49
-0.05
 74
0
  0
LTYPE
  5
1F8
100
AcDbSymbolTableRecord
100
AcDbLinetypeTableRecord
  2
DOT
 70
64
  3
. . . . . . . . . . . . . . . . . . . .
 72
65
 73
2
 40
0.2
 49
0.1
 74
0
 49
-0.1
 74
0
  0
LTYPE
  5
1F9
100
AcDbSymbolTableRecord
100
AcDbLinetypeTableRecord
  2
DASHED
 70
64
  3
- - - - - - - - - - - - - - - - - - - -
 72
65
 73
2
 40
0.2
 49
0.1
 74
0
 49
-0.1
 74
0
  0
ENDTAB
  0
TABLE
  2
LAYER
  5
2
100
AcDbSymbolTable
 70
36
  0
LAYER
  5
10
100
AcDbSymbolTableRecord
100
AcDbLayerTableRecord
  2
0
 70
0
 62
7
  6
CONTINUOUS
370
-3
390
F
  0
LAYER
  5
1FA
100
AcDbSymbolTableRecord
100
AcDbLayerTableRecord
  2
DEFAULT_1
 70
0
 62
7
  6
CENTER
370
-3
390
F
  0
LAYER
  5
1FB
100
AcDbSymbolTableRecord
100
AcDbLayerTableRecord
  2
DEFAULT_2
 70
0
 62
8
  6
HIDDEN
370
-3
390
F
  0
LAYER
  5
1FC
100
AcDbSymbolTableRecord
100
AcDbLayerTableRecord
  2
DEFAULT_3
 70
0
 62
7
  6
PHANTOM
370
-3
390
F
  0
LAYER
  5
1FD
100
AcDbSymbolTableRecord
100
AcDbLayerTableRecord
  2
01_ALL_DTM_PLN
 70
0
 62
7
  6
CONTINUOUS
370
-3
390
F
  0
LAYER
  5
1FE
100
AcDbSymbolTableRecord
100
AcDbLayerTableRecord
  2
01__ASM_ALL_DTM_PLN
 70
0
 62
7
  6
CONTINUOUS
370
-3
390
F
  0
LAYER
  5
1FF
100
AcDbSymbolTableRecord
100
AcDbLayerTableRecord
  2
01__ASM_DEF_DTM_PLN
 70
0
 62
7
  6
CONTINUOUS
370
-3
390
F
  0
LAYER
  5
200
100
AcDbSymbolTableRecord
100
AcDbLayerTableRecord
  2
01___PRT_ALL_DTM_PLN
 70
0
 62
7
  6
CONTINUOUS
370
-3
390
F
  0
LAYER
  5
201
100
AcDbSymbolTableRecord
100
AcDbLayerTableRecord
  2
01___PRT_DEF_DTM_PLN
 70
0
 62
7
  6
CONTINUOUS
370
-3
390
F
  0
LAYER
  5
202
100
AcDbSymbolTableRecord
100
AcDbLayerTableRecord
  2
02_ALL_AXES
 70
0
 62
7
  6
CONTINUOUS
370
-3
390
F
  0
LAYER
  5
203
100
AcDbSymbolTableRecord
100
AcDbLayerTableRecord
  2
02__ASM_ALL_AXES
 70
0
 62
7
  6
CONTINUOUS
370
-3
390
F
  0
LAYER
  5
204
100
AcDbSymbolTableRecord
100
AcDbLayerTableRecord
  2
02___PRT_ALL_AXES
 70
0
 62
7
  6
CONTINUOUS
370
-3
390
F
  0
LAYER
  5
205
100
AcDbSymbolTableRecord
100
AcDbLayerTableRecord
  2
03_ALL_CURVES
 70
0
 62
7
  6
CONTINUOUS
370
-3
390
F
  0
LAYER
  5
206
100
AcDbSymbolTableRecord
100
AcDbLayerTableRecord
  2
03__ASM_ALL_CURVES
 70
0
 62
7
  6
CONTINUOUS
370
-3
390
F
  0
LAYER
  5
207
100
AcDbSymbolTableRecord
100
AcDbLayerTableRecord
  2
03___PRT_ALL_CURVES
 70
0
 62
7
  6
CONTINUOUS
370
-3
390
F
  0
LAYER
  5
208
100
AcDbSymbolTableRecord
100
AcDbLayerTableRecord
  2
04_ALL_DTM_PNT
 70
0
 62
7
  6
CONTINUOUS
370
-3
390
F
  0
LAYER
  5
209
100
AcDbSymbolTableRecord
100
AcDbLayerTableRecord
  2
04__ASM_ALL_DTM_PNT
 70
0
 62
7
  6
CONTINUOUS
370
-3
390
F
  0
LAYER
  5
20A
100
AcDbSymbolTableRecord
100
AcDbLayerTableRecord
  2
04___PRT_ALL_DTM_PNT
 70
0
 62
7
  6
CONTINUOUS
370
-3
390
F
  0
LAYER
  5
20B
100
AcDbSymbolTableRecord
100
AcDbLayerTableRecord
  2
05_ALL_DTM_CSYS
 70
0
 62
7
  6
CONTINUOUS
370
-3
390
F
  0
LAYER
  5
20C
100
AcDbSymbolTableRecord
100
AcDbLayerTableRecord
  2
05__ASM_ALL_DTM_CSYS
 70
0
 62
7
  6
CONTINUOUS
370
-3
390
F
  0
LAYER
  5
20D
100
AcDbSymbolTableRecord
100
AcDbLayerTableRecord
  2
05__ASM_DEF_DTM_CSYS
 70
0
 62
7
  6
CONTINUOUS
370
-3
390
F
  0
LAYER
  5
20E
100
AcDbSymbolTableRecord
100
AcDbLayerTableRecord
  2
05___PRT_ALL_DTM_CSYS
 70
0
 62
7
  6
CONTINUOUS
370
-3
390
F
  0
LAYER
  5
20F
100
AcDbSymbolTableRecord
100
AcDbLayerTableRecord
  2
05___PRT_DEF_DTM_CSYS
 70
0
 62
7
  6
CONTINUOUS
370
-3
390
F
  0
LAYER
  5
210
100
AcDbSymbolTableRecord
100
AcDbLayerTableRecord
  2
06_ALL_SURFS
 70
0
 62
7
  6
CONTINUOUS
370
-3
390
F
  0
LAYER
  5
211
100
AcDbSymbolTableRecord
100
AcDbLayerTableRecord
  2
06__ASM_ALL_SURFS
 70
0
 62
7
  6
CONTINUOUS
370
-3
390
F
  0
LAYER
  5
212
100
AcDbSymbolTableRecord
100
AcDbLayerTableRecord
  2
06___PRT_ALL_SURFS
 70
0
 62
7
  6
CONTINUOUS
370
-3
390
F
  0
LAYER
  5
213
100
AcDbSymbolTableRecord
100
AcDbLayerTableRecord
  2
07__ASM_ALL_SKELETONS
 70
0
 62
7
  6
CONTINUOUS
370
-3
390
F
  0
LAYER
  5
214
100
AcDbSymbolTableRecord
100
AcDbLayerTableRecord
  2
COPY_GEO_FET
 70
0
 62
7
  6
CONTINUOUS
370
-3
390
F
  0
LAYER
  5
215
100
AcDbSymbolTableRecord
100
AcDbLayerTableRecord
  2
COSMETIC
 70
0
 62
7
  6
CONTINUOUS
370
-3
390
F
  0
LAYER
  5
216
100
AcDbSymbolTableRecord
100
AcDbLayerTableRecord
  2
CUT_REF_SURF
 70
0
 62
7
  6
CONTINUOUS
370
-3
390
F
  0
LAYER
  5
217
100
AcDbSymbolTableRecord
100
AcDbLayerTableRecord
  2
DATESTAMP
 70
0
 62
7
  6
CONTINUOUS
370
-3
390
F
  0
LAYER
  5
218
100
AcDbSymbolTableRecord
100
AcDbLayerTableRecord
  2
DATUM
 70
0
 62
7
  6
CONTINUOUS
370
-3
390
F
  0
LAYER
  5
219
100
AcDbSymbolTableRecord
100
AcDbLayerTableRecord
  2
DATUM_B
 70
0
 62
7
  6
CONTINUOUS
370
-3
390
F
  0
LAYER
  5
21A
100
AcDbSymbolTableRecord
100
AcDbLayerTableRecord
  2
DATUM_PLANES
 70
0
 62
7
  6
CONTINUOUS
370
-3
390
F
  0
LAYER
  5
21B
100
AcDbSymbolTableRecord
100
AcDbLayerTableRecord
  2
DIM
 70
0
 62
7
  6
CONTINUOUS
370
-3
390
F
  0
LAYER
  5
21C
100
AcDbSymbolTableRecord
100
AcDbLayerTableRecord
  2
DIM_1
 70
0
 62
7
  6
CONTINUOUS
370
-3
390
F
  0
LAYER
  5
21D
100
AcDbSymbolTableRecord
100
AcDbLayerTableRecord
  2
DIM_2
 70
0
 62
7
  6
CONTINUOUS
370
-3
390
F
  0
LAYER
  5
21E
100
AcDbSymbolTableRecord
100
AcDbLayerTableRecord
  2
DIM_3
 70
0
 62
7
  6
CONTINUOUS
370
-3
390
F
  0
LAYER
  5
21F
100
AcDbSymbolTableRecord
100
AcDbLayerTableRecord
  2
DIM_4
 70
0
 62
7
  6
CONTINUOUS
370
-3
390
F
  0
LAYER
  5
220
100
AcDbSymbolTableRecord
100
AcDbLayerTableRecord
  2
DIM_5
 70
0
 62
7
  6
CONTINUOUS
370
-3
390
F
  0
LAYER
  5
221
100
AcDbSymbolTableRecord
100
AcDbLayerTableRecord
  2
DTM
 70
0
 62
7
  6
CONTINUOUS
370
-3
390
F
  0
LAYER
  5
222
100
AcDbSymbolTableRecord
100
AcDbLayerTableRecord
  2
EXT_COPY_GEO
 70
0
 62
7
  6
CONTINUOUS
370
-3
390
F
  0
LAYER
  5
223
100
AcDbSymbolTableRecord
100
AcDbLayerTableRecord
  2
LNS_10
 70
0
 62
7
  6
CONTINUOUS
370
-3
390
F
  0
LAYER
  5
224
100
AcDbSymbolTableRecord
100
AcDbLayerTableRecord
  2
LNS_14
 70
0
 62
7
  6
CONTINUOUS
370
-3
390
F
  0
LAYER
  5
225
100
AcDbSymbolTableRecord
100
AcDbLayerTableRecord
  2
LNS_2
 70
0
 62
7
  6
CONTINUOUS
370
-3
390
F
  0
LAYER
  5
226
100
AcDbSymbolTableRecord
100
AcDbLayerTableRecord
  2
LNS_5
 70
0
 62
7
  6
CONTINUOUS
370
-3
390
F
  0
LAYER
  5
227
100
AcDbSymbolTableRecord
100
AcDbLayerTableRecord
  2
LNS_6
 70
0
 62
7
  6
CONTINUOUS
370
-3
390
F
  0
LAYER
  5
228
100
AcDbSymbolTableRecord
100
AcDbLayerTableRecord
  2
LNS_7
 70
0
 62
7
  6
CONTINUOUS
370
-3
390
F
  0
LAYER
  5
229
100
AcDbSymbolTableRecord
100
AcDbLayerTableRecord
  2
LS
 70
0
 62
7
  6
CONTINUOUS
370
-3
390
F
  0
LAYER
  5
22A
100
AcDbSymbolTableRecord
100
AcDbLayerTableRecord
  2
ORIGIN
 70
0
 62
7
  6
CONTINUOUS
370
-3
390
F
  0
LAYER
  5
22B
100
AcDbSymbolTableRecord
100
AcDbLayerTableRecord
  2
PARTNUMBER
 70
0
 62
7
  6
CONTINUOUS
370
-3
390
F
  0
LAYER
  5
22C
100
AcDbSymbolTableRecord
100
AcDbLayerTableRecord
  2
PORT_AREAS
 70
0
 62
7
  6
CONTINUOUS
370
-3
390
F
  0
LAYER
  5
22D
100
AcDbSymbolTableRecord
100
AcDbLayerTableRecord
  2
TEXT
 70
0
 62
7
  6
CONTINUOUS
370
-3
390
F
  0
LAYER
  5
22E
100
AcDbSymbolTableRecord
100
AcDbLayerTableRecord
  2
THREAD
 70
0
 62
7
  6
CONTINUOUS
370
-3
390
F
  0
LAYER
  5
22F
100
AcDbSymbolTableRecord
100
AcDbLayerTableRecord
  2
THREADS
 70
0
 62
7
  6
CONTINUOUS
370
-3
390
F
  0
ENDTAB
  0
TABLE
  2
STYLE
  5
3
100
AcDbSymbolTable
 70
1
  0
STYLE
  5
11
100
AcDbSymbolTableRecord
100
AcDbTextStyleTableRecord
  2
STANDARD
 70
0
 40
0.0
 41
0.8
 50
0.0
 71
0
 42
0.2
  3
txt
  4

  0
ENDTAB
  0
TABLE
  2
VIEW
  5
6
100
AcDbSymbolTable
 70
0
  0
ENDTAB
  0
TABLE
  2
UCS
  5
7
100
AcDbSymbolTable
 70
0
  0
ENDTAB
  0
TABLE
  2
APPID
  5
9
100
AcDbSymbolTable
 70
1
  0
APPID
  5
230
100
AcDbSymbolTableRecord
100
AcDbRegAppTableRecord
  2
ACAD
 70
0
  0
ENDTAB
  0
TABLE
  2
BLOCK_RECORD
  5
1
100
AcDbSymbolTable
 70
0
  0
BLOCK_RECORD
  5
1F
100
AcDbSymbolTableRecord
100
AcDbBlockTableRecord
  2
*MODEL_SPACE
  0
BLOCK_RECORD
  5
1B
100
AcDbSymbolTableRecord
100
AcDbBlockTableRecord
  2
*PAPER_SPACE
  0
ENDTAB
  0
TABLE
  2
DIMSTYLE
  5
A
100
AcDbSymbolTable
 70
1
100
AcDbDimStyleTable
 71
0
  0
DIMSTYLE
105
231
100
AcDbSymbolTableRecord
100
AcDbDimStyleTableRecord
  2
STANDARD
 70
0
  3

  4

 40
1.0
 41
0.1875
 42
0.0625
 43
0.38
 44
0.18
 45
0.0
 46
0.0
 47
0.01
 48
0.01
140
0.15625
141
0.09
142
0.0
143
25.4
144
1.0
145
0.0
146
1.0
147
0.09
 71
0.0
 72
0.0
 73
1
 74
1
 75
0
 76
0
 77
0
 78
4
170
0
171
2
172
0
173
0
174
0
175
0
176
0
177
0
178
0
270
2
271
2
272
2
273
2
274
2
275
0
280
0
281
0
282
0
283
1
284
4
285
0
286
0
287
3
288
0
340
11
  0
ENDTAB
  0
ENDSEC
  0
SECTION
  2
BLOCKS
  0
BLOCK
  5
20
100
AcDbEntity
  8
0
100
AcDbBlockBegin
  2
*MODEL_SPACE
 70
0
 10
0.0
 20
0.0
 30
0.0
  3
*MODEL_SPACE
  1

  0
ENDBLK
  5
21
100
AcDbEntity
  8
0
100
AcDbBlockEnd
  0
BLOCK
  5
1C
100
AcDbEntity
  8
0
100
AcDbBlockBegin
  2
*PAPER_SPACE
 70
0
 10
0.0
 20
0.0
 30
0.0
  3
*PAPER_SPACE
  1

  0
ENDBLK
  5
1D
100
AcDbEntity
  8
0
100
AcDbBlockEnd
  0
ENDSEC
  0
SECTION
  2
ENTITIES
  0
LINE
  5
232
100
AcDbEntity
  8
03__ASM_ALL_CURVES
100
AcDbLine
 62
4
  6
CONTINUOUS
 10
5.7877846684
 20
4.1666691753
 11
5.7660199184
 21
4.181179009
  0
LINE
  5
233
100
AcDbEntity
  8
03__ASM_ALL_CURVES
100
AcDbLine
 62
4
  6
CONTINUOUS
 10
5.8095494184
 20
4.2827478454
 11
5.8313141684
 21
4.2682380051
  0
LINE
  5
234
100
AcDbEntity
  8
03__ASM_ALL_CURVES
100
AcDbLine
 62
4
  6
CONTINUOUS
 10
5.6517549809
 20
4.1884339259
 11
5.6680785434
 21
4.1666691753
  0
LINE
  5
235
100
AcDbEntity
  8
03__ASM_ALL_CURVES
100
AcDbLine
 62
4
  6
CONTINUOUS
 10
5.7660199184
 20
4.181179009
 11
5.7551375434
 21
4.1956888428
  0
LINE
  5
236
100
AcDbEntity
  8
03__ASM_ALL_CURVES
100
AcDbLine
 62
4
  6
CONTINUOUS
 10
5.8313141684
 20
4.2682380051
 11
5.8421965434
 21
4.2537281753
  0
LINE
  5
237
100
AcDbEntity
  8
03__ASM_ALL_CURVES
100
AcDbLine
 62
4
  6
CONTINUOUS
 10
6.1360206684
 20
4.1956888428
 11
6.1577854184
 21
4.1666691753
  0
LINE
  5
238
100
AcDbEntity
  8
03__ASM_ALL_CURVES
100
AcDbLine
 62
4
  6
CONTINUOUS
 10
5.8421965434
 20
4.2537281753
 11
5.8530789184
 21
4.2247085103
  0
LINE
  5
239
100
AcDbEntity
  8
03__ASM_ALL_CURVES
100
AcDbLine
 62
4
  6
CONTINUOUS
 10
5.3198425434
 20
6.5617675051
 11
5.3198425434
 21
6.5327478454
  0
LINE
  5
23A
100
AcDbEntity
  8
03__ASM_ALL_CURVES
100
AcDbLine
 62
4
  6
CONTINUOUS
 10
7.0066106684
 20
4.1666691753
 11
6.9848459184
 21
4.181179009
  0
LINE
  5
23B
100
AcDbEntity
  8
03__ASM_ALL_CURVES
100
AcDbLine
 62
4
  6
CONTINUOUS
 10
7.0283754184
 20
4.2682380051
 11
7.0501401684
 21
4.2537281753
  0
LINE
  5
23C
100
AcDbEntity
  8
03__ASM_ALL_CURVES
100
AcDbLine
 62
4
  6
CONTINUOUS
 10
7.0283754184
 20
4.3407871753
 11
7.0501401684
 21
4.3262773454
  0
LINE
  5
23D
100
AcDbEntity
  8
03__ASM_ALL_CURVES
100
AcDbLine
 62
4
  6
CONTINUOUS
 10
6.8705809809
 20
4.1884339259
 11
6.8869045434
 21
4.1666691753
  0
LINE
  5
23E
100
AcDbEntity
  8
03__ASM_ALL_CURVES
100
AcDbLine
 62
4
  6
CONTINUOUS
 10
6.9848459184
 20
4.181179009
 11
6.9739635434
 21
4.1956888428
  0
LINE
  5
23F
100
AcDbEntity
  8
03__ASM_ALL_CURVES
100
AcDbLine
 62
4
  6
CONTINUOUS
 10
7.0501401684
 20
4.2537281753
 11
7.0719049184
 21
4.2247085103
  0
LINE
  5
240
100
AcDbEntity
  8
03__ASM_ALL_CURVES
100
AcDbLine
 62
4
  6
CONTINUOUS
 10
5.3089601684
 20
6.5762773454
 11
5.3198425434
 21
6.5617675051
  0
LINE
  5
241
100
AcDbEntity
  8
03__ASM_ALL_CURVES
100
AcDbLine
 62
4
  6
CONTINUOUS
 10
7.0501401684
 20
4.3262773454
 11
7.0610225434
 21
4.3117675051
  0
LINE
  5
242
100
AcDbEntity
  8
03__ASM_ALL_CURVES
100
AcDbLine
 62
4
  6
CONTINUOUS
 10
5.4776369809
 20
6.4384339259
 11
5.4939605434
 21
6.4166691753
  0
LINE
  5
243
100
AcDbEntity
  8
03__ASM_ALL_CURVES
100
AcDbLine
 62
4
  6
CONTINUOUS
 10
7.1807286684
 20
4.3407871753
 11
7.2024934184
 21
4.3117675051
  0
LINE
  5
244
100
AcDbEntity
  8
03__ASM_ALL_CURVES
100
AcDbLine
 62
4
  6
CONTINUOUS
 10
6.1251382934
 20
4.2392183402
 11
6.1360206684
 21
4.1956888428
  0
LINE
  5
245
100
AcDbEntity
  8
03__ASM_ALL_CURVES
100
AcDbLine
 62
4
  6
CONTINUOUS
 10
5.4776369809
 20
6.4166691753
 11
5.4776369809
 21
6.4384339259
  0
LINE
  5
246
100
AcDbEntity
  8
03__ASM_ALL_CURVES
100
AcDbLine
 62
4
  6
CONTINUOUS
 10
5.4830781684
 20
4.1666691753
 11
5.4830781684
 21
4.3407871753
  0
LINE
  5
247
100
AcDbEntity
  8
03__ASM_ALL_CURVES
100
AcDbLine
 62
4
  6
CONTINUOUS
 10
5.6517549809
 20
4.1666691753
 11
5.6517549809
 21
4.1884339259
  0
LINE
  5
248
100
AcDbEntity
  8
03__ASM_ALL_CURVES
100
AcDbLine
 62
4
  6
CONTINUOUS
 10
5.6680785434
 20
6.5617675051
 11
5.6680785434
 21
6.5327478454
  0
LINE
  5
249
100
AcDbEntity
  8
03__ASM_ALL_CURVES
100
AcDbLine
 62
4
  6
CONTINUOUS
 10
5.2436659184
 20
6.4601986753
 11
5.2327835434
 21
6.4166691753
  0
LINE
  5
24A
100
AcDbEntity
  8
03__ASM_ALL_CURVES
100
AcDbLine
 62
4
  6
CONTINUOUS
 10
5.6571961684
 20
6.5762773454
 11
5.6680785434
 21
6.5617675051
  0
LINE
  5
24B
100
AcDbEntity
  8
03__ASM_ALL_CURVES
100
AcDbLine
 62
4
  6
CONTINUOUS
 10
5.7660199184
 20
6.431179009
 11
5.7551375434
 21
6.4456888428
  0
LINE
  5
24C
100
AcDbEntity
  8
03__ASM_ALL_CURVES
100
AcDbLine
 62
4
  6
CONTINUOUS
 10
5.8313141684
 20
6.5182380051
 11
5.8421965434
 21
6.5037281753
  0
LINE
  5
24D
100
AcDbEntity
  8
03__ASM_ALL_CURVES
100
AcDbLine
 62
4
  6
CONTINUOUS
 10
6.1360206684
 20
6.4456888428
 11
6.1577854184
 21
6.4166691753
  0
LINE
  5
24E
100
AcDbEntity
  8
03__ASM_ALL_CURVES
100
AcDbLine
 62
4
  6
CONTINUOUS
 10
6.2883739184
 20
6.431179009
 11
6.2774915434
 21
6.4456888428
  0
LINE
  5
24F
100
AcDbEntity
  8
03__ASM_ALL_CURVES
100
AcDbLine
 62
4
  6
CONTINUOUS
 10
5.8421965434
 20
6.5037281753
 11
5.8530789184
 21
6.4747085103
  0
LINE
  5
250
100
AcDbEntity
  8
03__ASM_ALL_CURVES
100
AcDbLine
 62
4
  6
CONTINUOUS
 10
6.1251382934
 20
6.4892183402
 11
6.1360206684
 21
6.4456888428
  0
LINE
  5
251
100
AcDbEntity
  8
03__ASM_ALL_CURVES
100
AcDbLine
 62
4
  6
CONTINUOUS
 10
6.1251382934
 20
6.5182380051
 11
6.1251382934
 21
6.4892183402
  0
LINE
  5
252
100
AcDbEntity
  8
03__ASM_ALL_CURVES
100
AcDbLine
 62
4
  6
CONTINUOUS
 10
6.1251382934
 20
4.2682380051
 11
6.1251382934
 21
4.2392183402
  0
LINE
  5
253
100
AcDbEntity
  8
03__ASM_ALL_CURVES
100
AcDbLine
 62
4
  6
CONTINUOUS
 10
6.3210210434
 20
4.3407871753
 11
6.3210210434
 21
4.1666691753
  0
LINE
  5
254
100
AcDbEntity
  8
03__ASM_ALL_CURVES
100
AcDbLine
 62
4
  6
CONTINUOUS
 10
5.7769022934
 20
6.5907871753
 11
5.7660199184
 21
6.5182380051
  0
LINE
  5
255
100
AcDbEntity
  8
03__ASM_ALL_CURVES
100
AcDbLine
 62
4
  6
CONTINUOUS
 10
5.5919019184
 20
6.4601986753
 11
5.5810195434
 21
6.4166691753
  0
LINE
  5
256
100
AcDbEntity
  8
03__ASM_ALL_CURVES
100
AcDbLine
 62
4
  6
CONTINUOUS
 10
7.0283754184
 20
4.1666691753
 11
7.0066106684
 21
4.1666691753
  0
LINE
  5
257
100
AcDbEntity
  8
03__ASM_ALL_CURVES
100
AcDbLine
 62
4
  6
CONTINUOUS
 10
6.8869045434
 20
4.1666691753
 11
6.8705809809
 21
4.1666691753
  0
LINE
  5
258
100
AcDbEntity
  8
03__ASM_ALL_CURVES
100
AcDbLine
 62
4
  6
CONTINUOUS
 10
5.8095494184
 20
4.1666691753
 11
5.7877846684
 21
4.1666691753
  0
LINE
  5
259
100
AcDbEntity
  8
03__ASM_ALL_CURVES
100
AcDbLine
 62
4
  6
CONTINUOUS
 10
5.6680785434
 20
4.1666691753
 11
5.6517549809
 21
4.1666691753
  0
LINE
  5
25A
100
AcDbEntity
  8
03__ASM_ALL_CURVES
100
AcDbLine
 62
4
  6
CONTINUOUS
 10
5.4069015434
 20
4.2101986753
 11
5.5048429184
 21
4.2101986753
  0
LINE
  5
25B
100
AcDbEntity
  8
03__ASM_ALL_CURVES
100
AcDbLine
 62
4
  6
CONTINUOUS
 10
6.6257275434
 20
4.2101986753
 11
6.7236689184
 21
4.2101986753
  0
LINE
  5
25C
100
AcDbEntity
  8
03__ASM_ALL_CURVES
100
AcDbLine
 62
4
  6
CONTINUOUS
 10
9.2214920434
 20
4.2537281753
 11
7.9751420434
 21
4.2537281753
  0
LINE
  5
25D
100
AcDbEntity
  8
0
100
AcDbLine
 62
7
  6
CONTINUOUS
 10
9.3956100434
 20
4.2537281753
 11
16.1456100434
 21
4.2537281753
  0
LINE
  5
25E
100
AcDbEntity
  8
03__ASM_ALL_CURVES
100
AcDbLine
 62
4
  6
CONTINUOUS
 10
7.0066106684
 20
4.2682380051
 11
7.0283754184
 21
4.2682380051
  0
LINE
  5
25F
100
AcDbEntity
  8
03__ASM_ALL_CURVES
100
AcDbLine
 62
4
  6
CONTINUOUS
 10
5.7877846684
 20
4.2827478454
 11
5.8095494184
 21
4.2827478454
  0
LINE
  5
260
100
AcDbEntity
  8
03__ASM_ALL_CURVES
100
AcDbLine
 62
4
  6
CONTINUOUS
 10
5.2871954184
 20
6.5907871753
 11
5.3089601684
 21
6.5762773454
  0
LINE
  5
261
100
AcDbEntity
  8
03__ASM_ALL_CURVES
100
AcDbLine
 62
4
  6
CONTINUOUS
 10
5.7877846684
 20
6.4166691753
 11
5.7660199184
 21
6.431179009
  0
LINE
  5
262
100
AcDbEntity
  8
03__ASM_ALL_CURVES
100
AcDbLine
 62
4
  6
CONTINUOUS
 10
5.6354314184
 20
6.5907871753
 11
5.6571961684
 21
6.5762773454
  0
LINE
  5
263
100
AcDbEntity
  8
03__ASM_ALL_CURVES
100
AcDbLine
 62
4
  6
CONTINUOUS
 10
5.8095494184
 20
6.5327478454
 11
5.8313141684
 21
6.5182380051
  0
LINE
  5
264
100
AcDbEntity
  8
03__ASM_ALL_CURVES
100
AcDbLine
 62
4
  6
CONTINUOUS
 10
6.3536681684
 20
6.5182380051
 11
6.3645505434
 21
6.5037281753
  0
LINE
  5
265
100
AcDbEntity
  8
03__ASM_ALL_CURVES
100
AcDbLine
 62
4
  6
CONTINUOUS
 10
6.6964629809
 20
6.4384339259
 11
6.7127865434
 21
6.4166691753
  0
LINE
  5
266
100
AcDbEntity
  8
03__ASM_ALL_CURVES
100
AcDbLine
 62
4
  6
CONTINUOUS
 10
6.3645505434
 20
6.5037281753
 11
6.3754329184
 21
6.4747085103
  0
LINE
  5
267
100
AcDbEntity
  8
03__ASM_ALL_CURVES
100
AcDbLine
 62
4
  6
CONTINUOUS
 10
7.2024934184
 20
4.3117675051
 11
7.2133757934
 21
4.2682380051
  0
LINE
  5
268
100
AcDbEntity
  8
03__ASM_ALL_CURVES
100
AcDbLine
 62
4
  6
CONTINUOUS
 10
6.4951390434
 20
4.3407871753
 11
6.4951390434
 21
4.1666691753
  0
LINE
  5
269
100
AcDbEntity
  8
03__ASM_ALL_CURVES
100
AcDbLine
 62
4
  6
CONTINUOUS
 10
6.6964629809
 20
6.4166691753
 11
6.6964629809
 21
6.4384339259
  0
LINE
  5
26A
100
AcDbEntity
  8
03__ASM_ALL_CURVES
100
AcDbLine
 62
4
  6
CONTINUOUS
 10
6.7019041684
 20
4.1666691753
 11
6.7019041684
 21
4.3407871753
  0
LINE
  5
26B
100
AcDbEntity
  8
03__ASM_ALL_CURVES
100
AcDbLine
 62
4
  6
CONTINUOUS
 10
6.8433750434
 20
6.5907871753
 11
6.8433750434
 21
6.4166691753
  0
LINE
  5
26C
100
AcDbEntity
  8
03__ASM_ALL_CURVES
100
AcDbLine
 62
4
  6
CONTINUOUS
 10
5.7769022934
 20
4.3407871753
 11
5.7660199184
 21
4.2682380051
  0
LINE
  5
26D
100
AcDbEntity
  8
03__ASM_ALL_CURVES
100
AcDbLine
 62
4
  6
CONTINUOUS
 10
6.2992562934
 20
6.5907871753
 11
6.2883739184
 21
6.5182380051
  0
LINE
  5
26E
100
AcDbEntity
  8
03__ASM_ALL_CURVES
100
AcDbLine
 62
4
  6
CONTINUOUS
 10
6.4951390434
 20
6.4166691753
 11
6.5060214184
 21
6.4892183402
  0
LINE
  5
26F
100
AcDbEntity
  8
03__ASM_ALL_CURVES
100
AcDbLine
 62
4
  6
CONTINUOUS
 10
6.1360206684
 20
6.5617675051
 11
6.1251382934
 21
6.5182380051
  0
LINE
  5
270
100
AcDbEntity
  8
03__ASM_ALL_CURVES
100
AcDbLine
 62
4
  6
CONTINUOUS
 10
8.4335510434
 20
11.7899108003
 11
8.4625707135
 21
11.8116755503
  0
LINE
  5
271
100
AcDbEntity
  8
03__ASM_ALL_CURVES
100
AcDbLine
 62
4
  6
CONTINUOUS
 10
8.4480608733
 20
11.6484399253
 11
8.4625707135
 21
11.6593223003
  0
LINE
  5
272
100
AcDbEntity
  8
03__ASM_ALL_CURVES
100
AcDbLine
 62
4
  6
CONTINUOUS
 10
5.8421965434
 20
4.3407871753
 11
5.7769022934
 21
4.3407871753
  0
LINE
  5
273
100
AcDbEntity
  8
03__ASM_ALL_CURVES
100
AcDbLine
 62
4
  6
CONTINUOUS
 10
7.0066106684
 20
4.3407871753
 11
7.0283754184
 21
4.3407871753
  0
LINE
  5
274
100
AcDbEntity
  8
03__ASM_ALL_CURVES
100
AcDbLine
 62
4
  6
CONTINUOUS
 10
6.3101386684
 20
6.4166691753
 11
6.2883739184
 21
6.431179009
  0
LINE
  5
275
100
AcDbEntity
  8
03__ASM_ALL_CURVES
100
AcDbLine
 62
4
  6
CONTINUOUS
 10
6.3319034184
 20
6.5327478454
 11
6.3536681684
 21
6.5182380051
  0
LINE
  5
276
100
AcDbEntity
  8
03__ASM_ALL_CURVES
100
AcDbLine
 62
4
  6
CONTINUOUS
 10
7.0066106684
 20
6.4166691753
 11
6.9848459184
 21
6.431179009
  0
LINE
  5
277
100
AcDbEntity
  8
03__ASM_ALL_CURVES
100
AcDbLine
 62
4
  6
CONTINUOUS
 10
6.9848459184
 20
6.431179009
 11
6.9739635434
 21
6.4456888428
  0
LINE
  5
278
100
AcDbEntity
  8
03__ASM_ALL_CURVES
100
AcDbLine
 62
4
  6
CONTINUOUS
 10
7.0501401684
 20
6.5182380051
 11
7.0610225434
 21
6.5037281753
  0
LINE
  5
279
100
AcDbEntity
  8
03__ASM_ALL_CURVES
100
AcDbLine
 62
4
  6
CONTINUOUS
 10
7.1807286684
 20
6.5907871753
 11
7.2024934184
 21
6.5617675051
  0
LINE
  5
27A
100
AcDbEntity
  8
03__ASM_ALL_CURVES
100
AcDbLine
 62
4
  6
CONTINUOUS
 10
7.0610225434
 20
6.5037281753
 11
7.0719049184
 21
6.4747085103
  0
LINE
  5
27B
100
AcDbEntity
  8
03__ASM_ALL_CURVES
100
AcDbLine
 62
4
  6
CONTINUOUS
 10
7.2024934184
 20
6.5617675051
 11
7.2133757934
 21
6.5182380051
  0
LINE
  5
27C
100
AcDbEntity
  8
03__ASM_ALL_CURVES
100
AcDbLine
 62
4
  6
CONTINUOUS
 10
6.8705809809
 20
4.1666691753
 11
6.8705809809
 21
4.1884339259
  0
LINE
  5
27D
100
AcDbEntity
  8
03__ASM_ALL_CURVES
100
AcDbLine
 62
4
  6
CONTINUOUS
 10
7.0610225434
 20
4.3117675051
 11
7.0610225434
 21
4.2972576753
  0
LINE
  5
27E
100
AcDbEntity
  8
03__ASM_ALL_CURVES
100
AcDbLine
 62
4
  6
CONTINUOUS
 10
7.0719049184
 20
4.2247085103
 11
7.0719049184
 21
4.2101986753
  0
LINE
  5
27F
100
AcDbEntity
  8
03__ASM_ALL_CURVES
100
AcDbLine
 62
4
  6
CONTINUOUS
 10
7.2133757934
 20
6.5182380051
 11
7.2133757934
 21
6.4892183402
  0
LINE
  5
280
100
AcDbEntity
  8
03__ASM_ALL_CURVES
100
AcDbLine
 62
4
  6
CONTINUOUS
 10
7.2133757934
 20
4.2682380051
 11
7.2133757934
 21
4.2392183402
  0
LINE
  5
281
100
AcDbEntity
  8
03__ASM_ALL_CURVES
100
AcDbLine
 62
4
  6
CONTINUOUS
 10
6.9957282934
 20
6.5907871753
 11
6.9848459184
 21
6.5182380051
  0
LINE
  5
282
100
AcDbEntity
  8
03__ASM_ALL_CURVES
100
AcDbLine
 62
4
  6
CONTINUOUS
 10
6.5060214184
 20
6.4892183402
 11
6.5169037934
 21
6.5327478454
  0
LINE
  5
283
100
AcDbEntity
  8
03__ASM_ALL_CURVES
100
AcDbLine
 62
4
  6
CONTINUOUS
 10
6.1360206684
 20
4.3117675051
 11
6.1251382934
 21
4.2682380051
  0
LINE
  5
284
100
AcDbEntity
  8
03__ASM_ALL_CURVES
100
AcDbLine
 62
4
  6
CONTINUOUS
 10
5.8530789184
 20
6.4747085103
 11
5.8421965434
 21
6.4456888428
  0
LINE
  5
285
100
AcDbEntity
  8
03__ASM_ALL_CURVES
100
AcDbLine
 62
4
  6
CONTINUOUS
 10
8.4335510434
 20
11.6266751753
 11
8.4480608733
 21
11.6484399253
  0
LINE
  5
286
100
AcDbEntity
  8
03__ASM_ALL_CURVES
100
AcDbLine
 62
4
  6
CONTINUOUS
 10
8.4335510434
 20
11.4525571753
 11
8.4480608733
 21
11.4743219253
  0
LINE
  5
287
100
AcDbEntity
  8
03__ASM_ALL_CURVES
100
AcDbLine
 62
4
  6
CONTINUOUS
 10
8.6076690434
 20
11.6266751753
 11
8.5931592097
 21
11.6049104253
  0
LINE
  5
288
100
AcDbEntity
  8
03__ASM_ALL_CURVES
100
AcDbLine
 62
4
  6
CONTINUOUS
 10
8.6076690434
 20
11.4525571753
 11
8.5931592097
 21
11.4307924253
  0
LINE
  5
289
100
AcDbEntity
  8
03__ASM_ALL_CURVES
100
AcDbLine
 62
4
  6
CONTINUOUS
 10
8.5931592097
 20
11.6049104253
 11
8.5786493759
 21
11.5940280503
  0
LINE
  5
28A
100
AcDbEntity
  8
03__ASM_ALL_CURVES
100
AcDbLine
 62
4
  6
CONTINUOUS
 10
8.4480608733
 20
11.4743219253
 11
8.4625707135
 21
11.4852043003
  0
LINE
  5
28B
100
AcDbEntity
  8
03__ASM_ALL_CURVES
100
AcDbLine
 62
4
  6
CONTINUOUS
 10
8.5931592097
 20
11.4307924253
 11
8.5786493759
 21
11.4199100503
  0
LINE
  5
28C
100
AcDbEntity
  8
03__ASM_ALL_CURVES
100
AcDbLine
 62
4
  6
CONTINUOUS
 10
8.5859042928
 20
11.3056451128
 11
8.6076690434
 21
11.3219686753
  0
LINE
  5
28D
100
AcDbEntity
  8
03__ASM_ALL_CURVES
100
AcDbLine
 62
4
  6
CONTINUOUS
 10
8.4480608733
 20
11.1369683003
 11
8.4625707135
 21
11.1478506753
  0
LINE
  5
28E
100
AcDbEntity
  8
03__ASM_ALL_CURVES
100
AcDbLine
 62
4
  6
CONTINUOUS
 10
8.4625707135
 20
11.6593223003
 11
8.4915903733
 21
11.6702046753
  0
LINE
  5
28F
100
AcDbEntity
  8
03__ASM_ALL_CURVES
100
AcDbLine
 62
4
  6
CONTINUOUS
 10
8.5206100434
 20
11.5940280503
 11
8.4915903733
 21
11.5831456753
  0
LINE
  5
290
100
AcDbEntity
  8
03__ASM_ALL_CURVES
100
AcDbLine
 62
4
  6
CONTINUOUS
 10
8.4625707135
 20
11.4852043003
 11
8.4915903733
 21
11.4960866753
  0
LINE
  5
291
100
AcDbEntity
  8
03__ASM_ALL_CURVES
100
AcDbLine
 62
4
  6
CONTINUOUS
 10
8.5786493759
 20
11.4199100503
 11
8.5496297084
 21
11.4090276753
  0
LINE
  5
292
100
AcDbEntity
  8
03__ASM_ALL_CURVES
100
AcDbLine
 62
4
  6
CONTINUOUS
 10
7.0283754184
 20
6.5327478454
 11
7.0501401684
 21
6.5182380051
  0
LINE
  5
293
100
AcDbEntity
  8
03__ASM_ALL_CURVES
100
AcDbLine
 62
4
  6
CONTINUOUS
 10
7.2133757934
 20
6.4892183402
 11
7.2024934184
 21
6.4456888428
  0
LINE
  5
294
100
AcDbEntity
  8
03__ASM_ALL_CURVES
100
AcDbLine
 62
4
  6
CONTINUOUS
 10
6.3754329184
 20
6.4747085103
 11
6.3645505434
 21
6.4456888428
  0
LINE
  5
295
100
AcDbEntity
  8
03__ASM_ALL_CURVES
100
AcDbLine
 62
4
  6
CONTINUOUS
 10
6.5169037934
 20
6.5327478454
 11
6.5386685434
 21
6.5907871753
  0
LINE
  5
296
100
AcDbEntity
  8
03__ASM_ALL_CURVES
100
AcDbLine
 62
4
  6
CONTINUOUS
 10
5.8530789184
 20
4.2247085103
 11
5.8421965434
 21
4.1956888428
  0
LINE
  5
297
100
AcDbEntity
  8
03__ASM_ALL_CURVES
100
AcDbLine
 62
4
  6
CONTINUOUS
 10
8.5351198785
 20
11.6266751753
 11
8.5206100434
 21
11.5940280503
  0
LINE
  5
298
100
AcDbEntity
  8
03__ASM_ALL_CURVES
100
AcDbLine
 62
4
  6
CONTINUOUS
 10
8.4335510434
 20
11.1152035503
 11
8.4480608733
 21
11.1369683003
  0
LINE
  5
299
100
AcDbEntity
  8
03__ASM_ALL_CURVES
100
AcDbLine
 62
4
  6
CONTINUOUS
 10
8.4335510434
 20
10.9410855503
 11
8.4480608733
 21
10.9628503003
  0
LINE
  5
29A
100
AcDbEntity
  8
03__ASM_ALL_CURVES
100
AcDbLine
 62
4
  6
CONTINUOUS
 10
5.2327835434
 20
6.5617675051
 11
5.2436659184
 21
6.5762773454
  0
LINE
  5
29B
100
AcDbEntity
  8
03__ASM_ALL_CURVES
100
AcDbLine
 62
4
  6
CONTINUOUS
 10
5.2654306684
 20
6.4892183402
 11
5.2436659184
 21
6.4601986753
  0
LINE
  5
29C
100
AcDbEntity
  8
03__ASM_ALL_CURVES
100
AcDbLine
 62
4
  6
CONTINUOUS
 10
5.3198425434
 20
6.5327478454
 11
5.3089601684
 21
6.5182380051
  0
LINE
  5
29D
100
AcDbEntity
  8
03__ASM_ALL_CURVES
100
AcDbLine
 62
4
  6
CONTINUOUS
 10
5.5810195434
 20
6.5617675051
 11
5.5919019184
 21
6.5762773454
  0
LINE
  5
29E
100
AcDbEntity
  8
03__ASM_ALL_CURVES
100
AcDbLine
 62
4
  6
CONTINUOUS
 10
8.4480608733
 20
10.9628503003
 11
8.4625707135
 21
10.9737326753
  0
LINE
  5
29F
100
AcDbEntity
  8
03__ASM_ALL_CURVES
100
AcDbLine
 62
4
  6
CONTINUOUS
 10
8.5786493759
 20
10.7452028003
 11
8.6076690434
 21
10.7669675503
  0
LINE
  5
2A0
100
AcDbEntity
  8
0
100
AcDbLine
 62
7
  6
CONTINUOUS
 10
8.5237910865
 20
5.6912231414
 11
9.3956100434
 21
5.6912231414
  0
LINE
  5
2A1
100
AcDbEntity
  8
0
100
AcDbLine
 62
7
  6
CONTINUOUS
 10
9.3956100434
 20
5.7182350652
 11
8.5875826746
 21
5.7182350652
  0
LINE
  5
2A2
100
AcDbEntity
  8
0
100
AcDbLine
 62
7
  6
CONTINUOUS
 10
8.5243342921
 20
5.6902775874
 11
8.5206100434
 21
5.6967281753
  0
LINE
  5
2A3
100
AcDbEntity
  8
03__ASM_ALL_CURVES
100
AcDbLine
 62
4
  6
CONTINUOUS
 10
8.2203135434
 20
8.7247085103
 11
8.2203135434
 21
8.7827478454
  0
LINE
  5
2A4
100
AcDbEntity
  8
03__ASM_ALL_CURVES
100
AcDbLine
 62
4
  6
CONTINUOUS
 10
7.0719049184
 20
6.4747085103
 11
7.0610225434
 21
6.4456888428
  0
LINE
  5
2A5
100
AcDbEntity
  8
03__ASM_ALL_CURVES
100
AcDbLine
 62
4
  6
CONTINUOUS
 10
8.2203135434
 20
8.7827478454
 11
8.2311959184
 21
8.8117675051
  0
LINE
  5
2A6
100
AcDbEntity
  8
03__ASM_ALL_CURVES
100
AcDbLine
 62
4
  6
CONTINUOUS
 10
8.4335510434
 20
10.2446135503
 11
8.4480608733
 21
10.2663783003
  0
LINE
  5
2A7
100
AcDbEntity
  8
03__ASM_ALL_CURVES
100
AcDbLine
 62
4
  6
CONTINUOUS
 10
8.5061002135
 20
10.2446135503
 11
8.5206100434
 21
10.2663783003
  0
LINE
  5
2A8
100
AcDbEntity
  8
03__ASM_ALL_CURVES
100
AcDbLine
 62
4
  6
CONTINUOUS
 10
8.5061002135
 20
10.2228488003
 11
8.4915903733
 21
10.2010840503
  0
LINE
  5
2A9
100
AcDbEntity
  8
03__ASM_ALL_CURVES
100
AcDbLine
 62
4
  6
CONTINUOUS
 10
8.6076690434
 20
10.2228488003
 11
8.5931592097
 21
10.2010840503
  0
LINE
  5
2AA
100
AcDbEntity
  8
03__ASM_ALL_CURVES
100
AcDbLine
 62
4
  6
CONTINUOUS
 10
8.4335510434
 20
9.8854951753
 11
8.4480608733
 21
9.9072599253
  0
LINE
  5
2AB
100
AcDbEntity
  8
03__ASM_ALL_CURVES
100
AcDbLine
 62
4
  6
CONTINUOUS
 10
8.6076690434
 20
9.8854951753
 11
8.5931592097
 21
9.8637304253
  0
LINE
  5
2AC
100
AcDbEntity
  8
03__ASM_ALL_CURVES
100
AcDbLine
 62
4
  6
CONTINUOUS
 10
5.6136666684
 20
6.4892183402
 11
5.5919019184
 21
6.4601986753
  0
LINE
  5
2AD
100
AcDbEntity
  8
03__ASM_ALL_CURVES
100
AcDbLine
 62
4
  6
CONTINUOUS
 10
5.6680785434
 20
6.5327478454
 11
5.6571961684
 21
6.5182380051
  0
LINE
  5
2AE
100
AcDbEntity
  8
03__ASM_ALL_CURVES
100
AcDbLine
 62
4
  6
CONTINUOUS
 10
5.8421965434
 20
6.4456888428
 11
5.8313141684
 21
6.431179009
  0
LINE
  5
2AF
100
AcDbEntity
  8
03__ASM_ALL_CURVES
100
AcDbLine
 62
4
  6
CONTINUOUS
 10
6.1577854184
 20
6.5907871753
 11
6.1360206684
 21
6.5617675051
  0
LINE
  5
2B0
100
AcDbEntity
  8
03__ASM_ALL_CURVES
100
AcDbLine
 62
4
  6
CONTINUOUS
 10
8.4480608733
 20
10.2663783003
 11
8.4625707135
 21
10.2772606753
  0
LINE
  5
2B1
100
AcDbEntity
  8
03__ASM_ALL_CURVES
100
AcDbLine
 62
4
  6
CONTINUOUS
 10
8.5206100434
 20
10.2663783003
 11
8.5496297084
 21
10.2881430503
  0
LINE
  5
2B2
100
AcDbEntity
  8
03__ASM_ALL_CURVES
100
AcDbLine
 62
4
  6
CONTINUOUS
 10
8.4915903733
 20
10.2010840503
 11
8.4770805434
 21
10.1902016753
  0
LINE
  5
2B3
100
AcDbEntity
  8
03__ASM_ALL_CURVES
100
AcDbLine
 62
4
  6
CONTINUOUS
 10
8.5931592097
 20
10.2010840503
 11
8.5641395434
 21
10.1793193003
  0
LINE
  5
2B4
100
AcDbEntity
  8
03__ASM_ALL_CURVES
100
AcDbLine
 62
4
  6
CONTINUOUS
 10
8.5859042928
 20
10.0868191128
 11
8.6076690434
 21
10.1031426753
  0
LINE
  5
2B5
100
AcDbEntity
  8
03__ASM_ALL_CURVES
100
AcDbLine
 62
4
  6
CONTINUOUS
 10
8.4480608733
 20
9.9072599253
 11
8.4625707135
 21
9.9181423003
  0
LINE
  5
2B6
100
AcDbEntity
  8
0
100
AcDbLine
 62
7
  6
CONTINUOUS
 10
11.9968776232
 20
5.7857281753
 11
11.2072535967
 21
5.7857281753
  0
LINE
  5
2B7
100
AcDbEntity
  8
0
100
AcDbLine
 62
7
  6
CONTINUOUS
 10
11.1339664901
 20
5.7857281753
 11
10.7943424636
 21
5.7857281753
  0
LINE
  5
2B8
100
AcDbEntity
  8
03__ASM_ALL_CURVES
100
AcDbLine
 62
4
  6
CONTINUOUS
 10
8.3073725434
 20
8.7827478454
 11
8.3073725434
 21
8.7247085103
  0
LINE
  5
2B9
100
AcDbEntity
  8
03__ASM_ALL_CURVES
100
AcDbLine
 62
4
  6
CONTINUOUS
 10
8.4335510434
 20
10.4513786753
 11
8.4335510434
 21
10.3643196753
  0
LINE
  5
2BA
100
AcDbEntity
  8
03__ASM_ALL_CURVES
100
AcDbLine
 62
4
  6
CONTINUOUS
 10
8.4335510434
 20
10.2228488003
 11
8.4335510434
 21
10.2446135503
  0
LINE
  5
2BB
100
AcDbEntity
  8
03__ASM_ALL_CURVES
100
AcDbLine
 62
4
  6
CONTINUOUS
 10
8.4335510434
 20
10.9193208003
 11
8.4335510434
 21
10.9410855503
  0
LINE
  5
2BC
100
AcDbEntity
  8
03__ASM_ALL_CURVES
100
AcDbLine
 62
4
  6
CONTINUOUS
 10
8.4335510434
 20
11.0934388003
 11
8.4335510434
 21
11.1152035503
  0
LINE
  5
2BD
100
AcDbEntity
  8
03__ASM_ALL_CURVES
100
AcDbLine
 62
4
  6
CONTINUOUS
 10
8.5061002135
 20
10.2228488003
 11
8.5061002135
 21
10.2446135503
  0
LINE
  5
2BE
100
AcDbEntity
  8
0
100
AcDbLine
 62
7
  6
CONTINUOUS
 10
8.5206100434
 20
5.6967281753
 11
8.5206100434
 21
7.3107281753
  0
LINE
  5
2BF
100
AcDbEntity
  8
03__ASM_ALL_CURVES
100
AcDbLine
 62
4
  6
CONTINUOUS
 10
8.5206100434
 20
8.9278461753
 11
8.5206100434
 21
9.4502001753
  0
LINE
  5
2C0
100
AcDbEntity
  8
0
100
AcDbLine
 62
7
  6
CONTINUOUS
 10
8.5875826746
 20
5.6912231414
 11
8.5875826746
 21
5.7182350652
  0
LINE
  5
2C1
100
AcDbEntity
  8
0
100
AcDbLine
 62
7
  6
CONTINUOUS
 10
8.5875826746
 20
6.4767162515
 11
8.5875826746
 21
6.530740099
  0
LINE
  5
2C2
100
AcDbEntity
  8
0
100
AcDbLine
 62
7
  6
CONTINUOUS
 10
8.5875826746
 20
7.2892212853
 11
8.5875826746
 21
7.3162332091
  0
LINE
  5
2C3
100
AcDbEntity
  8
03__ASM_ALL_CURVES
100
AcDbLine
 62
4
  6
CONTINUOUS
 10
8.6076690434
 20
11.3219686753
 11
8.6076690434
 21
11.3056451128
  0
LINE
  5
2C4
100
AcDbEntity
  8
03__ASM_ALL_CURVES
100
AcDbLine
 62
4
  6
CONTINUOUS
 10
8.6076690434
 20
10.2446135503
 11
8.6076690434
 21
10.2228488003
  0
LINE
  5
2C5
100
AcDbEntity
  8
03__ASM_ALL_CURVES
100
AcDbLine
 62
4
  6
CONTINUOUS
 10
8.6076690434
 20
10.1031426753
 11
8.6076690434
 21
10.0868191128
  0
LINE
  5
2C6
100
AcDbEntity
  8
03__ASM_ALL_CURVES
100
AcDbLine
 62
4
  6
CONTINUOUS
 10
8.6076690434
 20
10.8866736753
 11
8.6076690434
 21
10.9737326753
  0
LINE
  5
2C7
100
AcDbEntity
  8
03__ASM_ALL_CURVES
100
AcDbLine
 62
4
  6
CONTINUOUS
 10
8.6076690434
 20
11.0607916753
 11
8.6076690434
 21
11.1478506753
  0
LINE
  5
2C8
100
AcDbEntity
  8
03__ASM_ALL_CURVES
100
AcDbLine
 62
4
  6
CONTINUOUS
 10
7.2133757934
 20
4.2392183402
 11
7.2024934184
 21
4.1956888428
  0
LINE
  5
2C9
100
AcDbEntity
  8
03__ASM_ALL_CURVES
100
AcDbLine
 62
4
  6
CONTINUOUS
 10
8.3073725434
 20
8.7247085103
 11
8.2964901684
 21
8.6956888428
  0
LINE
  5
2CA
100
AcDbEntity
  8
03__ASM_ALL_CURVES
100
AcDbLine
 62
4
  6
CONTINUOUS
 10
5.4830781684
 20
4.3407871753
 11
5.4069015434
 21
4.2101986753
  0
LINE
  5
2CB
100
AcDbEntity
  8
03__ASM_ALL_CURVES
100
AcDbLine
 62
4
  6
CONTINUOUS
 10
6.3645505434
 20
6.4456888428
 11
6.3536681684
 21
6.431179009
  0
LINE
  5
2CC
100
AcDbEntity
  8
03__ASM_ALL_CURVES
100
AcDbLine
 62
4
  6
CONTINUOUS
 10
8.2311959184
 20
8.8117675051
 11
8.2420782934
 21
8.8262773454
  0
LINE
  5
2CD
100
AcDbEntity
  8
03__ASM_ALL_CURVES
100
AcDbLine
 62
4
  6
CONTINUOUS
 10
8.2964901684
 20
8.6956888428
 11
8.2856077934
 21
8.681179009
  0
LINE
  5
2CE
100
AcDbEntity
  8
03__ASM_ALL_CURVES
100
AcDbLine
 62
4
  6
CONTINUOUS
 10
8.5931592097
 20
9.8637304253
 11
8.5786493759
 21
9.8528480503
  0
LINE
  5
2CF
100
AcDbEntity
  8
03__ASM_ALL_CURVES
100
AcDbLine
 62
4
  6
CONTINUOUS
 10
11.3085510434
 20
11.4416748003
 11
11.3375707135
 21
11.4634395503
  0
LINE
  5
2D0
100
AcDbEntity
  8
03__ASM_ALL_CURVES
100
AcDbLine
 62
4
  6
CONTINUOUS
 10
9.3230608733
 20
9.9072599253
 11
9.3375707135
 21
9.9181423003
  0
LINE
  5
2D1
100
AcDbEntity
  8
03__ASM_ALL_CURVES
100
AcDbLine
 62
4
  6
CONTINUOUS
 10
8.4625707135
 20
9.9181423003
 11
8.4915903733
 21
9.9290246753
  0
LINE
  5
2D2
100
AcDbEntity
  8
03__ASM_ALL_CURVES
100
AcDbLine
 62
4
  6
CONTINUOUS
 10
11.3375707135
 20
10.9628503003
 11
11.3665903733
 21
10.9737326753
  0
LINE
  5
2D3
100
AcDbEntity
  8
03__ASM_ALL_CURVES
100
AcDbLine
 62
4
  6
CONTINUOUS
 10
8.5786493759
 20
9.8528480503
 11
8.5496297084
 21
9.8419656753
  0
LINE
  5
2D4
100
AcDbEntity
  8
03__ASM_ALL_CURVES
100
AcDbLine
 62
4
  6
CONTINUOUS
 10
11.4536493759
 20
10.8975560503
 11
11.4246297084
 21
10.8866736753
  0
LINE
  5
2D5
100
AcDbEntity
  8
03__ASM_ALL_CURVES
100
AcDbLine
 62
4
  6
CONTINUOUS
 10
11.3956100434
 20
10.7996146753
 11
11.4246297084
 21
10.8104970503
  0
LINE
  5
2D6
100
AcDbEntity
  8
03__ASM_ALL_CURVES
100
AcDbLine
 62
4
  6
CONTINUOUS
 10
7.0283754184
 20
6.4166691753
 11
7.0066106684
 21
6.4166691753
  0
LINE
  5
2D7
100
AcDbEntity
  8
03__ASM_ALL_CURVES
100
AcDbLine
 62
4
  6
CONTINUOUS
 10
6.7127865434
 20
6.4166691753
 11
6.6964629809
 21
6.4166691753
  0
LINE
  5
2D8
100
AcDbEntity
  8
03__ASM_ALL_CURVES
100
AcDbLine
 62
4
  6
CONTINUOUS
 10
6.3319034184
 20
6.4166691753
 11
6.3101386684
 21
6.4166691753
  0
LINE
  5
2D9
100
AcDbEntity
  8
03__ASM_ALL_CURVES
100
AcDbLine
 62
4
  6
CONTINUOUS
 10
5.8095494184
 20
6.4166691753
 11
5.7877846684
 21
6.4166691753
  0
LINE
  5
2DA
100
AcDbEntity
  8
03__ASM_ALL_CURVES
100
AcDbLine
 62
4
  6
CONTINUOUS
 10
5.4939605434
 20
6.4166691753
 11
5.4776369809
 21
6.4166691753
  0
LINE
  5
2DB
100
AcDbEntity
  8
03__ASM_ALL_CURVES
100
AcDbLine
 62
4
  6
CONTINUOUS
 10
5.2327835434
 20
6.4166691753
 11
5.3198425434
 21
6.4166691753
  0
LINE
  5
2DC
100
AcDbEntity
  8
03__ASM_ALL_CURVES
100
AcDbLine
 62
4
  6
CONTINUOUS
 10
5.5810195434
 20
6.4166691753
 11
5.6680785434
 21
6.4166691753
  0
LINE
  5
2DD
100
AcDbEntity
  8
0
100
AcDbLine
 62
7
  6
CONTINUOUS
 10
9.3956100434
 20
6.4767162515
 11
8.5875826746
 21
6.4767162515
  0
LINE
  5
2DE
100
AcDbEntity
  8
03__ASM_ALL_CURVES
100
AcDbLine
 62
4
  6
CONTINUOUS
 10
9.2214920434
 20
6.5037281753
 11
7.9751420434
 21
6.5037281753
  0
LINE
  5
2DF
100
AcDbEntity
  8
0
100
AcDbLine
 62
7
  6
CONTINUOUS
 10
9.3956100434
 20
6.530740099
 11
8.5875826746
 21
6.530740099
  0
LINE
  5
2E0
100
AcDbEntity
  8
03__ASM_ALL_CURVES
100
AcDbLine
 62
4
  6
CONTINUOUS
 10
5.7877846684
 20
6.5327478454
 11
5.8095494184
 21
6.5327478454
  0
LINE
  5
2E1
100
AcDbEntity
  8
03__ASM_ALL_CURVES
100
AcDbLine
 62
4
  6
CONTINUOUS
 10
6.3101386684
 20
6.5327478454
 11
6.3319034184
 21
6.5327478454
  0
LINE
  5
2E2
100
AcDbEntity
  8
03__ASM_ALL_CURVES
100
AcDbLine
 62
4
  6
CONTINUOUS
 10
7.0066106684
 20
6.5327478454
 11
7.0283754184
 21
6.5327478454
  0
LINE
  5
2E3
100
AcDbEntity
  8
03__ASM_ALL_CURVES
100
AcDbLine
 62
4
  6
CONTINUOUS
 10
7.0610225434
 20
6.5907871753
 11
6.9957282934
 21
6.5907871753
  0
LINE
  5
2E4
100
AcDbEntity
  8
03__ASM_ALL_CURVES
100
AcDbLine
 62
4
  6
CONTINUOUS
 10
6.5386685434
 20
6.5907871753
 11
6.4516095434
 21
6.5907871753
  0
LINE
  5
2E5
100
AcDbEntity
  8
03__ASM_ALL_CURVES
100
AcDbLine
 62
4
  6
CONTINUOUS
 10
6.3645505434
 20
6.5907871753
 11
6.2992562934
 21
6.5907871753
  0
LINE
  5
2E6
100
AcDbEntity
  8
03__ASM_ALL_CURVES
100
AcDbLine
 62
4
  6
CONTINUOUS
 10
5.8421965434
 20
6.5907871753
 11
5.7769022934
 21
6.5907871753
  0
LINE
  5
2E7
100
AcDbEntity
  8
03__ASM_ALL_CURVES
100
AcDbLine
 62
4
  6
CONTINUOUS
 10
5.2654306684
 20
6.5907871753
 11
5.2871954184
 21
6.5907871753
  0
LINE
  5
2E8
100
AcDbEntity
  8
03__ASM_ALL_CURVES
100
AcDbLine
 62
4
  6
CONTINUOUS
 10
5.6136666684
 20
6.5907871753
 11
5.6354314184
 21
6.5907871753
  0
LINE
  5
2E9
100
AcDbEntity
  8
03__ASM_ALL_CURVES
100
AcDbLine
 62
4
  6
CONTINUOUS
 10
8.2311959184
 20
8.6956888428
 11
8.2203135434
 21
8.7247085103
  0
LINE
  5
2EA
100
AcDbEntity
  8
03__ASM_ALL_CURVES
100
AcDbLine
 62
4
  6
CONTINUOUS
 10
8.2964901684
 20
8.8117675051
 11
8.3073725434
 21
8.7827478454
  0
LINE
  5
2EB
100
AcDbEntity
  8
03__ASM_ALL_CURVES
100
AcDbLine
 62
4
  6
CONTINUOUS
 10
9.3085510434
 20
9.8854951753
 11
9.3230608733
 21
9.9072599253
  0
LINE
  5
2EC
100
AcDbEntity
  8
03__ASM_ALL_CURVES
100
AcDbLine
 62
4
  6
CONTINUOUS
 10
9.4826690434
 20
9.8854951753
 11
9.4681592097
 21
9.8637304253
  0
LINE
  5
2ED
100
AcDbEntity
  8
03__ASM_ALL_CURVES
100
AcDbLine
 62
4
  6
CONTINUOUS
 10
7.0610225434
 20
6.4456888428
 11
7.0501401684
 21
6.431179009
  0
LINE
  5
2EE
100
AcDbEntity
  8
03__ASM_ALL_CURVES
100
AcDbLine
 62
4
  6
CONTINUOUS
 10
7.2024934184
 20
6.4456888428
 11
7.1807286684
 21
6.4166691753
  0
LINE
  5
2EF
100
AcDbEntity
  8
03__ASM_ALL_CURVES
100
AcDbLine
 62
4
  6
CONTINUOUS
 10
11.3230608733
 20
11.3110863003
 11
11.3375707135
 21
11.3219686753
  0
LINE
  5
2F0
100
AcDbEntity
  8
03__ASM_ALL_CURVES
100
AcDbLine
 62
4
  6
CONTINUOUS
 10
11.3956100434
 20
11.3110863003
 11
11.4246297084
 21
11.3328510503
  0
LINE
  5
2F1
100
AcDbEntity
  8
03__ASM_ALL_CURVES
100
AcDbLine
 62
4
  6
CONTINUOUS
 10
9.4681592097
 20
9.8637304253
 11
9.4536493759
 21
9.8528480503
  0
LINE
  5
2F2
100
AcDbEntity
  8
03__ASM_ALL_CURVES
100
AcDbLine
 62
4
  6
CONTINUOUS
 10
11.3665903733
 20
11.2457920503
 11
11.3520805434
 21
11.2349096753
  0
LINE
  5
2F3
100
AcDbEntity
  8
03__ASM_ALL_CURVES
100
AcDbLine
 62
4
  6
CONTINUOUS
 10
11.4681592097
 20
11.2457920503
 11
11.4391395434
 21
11.2240273003
  0
LINE
  5
2F4
100
AcDbEntity
  8
03__ASM_ALL_CURVES
100
AcDbLine
 62
4
  6
CONTINUOUS
 10
11.4609042928
 20
11.1315271128
 11
11.4826690434
 21
11.1478506753
  0
LINE
  5
2F5
100
AcDbEntity
  8
03__ASM_ALL_CURVES
100
AcDbLine
 62
4
  6
CONTINUOUS
 10
11.3230608733
 20
10.9519679253
 11
11.3375707135
 21
10.9628503003
  0
LINE
  5
2F6
100
AcDbEntity
  8
03__ASM_ALL_CURVES
100
AcDbLine
 62
4
  6
CONTINUOUS
 10
11.4681592097
 20
10.9084384253
 11
11.4536493759
 21
10.8975560503
  0
LINE
  5
2F7
100
AcDbEntity
  8
03__ASM_ALL_CURVES
100
AcDbLine
 62
4
  6
CONTINUOUS
 10
8.2420782934
 20
8.8262773454
 11
8.2638430434
 21
8.8407871753
  0
LINE
  5
2F8
100
AcDbEntity
  8
03__ASM_ALL_CURVES
100
AcDbLine
 62
4
  6
CONTINUOUS
 10
8.2856077934
 20
8.681179009
 11
8.2638430434
 21
8.6666691753
  0
LINE
  5
2F9
100
AcDbEntity
  8
03__ASM_ALL_CURVES
100
AcDbLine
 62
4
  6
CONTINUOUS
 10
9.3375707135
 20
9.9181423003
 11
9.3665903733
 21
9.9290246753
  0
LINE
  5
2FA
100
AcDbEntity
  8
03__ASM_ALL_CURVES
100
AcDbLine
 62
4
  6
CONTINUOUS
 10
9.4536493759
 20
9.8528480503
 11
9.4246297084
 21
9.8419656753
  0
LINE
  5
2FB
100
AcDbEntity
  8
03__ASM_ALL_CURVES
100
AcDbLine
 62
4
  6
CONTINUOUS
 10
11.3375707135
 20
10.2663783003
 11
11.3665903733
 21
10.2772606753
  0
LINE
  5
2FC
100
AcDbEntity
  8
03__ASM_ALL_CURVES
100
AcDbLine
 62
4
  6
CONTINUOUS
 10
8.2420782934
 20
8.681179009
 11
8.2311959184
 21
8.6956888428
  0
LINE
  5
2FD
100
AcDbEntity
  8
03__ASM_ALL_CURVES
100
AcDbLine
 62
4
  6
CONTINUOUS
 10
8.2856077934
 20
8.8262773454
 11
8.2964901684
 21
8.8117675051
  0
LINE
  5
2FE
100
AcDbEntity
  8
0
100
AcDbLine
 62
7
  6
CONTINUOUS
 10
9.3956100434
 20
8.7537281753
 11
9.3956100434
 21
4.2537281753
  0
LINE
  5
2FF
100
AcDbEntity
  8
03__ASM_ALL_CURVES
100
AcDbLine
 62
4
  6
CONTINUOUS
 10
9.3956100434
 20
8.9278461753
 11
9.3956100434
 21
9.4502001753
  0
LINE
  5
300
100
AcDbEntity
  8
0
100
AcDbLine
 62
7
  6
CONTINUOUS
 10
8.5243342921
 20
7.3171787632
 11
8.5206100434
 21
7.3107281753
  0
LINE
  5
301
100
AcDbEntity
  8
03__ASM_ALL_CURVES
100
AcDbLine
 62
4
  6
CONTINUOUS
 10
6.7019041684
 20
4.3407871753
 11
6.6257275434
 21
4.2101986753
  0
LINE
  5
302
100
AcDbEntity
  8
03__ASM_ALL_CURVES
100
AcDbLine
 62
4
  6
CONTINUOUS
 10
11.3085510434
 20
11.2893215503
 11
11.3230608733
 21
11.3110863003
  0
LINE
  5
303
100
AcDbEntity
  8
03__ASM_ALL_CURVES
100
AcDbLine
 62
4
  6
CONTINUOUS
 10
5.8421965434
 20
4.1956888428
 11
5.8313141684
 21
4.181179009
  0
LINE
  5
304
100
AcDbEntity
  8
03__ASM_ALL_CURVES
100
AcDbLine
 62
4
  6
CONTINUOUS
 10
6.1577854184
 20
4.3407871753
 11
6.1360206684
 21
4.3117675051
  0
LINE
  5
305
100
AcDbEntity
  8
03__ASM_ALL_CURVES
100
AcDbLine
 62
4
  6
CONTINUOUS
 10
11.3811002135
 20
10.7887323003
 11
11.3956100434
 21
10.7996146753
  0
LINE
  5
306
100
AcDbEntity
  8
03__ASM_ALL_CURVES
100
AcDbLine
 62
4
  6
CONTINUOUS
 10
11.4681592097
 20
10.7234380503
 11
11.4536493759
 21
10.7125556753
  0
LINE
  5
307
100
AcDbEntity
  8
03__ASM_ALL_CURVES
100
AcDbLine
 62
4
  6
CONTINUOUS
 10
11.4536493759
 20
10.5710848003
 11
11.4826690434
 21
10.5928495503
  0
LINE
  5
308
100
AcDbEntity
  8
03__ASM_ALL_CURVES
100
AcDbLine
 62
4
  6
CONTINUOUS
 10
11.3230608733
 20
10.2554959253
 11
11.3375707135
 21
10.2663783003
  0
LINE
  5
309
100
AcDbEntity
  8
03__ASM_ALL_CURVES
100
AcDbLine
 62
4
  6
CONTINUOUS
 10
5.2436659184
 20
6.5762773454
 11
5.2654306684
 21
6.5907871753
  0
LINE
  5
30A
100
AcDbEntity
  8
03__ASM_ALL_CURVES
100
AcDbLine
 62
4
  6
CONTINUOUS
 10
5.3089601684
 20
6.5182380051
 11
5.2654306684
 21
6.4892183402
  0
LINE
  5
30B
100
AcDbEntity
  8
03__ASM_ALL_CURVES
100
AcDbLine
 62
4
  6
CONTINUOUS
 10
5.5919019184
 20
6.5762773454
 11
5.6136666684
 21
6.5907871753
  0
LINE
  5
30C
100
AcDbEntity
  8
03__ASM_ALL_CURVES
100
AcDbLine
 62
4
  6
CONTINUOUS
 10
5.6571961684
 20
6.5182380051
 11
5.6136666684
 21
6.4892183402
  0
LINE
  5
30D
100
AcDbEntity
  8
03__ASM_ALL_CURVES
100
AcDbLine
 62
4
  6
CONTINUOUS
 10
5.7660199184
 20
6.5182380051
 11
5.7877846684
 21
6.5327478454
  0
LINE
  5
30E
100
AcDbEntity
  8
03__ASM_ALL_CURVES
100
AcDbLine
 62
4
  6
CONTINUOUS
 10
5.8313141684
 20
6.431179009
 11
5.8095494184
 21
6.4166691753
  0
LINE
  5
30F
100
AcDbEntity
  8
03__ASM_ALL_CURVES
100
AcDbLine
 62
4
  6
CONTINUOUS
 10
11.4536493759
 20
10.2010840503
 11
11.4246297084
 21
10.1902016753
  0
LINE
  5
310
100
AcDbEntity
  8
03__ASM_ALL_CURVES
100
AcDbLine
 62
4
  6
CONTINUOUS
 10
16.1456100434
 20
11.8443226753
 11
16.1746297084
 21
11.8552050503
  0
LINE
  5
311
100
AcDbEntity
  8
0
100
AcDbLine
 62
7
  6
CONTINUOUS
 10
11.9968776232
 20
7.2217281753
 11
11.2072535967
 21
7.2217281753
  0
LINE
  5
312
100
AcDbEntity
  8
0
100
AcDbLine
 62
7
  6
CONTINUOUS
 10
11.1339664901
 20
7.2217281753
 11
10.7943424636
 21
7.2217281753
  0
LINE
  5
313
100
AcDbEntity
  8
0
100
AcDbLine
 62
7
  6
CONTINUOUS
 10
9.3956100434
 20
7.2892212853
 11
8.5875826746
 21
7.2892212853
  0
LINE
  5
314
100
AcDbEntity
  8
0
100
AcDbLine
 62
7
  6
CONTINUOUS
 10
9.3956100434
 20
7.3162332091
 11
8.5237910865
 21
7.3162332091
  0
LINE
  5
315
100
AcDbEntity
  8
03__ASM_ALL_CURVES
100
AcDbLine
 62
4
  6
CONTINUOUS
 10
8.2638430434
 20
8.6666691753
 11
8.2420782934
 21
8.681179009
  0
LINE
  5
316
100
AcDbEntity
  8
03__ASM_ALL_CURVES
100
AcDbLine
 62
4
  6
CONTINUOUS
 10
8.2638430434
 20
8.8407871753
 11
8.2856077934
 21
8.8262773454
  0
LINE
  5
317
100
AcDbEntity
  8
03__ASM_ALL_CURVES
100
AcDbLine
 62
4
  6
CONTINUOUS
 10
8.4480608733
 20
9.8637304253
 11
8.4335510434
 21
9.8854951753
  0
LINE
  5
318
100
AcDbEntity
  8
03__ASM_ALL_CURVES
100
AcDbLine
 62
4
  6
CONTINUOUS
 10
8.5931592097
 20
9.9072599253
 11
8.6076690434
 21
9.8854951753
  0
LINE
  5
319
100
AcDbEntity
  8
03__ASM_ALL_CURVES
100
AcDbLine
 62
4
  6
CONTINUOUS
 10
11.3811002135
 20
11.2893215503
 11
11.3956100434
 21
11.3110863003
  0
LINE
  5
31A
100
AcDbEntity
  8
03__ASM_ALL_CURVES
100
AcDbLine
 62
4
  6
CONTINUOUS
 10
11.3811002135
 20
11.2675568003
 11
11.3665903733
 21
11.2457920503
  0
LINE
  5
31B
100
AcDbEntity
  8
03__ASM_ALL_CURVES
100
AcDbLine
 62
4
  6
CONTINUOUS
 10
11.4826690434
 20
11.2675568003
 11
11.4681592097
 21
11.2457920503
  0
LINE
  5
31C
100
AcDbEntity
  8
03__ASM_ALL_CURVES
100
AcDbLine
 62
4
  6
CONTINUOUS
 10
11.3085510434
 20
10.9302031753
 11
11.3230608733
 21
10.9519679253
  0
LINE
  5
31D
100
AcDbEntity
  8
03__ASM_ALL_CURVES
100
AcDbLine
 62
4
  6
CONTINUOUS
 10
11.3665903733
 20
10.7669675503
 11
11.3811002135
 21
10.7887323003
  0
LINE
  5
31E
100
AcDbEntity
  8
03__ASM_ALL_CURVES
100
AcDbLine
 62
4
  6
CONTINUOUS
 10
11.4826690434
 20
10.9302031753
 11
11.4681592097
 21
10.9084384253
  0
LINE
  5
31F
100
AcDbEntity
  8
03__ASM_ALL_CURVES
100
AcDbLine
 62
4
  6
CONTINUOUS
 10
11.4826690434
 20
10.7452028003
 11
11.4681592097
 21
10.7234380503
  0
LINE
  5
320
100
AcDbEntity
  8
03__ASM_ALL_CURVES
100
AcDbLine
 62
4
  6
CONTINUOUS
 10
11.4681592097
 20
10.2119664253
 11
11.4536493759
 21
10.2010840503
  0
LINE
  5
321
100
AcDbEntity
  8
03__ASM_ALL_CURVES
100
AcDbLine
 62
4
  6
CONTINUOUS
 10
11.4609042928
 20
10.0868191128
 11
11.4826690434
 21
10.1031426753
  0
LINE
  5
322
100
AcDbEntity
  8
03__ASM_ALL_CURVES
100
AcDbLine
 62
4
  6
CONTINUOUS
 10
11.3230608733
 20
9.9181423003
 11
11.3375707135
 21
9.9290246753
  0
LINE
  5
323
100
AcDbEntity
  8
03__ASM_ALL_CURVES
100
AcDbLine
 62
4
  6
CONTINUOUS
 10
6.2883739184
 20
6.5182380051
 11
6.3101386684
 21
6.5327478454
  0
LINE
  5
324
100
AcDbEntity
  8
03__ASM_ALL_CURVES
100
AcDbLine
 62
4
  6
CONTINUOUS
 10
6.3536681684
 20
6.431179009
 11
6.3319034184
 21
6.4166691753
  0
LINE
  5
325
100
AcDbEntity
  8
03__ASM_ALL_CURVES
100
AcDbLine
 62
4
  6
CONTINUOUS
 10
15.8336100434
 20
11.1369683003
 11
15.8626297084
 21
11.1478506753
  0
LINE
  5
326
100
AcDbEntity
  8
03__ASM_ALL_CURVES
100
AcDbLine
 62
4
  6
CONTINUOUS
 10
15.8916493759
 20
11.0716740503
 11
15.8626297084
 21
11.0607916753
  0
LINE
  5
327
100
AcDbEntity
  8
03__ASM_ALL_CURVES
100
AcDbLine
 62
4
  6
CONTINUOUS
 10
8.4480608733
 20
10.2010840503
 11
8.4335510434
 21
10.2228488003
  0
LINE
  5
328
100
AcDbEntity
  8
03__ASM_ALL_CURVES
100
AcDbLine
 62
4
  6
CONTINUOUS
 10
8.5206100434
 20
10.2010840503
 11
8.5061002135
 21
10.2228488003
  0
LINE
  5
329
100
AcDbEntity
  8
03__ASM_ALL_CURVES
100
AcDbLine
 62
4
  6
CONTINUOUS
 10
8.4915903733
 20
10.2663783003
 11
8.5061002135
 21
10.2446135503
  0
LINE
  5
32A
100
AcDbEntity
  8
03__ASM_ALL_CURVES
100
AcDbLine
 62
4
  6
CONTINUOUS
 10
8.5931592097
 20
10.2663783003
 11
8.6076690434
 21
10.2446135503
  0
LINE
  5
32B
100
AcDbEntity
  8
03__ASM_ALL_CURVES
100
AcDbLine
 62
4
  6
CONTINUOUS
 10
8.4480608733
 20
10.8975560503
 11
8.4335510434
 21
10.9193208003
  0
LINE
  5
32C
100
AcDbEntity
  8
03__ASM_ALL_CURVES
100
AcDbLine
 62
4
  6
CONTINUOUS
 10
8.5206100434
 20
11.6593223003
 11
8.5351198785
 21
11.6266751753
  0
LINE
  5
32D
100
AcDbEntity
  8
0
100
AcDbLine
 62
7
  6
CONTINUOUS
 10
10.5256100434
 20
6.1566440063
 11
10.5256100434
 21
6.8508123443
  0
LINE
  5
32E
100
AcDbEntity
  8
03__ASM_ALL_CURVES
100
AcDbLine
 62
4
  6
CONTINUOUS
 10
11.3085510434
 20
10.2337311753
 11
11.3230608733
 21
10.2554959253
  0
LINE
  5
32F
100
AcDbEntity
  8
03__ASM_ALL_CURVES
100
AcDbLine
 62
4
  6
CONTINUOUS
 10
11.4826690434
 20
10.2337311753
 11
11.4681592097
 21
10.2119664253
  0
LINE
  5
330
100
AcDbEntity
  8
03__ASM_ALL_CURVES
100
AcDbLine
 62
4
  6
CONTINUOUS
 10
11.3085510434
 20
9.8963775503
 11
11.3230608733
 21
9.9181423003
  0
LINE
  5
331
100
AcDbEntity
  8
03__ASM_ALL_CURVES
100
AcDbLine
 62
4
  6
CONTINUOUS
 10
7.0610225434
 20
4.2972576753
 11
7.0501401684
 21
4.2827478454
  0
LINE
  5
332
100
AcDbEntity
  8
03__ASM_ALL_CURVES
100
AcDbLine
 62
4
  6
CONTINUOUS
 10
7.0719049184
 20
4.2101986753
 11
7.0501401684
 21
4.181179009
  0
LINE
  5
333
100
AcDbEntity
  8
03__ASM_ALL_CURVES
100
AcDbLine
 62
4
  6
CONTINUOUS
 10
7.2024934184
 20
4.1956888428
 11
7.1807286684
 21
4.1666691753
  0
LINE
  5
334
100
AcDbEntity
  8
03__ASM_ALL_CURVES
100
AcDbLine
 62
4
  6
CONTINUOUS
 10
15.7465510434
 20
12.8346188003
 11
15.7755707135
 21
12.8563835503
  0
LINE
  5
335
100
AcDbEntity
  8
03__ASM_ALL_CURVES
100
AcDbLine
 62
4
  6
CONTINUOUS
 10
15.7755707135
 20
12.7149126753
 11
15.7610608733
 21
12.7040303003
  0
LINE
  5
336
100
AcDbEntity
  8
03__ASM_ALL_CURVES
100
AcDbLine
 62
4
  6
CONTINUOUS
 10
15.8481198785
 20
12.7040303003
 11
15.8626297084
 21
12.7149126753
  0
LINE
  5
337
100
AcDbEntity
  8
03__ASM_ALL_CURVES
100
AcDbLine
 62
4
  6
CONTINUOUS
 10
15.7900805434
 20
12.6278536753
 11
15.8045903733
 21
12.6387360503
  0
LINE
  5
338
100
AcDbEntity
  8
03__ASM_ALL_CURVES
100
AcDbLine
 62
4
  6
CONTINUOUS
 10
15.9061592097
 20
12.6387360503
 11
15.8771395434
 21
12.6169713003
  0
LINE
  5
339
100
AcDbEntity
  8
03__ASM_ALL_CURVES
100
AcDbLine
 62
4
  6
CONTINUOUS
 10
6.9848459184
 20
6.5182380051
 11
7.0066106684
 21
6.5327478454
  0
LINE
  5
33A
100
AcDbEntity
  8
03__ASM_ALL_CURVES
100
AcDbLine
 62
4
  6
CONTINUOUS
 10
7.0501401684
 20
6.431179009
 11
7.0283754184
 21
6.4166691753
  0
LINE
  5
33B
100
AcDbEntity
  8
03__ASM_ALL_CURVES
100
AcDbLine
 62
4
  6
CONTINUOUS
 10
8.4625707135
 20
9.8528480503
 11
8.4480608733
 21
9.8637304253
  0
LINE
  5
33C
100
AcDbEntity
  8
03__ASM_ALL_CURVES
100
AcDbLine
 62
4
  6
CONTINUOUS
 10
8.5786493759
 20
9.9181423003
 11
8.5931592097
 21
9.9072599253
  0
LINE
  5
33D
100
AcDbEntity
  8
03__ASM_ALL_CURVES
100
AcDbLine
 62
4
  6
CONTINUOUS
 10
8.4625707135
 20
10.1902016753
 11
8.4480608733
 21
10.2010840503
  0
LINE
  5
33E
100
AcDbEntity
  8
03__ASM_ALL_CURVES
100
AcDbLine
 62
4
  6
CONTINUOUS
 10
8.5061002135
 20
10.9628503003
 11
8.5351198785
 21
10.9193208003
  0
LINE
  5
33F
100
AcDbEntity
  8
03__ASM_ALL_CURVES
100
AcDbLine
 62
4
  6
CONTINUOUS
 10
8.4480608733
 20
11.0716740503
 11
8.4335510434
 21
11.0934388003
  0
LINE
  5
340
100
AcDbEntity
  8
03__ASM_ALL_CURVES
100
AcDbLine
 62
4
  6
CONTINUOUS
 10
9.3230608733
 20
9.8637304253
 11
9.3085510434
 21
9.8854951753
  0
LINE
  5
341
100
AcDbEntity
  8
03__ASM_ALL_CURVES
100
AcDbLine
 62
4
  6
CONTINUOUS
 10
8.5061002135
 20
11.1369683003
 11
8.5351198785
 21
11.0934388003
  0
LINE
  5
342
100
AcDbEntity
  8
03__ASM_ALL_CURVES
100
AcDbLine
 62
4
  6
CONTINUOUS
 10
8.4480608733
 20
11.4307924253
 11
8.4335510434
 21
11.4525571753
  0
LINE
  5
343
100
AcDbEntity
  8
03__ASM_ALL_CURVES
100
AcDbLine
 62
4
  6
CONTINUOUS
 10
9.4681592097
 20
9.9072599253
 11
9.4826690434
 21
9.8854951753
  0
LINE
  5
344
100
AcDbEntity
  8
03__ASM_ALL_CURVES
100
AcDbLine
 62
4
  6
CONTINUOUS
 10
8.4480608733
 20
11.6049104253
 11
8.4335510434
 21
11.6266751753
  0
LINE
  5
345
100
AcDbEntity
  8
03__ASM_ALL_CURVES
100
AcDbLine
 62
4
  6
CONTINUOUS
 10
8.5931592097
 20
11.4743219253
 11
8.6076690434
 21
11.4525571753
  0
LINE
  5
346
100
AcDbEntity
  8
0
100
AcDbLine
 62
7
  6
CONTINUOUS
 10
10.7566100434
 20
5.8183176495
 11
10.7566100434
 21
7.1891387011
  0
LINE
  5
347
100
AcDbEntity
  8
0
100
AcDbLine
 62
7
  6
CONTINUOUS
 10
10.7696100434
 20
5.8062657158
 11
10.7696100434
 21
7.2011906347
  0
LINE
  5
348
100
AcDbEntity
  8
03__ASM_ALL_CURVES
100
AcDbLine
 62
4
  6
CONTINUOUS
 10
15.8916493759
 20
12.3122648003
 11
15.9206690434
 21
12.3340295503
  0
LINE
  5
349
100
AcDbEntity
  8
03__ASM_ALL_CURVES
100
AcDbLine
 62
4
  6
CONTINUOUS
 10
15.7465510434
 20
11.9640288003
 11
15.7755707135
 21
11.9857935503
  0
LINE
  5
34A
100
AcDbEntity
  8
03__ASM_ALL_CURVES
100
AcDbLine
 62
4
  6
CONTINUOUS
 10
15.7610608733
 20
11.8334403003
 11
15.7755707135
 21
11.8443226753
  0
LINE
  5
34B
100
AcDbEntity
  8
03__ASM_ALL_CURVES
100
AcDbLine
 62
4
  6
CONTINUOUS
 10
16.0585510434
 20
11.9640288003
 11
16.0875707135
 21
11.9857935503
  0
LINE
  5
34C
100
AcDbEntity
  8
03__ASM_ALL_CURVES
100
AcDbLine
 62
4
  6
CONTINUOUS
 10
16.1456100434
 20
10.4513786753
 11
16.1746297084
 21
10.4622610503
  0
LINE
  5
34D
100
AcDbEntity
  8
03__ASM_ALL_CURVES
100
AcDbLine
 62
4
  6
CONTINUOUS
 10
15.8336100434
 20
9.9181423003
 11
15.8626297084
 21
9.9290246753
  0
LINE
  5
34E
100
AcDbEntity
  8
0
100
AcDbLine
 62
7
  6
CONTINUOUS
 10
16.1456100434
 20
8.7537281753
 11
9.3956100434
 21
8.7537281753
  0
LINE
  5
34F
100
AcDbEntity
  8
03__ASM_ALL_CURVES
100
AcDbLine
 62
4
  6
CONTINUOUS
 10
9.2214920434
 20
8.7537281753
 11
8.6991380434
 21
8.7537281753
  0
LINE
  5
350
100
AcDbEntity
  8
03__ASM_ALL_CURVES
100
AcDbLine
 62
4
  6
CONTINUOUS
 10
8.4915903733
 20
9.8419656753
 11
8.4625707135
 21
9.8528480503
  0
LINE
  5
351
100
AcDbEntity
  8
03__ASM_ALL_CURVES
100
AcDbLine
 62
4
  6
CONTINUOUS
 10
8.5496297084
 20
10.1793193003
 11
8.5206100434
 21
10.2010840503
  0
LINE
  5
352
100
AcDbEntity
  8
03__ASM_ALL_CURVES
100
AcDbLine
 62
4
  6
CONTINUOUS
 10
8.4770805434
 20
10.2772606753
 11
8.4915903733
 21
10.2663783003
  0
LINE
  5
353
100
AcDbEntity
  8
03__ASM_ALL_CURVES
100
AcDbLine
 62
4
  6
CONTINUOUS
 10
8.5641395434
 20
10.2881430503
 11
8.5931592097
 21
10.2663783003
  0
LINE
  5
354
100
AcDbEntity
  8
03__ASM_ALL_CURVES
100
AcDbLine
 62
4
  6
CONTINUOUS
 10
9.3375707135
 20
9.8528480503
 11
9.3230608733
 21
9.8637304253
  0
LINE
  5
355
100
AcDbEntity
  8
03__ASM_ALL_CURVES
100
AcDbLine
 62
4
  6
CONTINUOUS
 10
9.4536493759
 20
9.9181423003
 11
9.4681592097
 21
9.9072599253
  0
LINE
  5
356
100
AcDbEntity
  8
03__ASM_ALL_CURVES
100
AcDbLine
 62
4
  6
CONTINUOUS
 10
8.4335510434
 20
10.7669675503
 11
8.4625707135
 21
10.7452028003
  0
LINE
  5
357
100
AcDbEntity
  8
03__ASM_ALL_CURVES
100
AcDbLine
 62
4
  6
CONTINUOUS
 10
8.5931592097
 20
11.6484399253
 11
8.6076690434
 21
11.6266751753
  0
LINE
  5
358
100
AcDbEntity
  8
0
100
AcDbLine
 62
7
  6
CONTINUOUS
 10
11.1339664901
 20
5.7857281753
 11
11.1339664901
 21
7.2217281753
  0
LINE
  5
359
100
AcDbEntity
  8
0
100
AcDbLine
 62
7
  6
CONTINUOUS
 10
11.2072535967
 20
5.7857281753
 11
11.2072535967
 21
7.2217281753
  0
LINE
  5
35A
100
AcDbEntity
  8
03__ASM_ALL_CURVES
100
AcDbLine
 62
4
  6
CONTINUOUS
 10
11.3085510434
 20
10.7996146753
 11
11.3085510434
 21
10.7343204253
  0
LINE
  5
35B
100
AcDbEntity
  8
03__ASM_ALL_CURVES
100
AcDbLine
 62
4
  6
CONTINUOUS
 10
11.3085510434
 20
9.8746128003
 11
11.3085510434
 21
9.8963775503
  0
LINE
  5
35C
100
AcDbEntity
  8
03__ASM_ALL_CURVES
100
AcDbLine
 62
4
  6
CONTINUOUS
 10
11.3085510434
 20
11.2675568003
 11
11.3085510434
 21
11.2893215503
  0
LINE
  5
35D
100
AcDbEntity
  8
03__ASM_ALL_CURVES
100
AcDbLine
 62
4
  6
CONTINUOUS
 10
11.3665903733
 20
10.7452028003
 11
11.3665903733
 21
10.7669675503
  0
LINE
  5
35E
100
AcDbEntity
  8
03__ASM_ALL_CURVES
100
AcDbLine
 62
4
  6
CONTINUOUS
 10
11.3811002135
 20
11.2675568003
 11
11.3811002135
 21
11.2893215503
  0
LINE
  5
35F
100
AcDbEntity
  8
03__ASM_ALL_CURVES
100
AcDbLine
 62
4
  6
CONTINUOUS
 10
11.3956100434
 20
8.9278461753
 11
11.3956100434
 21
9.4502001753
  0
LINE
  5
360
100
AcDbEntity
  8
03__ASM_ALL_CURVES
100
AcDbLine
 62
4
  6
CONTINUOUS
 10
11.4826690434
 20
11.2893215503
 11
11.4826690434
 21
11.2675568003
  0
LINE
  5
361
100
AcDbEntity
  8
03__ASM_ALL_CURVES
100
AcDbLine
 62
4
  6
CONTINUOUS
 10
11.4826690434
 20
11.1478506753
 11
11.4826690434
 21
11.1315271128
  0
LINE
  5
362
100
AcDbEntity
  8
03__ASM_ALL_CURVES
100
AcDbLine
 62
4
  6
CONTINUOUS
 10
11.4826690434
 20
10.7669675503
 11
11.4826690434
 21
10.7452028003
  0
LINE
  5
363
100
AcDbEntity
  8
03__ASM_ALL_CURVES
100
AcDbLine
 62
4
  6
CONTINUOUS
 10
11.4826690434
 20
10.1031426753
 11
11.4826690434
 21
10.0868191128
  0
LINE
  5
364
100
AcDbEntity
  8
03__ASM_ALL_CURVES
100
AcDbLine
 62
4
  6
CONTINUOUS
 10
11.4826690434
 20
9.8419656753
 11
11.4826690434
 21
9.9290246753
  0
LINE
  5
365
100
AcDbEntity
  8
03__ASM_ALL_CURVES
100
AcDbLine
 62
4
  6
CONTINUOUS
 10
15.7610608733
 20
11.6593223003
 11
15.7755707135
 21
11.6702046753
  0
LINE
  5
366
100
AcDbEntity
  8
03__ASM_ALL_CURVES
100
AcDbLine
 62
4
  6
CONTINUOUS
 10
15.8336100434
 20
11.6593223003
 11
15.8626297084
 21
11.6810870503
  0
LINE
  5
367
100
AcDbEntity
  8
03__ASM_ALL_CURVES
100
AcDbLine
 62
4
  6
CONTINUOUS
 10
16.1311002135
 20
11.8334403003
 11
16.1456100434
 21
11.8443226753
  0
LINE
  5
368
100
AcDbEntity
  8
03__ASM_ALL_CURVES
100
AcDbLine
 62
4
  6
CONTINUOUS
 10
15.9061592097
 20
11.5940280503
 11
15.8916493759
 21
11.5831456753
  0
LINE
  5
369
100
AcDbEntity
  8
03__ASM_ALL_CURVES
100
AcDbLine
 62
4
  6
CONTINUOUS
 10
16.2181592097
 20
11.7681460503
 11
16.2036493759
 21
11.7572636753
  0
LINE
  5
36A
100
AcDbEntity
  8
03__ASM_ALL_CURVES
100
AcDbLine
 62
4
  6
CONTINUOUS
 10
15.8989042928
 20
11.4797631128
 11
15.9206690434
 21
11.4960866753
  0
LINE
  5
36B
100
AcDbEntity
  8
03__ASM_ALL_CURVES
100
AcDbLine
 62
4
  6
CONTINUOUS
 10
15.7610608733
 20
11.3110863003
 11
15.7755707135
 21
11.3219686753
  0
LINE
  5
36C
100
AcDbEntity
  8
03__ASM_ALL_CURVES
100
AcDbLine
 62
4
  6
CONTINUOUS
 10
15.8336100434
 20
11.3110863003
 11
15.8626297084
 21
11.3328510503
  0
LINE
  5
36D
100
AcDbEntity
  8
03__ASM_ALL_CURVES
100
AcDbLine
 62
4
  6
CONTINUOUS
 10
16.2109042928
 20
11.4797631128
 11
16.2326690434
 21
11.4960866753
  0
LINE
  5
36E
100
AcDbEntity
  8
03__ASM_ALL_CURVES
100
AcDbLine
 62
4
  6
CONTINUOUS
 10
15.9061592097
 20
11.2457920503
 11
15.8916493759
 21
11.2349096753
  0
LINE
  5
36F
100
AcDbEntity
  8
03__ASM_ALL_CURVES
100
AcDbLine
 62
4
  6
CONTINUOUS
 10
15.7610608733
 20
11.1260859253
 11
15.7755707135
 21
11.1369683003
  0
LINE
  5
370
100
AcDbEntity
  8
03__ASM_ALL_CURVES
100
AcDbLine
 62
4
  6
CONTINUOUS
 10
5.7660199184
 20
4.2682380051
 11
5.7877846684
 21
4.2827478454
  0
LINE
  5
371
100
AcDbEntity
  8
03__ASM_ALL_CURVES
100
AcDbLine
 62
4
  6
CONTINUOUS
 10
5.8313141684
 20
4.181179009
 11
5.8095494184
 21
4.1666691753
  0
LINE
  5
372
100
AcDbEntity
  8
03__ASM_ALL_CURVES
100
AcDbLine
 62
4
  6
CONTINUOUS
 10
15.8916493759
 20
9.8528480503
 11
15.8626297084
 21
9.8419656753
  0
LINE
  5
373
100
AcDbEntity
  8
03__ASM_ALL_CURVES
100
AcDbLine
 62
4
  6
CONTINUOUS
 10
16.1456100434
 20
9.9181423003
 11
16.1746297084
 21
9.9290246753
  0
LINE
  5
374
100
AcDbEntity
  8
03__ASM_ALL_CURVES
100
AcDbLine
 62
4
  6
CONTINUOUS
 10
16.2036493759
 20
9.8528480503
 11
16.1746297084
 21
9.8419656753
  0
LINE
  5
375
100
AcDbEntity
  8
03__ASM_ALL_CURVES
100
AcDbLine
 62
4
  6
CONTINUOUS
 10
16.1601198785
 20
10.7343204253
 11
16.2036493759
 21
10.7452028003
  0
LINE
  5
376
100
AcDbEntity
  8
03__ASM_ALL_CURVES
100
AcDbLine
 62
4
  6
CONTINUOUS
 10
15.8481198785
 20
10.7343204253
 11
15.8916493759
 21
10.7452028003
  0
LINE
  5
377
100
AcDbEntity
  8
03__ASM_ALL_CURVES
100
AcDbLine
 62
4
  6
CONTINUOUS
 10
8.5496297084
 20
9.9290246753
 11
8.5786493759
 21
9.9181423003
  0
LINE
  5
378
100
AcDbEntity
  8
03__ASM_ALL_CURVES
100
AcDbLine
 62
4
  6
CONTINUOUS
 10
9.3665903733
 20
9.8419656753
 11
9.3375707135
 21
9.8528480503
  0
LINE
  5
379
100
AcDbEntity
  8
03__ASM_ALL_CURVES
100
AcDbLine
 62
4
  6
CONTINUOUS
 10
9.4246297084
 20
9.9290246753
 11
9.4536493759
 21
9.9181423003
  0
LINE
  5
37A
100
AcDbEntity
  8
03__ASM_ALL_CURVES
100
AcDbLine
 62
4
  6
CONTINUOUS
 10
8.4625707135
 20
10.8866736753
 11
8.4480608733
 21
10.8975560503
  0
LINE
  5
37B
100
AcDbEntity
  8
03__ASM_ALL_CURVES
100
AcDbLine
 62
4
  6
CONTINUOUS
 10
8.5351198785
 20
10.9193208003
 11
8.5641395434
 21
10.8975560503
  0
LINE
  5
37C
100
AcDbEntity
  8
03__ASM_ALL_CURVES
100
AcDbLine
 62
4
  6
CONTINUOUS
 10
8.4915903733
 20
10.9737326753
 11
8.5061002135
 21
10.9628503003
  0
LINE
  5
37D
100
AcDbEntity
  8
03__ASM_ALL_CURVES
100
AcDbLine
 62
4
  6
CONTINUOUS
 10
8.4625707135
 20
11.0607916753
 11
8.4480608733
 21
11.0716740503
  0
LINE
  5
37E
100
AcDbEntity
  8
03__ASM_ALL_CURVES
100
AcDbLine
 62
4
  6
CONTINUOUS
 10
8.5351198785
 20
11.0934388003
 11
8.5641395434
 21
11.0716740503
  0
LINE
  5
37F
100
AcDbEntity
  8
03__ASM_ALL_CURVES
100
AcDbLine
 62
4
  6
CONTINUOUS
 10
8.4915903733
 20
11.1478506753
 11
8.5061002135
 21
11.1369683003
  0
LINE
  5
380
100
AcDbEntity
  8
03__ASM_ALL_CURVES
100
AcDbLine
 62
4
  6
CONTINUOUS
 10
15.9061592097
 20
11.0825564253
 11
15.8916493759
 21
11.0716740503
  0
LINE
  5
381
100
AcDbEntity
  8
03__ASM_ALL_CURVES
100
AcDbLine
 62
4
  6
CONTINUOUS
 10
15.8916493759
 20
10.7452028003
 11
15.9206690434
 21
10.7669675503
  0
LINE
  5
382
100
AcDbEntity
  8
03__ASM_ALL_CURVES
100
AcDbLine
 62
4
  6
CONTINUOUS
 10
6.9848459184
 20
4.3262773454
 11
7.0066106684
 21
4.3407871753
  0
LINE
  5
383
100
AcDbEntity
  8
03__ASM_ALL_CURVES
100
AcDbLine
 62
4
  6
CONTINUOUS
 10
16.1746297084
 20
9.8419656753
 11
16.1165903733
 21
9.8419656753
  0
LINE
  5
384
100
AcDbEntity
  8
03__ASM_ALL_CURVES
100
AcDbLine
 62
4
  6
CONTINUOUS
 10
15.8626297084
 20
9.8419656753
 11
15.8045903733
 21
9.8419656753
  0
LINE
  5
385
100
AcDbEntity
  8
03__ASM_ALL_CURVES
100
AcDbLine
 62
4
  6
CONTINUOUS
 10
9.4246297084
 20
9.8419656753
 11
9.3665903733
 21
9.8419656753
  0
LINE
  5
386
100
AcDbEntity
  8
03__ASM_ALL_CURVES
100
AcDbLine
 62
4
  6
CONTINUOUS
 10
8.5496297084
 20
9.8419656753
 11
8.4915903733
 21
9.8419656753
  0
LINE
  5
387
100
AcDbEntity
  8
03__ASM_ALL_CURVES
100
AcDbLine
 62
4
  6
CONTINUOUS
 10
8.4915903733
 20
9.9290246753
 11
8.5496297084
 21
9.9290246753
  0
LINE
  5
388
100
AcDbEntity
  8
03__ASM_ALL_CURVES
100
AcDbLine
 62
4
  6
CONTINUOUS
 10
9.3665903733
 20
9.9290246753
 11
9.4246297084
 21
9.9290246753
  0
LINE
  5
389
100
AcDbEntity
  8
03__ASM_ALL_CURVES
100
AcDbLine
 62
4
  6
CONTINUOUS
 10
11.3375707135
 20
9.9290246753
 11
11.3665903733
 21
9.9290246753
  0
LINE
  5
38A
100
AcDbEntity
  8
03__ASM_ALL_CURVES
100
AcDbLine
 62
4
  6
CONTINUOUS
 10
8.5351198785
 20
10.4187315503
 11
8.4915903733
 21
10.4296139253
  0
LINE
  5
38B
100
AcDbEntity
  8
03__ASM_ALL_CURVES
100
AcDbLine
 62
4
  6
CONTINUOUS
 10
8.4915903733
 20
10.4296139253
 11
8.4335510434
 21
10.4513786753
  0
LINE
  5
38C
100
AcDbEntity
  8
03__ASM_ALL_CURVES
100
AcDbLine
 62
4
  6
CONTINUOUS
 10
8.4625707135
 20
11.4199100503
 11
8.4480608733
 21
11.4307924253
  0
LINE
  5
38D
100
AcDbEntity
  8
03__ASM_ALL_CURVES
100
AcDbLine
 62
4
  6
CONTINUOUS
 10
8.5786493759
 20
11.4852043003
 11
8.5931592097
 21
11.4743219253
  0
LINE
  5
38E
100
AcDbEntity
  8
03__ASM_ALL_CURVES
100
AcDbLine
 62
4
  6
CONTINUOUS
 10
8.4625707135
 20
11.5940280503
 11
8.4480608733
 21
11.6049104253
  0
LINE
  5
38F
100
AcDbEntity
  8
03__ASM_ALL_CURVES
100
AcDbLine
 62
4
  6
CONTINUOUS
 10
8.5786493759
 20
11.6593223003
 11
8.5931592097
 21
11.6484399253
  0
LINE
  5
390
100
AcDbEntity
  8
03__ASM_ALL_CURVES
100
AcDbLine
 62
4
  6
CONTINUOUS
 10
8.5786493759
 20
11.8116755503
 11
8.6076690434
 21
11.7899108003
  0
LINE
  5
391
100
AcDbEntity
  8
03__ASM_ALL_CURVES
100
AcDbLine
 62
4
  6
CONTINUOUS
 10
11.3230608733
 20
9.8528480503
 11
11.3085510434
 21
9.8746128003
  0
LINE
  5
392
100
AcDbEntity
  8
03__ASM_ALL_CURVES
100
AcDbLine
 62
4
  6
CONTINUOUS
 10
11.3811002135
 20
9.9181423003
 11
11.4101198785
 21
9.8746128003
  0
LINE
  5
393
100
AcDbEntity
  8
03__ASM_ALL_CURVES
100
AcDbLine
 62
4
  6
CONTINUOUS
 10
15.7610608733
 20
10.4404963003
 11
15.7755707135
 21
10.4513786753
  0
LINE
  5
394
100
AcDbEntity
  8
03__ASM_ALL_CURVES
100
AcDbLine
 62
4
  6
CONTINUOUS
 10
16.2036493759
 20
10.7452028003
 11
16.2326690434
 21
10.7669675503
  0
LINE
  5
395
100
AcDbEntity
  8
03__ASM_ALL_CURVES
100
AcDbLine
 62
4
  6
CONTINUOUS
 10
15.8336100434
 20
10.4404963003
 11
15.8626297084
 21
10.4622610503
  0
LINE
  5
396
100
AcDbEntity
  8
03__ASM_ALL_CURVES
100
AcDbLine
 62
4
  6
CONTINUOUS
 10
15.9061592097
 20
10.3752020503
 11
15.8916493759
 21
10.3643196753
  0
LINE
  5
397
100
AcDbEntity
  8
03__ASM_ALL_CURVES
100
AcDbLine
 62
4
  6
CONTINUOUS
 10
16.1311002135
 20
10.4404963003
 11
16.1456100434
 21
10.4513786753
  0
LINE
  5
398
100
AcDbEntity
  8
03__ASM_ALL_CURVES
100
AcDbLine
 62
4
  6
CONTINUOUS
 10
16.2181592097
 20
10.3752020503
 11
16.2036493759
 21
10.3643196753
  0
LINE
  5
399
100
AcDbEntity
  8
03__ASM_ALL_CURVES
100
AcDbLine
 62
4
  6
CONTINUOUS
 10
15.8989042928
 20
10.0868191128
 11
15.9206690434
 21
10.1031426753
  0
LINE
  5
39A
100
AcDbEntity
  8
03__ASM_ALL_CURVES
100
AcDbLine
 62
4
  6
CONTINUOUS
 10
7.0501401684
 20
4.2827478454
 11
7.0283754184
 21
4.2682380051
  0
LINE
  5
39B
100
AcDbEntity
  8
03__ASM_ALL_CURVES
100
AcDbLine
 62
4
  6
CONTINUOUS
 10
7.0501401684
 20
4.181179009
 11
7.0283754184
 21
4.1666691753
  0
LINE
  5
39C
100
AcDbEntity
  8
03__ASM_ALL_CURVES
100
AcDbLine
 62
4
  6
CONTINUOUS
 10
11.4101198785
 20
10.5602024253
 11
11.4536493759
 21
10.5710848003
  0
LINE
  5
39D
100
AcDbEntity
  8
03__ASM_ALL_CURVES
100
AcDbLine
 62
4
  6
CONTINUOUS
 10
16.2326690434
 20
10.0868191128
 11
16.2109042928
 21
10.0868191128
  0
LINE
  5
39E
100
AcDbEntity
  8
03__ASM_ALL_CURVES
100
AcDbLine
 62
4
  6
CONTINUOUS
 10
15.9206690434
 20
10.0868191128
 11
15.8989042928
 21
10.0868191128
  0
LINE
  5
39F
100
AcDbEntity
  8
03__ASM_ALL_CURVES
100
AcDbLine
 62
4
  6
CONTINUOUS
 10
11.4826690434
 20
10.0868191128
 11
11.4609042928
 21
10.0868191128
  0
LINE
  5
3A0
100
AcDbEntity
  8
03__ASM_ALL_CURVES
100
AcDbLine
 62
4
  6
CONTINUOUS
 10
8.6076690434
 20
10.0868191128
 11
8.5859042928
 21
10.0868191128
  0
LINE
  5
3A1
100
AcDbEntity
  8
03__ASM_ALL_CURVES
100
AcDbLine
 62
4
  6
CONTINUOUS
 10
8.5641395434
 20
10.1793193003
 11
8.5496297084
 21
10.1793193003
  0
LINE
  5
3A2
100
AcDbEntity
  8
03__ASM_ALL_CURVES
100
AcDbLine
 62
4
  6
CONTINUOUS
 10
11.4246297084
 20
10.1902016753
 11
11.3665903733
 21
10.1902016753
  0
LINE
  5
3A3
100
AcDbEntity
  8
03__ASM_ALL_CURVES
100
AcDbLine
 62
4
  6
CONTINUOUS
 10
8.4770805434
 20
10.1902016753
 11
8.4625707135
 21
10.1902016753
  0
LINE
  5
3A4
100
AcDbEntity
  8
03__ASM_ALL_CURVES
100
AcDbLine
 62
4
  6
CONTINUOUS
 10
15.9206690434
 20
10.2663783003
 11
15.7465510434
 21
10.2663783003
  0
LINE
  5
3A5
100
AcDbEntity
  8
03__ASM_ALL_CURVES
100
AcDbLine
 62
4
  6
CONTINUOUS
 10
8.4625707135
 20
10.2772606753
 11
8.4770805434
 21
10.2772606753
  0
LINE
  5
3A6
100
AcDbEntity
  8
03__ASM_ALL_CURVES
100
AcDbLine
 62
4
  6
CONTINUOUS
 10
11.3665903733
 20
10.2772606753
 11
11.4246297084
 21
10.2772606753
  0
LINE
  5
3A7
100
AcDbEntity
  8
03__ASM_ALL_CURVES
100
AcDbLine
 62
4
  6
CONTINUOUS
 10
8.5496297084
 20
10.2881430503
 11
8.5641395434
 21
10.2881430503
  0
LINE
  5
3A8
100
AcDbEntity
  8
03__ASM_ALL_CURVES
100
AcDbLine
 62
4
  6
CONTINUOUS
 10
15.7755707135
 20
10.4513786753
 11
15.7900805434
 21
10.4513786753
  0
LINE
  5
3A9
100
AcDbEntity
  8
03__ASM_ALL_CURVES
100
AcDbLine
 62
4
  6
CONTINUOUS
 10
15.8626297084
 20
10.4622610503
 11
15.8771395434
 21
10.4622610503
  0
LINE
  5
3AA
100
AcDbEntity
  8
03__ASM_ALL_CURVES
100
AcDbLine
 62
4
  6
CONTINUOUS
 10
8.6076690434
 20
10.4078491753
 11
8.5351198785
 21
10.4187315503
  0
LINE
  5
3AB
100
AcDbEntity
  8
03__ASM_ALL_CURVES
100
AcDbLine
 62
4
  6
CONTINUOUS
 10
11.4391395434
 20
9.8528480503
 11
11.4826690434
 21
9.8419656753
  0
LINE
  5
3AC
100
AcDbEntity
  8
03__ASM_ALL_CURVES
100
AcDbLine
 62
4
  6
CONTINUOUS
 10
8.4625707135
 20
10.7452028003
 11
8.5061002135
 21
10.7343204253
  0
LINE
  5
3AD
100
AcDbEntity
  8
03__ASM_ALL_CURVES
100
AcDbLine
 62
4
  6
CONTINUOUS
 10
8.5641395434
 20
10.8975560503
 11
8.6076690434
 21
10.8866736753
  0
LINE
  5
3AE
100
AcDbEntity
  8
03__ASM_ALL_CURVES
100
AcDbLine
 62
4
  6
CONTINUOUS
 10
11.3665903733
 20
10.1902016753
 11
11.3375707135
 21
10.2010840503
  0
LINE
  5
3AF
100
AcDbEntity
  8
03__ASM_ALL_CURVES
100
AcDbLine
 62
4
  6
CONTINUOUS
 10
11.4246297084
 20
10.2772606753
 11
11.4536493759
 21
10.2663783003
  0
LINE
  5
3B0
100
AcDbEntity
  8
03__ASM_ALL_CURVES
100
AcDbLine
 62
4
  6
CONTINUOUS
 10
11.3375707135
 20
9.8419656753
 11
11.3230608733
 21
9.8528480503
  0
LINE
  5
3B1
100
AcDbEntity
  8
03__ASM_ALL_CURVES
100
AcDbLine
 62
4
  6
CONTINUOUS
 10
11.4101198785
 20
9.8746128003
 11
11.4391395434
 21
9.8528480503
  0
LINE
  5
3B2
100
AcDbEntity
  8
03__ASM_ALL_CURVES
100
AcDbLine
 62
4
  6
CONTINUOUS
 10
11.3665903733
 20
9.9290246753
 11
11.3811002135
 21
9.9181423003
  0
LINE
  5
3B3
100
AcDbEntity
  8
03__ASM_ALL_CURVES
100
AcDbLine
 62
4
  6
CONTINUOUS
 10
11.3375707135
 20
10.2010840503
 11
11.3230608733
 21
10.2119664253
  0
LINE
  5
3B4
100
AcDbEntity
  8
03__ASM_ALL_CURVES
100
AcDbLine
 62
4
  6
CONTINUOUS
 10
11.4536493759
 20
10.2663783003
 11
11.4681592097
 21
10.2554959253
  0
LINE
  5
3B5
100
AcDbEntity
  8
03__ASM_ALL_CURVES
100
AcDbLine
 62
4
  6
CONTINUOUS
 10
11.3230608733
 20
10.2119664253
 11
11.3085510434
 21
10.2337311753
  0
LINE
  5
3B6
100
AcDbEntity
  8
03__ASM_ALL_CURVES
100
AcDbLine
 62
4
  6
CONTINUOUS
 10
11.4681592097
 20
10.2554959253
 11
11.4826690434
 21
10.2337311753
  0
LINE
  5
3B7
100
AcDbEntity
  8
03__ASM_ALL_CURVES
100
AcDbLine
 62
4
  6
CONTINUOUS
 10
11.3811002135
 20
10.7234380503
 11
11.3665903733
 21
10.7452028003
  0
LINE
  5
3B8
100
AcDbEntity
  8
03__ASM_ALL_CURVES
100
AcDbLine
 62
4
  6
CONTINUOUS
 10
11.3230608733
 20
10.9084384253
 11
11.3085510434
 21
10.9302031753
  0
LINE
  5
3B9
100
AcDbEntity
  8
03__ASM_ALL_CURVES
100
AcDbLine
 62
4
  6
CONTINUOUS
 10
15.7610608733
 20
12.7040303003
 11
15.7465510434
 21
12.6822655503
  0
LINE
  5
3BA
100
AcDbEntity
  8
03__ASM_ALL_CURVES
100
AcDbLine
 62
4
  6
CONTINUOUS
 10
15.8045903733
 20
12.6387360503
 11
15.8481198785
 21
12.7040303003
  0
LINE
  5
3BB
100
AcDbEntity
  8
03__ASM_ALL_CURVES
100
AcDbLine
 62
4
  6
CONTINUOUS
 10
15.9206690434
 20
12.6605008003
 11
15.9061592097
 21
12.6387360503
  0
LINE
  5
3BC
100
AcDbEntity
  8
03__ASM_ALL_CURVES
100
AcDbLine
 62
4
  6
CONTINUOUS
 10
15.7610608733
 20
9.9072599253
 11
15.7755707135
 21
9.9181423003
  0
LINE
  5
3BD
100
AcDbEntity
  8
03__ASM_ALL_CURVES
100
AcDbLine
 62
4
  6
CONTINUOUS
 10
15.9061592097
 20
9.8637304253
 11
15.8916493759
 21
9.8528480503
  0
LINE
  5
3BE
100
AcDbEntity
  8
03__ASM_ALL_CURVES
100
AcDbLine
 62
4
  6
CONTINUOUS
 10
16.2109042928
 20
10.0868191128
 11
16.2326690434
 21
10.1031426753
  0
LINE
  5
3BF
100
AcDbEntity
  8
03__ASM_ALL_CURVES
100
AcDbLine
 62
4
  6
CONTINUOUS
 10
16.0730608733
 20
9.9072599253
 11
16.0875707135
 21
9.9181423003
  0
LINE
  5
3C0
100
AcDbEntity
  8
03__ASM_ALL_CURVES
100
AcDbLine
 62
4
  6
CONTINUOUS
 10
16.2181592097
 20
9.8637304253
 11
16.2036493759
 21
9.8528480503
  0
LINE
  5
3C1
100
AcDbEntity
  8
03__ASM_ALL_CURVES
100
AcDbLine
 62
4
  6
CONTINUOUS
 10
16.0875707135
 20
11.9857935503
 11
16.1311002135
 21
11.9966759253
  0
LINE
  5
3C2
100
AcDbEntity
  8
03__ASM_ALL_CURVES
100
AcDbLine
 62
4
  6
CONTINUOUS
 10
15.7755707135
 20
11.9857935503
 11
15.8191002135
 21
11.9966759253
  0
LINE
  5
3C3
100
AcDbEntity
  8
03__ASM_ALL_CURVES
100
AcDbLine
 62
4
  6
CONTINUOUS
 10
15.8481198785
 20
12.3013824253
 11
15.8916493759
 21
12.3122648003
  0
LINE
  5
3C4
100
AcDbEntity
  8
03__ASM_ALL_CURVES
100
AcDbLine
 62
4
  6
CONTINUOUS
 10
11.3811002135
 20
10.5602024253
 11
11.4101198785
 21
10.5602024253
  0
LINE
  5
3C5
100
AcDbEntity
  8
03__ASM_ALL_CURVES
100
AcDbLine
 62
4
  6
CONTINUOUS
 10
8.5061002135
 20
10.7343204253
 11
8.5351198785
 21
10.7343204253
  0
LINE
  5
3C6
100
AcDbEntity
  8
03__ASM_ALL_CURVES
100
AcDbLine
 62
4
  6
CONTINUOUS
 10
15.8191002135
 20
10.7343204253
 11
15.8481198785
 21
10.7343204253
  0
LINE
  5
3C7
100
AcDbEntity
  8
03__ASM_ALL_CURVES
100
AcDbLine
 62
4
  6
CONTINUOUS
 10
16.1311002135
 20
10.7343204253
 11
16.1601198785
 21
10.7343204253
  0
LINE
  5
3C8
100
AcDbEntity
  8
03__ASM_ALL_CURVES
100
AcDbLine
 62
4
  6
CONTINUOUS
 10
11.4246297084
 20
10.8866736753
 11
11.3665903733
 21
10.8866736753
  0
LINE
  5
3C9
100
AcDbEntity
  8
03__ASM_ALL_CURVES
100
AcDbLine
 62
4
  6
CONTINUOUS
 10
15.7465510434
 20
10.9302031753
 11
15.9206690434
 21
10.9302031753
  0
LINE
  5
3CA
100
AcDbEntity
  8
03__ASM_ALL_CURVES
100
AcDbLine
 62
4
  6
CONTINUOUS
 10
16.0585510434
 20
10.9302031753
 11
16.2326690434
 21
10.9302031753
  0
LINE
  5
3CB
100
AcDbEntity
  8
03__ASM_ALL_CURVES
100
AcDbLine
 62
4
  6
CONTINUOUS
 10
11.3085510434
 20
10.7343204253
 11
11.3811002135
 21
10.7234380503
  0
LINE
  5
3CC
100
AcDbEntity
  8
03__ASM_ALL_CURVES
100
AcDbLine
 62
4
  6
CONTINUOUS
 10
8.5641395434
 20
11.0716740503
 11
8.6076690434
 21
11.0607916753
  0
LINE
  5
3CD
100
AcDbEntity
  8
03__ASM_ALL_CURVES
100
AcDbLine
 62
4
  6
CONTINUOUS
 10
11.3375707135
 20
10.5710848003
 11
11.3811002135
 21
10.5602024253
  0
LINE
  5
3CE
100
AcDbEntity
  8
03__ASM_ALL_CURVES
100
AcDbLine
 62
4
  6
CONTINUOUS
 10
8.4915903733
 20
11.4090276753
 11
8.4625707135
 21
11.4199100503
  0
LINE
  5
3CF
100
AcDbEntity
  8
03__ASM_ALL_CURVES
100
AcDbLine
 62
4
  6
CONTINUOUS
 10
8.5496297084
 20
11.4960866753
 11
8.5786493759
 21
11.4852043003
  0
LINE
  5
3D0
100
AcDbEntity
  8
03__ASM_ALL_CURVES
100
AcDbLine
 62
4
  6
CONTINUOUS
 10
8.4915903733
 20
11.5831456753
 11
8.4625707135
 21
11.5940280503
  0
LINE
  5
3D1
100
AcDbEntity
  8
03__ASM_ALL_CURVES
100
AcDbLine
 62
4
  6
CONTINUOUS
 10
8.4915903733
 20
11.6702046753
 11
8.5206100434
 21
11.6593223003
  0
LINE
  5
3D2
100
AcDbEntity
  8
03__ASM_ALL_CURVES
100
AcDbLine
 62
4
  6
CONTINUOUS
 10
8.5496297084
 20
11.6702046753
 11
8.5786493759
 21
11.6593223003
  0
LINE
  5
3D3
100
AcDbEntity
  8
03__ASM_ALL_CURVES
100
AcDbLine
 62
4
  6
CONTINUOUS
 10
11.3085510434
 20
10.5928495503
 11
11.3375707135
 21
10.5710848003
  0
LINE
  5
3D4
100
AcDbEntity
  8
03__ASM_ALL_CURVES
100
AcDbLine
 62
4
  6
CONTINUOUS
 10
11.4536493759
 20
10.7996146753
 11
11.4681592097
 21
10.7887323003
  0
LINE
  5
3D5
100
AcDbEntity
  8
03__ASM_ALL_CURVES
100
AcDbLine
 62
4
  6
CONTINUOUS
 10
11.3375707135
 20
10.8975560503
 11
11.3230608733
 21
10.9084384253
  0
LINE
  5
3D6
100
AcDbEntity
  8
03__ASM_ALL_CURVES
100
AcDbLine
 62
4
  6
CONTINUOUS
 10
11.4681592097
 20
10.7887323003
 11
11.4826690434
 21
10.7669675503
  0
LINE
  5
3D7
100
AcDbEntity
  8
03__ASM_ALL_CURVES
100
AcDbLine
 62
4
  6
CONTINUOUS
 10
11.4681592097
 20
10.9519679253
 11
11.4826690434
 21
10.9302031753
  0
LINE
  5
3D8
100
AcDbEntity
  8
03__ASM_ALL_CURVES
100
AcDbLine
 62
4
  6
CONTINUOUS
 10
11.3230608733
 20
11.2457920503
 11
11.3085510434
 21
11.2675568003
  0
LINE
  5
3D9
100
AcDbEntity
  8
03__ASM_ALL_CURVES
100
AcDbLine
 62
4
  6
CONTINUOUS
 10
11.3956100434
 20
11.2457920503
 11
11.3811002135
 21
11.2675568003
  0
LINE
  5
3DA
100
AcDbEntity
  8
03__ASM_ALL_CURVES
100
AcDbLine
 62
4
  6
CONTINUOUS
 10
11.3665903733
 20
11.3110863003
 11
11.3811002135
 21
11.2893215503
  0
LINE
  5
3DB
100
AcDbEntity
  8
03__ASM_ALL_CURVES
100
AcDbLine
 62
4
  6
CONTINUOUS
 10
11.4681592097
 20
11.3110863003
 11
11.4826690434
 21
11.2893215503
  0
LINE
  5
3DC
100
AcDbEntity
  8
03__ASM_ALL_CURVES
100
AcDbLine
 62
4
  6
CONTINUOUS
 10
15.7465510434
 20
11.8116755503
 11
15.7610608733
 21
11.8334403003
  0
LINE
  5
3DD
100
AcDbEntity
  8
03__ASM_ALL_CURVES
100
AcDbLine
 62
4
  6
CONTINUOUS
 10
15.7465510434
 20
11.6375575503
 11
15.7610608733
 21
11.6593223003
  0
LINE
  5
3DE
100
AcDbEntity
  8
03__ASM_ALL_CURVES
100
AcDbLine
 62
4
  6
CONTINUOUS
 10
15.8191002135
 20
11.6375575503
 11
15.8336100434
 21
11.6593223003
  0
LINE
  5
3DF
100
AcDbEntity
  8
03__ASM_ALL_CURVES
100
AcDbLine
 62
4
  6
CONTINUOUS
 10
15.9206690434
 20
11.6157928003
 11
15.9061592097
 21
11.5940280503
  0
LINE
  5
3E0
100
AcDbEntity
  8
03__ASM_ALL_CURVES
100
AcDbLine
 62
4
  6
CONTINUOUS
 10
15.7465510434
 20
11.2893215503
 11
15.7610608733
 21
11.3110863003
  0
LINE
  5
3E1
100
AcDbEntity
  8
03__ASM_ALL_CURVES
100
AcDbLine
 62
4
  6
CONTINUOUS
 10
16.1165903733
 20
11.8116755503
 11
16.1311002135
 21
11.8334403003
  0
LINE
  5
3E2
100
AcDbEntity
  8
03__ASM_ALL_CURVES
100
AcDbLine
 62
4
  6
CONTINUOUS
 10
15.8191002135
 20
11.2893215503
 11
15.8336100434
 21
11.3110863003
  0
LINE
  5
3E3
100
AcDbEntity
  8
03__ASM_ALL_CURVES
100
AcDbLine
 62
4
  6
CONTINUOUS
 10
15.7465510434
 20
11.1043211753
 11
15.7610608733
 21
11.1260859253
  0
LINE
  5
3E4
100
AcDbEntity
  8
03__ASM_ALL_CURVES
100
AcDbLine
 62
4
  6
CONTINUOUS
 10
16.2326690434
 20
11.7899108003
 11
16.2181592097
 21
11.7681460503
  0
LINE
  5
3E5
100
AcDbEntity
  8
03__ASM_ALL_CURVES
100
AcDbLine
 62
4
  6
CONTINUOUS
 10
15.9206690434
 20
11.2675568003
 11
15.9061592097
 21
11.2457920503
  0
LINE
  5
3E6
100
AcDbEntity
  8
03__ASM_ALL_CURVES
100
AcDbLine
 62
4
  6
CONTINUOUS
 10
8.5351198785
 20
10.7343204253
 11
8.5786493759
 21
10.7452028003
  0
LINE
  5
3E7
100
AcDbEntity
  8
03__ASM_ALL_CURVES
100
AcDbLine
 62
4
  6
CONTINUOUS
 10
11.3375707135
 20
11.4634395503
 11
11.3811002135
 21
11.4743219253
  0
LINE
  5
3E8
100
AcDbEntity
  8
03__ASM_ALL_CURVES
100
AcDbLine
 62
4
  6
CONTINUOUS
 10
8.4625707135
 20
10.9737326753
 11
8.4915903733
 21
10.9737326753
  0
LINE
  5
3E9
100
AcDbEntity
  8
03__ASM_ALL_CURVES
100
AcDbLine
 62
4
  6
CONTINUOUS
 10
11.3665903733
 20
10.9737326753
 11
11.4246297084
 21
10.9737326753
  0
LINE
  5
3EA
100
AcDbEntity
  8
03__ASM_ALL_CURVES
100
AcDbLine
 62
4
  6
CONTINUOUS
 10
15.8626297084
 20
11.0607916753
 11
15.8045903733
 21
11.0607916753
  0
LINE
  5
3EB
100
AcDbEntity
  8
03__ASM_ALL_CURVES
100
AcDbLine
 62
4
  6
CONTINUOUS
 10
11.4826690434
 20
11.1315271128
 11
11.4609042928
 21
11.1315271128
  0
LINE
  5
3EC
100
AcDbEntity
  8
03__ASM_ALL_CURVES
100
AcDbLine
 62
4
  6
CONTINUOUS
 10
8.4625707135
 20
11.1478506753
 11
8.4915903733
 21
11.1478506753
  0
LINE
  5
3ED
100
AcDbEntity
  8
03__ASM_ALL_CURVES
100
AcDbLine
 62
4
  6
CONTINUOUS
 10
11.4391395434
 20
11.2240273003
 11
11.4246297084
 21
11.2240273003
  0
LINE
  5
3EE
100
AcDbEntity
  8
03__ASM_ALL_CURVES
100
AcDbLine
 62
4
  6
CONTINUOUS
 10
11.3520805434
 20
11.2349096753
 11
11.3375707135
 21
11.2349096753
  0
LINE
  5
3EF
100
AcDbEntity
  8
03__ASM_ALL_CURVES
100
AcDbLine
 62
4
  6
CONTINUOUS
 10
16.0585510434
 20
11.2784391753
 11
16.2326690434
 21
11.2784391753
  0
LINE
  5
3F0
100
AcDbEntity
  8
03__ASM_ALL_CURVES
100
AcDbLine
 62
4
  6
CONTINUOUS
 10
8.6076690434
 20
11.3056451128
 11
8.5859042928
 21
11.3056451128
  0
LINE
  5
3F1
100
AcDbEntity
  8
03__ASM_ALL_CURVES
100
AcDbLine
 62
4
  6
CONTINUOUS
 10
11.3375707135
 20
11.3219686753
 11
11.3520805434
 21
11.3219686753
  0
LINE
  5
3F2
100
AcDbEntity
  8
03__ASM_ALL_CURVES
100
AcDbLine
 62
4
  6
CONTINUOUS
 10
15.7755707135
 20
11.3219686753
 11
15.7900805434
 21
11.3219686753
  0
LINE
  5
3F3
100
AcDbEntity
  8
03__ASM_ALL_CURVES
100
AcDbLine
 62
4
  6
CONTINUOUS
 10
11.4246297084
 20
11.3328510503
 11
11.4391395434
 21
11.3328510503
  0
LINE
  5
3F4
100
AcDbEntity
  8
03__ASM_ALL_CURVES
100
AcDbLine
 62
4
  6
CONTINUOUS
 10
15.8626297084
 20
11.3328510503
 11
15.8771395434
 21
11.3328510503
  0
LINE
  5
3F5
100
AcDbEntity
  8
03__ASM_ALL_CURVES
100
AcDbLine
 62
4
  6
CONTINUOUS
 10
8.5496297084
 20
11.4090276753
 11
8.4915903733
 21
11.4090276753
  0
LINE
  5
3F6
100
AcDbEntity
  8
03__ASM_ALL_CURVES
100
AcDbLine
 62
4
  6
CONTINUOUS
 10
16.2326690434
 20
10.2337311753
 11
16.1601198785
 21
10.2446135503
  0
LINE
  5
3F7
100
AcDbEntity
  8
03__ASM_ALL_CURVES
100
AcDbLine
 62
4
  6
CONTINUOUS
 10
16.0585510434
 20
10.3860844253
 11
16.1311002135
 21
10.3752020503
  0
LINE
  5
3F8
100
AcDbEntity
  8
03__ASM_ALL_CURVES
100
AcDbLine
 62
4
  6
CONTINUOUS
 10
8.5351198785
 20
11.8225579253
 11
8.5786493759
 21
11.8116755503
  0
LINE
  5
3F9
100
AcDbEntity
  8
03__ASM_ALL_CURVES
100
AcDbLine
 62
4
  6
CONTINUOUS
 10
11.4246297084
 20
10.8104970503
 11
11.4536493759
 21
10.7996146753
  0
LINE
  5
3FA
100
AcDbEntity
  8
03__ASM_ALL_CURVES
100
AcDbLine
 62
4
  6
CONTINUOUS
 10
11.3665903733
 20
10.8866736753
 11
11.3375707135
 21
10.8975560503
  0
LINE
  5
3FB
100
AcDbEntity
  8
03__ASM_ALL_CURVES
100
AcDbLine
 62
4
  6
CONTINUOUS
 10
11.4246297084
 20
10.9737326753
 11
11.4536493759
 21
10.9628503003
  0
LINE
  5
3FC
100
AcDbEntity
  8
03__ASM_ALL_CURVES
100
AcDbLine
 62
4
  6
CONTINUOUS
 10
11.4536493759
 20
10.9628503003
 11
11.4681592097
 21
10.9519679253
  0
LINE
  5
3FD
100
AcDbEntity
  8
03__ASM_ALL_CURVES
100
AcDbLine
 62
4
  6
CONTINUOUS
 10
11.3375707135
 20
11.2349096753
 11
11.3230608733
 21
11.2457920503
  0
LINE
  5
3FE
100
AcDbEntity
  8
03__ASM_ALL_CURVES
100
AcDbLine
 62
4
  6
CONTINUOUS
 10
11.4246297084
 20
11.2240273003
 11
11.3956100434
 21
11.2457920503
  0
LINE
  5
3FF
100
AcDbEntity
  8
03__ASM_ALL_CURVES
100
AcDbLine
 62
4
  6
CONTINUOUS
 10
11.3520805434
 20
11.3219686753
 11
11.3665903733
 21
11.3110863003
  0
LINE
  5
400
100
AcDbEntity
  8
03__ASM_ALL_CURVES
100
AcDbLine
 62
4
  6
CONTINUOUS
 10
11.4391395434
 20
11.3328510503
 11
11.4681592097
 21
11.3110863003
  0
LINE
  5
401
100
AcDbEntity
  8
03__ASM_ALL_CURVES
100
AcDbLine
 62
4
  6
CONTINUOUS
 10
11.4536493759
 20
11.4634395503
 11
11.4826690434
 21
11.4416748003
  0
LINE
  5
402
100
AcDbEntity
  8
03__ASM_ALL_CURVES
100
AcDbLine
 62
4
  6
CONTINUOUS
 10
15.9206690434
 20
11.1043211753
 11
15.9061592097
 21
11.0825564253
  0
LINE
  5
403
100
AcDbEntity
  8
03__ASM_ALL_CURVES
100
AcDbLine
 62
4
  6
CONTINUOUS
 10
15.7465510434
 20
10.4187315503
 11
15.7610608733
 21
10.4404963003
  0
LINE
  5
404
100
AcDbEntity
  8
03__ASM_ALL_CURVES
100
AcDbLine
 62
4
  6
CONTINUOUS
 10
15.8191002135
 20
10.4187315503
 11
15.8336100434
 21
10.4404963003
  0
LINE
  5
405
100
AcDbEntity
  8
03__ASM_ALL_CURVES
100
AcDbLine
 62
4
  6
CONTINUOUS
 10
15.7755707135
 20
12.8563835503
 11
15.8191002135
 21
12.8672659253
  0
LINE
  5
406
100
AcDbEntity
  8
03__ASM_ALL_CURVES
100
AcDbLine
 62
4
  6
CONTINUOUS
 10
11.3811002135
 20
11.4743219253
 11
11.4101198785
 21
11.4743219253
  0
LINE
  5
407
100
AcDbEntity
  8
03__ASM_ALL_CURVES
100
AcDbLine
 62
4
  6
CONTINUOUS
 10
16.2326690434
 20
11.4797631128
 11
16.2109042928
 21
11.4797631128
  0
LINE
  5
408
100
AcDbEntity
  8
03__ASM_ALL_CURVES
100
AcDbLine
 62
4
  6
CONTINUOUS
 10
15.9206690434
 20
11.4797631128
 11
15.8989042928
 21
11.4797631128
  0
LINE
  5
409
100
AcDbEntity
  8
03__ASM_ALL_CURVES
100
AcDbLine
 62
4
  6
CONTINUOUS
 10
8.4915903733
 20
11.4960866753
 11
8.5496297084
 21
11.4960866753
  0
LINE
  5
40A
100
AcDbEntity
  8
03__ASM_ALL_CURVES
100
AcDbLine
 62
4
  6
CONTINUOUS
 10
16.2326690434
 20
11.6593223003
 11
16.0585510434
 21
11.6593223003
  0
LINE
  5
40B
100
AcDbEntity
  8
03__ASM_ALL_CURVES
100
AcDbLine
 62
4
  6
CONTINUOUS
 10
8.4915903733
 20
11.6702046753
 11
8.5496297084
 21
11.6702046753
  0
LINE
  5
40C
100
AcDbEntity
  8
03__ASM_ALL_CURVES
100
AcDbLine
 62
4
  6
CONTINUOUS
 10
15.7755707135
 20
11.6702046753
 11
15.7900805434
 21
11.6702046753
  0
LINE
  5
40D
100
AcDbEntity
  8
03__ASM_ALL_CURVES
100
AcDbLine
 62
4
  6
CONTINUOUS
 10
15.8626297084
 20
11.6810870503
 11
15.8771395434
 21
11.6810870503
  0
LINE
  5
40E
100
AcDbEntity
  8
03__ASM_ALL_CURVES
100
AcDbLine
 62
4
  6
CONTINUOUS
 10
8.5061002135
 20
11.8225579253
 11
8.5351198785
 21
11.8225579253
  0
LINE
  5
40F
100
AcDbEntity
  8
03__ASM_ALL_CURVES
100
AcDbLine
 62
4
  6
CONTINUOUS
 10
15.7755707135
 20
11.8443226753
 11
15.8045903733
 21
11.8443226753
  0
LINE
  5
410
100
AcDbEntity
  8
03__ASM_ALL_CURVES
100
AcDbLine
 62
4
  6
CONTINUOUS
 10
16.1601198785
 20
10.2446135503
 11
16.1165903733
 21
10.2554959253
  0
LINE
  5
411
100
AcDbEntity
  8
03__ASM_ALL_CURVES
100
AcDbLine
 62
4
  6
CONTINUOUS
 10
11.4101198785
 20
11.4743219253
 11
11.4536493759
 21
11.4634395503
  0
LINE
  5
412
100
AcDbEntity
  8
03__ASM_ALL_CURVES
100
AcDbLine
 62
4
  6
CONTINUOUS
 10
15.8045903733
 20
9.8419656753
 11
15.7755707135
 21
9.8528480503
  0
LINE
  5
413
100
AcDbEntity
  8
03__ASM_ALL_CURVES
100
AcDbLine
 62
4
  6
CONTINUOUS
 10
15.8626297084
 20
9.8419656753
 11
15.8336100434
 21
9.8528480503
  0
LINE
  5
414
100
AcDbEntity
  8
03__ASM_ALL_CURVES
100
AcDbLine
 62
4
  6
CONTINUOUS
 10
15.8626297084
 20
9.9290246753
 11
15.8916493759
 21
9.9181423003
  0
LINE
  5
415
100
AcDbEntity
  8
03__ASM_ALL_CURVES
100
AcDbLine
 62
4
  6
CONTINUOUS
 10
16.1165903733
 20
9.8419656753
 11
16.0875707135
 21
9.8528480503
  0
LINE
  5
416
100
AcDbEntity
  8
03__ASM_ALL_CURVES
100
AcDbLine
 62
4
  6
CONTINUOUS
 10
16.1746297084
 20
9.8419656753
 11
16.1456100434
 21
9.8528480503
  0
LINE
  5
417
100
AcDbEntity
  8
03__ASM_ALL_CURVES
100
AcDbLine
 62
4
  6
CONTINUOUS
 10
16.1746297084
 20
9.9290246753
 11
16.2036493759
 21
9.9181423003
  0
LINE
  5
418
100
AcDbEntity
  8
03__ASM_ALL_CURVES
100
AcDbLine
 62
4
  6
CONTINUOUS
 10
15.8191002135
 20
11.1043211753
 11
15.8336100434
 21
11.1369683003
  0
LINE
  5
419
100
AcDbEntity
  8
03__ASM_ALL_CURVES
100
AcDbLine
 62
4
  6
CONTINUOUS
 10
15.9206690434
 20
10.3969668003
 11
15.9061592097
 21
10.3752020503
  0
LINE
  5
41A
100
AcDbEntity
  8
03__ASM_ALL_CURVES
100
AcDbLine
 62
4
  6
CONTINUOUS
 10
15.7465510434
 20
9.8854951753
 11
15.7610608733
 21
9.9072599253
  0
LINE
  5
41B
100
AcDbEntity
  8
03__ASM_ALL_CURVES
100
AcDbLine
 62
4
  6
CONTINUOUS
 10
16.1165903733
 20
10.4187315503
 11
16.1311002135
 21
10.4404963003
  0
LINE
  5
41C
100
AcDbEntity
  8
03__ASM_ALL_CURVES
100
AcDbLine
 62
4
  6
CONTINUOUS
 10
16.2326690434
 20
10.3969668003
 11
16.2181592097
 21
10.3752020503
  0
LINE
  5
41D
100
AcDbEntity
  8
03__ASM_ALL_CURVES
100
AcDbLine
 62
4
  6
CONTINUOUS
 10
15.9206690434
 20
9.8854951753
 11
15.9061592097
 21
9.8637304253
  0
LINE
  5
41E
100
AcDbEntity
  8
03__ASM_ALL_CURVES
100
AcDbLine
 62
4
  6
CONTINUOUS
 10
16.0585510434
 20
9.8854951753
 11
16.0730608733
 21
9.9072599253
  0
LINE
  5
41F
100
AcDbEntity
  8
03__ASM_ALL_CURVES
100
AcDbLine
 62
4
  6
CONTINUOUS
 10
8.4625707135
 20
11.8116755503
 11
8.5061002135
 21
11.8225579253
  0
LINE
  5
420
100
AcDbEntity
  8
03__ASM_ALL_CURVES
100
AcDbLine
 62
4
  6
CONTINUOUS
 10
15.8191002135
 20
11.9966759253
 11
15.8481198785
 21
11.9966759253
  0
LINE
  5
421
100
AcDbEntity
  8
03__ASM_ALL_CURVES
100
AcDbLine
 62
4
  6
CONTINUOUS
 10
16.1311002135
 20
11.9966759253
 11
16.1601198785
 21
11.9966759253
  0
LINE
  5
422
100
AcDbEntity
  8
03__ASM_ALL_CURVES
100
AcDbLine
 62
4
  6
CONTINUOUS
 10
15.8191002135
 20
12.3013824253
 11
15.8481198785
 21
12.3013824253
  0
LINE
  5
423
100
AcDbEntity
  8
03__ASM_ALL_CURVES
100
AcDbLine
 62
4
  6
CONTINUOUS
 10
16.2326690434
 20
11.1043211753
 11
16.1601198785
 21
11.1152035503
  0
LINE
  5
424
100
AcDbEntity
  8
03__ASM_ALL_CURVES
100
AcDbLine
 62
4
  6
CONTINUOUS
 10
15.7755707135
 20
10.7452028003
 11
15.8191002135
 21
10.7343204253
  0
LINE
  5
425
100
AcDbEntity
  8
03__ASM_ALL_CURVES
100
AcDbLine
 62
4
  6
CONTINUOUS
 10
16.0875707135
 20
10.7452028003
 11
16.1311002135
 21
10.7343204253
  0
LINE
  5
426
100
AcDbEntity
  8
03__ASM_ALL_CURVES
100
AcDbLine
 62
4
  6
CONTINUOUS
 10
16.1165903733
 20
10.2554959253
 11
16.0585510434
 21
10.2772606753
  0
LINE
  5
427
100
AcDbEntity
  8
03__ASM_ALL_CURVES
100
AcDbLine
 62
4
  6
CONTINUOUS
 10
16.1746297084
 20
10.4622610503
 11
16.2036493759
 21
10.4513786753
  0
LINE
  5
428
100
AcDbEntity
  8
03__ASM_ALL_CURVES
100
AcDbLine
 62
4
  6
CONTINUOUS
 10
15.8191002135
 20
9.8854951753
 11
15.8336100434
 21
9.9181423003
  0
LINE
  5
429
100
AcDbEntity
  8
03__ASM_ALL_CURVES
100
AcDbLine
 62
4
  6
CONTINUOUS
 10
16.2326690434
 20
9.8854951753
 11
16.2181592097
 21
9.8637304253
  0
LINE
  5
42A
100
AcDbEntity
  8
03__ASM_ALL_CURVES
100
AcDbLine
 62
4
  6
CONTINUOUS
 10
15.7465510434
 20
12.4537356753
 11
15.9206690434
 21
12.4537356753
  0
LINE
  5
42B
100
AcDbEntity
  8
03__ASM_ALL_CURVES
100
AcDbLine
 62
4
  6
CONTINUOUS
 10
15.7755707135
 20
12.6278536753
 11
15.7900805434
 21
12.6278536753
  0
LINE
  5
42C
100
AcDbEntity
  8
03__ASM_ALL_CURVES
100
AcDbLine
 62
4
  6
CONTINUOUS
 10
15.8626297084
 20
12.7149126753
 11
15.8916493759
 21
12.7149126753
  0
LINE
  5
42D
100
AcDbEntity
  8
03__ASM_ALL_CURVES
100
AcDbLine
 62
4
  6
CONTINUOUS
 10
16.0585510434
 20
11.7790284253
 11
16.1311002135
 21
11.7681460503
  0
LINE
  5
42E
100
AcDbEntity
  8
03__ASM_ALL_CURVES
100
AcDbLine
 62
4
  6
CONTINUOUS
 10
16.1601198785
 20
11.1152035503
 11
16.1165903733
 21
11.1260859253
  0
LINE
  5
42F
100
AcDbEntity
  8
03__ASM_ALL_CURVES
100
AcDbLine
 62
4
  6
CONTINUOUS
 10
15.8045903733
 20
11.0607916753
 11
15.7755707135
 21
11.0716740503
  0
LINE
  5
430
100
AcDbEntity
  8
03__ASM_ALL_CURVES
100
AcDbLine
 62
4
  6
CONTINUOUS
 10
15.8626297084
 20
11.0607916753
 11
15.8336100434
 21
11.0716740503
  0
LINE
  5
431
100
AcDbEntity
  8
03__ASM_ALL_CURVES
100
AcDbLine
 62
4
  6
CONTINUOUS
 10
15.8626297084
 20
11.1478506753
 11
15.8916493759
 21
11.1369683003
  0
LINE
  5
432
100
AcDbEntity
  8
03__ASM_ALL_CURVES
100
AcDbLine
 62
4
  6
CONTINUOUS
 10
15.7465510434
 20
10.2663783003
 11
15.8771395434
 21
10.1902016753
  0
LINE
  5
433
100
AcDbEntity
  8
03__ASM_ALL_CURVES
100
AcDbLine
 62
4
  6
CONTINUOUS
 10
15.7755707135
 20
9.8528480503
 11
15.7610608733
 21
9.8637304253
  0
LINE
  5
434
100
AcDbEntity
  8
03__ASM_ALL_CURVES
100
AcDbLine
 62
4
  6
CONTINUOUS
 10
15.8916493759
 20
9.9181423003
 11
15.9061592097
 21
9.9072599253
  0
LINE
  5
435
100
AcDbEntity
  8
03__ASM_ALL_CURVES
100
AcDbLine
 62
4
  6
CONTINUOUS
 10
16.1311002135
 20
9.8854951753
 11
16.1456100434
 21
9.9181423003
  0
LINE
  5
436
100
AcDbEntity
  8
03__ASM_ALL_CURVES
100
AcDbLine
 62
4
  6
CONTINUOUS
 10
15.8191002135
 20
12.8672659253
 11
15.8481198785
 21
12.8672659253
  0
LINE
  5
437
100
AcDbEntity
  8
03__ASM_ALL_CURVES
100
AcDbLine
 62
4
  6
CONTINUOUS
 10
15.8771395434
 20
11.7681460503
 11
15.9206690434
 21
11.7572636753
  0
LINE
  5
438
100
AcDbEntity
  8
03__ASM_ALL_CURVES
100
AcDbLine
 62
4
  6
CONTINUOUS
 10
15.8481198785
 20
11.9966759253
 11
15.8916493759
 21
11.9857935503
  0
LINE
  5
439
100
AcDbEntity
  8
03__ASM_ALL_CURVES
100
AcDbLine
 62
4
  6
CONTINUOUS
 10
16.1601198785
 20
11.9966759253
 11
16.2036493759
 21
11.9857935503
  0
LINE
  5
43A
100
AcDbEntity
  8
03__ASM_ALL_CURVES
100
AcDbLine
 62
4
  6
CONTINUOUS
 10
16.1165903733
 20
11.1260859253
 11
16.0585510434
 21
11.1478506753
  0
LINE
  5
43B
100
AcDbEntity
  8
03__ASM_ALL_CURVES
100
AcDbLine
 62
4
  6
CONTINUOUS
 10
16.0875707135
 20
9.8528480503
 11
16.0730608733
 21
9.8637304253
  0
LINE
  5
43C
100
AcDbEntity
  8
03__ASM_ALL_CURVES
100
AcDbLine
 62
4
  6
CONTINUOUS
 10
16.2036493759
 20
9.9181423003
 11
16.2181592097
 21
9.9072599253
  0
LINE
  5
43D
100
AcDbEntity
  8
03__ASM_ALL_CURVES
100
AcDbLine
 62
4
  6
CONTINUOUS
 10
15.7900805434
 20
10.4513786753
 11
15.8045903733
 21
10.4404963003
  0
LINE
  5
43E
100
AcDbEntity
  8
03__ASM_ALL_CURVES
100
AcDbLine
 62
4
  6
CONTINUOUS
 10
15.8771395434
 20
10.4622610503
 11
15.9061592097
 21
10.4404963003
  0
LINE
  5
43F
100
AcDbEntity
  8
03__ASM_ALL_CURVES
100
AcDbLine
 62
4
  6
CONTINUOUS
 10
15.7465510434
 20
12.6822655503
 11
15.7465510434
 21
12.6605008003
  0
LINE
  5
440
100
AcDbEntity
  8
03__ASM_ALL_CURVES
100
AcDbLine
 62
4
  6
CONTINUOUS
 10
15.7465510434
 20
10.3969668003
 11
15.7465510434
 21
10.4187315503
  0
LINE
  5
441
100
AcDbEntity
  8
03__ASM_ALL_CURVES
100
AcDbLine
 62
4
  6
CONTINUOUS
 10
15.7465510434
 20
11.2675568003
 11
15.7465510434
 21
11.2893215503
  0
LINE
  5
442
100
AcDbEntity
  8
03__ASM_ALL_CURVES
100
AcDbLine
 62
4
  6
CONTINUOUS
 10
15.7465510434
 20
11.6157928003
 11
15.7465510434
 21
11.6375575503
  0
LINE
  5
443
100
AcDbEntity
  8
03__ASM_ALL_CURVES
100
AcDbLine
 62
4
  6
CONTINUOUS
 10
15.7465510434
 20
11.7899108003
 11
15.7465510434
 21
11.8116755503
  0
LINE
  5
444
100
AcDbEntity
  8
03__ASM_ALL_CURVES
100
AcDbLine
 62
4
  6
CONTINUOUS
 10
15.8191002135
 20
10.3969668003
 11
15.8191002135
 21
10.4187315503
  0
LINE
  5
445
100
AcDbEntity
  8
03__ASM_ALL_CURVES
100
AcDbLine
 62
4
  6
CONTINUOUS
 10
15.8191002135
 20
11.2675568003
 11
15.8191002135
 21
11.2893215503
  0
LINE
  5
446
100
AcDbEntity
  8
03__ASM_ALL_CURVES
100
AcDbLine
 62
4
  6
CONTINUOUS
 10
15.8191002135
 20
11.6157928003
 11
15.8191002135
 21
11.6375575503
  0
LINE
  5
447
100
AcDbEntity
  8
03__ASM_ALL_CURVES
100
AcDbLine
 62
4
  6
CONTINUOUS
 10
15.8336100434
 20
8.9278461753
 11
15.8336100434
 21
9.4502001753
  0
LINE
  5
448
100
AcDbEntity
  8
03__ASM_ALL_CURVES
100
AcDbLine
 62
4
  6
CONTINUOUS
 10
15.8771395434
 20
10.1902016753
 11
15.8771395434
 21
10.2881430503
  0
LINE
  5
449
100
AcDbEntity
  8
03__ASM_ALL_CURVES
100
AcDbLine
 62
4
  6
CONTINUOUS
 10
15.7755707135
 20
12.3122648003
 11
15.8191002135
 21
12.3013824253
  0
LINE
  5
44A
100
AcDbEntity
  8
03__ASM_ALL_CURVES
100
AcDbLine
 62
4
  6
CONTINUOUS
 10
16.1746297084
 20
11.8552050503
 11
16.2036493759
 21
11.8443226753
  0
LINE
  5
44B
100
AcDbEntity
  8
03__ASM_ALL_CURVES
100
AcDbLine
 62
4
  6
CONTINUOUS
 10
15.7465510434
 20
10.7669675503
 11
15.7755707135
 21
10.7452028003
  0
LINE
  5
44C
100
AcDbEntity
  8
03__ASM_ALL_CURVES
100
AcDbLine
 62
4
  6
CONTINUOUS
 10
16.2036493759
 20
10.4513786753
 11
16.2181592097
 21
10.4404963003
  0
LINE
  5
44D
100
AcDbEntity
  8
03__ASM_ALL_CURVES
100
AcDbLine
 62
4
  6
CONTINUOUS
 10
16.0585510434
 20
10.7669675503
 11
16.0875707135
 21
10.7452028003
  0
LINE
  5
44E
100
AcDbEntity
  8
03__ASM_ALL_CURVES
100
AcDbLine
 62
4
  6
CONTINUOUS
 10
15.7755707135
 20
11.0716740503
 11
15.7610608733
 21
11.0825564253
  0
LINE
  5
44F
100
AcDbEntity
  8
03__ASM_ALL_CURVES
100
AcDbLine
 62
4
  6
CONTINUOUS
 10
15.8916493759
 20
11.1369683003
 11
15.9061592097
 21
11.1260859253
  0
LINE
  5
450
100
AcDbEntity
  8
03__ASM_ALL_CURVES
100
AcDbLine
 62
4
  6
CONTINUOUS
 10
15.7610608733
 20
9.8637304253
 11
15.7465510434
 21
9.8854951753
  0
LINE
  5
451
100
AcDbEntity
  8
03__ASM_ALL_CURVES
100
AcDbLine
 62
4
  6
CONTINUOUS
 10
15.9061592097
 20
9.9072599253
 11
15.9206690434
 21
9.8854951753
  0
LINE
  5
452
100
AcDbEntity
  8
03__ASM_ALL_CURVES
100
AcDbLine
 62
4
  6
CONTINUOUS
 10
15.9206690434
 20
12.6822655503
 11
15.9206690434
 21
12.6605008003
  0
LINE
  5
453
100
AcDbEntity
  8
03__ASM_ALL_CURVES
100
AcDbLine
 62
4
  6
CONTINUOUS
 10
15.9206690434
 20
11.6375575503
 11
15.9206690434
 21
11.6157928003
  0
LINE
  5
454
100
AcDbEntity
  8
03__ASM_ALL_CURVES
100
AcDbLine
 62
4
  6
CONTINUOUS
 10
15.9206690434
 20
11.4960866753
 11
15.9206690434
 21
11.4797631128
  0
LINE
  5
455
100
AcDbEntity
  8
03__ASM_ALL_CURVES
100
AcDbLine
 62
4
  6
CONTINUOUS
 10
15.9206690434
 20
11.2893215503
 11
15.9206690434
 21
11.2675568003
  0
LINE
  5
456
100
AcDbEntity
  8
03__ASM_ALL_CURVES
100
AcDbLine
 62
4
  6
CONTINUOUS
 10
15.9206690434
 20
10.4187315503
 11
15.9206690434
 21
10.3969668003
  0
LINE
  5
457
100
AcDbEntity
  8
03__ASM_ALL_CURVES
100
AcDbLine
 62
4
  6
CONTINUOUS
 10
15.9206690434
 20
10.1031426753
 11
15.9206690434
 21
10.0868191128
  0
LINE
  5
458
100
AcDbEntity
  8
03__ASM_ALL_CURVES
100
AcDbLine
 62
4
  6
CONTINUOUS
 10
15.9206690434
 20
11.7572636753
 11
15.9206690434
 21
11.8443226753
  0
LINE
  5
459
100
AcDbEntity
  8
03__ASM_ALL_CURVES
100
AcDbLine
 62
4
  6
CONTINUOUS
 10
15.9206690434
 20
12.4537356753
 11
15.9206690434
 21
12.5407946753
  0
LINE
  5
45A
100
AcDbEntity
  8
03__ASM_ALL_CURVES
100
AcDbLine
 62
4
  6
CONTINUOUS
 10
16.0585510434
 20
11.8443226753
 11
16.0585510434
 21
11.7790284253
  0
LINE
  5
45B
100
AcDbEntity
  8
03__ASM_ALL_CURVES
100
AcDbLine
 62
4
  6
CONTINUOUS
 10
16.0585510434
 20
11.1478506753
 11
16.0585510434
 21
11.0607916753
  0
LINE
  5
45C
100
AcDbEntity
  8
03__ASM_ALL_CURVES
100
AcDbLine
 62
4
  6
CONTINUOUS
 10
16.0585510434
 20
10.4513786753
 11
16.0585510434
 21
10.3860844253
  0
LINE
  5
45D
100
AcDbEntity
  8
03__ASM_ALL_CURVES
100
AcDbLine
 62
4
  6
CONTINUOUS
 10
16.0585510434
 20
10.2772606753
 11
16.0585510434
 21
10.1902016753
  0
LINE
  5
45E
100
AcDbEntity
  8
03__ASM_ALL_CURVES
100
AcDbLine
 62
4
  6
CONTINUOUS
 10
16.1165903733
 20
10.3969668003
 11
16.1165903733
 21
10.4187315503
  0
LINE
  5
45F
100
AcDbEntity
  8
03__ASM_ALL_CURVES
100
AcDbLine
 62
4
  6
CONTINUOUS
 10
16.1165903733
 20
11.7899108003
 11
16.1165903733
 21
11.8116755503
  0
LINE
  5
460
100
AcDbEntity
  8
0
100
AcDbLine
 62
7
  6
CONTINUOUS
 10
16.1456100434
 20
4.2537281753
 11
16.1456100434
 21
8.7537281753
  0
LINE
  5
461
100
AcDbEntity
  8
03__ASM_ALL_CURVES
100
AcDbLine
 62
4
  6
CONTINUOUS
 10
16.1456100434
 20
8.9278461753
 11
16.1456100434
 21
9.4502001753
  0
LINE
  5
462
100
AcDbEntity
  8
03__ASM_ALL_CURVES
100
AcDbLine
 62
4
  6
CONTINUOUS
 10
16.1891395434
 20
11.5831456753
 11
16.1891395434
 21
11.6810870503
  0
LINE
  5
463
100
AcDbEntity
  8
03__ASM_ALL_CURVES
100
AcDbLine
 62
4
  6
CONTINUOUS
 10
16.2326690434
 20
11.8116755503
 11
16.2326690434
 21
11.7899108003
  0
LINE
  5
464
100
AcDbEntity
  8
03__ASM_ALL_CURVES
100
AcDbLine
 62
4
  6
CONTINUOUS
 10
16.2326690434
 20
11.4960866753
 11
16.2326690434
 21
11.4797631128
  0
LINE
  5
465
100
AcDbEntity
  8
03__ASM_ALL_CURVES
100
AcDbLine
 62
4
  6
CONTINUOUS
 10
16.2326690434
 20
10.4187315503
 11
16.2326690434
 21
10.3969668003
  0
LINE
  5
466
100
AcDbEntity
  8
03__ASM_ALL_CURVES
100
AcDbLine
 62
4
  6
CONTINUOUS
 10
16.2326690434
 20
10.1031426753
 11
16.2326690434
 21
10.0868191128
  0
LINE
  5
467
100
AcDbEntity
  8
03__ASM_ALL_CURVES
100
AcDbLine
 62
4
  6
CONTINUOUS
 10
15.8481198785
 20
12.8672659253
 11
15.8916493759
 21
12.8563835503
  0
LINE
  5
468
100
AcDbEntity
  8
03__ASM_ALL_CURVES
100
AcDbLine
 62
4
  6
CONTINUOUS
 10
16.0585510434
 20
11.6593223003
 11
16.1891395434
 21
11.5831456753
  0
LINE
  5
469
100
AcDbEntity
  8
03__ASM_ALL_CURVES
100
AcDbLine
 62
4
  6
CONTINUOUS
 10
15.7900805434
 20
11.3219686753
 11
15.8045903733
 21
11.3110863003
  0
LINE
  5
46A
100
AcDbEntity
  8
03__ASM_ALL_CURVES
100
AcDbLine
 62
4
  6
CONTINUOUS
 10
15.8771395434
 20
11.3328510503
 11
15.9061592097
 21
11.3110863003
  0
LINE
  5
46B
100
AcDbEntity
  8
03__ASM_ALL_CURVES
100
AcDbLine
 62
4
  6
CONTINUOUS
 10
15.7900805434
 20
11.6702046753
 11
15.8045903733
 21
11.6593223003
  0
LINE
  5
46C
100
AcDbEntity
  8
03__ASM_ALL_CURVES
100
AcDbLine
 62
4
  6
CONTINUOUS
 10
15.7755707135
 20
11.7572636753
 11
15.7610608733
 21
11.7681460503
  0
LINE
  5
46D
100
AcDbEntity
  8
03__ASM_ALL_CURVES
100
AcDbLine
 62
4
  6
CONTINUOUS
 10
15.8771395434
 20
11.6810870503
 11
15.9061592097
 21
11.6593223003
  0
LINE
  5
46E
100
AcDbEntity
  8
03__ASM_ALL_CURVES
100
AcDbLine
 62
4
  6
CONTINUOUS
 10
16.0730608733
 20
9.8637304253
 11
16.0585510434
 21
9.8854951753
  0
LINE
  5
46F
100
AcDbEntity
  8
03__ASM_ALL_CURVES
100
AcDbLine
 62
4
  6
CONTINUOUS
 10
15.7610608733
 20
10.3752020503
 11
15.7465510434
 21
10.3969668003
  0
LINE
  5
470
100
AcDbEntity
  8
03__ASM_ALL_CURVES
100
AcDbLine
 62
4
  6
CONTINUOUS
 10
15.8045903733
 20
10.4404963003
 11
15.8191002135
 21
10.4187315503
  0
LINE
  5
471
100
AcDbEntity
  8
03__ASM_ALL_CURVES
100
AcDbLine
 62
4
  6
CONTINUOUS
 10
16.2181592097
 20
9.9072599253
 11
16.2326690434
 21
9.8854951753
  0
LINE
  5
472
100
AcDbEntity
  8
03__ASM_ALL_CURVES
100
AcDbLine
 62
4
  6
CONTINUOUS
 10
15.9061592097
 20
10.4404963003
 11
15.9206690434
 21
10.4187315503
  0
LINE
  5
473
100
AcDbEntity
  8
03__ASM_ALL_CURVES
100
AcDbLine
 62
4
  6
CONTINUOUS
 10
16.1311002135
 20
10.3752020503
 11
16.1165903733
 21
10.3969668003
  0
LINE
  5
474
100
AcDbEntity
  8
03__ASM_ALL_CURVES
100
AcDbLine
 62
4
  6
CONTINUOUS
 10
15.7610608733
 20
11.0825564253
 11
15.7465510434
 21
11.1043211753
  0
LINE
  5
475
100
AcDbEntity
  8
03__ASM_ALL_CURVES
100
AcDbLine
 62
4
  6
CONTINUOUS
 10
16.2181592097
 20
10.4404963003
 11
16.2326690434
 21
10.4187315503
  0
LINE
  5
476
100
AcDbEntity
  8
03__ASM_ALL_CURVES
100
AcDbLine
 62
4
  6
CONTINUOUS
 10
15.8336100434
 20
9.8528480503
 11
15.8191002135
 21
9.8854951753
  0
LINE
  5
477
100
AcDbEntity
  8
03__ASM_ALL_CURVES
100
AcDbLine
 62
4
  6
CONTINUOUS
 10
16.1456100434
 20
9.8528480503
 11
16.1311002135
 21
9.8854951753
  0
LINE
  5
478
100
AcDbEntity
  8
03__ASM_ALL_CURVES
100
AcDbLine
 62
4
  6
CONTINUOUS
 10
15.8481198785
 20
11.7899108003
 11
15.8771395434
 21
11.7681460503
  0
LINE
  5
479
100
AcDbEntity
  8
03__ASM_ALL_CURVES
100
AcDbLine
 62
4
  6
CONTINUOUS
 10
15.8045903733
 20
11.8443226753
 11
15.8191002135
 21
11.8334403003
  0
LINE
  5
47A
100
AcDbEntity
  8
03__ASM_ALL_CURVES
100
AcDbLine
 62
4
  6
CONTINUOUS
 10
15.8916493759
 20
11.9857935503
 11
15.9206690434
 21
11.9640288003
  0
LINE
  5
47B
100
AcDbEntity
  8
03__ASM_ALL_CURVES
100
AcDbLine
 62
4
  6
CONTINUOUS
 10
16.2036493759
 20
11.8443226753
 11
16.2181592097
 21
11.8334403003
  0
LINE
  5
47C
100
AcDbEntity
  8
03__ASM_ALL_CURVES
100
AcDbLine
 62
4
  6
CONTINUOUS
 10
16.2036493759
 20
11.9857935503
 11
16.2326690434
 21
11.9640288003
  0
LINE
  5
47D
100
AcDbEntity
  8
03__ASM_ALL_CURVES
100
AcDbLine
 62
4
  6
CONTINUOUS
 10
15.7465510434
 20
12.3340295503
 11
15.7755707135
 21
12.3122648003
  0
LINE
  5
47E
100
AcDbEntity
  8
03__ASM_ALL_CURVES
100
AcDbLine
 62
4
  6
CONTINUOUS
 10
15.7610608733
 20
11.2457920503
 11
15.7465510434
 21
11.2675568003
  0
LINE
  5
47F
100
AcDbEntity
  8
03__ASM_ALL_CURVES
100
AcDbLine
 62
4
  6
CONTINUOUS
 10
15.9061592097
 20
11.1260859253
 11
15.9206690434
 21
11.1043211753
  0
LINE
  5
480
100
AcDbEntity
  8
03__ASM_ALL_CURVES
100
AcDbLine
 62
4
  6
CONTINUOUS
 10
15.8045903733
 20
11.3110863003
 11
15.8191002135
 21
11.2893215503
  0
LINE
  5
481
100
AcDbEntity
  8
03__ASM_ALL_CURVES
100
AcDbLine
 62
4
  6
CONTINUOUS
 10
15.9061592097
 20
11.3110863003
 11
15.9206690434
 21
11.2893215503
  0
LINE
  5
482
100
AcDbEntity
  8
03__ASM_ALL_CURVES
100
AcDbLine
 62
4
  6
CONTINUOUS
 10
15.7610608733
 20
11.5940280503
 11
15.7465510434
 21
11.6157928003
  0
LINE
  5
483
100
AcDbEntity
  8
03__ASM_ALL_CURVES
100
AcDbLine
 62
4
  6
CONTINUOUS
 10
15.8045903733
 20
11.6593223003
 11
15.8191002135
 21
11.6375575503
  0
LINE
  5
484
100
AcDbEntity
  8
03__ASM_ALL_CURVES
100
AcDbLine
 62
4
  6
CONTINUOUS
 10
15.7610608733
 20
11.7681460503
 11
15.7465510434
 21
11.7899108003
  0
LINE
  5
485
100
AcDbEntity
  8
03__ASM_ALL_CURVES
100
AcDbLine
 62
4
  6
CONTINUOUS
 10
15.9061592097
 20
11.6593223003
 11
15.9206690434
 21
11.6375575503
  0
LINE
  5
486
100
AcDbEntity
  8
03__ASM_ALL_CURVES
100
AcDbLine
 62
4
  6
CONTINUOUS
 10
15.8191002135
 20
11.8334403003
 11
15.8481198785
 21
11.7899108003
  0
LINE
  5
487
100
AcDbEntity
  8
03__ASM_ALL_CURVES
100
AcDbLine
 62
4
  6
CONTINUOUS
 10
15.8336100434
 20
11.0716740503
 11
15.8191002135
 21
11.1043211753
  0
LINE
  5
488
100
AcDbEntity
  8
03__ASM_ALL_CURVES
100
AcDbLine
 62
4
  6
CONTINUOUS
 10
15.7610608733
 20
12.6387360503
 11
15.7755707135
 21
12.6278536753
  0
LINE
  5
489
100
AcDbEntity
  8
03__ASM_ALL_CURVES
100
AcDbLine
 62
4
  6
CONTINUOUS
 10
15.8916493759
 20
12.7149126753
 11
15.9061592097
 21
12.7040303003
  0
LINE
  5
48A
100
AcDbEntity
  8
03__ASM_ALL_CURVES
100
AcDbLine
 62
4
  6
CONTINUOUS
 10
15.8916493759
 20
12.8563835503
 11
15.9206690434
 21
12.8346188003
  0
LINE
  5
48B
100
AcDbEntity
  8
03__ASM_ALL_CURVES
100
AcDbLine
 62
4
  6
CONTINUOUS
 10
16.1311002135
 20
11.7681460503
 11
16.1165903733
 21
11.7899108003
  0
LINE
  5
48C
100
AcDbEntity
  8
03__ASM_ALL_CURVES
100
AcDbLine
 62
4
  6
CONTINUOUS
 10
16.2181592097
 20
11.8334403003
 11
16.2326690434
 21
11.8116755503
  0
LINE
  5
48D
100
AcDbEntity
  8
03__ASM_ALL_CURVES
100
AcDbLine
 62
4
  6
CONTINUOUS
 10
15.7465510434
 20
12.6605008003
 11
15.7610608733
 21
12.6387360503
  0
LINE
  5
48E
100
AcDbEntity
  8
03__ASM_ALL_CURVES
100
AcDbLine
 62
4
  6
CONTINUOUS
 10
15.9061592097
 20
12.7040303003
 11
15.9206690434
 21
12.6822655503
  0
CIRCLE
  5
48F
100
AcDbEntity
  8
0
100
AcDbCircle
 62
7
  6
CONTINUOUS
 10
10.5516100615
 20
4.9727282764
 40
0.261
  0
CIRCLE
  5
490
100
AcDbEntity
  8
0
100
AcDbCircle
 62
7
  6
CONTINUOUS
 10
10.5516100615
 20
4.9727282764
 40
0.234
  0
CIRCLE
  5
491
100
AcDbEntity
  8
0
100
AcDbCircle
 62
7
  6
CONTINUOUS
 10
11.3956100434
 20
6.5037281753
 40
0.9375
  0
ARC
  5
492
100
AcDbEntity
  8
0
100
AcDbCircle
 62
7
  6
CONTINUOUS
 10
11.1706100434
 20
5.7632281753
 40
0.043
100
AcDbArc
 50
31.550899554
 51
148.449100446
  0
CIRCLE
  5
493
100
AcDbEntity
  8
0
100
AcDbCircle
 62
7
  6
CONTINUOUS
 10
10.5516100615
 20
8.0347281934
 40
0.261
  0
CIRCLE
  5
494
100
AcDbEntity
  8
0
100
AcDbCircle
 62
7
  6
CONTINUOUS
 10
10.5516100615
 20
8.0347281934
 40
0.234
  0
ARC
  5
495
100
AcDbEntity
  8
0
100
AcDbCircle
 62
7
  6
CONTINUOUS
 10
11.1706100434
 20
7.2442281753
 40
0.043
100
AcDbArc
 50
211.550899554
 51
328.449100446
  0
CIRCLE
  5
496
100
AcDbEntity
  8
0
100
AcDbCircle
 62
7
  6
CONTINUOUS
 10
12.2396101445
 20
4.9727282764
 40
0.261
  0
CIRCLE
  5
497
100
AcDbEntity
  8
0
100
AcDbCircle
 62
7
  6
CONTINUOUS
 10
12.2396101445
 20
4.9727282764
 40
0.234
  0
CIRCLE
  5
498
100
AcDbEntity
  8
0
100
AcDbCircle
 62
7
  6
CONTINUOUS
 10
12.2396101445
 20
8.0347281934
 40
0.261
  0
CIRCLE
  5
499
100
AcDbEntity
  8
0
100
AcDbCircle
 62
7
  6
CONTINUOUS
 10
12.2396101445
 20
8.0347281934
 40
0.234
  0
SPLINE
  5
49A
100
AcDbEntity
  8
0
100
AcDbSpline
 62
7
  6
CONTINUOUS
 70
0
 71
3
 72
8
 73
4
 74
2
 42
0.0000001
 43
0.0000001
 44
0.0000000001
 12
0.0066887212
 22
-0.0000335305
 32
0.0
 13
0.006688721
 23
-0.0000335935
 33
0.0
 40
0.0
 40
0.0
 40
0.0
 40
0.0
 40
1.0
 40
1.0
 40
1.0
 40
1.0
 10
11.165597024
 20
7.4116819623
 30
0.0
 10
11.1678265977
 20
7.4116707855
 30
0.0
 10
11.1700561714
 20
7.4116595919
 30
0.0
 10
11.1722857451
 20
7.4116483941
 30
0.0
 11
11.165597024
 21
7.4116819623
 31
0.0
 11
11.1722857451
 21
7.4116483941
 31
0.0
  0
SPLINE
  5
49B
100
AcDbEntity
  8
0
100
AcDbSpline
 62
7
  6
CONTINUOUS
 70
0
 71
3
 72
11
 73
7
 74
5
 42
0.0000001
 43
0.0000001
 44
0.0000000001
 12
0.4466456578
 22
-0.0022432378
 32
0.0
 13
0.4466456578
 23
0.0022432376
 33
0.0
 40
0.0
 40
0.0
 40
0.0
 40
0.0
 40
0.2379423946
 40
0.4999906617
 40
0.7620489892
 40
1.0
 40
1.0
 40
1.0
 40
1.0
 10
11.1722857451
 20
7.4116483941
 30
0.0
 10
11.2077110575
 20
7.4114704736
 30
0.0
 10
11.2821506124
 20
7.4110943296
 30
0.0
 10
11.3956073694
 20
7.4108487178
 30
0.0
 10
11.5090654094
 20
7.4110943092
 30
0.0
 10
11.5835077449
 20
7.4114704672
 30
0.0
 10
11.6189343401
 20
7.4116483941
 30
0.0
 11
11.1722857451
 21
7.4116483941
 31
0.0
 11
11.2785619019
 21
7.4111611554
 31
0.0
 11
11.3956058716
 21
7.4109331748
 31
0.0
 11
11.5126543348
 21
7.4111611412
 31
0.0
 11
11.6189343401
 21
7.4116483941
 31
0.0
  0
SPLINE
  5
49C
100
AcDbEntity
  8
0
100
AcDbSpline
 62
7
  6
CONTINUOUS
 70
0
 71
3
 72
8
 73
4
 74
2
 42
0.0000001
 43
0.0000001
 44
0.0000000001
 12
0.0066887222
 22
0.0000335935
 32
0.0
 13
0.0066887224
 23
0.0000335305
 33
0.0
 40
0.0
 40
0.0
 40
0.0
 40
0.0
 40
1.0
 40
1.0
 40
1.0
 40
1.0
 10
11.6189343401
 20
7.4116483941
 30
0.0
 10
11.6211639142
 20
7.4116595919
 30
0.0
 10
11.6233934883
 20
7.4116707855
 30
0.0
 10
11.6256230624
 20
7.4116819623
 30
0.0
 11
11.6189343401
 21
7.4116483941
 31
0.0
 11
11.6256230624
 21
7.4116819623
 31
0.0
  0
SPLINE
  5
49D
100
AcDbEntity
  8
0
100
AcDbSpline
 62
7
  6
CONTINUOUS
 70
0
 71
3
 72
8
 73
4
 74
2
 42
0.0000001
 43
0.0000001
 44
0.0000000001
 12
-0.0066887212
 22
0.0000335305
 32
0.0
 13
-0.006688721
 23
0.0000335935
 33
0.0
 40
0.0
 40
0.0
 40
0.0
 40
0.0
 40
1.0
 40
1.0
 40
1.0
 40
1.0
 10
11.6256230628
 20
5.5957743882
 30
0.0
 10
11.6233934891
 20
5.5957855651
 30
0.0
 10
11.6211639154
 20
5.5957967586
 30
0.0
 10
11.6189343417
 20
5.5958079565
 30
0.0
 11
11.6256230628
 21
5.5957743882
 31
0.0
 11
11.6189343417
 21
5.5958079565
 31
0.0
  0
SPLINE
  5
49E
100
AcDbEntity
  8
0
100
AcDbSpline
 62
7
  6
CONTINUOUS
 70
0
 71
3
 72
8
 73
4
 74
2
 42
0.0000001
 43
0.0000001
 44
0.0000000001
 12
-0.0122984652
 22
0.0000617679
 32
0.0
 13
-0.0122984663
 23
0.0000616236
 33
0.0
 40
0.0
 40
0.0
 40
0.0
 40
0.0
 40
1.0
 40
1.0
 40
1.0
 40
1.0
 10
11.6189343417
 20
5.5958079565
 30
0.0
 10
11.6148348533
 20
5.5958285458
 30
0.0
 10
11.6107353649
 20
5.5958491496
 30
0.0
 10
11.6066358762
 20
5.5958696908
 30
0.0
 11
11.6189343417
 21
5.5958079565
 31
0.0
 11
11.6066358762
 21
5.5958696908
 31
0.0
  0
SPLINE
  5
49F
100
AcDbEntity
  8
0
100
AcDbSpline
 62
7
  6
CONTINUOUS
 70
0
 71
3
 72
11
 73
7
 74
5
 42
0.0000001
 43
0.0000001
 44
0.0000000001
 12
-0.4220481285
 22
0.0021147467
 32
0.0
 13
-0.4220481285
 23
-0.0021147457
 33
0.0
 40
0.0
 40
0.0
 40
0.0
 40
0.0
 40
0.2226700562
 40
0.4999908713
 40
0.7773223331
 40
1.0
 40
1.0
 40
1.0
 40
1.0
 10
11.6066358762
 20
5.5958696908
 30
0.0
 10
11.5753100494
 20
5.5960266544
 30
0.0
 10
11.5049699331
 20
5.5963708956
 30
0.0
 10
11.3956127174
 20
5.5966076328
 30
0.0
 10
11.286254431
 20
5.5963709157
 30
0.0
 10
11.2159117462
 20
5.5960266629
 30
0.0
 10
11.1845848486
 20
5.595869694
 30
0.0
 11
11.6066358762
 21
5.5958696908
 31
0.0
 11
11.5126581849
 21
5.5962951951
 31
0.0
 11
11.3956142152
 21
5.5965231758
 31
0.0
 11
11.278565752
 21
5.5962952093
 31
0.0
 11
11.1845848486
 21
5.595869694
 31
0.0
  0
SPLINE
  5
4A0
100
AcDbEntity
  8
0
100
AcDbSpline
 62
7
  6
CONTINUOUS
 70
0
 71
3
 72
8
 73
4
 74
2
 42
0.0000001
 43
0.0000001
 44
0.0000000001
 12
-0.0122991026
 22
-0.0000616268
 32
0.0
 13
-0.0122991015
 23
-0.0000617711
 33
0.0
 40
0.0
 40
0.0
 40
0.0
 40
0.0
 40
1.0
 40
1.0
 40
1.0
 40
1.0
 10
11.1845848486
 20
5.595869694
 30
0.0
 10
11.1804851478
 20
5.5958491517
 30
0.0
 10
11.1763854472
 20
5.5958285468
 30
0.0
 10
11.1722857467
 20
5.5958079565
 30
0.0
 11
11.1845848486
 21
5.595869694
 31
0.0
 11
11.1722857467
 21
5.5958079565
 31
0.0
  0
SPLINE
  5
4A1
100
AcDbEntity
  8
0
100
AcDbSpline
 62
7
  6
CONTINUOUS
 70
0
 71
3
 72
8
 73
4
 74
2
 42
0.0000001
 43
0.0000001
 44
0.0000000001
 12
-0.0066887222
 22
-0.0000335935
 32
0.0
 13
-0.0066887224
 23
-0.0000335305
 33
0.0
 40
0.0
 40
0.0
 40
0.0
 40
0.0
 40
1.0
 40
1.0
 40
1.0
 40
1.0
 10
11.1722857467
 20
5.5958079565
 30
0.0
 10
11.1700561727
 20
5.5957967586
 30
0.0
 10
11.1678265986
 20
5.5957855651
 30
0.0
 10
11.1655970245
 20
5.5957743882
 30
0.0
 11
11.1722857467
 21
5.5958079565
 31
0.0
 11
11.1655970245
 21
5.5957743882
 31
0.0
  0
SPLINE
  5
4A2
100
AcDbEntity
  8
0
100
AcDbSpline
 62
7
  6
CONTINUOUS
 70
0
 71
3
 72
8
 73
4
 74
2
 42
0.0000001
 43
0.0000001
 44
0.0000000001
 12
0.0066770882
 22
-0.0000334869
 32
0.0
 13
0.0066770878
 23
-0.0000335734
 33
0.0
 40
0.0
 40
0.0
 40
0.0
 40
0.0
 40
1.0
 40
1.0
 40
1.0
 40
1.0
 10
11.165592706
 20
7.4116819801
 30
0.0
 10
11.1678184021
 20
7.4116708178
 30
0.0
 10
11.1700440981
 20
7.4116596343
 30
0.0
 10
11.172269794
 20
7.4116484432
 30
0.0
 11
11.165592706
 21
7.4116819801
 31
0.0
 11
11.172269794
 21
7.4116484432
 31
0.0
  0
SPLINE
  5
4A3
100
AcDbEntity
  8
0
100
AcDbSpline
 62
7
  6
CONTINUOUS
 70
0
 71
3
 72
14
 73
10
 74
8
 42
0.0000001
 43
0.0000001
 44
0.0000000001
 12
0.4466776331
 22
-0.0022459603
 32
0.0
 13
0.4466776331
 23
0.0022459603
 33
0.0
 40
0.0
 40
0.0
 40
0.0
 40
0.0
 40
0.1284756174
 40
0.2777747319
 40
0.4260496928
 40
0.5739502379
 40
0.7222252278
 40
0.871524372
 40
1.0
 40
1.0
 40
1.0
 40
1.0
 10
11.172269794
 20
7.4116484432
 30
0.0
 10
11.1913988556
 20
7.4115522595
 30
0.0
 10
11.232757436
 20
7.4113430789
 30
0.0
 10
11.296193335
 20
7.4110796239
 30
0.0
 10
11.3625218982
 20
7.410926928
 30
0.0
 10
11.428698162
 20
7.410926928
 30
0.0
 10
11.4950267339
 20
7.4110796238
 30
0.0
 10
11.5584626432
 20
7.4113430788
 30
0.0
 10
11.5998212297
 20
7.4115522595
 30
0.0
 10
11.6189502928
 20
7.4116484432
 30
0.0
 11
11.172269794
 21
7.4116484432
 31
0.0
 11
11.2296570129
 21
7.4113667639
 31
0.0
 11
11.2963458959
 21
7.4110996345
 31
0.0
 11
11.3625776777
 21
7.410952244
 31
0.0
 11
11.4286423782
 21
7.410952244
 31
0.0
 11
11.4948741729
 21
7.4110996344
 31
0.0
 11
11.5615630692
 21
7.4113667638
 31
0.0
 11
11.6189502928
 21
7.4116484432
 31
0.0
  0
SPLINE
  5
4A4
100
AcDbEntity
  8
0
100
AcDbSpline
 62
7
  6
CONTINUOUS
 70
0
 71
3
 72
8
 73
4
 74
2
 42
0.0000001
 43
0.0000001
 44
0.0000000001
 12
0.0066770878
 22
0.0000335734
 32
0.0
 13
0.0066770882
 23
0.0000334869
 33
0.0
 40
0.0
 40
0.0
 40
0.0
 40
0.0
 40
1.0
 40
1.0
 40
1.0
 40
1.0
 10
11.6189502928
 20
7.4116484432
 30
0.0
 10
11.6211759887
 20
7.4116596343
 30
0.0
 10
11.6234016847
 20
7.4116708178
 30
0.0
 10
11.6256273808
 20
7.4116819801
 30
0.0
 11
11.6189502928
 21
7.4116484432
 31
0.0
 11
11.6256273808
 21
7.4116819801
 31
0.0
  0
SPLINE
  5
4A5
100
AcDbEntity
  8
0
100
AcDbSpline
 62
7
  6
CONTINUOUS
 70
0
 71
3
 72
8
 73
4
 74
2
 42
0.0000001
 43
0.0000001
 44
0.0000000001
 12
-0.0066770882
 22
0.0000334869
 32
0.0
 13
-0.0066770878
 23
0.0000335734
 33
0.0
 40
0.0
 40
0.0
 40
0.0
 40
0.0
 40
1.0
 40
1.0
 40
1.0
 40
1.0
 10
11.6256273808
 20
5.5957743705
 30
0.0
 10
11.6234016847
 20
5.5957855328
 30
0.0
 10
11.6211759887
 20
5.5957967162
 30
0.0
 10
11.6189502928
 20
5.5958079074
 30
0.0
 11
11.6256273808
 21
5.5957743705
 31
0.0
 11
11.6189502928
 21
5.5958079074
 31
0.0
  0
SPLINE
  5
4A6
100
AcDbEntity
  8
0
100
AcDbSpline
 62
7
  6
CONTINUOUS
 70
0
 71
3
 72
14
 73
10
 74
8
 42
0.0000001
 43
0.0000001
 44
0.0000000001
 12
-0.4466776331
 22
0.0022459603
 32
0.0
 13
-0.4466776331
 23
-0.0022459603
 33
0.0
 40
0.0
 40
0.0
 40
0.0
 40
0.0
 40
0.1284756174
 40
0.2777747319
 40
0.4260496928
 40
0.5739502379
 40
0.7222252278
 40
0.871524372
 40
1.0
 40
1.0
 40
1.0
 40
1.0
 10
11.6189502928
 20
5.5958079074
 30
0.0
 10
11.5998212313
 20
5.5959040911
 30
0.0
 10
11.5584626508
 20
5.5961132717
 30
0.0
 10
11.4950267518
 20
5.5963767267
 30
0.0
 10
11.4286981887
 20
5.5965294225
 30
0.0
 10
11.3625219248
 20
5.5965294225
 30
0.0
 10
11.2961933529
 20
5.5963767268
 30
0.0
 10
11.2327574436
 20
5.5961132717
 30
0.0
 10
11.1913988572
 20
5.5959040911
 30
0.0
 10
11.172269794
 20
5.5958079074
 30
0.0
 11
11.6189502928
 21
5.5958079074
 31
0.0
 11
11.561563074
 21
5.5960895867
 31
0.0
 11
11.4948741909
 21
5.5963567161
 31
0.0
 11
11.4286424092
 21
5.5965041065
 31
0.0
 11
11.3625777086
 21
5.5965041066
 31
0.0
 11
11.2963459139
 21
5.5963567161
 31
0.0
 11
11.2296570176
 21
5.5960895867
 31
0.0
 11
11.172269794
 21
5.5958079074
 31
0.0
  0
SPLINE
  5
4A7
100
AcDbEntity
  8
0
100
AcDbSpline
 62
7
  6
CONTINUOUS
 70
0
 71
3
 72
8
 73
4
 74
2
 42
0.0000001
 43
0.0000001
 44
0.0000000001
 12
-0.0066770878
 22
-0.0000335734
 32
0.0
 13
-0.0066770882
 23
-0.0000334869
 33
0.0
 40
0.0
 40
0.0
 40
0.0
 40
0.0
 40
1.0
 40
1.0
 40
1.0
 40
1.0
 10
11.172269794
 20
5.5958079074
 30
0.0
 10
11.1700440981
 20
5.5957967162
 30
0.0
 10
11.1678184021
 20
5.5957855328
 30
0.0
 10
11.165592706
 20
5.5957743705
 30
0.0
 11
11.172269794
 21
5.5958079074
 31
0.0
 11
11.165592706
 21
5.5957743705
 31
0.0
  0
SPLINE
  5
4A8
100
AcDbEntity
  8
0
100
AcDbSpline
 62
7
  6
CONTINUOUS
 70
0
 71
3
 72
20
 73
16
 74
14
 42
0.0000001
 43
0.0000001
 44
0.0000000001
 12
-0.2328583626
 22
0.7362081382
 32
0.0
 13
0.2328583626
 23
0.7362081382
 33
0.0
 40
0.0
 40
0.0
 40
0.0
 40
0.0
 40
0.0818565078
 40
0.1607437551
 40
0.2376228415
 40
0.3132570177
 40
0.3881797478
 40
0.4627595336
 40
0.5372404673
 40
0.611820253
 40
0.6867429831
 40
0.7623771592
 40
0.8392562455
 40
0.9181434922
 40
1.0
 40
1.0
 40
1.0
 40
1.0
 10
8.5875826746
 20
6.530740099
 30
0.0
 10
8.5812290172
 20
6.5508279081
 30
0.0
 10
8.5694484443
 20
6.5905004627
 30
0.0
 10
8.5543826787
 20
6.6497940269
 30
0.0
 10
8.5422380147
 20
6.70812281
 30
0.0
 10
8.5330201501
 20
6.7659548085
 30
0.0
 10
8.5267980641
 20
6.8235928999
 30
0.0
 10
8.5236582237
 20
6.8811854363
 30
0.0
 10
8.5236582237
 20
6.9387759488
 30
0.0
 10
8.5267980641
 20
6.9963684852
 30
0.0
 10
8.5330201502
 20
7.0540065765
 30
0.0
 10
8.5422380148
 20
7.1118385749
 30
0.0
 10
8.5543826788
 20
7.1701673578
 30
0.0
 10
8.5694484444
 20
7.2294609218
 30
0.0
 10
8.5812290172
 20
7.2691334763
 30
0.0
 10
8.5875826746
 20
7.2892212853
 30
0.0
 11
8.5875826746
 21
6.530740099
 31
0.0
 11
8.5696429199
 21
6.5913467532
 31
0.0
 11
8.5546915828
 21
6.6503966164
 31
0.0
 11
8.5426359278
 21
6.7085222425
 31
0.0
 11
8.5334811787
 21
6.7662016604
 31
0.0
 11
8.5272999332
 21
6.8237225551
 31
0.0
 11
8.5241799211
 21
6.8812252293
 31
0.0
 11
8.5241799211
 21
6.9387361557
 31
0.0
 11
8.5272999333
 21
6.9962388299
 31
0.0
 11
8.5334811788
 21
7.0537597246
 31
0.0
 11
8.5426359279
 21
7.1114391425
 31
0.0
 11
8.5546915829
 21
7.1695647684
 31
0.0
 11
8.5696429199
 21
7.2286146312
 31
0.0
 11
8.5875826746
 21
7.2892212853
 31
0.0
  0
SPLINE
  5
4A9
100
AcDbEntity
  8
0
100
AcDbSpline
 62
7
  6
CONTINUOUS
 70
0
 71
3
 72
20
 73
16
 74
14
 42
0.0000001
 43
0.0000001
 44
0.0000000001
 12
-0.2328583626
 22
0.7362081382
 32
0.0
 13
0.2328583626
 23
0.7362081382
 33
0.0
 40
0.0
 40
0.0
 40
0.0
 40
0.0
 40
0.0818565078
 40
0.1607437551
 40
0.2376228415
 40
0.3132570177
 40
0.3881797478
 40
0.4627595336
 40
0.5372404673
 40
0.611820253
 40
0.6867429831
 40
0.7623771592
 40
0.8392562455
 40
0.9181434922
 40
1.0
 40
1.0
 40
1.0
 40
1.0
 10
8.5875826746
 20
5.7182350652
 30
0.0
 10
8.5812290172
 20
5.7383228743
 30
0.0
 10
8.5694484443
 20
5.7779954289
 30
0.0
 10
8.5543826787
 20
5.8372889931
 30
0.0
 10
8.5422380147
 20
5.8956177762
 30
0.0
 10
8.5330201501
 20
5.9534497747
 30
0.0
 10
8.5267980641
 20
6.011087866
 30
0.0
 10
8.5236582237
 20
6.0686804024
 30
0.0
 10
8.5236582237
 20
6.1262709149
 30
0.0
 10
8.5267980641
 20
6.1838634513
 30
0.0
 10
8.5330201502
 20
6.2415015427
 30
0.0
 10
8.5422380148
 20
6.2993335411
 30
0.0
 10
8.5543826788
 20
6.3576623239
 30
0.0
 10
8.5694484444
 20
6.416955888
 30
0.0
 10
8.5812290172
 20
6.4566284424
 30
0.0
 10
8.5875826746
 20
6.4767162515
 30
0.0
 11
8.5875826746
 21
5.7182350652
 31
0.0
 11
8.5696429199
 21
5.7788417193
 31
0.0
 11
8.5546915828
 21
5.8378915826
 31
0.0
 11
8.5426359278
 21
5.8960172087
 31
0.0
 11
8.5334811787
 21
5.9536966266
 31
0.0
 11
8.5272999332
 21
6.0112175213
 31
0.0
 11
8.5241799211
 21
6.0687201955
 31
0.0
 11
8.5241799211
 21
6.1262311219
 31
0.0
 11
8.5272999333
 21
6.1837337961
 31
0.0
 11
8.5334811788
 21
6.2412546907
 31
0.0
 11
8.5426359279
 21
6.2989341086
 31
0.0
 11
8.5546915829
 21
6.3570597345
 31
0.0
 11
8.5696429199
 21
6.4161095974
 31
0.0
 11
8.5875826746
 21
6.4767162515
 31
0.0
  0
ENDSEC
  0
SECTION
  2
OBJECTS
  0
DICTIONARY
  5
C
100
AcDbDictionary
280
0
281
1
  3
ACAD_GROUP
350
D
  3
ACAD_MLINESTYLE
350
17
  3
ACAD_LAYOUT
350
1A
  3
ACAD_PLOTSETTINGS
350
19
  3
ACAD_PLOTSTYLENAME
350
E
  0
DICTIONARY
  5
D
102
{ACAD_REACTORS
330
C
102
}
100
AcDbDictionary
280
0
281
1
  0
ACDBDICTIONARYWDFLT
  5
E
102
{ACAD_REACTORS
330
C
102
}
100
AcDbDictionary
281
1
  3
Normal
350
F
100
AcDbDictionaryWithDefault
340
F
  0
DICTIONARY
  5
17
102
{ACAD_REACTORS
330
C
102
}
100
AcDbDictionary
280
0
281
1
  3
Standard
350
18
  0
DICTIONARY
  5
19
102
{ACAD_REACTORS
330
C
102
}
100
AcDbDictionary
281
1
  0
DICTIONARY
  5
1A
102
{ACAD_REACTORS
330
C
102
}
100
AcDbDictionary
281
1
  3
Layout1
350
1E
  3
Model
350
22
  0
ACDBPLACEHOLDER
  5
F
102
{ACAD_REACTORS
330
E
102
}
  0
MLINESTYLE
  5
18
102
{ACAD_REACTORS
330
17
102
}
100
AcDbMlineStyle
  2
STANDARD
 70
0
  3

 62
256
 51
90.0
 52
90.0
 71
2
 49
0.5
 62
256
  6
BYLAYER
 49
-0.5
 62
256
  6
BYLAYER
  0
LAYOUT
  5
1E
102
{ACAD_REACTORS
330
1A
102
}
100
AcDbPlotSettings
  1

  2

  4

  6

 40
0.0
 41
0.0
 42
0.0
 43
0.0
 44
0.0
 45
0.0
 46
0.0
 47
0.0
 48
0.0
 49
0.0
140
0.0
141
0.0
142
1.0
143
1.0
 70
0
 72
0
 73
0
 74
0
  7

 75
0
147
1.0
148
0.0
149
0.0
100
AcDbLayout
  1
Layout1
 70
0
 71
0
 10
0.0
 20
0.0
 11
0.0
 21
0.0
 12
0.0
 22
0.0
 32
0.0
 14
0.0
 24
0.0
 34
0.0
 15
0.0
 25
0.0
 35
0.0
146
0.0
 13
0.0
 23
0.0
 33
0.0
 16
0.0
 26
0.0
 36
0.0
 17
0.0
 27
0.0
 37
0.0
 76
0
330
1B
331
0
345
0
346
0
  0
LAYOUT
  5
22
102
{ACAD_REACTORS
330
1A
102
}
100
AcDbPlotSettings
  1

  2

  4

  6

 40
0.0
 41
0.0
 42
0.0
 43
0.0
 44
0.0
 45
0.0
 46
0.0
 47
0.0
 48
0.0
 49
0.0
140
0.0
141
0.0
142
1.0
143
1.0
 70
0
 72
0
 73
0
 74
0
  7

 75
0
147
1.0
148
0.0
149
0.0
100
AcDbLayout
  1
Model
 70
0
 71
0
 10
0.0
 20
0.0
 11
0.0
 21
0.0
 12
0.0
 22
0.0
 32
0.0
 14
0.0
 24
0.0
 34
0.0
 15
0.0
 25
0.0
 35
0.0
146
0.0
 13
0.0
 23
0.0
 33
0.0
 16
0.0
 26
0.0
 36
0.0
 17
0.0
 27
0.0
 37
0.0
 76
0
330
1F
331
0
345
0
346
0
  0
ENDSEC
  0
EOF
