999
DXF file: LNN_assy_2.dxf
999
Pro/ENGINEER 2014200 by Parametric Technology Corporation
  0
SECTION
  2
HEADER
  9
$ACADVER
  1
AC1021
  9
$DWGCODEPAGE
  3
ANSI_1252
  9
$EXTMAX
 10
22.0
 20
17.0
 30
0.0
  9
$EXTMIN
 10
0.0
 20
0.0
 30
0.0
  9
$LIMMIN
 10
0.0
 20
0.0
  9
$LIMMAX
 10
22.0
 20
17.0
  9
$VIEWCTR
 10
11.0
 20
8.5
  9
$VIEWSIZE
 40
17.0
  9
$CLAYER
  8
0
  9
$LTSCALE
 40
1.21
  9
$CELTYPE
  6
BYLAYER
  9
$DIMSCALE
 40
1.0
  9
$DIMASZ
 40
0.1875
  9
$DIMEXO
 40
0.0625
  9
$DIMDLI
 40
0.836
  9
$DIMEXE
 40
0.125
  9
$DIMCEN
 40
0.198
  9
$DIMLFAC
 40
1.0
  9
$DIMBLK
  1
_FILLED
  9
$DIMTXT
 40
0.1
  9
$DIMTOL
 70
0
  9
$DIMLIM
 70
0
  9
$DIMTFAC
 40
1.0
  9
$DIMGAP
 40
0.09
  9
$DIMDSEP
 70
46
  9
$AUNITS
 70
0
  9
$PDMODE
 70
3
  9
$PDSIZE
 40
0.3125
  9
$HANDSEED
  5
380
  9
$TILEMODE
 70
1
  9
$MEASUREMENT
 70
0
  9
$INSUNITS
 70
1
  0
ENDSEC
  0
SECTION
  2
CLASSES
  0
CLASS
  1
ACDBDICTIONARYWDFLT
  2
AcDbDictionaryWithDefault
  3
AutoCAD 2000
 90
0
 91
1
280
0
281
0
  0
CLASS
  1
ACDBPLACEHOLDER
  2
AcDbPlaceHolder
  3
AutoCAD 2000
 90
0
 91
1
280
0
281
0
  0
CLASS
  1
LAYOUT
  2
AcDbLayout
  3
AutoCAD 2000
 90
0
 91
0
280
0
281
0
  0
CLASS
  1
RASTERVARIABLES
  2
AcDbRasterVariables
  3
ISM
 90
0
 91
1
280
0
281
0
  0
CLASS
  1
IMAGEDEF
  2
AcDbRasterImageDef
  3
ISM
 90
0
 91
1
280
0
281
0
  0
CLASS
  1
IMAGEDEF_REACTOR
  2
AcDbRasterImageDefReactor
  3
ISM
 90
0
 91
1
280
0
281
0
  0
CLASS
  1
IMAGE
  2
AcDbRasterImage
  3
ISM
 90
127
 91
1
280
0
281
1
  0
CLASS
  1
TABLESTYLE
  2
AcDbTableStyle
  3
ObjectDBX Classes
 90
2047
 91
1
280
0
281
0
  0
CLASS
  1
ACAD_TABLE
  2
AcDbTable
  3
ObjectDBX Classes
 90
1025
 91
3
280
0
281
1
  0
ENDSEC
  0
SECTION
  2
TABLES
  0
TABLE
  2
VPORT
  5
8
100
AcDbSymbolTable
 70
2
  0
VPORT
  5
1F4
100
AcDbSymbolTableRecord
100
AcDbViewportTableRecord
  2
*ACTIVE
 70
0
 10
0.0
 20
0.0
 11
1.0
 21
1.0
 12
11.0
 22
8.5
 13
0.0
 23
0.0
 14
1.0
 24
1.0
 15
0.0
 25
0.0
 16
0.0
 26
0.0
 36
1.0
 17
0.0
 27
0.0
 37
0.0
 40
17.0
 41
1.2941176471
 42
50.0
 43
0.0
 44
0.0
 50
0.0
 51
0.0
 71
0
 72
100
 73
1
 74
1
 75
0
 76
0
 77
0
 78
0
  0
ENDTAB
  0
TABLE
  2
LTYPE
  5
5
100
AcDbSymbolTable
 70
6
  0
LTYPE
  5
14
100
AcDbSymbolTableRecord
100
AcDbLinetypeTableRecord
  2
BYBLOCK
 70
0
  3

 72
65
 73
0
 40
0.0
  0
LTYPE
  5
15
100
AcDbSymbolTableRecord
100
AcDbLinetypeTableRecord
  2
BYLAYER
 70
0
  3

 72
65
 73
0
 40
0.0
  0
LTYPE
  5
16
100
AcDbSymbolTableRecord
100
AcDbLinetypeTableRecord
  2
CONTINUOUS
 70
64
  3
Solid line
 72
65
 73
0
 40
0.0
  0
LTYPE
  5
1F5
100
AcDbSymbolTableRecord
100
AcDbLinetypeTableRecord
  2
CENTER
 70
64
  3
____ _ ____ _ ____ _ ____ _ ____ _ ____ _ ____
 72
65
 73
4
 40
0.6
 49
0.375
 74
0
 49
-0.075
 74
0
 49
0.075
 74
0
 49
-0.075
 74
0
  0
LTYPE
  5
1F6
100
AcDbSymbolTableRecord
100
AcDbLinetypeTableRecord
  2
HIDDEN
 70
64
  3
- - - - - - - - - - - - - - - - - - - -
 72
65
 73
2
 40
0.2
 49
0.1
 74
0
 49
-0.1
 74
0
  0
LTYPE
  5
1F7
100
AcDbSymbolTableRecord
100
AcDbLinetypeTableRecord
  2
PHANTOM
 70
64
  3
_____ _ _ _____ _ _ _____ _ _ _____
 72
65
 73
6
 40
0.8
 49
0.45
 74
0
 49
-0.05
 74
0
 49
0.1
 74
0
 49
-0.05
 74
0
 49
0.1
 74
0
 49
-0.05
 74
0
  0
LTYPE
  5
1F8
100
AcDbSymbolTableRecord
100
AcDbLinetypeTableRecord
  2
DOT
 70
64
  3
. . . . . . . . . . . . . . . . . . . .
 72
65
 73
2
 40
0.2
 49
0.1
 74
0
 49
-0.1
 74
0
  0
LTYPE
  5
1F9
100
AcDbSymbolTableRecord
100
AcDbLinetypeTableRecord
  2
DASHED
 70
64
  3
- - - - - - - - - - - - - - - - - - - -
 72
65
 73
2
 40
0.2
 49
0.1
 74
0
 49
-0.1
 74
0
  0
ENDTAB
  0
TABLE
  2
LAYER
  5
2
100
AcDbSymbolTable
 70
36
  0
LAYER
  5
10
100
AcDbSymbolTableRecord
100
AcDbLayerTableRecord
  2
0
 70
0
 62
7
  6
CONTINUOUS
370
-3
390
F
  0
LAYER
  5
1FA
100
AcDbSymbolTableRecord
100
AcDbLayerTableRecord
  2
DEFAULT_1
 70
0
 62
7
  6
CENTER
370
-3
390
F
  0
LAYER
  5
1FB
100
AcDbSymbolTableRecord
100
AcDbLayerTableRecord
  2
DEFAULT_2
 70
0
 62
8
  6
HIDDEN
370
-3
390
F
  0
LAYER
  5
1FC
100
AcDbSymbolTableRecord
100
AcDbLayerTableRecord
  2
DEFAULT_3
 70
0
 62
7
  6
PHANTOM
370
-3
390
F
  0
LAYER
  5
1FD
100
AcDbSymbolTableRecord
100
AcDbLayerTableRecord
  2
01___PRT_ALL_DTM_PLN
 70
0
 62
7
  6
CONTINUOUS
370
-3
390
F
  0
LAYER
  5
1FE
100
AcDbSymbolTableRecord
100
AcDbLayerTableRecord
  2
01___PRT_DEF_DTM_PLN
 70
0
 62
7
  6
CONTINUOUS
370
-3
390
F
  0
LAYER
  5
1FF
100
AcDbSymbolTableRecord
100
AcDbLayerTableRecord
  2
02___PRT_ALL_AXES
 70
0
 62
7
  6
CONTINUOUS
370
-3
390
F
  0
LAYER
  5
200
100
AcDbSymbolTableRecord
100
AcDbLayerTableRecord
  2
03___PRT_ALL_CURVES
 70
0
 62
7
  6
CONTINUOUS
370
-3
390
F
  0
LAYER
  5
201
100
AcDbSymbolTableRecord
100
AcDbLayerTableRecord
  2
04___PRT_ALL_DTM_PNT
 70
0
 62
7
  6
CONTINUOUS
370
-3
390
F
  0
LAYER
  5
202
100
AcDbSymbolTableRecord
100
AcDbLayerTableRecord
  2
05___PRT_ALL_DTM_CSYS
 70
0
 62
7
  6
CONTINUOUS
370
-3
390
F
  0
LAYER
  5
203
100
AcDbSymbolTableRecord
100
AcDbLayerTableRecord
  2
05___PRT_DEF_DTM_CSYS
 70
0
 62
7
  6
CONTINUOUS
370
-3
390
F
  0
LAYER
  5
204
100
AcDbSymbolTableRecord
100
AcDbLayerTableRecord
  2
06___PRT_ALL_SURFS
 70
0
 62
7
  6
CONTINUOUS
370
-3
390
F
  0
LAYER
  5
205
100
AcDbSymbolTableRecord
100
AcDbLayerTableRecord
  2
DATUM_PLANES
 70
0
 62
7
  6
CONTINUOUS
370
-3
390
F
  0
LAYER
  5
206
100
AcDbSymbolTableRecord
100
AcDbLayerTableRecord
  2
PORT_AREAS
 70
0
 62
7
  6
CONTINUOUS
370
-3
390
F
  0
LAYER
  5
207
100
AcDbSymbolTableRecord
100
AcDbLayerTableRecord
  2
SUNNBOMCOSMETIC
 70
0
 62
7
  6
CONTINUOUS
370
-3
390
F
  0
LAYER
  5
208
100
AcDbSymbolTableRecord
100
AcDbLayerTableRecord
  2
SUNNBOMSTAMPING
 70
0
 62
7
  6
CONTINUOUS
370
-3
390
F
  0
LAYER
  5
209
100
AcDbSymbolTableRecord
100
AcDbLayerTableRecord
  2
THREADS
 70
0
 62
7
  6
CONTINUOUS
370
-3
390
F
  0
ENDTAB
  0
TABLE
  2
STYLE
  5
3
100
AcDbSymbolTable
 70
1
  0
STYLE
  5
11
100
AcDbSymbolTableRecord
100
AcDbTextStyleTableRecord
  2
STANDARD
 70
0
 40
0.0
 41
0.8
 50
0.0
 71
0
 42
0.2
  3
txt
  4

  0
STYLE
  5
20A
100
AcDbSymbolTableRecord
100
AcDbTextStyleTableRecord
  2
TEXTSTYLE_1
 70
0
 40
0.0
 41
0.8
 50
0.0
 71
0
 42
0.2
  3
gdt
  4

  0
ENDTAB
  0
TABLE
  2
VIEW
  5
6
100
AcDbSymbolTable
 70
0
  0
ENDTAB
  0
TABLE
  2
UCS
  5
7
100
AcDbSymbolTable
 70
0
  0
ENDTAB
  0
TABLE
  2
APPID
  5
9
100
AcDbSymbolTable
 70
1
  0
APPID
  5
20B
100
AcDbSymbolTableRecord
100
AcDbRegAppTableRecord
  2
ACAD
 70
0
  0
ENDTAB
  0
TABLE
  2
BLOCK_RECORD
  5
1
100
AcDbSymbolTable
 70
0
  0
BLOCK_RECORD
  5
20C
100
AcDbSymbolTableRecord
100
AcDbBlockTableRecord
  2
*Model_Space
  0
BLOCK_RECORD
  5
20D
100
AcDbSymbolTableRecord
100
AcDbBlockTableRecord
  2
*Paper_Space
  0
BLOCK_RECORD
  5
20E
100
AcDbSymbolTableRecord
100
AcDbBlockTableRecord
  2
SUN_FIRST_THIRD_ANGLE_BL0
  0
BLOCK_RECORD
  5
20F
100
AcDbSymbolTableRecord
100
AcDbBlockTableRecord
  2
*T1
  0
BLOCK_RECORD
  5
210
100
AcDbSymbolTableRecord
100
AcDbBlockTableRecord
  2
*T2
  0
BLOCK_RECORD
  5
211
100
AcDbSymbolTableRecord
100
AcDbBlockTableRecord
  2
*T3
  0
ENDTAB
  0
TABLE
  2
DIMSTYLE
  5
A
100
AcDbSymbolTable
 70
1
100
AcDbDimStyleTable
 71
0
  0
DIMSTYLE
105
212
100
AcDbSymbolTableRecord
100
AcDbDimStyleTableRecord
  2
STANDARD
 70
0
  3

  4

 40
1.0
 41
0.1875
 42
0.0625
 43
0.38
 44
0.125
 45
0.0
 46
0.0
 47
0.001
 48
0.001
140
0.1
141
0.09
142
0.0
143
25.4
144
1.0
145
0.0
146
1.0
147
0.09
 71
0.0
 72
0.0
 73
1
 74
1
 75
0
 76
0
 77
0
 78
4
170
0
171
2
172
0
173
0
174
0
175
0
176
0
177
0
178
0
270
2
271
3
272
3
273
2
274
2
275
0
280
0
281
0
282
0
283
1
284
4
285
0
286
0
287
3
288
0
340
11
278
46
  0
ENDTAB
  0
ENDSEC
  0
SECTION
  2
BLOCKS
  0
BLOCK
  5
20
100
AcDbEntity
  8
0
100
AcDbBlockBegin
  2
*Model_Space
 70
0
 10
0.0
 20
0.0
 30
0.0
  3
*Model_Space
  1

  0
ENDBLK
  5
21
100
AcDbEntity
  8
0
100
AcDbBlockEnd
  0
BLOCK
  5
1C
100
AcDbEntity
  8
0
100
AcDbBlockBegin
  2
*Paper_Space
 70
0
 10
0.0
 20
0.0
 30
0.0
  3
*Paper_Space
  1

  0
ENDBLK
  5
1D
100
AcDbEntity
  8
0
100
AcDbBlockEnd
  0
BLOCK
  5
213
100
AcDbEntity
  8
0
100
AcDbBlockBegin
 62
2
  6
CONTINUOUS
  2
SUN_FIRST_THIRD_ANGLE_BL0
 70
64
 10
20.4816717061
 20
1.2289683772
  3
SUN_FIRST_THIRD_ANGLE_BL0
  1

  0
TEXT
  5
214
100
AcDbEntity
  8
0
100
AcDbText
 62
2
  6
CONTINUOUS
 10
19.4750896608
 20
1.4136269581
  7
STANDARD
 40
0.08
  1
FIRST ANGLE
 41
0.8
 72
0
100
AcDbText
  0
TEXT
  5
215
100
AcDbEntity
  8
0
100
AcDbText
 62
2
  6
CONTINUOUS
 10
20.7842537513
 20
1.4047600029
  7
STANDARD
 40
0.08
  1
THIRD ANGLE
 41
0.8
 72
0
100
AcDbText
  0
LINE
  5
216
100
AcDbEntity
  8
0
100
AcDbLine
 62
7
  6
CONTINUOUS
 10
19.4767170086
 20
1.1727031207
 11
19.6334271527
 21
1.1717972817
  0
LINE
  5
217
100
AcDbEntity
  8
0
100
AcDbLine
 62
7
  6
CONTINUOUS
 10
19.6596964832
 20
1.1717972817
 11
19.6950230232
 21
1.171593082
  0
LINE
  5
218
100
AcDbEntity
  8
0
100
AcDbLine
 62
7
  6
CONTINUOUS
 10
19.7194818561
 20
1.1708914427
 11
19.8852396156
 21
1.1699333054
  0
LINE
  5
219
100
AcDbEntity
  8
0
100
AcDbLine
 62
7
  6
CONTINUOUS
 10
19.4758111696
 20
1.2723454088
 11
19.88525039
 21
1.3511534004
  0
LINE
  5
21A
100
AcDbEntity
  8
0
100
AcDbLine
 62
7
  6
CONTINUOUS
 10
19.88525039
 20
1.3511534004
 11
19.8831348489
 21
0.9851647912
  0
LINE
  5
21B
100
AcDbEntity
  8
0
100
AcDbLine
 62
7
  6
CONTINUOUS
 10
19.8831348489
 20
0.9851647912
 11
19.4767170086
 21
1.0658141206
  0
LINE
  5
21C
100
AcDbEntity
  8
0
100
AcDbLine
 62
7
  6
CONTINUOUS
 10
19.4767170086
 20
1.0658141206
 11
19.4779056764
 21
1.2714536432
  0
CIRCLE
  5
21D
100
AcDbEntity
  8
0
100
AcDbCircle
 62
7
  6
CONTINUOUS
 10
20.2068232291
 20
1.1717972817
 40
0.175742101
  0
CIRCLE
  5
21E
100
AcDbEntity
  8
0
100
AcDbCircle
 62
7
  6
CONTINUOUS
 10
20.2068232291
 20
1.1717972817
 40
0.1005522074
  0
LINE
  5
21F
100
AcDbEntity
  8
0
100
AcDbLine
 62
7
  6
CONTINUOUS
 10
20.2077290681
 20
1.3756110529
 11
20.2071171714
 21
1.2379342989
  0
LINE
  5
220
100
AcDbEntity
  8
0
100
AcDbLine
 62
7
  6
CONTINUOUS
 10
20.2077290681
 20
1.2016899681
 11
20.2074674401
 21
1.1428236749
  0
LINE
  5
221
100
AcDbEntity
  8
0
100
AcDbLine
 62
7
  6
CONTINUOUS
 10
20.208634907
 20
1.101141841
 11
20.2080230104
 21
0.963465087
  0
LINE
  5
222
100
AcDbEntity
  8
0
100
AcDbLine
 62
7
  6
CONTINUOUS
 10
20.0066328138
 20
1.1745147986
 11
20.1443095678
 21
1.1739029019
  0
LINE
  5
223
100
AcDbEntity
  8
0
100
AcDbLine
 62
7
  6
CONTINUOUS
 10
20.1832714155
 20
1.1727031207
 11
20.238153505
 21
1.172335442
  0
LINE
  5
224
100
AcDbEntity
  8
0
100
AcDbLine
 62
7
  6
CONTINUOUS
 10
20.2756669918
 20
1.1717972817
 11
20.407916871
 21
1.1712095044
  0
CIRCLE
  5
225
100
AcDbEntity
  8
0
100
AcDbCircle
 62
7
  6
CONTINUOUS
 10
20.7509457401
 20
1.1693297793
 40
0.1722024983
  0
CIRCLE
  5
226
100
AcDbEntity
  8
0
100
AcDbCircle
 62
7
  6
CONTINUOUS
 10
20.7509457401
 20
1.1693297793
 40
0.0985164967
  0
LINE
  5
227
100
AcDbEntity
  8
0
100
AcDbLine
 62
7
  6
CONTINUOUS
 10
20.7169767782
 20
1.170462078
 11
20.7825395137
 21
1.1682766535
  0
LINE
  5
228
100
AcDbEntity
  8
0
100
AcDbLine
 62
7
  6
CONTINUOUS
 10
20.8177513651
 20
1.1693297793
 11
20.947965719
 21
1.1693297793
  0
LINE
  5
229
100
AcDbEntity
  8
0
100
AcDbLine
 62
7
  6
CONTINUOUS
 10
20.6875370113
 20
1.170462078
 11
20.5573226574
 21
1.170462078
  0
LINE
  5
22A
100
AcDbEntity
  8
0
100
AcDbLine
 62
7
  6
CONTINUOUS
 10
20.7486811426
 20
1.1987695462
 11
20.7486811426
 21
1.1432869085
  0
LINE
  5
22B
100
AcDbEntity
  8
0
100
AcDbLine
 62
7
  6
CONTINUOUS
 10
20.7498134414
 20
1.1059210505
 11
20.7498134414
 21
0.9757066966
  0
LINE
  5
22C
100
AcDbEntity
  8
0
100
AcDbLine
 62
7
  6
CONTINUOUS
 10
20.7486811426
 20
1.2338708068
 11
20.7486811426
 21
1.3640851607
  0
LINE
  5
22D
100
AcDbEntity
  8
0
100
AcDbLine
 62
7
  6
CONTINUOUS
 10
21.0702539817
 20
1.2701043662
 11
21.4790138229
 21
1.3448360823
  0
LINE
  5
22E
100
AcDbEntity
  8
0
100
AcDbLine
 62
7
  6
CONTINUOUS
 10
21.4790138229
 20
1.3448360823
 11
21.4790138229
 21
0.9779712941
  0
LINE
  5
22F
100
AcDbEntity
  8
0
100
AcDbLine
 62
7
  6
CONTINUOUS
 10
21.4790138229
 20
0.9779712941
 11
21.069121683
 21
1.0617614
  0
LINE
  5
230
100
AcDbEntity
  8
0
100
AcDbLine
 62
7
  6
CONTINUOUS
 10
21.0702539817
 20
1.2701043662
 11
21.069121683
 21
1.0617614
  0
LINE
  5
231
100
AcDbEntity
  8
0
100
AcDbLine
 62
7
  6
CONTINUOUS
 10
21.4790138229
 20
1.1693297793
 11
21.3159628059
 21
1.1693297793
  0
LINE
  5
232
100
AcDbEntity
  8
0
100
AcDbLine
 62
7
  6
CONTINUOUS
 10
21.2876553377
 20
1.1693297793
 11
21.2502894796
 21
1.1693297793
  0
LINE
  5
233
100
AcDbEntity
  8
0
100
AcDbLine
 62
7
  6
CONTINUOUS
 10
21.2208497126
 20
1.1659328831
 11
21.0713862804
 21
1.1659328831
  0
LINE
  5
234
100
AcDbEntity
  8
0
100
AcDbLine
 62
7
  6
CONTINUOUS
 10
20.4796138713
 20
1.5284908897
 11
20.4766766948
 21
0.9294458646
  0
ENDBLK
  5
235
100
AcDbEntity
  8
0
  6
BYBLOCK
 62
0
100
AcDbBlockEnd
  0
BLOCK
  5
236
100
AcDbEntity
  8
0
100
AcDbBlockBegin
  2
*T1
 70
1
 10
0.0
 20
0.0
  3
*T1
  1

  0
LINE
  5
237
100
AcDbEntity
  8
0
100
AcDbLine
 62
2
  6
CONTINUOUS
 10
9.275
 20
0.0
 11
-0.0
 21
0.0
  0
LINE
  5
238
100
AcDbEntity
  8
0
100
AcDbLine
 62
2
  6
CONTINUOUS
 10
9.275
 20
0.0
 11
9.275
 21
1.25
  0
LINE
  5
239
100
AcDbEntity
  8
0
100
AcDbLine
 62
2
  6
CONTINUOUS
 10
9.275
 20
0.625
 11
-0.0
 21
0.625
  0
LINE
  5
23A
100
AcDbEntity
  8
0
100
AcDbLine
 62
2
  6
CONTINUOUS
 10
9.275
 20
1.25
 11
-0.0
 21
1.25
  0
LINE
  5
23B
100
AcDbEntity
  8
0
100
AcDbLine
 62
2
  6
CONTINUOUS
 10
6.8
 20
0.0
 11
6.8
 21
1.25
  0
LINE
  5
23C
100
AcDbEntity
  8
0
100
AcDbLine
 62
2
  6
CONTINUOUS
 10
6.4
 20
0.0
 11
6.4
 21
0.625
  0
LINE
  5
23D
100
AcDbEntity
  8
0
100
AcDbLine
 62
2
  6
CONTINUOUS
 10
5.9
 20
0.0
 11
5.9
 21
0.625
  0
LINE
  5
23E
100
AcDbEntity
  8
0
100
AcDbLine
 62
2
  6
CONTINUOUS
 10
5.2
 20
0.0
 11
5.2
 21
0.625
  0
LINE
  5
23F
100
AcDbEntity
  8
0
100
AcDbLine
 62
2
  6
CONTINUOUS
 10
4.1
 20
0.0
 11
4.1
 21
1.25
  0
LINE
  5
240
100
AcDbEntity
  8
0
100
AcDbLine
 62
2
  6
CONTINUOUS
 10
-0.0
 20
0.0
 11
-0.0
 21
1.25
  0
MTEXT
  5
241
100
AcDbEntity
  8
0
100
AcDbMText
 62
2
  6
CONTINUOUS
  7
STANDARD
 71
2
 72
1
 10
6.6
 20
0.325
 30
0.0
 11
1.0
 21
0.0
 31
0.0
 44
0.9
  1
2
 40
0.125
 41
0.2
  0
MTEXT
  5
242
100
AcDbEntity
  8
0
100
AcDbMText
 62
2
  6
CONTINUOUS
  7
STANDARD
 71
2
 72
1
 10
6.15
 20
0.325
 30
0.0
 11
1.0
 21
0.0
 31
0.0
 44
0.9
  1
C
 40
0.125
 41
0.2
  0
MTEXT
  5
243
100
AcDbEntity
  8
0
100
AcDbMText
 62
2
  6
CONTINUOUS
  7
STANDARD
 71
2
 72
1
 10
5.55
 20
0.325
 30
0.0
 11
1.0
 21
0.0
 31
0.0
 44
0.9
  1
1.000
 40
0.125
 41
1.0
  0
MTEXT
  5
244
100
AcDbEntity
  8
0
100
AcDbMText
 62
2
  6
CONTINUOUS
  7
STANDARD
 71
2
 72
1
 10
4.65
 20
0.325
 30
0.0
 11
1.0
 21
0.0
 31
0.0
 44
0.9
  1
Jul-23-19
 40
0.125
 41
1.8
  0
MTEXT
  5
245
100
AcDbEntity
  8
0
100
AcDbMText
 62
2
  6
CONTINUOUS
  7
STANDARD
 71
2
 72
1
 10
2.05
 20
0.4625
 30
0.0
 11
1.0
 21
0.0
 31
0.0
 44
0.9
  1
T-18A Line mount\PNinety degree with reverse flow check
 40
0.125
 41
7.4
  0
MTEXT
  5
246
100
AcDbEntity
  8
0
100
AcDbMText
 62
2
  6
CONTINUOUS
  7
STANDARD
 71
1
 72
1
 10
6.45
 20
0.5625
 30
0.0
 11
1.0
 21
0.0
 31
0.0
 44
0.9
  1
SHEET
 40
0.06
 41
0.48
  0
MTEXT
  5
247
100
AcDbEntity
  8
0
100
AcDbMText
 62
2
  6
CONTINUOUS
  7
STANDARD
 71
1
 72
1
 10
5.95
 20
0.5625
 30
0.0
 11
1.0
 21
0.0
 31
0.0
 44
0.9
  1
DWG SIZE
 40
0.06
 41
0.768
  0
MTEXT
  5
248
100
AcDbEntity
  8
0
100
AcDbMText
 62
2
  6
CONTINUOUS
  7
STANDARD
 71
1
 72
1
 10
5.25
 20
0.5625
 30
0.0
 11
1.0
 21
0.0
 31
0.0
 44
0.9
  1
SCALE
 40
0.06
 41
0.48
  0
MTEXT
  5
249
100
AcDbEntity
  8
0
100
AcDbMText
 62
2
  6
CONTINUOUS
  7
STANDARD
 71
1
 72
1
 10
4.15
 20
0.5625
 30
0.0
 11
1.0
 21
0.0
 31
0.0
 44
0.9
  1
DATE
 40
0.06
 41
0.384
  0
MTEXT
  5
24A
100
AcDbEntity
  8
0
100
AcDbMText
 62
2
  6
CONTINUOUS
  7
STANDARD
 71
1
 72
1
 10
0.05
 20
0.5625
 30
0.0
 11
1.0
 21
0.0
 31
0.0
 44
0.9
  1
DESCRIPTION
 40
0.06
 41
1.056
  0
MTEXT
  5
24B
100
AcDbEntity
  8
0
100
AcDbMText
 62
2
  6
CONTINUOUS
  7
STANDARD
 71
2
 72
1
 10
5.45
 20
1.0375
 30
0.0
 11
1.0
 21
0.0
 31
0.0
 44
0.9
  1
ALL DIMENSIONS IN INCH\PVIEWS ARE THIRD ANGLE
 40
0.12
 41
4.224
  0
MTEXT
  5
24C
100
AcDbEntity
  8
0
100
AcDbMText
 62
2
  6
CONTINUOUS
  7
STANDARD
 71
2
 72
1
 10
2.05
 20
0.95
 30
0.0
 11
1.0
 21
0.0
 31
0.0
 44
0.9
  1
LNN
 40
0.125
 41
0.6
  0
MTEXT
  5
24D
100
AcDbEntity
  8
0
100
AcDbMText
 62
2
  6
CONTINUOUS
  7
STANDARD
 71
1
 72
1
 10
0.05
 20
1.1875
 30
0.0
 11
1.0
 21
0.0
 31
0.0
 44
0.9
  1
MODEL
 40
0.06
 41
0.48
  0
ENDBLK
  5
24E
100
AcDbEntity
  8
0
  6
BYBLOCK
 62
0
100
AcDbBlockEnd
  0
BLOCK
  5
24F
100
AcDbEntity
  8
0
100
AcDbBlockBegin
  2
*T2
 70
1
 10
0.0
 20
0.0
  3
*T2
  1

  0
LINE
  5
250
100
AcDbEntity
  8
0
100
AcDbLine
 62
2
  6
CONTINUOUS
 10
0.0
 20
0.0
 11
9.055
 21
0.0
  0
LINE
  5
251
100
AcDbEntity
  8
0
100
AcDbLine
 62
2
  6
CONTINUOUS
 10
0.0
 20
0.0
 11
0.0
 21
-2.594
  0
LINE
  5
252
100
AcDbEntity
  8
0
100
AcDbLine
 62
2
  6
CONTINUOUS
 10
0.0
 20
-0.344
 11
9.055
 21
-0.344
  0
LINE
  5
253
100
AcDbEntity
  8
0
100
AcDbLine
 62
2
  6
CONTINUOUS
 10
0.0
 20
-0.594
 11
9.055
 21
-0.594
  0
LINE
  5
254
100
AcDbEntity
  8
0
100
AcDbLine
 62
2
  6
CONTINUOUS
 10
0.0
 20
-0.844
 11
9.055
 21
-0.844
  0
LINE
  5
255
100
AcDbEntity
  8
0
100
AcDbLine
 62
2
  6
CONTINUOUS
 10
0.0
 20
-1.094
 11
9.055
 21
-1.094
  0
LINE
  5
256
100
AcDbEntity
  8
0
100
AcDbLine
 62
2
  6
CONTINUOUS
 10
0.0
 20
-1.344
 11
9.055
 21
-1.344
  0
LINE
  5
257
100
AcDbEntity
  8
0
100
AcDbLine
 62
2
  6
CONTINUOUS
 10
0.0
 20
-1.594
 11
9.055
 21
-1.594
  0
LINE
  5
258
100
AcDbEntity
  8
0
100
AcDbLine
 62
2
  6
CONTINUOUS
 10
0.0
 20
-1.844
 11
9.055
 21
-1.844
  0
LINE
  5
259
100
AcDbEntity
  8
0
100
AcDbLine
 62
2
  6
CONTINUOUS
 10
0.0
 20
-2.094
 11
9.055
 21
-2.094
  0
LINE
  5
25A
100
AcDbEntity
  8
0
100
AcDbLine
 62
2
  6
CONTINUOUS
 10
0.0
 20
-2.344
 11
9.055
 21
-2.344
  0
LINE
  5
25B
100
AcDbEntity
  8
0
100
AcDbLine
 62
2
  6
CONTINUOUS
 10
0.0
 20
-2.594
 11
9.055
 21
-2.594
  0
LINE
  5
25C
100
AcDbEntity
  8
0
100
AcDbLine
 62
2
  6
CONTINUOUS
 10
3.055
 20
0.0
 11
3.055
 21
-2.594
  0
LINE
  5
25D
100
AcDbEntity
  8
0
100
AcDbLine
 62
2
  6
CONTINUOUS
 10
9.055
 20
0.0
 11
9.055
 21
-2.594
  0
MTEXT
  5
25E
100
AcDbEntity
  8
0
100
AcDbMText
 62
2
  6
CONTINUOUS
  7
STANDARD
 71
2
 72
1
 10
1.5275
 20
-0.0995
 30
0.0
 11
1.0
 21
0.0
 31
0.0
 44
0.9
  1
Technical Data
 40
0.145
 41
3.248
  0
MTEXT
  5
25F
100
AcDbEntity
  8
0
100
AcDbMText
 62
2
  6
CONTINUOUS
  7
STANDARD
 71
2
 72
1
 10
4.555
 20
-0.0995
 30
0.0
 11
1.0
 21
0.0
 31
0.0
 44
0.9
  1
U.S. Units
 40
0.145
 41
2.32
  0
MTEXT
  5
260
100
AcDbEntity
  8
0
100
AcDbMText
 62
2
  6
CONTINUOUS
  7
STANDARD
 71
2
 72
1
 10
7.555
 20
-0.0995
 30
0.0
 11
1.0
 21
0.0
 31
0.0
 44
0.9
  1
Metric Units
 40
0.145
 41
2.784
  0
MTEXT
  5
261
100
AcDbEntity
  8
0
100
AcDbMText
 62
2
  6
CONTINUOUS
  7
STANDARD
 71
2
 72
1
 10
1.5275
 20
-0.4065
 30
0.0
 11
1.0
 21
0.0
 31
0.0
 44
0.9
  1
Cavity
 40
0.125
 41
1.2
  0
MTEXT
  5
262
100
AcDbEntity
  8
0
100
AcDbMText
 62
2
  6
CONTINUOUS
  7
STANDARD
 71
2
 72
1
 10
6.055
 20
-0.4065
 30
0.0
 11
1.0
 21
0.0
 31
0.0
 44
0.9
  1
T-18A
 40
0.125
 41
1.0
  0
MTEXT
  5
263
100
AcDbEntity
  8
0
100
AcDbMText
 62
2
  6
CONTINUOUS
  7
STANDARD
 71
2
 72
1
 10
1.5275
 20
-0.6565
 30
0.0
 11
1.0
 21
0.0
 31
0.0
 44
0.9
  1
Body Features
 40
0.125
 41
2.6
  0
MTEXT
  5
264
100
AcDbEntity
  8
0
100
AcDbMText
 62
2
  6
CONTINUOUS
  7
STANDARD
 71
2
 72
1
 10
6.055
 20
-0.6565
 30
0.0
 11
1.0
 21
0.0
 31
0.0
 44
0.9
  1
Ninety degree with reverse flow check
 40
0.125
 41
7.4
  0
MTEXT
  5
265
100
AcDbEntity
  8
0
100
AcDbMText
 62
2
  6
CONTINUOUS
  7
STANDARD
 71
2
 72
1
 10
1.5275
 20
-0.9065
 30
0.0
 11
1.0
 21
0.0
 31
0.0
 44
0.9
  1
Body Type
 40
0.125
 41
1.8
  0
MTEXT
  5
266
100
AcDbEntity
  8
0
100
AcDbMText
 62
2
  6
CONTINUOUS
  7
STANDARD
 71
2
 72
1
 10
6.055
 20
-0.9065
 30
0.0
 11
1.0
 21
0.0
 31
0.0
 44
0.9
  1
Line mount
 40
0.125
 41
2.0
  0
MTEXT
  5
267
100
AcDbEntity
  8
0
100
AcDbMText
 62
2
  6
CONTINUOUS
  7
STANDARD
 71
2
 72
1
 10
1.5275
 20
-1.1565
 30
0.0
 11
1.0
 21
0.0
 31
0.0
 44
0.9
  1
Interface
 40
0.125
 41
1.8
  0
MTEXT
  5
268
100
AcDbEntity
  8
0
100
AcDbMText
 62
2
  6
CONTINUOUS
  7
STANDARD
 71
2
 72
1
 10
6.055
 20
-1.1565
 30
0.0
 11
1.0
 21
0.0
 31
0.0
 44
0.9
  1
None
 40
0.125
 41
0.8
  0
MTEXT
  5
269
100
AcDbEntity
  8
0
100
AcDbMText
 62
2
  6
CONTINUOUS
  7
STANDARD
 71
2
 72
1
 10
1.5275
 20
-1.4065
 30
0.0
 11
1.0
 21
0.0
 31
0.0
 44
0.9
  1
Open Cavity Quantity
 40
0.125
 41
4.0
  0
MTEXT
  5
26A
100
AcDbEntity
  8
0
100
AcDbMText
 62
2
  6
CONTINUOUS
  7
STANDARD
 71
2
 72
1
 10
6.055
 20
-1.4065
 30
0.0
 11
1.0
 21
0.0
 31
0.0
 44
0.9
  1
1
 40
0.125
 41
0.2
  0
MTEXT
  5
26B
100
AcDbEntity
  8
0
100
AcDbMText
 62
2
  6
CONTINUOUS
  7
STANDARD
 71
2
 72
1
 10
1.5275
 20
-1.6565
 30
0.0
 11
1.0
 21
0.0
 31
0.0
 44
0.9
  1
Weight
 40
0.125
 41
1.2
  0
MTEXT
  5
26C
100
AcDbEntity
  8
0
100
AcDbMText
 62
2
  6
CONTINUOUS
  7
STANDARD
 71
2
 72
1
 10
4.555
 20
-1.6565
 30
0.0
 11
1.0
 21
0.0
 31
0.0
 44
0.9
  1
9.823 lb.
 40
0.125
 41
1.8
  0
MTEXT
  5
26D
100
AcDbEntity
  8
0
100
AcDbMText
 62
2
  6
CONTINUOUS
  7
STANDARD
 71
2
 72
1
 10
7.555
 20
-1.6565
 30
0.0
 11
1.0
 21
0.0
 31
0.0
 44
0.9
  1
4,455 kg.
 40
0.125
 41
1.8
  0
MTEXT
  5
26E
100
AcDbEntity
  8
0
100
AcDbMText
 62
2
  6
CONTINUOUS
  7
STANDARD
 71
2
 72
1
 10
1.5275
 20
-1.9065
 30
0.0
 11
1.0
 21
0.0
 31
0.0
 44
0.9
  1
Mounting Hole Diameter
 40
0.125
 41
4.4
  0
MTEXT
  5
26F
100
AcDbEntity
  8
0
100
AcDbMText
 62
2
  6
CONTINUOUS
  7
STANDARD
 71
2
 72
1
 10
4.555
 20
-1.9065
 30
0.0
 11
1.0
 21
0.0
 31
0.0
 44
0.9
  1
.41 in.
 40
0.125
 41
1.4
  0
MTEXT
  5
270
100
AcDbEntity
  8
0
100
AcDbMText
 62
2
  6
CONTINUOUS
  7
STANDARD
 71
2
 72
1
 10
7.555
 20
-1.9065
 30
0.0
 11
1.0
 21
0.0
 31
0.0
 44
0.9
  1
10,4 mm
 40
0.125
 41
1.4
  0
MTEXT
  5
271
100
AcDbEntity
  8
0
100
AcDbMText
 62
2
  6
CONTINUOUS
  7
STANDARD
 71
2
 72
1
 10
1.5275
 20
-2.1565
 30
0.0
 11
1.0
 21
0.0
 31
0.0
 44
0.9
  1
Mounting Hole Depth
 40
0.125
 41
3.8
  0
MTEXT
  5
272
100
AcDbEntity
  8
0
100
AcDbMText
 62
2
  6
CONTINUOUS
  7
STANDARD
 71
2
 72
1
 10
6.055
 20
-2.1565
 30
0.0
 11
1.0
 21
0.0
 31
0.0
 44
0.9
  1
Through
 40
0.125
 41
1.4
  0
MTEXT
  5
273
100
AcDbEntity
  8
0
100
AcDbMText
 62
2
  6
CONTINUOUS
  7
STANDARD
 71
2
 72
1
 10
1.5275
 20
-2.4065
 30
0.0
 11
1.0
 21
0.0
 31
0.0
 44
0.9
  1
Mounting Hole Quantity
 40
0.125
 41
4.4
  0
MTEXT
  5
274
100
AcDbEntity
  8
0
100
AcDbMText
 62
2
  6
CONTINUOUS
  7
STANDARD
 71
2
 72
1
 10
6.055
 20
-2.4065
 30
0.0
 11
1.0
 21
0.0
 31
0.0
 44
0.9
  1
2
 40
0.125
 41
0.2
  0
ENDBLK
  5
275
100
AcDbEntity
  8
0
  6
BYBLOCK
 62
0
100
AcDbBlockEnd
  0
BLOCK
  5
276
100
AcDbEntity
  8
0
100
AcDbBlockBegin
  2
*T3
 70
1
 10
0.0
 20
0.0
  3
*T3
  1

  0
LINE
  5
277
100
AcDbEntity
  8
0
100
AcDbLine
 62
2
  6
CONTINUOUS
 10
0.0
 20
0.0
 11
4.6
 21
0.0
  0
LINE
  5
278
100
AcDbEntity
  8
0
100
AcDbLine
 62
2
  6
CONTINUOUS
 10
0.0
 20
0.0
 11
0.0
 21
-1.18775
  0
LINE
  5
279
100
AcDbEntity
  8
0
100
AcDbLine
 62
2
  6
CONTINUOUS
 10
0.0
 20
-0.34375
 11
4.6
 21
-0.34375
  0
LINE
  5
27A
100
AcDbEntity
  8
0
100
AcDbLine
 62
2
  6
CONTINUOUS
 10
0.0
 20
-0.68775
 11
4.6
 21
-0.68775
  0
LINE
  5
27B
100
AcDbEntity
  8
0
100
AcDbLine
 62
2
  6
CONTINUOUS
 10
0.0
 20
-0.93775
 11
4.6
 21
-0.93775
  0
LINE
  5
27C
100
AcDbEntity
  8
0
100
AcDbLine
 62
2
  6
CONTINUOUS
 10
0.0
 20
-1.18775
 11
4.6
 21
-1.18775
  0
LINE
  5
27D
100
AcDbEntity
  8
0
100
AcDbLine
 62
2
  6
CONTINUOUS
 10
1.3
 20
-0.34375
 11
1.3
 21
-1.18775
  0
LINE
  5
27E
100
AcDbEntity
  8
0
100
AcDbLine
 62
2
  6
CONTINUOUS
 10
3.3
 20
-0.34375
 11
3.3
 21
-1.18775
  0
LINE
  5
27F
100
AcDbEntity
  8
0
100
AcDbLine
 62
2
  6
CONTINUOUS
 10
4.6
 20
0.0
 11
4.6
 21
-1.18775
  0
MTEXT
  5
280
100
AcDbEntity
  8
0
100
AcDbMText
 62
2
  6
CONTINUOUS
  7
STANDARD
 71
2
 72
1
 10
2.3
 20
-0.099375
 30
0.0
 11
1.0
 21
0.0
 31
0.0
 44
0.9
  1
Port Headings
 40
0.145
 41
3.016
  0
MTEXT
  5
281
100
AcDbEntity
  8
0
100
AcDbMText
 62
2
  6
CONTINUOUS
  7
STANDARD
 71
2
 72
1
 10
0.65
 20
-0.44325
 30
0.0
 11
1.0
 21
0.0
 31
0.0
 44
0.9
  1
Product
 40
0.145
 41
1.624
  0
MTEXT
  5
282
100
AcDbEntity
  8
0
100
AcDbMText
 62
2
  6
CONTINUOUS
  7
STANDARD
 71
2
 72
1
 10
2.3
 20
-0.44325
 30
0.0
 11
1.0
 21
0.0
 31
0.0
 44
0.9
  1
Port
 40
0.145
 41
0.928
  0
MTEXT
  5
283
100
AcDbEntity
  8
0
100
AcDbMText
 62
2
  6
CONTINUOUS
  7
STANDARD
 71
2
 72
1
 10
3.95
 20
-0.44325
 30
0.0
 11
1.0
 21
0.0
 31
0.0
 44
0.9
  1
Size
 40
0.145
 41
0.928
  0
MTEXT
  5
284
100
AcDbEntity
  8
0
100
AcDbMText
 62
2
  6
CONTINUOUS
  7
STANDARD
 71
2
 72
1
 10
0.65
 20
-0.75025
 30
0.0
 11
1.0
 21
0.0
 31
0.0
 44
0.9
  1
LNN
 40
0.125
 41
0.6
  0
MTEXT
  5
285
100
AcDbEntity
  8
0
100
AcDbMText
 62
2
  6
CONTINUOUS
  7
STANDARD
 71
2
 72
1
 10
2.3
 20
-0.75025
 30
0.0
 11
1.0
 21
0.0
 31
0.0
 44
0.9
  1
Ports 1 &  2
 40
0.125
 41
2.4
  0
MTEXT
  5
286
100
AcDbEntity
  8
0
100
AcDbMText
 62
2
  6
CONTINUOUS
  7
STANDARD
 71
2
 72
1
 10
3.95
 20
-0.75025
 30
0.0
 11
1.0
 21
0.0
 31
0.0
 44
0.9
  1
SAE 20
 40
0.125
 41
1.2
  0
MTEXT
  5
287
100
AcDbEntity
  8
0
100
AcDbMText
 62
2
  6
CONTINUOUS
  7
STANDARD
 71
2
 72
1
 10
0.65
 20
-1.00025
 30
0.0
 11
1.0
 21
0.0
 31
0.0
 44
0.9
  1
LNN
 40
0.125
 41
0.6
  0
MTEXT
  5
288
100
AcDbEntity
  8
0
100
AcDbMText
 62
2
  6
CONTINUOUS
  7
STANDARD
 71
2
 72
1
 10
2.3
 20
-1.00025
 30
0.0
 11
1.0
 21
0.0
 31
0.0
 44
0.9
  1
Gage Port
 40
0.125
 41
1.8
  0
MTEXT
  5
289
100
AcDbEntity
  8
0
100
AcDbMText
 62
2
  6
CONTINUOUS
  7
STANDARD
 71
2
 72
1
 10
3.95
 20
-1.00025
 30
0.0
 11
1.0
 21
0.0
 31
0.0
 44
0.9
  1
1/4" NPTF
 40
0.125
 41
1.8
  0
ENDBLK
  5
28A
100
AcDbEntity
  8
0
  6
BYBLOCK
 62
0
100
AcDbBlockEnd
  0
ENDSEC
  0
SECTION
  2
ENTITIES
  0
IMAGE
  5
28B
100
AcDbEntity
  8
0
100
AcDbRasterImage
 62
7
  6
CONTINUOUS
 10
19.2297077316
 20
0.3094318264
 30
0.0
 11
0.0066666667
 21
0.0
 31
0.0
 12
0.0
 22
0.0066666667
 32
0.0
 13
369.0
 23
92.0
340
       37D
 70
9
280
0
281
50
282
50
283
0
360
       377
 71
1
 91
2
 14
-0.5
 24
-0.5
 14
368.5
 24
91.5
  0
INSERT
  5
28C
100
AcDbEntity
  8
0
100
AcDbBlockReference
 62
2
  6
CONTINUOUS
  2
SUN_FIRST_THIRD_ANGLE_BL0
 10
20.4816717061
 20
1.2289683772
  0
ACAD_TABLE
  5
28D
100
AcDbEntity
  8
0
 62
2
  6
CONTINUOUS
100
AcDbBlockReference
  2
*T1
 10
12.42375
 20
0.30125
 30
0.0
100
AcDbTable
342
       37F
343
20F
 11
1.0
 21
0.0
 31
0.0
 90
6
 91
4
 92
6
 93
20
 94
0
 95
0
 96
0
 70
1
 41
0.0
141
0.525
141
0.1
141
0.525
141
0.1
142
4.1
142
1.1
142
0.7
142
0.5
142
0.4
142
2.475
171
1
172
0
173
0
174
0
175
1
176
1
 91
33
178
0
145
0.0
301
CELL_VALUE
 90
4
  1
T-18A Line mount\PNinety degree with reverse flow check
304
ACVALUE_END
170
2
140
0.125
171
1
172
0
173
0
174
0
175
1
176
1
 91
33
178
0
145
0.0
301
CELL_VALUE
 90
4
  1
Jul-23-19
304
ACVALUE_END
170
5
140
0.125
171
1
172
0
173
0
174
0
175
1
176
1
 91
33
178
0
145
0.0
301
CELL_VALUE
 90
4
  1
1.000
304
ACVALUE_END
170
5
140
0.125
171
1
172
0
173
0
174
0
175
1
176
1
 91
33
178
0
145
0.0
301
CELL_VALUE
 90
4
  1
C
304
ACVALUE_END
170
5
140
0.125
171
1
172
0
173
0
174
0
175
1
176
1
 91
33
178
0
145
0.0
301
CELL_VALUE
 90
4
  1
2
304
ACVALUE_END
170
5
140
0.125
171
1
172
0
173
0
174
0
175
1
176
1
 91
33
178
0
145
0.0
301
CELL_VALUE
 90
4
  1
 
304
ACVALUE_END
170
1
140
0.125
171
1
172
0
173
0
174
0
175
1
176
1
 91
33
178
0
145
0.0
301
CELL_VALUE
 90
4
  1
DESCRIPTION
304
ACVALUE_END
170
1
140
0.06
171
1
172
0
173
0
174
0
175
1
176
1
 91
33
178
0
145
0.0
301
CELL_VALUE
 90
4
  1
DATE
304
ACVALUE_END
170
1
140
0.06
171
1
172
0
173
0
174
0
175
1
176
1
 91
33
178
0
145
0.0
301
CELL_VALUE
 90
4
  1
SCALE
304
ACVALUE_END
170
1
140
0.06
171
1
172
0
173
0
174
0
175
1
176
1
 91
33
178
0
145
0.0
301
CELL_VALUE
 90
4
  1
DWG SIZE
304
ACVALUE_END
170
1
140
0.06
171
1
172
0
173
0
174
0
175
1
176
1
 91
33
178
0
145
0.0
301
CELL_VALUE
 90
4
  1
SHEET
304
ACVALUE_END
170
1
140
0.06
171
1
172
0
173
0
174
0
175
1
176
1
 91
33
178
0
145
0.0
301
CELL_VALUE
 90
4
  1
 
304
ACVALUE_END
170
1
140
0.125
171
1
172
0
173
0
174
0
175
1
176
1
 91
33
178
0
145
0.0
301
CELL_VALUE
 90
4
  1
LNN
304
ACVALUE_END
170
5
140
0.125
171
1
172
0
173
0
174
0
175
4
176
1
 91
33
178
0
145
0.0
301
CELL_VALUE
 90
4
  1
ALL DIMENSIONS IN INCH\PVIEWS ARE THIRD ANGLE
304
ACVALUE_END
170
5
140
0.12
171
1
172
0
173
1
174
0
175
1
176
1
 91
1
178
0
145
0.0
170
1
171
1
172
0
173
1
174
0
175
1
176
1
 91
1
178
0
145
0.0
170
1
171
1
172
0
173
1
174
0
175
1
176
1
 91
1
178
0
145
0.0
170
5
171
1
172
0
173
0
174
0
175
1
176
1
 91
33
178
0
145
0.0
301
CELL_VALUE
 90
4
  1
 
304
ACVALUE_END
170
1
140
0.125
171
1
172
0
173
0
174
0
175
1
176
1
 91
33
178
0
145
0.0
301
CELL_VALUE
 90
4
  1
MODEL
304
ACVALUE_END
170
1
140
0.06
171
1
172
0
173
0
174
0
175
1
176
1
 91
33
178
0
145
0.0
301
CELL_VALUE
 90
4
  1
 
304
ACVALUE_END
170
1
140
0.125
171
1
172
0
173
0
174
0
175
1
176
1
 91
33
178
0
145
0.0
301
CELL_VALUE
 90
4
  1
 
304
ACVALUE_END
170
1
140
0.125
171
1
172
0
173
0
174
0
175
1
176
1
 91
33
178
0
145
0.0
301
CELL_VALUE
 90
4
  1
 
304
ACVALUE_END
170
1
140
0.125
171
1
172
0
173
0
174
0
175
1
176
1
 91
33
178
0
145
0.0
301
CELL_VALUE
 90
4
  1
 
304
ACVALUE_END
170
1
140
0.125
171
1
172
0
173
0
174
0
175
1
176
1
 91
33
178
0
145
0.0
301
CELL_VALUE
 90
4
  1
 
304
ACVALUE_END
170
1
140
0.125
  0
ACAD_TABLE
  5
28E
100
AcDbEntity
  8
0
 62
2
  6
CONTINUOUS
100
AcDbBlockReference
  2
*T2
 10
12.4237499994
 20
16.47875
 30
0.0
100
AcDbTable
342
       37E
343
210
 11
1.0
 21
0.0
 31
0.0
 90
22
 91
10
 92
3
 93
16
 94
0
 95
0
 96
0
 41
0.028
141
0.344
141
0.25
141
0.25
141
0.25
141
0.25
141
0.25
141
0.25
141
0.25
141
0.25
141
0.25
142
3.055
142
3.0
142
3.0
171
1
172
0
173
0
174
0
175
1
176
1
 91
33
178
0
145
0.0
301
CELL_VALUE
 90
4
  1
Technical Data
304
ACVALUE_END
170
5
140
0.145
171
1
172
0
173
0
174
0
175
1
176
1
 91
33
178
0
145
0.0
301
CELL_VALUE
 90
4
  1
U.S. Units
304
ACVALUE_END
170
5
140
0.145
171
1
172
0
173
0
174
0
175
1
176
1
 91
33
178
0
145
0.0
301
CELL_VALUE
 90
4
  1
Metric Units
304
ACVALUE_END
170
5
140
0.145
171
1
172
0
173
0
174
0
175
1
176
1
 91
33
178
0
145
0.0
301
CELL_VALUE
 90
4
  1
Cavity
304
ACVALUE_END
170
5
140
0.125
171
1
172
0
173
0
174
0
175
2
176
1
 91
33
178
0
145
0.0
301
CELL_VALUE
 90
4
  1
T-18A
304
ACVALUE_END
170
5
140
0.125
171
1
172
0
173
1
174
0
175
1
176
1
 91
1
178
0
145
0.0
170
1
171
1
172
0
173
0
174
0
175
1
176
1
 91
33
178
0
145
0.0
301
CELL_VALUE
 90
4
  1
Body Features
304
ACVALUE_END
170
5
140
0.125
171
1
172
0
173
0
174
0
175
2
176
1
 91
33
178
0
145
0.0
301
CELL_VALUE
 90
4
  1
Ninety degree with reverse flow check
304
ACVALUE_END
170
5
140
0.125
171
1
172
0
173
1
174
0
175
1
176
1
 91
1
178
0
145
0.0
170
1
171
1
172
0
173
0
174
0
175
1
176
1
 91
33
178
0
145
0.0
301
CELL_VALUE
 90
4
  1
Body Type
304
ACVALUE_END
170
5
140
0.125
171
1
172
0
173
0
174
0
175
2
176
1
 91
33
178
0
145
0.0
301
CELL_VALUE
 90
4
  1
Line mount
304
ACVALUE_END
170
5
140
0.125
171
1
172
0
173
1
174
0
175
1
176
1
 91
1
178
0
145
0.0
170
1
171
1
172
0
173
0
174
0
175
1
176
1
 91
33
178
0
145
0.0
301
CELL_VALUE
 90
4
  1
Interface
304
ACVALUE_END
170
5
140
0.125
171
1
172
0
173
0
174
0
175
2
176
1
 91
33
178
0
145
0.0
301
CELL_VALUE
 90
4
  1
None
304
ACVALUE_END
170
5
140
0.125
171
1
172
0
173
1
174
0
175
1
176
1
 91
1
178
0
145
0.0
170
1
171
1
172
0
173
0
174
0
175
1
176
1
 91
33
178
0
145
0.0
301
CELL_VALUE
 90
4
  1
Open Cavity Quantity
304
ACVALUE_END
170
5
140
0.125
171
1
172
0
173
0
174
0
175
2
176
1
 91
33
178
0
145
0.0
301
CELL_VALUE
 90
4
  1
1
304
ACVALUE_END
170
5
140
0.125
171
1
172
0
173
1
174
0
175
1
176
1
 91
1
178
0
145
0.0
170
1
171
1
172
0
173
0
174
0
175
1
176
1
 91
33
178
0
145
0.0
301
CELL_VALUE
 90
4
  1
Weight
304
ACVALUE_END
170
5
140
0.125
171
1
172
0
173
0
174
0
175
1
176
1
 91
33
178
0
145
0.0
301
CELL_VALUE
 90
4
  1
9.823 lb.
304
ACVALUE_END
170
5
140
0.125
171
1
172
0
173
0
174
0
175
1
176
1
 91
33
178
0
145
0.0
301
CELL_VALUE
 90
4
  1
4,455 kg.
304
ACVALUE_END
170
5
140
0.125
171
1
172
0
173
0
174
0
175
1
176
1
 91
33
178
0
145
0.0
301
CELL_VALUE
 90
4
  1
Mounting Hole Diameter
304
ACVALUE_END
170
5
140
0.125
171
1
172
0
173
0
174
0
175
1
176
1
 91
33
178
0
145
0.0
301
CELL_VALUE
 90
4
  1
.41 in.
304
ACVALUE_END
170
5
140
0.125
171
1
172
0
173
0
174
0
175
1
176
1
 91
33
178
0
145
0.0
301
CELL_VALUE
 90
4
  1
10,4 mm
304
ACVALUE_END
170
5
140
0.125
171
1
172
0
173
0
174
0
175
1
176
1
 91
33
178
0
145
0.0
301
CELL_VALUE
 90
4
  1
Mounting Hole Depth
304
ACVALUE_END
170
5
140
0.125
171
1
172
0
173
0
174
0
175
2
176
1
 91
33
178
0
145
0.0
301
CELL_VALUE
 90
4
  1
Through
304
ACVALUE_END
170
5
140
0.125
171
1
172
0
173
1
174
0
175
1
176
1
 91
1
178
0
145
0.0
170
1
171
1
172
0
173
0
174
0
175
1
176
1
 91
33
178
0
145
0.0
301
CELL_VALUE
 90
4
  1
Mounting Hole Quantity
304
ACVALUE_END
170
5
140
0.125
171
1
172
0
173
0
174
0
175
2
176
1
 91
33
178
0
145
0.0
301
CELL_VALUE
 90
4
  1
2
304
ACVALUE_END
170
5
140
0.125
171
1
172
0
173
1
174
0
175
1
176
1
 91
1
178
0
145
0.0
170
1
  0
ACAD_TABLE
  5
28F
100
AcDbEntity
  8
0
 62
2
  6
CONTINUOUS
100
AcDbBlockReference
  2
*T3
 10
0.52125
 20
1.709
 30
0.0
100
AcDbTable
342
       37E
343
211
 11
1.0
 21
0.0
 31
0.0
 90
22
 91
4
 92
3
 93
16
 94
0
 95
0
 96
0
 41
0.05
141
0.34375
141
0.344
141
0.25
141
0.25
142
1.3
142
2.0
142
1.3
171
1
172
0
173
0
174
0
175
3
176
1
 91
33
178
0
145
0.0
301
CELL_VALUE
 90
4
  1
Port Headings
304
ACVALUE_END
170
5
140
0.145
171
1
172
0
173
1
174
0
175
1
176
1
 91
1
178
0
145
0.0
170
1
171
1
172
0
173
1
174
0
175
1
176
1
 91
1
178
0
145
0.0
170
1
171
1
172
0
173
0
174
0
175
1
176
1
 91
33
178
0
145
0.0
301
CELL_VALUE
 90
4
  1
Product
304
ACVALUE_END
170
5
140
0.145
171
1
172
0
173
0
174
0
175
1
176
1
 91
33
178
0
145
0.0
301
CELL_VALUE
 90
4
  1
Port
304
ACVALUE_END
170
5
140
0.145
171
1
172
0
173
0
174
0
175
1
176
1
 91
33
178
0
145
0.0
301
CELL_VALUE
 90
4
  1
Size
304
ACVALUE_END
170
5
140
0.145
171
1
172
0
173
0
174
0
175
1
176
1
 91
33
178
0
145
0.0
301
CELL_VALUE
 90
4
  1
LNN
304
ACVALUE_END
170
5
140
0.125
171
1
172
0
173
0
174
0
175
1
176
1
 91
33
178
0
145
0.0
301
CELL_VALUE
 90
4
  1
Ports 1 &  2
304
ACVALUE_END
170
5
140
0.125
171
1
172
0
173
0
174
0
175
1
176
1
 91
33
178
0
145
0.0
301
CELL_VALUE
 90
4
  1
SAE 20
304
ACVALUE_END
170
5
140
0.125
171
1
172
0
173
0
174
0
175
1
176
1
 91
33
178
0
145
0.0
301
CELL_VALUE
 90
4
  1
LNN
304
ACVALUE_END
170
5
140
0.125
171
1
172
0
173
0
174
0
175
1
176
1
 91
33
178
0
145
0.0
301
CELL_VALUE
 90
4
  1
Gage Port
304
ACVALUE_END
170
5
140
0.125
171
1
172
0
173
0
174
0
175
1
176
1
 91
33
178
0
145
0.0
301
CELL_VALUE
 90
4
  1
1/4" NPTF
304
ACVALUE_END
170
5
140
0.125
  0
MTEXT
  5
290
100
AcDbEntity
  8
0
100
AcDbMText
 62
2
  6
CONTINUOUS
  7
STANDARD
 71
1
 72
1
 10
0.52125
 20
5.75995
 30
0.0
 11
1.0
 21
0.0
 31
0.0
 44
0.6
  3
Notes\P \P1. Important: Carefully consider\P   the maximum system pressure. The\P   pressure rating of the manifold is\P   dependent on the manifold material,\P   with the port type/size a secondary\P   consideration. Manifolds\P   constructed of alu
  1
minum are not\P   rated for pressures higher than\P   3000 psi (210 bar), regardless of\P   the port type/size specified.
 40
0.1
 41
3.04
  0
LINE
  5
291
100
AcDbEntity
  8
0
100
AcDbLine
 62
7
  6
CONTINUOUS
 10
0.30125
 20
0.30125
 11
0.30125
 21
16.69875
  0
LINE
  5
292
100
AcDbEntity
  8
0
100
AcDbLine
 62
7
  6
CONTINUOUS
 10
0.30125
 20
0.30125
 11
21.69875
 21
0.30125
  0
LINE
  5
293
100
AcDbEntity
  8
0
100
AcDbLine
 62
7
  6
CONTINUOUS
 10
0.30125
 20
16.69875
 11
21.69875
 21
16.69875
  0
LINE
  5
294
100
AcDbEntity
  8
0
100
AcDbLine
 62
7
  6
CONTINUOUS
 10
21.69875
 20
0.30125
 11
21.69875
 21
16.69875
  0
LINE
  5
295
100
AcDbEntity
  8
0
100
AcDbLine
 62
7
  6
CONTINUOUS
 10
8.4904505967
 20
12.3795056588
 11
7.7139941022
 21
11.6295062333
  0
LINE
  5
296
100
AcDbEntity
  8
0
100
AcDbLine
 62
7
  6
CONTINUOUS
 10
7.7139941022
 20
5.8339509322
 11
7.7139941022
 21
11.6295062333
  0
LINE
  5
297
100
AcDbEntity
  8
0
100
AcDbLine
 62
4
  6
CONTINUOUS
 10
7.8926903893
 20
7.7534100624
 11
7.8926903893
 21
7.637498959
  0
LINE
  5
298
100
AcDbEntity
  8
0
100
AcDbLine
 62
7
  6
CONTINUOUS
 10
11.5900417296
 20
4.7437796919
 11
11.6133218699
 21
4.7322797483
  0
LINE
  5
299
100
AcDbEntity
  8
0
100
AcDbLine
 62
4
  6
CONTINUOUS
 10
8.8323983214
 20
10.1651510513
 11
8.8572364177
 21
10.1882666171
  0
LINE
  5
29A
100
AcDbEntity
  8
0
100
AcDbLine
 62
7
  6
CONTINUOUS
 10
7.7139941022
 20
5.8339509322
 11
13.5095494033
 21
5.4320278069
  0
LINE
  5
29B
100
AcDbEntity
  8
0
100
AcDbLine
 62
4
  6
CONTINUOUS
 10
8.8944935607
 20
10.0118161595
 11
8.9193316544
 21
10.0349317281
  0
LINE
  5
29C
100
AcDbEntity
  8
0
100
AcDbLine
 62
4
  6
CONTINUOUS
 10
9.0311030914
 20
10.0023422564
 11
9.0559411747
 21
10.0254578257
  0
LINE
  5
29D
100
AcDbEntity
  8
0
100
AcDbLine
 62
4
  6
CONTINUOUS
 10
8.8323983214
 20
10.1403129576
 11
8.8323983214
 21
10.1651510513
  0
LINE
  5
29E
100
AcDbEntity
  8
0
100
AcDbLine
 62
4
  6
CONTINUOUS
 10
8.9193316544
 20
10.0349317281
 11
8.9193316544
 21
10.0597698244
  0
LINE
  5
29F
100
AcDbEntity
  8
0
100
AcDbLine
 62
4
  6
CONTINUOUS
 10
8.9690078417
 20
10.1805152425
 11
8.9690078417
 21
10.0314866728
  0
LINE
  5
2A0
100
AcDbEntity
  8
0
100
AcDbLine
 62
4
  6
CONTINUOUS
 10
9.6106586514
 20
10.0739213684
 11
9.6354967347
 21
10.0846178935
  0
LINE
  5
2A1
100
AcDbEntity
  8
0
100
AcDbLine
 62
4
  6
CONTINUOUS
 10
9.022823615
 20
9.1161964437
 11
9.022823615
 21
9.2900631097
  0
LINE
  5
2A2
100
AcDbEntity
  8
0
100
AcDbLine
 62
4
  6
CONTINUOUS
 10
9.0559411747
 20
10.0254578257
 11
9.0559411747
 21
10.1744863954
  0
LINE
  5
2A3
100
AcDbEntity
  8
0
100
AcDbLine
 62
4
  6
CONTINUOUS
 10
9.105617362
 20
9.9971746742
 11
9.105617362
 21
10.1710413401
  0
LINE
  5
2A4
100
AcDbEntity
  8
0
100
AcDbLine
 62
4
  6
CONTINUOUS
 10
9.1097569376
 20
9.2591961696
 11
9.1097569376
 21
9.1350056936
  0
LINE
  5
2A5
100
AcDbEntity
  8
0
100
AcDbLine
 62
4
  6
CONTINUOUS
 10
9.1925506949
 20
9.9911458271
 11
9.1925506949
 21
10.165012493
  0
LINE
  5
2A6
100
AcDbEntity
  8
0
100
AcDbLine
 62
4
  6
CONTINUOUS
 10
9.1801315414
 20
9.105287102
 11
9.2298077288
 21
9.2757087126
  0
LINE
  5
2A7
100
AcDbEntity
  8
0
100
AcDbLine
 62
4
  6
CONTINUOUS
 10
9.5278649852
 20
9.9264948767
 11
9.5775411518
 21
10.0886371268
  0
LINE
  5
2A8
100
AcDbEntity
  8
0
100
AcDbLine
 62
4
  6
CONTINUOUS
 10
9.1097569376
 20
9.1350056936
 11
9.0849188439
 21
9.111890125
  0
LINE
  5
2A9
100
AcDbEntity
  8
0
100
AcDbLine
 62
4
  6
CONTINUOUS
 10
9.846620567
 20
9.9954621199
 11
9.8714586503
 21
10.0061586398
  0
LINE
  5
2AA
100
AcDbEntity
  8
0
100
AcDbLine
 62
4
  6
CONTINUOUS
 10
9.4260977302
 20
7.9832101917
 11
9.4188532863
 21
8.0126903714
  0
LINE
  5
2AB
100
AcDbEntity
  8
0
100
AcDbLine
 62
4
  6
CONTINUOUS
 10
9.3788363114
 20
9.0915068794
 11
9.3788363114
 21
9.2653735453
  0
LINE
  5
2AC
100
AcDbEntity
  8
0
100
AcDbLine
 62
4
  6
CONTINUOUS
 10
9.3788364025
 20
9.9782268694
 11
9.3788364025
 21
10.1520935353
  0
LINE
  5
2AD
100
AcDbEntity
  8
0
100
AcDbLine
 62
4
  6
CONTINUOUS
 10
9.4533506939
 20
10.0848307123
 11
9.4533506939
 21
9.9730592857
  0
LINE
  5
2AE
100
AcDbEntity
  8
0
100
AcDbLine
 62
4
  6
CONTINUOUS
 10
9.478188686
 20
9.0846167688
 11
9.478188686
 21
9.2584834347
  0
LINE
  5
2AF
100
AcDbEntity
  8
0
100
AcDbLine
 62
4
  6
CONTINUOUS
 10
9.4781888114
 20
9.6409900911
 11
9.4781888114
 21
9.4671234252
  0
LINE
  5
2B0
100
AcDbEntity
  8
0
100
AcDbLine
 62
4
  6
CONTINUOUS
 10
9.4912977259
 20
8.0076663325
 11
9.4912977259
 21
7.9690292986
  0
LINE
  5
2B1
100
AcDbEntity
  8
0
100
AcDbLine
 62
4
  6
CONTINUOUS
 10
9.589960238
 20
9.4593720504
 11
9.589960238
 21
9.6332387163
  0
LINE
  5
2B2
100
AcDbEntity
  8
0
100
AcDbLine
 62
4
  6
CONTINUOUS
 10
9.6106586514
 20
9.9745689899
 11
9.6106586514
 21
10.0739213684
  0
LINE
  5
2B3
100
AcDbEntity
  8
0
100
AcDbLine
 62
4
  6
CONTINUOUS
 10
9.6768935813
 20
9.4533432026
 11
9.6768935813
 21
9.6272098685
  0
LINE
  5
2B4
100
AcDbEntity
  8
0
100
AcDbLine
 62
4
  6
CONTINUOUS
 10
9.6851729013
 20
10.130849027
 11
9.6851729013
 21
9.956982361
  0
LINE
  5
2B5
100
AcDbEntity
  8
0
100
AcDbLine
 62
4
  6
CONTINUOUS
 10
9.4188532863
 20
8.0126903714
 11
9.4260977302
 21
8.0411657434
  0
LINE
  5
2B6
100
AcDbEntity
  8
0
100
AcDbLine
 62
4
  6
CONTINUOUS
 10
10.2730078155
 20
10.0279872979
 11
10.2854268157
 21
10.0395450893
  0
LINE
  5
2B7
100
AcDbEntity
  8
0
100
AcDbLine
 62
4
  6
CONTINUOUS
 10
10.3847793147
 20
10.0202359181
 11
10.3971983149
 21
10.0317937095
  0
LINE
  5
2B8
100
AcDbEntity
  8
0
100
AcDbLine
 62
4
  6
CONTINUOUS
 10
10.4468744815
 20
9.904158177
 11
10.4592934817
 21
9.9157159645
  0
LINE
  5
2B9
100
AcDbEntity
  8
0
100
AcDbLine
 62
4
  6
CONTINUOUS
 10
9.7389887264
 20
9.2155587968
 11
9.7638268097
 21
9.2386743636
  0
LINE
  5
2BA
100
AcDbEntity
  8
0
100
AcDbLine
 62
4
  6
CONTINUOUS
 10
8.9897061516
 20
9.2261248971
 11
8.92347123
 21
9.1976008412
  0
LINE
  5
2BB
100
AcDbEntity
  8
0
100
AcDbLine
 62
4
  6
CONTINUOUS
 10
9.4550755061
 20
7.9522228002
 11
9.4405866182
 21
7.9628868669
  0
LINE
  5
2BC
100
AcDbEntity
  8
0
100
AcDbLine
 62
4
  6
CONTINUOUS
 10
9.4405866182
 20
7.9628868669
 11
9.4260977302
 21
7.9832101917
  0
LINE
  5
2BD
100
AcDbEntity
  8
0
100
AcDbLine
 62
4
  6
CONTINUOUS
 10
9.4840532819
 20
8.0564650318
 11
9.4912977259
 21
8.0463033646
  0
LINE
  5
2BE
100
AcDbEntity
  8
0
100
AcDbLine
 62
4
  6
CONTINUOUS
 10
9.2298077288
 20
9.2757087126
 11
9.2794839368
 21
9.0983969899
  0
LINE
  5
2BF
100
AcDbEntity
  8
0
100
AcDbLine
 62
4
  6
CONTINUOUS
 10
9.7265697686
 20
9.4498981473
 11
9.7265697686
 21
9.6237648132
  0
LINE
  5
2C0
100
AcDbEntity
  8
0
100
AcDbLine
 62
4
  6
CONTINUOUS
 10
9.7348491508
 20
9.9535373014
 11
9.7348491508
 21
10.07772778
  0
LINE
  5
2C1
100
AcDbEntity
  8
0
100
AcDbLine
 62
4
  6
CONTINUOUS
 10
9.7389887264
 20
9.0913683208
 11
9.7389887264
 21
9.2155587968
  0
LINE
  5
2C2
100
AcDbEntity
  8
0
100
AcDbLine
 62
4
  6
CONTINUOUS
 10
9.7928046508
 20
10.0612895005
 11
9.7928046508
 21
10.0364514068
  0
LINE
  5
2C3
100
AcDbEntity
  8
0
100
AcDbLine
 62
4
  6
CONTINUOUS
 10
9.8135031016
 20
9.4438693002
 11
9.8135031016
 21
9.6177359661
  0
LINE
  5
2C4
100
AcDbEntity
  8
0
100
AcDbLine
 62
4
  6
CONTINUOUS
 10
9.846620567
 20
9.9582049755
 11
9.846620567
 21
9.9954621199
  0
LINE
  5
2C5
100
AcDbEntity
  8
0
100
AcDbLine
 62
4
  6
CONTINUOUS
 10
9.8838775594
 20
9.0813202461
 11
9.8838775594
 21
9.2055107221
  0
LINE
  5
2C6
100
AcDbEntity
  8
0
100
AcDbLine
 62
4
  6
CONTINUOUS
 10
9.9211348169
 20
9.9406183466
 11
9.9211348169
 21
10.0399707316
  0
LINE
  5
2C7
100
AcDbEntity
  8
0
100
AcDbLine
 62
4
  6
CONTINUOUS
 10
9.9708108924
 20
9.199481875
 11
9.9708108924
 21
9.075291399
  0
LINE
  5
2C8
100
AcDbEntity
  8
0
100
AcDbLine
 62
4
  6
CONTINUOUS
 10
9.9708109835
 20
10.0613637714
 11
9.9708109835
 21
9.9495923408
  0
LINE
  5
2C9
100
AcDbEntity
  8
0
100
AcDbLine
 62
4
  6
CONTINUOUS
 10
10.020487059
 20
9.0470082489
 11
10.020487059
 21
9.2208749148
  0
LINE
  5
2CA
100
AcDbEntity
  8
0
100
AcDbLine
 62
4
  6
CONTINUOUS
 10
10.2109125659
 20
10.0943888574
 11
10.2067728991
 21
10.0822568922
  0
LINE
  5
2CB
100
AcDbEntity
  8
0
100
AcDbLine
 62
4
  6
CONTINUOUS
 10
9.8838775594
 20
9.2055107221
 11
9.9087156427
 21
9.2286262889
  0
LINE
  5
2CC
100
AcDbEntity
  8
0
100
AcDbLine
 62
4
  6
CONTINUOUS
 10
9.9708108924
 20
9.075291399
 11
9.9459728091
 21
9.0521758297
  0
LINE
  5
2CD
100
AcDbEntity
  8
0
100
AcDbLine
 62
4
  6
CONTINUOUS
 10
10.1074203919
 20
9.065817498
 11
10.0825823086
 21
9.0427019287
  0
LINE
  5
2CE
100
AcDbEntity
  8
0
100
AcDbLine
 62
4
  6
CONTINUOUS
 10
9.469564394
 20
8.0671290959
 11
9.4840532819
 21
8.0564650318
  0
LINE
  5
2CF
100
AcDbEntity
  8
0
100
AcDbLine
 62
4
  6
CONTINUOUS
 10
9.105617362
 20
10.1710413401
 11
9.1925506949
 21
9.9911458271
  0
LINE
  5
2D0
100
AcDbEntity
  8
0
100
AcDbLine
 62
4
  6
CONTINUOUS
 10
9.5030269019
 20
10.0938047076
 11
9.5402840683
 21
9.9670304357
  0
LINE
  5
2D1
100
AcDbEntity
  8
0
100
AcDbLine
 62
4
  6
CONTINUOUS
 10
10.0453253163
 20
9.9320057062
 11
10.0453253163
 21
10.0561961848
  0
LINE
  5
2D2
100
AcDbEntity
  8
0
100
AcDbLine
 62
4
  6
CONTINUOUS
 10
10.0950014829
 20
9.9409797005
 11
10.0950014829
 21
10.1024273183
  0
LINE
  5
2D3
100
AcDbEntity
  8
0
100
AcDbLine
 62
4
  6
CONTINUOUS
 10
10.1074203919
 20
9.1900079741
 11
10.1074203919
 21
9.065817498
  0
LINE
  5
2D4
100
AcDbEntity
  8
0
100
AcDbLine
 62
4
  6
CONTINUOUS
 10
10.177795058
 20
9.0360989021
 11
10.177795058
 21
9.209965568
  0
LINE
  5
2D5
100
AcDbEntity
  8
0
100
AcDbLine
 62
4
  6
CONTINUOUS
 10
10.2067728991
 20
9.9208092783
 11
10.2067728991
 21
10.0449997569
  0
LINE
  5
2D6
100
AcDbEntity
  8
0
100
AcDbLine
 62
4
  6
CONTINUOUS
 10
10.2067728991
 20
10.0822568922
 11
10.2067728991
 21
10.0946759442
  0
LINE
  5
2D7
100
AcDbEntity
  8
0
100
AcDbLine
 62
4
  6
CONTINUOUS
 10
10.2730078155
 20
9.9286349194
 11
10.2730078155
 21
10.0279872979
  0
LINE
  5
2D8
100
AcDbEntity
  8
0
100
AcDbLine
 62
4
  6
CONTINUOUS
 10
9.4260977302
 20
8.0411657434
 11
9.4405866182
 21
8.0594794551
  0
LINE
  5
2D9
100
AcDbEntity
  8
0
100
AcDbLine
 62
4
  6
CONTINUOUS
 10
9.4912977259
 20
7.9690292986
 11
9.4840532819
 21
7.9598724436
  0
LINE
  5
2DA
100
AcDbEntity
  8
0
100
AcDbLine
 62
4
  6
CONTINUOUS
 10
10.3682203908
 20
9.0974071466
 11
10.3019854744
 21
9.0688830928
  0
LINE
  5
2DB
100
AcDbEntity
  8
0
100
AcDbLine
 62
4
  6
CONTINUOUS
 10
9.469564394
 20
7.9512179924
 11
9.4550755061
 21
7.9522228002
  0
LINE
  5
2DC
100
AcDbEntity
  8
0
100
AcDbLine
 62
4
  6
CONTINUOUS
 10
9.0849188439
 20
9.2857567909
 11
9.1097569376
 21
9.2591961696
  0
LINE
  5
2DD
100
AcDbEntity
  8
0
100
AcDbLine
 62
4
  6
CONTINUOUS
 10
9.589960238
 20
9.6332387163
 11
9.6768935813
 21
9.4533432026
  0
LINE
  5
2DE
100
AcDbEntity
  8
0
100
AcDbLine
 62
4
  6
CONTINUOUS
 10
9.7265697686
 20
9.6237648132
 11
9.8135031016
 21
9.4438693002
  0
LINE
  5
2DF
100
AcDbEntity
  8
0
100
AcDbLine
 62
4
  6
CONTINUOUS
 10
10.3847793147
 20
9.9829787776
 11
10.3847793147
 21
10.0202359181
  0
LINE
  5
2E0
100
AcDbEntity
  8
0
100
AcDbLine
 62
4
  6
CONTINUOUS
 10
10.4592934817
 20
9.9157159645
 11
10.4592934817
 21
9.9529731089
  0
LINE
  5
2E1
100
AcDbEntity
  8
0
100
AcDbLine
 62
4
  6
CONTINUOUS
 10
9.4405866182
 20
8.0594794551
 11
9.4550755061
 21
8.0681339037
  0
LINE
  5
2E2
100
AcDbEntity
  8
0
100
AcDbLine
 62
4
  6
CONTINUOUS
 10
9.4840532819
 20
7.9598724436
 11
9.469564394
 21
7.9512179924
  0
LINE
  5
2E3
100
AcDbEntity
  8
0
100
AcDbLine
 62
4
  6
CONTINUOUS
 10
9.4623199501
 20
8.009675948
 11
9.4912977259
 21
8.0076663325
  0
LINE
  5
2E4
100
AcDbEntity
  8
0
100
AcDbLine
 62
4
  6
CONTINUOUS
 10
9.4550755061
 20
8.0681339037
 11
9.469564394
 21
8.0671290959
  0
LINE
  5
2E5
100
AcDbEntity
  8
0
100
AcDbLine
 62
4
  6
CONTINUOUS
 10
8.92347123
 20
9.1976008412
 11
8.9897061516
 21
9.159889973
  0
LINE
  5
2E6
100
AcDbEntity
  8
0
100
AcDbLine
 62
4
  6
CONTINUOUS
 10
8.8323983214
 20
10.0285415271
 11
8.8448173695
 21
10.0152612151
  0
LINE
  5
2E7
100
AcDbEntity
  8
0
100
AcDbLine
 62
4
  6
CONTINUOUS
 10
9.7638268097
 20
9.0648076976
 11
9.7389887264
 21
9.0913683208
  0
LINE
  5
2E8
100
AcDbEntity
  8
0
100
AcDbLine
 62
4
  6
CONTINUOUS
 10
8.9690078417
 20
10.0314866728
 11
8.9938459353
 21
10.0049260489
  0
LINE
  5
2E9
100
AcDbEntity
  8
0
100
AcDbLine
 62
4
  6
CONTINUOUS
 10
9.9087156427
 20
9.0547596229
 11
9.8838775594
 21
9.0813202461
  0
LINE
  5
2EA
100
AcDbEntity
  8
0
100
AcDbLine
 62
4
  6
CONTINUOUS
 10
8.9069126076
 20
10.1848215616
 11
8.9193316544
 21
10.1715412458
  0
LINE
  5
2EB
100
AcDbEntity
  8
0
100
AcDbLine
 62
4
  6
CONTINUOUS
 10
9.9211348169
 20
10.0399707316
 11
9.9087158167
 21
10.0656700858
  0
LINE
  5
2EC
100
AcDbEntity
  8
0
100
AcDbLine
 62
7
  6
CONTINUOUS
 10
13.5095494033
 20
11.227583108
 11
14.2860058978
 21
11.9775825335
  0
LINE
  5
2ED
100
AcDbEntity
  8
0
100
AcDbLine
 62
4
  6
CONTINUOUS
 10
8.9193316544
 20
10.0597698244
 11
8.8323983214
 21
10.1403129576
  0
LINE
  5
2EE
100
AcDbEntity
  8
0
100
AcDbLine
 62
4
  6
CONTINUOUS
 10
9.9459728091
 20
9.2260424956
 11
9.9708108924
 21
9.199481875
  0
LINE
  5
2EF
100
AcDbEntity
  8
0
100
AcDbLine
 62
4
  6
CONTINUOUS
 10
10.0825823086
 20
9.2165685946
 11
10.1074203919
 21
9.1900079741
  0
LINE
  5
2F0
100
AcDbEntity
  8
0
100
AcDbLine
 62
4
  6
CONTINUOUS
 10
9.4409316522
 20
10.0981110278
 11
9.4533506939
 21
10.0848307123
  0
LINE
  5
2F1
100
AcDbEntity
  8
0
100
AcDbLine
 62
4
  6
CONTINUOUS
 10
9.7845253174
 20
10.0742827262
 11
9.7928046508
 21
10.0612895005
  0
LINE
  5
2F2
100
AcDbEntity
  8
0
100
AcDbLine
 62
4
  6
CONTINUOUS
 10
13.29463089
 20
9.5327988331
 11
13.309119778
 21
9.5414532816
  0
LINE
  5
2F3
100
AcDbEntity
  8
0
100
AcDbLine
 62
4
  6
CONTINUOUS
 10
13.3380975538
 20
9.4911473707
 11
13.309119778
 21
9.4738384701
  0
LINE
  5
2F4
100
AcDbEntity
  8
0
100
AcDbLine
 62
4
  6
CONTINUOUS
 10
10.3019854744
 20
9.135118017
 11
10.3682203908
 21
9.0974071466
  0
LINE
  5
2F5
100
AcDbEntity
  8
0
100
AcDbLine
 62
4
  6
CONTINUOUS
 10
9.9708109835
 20
9.9495923408
 11
9.9832300666
 21
9.9363120264
  0
LINE
  5
2F6
100
AcDbEntity
  8
0
100
AcDbLine
 62
4
  6
CONTINUOUS
 10
10.107420566
 20
9.927699386
 11
10.0950014829
 21
9.9409797005
  0
LINE
  5
2F7
100
AcDbEntity
  8
0
100
AcDbLine
 62
7
  6
CONTINUOUS
 10
11.4299891753
 20
5.5762457985
 11
11.4299891753
 21
4.9489553939
  0
LINE
  5
2F8
100
AcDbEntity
  8
0
100
AcDbLine
 62
7
  6
CONTINUOUS
 10
11.656667905
 20
5.5605255752
 11
11.656667905
 21
4.7300009291
  0
LINE
  5
2F9
100
AcDbEntity
  8
0
100
AcDbLine
 62
7
  6
CONTINUOUS
 10
11.6948685424
 20
5.557876352
 11
11.6948685424
 21
4.7201138891
  0
LINE
  5
2FA
100
AcDbEntity
  8
0
100
AcDbLine
 62
4
  6
CONTINUOUS
 10
10.0825823086
 20
9.0427019287
 11
10.020487059
 21
9.0470082489
  0
LINE
  5
2FB
100
AcDbEntity
  8
0
100
AcDbLine
 62
4
  6
CONTINUOUS
 10
9.9459728091
 20
9.0521758297
 11
9.9087156427
 21
9.0547596229
  0
LINE
  5
2FC
100
AcDbEntity
  8
0
100
AcDbLine
 62
4
  6
CONTINUOUS
 10
9.8135029763
 20
9.0613626438
 11
9.7638268097
 21
9.0648076976
  0
LINE
  5
2FD
100
AcDbEntity
  8
0
100
AcDbLine
 62
4
  6
CONTINUOUS
 10
9.0849188439
 20
9.111890125
 11
9.022823615
 21
9.1161964437
  0
LINE
  5
2FE
100
AcDbEntity
  8
0
100
AcDbLine
 62
4
  6
CONTINUOUS
 10
9.478188686
 20
9.0846167688
 11
9.5527029773
 21
9.0794491851
  0
LINE
  5
2FF
100
AcDbEntity
  8
0
100
AcDbLine
 62
4
  6
CONTINUOUS
 10
10.177795058
 20
9.0360989021
 11
10.2523093078
 21
9.0309313213
  0
LINE
  5
300
100
AcDbEntity
  8
0
100
AcDbLine
 62
4
  6
CONTINUOUS
 10
9.1966902705
 20
9.1538149427
 11
9.262925187
 21
9.1492215356
  0
LINE
  5
301
100
AcDbEntity
  8
0
100
AcDbLine
 62
4
  6
CONTINUOUS
 10
10.2274712246
 20
9.1320062332
 11
10.177795058
 21
9.1354512871
  0
LINE
  5
302
100
AcDbEntity
  8
0
100
AcDbLine
 62
4
  6
CONTINUOUS
 10
9.5278648941
 20
9.180524097
 11
9.478188686
 21
9.1839691538
  0
LINE
  5
303
100
AcDbEntity
  8
0
100
AcDbLine
 62
4
  6
CONTINUOUS
 10
9.022823615
 20
9.2900631097
 11
9.0849188439
 21
9.2857567909
  0
LINE
  5
304
100
AcDbEntity
  8
0
100
AcDbLine
 62
4
  6
CONTINUOUS
 10
9.3291601034
 20
9.268818602
 11
9.428512478
 21
9.2619284915
  0
LINE
  5
305
100
AcDbEntity
  8
0
100
AcDbLine
 62
4
  6
CONTINUOUS
 10
9.478188686
 20
9.2584834347
 11
9.5527029773
 21
9.2533158511
  0
LINE
  5
306
100
AcDbEntity
  8
0
100
AcDbLine
 62
4
  6
CONTINUOUS
 10
9.7638268097
 20
9.2386743636
 11
9.8135029763
 21
9.2352293097
  0
LINE
  5
307
100
AcDbEntity
  8
0
100
AcDbLine
 62
4
  6
CONTINUOUS
 10
9.9087156427
 20
9.2286262889
 11
9.9459728091
 21
9.2260424956
  0
LINE
  5
308
100
AcDbEntity
  8
0
100
AcDbLine
 62
4
  6
CONTINUOUS
 10
10.020487059
 20
9.2208749148
 11
10.0825823086
 21
9.2165685946
  0
LINE
  5
309
100
AcDbEntity
  8
0
100
AcDbLine
 62
4
  6
CONTINUOUS
 10
10.177795058
 20
9.209965568
 11
10.2523093078
 21
9.2047979873
  0
LINE
  5
30A
100
AcDbEntity
  8
0
100
AcDbLine
 62
4
  6
CONTINUOUS
 10
9.6354967347
 20
9.9604274149
 11
9.6106586514
 21
9.9745689899
  0
LINE
  5
30B
100
AcDbEntity
  8
0
100
AcDbLine
 62
4
  6
CONTINUOUS
 10
9.8714586503
 20
9.9440634004
 11
9.846620567
 21
9.9582049755
  0
LINE
  5
30C
100
AcDbEntity
  8
0
100
AcDbLine
 62
4
  6
CONTINUOUS
 10
10.2854268157
 20
9.9153546107
 11
10.2730078155
 21
9.9286349194
  0
LINE
  5
30D
100
AcDbEntity
  8
0
100
AcDbLine
 62
4
  6
CONTINUOUS
 10
10.3847793147
 20
9.9208835396
 11
10.3971983149
 21
9.9076032309
  0
LINE
  5
30E
100
AcDbEntity
  8
0
100
AcDbLine
 62
4
  6
CONTINUOUS
 10
10.4468744815
 20
10.0283486556
 11
10.4592934817
 21
10.015068343
  0
LINE
  5
30F
100
AcDbEntity
  8
0
100
AcDbLine
 62
4
  6
CONTINUOUS
 10
9.4781888114
 20
9.4671234252
 11
9.5402840507
 21
9.4628171057
  0
LINE
  5
310
100
AcDbEntity
  8
0
100
AcDbLine
 62
4
  6
CONTINUOUS
 10
10.3971983149
 20
9.9738381525
 11
10.3847793147
 21
9.9829787776
  0
LINE
  5
311
100
AcDbEntity
  8
0
100
AcDbLine
 62
4
  6
CONTINUOUS
 10
10.4592934817
 20
9.9529731089
 11
10.4468744815
 21
9.962113734
  0
LINE
  5
312
100
AcDbEntity
  8
0
100
AcDbLine
 62
4
  6
CONTINUOUS
 10
13.2873864461
 20
9.5236419738
 11
13.29463089
 21
9.5327988331
  0
LINE
  5
313
100
AcDbEntity
  8
0
100
AcDbLine
 62
4
  6
CONTINUOUS
 10
13.309119778
 20
9.4738384701
 11
13.29463089
 21
9.4555247618
  0
LINE
  5
314
100
AcDbEntity
  8
0
100
AcDbLine
 62
4
  6
CONTINUOUS
 10
13.3453419978
 20
9.50030423
 11
13.3380975538
 21
9.4911473707
  0
LINE
  5
315
100
AcDbEntity
  8
0
100
AcDbLine
 62
4
  6
CONTINUOUS
 10
13.2873864461
 20
9.4270493899
 11
13.3453419978
 21
9.4230301587
  0
LINE
  5
316
100
AcDbEntity
  8
0
100
AcDbLine
 62
4
  6
CONTINUOUS
 10
13.309119778
 20
9.5414532816
 11
13.3236086659
 21
9.5404484738
  0
LINE
  5
317
100
AcDbEntity
  8
0
100
AcDbLine
 62
4
  6
CONTINUOUS
 10
9.5030269019
 20
9.9282174036
 11
9.5278649852
 21
9.9264948767
  0
LINE
  5
318
100
AcDbEntity
  8
0
100
AcDbLine
 62
4
  6
CONTINUOUS
 10
10.3351031481
 20
9.9119095453
 11
10.2854268157
 21
9.9153546107
  0
LINE
  5
319
100
AcDbEntity
  8
0
100
AcDbLine
 62
4
  6
CONTINUOUS
 10
10.1322586493
 20
9.9259768591
 11
10.107420566
 21
9.927699386
  0
LINE
  5
31A
100
AcDbEntity
  8
0
100
AcDbLine
 62
4
  6
CONTINUOUS
 10
9.9211348169
 20
9.9406183466
 11
9.8714586503
 21
9.9440634004
  0
LINE
  5
31B
100
AcDbEntity
  8
0
100
AcDbLine
 62
4
  6
CONTINUOUS
 10
9.6851729013
 20
9.956982361
 11
9.6354967347
 21
9.9604274149
  0
LINE
  5
31C
100
AcDbEntity
  8
0
100
AcDbLine
 62
4
  6
CONTINUOUS
 10
8.8448173695
 20
10.0152612151
 11
8.8944935607
 21
10.0118161595
  0
LINE
  5
31D
100
AcDbEntity
  8
0
100
AcDbLine
 62
4
  6
CONTINUOUS
 10
8.9938459353
 20
10.0049260489
 11
9.0311030914
 21
10.0023422564
  0
LINE
  5
31E
100
AcDbEntity
  8
0
100
AcDbLine
 62
4
  6
CONTINUOUS
 10
9.9832300666
 20
9.9363120264
 11
10.0453253163
 21
9.9320057062
  0
LINE
  5
31F
100
AcDbEntity
  8
0
100
AcDbLine
 62
4
  6
CONTINUOUS
 10
10.3971983149
 20
9.9076032309
 11
10.4468744815
 21
9.904158177
  0
LINE
  5
320
100
AcDbEntity
  8
0
100
AcDbLine
 62
4
  6
CONTINUOUS
 10
10.4468744815
 20
9.962113734
 11
10.3971983149
 21
9.9738381525
  0
LINE
  5
321
100
AcDbEntity
  8
0
100
AcDbLine
 62
7
  6
CONTINUOUS
 10
12.5408444304
 20
5.4992077249
 11
12.5408444304
 21
4.661445262
  0
LINE
  5
322
100
AcDbEntity
  8
0
100
AcDbLine
 62
7
  6
CONTINUOUS
 10
12.5930274569
 20
5.4955888198
 11
12.5930274569
 21
4.6650641736
  0
LINE
  5
323
100
AcDbEntity
  8
0
100
AcDbLine
 62
4
  6
CONTINUOUS
 10
9.8714586503
 20
10.0061586398
 11
9.9211348169
 21
10.0027135859
  0
LINE
  5
324
100
AcDbEntity
  8
0
100
AcDbLine
 62
4
  6
CONTINUOUS
 10
9.9087158167
 20
10.0656700858
 11
9.846620567
 21
10.069976406
  0
LINE
  5
325
100
AcDbEntity
  8
0
100
AcDbLine
 62
4
  6
CONTINUOUS
 10
9.3788364025
 20
10.102417348
 11
9.4409316522
 21
10.0981110278
  0
LINE
  5
326
100
AcDbEntity
  8
0
100
AcDbLine
 62
4
  6
CONTINUOUS
 10
9.6354967347
 20
10.0846178935
 11
9.6851729013
 21
10.0811728396
  0
LINE
  5
327
100
AcDbEntity
  8
0
100
AcDbLine
 62
4
  6
CONTINUOUS
 10
9.7348491508
 20
10.07772778
 11
9.7845253174
 21
10.0742827262
  0
LINE
  5
328
100
AcDbEntity
  8
0
100
AcDbLine
 62
4
  6
CONTINUOUS
 10
10.2854268157
 20
10.0395450893
 11
10.3351031481
 21
10.0361000239
  0
LINE
  5
329
100
AcDbEntity
  8
0
100
AcDbLine
 62
4
  6
CONTINUOUS
 10
10.3971983149
 20
10.0317937095
 11
10.4468744815
 21
10.0283486556
  0
LINE
  5
32A
100
AcDbEntity
  8
0
100
AcDbLine
 62
4
  6
CONTINUOUS
 10
8.8572364177
 20
10.1882666171
 11
8.9069126076
 21
10.1848215616
  0
LINE
  5
32B
100
AcDbEntity
  8
0
100
AcDbLine
 62
4
  6
CONTINUOUS
 10
10.2067728991
 20
10.0946759442
 11
10.2109125659
 21
10.0943888574
  0
LINE
  5
32C
100
AcDbEntity
  8
0
100
AcDbLine
 62
4
  6
CONTINUOUS
 10
13.29463089
 20
9.4555247618
 11
13.2873864461
 21
9.4270493899
  0
LINE
  5
32D
100
AcDbEntity
  8
0
100
AcDbLine
 62
7
  6
CONTINUOUS
 10
13.2123246153
 20
5.452640416
 11
13.2123246153
 21
4.8253500114
  0
LINE
  5
32E
100
AcDbEntity
  8
0
100
AcDbLine
 62
7
  6
CONTINUOUS
 10
13.2263070043
 20
5.451670734
 11
13.2263070043
 21
4.8388559629
  0
LINE
  5
32F
100
AcDbEntity
  8
0
100
AcDbLine
 62
4
  6
CONTINUOUS
 10
13.3453419978
 20
9.5196227426
 11
13.3453419978
 21
9.50030423
  0
LINE
  5
330
100
AcDbEntity
  8
0
100
AcDbLine
 62
4
  6
CONTINUOUS
 10
13.3236086659
 20
9.5404484738
 11
13.3380975538
 21
9.5297844097
  0
LINE
  5
331
100
AcDbEntity
  8
0
100
AcDbLine
 62
7
  6
CONTINUOUS
 10
13.5095494033
 20
5.4320278069
 11
13.5095494033
 21
11.227583108
  0
LINE
  5
332
100
AcDbEntity
  8
0
100
AcDbLine
 62
4
  6
CONTINUOUS
 10
13.3380975538
 20
9.5297844097
 11
13.3453419978
 21
9.5196227426
  0
LINE
  5
333
100
AcDbEntity
  8
0
100
AcDbLine
 62
7
  6
CONTINUOUS
 10
7.7139941022
 20
11.6295062333
 11
13.5095494033
 21
11.227583108
  0
LINE
  5
334
100
AcDbEntity
  8
0
100
AcDbLine
 62
7
  6
CONTINUOUS
 10
14.2860058978
 20
6.1820272324
 11
14.2860058978
 21
11.9775825335
  0
LINE
  5
335
100
AcDbEntity
  8
0
100
AcDbLine
 62
7
  6
CONTINUOUS
 10
14.2860058978
 20
11.9775825335
 11
8.4904505967
 21
12.3795056588
  0
LINE
  5
336
100
AcDbEntity
  8
0
100
AcDbLine
 62
7
  6
CONTINUOUS
 10
13.5095494033
 20
5.4320278069
 11
14.2860058978
 21
6.1820272324
  0
LINE
  5
337
100
AcDbEntity
  8
0
100
AcDbLine
 62
7
  6
CONTINUOUS
 10
13.0828402821
 20
4.7519727754
 11
13.0429743098
 21
4.7322797483
  0
ARC
  5
338
100
AcDbEntity
  8
0
100
AcDbCircle
 62
7
  6
CONTINUOUS
 10
12.3438563002
 20
7.879959709
 40
3.2245371092
100
AcDbArc
 50
273.5024005705
 51
274.4318614998
  0
ARC
  5
339
100
AcDbEntity
  8
0
100
AcDbCircle
 62
7
  6
CONTINUOUS
 10
12.028265313
 20
6.0870033044
 40
1.4069612931
100
AcDbArc
 50
254.6857191954
 51
256.2926786396
  0
ARC
  5
33A
100
AcDbEntity
  8
0
100
AcDbCircle
 62
7
  6
CONTINUOUS
 10
12.590360428
 20
5.7467743153
 40
1.1100294815
100
AcDbArc
 50
294.0424242342
 51
296.3106753905
  0
ARC
  5
33B
100
AcDbEntity
  8
0
100
AcDbCircle
 62
7
  6
CONTINUOUS
 10
13.0964499159
 20
4.9597670998
 40
0.1774680242
100
AcDbArc
 50
310.7630914438
 51
313.9856916518
  0
ARC
  5
33C
100
AcDbEntity
  8
0
100
AcDbCircle
 62
7
  6
CONTINUOUS
 10
13.1145627645
 20
4.9411844553
 40
0.1515186308
100
AcDbArc
 50
313.9375979844
 51
317.5184669644
  0
ARC
  5
33D
100
AcDbEntity
  8
0
100
AcDbCircle
 62
7
  6
CONTINUOUS
 10
13.6273652501
 20
9.1188926685
 40
0.1500839697
100
AcDbArc
 50
313.1574843461
 51
314.0085247664
  0
SPLINE
  5
33E
100
AcDbEntity
  8
0
100
AcDbSpline
 62
7
  6
CONTINUOUS
 70
0
 71
3
 72
9
 73
5
 74
0
 42
0.0000001
 43
0.0000001
 44
0.0000000001
 40
0.0
 40
0.0
 40
0.0
 40
0.0
 40
0.5047194233
 40
1.0
 40
1.0
 40
1.0
 40
1.0
 10
13.2123246153
 20
4.8253500114
 30
0.0
 10
13.1910857737
 20
4.8119058437
 30
0.0
 10
13.1484332913
 20
4.7861572957
 30
0.0
 10
13.1044808301
 20
4.7626685529
 30
0.0
 10
13.0823679163
 20
4.7517396018
 30
0.0
  0
SPLINE
  5
33F
100
AcDbEntity
  8
0
100
AcDbSpline
 62
7
  6
CONTINUOUS
 70
0
 71
3
 72
20
 73
16
 74
0
 42
0.0000001
 43
0.0000001
 44
0.0000000001
 40
0.0
 40
0.0
 40
0.0
 40
0.0
 40
0.1321092246
 40
0.2654630393
 40
0.3983965104
 40
0.4641824508
 40
0.5292377163
 40
0.593358461
 40
0.6563452314
 40
0.7180031916
 40
0.7781436148
 40
0.8365831781
 40
0.8931456382
 40
0.9476711375
 40
1.0
 40
1.0
 40
1.0
 40
1.0
 10
12.5144790491
 20
5.5008111338
 30
0.0
 10
12.4791262719
 20
5.4989252977
 30
0.0
 10
12.4080235627
 20
5.4962523051
 30
0.0
 10
12.3012483252
 20
5.4954598344
 30
0.0
 10
12.2122657953
 20
5.4974643803
 30
0.0
 10
12.1416496297
 20
5.5006829118
 30
0.0
 10
12.0894985588
 20
5.5038768476
 30
0.0
 10
12.0381533043
 20
5.5078483863
 30
0.0
 10
11.9877870411
 20
5.5125835412
 30
0.0
 10
11.9385696632
 20
5.5180665447
 30
0.0
 10
11.8906673151
 20
5.5242787163
 30
0.0
 10
11.8442419884
 20
5.5311984572
 30
0.0
 10
11.799448994
 20
5.5388027351
 30
0.0
 10
11.7564391122
 20
5.547065522
 30
0.0
 10
11.7284488993
 20
5.5531248926
 30
0.0
 10
11.7147829448
 20
5.556270247
 30
0.0
  0
SPLINE
  5
340
100
AcDbEntity
  8
0
100
AcDbSpline
 62
7
  6
CONTINUOUS
 70
0
 71
3
 72
22
 73
18
 74
0
 42
0.0000001
 43
0.0000001
 44
0.0000000001
 40
0.0
 40
0.0
 40
0.0
 40
0.0
 40
0.043290989
 40
0.0886107636
 40
0.1362169549
 40
0.1863255266
 40
0.2391104607
 40
0.2946904167
 40
0.3531382065
 40
0.4144717324
 40
0.4786700373
 40
0.5456687108
 40
0.6153767118
 40
0.6876754969
 40
0.7624330017
 40
0.8395067268
 40
1.0
 40
1.0
 40
1.0
 40
1.0
 10
11.590583236
 20
4.7435123377
 30
0.0
 10
11.5871573149
 20
4.7452032675
 30
0.0
 10
11.5802786846
 20
4.7489415462
 30
0.0
 10
11.5701570684
 20
4.7554449868
 30
0.0
 10
11.5600218935
 20
4.7629850659
 30
0.0
 10
11.5498801019
 20
4.7715736171
 30
0.0
 10
11.5397396437
 20
4.7812152244
 30
0.0
 10
11.5296060167
 20
4.791901889
 30
0.0
 10
11.5194874384
 20
4.803618154
 30
0.0
 10
11.5093885648
 20
4.8163369893
 30
0.0
 10
11.4993167292
 20
4.8300253123
 30
0.0
 10
11.4892755308
 20
4.8446414043
 30
0.0
 10
11.4792705603
 20
4.8601398733
 30
0.0
 10
11.4693042194
 20
4.876470472
 30
0.0
 10
11.4593797504
 20
4.8935820285
 30
0.0
 10
11.4460244773
 20
4.9176949623
 30
0.0
 10
11.4363534221
 20
4.9363019839
 30
0.0
 10
11.4299891753
 20
4.9489553939
 30
0.0
  0
SPLINE
  5
341
100
AcDbEntity
  8
0
100
AcDbSpline
 62
7
  6
CONTINUOUS
 70
0
 71
3
 72
44
 73
40
 74
0
 42
0.0000001
 43
0.0000001
 44
0.0000000001
 40
0.0
 40
0.0
 40
0.0
 40
0.0
 40
0.0099876068
 40
0.0204481328
 40
0.0313777713
 40
0.0427716128
 40
0.0546230022
 40
0.0669238486
 40
0.0928367361
 40
0.1204276867
 40
0.1495993488
 40
0.1802415992
 40
0.2122347844
 40
0.245450041
 40
0.2797506656
 40
0.3149938309
 40
0.3510305798
 40
0.3877077822
 40
0.4248684878
 40
0.4623529989
 40
0.4999999298
 40
0.5376468374
 40
0.5751314242
 40
0.6122921181
 40
0.648969408
 40
0.6850062269
 40
0.7202493743
 40
0.7545502416
 40
0.7877654604
 40
0.8197588508
 40
0.850401261
 40
0.8795728912
 40
0.9071642206
 40
0.9330770798
 40
0.9572281891
 40
0.9686219233
 40
0.9795517753
 40
0.9900123903
 40
1.0
 40
1.0
 40
1.0
 40
1.0
 10
13.0429717753
 20
4.7322784853
 30
0.0
 10
13.0386233586
 20
4.7301305152
 30
0.0
 10
13.0296463028
 20
4.7258821069
 30
0.0
 10
13.015683977
 20
4.7197762913
 30
0.0
 10
13.0009279085
 20
4.7137960995
 30
0.0
 10
12.985394991
 20
4.7079491063
 30
0.0
 10
12.9691030464
 20
4.702241829
 30
0.0
 10
12.9459905244
 20
4.6946955797
 30
0.0
 10
12.9153197765
 20
4.6856985864
 30
0.0
 10
12.8764211694
 20
4.6757360872
 30
0.0
 10
12.834993265
 20
4.6664765633
 30
0.0
 10
12.7912268842
 20
4.6579623153
 30
0.0
 10
12.7453230655
 20
4.6502338453
 30
0.0
 10
12.697493252
 20
4.643327361
 30
0.0
 10
12.6479579592
 20
4.6372746875
 30
0.0
 10
12.5969457103
 20
4.63210491
 30
0.0
 10
12.5446919581
 20
4.6278415083
 30
0.0
 10
12.4914380039
 20
4.6245047066
 30
0.0
 10
12.4374297486
 20
4.6221102699
 30
0.0
 10
12.3829166674
 20
4.6206688106
 30
0.0
 10
12.3281505789
 20
4.620187768
 30
0.0
 10
12.273384457
 20
4.620668843
 30
0.0
 10
12.2188713442
 20
4.6221099206
 30
0.0
 10
12.1648630262
 20
4.6245046099
 30
0.0
 10
12.1116089825
 20
4.6278410785
 30
0.0
 10
12.0593551555
 20
4.632104441
 30
0.0
 10
12.0083427785
 20
4.637274341
 30
0.0
 10
11.9588073392
 20
4.6433265697
 30
0.0
 10
11.9109773612
 20
4.6502333416
 30
0.0
 10
11.8650733509
 20
4.6579615304
 30
0.0
 10
11.8213067308
 20
4.666475654
 30
0.0
 10
11.7798788
 20
4.6757354826
 30
0.0
 10
11.7409793344
 20
4.6856972679
 30
0.0
 10
11.7047871246
 20
4.6963153348
 30
0.0
 10
11.676494399
 20
4.7058439862
 30
0.0
 10
11.6553711659
 20
4.713795121
 30
0.0
 10
11.6406148388
 20
4.7197750161
 30
0.0
 10
11.6266523015
 20
4.7258807113
 30
0.0
 10
11.6176753315
 20
4.7301294107
 30
0.0
 10
11.613326928
 20
4.7322774106
 30
0.0
  0
SPLINE
  5
342
100
AcDbEntity
  8
0
100
AcDbSpline
 62
7
  6
CONTINUOUS
 70
0
 71
3
 72
21
 73
17
 74
0
 42
0.0000001
 43
0.0000001
 44
0.0000000001
 40
0.0
 40
0.0
 40
0.0
 40
0.0
 40
0.1229683586
 40
0.1846291852
 40
0.2464222231
 40
0.3083594657
 40
0.3704517377
 40
0.4327079591
 40
0.49513282
 40
0.557727432
 40
0.6204888849
 40
0.6834099387
 40
0.7464809678
 40
0.8096898189
 40
0.8730228
 40
1.0
 40
1.0
 40
1.0
 40
1.0
 10
12.5408444304
 20
4.661445262
 30
0.0
 10
12.5063323438
 20
4.6543851736
 30
0.0
 10
12.4542316701
 20
4.6450734767
 30
0.0
 10
12.3842434425
 20
4.635785853
 30
0.0
 10
12.331386184
 20
4.6305126317
 30
0.0
 10
12.2782533025
 20
4.6270748586
 30
0.0
 10
12.2248959517
 20
4.6255896084
 30
0.0
 10
12.1713803571
 20
4.6261499528
 30
0.0
 10
12.1177835999
 20
4.628811923
 30
0.0
 10
12.0641886735
 20
4.6335894277
 30
0.0
 10
12.0106785281
 20
4.6404565381
 30
0.0
 10
11.9573296356
 20
4.6493461391
 30
0.0
 10
11.9042071143
 20
4.6601558799
 30
0.0
 10
11.8513614401
 20
4.6727614931
 30
0.0
 10
11.7812642316
 20
4.6917906726
 30
0.0
 10
11.7292732003
 20
4.708303835
 30
0.0
 10
11.6948685424
 20
4.7201138891
 30
0.0
  0
SPLINE
  5
343
100
AcDbEntity
  8
0
100
AcDbSpline
 62
7
  6
CONTINUOUS
 70
0
 71
3
 72
11
 73
7
 74
0
 42
0.0000001
 43
0.0000001
 44
0.0000000001
 40
0.0
 40
0.0
 40
0.0
 40
0.0
 40
0.2458672335
 40
0.4933492082
 40
0.7440905688
 40
1.0
 40
1.0
 40
1.0
 40
1.0
 10
11.656667905
 20
4.7300009291
 30
0.0
 10
11.6531881975
 20
4.7298048338
 30
0.0
 10
11.6461885184
 20
4.729665486
 30
0.0
 10
11.6356476444
 20
4.7302790463
 30
0.0
 10
11.6250509004
 20
4.7317767009
 30
0.0
 10
11.6180407849
 20
4.733385422
 30
0.0
 10
11.6145428881
 20
4.7343466964
 30
0.0
  0
LINE
  5
344
100
AcDbEntity
  8
0
100
AcDbLine
 62
7
  6
CONTINUOUS
 10
11.6145428881
 20
4.7343466964
 11
11.6141423428
 21
4.7344574718
  0
SPLINE
  5
345
100
AcDbEntity
  8
0
100
AcDbSpline
 62
7
  6
CONTINUOUS
 70
0
 71
3
 72
9
 73
5
 74
0
 42
0.0000001
 43
0.0000001
 44
0.0000000001
 40
0.0
 40
0.0
 40
0.0
 40
0.0
 40
0.4899125641
 40
1.0
 40
1.0
 40
1.0
 40
1.0
 10
11.6141423428
 20
4.7344574718
 30
0.0
 10
11.6101672059
 20
4.7355637865
 30
0.0
 10
11.6021584134
 20
4.7382164174
 30
0.0
 10
11.5944356736
 20
4.7416108925
 30
0.0
 10
11.590583236
 20
4.7435123377
 30
0.0
  0
LINE
  5
346
100
AcDbEntity
  8
0
100
AcDbLine
 62
7
  6
CONTINUOUS
 10
13.0426008241
 20
4.7330465048
 11
13.0413919365
 21
4.7325089386
  0
SPLINE
  5
347
100
AcDbEntity
  8
0
100
AcDbSpline
 62
7
  6
CONTINUOUS
 70
0
 71
3
 72
15
 73
11
 74
0
 42
0.0000001
 43
0.0000001
 44
0.0000000001
 40
0.0
 40
0.0
 40
0.0
 40
0.0
 40
0.1323763415
 40
0.2621392813
 40
0.3894055944
 40
0.5144404382
 40
0.637615975
 40
0.7593469011
 40
0.8800294664
 40
1.0
 40
1.0
 40
1.0
 40
1.0
 10
13.0413919365
 20
4.7325089386
 30
0.0
 10
13.0228724351
 20
4.7242878518
 30
0.0
 10
12.9857099596
 20
4.709076528
 30
0.0
 10
12.9291317709
 20
4.6901800352
 30
0.0
 10
12.8724296697
 20
4.6756520524
 30
0.0
 10
12.8157990277
 20
4.6655448148
 30
0.0
 10
12.7594242643
 20
4.6597227237
 30
0.0
 10
12.7034521589
 20
4.6578933792
 30
0.0
 10
12.647978502
 20
4.6596629814
 30
0.0
 10
12.6112698076
 20
4.6629597139
 30
0.0
 10
12.5930274569
 20
4.6650641736
 30
0.0
  0
SPLINE
  5
348
100
AcDbEntity
  8
0
100
AcDbSpline
 62
7
  6
CONTINUOUS
 70
0
 71
3
 72
11
 73
7
 74
0
 42
0.0000001
 43
0.0000001
 44
0.0000000001
 40
0.0
 40
0.0
 40
0.0
 40
0.0
 40
0.2315260015
 40
0.4751362712
 40
0.7311948782
 40
1.0
 40
1.0
 40
1.0
 40
1.0
 10
10.668687422
 20
11.8265209887
 30
0.0
 10
10.6660847792
 20
11.8240070287
 30
0.0
 10
10.6605923696
 20
11.8190028243
 30
0.0
 10
10.6517582443
 20
11.8117466988
 30
0.0
 10
10.6421306546
 20
11.8045596279
 30
0.0
 10
10.6353547271
 20
11.7999314988
 30
0.0
 10
10.6318419909
 20
11.7976270535
 30
0.0
  0
SPLINE
  5
349
100
AcDbEntity
  8
0
100
AcDbSpline
 62
7
  6
CONTINUOUS
 70
0
 71
3
 72
61
 73
57
 74
0
 42
0.0000001
 43
0.0000001
 44
0.0000000001
 40
0.0
 40
0.0
 40
0.0
 40
0.0
 40
0.0088593341
 40
0.0182564803
 40
0.0281949024
 40
0.0386747794
 40
0.0496934608
 40
0.0612458534
 40
0.0733247631
 40
0.0859211605
 40
0.0990243614
 40
0.1126221907
 40
0.1267011572
 40
0.1412465644
 40
0.1562425835
 40
0.1716723729
 40
0.1875181664
 40
0.2037613204
 40
0.2203823798
 40
0.2373611621
 40
0.2546768051
 40
0.2723077998
 40
0.2902320639
 40
0.3084269944
 40
0.3455355041
 40
0.3834441963
 40
0.4219578299
 40
0.4608770426
 40
0.4999997271
 40
0.5391224142
 40
0.5780416346
 40
0.6165552809
 40
0.654463991
 40
0.6915725234
 40
0.709767467
 40
0.7276917453
 40
0.7453227554
 40
0.7626384149
 40
0.7796172148
 40
0.7962382928
 40
0.8124814665
 40
0.8283272805
 40
0.8437570915
 40
0.8587531329
 40
0.8732985633
 40
0.8873775538
 40
0.9009754078
 40
0.914078634
 40
0.9266750574
 40
0.9387539934
 40
0.9503064131
 40
0.9613251215
 40
0.9718050249
 40
0.9817434782
 40
0.9911406462
 40
1.0
 40
1.0
 40
1.0
 40
1.0
 10
10.6318419909
 20
11.7976270535
 30
0.0
 10
10.6269815246
 20
11.7944384626
 30
0.0
 10
10.6167951586
 20
11.7881249467
 30
0.0
 10
10.6006501459
 20
11.7790821467
 30
0.0
 10
10.5832135617
 20
11.7702012264
 30
0.0
 10
10.5645096135
 20
11.7614946051
 30
0.0
 10
10.5445636411
 20
11.7529741661
 30
0.0
 10
10.5234030641
 20
11.7446516998
 30
0.0
 10
10.5010570034
 20
11.7365387559
 30
0.0
 10
10.4775563002
 20
11.7286466662
 30
0.0
 10
10.4529334675
 20
11.7209864568
 30
0.0
 10
10.4272226419
 20
11.7135688193
 30
0.0
 10
10.4004594973
 20
11.7064041405
 30
0.0
 10
10.3726811997
 20
11.6995024735
 30
0.0
 10
10.3439263709
 20
11.6928734636
 30
0.0
 10
10.3142350104
 20
11.6865263891
 30
0.0
 10
10.2836484275
 20
11.6804701551
 30
0.0
 10
10.2522092001
 20
11.674713245
 30
0.0
 10
10.2199611132
 20
11.6692637015
 30
0.0
 10
10.1869490795
 20
11.6641291597
 30
0.0
 10
10.1532190784
 20
11.6593168234
 30
0.0
 10
10.1188181196
 20
11.6548334208
 30
0.0
 10
10.0837940982
 20
11.6506851821
 30
0.0
 10
10.0360175708
 20
11.6455756344
 30
0.0
 10
9.9750986108
 20
11.6400834228
 30
0.0
 10
9.9007776102
 20
11.6349514181
 30
0.0
 10
9.8251814076
 20
11.6312649072
 30
0.0
 10
9.7487312589
 20
11.6290446477
 30
0.0
 10
9.6718528834
 20
11.6283031399
 30
0.0
 10
9.5949745026
 20
11.6290446102
 30
0.0
 10
9.5185243376
 20
11.6312648325
 30
0.0
 10
9.4429281081
 20
11.6349513065
 30
0.0
 10
9.36860707
 20
11.6400832749
 30
0.0
 10
9.3076880719
 20
11.6455754567
 30
0.0
 10
9.259911509
 20
11.6506849808
 30
0.0
 10
9.2248874573
 20
11.6548332024
 30
0.0
 10
9.1904864658
 20
11.6593165882
 30
0.0
 10
9.1567564296
 20
11.6641289081
 30
0.0
 10
9.1237443584
 20
11.6692634337
 30
0.0
 10
9.0914962317
 20
11.6747129615
 30
0.0
 10
9.0600569622
 20
11.6804698562
 30
0.0
 10
9.0294703351
 20
11.6865260752
 30
0.0
 10
8.9997789283
 20
11.6928731353
 30
0.0
 10
8.9710240511
 20
11.6995021311
 30
0.0
 10
8.9432457031
 20
11.7064037846
 30
0.0
 10
8.9164825061
 20
11.7135684504
 30
0.0
 10
8.8907716264
 20
11.7209860753
 30
0.0
 10
8.8661487378
 20
11.7286462727
 30
0.0
 10
8.842647977
 20
11.736538351
 30
0.0
 10
8.820301857
 20
11.7446512838
 30
0.0
 10
8.7991412192
 20
11.75297374
 30
0.0
 10
8.7791951855
 20
11.7614941695
 30
0.0
 10
8.7604911712
 20
11.7702007804
 30
0.0
 10
8.7430545258
 20
11.7790816953
 30
0.0
 10
8.7269094517
 20
11.7881244825
 30
0.0
 10
8.7167230429
 20
11.7944379815
 30
0.0
 10
8.7118625595
 20
11.79762657
 30
0.0
  0
SPLINE
  5
34A
100
AcDbEntity
  8
0
100
AcDbSpline
 62
7
  6
CONTINUOUS
 70
0
 71
3
 72
23
 73
19
 74
0
 42
0.0000001
 43
0.0000001
 44
0.0000000001
 40
0.0
 40
0.0
 40
0.0
 40
0.0
 40
0.0824087936
 40
0.1615983232
 40
0.2376250329
 40
0.3105600017
 40
0.3804913954
 40
0.4475256907
 40
0.5117913173
 40
0.5734397359
 40
0.6326493681
 40
0.6896266589
 40
0.744608831
 40
0.7978641756
 40
0.8496918426
 40
0.9004195812
 40
0.950399138
 40
1.0
 40
1.0
 40
1.0
 40
1.0
 10
8.7118625595
 20
11.79762657
 30
0.0
 10
8.7089549667
 20
11.7995340175
 30
0.0
 10
8.7033106328
 20
11.8033628159
 30
0.0
 10
8.6952075289
 20
11.8092723951
 30
0.0
 10
8.6876419635
 20
11.8152300815
 30
0.0
 10
8.6806181699
 20
11.8212327502
 30
0.0
 10
8.6741398818
 20
11.8272772677
 30
0.0
 10
8.6682107455
 20
11.8333606884
 30
0.0
 10
8.6628339656
 20
11.8394798807
 30
0.0
 10
8.6580127568
 20
11.8456319791
 30
0.0
 10
8.6537499108
 20
11.8518138978
 30
0.0
 10
8.650048285
 20
11.8580227211
 30
0.0
 10
8.6469104295
 20
11.8642553065
 30
0.0
 10
8.6443388546
 20
11.8705084498
 30
0.0
 10
8.6423358938
 20
11.8767786142
 30
0.0
 10
8.6409034903
 20
11.8830621587
 30
0.0
 10
8.6400434105
 20
11.8893542729
 30
0.0
 10
8.6398519098
 20
11.8935587488
 30
0.0
 10
8.6398519102
 20
11.8956517662
 30
0.0
  0
SPLINE
  5
34B
100
AcDbEntity
  8
0
100
AcDbSpline
 62
7
  6
CONTINUOUS
 70
0
 71
3
 72
18
 73
14
 74
0
 42
0.0000001
 43
0.0000001
 44
0.0000000001
 40
0.0
 40
0.0
 40
0.0
 40
0.0
 40
0.150467608
 40
0.291710008
 40
0.4244359371
 40
0.549562455
 40
0.6682139939
 40
0.7255497488
 40
0.7817912909
 40
0.8371402503
 40
0.8918093826
 40
0.9460201179
 40
1.0
 40
1.0
 40
1.0
 40
1.0
 10
13.8977776506
 20
10.8481947057
 30
0.0
 10
13.9008704877
 20
10.8511821572
 30
0.0
 10
13.9070517705
 20
10.856787385
 30
0.0
 10
13.916623437
 20
10.864257308
 30
0.0
 10
13.926183861
 20
10.8705047749
 30
0.0
 10
13.9357231443
 20
10.8755195312
 30
0.0
 10
13.9437408069
 20
10.8786994528
 30
0.0
 10
13.9501064768
 20
10.8805887719
 30
0.0
 10
13.9548129228
 20
10.8816777486
 30
0.0
 10
13.9595037546
 20
10.8824538902
 30
0.0
 10
13.9641776582
 20
10.8829169221
 30
0.0
 10
13.9688327743
 20
10.8830666032
 30
0.0
 10
13.9719254995
 20
10.882957217
 30
0.0
 10
13.9734644392
 20
10.8828504978
 30
0.0
  0
SPLINE
  5
34C
100
AcDbEntity
  8
0
100
AcDbSpline
 62
7
  6
CONTINUOUS
 70
0
 71
3
 72
15
 73
11
 74
0
 42
0.0000001
 43
0.0000001
 44
0.0000000001
 40
0.0
 40
0.0
 40
0.0
 40
0.0
 40
0.1273483438
 40
0.2538606048
 40
0.3795878922
 40
0.5046051199
 40
0.6290174392
 40
0.7529533668
 40
0.8765605676
 40
1.0
 40
1.0
 40
1.0
 40
1.0
 10
12.1360027969
 20
10.839875947
 30
0.0
 10
12.1360027969
 20
10.8336238876
 30
0.0
 10
12.1354058442
 20
10.8211521718
 30
0.0
 10
12.1327061879
 20
10.8026844745
 30
0.0
 10
12.1282297057
 20
10.7846808106
 30
0.0
 10
12.1220168405
 20
10.7673095495
 30
0.0
 10
12.1141245761
 20
10.7507309006
 30
0.0
 10
12.1046248514
 20
10.7350979663
 30
0.0
 10
12.0936070321
 20
10.7205571932
 30
0.0
 10
12.0853111525
 20
10.7116749066
 30
0.0
 10
12.080952341
 20
10.7074646528
 30
0.0
  0
SPLINE
  5
34D
100
AcDbEntity
  8
0
100
AcDbSpline
 62
7
  6
CONTINUOUS
 70
0
 71
3
 72
15
 73
11
 74
0
 42
0.0000001
 43
0.0000001
 44
0.0000000001
 40
0.0
 40
0.0
 40
0.0
 40
0.0
 40
0.1273483438
 40
0.2538606048
 40
0.3795878922
 40
0.5046051199
 40
0.6290174392
 40
0.7529533668
 40
0.8765605676
 40
1.0
 40
1.0
 40
1.0
 40
1.0
 10
9.4797066173
 20
6.1944612951
 30
0.0
 10
9.4797066173
 20
6.1882092357
 30
0.0
 10
9.4791096645
 20
6.1757375199
 30
0.0
 10
9.4764100082
 20
6.1572698226
 30
0.0
 10
9.471933526
 20
6.1392661587
 30
0.0
 10
9.4657206609
 20
6.1218948976
 30
0.0
 10
9.4578283964
 20
6.1053162488
 30
0.0
 10
9.4483286717
 20
6.0896833144
 30
0.0
 10
9.4373108524
 20
6.0751425413
 30
0.0
 10
9.4290149728
 20
6.0662602548
 30
0.0
 10
9.4246561613
 20
6.0620500009
 30
0.0
  0
SPLINE
  5
34E
100
AcDbEntity
  8
0
100
AcDbSpline
 62
7
  6
CONTINUOUS
 70
0
 71
3
 72
23
 73
19
 74
0
 42
0.0000001
 43
0.0000001
 44
0.0000000001
 40
0.0
 40
0.0
 40
0.0
 40
0.0
 40
0.0613678872
 40
0.1227180794
 40
0.1841144842
 40
0.2456255566
 40
0.307319013
 40
0.369256034
 40
0.4314851187
 40
0.494036256
 40
0.5569154543
 40
0.6200996406
 40
0.6835324977
 40
0.7471215593
 40
0.8107376547
 40
0.8742178536
 40
0.9373728984
 40
1.0
 40
1.0
 40
1.0
 40
1.0
 10
9.3066924542
 20
7.7566843045
 30
0.0
 10
9.3070993723
 20
7.7505741934
 30
0.0
 10
9.3085167491
 20
7.7383873757
 30
0.0
 10
9.3124249922
 20
7.7204073369
 30
0.0
 10
9.3180643347
 20
7.7028768316
 30
0.0
 10
9.3253644127
 20
7.6859346907
 30
0.0
 10
9.3342399356
 20
7.6697018689
 30
0.0
 10
9.3445943026
 20
7.654285261
 30
0.0
 10
9.3563230687
 20
7.6397781289
 30
0.0
 10
9.3693161928
 20
7.6262626542
 30
0.0
 10
9.3834590983
 20
7.6138124834
 30
0.0
 10
9.3986325973
 20
7.6024952525
 30
0.0
 10
9.41471187
 20
7.5923745428
 30
0.0
 10
9.4315650395
 20
7.583511028
 30
0.0
 10
9.4490515325
 20
7.5759626101
 30
0.0
 10
9.4670219445
 20
7.5697834057
 30
0.0
 10
9.4853159041
 20
7.5650221991
 30
0.0
 10
9.4976858183
 20
7.5628082409
 30
0.0
 10
9.5038762509
 20
7.5619525153
 30
0.0
  0
SPLINE
  5
34F
100
AcDbEntity
  8
0
100
AcDbSpline
 62
7
  6
CONTINUOUS
 70
0
 71
3
 72
15
 73
11
 74
0
 42
0.0000001
 43
0.0000001
 44
0.0000000001
 40
0.0
 40
0.0
 40
0.0
 40
0.0
 40
0.1273483316
 40
0.2538605887
 40
0.3795878789
 40
0.5046051138
 40
0.6290174418
 40
0.7529533759
 40
0.8765605771
 40
1.0
 40
1.0
 40
1.0
 40
1.0
 10
9.5052925237
 20
7.5393234742
 30
0.0
 10
9.5052925237
 20
7.5328250936
 30
0.0
 10
9.5046720582
 20
7.5198620119
 30
0.0
 10
9.5018660681
 20
7.500666712
 30
0.0
 10
9.497213266
 20
7.4819537193
 30
0.0
 10
9.4907556871
 20
7.4638980333
 30
0.0
 10
9.4825525583
 20
7.4466661723
 30
0.0
 10
9.4726786507
 20
7.4304172676
 30
0.0
 10
9.4612268481
 20
7.4153035332
 30
0.0
 10
9.4526041959
 20
7.4060712312
 30
0.0
 10
9.4480736905
 20
7.4016950624
 30
0.0
  0
SPLINE
  5
350
100
AcDbEntity
  8
0
100
AcDbSpline
 62
7
  6
CONTINUOUS
 70
0
 71
3
 72
41
 73
37
 74
0
 42
0.0000001
 43
0.0000001
 44
0.0000000001
 40
0.0
 40
0.0
 40
0.0
 40
0.0
 40
0.0310747051
 40
0.0623073113
 40
0.0936919989
 40
0.1252208455
 40
0.1568822151
 40
0.1886620094
 40
0.2205435949
 40
0.2525083053
 40
0.2845357889
 40
0.316604441
 40
0.348691836
 40
0.3807751761
 40
0.4128317441
 40
0.4448393548
 40
0.4767767997
 40
0.508624277
 40
0.5403638028
 40
0.5719795929
 40
0.6034584126
 40
0.6347898832
 40
0.6659667393
 40
0.6969850295
 40
0.7278442515
 40
0.7585474165
 40
0.7891010353
 40
0.8195150233
 40
0.84980252
 40
0.8649066417
 40
0.8799854015
 40
0.9100708282
 40
0.9400854833
 40
0.9550762344
 40
0.9700578784
 40
1.0
 40
1.0
 40
1.0
 40
1.0
 10
9.5052925237
 20
7.5393234742
 30
0.0
 10
9.5052925237
 20
7.5443742946
 30
0.0
 10
9.5049157218
 20
7.5545054853
 30
0.0
 10
9.503233517
 20
7.569653744
 30
0.0
 10
9.5004421928
 20
7.5847130924
 30
0.0
 10
9.496557345
 20
7.5995996727
 30
0.0
 10
9.4916003739
 20
7.614232093
 30
0.0
 10
9.4855986647
 20
7.6285299439
 30
0.0
 10
9.478585249
 20
7.6424147865
 30
0.0
 10
9.4705987183
 20
7.6558104259
 30
0.0
 10
9.4616829696
 20
7.6686433621
 30
0.0
 10
9.4518869835
 20
7.6808431799
 30
0.0
 10
9.4412645501
 20
7.6923429319
 30
0.0
 10
9.4298739794
 20
7.7030795021
 30
0.0
 10
9.4177777831
 20
7.7129939486
 30
0.0
 10
9.4050423354
 20
7.7220318241
 30
0.0
 10
9.3917375132
 20
7.7301434721
 30
0.0
 10
9.3779363173
 20
7.7372842975
 30
0.0
 10
9.3637144764
 20
7.7434150106
 30
0.0
 10
9.3491500377
 20
7.7485018424
 30
0.0
 10
9.3343229443
 20
7.7525167308
 30
0.0
 10
9.3193146033
 20
7.755437478
 30
0.0
 10
9.3042074429
 20
7.757247875
 30
0.0
 10
9.2890844709
 20
7.757937797
 30
0.0
 10
9.2740288071
 20
7.7575032588
 30
0.0
 10
9.2591232917
 20
7.7559464739
 30
0.0
 10
9.2444498063
 20
7.7532757454
 30
0.0
 10
9.2300896606
 20
7.7495058282
 30
0.0
 10
9.2184370192
 20
7.7454607076
 30
0.0
 10
9.2093543154
 20
7.7416989177
 30
0.0
 10
9.2004555072
 20
7.7375984824
 30
0.0
 10
9.1896656248
 20
7.7318347563
 30
0.0
 10
9.1793760685
 20
7.7252453977
 30
0.0
 10
9.1714903303
 20
7.7195072105
 30
0.0
 10
9.1638480063
 20
7.7134684759
 30
0.0
 10
9.1583910396
 20
7.7086016397
 30
0.0
 10
9.154890634
 20
7.7052204792
 30
0.0
  0
SPLINE
  5
351
100
AcDbEntity
  8
0
100
AcDbSpline
 62
7
  6
CONTINUOUS
 70
0
 71
3
 72
11
 73
7
 74
0
 42
0.0000001
 43
0.0000001
 44
0.0000000001
 40
0.0
 40
0.0
 40
0.0
 40
0.0
 40
0.2531294361
 40
0.5035870251
 40
0.7522459429
 40
1.0
 40
1.0
 40
1.0
 40
1.0
 10
8.716864554
 20
11.7946134468
 30
0.0
 10
8.7165314103
 20
11.7959408306
 30
0.0
 10
8.715946219
 20
11.7986018198
 30
0.0
 10
8.7153150345
 20
11.8026220805
 30
0.0
 10
8.7149361585
 20
11.8066447627
 30
0.0
 10
8.7148519106
 20
11.8093293828
 30
0.0
 10
8.7148519172
 20
11.8106688719
 30
0.0
  0
SPLINE
  5
352
100
AcDbEntity
  8
0
100
AcDbSpline
 62
7
  6
CONTINUOUS
 70
0
 71
3
 72
18
 73
14
 74
0
 42
0.0000001
 43
0.0000001
 44
0.0000000001
 40
0.0
 40
0.0
 40
0.0
 40
0.0
 40
0.0548620589
 40
0.1099280789
 40
0.165399508
 40
0.2214731255
 40
0.2783387361
 40
0.3361775086
 40
0.4554063416
 40
0.5804417492
 40
0.7123343341
 40
0.8519577333
 40
1.0
 40
1.0
 40
1.0
 40
1.0
 10
10.7038519102
 20
11.8956517663
 30
0.0
 10
10.7038519099
 20
11.8941942944
 30
0.0
 10
10.7037593879
 20
11.8912730951
 30
0.0
 10
10.7033434422
 20
11.8868960488
 30
0.0
 10
10.7026504362
 20
11.8825215249
 30
0.0
 10
10.7016805984
 20
11.8781511209
 30
0.0
 10
10.7004343047
 20
11.8737859403
 30
0.0
 10
10.6983844305
 20
11.8679159426
 30
0.0
 10
10.6951005669
 20
11.8605741471
 30
0.0
 10
10.6901023218
 20
11.8519034587
 30
0.0
 10
10.68401473
 20
11.8432888932
 30
0.0
 10
10.6768470536
 20
11.8347390971
 30
0.0
 10
10.6715161843
 20
11.8292533635
 30
0.0
 10
10.668687422
 20
11.8265209887
 30
0.0
  0
SPLINE
  5
353
100
AcDbEntity
  8
0
100
AcDbSpline
 62
7
  6
CONTINUOUS
 70
0
 71
3
 72
11
 73
7
 74
0
 42
0.0000001
 43
0.0000001
 44
0.0000000001
 40
0.0
 40
0.0
 40
0.0
 40
0.0
 40
0.2532139201
 40
0.5036840038
 40
0.7523066655
 40
1.0
 40
1.0
 40
1.0
 40
1.0
 10
10.6267837168
 20
11.794393686
 30
0.0
 10
10.6271259924
 20
11.7957389578
 30
0.0
 10
10.6277273145
 20
11.7984359507
 30
0.0
 10
10.6283759701
 20
11.8025114077
 30
0.0
 10
10.6287652964
 20
11.8065893962
 30
0.0
 10
10.6288518963
 20
11.8093110046
 30
0.0
 10
10.6288519031
 20
11.8106688719
 30
0.0
  0
SPLINE
  5
354
100
AcDbEntity
  8
0
100
AcDbSpline
 62
7
  6
CONTINUOUS
 70
0
 71
3
 72
41
 73
37
 74
0
 42
0.0000001
 43
0.0000001
 44
0.0000000001
 40
0.0
 40
0.0
 40
0.0
 40
0.0
 40
0.0299421187
 40
0.0449237623
 40
0.0599145134
 40
0.0899291701
 40
0.1200146003
 40
0.1350933624
 40
0.1501974867
 40
0.1804849896
 40
0.2108989845
 40
0.2414526108
 40
0.2721557833
 40
0.3030150127
 40
0.3340333098
 40
0.3652101722
 40
0.3965416482
 40
0.4280204722
 40
0.4596362655
 40
0.4913757931
 40
0.5232232712
 40
0.5551607155
 40
0.5871683244
 40
0.6192248896
 40
0.6513082259
 40
0.6833956162
 40
0.715464263
 40
0.7474917407
 40
0.779456445
 40
0.8113380241
 40
0.8431178121
 40
0.8747791755
 40
0.9063080162
 40
0.9376926983
 40
0.9689252995
 40
1.0
 40
1.0
 40
1.0
 40
1.0
 10
11.7988873442
 20
10.9994840393
 30
0.0
 10
11.8022550491
 20
11.0027369656
 30
0.0
 10
11.807505138
 20
11.0074192191
 30
0.0
 10
11.8148577287
 20
11.0132289198
 30
0.0
 10
11.8224445012
 20
11.0187494686
 30
0.0
 10
11.8323439501
 20
11.0250888987
 30
0.0
 10
11.8427247466
 20
11.030634002
 30
0.0
 10
11.8512861616
 20
11.0345788978
 30
0.0
 10
11.8600244969
 20
11.0381979891
 30
0.0
 10
11.8712353254
 20
11.0420896533
 30
0.0
 10
11.8850509936
 20
11.045716536
 30
0.0
 10
11.8991681131
 20
11.0482859109
 30
0.0
 10
11.9135084576
 20
11.0497835831
 30
0.0
 10
11.9279932509
 20
11.050201565
 30
0.0
 10
11.9425427941
 20
11.0495377274
 30
0.0
 10
11.9570771199
 20
11.0477959048
 30
0.0
 10
11.9715163685
 20
11.0449858383
 30
0.0
 10
11.9857812375
 20
11.0411231228
 30
0.0
 10
11.9997934075
 20
11.0362291144
 30
0.0
 10
12.0134759671
 20
11.0303308113
 30
0.0
 10
12.0267538291
 20
11.0234607023
 30
0.0
 10
12.0395541368
 20
11.0156565872
 30
0.0
 10
12.0518066582
 20
11.0069613701
 30
0.0
 10
12.0634441665
 20
10.9974228245
 30
0.0
 10
12.0744028047
 20
10.9870933332
 30
0.0
 10
12.0846224319
 20
10.9760296028
 30
0.0
 10
12.0940469499
 20
10.9642923558
 30
0.0
 10
12.1026246084
 20
10.9519460008
 30
0.0
 10
12.1103082846
 20
10.9390582826
 30
0.0
 10
12.1170557465
 20
10.9256999141
 30
0.0
 10
12.1228298661
 20
10.9119442003
 30
0.0
 10
12.1275988644
 20
10.8978666056
 30
0.0
 10
12.1313363953
 20
10.88354449
 30
0.0
 10
12.1340218698
 20
10.8690561584
 30
0.0
 10
12.1356402837
 20
10.8544822888
 30
0.0
 10
12.1360027969
 20
10.8447352511
 30
0.0
 10
12.1360027969
 20
10.839875947
 30
0.0
  0
SPLINE
  5
355
100
AcDbEntity
  8
0
100
AcDbSpline
 62
7
  6
CONTINUOUS
 70
0
 71
3
 72
41
 73
37
 74
0
 42
0.0000001
 43
0.0000001
 44
0.0000000001
 40
0.0
 40
0.0
 40
0.0
 40
0.0
 40
0.0299421187
 40
0.0449237623
 40
0.0599145134
 40
0.0899291701
 40
0.1200146003
 40
0.1350933624
 40
0.1501974867
 40
0.1804849896
 40
0.2108989845
 40
0.2414526108
 40
0.2721557833
 40
0.3030150127
 40
0.3340333098
 40
0.3652101722
 40
0.3965416482
 40
0.4280204722
 40
0.4596362655
 40
0.4913757931
 40
0.5232232712
 40
0.5551607155
 40
0.5871683244
 40
0.6192248896
 40
0.6513082259
 40
0.6833956162
 40
0.715464263
 40
0.7474917407
 40
0.779456445
 40
0.8113380241
 40
0.8431178121
 40
0.8747791755
 40
0.9063080162
 40
0.9376926983
 40
0.9689252995
 40
1.0
 40
1.0
 40
1.0
 40
1.0
 10
9.1425911645
 20
6.3540693874
 30
0.0
 10
9.1459588694
 20
6.3573223137
 30
0.0
 10
9.1512089584
 20
6.3620045672
 30
0.0
 10
9.158561549
 20
6.3678142679
 30
0.0
 10
9.1661483215
 20
6.3733348168
 30
0.0
 10
9.1760477704
 20
6.3796742469
 30
0.0
 10
9.1864285669
 20
6.3852193501
 30
0.0
 10
9.194989982
 20
6.3891642459
 30
0.0
 10
9.2037283172
 20
6.3927833373
 30
0.0
 10
9.2149391457
 20
6.3966750014
 30
0.0
 10
9.2287548139
 20
6.4003018841
 30
0.0
 10
9.2428719334
 20
6.402871259
 30
0.0
 10
9.257212278
 20
6.4043689312
 30
0.0
 10
9.2716970712
 20
6.4047869131
 30
0.0
 10
9.2862466145
 20
6.4041230755
 30
0.0
 10
9.3007809402
 20
6.4023812529
 30
0.0
 10
9.3152201888
 20
6.3995711864
 30
0.0
 10
9.3294850579
 20
6.3957084709
 30
0.0
 10
9.3434972278
 20
6.3908144625
 30
0.0
 10
9.3571797874
 20
6.3849161595
 30
0.0
 10
9.3704576494
 20
6.3780460504
 30
0.0
 10
9.3832579571
 20
6.3702419353
 30
0.0
 10
9.3955104785
 20
6.3615467183
 30
0.0
 10
9.4071479868
 20
6.3520081727
 30
0.0
 10
9.418106625
 20
6.3416786813
 30
0.0
 10
9.4283262522
 20
6.3306149509
 30
0.0
 10
9.4377507702
 20
6.3188777039
 30
0.0
 10
9.4463284287
 20
6.3065313489
 30
0.0
 10
9.454012105
 20
6.2936436308
 30
0.0
 10
9.4607595668
 20
6.2802852622
 30
0.0
 10
9.4665336864
 20
6.2665295484
 30
0.0
 10
9.4713026848
 20
6.2524519537
 30
0.0
 10
9.4750402156
 20
6.2381298381
 30
0.0
 10
9.4777256901
 20
6.2236415066
 30
0.0
 10
9.479344104
 20
6.2090676369
 30
0.0
 10
9.4797066173
 20
6.1993205992
 30
0.0
 10
9.4797066173
 20
6.1944612951
 30
0.0
  0
SPLINE
  5
356
100
AcDbEntity
  8
0
100
AcDbSpline
 62
7
  6
CONTINUOUS
 70
0
 71
3
 72
36
 73
32
 74
0
 42
0.0000001
 43
0.0000001
 44
0.0000000001
 40
0.0
 40
0.0
 40
0.0
 40
0.0
 40
0.0178800667
 40
0.035897144
 40
0.0541849232
 40
0.0728706897
 40
0.0920731242
 40
0.111900487
 40
0.1324500902
 40
0.1538078396
 40
0.1760488049
 40
0.1992377495
 40
0.2234299373
 40
0.2486722519
 40
0.2750037255
 40
0.3024569059
 40
0.3310580696
 40
0.3608284725
 40
0.3917845245
 40
0.4239385954
 40
0.4572994235
 40
0.4918723458
 40
0.5276600175
 40
0.5646621725
 40
0.6028764955
 40
0.6422982291
 40
0.6829208801
 40
0.7247360339
 40
0.8118996736
 40
0.9036940852
 40
1.0
 40
1.0
 40
1.0
 40
1.0
 10
13.8220908619
 20
8.7000930806
 30
0.0
 10
13.8200268167
 20
8.7002362137
 30
0.0
 10
13.8158935689
 20
8.7007124393
 30
0.0
 10
13.8097470536
 20
8.7019904844
 30
0.0
 10
13.8036476528
 20
8.7038320941
 30
0.0
 10
13.7975997458
 20
8.7062352626
 30
0.0
 10
13.7916066142
 20
8.7091980007
 30
0.0
 10
13.7856712766
 20
8.7127177309
 30
0.0
 10
13.779796614
 20
8.7167920602
 30
0.0
 10
13.7739852022
 20
8.7214182416
 30
0.0
 10
13.7682396358
 20
8.7265935808
 30
0.0
 10
13.7625624428
 20
8.7323151915
 30
0.0
 10
13.7569561029
 20
8.7385799992
 30
0.0
 10
13.751423243
 20
8.7453848255
 30
0.0
 10
13.7459663115
 20
8.7527261367
 30
0.0
 10
13.7405880077
 20
8.7606003046
 30
0.0
 10
13.7352907983
 20
8.7690033051
 30
0.0
 10
13.7300773581
 20
8.7779309621
 30
0.0
 10
13.7249502016
 20
8.7873787531
 30
0.0
 10
13.7199118996
 20
8.7973419228
 30
0.0
 10
13.7149650069
 20
8.8078154402
 30
0.0
 10
13.710111961
 20
8.8187939821
 30
0.0
 10
13.7053553133
 20
8.8302719983
 30
0.0
 10
13.7006973867
 20
8.8422436255
 30
0.0
 10
13.696140658
 20
8.8547027885
 30
0.0
 10
13.6916873876
 20
8.8676431087
 30
0.0
 10
13.6873398746
 20
8.8810580083
 30
0.0
 10
13.6816078009
 20
8.8998286116
 30
0.0
 10
13.6747436337
 20
8.924440679
 30
0.0
 10
13.6670723676
 20
8.9553591944
 30
0.0
 10
13.6623828157
 20
8.9766168761
 30
0.0
 10
13.6601087525
 20
8.9875264803
 30
0.0
  0
SPLINE
  5
357
100
AcDbEntity
  8
0
100
AcDbSpline
 62
7
  6
CONTINUOUS
 70
0
 71
3
 72
39
 73
35
 74
0
 42
0.0000001
 43
0.0000001
 44
0.0000000001
 40
0.0
 40
0.0
 40
0.0
 40
0.0
 40
0.0247349806
 40
0.0506655242
 40
0.0777343061
 40
0.1058790058
 40
0.1350328413
 40
0.165125036
 40
0.196081236
 40
0.2278238939
 40
0.260272628
 40
0.2933445638
 40
0.3269546625
 40
0.3610160421
 40
0.395440291
 40
0.4301377778
 40
0.4650179585
 40
0.4999896816
 40
0.5349614916
 40
0.569841933
 40
0.6045398532
 40
0.6389647067
 40
0.6730268602
 40
0.7066378994
 40
0.739710939
 40
0.7721609365
 40
0.8039050127
 40
0.8348627809
 40
0.864956688
 40
0.8941123737
 40
0.9222590539
 40
0.9493299389
 40
0.9752626992
 40
1.0
 40
1.0
 40
1.0
 40
1.0
 10
13.6601087525
 20
8.9875264803
 30
0.0
 10
13.657329713
 20
9.0008586612
 30
0.0
 10
13.6520247979
 20
9.0282492946
 30
0.0
 10
13.6449423453
 20
9.0704625252
 30
0.0
 10
13.6385614421
 20
9.1146850068
 30
0.0
 10
13.6329002528
 20
9.1607934334
 30
0.0
 10
13.6279748062
 20
9.2086597131
 30
0.0
 10
13.6237990742
 20
9.2581505971
 30
0.0
 10
13.6203848995
 20
9.3091282877
 30
0.0
 10
13.6177419753
 20
9.3614507773
 30
0.0
 10
13.6158778176
 20
9.414972273
 30
0.0
 10
13.614797748
 20
9.4695436076
 30
0.0
 10
13.6145048804
 20
9.5250126639
 30
0.0
 10
13.6150001151
 20
9.5812248033
 30
0.0
 10
13.616282137
 20
9.638023302
 30
0.0
 10
13.6183474212
 20
9.6952497916
 30
0.0
 10
13.6211902434
 20
9.7527447035
 30
0.0
 10
13.6248026973
 20
9.8103477166
 30
0.0
 10
13.6291747165
 20
9.867898207
 30
0.0
 10
13.6342941029
 20
9.9252356983
 30
0.0
 10
13.6401465613
 20
9.9822003112
 30
0.0
 10
13.6467157385
 20
10.038633212
 30
0.0
 10
13.653983269
 20
10.0943770584
 30
0.0
 10
13.6619288251
 20
10.1492764412
 30
0.0
 10
13.6705301733
 20
10.2031783217
 30
0.0
 10
13.6797632349
 20
10.2559324625
 30
0.0
 10
13.6896021521
 20
10.3073918525
 30
0.0
 10
13.7000193592
 20
10.3574131246
 30
0.0
 10
13.7109856569
 20
10.4058569604
 30
0.0
 10
13.722470297
 20
10.4525885073
 30
0.0
 10
13.734441052
 20
10.4974777107
 30
0.0
 10
13.746864364
 20
10.5403999084
 30
0.0
 10
13.7597052367
 20
10.5812354668
 30
0.0
 10
13.7687397514
 20
10.6076344404
 30
0.0
 10
13.7733322832
 20
10.6204568254
 30
0.0
  0
SPLINE
  5
358
100
AcDbEntity
  8
0
100
AcDbSpline
 62
7
  6
CONTINUOUS
 70
0
 71
3
 72
23
 73
19
 74
0
 42
0.0000001
 43
0.0000001
 44
0.0000000001
 40
0.0
 40
0.0
 40
0.0
 40
0.0
 40
0.0808903745
 40
0.1594503045
 40
0.2356371695
 40
0.3094122257
 40
0.3807411906
 40
0.4495941556
 40
0.5159467303
 40
0.579779771
 40
0.641080848
 40
0.6998442957
 40
0.756072825
 40
0.8097778923
 40
0.8609812438
 40
0.9097180068
 40
0.9560373167
 40
1.0
 40
1.0
 40
1.0
 40
1.0
 10
13.7733322832
 20
10.6204568254
 30
0.0
 10
13.7757096042
 20
10.6270943242
 30
0.0
 10
13.7804922042
 20
10.6401438336
 30
0.0
 10
13.7878640479
 20
10.6593142604
 30
0.0
 10
13.7953244624
 20
10.6777833213
 30
0.0
 10
13.8028674208
 20
10.6955360839
 30
0.0
 10
13.8104867754
 20
10.7125582957
 30
0.0
 10
13.818176443
 20
10.7288362594
 30
0.0
 10
13.8259301327
 20
10.7443569426
 30
0.0
 10
13.833741697
 20
10.7591078859
 30
0.0
 10
13.8416047707
 20
10.7730773342
 30
0.0
 10
13.849513146
 20
10.7862541362
 30
0.0
 10
13.857460488
 20
10.798627834
 30
0.0
 10
13.8654405263
 20
10.8101886108
 30
0.0
 10
13.8734469967
 20
10.8209273538
 30
0.0
 10
13.8814739046
 20
10.8308358264
 30
0.0
 10
13.8895147787
 20
10.8399056617
 30
0.0
 10
13.8950216245
 20
10.8455325888
 30
0.0
 10
13.8977776506
 20
10.8481947057
 30
0.0
  0
SPLINE
  5
359
100
AcDbEntity
  8
0
100
AcDbSpline
 62
7
  6
CONTINUOUS
 70
0
 71
3
 72
80
 73
76
 74
0
 42
0.0000001
 43
0.0000001
 44
0.0000000001
 40
0.0
 40
0.0
 40
0.0
 40
0.0
 40
0.0027966364
 40
0.005668165
 40
0.0086296916
 40
0.0116948158
 40
0.0181798516
 40
0.0216224447
 40
0.025208468
 40
0.0289446784
 40
0.0328367579
 40
0.0368894971
 40
0.0411068003
 40
0.0454918634
 40
0.0500472321
 40
0.0547748305
 40
0.0596761203
 40
0.0647520525
 40
0.0700031809
 40
0.0754297088
 40
0.0810314502
 40
0.0927580302
 40
0.1051765613
 40
0.1182763244
 40
0.132043363
 40
0.1464608957
 40
0.1615096363
 40
0.1771680844
 40
0.193412753
 40
0.2102183557
 40
0.227557956
 40
0.2454031156
 40
0.2637240378
 40
0.2824896855
 40
0.3016678863
 40
0.3212254279
 40
0.3411281719
 40
0.361341152
 40
0.3818286657
 40
0.4234806311
 40
0.4657878312
 40
0.5084472668
 40
0.5511527096
 40
0.5935975164
 40
0.6354774216
 40
0.6561121521
 40
0.6764940746
 40
0.6965870849
 40
0.7163557648
 40
0.7357654695
 40
0.7547824192
 40
0.7733738032
 40
0.7915078917
 40
0.8091541318
 40
0.8262832573
 40
0.8428674118
 40
0.8588803003
 40
0.8742973376
 40
0.8890958094
 40
0.9032550728
 40
0.9167568043
 40
0.9295853104
 40
0.941727878
 40
0.9475391316
 40
0.953175746
 40
0.958637185
 40
0.9639232649
 40
0.9690340744
 40
0.9739700931
 40
0.9787321872
 40
0.9833216709
 40
0.9877404939
 40
0.9919911232
 40
0.9960764731
 40
1.0
 40
1.0
 40
1.0
 40
1.0
 10
13.7928893312
 20
8.9412457394
 30
0.0
 10
13.791345356
 20
8.9417916123
 30
0.0
 10
13.788260562
 20
8.943027967
 30
0.0
 10
13.7837266428
 20
8.9452696826
 30
0.0
 10
13.7792343122
 20
8.9479185724
 30
0.0
 10
13.7731905909
 20
8.9520681875
 30
0.0
 10
13.767352394
 20
8.9569803125
 30
0.0
 10
13.7617250674
 20
8.962546618
 30
0.0
 10
13.7574713159
 20
8.9672024078
 30
0.0
 10
13.7532710799
 20
8.9722529525
 30
0.0
 10
13.7491256863
 20
8.9776962255
 30
0.0
 10
13.7450371824
 20
8.9835296072
 30
0.0
 10
13.7410072776
 20
8.9897503369
 30
0.0
 10
13.7370378426
 20
8.9963555088
 30
0.0
 10
13.7331307327
 20
9.0033420372
 30
0.0
 10
13.729287678
 20
9.0107066015
 30
0.0
 10
13.7255105665
 20
9.018445769
 30
0.0
 10
13.7218011112
 20
9.0265558607
 30
0.0
 10
13.7181610774
 20
9.0350330398
 30
0.0
 10
13.7145922033
 20
9.0438733179
 30
0.0
 10
13.7098584685
 20
9.0563295416
 30
0.0
 10
13.7041486952
 20
9.0727905945
 30
0.0
 10
13.697707324
 20
9.0936309931
 30
0.0
 10
13.6915882145
 20
9.115810005
 30
0.0
 10
13.6858031454
 20
9.1392854035
 30
0.0
 10
13.6803633035
 20
9.1640127419
 30
0.0
 10
13.6752791991
 20
9.1899449553
 30
0.0
 10
13.6705606749
 20
9.217032632
 30
0.0
 10
13.6662168722
 20
9.2452240918
 30
0.0
 10
13.6622562173
 20
9.2744655024
 30
0.0
 10
13.6586863829
 20
9.304700977
 30
0.0
 10
13.6555142762
 20
9.3358726923
 30
0.0
 10
13.6527460439
 20
9.3679210154
 30
0.0
 10
13.6503870548
 20
9.400784625
 30
0.0
 10
13.6484418933
 20
9.4344006201
 30
0.0
 10
13.6469143213
 20
9.4687046468
 30
0.0
 10
13.645807314
 20
9.5036310056
 30
0.0
 10
13.6451229879
 20
9.5391128727
 30
0.0
 10
13.6447742279
 20
9.5873358513
 30
0.0
 10
13.6454143957
 20
9.6484994698
 30
0.0
 10
13.647862339
 20
9.7226092738
 30
0.0
 10
13.6519762659
 20
9.79726319
 30
0.0
 10
13.6577246698
 20
9.8718898608
 30
0.0
 10
13.6650636248
 20
9.945918133
 30
0.0
 10
13.6724936658
 20
10.0069345384
 30
0.0
 10
13.6792017362
 20
10.0550116391
 30
0.0
 10
13.684567061
 20
10.0903921277
 30
0.0
 10
13.6902808494
 20
10.1252041861
 30
0.0
 10
13.6963321659
 20
10.1593812072
 30
0.0
 10
13.7027093722
 20
10.1928577417
 30
0.0
 10
13.7094002211
 20
10.2255697008
 30
0.0
 10
13.7163918572
 20
10.2574544681
 30
0.0
 10
13.7236708277
 20
10.2884510342
 30
0.0
 10
13.7312231323
 20
10.3185001064
 30
0.0
 10
13.7390342437
 20
10.3475442179
 30
0.0
 10
13.7470891438
 20
10.3755278463
 30
0.0
 10
13.7553723295
 20
10.4023975408
 30
0.0
 10
13.7638678539
 20
10.4281020286
 30
0.0
 10
13.772559372
 20
10.4525923184
 30
0.0
 10
13.781430171
 20
10.4758217683
 30
0.0
 10
13.7904632275
 20
10.4977463294
 30
0.0
 10
13.7996411839
 20
10.5183242296
 30
0.0
 10
13.8075064898
 20
10.5345472315
 30
0.0
 10
13.8138695215
 20
10.5468091554
 30
0.0
 10
13.8185971241
 20
10.5555099975
 30
0.0
 10
13.8233477973
 20
10.5638461194
 30
0.0
 10
13.8281192479
 20
10.5718136108
 30
0.0
 10
13.8329092774
 20
10.5794086569
 30
0.0
 10
13.8377155728
 20
10.5866276662
 30
0.0
 10
13.8425358258
 20
10.5934672319
 30
0.0
 10
13.8473678719
 20
10.5999241138
 30
0.0
 10
13.8522094409
 20
10.6059953709
 30
0.0
 10
13.8570584162
 20
10.6116781335
 30
0.0
 10
13.8619122521
 20
10.6169694615
 30
0.0
 10
13.8652155293
 20
10.6203006393
 30
0.0
 10
13.8668680216
 20
10.6218968243
 30
0.0
  0
SPLINE
  5
35A
100
AcDbEntity
  8
0
100
AcDbSpline
 62
7
  6
CONTINUOUS
 70
0
 71
3
 72
15
 73
11
 74
0
 42
0.0000001
 43
0.0000001
 44
0.0000000001
 40
0.0
 40
0.0
 40
0.0
 40
0.0
 40
0.10844093
 40
0.2203198905
 40
0.3363916014
 40
0.4573220686
 40
0.5836913784
 40
0.7159978661
 40
0.8546571412
 40
1.0
 40
1.0
 40
1.0
 40
1.0
 10
13.9112556863
 20
10.6480371388
 30
0.0
 10
13.9094072953
 20
10.6476598428
 30
0.0
 10
13.9056864836
 20
10.6467137685
 30
0.0
 10
13.9001591613
 20
10.6447707854
 30
0.0
 10
13.8946139149
 20
10.6422874447
 30
0.0
 10
13.889054676
 20
10.6392663526
 30
0.0
 10
13.8834842927
 20
10.6357100004
 30
0.0
 10
13.8779057232
 20
10.6316210361
 30
0.0
 10
13.8723223719
 20
10.6270025467
 30
0.0
 10
13.8686866379
 20
10.6236534729
 30
0.0
 10
13.8668680216
 20
10.6218968243
 30
0.0
  0
SPLINE
  5
35B
100
AcDbEntity
  8
0
100
AcDbSpline
 62
7
  6
CONTINUOUS
 70
0
 71
3
 72
41
 73
37
 74
0
 42
0.0000001
 43
0.0000001
 44
0.0000000001
 40
0.0
 40
0.0
 40
0.0
 40
0.0
 40
0.0299421216
 40
0.0449237656
 40
0.0599145167
 40
0.0899291718
 40
0.1200145985
 40
0.1350933583
 40
0.15019748
 40
0.1804849767
 40
0.2108989647
 40
0.2414525835
 40
0.2721557485
 40
0.3030149705
 40
0.3340332607
 40
0.3652101168
 40
0.3965415874
 40
0.4280204071
 40
0.4596361972
 40
0.491375723
 40
0.5232232003
 40
0.5551606452
 40
0.5871682559
 40
0.6192248239
 40
0.651308164
 40
0.683395559
 40
0.7154642111
 40
0.7474916947
 40
0.7794564051
 40
0.8113379906
 40
0.8431177849
 40
0.8747791545
 40
0.9063080011
 40
0.9376926887
 40
0.9689252949
 40
1.0
 40
1.0
 40
1.0
 40
1.0
 10
9.4480736905
 20
7.4016950624
 30
0.0
 10
9.4445732849
 20
7.3983139018
 30
0.0
 10
9.4391163182
 20
7.3934470657
 30
0.0
 10
9.4314739942
 20
7.3874083311
 30
0.0
 10
9.4235882561
 20
7.3816701439
 30
0.0
 10
9.4132986998
 20
7.3750807853
 30
0.0
 10
9.4025088173
 20
7.3693170591
 30
0.0
 10
9.3936100091
 20
7.3652166238
 30
0.0
 10
9.3845273053
 20
7.3614548339
 30
0.0
 10
9.3728746639
 20
7.3574097134
 30
0.0
 10
9.3585145182
 20
7.3536397961
 30
0.0
 10
9.3438410328
 20
7.3509690676
 30
0.0
 10
9.3289355174
 20
7.3494122828
 30
0.0
 10
9.3138798536
 20
7.3489777446
 30
0.0
 10
9.2987568816
 20
7.3496676666
 30
0.0
 10
9.2836497213
 20
7.3514780635
 30
0.0
 10
9.2686413802
 20
7.3543988108
 30
0.0
 10
9.2538142869
 20
7.3584136991
 30
0.0
 10
9.2392498482
 20
7.3635005309
 30
0.0
 10
9.2250280073
 20
7.3696312441
 30
0.0
 10
9.2112268113
 20
7.3767720695
 30
0.0
 10
9.1979219892
 20
7.3848837174
 30
0.0
 10
9.1851865415
 20
7.3939215929
 30
0.0
 10
9.1730903451
 20
7.4038360395
 30
0.0
 10
9.1616997744
 20
7.4145726097
 30
0.0
 10
9.1510773411
 20
7.4260723617
 30
0.0
 10
9.141281355
 20
7.4382721794
 30
0.0
 10
9.1323656063
 20
7.4511051157
 30
0.0
 10
9.1243790756
 20
7.4645007551
 30
0.0
 10
9.1173656598
 20
7.4783855977
 30
0.0
 10
9.1113639506
 20
7.4926834486
 30
0.0
 10
9.1064069796
 20
7.5073158689
 30
0.0
 10
9.1025221317
 20
7.5222024491
 30
0.0
 10
9.0997308076
 20
7.5372617976
 30
0.0
 10
9.0980486028
 20
7.5524100563
 30
0.0
 10
9.0976718008
 20
7.562541247
 30
0.0
 10
9.0976718008
 20
7.5675920674
 30
0.0
  0
SPLINE
  5
35C
100
AcDbEntity
  8
0
100
AcDbSpline
 62
7
  6
CONTINUOUS
 70
0
 71
3
 72
15
 73
11
 74
0
 42
0.0000001
 43
0.0000001
 44
0.0000000001
 40
0.0
 40
0.0
 40
0.0
 40
0.0
 40
0.1234394229
 40
0.2470466241
 40
0.3709825582
 40
0.4953948862
 40
0.6204121211
 40
0.7461394113
 40
0.8726516684
 40
1.0
 40
1.0
 40
1.0
 40
1.0
 10
9.154890634
 20
7.7052204792
 30
0.0
 10
9.1503601286
 20
7.7008443103
 30
0.0
 10
9.1417374764
 20
7.6916120084
 30
0.0
 10
9.1302856738
 20
7.676498274
 30
0.0
 10
9.1204117662
 20
7.6602493693
 30
0.0
 10
9.1122086375
 20
7.6430175082
 30
0.0
 10
9.1057510586
 20
7.6249618223
 30
0.0
 10
9.1010982565
 20
7.6062488296
 30
0.0
 10
9.0982922663
 20
7.5870535297
 30
0.0
 10
9.0976718008
 20
7.5740904479
 30
0.0
 10
9.0976718008
 20
7.5675920674
 30
0.0
  0
SPLINE
  5
35D
100
AcDbEntity
  8
0
100
AcDbSpline
 62
7
  6
CONTINUOUS
 70
0
 71
3
 72
41
 73
37
 74
0
 42
0.0000001
 43
0.0000001
 44
0.0000000001
 40
0.0
 40
0.0
 40
0.0
 40
0.0
 40
0.0299421187
 40
0.0449237623
 40
0.0599145134
 40
0.0899291701
 40
0.1200146003
 40
0.1350933624
 40
0.1501974867
 40
0.1804849896
 40
0.2108989845
 40
0.2414526108
 40
0.2721557833
 40
0.3030150127
 40
0.3340333098
 40
0.3652101722
 40
0.3965416482
 40
0.4280204722
 40
0.4596362655
 40
0.4913757931
 40
0.5232232712
 40
0.5551607155
 40
0.5871683244
 40
0.6192248896
 40
0.6513082259
 40
0.6833956162
 40
0.715464263
 40
0.7474917407
 40
0.779456445
 40
0.8113380241
 40
0.8431178121
 40
0.8747791755
 40
0.9063080162
 40
0.9376926983
 40
0.9689252995
 40
1.0
 40
1.0
 40
1.0
 40
1.0
 10
12.080952341
 20
10.7074646528
 30
0.0
 10
12.0775846361
 20
10.7042117265
 30
0.0
 10
12.0723345471
 20
10.699529473
 30
0.0
 10
12.0649819565
 20
10.6937197723
 30
0.0
 10
12.057395184
 20
10.6881992234
 30
0.0
 10
12.0474957351
 20
10.6818597933
 30
0.0
 10
12.0371149386
 20
10.6763146901
 30
0.0
 10
12.0285535235
 20
10.6723697943
 30
0.0
 10
12.0198151883
 20
10.6687507029
 30
0.0
 10
12.0086043598
 20
10.6648590387
 30
0.0
 10
11.9947886916
 20
10.6612321561
 30
0.0
 10
11.9806715721
 20
10.6586627812
 30
0.0
 10
11.9663312275
 20
10.657165109
 30
0.0
 10
11.9518464343
 20
10.6567471271
 30
0.0
 10
11.937296891
 20
10.6574109647
 30
0.0
 10
11.9227625653
 20
10.6591527872
 30
0.0
 10
11.9083233167
 20
10.6619628537
 30
0.0
 10
11.8940584476
 20
10.6658255692
 30
0.0
 10
11.8800462777
 20
10.6707195776
 30
0.0
 10
11.8663637181
 20
10.6766178807
 30
0.0
 10
11.853085856
 20
10.6834879898
 30
0.0
 10
11.8402855484
 20
10.6912921048
 30
0.0
 10
11.828033027
 20
10.6999873219
 30
0.0
 10
11.8163955187
 20
10.7095258675
 30
0.0
 10
11.8054368805
 20
10.7198553589
 30
0.0
 10
11.7952172533
 20
10.7309190893
 30
0.0
 10
11.7857927353
 20
10.7426563363
 30
0.0
 10
11.7772150768
 20
10.7550026913
 30
0.0
 10
11.7695314005
 20
10.7678904094
 30
0.0
 10
11.7627839387
 20
10.781248778
 30
0.0
 10
11.7570098191
 20
10.7950044917
 30
0.0
 10
11.7522408207
 20
10.8090820865
 30
0.0
 10
11.7485032899
 20
10.8234042021
 30
0.0
 10
11.7458178154
 20
10.8378925336
 30
0.0
 10
11.7441994014
 20
10.8524664033
 30
0.0
 10
11.7438368882
 20
10.8622134409
 30
0.0
 10
11.7438368882
 20
10.8670727451
 30
0.0
  0
SPLINE
  5
35E
100
AcDbEntity
  8
0
100
AcDbSpline
 62
7
  6
CONTINUOUS
 70
0
 71
3
 72
41
 73
37
 74
0
 42
0.0000001
 43
0.0000001
 44
0.0000000001
 40
0.0
 40
0.0
 40
0.0
 40
0.0
 40
0.0299421187
 40
0.0449237623
 40
0.0599145134
 40
0.0899291701
 40
0.1200146003
 40
0.1350933624
 40
0.1501974867
 40
0.1804849896
 40
0.2108989845
 40
0.2414526108
 40
0.2721557833
 40
0.3030150127
 40
0.3340333098
 40
0.3652101722
 40
0.3965416482
 40
0.4280204722
 40
0.4596362655
 40
0.4913757931
 40
0.5232232712
 40
0.5551607155
 40
0.5871683244
 40
0.6192248896
 40
0.6513082259
 40
0.6833956162
 40
0.715464263
 40
0.7474917407
 40
0.779456445
 40
0.8113380241
 40
0.8431178121
 40
0.8747791755
 40
0.9063080162
 40
0.9376926983
 40
0.9689252995
 40
1.0
 40
1.0
 40
1.0
 40
1.0
 10
9.4246561613
 20
6.0620500009
 30
0.0
 10
9.4212884564
 20
6.0587970746
 30
0.0
 10
9.4160383674
 20
6.0541148211
 30
0.0
 10
9.4086857768
 20
6.0483051204
 30
0.0
 10
9.4010990043
 20
6.0427845715
 30
0.0
 10
9.3911995554
 20
6.0364451414
 30
0.0
 10
9.3808187589
 20
6.0309000382
 30
0.0
 10
9.3722573438
 20
6.0269551424
 30
0.0
 10
9.3635190086
 20
6.0233360511
 30
0.0
 10
9.3523081801
 20
6.0194443869
 30
0.0
 10
9.3384925119
 20
6.0158175042
 30
0.0
 10
9.3243753924
 20
6.0132481293
 30
0.0
 10
9.3100350478
 20
6.0117504571
 30
0.0
 10
9.2955502546
 20
6.0113324752
 30
0.0
 10
9.2810007113
 20
6.0119963128
 30
0.0
 10
9.2664663856
 20
6.0137381354
 30
0.0
 10
9.252027137
 20
6.0165482019
 30
0.0
 10
9.2377622679
 20
6.0204109174
 30
0.0
 10
9.223750098
 20
6.0253049258
 30
0.0
 10
9.2100675384
 20
6.0312032289
 30
0.0
 10
9.1967896764
 20
6.0380733379
 30
0.0
 10
9.1839893687
 20
6.045877453
 30
0.0
 10
9.1717368473
 20
6.0545726701
 30
0.0
 10
9.160099339
 20
6.0641112156
 30
0.0
 10
9.1491407008
 20
6.074440707
 30
0.0
 10
9.1389210736
 20
6.0855044374
 30
0.0
 10
9.1294965556
 20
6.0972416844
 30
0.0
 10
9.1209188971
 20
6.1095880394
 30
0.0
 10
9.1132352208
 20
6.1224757576
 30
0.0
 10
9.106487759
 20
6.1358341261
 30
0.0
 10
9.1007136394
 20
6.1495898399
 30
0.0
 10
9.095944641
 20
6.1636674346
 30
0.0
 10
9.0922071102
 20
6.1779895502
 30
0.0
 10
9.0895216357
 20
6.1924778817
 30
0.0
 10
9.0879032218
 20
6.2070517514
 30
0.0
 10
9.0875407085
 20
6.2167987891
 30
0.0
 10
9.0875407085
 20
6.2216580932
 30
0.0
  0
SPLINE
  5
35F
100
AcDbEntity
  8
0
100
AcDbSpline
 62
7
  6
CONTINUOUS
 70
0
 71
3
 72
90
 73
86
 74
0
 42
0.0000001
 43
0.0000001
 44
0.0000000001
 40
0.0
 40
0.0
 40
0.0
 40
0.0
 40
0.0039801841
 40
0.0081241159
 40
0.0124359656
 40
0.0169193153
 40
0.0215771898
 40
0.0264119289
 40
0.0314251936
 40
0.0366181713
 40
0.0419915567
 40
0.0475456772
 40
0.0532804457
 40
0.0591954437
 40
0.0652899501
 40
0.0715629317
 40
0.0846386004
 40
0.098409911
 40
0.1128604817
 40
0.1279710074
 40
0.1437195982
 40
0.1600820565
 40
0.1770321086
 40
0.194541602
 40
0.2125806763
 40
0.2311179203
 40
0.2501205135
 40
0.2695543567
 40
0.2893841934
 40
0.3095737255
 40
0.3300857245
 40
0.3508821382
 40
0.3719241976
 40
0.3931725218
 40
0.4145872201
 40
0.4361279928
 40
0.4577542316
 40
0.4794251191
 40
0.5010997291
 40
0.5227371263
 40
0.5442964667
 40
0.5657370967
 40
0.5870186529
 40
0.608101162
 40
0.6289451422
 40
0.6495117057
 40
0.6697626638
 40
0.6896606308
 40
0.7091691309
 40
0.728252709
 40
0.7468770455
 40
0.7650090769
 40
0.7826171262
 40
0.7996710429
 40
0.8161423523
 40
0.8320044245
 40
0.8472326669
 40
0.8618047498
 40
0.8757008734
 40
0.8889040964
 40
0.8952416854
 40
0.9014012239
 40
0.9073816029
 40
0.9131819719
 40
0.9188018178
 40
0.9242409106
 40
0.9294994338
 40
0.9345779311
 40
0.9394774185
 40
0.9441994036
 40
0.9487459354
 40
0.9531197203
 40
0.9573241226
 40
0.9613633439
 40
0.9652424353
 40
0.9689674716
 40
0.9725456352
 40
0.9759853336
 40
0.9824864943
 40
0.9855753483
 40
0.9885738142
 40
0.9914977336
 40
0.9943643342
 40
0.9971920087
 40
1.0
 40
1.0
 40
1.0
 40
1.0
 10
8.6750163984
 20
11.9647825438
 30
0.0
 10
8.6770603425
 20
11.9667568424
 30
0.0
 10
8.6813251405
 20
11.9706914758
 30
0.0
 10
8.6880963281
 20
11.9764383043
 30
0.0
 10
8.6953647491
 20
11.9821439101
 30
0.0
 10
8.7031264163
 20
11.9878052637
 30
0.0
 10
8.7113775454
 20
11.9934197211
 30
0.0
 10
8.7201140937
 20
11.998984551
 30
0.0
 10
8.7293316915
 20
12.0044970851
 30
0.0
 10
8.7390257655
 20
12.0099544626
 30
0.0
 10
8.7491914205
 20
12.0153540644
 30
0.0
 10
8.7598236028
 20
12.0206931116
 30
0.0
 10
8.770916967
 20
12.0259689815
 30
0.0
 10
8.7824659456
 20
12.0311789963
 30
0.0
 10
8.7944647544
 20
12.036320545
 30
0.0
 10
8.8112881361
 20
12.043176127
 30
0.0
 10
8.8334122971
 20
12.0515371748
 30
0.0
 10
8.8613000558
 20
12.0611232312
 30
0.0
 10
8.8908258939
 20
12.0703764453
 30
0.0
 10
8.9219302776
 20
12.0792780092
 30
0.0
 10
8.9545507622
 20
12.0878098064
 30
0.0
 10
8.9886216366
 20
12.0959544606
 30
0.0
 10
9.0240742199
 20
12.1036953796
 30
0.0
 10
9.0608369712
 20
12.1110167911
 30
0.0
 10
9.0988356551
 20
12.1179037839
 30
0.0
 10
9.1379934994
 20
12.1243423346
 30
0.0
 10
9.1782313613
 20
12.1303193347
 30
0.0
 10
9.219467893
 20
12.1358226178
 30
0.0
 10
9.2616197103
 20
12.1408409834
 30
0.0
 10
9.3046015631
 20
12.1453642195
 30
0.0
 10
9.3483265097
 20
12.1493831218
 30
0.0
 10
9.3927060936
 20
12.1528895168
 30
0.0
 10
9.4376505253
 20
12.1558762761
 30
0.0
 10
9.483068868
 20
12.1583373272
 30
0.0
 10
9.5288692219
 20
12.1602676668
 30
0.0
 10
9.5749589117
 20
12.16166337
 30
0.0
 10
9.6212446737
 20
12.1625215982
 30
0.0
 10
9.6676328447
 20
12.1628406044
 30
0.0
 10
9.7140295531
 20
12.1626197403
 30
0.0
 10
9.7603409105
 20
12.1618594573
 30
0.0
 10
9.8064732023
 20
12.1605613021
 30
0.0
 10
9.8523330784
 20
12.158727914
 30
0.0
 10
9.8978277418
 20
12.1563630198
 30
0.0
 10
9.9428651369
 20
12.1534714267
 30
0.0
 10
9.9873541367
 20
12.1500590119
 30
0.0
 10
10.0312047303
 20
12.1461327146
 30
0.0
 10
10.0743282074
 20
12.1417005232
 30
0.0
 10
10.1166373388
 20
12.1367714548
 30
0.0
 10
10.1580465531
 20
12.1313555388
 30
0.0
 10
10.1984721124
 20
12.1254637964
 30
0.0
 10
10.2378322837
 20
12.1191082195
 30
0.0
 10
10.2760475094
 20
12.1123017456
 30
0.0
 10
10.3130405759
 20
12.1050582346
 30
0.0
 10
10.3487367786
 20
12.097392443
 30
0.0
 10
10.3830640764
 20
12.0893199879
 30
0.0
 10
10.4159532571
 20
12.0808573142
 30
0.0
 10
10.447338051
 20
12.072021658
 30
0.0
 10
10.477155422
 20
12.0628310031
 30
0.0
 10
10.5053452345
 20
12.0533040384
 30
0.0
 10
10.5277290179
 20
12.0449912788
 30
0.0
 10
10.5447653849
 20
12.0381727716
 30
0.0
 10
10.556926277
 20
12.0330567496
 30
0.0
 10
10.5686395187
 20
12.0278713575
 30
0.0
 10
10.5798992191
 20
12.0226191098
 30
0.0
 10
10.590699745
 20
12.0173027458
 30
0.0
 10
10.6010356478
 20
12.0119248352
 30
0.0
 10
10.610901782
 20
12.0064881647
 30
0.0
 10
10.6202931901
 20
12.0009953802
 30
0.0
 10
10.6292051928
 20
11.9954492405
 30
0.0
 10
10.6376333594
 20
11.9898525025
 30
0.0
 10
10.6455734616
 20
11.9842078522
 30
0.0
 10
10.6530216057
 20
11.9785181322
 30
0.0
 10
10.6599740215
 20
11.9727859663
 30
0.0
 10
10.6664273038
 20
11.9670142048
 30
0.0
 10
10.6723781985
 20
11.9612054192
 30
0.0
 10
10.6778235847
 20
11.9553625347
 30
0.0
 10
10.6827611114
 20
11.94948752
 30
0.0
 10
10.6885532966
 20
11.9417625531
 30
0.0
 10
10.6934718049
 20
11.9338293663
 30
0.0
 10
10.6973768866
 20
11.9257267861
 30
0.0
 10
10.6997363195
 20
11.9197343233
 30
0.0
 10
10.7015736959
 20
11.9137272798
 30
0.0
 10
10.7028875092
 20
11.9077085735
 30
0.0
 10
10.7036763075
 20
11.9016824953
 30
0.0
 10
10.7038519105
 20
11.8976566029
 30
0.0
 10
10.7038519102
 20
11.8956517663
 30
0.0
  0
SPLINE
  5
360
100
AcDbEntity
  8
0
100
AcDbSpline
 62
7
  6
CONTINUOUS
 70
0
 71
3
 72
18
 73
14
 74
0
 42
0.0000001
 43
0.0000001
 44
0.0000000001
 40
0.0
 40
0.0
 40
0.0
 40
0.0
 40
0.0548620589
 40
0.1099280789
 40
0.165399508
 40
0.2214731255
 40
0.2783387361
 40
0.3361775086
 40
0.4554063416
 40
0.5804417492
 40
0.7123343341
 40
0.8519577333
 40
1.0
 40
1.0
 40
1.0
 40
1.0
 10
8.6398519102
 20
11.8956517662
 30
0.0
 10
8.6398519104
 20
11.8971092382
 30
0.0
 10
8.6399444324
 20
11.9000304375
 30
0.0
 10
8.6403603781
 20
11.9044074837
 30
0.0
 10
8.6410533841
 20
11.9087820077
 30
0.0
 10
8.6420232219
 20
11.9131524117
 30
0.0
 10
8.6432695156
 20
11.9175175923
 30
0.0
 10
8.6453193898
 20
11.92338759
 30
0.0
 10
8.6486032534
 20
11.9307293855
 30
0.0
 10
8.6536014985
 20
11.9394000739
 30
0.0
 10
8.6596890903
 20
11.9480146393
 30
0.0
 10
8.6668567668
 20
11.9565644355
 30
0.0
 10
8.672187636
 20
11.9620501691
 30
0.0
 10
8.6750163984
 20
11.9647825438
 30
0.0
  0
SPLINE
  5
361
100
AcDbEntity
  8
0
100
AcDbSpline
 62
7
  6
CONTINUOUS
 70
0
 71
3
 72
11
 73
7
 74
0
 42
0.0000001
 43
0.0000001
 44
0.0000000001
 40
0.0
 40
0.0
 40
0.0
 40
0.0
 40
0.2273142643
 40
0.4683166999
 40
0.7252879079
 40
1.0
 40
1.0
 40
1.0
 40
1.0
 10
8.6463376216
 20
11.8656626073
 30
0.0
 10
8.6478158895
 20
11.8690591301
 30
0.0
 10
8.651306378
 20
11.8758691028
 30
0.0
 10
8.6578352109
 20
11.8857451606
 30
0.0
 10
8.6657779484
 20
11.8955377143
 30
0.0
 10
8.6717965399
 20
11.9017849954
 30
0.0
 10
8.6750163984
 20
11.90489514
 30
0.0
  0
SPLINE
  5
362
100
AcDbEntity
  8
0
100
AcDbSpline
 62
7
  6
CONTINUOUS
 70
0
 71
3
 72
23
 73
19
 74
0
 42
0.0000001
 43
0.0000001
 44
0.0000000001
 40
0.0
 40
0.0
 40
0.0
 40
0.0
 40
0.0632718889
 40
0.1243118631
 40
0.1835189857
 40
0.241334941
 40
0.2982378203
 40
0.3547312213
 40
0.4113307867
 40
0.4685489626
 40
0.5268804246
 40
0.5867894715
 40
0.6487008786
 40
0.7129939714
 40
0.7800029408
 40
0.8500178773
 40
0.9232843295
 40
1.0
 40
1.0
 40
1.0
 40
1.0
 10
8.7105710212
 20
11.7985061243
 30
0.0
 10
8.7093639669
 20
11.8005922864
 30
0.0
 10
8.7071437878
 20
11.8047814604
 30
0.0
 10
8.7043841342
 20
11.8112132272
 30
0.0
 10
8.70226312
 20
11.8176657784
 30
0.0
 10
8.7007838865
 20
11.8241340078
 30
0.0
 10
8.6999484536
 20
11.8306127379
 30
0.0
 10
8.6997582774
 20
11.8370962181
 30
0.0
 10
8.7002136354
 20
11.843578461
 30
0.0
 10
8.7013137589
 20
11.8500535528
 30
0.0
 10
8.703056955
 20
11.856515926
 30
0.0
 10
8.7054407143
 20
11.8629605693
 30
0.0
 10
8.7084621997
 20
11.8693829264
 30
0.0
 10
8.712118085
 20
11.875779018
 30
0.0
 10
8.7164052209
 20
11.8821450462
 30
0.0
 10
8.721320178
 20
11.8884775894
 30
0.0
 10
8.7268590914
 20
11.8947726172
 30
0.0
 10
8.7308700682
 20
11.8988456454
 30
0.0
 10
8.7329719514
 20
11.9008759088
 30
0.0
  0
SPLINE
  5
363
100
AcDbEntity
  8
0
100
AcDbSpline
 62
7
  6
CONTINUOUS
 70
0
 71
3
 72
15
 73
11
 74
0
 42
0.0000001
 43
0.0000001
 44
0.0000000001
 40
0.0
 40
0.0
 40
0.0
 40
0.0
 40
0.1273483438
 40
0.2538606048
 40
0.3795878922
 40
0.5046051199
 40
0.6290174392
 40
0.7529533668
 40
0.8765605676
 40
1.0
 40
1.0
 40
1.0
 40
1.0
 10
11.7438368882
 20
10.8670727451
 30
0.0
 10
11.7438368882
 20
10.8733248045
 30
0.0
 10
11.744433841
 20
10.8857965203
 30
0.0
 10
11.7471334973
 20
10.9042642176
 30
0.0
 10
11.7516099795
 20
10.9222678815
 30
0.0
 10
11.7578228446
 20
10.9396391425
 30
0.0
 10
11.765715109
 20
10.9562177914
 30
0.0
 10
11.7752148338
 20
10.9718507258
 30
0.0
 10
11.786232653
 20
10.9863914989
 30
0.0
 10
11.7945285327
 20
10.9952737854
 30
0.0
 10
11.7988873442
 20
10.9994840393
 30
0.0
  0
SPLINE
  5
364
100
AcDbEntity
  8
0
100
AcDbSpline
 62
7
  6
CONTINUOUS
 70
0
 71
3
 72
18
 73
14
 74
0
 42
0.0000001
 43
0.0000001
 44
0.0000000001
 40
0.0
 40
0.0
 40
0.0
 40
0.0
 40
0.054862062
 40
0.1099280595
 40
0.1653994848
 40
0.2214731179
 40
0.2783387131
 40
0.3361775237
 40
0.4554064004
 40
0.5804415636
 40
0.712334313
 40
0.8519583287
 40
1.0
 40
1.0
 40
1.0
 40
1.0
 10
8.7148519172
 20
11.8106688719
 30
0.0
 10
8.7148519239
 20
11.8120204229
 30
0.0
 10
8.7149377193
 20
11.8147293247
 30
0.0
 10
8.7153234143
 20
11.8187882734
 30
0.0
 10
8.715966067
 20
11.82284488
 30
0.0
 10
8.7168654344
 20
11.8268976641
 30
0.0
 10
8.7180211378
 20
11.8309456133
 30
0.0
 10
8.719922044
 20
11.8363890125
 30
0.0
 10
8.7229672578
 20
11.8431972409
 30
0.0
 10
8.727602253
 20
11.8512377937
 30
0.0
 10
8.733247437
 20
11.8592263142
 30
0.0
 10
8.7398942218
 20
11.8671547518
 30
0.0
 10
8.7448376665
 20
11.8722418196
 30
0.0
 10
8.7474608396
 20
11.8747756103
 30
0.0
  0
SPLINE
  5
365
100
AcDbEntity
  8
0
100
AcDbSpline
 62
7
  6
CONTINUOUS
 70
0
 71
3
 72
86
 73
82
 74
0
 42
0.0000001
 43
0.0000001
 44
0.0000000001
 40
0.0
 40
0.0
 40
0.0
 40
0.0
 40
0.003936023
 40
0.008035113
 40
0.0123007787
 40
0.0167360096
 40
0.0213433194
 40
0.0261246338
 40
0.0310812537
 40
0.0362140648
 40
0.0415235157
 40
0.047009722
 40
0.0526724522
 40
0.0585111506
 40
0.0645250201
 40
0.0707129619
 40
0.0836052921
 40
0.0971755807
 40
0.1114078127
 40
0.1262833288
 40
0.1417811229
 40
0.1578780858
 40
0.1745492059
 40
0.1917677457
 40
0.2095054002
 40
0.2277324346
 40
0.2464178091
 40
0.2655292945
 40
0.2850335793
 40
0.3048963728
 40
0.3250825085
 40
0.3455560416
 40
0.366280343
 40
0.3872181916
 40
0.4083318657
 40
0.4295832329
 40
0.4509338427
 40
0.4937772887
 40
0.5365522838
 40
0.5578174799
 40
0.5789495428
 40
0.5999102994
 40
0.6206619748
 40
0.6411672822
 40
0.6613895148
 40
0.6812926404
 40
0.7008413972
 40
0.7200013886
 40
0.7387391818
 40
0.7570224107
 40
0.7748198845
 40
0.7921017043
 40
0.8088393916
 40
0.8250060196
 40
0.8405763643
 40
0.8555270769
 40
0.8698368844
 40
0.8834868302
 40
0.8964605703
 40
0.9087447296
 40
0.9146252096
 40
0.9203298702
 40
0.9258581241
 40
0.9312096484
 40
0.9363844592
 40
0.9413829473
 40
0.94620587
 40
0.9508544792
 40
0.9553304795
 40
0.9596361729
 40
0.9637744773
 40
0.9677490167
 40
0.971564247
 40
0.975225491
 40
0.9787391347
 40
0.9821126685
 40
0.9884727629
 40
0.9914841722
 40
0.9943991518
 40
0.9972323744
 40
1.0
 40
1.0
 40
1.0
 40
1.0
 10
13.8668680216
 20
8.7368924627
 30
0.0
 10
13.8689865359
 20
8.7389387905
 30
0.0
 10
13.8732213322
 20
8.7432102359
 30
0.0
 10
13.8794432915
 20
8.7499967207
 30
0.0
 10
13.8856588999
 20
8.757287307
 30
0.0
 10
13.8918649665
 20
8.7650781864
 30
0.0
 10
13.8980587117
 20
8.773365709
 30
0.0
 10
13.9042372267
 20
8.7821460148
 30
0.0
 10
13.9103976854
 20
8.7914148961
 30
0.0
 10
13.9165370307
 20
8.8011679643
 30
0.0
 10
13.9226524073
 20
8.8114005099
 30
0.0
 10
13.9287408482
 20
8.8221076586
 30
0.0
 10
13.9347994344
 20
8.8332842819
 30
0.0
 10
13.9408252844
 20
8.8449249993
 30
0.0
 10
13.9468154592
 20
8.8570242545
 30
0.0
 10
13.9548611484
 20
8.8739927949
 30
0.0
 10
13.9647908841
 20
8.8963219305
 30
0.0
 10
13.9763619044
 20
8.9244949593
 30
0.0
 10
13.9877230357
 20
8.9543465299
 30
0.0
 10
13.9988522312
 20
8.9858191214
 30
0.0
 10
14.0097278859
 20
9.0188523463
 30
0.0
 10
14.0203288697
 20
9.0533826133
 30
0.0
 10
14.030634588
 20
9.0893433979
 30
0.0
 10
14.0406250234
 20
9.1266653469
 30
0.0
 10
14.0502807712
 20
9.1652764395
 30
0.0
 10
14.0595830803
 20
9.2051021336
 30
0.0
 10
14.0685138891
 20
9.2460655162
 30
0.0
 10
14.0770558597
 20
9.2880874541
 30
0.0
 10
14.0851924135
 20
9.3310867479
 30
0.0
 10
14.0929077687
 20
9.3749802915
 30
0.0
 10
14.1001869617
 20
9.4196832389
 30
0.0
 10
14.1070158777
 20
9.4651091729
 30
0.0
 10
14.1133812758
 20
9.5111702716
 30
0.0
 10
14.1192708196
 20
9.5577774842
 30
0.0
 10
14.1246730812
 20
9.6048406771
 30
0.0
 10
14.1295776437
 20
9.6522689085
 30
0.0
 10
14.1354470701
 20
9.7159411293
 30
0.0
 10
14.1414749326
 20
9.7957685088
 30
0.0
 10
14.1457475493
 20
9.8756450977
 30
0.0
 10
14.1480904036
 20
9.9393397995
 30
0.0
 10
14.149301057
 20
9.9867378767
 30
0.0
 10
14.1499664005
 20
10.0337623972
 30
0.0
 10
14.1500851338
 20
10.0803225007
 30
0.0
 10
14.1496570654
 20
10.1263281421
 30
0.0
 10
14.1486830523
 20
10.1716903746
 30
0.0
 10
14.1471650203
 20
10.2163214976
 30
0.0
 10
14.1451059576
 20
10.2601352357
 30
0.0
 10
14.1425099042
 20
10.3030469046
 30
0.0
 10
14.1393819453
 20
10.3449735747
 30
0.0
 10
14.1357282028
 20
10.3858342334
 30
0.0
 10
14.131555823
 20
10.4255499459
 30
0.0
 10
14.126872966
 20
10.4640440169
 30
0.0
 10
14.1216887972
 20
10.5012421466
 30
0.0
 10
14.1160134597
 20
10.5370725812
 30
0.0
 10
14.1098580555
 20
10.5714662539
 30
0.0
 10
14.1032346222
 20
10.6043569433
 30
0.0
 10
14.0961561047
 20
10.6356813741
 30
0.0
 10
14.088636322
 20
10.6653795257
 30
0.0
 10
14.0806899272
 20
10.6933942331
 30
0.0
 10
14.0736263366
 20
10.7156045889
 30
0.0
 10
14.0677567673
 20
10.7324756209
 30
0.0
 10
14.0633216768
 20
10.7444904079
 30
0.0
 10
14.0587917744
 20
10.7560456698
 30
0.0
 10
14.0541691523
 20
10.7671358779
 30
0.0
 10
14.049456031
 20
10.7777557127
 30
0.0
 10
14.0446547158
 20
10.787900118
 30
0.0
 10
14.0397673978
 20
10.7975642211
 30
0.0
 10
14.0347964975
 20
10.8067434602
 30
0.0
 10
14.0297442537
 20
10.815433438
 30
0.0
 10
14.0246130792
 20
10.8236300552
 30
0.0
 10
14.0194053277
 20
10.8313294352
 30
0.0
 10
14.0141233297
 20
10.8385278862
 30
0.0
 10
14.0087694969
 20
10.8452220964
 30
0.0
 10
14.0033462371
 20
10.85140863
 30
0.0
 10
13.9978553968
 20
10.8570851176
 30
0.0
 10
13.9905917849
 20
10.8638355782
 30
0.0
 10
13.9830573055
 20
10.8697318072
 30
0.0
 10
13.9752689269
 20
10.8746302157
 30
0.0
 10
13.9694777002
 20
10.8777145805
 30
0.0
 10
13.9636345366
 20
10.8802731977
 30
0.0
 10
13.959666691
 20
10.8816408275
 30
0.0
 10
13.9576817614
 20
10.8822319781
 30
0.0
  0
SPLINE
  5
366
100
AcDbEntity
  8
0
100
AcDbSpline
 62
7
  6
CONTINUOUS
 70
0
 71
3
 72
15
 73
11
 74
0
 42
0.0000001
 43
0.0000001
 44
0.0000000001
 40
0.0
 40
0.0
 40
0.0
 40
0.0
 40
0.1462496427
 40
0.2854268221
 40
0.4179093608
 40
0.5441755998
 40
0.6647972791
 40
0.7804432932
 40
0.8918854032
 40
1.0
 40
1.0
 40
1.0
 40
1.0
 10
13.8668680216
 20
8.7368924627
 30
0.0
 10
13.864428965
 20
8.7345365147
 30
0.0
 10
13.8595531109
 20
8.730055942
 30
0.0
 10
13.8520559471
 20
8.7239081415
 30
0.0
 10
13.8445657004
 20
8.7185090354
 30
0.0
 10
13.837087293
 20
8.7138630916
 30
0.0
 10
13.8296249955
 20
8.7099743693
 30
0.0
 10
13.8221831255
 20
8.7068465869
 30
0.0
 10
13.8147675554
 20
8.7044839879
 30
0.0
 10
13.8097817311
 20
8.7034077744
 30
0.0
 10
13.807307498
 20
8.7030046866
 30
0.0
  0
SPLINE
  5
367
100
AcDbEntity
  8
0
100
AcDbSpline
 62
7
  6
CONTINUOUS
 70
0
 71
3
 72
23
 73
19
 74
0
 42
0.0000001
 43
0.0000001
 44
0.0000000001
 40
0.0
 40
0.0
 40
0.0
 40
0.0
 40
0.0781368527
 40
0.1532317188
 40
0.225404452
 40
0.2947998426
 40
0.3615916891
 40
0.4259789642
 40
0.4881874855
 40
0.5484707583
 40
0.6071107438
 40
0.6644176967
 40
0.7207260077
 40
0.7763899872
 40
0.8317774567
 40
0.887262179
 40
0.9432158246
 40
1.0
 40
1.0
 40
1.0
 40
1.0
 10
13.8668680216
 20
8.9653339341
 30
0.0
 10
13.8653277239
 20
8.9638461208
 30
0.0
 10
13.8622480417
 20
8.9609886299
 30
0.0
 10
13.857536064
 20
8.9569901875
 30
0.0
 10
13.852827209
 20
8.9533683336
 30
0.0
 10
13.8481236026
 20
8.95012511
 30
0.0
 10
13.8434272071
 20
8.9472619976
 30
0.0
 10
13.838739803
 20
8.944780539
 30
0.0
 10
13.8340633275
 20
8.942682081
 30
0.0
 10
13.8293997877
 20
8.9409679433
 30
0.0
 10
13.8247512518
 20
8.9396395214
 30
0.0
 10
13.8201200146
 20
8.9386977767
 30
0.0
 10
13.8155084516
 20
8.9381436901
 30
0.0
 10
13.8109191302
 20
8.9379779281
 30
0.0
 10
13.8063547541
 20
8.938200651
 30
0.0
 10
13.8018179598
 20
8.9388119615
 30
0.0
 10
13.7973117716
 20
8.9398111471
 30
0.0
 10
13.7943566267
 20
8.9407269766
 30
0.0
 10
13.7928893312
 20
8.9412457394
 30
0.0
  0
SPLINE
  5
368
100
AcDbEntity
  8
0
100
AcDbSpline
 62
7
  6
CONTINUOUS
 70
0
 71
3
 72
18
 73
14
 74
0
 42
0.0000001
 43
0.0000001
 44
0.0000000001
 40
0.0
 40
0.0
 40
0.0
 40
0.0
 40
0.150467608
 40
0.291710008
 40
0.4244359371
 40
0.549562455
 40
0.6682139939
 40
0.7255497488
 40
0.7817912909
 40
0.8371402503
 40
0.8918093826
 40
0.9460201179
 40
1.0
 40
1.0
 40
1.0
 40
1.0
 10
13.8977776506
 20
8.7347488726
 30
0.0
 10
13.8946848134
 20
8.7317614212
 30
0.0
 10
13.8885035306
 20
8.7261561934
 30
0.0
 10
13.8789318641
 20
8.7186862703
 30
0.0
 10
13.8693714401
 20
8.7124388034
 30
0.0
 10
13.8598321568
 20
8.7074240471
 30
0.0
 10
13.8518144942
 20
8.7042441255
 30
0.0
 10
13.8454488243
 20
8.7023548065
 30
0.0
 10
13.8407423784
 20
8.7012658298
 30
0.0
 10
13.8360515465
 20
8.7004896882
 30
0.0
 10
13.8313776429
 20
8.7000266563
 30
0.0
 10
13.8267225268
 20
8.6998769752
 30
0.0
 10
13.8236298016
 20
8.6999863614
 30
0.0
 10
13.8220908619
 20
8.7000930806
 30
0.0
  0
SPLINE
  5
369
100
AcDbEntity
  8
0
100
AcDbSpline
 62
7
  6
CONTINUOUS
 70
0
 71
3
 72
91
 73
87
 74
0
 42
0.0000001
 43
0.0000001
 44
0.0000000001
 40
0.0
 40
0.0
 40
0.0
 40
0.0
 40
0.0027164146
 40
0.005453202
 40
0.008230252
 40
0.0110665198
 40
0.0139797053
 40
0.0169859824
 40
0.0200999174
 40
0.023334401
 40
0.0267007187
 40
0.0302086385
 40
0.0338665091
 40
0.0376814414
 40
0.0416593691
 40
0.0458052582
 40
0.0501231421
 40
0.0546162891
 40
0.0592872586
 40
0.064137982
 40
0.0691698666
 40
0.0743837897
 40
0.079780237
 40
0.0853592528
 40
0.0911205635
 40
0.0970635488
 40
0.1031872988
 40
0.1094906474
 40
0.1226297881
 40
0.1364673429
 40
0.1509860432
 40
0.166165828
 40
0.1819841602
 40
0.1984162836
 40
0.2154354412
 40
0.2330130641
 40
0.2511189358
 40
0.2697213391
 40
0.2887871904
 40
0.3082821639
 40
0.3281708096
 40
0.3484166635
 40
0.368982358
 40
0.3898297276
 40
0.4109199118
 40
0.4322134566
 40
0.4536704139
 40
0.4752504412
 40
0.4969128994
 40
0.5186169519
 40
0.5403216628
 40
0.5619860952
 40
0.5835694083
 40
0.6050309559
 40
0.6263303839
 40
0.6474277291
 40
0.6682835187
 40
0.688858872
 40
0.7091156002
 40
0.7290163102
 40
0.7485245085
 40
0.7676047097
 40
0.7862225487
 40
0.8043448976
 40
0.8219399925
 40
0.8389775679
 40
0.8554290014
 40
0.8712674776
 40
0.8864681732
 40
0.9010084737
 40
0.9148682315
 40
0.9280300795
 40
0.9343449284
 40
0.9404802779
 40
0.9464349254
 40
0.952207944
 40
0.9577987094
 40
0.9632068925
 40
0.9684325652
 40
0.9734761403
 40
0.9783384919
 40
0.9830209404
 40
0.9875254382
 40
0.9918545985
 40
0.9960115586
 40
1.0
 40
1.0
 40
1.0
 40
1.0
 10
13.9734644392
 20
10.8828504978
 30
0.0
 10
13.9755062566
 20
10.8827089061
 30
0.0
 10
13.9795947509
 20
10.8822398733
 30
0.0
 10
13.9856754545
 20
10.8809847351
 30
0.0
 10
13.9917101771
 20
10.8791781173
 30
0.0
 10
13.9976946857
 20
10.8768219432
 30
0.0
 10
14.0036257946
 20
10.8739181005
 30
0.0
 10
14.0095005656
 20
10.8704690584
 30
0.0
 10
14.0153162017
 20
10.8664771209
 30
0.0
 10
14.0210701764
 20
10.8619449103
 30
0.0
 10
14.0267599891
 20
10.8568750431
 30
0.0
 10
14.0323831529
 20
10.8512702673
 30
0.0
 10
14.0379372901
 20
10.8451335662
 30
0.0
 10
14.0434198276
 20
10.8384679719
 30
0.0
 10
14.0488284043
 20
10.8312768903
 30
0.0
 10
14.0541604075
 20
10.8235638021
 30
0.0
 10
14.0594134239
 20
10.8153325587
 30
0.0
 10
14.0645848981
 20
10.8065871814
 30
0.0
 10
14.0696723422
 20
10.7973319856
 30
0.0
 10
14.0746733156
 20
10.7875715513
 30
0.0
 10
14.0795852883
 20
10.7773106824
 30
0.0
 10
14.0844059319
 20
10.7665544961
 30
0.0
 10
14.0891327483
 20
10.7553083055
 30
0.0
 10
14.0937634758
 20
10.7435777333
 30
0.0
 10
14.0982957338
 20
10.7313686088
 30
0.0
 10
14.1027272755
 20
10.7186870399
 30
0.0
 10
14.1070559217
 20
10.705539344
 30
0.0
 10
14.112766331
 20
10.6871411387
 30
0.0
 10
14.1196112906
 20
10.6630136248
 30
0.0
 10
14.1272719836
 20
10.6326974982
 30
0.0
 10
14.1344733793
 20
10.6006913548
 30
0.0
 10
14.1412008653
 20
10.5670593548
 30
0.0
 10
14.1474407493
 20
10.5318686631
 30
0.0
 10
14.1531803344
 20
10.4951897784
 30
0.0
 10
14.1584079397
 20
10.4570962301
 30
0.0
 10
14.1631129248
 20
10.4176644533
 30
0.0
 10
14.1672857126
 20
10.3769736111
 30
0.0
 10
14.170917808
 20
10.3351054303
 30
0.0
 10
14.1740018146
 20
10.2921440295
 30
0.0
 10
14.1765314489
 20
10.2481757462
 30
0.0
 10
14.1785015513
 20
10.2032889599
 30
0.0
 10
14.1799081
 20
10.1575739124
 30
0.0
 10
14.1807482157
 20
10.111122522
 30
0.0
 10
14.1810201652
 20
10.0640281959
 30
0.0
 10
14.1807233648
 20
10.0163856393
 30
0.0
 10
14.1798583806
 20
9.9682906652
 30
0.0
 10
14.1784269273
 20
9.91984
 30
0.0
 10
14.176431864
 20
9.8711310893
 30
0.0
 10
14.1738771886
 20
9.8222619006
 30
0.0
 10
14.1707680335
 20
9.7733307254
 30
0.0
 10
14.1671106507
 20
9.7244359798
 30
0.0
 10
14.1629123996
 20
9.6756760056
 30
0.0
 10
14.1581817317
 20
9.6271488722
 30
0.0
 10
14.1529281741
 20
9.5789521791
 30
0.0
 10
14.1471623103
 20
9.5311828593
 30
0.0
 10
14.1408957589
 20
9.4839369833
 30
0.0
 10
14.1341411513
 20
9.4373095637
 30
0.0
 10
14.1269121099
 20
9.3913943619
 30
0.0
 10
14.1192232158
 20
9.3462836985
 30
0.0
 10
14.1110899814
 20
9.3020682669
 30
0.0
 10
14.1025288191
 20
9.258836949
 30
0.0
 10
14.0935570089
 20
9.216676635
 30
0.0
 10
14.0841926643
 20
9.1756720449
 30
0.0
 10
14.0744546951
 20
9.1359055538
 30
0.0
 10
14.0643627725
 20
9.0974570185
 30
0.0
 10
14.0539372893
 20
9.0604036084
 30
0.0
 10
14.0431993146
 20
9.0248196477
 30
0.0
 10
14.03217055
 20
8.9907764442
 30
0.0
 10
14.0208732833
 20
8.9583421725
 30
0.0
 10
14.0093303307
 20
8.9275815779
 30
0.0
 10
13.9975649992
 20
8.8985563113
 30
0.0
 10
13.9874604743
 20
8.875555842
 30
0.0
 10
13.9792690328
 20
8.8580820389
 30
0.0
 10
13.9731695012
 20
8.8456273024
 30
0.0
 10
13.9670321899
 20
8.8336480434
 30
0.0
 10
13.9608601221
 20
8.8221502416
 30
0.0
 10
13.9546564441
 20
8.8111396223
 30
0.0
 10
13.9484241764
 20
8.8006216993
 30
0.0
 10
13.942166511
 20
8.7906016648
 30
0.0
 10
13.9358864574
 20
8.7810845482
 30
0.0
 10
13.9295872345
 20
8.7720750468
 30
0.0
 10
13.9232718863
 20
8.7635776341
 30
0.0
 10
13.9169434661
 20
8.7555964576
 30
0.0
 10
13.9106049464
 20
8.748135375
 30
0.0
 10
13.9042596617
 20
8.7411984338
 30
0.0
 10
13.8999391166
 20
8.7368366885
 30
0.0
 10
13.8977776506
 20
8.7347488726
 30
0.0
  0
SPLINE
  5
36A
100
AcDbEntity
  8
0
100
AcDbSpline
 62
7
  6
CONTINUOUS
 70
0
 71
3
 72
15
 73
11
 74
0
 42
0.0000001
 43
0.0000001
 44
0.0000000001
 40
0.0
 40
0.0
 40
0.0
 40
0.0
 40
0.1273483438
 40
0.2538606048
 40
0.3795878922
 40
0.5046051199
 40
0.6290174392
 40
0.7529533668
 40
0.8765605676
 40
1.0
 40
1.0
 40
1.0
 40
1.0
 10
9.0875407085
 20
6.2216580932
 30
0.0
 10
9.0875407085
 20
6.2279101526
 30
0.0
 10
9.0881376613
 20
6.2403818684
 30
0.0
 10
9.0908373176
 20
6.2588495657
 30
0.0
 10
9.0953137998
 20
6.2768532296
 30
0.0
 10
9.1015266649
 20
6.2942244907
 30
0.0
 10
9.1094189294
 20
6.3108031396
 30
0.0
 10
9.1189186541
 20
6.3264360739
 30
0.0
 10
9.1299364734
 20
6.340976847
 30
0.0
 10
9.138232353
 20
6.3498591336
 30
0.0
 10
9.1425911645
 20
6.3540693874
 30
0.0
  0
SPLINE
  5
36B
100
AcDbEntity
  8
0
100
AcDbSpline
 62
7
  6
CONTINUOUS
 70
0
 71
3
 72
88
 73
84
 74
0
 42
0.0000001
 43
0.0000001
 44
0.0000000001
 40
0.0
 40
0.0
 40
0.0
 40
0.0
 40
0.0040523162
 40
0.0082800511
 40
0.0126870794
 40
0.0172766529
 40
0.0220514772
 40
0.0270136118
 40
0.0321643853
 40
0.03750465
 40
0.0430347714
 40
0.048754717
 40
0.0546640998
 40
0.0607621325
 40
0.0735191872
 40
0.0870145787
 40
0.1012325445
 40
0.1161539536
 40
0.1317567251
 40
0.1480161589
 40
0.1649052018
 40
0.1823946893
 40
0.2004535476
 40
0.2190489688
 40
0.2381465678
 40
0.2577105224
 40
0.277703709
 40
0.2980878387
 40
0.3188235792
 40
0.3398706729
 40
0.3611880513
 40
0.3827339459
 40
0.4044660057
 40
0.4263414091
 40
0.4703485321
 40
0.5144082093
 40
0.5363491793
 40
0.5581728015
 40
0.579836022
 40
0.6012961908
 40
0.6225111769
 40
0.6434394791
 40
0.6640403369
 40
0.6842738441
 40
0.7041010648
 40
0.7234841583
 40
0.7423865082
 40
0.7607728477
 40
0.7786093975
 40
0.7958640142
 40
0.8125063566
 40
0.8285080798
 40
0.8438430415
 40
0.8584875435
 40
0.8724206282
 40
0.8856244412
 40
0.8919484868
 40
0.8980852013
 40
0.9040334441
 40
0.9097923877
 40
0.9153615677
 40
0.9207408368
 40
0.9259305205
 40
0.9309313492
 40
0.9357445879
 40
0.9403720839
 40
0.9448162906
 40
0.9490804508
 40
0.9531685802
 40
0.9570856728
 40
0.9608377806
 40
0.9644321382
 40
0.9678773744
 40
0.9711835693
 40
0.9774235825
 40
0.9803901818
 40
0.98327536
 40
0.9860978403
 40
0.9888777705
 40
0.99163631
 40
0.9943951596
 40
0.9971760079
 40
1.0
 40
1.0
 40
1.0
 40
1.0
 10
13.8668680216
 20
8.9653339341
 30
0.0
 10
13.8686039303
 20
8.9670106933
 30
0.0
 10
13.8720737439
 20
8.9705174024
 30
0.0
 10
13.8771670113
 20
8.976101445
 30
0.0
 10
13.8822546153
 20
8.9821162101
 30
0.0
 10
13.8873336836
 20
8.9885582762
 30
0.0
 10
13.8924017578
 20
8.9954243357
 30
0.0
 10
13.8974562269
 20
9.0027109227
 30
0.0
 10
13.9024945919
 20
9.0104142281
 30
0.0
 10
13.9075141296
 20
9.0185302738
 30
0.0
 10
13.9125122627
 20
9.0270547982
 30
0.0
 10
13.9174863809
 20
9.0359833508
 30
0.0
 10
13.9224338738
 20
9.0453112966
 30
0.0
 10
13.9290919151
 20
9.0584731181
 30
0.0
 10
13.9373126907
 20
9.0759033067
 30
0.0
 10
13.9468880667
 20
9.0980270158
 30
0.0
 10
13.9562963945
 20
9.1216156849
 30
0.0
 10
13.96551777
 20
9.1466198123
 30
0.0
 10
13.9745326701
 20
9.1729871786
 30
0.0
 10
13.9833219823
 20
9.2006624811
 30
0.0
 10
13.9918670796
 20
9.2295876084
 30
0.0
 10
14.0001498476
 20
9.2597017455
 30
0.0
 10
14.0081527287
 20
9.2909415333
 30
0.0
 10
14.0158587608
 20
9.3232412076
 30
0.0
 10
14.0232516112
 20
9.3565327419
 30
0.0
 10
14.0303156194
 20
9.3907459901
 30
0.0
 10
14.0370358317
 20
9.4258088401
 30
0.0
 10
14.043398022
 20
9.4616473755
 30
0.0
 10
14.049388725
 20
9.4981860367
 30
0.0
 10
14.054995262
 20
9.5353477784
 30
0.0
 10
14.0602057709
 20
9.5730542367
 30
0.0
 10
14.0650092261
 20
9.6112258706
 30
0.0
 10
14.0693955182
 20
9.6497822222
 30
0.0
 10
14.0746854138
 20
9.7016959944
 30
0.0
 10
14.0801889411
 20
9.7669499906
 30
0.0
 10
14.0841996749
 20
9.8323518105
 30
0.0
 10
14.0864970408
 20
9.8846087966
 30
0.0
 10
14.0877550971
 20
9.9235569818
 30
0.0
 10
14.0885479901
 20
9.9622309692
 30
0.0
 10
14.0888740281
 20
10.000549243
 30
0.0
 10
14.0887325623
 20
10.0384309656
 30
0.0
 10
14.0881239242
 20
10.0757962473
 30
0.0
 10
14.0870494374
 20
10.112566288
 30
0.0
 10
14.0855114121
 20
10.1486635487
 30
0.0
 10
14.0835131406
 20
10.1840119157
 30
0.0
 10
14.0810588966
 20
10.218536869
 30
0.0
 10
14.0781539332
 20
10.2521656438
 30
0.0
 10
14.0748044596
 20
10.2848273855
 30
0.0
 10
14.0710176316
 20
10.3164532977
 30
0.0
 10
14.0668015364
 20
10.3469767938
 30
0.0
 10
14.0621651731
 20
10.3763336472
 30
0.0
 10
14.0571184496
 20
10.404462154
 30
0.0
 10
14.0516721454
 20
10.4313032402
 30
0.0
 10
14.0458378924
 20
10.4568007229
 30
0.0
 10
14.0396280999
 20
10.4809010141
 30
0.0
 10
14.0340745005
 20
10.5000442153
 30
0.0
 10
14.0294395909
 20
10.5146106173
 30
0.0
 10
14.0259278226
 20
10.5249977273
 30
0.0
 10
14.0223323004
 20
10.5349992412
 30
0.0
 10
14.018654853
 20
10.5446099289
 30
0.0
 10
14.014897488
 20
10.5538247778
 30
0.0
 10
14.0110620732
 20
10.5626389514
 30
0.0
 10
14.0071507021
 20
10.5710478823
 30
0.0
 10
14.0031653442
 20
10.5790471809
 30
0.0
 10
13.9991080615
 20
10.5866326953
 30
0.0
 10
13.9949809827
 20
10.5938005226
 30
0.0
 10
13.9907861021
 20
10.6005469147
 30
0.0
 10
13.9865256337
 20
10.6068684466
 30
0.0
 10
13.9822015836
 20
10.6127618156
 30
0.0
 10
13.9778161056
 20
10.6182239835
 30
0.0
 10
13.9733712483
 20
10.623252164
 30
0.0
 10
13.9688691975
 20
10.6278435009
 30
0.0
 10
13.964311417
 20
10.6319960377
 30
0.0
 10
13.9582815072
 20
10.6368493078
 30
0.0
 10
13.9520219477
 20
10.6409499089
 30
0.0
 10
13.9455714534
 20
10.6441669137
 30
0.0
 10
13.9407696722
 20
10.6460898016
 30
0.0
 10
13.9359265844
 20
10.6475605982
 30
0.0
 10
13.9310450572
 20
10.6485781217
 30
0.0
 10
13.9261285151
 20
10.6491411818
 30
0.0
 10
13.9211803742
 20
10.6492492028
 30
0.0
 10
13.9162046777
 20
10.6489024566
 30
0.0
 10
13.912903622
 20
10.6483735176
 30
0.0
 10
13.9112556863
 20
10.6480371388
 30
0.0
  0
SPLINE
  5
36C
100
AcDbEntity
  8
0
100
AcDbSpline
 62
7
  6
CONTINUOUS
 70
0
 71
3
 72
70
 73
66
 74
0
 42
0.0000001
 43
0.0000001
 44
0.0000000001
 40
0.0
 40
0.0
 40
0.0
 40
0.0
 40
0.0037537531
 40
0.0076516012
 40
0.0116964702
 40
0.0158908408
 40
0.0202368598
 40
0.0247362896
 40
0.0293904215
 40
0.0342001133
 40
0.0442875986
 40
0.0550004697
 40
0.0663358312
 40
0.0782874245
 40
0.0908461045
 40
0.1040002308
 40
0.1177359946
 40
0.1320376472
 40
0.1468876678
 40
0.1622669681
 40
0.1781550403
 40
0.1945300543
 40
0.2113689615
 40
0.2286476239
 40
0.2463408973
 40
0.264422688
 40
0.282866049
 40
0.3016432674
 40
0.320725923
 40
0.3400849439
 40
0.3795124545
 40
0.419683719
 40
0.4603500189
 40
0.5012587037
 40
0.5421552047
 40
0.5827850482
 40
0.6228958694
 40
0.6622394442
 40
0.6815478871
 40
0.7005743565
 40
0.719289912
 40
0.7376662537
 40
0.7556757977
 40
0.7732917703
 40
0.7904882605
 40
0.8072402898
 40
0.8235239199
 40
0.8393163499
 40
0.8545959884
 40
0.8693425651
 40
0.8835372946
 40
0.8971630006
 40
0.9102042686
 40
0.9226476685
 40
0.9344820384
 40
0.9456987601
 40
0.9562921499
 40
0.9662600041
 40
0.9756042632
 40
0.9800448848
 40
0.9843327004
 40
0.9884695255
 40
0.9924576993
 40
0.9963000492
 40
1.0
 40
1.0
 40
1.0
 40
1.0
 10
13.7316383979
 20
9.0109468088
 30
0.0
 10
13.7331073624
 20
9.0123657197
 30
0.0
 10
13.7360440051
 20
9.0153182279
 30
0.0
 10
13.7403653464
 20
9.019991528
 30
0.0
 10
13.7446829909
 20
9.0249895817
 30
0.0
 10
13.7489949069
 20
9.0303101437
 30
0.0
 10
13.7532994534
 20
9.0359509907
 30
0.0
 10
13.7575948859
 20
9.0419098946
 30
0.0
 10
13.7618795419
 20
9.04818445
 30
0.0
 10
13.7676678374
 20
9.0571102293
 30
0.0
 10
13.774850625
 20
9.0690554816
 30
0.0
 10
13.783267178
 20
9.0843851605
 30
0.0
 10
13.7915989092
 20
9.100905099
 30
0.0
 10
13.7998320298
 20
9.118588156
 30
0.0
 10
13.8079529655
 20
9.1374055167
 30
0.0
 10
13.8159482496
 20
9.1573262748
 30
0.0
 10
13.8238045829
 20
9.1783176723
 30
0.0
 10
13.8315088684
 20
9.2003451061
 30
0.0
 10
13.8390482915
 20
9.2233721892
 30
0.0
 10
13.8464102903
 20
9.2473608442
 30
0.0
 10
13.8535825815
 20
9.2722713821
 30
0.0
 10
13.8605532068
 20
9.2980625513
 30
0.0
 10
13.8673105668
 20
9.3246916086
 30
0.0
 10
13.8738434007
 20
9.3521144145
 30
0.0
 10
13.8801408083
 20
9.3802855064
 30
0.0
 10
13.8861923096
 20
9.409158157
 30
0.0
 10
13.8919878393
 20
9.4386844667
 30
0.0
 10
13.897517732
 20
9.4688154414
 30
0.0
 10
13.9027728073
 20
9.4995011248
 30
0.0
 10
13.9094417919
 20
9.5413408246
 30
0.0
 10
13.9170159299
 20
9.5946512042
 30
0.0
 10
13.9248287577
 20
9.6596216933
 30
0.0
 10
13.9313674635
 20
9.7255426542
 30
0.0
 10
13.9365885147
 20
9.7919767196
 30
0.0
 10
13.9404572128
 20
9.8584833725
 30
0.0
 10
13.9429480128
 20
9.9246216042
 30
0.0
 10
13.9440445008
 20
9.9899525912
 30
0.0
 10
13.9437892866
 20
10.0436916893
 30
0.0
 10
13.9428693749
 20
10.0859457911
 30
0.0
 10
13.9418334995
 20
10.1169692809
 30
0.0
 10
13.940449268
 20
10.1474715306
 30
0.0
 10
13.9387189655
 20
10.1774019623
 30
0.0
 10
13.9366454919
 20
10.2067109004
 30
0.0
 10
13.9342323411
 20
10.2353497276
 30
0.0
 10
13.9314835646
 20
10.2632709424
 30
0.0
 10
13.9284037566
 20
10.2904282371
 30
0.0
 10
13.9249980792
 20
10.3167765899
 30
0.0
 10
13.9212722587
 20
10.3422723453
 30
0.0
 10
13.9172325412
 20
10.3668732736
 30
0.0
 10
13.9128856781
 20
10.3905386489
 30
0.0
 10
13.9082389687
 20
10.4132293408
 30
0.0
 10
13.903300209
 20
10.4349078796
 30
0.0
 10
13.8980776574
 20
10.4555385114
 30
0.0
 10
13.8925800249
 20
10.4750872805
 30
0.0
 10
13.8868164959
 20
10.4935221391
 30
0.0
 10
13.880796645
 20
10.5108129403
 30
0.0
 10
13.8745303444
 20
10.5269317
 30
0.0
 10
13.868027865
 20
10.5418520191
 30
0.0
 10
13.8623280701
 20
10.5534569932
 30
0.0
 10
13.8576454118
 20
10.5621046331
 30
0.0
 10
13.8541408411
 20
10.5681650246
 30
0.0
 10
13.8505853236
 20
10.5739081531
 30
0.0
 10
13.8469802781
 20
10.5793317618
 30
0.0
 10
13.8433271945
 20
10.5844335095
 30
0.0
 10
13.8408139651
 20
10.5876790512
 30
0.0
 10
13.8395489156
 20
10.5892449699
 30
0.0
  0
SPLINE
  5
36D
100
AcDbEntity
  8
0
100
AcDbSpline
 62
7
  6
CONTINUOUS
 70
0
 71
3
 72
59
 73
55
 74
0
 42
0.0000001
 43
0.0000001
 44
0.0000000001
 40
0.0
 40
0.0
 40
0.0
 40
0.0
 40
0.0085718105
 40
0.0176997326
 40
0.027388635
 40
0.0376396473
 40
0.0484508177
 40
0.0598174469
 40
0.0717325027
 40
0.0841869746
 40
0.0971700317
 40
0.1106692345
 40
0.1246707479
 40
0.1391594033
 40
0.1541188329
 40
0.1695316145
 40
0.1853792927
 40
0.2016424796
 40
0.2183009628
 40
0.2353337122
 40
0.2527189643
 40
0.2704343087
 40
0.3067619255
 40
0.3441263287
 40
0.3823291761
 40
0.4211662255
 40
0.4604288172
 40
0.4999053517
 40
0.5393827671
 40
0.5786479929
 40
0.6174894187
 40
0.6556983509
 40
0.693070493
 40
0.7294074694
 40
0.7471280699
 40
0.7645189696
 40
0.7815577133
 40
0.798222547
 40
0.8144924431
 40
0.8303471359
 40
0.8457672491
 40
0.8607343266
 40
0.8752308837
 40
0.8892405662
 40
0.9027481987
 40
0.9157398744
 40
0.9282031664
 40
0.9401272283
 40
0.9515029652
 40
0.9623233523
 40
0.9725836639
 40
0.982281827
 40
0.9914189783
 40
1.0
 40
1.0
 40
1.0
 40
1.0
 10
13.7018406668
 20
9.0802040228
 30
0.0
 10
13.7044406783
 20
9.0835463977
 30
0.0
 10
13.7096191441
 20
9.0905973622
 30
0.0
 10
13.7171085118
 20
9.1018706729
 30
0.0
 10
13.7245516495
 20
9.1141553189
 30
0.0
 10
13.7319378538
 20
9.127433683
 30
0.0
 10
13.7392567566
 20
9.1416872744
 30
0.0
 10
13.7464979054
 20
9.1568959317
 30
0.0
 10
13.7536509641
 20
9.1730380759
 30
0.0
 10
13.7607056094
 20
9.1900907417
 30
0.0
 10
13.7676516868
 20
9.2080295878
 30
0.0
 10
13.7744792019
 20
9.2268289499
 30
0.0
 10
13.7811782619
 20
9.2464619152
 30
0.0
 10
13.7877392003
 20
9.2669003288
 30
0.0
 10
13.7941525618
 20
9.2881148511
 30
0.0
 10
13.8004090478
 20
9.310075025
 30
0.0
 10
13.8064996296
 20
9.3327492935
 30
0.0
 10
13.8124155292
 20
9.3561050567
 30
0.0
 10
13.8181481734
 20
9.3801087396
 30
0.0
 10
13.8236892835
 20
9.4047258078
 30
0.0
 10
13.8290309171
 20
9.4299208703
 30
0.0
 10
13.8359343559
 20
9.4645259825
 30
0.0
 10
13.8439933703
 20
9.5089614601
 30
0.0
 10
13.8526753734
 20
9.5635566512
 30
0.0
 10
13.8603971527
 20
9.619547512
 30
0.0
 10
13.8671140127
 20
9.6766118666
 30
0.0
 10
13.8727870786
 20
9.7344215913
 30
0.0
 10
13.8773836185
 20
9.7926441333
 30
0.0
 10
13.8808771334
 20
9.8509445614
 30
0.0
 10
13.8832475558
 20
9.9089874928
 30
0.0
 10
13.8844813967
 20
9.9664390177
 30
0.0
 10
13.8845717908
 20
10.0229687484
 30
0.0
 10
13.8835184391
 20
10.0782513733
 30
0.0
 10
13.8816781875
 20
10.1233852866
 30
0.0
 10
13.8796238641
 20
10.1586224477
 30
0.0
 10
13.8778158327
 20
10.1843223559
 30
0.0
 10
13.8757303678
 20
10.2094779397
 30
0.0
 10
13.873370486
 20
10.2340530408
 30
0.0
 10
13.8707396355
 20
10.2580122997
 30
0.0
 10
13.8678416005
 20
10.2813212575
 30
0.0
 10
13.8646806136
 20
10.3039464041
 30
0.0
 10
13.8612612771
 20
10.3258552243
 30
0.0
 10
13.8575885197
 20
10.3470162408
 30
0.0
 10
13.8536677004
 20
10.3673990795
 30
0.0
 10
13.8495045234
 20
10.3869745059
 30
0.0
 10
13.8451049888
 20
10.4057144632
 30
0.0
 10
13.8404755049
 20
10.423592145
 30
0.0
 10
13.8356227857
 20
10.4405820261
 30
0.0
 10
13.830553796
 20
10.4566598897
 30
0.0
 10
13.8252758564
 20
10.4718029349
 30
0.0
 10
13.8197965494
 20
10.4859897282
 30
0.0
 10
13.8141235074
 20
10.4992004691
 30
0.0
 10
13.808264954
 20
10.5114162697
 30
0.0
 10
13.8041114108
 20
10.5191259983
 30
0.0
 10
13.8019986438
 20
10.5228010908
 30
0.0
  0
SPLINE
  5
36E
100
AcDbEntity
  8
0
100
AcDbSpline
 62
7
  6
CONTINUOUS
 70
0
 71
3
 72
39
 73
35
 74
0
 42
0.0000001
 43
0.0000001
 44
0.0000000001
 40
0.0
 40
0.0
 40
0.0
 40
0.0
 40
0.0311159723
 40
0.0620233248
 40
0.0927351404
 40
0.1232711776
 40
0.1536587326
 40
0.1839312111
 40
0.2141268393
 40
0.2442870992
 40
0.2744549754
 40
0.3046731314
 40
0.3349820899
 40
0.3654185435
 40
0.3960138648
 40
0.4267928822
 40
0.4577729963
 40
0.4889636214
 40
0.5203659689
 40
0.551973178
 40
0.5837707188
 40
0.6157370639
 40
0.6478445901
 40
0.6800606405
 40
0.7123487311
 40
0.7446698622
 40
0.7769838843
 40
0.8092508939
 40
0.8414326243
 40
0.8734937998
 40
0.9054034123
 40
0.9371359058
 40
0.9686717941
 40
1.0
 40
1.0
 40
1.0
 40
1.0
 10
9.5540829103
 20
7.5174513715
 30
0.0
 10
9.5540829103
 20
7.5086341713
 30
0.0
 10
9.5532221124
 20
7.4910461308
 30
0.0
 10
9.5493291702
 20
7.4650157079
 30
0.0
 10
9.5428755392
 20
7.4396652666
 30
0.0
 10
9.5339222438
 20
7.4152428388
 30
0.0
 10
9.5225550305
 20
7.3919837337
 30
0.0
 10
9.508883002
 20
7.3701132977
 30
0.0
 10
9.4930378143
 20
7.3498433348
 30
0.0
 10
9.4751725923
 20
7.3313701284
 30
0.0
 10
9.4554601208
 20
7.3148725385
 30
0.0
 10
9.4340912494
 20
7.3005101284
 30
0.0
 10
9.4112730095
 20
7.2884213791
 30
0.0
 10
9.3872262895
 20
7.2787226397
 30
0.0
 10
9.3621837263
 20
7.2715068662
 30
0.0
 10
9.336387349
 20
7.2668426772
 30
0.0
 10
9.3100861057
 20
7.2647741135
 30
0.0
 10
9.2835335194
 20
7.2653200656
 30
0.0
 10
9.2569852013
 20
7.2684741575
 30
0.0
 10
9.230696457
 20
7.2742051868
 30
0.0
 10
9.2049198687
 20
7.2824571927
 30
0.0
 10
9.1799028864
 20
7.29315009
 30
0.0
 10
9.1558856181
 20
7.3061806894
 30
0.0
 10
9.1330984683
 20
7.3214233992
 30
0.0
 10
9.1117599893
 20
7.3387315434
 30
0.0
 10
9.0920749733
 20
7.3579388998
 30
0.0
 10
9.0742323184
 20
7.37886101
 30
0.0
 10
9.0584033367
 20
7.4012970789
 30
0.0
 10
9.0447402799
 20
7.4250318991
 30
0.0
 10
9.0333746147
 20
7.4498377921
 30
0.0
 10
9.0244159351
 20
7.4754764991
 30
0.0
 10
9.0179511052
 20
7.5017027986
 30
0.0
 10
9.014042773
 20
7.5282614872
 30
0.0
 10
9.0131644155
 20
7.5460868566
 30
0.0
 10
9.0131644155
 20
7.5549641965
 30
0.0
  0
SPLINE
  5
36F
100
AcDbEntity
  8
0
100
AcDbSpline
 62
7
  6
CONTINUOUS
 70
0
 71
3
 72
83
 73
79
 74
0
 42
0.0000001
 43
0.0000001
 44
0.0000000001
 40
0.0
 40
0.0
 40
0.0
 40
0.0
 40
0.0030110524
 40
0.0061198839
 40
0.0093380493
 40
0.0126757589
 40
0.0161419541
 40
0.0197444145
 40
0.0234897945
 40
0.0273838023
 40
0.0314312273
 40
0.0356360709
 40
0.040001642
 40
0.044530575
 40
0.0492249853
 40
0.0540864413
 40
0.0591160752
 40
0.0643146212
 40
0.0696824091
 40
0.0752194832
 40
0.080925538
 40
0.0868000174
 40
0.099050325
 40
0.111961647
 40
0.1255214856
 40
0.1397145396
 40
0.1545230405
 40
0.169927024
 40
0.1859045523
 40
0.2024318959
 40
0.2194837044
 40
0.2370331548
 40
0.2550520786
 40
0.2735110785
 40
0.2923796313
 40
0.3116261926
 40
0.3312182988
 40
0.3511226604
 40
0.3713052507
 40
0.391731392
 40
0.4123658408
 40
0.4331728786
 40
0.4751592968
 40
0.5173992396
 40
0.5595983108
 40
0.6014624861
 40
0.6221782063
 40
0.642701466
 40
0.6629968026
 40
0.6830292769
 40
0.7027645581
 40
0.7221690138
 40
0.7412098035
 40
0.7598549663
 40
0.7780735145
 40
0.7958355327
 40
0.8131122847
 40
0.8298763348
 40
0.8461016659
 40
0.8617638131
 40
0.8768400162
 40
0.8913093977
 40
0.9051531799
 40
0.9183549326
 40
0.9309008701
 40
0.9427802316
 40
0.9484677837
 40
0.9539863141
 40
0.9593355425
 40
0.9645155477
 40
0.9695267185
 40
0.9743698064
 40
0.9790459865
 40
0.9835568616
 40
0.9879046689
 40
0.9920922007
 40
0.9961227154
 40
1.0
 40
1.0
 40
1.0
 40
1.0
 10
10.6972874038
 20
11.865843128
 30
0.0
 10
10.6964375576
 20
11.8677839195
 30
0.0
 10
10.6945675417
 20
11.8716674148
 30
0.0
 10
10.6913257932
 20
11.877387647
 30
0.0
 10
10.6876076425
 20
11.8830867021
 30
0.0
 10
10.6834153638
 20
11.8887617878
 30
0.0
 10
10.6787510986
 20
11.8944106738
 30
0.0
 10
10.6736170903
 20
11.9000308782
 30
0.0
 10
10.6680158948
 20
11.9056201349
 30
0.0
 10
10.6619500594
 20
11.9111759509
 30
0.0
 10
10.6554224488
 20
11.9166959682
 30
0.0
 10
10.6484360717
 20
11.9221777653
 30
0.0
 10
10.6409941042
 20
11.9276188418
 30
0.0
 10
10.6331000229
 20
11.933016852
 30
0.0
 10
10.6247574025
 20
11.9383692536
 30
0.0
 10
10.6159701208
 20
11.9436736744
 30
0.0
 10
10.6067422185
 20
11.94892767
 30
0.0
 10
10.5970779414
 20
11.9541287795
 30
0.0
 10
10.5869817869
 20
11.9592746839
 30
0.0
 10
10.5764583997
 20
11.9643628958
 30
0.0
 10
10.5655126701
 20
11.9693911703
 30
0.0
 10
10.5501467103
 20
11.9761063451
 30
0.0
 10
10.5299054002
 20
11.9843160046
 30
0.0
 10
10.5043439328
 20
11.9937590392
 30
0.0
 10
10.4772294478
 20
12.0029086664
 30
0.0
 10
10.4486123881
 20
12.0117477338
 30
0.0
 10
10.4185457165
 20
12.0202596619
 30
0.0
 10
10.3870852951
 20
12.0284284589
 30
0.0
 10
10.3542896271
 20
12.0362387663
 30
0.0
 10
10.3202197806
 20
12.0436759085
 30
0.0
 10
10.2849392455
 20
12.0507259095
 30
0.0
 10
10.2485138029
 20
12.057375519
 30
0.0
 10
10.2110113933
 20
12.0636122396
 30
0.0
 10
10.1725019908
 20
12.0694243472
 30
0.0
 10
10.1330574734
 20
12.0748009247
 30
0.0
 10
10.0927514835
 20
12.0797318802
 30
0.0
 10
10.0516592815
 20
12.084207956
 30
0.0
 10
10.0098576031
 20
12.0882207471
 30
0.0
 10
9.9674245104
 20
12.0917627196
 30
0.0
 10
9.924439276
 20
12.0948272109
 30
0.0
 10
9.8809821279
 20
12.0974085193
 30
0.0
 10
9.8223443818
 20
12.1002076667
 30
0.0
 10
9.7484658363
 20
12.1024607012
 30
0.0
 10
9.6595031456
 20
12.1031778069
 30
0.0
 10
9.5706325993
 20
12.1019105928
 30
0.0
 10
9.4969485069
 20
12.0991999652
 30
0.0
 10
9.438558115
 20
12.0960364042
 30
0.0
 10
9.3953527877
 20
12.0931863433
 30
0.0
 10
9.352664037
 20
12.0898561822
 30
0.0
 10
9.3105715329
 20
12.0860521258
 30
0.0
 10
9.2691539119
 20
12.0817813213
 30
0.0
 10
9.2284885195
 20
12.0770517797
 30
0.0
 10
9.1886512888
 20
12.0718723885
 30
0.0
 10
9.1497165923
 20
12.0662528761
 30
0.0
 10
9.111757108
 20
12.0602037973
 30
0.0
 10
9.0748436809
 20
12.0537365141
 30
0.0
 10
9.039045182
 20
12.0468631718
 30
0.0
 10
9.0044283685
 20
12.0395966942
 30
0.0
 10
8.9710577566
 20
12.0319507431
 30
0.0
 10
8.9389954999
 20
12.0239396911
 30
0.0
 10
8.9083012693
 20
12.0155785947
 30
0.0
 10
8.8790321123
 20
12.0068831551
 30
0.0
 10
8.8512423655
 20
11.9978697005
 30
0.0
 10
8.8249833717
 20
11.9885551269
 30
0.0
 10
8.8003039288
 20
11.9789568717
 30
0.0
 10
8.7808187533
 20
11.9706203425
 30
0.0
 10
8.7660713155
 20
11.9638081084
 30
0.0
 10
8.7555945083
 20
11.9587134311
 30
0.0
 10
8.7455454698
 20
11.9535613723
 30
0.0
 10
8.7359288084
 20
11.9483543347
 30
0.0
 10
8.7267489806
 20
11.9430947044
 30
0.0
 10
8.7180102508
 20
11.9377848785
 30
0.0
 10
8.7097166254
 20
11.9324273926
 30
0.0
 10
8.7018719461
 20
11.9270245745
 30
0.0
 10
8.6944797239
 20
11.9215788896
 30
0.0
 10
8.6875433321
 20
11.9160926542
 30
0.0
 10
8.6810662922
 20
11.9105686322
 30
0.0
 10
8.6769786852
 20
11.9067905636
 30
0.0
 10
8.6750163984
 20
11.90489514
 30
0.0
  0
SPLINE
  5
370
100
AcDbEntity
  8
0
100
AcDbSpline
 62
7
  6
CONTINUOUS
 70
0
 71
3
 72
96
 73
92
 74
0
 42
0.0000001
 43
0.0000001
 44
0.0000000001
 40
0.0
 40
0.0
 40
0.0
 40
0.0
 40
0.0032486282
 40
0.0063902399
 40
0.0094419425
 40
0.0124226539
 40
0.0153528188
 40
0.0182540701
 40
0.0211487473
 40
0.0240593592
 40
0.0270080105
 40
0.0300158953
 40
0.0331028427
 40
0.0362870562
 40
0.0395849028
 40
0.0430108933
 40
0.0465777038
 40
0.0502962603
 40
0.0541759168
 40
0.0582245321
 40
0.0624487135
 40
0.0668538643
 40
0.0714444037
 40
0.076223826
 40
0.0811948297
 40
0.0863594272
 40
0.0917189662
 40
0.0972742885
 40
0.1030256796
 40
0.1089730296
 40
0.1151157834
 40
0.1214530401
 40
0.1279835635
 40
0.1347057894
 40
0.1416179101
 40
0.1487178054
 40
0.1634710471
 40
0.1789446204
 40
0.1951140287
 40
0.2119519606
 40
0.229428589
 40
0.2475118236
 40
0.2661675302
 40
0.2853597246
 40
0.3050507469
 40
0.3252014253
 40
0.3457712301
 40
0.3667184186
 40
0.3880001742
 40
0.4095727416
 40
0.4313915586
 40
0.453411386
 40
0.4755864354
 40
0.4978704976
 40
0.5202170694
 40
0.5425794798
 40
0.5649110149
 40
0.5871650441
 40
0.609295145
 40
0.6312552299
 40
0.6529996733
 40
0.67448344
 40
0.6956622134
 40
0.7164925257
 40
0.7369318912
 40
0.7569389423
 40
0.7764735702
 40
0.7954970725
 40
0.8139723108
 40
0.8318638768
 40
0.8491382719
 40
0.8657641092
 40
0.8817123418
 40
0.8969565294
 40
0.9114731547
 40
0.9184523833
 40
0.9252424603
 40
0.9318414343
 40
0.9382476713
 40
0.9444598103
 40
0.9504768177
 40
0.9562980321
 40
0.9619231476
 40
0.9673523485
 40
0.972586239
 40
0.9776259891
 40
0.9824733232
 40
0.9871307373
 40
0.9916015472
 40
0.9958897387
 40
1.0
 40
1.0
 40
1.0
 40
1.0
 10
10.633100781
 20
11.7984508035
 30
0.0
 10
10.6342174139
 20
11.8003777785
 30
0.0
 10
10.6362845624
 20
11.8042454094
 30
0.0
 10
10.6389010633
 20
11.8101728671
 30
0.0
 10
10.6409747389
 20
11.8161181146
 30
0.0
 10
10.642503491
 20
11.8220771492
 30
0.0
 10
10.6434855389
 20
11.828046203
 30
0.0
 10
10.6439197269
 20
11.8340210074
 30
0.0
 10
10.6438055083
 20
11.8399971344
 30
0.0
 10
10.6431429305
 20
11.845970067
 30
0.0
 10
10.6419330074
 20
11.851935462
 30
0.0
 10
10.6401769739
 20
11.8578891709
 30
0.0
 10
10.637876915
 20
11.8638274952
 30
0.0
 10
10.6350348301
 20
11.8697469314
 30
0.0
 10
10.6316532072
 20
11.8756443615
 30
0.0
 10
10.6277344917
 20
11.8815167647
 30
0.0
 10
10.6232813067
 20
11.8873612275
 30
0.0
 10
10.6182964789
 20
11.8931749458
 30
0.0
 10
10.6127828577
 20
11.8989549563
 30
0.0
 10
10.6067436931
 20
11.9046984893
 30
0.0
 10
10.6001822563
 20
11.9104024965
 30
0.0
 10
10.5931022554
 20
11.9160641366
 30
0.0
 10
10.5855075271
 20
11.9216803563
 30
0.0
 10
10.5774022643
 20
11.9272481978
 30
0.0
 10
10.5687909203
 20
11.9327646765
 30
0.0
 10
10.5596782061
 20
11.9382267368
 30
0.0
 10
10.5500691801
 20
11.9436314816
 30
0.0
 10
10.5399691036
 20
11.948975825
 30
0.0
 10
10.529383604
 20
11.9542569243
 30
0.0
 10
10.5183185141
 20
11.9594717557
 30
0.0
 10
10.5067799951
 20
11.9646174825
 30
0.0
 10
10.4947744495
 20
11.969691211
 30
0.0
 10
10.4823085528
 20
11.9746900964
 30
0.0
 10
10.4693892593
 20
11.979611386
 30
0.0
 10
10.4560237382
 20
11.9844522877
 30
0.0
 10
10.4373790974
 20
11.9908783231
 30
0.0
 10
10.4130015613
 20
11.9986732041
 30
0.0
 10
10.3824542636
 20
12.0075491226
 30
0.0
 10
10.350318116
 20
12.0160426678
 30
0.0
 10
10.3166648906
 20
12.024134716
 30
0.0
 10
10.2815695215
 20
12.0318070177
 30
0.0
 10
10.2451103298
 20
12.0390422761
 30
0.0
 10
10.2073687157
 20
12.045824179
 30
0.0
 10
10.1684289998
 20
12.0521374392
 30
0.0
 10
10.1283782178
 20
12.0579678317
 30
0.0
 10
10.0873059202
 20
12.0633022247
 30
0.0
 10
10.0453039638
 20
12.0681286054
 30
0.0
 10
10.0024663014
 20
12.0724361078
 30
0.0
 10
9.9588887684
 20
12.0762150353
 30
0.0
 10
9.9146688663
 20
12.0794568826
 30
0.0
 10
9.8699055428
 20
12.0821543535
 30
0.0
 10
9.8246989692
 20
12.0843013767
 30
0.0
 10
9.7791503152
 20
12.0858931227
 30
0.0
 10
9.7333615197
 20
12.0869260129
 30
0.0
 10
9.6874350608
 20
12.0873977246
 30
0.0
 10
9.6414737256
 20
12.0873071974
 30
0.0
 10
9.5955803792
 20
12.0866546347
 30
0.0
 10
9.5498577343
 20
12.0854415037
 30
0.0
 10
9.5044081207
 20
12.0836705322
 30
0.0
 10
9.4593332549
 20
12.0813457017
 30
0.0
 10
9.4147340096
 20
12.0784722439
 30
0.0
 10
9.3707101867
 20
12.0750566259
 30
0.0
 10
9.3273602925
 20
12.0711065348
 30
0.0
 10
9.2847813159
 20
12.0666308617
 30
0.0
 10
9.2430685098
 20
12.061639682
 30
0.0
 10
9.2023151754
 20
12.0561442336
 30
0.0
 10
9.1626124498
 20
12.0501568927
 30
0.0
 10
9.1240490966
 20
12.0436911455
 30
0.0
 10
9.086711298
 20
12.0367615637
 30
0.0
 10
9.0506824581
 20
12.0293837681
 30
0.0
 10
9.0160429978
 20
12.0215743926
 30
0.0
 10
8.9828701993
 20
12.0133510435
 30
0.0
 10
8.9512378914
 20
12.0047322643
 30
0.0
 10
8.9212167006
 20
11.9957374589
 30
0.0
 10
8.8972934076
 20
11.9878453983
 30
0.0
 10
8.8790231083
 20
11.9813445354
 30
0.0
 10
8.8659440671
 20
11.9764515616
 30
0.0
 10
8.8533159169
 20
11.9714799787
 30
0.0
 10
8.8411456649
 20
11.9664325804
 30
0.0
 10
8.8294400904
 20
11.9613121741
 30
0.0
 10
8.8182057072
 20
11.9561215956
 30
0.0
 10
8.8074487349
 20
11.9508637941
 30
0.0
 10
8.7971751637
 20
11.9455415982
 30
0.0
 10
8.7873906366
 20
11.9401580551
 30
0.0
 10
8.7781006092
 20
11.9347160204
 30
0.0
 10
8.7693101837
 20
11.9292186018
 30
0.0
 10
8.7610242084
 20
11.9236687376
 30
0.0
 10
8.7532471833
 20
11.9180693939
 30
0.0
 10
8.745983282
 20
11.912423468
 30
0.0
 10
8.7392369009
 20
11.9067342411
 30
0.0
 10
8.7349986881
 20
11.9028335863
 30
0.0
 10
8.7329719514
 20
11.9008759088
 30
0.0
  0
SPLINE
  5
371
100
AcDbEntity
  8
0
100
AcDbSpline
 62
7
  6
CONTINUOUS
 70
0
 71
3
 72
89
 73
85
 74
0
 42
0.0000001
 43
0.0000001
 44
0.0000000001
 40
0.0
 40
0.0
 40
0.0
 40
0.0
 40
0.0028079925
 40
0.0056356696
 40
0.0085022692
 40
0.0114261927
 40
0.0144246581
 40
0.0175135138
 40
0.024014675
 40
0.0274543831
 40
0.0310325396
 40
0.0347575842
 40
0.0386366758
 40
0.0426758958
 40
0.0468803087
 40
0.0512540833
 40
0.0558006298
 40
0.0605226071
 40
0.065422102
 40
0.0705006034
 40
0.0757591213
 40
0.0811982292
 40
0.0868180633
 40
0.0926184476
 40
0.0985988219
 40
0.1110954821
 40
0.1242987141
 40
0.1381948408
 40
0.1527669243
 40
0.1679951711
 40
0.1838572537
 40
0.2003285753
 40
0.2173825027
 40
0.2349905598
 40
0.2531225965
 40
0.2717469398
 40
0.290830528
 40
0.3103390389
 40
0.3302370162
 40
0.3504879838
 40
0.3710545565
 40
0.3918985465
 40
0.4129810661
 40
0.4342626325
 40
0.4557032725
 40
0.477262623
 40
0.4989000308
 40
0.5205746514
 40
0.542245549
 40
0.5638717977
 40
0.5854125808
 40
0.6068272904
 40
0.628075626
 40
0.649117695
 40
0.6699141161
 40
0.690426123
 40
0.7106156656
 40
0.730445515
 40
0.7498793708
 40
0.7688819726
 40
0.7874192213
 40
0.8054583002
 40
0.8229678014
 40
0.8399178658
 40
0.8562803373
 40
0.8720289361
 40
0.8871394654
 40
0.9015900387
 40
0.9153613541
 40
0.9284370312
 40
0.934710018
 40
0.9408045301
 40
0.946719526
 40
0.9524543027
 40
0.958008419
 40
0.9633818117
 40
0.9685747929
 40
0.9735880599
 40
0.9784227982
 40
0.9830806662
 40
0.9875640271
 40
0.9918758962
 40
0.9960198331
 40
1.0
 40
1.0
 40
1.0
 40
1.0
 10
10.6288519031
 20
11.8106688719
 30
0.0
 10
10.6288519123
 20
11.8125280081
 30
0.0
 10
10.6286890871
 20
11.8162613242
 30
0.0
 10
10.6279575668
 20
11.8218494523
 30
0.0
 10
10.6267392917
 20
11.8274307663
 30
0.0
 10
10.6250353957
 20
11.833001236
 30
0.0
 10
10.6228474644
 20
11.8385582117
 30
0.0
 10
10.6192261661
 20
11.846071931
 30
0.0
 10
10.6146651424
 20
11.8534286055
 30
0.0
 10
10.6092938491
 20
11.860592123
 30
0.0
 10
10.6047151968
 20
11.8660402146
 30
0.0
 10
10.5996655207
 20
11.8714584406
 30
0.0
 10
10.5941471136
 20
11.8768450859
 30
0.0
 10
10.5881628277
 20
11.8821974019
 30
0.0
 10
10.5817156518
 20
11.8875129499
 30
0.0
 10
10.5748088281
 20
11.892789223
 30
0.0
 10
10.5674457393
 20
11.8980236
 30
0.0
 10
10.5596301069
 20
11.9032136395
 30
0.0
 10
10.5513657672
 20
11.9083566953
 30
0.0
 10
10.5426568737
 20
11.9134502916
 30
0.0
 10
10.5335077646
 20
11.9184918814
 30
0.0
 10
10.523923002
 20
11.923478914
 30
0.0
 10
10.5139074169
 20
11.9284089567
 30
0.0
 10
10.5034659864
 20
11.9332794849
 30
0.0
 10
10.4887672347
 20
11.9397864601
 30
0.0
 10
10.4693514774
 20
11.9477353062
 30
0.0
 10
10.4447717498
 20
11.9568638476
 30
0.0
 10
10.4186303999
 20
11.965698453
 30
0.0
 10
10.3909800635
 20
11.9742211866
 30
0.0
 10
10.3618761282
 20
11.9824147198
 30
0.0
 10
10.3313771511
 20
11.9902623704
 30
0.0
 10
10.299544561
 20
11.997748161
 30
0.0
 10
10.2664425548
 20
12.0048568432
 30
0.0
 10
10.2321379389
 20
12.0115739362
 30
0.0
 10
10.1966999875
 20
12.0178857575
 30
0.0
 10
10.1602002973
 20
12.0237794495
 30
0.0
 10
10.1227126416
 20
12.0292430113
 30
0.0
 10
10.0843128155
 20
12.0342653269
 30
0.0
 10
10.0450784742
 20
12.0388361769
 30
0.0
 10
10.0050889708
 20
12.0429462615
 30
0.0
 10
9.9644251944
 20
12.0465872187
 30
0.0
 10
9.9231694072
 20
12.0497516387
 30
0.0
 10
9.8814050785
 20
12.0524330857
 30
0.0
 10
9.8392167133
 20
12.0546261122
 30
0.0
 10
9.7966896774
 20
12.0563262607
 30
0.0
 10
9.7539100234
 20
12.0575300748
 30
0.0
 10
9.710964317
 20
12.058235106
 30
0.0
 10
9.6679394622
 20
12.0584399165
 30
0.0
 10
9.624922525
 20
12.0581440903
 30
0.0
 10
9.5820005545
 20
12.0573482332
 30
0.0
 10
9.5392604056
 20
12.0560539643
 30
0.0
 10
9.4967885641
 20
12.0542639145
 30
0.0
 10
9.4546709719
 20
12.0519817215
 30
0.0
 10
9.412992852
 20
12.0492120207
 30
0.0
 10
9.3718385324
 20
12.0459604452
 30
0.0
 10
9.3312912737
 20
12.0422336117
 30
0.0
 10
9.2914331004
 20
12.0380391016
 30
0.0
 10
9.2523446366
 20
12.0333854475
 30
0.0
 10
9.2141049413
 20
12.0282821167
 30
0.0
 10
9.1767913438
 20
12.02273949
 30
0.0
 10
9.1404792798
 20
12.0167688522
 30
0.0
 10
9.1052421349
 20
12.0103823636
 30
0.0
 10
9.0711510956
 20
12.0035930311
 30
0.0
 10
9.0382750011
 20
11.9964146835
 30
0.0
 10
9.0066801996
 20
11.9888619426
 30
0.0
 10
8.9764303885
 20
11.9809501883
 30
0.0
 10
8.947586504
 20
11.9726955368
 30
0.0
 10
8.9202064466
 20
11.9641147919
 30
0.0
 10
8.8943454182
 20
11.9552253946
 30
0.0
 10
8.8738291147
 20
11.9474719844
 30
0.0
 10
8.8582283578
 20
11.9411146271
 30
0.0
 10
8.8471015516
 20
11.9363467459
 30
0.0
 10
8.8363918939
 20
11.9315153486
 30
0.0
 10
8.8261047278
 20
11.9266229212
 30
0.0
 10
8.8162452404
 20
11.9216718669
 30
0.0
 10
8.8068183624
 20
11.9166646914
 30
0.0
 10
8.7978288002
 20
11.9116039164
 30
0.0
 10
8.7892810886
 20
11.9064920013
 30
0.0
 10
8.781179464
 20
11.9013316067
 30
0.0
 10
8.7735279875
 20
11.8961251701
 30
0.0
 10
8.7663303813
 20
11.8908752512
 30
0.0
 10
8.7595901798
 20
11.8855842764
 30
0.0
 10
8.753311083
 20
11.8802550959
 30
0.0
 10
8.7493562322
 20
11.8766064191
 30
0.0
 10
8.7474608396
 20
11.8747756103
 30
0.0
  0
SPLINE
  5
372
100
AcDbEntity
  8
0
100
AcDbSpline
 62
7
  6
CONTINUOUS
 70
0
 71
3
 72
55
 73
51
 74
0
 42
0.0000001
 43
0.0000001
 44
0.0000000001
 40
0.0
 40
0.0
 40
0.0
 40
0.0
 40
0.0101005404
 40
0.0206664141
 40
0.0316936645
 40
0.0431768278
 40
0.0551091012
 40
0.0674825408
 40
0.08028808
 40
0.0935157006
 40
0.107154502
 40
0.1211927196
 40
0.1356178724
 40
0.1504167485
 40
0.165575475
 40
0.1810796016
 40
0.1969140687
 40
0.2130633135
 40
0.2462409214
 40
0.2804791862
 40
0.3156379907
 40
0.3515719009
 40
0.3881310936
 40
0.4251622504
 40
0.4625094453
 40
0.5000150246
 40
0.5375204703
 40
0.5748672633
 40
0.6118977525
 40
0.6484560199
 40
0.6843887505
 40
0.7195461197
 40
0.7537827058
 40
0.786958411
 40
0.8031066194
 40
0.8189400049
 40
0.8344429794
 40
0.8496005228
 40
0.8643981607
 40
0.8788220212
 40
0.8928589227
 40
0.9064963457
 40
0.9197225612
 40
0.9325266664
 40
0.9448986173
 40
0.9568293986
 40
0.9683110314
 40
0.9793367251
 40
0.9899010477
 40
1.0
 40
1.0
 40
1.0
 40
1.0
 10
10.5145974882
 20
11.7415914139
 30
0.0
 10
10.5093889643
 20
11.7440967475
 30
0.0
 10
10.4986489382
 20
11.7490516225
 30
0.0
 10
10.4819683469
 20
11.7561749078
 30
0.0
 10
10.4643710819
 20
11.7631493496
 30
0.0
 10
10.4458771037
 20
11.7699669736
 30
0.0
 10
10.4265071326
 20
11.7766201295
 30
0.0
 10
10.4062829718
 20
11.7831012
 30
0.0
 10
10.3852274174
 20
11.7894028781
 30
0.0
 10
10.3633642211
 20
11.7955179949
 30
0.0
 10
10.3407180606
 20
11.8014395653
 30
0.0
 10
10.3173145281
 20
11.807160912
 30
0.0
 10
10.293180072
 20
11.8126754847
 30
0.0
 10
10.2683419857
 20
11.8179770241
 30
0.0
 10
10.2428283657
 20
11.823059531
 30
0.0
 10
10.2166680836
 20
11.8279171664
 30
0.0
 10
10.189890719
 20
11.832544492
 30
0.0
 10
10.1530744096
 20
11.8384530553
 30
0.0
 10
10.1057315778
 20
11.8452065287
 30
0.0
 10
10.0474555296
 20
11.8522445513
 30
0.0
 10
9.9874793599
 20
11.8582550322
 30
0.0
 10
9.9260746236
 20
11.8632104992
 30
0.0
 10
9.8635190975
 20
11.8670882422
 30
0.0
 10
9.8000959202
 20
11.8698705205
 30
0.0
 10
9.736092176
 20
11.8715446171
 30
0.0
 10
9.6717976085
 20
11.8721028764
 30
0.0
 10
9.6075032871
 20
11.8715427371
 30
0.0
 10
9.5435002808
 20
11.8698667557
 30
0.0
 10
9.4800783278
 20
11.8670826091
 30
0.0
 10
9.4175245046
 20
11.8632030356
 30
0.0
 10
9.356121945
 20
11.8582457762
 30
0.0
 10
9.2961484206
 20
11.8522335315
 30
0.0
 10
9.237875471
 20
11.8451937904
 30
0.0
 10
9.1905355061
 20
11.8384389249
 30
0.0
 10
9.1537217039
 20
11.8325292588
 30
0.0
 10
9.1269463707
 20
11.8279011658
 30
0.0
 10
9.1007882245
 20
11.8230427359
 30
0.0
 10
9.075276835
 20
11.8179594979
 30
0.0
 10
9.0504410769
 20
11.8126572291
 30
0.0
 10
9.0263090447
 20
11.8071419298
 30
0.0
 10
9.002908022
 20
11.8014199227
 30
0.0
 10
8.9802644652
 20
11.7954976659
 30
0.0
 10
8.9584039532
 20
11.7893819111
 30
0.0
 10
8.9373511624
 20
11.7830796339
 30
0.0
 10
8.917129854
 20
11.7765979389
 30
0.0
 10
8.8977627986
 20
11.7699442403
 30
0.0
 10
8.8792718137
 20
11.763126069
 30
0.0
 10
8.8616776159
 20
11.7561510914
 30
0.0
 10
8.8450001366
 20
11.7490273574
 30
0.0
 10
8.8342622601
 20
11.7440721089
 30
0.0
 10
8.8290548174
 20
11.7415666239
 30
0.0
  0
SPLINE
  5
373
100
AcDbEntity
  8
0
100
AcDbSpline
 62
7
  6
CONTINUOUS
 70
0
 71
3
 72
39
 73
35
 74
0
 42
0.0000001
 43
0.0000001
 44
0.0000000001
 40
0.0
 40
0.0
 40
0.0
 40
0.0
 40
0.0311159723
 40
0.0620233248
 40
0.0927351404
 40
0.1232711776
 40
0.1536587326
 40
0.1839312111
 40
0.2141268393
 40
0.2442870992
 40
0.2744549754
 40
0.3046731314
 40
0.3349820899
 40
0.3654185435
 40
0.3960138648
 40
0.4267928822
 40
0.4577729963
 40
0.4889636214
 40
0.5203659689
 40
0.551973178
 40
0.5837707188
 40
0.6157370639
 40
0.6478445901
 40
0.6800606405
 40
0.7123487311
 40
0.7446698622
 40
0.7769838843
 40
0.8092508939
 40
0.8414326243
 40
0.8734937998
 40
0.9054034123
 40
0.9371359058
 40
0.9686717941
 40
1.0
 40
1.0
 40
1.0
 40
1.0
 10
9.0131644155
 20
7.5549641965
 30
0.0
 10
9.0131644155
 20
7.5637813967
 30
0.0
 10
9.0140252134
 20
7.5813694372
 30
0.0
 10
9.0179181556
 20
7.6073998601
 30
0.0
 10
9.0243717866
 20
7.6327503014
 30
0.0
 10
9.033325082
 20
7.6571727292
 30
0.0
 10
9.0446922953
 20
7.6804318343
 30
0.0
 10
9.0583643238
 20
7.7023022703
 30
0.0
 10
9.0742095115
 20
7.7225722332
 30
0.0
 10
9.0920747335
 20
7.7410454396
 30
0.0
 10
9.111787205
 20
7.7575430295
 30
0.0
 10
9.1331560764
 20
7.7719054396
 30
0.0
 10
9.1559743163
 20
7.7839941889
 30
0.0
 10
9.1800210363
 20
7.7936929283
 30
0.0
 10
9.2050635995
 20
7.8009087018
 30
0.0
 10
9.2308599768
 20
7.8055728908
 30
0.0
 10
9.2571612201
 20
7.8076414545
 30
0.0
 10
9.2837138064
 20
7.8070955024
 30
0.0
 10
9.3102621245
 20
7.8039414105
 30
0.0
 10
9.3365508688
 20
7.7982103812
 30
0.0
 10
9.3623274571
 20
7.7899583753
 30
0.0
 10
9.3873444394
 20
7.779265478
 30
0.0
 10
9.4113617077
 20
7.7662348786
 30
0.0
 10
9.4341488575
 20
7.7509921688
 30
0.0
 10
9.4554873365
 20
7.7336840246
 30
0.0
 10
9.4751723525
 20
7.7144766682
 30
0.0
 10
9.4930150074
 20
7.693554558
 30
0.0
 10
9.5088439891
 20
7.6711184891
 30
0.0
 10
9.5225070459
 20
7.6473836689
 30
0.0
 10
9.5338727111
 20
7.6225777759
 30
0.0
 10
9.5428313907
 20
7.5969390689
 30
0.0
 10
9.5492962206
 20
7.5707127694
 30
0.0
 10
9.5532045528
 20
7.5441540808
 30
0.0
 10
9.5540829103
 20
7.5263287114
 30
0.0
 10
9.5540829103
 20
7.5174513715
 30
0.0
  0
SPLINE
  5
374
100
AcDbEntity
  8
0
100
AcDbSpline
 62
7
  6
CONTINUOUS
 70
0
 71
3
 72
47
 73
43
 74
0
 42
0.0000001
 43
0.0000001
 44
0.0000000001
 40
0.0
 40
0.0
 40
0.0
 40
0.0
 40
0.0111986477
 40
0.0227834408
 40
0.0347480683
 40
0.0470854478
 40
0.0597878778
 40
0.0728469676
 40
0.0862538198
 40
0.0999989289
 40
0.1284630488
 40
0.1581546981
 40
0.1889819741
 40
0.2208471437
 40
0.2536473512
 40
0.2872752687
 40
0.3216197065
 40
0.3565661975
 40
0.3919975623
 40
0.4277944631
 40
0.463835948
 40
0.4999999927
 40
0.536164037
 40
0.5722055212
 40
0.6080024216
 40
0.6434337873
 40
0.6783802803
 40
0.7127247212
 40
0.746352642
 40
0.7791528519
 40
0.8110180217
 40
0.8418452958
 40
0.871536942
 40
0.9000010587
 40
0.9137461828
 40
0.9271530185
 40
0.9402121275
 40
0.9529145402
 40
0.9652519363
 40
0.9772165522
 40
0.9888013537
 40
1.0
 40
1.0
 40
1.0
 40
1.0
 10
10.4184420411
 20
11.711360227
 30
0.0
 10
10.4131488949
 20
11.7133360396
 30
0.0
 10
10.4023367402
 20
11.7172404894
 30
0.0
 10
10.3857332982
 20
11.7228702136
 30
0.0
 10
10.3684817803
 20
11.7283681426
 30
0.0
 10
10.3505979024
 20
11.7337293045
 30
0.0
 10
10.3320978145
 20
11.7389487517
 30
0.0
 10
10.3129982951
 20
11.7440218038
 30
0.0
 10
10.2933166211
 20
11.7489437968
 30
0.0
 10
10.2660034179
 20
11.7553739663
 30
0.0
 10
10.2305305192
 20
11.7629808449
 30
0.0
 10
10.1864177683
 20
11.7713365025
 30
0.0
 10
10.1404378869
 20
11.7789917238
 30
0.0
 10
10.0927576908
 20
11.7859184653
 30
0.0
 10
10.0435499264
 20
11.7920912991
 30
0.0
 10
9.9929930647
 20
11.7974875952
 30
0.0
 10
9.9412705076
 20
11.8020875742
 30
0.0
 10
9.8885699421
 20
11.8058743837
 30
0.0
 10
9.8350826379
 20
11.8088341542
 30
0.0
 10
9.781002747
 20
11.8109560481
 30
0.0
 10
9.72652659
 20
11.8122322979
 30
0.0
 10
9.6718519373
 20
11.8126582333
 30
0.0
 10
9.617177285
 20
11.8122322956
 30
0.0
 10
9.5627011287
 20
11.8109560443
 30
0.0
 10
9.5086212379
 20
11.8088341509
 30
0.0
 10
9.4551339324
 20
11.8058743829
 30
0.0
 10
9.4024333636
 20
11.8020875771
 30
0.0
 10
9.3507108018
 20
11.797487602
 30
0.0
 10
9.3001539352
 20
11.7920913093
 30
0.0
 10
9.2509461676
 20
11.7859184772
 30
0.0
 10
9.2032659711
 20
11.7789917358
 30
0.0
 10
9.1572860928
 20
11.771336511
 30
0.0
 10
9.1131733449
 20
11.7629808578
 30
0.0
 10
9.0777004472
 20
11.7553739565
 30
0.0
 10
9.0503872374
 20
11.7489438243
 30
0.0
 10
9.0307055643
 20
11.7440217916
 30
0.0
 10
9.0116060405
 20
11.7389487846
 30
0.0
 10
8.9931059555
 20
11.7337292931
 30
0.0
 10
8.9752220718
 20
11.7283681718
 30
0.0
 10
8.9579705574
 20
11.7228702096
 30
0.0
 10
8.9413671085
 20
11.717240513
 30
0.0
 10
8.9305549582
 20
11.7133360405
 30
0.0
 10
8.925261809
 20
11.7113602381
 30
0.0
  0
SPLINE
  5
375
100
AcDbEntity
  8
0
100
AcDbSpline
 62
4
  6
CONTINUOUS
 70
0
 71
3
 72
353
 73
349
 74
0
 42
0.0000001
 43
0.0000001
 44
0.0000000001
 40
0.0
 40
0.0
 40
0.0
 40
0.0
 40
0.015625
 40
0.0234375
 40
0.03125
 40
0.0390625
 40
0.04296875
 40
0.046875
 40
0.05078125
 40
0.0546875
 40
0.056640625
 40
0.05859375
 40
0.060546875
 40
0.0615234375
 40
0.0620117188
 40
0.0625
 40
0.0629882812
 40
0.0634765625
 40
0.064453125
 40
0.06640625
 40
0.068359375
 40
0.0703125
 40
0.07421875
 40
0.078125
 40
0.08203125
 40
0.0859375
 40
0.09375
 40
0.1015625
 40
0.10546875
 40
0.109375
 40
0.11328125
 40
0.1171875
 40
0.119140625
 40
0.12109375
 40
0.1220703125
 40
0.123046875
 40
0.1240234375
 40
0.1245117188
 40
0.125
 40
0.1254882812
 40
0.1259765625
 40
0.126953125
 40
0.1279296875
 40
0.12890625
 40
0.130859375
 40
0.1328125
 40
0.13671875
 40
0.140625
 40
0.14453125
 40
0.1484375
 40
0.15625
 40
0.1640625
 40
0.16796875
 40
0.171875
 40
0.17578125
 40
0.1796875
 40
0.181640625
 40
0.18359375
 40
0.1845703125
 40
0.185546875
 40
0.1865234375
 40
0.1870117188
 40
0.1875
 40
0.1879882812
 40
0.1884765625
 40
0.189453125
 40
0.1904296875
 40
0.19140625
 40
0.193359375
 40
0.1953125
 40
0.19921875
 40
0.203125
 40
0.20703125
 40
0.2109375
 40
0.21875
 40
0.2265625
 40
0.23046875
 40
0.234375
 40
0.23828125
 40
0.2421875
 40
0.244140625
 40
0.24609375
 40
0.2470703125
 40
0.248046875
 40
0.2490234375
 40
0.2495117188
 40
0.25
 40
0.2504882812
 40
0.2509765625
 40
0.251953125
 40
0.2529296875
 40
0.25390625
 40
0.255859375
 40
0.2578125
 40
0.26171875
 40
0.265625
 40
0.26953125
 40
0.2734375
 40
0.28125
 40
0.2890625
 40
0.29296875
 40
0.296875
 40
0.30078125
 40
0.3046875
 40
0.306640625
 40
0.30859375
 40
0.3095703125
 40
0.310546875
 40
0.3115234375
 40
0.3120117188
 40
0.3125
 40
0.3129882812
 40
0.3134765625
 40
0.314453125
 40
0.3154296875
 40
0.31640625
 40
0.318359375
 40
0.3203125
 40
0.32421875
 40
0.328125
 40
0.33203125
 40
0.3359375
 40
0.34375
 40
0.3515625
 40
0.35546875
 40
0.359375
 40
0.36328125
 40
0.3671875
 40
0.369140625
 40
0.37109375
 40
0.3720703125
 40
0.373046875
 40
0.3740234375
 40
0.3745117188
 40
0.375
 40
0.3754882812
 40
0.3759765625
 40
0.376953125
 40
0.3779296875
 40
0.37890625
 40
0.380859375
 40
0.3828125
 40
0.38671875
 40
0.390625
 40
0.39453125
 40
0.3984375
 40
0.40625
 40
0.4140625
 40
0.41796875
 40
0.421875
 40
0.42578125
 40
0.4296875
 40
0.431640625
 40
0.43359375
 40
0.4345703125
 40
0.435546875
 40
0.4365234375
 40
0.4370117188
 40
0.4375
 40
0.4379882812
 40
0.4384765625
 40
0.439453125
 40
0.4404296875
 40
0.44140625
 40
0.443359375
 40
0.4453125
 40
0.44921875
 40
0.453125
 40
0.45703125
 40
0.4609375
 40
0.46875
 40
0.4765625
 40
0.48046875
 40
0.484375
 40
0.48828125
 40
0.4921875
 40
0.494140625
 40
0.49609375
 40
0.498046875
 40
0.4990234375
 40
0.4995117188
 40
0.5
 40
0.5004882812
 40
0.5009765625
 40
0.501953125
 40
0.50390625
 40
0.505859375
 40
0.5078125
 40
0.51171875
 40
0.515625
 40
0.51953125
 40
0.5234375
 40
0.53125
 40
0.5390625
 40
0.54296875
 40
0.546875
 40
0.55078125
 40
0.5546875
 40
0.556640625
 40
0.55859375
 40
0.560546875
 40
0.5615234375
 40
0.5620117188
 40
0.5625
 40
0.5629882812
 40
0.5634765625
 40
0.564453125
 40
0.56640625
 40
0.568359375
 40
0.5703125
 40
0.57421875
 40
0.578125
 40
0.58203125
 40
0.5859375
 40
0.59375
 40
0.6015625
 40
0.60546875
 40
0.609375
 40
0.61328125
 40
0.6171875
 40
0.619140625
 40
0.62109375
 40
0.623046875
 40
0.6240234375
 40
0.6245117188
 40
0.625
 40
0.6254882812
 40
0.6259765625
 40
0.626953125
 40
0.62890625
 40
0.630859375
 40
0.6328125
 40
0.63671875
 40
0.640625
 40
0.64453125
 40
0.6484375
 40
0.65625
 40
0.6640625
 40
0.66796875
 40
0.671875
 40
0.67578125
 40
0.6796875
 40
0.681640625
 40
0.68359375
 40
0.685546875
 40
0.6865234375
 40
0.6870117188
 40
0.6875
 40
0.6879882812
 40
0.6884765625
 40
0.689453125
 40
0.69140625
 40
0.693359375
 40
0.6953125
 40
0.69921875
 40
0.703125
 40
0.70703125
 40
0.7109375
 40
0.71875
 40
0.7265625
 40
0.73046875
 40
0.734375
 40
0.73828125
 40
0.7421875
 40
0.744140625
 40
0.74609375
 40
0.748046875
 40
0.7490234375
 40
0.7495117188
 40
0.75
 40
0.7504882812
 40
0.7509765625
 40
0.751953125
 40
0.75390625
 40
0.755859375
 40
0.7578125
 40
0.76171875
 40
0.765625
 40
0.76953125
 40
0.7734375
 40
0.78125
 40
0.7890625
 40
0.796875
 40
0.80078125
 40
0.8046875
 40
0.806640625
 40
0.80859375
 40
0.810546875
 40
0.8115234375
 40
0.8120117188
 40
0.8125
 40
0.8129882812
 40
0.8134765625
 40
0.814453125
 40
0.81640625
 40
0.818359375
 40
0.8203125
 40
0.82421875
 40
0.828125
 40
0.8359375
 40
0.84375
 40
0.8515625
 40
0.85546875
 40
0.859375
 40
0.86328125
 40
0.8671875
 40
0.869140625
 40
0.87109375
 40
0.873046875
 40
0.8740234375
 40
0.8745117188
 40
0.875
 40
0.8754882812
 40
0.8759765625
 40
0.876953125
 40
0.87890625
 40
0.880859375
 40
0.8828125
 40
0.88671875
 40
0.890625
 40
0.89453125
 40
0.8984375
 40
0.90625
 40
0.9140625
 40
0.91796875
 40
0.921875
 40
0.92578125
 40
0.9296875
 40
0.931640625
 40
0.93359375
 40
0.935546875
 40
0.9365234375
 40
0.9370117188
 40
0.9375
 40
0.9379882812
 40
0.9384765625
 40
0.939453125
 40
0.94140625
 40
0.943359375
 40
0.9453125
 40
0.94921875
 40
0.953125
 40
0.95703125
 40
0.9609375
 40
0.96875
 40
0.9765625
 40
0.984375
 40
1.0
 40
1.0
 40
1.0
 40
1.0
 10
9.0077552052
 20
9.8005374386
 30
0.0
 10
9.0124549859
 20
9.8006723253
 30
0.0
 10
9.0195046569
 20
9.8008746553
 30
0.0
 10
9.0289042183
 20
9.8011444283
 30
0.0
 10
9.0359538891
 20
9.801346759
 30
0.0
 10
9.0418286154
 20
9.8015153648
 30
0.0
 10
9.0465283951
 20
9.8016502566
 30
0.0
 10
9.0500532336
 20
9.8017514059
 30
0.0
 10
9.0535780577
 20
9.8018526294
 30
0.0
 10
9.0565154562
 20
9.8019367515
 30
0.0
 10
9.058865274
 20
9.8020045662
 30
0.0
 10
9.0606279133
 20
9.8020540144
 30
0.0
 10
9.0620959016
 20
9.8020997152
 30
0.0
 10
9.063125216
 20
9.8021228867
 30
0.0
 10
9.063710706
 20
9.8021498977
 30
0.0
 10
9.0641574003
 20
9.8021313652
 30
0.0
 10
9.0645751324
 20
9.8022611105
 30
0.0
 10
9.0651422109
 20
9.8023823833
 30
0.0
 10
9.0661298914
 20
9.8026187085
 30
0.0
 10
9.0675433244
 20
9.8029437173
 30
0.0
 10
9.0692383907
 20
9.8033391205
 30
0.0
 10
9.071498847
 20
9.803864441
 30
0.0
 10
9.0743242911
 20
9.8045217381
 30
0.0
 10
9.0777148781
 20
9.8053102175
 30
0.0
 10
9.0811054507
 20
9.806098771
 30
0.0
 10
9.0856262191
 20
9.8071501498
 30
0.0
 10
9.0912771781
 20
9.808464382
 30
0.0
 10
9.0969281373
 20
9.8097786117
 30
0.0
 10
9.1014489053
 20
9.8108299944
 30
0.0
 10
9.1048394793
 20
9.8116185363
 30
0.0
 10
9.108230061
 20
9.8124070591
 30
0.0
 10
9.1110555218
 20
9.8130642211
 30
0.0
 10
9.113315944
 20
9.8135898171
 30
0.0
 10
9.114728586
 20
9.8139186186
 30
0.0
 10
9.1158589786
 20
9.8141809637
 30
0.0
 10
9.1167060093
 20
9.8143796284
 30
0.0
 10
9.1174142978
 20
9.8145391194
 30
0.0
 10
9.1179754795
 20
9.8146803104
 30
0.0
 10
9.1184112553
 20
9.8147490466
 30
0.0
 10
9.1187901977
 20
9.8149596121
 30
0.0
 10
9.1193153069
 20
9.8151908233
 30
0.0
 10
9.119964882
 20
9.8154968352
 30
0.0
 10
9.1207472876
 20
9.8158567739
 30
0.0
 10
9.1217894768
 20
9.8163392333
 30
0.0
 10
9.123092562
 20
9.8169414375
 30
0.0
 10
9.1251773034
 20
9.8179054505
 30
0.0
 10
9.1277832971
 20
9.8191102999
 30
0.0
 10
9.1309104608
 20
9.8205561907
 30
0.0
 10
9.1340376321
 20
9.8220020624
 30
0.0
 10
9.1382071913
 20
9.823929898
 30
0.0
 10
9.1434191412
 20
9.82633969
 30
0.0
 10
9.1486310904
 20
9.8287494836
 30
0.0
 10
9.1528006507
 20
9.8306773166
 30
0.0
 10
9.1559278184
 20
9.8321231962
 30
0.0
 10
9.1590549959
 20
9.8335690571
 30
0.0
 10
9.1616609466
 20
9.8347739996
 30
0.0
 10
9.1637457757
 20
9.8357378228
 30
0.0
 10
9.1650486377
 20
9.83634051
 30
0.0
 10
9.1660912849
 20
9.836821978
 30
0.0
 10
9.1668722913
 20
9.8371849458
 30
0.0
 10
9.1675262443
 20
9.8374814802
 30
0.0
 10
9.1680424218
 20
9.8377320274
 30
0.0
 10
9.1684486411
 20
9.837883542
 30
0.0
 10
9.1687820082
 20
9.8381739797
 30
0.0
 10
9.169251946
 20
9.8385127023
 30
0.0
 10
9.169830637
 20
9.8389527551
 30
0.0
 10
9.1705288034
 20
9.8394736919
 30
0.0
 10
9.1714583866
 20
9.8401707635
 30
0.0
 10
9.1726208126
 20
9.8410412507
 30
0.0
 10
9.1744804444
 20
9.8424345066
 30
0.0
 10
9.1768050698
 20
9.844175913
 30
0.0
 10
9.1795945836
 20
9.8462656708
 30
0.0
 10
9.1823841072
 20
9.8483554098
 30
0.0
 10
9.1861034686
 20
9.851141735
 30
0.0
 10
9.1907526716
 20
9.8546246392
 30
0.0
 10
9.1954018736
 20
9.8581075448
 30
0.0
 10
9.1991212367
 20
9.8608938677
 30
0.0
 10
9.2019107549
 20
9.8629836136
 30
0.0
 10
9.2047002889
 20
9.8650733453
 30
0.0
 10
9.2070248515
 20
9.8668148329
 30
0.0
 10
9.2088846115
 20
9.8682079232
 30
0.0
 10
9.2100467111
 20
9.8690788318
 30
0.0
 10
9.2109769642
 20
9.8697750385
 30
0.0
 10
9.2116730841
 20
9.8702986177
 30
0.0
 10
9.2122581783
 20
9.8707304032
 30
0.0
 10
9.2127150523
 20
9.8710859926
 30
0.0
 10
9.2130883154
 20
9.8713249201
 30
0.0
 10
9.2133447487
 20
9.8716698252
 30
0.0
 10
9.2137274699
 20
9.8720926793
 30
0.0
 10
9.2141918697
 20
9.872633948
 30
0.0
 10
9.2147551427
 20
9.873278034
 30
0.0
 10
9.21550408
 20
9.8741387142
 30
0.0
 10
9.2164409683
 20
9.8752139142
 30
0.0
 10
9.2179395891
 20
9.8769345977
 30
0.0
 10
9.2198130026
 20
9.8790853273
 30
0.0
 10
9.2220610398
 20
9.8816662563
 30
0.0
 10
9.2243090929
 20
9.884247171
 30
0.0
 10
9.2273064913
 20
9.8876883956
 30
0.0
 10
9.2310532415
 20
9.8919899245
 30
0.0
 10
9.2347999903
 20
9.8962914546
 30
0.0
 10
9.237797391
 20
9.8997326773
 30
0.0
 10
9.2400454372
 20
9.9023135976
 30
0.0
 10
9.2422935001
 20
9.9048945056
 30
0.0
 10
9.2441668338
 20
9.9070453007
 30
0.0
 10
9.2456656173
 20
9.9087658506
 30
0.0
 10
9.2466020915
 20
9.9098413905
 30
0.0
 10
9.2473518791
 20
9.910701373
 30
0.0
 10
9.2479125543
 20
9.9113475904
 30
0.0
 10
9.2483850817
 20
9.9118821906
 30
0.0
 10
9.2487512211
 20
9.9123186496
 30
0.0
 10
9.2490582944
 20
9.9126220061
 30
0.0
 10
9.2492414337
 20
9.9130169241
 30
0.0
 10
9.2495289112
 20
9.9135114979
 30
0.0
 10
9.2498734048
 20
9.9141406885
 30
0.0
 10
9.2502931549
 20
9.9148910202
 30
0.0
 10
9.250850601
 20
9.9158931031
 30
0.0
 10
9.2515481689
 20
9.9171451449
 30
0.0
 10
9.2526638527
 20
9.9191487258
 30
0.0
 10
9.2540586033
 20
9.9216530942
 30
0.0
 10
9.2557322415
 20
9.9246583825
 30
0.0
 10
9.2574058964
 20
9.9276636584
 30
0.0
 10
9.2596374304
 20
9.9316706973
 30
0.0
 10
9.2624268501
 20
9.9366794943
 30
0.0
 10
9.2652162683
 20
9.9416882923
 30
0.0
 10
9.2674478048
 20
9.9456953297
 30
0.0
 10
9.2691214522
 20
9.9487006101
 30
0.0
 10
9.2707951183
 20
9.9517058815
 30
0.0
 10
9.2721897821
 20
9.9542103024
 30
0.0
 10
9.2733056428
 20
9.9562137762
 30
0.0
 10
9.2740027606
 20
9.9574660906
 30
0.0
 10
9.2745611307
 20
9.958467614
 30
0.0
 10
9.2749780579
 20
9.9592196551
 30
0.0
 10
9.2753313834
 20
9.9598434976
 30
0.0
 10
9.2756008424
 20
9.9603489824
 30
0.0
 10
9.275839009
 20
9.9607105788
 30
0.0
 10
9.2759394868
 20
9.9611390383
 30
0.0
 10
9.2761215537
 20
9.9616869615
 30
0.0
 10
9.2763326357
 20
9.9623798789
 30
0.0
 10
9.2765929974
 20
9.9632079498
 30
0.0
 10
9.2769376792
 20
9.9643132423
 30
0.0
 10
9.2773693762
 20
9.9656944478
 30
0.0
 10
9.2780596192
 20
9.9679046058
 30
0.0
 10
9.2789225851
 20
9.9706672246
 30
0.0
 10
9.2799580746
 20
9.973982401
 30
0.0
 10
9.2809935827
 20
9.9772975683
 30
0.0
 10
9.2823742537
 20
9.9817177945
 30
0.0
 10
9.2841000949
 20
9.9872430761
 30
0.0
 10
9.2858259344
 20
9.9927683585
 30
0.0
 10
9.287206608
 20
9.9971885836
 30
0.0
 10
9.2882421081
 20
10.0005037543
 30
0.0
 10
9.2892776279
 20
10.0038189178
 30
0.0
 10
9.2901404996
 20
10.0065815765
 30
0.0
 10
9.2908309346
 20
10.0087916532
 30
0.0
 10
9.2912621432
 20
10.0101730654
 30
0.0
 10
9.2916078275
 20
10.0112779336
 30
0.0
 10
9.2918651264
 20
10.0121073008
 30
0.0
 10
9.2920857909
 20
10.0127961624
 30
0.0
 10
9.2922483076
 20
10.0133523603
 30
0.0
 10
9.2924084907
 20
10.0137555492
 30
0.0
 10
9.2924224988
 20
10.014212022
 30
0.0
 10
9.2924922371
 20
10.0148020397
 30
0.0
 10
9.2925618913
 20
10.0155459477
 30
0.0
 10
9.2926529748
 20
10.0164359039
 30
0.0
 10
9.2927718004
 20
10.0176234669
 30
0.0
 10
9.2929212292
 20
10.0191075938
 30
0.0
 10
9.2931598141
 20
10.0214823794
 30
0.0
 10
9.2934582172
 20
10.0244507988
 30
0.0
 10
9.2938162272
 20
10.028012929
 30
0.0
 10
9.2941742569
 20
10.0315750519
 30
0.0
 10
9.2946516231
 20
10.0363245517
 30
0.0
 10
9.2952483323
 20
10.0422614256
 30
0.0
 10
9.295845044
 20
10.0481982998
 30
0.0
 10
9.2963224062
 20
10.052947799
 30
0.0
 10
9.2966804477
 20
10.0565099238
 30
0.0
 10
9.2970384134
 20
10.0600720471
 30
0.0
 10
9.2973369544
 20
10.0630404877
 30
0.0
 10
9.2975752579
 20
10.0654152301
 30
0.0
 10
9.2977554318
 20
10.0671963143
 30
0.0
 10
9.2979009765
 20
10.0686804641
 30
0.0
 10
9.2980118855
 20
10.0697195398
 30
0.0
 10
9.298061166
 20
10.0703130305
 30
0.0
 10
9.2981378351
 20
10.0707589003
 30
0.0
 10
9.2980627176
 20
10.0712018966
 30
0.0
 10
9.2980155058
 20
10.0717935606
 30
0.0
 10
9.2979082171
 20
10.0728285056
 30
0.0
 10
9.2977678442
 20
10.0743072427
 30
0.0
 10
9.2975938766
 20
10.0760816226
 30
0.0
 10
9.297363848
 20
10.078447499
 30
0.0
 10
9.2970756506
 20
10.0814048321
 30
0.0
 10
9.2967300974
 20
10.084953637
 30
0.0
 10
9.2963844683
 20
10.0885024406
 30
0.0
 10
9.2959236561
 20
10.0932341792
 30
0.0
 10
9.2953476309
 20
10.0991488521
 30
0.0
 10
9.2947716122
 20
10.1050635256
 30
0.0
 10
9.2943107896
 20
10.1097952634
 30
0.0
 10
9.2939651918
 20
10.1133440692
 30
0.0
 10
9.2936195209
 20
10.1168928656
 30
0.0
 10
9.2933316896
 20
10.1198502253
 30
0.0
 10
9.2931009145
 20
10.1222160474
 30
0.0
 10
9.2929292268
 20
10.1239905933
 30
0.0
 10
9.2927817207
 20
10.1254688112
 30
0.0
 10
9.292687166
 20
10.126504683
 30
0.0
 10
9.2926195511
 20
10.1270948621
 30
0.0
 10
9.2926071053
 20
10.1275424194
 30
0.0
 10
9.2924483901
 20
10.1279711585
 30
0.0
 10
9.2922877903
 20
10.1285493747
 30
0.0
 10
9.2919829692
 20
10.1295581946
 30
0.0
 10
9.2915599385
 20
10.1310009649
 30
0.0
 10
9.2910469821
 20
10.1327316048
 30
0.0
 10
9.2903648984
 20
10.1350393637
 30
0.0
 10
9.2895116561
 20
10.1379239804
 30
0.0
 10
9.2884880387
 20
10.1413855555
 30
0.0
 10
9.2874643482
 20
10.1448471213
 30
0.0
 10
9.2860994531
 20
10.1494625456
 30
0.0
 10
9.2843933248
 20
10.1552318246
 30
0.0
 10
9.2826872026
 20
10.161001105
 30
0.0
 10
9.2813222976
 20
10.165616527
 30
0.0
 10
9.280298637
 20
10.1690780997
 30
0.0
 10
9.2792749074
 20
10.1725396488
 30
0.0
 10
9.2784220141
 20
10.1754243466
 30
0.0
 10
9.2777392187
 20
10.17773194
 30
0.0
 10
9.2772284357
 20
10.1794630854
 30
0.0
 10
9.2767986051
 20
10.1809042742
 30
0.0
 10
9.276505923
 20
10.1819159173
 30
0.0
 10
9.2763258735
 20
10.1824896101
 30
0.0
 10
9.2762269013
 20
10.1829322434
 30
0.0
 10
9.2759900709
 20
10.1833276162
 30
0.0
 10
9.2757223836
 20
10.183871265
 30
0.0
 10
9.2752315263
 20
10.1848149696
 30
0.0
 10
9.2745420149
 20
10.1861671347
 30
0.0
 10
9.2737095876
 20
10.1877880139
 30
0.0
 10
9.2726014358
 20
10.1899497867
 30
0.0
 10
9.2712156451
 20
10.1926517966
 30
0.0
 10
9.2695529538
 20
10.1958942968
 30
0.0
 10
9.2678901937
 20
10.1991367734
 30
0.0
 10
9.2656732043
 20
10.2034600838
 30
0.0
 10
9.2629019586
 20
10.2088642186
 30
0.0
 10
9.2601307188
 20
10.2142683558
 30
0.0
 10
9.2579137199
 20
10.2185916624
 30
0.0
 10
9.2562509883
 20
10.2218341506
 30
0.0
 10
9.2545881898
 20
10.2250766071
 30
0.0
 10
9.2532027328
 20
10.2277787531
 30
0.0
 10
9.2520939005
 20
10.2299402483
 30
0.0
 10
9.2512635515
 20
10.2315619752
 30
0.0
 10
9.2505675376
 20
10.2329114882
 30
0.0
 10
9.2500882883
 20
10.2338599272
 30
0.0
 10
9.2498020021
 20
10.2343959903
 30
0.0
 10
9.2496223015
 20
10.2348146639
 30
0.0
 10
9.2493087592
 20
10.2351697832
 30
0.0
 10
9.2489373884
 20
10.235665444
 30
0.0
 10
9.2482657378
 20
10.2365225218
 30
0.0
 10
9.2473176089
 20
10.2377523185
 30
0.0
 10
9.2461749866
 20
10.2392257633
 30
0.0
 10
9.2446531906
 20
10.2411911637
 30
0.0
 10
9.2427503621
 20
10.2436476371
 30
0.0
 10
9.240467218
 20
10.246595524
 30
0.0
 10
9.238184007
 20
10.249543379
 30
0.0
 10
9.2351397491
 20
10.2534738637
 30
0.0
 10
9.2313344181
 20
10.258386965
 30
0.0
 10
9.2275290922
 20
10.2633000702
 30
0.0
 10
9.2244848262
 20
10.2672305488
 30
0.0
 10
9.2222016396
 20
10.2701784221
 30
0.0
 10
9.219918404
 20
10.2731262405
 30
0.0
 10
9.2180158601
 20
10.2755829271
 30
0.0
 10
9.2164934837
 20
10.2775478927
 30
0.0
 10
9.2153526338
 20
10.2790226652
 30
0.0
 10
9.2143989598
 20
10.2802483079
 30
0.0
 10
9.2137372081
 20
10.2811128013
 30
0.0
 10
9.2133499768
 20
10.2815965804
 30
0.0
 10
9.2130851527
 20
10.2819881965
 30
0.0
 10
9.2127224746
 20
10.2822697942
 30
0.0
 10
9.2122730363
 20
10.2826836335
 30
0.0
 10
9.2114706163
 20
10.2833899724
 30
0.0
 10
9.2103326164
 20
10.2844083758
 30
0.0
 10
9.2089634576
 20
10.2856264586
 30
0.0
 10
9.2071391557
 20
10.2872519668
 30
0.0
 10
9.2048583518
 20
10.2892833723
 30
0.0
 10
9.2021215699
 20
10.2917212646
 30
0.0
 10
9.1993847392
 20
10.2941591019
 30
0.0
 10
9.1957356484
 20
10.2974095705
 30
0.0
 10
9.1911742808
 20
10.3014726522
 30
0.0
 10
9.1857006341
 20
10.3063483415
 30
0.0
 10
9.181139286
 20
10.3104114505
 30
0.0
 10
9.1774901522
 20
10.313661859
 30
0.0
 10
9.1752095697
 20
10.3156935438
 30
0.0
 10
9.173384815
 20
10.3173184806
 30
0.0
 10
9.1720170393
 20
10.3185383088
 30
0.0
 10
9.1708747122
 20
10.3195512514
 30
0.0
 10
9.1700800168
 20
10.3202673386
 30
0.0
 10
9.1696182019
 20
10.3206655586
 30
0.0
 10
9.1692935408
 20
10.3209951339
 30
0.0
 10
9.168885931
 20
10.3212065544
 30
0.0
 10
9.1683713847
 20
10.3215296621
 30
0.0
 10
9.1674574481
 20
10.3220758984
 30
0.0
 10
9.1661588721
 20
10.3228662751
 30
0.0
 10
9.1645975643
 20
10.3238104301
 30
0.0
 10
9.1625168743
 20
10.3250708042
 30
0.0
 10
9.1599156509
 20
10.326645758
 30
0.0
 10
9.1557538951
 20
10.3291659713
 30
0.0
 10
9.1505516313
 20
10.3323161396
 30
0.0
 10
9.144308944
 20
10.3360963828
 30
0.0
 10
9.1391066991
 20
10.3392465788
 30
0.0
 10
9.1349449018
 20
10.3417667311
 30
0.0
 10
9.1318235611
 20
10.3436568626
 30
0.0
 10
9.1287021919
 20
10.3455469274
 30
0.0
 10
9.1261011401
 20
10.3471221895
 30
0.0
 10
9.1240200988
 20
10.348381933
 30
0.0
 10
9.1224598638
 20
10.3493280143
 30
0.0
 10
9.1211579313
 20
10.3501123639
 30
0.0
 10
9.1202499867
 20
10.3506693596
 30
0.0
 10
9.1197258397
 20
10.350975228
 30
0.0
 10
9.1193477202
 20
10.3512396024
 30
0.0
 10
9.1189122987
 20
10.3513702917
 30
0.0
 10
9.1183517243
 20
10.351591175
 30
0.0
 10
9.1173614065
 20
10.3519559945
 30
0.0
 10
9.1159515355
 20
10.352488524
 30
0.0
 10
9.1142576064
 20
10.3531226975
 30
0.0
 10
9.1119997621
 20
10.3539699605
 30
0.0
 10
9.109177207
 20
10.3550284564
 30
0.0
 10
9.105790248
 20
10.3562989014
 30
0.0
 10
9.1024032603
 20
10.3575692795
 30
0.0
 10
9.0978872867
 20
10.3592631405
 30
0.0
 10
9.0922423161
 20
10.3613804578
 30
0.0
 10
9.0865973477
 20
10.3634977812
 30
0.0
 10
9.0820813706
 20
10.3651916324
 30
0.0
 10
9.0786943935
 20
10.3664620397
 30
0.0
 10
9.0753073948
 20
10.3677323754
 30
0.0
 10
9.0724849631
 20
10.3687912114
 30
0.0
 10
9.0702268672
 20
10.3696377809
 30
0.0
 10
9.0685337064
 20
10.370274072
 30
0.0
 10
9.0671214316
 20
10.3707999761
 30
0.0
 10
9.066135405
 20
10.3711766231
 30
0.0
 10
9.0655679551
 20
10.3713785559
 30
0.0
 10
9.0651536528
 20
10.3715674552
 30
0.0
 10
9.064696213
 20
10.3716132026
 30
0.0
 10
9.06410134
 20
10.3717241322
 30
0.0
 10
9.0630533018
 20
10.3718949943
 30
0.0
 10
9.0615597695
 20
10.372151246
 30
0.0
 10
9.0597659619
 20
10.3724535418
 30
0.0
 10
9.0573747665
 20
10.3728584216
 30
0.0
 10
9.0543855842
 20
10.3733638972
 30
0.0
 10
9.050798646
 20
10.3739707355
 30
0.0
 10
9.0472116862
 20
10.3745775022
 30
0.0
 10
9.0424290808
 20
10.3753865495
 30
0.0
 10
9.0364508213
 20
10.37639785
 30
0.0
 10
9.0292769112
 20
10.3776114143
 30
0.0
 10
9.0197116972
 20
10.3792294987
 30
0.0
 10
9.0125377868
 20
10.3804430623
 30
0.0
 10
9.0077551798
 20
10.3812521047
 30
0.0
  0
SPLINE
  5
376
100
AcDbEntity
  8
0
100
AcDbSpline
 62
4
  6
CONTINUOUS
 70
0
 71
3
 72
353
 73
349
 74
0
 42
0.0000001
 43
0.0000001
 44
0.0000000001
 40
0.0
 40
0.0
 40
0.0
 40
0.0
 40
0.015625
 40
0.0234375
 40
0.03125
 40
0.0390625
 40
0.04296875
 40
0.046875
 40
0.05078125
 40
0.0546875
 40
0.056640625
 40
0.05859375
 40
0.060546875
 40
0.0615234375
 40
0.0620117188
 40
0.0625
 40
0.0629882812
 40
0.0634765625
 40
0.064453125
 40
0.06640625
 40
0.068359375
 40
0.0703125
 40
0.07421875
 40
0.078125
 40
0.08203125
 40
0.0859375
 40
0.09375
 40
0.1015625
 40
0.10546875
 40
0.109375
 40
0.11328125
 40
0.1171875
 40
0.119140625
 40
0.12109375
 40
0.1220703125
 40
0.123046875
 40
0.1240234375
 40
0.1245117188
 40
0.125
 40
0.1254882812
 40
0.1259765625
 40
0.126953125
 40
0.1279296875
 40
0.12890625
 40
0.130859375
 40
0.1328125
 40
0.13671875
 40
0.140625
 40
0.14453125
 40
0.1484375
 40
0.15625
 40
0.1640625
 40
0.16796875
 40
0.171875
 40
0.17578125
 40
0.1796875
 40
0.181640625
 40
0.18359375
 40
0.1845703125
 40
0.185546875
 40
0.1865234375
 40
0.1870117188
 40
0.1875
 40
0.1879882812
 40
0.1884765625
 40
0.189453125
 40
0.1904296875
 40
0.19140625
 40
0.193359375
 40
0.1953125
 40
0.19921875
 40
0.203125
 40
0.20703125
 40
0.2109375
 40
0.21875
 40
0.2265625
 40
0.23046875
 40
0.234375
 40
0.23828125
 40
0.2421875
 40
0.244140625
 40
0.24609375
 40
0.2470703125
 40
0.248046875
 40
0.2490234375
 40
0.2495117188
 40
0.25
 40
0.2504882812
 40
0.2509765625
 40
0.251953125
 40
0.2529296875
 40
0.25390625
 40
0.255859375
 40
0.2578125
 40
0.26171875
 40
0.265625
 40
0.26953125
 40
0.2734375
 40
0.28125
 40
0.2890625
 40
0.29296875
 40
0.296875
 40
0.30078125
 40
0.3046875
 40
0.306640625
 40
0.30859375
 40
0.3095703125
 40
0.310546875
 40
0.3115234375
 40
0.3120117188
 40
0.3125
 40
0.3129882812
 40
0.3134765625
 40
0.314453125
 40
0.3154296875
 40
0.31640625
 40
0.318359375
 40
0.3203125
 40
0.32421875
 40
0.328125
 40
0.33203125
 40
0.3359375
 40
0.34375
 40
0.3515625
 40
0.35546875
 40
0.359375
 40
0.36328125
 40
0.3671875
 40
0.369140625
 40
0.37109375
 40
0.3720703125
 40
0.373046875
 40
0.3740234375
 40
0.3745117188
 40
0.375
 40
0.3754882812
 40
0.3759765625
 40
0.376953125
 40
0.3779296875
 40
0.37890625
 40
0.380859375
 40
0.3828125
 40
0.38671875
 40
0.390625
 40
0.39453125
 40
0.3984375
 40
0.40625
 40
0.4140625
 40
0.41796875
 40
0.421875
 40
0.42578125
 40
0.4296875
 40
0.431640625
 40
0.43359375
 40
0.4345703125
 40
0.435546875
 40
0.4365234375
 40
0.4370117188
 40
0.4375
 40
0.4379882812
 40
0.4384765625
 40
0.439453125
 40
0.4404296875
 40
0.44140625
 40
0.443359375
 40
0.4453125
 40
0.44921875
 40
0.453125
 40
0.45703125
 40
0.4609375
 40
0.46875
 40
0.4765625
 40
0.48046875
 40
0.484375
 40
0.48828125
 40
0.4921875
 40
0.494140625
 40
0.49609375
 40
0.498046875
 40
0.4990234375
 40
0.4995117188
 40
0.5
 40
0.5004882812
 40
0.5009765625
 40
0.501953125
 40
0.50390625
 40
0.505859375
 40
0.5078125
 40
0.51171875
 40
0.515625
 40
0.51953125
 40
0.5234375
 40
0.53125
 40
0.5390625
 40
0.54296875
 40
0.546875
 40
0.55078125
 40
0.5546875
 40
0.556640625
 40
0.55859375
 40
0.560546875
 40
0.5615234375
 40
0.5620117188
 40
0.5625
 40
0.5629882812
 40
0.5634765625
 40
0.564453125
 40
0.56640625
 40
0.568359375
 40
0.5703125
 40
0.57421875
 40
0.578125
 40
0.58203125
 40
0.5859375
 40
0.59375
 40
0.6015625
 40
0.60546875
 40
0.609375
 40
0.61328125
 40
0.6171875
 40
0.619140625
 40
0.62109375
 40
0.623046875
 40
0.6240234375
 40
0.6245117188
 40
0.625
 40
0.6254882812
 40
0.6259765625
 40
0.626953125
 40
0.62890625
 40
0.630859375
 40
0.6328125
 40
0.63671875
 40
0.640625
 40
0.64453125
 40
0.6484375
 40
0.65625
 40
0.6640625
 40
0.66796875
 40
0.671875
 40
0.67578125
 40
0.6796875
 40
0.681640625
 40
0.68359375
 40
0.685546875
 40
0.6865234375
 40
0.6870117188
 40
0.6875
 40
0.6879882812
 40
0.6884765625
 40
0.689453125
 40
0.69140625
 40
0.693359375
 40
0.6953125
 40
0.69921875
 40
0.703125
 40
0.70703125
 40
0.7109375
 40
0.71875
 40
0.7265625
 40
0.73046875
 40
0.734375
 40
0.73828125
 40
0.7421875
 40
0.744140625
 40
0.74609375
 40
0.748046875
 40
0.7490234375
 40
0.7495117188
 40
0.75
 40
0.7504882812
 40
0.7509765625
 40
0.751953125
 40
0.75390625
 40
0.755859375
 40
0.7578125
 40
0.76171875
 40
0.765625
 40
0.76953125
 40
0.7734375
 40
0.78125
 40
0.7890625
 40
0.796875
 40
0.80078125
 40
0.8046875
 40
0.806640625
 40
0.80859375
 40
0.810546875
 40
0.8115234375
 40
0.8120117188
 40
0.8125
 40
0.8129882812
 40
0.8134765625
 40
0.814453125
 40
0.81640625
 40
0.818359375
 40
0.8203125
 40
0.82421875
 40
0.828125
 40
0.8359375
 40
0.84375
 40
0.8515625
 40
0.85546875
 40
0.859375
 40
0.86328125
 40
0.8671875
 40
0.869140625
 40
0.87109375
 40
0.873046875
 40
0.8740234375
 40
0.8745117188
 40
0.875
 40
0.8754882812
 40
0.8759765625
 40
0.876953125
 40
0.87890625
 40
0.880859375
 40
0.8828125
 40
0.88671875
 40
0.890625
 40
0.89453125
 40
0.8984375
 40
0.90625
 40
0.9140625
 40
0.91796875
 40
0.921875
 40
0.92578125
 40
0.9296875
 40
0.931640625
 40
0.93359375
 40
0.935546875
 40
0.9365234375
 40
0.9370117188
 40
0.9375
 40
0.9379882812
 40
0.9384765625
 40
0.939453125
 40
0.94140625
 40
0.943359375
 40
0.9453125
 40
0.94921875
 40
0.953125
 40
0.95703125
 40
0.9609375
 40
0.96875
 40
0.9765625
 40
0.984375
 40
1.0
 40
1.0
 40
1.0
 40
1.0
 10
9.0077552052
 20
10.3812521029
 30
0.0
 10
9.0030554245
 20
10.3811172163
 30
0.0
 10
8.9960057536
 20
10.3809148862
 30
0.0
 10
8.9866061922
 20
10.3806451132
 30
0.0
 10
8.9795565213
 20
10.3804427825
 30
0.0
 10
8.973681795
 20
10.3802741767
 30
0.0
 10
8.9689820153
 20
10.380139285
 30
0.0
 10
8.9654571768
 20
10.3800381356
 30
0.0
 10
8.9619323527
 20
10.3799369121
 30
0.0
 10
8.9589949542
 20
10.3798527901
 30
0.0
 10
8.9566451364
 20
10.3797849754
 30
0.0
 10
8.9548824971
 20
10.3797355271
 30
0.0
 10
8.9534145088
 20
10.3796898264
 30
0.0
 10
8.9523851944
 20
10.3796666549
 30
0.0
 10
8.9517997044
 20
10.3796396439
 30
0.0
 10
8.9513530102
 20
10.3796581763
 30
0.0
 10
8.950935278
 20
10.379528431
 30
0.0
 10
8.9503681995
 20
10.3794071582
 30
0.0
 10
8.949380519
 20
10.379170833
 30
0.0
 10
8.947967086
 20
10.3788458242
 30
0.0
 10
8.9462720198
 20
10.378450421
 30
0.0
 10
8.9440115635
 20
10.3779251005
 30
0.0
 10
8.9411861194
 20
10.3772678034
 30
0.0
 10
8.9377955323
 20
10.3764793241
 30
0.0
 10
8.9344049598
 20
10.3756907706
 30
0.0
 10
8.9298841913
 20
10.3746393918
 30
0.0
 10
8.9242332323
 20
10.3733251596
 30
0.0
 10
8.9185822731
 20
10.3720109298
 30
0.0
 10
8.9140615051
 20
10.3709595471
 30
0.0
 10
8.9106709311
 20
10.3701710052
 30
0.0
 10
8.9072803494
 20
10.3693824824
 30
0.0
 10
8.9044548886
 20
10.3687253205
 30
0.0
 10
8.9021944664
 20
10.3681997244
 30
0.0
 10
8.9007818244
 20
10.3678709229
 30
0.0
 10
8.8996514318
 20
10.3676085778
 30
0.0
 10
8.8988044011
 20
10.3674099131
 30
0.0
 10
8.8980961126
 20
10.3672504222
 30
0.0
 10
8.8975349309
 20
10.3671092311
 30
0.0
 10
8.8970991552
 20
10.367040495
 30
0.0
 10
8.8967202127
 20
10.3668299294
 30
0.0
 10
8.8961951036
 20
10.3665987182
 30
0.0
 10
8.8955455284
 20
10.3662927063
 30
0.0
 10
8.8947631228
 20
10.3659327676
 30
0.0
 10
8.8937209336
 20
10.3654503082
 30
0.0
 10
8.8924178484
 20
10.364848104
 30
0.0
 10
8.890333107
 20
10.363884091
 30
0.0
 10
8.8877271133
 20
10.3626792416
 30
0.0
 10
8.8845999497
 20
10.3612333508
 30
0.0
 10
8.8814727783
 20
10.3597874791
 30
0.0
 10
8.8773032192
 20
10.3578596435
 30
0.0
 10
8.8720912692
 20
10.3554498515
 30
0.0
 10
8.86687932
 20
10.3530400579
 30
0.0
 10
8.8627097597
 20
10.351112225
 30
0.0
 10
8.859582592
 20
10.3496663453
 30
0.0
 10
8.8564554145
 20
10.3482204844
 30
0.0
 10
8.8538494638
 20
10.347015542
 30
0.0
 10
8.8517646348
 20
10.3460517187
 30
0.0
 10
8.8504617727
 20
10.3454490315
 30
0.0
 10
8.8494191255
 20
10.3449675636
 30
0.0
 10
8.8486381191
 20
10.3446045958
 30
0.0
 10
8.8479841661
 20
10.3443080614
 30
0.0
 10
8.8474679886
 20
10.3440575142
 30
0.0
 10
8.8470617693
 20
10.3439059995
 30
0.0
 10
8.8467284022
 20
10.3436155618
 30
0.0
 10
8.8462584645
 20
10.3432768393
 30
0.0
 10
8.8456797734
 20
10.3428367864
 30
0.0
 10
8.844981607
 20
10.3423158496
 30
0.0
 10
8.8440520238
 20
10.341618778
 30
0.0
 10
8.8428895978
 20
10.3407482908
 30
0.0
 10
8.841029966
 20
10.3393550349
 30
0.0
 10
8.8387053406
 20
10.3376136285
 30
0.0
 10
8.8359158268
 20
10.3355238707
 30
0.0
 10
8.8331263032
 20
10.3334341317
 30
0.0
 10
8.8294069419
 20
10.3306478065
 30
0.0
 10
8.8247577388
 20
10.3271649024
 30
0.0
 10
8.8201085369
 20
10.3236819968
 30
0.0
 10
8.8163891737
 20
10.3208956738
 30
0.0
 10
8.8135996555
 20
10.3188059279
 30
0.0
 10
8.8108101215
 20
10.3167161962
 30
0.0
 10
8.8084855589
 20
10.3149747086
 30
0.0
 10
8.8066257989
 20
10.3135816183
 30
0.0
 10
8.8054636993
 20
10.3127107098
 30
0.0
 10
8.8045334462
 20
10.312014503
 30
0.0
 10
8.8038373263
 20
10.3114909239
 30
0.0
 10
8.8032522321
 20
10.3110591383
 30
0.0
 10
8.8027953582
 20
10.3107035489
 30
0.0
 10
8.8024220951
 20
10.3104646214
 30
0.0
 10
8.8021656618
 20
10.3101197163
 30
0.0
 10
8.8017829405
 20
10.3096968623
 30
0.0
 10
8.8013185407
 20
10.3091555935
 30
0.0
 10
8.8007552678
 20
10.3085115075
 30
0.0
 10
8.8000063305
 20
10.3076508274
 30
0.0
 10
8.7990694421
 20
10.3065756273
 30
0.0
 10
8.7975708213
 20
10.3048549439
 30
0.0
 10
8.7956974078
 20
10.3027042143
 30
0.0
 10
8.7934493706
 20
10.3001232853
 30
0.0
 10
8.7912013176
 20
10.2975423706
 30
0.0
 10
8.7882039191
 20
10.294101146
 30
0.0
 10
8.7844571689
 20
10.289799617
 30
0.0
 10
8.7807104201
 20
10.285498087
 30
0.0
 10
8.7777130194
 20
10.2820568642
 30
0.0
 10
8.7754649732
 20
10.2794759439
 30
0.0
 10
8.7732169103
 20
10.276895036
 30
0.0
 10
8.7713435767
 20
10.2747442409
 30
0.0
 10
8.7698447931
 20
10.273023691
 30
0.0
 10
8.7689083189
 20
10.271948151
 30
0.0
 10
8.7681585314
 20
10.2710881685
 30
0.0
 10
8.7675978561
 20
10.2704419512
 30
0.0
 10
8.7671253287
 20
10.2699073509
 30
0.0
 10
8.7667591894
 20
10.2694708919
 30
0.0
 10
8.766452116
 20
10.2691675354
 30
0.0
 10
8.7662689767
 20
10.2687726174
 30
0.0
 10
8.7659814992
 20
10.2682780437
 30
0.0
 10
8.7656370056
 20
10.2676488531
 30
0.0
 10
8.7652172556
 20
10.2668985213
 30
0.0
 10
8.7646598095
 20
10.2658964385
 30
0.0
 10
8.7639622415
 20
10.2646443966
 30
0.0
 10
8.7628465577
 20
10.2626408157
 30
0.0
 10
8.7614518071
 20
10.2601364473
 30
0.0
 10
8.7597781689
 20
10.257131159
 30
0.0
 10
8.758104514
 20
10.2541258831
 30
0.0
 10
8.75587298
 20
10.2501188442
 30
0.0
 10
8.7530835603
 20
10.2451100472
 30
0.0
 10
8.7502941421
 20
10.2401012492
 30
0.0
 10
8.7480626057
 20
10.2360942119
 30
0.0
 10
8.7463889582
 20
10.2330889314
 30
0.0
 10
8.7447152921
 20
10.2300836601
 30
0.0
 10
8.7433206283
 20
10.2275792391
 30
0.0
 10
8.7422047676
 20
10.2255757653
 30
0.0
 10
8.7415076498
 20
10.2243234509
 30
0.0
 10
8.7409492797
 20
10.2233219275
 30
0.0
 10
8.7405323525
 20
10.2225698865
 30
0.0
 10
8.7401790271
 20
10.2219460439
 30
0.0
 10
8.7399095681
 20
10.2214405592
 30
0.0
 10
8.7396714014
 20
10.2210789627
 30
0.0
 10
8.7395709236
 20
10.2206505032
 30
0.0
 10
8.7393888567
 20
10.22010258
 30
0.0
 10
8.7391777747
 20
10.2194096626
 30
0.0
 10
8.738917413
 20
10.2185815917
 30
0.0
 10
8.7385727312
 20
10.2174762992
 30
0.0
 10
8.7381410342
 20
10.2160950937
 30
0.0
 10
8.7374507912
 20
10.2138849357
 30
0.0
 10
8.7365878254
 20
10.2111223169
 30
0.0
 10
8.7355523358
 20
10.2078071406
 30
0.0
 10
8.7345168277
 20
10.2044919733
 30
0.0
 10
8.7331361567
 20
10.200071747
 30
0.0
 10
8.7314103155
 20
10.1945464654
 30
0.0
 10
8.729684476
 20
10.1890211831
 30
0.0
 10
8.7283038024
 20
10.184600958
 30
0.0
 10
8.7272683023
 20
10.1812857873
 30
0.0
 10
8.7262327825
 20
10.1779706237
 30
0.0
 10
8.7253699108
 20
10.1752079651
 30
0.0
 10
8.7246794759
 20
10.1729978883
 30
0.0
 10
8.7242482673
 20
10.1716164761
 30
0.0
 10
8.723902583
 20
10.1705116079
 30
0.0
 10
8.7236452841
 20
10.1696822407
 30
0.0
 10
8.7234246195
 20
10.1689933792
 30
0.0
 10
8.7232621028
 20
10.1684371812
 30
0.0
 10
8.7231019197
 20
10.1680339923
 30
0.0
 10
8.7230879116
 20
10.1675775195
 30
0.0
 10
8.7230181733
 20
10.1669875018
 30
0.0
 10
8.7229485192
 20
10.1662435938
 30
0.0
 10
8.7228574356
 20
10.1653536376
 30
0.0
 10
8.72273861
 20
10.1641660746
 30
0.0
 10
8.7225891812
 20
10.1626819478
 30
0.0
 10
8.7223505963
 20
10.1603071621
 30
0.0
 10
8.7220521932
 20
10.1573387427
 30
0.0
 10
8.7216941832
 20
10.1537766126
 30
0.0
 10
8.7213361535
 20
10.1502144896
 30
0.0
 10
8.7208587873
 20
10.1454649898
 30
0.0
 10
8.7202620781
 20
10.139528116
 30
0.0
 10
8.7196653665
 20
10.1335912417
 30
0.0
 10
8.7191880042
 20
10.1288417426
 30
0.0
 10
8.7188299627
 20
10.1252796178
 30
0.0
 10
8.7184719971
 20
10.1217174944
 30
0.0
 10
8.718173456
 20
10.1187490539
 30
0.0
 10
8.7179351525
 20
10.1163743114
 30
0.0
 10
8.7177549786
 20
10.1145932272
 30
0.0
 10
8.7176094339
 20
10.1131090774
 30
0.0
 10
8.717498525
 20
10.1120700017
 30
0.0
 10
8.7174492444
 20
10.111476511
 30
0.0
 10
8.7173725753
 20
10.1110306412
 30
0.0
 10
8.7174476928
 20
10.1105876449
 30
0.0
 10
8.7174949047
 20
10.1099959809
 30
0.0
 10
8.7176021933
 20
10.1089610359
 30
0.0
 10
8.7177425662
 20
10.1074822989
 30
0.0
 10
8.7179165338
 20
10.1057079189
 30
0.0
 10
8.7181465624
 20
10.1033420425
 30
0.0
 10
8.7184347598
 20
10.1003847095
 30
0.0
 10
8.718780313
 20
10.0968359045
 30
0.0
 10
8.7191259421
 20
10.0932871009
 30
0.0
 10
8.7195867543
 20
10.0885553623
 30
0.0
 10
8.7201627795
 20
10.0826406894
 30
0.0
 10
8.7207387982
 20
10.076726016
 30
0.0
 10
8.7211996209
 20
10.0719942782
 30
0.0
 10
8.7215452186
 20
10.0684454723
 30
0.0
 10
8.7218908895
 20
10.0648966759
 30
0.0
 10
8.7221787208
 20
10.0619393162
 30
0.0
 10
8.7224094959
 20
10.0595734941
 30
0.0
 10
8.7225811836
 20
10.0577989483
 30
0.0
 10
8.7227286897
 20
10.0563207304
 30
0.0
 10
8.7228232444
 20
10.0552848586
 30
0.0
 10
8.7228908593
 20
10.0546946795
 30
0.0
 10
8.7229033052
 20
10.0542471221
 30
0.0
 10
8.7230620203
 20
10.053818383
 30
0.0
 10
8.7232226201
 20
10.0532401669
 30
0.0
 10
8.7235274412
 20
10.0522313469
 30
0.0
 10
8.7239504719
 20
10.0507885767
 30
0.0
 10
8.7244634283
 20
10.0490579368
 30
0.0
 10
8.725145512
 20
10.0467501778
 30
0.0
 10
8.7259987543
 20
10.0438655612
 30
0.0
 10
8.7270223717
 20
10.040403986
 30
0.0
 10
8.7280460622
 20
10.0369424203
 30
0.0
 10
8.7294109573
 20
10.032326996
 30
0.0
 10
8.7311170857
 20
10.026557717
 30
0.0
 10
8.7328232078
 20
10.0207884365
 30
0.0
 10
8.7341881128
 20
10.0161730145
 30
0.0
 10
8.7352117734
 20
10.0127114418
 30
0.0
 10
8.736235503
 20
10.0092498928
 30
0.0
 10
8.7370883963
 20
10.006365195
 30
0.0
 10
8.7377711917
 20
10.0040576015
 30
0.0
 10
8.7382819747
 20
10.0023264561
 30
0.0
 10
8.7387118053
 20
10.0008852673
 30
0.0
 10
8.7390044874
 20
9.9998736243
 30
0.0
 10
8.7391845369
 20
9.9992999315
 30
0.0
 10
8.7392835091
 20
9.9988572981
 30
0.0
 10
8.7395203395
 20
9.9984619253
 30
0.0
 10
8.7397880268
 20
9.9979182766
 30
0.0
 10
8.7402788841
 20
9.9969745719
 30
0.0
 10
8.7409683955
 20
9.9956224069
 30
0.0
 10
8.7418008229
 20
9.9940015276
 30
0.0
 10
8.7429089746
 20
9.9918397549
 30
0.0
 10
8.7442947654
 20
9.9891377449
 30
0.0
 10
8.7459574566
 20
9.9858952447
 30
0.0
 10
8.7476202167
 20
9.9826527682
 30
0.0
 10
8.7498372061
 20
9.9783294577
 30
0.0
 10
8.7526084519
 20
9.9729253229
 30
0.0
 10
8.7553796917
 20
9.9675211857
 30
0.0
 10
8.7575966906
 20
9.9631978792
 30
0.0
 10
8.7592594221
 20
9.9599553909
 30
0.0
 10
8.7609222206
 20
9.9567129345
 30
0.0
 10
8.7623076776
 20
9.9540107884
 30
0.0
 10
8.76341651
 20
9.9518492933
 30
0.0
 10
8.764246859
 20
9.9502275663
 30
0.0
 10
8.7649428728
 20
9.9488780534
 30
0.0
 10
8.7654221221
 20
9.9479296143
 30
0.0
 10
8.7657084084
 20
9.9473935513
 30
0.0
 10
8.7658881089
 20
9.9469748776
 30
0.0
 10
8.7662016512
 20
9.9466197584
 30
0.0
 10
8.766573022
 20
9.9461240975
 30
0.0
 10
8.7672446727
 20
9.9452670198
 30
0.0
 10
8.7681928015
 20
9.944037223
 30
0.0
 10
8.7693354238
 20
9.9425637783
 30
0.0
 10
8.7708572198
 20
9.9405983779
 30
0.0
 10
8.7727600484
 20
9.9381419045
 30
0.0
 10
8.7750431924
 20
9.9351940176
 30
0.0
 10
8.7773264034
 20
9.9322461625
 30
0.0
 10
8.7803706613
 20
9.9283156778
 30
0.0
 10
8.7841759923
 20
9.9234025765
 30
0.0
 10
8.7879813182
 20
9.9184894713
 30
0.0
 10
8.7910255842
 20
9.9145589928
 30
0.0
 10
8.7933087708
 20
9.9116111194
 30
0.0
 10
8.7955920064
 20
9.9086633011
 30
0.0
 10
8.7974945503
 20
9.9062066144
 30
0.0
 10
8.7990169267
 20
9.9042416488
 30
0.0
 10
8.8001577766
 20
9.9027668764
 30
0.0
 10
8.8011114506
 20
9.9015412336
 30
0.0
 10
8.8017732024
 20
9.9006767403
 30
0.0
 10
8.8021604337
 20
9.9001929611
 30
0.0
 10
8.8024252577
 20
9.8998013451
 30
0.0
 10
8.8027879358
 20
9.8995197473
 30
0.0
 10
8.8032373741
 20
9.899105908
 30
0.0
 10
8.8040397941
 20
9.8983995691
 30
0.0
 10
8.805177794
 20
9.8973811657
 30
0.0
 10
8.8065469528
 20
9.8961630829
 30
0.0
 10
8.8083712547
 20
9.8945375748
 30
0.0
 10
8.8106520586
 20
9.8925061692
 30
0.0
 10
8.8133888405
 20
9.890068277
 30
0.0
 10
8.8161256712
 20
9.8876304396
 30
0.0
 10
8.819774762
 20
9.884379971
 30
0.0
 10
8.8243361296
 20
9.8803168893
 30
0.0
 10
8.8298097764
 20
9.8754412
 30
0.0
 10
8.8343711245
 20
9.871378091
 30
0.0
 10
8.8380202582
 20
9.8681276825
 30
0.0
 10
8.8403008407
 20
9.8660959977
 30
0.0
 10
8.8421255954
 20
9.864471061
 30
0.0
 10
8.8434933712
 20
9.8632512328
 30
0.0
 10
8.8446356982
 20
9.8622382901
 30
0.0
 10
8.8454303936
 20
9.8615222029
 30
0.0
 10
8.8458922085
 20
9.8611239829
 30
0.0
 10
8.8462168696
 20
9.8607944076
 30
0.0
 10
8.8466244794
 20
9.8605829871
 30
0.0
 10
8.8471390257
 20
9.8602598794
 30
0.0
 10
8.8480529623
 20
9.8597136431
 30
0.0
 10
8.8493515383
 20
9.8589232664
 30
0.0
 10
8.8509128461
 20
9.8579791115
 30
0.0
 10
8.8529935362
 20
9.8567187373
 30
0.0
 10
8.8555947595
 20
9.8551437835
 30
0.0
 10
8.8597565153
 20
9.8526235702
 30
0.0
 10
8.8649587791
 20
9.849473402
 30
0.0
 10
8.8712014664
 20
9.8456931587
 30
0.0
 10
8.8764037113
 20
9.8425429628
 30
0.0
 10
8.8805655086
 20
9.8400228104
 30
0.0
 10
8.8836868493
 20
9.8381326789
 30
0.0
 10
8.8868082185
 20
9.8362426142
 30
0.0
 10
8.8894092703
 20
9.834667352
 30
0.0
 10
8.8914903116
 20
9.8334076086
 30
0.0
 10
8.8930505466
 20
9.8324615272
 30
0.0
 10
8.8943524791
 20
9.8316771777
 30
0.0
 10
8.8952604237
 20
9.8311201819
 30
0.0
 10
8.8957845707
 20
9.8308143136
 30
0.0
 10
8.8961626903
 20
9.8305499392
 30
0.0
 10
8.8965981117
 20
9.8304192498
 30
0.0
 10
8.8971586861
 20
9.8301983666
 30
0.0
 10
8.8981490039
 20
9.829833547
 30
0.0
 10
8.8995588749
 20
9.8293010175
 30
0.0
 10
8.9012528041
 20
9.828666844
 30
0.0
 10
8.9035106483
 20
9.827819581
 30
0.0
 10
8.9063332034
 20
9.8267610851
 30
0.0
 10
8.9097201625
 20
9.8254906401
 30
0.0
 10
8.9131071501
 20
9.824220262
 30
0.0
 10
8.9176231237
 20
9.8225264011
 30
0.0
 10
8.9232680943
 20
9.8204090837
 30
0.0
 10
8.9289130627
 20
9.8182917603
 30
0.0
 10
8.9334290398
 20
9.8165979091
 30
0.0
 10
8.9368160169
 20
9.8153275018
 30
0.0
 10
8.9402030156
 20
9.8140571662
 30
0.0
 10
8.9430254474
 20
9.8129983302
 30
0.0
 10
8.9452835432
 20
9.8121517606
 30
0.0
 10
8.946976704
 20
9.8115154695
 30
0.0
 10
8.9483889788
 20
9.8109895654
 30
0.0
 10
8.9493750055
 20
9.8106129184
 30
0.0
 10
8.9499424553
 20
9.8104109857
 30
0.0
 10
8.9503567576
 20
9.8102220864
 30
0.0
 10
8.9508141974
 20
9.8101763389
 30
0.0
 10
8.9514090704
 20
9.8100654093
 30
0.0
 10
8.9524571086
 20
9.8098945473
 30
0.0
 10
8.9539506409
 20
9.8096382955
 30
0.0
 10
8.9557444485
 20
9.8093359997
 30
0.0
 10
8.9581356439
 20
9.80893112
 30
0.0
 10
8.9611248263
 20
9.8084256443
 30
0.0
 10
8.9647117644
 20
9.807818806
 30
0.0
 10
8.9682987242
 20
9.8072120393
 30
0.0
 10
8.9730813297
 20
9.8064029921
 30
0.0
 10
8.9790595891
 20
9.8053916916
 30
0.0
 10
8.9862334993
 20
9.8041781273
 30
0.0
 10
8.9957987132
 20
9.8025600428
 30
0.0
 10
9.0029726236
 20
9.8013464792
 30
0.0
 10
9.0077552306
 20
9.8005374369
 30
0.0
  0
ENDSEC
  0
SECTION
  2
OBJECTS
  0
DICTIONARY
  5
C
100
AcDbDictionary
280
0
281
1
  3
ACAD_GROUP
350
D
  3
ACAD_MLINESTYLE
350
17
  3
ACAD_LAYOUT
350
1A
  3
ACAD_PLOTSETTINGS
350
19
  3
ACAD_PLOTSTYLENAME
350
E
  3
ACAD_IMAGE_DICT
350
       378
  3
ACAD_IMAGE_VARS
350
       379
  3
ACAD_TABLESTYLE
350
       37A
  0
IMAGEDEF_REACTOR
  5
377
100
AcDbRasterImageDefReactor
 90
2
330
28B
  0
DICTIONARY
  5
D
102
{ACAD_REACTORS
330
C
102
}
100
AcDbDictionary
280
0
281
1
  0
ACDBDICTIONARYWDFLT
  5
E
102
{ACAD_REACTORS
330
C
102
}
100
AcDbDictionary
281
1
  3
Normal
350
F
100
AcDbDictionaryWithDefault
340
F
  0
DICTIONARY
  5
378
330
C
100
AcDbDictionary
281
1
  3
LNN_assy_2_img_1
350
       37D
  0
RASTERVARIABLES
  5
379
330
C
100
AcDbRasterVariables
 90
0
 70
0
 71
1
 72
5
  0
DICTIONARY
  5
17
102
{ACAD_REACTORS
330
C
102
}
100
AcDbDictionary
280
0
281
1
  3
Standard
350
18
  0
DICTIONARY
  5
37A
330
C
100
AcDbDictionary
281
1
  3
Standard
350
       37E
  3
Standard1
350
       37F
  0
DICTIONARY
  5
19
102
{ACAD_REACTORS
330
C
102
}
100
AcDbDictionary
281
1
  0
DICTIONARY
  5
1A
102
{ACAD_REACTORS
330
C
102
}
100
AcDbDictionary
281
1
  3
Model
350
37B
  3
Layout1
350
37C
  0
ACDBPLACEHOLDER
  5
F
102
{ACAD_REACTORS
330
E
102
}
  0
MLINESTYLE
  5
18
102
{ACAD_REACTORS
330
17
102
}
100
AcDbMlineStyle
  2
STANDARD
 70
0
  3

 62
256
 51
90.0
 52
90.0
 71
2
 49
0.5
 62
256
  6
BYLAYER
 49
-0.5
 62
256
  6
BYLAYER
  0
LAYOUT
  5
37B
102
{ACAD_REACTORS
330
1A
102
}
100
AcDbPlotSettings
  1

  2
none_device
  4
ANSI_C_(22.00_x_17.00_Inches)
  6

 40
0.0
 41
0.0
 42
0.0
 43
0.0
 44
558.8
 45
431.8
 46
0.0
 47
0.0
 48
0.0
 49
0.0
140
0.0
141
0.0
142
1.0
143
1.0
 70
1024
 72
0
 73
0
 74
0
  7

 75
0
147
1.0
148
0.0
149
0.0
100
AcDbLayout
  1
Model
 70
0
 71
0
 10
0.0
 20
0.0
 11
22.0
 21
17.0
 12
0.0
 22
0.0
 32
0.0
 14
0.0
 24
0.0
 34
0.0
 15
0.0
 25
0.0
 35
0.0
146
0.0
 13
0.0
 23
0.0
 33
0.0
 16
1.0
 26
0.0
 36
0.0
 17
0.0
 27
1.0
 37
0.0
 76
0
330
20C
345
0
346
0
  0
LAYOUT
  5
37C
102
{ACAD_REACTORS
330
1A
102
}
100
AcDbPlotSettings
  1

  2
none_device
  4
ANSI_C_(22.00_x_17.00_Inches)
  6

 40
0.0
 41
0.0
 42
0.0
 43
0.0
 44
558.8
 45
431.8
 46
0.0
 47
0.0
 48
0.0
 49
0.0
140
0.0
141
0.0
142
1.0
143
1.0
 70
0
 72
0
 73
0
 74
0
  7

 75
0
147
1.0
148
0.0
149
0.0
100
AcDbLayout
  1
Layout1
 70
0
 71
1
 10
0.0
 20
0.0
 11
22.0
 21
17.0
 12
0.0
 22
0.0
 32
0.0
 14
0.0
 24
0.0
 34
0.0
 15
0.0
 25
0.0
 35
0.0
146
0.0
 13
0.0
 23
0.0
 33
0.0
 16
1.0
 26
0.0
 36
0.0
 17
0.0
 27
1.0
 37
0.0
 76
0
330
20D
345
0
346
0
  0
IMAGEDEF
  5
37D
102
{ACAD_REACTORS
330
378
330
377
102
}
100
AcDbRasterImageDef
 90
0
  1
LNN_assy_2_img_1.png
 10
369.0
 20
92.0
 11
0.0066666667
 21
0.0066666667
280
1
281
0
  0
TABLESTYLE
  5
37E
102
{ACAD_REACTORS
330
37A
330
28E
330
28F
102
}
330
37A
100
AcDbTableStyle
  3
Standard
 70
0
 71
0
 40
0.06
 41
0.06
280
1
281
1
  7
Standard
140
0.18
170
1
 62
0
 63
7
283
0
  7
Standard
140
0.18
170
1
 62
0
 63
7
283
0
  7
Standard
140
0.18
170
1
 62
0
 63
7
283
0
  0
TABLESTYLE
  5
37F
102
{ACAD_REACTORS
330
37A
330
28D
102
}
330
37A
100
AcDbTableStyle
  3
Standard1
 70
1
 71
0
 40
0.06
 41
0.06
280
1
281
1
  7
Standard
140
0.18
170
1
 62
0
 63
7
283
0
  7
Standard
140
0.18
170
1
 62
0
 63
7
283
0
  7
Standard
140
0.18
170
1
 62
0
 63
7
283
0
  0
ENDSEC
  0
EOF
