999
DXF file: LNL_assy_2.dxf
999
Pro/ENGINEER 2014200 by Parametric Technology Corporation
  0
SECTION
  2
HEADER
  9
$ACADVER
  1
AC1021
  9
$DWGCODEPAGE
  3
ANSI_1252
  9
$EXTMAX
 10
22.0
 20
17.0
 30
0.0
  9
$EXTMIN
 10
0.0
 20
0.0
 30
0.0
  9
$LIMMIN
 10
0.0
 20
0.0
  9
$LIMMAX
 10
22.0
 20
17.0
  9
$VIEWCTR
 10
11.0
 20
8.5
  9
$VIEWSIZE
 40
17.0
  9
$CLAYER
  8
0
  9
$LTSCALE
 40
1.21
  9
$CELTYPE
  6
BYLAYER
  9
$DIMSCALE
 40
1.0
  9
$DIMASZ
 40
0.1875
  9
$DIMEXO
 40
0.0625
  9
$DIMDLI
 40
0.836
  9
$DIMEXE
 40
0.125
  9
$DIMCEN
 40
0.198
  9
$DIMLFAC
 40
1.0
  9
$DIMBLK
  1
_FILLED
  9
$DIMTXT
 40
0.1
  9
$DIMTOL
 70
0
  9
$DIMLIM
 70
0
  9
$DIMTFAC
 40
1.0
  9
$DIMGAP
 40
0.09
  9
$DIMDSEP
 70
46
  9
$AUNITS
 70
0
  9
$PDMODE
 70
3
  9
$PDSIZE
 40
0.3125
  9
$HANDSEED
  5
37D
  9
$TILEMODE
 70
1
  9
$MEASUREMENT
 70
0
  9
$INSUNITS
 70
1
  0
ENDSEC
  0
SECTION
  2
CLASSES
  0
CLASS
  1
ACDBDICTIONARYWDFLT
  2
AcDbDictionaryWithDefault
  3
AutoCAD 2000
 90
0
 91
1
280
0
281
0
  0
CLASS
  1
ACDBPLACEHOLDER
  2
AcDbPlaceHolder
  3
AutoCAD 2000
 90
0
 91
1
280
0
281
0
  0
CLASS
  1
LAYOUT
  2
AcDbLayout
  3
AutoCAD 2000
 90
0
 91
0
280
0
281
0
  0
CLASS
  1
RASTERVARIABLES
  2
AcDbRasterVariables
  3
ISM
 90
0
 91
1
280
0
281
0
  0
CLASS
  1
IMAGEDEF
  2
AcDbRasterImageDef
  3
ISM
 90
0
 91
1
280
0
281
0
  0
CLASS
  1
IMAGEDEF_REACTOR
  2
AcDbRasterImageDefReactor
  3
ISM
 90
0
 91
1
280
0
281
0
  0
CLASS
  1
IMAGE
  2
AcDbRasterImage
  3
ISM
 90
127
 91
1
280
0
281
1
  0
CLASS
  1
TABLESTYLE
  2
AcDbTableStyle
  3
ObjectDBX Classes
 90
2047
 91
1
280
0
281
0
  0
CLASS
  1
ACAD_TABLE
  2
AcDbTable
  3
ObjectDBX Classes
 90
1025
 91
3
280
0
281
1
  0
ENDSEC
  0
SECTION
  2
TABLES
  0
TABLE
  2
VPORT
  5
8
100
AcDbSymbolTable
 70
2
  0
VPORT
  5
1F4
100
AcDbSymbolTableRecord
100
AcDbViewportTableRecord
  2
*ACTIVE
 70
0
 10
0.0
 20
0.0
 11
1.0
 21
1.0
 12
11.0
 22
8.5
 13
0.0
 23
0.0
 14
1.0
 24
1.0
 15
0.0
 25
0.0
 16
0.0
 26
0.0
 36
1.0
 17
0.0
 27
0.0
 37
0.0
 40
17.0
 41
1.2941176471
 42
50.0
 43
0.0
 44
0.0
 50
0.0
 51
0.0
 71
0
 72
100
 73
1
 74
1
 75
0
 76
0
 77
0
 78
0
  0
ENDTAB
  0
TABLE
  2
LTYPE
  5
5
100
AcDbSymbolTable
 70
6
  0
LTYPE
  5
14
100
AcDbSymbolTableRecord
100
AcDbLinetypeTableRecord
  2
BYBLOCK
 70
0
  3

 72
65
 73
0
 40
0.0
  0
LTYPE
  5
15
100
AcDbSymbolTableRecord
100
AcDbLinetypeTableRecord
  2
BYLAYER
 70
0
  3

 72
65
 73
0
 40
0.0
  0
LTYPE
  5
16
100
AcDbSymbolTableRecord
100
AcDbLinetypeTableRecord
  2
CONTINUOUS
 70
64
  3
Solid line
 72
65
 73
0
 40
0.0
  0
LTYPE
  5
1F5
100
AcDbSymbolTableRecord
100
AcDbLinetypeTableRecord
  2
CENTER
 70
64
  3
____ _ ____ _ ____ _ ____ _ ____ _ ____ _ ____
 72
65
 73
4
 40
0.6
 49
0.375
 74
0
 49
-0.075
 74
0
 49
0.075
 74
0
 49
-0.075
 74
0
  0
LTYPE
  5
1F6
100
AcDbSymbolTableRecord
100
AcDbLinetypeTableRecord
  2
HIDDEN
 70
64
  3
- - - - - - - - - - - - - - - - - - - -
 72
65
 73
2
 40
0.2
 49
0.1
 74
0
 49
-0.1
 74
0
  0
LTYPE
  5
1F7
100
AcDbSymbolTableRecord
100
AcDbLinetypeTableRecord
  2
PHANTOM
 70
64
  3
_____ _ _ _____ _ _ _____ _ _ _____
 72
65
 73
6
 40
0.8
 49
0.45
 74
0
 49
-0.05
 74
0
 49
0.1
 74
0
 49
-0.05
 74
0
 49
0.1
 74
0
 49
-0.05
 74
0
  0
LTYPE
  5
1F8
100
AcDbSymbolTableRecord
100
AcDbLinetypeTableRecord
  2
DOT
 70
64
  3
. . . . . . . . . . . . . . . . . . . .
 72
65
 73
2
 40
0.2
 49
0.1
 74
0
 49
-0.1
 74
0
  0
LTYPE
  5
1F9
100
AcDbSymbolTableRecord
100
AcDbLinetypeTableRecord
  2
DASHED
 70
64
  3
- - - - - - - - - - - - - - - - - - - -
 72
65
 73
2
 40
0.2
 49
0.1
 74
0
 49
-0.1
 74
0
  0
ENDTAB
  0
TABLE
  2
LAYER
  5
2
100
AcDbSymbolTable
 70
36
  0
LAYER
  5
10
100
AcDbSymbolTableRecord
100
AcDbLayerTableRecord
  2
0
 70
0
 62
7
  6
CONTINUOUS
370
-3
390
F
  0
LAYER
  5
1FA
100
AcDbSymbolTableRecord
100
AcDbLayerTableRecord
  2
DEFAULT_1
 70
0
 62
7
  6
CENTER
370
-3
390
F
  0
LAYER
  5
1FB
100
AcDbSymbolTableRecord
100
AcDbLayerTableRecord
  2
DEFAULT_2
 70
0
 62
8
  6
HIDDEN
370
-3
390
F
  0
LAYER
  5
1FC
100
AcDbSymbolTableRecord
100
AcDbLayerTableRecord
  2
DEFAULT_3
 70
0
 62
7
  6
PHANTOM
370
-3
390
F
  0
LAYER
  5
1FD
100
AcDbSymbolTableRecord
100
AcDbLayerTableRecord
  2
01___PRT_ALL_DTM_PLN
 70
0
 62
7
  6
CONTINUOUS
370
-3
390
F
  0
LAYER
  5
1FE
100
AcDbSymbolTableRecord
100
AcDbLayerTableRecord
  2
01___PRT_DEF_DTM_PLN
 70
0
 62
7
  6
CONTINUOUS
370
-3
390
F
  0
LAYER
  5
1FF
100
AcDbSymbolTableRecord
100
AcDbLayerTableRecord
  2
02___PRT_ALL_AXES
 70
0
 62
7
  6
CONTINUOUS
370
-3
390
F
  0
LAYER
  5
200
100
AcDbSymbolTableRecord
100
AcDbLayerTableRecord
  2
03___PRT_ALL_CURVES
 70
0
 62
7
  6
CONTINUOUS
370
-3
390
F
  0
LAYER
  5
201
100
AcDbSymbolTableRecord
100
AcDbLayerTableRecord
  2
04___PRT_ALL_DTM_PNT
 70
0
 62
7
  6
CONTINUOUS
370
-3
390
F
  0
LAYER
  5
202
100
AcDbSymbolTableRecord
100
AcDbLayerTableRecord
  2
05___PRT_ALL_DTM_CSYS
 70
0
 62
7
  6
CONTINUOUS
370
-3
390
F
  0
LAYER
  5
203
100
AcDbSymbolTableRecord
100
AcDbLayerTableRecord
  2
05___PRT_DEF_DTM_CSYS
 70
0
 62
7
  6
CONTINUOUS
370
-3
390
F
  0
LAYER
  5
204
100
AcDbSymbolTableRecord
100
AcDbLayerTableRecord
  2
06___PRT_ALL_SURFS
 70
0
 62
7
  6
CONTINUOUS
370
-3
390
F
  0
LAYER
  5
205
100
AcDbSymbolTableRecord
100
AcDbLayerTableRecord
  2
DATUM_PLANES
 70
0
 62
7
  6
CONTINUOUS
370
-3
390
F
  0
LAYER
  5
206
100
AcDbSymbolTableRecord
100
AcDbLayerTableRecord
  2
PORT_AREAS
 70
0
 62
7
  6
CONTINUOUS
370
-3
390
F
  0
LAYER
  5
207
100
AcDbSymbolTableRecord
100
AcDbLayerTableRecord
  2
SUNNBOMCOSMETIC
 70
0
 62
7
  6
CONTINUOUS
370
-3
390
F
  0
LAYER
  5
208
100
AcDbSymbolTableRecord
100
AcDbLayerTableRecord
  2
SUNNBOMSTAMPING
 70
0
 62
7
  6
CONTINUOUS
370
-3
390
F
  0
LAYER
  5
209
100
AcDbSymbolTableRecord
100
AcDbLayerTableRecord
  2
THREADS
 70
0
 62
7
  6
CONTINUOUS
370
-3
390
F
  0
ENDTAB
  0
TABLE
  2
STYLE
  5
3
100
AcDbSymbolTable
 70
1
  0
STYLE
  5
11
100
AcDbSymbolTableRecord
100
AcDbTextStyleTableRecord
  2
STANDARD
 70
0
 40
0.0
 41
0.8
 50
0.0
 71
0
 42
0.2
  3
txt
  4

  0
STYLE
  5
20A
100
AcDbSymbolTableRecord
100
AcDbTextStyleTableRecord
  2
TEXTSTYLE_1
 70
0
 40
0.0
 41
0.8
 50
0.0
 71
0
 42
0.2
  3
gdt
  4

  0
ENDTAB
  0
TABLE
  2
VIEW
  5
6
100
AcDbSymbolTable
 70
0
  0
ENDTAB
  0
TABLE
  2
UCS
  5
7
100
AcDbSymbolTable
 70
0
  0
ENDTAB
  0
TABLE
  2
APPID
  5
9
100
AcDbSymbolTable
 70
1
  0
APPID
  5
20B
100
AcDbSymbolTableRecord
100
AcDbRegAppTableRecord
  2
ACAD
 70
0
  0
ENDTAB
  0
TABLE
  2
BLOCK_RECORD
  5
1
100
AcDbSymbolTable
 70
0
  0
BLOCK_RECORD
  5
20C
100
AcDbSymbolTableRecord
100
AcDbBlockTableRecord
  2
*Model_Space
  0
BLOCK_RECORD
  5
20D
100
AcDbSymbolTableRecord
100
AcDbBlockTableRecord
  2
*Paper_Space
  0
BLOCK_RECORD
  5
20E
100
AcDbSymbolTableRecord
100
AcDbBlockTableRecord
  2
SUN_FIRST_THIRD_ANGLE_BL0
  0
BLOCK_RECORD
  5
20F
100
AcDbSymbolTableRecord
100
AcDbBlockTableRecord
  2
*T1
  0
BLOCK_RECORD
  5
210
100
AcDbSymbolTableRecord
100
AcDbBlockTableRecord
  2
*T2
  0
BLOCK_RECORD
  5
211
100
AcDbSymbolTableRecord
100
AcDbBlockTableRecord
  2
*T3
  0
ENDTAB
  0
TABLE
  2
DIMSTYLE
  5
A
100
AcDbSymbolTable
 70
1
100
AcDbDimStyleTable
 71
0
  0
DIMSTYLE
105
212
100
AcDbSymbolTableRecord
100
AcDbDimStyleTableRecord
  2
STANDARD
 70
0
  3

  4

 40
1.0
 41
0.1875
 42
0.0625
 43
0.38
 44
0.125
 45
0.0
 46
0.0
 47
0.001
 48
0.001
140
0.1
141
0.09
142
0.0
143
25.4
144
1.0
145
0.0
146
1.0
147
0.09
 71
0.0
 72
0.0
 73
1
 74
1
 75
0
 76
0
 77
0
 78
4
170
0
171
2
172
0
173
0
174
0
175
0
176
0
177
0
178
0
270
2
271
3
272
3
273
2
274
2
275
0
280
0
281
0
282
0
283
1
284
4
285
0
286
0
287
3
288
0
340
11
278
46
  0
ENDTAB
  0
ENDSEC
  0
SECTION
  2
BLOCKS
  0
BLOCK
  5
20
100
AcDbEntity
  8
0
100
AcDbBlockBegin
  2
*Model_Space
 70
0
 10
0.0
 20
0.0
 30
0.0
  3
*Model_Space
  1

  0
ENDBLK
  5
21
100
AcDbEntity
  8
0
100
AcDbBlockEnd
  0
BLOCK
  5
1C
100
AcDbEntity
  8
0
100
AcDbBlockBegin
  2
*Paper_Space
 70
0
 10
0.0
 20
0.0
 30
0.0
  3
*Paper_Space
  1

  0
ENDBLK
  5
1D
100
AcDbEntity
  8
0
100
AcDbBlockEnd
  0
BLOCK
  5
213
100
AcDbEntity
  8
0
100
AcDbBlockBegin
 62
2
  6
CONTINUOUS
  2
SUN_FIRST_THIRD_ANGLE_BL0
 70
64
 10
20.4816717061
 20
1.2289683772
  3
SUN_FIRST_THIRD_ANGLE_BL0
  1

  0
TEXT
  5
214
100
AcDbEntity
  8
0
100
AcDbText
 62
2
  6
CONTINUOUS
 10
19.4750896608
 20
1.4136269581
  7
STANDARD
 40
0.08
  1
FIRST ANGLE
 41
0.8
 72
0
100
AcDbText
  0
TEXT
  5
215
100
AcDbEntity
  8
0
100
AcDbText
 62
2
  6
CONTINUOUS
 10
20.7842537513
 20
1.4047600029
  7
STANDARD
 40
0.08
  1
THIRD ANGLE
 41
0.8
 72
0
100
AcDbText
  0
LINE
  5
216
100
AcDbEntity
  8
0
100
AcDbLine
 62
7
  6
CONTINUOUS
 10
19.4767170086
 20
1.1727031207
 11
19.6334271527
 21
1.1717972817
  0
LINE
  5
217
100
AcDbEntity
  8
0
100
AcDbLine
 62
7
  6
CONTINUOUS
 10
19.6596964832
 20
1.1717972817
 11
19.6950230232
 21
1.171593082
  0
LINE
  5
218
100
AcDbEntity
  8
0
100
AcDbLine
 62
7
  6
CONTINUOUS
 10
19.7194818561
 20
1.1708914427
 11
19.8852396156
 21
1.1699333054
  0
LINE
  5
219
100
AcDbEntity
  8
0
100
AcDbLine
 62
7
  6
CONTINUOUS
 10
19.4758111696
 20
1.2723454088
 11
19.88525039
 21
1.3511534004
  0
LINE
  5
21A
100
AcDbEntity
  8
0
100
AcDbLine
 62
7
  6
CONTINUOUS
 10
19.88525039
 20
1.3511534004
 11
19.8831348489
 21
0.9851647912
  0
LINE
  5
21B
100
AcDbEntity
  8
0
100
AcDbLine
 62
7
  6
CONTINUOUS
 10
19.8831348489
 20
0.9851647912
 11
19.4767170086
 21
1.0658141206
  0
LINE
  5
21C
100
AcDbEntity
  8
0
100
AcDbLine
 62
7
  6
CONTINUOUS
 10
19.4767170086
 20
1.0658141206
 11
19.4779056764
 21
1.2714536432
  0
CIRCLE
  5
21D
100
AcDbEntity
  8
0
100
AcDbCircle
 62
7
  6
CONTINUOUS
 10
20.2068232291
 20
1.1717972817
 40
0.175742101
  0
CIRCLE
  5
21E
100
AcDbEntity
  8
0
100
AcDbCircle
 62
7
  6
CONTINUOUS
 10
20.2068232291
 20
1.1717972817
 40
0.1005522074
  0
LINE
  5
21F
100
AcDbEntity
  8
0
100
AcDbLine
 62
7
  6
CONTINUOUS
 10
20.2077290681
 20
1.3756110529
 11
20.2071171714
 21
1.2379342989
  0
LINE
  5
220
100
AcDbEntity
  8
0
100
AcDbLine
 62
7
  6
CONTINUOUS
 10
20.2077290681
 20
1.2016899681
 11
20.2074674401
 21
1.1428236749
  0
LINE
  5
221
100
AcDbEntity
  8
0
100
AcDbLine
 62
7
  6
CONTINUOUS
 10
20.208634907
 20
1.101141841
 11
20.2080230104
 21
0.963465087
  0
LINE
  5
222
100
AcDbEntity
  8
0
100
AcDbLine
 62
7
  6
CONTINUOUS
 10
20.0066328138
 20
1.1745147986
 11
20.1443095678
 21
1.1739029019
  0
LINE
  5
223
100
AcDbEntity
  8
0
100
AcDbLine
 62
7
  6
CONTINUOUS
 10
20.1832714155
 20
1.1727031207
 11
20.238153505
 21
1.172335442
  0
LINE
  5
224
100
AcDbEntity
  8
0
100
AcDbLine
 62
7
  6
CONTINUOUS
 10
20.2756669918
 20
1.1717972817
 11
20.407916871
 21
1.1712095044
  0
CIRCLE
  5
225
100
AcDbEntity
  8
0
100
AcDbCircle
 62
7
  6
CONTINUOUS
 10
20.7509457401
 20
1.1693297793
 40
0.1722024983
  0
CIRCLE
  5
226
100
AcDbEntity
  8
0
100
AcDbCircle
 62
7
  6
CONTINUOUS
 10
20.7509457401
 20
1.1693297793
 40
0.0985164967
  0
LINE
  5
227
100
AcDbEntity
  8
0
100
AcDbLine
 62
7
  6
CONTINUOUS
 10
20.7169767782
 20
1.170462078
 11
20.7825395137
 21
1.1682766535
  0
LINE
  5
228
100
AcDbEntity
  8
0
100
AcDbLine
 62
7
  6
CONTINUOUS
 10
20.8177513651
 20
1.1693297793
 11
20.947965719
 21
1.1693297793
  0
LINE
  5
229
100
AcDbEntity
  8
0
100
AcDbLine
 62
7
  6
CONTINUOUS
 10
20.6875370113
 20
1.170462078
 11
20.5573226574
 21
1.170462078
  0
LINE
  5
22A
100
AcDbEntity
  8
0
100
AcDbLine
 62
7
  6
CONTINUOUS
 10
20.7486811426
 20
1.1987695462
 11
20.7486811426
 21
1.1432869085
  0
LINE
  5
22B
100
AcDbEntity
  8
0
100
AcDbLine
 62
7
  6
CONTINUOUS
 10
20.7498134414
 20
1.1059210505
 11
20.7498134414
 21
0.9757066966
  0
LINE
  5
22C
100
AcDbEntity
  8
0
100
AcDbLine
 62
7
  6
CONTINUOUS
 10
20.7486811426
 20
1.2338708068
 11
20.7486811426
 21
1.3640851607
  0
LINE
  5
22D
100
AcDbEntity
  8
0
100
AcDbLine
 62
7
  6
CONTINUOUS
 10
21.0702539817
 20
1.2701043662
 11
21.4790138229
 21
1.3448360823
  0
LINE
  5
22E
100
AcDbEntity
  8
0
100
AcDbLine
 62
7
  6
CONTINUOUS
 10
21.4790138229
 20
1.3448360823
 11
21.4790138229
 21
0.9779712941
  0
LINE
  5
22F
100
AcDbEntity
  8
0
100
AcDbLine
 62
7
  6
CONTINUOUS
 10
21.4790138229
 20
0.9779712941
 11
21.069121683
 21
1.0617614
  0
LINE
  5
230
100
AcDbEntity
  8
0
100
AcDbLine
 62
7
  6
CONTINUOUS
 10
21.0702539817
 20
1.2701043662
 11
21.069121683
 21
1.0617614
  0
LINE
  5
231
100
AcDbEntity
  8
0
100
AcDbLine
 62
7
  6
CONTINUOUS
 10
21.4790138229
 20
1.1693297793
 11
21.3159628059
 21
1.1693297793
  0
LINE
  5
232
100
AcDbEntity
  8
0
100
AcDbLine
 62
7
  6
CONTINUOUS
 10
21.2876553377
 20
1.1693297793
 11
21.2502894796
 21
1.1693297793
  0
LINE
  5
233
100
AcDbEntity
  8
0
100
AcDbLine
 62
7
  6
CONTINUOUS
 10
21.2208497126
 20
1.1659328831
 11
21.0713862804
 21
1.1659328831
  0
LINE
  5
234
100
AcDbEntity
  8
0
100
AcDbLine
 62
7
  6
CONTINUOUS
 10
20.4796138713
 20
1.5284908897
 11
20.4766766948
 21
0.9294458646
  0
ENDBLK
  5
235
100
AcDbEntity
  8
0
  6
BYBLOCK
 62
0
100
AcDbBlockEnd
  0
BLOCK
  5
236
100
AcDbEntity
  8
0
100
AcDbBlockBegin
  2
*T1
 70
1
 10
0.0
 20
0.0
  3
*T1
  1

  0
LINE
  5
237
100
AcDbEntity
  8
0
100
AcDbLine
 62
2
  6
CONTINUOUS
 10
9.275
 20
0.0
 11
-0.0
 21
0.0
  0
LINE
  5
238
100
AcDbEntity
  8
0
100
AcDbLine
 62
2
  6
CONTINUOUS
 10
9.275
 20
0.0
 11
9.275
 21
1.25
  0
LINE
  5
239
100
AcDbEntity
  8
0
100
AcDbLine
 62
2
  6
CONTINUOUS
 10
9.275
 20
0.625
 11
-0.0
 21
0.625
  0
LINE
  5
23A
100
AcDbEntity
  8
0
100
AcDbLine
 62
2
  6
CONTINUOUS
 10
9.275
 20
1.25
 11
-0.0
 21
1.25
  0
LINE
  5
23B
100
AcDbEntity
  8
0
100
AcDbLine
 62
2
  6
CONTINUOUS
 10
6.8
 20
0.0
 11
6.8
 21
1.25
  0
LINE
  5
23C
100
AcDbEntity
  8
0
100
AcDbLine
 62
2
  6
CONTINUOUS
 10
6.4
 20
0.0
 11
6.4
 21
0.625
  0
LINE
  5
23D
100
AcDbEntity
  8
0
100
AcDbLine
 62
2
  6
CONTINUOUS
 10
5.9
 20
0.0
 11
5.9
 21
0.625
  0
LINE
  5
23E
100
AcDbEntity
  8
0
100
AcDbLine
 62
2
  6
CONTINUOUS
 10
5.2
 20
0.0
 11
5.2
 21
0.625
  0
LINE
  5
23F
100
AcDbEntity
  8
0
100
AcDbLine
 62
2
  6
CONTINUOUS
 10
4.1
 20
0.0
 11
4.1
 21
1.25
  0
LINE
  5
240
100
AcDbEntity
  8
0
100
AcDbLine
 62
2
  6
CONTINUOUS
 10
-0.0
 20
0.0
 11
-0.0
 21
1.25
  0
MTEXT
  5
241
100
AcDbEntity
  8
0
100
AcDbMText
 62
2
  6
CONTINUOUS
  7
STANDARD
 71
2
 72
1
 10
6.6
 20
0.325
 30
0.0
 11
1.0
 21
0.0
 31
0.0
 44
0.9
  1
2
 40
0.125
 41
0.2
  0
MTEXT
  5
242
100
AcDbEntity
  8
0
100
AcDbMText
 62
2
  6
CONTINUOUS
  7
STANDARD
 71
2
 72
1
 10
6.15
 20
0.325
 30
0.0
 11
1.0
 21
0.0
 31
0.0
 44
0.9
  1
C
 40
0.125
 41
0.2
  0
MTEXT
  5
243
100
AcDbEntity
  8
0
100
AcDbMText
 62
2
  6
CONTINUOUS
  7
STANDARD
 71
2
 72
1
 10
5.55
 20
0.325
 30
0.0
 11
1.0
 21
0.0
 31
0.0
 44
0.9
  1
1.000
 40
0.125
 41
1.0
  0
MTEXT
  5
244
100
AcDbEntity
  8
0
100
AcDbMText
 62
2
  6
CONTINUOUS
  7
STANDARD
 71
2
 72
1
 10
4.65
 20
0.325
 30
0.0
 11
1.0
 21
0.0
 31
0.0
 44
0.9
  1
Jan-18-21
 40
0.125
 41
1.8
  0
MTEXT
  5
245
100
AcDbEntity
  8
0
100
AcDbMText
 62
2
  6
CONTINUOUS
  7
STANDARD
 71
2
 72
1
 10
2.05
 20
0.4625
 30
0.0
 11
1.0
 21
0.0
 31
0.0
 44
0.9
  1
T-18A Line mount\PNinety degree with reverse flow check
 40
0.125
 41
7.4
  0
MTEXT
  5
246
100
AcDbEntity
  8
0
100
AcDbMText
 62
2
  6
CONTINUOUS
  7
STANDARD
 71
1
 72
1
 10
6.45
 20
0.5625
 30
0.0
 11
1.0
 21
0.0
 31
0.0
 44
0.9
  1
SHEET
 40
0.06
 41
0.48
  0
MTEXT
  5
247
100
AcDbEntity
  8
0
100
AcDbMText
 62
2
  6
CONTINUOUS
  7
STANDARD
 71
1
 72
1
 10
5.95
 20
0.5625
 30
0.0
 11
1.0
 21
0.0
 31
0.0
 44
0.9
  1
DWG SIZE
 40
0.06
 41
0.768
  0
MTEXT
  5
248
100
AcDbEntity
  8
0
100
AcDbMText
 62
2
  6
CONTINUOUS
  7
STANDARD
 71
1
 72
1
 10
5.25
 20
0.5625
 30
0.0
 11
1.0
 21
0.0
 31
0.0
 44
0.9
  1
SCALE
 40
0.06
 41
0.48
  0
MTEXT
  5
249
100
AcDbEntity
  8
0
100
AcDbMText
 62
2
  6
CONTINUOUS
  7
STANDARD
 71
1
 72
1
 10
4.15
 20
0.5625
 30
0.0
 11
1.0
 21
0.0
 31
0.0
 44
0.9
  1
DATE
 40
0.06
 41
0.384
  0
MTEXT
  5
24A
100
AcDbEntity
  8
0
100
AcDbMText
 62
2
  6
CONTINUOUS
  7
STANDARD
 71
1
 72
1
 10
0.05
 20
0.5625
 30
0.0
 11
1.0
 21
0.0
 31
0.0
 44
0.9
  1
DESCRIPTION
 40
0.06
 41
1.056
  0
MTEXT
  5
24B
100
AcDbEntity
  8
0
100
AcDbMText
 62
2
  6
CONTINUOUS
  7
STANDARD
 71
2
 72
1
 10
5.45
 20
1.0375
 30
0.0
 11
1.0
 21
0.0
 31
0.0
 44
0.9
  1
ALL DIMENSIONS IN INCH\PVIEWS ARE THIRD ANGLE
 40
0.12
 41
4.224
  0
MTEXT
  5
24C
100
AcDbEntity
  8
0
100
AcDbMText
 62
2
  6
CONTINUOUS
  7
STANDARD
 71
2
 72
1
 10
2.05
 20
0.95
 30
0.0
 11
1.0
 21
0.0
 31
0.0
 44
0.9
  1
LNL
 40
0.125
 41
0.6
  0
MTEXT
  5
24D
100
AcDbEntity
  8
0
100
AcDbMText
 62
2
  6
CONTINUOUS
  7
STANDARD
 71
1
 72
1
 10
0.05
 20
1.1875
 30
0.0
 11
1.0
 21
0.0
 31
0.0
 44
0.9
  1
MODEL
 40
0.06
 41
0.48
  0
ENDBLK
  5
24E
100
AcDbEntity
  8
0
  6
BYBLOCK
 62
0
100
AcDbBlockEnd
  0
BLOCK
  5
24F
100
AcDbEntity
  8
0
100
AcDbBlockBegin
  2
*T2
 70
1
 10
0.0
 20
0.0
  3
*T2
  1

  0
LINE
  5
250
100
AcDbEntity
  8
0
100
AcDbLine
 62
2
  6
CONTINUOUS
 10
0.0
 20
0.0
 11
9.055
 21
0.0
  0
LINE
  5
251
100
AcDbEntity
  8
0
100
AcDbLine
 62
2
  6
CONTINUOUS
 10
0.0
 20
0.0
 11
0.0
 21
-2.594
  0
LINE
  5
252
100
AcDbEntity
  8
0
100
AcDbLine
 62
2
  6
CONTINUOUS
 10
0.0
 20
-0.344
 11
9.055
 21
-0.344
  0
LINE
  5
253
100
AcDbEntity
  8
0
100
AcDbLine
 62
2
  6
CONTINUOUS
 10
0.0
 20
-0.594
 11
9.055
 21
-0.594
  0
LINE
  5
254
100
AcDbEntity
  8
0
100
AcDbLine
 62
2
  6
CONTINUOUS
 10
0.0
 20
-0.844
 11
9.055
 21
-0.844
  0
LINE
  5
255
100
AcDbEntity
  8
0
100
AcDbLine
 62
2
  6
CONTINUOUS
 10
0.0
 20
-1.094
 11
9.055
 21
-1.094
  0
LINE
  5
256
100
AcDbEntity
  8
0
100
AcDbLine
 62
2
  6
CONTINUOUS
 10
0.0
 20
-1.344
 11
9.055
 21
-1.344
  0
LINE
  5
257
100
AcDbEntity
  8
0
100
AcDbLine
 62
2
  6
CONTINUOUS
 10
0.0
 20
-1.594
 11
9.055
 21
-1.594
  0
LINE
  5
258
100
AcDbEntity
  8
0
100
AcDbLine
 62
2
  6
CONTINUOUS
 10
0.0
 20
-1.844
 11
9.055
 21
-1.844
  0
LINE
  5
259
100
AcDbEntity
  8
0
100
AcDbLine
 62
2
  6
CONTINUOUS
 10
0.0
 20
-2.094
 11
9.055
 21
-2.094
  0
LINE
  5
25A
100
AcDbEntity
  8
0
100
AcDbLine
 62
2
  6
CONTINUOUS
 10
0.0
 20
-2.344
 11
9.055
 21
-2.344
  0
LINE
  5
25B
100
AcDbEntity
  8
0
100
AcDbLine
 62
2
  6
CONTINUOUS
 10
0.0
 20
-2.594
 11
9.055
 21
-2.594
  0
LINE
  5
25C
100
AcDbEntity
  8
0
100
AcDbLine
 62
2
  6
CONTINUOUS
 10
3.055
 20
0.0
 11
3.055
 21
-2.594
  0
LINE
  5
25D
100
AcDbEntity
  8
0
100
AcDbLine
 62
2
  6
CONTINUOUS
 10
9.055
 20
0.0
 11
9.055
 21
-2.594
  0
MTEXT
  5
25E
100
AcDbEntity
  8
0
100
AcDbMText
 62
2
  6
CONTINUOUS
  7
STANDARD
 71
2
 72
1
 10
1.5275
 20
-0.0995
 30
0.0
 11
1.0
 21
0.0
 31
0.0
 44
0.9
  1
Technical Data
 40
0.145
 41
3.248
  0
MTEXT
  5
25F
100
AcDbEntity
  8
0
100
AcDbMText
 62
2
  6
CONTINUOUS
  7
STANDARD
 71
2
 72
1
 10
4.555
 20
-0.0995
 30
0.0
 11
1.0
 21
0.0
 31
0.0
 44
0.9
  1
U.S. Units
 40
0.145
 41
2.32
  0
MTEXT
  5
260
100
AcDbEntity
  8
0
100
AcDbMText
 62
2
  6
CONTINUOUS
  7
STANDARD
 71
2
 72
1
 10
7.555
 20
-0.0995
 30
0.0
 11
1.0
 21
0.0
 31
0.0
 44
0.9
  1
Metric Units
 40
0.145
 41
2.784
  0
MTEXT
  5
261
100
AcDbEntity
  8
0
100
AcDbMText
 62
2
  6
CONTINUOUS
  7
STANDARD
 71
2
 72
1
 10
1.5275
 20
-0.4065
 30
0.0
 11
1.0
 21
0.0
 31
0.0
 44
0.9
  1
Cavity
 40
0.125
 41
1.2
  0
MTEXT
  5
262
100
AcDbEntity
  8
0
100
AcDbMText
 62
2
  6
CONTINUOUS
  7
STANDARD
 71
2
 72
1
 10
6.055
 20
-0.4065
 30
0.0
 11
1.0
 21
0.0
 31
0.0
 44
0.9
  1
T-18A
 40
0.125
 41
1.0
  0
MTEXT
  5
263
100
AcDbEntity
  8
0
100
AcDbMText
 62
2
  6
CONTINUOUS
  7
STANDARD
 71
2
 72
1
 10
1.5275
 20
-0.6565
 30
0.0
 11
1.0
 21
0.0
 31
0.0
 44
0.9
  1
Body Features
 40
0.125
 41
2.6
  0
MTEXT
  5
264
100
AcDbEntity
  8
0
100
AcDbMText
 62
2
  6
CONTINUOUS
  7
STANDARD
 71
2
 72
1
 10
6.055
 20
-0.6565
 30
0.0
 11
1.0
 21
0.0
 31
0.0
 44
0.9
  1
Ninety degree with reverse flow check
 40
0.125
 41
7.4
  0
MTEXT
  5
265
100
AcDbEntity
  8
0
100
AcDbMText
 62
2
  6
CONTINUOUS
  7
STANDARD
 71
2
 72
1
 10
1.5275
 20
-0.9065
 30
0.0
 11
1.0
 21
0.0
 31
0.0
 44
0.9
  1
Body Type
 40
0.125
 41
1.8
  0
MTEXT
  5
266
100
AcDbEntity
  8
0
100
AcDbMText
 62
2
  6
CONTINUOUS
  7
STANDARD
 71
2
 72
1
 10
6.055
 20
-0.9065
 30
0.0
 11
1.0
 21
0.0
 31
0.0
 44
0.9
  1
Line mount
 40
0.125
 41
2.0
  0
MTEXT
  5
267
100
AcDbEntity
  8
0
100
AcDbMText
 62
2
  6
CONTINUOUS
  7
STANDARD
 71
2
 72
1
 10
1.5275
 20
-1.1565
 30
0.0
 11
1.0
 21
0.0
 31
0.0
 44
0.9
  1
Interface
 40
0.125
 41
1.8
  0
MTEXT
  5
268
100
AcDbEntity
  8
0
100
AcDbMText
 62
2
  6
CONTINUOUS
  7
STANDARD
 71
2
 72
1
 10
6.055
 20
-1.1565
 30
0.0
 11
1.0
 21
0.0
 31
0.0
 44
0.9
  1
None
 40
0.125
 41
0.8
  0
MTEXT
  5
269
100
AcDbEntity
  8
0
100
AcDbMText
 62
2
  6
CONTINUOUS
  7
STANDARD
 71
2
 72
1
 10
1.5275
 20
-1.4065
 30
0.0
 11
1.0
 21
0.0
 31
0.0
 44
0.9
  1
Open Cavity Quantity
 40
0.125
 41
4.0
  0
MTEXT
  5
26A
100
AcDbEntity
  8
0
100
AcDbMText
 62
2
  6
CONTINUOUS
  7
STANDARD
 71
2
 72
1
 10
6.055
 20
-1.4065
 30
0.0
 11
1.0
 21
0.0
 31
0.0
 44
0.9
  1
1
 40
0.125
 41
0.2
  0
MTEXT
  5
26B
100
AcDbEntity
  8
0
100
AcDbMText
 62
2
  6
CONTINUOUS
  7
STANDARD
 71
2
 72
1
 10
1.5275
 20
-1.6565
 30
0.0
 11
1.0
 21
0.0
 31
0.0
 44
0.9
  1
Weight
 40
0.125
 41
1.2
  0
MTEXT
  5
26C
100
AcDbEntity
  8
0
100
AcDbMText
 62
2
  6
CONTINUOUS
  7
STANDARD
 71
2
 72
1
 10
4.555
 20
-1.6565
 30
0.0
 11
1.0
 21
0.0
 31
0.0
 44
0.9
  1
10.248 lb.
 40
0.125
 41
2.0
  0
MTEXT
  5
26D
100
AcDbEntity
  8
0
100
AcDbMText
 62
2
  6
CONTINUOUS
  7
STANDARD
 71
2
 72
1
 10
7.555
 20
-1.6565
 30
0.0
 11
1.0
 21
0.0
 31
0.0
 44
0.9
  1
4,648 kg.
 40
0.125
 41
1.8
  0
MTEXT
  5
26E
100
AcDbEntity
  8
0
100
AcDbMText
 62
2
  6
CONTINUOUS
  7
STANDARD
 71
2
 72
1
 10
1.5275
 20
-1.9065
 30
0.0
 11
1.0
 21
0.0
 31
0.0
 44
0.9
  1
Mounting Hole Diameter
 40
0.125
 41
4.4
  0
MTEXT
  5
26F
100
AcDbEntity
  8
0
100
AcDbMText
 62
2
  6
CONTINUOUS
  7
STANDARD
 71
2
 72
1
 10
4.555
 20
-1.9065
 30
0.0
 11
1.0
 21
0.0
 31
0.0
 44
0.9
  1
.41 in.
 40
0.125
 41
1.4
  0
MTEXT
  5
270
100
AcDbEntity
  8
0
100
AcDbMText
 62
2
  6
CONTINUOUS
  7
STANDARD
 71
2
 72
1
 10
7.555
 20
-1.9065
 30
0.0
 11
1.0
 21
0.0
 31
0.0
 44
0.9
  1
10,4 mm
 40
0.125
 41
1.4
  0
MTEXT
  5
271
100
AcDbEntity
  8
0
100
AcDbMText
 62
2
  6
CONTINUOUS
  7
STANDARD
 71
2
 72
1
 10
1.5275
 20
-2.1565
 30
0.0
 11
1.0
 21
0.0
 31
0.0
 44
0.9
  1
Mounting Hole Depth
 40
0.125
 41
3.8
  0
MTEXT
  5
272
100
AcDbEntity
  8
0
100
AcDbMText
 62
2
  6
CONTINUOUS
  7
STANDARD
 71
2
 72
1
 10
6.055
 20
-2.1565
 30
0.0
 11
1.0
 21
0.0
 31
0.0
 44
0.9
  1
Through
 40
0.125
 41
1.4
  0
MTEXT
  5
273
100
AcDbEntity
  8
0
100
AcDbMText
 62
2
  6
CONTINUOUS
  7
STANDARD
 71
2
 72
1
 10
1.5275
 20
-2.4065
 30
0.0
 11
1.0
 21
0.0
 31
0.0
 44
0.9
  1
Mounting Hole Quantity
 40
0.125
 41
4.4
  0
MTEXT
  5
274
100
AcDbEntity
  8
0
100
AcDbMText
 62
2
  6
CONTINUOUS
  7
STANDARD
 71
2
 72
1
 10
6.055
 20
-2.4065
 30
0.0
 11
1.0
 21
0.0
 31
0.0
 44
0.9
  1
2
 40
0.125
 41
0.2
  0
ENDBLK
  5
275
100
AcDbEntity
  8
0
  6
BYBLOCK
 62
0
100
AcDbBlockEnd
  0
BLOCK
  5
276
100
AcDbEntity
  8
0
100
AcDbBlockBegin
  2
*T3
 70
1
 10
0.0
 20
0.0
  3
*T3
  1

  0
LINE
  5
277
100
AcDbEntity
  8
0
100
AcDbLine
 62
2
  6
CONTINUOUS
 10
0.0
 20
0.0
 11
4.6
 21
0.0
  0
LINE
  5
278
100
AcDbEntity
  8
0
100
AcDbLine
 62
2
  6
CONTINUOUS
 10
0.0
 20
0.0
 11
0.0
 21
-1.18775
  0
LINE
  5
279
100
AcDbEntity
  8
0
100
AcDbLine
 62
2
  6
CONTINUOUS
 10
0.0
 20
-0.34375
 11
4.6
 21
-0.34375
  0
LINE
  5
27A
100
AcDbEntity
  8
0
100
AcDbLine
 62
2
  6
CONTINUOUS
 10
0.0
 20
-0.68775
 11
4.6
 21
-0.68775
  0
LINE
  5
27B
100
AcDbEntity
  8
0
100
AcDbLine
 62
2
  6
CONTINUOUS
 10
0.0
 20
-0.93775
 11
4.6
 21
-0.93775
  0
LINE
  5
27C
100
AcDbEntity
  8
0
100
AcDbLine
 62
2
  6
CONTINUOUS
 10
0.0
 20
-1.18775
 11
4.6
 21
-1.18775
  0
LINE
  5
27D
100
AcDbEntity
  8
0
100
AcDbLine
 62
2
  6
CONTINUOUS
 10
1.3
 20
-0.34375
 11
1.3
 21
-1.18775
  0
LINE
  5
27E
100
AcDbEntity
  8
0
100
AcDbLine
 62
2
  6
CONTINUOUS
 10
3.3
 20
-0.34375
 11
3.3
 21
-1.18775
  0
LINE
  5
27F
100
AcDbEntity
  8
0
100
AcDbLine
 62
2
  6
CONTINUOUS
 10
4.6
 20
0.0
 11
4.6
 21
-1.18775
  0
MTEXT
  5
280
100
AcDbEntity
  8
0
100
AcDbMText
 62
2
  6
CONTINUOUS
  7
STANDARD
 71
2
 72
1
 10
2.3
 20
-0.099375
 30
0.0
 11
1.0
 21
0.0
 31
0.0
 44
0.9
  1
Port Headings
 40
0.145
 41
3.016
  0
MTEXT
  5
281
100
AcDbEntity
  8
0
100
AcDbMText
 62
2
  6
CONTINUOUS
  7
STANDARD
 71
2
 72
1
 10
0.65
 20
-0.44325
 30
0.0
 11
1.0
 21
0.0
 31
0.0
 44
0.9
  1
Product
 40
0.145
 41
1.624
  0
MTEXT
  5
282
100
AcDbEntity
  8
0
100
AcDbMText
 62
2
  6
CONTINUOUS
  7
STANDARD
 71
2
 72
1
 10
2.3
 20
-0.44325
 30
0.0
 11
1.0
 21
0.0
 31
0.0
 44
0.9
  1
Port
 40
0.145
 41
0.928
  0
MTEXT
  5
283
100
AcDbEntity
  8
0
100
AcDbMText
 62
2
  6
CONTINUOUS
  7
STANDARD
 71
2
 72
1
 10
3.95
 20
-0.44325
 30
0.0
 11
1.0
 21
0.0
 31
0.0
 44
0.9
  1
Size
 40
0.145
 41
0.928
  0
MTEXT
  5
284
100
AcDbEntity
  8
0
100
AcDbMText
 62
2
  6
CONTINUOUS
  7
STANDARD
 71
2
 72
1
 10
0.65
 20
-0.75025
 30
0.0
 11
1.0
 21
0.0
 31
0.0
 44
0.9
  1
LNL
 40
0.125
 41
0.6
  0
MTEXT
  5
285
100
AcDbEntity
  8
0
100
AcDbMText
 62
2
  6
CONTINUOUS
  7
STANDARD
 71
2
 72
1
 10
2.3
 20
-0.75025
 30
0.0
 11
1.0
 21
0.0
 31
0.0
 44
0.9
  1
Ports 1 &  2
 40
0.125
 41
2.4
  0
MTEXT
  5
286
100
AcDbEntity
  8
0
100
AcDbMText
 62
2
  6
CONTINUOUS
  7
STANDARD
 71
2
 72
1
 10
3.95
 20
-0.75025
 30
0.0
 11
1.0
 21
0.0
 31
0.0
 44
0.9
  1
SAE 12
 40
0.125
 41
1.2
  0
MTEXT
  5
287
100
AcDbEntity
  8
0
100
AcDbMText
 62
2
  6
CONTINUOUS
  7
STANDARD
 71
2
 72
1
 10
0.65
 20
-1.00025
 30
0.0
 11
1.0
 21
0.0
 31
0.0
 44
0.9
  1
LNL
 40
0.125
 41
0.6
  0
MTEXT
  5
288
100
AcDbEntity
  8
0
100
AcDbMText
 62
2
  6
CONTINUOUS
  7
STANDARD
 71
2
 72
1
 10
2.3
 20
-1.00025
 30
0.0
 11
1.0
 21
0.0
 31
0.0
 44
0.9
  1
Gage Port
 40
0.125
 41
1.8
  0
MTEXT
  5
289
100
AcDbEntity
  8
0
100
AcDbMText
 62
2
  6
CONTINUOUS
  7
STANDARD
 71
2
 72
1
 10
3.95
 20
-1.00025
 30
0.0
 11
1.0
 21
0.0
 31
0.0
 44
0.9
  1
1/4" NPTF
 40
0.125
 41
1.8
  0
ENDBLK
  5
28A
100
AcDbEntity
  8
0
  6
BYBLOCK
 62
0
100
AcDbBlockEnd
  0
ENDSEC
  0
SECTION
  2
ENTITIES
  0
IMAGE
  5
28B
100
AcDbEntity
  8
0
100
AcDbRasterImage
 62
7
  6
CONTINUOUS
 10
19.2297077316
 20
0.3094318264
 30
0.0
 11
0.0066666667
 21
0.0
 31
0.0
 12
0.0
 22
0.0066666667
 32
0.0
 13
369.0
 23
92.0
340
       37A
 70
9
280
0
281
50
282
50
283
0
360
       374
 71
1
 91
2
 14
-0.5
 24
-0.5
 14
368.5
 24
91.5
  0
INSERT
  5
28C
100
AcDbEntity
  8
0
100
AcDbBlockReference
 62
2
  6
CONTINUOUS
  2
SUN_FIRST_THIRD_ANGLE_BL0
 10
20.4816717061
 20
1.2289683772
  0
ACAD_TABLE
  5
28D
100
AcDbEntity
  8
0
 62
2
  6
CONTINUOUS
100
AcDbBlockReference
  2
*T1
 10
12.42375
 20
0.30125
 30
0.0
100
AcDbTable
342
       37C
343
20F
 11
1.0
 21
0.0
 31
0.0
 90
6
 91
4
 92
6
 93
20
 94
0
 95
0
 96
0
 70
1
 41
0.0
141
0.525
141
0.1
141
0.525
141
0.1
142
4.1
142
1.1
142
0.7
142
0.5
142
0.4
142
2.475
171
1
172
0
173
0
174
0
175
1
176
1
 91
33
178
0
145
0.0
301
CELL_VALUE
 90
4
  1
T-18A Line mount\PNinety degree with reverse flow check
304
ACVALUE_END
170
2
140
0.125
171
1
172
0
173
0
174
0
175
1
176
1
 91
33
178
0
145
0.0
301
CELL_VALUE
 90
4
  1
Jan-18-21
304
ACVALUE_END
170
5
140
0.125
171
1
172
0
173
0
174
0
175
1
176
1
 91
33
178
0
145
0.0
301
CELL_VALUE
 90
4
  1
1.000
304
ACVALUE_END
170
5
140
0.125
171
1
172
0
173
0
174
0
175
1
176
1
 91
33
178
0
145
0.0
301
CELL_VALUE
 90
4
  1
C
304
ACVALUE_END
170
5
140
0.125
171
1
172
0
173
0
174
0
175
1
176
1
 91
33
178
0
145
0.0
301
CELL_VALUE
 90
4
  1
2
304
ACVALUE_END
170
5
140
0.125
171
1
172
0
173
0
174
0
175
1
176
1
 91
33
178
0
145
0.0
301
CELL_VALUE
 90
4
  1
 
304
ACVALUE_END
170
1
140
0.125
171
1
172
0
173
0
174
0
175
1
176
1
 91
33
178
0
145
0.0
301
CELL_VALUE
 90
4
  1
DESCRIPTION
304
ACVALUE_END
170
1
140
0.06
171
1
172
0
173
0
174
0
175
1
176
1
 91
33
178
0
145
0.0
301
CELL_VALUE
 90
4
  1
DATE
304
ACVALUE_END
170
1
140
0.06
171
1
172
0
173
0
174
0
175
1
176
1
 91
33
178
0
145
0.0
301
CELL_VALUE
 90
4
  1
SCALE
304
ACVALUE_END
170
1
140
0.06
171
1
172
0
173
0
174
0
175
1
176
1
 91
33
178
0
145
0.0
301
CELL_VALUE
 90
4
  1
DWG SIZE
304
ACVALUE_END
170
1
140
0.06
171
1
172
0
173
0
174
0
175
1
176
1
 91
33
178
0
145
0.0
301
CELL_VALUE
 90
4
  1
SHEET
304
ACVALUE_END
170
1
140
0.06
171
1
172
0
173
0
174
0
175
1
176
1
 91
33
178
0
145
0.0
301
CELL_VALUE
 90
4
  1
 
304
ACVALUE_END
170
1
140
0.125
171
1
172
0
173
0
174
0
175
1
176
1
 91
33
178
0
145
0.0
301
CELL_VALUE
 90
4
  1
LNL
304
ACVALUE_END
170
5
140
0.125
171
1
172
0
173
0
174
0
175
4
176
1
 91
33
178
0
145
0.0
301
CELL_VALUE
 90
4
  1
ALL DIMENSIONS IN INCH\PVIEWS ARE THIRD ANGLE
304
ACVALUE_END
170
5
140
0.12
171
1
172
0
173
1
174
0
175
1
176
1
 91
1
178
0
145
0.0
170
1
171
1
172
0
173
1
174
0
175
1
176
1
 91
1
178
0
145
0.0
170
1
171
1
172
0
173
1
174
0
175
1
176
1
 91
1
178
0
145
0.0
170
5
171
1
172
0
173
0
174
0
175
1
176
1
 91
33
178
0
145
0.0
301
CELL_VALUE
 90
4
  1
 
304
ACVALUE_END
170
1
140
0.125
171
1
172
0
173
0
174
0
175
1
176
1
 91
33
178
0
145
0.0
301
CELL_VALUE
 90
4
  1
MODEL
304
ACVALUE_END
170
1
140
0.06
171
1
172
0
173
0
174
0
175
1
176
1
 91
33
178
0
145
0.0
301
CELL_VALUE
 90
4
  1
 
304
ACVALUE_END
170
1
140
0.125
171
1
172
0
173
0
174
0
175
1
176
1
 91
33
178
0
145
0.0
301
CELL_VALUE
 90
4
  1
 
304
ACVALUE_END
170
1
140
0.125
171
1
172
0
173
0
174
0
175
1
176
1
 91
33
178
0
145
0.0
301
CELL_VALUE
 90
4
  1
 
304
ACVALUE_END
170
1
140
0.125
171
1
172
0
173
0
174
0
175
1
176
1
 91
33
178
0
145
0.0
301
CELL_VALUE
 90
4
  1
 
304
ACVALUE_END
170
1
140
0.125
171
1
172
0
173
0
174
0
175
1
176
1
 91
33
178
0
145
0.0
301
CELL_VALUE
 90
4
  1
 
304
ACVALUE_END
170
1
140
0.125
  0
ACAD_TABLE
  5
28E
100
AcDbEntity
  8
0
 62
2
  6
CONTINUOUS
100
AcDbBlockReference
  2
*T2
 10
12.4237499994
 20
16.47875
 30
0.0
100
AcDbTable
342
       37B
343
210
 11
1.0
 21
0.0
 31
0.0
 90
22
 91
10
 92
3
 93
16
 94
0
 95
0
 96
0
 41
0.028
141
0.344
141
0.25
141
0.25
141
0.25
141
0.25
141
0.25
141
0.25
141
0.25
141
0.25
141
0.25
142
3.055
142
3.0
142
3.0
171
1
172
0
173
0
174
0
175
1
176
1
 91
33
178
0
145
0.0
301
CELL_VALUE
 90
4
  1
Technical Data
304
ACVALUE_END
170
5
140
0.145
171
1
172
0
173
0
174
0
175
1
176
1
 91
33
178
0
145
0.0
301
CELL_VALUE
 90
4
  1
U.S. Units
304
ACVALUE_END
170
5
140
0.145
171
1
172
0
173
0
174
0
175
1
176
1
 91
33
178
0
145
0.0
301
CELL_VALUE
 90
4
  1
Metric Units
304
ACVALUE_END
170
5
140
0.145
171
1
172
0
173
0
174
0
175
1
176
1
 91
33
178
0
145
0.0
301
CELL_VALUE
 90
4
  1
Cavity
304
ACVALUE_END
170
5
140
0.125
171
1
172
0
173
0
174
0
175
2
176
1
 91
33
178
0
145
0.0
301
CELL_VALUE
 90
4
  1
T-18A
304
ACVALUE_END
170
5
140
0.125
171
1
172
0
173
1
174
0
175
1
176
1
 91
1
178
0
145
0.0
170
1
171
1
172
0
173
0
174
0
175
1
176
1
 91
33
178
0
145
0.0
301
CELL_VALUE
 90
4
  1
Body Features
304
ACVALUE_END
170
5
140
0.125
171
1
172
0
173
0
174
0
175
2
176
1
 91
33
178
0
145
0.0
301
CELL_VALUE
 90
4
  1
Ninety degree with reverse flow check
304
ACVALUE_END
170
5
140
0.125
171
1
172
0
173
1
174
0
175
1
176
1
 91
1
178
0
145
0.0
170
1
171
1
172
0
173
0
174
0
175
1
176
1
 91
33
178
0
145
0.0
301
CELL_VALUE
 90
4
  1
Body Type
304
ACVALUE_END
170
5
140
0.125
171
1
172
0
173
0
174
0
175
2
176
1
 91
33
178
0
145
0.0
301
CELL_VALUE
 90
4
  1
Line mount
304
ACVALUE_END
170
5
140
0.125
171
1
172
0
173
1
174
0
175
1
176
1
 91
1
178
0
145
0.0
170
1
171
1
172
0
173
0
174
0
175
1
176
1
 91
33
178
0
145
0.0
301
CELL_VALUE
 90
4
  1
Interface
304
ACVALUE_END
170
5
140
0.125
171
1
172
0
173
0
174
0
175
2
176
1
 91
33
178
0
145
0.0
301
CELL_VALUE
 90
4
  1
None
304
ACVALUE_END
170
5
140
0.125
171
1
172
0
173
1
174
0
175
1
176
1
 91
1
178
0
145
0.0
170
1
171
1
172
0
173
0
174
0
175
1
176
1
 91
33
178
0
145
0.0
301
CELL_VALUE
 90
4
  1
Open Cavity Quantity
304
ACVALUE_END
170
5
140
0.125
171
1
172
0
173
0
174
0
175
2
176
1
 91
33
178
0
145
0.0
301
CELL_VALUE
 90
4
  1
1
304
ACVALUE_END
170
5
140
0.125
171
1
172
0
173
1
174
0
175
1
176
1
 91
1
178
0
145
0.0
170
1
171
1
172
0
173
0
174
0
175
1
176
1
 91
33
178
0
145
0.0
301
CELL_VALUE
 90
4
  1
Weight
304
ACVALUE_END
170
5
140
0.125
171
1
172
0
173
0
174
0
175
1
176
1
 91
33
178
0
145
0.0
301
CELL_VALUE
 90
4
  1
10.248 lb.
304
ACVALUE_END
170
5
140
0.125
171
1
172
0
173
0
174
0
175
1
176
1
 91
33
178
0
145
0.0
301
CELL_VALUE
 90
4
  1
4,648 kg.
304
ACVALUE_END
170
5
140
0.125
171
1
172
0
173
0
174
0
175
1
176
1
 91
33
178
0
145
0.0
301
CELL_VALUE
 90
4
  1
Mounting Hole Diameter
304
ACVALUE_END
170
5
140
0.125
171
1
172
0
173
0
174
0
175
1
176
1
 91
33
178
0
145
0.0
301
CELL_VALUE
 90
4
  1
.41 in.
304
ACVALUE_END
170
5
140
0.125
171
1
172
0
173
0
174
0
175
1
176
1
 91
33
178
0
145
0.0
301
CELL_VALUE
 90
4
  1
10,4 mm
304
ACVALUE_END
170
5
140
0.125
171
1
172
0
173
0
174
0
175
1
176
1
 91
33
178
0
145
0.0
301
CELL_VALUE
 90
4
  1
Mounting Hole Depth
304
ACVALUE_END
170
5
140
0.125
171
1
172
0
173
0
174
0
175
2
176
1
 91
33
178
0
145
0.0
301
CELL_VALUE
 90
4
  1
Through
304
ACVALUE_END
170
5
140
0.125
171
1
172
0
173
1
174
0
175
1
176
1
 91
1
178
0
145
0.0
170
1
171
1
172
0
173
0
174
0
175
1
176
1
 91
33
178
0
145
0.0
301
CELL_VALUE
 90
4
  1
Mounting Hole Quantity
304
ACVALUE_END
170
5
140
0.125
171
1
172
0
173
0
174
0
175
2
176
1
 91
33
178
0
145
0.0
301
CELL_VALUE
 90
4
  1
2
304
ACVALUE_END
170
5
140
0.125
171
1
172
0
173
1
174
0
175
1
176
1
 91
1
178
0
145
0.0
170
1
  0
ACAD_TABLE
  5
28F
100
AcDbEntity
  8
0
 62
2
  6
CONTINUOUS
100
AcDbBlockReference
  2
*T3
 10
0.52125
 20
1.709
 30
0.0
100
AcDbTable
342
       37B
343
211
 11
1.0
 21
0.0
 31
0.0
 90
22
 91
4
 92
3
 93
16
 94
0
 95
0
 96
0
 41
0.05
141
0.34375
141
0.344
141
0.25
141
0.25
142
1.3
142
2.0
142
1.3
171
1
172
0
173
0
174
0
175
3
176
1
 91
33
178
0
145
0.0
301
CELL_VALUE
 90
4
  1
Port Headings
304
ACVALUE_END
170
5
140
0.145
171
1
172
0
173
1
174
0
175
1
176
1
 91
1
178
0
145
0.0
170
1
171
1
172
0
173
1
174
0
175
1
176
1
 91
1
178
0
145
0.0
170
1
171
1
172
0
173
0
174
0
175
1
176
1
 91
33
178
0
145
0.0
301
CELL_VALUE
 90
4
  1
Product
304
ACVALUE_END
170
5
140
0.145
171
1
172
0
173
0
174
0
175
1
176
1
 91
33
178
0
145
0.0
301
CELL_VALUE
 90
4
  1
Port
304
ACVALUE_END
170
5
140
0.145
171
1
172
0
173
0
174
0
175
1
176
1
 91
33
178
0
145
0.0
301
CELL_VALUE
 90
4
  1
Size
304
ACVALUE_END
170
5
140
0.145
171
1
172
0
173
0
174
0
175
1
176
1
 91
33
178
0
145
0.0
301
CELL_VALUE
 90
4
  1
LNL
304
ACVALUE_END
170
5
140
0.125
171
1
172
0
173
0
174
0
175
1
176
1
 91
33
178
0
145
0.0
301
CELL_VALUE
 90
4
  1
Ports 1 &  2
304
ACVALUE_END
170
5
140
0.125
171
1
172
0
173
0
174
0
175
1
176
1
 91
33
178
0
145
0.0
301
CELL_VALUE
 90
4
  1
SAE 12
304
ACVALUE_END
170
5
140
0.125
171
1
172
0
173
0
174
0
175
1
176
1
 91
33
178
0
145
0.0
301
CELL_VALUE
 90
4
  1
LNL
304
ACVALUE_END
170
5
140
0.125
171
1
172
0
173
0
174
0
175
1
176
1
 91
33
178
0
145
0.0
301
CELL_VALUE
 90
4
  1
Gage Port
304
ACVALUE_END
170
5
140
0.125
171
1
172
0
173
0
174
0
175
1
176
1
 91
33
178
0
145
0.0
301
CELL_VALUE
 90
4
  1
1/4" NPTF
304
ACVALUE_END
170
5
140
0.125
  0
MTEXT
  5
290
100
AcDbEntity
  8
0
100
AcDbMText
 62
2
  6
CONTINUOUS
  7
STANDARD
 71
1
 72
1
 10
0.52125
 20
5.75995
 30
0.0
 11
1.0
 21
0.0
 31
0.0
 44
0.6
  3
Notes\P \P1. Important: Carefully consider\P   the maximum system pressure. The\P   pressure rating of the manifold is\P   dependent on the manifold material,\P   with the port type/size a secondary\P   consideration. Manifolds\P   constructed of alu
  1
minum are not\P   rated for pressures higher than\P   3000 psi (210 bar), regardless of\P   the port type/size specified.
 40
0.1
 41
3.04
  0
LINE
  5
291
100
AcDbEntity
  8
0
100
AcDbLine
 62
7
  6
CONTINUOUS
 10
0.30125
 20
0.30125
 11
0.30125
 21
16.69875
  0
LINE
  5
292
100
AcDbEntity
  8
0
100
AcDbLine
 62
7
  6
CONTINUOUS
 10
0.30125
 20
0.30125
 11
21.69875
 21
0.30125
  0
LINE
  5
293
100
AcDbEntity
  8
0
100
AcDbLine
 62
7
  6
CONTINUOUS
 10
0.30125
 20
16.69875
 11
21.69875
 21
16.69875
  0
LINE
  5
294
100
AcDbEntity
  8
0
100
AcDbLine
 62
7
  6
CONTINUOUS
 10
21.69875
 20
0.30125
 11
21.69875
 21
16.69875
  0
LINE
  5
295
100
AcDbEntity
  8
0
100
AcDbLine
 62
7
  6
CONTINUOUS
 10
8.4904505967
 20
12.3795056588
 11
7.7139941022
 21
11.6295062333
  0
LINE
  5
296
100
AcDbEntity
  8
0
100
AcDbLine
 62
7
  6
CONTINUOUS
 10
7.7139941022
 20
5.8339509322
 11
7.7139941022
 21
11.6295062333
  0
LINE
  5
297
100
AcDbEntity
  8
0
100
AcDbLine
 62
4
  6
CONTINUOUS
 10
7.8926903893
 20
7.7534100624
 11
7.8926903893
 21
7.637498959
  0
LINE
  5
298
100
AcDbEntity
  8
0
100
AcDbLine
 62
7
  6
CONTINUOUS
 10
11.5900417296
 20
4.7437796919
 11
11.6133218699
 21
4.7322797483
  0
LINE
  5
299
100
AcDbEntity
  8
0
100
AcDbLine
 62
7
  6
CONTINUOUS
 10
7.7139941022
 20
5.8339509322
 11
13.5095494033
 21
5.4320278069
  0
LINE
  5
29A
100
AcDbEntity
  8
0
100
AcDbLine
 62
4
  6
CONTINUOUS
 10
9.103547504
 20
10.1256483759
 11
9.1201062338
 21
10.1410587522
  0
LINE
  5
29B
100
AcDbEntity
  8
0
100
AcDbLine
 62
4
  6
CONTINUOUS
 10
9.1449443277
 20
10.0234251211
 11
9.1615030557
 21
10.0388354992
  0
LINE
  5
29C
100
AcDbEntity
  8
0
100
AcDbLine
 62
4
  6
CONTINUOUS
 10
9.2360173424
 20
10.0171091861
 11
9.2525760636
 21
10.0325195647
  0
LINE
  5
29D
100
AcDbEntity
  8
0
100
AcDbLine
 62
4
  6
CONTINUOUS
 10
9.103547504
 20
10.1090896478
 11
9.103547504
 21
10.1256483759
  0
LINE
  5
29E
100
AcDbEntity
  8
0
100
AcDbLine
 62
4
  6
CONTINUOUS
 10
9.1615030557
 20
10.0388354992
 11
9.1615030557
 21
10.055394229
  0
LINE
  5
29F
100
AcDbEntity
  8
0
100
AcDbLine
 62
4
  6
CONTINUOUS
 10
9.1946205119
 20
10.1358911694
 11
9.1946205119
 21
10.0365387958
  0
LINE
  5
2A0
100
AcDbEntity
  8
0
100
AcDbLine
 62
4
  6
CONTINUOUS
 10
9.2304977724
 20
9.426345342
 11
9.2304977724
 21
9.5422564455
  0
LINE
  5
2A1
100
AcDbEntity
  8
0
100
AcDbLine
 62
4
  6
CONTINUOUS
 10
9.2525760636
 20
10.0325195647
 11
9.2525760636
 21
10.1318719383
  0
LINE
  5
2A2
100
AcDbEntity
  8
0
100
AcDbLine
 62
4
  6
CONTINUOUS
 10
9.2856935197
 20
10.0136641315
 11
9.2856935197
 21
10.1295752349
  0
LINE
  5
2A3
100
AcDbEntity
  8
0
100
AcDbLine
 62
4
  6
CONTINUOUS
 10
9.2884533172
 20
9.5216784867
 11
9.2884533172
 21
9.4388848412
  0
LINE
  5
2A4
100
AcDbEntity
  8
0
100
AcDbLine
 62
4
  6
CONTINUOUS
 10
9.3436490715
 20
10.0096449003
 11
9.3436490715
 21
10.1255560037
  0
LINE
  5
2A5
100
AcDbEntity
  8
0
100
AcDbLine
 62
4
  6
CONTINUOUS
 10
9.3353697168
 20
9.419072448
 11
9.368487173
 21
9.532686848
  0
LINE
  5
2A6
100
AcDbEntity
  8
0
100
AcDbLine
 62
4
  6
CONTINUOUS
 10
9.5671919177
 20
9.9665442694
 11
9.6003093601
 21
10.0746390961
  0
LINE
  5
2A7
100
AcDbEntity
  8
0
100
AcDbLine
 62
4
  6
CONTINUOUS
 10
9.2884533172
 20
9.4388848412
 11
9.2718945891
 21
9.4234744631
  0
LINE
  5
2A8
100
AcDbEntity
  8
0
100
AcDbLine
 62
4
  6
CONTINUOUS
 10
10.0639537738
 20
10.0342058793
 11
10.0722331068
 21
10.0419110731
  0
LINE
  5
2A9
100
AcDbEntity
  8
0
100
AcDbLine
 62
4
  6
CONTINUOUS
 10
10.138468102
 20
10.0290382931
 11
10.1467474349
 21
10.0367434869
  0
LINE
  5
2AA
100
AcDbEntity
  8
0
100
AcDbLine
 62
4
  6
CONTINUOUS
 10
9.6223876918
 20
10.0648285911
 11
9.638946413
 21
10.0719596074
  0
LINE
  5
2AB
100
AcDbEntity
  8
0
100
AcDbLine
 62
4
  6
CONTINUOUS
 10
9.7796956258
 20
10.0125224287
 11
9.796254347
 21
10.0196534415
  0
LINE
  5
2AC
100
AcDbEntity
  8
0
100
AcDbLine
 62
4
  6
CONTINUOUS
 10
9.4678395553
 20
9.4098856335
 11
9.4678395553
 21
9.5257967369
  0
LINE
  5
2AD
100
AcDbEntity
  8
0
100
AcDbLine
 62
4
  6
CONTINUOUS
 10
9.4678395355
 20
10.0010322624
 11
9.4678395355
 21
10.1169433658
  0
LINE
  5
2AE
100
AcDbEntity
  8
0
100
AcDbLine
 62
4
  6
CONTINUOUS
 10
9.5175157266
 20
10.0721014866
 11
9.5175157266
 21
9.9975872068
  0
LINE
  5
2AF
100
AcDbEntity
  8
0
100
AcDbLine
 62
4
  6
CONTINUOUS
 10
9.5340744676
 20
9.4052922267
 11
9.5340744676
 21
9.5212033302
  0
LINE
  5
2B0
100
AcDbEntity
  8
0
100
AcDbLine
 62
4
  6
CONTINUOUS
 10
9.5423537445
 20
9.7756335879
 11
9.5423537445
 21
9.6597224845
  0
LINE
  5
2B1
100
AcDbEntity
  8
0
100
AcDbLine
 62
4
  6
CONTINUOUS
 10
9.6168680243
 20
9.6545549016
 11
9.6168680243
 21
9.7704660051
  0
LINE
  5
2B2
100
AcDbEntity
  8
0
100
AcDbLine
 62
4
  6
CONTINUOUS
 10
9.6223876918
 20
9.9985936762
 11
9.6223876918
 21
10.0648285911
  0
LINE
  5
2B3
100
AcDbEntity
  8
0
100
AcDbLine
 62
4
  6
CONTINUOUS
 10
9.6720638553
 20
10.1027803611
 11
9.6720638553
 21
9.9868692577
  0
LINE
  5
2B4
100
AcDbEntity
  8
0
100
AcDbLine
 62
4
  6
CONTINUOUS
 10
9.6748235829
 20
9.65053567
 11
9.6748235829
 21
9.7664467734
  0
LINE
  5
2B5
100
AcDbEntity
  8
0
100
AcDbLine
 62
4
  6
CONTINUOUS
 10
10.0225569433
 20
10.0784735829
 11
10.0197971656
 21
10.0703856067
  0
LINE
  5
2B6
100
AcDbEntity
  8
0
100
AcDbLine
 62
4
  6
CONTINUOUS
 10
10.1798648772
 20
9.9516531372
 11
10.1881442102
 21
9.9593583284
  0
LINE
  5
2B7
100
AcDbEntity
  8
0
100
AcDbLine
 62
4
  6
CONTINUOUS
 10
9.7079411503
 20
9.4925869067
 11
9.7244998715
 21
9.5079972835
  0
LINE
  5
2B8
100
AcDbEntity
  8
0
100
AcDbLine
 62
4
  6
CONTINUOUS
 10
9.8045336997
 20
9.4858881906
 11
9.8210924209
 21
9.5012985675
  0
LINE
  5
2B9
100
AcDbEntity
  8
0
100
AcDbLine
 62
4
  6
CONTINUOUS
 10
9.8624892514
 20
9.3990753139
 11
9.8459305302
 21
9.3836649353
  0
LINE
  5
2BA
100
AcDbEntity
  8
0
100
AcDbLine
 62
4
  6
CONTINUOUS
 10
9.9535622454
 20
9.3927593803
 11
9.9370035243
 21
9.3773490017
  0
LINE
  5
2BB
100
AcDbEntity
  8
0
100
AcDbLine
 62
4
  6
CONTINUOUS
 10
9.2084194648
 20
9.4996309731
 11
9.1642628532
 21
9.480614937
  0
LINE
  5
2BC
100
AcDbEntity
  8
0
100
AcDbLine
 62
4
  6
CONTINUOUS
 10
9.738091875
 20
7.9422548073
 11
9.7236029871
 21
7.962578132
  0
LINE
  5
2BD
100
AcDbEntity
  8
0
100
AcDbLine
 62
4
  6
CONTINUOUS
 10
9.7236029871
 20
7.962578132
 11
9.7163585431
 21
7.9920583118
  0
LINE
  5
2BE
100
AcDbEntity
  8
0
100
AcDbLine
 62
4
  6
CONTINUOUS
 10
9.7051813529
 20
9.9845725514
 11
9.7051813529
 21
10.0673661987
  0
LINE
  5
2BF
100
AcDbEntity
  8
0
100
AcDbLine
 62
4
  6
CONTINUOUS
 10
9.707941039
 20
9.76415007
 11
9.707941039
 21
9.6482389666
  0
LINE
  5
2C0
100
AcDbEntity
  8
0
100
AcDbLine
 62
4
  6
CONTINUOUS
 10
9.7079411503
 20
9.4097932611
 11
9.7079411503
 21
9.4925869067
  0
LINE
  5
2C1
100
AcDbEntity
  8
0
100
AcDbLine
 62
4
  6
CONTINUOUS
 10
9.7438183505
 20
10.0564073463
 11
9.7438183505
 21
10.0398486183
  0
LINE
  5
2C2
100
AcDbEntity
  8
0
100
AcDbLine
 62
4
  6
CONTINUOUS
 10
9.7796956258
 20
9.987684334
 11
9.7796956258
 21
10.0125224287
  0
LINE
  5
2C3
100
AcDbEntity
  8
0
100
AcDbLine
 62
4
  6
CONTINUOUS
 10
9.7888029828
 20
7.9870342728
 11
9.7888029828
 21
7.9483972389
  0
LINE
  5
2C4
100
AcDbEntity
  8
0
100
AcDbLine
 62
4
  6
CONTINUOUS
 10
9.8045336997
 20
9.4030945451
 11
9.8045336997
 21
9.4858881906
  0
LINE
  5
2C5
100
AcDbEntity
  8
0
100
AcDbLine
 62
4
  6
CONTINUOUS
 10
9.8293717893
 20
9.9759599154
 11
9.8293717893
 21
10.0421948346
  0
LINE
  5
2C6
100
AcDbEntity
  8
0
100
AcDbLine
 62
4
  6
CONTINUOUS
 10
9.8624892316
 20
10.0564568603
 11
9.8624892316
 21
9.9819425779
  0
LINE
  5
2C7
100
AcDbEntity
  8
0
100
AcDbLine
 62
4
  6
CONTINUOUS
 10
9.8624892514
 20
9.4818689595
 11
9.8624892514
 21
9.3990753139
  0
LINE
  5
2C8
100
AcDbEntity
  8
0
100
AcDbLine
 62
4
  6
CONTINUOUS
 10
9.8956066937
 20
9.3802198817
 11
9.8956066937
 21
9.4961309851
  0
LINE
  5
2C9
100
AcDbEntity
  8
0
100
AcDbLine
 62
4
  6
CONTINUOUS
 10
9.9121654504
 20
9.9702181555
 11
9.9121654504
 21
10.0530118028
  0
LINE
  5
2CA
100
AcDbEntity
  8
0
100
AcDbLine
 62
4
  6
CONTINUOUS
 10
9.9452828927
 20
9.976200818
 11
9.9452828927
 21
10.0838325565
  0
LINE
  5
2CB
100
AcDbEntity
  8
0
100
AcDbLine
 62
4
  6
CONTINUOUS
 10
9.9535622454
 20
9.4755530259
 11
9.9535622454
 21
9.3927593803
  0
LINE
  5
2CC
100
AcDbEntity
  8
0
100
AcDbLine
 62
4
  6
CONTINUOUS
 10
10.0004786866
 20
9.3729469843
 11
10.0004786866
 21
9.4888580877
  0
LINE
  5
2CD
100
AcDbEntity
  8
0
100
AcDbLine
 62
4
  6
CONTINUOUS
 10
10.0197971656
 20
9.9627538707
 11
10.0197971656
 21
10.045547518
  0
LINE
  5
2CE
100
AcDbEntity
  8
0
100
AcDbLine
 62
4
  6
CONTINUOUS
 10
10.0197971656
 20
10.0703856067
 11
10.0197971656
 21
10.0786649741
  0
LINE
  5
2CF
100
AcDbEntity
  8
0
100
AcDbLine
 62
4
  6
CONTINUOUS
 10
9.7163585431
 20
7.9920583118
 11
9.7236029871
 21
8.0205336837
  0
LINE
  5
2D0
100
AcDbEntity
  8
0
100
AcDbLine
 62
4
  6
CONTINUOUS
 10
10.1274289006
 20
9.4138191447
 11
10.0832722924
 21
9.3948031101
  0
LINE
  5
2D1
100
AcDbEntity
  8
0
100
AcDbLine
 62
4
  6
CONTINUOUS
 10
9.752580763
 20
7.9315907406
 11
9.738091875
 21
7.9422548073
  0
LINE
  5
2D2
100
AcDbEntity
  8
0
100
AcDbLine
 62
4
  6
CONTINUOUS
 10
9.7670696509
 20
8.0464970362
 11
9.7815585388
 21
8.0358329721
  0
LINE
  5
2D3
100
AcDbEntity
  8
0
100
AcDbLine
 62
4
  6
CONTINUOUS
 10
9.7815585388
 20
8.0358329721
 11
9.7888029828
 21
8.025671305
  0
LINE
  5
2D4
100
AcDbEntity
  8
0
100
AcDbLine
 62
4
  6
CONTINUOUS
 10
9.368487173
 20
9.532686848
 11
9.401604643
 21
9.4144790403
  0
LINE
  5
2D5
100
AcDbEntity
  8
0
100
AcDbLine
 62
4
  6
CONTINUOUS
 10
10.0639537738
 20
9.9679709644
 11
10.0639537738
 21
10.0342058793
  0
LINE
  5
2D6
100
AcDbEntity
  8
0
100
AcDbLine
 62
4
  6
CONTINUOUS
 10
10.138468102
 20
10.004200201
 11
10.138468102
 21
10.0290382931
  0
LINE
  5
2D7
100
AcDbEntity
  8
0
100
AcDbLine
 62
4
  6
CONTINUOUS
 10
10.1881442102
 20
9.9593583284
 11
10.1881442102
 21
9.9841964231
  0
LINE
  5
2D8
100
AcDbEntity
  8
0
100
AcDbLine
 62
4
  6
CONTINUOUS
 10
9.7236029871
 20
8.0205336837
 11
9.738091875
 21
8.0388473955
  0
LINE
  5
2D9
100
AcDbEntity
  8
0
100
AcDbLine
 62
4
  6
CONTINUOUS
 10
9.7670696509
 20
7.9305859328
 11
9.752580763
 21
7.9315907406
  0
LINE
  5
2DA
100
AcDbEntity
  8
0
100
AcDbLine
 62
4
  6
CONTINUOUS
 10
9.2856935197
 20
10.1295752349
 11
9.3436490715
 21
10.0096449003
  0
LINE
  5
2DB
100
AcDbEntity
  8
0
100
AcDbLine
 62
4
  6
CONTINUOUS
 10
9.6168680243
 20
9.7704660051
 11
9.6748235829
 21
9.65053567
  0
LINE
  5
2DC
100
AcDbEntity
  8
0
100
AcDbLine
 62
4
  6
CONTINUOUS
 10
9.5506331966
 20
10.0780841498
 11
9.575471306
 21
9.9935679737
  0
LINE
  5
2DD
100
AcDbEntity
  8
0
100
AcDbLine
 62
4
  6
CONTINUOUS
 10
9.7888029828
 20
7.9483972389
 11
9.7815585388
 21
7.9392403839
  0
LINE
  5
2DE
100
AcDbEntity
  8
0
100
AcDbLine
 62
4
  6
CONTINUOUS
 10
9.7598252069
 20
7.9890438884
 11
9.7888029828
 21
7.9870342728
  0
LINE
  5
2DF
100
AcDbEntity
  8
0
100
AcDbLine
 62
4
  6
CONTINUOUS
 10
9.752580763
 20
8.047501844
 11
9.7670696509
 21
8.0464970362
  0
LINE
  5
2E0
100
AcDbEntity
  8
0
100
AcDbLine
 62
4
  6
CONTINUOUS
 10
9.2718945891
 20
9.5393855665
 11
9.2884533172
 21
9.5216784867
  0
LINE
  5
2E1
100
AcDbEntity
  8
0
100
AcDbLine
 62
4
  6
CONTINUOUS
 10
9.103547504
 20
10.0345753655
 11
9.1118268689
 21
10.0257218247
  0
LINE
  5
2E2
100
AcDbEntity
  8
0
100
AcDbLine
 62
4
  6
CONTINUOUS
 10
9.7244998715
 20
9.3920861801
 11
9.7079411503
 21
9.4097932611
  0
LINE
  5
2E3
100
AcDbEntity
  8
0
100
AcDbLine
 62
4
  6
CONTINUOUS
 10
9.8293717893
 20
10.0421948346
 11
9.8210924563
 21
10.0593277364
  0
LINE
  5
2E4
100
AcDbEntity
  8
0
100
AcDbLine
 62
7
  6
CONTINUOUS
 10
13.5095494033
 20
11.227583108
 11
14.2860058978
 21
11.9775825335
  0
LINE
  5
2E5
100
AcDbEntity
  8
0
100
AcDbLine
 62
4
  6
CONTINUOUS
 10
9.738091875
 20
8.0388473955
 11
9.752580763
 21
8.047501844
  0
LINE
  5
2E6
100
AcDbEntity
  8
0
100
AcDbLine
 62
4
  6
CONTINUOUS
 10
9.7815585388
 20
7.9392403839
 11
9.7670696509
 21
7.9305859328
  0
LINE
  5
2E7
100
AcDbEntity
  8
0
100
AcDbLine
 62
4
  6
CONTINUOUS
 10
9.1642628532
 20
9.480614937
 11
9.2084194648
 21
9.4554743597
  0
LINE
  5
2E8
100
AcDbEntity
  8
0
100
AcDbLine
 62
4
  6
CONTINUOUS
 10
9.1615030557
 20
10.055394229
 11
9.103547504
 21
10.1090896478
  0
LINE
  5
2E9
100
AcDbEntity
  8
0
100
AcDbLine
 62
4
  6
CONTINUOUS
 10
9.1946205119
 20
10.0365387958
 11
9.21117924
 21
10.0188317143
  0
LINE
  5
2EA
100
AcDbEntity
  8
0
100
AcDbLine
 62
4
  6
CONTINUOUS
 10
9.8210924209
 20
9.3853874641
 11
9.8045336997
 21
9.4030945451
  0
LINE
  5
2EB
100
AcDbEntity
  8
0
100
AcDbLine
 62
4
  6
CONTINUOUS
 10
9.1532236917
 20
10.1387620487
 11
9.1615030557
 21
10.1299085053
  0
LINE
  5
2EC
100
AcDbEntity
  8
0
100
AcDbLine
 62
4
  6
CONTINUOUS
 10
9.8459305302
 20
9.4995760388
 11
9.8624892514
 21
9.4818689595
  0
LINE
  5
2ED
100
AcDbEntity
  8
0
100
AcDbLine
 62
4
  6
CONTINUOUS
 10
9.9370035243
 20
9.4932601052
 11
9.9535622454
 21
9.4755530259
  0
LINE
  5
2EE
100
AcDbEntity
  8
0
100
AcDbLine
 62
4
  6
CONTINUOUS
 10
9.509236366
 20
10.0809550297
 11
9.5175157266
 21
10.0721014866
  0
LINE
  5
2EF
100
AcDbEntity
  8
0
100
AcDbLine
 62
4
  6
CONTINUOUS
 10
9.7382987952
 20
10.0650694963
 11
9.7438183505
 21
10.0564073463
  0
LINE
  5
2F0
100
AcDbEntity
  8
0
100
AcDbLine
 62
4
  6
CONTINUOUS
 10
13.3361657008
 20
9.5299183842
 11
13.3506545888
 21
9.5385728327
  0
LINE
  5
2F1
100
AcDbEntity
  8
0
100
AcDbLine
 62
4
  6
CONTINUOUS
 10
13.3796323646
 20
9.4882669217
 11
13.3506545888
 21
9.4709580212
  0
LINE
  5
2F2
100
AcDbEntity
  8
0
100
AcDbLine
 62
4
  6
CONTINUOUS
 10
10.0832722924
 20
9.4389597235
 11
10.1274289006
 21
9.4138191447
  0
LINE
  5
2F3
100
AcDbEntity
  8
0
100
AcDbLine
 62
4
  6
CONTINUOUS
 10
9.8624892316
 20
9.9819425779
 11
9.8707686198
 21
9.9730890355
  0
LINE
  5
2F4
100
AcDbEntity
  8
0
100
AcDbLine
 62
4
  6
CONTINUOUS
 10
9.9535622809
 20
9.9673472756
 11
9.9452828927
 21
9.976200818
  0
LINE
  5
2F5
100
AcDbEntity
  8
0
100
AcDbLine
 62
4
  6
CONTINUOUS
 10
10.0722331068
 20
9.9591174258
 11
10.0639537738
 21
9.9679709644
  0
LINE
  5
2F6
100
AcDbEntity
  8
0
100
AcDbLine
 62
4
  6
CONTINUOUS
 10
10.138468102
 20
9.9628033782
 11
10.1467474349
 21
9.9539498396
  0
LINE
  5
2F7
100
AcDbEntity
  8
0
100
AcDbLine
 62
7
  6
CONTINUOUS
 10
11.4299891753
 20
5.5762457985
 11
11.4299891753
 21
4.9489553939
  0
LINE
  5
2F8
100
AcDbEntity
  8
0
100
AcDbLine
 62
7
  6
CONTINUOUS
 10
11.656667905
 20
5.5605255752
 11
11.656667905
 21
4.7300009291
  0
LINE
  5
2F9
100
AcDbEntity
  8
0
100
AcDbLine
 62
7
  6
CONTINUOUS
 10
11.6948685424
 20
5.557876352
 11
11.6948685424
 21
4.7201138891
  0
LINE
  5
2FA
100
AcDbEntity
  8
0
100
AcDbLine
 62
4
  6
CONTINUOUS
 10
9.638946413
 20
9.9891659601
 11
9.6223876918
 21
9.9985936762
  0
LINE
  5
2FB
100
AcDbEntity
  8
0
100
AcDbLine
 62
4
  6
CONTINUOUS
 10
9.796254347
 20
9.9782566178
 11
9.7796956258
 21
9.987684334
  0
LINE
  5
2FC
100
AcDbEntity
  8
0
100
AcDbLine
 62
4
  6
CONTINUOUS
 10
10.1467474349
 20
9.9981064513
 11
10.138468102
 21
10.004200201
  0
LINE
  5
2FD
100
AcDbEntity
  8
0
100
AcDbLine
 62
4
  6
CONTINUOUS
 10
10.1881442102
 20
9.9841964231
 11
10.1798648772
 21
9.9902901728
  0
LINE
  5
2FE
100
AcDbEntity
  8
0
100
AcDbLine
 62
4
  6
CONTINUOUS
 10
10.1798648772
 20
10.0344467845
 11
10.1881442102
 21
10.0255932433
  0
LINE
  5
2FF
100
AcDbEntity
  8
0
100
AcDbLine
 62
4
  6
CONTINUOUS
 10
9.9370035243
 20
9.3773490017
 11
9.8956066937
 21
9.3802198817
  0
LINE
  5
300
100
AcDbEntity
  8
0
100
AcDbLine
 62
4
  6
CONTINUOUS
 10
9.8459305302
 20
9.3836649353
 11
9.8210924209
 21
9.3853874641
  0
LINE
  5
301
100
AcDbEntity
  8
0
100
AcDbLine
 62
4
  6
CONTINUOUS
 10
9.7576173138
 20
9.3897894777
 11
9.7244998715
 21
9.3920861801
  0
LINE
  5
302
100
AcDbEntity
  8
0
100
AcDbLine
 62
4
  6
CONTINUOUS
 10
9.2718945891
 20
9.4234744631
 11
9.2304977724
 21
9.426345342
  0
LINE
  5
303
100
AcDbEntity
  8
0
100
AcDbLine
 62
4
  6
CONTINUOUS
 10
9.5340744676
 20
9.4052922267
 11
9.5837506587
 21
9.4018471712
  0
LINE
  5
304
100
AcDbEntity
  8
0
100
AcDbLine
 62
4
  6
CONTINUOUS
 10
10.0004786866
 20
9.3729469843
 11
10.0501548501
 21
9.3695019306
  0
LINE
  5
305
100
AcDbEntity
  8
0
100
AcDbLine
 62
4
  6
CONTINUOUS
 10
9.3464088689
 20
9.4514243398
 11
9.3905654771
 21
9.4483620686
  0
LINE
  5
306
100
AcDbEntity
  8
0
100
AcDbLine
 62
4
  6
CONTINUOUS
 10
10.0335961289
 20
9.4368852011
 11
10.0004786866
 21
9.4391819035
  0
LINE
  5
307
100
AcDbEntity
  8
0
100
AcDbLine
 62
4
  6
CONTINUOUS
 10
9.5671919375
 20
9.4692304416
 11
9.5340744676
 21
9.4715271459
  0
LINE
  5
308
100
AcDbEntity
  8
0
100
AcDbLine
 62
4
  6
CONTINUOUS
 10
9.2304977724
 20
9.5422564455
 11
9.2718945891
 21
9.5393855665
  0
LINE
  5
309
100
AcDbEntity
  8
0
100
AcDbLine
 62
4
  6
CONTINUOUS
 10
9.4347220853
 20
9.5280934413
 11
9.5009569976
 21
9.5235000345
  0
LINE
  5
30A
100
AcDbEntity
  8
0
100
AcDbLine
 62
4
  6
CONTINUOUS
 10
9.5340744676
 20
9.5212033302
 11
9.5837506587
 21
9.5177582746
  0
LINE
  5
30B
100
AcDbEntity
  8
0
100
AcDbLine
 62
4
  6
CONTINUOUS
 10
9.7244998715
 20
9.5079972835
 11
9.7576173138
 21
9.5057005811
  0
LINE
  5
30C
100
AcDbEntity
  8
0
100
AcDbLine
 62
4
  6
CONTINUOUS
 10
9.8210924209
 20
9.5012985675
 11
9.8459305302
 21
9.4995760388
  0
LINE
  5
30D
100
AcDbEntity
  8
0
100
AcDbLine
 62
4
  6
CONTINUOUS
 10
9.8956066937
 20
9.4961309851
 11
9.9370035243
 21
9.4932601052
  0
LINE
  5
30E
100
AcDbEntity
  8
0
100
AcDbLine
 62
4
  6
CONTINUOUS
 10
10.0004786866
 20
9.4888580877
 11
10.0501548501
 21
9.4854130341
  0
LINE
  5
30F
100
AcDbEntity
  8
0
100
AcDbLine
 62
4
  6
CONTINUOUS
 10
9.5423537445
 20
9.6597224845
 11
9.5837505681
 21
9.656851605
  0
LINE
  5
310
100
AcDbEntity
  8
0
100
AcDbLine
 62
4
  6
CONTINUOUS
 10
9.707941039
 20
9.6482389666
 11
9.7493378558
 21
9.6453680876
  0
LINE
  5
311
100
AcDbEntity
  8
0
100
AcDbLine
 62
4
  6
CONTINUOUS
 10
13.3289212569
 20
9.5207615249
 11
13.3361657008
 21
9.5299183842
  0
LINE
  5
312
100
AcDbEntity
  8
0
100
AcDbLine
 62
4
  6
CONTINUOUS
 10
13.3506545888
 20
9.4709580212
 11
13.3361657008
 21
9.4526443129
  0
LINE
  5
313
100
AcDbEntity
  8
0
100
AcDbLine
 62
4
  6
CONTINUOUS
 10
13.3868768086
 20
9.4974237811
 11
13.3796323646
 21
9.4882669217
  0
LINE
  5
314
100
AcDbEntity
  8
0
100
AcDbLine
 62
4
  6
CONTINUOUS
 10
13.3289212569
 20
9.424168941
 11
13.3868768086
 21
9.4201497098
  0
LINE
  5
315
100
AcDbEntity
  8
0
100
AcDbLine
 62
4
  6
CONTINUOUS
 10
13.3506545888
 20
9.5385728327
 11
13.3651434767
 21
9.5375680249
  0
LINE
  5
316
100
AcDbEntity
  8
0
100
AcDbLine
 62
4
  6
CONTINUOUS
 10
9.5506331966
 20
9.9676926206
 11
9.5671919177
 21
9.9665442694
  0
LINE
  5
317
100
AcDbEntity
  8
0
100
AcDbLine
 62
4
  6
CONTINUOUS
 10
10.1053506596
 20
9.9568207158
 11
10.0722331068
 21
9.9591174258
  0
LINE
  5
318
100
AcDbEntity
  8
0
100
AcDbLine
 62
4
  6
CONTINUOUS
 10
9.9701210021
 20
9.9661989244
 11
9.9535622809
 21
9.9673472756
  0
LINE
  5
319
100
AcDbEntity
  8
0
100
AcDbLine
 62
4
  6
CONTINUOUS
 10
9.8293717893
 20
9.9759599154
 11
9.796254347
 21
9.9782566178
  0
LINE
  5
31A
100
AcDbEntity
  8
0
100
AcDbLine
 62
4
  6
CONTINUOUS
 10
9.6720638553
 20
9.9868692577
 11
9.638946413
 21
9.9891659601
  0
LINE
  5
31B
100
AcDbEntity
  8
0
100
AcDbLine
 62
4
  6
CONTINUOUS
 10
9.1118268689
 20
10.0257218247
 11
9.1449443277
 21
10.0234251211
  0
LINE
  5
31C
100
AcDbEntity
  8
0
100
AcDbLine
 62
4
  6
CONTINUOUS
 10
9.21117924
 20
10.0188317143
 11
9.2360173424
 21
10.0171091861
  0
LINE
  5
31D
100
AcDbEntity
  8
0
100
AcDbLine
 62
4
  6
CONTINUOUS
 10
9.8707686198
 20
9.9730890355
 11
9.9121654504
 21
9.9702181555
  0
LINE
  5
31E
100
AcDbEntity
  8
0
100
AcDbLine
 62
4
  6
CONTINUOUS
 10
10.1467474349
 20
9.9539498396
 11
10.1798648772
 21
9.9516531372
  0
LINE
  5
31F
100
AcDbEntity
  8
0
100
AcDbLine
 62
4
  6
CONTINUOUS
 10
10.1798648772
 20
9.9902901728
 11
10.1467474349
 21
9.9981064513
  0
LINE
  5
320
100
AcDbEntity
  8
0
100
AcDbLine
 62
7
  6
CONTINUOUS
 10
12.5408444304
 20
5.4992077249
 11
12.5408444304
 21
4.661445262
  0
LINE
  5
321
100
AcDbEntity
  8
0
100
AcDbLine
 62
7
  6
CONTINUOUS
 10
12.5930274569
 20
5.4955888198
 11
12.5930274569
 21
4.6650641736
  0
LINE
  5
322
100
AcDbEntity
  8
0
100
AcDbLine
 62
4
  6
CONTINUOUS
 10
9.796254347
 20
10.0196534415
 11
9.8293717893
 21
10.0173567391
  0
LINE
  5
323
100
AcDbEntity
  8
0
100
AcDbLine
 62
4
  6
CONTINUOUS
 10
9.8210924563
 20
10.0593277364
 11
9.7796956258
 21
10.0621986163
  0
LINE
  5
324
100
AcDbEntity
  8
0
100
AcDbLine
 62
4
  6
CONTINUOUS
 10
9.4678395355
 20
10.0838259097
 11
9.509236366
 21
10.0809550297
  0
LINE
  5
325
100
AcDbEntity
  8
0
100
AcDbLine
 62
4
  6
CONTINUOUS
 10
9.638946413
 20
10.0719596074
 11
9.6720638553
 21
10.069662905
  0
LINE
  5
326
100
AcDbEntity
  8
0
100
AcDbLine
 62
4
  6
CONTINUOUS
 10
9.7051813529
 20
10.0673661987
 11
9.7382987952
 21
10.0650694963
  0
LINE
  5
327
100
AcDbEntity
  8
0
100
AcDbLine
 62
4
  6
CONTINUOUS
 10
10.0722331068
 20
10.0419110731
 11
10.1053506596
 21
10.039614363
  0
LINE
  5
328
100
AcDbEntity
  8
0
100
AcDbLine
 62
4
  6
CONTINUOUS
 10
10.1467474349
 20
10.0367434869
 11
10.1798648772
 21
10.0344467845
  0
LINE
  5
329
100
AcDbEntity
  8
0
100
AcDbLine
 62
4
  6
CONTINUOUS
 10
9.1201062338
 20
10.1410587522
 11
9.1532236917
 21
10.1387620487
  0
LINE
  5
32A
100
AcDbEntity
  8
0
100
AcDbLine
 62
4
  6
CONTINUOUS
 10
10.0197971656
 20
10.0786649741
 11
10.0225569433
 21
10.0784735829
  0
LINE
  5
32B
100
AcDbEntity
  8
0
100
AcDbLine
 62
4
  6
CONTINUOUS
 10
13.3361657008
 20
9.4526443129
 11
13.3289212569
 21
9.424168941
  0
LINE
  5
32C
100
AcDbEntity
  8
0
100
AcDbLine
 62
7
  6
CONTINUOUS
 10
13.2123246153
 20
5.452640416
 11
13.2123246153
 21
4.8253500114
  0
LINE
  5
32D
100
AcDbEntity
  8
0
100
AcDbLine
 62
7
  6
CONTINUOUS
 10
13.2263070043
 20
5.451670734
 11
13.2263070043
 21
4.8388559629
  0
LINE
  5
32E
100
AcDbEntity
  8
0
100
AcDbLine
 62
4
  6
CONTINUOUS
 10
13.3868768086
 20
9.5167422937
 11
13.3868768086
 21
9.4974237811
  0
LINE
  5
32F
100
AcDbEntity
  8
0
100
AcDbLine
 62
4
  6
CONTINUOUS
 10
13.3651434767
 20
9.5375680249
 11
13.3796323646
 21
9.5269039608
  0
LINE
  5
330
100
AcDbEntity
  8
0
100
AcDbLine
 62
7
  6
CONTINUOUS
 10
13.5095494033
 20
5.4320278069
 11
13.5095494033
 21
11.227583108
  0
LINE
  5
331
100
AcDbEntity
  8
0
100
AcDbLine
 62
4
  6
CONTINUOUS
 10
13.3796323646
 20
9.5269039608
 11
13.3868768086
 21
9.5167422937
  0
LINE
  5
332
100
AcDbEntity
  8
0
100
AcDbLine
 62
7
  6
CONTINUOUS
 10
7.7139941022
 20
11.6295062333
 11
13.5095494033
 21
11.227583108
  0
LINE
  5
333
100
AcDbEntity
  8
0
100
AcDbLine
 62
7
  6
CONTINUOUS
 10
14.2860058978
 20
6.1820272324
 11
14.2860058978
 21
11.9775825335
  0
LINE
  5
334
100
AcDbEntity
  8
0
100
AcDbLine
 62
7
  6
CONTINUOUS
 10
14.2860058978
 20
11.9775825335
 11
8.4904505967
 21
12.3795056588
  0
LINE
  5
335
100
AcDbEntity
  8
0
100
AcDbLine
 62
7
  6
CONTINUOUS
 10
13.5095494033
 20
5.4320278069
 11
14.2860058978
 21
6.1820272324
  0
LINE
  5
336
100
AcDbEntity
  8
0
100
AcDbLine
 62
7
  6
CONTINUOUS
 10
13.0828402821
 20
4.7519727754
 11
13.0429743098
 21
4.7322797483
  0
ARC
  5
337
100
AcDbEntity
  8
0
100
AcDbCircle
 62
7
  6
CONTINUOUS
 10
12.3438563002
 20
7.879959709
 40
3.2245371092
100
AcDbArc
 50
273.5024005705
 51
274.4318614998
  0
ARC
  5
338
100
AcDbEntity
  8
0
100
AcDbCircle
 62
7
  6
CONTINUOUS
 10
12.028265313
 20
6.0870033044
 40
1.4069612931
100
AcDbArc
 50
254.6857191954
 51
256.2926786396
  0
ARC
  5
339
100
AcDbEntity
  8
0
100
AcDbCircle
 62
7
  6
CONTINUOUS
 10
12.590360428
 20
5.7467743153
 40
1.1100294815
100
AcDbArc
 50
294.0424242342
 51
296.3106753905
  0
ARC
  5
33A
100
AcDbEntity
  8
0
100
AcDbCircle
 62
7
  6
CONTINUOUS
 10
9.5929286834
 20
8.0726024673
 40
0.4051480262
100
AcDbArc
 50
233.3261290462
 51
234.1508491358
  0
ARC
  5
33B
100
AcDbEntity
  8
0
100
AcDbCircle
 62
7
  6
CONTINUOUS
 10
13.0964499159
 20
4.9597670998
 40
0.1774680242
100
AcDbArc
 50
310.7630914438
 51
313.9856916518
  0
ARC
  5
33C
100
AcDbEntity
  8
0
100
AcDbCircle
 62
7
  6
CONTINUOUS
 10
13.1145627645
 20
4.9411844553
 40
0.1515186308
100
AcDbArc
 50
313.9375979844
 51
317.5184669644
  0
SPLINE
  5
33D
100
AcDbEntity
  8
0
100
AcDbSpline
 62
7
  6
CONTINUOUS
 70
0
 71
3
 72
9
 73
5
 74
0
 42
0.0000001
 43
0.0000001
 44
0.0000000001
 40
0.0
 40
0.0
 40
0.0
 40
0.0
 40
0.5047194233
 40
1.0
 40
1.0
 40
1.0
 40
1.0
 10
13.2123246153
 20
4.8253500114
 30
0.0
 10
13.1910857737
 20
4.8119058437
 30
0.0
 10
13.1484332913
 20
4.7861572957
 30
0.0
 10
13.1044808301
 20
4.7626685529
 30
0.0
 10
13.0823679163
 20
4.7517396018
 30
0.0
  0
SPLINE
  5
33E
100
AcDbEntity
  8
0
100
AcDbSpline
 62
7
  6
CONTINUOUS
 70
0
 71
3
 72
20
 73
16
 74
0
 42
0.0000001
 43
0.0000001
 44
0.0000000001
 40
0.0
 40
0.0
 40
0.0
 40
0.0
 40
0.1321092246
 40
0.2654630393
 40
0.3983965104
 40
0.4641824508
 40
0.5292377163
 40
0.593358461
 40
0.6563452314
 40
0.7180031916
 40
0.7781436148
 40
0.8365831781
 40
0.8931456382
 40
0.9476711375
 40
1.0
 40
1.0
 40
1.0
 40
1.0
 10
12.5144790491
 20
5.5008111338
 30
0.0
 10
12.4791262719
 20
5.4989252977
 30
0.0
 10
12.4080235627
 20
5.4962523051
 30
0.0
 10
12.3012483252
 20
5.4954598344
 30
0.0
 10
12.2122657953
 20
5.4974643803
 30
0.0
 10
12.1416496297
 20
5.5006829118
 30
0.0
 10
12.0894985588
 20
5.5038768476
 30
0.0
 10
12.0381533043
 20
5.5078483863
 30
0.0
 10
11.9877870411
 20
5.5125835412
 30
0.0
 10
11.9385696632
 20
5.5180665447
 30
0.0
 10
11.8906673151
 20
5.5242787163
 30
0.0
 10
11.8442419884
 20
5.5311984572
 30
0.0
 10
11.799448994
 20
5.5388027351
 30
0.0
 10
11.7564391122
 20
5.547065522
 30
0.0
 10
11.7284488993
 20
5.5531248926
 30
0.0
 10
11.7147829448
 20
5.556270247
 30
0.0
  0
SPLINE
  5
33F
100
AcDbEntity
  8
0
100
AcDbSpline
 62
7
  6
CONTINUOUS
 70
0
 71
3
 72
22
 73
18
 74
0
 42
0.0000001
 43
0.0000001
 44
0.0000000001
 40
0.0
 40
0.0
 40
0.0
 40
0.0
 40
0.043290989
 40
0.0886107636
 40
0.1362169549
 40
0.1863255266
 40
0.2391104607
 40
0.2946904167
 40
0.3531382065
 40
0.4144717324
 40
0.4786700373
 40
0.5456687108
 40
0.6153767118
 40
0.6876754969
 40
0.7624330017
 40
0.8395067268
 40
1.0
 40
1.0
 40
1.0
 40
1.0
 10
11.590583236
 20
4.7435123377
 30
0.0
 10
11.5871573149
 20
4.7452032675
 30
0.0
 10
11.5802786846
 20
4.7489415462
 30
0.0
 10
11.5701570684
 20
4.7554449868
 30
0.0
 10
11.5600218935
 20
4.7629850659
 30
0.0
 10
11.5498801019
 20
4.7715736171
 30
0.0
 10
11.5397396437
 20
4.7812152244
 30
0.0
 10
11.5296060167
 20
4.791901889
 30
0.0
 10
11.5194874384
 20
4.803618154
 30
0.0
 10
11.5093885648
 20
4.8163369893
 30
0.0
 10
11.4993167292
 20
4.8300253123
 30
0.0
 10
11.4892755308
 20
4.8446414043
 30
0.0
 10
11.4792705603
 20
4.8601398733
 30
0.0
 10
11.4693042194
 20
4.876470472
 30
0.0
 10
11.4593797504
 20
4.8935820285
 30
0.0
 10
11.4460244773
 20
4.9176949623
 30
0.0
 10
11.4363534221
 20
4.9363019839
 30
0.0
 10
11.4299891753
 20
4.9489553939
 30
0.0
  0
SPLINE
  5
340
100
AcDbEntity
  8
0
100
AcDbSpline
 62
7
  6
CONTINUOUS
 70
0
 71
3
 72
44
 73
40
 74
0
 42
0.0000001
 43
0.0000001
 44
0.0000000001
 40
0.0
 40
0.0
 40
0.0
 40
0.0
 40
0.0099876068
 40
0.0204481328
 40
0.0313777713
 40
0.0427716128
 40
0.0546230022
 40
0.0669238486
 40
0.0928367361
 40
0.1204276867
 40
0.1495993488
 40
0.1802415992
 40
0.2122347844
 40
0.245450041
 40
0.2797506656
 40
0.3149938309
 40
0.3510305798
 40
0.3877077822
 40
0.4248684878
 40
0.4623529989
 40
0.4999999298
 40
0.5376468374
 40
0.5751314242
 40
0.6122921181
 40
0.648969408
 40
0.6850062269
 40
0.7202493743
 40
0.7545502416
 40
0.7877654604
 40
0.8197588508
 40
0.850401261
 40
0.8795728912
 40
0.9071642206
 40
0.9330770798
 40
0.9572281891
 40
0.9686219233
 40
0.9795517753
 40
0.9900123903
 40
1.0
 40
1.0
 40
1.0
 40
1.0
 10
13.0429717753
 20
4.7322784853
 30
0.0
 10
13.0386233586
 20
4.7301305152
 30
0.0
 10
13.0296463028
 20
4.7258821069
 30
0.0
 10
13.015683977
 20
4.7197762913
 30
0.0
 10
13.0009279085
 20
4.7137960995
 30
0.0
 10
12.985394991
 20
4.7079491063
 30
0.0
 10
12.9691030464
 20
4.702241829
 30
0.0
 10
12.9459905244
 20
4.6946955797
 30
0.0
 10
12.9153197765
 20
4.6856985864
 30
0.0
 10
12.8764211694
 20
4.6757360872
 30
0.0
 10
12.834993265
 20
4.6664765633
 30
0.0
 10
12.7912268842
 20
4.6579623153
 30
0.0
 10
12.7453230655
 20
4.6502338453
 30
0.0
 10
12.697493252
 20
4.643327361
 30
0.0
 10
12.6479579592
 20
4.6372746875
 30
0.0
 10
12.5969457103
 20
4.63210491
 30
0.0
 10
12.5446919581
 20
4.6278415083
 30
0.0
 10
12.4914380039
 20
4.6245047066
 30
0.0
 10
12.4374297486
 20
4.6221102699
 30
0.0
 10
12.3829166674
 20
4.6206688106
 30
0.0
 10
12.3281505789
 20
4.620187768
 30
0.0
 10
12.273384457
 20
4.620668843
 30
0.0
 10
12.2188713442
 20
4.6221099206
 30
0.0
 10
12.1648630262
 20
4.6245046099
 30
0.0
 10
12.1116089825
 20
4.6278410785
 30
0.0
 10
12.0593551555
 20
4.632104441
 30
0.0
 10
12.0083427785
 20
4.637274341
 30
0.0
 10
11.9588073392
 20
4.6433265697
 30
0.0
 10
11.9109773612
 20
4.6502333416
 30
0.0
 10
11.8650733509
 20
4.6579615304
 30
0.0
 10
11.8213067308
 20
4.666475654
 30
0.0
 10
11.7798788
 20
4.6757354826
 30
0.0
 10
11.7409793344
 20
4.6856972679
 30
0.0
 10
11.7047871246
 20
4.6963153348
 30
0.0
 10
11.676494399
 20
4.7058439862
 30
0.0
 10
11.6553711659
 20
4.713795121
 30
0.0
 10
11.6406148388
 20
4.7197750161
 30
0.0
 10
11.6266523015
 20
4.7258807113
 30
0.0
 10
11.6176753315
 20
4.7301294107
 30
0.0
 10
11.613326928
 20
4.7322774106
 30
0.0
  0
SPLINE
  5
341
100
AcDbEntity
  8
0
100
AcDbSpline
 62
7
  6
CONTINUOUS
 70
0
 71
3
 72
21
 73
17
 74
0
 42
0.0000001
 43
0.0000001
 44
0.0000000001
 40
0.0
 40
0.0
 40
0.0
 40
0.0
 40
0.1229683586
 40
0.1846291852
 40
0.2464222231
 40
0.3083594657
 40
0.3704517377
 40
0.4327079591
 40
0.49513282
 40
0.557727432
 40
0.6204888849
 40
0.6834099387
 40
0.7464809678
 40
0.8096898189
 40
0.8730228
 40
1.0
 40
1.0
 40
1.0
 40
1.0
 10
12.5408444304
 20
4.661445262
 30
0.0
 10
12.5063323438
 20
4.6543851736
 30
0.0
 10
12.4542316701
 20
4.6450734767
 30
0.0
 10
12.3842434425
 20
4.635785853
 30
0.0
 10
12.331386184
 20
4.6305126317
 30
0.0
 10
12.2782533025
 20
4.6270748586
 30
0.0
 10
12.2248959517
 20
4.6255896084
 30
0.0
 10
12.1713803571
 20
4.6261499528
 30
0.0
 10
12.1177835999
 20
4.628811923
 30
0.0
 10
12.0641886735
 20
4.6335894277
 30
0.0
 10
12.0106785281
 20
4.6404565381
 30
0.0
 10
11.9573296356
 20
4.6493461391
 30
0.0
 10
11.9042071143
 20
4.6601558799
 30
0.0
 10
11.8513614401
 20
4.6727614931
 30
0.0
 10
11.7812642316
 20
4.6917906726
 30
0.0
 10
11.7292732003
 20
4.708303835
 30
0.0
 10
11.6948685424
 20
4.7201138891
 30
0.0
  0
SPLINE
  5
342
100
AcDbEntity
  8
0
100
AcDbSpline
 62
7
  6
CONTINUOUS
 70
0
 71
3
 72
11
 73
7
 74
0
 42
0.0000001
 43
0.0000001
 44
0.0000000001
 40
0.0
 40
0.0
 40
0.0
 40
0.0
 40
0.2458672335
 40
0.4933492082
 40
0.7440905688
 40
1.0
 40
1.0
 40
1.0
 40
1.0
 10
11.656667905
 20
4.7300009291
 30
0.0
 10
11.6531881975
 20
4.7298048338
 30
0.0
 10
11.6461885184
 20
4.729665486
 30
0.0
 10
11.6356476444
 20
4.7302790463
 30
0.0
 10
11.6250509004
 20
4.7317767009
 30
0.0
 10
11.6180407849
 20
4.733385422
 30
0.0
 10
11.6145428881
 20
4.7343466964
 30
0.0
  0
LINE
  5
343
100
AcDbEntity
  8
0
100
AcDbLine
 62
7
  6
CONTINUOUS
 10
11.6145428881
 20
4.7343466964
 11
11.6141423428
 21
4.7344574718
  0
SPLINE
  5
344
100
AcDbEntity
  8
0
100
AcDbSpline
 62
7
  6
CONTINUOUS
 70
0
 71
3
 72
9
 73
5
 74
0
 42
0.0000001
 43
0.0000001
 44
0.0000000001
 40
0.0
 40
0.0
 40
0.0
 40
0.0
 40
0.4899125641
 40
1.0
 40
1.0
 40
1.0
 40
1.0
 10
11.6141423428
 20
4.7344574718
 30
0.0
 10
11.6101672059
 20
4.7355637865
 30
0.0
 10
11.6021584134
 20
4.7382164174
 30
0.0
 10
11.5944356736
 20
4.7416108925
 30
0.0
 10
11.590583236
 20
4.7435123377
 30
0.0
  0
LINE
  5
345
100
AcDbEntity
  8
0
100
AcDbLine
 62
7
  6
CONTINUOUS
 10
13.0426008241
 20
4.7330465048
 11
13.0413919365
 21
4.7325089386
  0
SPLINE
  5
346
100
AcDbEntity
  8
0
100
AcDbSpline
 62
7
  6
CONTINUOUS
 70
0
 71
3
 72
15
 73
11
 74
0
 42
0.0000001
 43
0.0000001
 44
0.0000000001
 40
0.0
 40
0.0
 40
0.0
 40
0.0
 40
0.1323763415
 40
0.2621392813
 40
0.3894055944
 40
0.5144404382
 40
0.637615975
 40
0.7593469011
 40
0.8800294664
 40
1.0
 40
1.0
 40
1.0
 40
1.0
 10
13.0413919365
 20
4.7325089386
 30
0.0
 10
13.0228724351
 20
4.7242878518
 30
0.0
 10
12.9857099596
 20
4.709076528
 30
0.0
 10
12.9291317709
 20
4.6901800352
 30
0.0
 10
12.8724296697
 20
4.6756520524
 30
0.0
 10
12.8157990277
 20
4.6655448148
 30
0.0
 10
12.7594242643
 20
4.6597227237
 30
0.0
 10
12.7034521589
 20
4.6578933792
 30
0.0
 10
12.647978502
 20
4.6596629814
 30
0.0
 10
12.6112698076
 20
4.6629597139
 30
0.0
 10
12.5930274569
 20
4.6650641736
 30
0.0
  0
SPLINE
  5
347
100
AcDbEntity
  8
0
100
AcDbSpline
 62
7
  6
CONTINUOUS
 70
0
 71
3
 72
11
 73
7
 74
0
 42
0.0000001
 43
0.0000001
 44
0.0000000001
 40
0.0
 40
0.0
 40
0.0
 40
0.0
 40
0.2315260015
 40
0.4751362712
 40
0.7311948782
 40
1.0
 40
1.0
 40
1.0
 40
1.0
 10
10.668687422
 20
11.8265209887
 30
0.0
 10
10.6660847792
 20
11.8240070287
 30
0.0
 10
10.6605923696
 20
11.8190028243
 30
0.0
 10
10.6517582443
 20
11.8117466988
 30
0.0
 10
10.6421306546
 20
11.8045596279
 30
0.0
 10
10.6353547271
 20
11.7999314988
 30
0.0
 10
10.6318419909
 20
11.7976270535
 30
0.0
  0
SPLINE
  5
348
100
AcDbEntity
  8
0
100
AcDbSpline
 62
7
  6
CONTINUOUS
 70
0
 71
3
 72
61
 73
57
 74
0
 42
0.0000001
 43
0.0000001
 44
0.0000000001
 40
0.0
 40
0.0
 40
0.0
 40
0.0
 40
0.0088593341
 40
0.0182564803
 40
0.0281949024
 40
0.0386747794
 40
0.0496934608
 40
0.0612458534
 40
0.0733247631
 40
0.0859211605
 40
0.0990243614
 40
0.1126221907
 40
0.1267011572
 40
0.1412465644
 40
0.1562425835
 40
0.1716723729
 40
0.1875181664
 40
0.2037613204
 40
0.2203823798
 40
0.2373611621
 40
0.2546768051
 40
0.2723077998
 40
0.2902320639
 40
0.3084269944
 40
0.3455355041
 40
0.3834441963
 40
0.4219578299
 40
0.4608770426
 40
0.4999997271
 40
0.5391224142
 40
0.5780416346
 40
0.6165552809
 40
0.654463991
 40
0.6915725234
 40
0.709767467
 40
0.7276917453
 40
0.7453227554
 40
0.7626384149
 40
0.7796172148
 40
0.7962382928
 40
0.8124814665
 40
0.8283272805
 40
0.8437570915
 40
0.8587531329
 40
0.8732985633
 40
0.8873775538
 40
0.9009754078
 40
0.914078634
 40
0.9266750574
 40
0.9387539934
 40
0.9503064131
 40
0.9613251215
 40
0.9718050249
 40
0.9817434782
 40
0.9911406462
 40
1.0
 40
1.0
 40
1.0
 40
1.0
 10
10.6318419909
 20
11.7976270535
 30
0.0
 10
10.6269815246
 20
11.7944384626
 30
0.0
 10
10.6167951586
 20
11.7881249467
 30
0.0
 10
10.6006501459
 20
11.7790821467
 30
0.0
 10
10.5832135617
 20
11.7702012264
 30
0.0
 10
10.5645096135
 20
11.7614946051
 30
0.0
 10
10.5445636411
 20
11.7529741661
 30
0.0
 10
10.5234030641
 20
11.7446516998
 30
0.0
 10
10.5010570034
 20
11.7365387559
 30
0.0
 10
10.4775563002
 20
11.7286466662
 30
0.0
 10
10.4529334675
 20
11.7209864568
 30
0.0
 10
10.4272226419
 20
11.7135688193
 30
0.0
 10
10.4004594973
 20
11.7064041405
 30
0.0
 10
10.3726811997
 20
11.6995024735
 30
0.0
 10
10.3439263709
 20
11.6928734636
 30
0.0
 10
10.3142350104
 20
11.6865263891
 30
0.0
 10
10.2836484275
 20
11.6804701551
 30
0.0
 10
10.2522092001
 20
11.674713245
 30
0.0
 10
10.2199611132
 20
11.6692637015
 30
0.0
 10
10.1869490795
 20
11.6641291597
 30
0.0
 10
10.1532190784
 20
11.6593168234
 30
0.0
 10
10.1188181196
 20
11.6548334208
 30
0.0
 10
10.0837940982
 20
11.6506851821
 30
0.0
 10
10.0360175708
 20
11.6455756344
 30
0.0
 10
9.9750986108
 20
11.6400834228
 30
0.0
 10
9.9007776102
 20
11.6349514181
 30
0.0
 10
9.8251814076
 20
11.6312649072
 30
0.0
 10
9.7487312589
 20
11.6290446477
 30
0.0
 10
9.6718528834
 20
11.6283031399
 30
0.0
 10
9.5949745026
 20
11.6290446102
 30
0.0
 10
9.5185243376
 20
11.6312648325
 30
0.0
 10
9.4429281081
 20
11.6349513065
 30
0.0
 10
9.36860707
 20
11.6400832749
 30
0.0
 10
9.3076880719
 20
11.6455754567
 30
0.0
 10
9.259911509
 20
11.6506849808
 30
0.0
 10
9.2248874573
 20
11.6548332024
 30
0.0
 10
9.1904864658
 20
11.6593165882
 30
0.0
 10
9.1567564296
 20
11.6641289081
 30
0.0
 10
9.1237443584
 20
11.6692634337
 30
0.0
 10
9.0914962317
 20
11.6747129615
 30
0.0
 10
9.0600569622
 20
11.6804698562
 30
0.0
 10
9.0294703351
 20
11.6865260752
 30
0.0
 10
8.9997789283
 20
11.6928731353
 30
0.0
 10
8.9710240511
 20
11.6995021311
 30
0.0
 10
8.9432457031
 20
11.7064037846
 30
0.0
 10
8.9164825061
 20
11.7135684504
 30
0.0
 10
8.8907716264
 20
11.7209860753
 30
0.0
 10
8.8661487378
 20
11.7286462727
 30
0.0
 10
8.842647977
 20
11.736538351
 30
0.0
 10
8.820301857
 20
11.7446512838
 30
0.0
 10
8.7991412192
 20
11.75297374
 30
0.0
 10
8.7791951855
 20
11.7614941695
 30
0.0
 10
8.7604911712
 20
11.7702007804
 30
0.0
 10
8.7430545258
 20
11.7790816953
 30
0.0
 10
8.7269094517
 20
11.7881244825
 30
0.0
 10
8.7167230429
 20
11.7944379815
 30
0.0
 10
8.7118625595
 20
11.79762657
 30
0.0
  0
SPLINE
  5
349
100
AcDbEntity
  8
0
100
AcDbSpline
 62
7
  6
CONTINUOUS
 70
0
 71
3
 72
23
 73
19
 74
0
 42
0.0000001
 43
0.0000001
 44
0.0000000001
 40
0.0
 40
0.0
 40
0.0
 40
0.0
 40
0.0824087936
 40
0.1615983232
 40
0.2376250329
 40
0.3105600017
 40
0.3804913954
 40
0.4475256907
 40
0.5117913173
 40
0.5734397359
 40
0.6326493681
 40
0.6896266589
 40
0.744608831
 40
0.7978641756
 40
0.8496918426
 40
0.9004195812
 40
0.950399138
 40
1.0
 40
1.0
 40
1.0
 40
1.0
 10
8.7118625595
 20
11.79762657
 30
0.0
 10
8.7089549667
 20
11.7995340175
 30
0.0
 10
8.7033106328
 20
11.8033628159
 30
0.0
 10
8.6952075289
 20
11.8092723951
 30
0.0
 10
8.6876419635
 20
11.8152300815
 30
0.0
 10
8.6806181699
 20
11.8212327502
 30
0.0
 10
8.6741398818
 20
11.8272772677
 30
0.0
 10
8.6682107455
 20
11.8333606884
 30
0.0
 10
8.6628339656
 20
11.8394798807
 30
0.0
 10
8.6580127568
 20
11.8456319791
 30
0.0
 10
8.6537499108
 20
11.8518138978
 30
0.0
 10
8.650048285
 20
11.8580227211
 30
0.0
 10
8.6469104295
 20
11.8642553065
 30
0.0
 10
8.6443388546
 20
11.8705084498
 30
0.0
 10
8.6423358938
 20
11.8767786142
 30
0.0
 10
8.6409034903
 20
11.8830621587
 30
0.0
 10
8.6400434105
 20
11.8893542729
 30
0.0
 10
8.6398519098
 20
11.8935587488
 30
0.0
 10
8.6398519102
 20
11.8956517662
 30
0.0
  0
SPLINE
  5
34A
100
AcDbEntity
  8
0
100
AcDbSpline
 62
7
  6
CONTINUOUS
 70
0
 71
3
 72
18
 73
14
 74
0
 42
0.0000001
 43
0.0000001
 44
0.0000000001
 40
0.0
 40
0.0
 40
0.0
 40
0.0
 40
0.1504680185
 40
0.2917144324
 40
0.4244425615
 40
0.4879099171
 40
0.5496094205
 40
0.6682625585
 40
0.7817882768
 40
0.8371379945
 40
0.8918078237
 40
0.9460192726
 40
1.0
 40
1.0
 40
1.0
 40
1.0
 10
13.8977776506
 20
10.5009443506
 30
0.0
 10
13.8998541593
 20
10.5029501041
 30
0.0
 10
13.904004362
 20
10.5067134822
 30
0.0
 10
13.9104305091
 20
10.5117286442
 30
0.0
 10
13.9158584889
 20
10.5152756263
 30
0.0
 10
13.92018682
 20
10.5176775325
 30
0.0
 10
13.9243878164
 20
10.5197396382
 30
0.0
 10
13.9296403921
 20
10.5218233257
 30
0.0
 10
13.9349864042
 20
10.5232452391
 30
0.0
 10
13.9392206043
 20
10.5239456866
 30
0.0
 10
13.9423587314
 20
10.5242565567
 30
0.0
 10
13.9454841641
 20
10.5243569388
 30
0.0
 10
13.9475606238
 20
10.5242834748
 30
0.0
 10
13.9485938695
 20
10.5242118133
 30
0.0
  0
SPLINE
  5
34B
100
AcDbEntity
  8
0
100
AcDbSpline
 62
7
  6
CONTINUOUS
 70
0
 71
3
 72
15
 73
11
 74
0
 42
0.0000001
 43
0.0000001
 44
0.0000000001
 40
0.0
 40
0.0
 40
0.0
 40
0.0
 40
0.1273483438
 40
0.2538606048
 40
0.3795878922
 40
0.5046051199
 40
0.6290174392
 40
0.7529533668
 40
0.8765605676
 40
1.0
 40
1.0
 40
1.0
 40
1.0
 10
12.1360027969
 20
10.839875947
 30
0.0
 10
12.1360027969
 20
10.8336238876
 30
0.0
 10
12.1354058442
 20
10.8211521718
 30
0.0
 10
12.1327061879
 20
10.8026844745
 30
0.0
 10
12.1282297057
 20
10.7846808106
 30
0.0
 10
12.1220168405
 20
10.7673095495
 30
0.0
 10
12.1141245761
 20
10.7507309006
 30
0.0
 10
12.1046248514
 20
10.7350979663
 30
0.0
 10
12.0936070321
 20
10.7205571932
 30
0.0
 10
12.0853111525
 20
10.7116749066
 30
0.0
 10
12.080952341
 20
10.7074646528
 30
0.0
  0
SPLINE
  5
34C
100
AcDbEntity
  8
0
100
AcDbSpline
 62
7
  6
CONTINUOUS
 70
0
 71
3
 72
15
 73
11
 74
0
 42
0.0000001
 43
0.0000001
 44
0.0000000001
 40
0.0
 40
0.0
 40
0.0
 40
0.0
 40
0.1273483438
 40
0.2538606048
 40
0.3795878922
 40
0.5046051199
 40
0.6290174392
 40
0.7529533668
 40
0.8765605676
 40
1.0
 40
1.0
 40
1.0
 40
1.0
 10
9.4797066173
 20
6.1944612951
 30
0.0
 10
9.4797066173
 20
6.1882092357
 30
0.0
 10
9.4791096645
 20
6.1757375199
 30
0.0
 10
9.4764100082
 20
6.1572698226
 30
0.0
 10
9.471933526
 20
6.1392661587
 30
0.0
 10
9.4657206609
 20
6.1218948976
 30
0.0
 10
9.4578283964
 20
6.1053162488
 30
0.0
 10
9.4483286717
 20
6.0896833144
 30
0.0
 10
9.4373108524
 20
6.0751425413
 30
0.0
 10
9.4290149728
 20
6.0662602548
 30
0.0
 10
9.4246561613
 20
6.0620500009
 30
0.0
  0
SPLINE
  5
34D
100
AcDbEntity
  8
0
100
AcDbSpline
 62
7
  6
CONTINUOUS
 70
0
 71
3
 72
19
 73
15
 74
0
 42
0.0000001
 43
0.0000001
 44
0.0000000001
 40
0.0
 40
0.0
 40
0.0
 40
0.0
 40
0.0612752893
 40
0.1225786462
 40
0.1839453337
 40
0.2454210731
 40
0.3070439824
 40
0.3688510497
 40
0.4308746181
 40
0.4931409307
 40
0.6184272257
 40
0.7447982371
 40
0.8721118606
 40
1.0
 40
1.0
 40
1.0
 40
1.0
 10
9.3556524348
 20
7.7442049872
 30
0.0
 10
9.3569915892
 20
7.7405184212
 30
0.0
 10
9.3599065762
 20
7.7332269875
 30
0.0
 10
9.3649582283
 20
7.7225833054
 30
0.0
 10
9.3706629659
 20
7.7122599996
 30
0.0
 10
9.376991603
 20
7.7022832426
 30
0.0
 10
9.3839149507
 20
7.6926751403
 30
0.0
 10
9.3914027987
 20
7.683455435
 30
0.0
 10
9.3994252698
 20
7.6746411849
 30
0.0
 10
9.4108150834
 20
7.6634295952
 30
0.0
 10
9.4262526673
 20
7.65050363
 30
0.0
 10
9.446374566
 20
7.6368843016
 30
0.0
 10
9.4678753863
 20
7.6252199917
 30
0.0
 10
9.482935676
 20
7.6188189097
 30
0.0
 10
9.4906114138
 20
7.6159734751
 30
0.0
  0
SPLINE
  5
34E
100
AcDbEntity
  8
0
100
AcDbSpline
 62
7
  6
CONTINUOUS
 70
0
 71
3
 72
15
 73
11
 74
0
 42
0.0000001
 43
0.0000001
 44
0.0000000001
 40
0.0
 40
0.0
 40
0.0
 40
0.0
 40
0.1273483316
 40
0.2538605887
 40
0.3795878789
 40
0.5046051138
 40
0.6290174418
 40
0.7529533759
 40
0.8765605771
 40
1.0
 40
1.0
 40
1.0
 40
1.0
 10
9.5052925237
 20
7.5393234742
 30
0.0
 10
9.5052925237
 20
7.5328250936
 30
0.0
 10
9.5046720582
 20
7.5198620119
 30
0.0
 10
9.5018660681
 20
7.500666712
 30
0.0
 10
9.497213266
 20
7.4819537193
 30
0.0
 10
9.4907556871
 20
7.4638980333
 30
0.0
 10
9.4825525583
 20
7.4466661723
 30
0.0
 10
9.4726786507
 20
7.4304172676
 30
0.0
 10
9.4612268481
 20
7.4153035332
 30
0.0
 10
9.4526041959
 20
7.4060712312
 30
0.0
 10
9.4480736905
 20
7.4016950624
 30
0.0
  0
SPLINE
  5
34F
100
AcDbEntity
  8
0
100
AcDbSpline
 62
7
  6
CONTINUOUS
 70
0
 71
3
 72
41
 73
37
 74
0
 42
0.0000001
 43
0.0000001
 44
0.0000000001
 40
0.0
 40
0.0
 40
0.0
 40
0.0
 40
0.0310747051
 40
0.0623073113
 40
0.0936919989
 40
0.1252208455
 40
0.1568822151
 40
0.1886620094
 40
0.2205435949
 40
0.2525083053
 40
0.2845357889
 40
0.316604441
 40
0.348691836
 40
0.3807751761
 40
0.4128317441
 40
0.4448393548
 40
0.4767767997
 40
0.508624277
 40
0.5403638028
 40
0.5719795929
 40
0.6034584126
 40
0.6347898832
 40
0.6659667393
 40
0.6969850295
 40
0.7278442515
 40
0.7585474165
 40
0.7891010353
 40
0.8195150233
 40
0.84980252
 40
0.8649066417
 40
0.8799854015
 40
0.9100708282
 40
0.9400854833
 40
0.9550762344
 40
0.9700578784
 40
1.0
 40
1.0
 40
1.0
 40
1.0
 10
9.5052925237
 20
7.5393234742
 30
0.0
 10
9.5052925237
 20
7.5443742946
 30
0.0
 10
9.5049157218
 20
7.5545054853
 30
0.0
 10
9.503233517
 20
7.569653744
 30
0.0
 10
9.5004421928
 20
7.5847130924
 30
0.0
 10
9.496557345
 20
7.5995996727
 30
0.0
 10
9.4916003739
 20
7.614232093
 30
0.0
 10
9.4855986647
 20
7.6285299439
 30
0.0
 10
9.478585249
 20
7.6424147865
 30
0.0
 10
9.4705987183
 20
7.6558104259
 30
0.0
 10
9.4616829696
 20
7.6686433621
 30
0.0
 10
9.4518869835
 20
7.6808431799
 30
0.0
 10
9.4412645501
 20
7.6923429319
 30
0.0
 10
9.4298739794
 20
7.7030795021
 30
0.0
 10
9.4177777831
 20
7.7129939486
 30
0.0
 10
9.4050423354
 20
7.7220318241
 30
0.0
 10
9.3917375132
 20
7.7301434721
 30
0.0
 10
9.3779363173
 20
7.7372842975
 30
0.0
 10
9.3637144764
 20
7.7434150106
 30
0.0
 10
9.3491500377
 20
7.7485018424
 30
0.0
 10
9.3343229443
 20
7.7525167308
 30
0.0
 10
9.3193146033
 20
7.755437478
 30
0.0
 10
9.3042074429
 20
7.757247875
 30
0.0
 10
9.2890844709
 20
7.757937797
 30
0.0
 10
9.2740288071
 20
7.7575032588
 30
0.0
 10
9.2591232917
 20
7.7559464739
 30
0.0
 10
9.2444498063
 20
7.7532757454
 30
0.0
 10
9.2300896606
 20
7.7495058282
 30
0.0
 10
9.2184370192
 20
7.7454607076
 30
0.0
 10
9.2093543154
 20
7.7416989177
 30
0.0
 10
9.2004555072
 20
7.7375984824
 30
0.0
 10
9.1896656248
 20
7.7318347563
 30
0.0
 10
9.1793760685
 20
7.7252453977
 30
0.0
 10
9.1714903303
 20
7.7195072105
 30
0.0
 10
9.1638480063
 20
7.7134684759
 30
0.0
 10
9.1583910396
 20
7.7086016397
 30
0.0
 10
9.154890634
 20
7.7052204792
 30
0.0
  0
SPLINE
  5
350
100
AcDbEntity
  8
0
100
AcDbSpline
 62
7
  6
CONTINUOUS
 70
0
 71
3
 72
11
 73
7
 74
0
 42
0.0000001
 43
0.0000001
 44
0.0000000001
 40
0.0
 40
0.0
 40
0.0
 40
0.0
 40
0.2531294361
 40
0.5035870251
 40
0.7522459429
 40
1.0
 40
1.0
 40
1.0
 40
1.0
 10
8.716864554
 20
11.7946134468
 30
0.0
 10
8.7165314103
 20
11.7959408306
 30
0.0
 10
8.715946219
 20
11.7986018198
 30
0.0
 10
8.7153150345
 20
11.8026220805
 30
0.0
 10
8.7149361585
 20
11.8066447627
 30
0.0
 10
8.7148519106
 20
11.8093293828
 30
0.0
 10
8.7148519172
 20
11.8106688719
 30
0.0
  0
SPLINE
  5
351
100
AcDbEntity
  8
0
100
AcDbSpline
 62
7
  6
CONTINUOUS
 70
0
 71
3
 72
18
 73
14
 74
0
 42
0.0000001
 43
0.0000001
 44
0.0000000001
 40
0.0
 40
0.0
 40
0.0
 40
0.0
 40
0.0548620589
 40
0.1099280789
 40
0.165399508
 40
0.2214731255
 40
0.2783387361
 40
0.3361775086
 40
0.4554063416
 40
0.5804417492
 40
0.7123343341
 40
0.8519577333
 40
1.0
 40
1.0
 40
1.0
 40
1.0
 10
10.7038519102
 20
11.8956517663
 30
0.0
 10
10.7038519099
 20
11.8941942944
 30
0.0
 10
10.7037593879
 20
11.8912730951
 30
0.0
 10
10.7033434422
 20
11.8868960488
 30
0.0
 10
10.7026504362
 20
11.8825215249
 30
0.0
 10
10.7016805984
 20
11.8781511209
 30
0.0
 10
10.7004343047
 20
11.8737859403
 30
0.0
 10
10.6983844305
 20
11.8679159426
 30
0.0
 10
10.6951005669
 20
11.8605741471
 30
0.0
 10
10.6901023218
 20
11.8519034587
 30
0.0
 10
10.68401473
 20
11.8432888932
 30
0.0
 10
10.6768470536
 20
11.8347390971
 30
0.0
 10
10.6715161843
 20
11.8292533635
 30
0.0
 10
10.668687422
 20
11.8265209887
 30
0.0
  0
SPLINE
  5
352
100
AcDbEntity
  8
0
100
AcDbSpline
 62
7
  6
CONTINUOUS
 70
0
 71
3
 72
11
 73
7
 74
0
 42
0.0000001
 43
0.0000001
 44
0.0000000001
 40
0.0
 40
0.0
 40
0.0
 40
0.0
 40
0.2532139201
 40
0.5036840038
 40
0.7523066655
 40
1.0
 40
1.0
 40
1.0
 40
1.0
 10
10.6267837168
 20
11.794393686
 30
0.0
 10
10.6271259924
 20
11.7957389578
 30
0.0
 10
10.6277273145
 20
11.7984359507
 30
0.0
 10
10.6283759701
 20
11.8025114077
 30
0.0
 10
10.6287652964
 20
11.8065893962
 30
0.0
 10
10.6288518963
 20
11.8093110046
 30
0.0
 10
10.6288519031
 20
11.8106688719
 30
0.0
  0
SPLINE
  5
353
100
AcDbEntity
  8
0
100
AcDbSpline
 62
7
  6
CONTINUOUS
 70
0
 71
3
 72
41
 73
37
 74
0
 42
0.0000001
 43
0.0000001
 44
0.0000000001
 40
0.0
 40
0.0
 40
0.0
 40
0.0
 40
0.0299421187
 40
0.0449237623
 40
0.0599145134
 40
0.0899291701
 40
0.1200146003
 40
0.1350933624
 40
0.1501974867
 40
0.1804849896
 40
0.2108989845
 40
0.2414526108
 40
0.2721557833
 40
0.3030150127
 40
0.3340333098
 40
0.3652101722
 40
0.3965416482
 40
0.4280204722
 40
0.4596362655
 40
0.4913757931
 40
0.5232232712
 40
0.5551607155
 40
0.5871683244
 40
0.6192248896
 40
0.6513082259
 40
0.6833956162
 40
0.715464263
 40
0.7474917407
 40
0.779456445
 40
0.8113380241
 40
0.8431178121
 40
0.8747791755
 40
0.9063080162
 40
0.9376926983
 40
0.9689252995
 40
1.0
 40
1.0
 40
1.0
 40
1.0
 10
11.7988873442
 20
10.9994840393
 30
0.0
 10
11.8022550491
 20
11.0027369656
 30
0.0
 10
11.807505138
 20
11.0074192191
 30
0.0
 10
11.8148577287
 20
11.0132289198
 30
0.0
 10
11.8224445012
 20
11.0187494686
 30
0.0
 10
11.8323439501
 20
11.0250888987
 30
0.0
 10
11.8427247466
 20
11.030634002
 30
0.0
 10
11.8512861616
 20
11.0345788978
 30
0.0
 10
11.8600244969
 20
11.0381979891
 30
0.0
 10
11.8712353254
 20
11.0420896533
 30
0.0
 10
11.8850509936
 20
11.045716536
 30
0.0
 10
11.8991681131
 20
11.0482859109
 30
0.0
 10
11.9135084576
 20
11.0497835831
 30
0.0
 10
11.9279932509
 20
11.050201565
 30
0.0
 10
11.9425427941
 20
11.0495377274
 30
0.0
 10
11.9570771199
 20
11.0477959048
 30
0.0
 10
11.9715163685
 20
11.0449858383
 30
0.0
 10
11.9857812375
 20
11.0411231228
 30
0.0
 10
11.9997934075
 20
11.0362291144
 30
0.0
 10
12.0134759671
 20
11.0303308113
 30
0.0
 10
12.0267538291
 20
11.0234607023
 30
0.0
 10
12.0395541368
 20
11.0156565872
 30
0.0
 10
12.0518066582
 20
11.0069613701
 30
0.0
 10
12.0634441665
 20
10.9974228245
 30
0.0
 10
12.0744028047
 20
10.9870933332
 30
0.0
 10
12.0846224319
 20
10.9760296028
 30
0.0
 10
12.0940469499
 20
10.9642923558
 30
0.0
 10
12.1026246084
 20
10.9519460008
 30
0.0
 10
12.1103082846
 20
10.9390582826
 30
0.0
 10
12.1170557465
 20
10.9256999141
 30
0.0
 10
12.1228298661
 20
10.9119442003
 30
0.0
 10
12.1275988644
 20
10.8978666056
 30
0.0
 10
12.1313363953
 20
10.88354449
 30
0.0
 10
12.1340218698
 20
10.8690561584
 30
0.0
 10
12.1356402837
 20
10.8544822888
 30
0.0
 10
12.1360027969
 20
10.8447352511
 30
0.0
 10
12.1360027969
 20
10.839875947
 30
0.0
  0
SPLINE
  5
354
100
AcDbEntity
  8
0
100
AcDbSpline
 62
7
  6
CONTINUOUS
 70
0
 71
3
 72
41
 73
37
 74
0
 42
0.0000001
 43
0.0000001
 44
0.0000000001
 40
0.0
 40
0.0
 40
0.0
 40
0.0
 40
0.0299421187
 40
0.0449237623
 40
0.0599145134
 40
0.0899291701
 40
0.1200146003
 40
0.1350933624
 40
0.1501974867
 40
0.1804849896
 40
0.2108989845
 40
0.2414526108
 40
0.2721557833
 40
0.3030150127
 40
0.3340333098
 40
0.3652101722
 40
0.3965416482
 40
0.4280204722
 40
0.4596362655
 40
0.4913757931
 40
0.5232232712
 40
0.5551607155
 40
0.5871683244
 40
0.6192248896
 40
0.6513082259
 40
0.6833956162
 40
0.715464263
 40
0.7474917407
 40
0.779456445
 40
0.8113380241
 40
0.8431178121
 40
0.8747791755
 40
0.9063080162
 40
0.9376926983
 40
0.9689252995
 40
1.0
 40
1.0
 40
1.0
 40
1.0
 10
9.1425911645
 20
6.3540693874
 30
0.0
 10
9.1459588694
 20
6.3573223137
 30
0.0
 10
9.1512089584
 20
6.3620045672
 30
0.0
 10
9.158561549
 20
6.3678142679
 30
0.0
 10
9.1661483215
 20
6.3733348168
 30
0.0
 10
9.1760477704
 20
6.3796742469
 30
0.0
 10
9.1864285669
 20
6.3852193501
 30
0.0
 10
9.194989982
 20
6.3891642459
 30
0.0
 10
9.2037283172
 20
6.3927833373
 30
0.0
 10
9.2149391457
 20
6.3966750014
 30
0.0
 10
9.2287548139
 20
6.4003018841
 30
0.0
 10
9.2428719334
 20
6.402871259
 30
0.0
 10
9.257212278
 20
6.4043689312
 30
0.0
 10
9.2716970712
 20
6.4047869131
 30
0.0
 10
9.2862466145
 20
6.4041230755
 30
0.0
 10
9.3007809402
 20
6.4023812529
 30
0.0
 10
9.3152201888
 20
6.3995711864
 30
0.0
 10
9.3294850579
 20
6.3957084709
 30
0.0
 10
9.3434972278
 20
6.3908144625
 30
0.0
 10
9.3571797874
 20
6.3849161595
 30
0.0
 10
9.3704576494
 20
6.3780460504
 30
0.0
 10
9.3832579571
 20
6.3702419353
 30
0.0
 10
9.3955104785
 20
6.3615467183
 30
0.0
 10
9.4071479868
 20
6.3520081727
 30
0.0
 10
9.418106625
 20
6.3416786813
 30
0.0
 10
9.4283262522
 20
6.3306149509
 30
0.0
 10
9.4377507702
 20
6.3188777039
 30
0.0
 10
9.4463284287
 20
6.3065313489
 30
0.0
 10
9.454012105
 20
6.2936436308
 30
0.0
 10
9.4607595668
 20
6.2802852622
 30
0.0
 10
9.4665336864
 20
6.2665295484
 30
0.0
 10
9.4713026848
 20
6.2524519537
 30
0.0
 10
9.4750402156
 20
6.2381298381
 30
0.0
 10
9.4777256901
 20
6.2236415066
 30
0.0
 10
9.479344104
 20
6.2090676369
 30
0.0
 10
9.4797066173
 20
6.1993205992
 30
0.0
 10
9.4797066173
 20
6.1944612951
 30
0.0
  0
SPLINE
  5
355
100
AcDbEntity
  8
0
100
AcDbSpline
 62
7
  6
CONTINUOUS
 70
0
 71
3
 72
81
 73
77
 74
0
 42
0.0000001
 43
0.0000001
 44
0.0000000001
 40
0.0
 40
0.0
 40
0.0
 40
0.0
 40
0.0027164306
 40
0.0054532406
 40
0.0082303113
 40
0.0110666128
 40
0.0139798282
 40
0.0169861412
 40
0.0201001195
 40
0.0233346405
 40
0.0267010082
 40
0.0302089739
 40
0.0338668927
 40
0.0376818791
 40
0.0416598591
 40
0.0458058003
 40
0.0501237459
 40
0.0546169413
 40
0.0592879758
 40
0.0641387574
 40
0.0691706959
 40
0.0743846914
 40
0.0853596139
 40
0.0970634815
 40
0.1094902477
 40
0.1226295218
 40
0.1364672103
 40
0.1509860393
 40
0.1661659502
 40
0.1819844132
 40
0.1984166695
 40
0.2154359556
 40
0.233013703
 40
0.2511197005
 40
0.2697222361
 40
0.2887882189
 40
0.3082833183
 40
0.3281720849
 40
0.3484180605
 40
0.368983879
 40
0.38983137
 40
0.4109216725
 40
0.4536716934
 40
0.496913714
 40
0.5403220126
 40
0.5835692765
 40
0.6263297382
 40
0.6474271808
 40
0.6682830633
 40
0.6888585076
 40
0.7091153275
 40
0.7290161282
 40
0.7485244101
 40
0.7676046883
 40
0.786222604
 40
0.804345033
 40
0.8219402078
 40
0.8389778539
 40
0.8554293539
 40
0.8712678975
 40
0.8864686613
 40
0.9010090234
 40
0.9148688331
 40
0.9280307344
 40
0.9404805411
 40
0.9522077238
 40
0.9577984982
 40
0.963206723
 40
0.9684324181
 40
0.9734760178
 40
0.9783383767
 40
0.9830208243
 40
0.9875253764
 40
0.9918546118
 40
0.9960116
 40
1.0
 40
1.0
 40
1.0
 40
1.0
 10
13.8469614316
 20
9.0587317651
 30
0.0
 10
13.8455905792
 20
9.0588268415
 30
0.0
 10
13.8428456095
 20
9.059141792
 30
0.0
 10
13.8387631174
 20
9.0599846114
 30
0.0
 10
13.8347114607
 20
9.0611975659
 30
0.0
 10
13.8306935632
 20
9.0627796132
 30
0.0
 10
13.82671148
 20
9.0647292645
 30
0.0
 10
13.8227672354
 20
9.0670449908
 30
0.0
 10
13.8188627083
 20
9.0697252238
 30
0.0
 10
13.8149995458
 20
9.0727681491
 30
0.0
 10
13.8111794996
 20
9.076172092
 30
0.0
 10
13.8074041749
 20
9.0799351381
 30
0.0
 10
13.8036752002
 20
9.084055318
 30
0.0
 10
13.7999943046
 20
9.0885305959
 30
0.0
 10
13.7963630589
 20
9.0933586723
 30
0.0
 10
13.7927832165
 20
9.0985372143
 30
0.0
 10
13.7892564323
 20
9.1040636511
 30
0.0
 10
13.7857843528
 20
9.1099352497
 30
0.0
 10
13.7823687303
 20
9.1161491548
 30
0.0
 10
13.7790111518
 20
9.1227022564
 30
0.0
 10
13.7757132769
 20
9.1295913508
 30
0.0
 10
13.7713227566
 20
9.1393883501
 30
0.0
 10
13.7660133058
 20
9.1524667238
 30
0.0
 10
13.7600097502
 20
9.1691841935
 30
0.0
 10
13.7542816166
 20
9.1871503613
 30
0.0
 10
13.7488404323
 20
9.2063294594
 30
0.0
 10
13.7436971704
 20
9.2266835797
 30
0.0
 10
13.7388622614
 20
9.2481721857
 30
0.0
 10
13.7343455297
 20
9.2707524106
 30
0.0
 10
13.7301561727
 20
9.2943791069
 30
0.0
 10
13.7263027132
 20
9.3190049583
 30
0.0
 10
13.7227929868
 20
9.344580588
 30
0.0
 10
13.7196341379
 20
9.3710546799
 30
0.0
 10
13.7168325997
 20
9.3983740908
 30
0.0
 10
13.7143940847
 20
9.4264839531
 30
0.0
 10
13.71232355
 20
9.4553277864
 30
0.0
 10
13.7106252095
 20
9.4848476192
 30
0.0
 10
13.7093025267
 20
9.5149841147
 30
0.0
 10
13.7083582063
 20
9.5456766939
 30
0.0
 10
13.7077941956
 20
9.576863632
 30
0.0
 10
13.7076116155
 20
9.6084822658
 30
0.0
 10
13.7078786397
 20
9.6513228271
 30
0.0
 10
13.7091741966
 20
9.7054817735
 30
0.0
 10
13.7122274707
 20
9.7708749212
 30
0.0
 10
13.7167622204
 20
9.8364344017
 30
0.0
 10
13.722742034
 20
9.901633073
 30
0.0
 10
13.7289162276
 20
9.9554661475
 30
0.0
 10
13.7345508841
 20
9.9979486318
 30
0.0
 10
13.7390858898
 20
10.0292537424
 30
0.0
 10
13.7439393888
 20
10.0600806417
 30
0.0
 10
13.7491016319
 20
10.0903673947
 30
0.0
 10
13.7545621947
 20
10.1200530965
 30
0.0
 10
13.7603100692
 20
10.1490780709
 30
0.0
 10
13.7663336504
 20
10.1773839809
 30
0.0
 10
13.7726207704
 20
10.2049139539
 30
0.0
 10
13.7791587322
 20
10.2316126883
 30
0.0
 10
13.7859343309
 20
10.2574265647
 30
0.0
 10
13.7929338852
 20
10.2823037652
 30
0.0
 10
13.8001432421
 20
10.3061943936
 30
0.0
 10
13.8075478283
 20
10.3290505769
 30
0.0
 10
13.8151326802
 20
10.350826557
 30
0.0
 10
13.8228824831
 20
10.3714788077
 30
0.0
 10
13.8307816
 20
10.3909661087
 30
0.0
 10
13.8388141181
 20
10.409249804
 30
0.0
 10
13.8469638765
 20
10.4262933912
 30
0.0
 10
13.8539463018
 20
10.4396398297
 30
0.0
 10
13.8595898908
 20
10.4496565094
 30
0.0
 10
13.8637741599
 20
10.4567181357
 30
0.0
 10
13.8679755066
 20
10.463445455
 30
0.0
 10
13.8721918514
 20
10.4698351291
 30
0.0
 10
13.8764210489
 20
10.4758839948
 30
0.0
 10
13.8806611115
 20
10.4815890426
 30
0.0
 10
13.8849099461
 20
10.4869475436
 30
0.0
 10
13.889165605
 20
10.4919568446
 30
0.0
 10
13.8934257513
 20
10.496614227
 30
0.0
 10
13.8963264901
 20
10.4995426372
 30
0.0
 10
13.8977776506
 20
10.5009443506
 30
0.0
  0
SPLINE
  5
356
100
AcDbEntity
  8
0
100
AcDbSpline
 62
7
  6
CONTINUOUS
 70
0
 71
3
 72
68
 73
64
 74
0
 42
0.0000001
 43
0.0000001
 44
0.0000000001
 40
0.0
 40
0.0
 40
0.0
 40
0.0
 40
0.002796663
 40
0.0056682324
 40
0.0116913836
 40
0.0148722352
 40
0.0181793745
 40
0.0216220081
 40
0.0252080899
 40
0.028944343
 40
0.0328364748
 40
0.0368892721
 40
0.0411066266
 40
0.0454917473
 40
0.0500471784
 40
0.0596753103
 40
0.0700017947
 40
0.0810296288
 40
0.0927563455
 40
0.1051750163
 40
0.1182749484
 40
0.1320421585
 40
0.1464598466
 40
0.1615087558
 40
0.1771673941
 40
0.1934122489
 40
0.2102180325
 40
0.2275578283
 40
0.2454031873
 40
0.2637243074
 40
0.2824901626
 40
0.301668574
 40
0.3212263213
 40
0.3411292757
 40
0.3818294691
 40
0.4234818686
 40
0.4657895122
 40
0.5084493897
 40
0.5511552723
 40
0.5936005121
 40
0.6354808477
 40
0.6764971877
 40
0.7163584987
 40
0.7357683917
 40
0.754785535
 40
0.7733771129
 40
0.7915113792
 40
0.8091577948
 40
0.8262870959
 40
0.8428714129
 40
0.8588844611
 40
0.8743016615
 40
0.8891002805
 40
0.9032596728
 40
0.916761546
 40
0.9295901962
 40
0.941732877
 40
0.9531803244
 40
0.9639273456
 40
0.9739735021
 40
0.9833241884
 40
0.9919926297
 40
1.0
 40
1.0
 40
1.0
 40
1.0
 10
13.8172610767
 20
9.2220556692
 30
0.0
 10
13.8162257608
 20
9.2224217093
 30
0.0
 10
13.814157152
 20
9.2232507791
 30
0.0
 10
13.8100388322
 20
9.2252869966
 30
0.0
 10
13.8060350862
 20
9.2278607674
 30
0.0
 10
13.8021703509
 20
9.2308962827
 30
0.0
 10
13.7992502398
 20
9.2334839731
 30
0.0
 10
13.7963636563
 20
9.2363392915
 30
0.0
 10
13.7935114654
 20
9.2394611297
 30
0.0
 10
13.7906949231
 20
9.2428478406
 30
0.0
 10
13.787915235
 20
9.2464978558
 30
0.0
 10
13.7851736783
 20
9.2504094779
 30
0.0
 10
13.7824714147
 20
9.2545808213
 30
0.0
 10
13.779809672
 20
9.2590099683
 30
0.0
 10
13.7762505834
 20
9.2653744637
 30
0.0
 10
13.7719258508
 20
9.2739778123
 30
0.0
 10
13.767009197
 20
9.2851099084
 30
0.0
 10
13.7622828807
 20
9.2972128484
 30
0.0
 10
13.757755791
 20
9.3102638307
 30
0.0
 10
13.7534365054
 20
9.3242385852
 30
0.0
 10
13.7493333328
 20
9.3391107983
 30
0.0
 10
13.7454541495
 20
9.3548523516
 30
0.0
 10
13.7418064393
 20
9.3714333709
 30
0.0
 10
13.7383972785
 20
9.3888223289
 30
0.0
 10
13.7352332731
 20
9.4069860927
 30
0.0
 10
13.7323205296
 20
9.4258899982
 30
0.0
 10
13.7296646972
 20
9.4454979457
 30
0.0
 10
13.7272709433
 20
9.4657724663
 30
0.0
 10
13.7251438856
 20
9.4866747867
 30
0.0
 10
13.7232876403
 20
9.5081649172
 30
0.0
 10
13.7217058205
 20
9.5302017422
 30
0.0
 10
13.7204015023
 20
9.552743073
 30
0.0
 10
13.7193771644
 20
9.5757457885
 30
0.0
 10
13.7183801183
 20
9.6072061361
 30
0.0
 10
13.717859262
 20
9.6473580136
 30
0.0
 10
13.7183713789
 20
9.6963077302
 30
0.0
 10
13.7200129409
 20
9.746002485
 30
0.0
 10
13.7227715352
 20
9.7960618975
 30
0.0
 10
13.7266261657
 20
9.8461030534
 30
0.0
 10
13.7315473229
 20
9.8957430756
 30
0.0
 10
13.7374970947
 20
9.9446023225
 30
0.0
 10
13.7444297339
 20
9.9923068685
 30
0.0
 10
13.7510383021
 20
10.0311312449
 30
0.0
 10
13.7567908285
 20
10.0613291596
 30
0.0
 10
13.7612774281
 20
10.0832642928
 30
0.0
 10
13.7659656819
 20
10.1046447279
 30
0.0
 10
13.7708466313
 20
10.125429578
 30
0.0
 10
13.7759108579
 20
10.1455790811
 30
0.0
 10
13.7811486227
 20
10.1650547065
 30
0.0
 10
13.78654987
 20
10.1838192191
 30
0.0
 10
13.7921041923
 20
10.2018367819
 30
0.0
 10
13.7978008901
 20
10.2190730163
 30
0.0
 10
13.8036290178
 20
10.2354950561
 30
0.0
 10
13.8095773771
 20
10.2510716408
 30
0.0
 10
13.8156345178
 20
10.2657732015
 30
0.0
 10
13.8217888268
 20
10.2795718982
 30
0.0
 10
13.8280285745
 20
10.2924416892
 30
0.0
 10
13.8343418739
 20
10.3043584558
 30
0.0
 10
13.8407168661
 20
10.3153000482
 30
0.0
 10
13.8471416856
 20
10.325246197
 30
0.0
 10
13.8536049975
 20
10.3341791926
 30
0.0
 10
13.8600948972
 20
10.3420820512
 30
0.0
 10
13.8646065992
 20
10.3468383959
 30
0.0
 10
13.8668680216
 20
10.3490227622
 30
0.0
  0
SPLINE
  5
357
100
AcDbEntity
  8
0
100
AcDbSpline
 62
7
  6
CONTINUOUS
 70
0
 71
3
 72
15
 73
11
 74
0
 42
0.0000001
 43
0.0000001
 44
0.0000000001
 40
0.0
 40
0.0
 40
0.0
 40
0.0
 40
0.1084413994
 40
0.2203207431
 40
0.3363918
 40
0.4573219028
 40
0.5836918599
 40
0.7160007178
 40
0.8546601937
 40
1.0
 40
1.0
 40
1.0
 40
1.0
 10
13.8966316431
 20
10.3665511115
 30
0.0
 10
13.8953922198
 20
10.3662981058
 30
0.0
 10
13.8928972706
 20
10.3656636614
 30
0.0
 10
13.8891910023
 20
10.3643607476
 30
0.0
 10
13.8854726958
 20
10.362695576
 30
0.0
 10
13.8817450377
 20
10.3606697563
 30
0.0
 10
13.8780098467
 20
10.3582850621
 30
0.0
 10
13.8742691905
 20
10.3555431844
 30
0.0
 10
13.8705253365
 20
10.352446303
 30
0.0
 10
13.8680874513
 20
10.350200641
 30
0.0
 10
13.8668680216
 20
10.3490227622
 30
0.0
  0
SPLINE
  5
358
100
AcDbEntity
  8
0
100
AcDbSpline
 62
7
  6
CONTINUOUS
 70
0
 71
3
 72
79
 73
75
 74
0
 42
0.0000001
 43
0.0000001
 44
0.0000000001
 40
0.0
 40
0.0
 40
0.0
 40
0.0
 40
0.0040522647
 40
0.0082800199
 40
0.0126871223
 40
0.0172767596
 40
0.0220515951
 40
0.0270137206
 40
0.0321645205
 40
0.0375048004
 40
0.0487542551
 40
0.0607611631
 40
0.0735182664
 40
0.0870137126
 40
0.1012317553
 40
0.116153243
 40
0.1317560847
 40
0.1480155893
 40
0.1649047168
 40
0.1823942891
 40
0.2004532296
 40
0.2190487398
 40
0.238146435
 40
0.2577104791
 40
0.2777037522
 40
0.2980879759
 40
0.3188238175
 40
0.3398710073
 40
0.3827336737
 40
0.4263405756
 40
0.4703478805
 40
0.5144077317
 40
0.5581717467
 40
0.6012945073
 40
0.6434371064
 40
0.6640380212
 40
0.6842715837
 40
0.7040988619
 40
0.7234820049
 40
0.7423843946
 40
0.7607707732
 40
0.7786073595
 40
0.7958619971
 40
0.8125043553
 40
0.8285061007
 40
0.8438410828
 40
0.858485583
 40
0.8724186541
 40
0.8856224624
 40
0.8980827203
 40
0.9097892811
 40
0.920736959
 40
0.925926637
 40
0.9309274468
 40
0.9357406726
 40
0.9403681574
 40
0.9448123458
 40
0.9490764891
 40
0.9531646097
 40
0.9570816787
 40
0.9608337757
 40
0.9644281207
 40
0.9678733341
 40
0.971179529
 40
0.9743584204
 40
0.9774235233
 40
0.9803901223
 40
0.9832752901
 40
0.9860977765
 40
0.9888777105
 40
0.9916362588
 40
0.9943951193
 40
0.9971759868
 40
1.0
 40
1.0
 40
1.0
 40
1.0
 10
13.8668680216
 20
9.2382079962
 30
0.0
 10
13.8680320244
 20
9.2393323367
 30
0.0
 10
13.8703587029
 20
9.2416837643
 30
0.0
 10
13.8737740115
 20
9.245428174
 30
0.0
 10
13.8771855757
 20
9.2494614214
 30
0.0
 10
13.880591385
 20
9.2537812174
 30
0.0
 10
13.8839898136
 20
9.2583852889
 30
0.0
 10
13.8873791002
 20
9.2632713354
 30
0.0
 10
13.8907575969
 20
9.2684368338
 30
0.0
 10
13.8953249256
 20
9.2758218497
 30
0.0
 10
13.9009815947
 20
9.2857479124
 30
0.0
 10
13.9075857119
 20
9.2985284735
 30
0.0
 10
13.914105045
 20
9.3123508089
 30
0.0
 10
13.9205258698
 20
9.3271860842
 30
0.0
 10
13.9268346604
 20
9.343003575
 30
0.0
 10
13.9330180948
 20
9.3597702486
 30
0.0
 10
13.9390630815
 20
9.3774510292
 30
0.0
 10
13.9449568019
 20
9.3960088547
 30
0.0
 10
13.9506867513
 20
9.4154047618
 30
0.0
 10
13.9562407981
 20
9.435597966
 30
0.0
 10
13.9616071693
 20
9.4565459788
 30
0.0
 10
13.9667744832
 20
9.4782047067
 30
0.0
 10
13.9717317838
 20
9.5005285334
 30
0.0
 10
13.9764685845
 20
9.5234704144
 30
0.0
 10
13.9809748576
 20
9.5469819983
 30
0.0
 10
13.9852410436
 20
9.571013718
 30
0.0
 10
13.9892581478
 20
9.5955149433
 30
0.0
 10
13.9943011473
 20
9.628942244
 30
0.0
 10
13.9999114813
 20
9.6715176146
 30
0.0
 10
14.0054913654
 20
9.7233309588
 30
0.0
 10
14.0099113455
 20
9.7757360104
 30
0.0
 10
14.0131340631
 20
9.8282910733
 30
0.0
 10
14.0151324977
 20
9.8805535637
 30
0.0
 10
14.0158899402
 20
9.9320829892
 30
0.0
 10
14.0154793851
 20
9.974365534
 30
0.0
 10
14.0145115002
 20
10.0074906263
 30
0.0
 10
14.0134801235
 20
10.0316958214
 30
0.0
 10
14.0121401655
 20
10.0553988083
 30
0.0
 10
14.0104944391
 20
10.078549655
 30
0.0
 10
14.0085464779
 20
10.1010995567
 30
0.0
 10
14.0063004523
 20
10.1230010072
 30
0.0
 10
14.0037611607
 20
10.1442078721
 30
0.0
 10
14.0009340109
 20
10.1646754978
 30
0.0
 10
13.9978250496
 20
10.1843608229
 30
0.0
 10
13.9944409275
 20
10.2032224744
 30
0.0
 10
13.9907888707
 20
10.2212208481
 30
0.0
 10
13.9868766548
 20
10.2383182053
 30
0.0
 10
13.9827126288
 20
10.2544788028
 30
0.0
 10
13.9783056595
 20
10.2696689363
 30
0.0
 10
13.9736650665
 20
10.2838571835
 30
0.0
 10
13.9688006063
 20
10.2970139546
 30
0.0
 10
13.9644953562
 20
10.3072715783
 30
0.0
 10
13.9609346879
 20
10.3149267638
 30
0.0
 10
13.9582622406
 20
10.3202906874
 30
0.0
 10
13.95554161
 20
10.3253771413
 30
0.0
 10
13.9527741711
 20
10.330183517
 30
0.0
 10
13.9499612617
 20
10.3347072899
 30
0.0
 10
13.9471043687
 20
10.3389461696
 30
0.0
 10
13.9442048659
 20
10.3428979546
 30
0.0
 10
13.9412641286
 20
10.3465605758
 30
0.0
 10
13.9382836319
 20
10.349932184
 30
0.0
 10
13.9352646805
 20
10.3530109334
 30
0.0
 10
13.9322086864
 20
10.3557951723
 30
0.0
 10
13.9291170532
 20
10.3582833585
 30
0.0
 10
13.9259910919
 20
10.3604738825
 30
0.0
 10
13.9228323142
 20
10.3623653838
 30
0.0
 10
13.9196422106
 20
10.3639564305
 30
0.0
 10
13.9164224249
 20
10.3652456298
 30
0.0
 10
13.9131748572
 20
10.3662319021
 30
0.0
 10
13.9099015158
 20
10.3669141128
 30
0.0
 10
13.9066046993
 20
10.3672915893
 30
0.0
 10
13.9032866954
 20
10.3673640286
 30
0.0
 10
13.8999502182
 20
10.3671313817
 30
0.0
 10
13.8977366762
 20
10.3667766838
 30
0.0
 10
13.8966316431
 20
10.3665511115
 30
0.0
  0
SPLINE
  5
359
100
AcDbEntity
  8
0
100
AcDbSpline
 62
7
  6
CONTINUOUS
 70
0
 71
3
 72
52
 73
48
 74
0
 42
0.0000001
 43
0.0000001
 44
0.0000000001
 40
0.0
 40
0.0
 40
0.0
 40
0.0
 40
0.0094818577
 40
0.0194713015
 40
0.0299664481
 40
0.0409632659
 40
0.0524559718
 40
0.0644370789
 40
0.0768977921
 40
0.0898279277
 40
0.1032162242
 40
0.1170503195
 40
0.1313168881
 40
0.1460017471
 40
0.1765646313
 40
0.2086107016
 40
0.2420002666
 40
0.2765845375
 40
0.3122069364
 40
0.3487043068
 40
0.3859080686
 40
0.4236453367
 40
0.4617400126
 40
0.5000138615
 40
0.5382875826
 40
0.5763818747
 40
0.6141185035
 40
0.6513213726
 40
0.6878176039
 40
0.7234386281
 40
0.7580212998
 40
0.7914090501
 40
0.8234530998
 40
0.838927537
 40
0.8540145038
 40
0.8686981622
 40
0.8829635309
 40
0.8967963545
 40
0.9101833579
 40
0.9231121704
 40
0.9355715058
 40
0.9475512505
 40
0.9590425161
 40
0.9700379312
 40
0.9805316139
 40
0.9905196223
 40
1.0
 40
1.0
 40
1.0
 40
1.0
 10
13.756970821
 20
9.3131629884
 30
0.0
 10
13.7586330243
 20
9.3158260437
 30
0.0
 10
13.7619400381
 20
9.3213616376
 30
0.0
 10
13.7667358106
 20
9.3300485934
 30
0.0
 10
13.7714904881
 20
9.3393254234
 30
0.0
 10
13.7761981414
 20
9.3491805393
 30
0.0
 10
13.7808528599
 20
9.35960186
 30
0.0
 10
13.7854489184
 20
9.3705764547
 30
0.0
 10
13.7899804857
 20
9.3820907419
 30
0.0
 10
13.794441963
 20
9.3941304062
 30
0.0
 10
13.7988277164
 20
9.4066804859
 30
0.0
 10
13.8031322579
 20
9.4197253521
 30
0.0
 10
13.8073502474
 20
9.4332487674
 30
0.0
 10
13.8129259905
 20
9.4521479548
 30
0.0
 10
13.8196228224
 20
9.4768502075
 30
0.0
 10
13.8271303402
 20
9.5077370767
 30
0.0
 10
13.83417449
 20
9.5400966266
 30
0.0
 10
13.8407198017
 20
9.5737674227
 30
0.0
 10
13.8467332913
 20
9.6085816723
 30
0.0
 10
13.8521847032
 20
9.6443656854
 30
0.0
 10
13.8570466333
 20
9.6809408859
 30
0.0
 10
13.8612946662
 20
9.7181246922
 30
0.0
 10
13.8649074928
 20
9.7557314529
 30
0.0
 10
13.8678670142
 20
9.7935733825
 30
0.0
 10
13.870158432
 20
9.8314615096
 30
0.0
 10
13.8717703215
 20
9.8692066282
 30
0.0
 10
13.8726946896
 20
9.9066202532
 30
0.0
 10
13.8729270201
 20
9.9435155695
 30
0.0
 10
13.8724663018
 20
9.9797083843
 30
0.0
 10
13.8713150266
 20
10.015018036
 30
0.0
 10
13.869479218
 20
10.0492684048
 30
0.0
 10
13.8669682889
 20
10.082288493
 30
0.0
 10
13.8642940776
 20
10.1089441042
 30
0.0
 10
13.8618130414
 20
10.1295229141
 30
0.0
 10
13.8598139187
 20
10.1443690797
 30
0.0
 10
13.8576573431
 20
10.1587885883
 30
0.0
 10
13.8553460721
 20
10.1727634705
 30
0.0
 10
13.8528829499
 20
10.1862762986
 30
0.0
 10
13.850271136
 20
10.1993102354
 30
0.0
 10
13.8475138805
 20
10.2118490512
 30
0.0
 10
13.8446146581
 20
10.2238771487
 30
0.0
 10
13.8415771405
 20
10.2353795855
 30
0.0
 10
13.8384050785
 20
10.2463420933
 30
0.0
 10
13.835102538
 20
10.2567510992
 30
0.0
 10
13.8316735179
 20
10.2665937956
 30
0.0
 10
13.8281224616
 20
10.2758579133
 30
0.0
 10
13.825610964
 20
10.281795849
 30
0.0
 10
13.8243321712
 20
10.2846622747
 30
0.0
  0
SPLINE
  5
35A
100
AcDbEntity
  8
0
100
AcDbSpline
 62
7
  6
CONTINUOUS
 70
0
 71
3
 72
39
 73
35
 74
0
 42
0.0000001
 43
0.0000001
 44
0.0000000001
 40
0.0
 40
0.0
 40
0.0
 40
0.0
 40
0.0235351883
 40
0.0484694396
 40
0.0747423007
 40
0.1022857541
 40
0.1310251446
 40
0.1608799497
 40
0.1917644437
 40
0.223588287
 40
0.2562570646
 40
0.2896727894
 40
0.3237343793
 40
0.3583381226
 40
0.3933781297
 40
0.4287467762
 40
0.4643351398
 40
0.5000334351
 40
0.5357314458
 40
0.5713189558
 40
0.6066861813
 40
0.6417242034
 40
0.676325405
 40
0.7103839081
 40
0.7437960164
 40
0.7764606657
 40
0.8082798864
 40
0.8391592819
 40
0.8690085324
 40
0.8977419339
 40
0.9252789888
 40
0.9515450744
 40
0.9764722134
 40
1.0
 40
1.0
 40
1.0
 40
1.0
 10
13.7344544732
 20
9.4125405988
 30
0.0
 10
13.7367767974
 20
9.4182651846
 30
0.0
 10
13.7413470653
 20
9.4301415949
 30
0.0
 10
13.7478234276
 20
9.4486635331
 30
0.0
 10
13.7541023989
 20
9.468360488
 30
0.0
 10
13.7601630462
 20
9.4891677543
 30
0.0
 10
13.7659852926
 20
9.5110172806
 30
0.0
 10
13.7715498193
 20
9.5338373722
 30
0.0
 10
13.7768381812
 20
9.5575531094
 30
0.0
 10
13.7818328549
 20
9.5820865643
 30
0.0
 10
13.7865172997
 20
9.6073570822
 30
0.0
 10
13.7908760099
 20
9.6332815516
 30
0.0
 10
13.7948945675
 20
9.6597746852
 30
0.0
 10
13.7985596867
 20
9.6867493065
 30
0.0
 10
13.8018592567
 20
9.7141166422
 30
0.0
 10
13.8047823808
 20
9.7417866168
 30
0.0
 10
13.8073194116
 20
9.7696681523
 30
0.0
 10
13.8094619826
 20
9.7976694698
 30
0.0
 10
13.8112030354
 20
9.8256983932
 30
0.0
 10
13.8125368431
 20
9.8536626543
 30
0.0
 10
13.8134590289
 20
9.8814701985
 30
0.0
 10
13.8139665825
 20
9.90902949
 30
0.0
 10
13.8140578714
 20
9.9362498166
 30
0.0
 10
13.8137326449
 20
9.9630415901
 30
0.0
 10
13.8129920368
 20
9.989316645
 30
0.0
 10
13.8118385624
 20
10.0149885316
 30
0.0
 10
13.8102761127
 20
10.0399728054
 30
0.0
 10
13.8083099424
 20
10.064187312
 30
0.0
 10
13.8059466565
 20
10.0875524627
 30
0.0
 10
13.8031941873
 20
10.1099915213
 30
0.0
 10
13.8000617783
 20
10.1314308277
 30
0.0
 10
13.7965599256
 20
10.1518002281
 30
0.0
 10
13.7927004466
 20
10.1710327711
 30
0.0
 10
13.7898120499
 20
10.1834221517
 30
0.0
 10
13.78830155
 20
10.1894103451
 30
0.0
  0
SPLINE
  5
35B
100
AcDbEntity
  8
0
100
AcDbSpline
 62
7
  6
CONTINUOUS
 70
0
 71
3
 72
39
 73
35
 74
0
 42
0.0000001
 43
0.0000001
 44
0.0000000001
 40
0.0
 40
0.0
 40
0.0
 40
0.0
 40
0.0311159723
 40
0.0620233248
 40
0.0927351404
 40
0.1232711776
 40
0.1536587326
 40
0.1839312111
 40
0.2141268393
 40
0.2442870992
 40
0.2744549754
 40
0.3046731314
 40
0.3349820899
 40
0.3654185435
 40
0.3960138648
 40
0.4267928822
 40
0.4577729963
 40
0.4889636214
 40
0.5203659689
 40
0.551973178
 40
0.5837707188
 40
0.6157370639
 40
0.6478445901
 40
0.6800606405
 40
0.7123487311
 40
0.7446698622
 40
0.7769838843
 40
0.8092508939
 40
0.8414326243
 40
0.8734937998
 40
0.9054034123
 40
0.9371359058
 40
0.9686717941
 40
1.0
 40
1.0
 40
1.0
 40
1.0
 10
9.0131644155
 20
7.5549641965
 30
0.0
 10
9.0131644155
 20
7.5637813967
 30
0.0
 10
9.0140252134
 20
7.5813694372
 30
0.0
 10
9.0179181556
 20
7.6073998601
 30
0.0
 10
9.0243717866
 20
7.6327503014
 30
0.0
 10
9.033325082
 20
7.6571727292
 30
0.0
 10
9.0446922953
 20
7.6804318343
 30
0.0
 10
9.0583643238
 20
7.7023022703
 30
0.0
 10
9.0742095115
 20
7.7225722332
 30
0.0
 10
9.0920747335
 20
7.7410454396
 30
0.0
 10
9.111787205
 20
7.7575430295
 30
0.0
 10
9.1331560764
 20
7.7719054396
 30
0.0
 10
9.1559743163
 20
7.7839941889
 30
0.0
 10
9.1800210363
 20
7.7936929283
 30
0.0
 10
9.2050635995
 20
7.8009087018
 30
0.0
 10
9.2308599768
 20
7.8055728908
 30
0.0
 10
9.2571612201
 20
7.8076414545
 30
0.0
 10
9.2837138064
 20
7.8070955024
 30
0.0
 10
9.3102621245
 20
7.8039414105
 30
0.0
 10
9.3365508688
 20
7.7982103812
 30
0.0
 10
9.3623274571
 20
7.7899583753
 30
0.0
 10
9.3873444394
 20
7.779265478
 30
0.0
 10
9.4113617077
 20
7.7662348786
 30
0.0
 10
9.4341488575
 20
7.7509921688
 30
0.0
 10
9.4554873365
 20
7.7336840246
 30
0.0
 10
9.4751723525
 20
7.7144766682
 30
0.0
 10
9.4930150074
 20
7.693554558
 30
0.0
 10
9.5088439891
 20
7.6711184891
 30
0.0
 10
9.5225070459
 20
7.6473836689
 30
0.0
 10
9.5338727111
 20
7.6225777759
 30
0.0
 10
9.5428313907
 20
7.5969390689
 30
0.0
 10
9.5492962206
 20
7.5707127694
 30
0.0
 10
9.5532045528
 20
7.5441540808
 30
0.0
 10
9.5540829103
 20
7.5263287114
 30
0.0
 10
9.5540829103
 20
7.5174513715
 30
0.0
  0
SPLINE
  5
35C
100
AcDbEntity
  8
0
100
AcDbSpline
 62
7
  6
CONTINUOUS
 70
0
 71
3
 72
83
 73
79
 74
0
 42
0.0000001
 43
0.0000001
 44
0.0000000001
 40
0.0
 40
0.0
 40
0.0
 40
0.0
 40
0.0030110524
 40
0.0061198839
 40
0.0093380493
 40
0.0126757589
 40
0.0161419541
 40
0.0197444145
 40
0.0234897945
 40
0.0273838023
 40
0.0314312273
 40
0.0356360709
 40
0.040001642
 40
0.044530575
 40
0.0492249853
 40
0.0540864413
 40
0.0591160752
 40
0.0643146212
 40
0.0696824091
 40
0.0752194832
 40
0.080925538
 40
0.0868000174
 40
0.099050325
 40
0.111961647
 40
0.1255214856
 40
0.1397145396
 40
0.1545230405
 40
0.169927024
 40
0.1859045523
 40
0.2024318959
 40
0.2194837044
 40
0.2370331548
 40
0.2550520786
 40
0.2735110785
 40
0.2923796313
 40
0.3116261926
 40
0.3312182988
 40
0.3511226604
 40
0.3713052507
 40
0.391731392
 40
0.4123658408
 40
0.4331728786
 40
0.4751592968
 40
0.5173992396
 40
0.5595983108
 40
0.6014624861
 40
0.6221782063
 40
0.642701466
 40
0.6629968026
 40
0.6830292769
 40
0.7027645581
 40
0.7221690138
 40
0.7412098035
 40
0.7598549663
 40
0.7780735145
 40
0.7958355327
 40
0.8131122847
 40
0.8298763348
 40
0.8461016659
 40
0.8617638131
 40
0.8768400162
 40
0.8913093977
 40
0.9051531799
 40
0.9183549326
 40
0.9309008701
 40
0.9427802316
 40
0.9484677837
 40
0.9539863141
 40
0.9593355425
 40
0.9645155477
 40
0.9695267185
 40
0.9743698064
 40
0.9790459865
 40
0.9835568616
 40
0.9879046689
 40
0.9920922007
 40
0.9961227154
 40
1.0
 40
1.0
 40
1.0
 40
1.0
 10
10.6972874038
 20
11.865843128
 30
0.0
 10
10.6964375576
 20
11.8677839195
 30
0.0
 10
10.6945675417
 20
11.8716674148
 30
0.0
 10
10.6913257932
 20
11.877387647
 30
0.0
 10
10.6876076425
 20
11.8830867021
 30
0.0
 10
10.6834153638
 20
11.8887617878
 30
0.0
 10
10.6787510986
 20
11.8944106738
 30
0.0
 10
10.6736170903
 20
11.9000308782
 30
0.0
 10
10.6680158948
 20
11.9056201349
 30
0.0
 10
10.6619500594
 20
11.9111759509
 30
0.0
 10
10.6554224488
 20
11.9166959682
 30
0.0
 10
10.6484360717
 20
11.9221777653
 30
0.0
 10
10.6409941042
 20
11.9276188418
 30
0.0
 10
10.6331000229
 20
11.933016852
 30
0.0
 10
10.6247574025
 20
11.9383692536
 30
0.0
 10
10.6159701208
 20
11.9436736744
 30
0.0
 10
10.6067422185
 20
11.94892767
 30
0.0
 10
10.5970779414
 20
11.9541287795
 30
0.0
 10
10.5869817869
 20
11.9592746839
 30
0.0
 10
10.5764583997
 20
11.9643628958
 30
0.0
 10
10.5655126701
 20
11.9693911703
 30
0.0
 10
10.5501467103
 20
11.9761063451
 30
0.0
 10
10.5299054002
 20
11.9843160046
 30
0.0
 10
10.5043439328
 20
11.9937590392
 30
0.0
 10
10.4772294478
 20
12.0029086664
 30
0.0
 10
10.4486123881
 20
12.0117477338
 30
0.0
 10
10.4185457165
 20
12.0202596619
 30
0.0
 10
10.3870852951
 20
12.0284284589
 30
0.0
 10
10.3542896271
 20
12.0362387663
 30
0.0
 10
10.3202197806
 20
12.0436759085
 30
0.0
 10
10.2849392455
 20
12.0507259095
 30
0.0
 10
10.2485138029
 20
12.057375519
 30
0.0
 10
10.2110113933
 20
12.0636122396
 30
0.0
 10
10.1725019908
 20
12.0694243472
 30
0.0
 10
10.1330574734
 20
12.0748009247
 30
0.0
 10
10.0927514835
 20
12.0797318802
 30
0.0
 10
10.0516592815
 20
12.084207956
 30
0.0
 10
10.0098576031
 20
12.0882207471
 30
0.0
 10
9.9674245104
 20
12.0917627196
 30
0.0
 10
9.924439276
 20
12.0948272109
 30
0.0
 10
9.8809821279
 20
12.0974085193
 30
0.0
 10
9.8223443818
 20
12.1002076667
 30
0.0
 10
9.7484658363
 20
12.1024607012
 30
0.0
 10
9.6595031456
 20
12.1031778069
 30
0.0
 10
9.5706325993
 20
12.1019105928
 30
0.0
 10
9.4969485069
 20
12.0991999652
 30
0.0
 10
9.438558115
 20
12.0960364042
 30
0.0
 10
9.3953527877
 20
12.0931863433
 30
0.0
 10
9.352664037
 20
12.0898561822
 30
0.0
 10
9.3105715329
 20
12.0860521258
 30
0.0
 10
9.2691539119
 20
12.0817813213
 30
0.0
 10
9.2284885195
 20
12.0770517797
 30
0.0
 10
9.1886512888
 20
12.0718723885
 30
0.0
 10
9.1497165923
 20
12.0662528761
 30
0.0
 10
9.111757108
 20
12.0602037973
 30
0.0
 10
9.0748436809
 20
12.0537365141
 30
0.0
 10
9.039045182
 20
12.0468631718
 30
0.0
 10
9.0044283685
 20
12.0395966942
 30
0.0
 10
8.9710577566
 20
12.0319507431
 30
0.0
 10
8.9389954999
 20
12.0239396911
 30
0.0
 10
8.9083012693
 20
12.0155785947
 30
0.0
 10
8.8790321123
 20
12.0068831551
 30
0.0
 10
8.8512423655
 20
11.9978697005
 30
0.0
 10
8.8249833717
 20
11.9885551269
 30
0.0
 10
8.8003039288
 20
11.9789568717
 30
0.0
 10
8.7808187533
 20
11.9706203425
 30
0.0
 10
8.7660713155
 20
11.9638081084
 30
0.0
 10
8.7555945083
 20
11.9587134311
 30
0.0
 10
8.7455454698
 20
11.9535613723
 30
0.0
 10
8.7359288084
 20
11.9483543347
 30
0.0
 10
8.7267489806
 20
11.9430947044
 30
0.0
 10
8.7180102508
 20
11.9377848785
 30
0.0
 10
8.7097166254
 20
11.9324273926
 30
0.0
 10
8.7018719461
 20
11.9270245745
 30
0.0
 10
8.6944797239
 20
11.9215788896
 30
0.0
 10
8.6875433321
 20
11.9160926542
 30
0.0
 10
8.6810662922
 20
11.9105686322
 30
0.0
 10
8.6769786852
 20
11.9067905636
 30
0.0
 10
8.6750163984
 20
11.90489514
 30
0.0
  0
SPLINE
  5
35D
100
AcDbEntity
  8
0
100
AcDbSpline
 62
7
  6
CONTINUOUS
 70
0
 71
3
 72
96
 73
92
 74
0
 42
0.0000001
 43
0.0000001
 44
0.0000000001
 40
0.0
 40
0.0
 40
0.0
 40
0.0
 40
0.0032486282
 40
0.0063902399
 40
0.0094419425
 40
0.0124226539
 40
0.0153528188
 40
0.0182540701
 40
0.0211487473
 40
0.0240593592
 40
0.0270080105
 40
0.0300158953
 40
0.0331028427
 40
0.0362870562
 40
0.0395849028
 40
0.0430108933
 40
0.0465777038
 40
0.0502962603
 40
0.0541759168
 40
0.0582245321
 40
0.0624487135
 40
0.0668538643
 40
0.0714444037
 40
0.076223826
 40
0.0811948297
 40
0.0863594272
 40
0.0917189662
 40
0.0972742885
 40
0.1030256796
 40
0.1089730296
 40
0.1151157834
 40
0.1214530401
 40
0.1279835635
 40
0.1347057894
 40
0.1416179101
 40
0.1487178054
 40
0.1634710471
 40
0.1789446204
 40
0.1951140287
 40
0.2119519606
 40
0.229428589
 40
0.2475118236
 40
0.2661675302
 40
0.2853597246
 40
0.3050507469
 40
0.3252014253
 40
0.3457712301
 40
0.3667184186
 40
0.3880001742
 40
0.4095727416
 40
0.4313915586
 40
0.453411386
 40
0.4755864354
 40
0.4978704976
 40
0.5202170694
 40
0.5425794798
 40
0.5649110149
 40
0.5871650441
 40
0.609295145
 40
0.6312552299
 40
0.6529996733
 40
0.67448344
 40
0.6956622134
 40
0.7164925257
 40
0.7369318912
 40
0.7569389423
 40
0.7764735702
 40
0.7954970725
 40
0.8139723108
 40
0.8318638768
 40
0.8491382719
 40
0.8657641092
 40
0.8817123418
 40
0.8969565294
 40
0.9114731547
 40
0.9184523833
 40
0.9252424603
 40
0.9318414343
 40
0.9382476713
 40
0.9444598103
 40
0.9504768177
 40
0.9562980321
 40
0.9619231476
 40
0.9673523485
 40
0.972586239
 40
0.9776259891
 40
0.9824733232
 40
0.9871307373
 40
0.9916015472
 40
0.9958897387
 40
1.0
 40
1.0
 40
1.0
 40
1.0
 10
10.633100781
 20
11.7984508035
 30
0.0
 10
10.6342174139
 20
11.8003777785
 30
0.0
 10
10.6362845624
 20
11.8042454094
 30
0.0
 10
10.6389010633
 20
11.8101728671
 30
0.0
 10
10.6409747389
 20
11.8161181146
 30
0.0
 10
10.642503491
 20
11.8220771492
 30
0.0
 10
10.6434855389
 20
11.828046203
 30
0.0
 10
10.6439197269
 20
11.8340210074
 30
0.0
 10
10.6438055083
 20
11.8399971344
 30
0.0
 10
10.6431429305
 20
11.845970067
 30
0.0
 10
10.6419330074
 20
11.851935462
 30
0.0
 10
10.6401769739
 20
11.8578891709
 30
0.0
 10
10.637876915
 20
11.8638274952
 30
0.0
 10
10.6350348301
 20
11.8697469314
 30
0.0
 10
10.6316532072
 20
11.8756443615
 30
0.0
 10
10.6277344917
 20
11.8815167647
 30
0.0
 10
10.6232813067
 20
11.8873612275
 30
0.0
 10
10.6182964789
 20
11.8931749458
 30
0.0
 10
10.6127828577
 20
11.8989549563
 30
0.0
 10
10.6067436931
 20
11.9046984893
 30
0.0
 10
10.6001822563
 20
11.9104024965
 30
0.0
 10
10.5931022554
 20
11.9160641366
 30
0.0
 10
10.5855075271
 20
11.9216803563
 30
0.0
 10
10.5774022643
 20
11.9272481978
 30
0.0
 10
10.5687909203
 20
11.9327646765
 30
0.0
 10
10.5596782061
 20
11.9382267368
 30
0.0
 10
10.5500691801
 20
11.9436314816
 30
0.0
 10
10.5399691036
 20
11.948975825
 30
0.0
 10
10.529383604
 20
11.9542569243
 30
0.0
 10
10.5183185141
 20
11.9594717557
 30
0.0
 10
10.5067799951
 20
11.9646174825
 30
0.0
 10
10.4947744495
 20
11.969691211
 30
0.0
 10
10.4823085528
 20
11.9746900964
 30
0.0
 10
10.4693892593
 20
11.979611386
 30
0.0
 10
10.4560237382
 20
11.9844522877
 30
0.0
 10
10.4373790974
 20
11.9908783231
 30
0.0
 10
10.4130015613
 20
11.9986732041
 30
0.0
 10
10.3824542636
 20
12.0075491226
 30
0.0
 10
10.350318116
 20
12.0160426678
 30
0.0
 10
10.3166648906
 20
12.024134716
 30
0.0
 10
10.2815695215
 20
12.0318070177
 30
0.0
 10
10.2451103298
 20
12.0390422761
 30
0.0
 10
10.2073687157
 20
12.045824179
 30
0.0
 10
10.1684289998
 20
12.0521374392
 30
0.0
 10
10.1283782178
 20
12.0579678317
 30
0.0
 10
10.0873059202
 20
12.0633022247
 30
0.0
 10
10.0453039638
 20
12.0681286054
 30
0.0
 10
10.0024663014
 20
12.0724361078
 30
0.0
 10
9.9588887684
 20
12.0762150353
 30
0.0
 10
9.9146688663
 20
12.0794568826
 30
0.0
 10
9.8699055428
 20
12.0821543535
 30
0.0
 10
9.8246989692
 20
12.0843013767
 30
0.0
 10
9.7791503152
 20
12.0858931227
 30
0.0
 10
9.7333615197
 20
12.0869260129
 30
0.0
 10
9.6874350608
 20
12.0873977246
 30
0.0
 10
9.6414737256
 20
12.0873071974
 30
0.0
 10
9.5955803792
 20
12.0866546347
 30
0.0
 10
9.5498577343
 20
12.0854415037
 30
0.0
 10
9.5044081207
 20
12.0836705322
 30
0.0
 10
9.4593332549
 20
12.0813457017
 30
0.0
 10
9.4147340096
 20
12.0784722439
 30
0.0
 10
9.3707101867
 20
12.0750566259
 30
0.0
 10
9.3273602925
 20
12.0711065348
 30
0.0
 10
9.2847813159
 20
12.0666308617
 30
0.0
 10
9.2430685098
 20
12.061639682
 30
0.0
 10
9.2023151754
 20
12.0561442336
 30
0.0
 10
9.1626124498
 20
12.0501568927
 30
0.0
 10
9.1240490966
 20
12.0436911455
 30
0.0
 10
9.086711298
 20
12.0367615637
 30
0.0
 10
9.0506824581
 20
12.0293837681
 30
0.0
 10
9.0160429978
 20
12.0215743926
 30
0.0
 10
8.9828701993
 20
12.0133510435
 30
0.0
 10
8.9512378914
 20
12.0047322643
 30
0.0
 10
8.9212167006
 20
11.9957374589
 30
0.0
 10
8.8972934076
 20
11.9878453983
 30
0.0
 10
8.8790231083
 20
11.9813445354
 30
0.0
 10
8.8659440671
 20
11.9764515616
 30
0.0
 10
8.8533159169
 20
11.9714799787
 30
0.0
 10
8.8411456649
 20
11.9664325804
 30
0.0
 10
8.8294400904
 20
11.9613121741
 30
0.0
 10
8.8182057072
 20
11.9561215956
 30
0.0
 10
8.8074487349
 20
11.9508637941
 30
0.0
 10
8.7971751637
 20
11.9455415982
 30
0.0
 10
8.7873906366
 20
11.9401580551
 30
0.0
 10
8.7781006092
 20
11.9347160204
 30
0.0
 10
8.7693101837
 20
11.9292186018
 30
0.0
 10
8.7610242084
 20
11.9236687376
 30
0.0
 10
8.7532471833
 20
11.9180693939
 30
0.0
 10
8.745983282
 20
11.912423468
 30
0.0
 10
8.7392369009
 20
11.9067342411
 30
0.0
 10
8.7349986881
 20
11.9028335863
 30
0.0
 10
8.7329719514
 20
11.9008759088
 30
0.0
  0
SPLINE
  5
35E
100
AcDbEntity
  8
0
100
AcDbSpline
 62
7
  6
CONTINUOUS
 70
0
 71
3
 72
89
 73
85
 74
0
 42
0.0000001
 43
0.0000001
 44
0.0000000001
 40
0.0
 40
0.0
 40
0.0
 40
0.0
 40
0.0028079925
 40
0.0056356696
 40
0.0085022692
 40
0.0114261927
 40
0.0144246581
 40
0.0175135138
 40
0.024014675
 40
0.0274543831
 40
0.0310325396
 40
0.0347575842
 40
0.0386366758
 40
0.0426758958
 40
0.0468803087
 40
0.0512540833
 40
0.0558006298
 40
0.0605226071
 40
0.065422102
 40
0.0705006034
 40
0.0757591213
 40
0.0811982292
 40
0.0868180633
 40
0.0926184476
 40
0.0985988219
 40
0.1110954821
 40
0.1242987141
 40
0.1381948408
 40
0.1527669243
 40
0.1679951711
 40
0.1838572537
 40
0.2003285753
 40
0.2173825027
 40
0.2349905598
 40
0.2531225965
 40
0.2717469398
 40
0.290830528
 40
0.3103390389
 40
0.3302370162
 40
0.3504879838
 40
0.3710545565
 40
0.3918985465
 40
0.4129810661
 40
0.4342626325
 40
0.4557032725
 40
0.477262623
 40
0.4989000308
 40
0.5205746514
 40
0.542245549
 40
0.5638717977
 40
0.5854125808
 40
0.6068272904
 40
0.628075626
 40
0.649117695
 40
0.6699141161
 40
0.690426123
 40
0.7106156656
 40
0.730445515
 40
0.7498793708
 40
0.7688819726
 40
0.7874192213
 40
0.8054583002
 40
0.8229678014
 40
0.8399178658
 40
0.8562803373
 40
0.8720289361
 40
0.8871394654
 40
0.9015900387
 40
0.9153613541
 40
0.9284370312
 40
0.934710018
 40
0.9408045301
 40
0.946719526
 40
0.9524543027
 40
0.958008419
 40
0.9633818117
 40
0.9685747929
 40
0.9735880599
 40
0.9784227982
 40
0.9830806662
 40
0.9875640271
 40
0.9918758962
 40
0.9960198331
 40
1.0
 40
1.0
 40
1.0
 40
1.0
 10
10.6288519031
 20
11.8106688719
 30
0.0
 10
10.6288519123
 20
11.8125280081
 30
0.0
 10
10.6286890871
 20
11.8162613242
 30
0.0
 10
10.6279575668
 20
11.8218494523
 30
0.0
 10
10.6267392917
 20
11.8274307663
 30
0.0
 10
10.6250353957
 20
11.833001236
 30
0.0
 10
10.6228474644
 20
11.8385582117
 30
0.0
 10
10.6192261661
 20
11.846071931
 30
0.0
 10
10.6146651424
 20
11.8534286055
 30
0.0
 10
10.6092938491
 20
11.860592123
 30
0.0
 10
10.6047151968
 20
11.8660402146
 30
0.0
 10
10.5996655207
 20
11.8714584406
 30
0.0
 10
10.5941471136
 20
11.8768450859
 30
0.0
 10
10.5881628277
 20
11.8821974019
 30
0.0
 10
10.5817156518
 20
11.8875129499
 30
0.0
 10
10.5748088281
 20
11.892789223
 30
0.0
 10
10.5674457393
 20
11.8980236
 30
0.0
 10
10.5596301069
 20
11.9032136395
 30
0.0
 10
10.5513657672
 20
11.9083566953
 30
0.0
 10
10.5426568737
 20
11.9134502916
 30
0.0
 10
10.5335077646
 20
11.9184918814
 30
0.0
 10
10.523923002
 20
11.923478914
 30
0.0
 10
10.5139074169
 20
11.9284089567
 30
0.0
 10
10.5034659864
 20
11.9332794849
 30
0.0
 10
10.4887672347
 20
11.9397864601
 30
0.0
 10
10.4693514774
 20
11.9477353062
 30
0.0
 10
10.4447717498
 20
11.9568638476
 30
0.0
 10
10.4186303999
 20
11.965698453
 30
0.0
 10
10.3909800635
 20
11.9742211866
 30
0.0
 10
10.3618761282
 20
11.9824147198
 30
0.0
 10
10.3313771511
 20
11.9902623704
 30
0.0
 10
10.299544561
 20
11.997748161
 30
0.0
 10
10.2664425548
 20
12.0048568432
 30
0.0
 10
10.2321379389
 20
12.0115739362
 30
0.0
 10
10.1966999875
 20
12.0178857575
 30
0.0
 10
10.1602002973
 20
12.0237794495
 30
0.0
 10
10.1227126416
 20
12.0292430113
 30
0.0
 10
10.0843128155
 20
12.0342653269
 30
0.0
 10
10.0450784742
 20
12.0388361769
 30
0.0
 10
10.0050889708
 20
12.0429462615
 30
0.0
 10
9.9644251944
 20
12.0465872187
 30
0.0
 10
9.9231694072
 20
12.0497516387
 30
0.0
 10
9.8814050785
 20
12.0524330857
 30
0.0
 10
9.8392167133
 20
12.0546261122
 30
0.0
 10
9.7966896774
 20
12.0563262607
 30
0.0
 10
9.7539100234
 20
12.0575300748
 30
0.0
 10
9.710964317
 20
12.058235106
 30
0.0
 10
9.6679394622
 20
12.0584399165
 30
0.0
 10
9.624922525
 20
12.0581440903
 30
0.0
 10
9.5820005545
 20
12.0573482332
 30
0.0
 10
9.5392604056
 20
12.0560539643
 30
0.0
 10
9.4967885641
 20
12.0542639145
 30
0.0
 10
9.4546709719
 20
12.0519817215
 30
0.0
 10
9.412992852
 20
12.0492120207
 30
0.0
 10
9.3718385324
 20
12.0459604452
 30
0.0
 10
9.3312912737
 20
12.0422336117
 30
0.0
 10
9.2914331004
 20
12.0380391016
 30
0.0
 10
9.2523446366
 20
12.0333854475
 30
0.0
 10
9.2141049413
 20
12.0282821167
 30
0.0
 10
9.1767913438
 20
12.02273949
 30
0.0
 10
9.1404792798
 20
12.0167688522
 30
0.0
 10
9.1052421349
 20
12.0103823636
 30
0.0
 10
9.0711510956
 20
12.0035930311
 30
0.0
 10
9.0382750011
 20
11.9964146835
 30
0.0
 10
9.0066801996
 20
11.9888619426
 30
0.0
 10
8.9764303885
 20
11.9809501883
 30
0.0
 10
8.947586504
 20
11.9726955368
 30
0.0
 10
8.9202064466
 20
11.9641147919
 30
0.0
 10
8.8943454182
 20
11.9552253946
 30
0.0
 10
8.8738291147
 20
11.9474719844
 30
0.0
 10
8.8582283578
 20
11.9411146271
 30
0.0
 10
8.8471015516
 20
11.9363467459
 30
0.0
 10
8.8363918939
 20
11.9315153486
 30
0.0
 10
8.8261047278
 20
11.9266229212
 30
0.0
 10
8.8162452404
 20
11.9216718669
 30
0.0
 10
8.8068183624
 20
11.9166646914
 30
0.0
 10
8.7978288002
 20
11.9116039164
 30
0.0
 10
8.7892810886
 20
11.9064920013
 30
0.0
 10
8.781179464
 20
11.9013316067
 30
0.0
 10
8.7735279875
 20
11.8961251701
 30
0.0
 10
8.7663303813
 20
11.8908752512
 30
0.0
 10
8.7595901798
 20
11.8855842764
 30
0.0
 10
8.753311083
 20
11.8802550959
 30
0.0
 10
8.7493562322
 20
11.8766064191
 30
0.0
 10
8.7474608396
 20
11.8747756103
 30
0.0
  0
SPLINE
  5
35F
100
AcDbEntity
  8
0
100
AcDbSpline
 62
7
  6
CONTINUOUS
 70
0
 71
3
 72
55
 73
51
 74
0
 42
0.0000001
 43
0.0000001
 44
0.0000000001
 40
0.0
 40
0.0
 40
0.0
 40
0.0
 40
0.0101005404
 40
0.0206664141
 40
0.0316936645
 40
0.0431768278
 40
0.0551091012
 40
0.0674825408
 40
0.08028808
 40
0.0935157006
 40
0.107154502
 40
0.1211927196
 40
0.1356178724
 40
0.1504167485
 40
0.165575475
 40
0.1810796016
 40
0.1969140687
 40
0.2130633135
 40
0.2462409214
 40
0.2804791862
 40
0.3156379907
 40
0.3515719009
 40
0.3881310936
 40
0.4251622504
 40
0.4625094453
 40
0.5000150246
 40
0.5375204703
 40
0.5748672633
 40
0.6118977525
 40
0.6484560199
 40
0.6843887505
 40
0.7195461197
 40
0.7537827058
 40
0.786958411
 40
0.8031066194
 40
0.8189400049
 40
0.8344429794
 40
0.8496005228
 40
0.8643981607
 40
0.8788220212
 40
0.8928589227
 40
0.9064963457
 40
0.9197225612
 40
0.9325266664
 40
0.9448986173
 40
0.9568293986
 40
0.9683110314
 40
0.9793367251
 40
0.9899010477
 40
1.0
 40
1.0
 40
1.0
 40
1.0
 10
10.5145974882
 20
11.7415914139
 30
0.0
 10
10.5093889643
 20
11.7440967475
 30
0.0
 10
10.4986489382
 20
11.7490516225
 30
0.0
 10
10.4819683469
 20
11.7561749078
 30
0.0
 10
10.4643710819
 20
11.7631493496
 30
0.0
 10
10.4458771037
 20
11.7699669736
 30
0.0
 10
10.4265071326
 20
11.7766201295
 30
0.0
 10
10.4062829718
 20
11.7831012
 30
0.0
 10
10.3852274174
 20
11.7894028781
 30
0.0
 10
10.3633642211
 20
11.7955179949
 30
0.0
 10
10.3407180606
 20
11.8014395653
 30
0.0
 10
10.3173145281
 20
11.807160912
 30
0.0
 10
10.293180072
 20
11.8126754847
 30
0.0
 10
10.2683419857
 20
11.8179770241
 30
0.0
 10
10.2428283657
 20
11.823059531
 30
0.0
 10
10.2166680836
 20
11.8279171664
 30
0.0
 10
10.189890719
 20
11.832544492
 30
0.0
 10
10.1530744096
 20
11.8384530553
 30
0.0
 10
10.1057315778
 20
11.8452065287
 30
0.0
 10
10.0474555296
 20
11.8522445513
 30
0.0
 10
9.9874793599
 20
11.8582550322
 30
0.0
 10
9.9260746236
 20
11.8632104992
 30
0.0
 10
9.8635190975
 20
11.8670882422
 30
0.0
 10
9.8000959202
 20
11.8698705205
 30
0.0
 10
9.736092176
 20
11.8715446171
 30
0.0
 10
9.6717976085
 20
11.8721028764
 30
0.0
 10
9.6075032871
 20
11.8715427371
 30
0.0
 10
9.5435002808
 20
11.8698667557
 30
0.0
 10
9.4800783278
 20
11.8670826091
 30
0.0
 10
9.4175245046
 20
11.8632030356
 30
0.0
 10
9.356121945
 20
11.8582457762
 30
0.0
 10
9.2961484206
 20
11.8522335315
 30
0.0
 10
9.237875471
 20
11.8451937904
 30
0.0
 10
9.1905355061
 20
11.8384389249
 30
0.0
 10
9.1537217039
 20
11.8325292588
 30
0.0
 10
9.1269463707
 20
11.8279011658
 30
0.0
 10
9.1007882245
 20
11.8230427359
 30
0.0
 10
9.075276835
 20
11.8179594979
 30
0.0
 10
9.0504410769
 20
11.8126572291
 30
0.0
 10
9.0263090447
 20
11.8071419298
 30
0.0
 10
9.002908022
 20
11.8014199227
 30
0.0
 10
8.9802644652
 20
11.7954976659
 30
0.0
 10
8.9584039532
 20
11.7893819111
 30
0.0
 10
8.9373511624
 20
11.7830796339
 30
0.0
 10
8.917129854
 20
11.7765979389
 30
0.0
 10
8.8977627986
 20
11.7699442403
 30
0.0
 10
8.8792718137
 20
11.763126069
 30
0.0
 10
8.8616776159
 20
11.7561510914
 30
0.0
 10
8.8450001366
 20
11.7490273574
 30
0.0
 10
8.8342622601
 20
11.7440721089
 30
0.0
 10
8.8290548174
 20
11.7415666239
 30
0.0
  0
SPLINE
  5
360
100
AcDbEntity
  8
0
100
AcDbSpline
 62
7
  6
CONTINUOUS
 70
0
 71
3
 72
47
 73
43
 74
0
 42
0.0000001
 43
0.0000001
 44
0.0000000001
 40
0.0
 40
0.0
 40
0.0
 40
0.0
 40
0.0111986477
 40
0.0227834408
 40
0.0347480683
 40
0.0470854478
 40
0.0597878778
 40
0.0728469676
 40
0.0862538198
 40
0.0999989289
 40
0.1284630488
 40
0.1581546981
 40
0.1889819741
 40
0.2208471437
 40
0.2536473512
 40
0.2872752687
 40
0.3216197065
 40
0.3565661975
 40
0.3919975623
 40
0.4277944631
 40
0.463835948
 40
0.4999999927
 40
0.536164037
 40
0.5722055212
 40
0.6080024216
 40
0.6434337873
 40
0.6783802803
 40
0.7127247212
 40
0.746352642
 40
0.7791528519
 40
0.8110180217
 40
0.8418452958
 40
0.871536942
 40
0.9000010587
 40
0.9137461828
 40
0.9271530185
 40
0.9402121275
 40
0.9529145402
 40
0.9652519363
 40
0.9772165522
 40
0.9888013537
 40
1.0
 40
1.0
 40
1.0
 40
1.0
 10
10.4184420411
 20
11.711360227
 30
0.0
 10
10.4131488949
 20
11.7133360396
 30
0.0
 10
10.4023367402
 20
11.7172404894
 30
0.0
 10
10.3857332982
 20
11.7228702136
 30
0.0
 10
10.3684817803
 20
11.7283681426
 30
0.0
 10
10.3505979024
 20
11.7337293045
 30
0.0
 10
10.3320978145
 20
11.7389487517
 30
0.0
 10
10.3129982951
 20
11.7440218038
 30
0.0
 10
10.2933166211
 20
11.7489437968
 30
0.0
 10
10.2660034179
 20
11.7553739663
 30
0.0
 10
10.2305305192
 20
11.7629808449
 30
0.0
 10
10.1864177683
 20
11.7713365025
 30
0.0
 10
10.1404378869
 20
11.7789917238
 30
0.0
 10
10.0927576908
 20
11.7859184653
 30
0.0
 10
10.0435499264
 20
11.7920912991
 30
0.0
 10
9.9929930647
 20
11.7974875952
 30
0.0
 10
9.9412705076
 20
11.8020875742
 30
0.0
 10
9.8885699421
 20
11.8058743837
 30
0.0
 10
9.8350826379
 20
11.8088341542
 30
0.0
 10
9.781002747
 20
11.8109560481
 30
0.0
 10
9.72652659
 20
11.8122322979
 30
0.0
 10
9.6718519373
 20
11.8126582333
 30
0.0
 10
9.617177285
 20
11.8122322956
 30
0.0
 10
9.5627011287
 20
11.8109560443
 30
0.0
 10
9.5086212379
 20
11.8088341509
 30
0.0
 10
9.4551339324
 20
11.8058743829
 30
0.0
 10
9.4024333636
 20
11.8020875771
 30
0.0
 10
9.3507108018
 20
11.797487602
 30
0.0
 10
9.3001539352
 20
11.7920913093
 30
0.0
 10
9.2509461676
 20
11.7859184772
 30
0.0
 10
9.2032659711
 20
11.7789917358
 30
0.0
 10
9.1572860928
 20
11.771336511
 30
0.0
 10
9.1131733449
 20
11.7629808578
 30
0.0
 10
9.0777004472
 20
11.7553739565
 30
0.0
 10
9.0503872374
 20
11.7489438243
 30
0.0
 10
9.0307055643
 20
11.7440217916
 30
0.0
 10
9.0116060405
 20
11.7389487846
 30
0.0
 10
8.9931059555
 20
11.7337292931
 30
0.0
 10
8.9752220718
 20
11.7283681718
 30
0.0
 10
8.9579705574
 20
11.7228702096
 30
0.0
 10
8.9413671085
 20
11.717240513
 30
0.0
 10
8.9305549582
 20
11.7133360405
 30
0.0
 10
8.925261809
 20
11.7113602381
 30
0.0
  0
SPLINE
  5
361
100
AcDbEntity
  8
0
100
AcDbSpline
 62
7
  6
CONTINUOUS
 70
0
 71
3
 72
15
 73
11
 74
0
 42
0.0000001
 43
0.0000001
 44
0.0000000001
 40
0.0
 40
0.0
 40
0.0
 40
0.0
 40
0.1273483438
 40
0.2538606048
 40
0.3795878922
 40
0.5046051199
 40
0.6290174392
 40
0.7529533668
 40
0.8765605676
 40
1.0
 40
1.0
 40
1.0
 40
1.0
 10
11.7438368882
 20
10.8670727451
 30
0.0
 10
11.7438368882
 20
10.8733248045
 30
0.0
 10
11.744433841
 20
10.8857965203
 30
0.0
 10
11.7471334973
 20
10.9042642176
 30
0.0
 10
11.7516099795
 20
10.9222678815
 30
0.0
 10
11.7578228446
 20
10.9396391425
 30
0.0
 10
11.765715109
 20
10.9562177914
 30
0.0
 10
11.7752148338
 20
10.9718507258
 30
0.0
 10
11.786232653
 20
10.9863914989
 30
0.0
 10
11.7945285327
 20
10.9952737854
 30
0.0
 10
11.7988873442
 20
10.9994840393
 30
0.0
  0
SPLINE
  5
362
100
AcDbEntity
  8
0
100
AcDbSpline
 62
7
  6
CONTINUOUS
 70
0
 71
3
 72
41
 73
37
 74
0
 42
0.0000001
 43
0.0000001
 44
0.0000000001
 40
0.0
 40
0.0
 40
0.0
 40
0.0
 40
0.0299421216
 40
0.0449237656
 40
0.0599145167
 40
0.0899291718
 40
0.1200145985
 40
0.1350933583
 40
0.15019748
 40
0.1804849767
 40
0.2108989647
 40
0.2414525835
 40
0.2721557485
 40
0.3030149705
 40
0.3340332607
 40
0.3652101168
 40
0.3965415874
 40
0.4280204071
 40
0.4596361972
 40
0.491375723
 40
0.5232232003
 40
0.5551606452
 40
0.5871682559
 40
0.6192248239
 40
0.651308164
 40
0.683395559
 40
0.7154642111
 40
0.7474916947
 40
0.7794564051
 40
0.8113379906
 40
0.8431177849
 40
0.8747791545
 40
0.9063080011
 40
0.9376926887
 40
0.9689252949
 40
1.0
 40
1.0
 40
1.0
 40
1.0
 10
9.4480736905
 20
7.4016950624
 30
0.0
 10
9.4445732849
 20
7.3983139018
 30
0.0
 10
9.4391163182
 20
7.3934470657
 30
0.0
 10
9.4314739942
 20
7.3874083311
 30
0.0
 10
9.4235882561
 20
7.3816701439
 30
0.0
 10
9.4132986998
 20
7.3750807853
 30
0.0
 10
9.4025088173
 20
7.3693170591
 30
0.0
 10
9.3936100091
 20
7.3652166238
 30
0.0
 10
9.3845273053
 20
7.3614548339
 30
0.0
 10
9.3728746639
 20
7.3574097134
 30
0.0
 10
9.3585145182
 20
7.3536397961
 30
0.0
 10
9.3438410328
 20
7.3509690676
 30
0.0
 10
9.3289355174
 20
7.3494122828
 30
0.0
 10
9.3138798536
 20
7.3489777446
 30
0.0
 10
9.2987568816
 20
7.3496676666
 30
0.0
 10
9.2836497213
 20
7.3514780635
 30
0.0
 10
9.2686413802
 20
7.3543988108
 30
0.0
 10
9.2538142869
 20
7.3584136991
 30
0.0
 10
9.2392498482
 20
7.3635005309
 30
0.0
 10
9.2250280073
 20
7.3696312441
 30
0.0
 10
9.2112268113
 20
7.3767720695
 30
0.0
 10
9.1979219892
 20
7.3848837174
 30
0.0
 10
9.1851865415
 20
7.3939215929
 30
0.0
 10
9.1730903451
 20
7.4038360395
 30
0.0
 10
9.1616997744
 20
7.4145726097
 30
0.0
 10
9.1510773411
 20
7.4260723617
 30
0.0
 10
9.141281355
 20
7.4382721794
 30
0.0
 10
9.1323656063
 20
7.4511051157
 30
0.0
 10
9.1243790756
 20
7.4645007551
 30
0.0
 10
9.1173656598
 20
7.4783855977
 30
0.0
 10
9.1113639506
 20
7.4926834486
 30
0.0
 10
9.1064069796
 20
7.5073158689
 30
0.0
 10
9.1025221317
 20
7.5222024491
 30
0.0
 10
9.0997308076
 20
7.5372617976
 30
0.0
 10
9.0980486028
 20
7.5524100563
 30
0.0
 10
9.0976718008
 20
7.562541247
 30
0.0
 10
9.0976718008
 20
7.5675920674
 30
0.0
  0
SPLINE
  5
363
100
AcDbEntity
  8
0
100
AcDbSpline
 62
7
  6
CONTINUOUS
 70
0
 71
3
 72
15
 73
11
 74
0
 42
0.0000001
 43
0.0000001
 44
0.0000000001
 40
0.0
 40
0.0
 40
0.0
 40
0.0
 40
0.1234394229
 40
0.2470466241
 40
0.3709825582
 40
0.4953948862
 40
0.6204121211
 40
0.7461394113
 40
0.8726516684
 40
1.0
 40
1.0
 40
1.0
 40
1.0
 10
9.154890634
 20
7.7052204792
 30
0.0
 10
9.1503601286
 20
7.7008443103
 30
0.0
 10
9.1417374764
 20
7.6916120084
 30
0.0
 10
9.1302856738
 20
7.676498274
 30
0.0
 10
9.1204117662
 20
7.6602493693
 30
0.0
 10
9.1122086375
 20
7.6430175082
 30
0.0
 10
9.1057510586
 20
7.6249618223
 30
0.0
 10
9.1010982565
 20
7.6062488296
 30
0.0
 10
9.0982922663
 20
7.5870535297
 30
0.0
 10
9.0976718008
 20
7.5740904479
 30
0.0
 10
9.0976718008
 20
7.5675920674
 30
0.0
  0
SPLINE
  5
364
100
AcDbEntity
  8
0
100
AcDbSpline
 62
7
  6
CONTINUOUS
 70
0
 71
3
 72
41
 73
37
 74
0
 42
0.0000001
 43
0.0000001
 44
0.0000000001
 40
0.0
 40
0.0
 40
0.0
 40
0.0
 40
0.0299421187
 40
0.0449237623
 40
0.0599145134
 40
0.0899291701
 40
0.1200146003
 40
0.1350933624
 40
0.1501974867
 40
0.1804849896
 40
0.2108989845
 40
0.2414526108
 40
0.2721557833
 40
0.3030150127
 40
0.3340333098
 40
0.3652101722
 40
0.3965416482
 40
0.4280204722
 40
0.4596362655
 40
0.4913757931
 40
0.5232232712
 40
0.5551607155
 40
0.5871683244
 40
0.6192248896
 40
0.6513082259
 40
0.6833956162
 40
0.715464263
 40
0.7474917407
 40
0.779456445
 40
0.8113380241
 40
0.8431178121
 40
0.8747791755
 40
0.9063080162
 40
0.9376926983
 40
0.9689252995
 40
1.0
 40
1.0
 40
1.0
 40
1.0
 10
12.080952341
 20
10.7074646528
 30
0.0
 10
12.0775846361
 20
10.7042117265
 30
0.0
 10
12.0723345471
 20
10.699529473
 30
0.0
 10
12.0649819565
 20
10.6937197723
 30
0.0
 10
12.057395184
 20
10.6881992234
 30
0.0
 10
12.0474957351
 20
10.6818597933
 30
0.0
 10
12.0371149386
 20
10.6763146901
 30
0.0
 10
12.0285535235
 20
10.6723697943
 30
0.0
 10
12.0198151883
 20
10.6687507029
 30
0.0
 10
12.0086043598
 20
10.6648590387
 30
0.0
 10
11.9947886916
 20
10.6612321561
 30
0.0
 10
11.9806715721
 20
10.6586627812
 30
0.0
 10
11.9663312275
 20
10.657165109
 30
0.0
 10
11.9518464343
 20
10.6567471271
 30
0.0
 10
11.937296891
 20
10.6574109647
 30
0.0
 10
11.9227625653
 20
10.6591527872
 30
0.0
 10
11.9083233167
 20
10.6619628537
 30
0.0
 10
11.8940584476
 20
10.6658255692
 30
0.0
 10
11.8800462777
 20
10.6707195776
 30
0.0
 10
11.8663637181
 20
10.6766178807
 30
0.0
 10
11.853085856
 20
10.6834879898
 30
0.0
 10
11.8402855484
 20
10.6912921048
 30
0.0
 10
11.828033027
 20
10.6999873219
 30
0.0
 10
11.8163955187
 20
10.7095258675
 30
0.0
 10
11.8054368805
 20
10.7198553589
 30
0.0
 10
11.7952172533
 20
10.7309190893
 30
0.0
 10
11.7857927353
 20
10.7426563363
 30
0.0
 10
11.7772150768
 20
10.7550026913
 30
0.0
 10
11.7695314005
 20
10.7678904094
 30
0.0
 10
11.7627839387
 20
10.781248778
 30
0.0
 10
11.7570098191
 20
10.7950044917
 30
0.0
 10
11.7522408207
 20
10.8090820865
 30
0.0
 10
11.7485032899
 20
10.8234042021
 30
0.0
 10
11.7458178154
 20
10.8378925336
 30
0.0
 10
11.7441994014
 20
10.8524664033
 30
0.0
 10
11.7438368882
 20
10.8622134409
 30
0.0
 10
11.7438368882
 20
10.8670727451
 30
0.0
  0
SPLINE
  5
365
100
AcDbEntity
  8
0
100
AcDbSpline
 62
7
  6
CONTINUOUS
 70
0
 71
3
 72
90
 73
86
 74
0
 42
0.0000001
 43
0.0000001
 44
0.0000000001
 40
0.0
 40
0.0
 40
0.0
 40
0.0
 40
0.0039801841
 40
0.0081241159
 40
0.0124359656
 40
0.0169193153
 40
0.0215771898
 40
0.0264119289
 40
0.0314251936
 40
0.0366181713
 40
0.0419915567
 40
0.0475456772
 40
0.0532804457
 40
0.0591954437
 40
0.0652899501
 40
0.0715629317
 40
0.0846386004
 40
0.098409911
 40
0.1128604817
 40
0.1279710074
 40
0.1437195982
 40
0.1600820565
 40
0.1770321086
 40
0.194541602
 40
0.2125806763
 40
0.2311179203
 40
0.2501205135
 40
0.2695543567
 40
0.2893841934
 40
0.3095737255
 40
0.3300857245
 40
0.3508821382
 40
0.3719241976
 40
0.3931725218
 40
0.4145872201
 40
0.4361279928
 40
0.4577542316
 40
0.4794251191
 40
0.5010997291
 40
0.5227371263
 40
0.5442964667
 40
0.5657370967
 40
0.5870186529
 40
0.608101162
 40
0.6289451422
 40
0.6495117057
 40
0.6697626638
 40
0.6896606308
 40
0.7091691309
 40
0.728252709
 40
0.7468770455
 40
0.7650090769
 40
0.7826171262
 40
0.7996710429
 40
0.8161423523
 40
0.8320044245
 40
0.8472326669
 40
0.8618047498
 40
0.8757008734
 40
0.8889040964
 40
0.8952416854
 40
0.9014012239
 40
0.9073816029
 40
0.9131819719
 40
0.9188018178
 40
0.9242409106
 40
0.9294994338
 40
0.9345779311
 40
0.9394774185
 40
0.9441994036
 40
0.9487459354
 40
0.9531197203
 40
0.9573241226
 40
0.9613633439
 40
0.9652424353
 40
0.9689674716
 40
0.9725456352
 40
0.9759853336
 40
0.9824864943
 40
0.9855753483
 40
0.9885738142
 40
0.9914977336
 40
0.9943643342
 40
0.9971920087
 40
1.0
 40
1.0
 40
1.0
 40
1.0
 10
8.6750163984
 20
11.9647825438
 30
0.0
 10
8.6770603425
 20
11.9667568424
 30
0.0
 10
8.6813251405
 20
11.9706914758
 30
0.0
 10
8.6880963281
 20
11.9764383043
 30
0.0
 10
8.6953647491
 20
11.9821439101
 30
0.0
 10
8.7031264163
 20
11.9878052637
 30
0.0
 10
8.7113775454
 20
11.9934197211
 30
0.0
 10
8.7201140937
 20
11.998984551
 30
0.0
 10
8.7293316915
 20
12.0044970851
 30
0.0
 10
8.7390257655
 20
12.0099544626
 30
0.0
 10
8.7491914205
 20
12.0153540644
 30
0.0
 10
8.7598236028
 20
12.0206931116
 30
0.0
 10
8.770916967
 20
12.0259689815
 30
0.0
 10
8.7824659456
 20
12.0311789963
 30
0.0
 10
8.7944647544
 20
12.036320545
 30
0.0
 10
8.8112881361
 20
12.043176127
 30
0.0
 10
8.8334122971
 20
12.0515371748
 30
0.0
 10
8.8613000558
 20
12.0611232312
 30
0.0
 10
8.8908258939
 20
12.0703764453
 30
0.0
 10
8.9219302776
 20
12.0792780092
 30
0.0
 10
8.9545507622
 20
12.0878098064
 30
0.0
 10
8.9886216366
 20
12.0959544606
 30
0.0
 10
9.0240742199
 20
12.1036953796
 30
0.0
 10
9.0608369712
 20
12.1110167911
 30
0.0
 10
9.0988356551
 20
12.1179037839
 30
0.0
 10
9.1379934994
 20
12.1243423346
 30
0.0
 10
9.1782313613
 20
12.1303193347
 30
0.0
 10
9.219467893
 20
12.1358226178
 30
0.0
 10
9.2616197103
 20
12.1408409834
 30
0.0
 10
9.3046015631
 20
12.1453642195
 30
0.0
 10
9.3483265097
 20
12.1493831218
 30
0.0
 10
9.3927060936
 20
12.1528895168
 30
0.0
 10
9.4376505253
 20
12.1558762761
 30
0.0
 10
9.483068868
 20
12.1583373272
 30
0.0
 10
9.5288692219
 20
12.1602676668
 30
0.0
 10
9.5749589117
 20
12.16166337
 30
0.0
 10
9.6212446737
 20
12.1625215982
 30
0.0
 10
9.6676328447
 20
12.1628406044
 30
0.0
 10
9.7140295531
 20
12.1626197403
 30
0.0
 10
9.7603409105
 20
12.1618594573
 30
0.0
 10
9.8064732023
 20
12.1605613021
 30
0.0
 10
9.8523330784
 20
12.158727914
 30
0.0
 10
9.8978277418
 20
12.1563630198
 30
0.0
 10
9.9428651369
 20
12.1534714267
 30
0.0
 10
9.9873541367
 20
12.1500590119
 30
0.0
 10
10.0312047303
 20
12.1461327146
 30
0.0
 10
10.0743282074
 20
12.1417005232
 30
0.0
 10
10.1166373388
 20
12.1367714548
 30
0.0
 10
10.1580465531
 20
12.1313555388
 30
0.0
 10
10.1984721124
 20
12.1254637964
 30
0.0
 10
10.2378322837
 20
12.1191082195
 30
0.0
 10
10.2760475094
 20
12.1123017456
 30
0.0
 10
10.3130405759
 20
12.1050582346
 30
0.0
 10
10.3487367786
 20
12.097392443
 30
0.0
 10
10.3830640764
 20
12.0893199879
 30
0.0
 10
10.4159532571
 20
12.0808573142
 30
0.0
 10
10.447338051
 20
12.072021658
 30
0.0
 10
10.477155422
 20
12.0628310031
 30
0.0
 10
10.5053452345
 20
12.0533040384
 30
0.0
 10
10.5277290179
 20
12.0449912788
 30
0.0
 10
10.5447653849
 20
12.0381727716
 30
0.0
 10
10.556926277
 20
12.0330567496
 30
0.0
 10
10.5686395187
 20
12.0278713575
 30
0.0
 10
10.5798992191
 20
12.0226191098
 30
0.0
 10
10.590699745
 20
12.0173027458
 30
0.0
 10
10.6010356478
 20
12.0119248352
 30
0.0
 10
10.610901782
 20
12.0064881647
 30
0.0
 10
10.6202931901
 20
12.0009953802
 30
0.0
 10
10.6292051928
 20
11.9954492405
 30
0.0
 10
10.6376333594
 20
11.9898525025
 30
0.0
 10
10.6455734616
 20
11.9842078522
 30
0.0
 10
10.6530216057
 20
11.9785181322
 30
0.0
 10
10.6599740215
 20
11.9727859663
 30
0.0
 10
10.6664273038
 20
11.9670142048
 30
0.0
 10
10.6723781985
 20
11.9612054192
 30
0.0
 10
10.6778235847
 20
11.9553625347
 30
0.0
 10
10.6827611114
 20
11.94948752
 30
0.0
 10
10.6885532966
 20
11.9417625531
 30
0.0
 10
10.6934718049
 20
11.9338293663
 30
0.0
 10
10.6973768866
 20
11.9257267861
 30
0.0
 10
10.6997363195
 20
11.9197343233
 30
0.0
 10
10.7015736959
 20
11.9137272798
 30
0.0
 10
10.7028875092
 20
11.9077085735
 30
0.0
 10
10.7036763075
 20
11.9016824953
 30
0.0
 10
10.7038519105
 20
11.8976566029
 30
0.0
 10
10.7038519102
 20
11.8956517663
 30
0.0
  0
SPLINE
  5
366
100
AcDbEntity
  8
0
100
AcDbSpline
 62
7
  6
CONTINUOUS
 70
0
 71
3
 72
41
 73
37
 74
0
 42
0.0000001
 43
0.0000001
 44
0.0000000001
 40
0.0
 40
0.0
 40
0.0
 40
0.0
 40
0.0299421187
 40
0.0449237623
 40
0.0599145134
 40
0.0899291701
 40
0.1200146003
 40
0.1350933624
 40
0.1501974867
 40
0.1804849896
 40
0.2108989845
 40
0.2414526108
 40
0.2721557833
 40
0.3030150127
 40
0.3340333098
 40
0.3652101722
 40
0.3965416482
 40
0.4280204722
 40
0.4596362655
 40
0.4913757931
 40
0.5232232712
 40
0.5551607155
 40
0.5871683244
 40
0.6192248896
 40
0.6513082259
 40
0.6833956162
 40
0.715464263
 40
0.7474917407
 40
0.779456445
 40
0.8113380241
 40
0.8431178121
 40
0.8747791755
 40
0.9063080162
 40
0.9376926983
 40
0.9689252995
 40
1.0
 40
1.0
 40
1.0
 40
1.0
 10
9.4246561613
 20
6.0620500009
 30
0.0
 10
9.4212884564
 20
6.0587970746
 30
0.0
 10
9.4160383674
 20
6.0541148211
 30
0.0
 10
9.4086857768
 20
6.0483051204
 30
0.0
 10
9.4010990043
 20
6.0427845715
 30
0.0
 10
9.3911995554
 20
6.0364451414
 30
0.0
 10
9.3808187589
 20
6.0309000382
 30
0.0
 10
9.3722573438
 20
6.0269551424
 30
0.0
 10
9.3635190086
 20
6.0233360511
 30
0.0
 10
9.3523081801
 20
6.0194443869
 30
0.0
 10
9.3384925119
 20
6.0158175042
 30
0.0
 10
9.3243753924
 20
6.0132481293
 30
0.0
 10
9.3100350478
 20
6.0117504571
 30
0.0
 10
9.2955502546
 20
6.0113324752
 30
0.0
 10
9.2810007113
 20
6.0119963128
 30
0.0
 10
9.2664663856
 20
6.0137381354
 30
0.0
 10
9.252027137
 20
6.0165482019
 30
0.0
 10
9.2377622679
 20
6.0204109174
 30
0.0
 10
9.223750098
 20
6.0253049258
 30
0.0
 10
9.2100675384
 20
6.0312032289
 30
0.0
 10
9.1967896764
 20
6.0380733379
 30
0.0
 10
9.1839893687
 20
6.045877453
 30
0.0
 10
9.1717368473
 20
6.0545726701
 30
0.0
 10
9.160099339
 20
6.0641112156
 30
0.0
 10
9.1491407008
 20
6.074440707
 30
0.0
 10
9.1389210736
 20
6.0855044374
 30
0.0
 10
9.1294965556
 20
6.0972416844
 30
0.0
 10
9.1209188971
 20
6.1095880394
 30
0.0
 10
9.1132352208
 20
6.1224757576
 30
0.0
 10
9.106487759
 20
6.1358341261
 30
0.0
 10
9.1007136394
 20
6.1495898399
 30
0.0
 10
9.095944641
 20
6.1636674346
 30
0.0
 10
9.0922071102
 20
6.1779895502
 30
0.0
 10
9.0895216357
 20
6.1924778817
 30
0.0
 10
9.0879032218
 20
6.2070517514
 30
0.0
 10
9.0875407085
 20
6.2167987891
 30
0.0
 10
9.0875407085
 20
6.2216580932
 30
0.0
  0
SPLINE
  5
367
100
AcDbEntity
  8
0
100
AcDbSpline
 62
7
  6
CONTINUOUS
 70
0
 71
3
 72
39
 73
35
 74
0
 42
0.0000001
 43
0.0000001
 44
0.0000000001
 40
0.0
 40
0.0
 40
0.0
 40
0.0
 40
0.0311159723
 40
0.0620233248
 40
0.0927351404
 40
0.1232711776
 40
0.1536587326
 40
0.1839312111
 40
0.2141268393
 40
0.2442870992
 40
0.2744549754
 40
0.3046731314
 40
0.3349820899
 40
0.3654185435
 40
0.3960138648
 40
0.4267928822
 40
0.4577729963
 40
0.4889636214
 40
0.5203659689
 40
0.551973178
 40
0.5837707188
 40
0.6157370639
 40
0.6478445901
 40
0.6800606405
 40
0.7123487311
 40
0.7446698622
 40
0.7769838843
 40
0.8092508939
 40
0.8414326243
 40
0.8734937998
 40
0.9054034123
 40
0.9371359058
 40
0.9686717941
 40
1.0
 40
1.0
 40
1.0
 40
1.0
 10
9.5540829103
 20
7.5174513715
 30
0.0
 10
9.5540829103
 20
7.5086341713
 30
0.0
 10
9.5532221124
 20
7.4910461308
 30
0.0
 10
9.5493291702
 20
7.4650157079
 30
0.0
 10
9.5428755392
 20
7.4396652666
 30
0.0
 10
9.5339222438
 20
7.4152428388
 30
0.0
 10
9.5225550305
 20
7.3919837337
 30
0.0
 10
9.508883002
 20
7.3701132977
 30
0.0
 10
9.4930378143
 20
7.3498433348
 30
0.0
 10
9.4751725923
 20
7.3313701284
 30
0.0
 10
9.4554601208
 20
7.3148725385
 30
0.0
 10
9.4340912494
 20
7.3005101284
 30
0.0
 10
9.4112730095
 20
7.2884213791
 30
0.0
 10
9.3872262895
 20
7.2787226397
 30
0.0
 10
9.3621837263
 20
7.2715068662
 30
0.0
 10
9.336387349
 20
7.2668426772
 30
0.0
 10
9.3100861057
 20
7.2647741135
 30
0.0
 10
9.2835335194
 20
7.2653200656
 30
0.0
 10
9.2569852013
 20
7.2684741575
 30
0.0
 10
9.230696457
 20
7.2742051868
 30
0.0
 10
9.2049198687
 20
7.2824571927
 30
0.0
 10
9.1799028864
 20
7.29315009
 30
0.0
 10
9.1558856181
 20
7.3061806894
 30
0.0
 10
9.1330984683
 20
7.3214233992
 30
0.0
 10
9.1117599893
 20
7.3387315434
 30
0.0
 10
9.0920749733
 20
7.3579388998
 30
0.0
 10
9.0742323184
 20
7.37886101
 30
0.0
 10
9.0584033367
 20
7.4012970789
 30
0.0
 10
9.0447402799
 20
7.4250318991
 30
0.0
 10
9.0333746147
 20
7.4498377921
 30
0.0
 10
9.0244159351
 20
7.4754764991
 30
0.0
 10
9.0179511052
 20
7.5017027986
 30
0.0
 10
9.014042773
 20
7.5282614872
 30
0.0
 10
9.0131644155
 20
7.5460868566
 30
0.0
 10
9.0131644155
 20
7.5549641965
 30
0.0
  0
SPLINE
  5
368
100
AcDbEntity
  8
0
100
AcDbSpline
 62
7
  6
CONTINUOUS
 70
0
 71
3
 72
18
 73
14
 74
0
 42
0.0000001
 43
0.0000001
 44
0.0000000001
 40
0.0
 40
0.0
 40
0.0
 40
0.0
 40
0.0548620589
 40
0.1099280789
 40
0.165399508
 40
0.2214731255
 40
0.2783387361
 40
0.3361775086
 40
0.4554063416
 40
0.5804417492
 40
0.7123343341
 40
0.8519577333
 40
1.0
 40
1.0
 40
1.0
 40
1.0
 10
8.6398519102
 20
11.8956517662
 30
0.0
 10
8.6398519104
 20
11.8971092382
 30
0.0
 10
8.6399444324
 20
11.9000304375
 30
0.0
 10
8.6403603781
 20
11.9044074837
 30
0.0
 10
8.6410533841
 20
11.9087820077
 30
0.0
 10
8.6420232219
 20
11.9131524117
 30
0.0
 10
8.6432695156
 20
11.9175175923
 30
0.0
 10
8.6453193898
 20
11.92338759
 30
0.0
 10
8.6486032534
 20
11.9307293855
 30
0.0
 10
8.6536014985
 20
11.9394000739
 30
0.0
 10
8.6596890903
 20
11.9480146393
 30
0.0
 10
8.6668567668
 20
11.9565644355
 30
0.0
 10
8.672187636
 20
11.9620501691
 30
0.0
 10
8.6750163984
 20
11.9647825438
 30
0.0
  0
SPLINE
  5
369
100
AcDbEntity
  8
0
100
AcDbSpline
 62
7
  6
CONTINUOUS
 70
0
 71
3
 72
11
 73
7
 74
0
 42
0.0000001
 43
0.0000001
 44
0.0000000001
 40
0.0
 40
0.0
 40
0.0
 40
0.0
 40
0.2273142643
 40
0.4683166999
 40
0.7252879079
 40
1.0
 40
1.0
 40
1.0
 40
1.0
 10
8.6463376216
 20
11.8656626073
 30
0.0
 10
8.6478158895
 20
11.8690591301
 30
0.0
 10
8.651306378
 20
11.8758691028
 30
0.0
 10
8.6578352109
 20
11.8857451606
 30
0.0
 10
8.6657779484
 20
11.8955377143
 30
0.0
 10
8.6717965399
 20
11.9017849954
 30
0.0
 10
8.6750163984
 20
11.90489514
 30
0.0
  0
SPLINE
  5
36A
100
AcDbEntity
  8
0
100
AcDbSpline
 62
7
  6
CONTINUOUS
 70
0
 71
3
 72
23
 73
19
 74
0
 42
0.0000001
 43
0.0000001
 44
0.0000000001
 40
0.0
 40
0.0
 40
0.0
 40
0.0
 40
0.0632718889
 40
0.1243118631
 40
0.1835189857
 40
0.241334941
 40
0.2982378203
 40
0.3547312213
 40
0.4113307867
 40
0.4685489626
 40
0.5268804246
 40
0.5867894715
 40
0.6487008786
 40
0.7129939714
 40
0.7800029408
 40
0.8500178773
 40
0.9232843295
 40
1.0
 40
1.0
 40
1.0
 40
1.0
 10
8.7105710212
 20
11.7985061243
 30
0.0
 10
8.7093639669
 20
11.8005922864
 30
0.0
 10
8.7071437878
 20
11.8047814604
 30
0.0
 10
8.7043841342
 20
11.8112132272
 30
0.0
 10
8.70226312
 20
11.8176657784
 30
0.0
 10
8.7007838865
 20
11.8241340078
 30
0.0
 10
8.6999484536
 20
11.8306127379
 30
0.0
 10
8.6997582774
 20
11.8370962181
 30
0.0
 10
8.7002136354
 20
11.843578461
 30
0.0
 10
8.7013137589
 20
11.8500535528
 30
0.0
 10
8.703056955
 20
11.856515926
 30
0.0
 10
8.7054407143
 20
11.8629605693
 30
0.0
 10
8.7084621997
 20
11.8693829264
 30
0.0
 10
8.712118085
 20
11.875779018
 30
0.0
 10
8.7164052209
 20
11.8821450462
 30
0.0
 10
8.721320178
 20
11.8884775894
 30
0.0
 10
8.7268590914
 20
11.8947726172
 30
0.0
 10
8.7308700682
 20
11.8988456454
 30
0.0
 10
8.7329719514
 20
11.9008759088
 30
0.0
  0
SPLINE
  5
36B
100
AcDbEntity
  8
0
100
AcDbSpline
 62
7
  6
CONTINUOUS
 70
0
 71
3
 72
18
 73
14
 74
0
 42
0.0000001
 43
0.0000001
 44
0.0000000001
 40
0.0
 40
0.0
 40
0.0
 40
0.0
 40
0.1504680185
 40
0.2917144324
 40
0.4244425615
 40
0.4879099171
 40
0.5496094205
 40
0.6682625585
 40
0.7817882768
 40
0.8371379945
 40
0.8918078237
 40
0.9460192726
 40
1.0
 40
1.0
 40
1.0
 40
1.0
 10
13.8977776506
 20
9.0819992277
 30
0.0
 10
13.8957011418
 20
9.0799934742
 30
0.0
 10
13.8915509391
 20
9.0762300962
 30
0.0
 10
13.8851247921
 20
9.0712149342
 30
0.0
 10
13.8796968123
 20
9.067667952
 30
0.0
 10
13.8753684812
 20
9.0652660458
 30
0.0
 10
13.8711674847
 20
9.0632039401
 30
0.0
 10
13.8659149091
 20
9.0611202526
 30
0.0
 10
13.860568897
 20
9.0596983393
 30
0.0
 10
13.8563346968
 20
9.0589978918
 30
0.0
 10
13.8531965697
 20
9.0586870217
 30
0.0
 10
13.850071137
 20
9.0585866396
 30
0.0
 10
13.8479946774
 20
9.0586601036
 30
0.0
 10
13.8469614316
 20
9.0587317651
 30
0.0
  0
SPLINE
  5
36C
100
AcDbEntity
  8
0
100
AcDbSpline
 62
7
  6
CONTINUOUS
 70
0
 71
3
 72
18
 73
14
 74
0
 42
0.0000001
 43
0.0000001
 44
0.0000000001
 40
0.0
 40
0.0
 40
0.0
 40
0.0
 40
0.054862062
 40
0.1099280595
 40
0.1653994848
 40
0.2214731179
 40
0.2783387131
 40
0.3361775237
 40
0.4554064004
 40
0.5804415636
 40
0.712334313
 40
0.8519583287
 40
1.0
 40
1.0
 40
1.0
 40
1.0
 10
8.7148519172
 20
11.8106688719
 30
0.0
 10
8.7148519239
 20
11.8120204229
 30
0.0
 10
8.7149377193
 20
11.8147293247
 30
0.0
 10
8.7153234143
 20
11.8187882734
 30
0.0
 10
8.715966067
 20
11.82284488
 30
0.0
 10
8.7168654344
 20
11.8268976641
 30
0.0
 10
8.7180211378
 20
11.8309456133
 30
0.0
 10
8.719922044
 20
11.8363890125
 30
0.0
 10
8.7229672578
 20
11.8431972409
 30
0.0
 10
8.727602253
 20
11.8512377937
 30
0.0
 10
8.733247437
 20
11.8592263142
 30
0.0
 10
8.7398942218
 20
11.8671547518
 30
0.0
 10
8.7448376665
 20
11.8722418196
 30
0.0
 10
8.7474608396
 20
11.8747756103
 30
0.0
  0
SPLINE
  5
36D
100
AcDbEntity
  8
0
100
AcDbSpline
 62
7
  6
CONTINUOUS
 70
0
 71
3
 72
81
 73
77
 74
0
 42
0.0000001
 43
0.0000001
 44
0.0000000001
 40
0.0
 40
0.0
 40
0.0
 40
0.0
 40
0.0027164306
 40
0.0054532406
 40
0.0082303113
 40
0.0110666128
 40
0.0139798282
 40
0.0169861412
 40
0.0201001195
 40
0.0233346405
 40
0.0267010082
 40
0.0302089739
 40
0.0338668927
 40
0.0376818791
 40
0.0416598591
 40
0.0458058003
 40
0.0501237459
 40
0.0546169413
 40
0.0592879758
 40
0.0641387574
 40
0.0691706959
 40
0.0743846914
 40
0.0853596139
 40
0.0970634815
 40
0.1094902477
 40
0.1226295218
 40
0.1364672103
 40
0.1509860393
 40
0.1661659502
 40
0.1819844132
 40
0.1984166695
 40
0.2154359556
 40
0.233013703
 40
0.2511197005
 40
0.2697222361
 40
0.2887882189
 40
0.3082833183
 40
0.3281720849
 40
0.3484180605
 40
0.368983879
 40
0.38983137
 40
0.4109216725
 40
0.4536716934
 40
0.496913714
 40
0.5403220126
 40
0.5835692765
 40
0.6263297382
 40
0.6474271808
 40
0.6682830633
 40
0.6888585076
 40
0.7091153275
 40
0.7290161282
 40
0.7485244101
 40
0.7676046883
 40
0.786222604
 40
0.804345033
 40
0.8219402078
 40
0.8389778539
 40
0.8554293539
 40
0.8712678975
 40
0.8864686613
 40
0.9010090234
 40
0.9148688331
 40
0.9280307344
 40
0.9404805411
 40
0.9522077238
 40
0.9577984982
 40
0.963206723
 40
0.9684324181
 40
0.9734760178
 40
0.9783383767
 40
0.9830208243
 40
0.9875253764
 40
0.9918546118
 40
0.9960116
 40
1.0
 40
1.0
 40
1.0
 40
1.0
 10
13.9485938695
 20
10.5242118133
 30
0.0
 10
13.949964722
 20
10.5241167368
 30
0.0
 10
13.9527096916
 20
10.5238017864
 30
0.0
 10
13.9567921837
 20
10.5229589669
 30
0.0
 10
13.9608438404
 20
10.5217460125
 30
0.0
 10
13.964861738
 20
10.5201639651
 30
0.0
 10
13.9688438212
 20
10.5182143138
 30
0.0
 10
13.9727880657
 20
10.5158985876
 30
0.0
 10
13.9766925928
 20
10.5132183546
 30
0.0
 10
13.9805557553
 20
10.5101754293
 30
0.0
 10
13.9843758015
 20
10.5067714863
 30
0.0
 10
13.9881511263
 20
10.5030084402
 30
0.0
 10
13.991880101
 20
10.4988882604
 30
0.0
 10
13.9955609965
 20
10.4944129824
 30
0.0
 10
13.9991922423
 20
10.4895849061
 30
0.0
 10
14.0027720846
 20
10.4844063641
 30
0.0
 10
14.0062988688
 20
10.4788799272
 30
0.0
 10
14.0097709483
 20
10.4730083287
 30
0.0
 10
14.0131865708
 20
10.4667944235
 30
0.0
 10
14.0165441494
 20
10.460241322
 30
0.0
 10
14.0198420242
 20
10.4533522276
 30
0.0
 10
14.0242325446
 20
10.4435552282
 30
0.0
 10
14.0295419953
 20
10.4304768546
 30
0.0
 10
14.0355455509
 20
10.4137593849
 30
0.0
 10
14.0412736846
 20
10.3957932171
 30
0.0
 10
14.0467148688
 20
10.376614119
 30
0.0
 10
14.0518581307
 20
10.3562599986
 30
0.0
 10
14.0566930398
 20
10.3347713927
 30
0.0
 10
14.0612097714
 20
10.3121911677
 30
0.0
 10
14.0653991284
 20
10.2885644715
 30
0.0
 10
14.0692525879
 20
10.2639386201
 30
0.0
 10
14.0727623143
 20
10.2383629904
 30
0.0
 10
14.0759211633
 20
10.2118888984
 30
0.0
 10
14.0787227014
 20
10.1845694876
 30
0.0
 10
14.0811612165
 20
10.1564596252
 30
0.0
 10
14.0832317512
 20
10.127615792
 30
0.0
 10
14.0849300917
 20
10.0980959591
 30
0.0
 10
14.0862527744
 20
10.0679594637
 30
0.0
 10
14.0871970948
 20
10.0372668845
 30
0.0
 10
14.0877611055
 20
10.0060799463
 30
0.0
 10
14.0879436856
 20
9.9744613126
 30
0.0
 10
14.0876766615
 20
9.9316207513
 30
0.0
 10
14.0863811046
 20
9.8774618049
 30
0.0
 10
14.0833278305
 20
9.8120686571
 30
0.0
 10
14.0787930807
 20
9.7465091766
 30
0.0
 10
14.0728132672
 20
9.6813105054
 30
0.0
 10
14.0666390736
 20
9.6274774308
 30
0.0
 10
14.061004417
 20
9.5849949465
 30
0.0
 10
14.0564694113
 20
9.5536898359
 30
0.0
 10
14.0516159123
 20
9.5228629366
 30
0.0
 10
14.0464536692
 20
9.4925761836
 30
0.0
 10
14.0409931064
 20
9.4628904818
 30
0.0
 10
14.0352452319
 20
9.4338655075
 30
0.0
 10
14.0292216508
 20
9.4055595974
 30
0.0
 10
14.0229345307
 20
9.3780296244
 30
0.0
 10
14.0163965689
 20
9.3513308901
 30
0.0
 10
14.0096209703
 20
9.3255170137
 30
0.0
 10
14.0026214159
 20
9.3006398131
 30
0.0
 10
13.995412059
 20
9.2767491847
 30
0.0
 10
13.9880074728
 20
9.2538930015
 30
0.0
 10
13.9804226209
 20
9.2321170213
 30
0.0
 10
13.972672818
 20
9.2114647707
 30
0.0
 10
13.9647737011
 20
9.1919774697
 30
0.0
 10
13.956741183
 20
9.1736937744
 30
0.0
 10
13.9485914246
 20
9.1566501871
 30
0.0
 10
13.9416089994
 20
9.1433037486
 30
0.0
 10
13.9359654104
 20
9.1332870689
 30
0.0
 10
13.9317811412
 20
9.1262254426
 30
0.0
 10
13.9275797945
 20
9.1194981233
 30
0.0
 10
13.9233634498
 20
9.1131084493
 30
0.0
 10
13.9191342522
 20
9.1070595835
 30
0.0
 10
13.9148941896
 20
9.1013545358
 30
0.0
 10
13.910645355
 20
9.0959960347
 30
0.0
 10
13.9063896961
 20
9.0909867338
 30
0.0
 10
13.9021295498
 20
9.0863293514
 30
0.0
 10
13.899228811
 20
9.0834009412
 30
0.0
 10
13.8977776506
 20
9.0819992277
 30
0.0
  0
SPLINE
  5
36E
100
AcDbEntity
  8
0
100
AcDbSpline
 62
7
  6
CONTINUOUS
 70
0
 71
3
 72
77
 73
73
 74
0
 42
0.0000001
 43
0.0000001
 44
0.0000000001
 40
0.0
 40
0.0
 40
0.0
 40
0.0
 40
0.0039084994
 40
0.0079772974
 40
0.012209798
 40
0.0166088559
 40
0.0211768956
 40
0.0259158574
 40
0.0308270798
 40
0.0359114118
 40
0.0411693546
 40
0.0466010051
 40
0.0579838916
 40
0.0700556842
 40
0.0828073877
 40
0.0962266232
 40
0.1102980462
 40
0.1250037443
 40
0.1403235336
 40
0.1562351805
 40
0.1727145774
 40
0.1897359464
 40
0.2072719916
 40
0.2252940178
 40
0.2437720351
 40
0.2626748976
 40
0.2819704104
 40
0.3016254155
 40
0.3216058788
 40
0.3624026007
 40
0.404075352
 40
0.4463300451
 40
0.4888673211
 40
0.5313852631
 40
0.5735821269
 40
0.6151590781
 40
0.6356235138
 40
0.6558236263
 40
0.675724108
 40
0.6952903457
 40
0.7144885205
 40
0.7332857152
 40
0.7516499923
 40
0.7695504882
 40
0.7869575342
 40
0.8038427854
 40
0.8201793189
 40
0.8359417653
 40
0.8511064814
 40
0.8656517419
 40
0.8795579173
 40
0.8928077175
 40
0.9053865218
 40
0.9172827736
 40
0.928488434
 40
0.9338311931
 40
0.9390002653
 40
0.9439959246
 40
0.9488188752
 40
0.9534702322
 40
0.9579515444
 40
0.9622649502
 40
0.966413133
 40
0.9703994508
 40
0.9742280493
 40
0.9779038673
 40
0.9814328402
 40
0.9880767807
 40
0.9912119695
 40
0.9942357777
 40
0.9971605155
 40
1.0
 40
1.0
 40
1.0
 40
1.0
 10
13.8668680216
 20
9.0841428178
 30
0.0
 10
13.8682751621
 20
9.0855020112
 30
0.0
 10
13.8710880158
 20
9.0883379121
 30
0.0
 10
13.8752217324
 20
9.0928412254
 30
0.0
 10
13.8793513852
 20
9.0976760173
 30
0.0
 10
13.8834747901
 20
9.1028398172
 30
0.0
 10
13.8875901683
 20
9.1083301848
 30
0.0
 10
13.8916956162
 20
9.1141446542
 30
0.0
 10
13.8957892962
 20
9.1202805234
 30
0.0
 10
13.8998693052
 20
9.1267349084
 30
0.0
 10
13.9039336874
 20
9.1335048192
 30
0.0
 10
13.9094153325
 20
9.1430981797
 30
0.0
 10
13.9162014041
 20
9.1558701634
 30
0.0
 10
13.924130075
 20
9.1721703851
 30
0.0
 10
13.9319515067
 20
9.1896450843
 30
0.0
 10
13.9396508772
 20
9.2082614149
 30
0.0
 10
13.9472136238
 20
9.2279845987
 30
0.0
 10
13.9546253848
 20
9.2487775794
 30
0.0
 10
13.9618720669
 20
9.2706012535
 30
0.0
 10
13.9689398754
 20
9.2934145027
 30
0.0
 10
13.9758153829
 20
9.3171742798
 30
0.0
 10
13.9824855131
 20
9.3418357172
 30
0.0
 10
13.9889375746
 20
9.367352227
 30
0.0
 10
13.9951592878
 20
9.3936755789
 30
0.0
 10
14.001138839
 20
9.4207559855
 30
0.0
 10
14.0068648685
 20
9.4485422196
 30
0.0
 10
14.0123264778
 20
9.4769817035
 30
0.0
 10
14.0175133277
 20
9.5060206609
 30
0.0
 10
14.0240949857
 20
9.5457400055
 30
0.0
 10
14.0315500901
 20
9.5964815475
 30
0.0
 10
14.0391988057
 20
9.6584467242
 30
0.0
 10
14.0455524682
 20
9.7214337742
 30
0.0
 10
14.0505627612
 20
9.784966096
 30
0.0
 10
14.0541917819
 20
9.8485633472
 30
0.0
 10
14.0564120418
 20
9.9117442789
 30
0.0
 10
14.0570783116
 20
9.9639211286
 30
0.0
 10
14.0568830869
 20
10.0050871963
 30
0.0
 10
14.0563781158
 20
10.0353993954
 30
0.0
 10
14.0555149347
 20
10.0652537308
 30
0.0
 10
14.0542951649
 20
10.0945937309
 30
0.0
 10
14.0527211518
 20
10.1233638481
 30
0.0
 10
14.050795927
 20
10.1515096412
 30
0.0
 10
14.0485231831
 20
10.1789778544
 30
0.0
 10
14.0459072644
 20
10.2057165182
 30
0.0
 10
14.0429531743
 20
10.2316750611
 30
0.0
 10
14.0396665854
 20
10.2568044139
 30
0.0
 10
14.0360537939
 20
10.2810570953
 30
0.0
 10
14.0321217074
 20
10.3043872991
 30
0.0
 10
14.0278778482
 20
10.3267510058
 30
0.0
 10
14.0233303563
 20
10.3481060784
 30
0.0
 10
14.0184879327
 20
10.3684123493
 30
0.0
 10
14.0133598152
 20
10.3876316641
 30
0.0
 10
14.007955768
 20
10.4057281371
 30
0.0
 10
14.0022860627
 20
10.4226677672
 30
0.0
 10
13.9972723672
 20
10.4359980661
 30
0.0
 10
13.9931241274
 20
10.4460468933
 30
0.0
 10
13.9900027724
 20
10.4531546513
 30
0.0
 10
13.9868231548
 20
10.4599503813
 30
0.0
 10
13.9835867538
 20
10.4664309302
 30
0.0
 10
13.9802951065
 20
10.4725932848
 30
0.0
 10
13.9769496523
 20
10.4784345404
 30
0.0
 10
13.9735520005
 20
10.4839520226
 30
0.0
 10
13.9701036589
 20
10.4891431482
 30
0.0
 10
13.9666061158
 20
10.4940055156
 30
0.0
 10
13.963061077
 20
10.4985368169
 30
0.0
 10
13.9594696941
 20
10.5027352326
 30
0.0
 10
13.9547177656
 20
10.5077842094
 30
0.0
 10
13.9497869896
 20
10.5122879606
 30
0.0
 10
13.944674931
 20
10.5161586106
 30
0.0
 10
13.9408761161
 20
10.5186637094
 30
0.0
 10
13.9370408368
 20
10.5208251014
 30
0.0
 10
13.9344258839
 20
10.5220523568
 30
0.0
 10
13.9331162397
 20
10.5226045455
 30
0.0
  0
SPLINE
  5
36F
100
AcDbEntity
  8
0
100
AcDbSpline
 62
7
  6
CONTINUOUS
 70
0
 71
3
 72
15
 73
11
 74
0
 42
0.0000001
 43
0.0000001
 44
0.0000000001
 40
0.0
 40
0.0
 40
0.0
 40
0.0
 40
0.1439731326
 40
0.2818196286
 40
0.4138114772
 40
0.5402836434
 40
0.6616394946
 40
0.7783447335
 40
0.8909316015
 40
1.0
 40
1.0
 40
1.0
 40
1.0
 10
13.8668680216
 20
9.0841428178
 30
0.0
 10
13.8654260241
 20
9.0827499551
 30
0.0
 10
13.8625430384
 20
9.0800849294
 30
0.0
 10
13.8581236329
 20
9.0763833374
 30
0.0
 10
13.8537075992
 20
9.0730687728
 30
0.0
 10
13.849297274
 20
9.070143457
 30
0.0
 10
13.8448948062
 20
9.0676090721
 30
0.0
 10
13.8405020493
 20
9.0654673603
 30
0.0
 10
13.8361216562
 20
9.0637199246
 30
0.0
 10
13.8331691867
 20
9.0628059881
 30
0.0
 10
13.8317004829
 20
9.0624191423
 30
0.0
  0
SPLINE
  5
370
100
AcDbEntity
  8
0
100
AcDbSpline
 62
7
  6
CONTINUOUS
 70
0
 71
3
 72
19
 73
15
 74
0
 42
0.0000001
 43
0.0000001
 44
0.0000000001
 40
0.0
 40
0.0
 40
0.0
 40
0.0
 40
0.1532259837
 40
0.2947794198
 40
0.4259268468
 40
0.5483710024
 40
0.6070241419
 40
0.664343639
 40
0.7206643342
 40
0.776340523
 40
0.8317401594
 40
0.887237108
 40
0.9432031319
 40
1.0
 40
1.0
 40
1.0
 40
1.0
 10
13.8668680216
 20
9.2382079962
 30
0.0
 10
13.8648430384
 20
9.2362520125
 30
0.0
 10
13.860797019
 20
9.2326389555
 30
0.0
 10
13.8544772149
 20
9.2279998223
 30
0.0
 10
13.8481658784
 20
9.2243765485
 30
0.0
 10
13.8428421025
 20
9.2221831595
 30
0.0
 10
13.8386263816
 20
9.2209784806
 30
0.0
 10
13.8355207822
 20
9.2203470029
 30
0.0
 10
13.8324284895
 20
9.2199754642
 30
0.0
 10
13.8293510811
 20
9.2198642926
 30
0.0
 10
13.8262904127
 20
9.220013726
 30
0.0
 10
13.8232482286
 20
9.2204236103
 30
0.0
 10
13.8202265672
 20
9.221093639
 30
0.0
 10
13.8182449846
 20
9.2217078046
 30
0.0
 10
13.8172610767
 20
9.2220556692
 30
0.0
  0
SPLINE
  5
371
100
AcDbEntity
  8
0
100
AcDbSpline
 62
7
  6
CONTINUOUS
 70
0
 71
3
 72
15
 73
11
 74
0
 42
0.0000001
 43
0.0000001
 44
0.0000000001
 40
0.0
 40
0.0
 40
0.0
 40
0.0
 40
0.1273483438
 40
0.2538606048
 40
0.3795878922
 40
0.5046051199
 40
0.6290174392
 40
0.7529533668
 40
0.8765605676
 40
1.0
 40
1.0
 40
1.0
 40
1.0
 10
9.0875407085
 20
6.2216580932
 30
0.0
 10
9.0875407085
 20
6.2279101526
 30
0.0
 10
9.0881376613
 20
6.2403818684
 30
0.0
 10
9.0908373176
 20
6.2588495657
 30
0.0
 10
9.0953137998
 20
6.2768532296
 30
0.0
 10
9.1015266649
 20
6.2942244907
 30
0.0
 10
9.1094189294
 20
6.3108031396
 30
0.0
 10
9.1189186541
 20
6.3264360739
 30
0.0
 10
9.1299364734
 20
6.340976847
 30
0.0
 10
9.138232353
 20
6.3498591336
 30
0.0
 10
9.1425911645
 20
6.3540693874
 30
0.0
  0
SPLINE
  5
372
100
AcDbEntity
  8
0
100
AcDbSpline
 62
4
  6
CONTINUOUS
 70
0
 71
3
 72
313
 73
309
 74
0
 42
0.0000001
 43
0.0000001
 44
0.0000000001
 40
0.0
 40
0.0
 40
0.0
 40
0.0
 40
0.015625
 40
0.0234375
 40
0.03125
 40
0.0390625
 40
0.046875
 40
0.05078125
 40
0.0546875
 40
0.056640625
 40
0.05859375
 40
0.060546875
 40
0.0615234375
 40
0.0620117188
 40
0.0625
 40
0.0629882812
 40
0.0634765625
 40
0.064453125
 40
0.06640625
 40
0.068359375
 40
0.0703125
 40
0.07421875
 40
0.078125
 40
0.0859375
 40
0.09375
 40
0.1015625
 40
0.109375
 40
0.11328125
 40
0.1171875
 40
0.119140625
 40
0.12109375
 40
0.123046875
 40
0.1240234375
 40
0.1245117188
 40
0.125
 40
0.1254882812
 40
0.1259765625
 40
0.126953125
 40
0.12890625
 40
0.130859375
 40
0.1328125
 40
0.13671875
 40
0.140625
 40
0.1484375
 40
0.15625
 40
0.1640625
 40
0.171875
 40
0.17578125
 40
0.1796875
 40
0.181640625
 40
0.18359375
 40
0.185546875
 40
0.1865234375
 40
0.1870117188
 40
0.1875
 40
0.1879882812
 40
0.1884765625
 40
0.189453125
 40
0.19140625
 40
0.193359375
 40
0.1953125
 40
0.19921875
 40
0.203125
 40
0.2109375
 40
0.21875
 40
0.2265625
 40
0.234375
 40
0.23828125
 40
0.2421875
 40
0.244140625
 40
0.24609375
 40
0.248046875
 40
0.2490234375
 40
0.2495117188
 40
0.25
 40
0.2504882812
 40
0.2509765625
 40
0.251953125
 40
0.25390625
 40
0.255859375
 40
0.2578125
 40
0.26171875
 40
0.265625
 40
0.2734375
 40
0.28125
 40
0.2890625
 40
0.296875
 40
0.30078125
 40
0.3046875
 40
0.306640625
 40
0.30859375
 40
0.310546875
 40
0.3115234375
 40
0.3120117188
 40
0.3125
 40
0.3129882812
 40
0.3134765625
 40
0.314453125
 40
0.31640625
 40
0.318359375
 40
0.3203125
 40
0.32421875
 40
0.328125
 40
0.3359375
 40
0.34375
 40
0.3515625
 40
0.359375
 40
0.36328125
 40
0.3671875
 40
0.369140625
 40
0.37109375
 40
0.373046875
 40
0.3740234375
 40
0.3745117188
 40
0.375
 40
0.3754882812
 40
0.3759765625
 40
0.376953125
 40
0.37890625
 40
0.380859375
 40
0.3828125
 40
0.38671875
 40
0.390625
 40
0.3984375
 40
0.40625
 40
0.4140625
 40
0.421875
 40
0.42578125
 40
0.4296875
 40
0.431640625
 40
0.43359375
 40
0.435546875
 40
0.4365234375
 40
0.4370117188
 40
0.4375
 40
0.4379882812
 40
0.4384765625
 40
0.439453125
 40
0.44140625
 40
0.443359375
 40
0.4453125
 40
0.44921875
 40
0.453125
 40
0.4609375
 40
0.46875
 40
0.4765625
 40
0.484375
 40
0.48828125
 40
0.4921875
 40
0.494140625
 40
0.49609375
 40
0.498046875
 40
0.4990234375
 40
0.4995117188
 40
0.5
 40
0.5004882812
 40
0.5009765625
 40
0.501953125
 40
0.50390625
 40
0.505859375
 40
0.5078125
 40
0.51171875
 40
0.515625
 40
0.5234375
 40
0.53125
 40
0.5390625
 40
0.546875
 40
0.55078125
 40
0.5546875
 40
0.556640625
 40
0.55859375
 40
0.560546875
 40
0.5615234375
 40
0.5620117188
 40
0.5625
 40
0.5629882812
 40
0.5634765625
 40
0.564453125
 40
0.56640625
 40
0.568359375
 40
0.5703125
 40
0.57421875
 40
0.578125
 40
0.5859375
 40
0.59375
 40
0.6015625
 40
0.609375
 40
0.61328125
 40
0.6171875
 40
0.619140625
 40
0.62109375
 40
0.623046875
 40
0.6240234375
 40
0.6245117188
 40
0.625
 40
0.6254882812
 40
0.6259765625
 40
0.626953125
 40
0.62890625
 40
0.630859375
 40
0.6328125
 40
0.63671875
 40
0.640625
 40
0.6484375
 40
0.65625
 40
0.6640625
 40
0.671875
 40
0.67578125
 40
0.6796875
 40
0.681640625
 40
0.68359375
 40
0.685546875
 40
0.6865234375
 40
0.6870117188
 40
0.6875
 40
0.6879882812
 40
0.6884765625
 40
0.689453125
 40
0.69140625
 40
0.693359375
 40
0.6953125
 40
0.69921875
 40
0.703125
 40
0.7109375
 40
0.71875
 40
0.7265625
 40
0.734375
 40
0.73828125
 40
0.7421875
 40
0.744140625
 40
0.74609375
 40
0.748046875
 40
0.7490234375
 40
0.7495117188
 40
0.75
 40
0.7504882812
 40
0.7509765625
 40
0.751953125
 40
0.75390625
 40
0.755859375
 40
0.7578125
 40
0.76171875
 40
0.765625
 40
0.7734375
 40
0.78125
 40
0.7890625
 40
0.796875
 40
0.80078125
 40
0.8046875
 40
0.806640625
 40
0.80859375
 40
0.810546875
 40
0.8115234375
 40
0.8120117188
 40
0.8125
 40
0.8129882812
 40
0.8134765625
 40
0.814453125
 40
0.81640625
 40
0.818359375
 40
0.8203125
 40
0.82421875
 40
0.828125
 40
0.8359375
 40
0.84375
 40
0.8515625
 40
0.859375
 40
0.86328125
 40
0.8671875
 40
0.869140625
 40
0.87109375
 40
0.873046875
 40
0.8740234375
 40
0.8745117188
 40
0.875
 40
0.8754882812
 40
0.8759765625
 40
0.876953125
 40
0.87890625
 40
0.880859375
 40
0.8828125
 40
0.88671875
 40
0.890625
 40
0.8984375
 40
0.90625
 40
0.9140625
 40
0.921875
 40
0.92578125
 40
0.9296875
 40
0.931640625
 40
0.93359375
 40
0.935546875
 40
0.9365234375
 40
0.9370117188
 40
0.9375
 40
0.9379882812
 40
0.9384765625
 40
0.939453125
 40
0.94140625
 40
0.943359375
 40
0.9453125
 40
0.94921875
 40
0.953125
 40
0.9609375
 40
0.96875
 40
0.9765625
 40
0.984375
 40
1.0
 40
1.0
 40
1.0
 40
1.0
 10
9.2204521196
 20
9.8825726469
 30
0.0
 10
9.2235853065
 20
9.8826625713
 30
0.0
 10
9.228285087
 20
9.8827974577
 30
0.0
 10
9.2345514607
 20
9.8829773072
 30
0.0
 10
9.2392512414
 20
9.8831121918
 30
0.0
 10
9.2439510204
 20
9.8832470859
 30
0.0
 10
9.2478675085
 20
9.8833594682
 30
0.0
 10
9.2510006862
 20
9.88344944
 30
0.0
 10
9.2529589516
 20
9.8835055222
 30
0.0
 10
9.2545254967
 20
9.8835507319
 30
0.0
 10
9.2557005895
 20
9.8835836974
 30
0.0
 10
9.2566792483
 20
9.8836141645
 30
0.0
 10
9.2573654579
 20
9.8836296122
 30
0.0
 10
9.2577557845
 20
9.8836476195
 30
0.0
 10
9.2580535807
 20
9.8836352646
 30
0.0
 10
9.2583320687
 20
9.8837217614
 30
0.0
 10
9.258710121
 20
9.88380261
 30
0.0
 10
9.2593685747
 20
9.8839601601
 30
0.0
 10
9.2603108633
 20
9.8841768326
 30
0.0
 10
9.2614409074
 20
9.8844404347
 30
0.0
 10
9.2629478781
 20
9.8847906485
 30
0.0
 10
9.2648315076
 20
9.8852288456
 30
0.0
 10
9.2678453617
 20
9.8859297208
 30
0.0
 10
9.2716126629
 20
9.8868058976
 30
0.0
 10
9.2761334324
 20
9.8878572721
 30
0.0
 10
9.2806541963
 20
9.888908665
 30
0.0
 10
9.2844215113
 20
9.8897847955
 30
0.0
 10
9.2874353379
 20
9.8904857634
 30
0.0
 10
9.2893190372
 20
9.8909237247
 30
0.0
 10
9.2908258647
 20
9.8912744227
 30
0.0
 10
9.2919563463
 20
9.8915365455
 30
0.0
 10
9.2928972662
 20
9.8917578462
 30
0.0
 10
9.2935581631
 20
9.8919071343
 30
0.0
 10
9.2939323007
 20
9.8920012207
 30
0.0
 10
9.2942228137
 20
9.892047055
 30
0.0
 10
9.2944754461
 20
9.8921874218
 30
0.0
 10
9.2948255024
 20
9.8923416035
 30
0.0
 10
9.2954319448
 20
9.8926267848
 30
0.0
 10
9.2963015096
 20
9.8930261545
 30
0.0
 10
9.2973436097
 20
9.8935088361
 30
0.0
 10
9.2987335577
 20
9.8941512108
 30
0.0
 10
9.3004708279
 20
9.8949545904
 30
0.0
 10
9.3032505523
 20
9.8962397678
 30
0.0
 10
9.306725176
 20
9.8978463189
 30
0.0
 10
9.3108947393
 20
9.899774144
 30
0.0
 10
9.3150642943
 20
9.901701987
 30
0.0
 10
9.3185389387
 20
9.9033084933
 30
0.0
 10
9.3213186217
 20
9.9045937605
 30
0.0
 10
9.3230559973
 20
9.9053969117
 30
0.0
 10
9.3244457289
 20
9.9060397549
 30
0.0
 10
9.3254884902
 20
9.9065210052
 30
0.0
 10
9.3263559863
 20
9.9069248533
 30
0.0
 10
9.3269661216
 20
9.9072020398
 30
0.0
 10
9.3273102609
 20
9.9073690312
 30
0.0
 10
9.3275810685
 20
9.907470051
 30
0.0
 10
9.3278033185
 20
9.907663666
 30
0.0
 10
9.3281165893
 20
9.9078895212
 30
0.0
 10
9.3286569216
 20
9.9082998161
 30
0.0
 10
9.3294329508
 20
9.9088780842
 30
0.0
 10
9.3303624198
 20
9.9095753734
 30
0.0
 10
9.3316023287
 20
9.9105039161
 30
0.0
 10
9.3331520035
 20
9.9116649973
 30
0.0
 10
9.3356316014
 20
9.9135225021
 30
0.0
 10
9.3387310578
 20
9.9158444606
 30
0.0
 10
9.3424504249
 20
9.918630776
 30
0.0
 10
9.3461697798
 20
9.9214171069
 30
0.0
 10
9.3492692665
 20
9.9237390263
 30
0.0
 10
9.3517488037
 20
9.9255966094
 30
0.0
 10
9.3532986328
 20
9.9267574915
 30
0.0
 10
9.3545382251
 20
9.9276864429
 30
0.0
 10
9.3554686612
 20
9.9283824836
 30
0.0
 10
9.3562416647
 20
9.9289646582
 30
0.0
 10
9.3567873984
 20
9.9293679792
 30
0.0
 10
9.3570920148
 20
9.9296050082
 30
0.0
 10
9.3573408484
 20
9.9297643009
 30
0.0
 10
9.3575118124
 20
9.9299942299
 30
0.0
 10
9.3577669261
 20
9.9302761632
 30
0.0
 10
9.35820072
 20
9.9307810261
 30
0.0
 10
9.3588270418
 20
9.9314962571
 30
0.0
 10
9.359575796
 20
9.9323571033
 30
0.0
 10
9.3605751241
 20
9.9335040009
 30
0.0
 10
9.3618239456
 20
9.9349379302
 30
0.0
 10
9.3638222492
 20
9.9372320452
 30
0.0
 10
9.3663200633
 20
9.9400997483
 30
0.0
 10
9.3693174703
 20
9.9435409651
 30
0.0
 10
9.3723148619
 20
9.9469821945
 30
0.0
 10
9.3748127145
 20
9.949849866
 30
0.0
 10
9.3768109411
 20
9.9521440442
 30
0.0
 10
9.3780599583
 20
9.9535778129
 30
0.0
 10
9.3790588846
 20
9.9547250401
 30
0.0
 10
9.3798088663
 20
9.9555848792
 30
0.0
 10
9.3804313476
 20
9.9563032612
 30
0.0
 10
9.3808719975
 20
9.956802499
 30
0.0
 10
9.3811161262
 20
9.9570934452
 30
0.0
 10
9.3813208328
 20
9.9572956895
 30
0.0
 10
9.3814429346
 20
9.9575589615
 30
0.0
 10
9.3816345504
 20
9.9578887038
 30
0.0
 10
9.3819564535
 20
9.9584756708
 30
0.0
 10
9.3824233335
 20
9.9593090097
 30
0.0
 10
9.3829805854
 20
9.960311236
 30
0.0
 10
9.3837246373
 20
9.9616467625
 30
0.0
 10
9.3846543428
 20
9.963316436
 30
0.0
 10
9.3861420724
 20
9.9659877652
 30
0.0
 10
9.3880016651
 20
9.9693269779
 30
0.0
 10
9.3902332083
 20
9.9733340102
 30
0.0
 10
9.3924647347
 20
9.9773410526
 30
0.0
 10
9.3943243692
 20
9.9806802399
 30
0.0
 10
9.3958120152
 20
9.9833516199
 30
0.0
 10
9.3967419334
 20
9.9850211646
 30
0.0
 10
9.3974855486
 20
9.9863569554
 30
0.0
 10
9.3980441344
 20
9.9873583739
 30
0.0
 10
9.3985068412
 20
9.9881942401
 30
0.0
 10
9.3988361942
 20
9.9887766957
 30
0.0
 10
9.3990158733
 20
9.9891136662
 30
0.0
 10
9.3991746411
 20
9.9893547353
 30
0.0
 10
9.3992416362
 20
9.9896403702
 30
0.0
 10
9.3993629744
 20
9.9900056716
 30
0.0
 10
9.3995604016
 20
9.9906521918
 30
0.0
 10
9.399850238
 20
9.9915720055
 30
0.0
 10
9.400194704
 20
9.9926774027
 30
0.0
 10
9.4006551579
 20
9.9941506996
 30
0.0
 10
9.401230326
 20
9.9959925145
 30
0.0
 10
9.4021508182
 20
9.99893931
 30
0.0
 10
9.4033013563
 20
10.0026228418
 30
0.0
 10
9.4046820374
 20
10.007043063
 30
0.0
 10
9.4060627004
 20
10.0114632919
 30
0.0
 10
9.4072132839
 20
10.0151468045
 30
0.0
 10
9.4081336853
 20
10.0180936384
 30
0.0
 10
9.4087090842
 20
10.0199353556
 30
0.0
 10
9.4091690643
 20
10.021408853
 30
0.0
 10
9.4095149776
 20
10.0225136377
 30
0.0
 10
9.409800286
 20
10.0234353679
 30
0.0
 10
9.4100057965
 20
10.0240784668
 30
0.0
 10
9.4101141831
 20
10.02444925
 30
0.0
 10
9.4102209613
 20
10.0247180464
 30
0.0
 10
9.4102303106
 20
10.0250223578
 30
0.0
 10
9.4102767606
 20
10.0254157182
 30
0.0
 10
9.4103422142
 20
10.0261098708
 30
0.0
 10
9.4104439974
 20
10.0270984998
 30
0.0
 10
9.410562594
 20
10.0282861462
 30
0.0
 10
9.4107219604
 20
10.0298692236
 30
0.0
 10
9.4109207447
 20
10.0318482249
 30
0.0
 10
9.4112390364
 20
10.0350145405
 30
0.0
 10
9.4116368191
 20
10.0389724647
 30
0.0
 10
9.412114196
 20
10.043721961
 30
0.0
 10
9.4125915537
 20
10.0484714606
 30
0.0
 10
9.4129893841
 20
10.0524293767
 30
0.0
 10
9.4133075805
 20
10.0555957085
 30
0.0
 10
9.413506607
 20
10.0575746687
 30
0.0
 10
9.4136654761
 20
10.0591578303
 30
0.0
 10
9.413785592
 20
10.0603452197
 30
0.0
 10
9.4138826218
 20
10.0613346528
 30
0.0
 10
9.4139565611
 20
10.0620273699
 30
0.0
 10
9.4139894148
 20
10.0624230304
 30
0.0
 10
9.4140405275
 20
10.0627202768
 30
0.0
 10
9.4139904492
 20
10.0630156077
 30
0.0
 10
9.4139589746
 20
10.0634100503
 30
0.0
 10
9.4138874489
 20
10.0641000136
 30
0.0
 10
9.413793867
 20
10.0650858383
 30
0.0
 10
9.4136778886
 20
10.0662687582
 30
0.0
 10
9.4135245361
 20
10.067846009
 30
0.0
 10
9.4133324054
 20
10.0698175643
 30
0.0
 10
9.4130252423
 20
10.0729720573
 30
0.0
 10
9.4126412034
 20
10.0769151719
 30
0.0
 10
9.4121803956
 20
10.0816469105
 30
0.0
 10
9.4117195686
 20
10.0863786477
 30
0.0
 10
9.4113355775
 20
10.0903217658
 30
0.0
 10
9.411028319
 20
10.0934762519
 30
0.0
 10
9.4108364307
 20
10.0954478248
 30
0.0
 10
9.4106825807
 20
10.0970250394
 30
0.0
 10
9.4105681222
 20
10.09820807
 30
0.0
 10
9.4104697848
 20
10.0991935485
 30
0.0
 10
9.4104067484
 20
10.0998841296
 30
0.0
 10
9.4103616718
 20
10.1002775824
 30
0.0
 10
9.4103533745
 20
10.1005759539
 30
0.0
 10
9.4102475644
 20
10.10086178
 30
0.0
 10
9.4101404979
 20
10.1012472574
 30
0.0
 10
9.4099372839
 20
10.1019198039
 30
0.0
 10
9.4096552634
 20
10.1028816507
 30
0.0
 10
9.4093132925
 20
10.1040354106
 30
0.0
 10
9.4088585699
 20
10.1055739164
 30
0.0
 10
9.4082897426
 20
10.1074969942
 30
0.0
 10
9.407379856
 20
10.1105739491
 30
0.0
 10
9.4062424159
 20
10.1144201322
 30
0.0
 10
9.4048775251
 20
10.1190355571
 30
0.0
 10
9.403512616
 20
10.1236509778
 30
0.0
 10
9.4023752214
 20
10.1274971714
 30
0.0
 10
9.4014652439
 20
10.1305741052
 30
0.0
 10
9.4008966476
 20
10.1324972367
 30
0.0
 10
9.4004414508
 20
10.1340356322
 30
0.0
 10
9.4001009288
 20
10.1351897291
 30
0.0
 10
9.3998143751
 20
10.1361505216
 30
0.0
 10
9.3996192537
 20
10.1368249502
 30
0.0
 10
9.3994992207
 20
10.1372074121
 30
0.0
 10
9.3994332392
 20
10.1375025009
 30
0.0
 10
9.3992753523
 20
10.1377660828
 30
0.0
 10
9.3990968941
 20
10.1381285153
 30
0.0
 10
9.398769656
 20
10.1387576517
 30
0.0
 10
9.3983099817
 20
10.139659095
 30
0.0
 10
9.3977550302
 20
10.1407396811
 30
0.0
 10
9.3970162623
 20
10.1421808628
 30
0.0
 10
9.3960924026
 20
10.1439822029
 30
0.0
 10
9.3946144507
 20
10.1468644237
 30
0.0
 10
9.3927669336
 20
10.1504671731
 30
0.0
 10
9.3905499483
 20
10.1547904848
 30
0.0
 10
9.3883329456
 20
10.1591137895
 30
0.0
 10
9.386485472
 20
10.1627165566
 30
0.0
 10
9.3850074331
 20
10.1655987419
 30
0.0
 10
9.3840837945
 20
10.1674001722
 30
0.0
 10
9.383344573
 20
10.1688411689
 30
0.0
 10
9.382791007
 20
10.1699223201
 30
0.0
 10
9.3823269978
 20
10.1708219954
 30
0.0
 10
9.3820074983
 20
10.171454288
 30
0.0
 10
9.3818166408
 20
10.1718116634
 30
0.0
 10
9.3816968405
 20
10.1720907791
 30
0.0
 10
9.3814878123
 20
10.1723275253
 30
0.0
 10
9.3812402318
 20
10.1726579658
 30
0.0
 10
9.3807924647
 20
10.173229351
 30
0.0
 10
9.3801603788
 20
10.1740492154
 30
0.0
 10
9.3793986307
 20
10.1750315119
 30
0.0
 10
9.3783841
 20
10.1763417787
 30
0.0
 10
9.3771155485
 20
10.1779794279
 30
0.0
 10
9.375086083
 20
10.1805997696
 30
0.0
 10
9.3725491764
 20
10.1838751611
 30
0.0
 10
9.3695049221
 20
10.1878056479
 30
0.0
 10
9.366460653
 20
10.1917361237
 30
0.0
 10
9.3639237834
 20
10.1950115429
 30
0.0
 10
9.3618942439
 20
10.1976318291
 30
0.0
 10
9.3606258808
 20
10.1992696195
 30
0.0
 10
9.3596109633
 20
10.2005795966
 30
0.0
 10
9.3588503967
 20
10.2015627781
 30
0.0
 10
9.3582146142
 20
10.2023798732
 30
0.0
 10
9.3577734463
 20
10.2029562021
 30
0.0
 10
9.3575152921
 20
10.2032787215
 30
0.0
 10
9.3573387428
 20
10.2035397989
 30
0.0
 10
9.3570969574
 20
10.2037275307
 30
0.0
 10
9.3567973319
 20
10.2040034236
 30
0.0
 10
9.3562623853
 20
10.2044743161
 30
0.0
 10
9.3555037187
 20
10.2051532517
 30
0.0
 10
9.3545909462
 20
10.2059653068
 30
0.0
 10
9.353374745
 20
10.2070489788
 30
0.0
 10
9.3518542097
 20
10.2084032497
 30
0.0
 10
9.3494215118
 20
10.2105702615
 30
0.0
 10
9.3463805848
 20
10.2132789646
 30
0.0
 10
9.3427314971
 20
10.2165294367
 30
0.0
 10
9.3390823978
 20
10.2197798942
 30
0.0
 10
9.3360414997
 20
10.2224886338
 30
0.0
 10
9.3336087439
 20
10.2246555726
 30
0.0
 10
9.3320883557
 20
10.2260100291
 30
0.0
 10
9.3308718526
 20
10.2270933202
 30
0.0
 10
9.3299600022
 20
10.2279065389
 30
0.0
 10
9.3291984509
 20
10.2285818339
 30
0.0
 10
9.328668654
 20
10.2290592254
 30
0.0
 10
9.3283607774
 20
10.2293247054
 30
0.0
 10
9.3281443367
 20
10.2295444222
 30
0.0
 10
9.3278725968
 20
10.2296853692
 30
0.0
 10
9.327529566
 20
10.2299007743
 30
0.0
 10
9.3269202749
 20
10.2302649319
 30
0.0
 10
9.3260545577
 20
10.2307918496
 30
0.0
 10
9.3250136859
 20
10.2314212862
 30
0.0
 10
9.3236265593
 20
10.2322615356
 30
0.0
 10
9.3218924104
 20
10.2333115047
 30
0.0
 10
9.3191179068
 20
10.2349916469
 30
0.0
 10
9.3156497309
 20
10.2370917584
 30
0.0
 10
9.3114879406
 20
10.2396119227
 30
0.0
 10
9.3073261413
 20
10.2421320708
 30
0.0
 10
9.3038579879
 20
10.2442322226
 30
0.0
 10
9.3010834394
 20
10.2459122842
 30
0.0
 10
9.2993494046
 20
10.2469624581
 30
0.0
 10
9.2979620439
 20
10.2478022871
 30
0.0
 10
9.2969218873
 20
10.248433008
 30
0.0
 10
9.2960539323
 20
10.2489559077
 30
0.0
 10
9.295448636
 20
10.2493272381
 30
0.0
 10
9.2950992047
 20
10.2495311504
 30
0.0
 10
9.294847125
 20
10.2497073999
 30
0.0
 10
9.294556844
 20
10.2497945261
 30
0.0
 10
9.2941831278
 20
10.2499417817
 30
0.0
 10
9.2935229159
 20
10.2501849947
 30
0.0
 10
9.292583002
 20
10.2505400143
 30
0.0
 10
9.291453716
 20
10.2509627966
 30
0.0
 10
9.2899484865
 20
10.2515276385
 30
0.0
 10
9.2880667836
 20
10.2522333032
 30
0.0
 10
9.2850561517
 20
10.2533625834
 30
0.0
 10
9.2812928299
 20
10.2547741087
 30
0.0
 10
9.2767768581
 20
10.2564679736
 30
0.0
 10
9.2722608799
 20
10.2581618207
 30
0.0
 10
9.2684975741
 20
10.2595733904
 30
0.0
 10
9.2654869101
 20
10.260702582
 30
0.0
 10
9.2636052888
 20
10.2614084718
 30
0.0
 10
9.2620998917
 20
10.2619728516
 30
0.0
 10
9.2609711179
 20
10.2623970456
 30
0.0
 10
9.2600296014
 20
10.2627476483
 30
0.0
 10
9.2593722504
 20
10.2629987463
 30
0.0
 10
9.2589939505
 20
10.2631333681
 30
0.0
 10
9.258717749
 20
10.263259301
 30
0.0
 10
9.2584127891
 20
10.2632897993
 30
0.0
 10
9.2580162072
 20
10.2633637523
 30
0.0
 10
9.257317515
 20
10.2634776604
 30
0.0
 10
9.2563218269
 20
10.2636484948
 30
0.0
 10
9.2551259553
 20
10.2638500254
 30
0.0
 10
9.2535318251
 20
10.2641199451
 30
0.0
 10
9.2515390372
 20
10.2644569296
 30
0.0
 10
9.2483506466
 20
10.2649963369
 30
0.0
 10
9.2443651343
 20
10.2656705164
 30
0.0
 10
9.2395825298
 20
10.2664795659
 30
0.0
 10
9.2347999225
 20
10.2672886063
 30
0.0
 10
9.2284231139
 20
10.26836733
 30
0.0
 10
9.2236405071
 20
10.269176372
 30
0.0
 10
9.2204521027
 20
10.2697157336
 30
0.0
  0
SPLINE
  5
373
100
AcDbEntity
  8
0
100
AcDbSpline
 62
4
  6
CONTINUOUS
 70
0
 71
3
 72
313
 73
309
 74
0
 42
0.0000001
 43
0.0000001
 44
0.0000000001
 40
0.0
 40
0.0
 40
0.0
 40
0.0
 40
0.015625
 40
0.0234375
 40
0.03125
 40
0.0390625
 40
0.046875
 40
0.05078125
 40
0.0546875
 40
0.056640625
 40
0.05859375
 40
0.060546875
 40
0.0615234375
 40
0.0620117188
 40
0.0625
 40
0.0629882812
 40
0.0634765625
 40
0.064453125
 40
0.06640625
 40
0.068359375
 40
0.0703125
 40
0.07421875
 40
0.078125
 40
0.0859375
 40
0.09375
 40
0.1015625
 40
0.109375
 40
0.11328125
 40
0.1171875
 40
0.119140625
 40
0.12109375
 40
0.123046875
 40
0.1240234375
 40
0.1245117188
 40
0.125
 40
0.1254882812
 40
0.1259765625
 40
0.126953125
 40
0.12890625
 40
0.130859375
 40
0.1328125
 40
0.13671875
 40
0.140625
 40
0.1484375
 40
0.15625
 40
0.1640625
 40
0.171875
 40
0.17578125
 40
0.1796875
 40
0.181640625
 40
0.18359375
 40
0.185546875
 40
0.1865234375
 40
0.1870117188
 40
0.1875
 40
0.1879882812
 40
0.1884765625
 40
0.189453125
 40
0.19140625
 40
0.193359375
 40
0.1953125
 40
0.19921875
 40
0.203125
 40
0.2109375
 40
0.21875
 40
0.2265625
 40
0.234375
 40
0.23828125
 40
0.2421875
 40
0.244140625
 40
0.24609375
 40
0.248046875
 40
0.2490234375
 40
0.2495117188
 40
0.25
 40
0.2504882812
 40
0.2509765625
 40
0.251953125
 40
0.25390625
 40
0.255859375
 40
0.2578125
 40
0.26171875
 40
0.265625
 40
0.2734375
 40
0.28125
 40
0.2890625
 40
0.296875
 40
0.30078125
 40
0.3046875
 40
0.306640625
 40
0.30859375
 40
0.310546875
 40
0.3115234375
 40
0.3120117188
 40
0.3125
 40
0.3129882812
 40
0.3134765625
 40
0.314453125
 40
0.31640625
 40
0.318359375
 40
0.3203125
 40
0.32421875
 40
0.328125
 40
0.3359375
 40
0.34375
 40
0.3515625
 40
0.359375
 40
0.36328125
 40
0.3671875
 40
0.369140625
 40
0.37109375
 40
0.373046875
 40
0.3740234375
 40
0.3745117188
 40
0.375
 40
0.3754882812
 40
0.3759765625
 40
0.376953125
 40
0.37890625
 40
0.380859375
 40
0.3828125
 40
0.38671875
 40
0.390625
 40
0.3984375
 40
0.40625
 40
0.4140625
 40
0.421875
 40
0.42578125
 40
0.4296875
 40
0.431640625
 40
0.43359375
 40
0.435546875
 40
0.4365234375
 40
0.4370117188
 40
0.4375
 40
0.4379882812
 40
0.4384765625
 40
0.439453125
 40
0.44140625
 40
0.443359375
 40
0.4453125
 40
0.44921875
 40
0.453125
 40
0.4609375
 40
0.46875
 40
0.4765625
 40
0.484375
 40
0.48828125
 40
0.4921875
 40
0.494140625
 40
0.49609375
 40
0.498046875
 40
0.4990234375
 40
0.4995117188
 40
0.5
 40
0.5004882812
 40
0.5009765625
 40
0.501953125
 40
0.50390625
 40
0.505859375
 40
0.5078125
 40
0.51171875
 40
0.515625
 40
0.5234375
 40
0.53125
 40
0.5390625
 40
0.546875
 40
0.55078125
 40
0.5546875
 40
0.556640625
 40
0.55859375
 40
0.560546875
 40
0.5615234375
 40
0.5620117188
 40
0.5625
 40
0.5629882812
 40
0.5634765625
 40
0.564453125
 40
0.56640625
 40
0.568359375
 40
0.5703125
 40
0.57421875
 40
0.578125
 40
0.5859375
 40
0.59375
 40
0.6015625
 40
0.609375
 40
0.61328125
 40
0.6171875
 40
0.619140625
 40
0.62109375
 40
0.623046875
 40
0.6240234375
 40
0.6245117188
 40
0.625
 40
0.6254882812
 40
0.6259765625
 40
0.626953125
 40
0.62890625
 40
0.630859375
 40
0.6328125
 40
0.63671875
 40
0.640625
 40
0.6484375
 40
0.65625
 40
0.6640625
 40
0.671875
 40
0.67578125
 40
0.6796875
 40
0.681640625
 40
0.68359375
 40
0.685546875
 40
0.6865234375
 40
0.6870117188
 40
0.6875
 40
0.6879882812
 40
0.6884765625
 40
0.689453125
 40
0.69140625
 40
0.693359375
 40
0.6953125
 40
0.69921875
 40
0.703125
 40
0.7109375
 40
0.71875
 40
0.7265625
 40
0.734375
 40
0.73828125
 40
0.7421875
 40
0.744140625
 40
0.74609375
 40
0.748046875
 40
0.7490234375
 40
0.7495117188
 40
0.75
 40
0.7504882812
 40
0.7509765625
 40
0.751953125
 40
0.75390625
 40
0.755859375
 40
0.7578125
 40
0.76171875
 40
0.765625
 40
0.7734375
 40
0.78125
 40
0.7890625
 40
0.796875
 40
0.80078125
 40
0.8046875
 40
0.806640625
 40
0.80859375
 40
0.810546875
 40
0.8115234375
 40
0.8120117188
 40
0.8125
 40
0.8129882812
 40
0.8134765625
 40
0.814453125
 40
0.81640625
 40
0.818359375
 40
0.8203125
 40
0.82421875
 40
0.828125
 40
0.8359375
 40
0.84375
 40
0.8515625
 40
0.859375
 40
0.86328125
 40
0.8671875
 40
0.869140625
 40
0.87109375
 40
0.873046875
 40
0.8740234375
 40
0.8745117188
 40
0.875
 40
0.8754882812
 40
0.8759765625
 40
0.876953125
 40
0.87890625
 40
0.880859375
 40
0.8828125
 40
0.88671875
 40
0.890625
 40
0.8984375
 40
0.90625
 40
0.9140625
 40
0.921875
 40
0.92578125
 40
0.9296875
 40
0.931640625
 40
0.93359375
 40
0.935546875
 40
0.9365234375
 40
0.9370117188
 40
0.9375
 40
0.9379882812
 40
0.9384765625
 40
0.939453125
 40
0.94140625
 40
0.943359375
 40
0.9453125
 40
0.94921875
 40
0.953125
 40
0.9609375
 40
0.96875
 40
0.9765625
 40
0.984375
 40
1.0
 40
1.0
 40
1.0
 40
1.0
 10
9.2204521196
 20
10.2697157324
 30
0.0
 10
9.2173189327
 20
10.269625808
 30
0.0
 10
9.2126191523
 20
10.2694909216
 30
0.0
 10
9.2063527786
 20
10.2693110721
 30
0.0
 10
9.2016529978
 20
10.2691761875
 30
0.0
 10
9.1969532189
 20
10.2690412934
 30
0.0
 10
9.1930367307
 20
10.2689289111
 30
0.0
 10
9.189903553
 20
10.2688389393
 30
0.0
 10
9.1879452877
 20
10.2687828571
 30
0.0
 10
9.1863787425
 20
10.2687376474
 30
0.0
 10
9.1852036498
 20
10.2687046819
 30
0.0
 10
9.1842249909
 20
10.2686742148
 30
0.0
 10
9.1835387814
 20
10.2686587671
 30
0.0
 10
9.1831484547
 20
10.2686407598
 30
0.0
 10
9.1828506586
 20
10.2686531147
 30
0.0
 10
9.1825721705
 20
10.2685666179
 30
0.0
 10
9.1821941182
 20
10.2684857693
 30
0.0
 10
9.1815356646
 20
10.2683282192
 30
0.0
 10
9.180593376
 20
10.2681115467
 30
0.0
 10
9.1794633319
 20
10.2678479446
 30
0.0
 10
9.1779563611
 20
10.2674977308
 30
0.0
 10
9.1760727317
 20
10.2670595337
 30
0.0
 10
9.1730588776
 20
10.2663586586
 30
0.0
 10
9.1692915763
 20
10.2654824817
 30
0.0
 10
9.1647708069
 20
10.2644311072
 30
0.0
 10
9.1602500429
 20
10.2633797143
 30
0.0
 10
9.1564827279
 20
10.2625035838
 30
0.0
 10
9.1534689013
 20
10.2618026159
 30
0.0
 10
9.1515852021
 20
10.2613646546
 30
0.0
 10
9.1500783745
 20
10.2610139566
 30
0.0
 10
9.148947893
 20
10.2607518338
 30
0.0
 10
9.1480069731
 20
10.2605305331
 30
0.0
 10
9.1473460761
 20
10.260381245
 30
0.0
 10
9.1469719386
 20
10.2602871586
 30
0.0
 10
9.1466814255
 20
10.2602413243
 30
0.0
 10
9.1464287932
 20
10.2601009575
 30
0.0
 10
9.1460787368
 20
10.2599467758
 30
0.0
 10
9.1454722945
 20
10.2596615945
 30
0.0
 10
9.1446027297
 20
10.2592622248
 30
0.0
 10
9.1435606296
 20
10.2587795432
 30
0.0
 10
9.1421706816
 20
10.2581371685
 30
0.0
 10
9.1404334114
 20
10.2573337889
 30
0.0
 10
9.1376536869
 20
10.2560486115
 30
0.0
 10
9.1341790632
 20
10.2544420604
 30
0.0
 10
9.1300095
 20
10.2525142353
 30
0.0
 10
9.125839945
 20
10.2505863923
 30
0.0
 10
9.1223653006
 20
10.248979886
 30
0.0
 10
9.1195856176
 20
10.2476946188
 30
0.0
 10
9.1178482419
 20
10.2468914676
 30
0.0
 10
9.1164585104
 20
10.2462486244
 30
0.0
 10
9.1154157491
 20
10.2457673741
 30
0.0
 10
9.114548253
 20
10.245363526
 30
0.0
 10
9.1139381177
 20
10.2450863395
 30
0.0
 10
9.1135939783
 20
10.2449193481
 30
0.0
 10
9.1133231708
 20
10.2448183283
 30
0.0
 10
9.1131009208
 20
10.2446247133
 30
0.0
 10
9.11278765
 20
10.2443988581
 30
0.0
 10
9.1122473176
 20
10.2439885632
 30
0.0
 10
9.1114712885
 20
10.2434102952
 30
0.0
 10
9.1105418194
 20
10.2427130059
 30
0.0
 10
9.1093019106
 20
10.2417844632
 30
0.0
 10
9.1077522357
 20
10.240623382
 30
0.0
 10
9.1052726379
 20
10.2387658773
 30
0.0
 10
9.1021731815
 20
10.2364439187
 30
0.0
 10
9.0984538144
 20
10.2336576034
 30
0.0
 10
9.0947344594
 20
10.2308712724
 30
0.0
 10
9.0916349727
 20
10.228549353
 30
0.0
 10
9.0891554355
 20
10.2266917699
 30
0.0
 10
9.0876056064
 20
10.2255308878
 30
0.0
 10
9.0863660141
 20
10.2246019364
 30
0.0
 10
9.085435578
 20
10.2239058957
 30
0.0
 10
9.0846625746
 20
10.2233237211
 30
0.0
 10
9.0841168408
 20
10.2229204001
 30
0.0
 10
9.0838122245
 20
10.2226833711
 30
0.0
 10
9.0835633908
 20
10.2225240784
 30
0.0
 10
9.0833924269
 20
10.2222941494
 30
0.0
 10
9.0831373131
 20
10.2220122161
 30
0.0
 10
9.0827035192
 20
10.2215073532
 30
0.0
 10
9.0820771974
 20
10.2207921222
 30
0.0
 10
9.0813284432
 20
10.219931276
 30
0.0
 10
9.0803291151
 20
10.2187843784
 30
0.0
 10
9.0790802937
 20
10.2173504491
 30
0.0
 10
9.07708199
 20
10.2150563341
 30
0.0
 10
9.0745841759
 20
10.212188631
 30
0.0
 10
9.071586769
 20
10.2087474142
 30
0.0
 10
9.0685893774
 20
10.2053061848
 30
0.0
 10
9.0660915248
 20
10.2024385133
 30
0.0
 10
9.0640932981
 20
10.2001443351
 30
0.0
 10
9.0628442809
 20
10.1987105664
 30
0.0
 10
9.0618453546
 20
10.1975633392
 30
0.0
 10
9.0610953729
 20
10.1967035001
 30
0.0
 10
9.0604728917
 20
10.1959851181
 30
0.0
 10
9.0600322417
 20
10.1954858803
 30
0.0
 10
9.0597881131
 20
10.1951949341
 30
0.0
 10
9.0595834064
 20
10.1949926898
 30
0.0
 10
9.0594613047
 20
10.1947294178
 30
0.0
 10
9.0592696888
 20
10.1943996755
 30
0.0
 10
9.0589477858
 20
10.1938127085
 30
0.0
 10
9.0584809057
 20
10.1929793696
 30
0.0
 10
9.0579236538
 20
10.1919771433
 30
0.0
 10
9.057179602
 20
10.1906416168
 30
0.0
 10
9.0562498965
 20
10.1889719433
 30
0.0
 10
9.0547621668
 20
10.1863006141
 30
0.0
 10
9.0529025741
 20
10.1829614014
 30
0.0
 10
9.050671031
 20
10.1789543691
 30
0.0
 10
9.0484395046
 20
10.1749473267
 30
0.0
 10
9.0465798701
 20
10.1716081394
 30
0.0
 10
9.0450922241
 20
10.1689367595
 30
0.0
 10
9.0441623059
 20
10.1672672147
 30
0.0
 10
9.0434186906
 20
10.1659314239
 30
0.0
 10
9.0428601049
 20
10.1649300054
 30
0.0
 10
9.0423973981
 20
10.1640941393
 30
0.0
 10
9.0420680451
 20
10.1635116836
 30
0.0
 10
9.041888366
 20
10.1631747131
 30
0.0
 10
9.0417295982
 20
10.162933644
 30
0.0
 10
9.041662603
 20
10.1626480091
 30
0.0
 10
9.0415412648
 20
10.1622827077
 30
0.0
 10
9.0413438377
 20
10.1616361875
 30
0.0
 10
9.0410540013
 20
10.1607163738
 30
0.0
 10
9.0407095352
 20
10.1596109766
 30
0.0
 10
9.0402490814
 20
10.1581376797
 30
0.0
 10
9.0396739132
 20
10.1562958648
 30
0.0
 10
9.0387534211
 20
10.1533490693
 30
0.0
 10
9.0376028829
 20
10.1496655375
 30
0.0
 10
9.0362222018
 20
10.1452453163
 30
0.0
 10
9.0348415389
 20
10.1408250874
 30
0.0
 10
9.0336909553
 20
10.1371415748
 30
0.0
 10
9.032770554
 20
10.1341947409
 30
0.0
 10
9.032195155
 20
10.1323530237
 30
0.0
 10
9.0317351749
 20
10.1308795263
 30
0.0
 10
9.0313892616
 20
10.1297747416
 30
0.0
 10
9.0311039533
 20
10.1288530114
 30
0.0
 10
9.0308984427
 20
10.1282099125
 30
0.0
 10
9.0307900561
 20
10.1278391293
 30
0.0
 10
9.0306832779
 20
10.1275703329
 30
0.0
 10
9.0306739286
 20
10.1272660215
 30
0.0
 10
9.0306274786
 20
10.1268726611
 30
0.0
 10
9.0305620251
 20
10.1261785085
 30
0.0
 10
9.0304602418
 20
10.1251898795
 30
0.0
 10
9.0303416452
 20
10.1240022331
 30
0.0
 10
9.0301822788
 20
10.1224191557
 30
0.0
 10
9.0299834946
 20
10.1204401544
 30
0.0
 10
9.0296652029
 20
10.1172738388
 30
0.0
 10
9.0292674201
 20
10.1133159146
 30
0.0
 10
9.0287900433
 20
10.1085664183
 30
0.0
 10
9.0283126855
 20
10.1038169187
 30
0.0
 10
9.0279148551
 20
10.0998590026
 30
0.0
 10
9.0275966587
 20
10.0966926708
 30
0.0
 10
9.0273976322
 20
10.0947137106
 30
0.0
 10
9.0272387631
 20
10.093130549
 30
0.0
 10
9.0271186472
 20
10.0919431596
 30
0.0
 10
9.0270216174
 20
10.0909537265
 30
0.0
 10
9.0269476781
 20
10.0902610094
 30
0.0
 10
9.0269148244
 20
10.0898653489
 30
0.0
 10
9.0268637117
 20
10.0895681025
 30
0.0
 10
9.0269137901
 20
10.0892727716
 30
0.0
 10
9.0269452646
 20
10.088878329
 30
0.0
 10
9.0270167904
 20
10.0881883657
 30
0.0
 10
9.0271103723
 20
10.087202541
 30
0.0
 10
9.0272263507
 20
10.0860196211
 30
0.0
 10
9.0273797032
 20
10.0844423703
 30
0.0
 10
9.0275718339
 20
10.0824708151
 30
0.0
 10
9.027878997
 20
10.079316322
 30
0.0
 10
9.0282630358
 20
10.0753732074
 30
0.0
 10
9.0287238437
 20
10.0706414688
 30
0.0
 10
9.0291846706
 20
10.0659097316
 30
0.0
 10
9.0295686618
 20
10.0619666135
 30
0.0
 10
9.0298759203
 20
10.0588121274
 30
0.0
 10
9.0300678086
 20
10.0568405545
 30
0.0
 10
9.0302216586
 20
10.0552633399
 30
0.0
 10
9.030336117
 20
10.0540803094
 30
0.0
 10
9.0304344544
 20
10.0530948308
 30
0.0
 10
9.0304974909
 20
10.0524042497
 30
0.0
 10
9.0305425675
 20
10.0520107969
 30
0.0
 10
9.0305508647
 20
10.0517124254
 30
0.0
 10
9.0306566748
 20
10.0514265993
 30
0.0
 10
9.0307637414
 20
10.0510411219
 30
0.0
 10
9.0309669554
 20
10.0503685754
 30
0.0
 10
9.0312489758
 20
10.0494067286
 30
0.0
 10
9.0315909468
 20
10.0482529687
 30
0.0
 10
9.0320456693
 20
10.0467144629
 30
0.0
 10
9.0326144966
 20
10.0447913851
 30
0.0
 10
9.0335243832
 20
10.0417144302
 30
0.0
 10
9.0346618233
 20
10.0378682472
 30
0.0
 10
9.0360267142
 20
10.0332528222
 30
0.0
 10
9.0373916232
 20
10.0286374015
 30
0.0
 10
9.0385290179
 20
10.0247912079
 30
0.0
 10
9.0394389954
 20
10.0217142741
 30
0.0
 10
9.0400075916
 20
10.0197911426
 30
0.0
 10
9.0404627884
 20
10.0182527471
 30
0.0
 10
9.0408033105
 20
10.0170986502
 30
0.0
 10
9.0410898642
 20
10.0161378577
 30
0.0
 10
9.0412849856
 20
10.0154634291
 30
0.0
 10
9.0414050185
 20
10.0150809672
 30
0.0
 10
9.041471
 20
10.0147858784
 30
0.0
 10
9.0416288869
 20
10.0145222965
 30
0.0
 10
9.0418073451
 20
10.014159864
 30
0.0
 10
9.0421345833
 20
10.0135307276
 30
0.0
 10
9.0425942575
 20
10.0126292843
 30
0.0
 10
9.0431492091
 20
10.0115486982
 30
0.0
 10
9.043887977
 20
10.0101075165
 30
0.0
 10
9.0448118366
 20
10.0083061764
 30
0.0
 10
9.0462897885
 20
10.0054239556
 30
0.0
 10
9.0481373056
 20
10.0018212062
 30
0.0
 10
9.0503542909
 20
9.9974978945
 30
0.0
 10
9.0525712936
 20
9.9931745898
 30
0.0
 10
9.0544187672
 20
9.9895718227
 30
0.0
 10
9.0558968061
 20
9.9866896374
 30
0.0
 10
9.0568204448
 20
9.9848882071
 30
0.0
 10
9.0575596662
 20
9.9834472104
 30
0.0
 10
9.0581132322
 20
9.9823660592
 30
0.0
 10
9.0585772414
 20
9.9814663839
 30
0.0
 10
9.0588967409
 20
9.9808340913
 30
0.0
 10
9.0590875984
 20
9.9804767159
 30
0.0
 10
9.0592073988
 20
9.9801976002
 30
0.0
 10
9.0594164269
 20
9.979960854
 30
0.0
 10
9.0596640075
 20
9.9796304135
 30
0.0
 10
9.0601117745
 20
9.9790590283
 30
0.0
 10
9.0607438604
 20
9.9782391639
 30
0.0
 10
9.0615056086
 20
9.9772568674
 30
0.0
 10
9.0625201393
 20
9.9759466007
 30
0.0
 10
9.0637886908
 20
9.9743089515
 30
0.0
 10
9.0658181562
 20
9.9716886097
 30
0.0
 10
9.0683550628
 20
9.9684132182
 30
0.0
 10
9.0713993171
 20
9.9644827314
 30
0.0
 10
9.0744435863
 20
9.9605522556
 30
0.0
 10
9.0769804558
 20
9.9572768364
 30
0.0
 10
9.0790099954
 20
9.9546565502
 30
0.0
 10
9.0802783585
 20
9.9530187598
 30
0.0
 10
9.0812932759
 20
9.9517087827
 30
0.0
 10
9.0820538425
 20
9.9507256012
 30
0.0
 10
9.0826896251
 20
9.9499085061
 30
0.0
 10
9.0831307929
 20
9.9493321772
 30
0.0
 10
9.0833889471
 20
9.9490096578
 30
0.0
 10
9.0835654964
 20
9.9487485804
 30
0.0
 10
9.0838072819
 20
9.9485608486
 30
0.0
 10
9.0841069073
 20
9.9482849557
 30
0.0
 10
9.084641854
 20
9.9478140632
 30
0.0
 10
9.0854005206
 20
9.9471351277
 30
0.0
 10
9.086313293
 20
9.9463230725
 30
0.0
 10
9.0875294943
 20
9.9452394005
 30
0.0
 10
9.0890500296
 20
9.9438851296
 30
0.0
 10
9.0914827274
 20
9.9417181178
 30
0.0
 10
9.0945236545
 20
9.9390094147
 30
0.0
 10
9.0981727422
 20
9.9357589426
 30
0.0
 10
9.1018218414
 20
9.9325084851
 30
0.0
 10
9.1048627396
 20
9.9297997455
 30
0.0
 10
9.1072954953
 20
9.9276328067
 30
0.0
 10
9.1088158836
 20
9.9262783502
 30
0.0
 10
9.1100323866
 20
9.9251950592
 30
0.0
 10
9.1109442371
 20
9.9243818404
 30
0.0
 10
9.1117057884
 20
9.9237065454
 30
0.0
 10
9.1122355853
 20
9.9232291539
 30
0.0
 10
9.1125434619
 20
9.9229636739
 30
0.0
 10
9.1127599026
 20
9.9227439571
 30
0.0
 10
9.1130316424
 20
9.9226030101
 30
0.0
 10
9.1133746733
 20
9.922387605
 30
0.0
 10
9.1139839643
 20
9.9220234475
 30
0.0
 10
9.1148496816
 20
9.9214965297
 30
0.0
 10
9.1158905534
 20
9.9208670931
 30
0.0
 10
9.11727768
 20
9.9200268437
 30
0.0
 10
9.1190118288
 20
9.9189768746
 30
0.0
 10
9.1217863324
 20
9.9172967324
 30
0.0
 10
9.1252545083
 20
9.9151966209
 30
0.0
 10
9.1294162986
 20
9.9126764566
 30
0.0
 10
9.1335780979
 20
9.9101563085
 30
0.0
 10
9.1370462514
 20
9.9080561567
 30
0.0
 10
9.1398207999
 20
9.9063760951
 30
0.0
 10
9.1415548346
 20
9.9053259212
 30
0.0
 10
9.1429421954
 20
9.9044860922
 30
0.0
 10
9.143982352
 20
9.9038553713
 30
0.0
 10
9.1448503069
 20
9.9033324716
 30
0.0
 10
9.1454556033
 20
9.9029611412
 30
0.0
 10
9.1458050346
 20
9.9027572289
 30
0.0
 10
9.1460571143
 20
9.9025809794
 30
0.0
 10
9.1463473952
 20
9.9024938532
 30
0.0
 10
9.1467211115
 20
9.9023465976
 30
0.0
 10
9.1473813233
 20
9.9021033846
 30
0.0
 10
9.1483212372
 20
9.901748365
 30
0.0
 10
9.1494505233
 20
9.9013255827
 30
0.0
 10
9.1509557527
 20
9.9007607408
 30
0.0
 10
9.1528374557
 20
9.9000550761
 30
0.0
 10
9.1558480875
 20
9.8989257959
 30
0.0
 10
9.1596114094
 20
9.8975142706
 30
0.0
 10
9.1641273812
 20
9.8958204057
 30
0.0
 10
9.1686433594
 20
9.8941265586
 30
0.0
 10
9.1724066652
 20
9.892714989
 30
0.0
 10
9.1754173292
 20
9.8915857973
 30
0.0
 10
9.1772989504
 20
9.8908799075
 30
0.0
 10
9.1788043475
 20
9.8903155277
 30
0.0
 10
9.1799331214
 20
9.8898913337
 30
0.0
 10
9.1808746378
 20
9.889540731
 30
0.0
 10
9.1815319889
 20
9.889289633
 30
0.0
 10
9.1819102888
 20
9.8891550112
 30
0.0
 10
9.1821864902
 20
9.8890290783
 30
0.0
 10
9.1824914501
 20
9.88899858
 30
0.0
 10
9.1828880321
 20
9.888924627
 30
0.0
 10
9.1835867242
 20
9.8888107189
 30
0.0
 10
9.1845824123
 20
9.8886398845
 30
0.0
 10
9.185778284
 20
9.8884383539
 30
0.0
 10
9.1873724142
 20
9.8881684342
 30
0.0
 10
9.189365202
 20
9.8878314497
 30
0.0
 10
9.1925535927
 20
9.8872920424
 30
0.0
 10
9.196539105
 20
9.8866178629
 30
0.0
 10
9.2013217095
 20
9.8858088134
 30
0.0
 10
9.2061043167
 20
9.884999773
 30
0.0
 10
9.2124811254
 20
9.8839210493
 30
0.0
 10
9.2172637321
 20
9.8831120073
 30
0.0
 10
9.2204521365
 20
9.8825726457
 30
0.0
  0
ENDSEC
  0
SECTION
  2
OBJECTS
  0
DICTIONARY
  5
C
100
AcDbDictionary
280
0
281
1
  3
ACAD_GROUP
350
D
  3
ACAD_MLINESTYLE
350
17
  3
ACAD_LAYOUT
350
1A
  3
ACAD_PLOTSETTINGS
350
19
  3
ACAD_PLOTSTYLENAME
350
E
  3
ACAD_IMAGE_DICT
350
       375
  3
ACAD_IMAGE_VARS
350
       376
  3
ACAD_TABLESTYLE
350
       377
  0
IMAGEDEF_REACTOR
  5
374
100
AcDbRasterImageDefReactor
 90
2
330
28B
  0
DICTIONARY
  5
D
102
{ACAD_REACTORS
330
C
102
}
100
AcDbDictionary
280
0
281
1
  0
ACDBDICTIONARYWDFLT
  5
E
102
{ACAD_REACTORS
330
C
102
}
100
AcDbDictionary
281
1
  3
Normal
350
F
100
AcDbDictionaryWithDefault
340
F
  0
DICTIONARY
  5
375
330
C
100
AcDbDictionary
281
1
  3
LNL_assy_2_img_1
350
       37A
  0
RASTERVARIABLES
  5
376
330
C
100
AcDbRasterVariables
 90
0
 70
0
 71
1
 72
5
  0
DICTIONARY
  5
17
102
{ACAD_REACTORS
330
C
102
}
100
AcDbDictionary
280
0
281
1
  3
Standard
350
18
  0
DICTIONARY
  5
377
330
C
100
AcDbDictionary
281
1
  3
Standard
350
       37B
  3
Standard1
350
       37C
  0
DICTIONARY
  5
19
102
{ACAD_REACTORS
330
C
102
}
100
AcDbDictionary
281
1
  0
DICTIONARY
  5
1A
102
{ACAD_REACTORS
330
C
102
}
100
AcDbDictionary
281
1
  3
Model
350
378
  3
Layout1
350
379
  0
ACDBPLACEHOLDER
  5
F
102
{ACAD_REACTORS
330
E
102
}
  0
MLINESTYLE
  5
18
102
{ACAD_REACTORS
330
17
102
}
100
AcDbMlineStyle
  2
STANDARD
 70
0
  3

 62
256
 51
90.0
 52
90.0
 71
2
 49
0.5
 62
256
  6
BYLAYER
 49
-0.5
 62
256
  6
BYLAYER
  0
LAYOUT
  5
378
102
{ACAD_REACTORS
330
1A
102
}
100
AcDbPlotSettings
  1

  2
none_device
  4
ANSI_C_(22.00_x_17.00_Inches)
  6

 40
0.0
 41
0.0
 42
0.0
 43
0.0
 44
558.8
 45
431.8
 46
0.0
 47
0.0
 48
0.0
 49
0.0
140
0.0
141
0.0
142
1.0
143
1.0
 70
1024
 72
0
 73
0
 74
0
  7

 75
0
147
1.0
148
0.0
149
0.0
100
AcDbLayout
  1
Model
 70
0
 71
0
 10
0.0
 20
0.0
 11
22.0
 21
17.0
 12
0.0
 22
0.0
 32
0.0
 14
0.0
 24
0.0
 34
0.0
 15
0.0
 25
0.0
 35
0.0
146
0.0
 13
0.0
 23
0.0
 33
0.0
 16
1.0
 26
0.0
 36
0.0
 17
0.0
 27
1.0
 37
0.0
 76
0
330
20C
345
0
346
0
  0
LAYOUT
  5
379
102
{ACAD_REACTORS
330
1A
102
}
100
AcDbPlotSettings
  1

  2
none_device
  4
ANSI_C_(22.00_x_17.00_Inches)
  6

 40
0.0
 41
0.0
 42
0.0
 43
0.0
 44
558.8
 45
431.8
 46
0.0
 47
0.0
 48
0.0
 49
0.0
140
0.0
141
0.0
142
1.0
143
1.0
 70
0
 72
0
 73
0
 74
0
  7

 75
0
147
1.0
148
0.0
149
0.0
100
AcDbLayout
  1
Layout1
 70
0
 71
1
 10
0.0
 20
0.0
 11
22.0
 21
17.0
 12
0.0
 22
0.0
 32
0.0
 14
0.0
 24
0.0
 34
0.0
 15
0.0
 25
0.0
 35
0.0
146
0.0
 13
0.0
 23
0.0
 33
0.0
 16
1.0
 26
0.0
 36
0.0
 17
0.0
 27
1.0
 37
0.0
 76
0
330
20D
345
0
346
0
  0
IMAGEDEF
  5
37A
102
{ACAD_REACTORS
330
375
330
374
102
}
100
AcDbRasterImageDef
 90
0
  1
LNL_assy_2_img_1.png
 10
369.0
 20
92.0
 11
0.0066666667
 21
0.0066666667
280
1
281
0
  0
TABLESTYLE
  5
37B
102
{ACAD_REACTORS
330
377
330
28E
330
28F
102
}
330
377
100
AcDbTableStyle
  3
Standard
 70
0
 71
0
 40
0.06
 41
0.06
280
1
281
1
  7
Standard
140
0.18
170
1
 62
0
 63
7
283
0
  7
Standard
140
0.18
170
1
 62
0
 63
7
283
0
  7
Standard
140
0.18
170
1
 62
0
 63
7
283
0
  0
TABLESTYLE
  5
37C
102
{ACAD_REACTORS
330
377
330
28D
102
}
330
377
100
AcDbTableStyle
  3
Standard1
 70
1
 71
0
 40
0.06
 41
0.06
280
1
281
1
  7
Standard
140
0.18
170
1
 62
0
 63
7
283
0
  7
Standard
140
0.18
170
1
 62
0
 63
7
283
0
  7
Standard
140
0.18
170
1
 62
0
 63
7
283
0
  0
ENDSEC
  0
EOF
