999
DXF file: LN8_assy_2.dxf
999
Pro/ENGINEER 2014200 by Parametric Technology Corporation
  0
SECTION
  2
HEADER
  9
$ACADVER
  1
AC1021
  9
$DWGCODEPAGE
  3
ANSI_1252
  9
$EXTMAX
 10
22.0
 20
17.0
 30
0.0
  9
$EXTMIN
 10
0.0
 20
0.0
 30
0.0
  9
$LIMMIN
 10
0.0
 20
0.0
  9
$LIMMAX
 10
22.0
 20
17.0
  9
$VIEWCTR
 10
11.0
 20
8.5
  9
$VIEWSIZE
 40
17.0
  9
$CLAYER
  8
0
  9
$LTSCALE
 40
1.21
  9
$CELTYPE
  6
BYLAYER
  9
$DIMSCALE
 40
1.0
  9
$DIMASZ
 40
0.1875
  9
$DIMEXO
 40
0.0625
  9
$DIMDLI
 40
0.836
  9
$DIMEXE
 40
0.125
  9
$DIMCEN
 40
0.198
  9
$DIMLFAC
 40
1.0
  9
$DIMBLK
  1
_FILLED
  9
$DIMTXT
 40
0.1
  9
$DIMTOL
 70
0
  9
$DIMLIM
 70
0
  9
$DIMTFAC
 40
1.0
  9
$DIMGAP
 40
0.09
  9
$DIMDSEP
 70
46
  9
$AUNITS
 70
0
  9
$PDMODE
 70
3
  9
$PDSIZE
 40
0.3125
  9
$HANDSEED
  5
389
  9
$TILEMODE
 70
1
  9
$MEASUREMENT
 70
0
  9
$INSUNITS
 70
1
  0
ENDSEC
  0
SECTION
  2
CLASSES
  0
CLASS
  1
ACDBDICTIONARYWDFLT
  2
AcDbDictionaryWithDefault
  3
AutoCAD 2000
 90
0
 91
1
280
0
281
0
  0
CLASS
  1
ACDBPLACEHOLDER
  2
AcDbPlaceHolder
  3
AutoCAD 2000
 90
0
 91
1
280
0
281
0
  0
CLASS
  1
LAYOUT
  2
AcDbLayout
  3
AutoCAD 2000
 90
0
 91
0
280
0
281
0
  0
CLASS
  1
RASTERVARIABLES
  2
AcDbRasterVariables
  3
ISM
 90
0
 91
1
280
0
281
0
  0
CLASS
  1
IMAGEDEF
  2
AcDbRasterImageDef
  3
ISM
 90
0
 91
1
280
0
281
0
  0
CLASS
  1
IMAGEDEF_REACTOR
  2
AcDbRasterImageDefReactor
  3
ISM
 90
0
 91
1
280
0
281
0
  0
CLASS
  1
IMAGE
  2
AcDbRasterImage
  3
ISM
 90
127
 91
1
280
0
281
1
  0
CLASS
  1
TABLESTYLE
  2
AcDbTableStyle
  3
ObjectDBX Classes
 90
2047
 91
1
280
0
281
0
  0
CLASS
  1
ACAD_TABLE
  2
AcDbTable
  3
ObjectDBX Classes
 90
1025
 91
3
280
0
281
1
  0
ENDSEC
  0
SECTION
  2
TABLES
  0
TABLE
  2
VPORT
  5
8
100
AcDbSymbolTable
 70
2
  0
VPORT
  5
1F4
100
AcDbSymbolTableRecord
100
AcDbViewportTableRecord
  2
*ACTIVE
 70
0
 10
0.0
 20
0.0
 11
1.0
 21
1.0
 12
11.0
 22
8.5
 13
0.0
 23
0.0
 14
1.0
 24
1.0
 15
0.0
 25
0.0
 16
0.0
 26
0.0
 36
1.0
 17
0.0
 27
0.0
 37
0.0
 40
17.0
 41
1.2941176471
 42
50.0
 43
0.0
 44
0.0
 50
0.0
 51
0.0
 71
0
 72
100
 73
1
 74
1
 75
0
 76
0
 77
0
 78
0
  0
ENDTAB
  0
TABLE
  2
LTYPE
  5
5
100
AcDbSymbolTable
 70
6
  0
LTYPE
  5
14
100
AcDbSymbolTableRecord
100
AcDbLinetypeTableRecord
  2
BYBLOCK
 70
0
  3

 72
65
 73
0
 40
0.0
  0
LTYPE
  5
15
100
AcDbSymbolTableRecord
100
AcDbLinetypeTableRecord
  2
BYLAYER
 70
0
  3

 72
65
 73
0
 40
0.0
  0
LTYPE
  5
16
100
AcDbSymbolTableRecord
100
AcDbLinetypeTableRecord
  2
CONTINUOUS
 70
64
  3
Solid line
 72
65
 73
0
 40
0.0
  0
LTYPE
  5
1F5
100
AcDbSymbolTableRecord
100
AcDbLinetypeTableRecord
  2
CENTER
 70
64
  3
____ _ ____ _ ____ _ ____ _ ____ _ ____ _ ____
 72
65
 73
4
 40
0.6
 49
0.375
 74
0
 49
-0.075
 74
0
 49
0.075
 74
0
 49
-0.075
 74
0
  0
LTYPE
  5
1F6
100
AcDbSymbolTableRecord
100
AcDbLinetypeTableRecord
  2
HIDDEN
 70
64
  3
- - - - - - - - - - - - - - - - - - - -
 72
65
 73
2
 40
0.2
 49
0.1
 74
0
 49
-0.1
 74
0
  0
LTYPE
  5
1F7
100
AcDbSymbolTableRecord
100
AcDbLinetypeTableRecord
  2
PHANTOM
 70
64
  3
_____ _ _ _____ _ _ _____ _ _ _____
 72
65
 73
6
 40
0.8
 49
0.45
 74
0
 49
-0.05
 74
0
 49
0.1
 74
0
 49
-0.05
 74
0
 49
0.1
 74
0
 49
-0.05
 74
0
  0
LTYPE
  5
1F8
100
AcDbSymbolTableRecord
100
AcDbLinetypeTableRecord
  2
DOT
 70
64
  3
. . . . . . . . . . . . . . . . . . . .
 72
65
 73
2
 40
0.2
 49
0.1
 74
0
 49
-0.1
 74
0
  0
LTYPE
  5
1F9
100
AcDbSymbolTableRecord
100
AcDbLinetypeTableRecord
  2
DASHED
 70
64
  3
- - - - - - - - - - - - - - - - - - - -
 72
65
 73
2
 40
0.2
 49
0.1
 74
0
 49
-0.1
 74
0
  0
ENDTAB
  0
TABLE
  2
LAYER
  5
2
100
AcDbSymbolTable
 70
36
  0
LAYER
  5
10
100
AcDbSymbolTableRecord
100
AcDbLayerTableRecord
  2
0
 70
0
 62
7
  6
CONTINUOUS
370
-3
390
F
  0
LAYER
  5
1FA
100
AcDbSymbolTableRecord
100
AcDbLayerTableRecord
  2
DEFAULT_1
 70
0
 62
7
  6
CENTER
370
-3
390
F
  0
LAYER
  5
1FB
100
AcDbSymbolTableRecord
100
AcDbLayerTableRecord
  2
DEFAULT_2
 70
0
 62
8
  6
HIDDEN
370
-3
390
F
  0
LAYER
  5
1FC
100
AcDbSymbolTableRecord
100
AcDbLayerTableRecord
  2
DEFAULT_3
 70
0
 62
7
  6
PHANTOM
370
-3
390
F
  0
LAYER
  5
1FD
100
AcDbSymbolTableRecord
100
AcDbLayerTableRecord
  2
01___PRT_ALL_DTM_PLN
 70
0
 62
7
  6
CONTINUOUS
370
-3
390
F
  0
LAYER
  5
1FE
100
AcDbSymbolTableRecord
100
AcDbLayerTableRecord
  2
01___PRT_DEF_DTM_PLN
 70
0
 62
7
  6
CONTINUOUS
370
-3
390
F
  0
LAYER
  5
1FF
100
AcDbSymbolTableRecord
100
AcDbLayerTableRecord
  2
02___PRT_ALL_AXES
 70
0
 62
7
  6
CONTINUOUS
370
-3
390
F
  0
LAYER
  5
200
100
AcDbSymbolTableRecord
100
AcDbLayerTableRecord
  2
03___PRT_ALL_CURVES
 70
0
 62
7
  6
CONTINUOUS
370
-3
390
F
  0
LAYER
  5
201
100
AcDbSymbolTableRecord
100
AcDbLayerTableRecord
  2
04___PRT_ALL_DTM_PNT
 70
0
 62
7
  6
CONTINUOUS
370
-3
390
F
  0
LAYER
  5
202
100
AcDbSymbolTableRecord
100
AcDbLayerTableRecord
  2
05___PRT_ALL_DTM_CSYS
 70
0
 62
7
  6
CONTINUOUS
370
-3
390
F
  0
LAYER
  5
203
100
AcDbSymbolTableRecord
100
AcDbLayerTableRecord
  2
05___PRT_DEF_DTM_CSYS
 70
0
 62
7
  6
CONTINUOUS
370
-3
390
F
  0
LAYER
  5
204
100
AcDbSymbolTableRecord
100
AcDbLayerTableRecord
  2
06___PRT_ALL_SURFS
 70
0
 62
7
  6
CONTINUOUS
370
-3
390
F
  0
LAYER
  5
205
100
AcDbSymbolTableRecord
100
AcDbLayerTableRecord
  2
DATUM_PLANES
 70
0
 62
7
  6
CONTINUOUS
370
-3
390
F
  0
LAYER
  5
206
100
AcDbSymbolTableRecord
100
AcDbLayerTableRecord
  2
PORT_AREAS
 70
0
 62
7
  6
CONTINUOUS
370
-3
390
F
  0
LAYER
  5
207
100
AcDbSymbolTableRecord
100
AcDbLayerTableRecord
  2
SUNNBOMCOSMETIC
 70
0
 62
7
  6
CONTINUOUS
370
-3
390
F
  0
LAYER
  5
208
100
AcDbSymbolTableRecord
100
AcDbLayerTableRecord
  2
SUNNBOMSTAMPING
 70
0
 62
7
  6
CONTINUOUS
370
-3
390
F
  0
LAYER
  5
209
100
AcDbSymbolTableRecord
100
AcDbLayerTableRecord
  2
THREADS
 70
0
 62
7
  6
CONTINUOUS
370
-3
390
F
  0
ENDTAB
  0
TABLE
  2
STYLE
  5
3
100
AcDbSymbolTable
 70
1
  0
STYLE
  5
11
100
AcDbSymbolTableRecord
100
AcDbTextStyleTableRecord
  2
STANDARD
 70
0
 40
0.0
 41
0.8
 50
0.0
 71
0
 42
0.2
  3
txt
  4

  0
STYLE
  5
20A
100
AcDbSymbolTableRecord
100
AcDbTextStyleTableRecord
  2
TEXTSTYLE_1
 70
0
 40
0.0
 41
0.8
 50
0.0
 71
0
 42
0.2
  3
gdt
  4

  0
ENDTAB
  0
TABLE
  2
VIEW
  5
6
100
AcDbSymbolTable
 70
0
  0
ENDTAB
  0
TABLE
  2
UCS
  5
7
100
AcDbSymbolTable
 70
0
  0
ENDTAB
  0
TABLE
  2
APPID
  5
9
100
AcDbSymbolTable
 70
1
  0
APPID
  5
20B
100
AcDbSymbolTableRecord
100
AcDbRegAppTableRecord
  2
ACAD
 70
0
  0
ENDTAB
  0
TABLE
  2
BLOCK_RECORD
  5
1
100
AcDbSymbolTable
 70
0
  0
BLOCK_RECORD
  5
20C
100
AcDbSymbolTableRecord
100
AcDbBlockTableRecord
  2
*Model_Space
  0
BLOCK_RECORD
  5
20D
100
AcDbSymbolTableRecord
100
AcDbBlockTableRecord
  2
*Paper_Space
  0
BLOCK_RECORD
  5
20E
100
AcDbSymbolTableRecord
100
AcDbBlockTableRecord
  2
SUN_FIRST_THIRD_ANGLE_BL0
  0
BLOCK_RECORD
  5
20F
100
AcDbSymbolTableRecord
100
AcDbBlockTableRecord
  2
*T1
  0
BLOCK_RECORD
  5
210
100
AcDbSymbolTableRecord
100
AcDbBlockTableRecord
  2
*T2
  0
BLOCK_RECORD
  5
211
100
AcDbSymbolTableRecord
100
AcDbBlockTableRecord
  2
*T3
  0
ENDTAB
  0
TABLE
  2
DIMSTYLE
  5
A
100
AcDbSymbolTable
 70
1
100
AcDbDimStyleTable
 71
0
  0
DIMSTYLE
105
212
100
AcDbSymbolTableRecord
100
AcDbDimStyleTableRecord
  2
STANDARD
 70
0
  3

  4

 40
1.0
 41
0.1875
 42
0.0625
 43
0.38
 44
0.125
 45
0.0
 46
0.0
 47
0.001
 48
0.001
140
0.1
141
0.09
142
0.0
143
25.4
144
1.0
145
0.0
146
1.0
147
0.09
 71
0.0
 72
0.0
 73
1
 74
1
 75
0
 76
0
 77
0
 78
4
170
0
171
2
172
0
173
0
174
0
175
0
176
0
177
0
178
0
270
2
271
3
272
3
273
2
274
2
275
0
280
0
281
0
282
0
283
1
284
4
285
0
286
0
287
3
288
0
340
11
278
46
  0
ENDTAB
  0
ENDSEC
  0
SECTION
  2
BLOCKS
  0
BLOCK
  5
20
100
AcDbEntity
  8
0
100
AcDbBlockBegin
  2
*Model_Space
 70
0
 10
0.0
 20
0.0
 30
0.0
  3
*Model_Space
  1

  0
ENDBLK
  5
21
100
AcDbEntity
  8
0
100
AcDbBlockEnd
  0
BLOCK
  5
1C
100
AcDbEntity
  8
0
100
AcDbBlockBegin
  2
*Paper_Space
 70
0
 10
0.0
 20
0.0
 30
0.0
  3
*Paper_Space
  1

  0
ENDBLK
  5
1D
100
AcDbEntity
  8
0
100
AcDbBlockEnd
  0
BLOCK
  5
213
100
AcDbEntity
  8
0
100
AcDbBlockBegin
 62
2
  6
CONTINUOUS
  2
SUN_FIRST_THIRD_ANGLE_BL0
 70
64
 10
20.4816717061
 20
1.2289683772
  3
SUN_FIRST_THIRD_ANGLE_BL0
  1

  0
TEXT
  5
214
100
AcDbEntity
  8
0
100
AcDbText
 62
2
  6
CONTINUOUS
 10
19.4750896608
 20
1.4136269581
  7
STANDARD
 40
0.08
  1
FIRST ANGLE
 41
0.8
 72
0
100
AcDbText
  0
TEXT
  5
215
100
AcDbEntity
  8
0
100
AcDbText
 62
2
  6
CONTINUOUS
 10
20.7842537513
 20
1.4047600029
  7
STANDARD
 40
0.08
  1
THIRD ANGLE
 41
0.8
 72
0
100
AcDbText
  0
LINE
  5
216
100
AcDbEntity
  8
0
100
AcDbLine
 62
7
  6
CONTINUOUS
 10
19.4767170086
 20
1.1727031207
 11
19.6334271527
 21
1.1717972817
  0
LINE
  5
217
100
AcDbEntity
  8
0
100
AcDbLine
 62
7
  6
CONTINUOUS
 10
19.6596964832
 20
1.1717972817
 11
19.6950230232
 21
1.171593082
  0
LINE
  5
218
100
AcDbEntity
  8
0
100
AcDbLine
 62
7
  6
CONTINUOUS
 10
19.7194818561
 20
1.1708914427
 11
19.8852396156
 21
1.1699333054
  0
LINE
  5
219
100
AcDbEntity
  8
0
100
AcDbLine
 62
7
  6
CONTINUOUS
 10
19.4758111696
 20
1.2723454088
 11
19.88525039
 21
1.3511534004
  0
LINE
  5
21A
100
AcDbEntity
  8
0
100
AcDbLine
 62
7
  6
CONTINUOUS
 10
19.88525039
 20
1.3511534004
 11
19.8831348489
 21
0.9851647912
  0
LINE
  5
21B
100
AcDbEntity
  8
0
100
AcDbLine
 62
7
  6
CONTINUOUS
 10
19.8831348489
 20
0.9851647912
 11
19.4767170086
 21
1.0658141206
  0
LINE
  5
21C
100
AcDbEntity
  8
0
100
AcDbLine
 62
7
  6
CONTINUOUS
 10
19.4767170086
 20
1.0658141206
 11
19.4779056764
 21
1.2714536432
  0
CIRCLE
  5
21D
100
AcDbEntity
  8
0
100
AcDbCircle
 62
7
  6
CONTINUOUS
 10
20.2068232291
 20
1.1717972817
 40
0.175742101
  0
CIRCLE
  5
21E
100
AcDbEntity
  8
0
100
AcDbCircle
 62
7
  6
CONTINUOUS
 10
20.2068232291
 20
1.1717972817
 40
0.1005522074
  0
LINE
  5
21F
100
AcDbEntity
  8
0
100
AcDbLine
 62
7
  6
CONTINUOUS
 10
20.2077290681
 20
1.3756110529
 11
20.2071171714
 21
1.2379342989
  0
LINE
  5
220
100
AcDbEntity
  8
0
100
AcDbLine
 62
7
  6
CONTINUOUS
 10
20.2077290681
 20
1.2016899681
 11
20.2074674401
 21
1.1428236749
  0
LINE
  5
221
100
AcDbEntity
  8
0
100
AcDbLine
 62
7
  6
CONTINUOUS
 10
20.208634907
 20
1.101141841
 11
20.2080230104
 21
0.963465087
  0
LINE
  5
222
100
AcDbEntity
  8
0
100
AcDbLine
 62
7
  6
CONTINUOUS
 10
20.0066328138
 20
1.1745147986
 11
20.1443095678
 21
1.1739029019
  0
LINE
  5
223
100
AcDbEntity
  8
0
100
AcDbLine
 62
7
  6
CONTINUOUS
 10
20.1832714155
 20
1.1727031207
 11
20.238153505
 21
1.172335442
  0
LINE
  5
224
100
AcDbEntity
  8
0
100
AcDbLine
 62
7
  6
CONTINUOUS
 10
20.2756669918
 20
1.1717972817
 11
20.407916871
 21
1.1712095044
  0
CIRCLE
  5
225
100
AcDbEntity
  8
0
100
AcDbCircle
 62
7
  6
CONTINUOUS
 10
20.7509457401
 20
1.1693297793
 40
0.1722024983
  0
CIRCLE
  5
226
100
AcDbEntity
  8
0
100
AcDbCircle
 62
7
  6
CONTINUOUS
 10
20.7509457401
 20
1.1693297793
 40
0.0985164967
  0
LINE
  5
227
100
AcDbEntity
  8
0
100
AcDbLine
 62
7
  6
CONTINUOUS
 10
20.7169767782
 20
1.170462078
 11
20.7825395137
 21
1.1682766535
  0
LINE
  5
228
100
AcDbEntity
  8
0
100
AcDbLine
 62
7
  6
CONTINUOUS
 10
20.8177513651
 20
1.1693297793
 11
20.947965719
 21
1.1693297793
  0
LINE
  5
229
100
AcDbEntity
  8
0
100
AcDbLine
 62
7
  6
CONTINUOUS
 10
20.6875370113
 20
1.170462078
 11
20.5573226574
 21
1.170462078
  0
LINE
  5
22A
100
AcDbEntity
  8
0
100
AcDbLine
 62
7
  6
CONTINUOUS
 10
20.7486811426
 20
1.1987695462
 11
20.7486811426
 21
1.1432869085
  0
LINE
  5
22B
100
AcDbEntity
  8
0
100
AcDbLine
 62
7
  6
CONTINUOUS
 10
20.7498134414
 20
1.1059210505
 11
20.7498134414
 21
0.9757066966
  0
LINE
  5
22C
100
AcDbEntity
  8
0
100
AcDbLine
 62
7
  6
CONTINUOUS
 10
20.7486811426
 20
1.2338708068
 11
20.7486811426
 21
1.3640851607
  0
LINE
  5
22D
100
AcDbEntity
  8
0
100
AcDbLine
 62
7
  6
CONTINUOUS
 10
21.0702539817
 20
1.2701043662
 11
21.4790138229
 21
1.3448360823
  0
LINE
  5
22E
100
AcDbEntity
  8
0
100
AcDbLine
 62
7
  6
CONTINUOUS
 10
21.4790138229
 20
1.3448360823
 11
21.4790138229
 21
0.9779712941
  0
LINE
  5
22F
100
AcDbEntity
  8
0
100
AcDbLine
 62
7
  6
CONTINUOUS
 10
21.4790138229
 20
0.9779712941
 11
21.069121683
 21
1.0617614
  0
LINE
  5
230
100
AcDbEntity
  8
0
100
AcDbLine
 62
7
  6
CONTINUOUS
 10
21.0702539817
 20
1.2701043662
 11
21.069121683
 21
1.0617614
  0
LINE
  5
231
100
AcDbEntity
  8
0
100
AcDbLine
 62
7
  6
CONTINUOUS
 10
21.4790138229
 20
1.1693297793
 11
21.3159628059
 21
1.1693297793
  0
LINE
  5
232
100
AcDbEntity
  8
0
100
AcDbLine
 62
7
  6
CONTINUOUS
 10
21.2876553377
 20
1.1693297793
 11
21.2502894796
 21
1.1693297793
  0
LINE
  5
233
100
AcDbEntity
  8
0
100
AcDbLine
 62
7
  6
CONTINUOUS
 10
21.2208497126
 20
1.1659328831
 11
21.0713862804
 21
1.1659328831
  0
LINE
  5
234
100
AcDbEntity
  8
0
100
AcDbLine
 62
7
  6
CONTINUOUS
 10
20.4796138713
 20
1.5284908897
 11
20.4766766948
 21
0.9294458646
  0
ENDBLK
  5
235
100
AcDbEntity
  8
0
  6
BYBLOCK
 62
0
100
AcDbBlockEnd
  0
BLOCK
  5
236
100
AcDbEntity
  8
0
100
AcDbBlockBegin
  2
*T1
 70
1
 10
0.0
 20
0.0
  3
*T1
  1

  0
LINE
  5
237
100
AcDbEntity
  8
0
100
AcDbLine
 62
2
  6
CONTINUOUS
 10
9.275
 20
0.0
 11
-0.0
 21
0.0
  0
LINE
  5
238
100
AcDbEntity
  8
0
100
AcDbLine
 62
2
  6
CONTINUOUS
 10
9.275
 20
0.0
 11
9.275
 21
1.25
  0
LINE
  5
239
100
AcDbEntity
  8
0
100
AcDbLine
 62
2
  6
CONTINUOUS
 10
9.275
 20
0.625
 11
-0.0
 21
0.625
  0
LINE
  5
23A
100
AcDbEntity
  8
0
100
AcDbLine
 62
2
  6
CONTINUOUS
 10
9.275
 20
1.25
 11
-0.0
 21
1.25
  0
LINE
  5
23B
100
AcDbEntity
  8
0
100
AcDbLine
 62
2
  6
CONTINUOUS
 10
6.8
 20
0.0
 11
6.8
 21
1.25
  0
LINE
  5
23C
100
AcDbEntity
  8
0
100
AcDbLine
 62
2
  6
CONTINUOUS
 10
6.4
 20
0.0
 11
6.4
 21
0.625
  0
LINE
  5
23D
100
AcDbEntity
  8
0
100
AcDbLine
 62
2
  6
CONTINUOUS
 10
5.9
 20
0.0
 11
5.9
 21
0.625
  0
LINE
  5
23E
100
AcDbEntity
  8
0
100
AcDbLine
 62
2
  6
CONTINUOUS
 10
5.2
 20
0.0
 11
5.2
 21
0.625
  0
LINE
  5
23F
100
AcDbEntity
  8
0
100
AcDbLine
 62
2
  6
CONTINUOUS
 10
4.1
 20
0.0
 11
4.1
 21
1.25
  0
LINE
  5
240
100
AcDbEntity
  8
0
100
AcDbLine
 62
2
  6
CONTINUOUS
 10
-0.0
 20
0.0
 11
-0.0
 21
1.25
  0
MTEXT
  5
241
100
AcDbEntity
  8
0
100
AcDbMText
 62
2
  6
CONTINUOUS
  7
STANDARD
 71
2
 72
1
 10
6.6
 20
0.325
 30
0.0
 11
1.0
 21
0.0
 31
0.0
 44
0.9
  1
2
 40
0.125
 41
0.2
  0
MTEXT
  5
242
100
AcDbEntity
  8
0
100
AcDbMText
 62
2
  6
CONTINUOUS
  7
STANDARD
 71
2
 72
1
 10
6.15
 20
0.325
 30
0.0
 11
1.0
 21
0.0
 31
0.0
 44
0.9
  1
C
 40
0.125
 41
0.2
  0
MTEXT
  5
243
100
AcDbEntity
  8
0
100
AcDbMText
 62
2
  6
CONTINUOUS
  7
STANDARD
 71
2
 72
1
 10
5.55
 20
0.325
 30
0.0
 11
1.0
 21
0.0
 31
0.0
 44
0.9
  1
0.900
 40
0.125
 41
1.0
  0
MTEXT
  5
244
100
AcDbEntity
  8
0
100
AcDbMText
 62
2
  6
CONTINUOUS
  7
STANDARD
 71
2
 72
1
 10
4.65
 20
0.325
 30
0.0
 11
1.0
 21
0.0
 31
0.0
 44
0.9
  1
Jun-02-20
 40
0.125
 41
1.8
  0
MTEXT
  5
245
100
AcDbEntity
  8
0
100
AcDbMText
 62
2
  6
CONTINUOUS
  7
STANDARD
 71
2
 72
1
 10
2.05
 20
0.4625
 30
0.0
 11
1.0
 21
0.0
 31
0.0
 44
0.9
  1
T-18A Line mount\PNinety degree with reverse flow check
 40
0.125
 41
7.4
  0
MTEXT
  5
246
100
AcDbEntity
  8
0
100
AcDbMText
 62
2
  6
CONTINUOUS
  7
STANDARD
 71
1
 72
1
 10
6.45
 20
0.5625
 30
0.0
 11
1.0
 21
0.0
 31
0.0
 44
0.9
  1
SHEET
 40
0.06
 41
0.48
  0
MTEXT
  5
247
100
AcDbEntity
  8
0
100
AcDbMText
 62
2
  6
CONTINUOUS
  7
STANDARD
 71
1
 72
1
 10
5.95
 20
0.5625
 30
0.0
 11
1.0
 21
0.0
 31
0.0
 44
0.9
  1
DWG SIZE
 40
0.06
 41
0.768
  0
MTEXT
  5
248
100
AcDbEntity
  8
0
100
AcDbMText
 62
2
  6
CONTINUOUS
  7
STANDARD
 71
1
 72
1
 10
5.25
 20
0.5625
 30
0.0
 11
1.0
 21
0.0
 31
0.0
 44
0.9
  1
SCALE
 40
0.06
 41
0.48
  0
MTEXT
  5
249
100
AcDbEntity
  8
0
100
AcDbMText
 62
2
  6
CONTINUOUS
  7
STANDARD
 71
1
 72
1
 10
4.15
 20
0.5625
 30
0.0
 11
1.0
 21
0.0
 31
0.0
 44
0.9
  1
DATE
 40
0.06
 41
0.384
  0
MTEXT
  5
24A
100
AcDbEntity
  8
0
100
AcDbMText
 62
2
  6
CONTINUOUS
  7
STANDARD
 71
1
 72
1
 10
0.05
 20
0.5625
 30
0.0
 11
1.0
 21
0.0
 31
0.0
 44
0.9
  1
DESCRIPTION
 40
0.06
 41
1.056
  0
MTEXT
  5
24B
100
AcDbEntity
  8
0
100
AcDbMText
 62
2
  6
CONTINUOUS
  7
STANDARD
 71
2
 72
1
 10
5.45
 20
1.0375
 30
0.0
 11
1.0
 21
0.0
 31
0.0
 44
0.9
  1
ALL DIMENSIONS IN INCH\PVIEWS ARE THIRD ANGLE
 40
0.12
 41
4.224
  0
MTEXT
  5
24C
100
AcDbEntity
  8
0
100
AcDbMText
 62
2
  6
CONTINUOUS
  7
STANDARD
 71
2
 72
1
 10
2.05
 20
0.95
 30
0.0
 11
1.0
 21
0.0
 31
0.0
 44
0.9
  1
LN8
 40
0.125
 41
0.6
  0
MTEXT
  5
24D
100
AcDbEntity
  8
0
100
AcDbMText
 62
2
  6
CONTINUOUS
  7
STANDARD
 71
1
 72
1
 10
0.05
 20
1.1875
 30
0.0
 11
1.0
 21
0.0
 31
0.0
 44
0.9
  1
MODEL
 40
0.06
 41
0.48
  0
ENDBLK
  5
24E
100
AcDbEntity
  8
0
  6
BYBLOCK
 62
0
100
AcDbBlockEnd
  0
BLOCK
  5
24F
100
AcDbEntity
  8
0
100
AcDbBlockBegin
  2
*T2
 70
1
 10
0.0
 20
0.0
  3
*T2
  1

  0
LINE
  5
250
100
AcDbEntity
  8
0
100
AcDbLine
 62
2
  6
CONTINUOUS
 10
0.0
 20
0.0
 11
9.055
 21
0.0
  0
LINE
  5
251
100
AcDbEntity
  8
0
100
AcDbLine
 62
2
  6
CONTINUOUS
 10
0.0
 20
0.0
 11
0.0
 21
-2.594
  0
LINE
  5
252
100
AcDbEntity
  8
0
100
AcDbLine
 62
2
  6
CONTINUOUS
 10
0.0
 20
-0.344
 11
9.055
 21
-0.344
  0
LINE
  5
253
100
AcDbEntity
  8
0
100
AcDbLine
 62
2
  6
CONTINUOUS
 10
0.0
 20
-0.594
 11
9.055
 21
-0.594
  0
LINE
  5
254
100
AcDbEntity
  8
0
100
AcDbLine
 62
2
  6
CONTINUOUS
 10
0.0
 20
-0.844
 11
9.055
 21
-0.844
  0
LINE
  5
255
100
AcDbEntity
  8
0
100
AcDbLine
 62
2
  6
CONTINUOUS
 10
0.0
 20
-1.094
 11
9.055
 21
-1.094
  0
LINE
  5
256
100
AcDbEntity
  8
0
100
AcDbLine
 62
2
  6
CONTINUOUS
 10
0.0
 20
-1.344
 11
9.055
 21
-1.344
  0
LINE
  5
257
100
AcDbEntity
  8
0
100
AcDbLine
 62
2
  6
CONTINUOUS
 10
0.0
 20
-1.594
 11
9.055
 21
-1.594
  0
LINE
  5
258
100
AcDbEntity
  8
0
100
AcDbLine
 62
2
  6
CONTINUOUS
 10
0.0
 20
-1.844
 11
9.055
 21
-1.844
  0
LINE
  5
259
100
AcDbEntity
  8
0
100
AcDbLine
 62
2
  6
CONTINUOUS
 10
0.0
 20
-2.094
 11
9.055
 21
-2.094
  0
LINE
  5
25A
100
AcDbEntity
  8
0
100
AcDbLine
 62
2
  6
CONTINUOUS
 10
0.0
 20
-2.344
 11
9.055
 21
-2.344
  0
LINE
  5
25B
100
AcDbEntity
  8
0
100
AcDbLine
 62
2
  6
CONTINUOUS
 10
0.0
 20
-2.594
 11
9.055
 21
-2.594
  0
LINE
  5
25C
100
AcDbEntity
  8
0
100
AcDbLine
 62
2
  6
CONTINUOUS
 10
3.055
 20
0.0
 11
3.055
 21
-2.594
  0
LINE
  5
25D
100
AcDbEntity
  8
0
100
AcDbLine
 62
2
  6
CONTINUOUS
 10
9.055
 20
0.0
 11
9.055
 21
-2.594
  0
MTEXT
  5
25E
100
AcDbEntity
  8
0
100
AcDbMText
 62
2
  6
CONTINUOUS
  7
STANDARD
 71
2
 72
1
 10
1.5275
 20
-0.0995
 30
0.0
 11
1.0
 21
0.0
 31
0.0
 44
0.9
  1
Technical Data
 40
0.145
 41
3.248
  0
MTEXT
  5
25F
100
AcDbEntity
  8
0
100
AcDbMText
 62
2
  6
CONTINUOUS
  7
STANDARD
 71
2
 72
1
 10
4.555
 20
-0.0995
 30
0.0
 11
1.0
 21
0.0
 31
0.0
 44
0.9
  1
U.S. Units
 40
0.145
 41
2.32
  0
MTEXT
  5
260
100
AcDbEntity
  8
0
100
AcDbMText
 62
2
  6
CONTINUOUS
  7
STANDARD
 71
2
 72
1
 10
7.555
 20
-0.0995
 30
0.0
 11
1.0
 21
0.0
 31
0.0
 44
0.9
  1
Metric Units
 40
0.145
 41
2.784
  0
MTEXT
  5
261
100
AcDbEntity
  8
0
100
AcDbMText
 62
2
  6
CONTINUOUS
  7
STANDARD
 71
2
 72
1
 10
1.5275
 20
-0.4065
 30
0.0
 11
1.0
 21
0.0
 31
0.0
 44
0.9
  1
Cavity
 40
0.125
 41
1.2
  0
MTEXT
  5
262
100
AcDbEntity
  8
0
100
AcDbMText
 62
2
  6
CONTINUOUS
  7
STANDARD
 71
2
 72
1
 10
6.055
 20
-0.4065
 30
0.0
 11
1.0
 21
0.0
 31
0.0
 44
0.9
  1
T-18A
 40
0.125
 41
1.0
  0
MTEXT
  5
263
100
AcDbEntity
  8
0
100
AcDbMText
 62
2
  6
CONTINUOUS
  7
STANDARD
 71
2
 72
1
 10
1.5275
 20
-0.6565
 30
0.0
 11
1.0
 21
0.0
 31
0.0
 44
0.9
  1
Body Features
 40
0.125
 41
2.6
  0
MTEXT
  5
264
100
AcDbEntity
  8
0
100
AcDbMText
 62
2
  6
CONTINUOUS
  7
STANDARD
 71
2
 72
1
 10
6.055
 20
-0.6565
 30
0.0
 11
1.0
 21
0.0
 31
0.0
 44
0.9
  1
Ninety degree with reverse flow check
 40
0.125
 41
7.4
  0
MTEXT
  5
265
100
AcDbEntity
  8
0
100
AcDbMText
 62
2
  6
CONTINUOUS
  7
STANDARD
 71
2
 72
1
 10
1.5275
 20
-0.9065
 30
0.0
 11
1.0
 21
0.0
 31
0.0
 44
0.9
  1
Body Type
 40
0.125
 41
1.8
  0
MTEXT
  5
266
100
AcDbEntity
  8
0
100
AcDbMText
 62
2
  6
CONTINUOUS
  7
STANDARD
 71
2
 72
1
 10
6.055
 20
-0.9065
 30
0.0
 11
1.0
 21
0.0
 31
0.0
 44
0.9
  1
Line mount
 40
0.125
 41
2.0
  0
MTEXT
  5
267
100
AcDbEntity
  8
0
100
AcDbMText
 62
2
  6
CONTINUOUS
  7
STANDARD
 71
2
 72
1
 10
1.5275
 20
-1.1565
 30
0.0
 11
1.0
 21
0.0
 31
0.0
 44
0.9
  1
Interface
 40
0.125
 41
1.8
  0
MTEXT
  5
268
100
AcDbEntity
  8
0
100
AcDbMText
 62
2
  6
CONTINUOUS
  7
STANDARD
 71
2
 72
1
 10
6.055
 20
-1.1565
 30
0.0
 11
1.0
 21
0.0
 31
0.0
 44
0.9
  1
None
 40
0.125
 41
0.8
  0
MTEXT
  5
269
100
AcDbEntity
  8
0
100
AcDbMText
 62
2
  6
CONTINUOUS
  7
STANDARD
 71
2
 72
1
 10
1.5275
 20
-1.4065
 30
0.0
 11
1.0
 21
0.0
 31
0.0
 44
0.9
  1
Open Cavity Quantity
 40
0.125
 41
4.0
  0
MTEXT
  5
26A
100
AcDbEntity
  8
0
100
AcDbMText
 62
2
  6
CONTINUOUS
  7
STANDARD
 71
2
 72
1
 10
6.055
 20
-1.4065
 30
0.0
 11
1.0
 21
0.0
 31
0.0
 44
0.9
  1
1
 40
0.125
 41
0.2
  0
MTEXT
  5
26B
100
AcDbEntity
  8
0
100
AcDbMText
 62
2
  6
CONTINUOUS
  7
STANDARD
 71
2
 72
1
 10
1.5275
 20
-1.6565
 30
0.0
 11
1.0
 21
0.0
 31
0.0
 44
0.9
  1
Weight
 40
0.125
 41
1.2
  0
MTEXT
  5
26C
100
AcDbEntity
  8
0
100
AcDbMText
 62
2
  6
CONTINUOUS
  7
STANDARD
 71
2
 72
1
 10
4.555
 20
-1.6565
 30
0.0
 11
1.0
 21
0.0
 31
0.0
 44
0.9
  1
22.843 lb.
 40
0.125
 41
2.0
  0
MTEXT
  5
26D
100
AcDbEntity
  8
0
100
AcDbMText
 62
2
  6
CONTINUOUS
  7
STANDARD
 71
2
 72
1
 10
7.555
 20
-1.6565
 30
0.0
 11
1.0
 21
0.0
 31
0.0
 44
0.9
  1
10,362 kg.
 40
0.125
 41
2.0
  0
MTEXT
  5
26E
100
AcDbEntity
  8
0
100
AcDbMText
 62
2
  6
CONTINUOUS
  7
STANDARD
 71
2
 72
1
 10
1.5275
 20
-1.9065
 30
0.0
 11
1.0
 21
0.0
 31
0.0
 44
0.9
  1
Mounting Hole Thread
 40
0.125
 41
4.0
  0
MTEXT
  5
26F
100
AcDbEntity
  8
0
100
AcDbMText
 62
2
  6
CONTINUOUS
  7
STANDARD
 71
2
 72
1
 10
4.555
 20
-1.9065
 30
0.0
 11
1.0
 21
0.0
 31
0.0
 44
0.9
  1
.375-16 UNC - 2B in.
 40
0.125
 41
4.0
  0
MTEXT
  5
270
100
AcDbEntity
  8
0
100
AcDbMText
 62
2
  6
CONTINUOUS
  7
STANDARD
 71
2
 72
1
 10
1.5275
 20
-2.1565
 30
0.0
 11
1.0
 21
0.0
 31
0.0
 44
0.9
  1
Mounting Hole Depth
 40
0.125
 41
3.8
  0
MTEXT
  5
271
100
AcDbEntity
  8
0
100
AcDbMText
 62
2
  6
CONTINUOUS
  7
STANDARD
 71
2
 72
1
 10
4.555
 20
-2.1565
 30
0.0
 11
1.0
 21
0.0
 31
0.0
 44
0.9
  1
.62 in.
 40
0.125
 41
1.4
  0
MTEXT
  5
272
100
AcDbEntity
  8
0
100
AcDbMText
 62
2
  6
CONTINUOUS
  7
STANDARD
 71
2
 72
1
 10
7.555
 20
-2.1565
 30
0.0
 11
1.0
 21
0.0
 31
0.0
 44
0.9
  1
15,7 mm
 40
0.125
 41
1.4
  0
MTEXT
  5
273
100
AcDbEntity
  8
0
100
AcDbMText
 62
2
  6
CONTINUOUS
  7
STANDARD
 71
2
 72
1
 10
1.5275
 20
-2.4065
 30
0.0
 11
1.0
 21
0.0
 31
0.0
 44
0.9
  1
Mounting Hole Quantity
 40
0.125
 41
4.4
  0
MTEXT
  5
274
100
AcDbEntity
  8
0
100
AcDbMText
 62
2
  6
CONTINUOUS
  7
STANDARD
 71
2
 72
1
 10
6.055
 20
-2.4065
 30
0.0
 11
1.0
 21
0.0
 31
0.0
 44
0.9
  1
2
 40
0.125
 41
0.2
  0
ENDBLK
  5
275
100
AcDbEntity
  8
0
  6
BYBLOCK
 62
0
100
AcDbBlockEnd
  0
BLOCK
  5
276
100
AcDbEntity
  8
0
100
AcDbBlockBegin
  2
*T3
 70
1
 10
0.0
 20
0.0
  3
*T3
  1

  0
LINE
  5
277
100
AcDbEntity
  8
0
100
AcDbLine
 62
2
  6
CONTINUOUS
 10
0.0
 20
0.0
 11
4.6
 21
0.0
  0
LINE
  5
278
100
AcDbEntity
  8
0
100
AcDbLine
 62
2
  6
CONTINUOUS
 10
0.0
 20
0.0
 11
0.0
 21
-1.18775
  0
LINE
  5
279
100
AcDbEntity
  8
0
100
AcDbLine
 62
2
  6
CONTINUOUS
 10
0.0
 20
-0.34375
 11
4.6
 21
-0.34375
  0
LINE
  5
27A
100
AcDbEntity
  8
0
100
AcDbLine
 62
2
  6
CONTINUOUS
 10
0.0
 20
-0.68775
 11
4.6
 21
-0.68775
  0
LINE
  5
27B
100
AcDbEntity
  8
0
100
AcDbLine
 62
2
  6
CONTINUOUS
 10
0.0
 20
-0.93775
 11
4.6
 21
-0.93775
  0
LINE
  5
27C
100
AcDbEntity
  8
0
100
AcDbLine
 62
2
  6
CONTINUOUS
 10
0.0
 20
-1.18775
 11
4.6
 21
-1.18775
  0
LINE
  5
27D
100
AcDbEntity
  8
0
100
AcDbLine
 62
2
  6
CONTINUOUS
 10
1.3
 20
-0.34375
 11
1.3
 21
-1.18775
  0
LINE
  5
27E
100
AcDbEntity
  8
0
100
AcDbLine
 62
2
  6
CONTINUOUS
 10
3.3
 20
-0.34375
 11
3.3
 21
-1.18775
  0
LINE
  5
27F
100
AcDbEntity
  8
0
100
AcDbLine
 62
2
  6
CONTINUOUS
 10
4.6
 20
0.0
 11
4.6
 21
-1.18775
  0
MTEXT
  5
280
100
AcDbEntity
  8
0
100
AcDbMText
 62
2
  6
CONTINUOUS
  7
STANDARD
 71
2
 72
1
 10
2.3
 20
-0.099375
 30
0.0
 11
1.0
 21
0.0
 31
0.0
 44
0.9
  1
Port Headings
 40
0.145
 41
3.016
  0
MTEXT
  5
281
100
AcDbEntity
  8
0
100
AcDbMText
 62
2
  6
CONTINUOUS
  7
STANDARD
 71
2
 72
1
 10
0.65
 20
-0.44325
 30
0.0
 11
1.0
 21
0.0
 31
0.0
 44
0.9
  1
Product
 40
0.145
 41
1.624
  0
MTEXT
  5
282
100
AcDbEntity
  8
0
100
AcDbMText
 62
2
  6
CONTINUOUS
  7
STANDARD
 71
2
 72
1
 10
2.3
 20
-0.44325
 30
0.0
 11
1.0
 21
0.0
 31
0.0
 44
0.9
  1
Port
 40
0.145
 41
0.928
  0
MTEXT
  5
283
100
AcDbEntity
  8
0
100
AcDbMText
 62
2
  6
CONTINUOUS
  7
STANDARD
 71
2
 72
1
 10
3.95
 20
-0.44325
 30
0.0
 11
1.0
 21
0.0
 31
0.0
 44
0.9
  1
Size
 40
0.145
 41
0.928
  0
MTEXT
  5
284
100
AcDbEntity
  8
0
100
AcDbMText
 62
2
  6
CONTINUOUS
  7
STANDARD
 71
2
 72
1
 10
0.65
 20
-0.75025
 30
0.0
 11
1.0
 21
0.0
 31
0.0
 44
0.9
  1
LN8
 40
0.125
 41
0.6
  0
MTEXT
  5
285
100
AcDbEntity
  8
0
100
AcDbMText
 62
2
  6
CONTINUOUS
  7
STANDARD
 71
2
 72
1
 10
2.3
 20
-0.75025
 30
0.0
 11
1.0
 21
0.0
 31
0.0
 44
0.9
  1
Ports 1 &  2
 40
0.125
 41
2.4
  0
MTEXT
  5
286
100
AcDbEntity
  8
0
100
AcDbMText
 62
2
  6
CONTINUOUS
  7
STANDARD
 71
2
 72
1
 10
3.95
 20
-0.75025
 30
0.0
 11
1.0
 21
0.0
 31
0.0
 44
0.9
  1
2" Code 62
 40
0.125
 41
2.0
  0
MTEXT
  5
287
100
AcDbEntity
  8
0
100
AcDbMText
 62
2
  6
CONTINUOUS
  7
STANDARD
 71
2
 72
1
 10
0.65
 20
-1.00025
 30
0.0
 11
1.0
 21
0.0
 31
0.0
 44
0.9
  1
LN8
 40
0.125
 41
0.6
  0
MTEXT
  5
288
100
AcDbEntity
  8
0
100
AcDbMText
 62
2
  6
CONTINUOUS
  7
STANDARD
 71
2
 72
1
 10
2.3
 20
-1.00025
 30
0.0
 11
1.0
 21
0.0
 31
0.0
 44
0.9
  1
Gage Port
 40
0.125
 41
1.8
  0
MTEXT
  5
289
100
AcDbEntity
  8
0
100
AcDbMText
 62
2
  6
CONTINUOUS
  7
STANDARD
 71
2
 72
1
 10
3.95
 20
-1.00025
 30
0.0
 11
1.0
 21
0.0
 31
0.0
 44
0.9
  1
1/4" NPTF
 40
0.125
 41
1.8
  0
ENDBLK
  5
28A
100
AcDbEntity
  8
0
  6
BYBLOCK
 62
0
100
AcDbBlockEnd
  0
ENDSEC
  0
SECTION
  2
ENTITIES
  0
IMAGE
  5
28B
100
AcDbEntity
  8
0
100
AcDbRasterImage
 62
7
  6
CONTINUOUS
 10
19.2297077316
 20
0.3094318264
 30
0.0
 11
0.0066666667
 21
0.0
 31
0.0
 12
0.0
 22
0.0066666667
 32
0.0
 13
369.0
 23
92.0
340
       386
 70
9
280
0
281
50
282
50
283
0
360
       380
 71
1
 91
2
 14
-0.5
 24
-0.5
 14
368.5
 24
91.5
  0
INSERT
  5
28C
100
AcDbEntity
  8
0
100
AcDbBlockReference
 62
2
  6
CONTINUOUS
  2
SUN_FIRST_THIRD_ANGLE_BL0
 10
20.4816717061
 20
1.2289683772
  0
ACAD_TABLE
  5
28D
100
AcDbEntity
  8
0
 62
2
  6
CONTINUOUS
100
AcDbBlockReference
  2
*T1
 10
12.42375
 20
0.30125
 30
0.0
100
AcDbTable
342
       388
343
20F
 11
1.0
 21
0.0
 31
0.0
 90
6
 91
4
 92
6
 93
20
 94
0
 95
0
 96
0
 70
1
 41
0.0
141
0.525
141
0.1
141
0.525
141
0.1
142
4.1
142
1.1
142
0.7
142
0.5
142
0.4
142
2.475
171
1
172
0
173
0
174
0
175
1
176
1
 91
33
178
0
145
0.0
301
CELL_VALUE
 90
4
  1
T-18A Line mount\PNinety degree with reverse flow check
304
ACVALUE_END
170
2
140
0.125
171
1
172
0
173
0
174
0
175
1
176
1
 91
33
178
0
145
0.0
301
CELL_VALUE
 90
4
  1
Jun-02-20
304
ACVALUE_END
170
5
140
0.125
171
1
172
0
173
0
174
0
175
1
176
1
 91
33
178
0
145
0.0
301
CELL_VALUE
 90
4
  1
0.900
304
ACVALUE_END
170
5
140
0.125
171
1
172
0
173
0
174
0
175
1
176
1
 91
33
178
0
145
0.0
301
CELL_VALUE
 90
4
  1
C
304
ACVALUE_END
170
5
140
0.125
171
1
172
0
173
0
174
0
175
1
176
1
 91
33
178
0
145
0.0
301
CELL_VALUE
 90
4
  1
2
304
ACVALUE_END
170
5
140
0.125
171
1
172
0
173
0
174
0
175
1
176
1
 91
33
178
0
145
0.0
301
CELL_VALUE
 90
4
  1
 
304
ACVALUE_END
170
1
140
0.125
171
1
172
0
173
0
174
0
175
1
176
1
 91
33
178
0
145
0.0
301
CELL_VALUE
 90
4
  1
DESCRIPTION
304
ACVALUE_END
170
1
140
0.06
171
1
172
0
173
0
174
0
175
1
176
1
 91
33
178
0
145
0.0
301
CELL_VALUE
 90
4
  1
DATE
304
ACVALUE_END
170
1
140
0.06
171
1
172
0
173
0
174
0
175
1
176
1
 91
33
178
0
145
0.0
301
CELL_VALUE
 90
4
  1
SCALE
304
ACVALUE_END
170
1
140
0.06
171
1
172
0
173
0
174
0
175
1
176
1
 91
33
178
0
145
0.0
301
CELL_VALUE
 90
4
  1
DWG SIZE
304
ACVALUE_END
170
1
140
0.06
171
1
172
0
173
0
174
0
175
1
176
1
 91
33
178
0
145
0.0
301
CELL_VALUE
 90
4
  1
SHEET
304
ACVALUE_END
170
1
140
0.06
171
1
172
0
173
0
174
0
175
1
176
1
 91
33
178
0
145
0.0
301
CELL_VALUE
 90
4
  1
 
304
ACVALUE_END
170
1
140
0.125
171
1
172
0
173
0
174
0
175
1
176
1
 91
33
178
0
145
0.0
301
CELL_VALUE
 90
4
  1
LN8
304
ACVALUE_END
170
5
140
0.125
171
1
172
0
173
0
174
0
175
4
176
1
 91
33
178
0
145
0.0
301
CELL_VALUE
 90
4
  1
ALL DIMENSIONS IN INCH\PVIEWS ARE THIRD ANGLE
304
ACVALUE_END
170
5
140
0.12
171
1
172
0
173
1
174
0
175
1
176
1
 91
1
178
0
145
0.0
170
1
171
1
172
0
173
1
174
0
175
1
176
1
 91
1
178
0
145
0.0
170
1
171
1
172
0
173
1
174
0
175
1
176
1
 91
1
178
0
145
0.0
170
5
171
1
172
0
173
0
174
0
175
1
176
1
 91
33
178
0
145
0.0
301
CELL_VALUE
 90
4
  1
 
304
ACVALUE_END
170
1
140
0.125
171
1
172
0
173
0
174
0
175
1
176
1
 91
33
178
0
145
0.0
301
CELL_VALUE
 90
4
  1
MODEL
304
ACVALUE_END
170
1
140
0.06
171
1
172
0
173
0
174
0
175
1
176
1
 91
33
178
0
145
0.0
301
CELL_VALUE
 90
4
  1
 
304
ACVALUE_END
170
1
140
0.125
171
1
172
0
173
0
174
0
175
1
176
1
 91
33
178
0
145
0.0
301
CELL_VALUE
 90
4
  1
 
304
ACVALUE_END
170
1
140
0.125
171
1
172
0
173
0
174
0
175
1
176
1
 91
33
178
0
145
0.0
301
CELL_VALUE
 90
4
  1
 
304
ACVALUE_END
170
1
140
0.125
171
1
172
0
173
0
174
0
175
1
176
1
 91
33
178
0
145
0.0
301
CELL_VALUE
 90
4
  1
 
304
ACVALUE_END
170
1
140
0.125
171
1
172
0
173
0
174
0
175
1
176
1
 91
33
178
0
145
0.0
301
CELL_VALUE
 90
4
  1
 
304
ACVALUE_END
170
1
140
0.125
  0
ACAD_TABLE
  5
28E
100
AcDbEntity
  8
0
 62
2
  6
CONTINUOUS
100
AcDbBlockReference
  2
*T2
 10
12.4237499994
 20
16.47875
 30
0.0
100
AcDbTable
342
       387
343
210
 11
1.0
 21
0.0
 31
0.0
 90
22
 91
10
 92
3
 93
16
 94
0
 95
0
 96
0
 41
0.028
141
0.344
141
0.25
141
0.25
141
0.25
141
0.25
141
0.25
141
0.25
141
0.25
141
0.25
141
0.25
142
3.055
142
3.0
142
3.0
171
1
172
0
173
0
174
0
175
1
176
1
 91
33
178
0
145
0.0
301
CELL_VALUE
 90
4
  1
Technical Data
304
ACVALUE_END
170
5
140
0.145
171
1
172
0
173
0
174
0
175
1
176
1
 91
33
178
0
145
0.0
301
CELL_VALUE
 90
4
  1
U.S. Units
304
ACVALUE_END
170
5
140
0.145
171
1
172
0
173
0
174
0
175
1
176
1
 91
33
178
0
145
0.0
301
CELL_VALUE
 90
4
  1
Metric Units
304
ACVALUE_END
170
5
140
0.145
171
1
172
0
173
0
174
0
175
1
176
1
 91
33
178
0
145
0.0
301
CELL_VALUE
 90
4
  1
Cavity
304
ACVALUE_END
170
5
140
0.125
171
1
172
0
173
0
174
0
175
2
176
1
 91
33
178
0
145
0.0
301
CELL_VALUE
 90
4
  1
T-18A
304
ACVALUE_END
170
5
140
0.125
171
1
172
0
173
1
174
0
175
1
176
1
 91
1
178
0
145
0.0
170
1
171
1
172
0
173
0
174
0
175
1
176
1
 91
33
178
0
145
0.0
301
CELL_VALUE
 90
4
  1
Body Features
304
ACVALUE_END
170
5
140
0.125
171
1
172
0
173
0
174
0
175
2
176
1
 91
33
178
0
145
0.0
301
CELL_VALUE
 90
4
  1
Ninety degree with reverse flow check
304
ACVALUE_END
170
5
140
0.125
171
1
172
0
173
1
174
0
175
1
176
1
 91
1
178
0
145
0.0
170
1
171
1
172
0
173
0
174
0
175
1
176
1
 91
33
178
0
145
0.0
301
CELL_VALUE
 90
4
  1
Body Type
304
ACVALUE_END
170
5
140
0.125
171
1
172
0
173
0
174
0
175
2
176
1
 91
33
178
0
145
0.0
301
CELL_VALUE
 90
4
  1
Line mount
304
ACVALUE_END
170
5
140
0.125
171
1
172
0
173
1
174
0
175
1
176
1
 91
1
178
0
145
0.0
170
1
171
1
172
0
173
0
174
0
175
1
176
1
 91
33
178
0
145
0.0
301
CELL_VALUE
 90
4
  1
Interface
304
ACVALUE_END
170
5
140
0.125
171
1
172
0
173
0
174
0
175
2
176
1
 91
33
178
0
145
0.0
301
CELL_VALUE
 90
4
  1
None
304
ACVALUE_END
170
5
140
0.125
171
1
172
0
173
1
174
0
175
1
176
1
 91
1
178
0
145
0.0
170
1
171
1
172
0
173
0
174
0
175
1
176
1
 91
33
178
0
145
0.0
301
CELL_VALUE
 90
4
  1
Open Cavity Quantity
304
ACVALUE_END
170
5
140
0.125
171
1
172
0
173
0
174
0
175
2
176
1
 91
33
178
0
145
0.0
301
CELL_VALUE
 90
4
  1
1
304
ACVALUE_END
170
5
140
0.125
171
1
172
0
173
1
174
0
175
1
176
1
 91
1
178
0
145
0.0
170
1
171
1
172
0
173
0
174
0
175
1
176
1
 91
33
178
0
145
0.0
301
CELL_VALUE
 90
4
  1
Weight
304
ACVALUE_END
170
5
140
0.125
171
1
172
0
173
0
174
0
175
1
176
1
 91
33
178
0
145
0.0
301
CELL_VALUE
 90
4
  1
22.843 lb.
304
ACVALUE_END
170
5
140
0.125
171
1
172
0
173
0
174
0
175
1
176
1
 91
33
178
0
145
0.0
301
CELL_VALUE
 90
4
  1
10,362 kg.
304
ACVALUE_END
170
5
140
0.125
171
1
172
0
173
0
174
0
175
1
176
1
 91
33
178
0
145
0.0
301
CELL_VALUE
 90
4
  1
Mounting Hole Thread
304
ACVALUE_END
170
5
140
0.125
171
1
172
0
173
0
174
0
175
1
176
1
 91
33
178
0
145
0.0
301
CELL_VALUE
 90
4
  1
.375-16 UNC - 2B in.
304
ACVALUE_END
170
5
140
0.125
171
1
172
0
173
0
174
0
175
1
176
1
 91
33
178
0
145
0.0
301
CELL_VALUE
 90
4
  1
 
304
ACVALUE_END
170
5
140
0.125
171
1
172
0
173
0
174
0
175
1
176
1
 91
33
178
0
145
0.0
301
CELL_VALUE
 90
4
  1
Mounting Hole Depth
304
ACVALUE_END
170
5
140
0.125
171
1
172
0
173
0
174
0
175
1
176
1
 91
33
178
0
145
0.0
301
CELL_VALUE
 90
4
  1
.62 in.
304
ACVALUE_END
170
5
140
0.125
171
1
172
0
173
0
174
0
175
1
176
1
 91
33
178
0
145
0.0
301
CELL_VALUE
 90
4
  1
15,7 mm
304
ACVALUE_END
170
5
140
0.125
171
1
172
0
173
0
174
0
175
1
176
1
 91
33
178
0
145
0.0
301
CELL_VALUE
 90
4
  1
Mounting Hole Quantity
304
ACVALUE_END
170
5
140
0.125
171
1
172
0
173
0
174
0
175
2
176
1
 91
33
178
0
145
0.0
301
CELL_VALUE
 90
4
  1
2
304
ACVALUE_END
170
5
140
0.125
171
1
172
0
173
1
174
0
175
1
176
1
 91
1
178
0
145
0.0
170
1
  0
ACAD_TABLE
  5
28F
100
AcDbEntity
  8
0
 62
2
  6
CONTINUOUS
100
AcDbBlockReference
  2
*T3
 10
0.52125
 20
1.709
 30
0.0
100
AcDbTable
342
       387
343
211
 11
1.0
 21
0.0
 31
0.0
 90
22
 91
4
 92
3
 93
16
 94
0
 95
0
 96
0
 41
0.05
141
0.34375
141
0.344
141
0.25
141
0.25
142
1.3
142
2.0
142
1.3
171
1
172
0
173
0
174
0
175
3
176
1
 91
33
178
0
145
0.0
301
CELL_VALUE
 90
4
  1
Port Headings
304
ACVALUE_END
170
5
140
0.145
171
1
172
0
173
1
174
0
175
1
176
1
 91
1
178
0
145
0.0
170
1
171
1
172
0
173
1
174
0
175
1
176
1
 91
1
178
0
145
0.0
170
1
171
1
172
0
173
0
174
0
175
1
176
1
 91
33
178
0
145
0.0
301
CELL_VALUE
 90
4
  1
Product
304
ACVALUE_END
170
5
140
0.145
171
1
172
0
173
0
174
0
175
1
176
1
 91
33
178
0
145
0.0
301
CELL_VALUE
 90
4
  1
Port
304
ACVALUE_END
170
5
140
0.145
171
1
172
0
173
0
174
0
175
1
176
1
 91
33
178
0
145
0.0
301
CELL_VALUE
 90
4
  1
Size
304
ACVALUE_END
170
5
140
0.145
171
1
172
0
173
0
174
0
175
1
176
1
 91
33
178
0
145
0.0
301
CELL_VALUE
 90
4
  1
LN8
304
ACVALUE_END
170
5
140
0.125
171
1
172
0
173
0
174
0
175
1
176
1
 91
33
178
0
145
0.0
301
CELL_VALUE
 90
4
  1
Ports 1 &  2
304
ACVALUE_END
170
5
140
0.125
171
1
172
0
173
0
174
0
175
1
176
1
 91
33
178
0
145
0.0
301
CELL_VALUE
 90
4
  1
2" Code 62
304
ACVALUE_END
170
5
140
0.125
171
1
172
0
173
0
174
0
175
1
176
1
 91
33
178
0
145
0.0
301
CELL_VALUE
 90
4
  1
LN8
304
ACVALUE_END
170
5
140
0.125
171
1
172
0
173
0
174
0
175
1
176
1
 91
33
178
0
145
0.0
301
CELL_VALUE
 90
4
  1
Gage Port
304
ACVALUE_END
170
5
140
0.125
171
1
172
0
173
0
174
0
175
1
176
1
 91
33
178
0
145
0.0
301
CELL_VALUE
 90
4
  1
1/4" NPTF
304
ACVALUE_END
170
5
140
0.125
  0
MTEXT
  5
290
100
AcDbEntity
  8
0
100
AcDbMText
 62
2
  6
CONTINUOUS
  7
STANDARD
 71
1
 72
1
 10
0.52125
 20
5.75995
 30
0.0
 11
1.0
 21
0.0
 31
0.0
 44
0.6
  3
Notes\P \P1. Important: Carefully consider\P   the maximum system pressure. The\P   pressure rating of the manifold is\P   dependent on the manifold material,\P   with the port type/size a secondary\P   consideration. Manifolds\P   constructed of alu
  1
minum are not\P   rated for pressures higher than\P   3000 psi (210 bar), regardless of\P   the port type/size specified.
 40
0.1
 41
3.04
  0
LINE
  5
291
100
AcDbEntity
  8
0
100
AcDbLine
 62
7
  6
CONTINUOUS
 10
0.30125
 20
0.30125
 11
0.30125
 21
16.69875
  0
LINE
  5
292
100
AcDbEntity
  8
0
100
AcDbLine
 62
7
  6
CONTINUOUS
 10
0.30125
 20
0.30125
 11
21.69875
 21
0.30125
  0
LINE
  5
293
100
AcDbEntity
  8
0
100
AcDbLine
 62
7
  6
CONTINUOUS
 10
0.30125
 20
16.69875
 11
21.69875
 21
16.69875
  0
LINE
  5
294
100
AcDbEntity
  8
0
100
AcDbLine
 62
7
  6
CONTINUOUS
 10
21.69875
 20
0.30125
 11
21.69875
 21
16.69875
  0
LINE
  5
295
100
AcDbEntity
  8
0
100
AcDbLine
 62
7
  6
CONTINUOUS
 10
7.7004102913
 20
11.2185074213
 11
9.0835899377
 21
12.5545564433
  0
LINE
  5
296
100
AcDbEntity
  8
0
100
AcDbLine
 62
7
  6
CONTINUOUS
 10
12.9164100623
 20
4.4454435567
 11
7.7004102913
 21
4.8071743694
  0
LINE
  5
297
100
AcDbEntity
  8
0
100
AcDbLine
 62
7
  6
CONTINUOUS
 10
7.7004102913
 20
11.2185074213
 11
7.7004102913
 21
4.8071743694
  0
LINE
  5
298
100
AcDbEntity
  8
0
100
AcDbLine
 62
7
  6
CONTINUOUS
 10
10.6114684881
 20
7.0532540698
 11
10.6114684881
 21
7.0182117509
  0
LINE
  5
299
100
AcDbEntity
  8
0
100
AcDbLine
 62
7
  6
CONTINUOUS
 10
14.2995897087
 20
12.1928256306
 11
12.9164100623
 21
10.8567766086
  0
LINE
  5
29A
100
AcDbEntity
  8
0
100
AcDbLine
 62
7
  6
CONTINUOUS
 10
10.7248684881
 20
7.2536228233
 11
10.7248684881
 21
7.0645554026
  0
LINE
  5
29B
100
AcDbEntity
  8
0
100
AcDbLine
 62
4
  6
CONTINUOUS
 10
14.2278450592
 20
10.5761122983
 11
14.232503798
 21
10.5806122948
  0
LINE
  5
29C
100
AcDbEntity
  8
0
100
AcDbLine
 62
4
  6
CONTINUOUS
 10
14.2208569509
 20
10.4302689795
 11
14.2394919063
 21
10.4482689653
  0
LINE
  5
29D
100
AcDbEntity
  8
0
100
AcDbLine
 62
7
  6
CONTINUOUS
 10
10.6505168652
 20
7.1164224438
 11
10.6392446978
 21
7.1059325087
  0
LINE
  5
29E
100
AcDbEntity
  8
0
100
AcDbLine
 62
4
  6
CONTINUOUS
 10
13.7869287098
 20
8.4144510261
 11
13.7762801689
 21
8.410788816
  0
LINE
  5
29F
100
AcDbEntity
  8
0
100
AcDbLine
 62
4
  6
CONTINUOUS
 10
13.460373271
 20
7.4028937048
 11
13.4745713326
 21
7.390114013
  0
LINE
  5
2A0
100
AcDbEntity
  8
0
100
AcDbLine
 62
4
  6
CONTINUOUS
 10
13.8784396453
 20
9.5344526459
 11
13.8830983842
 21
9.5389526424
  0
LINE
  5
2A1
100
AcDbEntity
  8
0
100
AcDbLine
 62
4
  6
CONTINUOUS
 10
13.8807690147
 20
9.4671559821
 11
13.8900864925
 21
9.476155975
  0
LINE
  5
2A2
100
AcDbEntity
  8
0
100
AcDbLine
 62
4
  6
CONTINUOUS
 10
13.8830983842
 20
9.3998593182
 11
13.8784396453
 21
9.3953593218
  0
LINE
  5
2A3
100
AcDbEntity
  8
0
100
AcDbLine
 62
4
  6
CONTINUOUS
 10
13.7558704141
 20
7.7148160129
 11
13.7700684746
 21
7.7020363179
  0
LINE
  5
2A4
100
AcDbEntity
  8
0
100
AcDbLine
 62
4
  6
CONTINUOUS
 10
13.6130024648
 20
8.2000867215
 11
13.6076781944
 21
8.2048791087
  0
LINE
  5
2A5
100
AcDbEntity
  8
0
100
AcDbLine
 62
4
  6
CONTINUOUS
 10
13.6635830608
 20
8.2489438283
 11
13.6582587903
 21
8.2537362155
  0
LINE
  5
2A6
100
AcDbEntity
  8
0
100
AcDbLine
 62
7
  6
CONTINUOUS
 10
12.9164100623
 20
10.8567766086
 11
12.9164100623
 21
4.4454435567
  0
LINE
  5
2A7
100
AcDbEntity
  8
0
100
AcDbLine
 62
4
  6
CONTINUOUS
 10
12.9641621363
 20
6.5910085252
 11
12.9641621363
 21
6.451915201
  0
LINE
  5
2A8
100
AcDbEntity
  8
0
100
AcDbLine
 62
4
  6
CONTINUOUS
 10
13.446175244
 20
8.1780373149
 11
13.4568237899
 21
8.188323021
  0
LINE
  5
2A9
100
AcDbEntity
  8
0
100
AcDbLine
 62
4
  6
CONTINUOUS
 10
13.7354607385
 20
8.4574656617
 11
13.7363481139
 21
8.4583228007
  0
LINE
  5
2AA
100
AcDbEntity
  8
0
100
AcDbLine
 62
4
  6
CONTINUOUS
 10
13.6715694753
 20
8.3560104896
 11
13.6582587903
 21
8.3431533544
  0
LINE
  5
2AB
100
AcDbEntity
  8
0
100
AcDbLine
 62
4
  6
CONTINUOUS
 10
13.5579849739
 20
8.2462962797
 11
13.5712956589
 21
8.2591534149
  0
LINE
  5
2AC
100
AcDbEntity
  8
0
100
AcDbLine
 62
4
  6
CONTINUOUS
 10
13.6130024648
 20
8.2994390982
 11
13.6236510057
 21
8.3097247995
  0
LINE
  5
2AD
100
AcDbEntity
  8
0
100
AcDbLine
 62
4
  6
CONTINUOUS
 10
13.6342995644
 20
8.3200105179
 11
13.6449481053
 21
8.3302962192
  0
LINE
  5
2AE
100
AcDbEntity
  8
0
100
AcDbLine
 62
4
  6
CONTINUOUS
 10
13.7523209252
 20
8.4340104052
 11
13.7629695017
 21
8.4442961408
  0
LINE
  5
2AF
100
AcDbEntity
  8
0
100
AcDbLine
 62
4
  6
CONTINUOUS
 10
13.7762801689
 20
8.4571532588
 11
13.7869287098
 21
8.4674389601
  0
LINE
  5
2B0
100
AcDbEntity
  8
0
100
AcDbLine
 62
4
  6
CONTINUOUS
 10
13.6635830608
 20
8.2986200167
 11
13.6742316017
 21
8.3089057179
  0
LINE
  5
2B1
100
AcDbEntity
  8
0
100
AcDbLine
 62
4
  6
CONTINUOUS
 10
13.7629695017
 20
8.344943764
 11
13.7523209252
 21
8.3346580284
  0
LINE
  5
2B2
100
AcDbEntity
  8
0
100
AcDbLine
 62
4
  6
CONTINUOUS
 10
13.7194879271
 20
8.3029437857
 11
13.7141636567
 21
8.2978009351
  0
LINE
  5
2B3
100
AcDbEntity
  8
0
100
AcDbLine
 62
4
  6
CONTINUOUS
 10
13.6742316017
 20
8.2592295296
 11
13.6635830608
 21
8.2489438283
  0
LINE
  5
2B4
100
AcDbEntity
  8
0
100
AcDbLine
 62
4
  6
CONTINUOUS
 10
13.6236510057
 20
8.2103724228
 11
13.6130024648
 21
8.2000867215
  0
LINE
  5
2B5
100
AcDbEntity
  8
0
100
AcDbLine
 62
4
  6
CONTINUOUS
 10
13.4435131074
 20
8.0363725642
 11
13.4541616536
 21
8.0466582705
  0
LINE
  5
2B6
100
AcDbEntity
  8
0
100
AcDbLine
 62
4
  6
CONTINUOUS
 10
13.4754587442
 20
8.0672296816
 11
13.4834451566
 21
8.074943964
  0
LINE
  5
2B7
100
AcDbEntity
  8
0
100
AcDbLine
 62
4
  6
CONTINUOUS
 10
13.6875422867
 20
8.2720866647
 11
13.7008529717
 21
8.2849437999
  0
LINE
  5
2B8
100
AcDbEntity
  8
0
100
AcDbLine
 62
4
  6
CONTINUOUS
 10
13.7762801689
 20
8.3578008821
 11
13.7869287098
 21
8.3680865833
  0
LINE
  5
2B9
100
AcDbEntity
  8
0
100
AcDbLine
 62
4
  6
CONTINUOUS
 10
13.5846063439
 20
8.1395407151
 11
13.5899306144
 21
8.1446835657
  0
LINE
  5
2BA
100
AcDbEntity
  8
0
100
AcDbLine
 62
4
  6
CONTINUOUS
 10
13.637849076
 20
7.9001979694
 11
13.6342995608
 21
7.9067046336
  0
LINE
  5
2BB
100
AcDbEntity
  8
0
100
AcDbLine
 62
4
  6
CONTINUOUS
 10
13.4594859262
 20
8.0915420748
 11
13.4408509708
 21
8.1331535142
  0
LINE
  5
2BC
100
AcDbEntity
  8
0
100
AcDbLine
 62
4
  6
CONTINUOUS
 10
13.4949810445
 20
7.5158041479
 11
13.5003053171
 21
7.501076527
  0
LINE
  5
2BD
100
AcDbEntity
  8
0
100
AcDbLine
 62
4
  6
CONTINUOUS
 10
13.5260393028
 20
7.5458041235
 11
13.5366878526
 21
7.4169965092
  0
LINE
  5
2BE
100
AcDbEntity
  8
0
100
AcDbLine
 62
4
  6
CONTINUOUS
 10
13.4408509708
 20
8.1331535142
 11
13.4408509708
 21
8.1530239879
  0
LINE
  5
2BF
100
AcDbEntity
  8
0
100
AcDbLine
 62
4
  6
CONTINUOUS
 10
13.4594859262
 20
8.0716715991
 11
13.4594859262
 21
8.0915420748
  0
LINE
  5
2C0
100
AcDbEntity
  8
0
100
AcDbLine
 62
4
  6
CONTINUOUS
 10
13.4701344716
 20
8.201180153
 11
13.4701344716
 21
8.0819573046
  0
LINE
  5
2C1
100
AcDbEntity
  8
0
100
AcDbLine
 62
4
  6
CONTINUOUS
 10
13.4816703639
 20
7.3638536929
 11
13.4816703639
 21
7.502947017
  0
LINE
  5
2C2
100
AcDbEntity
  8
0
100
AcDbLine
 62
4
  6
CONTINUOUS
 10
13.4408509708
 20
8.1530239879
 11
13.446175244
 21
8.1780373149
  0
LINE
  5
2C3
100
AcDbEntity
  8
0
100
AcDbLine
 62
4
  6
CONTINUOUS
 10
13.8737809064
 20
9.5183615419
 11
13.8784396453
 21
9.5344526459
  0
LINE
  5
2C4
100
AcDbEntity
  8
0
100
AcDbLine
 62
4
  6
CONTINUOUS
 10
13.637849076
 20
7.9598093905
 11
13.6458354861
 21
7.9675236707
  0
LINE
  5
2C5
100
AcDbEntity
  8
0
100
AcDbLine
 62
4
  6
CONTINUOUS
 10
13.637849076
 20
7.9001979694
 11
13.6458354861
 21
7.9079122496
  0
LINE
  5
2C6
100
AcDbEntity
  8
0
100
AcDbLine
 62
4
  6
CONTINUOUS
 10
13.6458354861
 20
7.8284303466
 11
13.637849076
 21
7.8207160663
  0
LINE
  5
2C7
100
AcDbEntity
  8
0
100
AcDbLine
 62
4
  6
CONTINUOUS
 10
13.5792820744
 20
7.7641446836
 11
13.5925927572
 21
7.7770018166
  0
LINE
  5
2C8
100
AcDbEntity
  8
0
100
AcDbLine
 62
4
  6
CONTINUOUS
 10
13.4816703639
 20
7.502947017
 11
13.4949810445
 21
7.5158041479
  0
LINE
  5
2C9
100
AcDbEntity
  8
0
100
AcDbLine
 62
4
  6
CONTINUOUS
 10
13.5473363935
 20
7.5663755346
 11
13.5686334842
 21
7.5869469458
  0
LINE
  5
2CA
100
AcDbEntity
  8
0
100
AcDbLine
 62
4
  6
CONTINUOUS
 10
13.579282034
 20
7.5972326556
 11
13.5952548542
 21
7.6126612161
  0
LINE
  5
2CB
100
AcDbEntity
  8
0
100
AcDbLine
 62
4
  6
CONTINUOUS
 10
13.6405111796
 20
7.6563754723
 11
13.6511597205
 21
7.6666611735
  0
LINE
  5
2CC
100
AcDbEntity
  8
0
100
AcDbLine
 62
4
  6
CONTINUOUS
 10
13.6715694269
 20
7.6863754372
 11
13.6795558414
 21
7.6940897217
  0
LINE
  5
2CD
100
AcDbEntity
  8
0
100
AcDbLine
 62
4
  6
CONTINUOUS
 10
13.6955286528
 20
7.7095182736
 11
13.7088393378
 21
7.7223754088
  0
LINE
  5
2CE
100
AcDbEntity
  8
0
100
AcDbLine
 62
4
  6
CONTINUOUS
 10
13.7292490619
 20
7.7420896896
 11
13.7452218732
 21
7.7575182415
  0
LINE
  5
2CF
100
AcDbEntity
  8
0
100
AcDbLine
 62
4
  6
CONTINUOUS
 10
13.7398976028
 20
7.6927639698
 11
13.7292490619
 21
7.6824782685
  0
LINE
  5
2D0
100
AcDbEntity
  8
0
100
AcDbLine
 62
4
  6
CONTINUOUS
 10
13.5899305837
 20
7.5479069444
 11
13.579282034
 21
7.5376212345
  0
LINE
  5
2D1
100
AcDbEntity
  8
0
100
AcDbLine
 62
7
  6
CONTINUOUS
 10
12.9164100623
 20
10.8567766086
 11
7.7004102913
 21
11.2185074213
  0
LINE
  5
2D2
100
AcDbEntity
  8
0
100
AcDbLine
 62
4
  6
CONTINUOUS
 10
13.7762801689
 20
8.410788816
 11
13.7736180426
 21
8.4148408905
  0
LINE
  5
2D3
100
AcDbEntity
  8
0
100
AcDbLine
 62
4
  6
CONTINUOUS
 10
13.7895908361
 20
8.4103989516
 11
13.7869287098
 21
8.4144510261
  0
LINE
  5
2D4
100
AcDbEntity
  8
0
100
AcDbLine
 62
4
  6
CONTINUOUS
 10
13.4408509708
 20
8.0437363754
 11
13.4435131074
 21
8.0363725642
  0
LINE
  5
2D5
100
AcDbEntity
  8
0
100
AcDbLine
 62
4
  6
CONTINUOUS
 10
13.6405111796
 20
7.5172821481
 11
13.6351869092
 21
7.5320097733
  0
LINE
  5
2D6
100
AcDbEntity
  8
0
100
AcDbLine
 62
4
  6
CONTINUOUS
 10
13.4701344716
 20
8.0819573046
 11
13.4754587442
 21
8.0672296816
  0
LINE
  5
2D7
100
AcDbEntity
  8
0
100
AcDbLine
 62
4
  6
CONTINUOUS
 10
13.6715694269
 20
7.547282113
 11
13.6662451564
 21
7.5620097382
  0
LINE
  5
2D8
100
AcDbEntity
  8
0
100
AcDbLine
 62
4
  6
CONTINUOUS
 10
13.4568237899
 20
8.188323021
 11
13.4594859262
 21
8.1809592064
  0
LINE
  5
2D9
100
AcDbEntity
  8
0
100
AcDbLine
 62
4
  6
CONTINUOUS
 10
13.6795558414
 20
7.6940897217
 11
13.6848801119
 21
7.6793620986
  0
LINE
  5
2DA
100
AcDbEntity
  8
0
100
AcDbLine
 62
4
  6
CONTINUOUS
 10
13.637849076
 20
7.8207160663
 11
13.6325248055
 21
7.8354436915
  0
LINE
  5
2DB
100
AcDbEntity
  8
0
100
AcDbLine
 62
4
  6
CONTINUOUS
 10
13.7088393378
 20
7.7223754088
 11
13.7141636082
 21
7.7076477857
  0
LINE
  5
2DC
100
AcDbEntity
  8
0
100
AcDbLine
 62
4
  6
CONTINUOUS
 10
13.6458354861
 20
7.9079122496
 11
13.651159761
 21
7.8931846267
  0
LINE
  5
2DD
100
AcDbEntity
  8
0
100
AcDbLine
 62
4
  6
CONTINUOUS
 10
13.5712956589
 20
8.2591534149
 11
13.5739577942
 21
8.2517895992
  0
LINE
  5
2DE
100
AcDbEntity
  8
0
100
AcDbLine
 62
4
  6
CONTINUOUS
 10
13.6848801425
 20
8.2794504687
 11
13.6875422867
 21
8.2720866647
  0
LINE
  5
2DF
100
AcDbEntity
  8
0
100
AcDbLine
 62
4
  6
CONTINUOUS
 10
13.7141636567
 20
8.2978009351
 11
13.7115015126
 21
8.3051647391
  0
LINE
  5
2E0
100
AcDbEntity
  8
0
100
AcDbLine
 62
4
  6
CONTINUOUS
 10
13.6458354861
 20
7.9675236707
 11
13.6493850012
 21
7.9510817655
  0
LINE
  5
2E1
100
AcDbEntity
  8
0
100
AcDbLine
 62
4
  6
CONTINUOUS
 10
13.4994179724
 20
8.2294658444
 11
13.5180529278
 21
8.108372506
  0
LINE
  5
2E2
100
AcDbEntity
  8
0
100
AcDbLine
 62
4
  6
CONTINUOUS
 10
13.6032413025
 20
7.9263808463
 11
13.6218762602
 21
7.8052875101
  0
LINE
  5
2E3
100
AcDbEntity
  8
0
100
AcDbLine
 62
4
  6
CONTINUOUS
 10
13.5846063439
 20
8.2720105501
 11
13.5925927585
 21
8.1803724579
  0
LINE
  5
2E4
100
AcDbEntity
  8
0
100
AcDbLine
 62
4
  6
CONTINUOUS
 10
13.488769427
 20
8.0999572904
 11
13.488769427
 21
8.2191801388
  0
LINE
  5
2E5
100
AcDbEntity
  8
0
100
AcDbLine
 62
4
  6
CONTINUOUS
 10
13.4994179724
 20
8.0903725202
 11
13.4994179724
 21
8.2294658444
  0
LINE
  5
2E6
100
AcDbEntity
  8
0
100
AcDbLine
 62
4
  6
CONTINUOUS
 10
13.5003053171
 20
7.501076527
 11
13.5003053171
 21
7.4017241523
  0
LINE
  5
2E7
100
AcDbEntity
  8
0
100
AcDbLine
 62
4
  6
CONTINUOUS
 10
13.5180529278
 20
8.108372506
 11
13.5180529278
 21
8.2474658302
  0
LINE
  5
2E8
100
AcDbEntity
  8
0
100
AcDbLine
 62
4
  6
CONTINUOUS
 10
13.5579849433
 20
7.4375679204
 11
13.5579849433
 21
7.5766612445
  0
LINE
  5
2E9
100
AcDbEntity
  8
0
100
AcDbLine
 62
4
  6
CONTINUOUS
 10
13.5579849739
 20
8.146943903
 11
13.5579849739
 21
8.2860372271
  0
LINE
  5
2EA
100
AcDbEntity
  8
0
100
AcDbLine
 62
4
  6
CONTINUOUS
 10
13.5739577942
 20
8.2517895992
 11
13.5739577942
 21
8.1623724635
  0
LINE
  5
2EB
100
AcDbEntity
  8
0
100
AcDbLine
 62
4
  6
CONTINUOUS
 10
13.579282034
 20
7.4581393315
 11
13.579282034
 21
7.5972326556
  0
LINE
  5
2EC
100
AcDbEntity
  8
0
100
AcDbLine
 62
4
  6
CONTINUOUS
 10
13.5792820744
 20
7.9032380077
 11
13.5792820744
 21
7.7641446836
  0
LINE
  5
2ED
100
AcDbEntity
  8
0
100
AcDbLine
 62
4
  6
CONTINUOUS
 10
13.6032413025
 20
7.7872875222
 11
13.6032413025
 21
7.9263808463
  0
LINE
  5
2EE
100
AcDbEntity
  8
0
100
AcDbLine
 62
4
  6
CONTINUOUS
 10
13.6076781944
 20
8.2048791087
 11
13.6076781944
 21
8.2843610066
  0
LINE
  5
2EF
100
AcDbEntity
  8
0
100
AcDbLine
 62
4
  6
CONTINUOUS
 10
13.6218762602
 20
7.8052875101
 11
13.6218762602
 21
7.9443808343
  0
LINE
  5
2F0
100
AcDbEntity
  8
0
100
AcDbLine
 62
4
  6
CONTINUOUS
 10
13.6236510057
 20
8.3494657469
 11
13.6236510057
 21
8.2103724228
  0
LINE
  5
2F1
100
AcDbEntity
  8
0
100
AcDbLine
 62
4
  6
CONTINUOUS
 10
13.6325248055
 20
7.8354436915
 11
13.6325248055
 21
7.8751846409
  0
LINE
  5
2F2
100
AcDbEntity
  8
0
100
AcDbLine
 62
4
  6
CONTINUOUS
 10
13.6342995608
 20
7.9067046336
 11
13.6342995608
 21
7.9365103482
  0
LINE
  5
2F3
100
AcDbEntity
  8
0
100
AcDbLine
 62
4
  6
CONTINUOUS
 10
13.6342995644
 20
8.2206581412
 11
13.6342995644
 21
8.3200105179
  0
LINE
  5
2F4
100
AcDbEntity
  8
0
100
AcDbLine
 62
4
  6
CONTINUOUS
 10
13.6351869092
 20
7.5320097733
 11
13.6351869092
 21
7.6313621479
  0
LINE
  5
2F5
100
AcDbEntity
  8
0
100
AcDbLine
 62
4
  6
CONTINUOUS
 10
13.6467228562
 20
8.3220752561
 11
13.6467228562
 21
8.3022047824
  0
LINE
  5
2F6
100
AcDbEntity
  8
0
100
AcDbLine
 62
4
  6
CONTINUOUS
 10
13.6493850012
 20
7.9510817655
 11
13.6493850012
 21
7.9212760509
  0
LINE
  5
2F7
100
AcDbEntity
  8
0
100
AcDbLine
 62
4
  6
CONTINUOUS
 10
13.651159761
 20
7.8931846267
 11
13.651159761
 21
7.8534436773
  0
LINE
  5
2F8
100
AcDbEntity
  8
0
100
AcDbLine
 62
4
  6
CONTINUOUS
 10
13.6582587903
 20
8.2537362155
 11
13.6582587903
 21
8.2835419292
  0
LINE
  5
2F9
100
AcDbEntity
  8
0
100
AcDbLine
 62
4
  6
CONTINUOUS
 10
13.6662451564
 20
7.5620097382
 11
13.6662451564
 21
7.6613621128
  0
LINE
  5
2FA
100
AcDbEntity
  8
0
100
AcDbLine
 62
4
  6
CONTINUOUS
 10
13.6742316017
 20
8.2592295296
 11
13.6742316017
 21
8.3387114326
  0
LINE
  5
2FB
100
AcDbEntity
  8
0
100
AcDbLine
 62
4
  6
CONTINUOUS
 10
13.6848801425
 20
8.3688676076
 11
13.6848801425
 21
8.2794504687
  0
LINE
  5
2FC
100
AcDbEntity
  8
0
100
AcDbLine
 62
4
  6
CONTINUOUS
 10
13.6848801119
 20
7.6793620986
 11
13.6848801119
 21
7.580009724
  0
LINE
  5
2FD
100
AcDbEntity
  8
0
100
AcDbLine
 62
4
  6
CONTINUOUS
 10
13.6955286528
 20
7.5704249495
 11
13.6955286528
 21
7.7095182736
  0
LINE
  5
2FE
100
AcDbEntity
  8
0
100
AcDbLine
 62
4
  6
CONTINUOUS
 10
13.7008529717
 20
8.2849437999
 11
13.7008529717
 21
8.3842961766
  0
LINE
  5
2FF
100
AcDbEntity
  8
0
100
AcDbLine
 62
4
  6
CONTINUOUS
 10
13.7115015126
 20
8.3051647391
 11
13.7115015126
 21
8.4343228253
  0
LINE
  5
300
100
AcDbEntity
  8
0
100
AcDbLine
 62
4
  6
CONTINUOUS
 10
13.7141636082
 20
7.7076477857
 11
13.7141636082
 21
7.6082954111
  0
LINE
  5
301
100
AcDbEntity
  8
0
100
AcDbLine
 62
4
  6
CONTINUOUS
 10
13.7292490619
 20
7.6029963655
 11
13.7292490619
 21
7.7420896896
  0
LINE
  5
302
100
AcDbEntity
  8
0
100
AcDbLine
 62
4
  6
CONTINUOUS
 10
13.7354607385
 20
8.3183723376
 11
13.7354607385
 21
8.4177247144
  0
LINE
  5
303
100
AcDbEntity
  8
0
100
AcDbLine
 62
4
  6
CONTINUOUS
 10
13.7354607385
 20
8.4475304208
 11
13.7354607385
 21
8.4574656617
  0
LINE
  5
304
100
AcDbEntity
  8
0
100
AcDbLine
 62
4
  6
CONTINUOUS
 10
13.7496587989
 20
8.3420218496
 11
13.7496587989
 21
8.4215037475
  0
LINE
  5
305
100
AcDbEntity
  8
0
100
AcDbLine
 62
4
  6
CONTINUOUS
 10
13.7736180426
 20
8.4148408905
 11
13.7736180426
 21
8.4446466011
  0
LINE
  5
306
100
AcDbEntity
  8
0
100
AcDbLine
 62
4
  6
CONTINUOUS
 10
13.7895908361
 20
8.3805932379
 11
13.7895908361
 21
8.4103989516
  0
LINE
  5
307
100
AcDbEntity
  8
0
100
AcDbLine
 62
4
  6
CONTINUOUS
 10
13.8667927982
 20
9.4536559927
 11
13.8691221676
 21
9.490679322
  0
LINE
  5
308
100
AcDbEntity
  8
0
100
AcDbLine
 62
4
  6
CONTINUOUS
 10
13.5153907575
 20
7.3964250938
 11
13.5260393028
 21
7.5458041235
  0
LINE
  5
309
100
AcDbEntity
  8
0
100
AcDbLine
 62
4
  6
CONTINUOUS
 10
13.5899306144
 20
8.1446835657
 11
13.6005791553
 21
8.287439102
  0
LINE
  5
30A
100
AcDbEntity
  8
0
100
AcDbLine
 62
4
  6
CONTINUOUS
 10
13.7363481139
 20
8.4583228007
 11
13.7354607385
 21
8.4475304208
  0
LINE
  5
30B
100
AcDbEntity
  8
0
100
AcDbLine
 62
4
  6
CONTINUOUS
 10
13.6342995608
 20
7.9365103482
 11
13.637849076
 21
7.9598093905
  0
LINE
  5
30C
100
AcDbEntity
  8
0
100
AcDbLine
 62
4
  6
CONTINUOUS
 10
13.8691221676
 20
9.490679322
 11
13.8737809064
 21
9.5183615419
  0
LINE
  5
30D
100
AcDbEntity
  8
0
100
AcDbLine
 62
4
  6
CONTINUOUS
 10
13.8900864925
 20
9.4297915343
 11
13.887757123
 21
9.4159504254
  0
LINE
  5
30E
100
AcDbEntity
  8
0
100
AcDbLine
 62
4
  6
CONTINUOUS
 10
13.4541616536
 20
8.0466582705
 11
13.4594859262
 21
8.0716715991
  0
LINE
  5
30F
100
AcDbEntity
  8
0
100
AcDbLine
 62
4
  6
CONTINUOUS
 10
13.4834451566
 20
8.074943964
 11
13.488769427
 21
8.0999572904
  0
LINE
  5
310
100
AcDbEntity
  8
0
100
AcDbLine
 62
4
  6
CONTINUOUS
 10
13.5003053171
 20
7.4017241523
 11
13.4949810445
 21
7.3767108237
  0
LINE
  5
311
100
AcDbEntity
  8
0
100
AcDbLine
 62
4
  6
CONTINUOUS
 10
13.6325248055
 20
7.8751846409
 11
13.637849076
 21
7.9001979694
  0
LINE
  5
312
100
AcDbEntity
  8
0
100
AcDbLine
 62
4
  6
CONTINUOUS
 10
13.7496587989
 20
8.4215037475
 11
13.7523209252
 21
8.4340104052
  0
LINE
  5
313
100
AcDbEntity
  8
0
100
AcDbLine
 62
4
  6
CONTINUOUS
 10
13.7736180426
 20
8.4446466011
 11
13.7762801689
 21
8.4571532588
  0
LINE
  5
314
100
AcDbEntity
  8
0
100
AcDbLine
 62
4
  6
CONTINUOUS
 10
13.651159761
 20
7.8534436773
 11
13.6458354861
 21
7.8284303466
  0
LINE
  5
315
100
AcDbEntity
  8
0
100
AcDbLine
 62
4
  6
CONTINUOUS
 10
13.7869287098
 20
8.3680865833
 11
13.7895908361
 21
8.3805932379
  0
LINE
  5
316
100
AcDbEntity
  8
0
100
AcDbLine
 62
4
  6
CONTINUOUS
 10
13.6351869092
 20
7.6313621479
 11
13.6405111796
 21
7.6563754723
  0
LINE
  5
317
100
AcDbEntity
  8
0
100
AcDbLine
 62
4
  6
CONTINUOUS
 10
13.6662451564
 20
7.6613621128
 11
13.6715694269
 21
7.6863754372
  0
LINE
  5
318
100
AcDbEntity
  8
0
100
AcDbLine
 62
4
  6
CONTINUOUS
 10
13.6848801119
 20
7.580009724
 11
13.6795558414
 21
7.5549963976
  0
LINE
  5
319
100
AcDbEntity
  8
0
100
AcDbLine
 62
4
  6
CONTINUOUS
 10
13.6493850012
 20
7.9212760509
 11
13.6458354861
 21
7.9079122496
  0
LINE
  5
31A
100
AcDbEntity
  8
0
100
AcDbLine
 62
4
  6
CONTINUOUS
 10
13.887757123
 20
9.4159504254
 11
13.8830983842
 21
9.3998593182
  0
LINE
  5
31B
100
AcDbEntity
  8
0
100
AcDbLine
 62
4
  6
CONTINUOUS
 10
14.2231863203
 20
10.5600211943
 11
14.2278450592
 21
10.5761122983
  0
LINE
  5
31C
100
AcDbEntity
  8
0
100
AcDbLine
 62
4
  6
CONTINUOUS
 10
14.2371625369
 20
10.5271567368
 11
14.2278450592
 21
10.4949745245
  0
LINE
  5
31D
100
AcDbEntity
  8
0
100
AcDbLine
 62
4
  6
CONTINUOUS
 10
13.6076781944
 20
8.2843610066
 11
13.6130024648
 21
8.2994390982
  0
LINE
  5
31E
100
AcDbEntity
  8
0
100
AcDbLine
 62
4
  6
CONTINUOUS
 10
13.6582587903
 20
8.2835419292
 11
13.6635830608
 21
8.2986200167
  0
LINE
  5
31F
100
AcDbEntity
  8
0
100
AcDbLine
 62
4
  6
CONTINUOUS
 10
13.4745713326
 20
7.443101949
 11
13.460373271
 21
7.4028937048
  0
LINE
  5
320
100
AcDbEntity
  8
0
100
AcDbLine
 62
4
  6
CONTINUOUS
 10
13.5189402726
 20
7.4395946139
 11
13.533138333
 21
7.4533088879
  0
LINE
  5
321
100
AcDbEntity
  8
0
100
AcDbLine
 62
4
  6
CONTINUOUS
 10
13.7088393378
 20
7.5832820847
 11
13.6955286528
 21
7.5704249495
  0
LINE
  5
322
100
AcDbEntity
  8
0
100
AcDbLine
 62
4
  6
CONTINUOUS
 10
13.6795558414
 20
7.5549963976
 11
13.6715694269
 21
7.547282113
  0
LINE
  5
323
100
AcDbEntity
  8
0
100
AcDbLine
 62
4
  6
CONTINUOUS
 10
13.6511597205
 20
7.5275678494
 11
13.6405111796
 21
7.5172821481
  0
LINE
  5
324
100
AcDbEntity
  8
0
100
AcDbLine
 62
4
  6
CONTINUOUS
 10
13.4949810445
 20
7.3767108237
 11
13.4816703639
 21
7.3638536929
  0
LINE
  5
325
100
AcDbEntity
  8
0
100
AcDbLine
 62
4
  6
CONTINUOUS
 10
13.579282034
 20
7.4581393315
 11
13.5952548542
 21
7.473567892
  0
LINE
  5
326
100
AcDbEntity
  8
0
100
AcDbLine
 62
4
  6
CONTINUOUS
 10
13.7292490619
 20
7.6029963655
 11
13.7452218732
 21
7.6184249174
  0
LINE
  5
327
100
AcDbEntity
  8
0
100
AcDbLine
 62
4
  6
CONTINUOUS
 10
13.7523209252
 20
8.3346580284
 11
13.7496587989
 21
8.3420218496
  0
LINE
  5
328
100
AcDbEntity
  8
0
100
AcDbLine
 62
4
  6
CONTINUOUS
 10
13.7736180426
 20
8.3651647032
 11
13.7762801689
 21
8.3578008821
  0
LINE
  5
329
100
AcDbEntity
  8
0
100
AcDbLine
 62
4
  6
CONTINUOUS
 10
13.7869287098
 20
8.4674389601
 11
13.7895908361
 21
8.4600751358
  0
LINE
  5
32A
100
AcDbEntity
  8
0
100
AcDbLine
 62
4
  6
CONTINUOUS
 10
13.6449481053
 20
8.3302962192
 11
13.6467228562
 21
8.3220752561
  0
LINE
  5
32B
100
AcDbEntity
  8
0
100
AcDbLine
 62
4
  6
CONTINUOUS
 10
13.6742316017
 20
8.3387114326
 11
13.6715694753
 21
8.3560104896
  0
LINE
  5
32C
100
AcDbEntity
  8
0
100
AcDbLine
 62
4
  6
CONTINUOUS
 10
13.8691221676
 20
9.4211326599
 11
13.8667927982
 21
9.4536559927
  0
LINE
  5
32D
100
AcDbEntity
  8
0
100
AcDbLine
 62
4
  6
CONTINUOUS
 10
13.8900864925
 20
9.476155975
 11
13.8900864925
 21
9.4297915343
  0
LINE
  5
32E
100
AcDbEntity
  8
0
100
AcDbLine
 62
4
  6
CONTINUOUS
 10
14.2231863203
 20
10.4672923088
 11
14.2208569509
 21
10.4302689795
  0
LINE
  5
32F
100
AcDbEntity
  8
0
100
AcDbLine
 62
4
  6
CONTINUOUS
 10
14.2208569509
 20
10.5461800802
 11
14.2231863203
 21
10.5600211943
  0
LINE
  5
330
100
AcDbEntity
  8
0
100
AcDbLine
 62
4
  6
CONTINUOUS
 10
14.2278450592
 20
10.4949745245
 11
14.2231863203
 21
10.4672923088
  0
LINE
  5
331
100
AcDbEntity
  8
0
100
AcDbLine
 62
4
  6
CONTINUOUS
 10
14.2394919063
 20
10.5409978509
 11
14.2371625369
 21
10.5271567368
  0
LINE
  5
332
100
AcDbEntity
  8
0
100
AcDbLine
 62
4
  6
CONTINUOUS
 10
13.7141636082
 20
7.6082954111
 11
13.7088393378
 21
7.5832820847
  0
LINE
  5
333
100
AcDbEntity
  8
0
100
AcDbLine
 62
4
  6
CONTINUOUS
 10
13.7700684746
 20
7.7020363179
 11
13.7558704141
 21
7.6618280769
  0
LINE
  5
334
100
AcDbEntity
  8
0
100
AcDbLine
 62
4
  6
CONTINUOUS
 10
13.8784396453
 20
9.3953593218
 11
13.8737809064
 21
9.402450436
  0
LINE
  5
335
100
AcDbEntity
  8
0
100
AcDbLine
 62
4
  6
CONTINUOUS
 10
13.8830983842
 20
9.5389526424
 11
13.887757123
 21
9.5318615312
  0
LINE
  5
336
100
AcDbEntity
  8
0
100
AcDbLine
 62
4
  6
CONTINUOUS
 10
13.8737809064
 20
9.402450436
 11
13.8691221676
 21
9.4211326599
  0
LINE
  5
337
100
AcDbEntity
  8
0
100
AcDbLine
 62
4
  6
CONTINUOUS
 10
13.887757123
 20
9.5318615312
 11
13.8900864925
 21
9.5225204136
  0
LINE
  5
338
100
AcDbEntity
  8
0
100
AcDbLine
 62
4
  6
CONTINUOUS
 10
14.2394919063
 20
10.564180066
 11
14.2394919063
 21
10.5409978509
  0
LINE
  5
339
100
AcDbEntity
  8
0
100
AcDbLine
 62
7
  6
CONTINUOUS
 10
14.2995897087
 20
12.1928256306
 11
14.2995897087
 21
5.7814925787
  0
LINE
  5
33A
100
AcDbEntity
  8
0
100
AcDbLine
 62
4
  6
CONTINUOUS
 10
14.232503798
 20
10.5806122948
 11
14.2371625369
 21
10.5735211837
  0
LINE
  5
33B
100
AcDbEntity
  8
0
100
AcDbLine
 62
4
  6
CONTINUOUS
 10
14.2371625369
 20
10.5735211837
 11
14.2394919063
 21
10.564180066
  0
LINE
  5
33C
100
AcDbEntity
  8
0
100
AcDbLine
 62
7
  6
CONTINUOUS
 10
9.0835899377
 20
12.5545564433
 11
14.2995897087
 21
12.1928256306
  0
LINE
  5
33D
100
AcDbEntity
  8
0
100
AcDbLine
 62
7
  6
CONTINUOUS
 10
14.2995897087
 20
5.7814925787
 11
12.9164100623
 21
4.4454435567
  0
ARC
  5
33E
100
AcDbEntity
  8
0
100
AcDbCircle
 62
7
  6
CONTINUOUS
 10
10.6287018073
 20
7.7314346347
 40
3.3534338338
100
AcDbArc
 50
87.2787748302
 51
92.7422944294
  0
ARC
  5
33F
100
AcDbEntity
  8
0
100
AcDbCircle
 62
7
  6
CONTINUOUS
 10
10.6483160806
 20
7.904812464
 40
3.1934792949
100
AcDbArc
 50
85.338130756
 51
86.0358353596
  0
ARC
  5
340
100
AcDbEntity
  8
0
100
AcDbCircle
 62
7
  6
CONTINUOUS
 10
10.606115734
 20
7.9418928141
 40
3.1562806335
100
AcDbArc
 50
94.4854239344
 51
94.6648394071
  0
ARC
  5
341
100
AcDbEntity
  8
0
100
AcDbCircle
 62
7
  6
CONTINUOUS
 10
11.2220473732
 20
7.3220751691
 40
0.6686289345
100
AcDbArc
 50
178.276522482
 51
179.984236126
  0
ARC
  5
342
100
AcDbEntity
  8
0
100
AcDbCircle
 62
7
  6
CONTINUOUS
 10
10.717921813
 20
7.0404071643
 40
0.1014627042
100
AcDbArc
 50
140.2768168219
 51
140.8574533934
  0
SPLINE
  5
343
100
AcDbEntity
  8
0
100
AcDbSpline
 62
7
  6
CONTINUOUS
 70
0
 71
3
 72
15
 73
11
 74
0
 42
0.0000001
 43
0.0000001
 44
0.0000000001
 40
0.0
 40
0.0
 40
0.0
 40
0.0
 40
0.1090323895
 40
0.2197882602
 40
0.3339052666
 40
0.4528710961
 40
0.5779738364
 40
0.7102985311
 40
0.8507388906
 40
1.0
 40
1.0
 40
1.0
 40
1.0
 10
10.6114685133
 20
7.0532544089
 30
0.0
 10
10.611468586
 20
7.0554808322
 30
0.0
 10
10.6117654736
 20
7.0599742486
 30
0.0
 10
10.6130947656
 20
7.0666794709
 30
0.0
 10
10.6153044366
 20
7.0733617039
 30
0.0
 10
10.6183885106
 20
7.0800098931
 30
0.0
 10
10.6223385837
 20
7.0866176548
 30
0.0
 10
10.6271476847
 20
7.0931790031
 30
0.0
 10
10.6328091142
 20
7.0996874537
 30
0.0
 10
10.6370139863
 20
7.1038563212
 30
0.0
 10
10.6392451809
 20
7.105932709
 30
0.0
  0
SPLINE
  5
344
100
AcDbEntity
  8
0
100
AcDbSpline
 62
7
  6
CONTINUOUS
 70
0
 71
3
 72
15
 73
11
 74
0
 42
0.0000001
 43
0.0000001
 44
0.0000000001
 40
0.0
 40
0.0
 40
0.0
 40
0.0
 40
0.1030924205
 40
0.2121896882
 40
0.3274763312
 40
0.449082333
 40
0.5771001087
 40
0.7115852981
 40
0.8525541474
 40
1.0
 40
1.0
 40
1.0
 40
1.0
 10
10.6505191417
 20
7.1164243169
 30
0.0
 10
10.6527174358
 20
7.1184700158
 30
0.0
 10
10.6573762563
 20
7.1225379892
 30
0.0
 10
10.6648984357
 20
7.1284100544
 30
0.0
 10
10.6731405258
 20
7.1342160834
 30
0.0
 10
10.6820937556
 20
7.1399505543
 30
0.0
 10
10.6917496086
 20
7.1456077735
 30
0.0
 10
10.702098624
 20
7.1511819058
 30
0.0
 10
10.713130059
 20
7.1566678067
 30
0.0
 10
10.7207613216
 20
7.1601838969
 30
0.0
 10
10.7246856479
 20
7.1619289564
 30
0.0
  0
SPLINE
  5
345
100
AcDbEntity
  8
0
100
AcDbSpline
 62
7
  6
CONTINUOUS
 70
0
 71
3
 72
15
 73
11
 74
0
 42
0.0000001
 43
0.0000001
 44
0.0000000001
 40
0.0
 40
0.0
 40
0.0
 40
0.0
 40
0.1379214825
 40
0.2728443919
 40
0.4044145694
 40
0.5322783028
 40
0.6560853096
 40
0.7755091716
 40
0.8902420684
 40
1.0
 40
1.0
 40
1.0
 40
1.0
 10
11.1107189965
 20
6.6677477066
 30
0.0
 10
11.0977007023
 20
6.6689769218
 30
0.0
 10
11.0719659434
 20
6.671613459
 30
0.0
 10
11.0338922516
 20
6.6761577544
 30
0.0
 10
10.9968484208
 20
6.6812382876
 30
0.0
 10
10.9609457601
 20
6.6868389525
 30
0.0
 10
10.9262938158
 20
6.6929432335
 30
0.0
 10
10.8929984884
 20
6.699531675
 30
0.0
 10
10.8611613095
 20
6.7065845115
 30
0.0
 10
10.8404981827
 20
6.7116985959
 30
0.0
 10
10.8304324922
 20
6.7143382058
 30
0.0
  0
SPLINE
  5
346
100
AcDbEntity
  8
0
100
AcDbSpline
 62
7
  6
CONTINUOUS
 70
0
 71
3
 72
31
 73
27
 74
0
 42
0.0000001
 43
0.0000001
 44
0.0000000001
 40
0.0
 40
0.0
 40
0.0
 40
0.0
 40
0.0979797123
 40
0.1919982103
 40
0.2817452967
 40
0.3669387249
 40
0.4473224353
 40
0.5226782178
 40
0.5928241456
 40
0.6576297754
 40
0.6880073772
 40
0.717029144
 40
0.7446974805
 40
0.7710208797
 40
0.7960167292
 40
0.8197099228
 40
0.84213412
 40
0.8633357313
 40
0.8833754436
 40
0.9023287859
 40
0.9202893724
 40
0.9373728362
 40
0.9537165182
 40
0.9694795651
 40
0.9848420541
 40
1.0
 40
1.0
 40
1.0
 40
1.0
 10
11.0229109605
 20
6.9236569959
 30
0.0
 10
11.0117620004
 20
6.9255023742
 30
0.0
 10
10.989953215
 20
6.9293564806
 30
0.0
 10
10.958094773
 20
6.9357761162
 30
0.0
 10
10.9278518152
 20
6.9426968978
 30
0.0
 10
10.8993421802
 20
6.9500905395
 30
0.0
 10
10.8726765985
 20
6.9579287375
 30
0.0
 10
10.8479576783
 20
6.9661793614
 30
0.0
 10
10.8252812451
 20
6.9748110488
 30
0.0
 10
10.8077983078
 20
6.9824487346
 30
0.0
 10
10.7949324958
 20
6.9887529927
 30
0.0
 10
10.786056002
 20
6.9934528128
 30
0.0
 10
10.7777515211
 20
6.9982221104
 30
0.0
 10
10.7700272087
 20
7.0030567767
 30
0.0
 10
10.7628901316
 20
7.007951905
 30
0.0
 10
10.7563469322
 20
7.0129029497
 30
0.0
 10
10.7504041488
 20
7.0179058447
 30
0.0
 10
10.7450674617
 20
7.0229562513
 30
0.0
 10
10.7403416873
 20
7.0280496961
 30
0.0
 10
10.7362317139
 20
7.03318223
 30
0.0
 10
10.7327427547
 20
7.0383502739
 30
0.0
 10
10.7298789176
 20
7.0435494925
 30
0.0
 10
10.727644467
 20
7.0487754124
 30
0.0
 10
10.7260444264
 20
7.0540234547
 30
0.0
 10
10.7250830644
 20
7.059286308
 30
0.0
 10
10.7248687697
 20
7.0628100554
 30
0.0
 10
10.7248688179
 20
7.0645583221
 30
0.0
  0
SPLINE
  5
347
100
AcDbEntity
  8
0
100
AcDbSpline
 62
7
  6
CONTINUOUS
 70
0
 71
3
 72
36
 73
32
 74
0
 42
0.0000001
 43
0.0000001
 44
0.0000000001
 40
0.0
 40
0.0
 40
0.0
 40
0.0
 40
0.1057626755
 40
0.2068506256
 40
0.3026631395
 40
0.3484205284
 40
0.392660274
 40
0.4353229473
 40
0.4763551793
 40
0.5157086029
 40
0.553339122
 40
0.5892111649
 40
0.6232945974
 40
0.655567902
 40
0.68602037
 40
0.714650456
 40
0.7414721634
 40
0.7665152206
 40
0.7898286461
 40
0.8114885593
 40
0.8316002466
 40
0.850307973
 40
0.8678017351
 40
0.8843212178
 40
0.9001588798
 40
0.9156499372
 40
0.9311547084
 40
0.9470323101
 40
0.9636156422
 40
0.9811928448
 40
1.0
 40
1.0
 40
1.0
 40
1.0
 10
11.0393198904
 20
6.8910700602
 30
0.0
 10
11.0212672856
 20
6.8933825319
 30
0.0
 10
10.9860154876
 20
6.8983563716
 30
0.0
 10
10.9346618492
 20
6.907087328
 30
0.0
 10
10.8937242205
 20
6.9153654829
 30
0.0
 10
10.8625622496
 20
6.9225368172
 30
0.0
 10
10.8404134415
 20
6.928072731
 30
0.0
 10
10.8191649644
 20
6.9338396203
 30
0.0
 10
10.7988526846
 20
6.9398275324
 30
0.0
 10
10.7795108179
 20
6.9460258989
 30
0.0
 10
10.7611721015
 20
6.9524249104
 30
0.0
 10
10.743867177
 20
6.9590129237
 30
0.0
 10
10.7276250729
 20
6.9657791261
 30
0.0
 10
10.7124729858
 20
6.9727123988
 30
0.0
 10
10.698435719
 20
6.9798003684
 30
0.0
 10
10.6855366865
 20
6.9870322828
 30
0.0
 10
10.6737966847
 20
6.9943959505
 30
0.0
 10
10.66323442
 20
7.0018797094
 30
0.0
 10
10.6538673823
 20
7.0094733733
 30
0.0
 10
10.6457098749
 20
7.0171654548
 30
0.0
 10
10.6387761011
 20
7.0249471968
 30
0.0
 10
10.6330795281
 20
7.0328099703
 30
0.0
 10
10.6286329889
 20
7.0407447644
 30
0.0
 10
10.6254535118
 20
7.0487424402
 30
0.0
 10
10.6235560671
 20
7.0567875794
 30
0.0
 10
10.6229541458
 20
7.0648588866
 30
0.0
 10
10.6236539793
 20
7.0729290608
 30
0.0
 10
10.6256477841
 20
7.0809714037
 30
0.0
 10
10.6289236976
 20
7.0889647362
 30
0.0
 10
10.6334639695
 20
7.0968939329
 30
0.0
 10
10.6371866135
 20
7.1019455757
 30
0.0
 10
10.6392295853
 20
7.10445569
 30
0.0
  0
SPLINE
  5
348
100
AcDbEntity
  8
0
100
AcDbSpline
 62
7
  6
CONTINUOUS
 70
0
 71
3
 72
9
 73
5
 74
0
 42
0.0000001
 43
0.0000001
 44
0.0000000001
 40
0.0
 40
0.0
 40
0.0
 40
0.0
 40
0.2401414711
 40
1.0
 40
1.0
 40
1.0
 40
1.0
 10
10.639882684
 20
7.1052498561
 30
0.0
 10
10.6406721758
 20
7.106200076
 30
0.0
 10
10.6440310848
 20
7.1100976027
 30
0.0
 10
10.647657475
 20
7.1137612936
 30
0.0
 10
10.6505191417
 20
7.1164243169
 30
0.0
  0
SPLINE
  5
349
100
AcDbEntity
  8
0
100
AcDbSpline
 62
7
  6
CONTINUOUS
 70
0
 71
3
 72
33
 73
29
 74
0
 42
0.0000001
 43
0.0000001
 44
0.0000000001
 40
0.0
 40
0.0
 40
0.0
 40
0.0
 40
0.0976028577
 40
0.1917329279
 40
0.2819724803
 40
0.3679372989
 40
0.4492743214
 40
0.5256653076
 40
0.5968368063
 40
0.6303951674
 40
0.6625702085
 40
0.6933430182
 40
0.722700808
 40
0.7506367728
 40
0.777148987
 40
0.8022440536
 40
0.8259380422
 40
0.8482559699
 40
0.8692362312
 40
0.8889331743
 40
0.9074179088
 40
0.9247837454
 40
0.9330858571
 40
0.9411553002
 40
0.9566687672
 40
0.9715063114
 40
0.9858739362
 40
1.0
 40
1.0
 40
1.0
 40
1.0
 10
11.0462813864
 20
6.875532862
 30
0.0
 10
11.0303912583
 20
6.8774781187
 30
0.0
 10
10.9992163891
 20
6.881637103
 30
0.0
 10
10.953525282
 20
6.8888267907
 30
0.0
 10
10.9099079266
 20
6.8968288135
 30
0.0
 10
10.8685812262
 20
6.9056020854
 30
0.0
 10
10.8297489243
 20
6.9151022786
 30
0.0
 10
10.793603106
 20
6.9252820614
 30
0.0
 10
10.7653380251
 20
6.9344588303
 30
0.0
 10
10.744235283
 20
6.9421393951
 30
0.0
 10
10.7294992751
 20
6.9479239914
 30
0.0
 10
10.7155605209
 20
6.9538392058
 30
0.0
 10
10.7024360776
 20
6.9598777556
 30
0.0
 10
10.6901417645
 20
6.9660317727
 30
0.0
 10
10.6786927696
 20
6.9722942476
 30
0.0
 10
10.6681029611
 20
6.9786576418
 30
0.0
 10
10.6583847152
 20
6.9851139249
 30
0.0
 10
10.6495499159
 20
6.9916561543
 30
0.0
 10
10.6416092577
 20
6.9982771272
 30
0.0
 10
10.6345716247
 20
7.0049694304
 30
0.0
 10
10.6284464853
 20
7.0117263423
 30
0.0
 10
10.6240449621
 20
7.0174907263
 30
0.0
 10
10.6210129161
 20
7.0221222481
 30
0.0
 10
10.6183721691
 20
7.0266383958
 30
0.0
 10
10.6156250326
 20
7.0323254986
 30
0.0
 10
10.613231204
 20
7.0392782946
 30
0.0
 10
10.6117902185
 20
7.0462578852
 30
0.0
 10
10.6114684376
 20
7.0509374616
 30
0.0
 10
10.6114685133
 20
7.0532544089
 30
0.0
  0
SPLINE
  5
34A
100
AcDbEntity
  8
0
100
AcDbSpline
 62
7
  6
CONTINUOUS
 70
0
 71
3
 72
47
 73
43
 74
0
 42
0.0000001
 43
0.0000001
 44
0.0000000001
 40
0.0
 40
0.0
 40
0.0
 40
0.0
 40
0.0958288111
 40
0.142819056
 40
0.1890973226
 40
0.2345926742
 40
0.2792365299
 40
0.3229621663
 40
0.3657048032
 40
0.4074019306
 40
0.4479935008
 40
0.4874221382
 40
0.5256333545
 40
0.5625758117
 40
0.5982016755
 40
0.6324669342
 40
0.6653317617
 40
0.6967609905
 40
0.7267247393
 40
0.7551990982
 40
0.7821669619
 40
0.8076191396
 40
0.8315558348
 40
0.8429598954
 40
0.8539904236
 40
0.8646510588
 40
0.8749463966
 40
0.8848821863
 40
0.894465538
 40
0.9037048856
 40
0.9126103351
 40
0.9211937488
 40
0.9294688783
 40
0.9374517162
 40
0.9451605113
 40
0.959834734
 40
0.9668566107
 40
0.9737035074
 40
0.9804067699
 40
0.9870000208
 40
0.9935188065
 40
1.0
 40
1.0
 40
1.0
 40
1.0
 10
10.3594233685
 20
11.0869169772
 30
0.0
 10
10.3323251482
 20
11.0887962451
 30
0.0
 10
10.2919680752
 20
11.0920470409
 30
0.0
 10
10.2386246093
 20
11.0973031722
 30
0.0
 10
10.1995294483
 20
11.1016366963
 30
0.0
 10
10.1611519865
 20
11.106379898
 30
0.0
 10
10.1235564021
 20
11.1115248212
 30
0.0
 10
10.0868055375
 20
11.1170628
 30
0.0
 10
10.0509607991
 20
11.1229845374
 30
0.0
 10
10.016082092
 20
11.1292800898
 30
0.0
 10
9.9822276685
 20
11.1359388631
 30
0.0
 10
9.9494540481
 20
11.1429496524
 30
0.0
 10
9.9178159304
 20
11.1503006676
 30
0.0
 10
9.8873660936
 20
11.1579795628
 30
0.0
 10
9.8581552798
 20
11.1659734164
 30
0.0
 10
9.8302321079
 20
11.1742687806
 30
0.0
 10
9.8036429985
 20
11.18285172
 30
0.0
 10
9.7784320857
 20
11.1917078504
 30
0.0
 10
9.7546410811
 20
11.2008223412
 30
0.0
 10
9.7323092506
 20
11.2101799612
 30
0.0
 10
9.7114731242
 20
11.21976522
 30
0.0
 10
9.6921671796
 20
11.229562241
 30
0.0
 10
9.6771461046
 20
11.2380210469
 30
0.0
 10
9.6659414986
 20
11.2448957375
 30
0.0
 10
9.6580764771
 20
11.2500111973
 30
0.0
 10
9.6506169452
 20
11.2551672649
 30
0.0
 10
9.6435659753
 20
11.260361934
 30
0.0
 10
9.6369265072
 20
11.2655931338
 30
0.0
 10
9.630701219
 20
11.2708586898
 30
0.0
 10
9.6248927434
 20
11.2761566028
 30
0.0
 10
9.6195034781
 20
11.2814847459
 30
0.0
 10
9.6145356239
 20
11.2868410653
 30
0.0
 10
9.6099914755
 20
11.2922234315
 30
0.0
 10
9.6058726161
 20
11.2976302695
 30
0.0
 10
9.6010311062
 20
11.3047501536
 30
0.0
 10
9.5969349466
 20
11.3120382838
 30
0.0
 10
9.593689618
 20
11.3194552472
 30
0.0
 10
9.5917245929
 20
11.3249508201
 30
0.0
 10
9.590194747
 20
11.3304571621
 30
0.0
 10
9.5891011795
 20
11.3359721119
 30
0.0
 10
9.5884446114
 20
11.3414924071
 30
0.0
 10
9.5882984967
 20
11.3451789806
 30
0.0
 10
9.588298488
 20
11.3470161175
 30
0.0
  0
SPLINE
  5
34B
100
AcDbEntity
  8
0
100
AcDbSpline
 62
7
  6
CONTINUOUS
 70
0
 71
3
 72
30
 73
26
 74
0
 42
0.0000001
 43
0.0000001
 44
0.0000000001
 40
0.0
 40
0.0
 40
0.0
 40
0.0
 40
0.0762781501
 40
0.1537889925
 40
0.2318280456
 40
0.3096813104
 40
0.3866381882
 40
0.4619983804
 40
0.5350803692
 40
0.6052299596
 40
0.671829287
 40
0.7036181239
 40
0.734309145
 40
0.763839727
 40
0.7921517691
 40
0.8191917902
 40
0.8449118082
 40
0.8692700996
 40
0.8922317249
 40
0.91377012
 40
0.9338684426
 40
0.9525213743
 40
0.9697384245
 40
0.9855474495
 40
1.0
 40
1.0
 40
1.0
 40
1.0
 10
13.9138460281
 20
9.8642259109
 30
0.0
 10
13.9138460281
 20
9.8723295632
 30
0.0
 10
13.9140640337
 20
9.888668533
 30
0.0
 10
13.9150151926
 20
9.913281563
 30
0.0
 10
13.9165849881
 20
9.938030701
 30
0.0
 10
13.9187582354
 20
9.9626750509
 30
0.0
 10
13.9215136667
 20
9.9869748213
 30
0.0
 10
13.9248242363
 20
10.0106936473
 30
0.0
 10
13.9286573342
 20
10.0336010414
 30
0.0
 10
13.9329752458
 20
10.0554742445
 30
0.0
 10
13.9370017257
 20
10.0729247065
 30
0.0
 10
13.940448602
 20
10.0861983063
 30
0.0
 10
13.9430872288
 20
10.0956111525
 30
0.0
 10
13.9458129863
 20
10.1046139366
 30
0.0
 10
13.9486191994
 20
10.1131848368
 30
0.0
 10
13.9514990104
 20
10.1213030778
 30
0.0
 10
13.9544453741
 20
10.1289490345
 30
0.0
 10
13.9574510428
 20
10.1361042952
 30
0.0
 10
13.9605087396
 20
10.1427516809
 30
0.0
 10
13.9636110319
 20
10.1488753505
 30
0.0
 10
13.966750462
 20
10.1544608771
 30
0.0
 10
13.9699196541
 20
10.1594951719
 30
0.0
 10
13.9731115174
 20
10.1639668887
 30
0.0
 10
13.9763186429
 20
10.1678655163
 30
0.0
 10
13.9785603906
 20
10.1701772442
 30
0.0
 10
13.9796843451
 20
10.1712232932
 30
0.0
  0
SPLINE
  5
34C
100
AcDbEntity
  8
0
100
AcDbSpline
 62
7
  6
CONTINUOUS
 70
0
 71
3
 72
23
 73
19
 74
0
 42
0.0000001
 43
0.0000001
 44
0.0000000001
 40
0.0
 40
0.0
 40
0.0
 40
0.0
 40
0.0637775561
 40
0.1273446565
 40
0.1907020307
 40
0.2538561431
 40
0.3168131834
 40
0.3795821015
 40
0.4421733894
 40
0.5045993415
 40
0.5668738676
 40
0.6290123791
 40
0.6910316472
 40
0.7529496401
 40
0.8147853492
 40
0.8765585998
 40
0.9382898533
 40
1.0
 40
1.0
 40
1.0
 40
1.0
 10
11.123410141
 20
6.5257884377
 30
0.0
 10
11.123410141
 20
6.5127702923
 30
0.0
 10
11.1227870753
 20
6.4867725464
 30
0.0
 10
11.1199746665
 20
6.4479340038
 30
0.0
 10
11.1152921268
 20
6.4094034347
 30
0.0
 10
11.1087504421
 20
6.3712710496
 30
0.0
 10
11.1003643992
 20
6.3336242266
 30
0.0
 10
11.0901533429
 20
6.2965499211
 30
0.0
 10
11.0781406759
 20
6.2601335668
 30
0.0
 10
11.0643540195
 20
6.2244591562
 30
0.0
 10
11.0488250946
 20
6.1896089598
 30
0.0
 10
11.0315896469
 20
6.1556633585
 30
0.0
 10
11.0126873708
 20
6.122700661
 30
0.0
 10
10.9921617894
 20
6.0907968944
 30
0.0
 10
10.9700602668
 20
6.0600257311
 30
0.0
 10
10.9464334848
 20
6.0304579298
 30
0.0
 10
10.921336871
 20
6.0021626147
 30
0.0
 10
10.9036611096
 20
5.9841876475
 30
0.0
 10
10.8946012599
 20
5.9754365267
 30
0.0
  0
SPLINE
  5
34D
100
AcDbEntity
  8
0
100
AcDbSpline
 62
7
  6
CONTINUOUS
 70
0
 71
3
 72
19
 73
15
 74
0
 42
0.0000001
 43
0.0000001
 44
0.0000000001
 40
0.0
 40
0.0
 40
0.0
 40
0.0
 40
0.1273276112
 40
0.2538197126
 40
0.3795264544
 40
0.5045235342
 40
0.5668075908
 40
0.6289556139
 40
0.69098437
 40
0.7529118409
 40
0.8147570139
 40
0.8765397109
 40
0.9382804089
 40
1.0
 40
1.0
 40
1.0
 40
1.0
 10
8.9650678784
 20
7.4444564303
 30
0.0
 10
8.9650678784
 20
7.4347134889
 30
0.0
 10
8.9641376373
 20
7.4152781367
 30
0.0
 10
8.9599305455
 20
7.3864985331
 30
0.0
 10
8.9529551844
 20
7.3584434133
 30
0.0
 10
8.9448748043
 20
7.3358517652
 30
0.0
 10
8.9371037032
 20
7.3184121116
 30
0.0
 10
8.9306415032
 20
7.3056845392
 30
0.0
 10
8.9235544628
 20
7.2933258312
 30
0.0
 10
8.9158588059
 20
7.2813640311
 30
0.0
 10
8.9075722373
 20
7.2698269351
 30
0.0
 10
8.8987138069
 20
7.2587410076
 30
0.0
 10
8.8893043386
 20
7.2481321313
 30
0.0
 10
8.8826771227
 20
7.2413927419
 30
0.0
 10
8.8792803078
 20
7.2381116503
 30
0.0
  0
SPLINE
  5
34E
100
AcDbEntity
  8
0
100
AcDbSpline
 62
7
  6
CONTINUOUS
 70
0
 71
3
 72
23
 73
19
 74
0
 42
0.0000001
 43
0.0000001
 44
0.0000000001
 40
0.0
 40
0.0
 40
0.0
 40
0.0
 40
0.0614487945
 40
0.1232975465
 40
0.1855192708
 40
0.2480712759
 40
0.3108995325
 40
0.3739401507
 40
0.4371217412
 40
0.5003679844
 40
0.5636003153
 40
0.626740653
 40
0.6897141164
 40
0.7524516751
 40
0.8148926582
 40
0.8769870283
 40
0.9386967483
 40
1.0
 40
1.0
 40
1.0
 40
1.0
 10
8.6594972252
 20
7.7712184804
 30
0.0
 10
8.6695267524
 20
7.7705229303
 30
0.0
 10
8.6895958563
 20
7.7681388924
 30
0.0
 10
8.7192950621
 20
7.7616639654
 30
0.0
 10
8.7484186004
 20
7.7523407168
 30
0.0
 10
8.7766831282
 20
7.740259587
 30
0.0
 10
8.8038184219
 20
7.7255373796
 30
0.0
 10
8.8295638255
 20
7.7083158433
 30
0.0
 10
8.8536724642
 20
7.68876069
 30
0.0
 10
8.8759130579
 20
7.6670598509
 30
0.0
 10
8.8960720562
 20
7.6434215853
 30
0.0
 10
8.9139559574
 20
7.6180728214
 30
0.0
 10
8.9293928102
 20
7.5912567346
 30
0.0
 10
8.9422339584
 20
7.5632304919
 30
0.0
 10
8.9523556614
 20
7.5342633347
 30
0.0
 10
8.9596597881
 20
7.5046322998
 30
0.0
 10
8.964075486
 20
7.4746257215
 30
0.0
 10
8.9650678784
 20
7.4544862347
 30
0.0
 10
8.9650678784
 20
7.4444564303
 30
0.0
  0
SPLINE
  5
34F
100
AcDbEntity
  8
0
100
AcDbSpline
 62
7
  6
CONTINUOUS
 70
0
 71
3
 72
19
 73
15
 74
0
 42
0.0000001
 43
0.0000001
 44
0.0000000001
 40
0.0
 40
0.0
 40
0.0
 40
0.0
 40
0.1273276112
 40
0.2538197126
 40
0.3795264544
 40
0.5045235342
 40
0.5668075908
 40
0.6289556139
 40
0.69098437
 40
0.7529118409
 40
0.8147570139
 40
0.8765397109
 40
0.9382804089
 40
1.0
 40
1.0
 40
1.0
 40
1.0
 10
12.2789665347
 20
7.2146367779
 30
0.0
 10
12.2789665347
 20
7.2048938365
 30
0.0
 10
12.2780362936
 20
7.1854584843
 30
0.0
 10
12.2738292019
 20
7.1566788807
 30
0.0
 10
12.2668538408
 20
7.1286237609
 30
0.0
 10
12.2587734606
 20
7.1060321128
 30
0.0
 10
12.2510023596
 20
7.0885924592
 30
0.0
 10
12.2445401595
 20
7.0758648868
 30
0.0
 10
12.2374531192
 20
7.0635061788
 30
0.0
 10
12.2297574622
 20
7.0515443787
 30
0.0
 10
12.2214708936
 20
7.0400072827
 30
0.0
 10
12.2126124632
 20
7.0289213552
 30
0.0
 10
12.2032029949
 20
7.0183124789
 30
0.0
 10
12.196575779
 20
7.0115730895
 30
0.0
 10
12.1931789641
 20
7.0082919979
 30
0.0
  0
SPLINE
  5
350
100
AcDbEntity
  8
0
100
AcDbSpline
 62
7
  6
CONTINUOUS
 70
0
 71
3
 72
23
 73
19
 74
0
 42
0.0000001
 43
0.0000001
 44
0.0000000001
 40
0.0
 40
0.0
 40
0.0
 40
0.0
 40
0.0614487945
 40
0.1232975465
 40
0.1855192708
 40
0.2480712759
 40
0.3108995325
 40
0.3739401507
 40
0.4371217412
 40
0.5003679844
 40
0.5636003153
 40
0.626740653
 40
0.6897141164
 40
0.7524516751
 40
0.8148926582
 40
0.8769870283
 40
0.9386967483
 40
1.0
 40
1.0
 40
1.0
 40
1.0
 10
11.9733958815
 20
7.541398828
 30
0.0
 10
11.9834254088
 20
7.5407032779
 30
0.0
 10
12.0034945127
 20
7.53831924
 30
0.0
 10
12.0331937184
 20
7.531844313
 30
0.0
 10
12.0623172567
 20
7.5225210644
 30
0.0
 10
12.0905817845
 20
7.5104399346
 30
0.0
 10
12.1177170782
 20
7.4957177272
 30
0.0
 10
12.1434624818
 20
7.478496191
 30
0.0
 10
12.1675711205
 20
7.4589410377
 30
0.0
 10
12.1898117142
 20
7.4372401985
 30
0.0
 10
12.2099707125
 20
7.4136019329
 30
0.0
 10
12.2278546137
 20
7.388253169
 30
0.0
 10
12.2432914665
 20
7.3614370822
 30
0.0
 10
12.2561326147
 20
7.3334108395
 30
0.0
 10
12.2662543177
 20
7.3044436823
 30
0.0
 10
12.2735584444
 20
7.2748126475
 30
0.0
 10
12.2779741423
 20
7.2448060691
 30
0.0
 10
12.2789665347
 20
7.2246665823
 30
0.0
 10
12.2789665347
 20
7.2146367779
 30
0.0
  0
SPLINE
  5
351
100
AcDbEntity
  8
0
100
AcDbSpline
 62
7
  6
CONTINUOUS
 70
0
 71
3
 72
19
 73
15
 74
0
 42
0.0000001
 43
0.0000001
 44
0.0000000001
 40
0.0
 40
0.0
 40
0.0
 40
0.0
 40
0.1273276112
 40
0.2538197126
 40
0.3795264544
 40
0.5045235342
 40
0.5668075908
 40
0.6289556139
 40
0.69098437
 40
0.7529118409
 40
0.8147570139
 40
0.8765397109
 40
0.9382804089
 40
1.0
 40
1.0
 40
1.0
 40
1.0
 10
8.9650678784
 20
5.9231231638
 30
0.0
 10
8.9650678784
 20
5.9133802224
 30
0.0
 10
8.9641376373
 20
5.8939448702
 30
0.0
 10
8.9599305455
 20
5.8651652665
 30
0.0
 10
8.9529551844
 20
5.8371101467
 30
0.0
 10
8.9448748043
 20
5.8145184987
 30
0.0
 10
8.9371037032
 20
5.7970788451
 30
0.0
 10
8.9306415032
 20
5.7843512726
 30
0.0
 10
8.9235544628
 20
5.7719925647
 30
0.0
 10
8.9158588059
 20
5.7600307646
 30
0.0
 10
8.9075722373
 20
5.7484936685
 30
0.0
 10
8.8987138069
 20
5.7374077411
 30
0.0
 10
8.8893043386
 20
5.7267988647
 30
0.0
 10
8.8826771227
 20
5.7200594754
 30
0.0
 10
8.8792803078
 20
5.7167783837
 30
0.0
  0
SPLINE
  5
352
100
AcDbEntity
  8
0
100
AcDbSpline
 62
7
  6
CONTINUOUS
 70
0
 71
3
 72
23
 73
19
 74
0
 42
0.0000001
 43
0.0000001
 44
0.0000000001
 40
0.0
 40
0.0
 40
0.0
 40
0.0
 40
0.0614487945
 40
0.1232975465
 40
0.1855192708
 40
0.2480712759
 40
0.3108995325
 40
0.3739401507
 40
0.4371217412
 40
0.5003679844
 40
0.5636003153
 40
0.626740653
 40
0.6897141164
 40
0.7524516751
 40
0.8148926582
 40
0.8769870283
 40
0.9386967483
 40
1.0
 40
1.0
 40
1.0
 40
1.0
 10
8.6594972252
 20
6.2498852138
 30
0.0
 10
8.6695267524
 20
6.2491896637
 30
0.0
 10
8.6895958563
 20
6.2468056259
 30
0.0
 10
8.7192950621
 20
6.2403306988
 30
0.0
 10
8.7484186004
 20
6.2310074503
 30
0.0
 10
8.7766831282
 20
6.2189263204
 30
0.0
 10
8.8038184219
 20
6.204204113
 30
0.0
 10
8.8295638255
 20
6.1869825768
 30
0.0
 10
8.8536724642
 20
6.1674274235
 30
0.0
 10
8.8759130579
 20
6.1457265843
 30
0.0
 10
8.8960720562
 20
6.1220883187
 30
0.0
 10
8.9139559574
 20
6.0967395549
 30
0.0
 10
8.9293928102
 20
6.069923468
 30
0.0
 10
8.9422339584
 20
6.0418972253
 30
0.0
 10
8.9523556614
 20
6.0129300681
 30
0.0
 10
8.9596597881
 20
5.9832990333
 30
0.0
 10
8.964075486
 20
5.9532924549
 30
0.0
 10
8.9650678784
 20
5.9331529682
 30
0.0
 10
8.9650678784
 20
5.9231231638
 30
0.0
  0
SPLINE
  5
353
100
AcDbEntity
  8
0
100
AcDbSpline
 62
7
  6
CONTINUOUS
 70
0
 71
3
 72
19
 73
15
 74
0
 42
0.0000001
 43
0.0000001
 44
0.0000000001
 40
0.0
 40
0.0
 40
0.0
 40
0.0
 40
0.1273276112
 40
0.2538197126
 40
0.3795264544
 40
0.5045235342
 40
0.5668075908
 40
0.6289556139
 40
0.69098437
 40
0.7529118409
 40
0.8147570139
 40
0.8765397109
 40
0.9382804089
 40
1.0
 40
1.0
 40
1.0
 40
1.0
 10
12.2789665347
 20
5.6933035114
 30
0.0
 10
12.2789665347
 20
5.68356057
 30
0.0
 10
12.2780362936
 20
5.6641252178
 30
0.0
 10
12.2738292019
 20
5.6353456141
 30
0.0
 10
12.2668538408
 20
5.6072904944
 30
0.0
 10
12.2587734606
 20
5.5846988463
 30
0.0
 10
12.2510023596
 20
5.5672591927
 30
0.0
 10
12.2445401595
 20
5.5545316203
 30
0.0
 10
12.2374531192
 20
5.5421729123
 30
0.0
 10
12.2297574622
 20
5.5302111122
 30
0.0
 10
12.2214708936
 20
5.5186740161
 30
0.0
 10
12.2126124632
 20
5.5075880887
 30
0.0
 10
12.2032029949
 20
5.4969792123
 30
0.0
 10
12.196575779
 20
5.490239823
 30
0.0
 10
12.1931789641
 20
5.4869587313
 30
0.0
  0
SPLINE
  5
354
100
AcDbEntity
  8
0
100
AcDbSpline
 62
7
  6
CONTINUOUS
 70
0
 71
3
 72
23
 73
19
 74
0
 42
0.0000001
 43
0.0000001
 44
0.0000000001
 40
0.0
 40
0.0
 40
0.0
 40
0.0
 40
0.0614487945
 40
0.1232975465
 40
0.1855192708
 40
0.2480712759
 40
0.3108995325
 40
0.3739401507
 40
0.4371217412
 40
0.5003679844
 40
0.5636003153
 40
0.626740653
 40
0.6897141164
 40
0.7524516751
 40
0.8148926582
 40
0.8769870283
 40
0.9386967483
 40
1.0
 40
1.0
 40
1.0
 40
1.0
 10
11.9733958815
 20
6.0200655614
 30
0.0
 10
11.9834254088
 20
6.0193700113
 30
0.0
 10
12.0034945127
 20
6.0169859735
 30
0.0
 10
12.0331937184
 20
6.0105110464
 30
0.0
 10
12.0623172567
 20
6.0011877979
 30
0.0
 10
12.0905817845
 20
5.989106668
 30
0.0
 10
12.1177170782
 20
5.9743844606
 30
0.0
 10
12.1434624818
 20
5.9571629244
 30
0.0
 10
12.1675711205
 20
5.9376077711
 30
0.0
 10
12.1898117142
 20
5.915906932
 30
0.0
 10
12.2099707125
 20
5.8922686663
 30
0.0
 10
12.2278546137
 20
5.8669199025
 30
0.0
 10
12.2432914665
 20
5.8401038156
 30
0.0
 10
12.2561326147
 20
5.812077573
 30
0.0
 10
12.2662543177
 20
5.7831104157
 30
0.0
 10
12.2735584444
 20
5.7534793809
 30
0.0
 10
12.2779741423
 20
5.7234728025
 30
0.0
 10
12.2789665347
 20
5.7033333158
 30
0.0
 10
12.2789665347
 20
5.6933035114
 30
0.0
  0
SPLINE
  5
355
100
AcDbEntity
  8
0
100
AcDbSpline
 62
7
  6
CONTINUOUS
 70
0
 71
3
 72
53
 73
49
 74
0
 42
0.0000001
 43
0.0000001
 44
0.0000000001
 40
0.0
 40
0.0
 40
0.0
 40
0.0
 40
0.0055575376
 40
0.0111779567
 40
0.0169218821
 40
0.0228457564
 40
0.0290005139
 40
0.0354309032
 40
0.0421753268
 40
0.0492661629
 40
0.0567301863
 40
0.0645892833
 40
0.0728609369
 40
0.0815589669
 40
0.0906938756
 40
0.1002734826
 40
0.1103031213
 40
0.1207861401
 40
0.1317240026
 40
0.14311666
 40
0.1549626112
 40
0.1672591551
 40
0.1800024545
 40
0.1931876791
 40
0.2068090973
 40
0.2208601246
 40
0.2353334527
 40
0.2502210197
 40
0.2655141749
 40
0.2812035909
 40
0.3137306612
 40
0.3477179984
 40
0.3830731233
 40
0.4196969504
 40
0.4574845402
 40
0.4963257781
 40
0.5361060008
 40
0.5767065869
 40
0.618005522
 40
0.6598779471
 40
0.7021966942
 40
0.7448328149
 40
0.7876560998
 40
0.8305356101
 40
0.8733401519
 40
0.9159389309
 40
0.9582016869
 40
1.0
 40
1.0
 40
1.0
 40
1.0
 10
11.6690984736
 20
11.3470174384
 30
0.0
 10
11.6690984858
 20
11.3444436893
 30
0.0
 10
11.6688103646
 20
11.3392625886
 30
0.0
 10
11.6675171469
 20
11.3315185799
 30
0.0
 10
11.6653649731
 20
11.3237918497
 30
0.0
 10
11.6623580668
 20
11.3160913525
 30
0.0
 10
11.6585013729
 20
11.308423326
 30
0.0
 10
11.6538000524
 20
11.3007936696
 30
0.0
 10
11.6482595109
 20
11.2932075758
 30
0.0
 10
11.6418851061
 20
11.2856702247
 30
0.0
 10
11.6346826297
 20
11.2781865981
 30
0.0
 10
11.6266580189
 20
11.2707620113
 30
0.0
 10
11.6178179005
 20
11.2634016393
 30
0.0
 10
11.6081692496
 20
11.2561110629
 30
0.0
 10
11.597719841
 20
11.2488956532
 30
0.0
 10
11.5864779223
 20
11.241761136
 30
0.0
 10
11.5744525392
 20
11.2347129802
 30
0.0
 10
11.5616532797
 20
11.2277569144
 30
0.0
 10
11.54809048
 20
11.2208984161
 30
0.0
 10
11.5337750566
 20
11.2141431121
 30
0.0
 10
11.5187186135
 20
11.2074964232
 30
0.0
 10
11.5029333517
 20
11.2009638081
 30
0.0
 10
11.4864321045
 20
11.1945505834
 30
0.0
 10
11.4692283025
 20
11.188261998
 30
0.0
 10
11.4513359631
 20
11.1821032268
 30
0.0
 10
11.4327696893
 20
11.1760792849
 30
0.0
 10
11.413544632
 20
11.1701951696
 30
0.0
 10
11.3936765127
 20
11.1644556582
 30
0.0
 10
11.3731815437
 20
11.1588654961
 30
0.0
 10
11.344698478
 20
11.1515289685
 30
0.0
 10
11.3076414147
 20
11.142787811
 30
0.0
 10
11.2614688645
 20
11.1330854642
 30
0.0
 10
11.2132241726
 20
11.1240803713
 30
0.0
 10
11.1630652757
 20
11.115802292
 30
0.0
 10
11.1111561122
 20
11.1082786374
 30
0.0
 10
11.0576665557
 20
11.1015342904
 30
0.0
 10
11.0027716951
 20
11.0955915517
 30
0.0
 10
10.9466512846
 20
11.0904700621
 30
0.0
 10
10.8894891312
 20
11.0861867424
 30
0.0
 10
10.8314724861
 20
11.0827557401
 30
0.0
 10
10.7727914222
 20
11.0801883847
 30
0.0
 10
10.7136382065
 20
11.0784931529
 30
0.0
 10
10.6542066617
 20
11.0776756394
 30
0.0
 10
10.5946915358
 20
11.0777385465
 30
0.0
 10
10.5352878333
 20
11.0786816584
 30
0.0
 10
10.4761902213
 20
11.0805018782
 30
0.0
 10
10.4175924499
 20
11.0831931664
 30
0.0
 10
10.3787341873
 20
11.0855777673
 30
0.0
 10
10.3594233685
 20
11.0869169772
 30
0.0
  0
SPLINE
  5
356
100
AcDbEntity
  8
0
100
AcDbSpline
 62
7
  6
CONTINUOUS
 70
0
 71
3
 72
21
 73
17
 74
0
 42
0.0000001
 43
0.0000001
 44
0.0000000001
 40
0.0
 40
0.0
 40
0.0
 40
0.0
 40
0.0616532248
 40
0.1233294793
 40
0.1850515406
 40
0.2468416599
 40
0.308721339
 40
0.3707111018
 40
0.4328302458
 40
0.4950966345
 40
0.5575265709
 40
0.6201345732
 40
0.6829331473
 40
0.7459331674
 40
0.8725262663
 40
1.0
 40
1.0
 40
1.0
 40
1.0
 10
8.4397141425
 20
7.6931840039
 30
0.0
 10
8.4432642305
 20
7.6966131469
 30
0.0
 10
8.4505517859
 20
7.7032830592
 30
0.0
 10
8.4620071748
 20
7.7126879629
 30
0.0
 10
8.473960032
 20
7.7214711884
 30
0.0
 10
8.4863798147
 20
7.7296102294
 30
0.0
 10
8.4992352956
 20
7.7370847556
 30
0.0
 10
8.5124940639
 20
7.7438759079
 30
0.0
 10
8.5261227431
 20
7.7499665499
 30
0.0
 10
8.540086947
 20
7.7553414388
 30
0.0
 10
8.554351527
 20
7.7599870791
 30
0.0
 10
8.568880458
 20
7.763891724
 30
0.0
 10
8.583637552
 20
7.7670456516
 30
0.0
 10
8.6035963974
 20
7.7702441679
 30
0.0
 10
8.6289409537
 20
7.772322164
 30
0.0
 10
8.6493164504
 20
7.7719245195
 30
0.0
 10
8.6594972252
 20
7.7712184804
 30
0.0
  0
SPLINE
  5
357
100
AcDbEntity
  8
0
100
AcDbSpline
 62
7
  6
CONTINUOUS
 70
0
 71
3
 72
21
 73
17
 74
0
 42
0.0000001
 43
0.0000001
 44
0.0000000001
 40
0.0
 40
0.0
 40
0.0
 40
0.0
 40
0.0616532248
 40
0.1233294793
 40
0.1850515406
 40
0.2468416599
 40
0.308721339
 40
0.3707111018
 40
0.4328302458
 40
0.4950966345
 40
0.5575265709
 40
0.6201345732
 40
0.6829331473
 40
0.7459331674
 40
0.8725262663
 40
1.0
 40
1.0
 40
1.0
 40
1.0
 10
11.7536127989
 20
7.4633643515
 30
0.0
 10
11.7571628869
 20
7.4667934945
 30
0.0
 10
11.7644504422
 20
7.4734634068
 30
0.0
 10
11.7759058312
 20
7.4828683105
 30
0.0
 10
11.7878586883
 20
7.491651536
 30
0.0
 10
11.8002784711
 20
7.4997905771
 30
0.0
 10
11.8131339519
 20
7.5072651032
 30
0.0
 10
11.8263927203
 20
7.5140562555
 30
0.0
 10
11.8400213994
 20
7.5201468975
 30
0.0
 10
11.8539856033
 20
7.5255217864
 30
0.0
 10
11.8682501834
 20
7.5301674267
 30
0.0
 10
11.8827791143
 20
7.5340720716
 30
0.0
 10
11.8975362083
 20
7.5372259992
 30
0.0
 10
11.9174950537
 20
7.5404245155
 30
0.0
 10
11.94283961
 20
7.5425025116
 30
0.0
 10
11.9632151067
 20
7.5421048671
 30
0.0
 10
11.9733958815
 20
7.541398828
 30
0.0
  0
SPLINE
  5
358
100
AcDbEntity
  8
0
100
AcDbSpline
 62
7
  6
CONTINUOUS
 70
0
 71
3
 72
21
 73
17
 74
0
 42
0.0000001
 43
0.0000001
 44
0.0000000001
 40
0.0
 40
0.0
 40
0.0
 40
0.0
 40
0.0616532248
 40
0.1233294793
 40
0.1850515406
 40
0.2468416599
 40
0.308721339
 40
0.3707111018
 40
0.4328302458
 40
0.4950966345
 40
0.5575265709
 40
0.6201345732
 40
0.6829331473
 40
0.7459331674
 40
0.8725262663
 40
1.0
 40
1.0
 40
1.0
 40
1.0
 10
8.4397141425
 20
6.1718507374
 30
0.0
 10
8.4432642305
 20
6.1752798804
 30
0.0
 10
8.4505517859
 20
6.1819497927
 30
0.0
 10
8.4620071748
 20
6.1913546963
 30
0.0
 10
8.473960032
 20
6.2001379218
 30
0.0
 10
8.4863798147
 20
6.2082769629
 30
0.0
 10
8.4992352956
 20
6.215751489
 30
0.0
 10
8.5124940639
 20
6.2225426413
 30
0.0
 10
8.5261227431
 20
6.2286332834
 30
0.0
 10
8.540086947
 20
6.2340081722
 30
0.0
 10
8.554351527
 20
6.2386538125
 30
0.0
 10
8.568880458
 20
6.2425584575
 30
0.0
 10
8.583637552
 20
6.2457123851
 30
0.0
 10
8.6035963974
 20
6.2489109013
 30
0.0
 10
8.6289409537
 20
6.2509888974
 30
0.0
 10
8.6493164504
 20
6.2505912529
 30
0.0
 10
8.6594972252
 20
6.2498852138
 30
0.0
  0
SPLINE
  5
359
100
AcDbEntity
  8
0
100
AcDbSpline
 62
7
  6
CONTINUOUS
 70
0
 71
3
 72
21
 73
17
 74
0
 42
0.0000001
 43
0.0000001
 44
0.0000000001
 40
0.0
 40
0.0
 40
0.0
 40
0.0
 40
0.0616532248
 40
0.1233294793
 40
0.1850515406
 40
0.2468416599
 40
0.308721339
 40
0.3707111018
 40
0.4328302458
 40
0.4950966345
 40
0.5575265709
 40
0.6201345732
 40
0.6829331473
 40
0.7459331674
 40
0.8725262663
 40
1.0
 40
1.0
 40
1.0
 40
1.0
 10
11.7536127989
 20
5.942031085
 30
0.0
 10
11.7571628869
 20
5.945460228
 30
0.0
 10
11.7644504422
 20
5.9521301403
 30
0.0
 10
11.7759058312
 20
5.9615350439
 30
0.0
 10
11.7878586883
 20
5.9703182694
 30
0.0
 10
11.8002784711
 20
5.9784573105
 30
0.0
 10
11.8131339519
 20
5.9859318367
 30
0.0
 10
11.8263927203
 20
5.9927229889
 30
0.0
 10
11.8400213994
 20
5.998813631
 30
0.0
 10
11.8539856033
 20
6.0041885198
 30
0.0
 10
11.8682501834
 20
6.0088341601
 30
0.0
 10
11.8827791143
 20
6.0127388051
 30
0.0
 10
11.8975362083
 20
6.0158927327
 30
0.0
 10
11.9174950537
 20
6.0190912489
 30
0.0
 10
11.94283961
 20
6.021169245
 30
0.0
 10
11.9632151067
 20
6.0207716005
 30
0.0
 10
11.9733958815
 20
6.0200655614
 30
0.0
  0
SPLINE
  5
35A
100
AcDbEntity
  8
0
100
AcDbSpline
 62
7
  6
CONTINUOUS
 70
0
 71
3
 72
39
 73
35
 74
0
 42
0.0000001
 43
0.0000001
 44
0.0000000001
 40
0.0
 40
0.0
 40
0.0
 40
0.0
 40
0.0299424701
 40
0.0599093174
 40
0.0899243244
 40
0.1200101043
 40
0.1501875649
 40
0.1804754189
 40
0.2108897652
 40
0.2414437446
 40
0.2721472716
 40
0.303006856
 40
0.3340255105
 40
0.3652027321
 40
0.396534568
 40
0.4280137546
 40
0.459629913
 40
0.4913698074
 40
0.5232176551
 40
0.555155472
 40
0.5871634555
 40
0.6192203971
 40
0.6513041118
 40
0.6833918814
 40
0.7154609078
 40
0.747488765
 40
0.7794538478
 40
0.811335806
 40
0.8431159644
 40
0.874777716
 40
0.9063068848
 40
0.9376920706
 40
0.9689246614
 40
1.0
 40
1.0
 40
1.0
 40
1.0
 10
9.7222190937
 20
7.1891812277
 30
0.0
 10
9.7362166288
 20
7.2027017743
 30
0.0
 10
9.7653123938
 20
7.2286516589
 30
0.0
 10
9.8119283243
 20
7.264003761
 30
0.0
 10
9.8612782548
 20
7.295606238
 30
0.0
 10
9.9130864357
 20
7.3232818287
 30
0.0
 10
9.9670680754
 20
7.346879243
 30
0.0
 10
10.0229252147
 20
7.3662688433
 30
0.0
 10
10.0803500513
 20
7.3813445613
 30
0.0
 10
10.1390262386
 20
7.3920239927
 30
0.0
 10
10.1986306971
 20
7.3982491952
 30
0.0
 10
10.2588354403
 20
7.399986737
 30
0.0
 10
10.3193093599
 20
7.3972277433
 30
0.0
 10
10.3797200303
 20
7.389988184
 30
0.0
 10
10.4397355446
 20
7.3783086023
 30
0.0
 10
10.4990262698
 20
7.3622537279
 30
0.0
 10
10.5572666792
 20
7.3419123564
 30
0.0
 10
10.6141371225
 20
7.3173967591
 30
0.0
 10
10.6693254751
 20
7.288841894
 30
0.0
 10
10.7225289079
 20
7.2564048791
 30
0.0
 10
10.7734555478
 20
7.2202641026
 30
0.0
 10
10.8218259332
 20
7.1806180714
 30
0.0
 10
10.8673746287
 20
7.1376844999
 30
0.0
 10
10.9098517208
 20
7.0916991465
 30
0.0
 10
10.9490240031
 20
7.0429143586
 30
0.0
 10
10.9846763411
 20
6.9915978255
 30
0.0
 10
11.0166129524
 20
6.9380311788
 30
0.0
 10
11.0446582562
 20
6.882508304
 30
0.0
 10
11.0686579131
 20
6.8253338686
 30
0.0
 10
11.0884798385
 20
6.7668215871
 30
0.0
 10
11.104014697
 20
6.7072929118
 30
0.0
 10
11.1151764562
 20
6.6470735717
 30
0.0
 10
11.1219034436
 20
6.5864985486
 30
0.0
 10
11.123410141
 20
6.5459858921
 30
0.0
 10
11.123410141
 20
6.5257884377
 30
0.0
  0
SPLINE
  5
35B
100
AcDbEntity
  8
0
100
AcDbSpline
 62
7
  6
CONTINUOUS
 70
0
 71
3
 72
37
 73
33
 74
0
 42
0.0000001
 43
0.0000001
 44
0.0000000001
 40
0.0
 40
0.0
 40
0.0
 40
0.0
 40
0.0350509045
 40
0.0697618059
 40
0.1041207872
 40
0.1381229687
 40
0.1717701088
 40
0.2050699568
 40
0.2380352298
 40
0.2706825555
 40
0.3030314527
 40
0.3351032797
 40
0.3669202964
 40
0.3985048728
 40
0.4298788742
 40
0.461063282
 40
0.492077688
 40
0.5229399044
 40
0.5536659255
 40
0.5842698073
 40
0.645143363
 40
0.7056380354
 40
0.765771648
 40
0.8255012554
 40
0.8551816319
 40
0.8846998874
 40
0.914014619
 40
0.9430664608
 40
0.9574684889
 40
0.9717703557
 40
0.9859540509
 40
1.0
 40
1.0
 40
1.0
 40
1.0
 10
11.1202689832
 20
6.5932908587
 30
0.0
 10
11.1085916372
 20
6.5948383415
 30
0.0
 10
11.0854320241
 20
6.5985792783
 30
0.0
 10
11.0512487191
 20
6.6061427915
 30
0.0
 10
11.0178982395
 20
6.6155751991
 30
0.0
 10
10.9854876914
 20
6.6268040997
 30
0.0
 10
10.9541071793
 20
6.6397454803
 30
0.0
 10
10.923831553
 20
6.6543065949
 30
0.0
 10
10.8947199843
 20
6.6703891007
 30
0.0
 10
10.8668169731
 20
6.6878918315
 30
0.0
 10
10.8401536107
 20
6.7067132247
 30
0.0
 10
10.8147491856
 20
6.7267532629
 30
0.0
 10
10.7906129247
 20
6.74791494
 30
0.0
 10
10.7677457099
 20
6.7701052757
 30
0.0
 10
10.7461416335
 20
6.7932359632
 30
0.0
 10
10.7257894975
 20
6.8172237134
 30
0.0
 10
10.7066741684
 20
6.8419904122
 30
0.0
 10
10.6887777392
 20
6.8674626751
 30
0.0
 10
10.6720799994
 20
6.8935724777
 30
0.0
 10
10.6514265221
 20
6.9290812621
 30
0.0
 10
10.6284709921
 20
6.9747704797
 30
0.0
 10
10.6053479154
 20
7.0312747135
 30
0.0
 10
10.586537218
 20
7.088947676
 30
0.0
 10
10.5743233057
 20
7.1377419352
 30
0.0
 10
10.5666101669
 20
7.1769647139
 30
0.0
 10
10.5618600604
 20
7.2063354608
 30
0.0
 10
10.5581340607
 20
7.2356401359
 30
0.0
 10
10.5558822772
 20
7.2599967867
 30
0.0
 10
10.5546092592
 20
7.2793656212
 30
0.0
 10
10.5539234985
 20
7.2937632342
 30
0.0
 10
10.5535091335
 20
7.3080514375
 30
0.0
 10
10.553416594
 20
7.317538757
 30
0.0
 10
10.553418464
 20
7.32225913
 30
0.0
  0
SPLINE
  5
35C
100
AcDbEntity
  8
0
100
AcDbSpline
 62
7
  6
CONTINUOUS
 70
0
 71
3
 72
27
 73
23
 74
0
 42
0.0000001
 43
0.0000001
 44
0.0000000001
 40
0.0
 40
0.0
 40
0.0
 40
0.0
 40
0.0162145271
 40
0.0334278552
 40
0.0516724884
 40
0.0709718278
 40
0.0913417134
 40
0.1127910308
 40
0.135323735
 40
0.1589383833
 40
0.2093854812
 40
0.2640544876
 40
0.3228166417
 40
0.385506056
 40
0.4519258028
 40
0.5218524785
 40
0.595039753
 40
0.6712211491
 40
0.7501134983
 40
0.8314161656
 40
0.9148213569
 40
1.0
 40
1.0
 40
1.0
 40
1.0
 10
13.9459977565
 20
9.6854793092
 30
0.0
 10
13.9453706257
 20
9.6862503959
 30
0.0
 10
13.9441305019
 20
9.6878834885
 30
0.0
 10
13.9423619799
 20
9.6905129079
 30
0.0
 10
13.9406323197
 20
9.6933909759
 30
0.0
 10
13.9389433036
 20
9.6965146533
 30
0.0
 10
13.9372966124
 20
9.6998808317
 30
0.0
 10
13.9356938403
 20
9.7034860345
 30
0.0
 10
13.9341366917
 20
9.7073265977
 30
0.0
 10
13.9320779286
 20
9.7128789774
 30
0.0
 10
13.92964599
 20
9.7203897553
 30
0.0
 10
13.9269940103
 20
9.730081705
 30
0.0
 10
13.924559064
 20
9.7406019045
 30
0.0
 10
13.9223515566
 20
9.7519064947
 30
0.0
 10
13.9203810262
 20
9.7639485073
 30
0.0
 10
13.9186559785
 20
9.776677573
 30
0.0
 10
13.917183868
 20
9.790040338
 30
0.0
 10
13.9159710359
 20
9.80398072
 30
0.0
 10
13.9150227546
 20
9.8184400404
 30
0.0
 10
13.9143430674
 20
9.8333576746
 30
0.0
 10
13.9139350126
 20
9.8486705693
 30
0.0
 10
13.9138460281
 20
9.8590046447
 30
0.0
 10
13.9138460281
 20
9.8642259109
 30
0.0
  0
SPLINE
  5
35D
100
AcDbEntity
  8
0
100
AcDbSpline
 62
7
  6
CONTINUOUS
 70
0
 71
3
 72
39
 73
35
 74
0
 42
0.0000001
 43
0.0000001
 44
0.0000000001
 40
0.0
 40
0.0
 40
0.0
 40
0.0
 40
0.0314025546
 40
0.0630095408
 40
0.0948070962
 40
0.1267734469
 40
0.1588809717
 40
0.1910970219
 40
0.2233851129
 40
0.2557062438
 40
0.2880202662
 40
0.3202872752
 40
0.3524690058
 40
0.3845301834
 40
0.4164397919
 40
0.4481722495
 40
0.4797084082
 40
0.5110363786
 40
0.5421521204
 40
0.5730597414
 40
0.6037715192
 40
0.6343075557
 40
0.6646951109
 40
0.6949675898
 40
0.7251632178
 40
0.7553234777
 40
0.7854913538
 40
0.8157095099
 40
0.8460184679
 40
0.8764549221
 40
0.9070502461
 40
0.9378292796
 40
0.9688091728
 40
1.0
 40
1.0
 40
1.0
 40
1.0
 10
11.9653595568
 20
5.3711697622
 30
0.0
 10
11.9543456288
 20
5.3719335807
 30
0.0
 10
11.9323067248
 20
5.3745516193
 30
0.0
 10
11.8996925136
 20
5.3816620447
 30
0.0
 10
11.8677104811
 20
5.3919004073
 30
0.0
 10
11.8366717633
 20
5.4051672879
 30
0.0
 10
11.8068731164
 20
5.4213344911
 30
0.0
 10
11.7786007995
 20
5.4402463588
 30
0.0
 10
11.7521258446
 20
5.4617208249
 30
0.0
 10
11.7277023593
 20
5.4855516608
 30
0.0
 10
11.7055647182
 20
5.5115100196
 30
0.0
 10
11.6859254783
 20
5.5393467712
 30
0.0
 10
11.6689735455
 20
5.5687949239
 30
0.0
 10
11.6548719517
 20
5.5995718766
 30
0.0
 10
11.6437568648
 20
5.6313823902
 30
0.0
 10
11.6357357737
 20
5.6639210866
 30
0.0
 10
11.6308867025
 20
5.6968754658
 30
0.0
 10
11.6292575048
 20
5.7299287856
 30
0.0
 10
11.6308649069
 20
5.7627630278
 30
0.0
 10
11.6356948939
 20
5.7950619186
 30
0.0
 10
11.6437020899
 20
5.8265139534
 30
0.0
 10
11.6548104947
 20
5.856815403
 30
0.0
 10
11.6689140109
 20
5.8856732359
 30
0.0
 10
11.6858770744
 20
5.9128082197
 30
0.0
 10
11.7055364214
 20
5.9379574536
 30
0.0
 10
11.7277020618
 20
5.9608774219
 30
0.0
 10
11.7521596115
 20
5.9813462109
 30
0.0
 10
11.7786722739
 20
5.999165863
 30
0.0
 10
11.8069831684
 20
6.0141645708
 30
0.0
 10
11.8368183473
 20
6.0261978756
 30
0.0
 10
11.8678888218
 20
6.0351506686
 30
0.0
 10
11.8998953699
 20
6.0409374885
 30
0.0
 10
11.9325251538
 20
6.0435041874
 30
0.0
 10
11.9544198887
 20
6.0430537346
 30
0.0
 10
11.9653595568
 20
6.042295066
 30
0.0
  0
SPLINE
  5
35E
100
AcDbEntity
  8
0
100
AcDbSpline
 62
7
  6
CONTINUOUS
 70
0
 71
3
 72
23
 73
19
 74
0
 42
0.0000001
 43
0.0000001
 44
0.0000000001
 40
0.0
 40
0.0
 40
0.0
 40
0.0
 40
0.0637775561
 40
0.1273446565
 40
0.1907020307
 40
0.2538561431
 40
0.3168131834
 40
0.3795821015
 40
0.4421733894
 40
0.5045993415
 40
0.5668738676
 40
0.6290123791
 40
0.6910316472
 40
0.7529496401
 40
0.8147853492
 40
0.8765585998
 40
0.9382898533
 40
1.0
 40
1.0
 40
1.0
 40
1.0
 10
9.4934102126
 20
6.6388293167
 30
0.0
 10
9.4934102126
 20
6.6518474621
 30
0.0
 10
9.4940332783
 20
6.677845208
 30
0.0
 10
9.496845687
 20
6.7166837505
 30
0.0
 10
9.5015282268
 20
6.7552143196
 30
0.0
 10
9.5080699115
 20
6.7933467048
 30
0.0
 10
9.5164559544
 20
6.8309935277
 30
0.0
 10
9.5266670106
 20
6.8680678333
 30
0.0
 10
9.5386796777
 20
6.9044841876
 30
0.0
 10
9.552466334
 20
6.9401585981
 30
0.0
 10
9.567995259
 20
6.9750087946
 30
0.0
 10
9.5852307067
 20
7.0089543958
 30
0.0
 10
9.6041329827
 20
7.0419170933
 30
0.0
 10
9.6246585641
 20
7.07382086
 30
0.0
 10
9.6467600868
 20
7.1045920232
 30
0.0
 10
9.6703868688
 20
7.1341598245
 30
0.0
 10
9.6954834826
 20
7.1624551396
 30
0.0
 10
9.7131592439
 20
7.1804301068
 30
0.0
 10
9.7222190937
 20
7.1891812277
 30
0.0
  0
SPLINE
  5
35F
100
AcDbEntity
  8
0
100
AcDbSpline
 62
7
  6
CONTINUOUS
 70
0
 71
3
 72
31
 73
27
 74
0
 42
0.0000001
 43
0.0000001
 44
0.0000000001
 40
0.0
 40
0.0
 40
0.0
 40
0.0
 40
0.0203027313
 40
0.0416692387
 40
0.0640829209
 40
0.0875229045
 40
0.1119645139
 40
0.1373797509
 40
0.1637376327
 40
0.1910044182
 40
0.2191438722
 40
0.2481175216
 40
0.2778848253
 40
0.3084032969
 40
0.339628712
 40
0.3715152653
 40
0.404015676
 40
0.4370813067
 40
0.5047066584
 40
0.5739816478
 40
0.6444816652
 40
0.7157721544
 40
0.7874122148
 40
0.8589581332
 40
0.9299666535
 40
1.0
 40
1.0
 40
1.0
 40
1.0
 10
9.8266240711
 20
11.1756228926
 30
0.0
 10
9.8331584361
 20
11.1785192383
 30
0.0
 10
9.8466758105
 20
11.1842260282
 30
0.0
 10
9.8677251747
 20
11.1923514288
 30
0.0
 10
9.890036091
 20
11.2002491737
 30
0.0
 10
9.9135715621
 20
11.2079059974
 30
0.0
 10
9.9382929236
 20
11.2153092149
 30
0.0
 10
9.9641593608
 20
11.2224464726
 30
0.0
 10
9.9911281589
 20
11.2293058447
 30
0.0
 10
10.0191547078
 20
11.235875889
 30
0.0
 10
10.0481926057
 20
11.2421456553
 30
0.0
 10
10.0781937602
 20
11.2481046727
 30
0.0
 10
10.1091084626
 20
11.2537429752
 30
0.0
 10
10.1408854559
 20
11.2590511724
 30
0.0
 10
10.1734720438
 20
11.2640204172
 30
0.0
 10
10.2068141707
 20
11.2686423948
 30
0.0
 10
10.240856574
 20
11.2729094362
 30
0.0
 10
10.2874527833
 20
11.2781550613
 30
0.0
 10
10.3470321976
 20
11.2837553341
 30
0.0
 10
10.4198701522
 20
11.2889148536
 30
0.0
 10
10.4940929834
 20
11.2925277333
 30
0.0
 10
10.5692083027
 20
11.2945697326
 30
0.0
 10
10.6447181024
 20
11.2950270698
 30
0.0
 10
10.7201216735
 20
11.293896698
 30
0.0
 10
10.7949187115
 20
11.2911862197
 30
0.0
 10
10.8444935142
 20
11.2883122117
 30
0.0
 10
10.8690894115
 20
11.2866064805
 30
0.0
  0
SPLINE
  5
360
100
AcDbEntity
  8
0
100
AcDbSpline
 62
7
  6
CONTINUOUS
 70
0
 71
3
 72
15
 73
11
 74
0
 42
0.0000001
 43
0.0000001
 44
0.0000000001
 40
0.0
 40
0.0
 40
0.0
 40
0.0
 40
0.1225570147
 40
0.2469392395
 40
0.3725890168
 40
0.4989412729
 40
0.6254268143
 40
0.7514759229
 40
0.8765201542
 40
1.0
 40
1.0
 40
1.0
 40
1.0
 10
10.3592773013
 20
11.0885065853
 30
0.0
 10
10.3800587078
 20
11.090136876
 30
0.0
 10
10.4219643389
 20
11.0930099909
 30
0.0
 10
10.4852619988
 20
11.0961539616
 30
0.0
 10
10.5492520687
 20
11.0981551892
 30
0.0
 10
10.6136254525
 20
11.0990038793
 30
0.0
 10
10.6780716053
 20
11.098695897
 30
0.0
 10
10.7422794456
 20
11.0972327333
 30
0.0
 10
10.8059390373
 20
11.0946215873
 30
0.0
 10
10.8481375176
 20
11.0921043273
 30
0.0
 10
10.8690894115
 20
11.0906513085
 30
0.0
  0
SPLINE
  5
361
100
AcDbEntity
  8
0
100
AcDbSpline
 62
7
  6
CONTINUOUS
 70
0
 71
3
 72
19
 73
15
 74
0
 42
0.0000001
 43
0.0000001
 44
0.0000000001
 40
0.0
 40
0.0
 40
0.0
 40
0.0
 40
0.1273276112
 40
0.2538197126
 40
0.3795264544
 40
0.5045235342
 40
0.5668075908
 40
0.6289556139
 40
0.69098437
 40
0.7529118409
 40
0.8147570139
 40
0.8765397109
 40
0.9382804089
 40
1.0
 40
1.0
 40
1.0
 40
1.0
 10
11.6678252282
 20
5.7356863049
 30
0.0
 10
11.6678252282
 20
5.7454292463
 30
0.0
 10
11.6687554694
 20
5.7648645986
 30
0.0
 10
11.6729625611
 20
5.7936442022
 30
0.0
 10
11.6799379222
 20
5.821699322
 30
0.0
 10
11.6880183024
 20
5.84429097
 30
0.0
 10
11.6957894034
 20
5.8617306236
 30
0.0
 10
11.7022516034
 20
5.8744581961
 30
0.0
 10
11.7093386438
 20
5.886816904
 30
0.0
 10
11.7170343007
 20
5.8987787041
 30
0.0
 10
11.7253208693
 20
5.9103158002
 30
0.0
 10
11.7341792997
 20
5.9214017276
 30
0.0
 10
11.743588768
 20
5.932010604
 30
0.0
 10
11.750215984
 20
5.9387499933
 30
0.0
 10
11.7536127989
 20
5.942031085
 30
0.0
  0
SPLINE
  5
362
100
AcDbEntity
  8
0
100
AcDbSpline
 62
7
  6
CONTINUOUS
 70
0
 71
3
 72
23
 73
19
 74
0
 42
0.0000001
 43
0.0000001
 44
0.0000000001
 40
0.0
 40
0.0
 40
0.0
 40
0.0
 40
0.0614487945
 40
0.1232975465
 40
0.1855192708
 40
0.2480712759
 40
0.3108995325
 40
0.3739401507
 40
0.4371217412
 40
0.5003679844
 40
0.5636003153
 40
0.626740653
 40
0.6897141164
 40
0.7524516751
 40
0.8148926582
 40
0.8769870283
 40
0.9386967483
 40
1.0
 40
1.0
 40
1.0
 40
1.0
 10
11.9733958815
 20
5.4089242549
 30
0.0
 10
11.9633663542
 20
5.409619805
 30
0.0
 10
11.9432972503
 20
5.4120038428
 30
0.0
 10
11.9135980446
 20
5.4184787699
 30
0.0
 10
11.8844745063
 20
5.4278020184
 30
0.0
 10
11.8562099785
 20
5.4398831483
 30
0.0
 10
11.8290746848
 20
5.4546053557
 30
0.0
 10
11.8033292812
 20
5.4718268919
 30
0.0
 10
11.7792206424
 20
5.4913820452
 30
0.0
 10
11.7569800488
 20
5.5130828844
 30
0.0
 10
11.7368210505
 20
5.53672115
 30
0.0
 10
11.7189371493
 20
5.5620699138
 30
0.0
 10
11.7035002965
 20
5.5888860007
 30
0.0
 10
11.6906591483
 20
5.6169122434
 30
0.0
 10
11.6805374452
 20
5.6458794006
 30
0.0
 10
11.6732333186
 20
5.6755104354
 30
0.0
 10
11.6688176207
 20
5.7055170138
 30
0.0
 10
11.6678252282
 20
5.7256565005
 30
0.0
 10
11.6678252282
 20
5.7356863049
 30
0.0
  0
SPLINE
  5
363
100
AcDbEntity
  8
0
100
AcDbSpline
 62
7
  6
CONTINUOUS
 70
0
 71
3
 72
53
 73
49
 74
0
 42
0.0000001
 43
0.0000001
 44
0.0000000001
 40
0.0
 40
0.0
 40
0.0
 40
0.0
 40
0.0055575376
 40
0.0111779567
 40
0.0169218821
 40
0.0228457564
 40
0.0290005139
 40
0.0354309032
 40
0.0421753268
 40
0.0492661629
 40
0.0567301863
 40
0.0645892833
 40
0.0728609369
 40
0.0815589669
 40
0.0906938756
 40
0.1002734826
 40
0.1103031213
 40
0.1207861401
 40
0.1317240026
 40
0.14311666
 40
0.1549626112
 40
0.1672591551
 40
0.1800024545
 40
0.1931876791
 40
0.2068090973
 40
0.2208601246
 40
0.2353334527
 40
0.2502210197
 40
0.2655141749
 40
0.2812035909
 40
0.3137306612
 40
0.3477179984
 40
0.3830731233
 40
0.4196969504
 40
0.4574845402
 40
0.4963257781
 40
0.5361060008
 40
0.5767065869
 40
0.618005522
 40
0.6598779471
 40
0.7021966942
 40
0.7448328149
 40
0.7876560998
 40
0.8305356101
 40
0.8733401519
 40
0.9159389309
 40
0.9582016869
 40
1.0
 40
1.0
 40
1.0
 40
1.0
 10
9.588298488
 20
11.3470161175
 30
0.0
 10
9.5882984758
 20
11.3495898666
 30
0.0
 10
9.588586597
 20
11.3547709672
 30
0.0
 10
9.5898798146
 20
11.3625149759
 30
0.0
 10
9.5920319884
 20
11.3702417062
 30
0.0
 10
9.5950388948
 20
11.3779422034
 30
0.0
 10
9.5988955887
 20
11.3856102299
 30
0.0
 10
9.6035969091
 20
11.3932398863
 30
0.0
 10
9.6091374506
 20
11.40082598
 30
0.0
 10
9.6155118554
 20
11.4083633312
 30
0.0
 10
9.6227143319
 20
11.4158469577
 30
0.0
 10
9.6307389426
 20
11.4232715446
 30
0.0
 10
9.639579061
 20
11.4306319165
 30
0.0
 10
9.649227712
 20
11.437922493
 30
0.0
 10
9.6596771205
 20
11.4451379027
 30
0.0
 10
9.6709190393
 20
11.4522724199
 30
0.0
 10
9.6829444224
 20
11.4593205756
 30
0.0
 10
9.6957436819
 20
11.4662766414
 30
0.0
 10
9.7093064815
 20
11.4731351398
 30
0.0
 10
9.7236219049
 20
11.4798904438
 30
0.0
 10
9.738678348
 20
11.4865371326
 30
0.0
 10
9.7544636098
 20
11.4930697478
 30
0.0
 10
9.7709648571
 20
11.4994829725
 30
0.0
 10
9.788168659
 20
11.5057715579
 30
0.0
 10
9.8060609984
 20
11.511930329
 30
0.0
 10
9.8246272723
 20
11.5179542709
 30
0.0
 10
9.8438523296
 20
11.5238383863
 30
0.0
 10
9.8637204489
 20
11.5295778977
 30
0.0
 10
9.8842154178
 20
11.5351680598
 30
0.0
 10
9.9126984835
 20
11.5425045874
 30
0.0
 10
9.9497555469
 20
11.5512457448
 30
0.0
 10
9.9959280971
 20
11.5609480917
 30
0.0
 10
10.044172789
 20
11.5699531845
 30
0.0
 10
10.0943316859
 20
11.5782312639
 30
0.0
 10
10.1462408493
 20
11.5857549185
 30
0.0
 10
10.1997304058
 20
11.5924992655
 30
0.0
 10
10.2546252664
 20
11.5984420042
 30
0.0
 10
10.3107456769
 20
11.6035634938
 30
0.0
 10
10.3679078303
 20
11.6078468135
 30
0.0
 10
10.4259244755
 20
11.6112778157
 30
0.0
 10
10.4846055394
 20
11.6138451711
 30
0.0
 10
10.543758755
 20
11.6155404029
 30
0.0
 10
10.6031902999
 20
11.6163579164
 30
0.0
 10
10.6627054258
 20
11.6162950094
 30
0.0
 10
10.7221091282
 20
11.6153518975
 30
0.0
 10
10.7812067403
 20
11.6135316776
 30
0.0
 10
10.8398045116
 20
11.6108403894
 30
0.0
 10
10.8786627742
 20
11.6084557885
 30
0.0
 10
10.8979735931
 20
11.6071165787
 30
0.0
  0
SPLINE
  5
364
100
AcDbEntity
  8
0
100
AcDbSpline
 62
7
  6
CONTINUOUS
 70
0
 71
3
 72
33
 73
29
 74
0
 42
0.0000001
 43
0.0000001
 44
0.0000000001
 40
0.0
 40
0.0
 40
0.0
 40
0.0
 40
0.0185097041
 40
0.0382028152
 40
0.0590725131
 40
0.0811049037
 40
0.104280049
 40
0.1285727793
 40
0.1539533671
 40
0.1803880474
 40
0.2078394401
 40
0.2362668829
 40
0.265626749
 40
0.29587273
 40
0.3269560702
 40
0.3588257746
 40
0.3914287887
 40
0.4247102042
 40
0.4586134387
 40
0.4930804009
 40
0.5280516431
 40
0.563466515
 40
0.6353782906
 40
0.7083138465
 40
0.7817605629
 40
0.8552011588
 40
0.9281182478
 40
1.0
 40
1.0
 40
1.0
 40
1.0
 10
9.6881926277
 20
11.2317759343
 30
0.0
 10
9.6948494993
 20
11.2354186656
 30
0.0
 10
9.7087732157
 20
11.2426032743
 30
0.0
 10
9.7307417407
 20
11.2528091465
 30
0.0
 10
9.7544017123
 20
11.2627597704
 30
0.0
 10
9.7797087041
 20
11.2724361892
 30
0.0
 10
9.8066158861
 20
11.2818202765
 30
0.0
 10
9.8350729726
 20
11.2908942742
 30
0.0
 10
9.8650267119
 20
11.2996409932
 30
0.0
 10
9.8964209194
 20
11.3080438306
 30
0.0
 10
9.9291966233
 20
11.3160868175
 30
0.0
 10
9.9632921698
 20
11.3237546792
 30
0.0
 10
9.9986433609
 20
11.3310328564
 30
0.0
 10
10.035183598
 20
11.3379075228
 30
0.0
 10
10.072844016
 20
11.3443656173
 30
0.0
 10
10.1115536084
 20
11.350394865
 30
0.0
 10
10.1512393601
 20
11.3559838282
 30
0.0
 10
10.1918263948
 20
11.3611219014
 30
0.0
 10
10.2332381343
 20
11.3657993364
 30
0.0
 10
10.2753964154
 20
11.3700072378
 30
0.0
 10
10.3182217363
 20
11.3737376682
 30
0.0
 10
10.3763980545
 20
11.3780872866
 30
0.0
 10
10.4501888025
 20
11.3822680943
 30
0.0
 10
10.5396394309
 20
11.3852691846
 30
0.0
 10
10.6297618495
 20
11.386256168
 30
0.0
 10
10.7198762315
 20
11.3852215579
 30
0.0
 10
10.8093026679
 20
11.3821732823
 30
0.0
 10
10.868575031
 20
11.378782073
 30
0.0
 10
10.8979735931
 20
11.3767432758
 30
0.0
  0
SPLINE
  5
365
100
AcDbEntity
  8
0
100
AcDbSpline
 62
7
  6
CONTINUOUS
 70
0
 71
3
 72
19
 73
15
 74
0
 42
0.0000001
 43
0.0000001
 44
0.0000000001
 40
0.0
 40
0.0
 40
0.0
 40
0.0
 40
0.1273276112
 40
0.2538197126
 40
0.3795264544
 40
0.5045235342
 40
0.5668075908
 40
0.6289556139
 40
0.69098437
 40
0.7529118409
 40
0.8147570139
 40
0.8765397109
 40
0.9382804089
 40
1.0
 40
1.0
 40
1.0
 40
1.0
 10
8.3539265719
 20
7.4868392239
 30
0.0
 10
8.3539265719
 20
7.4965821653
 30
0.0
 10
8.3548568131
 20
7.5160175175
 30
0.0
 10
8.3590639048
 20
7.5447971211
 30
0.0
 10
8.3660392659
 20
7.5728522409
 30
0.0
 10
8.374119646
 20
7.595443889
 30
0.0
 10
8.3818907471
 20
7.6128835426
 30
0.0
 10
8.3883529471
 20
7.625611115
 30
0.0
 10
8.3954399875
 20
7.637969823
 30
0.0
 10
8.4031356444
 20
7.6499316231
 30
0.0
 10
8.411422213
 20
7.6614687191
 30
0.0
 10
8.4202806434
 20
7.6725546466
 30
0.0
 10
8.4296901117
 20
7.6831635229
 30
0.0
 10
8.4363173276
 20
7.6899029123
 30
0.0
 10
8.4397141425
 20
7.6931840039
 30
0.0
  0
SPLINE
  5
366
100
AcDbEntity
  8
0
100
AcDbSpline
 62
7
  6
CONTINUOUS
 70
0
 71
3
 72
23
 73
19
 74
0
 42
0.0000001
 43
0.0000001
 44
0.0000000001
 40
0.0
 40
0.0
 40
0.0
 40
0.0
 40
0.0614487945
 40
0.1232975465
 40
0.1855192708
 40
0.2480712759
 40
0.3108995325
 40
0.3739401507
 40
0.4371217412
 40
0.5003679844
 40
0.5636003153
 40
0.626740653
 40
0.6897141164
 40
0.7524516751
 40
0.8148926582
 40
0.8769870283
 40
0.9386967483
 40
1.0
 40
1.0
 40
1.0
 40
1.0
 10
8.6594972252
 20
7.1600771738
 30
0.0
 10
8.6494676979
 20
7.1607727239
 30
0.0
 10
8.629398594
 20
7.1631567618
 30
0.0
 10
8.5996993883
 20
7.1696316888
 30
0.0
 10
8.5705758499
 20
7.1789549374
 30
0.0
 10
8.5423113222
 20
7.1910360672
 30
0.0
 10
8.5151760285
 20
7.2057582746
 30
0.0
 10
8.4894306248
 20
7.2229798109
 30
0.0
 10
8.4653219861
 20
7.2425349642
 30
0.0
 10
8.4430813924
 20
7.2642358033
 30
0.0
 10
8.4229223941
 20
7.2878740689
 30
0.0
 10
8.4050384929
 20
7.3132228328
 30
0.0
 10
8.3896016401
 20
7.3400389196
 30
0.0
 10
8.3767604919
 20
7.3680651623
 30
0.0
 10
8.3666387889
 20
7.3970323195
 30
0.0
 10
8.3593346622
 20
7.4266633544
 30
0.0
 10
8.3549189644
 20
7.4566699328
 30
0.0
 10
8.3539265719
 20
7.4768094195
 30
0.0
 10
8.3539265719
 20
7.4868392239
 30
0.0
  0
SPLINE
  5
367
100
AcDbEntity
  8
0
100
AcDbSpline
 62
7
  6
CONTINUOUS
 70
0
 71
3
 72
23
 73
19
 74
0
 42
0.0000001
 43
0.0000001
 44
0.0000000001
 40
0.0
 40
0.0
 40
0.0
 40
0.0
 40
0.0448598106
 40
0.0925125212
 40
0.1429017039
 40
0.1959556054
 40
0.2515892129
 40
0.309705884
 40
0.3701986648
 40
0.4329513853
 40
0.497839591
 40
0.5647313465
 40
0.6334879971
 40
0.7039647304
 40
0.7760116092
 40
0.8494728707
 40
0.9241908182
 40
1.0
 40
1.0
 40
1.0
 40
1.0
 10
11.4308772186
 20
11.1755766433
 30
0.0
 10
11.4230158921
 20
11.179062927
 30
0.0
 10
11.406649179
 20
11.1859071868
 30
0.0
 10
11.3810025491
 20
11.1955497335
 30
0.0
 10
11.3535691415
 20
11.2048591826
 30
0.0
 10
11.3244139949
 20
11.2138130716
 30
0.0
 10
11.2936056291
 20
11.2223900497
 30
0.0
 10
11.2612168859
 20
11.2305695446
 30
0.0
 10
11.2273244154
 20
11.2383319502
 30
0.0
 10
11.1920085538
 20
11.2456586492
 30
0.0
 10
11.1553530899
 20
11.2525320702
 30
0.0
 10
11.1174450551
 20
11.2589357376
 30
0.0
 10
11.0783745178
 20
11.2648542995
 30
0.0
 10
11.0382342966
 20
11.2702735927
 30
0.0
 10
10.9971199226
 20
11.2751805965
 30
0.0
 10
10.9551289113
 20
11.2795636361
 30
0.0
 10
10.9123614882
 20
11.2834121116
 30
0.0
 10
10.8835873147
 20
11.2856010475
 30
0.0
 10
10.8690894115
 20
11.2866064805
 30
0.0
  0
SPLINE
  5
368
100
AcDbEntity
  8
0
100
AcDbSpline
 62
7
  6
CONTINUOUS
 70
0
 71
3
 72
47
 73
43
 74
0
 42
0.0000001
 43
0.0000001
 44
0.0000000001
 40
0.0
 40
0.0
 40
0.0
 40
0.0
 40
0.0958288111
 40
0.142819056
 40
0.1890973226
 40
0.2345926742
 40
0.2792365299
 40
0.3229621663
 40
0.3657048032
 40
0.4074019306
 40
0.4479935008
 40
0.4874221382
 40
0.5256333545
 40
0.5625758117
 40
0.5982016755
 40
0.6324669342
 40
0.6653317617
 40
0.6967609905
 40
0.7267247393
 40
0.7551990982
 40
0.7821669619
 40
0.8076191396
 40
0.8315558348
 40
0.8429598954
 40
0.8539904236
 40
0.8646510588
 40
0.8749463966
 40
0.8848821863
 40
0.894465538
 40
0.9037048856
 40
0.9126103351
 40
0.9211937488
 40
0.9294688783
 40
0.9374517162
 40
0.9451605113
 40
0.959834734
 40
0.9668566107
 40
0.9737035074
 40
0.9804067699
 40
0.9870000208
 40
0.9935188065
 40
1.0
 40
1.0
 40
1.0
 40
1.0
 10
10.8979735931
 20
11.6071165787
 30
0.0
 10
10.9250718133
 20
11.6052373107
 30
0.0
 10
10.9654288863
 20
11.601986515
 30
0.0
 10
11.0187723522
 20
11.5967303837
 30
0.0
 10
11.0578675133
 20
11.5923968596
 30
0.0
 10
11.0962449751
 20
11.5876536579
 30
0.0
 10
11.1338405595
 20
11.5825087346
 30
0.0
 10
11.1705914241
 20
11.5769707558
 30
0.0
 10
11.2064361624
 20
11.5710490185
 30
0.0
 10
11.2413148695
 20
11.564753466
 30
0.0
 10
11.275169293
 20
11.5580946927
 30
0.0
 10
11.3079429134
 20
11.5510839034
 30
0.0
 10
11.3395810311
 20
11.5437328882
 30
0.0
 10
11.370030868
 20
11.5360539931
 30
0.0
 10
11.3992416817
 20
11.5280601395
 30
0.0
 10
11.4271648537
 20
11.5197647752
 30
0.0
 10
11.4537539631
 20
11.5111818359
 30
0.0
 10
11.4789648758
 20
11.5023257055
 30
0.0
 10
11.5027558804
 20
11.4932112146
 30
0.0
 10
11.525087711
 20
11.4838535946
 30
0.0
 10
11.5459238373
 20
11.4742683359
 30
0.0
 10
11.565229782
 20
11.4644713148
 30
0.0
 10
11.580250857
 20
11.4560125089
 30
0.0
 10
11.5914554629
 20
11.4491378184
 30
0.0
 10
11.5993204844
 20
11.4440223585
 30
0.0
 10
11.6067800164
 20
11.438866291
 30
0.0
 10
11.6138309862
 20
11.4336716219
 30
0.0
 10
11.6204704543
 20
11.4284404221
 30
0.0
 10
11.6266957425
 20
11.4231748661
 30
0.0
 10
11.6325042181
 20
11.4178769531
 30
0.0
 10
11.6378934834
 20
11.41254881
 30
0.0
 10
11.6428613377
 20
11.4071924906
 30
0.0
 10
11.647405486
 20
11.4018101244
 30
0.0
 10
11.6515243454
 20
11.3964032863
 30
0.0
 10
11.6563658554
 20
11.3892834022
 30
0.0
 10
11.660462015
 20
11.381995272
 30
0.0
 10
11.6637073436
 20
11.3745783087
 30
0.0
 10
11.6656723687
 20
11.3690827358
 30
0.0
 10
11.6672022146
 20
11.3635763938
 30
0.0
 10
11.668295782
 20
11.358061444
 30
0.0
 10
11.6689523501
 20
11.3525411488
 30
0.0
 10
11.6690984649
 20
11.3488545752
 30
0.0
 10
11.6690984736
 20
11.3470174384
 30
0.0
  0
SPLINE
  5
369
100
AcDbEntity
  8
0
100
AcDbSpline
 62
7
  6
CONTINUOUS
 70
0
 71
3
 72
28
 73
24
 74
0
 42
0.0000001
 43
0.0000001
 44
0.0000000001
 40
0.0
 40
0.0
 40
0.0
 40
0.0
 40
0.0203058169
 40
0.0414306334
 40
0.0633734123
 40
0.0861309593
 40
0.1096981528
 40
0.1340681047
 40
0.1592323719
 40
0.1851810229
 40
0.2119028484
 40
0.239385353
 40
0.2965755654
 40
0.3566322706
 40
0.4194195674
 40
0.4847884945
 40
0.5525784889
 40
0.6226186504
 40
0.6947288441
 40
0.7687207691
 40
0.8443987704
 40
0.9215610705
 40
1.0
 40
1.0
 40
1.0
 40
1.0
 10
11.569028708
 20
11.2318719881
 30
0.0
 10
11.5649262747
 20
11.2341145905
 30
0.0
 10
11.5564868689
 20
11.2385648172
 30
0.0
 10
11.5433984383
 20
11.2450188099
 30
0.0
 10
11.5296396714
 20
11.2513788963
 30
0.0
 10
11.5152207034
 20
11.2576403563
 30
0.0
 10
11.5001519735
 20
11.2637986375
 30
0.0
 10
11.4844444683
 20
11.269849238
 30
0.0
 10
11.4681096323
 20
11.2757877113
 30
0.0
 10
11.4511593971
 20
11.2816097107
 30
0.0
 10
11.4336061196
 20
11.2873109861
 30
0.0
 10
11.4090885994
 20
11.294846193
 30
0.0
 10
11.3770156962
 20
11.3039090825
 30
0.0
 10
11.3368307369
 20
11.3140998941
 30
0.0
 10
11.2945709666
 20
11.3237151119
 30
0.0
 10
11.2503600861
 20
11.3327263075
 30
0.0
 10
11.2043272223
 20
11.3411067904
 30
0.0
 10
11.1566070788
 20
11.3488317588
 30
0.0
 10
11.1073393438
 20
11.3558783594
 30
0.0
 10
11.0566683453
 20
11.3622257465
 30
0.0
 10
11.0047424828
 20
11.3678551674
 30
0.0
 10
10.951714126
 20
11.3727499636
 30
0.0
 10
10.9159907687
 20
11.3754937804
 30
0.0
 10
10.8979735931
 20
11.3767432758
 30
0.0
  0
SPLINE
  5
36A
100
AcDbEntity
  8
0
100
AcDbSpline
 62
7
  6
CONTINUOUS
 70
0
 71
3
 72
49
 73
45
 74
0
 42
0.0000001
 43
0.0000001
 44
0.0000000001
 40
0.0
 40
0.0
 40
0.0
 40
0.0
 40
0.0910012606
 40
0.1835860357
 40
0.2762599389
 40
0.3221632401
 40
0.3675289432
 40
0.4121747152
 40
0.4559219995
 40
0.4985970098
 40
0.540031747
 40
0.5800650594
 40
0.6185437616
 40
0.6553238538
 40
0.6902719011
 40
0.7232665869
 40
0.7542006
 40
0.7829830388
 40
0.7965452376
 40
0.8095447102
 40
0.8219763103
 40
0.8338369763
 40
0.845125521
 40
0.8558436019
 40
0.8659954804
 40
0.8755890829
 40
0.8846363187
 40
0.8931539282
 40
0.9011646621
 40
0.9086979879
 40
0.9157918956
 40
0.9224936523
 40
0.9288612837
 40
0.9349638191
 40
0.9408807776
 40
0.9467001635
 40
0.9525148004
 40
0.9584177573
 40
0.9644977189
 40
0.9708351725
 40
0.9775002698
 40
0.9845521373
 40
0.992039083
 40
1.0
 40
1.0
 40
1.0
 40
1.0
 10
14.0442907191
 20
9.9902258144
 30
0.0
 10
14.0442907191
 20
9.9794114959
 30
0.0
 10
14.0439030268
 20
9.9575930482
 30
0.0
 10
14.0422295581
 20
9.9248004376
 30
0.0
 10
14.0399349093
 20
9.8974203182
 30
0.0
 10
14.0375661365
 20
9.8756889703
 30
0.0
 10
14.0355436431
 20
9.8596635529
 30
0.0
 10
14.0332786305
 20
9.843929432
 30
0.0
 10
14.030780868
 20
9.8285543727
 30
0.0
 10
14.0280612077
 20
9.8136046396
 30
0.0
 10
14.0251314556
 20
9.7991446231
 30
0.0
 10
14.0220043442
 20
9.7852365756
 30
0.0
 10
14.018693473
 20
9.771940329
 30
0.0
 10
14.015213251
 20
9.7593130082
 30
0.0
 10
14.011578837
 20
9.7474087932
 30
0.0
 10
14.0078060717
 20
9.7362785284
 30
0.0
 10
14.0039113553
 20
9.7259698792
 30
0.0
 10
14.0005142181
 20
9.7179483883
 30
0.0
 10
13.9977379143
 20
9.7119855303
 30
0.0
 10
13.9956771114
 20
9.7078345556
 30
0.0
 10
13.9935984997
 20
9.7039199541
 30
0.0
 10
13.9915043419
 20
9.7002458503
 30
0.0
 10
13.9893967674
 20
9.6968161703
 30
0.0
 10
13.9872780966
 20
9.6936344749
 30
0.0
 10
13.9851504422
 20
9.6907041308
 30
0.0
 10
13.983016021
 20
9.6880281623
 30
0.0
 10
13.9808769492
 20
9.6856093336
 30
0.0
 10
13.9787352239
 20
9.6834501995
 30
0.0
 10
13.9765928918
 20
9.6815529551
 30
0.0
 10
13.97445169
 20
9.6799198137
 30
0.0
 10
13.9723134933
 20
9.6785526382
 30
0.0
 10
13.9701799468
 20
9.6774535184
 30
0.0
 10
13.9680529566
 20
9.6766244253
 30
0.0
 10
13.9659347081
 20
9.6760674333
 30
0.0
 10
13.9638279854
 20
9.6757845524
 30
0.0
 10
13.9617362688
 20
9.6757769817
 30
0.0
 10
13.9596634828
 20
9.6760453099
 30
0.0
 10
13.957613469
 20
9.6765885193
 30
0.0
 10
13.9555895858
 20
9.6774050307
 30
0.0
 10
13.9535943763
 20
9.6784924752
 30
0.0
 10
13.9516297864
 20
9.6798485072
 30
0.0
 10
13.9496974185
 20
9.6814709117
 30
0.0
 10
13.9477987193
 20
9.6833572837
 30
0.0
 10
13.9465946868
 20
9.6847453556
 30
0.0
 10
13.9459977565
 20
9.6854793092
 30
0.0
  0
SPLINE
  5
36B
100
AcDbEntity
  8
0
100
AcDbSpline
 62
7
  6
CONTINUOUS
 70
0
 71
3
 72
21
 73
17
 74
0
 42
0.0000001
 43
0.0000001
 44
0.0000000001
 40
0.0
 40
0.0
 40
0.0
 40
0.0
 40
0.0616532248
 40
0.1233294793
 40
0.1850515406
 40
0.2468416599
 40
0.308721339
 40
0.3707111018
 40
0.4328302458
 40
0.4950966345
 40
0.5575265709
 40
0.6201345732
 40
0.6829331473
 40
0.7459331674
 40
0.8725262663
 40
1.0
 40
1.0
 40
1.0
 40
1.0
 10
8.8792803078
 20
7.2381116503
 30
0.0
 10
8.8757302198
 20
7.2346825073
 30
0.0
 10
8.8684426644
 20
7.228012595
 30
0.0
 10
8.8569872755
 20
7.2186076913
 30
0.0
 10
8.8450344183
 20
7.2098244658
 30
0.0
 10
8.8326146356
 20
7.2016854248
 30
0.0
 10
8.8197591547
 20
7.1942108986
 30
0.0
 10
8.8065003864
 20
7.1874197464
 30
0.0
 10
8.7928717072
 20
7.1813291043
 30
0.0
 10
8.7789075033
 20
7.1759542154
 30
0.0
 10
8.7646429233
 20
7.1713085751
 30
0.0
 10
8.7501139923
 20
7.1674039302
 30
0.0
 10
8.7353568984
 20
7.1642500026
 30
0.0
 10
8.7153980529
 20
7.1610514863
 30
0.0
 10
8.6900534966
 20
7.1589734902
 30
0.0
 10
8.6696779999
 20
7.1593711347
 30
0.0
 10
8.6594972252
 20
7.1600771738
 30
0.0
  0
SPLINE
  5
36C
100
AcDbEntity
  8
0
100
AcDbSpline
 62
7
  6
CONTINUOUS
 70
0
 71
3
 72
21
 73
17
 74
0
 42
0.0000001
 43
0.0000001
 44
0.0000000001
 40
0.0
 40
0.0
 40
0.0
 40
0.0
 40
0.0616532248
 40
0.1233294793
 40
0.1850515406
 40
0.2468416599
 40
0.308721339
 40
0.3707111018
 40
0.4328302458
 40
0.4950966345
 40
0.5575265709
 40
0.6201345732
 40
0.6829331473
 40
0.7459331674
 40
0.8725262663
 40
1.0
 40
1.0
 40
1.0
 40
1.0
 10
12.1931789641
 20
7.0082919979
 30
0.0
 10
12.1896288761
 20
7.0048628549
 30
0.0
 10
12.1823413207
 20
6.9981929426
 30
0.0
 10
12.1708859318
 20
6.9887880389
 30
0.0
 10
12.1589330747
 20
6.9800048135
 30
0.0
 10
12.1465132919
 20
6.9718657724
 30
0.0
 10
12.133657811
 20
6.9643912462
 30
0.0
 10
12.1203990427
 20
6.957600094
 30
0.0
 10
12.1067703636
 20
6.9515094519
 30
0.0
 10
12.0928061597
 20
6.946134563
 30
0.0
 10
12.0785415796
 20
6.9414889227
 30
0.0
 10
12.0640126486
 20
6.9375842778
 30
0.0
 10
12.0492555547
 20
6.9344303502
 30
0.0
 10
12.0292967093
 20
6.9312318339
 30
0.0
 10
12.003952153
 20
6.9291538379
 30
0.0
 10
11.9835766562
 20
6.9295514823
 30
0.0
 10
11.9733958815
 20
6.9302575215
 30
0.0
  0
SPLINE
  5
36D
100
AcDbEntity
  8
0
100
AcDbSpline
 62
7
  6
CONTINUOUS
 70
0
 71
3
 72
21
 73
17
 74
0
 42
0.0000001
 43
0.0000001
 44
0.0000000001
 40
0.0
 40
0.0
 40
0.0
 40
0.0
 40
0.0616532248
 40
0.1233294793
 40
0.1850515406
 40
0.2468416599
 40
0.308721339
 40
0.3707111018
 40
0.4328302458
 40
0.4950966345
 40
0.5575265709
 40
0.6201345732
 40
0.6829331473
 40
0.7459331674
 40
0.8725262663
 40
1.0
 40
1.0
 40
1.0
 40
1.0
 10
8.8792803078
 20
5.7167783837
 30
0.0
 10
8.8757302198
 20
5.7133492407
 30
0.0
 10
8.8684426644
 20
5.7066793284
 30
0.0
 10
8.8569872755
 20
5.6972744248
 30
0.0
 10
8.8450344183
 20
5.6884911993
 30
0.0
 10
8.8326146356
 20
5.6803521582
 30
0.0
 10
8.8197591547
 20
5.6728776321
 30
0.0
 10
8.8065003864
 20
5.6660864798
 30
0.0
 10
8.7928717072
 20
5.6599958377
 30
0.0
 10
8.7789075033
 20
5.6546209489
 30
0.0
 10
8.7646429233
 20
5.6499753086
 30
0.0
 10
8.7501139923
 20
5.6460706636
 30
0.0
 10
8.7353568984
 20
5.642916736
 30
0.0
 10
8.7153980529
 20
5.6397182198
 30
0.0
 10
8.6900534966
 20
5.6376402237
 30
0.0
 10
8.6696779999
 20
5.6380378682
 30
0.0
 10
8.6594972252
 20
5.6387439073
 30
0.0
  0
SPLINE
  5
36E
100
AcDbEntity
  8
0
100
AcDbSpline
 62
7
  6
CONTINUOUS
 70
0
 71
3
 72
21
 73
17
 74
0
 42
0.0000001
 43
0.0000001
 44
0.0000000001
 40
0.0
 40
0.0
 40
0.0
 40
0.0
 40
0.0616532248
 40
0.1233294793
 40
0.1850515406
 40
0.2468416599
 40
0.308721339
 40
0.3707111018
 40
0.4328302458
 40
0.4950966345
 40
0.5575265709
 40
0.6201345732
 40
0.6829331473
 40
0.7459331674
 40
0.8725262663
 40
1.0
 40
1.0
 40
1.0
 40
1.0
 10
12.1931789641
 20
5.4869587313
 30
0.0
 10
12.1896288761
 20
5.4835295883
 30
0.0
 10
12.1823413207
 20
5.476859676
 30
0.0
 10
12.1708859318
 20
5.4674547724
 30
0.0
 10
12.1589330747
 20
5.4586715469
 30
0.0
 10
12.1465132919
 20
5.4505325058
 30
0.0
 10
12.133657811
 20
5.4430579797
 30
0.0
 10
12.1203990427
 20
5.4362668274
 30
0.0
 10
12.1067703636
 20
5.4301761854
 30
0.0
 10
12.0928061597
 20
5.4248012965
 30
0.0
 10
12.0785415796
 20
5.4201556562
 30
0.0
 10
12.0640126486
 20
5.4162510112
 30
0.0
 10
12.0492555547
 20
5.4130970837
 30
0.0
 10
12.0292967093
 20
5.4098985674
 30
0.0
 10
12.003952153
 20
5.4078205713
 30
0.0
 10
11.9835766562
 20
5.4082182158
 30
0.0
 10
11.9733958815
 20
5.4089242549
 30
0.0
  0
SPLINE
  5
36F
100
AcDbEntity
  8
0
100
AcDbSpline
 62
7
  6
CONTINUOUS
 70
0
 71
3
 72
39
 73
35
 74
0
 42
0.0000001
 43
0.0000001
 44
0.0000000001
 40
0.0
 40
0.0
 40
0.0
 40
0.0
 40
0.0299424701
 40
0.0599093174
 40
0.0899243244
 40
0.1200101043
 40
0.1501875649
 40
0.1804754189
 40
0.2108897652
 40
0.2414437446
 40
0.2721472716
 40
0.303006856
 40
0.3340255105
 40
0.3652027321
 40
0.396534568
 40
0.4280137546
 40
0.459629913
 40
0.4913698074
 40
0.5232176551
 40
0.555155472
 40
0.5871634555
 40
0.6192203971
 40
0.6513041118
 40
0.6833918814
 40
0.7154609078
 40
0.747488765
 40
0.7794538478
 40
0.811335806
 40
0.8431159644
 40
0.874777716
 40
0.9063068848
 40
0.9376920706
 40
0.9689246614
 40
1.0
 40
1.0
 40
1.0
 40
1.0
 10
10.8946012599
 20
5.9754365267
 30
0.0
 10
10.8806037248
 20
5.96191598
 30
0.0
 10
10.8515079597
 20
5.9359660954
 30
0.0
 10
10.8048920292
 20
5.9006139934
 30
0.0
 10
10.7555420988
 20
5.8690115163
 30
0.0
 10
10.7037339179
 20
5.8413359257
 30
0.0
 10
10.6497522782
 20
5.8177385114
 30
0.0
 10
10.5938951389
 20
5.798348911
 30
0.0
 10
10.5364703022
 20
5.783273193
 30
0.0
 10
10.4777941149
 20
5.7725937617
 30
0.0
 10
10.4181896565
 20
5.7663685591
 30
0.0
 10
10.3579849133
 20
5.7646310174
 30
0.0
 10
10.2975109937
 20
5.767390011
 30
0.0
 10
10.2371003232
 20
5.7746295704
 30
0.0
 10
10.177084809
 20
5.786309152
 30
0.0
 10
10.1177940837
 20
5.8023640264
 30
0.0
 10
10.0595536744
 20
5.822705398
 30
0.0
 10
10.0026832311
 20
5.8472209952
 30
0.0
 10
9.9474948785
 20
5.8757758603
 30
0.0
 10
9.8942914456
 20
5.9082128752
 30
0.0
 10
9.8433648058
 20
5.9443536518
 30
0.0
 10
9.7949944203
 20
5.983999683
 30
0.0
 10
9.7494457249
 20
6.0269332544
 30
0.0
 10
9.7069686327
 20
6.0729186078
 30
0.0
 10
9.6677963505
 20
6.1217033958
 30
0.0
 10
9.6321440125
 20
6.1730199289
 30
0.0
 10
9.6002074011
 20
6.2265865755
 30
0.0
 10
9.5721620973
 20
6.2821094504
 30
0.0
 10
9.5481624405
 20
6.3392838857
 30
0.0
 10
9.528340515
 20
6.3977961673
 30
0.0
 10
9.5128056565
 20
6.4573248425
 30
0.0
 10
9.5016438973
 20
6.5175441826
 30
0.0
 10
9.4949169099
 20
6.5781192058
 30
0.0
 10
9.4934102126
 20
6.6186318623
 30
0.0
 10
9.4934102126
 20
6.6388293167
 30
0.0
  0
SPLINE
  5
370
100
AcDbEntity
  8
0
100
AcDbSpline
 62
7
  6
CONTINUOUS
 70
0
 71
3
 72
40
 73
36
 74
0
 42
0.0000001
 43
0.0000001
 44
0.0000000001
 40
0.0
 40
0.0
 40
0.0
 40
0.0
 40
0.0187318505
 40
0.035847
 40
0.0515865369
 40
0.0590449545
 40
0.0662882682
 40
0.0733700127
 40
0.0803478474
 40
0.0872822145
 40
0.0942348369
 40
0.1012668804
 40
0.1084373204
 40
0.1233969514
 40
0.1395129398
 40
0.157083798
 40
0.1763285791
 40
0.1974000121
 40
0.2203994683
 40
0.2453887686
 40
0.2723989682
 40
0.3014377752
 40
0.3324938145
 40
0.3655402146
 40
0.4005376867
 40
0.437435734
 40
0.4761745981
 40
0.516686527
 40
0.5588961126
 40
0.6027217207
 40
0.6480758832
 40
0.69486552
 40
0.792354295
 40
0.8943598665
 40
1.0
 40
1.0
 40
1.0
 40
1.0
 10
13.9796843451
 20
10.1712232932
 30
0.0
 10
13.9806975742
 20
10.1721662916
 30
0.0
 10
13.9827223733
 20
10.1738831959
 30
0.0
 10
13.9859042572
 20
10.1759993709
 30
0.0
 10
13.9886015764
 20
10.1772935655
 30
0.0
 10
13.9907371551
 20
10.1780077282
 30
0.0
 10
13.9923044649
 20
10.1783840048
 30
0.0
 10
13.9938646388
 20
10.1786098202
 30
0.0
 10
13.995416546
 20
10.1786849131
 30
0.0
 10
13.9969589119
 20
10.1786090072
 30
0.0
 10
13.9984903997
 20
10.1783821403
 30
0.0
 10
14.0000098271
 20
10.1780046124
 30
0.0
 10
14.0020460969
 20
10.177291335
 30
0.0
 10
14.004575278
 20
10.1759973532
 30
0.0
 10
14.0074900323
 20
10.1738733824
 30
0.0
 10
14.010326785
 20
10.1711667065
 30
0.0
 10
14.0130821134
 20
10.1678856022
 30
0.0
 10
14.0157530773
 20
10.1640377331
 30
0.0
 10
14.0183352472
 20
10.1596313356
 30
0.0
 10
14.020823657
 20
10.1546758691
 30
0.0
 10
14.0232130851
 20
10.1491822588
 30
0.0
 10
14.0254981026
 20
10.1431628301
 30
0.0
 10
14.0276734158
 20
10.1366313543
 30
0.0
 10
14.0297339242
 20
10.1296029553
 30
0.0
 10
14.0316746478
 20
10.1220940231
 30
0.0
 10
14.0334909673
 20
10.1141221906
 30
0.0
 10
14.0351785181
 20
10.1057062416
 30
0.0
 10
14.0367331841
 20
10.0968660565
 30
0.0
 10
14.0381512678
 20
10.0876225657
 30
0.0
 10
14.0394293188
 20
10.0779976838
 30
0.0
 10
14.040564268
 20
10.0680142296
 30
0.0
 10
14.0419012962
 20
10.0540650393
 30
0.0
 10
14.0431809899
 20
10.0359080275
 30
0.0
 10
14.0440935766
 20
10.0133763717
 30
0.0
 10
14.0442907191
 20
9.9980318819
 30
0.0
 10
14.0442907191
 20
9.9902258144
 30
0.0
  0
SPLINE
  5
371
100
AcDbEntity
  8
0
100
AcDbSpline
 62
7
  6
CONTINUOUS
 70
0
 71
3
 72
22
 73
18
 74
0
 42
0.0000001
 43
0.0000001
 44
0.0000000001
 40
0.0
 40
0.0
 40
0.0
 40
0.0
 40
0.0368725257
 40
0.0775690861
 40
0.1221257623
 40
0.1705207322
 40
0.2226876448
 40
0.2785250403
 40
0.3379021685
 40
0.4006632256
 40
0.4666315781
 40
0.5356122945
 40
0.6073936601
 40
0.6817504559
 40
0.7584440714
 40
0.837223363
 40
1.0
 40
1.0
 40
1.0
 40
1.0
 10
13.947245522
 20
10.1089220652
 30
0.0
 10
13.9480948184
 20
10.1075265623
 30
0.0
 10
13.9497439481
 20
10.1045062218
 30
0.0
 10
13.9519870593
 20
10.0995785101
 30
0.0
 10
13.9541128852
 20
10.0940487126
 30
0.0
 10
13.9561138005
 20
10.0879361507
 30
0.0
 10
13.9579827727
 20
10.0812617927
 30
0.0
 10
13.9597129645
 20
10.0740491063
 30
0.0
 10
13.9612980364
 20
10.066323613
 30
0.0
 10
13.9627321973
 20
10.0581128434
 30
0.0
 10
13.9640101683
 20
10.0494461437
 30
0.0
 10
13.9651272172
 20
10.0403545686
 30
0.0
 10
13.9660792663
 20
10.0308707339
 30
0.0
 10
13.9668627986
 20
10.0210287388
 30
0.0
 10
13.9674749487
 20
10.0108639893
 30
0.0
 10
13.9680659178
 20
9.9967758859
 30
0.0
 10
13.9682340723
 20
9.9860724986
 30
0.0
 10
13.9682340723
 20
9.9788607306
 30
0.0
  0
SPLINE
  5
372
100
AcDbEntity
  8
0
100
AcDbSpline
 62
7
  6
CONTINUOUS
 70
0
 71
3
 72
39
 73
35
 74
0
 42
0.0000001
 43
0.0000001
 44
0.0000000001
 40
0.0
 40
0.0
 40
0.0
 40
0.0
 40
0.0314025546
 40
0.0630095408
 40
0.0948070962
 40
0.1267734469
 40
0.1588809717
 40
0.1910970219
 40
0.2233851129
 40
0.2557062438
 40
0.2880202662
 40
0.3202872752
 40
0.3524690058
 40
0.3845301834
 40
0.4164397919
 40
0.4481722495
 40
0.4797084082
 40
0.5110363786
 40
0.5421521204
 40
0.5730597414
 40
0.6037715192
 40
0.6343075557
 40
0.6646951109
 40
0.6949675898
 40
0.7251632178
 40
0.7553234777
 40
0.7854913538
 40
0.8157095099
 40
0.8460184679
 40
0.8764549221
 40
0.9070502461
 40
0.9378292796
 40
0.9688091728
 40
1.0
 40
1.0
 40
1.0
 40
1.0
 10
8.6514609004
 20
7.793447985
 30
0.0
 10
8.6624748284
 20
7.7926841665
 30
0.0
 10
8.6845137324
 20
7.7900661279
 30
0.0
 10
8.7171279436
 20
7.7829557024
 30
0.0
 10
8.7491099761
 20
7.7727173399
 30
0.0
 10
8.7801486939
 20
7.7594504593
 30
0.0
 10
8.8099473409
 20
7.743283256
 30
0.0
 10
8.8382196577
 20
7.7243713883
 30
0.0
 10
8.8646946126
 20
7.7028969222
 30
0.0
 10
8.8891180979
 20
7.6790660864
 30
0.0
 10
8.911255739
 20
7.6531077275
 30
0.0
 10
8.9308949789
 20
7.625270976
 30
0.0
 10
8.9478469117
 20
7.5958228233
 30
0.0
 10
8.9619485055
 20
7.5650458706
 30
0.0
 10
8.9730635924
 20
7.533235357
 30
0.0
 10
8.9810846835
 20
7.5006966606
 30
0.0
 10
8.9859337547
 20
7.4677422813
 30
0.0
 10
8.9875629524
 20
7.4346889616
 30
0.0
 10
8.9859555503
 20
7.4018547194
 30
0.0
 10
8.9811255634
 20
7.3695558285
 30
0.0
 10
8.9731183673
 20
7.3381037938
 30
0.0
 10
8.9620099626
 20
7.3078023442
 30
0.0
 10
8.9479064463
 20
7.2789445113
 30
0.0
 10
8.9309433828
 20
7.2518095275
 30
0.0
 10
8.9112840358
 20
7.2266602935
 30
0.0
 10
8.8891183954
 20
7.2037403253
 30
0.0
 10
8.8646608457
 20
7.1832715362
 30
0.0
 10
8.8381481833
 20
7.1654518842
 30
0.0
 10
8.8098372888
 20
7.1504531764
 30
0.0
 10
8.7800021099
 20
7.1384198716
 30
0.0
 10
8.7489316354
 20
7.1294670786
 30
0.0
 10
8.7169250873
 20
7.1236802587
 30
0.0
 10
8.6842953034
 20
7.1211135597
 30
0.0
 10
8.6624005685
 20
7.1215640126
 30
0.0
 10
8.6514609004
 20
7.1223226811
 30
0.0
  0
SPLINE
  5
373
100
AcDbEntity
  8
0
100
AcDbSpline
 62
7
  6
CONTINUOUS
 70
0
 71
3
 72
29
 73
25
 74
0
 42
0.0000001
 43
0.0000001
 44
0.0000000001
 40
0.0
 40
0.0
 40
0.0
 40
0.0
 40
0.0161572819
 40
0.0336334011
 40
0.0524437009
 40
0.072590381
 40
0.0940640143
 40
0.1168467073
 40
0.1409123957
 40
0.1662289147
 40
0.192758164
 40
0.2204571326
 40
0.249278447
 40
0.2791705002
 40
0.3419413931
 40
0.4082946382
 40
0.4777091807
 40
0.5496290007
 40
0.6234704396
 40
0.698629187
 40
0.7744868063
 40
0.8504180918
 40
0.9257953445
 40
1.0
 40
1.0
 40
1.0
 40
1.0
 10
13.9224776197
 20
9.7516717507
 30
0.0
 10
13.9232766014
 20
9.7526498758
 30
0.0
 10
13.9248659307
 20
9.7547469051
 30
0.0
 10
13.9271443639
 20
9.7581570616
 30
0.0
 10
13.9294052829
 20
9.7619468194
 30
0.0
 10
13.9316436187
 20
9.7661080508
 30
0.0
 10
13.9338547416
 20
9.7706319377
 30
0.0
 10
13.9360337011
 20
9.7755087863
 30
0.0
 10
13.9381758156
 20
9.7807280355
 30
0.0
 10
13.9402762973
 20
9.7862783597
 30
0.0
 10
13.9423305411
 20
9.7921476527
 30
0.0
 10
13.9443339973
 20
9.7983230841
 30
0.0
 10
13.9462822396
 20
9.8047911435
 30
0.0
 10
13.9488423178
 20
9.8139361796
 30
0.0
 10
13.9518601081
 20
9.8259969755
 30
0.0
 10
13.955141227
 20
9.841167763
 30
0.0
 10
13.9581091891
 20
9.8571307417
 30
0.0
 10
13.9607376044
 20
9.8737457534
 30
0.0
 10
13.9630030717
 20
9.8908670294
 30
0.0
 10
13.964885485
 20
9.9083441715
 30
0.0
 10
13.9663681925
 20
9.9260236359
 30
0.0
 10
13.9674380921
 20
9.9437500147
 30
0.0
 10
13.9680858453
 20
9.9613674564
 30
0.0
 10
13.9682340723
 20
9.9730603454
 30
0.0
 10
13.9682340723
 20
9.9788607306
 30
0.0
  0
SPLINE
  5
374
100
AcDbEntity
  8
0
100
AcDbSpline
 62
7
  6
CONTINUOUS
 70
0
 71
3
 72
19
 73
15
 74
0
 42
0.0000001
 43
0.0000001
 44
0.0000000001
 40
0.0
 40
0.0
 40
0.0
 40
0.0
 40
0.1273276112
 40
0.2538197126
 40
0.3795264544
 40
0.5045235342
 40
0.5668075908
 40
0.6289556139
 40
0.69098437
 40
0.7529118409
 40
0.8147570139
 40
0.8765397109
 40
0.9382804089
 40
1.0
 40
1.0
 40
1.0
 40
1.0
 10
11.6678252282
 20
7.2570195715
 30
0.0
 10
11.6678252282
 20
7.2667625129
 30
0.0
 10
11.6687554694
 20
7.2861978651
 30
0.0
 10
11.6729625611
 20
7.3149774688
 30
0.0
 10
11.6799379222
 20
7.3430325885
 30
0.0
 10
11.6880183024
 20
7.3656242366
 30
0.0
 10
11.6957894034
 20
7.3830638902
 30
0.0
 10
11.7022516034
 20
7.3957914626
 30
0.0
 10
11.7093386438
 20
7.4081501706
 30
0.0
 10
11.7170343007
 20
7.4201119707
 30
0.0
 10
11.7253208693
 20
7.4316490667
 30
0.0
 10
11.7341792997
 20
7.4427349942
 30
0.0
 10
11.743588768
 20
7.4533438706
 30
0.0
 10
11.750215984
 20
7.4600832599
 30
0.0
 10
11.7536127989
 20
7.4633643515
 30
0.0
  0
SPLINE
  5
375
100
AcDbEntity
  8
0
100
AcDbSpline
 62
7
  6
CONTINUOUS
 70
0
 71
3
 72
23
 73
19
 74
0
 42
0.0000001
 43
0.0000001
 44
0.0000000001
 40
0.0
 40
0.0
 40
0.0
 40
0.0
 40
0.0614487945
 40
0.1232975465
 40
0.1855192708
 40
0.2480712759
 40
0.3108995325
 40
0.3739401507
 40
0.4371217412
 40
0.5003679844
 40
0.5636003153
 40
0.626740653
 40
0.6897141164
 40
0.7524516751
 40
0.8148926582
 40
0.8769870283
 40
0.9386967483
 40
1.0
 40
1.0
 40
1.0
 40
1.0
 10
11.9733958815
 20
6.9302575215
 30
0.0
 10
11.9633663542
 20
6.9309530715
 30
0.0
 10
11.9432972503
 20
6.9333371094
 30
0.0
 10
11.9135980446
 20
6.9398120364
 30
0.0
 10
11.8844745063
 20
6.949135285
 30
0.0
 10
11.8562099785
 20
6.9612164148
 30
0.0
 10
11.8290746848
 20
6.9759386223
 30
0.0
 10
11.8033292812
 20
6.9931601585
 30
0.0
 10
11.7792206424
 20
7.0127153118
 30
0.0
 10
11.7569800488
 20
7.0344161509
 30
0.0
 10
11.7368210505
 20
7.0580544166
 30
0.0
 10
11.7189371493
 20
7.0834031804
 30
0.0
 10
11.7035002965
 20
7.1102192672
 30
0.0
 10
11.6906591483
 20
7.1382455099
 30
0.0
 10
11.6805374452
 20
7.1672126671
 30
0.0
 10
11.6732333186
 20
7.196843702
 30
0.0
 10
11.6688176207
 20
7.2268502804
 30
0.0
 10
11.6678252282
 20
7.2469897671
 30
0.0
 10
11.6678252282
 20
7.2570195715
 30
0.0
  0
SPLINE
  5
376
100
AcDbEntity
  8
0
100
AcDbSpline
 62
7
  6
CONTINUOUS
 70
0
 71
3
 72
39
 73
35
 74
0
 42
0.0000001
 43
0.0000001
 44
0.0000000001
 40
0.0
 40
0.0
 40
0.0
 40
0.0
 40
0.0314025546
 40
0.0630095408
 40
0.0948070962
 40
0.1267734469
 40
0.1588809717
 40
0.1910970219
 40
0.2233851129
 40
0.2557062438
 40
0.2880202662
 40
0.3202872752
 40
0.3524690058
 40
0.3845301834
 40
0.4164397919
 40
0.4481722495
 40
0.4797084082
 40
0.5110363786
 40
0.5421521204
 40
0.5730597414
 40
0.6037715192
 40
0.6343075557
 40
0.6646951109
 40
0.6949675898
 40
0.7251632178
 40
0.7553234777
 40
0.7854913538
 40
0.8157095099
 40
0.8460184679
 40
0.8764549221
 40
0.9070502461
 40
0.9378292796
 40
0.9688091728
 40
1.0
 40
1.0
 40
1.0
 40
1.0
 10
8.6514609004
 20
7.1223226811
 30
0.0
 10
8.6404469725
 20
7.1230864996
 30
0.0
 10
8.6184080684
 20
7.1257045382
 30
0.0
 10
8.5857938572
 20
7.1328149637
 30
0.0
 10
8.5538118247
 20
7.1430533262
 30
0.0
 10
8.522773107
 20
7.1563202068
 30
0.0
 10
8.49297446
 20
7.1724874101
 30
0.0
 10
8.4647021432
 20
7.1913992778
 30
0.0
 10
8.4382271883
 20
7.2128737439
 30
0.0
 10
8.413803703
 20
7.2367045797
 30
0.0
 10
8.3916660619
 20
7.2626629386
 30
0.0
 10
8.372026822
 20
7.2904996901
 30
0.0
 10
8.3550748891
 20
7.3199478428
 30
0.0
 10
8.3409732954
 20
7.3507247955
 30
0.0
 10
8.3298582085
 20
7.3825353091
 30
0.0
 10
8.3218371174
 20
7.4150740055
 30
0.0
 10
8.3169880462
 20
7.4480283847
 30
0.0
 10
8.3153588485
 20
7.4810817045
 30
0.0
 10
8.3169662506
 20
7.5139159467
 30
0.0
 10
8.3217962375
 20
7.5462148376
 30
0.0
 10
8.3298034336
 20
7.5776668723
 30
0.0
 10
8.3409118383
 20
7.6079683219
 30
0.0
 10
8.3550153546
 20
7.6368261548
 30
0.0
 10
8.3719784181
 20
7.6639611386
 30
0.0
 10
8.391637765
 20
7.6891103725
 30
0.0
 10
8.4138034055
 20
7.7120303408
 30
0.0
 10
8.4382609552
 20
7.7324991299
 30
0.0
 10
8.4647736176
 20
7.7503187819
 30
0.0
 10
8.4930845121
 20
7.7653174897
 30
0.0
 10
8.5229196909
 20
7.7773507945
 30
0.0
 10
8.5539901655
 20
7.7863035875
 30
0.0
 10
8.5859967136
 20
7.7920904074
 30
0.0
 10
8.6186264975
 20
7.7946571064
 30
0.0
 10
8.6405212323
 20
7.7942066535
 30
0.0
 10
8.6514609004
 20
7.793447985
 30
0.0
  0
SPLINE
  5
377
100
AcDbEntity
  8
0
100
AcDbSpline
 62
7
  6
CONTINUOUS
 70
0
 71
3
 72
39
 73
35
 74
0
 42
0.0000001
 43
0.0000001
 44
0.0000000001
 40
0.0
 40
0.0
 40
0.0
 40
0.0
 40
0.0314025546
 40
0.0630095408
 40
0.0948070962
 40
0.1267734469
 40
0.1588809717
 40
0.1910970219
 40
0.2233851129
 40
0.2557062438
 40
0.2880202662
 40
0.3202872752
 40
0.3524690058
 40
0.3845301834
 40
0.4164397919
 40
0.4481722495
 40
0.4797084082
 40
0.5110363786
 40
0.5421521204
 40
0.5730597414
 40
0.6037715192
 40
0.6343075557
 40
0.6646951109
 40
0.6949675898
 40
0.7251632178
 40
0.7553234777
 40
0.7854913538
 40
0.8157095099
 40
0.8460184679
 40
0.8764549221
 40
0.9070502461
 40
0.9378292796
 40
0.9688091728
 40
1.0
 40
1.0
 40
1.0
 40
1.0
 10
11.9653595568
 20
7.5636283326
 30
0.0
 10
11.9763734848
 20
7.5628645141
 30
0.0
 10
11.9984123888
 20
7.5602464755
 30
0.0
 10
12.0310266
 20
7.55313605
 30
0.0
 10
12.0630086325
 20
7.5428976875
 30
0.0
 10
12.0940473502
 20
7.5296308069
 30
0.0
 10
12.1238459972
 20
7.5134636036
 30
0.0
 10
12.152118314
 20
7.4945517359
 30
0.0
 10
12.1785932689
 20
7.4730772698
 30
0.0
 10
12.2030167542
 20
7.449246434
 30
0.0
 10
12.2251543953
 20
7.4232880751
 30
0.0
 10
12.2447936352
 20
7.3954513236
 30
0.0
 10
12.2617455681
 20
7.3660031709
 30
0.0
 10
12.2758471618
 20
7.3352262182
 30
0.0
 10
12.2869622487
 20
7.3034157046
 30
0.0
 10
12.2949833398
 20
7.2708770082
 30
0.0
 10
12.2998324111
 20
7.237922629
 30
0.0
 10
12.3014616087
 20
7.2048693092
 30
0.0
 10
12.2998542067
 20
7.172035067
 30
0.0
 10
12.2950242197
 20
7.1397361761
 30
0.0
 10
12.2870170236
 20
7.1082841414
 30
0.0
 10
12.2759086189
 20
7.0779826918
 30
0.0
 10
12.2618051026
 20
7.0491248589
 30
0.0
 10
12.2448420391
 20
7.0219898751
 30
0.0
 10
12.2251826922
 20
6.9968406412
 30
0.0
 10
12.2030170517
 20
6.9739206729
 30
0.0
 10
12.178559502
 20
6.9534518838
 30
0.0
 10
12.1520468396
 20
6.9356322318
 30
0.0
 10
12.1237359451
 20
6.920633524
 30
0.0
 10
12.0939007663
 20
6.9086002192
 30
0.0
 10
12.0628302917
 20
6.8996474262
 30
0.0
 10
12.0308237436
 20
6.8938606063
 30
0.0
 10
11.9981939597
 20
6.8912939073
 30
0.0
 10
11.9762992249
 20
6.8917443602
 30
0.0
 10
11.9653595568
 20
6.8925030287
 30
0.0
  0
SPLINE
  5
378
100
AcDbEntity
  8
0
100
AcDbSpline
 62
7
  6
CONTINUOUS
 70
0
 71
3
 72
39
 73
35
 74
0
 42
0.0000001
 43
0.0000001
 44
0.0000000001
 40
0.0
 40
0.0
 40
0.0
 40
0.0
 40
0.0314025546
 40
0.0630095408
 40
0.0948070962
 40
0.1267734469
 40
0.1588809717
 40
0.1910970219
 40
0.2233851129
 40
0.2557062438
 40
0.2880202662
 40
0.3202872752
 40
0.3524690058
 40
0.3845301834
 40
0.4164397919
 40
0.4481722495
 40
0.4797084082
 40
0.5110363786
 40
0.5421521204
 40
0.5730597414
 40
0.6037715192
 40
0.6343075557
 40
0.6646951109
 40
0.6949675898
 40
0.7251632178
 40
0.7553234777
 40
0.7854913538
 40
0.8157095099
 40
0.8460184679
 40
0.8764549221
 40
0.9070502461
 40
0.9378292796
 40
0.9688091728
 40
1.0
 40
1.0
 40
1.0
 40
1.0
 10
11.9653595568
 20
6.8925030287
 30
0.0
 10
11.9543456288
 20
6.8932668472
 30
0.0
 10
11.9323067248
 20
6.8958848858
 30
0.0
 10
11.8996925136
 20
6.9029953113
 30
0.0
 10
11.8677104811
 20
6.9132336738
 30
0.0
 10
11.8366717633
 20
6.9265005544
 30
0.0
 10
11.8068731164
 20
6.9426677577
 30
0.0
 10
11.7786007995
 20
6.9615796254
 30
0.0
 10
11.7521258446
 20
6.9830540915
 30
0.0
 10
11.7277023593
 20
7.0068849274
 30
0.0
 10
11.7055647182
 20
7.0328432862
 30
0.0
 10
11.6859254783
 20
7.0606800377
 30
0.0
 10
11.6689735455
 20
7.0901281904
 30
0.0
 10
11.6548719517
 20
7.1209051431
 30
0.0
 10
11.6437568648
 20
7.1527156567
 30
0.0
 10
11.6357357737
 20
7.1852543531
 30
0.0
 10
11.6308867025
 20
7.2182087324
 30
0.0
 10
11.6292575048
 20
7.2512620521
 30
0.0
 10
11.6308649069
 20
7.2840962943
 30
0.0
 10
11.6356948939
 20
7.3163951852
 30
0.0
 10
11.6437020899
 20
7.3478472199
 30
0.0
 10
11.6548104947
 20
7.3781486695
 30
0.0
 10
11.6689140109
 20
7.4070065025
 30
0.0
 10
11.6858770744
 20
7.4341414862
 30
0.0
 10
11.7055364214
 20
7.4592907202
 30
0.0
 10
11.7277020618
 20
7.4822106884
 30
0.0
 10
11.7521596115
 20
7.5026794775
 30
0.0
 10
11.7786722739
 20
7.5204991295
 30
0.0
 10
11.8069831684
 20
7.5354978373
 30
0.0
 10
11.8368183473
 20
7.5475311422
 30
0.0
 10
11.8678888218
 20
7.5564839351
 30
0.0
 10
11.8998953699
 20
7.562270755
 30
0.0
 10
11.9325251538
 20
7.564837454
 30
0.0
 10
11.9544198887
 20
7.5643870012
 30
0.0
 10
11.9653595568
 20
7.5636283326
 30
0.0
  0
SPLINE
  5
379
100
AcDbEntity
  8
0
100
AcDbSpline
 62
7
  6
CONTINUOUS
 70
0
 71
3
 72
39
 73
35
 74
0
 42
0.0000001
 43
0.0000001
 44
0.0000000001
 40
0.0
 40
0.0
 40
0.0
 40
0.0
 40
0.0314025546
 40
0.0630095408
 40
0.0948070962
 40
0.1267734469
 40
0.1588809717
 40
0.1910970219
 40
0.2233851129
 40
0.2557062438
 40
0.2880202662
 40
0.3202872752
 40
0.3524690058
 40
0.3845301834
 40
0.4164397919
 40
0.4481722495
 40
0.4797084082
 40
0.5110363786
 40
0.5421521204
 40
0.5730597414
 40
0.6037715192
 40
0.6343075557
 40
0.6646951109
 40
0.6949675898
 40
0.7251632178
 40
0.7553234777
 40
0.7854913538
 40
0.8157095099
 40
0.8460184679
 40
0.8764549221
 40
0.9070502461
 40
0.9378292796
 40
0.9688091728
 40
1.0
 40
1.0
 40
1.0
 40
1.0
 10
8.6514609004
 20
6.2721147184
 30
0.0
 10
8.6624748284
 20
6.2713508999
 30
0.0
 10
8.6845137324
 20
6.2687328613
 30
0.0
 10
8.7171279436
 20
6.2616224359
 30
0.0
 10
8.7491099761
 20
6.2513840733
 30
0.0
 10
8.7801486939
 20
6.2381171928
 30
0.0
 10
8.8099473409
 20
6.2219499895
 30
0.0
 10
8.8382196577
 20
6.2030381218
 30
0.0
 10
8.8646946126
 20
6.1815636557
 30
0.0
 10
8.8891180979
 20
6.1577328198
 30
0.0
 10
8.911255739
 20
6.131774461
 30
0.0
 10
8.9308949789
 20
6.1039377094
 30
0.0
 10
8.9478469117
 20
6.0744895567
 30
0.0
 10
8.9619485055
 20
6.043712604
 30
0.0
 10
8.9730635924
 20
6.0119020904
 30
0.0
 10
8.9810846835
 20
5.979363394
 30
0.0
 10
8.9859337547
 20
5.9464090148
 30
0.0
 10
8.9875629524
 20
5.913355695
 30
0.0
 10
8.9859555503
 20
5.8805214528
 30
0.0
 10
8.9811255634
 20
5.848222562
 30
0.0
 10
8.9731183673
 20
5.8167705272
 30
0.0
 10
8.9620099626
 20
5.7864690776
 30
0.0
 10
8.9479064463
 20
5.7576112447
 30
0.0
 10
8.9309433828
 20
5.7304762609
 30
0.0
 10
8.9112840358
 20
5.705327027
 30
0.0
 10
8.8891183954
 20
5.6824070588
 30
0.0
 10
8.8646608457
 20
5.6619382697
 30
0.0
 10
8.8381481833
 20
5.6441186176
 30
0.0
 10
8.8098372888
 20
5.6291199098
 30
0.0
 10
8.7800021099
 20
5.617086605
 30
0.0
 10
8.7489316354
 20
5.608133812
 30
0.0
 10
8.7169250873
 20
5.6023469921
 30
0.0
 10
8.6842953034
 20
5.5997802932
 30
0.0
 10
8.6624005685
 20
5.600230746
 30
0.0
 10
8.6514609004
 20
5.6009894146
 30
0.0
  0
SPLINE
  5
37A
100
AcDbEntity
  8
0
100
AcDbSpline
 62
7
  6
CONTINUOUS
 70
0
 71
3
 72
39
 73
35
 74
0
 42
0.0000001
 43
0.0000001
 44
0.0000000001
 40
0.0
 40
0.0
 40
0.0
 40
0.0
 40
0.0314025546
 40
0.0630095408
 40
0.0948070962
 40
0.1267734469
 40
0.1588809717
 40
0.1910970219
 40
0.2233851129
 40
0.2557062438
 40
0.2880202662
 40
0.3202872752
 40
0.3524690058
 40
0.3845301834
 40
0.4164397919
 40
0.4481722495
 40
0.4797084082
 40
0.5110363786
 40
0.5421521204
 40
0.5730597414
 40
0.6037715192
 40
0.6343075557
 40
0.6646951109
 40
0.6949675898
 40
0.7251632178
 40
0.7553234777
 40
0.7854913538
 40
0.8157095099
 40
0.8460184679
 40
0.8764549221
 40
0.9070502461
 40
0.9378292796
 40
0.9688091728
 40
1.0
 40
1.0
 40
1.0
 40
1.0
 10
8.6514609004
 20
5.6009894146
 30
0.0
 10
8.6404469725
 20
5.6017532331
 30
0.0
 10
8.6184080684
 20
5.6043712717
 30
0.0
 10
8.5857938572
 20
5.6114816971
 30
0.0
 10
8.5538118247
 20
5.6217200597
 30
0.0
 10
8.522773107
 20
5.6349869402
 30
0.0
 10
8.49297446
 20
5.6511541435
 30
0.0
 10
8.4647021432
 20
5.6700660112
 30
0.0
 10
8.4382271883
 20
5.6915404773
 30
0.0
 10
8.413803703
 20
5.7153713132
 30
0.0
 10
8.3916660619
 20
5.741329672
 30
0.0
 10
8.372026822
 20
5.7691664236
 30
0.0
 10
8.3550748891
 20
5.7986145763
 30
0.0
 10
8.3409732954
 20
5.829391529
 30
0.0
 10
8.3298582085
 20
5.8612020426
 30
0.0
 10
8.3218371174
 20
5.893740739
 30
0.0
 10
8.3169880462
 20
5.9266951182
 30
0.0
 10
8.3153588485
 20
5.959748438
 30
0.0
 10
8.3169662506
 20
5.9925826802
 30
0.0
 10
8.3217962375
 20
6.024881571
 30
0.0
 10
8.3298034336
 20
6.0563336058
 30
0.0
 10
8.3409118383
 20
6.0866350554
 30
0.0
 10
8.3550153546
 20
6.1154928883
 30
0.0
 10
8.3719784181
 20
6.1426278721
 30
0.0
 10
8.391637765
 20
6.167777106
 30
0.0
 10
8.4138034055
 20
6.1906970742
 30
0.0
 10
8.4382609552
 20
6.2111658633
 30
0.0
 10
8.4647736176
 20
6.2289855154
 30
0.0
 10
8.4930845121
 20
6.2439842232
 30
0.0
 10
8.5229196909
 20
6.256017528
 30
0.0
 10
8.5539901655
 20
6.264970321
 30
0.0
 10
8.5859967136
 20
6.2707571409
 30
0.0
 10
8.6186264975
 20
6.2733238398
 30
0.0
 10
8.6405212323
 20
6.272873387
 30
0.0
 10
8.6514609004
 20
6.2721147184
 30
0.0
  0
SPLINE
  5
37B
100
AcDbEntity
  8
0
100
AcDbSpline
 62
7
  6
CONTINUOUS
 70
0
 71
3
 72
19
 73
15
 74
0
 42
0.0000001
 43
0.0000001
 44
0.0000000001
 40
0.0
 40
0.0
 40
0.0
 40
0.0
 40
0.1273276112
 40
0.2538197126
 40
0.3795264544
 40
0.5045235342
 40
0.5668075908
 40
0.6289556139
 40
0.69098437
 40
0.7529118409
 40
0.8147570139
 40
0.8765397109
 40
0.9382804089
 40
1.0
 40
1.0
 40
1.0
 40
1.0
 10
8.3539265719
 20
5.9655059573
 30
0.0
 10
8.3539265719
 20
5.9752488987
 30
0.0
 10
8.3548568131
 20
5.9946842509
 30
0.0
 10
8.3590639048
 20
6.0234638546
 30
0.0
 10
8.3660392659
 20
6.0515189744
 30
0.0
 10
8.374119646
 20
6.0741106224
 30
0.0
 10
8.3818907471
 20
6.091550276
 30
0.0
 10
8.3883529471
 20
6.1042778485
 30
0.0
 10
8.3954399875
 20
6.1166365564
 30
0.0
 10
8.4031356444
 20
6.1285983565
 30
0.0
 10
8.411422213
 20
6.1401354526
 30
0.0
 10
8.4202806434
 20
6.15122138
 30
0.0
 10
8.4296901117
 20
6.1618302564
 30
0.0
 10
8.4363173276
 20
6.1685696457
 30
0.0
 10
8.4397141425
 20
6.1718507374
 30
0.0
  0
SPLINE
  5
37C
100
AcDbEntity
  8
0
100
AcDbSpline
 62
7
  6
CONTINUOUS
 70
0
 71
3
 72
23
 73
19
 74
0
 42
0.0000001
 43
0.0000001
 44
0.0000000001
 40
0.0
 40
0.0
 40
0.0
 40
0.0
 40
0.0614487945
 40
0.1232975465
 40
0.1855192708
 40
0.2480712759
 40
0.3108995325
 40
0.3739401507
 40
0.4371217412
 40
0.5003679844
 40
0.5636003153
 40
0.626740653
 40
0.6897141164
 40
0.7524516751
 40
0.8148926582
 40
0.8769870283
 40
0.9386967483
 40
1.0
 40
1.0
 40
1.0
 40
1.0
 10
8.6594972252
 20
5.6387439073
 30
0.0
 10
8.6494676979
 20
5.6394394574
 30
0.0
 10
8.629398594
 20
5.6418234952
 30
0.0
 10
8.5996993883
 20
5.6482984223
 30
0.0
 10
8.5705758499
 20
5.6576216708
 30
0.0
 10
8.5423113222
 20
5.6697028007
 30
0.0
 10
8.5151760285
 20
5.6844250081
 30
0.0
 10
8.4894306248
 20
5.7016465443
 30
0.0
 10
8.4653219861
 20
5.7212016976
 30
0.0
 10
8.4430813924
 20
5.7429025368
 30
0.0
 10
8.4229223941
 20
5.7665408024
 30
0.0
 10
8.4050384929
 20
5.7918895662
 30
0.0
 10
8.3896016401
 20
5.8187056531
 30
0.0
 10
8.3767604919
 20
5.8467318958
 30
0.0
 10
8.3666387889
 20
5.875699053
 30
0.0
 10
8.3593346622
 20
5.9053300878
 30
0.0
 10
8.3549189644
 20
5.9353366662
 30
0.0
 10
8.3539265719
 20
5.9554761529
 30
0.0
 10
8.3539265719
 20
5.9655059573
 30
0.0
  0
SPLINE
  5
37D
100
AcDbEntity
  8
0
100
AcDbSpline
 62
7
  6
CONTINUOUS
 70
0
 71
3
 72
39
 73
35
 74
0
 42
0.0000001
 43
0.0000001
 44
0.0000000001
 40
0.0
 40
0.0
 40
0.0
 40
0.0
 40
0.0314025546
 40
0.0630095408
 40
0.0948070962
 40
0.1267734469
 40
0.1588809717
 40
0.1910970219
 40
0.2233851129
 40
0.2557062438
 40
0.2880202662
 40
0.3202872752
 40
0.3524690058
 40
0.3845301834
 40
0.4164397919
 40
0.4481722495
 40
0.4797084082
 40
0.5110363786
 40
0.5421521204
 40
0.5730597414
 40
0.6037715192
 40
0.6343075557
 40
0.6646951109
 40
0.6949675898
 40
0.7251632178
 40
0.7553234777
 40
0.7854913538
 40
0.8157095099
 40
0.8460184679
 40
0.8764549221
 40
0.9070502461
 40
0.9378292796
 40
0.9688091728
 40
1.0
 40
1.0
 40
1.0
 40
1.0
 10
11.9653595568
 20
6.042295066
 30
0.0
 10
11.9763734848
 20
6.0415312475
 30
0.0
 10
11.9984123888
 20
6.0389132089
 30
0.0
 10
12.0310266
 20
6.0318027835
 30
0.0
 10
12.0630086325
 20
6.0215644209
 30
0.0
 10
12.0940473502
 20
6.0082975404
 30
0.0
 10
12.1238459972
 20
5.9921303371
 30
0.0
 10
12.152118314
 20
5.9732184694
 30
0.0
 10
12.1785932689
 20
5.9517440033
 30
0.0
 10
12.2030167542
 20
5.9279131674
 30
0.0
 10
12.2251543953
 20
5.9019548086
 30
0.0
 10
12.2447936352
 20
5.874118057
 30
0.0
 10
12.2617455681
 20
5.8446699043
 30
0.0
 10
12.2758471618
 20
5.8138929516
 30
0.0
 10
12.2869622487
 20
5.7820824381
 30
0.0
 10
12.2949833398
 20
5.7495437416
 30
0.0
 10
12.2998324111
 20
5.7165893624
 30
0.0
 10
12.3014616087
 20
5.6835360426
 30
0.0
 10
12.2998542067
 20
5.6507018004
 30
0.0
 10
12.2950242197
 20
5.6184029096
 30
0.0
 10
12.2870170236
 20
5.5869508749
 30
0.0
 10
12.2759086189
 20
5.5566494252
 30
0.0
 10
12.2618051026
 20
5.5277915923
 30
0.0
 10
12.2448420391
 20
5.5006566086
 30
0.0
 10
12.2251826922
 20
5.4755073746
 30
0.0
 10
12.2030170517
 20
5.4525874064
 30
0.0
 10
12.178559502
 20
5.4321186173
 30
0.0
 10
12.1520468396
 20
5.4142989653
 30
0.0
 10
12.1237359451
 20
5.3993002574
 30
0.0
 10
12.0939007663
 20
5.3872669526
 30
0.0
 10
12.0628302917
 20
5.3783141596
 30
0.0
 10
12.0308237436
 20
5.3725273397
 30
0.0
 10
11.9981939597
 20
5.3699606408
 30
0.0
 10
11.9762992249
 20
5.3704110936
 30
0.0
 10
11.9653595568
 20
5.3711697622
 30
0.0
  0
SPLINE
  5
37E
100
AcDbEntity
  8
0
100
AcDbSpline
 62
4
  6
CONTINUOUS
 70
0
 71
3
 72
275
 73
271
 74
0
 42
0.0000001
 43
0.0000001
 44
0.0000000001
 40
0.0
 40
0.0
 40
0.0
 40
0.0
 40
0.015625
 40
0.0234375
 40
0.03125
 40
0.0390625
 40
0.046875
 40
0.05078125
 40
0.0546875
 40
0.056640625
 40
0.05859375
 40
0.060546875
 40
0.0615234375
 40
0.0620117188
 40
0.0625
 40
0.0629882812
 40
0.0634765625
 40
0.064453125
 40
0.06640625
 40
0.068359375
 40
0.0703125
 40
0.07421875
 40
0.078125
 40
0.0859375
 40
0.09375
 40
0.1015625
 40
0.109375
 40
0.11328125
 40
0.1171875
 40
0.119140625
 40
0.12109375
 40
0.123046875
 40
0.1240234375
 40
0.1245117188
 40
0.125
 40
0.1254882812
 40
0.1259765625
 40
0.126953125
 40
0.12890625
 40
0.130859375
 40
0.1328125
 40
0.13671875
 40
0.140625
 40
0.1484375
 40
0.15625
 40
0.1640625
 40
0.171875
 40
0.17578125
 40
0.1796875
 40
0.181640625
 40
0.18359375
 40
0.185546875
 40
0.1865234375
 40
0.1870117188
 40
0.1875
 40
0.1879882812
 40
0.1884765625
 40
0.189453125
 40
0.19140625
 40
0.193359375
 40
0.1953125
 40
0.19921875
 40
0.203125
 40
0.2109375
 40
0.21875
 40
0.2265625
 40
0.234375
 40
0.23828125
 40
0.2421875
 40
0.24609375
 40
0.248046875
 40
0.2490234375
 40
0.25
 40
0.2509765625
 40
0.251953125
 40
0.25390625
 40
0.2578125
 40
0.26171875
 40
0.265625
 40
0.2734375
 40
0.28125
 40
0.2890625
 40
0.296875
 40
0.30078125
 40
0.3046875
 40
0.30859375
 40
0.310546875
 40
0.3115234375
 40
0.3125
 40
0.3134765625
 40
0.314453125
 40
0.31640625
 40
0.3203125
 40
0.32421875
 40
0.328125
 40
0.3359375
 40
0.34375
 40
0.3515625
 40
0.359375
 40
0.3671875
 40
0.37109375
 40
0.373046875
 40
0.375
 40
0.376953125
 40
0.37890625
 40
0.3828125
 40
0.390625
 40
0.3984375
 40
0.40625
 40
0.4140625
 40
0.421875
 40
0.4296875
 40
0.43359375
 40
0.435546875
 40
0.4375
 40
0.439453125
 40
0.44140625
 40
0.4453125
 40
0.453125
 40
0.4609375
 40
0.46875
 40
0.4765625
 40
0.484375
 40
0.48828125
 40
0.4921875
 40
0.49609375
 40
0.498046875
 40
0.4990234375
 40
0.5
 40
0.5009765625
 40
0.501953125
 40
0.50390625
 40
0.5078125
 40
0.51171875
 40
0.515625
 40
0.5234375
 40
0.53125
 40
0.5390625
 40
0.546875
 40
0.55078125
 40
0.5546875
 40
0.55859375
 40
0.560546875
 40
0.5615234375
 40
0.5625
 40
0.5634765625
 40
0.564453125
 40
0.56640625
 40
0.5703125
 40
0.57421875
 40
0.578125
 40
0.5859375
 40
0.59375
 40
0.6015625
 40
0.609375
 40
0.61328125
 40
0.6171875
 40
0.62109375
 40
0.623046875
 40
0.6240234375
 40
0.625
 40
0.6259765625
 40
0.626953125
 40
0.62890625
 40
0.6328125
 40
0.63671875
 40
0.640625
 40
0.6484375
 40
0.65625
 40
0.6640625
 40
0.671875
 40
0.67578125
 40
0.6796875
 40
0.681640625
 40
0.68359375
 40
0.685546875
 40
0.6865234375
 40
0.6875
 40
0.6884765625
 40
0.689453125
 40
0.69140625
 40
0.693359375
 40
0.6953125
 40
0.69921875
 40
0.703125
 40
0.7109375
 40
0.71875
 40
0.7265625
 40
0.734375
 40
0.73828125
 40
0.7421875
 40
0.744140625
 40
0.74609375
 40
0.748046875
 40
0.7490234375
 40
0.7495117188
 40
0.75
 40
0.7504882812
 40
0.7509765625
 40
0.751953125
 40
0.75390625
 40
0.755859375
 40
0.7578125
 40
0.76171875
 40
0.765625
 40
0.7734375
 40
0.78125
 40
0.7890625
 40
0.796875
 40
0.80078125
 40
0.8046875
 40
0.806640625
 40
0.80859375
 40
0.810546875
 40
0.8115234375
 40
0.8120117188
 40
0.8125
 40
0.8129882812
 40
0.8134765625
 40
0.814453125
 40
0.81640625
 40
0.818359375
 40
0.8203125
 40
0.82421875
 40
0.828125
 40
0.8359375
 40
0.84375
 40
0.8515625
 40
0.859375
 40
0.86328125
 40
0.8671875
 40
0.869140625
 40
0.87109375
 40
0.873046875
 40
0.8740234375
 40
0.8745117188
 40
0.875
 40
0.8754882812
 40
0.8759765625
 40
0.876953125
 40
0.87890625
 40
0.880859375
 40
0.8828125
 40
0.88671875
 40
0.890625
 40
0.8984375
 40
0.90625
 40
0.9140625
 40
0.921875
 40
0.92578125
 40
0.9296875
 40
0.931640625
 40
0.93359375
 40
0.935546875
 40
0.9365234375
 40
0.9370117188
 40
0.9375
 40
0.9379882812
 40
0.9384765625
 40
0.939453125
 40
0.94140625
 40
0.943359375
 40
0.9453125
 40
0.94921875
 40
0.953125
 40
0.9609375
 40
0.96875
 40
0.9765625
 40
0.984375
 40
1.0
 40
1.0
 40
1.0
 40
1.0
 10
13.4784403343
 20
8.37194219
 30
0.0
 10
13.4774328934
 20
8.3706004227
 30
0.0
 10
13.4759217318
 20
8.368587772
 30
0.0
 10
13.4739068499
 20
8.3659042366
 30
0.0
 10
13.4723956883
 20
8.3638915878
 30
0.0
 10
13.4708845273
 20
8.3618789285
 30
0.0
 10
13.4696252246
 20
8.3602017454
 30
0.0
 10
13.4686177865
 20
8.3588599249
 30
0.0
 10
13.4679881283
 20
8.3580214557
 30
0.0
 10
13.4674844234
 20
8.3573502941
 30
0.0
 10
13.4671065855
 20
8.3568479805
 30
0.0
 10
13.4667919088
 20
8.3564260213
 30
0.0
 10
13.4665712658
 20
8.3561372528
 30
0.0
 10
13.4664457607
 20
8.3559619322
 30
0.0
 10
13.4663500077
 20
8.3558594852
 30
0.0
 10
13.466260463
 20
8.3556460195
 30
0.0
 10
13.4661389045
 20
8.3554001232
 30
0.0
 10
13.4659271862
 20
8.3549517621
 30
0.0
 10
13.4656242039
 20
8.3543206792
 30
0.0
 10
13.4652608509
 20
8.353559342
 30
0.0
 10
13.4647763014
 20
8.3525456361
 30
0.0
 10
13.4641706416
 20
8.3512780208
 30
0.0
 10
13.4632015707
 20
8.3492501062
 30
0.0
 10
13.4619902374
 20
8.3467151199
 30
0.0
 10
13.4605366348
 20
8.3436731785
 30
0.0
 10
13.4590830341
 20
8.3406312171
 30
0.0
 10
13.4578716963
 20
8.338096281
 30
0.0
 10
13.4569026343
 20
8.3360682659
 30
0.0
 10
13.456296952
 20
8.3348009062
 30
0.0
 10
13.4558124486
 20
8.3337866756
 30
0.0
 10
13.4554489549
 20
8.3330269413
 30
0.0
 10
13.4551464127
 20
8.3323908435
 30
0.0
 10
13.4549339088
 20
8.3319514347
 30
0.0
 10
13.454813609
 20
8.3316911946
 30
0.0
 10
13.4547201978
 20
8.3315217885
 30
0.0
 10
13.4546389667
 20
8.331253861
 30
0.0
 10
13.4545264101
 20
8.3309309897
 30
0.0
 10
13.4543314153
 20
8.3303499535
 30
0.0
 10
13.4540518166
 20
8.3295282727
 30
0.0
 10
13.453716741
 20
8.3285386727
 30
0.0
 10
13.4532698189
 20
8.3272204576
 30
0.0
 10
13.4527112192
 20
8.3255722601
 30
0.0
 10
13.4518174301
 20
8.3229353837
 30
0.0
 10
13.4507002039
 20
8.3196392056
 30
0.0
 10
13.4493595278
 20
8.3156838294
 30
0.0
 10
13.4480188543
 20
8.311728435
 30
0.0
 10
13.4469016215
 20
8.3084323025
 30
0.0
 10
13.4460078457
 20
8.3057953347
 30
0.0
 10
13.4454492121
 20
8.3041473697
 30
0.0
 10
13.4450023596
 20
8.3028286775
 30
0.0
 10
13.4446670714
 20
8.3018405348
 30
0.0
 10
13.4443881378
 20
8.3010142946
 30
0.0
 10
13.4441919557
 20
8.3004413978
 30
0.0
 10
13.4440813015
 20
8.3001054851
 30
0.0
 10
13.4439942264
 20
8.2998776165
 30
0.0
 10
13.4439227644
 20
8.2995577558
 30
0.0
 10
13.4438220357
 20
8.2991633627
 30
0.0
 10
13.4436482979
 20
8.2984582244
 30
0.0
 10
13.4433987745
 20
8.2974587001
 30
0.0
 10
13.4430999142
 20
8.2962559255
 30
0.0
 10
13.4427012355
 20
8.2946533945
 30
0.0
 10
13.442202955
 20
8.2926498306
 30
0.0
 10
13.441405668
 20
8.2894443525
 30
0.0
 10
13.4404090739
 20
8.2854374248
 30
0.0
 10
13.4392131484
 20
8.2806291594
 30
0.0
 10
13.4380172496
 20
8.2758208308
 30
0.0
 10
13.4370205889
 20
8.2718140609
 30
0.0
 10
13.436223435
 20
8.2686082672
 30
0.0
 10
13.4356250925
 20
8.2662049529
 30
0.0
 10
13.4351279914
 20
8.2641989119
 30
0.0
 10
13.4347770423
 20
8.2628011183
 30
0.0
 10
13.4345811504
 20
8.2619923312
 30
0.0
 10
13.4344211311
 20
8.261414046
 30
0.0
 10
13.434311188
 20
8.2607275641
 30
0.0
 10
13.4341471301
 20
8.2598499951
 30
0.0
 10
13.433868167
 20
8.2582966656
 30
0.0
 10
13.4334653935
 20
8.2560868164
 30
0.0
 10
13.4329838866
 20
8.2534310625
 30
0.0
 10
13.4323412409
 20
8.249891432
 30
0.0
 10
13.4315381538
 20
8.2454664199
 30
0.0
 10
13.4305743483
 20
8.2401566187
 30
0.0
 10
13.4296105946
 20
8.2348467224
 30
0.0
 10
13.428807378
 20
8.230421948
 30
0.0
 10
13.4281649912
 20
8.226881842
 30
0.0
 10
13.4276826948
 20
8.2242275385
 30
0.0
 10
13.4272823911
 20
8.2220131516
 30
0.0
 10
13.4269990191
 20
8.2204679226
 30
0.0
 10
13.4268420254
 20
8.2195773746
 30
0.0
 10
13.4267103832
 20
8.2189307602
 30
0.0
 10
13.4266318623
 20
8.2182027392
 30
0.0
 10
13.4265086384
 20
8.2172604401
 30
0.0
 10
13.4263016298
 20
8.2155981866
 30
0.0
 10
13.4260013897
 20
8.2132304557
 30
0.0
 10
13.425643034
 20
8.2103862176
 30
0.0
 10
13.4251645488
 20
8.2065949359
 30
0.0
 10
13.4245666925
 20
8.201855468
 30
0.0
 10
13.4238490808
 20
8.1961683085
 30
0.0
 10
13.4231318051
 20
8.1904809265
 30
0.0
 10
13.4224133698
 20
8.1847942326
 30
0.0
 10
13.421818259
 20
8.1800532128
 30
0.0
 10
13.4213946597
 20
8.176738625
 30
0.0
 10
13.4211635646
 20
8.1748381341
 30
0.0
 10
13.4209593646
 20
8.1734309095
 30
0.0
 10
13.4208731985
 20
8.1719543307
 30
0.0
 10
13.4207171387
 20
8.1700097506
 30
0.0
 10
13.4204632174
 20
8.1665954639
 30
0.0
 10
13.420090437
 20
8.1617238059
 30
0.0
 10
13.4196474248
 20
8.1558752864
 30
0.0
 10
13.4192031724
 20
8.1500274558
 30
0.0
 10
13.4187595566
 20
8.1441793992
 30
0.0
 10
13.4183146346
 20
8.1383315574
 30
0.0
 10
13.4179476897
 20
8.1334578286
 30
0.0
 10
13.4176833705
 20
8.1300472318
 30
0.0
 10
13.4175439686
 20
8.1280967403
 30
0.0
 10
13.4174066353
 20
8.1266383192
 30
0.0
 10
13.4173946107
 20
8.1251628977
 30
0.0
 10
13.4173348687
 20
8.1232015989
 30
0.0
 10
13.4172506855
 20
8.1197665633
 30
0.0
 10
13.4171197745
 20
8.1148608136
 30
0.0
 10
13.4169672491
 20
8.1089732976
 30
0.0
 10
13.4168134914
 20
8.1030859364
 30
0.0
 10
13.4166600947
 20
8.0971985727
 30
0.0
 10
13.4165320879
 20
8.0922923153
 30
0.0
 10
13.416429925
 20
8.0883676012
 30
0.0
 10
13.4163526807
 20
8.0854232627
 30
0.0
 10
13.4162902832
 20
8.082972202
 30
0.0
 10
13.4162427344
 20
8.0812514459
 30
0.0
 10
13.416221607
 20
8.080275985
 30
0.0
 10
13.4161887375
 20
8.0795223368
 30
0.0
 10
13.4162209418
 20
8.0788529848
 30
0.0
 10
13.4162411823
 20
8.077931112
 30
0.0
 10
13.416287179
 20
8.0763315341
 30
0.0
 10
13.4163473594
 20
8.0740392606
 30
0.0
 10
13.4164219425
 20
8.0712915982
 30
0.0
 10
13.4165205598
 20
8.067626977
 30
0.0
 10
13.4166441169
 20
8.0630465712
 30
0.0
 10
13.4167922552
 20
8.0575499119
 30
0.0
 10
13.4169404576
 20
8.0520533486
 30
0.0
 10
13.4170638544
 20
8.047472703
 30
0.0
 10
13.4171627922
 20
8.0438085614
 30
0.0
 10
13.4172363978
 20
8.0410594362
 30
0.0
 10
13.4172996363
 20
8.0387717388
 30
0.0
 10
13.4173401737
 20
8.037163992
 30
0.0
 10
13.4173691614
 20
8.036255208
 30
0.0
 10
13.4173744972
 20
8.0355456512
 30
0.0
 10
13.4174425413
 20
8.0349430054
 30
0.0
 10
13.4175113934
 20
8.0341021858
 30
0.0
 10
13.4176420757
 20
8.0326481266
 30
0.0
 10
13.4178234367
 20
8.0305618152
 30
0.0
 10
13.4180433506
 20
8.0280621299
 30
0.0
 10
13.4183357722
 20
8.0247278573
 30
0.0
 10
13.4187015743
 20
8.0205604871
 30
0.0
 10
13.4191404114
 20
8.0155594227
 30
0.0
 10
13.4195793097
 20
8.0105584861
 30
0.0
 10
13.4199449591
 20
8.0063907962
 30
0.0
 10
13.4202376862
 20
8.003057163
 30
0.0
 10
13.4204566682
 20
8.0005555276
 30
0.0
 10
13.4206409444
 20
7.998475317
 30
0.0
 10
13.4207664226
 20
7.9970103669
 30
0.0
 10
13.4208436131
 20
7.9961869972
 30
0.0
 10
13.4208860443
 20
7.9955307513
 30
0.0
 10
13.4209875778
 20
7.9950225074
 30
0.0
 10
13.4211023403
 20
7.9942932242
 30
0.0
 10
13.4213127798
 20
7.9930410315
 30
0.0
 10
13.4216083859
 20
7.9912396097
 30
0.0
 10
13.4219652628
 20
7.989083286
 30
0.0
 10
13.4224403478
 20
7.9862063078
 30
0.0
 10
13.4230344612
 20
7.9826107288
 30
0.0
 10
13.423747289
 20
7.9782957637
 30
0.0
 10
13.4244601387
 20
7.9739808496
 30
0.0
 10
13.4250541974
 20
7.9703851432
 30
0.0
 10
13.4255293918
 20
7.9675084198
 30
0.0
 10
13.4258265112
 20
7.9657108358
 30
0.0
 10
13.426063925
 20
7.9642719246
 30
0.0
 10
13.4262427566
 20
7.9631950525
 30
0.0
 10
13.4263893294
 20
7.9622903062
 30
0.0
 10
13.4265120904
 20
7.9615830003
 30
0.0
 10
13.4265891252
 20
7.9610074594
 30
0.0
 10
13.4267235527
 20
7.960603919
 30
0.0
 10
13.4268827413
 20
7.9600057831
 30
0.0
 10
13.4270886055
 20
7.9592787271
 30
0.0
 10
13.4273326983
 20
7.9583974365
 30
0.0
 10
13.4276591838
 20
7.9572254641
 30
0.0
 10
13.4280669385
 20
7.9557594435
 30
0.0
 10
13.4287195428
 20
7.9534144002
 30
0.0
 10
13.4295352308
 20
7.9504828944
 30
0.0
 10
13.4305140848
 20
7.9469651711
 30
0.0
 10
13.4314929331
 20
7.9434474355
 30
0.0
 10
13.4323086355
 20
7.9405159606
 30
0.0
 10
13.432961211
 20
7.9381708554
 30
0.0
 10
13.4333690389
 20
7.9367049921
 30
0.0
 10
13.4336953742
 20
7.935532697
 30
0.0
 10
13.4339399258
 20
7.9346523924
 30
0.0
 10
13.4341443545
 20
7.9339222513
 30
0.0
 10
13.4342862071
 20
7.9334043898
 30
0.0
 10
13.4343692137
 20
7.9331190284
 30
0.0
 10
13.4344259811
 20
7.9328752612
 30
0.0
 10
13.4345037245
 20
7.9327451988
 30
0.0
 10
13.4346000657
 20
7.9325321207
 30
0.0
 10
13.4347720718
 20
7.9321777132
 30
0.0
 10
13.4350160125
 20
7.9316617556
 30
0.0
 10
13.4353095042
 20
7.9310467418
 30
0.0
 10
13.43570056
 20
7.9302252791
 30
0.0
 10
13.436189471
 20
7.9291989451
 30
0.0
 10
13.4369716776
 20
7.9275565344
 30
0.0
 10
13.4379494535
 20
7.9255036165
 30
0.0
 10
13.4391227766
 20
7.9230400713
 30
0.0
 10
13.4402961034
 20
7.9205765481
 30
0.0
 10
13.44127387
 20
7.918523575
 30
0.0
 10
13.4420560952
 20
7.9168812746
 30
0.0
 10
13.4425449589
 20
7.9158546601
 30
0.0
 10
13.4429361118
 20
7.9150337732
 30
0.0
 10
13.4432293071
 20
7.9144170001
 30
0.0
 10
13.4434741753
 20
7.9139065471
 30
0.0
 10
13.4436445255
 20
7.9135423129
 30
0.0
 10
13.4437435198
 20
7.9133449796
 30
0.0
 10
13.4438131139
 20
7.9131665544
 30
0.0
 10
13.4439004888
 20
7.91310443
 30
0.0
 10
13.4440107865
 20
7.9129810303
 30
0.0
 10
13.4442066971
 20
7.9127839819
 30
0.0
 10
13.4444850588
 20
7.9124926025
 30
0.0
 10
13.4448197394
 20
7.9121471769
 30
0.0
 10
13.4452657544
 20
7.9116851321
 30
0.0
 10
13.4458233504
 20
7.9111080819
 30
0.0
 10
13.4467154608
 20
7.9101845189
 30
0.0
 10
13.4478306137
 20
7.9090301628
 30
0.0
 10
13.4491687906
 20
7.9076448906
 30
0.0
 10
13.4505069703
 20
7.9062596414
 30
0.0
 10
13.451622116
 20
7.9051052281
 30
0.0
 10
13.4525142409
 20
7.9041817794
 30
0.0
 10
13.4530718002
 20
7.9036044385
 30
0.0
 10
13.4535178905
 20
7.9031429903
 30
0.0
 10
13.4538523411
 20
7.902795742
 30
0.0
 10
13.4541314222
 20
7.9025100655
 30
0.0
 10
13.4543260485
 20
7.9023028364
 30
0.0
 10
13.4544384042
 20
7.9021957488
 30
0.0
 10
13.4545194576
 20
7.902083519
 30
0.0
 10
13.4546127942
 20
7.902093281
 30
0.0
 10
13.4547329584
 20
7.902063745
 30
0.0
 10
13.4549452421
 20
7.9020318827
 30
0.0
 10
13.4552474608
 20
7.9019759999
 30
0.0
 10
13.4556105701
 20
7.9019133772
 30
0.0
 10
13.4560945596
 20
7.9018283307
 30
0.0
 10
13.4566996001
 20
7.9017225531
 30
0.0
 10
13.4576676348
 20
7.9015530124
 30
0.0
 10
13.4588776886
 20
7.9013411889
 30
0.0
 10
13.4603297485
 20
7.9010869538
 30
0.0
 10
13.4617818105
 20
7.9008327425
 30
0.0
 10
13.4629918591
 20
7.9006208596
 30
0.0
 10
13.4639599043
 20
7.9004514378
 30
0.0
 10
13.4645649184
 20
7.9003453579
 30
0.0
 10
13.4650489619
 20
7.9002609318
 30
0.0
 10
13.4654119064
 20
7.9001964134
 30
0.0
 10
13.4657146405
 20
7.900146462
 30
0.0
 10
13.4659260043
 20
7.9001040112
 30
0.0
 10
13.4660476424
 20
7.9000914406
 30
0.0
 10
13.4661364518
 20
7.9000490901
 30
0.0
 10
13.4662345083
 20
7.9001325862
 30
0.0
 10
13.4663620247
 20
7.9002000177
 30
0.0
 10
13.4665866813
 20
7.900338475
 30
0.0
 10
13.4669068336
 20
7.9005255785
 30
0.0
 10
13.4672913527
 20
7.9007546795
 30
0.0
 10
13.4678039273
 20
7.9010585489
 30
0.0
 10
13.4684446858
 20
7.9014389331
 30
0.0
 10
13.469469877
 20
7.9020472418
 30
0.0
 10
13.4707513736
 20
7.9028077326
 30
0.0
 10
13.4722891662
 20
7.9037202766
 30
0.0
 10
13.4738269598
 20
7.9046328327
 30
0.0
 10
13.4758773508
 20
7.9058495699
 30
0.0
 10
13.4774151442
 20
7.9067621237
 30
0.0
 10
13.4784403398
 20
7.9073704927
 30
0.0
  0
SPLINE
  5
37F
100
AcDbEntity
  8
0
100
AcDbSpline
 62
4
  6
CONTINUOUS
 70
0
 71
3
 72
275
 73
271
 74
0
 42
0.0000001
 43
0.0000001
 44
0.0000000001
 40
0.0
 40
0.0
 40
0.0
 40
0.0
 40
0.015625
 40
0.0234375
 40
0.03125
 40
0.0390625
 40
0.046875
 40
0.05078125
 40
0.0546875
 40
0.056640625
 40
0.05859375
 40
0.060546875
 40
0.0615234375
 40
0.0620117188
 40
0.0625
 40
0.0629882812
 40
0.0634765625
 40
0.064453125
 40
0.06640625
 40
0.068359375
 40
0.0703125
 40
0.07421875
 40
0.078125
 40
0.0859375
 40
0.09375
 40
0.1015625
 40
0.109375
 40
0.11328125
 40
0.1171875
 40
0.119140625
 40
0.12109375
 40
0.123046875
 40
0.1240234375
 40
0.1245117188
 40
0.125
 40
0.1254882812
 40
0.1259765625
 40
0.126953125
 40
0.12890625
 40
0.130859375
 40
0.1328125
 40
0.13671875
 40
0.140625
 40
0.1484375
 40
0.15625
 40
0.1640625
 40
0.171875
 40
0.17578125
 40
0.1796875
 40
0.181640625
 40
0.18359375
 40
0.185546875
 40
0.1865234375
 40
0.1870117188
 40
0.1875
 40
0.1879882812
 40
0.1884765625
 40
0.189453125
 40
0.19140625
 40
0.193359375
 40
0.1953125
 40
0.19921875
 40
0.203125
 40
0.2109375
 40
0.21875
 40
0.2265625
 40
0.234375
 40
0.23828125
 40
0.2421875
 40
0.24609375
 40
0.248046875
 40
0.2490234375
 40
0.25
 40
0.2509765625
 40
0.251953125
 40
0.25390625
 40
0.2578125
 40
0.26171875
 40
0.265625
 40
0.2734375
 40
0.28125
 40
0.2890625
 40
0.296875
 40
0.30078125
 40
0.3046875
 40
0.30859375
 40
0.310546875
 40
0.3115234375
 40
0.3125
 40
0.3134765625
 40
0.314453125
 40
0.31640625
 40
0.3203125
 40
0.32421875
 40
0.328125
 40
0.3359375
 40
0.34375
 40
0.3515625
 40
0.359375
 40
0.3671875
 40
0.37109375
 40
0.373046875
 40
0.375
 40
0.376953125
 40
0.37890625
 40
0.3828125
 40
0.390625
 40
0.3984375
 40
0.40625
 40
0.4140625
 40
0.421875
 40
0.4296875
 40
0.43359375
 40
0.435546875
 40
0.4375
 40
0.439453125
 40
0.44140625
 40
0.4453125
 40
0.453125
 40
0.4609375
 40
0.46875
 40
0.4765625
 40
0.484375
 40
0.48828125
 40
0.4921875
 40
0.49609375
 40
0.498046875
 40
0.4990234375
 40
0.5
 40
0.5009765625
 40
0.501953125
 40
0.50390625
 40
0.5078125
 40
0.51171875
 40
0.515625
 40
0.5234375
 40
0.53125
 40
0.5390625
 40
0.546875
 40
0.55078125
 40
0.5546875
 40
0.55859375
 40
0.560546875
 40
0.5615234375
 40
0.5625
 40
0.5634765625
 40
0.564453125
 40
0.56640625
 40
0.5703125
 40
0.57421875
 40
0.578125
 40
0.5859375
 40
0.59375
 40
0.6015625
 40
0.609375
 40
0.61328125
 40
0.6171875
 40
0.62109375
 40
0.623046875
 40
0.6240234375
 40
0.625
 40
0.6259765625
 40
0.626953125
 40
0.62890625
 40
0.6328125
 40
0.63671875
 40
0.640625
 40
0.6484375
 40
0.65625
 40
0.6640625
 40
0.671875
 40
0.67578125
 40
0.6796875
 40
0.681640625
 40
0.68359375
 40
0.685546875
 40
0.6865234375
 40
0.6875
 40
0.6884765625
 40
0.689453125
 40
0.69140625
 40
0.693359375
 40
0.6953125
 40
0.69921875
 40
0.703125
 40
0.7109375
 40
0.71875
 40
0.7265625
 40
0.734375
 40
0.73828125
 40
0.7421875
 40
0.744140625
 40
0.74609375
 40
0.748046875
 40
0.7490234375
 40
0.7495117188
 40
0.75
 40
0.7504882812
 40
0.7509765625
 40
0.751953125
 40
0.75390625
 40
0.755859375
 40
0.7578125
 40
0.76171875
 40
0.765625
 40
0.7734375
 40
0.78125
 40
0.7890625
 40
0.796875
 40
0.80078125
 40
0.8046875
 40
0.806640625
 40
0.80859375
 40
0.810546875
 40
0.8115234375
 40
0.8120117188
 40
0.8125
 40
0.8129882812
 40
0.8134765625
 40
0.814453125
 40
0.81640625
 40
0.818359375
 40
0.8203125
 40
0.82421875
 40
0.828125
 40
0.8359375
 40
0.84375
 40
0.8515625
 40
0.859375
 40
0.86328125
 40
0.8671875
 40
0.869140625
 40
0.87109375
 40
0.873046875
 40
0.8740234375
 40
0.8745117188
 40
0.875
 40
0.8754882812
 40
0.8759765625
 40
0.876953125
 40
0.87890625
 40
0.880859375
 40
0.8828125
 40
0.88671875
 40
0.890625
 40
0.8984375
 40
0.90625
 40
0.9140625
 40
0.921875
 40
0.92578125
 40
0.9296875
 40
0.931640625
 40
0.93359375
 40
0.935546875
 40
0.9365234375
 40
0.9370117188
 40
0.9375
 40
0.9379882812
 40
0.9384765625
 40
0.939453125
 40
0.94140625
 40
0.943359375
 40
0.9453125
 40
0.94921875
 40
0.953125
 40
0.9609375
 40
0.96875
 40
0.9765625
 40
0.984375
 40
1.0
 40
1.0
 40
1.0
 40
1.0
 10
13.4784403343
 20
7.9073704875
 30
0.0
 10
13.4794477753
 20
7.9087122548
 30
0.0
 10
13.4809589368
 20
7.9107249055
 30
0.0
 10
13.4829738188
 20
7.9134084409
 30
0.0
 10
13.4844849804
 20
7.9154210897
 30
0.0
 10
13.4859961414
 20
7.9174337491
 30
0.0
 10
13.4872554441
 20
7.9191109321
 30
0.0
 10
13.4882628822
 20
7.9204527527
 30
0.0
 10
13.4888925403
 20
7.9212912218
 30
0.0
 10
13.4893962453
 20
7.9219623835
 30
0.0
 10
13.4897740832
 20
7.922464697
 30
0.0
 10
13.4900887599
 20
7.9228866562
 30
0.0
 10
13.4903094028
 20
7.9231754247
 30
0.0
 10
13.490434908
 20
7.9233507453
 30
0.0
 10
13.490530661
 20
7.9234531923
 30
0.0
 10
13.4906202057
 20
7.923666658
 30
0.0
 10
13.4907417642
 20
7.9239125543
 30
0.0
 10
13.4909534825
 20
7.9243609154
 30
0.0
 10
13.4912564648
 20
7.9249919984
 30
0.0
 10
13.4916198178
 20
7.9257533355
 30
0.0
 10
13.4921043673
 20
7.9267670415
 30
0.0
 10
13.4927100271
 20
7.9280346568
 30
0.0
 10
13.493679098
 20
7.9300625713
 30
0.0
 10
13.4948904313
 20
7.9325975577
 30
0.0
 10
13.4963440338
 20
7.935639499
 30
0.0
 10
13.4977976346
 20
7.9386814604
 30
0.0
 10
13.4990089724
 20
7.9412163965
 30
0.0
 10
13.4999780344
 20
7.9432444116
 30
0.0
 10
13.5005837167
 20
7.9445117713
 30
0.0
 10
13.5010682201
 20
7.9455260019
 30
0.0
 10
13.5014317138
 20
7.9462857362
 30
0.0
 10
13.501734256
 20
7.946921834
 30
0.0
 10
13.5019467599
 20
7.9473612428
 30
0.0
 10
13.5020670596
 20
7.947621483
 30
0.0
 10
13.5021604709
 20
7.947790889
 30
0.0
 10
13.5022417019
 20
7.9480588165
 30
0.0
 10
13.5023542586
 20
7.9483816878
 30
0.0
 10
13.5025492533
 20
7.948962724
 30
0.0
 10
13.5028288521
 20
7.9497844048
 30
0.0
 10
13.5031639277
 20
7.9507740048
 30
0.0
 10
13.5036108498
 20
7.95209222
 30
0.0
 10
13.5041694495
 20
7.9537404174
 30
0.0
 10
13.5050632386
 20
7.9563772938
 30
0.0
 10
13.5061804648
 20
7.959673472
 30
0.0
 10
13.5075211409
 20
7.9636288481
 30
0.0
 10
13.5088618144
 20
7.9675842425
 30
0.0
 10
13.5099790472
 20
7.970880375
 30
0.0
 10
13.510872823
 20
7.9735173428
 30
0.0
 10
13.5114314566
 20
7.9751653078
 30
0.0
 10
13.5118783091
 20
7.976484
 30
0.0
 10
13.5122135973
 20
7.9774721427
 30
0.0
 10
13.5124925309
 20
7.9782983829
 30
0.0
 10
13.512688713
 20
7.9788712798
 30
0.0
 10
13.5127993671
 20
7.9792071924
 30
0.0
 10
13.5128864423
 20
7.979435061
 30
0.0
 10
13.5129579043
 20
7.9797549218
 30
0.0
 10
13.513058633
 20
7.9801493149
 30
0.0
 10
13.5132323707
 20
7.9808544532
 30
0.0
 10
13.5134818942
 20
7.9818539774
 30
0.0
 10
13.5137807545
 20
7.983056752
 30
0.0
 10
13.5141794332
 20
7.984659283
 30
0.0
 10
13.5146777137
 20
7.9866628469
 30
0.0
 10
13.5154750007
 20
7.9898683251
 30
0.0
 10
13.5164715948
 20
7.9938752527
 30
0.0
 10
13.5176675203
 20
7.9986835182
 30
0.0
 10
13.5188634191
 20
8.0034918467
 30
0.0
 10
13.5198600798
 20
8.0074986166
 30
0.0
 10
13.5206572337
 20
8.0107044103
 30
0.0
 10
13.5212555762
 20
8.0131077246
 30
0.0
 10
13.5217526773
 20
8.0151137656
 30
0.0
 10
13.5221036264
 20
8.0165115592
 30
0.0
 10
13.5222995183
 20
8.0173203464
 30
0.0
 10
13.5224595376
 20
8.0178986315
 30
0.0
 10
13.5225694807
 20
8.0185851134
 30
0.0
 10
13.5227335386
 20
8.0194626824
 30
0.0
 10
13.5230125017
 20
8.0210160119
 30
0.0
 10
13.5234152752
 20
8.0232258611
 30
0.0
 10
13.5238967821
 20
8.0258816151
 30
0.0
 10
13.5245394278
 20
8.0294212455
 30
0.0
 10
13.5253425149
 20
8.0338462577
 30
0.0
 10
13.5263063204
 20
8.0391560588
 30
0.0
 10
13.5272700741
 20
8.0444659551
 30
0.0
 10
13.5280732907
 20
8.0488907295
 30
0.0
 10
13.5287156775
 20
8.0524308355
 30
0.0
 10
13.5291979739
 20
8.055085139
 30
0.0
 10
13.5295982776
 20
8.0572995259
 30
0.0
 10
13.5298816496
 20
8.0588447549
 30
0.0
 10
13.5300386433
 20
8.0597353029
 30
0.0
 10
13.5301702855
 20
8.0603819173
 30
0.0
 10
13.5302488064
 20
8.0611099383
 30
0.0
 10
13.5303720303
 20
8.0620522374
 30
0.0
 10
13.5305790388
 20
8.0637144909
 30
0.0
 10
13.530879279
 20
8.0660822218
 30
0.0
 10
13.5312376347
 20
8.0689264599
 30
0.0
 10
13.5317161199
 20
8.0727177416
 30
0.0
 10
13.5323139762
 20
8.0774572095
 30
0.0
 10
13.5330315878
 20
8.083144369
 30
0.0
 10
13.5337488636
 20
8.088831751
 30
0.0
 10
13.5344672989
 20
8.094518445
 30
0.0
 10
13.5350624097
 20
8.0992594647
 30
0.0
 10
13.535486009
 20
8.1025740525
 30
0.0
 10
13.5357171041
 20
8.1044745435
 30
0.0
 10
13.5359213041
 20
8.1058817681
 30
0.0
 10
13.5360074702
 20
8.1073583468
 30
0.0
 10
13.53616353
 20
8.1093029269
 30
0.0
 10
13.5364174512
 20
8.1127172136
 30
0.0
 10
13.5367902317
 20
8.1175888716
 30
0.0
 10
13.5372332439
 20
8.1234373912
 30
0.0
 10
13.5376774963
 20
8.1292852218
 30
0.0
 10
13.5381211121
 20
8.1351332783
 30
0.0
 10
13.5385660341
 20
8.1409811201
 30
0.0
 10
13.538932979
 20
8.1458548489
 30
0.0
 10
13.5391972981
 20
8.1492654458
 30
0.0
 10
13.5393367001
 20
8.1512159372
 30
0.0
 10
13.5394740334
 20
8.1526743584
 30
0.0
 10
13.539486058
 20
8.1541497798
 30
0.0
 10
13.5395457999
 20
8.1561110786
 30
0.0
 10
13.5396299831
 20
8.1595461142
 30
0.0
 10
13.5397608942
 20
8.1644518639
 30
0.0
 10
13.5399134196
 20
8.1703393799
 30
0.0
 10
13.5400671773
 20
8.1762267412
 30
0.0
 10
13.540220574
 20
8.1821141048
 30
0.0
 10
13.5403485808
 20
8.1870203623
 30
0.0
 10
13.5404507437
 20
8.1909450764
 30
0.0
 10
13.540527988
 20
8.1938894149
 30
0.0
 10
13.5405903855
 20
8.1963404756
 30
0.0
 10
13.5406379343
 20
8.1980612317
 30
0.0
 10
13.5406590617
 20
8.1990366925
 30
0.0
 10
13.5406919312
 20
8.1997903407
 30
0.0
 10
13.5406597269
 20
8.2004596928
 30
0.0
 10
13.5406394863
 20
8.2013815656
 30
0.0
 10
13.5405934897
 20
8.2029811434
 30
0.0
 10
13.5405333093
 20
8.2052734169
 30
0.0
 10
13.5404587262
 20
8.2080210793
 30
0.0
 10
13.5403601089
 20
8.2116857005
 30
0.0
 10
13.5402365518
 20
8.2162661063
 30
0.0
 10
13.5400884135
 20
8.2217627656
 30
0.0
 10
13.5399402111
 20
8.2272593289
 30
0.0
 10
13.5398168143
 20
8.2318399745
 30
0.0
 10
13.5397178765
 20
8.2355041162
 30
0.0
 10
13.5396442709
 20
8.2382532413
 30
0.0
 10
13.5395810323
 20
8.2405409387
 30
0.0
 10
13.539540495
 20
8.2421486856
 30
0.0
 10
13.5395115073
 20
8.2430574695
 30
0.0
 10
13.5395061715
 20
8.2437670263
 30
0.0
 10
13.5394381274
 20
8.2443696722
 30
0.0
 10
13.5393692753
 20
8.2452104917
 30
0.0
 10
13.539238593
 20
8.246664551
 30
0.0
 10
13.539057232
 20
8.2487508623
 30
0.0
 10
13.5388373181
 20
8.2512505476
 30
0.0
 10
13.5385448965
 20
8.2545848202
 30
0.0
 10
13.5381790944
 20
8.2587521904
 30
0.0
 10
13.5377402572
 20
8.2637532549
 30
0.0
 10
13.5373013589
 20
8.2687541914
 30
0.0
 10
13.5369357096
 20
8.2729218813
 30
0.0
 10
13.5366429825
 20
8.2762555145
 30
0.0
 10
13.5364240005
 20
8.2787571499
 30
0.0
 10
13.5362397243
 20
8.2808373605
 30
0.0
 10
13.5361142461
 20
8.2823023106
 30
0.0
 10
13.5360370556
 20
8.2831256803
 30
0.0
 10
13.5359946244
 20
8.2837819263
 30
0.0
 10
13.5358930909
 20
8.2842901701
 30
0.0
 10
13.5357783284
 20
8.2850194533
 30
0.0
 10
13.5355678889
 20
8.286271646
 30
0.0
 10
13.5352722828
 20
8.2880730679
 30
0.0
 10
13.5349154059
 20
8.2902293915
 30
0.0
 10
13.5344403209
 20
8.2931063698
 30
0.0
 10
13.5338462075
 20
8.2967019488
 30
0.0
 10
13.5331333797
 20
8.3010169138
 30
0.0
 10
13.53242053
 20
8.3053318279
 30
0.0
 10
13.5318264713
 20
8.3089275343
 30
0.0
 10
13.5313512769
 20
8.3118042577
 30
0.0
 10
13.5310541575
 20
8.3136018417
 30
0.0
 10
13.5308167437
 20
8.315040753
 30
0.0
 10
13.5306379121
 20
8.3161176251
 30
0.0
 10
13.5304913392
 20
8.3170223713
 30
0.0
 10
13.5303685782
 20
8.3177296772
 30
0.0
 10
13.5302915435
 20
8.3183052181
 30
0.0
 10
13.530157116
 20
8.3187087585
 30
0.0
 10
13.5299979274
 20
8.3193068944
 30
0.0
 10
13.5297920632
 20
8.3200339505
 30
0.0
 10
13.5295479704
 20
8.3209152411
 30
0.0
 10
13.5292214849
 20
8.3220872134
 30
0.0
 10
13.5288137302
 20
8.323553234
 30
0.0
 10
13.5281611259
 20
8.3258982773
 30
0.0
 10
13.5273454379
 20
8.3288297832
 30
0.0
 10
13.5263665839
 20
8.3323475064
 30
0.0
 10
13.5253877356
 20
8.335865242
 30
0.0
 10
13.5245720332
 20
8.3387967169
 30
0.0
 10
13.5239194577
 20
8.3411418221
 30
0.0
 10
13.5235116298
 20
8.3426076855
 30
0.0
 10
13.5231852945
 20
8.3437799805
 30
0.0
 10
13.5229407429
 20
8.3446602851
 30
0.0
 10
13.5227363142
 20
8.3453904262
 30
0.0
 10
13.5225944616
 20
8.3459082877
 30
0.0
 10
13.522511455
 20
8.3461936492
 30
0.0
 10
13.5224546876
 20
8.3464374163
 30
0.0
 10
13.5223769442
 20
8.3465674787
 30
0.0
 10
13.522280603
 20
8.3467805568
 30
0.0
 10
13.5221085969
 20
8.3471349643
 30
0.0
 10
13.5218646562
 20
8.3476509219
 30
0.0
 10
13.5215711645
 20
8.3482659357
 30
0.0
 10
13.5211801087
 20
8.3490873985
 30
0.0
 10
13.5206911977
 20
8.3501137324
 30
0.0
 10
13.519908991
 20
8.3517561431
 30
0.0
 10
13.5189312152
 20
8.353809061
 30
0.0
 10
13.5177578921
 20
8.3562726063
 30
0.0
 10
13.5165845653
 20
8.3587361294
 30
0.0
 10
13.5156067987
 20
8.3607891025
 30
0.0
 10
13.5148245735
 20
8.3624314029
 30
0.0
 10
13.5143357098
 20
8.3634580174
 30
0.0
 10
13.5139445569
 20
8.3642789043
 30
0.0
 10
13.5136513616
 20
8.3648956775
 30
0.0
 10
13.5134064934
 20
8.3654061304
 30
0.0
 10
13.5132361431
 20
8.3657703646
 30
0.0
 10
13.5131371489
 20
8.3659676979
 30
0.0
 10
13.5130675548
 20
8.3661461231
 30
0.0
 10
13.5129801799
 20
8.3662082476
 30
0.0
 10
13.5128698822
 20
8.3663316472
 30
0.0
 10
13.5126739715
 20
8.3665286956
 30
0.0
 10
13.5123956099
 20
8.366820075
 30
0.0
 10
13.5120609293
 20
8.3671655006
 30
0.0
 10
13.5116149143
 20
8.3676275454
 30
0.0
 10
13.5110573183
 20
8.3682045956
 30
0.0
 10
13.5101652079
 20
8.3691281586
 30
0.0
 10
13.5090500549
 20
8.3702825148
 30
0.0
 10
13.5077118781
 20
8.3716677869
 30
0.0
 10
13.5063736984
 20
8.3730530362
 30
0.0
 10
13.5052585527
 20
8.3742074495
 30
0.0
 10
13.5043664278
 20
8.3751308982
 30
0.0
 10
13.5038088685
 20
8.375708239
 30
0.0
 10
13.5033627782
 20
8.3761696872
 30
0.0
 10
13.5030283276
 20
8.3765169355
 30
0.0
 10
13.5027492464
 20
8.376802612
 30
0.0
 10
13.5025546202
 20
8.3770098411
 30
0.0
 10
13.5024422645
 20
8.3771169287
 30
0.0
 10
13.5023612111
 20
8.3772291585
 30
0.0
 10
13.5022678745
 20
8.3772193965
 30
0.0
 10
13.5021477103
 20
8.3772489326
 30
0.0
 10
13.5019354266
 20
8.3772807949
 30
0.0
 10
13.5016332079
 20
8.3773366776
 30
0.0
 10
13.5012700986
 20
8.3773993003
 30
0.0
 10
13.5007861091
 20
8.3774843468
 30
0.0
 10
13.5001810686
 20
8.3775901244
 30
0.0
 10
13.4992130338
 20
8.3777596652
 30
0.0
 10
13.4980029801
 20
8.3779714886
 30
0.0
 10
13.4965509201
 20
8.3782257237
 30
0.0
 10
13.4950988582
 20
8.378479935
 30
0.0
 10
13.4938888095
 20
8.378691818
 30
0.0
 10
13.4929207644
 20
8.3788612398
 30
0.0
 10
13.4923157503
 20
8.3789673197
 30
0.0
 10
13.4918317068
 20
8.3790517457
 30
0.0
 10
13.4914687623
 20
8.3791162641
 30
0.0
 10
13.4911660282
 20
8.3791662155
 30
0.0
 10
13.4909546644
 20
8.3792086663
 30
0.0
 10
13.4908330263
 20
8.3792212369
 30
0.0
 10
13.4907442168
 20
8.3792635874
 30
0.0
 10
13.4906461604
 20
8.3791800913
 30
0.0
 10
13.490518644
 20
8.3791126598
 30
0.0
 10
13.4902939874
 20
8.3789742025
 30
0.0
 10
13.4899738351
 20
8.378787099
 30
0.0
 10
13.489589316
 20
8.378557998
 30
0.0
 10
13.4890767414
 20
8.3782541286
 30
0.0
 10
13.4884359829
 20
8.3778737445
 30
0.0
 10
13.4874107917
 20
8.3772654358
 30
0.0
 10
13.4861292951
 20
8.3765049449
 30
0.0
 10
13.4845915024
 20
8.3755924009
 30
0.0
 10
13.4830537089
 20
8.3746798448
 30
0.0
 10
13.4810033178
 20
8.3734631076
 30
0.0
 10
13.4794655245
 20
8.3725505538
 30
0.0
 10
13.4784403289
 20
8.3719421848
 30
0.0
  0
ENDSEC
  0
SECTION
  2
OBJECTS
  0
DICTIONARY
  5
C
100
AcDbDictionary
280
0
281
1
  3
ACAD_GROUP
350
D
  3
ACAD_MLINESTYLE
350
17
  3
ACAD_LAYOUT
350
1A
  3
ACAD_PLOTSETTINGS
350
19
  3
ACAD_PLOTSTYLENAME
350
E
  3
ACAD_IMAGE_DICT
350
       381
  3
ACAD_IMAGE_VARS
350
       382
  3
ACAD_TABLESTYLE
350
       383
  0
IMAGEDEF_REACTOR
  5
380
100
AcDbRasterImageDefReactor
 90
2
330
28B
  0
DICTIONARY
  5
D
102
{ACAD_REACTORS
330
C
102
}
100
AcDbDictionary
280
0
281
1
  0
ACDBDICTIONARYWDFLT
  5
E
102
{ACAD_REACTORS
330
C
102
}
100
AcDbDictionary
281
1
  3
Normal
350
F
100
AcDbDictionaryWithDefault
340
F
  0
DICTIONARY
  5
381
330
C
100
AcDbDictionary
281
1
  3
LN8_assy_2_img_1
350
       386
  0
RASTERVARIABLES
  5
382
330
C
100
AcDbRasterVariables
 90
0
 70
0
 71
1
 72
5
  0
DICTIONARY
  5
17
102
{ACAD_REACTORS
330
C
102
}
100
AcDbDictionary
280
0
281
1
  3
Standard
350
18
  0
DICTIONARY
  5
383
330
C
100
AcDbDictionary
281
1
  3
Standard
350
       387
  3
Standard1
350
       388
  0
DICTIONARY
  5
19
102
{ACAD_REACTORS
330
C
102
}
100
AcDbDictionary
281
1
  0
DICTIONARY
  5
1A
102
{ACAD_REACTORS
330
C
102
}
100
AcDbDictionary
281
1
  3
Model
350
384
  3
Layout1
350
385
  0
ACDBPLACEHOLDER
  5
F
102
{ACAD_REACTORS
330
E
102
}
  0
MLINESTYLE
  5
18
102
{ACAD_REACTORS
330
17
102
}
100
AcDbMlineStyle
  2
STANDARD
 70
0
  3

 62
256
 51
90.0
 52
90.0
 71
2
 49
0.5
 62
256
  6
BYLAYER
 49
-0.5
 62
256
  6
BYLAYER
  0
LAYOUT
  5
384
102
{ACAD_REACTORS
330
1A
102
}
100
AcDbPlotSettings
  1

  2
none_device
  4
ANSI_C_(22.00_x_17.00_Inches)
  6

 40
0.0
 41
0.0
 42
0.0
 43
0.0
 44
558.8
 45
431.8
 46
0.0
 47
0.0
 48
0.0
 49
0.0
140
0.0
141
0.0
142
1.0
143
1.0
 70
1024
 72
0
 73
0
 74
0
  7

 75
0
147
1.0
148
0.0
149
0.0
100
AcDbLayout
  1
Model
 70
0
 71
0
 10
0.0
 20
0.0
 11
22.0
 21
17.0
 12
0.0
 22
0.0
 32
0.0
 14
0.0
 24
0.0
 34
0.0
 15
0.0
 25
0.0
 35
0.0
146
0.0
 13
0.0
 23
0.0
 33
0.0
 16
1.0
 26
0.0
 36
0.0
 17
0.0
 27
1.0
 37
0.0
 76
0
330
20C
345
0
346
0
  0
LAYOUT
  5
385
102
{ACAD_REACTORS
330
1A
102
}
100
AcDbPlotSettings
  1

  2
none_device
  4
ANSI_C_(22.00_x_17.00_Inches)
  6

 40
0.0
 41
0.0
 42
0.0
 43
0.0
 44
558.8
 45
431.8
 46
0.0
 47
0.0
 48
0.0
 49
0.0
140
0.0
141
0.0
142
1.0
143
1.0
 70
0
 72
0
 73
0
 74
0
  7

 75
0
147
1.0
148
0.0
149
0.0
100
AcDbLayout
  1
Layout1
 70
0
 71
1
 10
0.0
 20
0.0
 11
22.0
 21
17.0
 12
0.0
 22
0.0
 32
0.0
 14
0.0
 24
0.0
 34
0.0
 15
0.0
 25
0.0
 35
0.0
146
0.0
 13
0.0
 23
0.0
 33
0.0
 16
1.0
 26
0.0
 36
0.0
 17
0.0
 27
1.0
 37
0.0
 76
0
330
20D
345
0
346
0
  0
IMAGEDEF
  5
386
102
{ACAD_REACTORS
330
381
330
380
102
}
100
AcDbRasterImageDef
 90
0
  1
LN8_assy_2_img_1.png
 10
369.0
 20
92.0
 11
0.0066666667
 21
0.0066666667
280
1
281
0
  0
TABLESTYLE
  5
387
102
{ACAD_REACTORS
330
383
330
28E
330
28F
102
}
330
383
100
AcDbTableStyle
  3
Standard
 70
0
 71
0
 40
0.06
 41
0.06
280
1
281
1
  7
Standard
140
0.18
170
1
 62
0
 63
7
283
0
  7
Standard
140
0.18
170
1
 62
0
 63
7
283
0
  7
Standard
140
0.18
170
1
 62
0
 63
7
283
0
  0
TABLESTYLE
  5
388
102
{ACAD_REACTORS
330
383
330
28D
102
}
330
383
100
AcDbTableStyle
  3
Standard1
 70
1
 71
0
 40
0.06
 41
0.06
280
1
281
1
  7
Standard
140
0.18
170
1
 62
0
 63
7
283
0
  7
Standard
140
0.18
170
1
 62
0
 63
7
283
0
  7
Standard
140
0.18
170
1
 62
0
 63
7
283
0
  0
ENDSEC
  0
EOF
