999
DXF file: K6Y_assy_2.dxf
999
Pro/ENGINEER 2014200 by Parametric Technology Corporation
  0
SECTION
  2
HEADER
  9
$ACADVER
  1
AC1021
  9
$DWGCODEPAGE
  3
ANSI_1252
  9
$EXTMAX
 10
22.0
 20
17.0
 30
0.0
  9
$EXTMIN
 10
0.0
 20
0.0
 30
0.0
  9
$LIMMIN
 10
0.0
 20
0.0
  9
$LIMMAX
 10
22.0
 20
17.0
  9
$VIEWCTR
 10
11.0
 20
8.5
  9
$VIEWSIZE
 40
17.0
  9
$CLAYER
  8
0
  9
$LTSCALE
 40
1.21
  9
$CELTYPE
  6
BYLAYER
  9
$DIMSCALE
 40
1.0
  9
$DIMASZ
 40
0.1875
  9
$DIMEXO
 40
0.0625
  9
$DIMDLI
 40
0.836
  9
$DIMEXE
 40
0.125
  9
$DIMCEN
 40
0.198
  9
$DIMLFAC
 40
1.0
  9
$DIMBLK
  1
_FILLED
  9
$DIMTXT
 40
0.1
  9
$DIMTOL
 70
0
  9
$DIMLIM
 70
0
  9
$DIMTFAC
 40
1.0
  9
$DIMGAP
 40
0.09
  9
$DIMDSEP
 70
46
  9
$AUNITS
 70
0
  9
$PDMODE
 70
3
  9
$PDSIZE
 40
0.3125
  9
$HANDSEED
  5
3A5
  9
$TILEMODE
 70
1
  9
$MEASUREMENT
 70
0
  9
$INSUNITS
 70
1
  0
ENDSEC
  0
SECTION
  2
CLASSES
  0
CLASS
  1
ACDBDICTIONARYWDFLT
  2
AcDbDictionaryWithDefault
  3
AutoCAD 2000
 90
0
 91
1
280
0
281
0
  0
CLASS
  1
ACDBPLACEHOLDER
  2
AcDbPlaceHolder
  3
AutoCAD 2000
 90
0
 91
1
280
0
281
0
  0
CLASS
  1
LAYOUT
  2
AcDbLayout
  3
AutoCAD 2000
 90
0
 91
0
280
0
281
0
  0
CLASS
  1
RASTERVARIABLES
  2
AcDbRasterVariables
  3
ISM
 90
0
 91
1
280
0
281
0
  0
CLASS
  1
IMAGEDEF
  2
AcDbRasterImageDef
  3
ISM
 90
0
 91
1
280
0
281
0
  0
CLASS
  1
IMAGEDEF_REACTOR
  2
AcDbRasterImageDefReactor
  3
ISM
 90
0
 91
1
280
0
281
0
  0
CLASS
  1
IMAGE
  2
AcDbRasterImage
  3
ISM
 90
127
 91
1
280
0
281
1
  0
CLASS
  1
TABLESTYLE
  2
AcDbTableStyle
  3
ObjectDBX Classes
 90
2047
 91
1
280
0
281
0
  0
CLASS
  1
ACAD_TABLE
  2
AcDbTable
  3
ObjectDBX Classes
 90
1025
 91
3
280
0
281
1
  0
ENDSEC
  0
SECTION
  2
TABLES
  0
TABLE
  2
VPORT
  5
8
100
AcDbSymbolTable
 70
2
  0
VPORT
  5
1F4
100
AcDbSymbolTableRecord
100
AcDbViewportTableRecord
  2
*ACTIVE
 70
0
 10
0.0
 20
0.0
 11
1.0
 21
1.0
 12
11.0
 22
8.5
 13
0.0
 23
0.0
 14
1.0
 24
1.0
 15
0.0
 25
0.0
 16
0.0
 26
0.0
 36
1.0
 17
0.0
 27
0.0
 37
0.0
 40
17.0
 41
1.2941176471
 42
50.0
 43
0.0
 44
0.0
 50
0.0
 51
0.0
 71
0
 72
100
 73
1
 74
1
 75
0
 76
0
 77
0
 78
0
  0
ENDTAB
  0
TABLE
  2
LTYPE
  5
5
100
AcDbSymbolTable
 70
6
  0
LTYPE
  5
14
100
AcDbSymbolTableRecord
100
AcDbLinetypeTableRecord
  2
BYBLOCK
 70
0
  3

 72
65
 73
0
 40
0.0
  0
LTYPE
  5
15
100
AcDbSymbolTableRecord
100
AcDbLinetypeTableRecord
  2
BYLAYER
 70
0
  3

 72
65
 73
0
 40
0.0
  0
LTYPE
  5
16
100
AcDbSymbolTableRecord
100
AcDbLinetypeTableRecord
  2
CONTINUOUS
 70
64
  3
Solid line
 72
65
 73
0
 40
0.0
  0
LTYPE
  5
1F5
100
AcDbSymbolTableRecord
100
AcDbLinetypeTableRecord
  2
CENTER
 70
64
  3
____ _ ____ _ ____ _ ____ _ ____ _ ____ _ ____
 72
65
 73
4
 40
0.6
 49
0.375
 74
0
 49
-0.075
 74
0
 49
0.075
 74
0
 49
-0.075
 74
0
  0
LTYPE
  5
1F6
100
AcDbSymbolTableRecord
100
AcDbLinetypeTableRecord
  2
HIDDEN
 70
64
  3
- - - - - - - - - - - - - - - - - - - -
 72
65
 73
2
 40
0.2
 49
0.1
 74
0
 49
-0.1
 74
0
  0
LTYPE
  5
1F7
100
AcDbSymbolTableRecord
100
AcDbLinetypeTableRecord
  2
PHANTOM
 70
64
  3
_____ _ _ _____ _ _ _____ _ _ _____
 72
65
 73
6
 40
0.8
 49
0.45
 74
0
 49
-0.05
 74
0
 49
0.1
 74
0
 49
-0.05
 74
0
 49
0.1
 74
0
 49
-0.05
 74
0
  0
LTYPE
  5
1F8
100
AcDbSymbolTableRecord
100
AcDbLinetypeTableRecord
  2
DOT
 70
64
  3
. . . . . . . . . . . . . . . . . . . .
 72
65
 73
2
 40
0.2
 49
0.1
 74
0
 49
-0.1
 74
0
  0
LTYPE
  5
1F9
100
AcDbSymbolTableRecord
100
AcDbLinetypeTableRecord
  2
DASHED
 70
64
  3
- - - - - - - - - - - - - - - - - - - -
 72
65
 73
2
 40
0.2
 49
0.1
 74
0
 49
-0.1
 74
0
  0
ENDTAB
  0
TABLE
  2
LAYER
  5
2
100
AcDbSymbolTable
 70
36
  0
LAYER
  5
10
100
AcDbSymbolTableRecord
100
AcDbLayerTableRecord
  2
0
 70
0
 62
7
  6
CONTINUOUS
370
-3
390
F
  0
LAYER
  5
1FA
100
AcDbSymbolTableRecord
100
AcDbLayerTableRecord
  2
DEFAULT_1
 70
0
 62
7
  6
CENTER
370
-3
390
F
  0
LAYER
  5
1FB
100
AcDbSymbolTableRecord
100
AcDbLayerTableRecord
  2
DEFAULT_2
 70
0
 62
8
  6
HIDDEN
370
-3
390
F
  0
LAYER
  5
1FC
100
AcDbSymbolTableRecord
100
AcDbLayerTableRecord
  2
DEFAULT_3
 70
0
 62
7
  6
PHANTOM
370
-3
390
F
  0
LAYER
  5
1FD
100
AcDbSymbolTableRecord
100
AcDbLayerTableRecord
  2
01___PRT_ALL_DTM_PLN
 70
0
 62
7
  6
CONTINUOUS
370
-3
390
F
  0
LAYER
  5
1FE
100
AcDbSymbolTableRecord
100
AcDbLayerTableRecord
  2
01___PRT_DEF_DTM_PLN
 70
0
 62
7
  6
CONTINUOUS
370
-3
390
F
  0
LAYER
  5
1FF
100
AcDbSymbolTableRecord
100
AcDbLayerTableRecord
  2
02___PRT_ALL_AXES
 70
0
 62
7
  6
CONTINUOUS
370
-3
390
F
  0
LAYER
  5
200
100
AcDbSymbolTableRecord
100
AcDbLayerTableRecord
  2
03___PRT_ALL_CURVES
 70
0
 62
7
  6
CONTINUOUS
370
-3
390
F
  0
LAYER
  5
201
100
AcDbSymbolTableRecord
100
AcDbLayerTableRecord
  2
04___PRT_ALL_DTM_PNT
 70
0
 62
7
  6
CONTINUOUS
370
-3
390
F
  0
LAYER
  5
202
100
AcDbSymbolTableRecord
100
AcDbLayerTableRecord
  2
05___PRT_ALL_DTM_CSYS
 70
0
 62
7
  6
CONTINUOUS
370
-3
390
F
  0
LAYER
  5
203
100
AcDbSymbolTableRecord
100
AcDbLayerTableRecord
  2
05___PRT_DEF_DTM_CSYS
 70
0
 62
7
  6
CONTINUOUS
370
-3
390
F
  0
LAYER
  5
204
100
AcDbSymbolTableRecord
100
AcDbLayerTableRecord
  2
06___PRT_ALL_SURFS
 70
0
 62
7
  6
CONTINUOUS
370
-3
390
F
  0
LAYER
  5
205
100
AcDbSymbolTableRecord
100
AcDbLayerTableRecord
  2
DATUM_PLANES
 70
0
 62
7
  6
CONTINUOUS
370
-3
390
F
  0
LAYER
  5
206
100
AcDbSymbolTableRecord
100
AcDbLayerTableRecord
  2
PORT_AREAS
 70
0
 62
7
  6
CONTINUOUS
370
-3
390
F
  0
LAYER
  5
207
100
AcDbSymbolTableRecord
100
AcDbLayerTableRecord
  2
SUNNBOMCOSMETIC
 70
0
 62
7
  6
CONTINUOUS
370
-3
390
F
  0
LAYER
  5
208
100
AcDbSymbolTableRecord
100
AcDbLayerTableRecord
  2
SUNNBOMSTAMPING
 70
0
 62
7
  6
CONTINUOUS
370
-3
390
F
  0
LAYER
  5
209
100
AcDbSymbolTableRecord
100
AcDbLayerTableRecord
  2
THREADS
 70
0
 62
7
  6
CONTINUOUS
370
-3
390
F
  0
ENDTAB
  0
TABLE
  2
STYLE
  5
3
100
AcDbSymbolTable
 70
1
  0
STYLE
  5
11
100
AcDbSymbolTableRecord
100
AcDbTextStyleTableRecord
  2
STANDARD
 70
0
 40
0.0
 41
0.8
 50
0.0
 71
0
 42
0.2
  3
txt
  4

  0
STYLE
  5
20A
100
AcDbSymbolTableRecord
100
AcDbTextStyleTableRecord
  2
TEXTSTYLE_1
 70
0
 40
0.0
 41
0.8
 50
0.0
 71
0
 42
0.2
  3
gdt
  4

  0
ENDTAB
  0
TABLE
  2
VIEW
  5
6
100
AcDbSymbolTable
 70
0
  0
ENDTAB
  0
TABLE
  2
UCS
  5
7
100
AcDbSymbolTable
 70
0
  0
ENDTAB
  0
TABLE
  2
APPID
  5
9
100
AcDbSymbolTable
 70
1
  0
APPID
  5
20B
100
AcDbSymbolTableRecord
100
AcDbRegAppTableRecord
  2
ACAD
 70
0
  0
ENDTAB
  0
TABLE
  2
BLOCK_RECORD
  5
1
100
AcDbSymbolTable
 70
0
  0
BLOCK_RECORD
  5
20C
100
AcDbSymbolTableRecord
100
AcDbBlockTableRecord
  2
*Model_Space
  0
BLOCK_RECORD
  5
20D
100
AcDbSymbolTableRecord
100
AcDbBlockTableRecord
  2
*Paper_Space
  0
BLOCK_RECORD
  5
20E
100
AcDbSymbolTableRecord
100
AcDbBlockTableRecord
  2
SUN_FIRST_THIRD_ANGLE_BL0
  0
BLOCK_RECORD
  5
20F
100
AcDbSymbolTableRecord
100
AcDbBlockTableRecord
  2
*T1
  0
BLOCK_RECORD
  5
210
100
AcDbSymbolTableRecord
100
AcDbBlockTableRecord
  2
*T2
  0
BLOCK_RECORD
  5
211
100
AcDbSymbolTableRecord
100
AcDbBlockTableRecord
  2
*T3
  0
ENDTAB
  0
TABLE
  2
DIMSTYLE
  5
A
100
AcDbSymbolTable
 70
1
100
AcDbDimStyleTable
 71
0
  0
DIMSTYLE
105
212
100
AcDbSymbolTableRecord
100
AcDbDimStyleTableRecord
  2
STANDARD
 70
0
  3

  4

 40
1.0
 41
0.1875
 42
0.0625
 43
0.38
 44
0.125
 45
0.0
 46
0.0
 47
0.001
 48
0.001
140
0.1
141
0.09
142
0.0
143
25.4
144
1.0
145
0.0
146
1.0
147
0.09
 71
0.0
 72
0.0
 73
1
 74
1
 75
0
 76
0
 77
0
 78
4
170
0
171
2
172
0
173
0
174
0
175
0
176
0
177
0
178
0
270
2
271
3
272
3
273
2
274
2
275
0
280
0
281
0
282
0
283
1
284
4
285
0
286
0
287
3
288
0
340
11
278
46
  0
ENDTAB
  0
ENDSEC
  0
SECTION
  2
BLOCKS
  0
BLOCK
  5
20
100
AcDbEntity
  8
0
100
AcDbBlockBegin
  2
*Model_Space
 70
0
 10
0.0
 20
0.0
 30
0.0
  3
*Model_Space
  1

  0
ENDBLK
  5
21
100
AcDbEntity
  8
0
100
AcDbBlockEnd
  0
BLOCK
  5
1C
100
AcDbEntity
  8
0
100
AcDbBlockBegin
  2
*Paper_Space
 70
0
 10
0.0
 20
0.0
 30
0.0
  3
*Paper_Space
  1

  0
ENDBLK
  5
1D
100
AcDbEntity
  8
0
100
AcDbBlockEnd
  0
BLOCK
  5
213
100
AcDbEntity
  8
0
100
AcDbBlockBegin
 62
2
  6
CONTINUOUS
  2
SUN_FIRST_THIRD_ANGLE_BL0
 70
64
 10
20.4816717061
 20
1.2289683772
  3
SUN_FIRST_THIRD_ANGLE_BL0
  1

  0
TEXT
  5
214
100
AcDbEntity
  8
0
100
AcDbText
 62
2
  6
CONTINUOUS
 10
19.4750896608
 20
1.4136269581
  7
STANDARD
 40
0.08
  1
FIRST ANGLE
 41
0.8
 72
0
100
AcDbText
  0
TEXT
  5
215
100
AcDbEntity
  8
0
100
AcDbText
 62
2
  6
CONTINUOUS
 10
20.7842537513
 20
1.4047600029
  7
STANDARD
 40
0.08
  1
THIRD ANGLE
 41
0.8
 72
0
100
AcDbText
  0
LINE
  5
216
100
AcDbEntity
  8
0
100
AcDbLine
 62
7
  6
CONTINUOUS
 10
19.4767170086
 20
1.1727031207
 11
19.6334271527
 21
1.1717972817
  0
LINE
  5
217
100
AcDbEntity
  8
0
100
AcDbLine
 62
7
  6
CONTINUOUS
 10
19.6596964832
 20
1.1717972817
 11
19.6950230232
 21
1.171593082
  0
LINE
  5
218
100
AcDbEntity
  8
0
100
AcDbLine
 62
7
  6
CONTINUOUS
 10
19.7194818561
 20
1.1708914427
 11
19.8852396156
 21
1.1699333054
  0
LINE
  5
219
100
AcDbEntity
  8
0
100
AcDbLine
 62
7
  6
CONTINUOUS
 10
19.4758111696
 20
1.2723454088
 11
19.88525039
 21
1.3511534004
  0
LINE
  5
21A
100
AcDbEntity
  8
0
100
AcDbLine
 62
7
  6
CONTINUOUS
 10
19.88525039
 20
1.3511534004
 11
19.8831348489
 21
0.9851647912
  0
LINE
  5
21B
100
AcDbEntity
  8
0
100
AcDbLine
 62
7
  6
CONTINUOUS
 10
19.8831348489
 20
0.9851647912
 11
19.4767170086
 21
1.0658141206
  0
LINE
  5
21C
100
AcDbEntity
  8
0
100
AcDbLine
 62
7
  6
CONTINUOUS
 10
19.4767170086
 20
1.0658141206
 11
19.4779056764
 21
1.2714536432
  0
CIRCLE
  5
21D
100
AcDbEntity
  8
0
100
AcDbCircle
 62
7
  6
CONTINUOUS
 10
20.2068232291
 20
1.1717972817
 40
0.175742101
  0
CIRCLE
  5
21E
100
AcDbEntity
  8
0
100
AcDbCircle
 62
7
  6
CONTINUOUS
 10
20.2068232291
 20
1.1717972817
 40
0.1005522074
  0
LINE
  5
21F
100
AcDbEntity
  8
0
100
AcDbLine
 62
7
  6
CONTINUOUS
 10
20.2077290681
 20
1.3756110529
 11
20.2071171714
 21
1.2379342989
  0
LINE
  5
220
100
AcDbEntity
  8
0
100
AcDbLine
 62
7
  6
CONTINUOUS
 10
20.2077290681
 20
1.2016899681
 11
20.2074674401
 21
1.1428236749
  0
LINE
  5
221
100
AcDbEntity
  8
0
100
AcDbLine
 62
7
  6
CONTINUOUS
 10
20.208634907
 20
1.101141841
 11
20.2080230104
 21
0.963465087
  0
LINE
  5
222
100
AcDbEntity
  8
0
100
AcDbLine
 62
7
  6
CONTINUOUS
 10
20.0066328138
 20
1.1745147986
 11
20.1443095678
 21
1.1739029019
  0
LINE
  5
223
100
AcDbEntity
  8
0
100
AcDbLine
 62
7
  6
CONTINUOUS
 10
20.1832714155
 20
1.1727031207
 11
20.238153505
 21
1.172335442
  0
LINE
  5
224
100
AcDbEntity
  8
0
100
AcDbLine
 62
7
  6
CONTINUOUS
 10
20.2756669918
 20
1.1717972817
 11
20.407916871
 21
1.1712095044
  0
CIRCLE
  5
225
100
AcDbEntity
  8
0
100
AcDbCircle
 62
7
  6
CONTINUOUS
 10
20.7509457401
 20
1.1693297793
 40
0.1722024983
  0
CIRCLE
  5
226
100
AcDbEntity
  8
0
100
AcDbCircle
 62
7
  6
CONTINUOUS
 10
20.7509457401
 20
1.1693297793
 40
0.0985164967
  0
LINE
  5
227
100
AcDbEntity
  8
0
100
AcDbLine
 62
7
  6
CONTINUOUS
 10
20.7169767782
 20
1.170462078
 11
20.7825395137
 21
1.1682766535
  0
LINE
  5
228
100
AcDbEntity
  8
0
100
AcDbLine
 62
7
  6
CONTINUOUS
 10
20.8177513651
 20
1.1693297793
 11
20.947965719
 21
1.1693297793
  0
LINE
  5
229
100
AcDbEntity
  8
0
100
AcDbLine
 62
7
  6
CONTINUOUS
 10
20.6875370113
 20
1.170462078
 11
20.5573226574
 21
1.170462078
  0
LINE
  5
22A
100
AcDbEntity
  8
0
100
AcDbLine
 62
7
  6
CONTINUOUS
 10
20.7486811426
 20
1.1987695462
 11
20.7486811426
 21
1.1432869085
  0
LINE
  5
22B
100
AcDbEntity
  8
0
100
AcDbLine
 62
7
  6
CONTINUOUS
 10
20.7498134414
 20
1.1059210505
 11
20.7498134414
 21
0.9757066966
  0
LINE
  5
22C
100
AcDbEntity
  8
0
100
AcDbLine
 62
7
  6
CONTINUOUS
 10
20.7486811426
 20
1.2338708068
 11
20.7486811426
 21
1.3640851607
  0
LINE
  5
22D
100
AcDbEntity
  8
0
100
AcDbLine
 62
7
  6
CONTINUOUS
 10
21.0702539817
 20
1.2701043662
 11
21.4790138229
 21
1.3448360823
  0
LINE
  5
22E
100
AcDbEntity
  8
0
100
AcDbLine
 62
7
  6
CONTINUOUS
 10
21.4790138229
 20
1.3448360823
 11
21.4790138229
 21
0.9779712941
  0
LINE
  5
22F
100
AcDbEntity
  8
0
100
AcDbLine
 62
7
  6
CONTINUOUS
 10
21.4790138229
 20
0.9779712941
 11
21.069121683
 21
1.0617614
  0
LINE
  5
230
100
AcDbEntity
  8
0
100
AcDbLine
 62
7
  6
CONTINUOUS
 10
21.0702539817
 20
1.2701043662
 11
21.069121683
 21
1.0617614
  0
LINE
  5
231
100
AcDbEntity
  8
0
100
AcDbLine
 62
7
  6
CONTINUOUS
 10
21.4790138229
 20
1.1693297793
 11
21.3159628059
 21
1.1693297793
  0
LINE
  5
232
100
AcDbEntity
  8
0
100
AcDbLine
 62
7
  6
CONTINUOUS
 10
21.2876553377
 20
1.1693297793
 11
21.2502894796
 21
1.1693297793
  0
LINE
  5
233
100
AcDbEntity
  8
0
100
AcDbLine
 62
7
  6
CONTINUOUS
 10
21.2208497126
 20
1.1659328831
 11
21.0713862804
 21
1.1659328831
  0
LINE
  5
234
100
AcDbEntity
  8
0
100
AcDbLine
 62
7
  6
CONTINUOUS
 10
20.4796138713
 20
1.5284908897
 11
20.4766766948
 21
0.9294458646
  0
ENDBLK
  5
235
100
AcDbEntity
  8
0
  6
BYBLOCK
 62
0
100
AcDbBlockEnd
  0
BLOCK
  5
236
100
AcDbEntity
  8
0
100
AcDbBlockBegin
  2
*T1
 70
1
 10
0.0
 20
0.0
  3
*T1
  1

  0
LINE
  5
237
100
AcDbEntity
  8
0
100
AcDbLine
 62
2
  6
CONTINUOUS
 10
9.275
 20
0.0
 11
-0.0
 21
0.0
  0
LINE
  5
238
100
AcDbEntity
  8
0
100
AcDbLine
 62
2
  6
CONTINUOUS
 10
9.275
 20
0.0
 11
9.275
 21
1.25
  0
LINE
  5
239
100
AcDbEntity
  8
0
100
AcDbLine
 62
2
  6
CONTINUOUS
 10
9.275
 20
0.625
 11
-0.0
 21
0.625
  0
LINE
  5
23A
100
AcDbEntity
  8
0
100
AcDbLine
 62
2
  6
CONTINUOUS
 10
9.275
 20
1.25
 11
-0.0
 21
1.25
  0
LINE
  5
23B
100
AcDbEntity
  8
0
100
AcDbLine
 62
2
  6
CONTINUOUS
 10
6.8
 20
0.0
 11
6.8
 21
1.25
  0
LINE
  5
23C
100
AcDbEntity
  8
0
100
AcDbLine
 62
2
  6
CONTINUOUS
 10
6.4
 20
0.0
 11
6.4
 21
0.625
  0
LINE
  5
23D
100
AcDbEntity
  8
0
100
AcDbLine
 62
2
  6
CONTINUOUS
 10
5.9
 20
0.0
 11
5.9
 21
0.625
  0
LINE
  5
23E
100
AcDbEntity
  8
0
100
AcDbLine
 62
2
  6
CONTINUOUS
 10
5.2
 20
0.0
 11
5.2
 21
0.625
  0
LINE
  5
23F
100
AcDbEntity
  8
0
100
AcDbLine
 62
2
  6
CONTINUOUS
 10
4.1
 20
0.0
 11
4.1
 21
1.25
  0
LINE
  5
240
100
AcDbEntity
  8
0
100
AcDbLine
 62
2
  6
CONTINUOUS
 10
-0.0
 20
0.0
 11
-0.0
 21
1.25
  0
MTEXT
  5
241
100
AcDbEntity
  8
0
100
AcDbMText
 62
2
  6
CONTINUOUS
  7
STANDARD
 71
2
 72
1
 10
6.6
 20
0.325
 30
0.0
 11
1.0
 21
0.0
 31
0.0
 44
0.9
  1
2
 40
0.125
 41
0.2
  0
MTEXT
  5
242
100
AcDbEntity
  8
0
100
AcDbMText
 62
2
  6
CONTINUOUS
  7
STANDARD
 71
2
 72
1
 10
6.15
 20
0.325
 30
0.0
 11
1.0
 21
0.0
 31
0.0
 44
0.9
  1
C
 40
0.125
 41
0.2
  0
MTEXT
  5
243
100
AcDbEntity
  8
0
100
AcDbMText
 62
2
  6
CONTINUOUS
  7
STANDARD
 71
2
 72
1
 10
5.55
 20
0.325
 30
0.0
 11
1.0
 21
0.0
 31
0.0
 44
0.9
  1
0.900
 40
0.125
 41
1.0
  0
MTEXT
  5
244
100
AcDbEntity
  8
0
100
AcDbMText
 62
2
  6
CONTINUOUS
  7
STANDARD
 71
2
 72
1
 10
4.65
 20
0.325
 30
0.0
 11
1.0
 21
0.0
 31
0.0
 44
0.9
  1
Jan-29-20
 40
0.125
 41
1.8
  0
MTEXT
  5
245
100
AcDbEntity
  8
0
100
AcDbMText
 62
2
  6
CONTINUOUS
  7
STANDARD
 71
2
 72
1
 10
2.05
 20
0.4625
 30
0.0
 11
1.0
 21
0.0
 31
0.0
 44
0.9
  1
T-19A Line mount\P(See Technical Data for Body Features)
 40
0.125
 41
7.6
  0
MTEXT
  5
246
100
AcDbEntity
  8
0
100
AcDbMText
 62
2
  6
CONTINUOUS
  7
STANDARD
 71
1
 72
1
 10
6.45
 20
0.5625
 30
0.0
 11
1.0
 21
0.0
 31
0.0
 44
0.9
  1
SHEET
 40
0.06
 41
0.48
  0
MTEXT
  5
247
100
AcDbEntity
  8
0
100
AcDbMText
 62
2
  6
CONTINUOUS
  7
STANDARD
 71
1
 72
1
 10
5.95
 20
0.5625
 30
0.0
 11
1.0
 21
0.0
 31
0.0
 44
0.9
  1
DWG SIZE
 40
0.06
 41
0.768
  0
MTEXT
  5
248
100
AcDbEntity
  8
0
100
AcDbMText
 62
2
  6
CONTINUOUS
  7
STANDARD
 71
1
 72
1
 10
5.25
 20
0.5625
 30
0.0
 11
1.0
 21
0.0
 31
0.0
 44
0.9
  1
SCALE
 40
0.06
 41
0.48
  0
MTEXT
  5
249
100
AcDbEntity
  8
0
100
AcDbMText
 62
2
  6
CONTINUOUS
  7
STANDARD
 71
1
 72
1
 10
4.15
 20
0.5625
 30
0.0
 11
1.0
 21
0.0
 31
0.0
 44
0.9
  1
DATE
 40
0.06
 41
0.384
  0
MTEXT
  5
24A
100
AcDbEntity
  8
0
100
AcDbMText
 62
2
  6
CONTINUOUS
  7
STANDARD
 71
1
 72
1
 10
0.05
 20
0.5625
 30
0.0
 11
1.0
 21
0.0
 31
0.0
 44
0.9
  1
DESCRIPTION
 40
0.06
 41
1.056
  0
MTEXT
  5
24B
100
AcDbEntity
  8
0
100
AcDbMText
 62
2
  6
CONTINUOUS
  7
STANDARD
 71
2
 72
1
 10
5.45
 20
1.0375
 30
0.0
 11
1.0
 21
0.0
 31
0.0
 44
0.9
  1
ALL DIMENSIONS IN INCH\PVIEWS ARE THIRD ANGLE
 40
0.12
 41
4.224
  0
MTEXT
  5
24C
100
AcDbEntity
  8
0
100
AcDbMText
 62
2
  6
CONTINUOUS
  7
STANDARD
 71
2
 72
1
 10
2.05
 20
0.95
 30
0.0
 11
1.0
 21
0.0
 31
0.0
 44
0.9
  1
K6Y
 40
0.125
 41
0.6
  0
MTEXT
  5
24D
100
AcDbEntity
  8
0
100
AcDbMText
 62
2
  6
CONTINUOUS
  7
STANDARD
 71
1
 72
1
 10
0.05
 20
1.1875
 30
0.0
 11
1.0
 21
0.0
 31
0.0
 44
0.9
  1
MODEL
 40
0.06
 41
0.48
  0
ENDBLK
  5
24E
100
AcDbEntity
  8
0
  6
BYBLOCK
 62
0
100
AcDbBlockEnd
  0
BLOCK
  5
24F
100
AcDbEntity
  8
0
100
AcDbBlockBegin
  2
*T2
 70
1
 10
0.0
 20
0.0
  3
*T2
  1

  0
LINE
  5
250
100
AcDbEntity
  8
0
100
AcDbLine
 62
2
  6
CONTINUOUS
 10
0.0
 20
0.0
 11
9.055
 21
0.0
  0
LINE
  5
251
100
AcDbEntity
  8
0
100
AcDbLine
 62
2
  6
CONTINUOUS
 10
0.0
 20
0.0
 11
0.0
 21
-2.844
  0
LINE
  5
252
100
AcDbEntity
  8
0
100
AcDbLine
 62
2
  6
CONTINUOUS
 10
0.0
 20
-0.344
 11
9.055
 21
-0.344
  0
LINE
  5
253
100
AcDbEntity
  8
0
100
AcDbLine
 62
2
  6
CONTINUOUS
 10
0.0
 20
-0.594
 11
9.055
 21
-0.594
  0
LINE
  5
254
100
AcDbEntity
  8
0
100
AcDbLine
 62
2
  6
CONTINUOUS
 10
0.0
 20
-0.844
 11
9.055
 21
-0.844
  0
LINE
  5
255
100
AcDbEntity
  8
0
100
AcDbLine
 62
2
  6
CONTINUOUS
 10
0.0
 20
-1.094
 11
9.055
 21
-1.094
  0
LINE
  5
256
100
AcDbEntity
  8
0
100
AcDbLine
 62
2
  6
CONTINUOUS
 10
0.0
 20
-1.344
 11
9.055
 21
-1.344
  0
LINE
  5
257
100
AcDbEntity
  8
0
100
AcDbLine
 62
2
  6
CONTINUOUS
 10
0.0
 20
-1.594
 11
9.055
 21
-1.594
  0
LINE
  5
258
100
AcDbEntity
  8
0
100
AcDbLine
 62
2
  6
CONTINUOUS
 10
0.0
 20
-1.844
 11
9.055
 21
-1.844
  0
LINE
  5
259
100
AcDbEntity
  8
0
100
AcDbLine
 62
2
  6
CONTINUOUS
 10
0.0
 20
-2.094
 11
9.055
 21
-2.094
  0
LINE
  5
25A
100
AcDbEntity
  8
0
100
AcDbLine
 62
2
  6
CONTINUOUS
 10
0.0
 20
-2.344
 11
9.055
 21
-2.344
  0
LINE
  5
25B
100
AcDbEntity
  8
0
100
AcDbLine
 62
2
  6
CONTINUOUS
 10
0.0
 20
-2.594
 11
9.055
 21
-2.594
  0
LINE
  5
25C
100
AcDbEntity
  8
0
100
AcDbLine
 62
2
  6
CONTINUOUS
 10
0.0
 20
-2.844
 11
9.055
 21
-2.844
  0
LINE
  5
25D
100
AcDbEntity
  8
0
100
AcDbLine
 62
2
  6
CONTINUOUS
 10
3.055
 20
0.0
 11
3.055
 21
-2.844
  0
LINE
  5
25E
100
AcDbEntity
  8
0
100
AcDbLine
 62
2
  6
CONTINUOUS
 10
9.055
 20
0.0
 11
9.055
 21
-2.844
  0
MTEXT
  5
25F
100
AcDbEntity
  8
0
100
AcDbMText
 62
2
  6
CONTINUOUS
  7
STANDARD
 71
2
 72
1
 10
1.5275
 20
-0.0995
 30
0.0
 11
1.0
 21
0.0
 31
0.0
 44
0.9
  1
Technical Data
 40
0.145
 41
3.248
  0
MTEXT
  5
260
100
AcDbEntity
  8
0
100
AcDbMText
 62
2
  6
CONTINUOUS
  7
STANDARD
 71
2
 72
1
 10
4.555
 20
-0.0995
 30
0.0
 11
1.0
 21
0.0
 31
0.0
 44
0.9
  1
U.S. Units
 40
0.145
 41
2.32
  0
MTEXT
  5
261
100
AcDbEntity
  8
0
100
AcDbMText
 62
2
  6
CONTINUOUS
  7
STANDARD
 71
2
 72
1
 10
7.555
 20
-0.0995
 30
0.0
 11
1.0
 21
0.0
 31
0.0
 44
0.9
  1
Metric Units
 40
0.145
 41
2.784
  0
MTEXT
  5
262
100
AcDbEntity
  8
0
100
AcDbMText
 62
2
  6
CONTINUOUS
  7
STANDARD
 71
2
 72
1
 10
1.5275
 20
-0.4065
 30
0.0
 11
1.0
 21
0.0
 31
0.0
 44
0.9
  1
Cavity
 40
0.125
 41
1.2
  0
MTEXT
  5
263
100
AcDbEntity
  8
0
100
AcDbMText
 62
2
  6
CONTINUOUS
  7
STANDARD
 71
2
 72
1
 10
6.055
 20
-0.4065
 30
0.0
 11
1.0
 21
0.0
 31
0.0
 44
0.9
  1
T-19A
 40
0.125
 41
1.0
  0
MTEXT
  5
264
100
AcDbEntity
  8
0
100
AcDbMText
 62
2
  6
CONTINUOUS
  7
STANDARD
 71
2
 72
1
 10
1.5275
 20
-0.6565
 30
0.0
 11
1.0
 21
0.0
 31
0.0
 44
0.9
  1
Body Features
 40
0.125
 41
2.6
  0
MTEXT
  5
265
100
AcDbEntity
  8
0
100
AcDbMText
 62
2
  6
CONTINUOUS
  7
STANDARD
 71
2
 72
1
 10
6.055
 20
-0.6565
 30
0.0
 11
1.0
 21
0.0
 31
0.0
 44
0.9
  1
Ninety degree with reverse flow check - sequence
 40
0.125
 41
9.6
  0
MTEXT
  5
266
100
AcDbEntity
  8
0
100
AcDbMText
 62
2
  6
CONTINUOUS
  7
STANDARD
 71
2
 72
1
 10
1.5275
 20
-0.9065
 30
0.0
 11
1.0
 21
0.0
 31
0.0
 44
0.9
  1
Body Type
 40
0.125
 41
1.8
  0
MTEXT
  5
267
100
AcDbEntity
  8
0
100
AcDbMText
 62
2
  6
CONTINUOUS
  7
STANDARD
 71
2
 72
1
 10
6.055
 20
-0.9065
 30
0.0
 11
1.0
 21
0.0
 31
0.0
 44
0.9
  1
Line mount
 40
0.125
 41
2.0
  0
MTEXT
  5
268
100
AcDbEntity
  8
0
100
AcDbMText
 62
2
  6
CONTINUOUS
  7
STANDARD
 71
2
 72
1
 10
1.5275
 20
-1.1565
 30
0.0
 11
1.0
 21
0.0
 31
0.0
 44
0.9
  1
Interface
 40
0.125
 41
1.8
  0
MTEXT
  5
269
100
AcDbEntity
  8
0
100
AcDbMText
 62
2
  6
CONTINUOUS
  7
STANDARD
 71
2
 72
1
 10
6.055
 20
-1.1565
 30
0.0
 11
1.0
 21
0.0
 31
0.0
 44
0.9
  1
None
 40
0.125
 41
0.8
  0
MTEXT
  5
26A
100
AcDbEntity
  8
0
100
AcDbMText
 62
2
  6
CONTINUOUS
  7
STANDARD
 71
2
 72
1
 10
1.5275
 20
-1.4065
 30
0.0
 11
1.0
 21
0.0
 31
0.0
 44
0.9
  1
Open Cavity Quantity
 40
0.125
 41
4.0
  0
MTEXT
  5
26B
100
AcDbEntity
  8
0
100
AcDbMText
 62
2
  6
CONTINUOUS
  7
STANDARD
 71
2
 72
1
 10
6.055
 20
-1.4065
 30
0.0
 11
1.0
 21
0.0
 31
0.0
 44
0.9
  1
1
 40
0.125
 41
0.2
  0
MTEXT
  5
26C
100
AcDbEntity
  8
0
100
AcDbMText
 62
2
  6
CONTINUOUS
  7
STANDARD
 71
2
 72
1
 10
1.5275
 20
-1.6565
 30
0.0
 11
1.0
 21
0.0
 31
0.0
 44
0.9
  1
Weight
 40
0.125
 41
1.2
  0
MTEXT
  5
26D
100
AcDbEntity
  8
0
100
AcDbMText
 62
2
  6
CONTINUOUS
  7
STANDARD
 71
2
 72
1
 10
4.555
 20
-1.6565
 30
0.0
 11
1.0
 21
0.0
 31
0.0
 44
0.9
  1
11.315 lb.
 40
0.125
 41
2.0
  0
MTEXT
  5
26E
100
AcDbEntity
  8
0
100
AcDbMText
 62
2
  6
CONTINUOUS
  7
STANDARD
 71
2
 72
1
 10
7.555
 20
-1.6565
 30
0.0
 11
1.0
 21
0.0
 31
0.0
 44
0.9
  1
5,132 kg.
 40
0.125
 41
1.8
  0
MTEXT
  5
26F
100
AcDbEntity
  8
0
100
AcDbMText
 62
2
  6
CONTINUOUS
  7
STANDARD
 71
2
 72
1
 10
1.5275
 20
-1.9065
 30
0.0
 11
1.0
 21
0.0
 31
0.0
 44
0.9
  1
Check Cracking Pressure
 40
0.125
 41
4.6
  0
MTEXT
  5
270
100
AcDbEntity
  8
0
100
AcDbMText
 62
2
  6
CONTINUOUS
  7
STANDARD
 71
2
 72
1
 10
4.555
 20
-1.9065
 30
0.0
 11
1.0
 21
0.0
 31
0.0
 44
0.9
  1
30 psi
 40
0.125
 41
1.2
  0
MTEXT
  5
271
100
AcDbEntity
  8
0
100
AcDbMText
 62
2
  6
CONTINUOUS
  7
STANDARD
 71
2
 72
1
 10
7.555
 20
-1.9065
 30
0.0
 11
1.0
 21
0.0
 31
0.0
 44
0.9
  1
2 bar
 40
0.125
 41
1.0
  0
MTEXT
  5
272
100
AcDbEntity
  8
0
100
AcDbMText
 62
2
  6
CONTINUOUS
  7
STANDARD
 71
2
 72
1
 10
1.5275
 20
-2.1565
 30
0.0
 11
1.0
 21
0.0
 31
0.0
 44
0.9
  1
Mounting Hole Diameter
 40
0.125
 41
4.4
  0
MTEXT
  5
273
100
AcDbEntity
  8
0
100
AcDbMText
 62
2
  6
CONTINUOUS
  7
STANDARD
 71
2
 72
1
 10
4.555
 20
-2.1565
 30
0.0
 11
1.0
 21
0.0
 31
0.0
 44
0.9
  1
.41 in.
 40
0.125
 41
1.4
  0
MTEXT
  5
274
100
AcDbEntity
  8
0
100
AcDbMText
 62
2
  6
CONTINUOUS
  7
STANDARD
 71
2
 72
1
 10
7.555
 20
-2.1565
 30
0.0
 11
1.0
 21
0.0
 31
0.0
 44
0.9
  1
10,4 mm
 40
0.125
 41
1.4
  0
MTEXT
  5
275
100
AcDbEntity
  8
0
100
AcDbMText
 62
2
  6
CONTINUOUS
  7
STANDARD
 71
2
 72
1
 10
1.5275
 20
-2.4065
 30
0.0
 11
1.0
 21
0.0
 31
0.0
 44
0.9
  1
Mounting Hole Depth
 40
0.125
 41
3.8
  0
MTEXT
  5
276
100
AcDbEntity
  8
0
100
AcDbMText
 62
2
  6
CONTINUOUS
  7
STANDARD
 71
2
 72
1
 10
6.055
 20
-2.4065
 30
0.0
 11
1.0
 21
0.0
 31
0.0
 44
0.9
  1
Through
 40
0.125
 41
1.4
  0
MTEXT
  5
277
100
AcDbEntity
  8
0
100
AcDbMText
 62
2
  6
CONTINUOUS
  7
STANDARD
 71
2
 72
1
 10
1.5275
 20
-2.6565
 30
0.0
 11
1.0
 21
0.0
 31
0.0
 44
0.9
  1
Mounting Hole Quantity
 40
0.125
 41
4.4
  0
MTEXT
  5
278
100
AcDbEntity
  8
0
100
AcDbMText
 62
2
  6
CONTINUOUS
  7
STANDARD
 71
2
 72
1
 10
6.055
 20
-2.6565
 30
0.0
 11
1.0
 21
0.0
 31
0.0
 44
0.9
  1
2
 40
0.125
 41
0.2
  0
ENDBLK
  5
279
100
AcDbEntity
  8
0
  6
BYBLOCK
 62
0
100
AcDbBlockEnd
  0
BLOCK
  5
27A
100
AcDbEntity
  8
0
100
AcDbBlockBegin
  2
*T3
 70
1
 10
0.0
 20
0.0
  3
*T3
  1

  0
LINE
  5
27B
100
AcDbEntity
  8
0
100
AcDbLine
 62
2
  6
CONTINUOUS
 10
0.0
 20
0.0
 11
4.6
 21
0.0
  0
LINE
  5
27C
100
AcDbEntity
  8
0
100
AcDbLine
 62
2
  6
CONTINUOUS
 10
0.0
 20
0.0
 11
0.0
 21
-1.43775
  0
LINE
  5
27D
100
AcDbEntity
  8
0
100
AcDbLine
 62
2
  6
CONTINUOUS
 10
0.0
 20
-0.34375
 11
4.6
 21
-0.34375
  0
LINE
  5
27E
100
AcDbEntity
  8
0
100
AcDbLine
 62
2
  6
CONTINUOUS
 10
0.0
 20
-0.68775
 11
4.6
 21
-0.68775
  0
LINE
  5
27F
100
AcDbEntity
  8
0
100
AcDbLine
 62
2
  6
CONTINUOUS
 10
0.0
 20
-0.93775
 11
4.6
 21
-0.93775
  0
LINE
  5
280
100
AcDbEntity
  8
0
100
AcDbLine
 62
2
  6
CONTINUOUS
 10
0.0
 20
-1.18775
 11
4.6
 21
-1.18775
  0
LINE
  5
281
100
AcDbEntity
  8
0
100
AcDbLine
 62
2
  6
CONTINUOUS
 10
0.0
 20
-1.43775
 11
4.6
 21
-1.43775
  0
LINE
  5
282
100
AcDbEntity
  8
0
100
AcDbLine
 62
2
  6
CONTINUOUS
 10
1.3
 20
-0.34375
 11
1.3
 21
-1.43775
  0
LINE
  5
283
100
AcDbEntity
  8
0
100
AcDbLine
 62
2
  6
CONTINUOUS
 10
3.3
 20
-0.34375
 11
3.3
 21
-1.43775
  0
LINE
  5
284
100
AcDbEntity
  8
0
100
AcDbLine
 62
2
  6
CONTINUOUS
 10
4.6
 20
0.0
 11
4.6
 21
-1.43775
  0
MTEXT
  5
285
100
AcDbEntity
  8
0
100
AcDbMText
 62
2
  6
CONTINUOUS
  7
STANDARD
 71
2
 72
1
 10
2.3
 20
-0.099375
 30
0.0
 11
1.0
 21
0.0
 31
0.0
 44
0.9
  1
Port Headings
 40
0.145
 41
3.016
  0
MTEXT
  5
286
100
AcDbEntity
  8
0
100
AcDbMText
 62
2
  6
CONTINUOUS
  7
STANDARD
 71
2
 72
1
 10
0.65
 20
-0.44325
 30
0.0
 11
1.0
 21
0.0
 31
0.0
 44
0.9
  1
Product
 40
0.145
 41
1.624
  0
MTEXT
  5
287
100
AcDbEntity
  8
0
100
AcDbMText
 62
2
  6
CONTINUOUS
  7
STANDARD
 71
2
 72
1
 10
2.3
 20
-0.44325
 30
0.0
 11
1.0
 21
0.0
 31
0.0
 44
0.9
  1
Port
 40
0.145
 41
0.928
  0
MTEXT
  5
288
100
AcDbEntity
  8
0
100
AcDbMText
 62
2
  6
CONTINUOUS
  7
STANDARD
 71
2
 72
1
 10
3.95
 20
-0.44325
 30
0.0
 11
1.0
 21
0.0
 31
0.0
 44
0.9
  1
Size
 40
0.145
 41
0.928
  0
MTEXT
  5
289
100
AcDbEntity
  8
0
100
AcDbMText
 62
2
  6
CONTINUOUS
  7
STANDARD
 71
2
 72
1
 10
0.65
 20
-0.75025
 30
0.0
 11
1.0
 21
0.0
 31
0.0
 44
0.9
  1
K6Y
 40
0.125
 41
0.6
  0
MTEXT
  5
28A
100
AcDbEntity
  8
0
100
AcDbMText
 62
2
  6
CONTINUOUS
  7
STANDARD
 71
2
 72
1
 10
2.3
 20
-0.75025
 30
0.0
 11
1.0
 21
0.0
 31
0.0
 44
0.9
  1
Ports 1 &  2
 40
0.125
 41
2.4
  0
MTEXT
  5
28B
100
AcDbEntity
  8
0
100
AcDbMText
 62
2
  6
CONTINUOUS
  7
STANDARD
 71
2
 72
1
 10
3.95
 20
-0.75025
 30
0.0
 11
1.0
 21
0.0
 31
0.0
 44
0.9
  1
1 1/4" BSPP
 40
0.125
 41
2.2
  0
MTEXT
  5
28C
100
AcDbEntity
  8
0
100
AcDbMText
 62
2
  6
CONTINUOUS
  7
STANDARD
 71
2
 72
1
 10
0.65
 20
-1.00025
 30
0.0
 11
1.0
 21
0.0
 31
0.0
 44
0.9
  1
K6Y
 40
0.125
 41
0.6
  0
MTEXT
  5
28D
100
AcDbEntity
  8
0
100
AcDbMText
 62
2
  6
CONTINUOUS
  7
STANDARD
 71
2
 72
1
 10
2.3
 20
-1.00025
 30
0.0
 11
1.0
 21
0.0
 31
0.0
 44
0.9
  1
Port 3
 40
0.125
 41
1.2
  0
MTEXT
  5
28E
100
AcDbEntity
  8
0
100
AcDbMText
 62
2
  6
CONTINUOUS
  7
STANDARD
 71
2
 72
1
 10
3.95
 20
-1.00025
 30
0.0
 11
1.0
 21
0.0
 31
0.0
 44
0.9
  1
1/4" BSPP
 40
0.125
 41
1.8
  0
MTEXT
  5
28F
100
AcDbEntity
  8
0
100
AcDbMText
 62
2
  6
CONTINUOUS
  7
STANDARD
 71
2
 72
1
 10
0.65
 20
-1.25025
 30
0.0
 11
1.0
 21
0.0
 31
0.0
 44
0.9
  1
K6Y
 40
0.125
 41
0.6
  0
MTEXT
  5
290
100
AcDbEntity
  8
0
100
AcDbMText
 62
2
  6
CONTINUOUS
  7
STANDARD
 71
2
 72
1
 10
2.3
 20
-1.25025
 30
0.0
 11
1.0
 21
0.0
 31
0.0
 44
0.9
  1
Gage Port
 40
0.125
 41
1.8
  0
MTEXT
  5
291
100
AcDbEntity
  8
0
100
AcDbMText
 62
2
  6
CONTINUOUS
  7
STANDARD
 71
2
 72
1
 10
3.95
 20
-1.25025
 30
0.0
 11
1.0
 21
0.0
 31
0.0
 44
0.9
  1
1/4" BSPP
 40
0.125
 41
1.8
  0
ENDBLK
  5
292
100
AcDbEntity
  8
0
  6
BYBLOCK
 62
0
100
AcDbBlockEnd
  0
ENDSEC
  0
SECTION
  2
ENTITIES
  0
IMAGE
  5
293
100
AcDbEntity
  8
0
100
AcDbRasterImage
 62
7
  6
CONTINUOUS
 10
19.2297077316
 20
0.3094318264
 30
0.0
 11
0.0066666667
 21
0.0
 31
0.0
 12
0.0
 22
0.0066666667
 32
0.0
 13
369.0
 23
92.0
340
       3A2
 70
9
280
0
281
50
282
50
283
0
360
       39C
 71
1
 91
2
 14
-0.5
 24
-0.5
 14
368.5
 24
91.5
  0
INSERT
  5
294
100
AcDbEntity
  8
0
100
AcDbBlockReference
 62
2
  6
CONTINUOUS
  2
SUN_FIRST_THIRD_ANGLE_BL0
 10
20.4816717061
 20
1.2289683772
  0
ACAD_TABLE
  5
295
100
AcDbEntity
  8
0
 62
2
  6
CONTINUOUS
100
AcDbBlockReference
  2
*T1
 10
12.42375
 20
0.30125
 30
0.0
100
AcDbTable
342
       3A4
343
20F
 11
1.0
 21
0.0
 31
0.0
 90
6
 91
4
 92
6
 93
20
 94
0
 95
0
 96
0
 70
1
 41
0.0
141
0.525
141
0.1
141
0.525
141
0.1
142
4.1
142
1.1
142
0.7
142
0.5
142
0.4
142
2.475
171
1
172
0
173
0
174
0
175
1
176
1
 91
33
178
0
145
0.0
301
CELL_VALUE
 90
4
  1
T-19A Line mount\P(See Technical Data for Body Features)
304
ACVALUE_END
170
2
140
0.125
171
1
172
0
173
0
174
0
175
1
176
1
 91
33
178
0
145
0.0
301
CELL_VALUE
 90
4
  1
Jan-29-20
304
ACVALUE_END
170
5
140
0.125
171
1
172
0
173
0
174
0
175
1
176
1
 91
33
178
0
145
0.0
301
CELL_VALUE
 90
4
  1
0.900
304
ACVALUE_END
170
5
140
0.125
171
1
172
0
173
0
174
0
175
1
176
1
 91
33
178
0
145
0.0
301
CELL_VALUE
 90
4
  1
C
304
ACVALUE_END
170
5
140
0.125
171
1
172
0
173
0
174
0
175
1
176
1
 91
33
178
0
145
0.0
301
CELL_VALUE
 90
4
  1
2
304
ACVALUE_END
170
5
140
0.125
171
1
172
0
173
0
174
0
175
1
176
1
 91
33
178
0
145
0.0
301
CELL_VALUE
 90
4
  1
 
304
ACVALUE_END
170
1
140
0.125
171
1
172
0
173
0
174
0
175
1
176
1
 91
33
178
0
145
0.0
301
CELL_VALUE
 90
4
  1
DESCRIPTION
304
ACVALUE_END
170
1
140
0.06
171
1
172
0
173
0
174
0
175
1
176
1
 91
33
178
0
145
0.0
301
CELL_VALUE
 90
4
  1
DATE
304
ACVALUE_END
170
1
140
0.06
171
1
172
0
173
0
174
0
175
1
176
1
 91
33
178
0
145
0.0
301
CELL_VALUE
 90
4
  1
SCALE
304
ACVALUE_END
170
1
140
0.06
171
1
172
0
173
0
174
0
175
1
176
1
 91
33
178
0
145
0.0
301
CELL_VALUE
 90
4
  1
DWG SIZE
304
ACVALUE_END
170
1
140
0.06
171
1
172
0
173
0
174
0
175
1
176
1
 91
33
178
0
145
0.0
301
CELL_VALUE
 90
4
  1
SHEET
304
ACVALUE_END
170
1
140
0.06
171
1
172
0
173
0
174
0
175
1
176
1
 91
33
178
0
145
0.0
301
CELL_VALUE
 90
4
  1
 
304
ACVALUE_END
170
1
140
0.125
171
1
172
0
173
0
174
0
175
1
176
1
 91
33
178
0
145
0.0
301
CELL_VALUE
 90
4
  1
K6Y
304
ACVALUE_END
170
5
140
0.125
171
1
172
0
173
0
174
0
175
4
176
1
 91
33
178
0
145
0.0
301
CELL_VALUE
 90
4
  1
ALL DIMENSIONS IN INCH\PVIEWS ARE THIRD ANGLE
304
ACVALUE_END
170
5
140
0.12
171
1
172
0
173
1
174
0
175
1
176
1
 91
1
178
0
145
0.0
170
1
171
1
172
0
173
1
174
0
175
1
176
1
 91
1
178
0
145
0.0
170
1
171
1
172
0
173
1
174
0
175
1
176
1
 91
1
178
0
145
0.0
170
5
171
1
172
0
173
0
174
0
175
1
176
1
 91
33
178
0
145
0.0
301
CELL_VALUE
 90
4
  1
 
304
ACVALUE_END
170
1
140
0.125
171
1
172
0
173
0
174
0
175
1
176
1
 91
33
178
0
145
0.0
301
CELL_VALUE
 90
4
  1
MODEL
304
ACVALUE_END
170
1
140
0.06
171
1
172
0
173
0
174
0
175
1
176
1
 91
33
178
0
145
0.0
301
CELL_VALUE
 90
4
  1
 
304
ACVALUE_END
170
1
140
0.125
171
1
172
0
173
0
174
0
175
1
176
1
 91
33
178
0
145
0.0
301
CELL_VALUE
 90
4
  1
 
304
ACVALUE_END
170
1
140
0.125
171
1
172
0
173
0
174
0
175
1
176
1
 91
33
178
0
145
0.0
301
CELL_VALUE
 90
4
  1
 
304
ACVALUE_END
170
1
140
0.125
171
1
172
0
173
0
174
0
175
1
176
1
 91
33
178
0
145
0.0
301
CELL_VALUE
 90
4
  1
 
304
ACVALUE_END
170
1
140
0.125
171
1
172
0
173
0
174
0
175
1
176
1
 91
33
178
0
145
0.0
301
CELL_VALUE
 90
4
  1
 
304
ACVALUE_END
170
1
140
0.125
  0
ACAD_TABLE
  5
296
100
AcDbEntity
  8
0
 62
2
  6
CONTINUOUS
100
AcDbBlockReference
  2
*T2
 10
12.4237499994
 20
16.47875
 30
0.0
100
AcDbTable
342
       3A3
343
210
 11
1.0
 21
0.0
 31
0.0
 90
22
 91
11
 92
3
 93
16
 94
0
 95
0
 96
0
 41
0.028
141
0.344
141
0.25
141
0.25
141
0.25
141
0.25
141
0.25
141
0.25
141
0.25
141
0.25
141
0.25
141
0.25
142
3.055
142
3.0
142
3.0
171
1
172
0
173
0
174
0
175
1
176
1
 91
33
178
0
145
0.0
301
CELL_VALUE
 90
4
  1
Technical Data
304
ACVALUE_END
170
5
140
0.145
171
1
172
0
173
0
174
0
175
1
176
1
 91
33
178
0
145
0.0
301
CELL_VALUE
 90
4
  1
U.S. Units
304
ACVALUE_END
170
5
140
0.145
171
1
172
0
173
0
174
0
175
1
176
1
 91
33
178
0
145
0.0
301
CELL_VALUE
 90
4
  1
Metric Units
304
ACVALUE_END
170
5
140
0.145
171
1
172
0
173
0
174
0
175
1
176
1
 91
33
178
0
145
0.0
301
CELL_VALUE
 90
4
  1
Cavity
304
ACVALUE_END
170
5
140
0.125
171
1
172
0
173
0
174
0
175
2
176
1
 91
33
178
0
145
0.0
301
CELL_VALUE
 90
4
  1
T-19A
304
ACVALUE_END
170
5
140
0.125
171
1
172
0
173
1
174
0
175
1
176
1
 91
1
178
0
145
0.0
170
1
171
1
172
0
173
0
174
0
175
1
176
1
 91
33
178
0
145
0.0
301
CELL_VALUE
 90
4
  1
Body Features
304
ACVALUE_END
170
5
140
0.125
171
1
172
0
173
0
174
0
175
2
176
1
 91
33
178
0
145
0.0
301
CELL_VALUE
 90
4
  1
Ninety degree with reverse flow check - sequence
304
ACVALUE_END
170
5
140
0.125
171
1
172
0
173
1
174
0
175
1
176
1
 91
1
178
0
145
0.0
170
1
171
1
172
0
173
0
174
0
175
1
176
1
 91
33
178
0
145
0.0
301
CELL_VALUE
 90
4
  1
Body Type
304
ACVALUE_END
170
5
140
0.125
171
1
172
0
173
0
174
0
175
2
176
1
 91
33
178
0
145
0.0
301
CELL_VALUE
 90
4
  1
Line mount
304
ACVALUE_END
170
5
140
0.125
171
1
172
0
173
1
174
0
175
1
176
1
 91
1
178
0
145
0.0
170
1
171
1
172
0
173
0
174
0
175
1
176
1
 91
33
178
0
145
0.0
301
CELL_VALUE
 90
4
  1
Interface
304
ACVALUE_END
170
5
140
0.125
171
1
172
0
173
0
174
0
175
2
176
1
 91
33
178
0
145
0.0
301
CELL_VALUE
 90
4
  1
None
304
ACVALUE_END
170
5
140
0.125
171
1
172
0
173
1
174
0
175
1
176
1
 91
1
178
0
145
0.0
170
1
171
1
172
0
173
0
174
0
175
1
176
1
 91
33
178
0
145
0.0
301
CELL_VALUE
 90
4
  1
Open Cavity Quantity
304
ACVALUE_END
170
5
140
0.125
171
1
172
0
173
0
174
0
175
2
176
1
 91
33
178
0
145
0.0
301
CELL_VALUE
 90
4
  1
1
304
ACVALUE_END
170
5
140
0.125
171
1
172
0
173
1
174
0
175
1
176
1
 91
1
178
0
145
0.0
170
1
171
1
172
0
173
0
174
0
175
1
176
1
 91
33
178
0
145
0.0
301
CELL_VALUE
 90
4
  1
Weight
304
ACVALUE_END
170
5
140
0.125
171
1
172
0
173
0
174
0
175
1
176
1
 91
33
178
0
145
0.0
301
CELL_VALUE
 90
4
  1
11.315 lb.
304
ACVALUE_END
170
5
140
0.125
171
1
172
0
173
0
174
0
175
1
176
1
 91
33
178
0
145
0.0
301
CELL_VALUE
 90
4
  1
5,132 kg.
304
ACVALUE_END
170
5
140
0.125
171
1
172
0
173
0
174
0
175
1
176
1
 91
33
178
0
145
0.0
301
CELL_VALUE
 90
4
  1
Check Cracking Pressure
304
ACVALUE_END
170
5
140
0.125
171
1
172
0
173
0
174
0
175
1
176
1
 91
33
178
0
145
0.0
301
CELL_VALUE
 90
4
  1
30 psi
304
ACVALUE_END
170
5
140
0.125
171
1
172
0
173
0
174
0
175
1
176
1
 91
33
178
0
145
0.0
301
CELL_VALUE
 90
4
  1
2 bar
304
ACVALUE_END
170
5
140
0.125
171
1
172
0
173
0
174
0
175
1
176
1
 91
33
178
0
145
0.0
301
CELL_VALUE
 90
4
  1
Mounting Hole Diameter
304
ACVALUE_END
170
5
140
0.125
171
1
172
0
173
0
174
0
175
1
176
1
 91
33
178
0
145
0.0
301
CELL_VALUE
 90
4
  1
.41 in.
304
ACVALUE_END
170
5
140
0.125
171
1
172
0
173
0
174
0
175
1
176
1
 91
33
178
0
145
0.0
301
CELL_VALUE
 90
4
  1
10,4 mm
304
ACVALUE_END
170
5
140
0.125
171
1
172
0
173
0
174
0
175
1
176
1
 91
33
178
0
145
0.0
301
CELL_VALUE
 90
4
  1
Mounting Hole Depth
304
ACVALUE_END
170
5
140
0.125
171
1
172
0
173
0
174
0
175
2
176
1
 91
33
178
0
145
0.0
301
CELL_VALUE
 90
4
  1
Through
304
ACVALUE_END
170
5
140
0.125
171
1
172
0
173
1
174
0
175
1
176
1
 91
1
178
0
145
0.0
170
1
171
1
172
0
173
0
174
0
175
1
176
1
 91
33
178
0
145
0.0
301
CELL_VALUE
 90
4
  1
Mounting Hole Quantity
304
ACVALUE_END
170
5
140
0.125
171
1
172
0
173
0
174
0
175
2
176
1
 91
33
178
0
145
0.0
301
CELL_VALUE
 90
4
  1
2
304
ACVALUE_END
170
5
140
0.125
171
1
172
0
173
1
174
0
175
1
176
1
 91
1
178
0
145
0.0
170
1
  0
ACAD_TABLE
  5
297
100
AcDbEntity
  8
0
 62
2
  6
CONTINUOUS
100
AcDbBlockReference
  2
*T3
 10
0.52125
 20
1.959
 30
0.0
100
AcDbTable
342
       3A3
343
211
 11
1.0
 21
0.0
 31
0.0
 90
22
 91
5
 92
3
 93
16
 94
0
 95
0
 96
0
 41
0.05
141
0.34375
141
0.344
141
0.25
141
0.25
141
0.25
142
1.3
142
2.0
142
1.3
171
1
172
0
173
0
174
0
175
3
176
1
 91
33
178
0
145
0.0
301
CELL_VALUE
 90
4
  1
Port Headings
304
ACVALUE_END
170
5
140
0.145
171
1
172
0
173
1
174
0
175
1
176
1
 91
1
178
0
145
0.0
170
1
171
1
172
0
173
1
174
0
175
1
176
1
 91
1
178
0
145
0.0
170
1
171
1
172
0
173
0
174
0
175
1
176
1
 91
33
178
0
145
0.0
301
CELL_VALUE
 90
4
  1
Product
304
ACVALUE_END
170
5
140
0.145
171
1
172
0
173
0
174
0
175
1
176
1
 91
33
178
0
145
0.0
301
CELL_VALUE
 90
4
  1
Port
304
ACVALUE_END
170
5
140
0.145
171
1
172
0
173
0
174
0
175
1
176
1
 91
33
178
0
145
0.0
301
CELL_VALUE
 90
4
  1
Size
304
ACVALUE_END
170
5
140
0.145
171
1
172
0
173
0
174
0
175
1
176
1
 91
33
178
0
145
0.0
301
CELL_VALUE
 90
4
  1
K6Y
304
ACVALUE_END
170
5
140
0.125
171
1
172
0
173
0
174
0
175
1
176
1
 91
33
178
0
145
0.0
301
CELL_VALUE
 90
4
  1
Ports 1 &  2
304
ACVALUE_END
170
5
140
0.125
171
1
172
0
173
0
174
0
175
1
176
1
 91
33
178
0
145
0.0
301
CELL_VALUE
 90
4
  1
1 1/4" BSPP
304
ACVALUE_END
170
5
140
0.125
171
1
172
0
173
0
174
0
175
1
176
1
 91
33
178
0
145
0.0
301
CELL_VALUE
 90
4
  1
K6Y
304
ACVALUE_END
170
5
140
0.125
171
1
172
0
173
0
174
0
175
1
176
1
 91
33
178
0
145
0.0
301
CELL_VALUE
 90
4
  1
Port 3
304
ACVALUE_END
170
5
140
0.125
171
1
172
0
173
0
174
0
175
1
176
1
 91
33
178
0
145
0.0
301
CELL_VALUE
 90
4
  1
1/4" BSPP
304
ACVALUE_END
170
5
140
0.125
171
1
172
0
173
0
174
0
175
1
176
1
 91
33
178
0
145
0.0
301
CELL_VALUE
 90
4
  1
K6Y
304
ACVALUE_END
170
5
140
0.125
171
1
172
0
173
0
174
0
175
1
176
1
 91
33
178
0
145
0.0
301
CELL_VALUE
 90
4
  1
Gage Port
304
ACVALUE_END
170
5
140
0.125
171
1
172
0
173
0
174
0
175
1
176
1
 91
33
178
0
145
0.0
301
CELL_VALUE
 90
4
  1
1/4" BSPP
304
ACVALUE_END
170
5
140
0.125
  0
MTEXT
  5
298
100
AcDbEntity
  8
0
100
AcDbMText
 62
2
  6
CONTINUOUS
  7
STANDARD
 71
1
 72
1
 10
0.52125
 20
5.75995
 30
0.0
 11
1.0
 21
0.0
 31
0.0
 44
0.6
  3
Notes\P \P1. Important: Carefully consider\P   the maximum system pressure. The\P   pressure rating of the manifold is\P   dependent on the manifold material,\P   with the port type/size a secondary\P   consideration. Manifolds\P   constructed of alu
  1
minum are not\P   rated for pressures higher than\P   3000 psi (210 bar), regardless of\P   the port type/size specified.
 40
0.1
 41
3.04
  0
LINE
  5
299
100
AcDbEntity
  8
0
100
AcDbLine
 62
7
  6
CONTINUOUS
 10
0.30125
 20
0.30125
 11
0.30125
 21
16.69875
  0
LINE
  5
29A
100
AcDbEntity
  8
0
100
AcDbLine
 62
7
  6
CONTINUOUS
 10
0.30125
 20
0.30125
 11
21.69875
 21
0.30125
  0
LINE
  5
29B
100
AcDbEntity
  8
0
100
AcDbLine
 62
7
  6
CONTINUOUS
 10
0.30125
 20
16.69875
 11
21.69875
 21
16.69875
  0
LINE
  5
29C
100
AcDbEntity
  8
0
100
AcDbLine
 62
7
  6
CONTINUOUS
 10
21.69875
 20
0.30125
 11
21.69875
 21
16.69875
  0
LINE
  5
29D
100
AcDbEntity
  8
0
100
AcDbLine
 62
7
  6
CONTINUOUS
 10
8.741405537
 20
12.4299897698
 11
8.042594692
 21
11.7549902868
  0
LINE
  5
29E
100
AcDbEntity
  8
0
100
AcDbLine
 62
4
  6
CONTINUOUS
 10
8.2860078472
 20
11.1643493676
 11
8.2773145145
 21
11.1533611447
  0
LINE
  5
29F
100
AcDbEntity
  8
0
100
AcDbLine
 62
4
  6
CONTINUOUS
 10
8.29470118
 20
11.0941998209
 11
8.2773145145
 21
11.0722233699
  0
LINE
  5
2A0
100
AcDbEntity
  8
0
100
AcDbLine
 62
4
  6
CONTINUOUS
 10
8.2251545179
 20
11.1917517838
 11
8.2425411835
 21
11.2021371221
  0
LINE
  5
2A1
100
AcDbEntity
  8
0
100
AcDbLine
 62
4
  6
CONTINUOUS
 10
8.2773145145
 20
11.1533611447
 11
8.259927849
 21
11.1429757982
  0
LINE
  5
2A2
100
AcDbEntity
  8
0
100
AcDbLine
 62
4
  6
CONTINUOUS
 10
8.2773145145
 20
11.0722233699
 11
8.259927849
 21
11.0618380286
  0
LINE
  5
2A3
100
AcDbEntity
  8
0
100
AcDbLine
 62
7
  6
CONTINUOUS
 10
8.042594692
 20
5.6696572207
 11
8.042594692
 21
11.7549902868
  0
LINE
  5
2A4
100
AcDbEntity
  8
0
100
AcDbLine
 62
7
  6
CONTINUOUS
 10
8.042594692
 20
5.6696572207
 11
13.258594463
 21
5.3079264079
  0
LINE
  5
2A5
100
AcDbEntity
  8
0
100
AcDbLine
 62
7
  6
CONTINUOUS
 10
11.6397042185
 20
4.6809670458
 11
11.6606563448
 21
4.6706170966
  0
LINE
  5
2A6
100
AcDbEntity
  8
0
100
AcDbLine
 62
4
  6
CONTINUOUS
 10
8.2860078472
 20
11.1759404752
 11
8.2860078472
 21
11.1643493676
  0
LINE
  5
2A7
100
AcDbEntity
  8
0
100
AcDbLine
 62
4
  6
CONTINUOUS
 10
8.2860078472
 20
7.4262163759
 11
8.2860078472
 21
7.2871230518
  0
LINE
  5
2A8
100
AcDbEntity
  8
0
100
AcDbLine
 62
4
  6
CONTINUOUS
 10
8.29470118
 20
11.1057909326
 11
8.29470118
 21
11.0941998209
  0
LINE
  5
2A9
100
AcDbEntity
  8
0
100
AcDbLine
 62
4
  6
CONTINUOUS
 10
9.7825032154
 20
9.9453368189
 11
9.8023736912
 21
9.9638292705
  0
LINE
  5
2AA
100
AcDbEntity
  8
0
100
AcDbLine
 62
4
  6
CONTINUOUS
 10
9.8321794038
 20
9.8226689131
 11
9.8520498775
 21
9.8411613669
  0
LINE
  5
2AB
100
AcDbEntity
  8
0
100
AcDbLine
 62
4
  6
CONTINUOUS
 10
9.9414670215
 20
9.8150897911
 11
9.9613374869
 21
9.8335822454
  0
LINE
  5
2AC
100
AcDbEntity
  8
0
100
AcDbLine
 62
4
  6
CONTINUOUS
 10
10.4051114408
 20
9.8723530772
 11
10.4249819062
 21
9.8809102967
  0
LINE
  5
2AD
100
AcDbEntity
  8
0
100
AcDbLine
 62
4
  6
CONTINUOUS
 10
10.5938809616
 20
9.8095856822
 11
10.613751427
 21
9.8181428976
  0
LINE
  5
2AE
100
AcDbEntity
  8
0
100
AcDbLine
 62
4
  6
CONTINUOUS
 10
9.7825032154
 20
9.9254663453
 11
9.7825032154
 21
9.9453368189
  0
LINE
  5
2AF
100
AcDbEntity
  8
0
100
AcDbLine
 62
4
  6
CONTINUOUS
 10
9.8520498775
 20
9.8411613669
 11
9.8520498775
 21
9.8610318426
  0
LINE
  5
2B0
100
AcDbEntity
  8
0
100
AcDbLine
 62
4
  6
CONTINUOUS
 10
9.8917908249
 20
9.9576281712
 11
9.8917908249
 21
9.8384053228
  0
LINE
  5
2B1
100
AcDbEntity
  8
0
100
AcDbLine
 62
4
  6
CONTINUOUS
 10
9.9348436065
 20
9.1061731735
 11
9.9348436065
 21
9.2452664976
  0
LINE
  5
2B2
100
AcDbEntity
  8
0
100
AcDbLine
 62
4
  6
CONTINUOUS
 10
9.9613374869
 20
9.8335822454
 11
9.9613374869
 21
9.9528050938
  0
LINE
  5
2B3
100
AcDbEntity
  8
0
100
AcDbLine
 62
4
  6
CONTINUOUS
 10
10.0010784343
 20
9.8109557256
 11
10.0010784343
 21
9.9500490497
  0
LINE
  5
2B4
100
AcDbEntity
  8
0
100
AcDbLine
 62
4
  6
CONTINUOUS
 10
10.0043902603
 20
9.2205729471
 11
10.0043902603
 21
9.1212205724
  0
LINE
  5
2B5
100
AcDbEntity
  8
0
100
AcDbLine
 62
4
  6
CONTINUOUS
 10
10.0606899399
 20
9.0974457006
 11
10.1004308873
 21
9.2337829807
  0
LINE
  5
2B6
100
AcDbEntity
  8
0
100
AcDbLine
 62
4
  6
CONTINUOUS
 10
10.3388765119
 20
9.7544118911
 11
10.3786174427
 21
9.8841256832
  0
LINE
  5
2B7
100
AcDbEntity
  8
0
100
AcDbLine
 62
4
  6
CONTINUOUS
 10
10.4133906772
 20
9.4882787439
 11
10.3935202035
 21
9.4499158186
  0
LINE
  5
2B8
100
AcDbEntity
  8
0
100
AcDbLine
 62
4
  6
CONTINUOUS
 10
10.284232594
 20
9.4343127207
 11
10.3537792561
 21
9.5222185247
  0
LINE
  5
2B9
100
AcDbEntity
  8
0
100
AcDbLine
 62
4
  6
CONTINUOUS
 10
10.0043902603
 20
9.1212205724
 11
9.9845197866
 21
9.1027281187
  0
LINE
  5
2BA
100
AcDbEntity
  8
0
100
AcDbLine
 62
4
  6
CONTINUOUS
 10
10.4431964001
 20
9.5160174247
 11
10.4133906772
 21
9.4882787439
  0
LINE
  5
2BB
100
AcDbEntity
  8
0
100
AcDbLine
 62
4
  6
CONTINUOUS
 10
10.9349907392
 20
9.835605823
 11
10.9449259387
 21
9.8448520556
  0
LINE
  5
2BC
100
AcDbEntity
  8
0
100
AcDbLine
 62
4
  6
CONTINUOUS
 10
10.4431964001
 20
9.3769241006
 11
10.4630668655
 21
9.3954165549
  0
LINE
  5
2BD
100
AcDbEntity
  8
0
100
AcDbLine
 62
4
  6
CONTINUOUS
 10
11.024407933
 20
9.8294047196
 11
11.0343431325
 21
9.8386509521
  0
LINE
  5
2BE
100
AcDbEntity
  8
0
100
AcDbLine
 62
4
  6
CONTINUOUS
 10
9.9083496375
 20
9.1941159308
 11
9.8553617035
 21
9.1712966874
  0
LINE
  5
2BF
100
AcDbEntity
  8
0
100
AcDbLine
 62
4
  6
CONTINUOUS
 10
10.2402692289
 20
7.53236262
 11
10.2228825634
 21
7.5335683894
  0
LINE
  5
2C0
100
AcDbEntity
  8
0
100
AcDbLine
 62
4
  6
CONTINUOUS
 10
10.2315758961
 20
7.6025121668
 11
10.2663492272
 21
7.6001006281
  0
LINE
  5
2C1
100
AcDbEntity
  8
0
100
AcDbLine
 62
4
  6
CONTINUOUS
 10
10.2228825634
 20
7.5335683894
 11
10.2054958979
 21
7.5463652694
  0
LINE
  5
2C2
100
AcDbEntity
  8
0
100
AcDbLine
 62
4
  6
CONTINUOUS
 10
10.2402692289
 20
7.6714559442
 11
10.2576558944
 21
7.6586590672
  0
LINE
  5
2C3
100
AcDbEntity
  8
0
100
AcDbLine
 62
4
  6
CONTINUOUS
 10
10.2054958979
 20
7.5463652694
 11
10.1881092324
 21
7.5707532591
  0
LINE
  5
2C4
100
AcDbEntity
  8
0
100
AcDbLine
 62
4
  6
CONTINUOUS
 10
10.2576558944
 20
7.6586590672
 11
10.2663492272
 21
7.6464650667
  0
LINE
  5
2C5
100
AcDbEntity
  8
0
100
AcDbLine
 62
4
  6
CONTINUOUS
 10
10.1881092324
 20
7.5707532591
 11
10.1794158996
 21
7.6061294748
  0
LINE
  5
2C6
100
AcDbEntity
  8
0
100
AcDbLine
 62
4
  6
CONTINUOUS
 10
10.0706250964
 20
9.8061326482
 11
10.0706250964
 21
9.9452259723
  0
LINE
  5
2C7
100
AcDbEntity
  8
0
100
AcDbLine
 62
4
  6
CONTINUOUS
 10
10.2196536532
 20
9.7957974827
 11
10.2196536532
 21
9.9348908068
  0
LINE
  5
2C8
100
AcDbEntity
  8
0
100
AcDbLine
 62
4
  6
CONTINUOUS
 10
10.219653746
 20
9.0864215232
 11
10.219653746
 21
9.2255148474
  0
LINE
  5
2C9
100
AcDbEntity
  8
0
100
AcDbLine
 62
4
  6
CONTINUOUS
 10
10.2663492272
 20
7.6001006281
 11
10.2663492272
 21
7.5537361874
  0
LINE
  5
2CA
100
AcDbEntity
  8
0
100
AcDbLine
 62
4
  6
CONTINUOUS
 10
10.2792650825
 20
9.8810805518
 11
10.2792650825
 21
9.791663416
  0
LINE
  5
2CB
100
AcDbEntity
  8
0
100
AcDbLine
 62
4
  6
CONTINUOUS
 10
10.284232594
 20
9.387948278
 11
10.284232594
 21
9.5270416021
  0
LINE
  5
2CC
100
AcDbEntity
  8
0
100
AcDbLine
 62
4
  6
CONTINUOUS
 10
10.2991356408
 20
9.0809094351
 11
10.2991356408
 21
9.2200027592
  0
LINE
  5
2CD
100
AcDbEntity
  8
0
100
AcDbLine
 62
4
  6
CONTINUOUS
 10
10.5425487603
 20
9.4495158941
 11
10.5822897077
 21
9.5063712711
  0
LINE
  5
2CE
100
AcDbEntity
  8
0
100
AcDbLine
 62
4
  6
CONTINUOUS
 10
11.0740840633
 20
9.7365425325
 11
11.0840192628
 21
9.7457887619
  0
LINE
  5
2CF
100
AcDbEntity
  8
0
100
AcDbLine
 62
4
  6
CONTINUOUS
 10
10.5077756601
 20
9.1856630511
 11
10.5276461255
 21
9.2041555033
  0
LINE
  5
2D0
100
AcDbEntity
  8
0
100
AcDbLine
 62
4
  6
CONTINUOUS
 10
10.6236867193
 20
9.1776245918
 11
10.6435571847
 21
9.196117044
  0
LINE
  5
2D1
100
AcDbEntity
  8
0
100
AcDbLine
 62
4
  6
CONTINUOUS
 10
10.6932333814
 20
9.0734491397
 11
10.673362916
 21
9.0549566854
  0
LINE
  5
2D2
100
AcDbEntity
  8
0
100
AcDbLine
 62
4
  6
CONTINUOUS
 10
10.2228825634
 20
7.6726617135
 11
10.2402692289
 21
7.6714559442
  0
LINE
  5
2D3
100
AcDbEntity
  8
0
100
AcDbLine
 62
4
  6
CONTINUOUS
 10
8.2251545179
 20
11.075840678
 11
8.2164611852
 21
11.0880346733
  0
LINE
  5
2D4
100
AcDbEntity
  8
0
100
AcDbLine
 62
4
  6
CONTINUOUS
 10
8.2773145145
 20
11.1301789213
 11
8.29470118
 21
11.1057909326
  0
LINE
  5
2D5
100
AcDbEntity
  8
0
100
AcDbLine
 62
4
  6
CONTINUOUS
 10
8.2773145145
 20
11.1881344758
 11
8.2860078472
 21
11.1759404752
  0
LINE
  5
2D6
100
AcDbEntity
  8
0
100
AcDbLine
 62
4
  6
CONTINUOUS
 10
10.1004308873
 20
9.2337829807
 11
10.1401718513
 21
9.0919336114
  0
LINE
  5
2D7
100
AcDbEntity
  8
0
100
AcDbLine
 62
4
  6
CONTINUOUS
 10
10.3935202035
 20
9.4499158186
 11
10.3935202035
 21
9.4002396323
  0
LINE
  5
2D8
100
AcDbEntity
  8
0
100
AcDbLine
 62
4
  6
CONTINUOUS
 10
10.4051114408
 20
9.7928711793
 11
10.4051114408
 21
9.8723530772
  0
LINE
  5
2D9
100
AcDbEntity
  8
0
100
AcDbLine
 62
4
  6
CONTINUOUS
 10
10.4630668655
 20
9.3954165549
 11
10.4630668655
 21
9.4351575043
  0
LINE
  5
2DA
100
AcDbEntity
  8
0
100
AcDbLine
 62
4
  6
CONTINUOUS
 10
10.464722837
 20
9.9178952012
 11
10.464722837
 21
9.7788018771
  0
LINE
  5
2DB
100
AcDbEntity
  8
0
100
AcDbLine
 62
4
  6
CONTINUOUS
 10
10.5044638341
 20
9.7760458296
 11
10.5044638341
 21
9.8753982063
  0
LINE
  5
2DC
100
AcDbEntity
  8
0
100
AcDbLine
 62
4
  6
CONTINUOUS
 10
10.5077756601
 20
9.0863106764
 11
10.5077756601
 21
9.1856630511
  0
LINE
  5
2DD
100
AcDbEntity
  8
0
100
AcDbLine
 62
4
  6
CONTINUOUS
 10
10.5425487603
 20
9.4495158941
 11
10.5425487603
 21
9.370033991
  0
LINE
  5
2DE
100
AcDbEntity
  8
0
100
AcDbLine
 62
4
  6
CONTINUOUS
 10
10.5508282313
 20
9.8622475834
 11
10.5508282313
 21
9.8423771097
  0
LINE
  5
2DF
100
AcDbEntity
  8
0
100
AcDbLine
 62
4
  6
CONTINUOUS
 10
10.5938809616
 20
9.7797799686
 11
10.5938809616
 21
9.8095856822
  0
LINE
  5
2E0
100
AcDbEntity
  8
0
100
AcDbLine
 62
4
  6
CONTINUOUS
 10
10.6236867193
 20
9.0782722171
 11
10.6236867193
 21
9.1776245918
  0
LINE
  5
2E1
100
AcDbEntity
  8
0
100
AcDbLine
 62
4
  6
CONTINUOUS
 10
10.6534923578
 20
9.7657106663
 11
10.6534923578
 21
9.8451925694
  0
LINE
  5
2E2
100
AcDbEntity
  8
0
100
AcDbLine
 62
4
  6
CONTINUOUS
 10
10.6932332886
 20
9.8623070002
 11
10.6932332886
 21
9.7728898613
  0
LINE
  5
2E3
100
AcDbEntity
  8
0
100
AcDbLine
 62
4
  6
CONTINUOUS
 10
10.6932333814
 20
9.1728015144
 11
10.6932333814
 21
9.0734491397
  0
LINE
  5
2E4
100
AcDbEntity
  8
0
100
AcDbLine
 62
4
  6
CONTINUOUS
 10
10.1794158996
 20
7.6061294748
 11
10.1881092324
 21
7.6402999212
  0
LINE
  5
2E5
100
AcDbEntity
  8
0
100
AcDbLine
 62
4
  6
CONTINUOUS
 10
10.8853145425
 20
9.8887270673
 11
10.8820028093
 21
9.8790214958
  0
LINE
  5
2E6
100
AcDbEntity
  8
0
100
AcDbLine
 62
7
  6
CONTINUOUS
 10
13.258594463
 20
11.3932594741
 11
13.957405308
 21
12.068258957
  0
LINE
  5
2E7
100
AcDbEntity
  8
0
100
AcDbLine
 62
4
  6
CONTINUOUS
 10
10.8025209742
 20
9.0658700194
 11
10.7826505088
 21
9.0473775651
  0
LINE
  5
2E8
100
AcDbEntity
  8
0
100
AcDbLine
 62
4
  6
CONTINUOUS
 10
11.0111609604
 20
9.0911417367
 11
10.9581730306
 21
9.0683224951
  0
LINE
  5
2E9
100
AcDbEntity
  8
0
100
AcDbLine
 62
4
  6
CONTINUOUS
 10
10.7329743122
 20
9.0508226211
 11
10.7329743122
 21
9.1899159452
  0
LINE
  5
2EA
100
AcDbEntity
  8
0
100
AcDbLine
 62
4
  6
CONTINUOUS
 10
10.7528447511
 20
9.7588205545
 11
10.7528447511
 21
9.8581729312
  0
LINE
  5
2EB
100
AcDbEntity
  8
0
100
AcDbLine
 62
4
  6
CONTINUOUS
 10
10.7925856819
 20
9.7659997494
 11
10.7925856819
 21
9.8951578357
  0
LINE
  5
2EC
100
AcDbEntity
  8
0
100
AcDbLine
 62
4
  6
CONTINUOUS
 10
10.8025209742
 20
9.1652223941
 11
10.8025209742
 21
9.0658700194
  0
LINE
  5
2ED
100
AcDbEntity
  8
0
100
AcDbLine
 62
4
  6
CONTINUOUS
 10
10.8588207036
 20
9.0420951442
 11
10.8588207036
 21
9.1811884683
  0
LINE
  5
2EE
100
AcDbEntity
  8
0
100
AcDbLine
 62
4
  6
CONTINUOUS
 10
10.8820028093
 20
9.7498634127
 11
10.8820028093
 21
9.8492157894
  0
LINE
  5
2EF
100
AcDbEntity
  8
0
100
AcDbLine
 62
4
  6
CONTINUOUS
 10
10.8820028093
 20
9.8790214958
 11
10.8820028093
 21
9.8889567368
  0
LINE
  5
2F0
100
AcDbEntity
  8
0
100
AcDbLine
 62
4
  6
CONTINUOUS
 10
10.9349907392
 20
9.7561239252
 11
10.9349907392
 21
9.835605823
  0
LINE
  5
2F1
100
AcDbEntity
  8
0
100
AcDbLine
 62
4
  6
CONTINUOUS
 10
11.024407933
 20
9.799599009
 11
11.024407933
 21
9.8294047196
  0
LINE
  5
2F2
100
AcDbEntity
  8
0
100
AcDbLine
 62
4
  6
CONTINUOUS
 10
10.1881092324
 20
7.6402999212
 11
10.2054958979
 21
7.6622763753
  0
LINE
  5
2F3
100
AcDbEntity
  8
0
100
AcDbLine
 62
4
  6
CONTINUOUS
 10
10.2663492272
 20
7.5537361874
 11
10.2576558944
 21
7.5427479614
  0
LINE
  5
2F4
100
AcDbEntity
  8
0
100
AcDbLine
 62
4
  6
CONTINUOUS
 10
9.8553617035
 20
9.1712966874
 11
9.9083496375
 21
9.1411279947
  0
LINE
  5
2F5
100
AcDbEntity
  8
0
100
AcDbLine
 62
4
  6
CONTINUOUS
 10
9.9845197866
 20
9.2418214428
 11
10.0043902603
 21
9.2205729471
  0
LINE
  5
2F6
100
AcDbEntity
  8
0
100
AcDbLine
 62
4
  6
CONTINUOUS
 10
9.7825032154
 20
9.8360492064
 11
9.7924384533
 21
9.8254249574
  0
LINE
  5
2F7
100
AcDbEntity
  8
0
100
AcDbLine
 62
4
  6
CONTINUOUS
 10
10.5276461255
 20
9.0650621792
 11
10.5077756601
 21
9.0863106764
  0
LINE
  5
2F8
100
AcDbEntity
  8
0
100
AcDbLine
 62
4
  6
CONTINUOUS
 10
10.0010784343
 20
9.9500490497
 11
10.0706250964
 21
9.8061326482
  0
LINE
  5
2F9
100
AcDbEntity
  8
0
100
AcDbLine
 62
4
  6
CONTINUOUS
 10
10.3140383066
 20
9.4653631478
 11
10.3537792561
 21
9.3831252006
  0
LINE
  5
2FA
100
AcDbEntity
  8
0
100
AcDbLine
 62
4
  6
CONTINUOUS
 10
10.3190060465
 20
9.8882597475
 11
10.3488117778
 21
9.7868403363
  0
LINE
  5
2FB
100
AcDbEntity
  8
0
100
AcDbLine
 62
4
  6
CONTINUOUS
 10
11.0840192628
 20
9.7457887619
 11
11.0840192628
 21
9.7755944756
  0
LINE
  5
2FC
100
AcDbEntity
  8
0
100
AcDbLine
 62
4
  6
CONTINUOUS
 10
10.2054958979
 20
7.6622763753
 11
10.2228825634
 21
7.6726617135
  0
LINE
  5
2FD
100
AcDbEntity
  8
0
100
AcDbLine
 62
4
  6
CONTINUOUS
 10
13.0064877968
 20
9.2866719802
 11
13.0238744623
 21
9.2970573184
  0
LINE
  5
2FE
100
AcDbEntity
  8
0
100
AcDbLine
 62
4
  6
CONTINUOUS
 10
9.8520498775
 20
9.8610318426
 11
9.7825032154
 21
9.9254663453
  0
LINE
  5
2FF
100
AcDbEntity
  8
0
100
AcDbLine
 62
4
  6
CONTINUOUS
 10
9.8917908249
 20
9.8384053228
 11
9.9116612986
 21
9.817156825
  0
LINE
  5
300
100
AcDbEntity
  8
0
100
AcDbLine
 62
4
  6
CONTINUOUS
 10
10.6435571847
 20
9.0570237199
 11
10.6236867193
 21
9.0782722171
  0
LINE
  5
301
100
AcDbEntity
  8
0
100
AcDbLine
 62
4
  6
CONTINUOUS
 10
9.8421146406
 20
9.9610732262
 11
9.8520498775
 21
9.9504489742
  0
LINE
  5
302
100
AcDbEntity
  8
0
100
AcDbLine
 62
4
  6
CONTINUOUS
 10
10.3935202035
 20
9.4002396323
 11
10.4133906772
 21
9.3789911345
  0
LINE
  5
303
100
AcDbEntity
  8
0
100
AcDbLine
 62
4
  6
CONTINUOUS
 10
10.673362916
 20
9.1940500096
 11
10.6932333814
 21
9.1728015144
  0
LINE
  5
304
100
AcDbEntity
  8
0
100
AcDbLine
 62
4
  6
CONTINUOUS
 10
10.4630668655
 20
9.4351575043
 11
10.4431964001
 21
9.4564060036
  0
LINE
  5
305
100
AcDbEntity
  8
0
100
AcDbLine
 62
4
  6
CONTINUOUS
 10
10.7826505088
 20
9.1864708892
 11
10.8025209742
 21
9.1652223941
  0
LINE
  5
306
100
AcDbEntity
  8
0
100
AcDbLine
 62
4
  6
CONTINUOUS
 10
10.5028078129
 20
9.5118833592
 11
10.5425487603
 21
9.4495158941
  0
LINE
  5
307
100
AcDbEntity
  8
0
100
AcDbLine
 62
4
  6
CONTINUOUS
 10
10.5442047649
 20
9.8726421634
 11
10.5508282313
 21
9.8622475834
  0
LINE
  5
308
100
AcDbEntity
  8
0
100
AcDbLine
 62
4
  6
CONTINUOUS
 10
10.6534923578
 20
9.8451925694
 11
10.6435571582
 21
9.8657520515
  0
LINE
  5
309
100
AcDbEntity
  8
0
100
AcDbLine
 62
7
  6
CONTINUOUS
 10
11.4956569197
 20
5.4301865418
 11
11.4956569197
 21
4.8656251777
  0
LINE
  5
30A
100
AcDbEntity
  8
0
100
AcDbLine
 62
7
  6
CONTINUOUS
 10
11.6996677764
 20
5.4160383408
 11
11.6996677764
 21
4.6685661593
  0
LINE
  5
30B
100
AcDbEntity
  8
0
100
AcDbLine
 62
7
  6
CONTINUOUS
 10
13.582007814
 20
10.2009165827
 11
13.5801812194
 21
10.1991846333
  0
LINE
  5
30C
100
AcDbEntity
  8
0
100
AcDbLine
 62
4
  6
CONTINUOUS
 10
13.0586477934
 20
9.2366902252
 11
13.0238744623
 21
9.2159195446
  0
LINE
  5
30D
100
AcDbEntity
  8
0
100
AcDbLine
 62
4
  6
CONTINUOUS
 10
10.2576558944
 20
7.5427479614
 11
10.2402692289
 21
7.53236262
  0
LINE
  5
30E
100
AcDbEntity
  8
0
100
AcDbLine
 62
4
  6
CONTINUOUS
 10
10.7826505088
 20
9.0473775651
 11
10.7329743122
 21
9.0508226211
  0
LINE
  5
30F
100
AcDbEntity
  8
0
100
AcDbLine
 62
4
  6
CONTINUOUS
 10
10.673362916
 20
9.0549566854
 11
10.6435571847
 21
9.0570237199
  0
LINE
  5
310
100
AcDbEntity
  8
0
100
AcDbLine
 62
4
  6
CONTINUOUS
 10
10.5673870563
 20
9.0623061363
 11
10.5276461255
 21
9.0650621792
  0
LINE
  5
311
100
AcDbEntity
  8
0
100
AcDbLine
 62
4
  6
CONTINUOUS
 10
9.9845197866
 20
9.1027281187
 11
9.9348436065
 21
9.1061731735
  0
LINE
  5
312
100
AcDbEntity
  8
0
100
AcDbLine
 62
4
  6
CONTINUOUS
 10
10.2991356408
 20
9.0809094351
 11
10.3587470701
 21
9.0767753685
  0
LINE
  5
313
100
AcDbEntity
  8
0
100
AcDbLine
 62
4
  6
CONTINUOUS
 10
10.8588207036
 20
9.0420951442
 11
10.9184320998
 21
9.0379610798
  0
LINE
  5
314
100
AcDbEntity
  8
0
100
AcDbLine
 62
4
  6
CONTINUOUS
 10
10.0739369224
 20
9.1362679708
 11
10.1269248522
 21
9.1325932454
  0
LINE
  5
315
100
AcDbEntity
  8
0
100
AcDbLine
 62
4
  6
CONTINUOUS
 10
10.8985616344
 20
9.1188210043
 11
10.8588207036
 21
9.1215770472
  0
LINE
  5
316
100
AcDbEntity
  8
0
100
AcDbLine
 62
4
  6
CONTINUOUS
 10
10.3388766047
 20
9.157635293
 11
10.2991356408
 21
9.1603913382
  0
LINE
  5
317
100
AcDbEntity
  8
0
100
AcDbLine
 62
4
  6
CONTINUOUS
 10
9.9348436065
 20
9.2452664976
 11
9.9845197866
 21
9.2418214428
  0
LINE
  5
318
100
AcDbEntity
  8
0
100
AcDbLine
 62
4
  6
CONTINUOUS
 10
10.179912782
 20
9.2282708926
 11
10.2593946768
 21
9.2227588045
  0
LINE
  5
319
100
AcDbEntity
  8
0
100
AcDbLine
 62
4
  6
CONTINUOUS
 10
10.2991356408
 20
9.2200027592
 11
10.3587470701
 21
9.2158686926
  0
LINE
  5
31A
100
AcDbEntity
  8
0
100
AcDbLine
 62
4
  6
CONTINUOUS
 10
10.5276461255
 20
9.2041555033
 11
10.5673870563
 21
9.2013994604
  0
LINE
  5
31B
100
AcDbEntity
  8
0
100
AcDbLine
 62
4
  6
CONTINUOUS
 10
10.6435571847
 20
9.196117044
 11
10.673362916
 21
9.1940500096
  0
LINE
  5
31C
100
AcDbEntity
  8
0
100
AcDbLine
 62
4
  6
CONTINUOUS
 10
10.7329743122
 20
9.1899159452
 11
10.7826505088
 21
9.1864708892
  0
LINE
  5
31D
100
AcDbEntity
  8
0
100
AcDbLine
 62
4
  6
CONTINUOUS
 10
10.8588207036
 20
9.1811884683
 11
10.9184320998
 21
9.1770544039
  0
LINE
  5
31E
100
AcDbEntity
  8
0
100
AcDbLine
 62
4
  6
CONTINUOUS
 10
10.9581730306
 20
9.1213104312
 11
11.0111609604
 21
9.0911417367
  0
LINE
  5
31F
100
AcDbEntity
  8
0
100
AcDbLine
 62
4
  6
CONTINUOUS
 10
8.2425411835
 20
11.0630437979
 11
8.2251545179
 21
11.075840678
  0
LINE
  5
320
100
AcDbEntity
  8
0
100
AcDbLine
 62
4
  6
CONTINUOUS
 10
8.259927849
 20
11.1429757982
 11
8.2773145145
 21
11.1301789213
  0
LINE
  5
321
100
AcDbEntity
  8
0
100
AcDbLine
 62
4
  6
CONTINUOUS
 10
8.259927849
 20
11.2009313527
 11
8.2773145145
 21
11.1881344758
  0
LINE
  5
322
100
AcDbEntity
  8
0
100
AcDbLine
 62
4
  6
CONTINUOUS
 10
10.2693298498
 20
9.8917048035
 11
10.2792650825
 21
9.8810805518
  0
LINE
  5
323
100
AcDbEntity
  8
0
100
AcDbLine
 62
4
  6
CONTINUOUS
 10
10.6932332886
 20
9.7728898613
 11
10.7031685544
 21
9.7622656104
  0
LINE
  5
324
100
AcDbEntity
  8
0
100
AcDbLine
 62
7
  6
CONTINUOUS
 10
11.73404835
 20
5.41365404
 11
11.73404835
 21
4.6596678233
  0
LINE
  5
325
100
AcDbEntity
  8
0
100
AcDbLine
 62
4
  6
CONTINUOUS
 10
12.9977944641
 20
9.1597726483
 11
13.0673411261
 21
9.1549495709
  0
LINE
  5
326
100
AcDbEntity
  8
0
100
AcDbLine
 62
4
  6
CONTINUOUS
 10
10.4133906772
 20
9.3789911345
 11
10.4431964001
 21
9.3769241006
  0
LINE
  5
327
100
AcDbEntity
  8
0
100
AcDbLine
 62
4
  6
CONTINUOUS
 10
10.4431964001
 20
9.4564060036
 11
10.4001436947
 21
9.4593917189
  0
LINE
  5
328
100
AcDbEntity
  8
0
100
AcDbLine
 62
4
  6
CONTINUOUS
 10
13.0238744623
 20
9.2970573184
 11
13.0412611279
 21
9.2958515491
  0
LINE
  5
329
100
AcDbEntity
  8
0
100
AcDbLine
 62
4
  6
CONTINUOUS
 10
10.4249819062
 20
9.78155792
 11
10.4051114408
 21
9.7928711793
  0
LINE
  5
32A
100
AcDbEntity
  8
0
100
AcDbLine
 62
4
  6
CONTINUOUS
 10
10.613751427
 20
9.7684667092
 11
10.5938809616
 21
9.7797799686
  0
LINE
  5
32B
100
AcDbEntity
  8
0
100
AcDbLine
 62
4
  6
CONTINUOUS
 10
10.8025209477
 20
9.7553754985
 11
10.7925856819
 21
9.7659997494
  0
LINE
  5
32C
100
AcDbEntity
  8
0
100
AcDbLine
 62
4
  6
CONTINUOUS
 10
10.9449259387
 20
9.7454996788
 11
10.9349907392
 21
9.7561239252
  0
LINE
  5
32D
100
AcDbEntity
  8
0
100
AcDbLine
 62
4
  6
CONTINUOUS
 10
11.024407933
 20
9.7499228217
 11
11.0343431325
 21
9.7392985754
  0
LINE
  5
32E
100
AcDbEntity
  8
0
100
AcDbLine
 62
4
  6
CONTINUOUS
 10
11.0740840633
 20
9.8358949092
 11
11.0840192628
 21
9.8252706598
  0
LINE
  5
32F
100
AcDbEntity
  8
0
100
AcDbLine
 62
4
  6
CONTINUOUS
 10
12.9977944641
 20
9.275683749
 11
13.0064877968
 21
9.2866719802
  0
LINE
  5
330
100
AcDbEntity
  8
0
100
AcDbLine
 62
4
  6
CONTINUOUS
 10
13.0238744623
 20
9.2159195446
 11
13.0064877968
 21
9.1939430947
  0
LINE
  5
331
100
AcDbEntity
  8
0
100
AcDbLine
 62
4
  6
CONTINUOUS
 10
13.0673411261
 20
9.2476784564
 11
13.0586477934
 21
9.2366902252
  0
LINE
  5
332
100
AcDbEntity
  8
0
100
AcDbLine
 62
4
  6
CONTINUOUS
 10
10.3190060465
 20
9.7557899126
 11
10.3388765119
 21
9.7544118911
  0
LINE
  5
333
100
AcDbEntity
  8
0
100
AcDbLine
 62
4
  6
CONTINUOUS
 10
10.9846670022
 20
9.7427436267
 11
10.9449259387
 21
9.7454996788
  0
LINE
  5
334
100
AcDbEntity
  8
0
100
AcDbLine
 62
4
  6
CONTINUOUS
 10
10.8223914131
 20
9.7539974771
 11
10.8025209477
 21
9.7553754985
  0
LINE
  5
335
100
AcDbEntity
  8
0
100
AcDbLine
 62
4
  6
CONTINUOUS
 10
10.6534923578
 20
9.7657106663
 11
10.613751427
 21
9.7684667092
  0
LINE
  5
336
100
AcDbEntity
  8
0
100
AcDbLine
 62
4
  6
CONTINUOUS
 10
10.464722837
 20
9.7788018771
 11
10.4249819062
 21
9.78155792
  0
LINE
  5
337
100
AcDbEntity
  8
0
100
AcDbLine
 62
4
  6
CONTINUOUS
 10
9.7924384533
 20
9.8254249574
 11
9.8321794038
 21
9.8226689131
  0
LINE
  5
338
100
AcDbEntity
  8
0
100
AcDbLine
 62
4
  6
CONTINUOUS
 10
9.9116612986
 20
9.817156825
 11
9.9414670215
 21
9.8150897911
  0
LINE
  5
339
100
AcDbEntity
  8
0
100
AcDbLine
 62
4
  6
CONTINUOUS
 10
10.7031685544
 20
9.7622656104
 11
10.7528447511
 21
9.7588205545
  0
LINE
  5
33A
100
AcDbEntity
  8
0
100
AcDbLine
 62
4
  6
CONTINUOUS
 10
11.0343431325
 20
9.7392985754
 11
11.0740840633
 21
9.7365425325
  0
LINE
  5
33B
100
AcDbEntity
  8
0
100
AcDbLine
 62
4
  6
CONTINUOUS
 10
10.613751427
 20
9.8181428976
 11
10.6534923578
 21
9.8153868547
  0
LINE
  5
33C
100
AcDbEntity
  8
0
100
AcDbLine
 62
4
  6
CONTINUOUS
 10
10.6435571582
 20
9.8657520515
 11
10.5938809616
 21
9.8691971074
  0
LINE
  5
33D
100
AcDbEntity
  8
0
100
AcDbLine
 62
4
  6
CONTINUOUS
 10
10.2196536532
 20
9.8951498594
 11
10.2693298498
 21
9.8917048035
  0
LINE
  5
33E
100
AcDbEntity
  8
0
100
AcDbLine
 62
4
  6
CONTINUOUS
 10
10.4249819062
 20
9.8809102967
 11
10.464722837
 21
9.8781542538
  0
LINE
  5
33F
100
AcDbEntity
  8
0
100
AcDbLine
 62
4
  6
CONTINUOUS
 10
10.5044638341
 20
9.8753982063
 11
10.5442047649
 21
9.8726421634
  0
LINE
  5
340
100
AcDbEntity
  8
0
100
AcDbLine
 62
4
  6
CONTINUOUS
 10
10.9449259387
 20
9.8448520556
 11
10.9846670022
 21
9.8420960035
  0
LINE
  5
341
100
AcDbEntity
  8
0
100
AcDbLine
 62
4
  6
CONTINUOUS
 10
11.0343431325
 20
9.8386509521
 11
11.0740840633
 21
9.8358949092
  0
LINE
  5
342
100
AcDbEntity
  8
0
100
AcDbLine
 62
4
  6
CONTINUOUS
 10
11.0740840633
 20
9.7829069752
 11
11.0343431325
 21
9.7922865094
  0
LINE
  5
343
100
AcDbEntity
  8
0
100
AcDbLine
 62
4
  6
CONTINUOUS
 10
11.0343431325
 20
9.7922865094
 11
11.024407933
 21
9.799599009
  0
LINE
  5
344
100
AcDbEntity
  8
0
100
AcDbLine
 62
4
  6
CONTINUOUS
 10
11.0840192628
 20
9.7755944756
 11
11.0740840633
 21
9.7829069752
  0
LINE
  5
345
100
AcDbEntity
  8
0
100
AcDbLine
 62
7
  6
CONTINUOUS
 10
12.4954266493
 20
5.3608522756
 11
12.4954266493
 21
4.6068660589
  0
LINE
  5
346
100
AcDbEntity
  8
0
100
AcDbLine
 62
7
  6
CONTINUOUS
 10
12.5423913731
 20
5.3575952609
 11
12.5423913731
 21
4.6101230793
  0
LINE
  5
347
100
AcDbEntity
  8
0
100
AcDbLine
 62
4
  6
CONTINUOUS
 10
9.8023736912
 20
9.9638292705
 11
9.8421146406
 21
9.9610732262
  0
LINE
  5
348
100
AcDbEntity
  8
0
100
AcDbLine
 62
4
  6
CONTINUOUS
 10
10.8820028093
 20
9.8889567368
 11
10.8853145425
 21
9.8887270673
  0
LINE
  5
349
100
AcDbEntity
  8
0
100
AcDbLine
 62
4
  6
CONTINUOUS
 10
13.0064877968
 20
9.1939430947
 11
12.9977944641
 21
9.1597726483
  0
LINE
  5
34A
100
AcDbEntity
  8
0
100
AcDbLine
 62
4
  6
CONTINUOUS
 10
13.0412611279
 20
9.2958515491
 11
13.0586477934
 21
9.2830546721
  0
LINE
  5
34B
100
AcDbEntity
  8
0
100
AcDbLine
 62
4
  6
CONTINUOUS
 10
13.0673411261
 20
9.2708606716
 11
13.0673411261
 21
9.2476784564
  0
LINE
  5
34C
100
AcDbEntity
  8
0
100
AcDbLine
 62
7
  6
CONTINUOUS
 10
13.0997588156
 20
5.3189416975
 11
13.0997588156
 21
4.7543803333
  0
LINE
  5
34D
100
AcDbEntity
  8
0
100
AcDbLine
 62
7
  6
CONTINUOUS
 10
13.1123429658
 20
5.3180689837
 11
13.1123429658
 21
4.7665356897
  0
LINE
  5
34E
100
AcDbEntity
  8
0
100
AcDbLine
 62
7
  6
CONTINUOUS
 10
13.258594463
 20
5.3079264079
 11
13.258594463
 21
11.3932594741
  0
LINE
  5
34F
100
AcDbEntity
  8
0
100
AcDbLine
 62
4
  6
CONTINUOUS
 10
13.0586477934
 20
9.2830546721
 11
13.0673411261
 21
9.2708606716
  0
LINE
  5
350
100
AcDbEntity
  8
0
100
AcDbLine
 62
4
  6
CONTINUOUS
 10
8.259927849
 20
11.0618380286
 11
8.2425411835
 21
11.0630437979
  0
LINE
  5
351
100
AcDbEntity
  8
0
100
AcDbLine
 62
4
  6
CONTINUOUS
 10
8.2425411835
 20
11.1441815676
 11
8.259927849
 21
11.1429757982
  0
LINE
  5
352
100
AcDbEntity
  8
0
100
AcDbLine
 62
4
  6
CONTINUOUS
 10
8.2425411835
 20
11.2021371221
 11
8.259927849
 21
11.2009313527
  0
LINE
  5
353
100
AcDbEntity
  8
0
100
AcDbLine
 62
7
  6
CONTINUOUS
 10
13.957405308
 20
5.9829258909
 11
13.957405308
 21
12.068258957
  0
LINE
  5
354
100
AcDbEntity
  8
0
100
AcDbLine
 62
7
  6
CONTINUOUS
 10
8.042594692
 20
11.7549902868
 11
13.258594463
 21
11.3932594741
  0
LINE
  5
355
100
AcDbEntity
  8
0
100
AcDbLine
 62
7
  6
CONTINUOUS
 10
13.258594463
 20
5.3079264079
 11
13.957405308
 21
5.9829258909
  0
LINE
  5
356
100
AcDbEntity
  8
0
100
AcDbLine
 62
7
  6
CONTINUOUS
 10
13.957405308
 20
12.068258957
 11
8.741405537
 21
12.4299897698
  0
LINE
  5
357
100
AcDbEntity
  8
0
100
AcDbLine
 62
7
  6
CONTINUOUS
 10
12.9832229158
 20
4.6883408209
 11
12.9473435407
 21
4.6706170966
  0
ARC
  5
358
100
AcDbEntity
  8
0
100
AcDbCircle
 62
7
  6
CONTINUOUS
 10
12.3181373321
 20
7.5035290612
 40
2.9020833983
100
AcDbArc
 50
273.5024005705
 51
274.4318614998
  0
ARC
  5
359
100
AcDbEntity
  8
0
100
AcDbCircle
 62
7
  6
CONTINUOUS
 10
12.0341054436
 20
5.8898682971
 40
1.2662651638
100
AcDbArc
 50
254.6857191954
 51
256.2926786396
  0
ARC
  5
35A
100
AcDbEntity
  8
0
100
AcDbCircle
 62
7
  6
CONTINUOUS
 10
12.5399910471
 20
5.5836622069
 40
0.9990265333
100
AcDbArc
 50
294.0424242342
 51
296.3106753905
  0
ARC
  5
35B
100
AcDbEntity
  8
0
100
AcDbCircle
 62
7
  6
CONTINUOUS
 10
9.8070101544
 20
7.2194015061
 40
0.3447532145
100
AcDbArc
 50
134.6412959252
 51
135.7288861059
  0
ARC
  5
35C
100
AcDbEntity
  8
0
100
AcDbCircle
 62
7
  6
CONTINUOUS
 10
9.8782213979
 20
7.1456779626
 40
0.3447469709
100
AcDbArc
 50
312.2846540323
 51
312.9980873095
  0
ARC
  5
35D
100
AcDbEntity
  8
0
100
AcDbCircle
 62
7
  6
CONTINUOUS
 10
10.0240913269
 20
7.384933121
 40
0.1685408443
100
AcDbArc
 50
177.28734953
 51
179.9983276563
  0
ARC
  5
35E
100
AcDbEntity
  8
0
100
AcDbCircle
 62
7
  6
CONTINUOUS
 10
12.9954715862
 20
4.8753557129
 40
0.1597212218
100
AcDbArc
 50
310.7630914437
 51
313.9856916518
  0
ARC
  5
35F
100
AcDbEntity
  8
0
100
AcDbCircle
 62
7
  6
CONTINUOUS
 10
13.0117731499
 20
4.8586313328
 40
0.1363667677
100
AcDbArc
 50
313.9375979844
 51
317.5184669645
  0
SPLINE
  5
360
100
AcDbEntity
  8
0
100
AcDbSpline
 62
7
  6
CONTINUOUS
 70
0
 71
3
 72
9
 73
5
 74
0
 42
0.0000001
 43
0.0000001
 44
0.0000000001
 40
0.0
 40
0.0
 40
0.0
 40
0.0
 40
0.5047194233
 40
1.0
 40
1.0
 40
1.0
 40
1.0
 10
13.0997588156
 20
4.7543803333
 30
0.0
 10
13.0806438582
 20
4.7422805824
 30
0.0
 10
13.0422566241
 20
4.7191068893
 30
0.0
 10
13.002699409
 20
4.6979670207
 30
0.0
 10
12.9827977865
 20
4.6881309647
 30
0.0
  0
SPLINE
  5
361
100
AcDbEntity
  8
0
100
AcDbSpline
 62
7
  6
CONTINUOUS
 70
0
 71
3
 72
20
 73
16
 74
0
 42
0.0000001
 43
0.0000001
 44
0.0000000001
 40
0.0
 40
0.0
 40
0.0
 40
0.0
 40
0.1321092246
 40
0.2654630393
 40
0.3983965104
 40
0.4641824508
 40
0.5292377163
 40
0.593358461
 40
0.6563452314
 40
0.7180031916
 40
0.7781436148
 40
0.8365831781
 40
0.8931456382
 40
0.9476711375
 40
1.0
 40
1.0
 40
1.0
 40
1.0
 10
12.4716978061
 20
5.3622953435
 30
0.0
 10
12.4398803066
 20
5.360598091
 30
0.0
 10
12.3758878684
 20
5.3581923977
 30
0.0
 10
12.2797901545
 20
5.357479174
 30
0.0
 10
12.1997058777
 20
5.3592832654
 30
0.0
 10
12.1361513286
 20
5.3621799438
 30
0.0
 10
12.0892153648
 20
5.365054486
 30
0.0
 10
12.0430046358
 20
5.3686288708
 30
0.0
 10
11.9976749989
 20
5.3728905102
 30
0.0
 10
11.9533793588
 20
5.3778252133
 30
0.0
 10
11.9102672454
 20
5.3834161678
 30
0.0
 10
11.8684844514
 20
5.3896439346
 30
0.0
 10
11.8281707565
 20
5.3964877847
 30
0.0
 10
11.7894618629
 20
5.4039242929
 30
0.0
 10
11.7642706712
 20
5.4093777264
 30
0.0
 10
11.7519713122
 20
5.4122085454
 30
0.0
  0
SPLINE
  5
362
100
AcDbEntity
  8
0
100
AcDbSpline
 62
7
  6
CONTINUOUS
 70
0
 71
3
 72
22
 73
18
 74
0
 42
0.0000001
 43
0.0000001
 44
0.0000000001
 40
0.0
 40
0.0
 40
0.0
 40
0.0
 40
0.043290989
 40
0.0886107636
 40
0.1362169549
 40
0.1863255266
 40
0.2391104607
 40
0.2946904167
 40
0.3531382065
 40
0.4144717324
 40
0.4786700373
 40
0.5456687108
 40
0.6153767118
 40
0.6876754969
 40
0.7624330017
 40
0.8395067268
 40
1.0
 40
1.0
 40
1.0
 40
1.0
 10
11.6401915743
 20
4.6807264271
 30
0.0
 10
11.6371082453
 20
4.6822482639
 30
0.0
 10
11.630917478
 20
4.6856127147
 30
0.0
 10
11.6218080234
 20
4.6914658112
 30
0.0
 10
11.6126863661
 20
4.6982518824
 30
0.0
 10
11.6035587536
 20
4.7059815785
 30
0.0
 10
11.5944323412
 20
4.7146590251
 30
0.0
 10
11.5853120769
 20
4.7242770232
 30
0.0
 10
11.5762053564
 20
4.7348216617
 30
0.0
 10
11.5671163702
 20
4.7462686135
 30
0.0
 10
11.5580517182
 20
4.7585881042
 30
0.0
 10
11.5490146397
 20
4.771742587
 30
0.0
 10
11.5400101662
 20
4.7856912091
 30
0.0
 10
11.5310404594
 20
4.800388748
 30
0.0
 10
11.5221084372
 20
4.8157891487
 30
0.0
 10
11.5100886915
 20
4.8374907892
 30
0.0
 10
11.5013847418
 20
4.8542371087
 30
0.0
 10
11.4956569197
 20
4.8656251777
 30
0.0
  0
SPLINE
  5
363
100
AcDbEntity
  8
0
100
AcDbSpline
 62
7
  6
CONTINUOUS
 70
0
 71
3
 72
42
 73
38
 74
0
 42
0.0000001
 43
0.0000001
 44
0.0000000001
 40
0.0
 40
0.0
 40
0.0
 40
0.0
 40
0.0099876471
 40
0.0204482153
 40
0.0313778979
 40
0.0427717855
 40
0.0546232227
 40
0.0669241187
 40
0.0928371108
 40
0.1204281727
 40
0.1495999526
 40
0.1802423267
 40
0.212235641
 40
0.2454510317
 40
0.2797517947
 40
0.3149951022
 40
0.3510319967
 40
0.3877093471
 40
0.4248702027
 40
0.4623548651
 40
0.5000019479
 40
0.5376490075
 40
0.5751337455
 40
0.6122945894
 40
0.6489720274
 40
0.6850089917
 40
0.7202522813
 40
0.7545532871
 40
0.78776864
 40
0.8197621595
 40
0.8504046934
 40
0.8795764413
 40
0.9071678821
 40
0.9330808459
 40
0.9572320527
 40
0.9795539769
 40
1.0
 40
1.0
 40
1.0
 40
1.0
 10
12.9473412597
 20
4.6706159598
 30
0.0
 10
12.9434276847
 20
4.6686827868
 30
0.0
 10
12.9353483344
 20
4.6648592193
 30
0.0
 10
12.9227822412
 20
4.6593639853
 30
0.0
 10
12.9095017795
 20
4.6539818126
 30
0.0
 10
12.8955221538
 20
4.6487195188
 30
0.0
 10
12.8808594036
 20
4.6435829692
 30
0.0
 10
12.8600581338
 20
4.6367913449
 30
0.0
 10
12.8324544607
 20
4.6286940509
 30
0.0
 10
12.7974457144
 20
4.6197278016
 30
0.0
 10
12.7601606004
 20
4.6113942301
 30
0.0
 10
12.7207708577
 20
4.6037314069
 30
0.0
 10
12.6794574209
 20
4.5967757839
 30
0.0
 10
12.6364105887
 20
4.590559948
 30
0.0
 10
12.5918288252
 20
4.5851125418
 30
0.0
 10
12.5459178012
 20
4.5804597421
 30
0.0
 10
12.4988894242
 20
4.5766226805
 30
0.0
 10
12.4509608654
 20
4.5736195591
 30
0.0
 10
12.4023534356
 20
4.5714645661
 30
0.0
 10
12.3532916626
 20
4.5701672527
 30
0.0
 10
12.3040021829
 20
4.5697343143
 30
0.0
 10
12.2547126732
 20
4.5701672818
 30
0.0
 10
12.2056508717
 20
4.5714642516
 30
0.0
 10
12.1570433855
 20
4.573619472
 30
0.0
 10
12.1091147461
 20
4.5766222937
 30
0.0
 10
12.0620863018
 20
4.58045932
 30
0.0
 10
12.0161751626
 20
4.58511223
 30
0.0
 10
11.971593267
 20
4.5905592358
 30
0.0
 10
11.9285462876
 20
4.5967753308
 30
0.0
 10
11.8872326757
 20
4.6037306997
 30
0.0
 10
11.8478427268
 20
4.6113934144
 30
0.0
 10
11.810557557
 20
4.6197272482
 30
0.0
 10
11.7755481479
 20
4.6286928961
 30
0.0
 10
11.742974786
 20
4.6382490166
 30
0.0
 10
11.7129848023
 20
4.648350175
 30
0.0
 10
11.6857151832
 20
4.6589495977
 30
0.0
 10
11.6686724716
 20
4.6666574802
 30
0.0
 10
11.6606608971
 20
4.6706149926
 30
0.0
  0
SPLINE
  5
364
100
AcDbEntity
  8
0
100
AcDbSpline
 62
7
  6
CONTINUOUS
 70
0
 71
3
 72
21
 73
17
 74
0
 42
0.0000001
 43
0.0000001
 44
0.0000000001
 40
0.0
 40
0.0
 40
0.0
 40
0.0
 40
0.1229683586
 40
0.1846291852
 40
0.2464222231
 40
0.3083594657
 40
0.3704517377
 40
0.4327079591
 40
0.49513282
 40
0.557727432
 40
0.6204888849
 40
0.6834099387
 40
0.7464809678
 40
0.8096898189
 40
0.8730228
 40
1.0
 40
1.0
 40
1.0
 40
1.0
 10
12.4954266493
 20
4.6068660589
 30
0.0
 10
12.4643657713
 20
4.6005119794
 30
0.0
 10
12.417475165
 20
4.5921314521
 30
0.0
 10
12.3544857602
 20
4.5837725908
 30
0.0
 10
12.3069142275
 20
4.5790266917
 30
0.0
 10
12.2590946342
 20
4.5759326958
 30
0.0
 10
12.2110730185
 20
4.5745959707
 30
0.0
 10
12.1629089833
 20
4.5751002807
 30
0.0
 10
12.1146719018
 20
4.5774960538
 30
0.0
 10
12.0664364681
 20
4.5817958081
 30
0.0
 10
12.0182773372
 20
4.5879762074
 30
0.0
 10
11.970263334
 20
4.5959768483
 30
0.0
 10
11.9224530648
 20
4.6057056151
 30
0.0
 10
11.874891958
 20
4.6170506669
 30
0.0
 10
11.8118044703
 20
4.6341769285
 30
0.0
 10
11.7650125422
 20
4.6490387746
 30
0.0
 10
11.73404835
 20
4.6596678233
 30
0.0
  0
SPLINE
  5
365
100
AcDbEntity
  8
0
100
AcDbSpline
 62
7
  6
CONTINUOUS
 70
0
 71
3
 72
11
 73
7
 74
0
 42
0.0000001
 43
0.0000001
 44
0.0000000001
 40
0.0
 40
0.0
 40
0.0
 40
0.0
 40
0.2458672335
 40
0.4933492082
 40
0.7440905688
 40
1.0
 40
1.0
 40
1.0
 40
1.0
 10
11.6996677764
 20
4.6685661593
 30
0.0
 10
11.6965360396
 20
4.6683896735
 30
0.0
 10
11.6902363284
 20
4.6682642605
 30
0.0
 10
11.6807495418
 20
4.6688164648
 30
0.0
 10
11.6712124722
 20
4.6701643539
 30
0.0
 10
11.6649033683
 20
4.6716122029
 30
0.0
 10
11.6617552612
 20
4.6724773499
 30
0.0
  0
LINE
  5
366
100
AcDbEntity
  8
0
100
AcDbLine
 62
7
  6
CONTINUOUS
 10
11.6617552612
 20
4.6724773499
 11
11.6613947704
 21
4.6725770477
  0
SPLINE
  5
367
100
AcDbEntity
  8
0
100
AcDbSpline
 62
7
  6
CONTINUOUS
 70
0
 71
3
 72
9
 73
5
 74
0
 42
0.0000001
 43
0.0000001
 44
0.0000000001
 40
0.0
 40
0.0
 40
0.0
 40
0.0
 40
0.4899125641
 40
1.0
 40
1.0
 40
1.0
 40
1.0
 10
11.6613947704
 20
4.6725770477
 30
0.0
 10
11.6578171472
 20
4.673572731
 30
0.0
 10
11.650609234
 20
4.6759600988
 30
0.0
 10
11.6436587681
 20
4.6790151263
 30
0.0
 10
11.6401915743
 20
4.6807264271
 30
0.0
  0
LINE
  5
368
100
AcDbEntity
  8
0
100
AcDbLine
 62
7
  6
CONTINUOUS
 10
12.9470074036
 20
4.6713071774
 11
12.9459194048
 21
4.6708233679
  0
SPLINE
  5
369
100
AcDbEntity
  8
0
100
AcDbSpline
 62
7
  6
CONTINUOUS
 70
0
 71
3
 72
15
 73
11
 74
0
 42
0.0000001
 43
0.0000001
 44
0.0000000001
 40
0.0
 40
0.0
 40
0.0
 40
0.0
 40
0.1323763415
 40
0.2621392813
 40
0.3894055944
 40
0.5144404382
 40
0.637615975
 40
0.7593469011
 40
0.8800294664
 40
1.0
 40
1.0
 40
1.0
 40
1.0
 10
12.9459194048
 20
4.6708233679
 30
0.0
 10
12.9292518535
 20
4.6634243897
 30
0.0
 10
12.8958056256
 20
4.6497341983
 30
0.0
 10
12.8448852557
 20
4.6327273548
 30
0.0
 10
12.7938533646
 20
4.6196521703
 30
0.0
 10
12.7428857868
 20
4.6105556564
 30
0.0
 10
12.6921484997
 20
4.6053157745
 30
0.0
 10
12.6417736049
 20
4.6036693644
 30
0.0
 10
12.5918473137
 20
4.6052620064
 30
0.0
 10
12.5588094887
 20
4.6082290656
 30
0.0
 10
12.5423913731
 20
4.6101230793
 30
0.0
  0
SPLINE
  5
36A
100
AcDbEntity
  8
0
100
AcDbSpline
 62
7
  6
CONTINUOUS
 70
0
 71
3
 72
49
 73
45
 74
0
 42
0.0000001
 43
0.0000001
 44
0.0000000001
 40
0.0
 40
0.0
 40
0.0
 40
0.0
 40
0.0321974564
 40
0.0654883787
 40
0.0997680175
 40
0.1349263389
 40
0.1708495829
 40
0.2074204546
 40
0.2445188136
 40
0.2820222069
 40
0.3198064251
 40
0.3577460499
 40
0.3957149968
 40
0.4335870564
 40
0.471236434
 40
0.5085382913
 40
0.5453692905
 40
0.5816081453
 40
0.6171361769
 40
0.65183788
 40
0.6856015059
 40
0.718319669
 40
0.7498899893
 40
0.7802157856
 40
0.7948838237
 40
0.8092074836
 40
0.8231766373
 40
0.8367816849
 40
0.8500136041
 40
0.8628639331
 40
0.8753249144
 40
0.8873894303
 40
0.8990511804
 40
0.9103046612
 40
0.9211452978
 40
0.931569547
 40
0.9415749562
 40
0.951160405
 40
0.9603261475
 40
0.9690741422
 40
0.9774081957
 40
0.9853343196
 40
0.992861084
 40
1.0
 40
1.0
 40
1.0
 40
1.0
 10
10.7653117165
 20
11.7535131156
 30
0.0
 10
10.748504058
 20
11.7504671143
 30
0.0
 10
10.7142468196
 20
11.7446586695
 30
0.0
 10
10.6618872366
 20
11.7368926213
 30
0.0
 10
10.6078284874
 20
11.7299465628
 30
0.0
 10
10.5522630633
 20
11.7238455425
 30
0.0
 10
10.4953886523
 20
11.7186114638
 30
0.0
 10
10.4374076512
 20
11.7142631421
 30
0.0
 10
10.3785264407
 20
11.7108161919
 30
0.0
 10
10.3189546347
 20
11.7082829933
 30
0.0
 10
10.2589043264
 20
11.7066726378
 30
0.0
 10
10.1985893259
 20
11.7059909037
 30
0.0
 10
10.1382243913
 20
11.7062402369
 30
0.0
 10
10.0780244599
 20
11.7074197424
 30
0.0
 10
10.0182038772
 20
11.7095251875
 30
0.0
 10
9.9589756288
 20
11.7125490157
 30
0.0
 10
9.9005505759
 20
11.7164803737
 30
0.0
 10
9.8431366941
 20
11.7213051425
 30
0.0
 10
9.7869383267
 20
11.7270059895
 30
0.0
 10
9.732155437
 20
11.7335624266
 30
0.0
 10
9.6789829182
 20
11.7409508875
 30
0.0
 10
9.6276097537
 20
11.7491447827
 30
0.0
 10
9.5782187728
 20
11.7581146795
 30
0.0
 10
9.5384280895
 20
11.7662973463
 30
0.0
 10
9.5077301614
 20
11.7732252398
 30
0.0
 10
9.4855653548
 20
11.7785368693
 30
0.0
 10
9.4640230334
 20
11.7840170763
 30
0.0
 10
9.4431223257
 20
11.7896610166
 30
0.0
 10
9.422881809
 20
11.7954636003
 30
0.0
 10
9.4033194673
 20
11.8014197102
 30
0.0
 10
9.3844526569
 20
11.8075239518
 30
0.0
 10
9.3662981237
 20
11.8137709544
 30
0.0
 10
9.3488719459
 20
11.8201550871
 30
0.0
 10
9.3321895532
 20
11.8266706963
 30
0.0
 10
9.316265692
 20
11.8333119912
 30
0.0
 10
9.3011143998
 20
11.8400730382
 30
0.0
 10
9.2867490358
 20
11.8469479298
 30
0.0
 10
9.2731821808
 20
11.8539305188
 30
0.0
 10
9.2604257423
 20
11.8610147848
 30
0.0
 10
9.248490802
 20
11.8681945072
 30
0.0
 10
9.2373877739
 20
11.8754635356
 30
0.0
 10
9.2271261468
 20
11.8828158323
 30
0.0
 10
9.2177151613
 20
11.8902448812
 30
0.0
 10
9.2118619882
 20
11.8953779198
 30
0.0
 10
9.2090894573
 20
11.89795805
 30
0.0
  0
SPLINE
  5
36B
100
AcDbEntity
  8
0
100
AcDbSpline
 62
7
  6
CONTINUOUS
 70
0
 71
3
 72
19
 73
15
 74
0
 42
0.0000001
 43
0.0000001
 44
0.0000000001
 40
0.0
 40
0.0
 40
0.0
 40
0.0
 40
0.1504611406
 40
0.2916985742
 40
0.4244193292
 40
0.4878835935
 40
0.5495802133
 40
0.6682271463
 40
0.7255606136
 40
0.7817999183
 40
0.8371467056
 40
0.8918136429
 40
0.9460222308
 40
1.0
 40
1.0
 40
1.0
 40
1.0
 10
13.6079998855
 20
10.3841620607
 30
0.0
 10
13.6106587597
 20
10.3867303362
 30
0.0
 10
13.6159728366
 20
10.3915491471
 30
0.0
 10
13.6242011798
 20
10.3979707574
 30
0.0
 10
13.6311512969
 20
10.4025124906
 30
0.0
 10
13.6366935832
 20
10.4055880222
 30
0.0
 10
13.6420723568
 20
10.4082284503
 30
0.0
 10
13.6475141142
 20
10.4103867508
 30
0.0
 10
13.6529864807
 20
10.4120109012
 30
0.0
 10
13.6570325991
 20
10.412947083
 30
0.0
 10
13.6610652527
 20
10.4136143393
 30
0.0
 10
13.665083369
 20
10.4140123789
 30
0.0
 10
13.6690853277
 20
10.4141410372
 30
0.0
 10
13.6717441161
 20
10.4140470174
 30
0.0
 10
13.6730671287
 20
10.4139552705
 30
0.0
  0
SPLINE
  5
36C
100
AcDbEntity
  8
0
100
AcDbSpline
 62
7
  6
CONTINUOUS
 70
0
 71
3
 72
21
 73
17
 74
0
 42
0.0000001
 43
0.0000001
 44
0.0000000001
 40
0.0
 40
0.0
 40
0.0
 40
0.0
 40
0.1273174669
 40
0.2538000755
 40
0.316761934
 40
0.3795355049
 40
0.4421315085
 40
0.504562148
 40
0.5668413451
 40
0.628984521
 40
0.6910084481
 40
0.7529310917
 40
0.8147714402
 40
0.876549326
 40
0.9382852166
 40
1.0
 40
1.0
 40
1.0
 40
1.0
 10
10.217666628
 20
7.148815398
 30
0.0
 10
10.217666628
 20
7.1366193515
 30
0.0
 10
10.216502415
 20
7.1122915351
 30
0.0
 10
10.2121056427
 20
7.0822171064
 30
0.0
 10
10.2068504589
 20
7.0586263399
 30
0.0
 10
10.2020579994
 20
7.0412258128
 30
0.0
 10
10.1964200578
 20
7.0241344395
 30
0.0
 10
10.1899494891
 20
7.0073911927
 30
0.0
 10
10.1826611984
 20
6.9910348146
 30
0.0
 10
10.174571996
 20
6.97510298
 30
0.0
 10
10.1657005052
 20
6.9596324506
 30
0.0
 10
10.1560671081
 20
6.9446589348
 30
0.0
 10
10.1456940627
 20
6.9302169964
 30
0.0
 10
10.1346051813
 20
6.9163398245
 30
0.0
 10
10.1228264728
 20
6.9030598591
 30
0.0
 10
10.114530595
 20
6.8946236202
 30
0.0
 10
10.1102784909
 20
6.8905164216
 30
0.0
  0
SPLINE
  5
36D
100
AcDbEntity
  8
0
100
AcDbSpline
 62
7
  6
CONTINUOUS
 70
0
 71
3
 72
15
 73
11
 74
0
 42
0.0000001
 43
0.0000001
 44
0.0000000001
 40
0.0
 40
0.0
 40
0.0
 40
0.0
 40
0.1273483438
 40
0.2538606048
 40
0.3795878922
 40
0.5046051199
 40
0.6290174392
 40
0.7529533668
 40
0.8765605676
 40
1.0
 40
1.0
 40
1.0
 40
1.0
 10
12.1380238455
 20
11.0363046628
 30
0.0
 10
12.1380238455
 20
11.0304560614
 30
0.0
 10
12.1374654153
 20
11.0187891707
 30
0.0
 10
12.1349399733
 20
11.0015132311
 30
0.0
 10
12.1307523676
 20
10.98467138
 30
0.0
 10
12.1249404311
 20
10.9684211215
 30
0.0
 10
12.1175574705
 20
10.9529123264
 30
0.0
 10
12.1086707822
 20
10.9382882169
 30
0.0
 10
12.098363965
 20
10.9246857892
 30
0.0
 10
12.0906034353
 20
10.9163766945
 30
0.0
 10
12.0865259067
 20
10.9124381369
 30
0.0
  0
SPLINE
  5
36E
100
AcDbEntity
  8
0
100
AcDbSpline
 62
7
  6
CONTINUOUS
 70
0
 71
3
 72
15
 73
11
 74
0
 42
0.0000001
 43
0.0000001
 44
0.0000000001
 40
0.0
 40
0.0
 40
0.0
 40
0.0
 40
0.1273483438
 40
0.2538606048
 40
0.3795878922
 40
0.5046051199
 40
0.6290174392
 40
0.7529533668
 40
0.8765605676
 40
1.0
 40
1.0
 40
1.0
 40
1.0
 10
9.9646906076
 20
5.9710260637
 30
0.0
 10
9.9646906076
 20
5.9651774624
 30
0.0
 10
9.9641321774
 20
5.9535105716
 30
0.0
 10
9.9616067354
 20
5.9362346321
 30
0.0
 10
9.9574191296
 20
5.919392781
 30
0.0
 10
9.9516071932
 20
5.9031425225
 30
0.0
 10
9.9442242325
 20
5.8876337273
 30
0.0
 10
9.9353375443
 20
5.8730096178
 30
0.0
 10
9.9250307271
 20
5.8594071901
 30
0.0
 10
9.9172701973
 20
5.8510980955
 30
0.0
 10
9.9131926688
 20
5.8471595378
 30
0.0
  0
SPLINE
  5
36F
100
AcDbEntity
  8
0
100
AcDbSpline
 62
7
  6
CONTINUOUS
 70
0
 71
3
 72
23
 73
19
 74
0
 42
0.0000001
 43
0.0000001
 44
0.0000000001
 40
0.0
 40
0.0
 40
0.0
 40
0.0
 40
0.0614873653
 40
0.1229200527
 40
0.1843729843
 40
0.2459284181
 40
0.3076716204
 40
0.3696803143
 40
0.4320154551
 40
0.4947122786
 40
0.5577717792
 40
0.6211531909
 40
0.6847679955
 40
0.7484768604
 40
0.8120913691
 40
0.8753832195
 40
0.9381017313
 40
1.0
 40
1.0
 40
1.0
 40
1.0
 10
9.8555504826
 20
7.3849380404
 30
0.0
 10
9.8555504826
 20
7.3787917849
 30
0.0
 10
9.8562257345
 20
7.3664939865
 30
0.0
 10
9.8592537941
 20
7.3482789982
 30
0.0
 10
9.8642465032
 20
7.3304933272
 30
0.0
 10
9.8711253396
 20
7.3133173144
 30
0.0
 10
9.8797882002
 20
7.2969072348
 30
0.0
 10
9.8901163242
 20
7.2813993709
 30
0.0
 10
9.9019795479
 20
7.2669107799
 30
0.0
 10
9.9152398946
 20
7.2535430279
 30
0.0
 10
9.9297531716
 20
7.2413861794
 30
0.0
 10
9.9453686008
 20
7.2305226043
 30
0.0
 10
9.9619270053
 20
7.2210296668
 30
0.0
 10
9.9792585356
 20
7.2129808261
 30
0.0
 10
9.9971807149
 20
7.2064450115
 30
0.0
 10
10.0154992686
 20
7.2014843053
 30
0.0
 10
10.03400717
 20
7.1981504307
 30
0.0
 10
10.0464330423
 20
7.1970285306
 30
0.0
 10
10.0526143179
 20
7.1967548988
 30
0.0
  0
SPLINE
  5
370
100
AcDbEntity
  8
0
100
AcDbSpline
 62
7
  6
CONTINUOUS
 70
0
 71
3
 72
15
 73
11
 74
0
 42
0.0000001
 43
0.0000001
 44
0.0000000001
 40
0.0
 40
0.0
 40
0.0
 40
0.0
 40
0.1273483316
 40
0.2538605887
 40
0.3795878789
 40
0.5046051138
 40
0.6290174418
 40
0.7529533759
 40
0.8765605771
 40
1.0
 40
1.0
 40
1.0
 40
1.0
 10
10.0538953934
 20
7.1751245236
 30
0.0
 10
10.0538953934
 20
7.168610744
 30
0.0
 10
10.0532734577
 20
7.1556169441
 30
0.0
 10
10.0504608182
 20
7.1363761576
 30
0.0
 10
10.0457969906
 20
7.1176188214
 30
0.0
 10
10.0393241093
 20
7.0995203494
 30
0.0
 10
10.0311015419
 20
7.0822476546
 30
0.0
 10
10.0212042364
 20
7.0659602454
 30
0.0
 10
10.0097252968
 20
7.0508106964
 30
0.0
 10
10.0010822118
 20
7.041556517
 30
0.0
 10
9.9965409706
 20
7.037169978
 30
0.0
  0
SPLINE
  5
371
100
AcDbEntity
  8
0
100
AcDbSpline
 62
7
  6
CONTINUOUS
 70
0
 71
3
 72
41
 73
37
 74
0
 42
0.0000001
 43
0.0000001
 44
0.0000000001
 40
0.0
 40
0.0
 40
0.0
 40
0.0
 40
0.0310747051
 40
0.0623073113
 40
0.0936919989
 40
0.1252208455
 40
0.1568822151
 40
0.1886620094
 40
0.2205435949
 40
0.2525083053
 40
0.2845357889
 40
0.316604441
 40
0.348691836
 40
0.3807751761
 40
0.4128317441
 40
0.4448393548
 40
0.4767767997
 40
0.508624277
 40
0.5403638028
 40
0.5719795929
 40
0.6034584126
 40
0.6347898832
 40
0.6659667393
 40
0.6969850295
 40
0.7278442515
 40
0.7585474165
 40
0.7891010353
 40
0.8195150233
 40
0.84980252
 40
0.8649066417
 40
0.8799854015
 40
0.9100708282
 40
0.9400854833
 40
0.9550762344
 40
0.9700578784
 40
1.0
 40
1.0
 40
1.0
 40
1.0
 10
10.0538953934
 20
7.1751245236
 30
0.0
 10
10.0538953934
 20
7.1801873127
 30
0.0
 10
10.0535176986
 20
7.190342511
 30
0.0
 10
10.0518315075
 20
7.205526666
 30
0.0
 10
10.0490335689
 20
7.2206217002
 30
0.0
 10
10.0451395153
 20
7.2355435567
 30
0.0
 10
10.0401707978
 20
7.250210651
 30
0.0
 10
10.0341548666
 20
7.264542383
 30
0.0
 10
10.0271248313
 20
7.2784601281
 30
0.0
 10
10.0191193752
 20
7.2918875107
 30
0.0
 10
10.0101824992
 20
7.3047508568
 30
0.0
 10
10.0003632998
 20
7.316979584
 30
0.0
 10
9.9897156948
 20
7.3285065866
 30
0.0
 10
9.9782981323
 20
7.3392685989
 30
0.0
 10
9.9661732719
 20
7.3492065394
 30
0.0
 10
9.9534076454
 20
7.3582658317
 30
0.0
 10
9.9400712953
 20
7.3663967015
 30
0.0
 10
9.9262373951
 20
7.3735544483
 30
0.0
 10
9.9119818531
 20
7.3796996892
 30
0.0
 10
9.8973829015
 20
7.3847985751
 30
0.0
 10
9.8825206729
 20
7.3888229774
 30
0.0
 10
9.8674767671
 20
7.3917506459
 30
0.0
 10
9.8523338077
 20
7.3935653329
 30
0.0
 10
9.8371749993
 20
7.3942568898
 30
0.0
 10
9.8220836586
 20
7.3938213219
 30
0.0
 10
9.807142822
 20
7.392260848
 30
0.0
 10
9.7924345654
 20
7.3895837907
 30
0.0
 10
9.7780403909
 20
7.38580494
 30
0.0
 10
9.7663601366
 20
7.3817502339
 30
0.0
 10
9.7572559098
 20
7.3779795298
 30
0.0
 10
9.7483360144
 20
7.3738693778
 30
0.0
 10
9.7375205635
 20
7.3680919936
 30
0.0
 10
9.7272066244
 20
7.3614870203
 30
0.0
 10
9.7193021996
 20
7.3557352356
 30
0.0
 10
9.7116417658
 20
7.3496821911
 30
0.0
 10
9.7061718679
 20
7.3448038222
 30
0.0
 10
9.7026631676
 20
7.3414146495
 30
0.0
  0
SPLINE
  5
372
100
AcDbEntity
  8
0
100
AcDbSpline
 62
7
  6
CONTINUOUS
 70
0
 71
3
 72
11
 73
7
 74
0
 42
0.0000001
 43
0.0000001
 44
0.0000000001
 40
0.0
 40
0.0
 40
0.0
 40
0.0
 40
0.2697183344
 40
0.5237013691
 40
0.7658764722
 40
1.0
 40
1.0
 40
1.0
 40
1.0
 10
9.2583057327
 20
11.8624633778
 30
0.0
 10
9.2578747458
 20
11.8636461895
 30
0.0
 10
9.2571284219
 20
11.865977258
 30
0.0
 10
9.2563295238
 20
11.8694659583
 30
0.0
 10
9.2558659301
 20
11.8728473251
 30
0.0
 10
9.2557654006
 20
11.8750716937
 30
0.0
 10
9.2557654006
 20
11.8761644439
 30
0.0
  0
SPLINE
  5
373
100
AcDbEntity
  8
0
100
AcDbSpline
 62
7
  6
CONTINUOUS
 70
0
 71
3
 72
29
 73
25
 74
0
 42
0.0000001
 43
0.0000001
 44
0.0000000001
 40
0.0
 40
0.0
 40
0.0
 40
0.0
 40
0.0191436973
 40
0.0390355211
 40
0.0596935659
 40
0.0811327518
 40
0.1033648686
 40
0.1263993078
 40
0.1502429301
 40
0.1749005738
 40
0.2003752217
 40
0.2266679852
 40
0.2537786426
 40
0.2817053285
 40
0.3399913541
 40
0.4014903187
 40
0.4661475825
 40
0.533894394
 40
0.604649601
 40
0.6783209807
 40
0.7548067634
 40
0.8339951261
 40
0.9157694204
 40
1.0
 40
1.0
 40
1.0
 40
1.0
 10
11.1600408204
 20
11.8979575488
 30
0.0
 10
11.1580567139
 20
11.896111137
 30
0.0
 10
11.1539308768
 20
11.8924314489
 30
0.0
 10
11.1474107154
 20
11.8870515964
 30
0.0
 10
11.1404452991
 20
11.881709552
 30
0.0
 10
11.1330379119
 20
11.8764078812
 30
0.0
 10
11.1251919393
 20
11.8711488184
 30
0.0
 10
11.1169109214
 20
11.8659348313
 30
0.0
 10
11.108198668
 20
11.8607682149
 30
0.0
 10
11.0990591539
 20
11.8556513355
 30
0.0
 10
11.0894965504
 20
11.8505865628
 30
0.0
 10
11.0795152714
 20
11.8455761569
 30
0.0
 10
11.0691198542
 20
11.8406224629
 30
0.0
 10
11.0545045829
 20
11.834001641
 30
0.0
 10
11.0352193114
 20
11.8259012304
 30
0.0
 10
11.010823825
 20
11.8165760851
 30
0.0
 10
10.9849007563
 20
11.807529951
 30
0.0
 10
10.9574978698
 20
11.7987796216
 30
0.0
 10
10.9286653844
 20
11.7903413637
 30
0.0
 10
10.8984563448
 20
11.782230863
 30
0.0
 10
10.8669265117
 20
11.7744632708
 30
0.0
 10
10.8341338134
 20
11.7670529421
 30
0.0
 10
10.8001391634
 20
11.7600138502
 30
0.0
 10
10.7770458148
 20
11.7556396508
 30
0.0
 10
10.7653117165
 20
11.7535131156
 30
0.0
  0
SPLINE
  5
374
100
AcDbEntity
  8
0
100
AcDbSpline
 62
7
  6
CONTINUOUS
 70
0
 71
3
 72
11
 73
7
 74
0
 42
0.0000001
 43
0.0000001
 44
0.0000000001
 40
0.0
 40
0.0
 40
0.0
 40
0.0
 40
0.2341956276
 40
0.4764098744
 40
0.7303772225
 40
1.0
 40
1.0
 40
1.0
 40
1.0
 10
11.1133654006
 20
11.8761644439
 30
0.0
 10
11.1133654006
 20
11.8750750639
 30
0.0
 10
11.1132655007
 20
11.8728577285
 30
0.0
 10
11.1128048453
 20
11.8694872178
 30
0.0
 10
11.1120110534
 20
11.8660101686
 30
0.0
 10
11.1112695194
 20
11.863686845
 30
0.0
 10
11.1108413157
 20
11.8625080364
 30
0.0
  0
SPLINE
  5
375
100
AcDbEntity
  8
0
100
AcDbSpline
 62
7
  6
CONTINUOUS
 70
0
 71
3
 72
41
 73
37
 74
0
 42
0.0000001
 43
0.0000001
 44
0.0000000001
 40
0.0
 40
0.0
 40
0.0
 40
0.0
 40
0.0299421689
 40
0.0599087154
 40
0.0899234217
 40
0.1200089011
 40
0.1501860597
 40
0.1804736107
 40
0.2108876533
 40
0.2414413269
 40
0.2721445469
 40
0.3030038242
 40
0.3340221695
 40
0.3651990796
 40
0.3965306028
 40
0.4280094739
 40
0.4596253147
 40
0.4913648909
 40
0.5232124193
 40
0.5551499155
 40
0.5871575776
 40
0.6192141968
 40
0.6512975879
 40
0.683385034
 40
0.7154537372
 40
0.7314764367
 40
0.7474861023
 40
0.7794508627
 40
0.8113324993
 40
0.8431123361
 40
0.8747737727
 40
0.9063026037
 40
0.9376875169
 40
0.9533255933
 40
0.9689249755
 40
1.0
 40
1.0
 40
1.0
 40
1.0
 10
9.5600414653
 20
7.4601682269
 30
0.0
 10
9.5666109763
 20
7.4665138585
 30
0.0
 10
9.5802666143
 20
7.4786929545
 30
0.0
 10
9.6021450227
 20
7.4952848402
 30
0.0
 10
9.6253066049
 20
7.5101168774
 30
0.0
 10
9.6496219271
 20
7.5231058807
 30
0.0
 10
9.6749573068
 20
7.5341808893
 30
0.0
 10
9.7011729198
 20
7.5432810277
 30
0.0
 10
9.7281243039
 20
7.5503565057
 30
0.0
 10
9.7556629779
 20
7.555368693
 30
0.0
 10
9.7836373204
 20
7.5582903601
 30
0.0
 10
9.8118933951
 20
7.5591057921
 30
0.0
 10
9.8402757993
 20
7.55781087
 30
0.0
 10
9.868628517
 20
7.5544130731
 30
0.0
 10
9.8967957681
 20
7.5489314102
 30
0.0
 10
9.9246228539
 20
7.5413963047
 30
0.0
 10
9.951956995
 20
7.5318494169
 30
0.0
 10
9.9786481566
 20
7.5203434091
 30
0.0
 10
10.0045498615
 20
7.5069416516
 30
0.0
 10
10.0295199773
 20
7.4917178794
 30
0.0
 10
10.0534215111
 20
7.4747557793
 30
0.0
 10
10.0761232855
 20
7.4561486002
 30
0.0
 10
10.0975008717
 20
7.4359983361
 30
0.0
 10
10.1174364322
 20
7.4144163269
 30
0.0
 10
10.1327630546
 20
7.395328534
 30
0.0
 10
10.1441981066
 20
7.3794627204
 30
0.0
 10
10.1550578608
 20
7.3632358821
 30
0.0
 10
10.1675434702
 20
7.3422941626
 30
0.0
 10
10.1807057273
 20
7.31623588
 30
0.0
 10
10.191969635
 20
7.2894019472
 30
0.0
 10
10.2012726923
 20
7.261940106
 30
0.0
 10
10.2085636511
 20
7.2340017992
 30
0.0
 10
10.2129347249
 20
7.2104188169
 30
0.0
 10
10.2153867943
 20
7.1914702277
 30
0.0
 10
10.2171367553
 20
7.1725397534
 30
0.0
 10
10.217666628
 20
7.1582947287
 30
0.0
 10
10.217666628
 20
7.148815398
 30
0.0
  0
SPLINE
  5
376
100
AcDbEntity
  8
0
100
AcDbSpline
 62
7
  6
CONTINUOUS
 70
0
 71
3
 72
39
 73
35
 74
0
 42
0.0000001
 43
0.0000001
 44
0.0000000001
 40
0.0
 40
0.0
 40
0.0
 40
0.0
 40
0.0299424683
 40
0.0599093148
 40
0.0899243219
 40
0.1200101034
 40
0.1501875656
 40
0.1804754221
 40
0.2108897722
 40
0.2414437551
 40
0.2721472861
 40
0.3030068757
 40
0.334025535
 40
0.3652027614
 40
0.3965346031
 40
0.4280137946
 40
0.459629957
 40
0.4913698552
 40
0.5232177051
 40
0.5551555222
 40
0.5871635048
 40
0.6192204442
 40
0.6513041551
 40
0.68339192
 40
0.7154609412
 40
0.7474887928
 40
0.7794538702
 40
0.8113358216
 40
0.8431159806
 40
0.8747777136
 40
0.9063069224
 40
0.9376919709
 40
0.9689249367
 40
1.0
 40
1.0
 40
1.0
 40
1.0
 10
11.8226631338
 20
11.1856129225
 30
0.0
 10
11.8258135139
 20
11.188655931
 30
0.0
 10
11.8323620387
 20
11.1944963138
 30
0.0
 10
11.8428537416
 20
11.2024528285
 30
0.0
 10
11.8539607821
 20
11.2095654152
 30
0.0
 10
11.8656210865
 20
11.215794188
 30
0.0
 10
11.8777705513
 20
11.2211051144
 30
0.0
 10
11.8903421247
 20
11.2254690014
 30
0.0
 10
11.9032665306
 20
11.2288619723
 30
0.0
 10
11.9164725655
 20
11.2312655029
 30
0.0
 10
11.9298875198
 20
11.2326665374
 30
0.0
 10
11.9434375743
 20
11.2330575433
 30
0.0
 10
11.9570482077
 20
11.2324365452
 30
0.0
 10
11.9706446037
 20
11.2308071258
 30
0.0
 10
11.9841520585
 20
11.2281783986
 30
0.0
 10
11.9974963867
 20
11.2245649519
 30
0.0
 10
12.0106043231
 20
11.2199867638
 30
0.0
 10
12.0234039194
 20
11.2144690901
 30
0.0
 10
12.0358249342
 20
11.2080423231
 30
0.0
 10
12.0477992122
 20
11.2007418233
 30
0.0
 10
12.0592610536
 20
11.1926077261
 30
0.0
 10
12.07014757
 20
11.1836847222
 30
0.0
 10
12.0803990251
 20
11.1740218137
 30
0.0
 10
12.0899591592
 20
11.1636720482
 30
0.0
 10
12.098775494
 20
11.1526922295
 30
0.0
 10
12.1067996189
 20
11.1411426097
 30
0.0
 10
12.113987452
 20
11.129086562
 30
0.0
 10
12.1202994865
 20
11.116590236
 30
0.0
 10
12.1257009905
 20
11.1037222062
 30
0.0
 10
12.1301622357
 20
11.0905530671
 30
0.0
 10
12.1336585762
 20
11.0771551865
 30
0.0
 10
12.1361707516
 20
11.0636018163
 30
0.0
 10
12.137684726
 20
11.0499684279
 30
0.0
 10
12.1380238455
 20
11.0408503862
 30
0.0
 10
12.1380238455
 20
11.0363046628
 30
0.0
  0
SPLINE
  5
377
100
AcDbEntity
  8
0
100
AcDbSpline
 62
7
  6
CONTINUOUS
 70
0
 71
3
 72
39
 73
35
 74
0
 42
0.0000001
 43
0.0000001
 44
0.0000000001
 40
0.0
 40
0.0
 40
0.0
 40
0.0
 40
0.0299424683
 40
0.0599093148
 40
0.0899243219
 40
0.1200101034
 40
0.1501875656
 40
0.1804754221
 40
0.2108897722
 40
0.2414437551
 40
0.2721472861
 40
0.3030068757
 40
0.334025535
 40
0.3652027614
 40
0.3965346031
 40
0.4280137946
 40
0.459629957
 40
0.4913698552
 40
0.5232177051
 40
0.5551555222
 40
0.5871635048
 40
0.6192204442
 40
0.6513041551
 40
0.68339192
 40
0.7154609412
 40
0.7474887928
 40
0.7794538702
 40
0.8113358216
 40
0.8431159806
 40
0.8747777136
 40
0.9063069224
 40
0.9376919709
 40
0.9689249367
 40
1.0
 40
1.0
 40
1.0
 40
1.0
 10
9.6493298958
 20
6.1203343235
 30
0.0
 10
9.652480276
 20
6.1233773319
 30
0.0
 10
9.6590288007
 20
6.1292177148
 30
0.0
 10
9.6695205037
 20
6.1371742294
 30
0.0
 10
9.6806275442
 20
6.1442868161
 30
0.0
 10
9.6922878486
 20
6.1505155889
 30
0.0
 10
9.7044373134
 20
6.1558265153
 30
0.0
 10
9.7170088868
 20
6.1601904023
 30
0.0
 10
9.7299332927
 20
6.1635833732
 30
0.0
 10
9.7431393275
 20
6.1659869039
 30
0.0
 10
9.7565542819
 20
6.1673879383
 30
0.0
 10
9.7701043364
 20
6.1677789443
 30
0.0
 10
9.7837149698
 20
6.1671579462
 30
0.0
 10
9.7973113658
 20
6.1655285267
 30
0.0
 10
9.8108188206
 20
6.1628997996
 30
0.0
 10
9.8241631488
 20
6.1592863529
 30
0.0
 10
9.8372710851
 20
6.1547081647
 30
0.0
 10
9.8500706815
 20
6.1491904911
 30
0.0
 10
9.8624916963
 20
6.142763724
 30
0.0
 10
9.8744659743
 20
6.1354632243
 30
0.0
 10
9.8859278157
 20
6.1273291271
 30
0.0
 10
9.8968143321
 20
6.1184061231
 30
0.0
 10
9.9070657872
 20
6.1087432147
 30
0.0
 10
9.9166259213
 20
6.0983934492
 30
0.0
 10
9.9254422561
 20
6.0874136304
 30
0.0
 10
9.9334663809
 20
6.0758640106
 30
0.0
 10
9.9406542141
 20
6.063807963
 30
0.0
 10
9.9469662486
 20
6.0513116369
 30
0.0
 10
9.9523677525
 20
6.0384436072
 30
0.0
 10
9.9568289978
 20
6.0252744681
 30
0.0
 10
9.9603253382
 20
6.0118765875
 30
0.0
 10
9.9628375136
 20
5.9983232172
 30
0.0
 10
9.9643514881
 20
5.9846898288
 30
0.0
 10
9.9646906076
 20
5.9755717872
 30
0.0
 10
9.9646906076
 20
5.9710260637
 30
0.0
  0
SPLINE
  5
378
100
AcDbEntity
  8
0
100
AcDbSpline
 62
7
  6
CONTINUOUS
 70
0
 71
3
 72
86
 73
82
 74
0
 42
0.0000001
 43
0.0000001
 44
0.0000000001
 40
0.0
 40
0.0
 40
0.0
 40
0.0
 40
0.002716423
 40
0.0054532184
 40
0.0082302775
 40
0.0110665566
 40
0.0139797488
 40
0.0169860419
 40
0.020099982
 40
0.0233344833
 40
0.0267008106
 40
0.0302087435
 40
0.0338666327
 40
0.0376815707
 40
0.041659524
 40
0.0458054172
 40
0.050123326
 40
0.0546164853
 40
0.059287471
 40
0.0641382186
 40
0.0691701101
 40
0.0743840651
 40
0.0797805185
 40
0.0853595635
 40
0.0911208899
 40
0.097063894
 40
0.1094905757
 40
0.122629762
 40
0.1364673676
 40
0.1509861198
 40
0.1661659549
 40
0.1819843348
 40
0.1984165055
 40
0.2154357144
 40
0.2330133935
 40
0.2511193234
 40
0.269721785
 40
0.2887876939
 40
0.3082827249
 40
0.3281714286
 40
0.3484173427
 40
0.3689830984
 40
0.3898305293
 40
0.4109207748
 40
0.4322143812
 40
0.4536714006
 40
0.49691332
 40
0.5403215239
 40
0.5835687025
 40
0.6050303106
 40
0.6263297971
 40
0.6474271998
 40
0.6682830476
 40
0.6888584598
 40
0.7091152471
 40
0.729016014
 40
0.7485242648
 40
0.7676045153
 40
0.7862224028
 40
0.804344802
 40
0.8219399494
 40
0.8389775763
 40
0.8554290562
 40
0.8712675732
 40
0.8864683068
 40
0.901008645
 40
0.9148684417
 40
0.92803033
 40
0.9404801139
 40
0.9464347718
 40
0.9522078119
 40
0.957798587
 40
0.9632067885
 40
0.9684324781
 40
0.9734760666
 40
0.9783384297
 40
0.9830208824
 40
0.987525401
 40
0.99185459
 40
0.9960115652
 40
1.0
 40
1.0
 40
1.0
 40
1.0
 10
13.5429326424
 20
8.5374622641
 30
0.0
 10
13.541177314
 20
8.5375839907
 30
0.0
 10
13.5376624838
 20
8.5379872484
 30
0.0
 10
13.5324349669
 20
8.5390662644
 30
0.0
 10
13.527246981
 20
8.5406194075
 30
0.0
 10
13.5221021779
 20
8.5426450191
 30
0.0
 10
13.5170032459
 20
8.5451413901
 30
0.0
 10
13.5119528033
 20
8.5481065537
 30
0.0
 10
13.5069531294
 20
8.5515383399
 30
0.0
 10
13.5020065328
 20
8.55543468
 30
0.0
 10
13.4971150469
 20
8.55979318
 30
0.0
 10
13.4922808744
 20
8.5646115567
 30
0.0
 10
13.4875060675
 20
8.5698872371
 30
0.0
 10
13.4827927514
 20
8.575617559
 30
0.0
 10
13.4781431079
 20
8.5817996923
 30
0.0
 10
13.4735591952
 20
8.5884305313
 30
0.0
 10
13.4690432746
 20
8.5955068709
 30
0.0
 10
13.4645973966
 20
8.6030251756
 30
0.0
 10
13.460223776
 20
8.6109817761
 30
0.0
 10
13.4559245192
 20
8.6193727311
 30
0.0
 10
13.4517017115
 20
8.6281938841
 30
0.0
 10
13.4475575067
 20
8.6374408818
 30
0.0
 10
13.4434938686
 20
8.6471091055
 30
0.0
 10
13.4395129259
 20
8.6571937644
 30
0.0
 10
13.4356165509
 20
8.6676898285
 30
0.0
 10
13.4304600584
 20
8.682446334
 30
0.0
 10
13.4242591102
 20
8.7018958462
 30
0.0
 10
13.4172918202
 20
8.7264537216
 30
0.0
 10
13.410706027
 20
8.7525163921
 30
0.0
 10
13.4045150693
 20
8.7800316846
 30
0.0
 10
13.3987315295
 20
8.8089447782
 30
0.0
 10
13.3933671707
 20
8.8391978325
 30
0.0
 10
13.3884329111
 20
8.8707302733
 30
0.0
 10
13.3839387979
 20
8.9034788859
 30
0.0
 10
13.3798939794
 20
8.9373779637
 30
0.0
 10
13.3763066856
 20
8.9723594474
 30
0.0
 10
13.3731842184
 20
9.0083530745
 30
0.0
 10
13.3705329355
 20
9.0452865275
 30
0.0
 10
13.3683582389
 20
9.0830855838
 30
0.0
 10
13.3666645646
 20
9.1216742663
 30
0.0
 10
13.3654553738
 20
9.1609749967
 30
0.0
 10
13.3647331403
 20
9.2009087522
 30
0.0
 10
13.3644993504
 20
9.2413952356
 30
0.0
 10
13.3647545154
 20
9.282353011
 30
0.0
 10
13.3654981113
 20
9.3236997789
 30
0.0
 10
13.3671432156
 20
9.3793775548
 30
0.0
 10
13.3704096979
 20
9.4493335396
 30
0.0
 10
13.3762162283
 20
9.5332796577
 30
0.0
 10
13.3826128356
 20
9.6030255265
 30
0.0
 10
13.3886497292
 20
9.6584097479
 30
0.0
 10
13.3936066149
 20
9.6994765445
 30
0.0
 10
13.3989938974
 20
9.7400932918
 30
0.0
 10
13.4048007624
 20
9.7801783742
 30
0.0
 10
13.4110154883
 20
9.8196511702
 30
0.0
 10
13.4176255446
 20
9.8584323155
 30
0.0
 10
13.4246175967
 20
9.8964438371
 30
0.0
 10
13.4319775382
 20
9.9336093217
 30
0.0
 10
13.43969051
 20
9.9698540726
 30
0.0
 10
13.4477409381
 20
10.0051052617
 30
0.0
 10
13.4561125639
 20
10.0392920762
 30
0.0
 10
13.4647884767
 20
10.0723458647
 30
0.0
 10
13.4737511475
 20
10.1042002793
 30
0.0
 10
13.4829824675
 20
10.1347914208
 30
0.0
 10
13.4924637785
 20
10.1640579774
 30
0.0
 10
13.5021759185
 20
10.1919413727
 30
0.0
 10
13.5120992668
 20
10.2183858523
 30
0.0
 10
13.5222138048
 20
10.2433387621
 30
0.0
 10
13.5324991337
 20
10.2667501682
 30
0.0
 10
13.5413213744
 20
10.2852007311
 30
0.0
 10
13.5484625038
 20
10.2991395229
 30
0.0
 10
13.5537685719
 20
10.3090240673
 30
0.0
 10
13.5591018133
 20
10.318489768
 30
0.0
 10
13.5644596193
 20
10.3275319154
 30
0.0
 10
13.5698392692
 20
10.3361460301
 30
0.0
 10
13.5752381676
 20
10.3443277866
 30
0.0
 10
13.5806535259
 20
10.3520731568
 30
0.0
 10
13.5860827673
 20
10.3593782825
 30
0.0
 10
13.591523242
 20
10.3662396242
 30
0.0
 10
13.5969724167
 20
10.3726538429
 30
0.0
 10
13.6024273887
 20
10.3786174564
 30
0.0
 10
13.6061417053
 20
10.3823671963
 30
0.0
 10
13.6079998855
 20
10.3841620607
 30
0.0
  0
SPLINE
  5
379
100
AcDbEntity
  8
0
100
AcDbSpline
 62
7
  6
CONTINUOUS
 70
0
 71
3
 72
61
 73
57
 74
0
 42
0.0000001
 43
0.0000001
 44
0.0000000001
 40
0.0
 40
0.0
 40
0.0
 40
0.0
 40
0.0075207324
 40
0.0156240055
 40
0.0243308433
 40
0.0336545768
 40
0.0436023655
 40
0.0541763112
 40
0.065374328
 40
0.0771908606
 40
0.0896173893
 40
0.1026427859
 40
0.1162536758
 40
0.1304347083
 40
0.145168727
 40
0.1604369411
 40
0.1762191128
 40
0.1924936716
 40
0.2092377896
 40
0.2264275197
 40
0.2440378952
 40
0.2620429852
 40
0.2804159755
 40
0.2991292715
 40
0.3374622021
 40
0.3768084315
 40
0.4169256179
 40
0.4575651873
 40
0.4984744046
 40
0.5393983996
 40
0.5800821848
 40
0.6202726688
 40
0.6597207048
 40
0.6981831032
 40
0.716971193
 40
0.7354254645
 40
0.7535181528
 40
0.77122227
 40
0.7885116657
 40
0.8053611304
 40
0.8217464875
 40
0.8376446498
 40
0.8530337228
 40
0.8678931552
 40
0.8822038278
 40
0.8959481785
 40
0.9091104066
 40
0.9216766781
 40
0.9336353289
 40
0.9449771747
 40
0.9556959343
 40
0.9657887051
 40
0.9752565188
 40
0.9841051808
 40
0.9923468454
 40
1.0
 40
1.0
 40
1.0
 40
1.0
 10
13.4821505057
 20
8.7610320332
 30
0.0
 10
13.4797977907
 20
8.7639248044
 30
0.0
 10
13.4751621181
 20
8.7701419322
 30
0.0
 10
13.4686386261
 20
8.7802980645
 30
0.0
 10
13.4623013522
 20
8.7916074698
 30
0.0
 10
13.4561603724
 20
8.8040516369
 30
0.0
 10
13.450224993
 20
8.8176112257
 30
0.0
 10
13.4445047607
 20
8.8322644964
 30
0.0
 10
13.4390089452
 20
8.8479878107
 30
0.0
 10
13.4337466201
 20
8.8647555994
 30
0.0
 10
13.4287265499
 20
8.882540452
 30
0.0
 10
13.4239570873
 20
8.9013131498
 30
0.0
 10
13.4194462071
 20
8.9210427645
 30
0.0
 10
13.4152014883
 20
8.9416967329
 30
0.0
 10
13.4112300536
 20
8.9632409004
 30
0.0
 10
13.4075385478
 20
8.9856395882
 30
0.0
 10
13.4041331732
 20
9.0088556807
 30
0.0
 10
13.4010196673
 20
9.0328506836
 30
0.0
 10
13.3982032374
 20
9.0575847796
 30
0.0
 10
13.3956886068
 20
9.0830169095
 30
0.0
 10
13.3934800109
 20
9.1091048542
 30
0.0
 10
13.3915811705
 20
9.1358052775
 30
0.0
 10
13.3899952189
 20
9.1630738616
 30
0.0
 10
13.388287895
 20
9.2004279678
 30
0.0
 10
13.3869702771
 20
9.2482052493
 30
0.0
 10
13.386676829
 20
9.3066116562
 30
0.0
 10
13.38766152
 20
9.3661542148
 30
0.0
 10
13.3899180272
 20
9.4264373918
 30
0.0
 10
13.3934315974
 20
9.4870609952
 30
0.0
 10
13.3981789798
 20
9.5476224612
 30
0.0
 10
13.4041285647
 20
9.607719647
 30
0.0
 10
13.4112407022
 20
9.6669536155
 30
0.0
 10
13.4194678607
 20
9.7249309106
 30
0.0
 10
13.4272665471
 20
9.7722395675
 30
0.0
 10
13.4340358632
 20
9.8091587672
 30
0.0
 10
13.4393158086
 20
9.8360813789
 30
0.0
 10
13.4448293214
 20
9.8624082926
 30
0.0
 10
13.4505672459
 20
9.8880958164
 30
0.0
 10
13.4565200166
 20
9.9131012765
 30
0.0
 10
13.4626777092
 20
9.9373831595
 30
0.0
 10
13.4690300332
 20
9.9609011725
 30
0.0
 10
13.4755663925
 20
9.9836162956
 30
0.0
 10
13.4822758997
 20
10.0054908551
 30
0.0
 10
13.4891473394
 20
10.0264886128
 30
0.0
 10
13.4961692386
 20
10.0465748126
 30
0.0
 10
13.5033299016
 20
10.0657162306
 30
0.0
 10
13.5106173948
 20
10.083881265
 30
0.0
 10
13.5180195663
 20
10.1010400062
 30
0.0
 10
13.5255241233
 20
10.1171642667
 30
0.0
 10
13.5331186737
 20
10.1322276479
 30
0.0
 10
13.5407906896
 20
10.1462056523
 30
0.0
 10
13.5485276924
 20
10.159075716
 30
0.0
 10
13.5563172039
 20
10.1708171068
 30
0.0
 10
13.5641472814
 20
10.1814116081
 30
0.0
 10
13.5720053466
 20
10.1908416257
 30
0.0
 10
13.5774520947
 20
10.1965485011
 30
0.0
 10
13.5801812194
 20
10.1991846333
 30
0.0
  0
SPLINE
  5
37A
100
AcDbEntity
  8
0
100
AcDbSpline
 62
7
  6
CONTINUOUS
 70
0
 71
3
 72
13
 73
9
 74
0
 42
0.0000001
 43
0.0000001
 44
0.0000000001
 40
0.0
 40
0.0
 40
0.0
 40
0.0
 40
0.1202674098
 40
0.2410045897
 40
0.3626753573
 40
0.4857317999
 40
0.7376159295
 40
1.0
 40
1.0
 40
1.0
 40
1.0
 10
13.4841120032
 20
8.7851251537
 30
0.0
 10
13.4831743984
 20
8.7851901723
 30
0.0
 10
13.4812991802
 20
8.7853813582
 30
0.0
 10
13.4785021775
 20
8.7858503176
 30
0.0
 10
13.4757193742
 20
8.7865015231
 30
0.0
 10
13.472001089
 20
8.7876206714
 30
0.0
 10
13.4673729042
 20
8.7894938034
 30
0.0
 10
13.4638349972
 20
8.7914189592
 30
0.0
 10
13.4620856652
 20
8.7924886408
 30
0.0
  0
SPLINE
  5
37B
100
AcDbEntity
  8
0
100
AcDbSpline
 62
7
  6
CONTINUOUS
 70
0
 71
3
 72
13
 73
9
 74
0
 42
0.0000001
 43
0.0000001
 44
0.0000000001
 40
0.0
 40
0.0
 40
0.0
 40
0.0
 40
0.120123352
 40
0.2407311327
 40
0.3623017086
 40
0.4853011086
 40
0.7372461718
 40
1.0
 40
1.0
 40
1.0
 40
1.0
 10
13.5806237731
 20
10.1767825746
 30
0.0
 10
13.5796708703
 20
10.1768486541
 30
0.0
 10
13.5777562689
 20
10.176918253
 30
0.0
 10
13.5748746372
 20
10.1768340775
 30
0.0
 10
13.5719815798
 20
10.1765613932
 30
0.0
 10
13.5680799838
 20
10.1759420456
 30
0.0
 10
13.5631554947
 20
10.174679575
 30
0.0
 10
13.5593253758
 20
10.1732109411
 30
0.0
 10
13.5574151193
 20
10.1723645853
 30
0.0
  0
SPLINE
  5
37C
100
AcDbEntity
  8
0
100
AcDbSpline
 62
7
  6
CONTINUOUS
 70
0
 71
3
 72
57
 73
53
 74
0
 42
0.0000001
 43
0.0000001
 44
0.0000000001
 40
0.0
 40
0.0
 40
0.0
 40
0.0
 40
0.0026707129
 40
0.0053521983
 40
0.0080550836
 40
0.0107897235
 40
0.0135660894
 40
0.0163936513
 40
0.0222352009
 40
0.0252673712
 40
0.0283826313
 40
0.03488576
 40
0.0417902241
 40
0.0491309307
 40
0.0569350589
 40
0.0652232609
 40
0.0740107557
 40
0.0833081307
 40
0.0931221717
 40
0.103456437
 40
0.1143116873
 40
0.1256863743
 40
0.1375768696
 40
0.1499777378
 40
0.1628820011
 40
0.1762812095
 40
0.1901656619
 40
0.2045245165
 40
0.2193458268
 40
0.2346167225
 40
0.250323421
 40
0.2664512942
 40
0.2829849887
 40
0.2999083976
 40
0.3348560741
 40
0.3711538615
 40
0.4086519992
 40
0.4471933788
 40
0.4866146812
 40
0.526747472
 40
0.5674192422
 40
0.6084544238
 40
0.649675406
 40
0.6909035415
 40
0.7319601408
 40
0.7726674747
 40
0.8128497794
 40
0.8523342587
 40
0.8909521024
 40
0.9285396043
 40
0.9649388605
 40
1.0
 40
1.0
 40
1.0
 40
1.0
 10
11.1133653872
 20
11.8761644439
 30
0.0
 10
11.1133653935
 20
11.8775308774
 30
0.0
 10
11.1132750413
 20
11.8802701086
 30
0.0
 10
11.1128686948
 20
11.8843741024
 30
0.0
 10
11.1121917203
 20
11.8884754966
 30
0.0
 10
11.1112444544
 20
11.8925726691
 30
0.0
 10
11.1100271489
 20
11.8966645012
 30
0.0
 10
11.1080237027
 20
11.9021700197
 30
0.0
 10
11.1054875212
 20
11.9076090558
 30
0.0
 10
11.10247076
 20
11.9129519728
 30
0.0
 10
11.0990112667
 20
11.9184252957
 30
0.0
 10
11.0939884679
 20
11.9252402807
 30
0.0
 10
11.0869929035
 20
11.9332386876
 30
0.0
 10
11.078953165
 20
11.9411655558
 30
0.0
 10
11.0698791435
 20
11.9490129795
 30
0.0
 10
11.0597809793
 20
11.9567734608
 30
0.0
 10
11.0486699266
 20
11.9644388856
 30
0.0
 10
11.0365584152
 20
11.9720011513
 30
0.0
 10
11.0234600047
 20
11.9794519305
 30
0.0
 10
11.0093894496
 20
11.9867828562
 30
0.0
 10
10.9943627329
 20
11.9939856828
 30
0.0
 10
10.9783969561
 20
12.0010521122
 30
0.0
 10
10.9615103937
 20
12.0079740207
 30
0.0
 10
10.9437224374
 20
12.0147434365
 30
0.0
 10
10.9250535399
 20
12.0213524466
 30
0.0
 10
10.9055252398
 20
12.0277934164
 30
0.0
 10
10.8851600862
 20
12.0340588436
 30
0.0
 10
10.8639816174
 20
12.0401413927
 30
0.0
 10
10.8420143525
 20
12.046034028
 30
0.0
 10
10.8192837273
 20
12.0517298425
 30
0.0
 10
10.7958160804
 20
12.0572221967
 30
0.0
 10
10.7716386315
 20
12.0625047087
 30
0.0
 10
10.7467793849
 20
12.0675712192
 30
0.0
 10
10.7123945771
 20
12.0741004908
 30
0.0
 10
10.6679163832
 20
12.0816563963
 30
0.0
 10
10.6128563436
 20
12.0896812377
 30
0.0
 10
10.5558087303
 20
12.0967201459
 30
0.0
 10
10.4970383185
 20
12.1027401029
 30
0.0
 10
10.4368176126
 20
12.1077128183
 30
0.0
 10
10.3754260456
 20
12.1116149476
 30
0.0
 10
10.3131485158
 20
12.1144281615
 30
0.0
 10
10.2502740892
 20
12.1161392645
 30
0.0
 10
10.1870946293
 20
12.1167402401
 30
0.0
 10
10.1239034287
 20
12.1162282682
 30
0.0
 10
10.0609938347
 20
12.1146057361
 30
0.0
 10
9.9986578733
 20
12.1118802619
 30
0.0
 10
9.9371848841
 20
12.1080646421
 30
0.0
 10
9.8768601504
 20
12.1031767801
 30
0.0
 10
9.8179635873
 20
12.0972396196
 30
0.0
 10
9.7607683462
 20
12.0902810392
 30
0.0
 10
9.7055399152
 20
12.0823338452
 30
0.0
 10
9.669478471
 20
12.0762799791
 30
0.0
 10
9.6518274383
 20
12.0730811357
 30
0.0
  0
SPLINE
  5
37D
100
AcDbEntity
  8
0
100
AcDbSpline
 62
7
  6
CONTINUOUS
 70
0
 71
3
 72
82
 73
78
 74
0
 42
0.0000001
 43
0.0000001
 44
0.0000000001
 40
0.0
 40
0.0
 40
0.0
 40
0.0
 40
0.0039332211
 40
0.0080292428
 40
0.012291558
 40
0.016723128
 40
0.0213264502
 40
0.0261034687
 40
0.031055486
 40
0.0361833816
 40
0.041487614
 40
0.0469682821
 40
0.0526251813
 40
0.0584577467
 40
0.0706459849
 40
0.0835240571
 40
0.097079028
 40
0.1112949562
 40
0.1261532645
 40
0.1416330282
 40
0.1577112183
 40
0.1743629151
 40
0.1915614839
 40
0.2092787268
 40
0.2274850164
 40
0.2461494155
 40
0.2652398017
 40
0.2847229768
 40
0.3045647696
 40
0.3247301333
 40
0.3451832374
 40
0.3658875673
 40
0.4079003045
 40
0.450466764
 40
0.4932795037
 40
0.5360288248
 40
0.5784056043
 40
0.5993588972
 40
0.6201048586
 40
0.6406062854
 40
0.660826548
 40
0.6807296882
 40
0.700280511
 40
0.7194446778
 40
0.738188804
 40
0.7564805616
 40
0.7742887941
 40
0.7915836302
 40
0.8083366017
 40
0.8245207762
 40
0.8401109072
 40
0.8550836108
 40
0.8694175698
 40
0.8830937594
 40
0.8960957318
 40
0.9084099703
 40
0.9200263414
 40
0.9255710201
 40
0.9309392963
 40
0.936131161
 40
0.9411469213
 40
0.9459873335
 40
0.9506535446
 40
0.9551472204
 40
0.9594705804
 40
0.9636264336
 40
0.9676183374
 40
0.9714505908
 40
0.9751284155
 40
0.9786580276
 40
0.9820467434
 40
0.9853031568
 40
0.9884371787
 40
0.9914602061
 40
0.994385146
 40
0.9972264342
 40
1.0
 40
1.0
 40
1.0
 40
1.0
 10
13.5801812194
 20
8.5691847049
 30
0.0
 10
13.5820005123
 20
8.570942007
 30
0.0
 10
13.5856371938
 20
8.574609995
 30
0.0
 10
13.5909805065
 20
8.5804374016
 30
0.0
 10
13.5963183992
 20
8.5866972786
 30
0.0
 10
13.6016480969
 20
8.5933863621
 30
0.0
 10
13.6069672376
 20
8.600501499
 30
0.0
 10
13.6122733102
 20
8.6080394058
 30
0.0
 10
13.6175639143
 20
8.615996475
 30
0.0
 10
13.6228364438
 20
8.6243689418
 30
0.0
 10
13.6280884051
 20
8.6331527887
 30
0.0
 10
13.6333173063
 20
8.6423438101
 30
0.0
 10
13.6385206259
 20
8.6519376496
 30
0.0
 10
13.6455239001
 20
8.6654593288
 30
0.0
 10
13.6541798694
 20
8.683350386
 30
0.0
 10
13.6642791022
 20
8.7060453027
 30
0.0
 10
13.674217666
 20
8.7302268254
 30
0.0
 10
13.6839763381
 20
8.7558485329
 30
0.0
 10
13.6935362329
 20
8.7828614959
 30
0.0
 10
13.702878826
 20
8.8112138948
 30
0.0
 10
13.7119860152
 20
8.8408512806
 30
0.0
 10
13.7208401453
 20
8.8717166647
 30
0.0
 10
13.7294240519
 20
8.9037506554
 30
0.0
 10
13.7377210937
 20
8.9368915752
 30
0.0
 10
13.745715187
 20
8.9710755797
 30
0.0
 10
13.7533908503
 20
9.0062367838
 30
0.0
 10
13.7607332179
 20
9.0423073994
 30
0.0
 10
13.7677280709
 20
9.0792178735
 30
0.0
 10
13.7743618686
 20
9.1168970289
 30
0.0
 10
13.7806217518
 20
9.1552721763
 30
0.0
 10
13.7864956617
 20
9.1942693398
 30
0.0
 10
13.7938330001
 20
9.2472506077
 30
0.0
 10
13.8019475052
 20
9.3144758645
 30
0.0
 10
13.8099402867
 20
9.3960160243
 30
0.0
 10
13.81617291
 20
9.4781848424
 30
0.0
 10
13.8205972374
 20
9.5603484026
 30
0.0
 10
13.8227572507
 20
9.6285390529
 30
0.0
 10
13.8235449185
 20
9.6826027483
 30
0.0
 10
13.8236644612
 20
9.7226041466
 30
0.0
 10
13.8233149327
 20
9.7621327577
 30
0.0
 10
13.8224969933
 20
9.8011123764
 30
0.0
 10
13.8212122719
 20
9.8394677864
 30
0.0
 10
13.8194632904
 20
9.8771250056
 30
0.0
 10
13.817253473
 20
9.9140114006
 30
0.0
 10
13.8145871377
 20
9.9500558325
 30
0.0
 10
13.811469486
 20
9.9851887981
 30
0.0
 10
13.807906607
 20
10.0193425728
 30
0.0
 10
13.8039054617
 20
10.0524513457
 30
0.0
 10
13.7994738617
 20
10.0844513466
 30
0.0
 10
13.7946204571
 20
10.1152809698
 30
0.0
 10
13.7893547163
 20
10.1448809051
 30
0.0
 10
13.7836869123
 20
10.1731942675
 30
0.0
 10
13.7776281083
 20
10.2001667388
 30
0.0
 10
13.7711901133
 20
10.2257466373
 30
0.0
 10
13.7643854481
 20
10.2498852027
 30
0.0
 10
13.7572273039
 20
10.272536147
 30
0.0
 10
13.7508845221
 20
10.2904039225
 30
0.0
 10
13.7456281391
 20
10.3039061352
 30
0.0
 10
13.7416673725
 20
10.3134766125
 30
0.0
 10
13.7376288351
 20
10.3226440909
 30
0.0
 10
13.7335143172
 20
10.3314041842
 30
0.0
 10
13.7293258796
 20
10.3397527479
 30
0.0
 10
13.7250654301
 20
10.3476857934
 30
0.0
 10
13.7207349868
 20
10.3551995618
 30
0.0
 10
13.7163366045
 20
10.3622905185
 30
0.0
 10
13.7118722199
 20
10.3689552646
 30
0.0
 10
13.7073439681
 20
10.3751907084
 30
0.0
 10
13.7027537887
 20
10.3809938481
 30
0.0
 10
13.6981037405
 20
10.3863619395
 30
0.0
 10
13.6933958554
 20
10.3912924198
 30
0.0
 10
13.6886320513
 20
10.3957827872
 30
0.0
 10
13.6838144294
 20
10.3998308515
 30
0.0
 10
13.6789448882
 20
10.4034343427
 30
0.0
 10
13.6740255727
 20
10.4065912261
 30
0.0
 10
13.669058481
 20
10.4092995603
 30
0.0
 10
13.6640463485
 20
10.4115572078
 30
0.0
 10
13.6606413281
 20
10.4127732911
 30
0.0
 10
13.658937754
 20
10.4133017319
 30
0.0
  0
SPLINE
  5
37E
100
AcDbEntity
  8
0
100
AcDbSpline
 62
7
  6
CONTINUOUS
 70
0
 71
3
 72
15
 73
11
 74
0
 42
0.0000001
 43
0.0000001
 44
0.0000000001
 40
0.0
 40
0.0
 40
0.0
 40
0.0
 40
0.1461422689
 40
0.2852596252
 40
0.4177232948
 40
0.5440033077
 40
0.6646624866
 40
0.7803590038
 40
0.891851115
 40
1.0
 40
1.0
 40
1.0
 40
1.0
 10
13.5801812194
 20
8.5691847049
 30
0.0
 10
13.5780966392
 20
8.5671711549
 30
0.0
 10
13.5739293692
 20
8.5633406192
 30
0.0
 10
13.5675226956
 20
8.5580815235
 30
0.0
 10
13.5611218715
 20
8.5534583601
 30
0.0
 10
13.5547310895
 20
8.5494749139
 30
0.0
 10
13.5483539544
 20
8.5461346182
 30
0.0
 10
13.5419941143
 20
8.5434405714
 30
0.0
 10
13.535656506
 20
8.5413963444
 30
0.0
 10
13.531394755
 20
8.5404567608
 30
0.0
 10
13.5292795746
 20
8.5401016821
 30
0.0
  0
SPLINE
  5
37F
100
AcDbEntity
  8
0
100
AcDbSpline
 62
7
  6
CONTINUOUS
 70
0
 71
3
 72
23
 73
19
 74
0
 42
0.0000001
 43
0.0000001
 44
0.0000000001
 40
0.0
 40
0.0
 40
0.0
 40
0.0
 40
0.0755972399
 40
0.1466395047
 40
0.2134649845
 40
0.2765140689
 40
0.3363265565
 40
0.3935467574
 40
0.4489229844
 40
0.5032880879
 40
0.5575259989
 40
0.6125272937
 40
0.6691433527
 40
0.7281488082
 40
0.7902194195
 40
0.8559234935
 40
0.9257264946
 40
1.0
 40
1.0
 40
1.0
 40
1.0
 10
13.5801812194
 20
8.7560913634
 30
0.0
 10
13.5781050913
 20
8.7540859775
 30
0.0
 10
13.5739556405
 20
8.7503192651
 30
0.0
 10
13.5675339287
 20
8.7452872219
 30
0.0
 10
13.5611197893
 20
8.7410609857
 30
0.0
 10
13.5547190289
 20
8.7376469906
 30
0.0
 10
13.5483370768
 20
8.7350512558
 30
0.0
 10
13.5419804263
 20
8.7332804438
 30
0.0
 10
13.5356574976
 20
8.7323404977
 30
0.0
 10
13.5293787733
 20
8.7322361027
 30
0.0
 10
13.5231563335
 20
8.7329686454
 30
0.0
 10
13.5170022397
 20
8.7345360198
 30
0.0
 10
13.5109269556
 20
8.7369329474
 30
0.0
 10
13.5049384936
 20
8.7401523511
 30
0.0
 10
13.4990429919
 20
8.7441869952
 30
0.0
 10
13.4932451104
 20
8.7490297378
 30
0.0
 10
13.4875496286
 20
8.754673542
 30
0.0
 10
13.4839399098
 20
8.7588318788
 30
0.0
 10
13.4821505057
 20
8.7610320332
 30
0.0
  0
SPLINE
  5
380
100
AcDbEntity
  8
0
100
AcDbSpline
 62
7
  6
CONTINUOUS
 70
0
 71
3
 72
18
 73
14
 74
0
 42
0.0000001
 43
0.0000001
 44
0.0000000001
 40
0.0
 40
0.0
 40
0.0
 40
0.0
 40
0.1504674448
 40
0.2917141796
 40
0.424442482
 40
0.4879098255
 40
0.5496092838
 40
0.6682624819
 40
0.7817883454
 40
0.8371380809
 40
0.8918079269
 40
0.9460193378
 40
1.0
 40
1.0
 40
1.0
 40
1.0
 10
13.5323678882
 20
8.8072205604
 30
0.0
 10
13.5303960078
 20
8.8053158701
 30
0.0
 10
13.5264549064
 20
8.8017421084
 30
0.0
 10
13.5203525409
 20
8.7969796119
 30
0.0
 10
13.5151980369
 20
8.7936113257
 30
0.0
 10
13.5110877888
 20
8.7913304155
 30
0.0
 10
13.5070984575
 20
8.7893721921
 30
0.0
 10
13.5021105295
 20
8.7873934648
 30
0.0
 10
13.4970338735
 20
8.7860431465
 30
0.0
 10
13.4930130063
 20
8.7853779656
 30
0.0
 10
13.4900329921
 20
8.7850827154
 30
0.0
 10
13.4870650302
 20
8.7849873656
 30
0.0
 10
13.4850931904
 20
8.7850571128
 30
0.0
 10
13.4841120032
 20
8.7851251537
 30
0.0
  0
SPLINE
  5
381
100
AcDbEntity
  8
0
100
AcDbSpline
 62
7
  6
CONTINUOUS
 70
0
 71
3
 72
15
 73
11
 74
0
 42
0.0000001
 43
0.0000001
 44
0.0000000001
 40
0.0
 40
0.0
 40
0.0
 40
0.0
 40
0.1273483438
 40
0.2538606048
 40
0.3795878922
 40
0.5046051199
 40
0.6290174392
 40
0.7529533668
 40
0.8765605676
 40
1.0
 40
1.0
 40
1.0
 40
1.0
 10
11.7711651949
 20
11.0617463966
 30
0.0
 10
11.7711651949
 20
11.067594998
 30
0.0
 10
11.7717236251
 20
11.0792618888
 30
0.0
 10
11.7742490671
 20
11.0965378283
 30
0.0
 10
11.7784366729
 20
11.1133796794
 30
0.0
 10
11.7842486093
 20
11.1296299379
 30
0.0
 10
11.79163157
 20
11.1451387331
 30
0.0
 10
11.8005182583
 20
11.1597628426
 30
0.0
 10
11.8108250754
 20
11.1733652702
 30
0.0
 10
11.8185856052
 20
11.1816743649
 30
0.0
 10
11.8226631338
 20
11.1856129225
 30
0.0
  0
SPLINE
  5
382
100
AcDbEntity
  8
0
100
AcDbSpline
 62
7
  6
CONTINUOUS
 70
0
 71
3
 72
91
 73
87
 74
0
 42
0.0000001
 43
0.0000001
 44
0.0000000001
 40
0.0
 40
0.0
 40
0.0
 40
0.0
 40
0.0042067517
 40
0.0086075399
 40
0.013206835
 40
0.0180083482
 40
0.0230150951
 40
0.0282292496
 40
0.0336521469
 40
0.0392845585
 40
0.0451266562
 40
0.051178182
 40
0.0574383839
 40
0.0639061149
 40
0.0774572906
 40
0.0918163556
 40
0.1069627617
 40
0.1228720226
 40
0.1395162079
 40
0.1568643379
 40
0.1748827089
 40
0.1935351686
 40
0.2127833552
 40
0.2325869078
 40
0.2529036663
 40
0.2736898538
 40
0.2949002471
 40
0.3164883395
 40
0.3384064987
 40
0.36060612
 40
0.3830377768
 40
0.4056513731
 40
0.4512206755
 40
0.4969063307
 40
0.5196650468
 40
0.5422992894
 40
0.5647583819
 40
0.5869921508
 40
0.6089510729
 40
0.6305864239
 40
0.6518504289
 40
0.6726964174
 40
0.6930789842
 40
0.7129541498
 40
0.7322795294
 40
0.7510145116
 40
0.7691204517
 40
0.7865608814
 40
0.8033017477
 40
0.819311688
 40
0.8345623435
 40
0.849028742
 40
0.8626897754
 40
0.8692131706
 40
0.8755294101
 40
0.8816372302
 40
0.8875358077
 40
0.8932246895
 40
0.898703975
 40
0.903974244
 40
0.9090367201
 40
0.9138933026
 40
0.9185466472
 40
0.9230003412
 40
0.9272589224
 40
0.9313281508
 40
0.9352150562
 40
0.9389282079
 40
0.9424778701
 40
0.9458761908
 40
0.9491374315
 40
0.9522780256
 40
0.9553167113
 40
0.9582743882
 40
0.9611739259
 40
0.9640397237
 40
0.9668971256
 40
0.9697717159
 40
0.9726885935
 40
0.9756716848
 40
0.9787432342
 40
0.9852253981
 40
0.9886743181
 40
0.9922790669
 40
0.9960511985
 40
1.0
 40
1.0
 40
1.0
 40
1.0
 10
13.5801812194
 20
8.7560913634
 30
0.0
 10
13.5817943743
 20
8.7576495514
 30
0.0
 10
13.5850185364
 20
8.7609178135
 30
0.0
 10
13.5897444231
 20
8.7661399083
 30
0.0
 10
13.5944643039
 20
8.7717873033
 30
0.0
 10
13.5991752238
 20
8.7778563642
 30
0.0
 10
13.6038745731
 20
8.7843435991
 30
0.0
 10
13.608559638
 20
8.7912452618
 30
0.0
 10
13.6132277536
 20
8.7985572743
 30
0.0
 10
13.6178760498
 20
8.806275355
 30
0.0
 10
13.6225018752
 20
8.814394895
 30
0.0
 10
13.6271024042
 20
8.8229111196
 30
0.0
 10
13.6316749911
 20
8.831818972
 30
0.0
 10
13.6378266521
 20
8.8444076818
 30
0.0
 10
13.6454098711
 20
8.8610983951
 30
0.0
 10
13.6542196285
 20
8.8822998634
 30
0.0
 10
13.6628541009
 20
8.9049240421
 30
0.0
 10
13.6712925358
 20
8.9289170519
 30
0.0
 10
13.679514638
 20
8.9542219903
 30
0.0
 10
13.687500616
 20
8.9807786051
 30
0.0
 10
13.6952312447
 20
9.0085236049
 30
0.0
 10
13.7026879145
 20
9.0373907863
 30
0.0
 10
13.7098526784
 20
9.067311214
 30
0.0
 10
13.7167083026
 20
9.0982133916
 30
0.0
 10
13.7232383008
 20
9.1300234445
 30
0.0
 10
13.7294269748
 20
9.1626653047
 30
0.0
 10
13.7352594514
 20
9.1960608977
 30
0.0
 10
13.7407217167
 20
9.2301303308
 30
0.0
 10
13.7458006535
 20
9.2647920919
 30
0.0
 10
13.7504840526
 20
9.2999632221
 30
0.0
 10
13.754760724
 20
9.3355596053
 30
0.0
 10
13.7599196882
 20
9.383595262
 30
0.0
 10
13.7652775582
 20
9.4440735376
 30
0.0
 10
13.7691639537
 20
9.5047416149
 30
0.0
 10
13.7713753802
 20
9.5532505117
 30
0.0
 10
13.7725749873
 20
9.5894066759
 30
0.0
 10
13.7733149567
 20
9.6252952058
 30
0.0
 10
13.7735935049
 20
9.6608302696
 30
0.0
 10
13.7734100062
 20
9.6959268043
 30
0.0
 10
13.7727649353
 20
9.7305008225
 30
0.0
 10
13.7716598821
 20
9.7644695882
 30
0.0
 10
13.770097545
 20
9.7977518255
 30
0.0
 10
13.7680817323
 20
9.830267916
 30
0.0
 10
13.7656173475
 20
9.8619400924
 30
0.0
 10
13.7627103784
 20
9.8926926273
 30
0.0
 10
13.7593678848
 20
9.9224520185
 30
0.0
 10
13.7555979816
 20
9.9511471725
 30
0.0
 10
13.7514098202
 20
9.9787095815
 30
0.0
 10
13.7468135667
 20
10.0050735151
 30
0.0
 10
13.7418203783
 20
10.0301761582
 30
0.0
 10
13.7364423786
 20
10.0539579216
 30
0.0
 10
13.730692564
 20
10.0763621355
 30
0.0
 10
13.7255265232
 20
10.0941032843
 30
0.0
 10
13.72120319
 20
10.1075550825
 30
0.0
 10
13.7179263717
 20
10.1171113445
 30
0.0
 10
13.7145672323
 20
10.1262850646
 30
0.0
 10
13.7111278155
 20
10.1350708311
 30
0.0
 10
13.707610077
 20
10.1434634124
 30
0.0
 10
13.7040161923
 20
10.1514578724
 30
0.0
 10
13.7003482085
 20
10.1590494776
 30
0.0
 10
13.696608304
 20
10.16623377
 30
0.0
 10
13.6927986662
 20
10.1730065458
 30
0.0
 10
13.6889214186
 20
10.1793638132
 30
0.0
 10
13.6849788569
 20
10.1853019116
 30
0.0
 10
13.6809730565
 20
10.1908173143
 30
0.0
 10
13.6769063122
 20
10.1959068607
 30
0.0
 10
13.6727807034
 20
10.2005674993
 30
0.0
 10
13.6685984031
 20
10.2047964488
 30
0.0
 10
13.6643615403
 20
10.2085911021
 30
0.0
 10
13.6600721591
 20
10.2119488879
 30
0.0
 10
13.6557324969
 20
10.2148675214
 30
0.0
 10
13.6513446898
 20
10.2173445204
 30
0.0
 10
13.6469112695
 20
10.2193777702
 30
0.0
 10
13.6424349067
 20
10.2209650282
 30
0.0
 10
13.6379187461
 20
10.2221044665
 30
0.0
 10
13.6333662806
 20
10.2227946633
 30
0.0
 10
13.6287813091
 20
10.2230346564
 30
0.0
 10
13.6241677334
 20
10.2228244672
 30
0.0
 10
13.61952946
 20
10.2221644826
 30
0.0
 10
13.614869747
 20
10.2210558828
 30
0.0
 10
13.6085206689
 20
10.2189445062
 30
0.0
 10
13.6022380833
 20
10.2159389874
 30
0.0
 10
13.5960802675
 20
10.2121702952
 30
0.0
 10
13.5913572325
 20
10.2088455127
 30
0.0
 10
13.5866299507
 20
10.2050841147
 30
0.0
 10
13.5835489559
 20
10.2023510424
 30
0.0
 10
13.5820078145
 20
10.2009167733
 30
0.0
  0
SPLINE
  5
383
100
AcDbEntity
  8
0
100
AcDbSpline
 62
7
  6
CONTINUOUS
 70
0
 71
3
 72
64
 73
60
 74
0
 42
0.0000001
 43
0.0000001
 44
0.0000000001
 40
0.0
 40
0.0
 40
0.0
 40
0.0
 40
0.0059877716
 40
0.0088872947
 40
0.0117371525
 40
0.0145487526
 40
0.0173340217
 40
0.0201052693
 40
0.0228750046
 40
0.0256557622
 40
0.028459911
 40
0.0312994853
 40
0.0341860395
 40
0.0371305005
 40
0.0401430994
 40
0.0464074947
 40
0.0530481713
 40
0.0601190234
 40
0.0676627181
 40
0.0757121387
 40
0.084291977
 40
0.0934201303
 40
0.103108808
 40
0.113365557
 40
0.1241940368
 40
0.1355945592
 40
0.1475646434
 40
0.1600994051
 40
0.173191796
 40
0.1868329232
 40
0.201012254
 40
0.2157177186
 40
0.2309359173
 40
0.2466522397
 40
0.2628509064
 40
0.279515121
 40
0.2966271473
 40
0.3141683259
 40
0.3321191957
 40
0.3504595498
 40
0.3691684443
 40
0.3882243005
 40
0.4272870286
 40
0.4674645578
 40
0.5085656431
 40
0.55039304
 40
0.5927448398
 40
0.6354158207
 40
0.6781987545
 40
0.7208857091
 40
0.7632693554
 40
0.8051442655
 40
0.8463082399
 40
0.8865636248
 40
0.9257186772
 40
0.944825897
 40
0.9635893934
 40
0.9819882896
 40
1.0
 40
1.0
 40
1.0
 40
1.0
 10
11.1138106254
 20
11.8641414491
 30
0.0
 10
11.1152199513
 20
11.8669641762
 30
0.0
 10
11.1170823552
 20
11.8712768256
 30
0.0
 10
11.1189872566
 20
11.877163833
 30
0.0
 10
11.1200960487
 20
11.88153984
 30
0.0
 10
11.1208989816
 20
11.8859208551
 30
0.0
 10
11.1213956724
 20
11.8903055414
 30
0.0
 10
11.1215859002
 20
11.8946921244
 30
0.0
 10
11.121469557
 20
11.899078923
 30
0.0
 10
11.1210466127
 20
11.9034642076
 30
0.0
 10
11.1203174164
 20
11.9078462906
 30
0.0
 10
11.1192823535
 20
11.9122235416
 30
0.0
 10
11.1179418974
 20
11.9165943193
 30
0.0
 10
11.1162967431
 20
11.9209572408
 30
0.0
 10
11.1136641391
 20
11.9268377126
 30
0.0
 10
11.1095732035
 20
11.9341806902
 30
0.0
 10
11.1035237536
 20
11.9428132056
 30
0.0
 10
11.0962813323
 20
11.951373805
 30
0.0
 10
11.0878570636
 20
11.9598533242
 30
0.0
 10
11.0782620951
 20
11.9682436703
 30
0.0
 10
11.0675085933
 20
11.9765357763
 30
0.0
 10
11.0556098997
 20
11.9847202109
 30
0.0
 10
11.0425808636
 20
11.9927873092
 30
0.0
 10
11.0284377881
 20
12.0007271956
 30
0.0
 10
11.0131984807
 20
12.0085298869
 30
0.0
 10
10.9968823082
 20
12.0161855166
 30
0.0
 10
10.9795100925
 20
12.0236842582
 30
0.0
 10
10.9611040898
 20
12.031016381
 30
0.0
 10
10.9416879983
 20
12.0381724093
 30
0.0
 10
10.9212868655
 20
12.0451430256
 30
0.0
 10
10.8999270537
 20
12.0519190995
 30
0.0
 10
10.8776362335
 20
12.0584918187
 30
0.0
 10
10.8544433041
 20
12.0648525912
 30
0.0
 10
10.8303783549
 20
12.0709930648
 30
0.0
 10
10.8054726479
 20
12.0769052421
 30
0.0
 10
10.7797585473
 20
12.0825813889
 30
0.0
 10
10.7532694763
 20
12.088014048
 30
0.0
 10
10.726039892
 20
12.0931961445
 30
0.0
 10
10.6981052161
 20
12.0981209028
 30
0.0
 10
10.6695018018
 20
12.1027818417
 30
0.0
 10
10.6402668452
 20
12.1071729369
 30
0.0
 10
10.6001650386
 20
12.112705704
 30
0.0
 10
10.5487376528
 20
12.1188877471
 30
0.0
 10
10.4856284033
 20
12.1250886599
 30
0.0
 10
10.4209523978
 20
12.1300989033
 30
0.0
 10
10.3550463312
 20
12.1338921105
 30
0.0
 10
10.2882530398
 20
12.1364483071
 30
0.0
 10
10.2209201273
 20
12.1377540346
 30
0.0
 10
10.1533980068
 20
12.1378023918
 30
0.0
 10
10.086038096
 20
12.1365931499
 30
0.0
 10
10.019190953
 20
12.1341326767
 30
0.0
 10
9.9532044638
 20
12.1304338996
 30
0.0
 10
9.8884218852
 20
12.1255163455
 30
0.0
 10
9.8251804619
 20
12.119405874
 30
0.0
 10
9.7736266818
 20
12.1132981268
 30
0.0
 10
9.7334114451
 20
12.1078236222
 30
0.0
 10
9.7040825766
 20
12.1034745113
 30
0.0
 10
9.6753796963
 20
12.0988546339
 30
0.0
 10
9.6564787006
 20
12.0955620583
 30
0.0
 10
9.6471403303
 20
12.0938696936
 30
0.0
  0
SPLINE
  5
384
100
AcDbEntity
  8
0
100
AcDbSpline
 62
7
  6
CONTINUOUS
 70
0
 71
3
 72
78
 73
74
 74
0
 42
0.0000001
 43
0.0000001
 44
0.0000000001
 40
0.0
 40
0.0
 40
0.0
 40
0.0
 40
0.0039883987
 40
0.0081453993
 40
0.0124746576
 40
0.0169792314
 40
0.0216616914
 40
0.0265240591
 40
0.0315676749
 40
0.0367933842
 40
0.047791766
 40
0.0595189856
 40
0.0719688294
 40
0.0851307702
 40
0.0989906279
 40
0.1135310417
 40
0.1287318525
 40
0.1445704431
 40
0.1610219966
 40
0.1780597055
 40
0.195654938
 40
0.2137774209
 40
0.2323953937
 40
0.2514757378
 40
0.2709840866
 40
0.2908849475
 40
0.3111418272
 40
0.3317173367
 40
0.373670039
 40
0.4164306257
 40
0.4596780181
 40
0.5030864384
 40
0.546328575
 40
0.5890787064
 40
0.6310158448
 40
0.6515817052
 40
0.6718277268
 40
0.6917165419
 40
0.7112116802
 40
0.7302776915
 40
0.7488802562
 40
0.7669862909
 40
0.7845640702
 40
0.8015833727
 40
0.8180156401
 40
0.8338341215
 40
0.8490140553
 40
0.8635328915
 40
0.8773705761
 40
0.8905098479
 40
0.9029366215
 40
0.9146404894
 40
0.9256153978
 40
0.9308293919
 40
0.9358613149
 40
0.9407121012
 40
0.9453831205
 40
0.949876311
 40
0.9541942552
 40
0.9583401789
 40
0.9623181591
 40
0.9661331339
 40
0.9697910438
 40
0.9732990079
 40
0.9766653619
 40
0.979899881
 40
0.9830138541
 40
0.9860201611
 40
0.9889333771
 40
0.9917696757
 40
0.9945467489
 40
0.9972835631
 40
1.0
 40
1.0
 40
1.0
 40
1.0
 10
13.5323678882
 20
8.8072205604
 30
0.0
 10
13.5337459443
 20
8.8085516605
 30
0.0
 10
13.5365005578
 20
8.8113325535
 30
0.0
 10
13.5405461041
 20
8.8157553282
 30
0.0
 10
13.544587401
 20
8.8205122976
 30
0.0
 10
13.5486222101
 20
8.8256008813
 30
0.0
 10
13.5526486887
 20
8.8310185474
 30
0.0
 10
13.5566648383
 20
8.8367627089
 30
0.0
 10
13.5606688132
 20
8.8428305183
 30
0.0
 10
13.5660809824
 20
8.8514968656
 30
0.0
 10
13.5727868583
 20
8.8631352215
 30
0.0
 10
13.5806219696
 20
8.8781109411
 30
0.0
 10
13.5883612288
 20
8.8942962177
 30
0.0
 10
13.5959891139
 20
8.9116588392
 30
0.0
 10
13.6034903242
 20
8.9301645297
 30
0.0
 10
13.6108497366
 20
8.9497764636
 30
0.0
 10
13.618052514
 20
8.9704555224
 30
0.0
 10
13.6250841065
 20
8.9921603668
 30
0.0
 10
13.6319303027
 20
9.014847554
 30
0.0
 10
13.638577255
 20
9.0384716217
 30
0.0
 10
13.6450115406
 20
9.0629851772
 30
0.0
 10
13.6512201626
 20
9.0883390116
 30
0.0
 10
13.657190579
 20
9.1144822144
 30
0.0
 10
13.6629107223
 20
9.1413622734
 30
0.0
 10
13.6683690476
 20
9.1689251768
 30
0.0
 10
13.673554534
 20
9.1971155102
 30
0.0
 10
13.678456764
 20
9.2258766458
 30
0.0
 10
13.6846418599
 20
9.2651619862
 30
0.0
 10
13.6915813213
 20
9.3152677971
 30
0.0
 10
13.6985863175
 20
9.3763425193
 30
0.0
 10
13.7042648258
 20
9.438257138
 30
0.0
 10
13.7085711404
 20
9.5005140508
 30
0.0
 10
13.7114706386
 20
9.5626133276
 30
0.0
 10
13.7129401725
 20
9.6240558666
 30
0.0
 10
13.7129641251
 20
9.6746228059
 30
0.0
 10
13.7122454263
 20
9.7143682336
 30
0.0
 10
13.7113486409
 20
9.7435147321
 30
0.0
 10
13.7100925882
 20
9.7721331239
 30
0.0
 10
13.7084797821
 20
9.8001659182
 30
0.0
 10
13.7065135255
 20
9.8275567545
 30
0.0
 10
13.7041978288
 20
9.8542505942
 30
0.0
 10
13.7015374083
 20
9.8801938046
 30
0.0
 10
13.6985376724
 20
9.9053342734
 30
0.0
 10
13.6952047219
 20
9.9296215265
 30
0.0
 10
13.691545353
 20
9.9530068399
 30
0.0
 10
13.6875670159
 20
9.9754433357
 30
0.0
 10
13.6832778043
 20
9.9968860768
 30
0.0
 10
13.6786864292
 20
10.0172921761
 30
0.0
 10
13.6738022303
 20
10.0366209263
 30
0.0
 10
13.668635119
 20
10.0548338467
 30
0.0
 10
13.663195526
 20
10.0718949443
 30
0.0
 10
13.6574943854
 20
10.0877702424
 30
0.0
 10
13.6524523604
 20
10.100189752
 30
0.0
 10
13.6482830158
 20
10.1094931996
 30
0.0
 10
13.6451512349
 20
10.116035222
 30
0.0
 10
13.6419628115
 20
10.1222581964
 30
0.0
 10
13.6387192189
 20
10.1281590412
 30
0.0
 10
13.6354220376
 20
10.1337348317
 30
0.0
 10
13.6320729206
 20
10.138982856
 30
0.0
 10
13.6286733742
 20
10.1439004823
 30
0.0
 10
13.6252250655
 20
10.1484853279
 30
0.0
 10
13.6217295729
 20
10.1527351252
 30
0.0
 10
13.6181884289
 20
10.1566477123
 30
0.0
 10
13.6146032944
 20
10.1602211792
 30
0.0
 10
13.610975649
 20
10.1634535893
 30
0.0
 10
13.6073070979
 20
10.1663432067
 30
0.0
 10
13.6035992487
 20
10.1688883859
 30
0.0
 10
13.5998536763
 20
10.1710874027
 30
0.0
 10
13.596072193
 20
10.172938826
 30
0.0
 10
13.5922566757
 20
10.1744411119
 30
0.0
 10
13.5884091163
 20
10.1755929332
 30
0.0
 10
13.58453227
 20
10.1763932618
 30
0.0
 10
13.5819255712
 20
10.1766923008
 30
0.0
 10
13.5806237731
 20
10.1767825746
 30
0.0
  0
SPLINE
  5
385
100
AcDbEntity
  8
0
100
AcDbSpline
 62
7
  6
CONTINUOUS
 70
0
 71
3
 72
15
 73
11
 74
0
 42
0.0000001
 43
0.0000001
 44
0.0000000001
 40
0.0
 40
0.0
 40
0.0
 40
0.0
 40
0.1273483438
 40
0.2538606048
 40
0.3795878922
 40
0.5046051199
 40
0.6290174392
 40
0.7529533668
 40
0.8765605676
 40
1.0
 40
1.0
 40
1.0
 40
1.0
 10
9.597831957
 20
5.9964677976
 30
0.0
 10
9.597831957
 20
6.002316399
 30
0.0
 10
9.5983903872
 20
6.0139832897
 30
0.0
 10
9.6009158292
 20
6.0312592292
 30
0.0
 10
9.605103435
 20
6.0481010803
 30
0.0
 10
9.6109153714
 20
6.0643513388
 30
0.0
 10
9.6182983321
 20
6.079860134
 30
0.0
 10
9.6271850203
 20
6.0944842435
 30
0.0
 10
9.6374918375
 20
6.1080866712
 30
0.0
 10
9.6452523673
 20
6.1163957658
 30
0.0
 10
9.6493298958
 20
6.1203343235
 30
0.0
  0
SPLINE
  5
386
100
AcDbEntity
  8
0
100
AcDbSpline
 62
7
  6
CONTINUOUS
 70
0
 71
3
 72
67
 73
63
 74
0
 42
0.0000001
 43
0.0000001
 44
0.0000000001
 40
0.0
 40
0.0
 40
0.0
 40
0.0
 40
0.0186279168
 40
0.0376789862
 40
0.0571274372
 40
0.0769486302
 40
0.0971162871
 40
0.1176036401
 40
0.159426917
 40
0.2021941344
 40
0.2456733765
 40
0.2896276152
 40
0.3338164422
 40
0.3779977876
 40
0.4219296362
 40
0.4653717395
 40
0.5080873283
 40
0.5498448708
 40
0.5702942192
 40
0.5904205104
 40
0.6101970755
 40
0.6295979059
 40
0.6485977223
 40
0.6671720587
 40
0.6852973107
 40
0.7029508014
 40
0.7201108784
 40
0.7367570084
 40
0.7528698479
 40
0.7684313489
 40
0.7834249102
 40
0.7978355101
 40
0.8116498528
 40
0.8248565759
 40
0.8374465272
 40
0.8494130385
 40
0.860752289
 40
0.8714637975
 40
0.8815510471
 40
0.8910222223
 40
0.8998911887
 40
0.9081787659
 40
0.9159142711
 40
0.9231373305
 40
0.9298999105
 40
0.9362682546
 40
0.9393311166
 40
0.9423273815
 40
0.9452696119
 40
0.9481711489
 40
0.9510459551
 40
0.9539084321
 40
0.9567731805
 40
0.9596547665
 40
0.9625674737
 40
0.9655250972
 40
0.9685407491
 40
0.9716267108
 40
0.9780513356
 40
0.9848814787
 40
0.9921810548
 40
1.0
 40
1.0
 40
1.0
 40
1.0
 10
9.6038190848
 20
12.1828372914
 30
0.0
 10
9.6145410584
 20
12.1847804023
 30
0.0
 10
9.6362572769
 20
12.1885538939
 30
0.0
 10
9.6692572106
 20
12.1938253355
 30
0.0
 10
9.703013909
 20
12.1987660561
 30
0.0
 10
9.7374773445
 20
12.2033687629
 30
0.0
 10
9.7725973182
 20
12.2076267115
 30
0.0
 10
9.8205589582
 20
12.2128716745
 30
0.0
 10
9.8817724296
 20
12.2185045547
 30
0.0
 10
9.9565093622
 20
12.2237578323
 30
0.0
 10
10.0325842728
 20
12.2275189418
 30
0.0
 10
10.109550674
 20
12.229765571
 30
0.0
 10
10.1869571595
 20
12.2304843513
 30
0.0
 10
10.264349614
 20
12.2296710244
 30
0.0
 10
10.3412740048
 20
12.2273303977
 30
0.0
 10
10.4172791756
 20
12.223476437
 30
0.0
 10
10.4919190508
 20
12.2181319447
 30
0.0
 10
10.5530343083
 20
12.2124239107
 30
0.0
 10
10.6009040502
 20
12.2071198007
 30
0.0
 10
10.6359457185
 20
12.202818917
 30
0.0
 10
10.6703246464
 20
12.1981741
 30
0.0
 10
10.7039904208
 20
12.1931921485
 30
0.0
 10
10.7368936262
 20
12.1878804082
 30
0.0
 10
10.7689859983
 20
12.1822467265
 30
0.0
 10
10.8002204667
 20
12.1762994175
 30
0.0
 10
10.830551223
 20
12.1700472429
 30
0.0
 10
10.8599338046
 20
12.1634994231
 30
0.0
 10
10.8883251684
 20
12.1566656353
 30
0.0
 10
10.9156837391
 20
12.1495559633
 30
0.0
 10
10.9419694735
 20
12.1421808775
 30
0.0
 10
10.9671439481
 20
12.1345512613
 30
0.0
 10
10.9911704172
 20
12.1266783709
 30
0.0
 10
11.0140138548
 20
12.1185737932
 30
0.0
 10
11.0356410245
 20
12.1102494159
 30
0.0
 10
11.0560205707
 20
12.1017174522
 30
0.0
 10
11.0751230591
 20
12.0929903518
 30
0.0
 10
11.0929210178
 20
12.084080742
 30
0.0
 10
11.1093890103
 20
12.0750013671
 30
0.0
 10
11.124503711
 20
12.065765042
 30
0.0
 10
11.1382438868
 20
12.0563844578
 30
0.0
 10
11.1505903434
 20
12.0468720261
 30
0.0
 10
11.1615258611
 20
12.0372396451
 30
0.0
 10
11.1710348542
 20
12.0274987115
 30
0.0
 10
11.1791029972
 20
12.0176592071
 30
0.0
 10
11.1857156287
 20
12.0077324372
 30
0.0
 10
11.1900570352
 20
11.9992847325
 30
0.0
 10
11.1927468996
 20
11.9925262437
 30
0.0
 10
11.1943674496
 20
11.9875120445
 30
0.0
 10
11.1956159483
 20
11.9824896026
 30
0.0
 10
11.1964917783
 20
11.9774608357
 30
0.0
 10
11.1969942157
 20
11.9724279208
 30
0.0
 10
11.1971230459
 20
11.9673930969
 30
0.0
 10
11.1968781449
 20
11.9623586203
 30
0.0
 10
11.1962596089
 20
11.9573267671
 30
0.0
 10
11.1952679774
 20
11.9522997209
 30
0.0
 10
11.1939038104
 20
11.9472796609
 30
0.0
 10
11.1921678499
 20
11.9422684837
 30
0.0
 10
11.1893213573
 20
11.9355118139
 30
0.0
 10
11.1847844571
 20
11.9270705179
 30
0.0
 10
11.1779447713
 20
11.9171567278
 30
0.0
 10
11.1696523236
 20
11.9073322003
 30
0.0
 10
11.1633890703
 20
11.9010734338
 30
0.0
 10
11.1600408204
 20
11.8979575488
 30
0.0
  0
SPLINE
  5
387
100
AcDbEntity
  8
0
100
AcDbSpline
 62
7
  6
CONTINUOUS
 70
0
 71
3
 72
41
 73
37
 74
0
 42
0.0000001
 43
0.0000001
 44
0.0000000001
 40
0.0
 40
0.0
 40
0.0
 40
0.0
 40
0.0299421689
 40
0.0599087154
 40
0.0899234217
 40
0.1200089011
 40
0.1501860597
 40
0.1804736107
 40
0.2108876533
 40
0.2414413269
 40
0.2721445469
 40
0.3030038242
 40
0.3340221695
 40
0.3651990796
 40
0.3965306028
 40
0.4280094739
 40
0.4596253147
 40
0.4913648909
 40
0.5232124193
 40
0.5551499155
 40
0.5871575776
 40
0.6192141968
 40
0.6512975879
 40
0.683385034
 40
0.7154537372
 40
0.7314764367
 40
0.7474861023
 40
0.7794508627
 40
0.8113324993
 40
0.8431123361
 40
0.8747737727
 40
0.9063026037
 40
0.9376875169
 40
0.9533255933
 40
0.9689249755
 40
1.0
 40
1.0
 40
1.0
 40
1.0
 10
10.1102784909
 20
6.8905164216
 30
0.0
 10
10.1037089799
 20
6.88417079
 30
0.0
 10
10.0900533419
 20
6.8719916941
 30
0.0
 10
10.0681749335
 20
6.8553998083
 30
0.0
 10
10.0450133513
 20
6.8405677711
 30
0.0
 10
10.0206980291
 20
6.8275787678
 30
0.0
 10
9.9953626494
 20
6.8165037592
 30
0.0
 10
9.9691470364
 20
6.8074036209
 30
0.0
 10
9.9421956523
 20
6.8003281428
 30
0.0
 10
9.9146569783
 20
6.7953159556
 30
0.0
 10
9.8866826358
 20
6.7923942884
 30
0.0
 10
9.8584265611
 20
6.7915788564
 30
0.0
 10
9.8300441569
 20
6.7928737785
 30
0.0
 10
9.8016914392
 20
6.7962715754
 30
0.0
 10
9.7735241881
 20
6.8017532383
 30
0.0
 10
9.7456971023
 20
6.8092883438
 30
0.0
 10
9.7183629612
 20
6.8188352317
 30
0.0
 10
9.6916717996
 20
6.8303412394
 30
0.0
 10
9.6657700947
 20
6.8437429969
 30
0.0
 10
9.6407999789
 20
6.8589667691
 30
0.0
 10
9.6168984451
 20
6.8759288693
 30
0.0
 10
9.5941966708
 20
6.8945360484
 30
0.0
 10
9.5728190845
 20
6.9146863125
 30
0.0
 10
9.552883524
 20
6.9362683216
 30
0.0
 10
9.5375569016
 20
6.9553561145
 30
0.0
 10
9.5261218496
 20
6.9712219282
 30
0.0
 10
9.5152620954
 20
6.9874487665
 30
0.0
 10
9.502776486
 20
7.008390486
 30
0.0
 10
9.4896142289
 20
7.0344487686
 30
0.0
 10
9.4783503212
 20
7.0612827014
 30
0.0
 10
9.4690472639
 20
7.0887445425
 30
0.0
 10
9.4617563051
 20
7.1166828493
 30
0.0
 10
9.4573852313
 20
7.1402658316
 30
0.0
 10
9.4549331619
 20
7.1592144208
 30
0.0
 10
9.4531832009
 20
7.1781448951
 30
0.0
 10
9.4526533282
 20
7.1923899199
 30
0.0
 10
9.4526533282
 20
7.2018692505
 30
0.0
  0
SPLINE
  5
388
100
AcDbEntity
  8
0
100
AcDbSpline
 62
7
  6
CONTINUOUS
 70
0
 71
3
 72
41
 73
37
 74
0
 42
0.0000001
 43
0.0000001
 44
0.0000000001
 40
0.0
 40
0.0
 40
0.0
 40
0.0
 40
0.0299334097
 40
0.0598996005
 40
0.0899214372
 40
0.1200204685
 40
0.1502164293
 40
0.1805267975
 40
0.2109664148
 40
0.2415471812
 40
0.2722778268
 40
0.3031637637
 40
0.3342070173
 40
0.3654062328
 40
0.3967567548
 40
0.4282507719
 40
0.4598775213
 40
0.4916235446
 40
0.5234729897
 40
0.5554079495
 40
0.5874088325
 40
0.6194547574
 40
0.6515239658
 40
0.6835942475
 40
0.7156433712
 40
0.7316555083
 40
0.7476542333
 40
0.7795964156
 40
0.8114549023
 40
0.8432116055
 40
0.8748504686
 40
0.9063577565
 40
0.937722547
 40
0.9533510996
 40
0.968941505
 40
1.0
 40
1.0
 40
1.0
 40
1.0
 10
10.1101721202
 20
6.8906302487
 30
0.0
 10
10.1034932789
 20
6.8845562423
 30
0.0
 10
10.0896443496
 20
6.8729217909
 30
0.0
 10
10.067554394
 20
6.8571435518
 30
0.0
 10
10.0442548921
 20
6.8431131727
 30
0.0
 10
10.0198729876
 20
6.8309074851
 30
0.0
 10
9.9945395527
 20
6.8205915665
 30
0.0
 10
9.9683910928
 20
6.8122207612
 30
0.0
 10
9.9415682873
 20
6.8058397611
 30
0.0
 10
9.9142154104
 20
6.801482553
 30
0.0
 10
9.8864794969
 20
6.7991722097
 30
0.0
 10
9.858509562
 20
6.7989207974
 30
0.0
 10
9.8304557997
 20
6.8007293263
 30
0.0
 10
9.802468782
 20
6.8045877637
 30
0.0
 10
9.774698658
 20
6.8104750947
 30
0.0
 10
9.7472943571
 20
6.8183594508
 30
0.0
 10
9.720402801
 20
6.8281982913
 30
0.0
 10
9.6941681279
 20
6.8399386364
 30
0.0
 10
9.6687309291
 20
6.8535173559
 30
0.0
 10
9.6442275108
 20
6.8688615034
 30
0.0
 10
9.6207891572
 20
6.885888727
 30
0.0
 10
9.5985414936
 20
6.904507629
 30
0.0
 10
9.577603608
 20
6.9246185526
 30
0.0
 10
9.5580882138
 20
6.9461129874
 30
0.0
 10
9.5430914067
 20
6.9650904883
 30
0.0
 10
9.531905846
 20
6.9808473457
 30
0.0
 10
9.5212853552
 20
6.9969518287
 30
0.0
 10
9.5090781708
 20
7.0177173342
 30
0.0
 10
9.4962133145
 20
7.0435314026
 30
0.0
 10
9.4852068611
 20
7.0700928055
 30
0.0
 10
9.4761184588
 20
7.0972587273
 30
0.0
 10
9.468996999
 20
7.1248828678
 30
0.0
 10
9.4647281844
 20
7.1481924863
 30
0.0
 10
9.462333609
 20
7.166918652
 30
0.0
 10
9.4606246864
 20
7.1856261894
 30
0.0
 10
9.4601073108
 20
7.1997021639
 30
0.0
 10
9.4601073108
 20
7.2090692452
 30
0.0
  0
SPLINE
  5
389
100
AcDbEntity
  8
0
100
AcDbSpline
 62
7
  6
CONTINUOUS
 70
0
 71
3
 72
41
 73
37
 74
0
 42
0.0000001
 43
0.0000001
 44
0.0000000001
 40
0.0
 40
0.0
 40
0.0
 40
0.0
 40
0.0299421216
 40
0.0449237656
 40
0.0599145167
 40
0.0899291718
 40
0.1200145985
 40
0.1350933583
 40
0.15019748
 40
0.1804849767
 40
0.2108989647
 40
0.2414525835
 40
0.2721557485
 40
0.3030149705
 40
0.3340332607
 40
0.3652101168
 40
0.3965415874
 40
0.4280204071
 40
0.4596361972
 40
0.491375723
 40
0.5232232003
 40
0.5551606452
 40
0.5871682559
 40
0.6192248239
 40
0.651308164
 40
0.683395559
 40
0.7154642111
 40
0.7474916947
 40
0.7794564051
 40
0.8113379906
 40
0.8431177849
 40
0.8747791545
 40
0.9063080011
 40
0.9376926887
 40
0.9689252949
 40
1.0
 40
1.0
 40
1.0
 40
1.0
 10
9.9965409706
 20
7.037169978
 30
0.0
 10
9.9930322702
 20
7.0337808053
 30
0.0
 10
9.9875623723
 20
7.0289024364
 30
0.0
 10
9.9799019385
 20
7.0228493919
 30
0.0
 10
9.9719975138
 20
7.0170976072
 30
0.0
 10
9.9616835747
 20
7.0104926339
 30
0.0
 10
9.9508681238
 20
7.0047152497
 30
0.0
 10
9.9419482284
 20
7.0006050977
 30
0.0
 10
9.9328440016
 20
6.9968343936
 30
0.0
 10
9.9211637473
 20
6.9927796875
 30
0.0
 10
9.9067695728
 20
6.9890008368
 30
0.0
 10
9.8920613161
 20
6.9863237795
 30
0.0
 10
9.8771204796
 20
6.9847633056
 30
0.0
 10
9.8620291389
 20
6.9843277377
 30
0.0
 10
9.8468703304
 20
6.9850192946
 30
0.0
 10
9.8317273711
 20
6.9868339816
 30
0.0
 10
9.8166834652
 20
6.9897616501
 30
0.0
 10
9.8018212366
 20
6.9937860524
 30
0.0
 10
9.7872222851
 20
6.9988849383
 30
0.0
 10
9.7729667431
 20
7.0050301792
 30
0.0
 10
9.7591328429
 20
7.012187926
 30
0.0
 10
9.7457964927
 20
7.0203187958
 30
0.0
 10
9.7330308663
 20
7.0293780881
 30
0.0
 10
9.7209060059
 20
7.0393160286
 30
0.0
 10
9.7094884433
 20
7.0500780409
 30
0.0
 10
9.6988408384
 20
7.0616050435
 30
0.0
 10
9.689021639
 20
7.0738337708
 30
0.0
 10
9.680084763
 20
7.0866971168
 30
0.0
 10
9.6720793068
 20
7.1001244995
 30
0.0
 10
9.6650492716
 20
7.1140422445
 30
0.0
 10
9.6590333403
 20
7.1283739766
 30
0.0
 10
9.6540646229
 20
7.1430410708
 30
0.0
 10
9.6501705693
 20
7.1579629274
 30
0.0
 10
9.6473726306
 20
7.1730579615
 30
0.0
 10
9.6456864395
 20
7.1882421166
 30
0.0
 10
9.6453087447
 20
7.1983973148
 30
0.0
 10
9.6453087447
 20
7.2034601039
 30
0.0
  0
SPLINE
  5
38A
100
AcDbEntity
  8
0
100
AcDbSpline
 62
7
  6
CONTINUOUS
 70
0
 71
3
 72
35
 73
31
 74
0
 42
0.0000001
 43
0.0000001
 44
0.0000000001
 40
0.0
 40
0.0
 40
0.0
 40
0.0
 40
0.0301496473
 40
0.060410331
 40
0.090788999
 40
0.121290816
 40
0.1519191233
 40
0.1826754114
 40
0.2135593135
 40
0.2445686259
 40
0.2756993738
 40
0.3069458926
 40
0.3383009172
 40
0.3697556895
 40
0.4013000995
 40
0.4329228422
 40
0.4963277906
 40
0.5598877461
 40
0.6234862515
 40
0.6870048181
 40
0.7187107205
 40
0.75035451
 40
0.7819235462
 40
0.8134062083
 40
0.8447919834
 40
0.876071742
 40
0.9072378626
 40
0.9382833956
 40
0.9692062879
 40
1.0
 40
1.0
 40
1.0
 40
1.0
 10
10.043733607
 20
7.111961987
 30
0.0
 10
10.0398858449
 20
7.110810101
 30
0.0
 10
10.0321015119
 20
7.1087436318
 30
0.0
 10
10.0202340199
 20
7.1063721942
 30
0.0
 10
10.0081958849
 20
7.1047315059
 30
0.0
 10
9.9960312477
 20
7.1038275796
 30
0.0
 10
9.9837839242
 20
7.1036635452
 30
0.0
 10
9.9714982176
 20
7.1042399439
 30
0.0
 10
9.9592185082
 20
7.105554663
 30
0.0
 10
9.9469891605
 20
7.1076028807
 30
0.0
 10
9.9348543321
 20
7.1103771089
 30
0.0
 10
9.9228578435
 20
7.1138672682
 30
0.0
 10
9.9110429811
 20
7.1180607553
 30
0.0
 10
9.8994525114
 20
7.122942315
 30
0.0
 10
9.8881278422
 20
7.1284945567
 30
0.0
 10
9.8734278925
 20
7.1367698444
 30
0.0
 10
9.8559239506
 20
7.148687191
 30
0.0
 10
9.8366365029
 20
7.1652742961
 30
0.0
 10
9.8193153589
 20
7.1839258969
 30
0.0
 10
9.8067158025
 20
7.2009839745
 30
0.0
 10
9.7978549863
 20
7.2153848405
 30
0.0
 10
9.7918445788
 20
7.226518029
 30
0.0
 10
9.7864890294
 20
7.2379473964
 30
0.0
 10
9.7818073563
 20
7.2496320815
 30
0.0
 10
9.7778165728
 20
7.2615298011
 30
0.0
 10
9.7745311271
 20
7.2735976744
 30
0.0
 10
9.7719630289
 20
7.2857920106
 30
0.0
 10
9.7701213635
 20
7.2980691347
 30
0.0
 10
9.7690131716
 20
7.3103838749
 30
0.0
 10
9.7687653273
 20
7.318607731
 30
0.0
 10
9.7687653273
 20
7.3227100126
 30
0.0
  0
SPLINE
  5
38B
100
AcDbEntity
  8
0
100
AcDbSpline
 62
7
  6
CONTINUOUS
 70
0
 71
3
 72
21
 73
17
 74
0
 42
0.0000001
 43
0.0000001
 44
0.0000000001
 40
0.0
 40
0.0
 40
0.0
 40
0.0
 40
0.0616941339
 40
0.1234196498
 40
0.1851957562
 40
0.2470411727
 40
0.3089739573
 40
0.3710113626
 40
0.43316966
 40
0.4954639741
 40
0.5579082058
 40
0.6205148583
 40
0.6832948832
 40
0.7462580111
 40
0.8727262552
 40
1.0
 40
1.0
 40
1.0
 40
1.0
 10
9.5601514236
 20
7.4600579957
 30
0.0
 10
9.5561747215
 20
7.455978801
 30
0.0
 10
9.548420277
 20
7.4476195886
 30
0.0
 10
9.5374208855
 20
7.4345167472
 30
0.0
 10
9.527074178
 20
7.4208745624
 30
0.0
 10
9.5174027397
 20
7.4067226074
 30
0.0
 10
9.5084270998
 20
7.3920911279
 30
0.0
 10
9.5001664667
 20
7.3770114904
 30
0.0
 10
9.4926385698
 20
7.3615159374
 30
0.0
 10
9.4858594617
 20
7.3456376812
 30
0.0
 10
9.4798435815
 20
7.3294107012
 30
0.0
 10
9.4746038522
 20
7.3128698231
 30
0.0
 10
9.4701514007
 20
7.2960500402
 30
0.0
 10
9.4652705543
 20
7.2732703129
 30
0.0
 10
9.461188395
 20
7.2442662846
 30
0.0
 10
9.4601073108
 20
7.220821711
 30
0.0
 10
9.4601073108
 20
7.2090692452
 30
0.0
  0
SPLINE
  5
38C
100
AcDbEntity
  8
0
100
AcDbSpline
 62
7
  6
CONTINUOUS
 70
0
 71
3
 72
15
 73
11
 74
0
 42
0.0000001
 43
0.0000001
 44
0.0000000001
 40
0.0
 40
0.0
 40
0.0
 40
0.0
 40
0.1234394229
 40
0.2470466241
 40
0.3709825582
 40
0.4953948862
 40
0.6204121211
 40
0.7461394113
 40
0.8726516684
 40
1.0
 40
1.0
 40
1.0
 40
1.0
 10
9.7026631676
 20
7.3414146495
 30
0.0
 10
9.6981219264
 20
7.3370281105
 30
0.0
 10
9.6894788413
 20
7.3277739311
 30
0.0
 10
9.6779999018
 20
7.3126243821
 30
0.0
 10
9.6681025963
 20
7.2963369729
 30
0.0
 10
9.6598800288
 20
7.2790642781
 30
0.0
 10
9.6534071476
 20
7.2609658061
 30
0.0
 10
9.6487433199
 20
7.2422084699
 30
0.0
 10
9.6459306805
 20
7.2229676835
 30
0.0
 10
9.6453087447
 20
7.2099738835
 30
0.0
 10
9.6453087447
 20
7.2034601039
 30
0.0
  0
SPLINE
  5
38D
100
AcDbEntity
  8
0
100
AcDbSpline
 62
7
  6
CONTINUOUS
 70
0
 71
3
 72
11
 73
7
 74
0
 42
0.0000001
 43
0.0000001
 44
0.0000000001
 40
0.0
 40
0.0
 40
0.0
 40
0.0
 40
0.2480744714
 40
0.4973806485
 40
0.7480047183
 40
1.0
 40
1.0
 40
1.0
 40
1.0
 10
9.7789590772
 20
7.3857299697
 30
0.0
 10
9.7772709242
 20
7.3807052925
 30
0.0
 10
9.7743024266
 20
7.3704858507
 30
0.0
 10
9.7711115448
 20
7.354807388
 30
0.0
 10
9.7691903334
 20
7.338839088
 30
0.0
 10
9.7687653273
 20
7.3280944729
 30
0.0
 10
9.7687653273
 20
7.3227100126
 30
0.0
  0
SPLINE
  5
38E
100
AcDbEntity
  8
0
100
AcDbSpline
 62
7
  6
CONTINUOUS
 70
0
 71
3
 72
35
 73
31
 74
0
 42
0.0000001
 43
0.0000001
 44
0.0000000001
 40
0.0
 40
0.0
 40
0.0
 40
0.0
 40
0.0300807811
 40
0.0602672421
 40
0.0905686231
 40
0.1209922967
 40
0.1515436676
 40
0.1822261202
 40
0.2130409941
 40
0.2439875852
 40
0.2750631776
 40
0.3062631069
 40
0.3375808644
 40
0.3690082131
 40
0.4005353212
 40
0.4321509132
 40
0.4955692424
 40
0.5591785102
 40
0.6228558627
 40
0.6864746662
 40
0.7182367251
 40
0.7499385906
 40
0.7815665008
 40
0.8131077594
 40
0.8445508714
 40
0.8758857678
 40
0.907104129
 40
0.9381983866
 40
0.9691657879
 40
1.0
 40
1.0
 40
1.0
 40
1.0
 10
10.050531669
 20
7.1387792265
 30
0.0
 10
10.0470539878
 20
7.1374810181
 30
0.0
 10
10.0399993224
 20
7.1351069465
 30
0.0
 10
10.0291908729
 20
7.132233413
 30
0.0
 10
10.0181782372
 20
7.1300519122
 30
0.0
 10
10.0070045115
 20
7.1285710249
 30
0.0
 10
9.9957126583
 20
7.1277963262
 30
0.0
 10
9.9843462808
 20
7.1277307256
 30
0.0
 10
9.9729491969
 20
7.1283743995
 30
0.0
 10
9.9615653461
 20
7.1297248071
 30
0.0
 10
9.9502386051
 20
7.1317767054
 30
0.0
 10
9.9390126253
 20
7.1345220971
 30
0.0
 10
9.9279306201
 20
7.1379503538
 30
0.0
 10
9.917035383
 20
7.1420481388
 30
0.0
 10
9.9063684612
 20
7.1467999284
 30
0.0
 10
9.8924945344
 20
7.1539883067
 30
0.0
 10
9.8759303866
 20
7.1645145756
 30
0.0
 10
9.8576278856
 20
7.1793908161
 30
0.0
 10
9.8411502258
 20
7.1963003377
 30
0.0
 10
9.8291395684
 20
7.2118858912
 30
0.0
 10
9.8206823532
 20
7.2251012656
 30
0.0
 10
9.8149409015
 20
7.2353435218
 30
0.0
 10
9.8098215655
 20
7.2458798015
 30
0.0
 10
9.8053437671
 20
7.2566699265
 30
0.0
 10
9.8015248856
 20
7.2676722391
 30
0.0
 10
9.7983796615
 20
7.2788444289
 30
0.0
 10
9.795920334
 20
7.2901433431
 30
0.0
 10
9.7941562277
 20
7.3015257738
 30
0.0
 10
9.7930944965
 20
7.3129470821
 30
0.0
 10
9.7928569955
 20
7.320575712
 30
0.0
 10
9.7928569955
 20
7.3243807784
 30
0.0
  0
SPLINE
  5
38F
100
AcDbEntity
  8
0
100
AcDbSpline
 62
7
  6
CONTINUOUS
 70
0
 71
3
 72
37
 73
33
 74
0
 42
0.0000001
 43
0.0000001
 44
0.0000000001
 40
0.0
 40
0.0
 40
0.0
 40
0.0
 40
0.0155472121
 40
0.03128734
 40
0.0474056788
 40
0.0640736693
 40
0.0814445296
 40
0.0996515024
 40
0.1188074627
 40
0.1390063555
 40
0.1603247836
 40
0.1828242504
 40
0.2065531714
 40
0.231548646
 40
0.2578383369
 40
0.2854414938
 40
0.3143705679
 40
0.3446316909
 40
0.3762259293
 40
0.4091495639
 40
0.4433948874
 40
0.4789505504
 40
0.515801882
 40
0.5539314124
 40
0.5933188189
 40
0.6339415583
 40
0.675774578
 40
0.7187910126
 40
0.7629620282
 40
0.8082568025
 40
0.9020843778
 40
1.0
 40
1.0
 40
1.0
 40
1.0
 10
9.2557654141
 20
11.8761644439
 30
0.0
 10
9.255765425
 20
11.8785718525
 30
0.0
 10
9.2560481037
 20
11.8834211353
 30
0.0
 10
9.2573165371
 20
11.8906663784
 30
0.0
 10
9.2594267869
 20
11.8978934407
 30
0.0
 10
9.2623743426
 20
11.9050930859
 30
0.0
 10
9.2661536477
 20
11.9122591317
 30
0.0
 10
9.2707592973
 20
11.9193856593
 30
0.0
 10
9.2761855166
 20
11.9264675552
 30
0.0
 10
9.2824266739
 20
11.9334996345
 30
0.0
 10
9.28947672
 20
11.9404768009
 30
0.0
 10
9.2973292773
 20
11.9473937499
 30
0.0
 10
9.3059774281
 20
11.9542450113
 30
0.0
 10
9.3154135848
 20
11.9610250771
 30
0.0
 10
9.3256295758
 20
11.9677281876
 30
0.0
 10
9.3366164242
 20
11.9743487377
 30
0.0
 10
9.3483645506
 20
11.9808808734
 30
0.0
 10
9.360863571
 20
11.9873189768
 30
0.0
 10
9.374102473
 20
11.9936572709
 30
0.0
 10
9.388069502
 20
11.9998901752
 30
0.0
 10
9.4027522503
 20
12.0060120992
 30
0.0
 10
9.4181376379
 20
12.0120175459
 30
0.0
 10
9.4342119246
 20
12.0179011639
 30
0.0
 10
9.450960754
 20
12.0236575942
 30
0.0
 10
9.4683691254
 20
12.0292817361
 30
0.0
 10
9.4864214526
 20
12.0347684294
 30
0.0
 10
9.5051015401
 20
12.0401128166
 30
0.0
 10
9.5243926505
 20
12.0453099998
 30
0.0
 10
9.5442774828
 20
12.0503553742
 30
0.0
 10
9.5718832445
 20
12.0569514465
 30
0.0
 10
9.6077509079
 20
12.0647626659
 30
0.0
 10
9.6369087013
 20
12.070377458
 30
0.0
 10
9.6518274383
 20
12.0730811357
 30
0.0
  0
SPLINE
  5
390
100
AcDbEntity
  8
0
100
AcDbSpline
 62
7
  6
CONTINUOUS
 70
0
 71
3
 72
39
 73
35
 74
0
 42
0.0000001
 43
0.0000001
 44
0.0000000001
 40
0.0
 40
0.0
 40
0.0
 40
0.0
 40
0.0299424683
 40
0.0599093148
 40
0.0899243219
 40
0.1200101034
 40
0.1501875656
 40
0.1804754221
 40
0.2108897722
 40
0.2414437551
 40
0.2721472861
 40
0.3030068757
 40
0.334025535
 40
0.3652027614
 40
0.3965346031
 40
0.4280137946
 40
0.459629957
 40
0.4913698552
 40
0.5232177051
 40
0.5551555222
 40
0.5871635048
 40
0.6192204442
 40
0.6513041551
 40
0.68339192
 40
0.7154609412
 40
0.7474887928
 40
0.7794538702
 40
0.8113358216
 40
0.8431159806
 40
0.8747777136
 40
0.9063069224
 40
0.9376919709
 40
0.9689249367
 40
1.0
 40
1.0
 40
1.0
 40
1.0
 10
12.0865259067
 20
10.9124381369
 30
0.0
 10
12.0833755265
 20
10.9093951284
 30
0.0
 10
12.0768270018
 20
10.9035547456
 30
0.0
 10
12.0663352988
 20
10.895598231
 30
0.0
 10
12.0552282584
 20
10.8884856442
 30
0.0
 10
12.043567954
 20
10.8822568715
 30
0.0
 10
12.0314184891
 20
10.8769459451
 30
0.0
 10
12.0188469158
 20
10.872582058
 30
0.0
 10
12.0059225098
 20
10.8691890872
 30
0.0
 10
11.992716475
 20
10.8667855565
 30
0.0
 10
11.9793015207
 20
10.8653845221
 30
0.0
 10
11.9657514661
 20
10.8649935161
 30
0.0
 10
11.9521408327
 20
10.8656145142
 30
0.0
 10
11.9385444368
 20
10.8672439336
 30
0.0
 10
11.9250369819
 20
10.8698726608
 30
0.0
 10
11.9116926537
 20
10.8734861075
 30
0.0
 10
11.8985847174
 20
10.8780642956
 30
0.0
 10
11.885785121
 20
10.8835819693
 30
0.0
 10
11.8733641062
 20
10.8900087364
 30
0.0
 10
11.8613898282
 20
10.8973092361
 30
0.0
 10
11.8499279868
 20
10.9054433333
 30
0.0
 10
11.8390414704
 20
10.9143663372
 30
0.0
 10
11.8287900153
 20
10.9240292457
 30
0.0
 10
11.8192298813
 20
10.9343790112
 30
0.0
 10
11.8104135465
 20
10.9453588299
 30
0.0
 10
11.8023894216
 20
10.9569084497
 30
0.0
 10
11.7952015885
 20
10.9689644974
 30
0.0
 10
11.7888895539
 20
10.9814608235
 30
0.0
 10
11.78348805
 20
10.9943288532
 30
0.0
 10
11.7790268047
 20
11.0074979923
 30
0.0
 10
11.7755304643
 20
11.0208958729
 30
0.0
 10
11.7730182889
 20
11.0344492431
 30
0.0
 10
11.7715043144
 20
11.0480826316
 30
0.0
 10
11.7711651949
 20
11.0572006732
 30
0.0
 10
11.7711651949
 20
11.0617463966
 30
0.0
  0
SPLINE
  5
391
100
AcDbEntity
  8
0
100
AcDbSpline
 62
7
  6
CONTINUOUS
 70
0
 71
3
 72
39
 73
35
 74
0
 42
0.0000001
 43
0.0000001
 44
0.0000000001
 40
0.0
 40
0.0
 40
0.0
 40
0.0
 40
0.0299424683
 40
0.0599093148
 40
0.0899243219
 40
0.1200101034
 40
0.1501875656
 40
0.1804754221
 40
0.2108897722
 40
0.2414437551
 40
0.2721472861
 40
0.3030068757
 40
0.334025535
 40
0.3652027614
 40
0.3965346031
 40
0.4280137946
 40
0.459629957
 40
0.4913698552
 40
0.5232177051
 40
0.5551555222
 40
0.5871635048
 40
0.6192204442
 40
0.6513041551
 40
0.68339192
 40
0.7154609412
 40
0.7474887928
 40
0.7794538702
 40
0.8113358216
 40
0.8431159806
 40
0.8747777136
 40
0.9063069224
 40
0.9376919709
 40
0.9689249367
 40
1.0
 40
1.0
 40
1.0
 40
1.0
 10
9.9131926688
 20
5.8471595378
 30
0.0
 10
9.9100422886
 20
5.8441165294
 30
0.0
 10
9.9034937639
 20
5.8382761465
 30
0.0
 10
9.8930020609
 20
5.8303196319
 30
0.0
 10
9.8818950204
 20
5.8232070452
 30
0.0
 10
9.870234716
 20
5.8169782724
 30
0.0
 10
9.8580852512
 20
5.811667346
 30
0.0
 10
9.8455136778
 20
5.807303459
 30
0.0
 10
9.8325892719
 20
5.8039104881
 30
0.0
 10
9.8193832371
 20
5.8015069575
 30
0.0
 10
9.8059682827
 20
5.800105923
 30
0.0
 10
9.7924182282
 20
5.799714917
 30
0.0
 10
9.7788075948
 20
5.8003359151
 30
0.0
 10
9.7652111988
 20
5.8019653346
 30
0.0
 10
9.751703744
 20
5.8045940618
 30
0.0
 10
9.7383594158
 20
5.8082075084
 30
0.0
 10
9.7252514795
 20
5.8127856966
 30
0.0
 10
9.7124518831
 20
5.8183033703
 30
0.0
 10
9.7000308683
 20
5.8247301373
 30
0.0
 10
9.6880565903
 20
5.8320306371
 30
0.0
 10
9.6765947489
 20
5.8401647342
 30
0.0
 10
9.6657082325
 20
5.8490877382
 30
0.0
 10
9.6554567774
 20
5.8587506466
 30
0.0
 10
9.6458966433
 20
5.8691004122
 30
0.0
 10
9.6370803085
 20
5.8800802309
 30
0.0
 10
9.6290561837
 20
5.8916298507
 30
0.0
 10
9.6218683505
 20
5.9036858983
 30
0.0
 10
9.615556316
 20
5.9161822244
 30
0.0
 10
9.6101548121
 20
5.9290502542
 30
0.0
 10
9.6056935668
 20
5.9422193933
 30
0.0
 10
9.6021972263
 20
5.9556172738
 30
0.0
 10
9.599685051
 20
5.9691706441
 30
0.0
 10
9.5981710765
 20
5.9828040325
 30
0.0
 10
9.597831957
 20
5.9919220741
 30
0.0
 10
9.597831957
 20
5.9964677976
 30
0.0
  0
SPLINE
  5
392
100
AcDbEntity
  8
0
100
AcDbSpline
 62
7
  6
CONTINUOUS
 70
0
 71
3
 72
39
 73
35
 74
0
 42
0.0000001
 43
0.0000001
 44
0.0000000001
 40
0.0
 40
0.0
 40
0.0
 40
0.0
 40
0.0311159951
 40
0.062023302
 40
0.0927351462
 40
0.1232711779
 40
0.1536587317
 40
0.1839312106
 40
0.2141268394
 40
0.2442870987
 40
0.2744549756
 40
0.3046731307
 40
0.3349820889
 40
0.3654185443
 40
0.3960138644
 40
0.4267928812
 40
0.4577729965
 40
0.4889636213
 40
0.5203659689
 40
0.5519731774
 40
0.5837707183
 40
0.6157370645
 40
0.6478445901
 40
0.6800606397
 40
0.712348731
 40
0.7446698625
 40
0.7769838844
 40
0.809250893
 40
0.8414326244
 40
0.8734938009
 40
0.9054034054
 40
0.9371359272
 40
0.9686717714
 40
1.0
 40
1.0
 40
1.0
 40
1.0
 10
10.0729872838
 20
7.1665658747
 30
0.0
 10
10.0729872838
 20
7.1590555041
 30
0.0
 10
10.0722540763
 20
7.1440742672
 30
0.0
 10
10.0689380996
 20
7.121901927
 30
0.0
 10
10.0634409994
 20
7.1003087881
 30
0.0
 10
10.0558147354
 20
7.0795060972
 30
0.0
 10
10.0461322763
 20
7.0596943381
 30
0.0
 10
10.0344866256
 20
7.0410654245
 30
0.0
 10
10.0209899674
 20
7.0237997229
 30
0.0
 10
10.0057725996
 20
7.0080645316
 30
0.0
 10
9.9889817812
 20
6.9940121453
 30
0.0
 10
9.9707801117
 20
6.9817784065
 30
0.0
 10
9.9513438542
 20
6.9714813893
 30
0.0
 10
9.9308611893
 20
6.9632201766
 30
0.0
 10
9.9095303016
 20
6.9570738541
 30
0.0
 10
9.8875573154
 20
6.95310096
 30
0.0
 10
9.8651542913
 20
6.9513390055
 30
0.0
 10
9.8425371774
 20
6.9518040309
 30
0.0
 10
9.8199237008
 20
6.9544906499
 30
0.0
 10
9.7975313208
 20
6.9593722407
 30
0.0
 10
9.7755751912
 20
6.9664011865
 30
0.0
 10
9.7542660956
 20
6.9755092704
 30
0.0
 10
9.7338085141
 20
6.986608517
 30
0.0
 10
9.7143987393
 20
6.9995920339
 30
0.0
 10
9.6962229589
 20
7.0143349014
 30
0.0
 10
9.6794555255
 20
7.0306954315
 30
0.0
 10
9.664257381
 20
7.0485165666
 30
0.0
 10
9.6507745257
 20
7.0676273216
 30
0.0
 10
9.6391365173
 20
7.0878442928
 30
0.0
 10
9.6294553779
 20
7.1089735849
 30
0.0
 10
9.6218245266
 20
7.1308122839
 30
0.0
 10
9.6163178875
 20
7.1531514662
 30
0.0
 10
9.6129888022
 20
7.1757737759
 30
0.0
 10
9.6122406374
 20
7.1909571664
 30
0.0
 10
9.6122406374
 20
7.1985187632
 30
0.0
  0
SPLINE
  5
393
100
AcDbEntity
  8
0
100
AcDbSpline
 62
7
  6
CONTINUOUS
 70
0
 71
3
 72
19
 73
15
 74
0
 42
0.0000001
 43
0.0000001
 44
0.0000000001
 40
0.0
 40
0.0
 40
0.0
 40
0.0
 40
0.1504611406
 40
0.2916985742
 40
0.4244193292
 40
0.4878835935
 40
0.5495802133
 40
0.6682271463
 40
0.7255606136
 40
0.7817999183
 40
0.8371467056
 40
0.8918136429
 40
0.9460222308
 40
1.0
 40
1.0
 40
1.0
 40
1.0
 10
13.6079998855
 20
8.5672554738
 30
0.0
 10
13.6053410113
 20
8.5646871984
 30
0.0
 10
13.6000269344
 20
8.5598683875
 30
0.0
 10
13.5917985912
 20
8.5534467772
 30
0.0
 10
13.5848484741
 20
8.548905044
 30
0.0
 10
13.5793061878
 20
8.5458295124
 30
0.0
 10
13.5739274143
 20
8.5431890843
 30
0.0
 10
13.5684856568
 20
8.5410307838
 30
0.0
 10
13.5630132903
 20
8.5394066334
 30
0.0
 10
13.558967172
 20
8.5384704516
 30
0.0
 10
13.5549345183
 20
8.5378031953
 30
0.0
 10
13.550916402
 20
8.5374051557
 30
0.0
 10
13.5469144433
 20
8.5372764974
 30
0.0
 10
13.544255655
 20
8.5373705172
 30
0.0
 10
13.5429326424
 20
8.5374622641
 30
0.0
  0
SPLINE
  5
394
100
AcDbEntity
  8
0
100
AcDbSpline
 62
7
  6
CONTINUOUS
 70
0
 71
3
 72
86
 73
82
 74
0
 42
0.0000001
 43
0.0000001
 44
0.0000000001
 40
0.0
 40
0.0
 40
0.0
 40
0.0
 40
0.002716423
 40
0.0054532184
 40
0.0082302775
 40
0.0110665566
 40
0.0139797488
 40
0.0169860419
 40
0.020099982
 40
0.0233344833
 40
0.0267008106
 40
0.0302087435
 40
0.0338666327
 40
0.0376815707
 40
0.041659524
 40
0.0458054172
 40
0.050123326
 40
0.0546164853
 40
0.059287471
 40
0.0641382186
 40
0.0691701101
 40
0.0743840651
 40
0.0797805185
 40
0.0853595635
 40
0.0911208899
 40
0.097063894
 40
0.1094905757
 40
0.122629762
 40
0.1364673676
 40
0.1509861198
 40
0.1661659549
 40
0.1819843348
 40
0.1984165055
 40
0.2154357144
 40
0.2330133935
 40
0.2511193234
 40
0.269721785
 40
0.2887876939
 40
0.3082827249
 40
0.3281714286
 40
0.3484173427
 40
0.3689830984
 40
0.3898305293
 40
0.4109207748
 40
0.4322143812
 40
0.4536714006
 40
0.49691332
 40
0.5403215239
 40
0.5835687025
 40
0.6050303106
 40
0.6263297971
 40
0.6474271998
 40
0.6682830476
 40
0.6888584598
 40
0.7091152471
 40
0.729016014
 40
0.7485242648
 40
0.7676045153
 40
0.7862224028
 40
0.804344802
 40
0.8219399494
 40
0.8389775763
 40
0.8554290562
 40
0.8712675732
 40
0.8864683068
 40
0.901008645
 40
0.9148684417
 40
0.92803033
 40
0.9404801139
 40
0.9464347718
 40
0.9522078119
 40
0.957798587
 40
0.9632067885
 40
0.9684324781
 40
0.9734760666
 40
0.9783384297
 40
0.9830208824
 40
0.987525401
 40
0.99185459
 40
0.9960115652
 40
1.0
 40
1.0
 40
1.0
 40
1.0
 10
13.6730671287
 20
10.4139552705
 30
0.0
 10
13.674822457
 20
10.4138335439
 30
0.0
 10
13.6783372872
 20
10.4134302862
 30
0.0
 10
13.6835648041
 20
10.4123512702
 30
0.0
 10
13.68875279
 20
10.4107981271
 30
0.0
 10
13.6938975931
 20
10.4087725155
 30
0.0
 10
13.6989965251
 20
10.4062761445
 30
0.0
 10
13.7040469677
 20
10.4033109809
 30
0.0
 10
13.7090466416
 20
10.3998791947
 30
0.0
 10
13.7139932382
 20
10.3959828546
 30
0.0
 10
13.7188847242
 20
10.3916243545
 30
0.0
 10
13.7237188966
 20
10.3868059779
 30
0.0
 10
13.7284937036
 20
10.3815302975
 30
0.0
 10
13.7332070196
 20
10.3757999756
 30
0.0
 10
13.7378566631
 20
10.3696178422
 30
0.0
 10
13.7424405758
 20
10.3629870033
 30
0.0
 10
13.7469564964
 20
10.3559106637
 30
0.0
 10
13.7514023744
 20
10.3483923589
 30
0.0
 10
13.755775995
 20
10.3404357585
 30
0.0
 10
13.7600752519
 20
10.3320448035
 30
0.0
 10
13.7642980595
 20
10.3232236505
 30
0.0
 10
13.7684422643
 20
10.3139766528
 30
0.0
 10
13.7725059024
 20
10.3043084291
 30
0.0
 10
13.7764868451
 20
10.2942237702
 30
0.0
 10
13.7803832201
 20
10.2837277061
 30
0.0
 10
13.7855397127
 20
10.2689712006
 30
0.0
 10
13.7917406608
 20
10.2495216884
 30
0.0
 10
13.7987079508
 20
10.224963813
 30
0.0
 10
13.8052937441
 20
10.1989011424
 30
0.0
 10
13.8114847018
 20
10.17138585
 30
0.0
 10
13.8172682416
 20
10.1424727564
 30
0.0
 10
13.8226326003
 20
10.1122197021
 30
0.0
 10
13.8275668599
 20
10.0806872613
 30
0.0
 10
13.8320609732
 20
10.0479386487
 30
0.0
 10
13.8361057917
 20
10.0140395709
 30
0.0
 10
13.8396930855
 20
9.9790580872
 30
0.0
 10
13.8428155526
 20
9.9430644601
 30
0.0
 10
13.8454668355
 20
9.9061310071
 30
0.0
 10
13.8476415322
 20
9.8683319508
 30
0.0
 10
13.8493352064
 20
9.8297432683
 30
0.0
 10
13.8505443972
 20
9.7904425379
 30
0.0
 10
13.8512666307
 20
9.7505087824
 30
0.0
 10
13.8515004207
 20
9.710022299
 30
0.0
 10
13.8512452556
 20
9.6690645236
 30
0.0
 10
13.8505016598
 20
9.6277177557
 30
0.0
 10
13.8488565555
 20
9.5720399798
 30
0.0
 10
13.8455900731
 20
9.502083995
 30
0.0
 10
13.8397835428
 20
9.4181378769
 30
0.0
 10
13.8333869354
 20
9.3483920081
 30
0.0
 10
13.8273500418
 20
9.2930077867
 30
0.0
 10
13.8223931561
 20
9.2519409901
 30
0.0
 10
13.8170058737
 20
9.2113242428
 30
0.0
 10
13.8111990086
 20
9.1712391604
 30
0.0
 10
13.8049842827
 20
9.1317663644
 30
0.0
 10
13.7983742265
 20
9.0929852191
 30
0.0
 10
13.7913821744
 20
9.0549736975
 30
0.0
 10
13.7840222328
 20
9.0178082129
 30
0.0
 10
13.776309261
 20
8.981563462
 30
0.0
 10
13.7682588329
 20
8.9463122729
 30
0.0
 10
13.7598872071
 20
8.9121254584
 30
0.0
 10
13.7512112943
 20
8.8790716699
 30
0.0
 10
13.7422486235
 20
8.8472172553
 30
0.0
 10
13.7330173035
 20
8.8166261138
 30
0.0
 10
13.7235359925
 20
8.7873595572
 30
0.0
 10
13.7138238526
 20
8.7594761619
 30
0.0
 10
13.7039005042
 20
8.7330316823
 30
0.0
 10
13.6937859662
 20
8.7080787725
 30
0.0
 10
13.6835006373
 20
8.6846673664
 30
0.0
 10
13.6746783966
 20
8.6662168035
 30
0.0
 10
13.6675372673
 20
8.6522780117
 30
0.0
 10
13.6622311991
 20
8.6423934673
 30
0.0
 10
13.6568979577
 20
8.6329277666
 30
0.0
 10
13.6515401517
 20
8.6238856192
 30
0.0
 10
13.6461605019
 20
8.6152715045
 30
0.0
 10
13.6407616034
 20
8.607089748
 30
0.0
 10
13.6353462451
 20
8.5993443778
 30
0.0
 10
13.6299170038
 20
8.5920392521
 30
0.0
 10
13.624476529
 20
8.5851779104
 30
0.0
 10
13.6190273543
 20
8.5787636917
 30
0.0
 10
13.6135723823
 20
8.5728000782
 30
0.0
 10
13.6098580658
 20
8.5690503382
 30
0.0
 10
13.6079998855
 20
8.5672554738
 30
0.0
  0
SPLINE
  5
395
100
AcDbEntity
  8
0
100
AcDbSpline
 62
7
  6
CONTINUOUS
 70
0
 71
3
 72
39
 73
35
 74
0
 42
0.0000001
 43
0.0000001
 44
0.0000000001
 40
0.0
 40
0.0
 40
0.0
 40
0.0
 40
0.0313282286
 40
0.0628640728
 40
0.0945965946
 40
0.1265061991
 40
0.1585673756
 40
0.190749107
 40
0.2230161156
 40
0.2553301375
 40
0.287651269
 40
0.3199393603
 40
0.3521554099
 40
0.3842629355
 40
0.4162292817
 40
0.4480268226
 40
0.4796340311
 40
0.5110363787
 40
0.5422270035
 40
0.5732071188
 40
0.6039861356
 40
0.6345814557
 40
0.6650179111
 40
0.6953268693
 40
0.7255450244
 40
0.7557129013
 40
0.7858731606
 40
0.8160687894
 40
0.8463412683
 40
0.8767288221
 40
0.9072648538
 40
0.937976698
 40
0.9688840049
 40
1.0
 40
1.0
 40
1.0
 40
1.0
 10
10.0729872838
 20
7.1665658747
 30
0.0
 10
10.0729872838
 20
7.1741274714
 30
0.0
 10
10.0722391191
 20
7.189310862
 30
0.0
 10
10.0689100338
 20
7.2119331717
 30
0.0
 10
10.0634033947
 20
7.2342723539
 30
0.0
 10
10.0557725434
 20
7.2561110529
 30
0.0
 10
10.046091404
 20
7.277240345
 30
0.0
 10
10.0344533956
 20
7.2974573163
 30
0.0
 10
10.0209705402
 20
7.3165680712
 30
0.0
 10
10.0057723957
 20
7.3343892064
 30
0.0
 10
9.9890049623
 20
7.3507497364
 30
0.0
 10
9.9708291819
 20
7.365492604
 30
0.0
 10
9.9514194072
 20
7.3784761208
 30
0.0
 10
9.9309618256
 20
7.3895753675
 30
0.0
 10
9.90965273
 20
7.3986834514
 30
0.0
 10
9.8876966005
 20
7.4057123972
 30
0.0
 10
9.8653042204
 20
7.4105939879
 30
0.0
 10
9.8426907439
 20
7.4132806069
 30
0.0
 10
9.82007363
 20
7.4137456323
 30
0.0
 10
9.7976706058
 20
7.4119836779
 30
0.0
 10
9.7756976197
 20
7.4080107837
 30
0.0
 10
9.754366732
 20
7.4018644613
 30
0.0
 10
9.7338840671
 20
7.3936032485
 30
0.0
 10
9.7144478096
 20
7.3833062313
 30
0.0
 10
9.6962461401
 20
7.3710724926
 30
0.0
 10
9.6794553217
 20
7.3570201063
 30
0.0
 10
9.6642379539
 20
7.3412849149
 30
0.0
 10
9.6507412957
 20
7.3240192134
 30
0.0
 10
9.6390956449
 20
7.3053902997
 30
0.0
 10
9.6294131858
 20
7.2855785406
 30
0.0
 10
9.6217869219
 20
7.2647758498
 30
0.0
 10
9.6162898217
 20
7.2431827108
 30
0.0
 10
9.6129738449
 20
7.2210103707
 30
0.0
 10
9.6122406374
 20
7.2060291337
 30
0.0
 10
9.6122406374
 20
7.1985187632
 30
0.0
  0
SPLINE
  5
396
100
AcDbEntity
  8
0
100
AcDbSpline
 62
7
  6
CONTINUOUS
 70
0
 71
3
 72
21
 73
17
 74
0
 42
0.0000001
 43
0.0000001
 44
0.0000000001
 40
0.0
 40
0.0
 40
0.0
 40
0.0
 40
0.1273174669
 40
0.2538000755
 40
0.316761934
 40
0.3795355049
 40
0.4421315085
 40
0.504562148
 40
0.5668413451
 40
0.628984521
 40
0.6910084481
 40
0.7529310917
 40
0.8147714402
 40
0.876549326
 40
0.9382852166
 40
1.0
 40
1.0
 40
1.0
 40
1.0
 10
9.4526533282
 20
7.2018692505
 30
0.0
 10
9.4526533282
 20
7.214065297
 30
0.0
 10
9.4538175412
 20
7.2383931134
 30
0.0
 10
9.4582143135
 20
7.2684675422
 30
0.0
 10
9.4634694973
 20
7.2920583087
 30
0.0
 10
9.4682619568
 20
7.3094588358
 30
0.0
 10
9.4738998984
 20
7.326550209
 30
0.0
 10
9.4803704671
 20
7.3432934559
 30
0.0
 10
9.4876587578
 20
7.359649834
 30
0.0
 10
9.4957479602
 20
7.3755816685
 30
0.0
 10
9.504619451
 20
7.3910521979
 30
0.0
 10
9.5142528481
 20
7.4060257138
 30
0.0
 10
9.5246258935
 20
7.4204676522
 30
0.0
 10
9.5357147749
 20
7.434344824
 30
0.0
 10
9.5474934834
 20
7.4476247895
 30
0.0
 10
9.5557893612
 20
7.4560610284
 30
0.0
 10
9.5600414653
 20
7.4601682269
 30
0.0
  0
SPLINE
  5
397
100
AcDbEntity
  8
0
100
AcDbSpline
 62
7
  6
CONTINUOUS
 70
0
 71
3
 72
11
 73
7
 74
0
 42
0.0000001
 43
0.0000001
 44
0.0000000001
 40
0.0
 40
0.0
 40
0.0
 40
0.0
 40
0.2523606205
 40
0.5030733183
 40
0.7522377995
 40
1.0
 40
1.0
 40
1.0
 40
1.0
 10
9.7928569955
 20
7.3243807784
 30
0.0
 10
9.7928569955
 20
7.330196892
 30
0.0
 10
9.7934092053
 20
7.3417990103
 30
0.0
 10
9.7959067908
 20
7.3589816613
 30
0.0
 10
9.8000476577
 20
7.375735114
 30
0.0
 10
9.8038910631
 20
7.3865473317
 30
0.0
 10
9.8060712838
 20
7.3918248571
 30
0.0
  0
SPLINE
  5
398
100
AcDbEntity
  8
0
100
AcDbSpline
 62
7
  6
CONTINUOUS
 70
0
 71
3
 72
45
 73
41
 74
0
 42
0.0000001
 43
0.0000001
 44
0.0000000001
 40
0.0
 40
0.0
 40
0.0
 40
0.0
 40
0.0234201688
 40
0.0452789911
 40
0.0657274003
 40
0.084958819
 40
0.0941960288
 40
0.1032230178
 40
0.112076981
 40
0.1207976095
 40
0.1294265994
 40
0.1380071471
 40
0.1465832415
 40
0.1551989531
 40
0.1638976808
 40
0.1727214862
 40
0.1817105091
 40
0.1909024453
 40
0.2100236833
 40
0.2303398604
 40
0.2520489334
 40
0.2753059113
 40
0.3002286355
 40
0.3269039819
 40
0.3553934513
 40
0.385737775
 40
0.4179605692
 40
0.4520713747
 40
0.4880679813
 40
0.5259381658
 40
0.5656610734
 40
0.6072084325
 40
0.6505454599
 40
0.6956315136
 40
0.7424206475
 40
0.7908623718
 40
0.8409018276
 40
0.8924796049
 40
0.945535409
 40
1.0
 40
1.0
 40
1.0
 40
1.0
 10
9.2090894573
 20
11.89795805
 30
0.0
 10
9.2057287585
 20
11.901085532
 30
0.0
 10
9.1994437896
 20
11.9073677117
 30
0.0
 10
9.191127336
 20
11.917230743
 30
0.0
 10
9.1842749678
 20
11.927183793
 30
0.0
 10
9.179737063
 20
11.9356589444
 30
0.0
 10
9.1768959477
 20
11.9424423263
 30
0.0
 10
9.1751669431
 20
11.9474732797
 30
0.0
 10
9.1738126708
 20
11.9525131159
 30
0.0
 10
9.1728337552
 20
11.9575598925
 30
0.0
 10
9.1722309807
 20
11.9626114403
 30
0.0
 10
9.1720046898
 20
11.9676655077
 30
0.0
 10
9.1721549979
 20
11.9727198109
 30
0.0
 10
9.1726819252
 20
11.9777720428
 30
0.0
 10
9.1735849899
 20
11.9828199661
 30
0.0
 10
9.1748636165
 20
11.9878613666
 30
0.0
 10
9.1765171714
 20
11.992894285
 30
0.0
 10
9.1792557137
 20
11.9996789149
 30
0.0
 10
9.1836658274
 20
12.0081582622
 30
0.0
 10
9.1903696458
 20
12.0181197946
 30
0.0
 10
9.1985395048
 20
12.0279928256
 30
0.0
 10
9.2081606033
 20
12.0377659008
 30
0.0
 10
9.219218381
 20
12.047428925
 30
0.0
 10
9.231696954
 20
12.0569703789
 30
0.0
 10
9.2455788197
 20
12.0663781949
 30
0.0
 10
9.2608444722
 20
12.0756397641
 30
0.0
 10
9.2774722664
 20
12.0847422728
 30
0.0
 10
9.2954384398
 20
12.0936727851
 30
0.0
 10
9.3147171351
 20
12.1024183876
 30
0.0
 10
9.3352804192
 20
12.1109663038
 30
0.0
 10
9.3570983313
 20
12.1193039874
 30
0.0
 10
9.3801389797
 20
12.1274191245
 30
0.0
 10
9.4043686026
 20
12.1352996803
 30
0.0
 10
9.4297515976
 20
12.1429339615
 30
0.0
 10
9.4562506127
 20
12.1503106519
 30
0.0
 10
9.4838266211
 20
12.1574187798
 30
0.0
 10
9.512438866
 20
12.1642477306
 30
0.0
 10
9.5420454265
 20
12.1707874742
 30
0.0
 10
9.5726021413
 20
12.1770281066
 30
0.0
 10
9.5933141017
 20
12.180933505
 30
0.0
 10
9.6038190848
 20
12.1828372914
 30
0.0
  0
SPLINE
  5
399
100
AcDbEntity
  8
0
100
AcDbSpline
 62
7
  6
CONTINUOUS
 70
0
 71
3
 72
45
 73
41
 74
0
 42
0.0000001
 43
0.0000001
 44
0.0000000001
 40
0.0
 40
0.0
 40
0.0
 40
0.0
 40
0.017828842
 40
0.0264745149
 40
0.0349756405
 40
0.0433620336
 40
0.0516648879
 40
0.0599164185
 40
0.0681495151
 40
0.076397308
 40
0.0846927318
 40
0.0930681189
 40
0.1015547698
 40
0.1101826612
 40
0.1189801973
 40
0.1371819434
 40
0.1563569355
 40
0.1766631436
 40
0.1982290096
 40
0.221156459
 40
0.2455245356
 40
0.2713931267
 40
0.2988057928
 40
0.327792621
 40
0.3583724164
 40
0.3905542149
 40
0.4243390244
 40
0.4597207645
 40
0.4966871514
 40
0.5352206895
 40
0.5752989667
 40
0.6168953606
 40
0.659979495
 40
0.704517293
 40
0.7504717141
 40
0.7978028357
 40
0.8464673259
 40
0.8964202262
 40
0.9476160703
 40
1.0
 40
1.0
 40
1.0
 40
1.0
 10
9.2553202423
 20
11.864141286
 30
0.0
 10
9.2539903882
 20
11.866804787
 30
0.0
 10
9.2522201821
 20
11.8708690481
 30
0.0
 10
9.2503708538
 20
11.8764114379
 30
0.0
 10
9.249268409
 20
11.8805329108
 30
0.0
 10
9.2484373883
 20
11.8846590897
 30
0.0
 10
9.2478779718
 20
11.8887888683
 30
0.0
 10
9.2475905141
 20
11.8929208228
 30
0.0
 10
9.2475751836
 20
11.8970535645
 30
0.0
 10
9.2478319016
 20
11.9011856792
 30
0.0
 10
9.2483605747
 20
11.9053157703
 30
0.0
 10
9.2491610196
 20
11.9094424529
 30
0.0
 10
9.2502327607
 20
11.9135643734
 30
0.0
 10
9.2515754051
 20
11.9176803479
 30
0.0
 10
9.2537503485
 20
11.9232206005
 30
0.0
 10
9.2571779142
 20
11.9301454392
 30
0.0
 10
9.2623179872
 20
11.9383081767
 30
0.0
 10
9.2685225581
 20
11.9464120144
 30
0.0
 10
9.2757826271
 20
11.95444899
 30
0.0
 10
9.2840892418
 20
11.962412268
 30
0.0
 10
9.2934327412
 20
11.970294375
 30
0.0
 10
9.3038027254
 20
11.9780874663
 30
0.0
 10
9.3151876355
 20
11.9857835339
 30
0.0
 10
9.3275748234
 20
11.9933743415
 30
0.0
 10
9.3409504741
 20
12.000851502
 30
0.0
 10
9.3552995191
 20
12.0082067351
 30
0.0
 10
9.3706057611
 20
12.0154316741
 30
0.0
 10
9.3868518176
 20
12.0225180712
 30
0.0
 10
9.4040191537
 20
12.0294578423
 30
0.0
 10
9.4220881576
 20
12.0362429279
 30
0.0
 10
9.4410381067
 20
12.0428655266
 30
0.0
 10
9.4608472405
 20
12.0493179807
 30
0.0
 10
9.4814927833
 20
12.0555927607
 30
0.0
 10
9.5029509545
 20
12.0616826493
 30
0.0
 10
9.5251970531
 20
12.0675805532
 30
0.0
 10
9.5482053785
 20
12.0732795903
 30
0.0
 10
9.5719493451
 20
12.0787732086
 30
0.0
 10
9.5964018776
 20
12.0840550437
 30
0.0
 10
9.6215342566
 20
12.0891188311
 30
0.0
 10
9.6385335251
 20
12.0923099083
 30
0.0
 10
9.6471403303
 20
12.0938696936
 30
0.0
  0
SPLINE
  5
39A
100
AcDbEntity
  8
0
100
AcDbSpline
 62
4
  6
CONTINUOUS
 70
0
 71
3
 72
313
 73
309
 74
0
 42
0.0000001
 43
0.0000001
 44
0.0000000001
 40
0.0
 40
0.0
 40
0.0
 40
0.0
 40
0.015625
 40
0.0234375
 40
0.03125
 40
0.0390625
 40
0.046875
 40
0.05078125
 40
0.0546875
 40
0.056640625
 40
0.05859375
 40
0.060546875
 40
0.0615234375
 40
0.0620117188
 40
0.0625
 40
0.0629882812
 40
0.0634765625
 40
0.064453125
 40
0.06640625
 40
0.068359375
 40
0.0703125
 40
0.07421875
 40
0.078125
 40
0.0859375
 40
0.09375
 40
0.1015625
 40
0.109375
 40
0.11328125
 40
0.1171875
 40
0.119140625
 40
0.12109375
 40
0.123046875
 40
0.1240234375
 40
0.1245117188
 40
0.125
 40
0.1254882812
 40
0.1259765625
 40
0.126953125
 40
0.12890625
 40
0.130859375
 40
0.1328125
 40
0.13671875
 40
0.140625
 40
0.1484375
 40
0.15625
 40
0.1640625
 40
0.171875
 40
0.17578125
 40
0.1796875
 40
0.181640625
 40
0.18359375
 40
0.185546875
 40
0.1865234375
 40
0.1870117188
 40
0.1875
 40
0.1879882812
 40
0.1884765625
 40
0.189453125
 40
0.19140625
 40
0.193359375
 40
0.1953125
 40
0.19921875
 40
0.203125
 40
0.2109375
 40
0.21875
 40
0.2265625
 40
0.234375
 40
0.23828125
 40
0.2421875
 40
0.244140625
 40
0.24609375
 40
0.248046875
 40
0.2490234375
 40
0.2495117188
 40
0.25
 40
0.2504882812
 40
0.2509765625
 40
0.251953125
 40
0.25390625
 40
0.255859375
 40
0.2578125
 40
0.26171875
 40
0.265625
 40
0.2734375
 40
0.28125
 40
0.2890625
 40
0.296875
 40
0.30078125
 40
0.3046875
 40
0.306640625
 40
0.30859375
 40
0.310546875
 40
0.3115234375
 40
0.3120117188
 40
0.3125
 40
0.3129882812
 40
0.3134765625
 40
0.314453125
 40
0.31640625
 40
0.318359375
 40
0.3203125
 40
0.32421875
 40
0.328125
 40
0.3359375
 40
0.34375
 40
0.3515625
 40
0.359375
 40
0.36328125
 40
0.3671875
 40
0.369140625
 40
0.37109375
 40
0.373046875
 40
0.3740234375
 40
0.3745117188
 40
0.375
 40
0.3754882812
 40
0.3759765625
 40
0.376953125
 40
0.37890625
 40
0.380859375
 40
0.3828125
 40
0.38671875
 40
0.390625
 40
0.3984375
 40
0.40625
 40
0.4140625
 40
0.421875
 40
0.42578125
 40
0.4296875
 40
0.431640625
 40
0.43359375
 40
0.435546875
 40
0.4365234375
 40
0.4370117188
 40
0.4375
 40
0.4379882812
 40
0.4384765625
 40
0.439453125
 40
0.44140625
 40
0.443359375
 40
0.4453125
 40
0.44921875
 40
0.453125
 40
0.4609375
 40
0.46875
 40
0.4765625
 40
0.484375
 40
0.48828125
 40
0.4921875
 40
0.494140625
 40
0.49609375
 40
0.498046875
 40
0.4990234375
 40
0.4995117188
 40
0.5
 40
0.5004882812
 40
0.5009765625
 40
0.501953125
 40
0.50390625
 40
0.505859375
 40
0.5078125
 40
0.51171875
 40
0.515625
 40
0.5234375
 40
0.53125
 40
0.5390625
 40
0.546875
 40
0.55078125
 40
0.5546875
 40
0.556640625
 40
0.55859375
 40
0.560546875
 40
0.5615234375
 40
0.5620117188
 40
0.5625
 40
0.5629882812
 40
0.5634765625
 40
0.564453125
 40
0.56640625
 40
0.568359375
 40
0.5703125
 40
0.57421875
 40
0.578125
 40
0.5859375
 40
0.59375
 40
0.6015625
 40
0.609375
 40
0.61328125
 40
0.6171875
 40
0.619140625
 40
0.62109375
 40
0.623046875
 40
0.6240234375
 40
0.6245117188
 40
0.625
 40
0.6254882812
 40
0.6259765625
 40
0.626953125
 40
0.62890625
 40
0.630859375
 40
0.6328125
 40
0.63671875
 40
0.640625
 40
0.6484375
 40
0.65625
 40
0.6640625
 40
0.671875
 40
0.67578125
 40
0.6796875
 40
0.681640625
 40
0.68359375
 40
0.685546875
 40
0.6865234375
 40
0.6870117188
 40
0.6875
 40
0.6879882812
 40
0.6884765625
 40
0.689453125
 40
0.69140625
 40
0.693359375
 40
0.6953125
 40
0.69921875
 40
0.703125
 40
0.7109375
 40
0.71875
 40
0.7265625
 40
0.734375
 40
0.73828125
 40
0.7421875
 40
0.744140625
 40
0.74609375
 40
0.748046875
 40
0.7490234375
 40
0.7495117188
 40
0.75
 40
0.7504882812
 40
0.7509765625
 40
0.751953125
 40
0.75390625
 40
0.755859375
 40
0.7578125
 40
0.76171875
 40
0.765625
 40
0.7734375
 40
0.78125
 40
0.7890625
 40
0.796875
 40
0.80078125
 40
0.8046875
 40
0.806640625
 40
0.80859375
 40
0.810546875
 40
0.8115234375
 40
0.8120117188
 40
0.8125
 40
0.8129882812
 40
0.8134765625
 40
0.814453125
 40
0.81640625
 40
0.818359375
 40
0.8203125
 40
0.82421875
 40
0.828125
 40
0.8359375
 40
0.84375
 40
0.8515625
 40
0.859375
 40
0.86328125
 40
0.8671875
 40
0.869140625
 40
0.87109375
 40
0.873046875
 40
0.8740234375
 40
0.8745117188
 40
0.875
 40
0.8754882812
 40
0.8759765625
 40
0.876953125
 40
0.87890625
 40
0.880859375
 40
0.8828125
 40
0.88671875
 40
0.890625
 40
0.8984375
 40
0.90625
 40
0.9140625
 40
0.921875
 40
0.92578125
 40
0.9296875
 40
0.931640625
 40
0.93359375
 40
0.935546875
 40
0.9365234375
 40
0.9370117188
 40
0.9375
 40
0.9379882812
 40
0.9384765625
 40
0.939453125
 40
0.94140625
 40
0.943359375
 40
0.9453125
 40
0.94921875
 40
0.953125
 40
0.9609375
 40
0.96875
 40
0.9765625
 40
0.984375
 40
1.0
 40
1.0
 40
1.0
 40
1.0
 10
9.9227887542
 20
9.6536459441
 30
0.0
 10
9.9265485785
 20
9.6537538534
 30
0.0
 10
9.932188315
 20
9.6539157171
 30
0.0
 10
9.9397079634
 20
9.6541315365
 30
0.0
 10
9.9453477003
 20
9.654293398
 30
0.0
 10
9.950987435
 20
9.6544552709
 30
0.0
 10
9.9556872209
 20
9.6545901297
 30
0.0
 10
9.9594470341
 20
9.6546980958
 30
0.0
 10
9.9617969525
 20
9.6547653944
 30
0.0
 10
9.9636768067
 20
9.6548196461
 30
0.0
 10
9.965086918
 20
9.6548592047
 30
0.0
 10
9.9662613086
 20
9.6548957653
 30
0.0
 10
9.96708476
 20
9.6549143025
 30
0.0
 10
9.967553152
 20
9.6549359113
 30
0.0
 10
9.9679105074
 20
9.6549210853
 30
0.0
 10
9.9682446931
 20
9.6550248816
 30
0.0
 10
9.9686983559
 20
9.6551218998
 30
0.0
 10
9.9694885002
 20
9.6553109599
 30
0.0
 10
9.9706192465
 20
9.655570967
 30
0.0
 10
9.9719752995
 20
9.6558872895
 30
0.0
 10
9.9737836644
 20
9.656307546
 30
0.0
 10
9.9760440197
 20
9.6568333826
 30
0.0
 10
9.9796606446
 20
9.6576744327
 30
0.0
 10
9.9841814061
 20
9.658725845
 30
0.0
 10
9.9896063295
 20
9.6599874943
 30
0.0
 10
9.9950312462
 20
9.6612491659
 30
0.0
 10
9.9995520242
 20
9.6623005224
 30
0.0
 10
10.0031686161
 20
9.663141684
 30
0.0
 10
10.0054290552
 20
9.6636672375
 30
0.0
 10
10.0072372483
 20
9.664088075
 30
0.0
 10
10.0085938261
 20
9.6644026225
 30
0.0
 10
10.00972293
 20
9.6646681833
 30
0.0
 10
10.0105160064
 20
9.664847329
 30
0.0
 10
10.0109649714
 20
9.6649602327
 30
0.0
 10
10.0113135871
 20
9.6650152339
 30
0.0
 10
10.0116167459
 20
9.665183674
 30
0.0
 10
10.0120368135
 20
9.6653686921
 30
0.0
 10
10.0127645444
 20
9.6657109096
 30
0.0
 10
10.0138080221
 20
9.6661901532
 30
0.0
 10
10.0150585422
 20
9.6667693712
 30
0.0
 10
10.0167264798
 20
9.6675402208
 30
0.0
 10
10.018811204
 20
9.6685042763
 30
0.0
 10
10.0221468734
 20
9.6700464891
 30
0.0
 10
10.0263164218
 20
9.6719743505
 30
0.0
 10
10.0313198978
 20
9.6742877406
 30
0.0
 10
10.0363233637
 20
9.6766011523
 30
0.0
 10
10.040492937
 20
9.6785289598
 30
0.0
 10
10.0438285566
 20
9.6800712804
 30
0.0
 10
10.0459134074
 20
9.6810350619
 30
0.0
 10
10.0475810853
 20
9.6818064738
 30
0.0
 10
10.0488323988
 20
9.6823839741
 30
0.0
 10
10.0498733941
 20
9.6828685919
 30
0.0
 10
10.0506055565
 20
9.6832012156
 30
0.0
 10
10.0510185237
 20
9.6834016052
 30
0.0
 10
10.0513434928
 20
9.683522829
 30
0.0
 10
10.0516101928
 20
9.6837551671
 30
0.0
 10
10.0519861177
 20
9.6840261933
 30
0.0
 10
10.0526345166
 20
9.6845185471
 30
0.0
 10
10.0535657516
 20
9.6852124688
 30
0.0
 10
10.0546811144
 20
9.6860492159
 30
0.0
 10
10.056169005
 20
9.6871634672
 30
0.0
 10
10.0580286148
 20
9.6885567646
 30
0.0
 10
10.0610041323
 20
9.6907857703
 30
0.0
 10
10.0647234799
 20
9.6935721206
 30
0.0
 10
10.0691867204
 20
9.696915699
 30
0.0
 10
10.0736499464
 20
9.7002592962
 30
0.0
 10
10.0773693305
 20
9.7030455995
 30
0.0
 10
10.0803447751
 20
9.7052746992
 30
0.0
 10
10.08220457
 20
9.7066677576
 30
0.0
 10
10.0836920808
 20
9.7077824994
 30
0.0
 10
10.0848086041
 20
9.7086177481
 30
0.0
 10
10.0857362082
 20
9.7093163577
 30
0.0
 10
10.0863910888
 20
9.7098003429
 30
0.0
 10
10.0867566284
 20
9.7100847777
 30
0.0
 10
10.0870552287
 20
9.7102759289
 30
0.0
 10
10.0872603855
 20
9.7105518437
 30
0.0
 10
10.087566522
 20
9.7108901637
 30
0.0
 10
10.0880870746
 20
9.7114959992
 30
0.0
 10
10.0888386608
 20
9.7123542764
 30
0.0
 10
10.0897371659
 20
9.7133872918
 30
0.0
 10
10.0909363596
 20
9.7147635689
 30
0.0
 10
10.0924349453
 20
9.716484284
 30
0.0
 10
10.0948329097
 20
9.7192372221
 30
0.0
 10
10.0978302866
 20
9.7226784658
 30
0.0
 10
10.101427175
 20
9.7268079259
 30
0.0
 10
10.1050240449
 20
9.7309374013
 30
0.0
 10
10.108021468
 20
9.734378607
 30
0.0
 10
10.11041934
 20
9.7371316209
 30
0.0
 10
10.1119181606
 20
9.7388521433
 30
0.0
 10
10.1131168722
 20
9.740228816
 30
0.0
 10
10.1140168502
 20
9.7412606228
 30
0.0
 10
10.1147638277
 20
9.7421226813
 30
0.0
 10
10.1152926076
 20
9.7427217666
 30
0.0
 10
10.115585562
 20
9.7430709021
 30
0.0
 10
10.11583121
 20
9.7433135952
 30
0.0
 10
10.1159777321
 20
9.7436295217
 30
0.0
 10
10.1162076711
 20
9.7440252123
 30
0.0
 10
10.1165939548
 20
9.7447295727
 30
0.0
 10
10.1171542109
 20
9.7457295795
 30
0.0
 10
10.1178229131
 20
9.746932251
 30
0.0
 10
10.1187157753
 20
9.7485348828
 30
0.0
 10
10.1198314219
 20
9.750538491
 30
0.0
 10
10.1216166975
 20
9.7537440861
 30
0.0
 10
10.1238482087
 20
9.7577511413
 30
0.0
 10
10.1265260605
 20
9.76255958
 30
0.0
 10
10.1292038922
 20
9.7673680309
 30
0.0
 10
10.1314354536
 20
9.7713750558
 30
0.0
 10
10.1332206288
 20
9.7745807117
 30
0.0
 10
10.1343365307
 20
9.7765841653
 30
0.0
 10
10.135228869
 20
9.7781871143
 30
0.0
 10
10.1358991719
 20
9.7793888166
 30
0.0
 10
10.13645442
 20
9.7803918559
 30
0.0
 10
10.1368496436
 20
9.7810908027
 30
0.0
 10
10.1370652585
 20
9.7814951673
 30
0.0
 10
10.1372557799
 20
9.7817844502
 30
0.0
 10
10.1373361741
 20
9.782127212
 30
0.0
 10
10.1374817799
 20
9.7825655737
 30
0.0
 10
10.1377186925
 20
9.783341398
 30
0.0
 10
10.1380664962
 20
9.7844451744
 30
0.0
 10
10.1384798555
 20
9.7857716511
 30
0.0
 10
10.1390324001
 20
9.7875396073
 30
0.0
 10
10.1397226018
 20
9.7897497852
 30
0.0
 10
10.1408271924
 20
9.7932859398
 30
0.0
 10
10.1422078382
 20
9.7977061779
 30
0.0
 10
10.1438646555
 20
9.8030104434
 30
0.0
 10
10.1455214511
 20
9.8083147181
 30
0.0
 10
10.1469021513
 20
9.8127349332
 30
0.0
 10
10.1480066329
 20
9.8162711339
 30
0.0
 10
10.1486971117
 20
9.8184811946
 30
0.0
 10
10.1492490878
 20
9.8202493914
 30
0.0
 10
10.1496641838
 20
9.821575133
 30
0.0
 10
10.1500065538
 20
9.8226812093
 30
0.0
 10
10.1502531664
 20
9.823452928
 30
0.0
 10
10.1503832304
 20
9.8238978678
 30
0.0
 10
10.1505113642
 20
9.8242204236
 30
0.0
 10
10.1505225834
 20
9.8245855972
 30
0.0
 10
10.1505783233
 20
9.8250576297
 30
0.0
 10
10.1506568676
 20
9.8258906128
 30
0.0
 10
10.1507790075
 20
9.8270769676
 30
0.0
 10
10.1509213235
 20
9.8285021433
 30
0.0
 10
10.1511125631
 20
9.8304018362
 30
0.0
 10
10.1513511042
 20
9.8327766377
 30
0.0
 10
10.1517330542
 20
9.8365762165
 30
0.0
 10
10.1522103936
 20
9.8413257255
 30
0.0
 10
10.1527832458
 20
9.8470251211
 30
0.0
 10
10.1533560751
 20
9.8527245206
 30
0.0
 10
10.1538334716
 20
9.8574740199
 30
0.0
 10
10.1542153072
 20
9.861273618
 30
0.0
 10
10.154454139
 20
9.8636483703
 30
0.0
 10
10.154644782
 20
9.8655481642
 30
0.0
 10
10.154788921
 20
9.8669730315
 30
0.0
 10
10.1549053568
 20
9.8681603512
 30
0.0
 10
10.154994084
 20
9.8689916117
 30
0.0
 10
10.1550335084
 20
9.8694664043
 30
0.0
 10
10.1550948436
 20
9.8698231
 30
0.0
 10
10.1550347496
 20
9.870177497
 30
0.0
 10
10.1549969802
 20
9.8706508282
 30
0.0
 10
10.1549111492
 20
9.8714787842
 30
0.0
 10
10.154798851
 20
9.8726617738
 30
0.0
 10
10.1546596769
 20
9.8740812776
 30
0.0
 10
10.1544756539
 20
9.8759739787
 30
0.0
 10
10.154245097
 20
9.8783398449
 30
0.0
 10
10.1538765013
 20
9.8821252366
 30
0.0
 10
10.1534156547
 20
9.8868569742
 30
0.0
 10
10.1528626853
 20
9.8925350605
 30
0.0
 10
10.152309693
 20
9.8982131451
 30
0.0
 10
10.1518489036
 20
9.9029448868
 30
0.0
 10
10.1514801934
 20
9.9067302701
 30
0.0
 10
10.1512499274
 20
9.9090961576
 30
0.0
 10
10.1510653074
 20
9.9109888152
 30
0.0
 10
10.1509279573
 20
9.9124084518
 30
0.0
 10
10.1508099524
 20
9.913591026
 30
0.0
 10
10.1507343087
 20
9.9144197234
 30
0.0
 10
10.1506802168
 20
9.9148918667
 30
0.0
 10
10.1506702601
 20
9.9152499125
 30
0.0
 10
10.1505432879
 20
9.9155929038
 30
0.0
 10
10.1504148081
 20
9.9160554767
 30
0.0
 10
10.1501709513
 20
9.9168625326
 30
0.0
 10
10.1498325267
 20
9.9180167487
 30
0.0
 10
10.1494221616
 20
9.9194012605
 30
0.0
 10
10.1488764945
 20
9.9212474676
 30
0.0
 10
10.1481939018
 20
9.9235551609
 30
0.0
 10
10.1471020378
 20
9.9272475068
 30
0.0
 10
10.1457371097
 20
9.9318629264
 30
0.0
 10
10.1440992407
 20
9.9374014363
 30
0.0
 10
10.1424613499
 20
9.9429399412
 30
0.0
 10
10.1410964763
 20
9.9475553735
 30
0.0
 10
10.1400045033
 20
9.951247694
 30
0.0
 10
10.1393221878
 20
9.9535554518
 30
0.0
 10
10.1387759516
 20
9.9554015265
 30
0.0
 10
10.1383673252
 20
9.9567864427
 30
0.0
 10
10.1380234607
 20
9.9579393937
 30
0.0
 10
10.137789315
 20
9.9587487081
 30
0.0
 10
10.1376452755
 20
9.9592076623
 30
0.0
 10
10.1375660977
 20
9.959561769
 30
0.0
 10
10.1373766334
 20
9.9598780672
 30
0.0
 10
10.1371624835
 20
9.9603129862
 30
0.0
 10
10.1367697978
 20
9.9610679498
 30
0.0
 10
10.1362181887
 20
9.9621496818
 30
0.0
 10
10.1355522469
 20
9.9634463851
 30
0.0
 10
10.1346657254
 20
9.9651758032
 30
0.0
 10
10.1335570938
 20
9.9673374113
 30
0.0
 10
10.1317835515
 20
9.9707960762
 30
0.0
 10
10.1295665309
 20
9.9751193756
 30
0.0
 10
10.1269061486
 20
9.9803073496
 30
0.0
 10
10.1242457454
 20
9.9854953152
 30
0.0
 10
10.122028777
 20
9.9898186358
 30
0.0
 10
10.1202551304
 20
9.9932772582
 30
0.0
 10
10.119146764
 20
9.9954389744
 30
0.0
 10
10.1182596983
 20
9.9971681705
 30
0.0
 10
10.1175954191
 20
9.998465552
 30
0.0
 10
10.117038608
 20
9.9995451623
 30
0.0
 10
10.1166552086
 20
10.0003039135
 30
0.0
 10
10.1164261796
 20
10.0007327639
 30
0.0
 10
10.1162824192
 20
10.0010677028
 30
0.0
 10
10.1160315854
 20
10.0013517982
 30
0.0
 10
10.1157344887
 20
10.0017483268
 30
0.0
 10
10.1151971683
 20
10.002433989
 30
0.0
 10
10.1144386652
 20
10.0034178263
 30
0.0
 10
10.1135245675
 20
10.0045965821
 30
0.0
 10
10.1123071306
 20
10.0061689022
 30
0.0
 10
10.1107848688
 20
10.0081340813
 30
0.0
 10
10.1083495103
 20
10.0112784914
 30
0.0
 10
10.1053052223
 20
10.0152089611
 30
0.0
 10
10.1016521172
 20
10.0199255453
 30
0.0
 10
10.0979989942
 20
10.0246421162
 30
0.0
 10
10.0949547508
 20
10.0285726193
 30
0.0
 10
10.0925193033
 20
10.0317169628
 30
0.0
 10
10.0909972676
 20
10.0336823112
 30
0.0
 10
10.0897793666
 20
10.0352542837
 30
0.0
 10
10.0888666867
 20
10.0364341016
 30
0.0
 10
10.0881037476
 20
10.0374146157
 30
0.0
 10
10.0875743462
 20
10.0381062104
 30
0.0
 10
10.0872645612
 20
10.0384932337
 30
0.0
 10
10.087052702
 20
10.0388065265
 30
0.0
 10
10.0867625595
 20
10.0390318047
 30
0.0
 10
10.0864030089
 20
10.0393628761
 30
0.0
 10
10.085761073
 20
10.0399279472
 30
0.0
 10
10.084850673
 20
10.0407426698
 30
0.0
 10
10.0837553461
 20
10.041717136
 30
0.0
 10
10.0822959046
 20
10.0430175424
 30
0.0
 10
10.0804712622
 20
10.0446426675
 30
0.0
 10
10.0775520248
 20
10.0472430816
 30
0.0
 10
10.0739029123
 20
10.0504935254
 30
0.0
 10
10.0695240071
 20
10.0543940919
 30
0.0
 10
10.065145088
 20
10.0582946408
 30
0.0
 10
10.0614960102
 20
10.0615451284
 30
0.0
 10
10.0585767033
 20
10.064145455
 30
0.0
 10
10.0567522374
 20
10.0657708027
 30
0.0
 10
10.0552924338
 20
10.067070752
 30
0.0
 10
10.0541982132
 20
10.0680466145
 30
0.0
 10
10.0532843517
 20
10.0688569686
 30
0.0
 10
10.0526485954
 20
10.0694298383
 30
0.0
 10
10.0522791435
 20
10.0697484143
 30
0.0
 10
10.0520194146
 20
10.0700120745
 30
0.0
 10
10.0516933268
 20
10.0701812109
 30
0.0
 10
10.0512816898
 20
10.0704396971
 30
0.0
 10
10.0505505405
 20
10.0708766861
 30
0.0
 10
10.0495116798
 20
10.0715089874
 30
0.0
 10
10.0482626337
 20
10.0722643113
 30
0.0
 10
10.0465980817
 20
10.0732726106
 30
0.0
 10
10.0445171031
 20
10.0745325735
 30
0.0
 10
10.0411876988
 20
10.0765487441
 30
0.0
 10
10.0370258877
 20
10.0790688779
 30
0.0
 10
10.0320317393
 20
10.082093075
 30
0.0
 10
10.0270375802
 20
10.0851172528
 30
0.0
 10
10.0228757961
 20
10.087637435
 30
0.0
 10
10.0195463378
 20
10.0896535088
 30
0.0
 10
10.0174654961
 20
10.0909137176
 30
0.0
 10
10.0158006633
 20
10.0919215124
 30
0.0
 10
10.0145524753
 20
10.0926783774
 30
0.0
 10
10.0135109294
 20
10.093305857
 30
0.0
 10
10.0127845738
 20
10.0937514536
 30
0.0
 10
10.0123652562
 20
10.0939961483
 30
0.0
 10
10.0120627606
 20
10.0942076478
 30
0.0
 10
10.0117144234
 20
10.0943121992
 30
0.0
 10
10.0112659639
 20
10.0944889058
 30
0.0
 10
10.0104737097
 20
10.0947807615
 30
0.0
 10
10.009345813
 20
10.095206785
 30
0.0
 10
10.0079906698
 20
10.0957141238
 30
0.0
 10
10.0061843945
 20
10.096391934
 30
0.0
 10
10.0039263509
 20
10.0972387316
 30
0.0
 10
10.0003135927
 20
10.0985938679
 30
0.0
 10
9.9957976065
 20
10.1002876983
 30
0.0
 10
9.9903784403
 20
10.1023203361
 30
0.0
 10
9.9849592664
 20
10.1043529527
 30
0.0
 10
9.9804432995
 20
10.1060468363
 30
0.0
 10
9.9768305027
 20
10.1074018662
 30
0.0
 10
9.9745725572
 20
10.108248934
 30
0.0
 10
9.9727660807
 20
10.1089261897
 30
0.0
 10
9.9714115521
 20
10.1094352226
 30
0.0
 10
9.9702817323
 20
10.1098559458
 30
0.0
 10
9.9694929111
 20
10.1101572634
 30
0.0
 10
9.9690389512
 20
10.1103188096
 30
0.0
 10
9.9687075094
 20
10.110469929
 30
0.0
 10
9.9683415575
 20
10.110506527
 30
0.0
 10
9.9678656592
 20
10.1105952706
 30
0.0
 10
9.9670272287
 20
10.1107319603
 30
0.0
 10
9.9658324029
 20
10.1109369616
 30
0.0
 10
9.9643973569
 20
10.1111787983
 30
0.0
 10
9.9624844007
 20
10.111502702
 30
0.0
 10
9.9600930553
 20
10.1119070834
 30
0.0
 10
9.9562669865
 20
10.1125543721
 30
0.0
 10
9.9514843717
 20
10.1133633875
 30
0.0
 10
9.9457452463
 20
10.1143342469
 30
0.0
 10
9.9400061177
 20
10.1153050954
 30
0.0
 10
9.9323539472
 20
10.1165995638
 30
0.0
 10
9.9266148192
 20
10.1175704143
 30
0.0
 10
9.9227887339
 20
10.1182176481
 30
0.0
  0
SPLINE
  5
39B
100
AcDbEntity
  8
0
100
AcDbSpline
 62
4
  6
CONTINUOUS
 70
0
 71
3
 72
313
 73
309
 74
0
 42
0.0000001
 43
0.0000001
 44
0.0000000001
 40
0.0
 40
0.0
 40
0.0
 40
0.0
 40
0.015625
 40
0.0234375
 40
0.03125
 40
0.0390625
 40
0.046875
 40
0.05078125
 40
0.0546875
 40
0.056640625
 40
0.05859375
 40
0.060546875
 40
0.0615234375
 40
0.0620117188
 40
0.0625
 40
0.0629882812
 40
0.0634765625
 40
0.064453125
 40
0.06640625
 40
0.068359375
 40
0.0703125
 40
0.07421875
 40
0.078125
 40
0.0859375
 40
0.09375
 40
0.1015625
 40
0.109375
 40
0.11328125
 40
0.1171875
 40
0.119140625
 40
0.12109375
 40
0.123046875
 40
0.1240234375
 40
0.1245117188
 40
0.125
 40
0.1254882812
 40
0.1259765625
 40
0.126953125
 40
0.12890625
 40
0.130859375
 40
0.1328125
 40
0.13671875
 40
0.140625
 40
0.1484375
 40
0.15625
 40
0.1640625
 40
0.171875
 40
0.17578125
 40
0.1796875
 40
0.181640625
 40
0.18359375
 40
0.185546875
 40
0.1865234375
 40
0.1870117188
 40
0.1875
 40
0.1879882812
 40
0.1884765625
 40
0.189453125
 40
0.19140625
 40
0.193359375
 40
0.1953125
 40
0.19921875
 40
0.203125
 40
0.2109375
 40
0.21875
 40
0.2265625
 40
0.234375
 40
0.23828125
 40
0.2421875
 40
0.244140625
 40
0.24609375
 40
0.248046875
 40
0.2490234375
 40
0.2495117188
 40
0.25
 40
0.2504882812
 40
0.2509765625
 40
0.251953125
 40
0.25390625
 40
0.255859375
 40
0.2578125
 40
0.26171875
 40
0.265625
 40
0.2734375
 40
0.28125
 40
0.2890625
 40
0.296875
 40
0.30078125
 40
0.3046875
 40
0.306640625
 40
0.30859375
 40
0.310546875
 40
0.3115234375
 40
0.3120117188
 40
0.3125
 40
0.3129882812
 40
0.3134765625
 40
0.314453125
 40
0.31640625
 40
0.318359375
 40
0.3203125
 40
0.32421875
 40
0.328125
 40
0.3359375
 40
0.34375
 40
0.3515625
 40
0.359375
 40
0.36328125
 40
0.3671875
 40
0.369140625
 40
0.37109375
 40
0.373046875
 40
0.3740234375
 40
0.3745117188
 40
0.375
 40
0.3754882812
 40
0.3759765625
 40
0.376953125
 40
0.37890625
 40
0.380859375
 40
0.3828125
 40
0.38671875
 40
0.390625
 40
0.3984375
 40
0.40625
 40
0.4140625
 40
0.421875
 40
0.42578125
 40
0.4296875
 40
0.431640625
 40
0.43359375
 40
0.435546875
 40
0.4365234375
 40
0.4370117188
 40
0.4375
 40
0.4379882812
 40
0.4384765625
 40
0.439453125
 40
0.44140625
 40
0.443359375
 40
0.4453125
 40
0.44921875
 40
0.453125
 40
0.4609375
 40
0.46875
 40
0.4765625
 40
0.484375
 40
0.48828125
 40
0.4921875
 40
0.494140625
 40
0.49609375
 40
0.498046875
 40
0.4990234375
 40
0.4995117188
 40
0.5
 40
0.5004882812
 40
0.5009765625
 40
0.501953125
 40
0.50390625
 40
0.505859375
 40
0.5078125
 40
0.51171875
 40
0.515625
 40
0.5234375
 40
0.53125
 40
0.5390625
 40
0.546875
 40
0.55078125
 40
0.5546875
 40
0.556640625
 40
0.55859375
 40
0.560546875
 40
0.5615234375
 40
0.5620117188
 40
0.5625
 40
0.5629882812
 40
0.5634765625
 40
0.564453125
 40
0.56640625
 40
0.568359375
 40
0.5703125
 40
0.57421875
 40
0.578125
 40
0.5859375
 40
0.59375
 40
0.6015625
 40
0.609375
 40
0.61328125
 40
0.6171875
 40
0.619140625
 40
0.62109375
 40
0.623046875
 40
0.6240234375
 40
0.6245117188
 40
0.625
 40
0.6254882812
 40
0.6259765625
 40
0.626953125
 40
0.62890625
 40
0.630859375
 40
0.6328125
 40
0.63671875
 40
0.640625
 40
0.6484375
 40
0.65625
 40
0.6640625
 40
0.671875
 40
0.67578125
 40
0.6796875
 40
0.681640625
 40
0.68359375
 40
0.685546875
 40
0.6865234375
 40
0.6870117188
 40
0.6875
 40
0.6879882812
 40
0.6884765625
 40
0.689453125
 40
0.69140625
 40
0.693359375
 40
0.6953125
 40
0.69921875
 40
0.703125
 40
0.7109375
 40
0.71875
 40
0.7265625
 40
0.734375
 40
0.73828125
 40
0.7421875
 40
0.744140625
 40
0.74609375
 40
0.748046875
 40
0.7490234375
 40
0.7495117188
 40
0.75
 40
0.7504882812
 40
0.7509765625
 40
0.751953125
 40
0.75390625
 40
0.755859375
 40
0.7578125
 40
0.76171875
 40
0.765625
 40
0.7734375
 40
0.78125
 40
0.7890625
 40
0.796875
 40
0.80078125
 40
0.8046875
 40
0.806640625
 40
0.80859375
 40
0.810546875
 40
0.8115234375
 40
0.8120117188
 40
0.8125
 40
0.8129882812
 40
0.8134765625
 40
0.814453125
 40
0.81640625
 40
0.818359375
 40
0.8203125
 40
0.82421875
 40
0.828125
 40
0.8359375
 40
0.84375
 40
0.8515625
 40
0.859375
 40
0.86328125
 40
0.8671875
 40
0.869140625
 40
0.87109375
 40
0.873046875
 40
0.8740234375
 40
0.8745117188
 40
0.875
 40
0.8754882812
 40
0.8759765625
 40
0.876953125
 40
0.87890625
 40
0.880859375
 40
0.8828125
 40
0.88671875
 40
0.890625
 40
0.8984375
 40
0.90625
 40
0.9140625
 40
0.921875
 40
0.92578125
 40
0.9296875
 40
0.931640625
 40
0.93359375
 40
0.935546875
 40
0.9365234375
 40
0.9370117188
 40
0.9375
 40
0.9379882812
 40
0.9384765625
 40
0.939453125
 40
0.94140625
 40
0.943359375
 40
0.9453125
 40
0.94921875
 40
0.953125
 40
0.9609375
 40
0.96875
 40
0.9765625
 40
0.984375
 40
1.0
 40
1.0
 40
1.0
 40
1.0
 10
9.9227887542
 20
10.1182176467
 30
0.0
 10
9.9190289299
 20
10.1181097374
 30
0.0
 10
9.9133891933
 20
10.1179478738
 30
0.0
 10
9.9058695449
 20
10.1177320544
 30
0.0
 10
9.900229808
 20
10.1175701928
 30
0.0
 10
9.8945900733
 20
10.1174083199
 30
0.0
 10
9.8898902875
 20
10.1172734612
 30
0.0
 10
9.8861304743
 20
10.117165495
 30
0.0
 10
9.8837805558
 20
10.1170981964
 30
0.0
 10
9.8819007017
 20
10.1170439448
 30
0.0
 10
9.8804905903
 20
10.1170043861
 30
0.0
 10
9.8793161997
 20
10.1169678256
 30
0.0
 10
9.8784927483
 20
10.1169492884
 30
0.0
 10
9.8780243563
 20
10.1169276796
 30
0.0
 10
9.8776670009
 20
10.1169425055
 30
0.0
 10
9.8773328152
 20
10.1168387093
 30
0.0
 10
9.8768791525
 20
10.116741691
 30
0.0
 10
9.8760890081
 20
10.1165526309
 30
0.0
 10
9.8749582618
 20
10.1162926239
 30
0.0
 10
9.8736022088
 20
10.1159763014
 30
0.0
 10
9.871793844
 20
10.1155560448
 30
0.0
 10
9.8695334886
 20
10.1150302082
 30
0.0
 10
9.8659168637
 20
10.1141891581
 30
0.0
 10
9.8613961022
 20
10.1131377458
 30
0.0
 10
9.8559711789
 20
10.1118760965
 30
0.0
 10
9.8505462621
 20
10.110614425
 30
0.0
 10
9.8460254841
 20
10.1095630684
 30
0.0
 10
9.8424088922
 20
10.1087219069
 30
0.0
 10
9.8401484531
 20
10.1081963533
 30
0.0
 10
9.8383402601
 20
10.1077755158
 30
0.0
 10
9.8369836822
 20
10.1074609684
 30
0.0
 10
9.8358545783
 20
10.1071954075
 30
0.0
 10
9.8350615019
 20
10.1070162619
 30
0.0
 10
9.8346125369
 20
10.1069033582
 30
0.0
 10
9.8342639213
 20
10.106848357
 30
0.0
 10
9.8339607624
 20
10.1066799168
 30
0.0
 10
9.8335406948
 20
10.1064948987
 30
0.0
 10
9.832812964
 20
10.1061526813
 30
0.0
 10
9.8317694862
 20
10.1056734376
 30
0.0
 10
9.8305189661
 20
10.1050942196
 30
0.0
 10
9.8288510285
 20
10.10432337
 30
0.0
 10
9.8267663043
 20
10.1033593146
 30
0.0
 10
9.8234306349
 20
10.1018171017
 30
0.0
 10
9.8192610865
 20
10.0998892403
 30
0.0
 10
9.8142576106
 20
10.0975758502
 30
0.0
 10
9.8092541446
 20
10.0952624385
 30
0.0
 10
9.8050845713
 20
10.0933346311
 30
0.0
 10
9.8017489517
 20
10.0917923104
 30
0.0
 10
9.7996641009
 20
10.0908285289
 30
0.0
 10
9.797996423
 20
10.0900571171
 30
0.0
 10
9.7967451095
 20
10.0894796168
 30
0.0
 10
9.7957041142
 20
10.088994999
 30
0.0
 10
9.7949719518
 20
10.0886623752
 30
0.0
 10
9.7945589846
 20
10.0884619856
 30
0.0
 10
9.7942340155
 20
10.0883407618
 30
0.0
 10
9.7939673155
 20
10.0881084237
 30
0.0
 10
9.7935913906
 20
10.0878373976
 30
0.0
 10
9.7929429918
 20
10.0873450437
 30
0.0
 10
9.7920117568
 20
10.086651122
 30
0.0
 10
9.7908963939
 20
10.085814375
 30
0.0
 10
9.7894085033
 20
10.0847001237
 30
0.0
 10
9.7875488935
 20
10.0833068262
 30
0.0
 10
9.784573376
 20
10.0810778205
 30
0.0
 10
9.7808540284
 20
10.0782914702
 30
0.0
 10
9.7763907879
 20
10.0749478919
 30
0.0
 10
9.7719275619
 20
10.0716042947
 30
0.0
 10
9.7682081779
 20
10.0688179914
 30
0.0
 10
9.7652327332
 20
10.0665888917
 30
0.0
 10
9.7633729383
 20
10.0651958332
 30
0.0
 10
9.7618854276
 20
10.0640810915
 30
0.0
 10
9.7607689042
 20
10.0632458427
 30
0.0
 10
9.7598413001
 20
10.0625472332
 30
0.0
 10
9.7591864196
 20
10.0620632479
 30
0.0
 10
9.75882088
 20
10.0617788131
 30
0.0
 10
9.7585222796
 20
10.0615876619
 30
0.0
 10
9.7583171229
 20
10.0613117471
 30
0.0
 10
9.7580109864
 20
10.0609734272
 30
0.0
 10
9.7574904337
 20
10.0603675917
 30
0.0
 10
9.7567388475
 20
10.0595093144
 30
0.0
 10
9.7558403425
 20
10.058476299
 30
0.0
 10
9.7546411487
 20
10.0571000219
 30
0.0
 10
9.753142563
 20
10.0553793068
 30
0.0
 10
9.7507445987
 20
10.0526263688
 30
0.0
 10
9.7477472217
 20
10.0491851251
 30
0.0
 10
9.7441503334
 20
10.0450556649
 30
0.0
 10
9.7405534635
 20
10.0409261896
 30
0.0
 10
9.7375560403
 20
10.0374849838
 30
0.0
 10
9.7351581684
 20
10.0347319699
 30
0.0
 10
9.7336593477
 20
10.0330114476
 30
0.0
 10
9.7324606362
 20
10.0316347748
 30
0.0
 10
9.7315606581
 20
10.030602968
 30
0.0
 10
9.7308136806
 20
10.0297409095
 30
0.0
 10
9.7302849007
 20
10.0291418242
 30
0.0
 10
9.7299919463
 20
10.0287926888
 30
0.0
 10
9.7297462983
 20
10.0285499956
 30
0.0
 10
9.7295997762
 20
10.0282340692
 30
0.0
 10
9.7293698372
 20
10.0278383785
 30
0.0
 10
9.7289835535
 20
10.0271340181
 30
0.0
 10
9.7284232975
 20
10.0261340113
 30
0.0
 10
9.7277545952
 20
10.0249313398
 30
0.0
 10
9.726861733
 20
10.023328708
 30
0.0
 10
9.7257460864
 20
10.0213250998
 30
0.0
 10
9.7239608108
 20
10.0181195047
 30
0.0
 10
9.7217292996
 20
10.0141124495
 30
0.0
 10
9.7190514478
 20
10.0093040108
 30
0.0
 10
9.7163736161
 20
10.0044955599
 30
0.0
 10
9.7141420547
 20
10.0004885351
 30
0.0
 10
9.7123568795
 20
9.9972828792
 30
0.0
 10
9.7112409777
 20
9.9952794255
 30
0.0
 10
9.7103486394
 20
9.9936764765
 30
0.0
 10
9.7096783365
 20
9.9924747743
 30
0.0
 10
9.7091230883
 20
9.9914717349
 30
0.0
 10
9.7087278647
 20
9.9907727881
 30
0.0
 10
9.7085122498
 20
9.9903684235
 30
0.0
 10
9.7083217284
 20
9.9900791406
 30
0.0
 10
9.7082413343
 20
9.9897363788
 30
0.0
 10
9.7080957284
 20
9.9892980171
 30
0.0
 10
9.7078588158
 20
9.9885221928
 30
0.0
 10
9.7075110121
 20
9.9874184164
 30
0.0
 10
9.7070976529
 20
9.9860919397
 30
0.0
 10
9.7065451082
 20
9.9843239835
 30
0.0
 10
9.7058549065
 20
9.9821138056
 30
0.0
 10
9.7047503159
 20
9.978577651
 30
0.0
 10
9.7033696701
 20
9.9741574129
 30
0.0
 10
9.7017128528
 20
9.9688531474
 30
0.0
 10
9.7000560572
 20
9.9635488727
 30
0.0
 10
9.698675357
 20
9.9591286576
 30
0.0
 10
9.6975708754
 20
9.9555924569
 30
0.0
 10
9.6968803967
 20
9.9533823963
 30
0.0
 10
9.6963284205
 20
9.9516141994
 30
0.0
 10
9.6959133245
 20
9.9502884578
 30
0.0
 10
9.6955709545
 20
9.9491823815
 30
0.0
 10
9.6953243419
 20
9.9484106629
 30
0.0
 10
9.6951942779
 20
9.947965723
 30
0.0
 10
9.6950661441
 20
9.9476431673
 30
0.0
 10
9.695054925
 20
9.9472779937
 30
0.0
 10
9.694999185
 20
9.9468059611
 30
0.0
 10
9.6949206407
 20
9.945972978
 30
0.0
 10
9.6947985008
 20
9.9447866232
 30
0.0
 10
9.6946561849
 20
9.9433614475
 30
0.0
 10
9.6944649452
 20
9.9414617546
 30
0.0
 10
9.6942264041
 20
9.9390869531
 30
0.0
 10
9.6938444541
 20
9.9352873744
 30
0.0
 10
9.6933671148
 20
9.9305378654
 30
0.0
 10
9.6927942626
 20
9.9248384697
 30
0.0
 10
9.6922214333
 20
9.9191390703
 30
0.0
 10
9.6917440367
 20
9.9143895709
 30
0.0
 10
9.6913622011
 20
9.9105899728
 30
0.0
 10
9.6911233693
 20
9.9082152205
 30
0.0
 10
9.6909327263
 20
9.9063154267
 30
0.0
 10
9.6907885873
 20
9.9048905594
 30
0.0
 10
9.6906721515
 20
9.9037032396
 30
0.0
 10
9.6905834244
 20
9.9028719791
 30
0.0
 10
9.6905439999
 20
9.9023971866
 30
0.0
 10
9.6904826647
 20
9.9020404908
 30
0.0
 10
9.6905427587
 20
9.9016860938
 30
0.0
 10
9.6905805281
 20
9.9012127626
 30
0.0
 10
9.6906663591
 20
9.9003848066
 30
0.0
 10
9.6907786574
 20
9.8992018171
 30
0.0
 10
9.6909178314
 20
9.8977823132
 30
0.0
 10
9.6911018544
 20
9.8958896122
 30
0.0
 10
9.6913324113
 20
9.8935237459
 30
0.0
 10
9.691701007
 20
9.8897383542
 30
0.0
 10
9.6921618536
 20
9.8850066167
 30
0.0
 10
9.692714823
 20
9.8793285304
 30
0.0
 10
9.6932678154
 20
9.8736504457
 30
0.0
 10
9.6937286048
 20
9.868918704
 30
0.0
 10
9.6940973149
 20
9.8651333207
 30
0.0
 10
9.6943275809
 20
9.8627674332
 30
0.0
 10
9.6945122009
 20
9.8608747757
 30
0.0
 10
9.6946495511
 20
9.8594551391
 30
0.0
 10
9.6947675559
 20
9.8582725648
 30
0.0
 10
9.6948431997
 20
9.8574438674
 30
0.0
 10
9.6948972916
 20
9.8569717242
 30
0.0
 10
9.6949072483
 20
9.8566136783
 30
0.0
 10
9.6950342204
 20
9.856270687
 30
0.0
 10
9.6951627002
 20
9.8558081142
 30
0.0
 10
9.6954065571
 20
9.8550010583
 30
0.0
 10
9.6957449816
 20
9.8538468421
 30
0.0
 10
9.6961553467
 20
9.8524623303
 30
0.0
 10
9.6967010138
 20
9.8506161233
 30
0.0
 10
9.6973836066
 20
9.84830843
 30
0.0
 10
9.6984754705
 20
9.844616084
 30
0.0
 10
9.6998403986
 20
9.8400006644
 30
0.0
 10
9.7014782676
 20
9.8344621545
 30
0.0
 10
9.7031161585
 20
9.8289236496
 30
0.0
 10
9.7044810321
 20
9.8243082173
 30
0.0
 10
9.7055730051
 20
9.8206158968
 30
0.0
 10
9.7062553206
 20
9.818308139
 30
0.0
 10
9.7068015567
 20
9.8164620643
 30
0.0
 10
9.7072101832
 20
9.8150771481
 30
0.0
 10
9.7075540476
 20
9.8139241971
 30
0.0
 10
9.7077881933
 20
9.8131148827
 30
0.0
 10
9.7079322328
 20
9.8126559285
 30
0.0
 10
9.7080114106
 20
9.8123018219
 30
0.0
 10
9.7082008749
 20
9.8119855236
 30
0.0
 10
9.7084150248
 20
9.8115506047
 30
0.0
 10
9.7088077106
 20
9.810795641
 30
0.0
 10
9.7093593197
 20
9.809713909
 30
0.0
 10
9.7100252615
 20
9.8084172057
 30
0.0
 10
9.710911783
 20
9.8066877876
 30
0.0
 10
9.7120204145
 20
9.8045261795
 30
0.0
 10
9.7137939569
 20
9.8010675146
 30
0.0
 10
9.7160109774
 20
9.7967442153
 30
0.0
 10
9.7186713597
 20
9.7915562412
 30
0.0
 10
9.721331763
 20
9.7863682757
 30
0.0
 10
9.7235487313
 20
9.782044955
 30
0.0
 10
9.7253223779
 20
9.7785863327
 30
0.0
 10
9.7264307444
 20
9.7764246164
 30
0.0
 10
9.7273178101
 20
9.7746954203
 30
0.0
 10
9.7279820893
 20
9.7733980389
 30
0.0
 10
9.7285389003
 20
9.7723184286
 30
0.0
 10
9.7289222997
 20
9.7715596774
 30
0.0
 10
9.7291513287
 20
9.7711308269
 30
0.0
 10
9.7292950892
 20
9.770795888
 30
0.0
 10
9.7295459229
 20
9.7705117926
 30
0.0
 10
9.7298430196
 20
9.770115264
 30
0.0
 10
9.7303803401
 20
9.7694296018
 30
0.0
 10
9.7311388431
 20
9.7684457645
 30
0.0
 10
9.7320529409
 20
9.7672670088
 30
0.0
 10
9.7332703777
 20
9.7656946886
 30
0.0
 10
9.7347926395
 20
9.7637295096
 30
0.0
 10
9.7372279981
 20
9.7605850994
 30
0.0
 10
9.740272286
 20
9.7566546297
 30
0.0
 10
9.7439253912
 20
9.7519380455
 30
0.0
 10
9.7475785141
 20
9.7472214746
 30
0.0
 10
9.7506227576
 20
9.7432909715
 30
0.0
 10
9.7530582051
 20
9.740146628
 30
0.0
 10
9.7545802408
 20
9.7381812796
 30
0.0
 10
9.7557981417
 20
9.7366093071
 30
0.0
 10
9.7567108216
 20
9.7354294892
 30
0.0
 10
9.7574737607
 20
9.7344489751
 30
0.0
 10
9.7580031621
 20
9.7337573805
 30
0.0
 10
9.7583129471
 20
9.7333703572
 30
0.0
 10
9.7585248063
 20
9.7330570643
 30
0.0
 10
9.7588149488
 20
9.7328317861
 30
0.0
 10
9.7591744994
 20
9.7325007147
 30
0.0
 10
9.7598164354
 20
9.7319356437
 30
0.0
 10
9.7607268353
 20
9.731120921
 30
0.0
 10
9.7618221622
 20
9.7301464548
 30
0.0
 10
9.7632816037
 20
9.7288460485
 30
0.0
 10
9.7651062461
 20
9.7272209234
 30
0.0
 10
9.7680254835
 20
9.7246205092
 30
0.0
 10
9.771674596
 20
9.7213700654
 30
0.0
 10
9.7760535012
 20
9.717469499
 30
0.0
 10
9.7804324204
 20
9.71356895
 30
0.0
 10
9.7840814981
 20
9.7103184624
 30
0.0
 10
9.787000805
 20
9.7077181359
 30
0.0
 10
9.7888252709
 20
9.7060927881
 30
0.0
 10
9.7902850745
 20
9.7047928388
 30
0.0
 10
9.7913792951
 20
9.7038169763
 30
0.0
 10
9.7922931566
 20
9.7030066223
 30
0.0
 10
9.792928913
 20
9.7024337525
 30
0.0
 10
9.7932983649
 20
9.7021151765
 30
0.0
 10
9.7935580937
 20
9.7018515163
 30
0.0
 10
9.7938841815
 20
9.7016823799
 30
0.0
 10
9.7942958185
 20
9.7014238938
 30
0.0
 10
9.7950269678
 20
9.7009869048
 30
0.0
 10
9.7960658285
 20
9.7003546035
 30
0.0
 10
9.7973148746
 20
9.6995992795
 30
0.0
 10
9.7989794266
 20
9.6985909803
 30
0.0
 10
9.8010604052
 20
9.6973310173
 30
0.0
 10
9.8043898095
 20
9.6953148467
 30
0.0
 10
9.8085516206
 20
9.692794713
 30
0.0
 10
9.813545769
 20
9.6897705158
 30
0.0
 10
9.8185399281
 20
9.686746338
 30
0.0
 10
9.8227017123
 20
9.6842261559
 30
0.0
 10
9.8260311705
 20
9.682210082
 30
0.0
 10
9.8281120122
 20
9.6809498733
 30
0.0
 10
9.8297768451
 20
9.6799420784
 30
0.0
 10
9.831025033
 20
9.6791852134
 30
0.0
 10
9.8320665789
 20
9.6785577338
 30
0.0
 10
9.8327929346
 20
9.6781121372
 30
0.0
 10
9.8332122521
 20
9.6778674426
 30
0.0
 10
9.8335147477
 20
9.6776559431
 30
0.0
 10
9.8338630849
 20
9.6775513916
 30
0.0
 10
9.8343115444
 20
9.677374685
 30
0.0
 10
9.8351037986
 20
9.6770828294
 30
0.0
 10
9.8362316953
 20
9.6766568058
 30
0.0
 10
9.8375868385
 20
9.676149467
 30
0.0
 10
9.8393931139
 20
9.6754716568
 30
0.0
 10
9.8416511574
 20
9.6746248592
 30
0.0
 10
9.8452639156
 20
9.6732697229
 30
0.0
 10
9.8497799019
 20
9.6715758925
 30
0.0
 10
9.855199068
 20
9.6695432547
 30
0.0
 10
9.8606182419
 20
9.6675106382
 30
0.0
 10
9.8651342088
 20
9.6658167546
 30
0.0
 10
9.8687470056
 20
9.6644617246
 30
0.0
 10
9.8710049511
 20
9.6636146568
 30
0.0
 10
9.8728114276
 20
9.6629374011
 30
0.0
 10
9.8741659563
 20
9.6624283683
 30
0.0
 10
9.875295776
 20
9.662007645
 30
0.0
 10
9.8760845973
 20
9.6617063274
 30
0.0
 10
9.8765385571
 20
9.6615447813
 30
0.0
 10
9.8768699989
 20
9.6613936618
 30
0.0
 10
9.8772359508
 20
9.6613570639
 30
0.0
 10
9.8777118491
 20
9.6612683202
 30
0.0
 10
9.8785502797
 20
9.6611316306
 30
0.0
 10
9.8797451054
 20
9.6609266292
 30
0.0
 10
9.8811801514
 20
9.6606847925
 30
0.0
 10
9.8830931076
 20
9.6603608889
 30
0.0
 10
9.8854844531
 20
9.6599565074
 30
0.0
 10
9.8893105218
 20
9.6593092187
 30
0.0
 10
9.8940931366
 20
9.6585002033
 30
0.0
 10
9.899832262
 20
9.6575293439
 30
0.0
 10
9.9055713907
 20
9.6565584955
 30
0.0
 10
9.9132235611
 20
9.655264027
 30
0.0
 10
9.9189626891
 20
9.6542931766
 30
0.0
 10
9.9227887745
 20
9.6536459427
 30
0.0
  0
ENDSEC
  0
SECTION
  2
OBJECTS
  0
DICTIONARY
  5
C
100
AcDbDictionary
280
0
281
1
  3
ACAD_GROUP
350
D
  3
ACAD_MLINESTYLE
350
17
  3
ACAD_LAYOUT
350
1A
  3
ACAD_PLOTSETTINGS
350
19
  3
ACAD_PLOTSTYLENAME
350
E
  3
ACAD_IMAGE_DICT
350
       39D
  3
ACAD_IMAGE_VARS
350
       39E
  3
ACAD_TABLESTYLE
350
       39F
  0
IMAGEDEF_REACTOR
  5
39C
100
AcDbRasterImageDefReactor
 90
2
330
293
  0
DICTIONARY
  5
D
102
{ACAD_REACTORS
330
C
102
}
100
AcDbDictionary
280
0
281
1
  0
ACDBDICTIONARYWDFLT
  5
E
102
{ACAD_REACTORS
330
C
102
}
100
AcDbDictionary
281
1
  3
Normal
350
F
100
AcDbDictionaryWithDefault
340
F
  0
DICTIONARY
  5
39D
330
C
100
AcDbDictionary
281
1
  3
K6Y_assy_2_img_1
350
       3A2
  0
RASTERVARIABLES
  5
39E
330
C
100
AcDbRasterVariables
 90
0
 70
0
 71
1
 72
5
  0
DICTIONARY
  5
17
102
{ACAD_REACTORS
330
C
102
}
100
AcDbDictionary
280
0
281
1
  3
Standard
350
18
  0
DICTIONARY
  5
39F
330
C
100
AcDbDictionary
281
1
  3
Standard
350
       3A3
  3
Standard1
350
       3A4
  0
DICTIONARY
  5
19
102
{ACAD_REACTORS
330
C
102
}
100
AcDbDictionary
281
1
  0
DICTIONARY
  5
1A
102
{ACAD_REACTORS
330
C
102
}
100
AcDbDictionary
281
1
  3
Model
350
3A0
  3
Layout1
350
3A1
  0
ACDBPLACEHOLDER
  5
F
102
{ACAD_REACTORS
330
E
102
}
  0
MLINESTYLE
  5
18
102
{ACAD_REACTORS
330
17
102
}
100
AcDbMlineStyle
  2
STANDARD
 70
0
  3

 62
256
 51
90.0
 52
90.0
 71
2
 49
0.5
 62
256
  6
BYLAYER
 49
-0.5
 62
256
  6
BYLAYER
  0
LAYOUT
  5
3A0
102
{ACAD_REACTORS
330
1A
102
}
100
AcDbPlotSettings
  1

  2
none_device
  4
ANSI_C_(22.00_x_17.00_Inches)
  6

 40
0.0
 41
0.0
 42
0.0
 43
0.0
 44
558.8
 45
431.8
 46
0.0
 47
0.0
 48
0.0
 49
0.0
140
0.0
141
0.0
142
1.0
143
1.0
 70
1024
 72
0
 73
0
 74
0
  7

 75
0
147
1.0
148
0.0
149
0.0
100
AcDbLayout
  1
Model
 70
0
 71
0
 10
0.0
 20
0.0
 11
22.0
 21
17.0
 12
0.0
 22
0.0
 32
0.0
 14
0.0
 24
0.0
 34
0.0
 15
0.0
 25
0.0
 35
0.0
146
0.0
 13
0.0
 23
0.0
 33
0.0
 16
1.0
 26
0.0
 36
0.0
 17
0.0
 27
1.0
 37
0.0
 76
0
330
20C
345
0
346
0
  0
LAYOUT
  5
3A1
102
{ACAD_REACTORS
330
1A
102
}
100
AcDbPlotSettings
  1

  2
none_device
  4
ANSI_C_(22.00_x_17.00_Inches)
  6

 40
0.0
 41
0.0
 42
0.0
 43
0.0
 44
558.8
 45
431.8
 46
0.0
 47
0.0
 48
0.0
 49
0.0
140
0.0
141
0.0
142
1.0
143
1.0
 70
0
 72
0
 73
0
 74
0
  7

 75
0
147
1.0
148
0.0
149
0.0
100
AcDbLayout
  1
Layout1
 70
0
 71
1
 10
0.0
 20
0.0
 11
22.0
 21
17.0
 12
0.0
 22
0.0
 32
0.0
 14
0.0
 24
0.0
 34
0.0
 15
0.0
 25
0.0
 35
0.0
146
0.0
 13
0.0
 23
0.0
 33
0.0
 16
1.0
 26
0.0
 36
0.0
 17
0.0
 27
1.0
 37
0.0
 76
0
330
20D
345
0
346
0
  0
IMAGEDEF
  5
3A2
102
{ACAD_REACTORS
330
39D
330
39C
102
}
100
AcDbRasterImageDef
 90
0
  1
K6Y_assy_2_img_1.png
 10
369.0
 20
92.0
 11
0.0066666667
 21
0.0066666667
280
1
281
0
  0
TABLESTYLE
  5
3A3
102
{ACAD_REACTORS
330
39F
330
296
330
297
102
}
330
39F
100
AcDbTableStyle
  3
Standard
 70
0
 71
0
 40
0.06
 41
0.06
280
1
281
1
  7
Standard
140
0.18
170
1
 62
0
 63
7
283
0
  7
Standard
140
0.18
170
1
 62
0
 63
7
283
0
  7
Standard
140
0.18
170
1
 62
0
 63
7
283
0
  0
TABLESTYLE
  5
3A4
102
{ACAD_REACTORS
330
39F
330
295
102
}
330
39F
100
AcDbTableStyle
  3
Standard1
 70
1
 71
0
 40
0.06
 41
0.06
280
1
281
1
  7
Standard
140
0.18
170
1
 62
0
 63
7
283
0
  7
Standard
140
0.18
170
1
 62
0
 63
7
283
0
  7
Standard
140
0.18
170
1
 62
0
 63
7
283
0
  0
ENDSEC
  0
EOF
