999
DXF file: K66_assy_2.dxf
999
Pro/ENGINEER 2014200 by Parametric Technology Corporation
  0
SECTION
  2
HEADER
  9
$ACADVER
  1
AC1021
  9
$DWGCODEPAGE
  3
ANSI_1252
  9
$EXTMAX
 10
22.0
 20
17.0
 30
0.0
  9
$EXTMIN
 10
0.0
 20
0.0
 30
0.0
  9
$LIMMIN
 10
0.0
 20
0.0
  9
$LIMMAX
 10
22.0
 20
17.0
  9
$VIEWCTR
 10
11.0
 20
8.5
  9
$VIEWSIZE
 40
17.0
  9
$CLAYER
  8
0
  9
$LTSCALE
 40
1.21
  9
$CELTYPE
  6
BYLAYER
  9
$DIMSCALE
 40
1.0
  9
$DIMASZ
 40
0.1875
  9
$DIMEXO
 40
0.0625
  9
$DIMDLI
 40
0.836
  9
$DIMEXE
 40
0.125
  9
$DIMCEN
 40
0.198
  9
$DIMLFAC
 40
1.0
  9
$DIMBLK
  1
_FILLED
  9
$DIMTXT
 40
0.1
  9
$DIMTOL
 70
0
  9
$DIMLIM
 70
0
  9
$DIMTFAC
 40
1.0
  9
$DIMGAP
 40
0.09
  9
$DIMDSEP
 70
46
  9
$AUNITS
 70
0
  9
$PDMODE
 70
3
  9
$PDSIZE
 40
0.3125
  9
$HANDSEED
  5
3BB
  9
$TILEMODE
 70
1
  9
$MEASUREMENT
 70
0
  9
$INSUNITS
 70
1
  0
ENDSEC
  0
SECTION
  2
CLASSES
  0
CLASS
  1
ACDBDICTIONARYWDFLT
  2
AcDbDictionaryWithDefault
  3
AutoCAD 2000
 90
0
 91
1
280
0
281
0
  0
CLASS
  1
ACDBPLACEHOLDER
  2
AcDbPlaceHolder
  3
AutoCAD 2000
 90
0
 91
1
280
0
281
0
  0
CLASS
  1
LAYOUT
  2
AcDbLayout
  3
AutoCAD 2000
 90
0
 91
0
280
0
281
0
  0
CLASS
  1
RASTERVARIABLES
  2
AcDbRasterVariables
  3
ISM
 90
0
 91
1
280
0
281
0
  0
CLASS
  1
IMAGEDEF
  2
AcDbRasterImageDef
  3
ISM
 90
0
 91
1
280
0
281
0
  0
CLASS
  1
IMAGEDEF_REACTOR
  2
AcDbRasterImageDefReactor
  3
ISM
 90
0
 91
1
280
0
281
0
  0
CLASS
  1
IMAGE
  2
AcDbRasterImage
  3
ISM
 90
127
 91
1
280
0
281
1
  0
CLASS
  1
TABLESTYLE
  2
AcDbTableStyle
  3
ObjectDBX Classes
 90
2047
 91
1
280
0
281
0
  0
CLASS
  1
ACAD_TABLE
  2
AcDbTable
  3
ObjectDBX Classes
 90
1025
 91
3
280
0
281
1
  0
ENDSEC
  0
SECTION
  2
TABLES
  0
TABLE
  2
VPORT
  5
8
100
AcDbSymbolTable
 70
2
  0
VPORT
  5
1F4
100
AcDbSymbolTableRecord
100
AcDbViewportTableRecord
  2
*ACTIVE
 70
0
 10
0.0
 20
0.0
 11
1.0
 21
1.0
 12
11.0
 22
8.5
 13
0.0
 23
0.0
 14
1.0
 24
1.0
 15
0.0
 25
0.0
 16
0.0
 26
0.0
 36
1.0
 17
0.0
 27
0.0
 37
0.0
 40
17.0
 41
1.2941176471
 42
50.0
 43
0.0
 44
0.0
 50
0.0
 51
0.0
 71
0
 72
100
 73
1
 74
1
 75
0
 76
0
 77
0
 78
0
  0
ENDTAB
  0
TABLE
  2
LTYPE
  5
5
100
AcDbSymbolTable
 70
6
  0
LTYPE
  5
14
100
AcDbSymbolTableRecord
100
AcDbLinetypeTableRecord
  2
BYBLOCK
 70
0
  3

 72
65
 73
0
 40
0.0
  0
LTYPE
  5
15
100
AcDbSymbolTableRecord
100
AcDbLinetypeTableRecord
  2
BYLAYER
 70
0
  3

 72
65
 73
0
 40
0.0
  0
LTYPE
  5
16
100
AcDbSymbolTableRecord
100
AcDbLinetypeTableRecord
  2
CONTINUOUS
 70
64
  3
Solid line
 72
65
 73
0
 40
0.0
  0
LTYPE
  5
1F5
100
AcDbSymbolTableRecord
100
AcDbLinetypeTableRecord
  2
CENTER
 70
64
  3
____ _ ____ _ ____ _ ____ _ ____ _ ____ _ ____
 72
65
 73
4
 40
0.6
 49
0.375
 74
0
 49
-0.075
 74
0
 49
0.075
 74
0
 49
-0.075
 74
0
  0
LTYPE
  5
1F6
100
AcDbSymbolTableRecord
100
AcDbLinetypeTableRecord
  2
HIDDEN
 70
64
  3
- - - - - - - - - - - - - - - - - - - -
 72
65
 73
2
 40
0.2
 49
0.1
 74
0
 49
-0.1
 74
0
  0
LTYPE
  5
1F7
100
AcDbSymbolTableRecord
100
AcDbLinetypeTableRecord
  2
PHANTOM
 70
64
  3
_____ _ _ _____ _ _ _____ _ _ _____
 72
65
 73
6
 40
0.8
 49
0.45
 74
0
 49
-0.05
 74
0
 49
0.1
 74
0
 49
-0.05
 74
0
 49
0.1
 74
0
 49
-0.05
 74
0
  0
LTYPE
  5
1F8
100
AcDbSymbolTableRecord
100
AcDbLinetypeTableRecord
  2
DOT
 70
64
  3
. . . . . . . . . . . . . . . . . . . .
 72
65
 73
2
 40
0.2
 49
0.1
 74
0
 49
-0.1
 74
0
  0
LTYPE
  5
1F9
100
AcDbSymbolTableRecord
100
AcDbLinetypeTableRecord
  2
DASHED
 70
64
  3
- - - - - - - - - - - - - - - - - - - -
 72
65
 73
2
 40
0.2
 49
0.1
 74
0
 49
-0.1
 74
0
  0
ENDTAB
  0
TABLE
  2
LAYER
  5
2
100
AcDbSymbolTable
 70
36
  0
LAYER
  5
10
100
AcDbSymbolTableRecord
100
AcDbLayerTableRecord
  2
0
 70
0
 62
7
  6
CONTINUOUS
370
-3
390
F
  0
LAYER
  5
1FA
100
AcDbSymbolTableRecord
100
AcDbLayerTableRecord
  2
DEFAULT_1
 70
0
 62
7
  6
CENTER
370
-3
390
F
  0
LAYER
  5
1FB
100
AcDbSymbolTableRecord
100
AcDbLayerTableRecord
  2
DEFAULT_2
 70
0
 62
8
  6
HIDDEN
370
-3
390
F
  0
LAYER
  5
1FC
100
AcDbSymbolTableRecord
100
AcDbLayerTableRecord
  2
DEFAULT_3
 70
0
 62
7
  6
PHANTOM
370
-3
390
F
  0
LAYER
  5
1FD
100
AcDbSymbolTableRecord
100
AcDbLayerTableRecord
  2
01___PRT_ALL_DTM_PLN
 70
0
 62
7
  6
CONTINUOUS
370
-3
390
F
  0
LAYER
  5
1FE
100
AcDbSymbolTableRecord
100
AcDbLayerTableRecord
  2
01___PRT_DEF_DTM_PLN
 70
0
 62
7
  6
CONTINUOUS
370
-3
390
F
  0
LAYER
  5
1FF
100
AcDbSymbolTableRecord
100
AcDbLayerTableRecord
  2
02___PRT_ALL_AXES
 70
0
 62
7
  6
CONTINUOUS
370
-3
390
F
  0
LAYER
  5
200
100
AcDbSymbolTableRecord
100
AcDbLayerTableRecord
  2
03___PRT_ALL_CURVES
 70
0
 62
7
  6
CONTINUOUS
370
-3
390
F
  0
LAYER
  5
201
100
AcDbSymbolTableRecord
100
AcDbLayerTableRecord
  2
04___PRT_ALL_DTM_PNT
 70
0
 62
7
  6
CONTINUOUS
370
-3
390
F
  0
LAYER
  5
202
100
AcDbSymbolTableRecord
100
AcDbLayerTableRecord
  2
05___PRT_ALL_DTM_CSYS
 70
0
 62
7
  6
CONTINUOUS
370
-3
390
F
  0
LAYER
  5
203
100
AcDbSymbolTableRecord
100
AcDbLayerTableRecord
  2
05___PRT_DEF_DTM_CSYS
 70
0
 62
7
  6
CONTINUOUS
370
-3
390
F
  0
LAYER
  5
204
100
AcDbSymbolTableRecord
100
AcDbLayerTableRecord
  2
06___PRT_ALL_SURFS
 70
0
 62
7
  6
CONTINUOUS
370
-3
390
F
  0
LAYER
  5
205
100
AcDbSymbolTableRecord
100
AcDbLayerTableRecord
  2
DATUM_PLANES
 70
0
 62
7
  6
CONTINUOUS
370
-3
390
F
  0
LAYER
  5
206
100
AcDbSymbolTableRecord
100
AcDbLayerTableRecord
  2
PORT_AREAS
 70
0
 62
7
  6
CONTINUOUS
370
-3
390
F
  0
LAYER
  5
207
100
AcDbSymbolTableRecord
100
AcDbLayerTableRecord
  2
SUNNBOMCOSMETIC
 70
0
 62
7
  6
CONTINUOUS
370
-3
390
F
  0
LAYER
  5
208
100
AcDbSymbolTableRecord
100
AcDbLayerTableRecord
  2
SUNNBOMSTAMPING
 70
0
 62
7
  6
CONTINUOUS
370
-3
390
F
  0
LAYER
  5
209
100
AcDbSymbolTableRecord
100
AcDbLayerTableRecord
  2
THREADS
 70
0
 62
7
  6
CONTINUOUS
370
-3
390
F
  0
ENDTAB
  0
TABLE
  2
STYLE
  5
3
100
AcDbSymbolTable
 70
1
  0
STYLE
  5
11
100
AcDbSymbolTableRecord
100
AcDbTextStyleTableRecord
  2
STANDARD
 70
0
 40
0.0
 41
0.8
 50
0.0
 71
0
 42
0.2
  3
txt
  4

  0
STYLE
  5
20A
100
AcDbSymbolTableRecord
100
AcDbTextStyleTableRecord
  2
TEXTSTYLE_1
 70
0
 40
0.0
 41
0.8
 50
0.0
 71
0
 42
0.2
  3
gdt
  4

  0
ENDTAB
  0
TABLE
  2
VIEW
  5
6
100
AcDbSymbolTable
 70
0
  0
ENDTAB
  0
TABLE
  2
UCS
  5
7
100
AcDbSymbolTable
 70
0
  0
ENDTAB
  0
TABLE
  2
APPID
  5
9
100
AcDbSymbolTable
 70
1
  0
APPID
  5
20B
100
AcDbSymbolTableRecord
100
AcDbRegAppTableRecord
  2
ACAD
 70
0
  0
ENDTAB
  0
TABLE
  2
BLOCK_RECORD
  5
1
100
AcDbSymbolTable
 70
0
  0
BLOCK_RECORD
  5
20C
100
AcDbSymbolTableRecord
100
AcDbBlockTableRecord
  2
*Model_Space
  0
BLOCK_RECORD
  5
20D
100
AcDbSymbolTableRecord
100
AcDbBlockTableRecord
  2
*Paper_Space
  0
BLOCK_RECORD
  5
20E
100
AcDbSymbolTableRecord
100
AcDbBlockTableRecord
  2
SUN_FIRST_THIRD_ANGLE_BL0
  0
BLOCK_RECORD
  5
20F
100
AcDbSymbolTableRecord
100
AcDbBlockTableRecord
  2
*T1
  0
BLOCK_RECORD
  5
210
100
AcDbSymbolTableRecord
100
AcDbBlockTableRecord
  2
*T2
  0
BLOCK_RECORD
  5
211
100
AcDbSymbolTableRecord
100
AcDbBlockTableRecord
  2
*T3
  0
ENDTAB
  0
TABLE
  2
DIMSTYLE
  5
A
100
AcDbSymbolTable
 70
1
100
AcDbDimStyleTable
 71
0
  0
DIMSTYLE
105
212
100
AcDbSymbolTableRecord
100
AcDbDimStyleTableRecord
  2
STANDARD
 70
0
  3

  4

 40
1.0
 41
0.1875
 42
0.0625
 43
0.38
 44
0.125
 45
0.0
 46
0.0
 47
0.001
 48
0.001
140
0.1
141
0.09
142
0.0
143
25.4
144
1.0
145
0.0
146
1.0
147
0.09
 71
0.0
 72
0.0
 73
1
 74
1
 75
0
 76
0
 77
0
 78
4
170
0
171
2
172
0
173
0
174
0
175
0
176
0
177
0
178
0
270
2
271
3
272
3
273
2
274
2
275
0
280
0
281
0
282
0
283
1
284
4
285
0
286
0
287
3
288
0
340
11
278
46
  0
ENDTAB
  0
ENDSEC
  0
SECTION
  2
BLOCKS
  0
BLOCK
  5
20
100
AcDbEntity
  8
0
100
AcDbBlockBegin
  2
*Model_Space
 70
0
 10
0.0
 20
0.0
 30
0.0
  3
*Model_Space
  1

  0
ENDBLK
  5
21
100
AcDbEntity
  8
0
100
AcDbBlockEnd
  0
BLOCK
  5
1C
100
AcDbEntity
  8
0
100
AcDbBlockBegin
  2
*Paper_Space
 70
0
 10
0.0
 20
0.0
 30
0.0
  3
*Paper_Space
  1

  0
ENDBLK
  5
1D
100
AcDbEntity
  8
0
100
AcDbBlockEnd
  0
BLOCK
  5
213
100
AcDbEntity
  8
0
100
AcDbBlockBegin
 62
2
  6
CONTINUOUS
  2
SUN_FIRST_THIRD_ANGLE_BL0
 70
64
 10
20.4816717061
 20
1.2289683772
  3
SUN_FIRST_THIRD_ANGLE_BL0
  1

  0
TEXT
  5
214
100
AcDbEntity
  8
0
100
AcDbText
 62
2
  6
CONTINUOUS
 10
19.4750896608
 20
1.4136269581
  7
STANDARD
 40
0.08
  1
FIRST ANGLE
 41
0.8
 72
0
100
AcDbText
  0
TEXT
  5
215
100
AcDbEntity
  8
0
100
AcDbText
 62
2
  6
CONTINUOUS
 10
20.7842537513
 20
1.4047600029
  7
STANDARD
 40
0.08
  1
THIRD ANGLE
 41
0.8
 72
0
100
AcDbText
  0
LINE
  5
216
100
AcDbEntity
  8
0
100
AcDbLine
 62
7
  6
CONTINUOUS
 10
19.4767170086
 20
1.1727031207
 11
19.6334271527
 21
1.1717972817
  0
LINE
  5
217
100
AcDbEntity
  8
0
100
AcDbLine
 62
7
  6
CONTINUOUS
 10
19.6596964832
 20
1.1717972817
 11
19.6950230232
 21
1.171593082
  0
LINE
  5
218
100
AcDbEntity
  8
0
100
AcDbLine
 62
7
  6
CONTINUOUS
 10
19.7194818561
 20
1.1708914427
 11
19.8852396156
 21
1.1699333054
  0
LINE
  5
219
100
AcDbEntity
  8
0
100
AcDbLine
 62
7
  6
CONTINUOUS
 10
19.4758111696
 20
1.2723454088
 11
19.88525039
 21
1.3511534004
  0
LINE
  5
21A
100
AcDbEntity
  8
0
100
AcDbLine
 62
7
  6
CONTINUOUS
 10
19.88525039
 20
1.3511534004
 11
19.8831348489
 21
0.9851647912
  0
LINE
  5
21B
100
AcDbEntity
  8
0
100
AcDbLine
 62
7
  6
CONTINUOUS
 10
19.8831348489
 20
0.9851647912
 11
19.4767170086
 21
1.0658141206
  0
LINE
  5
21C
100
AcDbEntity
  8
0
100
AcDbLine
 62
7
  6
CONTINUOUS
 10
19.4767170086
 20
1.0658141206
 11
19.4779056764
 21
1.2714536432
  0
CIRCLE
  5
21D
100
AcDbEntity
  8
0
100
AcDbCircle
 62
7
  6
CONTINUOUS
 10
20.2068232291
 20
1.1717972817
 40
0.175742101
  0
CIRCLE
  5
21E
100
AcDbEntity
  8
0
100
AcDbCircle
 62
7
  6
CONTINUOUS
 10
20.2068232291
 20
1.1717972817
 40
0.1005522074
  0
LINE
  5
21F
100
AcDbEntity
  8
0
100
AcDbLine
 62
7
  6
CONTINUOUS
 10
20.2077290681
 20
1.3756110529
 11
20.2071171714
 21
1.2379342989
  0
LINE
  5
220
100
AcDbEntity
  8
0
100
AcDbLine
 62
7
  6
CONTINUOUS
 10
20.2077290681
 20
1.2016899681
 11
20.2074674401
 21
1.1428236749
  0
LINE
  5
221
100
AcDbEntity
  8
0
100
AcDbLine
 62
7
  6
CONTINUOUS
 10
20.208634907
 20
1.101141841
 11
20.2080230104
 21
0.963465087
  0
LINE
  5
222
100
AcDbEntity
  8
0
100
AcDbLine
 62
7
  6
CONTINUOUS
 10
20.0066328138
 20
1.1745147986
 11
20.1443095678
 21
1.1739029019
  0
LINE
  5
223
100
AcDbEntity
  8
0
100
AcDbLine
 62
7
  6
CONTINUOUS
 10
20.1832714155
 20
1.1727031207
 11
20.238153505
 21
1.172335442
  0
LINE
  5
224
100
AcDbEntity
  8
0
100
AcDbLine
 62
7
  6
CONTINUOUS
 10
20.2756669918
 20
1.1717972817
 11
20.407916871
 21
1.1712095044
  0
CIRCLE
  5
225
100
AcDbEntity
  8
0
100
AcDbCircle
 62
7
  6
CONTINUOUS
 10
20.7509457401
 20
1.1693297793
 40
0.1722024983
  0
CIRCLE
  5
226
100
AcDbEntity
  8
0
100
AcDbCircle
 62
7
  6
CONTINUOUS
 10
20.7509457401
 20
1.1693297793
 40
0.0985164967
  0
LINE
  5
227
100
AcDbEntity
  8
0
100
AcDbLine
 62
7
  6
CONTINUOUS
 10
20.7169767782
 20
1.170462078
 11
20.7825395137
 21
1.1682766535
  0
LINE
  5
228
100
AcDbEntity
  8
0
100
AcDbLine
 62
7
  6
CONTINUOUS
 10
20.8177513651
 20
1.1693297793
 11
20.947965719
 21
1.1693297793
  0
LINE
  5
229
100
AcDbEntity
  8
0
100
AcDbLine
 62
7
  6
CONTINUOUS
 10
20.6875370113
 20
1.170462078
 11
20.5573226574
 21
1.170462078
  0
LINE
  5
22A
100
AcDbEntity
  8
0
100
AcDbLine
 62
7
  6
CONTINUOUS
 10
20.7486811426
 20
1.1987695462
 11
20.7486811426
 21
1.1432869085
  0
LINE
  5
22B
100
AcDbEntity
  8
0
100
AcDbLine
 62
7
  6
CONTINUOUS
 10
20.7498134414
 20
1.1059210505
 11
20.7498134414
 21
0.9757066966
  0
LINE
  5
22C
100
AcDbEntity
  8
0
100
AcDbLine
 62
7
  6
CONTINUOUS
 10
20.7486811426
 20
1.2338708068
 11
20.7486811426
 21
1.3640851607
  0
LINE
  5
22D
100
AcDbEntity
  8
0
100
AcDbLine
 62
7
  6
CONTINUOUS
 10
21.0702539817
 20
1.2701043662
 11
21.4790138229
 21
1.3448360823
  0
LINE
  5
22E
100
AcDbEntity
  8
0
100
AcDbLine
 62
7
  6
CONTINUOUS
 10
21.4790138229
 20
1.3448360823
 11
21.4790138229
 21
0.9779712941
  0
LINE
  5
22F
100
AcDbEntity
  8
0
100
AcDbLine
 62
7
  6
CONTINUOUS
 10
21.4790138229
 20
0.9779712941
 11
21.069121683
 21
1.0617614
  0
LINE
  5
230
100
AcDbEntity
  8
0
100
AcDbLine
 62
7
  6
CONTINUOUS
 10
21.0702539817
 20
1.2701043662
 11
21.069121683
 21
1.0617614
  0
LINE
  5
231
100
AcDbEntity
  8
0
100
AcDbLine
 62
7
  6
CONTINUOUS
 10
21.4790138229
 20
1.1693297793
 11
21.3159628059
 21
1.1693297793
  0
LINE
  5
232
100
AcDbEntity
  8
0
100
AcDbLine
 62
7
  6
CONTINUOUS
 10
21.2876553377
 20
1.1693297793
 11
21.2502894796
 21
1.1693297793
  0
LINE
  5
233
100
AcDbEntity
  8
0
100
AcDbLine
 62
7
  6
CONTINUOUS
 10
21.2208497126
 20
1.1659328831
 11
21.0713862804
 21
1.1659328831
  0
LINE
  5
234
100
AcDbEntity
  8
0
100
AcDbLine
 62
7
  6
CONTINUOUS
 10
20.4796138713
 20
1.5284908897
 11
20.4766766948
 21
0.9294458646
  0
ENDBLK
  5
235
100
AcDbEntity
  8
0
  6
BYBLOCK
 62
0
100
AcDbBlockEnd
  0
BLOCK
  5
236
100
AcDbEntity
  8
0
100
AcDbBlockBegin
  2
*T1
 70
1
 10
0.0
 20
0.0
  3
*T1
  1

  0
LINE
  5
237
100
AcDbEntity
  8
0
100
AcDbLine
 62
2
  6
CONTINUOUS
 10
9.275
 20
0.0
 11
-0.0
 21
0.0
  0
LINE
  5
238
100
AcDbEntity
  8
0
100
AcDbLine
 62
2
  6
CONTINUOUS
 10
9.275
 20
0.0
 11
9.275
 21
1.25
  0
LINE
  5
239
100
AcDbEntity
  8
0
100
AcDbLine
 62
2
  6
CONTINUOUS
 10
9.275
 20
0.625
 11
-0.0
 21
0.625
  0
LINE
  5
23A
100
AcDbEntity
  8
0
100
AcDbLine
 62
2
  6
CONTINUOUS
 10
9.275
 20
1.25
 11
-0.0
 21
1.25
  0
LINE
  5
23B
100
AcDbEntity
  8
0
100
AcDbLine
 62
2
  6
CONTINUOUS
 10
6.8
 20
0.0
 11
6.8
 21
1.25
  0
LINE
  5
23C
100
AcDbEntity
  8
0
100
AcDbLine
 62
2
  6
CONTINUOUS
 10
6.4
 20
0.0
 11
6.4
 21
0.625
  0
LINE
  5
23D
100
AcDbEntity
  8
0
100
AcDbLine
 62
2
  6
CONTINUOUS
 10
5.9
 20
0.0
 11
5.9
 21
0.625
  0
LINE
  5
23E
100
AcDbEntity
  8
0
100
AcDbLine
 62
2
  6
CONTINUOUS
 10
5.2
 20
0.0
 11
5.2
 21
0.625
  0
LINE
  5
23F
100
AcDbEntity
  8
0
100
AcDbLine
 62
2
  6
CONTINUOUS
 10
4.1
 20
0.0
 11
4.1
 21
1.25
  0
LINE
  5
240
100
AcDbEntity
  8
0
100
AcDbLine
 62
2
  6
CONTINUOUS
 10
-0.0
 20
0.0
 11
-0.0
 21
1.25
  0
MTEXT
  5
241
100
AcDbEntity
  8
0
100
AcDbMText
 62
2
  6
CONTINUOUS
  7
STANDARD
 71
2
 72
1
 10
6.6
 20
0.325
 30
0.0
 11
1.0
 21
0.0
 31
0.0
 44
0.9
  1
2
 40
0.125
 41
0.2
  0
MTEXT
  5
242
100
AcDbEntity
  8
0
100
AcDbMText
 62
2
  6
CONTINUOUS
  7
STANDARD
 71
2
 72
1
 10
6.15
 20
0.325
 30
0.0
 11
1.0
 21
0.0
 31
0.0
 44
0.9
  1
C
 40
0.125
 41
0.2
  0
MTEXT
  5
243
100
AcDbEntity
  8
0
100
AcDbMText
 62
2
  6
CONTINUOUS
  7
STANDARD
 71
2
 72
1
 10
5.55
 20
0.325
 30
0.0
 11
1.0
 21
0.0
 31
0.0
 44
0.9
  1
0.900
 40
0.125
 41
1.0
  0
MTEXT
  5
244
100
AcDbEntity
  8
0
100
AcDbMText
 62
2
  6
CONTINUOUS
  7
STANDARD
 71
2
 72
1
 10
4.65
 20
0.325
 30
0.0
 11
1.0
 21
0.0
 31
0.0
 44
0.9
  1
Jun-17-21
 40
0.125
 41
1.8
  0
MTEXT
  5
245
100
AcDbEntity
  8
0
100
AcDbMText
 62
2
  6
CONTINUOUS
  7
STANDARD
 71
2
 72
1
 10
2.05
 20
0.4625
 30
0.0
 11
1.0
 21
0.0
 31
0.0
 44
0.9
  1
T-19A Line mount\P(See Technical Data for Body Features)
 40
0.125
 41
7.6
  0
MTEXT
  5
246
100
AcDbEntity
  8
0
100
AcDbMText
 62
2
  6
CONTINUOUS
  7
STANDARD
 71
1
 72
1
 10
6.45
 20
0.5625
 30
0.0
 11
1.0
 21
0.0
 31
0.0
 44
0.9
  1
SHEET
 40
0.06
 41
0.48
  0
MTEXT
  5
247
100
AcDbEntity
  8
0
100
AcDbMText
 62
2
  6
CONTINUOUS
  7
STANDARD
 71
1
 72
1
 10
5.95
 20
0.5625
 30
0.0
 11
1.0
 21
0.0
 31
0.0
 44
0.9
  1
DWG SIZE
 40
0.06
 41
0.768
  0
MTEXT
  5
248
100
AcDbEntity
  8
0
100
AcDbMText
 62
2
  6
CONTINUOUS
  7
STANDARD
 71
1
 72
1
 10
5.25
 20
0.5625
 30
0.0
 11
1.0
 21
0.0
 31
0.0
 44
0.9
  1
SCALE
 40
0.06
 41
0.48
  0
MTEXT
  5
249
100
AcDbEntity
  8
0
100
AcDbMText
 62
2
  6
CONTINUOUS
  7
STANDARD
 71
1
 72
1
 10
4.15
 20
0.5625
 30
0.0
 11
1.0
 21
0.0
 31
0.0
 44
0.9
  1
DATE
 40
0.06
 41
0.384
  0
MTEXT
  5
24A
100
AcDbEntity
  8
0
100
AcDbMText
 62
2
  6
CONTINUOUS
  7
STANDARD
 71
1
 72
1
 10
0.05
 20
0.5625
 30
0.0
 11
1.0
 21
0.0
 31
0.0
 44
0.9
  1
DESCRIPTION
 40
0.06
 41
1.056
  0
MTEXT
  5
24B
100
AcDbEntity
  8
0
100
AcDbMText
 62
2
  6
CONTINUOUS
  7
STANDARD
 71
2
 72
1
 10
5.45
 20
1.0375
 30
0.0
 11
1.0
 21
0.0
 31
0.0
 44
0.9
  1
ALL DIMENSIONS IN INCH\PVIEWS ARE THIRD ANGLE
 40
0.12
 41
4.224
  0
MTEXT
  5
24C
100
AcDbEntity
  8
0
100
AcDbMText
 62
2
  6
CONTINUOUS
  7
STANDARD
 71
2
 72
1
 10
2.05
 20
0.95
 30
0.0
 11
1.0
 21
0.0
 31
0.0
 44
0.9
  1
K66
 40
0.125
 41
0.6
  0
MTEXT
  5
24D
100
AcDbEntity
  8
0
100
AcDbMText
 62
2
  6
CONTINUOUS
  7
STANDARD
 71
1
 72
1
 10
0.05
 20
1.1875
 30
0.0
 11
1.0
 21
0.0
 31
0.0
 44
0.9
  1
MODEL
 40
0.06
 41
0.48
  0
ENDBLK
  5
24E
100
AcDbEntity
  8
0
  6
BYBLOCK
 62
0
100
AcDbBlockEnd
  0
BLOCK
  5
24F
100
AcDbEntity
  8
0
100
AcDbBlockBegin
  2
*T2
 70
1
 10
0.0
 20
0.0
  3
*T2
  1

  0
LINE
  5
250
100
AcDbEntity
  8
0
100
AcDbLine
 62
2
  6
CONTINUOUS
 10
0.0
 20
0.0
 11
9.055
 21
0.0
  0
LINE
  5
251
100
AcDbEntity
  8
0
100
AcDbLine
 62
2
  6
CONTINUOUS
 10
0.0
 20
0.0
 11
0.0
 21
-3.094
  0
LINE
  5
252
100
AcDbEntity
  8
0
100
AcDbLine
 62
2
  6
CONTINUOUS
 10
0.0
 20
-0.344
 11
9.055
 21
-0.344
  0
LINE
  5
253
100
AcDbEntity
  8
0
100
AcDbLine
 62
2
  6
CONTINUOUS
 10
0.0
 20
-0.594
 11
9.055
 21
-0.594
  0
LINE
  5
254
100
AcDbEntity
  8
0
100
AcDbLine
 62
2
  6
CONTINUOUS
 10
0.0
 20
-0.844
 11
9.055
 21
-0.844
  0
LINE
  5
255
100
AcDbEntity
  8
0
100
AcDbLine
 62
2
  6
CONTINUOUS
 10
0.0
 20
-1.094
 11
9.055
 21
-1.094
  0
LINE
  5
256
100
AcDbEntity
  8
0
100
AcDbLine
 62
2
  6
CONTINUOUS
 10
0.0
 20
-1.344
 11
9.055
 21
-1.344
  0
LINE
  5
257
100
AcDbEntity
  8
0
100
AcDbLine
 62
2
  6
CONTINUOUS
 10
0.0
 20
-1.594
 11
9.055
 21
-1.594
  0
LINE
  5
258
100
AcDbEntity
  8
0
100
AcDbLine
 62
2
  6
CONTINUOUS
 10
0.0
 20
-1.844
 11
9.055
 21
-1.844
  0
LINE
  5
259
100
AcDbEntity
  8
0
100
AcDbLine
 62
2
  6
CONTINUOUS
 10
0.0
 20
-2.094
 11
9.055
 21
-2.094
  0
LINE
  5
25A
100
AcDbEntity
  8
0
100
AcDbLine
 62
2
  6
CONTINUOUS
 10
0.0
 20
-2.344
 11
9.055
 21
-2.344
  0
LINE
  5
25B
100
AcDbEntity
  8
0
100
AcDbLine
 62
2
  6
CONTINUOUS
 10
0.0
 20
-2.594
 11
9.055
 21
-2.594
  0
LINE
  5
25C
100
AcDbEntity
  8
0
100
AcDbLine
 62
2
  6
CONTINUOUS
 10
0.0
 20
-2.844
 11
9.055
 21
-2.844
  0
LINE
  5
25D
100
AcDbEntity
  8
0
100
AcDbLine
 62
2
  6
CONTINUOUS
 10
0.0
 20
-3.094
 11
9.055
 21
-3.094
  0
LINE
  5
25E
100
AcDbEntity
  8
0
100
AcDbLine
 62
2
  6
CONTINUOUS
 10
3.055
 20
0.0
 11
3.055
 21
-3.094
  0
LINE
  5
25F
100
AcDbEntity
  8
0
100
AcDbLine
 62
2
  6
CONTINUOUS
 10
9.055
 20
0.0
 11
9.055
 21
-3.094
  0
MTEXT
  5
260
100
AcDbEntity
  8
0
100
AcDbMText
 62
2
  6
CONTINUOUS
  7
STANDARD
 71
2
 72
1
 10
1.5275
 20
-0.0995
 30
0.0
 11
1.0
 21
0.0
 31
0.0
 44
0.9
  1
Technical Data
 40
0.145
 41
3.248
  0
MTEXT
  5
261
100
AcDbEntity
  8
0
100
AcDbMText
 62
2
  6
CONTINUOUS
  7
STANDARD
 71
2
 72
1
 10
4.555
 20
-0.0995
 30
0.0
 11
1.0
 21
0.0
 31
0.0
 44
0.9
  1
U.S. Units
 40
0.145
 41
2.32
  0
MTEXT
  5
262
100
AcDbEntity
  8
0
100
AcDbMText
 62
2
  6
CONTINUOUS
  7
STANDARD
 71
2
 72
1
 10
7.555
 20
-0.0995
 30
0.0
 11
1.0
 21
0.0
 31
0.0
 44
0.9
  1
Metric Units
 40
0.145
 41
2.784
  0
MTEXT
  5
263
100
AcDbEntity
  8
0
100
AcDbMText
 62
2
  6
CONTINUOUS
  7
STANDARD
 71
2
 72
1
 10
1.5275
 20
-0.4065
 30
0.0
 11
1.0
 21
0.0
 31
0.0
 44
0.9
  1
Cavity
 40
0.125
 41
1.2
  0
MTEXT
  5
264
100
AcDbEntity
  8
0
100
AcDbMText
 62
2
  6
CONTINUOUS
  7
STANDARD
 71
2
 72
1
 10
6.055
 20
-0.4065
 30
0.0
 11
1.0
 21
0.0
 31
0.0
 44
0.9
  1
T-19A
 40
0.125
 41
1.0
  0
MTEXT
  5
265
100
AcDbEntity
  8
0
100
AcDbMText
 62
2
  6
CONTINUOUS
  7
STANDARD
 71
2
 72
1
 10
1.5275
 20
-0.6565
 30
0.0
 11
1.0
 21
0.0
 31
0.0
 44
0.9
  1
Body Features
 40
0.125
 41
2.6
  0
MTEXT
  5
266
100
AcDbEntity
  8
0
100
AcDbMText
 62
2
  6
CONTINUOUS
  7
STANDARD
 71
2
 72
1
 10
6.055
 20
-0.6565
 30
0.0
 11
1.0
 21
0.0
 31
0.0
 44
0.9
  1
Ninety degree with reverse flow check - sequence
 40
0.125
 41
9.6
  0
MTEXT
  5
267
100
AcDbEntity
  8
0
100
AcDbMText
 62
2
  6
CONTINUOUS
  7
STANDARD
 71
2
 72
1
 10
1.5275
 20
-0.9065
 30
0.0
 11
1.0
 21
0.0
 31
0.0
 44
0.9
  1
Body Type
 40
0.125
 41
1.8
  0
MTEXT
  5
268
100
AcDbEntity
  8
0
100
AcDbMText
 62
2
  6
CONTINUOUS
  7
STANDARD
 71
2
 72
1
 10
6.055
 20
-0.9065
 30
0.0
 11
1.0
 21
0.0
 31
0.0
 44
0.9
  1
Line mount
 40
0.125
 41
2.0
  0
MTEXT
  5
269
100
AcDbEntity
  8
0
100
AcDbMText
 62
2
  6
CONTINUOUS
  7
STANDARD
 71
2
 72
1
 10
1.5275
 20
-1.1565
 30
0.0
 11
1.0
 21
0.0
 31
0.0
 44
0.9
  1
Interface
 40
0.125
 41
1.8
  0
MTEXT
  5
26A
100
AcDbEntity
  8
0
100
AcDbMText
 62
2
  6
CONTINUOUS
  7
STANDARD
 71
2
 72
1
 10
6.055
 20
-1.1565
 30
0.0
 11
1.0
 21
0.0
 31
0.0
 44
0.9
  1
None
 40
0.125
 41
0.8
  0
MTEXT
  5
26B
100
AcDbEntity
  8
0
100
AcDbMText
 62
2
  6
CONTINUOUS
  7
STANDARD
 71
2
 72
1
 10
1.5275
 20
-1.4065
 30
0.0
 11
1.0
 21
0.0
 31
0.0
 44
0.9
  1
Open Cavity Quantity
 40
0.125
 41
4.0
  0
MTEXT
  5
26C
100
AcDbEntity
  8
0
100
AcDbMText
 62
2
  6
CONTINUOUS
  7
STANDARD
 71
2
 72
1
 10
6.055
 20
-1.4065
 30
0.0
 11
1.0
 21
0.0
 31
0.0
 44
0.9
  1
1
 40
0.125
 41
0.2
  0
MTEXT
  5
26D
100
AcDbEntity
  8
0
100
AcDbMText
 62
2
  6
CONTINUOUS
  7
STANDARD
 71
2
 72
1
 10
1.5275
 20
-1.6565
 30
0.0
 11
1.0
 21
0.0
 31
0.0
 44
0.9
  1
Weight
 40
0.125
 41
1.2
  0
MTEXT
  5
26E
100
AcDbEntity
  8
0
100
AcDbMText
 62
2
  6
CONTINUOUS
  7
STANDARD
 71
2
 72
1
 10
4.555
 20
-1.6565
 30
0.0
 11
1.0
 21
0.0
 31
0.0
 44
0.9
  1
16.816 lb.
 40
0.125
 41
2.0
  0
MTEXT
  5
26F
100
AcDbEntity
  8
0
100
AcDbMText
 62
2
  6
CONTINUOUS
  7
STANDARD
 71
2
 72
1
 10
7.555
 20
-1.6565
 30
0.0
 11
1.0
 21
0.0
 31
0.0
 44
0.9
  1
7,628 kg.
 40
0.125
 41
1.8
  0
MTEXT
  5
270
100
AcDbEntity
  8
0
100
AcDbMText
 62
2
  6
CONTINUOUS
  7
STANDARD
 71
2
 72
1
 10
1.5275
 20
-1.9065
 30
0.0
 11
1.0
 21
0.0
 31
0.0
 44
0.9
  1
Check Cracking Pressure
 40
0.125
 41
4.6
  0
MTEXT
  5
271
100
AcDbEntity
  8
0
100
AcDbMText
 62
2
  6
CONTINUOUS
  7
STANDARD
 71
2
 72
1
 10
4.555
 20
-1.9065
 30
0.0
 11
1.0
 21
0.0
 31
0.0
 44
0.9
  1
30 psi
 40
0.125
 41
1.2
  0
MTEXT
  5
272
100
AcDbEntity
  8
0
100
AcDbMText
 62
2
  6
CONTINUOUS
  7
STANDARD
 71
2
 72
1
 10
7.555
 20
-1.9065
 30
0.0
 11
1.0
 21
0.0
 31
0.0
 44
0.9
  1
2 bar
 40
0.125
 41
1.0
  0
MTEXT
  5
273
100
AcDbEntity
  8
0
100
AcDbMText
 62
2
  6
CONTINUOUS
  7
STANDARD
 71
2
 72
1
 10
1.5275
 20
-2.1565
 30
0.0
 11
1.0
 21
0.0
 31
0.0
 44
0.9
  1
Mounting Hole Thread
 40
0.125
 41
4.0
  0
MTEXT
  5
274
100
AcDbEntity
  8
0
100
AcDbMText
 62
2
  6
CONTINUOUS
  7
STANDARD
 71
2
 72
1
 10
4.555
 20
-2.1565
 30
0.0
 11
1.0
 21
0.0
 31
0.0
 44
0.9
  1
.375-16 UNC - 2B in.
 40
0.125
 41
4.0
  0
MTEXT
  5
275
100
AcDbEntity
  8
0
100
AcDbMText
 62
2
  6
CONTINUOUS
  7
STANDARD
 71
2
 72
1
 10
1.5275
 20
-2.4065
 30
0.0
 11
1.0
 21
0.0
 31
0.0
 44
0.9
  1
Mounting Hole Depth
 40
0.125
 41
3.8
  0
MTEXT
  5
276
100
AcDbEntity
  8
0
100
AcDbMText
 62
2
  6
CONTINUOUS
  7
STANDARD
 71
2
 72
1
 10
4.555
 20
-2.4065
 30
0.0
 11
1.0
 21
0.0
 31
0.0
 44
0.9
  1
.62 in.
 40
0.125
 41
1.4
  0
MTEXT
  5
277
100
AcDbEntity
  8
0
100
AcDbMText
 62
2
  6
CONTINUOUS
  7
STANDARD
 71
2
 72
1
 10
7.555
 20
-2.4065
 30
0.0
 11
1.0
 21
0.0
 31
0.0
 44
0.9
  1
15,7 mm
 40
0.125
 41
1.4
  0
MTEXT
  5
278
100
AcDbEntity
  8
0
100
AcDbMText
 62
2
  6
CONTINUOUS
  7
STANDARD
 71
2
 72
1
 10
1.5275
 20
-2.6565
 30
0.0
 11
1.0
 21
0.0
 31
0.0
 44
0.9
  1
Mounting Hole Quantity
 40
0.125
 41
4.4
  0
MTEXT
  5
279
100
AcDbEntity
  8
0
100
AcDbMText
 62
2
  6
CONTINUOUS
  7
STANDARD
 71
2
 72
1
 10
6.055
 20
-2.6565
 30
0.0
 11
1.0
 21
0.0
 31
0.0
 44
0.9
  1
2
 40
0.125
 41
0.2
  0
MTEXT
  5
27A
100
AcDbEntity
  8
0
100
AcDbMText
 62
2
  6
CONTINUOUS
  7
STANDARD
 71
2
 72
1
 10
1.5275
 20
-2.9065
 30
0.0
 11
1.0
 21
0.0
 31
0.0
 44
0.9
  1
Includes integral cartridge(s)
 40
0.125
 41
6.0
  0
MTEXT
  5
27B
100
AcDbEntity
  8
0
100
AcDbMText
 62
2
  6
CONTINUOUS
  7
STANDARD
 71
2
 72
1
 10
6.055
 20
-2.9065
 30
0.0
 11
1.0
 21
0.0
 31
0.0
 44
0.9
  1
Yes (see Included Components)
 40
0.125
 41
5.8
  0
ENDBLK
  5
27C
100
AcDbEntity
  8
0
  6
BYBLOCK
 62
0
100
AcDbBlockEnd
  0
BLOCK
  5
27D
100
AcDbEntity
  8
0
100
AcDbBlockBegin
  2
*T3
 70
1
 10
0.0
 20
0.0
  3
*T3
  1

  0
LINE
  5
27E
100
AcDbEntity
  8
0
100
AcDbLine
 62
2
  6
CONTINUOUS
 10
0.0
 20
0.0
 11
4.6
 21
0.0
  0
LINE
  5
27F
100
AcDbEntity
  8
0
100
AcDbLine
 62
2
  6
CONTINUOUS
 10
0.0
 20
0.0
 11
0.0
 21
-1.43775
  0
LINE
  5
280
100
AcDbEntity
  8
0
100
AcDbLine
 62
2
  6
CONTINUOUS
 10
0.0
 20
-0.34375
 11
4.6
 21
-0.34375
  0
LINE
  5
281
100
AcDbEntity
  8
0
100
AcDbLine
 62
2
  6
CONTINUOUS
 10
0.0
 20
-0.68775
 11
4.6
 21
-0.68775
  0
LINE
  5
282
100
AcDbEntity
  8
0
100
AcDbLine
 62
2
  6
CONTINUOUS
 10
0.0
 20
-0.93775
 11
4.6
 21
-0.93775
  0
LINE
  5
283
100
AcDbEntity
  8
0
100
AcDbLine
 62
2
  6
CONTINUOUS
 10
0.0
 20
-1.18775
 11
4.6
 21
-1.18775
  0
LINE
  5
284
100
AcDbEntity
  8
0
100
AcDbLine
 62
2
  6
CONTINUOUS
 10
0.0
 20
-1.43775
 11
4.6
 21
-1.43775
  0
LINE
  5
285
100
AcDbEntity
  8
0
100
AcDbLine
 62
2
  6
CONTINUOUS
 10
1.3
 20
-0.34375
 11
1.3
 21
-1.43775
  0
LINE
  5
286
100
AcDbEntity
  8
0
100
AcDbLine
 62
2
  6
CONTINUOUS
 10
3.3
 20
-0.34375
 11
3.3
 21
-1.43775
  0
LINE
  5
287
100
AcDbEntity
  8
0
100
AcDbLine
 62
2
  6
CONTINUOUS
 10
4.6
 20
0.0
 11
4.6
 21
-1.43775
  0
MTEXT
  5
288
100
AcDbEntity
  8
0
100
AcDbMText
 62
2
  6
CONTINUOUS
  7
STANDARD
 71
2
 72
1
 10
2.3
 20
-0.099375
 30
0.0
 11
1.0
 21
0.0
 31
0.0
 44
0.9
  1
Port Headings
 40
0.145
 41
3.016
  0
MTEXT
  5
289
100
AcDbEntity
  8
0
100
AcDbMText
 62
2
  6
CONTINUOUS
  7
STANDARD
 71
2
 72
1
 10
0.65
 20
-0.44325
 30
0.0
 11
1.0
 21
0.0
 31
0.0
 44
0.9
  1
Product
 40
0.145
 41
1.624
  0
MTEXT
  5
28A
100
AcDbEntity
  8
0
100
AcDbMText
 62
2
  6
CONTINUOUS
  7
STANDARD
 71
2
 72
1
 10
2.3
 20
-0.44325
 30
0.0
 11
1.0
 21
0.0
 31
0.0
 44
0.9
  1
Port
 40
0.145
 41
0.928
  0
MTEXT
  5
28B
100
AcDbEntity
  8
0
100
AcDbMText
 62
2
  6
CONTINUOUS
  7
STANDARD
 71
2
 72
1
 10
3.95
 20
-0.44325
 30
0.0
 11
1.0
 21
0.0
 31
0.0
 44
0.9
  1
Size
 40
0.145
 41
0.928
  0
MTEXT
  5
28C
100
AcDbEntity
  8
0
100
AcDbMText
 62
2
  6
CONTINUOUS
  7
STANDARD
 71
2
 72
1
 10
0.65
 20
-0.75025
 30
0.0
 11
1.0
 21
0.0
 31
0.0
 44
0.9
  1
K66
 40
0.125
 41
0.6
  0
MTEXT
  5
28D
100
AcDbEntity
  8
0
100
AcDbMText
 62
2
  6
CONTINUOUS
  7
STANDARD
 71
2
 72
1
 10
2.3
 20
-0.75025
 30
0.0
 11
1.0
 21
0.0
 31
0.0
 44
0.9
  1
Ports 1 &  2
 40
0.125
 41
2.4
  0
MTEXT
  5
28E
100
AcDbEntity
  8
0
100
AcDbMText
 62
2
  6
CONTINUOUS
  7
STANDARD
 71
2
 72
1
 10
3.95
 20
-0.75025
 30
0.0
 11
1.0
 21
0.0
 31
0.0
 44
0.9
  1
1 1/2" Code 62
 40
0.125
 41
2.8
  0
MTEXT
  5
28F
100
AcDbEntity
  8
0
100
AcDbMText
 62
2
  6
CONTINUOUS
  7
STANDARD
 71
2
 72
1
 10
0.65
 20
-1.00025
 30
0.0
 11
1.0
 21
0.0
 31
0.0
 44
0.9
  1
K66
 40
0.125
 41
0.6
  0
MTEXT
  5
290
100
AcDbEntity
  8
0
100
AcDbMText
 62
2
  6
CONTINUOUS
  7
STANDARD
 71
2
 72
1
 10
2.3
 20
-1.00025
 30
0.0
 11
1.0
 21
0.0
 31
0.0
 44
0.9
  1
Port 3
 40
0.125
 41
1.2
  0
MTEXT
  5
291
100
AcDbEntity
  8
0
100
AcDbMText
 62
2
  6
CONTINUOUS
  7
STANDARD
 71
2
 72
1
 10
3.95
 20
-1.00025
 30
0.0
 11
1.0
 21
0.0
 31
0.0
 44
0.9
  1
SAE 6
 40
0.125
 41
1.0
  0
MTEXT
  5
292
100
AcDbEntity
  8
0
100
AcDbMText
 62
2
  6
CONTINUOUS
  7
STANDARD
 71
2
 72
1
 10
0.65
 20
-1.25025
 30
0.0
 11
1.0
 21
0.0
 31
0.0
 44
0.9
  1
K66
 40
0.125
 41
0.6
  0
MTEXT
  5
293
100
AcDbEntity
  8
0
100
AcDbMText
 62
2
  6
CONTINUOUS
  7
STANDARD
 71
2
 72
1
 10
2.3
 20
-1.25025
 30
0.0
 11
1.0
 21
0.0
 31
0.0
 44
0.9
  1
Gage Port
 40
0.125
 41
1.8
  0
MTEXT
  5
294
100
AcDbEntity
  8
0
100
AcDbMText
 62
2
  6
CONTINUOUS
  7
STANDARD
 71
2
 72
1
 10
3.95
 20
-1.25025
 30
0.0
 11
1.0
 21
0.0
 31
0.0
 44
0.9
  1
1/4" NPTF
 40
0.125
 41
1.8
  0
ENDBLK
  5
295
100
AcDbEntity
  8
0
  6
BYBLOCK
 62
0
100
AcDbBlockEnd
  0
ENDSEC
  0
SECTION
  2
ENTITIES
  0
IMAGE
  5
296
100
AcDbEntity
  8
0
100
AcDbRasterImage
 62
7
  6
CONTINUOUS
 10
19.2297077316
 20
0.3094318264
 30
0.0
 11
0.0066666667
 21
0.0
 31
0.0
 12
0.0
 22
0.0066666667
 32
0.0
 13
369.0
 23
92.0
340
       3B8
 70
9
280
0
281
50
282
50
283
0
360
       3B2
 71
1
 91
2
 14
-0.5
 24
-0.5
 14
368.5
 24
91.5
  0
INSERT
  5
297
100
AcDbEntity
  8
0
100
AcDbBlockReference
 62
2
  6
CONTINUOUS
  2
SUN_FIRST_THIRD_ANGLE_BL0
 10
20.4816717061
 20
1.2289683772
  0
ACAD_TABLE
  5
298
100
AcDbEntity
  8
0
 62
2
  6
CONTINUOUS
100
AcDbBlockReference
  2
*T1
 10
12.42375
 20
0.30125
 30
0.0
100
AcDbTable
342
       3BA
343
20F
 11
1.0
 21
0.0
 31
0.0
 90
6
 91
4
 92
6
 93
20
 94
0
 95
0
 96
0
 70
1
 41
0.0
141
0.525
141
0.1
141
0.525
141
0.1
142
4.1
142
1.1
142
0.7
142
0.5
142
0.4
142
2.475
171
1
172
0
173
0
174
0
175
1
176
1
 91
33
178
0
145
0.0
301
CELL_VALUE
 90
4
  1
T-19A Line mount\P(See Technical Data for Body Features)
304
ACVALUE_END
170
2
140
0.125
171
1
172
0
173
0
174
0
175
1
176
1
 91
33
178
0
145
0.0
301
CELL_VALUE
 90
4
  1
Jun-17-21
304
ACVALUE_END
170
5
140
0.125
171
1
172
0
173
0
174
0
175
1
176
1
 91
33
178
0
145
0.0
301
CELL_VALUE
 90
4
  1
0.900
304
ACVALUE_END
170
5
140
0.125
171
1
172
0
173
0
174
0
175
1
176
1
 91
33
178
0
145
0.0
301
CELL_VALUE
 90
4
  1
C
304
ACVALUE_END
170
5
140
0.125
171
1
172
0
173
0
174
0
175
1
176
1
 91
33
178
0
145
0.0
301
CELL_VALUE
 90
4
  1
2
304
ACVALUE_END
170
5
140
0.125
171
1
172
0
173
0
174
0
175
1
176
1
 91
33
178
0
145
0.0
301
CELL_VALUE
 90
4
  1
 
304
ACVALUE_END
170
1
140
0.125
171
1
172
0
173
0
174
0
175
1
176
1
 91
33
178
0
145
0.0
301
CELL_VALUE
 90
4
  1
DESCRIPTION
304
ACVALUE_END
170
1
140
0.06
171
1
172
0
173
0
174
0
175
1
176
1
 91
33
178
0
145
0.0
301
CELL_VALUE
 90
4
  1
DATE
304
ACVALUE_END
170
1
140
0.06
171
1
172
0
173
0
174
0
175
1
176
1
 91
33
178
0
145
0.0
301
CELL_VALUE
 90
4
  1
SCALE
304
ACVALUE_END
170
1
140
0.06
171
1
172
0
173
0
174
0
175
1
176
1
 91
33
178
0
145
0.0
301
CELL_VALUE
 90
4
  1
DWG SIZE
304
ACVALUE_END
170
1
140
0.06
171
1
172
0
173
0
174
0
175
1
176
1
 91
33
178
0
145
0.0
301
CELL_VALUE
 90
4
  1
SHEET
304
ACVALUE_END
170
1
140
0.06
171
1
172
0
173
0
174
0
175
1
176
1
 91
33
178
0
145
0.0
301
CELL_VALUE
 90
4
  1
 
304
ACVALUE_END
170
1
140
0.125
171
1
172
0
173
0
174
0
175
1
176
1
 91
33
178
0
145
0.0
301
CELL_VALUE
 90
4
  1
K66
304
ACVALUE_END
170
5
140
0.125
171
1
172
0
173
0
174
0
175
4
176
1
 91
33
178
0
145
0.0
301
CELL_VALUE
 90
4
  1
ALL DIMENSIONS IN INCH\PVIEWS ARE THIRD ANGLE
304
ACVALUE_END
170
5
140
0.12
171
1
172
0
173
1
174
0
175
1
176
1
 91
1
178
0
145
0.0
170
1
171
1
172
0
173
1
174
0
175
1
176
1
 91
1
178
0
145
0.0
170
1
171
1
172
0
173
1
174
0
175
1
176
1
 91
1
178
0
145
0.0
170
5
171
1
172
0
173
0
174
0
175
1
176
1
 91
33
178
0
145
0.0
301
CELL_VALUE
 90
4
  1
 
304
ACVALUE_END
170
1
140
0.125
171
1
172
0
173
0
174
0
175
1
176
1
 91
33
178
0
145
0.0
301
CELL_VALUE
 90
4
  1
MODEL
304
ACVALUE_END
170
1
140
0.06
171
1
172
0
173
0
174
0
175
1
176
1
 91
33
178
0
145
0.0
301
CELL_VALUE
 90
4
  1
 
304
ACVALUE_END
170
1
140
0.125
171
1
172
0
173
0
174
0
175
1
176
1
 91
33
178
0
145
0.0
301
CELL_VALUE
 90
4
  1
 
304
ACVALUE_END
170
1
140
0.125
171
1
172
0
173
0
174
0
175
1
176
1
 91
33
178
0
145
0.0
301
CELL_VALUE
 90
4
  1
 
304
ACVALUE_END
170
1
140
0.125
171
1
172
0
173
0
174
0
175
1
176
1
 91
33
178
0
145
0.0
301
CELL_VALUE
 90
4
  1
 
304
ACVALUE_END
170
1
140
0.125
171
1
172
0
173
0
174
0
175
1
176
1
 91
33
178
0
145
0.0
301
CELL_VALUE
 90
4
  1
 
304
ACVALUE_END
170
1
140
0.125
  0
ACAD_TABLE
  5
299
100
AcDbEntity
  8
0
 62
2
  6
CONTINUOUS
100
AcDbBlockReference
  2
*T2
 10
12.4237499994
 20
16.47875
 30
0.0
100
AcDbTable
342
       3B9
343
210
 11
1.0
 21
0.0
 31
0.0
 90
22
 91
12
 92
3
 93
16
 94
0
 95
0
 96
0
 41
0.028
141
0.344
141
0.25
141
0.25
141
0.25
141
0.25
141
0.25
141
0.25
141
0.25
141
0.25
141
0.25
141
0.25
141
0.25
142
3.055
142
3.0
142
3.0
171
1
172
0
173
0
174
0
175
1
176
1
 91
33
178
0
145
0.0
301
CELL_VALUE
 90
4
  1
Technical Data
304
ACVALUE_END
170
5
140
0.145
171
1
172
0
173
0
174
0
175
1
176
1
 91
33
178
0
145
0.0
301
CELL_VALUE
 90
4
  1
U.S. Units
304
ACVALUE_END
170
5
140
0.145
171
1
172
0
173
0
174
0
175
1
176
1
 91
33
178
0
145
0.0
301
CELL_VALUE
 90
4
  1
Metric Units
304
ACVALUE_END
170
5
140
0.145
171
1
172
0
173
0
174
0
175
1
176
1
 91
33
178
0
145
0.0
301
CELL_VALUE
 90
4
  1
Cavity
304
ACVALUE_END
170
5
140
0.125
171
1
172
0
173
0
174
0
175
2
176
1
 91
33
178
0
145
0.0
301
CELL_VALUE
 90
4
  1
T-19A
304
ACVALUE_END
170
5
140
0.125
171
1
172
0
173
1
174
0
175
1
176
1
 91
1
178
0
145
0.0
170
1
171
1
172
0
173
0
174
0
175
1
176
1
 91
33
178
0
145
0.0
301
CELL_VALUE
 90
4
  1
Body Features
304
ACVALUE_END
170
5
140
0.125
171
1
172
0
173
0
174
0
175
2
176
1
 91
33
178
0
145
0.0
301
CELL_VALUE
 90
4
  1
Ninety degree with reverse flow check - sequence
304
ACVALUE_END
170
5
140
0.125
171
1
172
0
173
1
174
0
175
1
176
1
 91
1
178
0
145
0.0
170
1
171
1
172
0
173
0
174
0
175
1
176
1
 91
33
178
0
145
0.0
301
CELL_VALUE
 90
4
  1
Body Type
304
ACVALUE_END
170
5
140
0.125
171
1
172
0
173
0
174
0
175
2
176
1
 91
33
178
0
145
0.0
301
CELL_VALUE
 90
4
  1
Line mount
304
ACVALUE_END
170
5
140
0.125
171
1
172
0
173
1
174
0
175
1
176
1
 91
1
178
0
145
0.0
170
1
171
1
172
0
173
0
174
0
175
1
176
1
 91
33
178
0
145
0.0
301
CELL_VALUE
 90
4
  1
Interface
304
ACVALUE_END
170
5
140
0.125
171
1
172
0
173
0
174
0
175
2
176
1
 91
33
178
0
145
0.0
301
CELL_VALUE
 90
4
  1
None
304
ACVALUE_END
170
5
140
0.125
171
1
172
0
173
1
174
0
175
1
176
1
 91
1
178
0
145
0.0
170
1
171
1
172
0
173
0
174
0
175
1
176
1
 91
33
178
0
145
0.0
301
CELL_VALUE
 90
4
  1
Open Cavity Quantity
304
ACVALUE_END
170
5
140
0.125
171
1
172
0
173
0
174
0
175
2
176
1
 91
33
178
0
145
0.0
301
CELL_VALUE
 90
4
  1
1
304
ACVALUE_END
170
5
140
0.125
171
1
172
0
173
1
174
0
175
1
176
1
 91
1
178
0
145
0.0
170
1
171
1
172
0
173
0
174
0
175
1
176
1
 91
33
178
0
145
0.0
301
CELL_VALUE
 90
4
  1
Weight
304
ACVALUE_END
170
5
140
0.125
171
1
172
0
173
0
174
0
175
1
176
1
 91
33
178
0
145
0.0
301
CELL_VALUE
 90
4
  1
16.816 lb.
304
ACVALUE_END
170
5
140
0.125
171
1
172
0
173
0
174
0
175
1
176
1
 91
33
178
0
145
0.0
301
CELL_VALUE
 90
4
  1
7,628 kg.
304
ACVALUE_END
170
5
140
0.125
171
1
172
0
173
0
174
0
175
1
176
1
 91
33
178
0
145
0.0
301
CELL_VALUE
 90
4
  1
Check Cracking Pressure
304
ACVALUE_END
170
5
140
0.125
171
1
172
0
173
0
174
0
175
1
176
1
 91
33
178
0
145
0.0
301
CELL_VALUE
 90
4
  1
30 psi
304
ACVALUE_END
170
5
140
0.125
171
1
172
0
173
0
174
0
175
1
176
1
 91
33
178
0
145
0.0
301
CELL_VALUE
 90
4
  1
2 bar
304
ACVALUE_END
170
5
140
0.125
171
1
172
0
173
0
174
0
175
1
176
1
 91
33
178
0
145
0.0
301
CELL_VALUE
 90
4
  1
Mounting Hole Thread
304
ACVALUE_END
170
5
140
0.125
171
1
172
0
173
0
174
0
175
1
176
1
 91
33
178
0
145
0.0
301
CELL_VALUE
 90
4
  1
.375-16 UNC - 2B in.
304
ACVALUE_END
170
5
140
0.125
171
1
172
0
173
0
174
0
175
1
176
1
 91
33
178
0
145
0.0
301
CELL_VALUE
 90
4
  1
 
304
ACVALUE_END
170
5
140
0.125
171
1
172
0
173
0
174
0
175
1
176
1
 91
33
178
0
145
0.0
301
CELL_VALUE
 90
4
  1
Mounting Hole Depth
304
ACVALUE_END
170
5
140
0.125
171
1
172
0
173
0
174
0
175
1
176
1
 91
33
178
0
145
0.0
301
CELL_VALUE
 90
4
  1
.62 in.
304
ACVALUE_END
170
5
140
0.125
171
1
172
0
173
0
174
0
175
1
176
1
 91
33
178
0
145
0.0
301
CELL_VALUE
 90
4
  1
15,7 mm
304
ACVALUE_END
170
5
140
0.125
171
1
172
0
173
0
174
0
175
1
176
1
 91
33
178
0
145
0.0
301
CELL_VALUE
 90
4
  1
Mounting Hole Quantity
304
ACVALUE_END
170
5
140
0.125
171
1
172
0
173
0
174
0
175
2
176
1
 91
33
178
0
145
0.0
301
CELL_VALUE
 90
4
  1
2
304
ACVALUE_END
170
5
140
0.125
171
1
172
0
173
1
174
0
175
1
176
1
 91
1
178
0
145
0.0
170
1
171
1
172
0
173
0
174
0
175
1
176
1
 91
33
178
0
145
0.0
301
CELL_VALUE
 90
4
  1
Includes integral cartridge(s)
304
ACVALUE_END
170
5
140
0.125
171
1
172
0
173
0
174
0
175
2
176
1
 91
33
178
0
145
0.0
301
CELL_VALUE
 90
4
  1
Yes (see Included Components)
304
ACVALUE_END
170
5
140
0.125
171
1
172
0
173
1
174
0
175
1
176
1
 91
1
178
0
145
0.0
170
1
  0
ACAD_TABLE
  5
29A
100
AcDbEntity
  8
0
 62
2
  6
CONTINUOUS
100
AcDbBlockReference
  2
*T3
 10
0.52125
 20
1.959
 30
0.0
100
AcDbTable
342
       3B9
343
211
 11
1.0
 21
0.0
 31
0.0
 90
22
 91
5
 92
3
 93
16
 94
0
 95
0
 96
0
 41
0.05
141
0.34375
141
0.344
141
0.25
141
0.25
141
0.25
142
1.3
142
2.0
142
1.3
171
1
172
0
173
0
174
0
175
3
176
1
 91
33
178
0
145
0.0
301
CELL_VALUE
 90
4
  1
Port Headings
304
ACVALUE_END
170
5
140
0.145
171
1
172
0
173
1
174
0
175
1
176
1
 91
1
178
0
145
0.0
170
1
171
1
172
0
173
1
174
0
175
1
176
1
 91
1
178
0
145
0.0
170
1
171
1
172
0
173
0
174
0
175
1
176
1
 91
33
178
0
145
0.0
301
CELL_VALUE
 90
4
  1
Product
304
ACVALUE_END
170
5
140
0.145
171
1
172
0
173
0
174
0
175
1
176
1
 91
33
178
0
145
0.0
301
CELL_VALUE
 90
4
  1
Port
304
ACVALUE_END
170
5
140
0.145
171
1
172
0
173
0
174
0
175
1
176
1
 91
33
178
0
145
0.0
301
CELL_VALUE
 90
4
  1
Size
304
ACVALUE_END
170
5
140
0.145
171
1
172
0
173
0
174
0
175
1
176
1
 91
33
178
0
145
0.0
301
CELL_VALUE
 90
4
  1
K66
304
ACVALUE_END
170
5
140
0.125
171
1
172
0
173
0
174
0
175
1
176
1
 91
33
178
0
145
0.0
301
CELL_VALUE
 90
4
  1
Ports 1 &  2
304
ACVALUE_END
170
5
140
0.125
171
1
172
0
173
0
174
0
175
1
176
1
 91
33
178
0
145
0.0
301
CELL_VALUE
 90
4
  1
1 1/2" Code 62
304
ACVALUE_END
170
5
140
0.125
171
1
172
0
173
0
174
0
175
1
176
1
 91
33
178
0
145
0.0
301
CELL_VALUE
 90
4
  1
K66
304
ACVALUE_END
170
5
140
0.125
171
1
172
0
173
0
174
0
175
1
176
1
 91
33
178
0
145
0.0
301
CELL_VALUE
 90
4
  1
Port 3
304
ACVALUE_END
170
5
140
0.125
171
1
172
0
173
0
174
0
175
1
176
1
 91
33
178
0
145
0.0
301
CELL_VALUE
 90
4
  1
SAE 6
304
ACVALUE_END
170
5
140
0.125
171
1
172
0
173
0
174
0
175
1
176
1
 91
33
178
0
145
0.0
301
CELL_VALUE
 90
4
  1
K66
304
ACVALUE_END
170
5
140
0.125
171
1
172
0
173
0
174
0
175
1
176
1
 91
33
178
0
145
0.0
301
CELL_VALUE
 90
4
  1
Gage Port
304
ACVALUE_END
170
5
140
0.125
171
1
172
0
173
0
174
0
175
1
176
1
 91
33
178
0
145
0.0
301
CELL_VALUE
 90
4
  1
1/4" NPTF
304
ACVALUE_END
170
5
140
0.125
  0
MTEXT
  5
29B
100
AcDbEntity
  8
0
100
AcDbMText
 62
2
  6
CONTINUOUS
  7
STANDARD
 71
1
 72
1
 10
0.52125
 20
5.75995
 30
0.0
 11
1.0
 21
0.0
 31
0.0
 44
0.6
  3
Notes\P \P1. Important: Carefully consider\P   the maximum system pressure. The\P   pressure rating of the manifold is\P   dependent on the manifold material,\P   with the port type/size a secondary\P   consideration. Manifolds\P   constructed of alu
  1
minum are not\P   rated for pressures higher than\P   3000 psi (210 bar), regardless of\P   the port type/size specified.
 40
0.1
 41
3.04
  0
LINE
  5
29C
100
AcDbEntity
  8
0
100
AcDbLine
 62
7
  6
CONTINUOUS
 10
0.30125
 20
0.30125
 11
0.30125
 21
16.69875
  0
LINE
  5
29D
100
AcDbEntity
  8
0
100
AcDbLine
 62
7
  6
CONTINUOUS
 10
0.30125
 20
0.30125
 11
21.69875
 21
0.30125
  0
LINE
  5
29E
100
AcDbEntity
  8
0
100
AcDbLine
 62
7
  6
CONTINUOUS
 10
0.30125
 20
16.69875
 11
21.69875
 21
16.69875
  0
LINE
  5
29F
100
AcDbEntity
  8
0
100
AcDbLine
 62
7
  6
CONTINUOUS
 10
21.69875
 20
0.30125
 11
21.69875
 21
16.69875
  0
LINE
  5
2A0
100
AcDbEntity
  8
0
100
AcDbLine
 62
7
  6
CONTINUOUS
 10
8.3524102627
 20
4.9249580107
 11
12.2644100909
 21
4.6536599011
  0
LINE
  5
2A1
100
AcDbEntity
  8
0
100
AcDbLine
 62
4
  6
CONTINUOUS
 10
8.751093953
 20
5.4225846213
 11
9.7396707997
 21
4.9859604565
  0
LINE
  5
2A2
100
AcDbEntity
  8
0
100
AcDbLine
 62
7
  6
CONTINUOUS
 10
9.7355899091
 20
12.3463400989
 11
8.3524102627
 21
11.0102910768
  0
LINE
  5
2A3
100
AcDbEntity
  8
0
100
AcDbLine
 62
7
  6
CONTINUOUS
 10
8.3524102627
 20
4.9249580107
 11
8.3524102627
 21
11.0102910768
  0
LINE
  5
2A4
100
AcDbEntity
  8
0
100
AcDbLine
 62
4
  6
CONTINUOUS
 10
8.3797942615
 20
5.9827761792
 11
8.3797942615
 21
7.2328774577
  0
LINE
  5
2A5
100
AcDbEntity
  8
0
100
AcDbLine
 62
7
  6
CONTINUOUS
 10
12.2644100909
 20
10.7389929673
 11
13.6475897373
 21
12.0750419893
  0
LINE
  5
2A6
100
AcDbEntity
  8
0
100
AcDbLine
 62
7
  6
CONTINUOUS
 10
10.7248684881
 20
6.9467431258
 11
10.7248684881
 21
6.9276726989
  0
LINE
  5
2A7
100
AcDbEntity
  8
0
100
AcDbLine
 62
4
  6
CONTINUOUS
 10
12.3188591036
 20
10.243906758
 11
12.3241001852
 21
10.2489692543
  0
LINE
  5
2A8
100
AcDbEntity
  8
0
100
AcDbLine
 62
4
  6
CONTINUOUS
 10
12.3188591036
 20
10.1787067552
 11
12.3241001852
 21
10.1837692515
  0
LINE
  5
2A9
100
AcDbEntity
  8
0
100
AcDbLine
 62
4
  6
CONTINUOUS
 10
11.8657264006
 20
7.5255690795
 11
10.8771495539
 21
7.9621932443
  0
LINE
  5
2AA
100
AcDbEntity
  8
0
100
AcDbLine
 62
4
  6
CONTINUOUS
 10
12.3241001852
 20
10.092489255
 11
12.3188591036
 21
10.0874267586
  0
LINE
  5
2AB
100
AcDbEntity
  8
0
100
AcDbLine
 62
4
  6
CONTINUOUS
 10
13.1494041084
 20
9.3944183592
 11
13.1374244991
 21
9.3902983727
  0
LINE
  5
2AC
100
AcDbEntity
  8
0
100
AcDbLine
 62
4
  6
CONTINUOUS
 10
9.7396707997
 20
8.0410776639
 11
8.751093953
 21
7.7415695734
  0
LINE
  5
2AD
100
AcDbEntity
  8
0
100
AcDbLine
 62
4
  6
CONTINUOUS
 10
12.3136180221
 20
10.2258042648
 11
12.3188591036
 21
10.243906758
  0
LINE
  5
2AE
100
AcDbEntity
  8
0
100
AcDbLine
 62
4
  6
CONTINUOUS
 10
12.3293412667
 20
10.201871754
 11
12.3241001852
 21
10.1837692515
  0
LINE
  5
2AF
100
AcDbEntity
  8
0
100
AcDbLine
 62
4
  6
CONTINUOUS
 10
12.3293412667
 20
10.1105917516
 11
12.3241001852
 21
10.092489255
  0
LINE
  5
2B0
100
AcDbEntity
  8
0
100
AcDbLine
 62
4
  6
CONTINUOUS
 10
12.7660564355
 20
9.1284529177
 11
12.7780360504
 21
9.1400243378
  0
LINE
  5
2B1
100
AcDbEntity
  8
0
100
AcDbLine
 62
4
  6
CONTINUOUS
 10
13.091502637
 20
9.4428098274
 11
13.0925009344
 21
9.4437741087
  0
LINE
  5
2B2
100
AcDbEntity
  8
0
100
AcDbLine
 62
4
  6
CONTINUOUS
 10
13.5888313338
 20
9.897112592
 11
13.5940724153
 21
9.9021750883
  0
LINE
  5
2B3
100
AcDbEntity
  8
0
100
AcDbLine
 62
4
  6
CONTINUOUS
 10
13.0196249615
 20
9.3286727516
 11
13.0046504399
 21
9.3142084736
  0
LINE
  5
2B4
100
AcDbEntity
  8
0
100
AcDbLine
 62
4
  6
CONTINUOUS
 10
12.8918423895
 20
9.2052442578
 11
12.9068169111
 21
9.2197085358
  0
LINE
  5
2B5
100
AcDbEntity
  8
0
100
AcDbLine
 62
4
  6
CONTINUOUS
 10
12.9537370706
 20
9.2650299324
 11
12.9657166799
 21
9.276601347
  0
LINE
  5
2B6
100
AcDbEntity
  8
0
100
AcDbLine
 62
4
  6
CONTINUOUS
 10
12.9776963091
 20
9.288172781
 11
12.9896759184
 21
9.2997441956
  0
LINE
  5
2B7
100
AcDbEntity
  8
0
100
AcDbLine
 62
4
  6
CONTINUOUS
 10
13.1104703483
 20
9.4164226621
 11
13.1224499975
 21
9.4279941154
  0
LINE
  5
2B8
100
AcDbEntity
  8
0
100
AcDbLine
 62
4
  6
CONTINUOUS
 10
13.1374244991
 20
9.442458374
 11
13.1494041084
 21
9.4540297887
  0
LINE
  5
2B9
100
AcDbEntity
  8
0
100
AcDbLine
 62
4
  6
CONTINUOUS
 10
13.0106402446
 20
9.2641084656
 11
13.0226198538
 21
9.2756798802
  0
LINE
  5
2BA
100
AcDbEntity
  8
0
100
AcDbLine
 62
4
  6
CONTINUOUS
 10
13.1224499975
 20
9.3162226846
 11
13.1104703483
 21
9.3046512313
  0
LINE
  5
2BB
100
AcDbEntity
  8
0
100
AcDbLine
 62
4
  6
CONTINUOUS
 10
13.0735332231
 20
9.268972706
 11
13.0675434185
 21
9.2631869987
  0
LINE
  5
2BC
100
AcDbEntity
  8
0
100
AcDbLine
 62
4
  6
CONTINUOUS
 10
13.0226198538
 20
9.2197941648
 11
13.0106402446
 21
9.2082227502
  0
LINE
  5
2BD
100
AcDbEntity
  8
0
100
AcDbLine
 62
4
  6
CONTINUOUS
 10
12.9657166799
 20
9.1648299163
 11
12.9537370706
 21
9.1532585016
  0
LINE
  5
2BE
100
AcDbEntity
  8
0
100
AcDbLine
 62
4
  6
CONTINUOUS
 10
12.7630615317
 20
8.9690800632
 11
12.7750411468
 21
8.9806514835
  0
LINE
  5
2BF
100
AcDbEntity
  8
0
100
AcDbLine
 62
4
  6
CONTINUOUS
 10
12.7990003753
 20
9.0037943225
 11
12.8079850898
 21
9.0124728907
  0
LINE
  5
2C0
100
AcDbEntity
  8
0
100
AcDbLine
 62
4
  6
CONTINUOUS
 10
13.0375943754
 20
9.2342584428
 11
13.0525688969
 21
9.2487227208
  0
LINE
  5
2C1
100
AcDbEntity
  8
0
100
AcDbLine
 62
4
  6
CONTINUOUS
 10
13.1374244991
 20
9.3306869433
 11
13.1494041084
 21
9.3422583579
  0
LINE
  5
2C2
100
AcDbEntity
  8
0
100
AcDbLine
 62
4
  6
CONTINUOUS
 10
13.5809697115
 20
9.7330388481
 11
13.6019340377
 21
9.7532888334
  0
LINE
  5
2C3
100
AcDbEntity
  8
0
100
AcDbLine
 62
4
  6
CONTINUOUS
 10
12.9217914326
 20
9.0851442402
 11
12.9277812373
 21
9.0909299475
  0
LINE
  5
2C4
100
AcDbEntity
  8
0
100
AcDbLine
 62
4
  6
CONTINUOUS
 10
12.7649333439
 20
7.1626747779
 11
12.7596922623
 21
7.1706522819
  0
LINE
  5
2C5
100
AcDbEntity
  8
0
100
AcDbLine
 62
4
  6
CONTINUOUS
 10
12.7701744254
 20
7.3242172735
 11
12.775415507
 21
7.316239773
  0
LINE
  5
2C6
100
AcDbEntity
  8
0
100
AcDbLine
 62
4
  6
CONTINUOUS
 10
12.2370260921
 20
6.9653775216
 11
12.2370260921
 21
5.7152762432
  0
LINE
  5
2C7
100
AcDbEntity
  8
0
100
AcDbLine
 62
7
  6
CONTINUOUS
 10
12.2644100909
 20
4.6536599011
 11
12.2644100909
 21
10.7389929673
  0
LINE
  5
2C8
100
AcDbEntity
  8
0
100
AcDbLine
 62
4
  6
CONTINUOUS
 10
12.3319618075
 20
10.217442999
 11
12.3293412667
 21
10.201871754
  0
LINE
  5
2C9
100
AcDbEntity
  8
0
100
AcDbLine
 62
4
  6
CONTINUOUS
 10
12.3345823482
 20
10.1417342474
 11
12.3293412667
 21
10.1105917516
  0
LINE
  5
2CA
100
AcDbEntity
  8
0
100
AcDbLine
 62
4
  6
CONTINUOUS
 10
12.9936691398
 20
8.8274550692
 11
12.9806912231
 21
8.8149193636
  0
LINE
  5
2CB
100
AcDbEntity
  8
0
100
AcDbLine
 62
4
  6
CONTINUOUS
 10
12.9607251994
 20
8.7956336644
 11
12.9477472802
 21
8.7830979564
  0
LINE
  5
2CC
100
AcDbEntity
  8
0
100
AcDbLine
 62
4
  6
CONTINUOUS
 10
12.951740485
 20
8.6975379497
 11
12.9607251994
 21
8.7062165179
  0
LINE
  5
2CD
100
AcDbEntity
  8
0
100
AcDbLine
 62
4
  6
CONTINUOUS
 10
12.9846844279
 20
8.7293593569
 11
12.9936691398
 21
8.7380379227
  0
LINE
  5
2CE
100
AcDbEntity
  8
0
100
AcDbLine
 62
4
  6
CONTINUOUS
 10
12.7820292572
 20
8.2564163411
 11
12.7980020774
 21
8.2420391869
  0
LINE
  5
2CF
100
AcDbEntity
  8
0
100
AcDbLine
 62
4
  6
CONTINUOUS
 10
12.3319618075
 20
10.2304829958
 11
12.3319618075
 21
10.217442999
  0
LINE
  5
2D0
100
AcDbEntity
  8
0
100
AcDbLine
 62
4
  6
CONTINUOUS
 10
12.3319618075
 20
6.5097364427
 11
12.3319618075
 21
6.3532564434
  0
LINE
  5
2D1
100
AcDbEntity
  8
0
100
AcDbLine
 62
4
  6
CONTINUOUS
 10
12.3345823482
 20
10.1547742489
 11
12.3345823482
 21
10.1417342474
  0
LINE
  5
2D2
100
AcDbEntity
  8
0
100
AcDbLine
 62
4
  6
CONTINUOUS
 10
12.7600666278
 20
9.100312923
 11
12.7660564355
 21
9.1284529177
  0
LINE
  5
2D3
100
AcDbEntity
  8
0
100
AcDbLine
 62
4
  6
CONTINUOUS
 10
12.947747266
 20
9.2480670783
 11
12.9537370706
 21
9.2650299324
  0
LINE
  5
2D4
100
AcDbEntity
  8
0
100
AcDbLine
 62
4
  6
CONTINUOUS
 10
12.8059884882
 20
8.3689763243
 11
12.8209630048
 21
8.3834405974
  0
LINE
  5
2D5
100
AcDbEntity
  8
0
100
AcDbLine
 62
4
  6
CONTINUOUS
 10
12.8798627761
 20
8.440333411
 11
12.9038220046
 21
8.46347625
  0
LINE
  5
2D6
100
AcDbEntity
  8
0
100
AcDbLine
 62
4
  6
CONTINUOUS
 10
12.9158016238
 20
8.4750476743
 11
12.9337710477
 21
8.4924048059
  0
LINE
  5
2D7
100
AcDbEntity
  8
0
100
AcDbLine
 62
4
  6
CONTINUOUS
 10
12.984684417
 20
8.5415833471
 11
12.9966640262
 21
8.5531547618
  0
LINE
  5
2D8
100
AcDbEntity
  8
0
100
AcDbLine
 62
4
  6
CONTINUOUS
 10
13.0196249473
 20
8.5753333098
 11
13.0286096642
 21
8.5840118804
  0
LINE
  5
2D9
100
AcDbEntity
  8
0
100
AcDbLine
 62
4
  6
CONTINUOUS
 10
13.0465790781
 20
8.6013690024
 11
13.0615535997
 21
8.6158332803
  0
LINE
  5
2DA
100
AcDbEntity
  8
0
100
AcDbLine
 62
4
  6
CONTINUOUS
 10
13.0845145407
 20
8.6380118476
 11
13.1024839546
 21
8.6553689696
  0
LINE
  5
2DB
100
AcDbEntity
  8
0
100
AcDbLine
 62
4
  6
CONTINUOUS
 10
13.09649415
 20
8.5825204094
 11
13.0845145407
 21
8.5709489948
  0
LINE
  5
2DC
100
AcDbEntity
  8
0
100
AcDbLine
 62
4
  6
CONTINUOUS
 10
12.927781243
 20
8.4195562457
 11
12.9158016238
 21
8.4079848214
  0
LINE
  5
2DD
100
AcDbEntity
  8
0
100
AcDbLine
 62
4
  6
CONTINUOUS
 10
12.8479171381
 20
8.2977048663
 11
12.8638899571
 21
8.3131334256
  0
LINE
  5
2DE
100
AcDbEntity
  8
0
100
AcDbLine
 62
4
  6
CONTINUOUS
 10
13.0615535997
 20
8.459353281
 11
13.0465790781
 21
8.444889003
  0
LINE
  5
2DF
100
AcDbEntity
  8
0
100
AcDbLine
 62
4
  6
CONTINUOUS
 10
13.0286096642
 20
8.4275318811
 11
13.0196249473
 21
8.4188533104
  0
LINE
  5
2E0
100
AcDbEntity
  8
0
100
AcDbLine
 62
4
  6
CONTINUOUS
 10
12.9966640262
 20
8.3966747624
 11
12.984684417
 21
8.3851033478
  0
LINE
  5
2E1
100
AcDbEntity
  8
0
100
AcDbLine
 62
4
  6
CONTINUOUS
 10
12.8209630048
 20
8.226960598
 11
12.8059884882
 21
8.2124963249
  0
LINE
  5
2E2
100
AcDbEntity
  8
0
100
AcDbLine
 62
4
  6
CONTINUOUS
 10
12.9158016238
 20
8.3185676749
 11
12.9337710477
 21
8.3359248066
  0
LINE
  5
2E3
100
AcDbEntity
  8
0
100
AcDbLine
 62
4
  6
CONTINUOUS
 10
13.0845145407
 20
8.4815318483
 11
13.1024839546
 21
8.4988889702
  0
LINE
  5
2E4
100
AcDbEntity
  8
0
100
AcDbLine
 62
4
  6
CONTINUOUS
 10
13.1144635638
 20
8.6073289595
 11
13.1304363828
 21
8.5929518017
  0
LINE
  5
2E5
100
AcDbEntity
  8
0
100
AcDbLine
 62
4
  6
CONTINUOUS
 10
12.7596922623
 20
7.1706522819
 11
12.7544511808
 21
7.1916697851
  0
LINE
  5
2E6
100
AcDbEntity
  8
0
100
AcDbLine
 62
4
  6
CONTINUOUS
 10
12.775415507
 20
7.316239773
 11
12.7780360477
 21
7.305731015
  0
LINE
  5
2E7
100
AcDbEntity
  8
0
100
AcDbLine
 62
4
  6
CONTINUOUS
 10
12.8559035476
 20
8.4171905721
 11
12.8678831668
 21
8.272281997
  0
LINE
  5
2E8
100
AcDbEntity
  8
0
100
AcDbLine
 62
4
  6
CONTINUOUS
 10
12.7544511808
 20
7.1916697851
 11
12.75183064
 21
7.2282585367
  0
LINE
  5
2E9
100
AcDbEntity
  8
0
100
AcDbLine
 62
4
  6
CONTINUOUS
 10
12.7600666278
 20
9.0779586388
 11
12.7600666278
 21
9.100312923
  0
LINE
  5
2EA
100
AcDbEntity
  8
0
100
AcDbLine
 62
4
  6
CONTINUOUS
 10
12.7780360477
 20
7.2535710183
 11
12.7780360477
 21
7.2014110193
  0
LINE
  5
2EB
100
AcDbEntity
  8
0
100
AcDbLine
 62
4
  6
CONTINUOUS
 10
12.781030954
 20
9.0087914799
 11
12.781030954
 21
9.0311457665
  0
LINE
  5
2EC
100
AcDbEntity
  8
0
100
AcDbLine
 62
4
  6
CONTINUOUS
 10
12.7930105682
 20
9.1544886121
 11
12.7930105682
 21
9.0203628994
  0
LINE
  5
2ED
100
AcDbEntity
  8
0
100
AcDbLine
 62
4
  6
CONTINUOUS
 10
12.8059884882
 20
8.2124963249
 11
12.8059884882
 21
8.3689763243
  0
LINE
  5
2EE
100
AcDbEntity
  8
0
100
AcDbLine
 62
4
  6
CONTINUOUS
 10
12.8139748944
 20
9.0406128847
 11
12.8139748944
 21
9.1747385974
  0
LINE
  5
2EF
100
AcDbEntity
  8
0
100
AcDbLine
 62
4
  6
CONTINUOUS
 10
12.8259545086
 20
9.0298300175
 11
12.8259545086
 21
9.1863100169
  0
LINE
  5
2F0
100
AcDbEntity
  8
0
100
AcDbLine
 62
4
  6
CONTINUOUS
 10
12.8269528119
 20
8.3668720228
 11
12.8269528119
 21
8.2551005944
  0
LINE
  5
2F1
100
AcDbEntity
  8
0
100
AcDbLine
 62
4
  6
CONTINUOUS
 10
12.8469188348
 20
9.0500800028
 11
12.8469188348
 21
9.2065600022
  0
LINE
  5
2F2
100
AcDbEntity
  8
0
100
AcDbLine
 62
4
  6
CONTINUOUS
 10
12.8918423953
 20
8.295424836
 11
12.8918423953
 21
8.4519048353
  0
LINE
  5
2F3
100
AcDbEntity
  8
0
100
AcDbLine
 62
4
  6
CONTINUOUS
 10
12.8918423895
 20
9.0934728271
 11
12.8918423895
 21
9.2499528264
  0
LINE
  5
2F4
100
AcDbEntity
  8
0
100
AcDbLine
 62
4
  6
CONTINUOUS
 10
12.75183064
 20
7.2282585367
 11
12.7544511808
 21
7.2699097847
  0
LINE
  5
2F5
100
AcDbEntity
  8
0
100
AcDbLine
 62
4
  6
CONTINUOUS
 10
12.8439239333
 20
8.2491391532
 11
12.8559035476
 21
8.4171905721
  0
LINE
  5
2F6
100
AcDbEntity
  8
0
100
AcDbLine
 62
4
  6
CONTINUOUS
 10
12.9277812373
 20
9.0909299475
 11
12.9397608465
 21
9.2515299358
  0
LINE
  5
2F7
100
AcDbEntity
  8
0
100
AcDbLine
 62
4
  6
CONTINUOUS
 10
12.951740485
 20
8.820486518
 11
12.9457506778
 21
8.7699922397
  0
LINE
  5
2F8
100
AcDbEntity
  8
0
100
AcDbLine
 62
4
  6
CONTINUOUS
 10
12.9128067374
 20
8.7120908365
 11
12.9337710636
 21
8.8366608199
  0
LINE
  5
2F9
100
AcDbEntity
  8
0
100
AcDbLine
 62
4
  6
CONTINUOUS
 10
12.7750411468
 20
8.9806514835
 11
12.781030954
 21
9.0087914799
  0
LINE
  5
2FA
100
AcDbEntity
  8
0
100
AcDbLine
 62
4
  6
CONTINUOUS
 10
12.8079850898
 20
9.0124728907
 11
12.8139748944
 21
9.0406128847
  0
LINE
  5
2FB
100
AcDbEntity
  8
0
100
AcDbLine
 62
4
  6
CONTINUOUS
 10
12.8269528119
 20
8.2551005944
 11
12.8209630048
 21
8.226960598
  0
LINE
  5
2FC
100
AcDbEntity
  8
0
100
AcDbLine
 62
4
  6
CONTINUOUS
 10
12.9607251994
 20
8.8626965173
 11
12.951740485
 21
8.820486518
  0
LINE
  5
2FD
100
AcDbEntity
  8
0
100
AcDbLine
 62
4
  6
CONTINUOUS
 10
12.9936691398
 20
8.8945179221
 11
12.9846844279
 21
8.8523079252
  0
LINE
  5
2FE
100
AcDbEntity
  8
0
100
AcDbLine
 62
4
  6
CONTINUOUS
 10
13.107475456
 20
9.4023526713
 11
13.1104703483
 21
9.4164226621
  0
LINE
  5
2FF
100
AcDbEntity
  8
0
100
AcDbLine
 62
4
  6
CONTINUOUS
 10
12.9607251994
 20
8.7062165179
 11
12.966715004
 21
8.7343565119
  0
LINE
  5
300
100
AcDbEntity
  8
0
100
AcDbLine
 62
4
  6
CONTINUOUS
 10
13.1344296068
 20
9.4283883832
 11
13.1374244991
 21
9.442458374
  0
LINE
  5
301
100
AcDbEntity
  8
0
100
AcDbLine
 62
4
  6
CONTINUOUS
 10
12.9936691398
 20
8.7380379227
 11
12.9996589444
 21
8.7661779167
  0
LINE
  5
302
100
AcDbEntity
  8
0
100
AcDbLine
 62
4
  6
CONTINUOUS
 10
13.0046504399
 20
9.2471456161
 11
13.0106402446
 21
9.2641084656
  0
LINE
  5
303
100
AcDbEntity
  8
0
100
AcDbLine
 62
4
  6
CONTINUOUS
 10
12.7980020774
 20
8.3016506186
 11
12.7820292572
 21
8.2564163411
  0
LINE
  5
304
100
AcDbEntity
  8
0
100
AcDbLine
 62
4
  6
CONTINUOUS
 10
12.9537370706
 20
9.1532585016
 11
12.947747266
 21
9.1586499376
  0
LINE
  5
305
100
AcDbEntity
  8
0
100
AcDbLine
 62
4
  6
CONTINUOUS
 10
13.0106402446
 20
9.2082227502
 11
13.0046504399
 21
9.2136141862
  0
LINE
  5
306
100
AcDbEntity
  8
0
100
AcDbLine
 62
4
  6
CONTINUOUS
 10
12.781030954
 20
9.0311457665
 11
12.7600666278
 21
9.0779586388
  0
LINE
  5
307
100
AcDbEntity
  8
0
100
AcDbLine
 62
4
  6
CONTINUOUS
 10
12.8209630048
 20
8.3834405974
 11
12.8269528119
 21
8.3668720228
  0
LINE
  5
308
100
AcDbEntity
  8
0
100
AcDbLine
 62
4
  6
CONTINUOUS
 10
12.7600666278
 20
8.9773643513
 11
12.7630615317
 21
8.9690800632
  0
LINE
  5
309
100
AcDbEntity
  8
0
100
AcDbLine
 62
4
  6
CONTINUOUS
 10
12.984684417
 20
8.3851033478
 11
12.9786946124
 21
8.4016719271
  0
LINE
  5
30A
100
AcDbEntity
  8
0
100
AcDbLine
 62
4
  6
CONTINUOUS
 10
12.7930105682
 20
9.0203628994
 11
12.7990003753
 21
9.0037943225
  0
LINE
  5
30B
100
AcDbEntity
  8
0
100
AcDbLine
 62
4
  6
CONTINUOUS
 10
13.0196249473
 20
8.4188533104
 11
13.0136351427
 21
8.4354218897
  0
LINE
  5
30C
100
AcDbEntity
  8
0
100
AcDbLine
 62
4
  6
CONTINUOUS
 10
12.7780360504
 20
9.1400243378
 11
12.781030954
 21
9.1317400458
  0
LINE
  5
30D
100
AcDbEntity
  8
0
100
AcDbLine
 62
4
  6
CONTINUOUS
 10
12.9457506778
 20
8.7141065266
 11
12.951740485
 21
8.6975379497
  0
LINE
  5
30E
100
AcDbEntity
  8
0
100
AcDbLine
 62
4
  6
CONTINUOUS
 10
12.3136180221
 20
10.0954042627
 11
12.3109974813
 21
10.1059130148
  0
LINE
  5
30F
100
AcDbEntity
  8
0
100
AcDbLine
 62
4
  6
CONTINUOUS
 10
12.3293412667
 20
10.175791751
 11
12.3345823482
 21
10.1547742489
  0
LINE
  5
310
100
AcDbEntity
  8
0
100
AcDbLine
 62
4
  6
CONTINUOUS
 10
12.3293412667
 20
10.2409917538
 11
12.3319618075
 21
10.2304829958
  0
LINE
  5
311
100
AcDbEntity
  8
0
100
AcDbLine
 62
4
  6
CONTINUOUS
 10
12.8259545086
 20
9.1863100169
 11
12.8469188348
 21
9.0500800028
  0
LINE
  5
312
100
AcDbEntity
  8
0
100
AcDbLine
 62
4
  6
CONTINUOUS
 10
12.9217914326
 20
9.2341728138
 11
12.9307761496
 21
9.1310799536
  0
LINE
  5
313
100
AcDbEntity
  8
0
100
AcDbLine
 62
4
  6
CONTINUOUS
 10
12.9098118134
 20
9.2114242427
 11
12.9098118134
 21
9.1108299587
  0
LINE
  5
314
100
AcDbEntity
  8
0
100
AcDbLine
 62
4
  6
CONTINUOUS
 10
12.9128067374
 20
8.6599308352
 11
12.9128067374
 21
8.8164108346
  0
LINE
  5
315
100
AcDbEntity
  8
0
100
AcDbLine
 62
4
  6
CONTINUOUS
 10
12.9158016238
 20
8.3185676749
 11
12.9158016238
 21
8.4750476743
  0
LINE
  5
316
100
AcDbEntity
  8
0
100
AcDbLine
 62
4
  6
CONTINUOUS
 10
12.9457506778
 20
8.7699922397
 11
12.9457506778
 21
8.7141065266
  0
LINE
  5
317
100
AcDbEntity
  8
0
100
AcDbLine
 62
4
  6
CONTINUOUS
 10
12.947747266
 20
9.1586499376
 11
12.947747266
 21
9.2480670783
  0
LINE
  5
318
100
AcDbEntity
  8
0
100
AcDbLine
 62
4
  6
CONTINUOUS
 10
12.9657166799
 20
9.3213099156
 11
12.9657166799
 21
9.1648299163
  0
LINE
  5
319
100
AcDbEntity
  8
0
100
AcDbLine
 62
4
  6
CONTINUOUS
 10
12.966715004
 20
8.7343565119
 11
12.966715004
 21
8.7790650828
  0
LINE
  5
31A
100
AcDbEntity
  8
0
100
AcDbLine
 62
4
  6
CONTINUOUS
 10
12.9776963091
 20
9.1764013502
 11
12.9776963091
 21
9.288172781
  0
LINE
  5
31B
100
AcDbEntity
  8
0
100
AcDbLine
 62
4
  6
CONTINUOUS
 10
12.9786946183
 20
8.8018136444
 11
12.9786946183
 21
8.7459279314
  0
LINE
  5
31C
100
AcDbEntity
  8
0
100
AcDbLine
 62
4
  6
CONTINUOUS
 10
12.9786946124
 20
8.4016719271
 11
12.9786946124
 21
8.5134433555
  0
LINE
  5
31D
100
AcDbEntity
  8
0
100
AcDbLine
 62
4
  6
CONTINUOUS
 10
12.9916725132
 20
9.2904956115
 11
12.9916725132
 21
9.2681413272
  0
LINE
  5
31E
100
AcDbEntity
  8
0
100
AcDbLine
 62
4
  6
CONTINUOUS
 10
12.9996589444
 20
8.7661779167
 11
12.9996589444
 21
8.8108864876
  0
LINE
  5
31F
100
AcDbEntity
  8
0
100
AcDbLine
 62
4
  6
CONTINUOUS
 10
13.0046504399
 20
9.2136141862
 11
13.0046504399
 21
9.2471456161
  0
LINE
  5
320
100
AcDbEntity
  8
0
100
AcDbLine
 62
4
  6
CONTINUOUS
 10
13.0136351427
 20
8.4354218897
 11
13.0136351427
 21
8.5471933181
  0
LINE
  5
321
100
AcDbEntity
  8
0
100
AcDbLine
 62
4
  6
CONTINUOUS
 10
13.0226198538
 20
9.2197941648
 11
13.0226198538
 21
9.3092113113
  0
LINE
  5
322
100
AcDbEntity
  8
0
100
AcDbLine
 62
4
  6
CONTINUOUS
 10
13.0345994631
 20
9.3431370102
 11
13.0345994631
 21
9.2425427228
  0
LINE
  5
323
100
AcDbEntity
  8
0
100
AcDbLine
 62
4
  6
CONTINUOUS
 10
13.0345994689
 20
8.5674433034
 11
13.0345994689
 21
8.455671875
  0
LINE
  5
324
100
AcDbEntity
  8
0
100
AcDbLine
 62
4
  6
CONTINUOUS
 10
13.0465790781
 20
8.444889003
 11
13.0465790781
 21
8.6013690024
  0
LINE
  5
325
100
AcDbEntity
  8
0
100
AcDbLine
 62
4
  6
CONTINUOUS
 10
13.0525688969
 20
9.2487227208
 11
13.0525688969
 21
9.3604941515
  0
LINE
  5
326
100
AcDbEntity
  8
0
100
AcDbLine
 62
4
  6
CONTINUOUS
 10
13.0645485062
 20
9.2714712787
 11
13.0645485062
 21
9.4167741347
  0
LINE
  5
327
100
AcDbEntity
  8
0
100
AcDbLine
 62
4
  6
CONTINUOUS
 10
13.0675434043
 20
8.5992647034
 11
13.0675434043
 21
8.4874932749
  0
LINE
  5
328
100
AcDbEntity
  8
0
100
AcDbLine
 62
4
  6
CONTINUOUS
 10
13.0845145407
 20
8.4815318483
 11
13.0845145407
 21
8.6380118476
  0
LINE
  5
329
100
AcDbEntity
  8
0
100
AcDbLine
 62
4
  6
CONTINUOUS
 10
13.091502637
 20
9.286329828
 11
13.091502637
 21
9.3981012588
  0
LINE
  5
32A
100
AcDbEntity
  8
0
100
AcDbLine
 62
4
  6
CONTINUOUS
 10
13.091502637
 20
9.4316326806
 11
13.091502637
 21
9.4428098274
  0
LINE
  5
32B
100
AcDbEntity
  8
0
100
AcDbLine
 62
4
  6
CONTINUOUS
 10
13.107475456
 20
9.3129355306
 11
13.107475456
 21
9.4023526713
  0
LINE
  5
32C
100
AcDbEntity
  8
0
100
AcDbLine
 62
4
  6
CONTINUOUS
 10
13.1344296068
 20
9.3948569568
 11
13.1344296068
 21
9.4283883832
  0
LINE
  5
32D
100
AcDbEntity
  8
0
100
AcDbLine
 62
4
  6
CONTINUOUS
 10
13.1523990007
 20
9.3563283452
 11
13.1523990007
 21
9.3898597752
  0
LINE
  5
32E
100
AcDbEntity
  8
0
100
AcDbLine
 62
4
  6
CONTINUOUS
 10
13.0925009344
 20
9.4437741087
 11
13.091502637
 21
9.4316326806
  0
LINE
  5
32F
100
AcDbEntity
  8
0
100
AcDbLine
 62
4
  6
CONTINUOUS
 10
12.9846844279
 20
8.8523079252
 11
12.9786946183
 21
8.8018136444
  0
LINE
  5
330
100
AcDbEntity
  8
0
100
AcDbLine
 62
4
  6
CONTINUOUS
 10
12.7544511808
 20
7.2699097847
 11
12.7596922623
 21
7.3010522841
  0
LINE
  5
331
100
AcDbEntity
  8
0
100
AcDbLine
 62
4
  6
CONTINUOUS
 10
12.7780360477
 20
7.2014110193
 11
12.775415507
 21
7.1858397708
  0
LINE
  5
332
100
AcDbEntity
  8
0
100
AcDbLine
 62
4
  6
CONTINUOUS
 10
13.1494041084
 20
9.3422583579
 11
13.1523990007
 21
9.3563283452
  0
LINE
  5
333
100
AcDbEntity
  8
0
100
AcDbLine
 62
4
  6
CONTINUOUS
 10
12.9786946124
 20
8.5134433555
 11
12.984684417
 21
8.5415833471
  0
LINE
  5
334
100
AcDbEntity
  8
0
100
AcDbLine
 62
4
  6
CONTINUOUS
 10
13.0136351427
 20
8.5471933181
 11
13.0196249473
 21
8.5753333098
  0
LINE
  5
335
100
AcDbEntity
  8
0
100
AcDbLine
 62
4
  6
CONTINUOUS
 10
13.0345994689
 20
8.455671875
 11
13.0286096642
 21
8.4275318811
  0
LINE
  5
336
100
AcDbEntity
  8
0
100
AcDbLine
 62
4
  6
CONTINUOUS
 10
13.0675434043
 20
8.4874932749
 11
13.0615535997
 21
8.459353281
  0
LINE
  5
337
100
AcDbEntity
  8
0
100
AcDbLine
 62
4
  6
CONTINUOUS
 10
12.7596922623
 20
7.3010522841
 11
12.7649333439
 21
7.3191547772
  0
LINE
  5
338
100
AcDbEntity
  8
0
100
AcDbLine
 62
4
  6
CONTINUOUS
 10
12.775415507
 20
7.1858397708
 11
12.7701744254
 21
7.1677372742
  0
LINE
  5
339
100
AcDbEntity
  8
0
100
AcDbLine
 62
4
  6
CONTINUOUS
 10
13.5835902522
 20
9.8790100988
 11
13.5888313338
 21
9.897112592
  0
LINE
  5
33A
100
AcDbEntity
  8
0
100
AcDbLine
 62
4
  6
CONTINUOUS
 10
13.5993134969
 20
9.8420375818
 11
13.5888313338
 21
9.8058325908
  0
LINE
  5
33B
100
AcDbEntity
  8
0
100
AcDbLine
 62
4
  6
CONTINUOUS
 10
13.1304363828
 20
8.5929518017
 11
13.1144635638
 21
8.5477175277
  0
LINE
  5
33C
100
AcDbEntity
  8
0
100
AcDbLine
 62
4
  6
CONTINUOUS
 10
12.7649333439
 20
7.3191547772
 11
12.7701744254
 21
7.3242172735
  0
LINE
  5
33D
100
AcDbEntity
  8
0
100
AcDbLine
 62
4
  6
CONTINUOUS
 10
12.7675538846
 20
7.2434460257
 11
12.7780360477
 21
7.2535710183
  0
LINE
  5
33E
100
AcDbEntity
  8
0
100
AcDbLine
 62
4
  6
CONTINUOUS
 10
12.7701744254
 20
7.1677372742
 11
12.7649333439
 21
7.1626747779
  0
LINE
  5
33F
100
AcDbEntity
  8
0
100
AcDbLine
 62
4
  6
CONTINUOUS
 10
12.3188591036
 20
10.0874267586
 11
12.3136180221
 21
10.0954042627
  0
LINE
  5
340
100
AcDbEntity
  8
0
100
AcDbLine
 62
4
  6
CONTINUOUS
 10
12.3241001852
 20
10.1837692515
 11
12.3293412667
 21
10.175791751
  0
LINE
  5
341
100
AcDbEntity
  8
0
100
AcDbLine
 62
4
  6
CONTINUOUS
 10
12.3241001852
 20
10.2489692543
 11
12.3293412667
 21
10.2409917538
  0
LINE
  5
342
100
AcDbEntity
  8
0
100
AcDbLine
 62
4
  6
CONTINUOUS
 10
13.0286096642
 20
8.5840118804
 11
13.0345994689
 21
8.5674433034
  0
LINE
  5
343
100
AcDbEntity
  8
0
100
AcDbLine
 62
4
  6
CONTINUOUS
 10
12.9786946183
 20
8.7459279314
 11
12.9846844279
 21
8.7293593569
  0
LINE
  5
344
100
AcDbEntity
  8
0
100
AcDbLine
 62
4
  6
CONTINUOUS
 10
12.966715004
 20
8.7790650828
 11
12.9607251994
 21
8.7956336644
  0
LINE
  5
345
100
AcDbEntity
  8
0
100
AcDbLine
 62
4
  6
CONTINUOUS
 10
13.0615535997
 20
8.6158332803
 11
13.0675434043
 21
8.5992647034
  0
LINE
  5
346
100
AcDbEntity
  8
0
100
AcDbLine
 62
4
  6
CONTINUOUS
 10
12.9996589444
 20
8.8108864876
 11
12.9936691398
 21
8.8274550692
  0
LINE
  5
347
100
AcDbEntity
  8
0
100
AcDbLine
 62
4
  6
CONTINUOUS
 10
12.9068169111
 20
9.2197085358
 11
12.9098118134
 21
9.2114242427
  0
LINE
  5
348
100
AcDbEntity
  8
0
100
AcDbLine
 62
4
  6
CONTINUOUS
 10
13.0345994631
 20
9.2425427228
 11
13.0375943754
 21
9.2342584428
  0
LINE
  5
349
100
AcDbEntity
  8
0
100
AcDbLine
 62
4
  6
CONTINUOUS
 10
13.0675434185
 20
9.2631869987
 11
13.0645485062
 21
9.2714712787
  0
LINE
  5
34A
100
AcDbEntity
  8
0
100
AcDbLine
 62
4
  6
CONTINUOUS
 10
12.9896759184
 20
9.2997441956
 11
12.9916725132
 21
9.2904956115
  0
LINE
  5
34B
100
AcDbEntity
  8
0
100
AcDbLine
 62
4
  6
CONTINUOUS
 10
12.9217914487
 20
8.7580265469
 11
12.9337710636
 21
8.6801808205
  0
LINE
  5
34C
100
AcDbEntity
  8
0
100
AcDbLine
 62
4
  6
CONTINUOUS
 10
13.0226198538
 20
9.3092113113
 11
13.0196249615
 21
9.3286727516
  0
LINE
  5
34D
100
AcDbEntity
  8
0
100
AcDbLine
 62
4
  6
CONTINUOUS
 10
13.5835902522
 20
9.7746900961
 11
13.5809697115
 21
9.7330388481
  0
LINE
  5
34E
100
AcDbEntity
  8
0
100
AcDbLine
 62
4
  6
CONTINUOUS
 10
13.5809697115
 20
9.8634388445
 11
13.5835902522
 21
9.8790100988
  0
LINE
  5
34F
100
AcDbEntity
  8
0
100
AcDbLine
 62
4
  6
CONTINUOUS
 10
13.5888313338
 20
9.8058325908
 11
13.5835902522
 21
9.7746900961
  0
LINE
  5
350
100
AcDbEntity
  8
0
100
AcDbLine
 62
4
  6
CONTINUOUS
 10
13.6019340377
 20
9.8576088361
 11
13.5993134969
 21
9.8420375818
  0
LINE
  5
351
100
AcDbEntity
  8
0
100
AcDbLine
 62
7
  6
CONTINUOUS
 10
12.6576076513
 20
6.9616408192
 11
12.6582242779
 21
6.9622253843
  0
LINE
  5
352
100
AcDbEntity
  8
0
100
AcDbLine
 62
7
  6
CONTINUOUS
 10
8.3524102627
 20
11.0102910768
 11
12.2644100909
 21
10.7389929673
  0
LINE
  5
353
100
AcDbEntity
  8
0
100
AcDbLine
 62
4
  6
CONTINUOUS
 10
13.1374244991
 20
9.3902983727
 11
13.1344296068
 21
9.3948569568
  0
LINE
  5
354
100
AcDbEntity
  8
0
100
AcDbLine
 62
4
  6
CONTINUOUS
 10
13.1523990007
 20
9.3898597752
 11
13.1494041084
 21
9.3944183592
  0
LINE
  5
355
100
AcDbEntity
  8
0
100
AcDbLine
 62
4
  6
CONTINUOUS
 10
13.1104703483
 20
9.3046512313
 11
13.107475456
 21
9.3129355306
  0
LINE
  5
356
100
AcDbEntity
  8
0
100
AcDbLine
 62
4
  6
CONTINUOUS
 10
13.1344296068
 20
9.3389712426
 11
13.1374244991
 21
9.3306869433
  0
LINE
  5
357
100
AcDbEntity
  8
0
100
AcDbLine
 62
4
  6
CONTINUOUS
 10
13.1494041084
 20
9.4540297887
 11
13.1523990007
 21
9.4457454859
  0
LINE
  5
358
100
AcDbEntity
  8
0
100
AcDbLine
 62
4
  6
CONTINUOUS
 10
13.6019340377
 20
9.8836888298
 11
13.6019340377
 21
9.8576088361
  0
LINE
  5
359
100
AcDbEntity
  8
0
100
AcDbLine
 62
7
  6
CONTINUOUS
 10
13.6475897373
 20
5.9897089232
 11
13.6475897373
 21
12.0750419893
  0
LINE
  5
35A
100
AcDbEntity
  8
0
100
AcDbLine
 62
4
  6
CONTINUOUS
 10
13.5940724153
 20
9.9021750883
 11
13.5993134969
 21
9.8941975878
  0
LINE
  5
35B
100
AcDbEntity
  8
0
100
AcDbLine
 62
4
  6
CONTINUOUS
 10
13.5993134969
 20
9.8941975878
 11
13.6019340377
 21
9.8836888298
  0
LINE
  5
35C
100
AcDbEntity
  8
0
100
AcDbLine
 62
4
  6
CONTINUOUS
 10
10.8771495539
 20
4.907076037
 11
11.8657264006
 21
5.2065841274
  0
LINE
  5
35D
100
AcDbEntity
  8
0
100
AcDbLine
 62
7
  6
CONTINUOUS
 10
12.2644100909
 20
4.6536599011
 11
13.6475897373
 21
5.9897089232
  0
LINE
  5
35E
100
AcDbEntity
  8
0
100
AcDbLine
 62
7
  6
CONTINUOUS
 10
13.6475897373
 20
12.0750419893
 11
9.7355899091
 21
12.3463400989
  0
ARC
  5
35F
100
AcDbEntity
  8
0
100
AcDbCircle
 62
7
  6
CONTINUOUS
 10
11.1626313701
 20
8.0115326051
 40
1.2865352548
100
AcDbArc
 50
256.7118938964
 51
257.0347748029
  0
ARC
  5
360
100
AcDbEntity
  8
0
100
AcDbCircle
 62
7
  6
CONTINUOUS
 10
10.3556639768
 20
10.188640665
 40
0.3855149401
100
AcDbArc
 50
312.46728909
 51
313.3651277562
  0
ARC
  5
361
100
AcDbEntity
  8
0
100
AcDbCircle
 62
7
  6
CONTINUOUS
 10
10.297345549
 20
10.2346246864
 40
0.2644904449
100
AcDbArc
 50
85.9850835109
 51
98.6649042499
  0
ARC
  5
362
100
AcDbEntity
  8
0
100
AcDbCircle
 62
7
  6
CONTINUOUS
 10
10.3219582649
 20
10.2675598321
 40
0.2356580448
100
AcDbArc
 50
101.9492081896
 51
105.750308697
  0
ARC
  5
363
100
AcDbEntity
  8
0
100
AcDbCircle
 62
7
  6
CONTINUOUS
 10
10.3538069479
 20
10.2346141259
 40
0.2356198718
100
AcDbArc
 50
342.2621041246
 51
345.9211431599
  0
SPLINE
  5
364
100
AcDbEntity
  8
0
100
AcDbSpline
 62
7
  6
CONTINUOUS
 70
0
 71
3
 72
9
 73
5
 74
0
 42
0.0000001
 43
0.0000001
 44
0.0000000001
 40
0.0
 40
0.0
 40
0.0
 40
0.0
 40
0.5223055198
 40
1.0
 40
1.0
 40
1.0
 40
1.0
 10
10.8457660151
 20
6.805020902
 30
0.0
 10
10.8374177273
 20
6.8080369027
 30
0.0
 10
10.8215596149
 20
6.8141680647
 30
0.0
 10
10.8060570818
 20
6.8211613426
 30
0.0
 10
10.7987773287
 20
6.8247545217
 30
0.0
  0
SPLINE
  5
365
100
AcDbEntity
  8
0
100
AcDbSpline
 62
7
  6
CONTINUOUS
 70
0
 71
3
 72
20
 73
16
 74
0
 42
0.0000001
 43
0.0000001
 44
0.0000000001
 40
0.0
 40
0.0
 40
0.0
 40
0.0
 40
0.1528975359
 40
0.2978673989
 40
0.4348128375
 40
0.5002667037
 40
0.5637037031
 40
0.6251270572
 40
0.6845446437
 40
0.741968424
 40
0.7974159564
 40
0.8509099909
 40
0.9024797523
 40
0.9521617721
 40
1.0
 40
1.0
 40
1.0
 40
1.0
 10
9.895070786
 20
11.1082754653
 30
0.0
 10
9.8872800584
 20
11.111155163
 30
0.0
 10
9.8721813281
 20
11.1169823904
 30
0.0
 10
9.8504286591
 20
11.1261991449
 30
0.0
 10
9.8333267546
 20
11.1341872352
 30
0.0
 10
9.8204376418
 20
11.1407021425
 30
0.0
 10
9.8113135824
 20
11.145565747
 30
0.0
 10
9.8025902049
 20
11.1504783501
 30
0.0
 10
9.7942713485
 20
11.1554377557
 30
0.0
 10
9.7863607488
 20
11.1604418466
 30
0.0
 10
9.7788618723
 20
11.1654883443
 30
0.0
 10
9.7717780794
 20
11.1705750724
 30
0.0
 10
9.7651124865
 20
11.1756998699
 30
0.0
 10
9.7588681415
 20
11.180860336
 30
0.0
 10
9.7549143347
 20
11.1843887452
 30
0.0
 10
9.7530119277
 20
11.1861591297
 30
0.0
  0
SPLINE
  5
366
100
AcDbEntity
  8
0
100
AcDbSpline
 62
7
  6
CONTINUOUS
 70
0
 71
3
 72
41
 73
37
 74
0
 42
0.0000001
 43
0.0000001
 44
0.0000000001
 40
0.0
 40
0.0
 40
0.0
 40
0.0
 40
0.0311447266
 40
0.046777407
 40
0.0624475267
 40
0.0938924725
 40
0.1254748062
 40
0.1571823995
 40
0.1890004692
 40
0.2209120774
 40
0.2528984387
 40
0.2689157161
 40
0.284943993
 40
0.3170180755
 40
0.3491034266
 40
0.3811778877
 40
0.41321951
 40
0.4452069795
 40
0.4771200322
 40
0.5089398557
 40
0.54064947
 40
0.5722340812
 40
0.603681403
 40
0.6349819363
 40
0.6661292017
 40
0.6971199176
 40
0.7279541176
 40
0.758635199
 40
0.7891699006
 40
0.8195682022
 40
0.8498431466
 40
0.8800105832
 40
0.9100888354
 40
0.9400982997
 40
0.9700609844
 40
1.0
 40
1.0
 40
1.0
 40
1.0
 10
10.3084101768
 20
10.6503540319
 30
0.0
 10
10.3188545239
 20
10.649629714
 30
0.0
 10
10.3345091603
 20
10.6479688527
 30
0.0
 10
10.3552373304
 20
10.6446311934
 30
0.0
 10
10.3759325729
 20
10.6405335472
 30
0.0
 10
10.4015943922
 20
10.6340077146
 30
0.0
 10
10.4318506558
 20
10.623991039
 30
0.0
 10
10.4614476725
 20
10.611832562
 30
0.0
 10
10.4902269563
 20
10.5975973155
 30
0.0
 10
10.5180346639
 20
10.5813618978
 30
0.0
 10
10.5402675126
 20
10.5662424564
 30
0.0
 10
10.5574246793
 20
10.5532387815
 30
0.0
 10
10.5741503786
 20
10.5396378213
 30
0.0
 10
10.5941825155
 20
10.5215675087
 30
0.0
 10
10.6166877329
 20
10.4982955128
 30
0.0
 10
10.6375486112
 20
10.4735520781
 30
0.0
 10
10.6566531996
 20
10.4474696669
 30
0.0
 10
10.6738997982
 20
10.4201870994
 30
0.0
 10
10.6891963203
 20
10.3918497875
 30
0.0
 10
10.7024610945
 20
10.3626087114
 30
0.0
 10
10.7136232151
 20
10.3326196941
 30
0.0
 10
10.7226229412
 20
10.3020425639
 30
0.0
 10
10.7294120245
 20
10.2710403215
 30
0.0
 10
10.733953964
 20
10.2397782775
 30
0.0
 10
10.7362242056
 20
10.2084231825
 30
0.0
 10
10.7362102846
 20
10.1771423494
 30
0.0
 10
10.7339119057
 20
10.1461027705
 30
0.0
 10
10.7293409618
 20
10.1154702334
 30
0.0
 10
10.7225214909
 20
10.0854084402
 30
0.0
 10
10.7134895638
 20
10.0560781286
 30
0.0
 10
10.7022931324
 20
10.0276362199
 30
0.0
 10
10.6889917441
 20
10.0002349115
 30
0.0
 10
10.6736564328
 20
9.9740210441
 30
0.0
 10
10.6563685909
 20
9.9491345701
 30
0.0
 10
10.6372223769
 20
9.9257104785
 30
0.0
 10
10.6232813817
 20
9.9111469072
 30
0.0
 10
10.6160426957
 20
9.904154905
 30
0.0
  0
SPLINE
  5
367
100
AcDbEntity
  8
0
100
AcDbSpline
 62
7
  6
CONTINUOUS
 70
0
 71
3
 72
39
 73
35
 74
0
 42
0.0000001
 43
0.0000001
 44
0.0000000001
 40
0.0
 40
0.0
 40
0.0
 40
0.0
 40
0.0311450437
 40
0.0624431125
 40
0.0938883331
 40
0.1254709822
 40
0.157178873
 40
0.1889972474
 40
0.2209091591
 40
0.2528958248
 40
0.2849370022
 40
0.3170113907
 40
0.3490970489
 40
0.3811718181
 40
0.4132137492
 40
0.4452015278
 40
0.4771148901
 40
0.5089350229
 40
0.5406449458
 40
0.5722298665
 40
0.6036774985
 40
0.6349783412
 40
0.6661259148
 40
0.6971169386
 40
0.7279514454
 40
0.7586328312
 40
0.789167835
 40
0.8195664378
 40
0.8498416821
 40
0.8800094162
 40
0.9100879636
 40
0.9400977212
 40
0.9700606965
 40
1.0
 40
1.0
 40
1.0
 40
1.0
 10
10.3084101768
 20
7.1260768218
 30
0.0
 10
10.3243313968
 20
7.1249726814
 30
0.0
 10
10.3561830917
 20
7.1215936091
 30
0.0
 10
10.4035744705
 20
7.113081614
 30
0.0
 10
10.4504582436
 20
7.1011589106
 30
0.0
 10
10.4965812194
 20
7.0858895608
 30
0.0
 10
10.5416983345
 20
7.0673553761
 30
0.0
 10
10.5855689374
 20
7.0456555493
 30
0.0
 10
10.6279593324
 20
7.0209060481
 30
0.0
 10
10.6686436278
 20
6.993238996
 30
0.0
 10
10.7074050381
 20
6.962801999
 30
0.0
 10
10.7440370554
 20
6.9297574293
 30
0.0
 10
10.7783444751
 20
6.894281466
 30
0.0
 10
10.8101444162
 20
6.8565631764
 30
0.0
 10
10.8392673166
 20
6.8168035536
 30
0.0
 10
10.8655578844
 20
6.7752144863
 30
0.0
 10
10.8888758307
 20
6.7320175716
 30
0.0
 10
10.9090966074
 20
6.6874429618
 30
0.0
 10
10.9261121245
 20
6.6417281854
 30
0.0
 10
10.9398313641
 20
6.5951168995
 30
0.0
 10
10.9501807744
 20
6.5478575706
 30
0.0
 10
10.9571046656
 20
6.5002021837
 30
0.0
 10
10.9605656008
 20
6.4524049337
 30
0.0
 10
10.9605446181
 20
6.4047208719
 30
0.0
 10
10.9570412659
 20
6.357404554
 30
0.0
 10
10.9500736279
 20
6.3107087077
 30
0.0
 10
10.939678361
 20
6.2648828796
 30
0.0
 10
10.9259104944
 20
6.2201720821
 30
0.0
 10
10.9088431218
 20
6.1768155161
 30
0.0
 10
10.8885669584
 20
6.1350452099
 30
0.0
 10
10.8651903002
 20
6.0950850051
 30
0.0
 10
10.8388372523
 20
6.0571482167
 30
0.0
 10
10.809651303
 20
6.0214406576
 30
0.0
 10
10.788400068
 20
5.9992399479
 30
0.0
 10
10.7773655625
 20
5.9885813974
 30
0.0
  0
SPLINE
  5
368
100
AcDbEntity
  8
0
100
AcDbSpline
 62
7
  6
CONTINUOUS
 70
0
 71
3
 72
15
 73
11
 74
0
 42
0.0000001
 43
0.0000001
 44
0.0000000001
 40
0.0
 40
0.0
 40
0.0
 40
0.0
 40
0.1250390061
 40
0.2500344698
 40
0.3749972873
 40
0.4999572401
 40
0.624927315
 40
0.7499198909
 40
0.8749429024
 40
1.0
 40
1.0
 40
1.0
 40
1.0
 10
10.4612168065
 20
10.159863272
 30
0.0
 10
10.46536602
 20
10.1595755231
 30
0.0
 10
10.4736834244
 20
10.159260404
 30
0.0
 10
10.4861609022
 20
10.1595712746
 30
0.0
 10
10.4985922067
 20
10.1606634669
 30
0.0
 10
10.5109299085
 20
10.1625305135
 30
0.0
 10
10.523128209
 20
10.1651628997
 30
0.0
 10
10.5351417587
 20
10.1685475802
 30
0.0
 10
10.5469256505
 20
10.1726682221
 30
0.0
 10
10.5546000267
 20
10.175893553
 30
0.0
 10
10.5583838256
 20
10.1776217443
 30
0.0
  0
SPLINE
  5
369
100
AcDbEntity
  8
0
100
AcDbSpline
 62
7
  6
CONTINUOUS
 70
0
 71
3
 72
15
 73
11
 74
0
 42
0.0000001
 43
0.0000001
 44
0.0000000001
 40
0.0
 40
0.0
 40
0.0
 40
0.0
 40
0.1250755788
 40
0.24980823
 40
0.3743588309
 40
0.4988890346
 40
0.6235597204
 40
0.748530122
 40
0.8739580843
 40
1.0
 40
1.0
 40
1.0
 40
1.0
 10
10.8776305444
 20
6.7515562335
 30
0.0
 10
10.8685093517
 20
6.7585893131
 30
0.0
 10
10.8507303389
 20
6.7732148044
 30
0.0
 10
10.825480395
 20
6.7967141028
 30
0.0
 10
10.8016923673
 20
6.8216226382
 30
0.0
 10
10.7793578892
 20
6.8478325057
 30
0.0
 10
10.7584587893
 20
6.8752475585
 30
0.0
 10
10.738971467
 20
6.9037822952
 30
0.0
 10
10.7208689492
 20
6.9333609049
 30
0.0
 10
10.709734727
 20
6.9536769273
 30
0.0
 10
10.7043903511
 20
6.9639801212
 30
0.0
  0
SPLINE
  5
36A
100
AcDbEntity
  8
0
100
AcDbSpline
 62
7
  6
CONTINUOUS
 70
0
 71
3
 72
15
 73
11
 74
0
 42
0.0000001
 43
0.0000001
 44
0.0000000001
 40
0.0
 40
0.0
 40
0.0
 40
0.0
 40
0.1273482888
 40
0.2538606703
 40
0.3795878487
 40
0.5046051206
 40
0.6290174369
 40
0.7529533749
 40
0.8765605786
 40
1.0
 40
1.0
 40
1.0
 40
1.0
 10
11.9255824624
 20
5.7451947631
 30
0.0
 10
11.9255824624
 20
5.7371842027
 30
0.0
 10
11.924817607
 20
5.7212045885
 30
0.0
 10
11.9213586744
 20
5.6975425146
 30
0.0
 10
11.9156231639
 20
5.6744749766
 30
0.0
 10
11.9076628864
 20
5.6522177147
 30
0.0
 10
11.8975508502
 20
5.6309759876
 30
0.0
 10
11.8853793031
 20
5.6109459195
 30
0.0
 10
11.8712626537
 20
5.5923151967
 30
0.0
 10
11.860633526
 20
5.5809344921
 30
0.0
 10
11.8550487247
 20
5.5755400247
 30
0.0
  0
SPLINE
  5
36B
100
AcDbEntity
  8
0
100
AcDbSpline
 62
7
  6
CONTINUOUS
 70
0
 71
3
 72
15
 73
11
 74
0
 42
0.0000001
 43
0.0000001
 44
0.0000000001
 40
0.0
 40
0.0
 40
0.0
 40
0.0
 40
0.1273482888
 40
0.2538606703
 40
0.3795878487
 40
0.5046051206
 40
0.6290174369
 40
0.7529533749
 40
0.8765605786
 40
1.0
 40
1.0
 40
1.0
 40
1.0
 10
9.2097852371
 20
5.9335359404
 30
0.0
 10
9.2097852371
 20
5.9255253799
 30
0.0
 10
9.2090203817
 20
5.9095457658
 30
0.0
 10
9.205561449
 20
5.8858836919
 30
0.0
 10
9.1998259386
 20
5.8628161539
 30
0.0
 10
9.1918656611
 20
5.840558892
 30
0.0
 10
9.1817536249
 20
5.8193171649
 30
0.0
 10
9.1695820778
 20
5.7992870967
 30
0.0
 10
9.1554654284
 20
5.780656374
 30
0.0
 10
9.1448363007
 20
5.7692756694
 30
0.0
 10
9.1392514994
 20
5.763881202
 30
0.0
  0
SPLINE
  5
36C
100
AcDbEntity
  8
0
100
AcDbSpline
 62
7
  6
CONTINUOUS
 70
0
 71
3
 72
15
 73
11
 74
0
 42
0.0000001
 43
0.0000001
 44
0.0000000001
 40
0.0
 40
0.0
 40
0.0
 40
0.0
 40
0.1273482888
 40
0.2538606703
 40
0.3795878487
 40
0.5046051206
 40
0.6290174369
 40
0.7529533749
 40
0.8765605786
 40
1.0
 40
1.0
 40
1.0
 40
1.0
 10
9.2097852371
 20
7.1836372909
 30
0.0
 10
9.2097852371
 20
7.1756267305
 30
0.0
 10
9.2090203817
 20
7.1596471164
 30
0.0
 10
9.205561449
 20
7.1359850425
 30
0.0
 10
9.1998259386
 20
7.1129175045
 30
0.0
 10
9.1918656611
 20
7.0906602426
 30
0.0
 10
9.1817536249
 20
7.0694185155
 30
0.0
 10
9.1695820778
 20
7.0493884473
 30
0.0
 10
9.1554654284
 20
7.0307577246
 30
0.0
 10
9.1448363007
 20
7.01937702
 30
0.0
 10
9.1392514994
 20
7.0139825526
 30
0.0
  0
SPLINE
  5
36D
100
AcDbEntity
  8
0
100
AcDbSpline
 62
7
  6
CONTINUOUS
 70
0
 71
3
 72
15
 73
11
 74
0
 42
0.0000001
 43
0.0000001
 44
0.0000000001
 40
0.0
 40
0.0
 40
0.0
 40
0.0
 40
0.1273482888
 40
0.2538606703
 40
0.3795878487
 40
0.5046051206
 40
0.6290174369
 40
0.7529533749
 40
0.8765605786
 40
1.0
 40
1.0
 40
1.0
 40
1.0
 10
11.9255824624
 20
6.9952961137
 30
0.0
 10
11.9255824624
 20
6.9872855532
 30
0.0
 10
11.924817607
 20
6.9713059391
 30
0.0
 10
11.9213586744
 20
6.9476438652
 30
0.0
 10
11.9156231639
 20
6.9245763272
 30
0.0
 10
11.9076628864
 20
6.9023190653
 30
0.0
 10
11.8975508502
 20
6.8810773382
 30
0.0
 10
11.8853793031
 20
6.8610472701
 30
0.0
 10
11.8712626537
 20
6.8424165473
 30
0.0
 10
11.860633526
 20
6.8310358427
 30
0.0
 10
11.8550487247
 20
6.8256413753
 30
0.0
  0
SPLINE
  5
36E
100
AcDbEntity
  8
0
100
AcDbSpline
 62
7
  6
CONTINUOUS
 70
0
 71
3
 72
15
 73
11
 74
0
 42
0.0000001
 43
0.0000001
 44
0.0000000001
 40
0.0
 40
0.0
 40
0.0
 40
0.0
 40
0.1538499092
 40
0.2971130603
 40
0.4305758223
 40
0.555616548
 40
0.6737204537
 40
0.7862911969
 40
0.8946294104
 40
1.0
 40
1.0
 40
1.0
 40
1.0
 10
9.7811648494
 20
11.1641178904
 30
0.0
 10
9.780422476
 20
11.1652847986
 30
0.0
 10
9.7790510058
 20
11.1675788433
 30
0.0
 10
9.7772699838
 20
11.1710181634
 30
0.0
 10
9.7758194113
 20
11.1743287489
 30
0.0
 10
9.7746786823
 20
11.1775193549
 30
0.0
 10
9.7738228424
 20
11.1806033845
 30
0.0
 10
9.7732287296
 20
11.1835955332
 30
0.0
 10
9.7728829751
 20
11.1865110983
 30
0.0
 10
9.7728077372
 20
11.1884330798
 30
0.0
 10
9.7728077372
 20
11.1893803113
 30
0.0
  0
SPLINE
  5
36F
100
AcDbEntity
  8
0
100
AcDbSpline
 62
7
  6
CONTINUOUS
 70
0
 71
3
 72
56
 73
52
 74
0
 42
0.0000001
 43
0.0000001
 44
0.0000000001
 40
0.0
 40
0.0
 40
0.0
 40
0.0
 40
0.0073043253
 40
0.0150784613
 40
0.0233376392
 40
0.0320923182
 40
0.0413490407
 40
0.0511110274
 40
0.0613786655
 40
0.0721499775
 40
0.083420901
 40
0.0951855345
 40
0.1074364097
 40
0.120164618
 40
0.133359945
 40
0.1470110465
 40
0.1611055029
 40
0.1756299044
 40
0.1905699767
 40
0.205910602
 40
0.2216358829
 40
0.2377292384
 40
0.2541734112
 40
0.2709505221
 40
0.3054287525
 40
0.3410109761
 40
0.3775364688
 40
0.4148385422
 40
0.4527456898
 40
0.4910827193
 40
0.5296718356
 40
0.5683337261
 40
0.6068886445
 40
0.6451574833
 40
0.6829628615
 40
0.7201302
 40
0.7564888223
 40
0.7918730923
 40
0.8261235428
 40
0.8427760485
 40
0.8590887388
 40
0.8750439777
 40
0.8906247391
 40
0.9058147075
 40
0.9205982826
 40
0.934960635
 40
0.9488878588
 40
0.962366849
 40
0.9753855291
 40
0.9879334888
 40
1.0
 40
1.0
 40
1.0
 40
1.0
 10
11.6502037093
 20
11.1861592825
 30
0.0
 10
11.6469994109
 20
11.1831773512
 30
0.0
 10
11.6401674459
 20
11.1772524502
 30
0.0
 10
11.6290669547
 20
11.168734533
 30
0.0
 10
11.6168149958
 20
11.1603245718
 30
0.0
 10
11.6034269088
 20
11.1520327321
 30
0.0
 10
11.5889185272
 20
11.1438686028
 30
0.0
 10
11.5733074257
 20
11.135842038
 30
0.0
 10
11.5566125799
 20
11.1279627358
 30
0.0
 10
11.5388543726
 20
11.120240409
 30
0.0
 10
11.5200545874
 20
11.1126846089
 30
0.0
 10
11.5002363827
 20
11.1053046749
 30
0.0
 10
11.4794242066
 20
11.0981098274
 30
0.0
 10
11.4576437978
 20
11.0911090467
 30
0.0
 10
11.4349221461
 20
11.0843110414
 30
0.0
 10
11.4112874221
 20
11.0777243399
 30
0.0
 10
11.3867689652
 20
11.0713571816
 30
0.0
 10
11.3613972423
 20
11.0652175001
 30
0.0
 10
11.3352037844
 20
11.0593130062
 30
0.0
 10
11.3082211661
 20
11.0536510874
 30
0.0
 10
11.2804829586
 20
11.0482387963
 30
0.0
 10
11.2520236839
 20
11.0430829438
 30
0.0
 10
11.2228787305
 20
11.0381899318
 30
0.0
 10
11.1827885531
 20
11.0319681482
 30
0.0
 10
11.131226131
 20
11.0249128875
 30
0.0
 10
11.0677626051
 20
11.0176579253
 30
0.0
 10
11.0024763516
 20
11.0115761261
 30
0.0
 10
10.9356924642
 20
11.0066980834
 30
0.0
 10
10.8677432194
 20
11.0030483734
 30
0.0
 10
10.798966867
 20
11.0006453894
 30
0.0
 10
10.7297057897
 20
10.9995012414
 30
0.0
 10
10.6603048184
 20
10.9996216649
 30
0.0
 10
10.5911094855
 20
11.0010060663
 30
0.0
 10
10.52246429
 20
11.0036474895
 30
0.0
 10
10.4547109547
 20
11.007532607
 30
0.0
 10
10.3881867455
 20
11.0126418643
 30
0.0
 10
10.3232226256
 20
11.0189495117
 30
0.0
 10
10.2601420685
 20
11.0264237912
 30
0.0
 10
10.2089375264
 20
11.0336589719
 30
0.0
 10
10.1691630046
 20
11.0400212583
 30
0.0
 10
10.1402748416
 20
11.0450150943
 30
0.0
 10
10.1120859432
 20
11.0502693302
 30
0.0
 10
10.0846313629
 20
11.055777475
 30
0.0
 10
10.0579452685
 20
11.0615326
 30
0.0
 10
10.0320608528
 20
11.0675274986
 30
0.0
 10
10.0070102924
 20
11.073754706
 30
0.0
 10
9.9828247356
 20
11.0802064116
 30
0.0
 10
9.9595342677
 20
11.0868745057
 30
0.0
 10
9.9371675178
 20
11.0937507581
 30
0.0
 10
9.9157527143
 20
11.1008264747
 30
0.0
 10
9.9018531952
 20
11.1057684737
 30
0.0
 10
9.895070786
 20
11.1082754653
 30
0.0
  0
SPLINE
  5
370
100
AcDbEntity
  8
0
100
AcDbSpline
 62
7
  6
CONTINUOUS
 70
0
 71
3
 72
15
 73
11
 74
0
 42
0.0000001
 43
0.0000001
 44
0.0000000001
 40
0.0
 40
0.0
 40
0.0
 40
0.0
 40
0.1053377928
 40
0.2136472233
 40
0.3261958967
 40
0.4442873215
 40
0.569328472
 40
0.7028076918
 40
0.8461033419
 40
1.0
 40
1.0
 40
1.0
 40
1.0
 10
11.6304077372
 20
11.1893803113
 30
0.0
 10
11.6304077372
 20
11.1884319461
 30
0.0
 10
11.6303323168
 20
11.1865076179
 30
0.0
 10
11.629985715
 20
11.1835884454
 30
0.0
 10
11.6293901284
 20
11.1805924731
 30
0.0
 10
11.6285321301
 20
11.1775043447
 30
0.0
 10
11.6273884366
 20
11.1743093223
 30
0.0
 10
11.6259340305
 20
11.1709939741
 30
0.0
 10
11.6241482487
 20
11.1675495647
 30
0.0
 10
11.6227731248
 20
11.1652521726
 30
0.0
 10
11.6220287677
 20
11.1640835549
 30
0.0
  0
SPLINE
  5
371
100
AcDbEntity
  8
0
100
AcDbSpline
 62
7
  6
CONTINUOUS
 70
0
 71
3
 72
23
 73
19
 74
0
 42
0.0000001
 43
0.0000001
 44
0.0000000001
 40
0.0
 40
0.0
 40
0.0
 40
0.0
 40
0.0616482031
 40
0.1233194344
 40
0.1850364671
 40
0.2468215587
 40
0.3086962064
 40
0.3706809202
 40
0.4327950026
 40
0.4950563356
 40
0.5574811877
 40
0.6200840884
 40
0.6828775924
 40
0.7458723491
 40
0.8090769894
 40
0.8724966372
 40
0.9361388612
 40
1.0
 40
1.0
 40
1.0
 40
1.0
 10
10.0007776579
 20
10.5411291964
 30
0.0
 10
10.0057467707
 20
10.545928969
 30
0.0
 10
10.0159472485
 20
10.5552648693
 30
0.0
 10
10.0319815237
 20
10.5684288988
 30
0.0
 10
10.0487120717
 20
10.5807227994
 30
0.0
 10
10.066096171
 20
10.5921150411
 30
0.0
 10
10.084090144
 20
10.6025771106
 30
0.0
 10
10.1026485911
 20
10.6120826598
 30
0.0
 10
10.1217247604
 20
10.6206077866
 30
0.0
 10
10.1412705974
 20
10.6281310177
 30
0.0
 10
10.1612368533
 20
10.6346334593
 30
0.0
 10
10.1815732195
 20
10.64009881
 30
0.0
 10
10.2022284748
 20
10.6445133742
 30
0.0
 10
10.2231506469
 20
10.647866069
 30
0.0
 10
10.2442869083
 20
10.6501484295
 30
0.0
 10
10.2655845027
 20
10.6513549873
 30
0.0
 10
10.2869887941
 20
10.6514824938
 30
0.0
 10
10.3012706466
 20
10.65084916
 30
0.0
 10
10.3084101768
 20
10.6503540319
 30
0.0
  0
SPLINE
  5
372
100
AcDbEntity
  8
0
100
AcDbSpline
 62
7
  6
CONTINUOUS
 70
0
 71
3
 72
15
 73
11
 74
0
 42
0.0000001
 43
0.0000001
 44
0.0000000001
 40
0.0
 40
0.0
 40
0.0
 40
0.0
 40
0.123317125
 40
0.2468171892
 40
0.3706750004
 40
0.49504957
 40
0.620077358
 40
0.7458670408
 40
0.8724927714
 40
1.0
 40
1.0
 40
1.0
 40
1.0
 10
10.1888705342
 20
10.4256303005
 30
0.0
 10
10.1940104425
 20
10.4305951123
 30
0.0
 10
10.2048419424
 20
10.4399859742
 30
0.0
 10
10.222519957
 20
10.4522573233
 30
0.0
 10
10.2414625614
 20
10.4626018846
 30
0.0
 10
10.2614758168
 20
10.470913426
 30
0.0
 10
10.2823578865
 20
10.4771093261
 30
0.0
 10
10.3038984134
 20
10.4811276575
 30
0.0
 10
10.325877503
 20
10.4829293371
 30
0.0
 10
10.340630939
 20
10.4826415725
 30
0.0
 10
10.3480022382
 20
10.4821303712
 30
0.0
  0
SPLINE
  5
373
100
AcDbEntity
  8
0
100
AcDbSpline
 62
7
  6
CONTINUOUS
 70
0
 71
3
 72
28
 73
24
 74
0
 42
0.0000001
 43
0.0000001
 44
0.0000000001
 40
0.0
 40
0.0
 40
0.0
 40
0.0
 40
0.0303196073
 40
0.0607518121
 40
0.0912992344
 40
0.1219630784
 40
0.1527431531
 40
0.1836378847
 40
0.2146443373
 40
0.2457582663
 40
0.2769741967
 40
0.3082854869
 40
0.3711408824
 40
0.4342730852
 40
0.4975967684
 40
0.5610182375
 40
0.6244395336
 40
0.6877627191
 40
0.7508941096
 40
0.8137484297
 40
0.8762526356
 40
0.9383489603
 40
1.0
 40
1.0
 40
1.0
 40
1.0
 10
10.5799361453
 20
10.1622861135
 30
0.0
 10
10.5808379601
 20
10.1670597061
 30
0.0
 10
10.5823757455
 20
10.1766776819
 30
0.0
 10
10.583876259
 20
10.1912363631
 30
0.0
 10
10.5845706729
 20
10.205911295
 30
0.0
 10
10.5844569037
 20
10.2206577322
 30
0.0
 10
10.5835353952
 20
10.2354314979
 30
0.0
 10
10.5818089322
 20
10.2501881224
 30
0.0
 10
10.5792827075
 20
10.2648832839
 30
0.0
 10
10.5759644836
 20
10.2794726953
 30
0.0
 10
10.5718640528
 20
10.2939129885
 30
0.0
 10
10.5653637711
 20
10.3129300859
 30
0.0
 10
10.5553430375
 20
10.336110349
 30
0.0
 10
10.5404630989
 20
10.3626030423
 30
0.0
 10
10.522887455
 20
10.38750218
 30
0.0
 10
10.5028276158
 20
10.4105077426
 30
0.0
 10
10.4805236693
 20
10.43134496
 30
0.0
 10
10.4562426079
 20
10.4497640515
 30
0.0
 10
10.4302748677
 20
10.4655442547
 30
0.0
 10
10.4029313771
 20
10.4784958197
 30
0.0
 10
10.3745381964
 20
10.4884629021
 30
0.0
 10
10.3454397818
 20
10.4953244956
 30
0.0
 10
10.3257186724
 20
10.4977826208
 30
0.0
 10
10.3158641593
 20
10.4984660336
 30
0.0
  0
SPLINE
  5
374
100
AcDbEntity
  8
0
100
AcDbSpline
 62
7
  6
CONTINUOUS
 70
0
 71
3
 72
41
 73
37
 74
0
 42
0.0000001
 43
0.0000001
 44
0.0000000001
 40
0.0
 40
0.0
 40
0.0
 40
0.0
 40
0.0299389659
 40
0.0449187283
 40
0.0599073279
 40
0.0899167462
 40
0.1199949536
 40
0.1350691146
 40
0.1501679548
 40
0.1804428543
 40
0.2108411101
 40
0.2413757651
 40
0.2720567992
 40
0.3028909513
 40
0.3338816189
 40
0.3650288355
 40
0.3963293195
 40
0.4277765915
 40
0.4593611526
 40
0.4910707163
 40
0.5228904894
 40
0.5548034918
 40
0.5867909105
 40
0.6188324809
 40
0.6509068884
 40
0.6829921843
 40
0.71506621
 40
0.7471070243
 40
0.7790933285
 40
0.8110048776
 40
0.8428228985
 40
0.8745304119
 40
0.9061127676
 40
0.9375574502
 40
0.9688556269
 40
1.0
 40
1.0
 40
1.0
 40
1.0
 10
10.5071339422
 20
10.0961397947
 30
0.0
 10
10.5108783137
 20
10.0997566101
 30
0.0
 10
10.5162866032
 20
10.1054065247
 30
0.0
 10
10.5230369633
 20
10.113342834
 30
0.0
 10
10.5294800531
 20
10.1215468538
 30
0.0
 10
10.5369359876
 20
10.1322798951
 30
0.0
 10
10.543542307
 20
10.1435729188
 30
0.0
 10
10.5483002986
 20
10.1529094973
 30
0.0
 10
10.5527092537
 20
10.162453538
 30
0.0
 10
10.5575406187
 20
10.1747264384
 30
0.0
 10
10.5622123985
 20
10.1898979734
 30
0.0
 10
10.5657399338
 20
10.2054483069
 30
0.0
 10
10.5681043097
 20
10.2212937522
 30
0.0
 10
10.5692931601
 20
10.2373497774
 30
0.0
 10
10.5693003141
 20
10.2535305854
 30
0.0
 10
10.5681259297
 20
10.2697498062
 30
0.0
 10
10.5657764538
 20
10.2859208904
 30
0.0
 10
10.5622645891
 20
10.3019575833
 30
0.0
 10
10.5576092184
 20
10.3177743746
 30
0.0
 10
10.5518353004
 20
10.3332869495
 30
0.0
 10
10.5449737342
 20
10.3484126317
 30
0.0
 10
10.5370611928
 20
10.3630708179
 30
0.0
 10
10.528139929
 20
10.3771834028
 30
0.0
 10
10.5182575514
 20
10.3906751908
 30
0.0
 10
10.5074667695
 20
10.4034742907
 30
0.0
 10
10.4958251158
 20
10.4155124955
 30
0.0
 10
10.4833946413
 20
10.4267256407
 30
0.0
 10
10.4702415885
 20
10.4370539448
 30
0.0
 10
10.4564360419
 20
10.4464423214
 30
0.0
 10
10.4420515578
 20
10.4548406796
 30
0.0
 10
10.4271647844
 20
10.462204165
 30
0.0
 10
10.4118550213
 20
10.4684934588
 30
0.0
 10
10.3962039585
 20
10.4736748469
 30
0.0
 10
10.380294667
 20
10.4777206946
 30
0.0
 10
10.3642131675
 20
10.4806090455
 30
0.0
 10
10.3534047906
 20
10.4817557029
 30
0.0
 10
10.3480022382
 20
10.4821303712
 30
0.0
  0
SPLINE
  5
375
100
AcDbEntity
  8
0
100
AcDbSpline
 62
7
  6
CONTINUOUS
 70
0
 71
3
 72
34
 73
30
 74
0
 42
0.0000001
 43
0.0000001
 44
0.0000000001
 40
0.0
 40
0.0
 40
0.0
 40
0.0
 40
0.0292126195
 40
0.0586919887
 40
0.088454188
 40
0.1185072472
 40
0.1488512218
 40
0.1794785147
 40
0.2414921398
 40
0.3043920767
 40
0.3679356222
 40
0.3998786866
 40
0.4318848972
 40
0.4639243262
 40
0.4959696732
 40
0.5599596115
 40
0.6237281686
 40
0.6555118528
 40
0.6872102339
 40
0.7188203046
 40
0.7503419871
 40
0.7817778319
 40
0.8131326195
 40
0.8444129142
 40
0.8756266713
 40
0.9067829659
 40
0.9378905066
 40
0.9689606613
 40
1.0
 40
1.0
 40
1.0
 40
1.0
 10
10.2746115513
 20
10.4745397684
 30
0.0
 10
10.272936574
 20
10.4707678539
 30
0.0
 10
10.2698219761
 20
10.4630755733
 30
0.0
 10
10.2658912955
 20
10.4512046265
 30
0.0
 10
10.2626946604
 20
10.4389921942
 30
0.0
 10
10.2602439058
 20
10.4264845228
 30
0.0
 10
10.2585479776
 20
10.4137288232
 30
0.0
 10
10.2572964524
 20
10.3963903009
 30
0.0
 10
10.2576671253
 20
10.3743643945
 30
0.0
 10
10.2611540388
 20
10.3479148705
 30
0.0
 10
10.2665434726
 20
10.3261452763
 30
0.0
 10
10.2723020302
 20
10.3090709445
 30
0.0
 10
10.2773393914
 20
10.2964724879
 30
0.0
 10
10.2830697248
 20
10.2841578007
 30
0.0
 10
10.29160268
 20
10.2681933271
 30
0.0
 10
10.303894563
 20
10.2491962204
 30
0.0
 10
10.3182367831
 20
10.2317393439
 30
0.0
 10
10.3308238656
 20
10.2188911434
 30
0.0
 10
10.3407813435
 20
10.2098604691
 30
0.0
 10
10.3512328764
 20
10.2014657449
 30
0.0
 10
10.3621453586
 20
10.1937430974
 30
0.0
 10
10.3734828915
 20
10.1867271151
 30
0.0
 10
10.385207145
 20
10.1804499203
 30
0.0
 10
10.3972771496
 20
10.1749410354
 30
0.0
 10
10.409649341
 20
10.1702268693
 30
0.0
 10
10.4222774867
 20
10.1663305203
 30
0.0
 10
10.4351134619
 20
10.1632709631
 30
0.0
 10
10.4481058345
 20
10.1610636312
 30
0.0
 10
10.456842147
 20
10.1601666557
 30
0.0
 10
10.4612168065
 20
10.159863272
 30
0.0
  0
SPLINE
  5
376
100
AcDbEntity
  8
0
100
AcDbSpline
 62
7
  6
CONTINUOUS
 70
0
 71
3
 72
23
 73
19
 74
0
 42
0.0000001
 43
0.0000001
 44
0.0000000001
 40
0.0
 40
0.0
 40
0.0
 40
0.0
 40
0.0616482117
 40
0.1233194496
 40
0.1850364829
 40
0.24682157
 40
0.3086962136
 40
0.370680925
 40
0.4327950024
 40
0.4950563275
 40
0.5574811782
 40
0.6200840647
 40
0.6828776055
 40
0.7458723192
 40
0.8090769012
 40
0.8724969623
 40
0.9361381423
 40
1.0
 40
1.0
 40
1.0
 40
1.0
 10
9.8394547911
 20
6.9595723034
 30
0.0
 10
9.8470296993
 20
6.966889128
 30
0.0
 10
9.8625791787
 20
6.9811210029
 30
0.0
 10
9.8870217842
 20
7.0011884492
 30
0.0
 10
9.9125257938
 20
7.0199294682
 30
0.0
 10
9.9390260732
 20
7.0372960209
 30
0.0
 10
9.9664560589
 20
7.0532446161
 30
0.0
 10
9.9947465592
 20
7.0677350572
 30
0.0
 10
10.0238262983
 20
7.0807309092
 30
0.0
 10
10.0536219987
 20
7.0921994901
 30
0.0
 10
10.0840585941
 20
7.1021119768
 30
0.0
 10
10.1150594138
 20
7.1104434804
 30
0.0
 10
10.1465463607
 20
7.1171730979
 30
0.0
 10
10.1784401862
 20
7.1222840134
 30
0.0
 10
10.2106604343
 20
7.1257633649
 30
0.0
 10
10.2431264592
 20
7.1276026306
 30
0.0
 10
10.275755265
 20
7.1277971054
 30
0.0
 10
10.2975265246
 20
7.1268316056
 30
0.0
 10
10.3084101768
 20
7.1260768218
 30
0.0
  0
SPLINE
  5
377
100
AcDbEntity
  8
0
100
AcDbSpline
 62
7
  6
CONTINUOUS
 70
0
 71
3
 72
41
 73
37
 74
0
 42
0.0000001
 43
0.0000001
 44
0.0000000001
 40
0.0
 40
0.0
 40
0.0
 40
0.0
 40
0.0299421207
 40
0.0449237678
 40
0.059914515
 40
0.0899291702
 40
0.1200145975
 40
0.1350933607
 40
0.1501974781
 40
0.1804849759
 40
0.210898965
 40
0.2414525847
 40
0.2721557502
 40
0.3030149724
 40
0.3340332622
 40
0.3652101173
 40
0.3965415863
 40
0.428020404
 40
0.4596361919
 40
0.4913757156
 40
0.5232231916
 40
0.5551606357
 40
0.5871682465
 40
0.6192248153
 40
0.651308157
 40
0.6833955539
 40
0.7154642081
 40
0.747491694
 40
0.779456406
 40
0.8113379944
 40
0.8431177853
 40
0.8747791687
 40
0.9063079764
 40
0.9376927595
 40
0.9689251765
 40
1.0
 40
1.0
 40
1.0
 40
1.0
 10
11.4936415554
 20
5.9496962364
 30
0.0
 10
11.4979565419
 20
5.9538641651
 30
0.0
 10
11.5046833067
 20
5.9598635707
 30
0.0
 10
11.5141040297
 20
5.9673075048
 30
0.0
 10
11.5238247746
 20
5.9743809979
 30
0.0
 10
11.5365087346
 20
5.9825036938
 30
0.0
 10
11.5498094218
 20
5.9896086844
 30
0.0
 10
11.560779025
 20
5.9946632321
 30
0.0
 10
11.571975259
 20
5.9993004628
 30
0.0
 10
11.5863395006
 20
6.004286856
 30
0.0
 10
11.6040412697
 20
6.0089340479
 30
0.0
 10
11.6221292988
 20
6.0122262537
 30
0.0
 10
11.6405033498
 20
6.0141453022
 30
0.0
 10
11.6590624889
 20
6.0146809541
 30
0.0
 10
11.6777045981
 20
6.0138304825
 30
0.0
 10
11.6963272158
 20
6.0115988002
 30
0.0
 10
11.7148280184
 20
6.0079983885
 30
0.0
 10
11.7331053967
 20
6.0030492294
 30
0.0
 10
11.7510590008
 20
5.9967786864
 30
0.0
 10
11.7685902852
 20
5.9892213508
 30
0.0
 10
11.7856030408
 20
5.980418849
 30
0.0
 10
11.8020039166
 20
5.9704196129
 30
0.0
 10
11.8177029243
 20
5.9592786143
 30
0.0
 10
11.8326139262
 20
5.9470570643
 30
0.0
 10
11.8466551022
 20
5.9338220802
 30
0.0
 10
11.8597493936
 20
5.9196463197
 30
0.0
 10
11.8718249216
 20
5.9046075861
 30
0.0
 10
11.8828153783
 20
5.8887884055
 30
0.0
 10
11.8926603865
 20
5.8722755795
 30
0.0
 10
11.9013058304
 20
5.8551597117
 30
0.0
 10
11.9087041483
 20
5.8375347276
 30
0.0
 10
11.9148145989
 20
5.8194973232
 30
0.0
 10
11.9196034734
 20
5.8011466033
 30
0.0
 10
11.9230443075
 20
5.7825829431
 30
0.0
 10
11.925117991
 20
5.7639096609
 30
0.0
 10
11.9255824624
 20
5.7514209405
 30
0.0
 10
11.9255824624
 20
5.7451947631
 30
0.0
  0
SPLINE
  5
378
100
AcDbEntity
  8
0
100
AcDbSpline
 62
7
  6
CONTINUOUS
 70
0
 71
3
 72
41
 73
37
 74
0
 42
0.0000001
 43
0.0000001
 44
0.0000000001
 40
0.0
 40
0.0
 40
0.0
 40
0.0
 40
0.0299421207
 40
0.0449237678
 40
0.059914515
 40
0.0899291702
 40
0.1200145975
 40
0.1350933607
 40
0.1501974781
 40
0.1804849759
 40
0.210898965
 40
0.2414525847
 40
0.2721557502
 40
0.3030149724
 40
0.3340332622
 40
0.3652101173
 40
0.3965415863
 40
0.428020404
 40
0.4596361919
 40
0.4913757156
 40
0.5232231916
 40
0.5551606357
 40
0.5871682465
 40
0.6192248153
 40
0.651308157
 40
0.6833955539
 40
0.7154642081
 40
0.747491694
 40
0.779456406
 40
0.8113379944
 40
0.8431177853
 40
0.8747791687
 40
0.9063079764
 40
0.9376927595
 40
0.9689251765
 40
1.0
 40
1.0
 40
1.0
 40
1.0
 10
8.7778443301
 20
6.1380374137
 30
0.0
 10
8.7821593166
 20
6.1422053424
 30
0.0
 10
8.7888860814
 20
6.148204748
 30
0.0
 10
8.7983068044
 20
6.1556486821
 30
0.0
 10
8.8080275493
 20
6.1627221751
 30
0.0
 10
8.8207115093
 20
6.1708448711
 30
0.0
 10
8.8340121965
 20
6.1779498617
 30
0.0
 10
8.8449817997
 20
6.1830044094
 30
0.0
 10
8.8561780337
 20
6.1876416401
 30
0.0
 10
8.8705422753
 20
6.1926280333
 30
0.0
 10
8.8882440444
 20
6.1972752252
 30
0.0
 10
8.9063320735
 20
6.200567431
 30
0.0
 10
8.9247061245
 20
6.2024864795
 30
0.0
 10
8.9432652636
 20
6.2030221314
 30
0.0
 10
8.9619073728
 20
6.2021716598
 30
0.0
 10
8.9805299905
 20
6.1999399775
 30
0.0
 10
8.9990307931
 20
6.1963395658
 30
0.0
 10
9.0173081714
 20
6.1913904067
 30
0.0
 10
9.0352617755
 20
6.1851198636
 30
0.0
 10
9.0527930599
 20
6.1775625281
 30
0.0
 10
9.0698058155
 20
6.1687600263
 30
0.0
 10
9.0862066913
 20
6.1587607902
 30
0.0
 10
9.101905699
 20
6.1476197915
 30
0.0
 10
9.1168167009
 20
6.1353982415
 30
0.0
 10
9.1308578769
 20
6.1221632574
 30
0.0
 10
9.1439521683
 20
6.1079874969
 30
0.0
 10
9.1560276963
 20
6.0929487634
 30
0.0
 10
9.167018153
 20
6.0771295828
 30
0.0
 10
9.1768631612
 20
6.0606167568
 30
0.0
 10
9.1855086051
 20
6.0435008889
 30
0.0
 10
9.1929069229
 20
6.0258759049
 30
0.0
 10
9.1990173736
 20
6.0078385004
 30
0.0
 10
9.2038062481
 20
5.9894877805
 30
0.0
 10
9.2072470822
 20
5.9709241203
 30
0.0
 10
9.2093207657
 20
5.9522508382
 30
0.0
 10
9.2097852371
 20
5.9397621178
 30
0.0
 10
9.2097852371
 20
5.9335359404
 30
0.0
  0
SPLINE
  5
379
100
AcDbEntity
  8
0
100
AcDbSpline
 62
7
  6
CONTINUOUS
 70
0
 71
3
 72
41
 73
37
 74
0
 42
0.0000001
 43
0.0000001
 44
0.0000000001
 40
0.0
 40
0.0
 40
0.0
 40
0.0
 40
0.0299421207
 40
0.0449237678
 40
0.059914515
 40
0.0899291702
 40
0.1200145975
 40
0.1350933607
 40
0.1501974781
 40
0.1804849759
 40
0.210898965
 40
0.2414525847
 40
0.2721557502
 40
0.3030149724
 40
0.3340332622
 40
0.3652101173
 40
0.3965415863
 40
0.428020404
 40
0.4596361919
 40
0.4913757156
 40
0.5232231916
 40
0.5551606357
 40
0.5871682465
 40
0.6192248153
 40
0.651308157
 40
0.6833955539
 40
0.7154642081
 40
0.747491694
 40
0.779456406
 40
0.8113379944
 40
0.8431177853
 40
0.8747791687
 40
0.9063079764
 40
0.9376927595
 40
0.9689251765
 40
1.0
 40
1.0
 40
1.0
 40
1.0
 10
8.7778443301
 20
7.3881387642
 30
0.0
 10
8.7821593166
 20
7.392306693
 30
0.0
 10
8.7888860814
 20
7.3983060986
 30
0.0
 10
8.7983068044
 20
7.4057500327
 30
0.0
 10
8.8080275493
 20
7.4128235257
 30
0.0
 10
8.8207115093
 20
7.4209462217
 30
0.0
 10
8.8340121965
 20
7.4280512123
 30
0.0
 10
8.8449817997
 20
7.43310576
 30
0.0
 10
8.8561780337
 20
7.4377429906
 30
0.0
 10
8.8705422753
 20
7.4427293839
 30
0.0
 10
8.8882440444
 20
7.4473765758
 30
0.0
 10
8.9063320735
 20
7.4506687816
 30
0.0
 10
8.9247061245
 20
7.4525878301
 30
0.0
 10
8.9432652636
 20
7.453123482
 30
0.0
 10
8.9619073728
 20
7.4522730103
 30
0.0
 10
8.9805299905
 20
7.450041328
 30
0.0
 10
8.9990307931
 20
7.4464409164
 30
0.0
 10
9.0173081714
 20
7.4414917573
 30
0.0
 10
9.0352617755
 20
7.4352212142
 30
0.0
 10
9.0527930599
 20
7.4276638787
 30
0.0
 10
9.0698058155
 20
7.4188613769
 30
0.0
 10
9.0862066913
 20
7.4088621408
 30
0.0
 10
9.101905699
 20
7.3977211421
 30
0.0
 10
9.1168167009
 20
7.3854995921
 30
0.0
 10
9.1308578769
 20
7.372264608
 30
0.0
 10
9.1439521683
 20
7.3580888475
 30
0.0
 10
9.1560276963
 20
7.3430501139
 30
0.0
 10
9.167018153
 20
7.3272309333
 30
0.0
 10
9.1768631612
 20
7.3107181074
 30
0.0
 10
9.1855086051
 20
7.2936022395
 30
0.0
 10
9.1929069229
 20
7.2759772555
 30
0.0
 10
9.1990173736
 20
7.257939851
 30
0.0
 10
9.2038062481
 20
7.2395891311
 30
0.0
 10
9.2072470822
 20
7.2210254709
 30
0.0
 10
9.2093207657
 20
7.2023521888
 30
0.0
 10
9.2097852371
 20
7.1898634683
 30
0.0
 10
9.2097852371
 20
7.1836372909
 30
0.0
  0
SPLINE
  5
37A
100
AcDbEntity
  8
0
100
AcDbSpline
 62
7
  6
CONTINUOUS
 70
0
 71
3
 72
41
 73
37
 74
0
 42
0.0000001
 43
0.0000001
 44
0.0000000001
 40
0.0
 40
0.0
 40
0.0
 40
0.0
 40
0.0299421207
 40
0.0449237678
 40
0.059914515
 40
0.0899291702
 40
0.1200145975
 40
0.1350933607
 40
0.1501974781
 40
0.1804849759
 40
0.210898965
 40
0.2414525847
 40
0.2721557502
 40
0.3030149724
 40
0.3340332622
 40
0.3652101173
 40
0.3965415863
 40
0.428020404
 40
0.4596361919
 40
0.4913757156
 40
0.5232231916
 40
0.5551606357
 40
0.5871682465
 40
0.6192248153
 40
0.651308157
 40
0.6833955539
 40
0.7154642081
 40
0.747491694
 40
0.779456406
 40
0.8113379944
 40
0.8431177853
 40
0.8747791687
 40
0.9063079764
 40
0.9376927595
 40
0.9689251765
 40
1.0
 40
1.0
 40
1.0
 40
1.0
 10
11.4936415554
 20
7.199797587
 30
0.0
 10
11.4979565419
 20
7.2039655157
 30
0.0
 10
11.5046833067
 20
7.2099649213
 30
0.0
 10
11.5141040297
 20
7.2174088554
 30
0.0
 10
11.5238247746
 20
7.2244823485
 30
0.0
 10
11.5365087346
 20
7.2326050444
 30
0.0
 10
11.5498094218
 20
7.239710035
 30
0.0
 10
11.560779025
 20
7.2447645827
 30
0.0
 10
11.571975259
 20
7.2494018134
 30
0.0
 10
11.5863395006
 20
7.2543882066
 30
0.0
 10
11.6040412697
 20
7.2590353985
 30
0.0
 10
11.6221292988
 20
7.2623276043
 30
0.0
 10
11.6405033498
 20
7.2642466528
 30
0.0
 10
11.6590624889
 20
7.2647823047
 30
0.0
 10
11.6777045981
 20
7.2639318331
 30
0.0
 10
11.6963272158
 20
7.2617001508
 30
0.0
 10
11.7148280184
 20
7.2580997391
 30
0.0
 10
11.7331053967
 20
7.25315058
 30
0.0
 10
11.7510590008
 20
7.246880037
 30
0.0
 10
11.7685902852
 20
7.2393227014
 30
0.0
 10
11.7856030408
 20
7.2305201996
 30
0.0
 10
11.8020039166
 20
7.2205209635
 30
0.0
 10
11.8177029243
 20
7.2093799648
 30
0.0
 10
11.8326139262
 20
7.1971584149
 30
0.0
 10
11.8466551022
 20
7.1839234308
 30
0.0
 10
11.8597493936
 20
7.1697476703
 30
0.0
 10
11.8718249216
 20
7.1547089367
 30
0.0
 10
11.8828153783
 20
7.1388897561
 30
0.0
 10
11.8926603865
 20
7.1223769301
 30
0.0
 10
11.9013058304
 20
7.1052610623
 30
0.0
 10
11.9087041483
 20
7.0876360782
 30
0.0
 10
11.9148145989
 20
7.0695986737
 30
0.0
 10
11.9196034734
 20
7.0512479539
 30
0.0
 10
11.9230443075
 20
7.0326842936
 30
0.0
 10
11.925117991
 20
7.0140110115
 30
0.0
 10
11.9255824624
 20
7.0015222911
 30
0.0
 10
11.9255824624
 20
6.9952961137
 30
0.0
  0
SPLINE
  5
37B
100
AcDbEntity
  8
0
100
AcDbSpline
 62
7
  6
CONTINUOUS
 70
0
 71
3
 72
52
 73
48
 74
0
 42
0.0000001
 43
0.0000001
 44
0.0000000001
 40
0.0
 40
0.0
 40
0.0
 40
0.0
 40
0.0075207873
 40
0.0156240748
 40
0.0243309529
 40
0.0336547391
 40
0.0436025679
 40
0.0541765786
 40
0.065374636
 40
0.077191272
 40
0.0896178407
 40
0.1026433446
 40
0.1162543061
 40
0.1304354547
 40
0.1451695561
 40
0.1604378873
 40
0.1924937381
 40
0.2264269084
 40
0.2620418408
 40
0.2991277201
 40
0.3374609684
 40
0.3768075371
 40
0.4169250699
 40
0.457564995
 40
0.4984745754
 40
0.5393989378
 40
0.5800830919
 40
0.6202739491
 40
0.6597223498
 40
0.6981851106
 40
0.735427111
 40
0.7712234494
 40
0.8053617116
 40
0.8376444357
 40
0.8678919106
 40
0.8822027385
 40
0.8959471899
 40
0.9091095745
 40
0.9216759428
 40
0.9336347059
 40
0.9449766504
 40
0.9556955458
 40
0.9657884116
 40
0.9752561589
 40
0.9841050448
 40
0.9923470874
 40
1.0
 40
1.0
 40
1.0
 40
1.0
 10
12.6245372045
 20
6.4764807126
 30
0.0
 10
12.6237435152
 20
6.4774565844
 30
0.0
 10
12.6221796822
 20
6.4795539233
 30
0.0
 10
12.6199789625
 20
6.4829800562
 30
0.0
 10
12.6178410851
 20
6.4867952579
 30
0.0
 10
12.6157694286
 20
6.490993273
 30
0.0
 10
12.6137671157
 20
6.4955675709
 30
0.0
 10
12.6118374049
 20
6.5005108263
 30
0.0
 10
12.6099833681
 20
6.5058150576
 30
0.0
 10
12.6082081465
 20
6.5114716505
 30
0.0
 10
12.6065145945
 20
6.5174713424
 30
0.0
 10
12.6049056348
 20
6.5238042891
 30
0.0
 10
12.6033838672
 20
6.5304600529
 30
0.0
 10
12.6019519287
 20
6.5374276453
 30
0.0
 10
12.6006121254
 20
6.5446955557
 30
0.0
 10
12.5989242847
 20
6.5549374306
 30
0.0
 10
12.597075347
 20
6.5684045224
 30
0.0
 10
12.5952890483
 20
6.5853064142
 30
0.0
 10
12.5939132377
 20
6.6030904157
 30
0.0
 10
12.5929573479
 20
6.6216385876
 30
0.0
 10
12.5924280463
 20
6.6408280437
 30
0.0
 10
12.5923290678
 20
6.6605314749
 30
0.0
 10
12.5926612379
 20
6.6806181218
 30
0.0
 10
12.5934224646
 20
6.7009546365
 30
0.0
 10
12.5946077604
 20
6.7214059916
 30
0.0
 10
12.5962092781
 20
6.7418363873
 30
0.0
 10
12.5982163654
 20
6.7621101653
 30
0.0
 10
12.6006156347
 20
6.7820927207
 30
0.0
 10
12.6033910511
 20
6.8016514096
 30
0.0
 10
12.6065240364
 20
6.8206564426
 30
0.0
 10
12.609993585
 20
6.8389817796
 30
0.0
 10
12.6137764058
 20
6.8565059592
 30
0.0
 10
12.6178470422
 20
6.8731130803
 30
0.0
 10
12.622178143
 20
6.8886931819
 30
0.0
 10
12.626048154
 20
6.9009521514
 30
0.0
 10
12.6292662
 20
6.9101579039
 30
0.0
 10
12.6316818977
 20
6.9166152597
 30
0.0
 10
12.6341403014
 20
6.922743238
 30
0.0
 10
12.636637442
 20
6.9285317326
 30
0.0
 10
12.639169091
 20
6.9339712502
 30
0.0
 10
12.6417311122
 20
6.9390528855
 30
0.0
 10
12.6443192731
 20
6.943768365
 30
0.0
 10
12.6469293386
 20
6.9481100633
 30
0.0
 10
12.64955712
 20
6.9520710229
 30
0.0
 10
12.6521986105
 20
6.9556451273
 30
0.0
 10
12.6548495887
 20
6.9588263188
 30
0.0
 10
12.6566870191
 20
6.9607515568
 30
0.0
 10
12.6576076513
 20
6.9616408192
 30
0.0
  0
SPLINE
  5
37C
100
AcDbEntity
  8
0
100
AcDbSpline
 62
7
  6
CONTINUOUS
 70
0
 71
3
 72
39
 73
35
 74
0
 42
0.0000001
 43
0.0000001
 44
0.0000000001
 40
0.0
 40
0.0
 40
0.0
 40
0.0
 40
0.0311159584
 40
0.0620233352
 40
0.0927351385
 40
0.1232711775
 40
0.1536587332
 40
0.1839312107
 40
0.2141268395
 40
0.244287099
 40
0.2744549757
 40
0.3046731314
 40
0.3349820893
 40
0.3654185446
 40
0.396013864
 40
0.426792882
 40
0.4577729977
 40
0.4889636199
 40
0.5203659696
 40
0.5519731789
 40
0.5837707176
 40
0.6157370646
 40
0.6478445906
 40
0.68006064
 40
0.7123487314
 40
0.7446698626
 40
0.7769838842
 40
0.8092508939
 40
0.8414326248
 40
0.8734937998
 40
0.9054034138
 40
0.9371358961
 40
0.9686718081
 40
1.0
 40
1.0
 40
1.0
 40
1.0
 10
11.9475381363
 20
6.9854536674
 30
0.0
 10
11.9475381363
 20
6.9762853578
 30
0.0
 10
11.9466430551
 20
6.957996934
 30
0.0
 10
11.942595109
 20
6.9309299398
 30
0.0
 10
11.9358844632
 20
6.9045700083
 30
0.0
 10
11.9265746394
 20
6.8791750478
 30
0.0
 10
11.9147547905
 20
6.8549897182
 30
0.0
 10
11.9005382855
 20
6.8322483926
 30
0.0
 10
11.8840621403
 20
6.8111712382
 30
0.0
 10
11.8654855138
 20
6.791962384
 30
0.0
 10
11.8449880261
 20
6.7748078827
 30
0.0
 10
11.8227682474
 20
6.7598734977
 30
0.0
 10
11.7990413457
 20
6.747303361
 30
0.0
 10
11.7740370356
 20
6.7372184503
 30
0.0
 10
11.7479972617
 20
6.7297152649
 30
0.0
 10
11.7211736245
 20
6.7248653842
 30
0.0
 10
11.6938250309
 20
6.7227144656
 30
0.0
 10
11.6662150791
 20
6.7232820888
 30
0.0
 10
11.6386095756
 20
6.7265618506
 30
0.0
 10
11.6112739754
 20
6.7325210782
 30
0.0
 10
11.5844709108
 20
6.741101652
 30
0.0
 10
11.5584577439
 20
6.7522204192
 30
0.0
 10
11.5334840533
 20
6.7657698734
 30
0.0
 10
11.5097894809
 20
6.7816195669
 30
0.0
 10
11.4876013058
 20
6.7996169838
 30
0.0
 10
11.467132366
 20
6.8195891644
 30
0.0
 10
11.4485792056
 20
6.8413444387
 30
0.0
 10
11.432119911
 20
6.8646739553
 30
0.0
 10
11.4179127364
 20
6.8893539101
 30
0.0
 10
11.4060944961
 20
6.9151476213
 30
0.0
 10
11.3967790739
 20
6.9418072952
 30
0.0
 10
11.3900567838
 20
6.9690779631
 30
0.0
 10
11.3859928342
 20
6.9966942593
 30
0.0
 10
11.3850794944
 20
7.0152294626
 30
0.0
 10
11.3850794944
 20
7.0244603067
 30
0.0
  0
SPLINE
  5
37D
100
AcDbEntity
  8
0
100
AcDbSpline
 62
7
  6
CONTINUOUS
 70
0
 71
3
 72
64
 73
60
 74
0
 42
0.0000001
 43
0.0000001
 44
0.0000000001
 40
0.0
 40
0.0
 40
0.0
 40
0.0
 40
0.0026858099
 40
0.0053861777
 40
0.0081154087
 40
0.0108873176
 40
0.0137150191
 40
0.0166108026
 40
0.0226481837
 40
0.0290813289
 40
0.035973086
 40
0.0433720553
 40
0.0513147002
 40
0.0598274249
 40
0.0689284439
 40
0.0786293408
 40
0.088936264
 40
0.0998508384
 40
0.1113709446
 40
0.1234912973
 40
0.1362038543
 40
0.1494981791
 40
0.1633617573
 40
0.1777802132
 40
0.1927374645
 40
0.208215922
 40
0.2241966316
 40
0.2406593619
 40
0.2575827097
 40
0.2749442232
 40
0.2927204758
 40
0.3108871173
 40
0.3294189765
 40
0.3482901358
 40
0.3674739769
 40
0.406669489
 40
0.4467818214
 40
0.4875794376
 40
0.5288255793
 40
0.5702800825
 40
0.6117012174
 40
0.6528475059
 40
0.6934795423
 40
0.7333618151
 40
0.7722645845
 40
0.7912792396
 40
0.8099664513
 40
0.8282999777
 40
0.8462542922
 40
0.8638046765
 40
0.8809272889
 40
0.8975992197
 40
0.9137985788
 40
0.9295046041
 40
0.9446977829
 40
0.9593598599
 40
0.9734739396
 40
0.9870254376
 40
1.0
 40
1.0
 40
1.0
 40
1.0
 10
9.7728077393
 20
11.1893803113
 30
0.0
 10
9.7728077447
 20
11.1909656444
 30
0.0
 10
9.7729295679
 20
11.1941462289
 30
0.0
 10
9.7734769989
 20
11.1989094347
 30
0.0
 10
9.7743889776
 20
11.2036683708
 30
0.0
 10
9.7756648537
 20
11.208420448
 30
0.0
 10
9.7773037701
 20
11.2131638799
 30
0.0
 10
9.7800088374
 20
11.219561988
 30
0.0
 10
9.7843475072
 20
11.2275552126
 30
0.0
 10
9.7909146208
 20
11.2369339176
 30
0.0
 10
9.798899242
 20
11.2462242677
 30
0.0
 10
9.8082865087
 20
11.2554150579
 30
0.0
 10
9.8190617739
 20
11.2644961953
 30
0.0
 10
9.8312088484
 20
11.2734561612
 30
0.0
 10
9.8447097735
 20
11.2822829117
 30
0.0
 10
9.8595445299
 20
11.2909638597
 30
0.0
 10
9.8756909236
 20
11.2994861884
 30
0.0
 10
9.8931245326
 20
11.3078370737
 30
0.0
 10
9.9118188051
 20
11.316003729
 30
0.0
 10
9.9317451099
 20
11.3239735008
 30
0.0
 10
9.9528727616
 20
11.3317339934
 30
0.0
 10
9.9751690982
 20
11.3392731031
 30
0.0
 10
9.9985995801
 20
11.3465790143
 30
0.0
 10
10.0231278392
 20
11.3536402456
 30
0.0
 10
10.0487157243
 20
11.3604457364
 30
0.0
 10
10.0753233978
 20
11.3669848019
 30
0.0
 10
10.1029094122
 20
11.3732471508
 30
0.0
 10
10.1314307563
 20
11.3792229443
 30
0.0
 10
10.1608429288
 20
11.3849028133
 30
0.0
 10
10.1911000325
 20
11.3902778308
 30
0.0
 10
10.2221548389
 20
11.3953395334
 30
0.0
 10
10.2539588539
 20
11.4000799943
 30
0.0
 10
10.2864623909
 20
11.404491765
 30
0.0
 10
10.3196147279
 20
11.408567949
 30
0.0
 10
10.3649371829
 20
11.4135824469
 30
0.0
 10
10.4228305325
 20
11.4189491426
 30
0.0
 10
10.4935553435
 20
11.4239188342
 30
0.0
 10
10.5655793027
 20
11.427431592
 30
0.0
 10
10.6384525027
 20
11.4294651821
 30
0.0
 10
10.7117200496
 20
11.4300067506
 30
0.0
 10
10.7849244563
 20
11.4290528532
 30
0.0
 10
10.857608635
 20
11.4266095205
 30
0.0
 10
10.9293188895
 20
11.4226922726
 30
0.0
 10
10.9996072885
 20
11.4173257981
 30
0.0
 10
11.0570591077
 20
11.4116323163
 30
0.0
 10
11.1019686025
 20
11.406360957
 30
0.0
 10
11.1347693473
 20
11.4020987808
 30
0.0
 10
11.1668931536
 20
11.3975047909
 30
0.0
 10
11.198289885
 20
11.3925861337
 30
0.0
 10
11.2289105004
 20
11.3873505497
 30
0.0
 10
11.2587072027
 20
11.3818062739
 30
0.0
 10
11.2876334798
 20
11.375962009
 30
0.0
 10
11.315644187
 20
11.369826915
 30
0.0
 10
11.3426956595
 20
11.3634106565
 30
0.0
 10
11.3687457404
 20
11.3567233079
 30
0.0
 10
11.3937537591
 20
11.3497753755
 30
0.0
 10
11.417681125
 20
11.3425777286
 30
0.0
 10
11.4404900997
 20
11.3351417336
 30
0.0
 10
11.4552526567
 20
11.3299181317
 30
0.0
 10
11.4624360381
 20
11.3272629282
 30
0.0
  0
SPLINE
  5
37E
100
AcDbEntity
  8
0
100
AcDbSpline
 62
7
  6
CONTINUOUS
 70
0
 71
3
 72
11
 73
7
 74
0
 42
0.0000001
 43
0.0000001
 44
0.0000000001
 40
0.0
 40
0.0
 40
0.0
 40
0.0
 40
0.2421340501
 40
0.4899441445
 40
0.7427867353
 40
1.0
 40
1.0
 40
1.0
 40
1.0
 10
10.2615487564
 20
10.4333707543
 30
0.0
 10
10.2763247158
 20
10.4354282768
 30
0.0
 10
10.3062604446
 20
10.4393267449
 30
0.0
 10
10.3517363015
 20
10.444480823
 30
0.0
 10
10.3982131812
 20
10.4489991696
 30
0.0
 10
10.4295360416
 20
10.4515592353
 30
0.0
 10
10.4453400794
 20
10.4527334019
 30
0.0
  0
SPLINE
  5
37F
100
AcDbEntity
  8
0
100
AcDbSpline
 62
7
  6
CONTINUOUS
 70
0
 71
3
 72
11
 73
7
 74
0
 42
0.0000001
 43
0.0000001
 44
0.0000000001
 40
0.0
 40
0.0
 40
0.0
 40
0.0
 40
0.240055716
 40
0.4873659277
 40
0.7410015577
 40
1.0
 40
1.0
 40
1.0
 40
1.0
 10
10.2589168201
 20
10.4169576685
 30
0.0
 10
10.2754043136
 20
10.4194613561
 30
0.0
 10
10.3089349994
 20
10.4241722403
 30
0.0
 10
10.3600506007
 20
10.4302875574
 30
0.0
 10
10.4125845649
 20
10.435540088
 30
0.0
 10
10.448082136
 20
10.4384254225
 30
0.0
 10
10.4660276458
 20
10.4397241817
 30
0.0
  0
SPLINE
  5
380
100
AcDbEntity
  8
0
100
AcDbSpline
 62
7
  6
CONTINUOUS
 70
0
 71
3
 72
41
 73
37
 74
0
 42
0.0000001
 43
0.0000001
 44
0.0000000001
 40
0.0
 40
0.0
 40
0.0
 40
0.0
 40
0.0311447266
 40
0.046777407
 40
0.0624475267
 40
0.0938924725
 40
0.1254748062
 40
0.1571823995
 40
0.1890004692
 40
0.2209120774
 40
0.2528984387
 40
0.2689157161
 40
0.284943993
 40
0.3170180755
 40
0.3491034266
 40
0.3811778877
 40
0.41321951
 40
0.4452069795
 40
0.4771200322
 40
0.5089398557
 40
0.54064947
 40
0.5722340812
 40
0.603681403
 40
0.6349819363
 40
0.6661292017
 40
0.6971199176
 40
0.7279541176
 40
0.758635199
 40
0.7891699006
 40
0.8195682022
 40
0.8498431466
 40
0.8800105832
 40
0.9100888354
 40
0.9400982997
 40
0.9700609844
 40
1.0
 40
1.0
 40
1.0
 40
1.0
 10
10.3084101768
 20
9.7949300695
 30
0.0
 10
10.2979658297
 20
9.7956543874
 30
0.0
 10
10.2823111933
 20
9.7973152486
 30
0.0
 10
10.2615830232
 20
9.800652908
 30
0.0
 10
10.2408877807
 20
9.8047505542
 30
0.0
 10
10.2152259614
 20
9.8112763868
 30
0.0
 10
10.1849696977
 20
9.8212930624
 30
0.0
 10
10.1553726811
 20
9.8334515394
 30
0.0
 10
10.1265933973
 20
9.8476867859
 30
0.0
 10
10.0987856897
 20
9.8639222036
 30
0.0
 10
10.076552841
 20
9.879041645
 30
0.0
 10
10.0593956743
 20
9.8920453199
 30
0.0
 10
10.0426699749
 20
9.9056462801
 30
0.0
 10
10.0226378381
 20
9.9237165927
 30
0.0
 10
10.0001326207
 20
9.9469885885
 30
0.0
 10
9.9792717424
 20
9.9717320232
 30
0.0
 10
9.960167154
 20
9.9978144345
 30
0.0
 10
9.9429205554
 20
10.025097002
 30
0.0
 10
9.9276240333
 20
10.0534343139
 30
0.0
 10
9.914359259
 20
10.08267539
 30
0.0
 10
9.9031971385
 20
10.1126644073
 30
0.0
 10
9.8941974124
 20
10.1432415375
 30
0.0
 10
9.887408329
 20
10.1742437799
 30
0.0
 10
9.8828663895
 20
10.2055058239
 30
0.0
 10
9.8805961479
 20
10.2368609189
 30
0.0
 10
9.880610069
 20
10.268141752
 30
0.0
 10
9.8829084479
 20
10.2991813309
 30
0.0
 10
9.8874793917
 20
10.329813868
 30
0.0
 10
9.8942988626
 20
10.3598756612
 30
0.0
 10
9.9033307898
 20
10.3892059728
 30
0.0
 10
9.9145272211
 20
10.4176478814
 30
0.0
 10
9.9278286095
 20
10.4450491899
 30
0.0
 10
9.9431639207
 20
10.4712630573
 30
0.0
 10
9.9604517627
 20
10.4961495313
 30
0.0
 10
9.9795979767
 20
10.5195736229
 30
0.0
 10
9.9935389719
 20
10.5341371942
 30
0.0
 10
10.0007776579
 20
10.5411291964
 30
0.0
  0
SPLINE
  5
381
100
AcDbEntity
  8
0
100
AcDbSpline
 62
7
  6
CONTINUOUS
 70
0
 71
3
 72
11
 73
7
 74
0
 42
0.0000001
 43
0.0000001
 44
0.0000000001
 40
0.0
 40
0.0
 40
0.0
 40
0.0
 40
0.2386425233
 40
0.4857018748
 40
0.7399231101
 40
1.0
 40
1.0
 40
1.0
 40
1.0
 10
10.2575566316
 20
10.3900983103
 30
0.0
 10
10.2763598041
 20
10.3930264872
 30
0.0
 10
10.3147088553
 20
10.3984844981
 30
0.0
 10
10.3733095076
 20
10.4054044793
 30
0.0
 10
10.4337515909
 20
10.4111734667
 30
0.0
 10
10.4746542749
 20
10.4142010597
 30
0.0
 10
10.4953511688
 20
10.4155222926
 30
0.0
  0
SPLINE
  5
382
100
AcDbEntity
  8
0
100
AcDbSpline
 62
7
  6
CONTINUOUS
 70
0
 71
3
 72
11
 73
7
 74
0
 42
0.0000001
 43
0.0000001
 44
0.0000000001
 40
0.0
 40
0.0
 40
0.0
 40
0.0
 40
0.2409034678
 40
0.4887597462
 40
0.7422463091
 40
1.0
 40
1.0
 40
1.0
 40
1.0
 10
10.319256081
 20
10.2310410906
 30
0.0
 10
10.33921995
 20
10.2336009208
 30
0.0
 10
10.3797889662
 20
10.2382974858
 30
0.0
 10
10.4415422088
 20
10.2440320514
 30
0.0
 10
10.5048087193
 20
10.2485350458
 30
0.0
 10
10.547471867
 20
10.2506842458
 30
0.0
 10
10.5689895119
 20
10.2515520984
 30
0.0
  0
SPLINE
  5
383
100
AcDbEntity
  8
0
100
AcDbSpline
 62
7
  6
CONTINUOUS
 70
0
 71
3
 72
15
 73
11
 74
0
 42
0.0000001
 43
0.0000001
 44
0.0000000001
 40
0.0
 40
0.0
 40
0.0
 40
0.0
 40
0.1273482888
 40
0.2538606703
 40
0.3795878487
 40
0.5046051206
 40
0.6290174369
 40
0.7529533749
 40
0.8765605786
 40
1.0
 40
1.0
 40
1.0
 40
1.0
 10
8.7073105925
 20
5.9683826753
 30
0.0
 10
8.7073105925
 20
5.9763932357
 30
0.0
 10
8.7080754478
 20
5.9923728499
 30
0.0
 10
8.7115343805
 20
6.0160349238
 30
0.0
 10
8.7172698909
 20
6.0391024618
 30
0.0
 10
8.7252301685
 20
6.0613597237
 30
0.0
 10
8.7353422047
 20
6.0826014508
 30
0.0
 10
8.7475137517
 20
6.1026315189
 30
0.0
 10
8.7616304011
 20
6.1212622417
 30
0.0
 10
8.7722595288
 20
6.1326429463
 30
0.0
 10
8.7778443301
 20
6.1380374137
 30
0.0
  0
SPLINE
  5
384
100
AcDbEntity
  8
0
100
AcDbSpline
 62
7
  6
CONTINUOUS
 70
0
 71
3
 72
11
 73
7
 74
0
 42
0.0000001
 43
0.0000001
 44
0.0000000001
 40
0.0
 40
0.0
 40
0.0
 40
0.0
 40
0.2435544016
 40
0.4919355838
 40
0.7443532925
 40
1.0
 40
1.0
 40
1.0
 40
1.0
 10
10.3796001543
 20
10.1836485025
 30
0.0
 10
10.3945066719
 20
10.1853014739
 30
0.0
 10
10.4246457278
 20
10.1883695627
 30
0.0
 10
10.4703212162
 20
10.1922345496
 30
0.0
 10
10.5167969068
 20
10.1953989241
 30
0.0
 10
10.5480423261
 20
10.1970254999
 30
0.0
 10
10.5637694468
 20
10.1977216519
 30
0.0
  0
SPLINE
  5
385
100
AcDbEntity
  8
0
100
AcDbSpline
 62
7
  6
CONTINUOUS
 70
0
 71
3
 72
15
 73
11
 74
0
 42
0.0000001
 43
0.0000001
 44
0.0000000001
 40
0.0
 40
0.0
 40
0.0
 40
0.0
 40
0.1273482888
 40
0.2538606703
 40
0.3795878487
 40
0.5046051206
 40
0.6290174369
 40
0.7529533749
 40
0.8765605786
 40
1.0
 40
1.0
 40
1.0
 40
1.0
 10
8.7073105925
 20
7.2184840259
 30
0.0
 10
8.7073105925
 20
7.2264945863
 30
0.0
 10
8.7080754478
 20
7.2424742005
 30
0.0
 10
8.7115343805
 20
7.2661362743
 30
0.0
 10
8.7172698909
 20
7.2892038124
 30
0.0
 10
8.7252301685
 20
7.3114610743
 30
0.0
 10
8.7353422047
 20
7.3327028014
 30
0.0
 10
8.7475137517
 20
7.3527328695
 30
0.0
 10
8.7616304011
 20
7.3713635923
 30
0.0
 10
8.7722595288
 20
7.3827442969
 30
0.0
 10
8.7778443301
 20
7.3881387642
 30
0.0
  0
SPLINE
  5
386
100
AcDbEntity
  8
0
100
AcDbSpline
 62
7
  6
CONTINUOUS
 70
0
 71
3
 72
23
 73
19
 74
0
 42
0.0000001
 43
0.0000001
 44
0.0000000001
 40
0.0
 40
0.0
 40
0.0
 40
0.0
 40
0.0755928687
 40
0.1466377249
 40
0.2134665492
 40
0.2765155287
 40
0.3363267959
 40
0.3935471461
 40
0.4489239134
 40
0.5032891329
 40
0.5575270071
 40
0.6125283945
 40
0.6691442933
 40
0.7281498607
 40
0.7902201918
 40
0.8559241498
 40
0.9257269949
 40
1.0
 40
1.0
 40
1.0
 40
1.0
 10
12.6576076513
 20
6.4748141739
 30
0.0
 10
12.6569073159
 20
6.4741377019
 30
0.0
 10
12.6555075083
 20
6.4728670496
 30
0.0
 10
12.6533411676
 20
6.471169466
 30
0.0
 10
12.6511773224
 20
6.4697437017
 30
0.0
 10
12.6490180287
 20
6.4685919717
 30
0.0
 10
12.6468650958
 20
6.4677163455
 30
0.0
 10
12.6447207092
 20
6.4671189634
 30
0.0
 10
12.6425876814
 20
6.4668018299
 30
0.0
 10
12.6404695646
 20
6.466766636
 30
0.0
 10
12.6383704326
 20
6.4670137017
 30
0.0
 10
12.6362943791
 20
6.4675424933
 30
0.0
 10
12.6342448732
 20
6.4683510223
 30
0.0
 10
12.6322247005
 20
6.4694371069
 30
0.0
 10
12.630235847
 20
6.470798139
 30
0.0
 10
12.6282799506
 20
6.472431819
 30
0.0
 10
12.6263585979
 20
6.4743357259
 30
0.0
 10
12.6251408528
 20
6.4757385035
 30
0.0
 10
12.6245372045
 20
6.4764807126
 30
0.0
  0
SPLINE
  5
387
100
AcDbEntity
  8
0
100
AcDbSpline
 62
7
  6
CONTINUOUS
 70
0
 71
3
 72
82
 73
78
 74
0
 42
0.0000001
 43
0.0000001
 44
0.0000000001
 40
0.0
 40
0.0
 40
0.0
 40
0.0
 40
0.0039532977
 40
0.007753719
 40
0.0114080621
 40
0.0149242813
 40
0.0183115528
 40
0.0215804397
 40
0.0247428961
 40
0.0278123537
 40
0.0308036793
 40
0.0337330749
 40
0.0366179235
 40
0.0394764941
 40
0.0423276194
 40
0.0451902901
 40
0.0480832509
 40
0.0510246028
 40
0.0540314972
 40
0.0571198555
 40
0.063594285
 40
0.0670085954
 40
0.0705539537
 40
0.0742392549
 40
0.0780721998
 40
0.0820593492
 40
0.0862062497
 40
0.0905175693
 40
0.094997122
 40
0.0996480489
 40
0.1044728104
 40
0.1094733082
 40
0.1146509444
 40
0.1200066227
 40
0.1255408839
 40
0.1371447107
 40
0.149460349
 40
0.1624804427
 40
0.1761937761
 40
0.1905858214
 40
0.2056391639
 40
0.2213338401
 40
0.237647612
 40
0.2545561915
 40
0.2720334336
 40
0.2900515134
 40
0.3085810758
 40
0.3275913698
 40
0.3470503708
 40
0.3669248913
 40
0.3871806943
 40
0.4077826004
 40
0.428694588
 40
0.4498798899
 40
0.4713010871
 40
0.4929202019
 40
0.5365973319
 40
0.5806006121
 40
0.624615597
 40
0.6683277359
 40
0.7114252744
 40
0.732648022
 40
0.7536029805
 40
0.7742532791
 40
0.7945627778
 40
0.8144961635
 40
0.8340190528
 40
0.8530981
 40
0.8717011013
 40
0.8897971061
 40
0.9073565421
 40
0.9243513446
 40
0.9407551054
 40
0.956543296
 40
0.9716932093
 40
0.9861848989
 40
1.0
 40
1.0
 40
1.0
 40
1.0
 10
9.7530119277
 20
11.1861591297
 30
0.0
 10
9.7511244378
 20
11.1879156322
 30
0.0
 10
9.7474931615
 20
11.1914379042
 30
0.0
 10
9.7423928878
 20
11.1968588399
 30
0.0
 10
9.737751349
 20
11.202308624
 30
0.0
 10
9.7335709348
 20
11.2077847407
 30
0.0
 10
9.729853917
 20
11.2132849672
 30
0.0
 10
9.7266022475
 20
11.2188068358
 30
0.0
 10
9.7238179773
 20
11.2243479966
 30
0.0
 10
9.721502913
 20
11.2299058935
 30
0.0
 10
9.719658706
 20
11.2354778388
 30
0.0
 10
9.7182869917
 20
11.2410609935
 30
0.0
 10
9.7173888328
 20
11.2466522207
 30
0.0
 10
9.7169652727
 20
11.2522482588
 30
0.0
 10
9.7170166326
 20
11.2578456547
 30
0.0
 10
9.7175428762
 20
11.2634409399
 30
0.0
 10
9.7185435583
 20
11.2690307006
 30
0.0
 10
9.7200175282
 20
11.2746116494
 30
0.0
 10
9.7219638151
 20
11.280180952
 30
0.0
 10
9.725236795
 20
11.2877039015
 30
0.0
 10
9.7294349763
 20
11.295086652
 30
0.0
 10
9.7344356436
 20
11.3022848126
 30
0.0
 10
9.7387162069
 20
11.3077558269
 30
0.0
 10
9.7434570874
 20
11.3131994654
 30
0.0
 10
9.7486563687
 20
11.3186139765
 30
0.0
 10
9.7543113872
 20
11.3239968373
 30
0.0
 10
9.760419451
 20
11.3293457541
 30
0.0
 10
9.7669777102
 20
11.3346582386
 30
0.0
 10
9.7739830045
 20
11.3399319895
 30
0.0
 10
9.7814320925
 20
11.3451644952
 30
0.0
 10
9.789321427
 20
11.3503533952
 30
0.0
 10
9.7976472955
 20
11.3554962687
 30
0.0
 10
9.8064057806
 20
11.3605906452
 30
0.0
 10
9.8155927197
 20
11.3656342627
 30
0.0
 10
9.8286138212
 20
11.3723949791
 30
0.0
 10
9.8459507738
 20
11.3806821317
 30
0.0
 10
9.8680732793
 20
11.3902353893
 30
0.0
 10
9.8917893403
 20
11.3995302094
 30
0.0
 10
9.9170538798
 20
11.4085488004
 30
0.0
 10
9.9438192216
 20
11.4172738951
 30
0.0
 10
9.9720345356
 20
11.4256887164
 30
0.0
 10
10.0016461622
 20
11.4337770638
 30
0.0
 10
10.0325976761
 20
11.441523346
 30
0.0
 10
10.0648300204
 20
11.4489126292
 30
0.0
 10
10.0982816286
 20
11.4559306729
 30
0.0
 10
10.1328885614
 20
11.4625639485
 30
0.0
 10
10.16858464
 20
11.4687996697
 30
0.0
 10
10.2053015776
 20
11.4746258173
 30
0.0
 10
10.2429691107
 20
11.4800311599
 30
0.0
 10
10.2815151332
 20
11.4850052876
 30
0.0
 10
10.3208658421
 20
11.4895386241
 30
0.0
 10
10.3609458829
 20
11.4936224399
 30
0.0
 10
10.4016785047
 20
11.4972488746
 30
0.0
 10
10.4429856775
 20
11.5004109326
 30
0.0
 10
10.4847883468
 20
11.5031025678
 30
0.0
 10
10.5412691365
 20
11.5060670518
 30
0.0
 10
10.6125181937
 20
11.5085549862
 30
0.0
 10
10.6984112262
 20
11.5095977039
 30
0.0
 10
10.7843290573
 20
11.5086992096
 30
0.0
 10
10.8696136209
 20
11.5058665151
 30
0.0
 10
10.9399678753
 20
11.5018927362
 30
0.0
 10
10.9954312623
 20
11.4977484619
 30
0.0
 10
11.0362542937
 20
11.4941906048
 30
0.0
 10
11.0764362192
 20
11.4901743117
 30
0.0
 10
11.1159001482
 20
11.485707263
 30
0.0
 10
11.15457049
 20
11.4807980701
 30
0.0
 10
11.1923732077
 20
11.4754561815
 30
0.0
 10
11.2292359379
 20
11.4696918938
 30
0.0
 10
11.2650881362
 20
11.4635163148
 30
0.0
 10
11.2998612104
 20
11.4569413461
 30
0.0
 10
11.3334886556
 20
11.44997966
 30
0.0
 10
11.3659061817
 20
11.4426446705
 30
0.0
 10
11.3970519002
 20
11.434950524
 30
0.0
 10
11.4268662693
 20
11.4269120543
 30
0.0
 10
11.4552927529
 20
11.4185447398
 30
0.0
 10
11.4822766773
 20
11.4098647622
 30
0.0
 10
11.4996932943
 20
11.4037318815
 30
0.0
 10
11.5081446884
 20
11.4006079806
 30
0.0
  0
SPLINE
  5
388
100
AcDbEntity
  8
0
100
AcDbSpline
 62
7
  6
CONTINUOUS
 70
0
 71
3
 72
76
 73
72
 74
0
 42
0.0000001
 43
0.0000001
 44
0.0000000001
 40
0.0
 40
0.0
 40
0.0
 40
0.0
 40
0.0065123951
 40
0.0096141631
 40
0.0126281228
 40
0.0155680056
 40
0.0184487223
 40
0.0212862269
 40
0.0240972962
 40
0.0268992212
 40
0.0297094828
 40
0.0325453894
 40
0.0354237497
 40
0.0383605554
 40
0.0413707797
 40
0.047661992
 40
0.0509700017
 40
0.054398824
 40
0.0579571712
 40
0.0616526293
 40
0.0654917055
 40
0.0694800032
 40
0.0736222367
 40
0.0779223547
 40
0.0823836498
 40
0.0870087472
 40
0.0917997656
 40
0.0967583155
 40
0.1071815101
 40
0.1182839397
 40
0.1300650641
 40
0.1425199485
 40
0.155639945
 40
0.1694132372
 40
0.1838252519
 40
0.198858975
 40
0.214495208
 40
0.2307128107
 40
0.2474888895
 40
0.2647989508
 40
0.2826170247
 40
0.3009158077
 40
0.319666782
 40
0.3388403174
 40
0.3584057568
 40
0.3783315154
 40
0.3985851798
 40
0.4191335925
 40
0.4609780534
 40
0.5035885452
 40
0.5466812322
 40
0.5899680777
 40
0.6331593743
 40
0.6759662384
 40
0.7181031147
 40
0.7388329733
 40
0.7592910638
 40
0.7794437607
 40
0.7992581255
 40
0.8187020044
 40
0.8377441077
 40
0.856354094
 40
0.8745026635
 40
0.8921616738
 40
0.90930425
 40
0.9259048742
 40
0.9419395407
 40
0.9573859152
 40
0.9722232989
 40
0.9864336862
 40
1.0
 40
1.0
 40
1.0
 40
1.0
 10
9.7798638358
 20
11.1648930927
 30
0.0
 10
9.7775703135
 20
11.1681453181
 30
0.0
 10
9.7744402374
 20
11.1731399393
 30
0.0
 10
9.7710043845
 20
11.1800546755
 30
0.0
 10
9.768886808
 20
11.1851724422
 30
0.0
 10
9.7671888625
 20
11.1903022937
 30
0.0
 10
9.76591165
 20
11.1954421036
 30
0.0
 10
9.7650563477
 20
11.2005891615
 30
0.0
 10
9.7646235363
 20
11.2057406684
 30
0.0
 10
9.7646137761
 20
11.2108937278
 30
0.0
 10
9.7650269933
 20
11.2160453687
 30
0.0
 10
9.7658627756
 20
11.2211927109
 30
0.0
 10
9.7671204894
 20
11.2263328549
 30
0.0
 10
9.7687990821
 20
11.2314634384
 30
0.0
 10
9.7716376194
 20
11.2383881486
 30
0.0
 10
9.7753042387
 20
11.2451948324
 30
0.0
 10
9.7796940498
 20
11.2518396188
 30
0.0
 10
9.7834553073
 20
11.2568870216
 30
0.0
 10
9.7876276896
 20
11.2619110012
 30
0.0
 10
9.7922095649
 20
11.2669100698
 30
0.0
 10
9.7971986607
 20
11.2718821062
 30
0.0
 10
9.8025928313
 20
11.2768250168
 30
0.0
 10
9.8083896225
 20
11.2817367649
 30
0.0
 10
9.8145864568
 20
11.2866152986
 30
0.0
 10
9.8211806469
 20
11.2914584553
 30
0.0
 10
9.8281692184
 20
11.2962642235
 30
0.0
 10
9.8355491357
 20
11.3010305111
 30
0.0
 10
9.8460823734
 20
11.3074368683
 30
0.0
 10
9.8602281492
 20
11.3153131899
 30
0.0
 10
9.8784350895
 20
11.3244226468
 30
0.0
 10
9.8981147075
 20
11.3333252015
 30
0.0
 10
9.9192321115
 20
11.3420050263
 30
0.0
 10
9.9417502481
 20
11.3504467071
 30
0.0
 10
9.9656292445
 20
11.3586351132
 30
0.0
 10
9.9908267343
 20
11.3665555234
 30
0.0
 10
10.0172978725
 20
11.3741936659
 30
0.0
 10
10.0449954476
 20
11.3815357858
 30
0.0
 10
10.0738699953
 20
11.3885686393
 30
0.0
 10
10.1038699074
 20
11.3952795338
 30
0.0
 10
10.1349415204
 20
11.4016563465
 30
0.0
 10
10.1670292077
 20
11.4076875831
 30
0.0
 10
10.2000754964
 20
11.4133623676
 30
0.0
 10
10.2340211855
 20
11.4186704634
 30
0.0
 10
10.2688054474
 20
11.4236022854
 30
0.0
 10
10.3043659355
 20
11.4281489473
 30
0.0
 10
10.3406388784
 20
11.4323022497
 30
0.0
 10
10.3775592934
 20
11.4360547548
 30
0.0
 10
10.4278643763
 20
11.4405414609
 30
0.0
 10
10.4918753283
 20
11.4450852994
 30
0.0
 10
10.5697341215
 20
11.4488202994
 30
0.0
 10
10.6485379748
 20
11.4508424668
 30
0.0
 10
10.7277219636
 20
11.4511372254
 30
0.0
 10
10.8067189406
 20
11.4497023688
 30
0.0
 10
10.8849625893
 20
11.4465483169
 30
0.0
 10
10.9494160764
 20
11.4424849305
 30
0.0
 10
11.0001694008
 20
11.4383778872
 30
0.0
 10
11.0374930024
 20
11.4349023588
 30
0.0
 10
11.0742141078
 20
11.4310213414
 30
0.0
 10
11.1102669225
 20
11.4267417728
 30
0.0
 10
11.1455867945
 20
11.4220713893
 30
0.0
 10
11.1801104162
 20
11.4170186122
 30
0.0
 10
11.2137759063
 20
11.4115925526
 30
0.0
 10
11.2465229323
 20
11.4058029839
 30
0.0
 10
11.2782928345
 20
11.3996603539
 30
0.0
 10
11.3090287277
 20
11.3931757523
 30
0.0
 10
11.3386756034
 20
11.3863608833
 30
0.0
 10
11.3671804503
 20
11.3792280319
 30
0.0
 10
11.3944922139
 20
11.3717900664
 30
0.0
 10
11.4205624749
 20
11.3640603958
 30
0.0
 10
11.4453441738
 20
11.3560530053
 30
0.0
 10
11.4613540045
 20
11.3504063178
 30
0.0
 10
11.4691299189
 20
11.3475320955
 30
0.0
  0
SPLINE
  5
389
100
AcDbEntity
  8
0
100
AcDbSpline
 62
7
  6
CONTINUOUS
 70
0
 71
3
 72
15
 73
11
 74
0
 42
0.0000001
 43
0.0000001
 44
0.0000000001
 40
0.0
 40
0.0
 40
0.0
 40
0.0
 40
0.1273482888
 40
0.2538606703
 40
0.3795878487
 40
0.5046051206
 40
0.6290174369
 40
0.7529533749
 40
0.8765605786
 40
1.0
 40
1.0
 40
1.0
 40
1.0
 10
11.4231078178
 20
7.0301428486
 30
0.0
 10
11.4231078178
 20
7.0381534091
 30
0.0
 10
11.4238726731
 20
7.0541330232
 30
0.0
 10
11.4273316058
 20
7.0777950971
 30
0.0
 10
11.4330671162
 20
7.1008626351
 30
0.0
 10
11.4410273938
 20
7.123119897
 30
0.0
 10
11.45113943
 20
7.1443616241
 30
0.0
 10
11.463310977
 20
7.1643916922
 30
0.0
 10
11.4774276264
 20
7.183022415
 30
0.0
 10
11.4880567541
 20
7.1944031196
 30
0.0
 10
11.4936415554
 20
7.199797587
 30
0.0
  0
SPLINE
  5
38A
100
AcDbEntity
  8
0
100
AcDbSpline
 62
7
  6
CONTINUOUS
 70
0
 71
3
 72
26
 73
22
 74
0
 42
0.0000001
 43
0.0000001
 44
0.0000000001
 40
0.0
 40
0.0
 40
0.0
 40
0.0
 40
0.020082923
 40
0.0402673647
 40
0.0606531578
 40
0.0813369997
 40
0.1024109763
 40
0.1239616384
 40
0.1687881442
 40
0.2164009069
 40
0.267254581
 40
0.3217057972
 40
0.3800261422
 40
0.4424163368
 40
0.5090190093
 40
0.579928885
 40
0.655201719
 40
0.7348603821
 40
0.8189002204
 40
0.9072983332
 40
1.0
 40
1.0
 40
1.0
 40
1.0
 10
11.6304077351
 20
11.1893803113
 30
0.0
 10
11.6304077403
 20
11.1909109095
 30
0.0
 10
11.6302942265
 20
11.1939810377
 30
0.0
 10
11.6297840371
 20
11.1985793431
 30
0.0
 10
11.6289341566
 20
11.2031738646
 30
0.0
 10
11.6277450293
 20
11.2077622691
 30
0.0
 10
11.626217385
 20
11.2123429416
 30
0.0
 10
11.6236978605
 20
11.2185177352
 30
0.0
 10
11.6196574343
 20
11.2262341761
 30
0.0
 10
11.6135347798
 20
11.2353003995
 30
0.0
 10
11.6060879591
 20
11.2442867949
 30
0.0
 10
11.5973301836
 20
11.2531830157
 30
0.0
 10
11.5872745094
 20
11.2619799676
 30
0.0
 10
11.575935174
 20
11.2706673024
 30
0.0
 10
11.5633278367
 20
11.27923415
 30
0.0
 10
11.5494699664
 20
11.2876692357
 30
0.0
 10
11.5343809179
 20
11.2959610504
 30
0.0
 10
11.5180819833
 20
11.3040979526
 30
0.0
 10
11.5005960134
 20
11.3120685056
 30
0.0
 10
11.4819483969
 20
11.3198609815
 30
0.0
 10
11.4690629738
 20
11.3248134046
 30
0.0
 10
11.4624360381
 20
11.3272629282
 30
0.0
  0
SPLINE
  5
38B
100
AcDbEntity
  8
0
100
AcDbSpline
 62
7
  6
CONTINUOUS
 70
0
 71
3
 72
47
 73
43
 74
0
 42
0.0000001
 43
0.0000001
 44
0.0000000001
 40
0.0
 40
0.0
 40
0.0
 40
0.0
 40
0.0083889294
 40
0.0173412825
 40
0.0268645586
 40
0.0369616715
 40
0.0476316041
 40
0.0588705243
 40
0.0706719231
 40
0.0830273182
 40
0.1093540222
 40
0.137747894
 40
0.1680815074
 40
0.2002085948
 40
0.2339669758
 40
0.2691809263
 40
0.305663223
 40
0.3432169847
 40
0.3816373914
 40
0.4207133289
 40
0.4602289911
 40
0.4999654552
 40
0.5397022422
 40
0.5792188714
 40
0.618296415
 40
0.6567190583
 40
0.6942756741
 40
0.7307614233
 40
0.7659793987
 40
0.7997423442
 40
0.8318744965
 40
0.8622136275
 40
0.8906134165
 40
0.9169463677
 40
0.9293049232
 40
0.9411096857
 40
0.952351892
 40
0.9630251798
 40
0.9731256482
 40
0.9826524275
 40
0.99160825
 40
1.0
 40
1.0
 40
1.0
 40
1.0
 10
12.6009979011
 20
6.542650148
 30
0.0
 10
12.6016483981
 20
6.5434455162
 30
0.0
 10
12.6029443041
 20
6.5451299529
 30
0.0
 10
12.604817477
 20
6.5478365514
 30
0.0
 10
12.6066799921
 20
6.5508006758
 30
0.0
 10
12.6085291628
 20
6.5540180136
 30
0.0
 10
12.6103623565
 20
6.5574839802
 30
0.0
 10
12.6121768107
 20
6.5611935475
 30
0.0
 10
12.6139699728
 20
6.5651412971
 30
0.0
 10
12.6163800037
 20
6.5708362881
 30
0.0
 10
12.6193064293
 20
6.5785162455
 30
0.0
 10
12.6226223299
 20
6.5883945273
 30
0.0
 10
12.6257929172
 20
6.5990635472
 30
0.0
 10
12.62879922
 20
6.6104605755
 30
0.0
 10
12.6316232104
 20
6.6225187103
 30
0.0
 10
12.6342479869
 20
6.6351669021
 30
0.0
 10
12.6366578564
 20
6.6483305458
 30
0.0
 10
12.6388384299
 20
6.661931914
 30
0.0
 10
12.6407767036
 20
6.6758906462
 30
0.0
 10
12.642461134
 20
6.6901242356
 30
0.0
 10
12.6438817033
 20
6.7045485283
 30
0.0
 10
12.6450299771
 20
6.7190782291
 30
0.0
 10
12.6458991539
 20
6.7336274118
 30
0.0
 10
12.6464841045
 20
6.7481100343
 30
0.0
 10
12.6467814042
 20
6.7624404519
 30
0.0
 10
12.6467893537
 20
6.7765339313
 30
0.0
 10
12.6465079923
 20
6.790307158
 30
0.0
 10
12.645939101
 20
6.8036787403
 30
0.0
 10
12.6450861963
 20
6.8165697005
 30
0.0
 10
12.6439545176
 20
6.828903972
 30
0.0
 10
12.6425509907
 20
6.8406088403
 30
0.0
 10
12.6408842349
 20
6.8516155431
 30
0.0
 10
12.6389643622
 20
6.8618593136
 30
0.0
 10
12.6371266902
 20
6.8698717734
 30
0.0
 10
12.6355262766
 20
6.875846653
 30
0.0
 10
12.6342955692
 20
6.8800054912
 30
0.0
 10
12.6330108262
 20
6.8839313907
 30
0.0
 10
12.6316739382
 20
6.8876186457
 30
0.0
 10
12.6302868657
 20
6.8910619014
 30
0.0
 10
12.6288515793
 20
6.8942562395
 30
0.0
 10
12.6273702405
 20
6.8971969845
 30
0.0
 10
12.6263194421
 20
6.8990451694
 30
0.0
 10
12.6257850999
 20
6.8999232043
 30
0.0
  0
SPLINE
  5
38C
100
AcDbEntity
  8
0
100
AcDbSpline
 62
7
  6
CONTINUOUS
 70
0
 71
3
 72
39
 73
35
 74
0
 42
0.0000001
 43
0.0000001
 44
0.0000000001
 40
0.0
 40
0.0
 40
0.0
 40
0.0
 40
0.0311159584
 40
0.0620233352
 40
0.0927351385
 40
0.1232711775
 40
0.1536587332
 40
0.1839312107
 40
0.2141268395
 40
0.244287099
 40
0.2744549757
 40
0.3046731314
 40
0.3349820893
 40
0.3654185446
 40
0.396013864
 40
0.426792882
 40
0.4577729977
 40
0.4889636199
 40
0.5203659696
 40
0.5519731789
 40
0.5837707176
 40
0.6157370646
 40
0.6478445906
 40
0.68006064
 40
0.7123487314
 40
0.7446698626
 40
0.7769838842
 40
0.8092508939
 40
0.8414326248
 40
0.8734937998
 40
0.9054034138
 40
0.9371358961
 40
0.9686718081
 40
1.0
 40
1.0
 40
1.0
 40
1.0
 10
8.6692822691
 20
5.9627001334
 30
0.0
 10
8.6692822691
 20
5.971868443
 30
0.0
 10
8.6701773503
 20
5.9901568668
 30
0.0
 10
8.6742252964
 20
6.0172238611
 30
0.0
 10
8.6809359422
 20
6.0435837926
 30
0.0
 10
8.690245766
 20
6.0689787531
 30
0.0
 10
8.7020656149
 20
6.0931640827
 30
0.0
 10
8.7162821199
 20
6.1159054083
 30
0.0
 10
8.7327582651
 20
6.1369825627
 30
0.0
 10
8.7513348916
 20
6.1561914169
 30
0.0
 10
8.7718323793
 20
6.1733459182
 30
0.0
 10
8.794052158
 20
6.1882803032
 30
0.0
 10
8.8177790597
 20
6.2008504399
 30
0.0
 10
8.8427833698
 20
6.2109353506
 30
0.0
 10
8.8688231437
 20
6.218438536
 30
0.0
 10
8.8956467808
 20
6.2232884167
 30
0.0
 10
8.9229953745
 20
6.2254393353
 30
0.0
 10
8.9506053263
 20
6.224871712
 30
0.0
 10
8.9782108298
 20
6.2215919503
 30
0.0
 10
9.00554643
 20
6.2156327227
 30
0.0
 10
9.0323494946
 20
6.2070521489
 30
0.0
 10
9.0583626615
 20
6.1959333817
 30
0.0
 10
9.0833363521
 20
6.1823839274
 30
0.0
 10
9.1070309245
 20
6.166534234
 30
0.0
 10
9.1292190996
 20
6.1485368171
 30
0.0
 10
9.1496880394
 20
6.1285646365
 30
0.0
 10
9.1682411998
 20
6.1068093622
 30
0.0
 10
9.1847004944
 20
6.0834798456
 30
0.0
 10
9.198907669
 20
6.0587998908
 30
0.0
 10
9.2107259092
 20
6.0330061795
 30
0.0
 10
9.2200413315
 20
6.0063465057
 30
0.0
 10
9.2267636216
 20
5.9790758378
 30
0.0
 10
9.2308275712
 20
5.9514595416
 30
0.0
 10
9.231740911
 20
5.9329243383
 30
0.0
 10
9.231740911
 20
5.9236934941
 30
0.0
  0
SPLINE
  5
38D
100
AcDbEntity
  8
0
100
AcDbSpline
 62
7
  6
CONTINUOUS
 70
0
 71
3
 72
38
 73
34
 74
0
 42
0.0000001
 43
0.0000001
 44
0.0000000001
 40
0.0
 40
0.0
 40
0.0
 40
0.0
 40
0.0255189257
 40
0.0500460966
 40
0.0737019668
 40
0.096622713
 40
0.1189600677
 40
0.1408791935
 40
0.1625559613
 40
0.1841727105
 40
0.2059134572
 40
0.2279587895
 40
0.2504813022
 40
0.273641689
 40
0.3224118999
 40
0.3483016785
 40
0.3753205734
 40
0.4035534556
 40
0.4330718295
 40
0.4639353297
 40
0.4961931509
 40
0.5298849725
 40
0.5650426276
 40
0.6016903484
 40
0.6398465154
 40
0.6795236158
 40
0.7207295889
 40
0.7634674377
 40
0.8077362396
 40
0.8535324308
 40
0.9008501194
 40
0.9496786824
 40
1.0
 40
1.0
 40
1.0
 40
1.0
 10
11.6232113157
 20
11.1646945964
 30
0.0
 10
11.6245772968
 20
11.1666224862
 30
0.0
 10
11.6271354341
 20
11.1704911538
 30
0.0
 10
11.6304862563
 20
11.1764427031
 30
0.0
 10
11.6332675211
 20
11.1824175616
 30
0.0
 10
11.6354761469
 20
11.1884119848
 30
0.0
 10
11.6371099465
 20
11.1944220869
 30
0.0
 10
11.6381666718
 20
11.2004435997
 30
0.0
 10
11.638644971
 20
11.2064717775
 30
0.0
 10
11.6385440661
 20
11.2125016174
 30
0.0
 10
11.6378640899
 20
11.2185280404
 30
0.0
 10
11.6366061739
 20
11.2245460461
 30
0.0
 10
11.6347716821
 20
11.2305513584
 30
0.0
 10
11.6315052866
 20
11.2386732452
 30
0.0
 10
11.6270984517
 20
11.2466328433
 30
0.0
 10
11.6217198421
 20
11.2543641486
 30
0.0
 10
11.6170416583
 20
11.2602494648
 30
0.0
 10
11.6118039833
 20
11.2661002064
 30
0.0
 10
11.6060096763
 20
11.2719142593
 30
0.0
 10
11.5996624699
 20
11.2776881771
 30
0.0
 10
11.5927661422
 20
11.2834187752
 30
0.0
 10
11.5853249096
 20
11.2891028657
 30
0.0
 10
11.5773431667
 20
11.2947370602
 30
0.0
 10
11.5688257761
 20
11.3003181916
 30
0.0
 10
11.5597777856
 20
11.3058428322
 30
0.0
 10
11.5502046805
 20
11.3113078058
 30
0.0
 10
11.5401121984
 20
11.3167097289
 30
0.0
 10
11.5295065137
 20
11.3220453882
 30
0.0
 10
11.5183940551
 20
11.3273115332
 30
0.0
 10
11.5067814268
 20
11.3325049906
 30
0.0
 10
11.4946755611
 20
11.3376226597
 30
0.0
 10
11.482084242
 20
11.3426611957
 30
0.0
 10
11.4735001186
 20
11.3459167324
 30
0.0
 10
11.4691299189
 20
11.3475320955
 30
0.0
  0
SPLINE
  5
38E
100
AcDbEntity
  8
0
100
AcDbSpline
 62
7
  6
CONTINUOUS
 70
0
 71
3
 72
39
 73
35
 74
0
 42
0.0000001
 43
0.0000001
 44
0.0000000001
 40
0.0
 40
0.0
 40
0.0
 40
0.0
 40
0.0311159584
 40
0.0620233352
 40
0.0927351385
 40
0.1232711775
 40
0.1536587332
 40
0.1839312107
 40
0.2141268395
 40
0.244287099
 40
0.2744549757
 40
0.3046731314
 40
0.3349820893
 40
0.3654185446
 40
0.396013864
 40
0.426792882
 40
0.4577729977
 40
0.4889636199
 40
0.5203659696
 40
0.5519731789
 40
0.5837707176
 40
0.6157370646
 40
0.6478445906
 40
0.68006064
 40
0.7123487314
 40
0.7446698626
 40
0.7769838842
 40
0.8092508939
 40
0.8414326248
 40
0.8734937998
 40
0.9054034138
 40
0.9371358961
 40
0.9686718081
 40
1.0
 40
1.0
 40
1.0
 40
1.0
 10
9.231740911
 20
5.9236934941
 30
0.0
 10
9.231740911
 20
5.9145251845
 30
0.0
 10
9.2308458298
 20
5.8962367607
 30
0.0
 10
9.2267978837
 20
5.8691697665
 30
0.0
 10
9.2200872379
 20
5.842809835
 30
0.0
 10
9.2107774141
 20
5.8174148745
 30
0.0
 10
9.1989575652
 20
5.7932295449
 30
0.0
 10
9.1847410602
 20
5.7704882193
 30
0.0
 10
9.168264915
 20
5.7494110649
 30
0.0
 10
9.1496882885
 20
5.7302022107
 30
0.0
 10
9.1291908008
 20
5.7130477094
 30
0.0
 10
9.1069710221
 20
5.6981133243
 30
0.0
 10
9.0832441204
 20
5.6855431877
 30
0.0
 10
9.0582398103
 20
5.675458277
 30
0.0
 10
9.0322000364
 20
5.6679550915
 30
0.0
 10
9.0053763992
 20
5.6631052109
 30
0.0
 10
8.9780278056
 20
5.6609542923
 30
0.0
 10
8.9504178538
 20
5.6615219155
 30
0.0
 10
8.9228123503
 20
5.6648016773
 30
0.0
 10
8.8954767501
 20
5.6707609049
 30
0.0
 10
8.8686736855
 20
5.6793414787
 30
0.0
 10
8.8426605186
 20
5.6904602459
 30
0.0
 10
8.817686828
 20
5.7040097001
 30
0.0
 10
8.7939922556
 20
5.7198593936
 30
0.0
 10
8.7718040805
 20
5.7378568105
 30
0.0
 10
8.7513351407
 20
5.757828991
 30
0.0
 10
8.7327819803
 20
5.7795842654
 30
0.0
 10
8.7163226857
 20
5.802913782
 30
0.0
 10
8.7021155111
 20
5.8275937368
 30
0.0
 10
8.6902972708
 20
5.853387448
 30
0.0
 10
8.6809818486
 20
5.8800471219
 30
0.0
 10
8.6742595585
 20
5.9073177898
 30
0.0
 10
8.6701956089
 20
5.934934086
 30
0.0
 10
8.6692822691
 20
5.9534692893
 30
0.0
 10
8.6692822691
 20
5.9627001334
 30
0.0
  0
SPLINE
  5
38F
100
AcDbEntity
  8
0
100
AcDbSpline
 62
7
  6
CONTINUOUS
 70
0
 71
3
 72
39
 73
35
 74
0
 42
0.0000001
 43
0.0000001
 44
0.0000000001
 40
0.0
 40
0.0
 40
0.0
 40
0.0
 40
0.0507370276
 40
0.0997924958
 40
0.1471454749
 40
0.1927851478
 40
0.2367051194
 40
0.2789023724
 40
0.3193787048
 40
0.3581424847
 40
0.3952085152
 40
0.430599381
 40
0.4643463073
 40
0.4964908721
 40
0.5270863088
 40
0.5561994952
 40
0.5839128601
 40
0.6103265222
 40
0.6355603448
 40
0.659755505
 40
0.6830754741
 40
0.7057054101
 40
0.727850043
 40
0.7497291758
 40
0.7715714813
 40
0.793606884
 40
0.8160587697
 40
0.8391372914
 40
0.8630341418
 40
0.8879199277
 40
0.9139427983
 40
0.9412293982
 40
0.9698857967
 40
1.0
 40
1.0
 40
1.0
 40
1.0
 10
11.5081446884
 20
11.4006079806
 30
0.0
 10
11.513249582
 20
11.3987210515
 30
0.0
 10
11.5232557041
 20
11.3949154792
 30
0.0
 10
11.5378925944
 20
11.3890051441
 30
0.0
 10
11.5518948647
 20
11.3829926857
 30
0.0
 10
11.5652515984
 20
11.376882917
 30
0.0
 10
11.5779529419
 20
11.3706803062
 30
0.0
 10
11.5899894667
 20
11.3643895734
 30
0.0
 10
11.6013520827
 20
11.358015331
 30
0.0
 10
11.6120323394
 20
11.3515624178
 30
0.0
 10
11.6220222796
 20
11.3450354979
 30
0.0
 10
11.6313145366
 20
11.3384393859
 30
0.0
 10
11.6399021994
 20
11.3317787419
 30
0.0
 10
11.6477789411
 20
11.3250582926
 30
0.0
 10
11.6549388726
 20
11.3182826061
 30
0.0
 10
11.6613765902
 20
11.3114562212
 30
0.0
 10
11.6670870525
 20
11.3045835546
 30
0.0
 10
11.6720655126
 20
11.2976689606
 30
0.0
 10
11.6763074656
 20
11.2907168294
 30
0.0
 10
11.6798084636
 20
11.2837316626
 30
0.0
 10
11.6825643063
 20
11.2767184024
 30
0.0
 10
11.6845708829
 20
11.2696825478
 30
0.0
 10
11.6858248612
 20
11.2626304931
 30
0.0
 10
11.6863236271
 20
11.2555694054
 30
0.0
 10
11.6860662911
 20
11.2485070566
 30
0.0
 10
11.6850532184
 20
11.2414513053
 30
0.0
 10
11.6832866637
 20
11.2344095345
 30
0.0
 10
11.680769613
 20
11.2273884371
 30
0.0
 10
11.6775061442
 20
11.2203937201
 30
0.0
 10
11.6735002723
 20
11.2134305591
 30
0.0
 10
11.668756556
 20
11.2065034783
 30
0.0
 10
11.6632792545
 20
11.1996169487
 30
0.0
 10
11.657073422
 20
11.1927754177
 30
0.0
 10
11.6525684506
 20
11.188359919
 30
0.0
 10
11.6502037093
 20
11.1861592825
 30
0.0
  0
SPLINE
  5
390
100
AcDbEntity
  8
0
100
AcDbSpline
 62
7
  6
CONTINUOUS
 70
0
 71
3
 72
23
 73
19
 74
0
 42
0.0000001
 43
0.0000001
 44
0.0000000001
 40
0.0
 40
0.0
 40
0.0
 40
0.0
 40
0.0616482031
 40
0.1233194344
 40
0.1850364671
 40
0.2468215587
 40
0.3086962064
 40
0.3706809202
 40
0.4327950026
 40
0.4950563356
 40
0.5574811877
 40
0.6200840884
 40
0.6828775924
 40
0.7458723491
 40
0.8090769894
 40
0.8724966372
 40
0.9361388612
 40
1.0
 40
1.0
 40
1.0
 40
1.0
 10
10.6160426957
 20
9.904154905
 30
0.0
 10
10.6110735829
 20
9.8993551324
 30
0.0
 10
10.6008731051
 20
9.8900192321
 30
0.0
 10
10.5848388299
 20
9.8768552026
 30
0.0
 10
10.5681082819
 20
9.864561302
 30
0.0
 10
10.5507241826
 20
9.8531690603
 30
0.0
 10
10.5327302096
 20
9.8427069908
 30
0.0
 10
10.5141717625
 20
9.8332014416
 30
0.0
 10
10.4950955932
 20
9.8246763148
 30
0.0
 10
10.4755497562
 20
9.8171530837
 30
0.0
 10
10.4555835003
 20
9.8106506421
 30
0.0
 10
10.4352471341
 20
9.8051852913
 30
0.0
 10
10.4145918787
 20
9.8007707272
 30
0.0
 10
10.3936697067
 20
9.7974180324
 30
0.0
 10
10.3725334453
 20
9.7951356719
 30
0.0
 10
10.3512358509
 20
9.7939291141
 30
0.0
 10
10.3298315595
 20
9.7938016076
 30
0.0
 10
10.315549707
 20
9.7944349414
 30
0.0
 10
10.3084101768
 20
9.7949300695
 30
0.0
  0
SPLINE
  5
391
100
AcDbEntity
  8
0
100
AcDbSpline
 62
7
  6
CONTINUOUS
 70
0
 71
3
 72
15
 73
11
 74
0
 42
0.0000001
 43
0.0000001
 44
0.0000000001
 40
0.0
 40
0.0
 40
0.0
 40
0.0
 40
0.1234340099
 40
0.2472432338
 40
0.3714725602
 40
0.4961602031
 40
0.6213379113
 40
0.7470260132
 40
0.8732483795
 40
1.0
 40
1.0
 40
1.0
 40
1.0
 10
10.5575267816
 20
10.175253879
 30
0.0
 10
10.5537391092
 20
10.173501973
 30
0.0
 10
10.546036468
 20
10.1702372791
 30
0.0
 10
10.5341746405
 20
10.1660857532
 30
0.0
 10
10.5220310074
 20
10.1626874043
 30
0.0
 10
10.5096515466
 20
10.160055143
 30
0.0
 10
10.4970824622
 20
10.1581987095
 30
0.0
 10
10.4843703972
 20
10.1571247901
 30
0.0
 10
10.4715636445
 20
10.1568375625
 30
0.0
 10
10.4630109909
 20
10.15717041
 30
0.0
 10
10.4587358886
 20
10.1574668893
 30
0.0
  0
SPLINE
  5
392
100
AcDbEntity
  8
0
100
AcDbSpline
 62
7
  6
CONTINUOUS
 70
0
 71
3
 72
23
 73
19
 74
0
 42
0.0000001
 43
0.0000001
 44
0.0000000001
 40
0.0
 40
0.0
 40
0.0
 40
0.0
 40
0.0616482117
 40
0.1233194496
 40
0.1850364829
 40
0.24682157
 40
0.3086962136
 40
0.370680925
 40
0.4327950024
 40
0.4950563275
 40
0.5574811782
 40
0.6200840647
 40
0.6828776055
 40
0.7458723192
 40
0.8090769012
 40
0.8724969623
 40
0.9361381423
 40
1.0
 40
1.0
 40
1.0
 40
1.0
 10
10.7773655625
 20
5.9885813974
 30
0.0
 10
10.7697906543
 20
5.9812645728
 30
0.0
 10
10.7542411749
 20
5.967032698
 30
0.0
 10
10.7297985694
 20
5.9469652516
 30
0.0
 10
10.7042945598
 20
5.9282242327
 30
0.0
 10
10.6777942804
 20
5.9108576799
 30
0.0
 10
10.6503642947
 20
5.8949090848
 30
0.0
 10
10.6220737944
 20
5.8804186436
 30
0.0
 10
10.5929940553
 20
5.8674227917
 30
0.0
 10
10.5631983549
 20
5.8559542107
 30
0.0
 10
10.5327617595
 20
5.846041724
 30
0.0
 10
10.5017609397
 20
5.8377102204
 30
0.0
 10
10.4702739929
 20
5.830980603
 30
0.0
 10
10.4383801674
 20
5.8258696875
 30
0.0
 10
10.4061599192
 20
5.8223903359
 30
0.0
 10
10.3736938944
 20
5.8205510702
 30
0.0
 10
10.3410650885
 20
5.8203565955
 30
0.0
 10
10.319293829
 20
5.8213220952
 30
0.0
 10
10.3084101768
 20
5.822076879
 30
0.0
  0
SPLINE
  5
393
100
AcDbEntity
  8
0
100
AcDbSpline
 62
7
  6
CONTINUOUS
 70
0
 71
3
 72
21
 73
17
 74
0
 42
0.0000001
 43
0.0000001
 44
0.0000000001
 40
0.0
 40
0.0
 40
0.0
 40
0.0
 40
0.127433008
 40
0.2540127652
 40
0.317013598
 40
0.3798180176
 40
0.4424358118
 40
0.5048783404
 40
0.5671588203
 40
0.6292921108
 40
0.6912945575
 40
0.7531838426
 40
0.814978823
 40
0.8766993415
 40
0.9383660111
 40
1.0
 40
1.0
 40
1.0
 40
1.0
 10
10.3158641593
 20
9.8021300641
 30
0.0
 10
10.3296711015
 20
9.8011725494
 30
0.0
 10
10.3573026753
 20
9.8005905665
 30
0.0
 10
10.3916887197
 20
9.8032452339
 30
0.0
 10
10.4187944104
 20
9.8073882946
 30
0.0
 10
10.4388524661
 20
9.8114890027
 30
0.0
 10
10.4586198999
 20
9.8165779659
 30
0.0
 10
10.4780504993
 20
9.8226433079
 30
0.0
 10
10.4970981901
 20
9.8296706973
 30
0.0
 10
10.5157179947
 20
9.837643525
 30
0.0
 10
10.5338658678
 20
9.8465429984
 30
0.0
 10
10.5514988741
 20
9.8563481741
 30
0.0
 10
10.5685753013
 20
9.8670358035
 30
0.0
 10
10.5850549151
 20
9.8785807561
 30
0.0
 10
10.6008981954
 20
9.8909552934
 30
0.0
 10
10.6110139584
 20
9.8997410877
 30
0.0
 10
10.6159517814
 20
9.9042605886
 30
0.0
  0
SPLINE
  5
394
100
AcDbEntity
  8
0
100
AcDbSpline
 62
7
  6
CONTINUOUS
 70
0
 71
3
 72
41
 73
37
 74
0
 42
0.0000001
 43
0.0000001
 44
0.0000000001
 40
0.0
 40
0.0
 40
0.0
 40
0.0
 40
0.0299421207
 40
0.0449237678
 40
0.059914515
 40
0.0899291702
 40
0.1200145975
 40
0.1350933607
 40
0.1501974781
 40
0.1804849759
 40
0.210898965
 40
0.2414525847
 40
0.2721557502
 40
0.3030149724
 40
0.3340332622
 40
0.3652101173
 40
0.3965415863
 40
0.428020404
 40
0.4596361919
 40
0.4913757156
 40
0.5232231916
 40
0.5551606357
 40
0.5871682465
 40
0.6192248153
 40
0.651308157
 40
0.6833955539
 40
0.7154642081
 40
0.747491694
 40
0.779456406
 40
0.8113379944
 40
0.8431177853
 40
0.8747791687
 40
0.9063079764
 40
0.9376927595
 40
0.9689251765
 40
1.0
 40
1.0
 40
1.0
 40
1.0
 10
11.8550487247
 20
5.5755400247
 30
0.0
 10
11.8507337383
 20
5.571372096
 30
0.0
 10
11.8440069734
 20
5.5653726904
 30
0.0
 10
11.8345862504
 20
5.5579287563
 30
0.0
 10
11.8248655055
 20
5.5508552633
 30
0.0
 10
11.8121815455
 20
5.5427325673
 30
0.0
 10
11.7988808583
 20
5.5356275767
 30
0.0
 10
11.7879112551
 20
5.530573029
 30
0.0
 10
11.7767150211
 20
5.5259357983
 30
0.0
 10
11.7623507795
 20
5.5209494051
 30
0.0
 10
11.7446490104
 20
5.5163022132
 30
0.0
 10
11.7265609813
 20
5.5130100074
 30
0.0
 10
11.7081869303
 20
5.5110909589
 30
0.0
 10
11.6896277913
 20
5.510555307
 30
0.0
 10
11.670985682
 20
5.5114057786
 30
0.0
 10
11.6523630643
 20
5.513637461
 30
0.0
 10
11.6338622618
 20
5.5172378726
 30
0.0
 10
11.6155848835
 20
5.5221870317
 30
0.0
 10
11.5976312793
 20
5.5284575748
 30
0.0
 10
11.580099995
 20
5.5360149103
 30
0.0
 10
11.5630872393
 20
5.5448174121
 30
0.0
 10
11.5466863635
 20
5.5548166482
 30
0.0
 10
11.5309873559
 20
5.5659576469
 30
0.0
 10
11.516076354
 20
5.5781791969
 30
0.0
 10
11.502035178
 20
5.591414181
 30
0.0
 10
11.4889408866
 20
5.6055899415
 30
0.0
 10
11.4768653585
 20
5.620628675
 30
0.0
 10
11.4658749019
 20
5.6364478556
 30
0.0
 10
11.4560298936
 20
5.6529606816
 30
0.0
 10
11.4473844497
 20
5.6700765495
 30
0.0
 10
11.4399861319
 20
5.6877015335
 30
0.0
 10
11.4338756812
 20
5.705738938
 30
0.0
 10
11.4290868067
 20
5.7240896579
 30
0.0
 10
11.4256459727
 20
5.7426533181
 30
0.0
 10
11.4235722891
 20
5.7613266002
 30
0.0
 10
11.4231078178
 20
5.7738153206
 30
0.0
 10
11.4231078178
 20
5.780041498
 30
0.0
  0
SPLINE
  5
395
100
AcDbEntity
  8
0
100
AcDbSpline
 62
7
  6
CONTINUOUS
 70
0
 71
3
 72
44
 73
40
 74
0
 42
0.0000001
 43
0.0000001
 44
0.0000000001
 40
0.0
 40
0.0
 40
0.0
 40
0.0
 40
0.031129177
 40
0.0467534678
 40
0.0624147132
 40
0.0938409931
 40
0.1254034779
 40
0.1570903963
 40
0.1888873956
 40
0.2207780254
 40
0.2527440213
 40
0.2687514637
 40
0.284770265
 40
0.3168268319
 40
0.3488968854
 40
0.3809587518
 40
0.4129909115
 40
0.4449724064
 40
0.4768832397
 40
0.5087047625
 40
0.5404200415
 40
0.5720142033
 40
0.6034747467
 40
0.6347918187
 40
0.6659584471
 40
0.6969707219
 40
0.7278279215
 40
0.7585325748
 40
0.7890904566
 40
0.819510511
 40
0.8498047003
 40
0.8649118348
 40
0.8799932512
 40
0.9100824692
 40
0.9400972051
 40
0.9550859719
 40
0.9700641371
 40
0.9850345239
 40
1.0
 40
1.0
 40
1.0
 40
1.0
 10
10.3158641593
 20
9.8021300641
 30
0.0
 10
10.3055319938
 20
9.8028466022
 30
0.0
 10
10.2900454303
 20
9.8044834968
 30
0.0
 10
10.2695373291
 20
9.8077654498
 30
0.0
 10
10.2490605352
 20
9.8117912864
 30
0.0
 10
10.2236651885
 20
9.8181978596
 30
0.0
 10
10.193712077
 20
9.8280263926
 30
0.0
 10
10.1643974311
 20
9.8399535557
 30
0.0
 10
10.1358748892
 20
9.8539169137
 30
0.0
 10
10.1082936719
 20
9.8698429127
 30
0.0
 10
10.0862209743
 20
9.88467607
 30
0.0
 10
10.0691726195
 20
9.8974354817
 30
0.0
 10
10.0525420178
 20
9.9107830294
 30
0.0
 10
10.03260222
 20
9.9285203012
 30
0.0
 10
10.0101625005
 20
9.9513711081
 30
0.0
 10
9.9893186574
 20
9.9756766946
 30
0.0
 10
9.970180177
 20
10.0013097233
 30
0.0
 10
9.952846764
 20
10.0281366607
 30
0.0
 10
9.9374089882
 20
10.0560175625
 30
0.0
 10
9.9239475059
 20
10.0848070383
 30
0.0
 10
9.912532723
 20
10.1143549359
 30
0.0
 10
9.903224406
 20
10.1445071316
 30
0.0
 10
9.8960713737
 20
10.1751063195
 30
0.0
 10
9.8911112371
 20
10.2059928211
 30
0.0
 10
9.8883701975
 20
10.2370054101
 30
0.0
 10
9.8878628961
 20
10.2679821347
 30
0.0
 10
9.8895923403
 20
10.2987611861
 30
0.0
 10
9.8935498173
 20
10.3291816182
 30
0.0
 10
9.8997151274
 20
10.3590846233
 30
0.0
 10
9.9080559085
 20
10.3883127356
 30
0.0
 10
9.9167932993
 20
10.4120057047
 30
0.0
 10
9.9248214859
 20
10.4304626885
 30
0.0
 10
9.9335168192
 20
10.4485393285
 30
0.0
 10
9.9456454051
 20
10.4704469152
 30
0.0
 10
9.9594042167
 20
10.4913327972
 30
0.0
 10
9.9713312315
 20
10.5073381909
 30
0.0
 10
9.9807239715
 20
10.5189755958
 30
0.0
 10
9.9905544413
 20
10.5302348135
 30
0.0
 10
9.9973927569
 20
10.5374802986
 30
0.0
 10
10.0008798279
 20
10.5410345036
 30
0.0
  0
SPLINE
  5
396
100
AcDbEntity
  8
0
100
AcDbSpline
 62
7
  6
CONTINUOUS
 70
0
 71
3
 72
41
 73
37
 74
0
 42
0.0000001
 43
0.0000001
 44
0.0000000001
 40
0.0
 40
0.0
 40
0.0
 40
0.0
 40
0.0299421207
 40
0.0449237678
 40
0.059914515
 40
0.0899291702
 40
0.1200145975
 40
0.1350933607
 40
0.1501974781
 40
0.1804849759
 40
0.210898965
 40
0.2414525847
 40
0.2721557502
 40
0.3030149724
 40
0.3340332622
 40
0.3652101173
 40
0.3965415863
 40
0.428020404
 40
0.4596361919
 40
0.4913757156
 40
0.5232231916
 40
0.5551606357
 40
0.5871682465
 40
0.6192248153
 40
0.651308157
 40
0.6833955539
 40
0.7154642081
 40
0.747491694
 40
0.779456406
 40
0.8113379944
 40
0.8431177853
 40
0.8747791687
 40
0.9063079764
 40
0.9376927595
 40
0.9689251765
 40
1.0
 40
1.0
 40
1.0
 40
1.0
 10
9.1392514994
 20
5.763881202
 30
0.0
 10
9.1349365129
 20
5.7597132733
 30
0.0
 10
9.1282097481
 20
5.7537138677
 30
0.0
 10
9.1187890251
 20
5.7462699336
 30
0.0
 10
9.1090682802
 20
5.7391964405
 30
0.0
 10
9.0963843202
 20
5.7310737446
 30
0.0
 10
9.083083633
 20
5.723968754
 30
0.0
 10
9.0721140298
 20
5.7189142063
 30
0.0
 10
9.0609177958
 20
5.7142769756
 30
0.0
 10
9.0465535542
 20
5.7092905824
 30
0.0
 10
9.0288517851
 20
5.7046433905
 30
0.0
 10
9.010763756
 20
5.7013511847
 30
0.0
 10
8.992389705
 20
5.6994321362
 30
0.0
 10
8.973830566
 20
5.6988964843
 30
0.0
 10
8.9551884567
 20
5.6997469559
 30
0.0
 10
8.936565839
 20
5.7019786382
 30
0.0
 10
8.9180650365
 20
5.7055790499
 30
0.0
 10
8.8997876582
 20
5.710528209
 30
0.0
 10
8.881834054
 20
5.716798752
 30
0.0
 10
8.8643027697
 20
5.7243560876
 30
0.0
 10
8.847290014
 20
5.7331585894
 30
0.0
 10
8.8308891382
 20
5.7431578255
 30
0.0
 10
8.8151901306
 20
5.7542988241
 30
0.0
 10
8.8002791287
 20
5.7665203741
 30
0.0
 10
8.7862379527
 20
5.7797553582
 30
0.0
 10
8.7731436613
 20
5.7939311187
 30
0.0
 10
8.7610681332
 20
5.8089698523
 30
0.0
 10
8.7500776766
 20
5.8247890329
 30
0.0
 10
8.7402326683
 20
5.8413018589
 30
0.0
 10
8.7315872244
 20
5.8584177267
 30
0.0
 10
8.7241889066
 20
5.8760427108
 30
0.0
 10
8.7180784559
 20
5.8940801152
 30
0.0
 10
8.7132895814
 20
5.9124308351
 30
0.0
 10
8.7098487474
 20
5.9309944954
 30
0.0
 10
8.7077750638
 20
5.9496677775
 30
0.0
 10
8.7073105925
 20
5.9621564979
 30
0.0
 10
8.7073105925
 20
5.9683826753
 30
0.0
  0
SPLINE
  5
397
100
AcDbEntity
  8
0
100
AcDbSpline
 62
7
  6
CONTINUOUS
 70
0
 71
3
 72
39
 73
35
 74
0
 42
0.0000001
 43
0.0000001
 44
0.0000000001
 40
0.0
 40
0.0
 40
0.0
 40
0.0
 40
0.0313810808
 40
0.062952846
 40
0.0947043011
 40
0.1266173446
 40
0.1586693893
 40
0.1908334167
 40
0.2230789942
 40
0.255373216
 40
0.2876817077
 40
0.3199696646
 40
0.3522029006
 40
0.3843488829
 40
0.4163777307
 40
0.4482631539
 40
0.4799833147
 40
0.5115215795
 40
0.5428671319
 40
0.5740154256
 40
0.6049684528
 40
0.6357348047
 40
0.6663294954
 40
0.6967735476
 40
0.7270933421
 40
0.7573197422
 40
0.7874870171
 40
0.8176316076
 40
0.8477907914
 40
0.878001308
 40
0.9082980083
 40
0.9387125917
 40
0.9692725057
 40
1.0
 40
1.0
 40
1.0
 40
1.0
 10
10.3158641593
 20
9.9612180571
 30
0.0
 10
10.3076634552
 20
9.9617867779
 30
0.0
 10
10.2912548683
 20
9.9636790062
 30
0.0
 10
10.2669334891
 20
9.9687256365
 30
0.0
 10
10.2430197551
 20
9.9759471658
 30
0.0
 10
10.2197150846
 20
9.9852830225
 30
0.0
 10
10.1972125072
 20
9.9966551095
 30
0.0
 10
10.1756991656
 20
10.0099685596
 30
0.0
 10
10.1553537075
 20
10.0251124212
 30
0.0
 10
10.1363451636
 20
10.0419606631
 30
0.0
 10
10.118831482
 20
10.060373187
 30
0.0
 10
10.1029582719
 20
10.0801969761
 30
0.0
 10
10.0888575324
 20
10.1012672908
 30
0.0
 10
10.0766466303
 20
10.1234090766
 30
0.0
 10
10.066427341
 20
10.1464383868
 30
0.0
 10
10.0582850207
 20
10.1701638794
 30
0.0
 10
10.0522878468
 20
10.1943883515
 30
0.0
 10
10.0484862173
 20
10.2189103522
 30
0.0
 10
10.0469123853
 20
10.2435258416
 30
0.0
 10
10.0475801441
 20
10.2680298431
 30
0.0
 10
10.0504846819
 20
10.2922181153
 30
0.0
 10
10.0556024713
 20
10.315888849
 30
0.0
 10
10.0628914869
 20
10.338844352
 30
0.0
 10
10.0722915
 20
10.3608927049
 30
0.0
 10
10.0837245294
 20
10.3818493892
 30
0.0
 10
10.0970954005
 20
10.4015389023
 30
0.0
 10
10.1122924967
 20
10.4197963249
 30
0.0
 10
10.1291887716
 20
10.4364687314
 30
0.0
 10
10.1476427989
 20
10.4514165389
 30
0.0
 10
10.1675000927
 20
10.4645147279
 30
0.0
 10
10.1885941042
 20
10.4756539508
 30
0.0
 10
10.2107489043
 20
10.4847415913
 30
0.0
 10
10.2337763805
 20
10.4917017739
 30
0.0
 10
10.2495423445
 20
10.4948771051
 30
0.0
 10
10.2574986607
 20
10.4960963309
 30
0.0
  0
SPLINE
  5
398
100
AcDbEntity
  8
0
100
AcDbSpline
 62
7
  6
CONTINUOUS
 70
0
 71
3
 72
41
 73
37
 74
0
 42
0.0000001
 43
0.0000001
 44
0.0000000001
 40
0.0
 40
0.0
 40
0.0
 40
0.0
 40
0.0313533127
 40
0.062889813
 40
0.094599724
 40
0.1264668539
 40
0.1584711016
 40
0.1745206409
 40
0.1905951093
 40
0.222797829
 40
0.2550563545
 40
0.2712001723
 40
0.2873461236
 40
0.3196216649
 40
0.3518579456
 40
0.3840242788
 40
0.4160919278
 40
0.4480349276
 40
0.4798308504
 40
0.5114614951
 40
0.5429134789
 40
0.57417871
 40
0.6052547225
 40
0.636144853
 40
0.6668582415
 40
0.6974096445
 40
0.7278190534
 40
0.758111117
 40
0.7883143828
 40
0.8184603796
 40
0.8485825727
 40
0.8787152357
 40
0.9088922866
 40
0.9391461389
 40
0.9695066173
 40
1.0
 40
1.0
 40
1.0
 40
1.0
 10
10.3405554758
 20
10.0046549835
 30
0.0
 10
10.3332627979
 20
10.0051607324
 30
0.0
 10
10.3186715108
 20
10.0068159183
 30
0.0
 10
10.2970258306
 20
10.0111839868
 30
0.0
 10
10.2757137033
 20
10.0174112877
 30
0.0
 10
10.2549011964
 20
10.0254492908
 30
0.0
 10
10.2381180637
 20
10.0335993196
 30
0.0
 10
10.2250961778
 20
10.040954379
 30
0.0
 10
10.2123494981
 20
10.0488650378
 30
0.0
 10
10.1970184527
 20
10.0597458338
 30
0.0
 10
10.1826177621
 20
10.071855915
 30
0.0
 10
10.1717118491
 20
10.0822322245
 30
0.0
 10
10.161236175
 20
10.0930481386
 30
0.0
 10
10.1489897912
 20
10.1073499462
 30
0.0
 10
10.135763169
 20
10.125632925
 30
0.0
 10
10.1241052517
 20
10.1448984164
 30
0.0
 10
10.1141060776
 20
10.1649984119
 30
0.0
 10
10.1058422346
 20
10.1857793612
 30
0.0
 10
10.0993773373
 20
10.2070822446
 30
0.0
 10
10.0947612291
 20
10.2287440491
 30
0.0
 10
10.0920296898
 20
10.250598926
 30
0.0
 10
10.0912041251
 20
10.2724794542
 30
0.0
 10
10.0922913839
 20
10.2942178946
 30
0.0
 10
10.095283672
 20
10.3156474585
 30
0.0
 10
10.1001585748
 20
10.3366035759
 30
0.0
 10
10.1068791828
 20
10.3569251593
 30
0.0
 10
10.1153943092
 20
10.3764558645
 30
0.0
 10
10.1256388711
 20
10.3950453148
 30
0.0
 10
10.137534356
 20
10.4125502952
 30
0.0
 10
10.1509894143
 20
10.4288359034
 30
0.0
 10
10.1659005444
 20
10.4437766338
 30
0.0
 10
10.1821529763
 20
10.4572574112
 30
0.0
 10
10.1996213326
 20
10.4691744462
 30
0.0
 10
10.2181715806
 20
10.479436344
 30
0.0
 10
10.2376585724
 20
10.4879638039
 30
0.0
 10
10.2511472192
 20
10.4924397114
 30
0.0
 10
10.2579899172
 20
10.4943698067
 30
0.0
  0
SPLINE
  5
399
100
AcDbEntity
  8
0
100
AcDbSpline
 62
7
  6
CONTINUOUS
 70
0
 71
3
 72
41
 73
37
 74
0
 42
0.0000001
 43
0.0000001
 44
0.0000000001
 40
0.0
 40
0.0
 40
0.0
 40
0.0
 40
0.0299421207
 40
0.0449237678
 40
0.059914515
 40
0.0899291702
 40
0.1200145975
 40
0.1350933607
 40
0.1501974781
 40
0.1804849759
 40
0.210898965
 40
0.2414525847
 40
0.2721557502
 40
0.3030149724
 40
0.3340332622
 40
0.3652101173
 40
0.3965415863
 40
0.428020404
 40
0.4596361919
 40
0.4913757156
 40
0.5232231916
 40
0.5551606357
 40
0.5871682465
 40
0.6192248153
 40
0.651308157
 40
0.6833955539
 40
0.7154642081
 40
0.747491694
 40
0.779456406
 40
0.8113379944
 40
0.8431177853
 40
0.8747791687
 40
0.9063079764
 40
0.9376927595
 40
0.9689251765
 40
1.0
 40
1.0
 40
1.0
 40
1.0
 10
9.1392514994
 20
7.0139825526
 30
0.0
 10
9.1349365129
 20
7.0098146239
 30
0.0
 10
9.1282097481
 20
7.0038152183
 30
0.0
 10
9.1187890251
 20
6.9963712842
 30
0.0
 10
9.1090682802
 20
6.9892977911
 30
0.0
 10
9.0963843202
 20
6.9811750951
 30
0.0
 10
9.083083633
 20
6.9740701046
 30
0.0
 10
9.0721140298
 20
6.9690155569
 30
0.0
 10
9.0609177958
 20
6.9643783262
 30
0.0
 10
9.0465535542
 20
6.959391933
 30
0.0
 10
9.0288517851
 20
6.9547447411
 30
0.0
 10
9.010763756
 20
6.9514525353
 30
0.0
 10
8.992389705
 20
6.9495334868
 30
0.0
 10
8.973830566
 20
6.9489978349
 30
0.0
 10
8.9551884567
 20
6.9498483065
 30
0.0
 10
8.936565839
 20
6.9520799888
 30
0.0
 10
8.9180650365
 20
6.9556804004
 30
0.0
 10
8.8997876582
 20
6.9606295596
 30
0.0
 10
8.881834054
 20
6.9669001026
 30
0.0
 10
8.8643027697
 20
6.9744574382
 30
0.0
 10
8.847290014
 20
6.9832599399
 30
0.0
 10
8.8308891382
 20
6.993259176
 30
0.0
 10
8.8151901306
 20
7.0044001747
 30
0.0
 10
8.8002791287
 20
7.0166217247
 30
0.0
 10
8.7862379527
 20
7.0298567088
 30
0.0
 10
8.7731436613
 20
7.0440324693
 30
0.0
 10
8.7610681332
 20
7.0590712029
 30
0.0
 10
8.7500776766
 20
7.0748903835
 30
0.0
 10
8.7402326683
 20
7.0914032095
 30
0.0
 10
8.7315872244
 20
7.1085190773
 30
0.0
 10
8.7241889066
 20
7.1261440613
 30
0.0
 10
8.7180784559
 20
7.1441814658
 30
0.0
 10
8.7132895814
 20
7.1625321857
 30
0.0
 10
8.7098487474
 20
7.1810958459
 30
0.0
 10
8.7077750638
 20
7.1997691281
 30
0.0
 10
8.7073105925
 20
7.2122578485
 30
0.0
 10
8.7073105925
 20
7.2184840259
 30
0.0
  0
SPLINE
  5
39A
100
AcDbEntity
  8
0
100
AcDbSpline
 62
7
  6
CONTINUOUS
 70
0
 71
3
 72
41
 73
37
 74
0
 42
0.0000001
 43
0.0000001
 44
0.0000000001
 40
0.0
 40
0.0
 40
0.0
 40
0.0
 40
0.0311443731
 40
0.0624425498
 40
0.0938872324
 40
0.1254695881
 40
0.1571771015
 40
0.1889951224
 40
0.2209066715
 40
0.2528929757
 40
0.28493379
 40
0.3170078157
 40
0.3490931116
 40
0.3811675191
 40
0.4132090895
 40
0.4451965082
 40
0.4771095106
 40
0.5089292837
 40
0.5406388474
 40
0.5722234085
 40
0.6036706805
 40
0.6349711645
 40
0.6661183811
 40
0.6971090487
 40
0.7279432008
 40
0.7586242349
 40
0.7891588899
 40
0.8195571457
 40
0.8498320452
 40
0.8649308854
 40
0.8800050464
 40
0.9100832538
 40
0.9400926721
 40
0.9550812717
 40
0.9700610341
 40
1.0
 40
1.0
 40
1.0
 40
1.0
 10
10.3480022382
 20
10.039639724
 30
0.0
 10
10.3425996858
 20
10.0400143922
 30
0.0
 10
10.3317913088
 20
10.0411610497
 30
0.0
 10
10.3157098094
 20
10.0440494006
 30
0.0
 10
10.2998005179
 20
10.0480952482
 30
0.0
 10
10.284149455
 20
10.0532766364
 30
0.0
 10
10.2688396919
 20
10.0595659302
 30
0.0
 10
10.2539529186
 20
10.0669294156
 30
0.0
 10
10.2395684344
 20
10.0753277737
 30
0.0
 10
10.2257628878
 20
10.0847161503
 30
0.0
 10
10.2126098351
 20
10.0950444544
 30
0.0
 10
10.2001793606
 20
10.1062575997
 30
0.0
 10
10.1885377068
 20
10.1182958044
 30
0.0
 10
10.177746925
 20
10.1310949044
 30
0.0
 10
10.1678645473
 20
10.1445866923
 30
0.0
 10
10.1589432836
 20
10.1586992773
 30
0.0
 10
10.1510307422
 20
10.1733574635
 30
0.0
 10
10.144169176
 20
10.1884831456
 30
0.0
 10
10.138395258
 20
10.2039957205
 30
0.0
 10
10.1337398873
 20
10.2198125118
 30
0.0
 10
10.1302280226
 20
10.2358492047
 30
0.0
 10
10.1278785467
 20
10.2520202889
 30
0.0
 10
10.1267041622
 20
10.2682395098
 30
0.0
 10
10.1267113163
 20
10.2844203178
 30
0.0
 10
10.1279001666
 20
10.3004763429
 30
0.0
 10
10.1302645426
 20
10.3163217883
 30
0.0
 10
10.1337920778
 20
10.3318721217
 30
0.0
 10
10.1384638576
 20
10.3470436568
 30
0.0
 10
10.1432952226
 20
10.3593165571
 30
0.0
 10
10.1477041778
 20
10.3688605978
 30
0.0
 10
10.1524621694
 20
10.3781971763
 30
0.0
 10
10.1590684888
 20
10.3894902
 30
0.0
 10
10.1665244232
 20
10.4002232414
 30
0.0
 10
10.1729675131
 20
10.4084272611
 30
0.0
 10
10.1797178731
 20
10.4163635705
 30
0.0
 10
10.1851261627
 20
10.422013485
 30
0.0
 10
10.1888705342
 20
10.4256303005
 30
0.0
  0
SPLINE
  5
39B
100
AcDbEntity
  8
0
100
AcDbSpline
 62
7
  6
CONTINUOUS
 70
0
 71
3
 72
37
 73
33
 74
0
 42
0.0000001
 43
0.0000001
 44
0.0000000001
 40
0.0
 40
0.0
 40
0.0
 40
0.0
 40
0.0309446415
 40
0.0620231075
 40
0.0932285509
 40
0.1245563987
 40
0.1559977981
 40
0.1875430652
 40
0.2191807179
 40
0.2508979403
 40
0.2826807534
 40
0.3145142134
 40
0.3463826424
 40
0.3782698519
 40
0.4420069388
 40
0.5056224632
 40
0.5373595703
 40
0.5690209205
 40
0.600593349
 40
0.6320650115
 40
0.66342557
 40
0.6946663621
 40
0.7257805489
 40
0.7567632419
 40
0.7876116096
 40
0.8183249478
 40
0.8489047163
 40
0.8793545423
 40
0.9096801871
 40
0.9398894797
 40
0.9699922135
 40
1.0
 40
1.0
 40
1.0
 40
1.0
 10
10.4587358886
 20
10.1574668893
 30
0.0
 10
10.4542904961
 20
10.1577751783
 30
0.0
 10
10.4453975181
 20
10.1586745327
 30
0.0
 10
10.4321427692
 20
10.1608571459
 30
0.0
 10
10.4189941944
 20
10.1638679063
 30
0.0
 10
10.4060052038
 20
10.1676943624
 30
0.0
 10
10.3932273829
 20
10.172321371
 30
0.0
 10
10.3807118942
 20
10.1777302909
 30
0.0
 10
10.368508716
 20
10.1838994994
 30
0.0
 10
10.3566666056
 20
10.1908042671
 30
0.0
 10
10.3452328365
 20
10.1984169951
 30
0.0
 10
10.3342531794
 20
10.2067071211
 30
0.0
 10
10.3237711301
 20
10.2156419476
 30
0.0
 10
10.3105197669
 20
10.22836144
 30
0.0
 10
10.2954069054
 20
10.2456827111
 30
0.0
 10
10.2824547781
 20
10.2646484303
 30
0.0
 10
10.273522265
 20
10.2806194443
 30
0.0
 10
10.2675670145
 20
10.2929401298
 30
0.0
 10
10.2623765123
 20
10.3055602819
 30
0.0
 10
10.257971207
 20
10.3184299318
 30
0.0
 10
10.2543688475
 20
10.3314975354
 30
0.0
 10
10.251583876
 20
10.3447109054
 30
0.0
 10
10.2496275137
 20
10.3580172213
 30
0.0
 10
10.2485076742
 20
10.3713632879
 30
0.0
 10
10.2482289029
 20
10.3846957314
 30
0.0
 10
10.2487923937
 20
10.3979612233
 30
0.0
 10
10.2501959786
 20
10.4111066826
 30
0.0
 10
10.252434142
 20
10.4240795067
 30
0.0
 10
10.2554980043
 20
10.4368276987
 30
0.0
 10
10.2593754823
 20
10.4493003764
 30
0.0
 10
10.2640507727
 20
10.4614468819
 30
0.0
 10
10.2676931241
 20
10.4693076103
 30
0.0
 10
10.2696400456
 20
10.473165321
 30
0.0
  0
SPLINE
  5
39C
100
AcDbEntity
  8
0
100
AcDbSpline
 62
7
  6
CONTINUOUS
 70
0
 71
3
 72
39
 73
35
 74
0
 42
0.0000001
 43
0.0000001
 44
0.0000000001
 40
0.0
 40
0.0
 40
0.0
 40
0.0
 40
0.0309082445
 40
0.0619473436
 40
0.093109835
 40
0.1243921224
 40
0.1557858209
 40
0.1872818977
 40
0.2188697091
 40
0.2505372897
 40
0.2822715971
 40
0.3140586404
 40
0.3458836986
 40
0.3777315322
 40
0.4095865934
 40
0.4414332328
 40
0.4732559101
 40
0.5050394156
 40
0.5367690858
 40
0.5684310017
 40
0.6000121812
 40
0.6315007693
 40
0.6628862249
 40
0.6941594791
 40
0.7253130743
 40
0.7563412865
 40
0.7872402395
 40
0.8180079892
 40
0.8486445703
 40
0.8791520162
 40
0.9095343535
 40
0.9397975755
 40
0.9699495681
 40
1.0
 40
1.0
 40
1.0
 40
1.0
 10
10.4579556978
 20
10.1458466166
 30
0.0
 10
10.4534014319
 20
10.146162456
 30
0.0
 10
10.4442906797
 20
10.1470763525
 30
0.0
 10
10.4307076908
 20
10.1492793814
 30
0.0
 10
10.4172279203
 20
10.1523095904
 30
0.0
 10
10.4039034097
 20
10.1561549936
 30
0.0
 10
10.3907843373
 20
10.1608012177
 30
0.0
 10
10.3779205885
 20
10.1662304905
 30
0.0
 10
10.3653609026
 20
10.1724221567
 30
0.0
 10
10.3531529086
 20
10.1793526895
 30
0.0
 10
10.3413428958
 20
10.1869957695
 30
0.0
 10
10.3299756656
 20
10.195322414
 30
0.0
 10
10.3190943139
 20
10.2043010068
 30
0.0
 10
10.3087400866
 20
10.2138974643
 30
0.0
 10
10.298952247
 20
10.2240753855
 30
0.0
 10
10.2897679287
 20
10.2347961809
 30
0.0
 10
10.2812219959
 20
10.2460192108
 30
0.0
 10
10.2733468485
 20
10.2577018944
 30
0.0
 10
10.2661723633
 20
10.2697999278
 30
0.0
 10
10.2597257794
 20
10.2822674406
 30
0.0
 10
10.254031609
 20
10.2950571699
 30
0.0
 10
10.2491115008
 20
10.3081206142
 30
0.0
 10
10.2449841366
 20
10.3214082183
 30
0.0
 10
10.2416652256
 20
10.334869585
 30
0.0
 10
10.2391674302
 20
10.3484536526
 30
0.0
 10
10.237500334
 20
10.3621088846
 30
0.0
 10
10.2366703183
 20
10.3757834525
 30
0.0
 10
10.2366805895
 20
10.3894254495
 30
0.0
 10
10.2375311879
 20
10.4029830766
 30
0.0
 10
10.2392189914
 20
10.416404853
 30
0.0
 10
10.2417376793
 20
10.4296397278
 30
0.0
 10
10.2450778042
 20
10.4426375894
 30
0.0
 10
10.2492264606
 20
10.4553483447
 30
0.0
 10
10.2525266409
 20
10.4636131521
 30
0.0
 10
10.2543055332
 20
10.467679583
 30
0.0
  0
SPLINE
  5
39D
100
AcDbEntity
  8
0
100
AcDbSpline
 62
7
  6
CONTINUOUS
 70
0
 71
3
 72
41
 73
37
 74
0
 42
0.0000001
 43
0.0000001
 44
0.0000000001
 40
0.0
 40
0.0
 40
0.0
 40
0.0
 40
0.0299421207
 40
0.0449237678
 40
0.059914515
 40
0.0899291702
 40
0.1200145975
 40
0.1350933607
 40
0.1501974781
 40
0.1804849759
 40
0.210898965
 40
0.2414525847
 40
0.2721557502
 40
0.3030149724
 40
0.3340332622
 40
0.3652101173
 40
0.3965415863
 40
0.428020404
 40
0.4596361919
 40
0.4913757156
 40
0.5232231916
 40
0.5551606357
 40
0.5871682465
 40
0.6192248153
 40
0.651308157
 40
0.6833955539
 40
0.7154642081
 40
0.747491694
 40
0.779456406
 40
0.8113379944
 40
0.8431177853
 40
0.8747791687
 40
0.9063079764
 40
0.9376927595
 40
0.9689251765
 40
1.0
 40
1.0
 40
1.0
 40
1.0
 10
11.8550487247
 20
6.8256413753
 30
0.0
 10
11.8507337383
 20
6.8214734466
 30
0.0
 10
11.8440069734
 20
6.815474041
 30
0.0
 10
11.8345862504
 20
6.8080301069
 30
0.0
 10
11.8248655055
 20
6.8009566138
 30
0.0
 10
11.8121815455
 20
6.7928339179
 30
0.0
 10
11.7988808583
 20
6.7857289273
 30
0.0
 10
11.7879112551
 20
6.7806743796
 30
0.0
 10
11.7767150211
 20
6.7760371489
 30
0.0
 10
11.7623507795
 20
6.7710507557
 30
0.0
 10
11.7446490104
 20
6.7664035638
 30
0.0
 10
11.7265609813
 20
6.763111358
 30
0.0
 10
11.7081869303
 20
6.7611923095
 30
0.0
 10
11.6896277913
 20
6.7606566576
 30
0.0
 10
11.670985682
 20
6.7615071292
 30
0.0
 10
11.6523630643
 20
6.7637388115
 30
0.0
 10
11.6338622618
 20
6.7673392232
 30
0.0
 10
11.6155848835
 20
6.7722883823
 30
0.0
 10
11.5976312793
 20
6.7785589253
 30
0.0
 10
11.580099995
 20
6.7861162609
 30
0.0
 10
11.5630872393
 20
6.7949187627
 30
0.0
 10
11.5466863635
 20
6.8049179988
 30
0.0
 10
11.5309873559
 20
6.8160589975
 30
0.0
 10
11.516076354
 20
6.8282805474
 30
0.0
 10
11.502035178
 20
6.8415155315
 30
0.0
 10
11.4889408866
 20
6.855691292
 30
0.0
 10
11.4768653585
 20
6.8707300256
 30
0.0
 10
11.4658749019
 20
6.8865492062
 30
0.0
 10
11.4560298936
 20
6.9030620322
 30
0.0
 10
11.4473844497
 20
6.9201779
 30
0.0
 10
11.4399861319
 20
6.9378028841
 30
0.0
 10
11.4338756812
 20
6.9558402886
 30
0.0
 10
11.4290868067
 20
6.9741910084
 30
0.0
 10
11.4256459727
 20
6.9927546687
 30
0.0
 10
11.4235722891
 20
7.0114279508
 30
0.0
 10
11.4231078178
 20
7.0239166712
 30
0.0
 10
11.4231078178
 20
7.0301428486
 30
0.0
  0
SPLINE
  5
39E
100
AcDbEntity
  8
0
100
AcDbSpline
 62
7
  6
CONTINUOUS
 70
0
 71
3
 72
39
 73
35
 74
0
 42
0.0000001
 43
0.0000001
 44
0.0000000001
 40
0.0
 40
0.0
 40
0.0
 40
0.0
 40
0.0311450437
 40
0.0624431125
 40
0.0938883331
 40
0.1254709822
 40
0.157178873
 40
0.1889972474
 40
0.2209091591
 40
0.2528958248
 40
0.2849370022
 40
0.3170113907
 40
0.3490970489
 40
0.3811718181
 40
0.4132137492
 40
0.4452015278
 40
0.4771148901
 40
0.5089350229
 40
0.5406449458
 40
0.5722298665
 40
0.6036774985
 40
0.6349783412
 40
0.6661259148
 40
0.6971169386
 40
0.7279514454
 40
0.7586328312
 40
0.789167835
 40
0.8195664378
 40
0.8498416821
 40
0.8800094162
 40
0.9100879636
 40
0.9400977212
 40
0.9700606965
 40
1.0
 40
1.0
 40
1.0
 40
1.0
 10
10.3084101768
 20
5.822076879
 30
0.0
 10
10.2924889568
 20
5.8231810194
 30
0.0
 10
10.2606372619
 20
5.8265600918
 30
0.0
 10
10.2132458831
 20
5.8350720868
 30
0.0
 10
10.16636211
 20
5.8469947902
 30
0.0
 10
10.1202391342
 20
5.8622641401
 30
0.0
 10
10.0751220191
 20
5.8807983248
 30
0.0
 10
10.0312514162
 20
5.9024981515
 30
0.0
 10
9.9888610212
 20
5.9272476527
 30
0.0
 10
9.9481767258
 20
5.9549147048
 30
0.0
 10
9.9094153155
 20
5.9853517019
 30
0.0
 10
9.8727832982
 20
6.0183962716
 30
0.0
 10
9.8384758785
 20
6.0538722348
 30
0.0
 10
9.8066759373
 20
6.0915905244
 30
0.0
 10
9.777553037
 20
6.1313501473
 30
0.0
 10
9.7512624692
 20
6.1729392145
 30
0.0
 10
9.7279445228
 20
6.2161361292
 30
0.0
 10
9.7077237462
 20
6.260710739
 30
0.0
 10
9.6907082291
 20
6.3064255154
 30
0.0
 10
9.6769889895
 20
6.3530368014
 30
0.0
 10
9.6666395792
 20
6.4002961303
 30
0.0
 10
9.659715688
 20
6.4479515171
 30
0.0
 10
9.6562547527
 20
6.4957487671
 30
0.0
 10
9.6562757354
 20
6.543432829
 30
0.0
 10
9.6597790877
 20
6.5907491469
 30
0.0
 10
9.6667467257
 20
6.6374449931
 30
0.0
 10
9.6771419926
 20
6.6832708213
 30
0.0
 10
9.6909098592
 20
6.7279816188
 30
0.0
 10
9.7079772318
 20
6.7713381848
 30
0.0
 10
9.7282533951
 20
6.8131084909
 30
0.0
 10
9.7516300534
 20
6.8530686957
 30
0.0
 10
9.7779831013
 20
6.8910054841
 30
0.0
 10
9.8071690506
 20
6.9267130433
 30
0.0
 10
9.8284202856
 20
6.948913753
 30
0.0
 10
9.8394547911
 20
6.9595723034
 30
0.0
  0
SPLINE
  5
39F
100
AcDbEntity
  8
0
100
AcDbSpline
 62
7
  6
CONTINUOUS
 70
0
 71
3
 72
65
 73
61
 74
0
 42
0.0000001
 43
0.0000001
 44
0.0000000001
 40
0.0
 40
0.0
 40
0.0
 40
0.0
 40
0.0077182526
 40
0.0147687821
 40
0.0212510204
 40
0.0243226192
 40
0.027305824
 40
0.0302228201
 40
0.0330975158
 40
0.035955023
 40
0.0388209303
 40
0.0417205965
 40
0.0446784059
 40
0.047717222
 40
0.0508579838
 40
0.0575135255
 40
0.0647733794
 40
0.0727273685
 40
0.0814381221
 40
0.0909470539
 40
0.1012791343
 40
0.1124468971
 40
0.1244531367
 40
0.1372927382
 40
0.1509543714
 40
0.1654214336
 40
0.1806727434
 40
0.1966833742
 40
0.2134249758
 40
0.2308661239
 40
0.2489728193
 40
0.2677085892
 40
0.2870347474
 40
0.3272928812
 40
0.3694034623
 40
0.4129984671
 40
0.4576921722
 40
0.5030860201
 40
0.5487734325
 40
0.5943444757
 40
0.6393905451
 40
0.6835090499
 40
0.7263081034
 40
0.7674114074
 40
0.7872157092
 40
0.8064646171
 40
0.8251177597
 40
0.843136823
 40
0.8604856019
 40
0.8771303944
 40
0.8930402683
 40
0.9081872285
 40
0.9225468184
 40
0.9360985258
 40
0.9488262988
 40
0.9607196455
 40
0.9717744009
 40
0.9819943993
 40
0.9913943988
 40
1.0
 40
1.0
 40
1.0
 40
1.0
 10
12.6582242783
 20
6.9622255486
 30
0.0
 10
12.6592404475
 20
6.9631712144
 30
0.0
 10
12.6612711277
 20
6.9648925736
 30
0.0
 10
12.6644627087
 20
6.9670125719
 30
0.0
 10
12.6671683221
 20
6.9683069859
 30
0.0
 10
12.6693102649
 20
6.9690191634
 30
0.0
 10
12.6708821844
 20
6.969393129
 30
0.0
 10
12.6724469093
 20
6.9696157485
 30
0.0
 10
12.6740032938
 20
6.9696865994
 30
0.0
 10
12.6755500222
 20
6.9696055896
 30
0.0
 10
12.6770857906
 20
6.9693727418
 30
0.0
 10
12.6786093014
 20
6.9689882754
 30
0.0
 10
12.680119382
 20
6.9684527865
 30
0.0
 10
12.6816150374
 20
6.967766844
 30
0.0
 10
12.6836272016
 20
6.9666308219
 30
0.0
 10
12.6861095141
 20
6.9648083022
 30
0.0
 10
12.6889518446
 20
6.9620766685
 30
0.0
 10
12.6917130491
 20
6.9587671585
 30
0.0
 10
12.6943889443
 20
6.954887827
 30
0.0
 10
12.6969753681
 20
6.9504468989
 30
0.0
 10
12.6994672903
 20
6.9454540496
 30
0.0
 10
12.7018593756
 20
6.9399203024
 30
0.0
 10
12.7041461661
 20
6.9338581721
 30
0.0
 10
12.7063223725
 20
6.9272816278
 30
0.0
 10
12.7083827892
 20
6.9202059779
 30
0.0
 10
12.7103224475
 20
6.9126478359
 30
0.0
 10
12.7121367055
 20
6.9046250611
 30
0.0
 10
12.7138211384
 20
6.8961566691
 30
0.0
 10
12.7153716524
 20
6.8872627911
 30
0.0
 10
12.7167845213
 20
6.8779646132
 30
0.0
 10
12.7180562732
 20
6.868284313
 30
0.0
 10
12.7191838628
 20
6.8582449793
 30
0.0
 10
12.7205093753
 20
6.8442210696
 30
0.0
 10
12.7217720801
 20
6.8259715825
 30
0.0
 10
12.7226604751
 20
6.8033315522
 30
0.0
 10
12.7229324037
 20
6.7798780695
 30
0.0
 10
12.7225849105
 20
6.7558352741
 30
0.0
 10
12.7216210107
 20
6.7314327817
 30
0.0
 10
12.720049766
 20
6.7069037949
 30
0.0
 10
12.7178861441
 20
6.6824827177
 30
0.0
 10
12.7151509326
 20
6.6584029253
 30
0.0
 10
12.7118705177
 20
6.6348943952
 30
0.0
 10
12.708076522
 20
6.6121817981
 30
0.0
 10
12.7044744766
 20
6.5938781367
 30
0.0
 10
12.7013521754
 20
6.5798036542
 30
0.0
 10
12.6989351264
 20
6.5697100422
 30
0.0
 10
12.6964196232
 20
6.5599717546
 30
0.0
 10
12.6938117126
 20
6.5506120249
 30
0.0
 10
12.6911176515
 20
6.5416531981
 30
0.0
 10
12.6883439258
 20
6.5331166269
 30
0.0
 10
12.6854972416
 20
6.5250226214
 30
0.0
 10
12.682584409
 20
6.5173904162
 30
0.0
 10
12.6796124371
 20
6.5102380837
 30
0.0
 10
12.6765884729
 20
6.5035824786
 30
0.0
 10
12.6735196807
 20
6.4974392154
 30
0.0
 10
12.6704133044
 20
6.4918225648
 30
0.0
 10
12.66727665
 20
6.4867454492
 30
0.0
 10
12.6641165465
 20
6.4822191128
 30
0.0
 10
12.6609402474
 20
6.478254224
 30
0.0
 10
12.6587208498
 20
6.4758894412
 30
0.0
 10
12.6576076513
 20
6.4748141739
 30
0.0
  0
SPLINE
  5
3A0
100
AcDbEntity
  8
0
100
AcDbSpline
 62
7
  6
CONTINUOUS
 70
0
 71
3
 72
26
 73
22
 74
0
 42
0.0000001
 43
0.0000001
 44
0.0000000001
 40
0.0
 40
0.0
 40
0.0
 40
0.0
 40
0.0639406468
 40
0.0957745534
 40
0.1275137406
 40
0.1907030963
 40
0.2535471631
 40
0.2848583621
 40
0.3160972447
 40
0.3472697086
 40
0.3783822068
 40
0.4404389471
 40
0.50234405
 40
0.5641628158
 40
0.6259634078
 40
0.687814593
 40
0.7497834583
 40
0.8119331976
 40
0.8743210646
 40
0.9369965713
 40
1.0
 40
1.0
 40
1.0
 40
1.0
 10
10.3158641593
 20
9.9612180571
 30
0.0
 10
10.323597526
 20
9.9606817463
 30
0.0
 10
10.3352241016
 20
9.9603764753
 30
0.0
 10
10.3506750485
 20
9.9609842998
 30
0.0
 10
10.3659946016
 20
9.962261847
 30
0.0
 10
10.3849357485
 20
9.9651116725
 30
0.0
 10
10.4034974159
 20
9.9696288066
 30
0.0
 10
10.4179954249
 20
9.9742170557
 30
0.0
 10
10.4286657065
 20
9.978134351
 30
0.0
 10
10.4391243213
 20
9.9825243261
 30
0.0
 10
10.4527469136
 20
9.9889898515
 30
0.0
 10
10.4691623906
 20
9.9982141769
 30
0.0
 10
10.4877219436
 20
10.0110307378
 30
0.0
 10
10.5049918281
 20
10.0254917595
 30
0.0
 10
10.5208407847
 20
10.0414878991
 30
0.0
 10
10.5351497488
 20
10.058898764
 30
0.0
 10
10.5478109951
 20
10.0775931347
 30
0.0
 10
10.5587293946
 20
10.0974299519
 30
0.0
 10
10.5678232045
 20
10.1182603484
 30
0.0
 10
10.5750240139
 20
10.1399251335
 30
0.0
 10
10.5785182154
 20
10.1547805592
 30
0.0
 10
10.5799361453
 20
10.1622861135
 30
0.0
  0
SPLINE
  5
3A1
100
AcDbEntity
  8
0
100
AcDbSpline
 62
7
  6
CONTINUOUS
 70
0
 71
3
 72
25
 73
21
 74
0
 42
0.0000001
 43
0.0000001
 44
0.0000000001
 40
0.0
 40
0.0
 40
0.0
 40
0.0
 40
0.064000563
 40
0.0958759914
 40
0.1276636233
 40
0.1909736384
 40
0.2539611466
 40
0.2853486754
 40
0.3166662583
 40
0.3790965869
 40
0.4413069543
 40
0.503344764
 40
0.5652621594
 40
0.6271146091
 40
0.688959385
 40
0.7508539723
 40
0.8128544724
 40
0.8750140561
 40
0.9373815207
 40
1.0
 40
1.0
 40
1.0
 40
1.0
 10
10.3405554758
 20
10.0046549835
 30
0.0
 10
10.3471118834
 20
10.0042002951
 30
0.0
 10
10.356966478
 20
10.0039052747
 30
0.0
 10
10.3700727755
 20
10.0042978601
 30
0.0
 10
10.3830827506
 20
10.0052100656
 30
0.0
 10
10.399197227
 20
10.0073226259
 30
0.0
 10
10.4150467071
 20
10.0107309974
 30
0.0
 10
10.4274770592
 20
10.0142191296
 30
0.0
 10
10.4396983272
 20
10.0181996304
 30
0.0
 10
10.4546072597
 20
10.0241034828
 30
0.0
 10
10.4717981624
 20
10.0326357665
 30
0.0
 10
10.4881665266
 20
10.0425562591
 30
0.0
 10
10.5036085312
 20
10.0538024678
 30
0.0
 10
10.5180271677
 20
10.0663037946
 30
0.0
 10
10.5313316243
 20
10.0799815858
 30
0.0
 10
10.5434382278
 20
10.0947497942
 30
0.0
 10
10.554270839
 20
10.1105153268
 30
0.0
 10
10.5637615856
 20
10.127179359
 30
0.0
 10
10.5718504533
 20
10.1446353707
 30
0.0
 10
10.5762662762
 20
10.1567049615
 30
0.0
 10
10.5782254942
 20
10.1628294472
 30
0.0
  0
SPLINE
  5
3A2
100
AcDbEntity
  8
0
100
AcDbSpline
 62
7
  6
CONTINUOUS
 70
0
 71
3
 72
15
 73
11
 74
0
 42
0.0000001
 43
0.0000001
 44
0.0000000001
 40
0.0
 40
0.0
 40
0.0
 40
0.0
 40
0.1275072286
 40
0.2541329592
 40
0.379922642
 40
0.50495043
 40
0.6293249996
 40
0.7531828108
 40
0.876682875
 40
1.0
 40
1.0
 40
1.0
 40
1.0
 10
10.3480022382
 20
10.039639724
 30
0.0
 10
10.3553735374
 20
10.0391285226
 30
0.0
 10
10.3701269734
 20
10.0388407581
 30
0.0
 10
10.3921060629
 20
10.0406424377
 30
0.0
 10
10.4136465899
 20
10.0446607691
 30
0.0
 10
10.4345286596
 20
10.0508566691
 30
0.0
 10
10.454541915
 20
10.0591682106
 30
0.0
 10
10.4734845194
 20
10.0695127719
 30
0.0
 10
10.491162534
 20
10.081784121
 30
0.0
 10
10.5019940339
 20
10.0911749829
 30
0.0
 10
10.5071339422
 20
10.0961397947
 30
0.0
  0
SPLINE
  5
3A3
100
AcDbEntity
  8
0
100
AcDbSpline
 62
7
  6
CONTINUOUS
 70
0
 71
3
 72
39
 73
35
 74
0
 42
0.0000001
 43
0.0000001
 44
0.0000000001
 40
0.0
 40
0.0
 40
0.0
 40
0.0
 40
0.0311159584
 40
0.0620233352
 40
0.0927351385
 40
0.1232711775
 40
0.1536587332
 40
0.1839312107
 40
0.2141268395
 40
0.244287099
 40
0.2744549757
 40
0.3046731314
 40
0.3349820893
 40
0.3654185446
 40
0.396013864
 40
0.426792882
 40
0.4577729977
 40
0.4889636199
 40
0.5203659696
 40
0.5519731789
 40
0.5837707176
 40
0.6157370646
 40
0.6478445906
 40
0.68006064
 40
0.7123487314
 40
0.7446698626
 40
0.7769838842
 40
0.8092508939
 40
0.8414326248
 40
0.8734937998
 40
0.9054034138
 40
0.9371358961
 40
0.9686718081
 40
1.0
 40
1.0
 40
1.0
 40
1.0
 10
8.6692822691
 20
7.212801484
 30
0.0
 10
8.6692822691
 20
7.2219697936
 30
0.0
 10
8.6701773503
 20
7.2402582174
 30
0.0
 10
8.6742252964
 20
7.2673252117
 30
0.0
 10
8.6809359422
 20
7.2936851431
 30
0.0
 10
8.690245766
 20
7.3190801037
 30
0.0
 10
8.7020656149
 20
7.3432654333
 30
0.0
 10
8.7162821199
 20
7.3660067589
 30
0.0
 10
8.7327582651
 20
7.3870839133
 30
0.0
 10
8.7513348916
 20
7.4062927675
 30
0.0
 10
8.7718323793
 20
7.4234472688
 30
0.0
 10
8.794052158
 20
7.4383816538
 30
0.0
 10
8.8177790597
 20
7.4509517905
 30
0.0
 10
8.8427833698
 20
7.4610367011
 30
0.0
 10
8.8688231437
 20
7.4685398866
 30
0.0
 10
8.8956467808
 20
7.4733897673
 30
0.0
 10
8.9229953745
 20
7.4755406859
 30
0.0
 10
8.9506053263
 20
7.4749730626
 30
0.0
 10
8.9782108298
 20
7.4716933009
 30
0.0
 10
9.00554643
 20
7.4657340732
 30
0.0
 10
9.0323494946
 20
7.4571534995
 30
0.0
 10
9.0583626615
 20
7.4460347323
 30
0.0
 10
9.0833363521
 20
7.432485278
 30
0.0
 10
9.1070309245
 20
7.4166355846
 30
0.0
 10
9.1292190996
 20
7.3986381677
 30
0.0
 10
9.1496880394
 20
7.3786659871
 30
0.0
 10
9.1682411998
 20
7.3569107128
 30
0.0
 10
9.1847004944
 20
7.3335811961
 30
0.0
 10
9.198907669
 20
7.3089012414
 30
0.0
 10
9.2107259092
 20
7.2831075301
 30
0.0
 10
9.2200413315
 20
7.2564478563
 30
0.0
 10
9.2267636216
 20
7.2291771884
 30
0.0
 10
9.2308275712
 20
7.2015608922
 30
0.0
 10
9.231740911
 20
7.1830256889
 30
0.0
 10
9.231740911
 20
7.1737948447
 30
0.0
  0
SPLINE
  5
3A4
100
AcDbEntity
  8
0
100
AcDbSpline
 62
7
  6
CONTINUOUS
 70
0
 71
3
 72
13
 73
9
 74
0
 42
0.0000001
 43
0.0000001
 44
0.0000000001
 40
0.0
 40
0.0
 40
0.0
 40
0.0
 40
0.2526611958
 40
0.5034248126
 40
0.6281779518
 40
0.7525055053
 40
0.8764354879
 40
1.0
 40
1.0
 40
1.0
 40
1.0
 10
10.4579556978
 20
10.1458466166
 30
0.0
 10
10.4659846361
 20
10.1452898078
 30
0.0
 10
10.4820557504
 20
10.1450474469
 30
0.0
 10
10.5020175603
 20
10.1469591224
 30
0.0
 10
10.5176902174
 20
10.1498060713
 30
0.0
 10
10.529248802
 20
10.1525873038
 30
0.0
 10
10.5405938817
 20
10.1560094903
 30
0.0
 10
10.5480039511
 20
10.1587157077
 30
0.0
 10
10.5516607172
 20
10.1601717862
 30
0.0
  0
SPLINE
  5
3A5
100
AcDbEntity
  8
0
100
AcDbSpline
 62
7
  6
CONTINUOUS
 70
0
 71
3
 72
39
 73
35
 74
0
 42
0.0000001
 43
0.0000001
 44
0.0000000001
 40
0.0
 40
0.0
 40
0.0
 40
0.0
 40
0.0311159584
 40
0.0620233352
 40
0.0927351385
 40
0.1232711775
 40
0.1536587332
 40
0.1839312107
 40
0.2141268395
 40
0.244287099
 40
0.2744549757
 40
0.3046731314
 40
0.3349820893
 40
0.3654185446
 40
0.396013864
 40
0.426792882
 40
0.4577729977
 40
0.4889636199
 40
0.5203659696
 40
0.5519731789
 40
0.5837707176
 40
0.6157370646
 40
0.6478445906
 40
0.68006064
 40
0.7123487314
 40
0.7446698626
 40
0.7769838842
 40
0.8092508939
 40
0.8414326248
 40
0.8734937998
 40
0.9054034138
 40
0.9371358961
 40
0.9686718081
 40
1.0
 40
1.0
 40
1.0
 40
1.0
 10
11.3850794944
 20
5.7743589562
 30
0.0
 10
11.3850794944
 20
5.7835272658
 30
0.0
 10
11.3859745756
 20
5.8018156896
 30
0.0
 10
11.3900225217
 20
5.8288826838
 30
0.0
 10
11.3967331675
 20
5.8552426153
 30
0.0
 10
11.4060429913
 20
5.8806375758
 30
0.0
 10
11.4178628402
 20
5.9048229054
 30
0.0
 10
11.4320793452
 20
5.927564231
 30
0.0
 10
11.4485554904
 20
5.9486413854
 30
0.0
 10
11.4671321169
 20
5.9678502396
 30
0.0
 10
11.4876296046
 20
5.9850047409
 30
0.0
 10
11.5098493833
 20
5.999939126
 30
0.0
 10
11.533576285
 20
6.0125092626
 30
0.0
 10
11.5585805951
 20
6.0225941733
 30
0.0
 10
11.584620369
 20
6.0300973587
 30
0.0
 10
11.6114440062
 20
6.0349472394
 30
0.0
 10
11.6387925998
 20
6.037098158
 30
0.0
 10
11.6664025516
 20
6.0365305348
 30
0.0
 10
11.6940080551
 20
6.033250773
 30
0.0
 10
11.7213436553
 20
6.0272915454
 30
0.0
 10
11.7481467199
 20
6.0187109716
 30
0.0
 10
11.7741598868
 20
6.0075922044
 30
0.0
 10
11.7991335774
 20
5.9940427502
 30
0.0
 10
11.8228281498
 20
5.9781930567
 30
0.0
 10
11.8450163249
 20
5.9601956398
 30
0.0
 10
11.8654852647
 20
5.9402234593
 30
0.0
 10
11.8840384251
 20
5.9184681849
 30
0.0
 10
11.9004977197
 20
5.8951386683
 30
0.0
 10
11.9147048943
 20
5.8704587135
 30
0.0
 10
11.9265231346
 20
5.8446650023
 30
0.0
 10
11.9358385568
 20
5.8180053284
 30
0.0
 10
11.9425608469
 20
5.7907346605
 30
0.0
 10
11.9466247965
 20
5.7631183643
 30
0.0
 10
11.9475381363
 20
5.744583161
 30
0.0
 10
11.9475381363
 20
5.7353523169
 30
0.0
  0
SPLINE
  5
3A6
100
AcDbEntity
  8
0
100
AcDbSpline
 62
7
  6
CONTINUOUS
 70
0
 71
3
 72
39
 73
35
 74
0
 42
0.0000001
 43
0.0000001
 44
0.0000000001
 40
0.0
 40
0.0
 40
0.0
 40
0.0
 40
0.0311159584
 40
0.0620233352
 40
0.0927351385
 40
0.1232711775
 40
0.1536587332
 40
0.1839312107
 40
0.2141268395
 40
0.244287099
 40
0.2744549757
 40
0.3046731314
 40
0.3349820893
 40
0.3654185446
 40
0.396013864
 40
0.426792882
 40
0.4577729977
 40
0.4889636199
 40
0.5203659696
 40
0.5519731789
 40
0.5837707176
 40
0.6157370646
 40
0.6478445906
 40
0.68006064
 40
0.7123487314
 40
0.7446698626
 40
0.7769838842
 40
0.8092508939
 40
0.8414326248
 40
0.8734937998
 40
0.9054034138
 40
0.9371358961
 40
0.9686718081
 40
1.0
 40
1.0
 40
1.0
 40
1.0
 10
9.231740911
 20
7.1737948447
 30
0.0
 10
9.231740911
 20
7.1646265351
 30
0.0
 10
9.2308458298
 20
7.1463381113
 30
0.0
 10
9.2267978837
 20
7.1192711171
 30
0.0
 10
9.2200872379
 20
7.0929111856
 30
0.0
 10
9.2107774141
 20
7.067516225
 30
0.0
 10
9.1989575652
 20
7.0433308955
 30
0.0
 10
9.1847410602
 20
7.0205895699
 30
0.0
 10
9.168264915
 20
6.9995124155
 30
0.0
 10
9.1496882885
 20
6.9803035612
 30
0.0
 10
9.1291908008
 20
6.96314906
 30
0.0
 10
9.1069710221
 20
6.9482146749
 30
0.0
 10
9.0832441204
 20
6.9356445383
 30
0.0
 10
9.0582398103
 20
6.9255596276
 30
0.0
 10
9.0322000364
 20
6.9180564421
 30
0.0
 10
9.0053763992
 20
6.9132065614
 30
0.0
 10
8.9780278056
 20
6.9110556429
 30
0.0
 10
8.9504178538
 20
6.9116232661
 30
0.0
 10
8.9228123503
 20
6.9149030279
 30
0.0
 10
8.8954767501
 20
6.9208622555
 30
0.0
 10
8.8686736855
 20
6.9294428293
 30
0.0
 10
8.8426605186
 20
6.9405615965
 30
0.0
 10
8.817686828
 20
6.9541110507
 30
0.0
 10
8.7939922556
 20
6.9699607442
 30
0.0
 10
8.7718040805
 20
6.987958161
 30
0.0
 10
8.7513351407
 20
7.0079303416
 30
0.0
 10
8.7327819803
 20
7.029685616
 30
0.0
 10
8.7163226857
 20
7.0530151326
 30
0.0
 10
8.7021155111
 20
7.0776950873
 30
0.0
 10
8.6902972708
 20
7.1034887986
 30
0.0
 10
8.6809818486
 20
7.1301484725
 30
0.0
 10
8.6742595585
 20
7.1574191404
 30
0.0
 10
8.6701956089
 20
7.1850354366
 30
0.0
 10
8.6692822691
 20
7.2035706398
 30
0.0
 10
8.6692822691
 20
7.212801484
 30
0.0
  0
SPLINE
  5
3A7
100
AcDbEntity
  8
0
100
AcDbSpline
 62
7
  6
CONTINUOUS
 70
0
 71
3
 72
39
 73
35
 74
0
 42
0.0000001
 43
0.0000001
 44
0.0000000001
 40
0.0
 40
0.0
 40
0.0
 40
0.0
 40
0.0311159584
 40
0.0620233352
 40
0.0927351385
 40
0.1232711775
 40
0.1536587332
 40
0.1839312107
 40
0.2141268395
 40
0.244287099
 40
0.2744549757
 40
0.3046731314
 40
0.3349820893
 40
0.3654185446
 40
0.396013864
 40
0.426792882
 40
0.4577729977
 40
0.4889636199
 40
0.5203659696
 40
0.5519731789
 40
0.5837707176
 40
0.6157370646
 40
0.6478445906
 40
0.68006064
 40
0.7123487314
 40
0.7446698626
 40
0.7769838842
 40
0.8092508939
 40
0.8414326248
 40
0.8734937998
 40
0.9054034138
 40
0.9371358961
 40
0.9686718081
 40
1.0
 40
1.0
 40
1.0
 40
1.0
 10
11.3850794944
 20
7.0244603067
 30
0.0
 10
11.3850794944
 20
7.0336286164
 30
0.0
 10
11.3859745756
 20
7.0519170402
 30
0.0
 10
11.3900225217
 20
7.0789840344
 30
0.0
 10
11.3967331675
 20
7.1053439659
 30
0.0
 10
11.4060429913
 20
7.1307389264
 30
0.0
 10
11.4178628402
 20
7.154924256
 30
0.0
 10
11.4320793452
 20
7.1776655816
 30
0.0
 10
11.4485554904
 20
7.198742736
 30
0.0
 10
11.4671321169
 20
7.2179515902
 30
0.0
 10
11.4876296046
 20
7.2351060915
 30
0.0
 10
11.5098493833
 20
7.2500404765
 30
0.0
 10
11.533576285
 20
7.2626106132
 30
0.0
 10
11.5585805951
 20
7.2726955239
 30
0.0
 10
11.584620369
 20
7.2801987093
 30
0.0
 10
11.6114440062
 20
7.28504859
 30
0.0
 10
11.6387925998
 20
7.2871995086
 30
0.0
 10
11.6664025516
 20
7.2866318854
 30
0.0
 10
11.6940080551
 20
7.2833521236
 30
0.0
 10
11.7213436553
 20
7.277392896
 30
0.0
 10
11.7481467199
 20
7.2688123222
 30
0.0
 10
11.7741598868
 20
7.257693555
 30
0.0
 10
11.7991335774
 20
7.2441441008
 30
0.0
 10
11.8228281498
 20
7.2282944073
 30
0.0
 10
11.8450163249
 20
7.2102969904
 30
0.0
 10
11.8654852647
 20
7.1903248098
 30
0.0
 10
11.8840384251
 20
7.1685695355
 30
0.0
 10
11.9004977197
 20
7.1452400189
 30
0.0
 10
11.9147048943
 20
7.1205600641
 30
0.0
 10
11.9265231346
 20
7.0947663528
 30
0.0
 10
11.9358385568
 20
7.068106679
 30
0.0
 10
11.9425608469
 20
7.0408360111
 30
0.0
 10
11.9466247965
 20
7.0132197149
 30
0.0
 10
11.9475381363
 20
6.9946845116
 30
0.0
 10
11.9475381363
 20
6.9854536674
 30
0.0
  0
SPLINE
  5
3A8
100
AcDbEntity
  8
0
100
AcDbSpline
 62
7
  6
CONTINUOUS
 70
0
 71
3
 72
15
 73
11
 74
0
 42
0.0000001
 43
0.0000001
 44
0.0000000001
 40
0.0
 40
0.0
 40
0.0
 40
0.0
 40
0.1273482888
 40
0.2538606703
 40
0.3795878487
 40
0.5046051206
 40
0.6290174369
 40
0.7529533749
 40
0.8765605786
 40
1.0
 40
1.0
 40
1.0
 40
1.0
 10
11.4231078178
 20
5.780041498
 30
0.0
 10
11.4231078178
 20
5.7880520585
 30
0.0
 10
11.4238726731
 20
5.8040316726
 30
0.0
 10
11.4273316058
 20
5.8276937465
 30
0.0
 10
11.4330671162
 20
5.8507612845
 30
0.0
 10
11.4410273938
 20
5.8730185464
 30
0.0
 10
11.45113943
 20
5.8942602735
 30
0.0
 10
11.463310977
 20
5.9142903417
 30
0.0
 10
11.4774276264
 20
5.9329210644
 30
0.0
 10
11.4880567541
 20
5.944301769
 30
0.0
 10
11.4936415554
 20
5.9496962364
 30
0.0
  0
SPLINE
  5
3A9
100
AcDbEntity
  8
0
100
AcDbSpline
 62
7
  6
CONTINUOUS
 70
0
 71
3
 72
39
 73
35
 74
0
 42
0.0000001
 43
0.0000001
 44
0.0000000001
 40
0.0
 40
0.0
 40
0.0
 40
0.0
 40
0.0311159584
 40
0.0620233352
 40
0.0927351385
 40
0.1232711775
 40
0.1536587332
 40
0.1839312107
 40
0.2141268395
 40
0.244287099
 40
0.2744549757
 40
0.3046731314
 40
0.3349820893
 40
0.3654185446
 40
0.396013864
 40
0.426792882
 40
0.4577729977
 40
0.4889636199
 40
0.5203659696
 40
0.5519731789
 40
0.5837707176
 40
0.6157370646
 40
0.6478445906
 40
0.68006064
 40
0.7123487314
 40
0.7446698626
 40
0.7769838842
 40
0.8092508939
 40
0.8414326248
 40
0.8734937998
 40
0.9054034138
 40
0.9371358961
 40
0.9686718081
 40
1.0
 40
1.0
 40
1.0
 40
1.0
 10
11.9475381363
 20
5.7353523169
 30
0.0
 10
11.9475381363
 20
5.7261840072
 30
0.0
 10
11.9466430551
 20
5.7078955834
 30
0.0
 10
11.942595109
 20
5.6808285892
 30
0.0
 10
11.9358844632
 20
5.6544686577
 30
0.0
 10
11.9265746394
 20
5.6290736972
 30
0.0
 10
11.9147547905
 20
5.6048883676
 30
0.0
 10
11.9005382855
 20
5.582147042
 30
0.0
 10
11.8840621403
 20
5.5610698876
 30
0.0
 10
11.8654855138
 20
5.5418610334
 30
0.0
 10
11.8449880261
 20
5.5247065321
 30
0.0
 10
11.8227682474
 20
5.5097721471
 30
0.0
 10
11.7990413457
 20
5.4972020104
 30
0.0
 10
11.7740370356
 20
5.4871170997
 30
0.0
 10
11.7479972617
 20
5.4796139143
 30
0.0
 10
11.7211736245
 20
5.4747640336
 30
0.0
 10
11.6938250309
 20
5.472613115
 30
0.0
 10
11.6662150791
 20
5.4731807382
 30
0.0
 10
11.6386095756
 20
5.4764605
 30
0.0
 10
11.6112739754
 20
5.4824197276
 30
0.0
 10
11.5844709108
 20
5.4910003014
 30
0.0
 10
11.5584577439
 20
5.5021190686
 30
0.0
 10
11.5334840533
 20
5.5156685228
 30
0.0
 10
11.5097894809
 20
5.5315182163
 30
0.0
 10
11.4876013058
 20
5.5495156332
 30
0.0
 10
11.467132366
 20
5.5694878138
 30
0.0
 10
11.4485792056
 20
5.5912430881
 30
0.0
 10
11.432119911
 20
5.6145726047
 30
0.0
 10
11.4179127364
 20
5.6392525595
 30
0.0
 10
11.4060944961
 20
5.6650462708
 30
0.0
 10
11.3967790739
 20
5.6917059446
 30
0.0
 10
11.3900567838
 20
5.7189766125
 30
0.0
 10
11.3859928342
 20
5.7465929087
 30
0.0
 10
11.3850794944
 20
5.765128112
 30
0.0
 10
11.3850794944
 20
5.7743589562
 30
0.0
  0
SPLINE
  5
3AA
100
AcDbEntity
  8
0
100
AcDbSpline
 62
4
  6
CONTINUOUS
 70
0
 71
3
 72
283
 73
279
 74
0
 42
0.0000001
 43
0.0000001
 44
0.0000000001
 40
0.0
 40
0.0
 40
0.0
 40
0.0
 40
0.015625
 40
0.03125
 40
0.0390625
 40
0.046875
 40
0.05078125
 40
0.0546875
 40
0.05859375
 40
0.060546875
 40
0.0615234375
 40
0.0625
 40
0.0634765625
 40
0.064453125
 40
0.06640625
 40
0.0703125
 40
0.07421875
 40
0.078125
 40
0.0859375
 40
0.09375
 40
0.1015625
 40
0.109375
 40
0.11328125
 40
0.1171875
 40
0.119140625
 40
0.12109375
 40
0.123046875
 40
0.1240234375
 40
0.1245117188
 40
0.125
 40
0.1254882812
 40
0.1259765625
 40
0.126953125
 40
0.12890625
 40
0.130859375
 40
0.1328125
 40
0.13671875
 40
0.140625
 40
0.1484375
 40
0.15625
 40
0.1640625
 40
0.171875
 40
0.17578125
 40
0.1796875
 40
0.181640625
 40
0.18359375
 40
0.185546875
 40
0.1865234375
 40
0.1870117188
 40
0.1875
 40
0.1879882812
 40
0.1884765625
 40
0.189453125
 40
0.19140625
 40
0.193359375
 40
0.1953125
 40
0.19921875
 40
0.203125
 40
0.2109375
 40
0.21875
 40
0.2265625
 40
0.234375
 40
0.23828125
 40
0.2421875
 40
0.244140625
 40
0.24609375
 40
0.248046875
 40
0.2490234375
 40
0.2495117188
 40
0.25
 40
0.2504882812
 40
0.2509765625
 40
0.251953125
 40
0.25390625
 40
0.255859375
 40
0.2578125
 40
0.26171875
 40
0.265625
 40
0.2734375
 40
0.28125
 40
0.2890625
 40
0.296875
 40
0.30078125
 40
0.3046875
 40
0.306640625
 40
0.30859375
 40
0.310546875
 40
0.3115234375
 40
0.3120117188
 40
0.3125
 40
0.3129882812
 40
0.3134765625
 40
0.314453125
 40
0.31640625
 40
0.318359375
 40
0.3203125
 40
0.32421875
 40
0.328125
 40
0.3359375
 40
0.34375
 40
0.3515625
 40
0.359375
 40
0.36328125
 40
0.3671875
 40
0.369140625
 40
0.37109375
 40
0.373046875
 40
0.3740234375
 40
0.3745117188
 40
0.375
 40
0.3754882812
 40
0.3759765625
 40
0.376953125
 40
0.37890625
 40
0.380859375
 40
0.3828125
 40
0.38671875
 40
0.390625
 40
0.3984375
 40
0.40625
 40
0.4140625
 40
0.421875
 40
0.42578125
 40
0.4296875
 40
0.431640625
 40
0.43359375
 40
0.435546875
 40
0.4365234375
 40
0.4370117188
 40
0.4375
 40
0.4379882812
 40
0.4384765625
 40
0.439453125
 40
0.44140625
 40
0.443359375
 40
0.4453125
 40
0.44921875
 40
0.453125
 40
0.4609375
 40
0.46875
 40
0.4765625
 40
0.484375
 40
0.48828125
 40
0.4921875
 40
0.494140625
 40
0.49609375
 40
0.498046875
 40
0.4990234375
 40
0.4995117188
 40
0.5
 40
0.5004882812
 40
0.5009765625
 40
0.501953125
 40
0.50390625
 40
0.505859375
 40
0.5078125
 40
0.51171875
 40
0.515625
 40
0.5234375
 40
0.53125
 40
0.5390625
 40
0.546875
 40
0.55078125
 40
0.5546875
 40
0.556640625
 40
0.55859375
 40
0.560546875
 40
0.5615234375
 40
0.5620117188
 40
0.5625
 40
0.5629882812
 40
0.5634765625
 40
0.564453125
 40
0.56640625
 40
0.568359375
 40
0.5703125
 40
0.57421875
 40
0.578125
 40
0.5859375
 40
0.59375
 40
0.6015625
 40
0.609375
 40
0.61328125
 40
0.6171875
 40
0.619140625
 40
0.62109375
 40
0.623046875
 40
0.6240234375
 40
0.6245117188
 40
0.625
 40
0.6254882812
 40
0.6259765625
 40
0.626953125
 40
0.62890625
 40
0.630859375
 40
0.6328125
 40
0.63671875
 40
0.640625
 40
0.6484375
 40
0.65625
 40
0.6640625
 40
0.671875
 40
0.67578125
 40
0.6796875
 40
0.681640625
 40
0.68359375
 40
0.685546875
 40
0.6865234375
 40
0.6870117188
 40
0.6875
 40
0.6879882812
 40
0.6884765625
 40
0.689453125
 40
0.69140625
 40
0.693359375
 40
0.6953125
 40
0.69921875
 40
0.703125
 40
0.7109375
 40
0.71875
 40
0.7265625
 40
0.734375
 40
0.73828125
 40
0.7421875
 40
0.74609375
 40
0.748046875
 40
0.7490234375
 40
0.75
 40
0.7509765625
 40
0.751953125
 40
0.75390625
 40
0.7578125
 40
0.76171875
 40
0.765625
 40
0.7734375
 40
0.78125
 40
0.7890625
 40
0.796875
 40
0.80078125
 40
0.8046875
 40
0.80859375
 40
0.810546875
 40
0.8115234375
 40
0.8125
 40
0.8134765625
 40
0.814453125
 40
0.81640625
 40
0.8203125
 40
0.82421875
 40
0.828125
 40
0.8359375
 40
0.84375
 40
0.8515625
 40
0.859375
 40
0.8671875
 40
0.87109375
 40
0.873046875
 40
0.875
 40
0.876953125
 40
0.87890625
 40
0.8828125
 40
0.890625
 40
0.8984375
 40
0.90625
 40
0.9140625
 40
0.921875
 40
0.9296875
 40
0.93359375
 40
0.935546875
 40
0.9375
 40
0.939453125
 40
0.94140625
 40
0.9453125
 40
0.953125
 40
0.9609375
 40
0.96875
 40
0.984375
 40
1.0
 40
1.0
 40
1.0
 40
1.0
 10
12.7323338305
 20
9.017639381
 30
0.0
 10
12.7324449586
 20
9.0135169198
 30
0.0
 10
12.7326672191
 20
9.0052720052
 30
0.0
 10
12.7329450222
 20
8.9949658234
 30
0.0
 10
12.7331673121
 20
8.9867209587
 30
0.0
 10
12.7333061361
 20
8.9815677356
 30
0.0
 10
12.7334174407
 20
8.9774455755
 30
0.0
 10
12.7335002471
 20
8.9743528096
 30
0.0
 10
12.7335713905
 20
8.9717791499
 30
0.0
 10
12.733616995
 20
8.9699704345
 30
0.0
 10
12.7336496062
 20
8.9689480525
 30
0.0
 10
12.7336556089
 20
8.9681498011
 30
0.0
 10
12.7337321585
 20
8.9674718245
 30
0.0
 10
12.7338096171
 20
8.9665259025
 30
0.0
 10
12.7339566348
 20
8.9648900857
 30
0.0
 10
12.734160666
 20
8.9625429853
 30
0.0
 10
12.734408069
 20
8.959730839
 30
0.0
 10
12.7347370435
 20
8.9559797827
 30
0.0
 10
12.7351485693
 20
8.951291487
 30
0.0
 10
12.7356422676
 20
8.9456653052
 30
0.0
 10
12.7361360045
 20
8.9400391917
 30
0.0
 10
12.7365474339
 20
8.9353507252
 30
0.0
 10
12.7368766013
 20
8.9316000105
 30
0.0
 10
12.7370822802
 20
8.929255687
 30
0.0
 10
12.737246939
 20
8.9273805179
 30
0.0
 10
12.7373701164
 20
8.9259733479
 30
0.0
 10
12.7374737718
 20
8.9248032294
 30
0.0
 10
12.7375443533
 20
8.9239791949
 30
0.0
 10
12.737587773
 20
8.9235160494
 30
0.0
 10
12.7376116405
 20
8.9231469111
 30
0.0
 10
12.7376687531
 20
8.9228610239
 30
0.0
 10
12.737733307
 20
8.9224508021
 30
0.0
 10
12.7378516792
 20
8.9217464436
 30
0.0
 10
12.7380179577
 20
8.9207331438
 30
0.0
 10
12.7382187009
 20
8.9195202116
 30
0.0
 10
12.7384859363
 20
8.9179019113
 30
0.0
 10
12.7388201251
 20
8.9158793979
 30
0.0
 10
12.7393547463
 20
8.9126431741
 30
0.0
 10
12.7400230507
 20
8.9085979644
 30
0.0
 10
12.7408250032
 20
8.9037436803
 30
0.0
 10
12.7416269621
 20
8.8988894136
 30
0.0
 10
12.7422952508
 20
8.8948441607
 30
0.0
 10
12.7428299034
 20
8.8916080232
 30
0.0
 10
12.7431640123
 20
8.8895852903
 30
0.0
 10
12.7434314116
 20
8.8879674406
 30
0.0
 10
12.7436316537
 20
8.8867531318
 30
0.0
 10
12.7437995003
 20
8.8857441393
 30
0.0
 10
12.7439150732
 20
8.8850320915
 30
0.0
 10
12.7439841123
 20
8.88463419
 30
0.0
 10
12.7440274478
 20
8.8843104586
 30
0.0
 10
12.7441030598
 20
8.8840834567
 30
0.0
 10
12.7441926174
 20
8.8837470471
 30
0.0
 10
12.7443545886
 20
8.8831740506
 30
0.0
 10
12.7445832338
 20
8.8823472654
 30
0.0
 10
12.7448587818
 20
8.8813586411
 30
0.0
 10
12.7452257691
 20
8.8800392466
 30
0.0
 10
12.7456846436
 20
8.8783904242
 30
0.0
 10
12.7464187644
 20
8.8757520732
 30
0.0
 10
12.7473364425
 20
8.8724542157
 30
0.0
 10
12.748437644
 20
8.8684967489
 30
0.0
 10
12.7495388508
 20
8.8645393036
 30
0.0
 10
12.7504565155
 20
8.8612413923
 30
0.0
 10
12.7511906631
 20
8.8586031491
 30
0.0
 10
12.7516494695
 20
8.8569540526
 30
0.0
 10
12.7520165967
 20
8.8556352206
 30
0.0
 10
12.7522917173
 20
8.8546448779
 30
0.0
 10
12.7525216996
 20
8.8538234691
 30
0.0
 10
12.7526812837
 20
8.8532408749
 30
0.0
 10
12.7527746662
 20
8.8529198433
 30
0.0
 10
12.7528385295
 20
8.8526456052
 30
0.0
 10
12.7529259908
 20
8.8524992849
 30
0.0
 10
12.7530343747
 20
8.8522595721
 30
0.0
 10
12.7532278815
 20
8.8518608636
 30
0.0
 10
12.7535023149
 20
8.8512804113
 30
0.0
 10
12.753832493
 20
8.8505885207
 30
0.0
 10
12.7542724309
 20
8.8496643751
 30
0.0
 10
12.7548224558
 20
8.8485097494
 30
0.0
 10
12.7557024383
 20
8.8466620371
 30
0.0
 10
12.7568024362
 20
8.8443525043
 30
0.0
 10
12.7581224248
 20
8.8415810158
 30
0.0
 10
12.7594424175
 20
8.8388095521
 30
0.0
 10
12.760542405
 20
8.8364999572
 30
0.0
 10
12.7614224084
 20
8.8346523692
 30
0.0
 10
12.7619723802
 20
8.8334974278
 30
0.0
 10
12.7624124272
 20
8.83257393
 30
0.0
 10
12.7627422718
 20
8.8318800601
 30
0.0
 10
12.7630177486
 20
8.8313058005
 30
0.0
 10
12.7632093927
 20
8.830896037
 30
0.0
 10
12.7633207612
 20
8.8306740371
 30
0.0
 10
12.7633990546
 20
8.8304733087
 30
0.0
 10
12.7634973513
 20
8.8304034186
 30
0.0
 10
12.7636214362
 20
8.830264594
 30
0.0
 10
12.7638418358
 20
8.8300429145
 30
0.0
 10
12.7641549926
 20
8.8297151127
 30
0.0
 10
12.7645315083
 20
8.8293265089
 30
0.0
 10
12.7650332752
 20
8.8288067084
 30
0.0
 10
12.7656605708
 20
8.828157527
 30
0.0
 10
12.7666641951
 20
8.8271185185
 30
0.0
 10
12.7679187422
 20
8.8258198678
 30
0.0
 10
12.7694241912
 20
8.8242614365
 30
0.0
 10
12.7709296435
 20
8.822703031
 30
0.0
 10
12.7721841825
 20
8.8214043159
 30
0.0
 10
12.773187823
 20
8.8203654361
 30
0.0
 10
12.7738150773
 20
8.8197159276
 30
0.0
 10
12.7743169289
 20
8.8191967984
 30
0.0
 10
12.7746931859
 20
8.8188061439
 30
0.0
 10
12.7750071522
 20
8.8184847579
 30
0.0
 10
12.7752261067
 20
8.8182516251
 30
0.0
 10
12.7753525069
 20
8.8181311516
 30
0.0
 10
12.775443692
 20
8.8180048931
 30
0.0
 10
12.7755486956
 20
8.8180158753
 30
0.0
 10
12.7756838804
 20
8.8179826473
 30
0.0
 10
12.7759226996
 20
8.8179468022
 30
0.0
 10
12.7762626957
 20
8.817883934
 30
0.0
 10
12.7766711936
 20
8.8178134835
 30
0.0
 10
12.7772156819
 20
8.8177178062
 30
0.0
 10
12.7778963524
 20
8.8175988064
 30
0.0
 10
12.7789853916
 20
8.817408073
 30
0.0
 10
12.7803467022
 20
8.8171697716
 30
0.0
 10
12.7819802697
 20
8.8168837571
 30
0.0
 10
12.7836138395
 20
8.8165977694
 30
0.0
 10
12.7849751443
 20
8.8163594011
 30
0.0
 10
12.7860641952
 20
8.8161688015
 30
0.0
 10
12.7867448361
 20
8.8160494616
 30
0.0
 10
12.7872893851
 20
8.8159544824
 30
0.0
 10
12.7876976977
 20
8.8158818991
 30
0.0
 10
12.7880382735
 20
8.8158257038
 30
0.0
 10
12.7882760578
 20
8.8157779466
 30
0.0
 10
12.7884129007
 20
8.8157638047
 30
0.0
 10
12.7885128113
 20
8.8157161604
 30
0.0
 10
12.7886231248
 20
8.8158100935
 30
0.0
 10
12.7887665807
 20
8.8158859538
 30
0.0
 10
12.7890193193
 20
8.8160417182
 30
0.0
 10
12.7893794905
 20
8.8162522095
 30
0.0
 10
12.7898120743
 20
8.816509948
 30
0.0
 10
12.7903887205
 20
8.8168518008
 30
0.0
 10
12.7911095736
 20
8.8172797327
 30
0.0
 10
12.7922629132
 20
8.8179640795
 30
0.0
 10
12.7937045963
 20
8.8188196318
 30
0.0
 10
12.7954346124
 20
8.8198462404
 30
0.0
 10
12.7971646293
 20
8.8208728754
 30
0.0
 10
12.7986063107
 20
8.8217283617
 30
0.0
 10
12.7997596537
 20
8.8224128405
 30
0.0
 10
12.800480498
 20
8.8228404368
 30
0.0
 10
12.8010571622
 20
8.8231829784
 30
0.0
 10
12.8014896912
 20
8.8234386128
 30
0.0
 10
12.801850034
 20
8.8236556871
 30
0.0
 10
12.8021024662
 20
8.8237996998
 30
0.0
 10
12.8022464131
 20
8.8238943893
 30
0.0
 10
12.8023552186
 20
8.8239304852
 30
0.0
 10
12.8024607927
 20
8.8241000677
 30
0.0
 10
12.8026026853
 20
8.8242796161
 30
0.0
 10
12.8028504721
 20
8.8246155197
 30
0.0
 10
12.803204728
 20
8.8250840401
 30
0.0
 10
12.8036297175
 20
8.8256511193
 30
0.0
 10
12.8041964111
 20
8.8264055292
 30
0.0
 10
12.8049047642
 20
8.8273491223
 30
0.0
 10
12.8060381369
 20
8.8288585466
 30
0.0
 10
12.8074548501
 20
8.830745439
 30
0.0
 10
12.8091549073
 20
8.8330096589
 30
0.0
 10
12.8108549635
 20
8.8352739035
 30
0.0
 10
12.8122716791
 20
8.8371607339
 30
0.0
 10
12.813405047
 20
8.8386702822
 30
0.0
 10
12.8141134125
 20
8.8396135601
 30
0.0
 10
12.8146800806
 20
8.840368617
 30
0.0
 10
12.8151051482
 20
8.8409337197
 30
0.0
 10
12.8154591596
 20
8.8414084239
 30
0.0
 10
12.8157073829
 20
8.8417332885
 30
0.0
 10
12.8158485762
 20
8.8419305241
 30
0.0
 10
12.8159562983
 20
8.842045777
 30
0.0
 10
12.8160570361
 20
8.8422859259
 30
0.0
 10
12.8161937894
 20
8.8425625593
 30
0.0
 10
12.8164319726
 20
8.8430669655
 30
0.0
 10
12.8167728277
 20
8.8437769339
 30
0.0
 10
12.8171815998
 20
8.8446334383
 30
0.0
 10
12.817726718
 20
8.8457738575
 30
0.0
 10
12.8184080854
 20
8.8471999248
 30
0.0
 10
12.8194982902
 20
8.8494813288
 30
0.0
 10
12.8208610402
 20
8.8523331887
 30
0.0
 10
12.8224963432
 20
8.8557553729
 30
0.0
 10
12.8241316442
 20
8.8591775797
 30
0.0
 10
12.8254943992
 20
8.862029383
 30
0.0
 10
12.8265845941
 20
8.8643109001
 30
0.0
 10
12.8272659867
 20
8.8657366799
 30
0.0
 10
12.8278110531
 20
8.8668776893
 30
0.0
 10
12.8282199834
 20
8.8677323905
 30
0.0
 10
12.8285603434
 20
8.8684480006
 30
0.0
 10
12.8287994104
 20
8.8689423355
 30
0.0
 10
12.8289347476
 20
8.8692351057
 30
0.0
 10
12.8290398352
 20
8.8694256875
 30
0.0
 10
12.8291312202
 20
8.869727106
 30
0.0
 10
12.8292578465
 20
8.8700903362
 30
0.0
 10
12.8294772156
 20
8.870744002
 30
0.0
 10
12.8297917642
 20
8.8716683929
 30
0.0
 10
12.8301687242
 20
8.872781693
 30
0.0
 10
12.8306715116
 20
8.8742646851
 30
0.0
 10
12.8312999363
 20
8.8761189074
 30
0.0
 10
12.8323054492
 20
8.8790853935
 30
0.0
 10
12.8335623287
 20
8.8827935941
 30
0.0
 10
12.8350705894
 20
8.8872433926
 30
0.0
 10
12.8365788472
 20
8.8916932116
 30
0.0
 10
12.8378357342
 20
8.8954013608
 30
0.0
 10
12.838841232
 20
8.8983679498
 30
0.0
 10
12.8394696948
 20
8.9002219106
 30
0.0
 10
12.8399724039
 20
8.9017054394
 30
0.0
 10
12.8403496031
 20
8.9028171
 30
0.0
 10
12.8406634035
 20
8.9037466203
 30
0.0
 10
12.8408841084
 20
8.9043911293
 30
0.0
 10
12.8410085943
 20
8.904769031
 30
0.0
 10
12.8411065538
 20
8.9050253832
 30
0.0
 10
12.8411869486
 20
8.9053852266
 30
0.0
 10
12.8413002684
 20
8.9058289189
 30
0.0
 10
12.8414957234
 20
8.9066221995
 30
0.0
 10
12.8417764373
 20
8.9077466643
 30
0.0
 10
12.8421126551
 20
8.9090997859
 30
0.0
 10
12.8425611687
 20
8.9109026333
 30
0.0
 10
12.8431217343
 20
8.9131566428
 30
0.0
 10
12.8440186822
 20
8.916762806
 30
0.0
 10
12.8451398507
 20
8.9212705999
 30
0.0
 10
12.8464852669
 20
8.9266798988
 30
0.0
 10
12.8478306532
 20
8.9320892688
 30
0.0
 10
12.8489518965
 20
8.9365968852
 30
0.0
 10
12.8498486947
 20
8.9402034033
 30
0.0
 10
12.8505218301
 20
8.9429071321
 30
0.0
 10
12.8510810688
 20
8.9451639284
 30
0.0
 10
12.8514758866
 20
8.9467364463
 30
0.0
 10
12.851696265
 20
8.9476463319
 30
0.0
 10
12.8518762868
 20
8.9482969027
 30
0.0
 10
12.8519999727
 20
8.9490691949
 30
0.0
 10
12.8521845379
 20
8.95005646
 30
0.0
 10
12.8524983714
 20
8.9518039559
 30
0.0
 10
12.8529514916
 20
8.9542900363
 30
0.0
 10
12.8534931869
 20
8.9572777598
 30
0.0
 10
12.8542161633
 20
8.9612598443
 30
0.0
 10
12.8551196364
 20
8.9662379832
 30
0.0
 10
12.8562039177
 20
8.9722115099
 30
0.0
 10
12.8572881407
 20
8.9781851436
 30
0.0
 10
12.8581917594
 20
8.9831630151
 30
0.0
 10
12.8589144446
 20
8.9871456346
 30
0.0
 10
12.8594570281
 20
8.9901317262
 30
0.0
 10
12.8599073697
 20
8.9926229116
 30
0.0
 10
12.8602261633
 20
8.9943612944
 30
0.0
 10
12.8604027812
 20
8.995363161
 30
0.0
 10
12.8605508787
 20
8.9960906022
 30
0.0
 10
12.8606392147
 20
8.9969096258
 30
0.0
 10
12.8607778415
 20
8.9979697124
 30
0.0
 10
12.8610107262
 20
8.9998397477
 30
0.0
 10
12.8613484964
 20
9.0025034452
 30
0.0
 10
12.8617516466
 20
9.0057032132
 30
0.0
 10
12.8622899424
 20
9.0099684054
 30
0.0
 10
12.8629625309
 20
9.0153003071
 30
0.0
 10
12.863769844
 20
9.0216983619
 30
0.0
 10
12.8645767793
 20
9.0280966671
 30
0.0
 10
12.865385019
 20
9.0344941982
 30
0.0
 10
12.8660545187
 20
9.0398278458
 30
0.0
 10
12.866531068
 20
9.0435567572
 30
0.0
 10
12.86679105
 20
9.0456948097
 30
0.0
 10
12.867020775
 20
9.0472779375
 30
0.0
 10
12.8671177119
 20
9.0489390887
 30
0.0
 10
12.8672932792
 20
9.0511267414
 30
0.0
 10
12.8675789406
 20
9.0549678142
 30
0.0
 10
12.8679983186
 20
9.0604484298
 30
0.0
 10
12.8684967074
 20
9.0670280147
 30
0.0
 10
12.8689964914
 20
9.0736068245
 30
0.0
 10
12.8694955592
 20
9.0801858885
 30
0.0
 10
12.8699960964
 20
9.086764711
 30
0.0
 10
12.8704089095
 20
9.0922476563
 30
0.0
 10
12.8707062685
 20
9.0960845779
 30
0.0
 10
12.8708630957
 20
9.098278881
 30
0.0
 10
12.8710175957
 20
9.0999196046
 30
0.0
 10
12.8710311234
 20
9.1015794549
 30
0.0
 10
12.8710983331
 20
9.103785917
 30
0.0
 10
12.8711930394
 20
9.107650334
 30
0.0
 10
12.8713403121
 20
9.1131693048
 30
0.0
 10
12.8715119123
 20
9.1197927652
 30
0.0
 10
12.8717425041
 20
9.1286238028
 30
0.0
 10
12.872030125
 20
9.1396626837
 30
0.0
 10
12.8722604104
 20
9.1484937628
 30
0.0
 10
12.8723755295
 20
9.1529093056
 30
0.0
  0
SPLINE
  5
3AB
100
AcDbEntity
  8
0
100
AcDbSpline
 62
4
  6
CONTINUOUS
 70
0
 71
3
 72
283
 73
279
 74
0
 42
0.0000001
 43
0.0000001
 44
0.0000000001
 40
0.0
 40
0.0
 40
0.0
 40
0.0
 40
0.015625
 40
0.03125
 40
0.0390625
 40
0.046875
 40
0.05078125
 40
0.0546875
 40
0.05859375
 40
0.060546875
 40
0.0615234375
 40
0.0625
 40
0.0634765625
 40
0.064453125
 40
0.06640625
 40
0.0703125
 40
0.07421875
 40
0.078125
 40
0.0859375
 40
0.09375
 40
0.1015625
 40
0.109375
 40
0.11328125
 40
0.1171875
 40
0.119140625
 40
0.12109375
 40
0.123046875
 40
0.1240234375
 40
0.1245117188
 40
0.125
 40
0.1254882812
 40
0.1259765625
 40
0.126953125
 40
0.12890625
 40
0.130859375
 40
0.1328125
 40
0.13671875
 40
0.140625
 40
0.1484375
 40
0.15625
 40
0.1640625
 40
0.171875
 40
0.17578125
 40
0.1796875
 40
0.181640625
 40
0.18359375
 40
0.185546875
 40
0.1865234375
 40
0.1870117188
 40
0.1875
 40
0.1879882812
 40
0.1884765625
 40
0.189453125
 40
0.19140625
 40
0.193359375
 40
0.1953125
 40
0.19921875
 40
0.203125
 40
0.2109375
 40
0.21875
 40
0.2265625
 40
0.234375
 40
0.23828125
 40
0.2421875
 40
0.244140625
 40
0.24609375
 40
0.248046875
 40
0.2490234375
 40
0.2495117188
 40
0.25
 40
0.2504882812
 40
0.2509765625
 40
0.251953125
 40
0.25390625
 40
0.255859375
 40
0.2578125
 40
0.26171875
 40
0.265625
 40
0.2734375
 40
0.28125
 40
0.2890625
 40
0.296875
 40
0.30078125
 40
0.3046875
 40
0.306640625
 40
0.30859375
 40
0.310546875
 40
0.3115234375
 40
0.3120117188
 40
0.3125
 40
0.3129882812
 40
0.3134765625
 40
0.314453125
 40
0.31640625
 40
0.318359375
 40
0.3203125
 40
0.32421875
 40
0.328125
 40
0.3359375
 40
0.34375
 40
0.3515625
 40
0.359375
 40
0.36328125
 40
0.3671875
 40
0.369140625
 40
0.37109375
 40
0.373046875
 40
0.3740234375
 40
0.3745117188
 40
0.375
 40
0.3754882812
 40
0.3759765625
 40
0.376953125
 40
0.37890625
 40
0.380859375
 40
0.3828125
 40
0.38671875
 40
0.390625
 40
0.3984375
 40
0.40625
 40
0.4140625
 40
0.421875
 40
0.42578125
 40
0.4296875
 40
0.431640625
 40
0.43359375
 40
0.435546875
 40
0.4365234375
 40
0.4370117188
 40
0.4375
 40
0.4379882812
 40
0.4384765625
 40
0.439453125
 40
0.44140625
 40
0.443359375
 40
0.4453125
 40
0.44921875
 40
0.453125
 40
0.4609375
 40
0.46875
 40
0.4765625
 40
0.484375
 40
0.48828125
 40
0.4921875
 40
0.494140625
 40
0.49609375
 40
0.498046875
 40
0.4990234375
 40
0.4995117188
 40
0.5
 40
0.5004882812
 40
0.5009765625
 40
0.501953125
 40
0.50390625
 40
0.505859375
 40
0.5078125
 40
0.51171875
 40
0.515625
 40
0.5234375
 40
0.53125
 40
0.5390625
 40
0.546875
 40
0.55078125
 40
0.5546875
 40
0.556640625
 40
0.55859375
 40
0.560546875
 40
0.5615234375
 40
0.5620117188
 40
0.5625
 40
0.5629882812
 40
0.5634765625
 40
0.564453125
 40
0.56640625
 40
0.568359375
 40
0.5703125
 40
0.57421875
 40
0.578125
 40
0.5859375
 40
0.59375
 40
0.6015625
 40
0.609375
 40
0.61328125
 40
0.6171875
 40
0.619140625
 40
0.62109375
 40
0.623046875
 40
0.6240234375
 40
0.6245117188
 40
0.625
 40
0.6254882812
 40
0.6259765625
 40
0.626953125
 40
0.62890625
 40
0.630859375
 40
0.6328125
 40
0.63671875
 40
0.640625
 40
0.6484375
 40
0.65625
 40
0.6640625
 40
0.671875
 40
0.67578125
 40
0.6796875
 40
0.681640625
 40
0.68359375
 40
0.685546875
 40
0.6865234375
 40
0.6870117188
 40
0.6875
 40
0.6879882812
 40
0.6884765625
 40
0.689453125
 40
0.69140625
 40
0.693359375
 40
0.6953125
 40
0.69921875
 40
0.703125
 40
0.7109375
 40
0.71875
 40
0.7265625
 40
0.734375
 40
0.73828125
 40
0.7421875
 40
0.74609375
 40
0.748046875
 40
0.7490234375
 40
0.75
 40
0.7509765625
 40
0.751953125
 40
0.75390625
 40
0.7578125
 40
0.76171875
 40
0.765625
 40
0.7734375
 40
0.78125
 40
0.7890625
 40
0.796875
 40
0.80078125
 40
0.8046875
 40
0.80859375
 40
0.810546875
 40
0.8115234375
 40
0.8125
 40
0.8134765625
 40
0.814453125
 40
0.81640625
 40
0.8203125
 40
0.82421875
 40
0.828125
 40
0.8359375
 40
0.84375
 40
0.8515625
 40
0.859375
 40
0.8671875
 40
0.87109375
 40
0.873046875
 40
0.875
 40
0.876953125
 40
0.87890625
 40
0.8828125
 40
0.890625
 40
0.8984375
 40
0.90625
 40
0.9140625
 40
0.921875
 40
0.9296875
 40
0.93359375
 40
0.935546875
 40
0.9375
 40
0.939453125
 40
0.94140625
 40
0.9453125
 40
0.953125
 40
0.9609375
 40
0.96875
 40
0.984375
 40
1.0
 40
1.0
 40
1.0
 40
1.0
 10
12.8723755295
 20
9.1529092827
 30
0.0
 10
12.8722644014
 20
9.1570317439
 30
0.0
 10
12.8720421409
 20
9.1652766586
 30
0.0
 10
12.8717643378
 20
9.1755828404
 30
0.0
 10
12.8715420479
 20
9.183827705
 30
0.0
 10
12.8714032239
 20
9.1889809282
 30
0.0
 10
12.8712919193
 20
9.1931030882
 30
0.0
 10
12.8712091129
 20
9.1961958541
 30
0.0
 10
12.8711379695
 20
9.1987695139
 30
0.0
 10
12.871092365
 20
9.2005782292
 30
0.0
 10
12.8710597538
 20
9.2016006112
 30
0.0
 10
12.8710537511
 20
9.2023988626
 30
0.0
 10
12.8709772015
 20
9.2030768393
 30
0.0
 10
12.8708997429
 20
9.2040227613
 30
0.0
 10
12.8707527252
 20
9.2056585781
 30
0.0
 10
12.870548694
 20
9.2080056785
 30
0.0
 10
12.870301291
 20
9.2108178247
 30
0.0
 10
12.8699723165
 20
9.2145688811
 30
0.0
 10
12.8695607907
 20
9.2192571767
 30
0.0
 10
12.8690670924
 20
9.2248833585
 30
0.0
 10
12.8685733555
 20
9.230509472
 30
0.0
 10
12.8681619261
 20
9.2351979385
 30
0.0
 10
12.8678327587
 20
9.2389486532
 30
0.0
 10
12.8676270798
 20
9.2412929768
 30
0.0
 10
12.867462421
 20
9.2431681459
 30
0.0
 10
12.8673392436
 20
9.2445753158
 30
0.0
 10
12.8672355882
 20
9.2457454344
 30
0.0
 10
12.8671650067
 20
9.2465694688
 30
0.0
 10
12.867121587
 20
9.2470326143
 30
0.0
 10
12.8670977195
 20
9.2474017527
 30
0.0
 10
12.8670406069
 20
9.2476876399
 30
0.0
 10
12.866976053
 20
9.2480978617
 30
0.0
 10
12.8668576808
 20
9.2488022201
 30
0.0
 10
12.8666914023
 20
9.24981552
 30
0.0
 10
12.8664906591
 20
9.2510284521
 30
0.0
 10
12.8662234237
 20
9.2526467525
 30
0.0
 10
12.8658892349
 20
9.2546692658
 30
0.0
 10
12.8653546137
 20
9.2579054896
 30
0.0
 10
12.8646863093
 20
9.2619506994
 30
0.0
 10
12.8638843568
 20
9.2668049834
 30
0.0
 10
12.8630823979
 20
9.2716592501
 30
0.0
 10
12.8624141092
 20
9.2757045031
 30
0.0
 10
12.8618794566
 20
9.2789406405
 30
0.0
 10
12.8615453477
 20
9.2809633734
 30
0.0
 10
12.8612779484
 20
9.2825812231
 30
0.0
 10
12.8610777063
 20
9.283795532
 30
0.0
 10
12.8609098597
 20
9.2848045245
 30
0.0
 10
12.8607942868
 20
9.2855165723
 30
0.0
 10
12.8607252477
 20
9.2859144738
 30
0.0
 10
12.8606819122
 20
9.2862382051
 30
0.0
 10
12.8606063002
 20
9.2864652071
 30
0.0
 10
12.8605167426
 20
9.2868016166
 30
0.0
 10
12.8603547714
 20
9.2873746132
 30
0.0
 10
12.8601261262
 20
9.2882013983
 30
0.0
 10
12.8598505782
 20
9.2891900226
 30
0.0
 10
12.8594835909
 20
9.2905094171
 30
0.0
 10
12.8590247164
 20
9.2921582395
 30
0.0
 10
12.8582905956
 20
9.2947965906
 30
0.0
 10
12.8573729175
 20
9.298094448
 30
0.0
 10
12.856271716
 20
9.3020519148
 30
0.0
 10
12.8551705092
 20
9.3060093601
 30
0.0
 10
12.8542528445
 20
9.3093072714
 30
0.0
 10
12.8535186969
 20
9.3119455147
 30
0.0
 10
12.8530598905
 20
9.3135946111
 30
0.0
 10
12.8526927633
 20
9.3149134431
 30
0.0
 10
12.8524176427
 20
9.3159037858
 30
0.0
 10
12.8521876604
 20
9.3167251946
 30
0.0
 10
12.8520280763
 20
9.3173077889
 30
0.0
 10
12.8519346938
 20
9.3176288205
 30
0.0
 10
12.8518708305
 20
9.3179030586
 30
0.0
 10
12.8517833692
 20
9.3180493788
 30
0.0
 10
12.8516749853
 20
9.3182890916
 30
0.0
 10
12.8514814785
 20
9.3186878001
 30
0.0
 10
12.8512070451
 20
9.3192682524
 30
0.0
 10
12.850876867
 20
9.319960143
 30
0.0
 10
12.8504369291
 20
9.3208842887
 30
0.0
 10
12.8498869042
 20
9.3220389144
 30
0.0
 10
12.8490069217
 20
9.3238866266
 30
0.0
 10
12.8479069238
 20
9.3261961594
 30
0.0
 10
12.8465869352
 20
9.328967648
 30
0.0
 10
12.8452669425
 20
9.3317391117
 30
0.0
 10
12.844166955
 20
9.3340487066
 30
0.0
 10
12.8432869516
 20
9.3358962946
 30
0.0
 10
12.8427369798
 20
9.3370512359
 30
0.0
 10
12.8422969328
 20
9.3379747338
 30
0.0
 10
12.8419670882
 20
9.3386686036
 30
0.0
 10
12.8416916114
 20
9.3392428632
 30
0.0
 10
12.8414999673
 20
9.3396526267
 30
0.0
 10
12.8413885988
 20
9.3398746267
 30
0.0
 10
12.8413103054
 20
9.3400753551
 30
0.0
 10
12.8412120087
 20
9.3401452451
 30
0.0
 10
12.8410879238
 20
9.3402840697
 30
0.0
 10
12.8408675242
 20
9.3405057492
 30
0.0
 10
12.8405543674
 20
9.340833551
 30
0.0
 10
12.8401778517
 20
9.3412221549
 30
0.0
 10
12.8396760848
 20
9.3417419553
 30
0.0
 10
12.8390487892
 20
9.3423911368
 30
0.0
 10
12.8380451649
 20
9.3434301453
 30
0.0
 10
12.8367906178
 20
9.344728796
 30
0.0
 10
12.8352851688
 20
9.3462872272
 30
0.0
 10
12.8337797165
 20
9.3478456328
 30
0.0
 10
12.8325251775
 20
9.3491443478
 30
0.0
 10
12.831521537
 20
9.3501832276
 30
0.0
 10
12.8308942827
 20
9.3508327361
 30
0.0
 10
12.8303924311
 20
9.3513518654
 30
0.0
 10
12.8300161741
 20
9.3517425198
 30
0.0
 10
12.8297022078
 20
9.3520639058
 30
0.0
 10
12.8294832533
 20
9.3522970386
 30
0.0
 10
12.8293568531
 20
9.3524175122
 30
0.0
 10
12.829265668
 20
9.3525437707
 30
0.0
 10
12.8291606644
 20
9.3525327884
 30
0.0
 10
12.8290254796
 20
9.3525660165
 30
0.0
 10
12.8287866604
 20
9.3526018616
 30
0.0
 10
12.8284466643
 20
9.3526647297
 30
0.0
 10
12.8280381664
 20
9.3527351802
 30
0.0
 10
12.8274936781
 20
9.3528308576
 30
0.0
 10
12.8268130076
 20
9.3529498573
 30
0.0
 10
12.8257239684
 20
9.3531405907
 30
0.0
 10
12.8243626578
 20
9.3533788921
 30
0.0
 10
12.8227290903
 20
9.3536649066
 30
0.0
 10
12.8210955205
 20
9.3539508943
 30
0.0
 10
12.8197342157
 20
9.3541892627
 30
0.0
 10
12.8186451648
 20
9.3543798622
 30
0.0
 10
12.8179645239
 20
9.3544992021
 30
0.0
 10
12.8174199749
 20
9.3545941814
 30
0.0
 10
12.8170116623
 20
9.3546667646
 30
0.0
 10
12.8166710865
 20
9.3547229599
 30
0.0
 10
12.8164333022
 20
9.3547707171
 30
0.0
 10
12.8162964593
 20
9.354784859
 30
0.0
 10
12.8161965487
 20
9.3548325033
 30
0.0
 10
12.8160862352
 20
9.3547385702
 30
0.0
 10
12.8159427793
 20
9.3546627099
 30
0.0
 10
12.8156900407
 20
9.3545069455
 30
0.0
 10
12.8153298695
 20
9.3542964542
 30
0.0
 10
12.8148972857
 20
9.3540387158
 30
0.0
 10
12.8143206395
 20
9.3536968629
 30
0.0
 10
12.8135997864
 20
9.353268931
 30
0.0
 10
12.8124464468
 20
9.3525845843
 30
0.0
 10
12.8110047637
 20
9.351729032
 30
0.0
 10
12.8092747476
 20
9.3507024233
 30
0.0
 10
12.8075447307
 20
9.3496757883
 30
0.0
 10
12.8061030493
 20
9.348820302
 30
0.0
 10
12.8049497063
 20
9.3481358233
 30
0.0
 10
12.804228862
 20
9.3477082269
 30
0.0
 10
12.8036521978
 20
9.3473656854
 30
0.0
 10
12.8032196688
 20
9.3471100509
 30
0.0
 10
12.802859326
 20
9.3468929767
 30
0.0
 10
12.8026068938
 20
9.346748964
 30
0.0
 10
12.8024629469
 20
9.3466542745
 30
0.0
 10
12.8023541414
 20
9.3466181785
 30
0.0
 10
12.8022485673
 20
9.346448596
 30
0.0
 10
12.8021066747
 20
9.3462690477
 30
0.0
 10
12.8018588879
 20
9.3459331441
 30
0.0
 10
12.801504632
 20
9.3454646236
 30
0.0
 10
12.8010796425
 20
9.3448975444
 30
0.0
 10
12.8005129489
 20
9.3441431345
 30
0.0
 10
12.7998045958
 20
9.3431995414
 30
0.0
 10
12.7986712231
 20
9.3416901172
 30
0.0
 10
12.7972545099
 20
9.3398032248
 30
0.0
 10
12.7955544527
 20
9.3375390049
 30
0.0
 10
12.7938543965
 20
9.3352747602
 30
0.0
 10
12.7924376809
 20
9.3333879298
 30
0.0
 10
12.791304313
 20
9.3318783815
 30
0.0
 10
12.7905959475
 20
9.3309351037
 30
0.0
 10
12.7900292794
 20
9.3301800468
 30
0.0
 10
12.7896042118
 20
9.329614944
 30
0.0
 10
12.7892502004
 20
9.3291402398
 30
0.0
 10
12.7890019771
 20
9.3288153753
 30
0.0
 10
12.7888607838
 20
9.3286181396
 30
0.0
 10
12.7887530617
 20
9.3285028867
 30
0.0
 10
12.7886523239
 20
9.3282627378
 30
0.0
 10
12.7885155706
 20
9.3279861044
 30
0.0
 10
12.7882773874
 20
9.3274816982
 30
0.0
 10
12.7879365323
 20
9.3267717298
 30
0.0
 10
12.7875277602
 20
9.3259152255
 30
0.0
 10
12.786982642
 20
9.3247748062
 30
0.0
 10
12.7863012746
 20
9.3233487389
 30
0.0
 10
12.7852110698
 20
9.3210673349
 30
0.0
 10
12.7838483198
 20
9.3182154751
 30
0.0
 10
12.7822130168
 20
9.3147932909
 30
0.0
 10
12.7805777158
 20
9.311371084
 30
0.0
 10
12.7792149608
 20
9.3085192808
 30
0.0
 10
12.7781247659
 20
9.3062377636
 30
0.0
 10
12.7774433733
 20
9.3048119839
 30
0.0
 10
12.7768983069
 20
9.3036709744
 30
0.0
 10
12.7764893766
 20
9.3028162732
 30
0.0
 10
12.7761490166
 20
9.3021006632
 30
0.0
 10
12.7759099496
 20
9.3016063282
 30
0.0
 10
12.7757746124
 20
9.3013135581
 30
0.0
 10
12.7756695248
 20
9.3011229762
 30
0.0
 10
12.7755781398
 20
9.3008215578
 30
0.0
 10
12.7754515135
 20
9.3004583275
 30
0.0
 10
12.7752321444
 20
9.2998046617
 30
0.0
 10
12.7749175958
 20
9.2988802708
 30
0.0
 10
12.7745406358
 20
9.2977669708
 30
0.0
 10
12.7740378484
 20
9.2962839786
 30
0.0
 10
12.7734094237
 20
9.2944297564
 30
0.0
 10
12.7724039108
 20
9.2914632703
 30
0.0
 10
12.7711470313
 20
9.2877550696
 30
0.0
 10
12.7696387706
 20
9.2833052712
 30
0.0
 10
12.7681305128
 20
9.2788554521
 30
0.0
 10
12.7668736258
 20
9.2751473029
 30
0.0
 10
12.765868128
 20
9.2721807139
 30
0.0
 10
12.7652396652
 20
9.2703267531
 30
0.0
 10
12.7647369561
 20
9.2688432244
 30
0.0
 10
12.7643597569
 20
9.2677315638
 30
0.0
 10
12.7640459565
 20
9.2668020434
 30
0.0
 10
12.7638252516
 20
9.2661575345
 30
0.0
 10
12.7637007657
 20
9.2657796327
 30
0.0
 10
12.7636028062
 20
9.2655232805
 30
0.0
 10
12.7635224114
 20
9.2651634372
 30
0.0
 10
12.7634090917
 20
9.2647197449
 30
0.0
 10
12.7632136366
 20
9.2639264643
 30
0.0
 10
12.7629329227
 20
9.2628019994
 30
0.0
 10
12.7625967049
 20
9.2614488779
 30
0.0
 10
12.7621481913
 20
9.2596460304
 30
0.0
 10
12.7615876257
 20
9.2573920209
 30
0.0
 10
12.7606906778
 20
9.2537858578
 30
0.0
 10
12.7595695093
 20
9.2492780638
 30
0.0
 10
12.7582240931
 20
9.2438687649
 30
0.0
 10
12.7568787068
 20
9.238459395
 30
0.0
 10
12.7557574635
 20
9.2339517785
 30
0.0
 10
12.7548606653
 20
9.2303452604
 30
0.0
 10
12.7541875299
 20
9.2276415317
 30
0.0
 10
12.7536282912
 20
9.2253847353
 30
0.0
 10
12.7532334734
 20
9.2238122174
 30
0.0
 10
12.753013095
 20
9.2229023319
 30
0.0
 10
12.7528330732
 20
9.222251761
 30
0.0
 10
12.7527093873
 20
9.2214794688
 30
0.0
 10
12.7525248221
 20
9.2204922037
 30
0.0
 10
12.7522109886
 20
9.2187447078
 30
0.0
 10
12.7517578684
 20
9.2162586274
 30
0.0
 10
12.7512161731
 20
9.213270904
 30
0.0
 10
12.7504931967
 20
9.2092888195
 30
0.0
 10
12.7495897236
 20
9.2043106805
 30
0.0
 10
12.7485054423
 20
9.1983371538
 30
0.0
 10
12.7474212193
 20
9.1923635201
 30
0.0
 10
12.7465176006
 20
9.1873856486
 30
0.0
 10
12.7457949154
 20
9.1834030291
 30
0.0
 10
12.7452523319
 20
9.1804169375
 30
0.0
 10
12.7448019903
 20
9.1779257521
 30
0.0
 10
12.7444831967
 20
9.1761873694
 30
0.0
 10
12.7443065788
 20
9.1751855028
 30
0.0
 10
12.7441584813
 20
9.1744580616
 30
0.0
 10
12.7440701453
 20
9.1736390379
 30
0.0
 10
12.7439315185
 20
9.1725789513
 30
0.0
 10
12.7436986338
 20
9.170708916
 30
0.0
 10
12.7433608636
 20
9.1680452186
 30
0.0
 10
12.7429577134
 20
9.1648454505
 30
0.0
 10
12.7424194176
 20
9.1605802583
 30
0.0
 10
12.7417468291
 20
9.1552483567
 30
0.0
 10
12.740939516
 20
9.1488503018
 30
0.0
 10
12.7401325807
 20
9.1424519966
 30
0.0
 10
12.739324341
 20
9.1360544656
 30
0.0
 10
12.7386548413
 20
9.130720818
 30
0.0
 10
12.738178292
 20
9.1269919065
 30
0.0
 10
12.73791831
 20
9.124853854
 30
0.0
 10
12.737688585
 20
9.1232707263
 30
0.0
 10
12.7375916481
 20
9.1216095751
 30
0.0
 10
12.7374160808
 20
9.1194219223
 30
0.0
 10
12.7371304194
 20
9.1155808495
 30
0.0
 10
12.7367110414
 20
9.110100234
 30
0.0
 10
12.7362126526
 20
9.103520649
 30
0.0
 10
12.7357128686
 20
9.0969418392
 30
0.0
 10
12.7352138008
 20
9.0903627752
 30
0.0
 10
12.7347132636
 20
9.0837839527
 30
0.0
 10
12.7343004505
 20
9.0783010075
 30
0.0
 10
12.7340030915
 20
9.0744640859
 30
0.0
 10
12.7338462643
 20
9.0722697827
 30
0.0
 10
12.7336917643
 20
9.0706290591
 30
0.0
 10
12.7336782366
 20
9.0689692089
 30
0.0
 10
12.733611027
 20
9.0667627468
 30
0.0
 10
12.7335163206
 20
9.0628983297
 30
0.0
 10
12.7333690479
 20
9.057379359
 30
0.0
 10
12.7331974477
 20
9.0507558985
 30
0.0
 10
12.7329668559
 20
9.041924861
 30
0.0
 10
12.732679235
 20
9.0308859801
 30
0.0
 10
12.7324489496
 20
9.0220549009
 30
0.0
 10
12.7323338305
 20
9.0176393581
 30
0.0
  0
SPLINE
  5
3AC
100
AcDbEntity
  8
0
100
AcDbSpline
 62
4
  6
CONTINUOUS
 70
0
 71
3
 72
141
 73
137
 74
0
 42
0.0000001
 43
0.0000001
 44
0.0000000001
 40
0.0
 40
0.0
 40
0.0
 40
0.0
 40
0.03125
 40
0.0625
 40
0.078125
 40
0.09375
 40
0.109375
 40
0.125
 40
0.140625
 40
0.1484375
 40
0.15234375
 40
0.15625
 40
0.16015625
 40
0.162109375
 40
0.1640625
 40
0.1650390625
 40
0.166015625
 40
0.1665039062
 40
0.1669921875
 40
0.16796875
 40
0.169921875
 40
0.171875
 40
0.17578125
 40
0.1796875
 40
0.1875
 40
0.1953125
 40
0.203125
 40
0.21875
 40
0.234375
 40
0.25
 40
0.265625
 40
0.28125
 40
0.296875
 40
0.3046875
 40
0.3125
 40
0.3203125
 40
0.32421875
 40
0.328125
 40
0.330078125
 40
0.33203125
 40
0.3330078125
 40
0.3334960938
 40
0.333984375
 40
0.3349609375
 40
0.3359375
 40
0.337890625
 40
0.33984375
 40
0.34375
 40
0.34765625
 40
0.3515625
 40
0.359375
 40
0.375
 40
0.390625
 40
0.40625
 40
0.421875
 40
0.4375
 40
0.453125
 40
0.4609375
 40
0.46875
 40
0.4765625
 40
0.484375
 40
0.48828125
 40
0.4921875
 40
0.494140625
 40
0.49609375
 40
0.498046875
 40
0.4990234375
 40
0.4995117188
 40
0.5
 40
0.5004882812
 40
0.5009765625
 40
0.501953125
 40
0.50390625
 40
0.505859375
 40
0.5078125
 40
0.51171875
 40
0.515625
 40
0.5234375
 40
0.53125
 40
0.5390625
 40
0.546875
 40
0.5625
 40
0.578125
 40
0.59375
 40
0.609375
 40
0.625
 40
0.640625
 40
0.6484375
 40
0.65234375
 40
0.65625
 40
0.66015625
 40
0.662109375
 40
0.6640625
 40
0.6650390625
 40
0.666015625
 40
0.6665039062
 40
0.6669921875
 40
0.66796875
 40
0.669921875
 40
0.671875
 40
0.67578125
 40
0.6796875
 40
0.6875
 40
0.6953125
 40
0.703125
 40
0.71875
 40
0.734375
 40
0.75
 40
0.765625
 40
0.78125
 40
0.796875
 40
0.8046875
 40
0.8125
 40
0.8203125
 40
0.82421875
 40
0.828125
 40
0.830078125
 40
0.83203125
 40
0.8330078125
 40
0.8334960938
 40
0.833984375
 40
0.8349609375
 40
0.8359375
 40
0.837890625
 40
0.83984375
 40
0.84375
 40
0.84765625
 40
0.8515625
 40
0.859375
 40
0.875
 40
0.890625
 40
0.90625
 40
0.921875
 40
0.9375
 40
0.96875
 40
1.0
 40
1.0
 40
1.0
 40
1.0
 10
9.7396707997
 20
4.9859604565
 30
0.0
 10
9.7512251617
 20
4.9816219462
 30
0.0
 10
9.7743338859
 20
4.9729449257
 30
0.0
 10
9.803219791
 20
4.96209865
 30
0.0
 10
9.8263285152
 20
4.9534216296
 30
0.0
 10
9.8436600582
 20
4.9469138639
 30
0.0
 10
9.8609916015
 20
4.9404060995
 30
0.0
 10
9.8783231438
 20
4.9338983305
 30
0.0
 10
9.8927660991
 20
4.9284752037
 30
0.0
 10
9.902876161
 20
4.9246789875
 30
0.0
 10
9.9086533498
 20
4.922509764
 30
0.0
 10
9.9129862117
 20
4.9208827257
 30
0.0
 10
9.9165970246
 20
4.9195272446
 30
0.0
 10
9.9194854626
 20
4.9184419981
 30
0.0
 10
9.9212912199
 20
4.9177656809
 30
0.0
 10
9.9227347183
 20
4.9172201342
 30
0.0
 10
9.9236394314
 20
4.9168894188
 30
0.0
 10
9.924357415
 20
4.9166013667
 30
0.0
 10
9.9250965248
 20
4.9163990328
 30
0.0
 10
9.9263997808
 20
4.9160847682
 30
0.0
 10
9.9282564547
 20
4.9156150428
 30
0.0
 10
9.9312299945
 20
4.9148750928
 30
0.0
 10
9.9349459394
 20
4.9139461798
 30
0.0
 10
9.9408919989
 20
4.9124621408
 30
0.0
 10
9.9483243853
 20
4.9106063299
 30
0.0
 10
9.9572433295
 20
4.908379683
 30
0.0
 10
9.9691352269
 20
4.9054107065
 30
0.0
 10
9.9840001084
 20
4.9016995251
 30
0.0
 10
10.001837962
 20
4.8972460905
 30
0.0
 10
10.0196758168
 20
4.8927926607
 30
0.0
 10
10.0375136711
 20
4.8883392285
 30
0.0
 10
10.0553515261
 20
4.8838858012
 30
0.0
 10
10.0702164034
 20
4.8801745973
 30
0.0
 10
10.0821083092
 20
4.8772056665
 30
0.0
 10
10.0910272279
 20
4.8749788803
 30
0.0
 10
10.098459694
 20
4.8731235053
 30
0.0
 10
10.1044055911
 20
4.8716385768
 30
0.0
 10
10.1081219493
 20
4.8707119276
 30
0.0
 10
10.1110946406
 20
4.8699673308
 30
0.0
 10
10.1129534747
 20
4.8695094358
 30
0.0
 10
10.1142528508
 20
4.8691739225
 30
0.0
 10
10.1149981798
 20
4.8690056488
 30
0.0
 10
10.1157541634
 20
4.8689257076
 30
0.0
 10
10.1166954948
 20
4.8687955362
 30
0.0
 10
10.1182036637
 20
4.8686041642
 30
0.0
 10
10.1200881768
 20
4.8683591619
 30
0.0
 10
10.123103788
 20
4.8679703928
 30
0.0
 10
10.1268731681
 20
4.8674833216
 30
0.0
 10
10.1313964815
 20
4.8668993111
 30
0.0
 10
10.137427546
 20
4.8661204648
 30
0.0
 10
10.1479819183
 20
4.864757561
 30
0.0
 10
10.1630595881
 20
4.8628105152
 30
0.0
 10
10.181152794
 20
4.8604740775
 30
0.0
 10
10.1992459993
 20
4.8581376352
 30
0.0
 10
10.2173392047
 20
4.8558011941
 30
0.0
 10
10.2354324101
 20
4.8534647528
 30
0.0
 10
10.2505100813
 20
4.851517718
 30
0.0
 10
10.2625722183
 20
4.8499600912
 30
0.0
 10
10.271618821
 20
4.8487918681
 30
0.0
 10
10.2806654237
 20
4.8476236562
 30
0.0
 10
10.2882042593
 20
4.8466501118
 30
0.0
 10
10.2942353277
 20
4.8458713535
 30
0.0
 10
10.2980047455
 20
4.8453844535
 30
0.0
 10
10.3010202798
 20
4.8449953369
 30
0.0
 10
10.3032819302
 20
4.8447023949
 30
0.0
 10
10.3051666401
 20
4.8444617903
 30
0.0
 10
10.3064859345
 20
4.8442864714
 30
0.0
 10
10.307239821
 20
4.8441970563
 30
0.0
 10
10.3078052246
 20
4.8440996639
 30
0.0
 10
10.3083706713
 20
4.8441182118
 30
0.0
 10
10.3091245851
 20
4.8441025011
 30
0.0
 10
10.3104439414
 20
4.8440938497
 30
0.0
 10
10.3123287324
 20
4.8440716395
 30
0.0
 10
10.3145904831
 20
4.8440492038
 30
0.0
 10
10.3176061502
 20
4.8440178168
 30
0.0
 10
10.3213757343
 20
4.8439790873
 30
0.0
 10
10.3274070687
 20
4.8439168383
 30
0.0
 10
10.3349462368
 20
4.8438391237
 30
0.0
 10
10.3439932384
 20
4.8437458248
 30
0.0
 10
10.3530402401
 20
4.843652537
 30
0.0
 10
10.365102909
 20
4.8435281493
 30
0.0
 10
10.3801812451
 20
4.843372666
 30
0.0
 10
10.3982752484
 20
4.8431860857
 30
0.0
 10
10.4163692517
 20
4.8429995051
 30
0.0
 10
10.4344632549
 20
4.8428129257
 30
0.0
 10
10.4525572587
 20
4.8426263417
 30
0.0
 10
10.4676355934
 20
4.8424708696
 30
0.0
 10
10.4781904311
 20
4.8423620105
 30
0.0
 10
10.4842217617
 20
4.8422998501
 30
0.0
 10
10.4887452745
 20
4.8422531035
 30
0.0
 10
10.492514821
 20
4.8422145504
 30
0.0
 10
10.4955305647
 20
4.8421828052
 30
0.0
 10
10.4974151621
 20
4.84216502
 30
0.0
 10
10.4989233951
 20
4.8421460843
 30
0.0
 10
10.4998647744
 20
4.8421449905
 30
0.0
 10
10.5006207782
 20
4.8421195139
 30
0.0
 10
10.5013661935
 20
4.8421838509
 30
0.0
 10
10.5026657514
 20
4.8423381629
 30
0.0
 10
10.5045248292
 20
4.8425368401
 30
0.0
 10
10.5074979193
 20
4.8428668888
 30
0.0
 10
10.5112147731
 20
4.8432752844
 30
0.0
 10
10.5171614646
 20
4.8439310453
 30
0.0
 10
10.5245949232
 20
4.8447499476
 30
0.0
 10
10.5335150332
 20
4.8457329724
 30
0.0
 10
10.5454085273
 20
4.8470435526
 30
0.0
 10
10.5602753901
 20
4.8486818189
 30
0.0
 10
10.5781156275
 20
4.8506477208
 30
0.0
 10
10.5959558644
 20
4.8526136277
 30
0.0
 10
10.6137961015
 20
4.8545795321
 30
0.0
 10
10.6316363378
 20
4.8565454416
 30
0.0
 10
10.6465032041
 20
4.8581836847
 30
0.0
 10
10.6583966911
 20
4.8594943121
 30
0.0
 10
10.6673168229
 20
4.8604771929
 30
0.0
 10
10.6747502133
 20
4.8612965457
 30
0.0
 10
10.6806970439
 20
4.8619513876
 30
0.0
 10
10.6844135437
 20
4.8623621219
 30
0.0
 10
10.6873873604
 20
4.86268737
 30
0.0
 10
10.6892445884
 20
4.8628982693
 30
0.0
 10
10.6905474687
 20
4.8630306289
 30
0.0
 10
10.6912875585
 20
4.8631301542
 30
0.0
 10
10.692011023
 20
4.8633196812
 30
0.0
 10
10.6929210461
 20
4.8635257735
 30
0.0
 10
10.6943739019
 20
4.8638727428
 30
0.0
 10
10.6961910608
 20
4.8643005578
 30
0.0
 10
10.6990979064
 20
4.8649883575
 30
0.0
 10
10.7027316722
 20
4.8658469763
 30
0.0
 10
10.7070921017
 20
4.8668778028
 30
0.0
 10
10.712906039
 20
4.8682520694
 30
0.0
 10
10.7230804146
 20
4.8706571146
 30
0.0
 10
10.7376152446
 20
4.8740928523
 30
0.0
 10
10.7550570373
 20
4.8782157552
 30
0.0
 10
10.7724988309
 20
4.8823386533
 30
0.0
 10
10.7899406243
 20
4.8864615527
 30
0.0
 10
10.8131963489
 20
4.8919587515
 30
0.0
 10
10.8422660045
 20
4.8988302501
 30
0.0
 10
10.8655217291
 20
4.9043274489
 30
0.0
 10
10.8771495914
 20
4.9070760483
 30
0.0
  0
SPLINE
  5
3AD
100
AcDbEntity
  8
0
100
AcDbSpline
 62
4
  6
CONTINUOUS
 70
0
 71
3
 72
141
 73
137
 74
0
 42
0.0000001
 43
0.0000001
 44
0.0000000001
 40
0.0
 40
0.0
 40
0.0
 40
0.0
 40
0.03125
 40
0.0625
 40
0.078125
 40
0.09375
 40
0.109375
 40
0.125
 40
0.140625
 40
0.1484375
 40
0.15234375
 40
0.15625
 40
0.16015625
 40
0.162109375
 40
0.1640625
 40
0.1650390625
 40
0.166015625
 40
0.1665039062
 40
0.1669921875
 40
0.16796875
 40
0.169921875
 40
0.171875
 40
0.17578125
 40
0.1796875
 40
0.1875
 40
0.1953125
 40
0.203125
 40
0.21875
 40
0.234375
 40
0.25
 40
0.265625
 40
0.28125
 40
0.296875
 40
0.3046875
 40
0.3125
 40
0.3203125
 40
0.32421875
 40
0.328125
 40
0.330078125
 40
0.33203125
 40
0.3330078125
 40
0.3334960938
 40
0.333984375
 40
0.3349609375
 40
0.3359375
 40
0.337890625
 40
0.33984375
 40
0.34375
 40
0.34765625
 40
0.3515625
 40
0.359375
 40
0.375
 40
0.390625
 40
0.40625
 40
0.421875
 40
0.4375
 40
0.453125
 40
0.4609375
 40
0.46875
 40
0.4765625
 40
0.484375
 40
0.48828125
 40
0.4921875
 40
0.494140625
 40
0.49609375
 40
0.498046875
 40
0.4990234375
 40
0.4995117188
 40
0.5
 40
0.5004882812
 40
0.5009765625
 40
0.501953125
 40
0.50390625
 40
0.505859375
 40
0.5078125
 40
0.51171875
 40
0.515625
 40
0.5234375
 40
0.53125
 40
0.5390625
 40
0.546875
 40
0.5625
 40
0.578125
 40
0.59375
 40
0.609375
 40
0.625
 40
0.640625
 40
0.6484375
 40
0.65234375
 40
0.65625
 40
0.66015625
 40
0.662109375
 40
0.6640625
 40
0.6650390625
 40
0.666015625
 40
0.6665039062
 40
0.6669921875
 40
0.66796875
 40
0.669921875
 40
0.671875
 40
0.67578125
 40
0.6796875
 40
0.6875
 40
0.6953125
 40
0.703125
 40
0.71875
 40
0.734375
 40
0.75
 40
0.765625
 40
0.78125
 40
0.796875
 40
0.8046875
 40
0.8125
 40
0.8203125
 40
0.82421875
 40
0.828125
 40
0.830078125
 40
0.83203125
 40
0.8330078125
 40
0.8334960938
 40
0.833984375
 40
0.8349609375
 40
0.8359375
 40
0.837890625
 40
0.83984375
 40
0.84375
 40
0.84765625
 40
0.8515625
 40
0.859375
 40
0.875
 40
0.890625
 40
0.90625
 40
0.921875
 40
0.9375
 40
0.96875
 40
1.0
 40
1.0
 40
1.0
 40
1.0
 10
8.3797942615
 20
5.9827761792
 30
0.0
 10
8.3804974494
 20
5.9756823786
 30
0.0
 10
8.3819038252
 20
5.9614947773
 30
0.0
 10
8.383661795
 20
5.9437602757
 30
0.0
 10
8.3850681709
 20
5.9295726744
 30
0.0
 10
8.3861229525
 20
5.9189319735
 30
0.0
 10
8.3871777354
 20
5.9082912726
 30
0.0
 10
8.3882325135
 20
5.8976505714
 30
0.0
 10
8.3891115099
 20
5.8887833212
 30
0.0
 10
8.3897267788
 20
5.8825762447
 30
0.0
 10
8.3900784057
 20
5.8790293458
 30
0.0
 10
8.3903420001
 20
5.876369166
 30
0.0
 10
8.3905620624
 20
5.8741523676
 30
0.0
 10
8.3907372146
 20
5.8723788884
 30
0.0
 10
8.3908487288
 20
5.8712705561
 30
0.0
 10
8.3909332587
 20
5.870383679
 30
0.0
 10
8.3909967714
 20
5.8698298628
 30
0.0
 10
8.3910231163
 20
5.8693857058
 30
0.0
 10
8.3911387773
 20
5.8689455797
 30
0.0
 10
8.3913826753
 20
5.8681772316
 30
0.0
 10
8.391709453
 20
5.8670786144
 30
0.0
 10
8.3922443953
 20
5.8653213729
 30
0.0
 10
8.3929089308
 20
5.8631246341
 30
0.0
 10
8.3939745028
 20
5.8596099565
 30
0.0
 10
8.3953056734
 20
5.8552165737
 30
0.0
 10
8.3969034181
 20
5.8499445296
 30
0.0
 10
8.3990336257
 20
5.8429151322
 30
0.0
 10
8.4016964259
 20
5.8341283872
 30
0.0
 10
8.4048917686
 20
5.8235842924
 30
0.0
 10
8.4080871163
 20
5.813040198
 30
0.0
 10
8.4112824615
 20
5.8024961031
 30
0.0
 10
8.4144778115
 20
5.7919520097
 30
0.0
 10
8.4171405894
 20
5.7831652604
 30
0.0
 10
8.4192708424
 20
5.7761358718
 30
0.0
 10
8.4208684485
 20
5.7708638007
 30
0.0
 10
8.4222000529
 20
5.7664705026
 30
0.0
 10
8.4232647397
 20
5.7629556521
 30
0.0
 10
8.4239315279
 20
5.7607593532
 30
0.0
 10
8.4244618462
 20
5.7590012088
 30
0.0
 10
8.4248003964
 20
5.7579048904
 30
0.0
 10
8.4250231496
 20
5.7571324134
 30
0.0
 10
8.4251727043
 20
5.7566989056
 30
0.0
 10
8.4254061424
 20
5.7562951869
 30
0.0
 10
8.4256692186
 20
5.7557803387
 30
0.0
 10
8.4261061913
 20
5.7549622817
 30
0.0
 10
8.4266469113
 20
5.7539377588
 30
0.0
 10
8.427515135
 20
5.7522996129
 30
0.0
 10
8.4285993607
 20
5.7502515564
 30
0.0
 10
8.4299008827
 20
5.7477940486
 30
0.0
 10
8.431636088
 20
5.7445173158
 30
0.0
 10
8.4346727705
 20
5.7387830594
 30
0.0
 10
8.4390108501
 20
5.7305912508
 30
0.0
 10
8.444216562
 20
5.7207610864
 30
0.0
 10
8.4494222695
 20
5.7109309205
 30
0.0
 10
8.4546279782
 20
5.7011007549
 30
0.0
 10
8.4598336867
 20
5.6912705894
 30
0.0
 10
8.4641717768
 20
5.6830787845
 30
0.0
 10
8.4676422497
 20
5.6765253411
 30
0.0
 10
8.470245102
 20
5.6716102571
 30
0.0
 10
8.4728479635
 20
5.6666951788
 30
0.0
 10
8.4750169859
 20
5.6625992624
 30
0.0
 10
8.4767522685
 20
5.6593225693
 30
0.0
 10
8.4778366729
 20
5.6572745448
 30
0.0
 10
8.4787045337
 20
5.6556363344
 30
0.0
 10
8.4793545057
 20
5.6544071036
 30
0.0
 10
8.4798990872
 20
5.6533845677
 30
0.0
 10
8.4802745281
 20
5.6526652147
 30
0.0
 10
8.4804980691
 20
5.6522597424
 30
0.0
 10
8.4806403622
 20
5.6519399006
 30
0.0
 10
8.4808796044
 20
5.651680216
 30
0.0
 10
8.481164777
 20
5.6513129864
 30
0.0
 10
8.4816795851
 20
5.6506801112
 30
0.0
 10
8.4824067877
 20
5.6497708924
 30
0.0
 10
8.4832829568
 20
5.6486820176
 30
0.0
 10
8.4844499507
 20
5.6472294204
 30
0.0
 10
8.4859091148
 20
5.6454139356
 30
0.0
 10
8.4882435416
 20
5.6425090137
 30
0.0
 10
8.491161656
 20
5.6388779114
 30
0.0
 10
8.4946633586
 20
5.6345205672
 30
0.0
 10
8.4981650704
 20
5.6301632288
 30
0.0
 10
8.5028340164
 20
5.6243534422
 30
0.0
 10
8.5086701999
 20
5.6170912096
 30
0.0
 10
8.5156736197
 20
5.6083765303
 30
0.0
 10
8.5226770394
 20
5.5996618508
 30
0.0
 10
8.5296804599
 20
5.5909471722
 30
0.0
 10
8.5366838772
 20
5.5822324904
 30
0.0
 10
8.5425200685
 20
5.5749702655
 30
0.0
 10
8.5466053823
 20
5.5698866885
 30
0.0
 10
8.5489398788
 20
5.566981818
 30
0.0
 10
8.5506906624
 20
5.5648030787
 30
0.0
 10
8.5521499314
 20
5.5629877378
 30
0.0
 10
8.5533167127
 20
5.561534848
 30
0.0
 10
8.5540473945
 20
5.560628197
 30
0.0
 10
8.554628634
 20
5.5598996581
 30
0.0
 10
8.5549994518
 20
5.559451664
 30
0.0
 10
8.555278829
 20
5.5590764507
 30
0.0
 10
8.5556212797
 20
5.5587626355
 30
0.0
 10
8.5562498686
 20
5.558241981
 30
0.0
 10
8.5571325653
 20
5.5574833075
 30
0.0
 10
8.5585534234
 20
5.5562777462
 30
0.0
 10
8.5603265708
 20
5.5547679471
 30
0.0
 10
8.5631652414
 20
5.55235386
 30
0.0
 10
8.5667130189
 20
5.549335705
 30
0.0
 10
8.5709705919
 20
5.5457141528
 30
0.0
 10
8.5766472721
 20
5.540885335
 30
0.0
 10
8.5837431511
 20
5.5348493406
 30
0.0
 10
8.5922581935
 20
5.5276061353
 30
0.0
 10
8.6007732394
 20
5.5203629335
 30
0.0
 10
8.6092882836
 20
5.5131197299
 30
0.0
 10
8.617803331
 20
5.5058765302
 30
0.0
 10
8.6248991948
 20
5.4998405188
 30
0.0
 10
8.6305759059
 20
5.4950117356
 30
0.0
 10
8.6348333844
 20
5.4913900775
 30
0.0
 10
8.6383814578
 20
5.4883722539
 30
0.0
 10
8.6412195246
 20
5.4859574909
 30
0.0
 10
8.6429942087
 20
5.4844494119
 30
0.0
 10
8.6444119125
 20
5.4832403198
 30
0.0
 10
8.64530264
 20
5.4824906355
 30
0.0
 10
8.6459168046
 20
5.4819538353
 30
0.0
 10
8.6462823764
 20
5.4816659006
 30
0.0
 10
8.6467030257
 20
5.4814488195
 30
0.0
 10
8.647209979
 20
5.4811532081
 30
0.0
 10
8.6480316432
 20
5.4806937874
 30
0.0
 10
8.6490551148
 20
5.4801148695
 30
0.0
 10
8.6506946863
 20
5.4791911952
 30
0.0
 10
8.6527434587
 20
5.4780357122
 30
0.0
 10
8.6552022817
 20
5.4766495136
 30
0.0
 10
8.6584806091
 20
5.474801116
 30
0.0
 10
8.6642177302
 20
5.471566482
 30
0.0
 10
8.6724135922
 20
5.4669455439
 30
0.0
 10
8.6822486375
 20
5.461400432
 30
0.0
 10
8.6920836799
 20
5.4558553165
 30
0.0
 10
8.701918723
 20
5.4503102019
 30
0.0
 10
8.7150321136
 20
5.4429167155
 30
0.0
 10
8.731423852
 20
5.4336748575
 30
0.0
 10
8.7445372426
 20
5.4262813712
 30
0.0
 10
8.751093938
 20
5.422584628
 30
0.0
  0
SPLINE
  5
3AE
100
AcDbEntity
  8
0
100
AcDbSpline
 62
4
  6
CONTINUOUS
 70
0
 71
3
 72
141
 73
137
 74
0
 42
0.0000001
 43
0.0000001
 44
0.0000000001
 40
0.0
 40
0.0
 40
0.0
 40
0.0
 40
0.03125
 40
0.0625
 40
0.078125
 40
0.09375
 40
0.109375
 40
0.125
 40
0.140625
 40
0.1484375
 40
0.15234375
 40
0.15625
 40
0.16015625
 40
0.162109375
 40
0.1640625
 40
0.1650390625
 40
0.166015625
 40
0.1665039062
 40
0.1669921875
 40
0.16796875
 40
0.169921875
 40
0.171875
 40
0.17578125
 40
0.1796875
 40
0.1875
 40
0.1953125
 40
0.203125
 40
0.21875
 40
0.234375
 40
0.25
 40
0.265625
 40
0.28125
 40
0.296875
 40
0.3046875
 40
0.3125
 40
0.3203125
 40
0.32421875
 40
0.328125
 40
0.330078125
 40
0.33203125
 40
0.3330078125
 40
0.3334960938
 40
0.333984375
 40
0.3349609375
 40
0.3359375
 40
0.337890625
 40
0.33984375
 40
0.34375
 40
0.34765625
 40
0.3515625
 40
0.359375
 40
0.375
 40
0.390625
 40
0.40625
 40
0.421875
 40
0.4375
 40
0.453125
 40
0.4609375
 40
0.46875
 40
0.4765625
 40
0.484375
 40
0.48828125
 40
0.4921875
 40
0.494140625
 40
0.49609375
 40
0.498046875
 40
0.4990234375
 40
0.4995117188
 40
0.5
 40
0.5004882812
 40
0.5009765625
 40
0.501953125
 40
0.50390625
 40
0.505859375
 40
0.5078125
 40
0.51171875
 40
0.515625
 40
0.5234375
 40
0.53125
 40
0.5390625
 40
0.546875
 40
0.5625
 40
0.578125
 40
0.59375
 40
0.609375
 40
0.625
 40
0.640625
 40
0.6484375
 40
0.65234375
 40
0.65625
 40
0.66015625
 40
0.662109375
 40
0.6640625
 40
0.6650390625
 40
0.666015625
 40
0.6665039062
 40
0.6669921875
 40
0.66796875
 40
0.669921875
 40
0.671875
 40
0.67578125
 40
0.6796875
 40
0.6875
 40
0.6953125
 40
0.703125
 40
0.71875
 40
0.734375
 40
0.75
 40
0.765625
 40
0.78125
 40
0.796875
 40
0.8046875
 40
0.8125
 40
0.8203125
 40
0.82421875
 40
0.828125
 40
0.830078125
 40
0.83203125
 40
0.8330078125
 40
0.8334960938
 40
0.833984375
 40
0.8349609375
 40
0.8359375
 40
0.837890625
 40
0.83984375
 40
0.84375
 40
0.84765625
 40
0.8515625
 40
0.859375
 40
0.875
 40
0.890625
 40
0.90625
 40
0.921875
 40
0.9375
 40
0.96875
 40
1.0
 40
1.0
 40
1.0
 40
1.0
 10
8.751093953
 20
7.7415695734
 30
0.0
 10
8.7447370373
 20
7.7388932801
 30
0.0
 10
8.7320232057
 20
7.7335406935
 30
0.0
 10
8.7161309163
 20
7.7268499603
 30
0.0
 10
8.7034170848
 20
7.7214973736
 30
0.0
 10
8.6938817111
 20
7.717482934
 30
0.0
 10
8.6843463379
 20
7.7134684931
 30
0.0
 10
8.6748109626
 20
7.7094540566
 30
0.0
 10
8.6668648231
 20
7.7061086793
 30
0.0
 10
8.6613025124
 20
7.7037669417
 30
0.0
 10
8.6581240696
 20
7.7024287645
 30
0.0
 10
8.6557401801
 20
7.7014252483
 30
0.0
 10
8.6537537881
 20
7.7005886131
 30
0.0
 10
8.652164265
 20
7.6999201388
 30
0.0
 10
8.6511717456
 20
7.6995004436
 30
0.0
 10
8.6503755943
 20
7.6991690358
 30
0.0
 10
8.6498828728
 20
7.6989519845
 30
0.0
 10
8.6494775343
 20
7.6988010679
 30
0.0
 10
8.6491129425
 20
7.6985671904
 30
0.0
 10
8.6484938353
 20
7.6981193658
 30
0.0
 10
8.6475995205
 20
7.6974997241
 30
0.0
 10
8.646174136
 20
7.6964970602
 30
0.0
 10
8.6443905156
 20
7.6952475779
 30
0.0
 10
8.6415377791
 20
7.6932462559
 30
0.0
 10
8.6379714961
 20
7.6907453411
 30
0.0
 10
8.6336921116
 20
7.6877439276
 30
0.0
 10
8.6279862115
 20
7.6837421532
 30
0.0
 10
8.620853855
 20
7.6787398974
 30
0.0
 10
8.6122950191
 20
7.6727372067
 30
0.0
 10
8.6037361856
 20
7.6667345114
 30
0.0
 10
8.5951773506
 20
7.6607318182
 30
0.0
 10
8.586618519
 20
7.654729121
 30
0.0
 10
8.5794861492
 20
7.649726885
 30
0.0
 10
8.5737802762
 20
7.6457250703
 30
0.0
 10
8.5695008089
 20
7.6427237797
 30
0.0
 10
8.5659347849
 20
7.6402224805
 30
0.0
 10
8.5630815201
 20
7.6382219429
 30
0.0
 10
8.5612992443
 20
7.6369704642
 30
0.0
 10
8.5598710997
 20
7.6359718982
 30
0.0
 10
8.558983812
 20
7.6353418235
 30
0.0
 10
8.5583520834
 20
7.6349127378
 30
0.0
 10
8.5580077228
 20
7.6346488231
 30
0.0
 10
8.5577259995
 20
7.6343143767
 30
0.0
 10
8.5573523985
 20
7.6339204686
 30
0.0
 10
8.5567666224
 20
7.6332767196
 30
0.0
 10
8.5560302984
 20
7.6324766545
 30
0.0
 10
8.5548544737
 20
7.6311939675
 30
0.0
 10
8.5533839059
 20
7.6295914948
 30
0.0
 10
8.5516195613
 20
7.6276681484
 30
0.0
 10
8.5492669844
 20
7.6251038188
 30
0.0
 10
8.5451500295
 20
7.6206161804
 30
0.0
 10
8.5392686368
 20
7.6142053006
 30
0.0
 10
8.5322109778
 20
7.6065122311
 30
0.0
 10
8.5251533155
 20
7.5988191652
 30
0.0
 10
8.5180956541
 20
7.5911260984
 30
0.0
 10
8.5110379925
 20
7.5834330317
 30
0.0
 10
8.5051566075
 20
7.577022143
 30
0.0
 10
8.5004515004
 20
7.5718934315
 30
0.0
 10
8.4969226677
 20
7.5680468996
 30
0.0
 10
8.4933938442
 20
7.5642003607
 30
0.0
 10
8.4904531292
 20
7.5609949337
 30
0.0
 10
8.4881006216
 20
7.5584305426
 30
0.0
 10
8.4866301577
 20
7.5568279109
 30
0.0
 10
8.4854541224
 20
7.5555455473
 30
0.0
 10
8.4845711765
 20
7.5545844816
 30
0.0
 10
8.483838313
 20
7.5537813444
 30
0.0
 10
8.4833195688
 20
7.5532235623
 30
0.0
 10
8.4830321057
 20
7.5528979377
 30
0.0
 10
8.4827912619
 20
7.5526731339
 30
0.0
 10
8.4826469229
 20
7.5523741175
 30
0.0
 10
8.482420809
 20
7.552001315
 30
0.0
 10
8.4820407934
 20
7.55133685
 30
0.0
 10
8.4814897143
 20
7.5503939197
 30
0.0
 10
8.4808319291
 20
7.5492597044
 30
0.0
 10
8.4799536563
 20
7.54774836
 30
0.0
 10
8.478856235
 20
7.5458588567
 30
0.0
 10
8.4771001264
 20
7.5428358319
 30
0.0
 10
8.4749050712
 20
7.5390569889
 30
0.0
 10
8.4722709703
 20
7.534522404
 30
0.0
 10
8.4696368787
 20
7.5299878119
 30
0.0
 10
8.4661247534
 20
7.5239416916
 30
0.0
 10
8.4617345978
 20
7.5163840404
 30
0.0
 10
8.4564664106
 20
7.5073148592
 30
0.0
 10
8.4511982233
 20
7.4982456782
 30
0.0
 10
8.4459300372
 20
7.4891764965
 30
0.0
 10
8.4406618466
 20
7.4801073171
 30
0.0
 10
8.4362717015
 20
7.4725496607
 30
0.0
 10
8.4331985731
 20
7.4672593146
 30
0.0
 10
8.4314425415
 20
7.4642362388
 30
0.0
 10
8.4301254002
 20
7.4619689909
 30
0.0
 10
8.4290281572
 20
7.4600794297
 30
0.0
 10
8.4281495221
 20
7.4585682025
 30
0.0
 10
8.4276022896
 20
7.4576227251
 30
0.0
 10
8.4271601192
 20
7.4568685426
 30
0.0
 10
8.4268937662
 20
7.4563921603
 30
0.0
 10
8.4266577716
 20
7.4560225483
 30
0.0
 10
8.4265054232
 20
7.4556109754
 30
0.0
 10
8.4262776707
 20
7.45487123
 30
0.0
 10
8.4259320363
 20
7.4538246213
 30
0.0
 10
8.4253903512
 20
7.4521443637
 30
0.0
 10
8.4247093654
 20
7.4500459877
 30
0.0
 10
8.4236219563
 20
7.4466874985
 30
0.0
 10
8.422261951
 20
7.4424897603
 30
0.0
 10
8.4206302631
 20
7.4374523146
 30
0.0
 10
8.418454568
 20
7.4307357761
 30
0.0
 10
8.4157349873
 20
7.4223400839
 30
0.0
 10
8.412471474
 20
7.4122652614
 30
0.0
 10
8.4092079655
 20
7.4021904367
 30
0.0
 10
8.4059444545
 20
7.392115613
 30
0.0
 10
8.4026809484
 20
7.3820407875
 30
0.0
 10
8.3999613455
 20
7.3736451047
 30
0.0
 10
8.3977856957
 20
7.3669285469
 30
0.0
 10
8.3961538694
 20
7.3618911603
 30
0.0
 10
8.3947942971
 20
7.3576932373
 30
0.0
 10
8.3937060047
 20
7.3543351248
 30
0.0
 10
8.3930272669
 20
7.3522357902
 30
0.0
 10
8.3924809673
 20
7.3505575004
 30
0.0
 10
8.3921470812
 20
7.3495058817
 30
0.0
 10
8.3918982274
 20
7.3487751349
 30
0.0
 10
8.391779703
 20
7.3483491379
 30
0.0
 10
8.3917503766
 20
7.3478913939
 30
0.0
 10
8.3916831774
 20
7.3473300841
 30
0.0
 10
8.3915927266
 20
7.3464259135
 30
0.0
 10
8.3914738189
 20
7.3452977804
 30
0.0
 10
8.3912868329
 20
7.3434916048
 30
0.0
 10
8.3910519798
 20
7.3412342842
 30
0.0
 10
8.3907706357
 20
7.3385253287
 30
0.0
 10
8.3903953429
 20
7.3349134477
 30
0.0
 10
8.3897386585
 20
7.3285926281
 30
0.0
 10
8.3888004972
 20
7.3195629004
 30
0.0
 10
8.3876747211
 20
7.3087272208
 30
0.0
 10
8.3865489402
 20
7.297891543
 30
0.0
 10
8.3854231607
 20
7.2870558647
 30
0.0
 10
8.3839221208
 20
7.2726082938
 30
0.0
 10
8.3820458211
 20
7.2545488301
 30
0.0
 10
8.3805447813
 20
7.2401012592
 30
0.0
 10
8.3797942615
 20
7.2328774737
 30
0.0
  0
SPLINE
  5
3AF
100
AcDbEntity
  8
0
100
AcDbSpline
 62
4
  6
CONTINUOUS
 70
0
 71
3
 72
141
 73
137
 74
0
 42
0.0000001
 43
0.0000001
 44
0.0000000001
 40
0.0
 40
0.0
 40
0.0
 40
0.0
 40
0.03125
 40
0.0625
 40
0.078125
 40
0.09375
 40
0.109375
 40
0.125
 40
0.140625
 40
0.1484375
 40
0.15234375
 40
0.15625
 40
0.16015625
 40
0.162109375
 40
0.1640625
 40
0.1650390625
 40
0.166015625
 40
0.1665039062
 40
0.1669921875
 40
0.16796875
 40
0.169921875
 40
0.171875
 40
0.17578125
 40
0.1796875
 40
0.1875
 40
0.1953125
 40
0.203125
 40
0.21875
 40
0.234375
 40
0.25
 40
0.265625
 40
0.28125
 40
0.296875
 40
0.3046875
 40
0.3125
 40
0.3203125
 40
0.32421875
 40
0.328125
 40
0.330078125
 40
0.33203125
 40
0.3330078125
 40
0.3334960938
 40
0.333984375
 40
0.3349609375
 40
0.3359375
 40
0.337890625
 40
0.33984375
 40
0.34375
 40
0.34765625
 40
0.3515625
 40
0.359375
 40
0.375
 40
0.390625
 40
0.40625
 40
0.421875
 40
0.4375
 40
0.453125
 40
0.4609375
 40
0.46875
 40
0.4765625
 40
0.484375
 40
0.48828125
 40
0.4921875
 40
0.494140625
 40
0.49609375
 40
0.498046875
 40
0.4990234375
 40
0.4995117188
 40
0.5
 40
0.5004882812
 40
0.5009765625
 40
0.501953125
 40
0.50390625
 40
0.505859375
 40
0.5078125
 40
0.51171875
 40
0.515625
 40
0.5234375
 40
0.53125
 40
0.5390625
 40
0.546875
 40
0.5625
 40
0.578125
 40
0.59375
 40
0.609375
 40
0.625
 40
0.640625
 40
0.6484375
 40
0.65234375
 40
0.65625
 40
0.66015625
 40
0.662109375
 40
0.6640625
 40
0.6650390625
 40
0.666015625
 40
0.6665039062
 40
0.6669921875
 40
0.66796875
 40
0.669921875
 40
0.671875
 40
0.67578125
 40
0.6796875
 40
0.6875
 40
0.6953125
 40
0.703125
 40
0.71875
 40
0.734375
 40
0.75
 40
0.765625
 40
0.78125
 40
0.796875
 40
0.8046875
 40
0.8125
 40
0.8203125
 40
0.82421875
 40
0.828125
 40
0.830078125
 40
0.83203125
 40
0.8330078125
 40
0.8334960938
 40
0.833984375
 40
0.8349609375
 40
0.8359375
 40
0.837890625
 40
0.83984375
 40
0.84375
 40
0.84765625
 40
0.8515625
 40
0.859375
 40
0.875
 40
0.890625
 40
0.90625
 40
0.921875
 40
0.9375
 40
0.96875
 40
1.0
 40
1.0
 40
1.0
 40
1.0
 10
10.8771495539
 20
7.9621932443
 30
0.0
 10
10.8655951918
 20
7.9665317546
 30
0.0
 10
10.8424864677
 20
7.9752087751
 30
0.0
 10
10.8136005625
 20
7.9860550508
 30
0.0
 10
10.7904918384
 20
7.9947320713
 30
0.0
 10
10.7731602954
 20
8.0012398369
 30
0.0
 10
10.755828752
 20
8.0077476014
 30
0.0
 10
10.7384972098
 20
8.0142553703
 30
0.0
 10
10.7240542545
 20
8.0196784971
 30
0.0
 10
10.7139441926
 20
8.0234747133
 30
0.0
 10
10.7081670037
 20
8.0256439369
 30
0.0
 10
10.7038341419
 20
8.0272709751
 30
0.0
 10
10.700223329
 20
8.0286264563
 30
0.0
 10
10.697334891
 20
8.0297117027
 30
0.0
 10
10.6955291337
 20
8.0303880199
 30
0.0
 10
10.6940856352
 20
8.0309335666
 30
0.0
 10
10.6931809222
 20
8.031264282
 30
0.0
 10
10.6924629385
 20
8.0315523341
 30
0.0
 10
10.6917238288
 20
8.0317546681
 30
0.0
 10
10.6904205728
 20
8.0320689327
 30
0.0
 10
10.6885638989
 20
8.032538658
 30
0.0
 10
10.6855903591
 20
8.0332786081
 30
0.0
 10
10.6818744142
 20
8.0342075211
 30
0.0
 10
10.6759283547
 20
8.03569156
 30
0.0
 10
10.6684959683
 20
8.037547371
 30
0.0
 10
10.6595770241
 20
8.0397740178
 30
0.0
 10
10.6476851266
 20
8.0427429943
 30
0.0
 10
10.6328202452
 20
8.0464541758
 30
0.0
 10
10.6149823916
 20
8.0509076104
 30
0.0
 10
10.5971445368
 20
8.0553610402
 30
0.0
 10
10.5793066825
 20
8.0598144724
 30
0.0
 10
10.5614688275
 20
8.0642678997
 30
0.0
 10
10.5466039501
 20
8.0679791035
 30
0.0
 10
10.5347120444
 20
8.0709480344
 30
0.0
 10
10.5257931256
 20
8.0731748206
 30
0.0
 10
10.5183606596
 20
8.0750301956
 30
0.0
 10
10.5124147625
 20
8.076515124
 30
0.0
 10
10.5086984043
 20
8.0774417732
 30
0.0
 10
10.505725713
 20
8.07818637
 30
0.0
 10
10.5038668789
 20
8.0786442651
 30
0.0
 10
10.5025675028
 20
8.0789797783
 30
0.0
 10
10.5018221738
 20
8.079148052
 30
0.0
 10
10.5010661902
 20
8.0792279932
 30
0.0
 10
10.5001248588
 20
8.0793581646
 30
0.0
 10
10.4986166899
 20
8.0795495366
 30
0.0
 10
10.4967321767
 20
8.0797945389
 30
0.0
 10
10.4937165656
 20
8.0801833081
 30
0.0
 10
10.4899471855
 20
8.0806703793
 30
0.0
 10
10.4854238721
 20
8.0812543897
 30
0.0
 10
10.4793928075
 20
8.082033236
 30
0.0
 10
10.4688384353
 20
8.0833961398
 30
0.0
 10
10.4537607655
 20
8.0853431857
 30
0.0
 10
10.4356675596
 20
8.0876796234
 30
0.0
 10
10.4175743543
 20
8.0900160657
 30
0.0
 10
10.3994811489
 20
8.0923525068
 30
0.0
 10
10.3813879434
 20
8.0946889481
 30
0.0
 10
10.3663102723
 20
8.0966359829
 30
0.0
 10
10.3542481353
 20
8.0981936097
 30
0.0
 10
10.3452015326
 20
8.0993618327
 30
0.0
 10
10.3361549299
 20
8.1005300446
 30
0.0
 10
10.3286160943
 20
8.1015035891
 30
0.0
 10
10.3225850258
 20
8.1022823473
 30
0.0
 10
10.3188156081
 20
8.1027692473
 30
0.0
 10
10.3158000737
 20
8.1031583639
 30
0.0
 10
10.3135384234
 20
8.1034513059
 30
0.0
 10
10.3116537135
 20
8.1036919105
 30
0.0
 10
10.3103344191
 20
8.1038672294
 30
0.0
 10
10.3095805326
 20
8.1039566446
 30
0.0
 10
10.309015129
 20
8.1040540369
 30
0.0
 10
10.3084496823
 20
8.104035489
 30
0.0
 10
10.3076957684
 20
8.1040511997
 30
0.0
 10
10.3063764122
 20
8.1040598512
 30
0.0
 10
10.3044916212
 20
8.1040820614
 30
0.0
 10
10.3022298705
 20
8.1041044971
 30
0.0
 10
10.2992142034
 20
8.1041358841
 30
0.0
 10
10.2954446193
 20
8.1041746135
 30
0.0
 10
10.2894132849
 20
8.1042368626
 30
0.0
 10
10.2818741168
 20
8.1043145771
 30
0.0
 10
10.2728271151
 20
8.104407876
 30
0.0
 10
10.2637801135
 20
8.1045011639
 30
0.0
 10
10.2517174446
 20
8.1046255515
 30
0.0
 10
10.2366391085
 20
8.1047810348
 30
0.0
 10
10.2185451052
 20
8.1049676152
 30
0.0
 10
10.2004511018
 20
8.1051541957
 30
0.0
 10
10.1823570986
 20
8.1053407751
 30
0.0
 10
10.1642630949
 20
8.1055273591
 30
0.0
 10
10.1491847602
 20
8.1056828312
 30
0.0
 10
10.1386299225
 20
8.1057916904
 30
0.0
 10
10.1325985919
 20
8.1058538507
 30
0.0
 10
10.1280750791
 20
8.1059005974
 30
0.0
 10
10.1243055326
 20
8.1059391505
 30
0.0
 10
10.1212897889
 20
8.1059708956
 30
0.0
 10
10.1194051914
 20
8.1059886808
 30
0.0
 10
10.1178969585
 20
8.1060076165
 30
0.0
 10
10.1169555792
 20
8.1060087103
 30
0.0
 10
10.1161995754
 20
8.1060341869
 30
0.0
 10
10.1154541601
 20
8.1059698499
 30
0.0
 10
10.1141546021
 20
8.1058155379
 30
0.0
 10
10.1122955244
 20
8.1056168608
 30
0.0
 10
10.1093224343
 20
8.105286812
 30
0.0
 10
10.1056055805
 20
8.1048784165
 30
0.0
 10
10.099658889
 20
8.1042226556
 30
0.0
 10
10.0922254304
 20
8.1034037532
 30
0.0
 10
10.0833053204
 20
8.1024207285
 30
0.0
 10
10.0714118263
 20
8.1011101482
 30
0.0
 10
10.0565449635
 20
8.0994718819
 30
0.0
 10
10.038704726
 20
8.09750598
 30
0.0
 10
10.0208644892
 20
8.0955400731
 30
0.0
 10
10.003024252
 20
8.0935741687
 30
0.0
 10
9.9851840157
 20
8.0916082593
 30
0.0
 10
9.9703171495
 20
8.0899700161
 30
0.0
 10
9.9584236625
 20
8.0886593887
 30
0.0
 10
9.9495035307
 20
8.087676508
 30
0.0
 10
9.9420701403
 20
8.0868571552
 30
0.0
 10
9.9361233096
 20
8.0862023132
 30
0.0
 10
9.9324068098
 20
8.085791579
 30
0.0
 10
9.9294329931
 20
8.0854663308
 30
0.0
 10
9.9275757652
 20
8.0852554315
 30
0.0
 10
9.9262728849
 20
8.0851230719
 30
0.0
 10
9.9255327951
 20
8.0850235467
 30
0.0
 10
9.9248093306
 20
8.0848340197
 30
0.0
 10
9.9238993075
 20
8.0846279274
 30
0.0
 10
9.9224464517
 20
8.084280958
 30
0.0
 10
9.9206292928
 20
8.083853143
 30
0.0
 10
9.9177224472
 20
8.0831653434
 30
0.0
 10
9.9140886814
 20
8.0823067245
 30
0.0
 10
9.9097282519
 20
8.081275898
 30
0.0
 10
9.9039143146
 20
8.0799016314
 30
0.0
 10
9.8937399389
 20
8.0774965862
 30
0.0
 10
9.879205109
 20
8.0740608485
 30
0.0
 10
9.8617633162
 20
8.0699379457
 30
0.0
 10
9.8443215226
 20
8.0658150475
 30
0.0
 10
9.8268797293
 20
8.0616921481
 30
0.0
 10
9.8036240047
 20
8.0561949494
 30
0.0
 10
9.774554349
 20
8.0493234508
 30
0.0
 10
9.7512986245
 20
8.0438262519
 30
0.0
 10
9.7396707622
 20
8.0410776525
 30
0.0
  0
SPLINE
  5
3B0
100
AcDbEntity
  8
0
100
AcDbSpline
 62
4
  6
CONTINUOUS
 70
0
 71
3
 72
141
 73
137
 74
0
 42
0.0000001
 43
0.0000001
 44
0.0000000001
 40
0.0
 40
0.0
 40
0.0
 40
0.0
 40
0.03125
 40
0.0625
 40
0.078125
 40
0.09375
 40
0.109375
 40
0.125
 40
0.140625
 40
0.1484375
 40
0.15234375
 40
0.15625
 40
0.16015625
 40
0.162109375
 40
0.1640625
 40
0.1650390625
 40
0.166015625
 40
0.1665039062
 40
0.1669921875
 40
0.16796875
 40
0.169921875
 40
0.171875
 40
0.17578125
 40
0.1796875
 40
0.1875
 40
0.1953125
 40
0.203125
 40
0.21875
 40
0.234375
 40
0.25
 40
0.265625
 40
0.28125
 40
0.296875
 40
0.3046875
 40
0.3125
 40
0.3203125
 40
0.32421875
 40
0.328125
 40
0.330078125
 40
0.33203125
 40
0.3330078125
 40
0.3334960938
 40
0.333984375
 40
0.3349609375
 40
0.3359375
 40
0.337890625
 40
0.33984375
 40
0.34375
 40
0.34765625
 40
0.3515625
 40
0.359375
 40
0.375
 40
0.390625
 40
0.40625
 40
0.421875
 40
0.4375
 40
0.453125
 40
0.4609375
 40
0.46875
 40
0.4765625
 40
0.484375
 40
0.48828125
 40
0.4921875
 40
0.494140625
 40
0.49609375
 40
0.498046875
 40
0.4990234375
 40
0.4995117188
 40
0.5
 40
0.5004882812
 40
0.5009765625
 40
0.501953125
 40
0.50390625
 40
0.505859375
 40
0.5078125
 40
0.51171875
 40
0.515625
 40
0.5234375
 40
0.53125
 40
0.5390625
 40
0.546875
 40
0.5625
 40
0.578125
 40
0.59375
 40
0.609375
 40
0.625
 40
0.640625
 40
0.6484375
 40
0.65234375
 40
0.65625
 40
0.66015625
 40
0.662109375
 40
0.6640625
 40
0.6650390625
 40
0.666015625
 40
0.6665039062
 40
0.6669921875
 40
0.66796875
 40
0.669921875
 40
0.671875
 40
0.67578125
 40
0.6796875
 40
0.6875
 40
0.6953125
 40
0.703125
 40
0.71875
 40
0.734375
 40
0.75
 40
0.765625
 40
0.78125
 40
0.796875
 40
0.8046875
 40
0.8125
 40
0.8203125
 40
0.82421875
 40
0.828125
 40
0.830078125
 40
0.83203125
 40
0.8330078125
 40
0.8334960938
 40
0.833984375
 40
0.8349609375
 40
0.8359375
 40
0.837890625
 40
0.83984375
 40
0.84375
 40
0.84765625
 40
0.8515625
 40
0.859375
 40
0.875
 40
0.890625
 40
0.90625
 40
0.921875
 40
0.9375
 40
0.96875
 40
1.0
 40
1.0
 40
1.0
 40
1.0
 10
12.2370260921
 20
6.9653775216
 30
0.0
 10
12.2363229042
 20
6.9724713223
 30
0.0
 10
12.2349165284
 20
6.9866589235
 30
0.0
 10
12.2331585586
 20
7.0043934251
 30
0.0
 10
12.2317521827
 20
7.0185810264
 30
0.0
 10
12.2306974011
 20
7.0292217274
 30
0.0
 10
12.2296426182
 20
7.0398624283
 30
0.0
 10
12.22858784
 20
7.0505031294
 30
0.0
 10
12.2277088437
 20
7.0593703797
 30
0.0
 10
12.2270935747
 20
7.0655774562
 30
0.0
 10
12.2267419479
 20
7.069124355
 30
0.0
 10
12.2264783534
 20
7.0717845348
 30
0.0
 10
12.2262582911
 20
7.0740013332
 30
0.0
 10
12.226083139
 20
7.0757748125
 30
0.0
 10
12.2259716248
 20
7.0768831448
 30
0.0
 10
12.2258870949
 20
7.0777700219
 30
0.0
 10
12.2258235821
 20
7.078323838
 30
0.0
 10
12.2257972373
 20
7.078767995
 30
0.0
 10
12.2256815763
 20
7.0792081211
 30
0.0
 10
12.2254376783
 20
7.0799764693
 30
0.0
 10
12.2251109005
 20
7.0810750864
 30
0.0
 10
12.2245759583
 20
7.0828323279
 30
0.0
 10
12.2239114228
 20
7.0850290667
 30
0.0
 10
12.2228458508
 20
7.0885437443
 30
0.0
 10
12.2215146802
 20
7.0929371271
 30
0.0
 10
12.2199169355
 20
7.0982091712
 30
0.0
 10
12.2177867279
 20
7.1052385687
 30
0.0
 10
12.2151239277
 20
7.1140253136
 30
0.0
 10
12.211928585
 20
7.1245694084
 30
0.0
 10
12.2087332373
 20
7.1351135028
 30
0.0
 10
12.205537892
 20
7.1456575978
 30
0.0
 10
12.2023425421
 20
7.1562016911
 30
0.0
 10
12.1996797641
 20
7.1649884404
 30
0.0
 10
12.1975495112
 20
7.172017829
 30
0.0
 10
12.1959519051
 20
7.1772899002
 30
0.0
 10
12.1946203006
 20
7.1816831983
 30
0.0
 10
12.1935556138
 20
7.1851980487
 30
0.0
 10
12.1928888256
 20
7.1873943476
 30
0.0
 10
12.1923585074
 20
7.189152492
 30
0.0
 10
12.1920199572
 20
7.1902488104
 30
0.0
 10
12.1917972039
 20
7.1910212874
 30
0.0
 10
12.1916476493
 20
7.1914547952
 30
0.0
 10
12.1914142111
 20
7.191858514
 30
0.0
 10
12.191151135
 20
7.1923733621
 30
0.0
 10
12.1907141623
 20
7.1931914191
 30
0.0
 10
12.1901734423
 20
7.194215942
 30
0.0
 10
12.1893052186
 20
7.1958540879
 30
0.0
 10
12.1882209928
 20
7.1979021445
 30
0.0
 10
12.1869194709
 20
7.2003596522
 30
0.0
 10
12.1851842656
 20
7.203636385
 30
0.0
 10
12.1821475831
 20
7.2093706415
 30
0.0
 10
12.1778095035
 20
7.21756245
 30
0.0
 10
12.1726037916
 20
7.2273926144
 30
0.0
 10
12.167398084
 20
7.2372227803
 30
0.0
 10
12.1621923754
 20
7.2470529459
 30
0.0
 10
12.1569866669
 20
7.2568831115
 30
0.0
 10
12.1526485768
 20
7.2650749164
 30
0.0
 10
12.1491781039
 20
7.2716283597
 30
0.0
 10
12.1465752516
 20
7.2765434437
 30
0.0
 10
12.1439723901
 20
7.281458522
 30
0.0
 10
12.1418033677
 20
7.2855544385
 30
0.0
 10
12.140068085
 20
7.2888311315
 30
0.0
 10
12.1389836807
 20
7.2908791561
 30
0.0
 10
12.1381158199
 20
7.2925173664
 30
0.0
 10
12.1374658479
 20
7.2937465972
 30
0.0
 10
12.1369212664
 20
7.2947691331
 30
0.0
 10
12.1365458255
 20
7.2954884862
 30
0.0
 10
12.1363222844
 20
7.2958939584
 30
0.0
 10
12.1361799913
 20
7.2962138002
 30
0.0
 10
12.1359407492
 20
7.2964734848
 30
0.0
 10
12.1356555765
 20
7.2968407144
 30
0.0
 10
12.1351407685
 20
7.2974735897
 30
0.0
 10
12.1344135658
 20
7.2983828085
 30
0.0
 10
12.1335373968
 20
7.2994716832
 30
0.0
 10
12.1323704029
 20
7.3009242804
 30
0.0
 10
12.1309112388
 20
7.3027397652
 30
0.0
 10
12.128576812
 20
7.3056446872
 30
0.0
 10
12.1256586976
 20
7.3092757894
 30
0.0
 10
12.122156995
 20
7.3136331336
 30
0.0
 10
12.1186552831
 20
7.317990472
 30
0.0
 10
12.1139863372
 20
7.3238002586
 30
0.0
 10
12.1081501537
 20
7.3310624912
 30
0.0
 10
12.1011467339
 20
7.3397771705
 30
0.0
 10
12.0941433142
 20
7.34849185
 30
0.0
 10
12.0871398936
 20
7.3572065286
 30
0.0
 10
12.0801364764
 20
7.3659212105
 30
0.0
 10
12.0743002851
 20
7.3731834353
 30
0.0
 10
12.0702149713
 20
7.3782670123
 30
0.0
 10
12.0678804748
 20
7.3811718828
 30
0.0
 10
12.0661296912
 20
7.3833506221
 30
0.0
 10
12.0646704222
 20
7.385165963
 30
0.0
 10
12.0635036409
 20
7.3866188528
 30
0.0
 10
12.0627729591
 20
7.3875255038
 30
0.0
 10
12.0621917196
 20
7.3882540427
 30
0.0
 10
12.0618209018
 20
7.3887020368
 30
0.0
 10
12.0615415245
 20
7.3890772501
 30
0.0
 10
12.0611990739
 20
7.3893910653
 30
0.0
 10
12.060570485
 20
7.3899117198
 30
0.0
 10
12.0596877883
 20
7.3906703934
 30
0.0
 10
12.0582669302
 20
7.3918759546
 30
0.0
 10
12.0564937828
 20
7.3933857538
 30
0.0
 10
12.0536551121
 20
7.3957998409
 30
0.0
 10
12.0501073347
 20
7.3988179958
 30
0.0
 10
12.0458497617
 20
7.402439548
 30
0.0
 10
12.0401730815
 20
7.4072683659
 30
0.0
 10
12.0330772025
 20
7.4133043602
 30
0.0
 10
12.0245621601
 20
7.4205475655
 30
0.0
 10
12.0160471142
 20
7.4277907673
 30
0.0
 10
12.0075320699
 20
7.4350339709
 30
0.0
 10
11.9990170226
 20
7.4422771707
 30
0.0
 10
11.9919211588
 20
7.448313182
 30
0.0
 10
11.9862444476
 20
7.4531419652
 30
0.0
 10
11.9819869692
 20
7.4567636233
 30
0.0
 10
11.9784388958
 20
7.4597814469
 30
0.0
 10
11.9756008289
 20
7.4621962099
 30
0.0
 10
11.9738261449
 20
7.4637042889
 30
0.0
 10
11.9724084411
 20
7.464913381
 30
0.0
 10
11.9715177136
 20
7.4656630653
 30
0.0
 10
11.970903549
 20
7.4661998656
 30
0.0
 10
11.9705379772
 20
7.4664878002
 30
0.0
 10
11.9701173278
 20
7.4667048813
 30
0.0
 10
11.9696103746
 20
7.4670004928
 30
0.0
 10
11.9687887104
 20
7.4674599134
 30
0.0
 10
11.9677652388
 20
7.4680388314
 30
0.0
 10
11.9661256673
 20
7.4689625056
 30
0.0
 10
11.9640768949
 20
7.4701179886
 30
0.0
 10
11.9616180719
 20
7.4715041872
 30
0.0
 10
11.9583397445
 20
7.4733525849
 30
0.0
 10
11.9526026234
 20
7.4765872189
 30
0.0
 10
11.9444067614
 20
7.481208157
 30
0.0
 10
11.9345717161
 20
7.4867532688
 30
0.0
 10
11.9247366737
 20
7.4922983844
 30
0.0
 10
11.9149016305
 20
7.4978434989
 30
0.0
 10
11.9017882399
 20
7.5052369854
 30
0.0
 10
11.8853965016
 20
7.5144788433
 30
0.0
 10
11.8722831109
 20
7.5218723297
 30
0.0
 10
11.8657264156
 20
7.5255690729
 30
0.0
  0
SPLINE
  5
3B1
100
AcDbEntity
  8
0
100
AcDbSpline
 62
4
  6
CONTINUOUS
 70
0
 71
3
 72
141
 73
137
 74
0
 42
0.0000001
 43
0.0000001
 44
0.0000000001
 40
0.0
 40
0.0
 40
0.0
 40
0.0
 40
0.03125
 40
0.0625
 40
0.078125
 40
0.09375
 40
0.109375
 40
0.125
 40
0.140625
 40
0.1484375
 40
0.15234375
 40
0.15625
 40
0.16015625
 40
0.162109375
 40
0.1640625
 40
0.1650390625
 40
0.166015625
 40
0.1665039062
 40
0.1669921875
 40
0.16796875
 40
0.169921875
 40
0.171875
 40
0.17578125
 40
0.1796875
 40
0.1875
 40
0.1953125
 40
0.203125
 40
0.21875
 40
0.234375
 40
0.25
 40
0.265625
 40
0.28125
 40
0.296875
 40
0.3046875
 40
0.3125
 40
0.3203125
 40
0.32421875
 40
0.328125
 40
0.330078125
 40
0.33203125
 40
0.3330078125
 40
0.3334960938
 40
0.333984375
 40
0.3349609375
 40
0.3359375
 40
0.337890625
 40
0.33984375
 40
0.34375
 40
0.34765625
 40
0.3515625
 40
0.359375
 40
0.375
 40
0.390625
 40
0.40625
 40
0.421875
 40
0.4375
 40
0.453125
 40
0.4609375
 40
0.46875
 40
0.4765625
 40
0.484375
 40
0.48828125
 40
0.4921875
 40
0.494140625
 40
0.49609375
 40
0.498046875
 40
0.4990234375
 40
0.4995117188
 40
0.5
 40
0.5004882812
 40
0.5009765625
 40
0.501953125
 40
0.50390625
 40
0.505859375
 40
0.5078125
 40
0.51171875
 40
0.515625
 40
0.5234375
 40
0.53125
 40
0.5390625
 40
0.546875
 40
0.5625
 40
0.578125
 40
0.59375
 40
0.609375
 40
0.625
 40
0.640625
 40
0.6484375
 40
0.65234375
 40
0.65625
 40
0.66015625
 40
0.662109375
 40
0.6640625
 40
0.6650390625
 40
0.666015625
 40
0.6665039062
 40
0.6669921875
 40
0.66796875
 40
0.669921875
 40
0.671875
 40
0.67578125
 40
0.6796875
 40
0.6875
 40
0.6953125
 40
0.703125
 40
0.71875
 40
0.734375
 40
0.75
 40
0.765625
 40
0.78125
 40
0.796875
 40
0.8046875
 40
0.8125
 40
0.8203125
 40
0.82421875
 40
0.828125
 40
0.830078125
 40
0.83203125
 40
0.8330078125
 40
0.8334960938
 40
0.833984375
 40
0.8349609375
 40
0.8359375
 40
0.837890625
 40
0.83984375
 40
0.84375
 40
0.84765625
 40
0.8515625
 40
0.859375
 40
0.875
 40
0.890625
 40
0.90625
 40
0.921875
 40
0.9375
 40
0.96875
 40
1.0
 40
1.0
 40
1.0
 40
1.0
 10
11.8657264006
 20
5.2065841274
 30
0.0
 10
11.8720833163
 20
5.2092604207
 30
0.0
 10
11.8847971478
 20
5.2146130073
 30
0.0
 10
11.9006894373
 20
5.2213037405
 30
0.0
 10
11.9134032687
 20
5.2266563272
 30
0.0
 10
11.9229386425
 20
5.2306707669
 30
0.0
 10
11.9324740157
 20
5.2346852077
 30
0.0
 10
11.942009391
 20
5.2386996443
 30
0.0
 10
11.9499555305
 20
5.2420450215
 30
0.0
 10
11.9555178411
 20
5.2443867591
 30
0.0
 10
11.958696284
 20
5.2457249363
 30
0.0
 10
11.9610801735
 20
5.2467284525
 30
0.0
 10
11.9630665655
 20
5.2475650877
 30
0.0
 10
11.9646560886
 20
5.2482335621
 30
0.0
 10
11.965648608
 20
5.2486532572
 30
0.0
 10
11.9664447592
 20
5.248984665
 30
0.0
 10
11.9669374808
 20
5.2492017164
 30
0.0
 10
11.9673428193
 20
5.2493526329
 30
0.0
 10
11.9677074111
 20
5.2495865105
 30
0.0
 10
11.9683265183
 20
5.250034335
 30
0.0
 10
11.9692208331
 20
5.2506539768
 30
0.0
 10
11.9706462176
 20
5.2516566407
 30
0.0
 10
11.972429838
 20
5.2529061229
 30
0.0
 10
11.9752825745
 20
5.254907445
 30
0.0
 10
11.9788488575
 20
5.2574083597
 30
0.0
 10
11.9831282419
 20
5.2604097733
 30
0.0
 10
11.9888341421
 20
5.2644115476
 30
0.0
 10
11.9959664986
 20
5.2694138035
 30
0.0
 10
12.0045253345
 20
5.2754164942
 30
0.0
 10
12.013084168
 20
5.2814191895
 30
0.0
 10
12.021643003
 20
5.2874218826
 30
0.0
 10
12.0302018345
 20
5.2934245798
 30
0.0
 10
12.0373342044
 20
5.2984268159
 30
0.0
 10
12.0430400774
 20
5.3024286305
 30
0.0
 10
12.0473195447
 20
5.3054299211
 30
0.0
 10
12.0508855686
 20
5.3079312204
 30
0.0
 10
12.0537388335
 20
5.309931758
 30
0.0
 10
12.0555211092
 20
5.3111832366
 30
0.0
 10
12.0569492539
 20
5.3121818026
 30
0.0
 10
12.0578365416
 20
5.3128118773
 30
0.0
 10
12.0584682702
 20
5.3132409631
 30
0.0
 10
12.0588126308
 20
5.3135048778
 30
0.0
 10
12.0590943541
 20
5.3138393241
 30
0.0
 10
12.0594679551
 20
5.3142332322
 30
0.0
 10
12.0600537312
 20
5.3148769812
 30
0.0
 10
12.0607900551
 20
5.3156770464
 30
0.0
 10
12.0619658798
 20
5.3169597334
 30
0.0
 10
12.0634364477
 20
5.318562206
 30
0.0
 10
12.0652007922
 20
5.3204855524
 30
0.0
 10
12.0675533692
 20
5.323049882
 30
0.0
 10
12.071670324
 20
5.3275375204
 30
0.0
 10
12.0775517168
 20
5.3339484002
 30
0.0
 10
12.0846093758
 20
5.3416414698
 30
0.0
 10
12.0916670381
 20
5.3493345356
 30
0.0
 10
12.0987246995
 20
5.3570276025
 30
0.0
 10
12.1057823611
 20
5.3647206691
 30
0.0
 10
12.111663746
 20
5.3711315578
 30
0.0
 10
12.1163688531
 20
5.3762602694
 30
0.0
 10
12.1198976859
 20
5.3801068012
 30
0.0
 10
12.1234265094
 20
5.3839533401
 30
0.0
 10
12.1263672244
 20
5.3871587671
 30
0.0
 10
12.128719732
 20
5.3897231583
 30
0.0
 10
12.1301901959
 20
5.39132579
 30
0.0
 10
12.1313662312
 20
5.3926081535
 30
0.0
 10
12.1322491771
 20
5.3935692192
 30
0.0
 10
12.1329820406
 20
5.3943723564
 30
0.0
 10
12.1335007848
 20
5.3949301386
 30
0.0
 10
12.1337882479
 20
5.3952557631
 30
0.0
 10
12.1340290917
 20
5.3954805669
 30
0.0
 10
12.1341734306
 20
5.3957795834
 30
0.0
 10
12.1343995446
 20
5.3961523858
 30
0.0
 10
12.1347795602
 20
5.3968168509
 30
0.0
 10
12.1353306393
 20
5.3977597812
 30
0.0
 10
12.1359884245
 20
5.3988939965
 30
0.0
 10
12.1368666973
 20
5.4004053409
 30
0.0
 10
12.1379641185
 20
5.4022948441
 30
0.0
 10
12.1397202271
 20
5.405317869
 30
0.0
 10
12.1419152824
 20
5.4090967119
 30
0.0
 10
12.1445493833
 20
5.4136312969
 30
0.0
 10
12.1471834749
 20
5.418165889
 30
0.0
 10
12.1506956002
 20
5.4242120093
 30
0.0
 10
12.1550857558
 20
5.4317696605
 30
0.0
 10
12.1603539429
 20
5.4408388416
 30
0.0
 10
12.1656221303
 20
5.4499080227
 30
0.0
 10
12.1708903164
 20
5.4589772043
 30
0.0
 10
12.176158507
 20
5.4680463838
 30
0.0
 10
12.1805486521
 20
5.4756040402
 30
0.0
 10
12.1836217805
 20
5.4808943862
 30
0.0
 10
12.185377812
 20
5.483917462
 30
0.0
 10
12.1866949534
 20
5.4861847099
 30
0.0
 10
12.1877921964
 20
5.4880742711
 30
0.0
 10
12.1886708314
 20
5.4895854984
 30
0.0
 10
12.189218064
 20
5.4905309757
 30
0.0
 10
12.1896602343
 20
5.4912851583
 30
0.0
 10
12.1899265873
 20
5.4917615406
 30
0.0
 10
12.190162582
 20
5.4921311525
 30
0.0
 10
12.1903149304
 20
5.4925427255
 30
0.0
 10
12.1905426828
 20
5.4932824708
 30
0.0
 10
12.1908883172
 20
5.4943290795
 30
0.0
 10
12.1914300024
 20
5.4960093372
 30
0.0
 10
12.1921109882
 20
5.4981077131
 30
0.0
 10
12.1931983973
 20
5.5014662023
 30
0.0
 10
12.1945584026
 20
5.5056639406
 30
0.0
 10
12.1961900905
 20
5.5107013863
 30
0.0
 10
12.1983657856
 20
5.5174179247
 30
0.0
 10
12.2010853663
 20
5.525813617
 30
0.0
 10
12.2043488796
 20
5.5358884394
 30
0.0
 10
12.2076123881
 20
5.5459632641
 30
0.0
 10
12.2108758991
 20
5.5560380878
 30
0.0
 10
12.2141394051
 20
5.5661129134
 30
0.0
 10
12.2168590081
 20
5.5745085961
 30
0.0
 10
12.2190346579
 20
5.5812251539
 30
0.0
 10
12.2206664842
 20
5.5862625406
 30
0.0
 10
12.2220260565
 20
5.5904604635
 30
0.0
 10
12.2231143489
 20
5.593818576
 30
0.0
 10
12.2237930866
 20
5.5959179106
 30
0.0
 10
12.2243393863
 20
5.5975962004
 30
0.0
 10
12.2246732724
 20
5.5986478191
 30
0.0
 10
12.2249221262
 20
5.5993785659
 30
0.0
 10
12.2250406505
 20
5.5998045629
 30
0.0
 10
12.2250699769
 20
5.6002623069
 30
0.0
 10
12.2251371761
 20
5.6008236168
 30
0.0
 10
12.225227627
 20
5.6017277873
 30
0.0
 10
12.2253465347
 20
5.6028559205
 30
0.0
 10
12.2255335206
 20
5.604662096
 30
0.0
 10
12.2257683737
 20
5.6069194167
 30
0.0
 10
12.2260497179
 20
5.6096283721
 30
0.0
 10
12.2264250106
 20
5.6132402531
 30
0.0
 10
12.227081695
 20
5.6195610727
 30
0.0
 10
12.2280198564
 20
5.6285908005
 30
0.0
 10
12.2291456325
 20
5.63942648
 30
0.0
 10
12.2302714133
 20
5.6502621578
 30
0.0
 10
12.2313971929
 20
5.6610978361
 30
0.0
 10
12.2328982328
 20
5.675545407
 30
0.0
 10
12.2347745324
 20
5.6936048707
 30
0.0
 10
12.2362755722
 20
5.7080524417
 30
0.0
 10
12.2370260921
 20
5.7152762271
 30
0.0
  0
ENDSEC
  0
SECTION
  2
OBJECTS
  0
DICTIONARY
  5
C
100
AcDbDictionary
280
0
281
1
  3
ACAD_GROUP
350
D
  3
ACAD_MLINESTYLE
350
17
  3
ACAD_LAYOUT
350
1A
  3
ACAD_PLOTSETTINGS
350
19
  3
ACAD_PLOTSTYLENAME
350
E
  3
ACAD_IMAGE_DICT
350
       3B3
  3
ACAD_IMAGE_VARS
350
       3B4
  3
ACAD_TABLESTYLE
350
       3B5
  0
IMAGEDEF_REACTOR
  5
3B2
100
AcDbRasterImageDefReactor
 90
2
330
296
  0
DICTIONARY
  5
D
102
{ACAD_REACTORS
330
C
102
}
100
AcDbDictionary
280
0
281
1
  0
ACDBDICTIONARYWDFLT
  5
E
102
{ACAD_REACTORS
330
C
102
}
100
AcDbDictionary
281
1
  3
Normal
350
F
100
AcDbDictionaryWithDefault
340
F
  0
DICTIONARY
  5
3B3
330
C
100
AcDbDictionary
281
1
  3
K66_assy_2_img_1
350
       3B8
  0
RASTERVARIABLES
  5
3B4
330
C
100
AcDbRasterVariables
 90
0
 70
0
 71
1
 72
5
  0
DICTIONARY
  5
17
102
{ACAD_REACTORS
330
C
102
}
100
AcDbDictionary
280
0
281
1
  3
Standard
350
18
  0
DICTIONARY
  5
3B5
330
C
100
AcDbDictionary
281
1
  3
Standard
350
       3B9
  3
Standard1
350
       3BA
  0
DICTIONARY
  5
19
102
{ACAD_REACTORS
330
C
102
}
100
AcDbDictionary
281
1
  0
DICTIONARY
  5
1A
102
{ACAD_REACTORS
330
C
102
}
100
AcDbDictionary
281
1
  3
Model
350
3B6
  3
Layout1
350
3B7
  0
ACDBPLACEHOLDER
  5
F
102
{ACAD_REACTORS
330
E
102
}
  0
MLINESTYLE
  5
18
102
{ACAD_REACTORS
330
17
102
}
100
AcDbMlineStyle
  2
STANDARD
 70
0
  3

 62
256
 51
90.0
 52
90.0
 71
2
 49
0.5
 62
256
  6
BYLAYER
 49
-0.5
 62
256
  6
BYLAYER
  0
LAYOUT
  5
3B6
102
{ACAD_REACTORS
330
1A
102
}
100
AcDbPlotSettings
  1

  2
none_device
  4
ANSI_C_(22.00_x_17.00_Inches)
  6

 40
0.0
 41
0.0
 42
0.0
 43
0.0
 44
558.8
 45
431.8
 46
0.0
 47
0.0
 48
0.0
 49
0.0
140
0.0
141
0.0
142
1.0
143
1.0
 70
1024
 72
0
 73
0
 74
0
  7

 75
0
147
1.0
148
0.0
149
0.0
100
AcDbLayout
  1
Model
 70
0
 71
0
 10
0.0
 20
0.0
 11
22.0
 21
17.0
 12
0.0
 22
0.0
 32
0.0
 14
0.0
 24
0.0
 34
0.0
 15
0.0
 25
0.0
 35
0.0
146
0.0
 13
0.0
 23
0.0
 33
0.0
 16
1.0
 26
0.0
 36
0.0
 17
0.0
 27
1.0
 37
0.0
 76
0
330
20C
345
0
346
0
  0
LAYOUT
  5
3B7
102
{ACAD_REACTORS
330
1A
102
}
100
AcDbPlotSettings
  1

  2
none_device
  4
ANSI_C_(22.00_x_17.00_Inches)
  6

 40
0.0
 41
0.0
 42
0.0
 43
0.0
 44
558.8
 45
431.8
 46
0.0
 47
0.0
 48
0.0
 49
0.0
140
0.0
141
0.0
142
1.0
143
1.0
 70
0
 72
0
 73
0
 74
0
  7

 75
0
147
1.0
148
0.0
149
0.0
100
AcDbLayout
  1
Layout1
 70
0
 71
1
 10
0.0
 20
0.0
 11
22.0
 21
17.0
 12
0.0
 22
0.0
 32
0.0
 14
0.0
 24
0.0
 34
0.0
 15
0.0
 25
0.0
 35
0.0
146
0.0
 13
0.0
 23
0.0
 33
0.0
 16
1.0
 26
0.0
 36
0.0
 17
0.0
 27
1.0
 37
0.0
 76
0
330
20D
345
0
346
0
  0
IMAGEDEF
  5
3B8
102
{ACAD_REACTORS
330
3B3
330
3B2
102
}
100
AcDbRasterImageDef
 90
0
  1
K66_assy_2_img_1.png
 10
369.0
 20
92.0
 11
0.0066666667
 21
0.0066666667
280
1
281
0
  0
TABLESTYLE
  5
3B9
102
{ACAD_REACTORS
330
3B5
330
299
330
29A
102
}
330
3B5
100
AcDbTableStyle
  3
Standard
 70
0
 71
0
 40
0.06
 41
0.06
280
1
281
1
  7
Standard
140
0.18
170
1
 62
0
 63
7
283
0
  7
Standard
140
0.18
170
1
 62
0
 63
7
283
0
  7
Standard
140
0.18
170
1
 62
0
 63
7
283
0
  0
TABLESTYLE
  5
3BA
102
{ACAD_REACTORS
330
3B5
330
298
102
}
330
3B5
100
AcDbTableStyle
  3
Standard1
 70
1
 71
0
 40
0.06
 41
0.06
280
1
281
1
  7
Standard
140
0.18
170
1
 62
0
 63
7
283
0
  7
Standard
140
0.18
170
1
 62
0
 63
7
283
0
  7
Standard
140
0.18
170
1
 62
0
 63
7
283
0
  0
ENDSEC
  0
EOF
