999
DXF file: K65_assy_2.dxf
999
Pro/ENGINEER 2014200 by Parametric Technology Corporation
  0
SECTION
  2
HEADER
  9
$ACADVER
  1
AC1021
  9
$DWGCODEPAGE
  3
ANSI_1252
  9
$EXTMAX
 10
22.0
 20
17.0
 30
0.0
  9
$EXTMIN
 10
0.0
 20
0.0
 30
0.0
  9
$LIMMIN
 10
0.0
 20
0.0
  9
$LIMMAX
 10
22.0
 20
17.0
  9
$VIEWCTR
 10
11.0
 20
8.5
  9
$VIEWSIZE
 40
17.0
  9
$CLAYER
  8
0
  9
$LTSCALE
 40
1.21
  9
$CELTYPE
  6
BYLAYER
  9
$DIMSCALE
 40
1.0
  9
$DIMASZ
 40
0.1875
  9
$DIMEXO
 40
0.0625
  9
$DIMDLI
 40
0.836
  9
$DIMEXE
 40
0.125
  9
$DIMCEN
 40
0.198
  9
$DIMLFAC
 40
1.0
  9
$DIMBLK
  1
_FILLED
  9
$DIMTXT
 40
0.1
  9
$DIMTOL
 70
0
  9
$DIMLIM
 70
0
  9
$DIMTFAC
 40
1.0
  9
$DIMGAP
 40
0.09
  9
$DIMDSEP
 70
46
  9
$AUNITS
 70
0
  9
$PDMODE
 70
3
  9
$PDSIZE
 40
0.3125
  9
$HANDSEED
  5
3EF
  9
$TILEMODE
 70
1
  9
$MEASUREMENT
 70
0
  9
$INSUNITS
 70
1
  0
ENDSEC
  0
SECTION
  2
CLASSES
  0
CLASS
  1
ACDBDICTIONARYWDFLT
  2
AcDbDictionaryWithDefault
  3
AutoCAD 2000
 90
0
 91
1
280
0
281
0
  0
CLASS
  1
ACDBPLACEHOLDER
  2
AcDbPlaceHolder
  3
AutoCAD 2000
 90
0
 91
1
280
0
281
0
  0
CLASS
  1
LAYOUT
  2
AcDbLayout
  3
AutoCAD 2000
 90
0
 91
0
280
0
281
0
  0
CLASS
  1
RASTERVARIABLES
  2
AcDbRasterVariables
  3
ISM
 90
0
 91
1
280
0
281
0
  0
CLASS
  1
IMAGEDEF
  2
AcDbRasterImageDef
  3
ISM
 90
0
 91
1
280
0
281
0
  0
CLASS
  1
IMAGEDEF_REACTOR
  2
AcDbRasterImageDefReactor
  3
ISM
 90
0
 91
1
280
0
281
0
  0
CLASS
  1
IMAGE
  2
AcDbRasterImage
  3
ISM
 90
127
 91
1
280
0
281
1
  0
CLASS
  1
TABLESTYLE
  2
AcDbTableStyle
  3
ObjectDBX Classes
 90
2047
 91
1
280
0
281
0
  0
CLASS
  1
ACAD_TABLE
  2
AcDbTable
  3
ObjectDBX Classes
 90
1025
 91
3
280
0
281
1
  0
ENDSEC
  0
SECTION
  2
TABLES
  0
TABLE
  2
VPORT
  5
8
100
AcDbSymbolTable
 70
2
  0
VPORT
  5
1F4
100
AcDbSymbolTableRecord
100
AcDbViewportTableRecord
  2
*ACTIVE
 70
0
 10
0.0
 20
0.0
 11
1.0
 21
1.0
 12
11.0
 22
8.5
 13
0.0
 23
0.0
 14
1.0
 24
1.0
 15
0.0
 25
0.0
 16
0.0
 26
0.0
 36
1.0
 17
0.0
 27
0.0
 37
0.0
 40
17.0
 41
1.2941176471
 42
50.0
 43
0.0
 44
0.0
 50
0.0
 51
0.0
 71
0
 72
100
 73
1
 74
1
 75
0
 76
0
 77
0
 78
0
  0
ENDTAB
  0
TABLE
  2
LTYPE
  5
5
100
AcDbSymbolTable
 70
6
  0
LTYPE
  5
14
100
AcDbSymbolTableRecord
100
AcDbLinetypeTableRecord
  2
BYBLOCK
 70
0
  3

 72
65
 73
0
 40
0.0
  0
LTYPE
  5
15
100
AcDbSymbolTableRecord
100
AcDbLinetypeTableRecord
  2
BYLAYER
 70
0
  3

 72
65
 73
0
 40
0.0
  0
LTYPE
  5
16
100
AcDbSymbolTableRecord
100
AcDbLinetypeTableRecord
  2
CONTINUOUS
 70
64
  3
Solid line
 72
65
 73
0
 40
0.0
  0
LTYPE
  5
1F5
100
AcDbSymbolTableRecord
100
AcDbLinetypeTableRecord
  2
CENTER
 70
64
  3
____ _ ____ _ ____ _ ____ _ ____ _ ____ _ ____
 72
65
 73
4
 40
0.6
 49
0.375
 74
0
 49
-0.075
 74
0
 49
0.075
 74
0
 49
-0.075
 74
0
  0
LTYPE
  5
1F6
100
AcDbSymbolTableRecord
100
AcDbLinetypeTableRecord
  2
HIDDEN
 70
64
  3
- - - - - - - - - - - - - - - - - - - -
 72
65
 73
2
 40
0.2
 49
0.1
 74
0
 49
-0.1
 74
0
  0
LTYPE
  5
1F7
100
AcDbSymbolTableRecord
100
AcDbLinetypeTableRecord
  2
PHANTOM
 70
64
  3
_____ _ _ _____ _ _ _____ _ _ _____
 72
65
 73
6
 40
0.8
 49
0.45
 74
0
 49
-0.05
 74
0
 49
0.1
 74
0
 49
-0.05
 74
0
 49
0.1
 74
0
 49
-0.05
 74
0
  0
LTYPE
  5
1F8
100
AcDbSymbolTableRecord
100
AcDbLinetypeTableRecord
  2
DOT
 70
64
  3
. . . . . . . . . . . . . . . . . . . .
 72
65
 73
2
 40
0.2
 49
0.1
 74
0
 49
-0.1
 74
0
  0
LTYPE
  5
1F9
100
AcDbSymbolTableRecord
100
AcDbLinetypeTableRecord
  2
DASHED
 70
64
  3
- - - - - - - - - - - - - - - - - - - -
 72
65
 73
2
 40
0.2
 49
0.1
 74
0
 49
-0.1
 74
0
  0
ENDTAB
  0
TABLE
  2
LAYER
  5
2
100
AcDbSymbolTable
 70
36
  0
LAYER
  5
10
100
AcDbSymbolTableRecord
100
AcDbLayerTableRecord
  2
0
 70
0
 62
7
  6
CONTINUOUS
370
-3
390
F
  0
LAYER
  5
1FA
100
AcDbSymbolTableRecord
100
AcDbLayerTableRecord
  2
DEFAULT_1
 70
0
 62
7
  6
CENTER
370
-3
390
F
  0
LAYER
  5
1FB
100
AcDbSymbolTableRecord
100
AcDbLayerTableRecord
  2
DEFAULT_2
 70
0
 62
8
  6
HIDDEN
370
-3
390
F
  0
LAYER
  5
1FC
100
AcDbSymbolTableRecord
100
AcDbLayerTableRecord
  2
DEFAULT_3
 70
0
 62
7
  6
PHANTOM
370
-3
390
F
  0
LAYER
  5
1FD
100
AcDbSymbolTableRecord
100
AcDbLayerTableRecord
  2
01___PRT_ALL_DTM_PLN
 70
0
 62
7
  6
CONTINUOUS
370
-3
390
F
  0
LAYER
  5
1FE
100
AcDbSymbolTableRecord
100
AcDbLayerTableRecord
  2
01___PRT_DEF_DTM_PLN
 70
0
 62
7
  6
CONTINUOUS
370
-3
390
F
  0
LAYER
  5
1FF
100
AcDbSymbolTableRecord
100
AcDbLayerTableRecord
  2
02___PRT_ALL_AXES
 70
0
 62
7
  6
CONTINUOUS
370
-3
390
F
  0
LAYER
  5
200
100
AcDbSymbolTableRecord
100
AcDbLayerTableRecord
  2
03___PRT_ALL_CURVES
 70
0
 62
7
  6
CONTINUOUS
370
-3
390
F
  0
LAYER
  5
201
100
AcDbSymbolTableRecord
100
AcDbLayerTableRecord
  2
04___PRT_ALL_DTM_PNT
 70
0
 62
7
  6
CONTINUOUS
370
-3
390
F
  0
LAYER
  5
202
100
AcDbSymbolTableRecord
100
AcDbLayerTableRecord
  2
05___PRT_ALL_DTM_CSYS
 70
0
 62
7
  6
CONTINUOUS
370
-3
390
F
  0
LAYER
  5
203
100
AcDbSymbolTableRecord
100
AcDbLayerTableRecord
  2
05___PRT_DEF_DTM_CSYS
 70
0
 62
7
  6
CONTINUOUS
370
-3
390
F
  0
LAYER
  5
204
100
AcDbSymbolTableRecord
100
AcDbLayerTableRecord
  2
06___PRT_ALL_SURFS
 70
0
 62
7
  6
CONTINUOUS
370
-3
390
F
  0
LAYER
  5
205
100
AcDbSymbolTableRecord
100
AcDbLayerTableRecord
  2
DATUM_PLANES
 70
0
 62
7
  6
CONTINUOUS
370
-3
390
F
  0
LAYER
  5
206
100
AcDbSymbolTableRecord
100
AcDbLayerTableRecord
  2
PORT_AREAS
 70
0
 62
7
  6
CONTINUOUS
370
-3
390
F
  0
LAYER
  5
207
100
AcDbSymbolTableRecord
100
AcDbLayerTableRecord
  2
SUNNBOMCOSMETIC
 70
0
 62
7
  6
CONTINUOUS
370
-3
390
F
  0
LAYER
  5
208
100
AcDbSymbolTableRecord
100
AcDbLayerTableRecord
  2
SUNNBOMSTAMPING
 70
0
 62
7
  6
CONTINUOUS
370
-3
390
F
  0
LAYER
  5
209
100
AcDbSymbolTableRecord
100
AcDbLayerTableRecord
  2
THREADS
 70
0
 62
7
  6
CONTINUOUS
370
-3
390
F
  0
ENDTAB
  0
TABLE
  2
STYLE
  5
3
100
AcDbSymbolTable
 70
1
  0
STYLE
  5
11
100
AcDbSymbolTableRecord
100
AcDbTextStyleTableRecord
  2
STANDARD
 70
0
 40
0.0
 41
0.8
 50
0.0
 71
0
 42
0.2
  3
txt
  4

  0
STYLE
  5
20A
100
AcDbSymbolTableRecord
100
AcDbTextStyleTableRecord
  2
TEXTSTYLE_1
 70
0
 40
0.0
 41
0.8
 50
0.0
 71
0
 42
0.2
  3
gdt
  4

  0
ENDTAB
  0
TABLE
  2
VIEW
  5
6
100
AcDbSymbolTable
 70
0
  0
ENDTAB
  0
TABLE
  2
UCS
  5
7
100
AcDbSymbolTable
 70
0
  0
ENDTAB
  0
TABLE
  2
APPID
  5
9
100
AcDbSymbolTable
 70
1
  0
APPID
  5
20B
100
AcDbSymbolTableRecord
100
AcDbRegAppTableRecord
  2
ACAD
 70
0
  0
ENDTAB
  0
TABLE
  2
BLOCK_RECORD
  5
1
100
AcDbSymbolTable
 70
0
  0
BLOCK_RECORD
  5
20C
100
AcDbSymbolTableRecord
100
AcDbBlockTableRecord
  2
*Model_Space
  0
BLOCK_RECORD
  5
20D
100
AcDbSymbolTableRecord
100
AcDbBlockTableRecord
  2
*Paper_Space
  0
BLOCK_RECORD
  5
20E
100
AcDbSymbolTableRecord
100
AcDbBlockTableRecord
  2
SUN_FIRST_THIRD_ANGLE_BL0
  0
BLOCK_RECORD
  5
20F
100
AcDbSymbolTableRecord
100
AcDbBlockTableRecord
  2
*T1
  0
BLOCK_RECORD
  5
210
100
AcDbSymbolTableRecord
100
AcDbBlockTableRecord
  2
*T2
  0
BLOCK_RECORD
  5
211
100
AcDbSymbolTableRecord
100
AcDbBlockTableRecord
  2
*T3
  0
ENDTAB
  0
TABLE
  2
DIMSTYLE
  5
A
100
AcDbSymbolTable
 70
1
100
AcDbDimStyleTable
 71
0
  0
DIMSTYLE
105
212
100
AcDbSymbolTableRecord
100
AcDbDimStyleTableRecord
  2
STANDARD
 70
0
  3

  4

 40
1.0
 41
0.1875
 42
0.0625
 43
0.38
 44
0.125
 45
0.0
 46
0.0
 47
0.001
 48
0.001
140
0.1
141
0.09
142
0.0
143
25.4
144
1.0
145
0.0
146
1.0
147
0.09
 71
0.0
 72
0.0
 73
1
 74
1
 75
0
 76
0
 77
0
 78
4
170
0
171
2
172
0
173
0
174
0
175
0
176
0
177
0
178
0
270
2
271
3
272
3
273
2
274
2
275
0
280
0
281
0
282
0
283
1
284
4
285
0
286
0
287
3
288
0
340
11
278
46
  0
ENDTAB
  0
ENDSEC
  0
SECTION
  2
BLOCKS
  0
BLOCK
  5
20
100
AcDbEntity
  8
0
100
AcDbBlockBegin
  2
*Model_Space
 70
0
 10
0.0
 20
0.0
 30
0.0
  3
*Model_Space
  1

  0
ENDBLK
  5
21
100
AcDbEntity
  8
0
100
AcDbBlockEnd
  0
BLOCK
  5
1C
100
AcDbEntity
  8
0
100
AcDbBlockBegin
  2
*Paper_Space
 70
0
 10
0.0
 20
0.0
 30
0.0
  3
*Paper_Space
  1

  0
ENDBLK
  5
1D
100
AcDbEntity
  8
0
100
AcDbBlockEnd
  0
BLOCK
  5
213
100
AcDbEntity
  8
0
100
AcDbBlockBegin
 62
2
  6
CONTINUOUS
  2
SUN_FIRST_THIRD_ANGLE_BL0
 70
64
 10
20.4816717061
 20
1.2289683772
  3
SUN_FIRST_THIRD_ANGLE_BL0
  1

  0
TEXT
  5
214
100
AcDbEntity
  8
0
100
AcDbText
 62
2
  6
CONTINUOUS
 10
19.4750896608
 20
1.4136269581
  7
STANDARD
 40
0.08
  1
FIRST ANGLE
 41
0.8
 72
0
100
AcDbText
  0
TEXT
  5
215
100
AcDbEntity
  8
0
100
AcDbText
 62
2
  6
CONTINUOUS
 10
20.7842537513
 20
1.4047600029
  7
STANDARD
 40
0.08
  1
THIRD ANGLE
 41
0.8
 72
0
100
AcDbText
  0
LINE
  5
216
100
AcDbEntity
  8
0
100
AcDbLine
 62
7
  6
CONTINUOUS
 10
19.4767170086
 20
1.1727031207
 11
19.6334271527
 21
1.1717972817
  0
LINE
  5
217
100
AcDbEntity
  8
0
100
AcDbLine
 62
7
  6
CONTINUOUS
 10
19.6596964832
 20
1.1717972817
 11
19.6950230232
 21
1.171593082
  0
LINE
  5
218
100
AcDbEntity
  8
0
100
AcDbLine
 62
7
  6
CONTINUOUS
 10
19.7194818561
 20
1.1708914427
 11
19.8852396156
 21
1.1699333054
  0
LINE
  5
219
100
AcDbEntity
  8
0
100
AcDbLine
 62
7
  6
CONTINUOUS
 10
19.4758111696
 20
1.2723454088
 11
19.88525039
 21
1.3511534004
  0
LINE
  5
21A
100
AcDbEntity
  8
0
100
AcDbLine
 62
7
  6
CONTINUOUS
 10
19.88525039
 20
1.3511534004
 11
19.8831348489
 21
0.9851647912
  0
LINE
  5
21B
100
AcDbEntity
  8
0
100
AcDbLine
 62
7
  6
CONTINUOUS
 10
19.8831348489
 20
0.9851647912
 11
19.4767170086
 21
1.0658141206
  0
LINE
  5
21C
100
AcDbEntity
  8
0
100
AcDbLine
 62
7
  6
CONTINUOUS
 10
19.4767170086
 20
1.0658141206
 11
19.4779056764
 21
1.2714536432
  0
CIRCLE
  5
21D
100
AcDbEntity
  8
0
100
AcDbCircle
 62
7
  6
CONTINUOUS
 10
20.2068232291
 20
1.1717972817
 40
0.175742101
  0
CIRCLE
  5
21E
100
AcDbEntity
  8
0
100
AcDbCircle
 62
7
  6
CONTINUOUS
 10
20.2068232291
 20
1.1717972817
 40
0.1005522074
  0
LINE
  5
21F
100
AcDbEntity
  8
0
100
AcDbLine
 62
7
  6
CONTINUOUS
 10
20.2077290681
 20
1.3756110529
 11
20.2071171714
 21
1.2379342989
  0
LINE
  5
220
100
AcDbEntity
  8
0
100
AcDbLine
 62
7
  6
CONTINUOUS
 10
20.2077290681
 20
1.2016899681
 11
20.2074674401
 21
1.1428236749
  0
LINE
  5
221
100
AcDbEntity
  8
0
100
AcDbLine
 62
7
  6
CONTINUOUS
 10
20.208634907
 20
1.101141841
 11
20.2080230104
 21
0.963465087
  0
LINE
  5
222
100
AcDbEntity
  8
0
100
AcDbLine
 62
7
  6
CONTINUOUS
 10
20.0066328138
 20
1.1745147986
 11
20.1443095678
 21
1.1739029019
  0
LINE
  5
223
100
AcDbEntity
  8
0
100
AcDbLine
 62
7
  6
CONTINUOUS
 10
20.1832714155
 20
1.1727031207
 11
20.238153505
 21
1.172335442
  0
LINE
  5
224
100
AcDbEntity
  8
0
100
AcDbLine
 62
7
  6
CONTINUOUS
 10
20.2756669918
 20
1.1717972817
 11
20.407916871
 21
1.1712095044
  0
CIRCLE
  5
225
100
AcDbEntity
  8
0
100
AcDbCircle
 62
7
  6
CONTINUOUS
 10
20.7509457401
 20
1.1693297793
 40
0.1722024983
  0
CIRCLE
  5
226
100
AcDbEntity
  8
0
100
AcDbCircle
 62
7
  6
CONTINUOUS
 10
20.7509457401
 20
1.1693297793
 40
0.0985164967
  0
LINE
  5
227
100
AcDbEntity
  8
0
100
AcDbLine
 62
7
  6
CONTINUOUS
 10
20.7169767782
 20
1.170462078
 11
20.7825395137
 21
1.1682766535
  0
LINE
  5
228
100
AcDbEntity
  8
0
100
AcDbLine
 62
7
  6
CONTINUOUS
 10
20.8177513651
 20
1.1693297793
 11
20.947965719
 21
1.1693297793
  0
LINE
  5
229
100
AcDbEntity
  8
0
100
AcDbLine
 62
7
  6
CONTINUOUS
 10
20.6875370113
 20
1.170462078
 11
20.5573226574
 21
1.170462078
  0
LINE
  5
22A
100
AcDbEntity
  8
0
100
AcDbLine
 62
7
  6
CONTINUOUS
 10
20.7486811426
 20
1.1987695462
 11
20.7486811426
 21
1.1432869085
  0
LINE
  5
22B
100
AcDbEntity
  8
0
100
AcDbLine
 62
7
  6
CONTINUOUS
 10
20.7498134414
 20
1.1059210505
 11
20.7498134414
 21
0.9757066966
  0
LINE
  5
22C
100
AcDbEntity
  8
0
100
AcDbLine
 62
7
  6
CONTINUOUS
 10
20.7486811426
 20
1.2338708068
 11
20.7486811426
 21
1.3640851607
  0
LINE
  5
22D
100
AcDbEntity
  8
0
100
AcDbLine
 62
7
  6
CONTINUOUS
 10
21.0702539817
 20
1.2701043662
 11
21.4790138229
 21
1.3448360823
  0
LINE
  5
22E
100
AcDbEntity
  8
0
100
AcDbLine
 62
7
  6
CONTINUOUS
 10
21.4790138229
 20
1.3448360823
 11
21.4790138229
 21
0.9779712941
  0
LINE
  5
22F
100
AcDbEntity
  8
0
100
AcDbLine
 62
7
  6
CONTINUOUS
 10
21.4790138229
 20
0.9779712941
 11
21.069121683
 21
1.0617614
  0
LINE
  5
230
100
AcDbEntity
  8
0
100
AcDbLine
 62
7
  6
CONTINUOUS
 10
21.0702539817
 20
1.2701043662
 11
21.069121683
 21
1.0617614
  0
LINE
  5
231
100
AcDbEntity
  8
0
100
AcDbLine
 62
7
  6
CONTINUOUS
 10
21.4790138229
 20
1.1693297793
 11
21.3159628059
 21
1.1693297793
  0
LINE
  5
232
100
AcDbEntity
  8
0
100
AcDbLine
 62
7
  6
CONTINUOUS
 10
21.2876553377
 20
1.1693297793
 11
21.2502894796
 21
1.1693297793
  0
LINE
  5
233
100
AcDbEntity
  8
0
100
AcDbLine
 62
7
  6
CONTINUOUS
 10
21.2208497126
 20
1.1659328831
 11
21.0713862804
 21
1.1659328831
  0
LINE
  5
234
100
AcDbEntity
  8
0
100
AcDbLine
 62
7
  6
CONTINUOUS
 10
20.4796138713
 20
1.5284908897
 11
20.4766766948
 21
0.9294458646
  0
ENDBLK
  5
235
100
AcDbEntity
  8
0
  6
BYBLOCK
 62
0
100
AcDbBlockEnd
  0
BLOCK
  5
236
100
AcDbEntity
  8
0
100
AcDbBlockBegin
  2
*T1
 70
1
 10
0.0
 20
0.0
  3
*T1
  1

  0
LINE
  5
237
100
AcDbEntity
  8
0
100
AcDbLine
 62
2
  6
CONTINUOUS
 10
9.275
 20
0.0
 11
-0.0
 21
0.0
  0
LINE
  5
238
100
AcDbEntity
  8
0
100
AcDbLine
 62
2
  6
CONTINUOUS
 10
9.275
 20
0.0
 11
9.275
 21
1.25
  0
LINE
  5
239
100
AcDbEntity
  8
0
100
AcDbLine
 62
2
  6
CONTINUOUS
 10
9.275
 20
0.625
 11
-0.0
 21
0.625
  0
LINE
  5
23A
100
AcDbEntity
  8
0
100
AcDbLine
 62
2
  6
CONTINUOUS
 10
9.275
 20
1.25
 11
-0.0
 21
1.25
  0
LINE
  5
23B
100
AcDbEntity
  8
0
100
AcDbLine
 62
2
  6
CONTINUOUS
 10
6.8
 20
0.0
 11
6.8
 21
1.25
  0
LINE
  5
23C
100
AcDbEntity
  8
0
100
AcDbLine
 62
2
  6
CONTINUOUS
 10
6.4
 20
0.0
 11
6.4
 21
0.625
  0
LINE
  5
23D
100
AcDbEntity
  8
0
100
AcDbLine
 62
2
  6
CONTINUOUS
 10
5.9
 20
0.0
 11
5.9
 21
0.625
  0
LINE
  5
23E
100
AcDbEntity
  8
0
100
AcDbLine
 62
2
  6
CONTINUOUS
 10
5.2
 20
0.0
 11
5.2
 21
0.625
  0
LINE
  5
23F
100
AcDbEntity
  8
0
100
AcDbLine
 62
2
  6
CONTINUOUS
 10
4.1
 20
0.0
 11
4.1
 21
1.25
  0
LINE
  5
240
100
AcDbEntity
  8
0
100
AcDbLine
 62
2
  6
CONTINUOUS
 10
-0.0
 20
0.0
 11
-0.0
 21
1.25
  0
MTEXT
  5
241
100
AcDbEntity
  8
0
100
AcDbMText
 62
2
  6
CONTINUOUS
  7
STANDARD
 71
2
 72
1
 10
6.6
 20
0.325
 30
0.0
 11
1.0
 21
0.0
 31
0.0
 44
0.9
  1
2
 40
0.125
 41
0.2
  0
MTEXT
  5
242
100
AcDbEntity
  8
0
100
AcDbMText
 62
2
  6
CONTINUOUS
  7
STANDARD
 71
2
 72
1
 10
6.15
 20
0.325
 30
0.0
 11
1.0
 21
0.0
 31
0.0
 44
0.9
  1
C
 40
0.125
 41
0.2
  0
MTEXT
  5
243
100
AcDbEntity
  8
0
100
AcDbMText
 62
2
  6
CONTINUOUS
  7
STANDARD
 71
2
 72
1
 10
5.55
 20
0.325
 30
0.0
 11
1.0
 21
0.0
 31
0.0
 44
0.9
  1
1.000
 40
0.125
 41
1.0
  0
MTEXT
  5
244
100
AcDbEntity
  8
0
100
AcDbMText
 62
2
  6
CONTINUOUS
  7
STANDARD
 71
2
 72
1
 10
4.65
 20
0.325
 30
0.0
 11
1.0
 21
0.0
 31
0.0
 44
0.9
  1
Oct-17-22
 40
0.125
 41
1.8
  0
MTEXT
  5
245
100
AcDbEntity
  8
0
100
AcDbMText
 62
2
  6
CONTINUOUS
  7
STANDARD
 71
2
 72
1
 10
2.05
 20
0.4625
 30
0.0
 11
1.0
 21
0.0
 31
0.0
 44
0.9
  1
T-19A Line mount\PNinety degree with reverse flow check
 40
0.125
 41
7.4
  0
MTEXT
  5
246
100
AcDbEntity
  8
0
100
AcDbMText
 62
2
  6
CONTINUOUS
  7
STANDARD
 71
1
 72
1
 10
6.45
 20
0.5625
 30
0.0
 11
1.0
 21
0.0
 31
0.0
 44
0.9
  1
SHEET
 40
0.06
 41
0.48
  0
MTEXT
  5
247
100
AcDbEntity
  8
0
100
AcDbMText
 62
2
  6
CONTINUOUS
  7
STANDARD
 71
1
 72
1
 10
5.95
 20
0.5625
 30
0.0
 11
1.0
 21
0.0
 31
0.0
 44
0.9
  1
DWG SIZE
 40
0.06
 41
0.768
  0
MTEXT
  5
248
100
AcDbEntity
  8
0
100
AcDbMText
 62
2
  6
CONTINUOUS
  7
STANDARD
 71
1
 72
1
 10
5.25
 20
0.5625
 30
0.0
 11
1.0
 21
0.0
 31
0.0
 44
0.9
  1
SCALE
 40
0.06
 41
0.48
  0
MTEXT
  5
249
100
AcDbEntity
  8
0
100
AcDbMText
 62
2
  6
CONTINUOUS
  7
STANDARD
 71
1
 72
1
 10
4.15
 20
0.5625
 30
0.0
 11
1.0
 21
0.0
 31
0.0
 44
0.9
  1
DATE
 40
0.06
 41
0.384
  0
MTEXT
  5
24A
100
AcDbEntity
  8
0
100
AcDbMText
 62
2
  6
CONTINUOUS
  7
STANDARD
 71
1
 72
1
 10
0.05
 20
0.5625
 30
0.0
 11
1.0
 21
0.0
 31
0.0
 44
0.9
  1
DESCRIPTION
 40
0.06
 41
1.056
  0
MTEXT
  5
24B
100
AcDbEntity
  8
0
100
AcDbMText
 62
2
  6
CONTINUOUS
  7
STANDARD
 71
2
 72
1
 10
5.45
 20
1.0375
 30
0.0
 11
1.0
 21
0.0
 31
0.0
 44
0.9
  1
ALL DIMENSIONS IN INCH\PVIEWS ARE THIRD ANGLE
 40
0.12
 41
4.224
  0
MTEXT
  5
24C
100
AcDbEntity
  8
0
100
AcDbMText
 62
2
  6
CONTINUOUS
  7
STANDARD
 71
2
 72
1
 10
2.05
 20
0.95
 30
0.0
 11
1.0
 21
0.0
 31
0.0
 44
0.9
  1
K65
 40
0.125
 41
0.6
  0
MTEXT
  5
24D
100
AcDbEntity
  8
0
100
AcDbMText
 62
2
  6
CONTINUOUS
  7
STANDARD
 71
1
 72
1
 10
0.05
 20
1.1875
 30
0.0
 11
1.0
 21
0.0
 31
0.0
 44
0.9
  1
MODEL
 40
0.06
 41
0.48
  0
ENDBLK
  5
24E
100
AcDbEntity
  8
0
  6
BYBLOCK
 62
0
100
AcDbBlockEnd
  0
BLOCK
  5
24F
100
AcDbEntity
  8
0
100
AcDbBlockBegin
  2
*T2
 70
1
 10
0.0
 20
0.0
  3
*T2
  1

  0
LINE
  5
250
100
AcDbEntity
  8
0
100
AcDbLine
 62
2
  6
CONTINUOUS
 10
0.0
 20
0.0
 11
9.055
 21
0.0
  0
LINE
  5
251
100
AcDbEntity
  8
0
100
AcDbLine
 62
2
  6
CONTINUOUS
 10
0.0
 20
0.0
 11
0.0
 21
-3.094
  0
LINE
  5
252
100
AcDbEntity
  8
0
100
AcDbLine
 62
2
  6
CONTINUOUS
 10
0.0
 20
-0.344
 11
9.055
 21
-0.344
  0
LINE
  5
253
100
AcDbEntity
  8
0
100
AcDbLine
 62
2
  6
CONTINUOUS
 10
0.0
 20
-0.594
 11
9.055
 21
-0.594
  0
LINE
  5
254
100
AcDbEntity
  8
0
100
AcDbLine
 62
2
  6
CONTINUOUS
 10
0.0
 20
-0.844
 11
9.055
 21
-0.844
  0
LINE
  5
255
100
AcDbEntity
  8
0
100
AcDbLine
 62
2
  6
CONTINUOUS
 10
0.0
 20
-1.094
 11
9.055
 21
-1.094
  0
LINE
  5
256
100
AcDbEntity
  8
0
100
AcDbLine
 62
2
  6
CONTINUOUS
 10
0.0
 20
-1.344
 11
9.055
 21
-1.344
  0
LINE
  5
257
100
AcDbEntity
  8
0
100
AcDbLine
 62
2
  6
CONTINUOUS
 10
0.0
 20
-1.594
 11
9.055
 21
-1.594
  0
LINE
  5
258
100
AcDbEntity
  8
0
100
AcDbLine
 62
2
  6
CONTINUOUS
 10
0.0
 20
-1.844
 11
9.055
 21
-1.844
  0
LINE
  5
259
100
AcDbEntity
  8
0
100
AcDbLine
 62
2
  6
CONTINUOUS
 10
0.0
 20
-2.094
 11
9.055
 21
-2.094
  0
LINE
  5
25A
100
AcDbEntity
  8
0
100
AcDbLine
 62
2
  6
CONTINUOUS
 10
0.0
 20
-2.344
 11
9.055
 21
-2.344
  0
LINE
  5
25B
100
AcDbEntity
  8
0
100
AcDbLine
 62
2
  6
CONTINUOUS
 10
0.0
 20
-2.594
 11
9.055
 21
-2.594
  0
LINE
  5
25C
100
AcDbEntity
  8
0
100
AcDbLine
 62
2
  6
CONTINUOUS
 10
0.0
 20
-2.844
 11
9.055
 21
-2.844
  0
LINE
  5
25D
100
AcDbEntity
  8
0
100
AcDbLine
 62
2
  6
CONTINUOUS
 10
0.0
 20
-3.094
 11
9.055
 21
-3.094
  0
LINE
  5
25E
100
AcDbEntity
  8
0
100
AcDbLine
 62
2
  6
CONTINUOUS
 10
3.055
 20
0.0
 11
3.055
 21
-3.094
  0
LINE
  5
25F
100
AcDbEntity
  8
0
100
AcDbLine
 62
2
  6
CONTINUOUS
 10
9.055
 20
0.0
 11
9.055
 21
-3.094
  0
MTEXT
  5
260
100
AcDbEntity
  8
0
100
AcDbMText
 62
2
  6
CONTINUOUS
  7
STANDARD
 71
2
 72
1
 10
1.5275
 20
-0.0995
 30
0.0
 11
1.0
 21
0.0
 31
0.0
 44
0.9
  1
Technical Data
 40
0.145
 41
3.248
  0
MTEXT
  5
261
100
AcDbEntity
  8
0
100
AcDbMText
 62
2
  6
CONTINUOUS
  7
STANDARD
 71
2
 72
1
 10
4.555
 20
-0.0995
 30
0.0
 11
1.0
 21
0.0
 31
0.0
 44
0.9
  1
U.S. Units
 40
0.145
 41
2.32
  0
MTEXT
  5
262
100
AcDbEntity
  8
0
100
AcDbMText
 62
2
  6
CONTINUOUS
  7
STANDARD
 71
2
 72
1
 10
7.555
 20
-0.0995
 30
0.0
 11
1.0
 21
0.0
 31
0.0
 44
0.9
  1
Metric Units
 40
0.145
 41
2.784
  0
MTEXT
  5
263
100
AcDbEntity
  8
0
100
AcDbMText
 62
2
  6
CONTINUOUS
  7
STANDARD
 71
2
 72
1
 10
1.5275
 20
-0.4065
 30
0.0
 11
1.0
 21
0.0
 31
0.0
 44
0.9
  1
Cavity
 40
0.125
 41
1.2
  0
MTEXT
  5
264
100
AcDbEntity
  8
0
100
AcDbMText
 62
2
  6
CONTINUOUS
  7
STANDARD
 71
2
 72
1
 10
6.055
 20
-0.4065
 30
0.0
 11
1.0
 21
0.0
 31
0.0
 44
0.9
  1
T-19A
 40
0.125
 41
1.0
  0
MTEXT
  5
265
100
AcDbEntity
  8
0
100
AcDbMText
 62
2
  6
CONTINUOUS
  7
STANDARD
 71
2
 72
1
 10
1.5275
 20
-0.6565
 30
0.0
 11
1.0
 21
0.0
 31
0.0
 44
0.9
  1
Body Features
 40
0.125
 41
2.6
  0
MTEXT
  5
266
100
AcDbEntity
  8
0
100
AcDbMText
 62
2
  6
CONTINUOUS
  7
STANDARD
 71
2
 72
1
 10
6.055
 20
-0.6565
 30
0.0
 11
1.0
 21
0.0
 31
0.0
 44
0.9
  1
Ninety degree with reverse flow check
 40
0.125
 41
7.4
  0
MTEXT
  5
267
100
AcDbEntity
  8
0
100
AcDbMText
 62
2
  6
CONTINUOUS
  7
STANDARD
 71
2
 72
1
 10
1.5275
 20
-0.9065
 30
0.0
 11
1.0
 21
0.0
 31
0.0
 44
0.9
  1
Body Type
 40
0.125
 41
1.8
  0
MTEXT
  5
268
100
AcDbEntity
  8
0
100
AcDbMText
 62
2
  6
CONTINUOUS
  7
STANDARD
 71
2
 72
1
 10
6.055
 20
-0.9065
 30
0.0
 11
1.0
 21
0.0
 31
0.0
 44
0.9
  1
Line mount
 40
0.125
 41
2.0
  0
MTEXT
  5
269
100
AcDbEntity
  8
0
100
AcDbMText
 62
2
  6
CONTINUOUS
  7
STANDARD
 71
2
 72
1
 10
1.5275
 20
-1.1565
 30
0.0
 11
1.0
 21
0.0
 31
0.0
 44
0.9
  1
Interface
 40
0.125
 41
1.8
  0
MTEXT
  5
26A
100
AcDbEntity
  8
0
100
AcDbMText
 62
2
  6
CONTINUOUS
  7
STANDARD
 71
2
 72
1
 10
6.055
 20
-1.1565
 30
0.0
 11
1.0
 21
0.0
 31
0.0
 44
0.9
  1
None
 40
0.125
 41
0.8
  0
MTEXT
  5
26B
100
AcDbEntity
  8
0
100
AcDbMText
 62
2
  6
CONTINUOUS
  7
STANDARD
 71
2
 72
1
 10
1.5275
 20
-1.4065
 30
0.0
 11
1.0
 21
0.0
 31
0.0
 44
0.9
  1
Open Cavity Quantity
 40
0.125
 41
4.0
  0
MTEXT
  5
26C
100
AcDbEntity
  8
0
100
AcDbMText
 62
2
  6
CONTINUOUS
  7
STANDARD
 71
2
 72
1
 10
6.055
 20
-1.4065
 30
0.0
 11
1.0
 21
0.0
 31
0.0
 44
0.9
  1
1
 40
0.125
 41
0.2
  0
MTEXT
  5
26D
100
AcDbEntity
  8
0
100
AcDbMText
 62
2
  6
CONTINUOUS
  7
STANDARD
 71
2
 72
1
 10
1.5275
 20
-1.6565
 30
0.0
 11
1.0
 21
0.0
 31
0.0
 44
0.9
  1
Weight
 40
0.125
 41
1.2
  0
MTEXT
  5
26E
100
AcDbEntity
  8
0
100
AcDbMText
 62
2
  6
CONTINUOUS
  7
STANDARD
 71
2
 72
1
 10
4.555
 20
-1.6565
 30
0.0
 11
1.0
 21
0.0
 31
0.0
 44
0.9
  1
12.482 lb.
 40
0.125
 41
2.0
  0
MTEXT
  5
26F
100
AcDbEntity
  8
0
100
AcDbMText
 62
2
  6
CONTINUOUS
  7
STANDARD
 71
2
 72
1
 10
7.555
 20
-1.6565
 30
0.0
 11
1.0
 21
0.0
 31
0.0
 44
0.9
  1
5,662 kg.
 40
0.125
 41
1.8
  0
MTEXT
  5
270
100
AcDbEntity
  8
0
100
AcDbMText
 62
2
  6
CONTINUOUS
  7
STANDARD
 71
2
 72
1
 10
1.5275
 20
-1.9065
 30
0.0
 11
1.0
 21
0.0
 31
0.0
 44
0.9
  1
Check Cracking Pressure
 40
0.125
 41
4.6
  0
MTEXT
  5
271
100
AcDbEntity
  8
0
100
AcDbMText
 62
2
  6
CONTINUOUS
  7
STANDARD
 71
2
 72
1
 10
4.555
 20
-1.9065
 30
0.0
 11
1.0
 21
0.0
 31
0.0
 44
0.9
  1
30 psi
 40
0.125
 41
1.2
  0
MTEXT
  5
272
100
AcDbEntity
  8
0
100
AcDbMText
 62
2
  6
CONTINUOUS
  7
STANDARD
 71
2
 72
1
 10
7.555
 20
-1.9065
 30
0.0
 11
1.0
 21
0.0
 31
0.0
 44
0.9
  1
2 bar
 40
0.125
 41
1.0
  0
MTEXT
  5
273
100
AcDbEntity
  8
0
100
AcDbMText
 62
2
  6
CONTINUOUS
  7
STANDARD
 71
2
 72
1
 10
1.5275
 20
-2.1565
 30
0.0
 11
1.0
 21
0.0
 31
0.0
 44
0.9
  1
Mounting Hole Thread
 40
0.125
 41
4.0
  0
MTEXT
  5
274
100
AcDbEntity
  8
0
100
AcDbMText
 62
2
  6
CONTINUOUS
  7
STANDARD
 71
2
 72
1
 10
4.555
 20
-2.1565
 30
0.0
 11
1.0
 21
0.0
 31
0.0
 44
0.9
  1
.375-16 UNC - 2B in.
 40
0.125
 41
4.0
  0
MTEXT
  5
275
100
AcDbEntity
  8
0
100
AcDbMText
 62
2
  6
CONTINUOUS
  7
STANDARD
 71
2
 72
1
 10
1.5275
 20
-2.4065
 30
0.0
 11
1.0
 21
0.0
 31
0.0
 44
0.9
  1
Mounting Hole Depth
 40
0.125
 41
3.8
  0
MTEXT
  5
276
100
AcDbEntity
  8
0
100
AcDbMText
 62
2
  6
CONTINUOUS
  7
STANDARD
 71
2
 72
1
 10
4.555
 20
-2.4065
 30
0.0
 11
1.0
 21
0.0
 31
0.0
 44
0.9
  1
.62 in.
 40
0.125
 41
1.4
  0
MTEXT
  5
277
100
AcDbEntity
  8
0
100
AcDbMText
 62
2
  6
CONTINUOUS
  7
STANDARD
 71
2
 72
1
 10
7.555
 20
-2.4065
 30
0.0
 11
1.0
 21
0.0
 31
0.0
 44
0.9
  1
15,7 mm
 40
0.125
 41
1.4
  0
MTEXT
  5
278
100
AcDbEntity
  8
0
100
AcDbMText
 62
2
  6
CONTINUOUS
  7
STANDARD
 71
2
 72
1
 10
1.5275
 20
-2.6565
 30
0.0
 11
1.0
 21
0.0
 31
0.0
 44
0.9
  1
Mounting Hole Quantity
 40
0.125
 41
4.4
  0
MTEXT
  5
279
100
AcDbEntity
  8
0
100
AcDbMText
 62
2
  6
CONTINUOUS
  7
STANDARD
 71
2
 72
1
 10
6.055
 20
-2.6565
 30
0.0
 11
1.0
 21
0.0
 31
0.0
 44
0.9
  1
2
 40
0.125
 41
0.2
  0
MTEXT
  5
27A
100
AcDbEntity
  8
0
100
AcDbMText
 62
2
  6
CONTINUOUS
  7
STANDARD
 71
2
 72
1
 10
1.5275
 20
-2.9065
 30
0.0
 11
1.0
 21
0.0
 31
0.0
 44
0.9
  1
Includes integral cartridge(s)
 40
0.125
 41
6.0
  0
MTEXT
  5
27B
100
AcDbEntity
  8
0
100
AcDbMText
 62
2
  6
CONTINUOUS
  7
STANDARD
 71
2
 72
1
 10
6.055
 20
-2.9065
 30
0.0
 11
1.0
 21
0.0
 31
0.0
 44
0.9
  1
Yes (see Included Components)
 40
0.125
 41
5.8
  0
ENDBLK
  5
27C
100
AcDbEntity
  8
0
  6
BYBLOCK
 62
0
100
AcDbBlockEnd
  0
BLOCK
  5
27D
100
AcDbEntity
  8
0
100
AcDbBlockBegin
  2
*T3
 70
1
 10
0.0
 20
0.0
  3
*T3
  1

  0
LINE
  5
27E
100
AcDbEntity
  8
0
100
AcDbLine
 62
2
  6
CONTINUOUS
 10
0.0
 20
0.0
 11
4.6
 21
0.0
  0
LINE
  5
27F
100
AcDbEntity
  8
0
100
AcDbLine
 62
2
  6
CONTINUOUS
 10
0.0
 20
0.0
 11
0.0
 21
-1.43775
  0
LINE
  5
280
100
AcDbEntity
  8
0
100
AcDbLine
 62
2
  6
CONTINUOUS
 10
0.0
 20
-0.34375
 11
4.6
 21
-0.34375
  0
LINE
  5
281
100
AcDbEntity
  8
0
100
AcDbLine
 62
2
  6
CONTINUOUS
 10
0.0
 20
-0.68775
 11
4.6
 21
-0.68775
  0
LINE
  5
282
100
AcDbEntity
  8
0
100
AcDbLine
 62
2
  6
CONTINUOUS
 10
0.0
 20
-0.93775
 11
4.6
 21
-0.93775
  0
LINE
  5
283
100
AcDbEntity
  8
0
100
AcDbLine
 62
2
  6
CONTINUOUS
 10
0.0
 20
-1.18775
 11
4.6
 21
-1.18775
  0
LINE
  5
284
100
AcDbEntity
  8
0
100
AcDbLine
 62
2
  6
CONTINUOUS
 10
0.0
 20
-1.43775
 11
4.6
 21
-1.43775
  0
LINE
  5
285
100
AcDbEntity
  8
0
100
AcDbLine
 62
2
  6
CONTINUOUS
 10
1.3
 20
-0.34375
 11
1.3
 21
-1.43775
  0
LINE
  5
286
100
AcDbEntity
  8
0
100
AcDbLine
 62
2
  6
CONTINUOUS
 10
3.3
 20
-0.34375
 11
3.3
 21
-1.43775
  0
LINE
  5
287
100
AcDbEntity
  8
0
100
AcDbLine
 62
2
  6
CONTINUOUS
 10
4.6
 20
0.0
 11
4.6
 21
-1.43775
  0
MTEXT
  5
288
100
AcDbEntity
  8
0
100
AcDbMText
 62
2
  6
CONTINUOUS
  7
STANDARD
 71
2
 72
1
 10
2.3
 20
-0.099375
 30
0.0
 11
1.0
 21
0.0
 31
0.0
 44
0.9
  1
Port Headings
 40
0.145
 41
3.016
  0
MTEXT
  5
289
100
AcDbEntity
  8
0
100
AcDbMText
 62
2
  6
CONTINUOUS
  7
STANDARD
 71
2
 72
1
 10
0.65
 20
-0.44325
 30
0.0
 11
1.0
 21
0.0
 31
0.0
 44
0.9
  1
Product
 40
0.145
 41
1.624
  0
MTEXT
  5
28A
100
AcDbEntity
  8
0
100
AcDbMText
 62
2
  6
CONTINUOUS
  7
STANDARD
 71
2
 72
1
 10
2.3
 20
-0.44325
 30
0.0
 11
1.0
 21
0.0
 31
0.0
 44
0.9
  1
Port
 40
0.145
 41
0.928
  0
MTEXT
  5
28B
100
AcDbEntity
  8
0
100
AcDbMText
 62
2
  6
CONTINUOUS
  7
STANDARD
 71
2
 72
1
 10
3.95
 20
-0.44325
 30
0.0
 11
1.0
 21
0.0
 31
0.0
 44
0.9
  1
Size
 40
0.145
 41
0.928
  0
MTEXT
  5
28C
100
AcDbEntity
  8
0
100
AcDbMText
 62
2
  6
CONTINUOUS
  7
STANDARD
 71
2
 72
1
 10
0.65
 20
-0.75025
 30
0.0
 11
1.0
 21
0.0
 31
0.0
 44
0.9
  1
K65
 40
0.125
 41
0.6
  0
MTEXT
  5
28D
100
AcDbEntity
  8
0
100
AcDbMText
 62
2
  6
CONTINUOUS
  7
STANDARD
 71
2
 72
1
 10
2.3
 20
-0.75025
 30
0.0
 11
1.0
 21
0.0
 31
0.0
 44
0.9
  1
Ports 1 &  2
 40
0.125
 41
2.4
  0
MTEXT
  5
28E
100
AcDbEntity
  8
0
100
AcDbMText
 62
2
  6
CONTINUOUS
  7
STANDARD
 71
2
 72
1
 10
3.95
 20
-0.75025
 30
0.0
 11
1.0
 21
0.0
 31
0.0
 44
0.9
  1
1 1/4" Code 62
 40
0.125
 41
2.8
  0
MTEXT
  5
28F
100
AcDbEntity
  8
0
100
AcDbMText
 62
2
  6
CONTINUOUS
  7
STANDARD
 71
2
 72
1
 10
0.65
 20
-1.00025
 30
0.0
 11
1.0
 21
0.0
 31
0.0
 44
0.9
  1
K65
 40
0.125
 41
0.6
  0
MTEXT
  5
290
100
AcDbEntity
  8
0
100
AcDbMText
 62
2
  6
CONTINUOUS
  7
STANDARD
 71
2
 72
1
 10
2.3
 20
-1.00025
 30
0.0
 11
1.0
 21
0.0
 31
0.0
 44
0.9
  1
Port 3
 40
0.125
 41
1.2
  0
MTEXT
  5
291
100
AcDbEntity
  8
0
100
AcDbMText
 62
2
  6
CONTINUOUS
  7
STANDARD
 71
2
 72
1
 10
3.95
 20
-1.00025
 30
0.0
 11
1.0
 21
0.0
 31
0.0
 44
0.9
  1
SAE 6
 40
0.125
 41
1.0
  0
MTEXT
  5
292
100
AcDbEntity
  8
0
100
AcDbMText
 62
2
  6
CONTINUOUS
  7
STANDARD
 71
2
 72
1
 10
0.65
 20
-1.25025
 30
0.0
 11
1.0
 21
0.0
 31
0.0
 44
0.9
  1
K65
 40
0.125
 41
0.6
  0
MTEXT
  5
293
100
AcDbEntity
  8
0
100
AcDbMText
 62
2
  6
CONTINUOUS
  7
STANDARD
 71
2
 72
1
 10
2.3
 20
-1.25025
 30
0.0
 11
1.0
 21
0.0
 31
0.0
 44
0.9
  1
Gage Port
 40
0.125
 41
1.8
  0
MTEXT
  5
294
100
AcDbEntity
  8
0
100
AcDbMText
 62
2
  6
CONTINUOUS
  7
STANDARD
 71
2
 72
1
 10
3.95
 20
-1.25025
 30
0.0
 11
1.0
 21
0.0
 31
0.0
 44
0.9
  1
1/4" NPTF
 40
0.125
 41
1.8
  0
ENDBLK
  5
295
100
AcDbEntity
  8
0
  6
BYBLOCK
 62
0
100
AcDbBlockEnd
  0
ENDSEC
  0
SECTION
  2
ENTITIES
  0
IMAGE
  5
296
100
AcDbEntity
  8
0
100
AcDbRasterImage
 62
7
  6
CONTINUOUS
 10
19.2297077316
 20
0.3094318264
 30
0.0
 11
0.0066666667
 21
0.0
 31
0.0
 12
0.0
 22
0.0066666667
 32
0.0
 13
369.0
 23
92.0
340
       3EC
 70
9
280
0
281
50
282
50
283
0
360
       3E6
 71
1
 91
2
 14
-0.5
 24
-0.5
 14
368.5
 24
91.5
  0
INSERT
  5
297
100
AcDbEntity
  8
0
100
AcDbBlockReference
 62
2
  6
CONTINUOUS
  2
SUN_FIRST_THIRD_ANGLE_BL0
 10
20.4816717061
 20
1.2289683772
  0
ACAD_TABLE
  5
298
100
AcDbEntity
  8
0
 62
2
  6
CONTINUOUS
100
AcDbBlockReference
  2
*T1
 10
12.42375
 20
0.30125
 30
0.0
100
AcDbTable
342
       3EE
343
20F
 11
1.0
 21
0.0
 31
0.0
 90
6
 91
4
 92
6
 93
20
 94
0
 95
0
 96
0
 70
1
 41
0.0
141
0.525
141
0.1
141
0.525
141
0.1
142
4.1
142
1.1
142
0.7
142
0.5
142
0.4
142
2.475
171
1
172
0
173
0
174
0
175
1
176
1
 91
33
178
0
145
0.0
301
CELL_VALUE
 90
4
  1
T-19A Line mount\PNinety degree with reverse flow check
304
ACVALUE_END
170
2
140
0.125
171
1
172
0
173
0
174
0
175
1
176
1
 91
33
178
0
145
0.0
301
CELL_VALUE
 90
4
  1
Oct-17-22
304
ACVALUE_END
170
5
140
0.125
171
1
172
0
173
0
174
0
175
1
176
1
 91
33
178
0
145
0.0
301
CELL_VALUE
 90
4
  1
1.000
304
ACVALUE_END
170
5
140
0.125
171
1
172
0
173
0
174
0
175
1
176
1
 91
33
178
0
145
0.0
301
CELL_VALUE
 90
4
  1
C
304
ACVALUE_END
170
5
140
0.125
171
1
172
0
173
0
174
0
175
1
176
1
 91
33
178
0
145
0.0
301
CELL_VALUE
 90
4
  1
2
304
ACVALUE_END
170
5
140
0.125
171
1
172
0
173
0
174
0
175
1
176
1
 91
33
178
0
145
0.0
301
CELL_VALUE
 90
4
  1
 
304
ACVALUE_END
170
1
140
0.125
171
1
172
0
173
0
174
0
175
1
176
1
 91
33
178
0
145
0.0
301
CELL_VALUE
 90
4
  1
DESCRIPTION
304
ACVALUE_END
170
1
140
0.06
171
1
172
0
173
0
174
0
175
1
176
1
 91
33
178
0
145
0.0
301
CELL_VALUE
 90
4
  1
DATE
304
ACVALUE_END
170
1
140
0.06
171
1
172
0
173
0
174
0
175
1
176
1
 91
33
178
0
145
0.0
301
CELL_VALUE
 90
4
  1
SCALE
304
ACVALUE_END
170
1
140
0.06
171
1
172
0
173
0
174
0
175
1
176
1
 91
33
178
0
145
0.0
301
CELL_VALUE
 90
4
  1
DWG SIZE
304
ACVALUE_END
170
1
140
0.06
171
1
172
0
173
0
174
0
175
1
176
1
 91
33
178
0
145
0.0
301
CELL_VALUE
 90
4
  1
SHEET
304
ACVALUE_END
170
1
140
0.06
171
1
172
0
173
0
174
0
175
1
176
1
 91
33
178
0
145
0.0
301
CELL_VALUE
 90
4
  1
 
304
ACVALUE_END
170
1
140
0.125
171
1
172
0
173
0
174
0
175
1
176
1
 91
33
178
0
145
0.0
301
CELL_VALUE
 90
4
  1
K65
304
ACVALUE_END
170
5
140
0.125
171
1
172
0
173
0
174
0
175
4
176
1
 91
33
178
0
145
0.0
301
CELL_VALUE
 90
4
  1
ALL DIMENSIONS IN INCH\PVIEWS ARE THIRD ANGLE
304
ACVALUE_END
170
5
140
0.12
171
1
172
0
173
1
174
0
175
1
176
1
 91
1
178
0
145
0.0
170
1
171
1
172
0
173
1
174
0
175
1
176
1
 91
1
178
0
145
0.0
170
1
171
1
172
0
173
1
174
0
175
1
176
1
 91
1
178
0
145
0.0
170
5
171
1
172
0
173
0
174
0
175
1
176
1
 91
33
178
0
145
0.0
301
CELL_VALUE
 90
4
  1
 
304
ACVALUE_END
170
1
140
0.125
171
1
172
0
173
0
174
0
175
1
176
1
 91
33
178
0
145
0.0
301
CELL_VALUE
 90
4
  1
MODEL
304
ACVALUE_END
170
1
140
0.06
171
1
172
0
173
0
174
0
175
1
176
1
 91
33
178
0
145
0.0
301
CELL_VALUE
 90
4
  1
 
304
ACVALUE_END
170
1
140
0.125
171
1
172
0
173
0
174
0
175
1
176
1
 91
33
178
0
145
0.0
301
CELL_VALUE
 90
4
  1
 
304
ACVALUE_END
170
1
140
0.125
171
1
172
0
173
0
174
0
175
1
176
1
 91
33
178
0
145
0.0
301
CELL_VALUE
 90
4
  1
 
304
ACVALUE_END
170
1
140
0.125
171
1
172
0
173
0
174
0
175
1
176
1
 91
33
178
0
145
0.0
301
CELL_VALUE
 90
4
  1
 
304
ACVALUE_END
170
1
140
0.125
171
1
172
0
173
0
174
0
175
1
176
1
 91
33
178
0
145
0.0
301
CELL_VALUE
 90
4
  1
 
304
ACVALUE_END
170
1
140
0.125
  0
ACAD_TABLE
  5
299
100
AcDbEntity
  8
0
 62
2
  6
CONTINUOUS
100
AcDbBlockReference
  2
*T2
 10
12.4237499994
 20
16.47875
 30
0.0
100
AcDbTable
342
       3ED
343
210
 11
1.0
 21
0.0
 31
0.0
 90
22
 91
12
 92
3
 93
16
 94
0
 95
0
 96
0
 41
0.028
141
0.344
141
0.25
141
0.25
141
0.25
141
0.25
141
0.25
141
0.25
141
0.25
141
0.25
141
0.25
141
0.25
141
0.25
142
3.055
142
3.0
142
3.0
171
1
172
0
173
0
174
0
175
1
176
1
 91
33
178
0
145
0.0
301
CELL_VALUE
 90
4
  1
Technical Data
304
ACVALUE_END
170
5
140
0.145
171
1
172
0
173
0
174
0
175
1
176
1
 91
33
178
0
145
0.0
301
CELL_VALUE
 90
4
  1
U.S. Units
304
ACVALUE_END
170
5
140
0.145
171
1
172
0
173
0
174
0
175
1
176
1
 91
33
178
0
145
0.0
301
CELL_VALUE
 90
4
  1
Metric Units
304
ACVALUE_END
170
5
140
0.145
171
1
172
0
173
0
174
0
175
1
176
1
 91
33
178
0
145
0.0
301
CELL_VALUE
 90
4
  1
Cavity
304
ACVALUE_END
170
5
140
0.125
171
1
172
0
173
0
174
0
175
2
176
1
 91
33
178
0
145
0.0
301
CELL_VALUE
 90
4
  1
T-19A
304
ACVALUE_END
170
5
140
0.125
171
1
172
0
173
1
174
0
175
1
176
1
 91
1
178
0
145
0.0
170
1
171
1
172
0
173
0
174
0
175
1
176
1
 91
33
178
0
145
0.0
301
CELL_VALUE
 90
4
  1
Body Features
304
ACVALUE_END
170
5
140
0.125
171
1
172
0
173
0
174
0
175
2
176
1
 91
33
178
0
145
0.0
301
CELL_VALUE
 90
4
  1
Ninety degree with reverse flow check
304
ACVALUE_END
170
5
140
0.125
171
1
172
0
173
1
174
0
175
1
176
1
 91
1
178
0
145
0.0
170
1
171
1
172
0
173
0
174
0
175
1
176
1
 91
33
178
0
145
0.0
301
CELL_VALUE
 90
4
  1
Body Type
304
ACVALUE_END
170
5
140
0.125
171
1
172
0
173
0
174
0
175
2
176
1
 91
33
178
0
145
0.0
301
CELL_VALUE
 90
4
  1
Line mount
304
ACVALUE_END
170
5
140
0.125
171
1
172
0
173
1
174
0
175
1
176
1
 91
1
178
0
145
0.0
170
1
171
1
172
0
173
0
174
0
175
1
176
1
 91
33
178
0
145
0.0
301
CELL_VALUE
 90
4
  1
Interface
304
ACVALUE_END
170
5
140
0.125
171
1
172
0
173
0
174
0
175
2
176
1
 91
33
178
0
145
0.0
301
CELL_VALUE
 90
4
  1
None
304
ACVALUE_END
170
5
140
0.125
171
1
172
0
173
1
174
0
175
1
176
1
 91
1
178
0
145
0.0
170
1
171
1
172
0
173
0
174
0
175
1
176
1
 91
33
178
0
145
0.0
301
CELL_VALUE
 90
4
  1
Open Cavity Quantity
304
ACVALUE_END
170
5
140
0.125
171
1
172
0
173
0
174
0
175
2
176
1
 91
33
178
0
145
0.0
301
CELL_VALUE
 90
4
  1
1
304
ACVALUE_END
170
5
140
0.125
171
1
172
0
173
1
174
0
175
1
176
1
 91
1
178
0
145
0.0
170
1
171
1
172
0
173
0
174
0
175
1
176
1
 91
33
178
0
145
0.0
301
CELL_VALUE
 90
4
  1
Weight
304
ACVALUE_END
170
5
140
0.125
171
1
172
0
173
0
174
0
175
1
176
1
 91
33
178
0
145
0.0
301
CELL_VALUE
 90
4
  1
12.482 lb.
304
ACVALUE_END
170
5
140
0.125
171
1
172
0
173
0
174
0
175
1
176
1
 91
33
178
0
145
0.0
301
CELL_VALUE
 90
4
  1
5,662 kg.
304
ACVALUE_END
170
5
140
0.125
171
1
172
0
173
0
174
0
175
1
176
1
 91
33
178
0
145
0.0
301
CELL_VALUE
 90
4
  1
Check Cracking Pressure
304
ACVALUE_END
170
5
140
0.125
171
1
172
0
173
0
174
0
175
1
176
1
 91
33
178
0
145
0.0
301
CELL_VALUE
 90
4
  1
30 psi
304
ACVALUE_END
170
5
140
0.125
171
1
172
0
173
0
174
0
175
1
176
1
 91
33
178
0
145
0.0
301
CELL_VALUE
 90
4
  1
2 bar
304
ACVALUE_END
170
5
140
0.125
171
1
172
0
173
0
174
0
175
1
176
1
 91
33
178
0
145
0.0
301
CELL_VALUE
 90
4
  1
Mounting Hole Thread
304
ACVALUE_END
170
5
140
0.125
171
1
172
0
173
0
174
0
175
1
176
1
 91
33
178
0
145
0.0
301
CELL_VALUE
 90
4
  1
.375-16 UNC - 2B in.
304
ACVALUE_END
170
5
140
0.125
171
1
172
0
173
0
174
0
175
1
176
1
 91
33
178
0
145
0.0
301
CELL_VALUE
 90
4
  1
 
304
ACVALUE_END
170
5
140
0.125
171
1
172
0
173
0
174
0
175
1
176
1
 91
33
178
0
145
0.0
301
CELL_VALUE
 90
4
  1
Mounting Hole Depth
304
ACVALUE_END
170
5
140
0.125
171
1
172
0
173
0
174
0
175
1
176
1
 91
33
178
0
145
0.0
301
CELL_VALUE
 90
4
  1
.62 in.
304
ACVALUE_END
170
5
140
0.125
171
1
172
0
173
0
174
0
175
1
176
1
 91
33
178
0
145
0.0
301
CELL_VALUE
 90
4
  1
15,7 mm
304
ACVALUE_END
170
5
140
0.125
171
1
172
0
173
0
174
0
175
1
176
1
 91
33
178
0
145
0.0
301
CELL_VALUE
 90
4
  1
Mounting Hole Quantity
304
ACVALUE_END
170
5
140
0.125
171
1
172
0
173
0
174
0
175
2
176
1
 91
33
178
0
145
0.0
301
CELL_VALUE
 90
4
  1
2
304
ACVALUE_END
170
5
140
0.125
171
1
172
0
173
1
174
0
175
1
176
1
 91
1
178
0
145
0.0
170
1
171
1
172
0
173
0
174
0
175
1
176
1
 91
33
178
0
145
0.0
301
CELL_VALUE
 90
4
  1
Includes integral cartridge(s)
304
ACVALUE_END
170
5
140
0.125
171
1
172
0
173
0
174
0
175
2
176
1
 91
33
178
0
145
0.0
301
CELL_VALUE
 90
4
  1
Yes (see Included Components)
304
ACVALUE_END
170
5
140
0.125
171
1
172
0
173
1
174
0
175
1
176
1
 91
1
178
0
145
0.0
170
1
  0
ACAD_TABLE
  5
29A
100
AcDbEntity
  8
0
 62
2
  6
CONTINUOUS
100
AcDbBlockReference
  2
*T3
 10
0.52125
 20
1.959
 30
0.0
100
AcDbTable
342
       3ED
343
211
 11
1.0
 21
0.0
 31
0.0
 90
22
 91
5
 92
3
 93
16
 94
0
 95
0
 96
0
 41
0.05
141
0.34375
141
0.344
141
0.25
141
0.25
141
0.25
142
1.3
142
2.0
142
1.3
171
1
172
0
173
0
174
0
175
3
176
1
 91
33
178
0
145
0.0
301
CELL_VALUE
 90
4
  1
Port Headings
304
ACVALUE_END
170
5
140
0.145
171
1
172
0
173
1
174
0
175
1
176
1
 91
1
178
0
145
0.0
170
1
171
1
172
0
173
1
174
0
175
1
176
1
 91
1
178
0
145
0.0
170
1
171
1
172
0
173
0
174
0
175
1
176
1
 91
33
178
0
145
0.0
301
CELL_VALUE
 90
4
  1
Product
304
ACVALUE_END
170
5
140
0.145
171
1
172
0
173
0
174
0
175
1
176
1
 91
33
178
0
145
0.0
301
CELL_VALUE
 90
4
  1
Port
304
ACVALUE_END
170
5
140
0.145
171
1
172
0
173
0
174
0
175
1
176
1
 91
33
178
0
145
0.0
301
CELL_VALUE
 90
4
  1
Size
304
ACVALUE_END
170
5
140
0.145
171
1
172
0
173
0
174
0
175
1
176
1
 91
33
178
0
145
0.0
301
CELL_VALUE
 90
4
  1
K65
304
ACVALUE_END
170
5
140
0.125
171
1
172
0
173
0
174
0
175
1
176
1
 91
33
178
0
145
0.0
301
CELL_VALUE
 90
4
  1
Ports 1 &  2
304
ACVALUE_END
170
5
140
0.125
171
1
172
0
173
0
174
0
175
1
176
1
 91
33
178
0
145
0.0
301
CELL_VALUE
 90
4
  1
1 1/4" Code 62
304
ACVALUE_END
170
5
140
0.125
171
1
172
0
173
0
174
0
175
1
176
1
 91
33
178
0
145
0.0
301
CELL_VALUE
 90
4
  1
K65
304
ACVALUE_END
170
5
140
0.125
171
1
172
0
173
0
174
0
175
1
176
1
 91
33
178
0
145
0.0
301
CELL_VALUE
 90
4
  1
Port 3
304
ACVALUE_END
170
5
140
0.125
171
1
172
0
173
0
174
0
175
1
176
1
 91
33
178
0
145
0.0
301
CELL_VALUE
 90
4
  1
SAE 6
304
ACVALUE_END
170
5
140
0.125
171
1
172
0
173
0
174
0
175
1
176
1
 91
33
178
0
145
0.0
301
CELL_VALUE
 90
4
  1
K65
304
ACVALUE_END
170
5
140
0.125
171
1
172
0
173
0
174
0
175
1
176
1
 91
33
178
0
145
0.0
301
CELL_VALUE
 90
4
  1
Gage Port
304
ACVALUE_END
170
5
140
0.125
171
1
172
0
173
0
174
0
175
1
176
1
 91
33
178
0
145
0.0
301
CELL_VALUE
 90
4
  1
1/4" NPTF
304
ACVALUE_END
170
5
140
0.125
  0
MTEXT
  5
29B
100
AcDbEntity
  8
0
100
AcDbMText
 62
2
  6
CONTINUOUS
  7
STANDARD
 71
1
 72
1
 10
0.52125
 20
5.75995
 30
0.0
 11
1.0
 21
0.0
 31
0.0
 44
0.6
  3
Notes\P \P1. Important: Carefully consider\P   the maximum system pressure. The\P   pressure rating of the manifold is\P   dependent on the manifold material,\P   with the port type/size a secondary\P   consideration. Manifolds\P   constructed of alu
  1
minum are not\P   rated for pressures higher than\P   3000 psi (210 bar), regardless of\P   the port type/size specified.
 40
0.1
 41
3.04
  0
LINE
  5
29C
100
AcDbEntity
  8
0
100
AcDbLine
 62
7
  6
CONTINUOUS
 10
0.30125
 20
0.30125
 11
0.30125
 21
16.69875
  0
LINE
  5
29D
100
AcDbEntity
  8
0
100
AcDbLine
 62
7
  6
CONTINUOUS
 10
0.30125
 20
0.30125
 11
21.69875
 21
0.30125
  0
LINE
  5
29E
100
AcDbEntity
  8
0
100
AcDbLine
 62
7
  6
CONTINUOUS
 10
0.30125
 20
16.69875
 11
21.69875
 21
16.69875
  0
LINE
  5
29F
100
AcDbEntity
  8
0
100
AcDbLine
 62
7
  6
CONTINUOUS
 10
21.69875
 20
0.30125
 11
21.69875
 21
16.69875
  0
LINE
  5
2A0
100
AcDbEntity
  8
0
100
AcDbLine
 62
7
  6
CONTINUOUS
 10
6.5829417911
 20
6.1811671377
 11
6.5829417911
 21
10.0448706718
  0
LINE
  5
2A1
100
AcDbEntity
  8
0
100
AcDbLine
 62
7
  6
CONTINUOUS
 10
6.5829417911
 20
10.0448706718
 11
7.8609892334
 21
11.2793697767
  0
LINE
  5
2A2
100
AcDbEntity
  8
0
100
AcDbLine
 62
4
  6
CONTINUOUS
 10
7.2751516353
 20
10.0584940164
 11
7.2803280119
 21
10.0634940125
  0
LINE
  5
2A3
100
AcDbEntity
  8
0
100
AcDbLine
 62
4
  6
CONTINUOUS
 10
7.3395466959
 20
10.0540282038
 11
7.3447230724
 21
10.0590281998
  0
LINE
  5
2A4
100
AcDbEntity
  8
0
100
AcDbLine
 62
4
  6
CONTINUOUS
 10
7.4348761498
 20
10.0527760627
 11
7.4296997733
 21
10.0477760666
  0
LINE
  5
2A5
100
AcDbEntity
  8
0
100
AcDbLine
 62
4
  6
CONTINUOUS
 10
10.1757388535
 20
11.050246345
 11
10.18091523
 21
11.0552463411
  0
LINE
  5
2A6
100
AcDbEntity
  8
0
100
AcDbLine
 62
4
  6
CONTINUOUS
 10
9.9743242252
 20
10.6690280813
 11
9.9551330783
 21
10.6581099029
  0
LINE
  5
2A7
100
AcDbEntity
  8
0
100
AcDbLine
 62
7
  6
CONTINUOUS
 10
13.2236822403
 20
5.7206302233
 11
6.5829417911
 21
6.1811671377
  0
LINE
  5
2A8
100
AcDbEntity
  8
0
100
AcDbLine
 62
4
  6
CONTINUOUS
 10
9.4926771727
 20
10.3104593893
 11
9.5045088904
 21
10.3218879517
  0
LINE
  5
2A9
100
AcDbEntity
  8
0
100
AcDbLine
 62
4
  6
CONTINUOUS
 10
9.8141054999
 20
10.6209353303
 11
9.8150914726
 21
10.6218877068
  0
LINE
  5
2AA
100
AcDbEntity
  8
0
100
AcDbLine
 62
4
  6
CONTINUOUS
 10
9.7872718157
 20
10.5493016982
 11
9.7724821657
 21
10.5350159924
  0
LINE
  5
2AB
100
AcDbEntity
  8
0
100
AcDbLine
 62
4
  6
CONTINUOUS
 10
9.6610668142
 20
10.4273970206
 11
9.6758564642
 21
10.4416827263
  0
LINE
  5
2AC
100
AcDbEntity
  8
0
100
AcDbLine
 62
4
  6
CONTINUOUS
 10
9.7221973597
 20
10.4864445967
 11
9.7340290718
 21
10.4978731537
  0
LINE
  5
2AD
100
AcDbEntity
  8
0
100
AcDbLine
 62
4
  6
CONTINUOUS
 10
9.7458608036
 20
10.5093017297
 11
9.7576925157
 21
10.5207302867
  0
LINE
  5
2AE
100
AcDbEntity
  8
0
100
AcDbLine
 62
4
  6
CONTINUOUS
 10
9.876995649
 20
10.6359682711
 11
9.8888274006
 21
10.6473968662
  0
LINE
  5
2AF
100
AcDbEntity
  8
0
100
AcDbLine
 62
4
  6
CONTINUOUS
 10
9.9036170308
 20
10.6616825529
 11
9.9154487429
 21
10.6731111099
  0
LINE
  5
2B0
100
AcDbEntity
  8
0
100
AcDbLine
 62
4
  6
CONTINUOUS
 10
10.3225224266
 20
11.0320284012
 11
10.3432279327
 21
11.0520283854
  0
LINE
  5
2B1
100
AcDbEntity
  8
0
100
AcDbLine
 62
4
  6
CONTINUOUS
 10
9.8335937866
 20
10.5369024316
 11
9.8454254987
 21
10.5483309886
  0
LINE
  5
2B2
100
AcDbEntity
  8
0
100
AcDbLine
 62
4
  6
CONTINUOUS
 10
9.9992189303
 20
10.6397411876
 11
9.9873871787
 21
10.6283125925
  0
LINE
  5
2B3
100
AcDbEntity
  8
0
100
AcDbLine
 62
4
  6
CONTINUOUS
 10
9.9509060697
 20
10.593074545
 11
9.9449902136
 21
10.5873602665
  0
LINE
  5
2B4
100
AcDbEntity
  8
0
100
AcDbLine
 62
4
  6
CONTINUOUS
 10
9.9006212636
 20
10.5445031493
 11
9.8887895515
 21
10.5330745923
  0
LINE
  5
2B5
100
AcDbEntity
  8
0
100
AcDbLine
 62
4
  6
CONTINUOUS
 10
9.8444206015
 20
10.4902174751
 11
9.8325888894
 21
10.4787889181
  0
LINE
  5
2B6
100
AcDbEntity
  8
0
100
AcDbLine
 62
4
  6
CONTINUOUS
 10
9.6442673811
 20
10.2968842988
 11
9.6560990991
 21
10.3083128615
  0
LINE
  5
2B7
100
AcDbEntity
  8
0
100
AcDbLine
 62
4
  6
CONTINUOUS
 10
9.6797625331
 20
10.331169985
 11
9.6886363246
 21
10.3397414098
  0
LINE
  5
2B8
100
AcDbEntity
  8
0
100
AcDbLine
 62
4
  6
CONTINUOUS
 10
9.9154109136
 20
10.5587888551
 11
9.9302005636
 21
10.5730745608
  0
LINE
  5
2B9
100
AcDbEntity
  8
0
100
AcDbLine
 62
4
  6
CONTINUOUS
 10
10.0140085606
 20
10.6540268743
 11
10.0258402727
 21
10.6654554313
  0
LINE
  5
2BA
100
AcDbEntity
  8
0
100
AcDbLine
 62
4
  6
CONTINUOUS
 10
9.8378348197
 20
10.4457608607
 11
9.8437506758
 21
10.4514751392
  0
LINE
  5
2BB
100
AcDbEntity
  8
0
100
AcDbLine
 62
4
  6
CONTINUOUS
 10
9.8887895515
 20
10.5330745923
 11
9.8718345422
 21
10.5281258817
  0
LINE
  5
2BC
100
AcDbEntity
  8
0
100
AcDbLine
 62
4
  6
CONTINUOUS
 10
9.8325888894
 20
10.4787889181
 11
9.8156338801
 21
10.4738402075
  0
LINE
  5
2BD
100
AcDbEntity
  8
0
100
AcDbLine
 62
4
  6
CONTINUOUS
 10
10.6838539291
 20
10.5840954925
 11
10.7290672953
 21
10.5972920603
  0
LINE
  5
2BE
100
AcDbEntity
  8
0
100
AcDbLine
 62
4
  6
CONTINUOUS
 10
10.1523587293
 20
10.4836628901
 11
10.1701063073
 21
10.5008057351
  0
LINE
  5
2BF
100
AcDbEntity
  8
0
100
AcDbLine
 62
4
  6
CONTINUOUS
 10
10.2304253587
 20
10.4904980451
 11
10.2185936416
 21
10.4790694833
  0
LINE
  5
2C0
100
AcDbEntity
  8
0
100
AcDbLine
 62
4
  6
CONTINUOUS
 10
10.2008460685
 20
10.4619266431
 11
10.1880283714
 21
10.4495456976
  0
LINE
  5
2C1
100
AcDbEntity
  8
0
100
AcDbLine
 62
4
  6
CONTINUOUS
 10
10.2802855026
 20
10.4472306752
 11
10.2891592941
 21
10.4558021001
  0
LINE
  5
2C2
100
AcDbEntity
  8
0
100
AcDbLine
 62
4
  6
CONTINUOUS
 10
10.3069068672
 20
10.4729449403
 11
10.3187385843
 21
10.4843735021
  0
LINE
  5
2C3
100
AcDbEntity
  8
0
100
AcDbLine
 62
4
  6
CONTINUOUS
 10
10.3203117291
 20
10.2938930476
 11
10.3351013741
 21
10.3081787486
  0
LINE
  5
2C4
100
AcDbEntity
  8
0
100
AcDbLine
 62
4
  6
CONTINUOUS
 10
10.3932739841
 20
10.3643691783
 11
10.4169374182
 21
10.3872263018
  0
LINE
  5
2C5
100
AcDbEntity
  8
0
100
AcDbLine
 62
4
  6
CONTINUOUS
 10
10.4287691402
 20
10.3986548683
 11
10.4465167182
 21
10.4157977133
  0
LINE
  5
2C6
100
AcDbEntity
  8
0
100
AcDbLine
 62
4
  6
CONTINUOUS
 10
10.4968015243
 20
10.464369109
 11
10.5086332364
 21
10.475797666
  0
LINE
  5
2C7
100
AcDbEntity
  8
0
100
AcDbLine
 62
4
  6
CONTINUOUS
 10
10.5313106879
 20
10.4977024034
 11
10.5401844819
 21
10.5062738306
  0
LINE
  5
2C8
100
AcDbEntity
  8
0
100
AcDbLine
 62
4
  6
CONTINUOUS
 10
10.55793205
 20
10.5234166661
 11
10.5727217
 21
10.5377023718
  0
LINE
  5
2C9
100
AcDbEntity
  8
0
100
AcDbLine
 62
4
  6
CONTINUOUS
 10
10.5953991713
 20
10.5596071283
 11
10.6131467394
 21
10.5767499637
  0
LINE
  5
2CA
100
AcDbEntity
  8
0
100
AcDbLine
 62
4
  6
CONTINUOUS
 10
10.6734657957
 20
10.5664422785
 11
10.6616340836
 21
10.5550137215
  0
LINE
  5
2CB
100
AcDbEntity
  8
0
100
AcDbLine
 62
4
  6
CONTINUOUS
 10
10.5068357745
 20
10.4054900281
 11
10.4950040525
 21
10.3940614615
  0
LINE
  5
2CC
100
AcDbEntity
  8
0
100
AcDbLine
 62
4
  6
CONTINUOUS
 10
10.3849615135
 20
10.2649113791
 11
10.4301748786
 21
10.2781079483
  0
LINE
  5
2CD
100
AcDbEntity
  8
0
100
AcDbLine
 62
4
  6
CONTINUOUS
 10
10.4721142638
 20
10.3262373354
 11
10.4878898865
 21
10.3414754178
  0
LINE
  5
2CE
100
AcDbEntity
  8
0
100
AcDbLine
 62
4
  6
CONTINUOUS
 10
10.7272698379
 20
10.5269844221
 11
10.7124801879
 21
10.5126987163
  0
LINE
  5
2CF
100
AcDbEntity
  8
0
100
AcDbLine
 62
4
  6
CONTINUOUS
 10
10.6947326198
 20
10.4955558809
 11
10.6858588258
 21
10.4869844536
  0
LINE
  5
2D0
100
AcDbEntity
  8
0
100
AcDbLine
 62
4
  6
CONTINUOUS
 10
10.6631813743
 20
10.4650797162
 11
10.6513496622
 21
10.4536511593
  0
LINE
  5
2D1
100
AcDbEntity
  8
0
100
AcDbLine
 62
4
  6
CONTINUOUS
 10
10.489649512
 20
10.2974607988
 11
10.474859867
 21
10.2831750979
  0
LINE
  5
2D2
100
AcDbEntity
  8
0
100
AcDbLine
 62
4
  6
CONTINUOUS
 10
10.5833172781
 20
10.3879369185
 11
10.6010648561
 21
10.4050797635
  0
LINE
  5
2D3
100
AcDbEntity
  8
0
100
AcDbLine
 62
4
  6
CONTINUOUS
 10
10.7499473092
 20
10.5488891785
 11
10.7676948773
 21
10.566032014
  0
LINE
  5
2D4
100
AcDbEntity
  8
0
100
AcDbLine
 62
4
  6
CONTINUOUS
 10
7.2828542673
 20
10.0526008581
 11
7.2751516353
 21
10.0584940164
  0
LINE
  5
2D5
100
AcDbEntity
  8
0
100
AcDbLine
 62
4
  6
CONTINUOUS
 10
11.5246810413
 20
10.2032244242
 11
11.5298574178
 21
10.2082244203
  0
LINE
  5
2D6
100
AcDbEntity
  8
0
100
AcDbLine
 62
4
  6
CONTINUOUS
 10
11.6045432985
 20
10.2003654474
 11
11.6148960515
 21
10.2103654395
  0
LINE
  5
2D7
100
AcDbEntity
  8
0
100
AcDbLine
 62
4
  6
CONTINUOUS
 10
11.6844055557
 20
10.1975064705
 11
11.6792291792
 21
10.1925064744
  0
LINE
  5
2D8
100
AcDbEntity
  8
0
100
AcDbLine
 62
4
  6
CONTINUOUS
 10
13.7646136183
 20
7.8852037935
 11
13.7542608653
 21
7.88486306
  0
LINE
  5
2D9
100
AcDbEntity
  8
0
100
AcDbLine
 62
7
  6
CONTINUOUS
 10
14.033545316
 20
7.4938600512
 11
14.172006458
 21
7.4842577384
  0
LINE
  5
2DA
100
AcDbEntity
  8
0
100
AcDbLine
 62
7
  6
CONTINUOUS
 10
14.1892849376
 20
7.6128751826
 11
15.0301616362
 21
7.5545601855
  0
LINE
  5
2DB
100
AcDbEntity
  8
0
100
AcDbLine
 62
7
  6
CONTINUOUS
 10
14.1771758334
 20
7.6272702018
 11
15.018052532
 21
7.5689552047
  0
LINE
  5
2DC
100
AcDbEntity
  8
0
100
AcDbLine
 62
4
  6
CONTINUOUS
 10
7.3370204313
 20
10.0649213588
 11
7.3447230724
 21
10.0590281998
  0
LINE
  5
2DD
100
AcDbEntity
  8
0
100
AcDbLine
 62
4
  6
CONTINUOUS
 10
7.4271735144
 20
10.0586692213
 11
7.4348761498
 21
10.0527760627
  0
LINE
  5
2DE
100
AcDbEntity
  8
0
100
AcDbLine
 62
7
  6
CONTINUOUS
 10
12.1839760503
 20
10.0500546373
 11
12.1832768704
 21
10.0493920408
  0
LINE
  5
2DF
100
AcDbEntity
  8
0
100
AcDbLine
 62
7
  6
CONTINUOUS
 10
11.944476784
 20
7.9509856201
 11
12.0993776933
 21
7.9402432056
  0
LINE
  5
2E0
100
AcDbEntity
  8
0
100
AcDbLine
 62
7
  6
CONTINUOUS
 10
14.0638366557
 20
8.2504295664
 11
14.9047133542
 21
8.1921145693
  0
LINE
  5
2E1
100
AcDbEntity
  8
0
100
AcDbLine
 62
7
  6
CONTINUOUS
 10
14.0638366557
 20
8.302612599
 11
14.9047133542
 21
8.2442976019
  0
LINE
  5
2E2
100
AcDbEntity
  8
0
100
AcDbLine
 62
4
  6
CONTINUOUS
 10
7.3267296111
 20
10.0683145191
 11
7.3370204313
 21
10.0649213588
  0
LINE
  5
2E3
100
AcDbEntity
  8
0
100
AcDbLine
 62
4
  6
CONTINUOUS
 10
7.4065918683
 20
10.0654555422
 11
7.4271735144
 21
10.0586692213
  0
LINE
  5
2E4
100
AcDbEntity
  8
0
100
AcDbLine
 62
4
  6
CONTINUOUS
 10
9.7273206603
 20
10.4799647501
 11
9.7221973597
 21
10.4864445967
  0
LINE
  5
2E5
100
AcDbEntity
  8
0
100
AcDbLine
 62
4
  6
CONTINUOUS
 10
9.8387170826
 20
10.5304225854
 11
9.8335937866
 21
10.5369024316
  0
LINE
  5
2E6
100
AcDbEntity
  8
0
100
AcDbLine
 62
4
  6
CONTINUOUS
 10
13.7853191244
 20
8.3785074501
 11
13.7439081123
 21
8.3868037747
  0
LINE
  5
2E7
100
AcDbEntity
  8
0
100
AcDbLine
 62
4
  6
CONTINUOUS
 10
10.3712993941
 20
10.282190977
 11
10.3849615135
 21
10.2649113791
  0
LINE
  5
2E8
100
AcDbEntity
  8
0
100
AcDbLine
 62
7
  6
CONTINUOUS
 10
13.2236822403
 20
9.5843337574
 11
14.5017296826
 21
10.8188328623
  0
LINE
  5
2E9
100
AcDbEntity
  8
0
100
AcDbLine
 62
7
  6
CONTINUOUS
 10
14.1771758334
 20
9.1447264545
 11
15.018052532
 21
9.0864114574
  0
LINE
  5
2EA
100
AcDbEntity
  8
0
100
AcDbLine
 62
7
  6
CONTINUOUS
 10
14.1892849376
 20
9.1825144679
 11
15.0301616362
 21
9.1241994708
  0
LINE
  5
2EB
100
AcDbEntity
  8
0
100
AcDbLine
 62
4
  6
CONTINUOUS
 10
9.5088396177
 20
10.3032139723
 11
9.4926771727
 21
10.3104593893
  0
LINE
  5
2EC
100
AcDbEntity
  8
0
100
AcDbLine
 62
4
  6
CONTINUOUS
 10
10.7290672953
 20
10.5972920603
 11
10.7427294136
 21
10.5800124637
  0
LINE
  5
2ED
100
AcDbEntity
  8
0
100
AcDbLine
 62
7
  6
CONTINUOUS
 10
14.4159632931
 20
9.4014689587
 11
15.2568399917
 21
9.3431539616
  0
LINE
  5
2EE
100
AcDbEntity
  8
0
100
AcDbLine
 62
7
  6
CONTINUOUS
 10
6.5829417911
 20
10.0448706718
 11
13.2236822403
 21
9.5843337574
  0
LINE
  5
2EF
100
AcDbEntity
  8
0
100
AcDbLine
 62
7
  6
CONTINUOUS
 10
14.1756029963
 20
9.5479537127
 11
14.3144564505
 21
9.538324193
  0
LINE
  5
2F0
100
AcDbEntity
  8
0
100
AcDbLine
 62
4
  6
CONTINUOUS
 10
7.3138506027
 20
10.0692076814
 11
7.3267296111
 21
10.0683145191
  0
LINE
  5
2F1
100
AcDbEntity
  8
0
100
AcDbLine
 62
4
  6
CONTINUOUS
 10
11.5091885771
 20
9.7782600046
 11
11.663736715
 21
9.7675420549
  0
LINE
  5
2F2
100
AcDbEntity
  8
0
100
AcDbLine
 62
4
  6
CONTINUOUS
 10
7.3937128553
 20
10.0663487048
 11
7.4065918683
 21
10.0654555422
  0
LINE
  5
2F3
100
AcDbEntity
  8
0
100
AcDbLine
 62
4
  6
CONTINUOUS
 10
9.6560990991
 20
10.3083128615
 11
9.6399366512
 21
10.3155582781
  0
LINE
  5
2F4
100
AcDbEntity
  8
0
100
AcDbLine
 62
4
  6
CONTINUOUS
 10
9.6886363246
 20
10.3397414098
 11
9.6724738743
 21
10.3469868241
  0
LINE
  5
2F5
100
AcDbEntity
  8
0
100
AcDbLine
 62
4
  6
CONTINUOUS
 10
10.4734870641
 20
10.3047062155
 11
10.489649512
 21
10.2974607988
  0
LINE
  5
2F6
100
AcDbEntity
  8
0
100
AcDbLine
 62
7
  6
CONTINUOUS
 10
14.4159632931
 20
9.4014689587
 11
14.1892849376
 21
9.1825144679
  0
LINE
  5
2F7
100
AcDbEntity
  8
0
100
AcDbLine
 62
4
  6
CONTINUOUS
 10
11.6792291792
 20
10.1925064744
 11
11.6611737908
 21
10.1883996409
  0
LINE
  5
2F8
100
AcDbEntity
  8
0
100
AcDbLine
 62
4
  6
CONTINUOUS
 10
11.5298574178
 20
10.2082244203
 11
11.5479128027
 21
10.2123312541
  0
LINE
  5
2F9
100
AcDbEntity
  8
0
100
AcDbLine
 62
4
  6
CONTINUOUS
 10
11.6611737908
 20
10.1883996409
 11
11.6302393917
 21
10.1851859698
  0
LINE
  5
2FA
100
AcDbEntity
  8
0
100
AcDbLine
 62
4
  6
CONTINUOUS
 10
11.5479128027
 20
10.2123312541
 11
11.5633800086
 21
10.2139380892
  0
LINE
  5
2FB
100
AcDbEntity
  8
0
100
AcDbLine
 62
4
  6
CONTINUOUS
 10
11.6302393917
 20
10.1851859698
 11
11.5890141689
 21
10.1853654592
  0
LINE
  5
2FC
100
AcDbEntity
  8
0
100
AcDbLine
 62
4
  6
CONTINUOUS
 10
9.5309179218
 20
10.3016828367
 11
9.5088396177
 21
10.3032139723
  0
LINE
  5
2FD
100
AcDbEntity
  8
0
100
AcDbLine
 62
4
  6
CONTINUOUS
 10
9.6399366512
 20
10.3155582781
 11
9.6178583448
 21
10.3170894138
  0
LINE
  5
2FE
100
AcDbEntity
  8
0
100
AcDbLine
 62
4
  6
CONTINUOUS
 10
9.5192985367
 20
10.3361736539
 11
9.6517683682
 21
10.3269868398
  0
LINE
  5
2FF
100
AcDbEntity
  8
0
100
AcDbLine
 62
4
  6
CONTINUOUS
 10
10.474859867
 20
10.2831750979
 11
10.3203117291
 21
10.2938930476
  0
LINE
  5
300
100
AcDbEntity
  8
0
100
AcDbLine
 62
4
  6
CONTINUOUS
 10
11.6148960515
 20
10.2103654395
 11
11.6664120967
 21
10.2067927896
  0
LINE
  5
301
100
AcDbEntity
  8
0
100
AcDbLine
 62
4
  6
CONTINUOUS
 10
9.6724738743
 20
10.3469868241
 11
9.5400040428
 21
10.3561736381
  0
LINE
  5
302
100
AcDbEntity
  8
0
100
AcDbLine
 62
4
  6
CONTINUOUS
 10
9.7063838977
 20
10.3568842501
 11
9.5518357598
 21
10.3676021998
  0
LINE
  5
303
100
AcDbEntity
  8
0
100
AcDbLine
 62
4
  6
CONTINUOUS
 10
10.3630955367
 20
10.3123618939
 11
10.4734870641
 21
10.3047062155
  0
LINE
  5
304
100
AcDbEntity
  8
0
100
AcDbLine
 62
4
  6
CONTINUOUS
 10
9.7270894038
 20
10.3768842343
 11
9.5725412659
 21
10.3876021841
  0
LINE
  5
305
100
AcDbEntity
  8
0
100
AcDbLine
 62
4
  6
CONTINUOUS
 10
11.5890141689
 20
10.1853654592
 11
11.5529653227
 21
10.1905449447
  0
LINE
  5
306
100
AcDbEntity
  8
0
100
AcDbLine
 62
4
  6
CONTINUOUS
 10
10.5123269709
 20
10.3193655434
 11
10.3696105501
 21
10.3415120549
  0
LINE
  5
307
100
AcDbEntity
  8
0
100
AcDbLine
 62
4
  6
CONTINUOUS
 10
9.8437506758
 20
10.4514751392
 11
9.7083936824
 21
10.4731112675
  0
LINE
  5
308
100
AcDbEntity
  8
0
100
AcDbLine
 62
4
  6
CONTINUOUS
 10
10.1588548255
 20
10.4556519213
 11
10.1970955752
 21
10.4468753692
  0
LINE
  5
309
100
AcDbEntity
  8
0
100
AcDbLine
 62
4
  6
CONTINUOUS
 10
10.1903163735
 20
10.4136604984
 11
10.1079897892
 21
10.4408057824
  0
LINE
  5
30A
100
AcDbEntity
  8
0
100
AcDbLine
 62
4
  6
CONTINUOUS
 10
11.5529653227
 20
10.1905449447
 11
11.5323836732
 21
10.1973312659
  0
LINE
  5
30B
100
AcDbEntity
  8
0
100
AcDbLine
 62
4
  6
CONTINUOUS
 10
10.1346111562
 20
10.4665200499
 11
10.1588548255
 21
10.4556519213
  0
LINE
  5
30C
100
AcDbEntity
  8
0
100
AcDbLine
 62
4
  6
CONTINUOUS
 10
9.8850768875
 20
10.6323455733
 11
9.876995649
 21
10.6359682711
  0
LINE
  5
30D
100
AcDbEntity
  8
0
100
AcDbLine
 62
4
  6
CONTINUOUS
 10
10.2891592941
 20
10.4558021001
 11
10.2729968438
 21
10.4630475143
  0
LINE
  5
30E
100
AcDbEntity
  8
0
100
AcDbLine
 62
4
  6
CONTINUOUS
 10
9.9116982693
 20
10.6580598551
 11
9.9036170308
 21
10.6616825529
  0
LINE
  5
30F
100
AcDbEntity
  8
0
100
AcDbLine
 62
4
  6
CONTINUOUS
 10
10.3187385843
 20
10.4843735021
 11
10.3025761389
 21
10.4916189211
  0
LINE
  5
310
100
AcDbEntity
  8
0
100
AcDbLine
 62
4
  6
CONTINUOUS
 10
10.0258402727
 20
10.6654554313
 11
10.0177590376
 21
10.6690781288
  0
LINE
  5
311
100
AcDbEntity
  8
0
100
AcDbLine
 62
4
  6
CONTINUOUS
 10
10.5129639724
 20
10.457123695
 11
10.4968015243
 21
10.464369109
  0
LINE
  5
312
100
AcDbEntity
  8
0
100
AcDbLine
 62
4
  6
CONTINUOUS
 10
10.547473136
 20
10.4904569893
 11
10.5313106879
 21
10.4977024034
  0
LINE
  5
313
100
AcDbEntity
  8
0
100
AcDbLine
 62
4
  6
CONTINUOUS
 10
10.6785701694
 20
10.5028012951
 11
10.6947326198
 21
10.4955558809
  0
LINE
  5
314
100
AcDbEntity
  8
0
100
AcDbLine
 62
4
  6
CONTINUOUS
 10
10.7111073876
 20
10.5342298363
 11
10.7272698379
 21
10.5269844221
  0
LINE
  5
315
100
AcDbEntity
  8
0
100
AcDbLine
 62
4
  6
CONTINUOUS
 10
10.1834414854
 20
11.0443531867
 11
10.1757388535
 21
11.050246345
  0
LINE
  5
316
100
AcDbEntity
  8
0
100
AcDbLine
 62
4
  6
CONTINUOUS
 10
10.2504866671
 20
11.0557805245
 11
10.2658919355
 21
11.0439942076
  0
LINE
  5
317
100
AcDbEntity
  8
0
100
AcDbLine
 62
4
  6
CONTINUOUS
 10
11.5323836732
 20
10.1973312659
 11
11.5246810413
 21
10.2032244242
  0
LINE
  5
318
100
AcDbEntity
  8
0
100
AcDbLine
 62
4
  6
CONTINUOUS
 10
11.6767029203
 20
10.2033996291
 11
11.6844055557
 21
10.1975064705
  0
LINE
  5
319
100
AcDbEntity
  8
0
100
AcDbLine
 62
4
  6
CONTINUOUS
 10
13.7853191244
 20
8.0790704329
 11
13.7439081123
 21
8.1163445334
  0
LINE
  5
31A
100
AcDbEntity
  8
0
100
AcDbLine
 62
4
  6
CONTINUOUS
 10
13.7439081123
 20
8.2708926713
 11
13.7784172888
 21
8.3042259781
  0
LINE
  5
31B
100
AcDbEntity
  8
0
100
AcDbLine
 62
4
  6
CONTINUOUS
 10
9.6178583448
 20
10.3170894138
 11
9.5309179218
 21
10.3016828367
  0
LINE
  5
31C
100
AcDbEntity
  8
0
100
AcDbLine
 62
4
  6
CONTINUOUS
 10
10.3351013741
 20
10.3081787486
 11
10.3630955367
 21
10.3123618939
  0
LINE
  5
31D
100
AcDbEntity
  8
0
100
AcDbLine
 62
4
  6
CONTINUOUS
 10
9.6302702983
 20
10.294792726
 11
9.6442673811
 21
10.2968842988
  0
LINE
  5
31E
100
AcDbEntity
  8
0
100
AcDbLine
 62
4
  6
CONTINUOUS
 10
10.6513496622
 20
10.4536511593
 11
10.6233554998
 21
10.4494680165
  0
LINE
  5
31F
100
AcDbEntity
  8
0
100
AcDbLine
 62
4
  6
CONTINUOUS
 10
9.6517683682
 20
10.3269868398
 11
9.6797625331
 21
10.331169985
  0
LINE
  5
320
100
AcDbEntity
  8
0
100
AcDbLine
 62
4
  6
CONTINUOUS
 10
10.6858588258
 20
10.4869844536
 11
10.6578646634
 21
10.4828013109
  0
LINE
  5
321
100
AcDbEntity
  8
0
100
AcDbLine
 62
4
  6
CONTINUOUS
 10
9.5045088904
 20
10.3218879517
 11
9.5185059763
 21
10.323979524
  0
LINE
  5
322
100
AcDbEntity
  8
0
100
AcDbLine
 62
4
  6
CONTINUOUS
 10
10.2522913377
 20
10.4430475301
 11
10.2802855026
 21
10.4472306752
  0
LINE
  5
323
100
AcDbEntity
  8
0
100
AcDbLine
 62
4
  6
CONTINUOUS
 10
10.5401844819
 20
10.5062738306
 11
10.568178642
 21
10.5104569735
  0
LINE
  5
324
100
AcDbEntity
  8
0
100
AcDbLine
 62
4
  6
CONTINUOUS
 10
10.2288402333
 20
10.4661097857
 11
10.2008460685
 21
10.4619266431
  0
LINE
  5
325
100
AcDbEntity
  8
0
100
AcDbLine
 62
4
  6
CONTINUOUS
 10
10.5727217
 20
10.5377023718
 11
10.6007158602
 21
10.5418855147
  0
LINE
  5
326
100
AcDbEntity
  8
0
100
AcDbLine
 62
4
  6
CONTINUOUS
 10
10.2584195284
 20
10.4946811924
 11
10.2304253587
 21
10.4904980451
  0
LINE
  5
327
100
AcDbEntity
  8
0
100
AcDbLine
 62
4
  6
CONTINUOUS
 10
9.6758564642
 20
10.4416827263
 11
9.6898535489
 21
10.4437742975
  0
LINE
  5
328
100
AcDbEntity
  8
0
100
AcDbLine
 62
4
  6
CONTINUOUS
 10
7.4116443849
 20
10.0436692331
 11
7.3961771847
 21
10.0420623976
  0
LINE
  5
329
100
AcDbEntity
  8
0
100
AcDbLine
 62
4
  6
CONTINUOUS
 10
7.3627784573
 20
10.0631350336
 11
7.3937128553
 21
10.0663487048
  0
LINE
  5
32A
100
AcDbEntity
  8
0
100
AcDbLine
 62
4
  6
CONTINUOUS
 10
7.2983833968
 20
10.0676008462
 11
7.3138506027
 21
10.0692076814
  0
LINE
  5
32B
100
AcDbEntity
  8
0
100
AcDbLine
 62
4
  6
CONTINUOUS
 10
9.7576925157
 20
10.5207302867
 11
9.7707036178
 21
10.5218694717
  0
LINE
  5
32C
100
AcDbEntity
  8
0
100
AcDbLine
 62
4
  6
CONTINUOUS
 10
9.5518357598
 20
10.3676021998
 11
9.7270894038
 21
10.3768842343
  0
LINE
  5
32D
100
AcDbEntity
  8
0
100
AcDbLine
 62
4
  6
CONTINUOUS
 10
10.1623929838
 20
10.4247838133
 11
10.2625379271
 21
10.4300878326
  0
LINE
  5
32E
100
AcDbEntity
  8
0
100
AcDbLine
 62
4
  6
CONTINUOUS
 10
9.812308038
 20
10.5506276923
 11
9.7872718157
 21
10.5493016982
  0
LINE
  5
32F
100
AcDbEntity
  8
0
100
AcDbLine
 62
4
  6
CONTINUOUS
 10
9.6906461142
 20
10.4559684321
 11
9.8099114379
 21
10.4568841808
  0
LINE
  5
330
100
AcDbEntity
  8
0
100
AcDbLine
 62
4
  6
CONTINUOUS
 10
10.3696105501
 20
10.3415120549
 11
10.5359904099
 21
10.3422226716
  0
LINE
  5
331
100
AcDbEntity
  8
0
100
AcDbLine
 62
4
  6
CONTINUOUS
 10
10.559653844
 20
10.3650797951
 11
10.4051057061
 21
10.3757977448
  0
LINE
  5
332
100
AcDbEntity
  8
0
100
AcDbLine
 62
4
  6
CONTINUOUS
 10
9.7714583439
 20
10.419741342
 11
9.616910206
 21
10.4304592918
  0
LINE
  5
333
100
AcDbEntity
  8
0
100
AcDbLine
 62
4
  6
CONTINUOUS
 10
9.6898535489
 20
10.4437742975
 11
9.7892059219
 21
10.436884187
  0
LINE
  5
334
100
AcDbEntity
  8
0
100
AcDbLine
 62
4
  6
CONTINUOUS
 10
10.241832421
 20
10.4100878484
 11
10.0872842831
 21
10.4208057982
  0
LINE
  5
335
100
AcDbEntity
  8
0
100
AcDbLine
 62
4
  6
CONTINUOUS
 10
10.5833172781
 20
10.3879369185
 11
10.4287691402
 21
10.3986548683
  0
LINE
  5
336
100
AcDbEntity
  8
0
100
AcDbLine
 62
4
  6
CONTINUOUS
 10
10.1970955752
 20
10.4468753692
 11
10.2522913377
 21
10.4430475301
  0
LINE
  5
337
100
AcDbEntity
  8
0
100
AcDbLine
 62
4
  6
CONTINUOUS
 10
9.8156338801
 20
10.4738402075
 11
9.7273206603
 21
10.4799647501
  0
LINE
  5
338
100
AcDbEntity
  8
0
100
AcDbLine
 62
4
  6
CONTINUOUS
 10
9.6898724636
 20
10.5009354249
 11
9.8444206015
 21
10.4902174751
  0
LINE
  5
339
100
AcDbEntity
  8
0
100
AcDbLine
 62
4
  6
CONTINUOUS
 10
10.2729968438
 20
10.4630475143
 11
10.2288402333
 21
10.4661097857
  0
LINE
  5
33A
100
AcDbEntity
  8
0
100
AcDbLine
 62
4
  6
CONTINUOUS
 10
9.8562523333
 20
10.5016460511
 11
9.7458608036
 21
10.5093017297
  0
LINE
  5
33B
100
AcDbEntity
  8
0
100
AcDbLine
 62
4
  6
CONTINUOUS
 10
10.6233554998
 20
10.4494680165
 11
10.5129639724
 21
10.457123695
  0
LINE
  5
33C
100
AcDbEntity
  8
0
100
AcDbLine
 62
4
  6
CONTINUOUS
 10
10.2185936416
 20
10.4790694833
 11
10.1523587293
 21
10.4836628901
  0
LINE
  5
33D
100
AcDbEntity
  8
0
100
AcDbLine
 62
4
  6
CONTINUOUS
 10
9.7707036178
 20
10.5218694717
 11
9.7927819219
 21
10.5203383361
  0
LINE
  5
33E
100
AcDbEntity
  8
0
100
AcDbLine
 62
4
  6
CONTINUOUS
 10
10.3025761389
 20
10.4916189211
 11
10.2584195284
 21
10.4946811924
  0
LINE
  5
33F
100
AcDbEntity
  8
0
100
AcDbLine
 62
4
  6
CONTINUOUS
 10
9.8718345422
 20
10.5281258817
 11
9.8387170826
 21
10.5304225854
  0
LINE
  5
340
100
AcDbEntity
  8
0
100
AcDbLine
 62
4
  6
CONTINUOUS
 10
10.6578646634
 20
10.4828013109
 11
10.547473136
 21
10.4904569893
  0
LINE
  5
341
100
AcDbEntity
  8
0
100
AcDbLine
 62
4
  6
CONTINUOUS
 10
9.9006212636
 20
10.5445031493
 11
9.812308038
 21
10.5506276923
  0
LINE
  5
342
100
AcDbEntity
  8
0
100
AcDbLine
 62
4
  6
CONTINUOUS
 10
9.802061446
 20
10.5635873849
 11
9.9014138225
 21
10.5566972741
  0
LINE
  5
343
100
AcDbEntity
  8
0
100
AcDbLine
 62
4
  6
CONTINUOUS
 10
10.568178642
 20
10.5104569735
 11
10.6785701694
 21
10.5028012951
  0
LINE
  5
344
100
AcDbEntity
  8
0
100
AcDbLine
 62
4
  6
CONTINUOUS
 10
10.7124801879
 20
10.5126987163
 11
10.55793205
 21
10.5234166661
  0
LINE
  5
345
100
AcDbEntity
  8
0
100
AcDbLine
 62
4
  6
CONTINUOUS
 10
9.9302005636
 20
10.5730745608
 11
9.8198090339
 21
10.5807302394
  0
LINE
  5
346
100
AcDbEntity
  8
0
100
AcDbLine
 62
4
  6
CONTINUOUS
 10
9.9309931225
 20
10.5852686856
 11
9.7874841378
 21
10.5952210675
  0
LINE
  5
347
100
AcDbEntity
  8
0
100
AcDbLine
 62
4
  6
CONTINUOUS
 10
10.6007158602
 20
10.5418855147
 11
10.7111073876
 21
10.5342298363
  0
LINE
  5
348
100
AcDbEntity
  8
0
100
AcDbLine
 62
4
  6
CONTINUOUS
 10
10.7499473092
 20
10.5488891785
 11
10.5953991713
 21
10.5596071283
  0
LINE
  5
349
100
AcDbEntity
  8
0
100
AcDbLine
 62
4
  6
CONTINUOUS
 10
9.9686536378
 20
10.6102173805
 11
9.8582621081
 21
10.6178730591
  0
LINE
  5
34A
100
AcDbEntity
  8
0
100
AcDbLine
 62
4
  6
CONTINUOUS
 10
9.8251446566
 20
10.6201697621
 11
9.8141054999
 21
10.6209353303
  0
LINE
  5
34B
100
AcDbEntity
  8
0
100
AcDbLine
 62
4
  6
CONTINUOUS
 10
9.9733901073
 20
10.6262210307
 11
9.8850768875
 21
10.6323455733
  0
LINE
  5
34C
100
AcDbEntity
  8
0
100
AcDbLine
 62
4
  6
CONTINUOUS
 10
9.9448157255
 20
10.6557631517
 11
9.9116982693
 21
10.6580598551
  0
LINE
  5
34D
100
AcDbEntity
  8
0
100
AcDbLine
 62
4
  6
CONTINUOUS
 10
10.0177590376
 20
10.6690781288
 11
9.984641578
 21
10.6713748325
  0
LINE
  5
34E
100
AcDbEntity
  8
0
100
AcDbLine
 62
4
  6
CONTINUOUS
 10
9.8150914726
 20
10.6218877068
 11
9.8251446566
 21
10.6201697621
  0
LINE
  5
34F
100
AcDbEntity
  8
0
100
AcDbLine
 62
4
  6
CONTINUOUS
 10
11.6664120967
 20
10.2067927896
 11
11.6767029203
 21
10.2033996291
  0
LINE
  5
350
100
AcDbEntity
  8
0
100
AcDbLine
 62
4
  6
CONTINUOUS
 10
13.7542608653
 20
7.88486306
 11
13.7473590291
 21
7.897514915
  0
LINE
  5
351
100
AcDbEntity
  8
0
100
AcDbLine
 62
7
  6
CONTINUOUS
 10
13.2236822403
 20
9.5843337574
 11
13.2236822403
 21
5.7206302233
  0
LINE
  5
352
100
AcDbEntity
  8
0
100
AcDbLine
 62
4
  6
CONTINUOUS
 10
7.4296997733
 20
10.0477760666
 11
7.4116443849
 21
10.0436692331
  0
LINE
  5
353
100
AcDbEntity
  8
0
100
AcDbLine
 62
4
  6
CONTINUOUS
 10
7.3447230724
 20
10.0590281998
 11
7.3627784573
 21
10.0631350336
  0
LINE
  5
354
100
AcDbEntity
  8
0
100
AcDbLine
 62
4
  6
CONTINUOUS
 10
9.9551330783
 20
10.6581099029
 11
9.9448157255
 21
10.6557631517
  0
LINE
  5
355
100
AcDbEntity
  8
0
100
AcDbLine
 62
4
  6
CONTINUOUS
 10
9.984641578
 20
10.6713748325
 11
9.9743242252
 21
10.6690280813
  0
LINE
  5
356
100
AcDbEntity
  8
0
100
AcDbLine
 62
4
  6
CONTINUOUS
 10
7.2803280119
 20
10.0634940125
 11
7.2983833968
 21
10.0676008462
  0
LINE
  5
357
100
AcDbEntity
  8
0
100
AcDbLine
 62
4
  6
CONTINUOUS
 10
9.9014138225
 20
10.5566972741
 11
9.9154109136
 21
10.5587888551
  0
LINE
  5
358
100
AcDbEntity
  8
0
100
AcDbLine
 62
4
  6
CONTINUOUS
 10
9.9449902136
 20
10.5873602665
 11
9.9309931225
 21
10.5852686856
  0
LINE
  5
359
100
AcDbEntity
  8
0
100
AcDbLine
 62
4
  6
CONTINUOUS
 10
9.9873871787
 20
10.6283125925
 11
9.9733901073
 21
10.6262210307
  0
LINE
  5
35A
100
AcDbEntity
  8
0
100
AcDbLine
 62
4
  6
CONTINUOUS
 10
10.0000114892
 20
10.6519353125
 11
10.0140085606
 21
10.6540268743
  0
LINE
  5
35B
100
AcDbEntity
  8
0
100
AcDbLine
 62
4
  6
CONTINUOUS
 10
9.9154487429
 20
10.6731111099
 11
9.9294458178
 21
10.6752026714
  0
LINE
  5
35C
100
AcDbEntity
  8
0
100
AcDbLine
 62
4
  6
CONTINUOUS
 10
10.2864735804
 20
11.0372078867
 11
10.3225224266
 21
11.0320284012
  0
LINE
  5
35D
100
AcDbEntity
  8
0
100
AcDbLine
 62
4
  6
CONTINUOUS
 10
10.1937323148
 20
11.0409600258
 11
10.1834414854
 21
11.0443531867
  0
LINE
  5
35E
100
AcDbEntity
  8
0
100
AcDbLine
 62
4
  6
CONTINUOUS
 10
10.2658919355
 20
11.0439942076
 11
10.2864735804
 21
11.0372078867
  0
LINE
  5
35F
100
AcDbEntity
  8
0
100
AcDbLine
 62
4
  6
CONTINUOUS
 10
10.2401958377
 20
11.0591736855
 11
10.2504866671
 21
11.0557805245
  0
LINE
  5
360
100
AcDbEntity
  8
0
100
AcDbLine
 62
4
  6
CONTINUOUS
 10
13.7784172888
 20
7.9951297023
 11
13.7818682066
 21
7.9888037745
  0
LINE
  5
361
100
AcDbEntity
  8
0
100
AcDbLine
 62
4
  6
CONTINUOUS
 10
13.7784172888
 20
8.3042259781
 11
13.7818682066
 21
8.2979000503
  0
LINE
  5
362
100
AcDbEntity
  8
0
100
AcDbLine
 62
4
  6
CONTINUOUS
 10
13.7439081123
 20
7.9135001024
 11
13.7439081123
 21
7.9328186196
  0
LINE
  5
363
100
AcDbEntity
  8
0
100
AcDbLine
 62
4
  6
CONTINUOUS
 10
13.7715154533
 20
8.3844926441
 11
13.7715154533
 21
8.4424481958
  0
LINE
  5
364
100
AcDbEntity
  8
0
100
AcDbLine
 62
4
  6
CONTINUOUS
 10
13.7853191244
 20
8.2819148639
 11
13.7853191244
 21
8.2625963466
  0
LINE
  5
365
100
AcDbEntity
  8
0
100
AcDbLine
 62
4
  6
CONTINUOUS
 10
13.7853191244
 20
7.9728185881
 11
13.7853191244
 21
7.9535000708
  0
LINE
  5
366
100
AcDbEntity
  8
0
100
AcDbLine
 62
4
  6
CONTINUOUS
 10
13.7853191244
 20
8.2625963466
 11
13.7818682066
 21
8.2399444986
  0
LINE
  5
367
100
AcDbEntity
  8
0
100
AcDbLine
 62
4
  6
CONTINUOUS
 10
13.7439081123
 20
7.9328186196
 11
13.7473590291
 21
7.9554704668
  0
LINE
  5
368
100
AcDbEntity
  8
0
100
AcDbLine
 62
4
  6
CONTINUOUS
 10
13.7818682066
 20
8.2399444986
 11
13.7784172888
 21
8.2269519092
  0
LINE
  5
369
100
AcDbEntity
  8
0
100
AcDbLine
 62
4
  6
CONTINUOUS
 10
13.7473590291
 20
7.9554704668
 11
13.7508099485
 21
7.9684630577
  0
LINE
  5
36A
100
AcDbEntity
  8
0
100
AcDbLine
 62
4
  6
CONTINUOUS
 10
13.7439081123
 20
8.0390704644
 11
13.7853191244
 21
8.1563445018
  0
LINE
  5
36B
100
AcDbEntity
  8
0
100
AcDbLine
 62
4
  6
CONTINUOUS
 10
13.7439081123
 20
8.3868037747
 11
13.7853191244
 21
8.4751000363
  0
LINE
  5
36C
100
AcDbEntity
  8
0
100
AcDbLine
 62
4
  6
CONTINUOUS
 10
13.7749663714
 20
7.9048630442
 11
13.7646136183
 21
7.8852037935
  0
LINE
  5
36D
100
AcDbEntity
  8
0
100
AcDbLine
 62
4
  6
CONTINUOUS
 10
10.18091523
 20
11.0552463411
 11
10.198970615
 21
11.0593531749
  0
LINE
  5
36E
100
AcDbEntity
  8
0
100
AcDbLine
 62
4
  6
CONTINUOUS
 10
10.198970615
 20
11.0593531749
 11
10.2144378208
 21
11.06096001
  0
LINE
  5
36F
100
AcDbEntity
  8
0
100
AcDbLine
 62
4
  6
CONTINUOUS
 10
10.2144378208
 20
11.06096001
 11
10.2401958377
 21
11.0591736855
  0
LINE
  5
370
100
AcDbEntity
  8
0
100
AcDbLine
 62
7
  6
CONTINUOUS
 10
7.8609892334
 20
11.2793697767
 11
14.5017296826
 21
10.8188328623
  0
LINE
  5
371
100
AcDbEntity
  8
0
100
AcDbLine
 62
4
  6
CONTINUOUS
 10
13.7473590291
 20
7.897514915
 11
13.7439081123
 21
7.9135001024
  0
LINE
  5
372
100
AcDbEntity
  8
0
100
AcDbLine
 62
4
  6
CONTINUOUS
 10
13.7818682066
 20
7.9888037745
 11
13.7853191244
 21
7.9728185881
  0
LINE
  5
373
100
AcDbEntity
  8
0
100
AcDbLine
 62
4
  6
CONTINUOUS
 10
13.7818682066
 20
8.2979000503
 11
13.7853191244
 21
8.2819148639
  0
LINE
  5
374
100
AcDbEntity
  8
0
100
AcDbLine
 62
7
  6
CONTINUOUS
 10
14.1771758334
 20
9.1447264545
 11
14.0638366557
 21
8.302612599
  0
LINE
  5
375
100
AcDbEntity
  8
0
100
AcDbLine
 62
4
  6
CONTINUOUS
 10
13.7853191244
 20
7.9535000708
 11
13.7818682066
 21
7.9308482228
  0
LINE
  5
376
100
AcDbEntity
  8
0
100
AcDbLine
 62
4
  6
CONTINUOUS
 10
13.7818682066
 20
7.9308482228
 11
13.7749663714
 21
7.9048630442
  0
LINE
  5
377
100
AcDbEntity
  8
0
100
AcDbLine
 62
7
  6
CONTINUOUS
 10
14.0638366557
 20
8.2504295664
 11
14.1771758334
 21
7.6272702018
  0
LINE
  5
378
100
AcDbEntity
  8
0
100
AcDbLine
 62
7
  6
CONTINUOUS
 10
14.5017296826
 20
10.8188328623
 11
14.5017296826
 21
9.3955210394
  0
LINE
  5
379
100
AcDbEntity
  8
0
100
AcDbLine
 62
7
  6
CONTINUOUS
 10
14.5017296826
 20
7.5912070659
 11
14.5017296826
 21
6.9551293282
  0
LINE
  5
37A
100
AcDbEntity
  8
0
100
AcDbLine
 62
7
  6
CONTINUOUS
 10
14.2943514917
 20
7.5847211495
 11
14.3061756241
 21
7.6047687859
  0
LINE
  5
37B
100
AcDbEntity
  8
0
100
AcDbLine
 62
7
  6
CONTINUOUS
 10
14.4217626644
 20
9.4219344138
 11
14.4307062985
 21
9.4004465278
  0
LINE
  5
37C
100
AcDbEntity
  8
0
100
AcDbLine
 62
7
  6
CONTINUOUS
 10
13.2236822403
 20
5.7206302233
 11
14.5017296826
 21
6.9551293282
  0
LINE
  5
37D
100
AcDbEntity
  8
0
100
AcDbLine
 62
7
  6
CONTINUOUS
 10
15.2371648382
 20
7.699238187
 11
15.2482631654
 21
7.7180552319
  0
LINE
  5
37E
100
AcDbEntity
  8
0
100
AcDbLine
 62
7
  6
CONTINUOUS
 10
15.3298844905
 20
9.2020569453
 11
15.3481376834
 21
9.1582020064
  0
ARC
  5
37F
100
AcDbEntity
  8
0
100
AcDbCircle
 62
7
  6
CONTINUOUS
 10
18.2746721692
 20
8.2180362978
 40
3.3700611375
100
AcDbArc
 50
179.5535163738
 51
179.998793708
  0
ARC
  5
380
100
AcDbEntity
  8
0
100
AcDbCircle
 62
7
  6
CONTINUOUS
 10
17.4217674715
 20
8.2763982865
 40
3.3580331378
100
AcDbArc
 50
179.5527189095
 51
179.9995911722
  0
ARC
  5
381
100
AcDbEntity
  8
0
100
AcDbCircle
 62
7
  6
CONTINUOUS
 10
18.1996410953
 20
8.2180818001
 40
3.2950300629
100
AcDbArc
 50
179.9995574573
 51
180.4515370429
  0
ARC
  5
382
100
AcDbEntity
  8
0
100
AcDbCircle
 62
7
  6
CONTINUOUS
 10
17.3587643963
 20
8.2763967972
 40
3.2950300625
100
AcDbArc
 50
179.9995574573
 51
180.4515370429
  0
ARC
  5
383
100
AcDbEntity
  8
0
100
AcDbCircle
 62
7
  6
CONTINUOUS
 10
8.1017565171
 20
6.4637151686
 40
2.5143961479
100
AcDbArc
 50
109.1702388033
 51
109.4815028365
  0
ARC
  5
384
100
AcDbEntity
  8
0
100
AcDbCircle
 62
7
  6
CONTINUOUS
 10
15.593576812
 20
8.7116773657
 40
1.4811222925
100
AcDbArc
 50
161.4645031014
 51
162.999561535
  0
ARC
  5
385
100
AcDbEntity
  8
0
100
AcDbCircle
 62
7
  6
CONTINUOUS
 10
16.3990288514
 20
8.6647141399
 40
1.4439266679
100
AcDbArc
 50
161.4447302808
 51
163.0193343556
  0
ARC
  5
386
100
AcDbEntity
  8
0
100
AcDbCircle
 62
7
  6
CONTINUOUS
 10
12.2736758938
 20
8.3351834736
 40
0.8021010055
100
AcDbArc
 50
177.1930873029
 51
180.00766598
  0
ARC
  5
387
100
AcDbEntity
  8
0
100
AcDbCircle
 62
7
  6
CONTINUOUS
 10
7.3520293725
 20
8.7575819525
 40
0.3526648967
100
AcDbArc
 50
312.1364489418
 51
313.2786622833
  0
ARC
  5
388
100
AcDbEntity
  8
0
100
AcDbCircle
 62
7
  6
CONTINUOUS
 10
7.2792289131
 20
8.8329479564
 40
0.3525498844
100
AcDbArc
 50
135.1223432667
 51
135.8764711907
  0
ARC
  5
389
100
AcDbEntity
  8
0
100
AcDbCircle
 62
7
  6
CONTINUOUS
 10
7.3213340058
 20
8.7742829881
 40
0.2937714761
100
AcDbArc
 50
349.3352982742
 51
0.0339175012
  0
ARC
  5
38A
100
AcDbEntity
  8
0
100
AcDbCircle
 62
7
  6
CONTINUOUS
 10
7.3556516832
 20
8.7990641924
 40
0.2646469184
100
AcDbArc
 50
342.7030905752
 51
346.0662717051
  0
ARC
  5
38B
100
AcDbEntity
  8
0
100
AcDbCircle
 62
7
  6
CONTINUOUS
 10
7.3208887026
 20
8.835067832
 40
0.2646276762
100
AcDbArc
 50
101.8398892216
 51
105.2966339667
  0
SPLINE
  5
38C
100
AcDbEntity
  8
0
100
AcDbSpline
 62
7
  6
CONTINUOUS
 70
0
 71
3
 72
23
 73
19
 74
0
 42
0.0000001
 43
0.0000001
 44
0.0000000001
 40
0.0
 40
0.0
 40
0.0
 40
0.0
 40
0.077887548
 40
0.154543893
 40
0.2297412557
 40
0.3032906193
 40
0.3750185305
 40
0.4447516711
 40
0.5123181952
 40
0.5775570953
 40
0.640317502
 40
0.7004581263
 40
0.7578492766
 40
0.8123725124
 40
0.8639261342
 40
0.9124222333
 40
0.9577954785
 40
1.0
 40
1.0
 40
1.0
 40
1.0
 10
15.4170582089
 20
8.6461206108
 30
0.0
 10
15.4170582089
 20
8.659605507
 30
0.0
 10
15.416871985
 20
8.686362548
 30
0.0
 10
15.4160227875
 20
8.7261306094
 30
0.0
 10
15.4146066802
 20
8.7651311199
 30
0.0
 10
15.4126284235
 20
8.8032528431
 30
0.0
 10
15.410093056
 20
8.8403935174
 30
0.0
 10
15.4070082397
 20
8.8764532434
 30
0.0
 10
15.4033819993
 20
8.9113334153
 30
0.0
 10
15.3992245705
 20
8.9449384027
 30
0.0
 10
15.3945476193
 20
8.9771767106
 30
0.0
 10
15.3893638125
 20
9.0079607413
 30
0.0
 10
15.3836881263
 20
9.0372068512
 30
0.0
 10
15.3775354055
 20
9.0648356836
 30
0.0
 10
15.370923879
 20
9.090772529
 30
0.0
 10
15.3638703201
 20
9.1149477609
 30
0.0
 10
15.3563959558
 20
9.1372960557
 30
0.0
 10
15.3509464652
 20
9.1514531457
 30
0.0
 10
15.3481386953
 20
9.1581991476
 30
0.0
  0
SPLINE
  5
38D
100
AcDbEntity
  8
0
100
AcDbSpline
 62
7
  6
CONTINUOUS
 70
0
 71
3
 72
9
 73
5
 74
0
 42
0.0000001
 43
0.0000001
 44
0.0000000001
 40
0.0
 40
0.0
 40
0.0
 40
0.0
 40
0.5137008699
 40
1.0
 40
1.0
 40
1.0
 40
1.0
 10
15.2689490958
 20
9.3287589424
 30
0.0
 10
15.2670189596
 20
9.3313394776
 30
0.0
 10
15.2631288857
 20
9.3362654815
 30
0.0
 10
15.2589485901
 20
9.3409494022
 30
0.0
 10
15.2568399917
 20
9.3431539616
 30
0.0
  0
SPLINE
  5
38E
100
AcDbEntity
  8
0
100
AcDbSpline
 62
7
  6
CONTINUOUS
 70
0
 71
3
 72
21
 73
17
 74
0
 42
0.0000001
 43
0.0000001
 44
0.0000000001
 40
0.0
 40
0.0
 40
0.0
 40
0.0
 40
0.1581869057
 40
0.2342974008
 40
0.3082392483
 40
0.3798849882
 40
0.4491168141
 40
0.5158285755
 40
0.5799364107
 40
0.6413821077
 40
0.7001400376
 40
0.7562247425
 40
0.8096897679
 40
0.9091706631
 40
0.9555655171
 40
1.0
 40
1.0
 40
1.0
 40
1.0
 10
15.0301616362
 20
7.5545601855
 30
0.0
 10
15.042560276
 20
7.5600476364
 30
0.0
 10
15.0608174508
 20
7.5684234997
 30
0.0
 10
15.0845322619
 20
7.5800724666
 30
0.0
 10
15.1014213214
 20
7.5887849188
 30
0.0
 10
15.1175956951
 20
7.5975874456
 30
0.0
 10
15.1330093424
 20
7.6064806451
 30
0.0
 10
15.1476171812
 20
7.6154650282
 30
0.0
 10
15.1613770541
 20
7.6245395012
 30
0.0
 10
15.1742510891
 20
7.6337021216
 30
0.0
 10
15.1862058751
 20
7.6429503326
 30
0.0
 10
15.1972171106
 20
7.6522801677
 30
0.0
 10
15.2102990108
 20
7.6645283766
 30
0.0
 10
15.2218323358
 20
7.6772016168
 30
0.0
 10
15.2315666431
 20
7.6903035215
 30
0.0
 10
15.2357686761
 20
7.6968669937
 30
0.0
 10
15.237701511
 20
7.7001487218
 30
0.0
  0
SPLINE
  5
38F
100
AcDbEntity
  8
0
100
AcDbSpline
 62
7
  6
CONTINUOUS
 70
0
 71
3
 72
23
 73
19
 74
0
 42
0.0000001
 43
0.0000001
 44
0.0000000001
 40
0.0
 40
0.0
 40
0.0
 40
0.0
 40
0.0450326523
 40
0.0906265929
 40
0.137322011
 40
0.1856175437
 40
0.2359587572
 40
0.2887346934
 40
0.3442758963
 40
0.4028547687
 40
0.4646955333
 40
0.5299811834
 40
0.5988540277
 40
0.6714227492
 40
0.7477714462
 40
0.8279618586
 40
0.9120310188
 40
1.0
 40
1.0
 40
1.0
 40
1.0
 10
14.1720058573
 20
7.484258086
 30
0.0
 10
14.1744897976
 20
7.484085839
 30
0.0
 10
14.1795135896
 20
7.484030468
 30
0.0
 10
14.1870805796
 20
7.4848204428
 30
0.0
 10
14.1946898289
 20
7.486481231
 30
0.0
 10
14.2023320324
 20
7.4890078907
 30
0.0
 10
14.2100009843
 20
7.4923951784
 30
0.0
 10
14.2176905975
 20
7.4966385267
 30
0.0
 10
14.2253953133
 20
7.5017330243
 30
0.0
 10
14.2331103104
 20
7.5076726831
 30
0.0
 10
14.2408303206
 20
7.5144521533
 30
0.0
 10
14.2485494692
 20
7.5220661669
 30
0.0
 10
14.2562622719
 20
7.5305081421
 30
0.0
 10
14.2639631352
 20
7.5397708671
 30
0.0
 10
14.2716459175
 20
7.5498470426
 30
0.0
 10
14.2793041664
 20
7.5607288042
 30
0.0
 10
14.286932057
 20
7.5724067362
 30
0.0
 10
14.2918807751
 20
7.580532249
 30
0.0
 10
14.2943517777
 20
7.5847217233
 30
0.0
  0
SPLINE
  5
390
100
AcDbEntity
  8
0
100
AcDbSpline
 62
7
  6
CONTINUOUS
 70
0
 71
3
 72
23
 73
19
 74
0
 42
0.0000001
 43
0.0000001
 44
0.0000000001
 40
0.0
 40
0.0
 40
0.0
 40
0.0
 40
0.045032568
 40
0.0906267677
 40
0.1373223981
 40
0.1856176199
 40
0.2359588628
 40
0.2887358158
 40
0.3442768809
 40
0.4028551705
 40
0.4646965578
 40
0.5299829968
 40
0.5988551011
 40
0.6714232612
 40
0.7477730432
 40
0.8279632655
 40
0.9120312269
 40
1.0
 40
1.0
 40
1.0
 40
1.0
 10
14.3144570512
 20
9.5383238454
 30
0.0
 10
14.3169409581
 20
9.5381516007
 30
0.0
 10
14.3219242794
 20
9.5375130806
 30
0.0
 10
14.3293096037
 20
9.5356856475
 30
0.0
 10
14.3366166094
 20
9.5329902879
 30
0.0
 10
14.3438368813
 20
9.5294331331
 30
0.0
 10
14.3509648101
 20
9.5250196872
 30
0.0
 10
14.3579947379
 20
9.5197551527
 30
0.0
 10
14.3649224762
 20
9.513646057
 30
0.0
 10
14.3717437743
 20
9.5066985055
 30
0.0
 10
14.3784538697
 20
9.49891821
 30
0.0
 10
14.3850478974
 20
9.4903115138
 30
0.0
 10
14.3915216271
 20
9.4808859462
 30
0.0
 10
14.3978701927
 20
9.4706490725
 30
0.0
 10
14.4040882373
 20
9.4596088216
 30
0.0
 10
14.4101710644
 20
9.4477742934
 30
0.0
 10
14.4161139956
 20
9.4351555204
 30
0.0
 10
14.4198936645
 20
9.4264248658
 30
0.0
 10
14.421762647
 20
9.4219344546
 30
0.0
  0
SPLINE
  5
391
100
AcDbEntity
  8
0
100
AcDbSpline
 62
7
  6
CONTINUOUS
 70
0
 71
3
 72
28
 73
24
 74
0
 42
0.0000001
 43
0.0000001
 44
0.0000000001
 40
0.0
 40
0.0
 40
0.0
 40
0.0
 40
0.0188529983
 40
0.0388813969
 40
0.0600730311
 40
0.082411071
 40
0.1058723771
 40
0.1304291914
 40
0.1560506674
 40
0.1827008701
 40
0.2103416943
 40
0.2389318129
 40
0.2987780357
 40
0.3618602847
 40
0.4277640086
 40
0.4960469277
 40
0.5662445243
 40
0.6378747072
 40
0.7104428967
 40
0.7834463883
 40
0.8563743541
 40
0.9287318806
 40
1.0
 40
1.0
 40
1.0
 40
1.0
 10
15.2482672985
 20
7.7180624529
 30
0.0
 10
15.2513038744
 20
7.7232110353
 30
0.0
 10
15.2573319842
 20
7.7339685859
 30
0.0
 10
15.2660091191
 20
7.7509275189
 30
0.0
 10
15.2745810285
 20
7.7691684006
 30
0.0
 10
15.2830307212
 20
7.7886579332
 30
0.0
 10
15.2913430904
 20
7.8093604423
 30
0.0
 10
15.2995029322
 20
7.8312378924
 30
0.0
 10
15.3074942982
 20
7.8542502493
 30
0.0
 10
15.3153031979
 20
7.8783549072
 30
0.0
 10
15.3229146533
 20
7.9035075483
 30
0.0
 10
15.3329338652
 20
7.9389214982
 30
0.0
 10
15.3448178292
 20
7.9854768278
 30
0.0
 10
15.3578721797
 20
8.0439135856
 30
0.0
 10
15.369830416
 20
8.1053113697
 30
0.0
 10
15.3806031404
 20
8.1692162725
 30
0.0
 10
15.3901097967
 20
8.2351561529
 30
0.0
 10
15.3982794396
 20
8.3026434018
 30
0.0
 10
15.405051076
 20
8.371179028
 30
0.0
 10
15.410373975
 20
8.440254926
 30
0.0
 10
15.4142096942
 20
8.509362575
 30
0.0
 10
15.4165285646
 20
8.5779869627
 30
0.0
 10
15.4170582089
 20
8.6235250335
 30
0.0
 10
15.4170582089
 20
8.6461206108
 30
0.0
  0
SPLINE
  5
392
100
AcDbEntity
  8
0
100
AcDbSpline
 62
7
  6
CONTINUOUS
 70
0
 71
3
 72
9
 73
5
 74
0
 42
0.0000001
 43
0.0000001
 44
0.0000000001
 40
0.0
 40
0.0
 40
0.0
 40
0.0
 40
0.4954682768
 40
1.0
 40
1.0
 40
1.0
 40
1.0
 10
15.3300222651
 20
9.2017257262
 30
0.0
 10
15.3210714441
 20
9.223223082
 30
0.0
 10
15.3016968951
 20
9.2660729186
 30
0.0
 10
15.2802130357
 20
9.3078927698
 30
0.0
 10
15.2689490958
 20
9.3287589424
 30
0.0
  0
SPLINE
  5
393
100
AcDbEntity
  8
0
100
AcDbSpline
 62
7
  6
CONTINUOUS
 70
0
 71
3
 72
21
 73
17
 74
0
 42
0.0000001
 43
0.0000001
 44
0.0000000001
 40
0.0
 40
0.0
 40
0.0
 40
0.0
 40
0.0723519082
 40
0.141165103
 40
0.2693778227
 40
0.3297134318
 40
0.3881613266
 40
0.4452932943
 40
0.5017244346
 40
0.5580937133
 40
0.615040981
 40
0.673185954
 40
0.7331085521
 40
0.8601998366
 40
0.92835026
 40
1.0
 40
1.0
 40
1.0
 40
1.0
 10
14.1892849376
 20
7.6128751826
 30
0.0
 10
14.1911719136
 20
7.6109023315
 30
0.0
 10
14.1949748923
 20
7.6071651631
 30
0.0
 10
14.2027096665
 20
7.6005642817
 30
0.0
 10
14.2108110692
 20
7.5951076164
 30
0.0
 10
14.2192123815
 20
7.5910439948
 30
0.0
 10
14.2254572325
 20
7.5887593292
 30
0.0
 10
14.2317656669
 20
7.5871812127
 30
0.0
 10
14.2381316919
 20
7.5863127864
 30
0.0
 10
14.2445477939
 20
7.5861551254
 30
0.0
 10
14.2510064044
 20
7.5867077079
 30
0.0
 10
14.2575008486
 20
7.5879695856
 30
0.0
 10
14.2663693623
 20
7.5906452821
 30
0.0
 10
14.275144383
 20
7.594746727
 30
0.0
 10
14.2837156354
 20
7.6000417902
 30
0.0
 10
14.2879979071
 20
7.6031314818
 30
0.0
 10
14.2901393213
 20
7.6047816965
 30
0.0
  0
SPLINE
  5
394
100
AcDbEntity
  8
0
100
AcDbSpline
 62
7
  6
CONTINUOUS
 70
0
 71
3
 72
37
 73
33
 74
0
 42
0.0000001
 43
0.0000001
 44
0.0000000001
 40
0.0
 40
0.0
 40
0.0
 40
0.0
 40
0.0242958757
 40
0.0472720491
 40
0.06906547
 40
0.0898420657
 40
0.1098025191
 40
0.1291772502
 40
0.1482195591
 40
0.1671969267
 40
0.1863790917
 40
0.2060268442
 40
0.2263816435
 40
0.2476578252
 40
0.2700406061
 40
0.2936856295
 40
0.3187193724
 40
0.3452443247
 40
0.3733422379
 40
0.4030747875
 40
0.4344887667
 40
0.4676191269
 40
0.5024882474
 40
0.5391092416
 40
0.5774886204
 40
0.6176242977
 40
0.6595071409
 40
0.7031242385
 40
0.748458767
 40
0.7954901579
 40
0.8945412347
 40
1.0
 40
1.0
 40
1.0
 40
1.0
 10
14.4159632931
 20
9.4014689587
 30
0.0
 10
14.413859473
 20
9.4036685224
 30
0.0
 10
14.4096163735
 20
9.4078090776
 30
0.0
 10
14.4029559525
 20
9.4133471738
 30
0.0
 10
14.3961916328
 20
9.4180236386
 30
0.0
 10
14.3893289015
 20
9.4218296713
 30
0.0
 10
14.3823741942
 20
9.4247586441
 30
0.0
 10
14.3753349534
 20
9.4268047608
 30
0.0
 10
14.3682200655
 20
9.4279621942
 30
0.0
 10
14.3610405352
 20
9.4282282521
 30
0.0
 10
14.3538077643
 20
9.4276035727
 30
0.0
 10
14.3465325073
 20
9.426090188
 30
0.0
 10
14.3392241091
 20
9.4236927659
 30
0.0
 10
14.3318897249
 20
9.4204179181
 30
0.0
 10
14.3245356454
 20
9.4162711267
 30
0.0
 10
14.3171677641
 20
9.4112579161
 30
0.0
 10
14.3097911307
 20
9.4053848321
 30
0.0
 10
14.3024114279
 20
9.3986577117
 30
0.0
 10
14.2950349472
 20
9.3910826097
 30
0.0
 10
14.2876673717
 20
9.382667095
 30
0.0
 10
14.2803150174
 20
9.373418915
 30
0.0
 10
14.2729848357
 20
9.3633462166
 30
0.0
 10
14.2656831586
 20
9.3524585326
 30
0.0
 10
14.2584165406
 20
9.3407660148
 30
0.0
 10
14.2511921518
 20
9.3282792782
 30
0.0
 10
14.2440166773
 20
9.3150102165
 30
0.0
 10
14.2368966818
 20
9.3009716647
 30
0.0
 10
14.2298392249
 20
9.2861767602
 30
0.0
 10
14.2228509091
 20
9.2706391509
 30
0.0
 10
14.2134711918
 20
9.2485680061
 30
0.0
 10
14.2020037272
 20
9.2192083439
 30
0.0
 10
14.1934913435
 20
9.1950384574
 30
0.0
 10
14.1892849376
 20
9.1825144679
 30
0.0
  0
SPLINE
  5
395
100
AcDbEntity
  8
0
100
AcDbSpline
 62
7
  6
CONTINUOUS
 70
0
 71
3
 72
29
 73
25
 74
0
 42
0.0000001
 43
0.0000001
 44
0.0000000001
 40
0.0
 40
0.0
 40
0.0
 40
0.0
 40
0.0845029209
 40
0.1672060512
 40
0.2477928116
 40
0.3259955312
 40
0.4015490781
 40
0.4741967172
 40
0.5437011092
 40
0.6098423629
 40
0.6724190906
 40
0.7312544691
 40
0.759222048
 40
0.7862006128
 40
0.8121758414
 40
0.8371363988
 40
0.8610738044
 40
0.8839816691
 40
0.9058577403
 40
0.9267048499
 40
0.9465294736
 40
0.9653422397
 40
0.9831585626
 40
1.0
 40
1.0
 40
1.0
 40
1.0
 10
14.0638366557
 20
8.2504295664
 30
0.0
 10
14.0639792736
 20
8.2323878137
 30
0.0
 10
14.0645587698
 20
8.1966901075
 30
0.0
 10
14.0663407109
 20
8.1438109032
 30
0.0
 10
14.0690210735
 20
8.092316175
 30
0.0
 10
14.0725889307
 20
8.0424053733
 30
0.0
 10
14.0770299228
 20
7.9942663491
 30
0.0
 10
14.0823273854
 20
7.948082462
 30
0.0
 10
14.088460371
 20
7.9040297037
 30
0.0
 10
14.0954046426
 20
7.8622749762
 30
0.0
 10
14.1031339092
 20
7.8229770211
 30
0.0
 10
14.1103192555
 20
7.7918950844
 30
0.0
 10
14.116468562
 20
7.7683911806
 30
0.0
 10
14.1211794874
 20
7.7517668603
 30
0.0
 10
14.1260632172
 20
7.7358628095
 30
0.0
 10
14.1311150668
 20
7.7206940742
 30
0.0
 10
14.1363298266
 20
7.7062749236
 30
0.0
 10
14.1417027781
 20
7.6926190688
 30
0.0
 10
14.1472290832
 20
7.6797392625
 30
0.0
 10
14.1529034333
 20
7.6676470398
 30
0.0
 10
14.1587209311
 20
7.6563535709
 30
0.0
 10
14.1646764678
 20
7.6458697527
 30
0.0
 10
14.1707630754
 20
7.6362062348
 30
0.0
 10
14.1750220945
 20
7.6301496872
 30
0.0
 10
14.1771758334
 20
7.6272702018
 30
0.0
  0
SPLINE
  5
396
100
AcDbEntity
  8
0
100
AcDbSpline
 62
7
  6
CONTINUOUS
 70
0
 71
3
 72
23
 73
19
 74
0
 42
0.0000001
 43
0.0000001
 44
0.0000000001
 40
0.0
 40
0.0
 40
0.0
 40
0.0
 40
0.0516336942
 40
0.1056802294
 40
0.1619477426
 40
0.2202552621
 40
0.2804049373
 40
0.3421879345
 40
0.4053888783
 40
0.4697856779
 40
0.5351505224
 40
0.6012507051
 40
0.6678508709
 40
0.7347134147
 40
0.8015970733
 40
0.8682636889
 40
0.934483684
 40
1.0
 40
1.0
 40
1.0
 40
1.0
 10
14.1771758334
 20
9.1447264545
 30
0.0
 10
14.1728844353
 20
9.1306986367
 30
0.0
 10
14.1645005077
 20
9.101864134
 30
0.0
 10
14.1527454068
 20
9.0573763313
 30
0.0
 10
14.1415579609
 20
9.010790184
 30
0.0
 10
14.1309814476
 20
8.962285828
 30
0.0
 10
14.1210556201
 20
8.9120461513
 30
0.0
 10
14.1118192785
 20
8.8602625904
 30
0.0
 10
14.1033076239
 20
8.8071327914
 30
0.0
 10
14.0955531206
 20
8.7528591946
 30
0.0
 10
14.0885859223
 20
8.6976487058
 30
0.0
 10
14.0824322711
 20
8.6417118987
 30
0.0
 10
14.0771158818
 20
8.5852619604
 30
0.0
 10
14.0726573543
 20
8.5285145414
 30
0.0
 10
14.0690731371
 20
8.4716862973
 30
0.0
 10
14.0663772143
 20
8.4149916815
 30
0.0
 10
14.0645802844
 20
8.3586502394
 30
0.0
 10
14.0639815774
 20
8.321225753
 30
0.0
 10
14.0638366557
 20
8.302612599
 30
0.0
  0
SPLINE
  5
397
100
AcDbEntity
  8
0
100
AcDbSpline
 62
7
  6
CONTINUOUS
 70
0
 71
3
 72
9
 73
5
 74
0
 42
0.0000001
 43
0.0000001
 44
0.0000000001
 40
0.0
 40
0.0
 40
0.0
 40
0.0
 40
0.5137008699
 40
1.0
 40
1.0
 40
1.0
 40
1.0
 10
14.1771758334
 20
7.6272702018
 30
0.0
 10
14.1791059697
 20
7.6246896666
 30
0.0
 10
14.1829960436
 20
7.6197636627
 30
0.0
 10
14.1871763391
 20
7.615079742
 30
0.0
 10
14.1892849376
 20
7.6128751826
 30
0.0
  0
SPLINE
  5
398
100
AcDbEntity
  8
0
100
AcDbSpline
 62
7
  6
CONTINUOUS
 70
0
 71
3
 72
37
 73
33
 74
0
 42
0.0000001
 43
0.0000001
 44
0.0000000001
 40
0.0
 40
0.0
 40
0.0
 40
0.0
 40
0.0964095921
 40
0.1901913307
 40
0.2807581535
 40
0.3675834473
 40
0.4094321934
 40
0.4501574558
 40
0.4897015385
 40
0.5280104589
 40
0.5650329886
 40
0.6007205488
 40
0.6350298595
 40
0.6679203117
 40
0.6993566222
 40
0.7293089955
 40
0.7577520906
 40
0.7846690557
 40
0.8100495463
 40
0.8338925791
 40
0.8562092007
 40
0.8770222205
 40
0.8963726362
 40
0.914321378
 40
0.9309547731
 40
0.9463923317
 40
0.960790647
 40
0.9743509547
 40
0.9808968032
 40
0.9873288959
 40
0.9936838958
 40
1.0
 40
1.0
 40
1.0
 40
1.0
 10
13.9767774672
 20
8.2539161628
 30
0.0
 10
13.9767774672
 20
8.2272921916
 30
0.0
 10
13.9773417176
 20
8.1747679117
 30
0.0
 10
13.9799399668
 20
8.0972718443
 30
0.0
 10
13.9842637261
 20
8.0225031645
 30
0.0
 10
13.9893381778
 20
7.9621633168
 30
0.0
 10
13.9942743383
 20
7.9156425417
 30
0.0
 10
13.9983407243
 20
7.8821636913
 30
0.0
 10
14.0028104208
 20
7.849722722
 30
0.0
 10
14.0076757514
 20
7.8183729458
 30
0.0
 10
14.0129283429
 20
7.7881659763
 30
0.0
 10
14.0185602062
 20
7.7591515664
 30
0.0
 10
14.0245610512
 20
7.7313773364
 30
0.0
 10
14.0309215034
 20
7.7048888663
 30
0.0
 10
14.0376309705
 20
7.679729554
 30
0.0
 10
14.0446776695
 20
7.6559403904
 30
0.0
 10
14.0520510174
 20
7.6335602985
 30
0.0
 10
14.0597379129
 20
7.6126253537
 30
0.0
 10
14.0677262072
 20
7.5931692785
 30
0.0
 10
14.0760035362
 20
7.5752233216
 30
0.0
 10
14.0845558052
 20
7.5588153718
 30
0.0
 10
14.0933714297
 20
7.5439715033
 30
0.0
 10
14.1024369927
 20
7.530714223
 30
0.0
 10
14.1117407296
 20
7.5190636711
 30
0.0
 10
14.1212728484
 20
7.5090392346
 30
0.0
 10
14.1310232702
 20
7.5006572327
 30
0.0
 10
14.1409825355
 20
7.4939379708
 30
0.0
 10
14.1495518127
 20
7.4896914746
 30
0.0
 10
14.1564480765
 20
7.4871932255
 30
0.0
 10
14.1615983655
 20
7.4857652496
 30
0.0
 10
14.1667832229
 20
7.484763193
 30
0.0
 10
14.1702658135
 20
7.484378748
 30
0.0
 10
14.1720058573
 20
7.484258086
 30
0.0
  0
SPLINE
  5
399
100
AcDbEntity
  8
0
100
AcDbSpline
 62
7
  6
CONTINUOUS
 70
0
 71
3
 72
47
 73
43
 74
0
 42
0.0000001
 43
0.0000001
 44
0.0000000001
 40
0.0
 40
0.0
 40
0.0
 40
0.0
 40
0.0417693213
 40
0.0840385707
 40
0.1266608581
 40
0.1695078068
 40
0.2553504133
 40
0.3405020229
 40
0.3824901148
 40
0.4239122017
 40
0.4646413153
 40
0.504552819
 40
0.5435259206
 40
0.5814432792
 40
0.6181924491
 40
0.653665961
 40
0.6877620808
 40
0.7203859901
 40
0.751449611
 40
0.7808741843
 40
0.8085894263
 40
0.8345374222
 40
0.8468343533
 40
0.8586737585
 40
0.8700524668
 40
0.880968231
 40
0.8914206204
 40
0.9014108659
 40
0.9109416064
 40
0.9200174428
 40
0.9286458993
 40
0.9368370899
 40
0.9446040522
 40
0.9519638555
 40
0.9589383231
 40
0.965554126
 40
0.9718436175
 40
0.9778459854
 40
0.9836072386
 40
0.9891799877
 40
0.9946230321
 40
1.0
 40
1.0
 40
1.0
 40
1.0
 10
13.9767774672
 20
8.2539161628
 30
0.0
 10
13.9767774672
 20
8.2731200708
 30
0.0
 10
13.9770774289
 20
8.311758339
 30
0.0
 10
13.9784015718
 20
8.3699790109
 30
0.0
 10
13.9806003436
 20
8.4286692265
 30
0.0
 10
13.9846901086
 20
8.5073277728
 30
0.0
 10
13.9919107277
 20
8.6053924724
 30
0.0
 10
14.0019082035
 20
8.7028167358
 30
0.0
 10
14.0115399937
 20
8.7797165327
 30
0.0
 10
14.0194953001
 20
8.8362361767
 30
0.0
 10
14.0281878195
 20
8.8916809574
 30
0.0
 10
14.0375897034
 20
8.9458676192
 30
0.0
 10
14.047668799
 20
8.998617032
 30
0.0
 10
14.0583922792
 20
9.0497548121
 30
0.0
 10
14.0697239797
 20
9.0991120585
 30
0.0
 10
14.0816263288
 20
9.1465257924
 30
0.0
 10
14.0940598243
 20
9.191839605
 30
0.0
 10
14.1069825119
 20
9.2349042333
 30
0.0
 10
14.1203521323
 20
9.2755778707
 30
0.0
 10
14.1341229949
 20
9.3137274011
 30
0.0
 10
14.1482506023
 20
9.3492271796
 30
0.0
 10
14.1604899295
 20
9.3769831337
 30
0.0
 10
14.1704539051
 20
9.397744403
 30
0.0
 10
14.1778524583
 20
9.4123022104
 30
0.0
 10
14.1853046189
 20
9.4261153308
 30
0.0
 10
14.1928047385
 20
9.4391721919
 30
0.0
 10
14.2003465244
 20
9.4514622472
 30
0.0
 10
14.2079236254
 20
9.4629757858
 30
0.0
 10
14.215530019
 20
9.4737033806
 30
0.0
 10
14.2231600444
 20
9.4836360317
 30
0.0
 10
14.2308073356
 20
9.4927661133
 30
0.0
 10
14.2384659234
 20
9.5010865032
 30
0.0
 10
14.2461303721
 20
9.5085901331
 30
0.0
 10
14.2537952486
 20
9.5152706695
 30
0.0
 10
14.2614548235
 20
9.5211229797
 30
0.0
 10
14.2691039455
 20
9.5261418155
 30
0.0
 10
14.276737881
 20
9.5303213141
 30
0.0
 10
14.2843511327
 20
9.5336567602
 30
0.0
 10
14.2919377356
 20
9.53614369
 30
0.0
 10
14.2994915928
 20
9.5377769962
 30
0.0
 10
14.3070035892
 20
9.5385519174
 30
0.0
 10
14.3119908531
 20
9.5384948621
 30
0.0
 10
14.3144570512
 20
9.5383238454
 30
0.0
  0
SPLINE
  5
39A
100
AcDbEntity
  8
0
100
AcDbSpline
 62
7
  6
CONTINUOUS
 70
0
 71
3
 72
9
 73
5
 74
0
 42
0.0000001
 43
0.0000001
 44
0.0000000001
 40
0.0
 40
0.0
 40
0.0
 40
0.0
 40
0.5137008699
 40
1.0
 40
1.0
 40
1.0
 40
1.0
 10
15.018052532
 20
7.5689552047
 30
0.0
 10
15.0199826682
 20
7.5663746695
 30
0.0
 10
15.0238727422
 20
7.5614486656
 30
0.0
 10
15.0280530377
 20
7.5567647449
 30
0.0
 10
15.0301616362
 20
7.5545601855
 30
0.0
  0
SPLINE
  5
39B
100
AcDbEntity
  8
0
100
AcDbSpline
 62
7
  6
CONTINUOUS
 70
0
 71
3
 72
23
 73
19
 74
0
 42
0.0000001
 43
0.0000001
 44
0.0000000001
 40
0.0
 40
0.0
 40
0.0
 40
0.0
 40
0.0430157778
 40
0.086354693
 40
0.1305214035
 40
0.1761197174
 40
0.2238111798
 40
0.2742628933
 40
0.3280895723
 40
0.3857949322
 40
0.4477353844
 40
0.514108715
 40
0.5849549498
 40
0.6601783147
 40
0.7395814076
 40
0.8228946623
 40
0.9098102043
 40
1.0
 40
1.0
 40
1.0
 40
1.0
 10
15.2568399917
 20
9.3431539616
 30
0.0
 10
15.2569428587
 20
9.3383669084
 30
0.0
 10
15.2567004307
 20
9.3287396683
 30
0.0
 10
15.2548407558
 20
9.3143037669
 30
0.0
 10
15.2513364093
 20
9.2998756231
 30
0.0
 10
15.2460448506
 20
9.2854837571
 30
0.0
 10
15.2388423891
 20
9.2711591931
 30
0.0
 10
15.229632376
 20
9.2569332587
 30
0.0
 10
15.2183485792
 20
9.2428348155
 30
0.0
 10
15.2049623805
 20
9.2288868107
 30
0.0
 10
15.1894832865
 20
9.2151064498
 30
0.0
 10
15.1719569804
 20
9.2015079436
 30
0.0
 10
15.1524645642
 20
9.1881005313
 30
0.0
 10
15.1311162257
 20
9.1748885999
 30
0.0
 10
15.1080420213
 20
9.1618738853
 30
0.0
 10
15.0833842058
 20
9.1490536942
 30
0.0
 10
15.057289915
 20
9.1364221089
 30
0.0
 10
15.0393418769
 20
9.1282625068
 30
0.0
 10
15.0301616362
 20
9.1241994708
 30
0.0
  0
SPLINE
  5
39C
100
AcDbEntity
  8
0
100
AcDbSpline
 62
7
  6
CONTINUOUS
 70
0
 71
3
 72
21
 73
17
 74
0
 42
0.0000001
 43
0.0000001
 44
0.0000000001
 40
0.0
 40
0.0
 40
0.0
 40
0.0
 40
0.1231060406
 40
0.1848237375
 40
0.2466645184
 40
0.3086395644
 40
0.3707590064
 40
0.4330312441
 40
0.495460691
 40
0.5580484578
 40
0.6207919038
 40
0.6836843127
 40
0.7467167836
 40
0.809878012
 40
0.8731552189
 40
1.0
 40
1.0
 40
1.0
 40
1.0
 10
15.018052532
 20
9.0864114574
 30
0.0
 10
15.0228817369
 20
9.0514054246
 30
0.0
 10
15.0288263814
 20
8.9986502676
 30
0.0
 10
15.0335915147
 20
8.9279967036
 30
0.0
 10
15.0354490018
 20
8.8747611872
 30
0.0
 10
15.0354532641
 20
8.821377208
 30
0.0
 10
15.0334905221
 20
8.7679040298
 30
0.0
 10
15.0294719714
 20
8.7144143155
 30
0.0
 10
15.0233465439
 20
8.6609890383
 30
0.0
 10
15.015105677
 20
8.6077121841
 30
0.0
 10
15.0047806452
 20
8.554664935
 30
0.0
 10
14.9924434961
 20
8.5019191546
 30
0.0
 10
14.9782007909
 20
8.4495329187
 30
0.0
 10
14.9621800596
 20
8.3975481206
 30
0.0
 10
14.938622143
 20
8.3287566713
 30
0.0
 10
14.9187480965
 20
8.2778947776
 30
0.0
 10
14.9047133542
 20
8.2442976019
 30
0.0
  0
SPLINE
  5
39D
100
AcDbEntity
  8
0
100
AcDbSpline
 62
7
  6
CONTINUOUS
 70
0
 71
3
 72
23
 73
19
 74
0
 42
0.0000001
 43
0.0000001
 44
0.0000000001
 40
0.0
 40
0.0
 40
0.0
 40
0.0
 40
0.0681699712
 40
0.1356231914
 40
0.2022981052
 40
0.2681450185
 40
0.3331245856
 40
0.3972161392
 40
0.460421847
 40
0.5227692631
 40
0.5843122542
 40
0.6451262748
 40
0.7053024714
 40
0.7649410449
 40
0.8241416455
 40
0.8829976249
 40
0.9415942517
 40
1.0
 40
1.0
 40
1.0
 40
1.0
 10
14.9047133542
 20
8.1921145693
 30
0.0
 10
14.9117062035
 20
8.1791604874
 30
0.0
 10
14.9252917232
 20
8.1532101282
 30
0.0
 10
14.944432606
 20
8.113934025
 30
0.0
 10
14.9620900843
 20
8.0745160202
 30
0.0
 10
14.9781155436
 20
8.0349807034
 30
0.0
 10
14.9923665545
 20
7.995361959
 30
0.0
 10
15.0047150091
 20
7.9557045507
 30
0.0
 10
15.015053677
 20
7.9160616983
 30
0.0
 10
15.023309089
 20
7.8764939777
 30
0.0
 10
15.0294483769
 20
7.837065098
 30
0.0
 10
15.0334787593
 20
7.7978364725
 30
0.0
 10
15.0354503778
 20
7.7588631807
 30
0.0
 10
15.0354517446
 20
7.7201897563
 30
0.0
 10
15.0335970824
 20
7.6818479635
 30
0.0
 10
15.0300201536
 20
7.6438561092
 30
0.0
 10
15.024865238
 20
7.606221653
 30
0.0
 10
15.0204666375
 20
7.5813344811
 30
0.0
 10
15.018052532
 20
7.5689552047
 30
0.0
  0
SPLINE
  5
39E
100
AcDbEntity
  8
0
100
AcDbSpline
 62
7
  6
CONTINUOUS
 70
0
 71
3
 72
53
 73
49
 74
0
 42
0.0000001
 43
0.0000001
 44
0.0000000001
 40
0.0
 40
0.0
 40
0.0
 40
0.0
 40
0.0544907941
 40
0.1080979901
 40
0.1606560469
 40
0.2120281743
 40
0.2620877801
 40
0.3107083338
 40
0.3577648707
 40
0.4031412931
 40
0.4467281644
 40
0.4884242193
 40
0.5281359132
 40
0.5657798024
 40
0.6012836806
 40
0.6345877502
 40
0.665648108
 40
0.6944379096
 40
0.7209543149
 40
0.7333678099
 40
0.7452252574
 40
0.7565357423
 40
0.7673110227
 40
0.7775664848
 40
0.7873222128
 40
0.7966027422
 40
0.8054376755
 40
0.8138626756
 40
0.8219206677
 40
0.8296616062
 40
0.8371424982
 40
0.8444272267
 40
0.8515857817
 40
0.858692146
 40
0.8658219848
 40
0.8730502795
 40
0.8804487398
 40
0.8880836296
 40
0.896014725
 40
0.9042948542
 40
0.9129694716
 40
0.9220766823
 40
0.9316484382
 40
0.9417113755
 40
0.9522871625
 40
0.963392516
 40
0.9750406085
 40
1.0
 40
1.0
 40
1.0
 40
1.0
 10
14.9993246149
 20
8.2426209199
 30
0.0
 10
14.9993246149
 20
8.2288485676
 30
0.0
 10
14.9995188103
 20
8.2015267516
 30
0.0
 10
15.0004046489
 20
8.1609297252
 30
0.0
 10
15.0018818397
 20
8.1211384971
 30
0.0
 10
15.0039451387
 20
8.0822711373
 30
0.0
 10
15.0065891628
 20
8.0444363718
 30
0.0
 10
15.0098054029
 20
8.0077405895
 30
0.0
 10
15.0135854338
 20
7.9722885307
 30
0.0
 10
15.0179176521
 20
7.9381815465
 30
0.0
 10
15.0227899399
 20
7.9055164244
 30
0.0
 10
15.028187831
 20
7.8743857923
 30
0.0
 10
15.0340958621
 20
7.844877841
 30
0.0
 10
15.040496976
 20
7.8170760596
 30
0.0
 10
15.0473723943
 20
7.791058674
 30
0.0
 10
15.0547028414
 20
7.766898717
 30
0.0
 10
15.0624666433
 20
7.7446628676
 30
0.0
 10
15.0706429728
 20
7.7244133983
 30
0.0
 10
15.0779325605
 20
7.7089140452
 30
0.0
 10
15.0839819234
 20
7.6975898373
 30
0.0
 10
15.088507459
 20
7.689815839
 30
0.0
 10
15.0931184059
 20
7.6825783053
 30
0.0
 10
15.0978119643
 20
7.6758824323
 30
0.0
 10
15.1025853419
 20
7.6697331082
 30
0.0
 10
15.1074352249
 20
7.6641342842
 30
0.0
 10
15.1123586573
 20
7.6590897857
 30
0.0
 10
15.117352836
 20
7.6546034868
 30
0.0
 10
15.1224152408
 20
7.6506794469
 30
0.0
 10
15.1275426494
 20
7.6473207462
 30
0.0
 10
15.1327319114
 20
7.6445305443
 30
0.0
 10
15.1379796114
 20
7.6423122556
 30
0.0
 10
15.1432818918
 20
7.6406697144
 30
0.0
 10
15.1486337739
 20
7.6396052054
 30
0.0
 10
15.1540298102
 20
7.6391200785
 30
0.0
 10
15.1594643191
 20
7.6392150154
 30
0.0
 10
15.1649315441
 20
7.639890111
 30
0.0
 10
15.1704260784
 20
7.6411435573
 30
0.0
 10
15.1759433177
 20
7.6429724415
 30
0.0
 10
15.181479219
 20
7.6453740563
 30
0.0
 10
15.1870299919
 20
7.6483459467
 30
0.0
 10
15.1925921237
 20
7.6518851732
 30
0.0
 10
15.1981625421
 20
7.6559881093
 30
0.0
 10
15.203737919
 20
7.6606515163
 30
0.0
 10
15.2093147552
 20
7.6658722499
 30
0.0
 10
15.2148892994
 20
7.6716467919
 30
0.0
 10
15.2204584326
 20
7.6779707616
 30
0.0
 10
15.2280469069
 20
7.6873463802
 30
0.0
 10
15.2334481918
 20
7.6948709514
 30
0.0
 10
15.2369715431
 20
7.7001037195
 30
0.0
  0
SPLINE
  5
39F
100
AcDbEntity
  8
0
100
AcDbSpline
 62
7
  6
CONTINUOUS
 70
0
 71
3
 72
9
 73
5
 74
0
 42
0.0000001
 43
0.0000001
 44
0.0000000001
 40
0.0
 40
0.0
 40
0.0
 40
0.0
 40
0.241994066
 40
1.0
 40
1.0
 40
1.0
 40
1.0
 10
15.2369715431
 20
7.7001037195
 30
0.0
 10
15.2379274527
 20
7.7015234058
 30
0.0
 10
15.2418292742
 20
7.7074224951
 30
0.0
 10
15.245543824
 20
7.7134447408
 30
0.0
 10
15.2482672985
 20
7.7180624529
 30
0.0
  0
SPLINE
  5
3A0
100
AcDbEntity
  8
0
100
AcDbSpline
 62
7
  6
CONTINUOUS
 70
0
 71
3
 72
11
 73
7
 74
0
 42
0.0000001
 43
0.0000001
 44
0.0000000001
 40
0.0
 40
0.0
 40
0.0
 40
0.0
 40
0.2702526429
 40
0.5269256595
 40
0.77011137
 40
1.0
 40
1.0
 40
1.0
 40
1.0
 10
15.3481386953
 20
9.1581991476
 30
0.0
 10
15.3464872991
 20
9.1621668237
 30
0.0
 10
15.3431440205
 20
9.1698523321
 30
0.0
 10
15.3378554167
 20
9.1809012598
 30
0.0
 10
15.3324274967
 20
9.1911618674
 30
0.0
 10
15.328613872
 20
9.1976504699
 30
0.0
 10
15.3266806962
 20
9.200753259
 30
0.0
  0
SPLINE
  5
3A1
100
AcDbEntity
  8
0
100
AcDbSpline
 62
7
  6
CONTINUOUS
 70
0
 71
3
 72
54
 73
50
 74
0
 42
0.0000001
 43
0.0000001
 44
0.0000000001
 40
0.0
 40
0.0
 40
0.0
 40
0.0
 40
0.0092108238
 40
0.0178650132
 40
0.0259872228
 40
0.0336098801
 40
0.0407741653
 40
0.0475323476
 40
0.0539489081
 40
0.0601003322
 40
0.0660746808
 40
0.0719689955
 40
0.0778844401
 40
0.0839211615
 40
0.0901728333
 40
0.0967228879
 40
0.10364304
 40
0.1109924399
 40
0.1188183967
 40
0.1271585611
 40
0.1360419749
 40
0.145489763
 40
0.1555174947
 40
0.1661361414
 40
0.177351696
 40
0.1891668474
 40
0.2015819129
 40
0.2145940872
 40
0.2281981172
 40
0.242387453
 40
0.257153694
 40
0.2724862817
 40
0.3048025311
 40
0.3392310852
 40
0.3756484307
 40
0.4139155225
 40
0.4538817316
 40
0.4953846913
 40
0.5382528179
 40
0.5823066415
 40
0.6273592683
 40
0.6732186361
 40
0.7196876114
 40
0.7665663399
 40
0.8136525902
 40
0.8607406718
 40
0.9076288734
 40
0.954121876
 40
1.0
 40
1.0
 40
1.0
 40
1.0
 10
15.3266806962
 20
9.200753259
 30
0.0
 10
15.3247916849
 20
9.2037851632
 30
0.0
 10
15.3209784228
 20
9.2095749271
 30
0.0
 10
15.3149448327
 20
9.2176559158
 30
0.0
 10
15.3087847871
 20
9.2248494953
 30
0.0
 10
15.3025042006
 20
9.2311475831
 30
0.0
 10
15.2961075437
 20
9.2365418532
 30
0.0
 10
15.2895997453
 20
9.2410241121
 30
0.0
 10
15.2829868141
 20
9.2445869507
 30
0.0
 10
15.2762753294
 20
9.2472214147
 30
0.0
 10
15.2694745222
 20
9.2489182352
 30
0.0
 10
15.2625971318
 20
9.2496724788
 30
0.0
 10
15.2556571245
 20
9.249481868
 30
0.0
 10
15.2486687349
 20
9.2483472409
 30
0.0
 10
15.2416440432
 20
9.2462753033
 30
0.0
 10
15.2345921338
 20
9.2432737882
 30
0.0
 10
15.2275206834
 20
9.2393493174
 30
0.0
 10
15.2204359371
 20
9.2345094892
 30
0.0
 10
15.2133434303
 20
9.2287620245
 30
0.0
 10
15.2062496856
 20
9.2221135627
 30
0.0
 10
15.1991616402
 20
9.2145715136
 30
0.0
 10
15.1920856886
 20
9.206144934
 30
0.0
 10
15.1850292663
 20
9.1968429304
 30
0.0
 10
15.1780004686
 20
9.1866753658
 30
0.0
 10
15.1710064874
 20
9.175653983
 30
0.0
 10
15.1640550371
 20
9.1637911831
 30
0.0
 10
15.1571544665
 20
9.1510999689
 30
0.0
 10
15.1503124326
 20
9.13759485
 30
0.0
 10
15.1435364538
 20
9.1232913886
 30
0.0
 10
15.1368346704
 20
9.1082056718
 30
0.0
 10
15.1302148643
 20
9.0923548549
 30
0.0
 10
15.1213516041
 20
9.0698279287
 30
0.0
 10
15.1105693659
 20
9.0398694103
 30
0.0
 10
15.0982899842
 20
9.0017844248
 30
0.0
 10
15.0865113475
 20
8.9611335324
 30
0.0
 10
15.0752873299
 20
8.9181035855
 30
0.0
 10
15.06467104
 20
8.872891767
 30
0.0
 10
15.0547114758
 20
8.8257059411
 30
0.0
 10
15.045454828
 20
8.7767632002
 30
0.0
 10
15.0369446613
 20
8.7262887877
 30
0.0
 10
15.029219753
 20
8.6745152242
 30
0.0
 10
15.0223165187
 20
8.6216810924
 30
0.0
 10
15.0162666911
 20
8.5680298004
 30
0.0
 10
15.0110980635
 20
8.5138085295
 30
0.0
 10
15.0068352619
 20
8.4592677239
 30
0.0
 10
15.0034969582
 20
8.4046588712
 30
0.0
 10
15.0010990504
 20
8.3502308597
 30
0.0
 10
14.9996531894
 20
8.2962387905
 30
0.0
 10
14.9993246149
 20
8.2604137999
 30
0.0
 10
14.9993246149
 20
8.2426209199
 30
0.0
  0
SPLINE
  5
3A2
100
AcDbEntity
  8
0
100
AcDbSpline
 62
7
  6
CONTINUOUS
 70
0
 71
3
 72
23
 73
19
 74
0
 42
0.0000001
 43
0.0000001
 44
0.0000000001
 40
0.0
 40
0.0
 40
0.0
 40
0.0
 40
0.0637764154
 40
0.1273451281
 40
0.190701988
 40
0.253856063
 40
0.3168132283
 40
0.3795820791
 40
0.4421733864
 40
0.5045993414
 40
0.5668738629
 40
0.629012379
 40
0.6910316532
 40
0.7529496461
 40
0.8147853522
 40
0.8765586034
 40
0.9382898574
 40
1.0
 40
1.0
 40
1.0
 40
1.0
 10
7.6985861865
 20
8.7600931158
 30
0.0
 10
7.6985861865
 20
8.753844539
 30
0.0
 10
7.6982870711
 20
8.741365619
 30
0.0
 10
7.696937193
 20
8.7227231812
 30
0.0
 10
7.6946895594
 20
8.7042284681
 30
0.0
 10
7.6915495847
 20
8.6859250243
 30
0.0
 10
7.687524298
 20
8.6678546082
 30
0.0
 10
7.6826230111
 20
8.650058994
 30
0.0
 10
7.6768569986
 20
8.6325791921
 30
0.0
 10
7.6702394304
 20
8.6154555292
 30
0.0
 10
7.6627855888
 20
8.5987274846
 30
0.0
 10
7.6545126507
 20
8.5824336264
 30
0.0
 10
7.6454396241
 20
8.5666115633
 30
0.0
 10
7.6355873836
 20
8.5512978036
 30
0.0
 10
7.6249787197
 20
8.5365276747
 30
0.0
 10
7.6136379571
 20
8.5223351348
 30
0.0
 10
7.6015916441
 20
8.5087534118
 30
0.0
 10
7.5931073365
 20
8.5001254287
 30
0.0
 10
7.5887586296
 20
8.4959248992
 30
0.0
  0
SPLINE
  5
3A3
100
AcDbEntity
  8
0
100
AcDbSpline
 62
7
  6
CONTINUOUS
 70
0
 71
3
 72
23
 73
19
 74
0
 42
0.0000001
 43
0.0000001
 44
0.0000000001
 40
0.0
 40
0.0
 40
0.0
 40
0.0
 40
0.0637772827
 40
0.1273447928
 40
0.1907019891
 40
0.2538561422
 40
0.3168131889
 40
0.3795820982
 40
0.4421733894
 40
0.5045993375
 40
0.5668738648
 40
0.6290123797
 40
0.6910316513
 40
0.752949645
 40
0.814785352
 40
0.8765586
 40
0.9382898524
 40
1.0
 40
1.0
 40
1.0
 40
1.0
 10
12.1370156213
 20
7.7278425764
 30
0.0
 10
12.1370156213
 20
7.7181995609
 30
0.0
 10
12.1365540757
 20
7.6989419791
 30
0.0
 10
12.1344708429
 20
7.6701727336
 30
0.0
 10
12.1310022796
 20
7.6416315731
 30
0.0
 10
12.1261566242
 20
7.6133854178
 30
0.0
 10
12.1199447639
 20
7.5854989126
 30
0.0
 10
12.1123810252
 20
7.5580365043
 30
0.0
 10
12.1034827638
 20
7.5310614682
 30
0.0
 10
12.0932704547
 20
7.5046360115
 30
0.0
 10
12.081767594
 20
7.478821075
 30
0.0
 10
12.069000648
 20
7.4536762024
 30
0.0
 10
12.0549990002
 20
7.4292594123
 30
0.0
 10
12.0397948905
 20
7.4056270241
 30
0.0
 10
12.0234234245
 20
7.3828335973
 30
0.0
 10
12.0059221533
 20
7.3609315362
 30
0.0
 10
11.987332131
 20
7.3399720435
 30
0.0
 10
11.974239022
 20
7.3266572432
 30
0.0
 10
11.9675280355
 20
7.3201749367
 30
0.0
  0
SPLINE
  5
3A4
100
AcDbEntity
  8
0
100
AcDbSpline
 62
7
  6
CONTINUOUS
 70
0
 71
3
 72
19
 73
15
 74
0
 42
0.0000001
 43
0.0000001
 44
0.0000000001
 40
0.0
 40
0.0
 40
0.0
 40
0.0
 40
0.1504611406
 40
0.2916985742
 40
0.4244193292
 40
0.4878835935
 40
0.5495802133
 40
0.6682271463
 40
0.7255606136
 40
0.7817999183
 40
0.8371467056
 40
0.8918136429
 40
0.9460222308
 40
1.0
 40
1.0
 40
1.0
 40
1.0
 10
14.1215247929
 20
9.5165668631
 30
0.0
 10
14.1244423455
 20
9.5193850026
 30
0.0
 10
14.1302734219
 20
9.5246726293
 30
0.0
 10
14.1393022897
 20
9.5317189896
 30
0.0
 10
14.1469285745
 20
9.536702582
 30
0.0
 10
14.1530100625
 20
9.540077328
 30
0.0
 10
14.1589121298
 20
9.5429746398
 30
0.0
 10
14.1648833086
 20
9.5453429185
 30
0.0
 10
14.1708880744
 20
9.5471250803
 30
0.0
 10
14.1753278343
 20
9.5481523421
 30
0.0
 10
14.1797528194
 20
9.5488845149
 30
0.0
 10
14.184161853
 20
9.5493212792
 30
0.0
 10
14.188553157
 20
9.5494624545
 30
0.0
 10
14.1914706153
 20
9.5493592876
 30
0.0
 10
14.192922342
 20
9.5492586148
 30
0.0
  0
SPLINE
  5
3A5
100
AcDbEntity
  8
0
100
AcDbSpline
 62
7
  6
CONTINUOUS
 70
0
 71
3
 72
32
 73
28
 74
0
 42
0.0000001
 43
0.0000001
 44
0.0000000001
 40
0.0
 40
0.0
 40
0.0
 40
0.0
 40
0.0346393043
 40
0.0689362708
 40
0.1028721657
 40
0.1364363599
 40
0.1696273136
 40
0.2024514408
 40
0.2349223193
 40
0.2670592139
 40
0.2988856888
 40
0.3304282744
 40
0.3617151865
 40
0.3927752859
 40
0.4236372338
 40
0.45432882
 40
0.4848764744
 40
0.5153051309
 40
0.5456380974
 40
0.5758967596
 40
0.6362544946
 40
0.696530527
 40
0.7568376549
 40
0.8172683974
 40
0.8778987448
 40
0.9387916829
 40
1.0
 40
1.0
 40
1.0
 40
1.0
 10
11.148051356
 20
8.0225763946
 30
0.0
 10
11.1480497336
 20
8.013002785
 30
0.0
 10
11.148627387
 20
7.9939448503
 30
0.0
 10
11.1512329388
 20
7.9656153468
 30
0.0
 10
11.155551305
 20
7.9377952864
 30
0.0
 10
11.1615341922
 20
7.9105984862
 30
0.0
 10
11.169120747
 20
7.8841244431
 30
0.0
 10
11.1782372165
 20
7.8584584853
 30
0.0
 10
11.1888013043
 20
7.833670706
 30
0.0
 10
11.2007250975
 20
7.8098162544
 30
0.0
 10
11.2139180828
 20
7.7869362271
 30
0.0
 10
11.2282895996
 20
7.7650590393
 30
0.0
 10
11.2437508083
 20
7.7442020577
 30
0.0
 10
11.2602161466
 20
7.7243733506
 30
0.0
 10
11.2776043259
 20
7.7055733965
 30
0.0
 10
11.2958388966
 20
7.6877966795
 30
0.0
 10
11.3148485741
 20
7.6710330082
 30
0.0
 10
11.3345671172
 20
7.6552687784
 30
0.0
 10
11.3549340445
 20
7.6404876842
 30
0.0
 10
11.3828515896
 20
7.6220849796
 30
0.0
 10
11.4191371225
 20
7.6014194914
 30
0.0
 10
11.4644981322
 20
7.5802494791
 30
0.0
 10
11.5113468652
 20
7.5625690848
 30
0.0
 10
11.559422598
 20
7.5482384765
 30
0.0
 10
11.6085058492
 20
7.5371300653
 30
0.0
 10
11.6584033748
 20
7.5291325362
 30
0.0
 10
11.6920101622
 20
7.5258200162
 30
0.0
 10
11.7088863566
 20
7.5246492969
 30
0.0
  0
SPLINE
  5
3A6
100
AcDbEntity
  8
0
100
AcDbSpline
 62
7
  6
CONTINUOUS
 70
0
 71
3
 72
23
 73
19
 74
0
 42
0.0000001
 43
0.0000001
 44
0.0000000001
 40
0.0
 40
0.0
 40
0.0
 40
0.0
 40
0.0596913135
 40
0.1197509222
 40
0.1801779786
 40
0.2409688678
 40
0.3021211318
 40
0.363633506
 40
0.425507841
 40
0.4877499681
 40
0.5503701067
 40
0.6133822693
 40
0.6768013198
 40
0.7406395904
 40
0.8049010439
 40
0.8695743232
 40
0.9346270302
 40
1.0
 40
1.0
 40
1.0
 40
1.0
 10
7.2631990583
 20
8.834160143
 30
0.0
 10
7.2655850121
 20
8.8269567337
 30
0.0
 10
7.2710264135
 20
8.8127120135
 30
0.0
 10
7.2811953095
 20
8.7921498006
 30
0.0
 10
7.2934172288
 20
8.7725663281
 30
0.0
 10
7.3076691157
 20
8.7542269964
 30
0.0
 10
7.3238826763
 20
8.7374002448
 30
0.0
 10
7.3419406749
 20
8.7223502887
 30
0.0
 10
7.3616784178
 20
8.7093255453
 30
0.0
 10
7.3828873788
 20
8.6985481549
 30
0.0
 10
7.4053218577
 20
8.6902048128
 30
0.0
 10
7.428707447
 20
8.6844404338
 30
0.0
 10
7.452749941
 20
8.6813522396
 30
0.0
 10
7.4771450836
 20
8.680987884
 30
0.0
 10
7.5015874366
 20
8.6833425605
 30
0.0
 10
7.5257807531
 20
8.6883608418
 30
0.0
 10
7.5494423747
 20
8.6959353798
 30
0.0
 10
7.5646690439
 20
8.702578045
 30
0.0
 10
7.5721161307
 20
8.7062667053
 30
0.0
  0
SPLINE
  5
3A7
100
AcDbEntity
  8
0
100
AcDbSpline
 62
7
  6
CONTINUOUS
 70
0
 71
3
 72
30
 73
26
 74
0
 42
0.0000001
 43
0.0000001
 44
0.0000000001
 40
0.0
 40
0.0
 40
0.0
 40
0.0
 40
0.031181303
 40
0.062236224
 40
0.0931727594
 40
0.124000593
 40
0.1547312844
 40
0.1853778372
 40
0.2159543263
 40
0.246475956
 40
0.276958707
 40
0.3074188414
 40
0.3378731098
 40
0.3683384069
 40
0.4293572315
 40
0.4906188554
 40
0.5213846831
 40
0.5522566568
 40
0.614364772
 40
0.6770490499
 40
0.7403820129
 40
0.8044003879
 40
0.8690879938
 40
0.9343528123
 40
1.0
 40
1.0
 40
1.0
 40
1.0
 10
11.5998769492
 20
8.364797278
 30
0.0
 10
11.6012136286
 20
8.3572157953
 30
0.0
 10
11.6042359049
 20
8.342143553
 30
0.0
 10
11.6098094104
 20
8.3198171725
 30
0.0
 10
11.6163904007
 20
8.2978574118
 30
0.0
 10
11.623952048
 20
8.2763008738
 30
0.0
 10
11.6324650161
 20
8.2551793455
 30
0.0
 10
11.6418981805
 20
8.2345208834
 30
0.0
 10
11.6522192796
 20
8.2143496423
 30
0.0
 10
11.6633951664
 20
8.1946859587
 30
0.0
 10
11.675392559
 20
8.1755466387
 30
0.0
 10
11.6881784236
 20
8.1569454153
 30
0.0
 10
11.7017205115
 20
8.1388926635
 30
0.0
 10
11.7207500713
 20
8.1155551969
 30
0.0
 10
11.7463013969
 20
8.0877638128
 30
0.0
 10
11.7739231528
 20
8.0619278178
 30
0.0
 10
11.7971658672
 20
8.0424139453
 30
0.0
 10
11.8212393727
 20
8.0235933768
 30
0.0
 10
11.852711219
 20
8.0014814984
 30
0.0
 10
11.8923854859
 20
7.9772737402
 30
0.0
 10
11.9338888911
 20
7.9553313619
 30
0.0
 10
11.9770583516
 20
7.9356627797
 30
0.0
 10
12.0217138026
 20
7.9182927096
 30
0.0
 10
12.0676327686
 20
7.9032684172
 30
0.0
 10
12.0988629818
 20
7.8948720674
 30
0.0
 10
12.1146210169
 20
7.8910804929
 30
0.0
  0
SPLINE
  5
3A8
100
AcDbEntity
  8
0
100
AcDbSpline
 62
7
  6
CONTINUOUS
 70
0
 71
3
 72
15
 73
11
 74
0
 42
0.0000001
 43
0.0000001
 44
0.0000000001
 40
0.0
 40
0.0
 40
0.0
 40
0.0
 40
0.1273483176
 40
0.2538606274
 40
0.3795878627
 40
0.5046051194
 40
0.6290174385
 40
0.7529533738
 40
0.8765605773
 40
1.0
 40
1.0
 40
1.0
 40
1.0
 10
7.5965950616
 20
8.8115772483
 30
0.0
 10
7.5965950616
 20
8.803723756
 30
0.0
 10
7.5958452068
 20
8.7880574701
 30
0.0
 10
7.592454088
 20
8.7648593586
 30
0.0
 10
7.5868310355
 20
8.7422441286
 30
0.0
 10
7.5790268551
 20
8.7204232765
 30
0.0
 10
7.5691130978
 20
8.6995980522
 30
0.0
 10
7.5571801904
 20
8.6799607417
 30
0.0
 10
7.5433403368
 20
8.661695329
 30
0.0
 10
7.5329196293
 20
8.6505377717
 30
0.0
 10
7.5274443472
 20
8.6452490644
 30
0.0
  0
SPLINE
  5
3A9
100
AcDbEntity
  8
0
100
AcDbSpline
 62
7
  6
CONTINUOUS
 70
0
 71
3
 72
37
 73
33
 74
0
 42
0.0000001
 43
0.0000001
 44
0.0000000001
 40
0.0
 40
0.0
 40
0.0
 40
0.0
 40
0.0307113878
 40
0.0615426327
 40
0.0924882489
 40
0.1235467249
 40
0.1547124043
 40
0.1859791226
 40
0.2173394645
 40
0.24878485
 40
0.2803057527
 40
0.3118917528
 40
0.343531687
 40
0.3752137831
 40
0.4069257877
 40
0.4386551029
 40
0.5020928405
 40
0.565446465
 40
0.5970716298
 40
0.6286394823
 40
0.6601390726
 40
0.6915602297
 40
0.7228936903
 40
0.7541312211
 40
0.7852657182
 40
0.816291295
 40
0.8472033699
 40
0.8779987445
 40
0.908675653
 40
0.9392337933
 40
0.9696743483
 40
1.0
 40
1.0
 40
1.0
 40
1.0
 10
7.6151054304
 20
8.7744568926
 30
0.0
 10
7.6151054304
 20
8.7800495336
 30
0.0
 10
7.6147912347
 20
8.7912591051
 30
0.0
 10
7.6133855951
 20
8.8080509313
 30
0.0
 10
7.6110487815
 20
8.8248029403
 30
0.0
 10
7.6077885223
 20
8.8414617815
 30
0.0
 10
7.6036147981
 20
8.8579758168
 30
0.0
 10
7.5985408048
 20
8.8742933053
 30
0.0
 10
7.592582466
 20
8.8903633083
 30
0.0
 10
7.5857584276
 20
8.9061356192
 30
0.0
 10
7.5780900192
 20
8.9215609546
 30
0.0
 10
7.5696012343
 20
8.9365911183
 30
0.0
 10
7.5603186258
 20
8.9511792077
 30
0.0
 10
7.5502713249
 20
8.9652795567
 30
0.0
 10
7.539490301
 20
8.9788484904
 30
0.0
 10
7.5241868094
 20
8.9961705107
 30
0.0
 10
7.5034018409
 20
9.01628324
 30
0.0
 10
7.4806475041
 20
9.034107421
 30
0.0
 10
7.4614377339
 20
9.0468528171
 30
0.0
 10
7.4465802763
 20
9.0556216776
 30
0.0
 10
7.4313136983
 20
9.0635762353
 30
0.0
 10
7.4156852405
 20
9.0706919212
 30
0.0
 10
7.3997438484
 20
9.0769463831
 30
0.0
 10
7.3835393034
 20
9.0823200897
 30
0.0
 10
7.3671222389
 20
9.086796194
 30
0.0
 10
7.3505439414
 20
9.0903606217
 30
0.0
 10
7.3338562268
 20
9.0930021639
 30
0.0
 10
7.3171112479
 20
9.0947125421
 30
0.0
 10
7.3003614013
 20
9.0954863561
 30
0.0
 10
7.2836588669
 20
9.0953210671
 30
0.0
 10
7.2670565991
 20
9.0942171979
 30
0.0
 10
7.2560678487
 20
9.0928550667
 30
0.0
 10
7.2506091705
 20
9.0920185839
 30
0.0
  0
SPLINE
  5
3AA
100
AcDbEntity
  8
0
100
AcDbSpline
 62
7
  6
CONTINUOUS
 70
0
 71
3
 72
41
 73
37
 74
0
 42
0.0000001
 43
0.0000001
 44
0.0000000001
 40
0.0
 40
0.0
 40
0.0
 40
0.0
 40
0.0310747705
 40
0.0623072725
 40
0.0936920139
 40
0.1252208392
 40
0.1568822171
 40
0.1886620102
 40
0.2205435978
 40
0.2525083095
 40
0.2845357945
 40
0.3166044477
 40
0.3486918434
 40
0.3807751835
 40
0.4128317507
 40
0.4448393598
 40
0.4767768022
 40
0.5086242765
 40
0.5403637988
 40
0.5719795854
 40
0.603458402
 40
0.6347898701
 40
0.6659667248
 40
0.6969850144
 40
0.7278442368
 40
0.7585474029
 40
0.7891010235
 40
0.8195150139
 40
0.8498025133
 40
0.8649066328
 40
0.8799853948
 40
0.9100708242
 40
0.9400854817
 40
0.9550762305
 40
0.9700578769
 40
1.0
 40
1.0
 40
1.0
 40
1.0
 10
7.5965950616
 20
8.8115772483
 30
0.0
 10
7.5965950616
 20
8.8176813332
 30
0.0
 10
7.596139692
 20
8.8299251823
 30
0.0
 10
7.5941066812
 20
8.8482323208
 30
0.0
 10
7.5907332995
 20
8.8664319967
 30
0.0
 10
7.586038332
 20
8.8844228938
 30
0.0
 10
7.5800476877
 20
8.9021066241
 30
0.0
 10
7.5727944355
 20
8.9193860189
 30
0.0
 10
7.5643185077
 20
8.9361662801
 30
0.0
 10
7.554666538
 20
8.9523553236
 30
0.0
 10
7.5438915796
 20
8.9678643224
 30
0.0
 10
7.5320528261
 20
8.9826081771
 30
0.0
 10
7.5192152854
 20
8.9965059797
 30
0.0
 10
7.5054494269
 20
9.0094814526
 30
0.0
 10
7.4908307983
 20
9.0214633629
 30
0.0
 10
7.4754396153
 20
9.0323859095
 30
0.0
 10
7.4593603266
 20
9.0421890814
 30
0.0
 10
7.4426811559
 20
9.0508189848
 30
0.0
 10
7.4254936238
 20
9.0582281375
 30
0.0
 10
7.4078920527
 20
9.0643757293
 30
0.0
 10
7.3899730558
 20
9.0692278473
 30
0.0
 10
7.3718350154
 20
9.0727576643
 30
0.0
 10
7.3535775481
 20
9.0749455901
 30
0.0
 10
7.3353009711
 20
9.0757793882
 30
0.0
 10
7.3171057369
 20
9.075254242
 30
0.0
 10
7.2990919615
 20
9.0733728242
 30
0.0
 10
7.2813585984
 20
9.0701451756
 30
0.0
 10
7.2640039241
 20
9.0655891025
 30
0.0
 10
7.2499213261
 20
9.0607004999
 30
0.0
 10
7.2389446394
 20
9.0561541636
 30
0.0
 10
7.2281901102
 20
9.0511987594
 30
0.0
 10
7.2151502321
 20
9.0442330609
 30
0.0
 10
7.202714956
 20
9.0362696627
 30
0.0
 10
7.1931848491
 20
9.0293348171
 30
0.0
 10
7.1839488103
 20
9.0220368888
 30
0.0
 10
7.1773539443
 20
9.0161551134
 30
0.0
 10
7.1731235754
 20
9.0120688979
 30
0.0
  0
SPLINE
  5
3AB
100
AcDbEntity
  8
0
100
AcDbSpline
 62
7
  6
CONTINUOUS
 70
0
 71
3
 72
41
 73
37
 74
0
 42
0.0000001
 43
0.0000001
 44
0.0000000001
 40
0.0
 40
0.0
 40
0.0
 40
0.0
 40
0.0311444435
 40
0.0624425082
 40
0.0938872491
 40
0.1254695823
 40
0.1571771047
 40
0.1889951244
 40
0.2209066755
 40
0.2528929806
 40
0.2849337954
 40
0.3170078208
 40
0.3490931155
 40
0.3811675209
 40
0.4132090884
 40
0.4451965039
 40
0.4771095035
 40
0.5089292748
 40
0.5406388381
 40
0.5722234001
 40
0.6036706745
 40
0.6349711617
 40
0.666118382
 40
0.6971090532
 40
0.7279432083
 40
0.7586242446
 40
0.7891589004
 40
0.819557156
 40
0.849832054
 40
0.8649308927
 40
0.8800050544
 40
0.9100832588
 40
0.9400926743
 40
0.955081275
 40
0.9700610362
 40
1.0
 40
1.0
 40
1.0
 40
1.0
 10
10.9365963754
 20
9.3116480066
 30
0.0
 10
10.9421156948
 20
9.3112652404
 30
0.0
 10
10.9531576454
 20
9.31009381
 30
0.0
 10
10.9695866825
 20
9.3071430254
 30
0.0
 10
10.9858397807
 20
9.3030097622
 30
0.0
 10
11.0018290843
 20
9.2977163896
 30
0.0
 10
11.0174697065
 20
9.2912911844
 30
0.0
 10
11.0326781988
 20
9.2837685638
 30
0.0
 10
11.0473735462
 20
9.2751887082
 30
0.0
 10
11.0614774435
 20
9.2655974365
 30
0.0
 10
11.0749147449
 20
9.2550459244
 30
0.0
 10
11.0876138514
 20
9.2435904486
 30
0.0
 10
11.0995070892
 20
9.2312920834
 30
0.0
 10
11.1105310667
 20
9.21821638
 30
0.0
 10
11.1206270091
 20
9.2044330202
 30
0.0
 10
11.1297410686
 20
9.190015449
 30
0.0
 10
11.1378246095
 20
9.1750404871
 30
0.0
 10
11.1448344659
 20
9.1595879269
 30
0.0
 10
11.1507331707
 20
9.1437401124
 30
0.0
 10
11.1554891562
 20
9.1275815059
 30
0.0
 10
11.159076923
 20
9.1111982443
 30
0.0
 10
11.1614771792
 20
9.0946776858
 30
0.0
 10
11.1626769468
 20
9.0781079496
 30
0.0
 10
11.1626696386
 20
9.061577456
 30
0.0
 10
11.1614550931
 20
9.0451744427
 30
0.0
 10
11.1590396159
 20
9.0289865606
 30
0.0
 10
11.1554358379
 20
9.0131001709
 30
0.0
 10
11.1506630968
 20
8.9976007623
 30
0.0
 10
11.1457272903
 20
8.9850626469
 30
0.0
 10
11.1412230998
 20
8.9753123283
 30
0.0
 10
11.1363622291
 20
8.9657740051
 30
0.0
 10
11.1296131728
 20
8.9542369099
 30
0.0
 10
11.1219960669
 20
8.9432719488
 30
0.0
 10
11.1154138083
 20
8.9348905745
 30
0.0
 10
11.1085174947
 20
8.9267828145
 30
0.0
 10
11.1029923725
 20
8.9210107582
 30
0.0
 10
11.099167068
 20
8.9173157941
 30
0.0
  0
SPLINE
  5
3AC
100
AcDbEntity
  8
0
100
AcDbSpline
 62
7
  6
CONTINUOUS
 70
0
 71
3
 72
41
 73
37
 74
0
 42
0.0000001
 43
0.0000001
 44
0.0000000001
 40
0.0
 40
0.0
 40
0.0
 40
0.0
 40
0.0311444435
 40
0.0624425082
 40
0.0938872491
 40
0.1254695823
 40
0.1571771047
 40
0.1889951244
 40
0.2209066755
 40
0.2528929806
 40
0.2849337954
 40
0.3170078208
 40
0.3490931155
 40
0.3811675209
 40
0.4132090884
 40
0.4451965039
 40
0.4771095035
 40
0.5089292748
 40
0.5406388381
 40
0.5722234001
 40
0.6036706745
 40
0.6349711617
 40
0.666118382
 40
0.6971090532
 40
0.7279432083
 40
0.7586242446
 40
0.7891589004
 40
0.819557156
 40
0.849832054
 40
0.8649308927
 40
0.8800050544
 40
0.9100832588
 40
0.9400926743
 40
0.955081275
 40
0.9700610362
 40
1.0
 40
1.0
 40
1.0
 40
1.0
 10
12.1440037298
 20
9.2279140221
 30
0.0
 10
12.1495230492
 20
9.227531256
 30
0.0
 10
12.1605649998
 20
9.2263598256
 30
0.0
 10
12.1769940369
 20
9.2234090409
 30
0.0
 10
12.1932471351
 20
9.2192757778
 30
0.0
 10
12.2092364388
 20
9.2139824052
 30
0.0
 10
12.2248770609
 20
9.2075572
 30
0.0
 10
12.2400855532
 20
9.2000345794
 30
0.0
 10
12.2547809006
 20
9.1914547238
 30
0.0
 10
12.2688847979
 20
9.1818634521
 30
0.0
 10
12.2823220993
 20
9.17131194
 30
0.0
 10
12.2950212058
 20
9.1598564642
 30
0.0
 10
12.3069144436
 20
9.1475580989
 30
0.0
 10
12.3179384211
 20
9.1344823956
 30
0.0
 10
12.3280343635
 20
9.1206990358
 30
0.0
 10
12.337148423
 20
9.1062814645
 30
0.0
 10
12.3452319639
 20
9.0913065026
 30
0.0
 10
12.3522418203
 20
9.0758539424
 30
0.0
 10
12.3581405251
 20
9.0600061279
 30
0.0
 10
12.3628965106
 20
9.0438475215
 30
0.0
 10
12.3664842774
 20
9.0274642599
 30
0.0
 10
12.3688845336
 20
9.0109437014
 30
0.0
 10
12.3700843012
 20
8.9943739652
 30
0.0
 10
12.370076993
 20
8.9778434716
 30
0.0
 10
12.3688624475
 20
8.9614404583
 30
0.0
 10
12.3664469703
 20
8.9452525762
 30
0.0
 10
12.3628431923
 20
8.9293661865
 30
0.0
 10
12.3580704512
 20
8.9138667779
 30
0.0
 10
12.3531346448
 20
8.9013286625
 30
0.0
 10
12.3486304542
 20
8.8915783439
 30
0.0
 10
12.3437695835
 20
8.8820400207
 30
0.0
 10
12.3370205272
 20
8.8705029255
 30
0.0
 10
12.3294034213
 20
8.8595379644
 30
0.0
 10
12.3228211627
 20
8.8511565901
 30
0.0
 10
12.3159248491
 20
8.8430488301
 30
0.0
 10
12.3103997269
 20
8.8372767738
 30
0.0
 10
12.3065744224
 20
8.8335818096
 30
0.0
  0
SPLINE
  5
3AD
100
AcDbEntity
  8
0
100
AcDbSpline
 62
7
  6
CONTINUOUS
 70
0
 71
3
 72
41
 73
37
 74
0
 42
0.0000001
 43
0.0000001
 44
0.0000000001
 40
0.0
 40
0.0
 40
0.0
 40
0.0
 40
0.0311444435
 40
0.0624425082
 40
0.0938872491
 40
0.1254695823
 40
0.1571771047
 40
0.1889951244
 40
0.2209066755
 40
0.2528929806
 40
0.2849337954
 40
0.3170078208
 40
0.3490931155
 40
0.3811675209
 40
0.4132090884
 40
0.4451965039
 40
0.4771095035
 40
0.5089292748
 40
0.5406388381
 40
0.5722234001
 40
0.6036706745
 40
0.6349711617
 40
0.666118382
 40
0.6971090532
 40
0.7279432083
 40
0.7586242446
 40
0.7891589004
 40
0.819557156
 40
0.849832054
 40
0.8649308927
 40
0.8800050544
 40
0.9100832588
 40
0.9400926743
 40
0.955081275
 40
0.9700610362
 40
1.0
 40
1.0
 40
1.0
 40
1.0
 10
10.9365963754
 20
6.7770584758
 30
0.0
 10
10.9421156948
 20
6.7766757097
 30
0.0
 10
10.9531576454
 20
6.7755042792
 30
0.0
 10
10.9695866825
 20
6.7725534946
 30
0.0
 10
10.9858397807
 20
6.7684202314
 30
0.0
 10
11.0018290843
 20
6.7631268588
 30
0.0
 10
11.0174697065
 20
6.7567016536
 30
0.0
 10
11.0326781988
 20
6.749179033
 30
0.0
 10
11.0473735462
 20
6.7405991774
 30
0.0
 10
11.0614774435
 20
6.7310079057
 30
0.0
 10
11.0749147449
 20
6.7204563936
 30
0.0
 10
11.0876138514
 20
6.7090009178
 30
0.0
 10
11.0995070892
 20
6.6967025526
 30
0.0
 10
11.1105310667
 20
6.6836268492
 30
0.0
 10
11.1206270091
 20
6.6698434894
 30
0.0
 10
11.1297410686
 20
6.6554259182
 30
0.0
 10
11.1378246095
 20
6.6404509563
 30
0.0
 10
11.1448344659
 20
6.6249983961
 30
0.0
 10
11.1507331707
 20
6.6091505816
 30
0.0
 10
11.1554891562
 20
6.5929919751
 30
0.0
 10
11.159076923
 20
6.5766087135
 30
0.0
 10
11.1614771792
 20
6.560088155
 30
0.0
 10
11.1626769468
 20
6.5435184188
 30
0.0
 10
11.1626696386
 20
6.5269879253
 30
0.0
 10
11.1614550931
 20
6.5105849119
 30
0.0
 10
11.1590396159
 20
6.4943970298
 30
0.0
 10
11.1554358379
 20
6.4785106401
 30
0.0
 10
11.1506630968
 20
6.4630112315
 30
0.0
 10
11.1457272903
 20
6.4504731161
 30
0.0
 10
11.1412230998
 20
6.4407227975
 30
0.0
 10
11.1363622291
 20
6.4311844743
 30
0.0
 10
11.1296131728
 20
6.4196473791
 30
0.0
 10
11.1219960669
 20
6.408682418
 30
0.0
 10
11.1154138083
 20
6.4003010437
 30
0.0
 10
11.1085174947
 20
6.3921932837
 30
0.0
 10
11.1029923725
 20
6.3864212274
 30
0.0
 10
11.099167068
 20
6.3827262633
 30
0.0
  0
SPLINE
  5
3AE
100
AcDbEntity
  8
0
100
AcDbSpline
 62
7
  6
CONTINUOUS
 70
0
 71
3
 72
41
 73
37
 74
0
 42
0.0000001
 43
0.0000001
 44
0.0000000001
 40
0.0
 40
0.0
 40
0.0
 40
0.0
 40
0.0311444435
 40
0.0624425082
 40
0.0938872491
 40
0.1254695823
 40
0.1571771047
 40
0.1889951244
 40
0.2209066755
 40
0.2528929806
 40
0.2849337954
 40
0.3170078208
 40
0.3490931155
 40
0.3811675209
 40
0.4132090884
 40
0.4451965039
 40
0.4771095035
 40
0.5089292748
 40
0.5406388381
 40
0.5722234001
 40
0.6036706745
 40
0.6349711617
 40
0.666118382
 40
0.6971090532
 40
0.7279432083
 40
0.7586242446
 40
0.7891589004
 40
0.819557156
 40
0.849832054
 40
0.8649308927
 40
0.8800050544
 40
0.9100832588
 40
0.9400926743
 40
0.955081275
 40
0.9700610362
 40
1.0
 40
1.0
 40
1.0
 40
1.0
 10
12.1440037298
 20
6.6933244913
 30
0.0
 10
12.1495230492
 20
6.6929417252
 30
0.0
 10
12.1605649998
 20
6.6917702948
 30
0.0
 10
12.1769940369
 20
6.6888195101
 30
0.0
 10
12.1932471351
 20
6.684686247
 30
0.0
 10
12.2092364388
 20
6.6793928744
 30
0.0
 10
12.2248770609
 20
6.6729676692
 30
0.0
 10
12.2400855532
 20
6.6654450486
 30
0.0
 10
12.2547809006
 20
6.656865193
 30
0.0
 10
12.2688847979
 20
6.6472739213
 30
0.0
 10
12.2823220993
 20
6.6367224092
 30
0.0
 10
12.2950212058
 20
6.6252669334
 30
0.0
 10
12.3069144436
 20
6.6129685681
 30
0.0
 10
12.3179384211
 20
6.5998928648
 30
0.0
 10
12.3280343635
 20
6.586109505
 30
0.0
 10
12.337148423
 20
6.5716919337
 30
0.0
 10
12.3452319639
 20
6.5567169718
 30
0.0
 10
12.3522418203
 20
6.5412644116
 30
0.0
 10
12.3581405251
 20
6.5254165971
 30
0.0
 10
12.3628965106
 20
6.5092579907
 30
0.0
 10
12.3664842774
 20
6.4928747291
 30
0.0
 10
12.3688845336
 20
6.4763541706
 30
0.0
 10
12.3700843012
 20
6.4597844344
 30
0.0
 10
12.370076993
 20
6.4432539408
 30
0.0
 10
12.3688624475
 20
6.4268509275
 30
0.0
 10
12.3664469703
 20
6.4106630454
 30
0.0
 10
12.3628431923
 20
6.3947766557
 30
0.0
 10
12.3580704512
 20
6.3792772471
 30
0.0
 10
12.3531346448
 20
6.3667391317
 30
0.0
 10
12.3486304542
 20
6.3569888131
 30
0.0
 10
12.3437695835
 20
6.3474504899
 30
0.0
 10
12.3370205272
 20
6.3359133947
 30
0.0
 10
12.3294034213
 20
6.3249484336
 30
0.0
 10
12.3228211627
 20
6.3165670593
 30
0.0
 10
12.3159248491
 20
6.3084592993
 30
0.0
 10
12.3103997269
 20
6.302687243
 30
0.0
 10
12.3065744224
 20
6.2989922788
 30
0.0
  0
SPLINE
  5
3AF
100
AcDbEntity
  8
0
100
AcDbSpline
 62
7
  6
CONTINUOUS
 70
0
 71
3
 72
53
 73
49
 74
0
 42
0.0000001
 43
0.0000001
 44
0.0000000001
 40
0.0
 40
0.0
 40
0.0
 40
0.0
 40
0.0077405415
 40
0.0160545889
 40
0.0249609011
 40
0.0344724222
 40
0.0445958437
 40
0.0553328932
 40
0.066681244
 40
0.0786354248
 40
0.091186832
 40
0.104324527
 40
0.1180352334
 40
0.1323037938
 40
0.147113273
 40
0.1624451037
 40
0.1945935609
 40
0.2285755282
 40
0.2641981904
 40
0.3012537768
 40
0.3395220343
 40
0.3787724906
 40
0.4187665936
 40
0.4592597761
 40
0.5000034789
 40
0.5407471502
 40
0.5812402375
 40
0.6212341806
 40
0.6604844129
 40
0.6987523844
 40
0.7358076264
 40
0.7714298907
 40
0.8054114126
 40
0.8375593835
 40
0.8528909453
 40
0.8677001653
 40
0.8819684229
 40
0.8956788619
 40
0.9088162332
 40
0.9213673563
 40
0.9333212102
 40
0.9446692693
 40
0.9554059878
 40
0.9655290592
 40
0.9750403692
 40
0.9839464156
 40
0.9922597561
 40
1.0
 40
1.0
 40
1.0
 40
1.0
 10
12.1832770383
 20
10.0493920287
 30
0.0
 10
12.1822238256
 20
10.048411977
 30
0.0
 10
12.1799565317
 20
10.0464672017
 30
0.0
 10
12.1762371786
 20
10.0436895895
 30
0.0
 10
12.1720866946
 20
10.040953899
 30
0.0
 10
12.1675119526
 20
10.0382644689
 30
0.0
 10
12.1625200156
 20
10.0356252609
 30
0.0
 10
12.1571188071
 20
10.0330405963
 30
0.0
 10
12.151317032
 20
10.0305145492
 30
0.0
 10
12.1451240352
 20
10.0280513326
 30
0.0
 10
12.1385498848
 20
10.0256548944
 30
0.0
 10
12.1316052784
 20
10.0233292642
 30
0.0
 10
12.1243015713
 20
10.02107823
 30
0.0
 10
12.1166507217
 20
10.0189055489
 30
0.0
 10
12.1086652644
 20
10.0168147857
 30
0.0
 10
12.0974106972
 20
10.0140979838
 30
0.0
 10
12.0825981959
 20
10.0109472765
 30
0.0
 10
12.0639819693
 20
10.0076005889
 30
0.0
 10
12.044375739
 20
10.0046533993
 30
0.0
 10
12.0239084337
 20
10.0021254126
 30
0.0
 10
12.0027144991
 20
10.000033596
 30
0.0
 10
11.9809333555
 20
9.9983919502
 30
0.0
 10
11.9587083354
 20
9.9972114604
 30
0.0
 10
11.9361857474
 20
9.9965000193
 30
0.0
 10
11.9135138861
 20
9.9962623825
 30
0.0
 10
11.8908420438
 20
9.996500139
 30
0.0
 10
11.8683195128
 20
9.9972117009
 30
0.0
 10
11.8460945883
 20
9.9983923111
 30
0.0
 10
11.8243135785
 20
10.0000340754
 30
0.0
 10
11.8031198148
 20
10.0021260076
 30
0.0
 10
11.7826527158
 20
10.0046541057
 30
0.0
 10
11.7630467244
 20
10.0076014008
 30
0.0
 10
11.7444307672
 20
10.0109481896
 30
0.0
 10
11.7296185094
 20
10.014098971
 30
0.0
 10
11.7183641532
 20
10.0168158429
 30
0.0
 10
11.7103788634
 20
10.018906637
 30
0.0
 10
11.7027281909
 20
10.0210793769
 30
0.0
 10
11.6954246631
 20
10.0233304294
 30
0.0
 10
11.6884802485
 20
10.02565612
 30
0.0
 10
11.6819062876
 20
10.028052571
 30
0.0
 10
11.6757134918
 20
10.0305158395
 30
0.0
 10
11.6699119191
 20
10.0330419092
 30
0.0
 10
11.6645109235
 20
10.0356266003
 30
0.0
 10
11.6595191899
 20
10.0382658378
 30
0.0
 10
11.654944643
 20
10.0409552994
 30
0.0
 10
11.6507944473
 20
10.0436910248
 30
0.0
 10
11.6470753205
 20
10.0464685462
 30
0.0
 10
11.644808262
 20
10.0484133116
 30
0.0
 10
11.6437551315
 20
10.0493933706
 30
0.0
  0
SPLINE
  5
3B0
100
AcDbEntity
  8
0
100
AcDbSpline
 62
7
  6
CONTINUOUS
 70
0
 71
3
 72
23
 73
19
 74
0
 42
0.0000001
 43
0.0000001
 44
0.0000000001
 40
0.0
 40
0.0
 40
0.0
 40
0.0
 40
0.0489756609
 40
0.0983523922
 40
0.1485209303
 40
0.19985204
 40
0.2526897958
 40
0.3073464858
 40
0.3641006581
 40
0.4231969909
 40
0.4848471044
 40
0.5492327321
 40
0.6165071105
 40
0.6867993929
 40
0.7602159041
 40
0.8368440412
 40
0.9167537827
 40
1.0
 40
1.0
 40
1.0
 40
1.0
 10
14.0501272438
 20
7.4902040878
 30
0.0
 10
14.0481138252
 20
7.4903437122
 30
0.0
 10
14.0440811815
 20
7.4908147489
 30
0.0
 10
14.0380866004
 20
7.4920899705
 30
0.0
 10
14.0321399682
 20
7.4939337625
 30
0.0
 10
14.0262458612
 20
7.4963438912
 30
0.0
 10
14.0204076479
 20
7.4993181401
 30
0.0
 10
14.0146284885
 20
7.5028538329
 30
0.0
 10
14.0089112344
 20
7.506948264
 30
0.0
 10
14.0032586357
 20
7.5115986581
 30
0.0
 10
13.9976732292
 20
7.5168020102
 30
0.0
 10
13.9921577331
 20
7.5225553643
 30
0.0
 10
13.9867146261
 20
7.5288553696
 30
0.0
 10
13.9813466716
 20
7.5356986674
 30
0.0
 10
13.9760564247
 20
7.5430814753
 30
0.0
 10
13.9708466157
 20
7.5509998968
 30
0.0
 10
13.9657199629
 20
7.5594495595
 30
0.0
 10
13.9624271461
 20
7.5653131678
 30
0.0
 10
13.9607931465
 20
7.5683295427
 30
0.0
  0
SPLINE
  5
3B1
100
AcDbEntity
  8
0
100
AcDbSpline
 62
7
  6
CONTINUOUS
 70
0
 71
3
 72
59
 73
55
 74
0
 42
0.0000001
 43
0.0000001
 44
0.0000000001
 40
0.0
 40
0.0
 40
0.0
 40
0.0
 40
0.0087793786
 40
0.0181044699
 40
0.0279781909
 40
0.0384002045
 40
0.0493673976
 40
0.0608742509
 40
0.0729131974
 40
0.0854748671
 40
0.0985482462
 40
0.1121208791
 40
0.1261790206
 40
0.1407077149
 40
0.1556909044
 40
0.1711115467
 40
0.1869516717
 40
0.2031924316
 40
0.2198142012
 40
0.2367966311
 40
0.2541186744
 40
0.2717586641
 40
0.3079024842
 40
0.3450447269
 40
0.3829945085
 40
0.4215554165
 40
0.4605269349
 40
0.4997058069
 40
0.5388873974
 40
0.5778670532
 40
0.6164414657
 40
0.6544100233
 40
0.691576193
 40
0.7277489226
 40
0.7454051729
 40
0.7627446403
 40
0.7797456328
 40
0.7963870664
 40
0.812648548
 40
0.8285104186
 40
0.843953791
 40
0.8589606358
 40
0.8735138649
 40
0.8875973734
 40
0.9011961343
 40
0.9142963354
 40
0.9268854585
 40
0.9389524057
 40
0.9504877061
 40
0.9614837017
 40
0.9719347602
 40
0.9818376136
 40
0.9911917932
 40
1.0
 40
1.0
 40
1.0
 40
1.0
 10
13.9607931465
 20
7.5683295427
 30
0.0
 10
13.9580540998
 20
7.5733858421
 30
0.0
 10
13.9526705664
 20
7.5839576564
 30
0.0
 10
13.9450723818
 20
7.6006393058
 30
0.0
 10
13.9377190495
 20
7.6185983956
 30
0.0
 10
13.9306209049
 20
7.6378100382
 30
0.0
 10
13.923787656
 20
7.6582482024
 30
0.0
 10
13.9172287782
 20
7.6798848037
 30
0.0
 10
13.9109534171
 20
7.7026900809
 30
0.0
 10
13.9049703826
 20
7.7266325622
 30
0.0
 10
13.8992880344
 20
7.7516791191
 30
0.0
 10
13.8939143375
 20
7.7777950423
 30
0.0
 10
13.8888568619
 20
7.8049441094
 30
0.0
 10
13.8841227071
 20
7.8330886183
 30
0.0
 10
13.8797185037
 20
7.8621894505
 30
0.0
 10
13.8756504528
 20
7.8922061479
 30
0.0
 10
13.8719242853
 20
7.9230969593
 30
0.0
 10
13.8685452121
 20
7.9548188928
 30
0.0
 10
13.8655179802
 20
7.9873277979
 30
0.0
 10
13.8628468777
 20
8.0205784095
 30
0.0
 10
13.8605355985
 20
8.0545244685
 30
0.0
 10
13.8579170006
 20
8.1010262772
 30
0.0
 10
13.8555857399
 20
8.1605428201
 30
0.0
 10
13.8542831653
 20
8.2333961084
 30
0.0
 10
13.8544615777
 20
8.3078439327
 30
0.0
 10
13.8561202324
 20
8.3834716766
 30
0.0
 10
13.8592502093
 20
8.4598584398
 30
0.0
 10
13.863834243
 20
8.5365789506
 30
0.0
 10
13.8698468324
 20
8.6132060875
 30
0.0
 10
13.8772544993
 20
8.6893132511
 30
0.0
 10
13.8860158167
 20
8.7644767487
 30
0.0
 10
13.8960817561
 20
8.8382783019
 30
0.0
 10
13.9073959815
 20
8.9103069291
 30
0.0
 10
13.9178943401
 20
8.9689825631
 30
0.0
 10
13.9268868165
 20
9.0147234771
 30
0.0
 10
13.9338476746
 20
9.0480634408
 30
0.0
 10
13.9410694332
 20
9.0806673851
 30
0.0
 10
13.9485420729
 20
9.1124899442
 30
0.0
 10
13.9562551281
 20
9.1434868139
 30
0.0
 10
13.9641978085
 20
9.1736148641
 30
0.0
 10
13.9723590271
 20
9.202832169
 30
0.0
 10
13.9807273831
 20
9.2310980902
 30
0.0
 10
13.9892911548
 20
9.2583733438
 30
0.0
 10
13.9980383747
 20
9.2846200318
 30
0.0
 10
14.0069568403
 20
9.3098017053
 30
0.0
 10
14.0160340648
 20
9.3338834503
 30
0.0
 10
14.0252573646
 20
9.3568319143
 30
0.0
 10
14.0346139003
 20
9.3786153489
 30
0.0
 10
14.0440906265
 20
9.3992036998
 30
0.0
 10
14.0536743695
 20
9.4185686685
 30
0.0
 10
14.0633518587
 20
9.4366836557
 30
0.0
 10
14.0731099095
 20
9.4535241157
 30
0.0
 10
14.0829348626
 20
9.4690667053
 30
0.0
 10
14.0897239014
 20
9.4788419277
 30
0.0
 10
14.093133693
 20
9.4834958925
 30
0.0
  0
LINE
  5
3B2
100
AcDbEntity
  8
0
100
AcDbLine
 62
7
  6
CONTINUOUS
 10
14.093133693
 20
9.4834958925
 11
14.0935365169
 21
9.4840445466
  0
SPLINE
  5
3B3
100
AcDbEntity
  8
0
100
AcDbSpline
 62
7
  6
CONTINUOUS
 70
0
 71
3
 72
11
 73
7
 74
0
 42
0.0000001
 43
0.0000001
 44
0.0000000001
 40
0.0
 40
0.0
 40
0.0
 40
0.0
 40
0.2677722595
 40
0.5235342294
 40
0.7675168939
 40
1.0
 40
1.0
 40
1.0
 40
1.0
 10
14.0935365169
 20
9.4840445466
 30
0.0
 10
14.0958086563
 20
9.4871327422
 30
0.0
 10
14.1003539689
 20
9.493095909
 30
0.0
 10
14.1073447527
 20
9.5015787689
 30
0.0
 10
14.1143459548
 20
9.5093868476
 30
0.0
 10
14.1191305911
 20
9.5142542416
 30
0.0
 10
14.1215247929
 20
9.5165668631
 30
0.0
  0
SPLINE
  5
3B4
100
AcDbEntity
  8
0
100
AcDbSpline
 62
7
  6
CONTINUOUS
 70
0
 71
3
 72
16
 73
12
 74
0
 42
0.0000001
 43
0.0000001
 44
0.0000000001
 40
0.0
 40
0.0
 40
0.0
 40
0.0
 40
0.1258439759
 40
0.2518852863
 40
0.3779361586
 40
0.5037770711
 40
0.6291624186
 40
0.7538303705
 40
0.8158232456
 40
0.877538665
 40
1.0
 40
1.0
 40
1.0
 40
1.0
 10
11.235049534
 20
8.3151054096
 30
0.0
 10
11.2283603949
 20
8.304007075
 30
0.0
 10
11.2155848558
 20
8.2814158987
 30
0.0
 10
11.1984272938
 20
8.2464608919
 30
0.0
 10
11.1834490143
 20
8.2105143965
 30
0.0
 10
11.1708487326
 20
8.17373557
 30
0.0
 10
11.1608132489
 20
8.1363213157
 30
0.0
 10
11.154712855
 20
8.1047424666
 30
0.0
 10
11.1512683393
 20
8.0793942546
 30
0.0
 10
11.1488061214
 20
8.0541615662
 30
0.0
 10
11.148051356
 20
8.0351863829
 30
0.0
 10
11.148051356
 20
8.0225763946
 30
0.0
  0
SPLINE
  5
3B5
100
AcDbEntity
  8
0
100
AcDbSpline
 62
7
  6
CONTINUOUS
 70
0
 71
3
 72
39
 73
35
 74
0
 42
0.0000001
 43
0.0000001
 44
0.0000000001
 40
0.0
 40
0.0
 40
0.0
 40
0.0
 40
0.0299424706
 40
0.059909318
 40
0.0899243245
 40
0.120010104
 40
0.1501875638
 40
0.1804754172
 40
0.2108897627
 40
0.2414437402
 40
0.2721472662
 40
0.3030068506
 40
0.3340255036
 40
0.3652027233
 40
0.3965345594
 40
0.4280137458
 40
0.459629903
 40
0.4913697971
 40
0.523217645
 40
0.5551554619
 40
0.5871634456
 40
0.6192203877
 40
0.6513041028
 40
0.6833918731
 40
0.7154609003
 40
0.7474887587
 40
0.7794538419
 40
0.8113358007
 40
0.8431159608
 40
0.874777714
 40
0.9063068772
 40
0.9376920832
 40
0.968924649
 40
1.0
 40
1.0
 40
1.0
 40
1.0
 10
11.0990958527
 20
8.2192442005
 30
0.0
 10
11.109464396
 20
8.229259431
 30
0.0
 10
11.1310168126
 20
8.2484815892
 30
0.0
 10
11.1655471128
 20
8.2746683872
 30
0.0
 10
11.2021026026
 20
8.2980776875
 30
0.0
 10
11.2404790296
 20
8.3185781708
 30
0.0
 10
11.2804654258
 20
8.3360577913
 30
0.0
 10
11.3218410919
 20
8.3504204955
 30
0.0
 10
11.3643780186
 20
8.3615877208
 30
0.0
 10
11.4078418645
 20
8.3694984897
 30
0.0
 10
11.451993332
 20
8.3741097838
 30
0.0
 10
11.4965894563
 20
8.3753968488
 30
0.0
 10
11.5413849717
 20
8.3733532038
 30
0.0
 10
11.5861336439
 20
8.3679906294
 30
0.0
 10
11.6305895983
 20
8.3593390748
 30
0.0
 10
11.6745086777
 20
8.3474465922
 30
0.0
 10
11.7176497574
 20
8.3323789525
 30
0.0
 10
11.7597760399
 20
8.3142192642
 30
0.0
 10
11.8006563231
 20
8.2930675109
 30
0.0
 10
11.8400663065
 20
8.2690401067
 30
0.0
 10
11.8777897671
 20
8.2422691584
 30
0.0
 10
11.9136197194
 20
8.2129017403
 30
0.0
 10
11.9473595258
 20
8.1810990965
 30
0.0
 10
11.9788240456
 20
8.1470358485
 30
0.0
 10
12.0078405746
 20
8.1108989611
 30
0.0
 10
12.0342497719
 20
8.0728867275
 30
0.0
 10
12.057906519
 20
8.033207702
 30
0.0
 10
12.0786808123
 20
7.9920796205
 30
0.0
 10
12.0964583843
 20
7.9497281838
 30
0.0
 10
12.1111413146
 20
7.9063857388
 30
0.0
 10
12.1226485999
 20
7.8622903901
 30
0.0
 10
12.1309165773
 20
7.8176834584
 30
0.0
 10
12.1358995551
 20
7.7728130493
 30
0.0
 10
12.1370156213
 20
7.7428036663
 30
0.0
 10
12.1370156213
 20
7.7278425764
 30
0.0
  0
SPLINE
  5
3B6
100
AcDbEntity
  8
0
100
AcDbSpline
 62
7
  6
CONTINUOUS
 70
0
 71
3
 72
19
 73
15
 74
0
 42
0.0000001
 43
0.0000001
 44
0.0000000001
 40
0.0
 40
0.0
 40
0.0
 40
0.0
 40
0.0616584462
 40
0.1233399329
 40
0.1850672163
 40
0.2468625637
 40
0.3087474953
 40
0.370742507
 40
0.4328668993
 40
0.495138574
 40
0.6201443378
 40
0.7459117844
 40
0.8725152897
 40
1.0
 40
1.0
 40
1.0
 40
1.0
 10
11.9814330371
 20
6.6356033903
 30
0.0
 10
11.9840589978
 20
6.6381398761
 30
0.0
 10
11.9894494772
 20
6.6430735577
 30
0.0
 10
11.9979228969
 20
6.6500302251
 30
0.0
 10
12.0067642886
 20
6.6565270377
 30
0.0
 10
12.0159510071
 20
6.6625474245
 30
0.0
 10
12.0254600662
 20
6.6680762251
 30
0.0
 10
12.0352673616
 20
6.6730994999
 30
0.0
 10
12.0453485266
 20
6.6776047733
 30
0.0
 10
12.0591357856
 20
6.6829117273
 30
0.0
 10
12.0769414665
 20
6.6881952669
 30
0.0
 10
12.0989465778
 20
6.6923000276
 30
0.0
 10
12.121400914
 20
6.694140745
 30
0.0
 10
12.136473132
 20
6.6938467401
 30
0.0
 10
12.1440037298
 20
6.6933244913
 30
0.0
  0
SPLINE
  5
3B7
100
AcDbEntity
  8
0
100
AcDbSpline
 62
7
  6
CONTINUOUS
 70
0
 71
3
 72
19
 73
15
 74
0
 42
0.0000001
 43
0.0000001
 44
0.0000000001
 40
0.0
 40
0.0
 40
0.0
 40
0.0
 40
0.0616584462
 40
0.1233399329
 40
0.1850672163
 40
0.2468625637
 40
0.3087474953
 40
0.370742507
 40
0.4328668993
 40
0.495138574
 40
0.6201443378
 40
0.7459117844
 40
0.8725152897
 40
1.0
 40
1.0
 40
1.0
 40
1.0
 10
10.7740256827
 20
6.7193373748
 30
0.0
 10
10.7766516434
 20
6.7218738606
 30
0.0
 10
10.7820421228
 20
6.7268075421
 30
0.0
 10
10.7905155425
 20
6.7337642095
 30
0.0
 10
10.7993569342
 20
6.7402610221
 30
0.0
 10
10.8085436527
 20
6.7462814089
 30
0.0
 10
10.8180527118
 20
6.7518102096
 30
0.0
 10
10.8278600072
 20
6.7568334844
 30
0.0
 10
10.8379411722
 20
6.7613387577
 30
0.0
 10
10.8517284312
 20
6.7666457117
 30
0.0
 10
10.8695341121
 20
6.7719292513
 30
0.0
 10
10.8915392234
 20
6.776034012
 30
0.0
 10
10.9139935596
 20
6.7778747294
 30
0.0
 10
10.9290657776
 20
6.7775807245
 30
0.0
 10
10.9365963754
 20
6.7770584758
 30
0.0
  0
SPLINE
  5
3B8
100
AcDbEntity
  8
0
100
AcDbSpline
 62
7
  6
CONTINUOUS
 70
0
 71
3
 72
19
 73
15
 74
0
 42
0.0000001
 43
0.0000001
 44
0.0000000001
 40
0.0
 40
0.0
 40
0.0
 40
0.0
 40
0.0616584462
 40
0.1233399329
 40
0.1850672163
 40
0.2468625637
 40
0.3087474953
 40
0.370742507
 40
0.4328668993
 40
0.495138574
 40
0.6201443378
 40
0.7459117844
 40
0.8725152897
 40
1.0
 40
1.0
 40
1.0
 40
1.0
 10
11.9814330371
 20
9.1701929211
 30
0.0
 10
11.9840589978
 20
9.1727294069
 30
0.0
 10
11.9894494772
 20
9.1776630885
 30
0.0
 10
11.9979228969
 20
9.1846197559
 30
0.0
 10
12.0067642886
 20
9.1911165685
 30
0.0
 10
12.0159510071
 20
9.1971369553
 30
0.0
 10
12.0254600662
 20
9.2026657559
 30
0.0
 10
12.0352673616
 20
9.2076890307
 30
0.0
 10
12.0453485266
 20
9.2121943041
 30
0.0
 10
12.0591357856
 20
9.2175012581
 30
0.0
 10
12.0769414665
 20
9.2227847977
 30
0.0
 10
12.0989465778
 20
9.2268895584
 30
0.0
 10
12.121400914
 20
9.2287302758
 30
0.0
 10
12.136473132
 20
9.2284362709
 30
0.0
 10
12.1440037298
 20
9.2279140221
 30
0.0
  0
SPLINE
  5
3B9
100
AcDbEntity
  8
0
100
AcDbSpline
 62
7
  6
CONTINUOUS
 70
0
 71
3
 72
19
 73
15
 74
0
 42
0.0000001
 43
0.0000001
 44
0.0000000001
 40
0.0
 40
0.0
 40
0.0
 40
0.0
 40
0.0616584462
 40
0.1233399329
 40
0.1850672163
 40
0.2468625637
 40
0.3087474953
 40
0.370742507
 40
0.4328668993
 40
0.495138574
 40
0.6201443378
 40
0.7459117844
 40
0.8725152897
 40
1.0
 40
1.0
 40
1.0
 40
1.0
 10
10.7740256827
 20
9.2539269056
 30
0.0
 10
10.7766516434
 20
9.2564633914
 30
0.0
 10
10.7820421228
 20
9.2613970729
 30
0.0
 10
10.7905155425
 20
9.2683537403
 30
0.0
 10
10.7993569342
 20
9.2748505529
 30
0.0
 10
10.8085436527
 20
9.2808709397
 30
0.0
 10
10.8180527118
 20
9.2863997404
 30
0.0
 10
10.8278600072
 20
9.2914230152
 30
0.0
 10
10.8379411722
 20
9.2959282885
 30
0.0
 10
10.8517284312
 20
9.3012352425
 30
0.0
 10
10.8695341121
 20
9.3065187821
 30
0.0
 10
10.8915392234
 20
9.3106235428
 30
0.0
 10
10.9139935596
 20
9.3124642602
 30
0.0
 10
10.9290657776
 20
9.3121702553
 30
0.0
 10
10.9365963754
 20
9.3116480066
 30
0.0
  0
SPLINE
  5
3BA
100
AcDbEntity
  8
0
100
AcDbSpline
 62
7
  6
CONTINUOUS
 70
0
 71
3
 72
19
 73
15
 74
0
 42
0.0000001
 43
0.0000001
 44
0.0000000001
 40
0.0
 40
0.0
 40
0.0
 40
0.0
 40
0.1218495926
 40
0.2444745355
 40
0.3061119691
 40
0.3679680605
 40
0.4923370825
 40
0.6176627944
 40
0.6807210754
 40
0.7440385135
 40
0.807621013
 40
0.8714714789
 40
0.9355984845
 40
1.0
 40
1.0
 40
1.0
 40
1.0
 10
7.2977427462
 20
9.0728445252
 30
0.0
 10
7.2935869511
 20
9.0639855226
 30
0.0
 10
7.2858689957
 20
9.0459122595
 30
0.0
 10
7.2779179451
 20
9.0226235164
 30
0.0
 10
7.2726621793
 20
9.003564919
 30
0.0
 10
7.2681713888
 20
8.9841680378
 30
0.0
 10
7.2641146104
 20
8.9594441265
 30
0.0
 10
7.2623793327
 20
8.9343445553
 30
0.0
 10
7.2625219501
 20
8.9141239328
 30
0.0
 10
7.2634379155
 20
8.8988888438
 30
0.0
 10
7.2652015118
 20
8.8836641134
 30
0.0
 10
7.2678498757
 20
8.8685011132
 30
0.0
 10
7.2714178773
 20
8.8534601084
 30
0.0
 10
7.2744244359
 20
8.8435773455
 30
0.0
 10
7.2760890064
 20
8.8386806737
 30
0.0
  0
SPLINE
  5
3BB
100
AcDbEntity
  8
0
100
AcDbSpline
 62
7
  6
CONTINUOUS
 70
0
 71
3
 72
41
 73
37
 74
0
 42
0.0000001
 43
0.0000001
 44
0.0000000001
 40
0.0
 40
0.0
 40
0.0
 40
0.0
 40
0.0299421701
 40
0.0599087164
 40
0.0899234211
 40
0.1200088983
 40
0.1501860543
 40
0.1804736026
 40
0.2108876422
 40
0.2414413123
 40
0.2721445279
 40
0.3030038001
 40
0.33402214
 40
0.3651990456
 40
0.3965305656
 40
0.428009435
 40
0.4596252751
 40
0.4913648511
 40
0.523212379
 40
0.5551498748
 40
0.5871575372
 40
0.6192141578
 40
0.6512975514
 40
0.6833850007
 40
0.7154537075
 40
0.7314764095
 40
0.7474860758
 40
0.7794508394
 40
0.8113324795
 40
0.8431123195
 40
0.8747737607
 40
0.9063025939
 40
0.9376875098
 40
0.9533255635
 40
0.9689249841
 40
1.0
 40
1.0
 40
1.0
 40
1.0
 10
7.0260137778
 20
9.0785209543
 30
0.0
 10
7.0327325927
 20
9.0850108331
 30
0.0
 10
7.0466985351
 20
9.0974668336
 30
0.0
 10
7.0690741505
 20
9.1144359329
 30
0.0
 10
7.0927620977
 20
9.1296052067
 30
0.0
 10
7.1176300213
 20
9.1428895568
 30
0.0
 10
7.1435412009
 20
9.154216403
 30
0.0
 10
7.170352635
 20
9.1635234795
 30
0.0
 10
7.197916574
 20
9.1707598682
 30
0.0
 10
7.2260811591
 20
9.1758860639
 30
0.0
 10
7.2546913211
 20
9.1788742236
 30
0.0
 10
7.2835896242
 20
9.1797082834
 30
0.0
 10
7.3126171356
 20
9.1783840295
 30
0.0
 10
7.3416142937
 20
9.1749091013
 30
0.0
 10
7.3704217763
 20
9.1693029333
 30
0.0
 10
7.398881366
 20
9.1615966343
 30
0.0
 10
7.4268368073
 20
9.1518328098
 30
0.0
 10
7.4541346557
 20
9.1400653273
 30
0.0
 10
7.4806251067
 20
9.1263590047
 30
0.0
 10
7.5061628023
 20
9.1107892604
 30
0.0
 10
7.5306076335
 20
9.0934416769
 30
0.0
 10
7.5538254382
 20
9.0744116181
 30
0.0
 10
7.5756889573
 20
9.0538033935
 30
0.0
 10
7.5960776684
 20
9.0317308703
 30
0.0
 10
7.6117526812
 20
9.0122092477
 30
0.0
 10
7.623447644
 20
8.9959828168
 30
0.0
 10
7.6345542569
 20
8.9793871716
 30
0.0
 10
7.6473236647
 20
8.9579694688
 30
0.0
 10
7.6607851159
 20
8.9313189148
 30
0.0
 10
7.6723050675
 20
8.9038750765
 30
0.0
 10
7.681819597
 20
8.8757890556
 30
0.0
 10
7.6892762898
 20
8.8472157367
 30
0.0
 10
7.6937467243
 20
8.8230967409
 30
0.0
 10
7.6962545279
 20
8.8037174611
 30
0.0
 10
7.6980442701
 20
8.7843567119
 30
0.0
 10
7.6985861865
 20
8.7697879007
 30
0.0
 10
7.6985861865
 20
8.7600931158
 30
0.0
  0
SPLINE
  5
3BC
100
AcDbEntity
  8
0
100
AcDbSpline
 62
7
  6
CONTINUOUS
 70
0
 71
3
 72
41
 73
37
 74
0
 42
0.0000001
 43
0.0000001
 44
0.0000000001
 40
0.0
 40
0.0
 40
0.0
 40
0.0
 40
0.0311444435
 40
0.0624425082
 40
0.0938872491
 40
0.1254695823
 40
0.1571771047
 40
0.1889951244
 40
0.2209066755
 40
0.2528929806
 40
0.2849337954
 40
0.3170078208
 40
0.3490931155
 40
0.3811675209
 40
0.4132090884
 40
0.4451965039
 40
0.4771095035
 40
0.5089292748
 40
0.5406388381
 40
0.5722234001
 40
0.6036706745
 40
0.6349711617
 40
0.666118382
 40
0.6971090532
 40
0.7279432083
 40
0.7586242446
 40
0.7891589004
 40
0.819557156
 40
0.849832054
 40
0.8649308927
 40
0.8800050544
 40
0.9100832588
 40
0.9400926743
 40
0.955081275
 40
0.9700610362
 40
1.0
 40
1.0
 40
1.0
 40
1.0
 10
10.9365963754
 20
6.3250051623
 30
0.0
 10
10.9310770559
 20
6.3253879284
 30
0.0
 10
10.9200351054
 20
6.3265593588
 30
0.0
 10
10.9036060682
 20
6.3295101435
 30
0.0
 10
10.88735297
 20
6.3336434066
 30
0.0
 10
10.8713636664
 20
6.3389367792
 30
0.0
 10
10.8557230442
 20
6.3453619844
 30
0.0
 10
10.8405145519
 20
6.352884605
 30
0.0
 10
10.8258192046
 20
6.3614644606
 30
0.0
 10
10.8117153073
 20
6.3710557323
 30
0.0
 10
10.7982780058
 20
6.3816072444
 30
0.0
 10
10.7855788993
 20
6.3930627202
 30
0.0
 10
10.7736856616
 20
6.4053610855
 30
0.0
 10
10.762661684
 20
6.4184367888
 30
0.0
 10
10.7525657417
 20
6.4322201486
 30
0.0
 10
10.7434516822
 20
6.4466377198
 30
0.0
 10
10.7353681412
 20
6.4616126818
 30
0.0
 10
10.7283582849
 20
6.477065242
 30
0.0
 10
10.72245958
 20
6.4929130565
 30
0.0
 10
10.7177035945
 20
6.5090716629
 30
0.0
 10
10.7141158278
 20
6.5254549245
 30
0.0
 10
10.7117155715
 20
6.541975483
 30
0.0
 10
10.710515804
 20
6.5585452192
 30
0.0
 10
10.7105231121
 20
6.5750757128
 30
0.0
 10
10.7117376577
 20
6.5914787261
 30
0.0
 10
10.7141531349
 20
6.6076666082
 30
0.0
 10
10.7177569128
 20
6.6235529979
 30
0.0
 10
10.722529654
 20
6.6390524065
 30
0.0
 10
10.7274654604
 20
6.6515905219
 30
0.0
 10
10.731969651
 20
6.6613408405
 30
0.0
 10
10.7368305216
 20
6.6708791637
 30
0.0
 10
10.7435795779
 20
6.6824162589
 30
0.0
 10
10.7511966838
 20
6.69338122
 30
0.0
 10
10.7577789425
 20
6.7017625943
 30
0.0
 10
10.7646752561
 20
6.7098703543
 30
0.0
 10
10.7702003782
 20
6.7156424106
 30
0.0
 10
10.7740256827
 20
6.7193373748
 30
0.0
  0
SPLINE
  5
3BD
100
AcDbEntity
  8
0
100
AcDbSpline
 62
7
  6
CONTINUOUS
 70
0
 71
3
 72
41
 73
37
 74
0
 42
0.0000001
 43
0.0000001
 44
0.0000000001
 40
0.0
 40
0.0
 40
0.0
 40
0.0
 40
0.0311444435
 40
0.0624425082
 40
0.0938872491
 40
0.1254695823
 40
0.1571771047
 40
0.1889951244
 40
0.2209066755
 40
0.2528929806
 40
0.2849337954
 40
0.3170078208
 40
0.3490931155
 40
0.3811675209
 40
0.4132090884
 40
0.4451965039
 40
0.4771095035
 40
0.5089292748
 40
0.5406388381
 40
0.5722234001
 40
0.6036706745
 40
0.6349711617
 40
0.666118382
 40
0.6971090532
 40
0.7279432083
 40
0.7586242446
 40
0.7891589004
 40
0.819557156
 40
0.849832054
 40
0.8649308927
 40
0.8800050544
 40
0.9100832588
 40
0.9400926743
 40
0.955081275
 40
0.9700610362
 40
1.0
 40
1.0
 40
1.0
 40
1.0
 10
12.1440037298
 20
6.2412711778
 30
0.0
 10
12.1384844103
 20
6.2416539439
 30
0.0
 10
12.1274424598
 20
6.2428253744
 30
0.0
 10
12.1110134226
 20
6.245776159
 30
0.0
 10
12.0947603244
 20
6.2499094222
 30
0.0
 10
12.0787710208
 20
6.2552027948
 30
0.0
 10
12.0631303986
 20
6.261628
 30
0.0
 10
12.0479219063
 20
6.2691506206
 30
0.0
 10
12.033226559
 20
6.2777304762
 30
0.0
 10
12.0191226617
 20
6.2873217479
 30
0.0
 10
12.0056853602
 20
6.29787326
 30
0.0
 10
11.9929862537
 20
6.3093287358
 30
0.0
 10
11.981093016
 20
6.321627101
 30
0.0
 10
11.9700690385
 20
6.3347028044
 30
0.0
 10
11.9599730961
 20
6.3484861641
 30
0.0
 10
11.9508590366
 20
6.3629037354
 30
0.0
 10
11.9427754957
 20
6.3778786973
 30
0.0
 10
11.9357656393
 20
6.3933312575
 30
0.0
 10
11.9298669344
 20
6.409179072
 30
0.0
 10
11.925110949
 20
6.4253376785
 30
0.0
 10
11.9215231822
 20
6.4417209401
 30
0.0
 10
11.9191229259
 20
6.4582414986
 30
0.0
 10
11.9179231584
 20
6.4748112348
 30
0.0
 10
11.9179304665
 20
6.4913417283
 30
0.0
 10
11.9191450121
 20
6.5077447417
 30
0.0
 10
11.9215604893
 20
6.5239326238
 30
0.0
 10
11.9251642672
 20
6.5398190135
 30
0.0
 10
11.9299370084
 20
6.5553184221
 30
0.0
 10
11.9348728148
 20
6.5678565375
 30
0.0
 10
11.9393770054
 20
6.5776068561
 30
0.0
 10
11.944237876
 20
6.5871451792
 30
0.0
 10
11.9509869323
 20
6.5986822745
 30
0.0
 10
11.9586040382
 20
6.6096472356
 30
0.0
 10
11.9651862969
 20
6.6180286099
 30
0.0
 10
11.9720826105
 20
6.6261363699
 30
0.0
 10
11.9776077326
 20
6.6319084262
 30
0.0
 10
11.9814330371
 20
6.6356033903
 30
0.0
  0
SPLINE
  5
3BE
100
AcDbEntity
  8
0
100
AcDbSpline
 62
7
  6
CONTINUOUS
 70
0
 71
3
 72
39
 73
35
 74
0
 42
0.0000001
 43
0.0000001
 44
0.0000000001
 40
0.0
 40
0.0
 40
0.0
 40
0.0
 40
0.0314025961
 40
0.0630095117
 40
0.0948071013
 40
0.1267734468
 40
0.1588809726
 40
0.1910970221
 40
0.2233851126
 40
0.2557062443
 40
0.2880202666
 40
0.3202872754
 40
0.3524690059
 40
0.3845301832
 40
0.4164397932
 40
0.4481722491
 40
0.4797084079
 40
0.5110363805
 40
0.5421521194
 40
0.5730597416
 40
0.6037715202
 40
0.6343075557
 40
0.6646951111
 40
0.6949675901
 40
0.7251632182
 40
0.7553234778
 40
0.7854913545
 40
0.8157095094
 40
0.8460184692
 40
0.8764549219
 40
0.9070502403
 40
0.9378293108
 40
0.9688091314
 40
1.0
 40
1.0
 40
1.0
 40
1.0
 10
10.9296082669
 20
9.3309780106
 30
0.0
 10
10.9378829905
 20
9.3304041565
 30
0.0
 10
10.9544407112
 20
9.3284372495
 30
0.0
 10
10.9789436061
 20
9.3230951743
 30
0.0
 10
11.0029715614
 20
9.3154031924
 30
0.0
 10
11.0262908119
 20
9.3054358345
 30
0.0
 10
11.0486783708
 20
9.2932894514
 30
0.0
 10
11.0699192664
 20
9.279081108
 30
0.0
 10
11.0898097564
 20
9.2629474137
 30
0.0
 10
11.108158997
 20
9.2450434111
 30
0.0
 10
11.1247909288
 20
9.225541038
 30
0.0
 10
11.1395457803
 20
9.2046274037
 30
0.0
 10
11.1522816949
 20
9.1825031482
 30
0.0
 10
11.1628761405
 20
9.1593805606
 30
0.0
 10
11.1712268883
 20
9.1354814828
 30
0.0
 10
11.1772530706
 20
9.1110353036
 30
0.0
 10
11.1808961353
 20
9.0862768325
 30
0.0
 10
11.1821202083
 20
9.0614440295
 30
0.0
 10
11.1809125103
 20
9.0367758182
 30
0.0
 10
11.1772837829
 20
9.012509813
 30
0.0
 10
11.1712680413
 20
8.9888800366
 30
0.0
 10
11.1629223124
 20
8.9661147125
 30
0.0
 10
11.152326423
 20
8.9444339504
 30
0.0
 10
11.1395821458
 20
8.9240475682
 30
0.0
 10
11.1248121884
 20
8.9051530513
 30
0.0
 10
11.1081592203
 20
8.8879334101
 30
0.0
 10
11.0897843881
 20
8.8725552965
 30
0.0
 10
11.0698655663
 20
8.8591674431
 30
0.0
 10
11.0485956915
 20
8.8478990455
 30
0.0
 10
11.0261806834
 20
8.8388584356
 30
0.0
 10
11.0028375722
 20
8.8321322329
 30
0.0
 10
10.9787912052
 20
8.8277846755
 30
0.0
 10
10.9542766042
 20
8.8258562785
 30
0.0
 10
10.9378271994
 20
8.8261947145
 30
0.0
 10
10.9296082669
 20
8.8267646994
 30
0.0
  0
SPLINE
  5
3BF
100
AcDbEntity
  8
0
100
AcDbSpline
 62
7
  6
CONTINUOUS
 70
0
 71
3
 72
42
 73
38
 74
0
 42
0.0000001
 43
0.0000001
 44
0.0000000001
 40
0.0
 40
0.0
 40
0.0
 40
0.0
 40
0.0215413758
 40
0.0324883729
 40
0.0435620434
 40
0.0661018451
 40
0.0891814159
 40
0.1128235653
 40
0.1370523784
 40
0.1618892796
 40
0.1873548957
 40
0.213469402
 40
0.2402521644
 40
0.2677218458
 40
0.2958964304
 40
0.3247929494
 40
0.3544272745
 40
0.3848138391
 40
0.4159650937
 40
0.4478907551
 40
0.4805969921
 40
0.514085258
 40
0.5483507879
 40
0.5833807573
 40
0.6191520694
 40
0.6556287216
 40
0.6927589156
 40
0.7304719154
 40
0.7686751009
 40
0.8072516331
 40
0.846059316
 40
0.884931565
 40
0.9236807828
 40
0.9429472959
 40
0.9621064363
 40
0.981133372
 40
1.0
 40
1.0
 40
1.0
 40
1.0
 10
11.9135168029
 20
7.5332556055
 30
0.0
 10
11.9072282991
 20
7.5360695983
 30
0.0
 10
11.8978481498
 20
7.5405510484
 30
0.0
 10
11.8854916799
 20
7.5469885964
 30
0.0
 10
11.873002177
 20
7.5538549032
 30
0.0
 10
11.8574053372
 20
7.5631133105
 30
0.0
 10
11.8388489248
 20
7.5752219117
 30
0.0
 10
11.8203627219
 20
7.5883916719
 30
0.0
 10
11.8019636072
 20
7.6026208089
 30
0.0
 10
11.7836709687
 20
7.6179124535
 30
0.0
 10
11.7655052095
 20
7.6342700638
 30
0.0
 10
11.7474876287
 20
7.651698138
 30
0.0
 10
11.7296415055
 20
7.6702028477
 30
0.0
 10
11.7119918652
 20
7.6897911875
 30
0.0
 10
11.6945658482
 20
7.7104708653
 30
0.0
 10
11.6773933287
 20
7.732250213
 30
0.0
 10
11.6605070686
 20
7.7551375645
 30
0.0
 10
11.6439431807
 20
7.7791408036
 30
0.0
 10
11.6277417157
 20
7.8042667524
 30
0.0
 10
11.6119471898
 20
7.8305202843
 30
0.0
 10
11.5966090809
 20
7.8579031755
 30
0.0
 10
11.5817824452
 20
7.8864127375
 30
0.0
 10
11.5675284966
 20
7.9160400341
 30
0.0
 10
11.5539151156
 20
7.94676768
 30
0.0
 10
11.5410172067
 20
7.9785671709
 30
0.0
 10
11.5289167982
 20
8.0113957592
 30
0.0
 10
11.517702751
 20
8.0451929024
 30
0.0
 10
11.5074698802
 20
8.079876475
 30
0.0
 10
11.4983172945
 20
8.1153390649
 30
0.0
 10
11.4903457689
 20
8.1514447987
 30
0.0
 10
11.4836540424
 20
8.1880277022
 30
0.0
 10
11.478334232
 20
8.2248912258
 30
0.0
 10
11.4751047623
 20
8.2557183565
 30
0.0
 10
11.4732795319
 20
8.2803344159
 30
0.0
 10
11.4722992132
 20
8.2986842346
 30
0.0
 10
11.4717074897
 20
8.316922604
 30
0.0
 10
11.471574139
 20
8.3290421976
 30
0.0
 10
11.4715748954
 20
8.3350761552
 30
0.0
  0
SPLINE
  5
3C0
100
AcDbEntity
  8
0
100
AcDbSpline
 62
7
  6
CONTINUOUS
 70
0
 71
3
 72
39
 73
35
 74
0
 42
0.0000001
 43
0.0000001
 44
0.0000000001
 40
0.0
 40
0.0
 40
0.0
 40
0.0
 40
0.0314025961
 40
0.0630095117
 40
0.0948071013
 40
0.1267734468
 40
0.1588809726
 40
0.1910970221
 40
0.2233851126
 40
0.2557062443
 40
0.2880202666
 40
0.3202872754
 40
0.3524690059
 40
0.3845301832
 40
0.4164397932
 40
0.4481722491
 40
0.4797084079
 40
0.5110363805
 40
0.5421521194
 40
0.5730597416
 40
0.6037715202
 40
0.6343075557
 40
0.6646951111
 40
0.6949675901
 40
0.7251632182
 40
0.7553234778
 40
0.7854913545
 40
0.8157095094
 40
0.8460184692
 40
0.8764549219
 40
0.9070502403
 40
0.9378293108
 40
0.9688091314
 40
1.0
 40
1.0
 40
1.0
 40
1.0
 10
10.9296082669
 20
6.7963884798
 30
0.0
 10
10.9378829905
 20
6.7958146258
 30
0.0
 10
10.9544407112
 20
6.7938477187
 30
0.0
 10
10.9789436061
 20
6.7885056435
 30
0.0
 10
11.0029715614
 20
6.7808136616
 30
0.0
 10
11.0262908119
 20
6.7708463037
 30
0.0
 10
11.0486783708
 20
6.7586999206
 30
0.0
 10
11.0699192664
 20
6.7444915772
 30
0.0
 10
11.0898097564
 20
6.7283578829
 30
0.0
 10
11.108158997
 20
6.7104538803
 30
0.0
 10
11.1247909288
 20
6.6909515072
 30
0.0
 10
11.1395457803
 20
6.6700378729
 30
0.0
 10
11.1522816949
 20
6.6479136174
 30
0.0
 10
11.1628761405
 20
6.6247910298
 30
0.0
 10
11.1712268883
 20
6.600891952
 30
0.0
 10
11.1772530706
 20
6.5764457728
 30
0.0
 10
11.1808961353
 20
6.5516873017
 30
0.0
 10
11.1821202083
 20
6.5268544987
 30
0.0
 10
11.1809125103
 20
6.5021862874
 30
0.0
 10
11.1772837829
 20
6.4779202822
 30
0.0
 10
11.1712680413
 20
6.4542905058
 30
0.0
 10
11.1629223124
 20
6.4315251817
 30
0.0
 10
11.152326423
 20
6.4098444196
 30
0.0
 10
11.1395821458
 20
6.3894580374
 30
0.0
 10
11.1248121884
 20
6.3705635205
 30
0.0
 10
11.1081592203
 20
6.3533438793
 30
0.0
 10
11.0897843881
 20
6.3379657657
 30
0.0
 10
11.0698655663
 20
6.3245779123
 30
0.0
 10
11.0485956915
 20
6.3133095147
 30
0.0
 10
11.0261806834
 20
6.3042689048
 30
0.0
 10
11.0028375722
 20
6.2975427022
 30
0.0
 10
10.9787912052
 20
6.2931951447
 30
0.0
 10
10.9542766042
 20
6.2912667477
 30
0.0
 10
10.9378271994
 20
6.2916051837
 30
0.0
 10
10.9296082669
 20
6.2921751686
 30
0.0
  0
SPLINE
  5
3C1
100
AcDbEntity
  8
0
100
AcDbSpline
 62
7
  6
CONTINUOUS
 70
0
 71
3
 72
14
 73
10
 74
0
 42
0.0000001
 43
0.0000001
 44
0.0000000001
 40
0.0
 40
0.0
 40
0.0
 40
0.0
 40
0.2623582237
 40
0.3908792321
 40
0.5173921917
 40
0.64172573
 40
0.7637125402
 40
0.883189861
 40
1.0
 40
1.0
 40
1.0
 40
1.0
 10
7.3024288932
 20
8.7616566533
 30
0.0
 10
7.3022347641
 20
8.7867938154
 30
0.0
 10
7.3015578478
 20
8.8242437246
 30
0.0
 10
7.2998368917
 20
8.8737886331
 30
0.0
 10
7.298161925
 20
8.9101000724
 30
0.0
 10
7.2960965485
 20
8.9457642567
 30
0.0
 10
7.2936438166
 20
8.9807282388
 30
0.0
 10
7.2908074157
 20
9.0149398935
 30
0.0
 10
7.2886381316
 20
9.037476493
 30
0.0
 10
7.2874875346
 20
9.0486093827
 30
0.0
  0
SPLINE
  5
3C2
100
AcDbEntity
  8
0
100
AcDbSpline
 62
7
  6
CONTINUOUS
 70
0
 71
3
 72
39
 73
35
 74
0
 42
0.0000001
 43
0.0000001
 44
0.0000000001
 40
0.0
 40
0.0
 40
0.0
 40
0.0
 40
0.0314025961
 40
0.0630095117
 40
0.0948071013
 40
0.1267734468
 40
0.1588809726
 40
0.1910970221
 40
0.2233851126
 40
0.2557062443
 40
0.2880202666
 40
0.3202872754
 40
0.3524690059
 40
0.3845301832
 40
0.4164397932
 40
0.4481722491
 40
0.4797084079
 40
0.5110363805
 40
0.5421521194
 40
0.5730597416
 40
0.6037715202
 40
0.6343075557
 40
0.6646951111
 40
0.6949675901
 40
0.7251632182
 40
0.7553234778
 40
0.7854913545
 40
0.8157095094
 40
0.8460184692
 40
0.8764549219
 40
0.9070502403
 40
0.9378293108
 40
0.9688091314
 40
1.0
 40
1.0
 40
1.0
 40
1.0
 10
12.1370156213
 20
6.2084411842
 30
0.0
 10
12.1287408977
 20
6.2090150382
 30
0.0
 10
12.112183177
 20
6.2109819452
 30
0.0
 10
12.0876802821
 20
6.2163240204
 30
0.0
 10
12.0636523268
 20
6.2240160023
 30
0.0
 10
12.0403330764
 20
6.2339833602
 30
0.0
 10
12.0179455174
 20
6.2461297434
 30
0.0
 10
11.9967046219
 20
6.2603380868
 30
0.0
 10
11.9768141318
 20
6.276471781
 30
0.0
 10
11.9584648913
 20
6.2943757837
 30
0.0
 10
11.9418329594
 20
6.3138781567
 30
0.0
 10
11.927078108
 20
6.334791791
 30
0.0
 10
11.9143421934
 20
6.3569160465
 30
0.0
 10
11.9037477477
 20
6.3800386342
 30
0.0
 10
11.8953969999
 20
6.403937712
 30
0.0
 10
11.8893708176
 20
6.4283838912
 30
0.0
 10
11.8857277529
 20
6.4531423623
 30
0.0
 10
11.8845036799
 20
6.4779751652
 30
0.0
 10
11.8857113779
 20
6.5026433766
 30
0.0
 10
11.8893401053
 20
6.5269093817
 30
0.0
 10
11.8953558469
 20
6.5505391581
 30
0.0
 10
11.9037015759
 20
6.5733044822
 30
0.0
 10
11.9142974652
 20
6.5949852444
 30
0.0
 10
11.9270417425
 20
6.6153716266
 30
0.0
 10
11.9418116998
 20
6.6342661434
 30
0.0
 10
11.958464668
 20
6.6514857846
 30
0.0
 10
11.9768395002
 20
6.6668638982
 30
0.0
 10
11.9967583219
 20
6.6802517516
 30
0.0
 10
12.0180281967
 20
6.6915201492
 30
0.0
 10
12.0404432048
 20
6.7005607592
 30
0.0
 10
12.063786316
 20
6.7072869618
 30
0.0
 10
12.0878326831
 20
6.7116345193
 30
0.0
 10
12.112347284
 20
6.7135629162
 30
0.0
 10
12.1287966889
 20
6.7132244803
 30
0.0
 10
12.1370156213
 20
6.7126544954
 30
0.0
  0
SPLINE
  5
3C3
100
AcDbEntity
  8
0
100
AcDbSpline
 62
7
  6
CONTINUOUS
 70
0
 71
3
 72
23
 73
19
 74
0
 42
0.0000001
 43
0.0000001
 44
0.0000000001
 40
0.0
 40
0.0
 40
0.0
 40
0.0
 40
0.0637764154
 40
0.1273451281
 40
0.190701988
 40
0.253856063
 40
0.3168132283
 40
0.3795820791
 40
0.4421733864
 40
0.5045993414
 40
0.5668738629
 40
0.629012379
 40
0.6910316532
 40
0.7529496461
 40
0.8147853522
 40
0.8765586034
 40
0.9382898574
 40
1.0
 40
1.0
 40
1.0
 40
1.0
 10
6.9161862209
 20
8.8143527377
 30
0.0
 10
6.9161862209
 20
8.8206013145
 30
0.0
 10
6.9164853364
 20
8.8330802344
 30
0.0
 10
6.9178352144
 20
8.8517226722
 30
0.0
 10
6.9200828481
 20
8.8702173853
 30
0.0
 10
6.9232228227
 20
8.8885208291
 30
0.0
 10
6.9272481095
 20
8.9065912452
 30
0.0
 10
6.9321493963
 20
8.9243868594
 30
0.0
 10
6.9379154088
 20
8.9418666613
 30
0.0
 10
6.944532977
 20
8.9589903243
 30
0.0
 10
6.9519868186
 20
8.9757183688
 30
0.0
 10
6.9602597567
 20
8.9920122271
 30
0.0
 10
6.9693327833
 20
9.0078342901
 30
0.0
 10
6.9791850238
 20
9.0231480498
 30
0.0
 10
6.9897936878
 20
9.0379181787
 30
0.0
 10
7.0011344503
 20
9.0521107186
 30
0.0
 10
7.0131807633
 20
9.0656924417
 30
0.0
 10
7.0216650709
 20
9.0743204247
 30
0.0
 10
7.0260137778
 20
9.0785209543
 30
0.0
  0
SPLINE
  5
3C4
100
AcDbEntity
  8
0
100
AcDbSpline
 62
7
  6
CONTINUOUS
 70
0
 71
3
 72
11
 73
7
 74
0
 42
0.0000001
 43
0.0000001
 44
0.0000000001
 40
0.0
 40
0.0
 40
0.0
 40
0.0
 40
0.2474756027
 40
0.4965461012
 40
0.7473460065
 40
1.0
 40
1.0
 40
1.0
 40
1.0
 10
11.7088863566
 20
7.5246492969
 30
0.0
 10
11.7257722219
 20
7.5234779067
 30
0.0
 10
11.7597283547
 20
7.5221104626
 30
0.0
 10
11.8108624351
 20
7.5229066597
 30
0.0
 10
11.8622315602
 20
7.5264895405
 30
0.0
 10
11.8964252505
 20
7.5307062886
 30
0.0
 10
11.9135168029
 20
7.5332556055
 30
0.0
  0
SPLINE
  5
3C5
100
AcDbEntity
  8
0
100
AcDbSpline
 62
7
  6
CONTINUOUS
 70
0
 71
3
 72
11
 73
7
 74
0
 42
0.0000001
 43
0.0000001
 44
0.0000000001
 40
0.0
 40
0.0
 40
0.0
 40
0.0
 40
0.2588201401
 40
0.5122526282
 40
0.7595525277
 40
1.0
 40
1.0
 40
1.0
 40
1.0
 10
7.2833407248
 20
8.7895980403
 30
0.0
 10
7.2830749005
 20
8.8081508332
 30
0.0
 10
7.28226421
 20
8.8448668603
 30
0.0
 10
7.2801775819
 20
8.8992812791
 30
0.0
 10
7.2772388127
 20
8.9523373562
 30
0.0
 10
7.2746795916
 20
8.9872123323
 30
0.0
 10
7.2732519817
 20
9.0043906825
 30
0.0
  0
SPLINE
  5
3C6
100
AcDbEntity
  8
0
100
AcDbSpline
 62
7
  6
CONTINUOUS
 70
0
 71
3
 72
23
 73
19
 74
0
 42
0.0000001
 43
0.0000001
 44
0.0000000001
 40
0.0
 40
0.0
 40
0.0
 40
0.0
 40
0.0749619582
 40
0.1455674926
 40
0.2121588364
 40
0.275161539
 40
0.3350966021
 40
0.3925814523
 40
0.4483277544
 40
0.5031220258
 40
0.5577967814
 40
0.6131904148
 40
0.6701058916
 40
0.7292771639
 40
0.7913509475
 40
0.8568784947
 40
0.9263115463
 40
1.0
 40
1.0
 40
1.0
 40
1.0
 10
11.6437551315
 20
10.0493933706
 30
0.0
 10
11.6429466143
 20
10.0501457888
 30
0.0
 10
11.6414214022
 20
10.0516563923
 30
0.0
 10
11.6393634302
 20
10.0540131485
 30
0.0
 10
11.6376084981
 20
10.0563885474
 30
0.0
 10
11.6361593044
 20
10.0587805851
 30
0.0
 10
11.6350181457
 20
10.0611870735
 30
0.0
 10
11.634187737
 20
10.0636056235
 30
0.0
 10
11.6336702446
 20
10.0660330603
 30
0.0
 10
11.6334676673
 20
10.0684655804
 30
0.0
 10
11.6335806656
 20
10.0708987475
 30
0.0
 10
11.6340089015
 20
10.0733280626
 30
0.0
 10
11.6347507251
 20
10.0757494603
 30
0.0
 10
11.635803848
 20
10.0781596517
 30
0.0
 10
11.6371658652
 20
10.0805560078
 30
0.0
 10
11.6388342975
 20
10.0829364371
 30
0.0
 10
11.6408065286
 20
10.0852986167
 30
0.0
 10
11.6422766628
 20
10.0868131778
 30
0.0
 10
11.6430575555
 20
10.0875674623
 30
0.0
  0
SPLINE
  5
3C7
100
AcDbEntity
  8
0
100
AcDbSpline
 62
7
  6
CONTINUOUS
 70
0
 71
3
 72
39
 73
35
 74
0
 42
0.0000001
 43
0.0000001
 44
0.0000000001
 40
0.0
 40
0.0
 40
0.0
 40
0.0
 40
0.0314025961
 40
0.0630095117
 40
0.0948071013
 40
0.1267734468
 40
0.1588809726
 40
0.1910970221
 40
0.2233851126
 40
0.2557062443
 40
0.2880202666
 40
0.3202872754
 40
0.3524690059
 40
0.3845301832
 40
0.4164397932
 40
0.4481722491
 40
0.4797084079
 40
0.5110363805
 40
0.5421521194
 40
0.5730597416
 40
0.6037715202
 40
0.6343075557
 40
0.6646951111
 40
0.6949675901
 40
0.7251632182
 40
0.7553234778
 40
0.7854913545
 40
0.8157095094
 40
0.8460184692
 40
0.8764549219
 40
0.9070502403
 40
0.9378293108
 40
0.9688091314
 40
1.0
 40
1.0
 40
1.0
 40
1.0
 10
12.1370156213
 20
8.743030715
 30
0.0
 10
12.1287408977
 20
8.743604569
 30
0.0
 10
12.112183177
 20
8.745571476
 30
0.0
 10
12.0876802821
 20
8.7509135512
 30
0.0
 10
12.0636523268
 20
8.7586055331
 30
0.0
 10
12.0403330764
 20
8.768572891
 30
0.0
 10
12.0179455174
 20
8.7807192742
 30
0.0
 10
11.9967046219
 20
8.7949276176
 30
0.0
 10
11.9768141318
 20
8.8110613118
 30
0.0
 10
11.9584648913
 20
8.8289653145
 30
0.0
 10
11.9418329594
 20
8.8484676875
 30
0.0
 10
11.927078108
 20
8.8693813218
 30
0.0
 10
11.9143421934
 20
8.8915055773
 30
0.0
 10
11.9037477477
 20
8.914628165
 30
0.0
 10
11.8953969999
 20
8.9385272428
 30
0.0
 10
11.8893708176
 20
8.962973422
 30
0.0
 10
11.8857277529
 20
8.9877318931
 30
0.0
 10
11.8845036799
 20
9.012564696
 30
0.0
 10
11.8857113779
 20
9.0372329074
 30
0.0
 10
11.8893401053
 20
9.0614989125
 30
0.0
 10
11.8953558469
 20
9.0851286889
 30
0.0
 10
11.9037015759
 20
9.107894013
 30
0.0
 10
11.9142974652
 20
9.1295747752
 30
0.0
 10
11.9270417425
 20
9.1499611574
 30
0.0
 10
11.9418116998
 20
9.1688556742
 30
0.0
 10
11.958464668
 20
9.1860753154
 30
0.0
 10
11.9768395002
 20
9.201453429
 30
0.0
 10
11.9967583219
 20
9.2148412824
 30
0.0
 10
12.0180281967
 20
9.22610968
 30
0.0
 10
12.0404432048
 20
9.23515029
 30
0.0
 10
12.063786316
 20
9.2418764926
 30
0.0
 10
12.0878326831
 20
9.2462240501
 30
0.0
 10
12.112347284
 20
9.248152447
 30
0.0
 10
12.1287966889
 20
9.2478140111
 30
0.0
 10
12.1370156213
 20
9.2472440262
 30
0.0
  0
SPLINE
  5
3C8
100
AcDbEntity
  8
0
100
AcDbSpline
 62
7
  6
CONTINUOUS
 70
0
 71
3
 72
50
 73
46
 74
0
 42
0.0000001
 43
0.0000001
 44
0.0000000001
 40
0.0
 40
0.0
 40
0.0
 40
0.0
 40
0.0080802849
 40
0.0167276254
 40
0.0259554341
 40
0.0357711358
 40
0.0461778214
 40
0.0571743762
 40
0.068756734
 40
0.0809177125
 40
0.0936480089
 40
0.1069358952
 40
0.1207680365
 40
0.1351291381
 40
0.1653690708
 40
0.1975076706
 40
0.2313767245
 40
0.2667922757
 40
0.3035570735
 40
0.3414627455
 40
0.3802918024
 40
0.4198195411
 40
0.4598158871
 40
0.5000472015
 40
0.540278069
 40
0.580273078
 40
0.6197985996
 40
0.6586245763
 40
0.6965263289
 40
0.7332863991
 40
0.768696453
 40
0.802559286
 40
0.8346909963
 40
0.8649234362
 40
0.8931071172
 40
0.9063908974
 40
0.9191168537
 40
0.9312735525
 40
0.9428514082
 40
0.9538436003
 40
0.9642457697
 40
0.9740570348
 40
0.9832801685
 40
0.9919233999
 40
1.0
 40
1.0
 40
1.0
 40
1.0
 10
12.1148850625
 20
10.01847355
 30
0.0
 10
12.1140234502
 20
10.0191860794
 30
0.0
 10
12.1121875196
 20
10.0205986691
 30
0.0
 10
12.109215256
 20
10.0226176304
 30
0.0
 10
12.1059371748
 20
10.0246043348
 30
0.0
 10
12.1023584377
 20
10.0265558654
 30
0.0
 10
12.0984843469
 20
10.0284691919
 30
0.0
 10
12.0943208689
 20
10.0303415071
 30
0.0
 10
12.0898743551
 20
10.0321697896
 30
0.0
 10
12.0851516963
 20
10.0339513085
 30
0.0
 10
12.0801601857
 20
10.0356831618
 30
0.0
 10
12.0749075982
 20
10.0373627281
 30
0.0
 10
12.0694020929
 20
10.0389872989
 30
0.0
 10
12.0616007375
 20
10.0411133723
 30
0.0
 10
12.051275453
 20
10.0436024173
 30
0.0
 10
12.0382281885
 20
10.0462836118
 30
0.0
 10
12.0244003069
 20
10.0486910023
 30
0.0
 10
12.0098782654
 20
10.0508092756
 30
0.0
 10
11.9947527459
 20
10.0526248993
 30
0.0
 10
11.9791183808
 20
10.0541263085
 30
0.0
 10
11.9630730339
 20
10.0553039431
 30
0.0
 10
11.9467171941
 20
10.0561503123
 30
0.0
 10
11.9301533233
 20
10.056660035
 30
0.0
 10
11.9134852054
 20
10.0568298719
 30
0.0
 10
11.8968172857
 20
10.0566587437
 30
0.0
 10
11.8802540083
 20
10.0561477379
 30
0.0
 10
11.863899153
 20
10.0553001021
 30
0.0
 10
11.8478551761
 20
10.0541212252
 30
0.0
 10
11.8322225558
 20
10.0526186065
 30
0.0
 10
11.8170991514
 20
10.0508018119
 30
0.0
 10
11.8025795584
 20
10.0486824207
 30
0.0
 10
11.7887545244
 20
10.0462739488
 30
0.0
 10
11.7757102056
 20
10.0435917982
 30
0.0
 10
11.763528011
 20
10.0406530534
 30
0.0
 10
11.7539773348
 20
10.0379554361
 30
0.0
 10
11.7468346183
 20
10.0356702825
 30
0.0
 10
11.7418451206
 20
10.0339379636
 30
0.0
 10
11.7371245181
 20
10.0321561438
 30
0.0
 10
11.7326801355
 20
10.0303274583
 30
0.0
 10
11.7285188038
 20
10.0284548812
 30
0.0
 10
11.7246469529
 20
10.0265411791
 30
0.0
 10
11.7210704665
 20
10.0245894559
 30
0.0
 10
11.7177947071
 20
10.0226024476
 30
0.0
 10
11.714824674
 20
10.0205832667
 30
0.0
 10
11.7129903252
 20
10.019170384
 30
0.0
 10
11.7121294782
 20
10.0184577296
 30
0.0
  0
SPLINE
  5
3C9
100
AcDbEntity
  8
0
100
AcDbSpline
 62
7
  6
CONTINUOUS
 70
0
 71
3
 72
39
 73
35
 74
0
 42
0.0000001
 43
0.0000001
 44
0.0000000001
 40
0.0
 40
0.0
 40
0.0
 40
0.0
 40
0.0314025961
 40
0.0630095117
 40
0.0948071013
 40
0.1267734468
 40
0.1588809726
 40
0.1910970221
 40
0.2233851126
 40
0.2557062443
 40
0.2880202666
 40
0.3202872754
 40
0.3524690059
 40
0.3845301832
 40
0.4164397932
 40
0.4481722491
 40
0.4797084079
 40
0.5110363805
 40
0.5421521194
 40
0.5730597416
 40
0.6037715202
 40
0.6343075557
 40
0.6646951111
 40
0.6949675901
 40
0.7251632182
 40
0.7553234778
 40
0.7854913545
 40
0.8157095094
 40
0.8460184692
 40
0.8764549219
 40
0.9070502403
 40
0.9378293108
 40
0.9688091314
 40
1.0
 40
1.0
 40
1.0
 40
1.0
 10
12.1370156213
 20
6.7126544954
 30
0.0
 10
12.1452903449
 20
6.7120806413
 30
0.0
 10
12.1618480656
 20
6.7101137343
 30
0.0
 10
12.1863509605
 20
6.7047716591
 30
0.0
 10
12.2103789158
 20
6.6970796772
 30
0.0
 10
12.2336981663
 20
6.6871123193
 30
0.0
 10
12.2560857252
 20
6.6749659361
 30
0.0
 10
12.2773266208
 20
6.6607575927
 30
0.0
 10
12.2972171108
 20
6.6446238985
 30
0.0
 10
12.3155663514
 20
6.6267198958
 30
0.0
 10
12.3321982832
 20
6.6072175228
 30
0.0
 10
12.3469531347
 20
6.5863038885
 30
0.0
 10
12.3596890493
 20
6.564179633
 30
0.0
 10
12.3702834949
 20
6.5410570454
 30
0.0
 10
12.3786342427
 20
6.5171579676
 30
0.0
 10
12.384660425
 20
6.4927117883
 30
0.0
 10
12.3883034897
 20
6.4679533172
 30
0.0
 10
12.3895275627
 20
6.4431205143
 30
0.0
 10
12.3883198647
 20
6.418452303
 30
0.0
 10
12.3846911373
 20
6.3941862978
 30
0.0
 10
12.3786753957
 20
6.3705565214
 30
0.0
 10
12.3703296668
 20
6.3477911973
 30
0.0
 10
12.3597337775
 20
6.3261104351
 30
0.0
 10
12.3469895002
 20
6.3057240529
 30
0.0
 10
12.3322195428
 20
6.2868295361
 30
0.0
 10
12.3155665747
 20
6.2696098949
 30
0.0
 10
12.2971917425
 20
6.2542317813
 30
0.0
 10
12.2772729207
 20
6.2408439279
 30
0.0
 10
12.2560030459
 20
6.2295755303
 30
0.0
 10
12.2335880378
 20
6.2205349203
 30
0.0
 10
12.2102449266
 20
6.2138087177
 30
0.0
 10
12.1861985596
 20
6.2094611602
 30
0.0
 10
12.1616839586
 20
6.2075327633
 30
0.0
 10
12.1452345538
 20
6.2078711993
 30
0.0
 10
12.1370156213
 20
6.2084411842
 30
0.0
  0
SPLINE
  5
3CA
100
AcDbEntity
  8
0
100
AcDbSpline
 62
7
  6
CONTINUOUS
 70
0
 71
3
 72
39
 73
35
 74
0
 42
0.0000001
 43
0.0000001
 44
0.0000000001
 40
0.0
 40
0.0
 40
0.0
 40
0.0
 40
0.0314025961
 40
0.0630095117
 40
0.0948071013
 40
0.1267734468
 40
0.1588809726
 40
0.1910970221
 40
0.2233851126
 40
0.2557062443
 40
0.2880202666
 40
0.3202872754
 40
0.3524690059
 40
0.3845301832
 40
0.4164397932
 40
0.4481722491
 40
0.4797084079
 40
0.5110363805
 40
0.5421521194
 40
0.5730597416
 40
0.6037715202
 40
0.6343075557
 40
0.6646951111
 40
0.6949675901
 40
0.7251632182
 40
0.7553234778
 40
0.7854913545
 40
0.8157095094
 40
0.8460184692
 40
0.8764549219
 40
0.9070502403
 40
0.9378293108
 40
0.9688091314
 40
1.0
 40
1.0
 40
1.0
 40
1.0
 10
12.1370156213
 20
9.2472440262
 30
0.0
 10
12.1452903449
 20
9.2466701721
 30
0.0
 10
12.1618480656
 20
9.2447032651
 30
0.0
 10
12.1863509605
 20
9.2393611899
 30
0.0
 10
12.2103789158
 20
9.231669208
 30
0.0
 10
12.2336981663
 20
9.2217018501
 30
0.0
 10
12.2560857252
 20
9.2095554669
 30
0.0
 10
12.2773266208
 20
9.1953471235
 30
0.0
 10
12.2972171108
 20
9.1792134293
 30
0.0
 10
12.3155663514
 20
9.1613094266
 30
0.0
 10
12.3321982832
 20
9.1418070536
 30
0.0
 10
12.3469531347
 20
9.1208934193
 30
0.0
 10
12.3596890493
 20
9.0987691638
 30
0.0
 10
12.3702834949
 20
9.0756465762
 30
0.0
 10
12.3786342427
 20
9.0517474984
 30
0.0
 10
12.384660425
 20
9.0273013191
 30
0.0
 10
12.3883034897
 20
9.002542848
 30
0.0
 10
12.3895275627
 20
8.9777100451
 30
0.0
 10
12.3883198647
 20
8.9530418338
 30
0.0
 10
12.3846911373
 20
8.9287758286
 30
0.0
 10
12.3786753957
 20
8.9051460522
 30
0.0
 10
12.3703296668
 20
8.8823807281
 30
0.0
 10
12.3597337775
 20
8.8606999659
 30
0.0
 10
12.3469895002
 20
8.8403135837
 30
0.0
 10
12.3322195428
 20
8.8214190669
 30
0.0
 10
12.3155665747
 20
8.8041994257
 30
0.0
 10
12.2971917425
 20
8.7888213121
 30
0.0
 10
12.2772729207
 20
8.7754334587
 30
0.0
 10
12.2560030459
 20
8.7641650611
 30
0.0
 10
12.2335880378
 20
8.7551244511
 30
0.0
 10
12.2102449266
 20
8.7483982485
 30
0.0
 10
12.1861985596
 20
8.744050691
 30
0.0
 10
12.1616839586
 20
8.7421222941
 30
0.0
 10
12.1452345538
 20
8.7424607301
 30
0.0
 10
12.1370156213
 20
8.743030715
 30
0.0
  0
SPLINE
  5
3CB
100
AcDbEntity
  8
0
100
AcDbSpline
 62
7
  6
CONTINUOUS
 70
0
 71
3
 72
67
 73
63
 74
0
 42
0.0000001
 43
0.0000001
 44
0.0000000001
 40
0.0
 40
0.0
 40
0.0
 40
0.0
 40
0.0085742142
 40
0.0179226599
 40
0.0280752762
 40
0.0390502466
 40
0.050854193
 40
0.0634852441
 40
0.0769348171
 40
0.0911884516
 40
0.1062269095
 40
0.1220268874
 40
0.1385613633
 40
0.1558001646
 40
0.173710346
 40
0.1922563288
 40
0.2114002703
 40
0.2311023213
 40
0.2513206993
 40
0.2720119684
 40
0.3146311378
 40
0.3585867473
 40
0.4034884023
 40
0.4489345364
 40
0.4945172279
 40
0.5398269787
 40
0.584457455
 40
0.6280102843
 40
0.6700998415
 40
0.690480761
 40
0.7103596307
 40
0.7296941582
 40
0.7484437831
 40
0.7665699452
 40
0.7840363612
 40
0.8008091277
 40
0.8168570769
 40
0.8321521842
 40
0.8466698005
 40
0.8603892218
 40
0.8732944127
 40
0.8853746387
 40
0.8966256199
 40
0.9070511059
 40
0.9166646781
 40
0.9254925357
 40
0.9335772751
 40
0.9409824252
 40
0.9477979953
 40
0.9510239278
 40
0.9541509322
 40
0.9571994308
 40
0.9601916203
 40
0.9631510918
 40
0.9661023276
 40
0.9690700214
 40
0.972078437
 40
0.9751507333
 40
0.9783085064
 40
0.9849528171
 40
0.9921503767
 40
1.0
 40
1.0
 40
1.0
 40
1.0
 10
11.6430575555
 20
10.0875674623
 30
0.0
 10
11.6442965946
 20
10.0887642822
 30
0.0
 10
11.6470148436
 20
10.0911348516
 30
0.0
 10
11.6515582971
 20
10.0944857149
 30
0.0
 10
11.65672851
 20
10.0977739425
 30
0.0
 10
11.6625132005
 20
10.1009920518
 30
0.0
 10
11.6688995149
 20
10.1041330748
 30
0.0
 10
11.6758726679
 20
10.1071896507
 30
0.0
 10
11.6834163975
 20
10.1101545349
 30
0.0
 10
11.6915129212
 20
10.1130206566
 30
0.0
 10
11.700143045
 20
10.1157811106
 30
0.0
 10
11.7092862294
 20
10.1184291829
 30
0.0
 10
11.7189206269
 20
10.1209584836
 30
0.0
 10
11.7290231726
 20
10.1233628825
 30
0.0
 10
11.7395696536
 20
10.1256365113
 30
0.0
 10
11.7505347498
 20
10.1277738744
 30
0.0
 10
11.7618921198
 20
10.1297697969
 30
0.0
 10
11.7736144633
 20
10.1316193975
 30
0.0
 10
11.785673611
 20
10.1333182423
 30
0.0
 10
11.8023269447
 20
10.1353972106
 30
0.0
 10
11.8237707301
 20
10.1375790536
 30
0.0
 10
11.8501180135
 20
10.1395170752
 30
0.0
 10
11.877074806
 20
10.140780712
 30
0.0
 10
11.9043818582
 20
10.1413576095
 30
0.0
 10
11.9317767409
 20
10.1412421116
 30
0.0
 10
11.9589960737
 20
10.1404353307
 30
0.0
 10
11.985778294
 20
10.1389452058
 30
0.0
 10
12.0118658515
 20
10.1367863379
 30
0.0
 10
12.0330393417
 20
10.1344232439
 30
0.0
 10
12.0494353137
 20
10.1322026811
 30
0.0
 10
12.0612731123
 20
10.1304028186
 30
0.0
 10
12.0727552215
 20
10.1284551674
 30
0.0
 10
12.083854056
 20
10.1263643961
 30
0.0
 10
12.0945429401
 20
10.124135577
 30
0.0
 10
12.104796218
 20
10.1217741474
 30
0.0
 10
12.1145892919
 20
10.1192858216
 30
0.0
 10
12.1238987011
 20
10.116676622
 30
0.0
 10
12.1327022016
 20
10.1139529106
 30
0.0
 10
12.1409788017
 20
10.1111212659
 30
0.0
 10
12.1487088391
 20
10.1081885017
 30
0.0
 10
12.1558740764
 20
10.1051616987
 30
0.0
 10
12.1624577248
 20
10.1020480403
 30
0.0
 10
12.16844452
 20
10.0988547727
 30
0.0
 10
12.1738208265
 20
10.0955891974
 30
0.0
 10
12.1785746084
 20
10.092258322
 30
0.0
 10
12.1826953074
 20
10.088868785
 30
0.0
 10
12.1861738379
 20
10.0854261802
 30
0.0
 10
12.1890012662
 20
10.0819361929
 30
0.0
 10
12.1908403045
 20
10.0789365111
 30
0.0
 10
12.1919512752
 20
10.0765325495
 30
0.0
 10
12.1926011985
 20
10.0747565665
 30
0.0
 10
12.1930822479
 20
10.0729760768
 30
0.0
 10
12.1933938979
 20
10.0711922653
 30
0.0
 10
12.1935356062
 20
10.0694065027
 30
0.0
 10
12.1935072536
 20
10.067620253
 30
0.0
 10
12.1933088907
 20
10.0658349702
 30
0.0
 10
12.1929407072
 20
10.0640521244
 30
0.0
 10
12.1924032505
 20
10.0622729734
 30
0.0
 10
12.1914459263
 20
10.0598671311
 30
0.0
 10
12.1897975967
 20
10.0568593268
 30
0.0
 10
12.1871892861
 20
10.053354541
 30
0.0
 10
12.1851103804
 20
10.0511503161
 30
0.0
 10
12.1839760503
 20
10.0500546373
 30
0.0
  0
SPLINE
  5
3CC
100
AcDbEntity
  8
0
100
AcDbSpline
 62
7
  6
CONTINUOUS
 70
0
 71
3
 72
15
 73
11
 74
0
 42
0.0000001
 43
0.0000001
 44
0.0000000001
 40
0.0
 40
0.0
 40
0.0
 40
0.0
 40
0.1265467372
 40
0.2527514677
 40
0.3785545863
 40
0.5039034575
 40
0.6287534078
 40
0.7530686068
 40
0.8768228178
 40
1.0
 40
1.0
 40
1.0
 40
1.0
 10
7.2631990583
 20
8.834160143
 30
0.0
 10
7.2602813045
 20
8.8391517542
 30
0.0
 10
7.254772424
 20
8.8493118556
 30
0.0
 10
7.2475231387
 20
8.8650279031
 30
0.0
 10
7.2413297958
 20
8.8811315253
 30
0.0
 10
7.2362218815
 20
8.8975467528
 30
0.0
 10
7.2322232314
 20
8.914197079
 30
0.0
 10
7.2293526769
 20
8.9310049679
 30
0.0
 10
7.2276237503
 20
8.9478908718
 30
0.0
 10
7.2272367934
 20
8.9591766668
 30
0.0
 10
7.2272367934
 20
8.9648045368
 30
0.0
  0
SPLINE
  5
3CD
100
AcDbEntity
  8
0
100
AcDbSpline
 62
7
  6
CONTINUOUS
 70
0
 71
3
 72
39
 73
35
 74
0
 42
0.0000001
 43
0.0000001
 44
0.0000000001
 40
0.0
 40
0.0
 40
0.0
 40
0.0
 40
0.0314025961
 40
0.0630095117
 40
0.0948071013
 40
0.1267734468
 40
0.1588809726
 40
0.1910970221
 40
0.2233851126
 40
0.2557062443
 40
0.2880202666
 40
0.3202872754
 40
0.3524690059
 40
0.3845301832
 40
0.4164397932
 40
0.4481722491
 40
0.4797084079
 40
0.5110363805
 40
0.5421521194
 40
0.5730597416
 40
0.6037715202
 40
0.6343075557
 40
0.6646951111
 40
0.6949675901
 40
0.7251632182
 40
0.7553234778
 40
0.7854913545
 40
0.8157095094
 40
0.8460184692
 40
0.8764549219
 40
0.9070502403
 40
0.9378293108
 40
0.9688091314
 40
1.0
 40
1.0
 40
1.0
 40
1.0
 10
10.9296082669
 20
8.8267646994
 30
0.0
 10
10.9213335433
 20
8.8273385534
 30
0.0
 10
10.9047758226
 20
8.8293054604
 30
0.0
 10
10.8802729277
 20
8.8346475356
 30
0.0
 10
10.8562449724
 20
8.8423395176
 30
0.0
 10
10.832925722
 20
8.8523068754
 30
0.0
 10
10.810538163
 20
8.8644532586
 30
0.0
 10
10.7892972675
 20
8.878661602
 30
0.0
 10
10.7694067774
 20
8.8947952963
 30
0.0
 10
10.7510575369
 20
8.9126992989
 30
0.0
 10
10.734425605
 20
8.9322016719
 30
0.0
 10
10.7196707536
 20
8.9531153062
 30
0.0
 10
10.706934839
 20
8.9752395617
 30
0.0
 10
10.6963403933
 20
8.9983621494
 30
0.0
 10
10.6879896455
 20
9.0222612272
 30
0.0
 10
10.6819634632
 20
9.0467074064
 30
0.0
 10
10.6783203985
 20
9.0714658775
 30
0.0
 10
10.6770963255
 20
9.0962986805
 30
0.0
 10
10.6783040235
 20
9.1209668918
 30
0.0
 10
10.6819327509
 20
9.1452328969
 30
0.0
 10
10.6879484925
 20
9.1688626734
 30
0.0
 10
10.6962942215
 20
9.1916279974
 30
0.0
 10
10.7068901108
 20
9.2133087596
 30
0.0
 10
10.7196343881
 20
9.2336951418
 30
0.0
 10
10.7344043454
 20
9.2525896586
 30
0.0
 10
10.7510573136
 20
9.2698092999
 30
0.0
 10
10.7694321458
 20
9.2851874135
 30
0.0
 10
10.7893509675
 20
9.2985752668
 30
0.0
 10
10.8106208423
 20
9.3098436644
 30
0.0
 10
10.8330358504
 20
9.3188842744
 30
0.0
 10
10.8563789616
 20
9.325610477
 30
0.0
 10
10.8804253287
 20
9.3299580345
 30
0.0
 10
10.9049399296
 20
9.3318864314
 30
0.0
 10
10.9213893345
 20
9.3315479955
 30
0.0
 10
10.9296082669
 20
9.3309780106
 30
0.0
  0
SPLINE
  5
3CE
100
AcDbEntity
  8
0
100
AcDbSpline
 62
7
  6
CONTINUOUS
 70
0
 71
3
 72
11
 73
7
 74
0
 42
0.0000001
 43
0.0000001
 44
0.0000000001
 40
0.0
 40
0.0
 40
0.0
 40
0.0
 40
0.2535505601
 40
0.5040711922
 40
0.7525496942
 40
1.0
 40
1.0
 40
1.0
 40
1.0
 10
14.067435748
 20
7.4913028505
 30
0.0
 10
14.0659929596
 20
7.4910226837
 30
0.0
 10
14.0631064387
 20
7.4905546578
 30
0.0
 10
14.0587614555
 20
7.4901346511
 30
0.0
 10
14.0544335662
 20
7.4900017754
 30
0.0
 10
14.051558185
 20
7.4901048564
 30
0.0
 10
14.0501272438
 20
7.4902040878
 30
0.0
  0
SPLINE
  5
3CF
100
AcDbEntity
  8
0
100
AcDbSpline
 62
7
  6
CONTINUOUS
 70
0
 71
3
 72
11
 73
7
 74
0
 42
0.0000001
 43
0.0000001
 44
0.0000000001
 40
0.0
 40
0.0
 40
0.0
 40
0.0
 40
0.247562961
 40
0.4961081272
 40
0.746605209
 40
1.0
 40
1.0
 40
1.0
 40
1.0
 10
14.192922342
 20
9.5492586148
 30
0.0
 10
14.1943206719
 20
9.5491616449
 30
0.0
 10
14.1971173786
 20
9.5488757528
 30
0.0
 10
14.2012886861
 20
9.5481730981
 30
0.0
 10
14.2054383916
 20
9.5471966157
 30
0.0
 10
14.2081709439
 20
9.5463688877
 30
0.0
 10
14.2095307457
 20
9.5459113675
 30
0.0
  0
SPLINE
  5
3D0
100
AcDbEntity
  8
0
100
AcDbSpline
 62
7
  6
CONTINUOUS
 70
0
 71
3
 72
41
 73
37
 74
0
 42
0.0000001
 43
0.0000001
 44
0.0000000001
 40
0.0
 40
0.0
 40
0.0
 40
0.0
 40
0.0311444435
 40
0.0624425082
 40
0.0938872491
 40
0.1254695823
 40
0.1571771047
 40
0.1889951244
 40
0.2209066755
 40
0.2528929806
 40
0.2849337954
 40
0.3170078208
 40
0.3490931155
 40
0.3811675209
 40
0.4132090884
 40
0.4451965039
 40
0.4771095035
 40
0.5089292748
 40
0.5406388381
 40
0.5722234001
 40
0.6036706745
 40
0.6349711617
 40
0.666118382
 40
0.6971090532
 40
0.7279432083
 40
0.7586242446
 40
0.7891589004
 40
0.819557156
 40
0.849832054
 40
0.8649308927
 40
0.8800050544
 40
0.9100832588
 40
0.9400926743
 40
0.955081275
 40
0.9700610362
 40
1.0
 40
1.0
 40
1.0
 40
1.0
 10
10.9365963754
 20
8.8595946931
 30
0.0
 10
10.9310770559
 20
8.8599774592
 30
0.0
 10
10.9200351054
 20
8.8611488896
 30
0.0
 10
10.9036060682
 20
8.8640996743
 30
0.0
 10
10.88735297
 20
8.8682329374
 30
0.0
 10
10.8713636664
 20
8.87352631
 30
0.0
 10
10.8557230442
 20
8.8799515152
 30
0.0
 10
10.8405145519
 20
8.8874741358
 30
0.0
 10
10.8258192046
 20
8.8960539914
 30
0.0
 10
10.8117153073
 20
8.9056452631
 30
0.0
 10
10.7982780058
 20
8.9161967752
 30
0.0
 10
10.7855788993
 20
8.927652251
 30
0.0
 10
10.7736856616
 20
8.9399506163
 30
0.0
 10
10.762661684
 20
8.9530263196
 30
0.0
 10
10.7525657417
 20
8.9668096794
 30
0.0
 10
10.7434516822
 20
8.9812272506
 30
0.0
 10
10.7353681412
 20
8.9962022126
 30
0.0
 10
10.7283582849
 20
9.0116547727
 30
0.0
 10
10.72245958
 20
9.0275025873
 30
0.0
 10
10.7177035945
 20
9.0436611937
 30
0.0
 10
10.7141158278
 20
9.0600444553
 30
0.0
 10
10.7117155715
 20
9.0765650138
 30
0.0
 10
10.710515804
 20
9.09313475
 30
0.0
 10
10.7105231121
 20
9.1096652436
 30
0.0
 10
10.7117376577
 20
9.1260682569
 30
0.0
 10
10.7141531349
 20
9.142256139
 30
0.0
 10
10.7177569128
 20
9.1581425287
 30
0.0
 10
10.722529654
 20
9.1736419373
 30
0.0
 10
10.7274654604
 20
9.1861800527
 30
0.0
 10
10.731969651
 20
9.1959303713
 30
0.0
 10
10.7368305216
 20
9.2054686945
 30
0.0
 10
10.7435795779
 20
9.2170057897
 30
0.0
 10
10.7511966838
 20
9.2279707508
 30
0.0
 10
10.7577789425
 20
9.2363521251
 30
0.0
 10
10.7646752561
 20
9.2444598851
 30
0.0
 10
10.7702003782
 20
9.2502319414
 30
0.0
 10
10.7740256827
 20
9.2539269056
 30
0.0
  0
SPLINE
  5
3D1
100
AcDbEntity
  8
0
100
AcDbSpline
 62
7
  6
CONTINUOUS
 70
0
 71
3
 72
39
 73
35
 74
0
 42
0.0000001
 43
0.0000001
 44
0.0000000001
 40
0.0
 40
0.0
 40
0.0
 40
0.0
 40
0.0314025961
 40
0.0630095117
 40
0.0948071013
 40
0.1267734468
 40
0.1588809726
 40
0.1910970221
 40
0.2233851126
 40
0.2557062443
 40
0.2880202666
 40
0.3202872754
 40
0.3524690059
 40
0.3845301832
 40
0.4164397932
 40
0.4481722491
 40
0.4797084079
 40
0.5110363805
 40
0.5421521194
 40
0.5730597416
 40
0.6037715202
 40
0.6343075557
 40
0.6646951111
 40
0.6949675901
 40
0.7251632182
 40
0.7553234778
 40
0.7854913545
 40
0.8157095094
 40
0.8460184692
 40
0.8764549219
 40
0.9070502403
 40
0.9378293108
 40
0.9688091314
 40
1.0
 40
1.0
 40
1.0
 40
1.0
 10
10.9296082669
 20
6.2921751686
 30
0.0
 10
10.9213335433
 20
6.2927490226
 30
0.0
 10
10.9047758226
 20
6.2947159296
 30
0.0
 10
10.8802729277
 20
6.3000580048
 30
0.0
 10
10.8562449724
 20
6.3077499868
 30
0.0
 10
10.832925722
 20
6.3177173446
 30
0.0
 10
10.810538163
 20
6.3298637278
 30
0.0
 10
10.7892972675
 20
6.3440720712
 30
0.0
 10
10.7694067774
 20
6.3602057655
 30
0.0
 10
10.7510575369
 20
6.3781097681
 30
0.0
 10
10.734425605
 20
6.3976121411
 30
0.0
 10
10.7196707536
 20
6.4185257754
 30
0.0
 10
10.706934839
 20
6.4406500309
 30
0.0
 10
10.6963403933
 20
6.4637726186
 30
0.0
 10
10.6879896455
 20
6.4876716964
 30
0.0
 10
10.6819634632
 20
6.5121178756
 30
0.0
 10
10.6783203985
 20
6.5368763467
 30
0.0
 10
10.6770963255
 20
6.5617091497
 30
0.0
 10
10.6783040235
 20
6.586377361
 30
0.0
 10
10.6819327509
 20
6.6106433661
 30
0.0
 10
10.6879484925
 20
6.6342731426
 30
0.0
 10
10.6962942215
 20
6.6570384666
 30
0.0
 10
10.7068901108
 20
6.6787192288
 30
0.0
 10
10.7196343881
 20
6.699105611
 30
0.0
 10
10.7344043454
 20
6.7180001278
 30
0.0
 10
10.7510573136
 20
6.7352197691
 30
0.0
 10
10.7694321458
 20
6.7505978827
 30
0.0
 10
10.7893509675
 20
6.763985736
 30
0.0
 10
10.8106208423
 20
6.7752541337
 30
0.0
 10
10.8330358504
 20
6.7842947436
 30
0.0
 10
10.8563789616
 20
6.7910209462
 30
0.0
 10
10.8804253287
 20
6.7953685037
 30
0.0
 10
10.9049399296
 20
6.7972969006
 30
0.0
 10
10.9213893345
 20
6.7969584647
 30
0.0
 10
10.9296082669
 20
6.7963884798
 30
0.0
  0
SPLINE
  5
3D2
100
AcDbEntity
  8
0
100
AcDbSpline
 62
7
  6
CONTINUOUS
 70
0
 71
3
 72
41
 73
37
 74
0
 42
0.0000001
 43
0.0000001
 44
0.0000000001
 40
0.0
 40
0.0
 40
0.0
 40
0.0
 40
0.0311444435
 40
0.0624425082
 40
0.0938872491
 40
0.1254695823
 40
0.1571771047
 40
0.1889951244
 40
0.2209066755
 40
0.2528929806
 40
0.2849337954
 40
0.3170078208
 40
0.3490931155
 40
0.3811675209
 40
0.4132090884
 40
0.4451965039
 40
0.4771095035
 40
0.5089292748
 40
0.5406388381
 40
0.5722234001
 40
0.6036706745
 40
0.6349711617
 40
0.666118382
 40
0.6971090532
 40
0.7279432083
 40
0.7586242446
 40
0.7891589004
 40
0.819557156
 40
0.849832054
 40
0.8649308927
 40
0.8800050544
 40
0.9100832588
 40
0.9400926743
 40
0.955081275
 40
0.9700610362
 40
1.0
 40
1.0
 40
1.0
 40
1.0
 10
12.1440037298
 20
8.7758607086
 30
0.0
 10
12.1384844103
 20
8.7762434747
 30
0.0
 10
12.1274424598
 20
8.7774149052
 30
0.0
 10
12.1110134226
 20
8.7803656898
 30
0.0
 10
12.0947603244
 20
8.784498953
 30
0.0
 10
12.0787710208
 20
8.7897923256
 30
0.0
 10
12.0631303986
 20
8.7962175308
 30
0.0
 10
12.0479219063
 20
8.8037401514
 30
0.0
 10
12.033226559
 20
8.812320007
 30
0.0
 10
12.0191226617
 20
8.8219112787
 30
0.0
 10
12.0056853602
 20
8.8324627908
 30
0.0
 10
11.9929862537
 20
8.8439182666
 30
0.0
 10
11.981093016
 20
8.8562166318
 30
0.0
 10
11.9700690385
 20
8.8692923352
 30
0.0
 10
11.9599730961
 20
8.8830756949
 30
0.0
 10
11.9508590366
 20
8.8974932662
 30
0.0
 10
11.9427754957
 20
8.9124682281
 30
0.0
 10
11.9357656393
 20
8.9279207883
 30
0.0
 10
11.9298669344
 20
8.9437686028
 30
0.0
 10
11.925110949
 20
8.9599272093
 30
0.0
 10
11.9215231822
 20
8.9763104709
 30
0.0
 10
11.9191229259
 20
8.9928310294
 30
0.0
 10
11.9179231584
 20
9.0094007656
 30
0.0
 10
11.9179304665
 20
9.0259312591
 30
0.0
 10
11.9191450121
 20
9.0423342725
 30
0.0
 10
11.9215604893
 20
9.0585221546
 30
0.0
 10
11.9251642672
 20
9.0744085443
 30
0.0
 10
11.9299370084
 20
9.0899079529
 30
0.0
 10
11.9348728148
 20
9.1024460683
 30
0.0
 10
11.9393770054
 20
9.1121963869
 30
0.0
 10
11.944237876
 20
9.12173471
 30
0.0
 10
11.9509869323
 20
9.1332718053
 30
0.0
 10
11.9586040382
 20
9.1442367664
 30
0.0
 10
11.9651862969
 20
9.1526181407
 30
0.0
 10
11.9720826105
 20
9.1607259007
 30
0.0
 10
11.9776077326
 20
9.166497957
 30
0.0
 10
11.9814330371
 20
9.1701929211
 30
0.0
  0
SPLINE
  5
3D3
100
AcDbEntity
  8
0
100
AcDbSpline
 62
7
  6
CONTINUOUS
 70
0
 71
3
 72
39
 73
35
 74
0
 42
0.0000001
 43
0.0000001
 44
0.0000000001
 40
0.0
 40
0.0
 40
0.0
 40
0.0
 40
0.0299424706
 40
0.059909318
 40
0.0899243245
 40
0.120010104
 40
0.1501875638
 40
0.1804754172
 40
0.2108897627
 40
0.2414437402
 40
0.2721472662
 40
0.3030068506
 40
0.3340255036
 40
0.3652027233
 40
0.3965345594
 40
0.4280137458
 40
0.459629903
 40
0.4913697971
 40
0.523217645
 40
0.5551554619
 40
0.5871634456
 40
0.6192203877
 40
0.6513041028
 40
0.6833918731
 40
0.7154609003
 40
0.7474887587
 40
0.7794538419
 40
0.8113358007
 40
0.8431159608
 40
0.874777714
 40
0.9063068772
 40
0.9376920832
 40
0.968924649
 40
1.0
 40
1.0
 40
1.0
 40
1.0
 10
11.9675280355
 20
7.3201749367
 30
0.0
 10
11.9571594922
 20
7.3101597061
 30
0.0
 10
11.9356070756
 20
7.290937548
 30
0.0
 10
11.9010767754
 20
7.26475075
 30
0.0
 10
11.8645212856
 20
7.2413414496
 30
0.0
 10
11.8261448586
 20
7.2208409664
 30
0.0
 10
11.7861584625
 20
7.2033613459
 30
0.0
 10
11.7447827963
 20
7.1889986417
 30
0.0
 10
11.7022458697
 20
7.1778314164
 30
0.0
 10
11.6587820238
 20
7.1699206474
 30
0.0
 10
11.6146305562
 20
7.1653093534
 30
0.0
 10
11.5700344319
 20
7.1640222884
 30
0.0
 10
11.5252389166
 20
7.1660659334
 30
0.0
 10
11.4804902444
 20
7.1714285078
 30
0.0
 10
11.43603429
 20
7.1800800624
 30
0.0
 10
11.3921152106
 20
7.191972545
 30
0.0
 10
11.3489741308
 20
7.2070401846
 30
0.0
 10
11.3068478483
 20
7.225199873
 30
0.0
 10
11.2659675651
 20
7.2463516263
 30
0.0
 10
11.2265575818
 20
7.2703790305
 30
0.0
 10
11.1888341211
 20
7.2971499788
 30
0.0
 10
11.1530041689
 20
7.3265173969
 30
0.0
 10
11.1192643625
 20
7.3583200407
 30
0.0
 10
11.0877998426
 20
7.3923832887
 30
0.0
 10
11.0587833137
 20
7.4285201761
 30
0.0
 10
11.0323741164
 20
7.4665324097
 30
0.0
 10
11.0087173692
 20
7.5062114352
 30
0.0
 10
10.987943076
 20
7.5473395166
 30
0.0
 10
10.9701655039
 20
7.5896909534
 30
0.0
 10
10.9554825736
 20
7.6330333983
 30
0.0
 10
10.9439752884
 20
7.677128747
 30
0.0
 10
10.9357073109
 20
7.7217356787
 30
0.0
 10
10.9307243332
 20
7.7666060879
 30
0.0
 10
10.9296082669
 20
7.7966154708
 30
0.0
 10
10.9296082669
 20
7.8115765608
 30
0.0
  0
SPLINE
  5
3D4
100
AcDbEntity
  8
0
100
AcDbSpline
 62
7
  6
CONTINUOUS
 70
0
 71
3
 72
19
 73
15
 74
0
 42
0.0000001
 43
0.0000001
 44
0.0000000001
 40
0.0
 40
0.0
 40
0.0
 40
0.0
 40
0.0616584462
 40
0.1233399329
 40
0.1850672163
 40
0.2468625637
 40
0.3087474953
 40
0.370742507
 40
0.4328668993
 40
0.495138574
 40
0.6201443378
 40
0.7459117844
 40
0.8725152897
 40
1.0
 40
1.0
 40
1.0
 40
1.0
 10
12.3065744224
 20
6.2989922788
 30
0.0
 10
12.3039484617
 20
6.296455793
 30
0.0
 10
12.2985579823
 20
6.2915221115
 30
0.0
 10
12.2900845626
 20
6.2845654441
 30
0.0
 10
12.2812431709
 20
6.2780686315
 30
0.0
 10
12.2720564524
 20
6.2720482447
 30
0.0
 10
12.2625473933
 20
6.266519444
 30
0.0
 10
12.2527400979
 20
6.2614961692
 30
0.0
 10
12.242658933
 20
6.2569908959
 30
0.0
 10
12.228871674
 20
6.2516839419
 30
0.0
 10
12.211065993
 20
6.2464004023
 30
0.0
 10
12.1890608817
 20
6.2422956415
 30
0.0
 10
12.1666065455
 20
6.2404549242
 30
0.0
 10
12.1515343276
 20
6.2407489291
 30
0.0
 10
12.1440037298
 20
6.2412711778
 30
0.0
  0
SPLINE
  5
3D5
100
AcDbEntity
  8
0
100
AcDbSpline
 62
7
  6
CONTINUOUS
 70
0
 71
3
 72
19
 73
15
 74
0
 42
0.0000001
 43
0.0000001
 44
0.0000000001
 40
0.0
 40
0.0
 40
0.0
 40
0.0
 40
0.0616584462
 40
0.1233399329
 40
0.1850672163
 40
0.2468625637
 40
0.3087474953
 40
0.370742507
 40
0.4328668993
 40
0.495138574
 40
0.6201443378
 40
0.7459117844
 40
0.8725152897
 40
1.0
 40
1.0
 40
1.0
 40
1.0
 10
11.099167068
 20
6.3827262633
 30
0.0
 10
11.0965411073
 20
6.3801897775
 30
0.0
 10
11.0911506279
 20
6.3752560959
 30
0.0
 10
11.0826772082
 20
6.3682994285
 30
0.0
 10
11.0738358165
 20
6.3618026159
 30
0.0
 10
11.064649098
 20
6.3557822291
 30
0.0
 10
11.0551400389
 20
6.3502534285
 30
0.0
 10
11.0453327435
 20
6.3452301537
 30
0.0
 10
11.0352515786
 20
6.3407248803
 30
0.0
 10
11.0214643196
 20
6.3354179263
 30
0.0
 10
11.0036586386
 20
6.3301343867
 30
0.0
 10
10.9816535273
 20
6.326029626
 30
0.0
 10
10.9591991911
 20
6.3241889086
 30
0.0
 10
10.9441269732
 20
6.3244829135
 30
0.0
 10
10.9365963754
 20
6.3250051623
 30
0.0
  0
SPLINE
  5
3D6
100
AcDbEntity
  8
0
100
AcDbSpline
 62
7
  6
CONTINUOUS
 70
0
 71
3
 72
23
 73
19
 74
0
 42
0.0000001
 43
0.0000001
 44
0.0000000001
 40
0.0
 40
0.0
 40
0.0
 40
0.0
 40
0.0637772827
 40
0.1273447928
 40
0.1907019891
 40
0.2538561422
 40
0.3168131889
 40
0.3795820982
 40
0.4421733894
 40
0.5045993375
 40
0.5668738648
 40
0.6290123797
 40
0.6910316513
 40
0.752949645
 40
0.814785352
 40
0.8765586
 40
0.9382898524
 40
1.0
 40
1.0
 40
1.0
 40
1.0
 10
10.9296082669
 20
7.8115765608
 30
0.0
 10
10.9296082669
 20
7.8212195763
 30
0.0
 10
10.9300698125
 20
7.8404771581
 30
0.0
 10
10.9321530454
 20
7.8692464036
 30
0.0
 10
10.9356216087
 20
7.8977875641
 30
0.0
 10
10.9404672641
 20
7.9260337193
 30
0.0
 10
10.9466791243
 20
7.9539202245
 30
0.0
 10
10.954242863
 20
7.9813826329
 30
0.0
 10
10.9631411245
 20
8.008357669
 30
0.0
 10
10.9733534335
 20
8.0347831256
 30
0.0
 10
10.9848562943
 20
8.0605980622
 30
0.0
 10
10.9976232402
 20
8.0857429347
 30
0.0
 10
11.0116248881
 20
8.1101597248
 30
0.0
 10
11.0268289977
 20
8.1337921131
 30
0.0
 10
11.0432004637
 20
8.1565855398
 30
0.0
 10
11.0607017349
 20
8.178487601
 30
0.0
 10
11.0792917572
 20
8.1994470937
 30
0.0
 10
11.0923848663
 20
8.212761894
 30
0.0
 10
11.0990958527
 20
8.2192442005
 30
0.0
  0
SPLINE
  5
3D7
100
AcDbEntity
  8
0
100
AcDbSpline
 62
7
  6
CONTINUOUS
 70
0
 71
3
 72
19
 73
15
 74
0
 42
0.0000001
 43
0.0000001
 44
0.0000000001
 40
0.0
 40
0.0
 40
0.0
 40
0.0
 40
0.0616584462
 40
0.1233399329
 40
0.1850672163
 40
0.2468625637
 40
0.3087474953
 40
0.370742507
 40
0.4328668993
 40
0.495138574
 40
0.6201443378
 40
0.7459117844
 40
0.8725152897
 40
1.0
 40
1.0
 40
1.0
 40
1.0
 10
12.3065744224
 20
8.8335818096
 30
0.0
 10
12.3039484617
 20
8.8310453238
 30
0.0
 10
12.2985579823
 20
8.8261116423
 30
0.0
 10
12.2900845626
 20
8.8191549749
 30
0.0
 10
12.2812431709
 20
8.8126581623
 30
0.0
 10
12.2720564524
 20
8.8066377755
 30
0.0
 10
12.2625473933
 20
8.8011089748
 30
0.0
 10
12.2527400979
 20
8.7960857
 30
0.0
 10
12.242658933
 20
8.7915804267
 30
0.0
 10
12.228871674
 20
8.7862734727
 30
0.0
 10
12.211065993
 20
8.7809899331
 30
0.0
 10
12.1890608817
 20
8.7768851723
 30
0.0
 10
12.1666065455
 20
8.775044455
 30
0.0
 10
12.1515343276
 20
8.7753384599
 30
0.0
 10
12.1440037298
 20
8.7758607086
 30
0.0
  0
SPLINE
  5
3D8
100
AcDbEntity
  8
0
100
AcDbSpline
 62
7
  6
CONTINUOUS
 70
0
 71
3
 72
19
 73
15
 74
0
 42
0.0000001
 43
0.0000001
 44
0.0000000001
 40
0.0
 40
0.0
 40
0.0
 40
0.0
 40
0.0616584462
 40
0.1233399329
 40
0.1850672163
 40
0.2468625637
 40
0.3087474953
 40
0.370742507
 40
0.4328668993
 40
0.495138574
 40
0.6201443378
 40
0.7459117844
 40
0.8725152897
 40
1.0
 40
1.0
 40
1.0
 40
1.0
 10
11.099167068
 20
8.9173157941
 30
0.0
 10
11.0965411073
 20
8.9147793083
 30
0.0
 10
11.0911506279
 20
8.9098456267
 30
0.0
 10
11.0826772082
 20
8.9028889593
 30
0.0
 10
11.0738358165
 20
8.8963921467
 30
0.0
 10
11.064649098
 20
8.8903717599
 30
0.0
 10
11.0551400389
 20
8.8848429593
 30
0.0
 10
11.0453327435
 20
8.8798196845
 30
0.0
 10
11.0352515786
 20
8.8753144111
 30
0.0
 10
11.0214643196
 20
8.8700074571
 30
0.0
 10
11.0036586386
 20
8.8647239175
 30
0.0
 10
10.9816535273
 20
8.8606191568
 30
0.0
 10
10.9591991911
 20
8.8587784394
 30
0.0
 10
10.9441269732
 20
8.8590724443
 30
0.0
 10
10.9365963754
 20
8.8595946931
 30
0.0
  0
SPLINE
  5
3D9
100
AcDbEntity
  8
0
100
AcDbSpline
 62
7
  6
CONTINUOUS
 70
0
 71
3
 72
23
 73
19
 74
0
 42
0.0000001
 43
0.0000001
 44
0.0000000001
 40
0.0
 40
0.0
 40
0.0
 40
0.0
 40
0.0607006764
 40
0.1215933427
 40
0.1827013549
 40
0.2440444122
 40
0.305638264
 40
0.367494493
 40
0.4296203862
 40
0.4920188764
 40
0.5546885416
 40
0.6176236979
 40
0.6808145232
 40
0.7442471696
 40
0.80790462
 40
0.8717646907
 40
0.9358069776
 40
1.0
 40
1.0
 40
1.0
 40
1.0
 10
7.2642499182
 20
9.0654310548
 30
0.0
 10
7.2620949028
 20
9.061150822
 30
0.0
 10
7.2580633872
 20
9.0524297731
 30
0.0
 10
7.2528887688
 20
9.0389555514
 30
0.0
 10
7.2485973553
 20
9.0251208984
 30
0.0
 10
7.2452065475
 20
9.0109817901
 30
0.0
 10
7.242729693
 20
8.9965944318
 30
0.0
 10
7.2411765845
 20
8.9820162668
 30
0.0
 10
7.2405532935
 20
8.9673054062
 30
0.0
 10
7.2408622039
 20
8.9525204865
 30
0.0
 10
7.2421019897
 20
8.9377204152
 30
0.0
 10
7.2442676295
 20
8.9229641441
 30
0.0
 10
7.247350433
 20
8.9083104535
 30
0.0
 10
7.2513380151
 20
8.8938176403
 30
0.0
 10
7.2562144447
 20
8.8795435434
 30
0.0
 10
7.2619602477
 20
8.865544571
 30
0.0
 10
7.268552292
 20
8.8518773531
 30
0.0
 10
7.2734892479
 20
8.8430308723
 30
0.0
 10
7.2760890064
 20
8.8386806737
 30
0.0
  0
SPLINE
  5
3DA
100
AcDbEntity
  8
0
100
AcDbSpline
 62
7
  6
CONTINUOUS
 70
0
 71
3
 72
11
 73
7
 74
0
 42
0.0000001
 43
0.0000001
 44
0.0000000001
 40
0.0
 40
0.0
 40
0.0
 40
0.0
 40
0.2476844252
 40
0.4968097473
 40
0.7475441204
 40
1.0
 40
1.0
 40
1.0
 40
1.0
 10
7.2466395744
 20
9.0592804916
 30
0.0
 10
7.2434420015
 20
9.0519303697
 30
0.0
 10
7.2378009427
 20
9.0368378558
 30
0.0
 10
7.2317186921
 20
9.0133801874
 30
0.0
 10
7.2280482468
 20
8.9892707863
 30
0.0
 10
7.2272367934
 20
8.9729744827
 30
0.0
 10
7.2272367934
 20
8.9648045368
 30
0.0
  0
SPLINE
  5
3DB
100
AcDbEntity
  8
0
100
AcDbSpline
 62
7
  6
CONTINUOUS
 70
0
 71
3
 72
15
 73
11
 74
0
 42
0.0000001
 43
0.0000001
 44
0.0000000001
 40
0.0
 40
0.0
 40
0.0
 40
0.0
 40
0.1234394227
 40
0.2470466262
 40
0.3709825615
 40
0.4953948806
 40
0.6204121373
 40
0.7461393726
 40
0.8726516824
 40
1.0
 40
1.0
 40
1.0
 40
1.0
 10
7.1731235754
 20
9.0120688979
 30
0.0
 10
7.1676482933
 20
9.0067801906
 30
0.0
 10
7.1572275858
 20
8.9956226333
 30
0.0
 10
7.1433877322
 20
8.9773572205
 30
0.0
 10
7.1314548248
 20
8.95771991
 30
0.0
 10
7.1215410675
 20
8.9368946858
 30
0.0
 10
7.1137368871
 20
8.9150738336
 30
0.0
 10
7.1081138346
 20
8.8924586036
 30
0.0
 10
7.1047227158
 20
8.8692604922
 30
0.0
 10
7.103972861
 20
8.8535942063
 30
0.0
 10
7.103972861
 20
8.8457407139
 30
0.0
  0
SPLINE
  5
3DC
100
AcDbEntity
  8
0
100
AcDbSpline
 62
7
  6
CONTINUOUS
 70
0
 71
3
 72
25
 73
21
 74
0
 42
0.0000001
 43
0.0000001
 44
0.0000000001
 40
0.0
 40
0.0
 40
0.0
 40
0.0
 40
0.0626906788
 40
0.1251309868
 40
0.1873614929
 40
0.2494282334
 40
0.3113815514
 40
0.3732747934
 40
0.4351629036
 40
0.4971009629
 40
0.5591427229
 40
0.621339188
 40
0.6837372821
 40
0.7150316645
 40
0.7463915605
 40
0.8093116013
 40
0.8725387158
 40
0.9042796372
 40
0.9361053813
 40
1.0
 40
1.0
 40
1.0
 40
1.0
 10
7.2510755862
 20
9.0903205221
 30
0.0
 10
7.24427453
 20
9.088459833
 30
0.0
 10
7.2308425291
 20
9.0841976749
 30
0.0
 10
7.2113200265
 20
9.0762047443
 30
0.0
 10
7.1925781317
 20
9.0666721944
 30
0.0
 10
7.1747315321
 20
9.0556576968
 30
0.0
 10
7.157887356
 20
9.0432273307
 30
0.0
 10
7.1421472767
 20
9.0294559403
 30
0.0
 10
7.1276061269
 20
9.0144264532
 30
0.0
 10
7.1143515387
 20
8.998229512
 30
0.0
 10
7.1024632162
 20
8.9809625505
 30
0.0
 10
7.0920129497
 20
8.9627304761
 30
0.0
 10
7.0845608577
 20
8.9468362728
 30
0.0
 10
7.0793766071
 20
8.9337580381
 30
0.0
 10
7.0747070841
 20
8.9204249723
 30
0.0
 10
7.0698698754
 20
8.9033617562
 30
0.0
 10
7.0664039925
 20
8.8859249554
 30
0.0
 10
7.064457396
 20
8.8717941975
 30
0.0
 10
7.0630613092
 20
8.8575237342
 30
0.0
 10
7.0626446542
 20
8.8467514785
 30
0.0
 10
7.0626446542
 20
8.8395650731
 30
0.0
  0
SPLINE
  5
3DD
100
AcDbEntity
  8
0
100
AcDbSpline
 62
7
  6
CONTINUOUS
 70
0
 71
3
 72
23
 73
19
 74
0
 42
0.0000001
 43
0.0000001
 44
0.0000000001
 40
0.0
 40
0.0
 40
0.0
 40
0.0
 40
0.0630509608
 40
0.1257811011
 40
0.1882283924
 40
0.2504394296
 40
0.3124681041
 40
0.3743739968
 40
0.436220547
 40
0.4980730677
 40
0.5599966832
 40
0.6220542745
 40
0.684304515
 40
0.7468000891
 40
0.8095860495
 40
0.872698958
 40
0.9361643744
 40
1.0
 40
1.0
 40
1.0
 40
1.0
 10
7.2506091705
 20
9.0920185839
 30
0.0
 10
7.242402656
 20
9.0907610252
 30
0.0
 10
7.2261307007
 20
9.087542917
 30
0.0
 10
7.2023010707
 20
9.0806169938
 30
0.0
 10
7.1792770756
 20
9.0716529483
 30
0.0
 10
7.1572259083
 20
9.0607148109
 30
0.0
 10
7.1363048399
 20
9.0478804034
 30
0.0
 10
7.116663902
 20
9.0332413729
 30
0.0
 10
7.0984437464
 20
9.016902373
 30
0.0
 10
7.0817748655
 20
8.9989803461
 30
0.0
 10
7.0667765454
 20
8.9796036486
 30
0.0
 10
7.05355601
 20
8.9589110885
 30
0.0
 10
7.0422076147
 20
8.9370509148
 30
0.0
 10
7.0328121896
 20
8.91417964
 30
0.0
 10
7.0254364271
 20
8.8904611025
 30
0.0
 10
7.0201326439
 20
8.8660643816
 30
0.0
 10
7.0169380061
 20
8.841166052
 30
0.0
 10
7.0162313826
 20
8.8243945796
 30
0.0
 10
7.0162313826
 20
8.8159889489
 30
0.0
  0
SPLINE
  5
3DE
100
AcDbEntity
  8
0
100
AcDbSpline
 62
7
  6
CONTINUOUS
 70
0
 71
3
 72
21
 73
17
 74
0
 42
0.0000001
 43
0.0000001
 44
0.0000000001
 40
0.0
 40
0.0
 40
0.0
 40
0.0
 40
0.0616925892
 40
0.1234173969
 40
0.18519348
 40
0.2470394225
 40
0.3089731364
 40
0.3710117171
 40
0.4331712991
 40
0.4954668807
 40
0.5579122294
 40
0.6205197148
 40
0.6833002178
 40
0.7462634036
 40
0.8727301514
 40
1.0
 40
1.0
 40
1.0
 40
1.0
 10
7.026154343
 20
9.0783958795
 30
0.0
 10
7.0221110897
 20
9.0742269964
 30
0.0
 10
7.0142271264
 20
9.0656857184
 30
0.0
 10
7.0030450448
 20
9.052302042
 30
0.0
 10
6.9925271707
 20
9.038371699
 30
0.0
 10
6.9826963177
 20
9.023924674
 30
0.0
 10
6.973573316
 20
9.0089915807
 30
0.0
 10
6.9651774906
 20
8.993604275
 30
0.0
 10
6.95752671
 20
8.9777954555
 30
0.0
 10
6.9506372805
 20
8.9615987392
 30
0.0
 10
6.9445237274
 20
8.9450485919
 30
0.0
 10
6.9391990608
 20
8.9281803112
 30
0.0
 10
6.9346745906
 20
8.9110293237
 30
0.0
 10
6.9297149312
 20
8.8878030678
 30
0.0
 10
6.9255669459
 20
8.858233622
 30
0.0
 10
6.9244684237
 20
8.8343334952
 30
0.0
 10
6.9244684237
 20
8.8223527317
 30
0.0
  0
SPLINE
  5
3DF
100
AcDbEntity
  8
0
100
AcDbSpline
 62
7
  6
CONTINUOUS
 70
0
 71
3
 72
41
 73
37
 74
0
 42
0.0000001
 43
0.0000001
 44
0.0000000001
 40
0.0
 40
0.0
 40
0.0
 40
0.0
 40
0.0299421231
 40
0.0449237695
 40
0.0599145183
 40
0.0899291758
 40
0.1200146052
 40
0.1350933672
 40
0.1501974867
 40
0.1804849861
 40
0.2108989765
 40
0.2414525971
 40
0.2721557632
 40
0.3030149856
 40
0.3340332752
 40
0.3652101299
 40
0.396541598
 40
0.4280204146
 40
0.4596362012
 40
0.4913757235
 40
0.5232231978
 40
0.5551606402
 40
0.5871682493
 40
0.6192248165
 40
0.6513081566
 40
0.6833955523
 40
0.7154642055
 40
0.7474916905
 40
0.7794564022
 40
0.8113379898
 40
0.8431177829
 40
0.8747791608
 40
0.9063079861
 40
0.9376927275
 40
0.9689252295
 40
1.0
 40
1.0
 40
1.0
 40
1.0
 10
7.5274443472
 20
8.6452490644
 30
0.0
 10
7.5232139783
 20
8.6411628489
 30
0.0
 10
7.5166191123
 20
8.6352810734
 30
0.0
 10
7.5073830735
 20
8.6279831451
 30
0.0
 10
7.4978529666
 20
8.6210482995
 30
0.0
 10
7.4854176906
 20
8.6130849014
 30
0.0
 10
7.4723778125
 20
8.6061192029
 30
0.0
 10
7.4616232832
 20
8.6011637986
 30
0.0
 10
7.4506465965
 20
8.5966174623
 30
0.0
 10
7.4365639985
 20
8.5917288598
 30
0.0
 10
7.4192093242
 20
8.5871727866
 30
0.0
 10
7.4014759612
 20
8.5839451381
 30
0.0
 10
7.3834621857
 20
8.5820637203
 30
0.0
 10
7.3652669515
 20
8.5815385741
 30
0.0
 10
7.3469903745
 20
8.5823723721
 30
0.0
 10
7.3287329072
 20
8.584560298
 30
0.0
 10
7.3105948668
 20
8.5880901149
 30
0.0
 10
7.29267587
 20
8.5929422329
 30
0.0
 10
7.2750742988
 20
8.5990898248
 30
0.0
 10
7.2578867667
 20
8.6064989775
 30
0.0
 10
7.241207596
 20
8.6151288808
 30
0.0
 10
7.2251283073
 20
8.6249320527
 30
0.0
 10
7.2097371244
 20
8.6358545993
 30
0.0
 10
7.1951184957
 20
8.6478365096
 30
0.0
 10
7.1813526372
 20
8.6608119826
 30
0.0
 10
7.1685150965
 20
8.6747097852
 30
0.0
 10
7.1566763431
 20
8.6894536398
 30
0.0
 10
7.1459013846
 20
8.7049626386
 30
0.0
 10
7.1362494149
 20
8.7211516822
 30
0.0
 10
7.1277734871
 20
8.7379319433
 30
0.0
 10
7.1205202349
 20
8.7552113381
 30
0.0
 10
7.1145295906
 20
8.7728950685
 30
0.0
 10
7.1098346231
 20
8.7908859656
 30
0.0
 10
7.1064612414
 20
8.8090856414
 30
0.0
 10
7.1044282306
 20
8.82739278
 30
0.0
 10
7.103972861
 20
8.839636629
 30
0.0
 10
7.103972861
 20
8.8457407139
 30
0.0
  0
SPLINE
  5
3E0
100
AcDbEntity
  8
0
100
AcDbSpline
 62
7
  6
CONTINUOUS
 70
0
 71
3
 72
39
 73
35
 74
0
 42
0.0000001
 43
0.0000001
 44
0.0000000001
 40
0.0
 40
0.0
 40
0.0
 40
0.0
 40
0.030506884
 40
0.0608772006
 40
0.0911377608
 40
0.1213191414
 40
0.1514546677
 40
0.1815792649
 40
0.2117282409
 40
0.2419360505
 40
0.2722350994
 40
0.3026546394
 40
0.3332198018
 40
0.3639508022
 40
0.3948623419
 40
0.4259632232
 40
0.4572561714
 40
0.4887378589
 40
0.5203991149
 40
0.5522253025
 40
0.5841968458
 40
0.6162898785
 40
0.6484769909
 40
0.6807280549
 40
0.7130111068
 40
0.7452932699
 40
0.7775416935
 40
0.8097244907
 40
0.8418116568
 40
0.873775953
 40
0.9055937023
 40
0.9372457101
 40
0.9687171375
 40
1.0
 40
1.0
 40
1.0
 40
1.0
 10
7.6083304313
 20
8.720378478
 30
0.0
 10
7.6059261146
 20
8.7126597841
 30
0.0
 10
7.6004139432
 20
8.697468692
 30
0.0
 10
7.5900794444
 20
8.6756020533
 30
0.0
 10
7.5777776641
 20
8.6548759056
 30
0.0
 10
7.5636066077
 20
8.6354573547
 30
0.0
 10
7.5476782406
 20
8.6174999056
 30
0.0
 10
7.530118885
 20
8.6011463158
 30
0.0
 10
7.5110678726
 20
8.5865262762
 30
0.0
 10
7.4906764748
 20
8.5737556231
 30
0.0
 10
7.4691065868
 20
8.5629353565
 30
0.0
 10
7.4465293964
 20
8.5541508559
 30
0.0
 10
7.4231239659
 20
8.5474712287
 30
0.0
 10
7.3990757776
 20
8.5429487906
 30
0.0
 10
7.3745752358
 20
8.5406186574
 30
0.0
 10
7.3498161288
 20
8.5404985818
 30
0.0
 10
7.3249941053
 20
8.5425888597
 30
0.0
 10
7.3003051458
 20
8.5468723753
 30
0.0
 10
7.2759440459
 20
8.553314777
 30
0.0
 10
7.252102892
 20
8.5618647176
 30
0.0
 10
7.2289695809
 20
8.5724543285
 30
0.0
 10
7.2067263764
 20
8.5849997719
 30
0.0
 10
7.1855485025
 20
8.5994018978
 30
0.0
 10
7.1656027987
 20
8.6155470285
 30
0.0
 10
7.1470463999
 20
8.6333078063
 30
0.0
 10
7.1300255195
 20
8.652544203
 30
0.0
 10
7.1146743379
 20
8.6731046307
 30
0.0
 10
7.1011139573
 20
8.6948271147
 30
0.0
 10
7.0894514625
 20
8.7175405282
 30
0.0
 10
7.0797790826
 20
8.741065982
 30
0.0
 10
7.0721733682
 20
8.7652179207
 30
0.0
 10
7.0666948384
 20
8.7898065984
 30
0.0
 10
7.0633870219
 20
8.8146356073
 30
0.0
 10
7.0626446542
 20
8.8312749449
 30
0.0
 10
7.0626446542
 20
8.8395650731
 30
0.0
  0
SPLINE
  5
3E1
100
AcDbEntity
  8
0
100
AcDbSpline
 62
7
  6
CONTINUOUS
 70
0
 71
3
 72
39
 73
35
 74
0
 42
0.0000001
 43
0.0000001
 44
0.0000000001
 40
0.0
 40
0.0
 40
0.0
 40
0.0
 40
0.0307265667
 40
0.061283732
 40
0.0916944584
 40
0.1219869794
 40
0.1521939075
 40
0.1823510588
 40
0.2124961259
 40
0.2426672571
 40
0.272901616
 40
0.3032339912
 40
0.3336955152
 40
0.3643125574
 40
0.3951058364
 40
0.4260897709
 40
0.4572720783
 40
0.4886536371
 40
0.5202285889
 40
0.5519846533
 40
0.583903635
 40
0.6159621066
 40
0.6481322233
 40
0.6803826412
 40
0.7126795213
 40
0.7449875906
 40
0.7772712311
 40
0.8094955778
 40
0.8416276017
 40
0.8736371467
 40
0.9054979036
 40
0.9371883858
 40
0.9686921077
 40
1.0
 40
1.0
 40
1.0
 40
1.0
 10
7.6100311654
 20
8.7199172801
 30
0.0
 10
7.608345875
 20
8.7109965292
 30
0.0
 10
7.6041407252
 20
8.6933512366
 30
0.0
 10
7.595351973
 20
8.6676817959
 30
0.0
 10
7.584172955
 20
8.6430969153
 30
0.0
 10
7.5706993718
 20
8.6198103704
 30
0.0
 10
7.5550459922
 20
8.5980210225
 30
0.0
 10
7.5373466417
 20
8.5779160306
 30
0.0
 10
7.5177528735
 20
8.5596677746
 30
0.0
 10
7.4964327011
 20
8.5434326108
 30
0.0
 10
7.4735689771
 20
8.5293494721
 30
0.0
 10
7.4493577699
 20
8.5175386921
 30
0.0
 10
7.4240066621
 20
8.5081008456
 30
0.0
 10
7.3977328407
 20
8.5011159709
 30
0.0
 10
7.3707611552
 20
8.4966430196
 30
0.0
 10
7.3433221832
 20
8.4947194263
 30
0.0
 10
7.3156502585
 20
8.4953607041
 30
0.0
 10
7.2879814475
 20
8.4985605168
 30
0.0
 10
7.2605515779
 20
8.5042908244
 30
0.0
 10
7.2335942793
 20
8.5125021398
 30
0.0
 10
7.2073389893
 20
8.5231238567
 30
0.0
 10
7.182009076
 20
8.5360650274
 30
0.0
 10
7.1578200008
 20
8.5512151407
 30
0.0
 10
7.1349775
 20
8.5684449964
 30
0.0
 10
7.1136758166
 20
8.5876077516
 30
0.0
 10
7.0940961556
 20
8.6085402702
 30
0.0
 10
7.0764051873
 20
8.6310644729
 30
0.0
 10
7.0607535643
 20
8.6549887574
 30
0.0
 10
7.0472746578
 20
8.6801096019
 30
0.0
 10
7.0360835217
 20
8.7062134135
 30
0.0
 10
7.0272758937
 20
8.7330779356
 30
0.0
 10
7.0209273836
 20
8.7604752993
 30
0.0
 10
7.0170924854
 20
8.7881692095
 30
0.0
 10
7.0162313826
 20
8.8067386428
 30
0.0
 10
7.0162313826
 20
8.8159889489
 30
0.0
  0
SPLINE
  5
3E2
100
AcDbEntity
  8
0
100
AcDbSpline
 62
7
  6
CONTINUOUS
 70
0
 71
3
 72
41
 73
37
 74
0
 42
0.0000001
 43
0.0000001
 44
0.0000000001
 40
0.0
 40
0.0
 40
0.0
 40
0.0
 40
0.0299327975
 40
0.0598990847
 40
0.0899216457
 40
0.120021936
 40
0.1502195891
 40
0.1805319766
 40
0.2109738325
 40
0.2415569509
 40
0.2722899616
 40
0.3031781839
 40
0.3342235602
 40
0.3654246649
 40
0.3967767843
 40
0.4282720628
 40
0.4598997064
 40
0.4916462394
 40
0.5234958051
 40
0.5554305039
 40
0.5874307627
 40
0.6194757288
 40
0.6515436807
 40
0.6836124521
 40
0.7156598609
 40
0.731671076
 40
0.7476688466
 40
0.7796090623
 40
0.8114655358
 40
0.8432202292
 40
0.8748571324
 40
0.9063625509
 40
0.9377255873
 40
0.9533532926
 40
0.96894296
 40
1.0
 40
1.0
 40
1.0
 40
1.0
 10
7.5886317206
 20
8.4960635818
 30
0.0
 10
7.5817919278
 20
8.4898754475
 30
0.0
 10
7.5676121368
 20
8.478024505
 30
0.0
 10
7.5450028113
 20
8.4619591242
 30
0.0
 10
7.5211628521
 20
8.4476801717
 30
0.0
 10
7.4962220857
 20
8.4352656774
 30
0.0
 10
7.4703141045
 20
8.4247816971
 30
0.0
 10
7.4435782213
 20
8.4162843589
 30
0.0
 10
7.4161579788
 20
8.4098189332
 30
0.0
 10
7.38820056
 20
8.4054197815
 30
0.0
 10
7.3598559386
 20
8.403110145
 30
0.0
 10
7.3312760853
 20
8.4029020522
 30
0.0
 10
7.3026141514
 20
8.4047962702
 30
0.0
 10
7.2740236545
 20
8.408782318
 30
0.0
 10
7.2456576635
 20
8.4148385373
 30
0.0
 10
7.2176679897
 20
8.4229322193
 30
0.0
 10
7.1902043847
 20
8.4330197886
 30
0.0
 10
7.1634137509
 20
8.4450470417
 30
0.0
 10
7.1374393653
 20
8.4589494415
 30
0.0
 10
7.1124201277
 20
8.4746524576
 30
0.0
 10
7.0884898128
 20
8.4920719868
 30
0.0
 10
7.0657764177
 20
8.5111147151
 30
0.0
 10
7.0444012759
 20
8.5316789264
 30
0.0
 10
7.0244792026
 20
8.5536538814
 30
0.0
 10
7.0091704977
 20
8.5730528015
 30
0.0
 10
6.9977525317
 20
8.5891580066
 30
0.0
 10
6.9869116772
 20
8.6056176427
 30
0.0
 10
6.9744514137
 20
8.6268394362
 30
0.0
 10
6.9613202174
 20
8.6532185799
 30
0.0
 10
6.9500861466
 20
8.6803595768
 30
0.0
 10
6.940809972
 20
8.708116803
 30
0.0
 10
6.9335414921
 20
8.7363410762
 30
0.0
 10
6.9291846022
 20
8.7601563745
 30
0.0
 10
6.9267406385
 20
8.7792885562
 30
0.0
 10
6.9249964649
 20
8.7984016389
 30
0.0
 10
6.9244684237
 20
8.8127826487
 30
0.0
 10
6.9244684237
 20
8.8223527317
 30
0.0
  0
SPLINE
  5
3E3
100
AcDbEntity
  8
0
100
AcDbSpline
 62
7
  6
CONTINUOUS
 70
0
 71
3
 72
41
 73
37
 74
0
 42
0.0000001
 43
0.0000001
 44
0.0000000001
 40
0.0
 40
0.0
 40
0.0
 40
0.0
 40
0.0299421701
 40
0.0599087164
 40
0.0899234211
 40
0.1200088983
 40
0.1501860543
 40
0.1804736026
 40
0.2108876422
 40
0.2414413123
 40
0.2721445279
 40
0.3030038001
 40
0.33402214
 40
0.3651990456
 40
0.3965305656
 40
0.428009435
 40
0.4596252751
 40
0.4913648511
 40
0.523212379
 40
0.5551498748
 40
0.5871575372
 40
0.6192141578
 40
0.6512975514
 40
0.6833850007
 40
0.7154537075
 40
0.7314764095
 40
0.7474860758
 40
0.7794508394
 40
0.8113324795
 40
0.8431123195
 40
0.8747737607
 40
0.9063025939
 40
0.9376875098
 40
0.9533255635
 40
0.9689249841
 40
1.0
 40
1.0
 40
1.0
 40
1.0
 10
7.5887586296
 20
8.4959248992
 30
0.0
 10
7.5820398148
 20
8.4894350204
 30
0.0
 10
7.5680738723
 20
8.4769790198
 30
0.0
 10
7.5456982569
 20
8.4600099206
 30
0.0
 10
7.5220103097
 20
8.4448406467
 30
0.0
 10
7.4971423862
 20
8.4315562966
 30
0.0
 10
7.4712312066
 20
8.4202294504
 30
0.0
 10
7.4444197724
 20
8.4109223739
 30
0.0
 10
7.4168558335
 20
8.4036859853
 30
0.0
 10
7.3886912483
 20
8.3985597895
 30
0.0
 10
7.3600810864
 20
8.3955716298
 30
0.0
 10
7.3311827833
 20
8.3947375701
 30
0.0
 10
7.3021552718
 20
8.396061824
 30
0.0
 10
7.2731581137
 20
8.3995367522
 30
0.0
 10
7.2443506311
 20
8.4051429201
 30
0.0
 10
7.2158910414
 20
8.4128492191
 30
0.0
 10
7.1879356001
 20
8.4226130436
 30
0.0
 10
7.1606377517
 20
8.4343805261
 30
0.0
 10
7.1341473007
 20
8.4480868487
 30
0.0
 10
7.1086096052
 20
8.463656593
 30
0.0
 10
7.0841647739
 20
8.4810041765
 30
0.0
 10
7.0609469692
 20
8.5000342354
 30
0.0
 10
7.0390834501
 20
8.5206424599
 30
0.0
 10
7.018694739
 20
8.5427149831
 30
0.0
 10
7.0030197262
 20
8.5622366058
 30
0.0
 10
6.9913247634
 20
8.5784630366
 30
0.0
 10
6.9802181505
 20
8.5950586818
 30
0.0
 10
6.9674487427
 20
8.6164763846
 30
0.0
 10
6.9539872915
 20
8.6431269386
 30
0.0
 10
6.9424673399
 20
8.6705707769
 30
0.0
 10
6.9329528104
 20
8.6986567978
 30
0.0
 10
6.9254961176
 20
8.7272301168
 30
0.0
 10
6.9210256831
 20
8.7513491125
 30
0.0
 10
6.9185178795
 20
8.7707283923
 30
0.0
 10
6.9167281374
 20
8.7900891415
 30
0.0
 10
6.9161862209
 20
8.8046579527
 30
0.0
 10
6.9161862209
 20
8.8143527377
 30
0.0
  0
SPLINE
  5
3E4
100
AcDbEntity
  8
0
100
AcDbSpline
 62
4
  6
CONTINUOUS
 70
0
 71
3
 72
290
 73
286
 74
0
 42
0.0000001
 43
0.0000001
 44
0.0000000001
 40
0.0
 40
0.0
 40
0.0
 40
0.0
 40
0.015625
 40
0.03125
 40
0.0390625
 40
0.046875
 40
0.0546875
 40
0.05859375
 40
0.060546875
 40
0.0625
 40
0.064453125
 40
0.06640625
 40
0.0703125
 40
0.078125
 40
0.0859375
 40
0.09375
 40
0.1015625
 40
0.109375
 40
0.1171875
 40
0.12109375
 40
0.123046875
 40
0.125
 40
0.126953125
 40
0.12890625
 40
0.1328125
 40
0.140625
 40
0.1484375
 40
0.15625
 40
0.1640625
 40
0.171875
 40
0.17578125
 40
0.1796875
 40
0.18359375
 40
0.185546875
 40
0.1865234375
 40
0.1875
 40
0.1884765625
 40
0.189453125
 40
0.19140625
 40
0.1953125
 40
0.19921875
 40
0.203125
 40
0.2109375
 40
0.21875
 40
0.2265625
 40
0.234375
 40
0.23828125
 40
0.2421875
 40
0.244140625
 40
0.24609375
 40
0.248046875
 40
0.2490234375
 40
0.2495117188
 40
0.25
 40
0.2504882812
 40
0.2509765625
 40
0.251953125
 40
0.25390625
 40
0.255859375
 40
0.2578125
 40
0.26171875
 40
0.265625
 40
0.2734375
 40
0.28125
 40
0.2890625
 40
0.296875
 40
0.30078125
 40
0.3046875
 40
0.306640625
 40
0.30859375
 40
0.310546875
 40
0.3115234375
 40
0.3120117188
 40
0.3125
 40
0.3129882812
 40
0.3134765625
 40
0.314453125
 40
0.31640625
 40
0.318359375
 40
0.3203125
 40
0.32421875
 40
0.328125
 40
0.3359375
 40
0.34375
 40
0.3515625
 40
0.359375
 40
0.36328125
 40
0.3671875
 40
0.369140625
 40
0.37109375
 40
0.373046875
 40
0.3740234375
 40
0.3745117188
 40
0.375
 40
0.3754882812
 40
0.3759765625
 40
0.376953125
 40
0.37890625
 40
0.380859375
 40
0.3828125
 40
0.38671875
 40
0.390625
 40
0.3984375
 40
0.40625
 40
0.4140625
 40
0.421875
 40
0.42578125
 40
0.4296875
 40
0.431640625
 40
0.43359375
 40
0.435546875
 40
0.4365234375
 40
0.4370117188
 40
0.4375
 40
0.4379882812
 40
0.4384765625
 40
0.439453125
 40
0.44140625
 40
0.443359375
 40
0.4453125
 40
0.44921875
 40
0.453125
 40
0.4609375
 40
0.46875
 40
0.4765625
 40
0.484375
 40
0.48828125
 40
0.4921875
 40
0.494140625
 40
0.49609375
 40
0.498046875
 40
0.4990234375
 40
0.4995117188
 40
0.5
 40
0.5004882812
 40
0.5009765625
 40
0.501953125
 40
0.50390625
 40
0.505859375
 40
0.5078125
 40
0.51171875
 40
0.515625
 40
0.5234375
 40
0.53125
 40
0.5390625
 40
0.546875
 40
0.55078125
 40
0.5546875
 40
0.556640625
 40
0.55859375
 40
0.560546875
 40
0.5615234375
 40
0.5620117188
 40
0.5625
 40
0.5629882812
 40
0.5634765625
 40
0.564453125
 40
0.56640625
 40
0.568359375
 40
0.5703125
 40
0.57421875
 40
0.578125
 40
0.5859375
 40
0.59375
 40
0.6015625
 40
0.609375
 40
0.61328125
 40
0.6171875
 40
0.619140625
 40
0.62109375
 40
0.623046875
 40
0.6240234375
 40
0.6245117188
 40
0.625
 40
0.6254882812
 40
0.6259765625
 40
0.626953125
 40
0.62890625
 40
0.630859375
 40
0.6328125
 40
0.63671875
 40
0.640625
 40
0.6484375
 40
0.65625
 40
0.6640625
 40
0.671875
 40
0.67578125
 40
0.6796875
 40
0.681640625
 40
0.68359375
 40
0.685546875
 40
0.6865234375
 40
0.6870117188
 40
0.6875
 40
0.6879882812
 40
0.6884765625
 40
0.689453125
 40
0.69140625
 40
0.693359375
 40
0.6953125
 40
0.69921875
 40
0.703125
 40
0.7109375
 40
0.71875
 40
0.7265625
 40
0.734375
 40
0.73828125
 40
0.7421875
 40
0.744140625
 40
0.74609375
 40
0.748046875
 40
0.7490234375
 40
0.7495117188
 40
0.75
 40
0.7504882812
 40
0.7509765625
 40
0.751953125
 40
0.75390625
 40
0.755859375
 40
0.7578125
 40
0.76171875
 40
0.765625
 40
0.7734375
 40
0.78125
 40
0.7890625
 40
0.796875
 40
0.80078125
 40
0.8046875
 40
0.806640625
 40
0.80859375
 40
0.810546875
 40
0.8115234375
 40
0.8120117188
 40
0.8125
 40
0.8129882812
 40
0.8134765625
 40
0.814453125
 40
0.81640625
 40
0.818359375
 40
0.8203125
 40
0.82421875
 40
0.828125
 40
0.8359375
 40
0.84375
 40
0.8515625
 40
0.859375
 40
0.86328125
 40
0.8671875
 40
0.869140625
 40
0.87109375
 40
0.873046875
 40
0.8740234375
 40
0.8745117188
 40
0.875
 40
0.8754882812
 40
0.8759765625
 40
0.876953125
 40
0.87890625
 40
0.880859375
 40
0.8828125
 40
0.88671875
 40
0.890625
 40
0.8984375
 40
0.90625
 40
0.9140625
 40
0.921875
 40
0.92578125
 40
0.9296875
 40
0.931640625
 40
0.93359375
 40
0.935546875
 40
0.9365234375
 40
0.9375
 40
0.9384765625
 40
0.939453125
 40
0.94140625
 40
0.943359375
 40
0.9453125
 40
0.94921875
 40
0.953125
 40
0.9609375
 40
0.96875
 40
0.9765625
 40
0.984375
 40
1.0
 40
1.0
 40
1.0
 40
1.0
 10
9.5366449518
 20
10.272929007
 30
0.0
 10
9.5409322905
 20
10.2727453069
 30
0.0
 10
9.5495069799
 20
10.2723779541
 30
0.0
 10
9.5602252808
 20
10.271918526
 30
0.0
 10
9.5688000493
 20
10.2715514813
 30
0.0
 10
9.5752307789
 20
10.2712748468
 30
0.0
 10
9.5805908227
 20
10.271048614
 30
0.0
 10
9.5843406899
 20
10.2708818205
 30
0.0
 10
9.5864868493
 20
10.2707996734
 30
0.0
 10
9.5880869527
 20
10.2707009815
 30
0.0
 10
9.5897234315
 20
10.2707440344
 30
0.0
 10
9.5918927152
 20
10.2707519961
 30
0.0
 10
9.5956948729
 20
10.270788966
 30
0.0
 10
9.6011234387
 20
10.2708297286
 30
0.0
 10
9.6076390292
 20
10.270883835
 30
0.0
 10
9.6141543142
 20
10.2709364588
 30
0.0
 10
9.6206695095
 20
10.2709898219
 30
0.0
 10
9.6271853694
 20
10.2710417103
 30
0.0
 10
9.6326131122
 20
10.2710892503
 30
0.0
 10
9.6364167362
 20
10.2711141441
 30
0.0
 10
9.6385836708
 20
10.2711414522
 30
0.0
 10
9.6402273653
 20
10.2711250794
 30
0.0
 10
9.6418003679
 20
10.2712495807
 30
0.0
 10
9.6439223629
 20
10.2713664439
 30
0.0
 10
9.6476243653
 20
10.2715938494
 30
0.0
 10
9.652918948
 20
10.2719067423
 30
0.0
 10
9.6592698694
 20
10.2722873488
 30
0.0
 10
9.6656214898
 20
10.2726665704
 30
0.0
 10
9.6719728921
 20
10.2730461965
 30
0.0
 10
9.6772658719
 20
10.2733623574
 30
0.0
 10
9.6815000177
 20
10.2736155499
 30
0.0
 10
9.6846762546
 20
10.2738047695
 30
0.0
 10
9.6873211262
 20
10.2739645917
 30
0.0
 10
9.6891764458
 20
10.2740722702
 30
0.0
 10
9.6902305242
 20
10.2741403539
 30
0.0
 10
9.6910382788
 20
10.2741729566
 30
0.0
 10
9.6917803025
 20
10.2742761228
 30
0.0
 10
9.692792595
 20
10.2743890645
 30
0.0
 10
9.6945534246
 20
10.2745981801
 30
0.0
 10
9.6970744804
 20
10.2748909212
 30
0.0
 10
9.7000973567
 20
10.2752447769
 30
0.0
 10
9.7041286936
 20
10.275715688
 30
0.0
 10
9.7091675778
 20
10.2763046346
 30
0.0
 10
9.7152143637
 20
10.2770112378
 30
0.0
 10
9.721261109
 20
10.2777178794
 30
0.0
 10
9.7263000949
 20
10.2783067303
 30
0.0
 10
9.7303312283
 20
10.2787778327
 30
0.0
 10
9.7328508092
 20
10.2790722263
 30
0.0
 10
9.7348661937
 20
10.2793078446
 30
0.0
 10
9.7363784992
 20
10.2794842752
 30
0.0
 10
9.7376363134
 20
10.2796322013
 30
0.0
 10
9.7385215724
 20
10.2797339823
 30
0.0
 10
9.7390199571
 20
10.2797949023
 30
0.0
 10
9.7394148102
 20
10.2798328191
 30
0.0
 10
9.7397291437
 20
10.2799004487
 30
0.0
 10
9.7401763411
 20
10.2799802574
 30
0.0
 10
9.7409458508
 20
10.2801247515
 30
0.0
 10
9.7420519918
 20
10.280328647
 30
0.0
 10
9.7433764327
 20
10.2805744022
 30
0.0
 10
9.7451433766
 20
10.2809016984
 30
0.0
 10
9.7473517063
 20
10.2813109479
 30
0.0
 10
9.7508852296
 20
10.2819656748
 30
0.0
 10
9.7553020661
 20
10.2827841084
 30
0.0
 10
9.760602301
 20
10.2837662174
 30
0.0
 10
9.7659025196
 20
10.2847483318
 30
0.0
 10
9.7703193971
 20
10.2855667518
 30
0.0
 10
9.7738528384
 20
10.2862215058
 30
0.0
 10
9.7760613765
 20
10.2866306865
 30
0.0
 10
9.7778278926
 20
10.286958124
 30
0.0
 10
9.7791536407
 20
10.2872034475
 30
0.0
 10
9.7802556915
 20
10.2874086936
 30
0.0
 10
9.7810325028
 20
10.2875507766
 30
0.0
 10
9.7814680013
 20
10.2876344485
 30
0.0
 10
9.7818182702
 20
10.2876902118
 30
0.0
 10
9.7820781558
 20
10.2877726966
 30
0.0
 10
9.7824561966
 20
10.2878733556
 30
0.0
 10
9.7831030792
 20
10.2880538515
 30
0.0
 10
9.7840348767
 20
10.2883094324
 30
0.0
 10
9.7851497466
 20
10.2886171013
 30
0.0
 10
9.7866373878
 20
10.2890269871
 30
0.0
 10
9.7884965463
 20
10.2895394605
 30
0.0
 10
9.7914714197
 20
10.290359353
 30
0.0
 10
9.7951899354
 20
10.2913842411
 30
0.0
 10
9.7996521894
 20
10.2926140966
 30
0.0
 10
9.8041144243
 20
10.2938439568
 30
0.0
 10
9.8078329878
 20
10.2948688332
 30
0.0
 10
9.8108077656
 20
10.295688749
 30
0.0
 10
9.812667167
 20
10.2962011634
 30
0.0
 10
9.8141543098
 20
10.2966111703
 30
0.0
 10
9.8152707026
 20
10.2969184691
 30
0.0
 10
9.8161977351
 20
10.2971752081
 30
0.0
 10
9.8168531239
 20
10.2973536366
 30
0.0
 10
9.8172175356
 20
10.2974576081
 30
0.0
 10
9.8175192854
 20
10.2975299179
 30
0.0
 10
9.8177123195
 20
10.2976238967
 30
0.0
 10
9.8180076196
 20
10.2977416433
 30
0.0
 10
9.8185067266
 20
10.2979512215
 30
0.0
 10
9.8192289738
 20
10.2982487777
 30
0.0
 10
9.8200917165
 20
10.2986066333
 30
0.0
 10
9.8212434212
 20
10.2990834988
 30
0.0
 10
9.8226825792
 20
10.299679675
 30
0.0
 10
9.8249854963
 20
10.3006335042
 30
0.0
 10
9.8278640513
 20
10.3018258088
 30
0.0
 10
9.8313183594
 20
10.3032565661
 30
0.0
 10
9.8347726455
 20
10.3046873273
 30
0.0
 10
9.8376512553
 20
10.3058796222
 30
0.0
 10
9.8399540629
 20
10.3068334708
 30
0.0
 10
9.8413934994
 20
10.3074295975
 30
0.0
 10
9.8425446323
 20
10.3079065646
 30
0.0
 10
9.8434091218
 20
10.3082641097
 30
0.0
 10
9.844125904
 20
10.3085626376
 30
0.0
 10
9.8446347667
 20
10.3087704811
 30
0.0
 10
9.8449144357
 20
10.3088910071
 30
0.0
 10
9.8451554838
 20
10.3089764486
 30
0.0
 10
9.845276901
 20
10.3090808231
 30
0.0
 10
9.8454805193
 20
10.3092133852
 30
0.0
 10
9.845817409
 20
10.3094484457
 30
0.0
 10
9.8463088447
 20
10.3097826377
 30
0.0
 10
9.8468942167
 20
10.3101843567
 30
0.0
 10
9.8476762323
 20
10.3107197416
 30
0.0
 10
9.8486532315
 20
10.311389055
 30
0.0
 10
9.8502167212
 20
10.3124599104
 30
0.0
 10
9.8521709827
 20
10.3137984955
 30
0.0
 10
9.854516143
 20
10.3154047908
 30
0.0
 10
9.8568612785
 20
10.3170110884
 30
0.0
 10
9.8588156019
 20
10.3183496675
 30
0.0
 10
9.8603789678
 20
10.319420535
 30
0.0
 10
9.8613562815
 20
10.3200898177
 30
0.0
 10
9.8621376518
 20
10.3206252656
 30
0.0
 10
9.8627249953
 20
10.3210267918
 30
0.0
 10
9.8632102625
 20
10.3213615871
 30
0.0
 10
9.863558164
 20
10.3215955707
 30
0.0
 10
9.8637441387
 20
10.3217298582
 30
0.0
 10
9.8639197512
 20
10.3218289326
 30
0.0
 10
9.8639572508
 20
10.3219342809
 30
0.0
 10
9.8640554255
 20
10.3220725569
 30
0.0
 10
9.8642047856
 20
10.3223155596
 30
0.0
 10
9.864429892
 20
10.3226621732
 30
0.0
 10
9.8646949968
 20
10.3230783377
 30
0.0
 10
9.8650502243
 20
10.3236331439
 30
0.0
 10
9.8654936579
 20
10.3243266791
 30
0.0
 10
9.8662034875
 20
10.32543632
 30
0.0
 10
9.8670906585
 20
10.3268233765
 30
0.0
 10
9.8681553168
 20
10.3284878419
 30
0.0
 10
9.8692199486
 20
10.3301523082
 30
0.0
 10
9.8701071856
 20
10.3315393626
 30
0.0
 10
9.8708168832
 20
10.3326490077
 30
0.0
 10
9.8712606523
 20
10.3333425323
 30
0.0
 10
9.8716151912
 20
10.3338973602
 30
0.0
 10
9.8718823998
 20
10.3343134586
 30
0.0
 10
9.8721009241
 20
10.3346602787
 30
0.0
 10
9.8722620343
 20
10.3349029128
 30
0.0
 10
9.8723413824
 20
10.3350417794
 30
0.0
 10
9.8724367116
 20
10.3351453136
 30
0.0
 10
9.8723951256
 20
10.3352512015
 30
0.0
 10
9.8723874351
 20
10.3353915644
 30
0.0
 10
9.8723517257
 20
10.3356375819
 30
0.0
 10
9.8723123454
 20
10.3359888355
 30
0.0
 10
9.8722601097
 20
10.3364104255
 30
0.0
 10
9.8721922013
 20
10.3369725155
 30
0.0
 10
9.8721067203
 20
10.3376751383
 30
0.0
 10
9.8719702835
 20
10.338799329
 30
0.0
 10
9.8717996226
 20
10.3402045693
 30
0.0
 10
9.8715948821
 20
10.341890857
 30
0.0
 10
9.8713901154
 20
10.3435771445
 30
0.0
 10
9.87121952
 20
10.3449823853
 30
0.0
 10
9.8710829523
 20
10.346106575
 30
0.0
 10
9.8709978042
 20
10.3468092005
 30
0.0
 10
9.8709292123
 20
10.347371285
 30
0.0
 10
9.8708790648
 20
10.3477928919
 30
0.0
 10
9.8708331512
 20
10.3481440924
 30
0.0
 10
9.8708091048
 20
10.3483902048
 30
0.0
 10
9.8707827272
 20
10.3485304156
 30
0.0
 10
9.8707985421
 20
10.3486367704
 30
0.0
 10
9.870678283
 20
10.3487385511
 30
0.0
 10
9.8705654017
 20
10.3488758541
 30
0.0
 10
9.870345745
 20
10.3491153911
 30
0.0
 10
9.8700435113
 20
10.3494579755
 30
0.0
 10
9.8696758821
 20
10.3498689103
 30
0.0
 10
9.8691874384
 20
10.3504168816
 30
0.0
 10
9.8685762918
 20
10.3511018258
 30
0.0
 10
9.8675987883
 20
10.3521977476
 30
0.0
 10
9.8663767945
 20
10.353567646
 30
0.0
 10
9.8649104543
 20
10.3552115259
 30
0.0
 10
9.8634440879
 20
10.3568554046
 30
0.0
 10
9.8622221595
 20
10.3582253061
 30
0.0
 10
9.8612445252
 20
10.3593212216
 30
0.0
 10
9.860633711
 20
10.3600061817
 30
0.0
 10
9.8601445852
 20
10.3605541202
 30
0.0
 10
9.8597790396
 20
10.3609651552
 30
0.0
 10
9.8594702869
 20
10.3613074265
 30
0.0
 10
9.8592622677
 20
10.3615475223
 30
0.0
 10
9.8591307401
 20
10.36168393
 30
0.0
 10
9.8590677564
 20
10.361788461
 30
0.0
 10
9.8588684545
 20
10.3618844859
 30
0.0
 10
9.8586502678
 20
10.362015486
 30
0.0
 10
9.8582462871
 20
10.362243354
 30
0.0
 10
9.8576807542
 20
10.3625696023
 30
0.0
 10
9.856997157
 20
10.362960791
 30
0.0
 10
9.8560874258
 20
10.3634824839
 30
0.0
 10
9.8549496688
 20
10.3641345631
 30
0.0
 10
9.8531295891
 20
10.3651779105
 30
0.0
 10
9.850854375
 20
10.3664820875
 30
0.0
 10
9.84812417
 20
10.3680471035
 30
0.0
 10
9.8453939409
 20
10.3696121166
 30
0.0
 10
9.8431187871
 20
10.3709163007
 30
0.0
 10
9.8412985869
 20
10.371959634
 30
0.0
 10
9.8401611362
 20
10.372611749
 30
0.0
 10
9.8392507762
 20
10.3731333684
 30
0.0
 10
9.8385690999
 20
10.3735247816
 30
0.0
 10
9.8379975571
 20
10.3738503276
 30
0.0
 10
9.8376043051
 20
10.3740794493
 30
0.0
 10
9.8373689283
 20
10.3742084406
 30
0.0
 10
9.8372224288
 20
10.374310636
 30
0.0
 10
9.8369611278
 20
10.3743919915
 30
0.0
 10
9.8366527704
 20
10.3745077346
 30
0.0
 10
9.8360944877
 20
10.3747068982
 30
0.0
 10
9.8353066953
 20
10.3749931883
 30
0.0
 10
9.8343571693
 20
10.3753359785
 30
0.0
 10
9.8330925928
 20
10.3757932969
 30
0.0
 10
9.8315113729
 20
10.3763648542
 30
0.0
 10
9.8289817003
 20
10.3772793966
 30
0.0
 10
9.8258195131
 20
10.378422557
 30
0.0
 10
9.8220249323
 20
10.3797943577
 30
0.0
 10
9.8182303305
 20
10.381166154
 30
0.0
 10
9.8150681957
 20
10.3823093251
 30
0.0
 10
9.8125384184
 20
10.3832238462
 30
0.0
 10
9.8109574645
 20
10.3837954575
 30
0.0
 10
9.8096923421
 20
10.3842526651
 30
0.0
 10
9.8087444839
 20
10.3845957937
 30
0.0
 10
9.8079514731
 20
10.3848810252
 30
0.0
 10
9.8074025061
 20
10.3850820786
 30
0.0
 10
9.8070792227
 20
10.3851947938
 30
0.0
 10
9.8068637697
 20
10.38528545
 30
0.0
 10
9.8065450726
 20
10.3853527133
 30
0.0
 10
9.8061561558
 20
10.3854505574
 30
0.0
 10
9.8054587725
 20
10.3856179828
 30
0.0
 10
9.8044712829
 20
10.3858591495
 30
0.0
 10
9.8032825406
 20
10.3861476988
 30
0.0
 10
9.8016988623
 20
10.3865327284
 30
0.0
 10
9.7997188154
 20
10.3870139136
 30
0.0
 10
9.7965509914
 20
10.3877838669
 30
0.0
 10
9.7925911247
 20
10.3887462888
 30
0.0
 10
9.7878393239
 20
10.3899012041
 30
0.0
 10
9.7830875051
 20
10.3910561146
 30
0.0
 10
9.7791276833
 20
10.3920185488
 30
0.0
 10
9.7759597695
 20
10.3927884773
 30
0.0
 10
9.7739799507
 20
10.3932697254
 30
0.0
 10
9.7723958042
 20
10.393654626
 30
0.0
 10
9.7712084921
 20
10.3939435695
 30
0.0
 10
9.7702165279
 20
10.3941835029
 30
0.0
 10
9.7695271325
 20
10.3943531299
 30
0.0
 10
9.7691254172
 20
10.3944474465
 30
0.0
 10
9.7688460331
 20
10.394525545
 30
0.0
 10
9.7684829269
 20
10.3945755059
 30
0.0
 10
9.7680279885
 20
10.3946519351
 30
0.0
 10
9.7672182399
 20
10.3947811134
 30
0.0
 10
9.7660685698
 20
10.3949680446
 30
0.0
 10
9.7646859209
 20
10.3951913387
 30
0.0
 10
9.7628434525
 20
10.3954894215
 30
0.0
 10
9.7605400028
 20
10.3958619027
 30
0.0
 10
9.7568546867
 20
10.396457941
 30
0.0
 10
9.7522479729
 20
10.3972029658
 30
0.0
 10
9.7467199409
 20
10.3980970034
 30
0.0
 10
9.7411919207
 20
10.3989910466
 30
0.0
 10
9.7365851775
 20
10.3997360572
 30
0.0
 10
9.7328999203
 20
10.4003321239
 30
0.0
 10
9.730596321
 20
10.4007045328
 30
0.0
 10
9.7287541597
 20
10.401002764
 30
0.0
 10
9.7273705723
 20
10.401225605
 30
0.0
 10
9.7262238385
 20
10.4014139537
 30
0.0
 10
9.725292421
 20
10.401558694
 30
0.0
 10
9.7246321958
 20
10.4016834763
 30
0.0
 10
9.7238256339
 20
10.4017463198
 30
0.0
 10
9.7228013354
 20
10.4018517471
 30
0.0
 10
9.7215034242
 20
10.401976108
 30
0.0
 10
9.7199534376
 20
10.4021285185
 30
0.0
 10
9.7178841667
 20
10.4023306226
 30
0.0
 10
9.715298476
 20
10.4025836329
 30
0.0
 10
9.711160869
 20
10.4029882368
 30
0.0
 10
9.7059890324
 20
10.4034940647
 30
0.0
 10
9.6997827548
 20
10.4041010268
 30
0.0
 10
9.6935764968
 20
10.4047079973
 30
0.0
 10
9.6853014794
 20
10.4055172884
 30
0.0
 10
9.6790952178
 20
10.4061242574
 30
0.0
 10
9.6749577097
 20
10.4065289032
 30
0.0
  0
SPLINE
  5
3E5
100
AcDbEntity
  8
0
100
AcDbSpline
 62
4
  6
CONTINUOUS
 70
0
 71
3
 72
290
 73
286
 74
0
 42
0.0000001
 43
0.0000001
 44
0.0000000001
 40
0.0
 40
0.0
 40
0.0
 40
0.0
 40
0.015625
 40
0.03125
 40
0.0390625
 40
0.046875
 40
0.0546875
 40
0.05859375
 40
0.060546875
 40
0.0625
 40
0.064453125
 40
0.06640625
 40
0.0703125
 40
0.078125
 40
0.0859375
 40
0.09375
 40
0.1015625
 40
0.109375
 40
0.1171875
 40
0.12109375
 40
0.123046875
 40
0.125
 40
0.126953125
 40
0.12890625
 40
0.1328125
 40
0.140625
 40
0.1484375
 40
0.15625
 40
0.1640625
 40
0.171875
 40
0.17578125
 40
0.1796875
 40
0.18359375
 40
0.185546875
 40
0.1865234375
 40
0.1875
 40
0.1884765625
 40
0.189453125
 40
0.19140625
 40
0.1953125
 40
0.19921875
 40
0.203125
 40
0.2109375
 40
0.21875
 40
0.2265625
 40
0.234375
 40
0.23828125
 40
0.2421875
 40
0.244140625
 40
0.24609375
 40
0.248046875
 40
0.2490234375
 40
0.2495117188
 40
0.25
 40
0.2504882812
 40
0.2509765625
 40
0.251953125
 40
0.25390625
 40
0.255859375
 40
0.2578125
 40
0.26171875
 40
0.265625
 40
0.2734375
 40
0.28125
 40
0.2890625
 40
0.296875
 40
0.30078125
 40
0.3046875
 40
0.306640625
 40
0.30859375
 40
0.310546875
 40
0.3115234375
 40
0.3120117188
 40
0.3125
 40
0.3129882812
 40
0.3134765625
 40
0.314453125
 40
0.31640625
 40
0.318359375
 40
0.3203125
 40
0.32421875
 40
0.328125
 40
0.3359375
 40
0.34375
 40
0.3515625
 40
0.359375
 40
0.36328125
 40
0.3671875
 40
0.369140625
 40
0.37109375
 40
0.373046875
 40
0.3740234375
 40
0.3745117188
 40
0.375
 40
0.3754882812
 40
0.3759765625
 40
0.376953125
 40
0.37890625
 40
0.380859375
 40
0.3828125
 40
0.38671875
 40
0.390625
 40
0.3984375
 40
0.40625
 40
0.4140625
 40
0.421875
 40
0.42578125
 40
0.4296875
 40
0.431640625
 40
0.43359375
 40
0.435546875
 40
0.4365234375
 40
0.4370117188
 40
0.4375
 40
0.4379882812
 40
0.4384765625
 40
0.439453125
 40
0.44140625
 40
0.443359375
 40
0.4453125
 40
0.44921875
 40
0.453125
 40
0.4609375
 40
0.46875
 40
0.4765625
 40
0.484375
 40
0.48828125
 40
0.4921875
 40
0.494140625
 40
0.49609375
 40
0.498046875
 40
0.4990234375
 40
0.4995117188
 40
0.5
 40
0.5004882812
 40
0.5009765625
 40
0.501953125
 40
0.50390625
 40
0.505859375
 40
0.5078125
 40
0.51171875
 40
0.515625
 40
0.5234375
 40
0.53125
 40
0.5390625
 40
0.546875
 40
0.55078125
 40
0.5546875
 40
0.556640625
 40
0.55859375
 40
0.560546875
 40
0.5615234375
 40
0.5620117188
 40
0.5625
 40
0.5629882812
 40
0.5634765625
 40
0.564453125
 40
0.56640625
 40
0.568359375
 40
0.5703125
 40
0.57421875
 40
0.578125
 40
0.5859375
 40
0.59375
 40
0.6015625
 40
0.609375
 40
0.61328125
 40
0.6171875
 40
0.619140625
 40
0.62109375
 40
0.623046875
 40
0.6240234375
 40
0.6245117188
 40
0.625
 40
0.6254882812
 40
0.6259765625
 40
0.626953125
 40
0.62890625
 40
0.630859375
 40
0.6328125
 40
0.63671875
 40
0.640625
 40
0.6484375
 40
0.65625
 40
0.6640625
 40
0.671875
 40
0.67578125
 40
0.6796875
 40
0.681640625
 40
0.68359375
 40
0.685546875
 40
0.6865234375
 40
0.6870117188
 40
0.6875
 40
0.6879882812
 40
0.6884765625
 40
0.689453125
 40
0.69140625
 40
0.693359375
 40
0.6953125
 40
0.69921875
 40
0.703125
 40
0.7109375
 40
0.71875
 40
0.7265625
 40
0.734375
 40
0.73828125
 40
0.7421875
 40
0.744140625
 40
0.74609375
 40
0.748046875
 40
0.7490234375
 40
0.7495117188
 40
0.75
 40
0.7504882812
 40
0.7509765625
 40
0.751953125
 40
0.75390625
 40
0.755859375
 40
0.7578125
 40
0.76171875
 40
0.765625
 40
0.7734375
 40
0.78125
 40
0.7890625
 40
0.796875
 40
0.80078125
 40
0.8046875
 40
0.806640625
 40
0.80859375
 40
0.810546875
 40
0.8115234375
 40
0.8120117188
 40
0.8125
 40
0.8129882812
 40
0.8134765625
 40
0.814453125
 40
0.81640625
 40
0.818359375
 40
0.8203125
 40
0.82421875
 40
0.828125
 40
0.8359375
 40
0.84375
 40
0.8515625
 40
0.859375
 40
0.86328125
 40
0.8671875
 40
0.869140625
 40
0.87109375
 40
0.873046875
 40
0.8740234375
 40
0.8745117188
 40
0.875
 40
0.8754882812
 40
0.8759765625
 40
0.876953125
 40
0.87890625
 40
0.880859375
 40
0.8828125
 40
0.88671875
 40
0.890625
 40
0.8984375
 40
0.90625
 40
0.9140625
 40
0.921875
 40
0.92578125
 40
0.9296875
 40
0.931640625
 40
0.93359375
 40
0.935546875
 40
0.9365234375
 40
0.9375
 40
0.9384765625
 40
0.939453125
 40
0.94140625
 40
0.943359375
 40
0.9453125
 40
0.94921875
 40
0.953125
 40
0.9609375
 40
0.96875
 40
0.9765625
 40
0.984375
 40
1.0
 40
1.0
 40
1.0
 40
1.0
 10
9.6749577323
 20
10.4065289017
 30
0.0
 10
9.6706703937
 20
10.4067126018
 30
0.0
 10
9.6620957043
 20
10.4070799546
 30
0.0
 10
9.6513774034
 20
10.4075393827
 30
0.0
 10
9.6428026349
 20
10.4079064274
 30
0.0
 10
9.6363719053
 20
10.4081830619
 30
0.0
 10
9.6310118614
 20
10.4084092947
 30
0.0
 10
9.6272619942
 20
10.4085760882
 30
0.0
 10
9.6251158349
 20
10.4086582353
 30
0.0
 10
9.6235157315
 20
10.4087569272
 30
0.0
 10
9.6218792526
 20
10.4087138743
 30
0.0
 10
9.619709969
 20
10.4087059126
 30
0.0
 10
9.6159078112
 20
10.4086689427
 30
0.0
 10
9.6104792455
 20
10.4086281801
 30
0.0
 10
9.603963655
 20
10.4085740737
 30
0.0
 10
9.5974483699
 20
10.4085214499
 30
0.0
 10
9.5909331746
 20
10.4084680868
 30
0.0
 10
9.5844173148
 20
10.4084161984
 30
0.0
 10
9.578989572
 20
10.4083686584
 30
0.0
 10
9.5751859479
 20
10.4083437646
 30
0.0
 10
9.5730190134
 20
10.4083164565
 30
0.0
 10
9.5713753189
 20
10.4083328293
 30
0.0
 10
9.5698023162
 20
10.408208328
 30
0.0
 10
9.5676803212
 20
10.4080914648
 30
0.0
 10
9.5639783189
 20
10.4078640593
 30
0.0
 10
9.5586837361
 20
10.4075511664
 30
0.0
 10
9.5523328147
 20
10.4071705599
 30
0.0
 10
9.5459811943
 20
10.4067913383
 30
0.0
 10
9.5396297921
 20
10.4064117122
 30
0.0
 10
9.5343368122
 20
10.4060955513
 30
0.0
 10
9.5301026664
 20
10.4058423588
 30
0.0
 10
9.5269264296
 20
10.4056531391
 30
0.0
 10
9.524281558
 20
10.405493317
 30
0.0
 10
9.5224262383
 20
10.4053856384
 30
0.0
 10
9.5213721599
 20
10.4053175548
 30
0.0
 10
9.5205644054
 20
10.4052849521
 30
0.0
 10
9.5198223817
 20
10.4051817858
 30
0.0
 10
9.5188100891
 20
10.4050688442
 30
0.0
 10
9.5170492595
 20
10.4048597286
 30
0.0
 10
9.5145282038
 20
10.4045669874
 30
0.0
 10
9.5115053274
 20
10.4042131318
 30
0.0
 10
9.5074739905
 20
10.4037422207
 30
0.0
 10
9.5024351064
 20
10.4031532741
 30
0.0
 10
9.4963883204
 20
10.4024466709
 30
0.0
 10
9.4903415752
 20
10.4017400293
 30
0.0
 10
9.4853025893
 20
10.4011511783
 30
0.0
 10
9.4812714559
 20
10.400680076
 30
0.0
 10
9.478751875
 20
10.4003856824
 30
0.0
 10
9.4767364905
 20
10.4001500641
 30
0.0
 10
9.475224185
 20
10.3999736334
 30
0.0
 10
9.4739663707
 20
10.3998257074
 30
0.0
 10
9.4730811117
 20
10.3997239264
 30
0.0
 10
9.4725827271
 20
10.3996630064
 30
0.0
 10
9.472187874
 20
10.3996250896
 30
0.0
 10
9.4718735405
 20
10.39955746
 30
0.0
 10
9.471426343
 20
10.3994776513
 30
0.0
 10
9.4706568333
 20
10.3993331572
 30
0.0
 10
9.4695506923
 20
10.3991292617
 30
0.0
 10
9.4682262515
 20
10.3988835065
 30
0.0
 10
9.4664593075
 20
10.3985562103
 30
0.0
 10
9.4642509779
 20
10.3981469608
 30
0.0
 10
9.4607174545
 20
10.3974922339
 30
0.0
 10
9.4563006181
 20
10.3966738003
 30
0.0
 10
9.4510003831
 20
10.3956916913
 30
0.0
 10
9.4457001646
 20
10.3947095769
 30
0.0
 10
9.4412832871
 20
10.3938911569
 30
0.0
 10
9.4377498458
 20
10.3932364029
 30
0.0
 10
9.4355413076
 20
10.3928272222
 30
0.0
 10
9.4337747916
 20
10.3924997847
 30
0.0
 10
9.4324490435
 20
10.3922544612
 30
0.0
 10
9.4313469926
 20
10.3920492151
 30
0.0
 10
9.4305701813
 20
10.3919071321
 30
0.0
 10
9.4301346828
 20
10.3918234602
 30
0.0
 10
9.4297844139
 20
10.3917676969
 30
0.0
 10
9.4295245283
 20
10.3916852121
 30
0.0
 10
9.4291464875
 20
10.3915845531
 30
0.0
 10
9.4284996049
 20
10.3914040572
 30
0.0
 10
9.4275678075
 20
10.3911484763
 30
0.0
 10
9.4264529376
 20
10.3908408074
 30
0.0
 10
9.4249652963
 20
10.3904309216
 30
0.0
 10
9.4231061378
 20
10.3899184482
 30
0.0
 10
9.4201312645
 20
10.3890985557
 30
0.0
 10
9.4164127488
 20
10.3880736676
 30
0.0
 10
9.4119504947
 20
10.3868438121
 30
0.0
 10
9.4074882598
 20
10.3856139519
 30
0.0
 10
9.4037696964
 20
10.3845890754
 30
0.0
 10
9.4007949186
 20
10.3837691597
 30
0.0
 10
9.3989355172
 20
10.3832567453
 30
0.0
 10
9.3974483744
 20
10.3828467384
 30
0.0
 10
9.3963319816
 20
10.3825394396
 30
0.0
 10
9.395404949
 20
10.3822827006
 30
0.0
 10
9.3947495603
 20
10.3821042721
 30
0.0
 10
9.3943851485
 20
10.3820003006
 30
0.0
 10
9.3940833988
 20
10.3819279908
 30
0.0
 10
9.3938903646
 20
10.381834012
 30
0.0
 10
9.3935950645
 20
10.3817162654
 30
0.0
 10
9.3930959575
 20
10.3815066872
 30
0.0
 10
9.3923737104
 20
10.381209131
 30
0.0
 10
9.3915109676
 20
10.3808512754
 30
0.0
 10
9.390359263
 20
10.3803744098
 30
0.0
 10
9.388920105
 20
10.3797782337
 30
0.0
 10
9.3866171879
 20
10.3788244045
 30
0.0
 10
9.3837386328
 20
10.3776320999
 30
0.0
 10
9.3802843248
 20
10.3762013426
 30
0.0
 10
9.3768300386
 20
10.3747705814
 30
0.0
 10
9.3739514288
 20
10.3735782865
 30
0.0
 10
9.3716486213
 20
10.3726244379
 30
0.0
 10
9.3702091848
 20
10.3720283112
 30
0.0
 10
9.3690580518
 20
10.371551344
 30
0.0
 10
9.3681935624
 20
10.371193799
 30
0.0
 10
9.3674767802
 20
10.3708952711
 30
0.0
 10
9.3669679174
 20
10.3706874275
 30
0.0
 10
9.3666882485
 20
10.3705669016
 30
0.0
 10
9.3664472003
 20
10.3704814601
 30
0.0
 10
9.3663257831
 20
10.3703770855
 30
0.0
 10
9.3661221649
 20
10.3702445235
 30
0.0
 10
9.3657852751
 20
10.370009463
 30
0.0
 10
9.3652938395
 20
10.369675271
 30
0.0
 10
9.3647084675
 20
10.369273552
 30
0.0
 10
9.3639264518
 20
10.3687381671
 30
0.0
 10
9.3629494526
 20
10.3680688537
 30
0.0
 10
9.3613859629
 20
10.3669979983
 30
0.0
 10
9.3594317014
 20
10.3656594131
 30
0.0
 10
9.3570865412
 20
10.3640531179
 30
0.0
 10
9.3547414057
 20
10.3624468203
 30
0.0
 10
9.3527870823
 20
10.3611082412
 30
0.0
 10
9.3512237163
 20
10.3600373737
 30
0.0
 10
9.3502464027
 20
10.359368091
 30
0.0
 10
9.3494650324
 20
10.3588326431
 30
0.0
 10
9.3488776888
 20
10.3584311169
 30
0.0
 10
9.3483924216
 20
10.3580963216
 30
0.0
 10
9.3480445201
 20
10.357862338
 30
0.0
 10
9.3478585455
 20
10.3577280504
 30
0.0
 10
9.3476829329
 20
10.3576289761
 30
0.0
 10
9.3476454334
 20
10.3575236278
 30
0.0
 10
9.3475472586
 20
10.3573853518
 30
0.0
 10
9.3473978985
 20
10.3571423491
 30
0.0
 10
9.3471727921
 20
10.3567957355
 30
0.0
 10
9.3469076873
 20
10.356379571
 30
0.0
 10
9.3465524599
 20
10.3558247647
 30
0.0
 10
9.3461090263
 20
10.3551312296
 30
0.0
 10
9.3453991966
 20
10.3540215887
 30
0.0
 10
9.3445120256
 20
10.3526345322
 30
0.0
 10
9.3434473674
 20
10.3509700668
 30
0.0
 10
9.3423827356
 20
10.3493056005
 30
0.0
 10
9.3414954985
 20
10.3479185461
 30
0.0
 10
9.3407858009
 20
10.346808901
 30
0.0
 10
9.3403420318
 20
10.3461153764
 30
0.0
 10
9.3399874929
 20
10.3455605485
 30
0.0
 10
9.3397202844
 20
10.34514445
 30
0.0
 10
9.3395017601
 20
10.34479763
 30
0.0
 10
9.3393406499
 20
10.3445549959
 30
0.0
 10
9.3392613018
 20
10.3444161293
 30
0.0
 10
9.3391659726
 20
10.3443125951
 30
0.0
 10
9.3392075586
 20
10.3442067072
 30
0.0
 10
9.339215249
 20
10.3440663443
 30
0.0
 10
9.3392509584
 20
10.3438203268
 30
0.0
 10
9.3392903387
 20
10.3434690732
 30
0.0
 10
9.3393425744
 20
10.3430474832
 30
0.0
 10
9.3394104828
 20
10.3424853932
 30
0.0
 10
9.3394959639
 20
10.3417827704
 30
0.0
 10
9.3396324006
 20
10.3406585797
 30
0.0
 10
9.3398030615
 20
10.3392533394
 30
0.0
 10
9.340007802
 20
10.3375670517
 30
0.0
 10
9.3402125688
 20
10.3358807642
 30
0.0
 10
9.3403831642
 20
10.3344755233
 30
0.0
 10
9.3405197319
 20
10.3333513337
 30
0.0
 10
9.3406048799
 20
10.3326487082
 30
0.0
 10
9.3406734718
 20
10.3320866237
 30
0.0
 10
9.3407236194
 20
10.3316650168
 30
0.0
 10
9.340769533
 20
10.3313138163
 30
0.0
 10
9.3407935793
 20
10.3310677039
 30
0.0
 10
9.3408199569
 20
10.3309274931
 30
0.0
 10
9.340804142
 20
10.3308211383
 30
0.0
 10
9.3409244011
 20
10.3307193576
 30
0.0
 10
9.3410372824
 20
10.3305820546
 30
0.0
 10
9.3412569392
 20
10.3303425176
 30
0.0
 10
9.3415591729
 20
10.3299999332
 30
0.0
 10
9.3419268021
 20
10.3295889984
 30
0.0
 10
9.3424152458
 20
10.3290410271
 30
0.0
 10
9.3430263923
 20
10.3283560829
 30
0.0
 10
9.3440038959
 20
10.3272601611
 30
0.0
 10
9.3452258896
 20
10.3258902627
 30
0.0
 10
9.3466922299
 20
10.3242463828
 30
0.0
 10
9.3481585962
 20
10.3226025041
 30
0.0
 10
9.3493805246
 20
10.3212326026
 30
0.0
 10
9.3503581589
 20
10.3201366871
 30
0.0
 10
9.3509689732
 20
10.319451727
 30
0.0
 10
9.3514580989
 20
10.3189037885
 30
0.0
 10
9.3518236445
 20
10.3184927535
 30
0.0
 10
9.3521323972
 20
10.3181504822
 30
0.0
 10
9.3523404164
 20
10.3179103864
 30
0.0
 10
9.352471944
 20
10.3177739787
 30
0.0
 10
9.3525349277
 20
10.3176694477
 30
0.0
 10
9.3527342297
 20
10.3175734228
 30
0.0
 10
9.3529524163
 20
10.3174424226
 30
0.0
 10
9.3533563971
 20
10.3172145547
 30
0.0
 10
9.35392193
 20
10.3168883064
 30
0.0
 10
9.3546055271
 20
10.3164971177
 30
0.0
 10
9.3555152584
 20
10.3159754248
 30
0.0
 10
9.3566530154
 20
10.3153233456
 30
0.0
 10
9.3584730951
 20
10.3142799982
 30
0.0
 10
9.3607483091
 20
10.3129758212
 30
0.0
 10
9.3634785141
 20
10.3114108052
 30
0.0
 10
9.3662087433
 20
10.309845792
 30
0.0
 10
9.368483897
 20
10.308541608
 30
0.0
 10
9.3703040973
 20
10.3074982747
 30
0.0
 10
9.3714415479
 20
10.3068461597
 30
0.0
 10
9.3723519079
 20
10.3063245403
 30
0.0
 10
9.3730335842
 20
10.3059331271
 30
0.0
 10
9.373605127
 20
10.3056075811
 30
0.0
 10
9.3739983791
 20
10.3053784594
 30
0.0
 10
9.3742337558
 20
10.3052494681
 30
0.0
 10
9.3743802553
 20
10.3051472727
 30
0.0
 10
9.3746415564
 20
10.3050659172
 30
0.0
 10
9.3749499138
 20
10.3049501741
 30
0.0
 10
9.3755081964
 20
10.3047510105
 30
0.0
 10
9.3762959889
 20
10.3044647204
 30
0.0
 10
9.3772455149
 20
10.3041219302
 30
0.0
 10
9.3785100913
 20
10.3036646118
 30
0.0
 10
9.3800913112
 20
10.3030930545
 30
0.0
 10
9.3826209839
 20
10.3021785121
 30
0.0
 10
9.385783171
 20
10.3010353516
 30
0.0
 10
9.3895777519
 20
10.299663551
 30
0.0
 10
9.3933723536
 20
10.2982917547
 30
0.0
 10
9.3965344885
 20
10.2971485836
 30
0.0
 10
9.3990642658
 20
10.2962340624
 30
0.0
 10
9.4006452197
 20
10.2956624512
 30
0.0
 10
9.4019103421
 20
10.2952052436
 30
0.0
 10
9.4028582002
 20
10.294862115
 30
0.0
 10
9.403651211
 20
10.2945768835
 30
0.0
 10
9.404200178
 20
10.2943758301
 30
0.0
 10
9.4045234614
 20
10.2942631149
 30
0.0
 10
9.4047389145
 20
10.2941724587
 30
0.0
 10
9.4050576116
 20
10.2941051954
 30
0.0
 10
9.4054465283
 20
10.2940073513
 30
0.0
 10
9.4061439116
 20
10.2938399259
 30
0.0
 10
9.4071314012
 20
10.2935987592
 30
0.0
 10
9.4083201435
 20
10.2933102099
 30
0.0
 10
9.4099038218
 20
10.2929251803
 30
0.0
 10
9.4118838688
 20
10.2924439951
 30
0.0
 10
9.4150516928
 20
10.2916740418
 30
0.0
 10
9.4190115594
 20
10.2907116199
 30
0.0
 10
9.4237633603
 20
10.2895567046
 30
0.0
 10
9.4285151791
 20
10.2884017941
 30
0.0
 10
9.4324750009
 20
10.2874393599
 30
0.0
 10
9.4356429146
 20
10.2866694314
 30
0.0
 10
9.4376227335
 20
10.2861881833
 30
0.0
 10
9.4392068799
 20
10.2858032827
 30
0.0
 10
9.4403941921
 20
10.2855143392
 30
0.0
 10
9.4413861563
 20
10.2852744057
 30
0.0
 10
9.4420755517
 20
10.2851047788
 30
0.0
 10
9.442477267
 20
10.2850104622
 30
0.0
 10
9.442756651
 20
10.2849323637
 30
0.0
 10
9.4431197573
 20
10.2848824028
 30
0.0
 10
9.4435746957
 20
10.2848059735
 30
0.0
 10
9.4443844442
 20
10.2846767953
 30
0.0
 10
9.4455341143
 20
10.2844898641
 30
0.0
 10
9.4469167633
 20
10.28426657
 30
0.0
 10
9.4487592317
 20
10.2839684872
 30
0.0
 10
9.4510626814
 20
10.283596006
 30
0.0
 10
9.4547479974
 20
10.2829999677
 30
0.0
 10
9.4593547112
 20
10.2822549429
 30
0.0
 10
9.4648827432
 20
10.2813609053
 30
0.0
 10
9.4704107635
 20
10.2804668621
 30
0.0
 10
9.4750175067
 20
10.2797218515
 30
0.0
 10
9.4787027639
 20
10.2791257848
 30
0.0
 10
9.4810063632
 20
10.2787533759
 30
0.0
 10
9.4828485244
 20
10.2784551447
 30
0.0
 10
9.4842321119
 20
10.2782323037
 30
0.0
 10
9.4853788457
 20
10.278043955
 30
0.0
 10
9.4863102632
 20
10.2778992147
 30
0.0
 10
9.4869704883
 20
10.2777744324
 30
0.0
 10
9.4877770502
 20
10.2777115889
 30
0.0
 10
9.4888013487
 20
10.2776061616
 30
0.0
 10
9.49009926
 20
10.2774818007
 30
0.0
 10
9.4916492466
 20
10.2773293902
 30
0.0
 10
9.4937185174
 20
10.277127286
 30
0.0
 10
9.4963042082
 20
10.2768742758
 30
0.0
 10
9.5004418152
 20
10.2764696719
 30
0.0
 10
9.5056136517
 20
10.275963844
 30
0.0
 10
9.5118199294
 20
10.2753568819
 30
0.0
 10
9.5180261873
 20
10.2747499114
 30
0.0
 10
9.5263012048
 20
10.2739406203
 30
0.0
 10
9.5325074664
 20
10.2733336513
 30
0.0
 10
9.5366449744
 20
10.2729290054
 30
0.0
  0
ENDSEC
  0
SECTION
  2
OBJECTS
  0
DICTIONARY
  5
C
100
AcDbDictionary
280
0
281
1
  3
ACAD_GROUP
350
D
  3
ACAD_MLINESTYLE
350
17
  3
ACAD_LAYOUT
350
1A
  3
ACAD_PLOTSETTINGS
350
19
  3
ACAD_PLOTSTYLENAME
350
E
  3
ACAD_IMAGE_DICT
350
       3E7
  3
ACAD_IMAGE_VARS
350
       3E8
  3
ACAD_TABLESTYLE
350
       3E9
  0
IMAGEDEF_REACTOR
  5
3E6
100
AcDbRasterImageDefReactor
 90
2
330
296
  0
DICTIONARY
  5
D
102
{ACAD_REACTORS
330
C
102
}
100
AcDbDictionary
280
0
281
1
  0
ACDBDICTIONARYWDFLT
  5
E
102
{ACAD_REACTORS
330
C
102
}
100
AcDbDictionary
281
1
  3
Normal
350
F
100
AcDbDictionaryWithDefault
340
F
  0
DICTIONARY
  5
3E7
330
C
100
AcDbDictionary
281
1
  3
K65_assy_2_img_1
350
       3EC
  0
RASTERVARIABLES
  5
3E8
330
C
100
AcDbRasterVariables
 90
0
 70
0
 71
1
 72
5
  0
DICTIONARY
  5
17
102
{ACAD_REACTORS
330
C
102
}
100
AcDbDictionary
280
0
281
1
  3
Standard
350
18
  0
DICTIONARY
  5
3E9
330
C
100
AcDbDictionary
281
1
  3
Standard
350
       3ED
  3
Standard1
350
       3EE
  0
DICTIONARY
  5
19
102
{ACAD_REACTORS
330
C
102
}
100
AcDbDictionary
281
1
  0
DICTIONARY
  5
1A
102
{ACAD_REACTORS
330
C
102
}
100
AcDbDictionary
281
1
  3
Model
350
3EA
  3
Layout1
350
3EB
  0
ACDBPLACEHOLDER
  5
F
102
{ACAD_REACTORS
330
E
102
}
  0
MLINESTYLE
  5
18
102
{ACAD_REACTORS
330
17
102
}
100
AcDbMlineStyle
  2
STANDARD
 70
0
  3

 62
256
 51
90.0
 52
90.0
 71
2
 49
0.5
 62
256
  6
BYLAYER
 49
-0.5
 62
256
  6
BYLAYER
  0
LAYOUT
  5
3EA
102
{ACAD_REACTORS
330
1A
102
}
100
AcDbPlotSettings
  1

  2
none_device
  4
ANSI_C_(22.00_x_17.00_Inches)
  6

 40
0.0
 41
0.0
 42
0.0
 43
0.0
 44
558.8
 45
431.8
 46
0.0
 47
0.0
 48
0.0
 49
0.0
140
0.0
141
0.0
142
1.0
143
1.0
 70
1024
 72
0
 73
0
 74
0
  7

 75
0
147
1.0
148
0.0
149
0.0
100
AcDbLayout
  1
Model
 70
0
 71
0
 10
0.0
 20
0.0
 11
22.0
 21
17.0
 12
0.0
 22
0.0
 32
0.0
 14
0.0
 24
0.0
 34
0.0
 15
0.0
 25
0.0
 35
0.0
146
0.0
 13
0.0
 23
0.0
 33
0.0
 16
1.0
 26
0.0
 36
0.0
 17
0.0
 27
1.0
 37
0.0
 76
0
330
20C
345
0
346
0
  0
LAYOUT
  5
3EB
102
{ACAD_REACTORS
330
1A
102
}
100
AcDbPlotSettings
  1

  2
none_device
  4
ANSI_C_(22.00_x_17.00_Inches)
  6

 40
0.0
 41
0.0
 42
0.0
 43
0.0
 44
558.8
 45
431.8
 46
0.0
 47
0.0
 48
0.0
 49
0.0
140
0.0
141
0.0
142
1.0
143
1.0
 70
0
 72
0
 73
0
 74
0
  7

 75
0
147
1.0
148
0.0
149
0.0
100
AcDbLayout
  1
Layout1
 70
0
 71
1
 10
0.0
 20
0.0
 11
22.0
 21
17.0
 12
0.0
 22
0.0
 32
0.0
 14
0.0
 24
0.0
 34
0.0
 15
0.0
 25
0.0
 35
0.0
146
0.0
 13
0.0
 23
0.0
 33
0.0
 16
1.0
 26
0.0
 36
0.0
 17
0.0
 27
1.0
 37
0.0
 76
0
330
20D
345
0
346
0
  0
IMAGEDEF
  5
3EC
102
{ACAD_REACTORS
330
3E7
330
3E6
102
}
100
AcDbRasterImageDef
 90
0
  1
K65_assy_2_img_1.png
 10
369.0
 20
92.0
 11
0.0066666667
 21
0.0066666667
280
1
281
0
  0
TABLESTYLE
  5
3ED
102
{ACAD_REACTORS
330
3E9
330
299
330
29A
102
}
330
3E9
100
AcDbTableStyle
  3
Standard
 70
0
 71
0
 40
0.06
 41
0.06
280
1
281
1
  7
Standard
140
0.18
170
1
 62
0
 63
7
283
0
  7
Standard
140
0.18
170
1
 62
0
 63
7
283
0
  7
Standard
140
0.18
170
1
 62
0
 63
7
283
0
  0
TABLESTYLE
  5
3EE
102
{ACAD_REACTORS
330
3E9
330
298
102
}
330
3E9
100
AcDbTableStyle
  3
Standard1
 70
1
 71
0
 40
0.06
 41
0.06
280
1
281
1
  7
Standard
140
0.18
170
1
 62
0
 63
7
283
0
  7
Standard
140
0.18
170
1
 62
0
 63
7
283
0
  7
Standard
140
0.18
170
1
 62
0
 63
7
283
0
  0
ENDSEC
  0
EOF
