999
DXF file: K4X_assy_2.dxf
999
Pro/ENGINEER 2014200 by Parametric Technology Corporation
  0
SECTION
  2
HEADER
  9
$ACADVER
  1
AC1021
  9
$DWGCODEPAGE
  3
ANSI_1252
  9
$EXTMAX
 10
22.0
 20
17.0
 30
0.0
  9
$EXTMIN
 10
0.0
 20
0.0
 30
0.0
  9
$LIMMIN
 10
0.0
 20
0.0
  9
$LIMMAX
 10
22.0
 20
17.0
  9
$VIEWCTR
 10
11.0
 20
8.5
  9
$VIEWSIZE
 40
17.0
  9
$CLAYER
  8
0
  9
$LTSCALE
 40
1.21
  9
$CELTYPE
  6
BYLAYER
  9
$DIMSCALE
 40
1.0
  9
$DIMASZ
 40
0.1875
  9
$DIMEXO
 40
0.0625
  9
$DIMDLI
 40
0.836
  9
$DIMEXE
 40
0.125
  9
$DIMCEN
 40
0.198
  9
$DIMLFAC
 40
1.0
  9
$DIMBLK
  1
_FILLED
  9
$DIMTXT
 40
0.1
  9
$DIMTOL
 70
0
  9
$DIMLIM
 70
0
  9
$DIMTFAC
 40
1.0
  9
$DIMGAP
 40
0.09
  9
$DIMDSEP
 70
46
  9
$AUNITS
 70
0
  9
$PDMODE
 70
3
  9
$PDSIZE
 40
0.3125
  9
$HANDSEED
  5
399
  9
$TILEMODE
 70
1
  9
$MEASUREMENT
 70
0
  9
$INSUNITS
 70
1
  0
ENDSEC
  0
SECTION
  2
CLASSES
  0
CLASS
  1
ACDBDICTIONARYWDFLT
  2
AcDbDictionaryWithDefault
  3
AutoCAD 2000
 90
0
 91
1
280
0
281
0
  0
CLASS
  1
ACDBPLACEHOLDER
  2
AcDbPlaceHolder
  3
AutoCAD 2000
 90
0
 91
1
280
0
281
0
  0
CLASS
  1
LAYOUT
  2
AcDbLayout
  3
AutoCAD 2000
 90
0
 91
0
280
0
281
0
  0
CLASS
  1
RASTERVARIABLES
  2
AcDbRasterVariables
  3
ISM
 90
0
 91
1
280
0
281
0
  0
CLASS
  1
IMAGEDEF
  2
AcDbRasterImageDef
  3
ISM
 90
0
 91
1
280
0
281
0
  0
CLASS
  1
IMAGEDEF_REACTOR
  2
AcDbRasterImageDefReactor
  3
ISM
 90
0
 91
1
280
0
281
0
  0
CLASS
  1
IMAGE
  2
AcDbRasterImage
  3
ISM
 90
127
 91
1
280
0
281
1
  0
CLASS
  1
TABLESTYLE
  2
AcDbTableStyle
  3
ObjectDBX Classes
 90
2047
 91
1
280
0
281
0
  0
CLASS
  1
ACAD_TABLE
  2
AcDbTable
  3
ObjectDBX Classes
 90
1025
 91
3
280
0
281
1
  0
ENDSEC
  0
SECTION
  2
TABLES
  0
TABLE
  2
VPORT
  5
8
100
AcDbSymbolTable
 70
2
  0
VPORT
  5
1F4
100
AcDbSymbolTableRecord
100
AcDbViewportTableRecord
  2
*ACTIVE
 70
0
 10
0.0
 20
0.0
 11
1.0
 21
1.0
 12
11.0
 22
8.5
 13
0.0
 23
0.0
 14
1.0
 24
1.0
 15
0.0
 25
0.0
 16
0.0
 26
0.0
 36
1.0
 17
0.0
 27
0.0
 37
0.0
 40
17.0
 41
1.2941176471
 42
50.0
 43
0.0
 44
0.0
 50
0.0
 51
0.0
 71
0
 72
100
 73
1
 74
1
 75
0
 76
0
 77
0
 78
0
  0
ENDTAB
  0
TABLE
  2
LTYPE
  5
5
100
AcDbSymbolTable
 70
6
  0
LTYPE
  5
14
100
AcDbSymbolTableRecord
100
AcDbLinetypeTableRecord
  2
BYBLOCK
 70
0
  3

 72
65
 73
0
 40
0.0
  0
LTYPE
  5
15
100
AcDbSymbolTableRecord
100
AcDbLinetypeTableRecord
  2
BYLAYER
 70
0
  3

 72
65
 73
0
 40
0.0
  0
LTYPE
  5
16
100
AcDbSymbolTableRecord
100
AcDbLinetypeTableRecord
  2
CONTINUOUS
 70
64
  3
Solid line
 72
65
 73
0
 40
0.0
  0
LTYPE
  5
1F5
100
AcDbSymbolTableRecord
100
AcDbLinetypeTableRecord
  2
CENTER
 70
64
  3
____ _ ____ _ ____ _ ____ _ ____ _ ____ _ ____
 72
65
 73
4
 40
0.6
 49
0.375
 74
0
 49
-0.075
 74
0
 49
0.075
 74
0
 49
-0.075
 74
0
  0
LTYPE
  5
1F6
100
AcDbSymbolTableRecord
100
AcDbLinetypeTableRecord
  2
HIDDEN
 70
64
  3
- - - - - - - - - - - - - - - - - - - -
 72
65
 73
2
 40
0.2
 49
0.1
 74
0
 49
-0.1
 74
0
  0
LTYPE
  5
1F7
100
AcDbSymbolTableRecord
100
AcDbLinetypeTableRecord
  2
PHANTOM
 70
64
  3
_____ _ _ _____ _ _ _____ _ _ _____
 72
65
 73
6
 40
0.8
 49
0.45
 74
0
 49
-0.05
 74
0
 49
0.1
 74
0
 49
-0.05
 74
0
 49
0.1
 74
0
 49
-0.05
 74
0
  0
LTYPE
  5
1F8
100
AcDbSymbolTableRecord
100
AcDbLinetypeTableRecord
  2
DOT
 70
64
  3
. . . . . . . . . . . . . . . . . . . .
 72
65
 73
2
 40
0.2
 49
0.1
 74
0
 49
-0.1
 74
0
  0
LTYPE
  5
1F9
100
AcDbSymbolTableRecord
100
AcDbLinetypeTableRecord
  2
DASHED
 70
64
  3
- - - - - - - - - - - - - - - - - - - -
 72
65
 73
2
 40
0.2
 49
0.1
 74
0
 49
-0.1
 74
0
  0
ENDTAB
  0
TABLE
  2
LAYER
  5
2
100
AcDbSymbolTable
 70
36
  0
LAYER
  5
10
100
AcDbSymbolTableRecord
100
AcDbLayerTableRecord
  2
0
 70
0
 62
7
  6
CONTINUOUS
370
-3
390
F
  0
LAYER
  5
1FA
100
AcDbSymbolTableRecord
100
AcDbLayerTableRecord
  2
DEFAULT_1
 70
0
 62
7
  6
CENTER
370
-3
390
F
  0
LAYER
  5
1FB
100
AcDbSymbolTableRecord
100
AcDbLayerTableRecord
  2
DEFAULT_2
 70
0
 62
8
  6
HIDDEN
370
-3
390
F
  0
LAYER
  5
1FC
100
AcDbSymbolTableRecord
100
AcDbLayerTableRecord
  2
DEFAULT_3
 70
0
 62
7
  6
PHANTOM
370
-3
390
F
  0
LAYER
  5
1FD
100
AcDbSymbolTableRecord
100
AcDbLayerTableRecord
  2
01___PRT_ALL_DTM_PLN
 70
0
 62
7
  6
CONTINUOUS
370
-3
390
F
  0
LAYER
  5
1FE
100
AcDbSymbolTableRecord
100
AcDbLayerTableRecord
  2
01___PRT_DEF_DTM_PLN
 70
0
 62
7
  6
CONTINUOUS
370
-3
390
F
  0
LAYER
  5
1FF
100
AcDbSymbolTableRecord
100
AcDbLayerTableRecord
  2
02___PRT_ALL_AXES
 70
0
 62
7
  6
CONTINUOUS
370
-3
390
F
  0
LAYER
  5
200
100
AcDbSymbolTableRecord
100
AcDbLayerTableRecord
  2
03___PRT_ALL_CURVES
 70
0
 62
7
  6
CONTINUOUS
370
-3
390
F
  0
LAYER
  5
201
100
AcDbSymbolTableRecord
100
AcDbLayerTableRecord
  2
04___PRT_ALL_DTM_PNT
 70
0
 62
7
  6
CONTINUOUS
370
-3
390
F
  0
LAYER
  5
202
100
AcDbSymbolTableRecord
100
AcDbLayerTableRecord
  2
05___PRT_ALL_DTM_CSYS
 70
0
 62
7
  6
CONTINUOUS
370
-3
390
F
  0
LAYER
  5
203
100
AcDbSymbolTableRecord
100
AcDbLayerTableRecord
  2
05___PRT_DEF_DTM_CSYS
 70
0
 62
7
  6
CONTINUOUS
370
-3
390
F
  0
LAYER
  5
204
100
AcDbSymbolTableRecord
100
AcDbLayerTableRecord
  2
06___PRT_ALL_SURFS
 70
0
 62
7
  6
CONTINUOUS
370
-3
390
F
  0
LAYER
  5
205
100
AcDbSymbolTableRecord
100
AcDbLayerTableRecord
  2
DATUM_PLANES
 70
0
 62
7
  6
CONTINUOUS
370
-3
390
F
  0
LAYER
  5
206
100
AcDbSymbolTableRecord
100
AcDbLayerTableRecord
  2
PORT_AREAS
 70
0
 62
7
  6
CONTINUOUS
370
-3
390
F
  0
LAYER
  5
207
100
AcDbSymbolTableRecord
100
AcDbLayerTableRecord
  2
SUNNBOMCOSMETIC
 70
0
 62
7
  6
CONTINUOUS
370
-3
390
F
  0
LAYER
  5
208
100
AcDbSymbolTableRecord
100
AcDbLayerTableRecord
  2
SUNNBOMSTAMPING
 70
0
 62
7
  6
CONTINUOUS
370
-3
390
F
  0
LAYER
  5
209
100
AcDbSymbolTableRecord
100
AcDbLayerTableRecord
  2
THREADS
 70
0
 62
7
  6
CONTINUOUS
370
-3
390
F
  0
ENDTAB
  0
TABLE
  2
STYLE
  5
3
100
AcDbSymbolTable
 70
1
  0
STYLE
  5
11
100
AcDbSymbolTableRecord
100
AcDbTextStyleTableRecord
  2
STANDARD
 70
0
 40
0.0
 41
0.8
 50
0.0
 71
0
 42
0.2
  3
txt
  4

  0
STYLE
  5
20A
100
AcDbSymbolTableRecord
100
AcDbTextStyleTableRecord
  2
TEXTSTYLE_1
 70
0
 40
0.0
 41
0.8
 50
0.0
 71
0
 42
0.2
  3
gdt
  4

  0
ENDTAB
  0
TABLE
  2
VIEW
  5
6
100
AcDbSymbolTable
 70
0
  0
ENDTAB
  0
TABLE
  2
UCS
  5
7
100
AcDbSymbolTable
 70
0
  0
ENDTAB
  0
TABLE
  2
APPID
  5
9
100
AcDbSymbolTable
 70
1
  0
APPID
  5
20B
100
AcDbSymbolTableRecord
100
AcDbRegAppTableRecord
  2
ACAD
 70
0
  0
ENDTAB
  0
TABLE
  2
BLOCK_RECORD
  5
1
100
AcDbSymbolTable
 70
0
  0
BLOCK_RECORD
  5
20C
100
AcDbSymbolTableRecord
100
AcDbBlockTableRecord
  2
*Model_Space
  0
BLOCK_RECORD
  5
20D
100
AcDbSymbolTableRecord
100
AcDbBlockTableRecord
  2
*Paper_Space
  0
BLOCK_RECORD
  5
20E
100
AcDbSymbolTableRecord
100
AcDbBlockTableRecord
  2
SUN_FIRST_THIRD_ANGLE_BL0
  0
BLOCK_RECORD
  5
20F
100
AcDbSymbolTableRecord
100
AcDbBlockTableRecord
  2
*T1
  0
BLOCK_RECORD
  5
210
100
AcDbSymbolTableRecord
100
AcDbBlockTableRecord
  2
*T2
  0
BLOCK_RECORD
  5
211
100
AcDbSymbolTableRecord
100
AcDbBlockTableRecord
  2
*T3
  0
ENDTAB
  0
TABLE
  2
DIMSTYLE
  5
A
100
AcDbSymbolTable
 70
1
100
AcDbDimStyleTable
 71
0
  0
DIMSTYLE
105
212
100
AcDbSymbolTableRecord
100
AcDbDimStyleTableRecord
  2
STANDARD
 70
0
  3

  4

 40
1.0
 41
0.1875
 42
0.0625
 43
0.38
 44
0.125
 45
0.0
 46
0.0
 47
0.001
 48
0.001
140
0.1
141
0.09
142
0.0
143
25.4
144
1.0
145
0.0
146
1.0
147
0.09
 71
0.0
 72
0.0
 73
1
 74
1
 75
0
 76
0
 77
0
 78
4
170
0
171
2
172
0
173
0
174
0
175
0
176
0
177
0
178
0
270
2
271
3
272
3
273
2
274
2
275
0
280
0
281
0
282
0
283
1
284
4
285
0
286
0
287
3
288
0
340
11
278
46
  0
ENDTAB
  0
ENDSEC
  0
SECTION
  2
BLOCKS
  0
BLOCK
  5
20
100
AcDbEntity
  8
0
100
AcDbBlockBegin
  2
*Model_Space
 70
0
 10
0.0
 20
0.0
 30
0.0
  3
*Model_Space
  1

  0
ENDBLK
  5
21
100
AcDbEntity
  8
0
100
AcDbBlockEnd
  0
BLOCK
  5
1C
100
AcDbEntity
  8
0
100
AcDbBlockBegin
  2
*Paper_Space
 70
0
 10
0.0
 20
0.0
 30
0.0
  3
*Paper_Space
  1

  0
ENDBLK
  5
1D
100
AcDbEntity
  8
0
100
AcDbBlockEnd
  0
BLOCK
  5
213
100
AcDbEntity
  8
0
100
AcDbBlockBegin
 62
2
  6
CONTINUOUS
  2
SUN_FIRST_THIRD_ANGLE_BL0
 70
64
 10
20.4816717061
 20
1.2289683772
  3
SUN_FIRST_THIRD_ANGLE_BL0
  1

  0
TEXT
  5
214
100
AcDbEntity
  8
0
100
AcDbText
 62
2
  6
CONTINUOUS
 10
19.4750896608
 20
1.4136269581
  7
STANDARD
 40
0.08
  1
FIRST ANGLE
 41
0.8
 72
0
100
AcDbText
  0
TEXT
  5
215
100
AcDbEntity
  8
0
100
AcDbText
 62
2
  6
CONTINUOUS
 10
20.7842537513
 20
1.4047600029
  7
STANDARD
 40
0.08
  1
THIRD ANGLE
 41
0.8
 72
0
100
AcDbText
  0
LINE
  5
216
100
AcDbEntity
  8
0
100
AcDbLine
 62
7
  6
CONTINUOUS
 10
19.4767170086
 20
1.1727031207
 11
19.6334271527
 21
1.1717972817
  0
LINE
  5
217
100
AcDbEntity
  8
0
100
AcDbLine
 62
7
  6
CONTINUOUS
 10
19.6596964832
 20
1.1717972817
 11
19.6950230232
 21
1.171593082
  0
LINE
  5
218
100
AcDbEntity
  8
0
100
AcDbLine
 62
7
  6
CONTINUOUS
 10
19.7194818561
 20
1.1708914427
 11
19.8852396156
 21
1.1699333054
  0
LINE
  5
219
100
AcDbEntity
  8
0
100
AcDbLine
 62
7
  6
CONTINUOUS
 10
19.4758111696
 20
1.2723454088
 11
19.88525039
 21
1.3511534004
  0
LINE
  5
21A
100
AcDbEntity
  8
0
100
AcDbLine
 62
7
  6
CONTINUOUS
 10
19.88525039
 20
1.3511534004
 11
19.8831348489
 21
0.9851647912
  0
LINE
  5
21B
100
AcDbEntity
  8
0
100
AcDbLine
 62
7
  6
CONTINUOUS
 10
19.8831348489
 20
0.9851647912
 11
19.4767170086
 21
1.0658141206
  0
LINE
  5
21C
100
AcDbEntity
  8
0
100
AcDbLine
 62
7
  6
CONTINUOUS
 10
19.4767170086
 20
1.0658141206
 11
19.4779056764
 21
1.2714536432
  0
CIRCLE
  5
21D
100
AcDbEntity
  8
0
100
AcDbCircle
 62
7
  6
CONTINUOUS
 10
20.2068232291
 20
1.1717972817
 40
0.175742101
  0
CIRCLE
  5
21E
100
AcDbEntity
  8
0
100
AcDbCircle
 62
7
  6
CONTINUOUS
 10
20.2068232291
 20
1.1717972817
 40
0.1005522074
  0
LINE
  5
21F
100
AcDbEntity
  8
0
100
AcDbLine
 62
7
  6
CONTINUOUS
 10
20.2077290681
 20
1.3756110529
 11
20.2071171714
 21
1.2379342989
  0
LINE
  5
220
100
AcDbEntity
  8
0
100
AcDbLine
 62
7
  6
CONTINUOUS
 10
20.2077290681
 20
1.2016899681
 11
20.2074674401
 21
1.1428236749
  0
LINE
  5
221
100
AcDbEntity
  8
0
100
AcDbLine
 62
7
  6
CONTINUOUS
 10
20.208634907
 20
1.101141841
 11
20.2080230104
 21
0.963465087
  0
LINE
  5
222
100
AcDbEntity
  8
0
100
AcDbLine
 62
7
  6
CONTINUOUS
 10
20.0066328138
 20
1.1745147986
 11
20.1443095678
 21
1.1739029019
  0
LINE
  5
223
100
AcDbEntity
  8
0
100
AcDbLine
 62
7
  6
CONTINUOUS
 10
20.1832714155
 20
1.1727031207
 11
20.238153505
 21
1.172335442
  0
LINE
  5
224
100
AcDbEntity
  8
0
100
AcDbLine
 62
7
  6
CONTINUOUS
 10
20.2756669918
 20
1.1717972817
 11
20.407916871
 21
1.1712095044
  0
CIRCLE
  5
225
100
AcDbEntity
  8
0
100
AcDbCircle
 62
7
  6
CONTINUOUS
 10
20.7509457401
 20
1.1693297793
 40
0.1722024983
  0
CIRCLE
  5
226
100
AcDbEntity
  8
0
100
AcDbCircle
 62
7
  6
CONTINUOUS
 10
20.7509457401
 20
1.1693297793
 40
0.0985164967
  0
LINE
  5
227
100
AcDbEntity
  8
0
100
AcDbLine
 62
7
  6
CONTINUOUS
 10
20.7169767782
 20
1.170462078
 11
20.7825395137
 21
1.1682766535
  0
LINE
  5
228
100
AcDbEntity
  8
0
100
AcDbLine
 62
7
  6
CONTINUOUS
 10
20.8177513651
 20
1.1693297793
 11
20.947965719
 21
1.1693297793
  0
LINE
  5
229
100
AcDbEntity
  8
0
100
AcDbLine
 62
7
  6
CONTINUOUS
 10
20.6875370113
 20
1.170462078
 11
20.5573226574
 21
1.170462078
  0
LINE
  5
22A
100
AcDbEntity
  8
0
100
AcDbLine
 62
7
  6
CONTINUOUS
 10
20.7486811426
 20
1.1987695462
 11
20.7486811426
 21
1.1432869085
  0
LINE
  5
22B
100
AcDbEntity
  8
0
100
AcDbLine
 62
7
  6
CONTINUOUS
 10
20.7498134414
 20
1.1059210505
 11
20.7498134414
 21
0.9757066966
  0
LINE
  5
22C
100
AcDbEntity
  8
0
100
AcDbLine
 62
7
  6
CONTINUOUS
 10
20.7486811426
 20
1.2338708068
 11
20.7486811426
 21
1.3640851607
  0
LINE
  5
22D
100
AcDbEntity
  8
0
100
AcDbLine
 62
7
  6
CONTINUOUS
 10
21.0702539817
 20
1.2701043662
 11
21.4790138229
 21
1.3448360823
  0
LINE
  5
22E
100
AcDbEntity
  8
0
100
AcDbLine
 62
7
  6
CONTINUOUS
 10
21.4790138229
 20
1.3448360823
 11
21.4790138229
 21
0.9779712941
  0
LINE
  5
22F
100
AcDbEntity
  8
0
100
AcDbLine
 62
7
  6
CONTINUOUS
 10
21.4790138229
 20
0.9779712941
 11
21.069121683
 21
1.0617614
  0
LINE
  5
230
100
AcDbEntity
  8
0
100
AcDbLine
 62
7
  6
CONTINUOUS
 10
21.0702539817
 20
1.2701043662
 11
21.069121683
 21
1.0617614
  0
LINE
  5
231
100
AcDbEntity
  8
0
100
AcDbLine
 62
7
  6
CONTINUOUS
 10
21.4790138229
 20
1.1693297793
 11
21.3159628059
 21
1.1693297793
  0
LINE
  5
232
100
AcDbEntity
  8
0
100
AcDbLine
 62
7
  6
CONTINUOUS
 10
21.2876553377
 20
1.1693297793
 11
21.2502894796
 21
1.1693297793
  0
LINE
  5
233
100
AcDbEntity
  8
0
100
AcDbLine
 62
7
  6
CONTINUOUS
 10
21.2208497126
 20
1.1659328831
 11
21.0713862804
 21
1.1659328831
  0
LINE
  5
234
100
AcDbEntity
  8
0
100
AcDbLine
 62
7
  6
CONTINUOUS
 10
20.4796138713
 20
1.5284908897
 11
20.4766766948
 21
0.9294458646
  0
ENDBLK
  5
235
100
AcDbEntity
  8
0
  6
BYBLOCK
 62
0
100
AcDbBlockEnd
  0
BLOCK
  5
236
100
AcDbEntity
  8
0
100
AcDbBlockBegin
  2
*T1
 70
1
 10
0.0
 20
0.0
  3
*T1
  1

  0
LINE
  5
237
100
AcDbEntity
  8
0
100
AcDbLine
 62
2
  6
CONTINUOUS
 10
9.275
 20
0.0
 11
-0.0
 21
0.0
  0
LINE
  5
238
100
AcDbEntity
  8
0
100
AcDbLine
 62
2
  6
CONTINUOUS
 10
9.275
 20
0.0
 11
9.275
 21
1.25
  0
LINE
  5
239
100
AcDbEntity
  8
0
100
AcDbLine
 62
2
  6
CONTINUOUS
 10
9.275
 20
0.625
 11
-0.0
 21
0.625
  0
LINE
  5
23A
100
AcDbEntity
  8
0
100
AcDbLine
 62
2
  6
CONTINUOUS
 10
9.275
 20
1.25
 11
-0.0
 21
1.25
  0
LINE
  5
23B
100
AcDbEntity
  8
0
100
AcDbLine
 62
2
  6
CONTINUOUS
 10
6.8
 20
0.0
 11
6.8
 21
1.25
  0
LINE
  5
23C
100
AcDbEntity
  8
0
100
AcDbLine
 62
2
  6
CONTINUOUS
 10
6.4
 20
0.0
 11
6.4
 21
0.625
  0
LINE
  5
23D
100
AcDbEntity
  8
0
100
AcDbLine
 62
2
  6
CONTINUOUS
 10
5.9
 20
0.0
 11
5.9
 21
0.625
  0
LINE
  5
23E
100
AcDbEntity
  8
0
100
AcDbLine
 62
2
  6
CONTINUOUS
 10
5.2
 20
0.0
 11
5.2
 21
0.625
  0
LINE
  5
23F
100
AcDbEntity
  8
0
100
AcDbLine
 62
2
  6
CONTINUOUS
 10
4.1
 20
0.0
 11
4.1
 21
1.25
  0
LINE
  5
240
100
AcDbEntity
  8
0
100
AcDbLine
 62
2
  6
CONTINUOUS
 10
-0.0
 20
0.0
 11
-0.0
 21
1.25
  0
MTEXT
  5
241
100
AcDbEntity
  8
0
100
AcDbMText
 62
2
  6
CONTINUOUS
  7
STANDARD
 71
2
 72
1
 10
6.6
 20
0.325
 30
0.0
 11
1.0
 21
0.0
 31
0.0
 44
0.9
  1
2
 40
0.125
 41
0.2
  0
MTEXT
  5
242
100
AcDbEntity
  8
0
100
AcDbMText
 62
2
  6
CONTINUOUS
  7
STANDARD
 71
2
 72
1
 10
6.15
 20
0.325
 30
0.0
 11
1.0
 21
0.0
 31
0.0
 44
0.9
  1
C
 40
0.125
 41
0.2
  0
MTEXT
  5
243
100
AcDbEntity
  8
0
100
AcDbMText
 62
2
  6
CONTINUOUS
  7
STANDARD
 71
2
 72
1
 10
5.55
 20
0.325
 30
0.0
 11
1.0
 21
0.0
 31
0.0
 44
0.9
  1
0.900
 40
0.125
 41
1.0
  0
MTEXT
  5
244
100
AcDbEntity
  8
0
100
AcDbMText
 62
2
  6
CONTINUOUS
  7
STANDARD
 71
2
 72
1
 10
4.65
 20
0.325
 30
0.0
 11
1.0
 21
0.0
 31
0.0
 44
0.9
  1
Dec-21-20
 40
0.125
 41
1.8
  0
MTEXT
  5
245
100
AcDbEntity
  8
0
100
AcDbMText
 62
2
  6
CONTINUOUS
  7
STANDARD
 71
2
 72
1
 10
2.05
 20
0.4625
 30
0.0
 11
1.0
 21
0.0
 31
0.0
 44
0.9
  1
T-19A Line mount\P(See Technical Data for Body Features)
 40
0.125
 41
7.6
  0
MTEXT
  5
246
100
AcDbEntity
  8
0
100
AcDbMText
 62
2
  6
CONTINUOUS
  7
STANDARD
 71
1
 72
1
 10
6.45
 20
0.5625
 30
0.0
 11
1.0
 21
0.0
 31
0.0
 44
0.9
  1
SHEET
 40
0.06
 41
0.48
  0
MTEXT
  5
247
100
AcDbEntity
  8
0
100
AcDbMText
 62
2
  6
CONTINUOUS
  7
STANDARD
 71
1
 72
1
 10
5.95
 20
0.5625
 30
0.0
 11
1.0
 21
0.0
 31
0.0
 44
0.9
  1
DWG SIZE
 40
0.06
 41
0.768
  0
MTEXT
  5
248
100
AcDbEntity
  8
0
100
AcDbMText
 62
2
  6
CONTINUOUS
  7
STANDARD
 71
1
 72
1
 10
5.25
 20
0.5625
 30
0.0
 11
1.0
 21
0.0
 31
0.0
 44
0.9
  1
SCALE
 40
0.06
 41
0.48
  0
MTEXT
  5
249
100
AcDbEntity
  8
0
100
AcDbMText
 62
2
  6
CONTINUOUS
  7
STANDARD
 71
1
 72
1
 10
4.15
 20
0.5625
 30
0.0
 11
1.0
 21
0.0
 31
0.0
 44
0.9
  1
DATE
 40
0.06
 41
0.384
  0
MTEXT
  5
24A
100
AcDbEntity
  8
0
100
AcDbMText
 62
2
  6
CONTINUOUS
  7
STANDARD
 71
1
 72
1
 10
0.05
 20
0.5625
 30
0.0
 11
1.0
 21
0.0
 31
0.0
 44
0.9
  1
DESCRIPTION
 40
0.06
 41
1.056
  0
MTEXT
  5
24B
100
AcDbEntity
  8
0
100
AcDbMText
 62
2
  6
CONTINUOUS
  7
STANDARD
 71
2
 72
1
 10
5.45
 20
1.0375
 30
0.0
 11
1.0
 21
0.0
 31
0.0
 44
0.9
  1
ALL DIMENSIONS IN INCH\PVIEWS ARE THIRD ANGLE
 40
0.12
 41
4.224
  0
MTEXT
  5
24C
100
AcDbEntity
  8
0
100
AcDbMText
 62
2
  6
CONTINUOUS
  7
STANDARD
 71
2
 72
1
 10
2.05
 20
0.95
 30
0.0
 11
1.0
 21
0.0
 31
0.0
 44
0.9
  1
K4X
 40
0.125
 41
0.6
  0
MTEXT
  5
24D
100
AcDbEntity
  8
0
100
AcDbMText
 62
2
  6
CONTINUOUS
  7
STANDARD
 71
1
 72
1
 10
0.05
 20
1.1875
 30
0.0
 11
1.0
 21
0.0
 31
0.0
 44
0.9
  1
MODEL
 40
0.06
 41
0.48
  0
ENDBLK
  5
24E
100
AcDbEntity
  8
0
  6
BYBLOCK
 62
0
100
AcDbBlockEnd
  0
BLOCK
  5
24F
100
AcDbEntity
  8
0
100
AcDbBlockBegin
  2
*T2
 70
1
 10
0.0
 20
0.0
  3
*T2
  1

  0
LINE
  5
250
100
AcDbEntity
  8
0
100
AcDbLine
 62
2
  6
CONTINUOUS
 10
0.0
 20
0.0
 11
9.055
 21
0.0
  0
LINE
  5
251
100
AcDbEntity
  8
0
100
AcDbLine
 62
2
  6
CONTINUOUS
 10
0.0
 20
0.0
 11
0.0
 21
-2.594
  0
LINE
  5
252
100
AcDbEntity
  8
0
100
AcDbLine
 62
2
  6
CONTINUOUS
 10
0.0
 20
-0.344
 11
9.055
 21
-0.344
  0
LINE
  5
253
100
AcDbEntity
  8
0
100
AcDbLine
 62
2
  6
CONTINUOUS
 10
0.0
 20
-0.594
 11
9.055
 21
-0.594
  0
LINE
  5
254
100
AcDbEntity
  8
0
100
AcDbLine
 62
2
  6
CONTINUOUS
 10
0.0
 20
-0.844
 11
9.055
 21
-0.844
  0
LINE
  5
255
100
AcDbEntity
  8
0
100
AcDbLine
 62
2
  6
CONTINUOUS
 10
0.0
 20
-1.094
 11
9.055
 21
-1.094
  0
LINE
  5
256
100
AcDbEntity
  8
0
100
AcDbLine
 62
2
  6
CONTINUOUS
 10
0.0
 20
-1.344
 11
9.055
 21
-1.344
  0
LINE
  5
257
100
AcDbEntity
  8
0
100
AcDbLine
 62
2
  6
CONTINUOUS
 10
0.0
 20
-1.594
 11
9.055
 21
-1.594
  0
LINE
  5
258
100
AcDbEntity
  8
0
100
AcDbLine
 62
2
  6
CONTINUOUS
 10
0.0
 20
-1.844
 11
9.055
 21
-1.844
  0
LINE
  5
259
100
AcDbEntity
  8
0
100
AcDbLine
 62
2
  6
CONTINUOUS
 10
0.0
 20
-2.094
 11
9.055
 21
-2.094
  0
LINE
  5
25A
100
AcDbEntity
  8
0
100
AcDbLine
 62
2
  6
CONTINUOUS
 10
0.0
 20
-2.344
 11
9.055
 21
-2.344
  0
LINE
  5
25B
100
AcDbEntity
  8
0
100
AcDbLine
 62
2
  6
CONTINUOUS
 10
0.0
 20
-2.594
 11
9.055
 21
-2.594
  0
LINE
  5
25C
100
AcDbEntity
  8
0
100
AcDbLine
 62
2
  6
CONTINUOUS
 10
3.055
 20
0.0
 11
3.055
 21
-2.594
  0
LINE
  5
25D
100
AcDbEntity
  8
0
100
AcDbLine
 62
2
  6
CONTINUOUS
 10
9.055
 20
0.0
 11
9.055
 21
-2.594
  0
MTEXT
  5
25E
100
AcDbEntity
  8
0
100
AcDbMText
 62
2
  6
CONTINUOUS
  7
STANDARD
 71
2
 72
1
 10
1.5275
 20
-0.0995
 30
0.0
 11
1.0
 21
0.0
 31
0.0
 44
0.9
  1
Technical Data
 40
0.145
 41
3.248
  0
MTEXT
  5
25F
100
AcDbEntity
  8
0
100
AcDbMText
 62
2
  6
CONTINUOUS
  7
STANDARD
 71
2
 72
1
 10
4.555
 20
-0.0995
 30
0.0
 11
1.0
 21
0.0
 31
0.0
 44
0.9
  1
U.S. Units
 40
0.145
 41
2.32
  0
MTEXT
  5
260
100
AcDbEntity
  8
0
100
AcDbMText
 62
2
  6
CONTINUOUS
  7
STANDARD
 71
2
 72
1
 10
7.555
 20
-0.0995
 30
0.0
 11
1.0
 21
0.0
 31
0.0
 44
0.9
  1
Metric Units
 40
0.145
 41
2.784
  0
MTEXT
  5
261
100
AcDbEntity
  8
0
100
AcDbMText
 62
2
  6
CONTINUOUS
  7
STANDARD
 71
2
 72
1
 10
1.5275
 20
-0.4065
 30
0.0
 11
1.0
 21
0.0
 31
0.0
 44
0.9
  1
Cavity
 40
0.125
 41
1.2
  0
MTEXT
  5
262
100
AcDbEntity
  8
0
100
AcDbMText
 62
2
  6
CONTINUOUS
  7
STANDARD
 71
2
 72
1
 10
6.055
 20
-0.4065
 30
0.0
 11
1.0
 21
0.0
 31
0.0
 44
0.9
  1
T-19A
 40
0.125
 41
1.0
  0
MTEXT
  5
263
100
AcDbEntity
  8
0
100
AcDbMText
 62
2
  6
CONTINUOUS
  7
STANDARD
 71
2
 72
1
 10
1.5275
 20
-0.6565
 30
0.0
 11
1.0
 21
0.0
 31
0.0
 44
0.9
  1
Body Features
 40
0.125
 41
2.6
  0
MTEXT
  5
264
100
AcDbEntity
  8
0
100
AcDbMText
 62
2
  6
CONTINUOUS
  7
STANDARD
 71
2
 72
1
 10
6.055
 20
-0.6565
 30
0.0
 11
1.0
 21
0.0
 31
0.0
 44
0.9
  1
Ninety degree with reverse flow check - reducing
 40
0.125
 41
9.6
  0
MTEXT
  5
265
100
AcDbEntity
  8
0
100
AcDbMText
 62
2
  6
CONTINUOUS
  7
STANDARD
 71
2
 72
1
 10
1.5275
 20
-0.9065
 30
0.0
 11
1.0
 21
0.0
 31
0.0
 44
0.9
  1
Body Type
 40
0.125
 41
1.8
  0
MTEXT
  5
266
100
AcDbEntity
  8
0
100
AcDbMText
 62
2
  6
CONTINUOUS
  7
STANDARD
 71
2
 72
1
 10
6.055
 20
-0.9065
 30
0.0
 11
1.0
 21
0.0
 31
0.0
 44
0.9
  1
Line mount
 40
0.125
 41
2.0
  0
MTEXT
  5
267
100
AcDbEntity
  8
0
100
AcDbMText
 62
2
  6
CONTINUOUS
  7
STANDARD
 71
2
 72
1
 10
1.5275
 20
-1.1565
 30
0.0
 11
1.0
 21
0.0
 31
0.0
 44
0.9
  1
Interface
 40
0.125
 41
1.8
  0
MTEXT
  5
268
100
AcDbEntity
  8
0
100
AcDbMText
 62
2
  6
CONTINUOUS
  7
STANDARD
 71
2
 72
1
 10
6.055
 20
-1.1565
 30
0.0
 11
1.0
 21
0.0
 31
0.0
 44
0.9
  1
None
 40
0.125
 41
0.8
  0
MTEXT
  5
269
100
AcDbEntity
  8
0
100
AcDbMText
 62
2
  6
CONTINUOUS
  7
STANDARD
 71
2
 72
1
 10
1.5275
 20
-1.4065
 30
0.0
 11
1.0
 21
0.0
 31
0.0
 44
0.9
  1
Open Cavity Quantity
 40
0.125
 41
4.0
  0
MTEXT
  5
26A
100
AcDbEntity
  8
0
100
AcDbMText
 62
2
  6
CONTINUOUS
  7
STANDARD
 71
2
 72
1
 10
6.055
 20
-1.4065
 30
0.0
 11
1.0
 21
0.0
 31
0.0
 44
0.9
  1
1
 40
0.125
 41
0.2
  0
MTEXT
  5
26B
100
AcDbEntity
  8
0
100
AcDbMText
 62
2
  6
CONTINUOUS
  7
STANDARD
 71
2
 72
1
 10
1.5275
 20
-1.6565
 30
0.0
 11
1.0
 21
0.0
 31
0.0
 44
0.9
  1
Weight
 40
0.125
 41
1.2
  0
MTEXT
  5
26C
100
AcDbEntity
  8
0
100
AcDbMText
 62
2
  6
CONTINUOUS
  7
STANDARD
 71
2
 72
1
 10
4.555
 20
-1.6565
 30
0.0
 11
1.0
 21
0.0
 31
0.0
 44
0.9
  1
11.444 lb.
 40
0.125
 41
2.0
  0
MTEXT
  5
26D
100
AcDbEntity
  8
0
100
AcDbMText
 62
2
  6
CONTINUOUS
  7
STANDARD
 71
2
 72
1
 10
7.555
 20
-1.6565
 30
0.0
 11
1.0
 21
0.0
 31
0.0
 44
0.9
  1
5,191 kg.
 40
0.125
 41
1.8
  0
MTEXT
  5
26E
100
AcDbEntity
  8
0
100
AcDbMText
 62
2
  6
CONTINUOUS
  7
STANDARD
 71
2
 72
1
 10
1.5275
 20
-1.9065
 30
0.0
 11
1.0
 21
0.0
 31
0.0
 44
0.9
  1
Mounting Hole Diameter
 40
0.125
 41
4.4
  0
MTEXT
  5
26F
100
AcDbEntity
  8
0
100
AcDbMText
 62
2
  6
CONTINUOUS
  7
STANDARD
 71
2
 72
1
 10
4.555
 20
-1.9065
 30
0.0
 11
1.0
 21
0.0
 31
0.0
 44
0.9
  1
.41 in.
 40
0.125
 41
1.4
  0
MTEXT
  5
270
100
AcDbEntity
  8
0
100
AcDbMText
 62
2
  6
CONTINUOUS
  7
STANDARD
 71
2
 72
1
 10
7.555
 20
-1.9065
 30
0.0
 11
1.0
 21
0.0
 31
0.0
 44
0.9
  1
10,4 mm
 40
0.125
 41
1.4
  0
MTEXT
  5
271
100
AcDbEntity
  8
0
100
AcDbMText
 62
2
  6
CONTINUOUS
  7
STANDARD
 71
2
 72
1
 10
1.5275
 20
-2.1565
 30
0.0
 11
1.0
 21
0.0
 31
0.0
 44
0.9
  1
Mounting Hole Depth
 40
0.125
 41
3.8
  0
MTEXT
  5
272
100
AcDbEntity
  8
0
100
AcDbMText
 62
2
  6
CONTINUOUS
  7
STANDARD
 71
2
 72
1
 10
6.055
 20
-2.1565
 30
0.0
 11
1.0
 21
0.0
 31
0.0
 44
0.9
  1
Through
 40
0.125
 41
1.4
  0
MTEXT
  5
273
100
AcDbEntity
  8
0
100
AcDbMText
 62
2
  6
CONTINUOUS
  7
STANDARD
 71
2
 72
1
 10
1.5275
 20
-2.4065
 30
0.0
 11
1.0
 21
0.0
 31
0.0
 44
0.9
  1
Mounting Hole Quantity
 40
0.125
 41
4.4
  0
MTEXT
  5
274
100
AcDbEntity
  8
0
100
AcDbMText
 62
2
  6
CONTINUOUS
  7
STANDARD
 71
2
 72
1
 10
6.055
 20
-2.4065
 30
0.0
 11
1.0
 21
0.0
 31
0.0
 44
0.9
  1
2
 40
0.125
 41
0.2
  0
ENDBLK
  5
275
100
AcDbEntity
  8
0
  6
BYBLOCK
 62
0
100
AcDbBlockEnd
  0
BLOCK
  5
276
100
AcDbEntity
  8
0
100
AcDbBlockBegin
  2
*T3
 70
1
 10
0.0
 20
0.0
  3
*T3
  1

  0
LINE
  5
277
100
AcDbEntity
  8
0
100
AcDbLine
 62
2
  6
CONTINUOUS
 10
0.0
 20
0.0
 11
4.6
 21
0.0
  0
LINE
  5
278
100
AcDbEntity
  8
0
100
AcDbLine
 62
2
  6
CONTINUOUS
 10
0.0
 20
0.0
 11
0.0
 21
-1.43775
  0
LINE
  5
279
100
AcDbEntity
  8
0
100
AcDbLine
 62
2
  6
CONTINUOUS
 10
0.0
 20
-0.34375
 11
4.6
 21
-0.34375
  0
LINE
  5
27A
100
AcDbEntity
  8
0
100
AcDbLine
 62
2
  6
CONTINUOUS
 10
0.0
 20
-0.68775
 11
4.6
 21
-0.68775
  0
LINE
  5
27B
100
AcDbEntity
  8
0
100
AcDbLine
 62
2
  6
CONTINUOUS
 10
0.0
 20
-0.93775
 11
4.6
 21
-0.93775
  0
LINE
  5
27C
100
AcDbEntity
  8
0
100
AcDbLine
 62
2
  6
CONTINUOUS
 10
0.0
 20
-1.18775
 11
4.6
 21
-1.18775
  0
LINE
  5
27D
100
AcDbEntity
  8
0
100
AcDbLine
 62
2
  6
CONTINUOUS
 10
0.0
 20
-1.43775
 11
4.6
 21
-1.43775
  0
LINE
  5
27E
100
AcDbEntity
  8
0
100
AcDbLine
 62
2
  6
CONTINUOUS
 10
1.3
 20
-0.34375
 11
1.3
 21
-1.43775
  0
LINE
  5
27F
100
AcDbEntity
  8
0
100
AcDbLine
 62
2
  6
CONTINUOUS
 10
3.3
 20
-0.34375
 11
3.3
 21
-1.43775
  0
LINE
  5
280
100
AcDbEntity
  8
0
100
AcDbLine
 62
2
  6
CONTINUOUS
 10
4.6
 20
0.0
 11
4.6
 21
-1.43775
  0
MTEXT
  5
281
100
AcDbEntity
  8
0
100
AcDbMText
 62
2
  6
CONTINUOUS
  7
STANDARD
 71
2
 72
1
 10
2.3
 20
-0.099375
 30
0.0
 11
1.0
 21
0.0
 31
0.0
 44
0.9
  1
Port Headings
 40
0.145
 41
3.016
  0
MTEXT
  5
282
100
AcDbEntity
  8
0
100
AcDbMText
 62
2
  6
CONTINUOUS
  7
STANDARD
 71
2
 72
1
 10
0.65
 20
-0.44325
 30
0.0
 11
1.0
 21
0.0
 31
0.0
 44
0.9
  1
Product
 40
0.145
 41
1.624
  0
MTEXT
  5
283
100
AcDbEntity
  8
0
100
AcDbMText
 62
2
  6
CONTINUOUS
  7
STANDARD
 71
2
 72
1
 10
2.3
 20
-0.44325
 30
0.0
 11
1.0
 21
0.0
 31
0.0
 44
0.9
  1
Port
 40
0.145
 41
0.928
  0
MTEXT
  5
284
100
AcDbEntity
  8
0
100
AcDbMText
 62
2
  6
CONTINUOUS
  7
STANDARD
 71
2
 72
1
 10
3.95
 20
-0.44325
 30
0.0
 11
1.0
 21
0.0
 31
0.0
 44
0.9
  1
Size
 40
0.145
 41
0.928
  0
MTEXT
  5
285
100
AcDbEntity
  8
0
100
AcDbMText
 62
2
  6
CONTINUOUS
  7
STANDARD
 71
2
 72
1
 10
0.65
 20
-0.75025
 30
0.0
 11
1.0
 21
0.0
 31
0.0
 44
0.9
  1
K4X
 40
0.125
 41
0.6
  0
MTEXT
  5
286
100
AcDbEntity
  8
0
100
AcDbMText
 62
2
  6
CONTINUOUS
  7
STANDARD
 71
2
 72
1
 10
2.3
 20
-0.75025
 30
0.0
 11
1.0
 21
0.0
 31
0.0
 44
0.9
  1
Ports 1 &  2
 40
0.125
 41
2.4
  0
MTEXT
  5
287
100
AcDbEntity
  8
0
100
AcDbMText
 62
2
  6
CONTINUOUS
  7
STANDARD
 71
2
 72
1
 10
3.95
 20
-0.75025
 30
0.0
 11
1.0
 21
0.0
 31
0.0
 44
0.9
  1
1" BSPP
 40
0.125
 41
1.4
  0
MTEXT
  5
288
100
AcDbEntity
  8
0
100
AcDbMText
 62
2
  6
CONTINUOUS
  7
STANDARD
 71
2
 72
1
 10
0.65
 20
-1.00025
 30
0.0
 11
1.0
 21
0.0
 31
0.0
 44
0.9
  1
K4X
 40
0.125
 41
0.6
  0
MTEXT
  5
289
100
AcDbEntity
  8
0
100
AcDbMText
 62
2
  6
CONTINUOUS
  7
STANDARD
 71
2
 72
1
 10
2.3
 20
-1.00025
 30
0.0
 11
1.0
 21
0.0
 31
0.0
 44
0.9
  1
Port 3
 40
0.125
 41
1.2
  0
MTEXT
  5
28A
100
AcDbEntity
  8
0
100
AcDbMText
 62
2
  6
CONTINUOUS
  7
STANDARD
 71
2
 72
1
 10
3.95
 20
-1.00025
 30
0.0
 11
1.0
 21
0.0
 31
0.0
 44
0.9
  1
3/4" BSPP
 40
0.125
 41
1.8
  0
MTEXT
  5
28B
100
AcDbEntity
  8
0
100
AcDbMText
 62
2
  6
CONTINUOUS
  7
STANDARD
 71
2
 72
1
 10
0.65
 20
-1.25025
 30
0.0
 11
1.0
 21
0.0
 31
0.0
 44
0.9
  1
K4X
 40
0.125
 41
0.6
  0
MTEXT
  5
28C
100
AcDbEntity
  8
0
100
AcDbMText
 62
2
  6
CONTINUOUS
  7
STANDARD
 71
2
 72
1
 10
2.3
 20
-1.25025
 30
0.0
 11
1.0
 21
0.0
 31
0.0
 44
0.9
  1
Gage Port
 40
0.125
 41
1.8
  0
MTEXT
  5
28D
100
AcDbEntity
  8
0
100
AcDbMText
 62
2
  6
CONTINUOUS
  7
STANDARD
 71
2
 72
1
 10
3.95
 20
-1.25025
 30
0.0
 11
1.0
 21
0.0
 31
0.0
 44
0.9
  1
1/4" BSPP
 40
0.125
 41
1.8
  0
ENDBLK
  5
28E
100
AcDbEntity
  8
0
  6
BYBLOCK
 62
0
100
AcDbBlockEnd
  0
ENDSEC
  0
SECTION
  2
ENTITIES
  0
IMAGE
  5
28F
100
AcDbEntity
  8
0
100
AcDbRasterImage
 62
7
  6
CONTINUOUS
 10
19.2297077316
 20
0.3094318264
 30
0.0
 11
0.0066666667
 21
0.0
 31
0.0
 12
0.0
 22
0.0066666667
 32
0.0
 13
369.0
 23
92.0
340
       396
 70
9
280
0
281
50
282
50
283
0
360
       390
 71
1
 91
2
 14
-0.5
 24
-0.5
 14
368.5
 24
91.5
  0
INSERT
  5
290
100
AcDbEntity
  8
0
100
AcDbBlockReference
 62
2
  6
CONTINUOUS
  2
SUN_FIRST_THIRD_ANGLE_BL0
 10
20.4816717061
 20
1.2289683772
  0
ACAD_TABLE
  5
291
100
AcDbEntity
  8
0
 62
2
  6
CONTINUOUS
100
AcDbBlockReference
  2
*T1
 10
12.42375
 20
0.30125
 30
0.0
100
AcDbTable
342
       398
343
20F
 11
1.0
 21
0.0
 31
0.0
 90
6
 91
4
 92
6
 93
20
 94
0
 95
0
 96
0
 70
1
 41
0.0
141
0.525
141
0.1
141
0.525
141
0.1
142
4.1
142
1.1
142
0.7
142
0.5
142
0.4
142
2.475
171
1
172
0
173
0
174
0
175
1
176
1
 91
33
178
0
145
0.0
301
CELL_VALUE
 90
4
  1
T-19A Line mount\P(See Technical Data for Body Features)
304
ACVALUE_END
170
2
140
0.125
171
1
172
0
173
0
174
0
175
1
176
1
 91
33
178
0
145
0.0
301
CELL_VALUE
 90
4
  1
Dec-21-20
304
ACVALUE_END
170
5
140
0.125
171
1
172
0
173
0
174
0
175
1
176
1
 91
33
178
0
145
0.0
301
CELL_VALUE
 90
4
  1
0.900
304
ACVALUE_END
170
5
140
0.125
171
1
172
0
173
0
174
0
175
1
176
1
 91
33
178
0
145
0.0
301
CELL_VALUE
 90
4
  1
C
304
ACVALUE_END
170
5
140
0.125
171
1
172
0
173
0
174
0
175
1
176
1
 91
33
178
0
145
0.0
301
CELL_VALUE
 90
4
  1
2
304
ACVALUE_END
170
5
140
0.125
171
1
172
0
173
0
174
0
175
1
176
1
 91
33
178
0
145
0.0
301
CELL_VALUE
 90
4
  1
 
304
ACVALUE_END
170
1
140
0.125
171
1
172
0
173
0
174
0
175
1
176
1
 91
33
178
0
145
0.0
301
CELL_VALUE
 90
4
  1
DESCRIPTION
304
ACVALUE_END
170
1
140
0.06
171
1
172
0
173
0
174
0
175
1
176
1
 91
33
178
0
145
0.0
301
CELL_VALUE
 90
4
  1
DATE
304
ACVALUE_END
170
1
140
0.06
171
1
172
0
173
0
174
0
175
1
176
1
 91
33
178
0
145
0.0
301
CELL_VALUE
 90
4
  1
SCALE
304
ACVALUE_END
170
1
140
0.06
171
1
172
0
173
0
174
0
175
1
176
1
 91
33
178
0
145
0.0
301
CELL_VALUE
 90
4
  1
DWG SIZE
304
ACVALUE_END
170
1
140
0.06
171
1
172
0
173
0
174
0
175
1
176
1
 91
33
178
0
145
0.0
301
CELL_VALUE
 90
4
  1
SHEET
304
ACVALUE_END
170
1
140
0.06
171
1
172
0
173
0
174
0
175
1
176
1
 91
33
178
0
145
0.0
301
CELL_VALUE
 90
4
  1
 
304
ACVALUE_END
170
1
140
0.125
171
1
172
0
173
0
174
0
175
1
176
1
 91
33
178
0
145
0.0
301
CELL_VALUE
 90
4
  1
K4X
304
ACVALUE_END
170
5
140
0.125
171
1
172
0
173
0
174
0
175
4
176
1
 91
33
178
0
145
0.0
301
CELL_VALUE
 90
4
  1
ALL DIMENSIONS IN INCH\PVIEWS ARE THIRD ANGLE
304
ACVALUE_END
170
5
140
0.12
171
1
172
0
173
1
174
0
175
1
176
1
 91
1
178
0
145
0.0
170
1
171
1
172
0
173
1
174
0
175
1
176
1
 91
1
178
0
145
0.0
170
1
171
1
172
0
173
1
174
0
175
1
176
1
 91
1
178
0
145
0.0
170
5
171
1
172
0
173
0
174
0
175
1
176
1
 91
33
178
0
145
0.0
301
CELL_VALUE
 90
4
  1
 
304
ACVALUE_END
170
1
140
0.125
171
1
172
0
173
0
174
0
175
1
176
1
 91
33
178
0
145
0.0
301
CELL_VALUE
 90
4
  1
MODEL
304
ACVALUE_END
170
1
140
0.06
171
1
172
0
173
0
174
0
175
1
176
1
 91
33
178
0
145
0.0
301
CELL_VALUE
 90
4
  1
 
304
ACVALUE_END
170
1
140
0.125
171
1
172
0
173
0
174
0
175
1
176
1
 91
33
178
0
145
0.0
301
CELL_VALUE
 90
4
  1
 
304
ACVALUE_END
170
1
140
0.125
171
1
172
0
173
0
174
0
175
1
176
1
 91
33
178
0
145
0.0
301
CELL_VALUE
 90
4
  1
 
304
ACVALUE_END
170
1
140
0.125
171
1
172
0
173
0
174
0
175
1
176
1
 91
33
178
0
145
0.0
301
CELL_VALUE
 90
4
  1
 
304
ACVALUE_END
170
1
140
0.125
171
1
172
0
173
0
174
0
175
1
176
1
 91
33
178
0
145
0.0
301
CELL_VALUE
 90
4
  1
 
304
ACVALUE_END
170
1
140
0.125
  0
ACAD_TABLE
  5
292
100
AcDbEntity
  8
0
 62
2
  6
CONTINUOUS
100
AcDbBlockReference
  2
*T2
 10
12.4237499994
 20
16.47875
 30
0.0
100
AcDbTable
342
       397
343
210
 11
1.0
 21
0.0
 31
0.0
 90
22
 91
10
 92
3
 93
16
 94
0
 95
0
 96
0
 41
0.028
141
0.344
141
0.25
141
0.25
141
0.25
141
0.25
141
0.25
141
0.25
141
0.25
141
0.25
141
0.25
142
3.055
142
3.0
142
3.0
171
1
172
0
173
0
174
0
175
1
176
1
 91
33
178
0
145
0.0
301
CELL_VALUE
 90
4
  1
Technical Data
304
ACVALUE_END
170
5
140
0.145
171
1
172
0
173
0
174
0
175
1
176
1
 91
33
178
0
145
0.0
301
CELL_VALUE
 90
4
  1
U.S. Units
304
ACVALUE_END
170
5
140
0.145
171
1
172
0
173
0
174
0
175
1
176
1
 91
33
178
0
145
0.0
301
CELL_VALUE
 90
4
  1
Metric Units
304
ACVALUE_END
170
5
140
0.145
171
1
172
0
173
0
174
0
175
1
176
1
 91
33
178
0
145
0.0
301
CELL_VALUE
 90
4
  1
Cavity
304
ACVALUE_END
170
5
140
0.125
171
1
172
0
173
0
174
0
175
2
176
1
 91
33
178
0
145
0.0
301
CELL_VALUE
 90
4
  1
T-19A
304
ACVALUE_END
170
5
140
0.125
171
1
172
0
173
1
174
0
175
1
176
1
 91
1
178
0
145
0.0
170
1
171
1
172
0
173
0
174
0
175
1
176
1
 91
33
178
0
145
0.0
301
CELL_VALUE
 90
4
  1
Body Features
304
ACVALUE_END
170
5
140
0.125
171
1
172
0
173
0
174
0
175
2
176
1
 91
33
178
0
145
0.0
301
CELL_VALUE
 90
4
  1
Ninety degree with reverse flow check - reducing
304
ACVALUE_END
170
5
140
0.125
171
1
172
0
173
1
174
0
175
1
176
1
 91
1
178
0
145
0.0
170
1
171
1
172
0
173
0
174
0
175
1
176
1
 91
33
178
0
145
0.0
301
CELL_VALUE
 90
4
  1
Body Type
304
ACVALUE_END
170
5
140
0.125
171
1
172
0
173
0
174
0
175
2
176
1
 91
33
178
0
145
0.0
301
CELL_VALUE
 90
4
  1
Line mount
304
ACVALUE_END
170
5
140
0.125
171
1
172
0
173
1
174
0
175
1
176
1
 91
1
178
0
145
0.0
170
1
171
1
172
0
173
0
174
0
175
1
176
1
 91
33
178
0
145
0.0
301
CELL_VALUE
 90
4
  1
Interface
304
ACVALUE_END
170
5
140
0.125
171
1
172
0
173
0
174
0
175
2
176
1
 91
33
178
0
145
0.0
301
CELL_VALUE
 90
4
  1
None
304
ACVALUE_END
170
5
140
0.125
171
1
172
0
173
1
174
0
175
1
176
1
 91
1
178
0
145
0.0
170
1
171
1
172
0
173
0
174
0
175
1
176
1
 91
33
178
0
145
0.0
301
CELL_VALUE
 90
4
  1
Open Cavity Quantity
304
ACVALUE_END
170
5
140
0.125
171
1
172
0
173
0
174
0
175
2
176
1
 91
33
178
0
145
0.0
301
CELL_VALUE
 90
4
  1
1
304
ACVALUE_END
170
5
140
0.125
171
1
172
0
173
1
174
0
175
1
176
1
 91
1
178
0
145
0.0
170
1
171
1
172
0
173
0
174
0
175
1
176
1
 91
33
178
0
145
0.0
301
CELL_VALUE
 90
4
  1
Weight
304
ACVALUE_END
170
5
140
0.125
171
1
172
0
173
0
174
0
175
1
176
1
 91
33
178
0
145
0.0
301
CELL_VALUE
 90
4
  1
11.444 lb.
304
ACVALUE_END
170
5
140
0.125
171
1
172
0
173
0
174
0
175
1
176
1
 91
33
178
0
145
0.0
301
CELL_VALUE
 90
4
  1
5,191 kg.
304
ACVALUE_END
170
5
140
0.125
171
1
172
0
173
0
174
0
175
1
176
1
 91
33
178
0
145
0.0
301
CELL_VALUE
 90
4
  1
Mounting Hole Diameter
304
ACVALUE_END
170
5
140
0.125
171
1
172
0
173
0
174
0
175
1
176
1
 91
33
178
0
145
0.0
301
CELL_VALUE
 90
4
  1
.41 in.
304
ACVALUE_END
170
5
140
0.125
171
1
172
0
173
0
174
0
175
1
176
1
 91
33
178
0
145
0.0
301
CELL_VALUE
 90
4
  1
10,4 mm
304
ACVALUE_END
170
5
140
0.125
171
1
172
0
173
0
174
0
175
1
176
1
 91
33
178
0
145
0.0
301
CELL_VALUE
 90
4
  1
Mounting Hole Depth
304
ACVALUE_END
170
5
140
0.125
171
1
172
0
173
0
174
0
175
2
176
1
 91
33
178
0
145
0.0
301
CELL_VALUE
 90
4
  1
Through
304
ACVALUE_END
170
5
140
0.125
171
1
172
0
173
1
174
0
175
1
176
1
 91
1
178
0
145
0.0
170
1
171
1
172
0
173
0
174
0
175
1
176
1
 91
33
178
0
145
0.0
301
CELL_VALUE
 90
4
  1
Mounting Hole Quantity
304
ACVALUE_END
170
5
140
0.125
171
1
172
0
173
0
174
0
175
2
176
1
 91
33
178
0
145
0.0
301
CELL_VALUE
 90
4
  1
2
304
ACVALUE_END
170
5
140
0.125
171
1
172
0
173
1
174
0
175
1
176
1
 91
1
178
0
145
0.0
170
1
  0
ACAD_TABLE
  5
293
100
AcDbEntity
  8
0
 62
2
  6
CONTINUOUS
100
AcDbBlockReference
  2
*T3
 10
0.52125
 20
1.959
 30
0.0
100
AcDbTable
342
       397
343
211
 11
1.0
 21
0.0
 31
0.0
 90
22
 91
5
 92
3
 93
16
 94
0
 95
0
 96
0
 41
0.05
141
0.34375
141
0.344
141
0.25
141
0.25
141
0.25
142
1.3
142
2.0
142
1.3
171
1
172
0
173
0
174
0
175
3
176
1
 91
33
178
0
145
0.0
301
CELL_VALUE
 90
4
  1
Port Headings
304
ACVALUE_END
170
5
140
0.145
171
1
172
0
173
1
174
0
175
1
176
1
 91
1
178
0
145
0.0
170
1
171
1
172
0
173
1
174
0
175
1
176
1
 91
1
178
0
145
0.0
170
1
171
1
172
0
173
0
174
0
175
1
176
1
 91
33
178
0
145
0.0
301
CELL_VALUE
 90
4
  1
Product
304
ACVALUE_END
170
5
140
0.145
171
1
172
0
173
0
174
0
175
1
176
1
 91
33
178
0
145
0.0
301
CELL_VALUE
 90
4
  1
Port
304
ACVALUE_END
170
5
140
0.145
171
1
172
0
173
0
174
0
175
1
176
1
 91
33
178
0
145
0.0
301
CELL_VALUE
 90
4
  1
Size
304
ACVALUE_END
170
5
140
0.145
171
1
172
0
173
0
174
0
175
1
176
1
 91
33
178
0
145
0.0
301
CELL_VALUE
 90
4
  1
K4X
304
ACVALUE_END
170
5
140
0.125
171
1
172
0
173
0
174
0
175
1
176
1
 91
33
178
0
145
0.0
301
CELL_VALUE
 90
4
  1
Ports 1 &  2
304
ACVALUE_END
170
5
140
0.125
171
1
172
0
173
0
174
0
175
1
176
1
 91
33
178
0
145
0.0
301
CELL_VALUE
 90
4
  1
1" BSPP
304
ACVALUE_END
170
5
140
0.125
171
1
172
0
173
0
174
0
175
1
176
1
 91
33
178
0
145
0.0
301
CELL_VALUE
 90
4
  1
K4X
304
ACVALUE_END
170
5
140
0.125
171
1
172
0
173
0
174
0
175
1
176
1
 91
33
178
0
145
0.0
301
CELL_VALUE
 90
4
  1
Port 3
304
ACVALUE_END
170
5
140
0.125
171
1
172
0
173
0
174
0
175
1
176
1
 91
33
178
0
145
0.0
301
CELL_VALUE
 90
4
  1
3/4" BSPP
304
ACVALUE_END
170
5
140
0.125
171
1
172
0
173
0
174
0
175
1
176
1
 91
33
178
0
145
0.0
301
CELL_VALUE
 90
4
  1
K4X
304
ACVALUE_END
170
5
140
0.125
171
1
172
0
173
0
174
0
175
1
176
1
 91
33
178
0
145
0.0
301
CELL_VALUE
 90
4
  1
Gage Port
304
ACVALUE_END
170
5
140
0.125
171
1
172
0
173
0
174
0
175
1
176
1
 91
33
178
0
145
0.0
301
CELL_VALUE
 90
4
  1
1/4" BSPP
304
ACVALUE_END
170
5
140
0.125
  0
MTEXT
  5
294
100
AcDbEntity
  8
0
100
AcDbMText
 62
2
  6
CONTINUOUS
  7
STANDARD
 71
1
 72
1
 10
0.52125
 20
5.75995
 30
0.0
 11
1.0
 21
0.0
 31
0.0
 44
0.6
  3
Notes\P \P1. Important: Carefully consider\P   the maximum system pressure. The\P   pressure rating of the manifold is\P   dependent on the manifold material,\P   with the port type/size a secondary\P   consideration. Manifolds\P   constructed of alu
  1
minum are not\P   rated for pressures higher than\P   3000 psi (210 bar), regardless of\P   the port type/size specified.
 40
0.1
 41
3.04
  0
LINE
  5
295
100
AcDbEntity
  8
0
100
AcDbLine
 62
7
  6
CONTINUOUS
 10
0.30125
 20
0.30125
 11
0.30125
 21
16.69875
  0
LINE
  5
296
100
AcDbEntity
  8
0
100
AcDbLine
 62
7
  6
CONTINUOUS
 10
0.30125
 20
0.30125
 11
21.69875
 21
0.30125
  0
LINE
  5
297
100
AcDbEntity
  8
0
100
AcDbLine
 62
7
  6
CONTINUOUS
 10
0.30125
 20
16.69875
 11
21.69875
 21
16.69875
  0
LINE
  5
298
100
AcDbEntity
  8
0
100
AcDbLine
 62
7
  6
CONTINUOUS
 10
21.69875
 20
0.30125
 11
21.69875
 21
16.69875
  0
LINE
  5
299
100
AcDbEntity
  8
0
100
AcDbLine
 62
7
  6
CONTINUOUS
 10
8.741405537
 20
12.4299897698
 11
8.042594692
 21
11.7549902868
  0
LINE
  5
29A
100
AcDbEntity
  8
0
100
AcDbLine
 62
4
  6
CONTINUOUS
 10
8.2512347494
 20
11.1537208935
 11
8.243628083
 21
11.1441061982
  0
LINE
  5
29B
100
AcDbEntity
  8
0
100
AcDbLine
 62
4
  6
CONTINUOUS
 10
8.2588414157
 20
11.0923400384
 11
8.243628083
 21
11.0731106433
  0
LINE
  5
29C
100
AcDbEntity
  8
0
100
AcDbLine
 62
4
  6
CONTINUOUS
 10
8.1979880848
 20
11.1776980083
 11
8.2132014176
 21
11.1867851795
  0
LINE
  5
29D
100
AcDbEntity
  8
0
100
AcDbLine
 62
4
  6
CONTINUOUS
 10
8.243628083
 20
11.1441061982
 11
8.2284147503
 21
11.1350190197
  0
LINE
  5
29E
100
AcDbEntity
  8
0
100
AcDbLine
 62
4
  6
CONTINUOUS
 10
8.243628083
 20
11.0731106433
 11
8.2284147503
 21
11.0640234694
  0
LINE
  5
29F
100
AcDbEntity
  8
0
100
AcDbLine
 62
7
  6
CONTINUOUS
 10
8.042594692
 20
5.6696572207
 11
8.042594692
 21
11.7549902868
  0
LINE
  5
2A0
100
AcDbEntity
  8
0
100
AcDbLine
 62
7
  6
CONTINUOUS
 10
8.042594692
 20
5.6696572207
 11
13.258594463
 21
5.3079264079
  0
LINE
  5
2A1
100
AcDbEntity
  8
0
100
AcDbLine
 62
7
  6
CONTINUOUS
 10
11.6397042185
 20
4.6809670458
 11
11.6606563448
 21
4.6706170966
  0
LINE
  5
2A2
100
AcDbEntity
  8
0
100
AcDbLine
 62
4
  6
CONTINUOUS
 10
8.2512347494
 20
11.1638631129
 11
8.2512347494
 21
11.1537208935
  0
LINE
  5
2A3
100
AcDbEntity
  8
0
100
AcDbLine
 62
4
  6
CONTINUOUS
 10
8.2512347494
 20
7.4112412361
 11
8.2512347494
 21
7.2895345743
  0
LINE
  5
2A4
100
AcDbEntity
  8
0
100
AcDbLine
 62
4
  6
CONTINUOUS
 10
8.2588414157
 20
11.1024822615
 11
8.2588414157
 21
11.0923400384
  0
LINE
  5
2A5
100
AcDbEntity
  8
0
100
AcDbLine
 62
4
  6
CONTINUOUS
 10
9.6465146464
 20
9.5138914883
 11
9.6639013132
 21
9.5300723838
  0
LINE
  5
2A6
100
AcDbEntity
  8
0
100
AcDbLine
 62
4
  6
CONTINUOUS
 10
9.6465146464
 20
9.4965048233
 11
9.6465146464
 21
9.5138914883
  0
LINE
  5
2A7
100
AcDbEntity
  8
0
100
AcDbLine
 62
4
  6
CONTINUOUS
 10
9.7073679773
 20
9.4227379653
 11
9.7073679773
 21
9.440124632
  0
LINE
  5
2A8
100
AcDbEntity
  8
0
100
AcDbLine
 62
4
  6
CONTINUOUS
 10
9.6899813124
 20
9.4065570678
 11
9.7073679773
 21
9.4227379653
  0
LINE
  5
2A9
100
AcDbEntity
  8
0
100
AcDbLine
 62
4
  6
CONTINUOUS
 10
9.7856079805
 20
9.3999253359
 11
9.8029946381
 21
9.4161062338
  0
LINE
  5
2AA
100
AcDbEntity
  8
0
100
AcDbLine
 62
4
  6
CONTINUOUS
 10
9.7421413072
 20
9.5246464217
 11
9.7421413072
 21
9.4203264267
  0
LINE
  5
2AB
100
AcDbEntity
  8
0
100
AcDbLine
 62
4
  6
CONTINUOUS
 10
9.779812361
 20
8.7796232881
 11
9.779812361
 21
8.9013299499
  0
LINE
  5
2AC
100
AcDbEntity
  8
0
100
AcDbLine
 62
4
  6
CONTINUOUS
 10
9.8029946381
 20
9.4161062338
 11
9.8029946381
 21
9.5204262289
  0
LINE
  5
2AD
100
AcDbEntity
  8
0
100
AcDbLine
 62
4
  6
CONTINUOUS
 10
9.837767968
 20
9.3963080285
 11
9.837767968
 21
9.5180146903
  0
LINE
  5
2AE
100
AcDbEntity
  8
0
100
AcDbLine
 62
4
  6
CONTINUOUS
 10
9.8406656846
 20
8.8797230926
 11
9.8406656846
 21
8.7927897625
  0
LINE
  5
2AF
100
AcDbEntity
  8
0
100
AcDbLine
 62
4
  6
CONTINUOUS
 10
9.8986212989
 20
9.3920878356
 11
9.8986212989
 21
9.5137944975
  0
LINE
  5
2B0
100
AcDbEntity
  8
0
100
AcDbLine
 62
4
  6
CONTINUOUS
 10
10.0290212396
 20
8.7623405936
 11
10.0290212396
 21
8.8840472555
  0
LINE
  5
2B1
100
AcDbEntity
  8
0
100
AcDbLine
 62
4
  6
CONTINUOUS
 10
10.0290212896
 20
9.3830445656
 11
10.0290212896
 21
9.5047512274
  0
LINE
  5
2B2
100
AcDbEntity
  8
0
100
AcDbLine
 62
4
  6
CONTINUOUS
 10
9.8899279056
 20
8.7719867491
 11
9.9247012355
 21
8.8912818723
  0
LINE
  5
2B3
100
AcDbEntity
  8
0
100
AcDbLine
 62
4
  6
CONTINUOUS
 10
10.1333412938
 20
9.346832172
 11
10.1681146092
 21
9.460331743
  0
LINE
  5
2B4
100
AcDbEntity
  8
0
100
AcDbLine
 62
4
  6
CONTINUOUS
 10
10.08552806
 20
9.0667453769
 11
10.1463813909
 21
9.1436629574
  0
LINE
  5
2B5
100
AcDbEntity
  8
0
100
AcDbLine
 62
4
  6
CONTINUOUS
 10
9.8406656846
 20
8.7927897625
 11
9.8232790197
 21
8.776608865
  0
LINE
  5
2B6
100
AcDbEntity
  8
0
100
AcDbLine
 62
4
  6
CONTINUOUS
 10
10.1912968581
 20
9.4500307125
 11
10.2086835158
 21
9.4575182798
  0
LINE
  5
2B7
100
AcDbEntity
  8
0
100
AcDbLine
 62
4
  6
CONTINUOUS
 10
10.3564701932
 20
9.3951092405
 11
10.3738568509
 21
9.4025968041
  0
LINE
  5
2B8
100
AcDbEntity
  8
0
100
AcDbLine
 62
4
  6
CONTINUOUS
 10
10.2304892314
 20
7.5330408652
 11
10.2152758986
 21
7.5340959134
  0
LINE
  5
2B9
100
AcDbEntity
  8
0
100
AcDbLine
 62
4
  6
CONTINUOUS
 10
10.222882565
 20
7.5944217202
 11
10.2533092305
 21
7.5923116238
  0
LINE
  5
2BA
100
AcDbEntity
  8
0
100
AcDbLine
 62
4
  6
CONTINUOUS
 10
10.2152758986
 20
7.5340959134
 11
10.2000625659
 21
7.5452931837
  0
LINE
  5
2BB
100
AcDbEntity
  8
0
100
AcDbLine
 62
4
  6
CONTINUOUS
 10
10.2304892314
 20
7.654747527
 11
10.2457025641
 21
7.6435502594
  0
LINE
  5
2BC
100
AcDbEntity
  8
0
100
AcDbLine
 62
4
  6
CONTINUOUS
 10
10.2000625659
 20
7.5452931837
 11
10.1848492332
 21
7.5666326753
  0
LINE
  5
2BD
100
AcDbEntity
  8
0
100
AcDbLine
 62
4
  6
CONTINUOUS
 10
10.2457025641
 20
7.6435502594
 11
10.2533092305
 21
7.6328805087
  0
LINE
  5
2BE
100
AcDbEntity
  8
0
100
AcDbLine
 62
4
  6
CONTINUOUS
 10
10.1848492332
 20
7.5666326753
 11
10.1772425668
 21
7.5975868648
  0
LINE
  5
2BF
100
AcDbEntity
  8
0
100
AcDbLine
 62
4
  6
CONTINUOUS
 10
10.0811812917
 20
9.457667253
 11
10.0811812917
 21
9.3794272571
  0
LINE
  5
2C0
100
AcDbEntity
  8
0
100
AcDbLine
 62
4
  6
CONTINUOUS
 10
10.08552806
 20
9.0261764884
 11
10.08552806
 21
9.1478831502
  0
LINE
  5
2C1
100
AcDbEntity
  8
0
100
AcDbLine
 62
4
  6
CONTINUOUS
 10
10.0985678994
 20
8.7575175164
 11
10.0985678994
 21
8.8792241782
  0
LINE
  5
2C2
100
AcDbEntity
  8
0
100
AcDbLine
 62
4
  6
CONTINUOUS
 10
10.1912968581
 20
9.38048405
 11
10.1912968581
 21
9.4500307125
  0
LINE
  5
2C3
100
AcDbEntity
  8
0
100
AcDbLine
 62
4
  6
CONTINUOUS
 10
10.2217236129
 20
9.0167312947
 11
10.2217236129
 21
9.0775846256
  0
LINE
  5
2C4
100
AcDbEntity
  8
0
100
AcDbLine
 62
4
  6
CONTINUOUS
 10
10.2434568312
 20
9.4898800721
 11
10.2434568312
 21
9.3681734102
  0
LINE
  5
2C5
100
AcDbEntity
  8
0
100
AcDbLine
 62
4
  6
CONTINUOUS
 10
10.2533092305
 20
7.5923116238
 11
10.2533092305
 21
7.5517427371
  0
LINE
  5
2C6
100
AcDbEntity
  8
0
100
AcDbLine
 62
4
  6
CONTINUOUS
 10
10.2782302046
 20
9.3657618686
 11
10.2782302046
 21
9.4526952006
  0
LINE
  5
2C7
100
AcDbEntity
  8
0
100
AcDbLine
 62
4
  6
CONTINUOUS
 10
10.2811279212
 20
8.7622436026
 11
10.2811279212
 21
8.8491769328
  0
LINE
  5
2C8
100
AcDbEntity
  8
0
100
AcDbLine
 62
4
  6
CONTINUOUS
 10
10.3187990532
 20
9.4411884053
 11
10.3187990532
 21
9.4238017403
  0
LINE
  5
2C9
100
AcDbEntity
  8
0
100
AcDbLine
 62
4
  6
CONTINUOUS
 10
10.3564701932
 20
9.3690292403
 11
10.3564701932
 21
9.3951092405
  0
LINE
  5
2CA
100
AcDbEntity
  8
0
100
AcDbLine
 62
4
  6
CONTINUOUS
 10
10.3825501007
 20
8.7552099506
 11
10.3825501007
 21
8.8421432807
  0
LINE
  5
2CB
100
AcDbEntity
  8
0
100
AcDbLine
 62
4
  6
CONTINUOUS
 10
10.1811547208
 20
9.0456247562
 11
10.2072347218
 21
9.1394427646
  0
LINE
  5
2CC
100
AcDbEntity
  8
0
100
AcDbLine
 62
4
  6
CONTINUOUS
 10
10.6114745833
 20
9.4643579543
 11
10.6085768167
 21
9.455865579
  0
LINE
  5
2CD
100
AcDbEntity
  8
0
100
AcDbLine
 62
4
  6
CONTINUOUS
 10
10.2767813816
 20
9.0129130255
 11
10.3463280413
 21
9.1297966101
  0
LINE
  5
2CE
100
AcDbEntity
  8
0
100
AcDbLine
 62
4
  6
CONTINUOUS
 10
10.6549412565
 20
9.4178768643
 11
10.6636345564
 21
9.425967318
  0
LINE
  5
2CF
100
AcDbEntity
  8
0
100
AcDbLine
 62
4
  6
CONTINUOUS
 10
10.7331813032
 20
9.4124508986
 11
10.741874603
 21
9.4205413523
  0
LINE
  5
2D0
100
AcDbEntity
  8
0
100
AcDbLine
 62
4
  6
CONTINUOUS
 10
10.7766479184
 20
9.3311964827
 11
10.7853412182
 21
9.3392869337
  0
LINE
  5
2D1
100
AcDbEntity
  8
0
100
AcDbLine
 62
4
  6
CONTINUOUS
 10
10.2811279212
 20
8.8491769328
 11
10.2985145788
 21
8.8653578289
  0
LINE
  5
2D2
100
AcDbEntity
  8
0
100
AcDbLine
 62
4
  6
CONTINUOUS
 10
10.3825501007
 20
8.8421432807
 11
10.3999367584
 21
8.8583241769
  0
LINE
  5
2D3
100
AcDbEntity
  8
0
100
AcDbLine
 62
4
  6
CONTINUOUS
 10
9.7566301374
 20
8.8565732027
 11
9.7102656939
 21
8.8366063643
  0
LINE
  5
2D4
100
AcDbEntity
  8
0
100
AcDbLine
 62
4
  6
CONTINUOUS
 10
10.2152758986
 20
7.6558025752
 11
10.2304892314
 21
7.654747527
  0
LINE
  5
2D5
100
AcDbEntity
  8
0
100
AcDbLine
 62
4
  6
CONTINUOUS
 10
8.1979880848
 20
11.0762757879
 11
8.1903814185
 21
11.0869455342
  0
LINE
  5
2D6
100
AcDbEntity
  8
0
100
AcDbLine
 62
4
  6
CONTINUOUS
 10
8.243628083
 20
11.1238217521
 11
8.2588414157
 21
11.1024822615
  0
LINE
  5
2D7
100
AcDbEntity
  8
0
100
AcDbLine
 62
4
  6
CONTINUOUS
 10
8.243628083
 20
11.1745328636
 11
8.2512347494
 21
11.1638631129
  0
LINE
  5
2D8
100
AcDbEntity
  8
0
100
AcDbLine
 62
4
  6
CONTINUOUS
 10
9.9247012355
 20
8.8912818723
 11
9.9594745799
 21
8.7671636709
  0
LINE
  5
2D9
100
AcDbEntity
  8
0
100
AcDbLine
 62
4
  6
CONTINUOUS
 10
10.4086301662
 20
9.3567186005
 11
10.4086301662
 21
9.4262652676
  0
LINE
  5
2DA
100
AcDbEntity
  8
0
100
AcDbLine
 62
4
  6
CONTINUOUS
 10
10.4434034316
 20
8.8379230879
 11
10.4434034316
 21
8.7509897578
  0
LINE
  5
2DB
100
AcDbEntity
  8
0
100
AcDbLine
 62
4
  6
CONTINUOUS
 10
10.4434034816
 20
9.4412403949
 11
10.4434034816
 21
9.3630003963
  0
LINE
  5
2DC
100
AcDbEntity
  8
0
100
AcDbLine
 62
4
  6
CONTINUOUS
 10
10.478176747
 20
8.7311915534
 11
10.478176747
 21
8.8528982152
  0
LINE
  5
2DD
100
AcDbEntity
  8
0
100
AcDbLine
 62
4
  6
CONTINUOUS
 10
10.4955635127
 20
9.3506897525
 11
10.4955635127
 21
9.4376230845
  0
LINE
  5
2DE
100
AcDbEntity
  8
0
100
AcDbLine
 62
4
  6
CONTINUOUS
 10
10.5303368281
 20
9.3569715483
 11
10.5303368281
 21
9.4699848767
  0
LINE
  5
2DF
100
AcDbEntity
  8
0
100
AcDbLine
 62
4
  6
CONTINUOUS
 10
10.5390300779
 20
8.8312913575
 11
10.5390300779
 21
8.7443580273
  0
LINE
  5
2E0
100
AcDbEntity
  8
0
100
AcDbLine
 62
4
  6
CONTINUOUS
 10
10.5882923424
 20
8.7235550109
 11
10.5882923424
 21
8.8452616728
  0
LINE
  5
2E1
100
AcDbEntity
  8
0
100
AcDbLine
 62
4
  6
CONTINUOUS
 10
10.6085768167
 20
9.3428522532
 11
10.6085768167
 21
9.4297855852
  0
LINE
  5
2E2
100
AcDbEntity
  8
0
100
AcDbLine
 62
4
  6
CONTINUOUS
 10
10.6085768167
 20
9.455865579
 11
10.6085768167
 21
9.4645589151
  0
LINE
  5
2E3
100
AcDbEntity
  8
0
100
AcDbLine
 62
4
  6
CONTINUOUS
 10
10.6549412565
 20
9.3483302018
 11
10.6549412565
 21
9.4178768643
  0
LINE
  5
2E4
100
AcDbEntity
  8
0
100
AcDbLine
 62
4
  6
CONTINUOUS
 10
10.1772425668
 20
7.5975868648
 11
10.1848492332
 21
7.6274860062
  0
LINE
  5
2E5
100
AcDbEntity
  8
0
100
AcDbLine
 62
7
  6
CONTINUOUS
 10
13.258594463
 20
11.3932594741
 11
13.957405308
 21
12.068258957
  0
LINE
  5
2E6
100
AcDbEntity
  8
0
100
AcDbLine
 62
4
  6
CONTINUOUS
 10
10.4434034316
 20
8.7509897578
 11
10.4260167739
 21
8.7348088598
  0
LINE
  5
2E7
100
AcDbEntity
  8
0
100
AcDbLine
 62
4
  6
CONTINUOUS
 10
10.5390300779
 20
8.7443580273
 11
10.5216434202
 21
8.7281771294
  0
LINE
  5
2E8
100
AcDbEntity
  8
0
100
AcDbLine
 62
4
  6
CONTINUOUS
 10
10.7215900707
 20
8.7664707805
 11
10.6752256308
 21
8.7465039436
  0
LINE
  5
2E9
100
AcDbEntity
  8
0
100
AcDbLine
 62
4
  6
CONTINUOUS
 10
9.7102656939
 20
8.8366063643
 11
9.7566301374
 21
8.8102087574
  0
LINE
  5
2EA
100
AcDbEntity
  8
0
100
AcDbLine
 62
4
  6
CONTINUOUS
 10
9.8232790197
 20
8.8983155269
 11
9.8406656846
 21
8.8797230926
  0
LINE
  5
2EB
100
AcDbEntity
  8
0
100
AcDbLine
 62
4
  6
CONTINUOUS
 10
9.6465146464
 20
9.4182648247
 11
9.6552079798
 21
9.4089686066
  0
LINE
  5
2EC
100
AcDbEntity
  8
0
100
AcDbLine
 62
4
  6
CONTINUOUS
 10
10.2985145788
 20
8.7436511671
 11
10.2811279212
 21
8.7622436026
  0
LINE
  5
2ED
100
AcDbEntity
  8
0
100
AcDbLine
 62
4
  6
CONTINUOUS
 10
9.7421413072
 20
9.4203264267
 11
9.7595279722
 21
9.4017339906
  0
LINE
  5
2EE
100
AcDbEntity
  8
0
100
AcDbLine
 62
4
  6
CONTINUOUS
 10
10.2767813816
 20
9.1346196873
 11
10.3463280413
 21
9.0080899482
  0
LINE
  5
2EF
100
AcDbEntity
  8
0
100
AcDbLine
 62
4
  6
CONTINUOUS
 10
9.837767968
 20
9.5180146903
 11
9.8986212989
 21
9.3920878356
  0
LINE
  5
2F0
100
AcDbEntity
  8
0
100
AcDbLine
 62
4
  6
CONTINUOUS
 10
10.1116080592
 20
9.0939145013
 11
10.1463813909
 21
9.0219562955
  0
LINE
  5
2F1
100
AcDbEntity
  8
0
100
AcDbLine
 62
4
  6
CONTINUOUS
 10
10.1159546361
 20
9.4639490495
 11
10.1420346516
 21
9.3752070623
  0
LINE
  5
2F2
100
AcDbEntity
  8
0
100
AcDbLine
 62
4
  6
CONTINUOUS
 10
10.7331813032
 20
9.3863709012
 11
10.7331813032
 21
9.4124508986
  0
LINE
  5
2F3
100
AcDbEntity
  8
0
100
AcDbLine
 62
4
  6
CONTINUOUS
 10
10.7853412182
 20
9.3392869337
 11
10.7853412182
 21
9.3653669339
  0
LINE
  5
2F4
100
AcDbEntity
  8
0
100
AcDbLine
 62
4
  6
CONTINUOUS
 10
10.1848492332
 20
7.6274860062
 11
10.2000625659
 21
7.646715404
  0
LINE
  5
2F5
100
AcDbEntity
  8
0
100
AcDbLine
 62
4
  6
CONTINUOUS
 10
10.2533092305
 20
7.5517427371
 11
10.2457025641
 21
7.5421280391
  0
LINE
  5
2F6
100
AcDbEntity
  8
0
100
AcDbLine
 62
4
  6
CONTINUOUS
 10
9.7073679773
 20
9.440124632
 11
9.6465146464
 21
9.4965048233
  0
LINE
  5
2F7
100
AcDbEntity
  8
0
100
AcDbLine
 62
4
  6
CONTINUOUS
 10
10.3999367584
 20
8.736617515
 11
10.3825501007
 21
8.7552099506
  0
LINE
  5
2F8
100
AcDbEntity
  8
0
100
AcDbLine
 62
4
  6
CONTINUOUS
 10
9.6986746449
 20
9.527660845
 11
9.7073679773
 21
9.5183646243
  0
LINE
  5
2F9
100
AcDbEntity
  8
0
100
AcDbLine
 62
4
  6
CONTINUOUS
 10
10.4260167739
 20
8.8565155217
 11
10.4434034316
 21
8.8379230879
  0
LINE
  5
2FA
100
AcDbEntity
  8
0
100
AcDbLine
 62
4
  6
CONTINUOUS
 10
10.5216434202
 20
8.8498837912
 11
10.5390300779
 21
8.8312913575
  0
LINE
  5
2FB
100
AcDbEntity
  8
0
100
AcDbLine
 62
4
  6
CONTINUOUS
 10
10.0724879629
 20
9.4669634735
 11
10.0811812917
 21
9.457667253
  0
LINE
  5
2FC
100
AcDbEntity
  8
0
100
AcDbLine
 62
4
  6
CONTINUOUS
 10
10.3130035199
 20
9.4502836629
 11
10.3187990532
 21
9.4411884053
  0
LINE
  5
2FD
100
AcDbEntity
  8
0
100
AcDbLine
 62
4
  6
CONTINUOUS
 10
10.4086301662
 20
9.4262652676
 11
10.3999368664
 21
9.4442548149
  0
LINE
  5
2FE
100
AcDbEntity
  8
0
100
AcDbLine
 62
4
  6
CONTINUOUS
 10
10.2000625659
 20
7.646715404
 11
10.2152758986
 21
7.6558025752
  0
LINE
  5
2FF
100
AcDbEntity
  8
0
100
AcDbLine
 62
4
  6
CONTINUOUS
 10
10.5216434202
 20
8.7281771294
 11
10.478176747
 21
8.7311915534
  0
LINE
  5
300
100
AcDbEntity
  8
0
100
AcDbLine
 62
4
  6
CONTINUOUS
 10
10.4260167739
 20
8.7348088598
 11
10.3999367584
 21
8.736617515
  0
LINE
  5
301
100
AcDbEntity
  8
0
100
AcDbLine
 62
4
  6
CONTINUOUS
 10
10.3332878942
 20
8.7412396295
 11
10.2985145788
 21
8.7436511671
  0
LINE
  5
302
100
AcDbEntity
  8
0
100
AcDbLine
 62
4
  6
CONTINUOUS
 10
9.8232790197
 20
8.776608865
 11
9.779812361
 21
8.7796232881
  0
LINE
  5
303
100
AcDbEntity
  8
0
100
AcDbLine
 62
4
  6
CONTINUOUS
 10
10.0985678994
 20
8.7575175164
 11
10.1507279015
 21
8.753900208
  0
LINE
  5
304
100
AcDbEntity
  8
0
100
AcDbLine
 62
4
  6
CONTINUOUS
 10
10.5882923424
 20
8.7235550109
 11
10.6404523154
 21
8.7199377045
  0
LINE
  5
305
100
AcDbEntity
  8
0
100
AcDbLine
 62
4
  6
CONTINUOUS
 10
9.9015190155
 20
8.8059562364
 11
9.9478834554
 21
8.8027408516
  0
LINE
  5
306
100
AcDbEntity
  8
0
100
AcDbLine
 62
4
  6
CONTINUOUS
 10
10.6230656577
 20
8.7906901403
 11
10.5882923424
 21
8.7931016779
  0
LINE
  5
307
100
AcDbEntity
  8
0
100
AcDbLine
 62
4
  6
CONTINUOUS
 10
10.1333412438
 20
8.8246526438
 11
10.0985678994
 21
8.8270641834
  0
LINE
  5
308
100
AcDbEntity
  8
0
100
AcDbLine
 62
4
  6
CONTINUOUS
 10
9.779812361
 20
8.9013299499
 11
9.8232790197
 21
8.8983155269
  0
LINE
  5
309
100
AcDbEntity
  8
0
100
AcDbLine
 62
4
  6
CONTINUOUS
 10
9.9942478952
 20
8.8864587951
 11
10.063794555
 21
8.8816357179
  0
LINE
  5
30A
100
AcDbEntity
  8
0
100
AcDbLine
 62
4
  6
CONTINUOUS
 10
10.0985678994
 20
8.8792241782
 11
10.1507279015
 21
8.8756068698
  0
LINE
  5
30B
100
AcDbEntity
  8
0
100
AcDbLine
 62
4
  6
CONTINUOUS
 10
10.2985145788
 20
8.8653578289
 11
10.3332878942
 21
8.8629462913
  0
LINE
  5
30C
100
AcDbEntity
  8
0
100
AcDbLine
 62
4
  6
CONTINUOUS
 10
10.3999367584
 20
8.8583241769
 11
10.4260167739
 21
8.8565155217
  0
LINE
  5
30D
100
AcDbEntity
  8
0
100
AcDbLine
 62
4
  6
CONTINUOUS
 10
10.478176747
 20
8.8528982152
 11
10.5216434202
 21
8.8498837912
  0
LINE
  5
30E
100
AcDbEntity
  8
0
100
AcDbLine
 62
4
  6
CONTINUOUS
 10
10.5882923424
 20
8.8452616728
 11
10.6404523154
 21
8.8416443663
  0
LINE
  5
30F
100
AcDbEntity
  8
0
100
AcDbLine
 62
4
  6
CONTINUOUS
 10
10.6752256308
 20
8.7928683889
 11
10.7215900707
 21
8.7664707805
  0
LINE
  5
310
100
AcDbEntity
  8
0
100
AcDbLine
 62
4
  6
CONTINUOUS
 10
10.2086835158
 20
9.3705849479
 11
10.1912968581
 21
9.38048405
  0
LINE
  5
311
100
AcDbEntity
  8
0
100
AcDbLine
 62
4
  6
CONTINUOUS
 10
10.4434034816
 20
9.3630003963
 11
10.4520968395
 21
9.3537041765
  0
LINE
  5
312
100
AcDbEntity
  8
0
100
AcDbLine
 62
4
  6
CONTINUOUS
 10
10.5390301859
 20
9.3476753285
 11
10.5303368281
 21
9.3569715483
  0
LINE
  5
313
100
AcDbEntity
  8
0
100
AcDbLine
 62
4
  6
CONTINUOUS
 10
10.6636345564
 20
9.339033986
 11
10.6549412565
 21
9.3483302018
  0
LINE
  5
314
100
AcDbEntity
  8
0
100
AcDbLine
 62
7
  6
CONTINUOUS
 10
11.4956569197
 20
5.4301865418
 11
11.4956569197
 21
4.8656251777
  0
LINE
  5
315
100
AcDbEntity
  8
0
100
AcDbLine
 62
7
  6
CONTINUOUS
 10
11.6996677764
 20
5.4160383408
 11
11.6996677764
 21
4.6685661593
  0
LINE
  5
316
100
AcDbEntity
  8
0
100
AcDbLine
 62
7
  6
CONTINUOUS
 10
13.5955431893
 20
10.0518106887
 11
13.5940905521
 21
10.0504333577
  0
LINE
  5
317
100
AcDbEntity
  8
0
100
AcDbLine
 62
4
  6
CONTINUOUS
 10
13.0488678056
 20
9.2677951425
 11
13.0640811383
 21
9.2768823137
  0
LINE
  5
318
100
AcDbEntity
  8
0
100
AcDbLine
 62
4
  6
CONTINUOUS
 10
10.2457025641
 20
7.5421280391
 11
10.2304892314
 21
7.5330408652
  0
LINE
  5
319
100
AcDbEntity
  8
0
100
AcDbLine
 62
4
  6
CONTINUOUS
 10
13.0945078037
 20
9.2240611058
 11
13.0640811383
 21
9.2058867598
  0
LINE
  5
31A
100
AcDbEntity
  8
0
100
AcDbLine
 62
4
  6
CONTINUOUS
 10
10.2420080517
 20
9.0414045633
 11
10.1811547208
 21
9.0456247562
  0
LINE
  5
31B
100
AcDbEntity
  8
0
100
AcDbLine
 62
4
  6
CONTINUOUS
 10
10.3738568509
 20
9.3591301382
 11
10.3564701932
 21
9.3690292403
  0
LINE
  5
31C
100
AcDbEntity
  8
0
100
AcDbLine
 62
4
  6
CONTINUOUS
 10
8.2132014176
 20
11.0650785176
 11
8.1979880848
 21
11.0762757879
  0
LINE
  5
31D
100
AcDbEntity
  8
0
100
AcDbLine
 62
4
  6
CONTINUOUS
 10
8.2284147503
 20
11.1350190197
 11
8.243628083
 21
11.1238217521
  0
LINE
  5
31E
100
AcDbEntity
  8
0
100
AcDbLine
 62
4
  6
CONTINUOUS
 10
8.2284147503
 20
11.1857301312
 11
8.243628083
 21
11.1745328636
  0
LINE
  5
31F
100
AcDbEntity
  8
0
100
AcDbLine
 62
4
  6
CONTINUOUS
 10
10.741874603
 20
9.3799724638
 11
10.7331813032
 21
9.3863709012
  0
LINE
  5
320
100
AcDbEntity
  8
0
100
AcDbLine
 62
4
  6
CONTINUOUS
 10
10.7853412182
 20
9.3653669339
 11
10.7766479184
 21
9.3717653712
  0
LINE
  5
321
100
AcDbEntity
  8
0
100
AcDbLine
 62
4
  6
CONTINUOUS
 10
10.7331813032
 20
9.3429042361
 11
10.741874603
 21
9.3336080204
  0
LINE
  5
322
100
AcDbEntity
  8
0
100
AcDbLine
 62
4
  6
CONTINUOUS
 10
10.7766479184
 20
9.4181298147
 11
10.7853412182
 21
9.4088335962
  0
LINE
  5
323
100
AcDbEntity
  8
0
100
AcDbLine
 62
7
  6
CONTINUOUS
 10
11.73404835
 20
5.41365404
 11
11.73404835
 21
4.6596678233
  0
LINE
  5
324
100
AcDbEntity
  8
0
100
AcDbLine
 62
4
  6
CONTINUOUS
 10
10.1159546361
 20
9.3480379408
 11
10.1333412938
 21
9.346832172
  0
LINE
  5
325
100
AcDbEntity
  8
0
100
AcDbLine
 62
4
  6
CONTINUOUS
 10
13.0412611392
 20
9.1567582242
 11
13.1021144701
 21
9.1525380313
  0
LINE
  5
326
100
AcDbEntity
  8
0
100
AcDbLine
 62
4
  6
CONTINUOUS
 10
10.6984079878
 20
9.3366224404
 11
10.6636345564
 21
9.339033986
  0
LINE
  5
327
100
AcDbEntity
  8
0
100
AcDbLine
 62
4
  6
CONTINUOUS
 10
10.5564168436
 20
9.3464695597
 11
10.5390301859
 21
9.3476753285
  0
LINE
  5
328
100
AcDbEntity
  8
0
100
AcDbLine
 62
4
  6
CONTINUOUS
 10
10.4086301662
 20
9.3567186005
 11
10.3738568509
 21
9.3591301382
  0
LINE
  5
329
100
AcDbEntity
  8
0
100
AcDbLine
 62
4
  6
CONTINUOUS
 10
10.2434568312
 20
9.3681734102
 11
10.2086835158
 21
9.3705849479
  0
LINE
  5
32A
100
AcDbEntity
  8
0
100
AcDbLine
 62
4
  6
CONTINUOUS
 10
9.6552079798
 20
9.4089686066
 11
9.6899813124
 21
9.4065570678
  0
LINE
  5
32B
100
AcDbEntity
  8
0
100
AcDbLine
 62
4
  6
CONTINUOUS
 10
9.7595279722
 20
9.4017339906
 11
9.7856079805
 21
9.3999253359
  0
LINE
  5
32C
100
AcDbEntity
  8
0
100
AcDbLine
 62
4
  6
CONTINUOUS
 10
10.4520968395
 20
9.3537041765
 11
10.4955635127
 21
9.3506897525
  0
LINE
  5
32D
100
AcDbEntity
  8
0
100
AcDbLine
 62
4
  6
CONTINUOUS
 10
10.741874603
 20
9.3336080204
 11
10.7766479184
 21
9.3311964827
  0
LINE
  5
32E
100
AcDbEntity
  8
0
100
AcDbLine
 62
4
  6
CONTINUOUS
 10
10.3738568509
 20
9.4025968041
 11
10.4086301662
 21
9.4001852665
  0
LINE
  5
32F
100
AcDbEntity
  8
0
100
AcDbLine
 62
4
  6
CONTINUOUS
 10
10.3999368664
 20
9.4442548149
 11
10.3564701932
 21
9.4472692389
  0
LINE
  5
330
100
AcDbEntity
  8
0
100
AcDbLine
 62
4
  6
CONTINUOUS
 10
10.0290212896
 20
9.4699778975
 11
10.0724879629
 21
9.4669634735
  0
LINE
  5
331
100
AcDbEntity
  8
0
100
AcDbLine
 62
4
  6
CONTINUOUS
 10
10.2086835158
 20
9.4575182798
 11
10.2434568312
 21
9.4551067422
  0
LINE
  5
332
100
AcDbEntity
  8
0
100
AcDbLine
 62
4
  6
CONTINUOUS
 10
10.2782302046
 20
9.4526952006
 11
10.3130035199
 21
9.4502836629
  0
LINE
  5
333
100
AcDbEntity
  8
0
100
AcDbLine
 62
4
  6
CONTINUOUS
 10
10.6636345564
 20
9.425967318
 11
10.6984079878
 21
9.4235557723
  0
LINE
  5
334
100
AcDbEntity
  8
0
100
AcDbLine
 62
4
  6
CONTINUOUS
 10
10.741874603
 20
9.4205413523
 11
10.7766479184
 21
9.4181298147
  0
LINE
  5
335
100
AcDbEntity
  8
0
100
AcDbLine
 62
4
  6
CONTINUOUS
 10
13.0640811383
 20
9.2768823137
 11
13.079294471
 21
9.2758272655
  0
LINE
  5
336
100
AcDbEntity
  8
0
100
AcDbLine
 62
4
  6
CONTINUOUS
 10
9.6639013132
 20
9.5300723838
 11
9.6986746449
 21
9.527660845
  0
LINE
  5
337
100
AcDbEntity
  8
0
100
AcDbLine
 62
4
  6
CONTINUOUS
 10
10.6085768167
 20
9.4645589151
 11
10.6114745833
 21
9.4643579543
  0
LINE
  5
338
100
AcDbEntity
  8
0
100
AcDbLine
 62
4
  6
CONTINUOUS
 10
10.7766479184
 20
9.3717653712
 11
10.741874603
 21
9.3799724638
  0
LINE
  5
339
100
AcDbEntity
  8
0
100
AcDbLine
 62
4
  6
CONTINUOUS
 10
13.0412611392
 20
9.25818044
 11
13.0488678056
 21
9.2677951425
  0
LINE
  5
33A
100
AcDbEntity
  8
0
100
AcDbLine
 62
4
  6
CONTINUOUS
 10
13.0640811383
 20
9.2058867598
 11
13.0488678056
 21
9.1866573655
  0
LINE
  5
33B
100
AcDbEntity
  8
0
100
AcDbLine
 62
4
  6
CONTINUOUS
 10
13.1021144701
 20
9.2336758083
 11
13.0945078037
 21
9.2240611058
  0
LINE
  5
33C
100
AcDbEntity
  8
0
100
AcDbLine
 62
7
  6
CONTINUOUS
 10
12.4954266493
 20
5.3608522756
 11
12.4954266493
 21
4.6068660589
  0
LINE
  5
33D
100
AcDbEntity
  8
0
100
AcDbLine
 62
7
  6
CONTINUOUS
 10
12.5423913731
 20
5.3575952609
 11
12.5423913731
 21
4.6101230793
  0
LINE
  5
33E
100
AcDbEntity
  8
0
100
AcDbLine
 62
4
  6
CONTINUOUS
 10
13.0488678056
 20
9.1866573655
 11
13.0412611392
 21
9.1567582242
  0
LINE
  5
33F
100
AcDbEntity
  8
0
100
AcDbLine
 62
4
  6
CONTINUOUS
 10
13.079294471
 20
9.2758272655
 11
13.0945078037
 21
9.2646299979
  0
LINE
  5
340
100
AcDbEntity
  8
0
100
AcDbLine
 62
7
  6
CONTINUOUS
 10
13.0997588156
 20
5.3189416975
 11
13.0997588156
 21
4.7543803333
  0
LINE
  5
341
100
AcDbEntity
  8
0
100
AcDbLine
 62
4
  6
CONTINUOUS
 10
13.1021144701
 20
9.2539602471
 11
13.1021144701
 21
9.2336758083
  0
LINE
  5
342
100
AcDbEntity
  8
0
100
AcDbLine
 62
7
  6
CONTINUOUS
 10
13.1123429658
 20
5.3180689837
 11
13.1123429658
 21
4.7665356897
  0
LINE
  5
343
100
AcDbEntity
  8
0
100
AcDbLine
 62
7
  6
CONTINUOUS
 10
13.258594463
 20
5.3079264079
 11
13.258594463
 21
11.3932594741
  0
LINE
  5
344
100
AcDbEntity
  8
0
100
AcDbLine
 62
4
  6
CONTINUOUS
 10
13.0945078037
 20
9.2646299979
 11
13.1021144701
 21
9.2539602471
  0
LINE
  5
345
100
AcDbEntity
  8
0
100
AcDbLine
 62
4
  6
CONTINUOUS
 10
8.2284147503
 20
11.0640234694
 11
8.2132014176
 21
11.0650785176
  0
LINE
  5
346
100
AcDbEntity
  8
0
100
AcDbLine
 62
4
  6
CONTINUOUS
 10
8.2132014176
 20
11.1360740679
 11
8.2284147503
 21
11.1350190197
  0
LINE
  5
347
100
AcDbEntity
  8
0
100
AcDbLine
 62
4
  6
CONTINUOUS
 10
8.2132014176
 20
11.1867851795
 11
8.2284147503
 21
11.1857301312
  0
LINE
  5
348
100
AcDbEntity
  8
0
100
AcDbLine
 62
7
  6
CONTINUOUS
 10
13.957405308
 20
5.9829258909
 11
13.957405308
 21
12.068258957
  0
LINE
  5
349
100
AcDbEntity
  8
0
100
AcDbLine
 62
7
  6
CONTINUOUS
 10
8.042594692
 20
11.7549902868
 11
13.258594463
 21
11.3932594741
  0
LINE
  5
34A
100
AcDbEntity
  8
0
100
AcDbLine
 62
7
  6
CONTINUOUS
 10
13.258594463
 20
5.3079264079
 11
13.957405308
 21
5.9829258909
  0
LINE
  5
34B
100
AcDbEntity
  8
0
100
AcDbLine
 62
7
  6
CONTINUOUS
 10
13.957405308
 20
12.068258957
 11
8.741405537
 21
12.4299897698
  0
LINE
  5
34C
100
AcDbEntity
  8
0
100
AcDbLine
 62
7
  6
CONTINUOUS
 10
12.9832229158
 20
4.6883408209
 11
12.9473435407
 21
4.6706170966
  0
ARC
  5
34D
100
AcDbEntity
  8
0
100
AcDbCircle
 62
7
  6
CONTINUOUS
 10
12.3181373321
 20
7.5035290612
 40
2.9020833983
100
AcDbArc
 50
273.5024005705
 51
274.4318614998
  0
ARC
  5
34E
100
AcDbEntity
  8
0
100
AcDbCircle
 62
7
  6
CONTINUOUS
 10
12.0341054436
 20
5.8898682971
 40
1.2662651638
100
AcDbArc
 50
254.6857191954
 51
256.2926786396
  0
ARC
  5
34F
100
AcDbEntity
  8
0
100
AcDbCircle
 62
7
  6
CONTINUOUS
 10
12.5399910471
 20
5.5836622069
 40
0.9990265333
100
AcDbArc
 50
294.0424242342
 51
296.3106753905
  0
ARC
  5
350
100
AcDbEntity
  8
0
100
AcDbCircle
 62
7
  6
CONTINUOUS
 10
12.9954715862
 20
4.8753557129
 40
0.1597212218
100
AcDbArc
 50
310.7630914437
 51
313.9856916518
  0
ARC
  5
351
100
AcDbEntity
  8
0
100
AcDbCircle
 62
7
  6
CONTINUOUS
 10
13.0117731499
 20
4.8586313328
 40
0.1363667677
100
AcDbArc
 50
313.9375979844
 51
317.5184669645
  0
ARC
  5
352
100
AcDbEntity
  8
0
100
AcDbCircle
 62
7
  6
CONTINUOUS
 10
13.6445414077
 20
10.2101319862
 40
0.0523378141
100
AcDbArc
 50
71.2001334372
 51
78.3661711874
  0
SPLINE
  5
353
100
AcDbEntity
  8
0
100
AcDbSpline
 62
7
  6
CONTINUOUS
 70
0
 71
3
 72
9
 73
5
 74
0
 42
0.0000001
 43
0.0000001
 44
0.0000000001
 40
0.0
 40
0.0
 40
0.0
 40
0.0
 40
0.5047194233
 40
1.0
 40
1.0
 40
1.0
 40
1.0
 10
13.0997588156
 20
4.7543803333
 30
0.0
 10
13.0806438582
 20
4.7422805824
 30
0.0
 10
13.0422566241
 20
4.7191068893
 30
0.0
 10
13.002699409
 20
4.6979670207
 30
0.0
 10
12.9827977865
 20
4.6881309647
 30
0.0
  0
SPLINE
  5
354
100
AcDbEntity
  8
0
100
AcDbSpline
 62
7
  6
CONTINUOUS
 70
0
 71
3
 72
20
 73
16
 74
0
 42
0.0000001
 43
0.0000001
 44
0.0000000001
 40
0.0
 40
0.0
 40
0.0
 40
0.0
 40
0.1321092246
 40
0.2654630393
 40
0.3983965104
 40
0.4641824508
 40
0.5292377163
 40
0.593358461
 40
0.6563452314
 40
0.7180031916
 40
0.7781436148
 40
0.8365831781
 40
0.8931456382
 40
0.9476711375
 40
1.0
 40
1.0
 40
1.0
 40
1.0
 10
12.4716978061
 20
5.3622953435
 30
0.0
 10
12.4398803066
 20
5.360598091
 30
0.0
 10
12.3758878684
 20
5.3581923977
 30
0.0
 10
12.2797901545
 20
5.357479174
 30
0.0
 10
12.1997058777
 20
5.3592832654
 30
0.0
 10
12.1361513286
 20
5.3621799438
 30
0.0
 10
12.0892153648
 20
5.365054486
 30
0.0
 10
12.0430046358
 20
5.3686288708
 30
0.0
 10
11.9976749989
 20
5.3728905102
 30
0.0
 10
11.9533793588
 20
5.3778252133
 30
0.0
 10
11.9102672454
 20
5.3834161678
 30
0.0
 10
11.8684844514
 20
5.3896439346
 30
0.0
 10
11.8281707565
 20
5.3964877847
 30
0.0
 10
11.7894618629
 20
5.4039242929
 30
0.0
 10
11.7642706712
 20
5.4093777264
 30
0.0
 10
11.7519713122
 20
5.4122085454
 30
0.0
  0
SPLINE
  5
355
100
AcDbEntity
  8
0
100
AcDbSpline
 62
7
  6
CONTINUOUS
 70
0
 71
3
 72
22
 73
18
 74
0
 42
0.0000001
 43
0.0000001
 44
0.0000000001
 40
0.0
 40
0.0
 40
0.0
 40
0.0
 40
0.043290989
 40
0.0886107636
 40
0.1362169549
 40
0.1863255266
 40
0.2391104607
 40
0.2946904167
 40
0.3531382065
 40
0.4144717324
 40
0.4786700373
 40
0.5456687108
 40
0.6153767118
 40
0.6876754969
 40
0.7624330017
 40
0.8395067268
 40
1.0
 40
1.0
 40
1.0
 40
1.0
 10
11.6401915743
 20
4.6807264271
 30
0.0
 10
11.6371082453
 20
4.6822482639
 30
0.0
 10
11.630917478
 20
4.6856127147
 30
0.0
 10
11.6218080234
 20
4.6914658112
 30
0.0
 10
11.6126863661
 20
4.6982518824
 30
0.0
 10
11.6035587536
 20
4.7059815785
 30
0.0
 10
11.5944323412
 20
4.7146590251
 30
0.0
 10
11.5853120769
 20
4.7242770232
 30
0.0
 10
11.5762053564
 20
4.7348216617
 30
0.0
 10
11.5671163702
 20
4.7462686135
 30
0.0
 10
11.5580517182
 20
4.7585881042
 30
0.0
 10
11.5490146397
 20
4.771742587
 30
0.0
 10
11.5400101662
 20
4.7856912091
 30
0.0
 10
11.5310404594
 20
4.800388748
 30
0.0
 10
11.5221084372
 20
4.8157891487
 30
0.0
 10
11.5100886915
 20
4.8374907892
 30
0.0
 10
11.5013847418
 20
4.8542371087
 30
0.0
 10
11.4956569197
 20
4.8656251777
 30
0.0
  0
SPLINE
  5
356
100
AcDbEntity
  8
0
100
AcDbSpline
 62
7
  6
CONTINUOUS
 70
0
 71
3
 72
42
 73
38
 74
0
 42
0.0000001
 43
0.0000001
 44
0.0000000001
 40
0.0
 40
0.0
 40
0.0
 40
0.0
 40
0.0099876471
 40
0.0204482153
 40
0.0313778979
 40
0.0427717855
 40
0.0546232227
 40
0.0669241187
 40
0.0928371108
 40
0.1204281727
 40
0.1495999526
 40
0.1802423267
 40
0.212235641
 40
0.2454510317
 40
0.2797517947
 40
0.3149951022
 40
0.3510319967
 40
0.3877093471
 40
0.4248702027
 40
0.4623548651
 40
0.5000019479
 40
0.5376490075
 40
0.5751337455
 40
0.6122945894
 40
0.6489720274
 40
0.6850089917
 40
0.7202522813
 40
0.7545532871
 40
0.78776864
 40
0.8197621595
 40
0.8504046934
 40
0.8795764413
 40
0.9071678821
 40
0.9330808459
 40
0.9572320527
 40
0.9795539769
 40
1.0
 40
1.0
 40
1.0
 40
1.0
 10
12.9473412597
 20
4.6706159598
 30
0.0
 10
12.9434276847
 20
4.6686827868
 30
0.0
 10
12.9353483344
 20
4.6648592193
 30
0.0
 10
12.9227822412
 20
4.6593639853
 30
0.0
 10
12.9095017795
 20
4.6539818126
 30
0.0
 10
12.8955221538
 20
4.6487195188
 30
0.0
 10
12.8808594036
 20
4.6435829692
 30
0.0
 10
12.8600581338
 20
4.6367913449
 30
0.0
 10
12.8324544607
 20
4.6286940509
 30
0.0
 10
12.7974457144
 20
4.6197278016
 30
0.0
 10
12.7601606004
 20
4.6113942301
 30
0.0
 10
12.7207708577
 20
4.6037314069
 30
0.0
 10
12.6794574209
 20
4.5967757839
 30
0.0
 10
12.6364105887
 20
4.590559948
 30
0.0
 10
12.5918288252
 20
4.5851125418
 30
0.0
 10
12.5459178012
 20
4.5804597421
 30
0.0
 10
12.4988894242
 20
4.5766226805
 30
0.0
 10
12.4509608654
 20
4.5736195591
 30
0.0
 10
12.4023534356
 20
4.5714645661
 30
0.0
 10
12.3532916626
 20
4.5701672527
 30
0.0
 10
12.3040021829
 20
4.5697343143
 30
0.0
 10
12.2547126732
 20
4.5701672818
 30
0.0
 10
12.2056508717
 20
4.5714642516
 30
0.0
 10
12.1570433855
 20
4.573619472
 30
0.0
 10
12.1091147461
 20
4.5766222937
 30
0.0
 10
12.0620863018
 20
4.58045932
 30
0.0
 10
12.0161751626
 20
4.58511223
 30
0.0
 10
11.971593267
 20
4.5905592358
 30
0.0
 10
11.9285462876
 20
4.5967753308
 30
0.0
 10
11.8872326757
 20
4.6037306997
 30
0.0
 10
11.8478427268
 20
4.6113934144
 30
0.0
 10
11.810557557
 20
4.6197272482
 30
0.0
 10
11.7755481479
 20
4.6286928961
 30
0.0
 10
11.742974786
 20
4.6382490166
 30
0.0
 10
11.7129848023
 20
4.648350175
 30
0.0
 10
11.6857151832
 20
4.6589495977
 30
0.0
 10
11.6686724716
 20
4.6666574802
 30
0.0
 10
11.6606608971
 20
4.6706149926
 30
0.0
  0
SPLINE
  5
357
100
AcDbEntity
  8
0
100
AcDbSpline
 62
7
  6
CONTINUOUS
 70
0
 71
3
 72
21
 73
17
 74
0
 42
0.0000001
 43
0.0000001
 44
0.0000000001
 40
0.0
 40
0.0
 40
0.0
 40
0.0
 40
0.1229683586
 40
0.1846291852
 40
0.2464222231
 40
0.3083594657
 40
0.3704517377
 40
0.4327079591
 40
0.49513282
 40
0.557727432
 40
0.6204888849
 40
0.6834099387
 40
0.7464809678
 40
0.8096898189
 40
0.8730228
 40
1.0
 40
1.0
 40
1.0
 40
1.0
 10
12.4954266493
 20
4.6068660589
 30
0.0
 10
12.4643657713
 20
4.6005119794
 30
0.0
 10
12.417475165
 20
4.5921314521
 30
0.0
 10
12.3544857602
 20
4.5837725908
 30
0.0
 10
12.3069142275
 20
4.5790266917
 30
0.0
 10
12.2590946342
 20
4.5759326958
 30
0.0
 10
12.2110730185
 20
4.5745959707
 30
0.0
 10
12.1629089833
 20
4.5751002807
 30
0.0
 10
12.1146719018
 20
4.5774960538
 30
0.0
 10
12.0664364681
 20
4.5817958081
 30
0.0
 10
12.0182773372
 20
4.5879762074
 30
0.0
 10
11.970263334
 20
4.5959768483
 30
0.0
 10
11.9224530648
 20
4.6057056151
 30
0.0
 10
11.874891958
 20
4.6170506669
 30
0.0
 10
11.8118044703
 20
4.6341769285
 30
0.0
 10
11.7650125422
 20
4.6490387746
 30
0.0
 10
11.73404835
 20
4.6596678233
 30
0.0
  0
SPLINE
  5
358
100
AcDbEntity
  8
0
100
AcDbSpline
 62
7
  6
CONTINUOUS
 70
0
 71
3
 72
11
 73
7
 74
0
 42
0.0000001
 43
0.0000001
 44
0.0000000001
 40
0.0
 40
0.0
 40
0.0
 40
0.0
 40
0.2458672335
 40
0.4933492082
 40
0.7440905688
 40
1.0
 40
1.0
 40
1.0
 40
1.0
 10
11.6996677764
 20
4.6685661593
 30
0.0
 10
11.6965360396
 20
4.6683896735
 30
0.0
 10
11.6902363284
 20
4.6682642605
 30
0.0
 10
11.6807495418
 20
4.6688164648
 30
0.0
 10
11.6712124722
 20
4.6701643539
 30
0.0
 10
11.6649033683
 20
4.6716122029
 30
0.0
 10
11.6617552612
 20
4.6724773499
 30
0.0
  0
LINE
  5
359
100
AcDbEntity
  8
0
100
AcDbLine
 62
7
  6
CONTINUOUS
 10
11.6617552612
 20
4.6724773499
 11
11.6613947704
 21
4.6725770477
  0
SPLINE
  5
35A
100
AcDbEntity
  8
0
100
AcDbSpline
 62
7
  6
CONTINUOUS
 70
0
 71
3
 72
9
 73
5
 74
0
 42
0.0000001
 43
0.0000001
 44
0.0000000001
 40
0.0
 40
0.0
 40
0.0
 40
0.0
 40
0.4899125641
 40
1.0
 40
1.0
 40
1.0
 40
1.0
 10
11.6613947704
 20
4.6725770477
 30
0.0
 10
11.6578171472
 20
4.673572731
 30
0.0
 10
11.650609234
 20
4.6759600988
 30
0.0
 10
11.6436587681
 20
4.6790151263
 30
0.0
 10
11.6401915743
 20
4.6807264271
 30
0.0
  0
LINE
  5
35B
100
AcDbEntity
  8
0
100
AcDbLine
 62
7
  6
CONTINUOUS
 10
12.9470074036
 20
4.6713071774
 11
12.9459194048
 21
4.6708233679
  0
SPLINE
  5
35C
100
AcDbEntity
  8
0
100
AcDbSpline
 62
7
  6
CONTINUOUS
 70
0
 71
3
 72
15
 73
11
 74
0
 42
0.0000001
 43
0.0000001
 44
0.0000000001
 40
0.0
 40
0.0
 40
0.0
 40
0.0
 40
0.1323763415
 40
0.2621392813
 40
0.3894055944
 40
0.5144404382
 40
0.637615975
 40
0.7593469011
 40
0.8800294664
 40
1.0
 40
1.0
 40
1.0
 40
1.0
 10
12.9459194048
 20
4.6708233679
 30
0.0
 10
12.9292518535
 20
4.6634243897
 30
0.0
 10
12.8958056256
 20
4.6497341983
 30
0.0
 10
12.8448852557
 20
4.6327273548
 30
0.0
 10
12.7938533646
 20
4.6196521703
 30
0.0
 10
12.7428857868
 20
4.6105556564
 30
0.0
 10
12.6921484997
 20
4.6053157745
 30
0.0
 10
12.6417736049
 20
4.6036693644
 30
0.0
 10
12.5918473137
 20
4.6052620064
 30
0.0
 10
12.5588094887
 20
4.6082290656
 30
0.0
 10
12.5423913731
 20
4.6101230793
 30
0.0
  0
SPLINE
  5
35D
100
AcDbEntity
  8
0
100
AcDbSpline
 62
7
  6
CONTINUOUS
 70
0
 71
3
 72
49
 73
45
 74
0
 42
0.0000001
 43
0.0000001
 44
0.0000000001
 40
0.0
 40
0.0
 40
0.0
 40
0.0
 40
0.0321974564
 40
0.0654883787
 40
0.0997680175
 40
0.1349263389
 40
0.1708495829
 40
0.2074204546
 40
0.2445188136
 40
0.2820222069
 40
0.3198064251
 40
0.3577460499
 40
0.3957149968
 40
0.4335870564
 40
0.471236434
 40
0.5085382913
 40
0.5453692905
 40
0.5816081453
 40
0.6171361769
 40
0.65183788
 40
0.6856015059
 40
0.718319669
 40
0.7498899893
 40
0.7802157856
 40
0.7948838237
 40
0.8092074836
 40
0.8231766373
 40
0.8367816849
 40
0.8500136041
 40
0.8628639331
 40
0.8753249144
 40
0.8873894303
 40
0.8990511804
 40
0.9103046612
 40
0.9211452978
 40
0.931569547
 40
0.9415749562
 40
0.951160405
 40
0.9603261475
 40
0.9690741422
 40
0.9774081957
 40
0.9853343196
 40
0.992861084
 40
1.0
 40
1.0
 40
1.0
 40
1.0
 10
10.7653117165
 20
11.7535131156
 30
0.0
 10
10.748504058
 20
11.7504671143
 30
0.0
 10
10.7142468196
 20
11.7446586695
 30
0.0
 10
10.6618872366
 20
11.7368926213
 30
0.0
 10
10.6078284874
 20
11.7299465628
 30
0.0
 10
10.5522630633
 20
11.7238455425
 30
0.0
 10
10.4953886523
 20
11.7186114638
 30
0.0
 10
10.4374076512
 20
11.7142631421
 30
0.0
 10
10.3785264407
 20
11.7108161919
 30
0.0
 10
10.3189546347
 20
11.7082829933
 30
0.0
 10
10.2589043264
 20
11.7066726378
 30
0.0
 10
10.1985893259
 20
11.7059909037
 30
0.0
 10
10.1382243913
 20
11.7062402369
 30
0.0
 10
10.0780244599
 20
11.7074197424
 30
0.0
 10
10.0182038772
 20
11.7095251875
 30
0.0
 10
9.9589756288
 20
11.7125490157
 30
0.0
 10
9.9005505759
 20
11.7164803737
 30
0.0
 10
9.8431366941
 20
11.7213051425
 30
0.0
 10
9.7869383267
 20
11.7270059895
 30
0.0
 10
9.732155437
 20
11.7335624266
 30
0.0
 10
9.6789829182
 20
11.7409508875
 30
0.0
 10
9.6276097537
 20
11.7491447827
 30
0.0
 10
9.5782187728
 20
11.7581146795
 30
0.0
 10
9.5384280895
 20
11.7662973463
 30
0.0
 10
9.5077301614
 20
11.7732252398
 30
0.0
 10
9.4855653548
 20
11.7785368693
 30
0.0
 10
9.4640230334
 20
11.7840170763
 30
0.0
 10
9.4431223257
 20
11.7896610166
 30
0.0
 10
9.422881809
 20
11.7954636003
 30
0.0
 10
9.4033194673
 20
11.8014197102
 30
0.0
 10
9.3844526569
 20
11.8075239518
 30
0.0
 10
9.3662981237
 20
11.8137709544
 30
0.0
 10
9.3488719459
 20
11.8201550871
 30
0.0
 10
9.3321895532
 20
11.8266706963
 30
0.0
 10
9.316265692
 20
11.8333119912
 30
0.0
 10
9.3011143998
 20
11.8400730382
 30
0.0
 10
9.2867490358
 20
11.8469479298
 30
0.0
 10
9.2731821808
 20
11.8539305188
 30
0.0
 10
9.2604257423
 20
11.8610147848
 30
0.0
 10
9.248490802
 20
11.8681945072
 30
0.0
 10
9.2373877739
 20
11.8754635356
 30
0.0
 10
9.2271261468
 20
11.8828158323
 30
0.0
 10
9.2177151613
 20
11.8902448812
 30
0.0
 10
9.2118619882
 20
11.8953779198
 30
0.0
 10
9.2090894573
 20
11.89795805
 30
0.0
  0
SPLINE
  5
35E
100
AcDbEntity
  8
0
100
AcDbSpline
 62
7
  6
CONTINUOUS
 70
0
 71
3
 72
18
 73
14
 74
0
 42
0.0000001
 43
0.0000001
 44
0.0000000001
 40
0.0
 40
0.0
 40
0.0
 40
0.0
 40
0.1504686872
 40
0.2917143508
 40
0.4244422581
 40
0.4879097286
 40
0.549609416
 40
0.6682625881
 40
0.7817882869
 40
0.8371380068
 40
0.8918078217
 40
0.9460192903
 40
1.0
 40
1.0
 40
1.0
 40
1.0
 10
13.6079998855
 20
10.2363754006
 30
0.0
 10
13.6102262338
 20
10.238525888
 30
0.0
 10
13.6146758845
 20
10.2425608185
 30
0.0
 10
13.6215657122
 20
10.2479378309
 30
0.0
 10
13.6273853213
 20
10.2517407498
 30
0.0
 10
13.6320259662
 20
10.2543159591
 30
0.0
 10
13.6365300803
 20
10.2565268779
 30
0.0
 10
13.6421616571
 20
10.2587609166
 30
0.0
 10
13.6478934025
 20
10.2602854473
 30
0.0
 10
13.6524331169
 20
10.2610364532
 30
0.0
 10
13.6557976756
 20
10.2613697401
 30
0.0
 10
13.6591486206
 20
10.2614773984
 30
0.0
 10
13.6613749076
 20
10.2613986501
 30
0.0
 10
13.6624827066
 20
10.26132182
 30
0.0
  0
SPLINE
  5
35F
100
AcDbEntity
  8
0
100
AcDbSpline
 62
7
  6
CONTINUOUS
 70
0
 71
3
 72
21
 73
17
 74
0
 42
0.0000001
 43
0.0000001
 44
0.0000000001
 40
0.0
 40
0.0
 40
0.0
 40
0.0
 40
0.1273174669
 40
0.2538000755
 40
0.316761934
 40
0.3795355049
 40
0.4421315085
 40
0.504562148
 40
0.5668413451
 40
0.628984521
 40
0.6910084481
 40
0.7529310917
 40
0.8147714402
 40
0.876549326
 40
0.9382852166
 40
1.0
 40
1.0
 40
1.0
 40
1.0
 10
10.217666628
 20
7.148815398
 30
0.0
 10
10.217666628
 20
7.1366193515
 30
0.0
 10
10.216502415
 20
7.1122915351
 30
0.0
 10
10.2121056427
 20
7.0822171064
 30
0.0
 10
10.2068504589
 20
7.0586263399
 30
0.0
 10
10.2020579994
 20
7.0412258128
 30
0.0
 10
10.1964200578
 20
7.0241344395
 30
0.0
 10
10.1899494891
 20
7.0073911927
 30
0.0
 10
10.1826611984
 20
6.9910348146
 30
0.0
 10
10.174571996
 20
6.97510298
 30
0.0
 10
10.1657005052
 20
6.9596324506
 30
0.0
 10
10.1560671081
 20
6.9446589348
 30
0.0
 10
10.1456940627
 20
6.9302169964
 30
0.0
 10
10.1346051813
 20
6.9163398245
 30
0.0
 10
10.1228264728
 20
6.9030598591
 30
0.0
 10
10.114530595
 20
6.8946236202
 30
0.0
 10
10.1102784909
 20
6.8905164216
 30
0.0
  0
SPLINE
  5
360
100
AcDbEntity
  8
0
100
AcDbSpline
 62
7
  6
CONTINUOUS
 70
0
 71
3
 72
15
 73
11
 74
0
 42
0.0000001
 43
0.0000001
 44
0.0000000001
 40
0.0
 40
0.0
 40
0.0
 40
0.0
 40
0.1273483438
 40
0.2538606048
 40
0.3795878922
 40
0.5046051199
 40
0.6290174392
 40
0.7529533668
 40
0.8765605676
 40
1.0
 40
1.0
 40
1.0
 40
1.0
 10
12.1380238455
 20
11.0363046628
 30
0.0
 10
12.1380238455
 20
11.0304560614
 30
0.0
 10
12.1374654153
 20
11.0187891707
 30
0.0
 10
12.1349399733
 20
11.0015132311
 30
0.0
 10
12.1307523676
 20
10.98467138
 30
0.0
 10
12.1249404311
 20
10.9684211215
 30
0.0
 10
12.1175574705
 20
10.9529123264
 30
0.0
 10
12.1086707822
 20
10.9382882169
 30
0.0
 10
12.098363965
 20
10.9246857892
 30
0.0
 10
12.0906034353
 20
10.9163766945
 30
0.0
 10
12.0865259067
 20
10.9124381369
 30
0.0
  0
SPLINE
  5
361
100
AcDbEntity
  8
0
100
AcDbSpline
 62
7
  6
CONTINUOUS
 70
0
 71
3
 72
15
 73
11
 74
0
 42
0.0000001
 43
0.0000001
 44
0.0000000001
 40
0.0
 40
0.0
 40
0.0
 40
0.0
 40
0.1273483438
 40
0.2538606048
 40
0.3795878922
 40
0.5046051199
 40
0.6290174392
 40
0.7529533668
 40
0.8765605676
 40
1.0
 40
1.0
 40
1.0
 40
1.0
 10
9.9646906076
 20
5.9710260637
 30
0.0
 10
9.9646906076
 20
5.9651774624
 30
0.0
 10
9.9641321774
 20
5.9535105716
 30
0.0
 10
9.9616067354
 20
5.9362346321
 30
0.0
 10
9.9574191296
 20
5.919392781
 30
0.0
 10
9.9516071932
 20
5.9031425225
 30
0.0
 10
9.9442242325
 20
5.8876337273
 30
0.0
 10
9.9353375443
 20
5.8730096178
 30
0.0
 10
9.9250307271
 20
5.8594071901
 30
0.0
 10
9.9172701973
 20
5.8510980955
 30
0.0
 10
9.9131926688
 20
5.8471595378
 30
0.0
  0
SPLINE
  5
362
100
AcDbEntity
  8
0
100
AcDbSpline
 62
7
  6
CONTINUOUS
 70
0
 71
3
 72
22
 73
18
 74
0
 42
0.0000001
 43
0.0000001
 44
0.0000000001
 40
0.0
 40
0.0
 40
0.0
 40
0.0
 40
0.0614215688
 40
0.1227747794
 40
0.1841308782
 40
0.2455647231
 40
0.3071545318
 40
0.3689737181
 40
0.4310842998
 40
0.4935302137
 40
0.5563309553
 40
0.6194755404
 40
0.6829169396
 40
0.7465677094
 40
0.8102976936
 40
0.873935568
 40
1.0
 40
1.0
 40
1.0
 40
1.0
 10
9.8685593094
 20
7.3869781999
 30
0.0
 10
9.8688979207
 20
7.3814709379
 30
0.0
 10
9.8701239154
 20
7.370488385
 30
0.0
 10
9.8735874758
 20
7.3542877924
 30
0.0
 10
9.8786263206
 20
7.3385038469
 30
0.0
 10
9.8851744315
 20
7.3232623927
 30
0.0
 10
9.8931515181
 20
7.3086716118
 30
0.0
 10
9.9024674891
 20
7.2948253884
 30
0.0
 10
9.913025867
 20
7.2818040947
 30
0.0
 10
9.9247261546
 20
7.2696773563
 30
0.0
 10
9.9374648503
 20
7.2585068307
 30
0.0
 10
9.9511351361
 20
7.2483489781
 30
0.0
 10
9.9656259181
 20
7.2392571882
 30
0.0
 10
9.9808189206
 20
7.231283431
 30
0.0
 10
9.996590771
 20
7.2244775827
 30
0.0
 10
10.0181270035
 20
7.2170526121
 30
0.0
 10
10.0348467018
 20
7.213327922
 30
0.0
 10
10.0460595215
 20
7.2117399895
 30
0.0
  0
SPLINE
  5
363
100
AcDbEntity
  8
0
100
AcDbSpline
 62
7
  6
CONTINUOUS
 70
0
 71
3
 72
15
 73
11
 74
0
 42
0.0000001
 43
0.0000001
 44
0.0000000001
 40
0.0
 40
0.0
 40
0.0
 40
0.0
 40
0.1273483316
 40
0.2538605887
 40
0.3795878789
 40
0.5046051138
 40
0.6290174418
 40
0.7529533759
 40
0.8765605771
 40
1.0
 40
1.0
 40
1.0
 40
1.0
 10
10.0501684023
 20
7.1715245263
 30
0.0
 10
10.0501684023
 20
7.1650107468
 30
0.0
 10
10.0495464665
 20
7.1520169468
 30
0.0
 10
10.0467338271
 20
7.1327761604
 30
0.0
 10
10.0420699994
 20
7.1140188242
 30
0.0
 10
10.0355971182
 20
7.0959203522
 30
0.0
 10
10.0273745507
 20
7.0786476573
 30
0.0
 10
10.0174772452
 20
7.0623602481
 30
0.0
 10
10.0059983057
 20
7.0472106992
 30
0.0
 10
9.9973552206
 20
7.0379565198
 30
0.0
 10
9.9928139794
 20
7.0335699808
 30
0.0
  0
SPLINE
  5
364
100
AcDbEntity
  8
0
100
AcDbSpline
 62
7
  6
CONTINUOUS
 70
0
 71
3
 72
41
 73
37
 74
0
 42
0.0000001
 43
0.0000001
 44
0.0000000001
 40
0.0
 40
0.0
 40
0.0
 40
0.0
 40
0.0310747051
 40
0.0623073113
 40
0.0936919989
 40
0.1252208455
 40
0.1568822151
 40
0.1886620094
 40
0.2205435949
 40
0.2525083053
 40
0.2845357889
 40
0.316604441
 40
0.348691836
 40
0.3807751761
 40
0.4128317441
 40
0.4448393548
 40
0.4767767997
 40
0.508624277
 40
0.5403638028
 40
0.5719795929
 40
0.6034584126
 40
0.6347898832
 40
0.6659667393
 40
0.6969850295
 40
0.7278442515
 40
0.7585474165
 40
0.7891010353
 40
0.8195150233
 40
0.84980252
 40
0.8649066417
 40
0.8799854015
 40
0.9100708282
 40
0.9400854833
 40
0.9550762344
 40
0.9700578784
 40
1.0
 40
1.0
 40
1.0
 40
1.0
 10
10.0501684023
 20
7.1715245263
 30
0.0
 10
10.0501684023
 20
7.1765873155
 30
0.0
 10
10.0497907075
 20
7.1867425137
 30
0.0
 10
10.0481045164
 20
7.2019266688
 30
0.0
 10
10.0453065777
 20
7.2170217029
 30
0.0
 10
10.0414125241
 20
7.2319435594
 30
0.0
 10
10.0364438067
 20
7.2466106537
 30
0.0
 10
10.0304278754
 20
7.2609423858
 30
0.0
 10
10.0233978402
 20
7.2748601308
 30
0.0
 10
10.015392384
 20
7.2882875135
 30
0.0
 10
10.006455508
 20
7.3011508595
 30
0.0
 10
9.9966363086
 20
7.3133795868
 30
0.0
 10
9.9859887037
 20
7.3249065894
 30
0.0
 10
9.9745711411
 20
7.3356686017
 30
0.0
 10
9.9624462807
 20
7.3456065422
 30
0.0
 10
9.9496806542
 20
7.3546658344
 30
0.0
 10
9.9363443041
 20
7.3627967043
 30
0.0
 10
9.9225104039
 20
7.3699544511
 30
0.0
 10
9.9082548619
 20
7.376099692
 30
0.0
 10
9.8936559104
 20
7.3811985779
 30
0.0
 10
9.8787936817
 20
7.3852229802
 30
0.0
 10
9.8637497759
 20
7.3881506487
 30
0.0
 10
9.8486068165
 20
7.3899653356
 30
0.0
 10
9.8334480081
 20
7.3906568925
 30
0.0
 10
9.8183566674
 20
7.3902213246
 30
0.0
 10
9.8034158309
 20
7.3886608507
 30
0.0
 10
9.7887075742
 20
7.3859837935
 30
0.0
 10
9.7743133997
 20
7.3822049428
 30
0.0
 10
9.7626331454
 20
7.3781502366
 30
0.0
 10
9.7535289186
 20
7.3743795325
 30
0.0
 10
9.7446090232
 20
7.3702693806
 30
0.0
 10
9.7337935723
 20
7.3644919963
 30
0.0
 10
9.7234796332
 20
7.3578870231
 30
0.0
 10
9.7155752084
 20
7.3521352383
 30
0.0
 10
9.7079147746
 20
7.3460821939
 30
0.0
 10
9.7024448767
 20
7.341203825
 30
0.0
 10
9.6989361764
 20
7.3378146522
 30
0.0
  0
SPLINE
  5
365
100
AcDbEntity
  8
0
100
AcDbSpline
 62
7
  6
CONTINUOUS
 70
0
 71
3
 72
11
 73
7
 74
0
 42
0.0000001
 43
0.0000001
 44
0.0000000001
 40
0.0
 40
0.0
 40
0.0
 40
0.0
 40
0.2697183344
 40
0.5237013691
 40
0.7658764722
 40
1.0
 40
1.0
 40
1.0
 40
1.0
 10
9.2583057327
 20
11.8624633778
 30
0.0
 10
9.2578747458
 20
11.8636461895
 30
0.0
 10
9.2571284219
 20
11.865977258
 30
0.0
 10
9.2563295238
 20
11.8694659583
 30
0.0
 10
9.2558659301
 20
11.8728473251
 30
0.0
 10
9.2557654006
 20
11.8750716937
 30
0.0
 10
9.2557654006
 20
11.8761644439
 30
0.0
  0
SPLINE
  5
366
100
AcDbEntity
  8
0
100
AcDbSpline
 62
7
  6
CONTINUOUS
 70
0
 71
3
 72
29
 73
25
 74
0
 42
0.0000001
 43
0.0000001
 44
0.0000000001
 40
0.0
 40
0.0
 40
0.0
 40
0.0
 40
0.0191436973
 40
0.0390355211
 40
0.0596935659
 40
0.0811327518
 40
0.1033648686
 40
0.1263993078
 40
0.1502429301
 40
0.1749005738
 40
0.2003752217
 40
0.2266679852
 40
0.2537786426
 40
0.2817053285
 40
0.3399913541
 40
0.4014903187
 40
0.4661475825
 40
0.533894394
 40
0.604649601
 40
0.6783209807
 40
0.7548067634
 40
0.8339951261
 40
0.9157694204
 40
1.0
 40
1.0
 40
1.0
 40
1.0
 10
11.1600408204
 20
11.8979575488
 30
0.0
 10
11.1580567139
 20
11.896111137
 30
0.0
 10
11.1539308768
 20
11.8924314489
 30
0.0
 10
11.1474107154
 20
11.8870515964
 30
0.0
 10
11.1404452991
 20
11.881709552
 30
0.0
 10
11.1330379119
 20
11.8764078812
 30
0.0
 10
11.1251919393
 20
11.8711488184
 30
0.0
 10
11.1169109214
 20
11.8659348313
 30
0.0
 10
11.108198668
 20
11.8607682149
 30
0.0
 10
11.0990591539
 20
11.8556513355
 30
0.0
 10
11.0894965504
 20
11.8505865628
 30
0.0
 10
11.0795152714
 20
11.8455761569
 30
0.0
 10
11.0691198542
 20
11.8406224629
 30
0.0
 10
11.0545045829
 20
11.834001641
 30
0.0
 10
11.0352193114
 20
11.8259012304
 30
0.0
 10
11.010823825
 20
11.8165760851
 30
0.0
 10
10.9849007563
 20
11.807529951
 30
0.0
 10
10.9574978698
 20
11.7987796216
 30
0.0
 10
10.9286653844
 20
11.7903413637
 30
0.0
 10
10.8984563448
 20
11.782230863
 30
0.0
 10
10.8669265117
 20
11.7744632708
 30
0.0
 10
10.8341338134
 20
11.7670529421
 30
0.0
 10
10.8001391634
 20
11.7600138502
 30
0.0
 10
10.7770458148
 20
11.7556396508
 30
0.0
 10
10.7653117165
 20
11.7535131156
 30
0.0
  0
SPLINE
  5
367
100
AcDbEntity
  8
0
100
AcDbSpline
 62
7
  6
CONTINUOUS
 70
0
 71
3
 72
11
 73
7
 74
0
 42
0.0000001
 43
0.0000001
 44
0.0000000001
 40
0.0
 40
0.0
 40
0.0
 40
0.0
 40
0.2341956276
 40
0.4764098744
 40
0.7303772225
 40
1.0
 40
1.0
 40
1.0
 40
1.0
 10
11.1133654006
 20
11.8761644439
 30
0.0
 10
11.1133654006
 20
11.8750750639
 30
0.0
 10
11.1132655007
 20
11.8728577285
 30
0.0
 10
11.1128048453
 20
11.8694872178
 30
0.0
 10
11.1120110534
 20
11.8660101686
 30
0.0
 10
11.1112695194
 20
11.863686845
 30
0.0
 10
11.1108413157
 20
11.8625080364
 30
0.0
  0
SPLINE
  5
368
100
AcDbEntity
  8
0
100
AcDbSpline
 62
7
  6
CONTINUOUS
 70
0
 71
3
 72
41
 73
37
 74
0
 42
0.0000001
 43
0.0000001
 44
0.0000000001
 40
0.0
 40
0.0
 40
0.0
 40
0.0
 40
0.0299421689
 40
0.0599087154
 40
0.0899234217
 40
0.1200089011
 40
0.1501860597
 40
0.1804736107
 40
0.2108876533
 40
0.2414413269
 40
0.2721445469
 40
0.3030038242
 40
0.3340221695
 40
0.3651990796
 40
0.3965306028
 40
0.4280094739
 40
0.4596253147
 40
0.4913648909
 40
0.5232124193
 40
0.5551499155
 40
0.5871575776
 40
0.6192141968
 40
0.6512975879
 40
0.683385034
 40
0.7154537372
 40
0.7314764367
 40
0.7474861023
 40
0.7794508627
 40
0.8113324993
 40
0.8431123361
 40
0.8747737727
 40
0.9063026037
 40
0.9376875169
 40
0.9533255933
 40
0.9689249755
 40
1.0
 40
1.0
 40
1.0
 40
1.0
 10
9.5600414653
 20
7.4601682269
 30
0.0
 10
9.5666109763
 20
7.4665138585
 30
0.0
 10
9.5802666143
 20
7.4786929545
 30
0.0
 10
9.6021450227
 20
7.4952848402
 30
0.0
 10
9.6253066049
 20
7.5101168774
 30
0.0
 10
9.6496219271
 20
7.5231058807
 30
0.0
 10
9.6749573068
 20
7.5341808893
 30
0.0
 10
9.7011729198
 20
7.5432810277
 30
0.0
 10
9.7281243039
 20
7.5503565057
 30
0.0
 10
9.7556629779
 20
7.555368693
 30
0.0
 10
9.7836373204
 20
7.5582903601
 30
0.0
 10
9.8118933951
 20
7.5591057921
 30
0.0
 10
9.8402757993
 20
7.55781087
 30
0.0
 10
9.868628517
 20
7.5544130731
 30
0.0
 10
9.8967957681
 20
7.5489314102
 30
0.0
 10
9.9246228539
 20
7.5413963047
 30
0.0
 10
9.951956995
 20
7.5318494169
 30
0.0
 10
9.9786481566
 20
7.5203434091
 30
0.0
 10
10.0045498615
 20
7.5069416516
 30
0.0
 10
10.0295199773
 20
7.4917178794
 30
0.0
 10
10.0534215111
 20
7.4747557793
 30
0.0
 10
10.0761232855
 20
7.4561486002
 30
0.0
 10
10.0975008717
 20
7.4359983361
 30
0.0
 10
10.1174364322
 20
7.4144163269
 30
0.0
 10
10.1327630546
 20
7.395328534
 30
0.0
 10
10.1441981066
 20
7.3794627204
 30
0.0
 10
10.1550578608
 20
7.3632358821
 30
0.0
 10
10.1675434702
 20
7.3422941626
 30
0.0
 10
10.1807057273
 20
7.31623588
 30
0.0
 10
10.191969635
 20
7.2894019472
 30
0.0
 10
10.2012726923
 20
7.261940106
 30
0.0
 10
10.2085636511
 20
7.2340017992
 30
0.0
 10
10.2129347249
 20
7.2104188169
 30
0.0
 10
10.2153867943
 20
7.1914702277
 30
0.0
 10
10.2171367553
 20
7.1725397534
 30
0.0
 10
10.217666628
 20
7.1582947287
 30
0.0
 10
10.217666628
 20
7.148815398
 30
0.0
  0
SPLINE
  5
369
100
AcDbEntity
  8
0
100
AcDbSpline
 62
7
  6
CONTINUOUS
 70
0
 71
3
 72
39
 73
35
 74
0
 42
0.0000001
 43
0.0000001
 44
0.0000000001
 40
0.0
 40
0.0
 40
0.0
 40
0.0
 40
0.0299424683
 40
0.0599093148
 40
0.0899243219
 40
0.1200101034
 40
0.1501875656
 40
0.1804754221
 40
0.2108897722
 40
0.2414437551
 40
0.2721472861
 40
0.3030068757
 40
0.334025535
 40
0.3652027614
 40
0.3965346031
 40
0.4280137946
 40
0.459629957
 40
0.4913698552
 40
0.5232177051
 40
0.5551555222
 40
0.5871635048
 40
0.6192204442
 40
0.6513041551
 40
0.68339192
 40
0.7154609412
 40
0.7474887928
 40
0.7794538702
 40
0.8113358216
 40
0.8431159806
 40
0.8747777136
 40
0.9063069224
 40
0.9376919709
 40
0.9689249367
 40
1.0
 40
1.0
 40
1.0
 40
1.0
 10
11.8226631338
 20
11.1856129225
 30
0.0
 10
11.8258135139
 20
11.188655931
 30
0.0
 10
11.8323620387
 20
11.1944963138
 30
0.0
 10
11.8428537416
 20
11.2024528285
 30
0.0
 10
11.8539607821
 20
11.2095654152
 30
0.0
 10
11.8656210865
 20
11.215794188
 30
0.0
 10
11.8777705513
 20
11.2211051144
 30
0.0
 10
11.8903421247
 20
11.2254690014
 30
0.0
 10
11.9032665306
 20
11.2288619723
 30
0.0
 10
11.9164725655
 20
11.2312655029
 30
0.0
 10
11.9298875198
 20
11.2326665374
 30
0.0
 10
11.9434375743
 20
11.2330575433
 30
0.0
 10
11.9570482077
 20
11.2324365452
 30
0.0
 10
11.9706446037
 20
11.2308071258
 30
0.0
 10
11.9841520585
 20
11.2281783986
 30
0.0
 10
11.9974963867
 20
11.2245649519
 30
0.0
 10
12.0106043231
 20
11.2199867638
 30
0.0
 10
12.0234039194
 20
11.2144690901
 30
0.0
 10
12.0358249342
 20
11.2080423231
 30
0.0
 10
12.0477992122
 20
11.2007418233
 30
0.0
 10
12.0592610536
 20
11.1926077261
 30
0.0
 10
12.07014757
 20
11.1836847222
 30
0.0
 10
12.0803990251
 20
11.1740218137
 30
0.0
 10
12.0899591592
 20
11.1636720482
 30
0.0
 10
12.098775494
 20
11.1526922295
 30
0.0
 10
12.1067996189
 20
11.1411426097
 30
0.0
 10
12.113987452
 20
11.129086562
 30
0.0
 10
12.1202994865
 20
11.116590236
 30
0.0
 10
12.1257009905
 20
11.1037222062
 30
0.0
 10
12.1301622357
 20
11.0905530671
 30
0.0
 10
12.1336585762
 20
11.0771551865
 30
0.0
 10
12.1361707516
 20
11.0636018163
 30
0.0
 10
12.137684726
 20
11.0499684279
 30
0.0
 10
12.1380238455
 20
11.0408503862
 30
0.0
 10
12.1380238455
 20
11.0363046628
 30
0.0
  0
SPLINE
  5
36A
100
AcDbEntity
  8
0
100
AcDbSpline
 62
7
  6
CONTINUOUS
 70
0
 71
3
 72
39
 73
35
 74
0
 42
0.0000001
 43
0.0000001
 44
0.0000000001
 40
0.0
 40
0.0
 40
0.0
 40
0.0
 40
0.0299424683
 40
0.0599093148
 40
0.0899243219
 40
0.1200101034
 40
0.1501875656
 40
0.1804754221
 40
0.2108897722
 40
0.2414437551
 40
0.2721472861
 40
0.3030068757
 40
0.334025535
 40
0.3652027614
 40
0.3965346031
 40
0.4280137946
 40
0.459629957
 40
0.4913698552
 40
0.5232177051
 40
0.5551555222
 40
0.5871635048
 40
0.6192204442
 40
0.6513041551
 40
0.68339192
 40
0.7154609412
 40
0.7474887928
 40
0.7794538702
 40
0.8113358216
 40
0.8431159806
 40
0.8747777136
 40
0.9063069224
 40
0.9376919709
 40
0.9689249367
 40
1.0
 40
1.0
 40
1.0
 40
1.0
 10
9.6493298958
 20
6.1203343235
 30
0.0
 10
9.652480276
 20
6.1233773319
 30
0.0
 10
9.6590288007
 20
6.1292177148
 30
0.0
 10
9.6695205037
 20
6.1371742294
 30
0.0
 10
9.6806275442
 20
6.1442868161
 30
0.0
 10
9.6922878486
 20
6.1505155889
 30
0.0
 10
9.7044373134
 20
6.1558265153
 30
0.0
 10
9.7170088868
 20
6.1601904023
 30
0.0
 10
9.7299332927
 20
6.1635833732
 30
0.0
 10
9.7431393275
 20
6.1659869039
 30
0.0
 10
9.7565542819
 20
6.1673879383
 30
0.0
 10
9.7701043364
 20
6.1677789443
 30
0.0
 10
9.7837149698
 20
6.1671579462
 30
0.0
 10
9.7973113658
 20
6.1655285267
 30
0.0
 10
9.8108188206
 20
6.1628997996
 30
0.0
 10
9.8241631488
 20
6.1592863529
 30
0.0
 10
9.8372710851
 20
6.1547081647
 30
0.0
 10
9.8500706815
 20
6.1491904911
 30
0.0
 10
9.8624916963
 20
6.142763724
 30
0.0
 10
9.8744659743
 20
6.1354632243
 30
0.0
 10
9.8859278157
 20
6.1273291271
 30
0.0
 10
9.8968143321
 20
6.1184061231
 30
0.0
 10
9.9070657872
 20
6.1087432147
 30
0.0
 10
9.9166259213
 20
6.0983934492
 30
0.0
 10
9.9254422561
 20
6.0874136304
 30
0.0
 10
9.9334663809
 20
6.0758640106
 30
0.0
 10
9.9406542141
 20
6.063807963
 30
0.0
 10
9.9469662486
 20
6.0513116369
 30
0.0
 10
9.9523677525
 20
6.0384436072
 30
0.0
 10
9.9568289978
 20
6.0252744681
 30
0.0
 10
9.9603253382
 20
6.0118765875
 30
0.0
 10
9.9628375136
 20
5.9983232172
 30
0.0
 10
9.9643514881
 20
5.9846898288
 30
0.0
 10
9.9646906076
 20
5.9755717872
 30
0.0
 10
9.9646906076
 20
5.9710260637
 30
0.0
  0
SPLINE
  5
36B
100
AcDbEntity
  8
0
100
AcDbSpline
 62
7
  6
CONTINUOUS
 70
0
 71
3
 72
82
 73
78
 74
0
 42
0.0000001
 43
0.0000001
 44
0.0000000001
 40
0.0
 40
0.0
 40
0.0
 40
0.0
 40
0.0027164293
 40
0.0054532352
 40
0.0082303039
 40
0.0110666017
 40
0.0139798083
 40
0.0169861229
 40
0.0201000879
 40
0.0233346065
 40
0.0267009682
 40
0.0302089184
 40
0.0338668424
 40
0.037681809
 40
0.0416597867
 40
0.0458057216
 40
0.0501236475
 40
0.0546168506
 40
0.0592878619
 40
0.0641386413
 40
0.0691705739
 40
0.0743845478
 40
0.0797810495
 40
0.0853601154
 40
0.0970639755
 40
0.1094907276
 40
0.1226299755
 40
0.1364676385
 40
0.1509864523
 40
0.1661663556
 40
0.1819848033
 40
0.198417037
 40
0.2154363025
 40
0.2330140358
 40
0.2511200237
 40
0.2697225441
 40
0.2887885095
 40
0.3082835936
 40
0.3281723476
 40
0.3484183114
 40
0.3689841164
 40
0.3898315949
 40
0.4109218859
 40
0.4536718839
 40
0.4969138843
 40
0.5403221633
 40
0.5835694113
 40
0.6263298543
 40
0.6474272888
 40
0.668283168
 40
0.6888586078
 40
0.7091154181
 40
0.7290162075
 40
0.7485244842
 40
0.7676047632
 40
0.7862226768
 40
0.8043450949
 40
0.8219402576
 40
0.8389779015
 40
0.8554294043
 40
0.8712679467
 40
0.8864686995
 40
0.901009051
 40
0.9148688601
 40
0.9280307634
 40
0.9404805673
 40
0.9522077427
 40
0.9577985182
 40
0.9632067335
 40
0.9684324298
 40
0.9734760263
 40
0.9783383919
 40
0.9830208436
 40
0.98752538
 40
0.991854594
 40
0.9960115787
 40
1.0
 40
1.0
 40
1.0
 40
1.0
 10
13.5535170644
 20
8.6900957145
 30
0.0
 10
13.5520472934
 20
8.6901976487
 30
0.0
 10
13.5491042567
 20
8.6905353485
 30
0.0
 10
13.5447271683
 20
8.6914389195
 30
0.0
 10
13.5403831557
 20
8.6927394094
 30
0.0
 10
13.5360753364
 20
8.6944355998
 30
0.0
 10
13.5318058904
 20
8.6965258839
 30
0.0
 10
13.5275770672
 20
8.6990087444
 30
0.0
 10
13.5233907617
 20
8.7018823168
 30
0.0
 10
13.5192488566
 20
8.7051448231
 30
0.0
 10
13.5151531658
 20
8.7087943742
 30
0.0
 10
13.5111053864
 20
8.7128289141
 30
0.0
 10
13.5071073807
 20
8.7172464216
 30
0.0
 10
13.5031608322
 20
8.722044581
 30
0.0
 10
13.4992675829
 20
8.7272210446
 30
0.0
 10
13.4954294291
 20
8.7327732477
 30
0.0
 10
13.4916481216
 20
8.738698432
 30
0.0
 10
13.4879255498
 20
8.7449937249
 30
0.0
 10
13.4842634167
 20
8.7516559808
 30
0.0
 10
13.4806635737
 20
8.7586819412
 30
0.0
 10
13.477127764
 20
8.7660681198
 30
0.0
 10
13.4736577169
 20
8.7738108447
 30
0.0
 10
13.470255178
 20
8.7819063026
 30
0.0
 10
13.4657384607
 20
8.7933484866
 30
0.0
 10
13.4602910536
 20
8.8085180652
 30
0.0
 10
13.4541495868
 20
8.8277803591
 30
0.0
 10
13.448315762
 20
8.8483434337
 30
0.0
 10
13.4428013592
 20
8.8701662203
 30
0.0
 10
13.4376175672
 20
8.8932053968
 30
0.0
 10
13.4327749201
 20
8.9174149613
 30
0.0
 10
13.4282832615
 20
8.9427465057
 30
0.0
 10
13.4241517313
 20
8.9691492944
 30
0.0
 10
13.4203887394
 20
8.9965703976
 30
0.0
 10
13.4170019483
 20
9.0249548028
 30
0.0
 10
13.4139982578
 20
9.0542455278
 30
0.0
 10
13.4113837772
 20
9.0843837397
 30
0.0
 10
13.4091638274
 20
9.1153088818
 30
0.0
 10
13.4073429305
 20
9.1469588043
 30
0.0
 10
13.405924801
 20
9.1792698904
 30
0.0
 10
13.4049123376
 20
9.2121771877
 30
0.0
 10
13.4043076223
 20
9.2456145162
 30
0.0
 10
13.4041118617
 20
9.2795146912
 30
0.0
 10
13.404398149
 20
9.3254465492
 30
0.0
 10
13.4057871818
 20
9.383513509
 30
0.0
 10
13.4090607651
 20
9.4536253123
 30
0.0
 10
13.4139227354
 20
9.5239154537
 30
0.0
 10
13.4203340202
 20
9.5938187535
 30
0.0
 10
13.4269537406
 20
9.6515363327
 30
0.0
 10
13.4329949807
 20
9.6970842849
 30
0.0
 10
13.4378572141
 20
9.7306483268
 30
0.0
 10
13.4430609287
 20
9.7636996487
 30
0.0
 10
13.4485956731
 20
9.7961718425
 30
0.0
 10
13.4544502652
 20
9.8279996132
 30
0.0
 10
13.4606128928
 20
9.8591189864
 30
0.0
 10
13.4670711165
 20
9.8894674149
 30
0.0
 10
13.4738118999
 20
9.9189839118
 30
0.0
 10
13.4808216342
 20
9.9476091798
 30
0.0
 10
13.488086154
 20
9.9752857389
 30
0.0
 10
13.4955907796
 20
10.0019580432
 30
0.0
 10
13.5033203452
 20
10.0275725924
 30
0.0
 10
13.51125923
 20
10.0520780467
 30
0.0
 10
13.5193913969
 20
10.0754253413
 30
0.0
 10
13.5277004172
 20
10.0975678195
 30
0.0
 10
13.5361695159
 20
10.1184612981
 30
0.0
 10
13.5447816443
 20
10.1380643242
 30
0.0
 10
13.5535194703
 20
10.1563377554
 30
0.0
 10
13.5610057489
 20
10.1706472454
 30
0.0
 10
13.567056557
 20
10.1813867153
 30
0.0
 10
13.5715427681
 20
10.1889578891
 30
0.0
 10
13.5760472594
 20
10.1961706483
 30
0.0
 10
13.5805678605
 20
10.2030213899
 30
0.0
 10
13.5851022357
 20
10.2095067364
 30
0.0
 10
13.5896482506
 20
10.215623454
 30
0.0
 10
13.5942036688
 20
10.2213686005
 30
0.0
 10
13.5987663878
 20
10.2267393571
 30
0.0
 10
13.6033339415
 20
10.2317328077
 30
0.0
 10
13.6064440028
 20
10.2348725332
 30
0.0
 10
13.6079998855
 20
10.2363754006
 30
0.0
  0
SPLINE
  5
36C
100
AcDbEntity
  8
0
100
AcDbSpline
 62
7
  6
CONTINUOUS
 70
0
 71
3
 72
59
 73
55
 74
0
 42
0.0000001
 43
0.0000001
 44
0.0000000001
 40
0.0
 40
0.0
 40
0.0
 40
0.0
 40
0.0075208311
 40
0.0156241766
 40
0.0243311007
 40
0.0336549386
 40
0.0436028077
 40
0.0541768317
 40
0.0653749453
 40
0.0771915599
 40
0.08961816
 40
0.10264364
 40
0.1162546046
 40
0.1304357049
 40
0.1451697937
 40
0.1604380695
 40
0.1762203028
 40
0.1924949219
 40
0.2092390877
 40
0.2264288677
 40
0.2440392968
 40
0.2620444227
 40
0.2991300734
 40
0.337463055
 40
0.3768093382
 40
0.4169265582
 40
0.4575661491
 40
0.4984753803
 40
0.5393993789
 40
0.5800831581
 40
0.6202736296
 40
0.6597216473
 40
0.6981840261
 40
0.7354256484
 40
0.7535183302
 40
0.7712224299
 40
0.7885118037
 40
0.8053612647
 40
0.8217466086
 40
0.8376447426
 40
0.8530338123
 40
0.8678932395
 40
0.8822038834
 40
0.8959482262
 40
0.9091104572
 40
0.9216767058
 40
0.9336353451
 40
0.9449771968
 40
0.955695942
 40
0.9657887114
 40
0.9752565152
 40
0.9841051685
 40
0.9923468893
 40
1.0
 40
1.0
 40
1.0
 40
1.0
 10
13.5161376153
 20
8.9068431167
 30
0.0
 10
13.5142667757
 20
8.9091434283
 30
0.0
 10
13.5105806466
 20
8.9140872852
 30
0.0
 10
13.5053932869
 20
8.9221633319
 30
0.0
 10
13.5003540451
 20
8.9311564645
 30
0.0
 10
13.4954709096
 20
8.9410519401
 30
0.0
 10
13.4907512326
 20
8.9518343543
 30
0.0
 10
13.4862026393
 20
8.9634864373
 30
0.0
 10
13.481832522
 20
8.9759894033
 30
0.0
 10
13.4776480548
 20
8.9893229021
 30
0.0
 10
13.4736562163
 20
9.0034651401
 30
0.0
 10
13.469863675
 20
9.0183928922
 30
0.0
 10
13.466276743
 20
9.0340815589
 30
0.0
 10
13.4629014546
 20
9.0505052454
 30
0.0
 10
13.4597434844
 20
9.0676367949
 30
0.0
 10
13.4568080998
 20
9.0854478361
 30
0.0
 10
13.4541002446
 20
9.1039088564
 30
0.0
 10
13.451624482
 20
9.1229892435
 30
0.0
 10
13.4493849349
 20
9.1426573368
 30
0.0
 10
13.4473853844
 20
9.1628804834
 30
0.0
 10
13.445629169
 20
9.1836251388
 30
0.0
 10
13.4435960513
 20
9.212215668
 30
0.0
 10
13.4417004812
 20
9.2490028083
 30
0.0
 10
13.4404528413
 20
9.2942348802
 30
0.0
 10
13.4402196257
 20
9.3406786369
 30
0.0
 10
13.4410026497
 20
9.388025609
 30
0.0
 10
13.4427970161
 20
9.435961548
 30
0.0
 10
13.4455909829
 20
9.4841681582
 30
0.0
 10
13.4493660254
 20
9.5323253482
 30
0.0
 10
13.4540970443
 20
9.5801133555
 30
0.0
 10
13.4597525026
 20
9.6272148823
 30
0.0
 10
13.4662945576
 20
9.6733173426
 30
0.0
 10
13.4736794916
 20
9.7181145619
 30
0.0
 10
13.480559129
 20
9.7544519602
 30
0.0
 10
13.4864615052
 20
9.782636205
 30
0.0
 10
13.4910242176
 20
9.8030623716
 30
0.0
 10
13.4957577447
 20
9.8229461564
 30
0.0
 10
13.5006542075
 20
9.8422545799
 30
0.0
 10
13.5057054447
 20
9.8609555839
 30
0.0
 10
13.5109030403
 20
9.8790181423
 30
0.0
 10
13.5162382917
 20
9.8964123133
 30
0.0
 10
13.5217023111
 20
9.9131092695
 30
0.0
 10
13.5272859971
 20
9.9290813637
 30
0.0
 10
13.5329800038
 20
9.944302198
 30
0.0
 10
13.5387748522
 20
9.9587466399
 30
0.0
 10
13.5446609182
 20
9.9723908855
 30
0.0
 10
13.5506283897
 20
9.9852125384
 30
0.0
 10
13.5566673987
 20
9.997190618
 30
0.0
 10
13.5627680344
 20
10.0083056195
 30
0.0
 10
13.5689203459
 20
10.0185396013
 30
0.0
 10
13.5751143807
 20
10.0278761086
 30
0.0
 10
13.5813407068
 20
10.036300639
 30
0.0
 10
13.5875892893
 20
10.0437991762
 30
0.0
 10
13.5919204226
 20
10.0483371734
 30
0.0
 10
13.5940905521
 20
10.0504333577
 30
0.0
  0
SPLINE
  5
36D
100
AcDbEntity
  8
0
100
AcDbSpline
 62
7
  6
CONTINUOUS
 70
0
 71
3
 72
11
 73
7
 74
0
 42
0.0000001
 43
0.0000001
 44
0.0000000001
 40
0.0
 40
0.0
 40
0.0
 40
0.0
 40
0.2451380271
 40
0.4922507181
 40
0.7432623171
 40
1.0
 40
1.0
 40
1.0
 40
1.0
 10
13.5086064982
 20
8.9367939384
 30
0.0
 10
13.5075530461
 20
8.9368669998
 30
0.0
 10
13.5054432146
 20
8.9371125776
 30
0.0
 10
13.5023065599
 20
8.937776069
 30
0.0
 10
13.4991949357
 20
8.938734456
 30
0.0
 10
13.4971655186
 20
8.939558375
 30
0.0
 10
13.4961585523
 20
8.9400156993
 30
0.0
  0
SPLINE
  5
36E
100
AcDbEntity
  8
0
100
AcDbSpline
 62
7
  6
CONTINUOUS
 70
0
 71
3
 72
11
 73
7
 74
0
 42
0.0000001
 43
0.0000001
 44
0.0000000001
 40
0.0
 40
0.0
 40
0.0
 40
0.0
 40
0.2451310522
 40
0.4922396317
 40
0.7432522117
 40
1.0
 40
1.0
 40
1.0
 40
1.0
 10
13.5839479436
 20
10.0231845588
 30
0.0
 10
13.5828937302
 20
10.023257673
 30
0.0
 10
13.5807686417
 20
10.0233056563
 30
0.0
 10
13.5775680893
 20
10.0230809573
 30
0.0
 10
13.574351588
 20
10.0225603937
 30
0.0
 10
13.5722263385
 20
10.0220236113
 30
0.0
 10
13.5711651247
 20
10.0217091491
 30
0.0
  0
SPLINE
  5
36F
100
AcDbEntity
  8
0
100
AcDbSpline
 62
7
  6
CONTINUOUS
 70
0
 71
3
 72
11
 73
7
 74
0
 42
0.0000001
 43
0.0000001
 44
0.0000000001
 40
0.0
 40
0.0
 40
0.0
 40
0.0
 40
0.2523606205
 40
0.5030733183
 40
0.7522377995
 40
1.0
 40
1.0
 40
1.0
 40
1.0
 10
9.7891300043
 20
7.3207807811
 30
0.0
 10
9.7891300043
 20
7.3265968948
 30
0.0
 10
9.7896822141
 20
7.338199013
 30
0.0
 10
9.7921797996
 20
7.3553816641
 30
0.0
 10
9.7963206665
 20
7.3721351167
 30
0.0
 10
9.8001640719
 20
7.3829473344
 30
0.0
 10
9.8023442927
 20
7.3882248599
 30
0.0
  0
SPLINE
  5
370
100
AcDbEntity
  8
0
100
AcDbSpline
 62
7
  6
CONTINUOUS
 70
0
 71
3
 72
45
 73
41
 74
0
 42
0.0000001
 43
0.0000001
 44
0.0000000001
 40
0.0
 40
0.0
 40
0.0
 40
0.0
 40
0.0234201688
 40
0.0452789911
 40
0.0657274003
 40
0.084958819
 40
0.0941960288
 40
0.1032230178
 40
0.112076981
 40
0.1207976095
 40
0.1294265994
 40
0.1380071471
 40
0.1465832415
 40
0.1551989531
 40
0.1638976808
 40
0.1727214862
 40
0.1817105091
 40
0.1909024453
 40
0.2100236833
 40
0.2303398604
 40
0.2520489334
 40
0.2753059113
 40
0.3002286355
 40
0.3269039819
 40
0.3553934513
 40
0.385737775
 40
0.4179605692
 40
0.4520713747
 40
0.4880679813
 40
0.5259381658
 40
0.5656610734
 40
0.6072084325
 40
0.6505454599
 40
0.6956315136
 40
0.7424206475
 40
0.7908623718
 40
0.8409018276
 40
0.8924796049
 40
0.945535409
 40
1.0
 40
1.0
 40
1.0
 40
1.0
 10
9.2090894573
 20
11.89795805
 30
0.0
 10
9.2057287585
 20
11.901085532
 30
0.0
 10
9.1994437896
 20
11.9073677117
 30
0.0
 10
9.191127336
 20
11.917230743
 30
0.0
 10
9.1842749678
 20
11.927183793
 30
0.0
 10
9.179737063
 20
11.9356589444
 30
0.0
 10
9.1768959477
 20
11.9424423263
 30
0.0
 10
9.1751669431
 20
11.9474732797
 30
0.0
 10
9.1738126708
 20
11.9525131159
 30
0.0
 10
9.1728337552
 20
11.9575598925
 30
0.0
 10
9.1722309807
 20
11.9626114403
 30
0.0
 10
9.1720046898
 20
11.9676655077
 30
0.0
 10
9.1721549979
 20
11.9727198109
 30
0.0
 10
9.1726819252
 20
11.9777720428
 30
0.0
 10
9.1735849899
 20
11.9828199661
 30
0.0
 10
9.1748636165
 20
11.9878613666
 30
0.0
 10
9.1765171714
 20
11.992894285
 30
0.0
 10
9.1792557137
 20
11.9996789149
 30
0.0
 10
9.1836658274
 20
12.0081582622
 30
0.0
 10
9.1903696458
 20
12.0181197946
 30
0.0
 10
9.1985395048
 20
12.0279928256
 30
0.0
 10
9.2081606033
 20
12.0377659008
 30
0.0
 10
9.219218381
 20
12.047428925
 30
0.0
 10
9.231696954
 20
12.0569703789
 30
0.0
 10
9.2455788197
 20
12.0663781949
 30
0.0
 10
9.2608444722
 20
12.0756397641
 30
0.0
 10
9.2774722664
 20
12.0847422728
 30
0.0
 10
9.2954384398
 20
12.0936727851
 30
0.0
 10
9.3147171351
 20
12.1024183876
 30
0.0
 10
9.3352804192
 20
12.1109663038
 30
0.0
 10
9.3570983313
 20
12.1193039874
 30
0.0
 10
9.3801389797
 20
12.1274191245
 30
0.0
 10
9.4043686026
 20
12.1352996803
 30
0.0
 10
9.4297515976
 20
12.1429339615
 30
0.0
 10
9.4562506127
 20
12.1503106519
 30
0.0
 10
9.4838266211
 20
12.1574187798
 30
0.0
 10
9.512438866
 20
12.1642477306
 30
0.0
 10
9.5420454265
 20
12.1707874742
 30
0.0
 10
9.5726021413
 20
12.1770281066
 30
0.0
 10
9.5933141017
 20
12.180933505
 30
0.0
 10
9.6038190848
 20
12.1828372914
 30
0.0
  0
SPLINE
  5
371
100
AcDbEntity
  8
0
100
AcDbSpline
 62
7
  6
CONTINUOUS
 70
0
 71
3
 72
45
 73
41
 74
0
 42
0.0000001
 43
0.0000001
 44
0.0000000001
 40
0.0
 40
0.0
 40
0.0
 40
0.0
 40
0.017828842
 40
0.0264745149
 40
0.0349756405
 40
0.0433620336
 40
0.0516648879
 40
0.0599164185
 40
0.0681495151
 40
0.076397308
 40
0.0846927318
 40
0.0930681189
 40
0.1015547698
 40
0.1101826612
 40
0.1189801973
 40
0.1371819434
 40
0.1563569355
 40
0.1766631436
 40
0.1982290096
 40
0.221156459
 40
0.2455245356
 40
0.2713931267
 40
0.2988057928
 40
0.327792621
 40
0.3583724164
 40
0.3905542149
 40
0.4243390244
 40
0.4597207645
 40
0.4966871514
 40
0.5352206895
 40
0.5752989667
 40
0.6168953606
 40
0.659979495
 40
0.704517293
 40
0.7504717141
 40
0.7978028357
 40
0.8464673259
 40
0.8964202262
 40
0.9476160703
 40
1.0
 40
1.0
 40
1.0
 40
1.0
 10
9.2553202423
 20
11.864141286
 30
0.0
 10
9.2539903882
 20
11.866804787
 30
0.0
 10
9.2522201821
 20
11.8708690481
 30
0.0
 10
9.2503708538
 20
11.8764114379
 30
0.0
 10
9.249268409
 20
11.8805329108
 30
0.0
 10
9.2484373883
 20
11.8846590897
 30
0.0
 10
9.2478779718
 20
11.8887888683
 30
0.0
 10
9.2475905141
 20
11.8929208228
 30
0.0
 10
9.2475751836
 20
11.8970535645
 30
0.0
 10
9.2478319016
 20
11.9011856792
 30
0.0
 10
9.2483605747
 20
11.9053157703
 30
0.0
 10
9.2491610196
 20
11.9094424529
 30
0.0
 10
9.2502327607
 20
11.9135643734
 30
0.0
 10
9.2515754051
 20
11.9176803479
 30
0.0
 10
9.2537503485
 20
11.9232206005
 30
0.0
 10
9.2571779142
 20
11.9301454392
 30
0.0
 10
9.2623179872
 20
11.9383081767
 30
0.0
 10
9.2685225581
 20
11.9464120144
 30
0.0
 10
9.2757826271
 20
11.95444899
 30
0.0
 10
9.2840892418
 20
11.962412268
 30
0.0
 10
9.2934327412
 20
11.970294375
 30
0.0
 10
9.3038027254
 20
11.9780874663
 30
0.0
 10
9.3151876355
 20
11.9857835339
 30
0.0
 10
9.3275748234
 20
11.9933743415
 30
0.0
 10
9.3409504741
 20
12.000851502
 30
0.0
 10
9.3552995191
 20
12.0082067351
 30
0.0
 10
9.3706057611
 20
12.0154316741
 30
0.0
 10
9.3868518176
 20
12.0225180712
 30
0.0
 10
9.4040191537
 20
12.0294578423
 30
0.0
 10
9.4220881576
 20
12.0362429279
 30
0.0
 10
9.4410381067
 20
12.0428655266
 30
0.0
 10
9.4608472405
 20
12.0493179807
 30
0.0
 10
9.4814927833
 20
12.0555927607
 30
0.0
 10
9.5029509545
 20
12.0616826493
 30
0.0
 10
9.5251970531
 20
12.0675805532
 30
0.0
 10
9.5482053785
 20
12.0732795903
 30
0.0
 10
9.5719493451
 20
12.0787732086
 30
0.0
 10
9.5964018776
 20
12.0840550437
 30
0.0
 10
9.6215342566
 20
12.0891188311
 30
0.0
 10
9.6385335251
 20
12.0923099083
 30
0.0
 10
9.6471403303
 20
12.0938696936
 30
0.0
  0
SPLINE
  5
372
100
AcDbEntity
  8
0
100
AcDbSpline
 62
7
  6
CONTINUOUS
 70
0
 71
3
 72
57
 73
53
 74
0
 42
0.0000001
 43
0.0000001
 44
0.0000000001
 40
0.0
 40
0.0
 40
0.0
 40
0.0
 40
0.0026707129
 40
0.0053521983
 40
0.0080550836
 40
0.0107897235
 40
0.0135660894
 40
0.0163936513
 40
0.0222352009
 40
0.0252673712
 40
0.0283826313
 40
0.03488576
 40
0.0417902241
 40
0.0491309307
 40
0.0569350589
 40
0.0652232609
 40
0.0740107557
 40
0.0833081307
 40
0.0931221717
 40
0.103456437
 40
0.1143116873
 40
0.1256863743
 40
0.1375768696
 40
0.1499777378
 40
0.1628820011
 40
0.1762812095
 40
0.1901656619
 40
0.2045245165
 40
0.2193458268
 40
0.2346167225
 40
0.250323421
 40
0.2664512942
 40
0.2829849887
 40
0.2999083976
 40
0.3348560741
 40
0.3711538615
 40
0.4086519992
 40
0.4471933788
 40
0.4866146812
 40
0.526747472
 40
0.5674192422
 40
0.6084544238
 40
0.649675406
 40
0.6909035415
 40
0.7319601408
 40
0.7726674747
 40
0.8128497794
 40
0.8523342587
 40
0.8909521024
 40
0.9285396043
 40
0.9649388605
 40
1.0
 40
1.0
 40
1.0
 40
1.0
 10
11.1133653872
 20
11.8761644439
 30
0.0
 10
11.1133653935
 20
11.8775308774
 30
0.0
 10
11.1132750413
 20
11.8802701086
 30
0.0
 10
11.1128686948
 20
11.8843741024
 30
0.0
 10
11.1121917203
 20
11.8884754966
 30
0.0
 10
11.1112444544
 20
11.8925726691
 30
0.0
 10
11.1100271489
 20
11.8966645012
 30
0.0
 10
11.1080237027
 20
11.9021700197
 30
0.0
 10
11.1054875212
 20
11.9076090558
 30
0.0
 10
11.10247076
 20
11.9129519728
 30
0.0
 10
11.0990112667
 20
11.9184252957
 30
0.0
 10
11.0939884679
 20
11.9252402807
 30
0.0
 10
11.0869929035
 20
11.9332386876
 30
0.0
 10
11.078953165
 20
11.9411655558
 30
0.0
 10
11.0698791435
 20
11.9490129795
 30
0.0
 10
11.0597809793
 20
11.9567734608
 30
0.0
 10
11.0486699266
 20
11.9644388856
 30
0.0
 10
11.0365584152
 20
11.9720011513
 30
0.0
 10
11.0234600047
 20
11.9794519305
 30
0.0
 10
11.0093894496
 20
11.9867828562
 30
0.0
 10
10.9943627329
 20
11.9939856828
 30
0.0
 10
10.9783969561
 20
12.0010521122
 30
0.0
 10
10.9615103937
 20
12.0079740207
 30
0.0
 10
10.9437224374
 20
12.0147434365
 30
0.0
 10
10.9250535399
 20
12.0213524466
 30
0.0
 10
10.9055252398
 20
12.0277934164
 30
0.0
 10
10.8851600862
 20
12.0340588436
 30
0.0
 10
10.8639816174
 20
12.0401413927
 30
0.0
 10
10.8420143525
 20
12.046034028
 30
0.0
 10
10.8192837273
 20
12.0517298425
 30
0.0
 10
10.7958160804
 20
12.0572221967
 30
0.0
 10
10.7716386315
 20
12.0625047087
 30
0.0
 10
10.7467793849
 20
12.0675712192
 30
0.0
 10
10.7123945771
 20
12.0741004908
 30
0.0
 10
10.6679163832
 20
12.0816563963
 30
0.0
 10
10.6128563436
 20
12.0896812377
 30
0.0
 10
10.5558087303
 20
12.0967201459
 30
0.0
 10
10.4970383185
 20
12.1027401029
 30
0.0
 10
10.4368176126
 20
12.1077128183
 30
0.0
 10
10.3754260456
 20
12.1116149476
 30
0.0
 10
10.3131485158
 20
12.1144281615
 30
0.0
 10
10.2502740892
 20
12.1161392645
 30
0.0
 10
10.1870946293
 20
12.1167402401
 30
0.0
 10
10.1239034287
 20
12.1162282682
 30
0.0
 10
10.0609938347
 20
12.1146057361
 30
0.0
 10
9.9986578733
 20
12.1118802619
 30
0.0
 10
9.9371848841
 20
12.1080646421
 30
0.0
 10
9.8768601504
 20
12.1031767801
 30
0.0
 10
9.8179635873
 20
12.0972396196
 30
0.0
 10
9.7607683462
 20
12.0902810392
 30
0.0
 10
9.7055399152
 20
12.0823338452
 30
0.0
 10
9.669478471
 20
12.0762799791
 30
0.0
 10
9.6518274383
 20
12.0730811357
 30
0.0
  0
SPLINE
  5
373
100
AcDbEntity
  8
0
100
AcDbSpline
 62
7
  6
CONTINUOUS
 70
0
 71
3
 72
77
 73
73
 74
0
 42
0.0000001
 43
0.0000001
 44
0.0000000001
 40
0.0
 40
0.0
 40
0.0
 40
0.0
 40
0.0039252601
 40
0.0080125218
 40
0.0122652465
 40
0.0166863533
 40
0.0212783121
 40
0.0260430744
 40
0.0309819545
 40
0.0360958186
 40
0.0413851451
 40
0.0468500211
 40
0.0583048032
 40
0.0704555318
 40
0.0832928933
 40
0.0968041365
 40
0.1109735249
 40
0.1257826881
 40
0.1412109317
 40
0.1572354866
 40
0.1738317099
 40
0.1909732467
 40
0.2086321775
 40
0.2267791713
 40
0.2453836081
 40
0.2644136898
 40
0.2838365362
 40
0.3036182968
 40
0.3237242547
 40
0.3647653909
 40
0.4066691027
 40
0.4491357392
 40
0.4918604706
 40
0.534536109
 40
0.5768559105
 40
0.6185163972
 40
0.639006506
 40
0.6592209031
 40
0.6791238408
 40
0.6986803122
 40
0.7178561426
 40
0.7366180875
 40
0.7549339474
 40
0.7727726645
 40
0.7901044283
 40
0.8069007934
 40
0.8231348218
 40
0.8387812355
 40
0.853816567
 40
0.8682193465
 40
0.8819703303
 40
0.8950527945
 40
0.9074528617
 40
0.9191599164
 40
0.9301671516
 40
0.9354077593
 40
0.9404730105
 40
0.9453634833
 40
0.9500801681
 40
0.954624564
 40
0.9589986378
 40
0.9632049919
 40
0.9672468762
 40
0.9711282669
 40
0.9748540317
 40
0.9784299383
 40
0.9818628493
 40
0.9851608102
 40
0.9883331391
 40
0.9943418081
 40
0.9972077265
 40
1.0
 40
1.0
 40
1.0
 40
1.0
 10
13.5940905521
 20
8.7160067496
 30
0.0
 10
13.5956091671
 20
8.7174736191
 30
0.0
 10
13.5986448256
 20
8.7205350061
 30
0.0
 10
13.603105361
 20
8.725397954
 30
0.0
 10
13.6075614233
 20
8.7306208524
 30
0.0
 10
13.6120106706
 20
8.7362009956
 30
0.0
 10
13.6164511555
 20
8.7421357431
 30
0.0
 10
13.6208807882
 20
8.7484223879
 30
0.0
 10
13.6252975798
 20
8.755057948
 30
0.0
 10
13.629699395
 20
8.7620392867
 30
0.0
 10
13.634084148
 20
8.769363104
 30
0.0
 10
13.639997946
 20
8.7797435815
 30
0.0
 10
13.6473181
 20
8.7935659084
 30
0.0
 10
13.655868948
 20
8.8112089142
 30
0.0
 10
13.664302615
 20
8.8301258395
 30
0.0
 10
13.6726029255
 20
8.8502806673
 30
0.0
 10
13.680753943
 20
8.8716352786
 30
0.0
 10
13.6887399943
 20
8.8941490309
 30
0.0
 10
13.6965457058
 20
8.9177790171
 30
0.0
 10
13.7041560389
 20
8.9424801324
 30
0.0
 10
13.7115563234
 20
8.9682051817
 30
0.0
 10
13.7187322968
 20
8.9949049633
 30
0.0
 10
13.7256701436
 20
9.0225283693
 30
0.0
 10
13.7323565014
 20
9.0510225018
 30
0.0
 10
13.738778492
 20
9.0803327823
 30
0.0
 10
13.7449237458
 20
9.1104030564
 30
0.0
 10
13.750780427
 20
9.1411756783
 30
0.0
 10
13.7563373209
 20
9.1725916981
 30
0.0
 10
13.7633803558
 20
9.2155502547
 30
0.0
 10
13.771342681
 20
9.2704115932
 30
0.0
 10
13.7794853086
 20
9.3373820791
 30
0.0
 10
13.7862167421
 20
9.4054191906
 30
0.0
 10
13.7914851825
 20
9.4740014598
 30
0.0
 10
13.7952502507
 20
9.5426036643
 30
0.0
 10
13.797483094
 20
9.6106999749
 30
0.0
 10
13.798056427
 20
9.6668965041
 30
0.0
 10
13.7977233503
 20
9.711199761
 30
0.0
 10
13.7970848638
 20
9.7437947256
 30
0.0
 10
13.7960577303
 20
9.7758773054
 30
0.0
 10
13.7946439167
 20
9.8073860376
 30
0.0
 10
13.792846181
 20
9.8382604973
 30
0.0
 10
13.7906680038
 20
9.8684415009
 30
0.0
 10
13.7881136226
 20
9.8978712057
 30
0.0
 10
13.785187999
 20
9.9264932275
 30
0.0
 10
13.7818968096
 20
9.9542527404
 30
0.0
 10
13.7782464325
 20
9.981096587
 30
0.0
 10
13.7742439459
 20
10.0069733958
 30
0.0
 10
13.7698971251
 20
10.0318336893
 30
0.0
 10
13.7652144029
 20
10.0556299801
 30
0.0
 10
13.7602048577
 20
10.0783168609
 30
0.0
 10
13.7548781812
 20
10.0998511279
 30
0.0
 10
13.7492446827
 20
10.1201918493
 30
0.0
 10
13.7433152259
 20
10.1393006329
 30
0.0
 10
13.7371011956
 20
10.1571411424
 30
0.0
 10
13.7316093041
 20
10.1711442578
 30
0.0
 10
13.727068428
 20
10.1816717561
 30
0.0
 10
13.7236548969
 20
10.1890997985
 30
0.0
 10
13.7201792992
 20
10.1961864825
 30
0.0
 10
13.7166431797
 20
10.2029284513
 30
0.0
 10
13.7130482841
 20
10.2093225546
 30
0.0
 10
13.7093961949
 20
10.2153657469
 30
0.0
 10
13.7056886379
 20
10.2210552076
 30
0.0
 10
13.70192731
 20
10.2263882751
 30
0.0
 10
13.6981138225
 20
10.2313623982
 30
0.0
 10
13.6942499617
 20
10.2359752824
 30
0.0
 10
13.6903372757
 20
10.2402247049
 30
0.0
 10
13.686377615
 20
10.2441085208
 30
0.0
 10
13.6823720977
 20
10.2476251696
 30
0.0
 10
13.6770705289
 20
10.251746121
 30
0.0
 10
13.6715786696
 20
10.2552325753
 30
0.0
 10
13.6659312125
 20
10.2579803155
 30
0.0
 10
13.6630948658
 20
10.2590950225
 30
0.0
 10
13.6616753939
 20
10.2595858829
 30
0.0
  0
LINE
  5
374
100
AcDbEntity
  8
0
100
AcDbLine
 62
7
  6
CONTINUOUS
 10
13.6616753939
 20
10.2595858829
 11
13.6614079743
 21
10.2596775784
  0
SPLINE
  5
375
100
AcDbEntity
  8
0
100
AcDbSpline
 62
7
  6
CONTINUOUS
 70
0
 71
3
 72
15
 73
11
 74
0
 42
0.0000001
 43
0.0000001
 44
0.0000000001
 40
0.0
 40
0.0
 40
0.0
 40
0.0
 40
0.1477472782
 40
0.2877412804
 40
0.4204476716
 40
0.5464634068
 40
0.6665093648
 40
0.7814358349
 40
0.8922277163
 40
1.0
 40
1.0
 40
1.0
 40
1.0
 10
13.5940905521
 20
8.7160067496
 30
0.0
 10
13.5921848753
 20
8.714166007
 30
0.0
 10
13.5883755394
 20
8.7106803163
 30
0.0
 10
13.5825052637
 20
8.7059404935
 30
0.0
 10
13.5766409893
 20
8.7018387429
 30
0.0
 10
13.5707871162
 20
8.6983792397
 30
0.0
 10
13.564947499
 20
8.695565863
 30
0.0
 10
13.5591261316
 20
8.6934022926
 30
0.0
 10
13.5533287479
 20
8.6918926081
 30
0.0
 10
13.5494420065
 20
8.6913182231
 30
0.0
 10
13.5475171253
 20
8.6911450594
 30
0.0
  0
SPLINE
  5
376
100
AcDbEntity
  8
0
100
AcDbSpline
 62
7
  6
CONTINUOUS
 70
0
 71
3
 72
23
 73
19
 74
0
 42
0.0000001
 43
0.0000001
 44
0.0000000001
 40
0.0
 40
0.0
 40
0.0
 40
0.0
 40
0.0755963493
 40
0.1466389404
 40
0.2134644447
 40
0.2765130444
 40
0.3363250756
 40
0.3935451244
 40
0.4489211068
 40
0.5032859965
 40
0.5575238004
 40
0.612525131
 40
0.6691411996
 40
0.728147006
 40
0.7902177883
 40
0.855922422
 40
0.9257258939
 40
1.0
 40
1.0
 40
1.0
 40
1.0
 10
13.5940905521
 20
8.902913408
 30
0.0
 10
13.5924396516
 20
8.9013187605
 30
0.0
 10
13.5891400456
 20
8.8983235245
 30
0.0
 10
13.5840335748
 20
8.8943220835
 30
0.0
 10
13.5789330928
 20
8.89096144
 30
0.0
 10
13.5738432827
 20
8.8882466745
 30
0.0
 10
13.5687684121
 20
8.8861826442
 30
0.0
 10
13.5637136807
 20
8.8847745192
 30
0.0
 10
13.5586857464
 20
8.8840271445
 30
0.0
 10
13.5536929751
 20
8.883944199
 30
0.0
 10
13.5487449511
 20
8.8845267368
 30
0.0
 10
13.5438513021
 20
8.8857732266
 30
0.0
 10
13.5390202744
 20
8.8876792478
 30
0.0
 10
13.5342583608
 20
8.8902394431
 30
0.0
 10
13.5295702862
 20
8.8934477836
 30
0.0
 10
13.5249599166
 20
8.8972988225
 30
0.0
 10
13.5204309188
 20
8.9017867998
 30
0.0
 10
13.5175605356
 20
8.9050935492
 30
0.0
 10
13.5161376153
 20
8.9068431167
 30
0.0
  0
SPLINE
  5
377
100
AcDbEntity
  8
0
100
AcDbSpline
 62
7
  6
CONTINUOUS
 70
0
 71
3
 72
21
 73
17
 74
0
 42
0.0000001
 43
0.0000001
 44
0.0000000001
 40
0.0
 40
0.0
 40
0.0
 40
0.0
 40
0.1273174669
 40
0.2538000755
 40
0.316761934
 40
0.3795355049
 40
0.4421315085
 40
0.504562148
 40
0.5668413451
 40
0.628984521
 40
0.6910084481
 40
0.7529310917
 40
0.8147714402
 40
0.876549326
 40
0.9382852166
 40
1.0
 40
1.0
 40
1.0
 40
1.0
 10
9.4526533282
 20
7.2018692505
 30
0.0
 10
9.4526533282
 20
7.214065297
 30
0.0
 10
9.4538175412
 20
7.2383931134
 30
0.0
 10
9.4582143135
 20
7.2684675422
 30
0.0
 10
9.4634694973
 20
7.2920583087
 30
0.0
 10
9.4682619568
 20
7.3094588358
 30
0.0
 10
9.4738998984
 20
7.326550209
 30
0.0
 10
9.4803704671
 20
7.3432934559
 30
0.0
 10
9.4876587578
 20
7.359649834
 30
0.0
 10
9.4957479602
 20
7.3755816685
 30
0.0
 10
9.504619451
 20
7.3910521979
 30
0.0
 10
9.5142528481
 20
7.4060257138
 30
0.0
 10
9.5246258935
 20
7.4204676522
 30
0.0
 10
9.5357147749
 20
7.434344824
 30
0.0
 10
9.5474934834
 20
7.4476247895
 30
0.0
 10
9.5557893612
 20
7.4560610284
 30
0.0
 10
9.5600414653
 20
7.4601682269
 30
0.0
  0
SPLINE
  5
378
100
AcDbEntity
  8
0
100
AcDbSpline
 62
7
  6
CONTINUOUS
 70
0
 71
3
 72
17
 73
13
 74
0
 42
0.0000001
 43
0.0000001
 44
0.0000000001
 40
0.0
 40
0.0
 40
0.0
 40
0.0
 40
0.1504747996
 40
0.2917309956
 40
0.4244676903
 40
0.4879386232
 40
0.5496414086
 40
0.6683011956
 40
0.7818339588
 40
0.8918016489
 40
0.9460162204
 40
1.0
 40
1.0
 40
1.0
 40
1.0
 10
13.5462772209
 20
8.954042605
 30
0.0
 10
13.5447378966
 20
8.9525557319
 30
0.0
 10
13.5416612891
 20
8.9497659041
 30
0.0
 10
13.536897513
 20
8.9460480625
 30
0.0
 10
13.5328736562
 20
8.9434186201
 30
0.0
 10
13.5296649951
 20
8.9416380317
 30
0.0
 10
13.5265508135
 20
8.9401093541
 30
0.0
 10
13.5226565706
 20
8.9385647091
 30
0.0
 10
13.5179424944
 20
8.9373103187
 30
0.0
 10
13.5140150068
 20
8.9367859615
 30
0.0
 10
13.5109118169
 20
8.9366863748
 30
0.0
 10
13.5093724563
 20
8.936740816
 30
0.0
 10
13.5086064982
 20
8.9367939384
 30
0.0
  0
SPLINE
  5
379
100
AcDbEntity
  8
0
100
AcDbSpline
 62
7
  6
CONTINUOUS
 70
0
 71
3
 72
15
 73
11
 74
0
 42
0.0000001
 43
0.0000001
 44
0.0000000001
 40
0.0
 40
0.0
 40
0.0
 40
0.0
 40
0.1273483438
 40
0.2538606048
 40
0.3795878922
 40
0.5046051199
 40
0.6290174392
 40
0.7529533668
 40
0.8765605676
 40
1.0
 40
1.0
 40
1.0
 40
1.0
 10
11.7711651949
 20
11.0617463966
 30
0.0
 10
11.7711651949
 20
11.067594998
 30
0.0
 10
11.7717236251
 20
11.0792618888
 30
0.0
 10
11.7742490671
 20
11.0965378283
 30
0.0
 10
11.7784366729
 20
11.1133796794
 30
0.0
 10
11.7842486093
 20
11.1296299379
 30
0.0
 10
11.79163157
 20
11.1451387331
 30
0.0
 10
11.8005182583
 20
11.1597628426
 30
0.0
 10
11.8108250754
 20
11.1733652702
 30
0.0
 10
11.8185856052
 20
11.1816743649
 30
0.0
 10
11.8226631338
 20
11.1856129225
 30
0.0
  0
SPLINE
  5
37A
100
AcDbEntity
  8
0
100
AcDbSpline
 62
7
  6
CONTINUOUS
 70
0
 71
3
 72
86
 73
82
 74
0
 42
0.0000001
 43
0.0000001
 44
0.0000000001
 40
0.0
 40
0.0
 40
0.0
 40
0.0
 40
0.0042067266
 40
0.0086075366
 40
0.0132068847
 40
0.018008437
 40
0.0230151843
 40
0.0282293495
 40
0.0336522672
 40
0.0392846982
 40
0.0451268296
 40
0.0511783617
 40
0.0639057262
 40
0.0774569592
 40
0.0918160742
 40
0.106962526
 40
0.1228718349
 40
0.1395160795
 40
0.1568642788
 40
0.1748827192
 40
0.1935352438
 40
0.2127834917
 40
0.2325871103
 40
0.2529039432
 40
0.2736902077
 40
0.2949006773
 40
0.3164888458
 40
0.3384070826
 40
0.3606067844
 40
0.4056513076
 40
0.4512207768
 40
0.496906601
 40
0.5422988573
 40
0.586990979
 40
0.6089499832
 40
0.6305854144
 40
0.6518495021
 40
0.6726955781
 40
0.6930782319
 40
0.7129534775
 40
0.732278933
 40
0.7510139913
 40
0.7691200092
 40
0.7865605171
 40
0.8033014563
 40
0.8193114661
 40
0.8345621917
 40
0.8490286617
 40
0.8626897636
 40
0.8755288527
 40
0.8816367042
 40
0.8875353015
 40
0.8932242285
 40
0.8987035253
 40
0.903973836
 40
0.9090363319
 40
0.9138929368
 40
0.9185463191
 40
0.9230000195
 40
0.927258643
 40
0.9313278803
 40
0.9352148126
 40
0.9389279888
 40
0.9424776604
 40
0.945876013
 40
0.9491372592
 40
0.9522778769
 40
0.9553165758
 40
0.9582742654
 40
0.9611738188
 40
0.9640396268
 40
0.9668970383
 40
0.9697716375
 40
0.9726885232
 40
0.9756716241
 40
0.9787431876
 40
0.9852253392
 40
0.988674268
 40
0.9922790555
 40
0.9960512187
 40
1.0
 40
1.0
 40
1.0
 40
1.0
 10
13.5940905521
 20
8.902913408
 30
0.0
 10
13.5953732889
 20
8.9041524367
 30
0.0
 10
13.5979370658
 20
8.9067512874
 30
0.0
 10
13.601694997
 20
8.9109037963
 30
0.0
 10
13.6054481831
 20
8.9153945045
 30
0.0
 10
13.6091942168
 20
8.920220522
 30
0.0
 10
13.6129310559
 20
8.9253790352
 30
0.0
 10
13.61665651
 20
8.9308671008
 30
0.0
 10
13.6203685017
 20
8.9366814674
 30
0.0
 10
13.624064747
 20
8.9428187283
 30
0.0
 10
13.6277431189
 20
8.949275239
 30
0.0
 10
13.6327044728
 20
8.9584595747
 30
0.0
 10
13.6388311421
 20
8.9707247164
 30
0.0
 10
13.6459590881
 20
8.9864127916
 30
0.0
 10
13.6529644447
 20
9.0032719748
 30
0.0
 10
13.659830409
 20
9.0212622099
 30
0.0
 10
13.6665404931
 20
9.0403409854
 30
0.0
 10
13.6730785482
 20
9.0604629684
 30
0.0
 10
13.6794288377
 20
9.0815802735
 30
0.0
 10
13.6855760801
 20
9.103642556
 30
0.0
 10
13.6915054788
 20
9.1265971682
 30
0.0
 10
13.6972027647
 20
9.1503892956
 30
0.0
 10
13.7026542277
 20
9.1749620933
 30
0.0
 10
13.7078467538
 20
9.2002568213
 30
0.0
 10
13.7127678651
 20
9.2262129878
 30
0.0
 10
13.7174057393
 20
9.2527685085
 30
0.0
 10
13.7217492218
 20
9.2798598428
 30
0.0
 10
13.7257879243
 20
9.3074222197
 30
0.0
 10
13.7307773554
 20
9.3448924555
 30
0.0
 10
13.7361756773
 20
9.3924193239
 30
0.0
 10
13.7412756523
 20
9.4499832234
 30
0.0
 10
13.7449792878
 20
9.5078017627
 30
0.0
 10
13.7472512326
 20
9.56532182
 30
0.0
 10
13.7479379426
 20
9.612822902
 30
0.0
 10
13.7477423831
 20
9.6502520563
 30
0.0
 10
13.747229409
 20
9.6777446734
 30
0.0
 10
13.7463507038
 20
9.7047559685
 30
0.0
 10
13.7451083721
 20
9.7312213656
 30
0.0
 10
13.7435054474
 20
9.7570775361
 30
0.0
 10
13.7415458194
 20
9.7822626405
 30
0.0
 10
13.7392342566
 20
9.8067164617
 30
0.0
 10
13.7365763748
 20
9.8303805568
 30
0.0
 10
13.7335786278
 20
9.8531983951
 30
0.0
 10
13.7302482918
 20
9.8751155007
 30
0.0
 10
13.7265934449
 20
9.8960795957
 30
0.0
 10
13.7226229642
 20
9.9160407574
 30
0.0
 10
13.7183464841
 20
9.9349515149
 30
0.0
 10
13.7137743698
 20
9.9527671184
 30
0.0
 10
13.7089176477
 20
9.9694452014
 30
0.0
 10
13.7045737284
 20
9.9825731033
 30
0.0
 10
13.7009518469
 20
9.9924647546
 30
0.0
 10
13.6982168436
 20
9.9994510359
 30
0.0
 10
13.6954196515
 20
10.006124673
 30
0.0
 10
13.6925618267
 20
10.0124817124
 30
0.0
 10
13.6896451514
 20
10.0185184305
 30
0.0
 10
13.6866712418
 20
10.0242312475
 30
0.0
 10
13.6836418828
 20
10.0296168324
 30
0.0
 10
13.6805588087
 20
10.034672038
 30
0.0
 10
13.6774237127
 20
10.0393938838
 30
0.0
 10
13.6742384327
 20
10.0437796685
 30
0.0
 10
13.6710046005
 20
10.0478267657
 30
0.0
 10
13.6677240132
 20
10.0515328361
 30
0.0
 10
13.6643983454
 20
10.0548956436
 30
0.0
 10
13.6610292407
 20
10.0579130533
 30
0.0
 10
13.657618458
 20
10.0605831697
 30
0.0
 10
13.6541676004
 20
10.0629039649
 30
0.0
 10
13.6506785337
 20
10.0648736847
 30
0.0
 10
13.6471531556
 20
10.0664904876
 30
0.0
 10
13.6435936368
 20
10.0677526387
 30
0.0
 10
13.6400024868
 20
10.0686587664
 30
0.0
 10
13.6363824461
 20
10.0692075434
 30
0.0
 10
13.6327365732
 20
10.06939846
 30
0.0
 10
13.6290679495
 20
10.0692312982
 30
0.0
 10
13.6253796856
 20
10.0687065217
 30
0.0
 10
13.6216743661
 20
10.06782501
 30
0.0
 10
13.6166257227
 20
10.066146075
 30
0.0
 10
13.6116299286
 20
10.0637561979
 30
0.0
 10
13.6067333483
 20
10.0607594272
 30
0.0
 10
13.6029776658
 20
10.0581156214
 30
0.0
 10
13.599218619
 20
10.0551246321
 30
0.0
 10
13.596768668
 20
10.0529513625
 30
0.0
 10
13.5955431898
 20
10.0518108737
 30
0.0
  0
SPLINE
  5
37B
100
AcDbEntity
  8
0
100
AcDbSpline
 62
7
  6
CONTINUOUS
 70
0
 71
3
 72
70
 73
66
 74
0
 42
0.0000001
 43
0.0000001
 44
0.0000000001
 40
0.0
 40
0.0
 40
0.0
 40
0.0
 40
0.0081438249
 40
0.016976546
 40
0.0265204477
 40
0.0367890723
 40
0.0477875862
 40
0.0595149197
 40
0.0719648853
 40
0.0851269751
 40
0.0989869895
 40
0.1135275461
 40
0.1287285072
 40
0.1445672768
 40
0.1610190127
 40
0.1780568911
 40
0.1956523027
 40
0.2137749862
 40
0.2323931601
 40
0.251473699
 40
0.2709822518
 40
0.2908833272
 40
0.3317153259
 40
0.3736684725
 40
0.4164295109
 40
0.4596773598
 40
0.5030862397
 40
0.5463288322
 40
0.5890794163
 40
0.6310169973
 40
0.671828489
 40
0.6917175089
 40
0.7112128594
 40
0.7302790768
 40
0.7488818321
 40
0.7669880548
 40
0.7845660253
 40
0.8015855084
 40
0.8180179465
 40
0.8338365966
 40
0.8490166915
 40
0.8635356766
 40
0.87737351
 40
0.8905129281
 40
0.9029398269
 40
0.9146438094
 40
0.9256188425
 40
0.9358640667
 40
0.9407148866
 40
0.9453859612
 40
0.9498792082
 40
0.9541971788
 40
0.9583431645
 40
0.9623211807
 40
0.9661361868
 40
0.9697941533
 40
0.973302139
 40
0.9766685329
 40
0.9830136678
 40
0.9860200159
 40
0.9889332608
 40
0.9917695858
 40
0.9945466933
 40
0.9972835342
 40
1.0
 40
1.0
 40
1.0
 40
1.0
 10
13.5462772209
 20
8.954042605
 30
0.0
 10
13.548473795
 20
8.9561643328
 30
0.0
 10
13.552855511
 20
8.9607939205
 30
0.0
 10
13.5591517008
 20
8.9685011516
 30
0.0
 10
13.5654208289
 20
8.977231624
 30
0.0
 10
13.571650806
 20
8.9869679641
 30
0.0
 10
13.5778300681
 20
8.9976919992
 30
0.0
 10
13.5839465406
 20
9.0093828762
 30
0.0
 10
13.5899881565
 20
9.0220177797
 30
0.0
 10
13.5959428236
 20
9.035571847
 30
0.0
 10
13.6017985982
 20
9.0500182277
 30
0.0
 10
13.6075436959
 20
9.0653281826
 30
0.0
 10
13.6131665172
 20
9.0814711829
 30
0.0
 10
13.6186556869
 20
9.0984149715
 30
0.0
 10
13.6240001302
 20
9.1161256199
 30
0.0
 10
13.6291890497
 20
9.1345676281
 30
0.0
 10
13.6342119493
 20
9.153704012
 30
0.0
 10
13.6390586717
 20
9.1734963643
 30
0.0
 10
13.6437194461
 20
9.1939049335
 30
0.0
 10
13.6481848482
 20
9.2148887134
 30
0.0
 10
13.652445892
 20
9.2364055763
 30
0.0
 10
13.6578896555
 20
9.2660006956
 30
0.0
 10
13.6641068401
 20
9.3040077464
 30
0.0
 10
13.6705664477
 20
9.350647077
 30
0.0
 10
13.6760348253
 20
9.3983249481
 30
0.0
 10
13.6804677335
 20
9.4466582419
 30
0.0
 10
13.68382944
 20
9.4952588256
 30
0.0
 10
13.6860929015
 20
9.5437362736
 30
0.0
 10
13.687240153
 20
9.591701272
 30
0.0
 10
13.6872622034
 20
9.6387683613
 30
0.0
 10
13.6863357407
 20
9.6772513665
 30
0.0
 10
13.6850171597
 20
9.7072969073
 30
0.0
 10
13.6837581148
 20
9.7291805963
 30
0.0
 10
13.6822231758
 20
9.7505631166
 30
0.0
 10
13.6804154305
 20
9.7714015325
 30
0.0
 10
13.6783385841
 20
9.791653972
 30
0.0
 10
13.6759968604
 20
9.811279759
 30
0.0
 10
13.6733950084
 20
9.8302394866
 30
0.0
 10
13.6705383367
 20
9.8484951175
 30
0.0
 10
13.6674326691
 20
9.8660100595
 30
0.0
 10
13.6640843182
 20
9.8827492305
 30
0.0
 10
13.6605000788
 20
9.8986791532
 30
0.0
 10
13.6566872542
 20
9.9137680452
 30
0.0
 10
13.6526535794
 20
9.9279858961
 30
0.0
 10
13.6484071891
 20
9.9413044893
 30
0.0
 10
13.6439565917
 20
9.9536976824
 30
0.0
 10
13.6393106812
 20
9.965140919
 30
0.0
 10
13.6352124768
 20
9.974022348
 30
0.0
 10
13.6318319771
 20
9.9806203612
 30
0.0
 10
13.6292998642
 20
9.9852268347
 30
0.0
 10
13.6267259627
 20
9.9895795586
 30
0.0
 10
13.6241114497
 20
9.9936763811
 30
0.0
 10
13.6214576456
 20
9.9975153247
 30
0.0
 10
13.6187657345
 20
10.0010944534
 30
0.0
 10
13.616036955
 20
10.0044120319
 30
0.0
 10
13.6132726821
 20
10.0074663622
 30
0.0
 10
13.6104737128
 20
10.0102561074
 30
0.0
 10
13.6067714126
 20
10.0135551612
 30
0.0
 10
13.6029290702
 20
10.0164081903
 30
0.0
 10
13.5989597528
 20
10.0187386253
 30
0.0
 10
13.596007663
 20
10.0201839768
 30
0.0
 10
13.5930291096
 20
10.0213566821
 30
0.0
 10
13.590025542
 20
10.0222559061
 30
0.0
 10
13.5869990892
 20
10.022880628
 30
0.0
 10
13.5849641854
 20
10.0231140781
 30
0.0
 10
13.5839479436
 20
10.0231845588
 30
0.0
  0
SPLINE
  5
37C
100
AcDbEntity
  8
0
100
AcDbSpline
 62
7
  6
CONTINUOUS
 70
0
 71
3
 72
64
 73
60
 74
0
 42
0.0000001
 43
0.0000001
 44
0.0000000001
 40
0.0
 40
0.0
 40
0.0
 40
0.0
 40
0.0059877716
 40
0.0088872947
 40
0.0117371525
 40
0.0145487526
 40
0.0173340217
 40
0.0201052693
 40
0.0228750046
 40
0.0256557622
 40
0.028459911
 40
0.0312994853
 40
0.0341860395
 40
0.0371305005
 40
0.0401430994
 40
0.0464074947
 40
0.0530481713
 40
0.0601190234
 40
0.0676627181
 40
0.0757121387
 40
0.084291977
 40
0.0934201303
 40
0.103108808
 40
0.113365557
 40
0.1241940368
 40
0.1355945592
 40
0.1475646434
 40
0.1600994051
 40
0.173191796
 40
0.1868329232
 40
0.201012254
 40
0.2157177186
 40
0.2309359173
 40
0.2466522397
 40
0.2628509064
 40
0.279515121
 40
0.2966271473
 40
0.3141683259
 40
0.3321191957
 40
0.3504595498
 40
0.3691684443
 40
0.3882243005
 40
0.4272870286
 40
0.4674645578
 40
0.5085656431
 40
0.55039304
 40
0.5927448398
 40
0.6354158207
 40
0.6781987545
 40
0.7208857091
 40
0.7632693554
 40
0.8051442655
 40
0.8463082399
 40
0.8865636248
 40
0.9257186772
 40
0.944825897
 40
0.9635893934
 40
0.9819882896
 40
1.0
 40
1.0
 40
1.0
 40
1.0
 10
11.1138106254
 20
11.8641414491
 30
0.0
 10
11.1152199513
 20
11.8669641762
 30
0.0
 10
11.1170823552
 20
11.8712768256
 30
0.0
 10
11.1189872566
 20
11.877163833
 30
0.0
 10
11.1200960487
 20
11.88153984
 30
0.0
 10
11.1208989816
 20
11.8859208551
 30
0.0
 10
11.1213956724
 20
11.8903055414
 30
0.0
 10
11.1215859002
 20
11.8946921244
 30
0.0
 10
11.121469557
 20
11.899078923
 30
0.0
 10
11.1210466127
 20
11.9034642076
 30
0.0
 10
11.1203174164
 20
11.9078462906
 30
0.0
 10
11.1192823535
 20
11.9122235416
 30
0.0
 10
11.1179418974
 20
11.9165943193
 30
0.0
 10
11.1162967431
 20
11.9209572408
 30
0.0
 10
11.1136641391
 20
11.9268377126
 30
0.0
 10
11.1095732035
 20
11.9341806902
 30
0.0
 10
11.1035237536
 20
11.9428132056
 30
0.0
 10
11.0962813323
 20
11.951373805
 30
0.0
 10
11.0878570636
 20
11.9598533242
 30
0.0
 10
11.0782620951
 20
11.9682436703
 30
0.0
 10
11.0675085933
 20
11.9765357763
 30
0.0
 10
11.0556098997
 20
11.9847202109
 30
0.0
 10
11.0425808636
 20
11.9927873092
 30
0.0
 10
11.0284377881
 20
12.0007271956
 30
0.0
 10
11.0131984807
 20
12.0085298869
 30
0.0
 10
10.9968823082
 20
12.0161855166
 30
0.0
 10
10.9795100925
 20
12.0236842582
 30
0.0
 10
10.9611040898
 20
12.031016381
 30
0.0
 10
10.9416879983
 20
12.0381724093
 30
0.0
 10
10.9212868655
 20
12.0451430256
 30
0.0
 10
10.8999270537
 20
12.0519190995
 30
0.0
 10
10.8776362335
 20
12.0584918187
 30
0.0
 10
10.8544433041
 20
12.0648525912
 30
0.0
 10
10.8303783549
 20
12.0709930648
 30
0.0
 10
10.8054726479
 20
12.0769052421
 30
0.0
 10
10.7797585473
 20
12.0825813889
 30
0.0
 10
10.7532694763
 20
12.088014048
 30
0.0
 10
10.726039892
 20
12.0931961445
 30
0.0
 10
10.6981052161
 20
12.0981209028
 30
0.0
 10
10.6695018018
 20
12.1027818417
 30
0.0
 10
10.6402668452
 20
12.1071729369
 30
0.0
 10
10.6001650386
 20
12.112705704
 30
0.0
 10
10.5487376528
 20
12.1188877471
 30
0.0
 10
10.4856284033
 20
12.1250886599
 30
0.0
 10
10.4209523978
 20
12.1300989033
 30
0.0
 10
10.3550463312
 20
12.1338921105
 30
0.0
 10
10.2882530398
 20
12.1364483071
 30
0.0
 10
10.2209201273
 20
12.1377540346
 30
0.0
 10
10.1533980068
 20
12.1378023918
 30
0.0
 10
10.086038096
 20
12.1365931499
 30
0.0
 10
10.019190953
 20
12.1341326767
 30
0.0
 10
9.9532044638
 20
12.1304338996
 30
0.0
 10
9.8884218852
 20
12.1255163455
 30
0.0
 10
9.8251804619
 20
12.119405874
 30
0.0
 10
9.7736266818
 20
12.1132981268
 30
0.0
 10
9.7334114451
 20
12.1078236222
 30
0.0
 10
9.7040825766
 20
12.1034745113
 30
0.0
 10
9.6753796963
 20
12.0988546339
 30
0.0
 10
9.6564787006
 20
12.0955620583
 30
0.0
 10
9.6471403303
 20
12.0938696936
 30
0.0
  0
SPLINE
  5
37D
100
AcDbEntity
  8
0
100
AcDbSpline
 62
7
  6
CONTINUOUS
 70
0
 71
3
 72
41
 73
37
 74
0
 42
0.0000001
 43
0.0000001
 44
0.0000000001
 40
0.0
 40
0.0
 40
0.0
 40
0.0
 40
0.0299421689
 40
0.0599087154
 40
0.0899234217
 40
0.1200089011
 40
0.1501860597
 40
0.1804736107
 40
0.2108876533
 40
0.2414413269
 40
0.2721445469
 40
0.3030038242
 40
0.3340221695
 40
0.3651990796
 40
0.3965306028
 40
0.4280094739
 40
0.4596253147
 40
0.4913648909
 40
0.5232124193
 40
0.5551499155
 40
0.5871575776
 40
0.6192141968
 40
0.6512975879
 40
0.683385034
 40
0.7154537372
 40
0.7314764367
 40
0.7474861023
 40
0.7794508627
 40
0.8113324993
 40
0.8431123361
 40
0.8747737727
 40
0.9063026037
 40
0.9376875169
 40
0.9533255933
 40
0.9689249755
 40
1.0
 40
1.0
 40
1.0
 40
1.0
 10
10.1102784909
 20
6.8905164216
 30
0.0
 10
10.1037089799
 20
6.88417079
 30
0.0
 10
10.0900533419
 20
6.8719916941
 30
0.0
 10
10.0681749335
 20
6.8553998083
 30
0.0
 10
10.0450133513
 20
6.8405677711
 30
0.0
 10
10.0206980291
 20
6.8275787678
 30
0.0
 10
9.9953626494
 20
6.8165037592
 30
0.0
 10
9.9691470364
 20
6.8074036209
 30
0.0
 10
9.9421956523
 20
6.8003281428
 30
0.0
 10
9.9146569783
 20
6.7953159556
 30
0.0
 10
9.8866826358
 20
6.7923942884
 30
0.0
 10
9.8584265611
 20
6.7915788564
 30
0.0
 10
9.8300441569
 20
6.7928737785
 30
0.0
 10
9.8016914392
 20
6.7962715754
 30
0.0
 10
9.7735241881
 20
6.8017532383
 30
0.0
 10
9.7456971023
 20
6.8092883438
 30
0.0
 10
9.7183629612
 20
6.8188352317
 30
0.0
 10
9.6916717996
 20
6.8303412394
 30
0.0
 10
9.6657700947
 20
6.8437429969
 30
0.0
 10
9.6407999789
 20
6.8589667691
 30
0.0
 10
9.6168984451
 20
6.8759288693
 30
0.0
 10
9.5941966708
 20
6.8945360484
 30
0.0
 10
9.5728190845
 20
6.9146863125
 30
0.0
 10
9.552883524
 20
6.9362683216
 30
0.0
 10
9.5375569016
 20
6.9553561145
 30
0.0
 10
9.5261218496
 20
6.9712219282
 30
0.0
 10
9.5152620954
 20
6.9874487665
 30
0.0
 10
9.502776486
 20
7.008390486
 30
0.0
 10
9.4896142289
 20
7.0344487686
 30
0.0
 10
9.4783503212
 20
7.0612827014
 30
0.0
 10
9.4690472639
 20
7.0887445425
 30
0.0
 10
9.4617563051
 20
7.1166828493
 30
0.0
 10
9.4573852313
 20
7.1402658316
 30
0.0
 10
9.4549331619
 20
7.1592144208
 30
0.0
 10
9.4531832009
 20
7.1781448951
 30
0.0
 10
9.4526533282
 20
7.1923899199
 30
0.0
 10
9.4526533282
 20
7.2018692505
 30
0.0
  0
SPLINE
  5
37E
100
AcDbEntity
  8
0
100
AcDbSpline
 62
7
  6
CONTINUOUS
 70
0
 71
3
 72
41
 73
37
 74
0
 42
0.0000001
 43
0.0000001
 44
0.0000000001
 40
0.0
 40
0.0
 40
0.0
 40
0.0
 40
0.0299374084
 40
0.0599034349
 40
0.0899214092
 40
0.1200134164
 40
0.1501997788
 40
0.1804985917
 40
0.2109253236
 40
0.2414924906
 40
0.272209411
 40
0.3030820412
 40
0.3341128936
 40
0.3653010341
 40
0.3966421536
 40
0.4281287082
 40
0.4597501219
 40
0.4914930436
 40
0.5233416514
 40
0.5552779969
 40
0.5872823811
 40
0.6193337576
 40
0.6514101536
 40
0.683489105
 40
0.715548097
 40
0.7315655516
 40
0.7475697802
 40
0.7795233138
 40
0.8113934314
 40
0.8431617522
 40
0.8748119496
 40
0.9063300528
 40
0.9377049474
 40
0.9533382707
 40
0.9689332038
 40
1.0
 40
1.0
 40
1.0
 40
1.0
 10
10.1102521401
 20
6.8905451341
 30
0.0
 10
10.1036267609
 20
6.8843352742
 30
0.0
 10
10.0898721083
 20
6.8724285347
 30
0.0
 10
10.0678845575
 20
6.8562438549
 30
0.0
 10
10.0446508436
 20
6.8418132959
 30
0.0
 10
10.0202992703
 20
6.8292168386
 30
0.0
 10
9.9949621295
 20
6.8185224695
 30
0.0
 10
9.968777597
 20
6.809788265
 30
0.0
 10
9.941888251
 20
6.803061432
 30
0.0
 10
9.9144404727
 20
6.7983782457
 30
0.0
 10
9.8865835898
 20
6.795763824
 30
0.0
 10
9.8584690741
 20
6.7952320245
 30
0.0
 10
9.8302497157
 20
6.7967853853
 30
0.0
 10
9.8020787989
 20
6.8004151296
 30
0.0
 10
9.7741092771
 20
6.806101229
 30
0.0
 10
9.7464929525
 20
6.8138125201
 30
0.0
 10
9.7193796603
 20
6.8235068804
 30
0.0
 10
9.6929164696
 20
6.8351314702
 30
0.0
 10
9.667246895
 20
6.8486230231
 30
0.0
 10
9.6425101338
 20
6.8639081845
 30
0.0
 10
9.6188403058
 20
6.8809039314
 30
0.0
 10
9.5963657936
 20
6.899517938
 30
0.0
 10
9.5752083364
 20
6.9196493782
 30
0.0
 10
9.5554831933
 20
6.9411883296
 30
0.0
 10
9.5403217814
 20
6.9602214876
 30
0.0
 10
9.5290117381
 20
6.9760331847
 30
0.0
 10
9.5182718681
 20
6.9921991569
 30
0.0
 10
9.5059257977
 20
7.0130531013
 30
0.0
 10
9.4929126047
 20
7.0389895762
 30
0.0
 10
9.4817777567
 20
7.0656874598
 30
0.0
 10
9.472582316
 20
7.0930014852
 30
0.0
 10
9.4653763429
 20
7.1207827953
 30
0.0
 10
9.4610565451
 20
7.1442291272
 30
0.0
 10
9.4586333081
 20
7.1630665215
 30
0.0
 10
9.4569039248
 20
7.1818855371
 30
0.0
 10
9.4563803196
 20
7.1960460419
 30
0.0
 10
9.4563803196
 20
7.2054692479
 30
0.0
  0
SPLINE
  5
37F
100
AcDbEntity
  8
0
100
AcDbSpline
 62
7
  6
CONTINUOUS
 70
0
 71
3
 72
41
 73
37
 74
0
 42
0.0000001
 43
0.0000001
 44
0.0000000001
 40
0.0
 40
0.0
 40
0.0
 40
0.0
 40
0.0299421216
 40
0.0449237656
 40
0.0599145167
 40
0.0899291718
 40
0.1200145985
 40
0.1350933583
 40
0.15019748
 40
0.1804849767
 40
0.2108989647
 40
0.2414525835
 40
0.2721557485
 40
0.3030149705
 40
0.3340332607
 40
0.3652101168
 40
0.3965415874
 40
0.4280204071
 40
0.4596361972
 40
0.491375723
 40
0.5232232003
 40
0.5551606452
 40
0.5871682559
 40
0.6192248239
 40
0.651308164
 40
0.683395559
 40
0.7154642111
 40
0.7474916947
 40
0.7794564051
 40
0.8113379906
 40
0.8431177849
 40
0.8747791545
 40
0.9063080011
 40
0.9376926887
 40
0.9689252949
 40
1.0
 40
1.0
 40
1.0
 40
1.0
 10
9.9928139794
 20
7.0335699808
 30
0.0
 10
9.9893052791
 20
7.0301808081
 30
0.0
 10
9.9838353812
 20
7.0253024392
 30
0.0
 10
9.9761749474
 20
7.0192493947
 30
0.0
 10
9.9682705226
 20
7.0134976099
 30
0.0
 10
9.9579565835
 20
7.0068926367
 30
0.0
 10
9.9471411326
 20
7.0011152525
 30
0.0
 10
9.9382212372
 20
6.9970051005
 30
0.0
 10
9.9291170104
 20
6.9932343964
 30
0.0
 10
9.9174367561
 20
6.9891796902
 30
0.0
 10
9.9030425816
 20
6.9854008395
 30
0.0
 10
9.8883343249
 20
6.9827237823
 30
0.0
 10
9.8733934884
 20
6.9811633084
 30
0.0
 10
9.8583021477
 20
6.9807277405
 30
0.0
 10
9.8431433393
 20
6.9814192974
 30
0.0
 10
9.8280003799
 20
6.9832339844
 30
0.0
 10
9.8129564741
 20
6.9861616528
 30
0.0
 10
9.7980942454
 20
6.9901860551
 30
0.0
 10
9.7834952939
 20
6.995284941
 30
0.0
 10
9.7692397519
 20
7.0014301819
 30
0.0
 10
9.7554058517
 20
7.0085879287
 30
0.0
 10
9.7420695016
 20
7.0167187986
 30
0.0
 10
9.7293038751
 20
7.0257780908
 30
0.0
 10
9.7171790147
 20
7.0357160313
 30
0.0
 10
9.7057614522
 20
7.0464780437
 30
0.0
 10
9.6951138472
 20
7.0580050462
 30
0.0
 10
9.6852946478
 20
7.0702337735
 30
0.0
 10
9.6763577718
 20
7.0830971196
 30
0.0
 10
9.6683523156
 20
7.0965245022
 30
0.0
 10
9.6613222804
 20
7.1104422473
 30
0.0
 10
9.6553063491
 20
7.1247739793
 30
0.0
 10
9.6503376317
 20
7.1394410736
 30
0.0
 10
9.6464435781
 20
7.1543629301
 30
0.0
 10
9.6436456394
 20
7.1694579642
 30
0.0
 10
9.6419594484
 20
7.1846421193
 30
0.0
 10
9.6415817535
 20
7.1947973175
 30
0.0
 10
9.6415817535
 20
7.1998601067
 30
0.0
  0
SPLINE
  5
380
100
AcDbEntity
  8
0
100
AcDbSpline
 62
7
  6
CONTINUOUS
 70
0
 71
3
 72
35
 73
31
 74
0
 42
0.0000001
 43
0.0000001
 44
0.0000000001
 40
0.0
 40
0.0
 40
0.0
 40
0.0
 40
0.0301496473
 40
0.060410331
 40
0.090788999
 40
0.121290816
 40
0.1519191233
 40
0.1826754114
 40
0.2135593135
 40
0.2445686259
 40
0.2756993738
 40
0.3069458926
 40
0.3383009172
 40
0.3697556895
 40
0.4013000995
 40
0.4329228422
 40
0.4963277906
 40
0.5598877461
 40
0.6234862515
 40
0.6870048181
 40
0.7187107205
 40
0.75035451
 40
0.7819235462
 40
0.8134062083
 40
0.8447919834
 40
0.876071742
 40
0.9072378626
 40
0.9382833956
 40
0.9692062879
 40
1.0
 40
1.0
 40
1.0
 40
1.0
 10
10.0400066159
 20
7.1083619897
 30
0.0
 10
10.0361588537
 20
7.1072101038
 30
0.0
 10
10.0283745208
 20
7.1051436346
 30
0.0
 10
10.0165070287
 20
7.102772197
 30
0.0
 10
10.0044688937
 20
7.1011315087
 30
0.0
 10
9.9923042565
 20
7.1002275824
 30
0.0
 10
9.980056933
 20
7.1000635479
 30
0.0
 10
9.9677712264
 20
7.1006399466
 30
0.0
 10
9.955491517
 20
7.1019546657
 30
0.0
 10
9.9432621693
 20
7.1040028835
 30
0.0
 10
9.931127341
 20
7.1067771117
 30
0.0
 10
9.9191308523
 20
7.1102672709
 30
0.0
 10
9.9073159899
 20
7.114460758
 30
0.0
 10
9.8957255202
 20
7.1193423178
 30
0.0
 10
9.8844008511
 20
7.1248945594
 30
0.0
 10
9.8697009014
 20
7.1331698471
 30
0.0
 10
9.8521969594
 20
7.1450871938
 30
0.0
 10
9.8329095117
 20
7.1616742989
 30
0.0
 10
9.8155883677
 20
7.1803258997
 30
0.0
 10
9.8029888113
 20
7.1973839772
 30
0.0
 10
9.7941279951
 20
7.2117848432
 30
0.0
 10
9.7881175876
 20
7.2229180317
 30
0.0
 10
9.7827620382
 20
7.2343473992
 30
0.0
 10
9.7780803651
 20
7.2460320843
 30
0.0
 10
9.7740895817
 20
7.2579298038
 30
0.0
 10
9.7708041359
 20
7.2699976771
 30
0.0
 10
9.7682360377
 20
7.2821920134
 30
0.0
 10
9.7663943723
 20
7.2944691374
 30
0.0
 10
9.7652861804
 20
7.3067838776
 30
0.0
 10
9.7650383362
 20
7.3150077338
 30
0.0
 10
9.7650383362
 20
7.3191100153
 30
0.0
  0
SPLINE
  5
381
100
AcDbEntity
  8
0
100
AcDbSpline
 62
7
  6
CONTINUOUS
 70
0
 71
3
 72
21
 73
17
 74
0
 42
0.0000001
 43
0.0000001
 44
0.0000000001
 40
0.0
 40
0.0
 40
0.0
 40
0.0
 40
0.0617038654
 40
0.1234340949
 40
0.1852107345
 40
0.2470533626
 40
0.3089809182
 40
0.3710115191
 40
0.43316227
 40
0.4954491015
 40
0.5578866697
 40
0.6204881769
 40
0.683265179
 40
0.746227922
 40
0.8727038246
 40
1.0
 40
1.0
 40
1.0
 40
1.0
 10
9.5600691577
 20
7.4601408763
 30
0.0
 10
9.5559554659
 20
7.4560461317
 30
0.0
 10
9.5479318318
 20
7.4476454108
 30
0.0
 10
9.5365451281
 20
7.4344500522
 30
0.0
 10
9.525829785
 20
7.4206868189
 30
0.0
 10
9.5158100082
 20
7.4063867503
 30
0.0
 10
9.5065079003
 20
7.3915815625
 30
0.0
 10
9.4979441759
 20
7.3763041848
 30
0.0
 10
9.4901378872
 20
7.3605885534
 30
0.0
 10
9.4831062927
 20
7.3444696539
 30
0.0
 10
9.4768649842
 20
7.3279832824
 30
0.0
 10
9.4714278856
 20
7.311166178
 30
0.0
 10
9.4668069392
 20
7.2940552977
 30
0.0
 10
9.461740609
 20
7.2708693822
 30
0.0
 10
9.4575025871
 20
7.2413297854
 30
0.0
 10
9.4563803196
 20
7.2174435326
 30
0.0
 10
9.4563803196
 20
7.2054692479
 30
0.0
  0
SPLINE
  5
382
100
AcDbEntity
  8
0
100
AcDbSpline
 62
7
  6
CONTINUOUS
 70
0
 71
3
 72
15
 73
11
 74
0
 42
0.0000001
 43
0.0000001
 44
0.0000000001
 40
0.0
 40
0.0
 40
0.0
 40
0.0
 40
0.1234394229
 40
0.2470466241
 40
0.3709825582
 40
0.4953948862
 40
0.6204121211
 40
0.7461394113
 40
0.8726516684
 40
1.0
 40
1.0
 40
1.0
 40
1.0
 10
9.6989361764
 20
7.3378146522
 30
0.0
 10
9.6943949352
 20
7.3334281133
 30
0.0
 10
9.6857518502
 20
7.3241739339
 30
0.0
 10
9.6742729106
 20
7.3090243849
 30
0.0
 10
9.6643756051
 20
7.2927369757
 30
0.0
 10
9.6561530377
 20
7.2754642808
 30
0.0
 10
9.6496801564
 20
7.2573658089
 30
0.0
 10
9.6450163287
 20
7.2386084726
 30
0.0
 10
9.6422036893
 20
7.2193676862
 30
0.0
 10
9.6415817535
 20
7.2063738863
 30
0.0
 10
9.6415817535
 20
7.1998601067
 30
0.0
  0
SPLINE
  5
383
100
AcDbEntity
  8
0
100
AcDbSpline
 62
7
  6
CONTINUOUS
 70
0
 71
3
 72
11
 73
7
 74
0
 42
0.0000001
 43
0.0000001
 44
0.0000000001
 40
0.0
 40
0.0
 40
0.0
 40
0.0
 40
0.2480744714
 40
0.4973806485
 40
0.7480047183
 40
1.0
 40
1.0
 40
1.0
 40
1.0
 10
9.7752320861
 20
7.3821299725
 30
0.0
 10
9.773543933
 20
7.3771052952
 30
0.0
 10
9.7705754354
 20
7.3668858534
 30
0.0
 10
9.7673845536
 20
7.3512073908
 30
0.0
 10
9.7654633422
 20
7.3352390908
 30
0.0
 10
9.7650383362
 20
7.3244944756
 30
0.0
 10
9.7650383362
 20
7.3191100153
 30
0.0
  0
SPLINE
  5
384
100
AcDbEntity
  8
0
100
AcDbSpline
 62
7
  6
CONTINUOUS
 70
0
 71
3
 72
35
 73
31
 74
0
 42
0.0000001
 43
0.0000001
 44
0.0000000001
 40
0.0
 40
0.0
 40
0.0
 40
0.0
 40
0.0300807811
 40
0.0602672421
 40
0.0905686231
 40
0.1209922967
 40
0.1515436676
 40
0.1822261202
 40
0.2130409941
 40
0.2439875852
 40
0.2750631776
 40
0.3062631069
 40
0.3375808644
 40
0.3690082131
 40
0.4005353212
 40
0.4321509132
 40
0.4955692424
 40
0.5591785102
 40
0.6228558627
 40
0.6864746662
 40
0.7182367251
 40
0.7499385906
 40
0.7815665008
 40
0.8131077594
 40
0.8445508714
 40
0.8758857678
 40
0.907104129
 40
0.9381983866
 40
0.9691657879
 40
1.0
 40
1.0
 40
1.0
 40
1.0
 10
10.0468046779
 20
7.1351792293
 30
0.0
 10
10.0433269966
 20
7.1338810209
 30
0.0
 10
10.0362723312
 20
7.1315069493
 30
0.0
 10
10.0254638817
 20
7.1286334157
 30
0.0
 10
10.014451246
 20
7.126451915
 30
0.0
 10
10.0032775203
 20
7.1249710276
 30
0.0
 10
9.9919856671
 20
7.1241963289
 30
0.0
 10
9.9806192896
 20
7.1241307284
 30
0.0
 10
9.9692222058
 20
7.1247744022
 30
0.0
 10
9.9578383549
 20
7.1261248099
 30
0.0
 10
9.9465116139
 20
7.1281767082
 30
0.0
 10
9.9352856342
 20
7.1309220998
 30
0.0
 10
9.9242036289
 20
7.1343503566
 30
0.0
 10
9.9133083918
 20
7.1384481415
 30
0.0
 10
9.90264147
 20
7.1431999312
 30
0.0
 10
9.8887675432
 20
7.1503883095
 30
0.0
 10
9.8722033954
 20
7.1609145784
 30
0.0
 10
9.8539008944
 20
7.1757908188
 30
0.0
 10
9.8374232346
 20
7.1927003405
 30
0.0
 10
9.8254125772
 20
7.2082858939
 30
0.0
 10
9.816955362
 20
7.2215012683
 30
0.0
 10
9.8112139103
 20
7.2317435246
 30
0.0
 10
9.8060945743
 20
7.2422798042
 30
0.0
 10
9.801616776
 20
7.2530699293
 30
0.0
 10
9.7977978944
 20
7.2640722418
 30
0.0
 10
9.7946526703
 20
7.2752444317
 30
0.0
 10
9.7921933429
 20
7.2865433459
 30
0.0
 10
9.7904292366
 20
7.2979257766
 30
0.0
 10
9.7893675053
 20
7.3093470848
 30
0.0
 10
9.7891300043
 20
7.3169757148
 30
0.0
 10
9.7891300043
 20
7.3207807811
 30
0.0
  0
SPLINE
  5
385
100
AcDbEntity
  8
0
100
AcDbSpline
 62
7
  6
CONTINUOUS
 70
0
 71
3
 72
37
 73
33
 74
0
 42
0.0000001
 43
0.0000001
 44
0.0000000001
 40
0.0
 40
0.0
 40
0.0
 40
0.0
 40
0.0155472121
 40
0.03128734
 40
0.0474056788
 40
0.0640736693
 40
0.0814445296
 40
0.0996515024
 40
0.1188074627
 40
0.1390063555
 40
0.1603247836
 40
0.1828242504
 40
0.2065531714
 40
0.231548646
 40
0.2578383369
 40
0.2854414938
 40
0.3143705679
 40
0.3446316909
 40
0.3762259293
 40
0.4091495639
 40
0.4433948874
 40
0.4789505504
 40
0.515801882
 40
0.5539314124
 40
0.5933188189
 40
0.6339415583
 40
0.675774578
 40
0.7187910126
 40
0.7629620282
 40
0.8082568025
 40
0.9020843778
 40
1.0
 40
1.0
 40
1.0
 40
1.0
 10
9.2557654141
 20
11.8761644439
 30
0.0
 10
9.255765425
 20
11.8785718525
 30
0.0
 10
9.2560481037
 20
11.8834211353
 30
0.0
 10
9.2573165371
 20
11.8906663784
 30
0.0
 10
9.2594267869
 20
11.8978934407
 30
0.0
 10
9.2623743426
 20
11.9050930859
 30
0.0
 10
9.2661536477
 20
11.9122591317
 30
0.0
 10
9.2707592973
 20
11.9193856593
 30
0.0
 10
9.2761855166
 20
11.9264675552
 30
0.0
 10
9.2824266739
 20
11.9334996345
 30
0.0
 10
9.28947672
 20
11.9404768009
 30
0.0
 10
9.2973292773
 20
11.9473937499
 30
0.0
 10
9.3059774281
 20
11.9542450113
 30
0.0
 10
9.3154135848
 20
11.9610250771
 30
0.0
 10
9.3256295758
 20
11.9677281876
 30
0.0
 10
9.3366164242
 20
11.9743487377
 30
0.0
 10
9.3483645506
 20
11.9808808734
 30
0.0
 10
9.360863571
 20
11.9873189768
 30
0.0
 10
9.374102473
 20
11.9936572709
 30
0.0
 10
9.388069502
 20
11.9998901752
 30
0.0
 10
9.4027522503
 20
12.0060120992
 30
0.0
 10
9.4181376379
 20
12.0120175459
 30
0.0
 10
9.4342119246
 20
12.0179011639
 30
0.0
 10
9.450960754
 20
12.0236575942
 30
0.0
 10
9.4683691254
 20
12.0292817361
 30
0.0
 10
9.4864214526
 20
12.0347684294
 30
0.0
 10
9.5051015401
 20
12.0401128166
 30
0.0
 10
9.5243926505
 20
12.0453099998
 30
0.0
 10
9.5442774828
 20
12.0503553742
 30
0.0
 10
9.5718832445
 20
12.0569514465
 30
0.0
 10
9.6077509079
 20
12.0647626659
 30
0.0
 10
9.6369087013
 20
12.070377458
 30
0.0
 10
9.6518274383
 20
12.0730811357
 30
0.0
  0
SPLINE
  5
386
100
AcDbEntity
  8
0
100
AcDbSpline
 62
7
  6
CONTINUOUS
 70
0
 71
3
 72
15
 73
11
 74
0
 42
0.0000001
 43
0.0000001
 44
0.0000000001
 40
0.0
 40
0.0
 40
0.0
 40
0.0
 40
0.1273483438
 40
0.2538606048
 40
0.3795878922
 40
0.5046051199
 40
0.6290174392
 40
0.7529533668
 40
0.8765605676
 40
1.0
 40
1.0
 40
1.0
 40
1.0
 10
9.597831957
 20
5.9964677976
 30
0.0
 10
9.597831957
 20
6.002316399
 30
0.0
 10
9.5983903872
 20
6.0139832897
 30
0.0
 10
9.6009158292
 20
6.0312592292
 30
0.0
 10
9.605103435
 20
6.0481010803
 30
0.0
 10
9.6109153714
 20
6.0643513388
 30
0.0
 10
9.6182983321
 20
6.079860134
 30
0.0
 10
9.6271850203
 20
6.0944842435
 30
0.0
 10
9.6374918375
 20
6.1080866712
 30
0.0
 10
9.6452523673
 20
6.1163957658
 30
0.0
 10
9.6493298958
 20
6.1203343235
 30
0.0
  0
SPLINE
  5
387
100
AcDbEntity
  8
0
100
AcDbSpline
 62
7
  6
CONTINUOUS
 70
0
 71
3
 72
39
 73
35
 74
0
 42
0.0000001
 43
0.0000001
 44
0.0000000001
 40
0.0
 40
0.0
 40
0.0
 40
0.0
 40
0.0299424683
 40
0.0599093148
 40
0.0899243219
 40
0.1200101034
 40
0.1501875656
 40
0.1804754221
 40
0.2108897722
 40
0.2414437551
 40
0.2721472861
 40
0.3030068757
 40
0.334025535
 40
0.3652027614
 40
0.3965346031
 40
0.4280137946
 40
0.459629957
 40
0.4913698552
 40
0.5232177051
 40
0.5551555222
 40
0.5871635048
 40
0.6192204442
 40
0.6513041551
 40
0.68339192
 40
0.7154609412
 40
0.7474887928
 40
0.7794538702
 40
0.8113358216
 40
0.8431159806
 40
0.8747777136
 40
0.9063069224
 40
0.9376919709
 40
0.9689249367
 40
1.0
 40
1.0
 40
1.0
 40
1.0
 10
12.0865259067
 20
10.9124381369
 30
0.0
 10
12.0833755265
 20
10.9093951284
 30
0.0
 10
12.0768270018
 20
10.9035547456
 30
0.0
 10
12.0663352988
 20
10.895598231
 30
0.0
 10
12.0552282584
 20
10.8884856442
 30
0.0
 10
12.043567954
 20
10.8822568715
 30
0.0
 10
12.0314184891
 20
10.8769459451
 30
0.0
 10
12.0188469158
 20
10.872582058
 30
0.0
 10
12.0059225098
 20
10.8691890872
 30
0.0
 10
11.992716475
 20
10.8667855565
 30
0.0
 10
11.9793015207
 20
10.8653845221
 30
0.0
 10
11.9657514661
 20
10.8649935161
 30
0.0
 10
11.9521408327
 20
10.8656145142
 30
0.0
 10
11.9385444368
 20
10.8672439336
 30
0.0
 10
11.9250369819
 20
10.8698726608
 30
0.0
 10
11.9116926537
 20
10.8734861075
 30
0.0
 10
11.8985847174
 20
10.8780642956
 30
0.0
 10
11.885785121
 20
10.8835819693
 30
0.0
 10
11.8733641062
 20
10.8900087364
 30
0.0
 10
11.8613898282
 20
10.8973092361
 30
0.0
 10
11.8499279868
 20
10.9054433333
 30
0.0
 10
11.8390414704
 20
10.9143663372
 30
0.0
 10
11.8287900153
 20
10.9240292457
 30
0.0
 10
11.8192298813
 20
10.9343790112
 30
0.0
 10
11.8104135465
 20
10.9453588299
 30
0.0
 10
11.8023894216
 20
10.9569084497
 30
0.0
 10
11.7952015885
 20
10.9689644974
 30
0.0
 10
11.7888895539
 20
10.9814608235
 30
0.0
 10
11.78348805
 20
10.9943288532
 30
0.0
 10
11.7790268047
 20
11.0074979923
 30
0.0
 10
11.7755304643
 20
11.0208958729
 30
0.0
 10
11.7730182889
 20
11.0344492431
 30
0.0
 10
11.7715043144
 20
11.0480826316
 30
0.0
 10
11.7711651949
 20
11.0572006732
 30
0.0
 10
11.7711651949
 20
11.0617463966
 30
0.0
  0
SPLINE
  5
388
100
AcDbEntity
  8
0
100
AcDbSpline
 62
7
  6
CONTINUOUS
 70
0
 71
3
 72
39
 73
35
 74
0
 42
0.0000001
 43
0.0000001
 44
0.0000000001
 40
0.0
 40
0.0
 40
0.0
 40
0.0
 40
0.0299424683
 40
0.0599093148
 40
0.0899243219
 40
0.1200101034
 40
0.1501875656
 40
0.1804754221
 40
0.2108897722
 40
0.2414437551
 40
0.2721472861
 40
0.3030068757
 40
0.334025535
 40
0.3652027614
 40
0.3965346031
 40
0.4280137946
 40
0.459629957
 40
0.4913698552
 40
0.5232177051
 40
0.5551555222
 40
0.5871635048
 40
0.6192204442
 40
0.6513041551
 40
0.68339192
 40
0.7154609412
 40
0.7474887928
 40
0.7794538702
 40
0.8113358216
 40
0.8431159806
 40
0.8747777136
 40
0.9063069224
 40
0.9376919709
 40
0.9689249367
 40
1.0
 40
1.0
 40
1.0
 40
1.0
 10
9.9131926688
 20
5.8471595378
 30
0.0
 10
9.9100422886
 20
5.8441165294
 30
0.0
 10
9.9034937639
 20
5.8382761465
 30
0.0
 10
9.8930020609
 20
5.8303196319
 30
0.0
 10
9.8818950204
 20
5.8232070452
 30
0.0
 10
9.870234716
 20
5.8169782724
 30
0.0
 10
9.8580852512
 20
5.811667346
 30
0.0
 10
9.8455136778
 20
5.807303459
 30
0.0
 10
9.8325892719
 20
5.8039104881
 30
0.0
 10
9.8193832371
 20
5.8015069575
 30
0.0
 10
9.8059682827
 20
5.800105923
 30
0.0
 10
9.7924182282
 20
5.799714917
 30
0.0
 10
9.7788075948
 20
5.8003359151
 30
0.0
 10
9.7652111988
 20
5.8019653346
 30
0.0
 10
9.751703744
 20
5.8045940618
 30
0.0
 10
9.7383594158
 20
5.8082075084
 30
0.0
 10
9.7252514795
 20
5.8127856966
 30
0.0
 10
9.7124518831
 20
5.8183033703
 30
0.0
 10
9.7000308683
 20
5.8247301373
 30
0.0
 10
9.6880565903
 20
5.8320306371
 30
0.0
 10
9.6765947489
 20
5.8401647342
 30
0.0
 10
9.6657082325
 20
5.8490877382
 30
0.0
 10
9.6554567774
 20
5.8587506466
 30
0.0
 10
9.6458966433
 20
5.8691004122
 30
0.0
 10
9.6370803085
 20
5.8800802309
 30
0.0
 10
9.6290561837
 20
5.8916298507
 30
0.0
 10
9.6218683505
 20
5.9036858983
 30
0.0
 10
9.615556316
 20
5.9161822244
 30
0.0
 10
9.6101548121
 20
5.9290502542
 30
0.0
 10
9.6056935668
 20
5.9422193933
 30
0.0
 10
9.6021972263
 20
5.9556172738
 30
0.0
 10
9.599685051
 20
5.9691706441
 30
0.0
 10
9.5981710765
 20
5.9828040325
 30
0.0
 10
9.597831957
 20
5.9919220741
 30
0.0
 10
9.597831957
 20
5.9964677976
 30
0.0
  0
SPLINE
  5
389
100
AcDbEntity
  8
0
100
AcDbSpline
 62
7
  6
CONTINUOUS
 70
0
 71
3
 72
39
 73
35
 74
0
 42
0.0000001
 43
0.0000001
 44
0.0000000001
 40
0.0
 40
0.0
 40
0.0
 40
0.0
 40
0.0311159951
 40
0.062023302
 40
0.0927351462
 40
0.1232711779
 40
0.1536587317
 40
0.1839312106
 40
0.2141268394
 40
0.2442870987
 40
0.2744549756
 40
0.3046731307
 40
0.3349820889
 40
0.3654185443
 40
0.3960138644
 40
0.4267928812
 40
0.4577729965
 40
0.4889636213
 40
0.5203659689
 40
0.5519731774
 40
0.5837707183
 40
0.6157370645
 40
0.6478445901
 40
0.6800606397
 40
0.712348731
 40
0.7446698625
 40
0.7769838844
 40
0.809250893
 40
0.8414326244
 40
0.8734938009
 40
0.9054034054
 40
0.9371359272
 40
0.9686717714
 40
1.0
 40
1.0
 40
1.0
 40
1.0
 10
10.0692602927
 20
7.1629658775
 30
0.0
 10
10.0692602927
 20
7.1554555069
 30
0.0
 10
10.0685270851
 20
7.1404742699
 30
0.0
 10
10.0652111084
 20
7.1183019298
 30
0.0
 10
10.0597140082
 20
7.0967087909
 30
0.0
 10
10.0520877443
 20
7.0759061
 30
0.0
 10
10.0424052851
 20
7.0560943409
 30
0.0
 10
10.0307596344
 20
7.0374654272
 30
0.0
 10
10.0172629762
 20
7.0201997257
 30
0.0
 10
10.0020456084
 20
7.0044645343
 30
0.0
 10
9.98525479
 20
6.990412148
 30
0.0
 10
9.9670531205
 20
6.9781784093
 30
0.0
 10
9.947616863
 20
6.9678813921
 30
0.0
 10
9.9271341981
 20
6.9596201793
 30
0.0
 10
9.9058033104
 20
6.9534738569
 30
0.0
 10
9.8838303243
 20
6.9495009627
 30
0.0
 10
9.8614273001
 20
6.9477390083
 30
0.0
 10
9.8388101862
 20
6.9482040337
 30
0.0
 10
9.8161967097
 20
6.9508906527
 30
0.0
 10
9.7938043296
 20
6.9557722434
 30
0.0
 10
9.7718482001
 20
6.9628011892
 30
0.0
 10
9.7505391045
 20
6.9719092731
 30
0.0
 10
9.7300815229
 20
6.9830085198
 30
0.0
 10
9.7106717481
 20
6.9959920366
 30
0.0
 10
9.6924959677
 20
7.0107349042
 30
0.0
 10
9.6757285344
 20
7.0270954342
 30
0.0
 10
9.6605303899
 20
7.0449165694
 30
0.0
 10
9.6470475345
 20
7.0640273243
 30
0.0
 10
9.6354095261
 20
7.0842442956
 30
0.0
 10
9.6257283867
 20
7.1053735877
 30
0.0
 10
9.6180975354
 20
7.1272122867
 30
0.0
 10
9.6125908963
 20
7.1495514689
 30
0.0
 10
9.609261811
 20
7.1721737786
 30
0.0
 10
9.6085136462
 20
7.1873571692
 30
0.0
 10
9.6085136462
 20
7.1949187659
 30
0.0
  0
SPLINE
  5
38A
100
AcDbEntity
  8
0
100
AcDbSpline
 62
7
  6
CONTINUOUS
 70
0
 71
3
 72
67
 73
63
 74
0
 42
0.0000001
 43
0.0000001
 44
0.0000000001
 40
0.0
 40
0.0
 40
0.0
 40
0.0
 40
0.0186279168
 40
0.0376789862
 40
0.0571274372
 40
0.0769486302
 40
0.0971162871
 40
0.1176036401
 40
0.159426917
 40
0.2021941344
 40
0.2456733765
 40
0.2896276152
 40
0.3338164422
 40
0.3779977876
 40
0.4219296362
 40
0.4653717395
 40
0.5080873283
 40
0.5498448708
 40
0.5702942192
 40
0.5904205104
 40
0.6101970755
 40
0.6295979059
 40
0.6485977223
 40
0.6671720587
 40
0.6852973107
 40
0.7029508014
 40
0.7201108784
 40
0.7367570084
 40
0.7528698479
 40
0.7684313489
 40
0.7834249102
 40
0.7978355101
 40
0.8116498528
 40
0.8248565759
 40
0.8374465272
 40
0.8494130385
 40
0.860752289
 40
0.8714637975
 40
0.8815510471
 40
0.8910222223
 40
0.8998911887
 40
0.9081787659
 40
0.9159142711
 40
0.9231373305
 40
0.9298999105
 40
0.9362682546
 40
0.9393311166
 40
0.9423273815
 40
0.9452696119
 40
0.9481711489
 40
0.9510459551
 40
0.9539084321
 40
0.9567731805
 40
0.9596547665
 40
0.9625674737
 40
0.9655250972
 40
0.9685407491
 40
0.9716267108
 40
0.9780513356
 40
0.9848814787
 40
0.9921810548
 40
1.0
 40
1.0
 40
1.0
 40
1.0
 10
9.6038190848
 20
12.1828372914
 30
0.0
 10
9.6145410584
 20
12.1847804023
 30
0.0
 10
9.6362572769
 20
12.1885538939
 30
0.0
 10
9.6692572106
 20
12.1938253355
 30
0.0
 10
9.703013909
 20
12.1987660561
 30
0.0
 10
9.7374773445
 20
12.2033687629
 30
0.0
 10
9.7725973182
 20
12.2076267115
 30
0.0
 10
9.8205589582
 20
12.2128716745
 30
0.0
 10
9.8817724296
 20
12.2185045547
 30
0.0
 10
9.9565093622
 20
12.2237578323
 30
0.0
 10
10.0325842728
 20
12.2275189418
 30
0.0
 10
10.109550674
 20
12.229765571
 30
0.0
 10
10.1869571595
 20
12.2304843513
 30
0.0
 10
10.264349614
 20
12.2296710244
 30
0.0
 10
10.3412740048
 20
12.2273303977
 30
0.0
 10
10.4172791756
 20
12.223476437
 30
0.0
 10
10.4919190508
 20
12.2181319447
 30
0.0
 10
10.5530343083
 20
12.2124239107
 30
0.0
 10
10.6009040502
 20
12.2071198007
 30
0.0
 10
10.6359457185
 20
12.202818917
 30
0.0
 10
10.6703246464
 20
12.1981741
 30
0.0
 10
10.7039904208
 20
12.1931921485
 30
0.0
 10
10.7368936262
 20
12.1878804082
 30
0.0
 10
10.7689859983
 20
12.1822467265
 30
0.0
 10
10.8002204667
 20
12.1762994175
 30
0.0
 10
10.830551223
 20
12.1700472429
 30
0.0
 10
10.8599338046
 20
12.1634994231
 30
0.0
 10
10.8883251684
 20
12.1566656353
 30
0.0
 10
10.9156837391
 20
12.1495559633
 30
0.0
 10
10.9419694735
 20
12.1421808775
 30
0.0
 10
10.9671439481
 20
12.1345512613
 30
0.0
 10
10.9911704172
 20
12.1266783709
 30
0.0
 10
11.0140138548
 20
12.1185737932
 30
0.0
 10
11.0356410245
 20
12.1102494159
 30
0.0
 10
11.0560205707
 20
12.1017174522
 30
0.0
 10
11.0751230591
 20
12.0929903518
 30
0.0
 10
11.0929210178
 20
12.084080742
 30
0.0
 10
11.1093890103
 20
12.0750013671
 30
0.0
 10
11.124503711
 20
12.065765042
 30
0.0
 10
11.1382438868
 20
12.0563844578
 30
0.0
 10
11.1505903434
 20
12.0468720261
 30
0.0
 10
11.1615258611
 20
12.0372396451
 30
0.0
 10
11.1710348542
 20
12.0274987115
 30
0.0
 10
11.1791029972
 20
12.0176592071
 30
0.0
 10
11.1857156287
 20
12.0077324372
 30
0.0
 10
11.1900570352
 20
11.9992847325
 30
0.0
 10
11.1927468996
 20
11.9925262437
 30
0.0
 10
11.1943674496
 20
11.9875120445
 30
0.0
 10
11.1956159483
 20
11.9824896026
 30
0.0
 10
11.1964917783
 20
11.9774608357
 30
0.0
 10
11.1969942157
 20
11.9724279208
 30
0.0
 10
11.1971230459
 20
11.9673930969
 30
0.0
 10
11.1968781449
 20
11.9623586203
 30
0.0
 10
11.1962596089
 20
11.9573267671
 30
0.0
 10
11.1952679774
 20
11.9522997209
 30
0.0
 10
11.1939038104
 20
11.9472796609
 30
0.0
 10
11.1921678499
 20
11.9422684837
 30
0.0
 10
11.1893213573
 20
11.9355118139
 30
0.0
 10
11.1847844571
 20
11.9270705179
 30
0.0
 10
11.1779447713
 20
11.9171567278
 30
0.0
 10
11.1696523236
 20
11.9073322003
 30
0.0
 10
11.1633890703
 20
11.9010734338
 30
0.0
 10
11.1600408204
 20
11.8979575488
 30
0.0
  0
SPLINE
  5
38B
100
AcDbEntity
  8
0
100
AcDbSpline
 62
7
  6
CONTINUOUS
 70
0
 71
3
 72
82
 73
78
 74
0
 42
0.0000001
 43
0.0000001
 44
0.0000000001
 40
0.0
 40
0.0
 40
0.0
 40
0.0
 40
0.0027164293
 40
0.0054532352
 40
0.0082303039
 40
0.0110666017
 40
0.0139798083
 40
0.0169861229
 40
0.0201000879
 40
0.0233346065
 40
0.0267009682
 40
0.0302089184
 40
0.0338668424
 40
0.037681809
 40
0.0416597867
 40
0.0458057216
 40
0.0501236475
 40
0.0546168506
 40
0.0592878619
 40
0.0641386413
 40
0.0691705739
 40
0.0743845478
 40
0.0797810495
 40
0.0853601154
 40
0.0970639755
 40
0.1094907276
 40
0.1226299755
 40
0.1364676385
 40
0.1509864523
 40
0.1661663556
 40
0.1819848033
 40
0.198417037
 40
0.2154363025
 40
0.2330140358
 40
0.2511200237
 40
0.2697225441
 40
0.2887885095
 40
0.3082835936
 40
0.3281723476
 40
0.3484183114
 40
0.3689841164
 40
0.3898315949
 40
0.4109218859
 40
0.4536718839
 40
0.4969138843
 40
0.5403221633
 40
0.5835694113
 40
0.6263298543
 40
0.6474272888
 40
0.668283168
 40
0.6888586078
 40
0.7091154181
 40
0.7290162075
 40
0.7485244842
 40
0.7676047632
 40
0.7862226768
 40
0.8043450949
 40
0.8219402576
 40
0.8389779015
 40
0.8554294043
 40
0.8712679467
 40
0.8864686995
 40
0.901009051
 40
0.9148688601
 40
0.9280307634
 40
0.9404805673
 40
0.9522077427
 40
0.9577985182
 40
0.9632067335
 40
0.9684324298
 40
0.9734760263
 40
0.9783383919
 40
0.9830208436
 40
0.98752538
 40
0.991854594
 40
0.9960115787
 40
1.0
 40
1.0
 40
1.0
 40
1.0
 10
13.6624827066
 20
10.26132182
 30
0.0
 10
13.6639524776
 20
10.2612198859
 30
0.0
 10
13.6668955143
 20
10.2608821861
 30
0.0
 10
13.6712726027
 20
10.2599786151
 30
0.0
 10
13.6756166153
 20
10.2586781252
 30
0.0
 10
13.6799244347
 20
10.2569819348
 30
0.0
 10
13.6841938806
 20
10.2548916507
 30
0.0
 10
13.6884227038
 20
10.2524087902
 30
0.0
 10
13.6926090094
 20
10.2495352178
 30
0.0
 10
13.6967509144
 20
10.2462727115
 30
0.0
 10
13.7008466052
 20
10.2426231604
 30
0.0
 10
13.7048943846
 20
10.2385886205
 30
0.0
 10
13.7088923903
 20
10.234171113
 30
0.0
 10
13.7128389389
 20
10.2293729536
 30
0.0
 10
13.7167321881
 20
10.2241964899
 30
0.0
 10
13.7205703419
 20
10.2186442869
 30
0.0
 10
13.7243516494
 20
10.2127191026
 30
0.0
 10
13.7280742212
 20
10.2064238097
 30
0.0
 10
13.7317363543
 20
10.1997615538
 30
0.0
 10
13.7353361973
 20
10.1927355934
 30
0.0
 10
13.738872007
 20
10.1853494148
 30
0.0
 10
13.7423420542
 20
10.1776066899
 30
0.0
 10
13.745744593
 20
10.169511232
 30
0.0
 10
13.7502613103
 20
10.158069048
 30
0.0
 10
13.7557087174
 20
10.1428994693
 30
0.0
 10
13.7618501842
 20
10.1236371755
 30
0.0
 10
13.767684009
 20
10.1030741009
 30
0.0
 10
13.7731984119
 20
10.0812513143
 30
0.0
 10
13.7783822038
 20
10.0582121378
 30
0.0
 10
13.7832248509
 20
10.0340025733
 30
0.0
 10
13.7877165095
 20
10.0086710289
 30
0.0
 10
13.7918480397
 20
9.9822682402
 30
0.0
 10
13.7956110317
 20
9.954847137
 30
0.0
 10
13.7989978227
 20
9.9264627318
 30
0.0
 10
13.8020015132
 20
9.8971720068
 30
0.0
 10
13.8046159939
 20
9.8670337949
 30
0.0
 10
13.8068359436
 20
9.8361086528
 30
0.0
 10
13.8086568405
 20
9.8044587303
 30
0.0
 10
13.8100749701
 20
9.7721476442
 30
0.0
 10
13.8110874334
 20
9.7392403469
 30
0.0
 10
13.8116921487
 20
9.7058030184
 30
0.0
 10
13.8118879093
 20
9.6719028434
 30
0.0
 10
13.8116016221
 20
9.6259709854
 30
0.0
 10
13.8102125892
 20
9.5679040256
 30
0.0
 10
13.8069390059
 20
9.4977922223
 30
0.0
 10
13.8020770357
 20
9.4275020808
 30
0.0
 10
13.7956657509
 20
9.3575987811
 30
0.0
 10
13.7890460304
 20
9.2998812019
 30
0.0
 10
13.7830047903
 20
9.2543332497
 30
0.0
 10
13.7781425569
 20
9.2207692078
 30
0.0
 10
13.7729388423
 20
9.1877178859
 30
0.0
 10
13.7674040979
 20
9.1552456921
 30
0.0
 10
13.7615495058
 20
9.1234179214
 30
0.0
 10
13.7553868782
 20
9.0922985482
 30
0.0
 10
13.7489286546
 20
9.0619501196
 30
0.0
 10
13.7421878711
 20
9.0324336227
 30
0.0
 10
13.7351781368
 20
9.0038083548
 30
0.0
 10
13.7279136171
 20
8.9761317957
 30
0.0
 10
13.7204089915
 20
8.9494594914
 30
0.0
 10
13.7126794259
 20
8.9238449422
 30
0.0
 10
13.704740541
 20
8.8993394879
 30
0.0
 10
13.6966083741
 20
8.8759921933
 30
0.0
 10
13.6882993539
 20
8.8538497151
 30
0.0
 10
13.6798302551
 20
8.8329562365
 30
0.0
 10
13.6712181267
 20
8.8133532104
 30
0.0
 10
13.6624803007
 20
8.7950797792
 30
0.0
 10
13.6549940221
 20
8.7807702892
 30
0.0
 10
13.6489432141
 20
8.7700308193
 30
0.0
 10
13.6444570029
 20
8.7624596455
 30
0.0
 10
13.6399525117
 20
8.7552468863
 30
0.0
 10
13.6354319105
 20
8.7483961447
 30
0.0
 10
13.6308975353
 20
8.7419107982
 30
0.0
 10
13.6263515204
 20
8.7357940806
 30
0.0
 10
13.6217961022
 20
8.730048934
 30
0.0
 10
13.6172333832
 20
8.7246781775
 30
0.0
 10
13.6126658295
 20
8.7196847269
 30
0.0
 10
13.6095557682
 20
8.7165450014
 30
0.0
 10
13.6079998855
 20
8.715042134
 30
0.0
  0
SPLINE
  5
38C
100
AcDbEntity
  8
0
100
AcDbSpline
 62
7
  6
CONTINUOUS
 70
0
 71
3
 72
39
 73
35
 74
0
 42
0.0000001
 43
0.0000001
 44
0.0000000001
 40
0.0
 40
0.0
 40
0.0
 40
0.0
 40
0.0313282286
 40
0.0628640728
 40
0.0945965946
 40
0.1265061991
 40
0.1585673756
 40
0.190749107
 40
0.2230161156
 40
0.2553301375
 40
0.287651269
 40
0.3199393603
 40
0.3521554099
 40
0.3842629355
 40
0.4162292817
 40
0.4480268226
 40
0.4796340311
 40
0.5110363787
 40
0.5422270035
 40
0.5732071188
 40
0.6039861356
 40
0.6345814557
 40
0.6650179111
 40
0.6953268693
 40
0.7255450244
 40
0.7557129013
 40
0.7858731606
 40
0.8160687894
 40
0.8463412683
 40
0.8767288221
 40
0.9072648538
 40
0.937976698
 40
0.9688840049
 40
1.0
 40
1.0
 40
1.0
 40
1.0
 10
10.0692602927
 20
7.1629658775
 30
0.0
 10
10.0692602927
 20
7.1705274742
 30
0.0
 10
10.0685121279
 20
7.1857108647
 30
0.0
 10
10.0651830426
 20
7.2083331744
 30
0.0
 10
10.0596764035
 20
7.2306723567
 30
0.0
 10
10.0520455522
 20
7.2525110557
 30
0.0
 10
10.0423644128
 20
7.2736403478
 30
0.0
 10
10.0307264044
 20
7.293857319
 30
0.0
 10
10.017243549
 20
7.312968074
 30
0.0
 10
10.0020454045
 20
7.3307892091
 30
0.0
 10
9.9852779712
 20
7.3471497392
 30
0.0
 10
9.9671021908
 20
7.3618926067
 30
0.0
 10
9.947692416
 20
7.3748761236
 30
0.0
 10
9.9272348344
 20
7.3859753702
 30
0.0
 10
9.9059257388
 20
7.3950834541
 30
0.0
 10
9.8839696093
 20
7.4021123999
 30
0.0
 10
9.8615772292
 20
7.4069939907
 30
0.0
 10
9.8389637527
 20
7.4096806097
 30
0.0
 10
9.8163466388
 20
7.4101456351
 30
0.0
 10
9.7939436146
 20
7.4083836806
 30
0.0
 10
9.7719706285
 20
7.4044107865
 30
0.0
 10
9.7506397408
 20
7.3982644641
 30
0.0
 10
9.7301570759
 20
7.3900032513
 30
0.0
 10
9.7107208184
 20
7.3797062341
 30
0.0
 10
9.6925191489
 20
7.3674724953
 30
0.0
 10
9.6757283305
 20
7.353420109
 30
0.0
 10
9.6605109627
 20
7.3376849177
 30
0.0
 10
9.6470143045
 20
7.3204192161
 30
0.0
 10
9.6353686538
 20
7.3017903025
 30
0.0
 10
9.6256861946
 20
7.2819785434
 30
0.0
 10
9.6180599307
 20
7.2611758525
 30
0.0
 10
9.6125628305
 20
7.2395827136
 30
0.0
 10
9.6092468538
 20
7.2174103734
 30
0.0
 10
9.6085136462
 20
7.2024291365
 30
0.0
 10
9.6085136462
 20
7.1949187659
 30
0.0
  0
SPLINE
  5
38D
100
AcDbEntity
  8
0
100
AcDbSpline
 62
7
  6
CONTINUOUS
 70
0
 71
3
 72
18
 73
14
 74
0
 42
0.0000001
 43
0.0000001
 44
0.0000000001
 40
0.0
 40
0.0
 40
0.0
 40
0.0
 40
0.1504686872
 40
0.2917143508
 40
0.4244422581
 40
0.4879097286
 40
0.549609416
 40
0.6682625881
 40
0.7817882869
 40
0.8371380068
 40
0.8918078217
 40
0.9460192903
 40
1.0
 40
1.0
 40
1.0
 40
1.0
 10
13.6079998855
 20
8.715042134
 30
0.0
 10
13.6057735372
 20
8.7128916466
 30
0.0
 10
13.6013238866
 20
8.708856716
 30
0.0
 10
13.5944340588
 20
8.7034797037
 30
0.0
 10
13.5886144497
 20
8.6996767848
 30
0.0
 10
13.5839738048
 20
8.6971015755
 30
0.0
 10
13.5794696907
 20
8.6948906567
 30
0.0
 10
13.5738381139
 20
8.692656618
 30
0.0
 10
13.5681063685
 20
8.6911320873
 30
0.0
 10
13.5635666541
 20
8.6903810814
 30
0.0
 10
13.5602020954
 20
8.6900477945
 30
0.0
 10
13.5568511504
 20
8.6899401362
 30
0.0
 10
13.5546248634
 20
8.6900188845
 30
0.0
 10
13.5535170644
 20
8.6900957145
 30
0.0
  0
SPLINE
  5
38E
100
AcDbEntity
  8
0
100
AcDbSpline
 62
4
  6
CONTINUOUS
 70
0
 71
3
 72
313
 73
309
 74
0
 42
0.0000001
 43
0.0000001
 44
0.0000000001
 40
0.0
 40
0.0
 40
0.0
 40
0.0
 40
0.015625
 40
0.0234375
 40
0.03125
 40
0.0390625
 40
0.046875
 40
0.05078125
 40
0.0546875
 40
0.056640625
 40
0.05859375
 40
0.060546875
 40
0.0615234375
 40
0.0620117188
 40
0.0625
 40
0.0629882812
 40
0.0634765625
 40
0.064453125
 40
0.06640625
 40
0.068359375
 40
0.0703125
 40
0.07421875
 40
0.078125
 40
0.0859375
 40
0.09375
 40
0.1015625
 40
0.109375
 40
0.11328125
 40
0.1171875
 40
0.119140625
 40
0.12109375
 40
0.123046875
 40
0.1240234375
 40
0.1245117188
 40
0.125
 40
0.1254882812
 40
0.1259765625
 40
0.126953125
 40
0.12890625
 40
0.130859375
 40
0.1328125
 40
0.13671875
 40
0.140625
 40
0.1484375
 40
0.15625
 40
0.1640625
 40
0.171875
 40
0.17578125
 40
0.1796875
 40
0.181640625
 40
0.18359375
 40
0.185546875
 40
0.1865234375
 40
0.1870117188
 40
0.1875
 40
0.1879882812
 40
0.1884765625
 40
0.189453125
 40
0.19140625
 40
0.193359375
 40
0.1953125
 40
0.19921875
 40
0.203125
 40
0.2109375
 40
0.21875
 40
0.2265625
 40
0.234375
 40
0.23828125
 40
0.2421875
 40
0.244140625
 40
0.24609375
 40
0.248046875
 40
0.2490234375
 40
0.2495117188
 40
0.25
 40
0.2504882812
 40
0.2509765625
 40
0.251953125
 40
0.25390625
 40
0.255859375
 40
0.2578125
 40
0.26171875
 40
0.265625
 40
0.2734375
 40
0.28125
 40
0.2890625
 40
0.296875
 40
0.30078125
 40
0.3046875
 40
0.306640625
 40
0.30859375
 40
0.310546875
 40
0.3115234375
 40
0.3120117188
 40
0.3125
 40
0.3129882812
 40
0.3134765625
 40
0.314453125
 40
0.31640625
 40
0.318359375
 40
0.3203125
 40
0.32421875
 40
0.328125
 40
0.3359375
 40
0.34375
 40
0.3515625
 40
0.359375
 40
0.36328125
 40
0.3671875
 40
0.369140625
 40
0.37109375
 40
0.373046875
 40
0.3740234375
 40
0.3745117188
 40
0.375
 40
0.3754882812
 40
0.3759765625
 40
0.376953125
 40
0.37890625
 40
0.380859375
 40
0.3828125
 40
0.38671875
 40
0.390625
 40
0.3984375
 40
0.40625
 40
0.4140625
 40
0.421875
 40
0.42578125
 40
0.4296875
 40
0.431640625
 40
0.43359375
 40
0.435546875
 40
0.4365234375
 40
0.4370117188
 40
0.4375
 40
0.4379882812
 40
0.4384765625
 40
0.439453125
 40
0.44140625
 40
0.443359375
 40
0.4453125
 40
0.44921875
 40
0.453125
 40
0.4609375
 40
0.46875
 40
0.4765625
 40
0.484375
 40
0.48828125
 40
0.4921875
 40
0.494140625
 40
0.49609375
 40
0.498046875
 40
0.4990234375
 40
0.4995117188
 40
0.5
 40
0.5004882812
 40
0.5009765625
 40
0.501953125
 40
0.50390625
 40
0.505859375
 40
0.5078125
 40
0.51171875
 40
0.515625
 40
0.5234375
 40
0.53125
 40
0.5390625
 40
0.546875
 40
0.55078125
 40
0.5546875
 40
0.556640625
 40
0.55859375
 40
0.560546875
 40
0.5615234375
 40
0.5620117188
 40
0.5625
 40
0.5629882812
 40
0.5634765625
 40
0.564453125
 40
0.56640625
 40
0.568359375
 40
0.5703125
 40
0.57421875
 40
0.578125
 40
0.5859375
 40
0.59375
 40
0.6015625
 40
0.609375
 40
0.61328125
 40
0.6171875
 40
0.619140625
 40
0.62109375
 40
0.623046875
 40
0.6240234375
 40
0.6245117188
 40
0.625
 40
0.6254882812
 40
0.6259765625
 40
0.626953125
 40
0.62890625
 40
0.630859375
 40
0.6328125
 40
0.63671875
 40
0.640625
 40
0.6484375
 40
0.65625
 40
0.6640625
 40
0.671875
 40
0.67578125
 40
0.6796875
 40
0.681640625
 40
0.68359375
 40
0.685546875
 40
0.6865234375
 40
0.6870117188
 40
0.6875
 40
0.6879882812
 40
0.6884765625
 40
0.689453125
 40
0.69140625
 40
0.693359375
 40
0.6953125
 40
0.69921875
 40
0.703125
 40
0.7109375
 40
0.71875
 40
0.7265625
 40
0.734375
 40
0.73828125
 40
0.7421875
 40
0.744140625
 40
0.74609375
 40
0.748046875
 40
0.7490234375
 40
0.7495117188
 40
0.75
 40
0.7504882812
 40
0.7509765625
 40
0.751953125
 40
0.75390625
 40
0.755859375
 40
0.7578125
 40
0.76171875
 40
0.765625
 40
0.7734375
 40
0.78125
 40
0.7890625
 40
0.796875
 40
0.80078125
 40
0.8046875
 40
0.806640625
 40
0.80859375
 40
0.810546875
 40
0.8115234375
 40
0.8120117188
 40
0.8125
 40
0.8129882812
 40
0.8134765625
 40
0.814453125
 40
0.81640625
 40
0.818359375
 40
0.8203125
 40
0.82421875
 40
0.828125
 40
0.8359375
 40
0.84375
 40
0.8515625
 40
0.859375
 40
0.86328125
 40
0.8671875
 40
0.869140625
 40
0.87109375
 40
0.873046875
 40
0.8740234375
 40
0.8745117188
 40
0.875
 40
0.8754882812
 40
0.8759765625
 40
0.876953125
 40
0.87890625
 40
0.880859375
 40
0.8828125
 40
0.88671875
 40
0.890625
 40
0.8984375
 40
0.90625
 40
0.9140625
 40
0.921875
 40
0.92578125
 40
0.9296875
 40
0.931640625
 40
0.93359375
 40
0.935546875
 40
0.9365234375
 40
0.9370117188
 40
0.9375
 40
0.9379882812
 40
0.9384765625
 40
0.939453125
 40
0.94140625
 40
0.943359375
 40
0.9453125
 40
0.94921875
 40
0.953125
 40
0.9609375
 40
0.96875
 40
0.9765625
 40
0.984375
 40
1.0
 40
1.0
 40
1.0
 40
1.0
 10
9.7692644809
 20
9.2586619671
 30
0.0
 10
9.7725543273
 20
9.2587563877
 30
0.0
 10
9.7774890969
 20
9.2588980184
 30
0.0
 10
9.7840687894
 20
9.2590868604
 30
0.0
 10
9.7890035594
 20
9.2592284892
 30
0.0
 10
9.7939383274
 20
9.259370128
 30
0.0
 10
9.7980506401
 20
9.2594881294
 30
0.0
 10
9.8013404767
 20
9.2595825998
 30
0.0
 10
9.8033966554
 20
9.2596414861
 30
0.0
 10
9.8050415278
 20
9.2596889563
 30
0.0
 10
9.8062753753
 20
9.2597235701
 30
0.0
 10
9.8073029671
 20
9.2597555606
 30
0.0
 10
9.8080234871
 20
9.2597717806
 30
0.0
 10
9.8084333301
 20
9.2597906883
 30
0.0
 10
9.8087460161
 20
9.2597777156
 30
0.0
 10
9.8090384285
 20
9.2598685373
 30
0.0
 10
9.8094353835
 20
9.2599534283
 30
0.0
 10
9.8101267598
 20
9.2601188559
 30
0.0
 10
9.8111161629
 20
9.2603463621
 30
0.0
 10
9.8123027092
 20
9.2606231443
 30
0.0
 10
9.8138850285
 20
9.2609908688
 30
0.0
 10
9.8158628395
 20
9.2614509758
 30
0.0
 10
9.8190273864
 20
9.2621868947
 30
0.0
 10
9.8229830528
 20
9.2631068804
 30
0.0
 10
9.8277298609
 20
9.2642108236
 30
0.0
 10
9.8324766631
 20
9.2653147863
 30
0.0
 10
9.836432344
 20
9.2662347233
 30
0.0
 10
9.839596862
 20
9.2669707396
 30
0.0
 10
9.8415747463
 20
9.267430599
 30
0.0
 10
9.8431569152
 20
9.2677988318
 30
0.0
 10
9.8443439209
 20
9.2680740608
 30
0.0
 10
9.8453318868
 20
9.2683064266
 30
0.0
 10
9.8460258287
 20
9.268463179
 30
0.0
 10
9.8464186731
 20
9.2685619698
 30
0.0
 10
9.8467237118
 20
9.2686100958
 30
0.0
 10
9.8469889758
 20
9.268757481
 30
0.0
 10
9.847356535
 20
9.2689193718
 30
0.0
 10
9.8479932994
 20
9.2692188121
 30
0.0
 10
9.8489063425
 20
9.2696381503
 30
0.0
 10
9.8500005476
 20
9.270144966
 30
0.0
 10
9.851459993
 20
9.2708194595
 30
0.0
 10
9.8532841268
 20
9.271663008
 30
0.0
 10
9.8562028376
 20
9.2730124443
 30
0.0
 10
9.8598511926
 20
9.274699323
 30
0.0
 10
9.8642292341
 20
9.2767235395
 30
0.0
 10
9.8686072669
 20
9.2787477747
 30
0.0
 10
9.8722556437
 20
9.2804346063
 30
0.0
 10
9.8751743109
 20
9.2817841369
 30
0.0
 10
9.8769985554
 20
9.2826274458
 30
0.0
 10
9.8784577736
 20
9.2833024311
 30
0.0
 10
9.8795526729
 20
9.2838077439
 30
0.0
 10
9.8804635439
 20
9.2842317845
 30
0.0
 10
9.8811041859
 20
9.2845228303
 30
0.0
 10
9.8814655323
 20
9.2846981712
 30
0.0
 10
9.8817498802
 20
9.284804242
 30
0.0
 10
9.8819832427
 20
9.2850075378
 30
0.0
 10
9.882312177
 20
9.2852446858
 30
0.0
 10
9.8828795261
 20
9.2856754954
 30
0.0
 10
9.8836943567
 20
9.2862826769
 30
0.0
 10
9.8846702992
 20
9.2870148306
 30
0.0
 10
9.8859722035
 20
9.2879898005
 30
0.0
 10
9.8875993622
 20
9.2892089358
 30
0.0
 10
9.89020294
 20
9.2911593158
 30
0.0
 10
9.8934573693
 20
9.2935973724
 30
0.0
 10
9.8973627048
 20
9.2965230036
 30
0.0
 10
9.9012680276
 20
9.2994486512
 30
0.0
 10
9.9045224888
 20
9.3018866666
 30
0.0
 10
9.9071260029
 20
9.3038371289
 30
0.0
 10
9.9087533235
 20
9.3050560551
 30
0.0
 10
9.9100548954
 20
9.3060314541
 30
0.0
 10
9.9110318534
 20
9.3067622968
 30
0.0
 10
9.911843507
 20
9.3073735802
 30
0.0
 10
9.9124165275
 20
9.3077970673
 30
0.0
 10
9.9127363747
 20
9.3080459477
 30
0.0
 10
9.91299765
 20
9.308213205
 30
0.0
 10
9.9131771621
 20
9.3084546305
 30
0.0
 10
9.9134450316
 20
9.3087506605
 30
0.0
 10
9.9139005152
 20
9.3092807666
 30
0.0
 10
9.9145581531
 20
9.3100317592
 30
0.0
 10
9.915344345
 20
9.3109356477
 30
0.0
 10
9.9163936396
 20
9.3121398902
 30
0.0
 10
9.9177049021
 20
9.3136455159
 30
0.0
 10
9.919803121
 20
9.3160543368
 30
0.0
 10
9.9224258259
 20
9.3190654251
 30
0.0
 10
9.9255731033
 20
9.3226787028
 30
0.0
 10
9.9287203645
 20
9.3262919939
 30
0.0
 10
9.9313431099
 20
9.329303049
 30
0.0
 10
9.9334412479
 20
9.3317119362
 30
0.0
 10
9.9347527159
 20
9.3332173933
 30
0.0
 10
9.9358015886
 20
9.3344219819
 30
0.0
 10
9.9365890694
 20
9.335324813
 30
0.0
 10
9.9372426748
 20
9.3360791142
 30
0.0
 10
9.9377053572
 20
9.3366033138
 30
0.0
 10
9.9379616923
 20
9.3369088073
 30
0.0
 10
9.9381766343
 20
9.3371211638
 30
0.0
 10
9.9383048411
 20
9.3373975995
 30
0.0
 10
9.9385060378
 20
9.3377438289
 30
0.0
 10
9.938844036
 20
9.3383601442
 30
0.0
 10
9.9393342601
 20
9.3392351502
 30
0.0
 10
9.9399193746
 20
9.3402874878
 30
0.0
 10
9.940700629
 20
9.3416897906
 30
0.0
 10
9.9416768198
 20
9.3434429478
 30
0.0
 10
9.943238936
 20
9.3462478436
 30
0.0
 10
9.9451915084
 20
9.349754017
 30
0.0
 10
9.9475346287
 20
9.353961401
 30
0.0
 10
9.9498777315
 20
9.3581687956
 30
0.0
 10
9.9518303478
 20
9.3616749425
 30
0.0
 10
9.9533923761
 20
9.3644798915
 30
0.0
 10
9.9543687903
 20
9.3662329134
 30
0.0
 10
9.9551495863
 20
9.3676354939
 30
0.0
 10
9.9557361014
 20
9.3686869834
 30
0.0
 10
9.9562219435
 20
9.3695646428
 30
0.0
 10
9.9565677642
 20
9.3701762213
 30
0.0
 10
9.9567564272
 20
9.3705300403
 30
0.0
 10
9.9569231334
 20
9.3707831629
 30
0.0
 10
9.9569934783
 20
9.3710830795
 30
0.0
 10
9.9571208835
 20
9.371466646
 30
0.0
 10
9.957328182
 20
9.3721454922
 30
0.0
 10
9.9576325102
 20
9.3731112966
 30
0.0
 10
9.9579941996
 20
9.3742719637
 30
0.0
 10
9.9584776761
 20
9.3758189255
 30
0.0
 10
9.9590816027
 20
9.3777528312
 30
0.0
 10
9.9600481195
 20
9.3808469666
 30
0.0
 10
9.9612561846
 20
9.384714675
 30
0.0
 10
9.9627058998
 20
9.3893559074
 30
0.0
 10
9.9641555959
 20
9.3939971479
 30
0.0
 10
9.9653637086
 20
9.3978648362
 30
0.0
 10
9.9663301301
 20
9.4009590119
 30
0.0
 10
9.966934299
 20
9.402892815
 30
0.0
 10
9.9674172781
 20
9.4044399873
 30
0.0
 10
9.9677804871
 20
9.4056000112
 30
0.0
 10
9.9680800609
 20
9.406567828
 30
0.0
 10
9.9682958469
 20
9.4072430819
 30
0.0
 10
9.9684096529
 20
9.4076324043
 30
0.0
 10
9.96852177
 20
9.4079146405
 30
0.0
 10
9.9685315868
 20
9.4082341674
 30
0.0
 10
9.9685803593
 20
9.4086471959
 30
0.0
 10
9.9686490855
 20
9.4093760562
 30
0.0
 10
9.9687559579
 20
9.4104141166
 30
0.0
 10
9.9688804844
 20
9.4116611454
 30
0.0
 10
9.9690478191
 20
9.4133233767
 30
0.0
 10
9.9692565425
 20
9.4154013281
 30
0.0
 10
9.9695907488
 20
9.4187259596
 30
0.0
 10
9.9700084207
 20
9.4228817801
 30
0.0
 10
9.9705096664
 20
9.4278687514
 30
0.0
 10
9.9710108921
 20
9.4328557261
 30
0.0
 10
9.971428614
 20
9.4370115381
 30
0.0
 10
9.9717627202
 20
9.4403361866
 30
0.0
 10
9.9719716981
 20
9.4424140949
 30
0.0
 10
9.9721385107
 20
9.4440764145
 30
0.0
 10
9.9722646323
 20
9.4453231734
 30
0.0
 10
9.9723665136
 20
9.4463620782
 30
0.0
 10
9.9724441499
 20
9.4470894312
 30
0.0
 10
9.9724786463
 20
9.4475048747
 30
0.0
 10
9.9725323146
 20
9.4478169835
 30
0.0
 10
9.9724797324
 20
9.4481270809
 30
0.0
 10
9.9724466841
 20
9.4485412457
 30
0.0
 10
9.972371582
 20
9.4492657072
 30
0.0
 10
9.972273321
 20
9.4503008231
 30
0.0
 10
9.9721515437
 20
9.451542889
 30
0.0
 10
9.9719905236
 20
9.4531990024
 30
0.0
 10
9.9717887863
 20
9.4552691355
 30
0.0
 10
9.9714662651
 20
9.4585813533
 30
0.0
 10
9.9710630243
 20
9.4627216238
 30
0.0
 10
9.970579176
 20
9.4676899494
 30
0.0
 10
9.9700953077
 20
9.4726582736
 30
0.0
 10
9.969692117
 20
9.4767985477
 30
0.0
 10
9.9693694956
 20
9.4801107582
 30
0.0
 10
9.9691680128
 20
9.4821809098
 30
0.0
 10
9.9690064703
 20
9.4838369852
 30
0.0
 10
9.9688862889
 20
9.4850791673
 30
0.0
 10
9.9687830347
 20
9.4861139198
 30
0.0
 10
9.9687168464
 20
9.48683903
 30
0.0
 10
9.968669516
 20
9.4872521554
 30
0.0
 10
9.9686608039
 20
9.4875654455
 30
0.0
 10
9.9685497033
 20
9.4878655629
 30
0.0
 10
9.9684372834
 20
9.4882703141
 30
0.0
 10
9.9682239087
 20
9.4889764881
 30
0.0
 10
9.9679277872
 20
9.4899864272
 30
0.0
 10
9.9675687177
 20
9.4911978751
 30
0.0
 10
9.967091259
 20
9.4928133063
 30
0.0
 10
9.9664939903
 20
9.494832538
 30
0.0
 10
9.9655386094
 20
9.4980633408
 30
0.0
 10
9.9643442972
 20
9.502101833
 30
0.0
 10
9.9629111618
 20
9.5069480293
 30
0.0
 10
9.9614780073
 20
9.5117942212
 30
0.0
 10
9.9602837429
 20
9.5158327246
 30
0.0
 10
9.9593282664
 20
9.5190635052
 30
0.0
 10
9.9587312404
 20
9.5210827933
 30
0.0
 10
9.9582532837
 20
9.5226981087
 30
0.0
 10
9.9578957356
 20
9.5239099104
 30
0.0
 10
9.9575948542
 20
9.5249187425
 30
0.0
 10
9.9573899767
 20
9.5256268926
 30
0.0
 10
9.9572639421
 20
9.5260284776
 30
0.0
 10
9.9571946615
 20
9.5263383209
 30
0.0
 10
9.9570288803
 20
9.5266150819
 30
0.0
 10
9.9568414991
 20
9.526995636
 30
0.0
 10
9.9564978991
 20
9.5276562292
 30
0.0
 10
9.9560152411
 20
9.5286027447
 30
0.0
 10
9.955432542
 20
9.5297373602
 30
0.0
 10
9.9546568356
 20
9.531250601
 30
0.0
 10
9.953686783
 20
9.5331420081
 30
0.0
 10
9.9521349334
 20
9.53616834
 30
0.0
 10
9.9501950404
 20
9.5399512271
 30
0.0
 10
9.9478672058
 20
9.5444907045
 30
0.0
 10
9.9455393529
 20
9.5490301745
 30
0.0
 10
9.9435995056
 20
9.5528130801
 30
0.0
 10
9.9420475647
 20
9.5558393748
 30
0.0
 10
9.9410777441
 20
9.5577308765
 30
0.0
 10
9.9403015616
 20
9.5592439231
 30
0.0
 10
9.9397203172
 20
9.5603791319
 30
0.0
 10
9.9392331076
 20
9.561323791
 30
0.0
 10
9.9388976331
 20
9.5619876983
 30
0.0
 10
9.9386972327
 20
9.5623629424
 30
0.0
 10
9.9385714423
 20
9.562656014
 30
0.0
 10
9.9383519627
 20
9.5629045975
 30
0.0
 10
9.9380920032
 20
9.56325156
 30
0.0
 10
9.9376218477
 20
9.5638515144
 30
0.0
 10
9.9369581575
 20
9.5647123721
 30
0.0
 10
9.936158322
 20
9.5657437834
 30
0.0
 10
9.9350930647
 20
9.5671195636
 30
0.0
 10
9.9337610856
 20
9.5688390953
 30
0.0
 10
9.9316301468
 20
9.5715904542
 30
0.0
 10
9.9289663948
 20
9.5750296154
 30
0.0
 10
9.9257699277
 20
9.5791566267
 30
0.0
 10
9.922573445
 20
9.5832836263
 30
0.0
 10
9.9199097319
 20
9.5867228166
 30
0.0
 10
9.9177787153
 20
9.5894741172
 30
0.0
 10
9.9164469341
 20
9.5911937971
 30
0.0
 10
9.9153812707
 20
9.5925692731
 30
0.0
 10
9.9145826758
 20
9.5936016137
 30
0.0
 10
9.913915104
 20
9.5944595636
 30
0.0
 10
9.9134518778
 20
9.595064709
 30
0.0
 10
9.9131808159
 20
9.5954033544
 30
0.0
 10
9.9129954391
 20
9.5956774856
 30
0.0
 10
9.9127415644
 20
9.595874604
 30
0.0
 10
9.9124269576
 20
9.5961642915
 30
0.0
 10
9.9118652637
 20
9.5966587287
 30
0.0
 10
9.9110686637
 20
9.597371611
 30
0.0
 10
9.9101102526
 20
9.598224269
 30
0.0
 10
9.9088332413
 20
9.5993621246
 30
0.0
 10
9.9072366792
 20
9.6007841091
 30
0.0
 10
9.9046823463
 20
9.6030594715
 30
0.0
 10
9.9014893728
 20
9.6059036099
 30
0.0
 10
9.8976578306
 20
9.6093166057
 30
0.0
 10
9.8938262763
 20
9.6127295861
 30
0.0
 10
9.8906333332
 20
9.6155737628
 30
0.0
 10
9.8880789396
 20
9.6178490486
 30
0.0
 10
9.8864825319
 20
9.6192712279
 30
0.0
 10
9.8852052037
 20
9.6204086836
 30
0.0
 10
9.8842477607
 20
9.6212625633
 30
0.0
 10
9.8834481318
 20
9.6219716231
 30
0.0
 10
9.882891845
 20
9.6224728841
 30
0.0
 10
9.8825685746
 20
9.6227516381
 30
0.0
 10
9.8823413118
 20
9.6229823408
 30
0.0
 10
9.882055985
 20
9.6231303352
 30
0.0
 10
9.8816958026
 20
9.6233565106
 30
0.0
 10
9.881056047
 20
9.623738876
 30
0.0
 10
9.8801470438
 20
9.6242921396
 30
0.0
 10
9.8790541284
 20
9.6249530481
 30
0.0
 10
9.8775976454
 20
9.62583531
 30
0.0
 10
9.8757767891
 20
9.6269377776
 30
0.0
 10
9.8728635602
 20
9.6287019269
 30
0.0
 10
9.8692219754
 20
9.630907044
 30
0.0
 10
9.8648520955
 20
9.6335532166
 30
0.0
 10
9.8604822062
 20
9.6361993722
 30
0.0
 10
9.8568406449
 20
9.6384045316
 30
0.0
 10
9.8539273689
 20
9.6401685963
 30
0.0
 10
9.8521066324
 20
9.641271279
 30
0.0
 10
9.8506499036
 20
9.6421530995
 30
0.0
 10
9.8495577391
 20
9.6428153564
 30
0.0
 10
9.8486463864
 20
9.6433644011
 30
0.0
 10
9.8480108252
 20
9.6437542981
 30
0.0
 10
9.8476439223
 20
9.6439684059
 30
0.0
 10
9.8473792386
 20
9.644153468
 30
0.0
 10
9.8470744436
 20
9.6442449505
 30
0.0
 10
9.8466820415
 20
9.6443995688
 30
0.0
 10
9.8459888191
 20
9.6446549425
 30
0.0
 10
9.8450019094
 20
9.6450277131
 30
0.0
 10
9.8438161591
 20
9.6454716346
 30
0.0
 10
9.8422356681
 20
9.6460647185
 30
0.0
 10
9.84025988
 20
9.6468056665
 30
0.0
 10
9.8370987164
 20
9.6479914107
 30
0.0
 10
9.8331472284
 20
9.6494735124
 30
0.0
 10
9.8284054579
 20
9.6512520705
 30
0.0
 10
9.8236636806
 20
9.65303061
 30
0.0
 10
9.8197122094
 20
9.6545127582
 30
0.0
 10
9.8165510122
 20
9.6556984094
 30
0.0
 10
9.8145753098
 20
9.6564395938
 30
0.0
 10
9.8129946428
 20
9.6570321925
 30
0.0
 10
9.8118094302
 20
9.6574775963
 30
0.0
 10
9.8108208379
 20
9.6578457291
 30
0.0
 10
9.8101306193
 20
9.658109382
 30
0.0
 10
9.8097334044
 20
9.658250735
 30
0.0
 10
9.8094433928
 20
9.6583829644
 30
0.0
 10
9.8091231849
 20
9.6584149877
 30
0.0
 10
9.8087067739
 20
9.6584926384
 30
0.0
 10
9.8079731471
 20
9.6586122418
 30
0.0
 10
9.8069276746
 20
9.658791618
 30
0.0
 10
9.8056720093
 20
9.6590032251
 30
0.0
 10
9.8039981726
 20
9.6592866408
 30
0.0
 10
9.8019057453
 20
9.6596404746
 30
0.0
 10
9.798557935
 20
9.6602068522
 30
0.0
 10
9.794373147
 20
9.6609147407
 30
0.0
 10
9.7893514121
 20
9.6617642427
 30
0.0
 10
9.7843296744
 20
9.6626137351
 30
0.0
 10
9.7776340251
 20
9.6637463951
 30
0.0
 10
9.7726122879
 20
9.6645958892
 30
0.0
 10
9.7692644632
 20
9.6651622189
 30
0.0
  0
SPLINE
  5
38F
100
AcDbEntity
  8
0
100
AcDbSpline
 62
4
  6
CONTINUOUS
 70
0
 71
3
 72
313
 73
309
 74
0
 42
0.0000001
 43
0.0000001
 44
0.0000000001
 40
0.0
 40
0.0
 40
0.0
 40
0.0
 40
0.015625
 40
0.0234375
 40
0.03125
 40
0.0390625
 40
0.046875
 40
0.05078125
 40
0.0546875
 40
0.056640625
 40
0.05859375
 40
0.060546875
 40
0.0615234375
 40
0.0620117188
 40
0.0625
 40
0.0629882812
 40
0.0634765625
 40
0.064453125
 40
0.06640625
 40
0.068359375
 40
0.0703125
 40
0.07421875
 40
0.078125
 40
0.0859375
 40
0.09375
 40
0.1015625
 40
0.109375
 40
0.11328125
 40
0.1171875
 40
0.119140625
 40
0.12109375
 40
0.123046875
 40
0.1240234375
 40
0.1245117188
 40
0.125
 40
0.1254882812
 40
0.1259765625
 40
0.126953125
 40
0.12890625
 40
0.130859375
 40
0.1328125
 40
0.13671875
 40
0.140625
 40
0.1484375
 40
0.15625
 40
0.1640625
 40
0.171875
 40
0.17578125
 40
0.1796875
 40
0.181640625
 40
0.18359375
 40
0.185546875
 40
0.1865234375
 40
0.1870117188
 40
0.1875
 40
0.1879882812
 40
0.1884765625
 40
0.189453125
 40
0.19140625
 40
0.193359375
 40
0.1953125
 40
0.19921875
 40
0.203125
 40
0.2109375
 40
0.21875
 40
0.2265625
 40
0.234375
 40
0.23828125
 40
0.2421875
 40
0.244140625
 40
0.24609375
 40
0.248046875
 40
0.2490234375
 40
0.2495117188
 40
0.25
 40
0.2504882812
 40
0.2509765625
 40
0.251953125
 40
0.25390625
 40
0.255859375
 40
0.2578125
 40
0.26171875
 40
0.265625
 40
0.2734375
 40
0.28125
 40
0.2890625
 40
0.296875
 40
0.30078125
 40
0.3046875
 40
0.306640625
 40
0.30859375
 40
0.310546875
 40
0.3115234375
 40
0.3120117188
 40
0.3125
 40
0.3129882812
 40
0.3134765625
 40
0.314453125
 40
0.31640625
 40
0.318359375
 40
0.3203125
 40
0.32421875
 40
0.328125
 40
0.3359375
 40
0.34375
 40
0.3515625
 40
0.359375
 40
0.36328125
 40
0.3671875
 40
0.369140625
 40
0.37109375
 40
0.373046875
 40
0.3740234375
 40
0.3745117188
 40
0.375
 40
0.3754882812
 40
0.3759765625
 40
0.376953125
 40
0.37890625
 40
0.380859375
 40
0.3828125
 40
0.38671875
 40
0.390625
 40
0.3984375
 40
0.40625
 40
0.4140625
 40
0.421875
 40
0.42578125
 40
0.4296875
 40
0.431640625
 40
0.43359375
 40
0.435546875
 40
0.4365234375
 40
0.4370117188
 40
0.4375
 40
0.4379882812
 40
0.4384765625
 40
0.439453125
 40
0.44140625
 40
0.443359375
 40
0.4453125
 40
0.44921875
 40
0.453125
 40
0.4609375
 40
0.46875
 40
0.4765625
 40
0.484375
 40
0.48828125
 40
0.4921875
 40
0.494140625
 40
0.49609375
 40
0.498046875
 40
0.4990234375
 40
0.4995117188
 40
0.5
 40
0.5004882812
 40
0.5009765625
 40
0.501953125
 40
0.50390625
 40
0.505859375
 40
0.5078125
 40
0.51171875
 40
0.515625
 40
0.5234375
 40
0.53125
 40
0.5390625
 40
0.546875
 40
0.55078125
 40
0.5546875
 40
0.556640625
 40
0.55859375
 40
0.560546875
 40
0.5615234375
 40
0.5620117188
 40
0.5625
 40
0.5629882812
 40
0.5634765625
 40
0.564453125
 40
0.56640625
 40
0.568359375
 40
0.5703125
 40
0.57421875
 40
0.578125
 40
0.5859375
 40
0.59375
 40
0.6015625
 40
0.609375
 40
0.61328125
 40
0.6171875
 40
0.619140625
 40
0.62109375
 40
0.623046875
 40
0.6240234375
 40
0.6245117188
 40
0.625
 40
0.6254882812
 40
0.6259765625
 40
0.626953125
 40
0.62890625
 40
0.630859375
 40
0.6328125
 40
0.63671875
 40
0.640625
 40
0.6484375
 40
0.65625
 40
0.6640625
 40
0.671875
 40
0.67578125
 40
0.6796875
 40
0.681640625
 40
0.68359375
 40
0.685546875
 40
0.6865234375
 40
0.6870117188
 40
0.6875
 40
0.6879882812
 40
0.6884765625
 40
0.689453125
 40
0.69140625
 40
0.693359375
 40
0.6953125
 40
0.69921875
 40
0.703125
 40
0.7109375
 40
0.71875
 40
0.7265625
 40
0.734375
 40
0.73828125
 40
0.7421875
 40
0.744140625
 40
0.74609375
 40
0.748046875
 40
0.7490234375
 40
0.7495117188
 40
0.75
 40
0.7504882812
 40
0.7509765625
 40
0.751953125
 40
0.75390625
 40
0.755859375
 40
0.7578125
 40
0.76171875
 40
0.765625
 40
0.7734375
 40
0.78125
 40
0.7890625
 40
0.796875
 40
0.80078125
 40
0.8046875
 40
0.806640625
 40
0.80859375
 40
0.810546875
 40
0.8115234375
 40
0.8120117188
 40
0.8125
 40
0.8129882812
 40
0.8134765625
 40
0.814453125
 40
0.81640625
 40
0.818359375
 40
0.8203125
 40
0.82421875
 40
0.828125
 40
0.8359375
 40
0.84375
 40
0.8515625
 40
0.859375
 40
0.86328125
 40
0.8671875
 40
0.869140625
 40
0.87109375
 40
0.873046875
 40
0.8740234375
 40
0.8745117188
 40
0.875
 40
0.8754882812
 40
0.8759765625
 40
0.876953125
 40
0.87890625
 40
0.880859375
 40
0.8828125
 40
0.88671875
 40
0.890625
 40
0.8984375
 40
0.90625
 40
0.9140625
 40
0.921875
 40
0.92578125
 40
0.9296875
 40
0.931640625
 40
0.93359375
 40
0.935546875
 40
0.9365234375
 40
0.9370117188
 40
0.9375
 40
0.9379882812
 40
0.9384765625
 40
0.939453125
 40
0.94140625
 40
0.943359375
 40
0.9453125
 40
0.94921875
 40
0.953125
 40
0.9609375
 40
0.96875
 40
0.9765625
 40
0.984375
 40
1.0
 40
1.0
 40
1.0
 40
1.0
 10
9.7692644809
 20
9.6651622176
 30
0.0
 10
9.7659746346
 20
9.665067797
 30
0.0
 10
9.761039865
 20
9.6649261663
 30
0.0
 10
9.7544601724
 20
9.6647373243
 30
0.0
 10
9.7495254025
 20
9.6645956955
 30
0.0
 10
9.7445906345
 20
9.6644540567
 30
0.0
 10
9.7404783218
 20
9.6643360553
 30
0.0
 10
9.7371884852
 20
9.6642415849
 30
0.0
 10
9.7351323065
 20
9.6641826986
 30
0.0
 10
9.733487434
 20
9.6641352284
 30
0.0
 10
9.7322535866
 20
9.6641006146
 30
0.0
 10
9.7312259948
 20
9.6640686241
 30
0.0
 10
9.7305054748
 20
9.664052404
 30
0.0
 10
9.7300956318
 20
9.6640334963
 30
0.0
 10
9.7297829458
 20
9.6640464691
 30
0.0
 10
9.7294905333
 20
9.6639556473
 30
0.0
 10
9.7290935784
 20
9.6638707564
 30
0.0
 10
9.728402202
 20
9.6637053288
 30
0.0
 10
9.727412799
 20
9.6634778226
 30
0.0
 10
9.7262262526
 20
9.6632010404
 30
0.0
 10
9.7246439333
 20
9.6628333159
 30
0.0
 10
9.7226661223
 20
9.6623732089
 30
0.0
 10
9.7195015755
 20
9.66163729
 30
0.0
 10
9.715545909
 20
9.6607173042
 30
0.0
 10
9.710799101
 20
9.6596133611
 30
0.0
 10
9.7060522987
 20
9.6585093984
 30
0.0
 10
9.7020966179
 20
9.6575894614
 30
0.0
 10
9.6989320998
 20
9.6568534451
 30
0.0
 10
9.6969542156
 20
9.6563935857
 30
0.0
 10
9.6953720466
 20
9.6560253528
 30
0.0
 10
9.6941850409
 20
9.6557501238
 30
0.0
 10
9.693197075
 20
9.6555177581
 30
0.0
 10
9.6925031332
 20
9.6553610056
 30
0.0
 10
9.6921102888
 20
9.6552622149
 30
0.0
 10
9.6918052501
 20
9.6552140889
 30
0.0
 10
9.6915399861
 20
9.6550667037
 30
0.0
 10
9.6911724269
 20
9.6549048129
 30
0.0
 10
9.6905356624
 20
9.6546053726
 30
0.0
 10
9.6896226194
 20
9.6541860344
 30
0.0
 10
9.6885284142
 20
9.6536792186
 30
0.0
 10
9.6870689688
 20
9.6530047252
 30
0.0
 10
9.685244835
 20
9.6521611767
 30
0.0
 10
9.6823261243
 20
9.6508117404
 30
0.0
 10
9.6786777693
 20
9.6491248616
 30
0.0
 10
9.6742997277
 20
9.6471006452
 30
0.0
 10
9.6699216949
 20
9.64507641
 30
0.0
 10
9.6662733182
 20
9.6433895784
 30
0.0
 10
9.663354651
 20
9.6420400478
 30
0.0
 10
9.6615304065
 20
9.6411967389
 30
0.0
 10
9.6600711883
 20
9.6405217535
 30
0.0
 10
9.6589762889
 20
9.6400164408
 30
0.0
 10
9.658065418
 20
9.6395924002
 30
0.0
 10
9.6574247759
 20
9.6393013544
 30
0.0
 10
9.6570634296
 20
9.6391260135
 30
0.0
 10
9.6567790816
 20
9.6390199427
 30
0.0
 10
9.6565457191
 20
9.6388166468
 30
0.0
 10
9.6562167848
 20
9.6385794989
 30
0.0
 10
9.6556494358
 20
9.6381486893
 30
0.0
 10
9.6548346052
 20
9.6375415078
 30
0.0
 10
9.6538586627
 20
9.6368093541
 30
0.0
 10
9.6525567583
 20
9.6358343842
 30
0.0
 10
9.6509295997
 20
9.6346152489
 30
0.0
 10
9.6483260218
 20
9.6326648689
 30
0.0
 10
9.6450715926
 20
9.6302268123
 30
0.0
 10
9.641166257
 20
9.6273011811
 30
0.0
 10
9.6372609342
 20
9.6243755335
 30
0.0
 10
9.6340064731
 20
9.6219375181
 30
0.0
 10
9.6314029589
 20
9.6199870558
 30
0.0
 10
9.6297756384
 20
9.6187681296
 30
0.0
 10
9.6284740664
 20
9.6177927305
 30
0.0
 10
9.6274971085
 20
9.6170618879
 30
0.0
 10
9.6266854549
 20
9.6164506045
 30
0.0
 10
9.6261124343
 20
9.6160271174
 30
0.0
 10
9.6257925872
 20
9.6157782369
 30
0.0
 10
9.6255313119
 20
9.6156109796
 30
0.0
 10
9.6253517997
 20
9.6153695542
 30
0.0
 10
9.6250839303
 20
9.6150735242
 30
0.0
 10
9.6246284467
 20
9.6145434181
 30
0.0
 10
9.6239708087
 20
9.6137924255
 30
0.0
 10
9.6231846168
 20
9.612888537
 30
0.0
 10
9.6221353223
 20
9.6116842945
 30
0.0
 10
9.6208240597
 20
9.6101786687
 30
0.0
 10
9.6187258409
 20
9.6077698479
 30
0.0
 10
9.616103136
 20
9.6047587596
 30
0.0
 10
9.6129558586
 20
9.6011454818
 30
0.0
 10
9.6098085973
 20
9.5975321908
 30
0.0
 10
9.607185852
 20
9.5945211357
 30
0.0
 10
9.605087714
 20
9.5921122485
 30
0.0
 10
9.6037762459
 20
9.5906067914
 30
0.0
 10
9.6027273733
 20
9.5894022027
 30
0.0
 10
9.6019398924
 20
9.5884993717
 30
0.0
 10
9.6012862871
 20
9.5877450705
 30
0.0
 10
9.6008236047
 20
9.5872208709
 30
0.0
 10
9.6005672696
 20
9.5869153773
 30
0.0
 10
9.6003523276
 20
9.5867030208
 30
0.0
 10
9.6002241207
 20
9.5864265852
 30
0.0
 10
9.6000229241
 20
9.5860803558
 30
0.0
 10
9.5996849259
 20
9.5854640405
 30
0.0
 10
9.5991947018
 20
9.5845890345
 30
0.0
 10
9.5986095873
 20
9.5835366969
 30
0.0
 10
9.5978283328
 20
9.5821343941
 30
0.0
 10
9.596852142
 20
9.5803812368
 30
0.0
 10
9.5952900258
 20
9.5775763411
 30
0.0
 10
9.5933374535
 20
9.5740701676
 30
0.0
 10
9.5909943331
 20
9.5698627837
 30
0.0
 10
9.5886512303
 20
9.565655389
 30
0.0
 10
9.586698614
 20
9.5621492422
 30
0.0
 10
9.5851365857
 20
9.5593442932
 30
0.0
 10
9.5841601716
 20
9.5575912712
 30
0.0
 10
9.5833793755
 20
9.5561886908
 30
0.0
 10
9.5827928605
 20
9.5551372013
 30
0.0
 10
9.5823070183
 20
9.5542595419
 30
0.0
 10
9.5819611976
 20
9.5536479634
 30
0.0
 10
9.5817725346
 20
9.5532941444
 30
0.0
 10
9.5816058284
 20
9.5530410218
 30
0.0
 10
9.5815354835
 20
9.5527411052
 30
0.0
 10
9.5814080784
 20
9.5523575387
 30
0.0
 10
9.5812007799
 20
9.5516786925
 30
0.0
 10
9.5808964516
 20
9.5507128881
 30
0.0
 10
9.5805347623
 20
9.5495522209
 30
0.0
 10
9.5800512857
 20
9.5480052592
 30
0.0
 10
9.5794473592
 20
9.5460713535
 30
0.0
 10
9.5784808423
 20
9.5429772181
 30
0.0
 10
9.5772727773
 20
9.5391095097
 30
0.0
 10
9.5758230621
 20
9.5344682773
 30
0.0
 10
9.5743733659
 20
9.5298270368
 30
0.0
 10
9.5731652532
 20
9.5259593485
 30
0.0
 10
9.5721988317
 20
9.5228651728
 30
0.0
 10
9.5715946628
 20
9.5209313696
 30
0.0
 10
9.5711116837
 20
9.5193841974
 30
0.0
 10
9.5707484747
 20
9.5182241734
 30
0.0
 10
9.570448901
 20
9.5172563567
 30
0.0
 10
9.5702331149
 20
9.5165811028
 30
0.0
 10
9.5701193089
 20
9.5161917804
 30
0.0
 10
9.5700071918
 20
9.5159095442
 30
0.0
 10
9.5699973751
 20
9.5155900172
 30
0.0
 10
9.5699486026
 20
9.5151769888
 30
0.0
 10
9.5698798763
 20
9.5144481285
 30
0.0
 10
9.5697730039
 20
9.513410068
 30
0.0
 10
9.5696484775
 20
9.5121630393
 30
0.0
 10
9.5694811428
 20
9.5105008079
 30
0.0
 10
9.5692724193
 20
9.5084228566
 30
0.0
 10
9.568938213
 20
9.5050982251
 30
0.0
 10
9.5685205411
 20
9.5009424046
 30
0.0
 10
9.5680192954
 20
9.4959554333
 30
0.0
 10
9.5675180698
 20
9.4909684586
 30
0.0
 10
9.5671003478
 20
9.4868126466
 30
0.0
 10
9.5667662416
 20
9.4834879981
 30
0.0
 10
9.5665572638
 20
9.4814100898
 30
0.0
 10
9.5663904512
 20
9.4797477702
 30
0.0
 10
9.5662643295
 20
9.4785010113
 30
0.0
 10
9.5661624482
 20
9.4774621065
 30
0.0
 10
9.566084812
 20
9.4767347535
 30
0.0
 10
9.5660503156
 20
9.47631931
 30
0.0
 10
9.5659966472
 20
9.4760072012
 30
0.0
 10
9.5660492295
 20
9.4756971038
 30
0.0
 10
9.5660822777
 20
9.475282939
 30
0.0
 10
9.5661573798
 20
9.4745584775
 30
0.0
 10
9.5662556408
 20
9.4735233616
 30
0.0
 10
9.5663774181
 20
9.4722812957
 30
0.0
 10
9.5665384382
 20
9.4706251822
 30
0.0
 10
9.5667401755
 20
9.4685550492
 30
0.0
 10
9.5670626968
 20
9.4652428314
 30
0.0
 10
9.5674659376
 20
9.4611025609
 30
0.0
 10
9.5679497858
 20
9.4561342353
 30
0.0
 10
9.5684336541
 20
9.4511659111
 30
0.0
 10
9.5688368449
 20
9.447025637
 30
0.0
 10
9.5691594663
 20
9.4437134265
 30
0.0
 10
9.569360949
 20
9.4416432749
 30
0.0
 10
9.5695224915
 20
9.4399871995
 30
0.0
 10
9.5696426729
 20
9.4387450174
 30
0.0
 10
9.5697459271
 20
9.4377102649
 30
0.0
 10
9.5698121154
 20
9.4369851547
 30
0.0
 10
9.5698594458
 20
9.4365720293
 30
0.0
 10
9.569868158
 20
9.4362587392
 30
0.0
 10
9.5699792586
 20
9.4359586218
 30
0.0
 10
9.5700916784
 20
9.4355538705
 30
0.0
 10
9.5703050532
 20
9.4348476966
 30
0.0
 10
9.5706011747
 20
9.4338377575
 30
0.0
 10
9.5709602441
 20
9.4326263096
 30
0.0
 10
9.5714377028
 20
9.4310108784
 30
0.0
 10
9.5720349715
 20
9.4289916467
 30
0.0
 10
9.5729903525
 20
9.4257608439
 30
0.0
 10
9.5741846646
 20
9.4217223516
 30
0.0
 10
9.5756178001
 20
9.4168761553
 30
0.0
 10
9.5770509546
 20
9.4120299635
 30
0.0
 10
9.578245219
 20
9.4079914601
 30
0.0
 10
9.5792006954
 20
9.4047606795
 30
0.0
 10
9.5797977215
 20
9.4027413914
 30
0.0
 10
9.5802756781
 20
9.401126076
 30
0.0
 10
9.5806332263
 20
9.3999142743
 30
0.0
 10
9.5809341077
 20
9.3989054422
 30
0.0
 10
9.5811389852
 20
9.3981972921
 30
0.0
 10
9.5812650198
 20
9.3977957071
 30
0.0
 10
9.5813343003
 20
9.3974858638
 30
0.0
 10
9.5815000816
 20
9.3972091028
 30
0.0
 10
9.5816874627
 20
9.3968285487
 30
0.0
 10
9.5820310628
 20
9.3961679555
 30
0.0
 10
9.5825137208
 20
9.39522144
 30
0.0
 10
9.5830964199
 20
9.3940868245
 30
0.0
 10
9.5838721262
 20
9.3925735837
 30
0.0
 10
9.5848421788
 20
9.3906821765
 30
0.0
 10
9.5863940284
 20
9.3876558446
 30
0.0
 10
9.5883339214
 20
9.3838729576
 30
0.0
 10
9.590661756
 20
9.3793334802
 30
0.0
 10
9.5929896089
 20
9.3747940102
 30
0.0
 10
9.5949294563
 20
9.3710111046
 30
0.0
 10
9.5964813971
 20
9.3679848099
 30
0.0
 10
9.5974512178
 20
9.3660933082
 30
0.0
 10
9.5982274003
 20
9.3645802615
 30
0.0
 10
9.5988086446
 20
9.3634450527
 30
0.0
 10
9.5992958543
 20
9.3625003937
 30
0.0
 10
9.5996313288
 20
9.3618364864
 30
0.0
 10
9.5998317291
 20
9.3614612423
 30
0.0
 10
9.5999575195
 20
9.3611681707
 30
0.0
 10
9.6001769991
 20
9.3609195872
 30
0.0
 10
9.6004369587
 20
9.3605726247
 30
0.0
 10
9.6009071141
 20
9.3599726703
 30
0.0
 10
9.6015708043
 20
9.3591118126
 30
0.0
 10
9.6023706399
 20
9.3580804013
 30
0.0
 10
9.6034358971
 20
9.3567046211
 30
0.0
 10
9.6047678763
 20
9.3549850894
 30
0.0
 10
9.606898815
 20
9.3522337304
 30
0.0
 10
9.609562567
 20
9.3487945693
 30
0.0
 10
9.6127590341
 20
9.344667558
 30
0.0
 10
9.6159555168
 20
9.3405405584
 30
0.0
 10
9.6186192299
 20
9.3371013681
 30
0.0
 10
9.6207502465
 20
9.3343500675
 30
0.0
 10
9.6220820278
 20
9.3326303876
 30
0.0
 10
9.6231476911
 20
9.3312549116
 30
0.0
 10
9.6239462861
 20
9.3302225709
 30
0.0
 10
9.6246138578
 20
9.3293646211
 30
0.0
 10
9.625077084
 20
9.3287594757
 30
0.0
 10
9.6253481459
 20
9.3284208303
 30
0.0
 10
9.6255335227
 20
9.3281466991
 30
0.0
 10
9.6257873975
 20
9.3279495807
 30
0.0
 10
9.6261020042
 20
9.3276598932
 30
0.0
 10
9.6266636982
 20
9.327165456
 30
0.0
 10
9.6274602981
 20
9.3264525736
 30
0.0
 10
9.6284187092
 20
9.3255999157
 30
0.0
 10
9.6296957206
 20
9.3244620601
 30
0.0
 10
9.6312922827
 20
9.3230400756
 30
0.0
 10
9.6338466155
 20
9.3207647131
 30
0.0
 10
9.637039589
 20
9.3179205748
 30
0.0
 10
9.6408711312
 20
9.314507579
 30
0.0
 10
9.6447026855
 20
9.3110945986
 30
0.0
 10
9.6478956287
 20
9.3082504219
 30
0.0
 10
9.6504500222
 20
9.3059751361
 30
0.0
 10
9.6520464299
 20
9.3045529568
 30
0.0
 10
9.6533237582
 20
9.3034155011
 30
0.0
 10
9.6542812012
 20
9.3025616214
 30
0.0
 10
9.6550808301
 20
9.3018525616
 30
0.0
 10
9.6556371169
 20
9.3013513005
 30
0.0
 10
9.6559603873
 20
9.3010725466
 30
0.0
 10
9.65618765
 20
9.3008418439
 30
0.0
 10
9.6564729769
 20
9.3006938495
 30
0.0
 10
9.6568331593
 20
9.3004676741
 30
0.0
 10
9.6574729149
 20
9.3000853087
 30
0.0
 10
9.658381918
 20
9.2995320451
 30
0.0
 10
9.6594748334
 20
9.2988711366
 30
0.0
 10
9.6609313164
 20
9.2979888747
 30
0.0
 10
9.6627521727
 20
9.2968864071
 30
0.0
 10
9.6656654016
 20
9.2951222578
 30
0.0
 10
9.6693069864
 20
9.2929171407
 30
0.0
 10
9.6736768663
 20
9.2902709681
 30
0.0
 10
9.6780467557
 20
9.2876248125
 30
0.0
 10
9.6816883169
 20
9.285419653
 30
0.0
 10
9.6846015929
 20
9.2836555883
 30
0.0
 10
9.6864223295
 20
9.2825529057
 30
0.0
 10
9.6878790583
 20
9.2816710852
 30
0.0
 10
9.6889712228
 20
9.2810088283
 30
0.0
 10
9.6898825755
 20
9.2804597836
 30
0.0
 10
9.6905181367
 20
9.2800698866
 30
0.0
 10
9.6908850395
 20
9.2798557788
 30
0.0
 10
9.6911497232
 20
9.2796707167
 30
0.0
 10
9.6914545182
 20
9.2795792342
 30
0.0
 10
9.6918469203
 20
9.2794246159
 30
0.0
 10
9.6925401427
 20
9.2791692422
 30
0.0
 10
9.6935270524
 20
9.2787964716
 30
0.0
 10
9.6947128028
 20
9.2783525501
 30
0.0
 10
9.6962932937
 20
9.2777594662
 30
0.0
 10
9.6982690819
 20
9.2770185182
 30
0.0
 10
9.7014302454
 20
9.275832774
 30
0.0
 10
9.7053817335
 20
9.2743506723
 30
0.0
 10
9.710123504
 20
9.2725721142
 30
0.0
 10
9.7148652812
 20
9.2707935747
 30
0.0
 10
9.7188167524
 20
9.2693114265
 30
0.0
 10
9.7219779497
 20
9.2681257752
 30
0.0
 10
9.7239536521
 20
9.2673845909
 30
0.0
 10
9.7255343191
 20
9.2667919921
 30
0.0
 10
9.7267195316
 20
9.2663465884
 30
0.0
 10
9.7277081239
 20
9.2659784555
 30
0.0
 10
9.7283983425
 20
9.2657148026
 30
0.0
 10
9.7287955574
 20
9.2655734497
 30
0.0
 10
9.729085569
 20
9.2654412202
 30
0.0
 10
9.7294057769
 20
9.265409197
 30
0.0
 10
9.7298221879
 20
9.2653315463
 30
0.0
 10
9.7305558147
 20
9.2652119429
 30
0.0
 10
9.7316012873
 20
9.2650325667
 30
0.0
 10
9.7328569525
 20
9.2648209596
 30
0.0
 10
9.7345307893
 20
9.2645375439
 30
0.0
 10
9.7366232166
 20
9.2641837101
 30
0.0
 10
9.7399710269
 20
9.2636173324
 30
0.0
 10
9.7441558149
 20
9.262909444
 30
0.0
 10
9.7491775497
 20
9.262059942
 30
0.0
 10
9.7541992875
 20
9.2612104495
 30
0.0
 10
9.7608949367
 20
9.2600777896
 30
0.0
 10
9.7659166739
 20
9.2592282955
 30
0.0
 10
9.7692644987
 20
9.2586619658
 30
0.0
  0
ENDSEC
  0
SECTION
  2
OBJECTS
  0
DICTIONARY
  5
C
100
AcDbDictionary
280
0
281
1
  3
ACAD_GROUP
350
D
  3
ACAD_MLINESTYLE
350
17
  3
ACAD_LAYOUT
350
1A
  3
ACAD_PLOTSETTINGS
350
19
  3
ACAD_PLOTSTYLENAME
350
E
  3
ACAD_IMAGE_DICT
350
       391
  3
ACAD_IMAGE_VARS
350
       392
  3
ACAD_TABLESTYLE
350
       393
  0
IMAGEDEF_REACTOR
  5
390
100
AcDbRasterImageDefReactor
 90
2
330
28F
  0
DICTIONARY
  5
D
102
{ACAD_REACTORS
330
C
102
}
100
AcDbDictionary
280
0
281
1
  0
ACDBDICTIONARYWDFLT
  5
E
102
{ACAD_REACTORS
330
C
102
}
100
AcDbDictionary
281
1
  3
Normal
350
F
100
AcDbDictionaryWithDefault
340
F
  0
DICTIONARY
  5
391
330
C
100
AcDbDictionary
281
1
  3
K4X_assy_2_img_1
350
       396
  0
RASTERVARIABLES
  5
392
330
C
100
AcDbRasterVariables
 90
0
 70
0
 71
1
 72
5
  0
DICTIONARY
  5
17
102
{ACAD_REACTORS
330
C
102
}
100
AcDbDictionary
280
0
281
1
  3
Standard
350
18
  0
DICTIONARY
  5
393
330
C
100
AcDbDictionary
281
1
  3
Standard
350
       397
  3
Standard1
350
       398
  0
DICTIONARY
  5
19
102
{ACAD_REACTORS
330
C
102
}
100
AcDbDictionary
281
1
  0
DICTIONARY
  5
1A
102
{ACAD_REACTORS
330
C
102
}
100
AcDbDictionary
281
1
  3
Model
350
394
  3
Layout1
350
395
  0
ACDBPLACEHOLDER
  5
F
102
{ACAD_REACTORS
330
E
102
}
  0
MLINESTYLE
  5
18
102
{ACAD_REACTORS
330
17
102
}
100
AcDbMlineStyle
  2
STANDARD
 70
0
  3

 62
256
 51
90.0
 52
90.0
 71
2
 49
0.5
 62
256
  6
BYLAYER
 49
-0.5
 62
256
  6
BYLAYER
  0
LAYOUT
  5
394
102
{ACAD_REACTORS
330
1A
102
}
100
AcDbPlotSettings
  1

  2
none_device
  4
ANSI_C_(22.00_x_17.00_Inches)
  6

 40
0.0
 41
0.0
 42
0.0
 43
0.0
 44
558.8
 45
431.8
 46
0.0
 47
0.0
 48
0.0
 49
0.0
140
0.0
141
0.0
142
1.0
143
1.0
 70
1024
 72
0
 73
0
 74
0
  7

 75
0
147
1.0
148
0.0
149
0.0
100
AcDbLayout
  1
Model
 70
0
 71
0
 10
0.0
 20
0.0
 11
22.0
 21
17.0
 12
0.0
 22
0.0
 32
0.0
 14
0.0
 24
0.0
 34
0.0
 15
0.0
 25
0.0
 35
0.0
146
0.0
 13
0.0
 23
0.0
 33
0.0
 16
1.0
 26
0.0
 36
0.0
 17
0.0
 27
1.0
 37
0.0
 76
0
330
20C
345
0
346
0
  0
LAYOUT
  5
395
102
{ACAD_REACTORS
330
1A
102
}
100
AcDbPlotSettings
  1

  2
none_device
  4
ANSI_C_(22.00_x_17.00_Inches)
  6

 40
0.0
 41
0.0
 42
0.0
 43
0.0
 44
558.8
 45
431.8
 46
0.0
 47
0.0
 48
0.0
 49
0.0
140
0.0
141
0.0
142
1.0
143
1.0
 70
0
 72
0
 73
0
 74
0
  7

 75
0
147
1.0
148
0.0
149
0.0
100
AcDbLayout
  1
Layout1
 70
0
 71
1
 10
0.0
 20
0.0
 11
22.0
 21
17.0
 12
0.0
 22
0.0
 32
0.0
 14
0.0
 24
0.0
 34
0.0
 15
0.0
 25
0.0
 35
0.0
146
0.0
 13
0.0
 23
0.0
 33
0.0
 16
1.0
 26
0.0
 36
0.0
 17
0.0
 27
1.0
 37
0.0
 76
0
330
20D
345
0
346
0
  0
IMAGEDEF
  5
396
102
{ACAD_REACTORS
330
391
330
390
102
}
100
AcDbRasterImageDef
 90
0
  1
K4X_assy_2_img_1.png
 10
369.0
 20
92.0
 11
0.0066666667
 21
0.0066666667
280
1
281
0
  0
TABLESTYLE
  5
397
102
{ACAD_REACTORS
330
393
330
292
330
293
102
}
330
393
100
AcDbTableStyle
  3
Standard
 70
0
 71
0
 40
0.06
 41
0.06
280
1
281
1
  7
Standard
140
0.18
170
1
 62
0
 63
7
283
0
  7
Standard
140
0.18
170
1
 62
0
 63
7
283
0
  7
Standard
140
0.18
170
1
 62
0
 63
7
283
0
  0
TABLESTYLE
  5
398
102
{ACAD_REACTORS
330
393
330
291
102
}
330
393
100
AcDbTableStyle
  3
Standard1
 70
1
 71
0
 40
0.06
 41
0.06
280
1
281
1
  7
Standard
140
0.18
170
1
 62
0
 63
7
283
0
  7
Standard
140
0.18
170
1
 62
0
 63
7
283
0
  7
Standard
140
0.18
170
1
 62
0
 63
7
283
0
  0
ENDSEC
  0
EOF
