999
DXF file: K4S_assy_2.dxf
999
Pro/ENGINEER 2014200 by Parametric Technology Corporation
  0
SECTION
  2
HEADER
  9
$ACADVER
  1
AC1021
  9
$DWGCODEPAGE
  3
ANSI_1252
  9
$EXTMAX
 10
22.0
 20
17.0
 30
0.0
  9
$EXTMIN
 10
0.0
 20
0.0
 30
0.0
  9
$LIMMIN
 10
0.0
 20
0.0
  9
$LIMMAX
 10
22.0
 20
17.0
  9
$VIEWCTR
 10
11.0
 20
8.5
  9
$VIEWSIZE
 40
17.0
  9
$CLAYER
  8
0
  9
$LTSCALE
 40
1.21
  9
$CELTYPE
  6
BYLAYER
  9
$DIMSCALE
 40
1.0
  9
$DIMASZ
 40
0.1875
  9
$DIMEXO
 40
0.0625
  9
$DIMDLI
 40
0.836
  9
$DIMEXE
 40
0.125
  9
$DIMCEN
 40
0.198
  9
$DIMLFAC
 40
1.0
  9
$DIMBLK
  1
_FILLED
  9
$DIMTXT
 40
0.1
  9
$DIMTOL
 70
0
  9
$DIMLIM
 70
0
  9
$DIMTFAC
 40
1.0
  9
$DIMGAP
 40
0.09
  9
$DIMDSEP
 70
46
  9
$AUNITS
 70
0
  9
$PDMODE
 70
3
  9
$PDSIZE
 40
0.3125
  9
$HANDSEED
  5
3FE
  9
$TILEMODE
 70
1
  9
$MEASUREMENT
 70
0
  9
$INSUNITS
 70
1
  0
ENDSEC
  0
SECTION
  2
CLASSES
  0
CLASS
  1
ACDBDICTIONARYWDFLT
  2
AcDbDictionaryWithDefault
  3
AutoCAD 2000
 90
0
 91
1
280
0
281
0
  0
CLASS
  1
ACDBPLACEHOLDER
  2
AcDbPlaceHolder
  3
AutoCAD 2000
 90
0
 91
1
280
0
281
0
  0
CLASS
  1
LAYOUT
  2
AcDbLayout
  3
AutoCAD 2000
 90
0
 91
0
280
0
281
0
  0
CLASS
  1
RASTERVARIABLES
  2
AcDbRasterVariables
  3
ISM
 90
0
 91
1
280
0
281
0
  0
CLASS
  1
IMAGEDEF
  2
AcDbRasterImageDef
  3
ISM
 90
0
 91
1
280
0
281
0
  0
CLASS
  1
IMAGEDEF_REACTOR
  2
AcDbRasterImageDefReactor
  3
ISM
 90
0
 91
1
280
0
281
0
  0
CLASS
  1
IMAGE
  2
AcDbRasterImage
  3
ISM
 90
127
 91
1
280
0
281
1
  0
CLASS
  1
TABLESTYLE
  2
AcDbTableStyle
  3
ObjectDBX Classes
 90
2047
 91
1
280
0
281
0
  0
CLASS
  1
ACAD_TABLE
  2
AcDbTable
  3
ObjectDBX Classes
 90
1025
 91
3
280
0
281
1
  0
ENDSEC
  0
SECTION
  2
TABLES
  0
TABLE
  2
VPORT
  5
8
100
AcDbSymbolTable
 70
2
  0
VPORT
  5
1F4
100
AcDbSymbolTableRecord
100
AcDbViewportTableRecord
  2
*ACTIVE
 70
0
 10
0.0
 20
0.0
 11
1.0
 21
1.0
 12
11.0
 22
8.5
 13
0.0
 23
0.0
 14
1.0
 24
1.0
 15
0.0
 25
0.0
 16
0.0
 26
0.0
 36
1.0
 17
0.0
 27
0.0
 37
0.0
 40
17.0
 41
1.2941176471
 42
50.0
 43
0.0
 44
0.0
 50
0.0
 51
0.0
 71
0
 72
100
 73
1
 74
1
 75
0
 76
0
 77
0
 78
0
  0
ENDTAB
  0
TABLE
  2
LTYPE
  5
5
100
AcDbSymbolTable
 70
6
  0
LTYPE
  5
14
100
AcDbSymbolTableRecord
100
AcDbLinetypeTableRecord
  2
BYBLOCK
 70
0
  3

 72
65
 73
0
 40
0.0
  0
LTYPE
  5
15
100
AcDbSymbolTableRecord
100
AcDbLinetypeTableRecord
  2
BYLAYER
 70
0
  3

 72
65
 73
0
 40
0.0
  0
LTYPE
  5
16
100
AcDbSymbolTableRecord
100
AcDbLinetypeTableRecord
  2
CONTINUOUS
 70
64
  3
Solid line
 72
65
 73
0
 40
0.0
  0
LTYPE
  5
1F5
100
AcDbSymbolTableRecord
100
AcDbLinetypeTableRecord
  2
CENTER
 70
64
  3
____ _ ____ _ ____ _ ____ _ ____ _ ____ _ ____
 72
65
 73
4
 40
0.6
 49
0.375
 74
0
 49
-0.075
 74
0
 49
0.075
 74
0
 49
-0.075
 74
0
  0
LTYPE
  5
1F6
100
AcDbSymbolTableRecord
100
AcDbLinetypeTableRecord
  2
HIDDEN
 70
64
  3
- - - - - - - - - - - - - - - - - - - -
 72
65
 73
2
 40
0.2
 49
0.1
 74
0
 49
-0.1
 74
0
  0
LTYPE
  5
1F7
100
AcDbSymbolTableRecord
100
AcDbLinetypeTableRecord
  2
PHANTOM
 70
64
  3
_____ _ _ _____ _ _ _____ _ _ _____
 72
65
 73
6
 40
0.8
 49
0.45
 74
0
 49
-0.05
 74
0
 49
0.1
 74
0
 49
-0.05
 74
0
 49
0.1
 74
0
 49
-0.05
 74
0
  0
LTYPE
  5
1F8
100
AcDbSymbolTableRecord
100
AcDbLinetypeTableRecord
  2
DOT
 70
64
  3
. . . . . . . . . . . . . . . . . . . .
 72
65
 73
2
 40
0.2
 49
0.1
 74
0
 49
-0.1
 74
0
  0
LTYPE
  5
1F9
100
AcDbSymbolTableRecord
100
AcDbLinetypeTableRecord
  2
DASHED
 70
64
  3
- - - - - - - - - - - - - - - - - - - -
 72
65
 73
2
 40
0.2
 49
0.1
 74
0
 49
-0.1
 74
0
  0
ENDTAB
  0
TABLE
  2
LAYER
  5
2
100
AcDbSymbolTable
 70
36
  0
LAYER
  5
10
100
AcDbSymbolTableRecord
100
AcDbLayerTableRecord
  2
0
 70
0
 62
7
  6
CONTINUOUS
370
-3
390
F
  0
LAYER
  5
1FA
100
AcDbSymbolTableRecord
100
AcDbLayerTableRecord
  2
DEFAULT_1
 70
0
 62
7
  6
CENTER
370
-3
390
F
  0
LAYER
  5
1FB
100
AcDbSymbolTableRecord
100
AcDbLayerTableRecord
  2
DEFAULT_2
 70
0
 62
8
  6
HIDDEN
370
-3
390
F
  0
LAYER
  5
1FC
100
AcDbSymbolTableRecord
100
AcDbLayerTableRecord
  2
DEFAULT_3
 70
0
 62
7
  6
PHANTOM
370
-3
390
F
  0
LAYER
  5
1FD
100
AcDbSymbolTableRecord
100
AcDbLayerTableRecord
  2
01___PRT_ALL_DTM_PLN
 70
0
 62
7
  6
CONTINUOUS
370
-3
390
F
  0
LAYER
  5
1FE
100
AcDbSymbolTableRecord
100
AcDbLayerTableRecord
  2
01___PRT_DEF_DTM_PLN
 70
0
 62
7
  6
CONTINUOUS
370
-3
390
F
  0
LAYER
  5
1FF
100
AcDbSymbolTableRecord
100
AcDbLayerTableRecord
  2
02___PRT_ALL_AXES
 70
0
 62
7
  6
CONTINUOUS
370
-3
390
F
  0
LAYER
  5
200
100
AcDbSymbolTableRecord
100
AcDbLayerTableRecord
  2
03___PRT_ALL_CURVES
 70
0
 62
7
  6
CONTINUOUS
370
-3
390
F
  0
LAYER
  5
201
100
AcDbSymbolTableRecord
100
AcDbLayerTableRecord
  2
04___PRT_ALL_DTM_PNT
 70
0
 62
7
  6
CONTINUOUS
370
-3
390
F
  0
LAYER
  5
202
100
AcDbSymbolTableRecord
100
AcDbLayerTableRecord
  2
05___PRT_ALL_DTM_CSYS
 70
0
 62
7
  6
CONTINUOUS
370
-3
390
F
  0
LAYER
  5
203
100
AcDbSymbolTableRecord
100
AcDbLayerTableRecord
  2
05___PRT_DEF_DTM_CSYS
 70
0
 62
7
  6
CONTINUOUS
370
-3
390
F
  0
LAYER
  5
204
100
AcDbSymbolTableRecord
100
AcDbLayerTableRecord
  2
06___PRT_ALL_SURFS
 70
0
 62
7
  6
CONTINUOUS
370
-3
390
F
  0
LAYER
  5
205
100
AcDbSymbolTableRecord
100
AcDbLayerTableRecord
  2
DATUM_PLANES
 70
0
 62
7
  6
CONTINUOUS
370
-3
390
F
  0
LAYER
  5
206
100
AcDbSymbolTableRecord
100
AcDbLayerTableRecord
  2
PORT_AREAS
 70
0
 62
7
  6
CONTINUOUS
370
-3
390
F
  0
LAYER
  5
207
100
AcDbSymbolTableRecord
100
AcDbLayerTableRecord
  2
SUNNBOMCOSMETIC
 70
0
 62
7
  6
CONTINUOUS
370
-3
390
F
  0
LAYER
  5
208
100
AcDbSymbolTableRecord
100
AcDbLayerTableRecord
  2
SUNNBOMSTAMPING
 70
0
 62
7
  6
CONTINUOUS
370
-3
390
F
  0
LAYER
  5
209
100
AcDbSymbolTableRecord
100
AcDbLayerTableRecord
  2
THREADS
 70
0
 62
7
  6
CONTINUOUS
370
-3
390
F
  0
ENDTAB
  0
TABLE
  2
STYLE
  5
3
100
AcDbSymbolTable
 70
1
  0
STYLE
  5
11
100
AcDbSymbolTableRecord
100
AcDbTextStyleTableRecord
  2
STANDARD
 70
0
 40
0.0
 41
0.8
 50
0.0
 71
0
 42
0.2
  3
txt
  4

  0
STYLE
  5
20A
100
AcDbSymbolTableRecord
100
AcDbTextStyleTableRecord
  2
TEXTSTYLE_1
 70
0
 40
0.0
 41
0.8
 50
0.0
 71
0
 42
0.2
  3
gdt
  4

  0
ENDTAB
  0
TABLE
  2
VIEW
  5
6
100
AcDbSymbolTable
 70
0
  0
ENDTAB
  0
TABLE
  2
UCS
  5
7
100
AcDbSymbolTable
 70
0
  0
ENDTAB
  0
TABLE
  2
APPID
  5
9
100
AcDbSymbolTable
 70
1
  0
APPID
  5
20B
100
AcDbSymbolTableRecord
100
AcDbRegAppTableRecord
  2
ACAD
 70
0
  0
ENDTAB
  0
TABLE
  2
BLOCK_RECORD
  5
1
100
AcDbSymbolTable
 70
0
  0
BLOCK_RECORD
  5
20C
100
AcDbSymbolTableRecord
100
AcDbBlockTableRecord
  2
*Model_Space
  0
BLOCK_RECORD
  5
20D
100
AcDbSymbolTableRecord
100
AcDbBlockTableRecord
  2
*Paper_Space
  0
BLOCK_RECORD
  5
20E
100
AcDbSymbolTableRecord
100
AcDbBlockTableRecord
  2
SUN_FIRST_THIRD_ANGLE_BL0
  0
BLOCK_RECORD
  5
20F
100
AcDbSymbolTableRecord
100
AcDbBlockTableRecord
  2
*T1
  0
BLOCK_RECORD
  5
210
100
AcDbSymbolTableRecord
100
AcDbBlockTableRecord
  2
*T2
  0
BLOCK_RECORD
  5
211
100
AcDbSymbolTableRecord
100
AcDbBlockTableRecord
  2
*T3
  0
ENDTAB
  0
TABLE
  2
DIMSTYLE
  5
A
100
AcDbSymbolTable
 70
1
100
AcDbDimStyleTable
 71
0
  0
DIMSTYLE
105
212
100
AcDbSymbolTableRecord
100
AcDbDimStyleTableRecord
  2
STANDARD
 70
0
  3

  4

 40
1.0
 41
0.1875
 42
0.0625
 43
0.38
 44
0.125
 45
0.0
 46
0.0
 47
0.001
 48
0.001
140
0.1
141
0.09
142
0.0
143
25.4
144
1.0
145
0.0
146
1.0
147
0.09
 71
0.0
 72
0.0
 73
1
 74
1
 75
0
 76
0
 77
0
 78
4
170
0
171
2
172
0
173
0
174
0
175
0
176
0
177
0
178
0
270
2
271
3
272
3
273
2
274
2
275
0
280
0
281
0
282
0
283
1
284
4
285
0
286
0
287
3
288
0
340
11
278
46
  0
ENDTAB
  0
ENDSEC
  0
SECTION
  2
BLOCKS
  0
BLOCK
  5
20
100
AcDbEntity
  8
0
100
AcDbBlockBegin
  2
*Model_Space
 70
0
 10
0.0
 20
0.0
 30
0.0
  3
*Model_Space
  1

  0
ENDBLK
  5
21
100
AcDbEntity
  8
0
100
AcDbBlockEnd
  0
BLOCK
  5
1C
100
AcDbEntity
  8
0
100
AcDbBlockBegin
  2
*Paper_Space
 70
0
 10
0.0
 20
0.0
 30
0.0
  3
*Paper_Space
  1

  0
ENDBLK
  5
1D
100
AcDbEntity
  8
0
100
AcDbBlockEnd
  0
BLOCK
  5
213
100
AcDbEntity
  8
0
100
AcDbBlockBegin
 62
2
  6
CONTINUOUS
  2
SUN_FIRST_THIRD_ANGLE_BL0
 70
64
 10
20.4816717061
 20
1.2289683772
  3
SUN_FIRST_THIRD_ANGLE_BL0
  1

  0
TEXT
  5
214
100
AcDbEntity
  8
0
100
AcDbText
 62
2
  6
CONTINUOUS
 10
19.4750896608
 20
1.4136269581
  7
STANDARD
 40
0.08
  1
FIRST ANGLE
 41
0.8
 72
0
100
AcDbText
  0
TEXT
  5
215
100
AcDbEntity
  8
0
100
AcDbText
 62
2
  6
CONTINUOUS
 10
20.7842537513
 20
1.4047600029
  7
STANDARD
 40
0.08
  1
THIRD ANGLE
 41
0.8
 72
0
100
AcDbText
  0
LINE
  5
216
100
AcDbEntity
  8
0
100
AcDbLine
 62
7
  6
CONTINUOUS
 10
19.4767170086
 20
1.1727031207
 11
19.6334271527
 21
1.1717972817
  0
LINE
  5
217
100
AcDbEntity
  8
0
100
AcDbLine
 62
7
  6
CONTINUOUS
 10
19.6596964832
 20
1.1717972817
 11
19.6950230232
 21
1.171593082
  0
LINE
  5
218
100
AcDbEntity
  8
0
100
AcDbLine
 62
7
  6
CONTINUOUS
 10
19.7194818561
 20
1.1708914427
 11
19.8852396156
 21
1.1699333054
  0
LINE
  5
219
100
AcDbEntity
  8
0
100
AcDbLine
 62
7
  6
CONTINUOUS
 10
19.4758111696
 20
1.2723454088
 11
19.88525039
 21
1.3511534004
  0
LINE
  5
21A
100
AcDbEntity
  8
0
100
AcDbLine
 62
7
  6
CONTINUOUS
 10
19.88525039
 20
1.3511534004
 11
19.8831348489
 21
0.9851647912
  0
LINE
  5
21B
100
AcDbEntity
  8
0
100
AcDbLine
 62
7
  6
CONTINUOUS
 10
19.8831348489
 20
0.9851647912
 11
19.4767170086
 21
1.0658141206
  0
LINE
  5
21C
100
AcDbEntity
  8
0
100
AcDbLine
 62
7
  6
CONTINUOUS
 10
19.4767170086
 20
1.0658141206
 11
19.4779056764
 21
1.2714536432
  0
CIRCLE
  5
21D
100
AcDbEntity
  8
0
100
AcDbCircle
 62
7
  6
CONTINUOUS
 10
20.2068232291
 20
1.1717972817
 40
0.175742101
  0
CIRCLE
  5
21E
100
AcDbEntity
  8
0
100
AcDbCircle
 62
7
  6
CONTINUOUS
 10
20.2068232291
 20
1.1717972817
 40
0.1005522074
  0
LINE
  5
21F
100
AcDbEntity
  8
0
100
AcDbLine
 62
7
  6
CONTINUOUS
 10
20.2077290681
 20
1.3756110529
 11
20.2071171714
 21
1.2379342989
  0
LINE
  5
220
100
AcDbEntity
  8
0
100
AcDbLine
 62
7
  6
CONTINUOUS
 10
20.2077290681
 20
1.2016899681
 11
20.2074674401
 21
1.1428236749
  0
LINE
  5
221
100
AcDbEntity
  8
0
100
AcDbLine
 62
7
  6
CONTINUOUS
 10
20.208634907
 20
1.101141841
 11
20.2080230104
 21
0.963465087
  0
LINE
  5
222
100
AcDbEntity
  8
0
100
AcDbLine
 62
7
  6
CONTINUOUS
 10
20.0066328138
 20
1.1745147986
 11
20.1443095678
 21
1.1739029019
  0
LINE
  5
223
100
AcDbEntity
  8
0
100
AcDbLine
 62
7
  6
CONTINUOUS
 10
20.1832714155
 20
1.1727031207
 11
20.238153505
 21
1.172335442
  0
LINE
  5
224
100
AcDbEntity
  8
0
100
AcDbLine
 62
7
  6
CONTINUOUS
 10
20.2756669918
 20
1.1717972817
 11
20.407916871
 21
1.1712095044
  0
CIRCLE
  5
225
100
AcDbEntity
  8
0
100
AcDbCircle
 62
7
  6
CONTINUOUS
 10
20.7509457401
 20
1.1693297793
 40
0.1722024983
  0
CIRCLE
  5
226
100
AcDbEntity
  8
0
100
AcDbCircle
 62
7
  6
CONTINUOUS
 10
20.7509457401
 20
1.1693297793
 40
0.0985164967
  0
LINE
  5
227
100
AcDbEntity
  8
0
100
AcDbLine
 62
7
  6
CONTINUOUS
 10
20.7169767782
 20
1.170462078
 11
20.7825395137
 21
1.1682766535
  0
LINE
  5
228
100
AcDbEntity
  8
0
100
AcDbLine
 62
7
  6
CONTINUOUS
 10
20.8177513651
 20
1.1693297793
 11
20.947965719
 21
1.1693297793
  0
LINE
  5
229
100
AcDbEntity
  8
0
100
AcDbLine
 62
7
  6
CONTINUOUS
 10
20.6875370113
 20
1.170462078
 11
20.5573226574
 21
1.170462078
  0
LINE
  5
22A
100
AcDbEntity
  8
0
100
AcDbLine
 62
7
  6
CONTINUOUS
 10
20.7486811426
 20
1.1987695462
 11
20.7486811426
 21
1.1432869085
  0
LINE
  5
22B
100
AcDbEntity
  8
0
100
AcDbLine
 62
7
  6
CONTINUOUS
 10
20.7498134414
 20
1.1059210505
 11
20.7498134414
 21
0.9757066966
  0
LINE
  5
22C
100
AcDbEntity
  8
0
100
AcDbLine
 62
7
  6
CONTINUOUS
 10
20.7486811426
 20
1.2338708068
 11
20.7486811426
 21
1.3640851607
  0
LINE
  5
22D
100
AcDbEntity
  8
0
100
AcDbLine
 62
7
  6
CONTINUOUS
 10
21.0702539817
 20
1.2701043662
 11
21.4790138229
 21
1.3448360823
  0
LINE
  5
22E
100
AcDbEntity
  8
0
100
AcDbLine
 62
7
  6
CONTINUOUS
 10
21.4790138229
 20
1.3448360823
 11
21.4790138229
 21
0.9779712941
  0
LINE
  5
22F
100
AcDbEntity
  8
0
100
AcDbLine
 62
7
  6
CONTINUOUS
 10
21.4790138229
 20
0.9779712941
 11
21.069121683
 21
1.0617614
  0
LINE
  5
230
100
AcDbEntity
  8
0
100
AcDbLine
 62
7
  6
CONTINUOUS
 10
21.0702539817
 20
1.2701043662
 11
21.069121683
 21
1.0617614
  0
LINE
  5
231
100
AcDbEntity
  8
0
100
AcDbLine
 62
7
  6
CONTINUOUS
 10
21.4790138229
 20
1.1693297793
 11
21.3159628059
 21
1.1693297793
  0
LINE
  5
232
100
AcDbEntity
  8
0
100
AcDbLine
 62
7
  6
CONTINUOUS
 10
21.2876553377
 20
1.1693297793
 11
21.2502894796
 21
1.1693297793
  0
LINE
  5
233
100
AcDbEntity
  8
0
100
AcDbLine
 62
7
  6
CONTINUOUS
 10
21.2208497126
 20
1.1659328831
 11
21.0713862804
 21
1.1659328831
  0
LINE
  5
234
100
AcDbEntity
  8
0
100
AcDbLine
 62
7
  6
CONTINUOUS
 10
20.4796138713
 20
1.5284908897
 11
20.4766766948
 21
0.9294458646
  0
ENDBLK
  5
235
100
AcDbEntity
  8
0
  6
BYBLOCK
 62
0
100
AcDbBlockEnd
  0
BLOCK
  5
236
100
AcDbEntity
  8
0
100
AcDbBlockBegin
  2
*T1
 70
1
 10
0.0
 20
0.0
  3
*T1
  1

  0
LINE
  5
237
100
AcDbEntity
  8
0
100
AcDbLine
 62
2
  6
CONTINUOUS
 10
9.275
 20
0.0
 11
-0.0
 21
0.0
  0
LINE
  5
238
100
AcDbEntity
  8
0
100
AcDbLine
 62
2
  6
CONTINUOUS
 10
9.275
 20
0.0
 11
9.275
 21
1.25
  0
LINE
  5
239
100
AcDbEntity
  8
0
100
AcDbLine
 62
2
  6
CONTINUOUS
 10
9.275
 20
0.625
 11
-0.0
 21
0.625
  0
LINE
  5
23A
100
AcDbEntity
  8
0
100
AcDbLine
 62
2
  6
CONTINUOUS
 10
9.275
 20
1.25
 11
-0.0
 21
1.25
  0
LINE
  5
23B
100
AcDbEntity
  8
0
100
AcDbLine
 62
2
  6
CONTINUOUS
 10
6.8
 20
0.0
 11
6.8
 21
1.25
  0
LINE
  5
23C
100
AcDbEntity
  8
0
100
AcDbLine
 62
2
  6
CONTINUOUS
 10
6.4
 20
0.0
 11
6.4
 21
0.625
  0
LINE
  5
23D
100
AcDbEntity
  8
0
100
AcDbLine
 62
2
  6
CONTINUOUS
 10
5.9
 20
0.0
 11
5.9
 21
0.625
  0
LINE
  5
23E
100
AcDbEntity
  8
0
100
AcDbLine
 62
2
  6
CONTINUOUS
 10
5.2
 20
0.0
 11
5.2
 21
0.625
  0
LINE
  5
23F
100
AcDbEntity
  8
0
100
AcDbLine
 62
2
  6
CONTINUOUS
 10
4.1
 20
0.0
 11
4.1
 21
1.25
  0
LINE
  5
240
100
AcDbEntity
  8
0
100
AcDbLine
 62
2
  6
CONTINUOUS
 10
-0.0
 20
0.0
 11
-0.0
 21
1.25
  0
MTEXT
  5
241
100
AcDbEntity
  8
0
100
AcDbMText
 62
2
  6
CONTINUOUS
  7
STANDARD
 71
2
 72
1
 10
6.6
 20
0.325
 30
0.0
 11
1.0
 21
0.0
 31
0.0
 44
0.9
  1
2
 40
0.125
 41
0.2
  0
MTEXT
  5
242
100
AcDbEntity
  8
0
100
AcDbMText
 62
2
  6
CONTINUOUS
  7
STANDARD
 71
2
 72
1
 10
6.15
 20
0.325
 30
0.0
 11
1.0
 21
0.0
 31
0.0
 44
0.9
  1
C
 40
0.125
 41
0.2
  0
MTEXT
  5
243
100
AcDbEntity
  8
0
100
AcDbMText
 62
2
  6
CONTINUOUS
  7
STANDARD
 71
2
 72
1
 10
5.55
 20
0.325
 30
0.0
 11
1.0
 21
0.0
 31
0.0
 44
0.9
  1
1.000
 40
0.125
 41
1.0
  0
MTEXT
  5
244
100
AcDbEntity
  8
0
100
AcDbMText
 62
2
  6
CONTINUOUS
  7
STANDARD
 71
2
 72
1
 10
4.65
 20
0.325
 30
0.0
 11
1.0
 21
0.0
 31
0.0
 44
0.9
  1
Feb-21-24
 40
0.125
 41
1.8
  0
MTEXT
  5
245
100
AcDbEntity
  8
0
100
AcDbMText
 62
2
  6
CONTINUOUS
  7
STANDARD
 71
2
 72
1
 10
2.05
 20
0.4625
 30
0.0
 11
1.0
 21
0.0
 31
0.0
 44
0.9
  1
T-19A Line mount\P(See Technical Data for Body Features)
 40
0.125
 41
7.6
  0
MTEXT
  5
246
100
AcDbEntity
  8
0
100
AcDbMText
 62
2
  6
CONTINUOUS
  7
STANDARD
 71
1
 72
1
 10
6.45
 20
0.5625
 30
0.0
 11
1.0
 21
0.0
 31
0.0
 44
0.9
  1
SHEET
 40
0.06
 41
0.48
  0
MTEXT
  5
247
100
AcDbEntity
  8
0
100
AcDbMText
 62
2
  6
CONTINUOUS
  7
STANDARD
 71
1
 72
1
 10
5.95
 20
0.5625
 30
0.0
 11
1.0
 21
0.0
 31
0.0
 44
0.9
  1
DWG SIZE
 40
0.06
 41
0.768
  0
MTEXT
  5
248
100
AcDbEntity
  8
0
100
AcDbMText
 62
2
  6
CONTINUOUS
  7
STANDARD
 71
1
 72
1
 10
5.25
 20
0.5625
 30
0.0
 11
1.0
 21
0.0
 31
0.0
 44
0.9
  1
SCALE
 40
0.06
 41
0.48
  0
MTEXT
  5
249
100
AcDbEntity
  8
0
100
AcDbMText
 62
2
  6
CONTINUOUS
  7
STANDARD
 71
1
 72
1
 10
4.15
 20
0.5625
 30
0.0
 11
1.0
 21
0.0
 31
0.0
 44
0.9
  1
DATE
 40
0.06
 41
0.384
  0
MTEXT
  5
24A
100
AcDbEntity
  8
0
100
AcDbMText
 62
2
  6
CONTINUOUS
  7
STANDARD
 71
1
 72
1
 10
0.05
 20
0.5625
 30
0.0
 11
1.0
 21
0.0
 31
0.0
 44
0.9
  1
DESCRIPTION
 40
0.06
 41
1.056
  0
MTEXT
  5
24B
100
AcDbEntity
  8
0
100
AcDbMText
 62
2
  6
CONTINUOUS
  7
STANDARD
 71
2
 72
1
 10
5.45
 20
1.0375
 30
0.0
 11
1.0
 21
0.0
 31
0.0
 44
0.9
  1
ALL DIMENSIONS IN INCH\PVIEWS ARE THIRD ANGLE
 40
0.12
 41
4.224
  0
MTEXT
  5
24C
100
AcDbEntity
  8
0
100
AcDbMText
 62
2
  6
CONTINUOUS
  7
STANDARD
 71
2
 72
1
 10
2.05
 20
0.95
 30
0.0
 11
1.0
 21
0.0
 31
0.0
 44
0.9
  1
K4S
 40
0.125
 41
0.6
  0
MTEXT
  5
24D
100
AcDbEntity
  8
0
100
AcDbMText
 62
2
  6
CONTINUOUS
  7
STANDARD
 71
1
 72
1
 10
0.05
 20
1.1875
 30
0.0
 11
1.0
 21
0.0
 31
0.0
 44
0.9
  1
MODEL
 40
0.06
 41
0.48
  0
ENDBLK
  5
24E
100
AcDbEntity
  8
0
  6
BYBLOCK
 62
0
100
AcDbBlockEnd
  0
BLOCK
  5
24F
100
AcDbEntity
  8
0
100
AcDbBlockBegin
  2
*T2
 70
1
 10
0.0
 20
0.0
  3
*T2
  1

  0
LINE
  5
250
100
AcDbEntity
  8
0
100
AcDbLine
 62
2
  6
CONTINUOUS
 10
0.0
 20
0.0
 11
9.055
 21
0.0
  0
LINE
  5
251
100
AcDbEntity
  8
0
100
AcDbLine
 62
2
  6
CONTINUOUS
 10
0.0
 20
0.0
 11
0.0
 21
-2.844
  0
LINE
  5
252
100
AcDbEntity
  8
0
100
AcDbLine
 62
2
  6
CONTINUOUS
 10
0.0
 20
-0.344
 11
9.055
 21
-0.344
  0
LINE
  5
253
100
AcDbEntity
  8
0
100
AcDbLine
 62
2
  6
CONTINUOUS
 10
0.0
 20
-0.594
 11
9.055
 21
-0.594
  0
LINE
  5
254
100
AcDbEntity
  8
0
100
AcDbLine
 62
2
  6
CONTINUOUS
 10
0.0
 20
-0.844
 11
9.055
 21
-0.844
  0
LINE
  5
255
100
AcDbEntity
  8
0
100
AcDbLine
 62
2
  6
CONTINUOUS
 10
0.0
 20
-1.094
 11
9.055
 21
-1.094
  0
LINE
  5
256
100
AcDbEntity
  8
0
100
AcDbLine
 62
2
  6
CONTINUOUS
 10
0.0
 20
-1.344
 11
9.055
 21
-1.344
  0
LINE
  5
257
100
AcDbEntity
  8
0
100
AcDbLine
 62
2
  6
CONTINUOUS
 10
0.0
 20
-1.594
 11
9.055
 21
-1.594
  0
LINE
  5
258
100
AcDbEntity
  8
0
100
AcDbLine
 62
2
  6
CONTINUOUS
 10
0.0
 20
-1.844
 11
9.055
 21
-1.844
  0
LINE
  5
259
100
AcDbEntity
  8
0
100
AcDbLine
 62
2
  6
CONTINUOUS
 10
0.0
 20
-2.094
 11
9.055
 21
-2.094
  0
LINE
  5
25A
100
AcDbEntity
  8
0
100
AcDbLine
 62
2
  6
CONTINUOUS
 10
0.0
 20
-2.344
 11
9.055
 21
-2.344
  0
LINE
  5
25B
100
AcDbEntity
  8
0
100
AcDbLine
 62
2
  6
CONTINUOUS
 10
0.0
 20
-2.594
 11
9.055
 21
-2.594
  0
LINE
  5
25C
100
AcDbEntity
  8
0
100
AcDbLine
 62
2
  6
CONTINUOUS
 10
0.0
 20
-2.844
 11
9.055
 21
-2.844
  0
LINE
  5
25D
100
AcDbEntity
  8
0
100
AcDbLine
 62
2
  6
CONTINUOUS
 10
3.055
 20
0.0
 11
3.055
 21
-2.844
  0
LINE
  5
25E
100
AcDbEntity
  8
0
100
AcDbLine
 62
2
  6
CONTINUOUS
 10
9.055
 20
0.0
 11
9.055
 21
-2.844
  0
MTEXT
  5
25F
100
AcDbEntity
  8
0
100
AcDbMText
 62
2
  6
CONTINUOUS
  7
STANDARD
 71
2
 72
1
 10
1.5275
 20
-0.0995
 30
0.0
 11
1.0
 21
0.0
 31
0.0
 44
0.9
  1
Technical Data
 40
0.145
 41
3.248
  0
MTEXT
  5
260
100
AcDbEntity
  8
0
100
AcDbMText
 62
2
  6
CONTINUOUS
  7
STANDARD
 71
2
 72
1
 10
4.555
 20
-0.0995
 30
0.0
 11
1.0
 21
0.0
 31
0.0
 44
0.9
  1
U.S. Units
 40
0.145
 41
2.32
  0
MTEXT
  5
261
100
AcDbEntity
  8
0
100
AcDbMText
 62
2
  6
CONTINUOUS
  7
STANDARD
 71
2
 72
1
 10
7.555
 20
-0.0995
 30
0.0
 11
1.0
 21
0.0
 31
0.0
 44
0.9
  1
Metric Units
 40
0.145
 41
2.784
  0
MTEXT
  5
262
100
AcDbEntity
  8
0
100
AcDbMText
 62
2
  6
CONTINUOUS
  7
STANDARD
 71
2
 72
1
 10
1.5275
 20
-0.4065
 30
0.0
 11
1.0
 21
0.0
 31
0.0
 44
0.9
  1
Cavity
 40
0.125
 41
1.2
  0
MTEXT
  5
263
100
AcDbEntity
  8
0
100
AcDbMText
 62
2
  6
CONTINUOUS
  7
STANDARD
 71
2
 72
1
 10
6.055
 20
-0.4065
 30
0.0
 11
1.0
 21
0.0
 31
0.0
 44
0.9
  1
T-19A
 40
0.125
 41
1.0
  0
MTEXT
  5
264
100
AcDbEntity
  8
0
100
AcDbMText
 62
2
  6
CONTINUOUS
  7
STANDARD
 71
2
 72
1
 10
1.5275
 20
-0.6565
 30
0.0
 11
1.0
 21
0.0
 31
0.0
 44
0.9
  1
Body Features
 40
0.125
 41
2.6
  0
MTEXT
  5
265
100
AcDbEntity
  8
0
100
AcDbMText
 62
2
  6
CONTINUOUS
  7
STANDARD
 71
2
 72
1
 10
6.055
 20
-0.6565
 30
0.0
 11
1.0
 21
0.0
 31
0.0
 44
0.9
  1
Ninety degree with reverse flow check - reducing
 40
0.125
 41
9.6
  0
MTEXT
  5
266
100
AcDbEntity
  8
0
100
AcDbMText
 62
2
  6
CONTINUOUS
  7
STANDARD
 71
2
 72
1
 10
1.5275
 20
-0.9065
 30
0.0
 11
1.0
 21
0.0
 31
0.0
 44
0.9
  1
Body Type
 40
0.125
 41
1.8
  0
MTEXT
  5
267
100
AcDbEntity
  8
0
100
AcDbMText
 62
2
  6
CONTINUOUS
  7
STANDARD
 71
2
 72
1
 10
6.055
 20
-0.9065
 30
0.0
 11
1.0
 21
0.0
 31
0.0
 44
0.9
  1
Line mount
 40
0.125
 41
2.0
  0
MTEXT
  5
268
100
AcDbEntity
  8
0
100
AcDbMText
 62
2
  6
CONTINUOUS
  7
STANDARD
 71
2
 72
1
 10
1.5275
 20
-1.1565
 30
0.0
 11
1.0
 21
0.0
 31
0.0
 44
0.9
  1
Interface
 40
0.125
 41
1.8
  0
MTEXT
  5
269
100
AcDbEntity
  8
0
100
AcDbMText
 62
2
  6
CONTINUOUS
  7
STANDARD
 71
2
 72
1
 10
6.055
 20
-1.1565
 30
0.0
 11
1.0
 21
0.0
 31
0.0
 44
0.9
  1
None
 40
0.125
 41
0.8
  0
MTEXT
  5
26A
100
AcDbEntity
  8
0
100
AcDbMText
 62
2
  6
CONTINUOUS
  7
STANDARD
 71
2
 72
1
 10
1.5275
 20
-1.4065
 30
0.0
 11
1.0
 21
0.0
 31
0.0
 44
0.9
  1
Open Cavity Quantity
 40
0.125
 41
4.0
  0
MTEXT
  5
26B
100
AcDbEntity
  8
0
100
AcDbMText
 62
2
  6
CONTINUOUS
  7
STANDARD
 71
2
 72
1
 10
6.055
 20
-1.4065
 30
0.0
 11
1.0
 21
0.0
 31
0.0
 44
0.9
  1
1
 40
0.125
 41
0.2
  0
MTEXT
  5
26C
100
AcDbEntity
  8
0
100
AcDbMText
 62
2
  6
CONTINUOUS
  7
STANDARD
 71
2
 72
1
 10
1.5275
 20
-1.6565
 30
0.0
 11
1.0
 21
0.0
 31
0.0
 44
0.9
  1
Weight
 40
0.125
 41
1.2
  0
MTEXT
  5
26D
100
AcDbEntity
  8
0
100
AcDbMText
 62
2
  6
CONTINUOUS
  7
STANDARD
 71
2
 72
1
 10
4.555
 20
-1.6565
 30
0.0
 11
1.0
 21
0.0
 31
0.0
 44
0.9
  1
15.118 lb.
 40
0.125
 41
2.0
  0
MTEXT
  5
26E
100
AcDbEntity
  8
0
100
AcDbMText
 62
2
  6
CONTINUOUS
  7
STANDARD
 71
2
 72
1
 10
7.555
 20
-1.6565
 30
0.0
 11
1.0
 21
0.0
 31
0.0
 44
0.9
  1
6,858 kg.
 40
0.125
 41
1.8
  0
MTEXT
  5
26F
100
AcDbEntity
  8
0
100
AcDbMText
 62
2
  6
CONTINUOUS
  7
STANDARD
 71
2
 72
1
 10
1.5275
 20
-1.9065
 30
0.0
 11
1.0
 21
0.0
 31
0.0
 44
0.9
  1
Mounting Hole Thread
 40
0.125
 41
4.0
  0
MTEXT
  5
270
100
AcDbEntity
  8
0
100
AcDbMText
 62
2
  6
CONTINUOUS
  7
STANDARD
 71
2
 72
1
 10
6.055
 20
-1.9065
 30
0.0
 11
1.0
 21
0.0
 31
0.0
 44
0.9
  1
.375-16 UNC - 2B in.
 40
0.125
 41
4.0
  0
MTEXT
  5
271
100
AcDbEntity
  8
0
100
AcDbMText
 62
2
  6
CONTINUOUS
  7
STANDARD
 71
2
 72
1
 10
1.5275
 20
-2.1565
 30
0.0
 11
1.0
 21
0.0
 31
0.0
 44
0.9
  1
Mounting Hole Depth
 40
0.125
 41
3.8
  0
MTEXT
  5
272
100
AcDbEntity
  8
0
100
AcDbMText
 62
2
  6
CONTINUOUS
  7
STANDARD
 71
2
 72
1
 10
4.555
 20
-2.1565
 30
0.0
 11
1.0
 21
0.0
 31
0.0
 44
0.9
  1
.62 in.
 40
0.125
 41
1.4
  0
MTEXT
  5
273
100
AcDbEntity
  8
0
100
AcDbMText
 62
2
  6
CONTINUOUS
  7
STANDARD
 71
2
 72
1
 10
7.555
 20
-2.1565
 30
0.0
 11
1.0
 21
0.0
 31
0.0
 44
0.9
  1
15,7 mm
 40
0.125
 41
1.4
  0
MTEXT
  5
274
100
AcDbEntity
  8
0
100
AcDbMText
 62
2
  6
CONTINUOUS
  7
STANDARD
 71
2
 72
1
 10
1.5275
 20
-2.4065
 30
0.0
 11
1.0
 21
0.0
 31
0.0
 44
0.9
  1
Mounting Hole Quantity
 40
0.125
 41
4.4
  0
MTEXT
  5
275
100
AcDbEntity
  8
0
100
AcDbMText
 62
2
  6
CONTINUOUS
  7
STANDARD
 71
2
 72
1
 10
6.055
 20
-2.4065
 30
0.0
 11
1.0
 21
0.0
 31
0.0
 44
0.9
  1
2
 40
0.125
 41
0.2
  0
MTEXT
  5
276
100
AcDbEntity
  8
0
100
AcDbMText
 62
2
  6
CONTINUOUS
  7
STANDARD
 71
2
 72
1
 10
1.5275
 20
-2.6565
 30
0.0
 11
1.0
 21
0.0
 31
0.0
 44
0.9
  1
Includes integral cartridge(s)
 40
0.125
 41
6.0
  0
MTEXT
  5
277
100
AcDbEntity
  8
0
100
AcDbMText
 62
2
  6
CONTINUOUS
  7
STANDARD
 71
2
 72
1
 10
6.055
 20
-2.6565
 30
0.0
 11
1.0
 21
0.0
 31
0.0
 44
0.9
  1
Yes (see Included Components)
 40
0.125
 41
5.8
  0
ENDBLK
  5
278
100
AcDbEntity
  8
0
  6
BYBLOCK
 62
0
100
AcDbBlockEnd
  0
BLOCK
  5
279
100
AcDbEntity
  8
0
100
AcDbBlockBegin
  2
*T3
 70
1
 10
0.0
 20
0.0
  3
*T3
  1

  0
LINE
  5
27A
100
AcDbEntity
  8
0
100
AcDbLine
 62
2
  6
CONTINUOUS
 10
0.0
 20
0.0
 11
4.6
 21
0.0
  0
LINE
  5
27B
100
AcDbEntity
  8
0
100
AcDbLine
 62
2
  6
CONTINUOUS
 10
0.0
 20
0.0
 11
0.0
 21
-1.43775
  0
LINE
  5
27C
100
AcDbEntity
  8
0
100
AcDbLine
 62
2
  6
CONTINUOUS
 10
0.0
 20
-0.34375
 11
4.6
 21
-0.34375
  0
LINE
  5
27D
100
AcDbEntity
  8
0
100
AcDbLine
 62
2
  6
CONTINUOUS
 10
0.0
 20
-0.68775
 11
4.6
 21
-0.68775
  0
LINE
  5
27E
100
AcDbEntity
  8
0
100
AcDbLine
 62
2
  6
CONTINUOUS
 10
0.0
 20
-0.93775
 11
4.6
 21
-0.93775
  0
LINE
  5
27F
100
AcDbEntity
  8
0
100
AcDbLine
 62
2
  6
CONTINUOUS
 10
0.0
 20
-1.18775
 11
4.6
 21
-1.18775
  0
LINE
  5
280
100
AcDbEntity
  8
0
100
AcDbLine
 62
2
  6
CONTINUOUS
 10
0.0
 20
-1.43775
 11
4.6
 21
-1.43775
  0
LINE
  5
281
100
AcDbEntity
  8
0
100
AcDbLine
 62
2
  6
CONTINUOUS
 10
1.3
 20
-0.34375
 11
1.3
 21
-1.43775
  0
LINE
  5
282
100
AcDbEntity
  8
0
100
AcDbLine
 62
2
  6
CONTINUOUS
 10
3.3
 20
-0.34375
 11
3.3
 21
-1.43775
  0
LINE
  5
283
100
AcDbEntity
  8
0
100
AcDbLine
 62
2
  6
CONTINUOUS
 10
4.6
 20
0.0
 11
4.6
 21
-1.43775
  0
MTEXT
  5
284
100
AcDbEntity
  8
0
100
AcDbMText
 62
2
  6
CONTINUOUS
  7
STANDARD
 71
2
 72
1
 10
2.3
 20
-0.099375
 30
0.0
 11
1.0
 21
0.0
 31
0.0
 44
0.9
  1
Port Headings
 40
0.145
 41
3.016
  0
MTEXT
  5
285
100
AcDbEntity
  8
0
100
AcDbMText
 62
2
  6
CONTINUOUS
  7
STANDARD
 71
2
 72
1
 10
0.65
 20
-0.44325
 30
0.0
 11
1.0
 21
0.0
 31
0.0
 44
0.9
  1
Product
 40
0.145
 41
1.624
  0
MTEXT
  5
286
100
AcDbEntity
  8
0
100
AcDbMText
 62
2
  6
CONTINUOUS
  7
STANDARD
 71
2
 72
1
 10
2.3
 20
-0.44325
 30
0.0
 11
1.0
 21
0.0
 31
0.0
 44
0.9
  1
Port
 40
0.145
 41
0.928
  0
MTEXT
  5
287
100
AcDbEntity
  8
0
100
AcDbMText
 62
2
  6
CONTINUOUS
  7
STANDARD
 71
2
 72
1
 10
3.95
 20
-0.44325
 30
0.0
 11
1.0
 21
0.0
 31
0.0
 44
0.9
  1
Size
 40
0.145
 41
0.928
  0
MTEXT
  5
288
100
AcDbEntity
  8
0
100
AcDbMText
 62
2
  6
CONTINUOUS
  7
STANDARD
 71
2
 72
1
 10
0.65
 20
-0.75025
 30
0.0
 11
1.0
 21
0.0
 31
0.0
 44
0.9
  1
K4S
 40
0.125
 41
0.6
  0
MTEXT
  5
289
100
AcDbEntity
  8
0
100
AcDbMText
 62
2
  6
CONTINUOUS
  7
STANDARD
 71
2
 72
1
 10
2.3
 20
-0.75025
 30
0.0
 11
1.0
 21
0.0
 31
0.0
 44
0.9
  1
Ports 1 &  2
 40
0.125
 41
2.4
  0
MTEXT
  5
28A
100
AcDbEntity
  8
0
100
AcDbMText
 62
2
  6
CONTINUOUS
  7
STANDARD
 71
2
 72
1
 10
3.95
 20
-0.75025
 30
0.0
 11
1.0
 21
0.0
 31
0.0
 44
0.9
  1
2" Code 61
 40
0.125
 41
2.0
  0
MTEXT
  5
28B
100
AcDbEntity
  8
0
100
AcDbMText
 62
2
  6
CONTINUOUS
  7
STANDARD
 71
2
 72
1
 10
0.65
 20
-1.00025
 30
0.0
 11
1.0
 21
0.0
 31
0.0
 44
0.9
  1
K4S
 40
0.125
 41
0.6
  0
MTEXT
  5
28C
100
AcDbEntity
  8
0
100
AcDbMText
 62
2
  6
CONTINUOUS
  7
STANDARD
 71
2
 72
1
 10
2.3
 20
-1.00025
 30
0.0
 11
1.0
 21
0.0
 31
0.0
 44
0.9
  1
Port 3
 40
0.125
 41
1.2
  0
MTEXT
  5
28D
100
AcDbEntity
  8
0
100
AcDbMText
 62
2
  6
CONTINUOUS
  7
STANDARD
 71
2
 72
1
 10
3.95
 20
-1.00025
 30
0.0
 11
1.0
 21
0.0
 31
0.0
 44
0.9
  1
1 1/2 in. Code 61
 40
0.125
 41
3.4
  0
MTEXT
  5
28E
100
AcDbEntity
  8
0
100
AcDbMText
 62
2
  6
CONTINUOUS
  7
STANDARD
 71
2
 72
1
 10
0.65
 20
-1.25025
 30
0.0
 11
1.0
 21
0.0
 31
0.0
 44
0.9
  1
K4S
 40
0.125
 41
0.6
  0
MTEXT
  5
28F
100
AcDbEntity
  8
0
100
AcDbMText
 62
2
  6
CONTINUOUS
  7
STANDARD
 71
2
 72
1
 10
2.3
 20
-1.25025
 30
0.0
 11
1.0
 21
0.0
 31
0.0
 44
0.9
  1
Gage Port
 40
0.125
 41
1.8
  0
MTEXT
  5
290
100
AcDbEntity
  8
0
100
AcDbMText
 62
2
  6
CONTINUOUS
  7
STANDARD
 71
2
 72
1
 10
3.95
 20
-1.25025
 30
0.0
 11
1.0
 21
0.0
 31
0.0
 44
0.9
  1
1/4" NPTF
 40
0.125
 41
1.8
  0
ENDBLK
  5
291
100
AcDbEntity
  8
0
  6
BYBLOCK
 62
0
100
AcDbBlockEnd
  0
ENDSEC
  0
SECTION
  2
ENTITIES
  0
IMAGE
  5
292
100
AcDbEntity
  8
0
100
AcDbRasterImage
 62
7
  6
CONTINUOUS
 10
19.2297077316
 20
0.3094318264
 30
0.0
 11
0.0066666667
 21
0.0
 31
0.0
 12
0.0
 22
0.0066666667
 32
0.0
 13
369.0
 23
92.0
340
       3FB
 70
9
280
0
281
50
282
50
283
0
360
       3F5
 71
1
 91
2
 14
-0.5
 24
-0.5
 14
368.5
 24
91.5
  0
INSERT
  5
293
100
AcDbEntity
  8
0
100
AcDbBlockReference
 62
2
  6
CONTINUOUS
  2
SUN_FIRST_THIRD_ANGLE_BL0
 10
20.4816717061
 20
1.2289683772
  0
ACAD_TABLE
  5
294
100
AcDbEntity
  8
0
 62
2
  6
CONTINUOUS
100
AcDbBlockReference
  2
*T1
 10
12.42375
 20
0.30125
 30
0.0
100
AcDbTable
342
       3FD
343
20F
 11
1.0
 21
0.0
 31
0.0
 90
6
 91
4
 92
6
 93
20
 94
0
 95
0
 96
0
 70
1
 41
0.0
141
0.525
141
0.1
141
0.525
141
0.1
142
4.1
142
1.1
142
0.7
142
0.5
142
0.4
142
2.475
171
1
172
0
173
0
174
0
175
1
176
1
 91
33
178
0
145
0.0
301
CELL_VALUE
 90
4
  1
T-19A Line mount\P(See Technical Data for Body Features)
304
ACVALUE_END
170
2
140
0.125
171
1
172
0
173
0
174
0
175
1
176
1
 91
33
178
0
145
0.0
301
CELL_VALUE
 90
4
  1
Feb-21-24
304
ACVALUE_END
170
5
140
0.125
171
1
172
0
173
0
174
0
175
1
176
1
 91
33
178
0
145
0.0
301
CELL_VALUE
 90
4
  1
1.000
304
ACVALUE_END
170
5
140
0.125
171
1
172
0
173
0
174
0
175
1
176
1
 91
33
178
0
145
0.0
301
CELL_VALUE
 90
4
  1
C
304
ACVALUE_END
170
5
140
0.125
171
1
172
0
173
0
174
0
175
1
176
1
 91
33
178
0
145
0.0
301
CELL_VALUE
 90
4
  1
2
304
ACVALUE_END
170
5
140
0.125
171
1
172
0
173
0
174
0
175
1
176
1
 91
33
178
0
145
0.0
301
CELL_VALUE
 90
4
  1
 
304
ACVALUE_END
170
1
140
0.125
171
1
172
0
173
0
174
0
175
1
176
1
 91
33
178
0
145
0.0
301
CELL_VALUE
 90
4
  1
DESCRIPTION
304
ACVALUE_END
170
1
140
0.06
171
1
172
0
173
0
174
0
175
1
176
1
 91
33
178
0
145
0.0
301
CELL_VALUE
 90
4
  1
DATE
304
ACVALUE_END
170
1
140
0.06
171
1
172
0
173
0
174
0
175
1
176
1
 91
33
178
0
145
0.0
301
CELL_VALUE
 90
4
  1
SCALE
304
ACVALUE_END
170
1
140
0.06
171
1
172
0
173
0
174
0
175
1
176
1
 91
33
178
0
145
0.0
301
CELL_VALUE
 90
4
  1
DWG SIZE
304
ACVALUE_END
170
1
140
0.06
171
1
172
0
173
0
174
0
175
1
176
1
 91
33
178
0
145
0.0
301
CELL_VALUE
 90
4
  1
SHEET
304
ACVALUE_END
170
1
140
0.06
171
1
172
0
173
0
174
0
175
1
176
1
 91
33
178
0
145
0.0
301
CELL_VALUE
 90
4
  1
 
304
ACVALUE_END
170
1
140
0.125
171
1
172
0
173
0
174
0
175
1
176
1
 91
33
178
0
145
0.0
301
CELL_VALUE
 90
4
  1
K4S
304
ACVALUE_END
170
5
140
0.125
171
1
172
0
173
0
174
0
175
4
176
1
 91
33
178
0
145
0.0
301
CELL_VALUE
 90
4
  1
ALL DIMENSIONS IN INCH\PVIEWS ARE THIRD ANGLE
304
ACVALUE_END
170
5
140
0.12
171
1
172
0
173
1
174
0
175
1
176
1
 91
1
178
0
145
0.0
170
1
171
1
172
0
173
1
174
0
175
1
176
1
 91
1
178
0
145
0.0
170
1
171
1
172
0
173
1
174
0
175
1
176
1
 91
1
178
0
145
0.0
170
5
171
1
172
0
173
0
174
0
175
1
176
1
 91
33
178
0
145
0.0
301
CELL_VALUE
 90
4
  1
 
304
ACVALUE_END
170
1
140
0.125
171
1
172
0
173
0
174
0
175
1
176
1
 91
33
178
0
145
0.0
301
CELL_VALUE
 90
4
  1
MODEL
304
ACVALUE_END
170
1
140
0.06
171
1
172
0
173
0
174
0
175
1
176
1
 91
33
178
0
145
0.0
301
CELL_VALUE
 90
4
  1
 
304
ACVALUE_END
170
1
140
0.125
171
1
172
0
173
0
174
0
175
1
176
1
 91
33
178
0
145
0.0
301
CELL_VALUE
 90
4
  1
 
304
ACVALUE_END
170
1
140
0.125
171
1
172
0
173
0
174
0
175
1
176
1
 91
33
178
0
145
0.0
301
CELL_VALUE
 90
4
  1
 
304
ACVALUE_END
170
1
140
0.125
171
1
172
0
173
0
174
0
175
1
176
1
 91
33
178
0
145
0.0
301
CELL_VALUE
 90
4
  1
 
304
ACVALUE_END
170
1
140
0.125
171
1
172
0
173
0
174
0
175
1
176
1
 91
33
178
0
145
0.0
301
CELL_VALUE
 90
4
  1
 
304
ACVALUE_END
170
1
140
0.125
  0
ACAD_TABLE
  5
295
100
AcDbEntity
  8
0
 62
2
  6
CONTINUOUS
100
AcDbBlockReference
  2
*T2
 10
12.4237499994
 20
16.47875
 30
0.0
100
AcDbTable
342
       3FC
343
210
 11
1.0
 21
0.0
 31
0.0
 90
22
 91
11
 92
3
 93
16
 94
0
 95
0
 96
0
 41
0.028
141
0.344
141
0.25
141
0.25
141
0.25
141
0.25
141
0.25
141
0.25
141
0.25
141
0.25
141
0.25
141
0.25
142
3.055
142
3.0
142
3.0
171
1
172
0
173
0
174
0
175
1
176
1
 91
33
178
0
145
0.0
301
CELL_VALUE
 90
4
  1
Technical Data
304
ACVALUE_END
170
5
140
0.145
171
1
172
0
173
0
174
0
175
1
176
1
 91
33
178
0
145
0.0
301
CELL_VALUE
 90
4
  1
U.S. Units
304
ACVALUE_END
170
5
140
0.145
171
1
172
0
173
0
174
0
175
1
176
1
 91
33
178
0
145
0.0
301
CELL_VALUE
 90
4
  1
Metric Units
304
ACVALUE_END
170
5
140
0.145
171
1
172
0
173
0
174
0
175
1
176
1
 91
33
178
0
145
0.0
301
CELL_VALUE
 90
4
  1
Cavity
304
ACVALUE_END
170
5
140
0.125
171
1
172
0
173
0
174
0
175
2
176
1
 91
33
178
0
145
0.0
301
CELL_VALUE
 90
4
  1
T-19A
304
ACVALUE_END
170
5
140
0.125
171
1
172
0
173
1
174
0
175
1
176
1
 91
1
178
0
145
0.0
170
1
171
1
172
0
173
0
174
0
175
1
176
1
 91
33
178
0
145
0.0
301
CELL_VALUE
 90
4
  1
Body Features
304
ACVALUE_END
170
5
140
0.125
171
1
172
0
173
0
174
0
175
2
176
1
 91
33
178
0
145
0.0
301
CELL_VALUE
 90
4
  1
Ninety degree with reverse flow check - reducing
304
ACVALUE_END
170
5
140
0.125
171
1
172
0
173
1
174
0
175
1
176
1
 91
1
178
0
145
0.0
170
1
171
1
172
0
173
0
174
0
175
1
176
1
 91
33
178
0
145
0.0
301
CELL_VALUE
 90
4
  1
Body Type
304
ACVALUE_END
170
5
140
0.125
171
1
172
0
173
0
174
0
175
2
176
1
 91
33
178
0
145
0.0
301
CELL_VALUE
 90
4
  1
Line mount
304
ACVALUE_END
170
5
140
0.125
171
1
172
0
173
1
174
0
175
1
176
1
 91
1
178
0
145
0.0
170
1
171
1
172
0
173
0
174
0
175
1
176
1
 91
33
178
0
145
0.0
301
CELL_VALUE
 90
4
  1
Interface
304
ACVALUE_END
170
5
140
0.125
171
1
172
0
173
0
174
0
175
2
176
1
 91
33
178
0
145
0.0
301
CELL_VALUE
 90
4
  1
None
304
ACVALUE_END
170
5
140
0.125
171
1
172
0
173
1
174
0
175
1
176
1
 91
1
178
0
145
0.0
170
1
171
1
172
0
173
0
174
0
175
1
176
1
 91
33
178
0
145
0.0
301
CELL_VALUE
 90
4
  1
Open Cavity Quantity
304
ACVALUE_END
170
5
140
0.125
171
1
172
0
173
0
174
0
175
2
176
1
 91
33
178
0
145
0.0
301
CELL_VALUE
 90
4
  1
1
304
ACVALUE_END
170
5
140
0.125
171
1
172
0
173
1
174
0
175
1
176
1
 91
1
178
0
145
0.0
170
1
171
1
172
0
173
0
174
0
175
1
176
1
 91
33
178
0
145
0.0
301
CELL_VALUE
 90
4
  1
Weight
304
ACVALUE_END
170
5
140
0.125
171
1
172
0
173
0
174
0
175
1
176
1
 91
33
178
0
145
0.0
301
CELL_VALUE
 90
4
  1
15.118 lb.
304
ACVALUE_END
170
5
140
0.125
171
1
172
0
173
0
174
0
175
1
176
1
 91
33
178
0
145
0.0
301
CELL_VALUE
 90
4
  1
6,858 kg.
304
ACVALUE_END
170
5
140
0.125
171
1
172
0
173
0
174
0
175
1
176
1
 91
33
178
0
145
0.0
301
CELL_VALUE
 90
4
  1
Mounting Hole Thread
304
ACVALUE_END
170
5
140
0.125
171
1
172
0
173
0
174
0
175
2
176
1
 91
33
178
0
145
0.0
301
CELL_VALUE
 90
4
  1
.375-16 UNC - 2B in.
304
ACVALUE_END
170
5
140
0.125
171
1
172
0
173
1
174
0
175
1
176
1
 91
1
178
0
145
0.0
170
1
171
1
172
0
173
0
174
0
175
1
176
1
 91
33
178
0
145
0.0
301
CELL_VALUE
 90
4
  1
Mounting Hole Depth
304
ACVALUE_END
170
5
140
0.125
171
1
172
0
173
0
174
0
175
1
176
1
 91
33
178
0
145
0.0
301
CELL_VALUE
 90
4
  1
.62 in.
304
ACVALUE_END
170
5
140
0.125
171
1
172
0
173
0
174
0
175
1
176
1
 91
33
178
0
145
0.0
301
CELL_VALUE
 90
4
  1
15,7 mm
304
ACVALUE_END
170
5
140
0.125
171
1
172
0
173
0
174
0
175
1
176
1
 91
33
178
0
145
0.0
301
CELL_VALUE
 90
4
  1
Mounting Hole Quantity
304
ACVALUE_END
170
5
140
0.125
171
1
172
0
173
0
174
0
175
2
176
1
 91
33
178
0
145
0.0
301
CELL_VALUE
 90
4
  1
2
304
ACVALUE_END
170
5
140
0.125
171
1
172
0
173
1
174
0
175
1
176
1
 91
1
178
0
145
0.0
170
1
171
1
172
0
173
0
174
0
175
1
176
1
 91
33
178
0
145
0.0
301
CELL_VALUE
 90
4
  1
Includes integral cartridge(s)
304
ACVALUE_END
170
5
140
0.125
171
1
172
0
173
0
174
0
175
2
176
1
 91
33
178
0
145
0.0
301
CELL_VALUE
 90
4
  1
Yes (see Included Components)
304
ACVALUE_END
170
5
140
0.125
171
1
172
0
173
1
174
0
175
1
176
1
 91
1
178
0
145
0.0
170
1
  0
ACAD_TABLE
  5
296
100
AcDbEntity
  8
0
 62
2
  6
CONTINUOUS
100
AcDbBlockReference
  2
*T3
 10
0.52125
 20
1.959
 30
0.0
100
AcDbTable
342
       3FC
343
211
 11
1.0
 21
0.0
 31
0.0
 90
22
 91
5
 92
3
 93
16
 94
0
 95
0
 96
0
 41
0.05
141
0.34375
141
0.344
141
0.25
141
0.25
141
0.25
142
1.3
142
2.0
142
1.3
171
1
172
0
173
0
174
0
175
3
176
1
 91
33
178
0
145
0.0
301
CELL_VALUE
 90
4
  1
Port Headings
304
ACVALUE_END
170
5
140
0.145
171
1
172
0
173
1
174
0
175
1
176
1
 91
1
178
0
145
0.0
170
1
171
1
172
0
173
1
174
0
175
1
176
1
 91
1
178
0
145
0.0
170
1
171
1
172
0
173
0
174
0
175
1
176
1
 91
33
178
0
145
0.0
301
CELL_VALUE
 90
4
  1
Product
304
ACVALUE_END
170
5
140
0.145
171
1
172
0
173
0
174
0
175
1
176
1
 91
33
178
0
145
0.0
301
CELL_VALUE
 90
4
  1
Port
304
ACVALUE_END
170
5
140
0.145
171
1
172
0
173
0
174
0
175
1
176
1
 91
33
178
0
145
0.0
301
CELL_VALUE
 90
4
  1
Size
304
ACVALUE_END
170
5
140
0.145
171
1
172
0
173
0
174
0
175
1
176
1
 91
33
178
0
145
0.0
301
CELL_VALUE
 90
4
  1
K4S
304
ACVALUE_END
170
5
140
0.125
171
1
172
0
173
0
174
0
175
1
176
1
 91
33
178
0
145
0.0
301
CELL_VALUE
 90
4
  1
Ports 1 &  2
304
ACVALUE_END
170
5
140
0.125
171
1
172
0
173
0
174
0
175
1
176
1
 91
33
178
0
145
0.0
301
CELL_VALUE
 90
4
  1
2" Code 61
304
ACVALUE_END
170
5
140
0.125
171
1
172
0
173
0
174
0
175
1
176
1
 91
33
178
0
145
0.0
301
CELL_VALUE
 90
4
  1
K4S
304
ACVALUE_END
170
5
140
0.125
171
1
172
0
173
0
174
0
175
1
176
1
 91
33
178
0
145
0.0
301
CELL_VALUE
 90
4
  1
Port 3
304
ACVALUE_END
170
5
140
0.125
171
1
172
0
173
0
174
0
175
1
176
1
 91
33
178
0
145
0.0
301
CELL_VALUE
 90
4
  1
1 1/2 in. Code 61
304
ACVALUE_END
170
5
140
0.125
171
1
172
0
173
0
174
0
175
1
176
1
 91
33
178
0
145
0.0
301
CELL_VALUE
 90
4
  1
K4S
304
ACVALUE_END
170
5
140
0.125
171
1
172
0
173
0
174
0
175
1
176
1
 91
33
178
0
145
0.0
301
CELL_VALUE
 90
4
  1
Gage Port
304
ACVALUE_END
170
5
140
0.125
171
1
172
0
173
0
174
0
175
1
176
1
 91
33
178
0
145
0.0
301
CELL_VALUE
 90
4
  1
1/4" NPTF
304
ACVALUE_END
170
5
140
0.125
  0
MTEXT
  5
297
100
AcDbEntity
  8
0
100
AcDbMText
 62
2
  6
CONTINUOUS
  7
STANDARD
 71
1
 72
1
 10
0.52125
 20
5.75995
 30
0.0
 11
1.0
 21
0.0
 31
0.0
 44
0.6
  3
Notes\P \P1. Important: Carefully consider\P   the maximum system pressure. The\P   pressure rating of the manifold is\P   dependent on the manifold material,\P   with the port type/size a secondary\P   consideration. Manifolds\P   constructed of alu
  3
minum are not\P   rated for pressures higher than\P   3000 psi (210 bar), regardless of\P   the port type/size specified.\P2. Flange mounting hole data: Inch:\P   1/2-13 UNC x 1.06 (26,9 mm) DP,\P   Metric: M12\P3. This drawing is for reference\P   o
  1
nly. It is generated by an\P   automated process and does not fall\P   under Sun's document control\P   process.
 40
0.1
 41
3.04
  0
LINE
  5
298
100
AcDbEntity
  8
0
100
AcDbLine
 62
7
  6
CONTINUOUS
 10
0.30125
 20
0.30125
 11
0.30125
 21
16.69875
  0
LINE
  5
299
100
AcDbEntity
  8
0
100
AcDbLine
 62
7
  6
CONTINUOUS
 10
0.30125
 20
0.30125
 11
21.69875
 21
0.30125
  0
LINE
  5
29A
100
AcDbEntity
  8
0
100
AcDbLine
 62
7
  6
CONTINUOUS
 10
0.30125
 20
16.69875
 11
21.69875
 21
16.69875
  0
LINE
  5
29B
100
AcDbEntity
  8
0
100
AcDbLine
 62
7
  6
CONTINUOUS
 10
21.69875
 20
0.30125
 11
21.69875
 21
16.69875
  0
LINE
  5
29C
100
AcDbEntity
  8
0
100
AcDbLine
 62
7
  6
CONTINUOUS
 10
6.1907758824
 20
5.9731792606
 11
6.1907758824
 21
10.3198457364
  0
LINE
  5
29D
100
AcDbEntity
  8
0
100
AcDbLine
 62
7
  6
CONTINUOUS
 10
6.1907758824
 20
10.3198457364
 11
7.4688233247
 21
11.5543448413
  0
LINE
  5
29E
100
AcDbEntity
  8
0
100
AcDbLine
 62
4
  6
CONTINUOUS
 10
7.7233411348
 20
10.2751902356
 11
7.7285175113
 21
10.2801902316
  0
LINE
  5
29F
100
AcDbEntity
  8
0
100
AcDbLine
 62
4
  6
CONTINUOUS
 10
7.7877361953
 20
10.2707244229
 11
7.7929125718
 21
10.275724419
  0
LINE
  5
2A0
100
AcDbEntity
  8
0
100
AcDbLine
 62
4
  6
CONTINUOUS
 10
7.8830656492
 20
10.2694722818
 11
7.8778892727
 21
10.2644722858
  0
LINE
  5
2A1
100
AcDbEntity
  8
0
100
AcDbLine
 62
7
  6
CONTINUOUS
 10
13.7974422151
 20
5.4456551587
 11
6.1907758824
 21
5.9731792606
  0
LINE
  5
2A2
100
AcDbEntity
  8
0
100
AcDbLine
 62
4
  6
CONTINUOUS
 10
10.6239283529
 20
11.2669425642
 11
10.6291047294
 21
11.2719425603
  0
LINE
  5
2A3
100
AcDbEntity
  8
0
100
AcDbLine
 62
4
  6
CONTINUOUS
 10
10.7707119261
 20
11.2487246203
 11
10.7914174321
 21
11.2687246046
  0
LINE
  5
2A4
100
AcDbEntity
  8
0
100
AcDbLine
 62
4
  6
CONTINUOUS
 10
10.383326864
 20
10.5545392476
 11
10.3677977341
 21
10.5395392591
  0
LINE
  5
2A5
100
AcDbEntity
  8
0
100
AcDbLine
 62
4
  6
CONTINUOUS
 10
10.4143851238
 20
10.5845392246
 11
10.4299142537
 21
10.5995392131
  0
LINE
  5
2A6
100
AcDbEntity
  8
0
100
AcDbLine
 62
4
  6
CONTINUOUS
 10
10.6559825704
 20
10.7879044516
 11
10.6598648528
 21
10.7916544488
  0
LINE
  5
2A7
100
AcDbEntity
  8
0
100
AcDbLine
 62
4
  6
CONTINUOUS
 10
10.6403140984
 20
10.742769869
 11
10.6299613452
 21
10.7327698767
  0
LINE
  5
2A8
100
AcDbEntity
  8
0
100
AcDbLine
 62
4
  6
CONTINUOUS
 10
10.5344571963
 20
10.6405199474
 11
10.5189280664
 21
10.6255199589
  0
LINE
  5
2A9
100
AcDbEntity
  8
0
100
AcDbLine
 62
4
  6
CONTINUOUS
 10
10.4257532871
 20
10.5355200278
 11
10.441282417
 21
10.5505200163
  0
LINE
  5
2AA
100
AcDbEntity
  8
0
100
AcDbLine
 62
4
  6
CONTINUOUS
 10
10.5730212022
 20
10.6777699188
 11
10.5885503321
 21
10.6927699073
  0
LINE
  5
2AB
100
AcDbEntity
  8
0
100
AcDbLine
 62
4
  6
CONTINUOUS
 10
10.5989030854
 20
10.7027698997
 11
10.6144322153
 21
10.7177698882
  0
LINE
  5
2AC
100
AcDbEntity
  8
0
100
AcDbLine
 62
4
  6
CONTINUOUS
 10
10.6972542414
 20
10.7977698269
 11
10.7127833712
 21
10.8127698154
  0
LINE
  5
2AD
100
AcDbEntity
  8
0
100
AcDbLine
 62
4
  6
CONTINUOUS
 10
10.7231361245
 20
10.8227698078
 11
10.7386652544
 21
10.8377697963
  0
LINE
  5
2AE
100
AcDbEntity
  8
0
100
AcDbLine
 62
4
  6
CONTINUOUS
 10
10.6441034862
 20
10.7264301368
 11
10.6596326161
 21
10.7414301253
  0
LINE
  5
2AF
100
AcDbEntity
  8
0
100
AcDbLine
 62
4
  6
CONTINUOUS
 10
11.2675768501
 20
10.7509449136
 11
11.3014868754
 21
10.7608423398
  0
LINE
  5
2B0
100
AcDbEntity
  8
0
100
AcDbLine
 62
4
  6
CONTINUOUS
 10
11.0434075334
 20
10.5115568233
 11
11.0773175579
 21
10.5214542504
  0
LINE
  5
2B1
100
AcDbEntity
  8
0
100
AcDbLine
 62
4
  6
CONTINUOUS
 10
10.752113901
 20
10.8207601921
 11
10.7676430309
 21
10.8357601806
  0
LINE
  5
2B2
100
AcDbEntity
  8
0
100
AcDbLine
 62
4
  6
CONTINUOUS
 10
10.7966208074
 20
10.833750565
 11
10.7810916775
 21
10.8187505765
  0
LINE
  5
2B3
100
AcDbEntity
  8
0
100
AcDbLine
 62
4
  6
CONTINUOUS
 10
10.6982696514
 20
10.7387506378
 11
10.6827405215
 21
10.7237506493
  0
LINE
  5
2B4
100
AcDbEntity
  8
0
100
AcDbLine
 62
4
  6
CONTINUOUS
 10
10.6465058851
 20
10.6887506761
 11
10.6309767552
 21
10.6737506876
  0
LINE
  5
2B5
100
AcDbEntity
  8
0
100
AcDbLine
 62
4
  6
CONTINUOUS
 10
10.620624002
 20
10.6637506952
 11
10.6050948721
 21
10.6487507067
  0
LINE
  5
2B6
100
AcDbEntity
  8
0
100
AcDbLine
 62
4
  6
CONTINUOUS
 10
10.5225316648
 20
10.5690007678
 11
10.507002535
 21
10.5540007793
  0
LINE
  5
2B7
100
AcDbEntity
  8
0
100
AcDbLine
 62
4
  6
CONTINUOUS
 10
10.49923797
 20
10.5465007851
 11
10.4837088401
 21
10.5315007965
  0
LINE
  5
2B8
100
AcDbEntity
  8
0
100
AcDbLine
 62
4
  6
CONTINUOUS
 10
10.7086224047
 20
10.7487506301
 11
10.7241515346
 21
10.7637506186
  0
LINE
  5
2B9
100
AcDbEntity
  8
0
100
AcDbLine
 62
4
  6
CONTINUOUS
 10
10.7552097944
 20
10.7937505957
 11
10.7707389243
 21
10.8087505842
  0
LINE
  5
2BA
100
AcDbEntity
  8
0
100
AcDbLine
 62
4
  6
CONTINUOUS
 10
10.678579555
 20
10.659731464
 11
10.6682268017
 21
10.6497314717
  0
LINE
  5
2BB
100
AcDbEntity
  8
0
100
AcDbLine
 62
4
  6
CONTINUOUS
 10
10.8722831053
 20
10.678834737
 11
10.8811568933
 21
10.6874061585
  0
LINE
  5
2BC
100
AcDbEntity
  8
0
100
AcDbLine
 62
4
  6
CONTINUOUS
 10
10.9500454331
 20
10.6596616681
 11
10.9345163032
 21
10.6446616796
  0
LINE
  5
2BD
100
AcDbEntity
  8
0
100
AcDbLine
 62
4
  6
CONTINUOUS
 10
10.9859757653
 20
10.66865342
 11
10.9948495532
 21
10.6772248415
  0
LINE
  5
2BE
100
AcDbEntity
  8
0
100
AcDbLine
 62
4
  6
CONTINUOUS
 10
10.9949201939
 20
10.5332930752
 11
11.006012428
 21
10.5440073511
  0
LINE
  5
2BF
100
AcDbEntity
  8
0
100
AcDbLine
 62
4
  6
CONTINUOUS
 10
11.0496418865
 20
10.5861501744
 11
11.0673894624
 21
10.6032930174
  0
LINE
  5
2C0
100
AcDbEntity
  8
0
100
AcDbLine
 62
4
  6
CONTINUOUS
 10
11.0762632541
 20
10.6118644424
 11
11.0895739379
 21
10.6247215765
  0
LINE
  5
2C1
100
AcDbEntity
  8
0
100
AcDbLine
 62
4
  6
CONTINUOUS
 10
11.1272875433
 20
10.6611501241
 11
11.1361613276
 21
10.669721542
  0
LINE
  5
2C2
100
AcDbEntity
  8
0
100
AcDbLine
 62
4
  6
CONTINUOUS
 10
11.1531694166
 20
10.6861500954
 11
11.1598247622
 21
10.692578666
  0
LINE
  5
2C3
100
AcDbEntity
  8
0
100
AcDbLine
 62
4
  6
CONTINUOUS
 10
11.1731354386
 20
10.7054357928
 11
11.1842276764
 21
10.7161500724
  0
LINE
  5
2C4
100
AcDbEntity
  8
0
100
AcDbLine
 62
4
  6
CONTINUOUS
 10
11.2012357802
 20
10.7325786401
 11
11.2145464566
 21
10.745435767
  0
LINE
  5
2C5
100
AcDbEntity
  8
0
100
AcDbLine
 62
4
  6
CONTINUOUS
 10
11.2597857498
 20
10.7377050029
 11
11.2509119655
 21
10.7291335849
  0
LINE
  5
2C6
100
AcDbEntity
  8
0
100
AcDbLine
 62
4
  6
CONTINUOUS
 10
11.1348132311
 20
10.6169908123
 11
11.1259394395
 21
10.6084193873
  0
LINE
  5
2C7
100
AcDbEntity
  8
0
100
AcDbLine
 62
4
  6
CONTINUOUS
 10
11.1087720975
 20
10.5575512916
 11
11.1206038148
 21
10.5689798535
  0
LINE
  5
2C8
100
AcDbEntity
  8
0
100
AcDbLine
 62
4
  6
CONTINUOUS
 10
11.3001387824
 20
10.7081116099
 11
11.2890465447
 21
10.6973973303
  0
LINE
  5
2C9
100
AcDbEntity
  8
0
100
AcDbLine
 62
4
  6
CONTINUOUS
 10
11.2757358682
 20
10.6845402035
 11
11.2690805226
 21
10.6781116329
  0
LINE
  5
2CA
100
AcDbEntity
  8
0
100
AcDbLine
 62
4
  6
CONTINUOUS
 10
11.2520724336
 20
10.6616830795
 11
11.2431986494
 21
10.6531116616
  0
LINE
  5
2CB
100
AcDbEntity
  8
0
100
AcDbLine
 62
4
  6
CONTINUOUS
 10
11.121923534
 20
10.5359688886
 11
11.1108313
 21
10.5252546126
  0
LINE
  5
2CC
100
AcDbEntity
  8
0
100
AcDbLine
 62
4
  6
CONTINUOUS
 10
11.1921743601
 20
10.6038259799
 11
11.205485044
 21
10.616683114
  0
LINE
  5
2CD
100
AcDbEntity
  8
0
100
AcDbLine
 62
4
  6
CONTINUOUS
 10
11.3171468862
 20
10.7245401776
 11
11.3304575626
 21
10.7373973045
  0
LINE
  5
2CE
100
AcDbEntity
  8
0
100
AcDbLine
 62
7
  6
CONTINUOUS
 10
14.5814508463
 20
7.5919751801
 11
15.4223275449
 21
7.5336601829
  0
LINE
  5
2CF
100
AcDbEntity
  8
0
100
AcDbLine
 62
7
  6
CONTINUOUS
 10
14.5693417421
 20
7.6063701992
 11
15.4102184407
 21
7.5480552021
  0
LINE
  5
2D0
100
AcDbEntity
  8
0
100
AcDbLine
 62
7
  6
CONTINUOUS
 10
12.8911007382
 20
7.844019734
 11
12.8280381543
 21
7.8483931391
  0
LINE
  5
2D1
100
AcDbEntity
  8
0
100
AcDbLine
 62
7
  6
CONTINUOUS
 10
11.8845427726
 20
7.9619400545
 11
12.7648877838
 21
7.9008879206
  0
LINE
  5
2D2
100
AcDbEntity
  8
0
100
AcDbLine
 62
7
  6
CONTINUOUS
 10
12.8944215734
 20
7.8919047218
 11
12.9290161965
 21
7.8895055765
  0
LINE
  5
2D3
100
AcDbEntity
  8
0
100
AcDbLine
 62
4
  6
CONTINUOUS
 10
7.7310437667
 20
10.2692970772
 11
7.7233411348
 21
10.2751902356
  0
LINE
  5
2D4
100
AcDbEntity
  8
0
100
AcDbLine
 62
4
  6
CONTINUOUS
 10
7.7852099307
 20
10.281617578
 11
7.7929125718
 21
10.275724419
  0
LINE
  5
2D5
100
AcDbEntity
  8
0
100
AcDbLine
 62
4
  6
CONTINUOUS
 10
7.8753630138
 20
10.2753654404
 11
7.8830656492
 21
10.2694722818
  0
LINE
  5
2D6
100
AcDbEntity
  8
0
100
AcDbLine
 62
4
  6
CONTINUOUS
 10
12.8646183176
 20
10.331282855
 11
12.8697946941
 21
10.3362828511
  0
LINE
  5
2D7
100
AcDbEntity
  8
0
100
AcDbLine
 62
4
  6
CONTINUOUS
 10
12.9444805748
 20
10.3284238781
 11
12.9548333279
 21
10.3384238703
  0
LINE
  5
2D8
100
AcDbEntity
  8
0
100
AcDbLine
 62
7
  6
CONTINUOUS
 10
12.6369952897
 20
10.2664159128
 11
12.6362960405
 21
10.2657532663
  0
LINE
  5
2D9
100
AcDbEntity
  8
0
100
AcDbLine
 62
7
  6
CONTINUOUS
 10
14.4560025644
 20
8.2295295639
 11
15.296879263
 21
8.1712145668
  0
LINE
  5
2DA
100
AcDbEntity
  8
0
100
AcDbLine
 62
7
  6
CONTINUOUS
 10
14.4560025644
 20
8.2817125965
 11
15.296879263
 21
8.2233975994
  0
LINE
  5
2DB
100
AcDbEntity
  8
0
100
AcDbLine
 62
4
  6
CONTINUOUS
 10
13.024342832
 20
10.3255649013
 11
13.0191664555
 21
10.3205649052
  0
LINE
  5
2DC
100
AcDbEntity
  8
0
100
AcDbLine
 62
7
  6
CONTINUOUS
 10
12.3964499687
 20
8.4948010149
 11
12.5573991847
 21
8.4836391489
  0
LINE
  5
2DD
100
AcDbEntity
  8
0
100
AcDbLine
 62
4
  6
CONTINUOUS
 10
7.7749191105
 20
10.2850107383
 11
7.7852099307
 21
10.281617578
  0
LINE
  5
2DE
100
AcDbEntity
  8
0
100
AcDbLine
 62
4
  6
CONTINUOUS
 10
7.8547813677
 20
10.2821517614
 11
7.8753630138
 21
10.2753654404
  0
LINE
  5
2DF
100
AcDbEntity
  8
0
100
AcDbLine
 62
7
  6
CONTINUOUS
 10
13.7974422151
 20
9.7923216345
 11
15.0754896574
 21
11.0268207394
  0
LINE
  5
2E0
100
AcDbEntity
  8
0
100
AcDbLine
 62
7
  6
CONTINUOUS
 10
14.5693417421
 20
9.1238264519
 11
15.4102184407
 21
9.0655114548
  0
LINE
  5
2E1
100
AcDbEntity
  8
0
100
AcDbLine
 62
7
  6
CONTINUOUS
 10
14.5814508463
 20
9.1616144654
 11
15.4223275449
 21
9.1032994683
  0
LINE
  5
2E2
100
AcDbEntity
  8
0
100
AcDbLine
 62
7
  6
CONTINUOUS
 10
14.8081292018
 20
9.3805689562
 11
15.6490059004
 21
9.3222539591
  0
LINE
  5
2E3
100
AcDbEntity
  8
0
100
AcDbLine
 62
7
  6
CONTINUOUS
 10
12.3894859801
 20
7.9498182753
 11
12.3858586412
 21
7.9567649345
  0
LINE
  5
2E4
100
AcDbEntity
  8
0
100
AcDbLine
 62
4
  6
CONTINUOUS
 10
13.0191664555
 20
10.3205649052
 11
13.0011110671
 21
10.3164580717
  0
LINE
  5
2E5
100
AcDbEntity
  8
0
100
AcDbLine
 62
4
  6
CONTINUOUS
 10
12.8697946941
 20
10.3362828511
 11
12.8878500791
 21
10.3403896849
  0
LINE
  5
2E6
100
AcDbEntity
  8
0
100
AcDbLine
 62
7
  6
CONTINUOUS
 10
6.1907758824
 20
10.3198457364
 11
13.7974422151
 21
9.7923216345
  0
LINE
  5
2E7
100
AcDbEntity
  8
0
100
AcDbLine
 62
4
  6
CONTINUOUS
 10
7.7620401021
 20
10.2859039005
 11
7.7749191105
 21
10.2850107383
  0
LINE
  5
2E8
100
AcDbEntity
  8
0
100
AcDbLine
 62
4
  6
CONTINUOUS
 10
11.9573781916
 20
9.9949562158
 11
12.1119263296
 21
9.9842382661
  0
LINE
  5
2E9
100
AcDbEntity
  8
0
100
AcDbLine
 62
4
  6
CONTINUOUS
 10
7.8419023547
 20
10.283044924
 11
7.8547813677
 21
10.2821517614
  0
LINE
  5
2EA
100
AcDbEntity
  8
0
100
AcDbLine
 62
4
  6
CONTINUOUS
 10
11.0331609435
 20
10.524516522
 11
11.0434075334
 21
10.5115568233
  0
LINE
  5
2EB
100
AcDbEntity
  8
0
100
AcDbLine
 62
7
  6
CONTINUOUS
 10
12.7101960389
 20
7.9275769572
 11
12.7136303936
 21
7.9214952813
  0
LINE
  5
2EC
100
AcDbEntity
  8
0
100
AcDbLine
 62
7
  6
CONTINUOUS
 10
12.7482490269
 20
7.9349364863
 11
12.7298044454
 21
7.9792512534
  0
LINE
  5
2ED
100
AcDbEntity
  8
0
100
AcDbLine
 62
4
  6
CONTINUOUS
 10
13.0011110671
 20
10.3164580717
 11
12.970176668
 21
10.3132444006
  0
LINE
  5
2EE
100
AcDbEntity
  8
0
100
AcDbLine
 62
4
  6
CONTINUOUS
 10
12.8878500791
 20
10.3403896849
 11
12.903317285
 21
10.34199652
  0
LINE
  5
2EF
100
AcDbEntity
  8
0
100
AcDbLine
 62
4
  6
CONTINUOUS
 10
12.970176668
 20
10.3132444006
 11
12.9289514453
 21
10.31342389
  0
LINE
  5
2F0
100
AcDbEntity
  8
0
100
AcDbLine
 62
4
  6
CONTINUOUS
 10
11.1098016978
 20
10.5414029512
 11
11.121923534
 21
10.5359688886
  0
LINE
  5
2F1
100
AcDbEntity
  8
0
100
AcDbLine
 62
4
  6
CONTINUOUS
 10
10.8844049379
 20
10.6734006727
 11
10.8722831053
 21
10.678834737
  0
LINE
  5
2F2
100
AcDbEntity
  8
0
100
AcDbLine
 62
4
  6
CONTINUOUS
 10
11.3014868754
 20
10.7608423398
 11
11.3117334644
 21
10.747882642
  0
LINE
  5
2F3
100
AcDbEntity
  8
0
100
AcDbLine
 62
7
  6
CONTINUOUS
 10
14.8081292018
 20
9.3805689562
 11
14.5814508463
 21
9.1616144654
  0
LINE
  5
2F4
100
AcDbEntity
  8
0
100
AcDbLine
 62
4
  6
CONTINUOUS
 10
10.966168985
 20
10.6838072541
 11
10.9009636663
 21
10.672252321
  0
LINE
  5
2F5
100
AcDbEntity
  8
0
100
AcDbLine
 62
4
  6
CONTINUOUS
 10
11.006012428
 20
10.5440073511
 11
11.0270080504
 21
10.5471447102
  0
LINE
  5
2F6
100
AcDbEntity
  8
0
100
AcDbLine
 62
4
  6
CONTINUOUS
 10
11.2431986494
 20
10.6531116616
 11
11.222203027
 21
10.6499743044
  0
LINE
  5
2F7
100
AcDbEntity
  8
0
100
AcDbLine
 62
4
  6
CONTINUOUS
 10
11.2690805226
 20
10.6781116329
 11
11.2480849003
 21
10.6749742758
  0
LINE
  5
2F8
100
AcDbEntity
  8
0
100
AcDbLine
 62
4
  6
CONTINUOUS
 10
11.1598247622
 20
10.692578666
 11
11.1808203828
 21
10.6957160232
  0
LINE
  5
2F9
100
AcDbEntity
  8
0
100
AcDbLine
 62
4
  6
CONTINUOUS
 10
10.9754779504
 20
10.6670847378
 11
10.9859757653
 21
10.66865342
  0
LINE
  5
2FA
100
AcDbEntity
  8
0
100
AcDbLine
 62
4
  6
CONTINUOUS
 10
11.1842276764
 20
10.7161500724
 11
11.205223297
 21
10.7192874296
  0
LINE
  5
2FB
100
AcDbEntity
  8
0
100
AcDbLine
 62
4
  6
CONTINUOUS
 10
10.8811568933
 20
10.6874061585
 11
10.891654707
 21
10.6889748368
  0
LINE
  5
2FC
100
AcDbEntity
  8
0
100
AcDbLine
 62
4
  6
CONTINUOUS
 10
7.8598338843
 20
10.2603654522
 11
7.8443666841
 21
10.2587586167
  0
LINE
  5
2FD
100
AcDbEntity
  8
0
100
AcDbLine
 62
4
  6
CONTINUOUS
 10
7.8109679567
 20
10.2798312528
 11
7.8419023547
 21
10.283044924
  0
LINE
  5
2FE
100
AcDbEntity
  8
0
100
AcDbLine
 62
4
  6
CONTINUOUS
 10
7.7465728962
 20
10.2842970654
 11
7.7620401021
 21
10.2859039005
  0
LINE
  5
2FF
100
AcDbEntity
  8
0
100
AcDbLine
 62
4
  6
CONTINUOUS
 10
10.8753719005
 20
10.6303897158
 11
10.9504806096
 21
10.6343677304
  0
LINE
  5
300
100
AcDbEntity
  8
0
100
AcDbLine
 62
4
  6
CONTINUOUS
 10
11.0318943105
 20
10.5690073314
 11
11.1566792082
 21
10.5695402939
  0
LINE
  5
301
100
AcDbEntity
  8
0
100
AcDbLine
 62
4
  6
CONTINUOUS
 10
12.9548333279
 20
10.3384238703
 11
13.0063493731
 21
10.3348512204
  0
LINE
  5
302
100
AcDbEntity
  8
0
100
AcDbLine
 62
4
  6
CONTINUOUS
 10
10.3677977341
 20
10.5395392591
 11
10.4257532871
 21
10.5355200278
  0
LINE
  5
303
100
AcDbEntity
  8
0
100
AcDbLine
 62
4
  6
CONTINUOUS
 10
10.441282417
 20
10.5505200163
 11
10.49923797
 21
10.5465007851
  0
LINE
  5
304
100
AcDbEntity
  8
0
100
AcDbLine
 62
4
  6
CONTINUOUS
 10
10.507002535
 20
10.5540007793
 11
10.3910914289
 21
10.5620392418
  0
LINE
  5
305
100
AcDbEntity
  8
0
100
AcDbLine
 62
4
  6
CONTINUOUS
 10
11.1108313
 20
10.5252546126
 11
10.9949201939
 21
10.5332930752
  0
LINE
  5
306
100
AcDbEntity
  8
0
100
AcDbLine
 62
4
  6
CONTINUOUS
 10
10.4066205588
 20
10.5770392303
 11
10.5225316648
 21
10.5690007678
  0
LINE
  5
307
100
AcDbEntity
  8
0
100
AcDbLine
 62
4
  6
CONTINUOUS
 10
10.4143851238
 20
10.5845392246
 11
10.5302962298
 21
10.5765007621
  0
LINE
  5
308
100
AcDbEntity
  8
0
100
AcDbLine
 62
4
  6
CONTINUOUS
 10
11.0270080504
 20
10.5471447102
 11
11.1098016978
 21
10.5414029512
  0
LINE
  5
309
100
AcDbEntity
  8
0
100
AcDbLine
 62
4
  6
CONTINUOUS
 10
10.4299142537
 20
10.5995392131
 11
10.5458253597
 21
10.5915007506
  0
LINE
  5
30A
100
AcDbEntity
  8
0
100
AcDbLine
 62
4
  6
CONTINUOUS
 10
10.5768836195
 20
10.6215007276
 11
10.4609725134
 21
10.6295391901
  0
LINE
  5
30B
100
AcDbEntity
  8
0
100
AcDbLine
 62
4
  6
CONTINUOUS
 10
11.1744267842
 20
10.5866831369
 11
11.0585156782
 21
10.5947215994
  0
LINE
  5
30C
100
AcDbEntity
  8
0
100
AcDbLine
 62
4
  6
CONTINUOUS
 10
10.5924127493
 20
10.6365007161
 11
10.5344571963
 21
10.6405199474
  0
LINE
  5
30D
100
AcDbEntity
  8
0
100
AcDbLine
 62
4
  6
CONTINUOUS
 10
10.9349514797
 20
10.6193677419
 11
10.8190403737
 21
10.6274062044
  0
LINE
  5
30E
100
AcDbEntity
  8
0
100
AcDbLine
 62
4
  6
CONTINUOUS
 10
11.1921743601
 20
10.6038259799
 11
11.0762632541
 21
10.6118644424
  0
LINE
  5
30F
100
AcDbEntity
  8
0
100
AcDbLine
 62
4
  6
CONTINUOUS
 10
10.6050948721
 20
10.6487507067
 11
10.5471393191
 21
10.652769938
  0
LINE
  5
310
100
AcDbEntity
  8
0
100
AcDbLine
 62
4
  6
CONTINUOUS
 10
10.562668449
 20
10.6677699265
 11
10.678579555
 21
10.659731464
  0
LINE
  5
311
100
AcDbEntity
  8
0
100
AcDbLine
 62
4
  6
CONTINUOUS
 10
10.6309767552
 20
10.6737506876
 11
10.5730212022
 21
10.6777699188
  0
LINE
  5
312
100
AcDbEntity
  8
0
100
AcDbLine
 62
4
  6
CONTINUOUS
 10
10.9697071521
 20
10.6529391454
 11
10.9117515991
 21
10.6569583767
  0
LINE
  5
313
100
AcDbEntity
  8
0
100
AcDbLine
 62
4
  6
CONTINUOUS
 10
10.5305947791
 20
10.6967891386
 11
10.6465058851
 21
10.6887506761
  0
LINE
  5
314
100
AcDbEntity
  8
0
100
AcDbLine
 62
4
  6
CONTINUOUS
 10
11.222203027
 20
10.6499743044
 11
11.1394093796
 21
10.6557160634
  0
LINE
  5
315
100
AcDbEntity
  8
0
100
AcDbLine
 62
4
  6
CONTINUOUS
 10
10.9009636663
 20
10.672252321
 11
10.8844049379
 21
10.6734006727
  0
LINE
  5
316
100
AcDbEntity
  8
0
100
AcDbLine
 62
4
  6
CONTINUOUS
 10
10.5989030854
 20
10.7027698997
 11
10.6568586384
 21
10.6987506684
  0
LINE
  5
317
100
AcDbEntity
  8
0
100
AcDbLine
 62
4
  6
CONTINUOUS
 10
10.9827277152
 20
10.6826589023
 11
10.966168985
 21
10.6838072541
  0
LINE
  5
318
100
AcDbEntity
  8
0
100
AcDbLine
 62
4
  6
CONTINUOUS
 10
11.2480849003
 20
10.6749742758
 11
11.1652912529
 21
10.6807160347
  0
LINE
  5
319
100
AcDbEntity
  8
0
100
AcDbLine
 62
4
  6
CONTINUOUS
 10
10.6827405215
 20
10.7237506493
 11
10.6441034862
 21
10.7264301368
  0
LINE
  5
31A
100
AcDbEntity
  8
0
100
AcDbLine
 62
4
  6
CONTINUOUS
 10
11.1808203828
 20
10.6957160232
 11
11.2636140302
 21
10.6899742643
  0
LINE
  5
31B
100
AcDbEntity
  8
0
100
AcDbLine
 62
4
  6
CONTINUOUS
 10
11.2890465447
 20
10.6973973303
 11
11.1731354386
 21
10.7054357928
  0
LINE
  5
31C
100
AcDbEntity
  8
0
100
AcDbLine
 62
4
  6
CONTINUOUS
 10
10.6403140984
 20
10.742769869
 11
10.6982696514
 21
10.7387506378
  0
LINE
  5
31D
100
AcDbEntity
  8
0
100
AcDbLine
 62
4
  6
CONTINUOUS
 10
10.6506668517
 20
10.7527698614
 11
10.7086224047
 21
10.7487506301
  0
LINE
  5
31E
100
AcDbEntity
  8
0
100
AcDbLine
 62
4
  6
CONTINUOUS
 10
11.205223297
 20
10.7192874296
 11
11.2880169444
 21
10.7135456707
  0
LINE
  5
31F
100
AcDbEntity
  8
0
100
AcDbLine
 62
4
  6
CONTINUOUS
 10
10.7241515346
 20
10.7637506186
 11
10.6661959816
 21
10.7677698499
  0
LINE
  5
320
100
AcDbEntity
  8
0
100
AcDbLine
 62
4
  6
CONTINUOUS
 10
11.3171468862
 20
10.7245401776
 11
11.2012357802
 21
10.7325786401
  0
LINE
  5
321
100
AcDbEntity
  8
0
100
AcDbLine
 62
4
  6
CONTINUOUS
 10
10.7345042878
 20
10.773750611
 11
10.6185931818
 21
10.7817890735
  0
LINE
  5
322
100
AcDbEntity
  8
0
100
AcDbLine
 62
4
  6
CONTINUOUS
 10
10.7448570411
 20
10.7837506033
 11
10.6869014881
 21
10.7877698346
  0
LINE
  5
323
100
AcDbEntity
  8
0
100
AcDbLine
 62
4
  6
CONTINUOUS
 10
10.6972542414
 20
10.7977698269
 11
10.7552097944
 21
10.7937505957
  0
LINE
  5
324
100
AcDbEntity
  8
0
100
AcDbLine
 62
4
  6
CONTINUOUS
 10
10.7231361245
 20
10.8227698078
 11
10.752113901
 21
10.8207601921
  0
LINE
  5
325
100
AcDbEntity
  8
0
100
AcDbLine
 62
4
  6
CONTINUOUS
 10
10.7676430309
 20
10.8357601806
 11
10.7966208074
 21
10.833750565
  0
LINE
  5
326
100
AcDbEntity
  8
0
100
AcDbLine
 62
4
  6
CONTINUOUS
 10
12.9289514453
 20
10.31342389
 11
12.8929025991
 21
10.3186033754
  0
LINE
  5
327
100
AcDbEntity
  8
0
100
AcDbLine
 62
4
  6
CONTINUOUS
 10
10.9345163032
 20
10.6446616796
 11
10.8500986335
 21
10.6574061814
  0
LINE
  5
328
100
AcDbEntity
  8
0
100
AcDbLine
 62
4
  6
CONTINUOUS
 10
11.1389316286
 20
10.5523974474
 11
11.0318943105
 21
10.5690073314
  0
LINE
  5
329
100
AcDbEntity
  8
0
100
AcDbLine
 62
4
  6
CONTINUOUS
 10
10.8963144432
 20
10.6220472295
 11
10.8345695036
 21
10.6424061929
  0
LINE
  5
32A
100
AcDbEntity
  8
0
100
AcDbLine
 62
4
  6
CONTINUOUS
 10
12.8929025991
 20
10.3186033754
 11
12.8723209495
 21
10.3253896967
  0
LINE
  5
32B
100
AcDbEntity
  8
0
100
AcDbLine
 62
4
  6
CONTINUOUS
 10
10.9948495532
 20
10.6772248415
 11
10.9827277152
 21
10.6826589023
  0
LINE
  5
32C
100
AcDbEntity
  8
0
100
AcDbLine
 62
4
  6
CONTINUOUS
 10
11.1394093796
 20
10.6557160634
 11
11.1272875433
 21
10.6611501241
  0
LINE
  5
32D
100
AcDbEntity
  8
0
100
AcDbLine
 62
4
  6
CONTINUOUS
 10
11.1652912529
 20
10.6807160347
 11
11.1531694166
 21
10.6861500954
  0
LINE
  5
32E
100
AcDbEntity
  8
0
100
AcDbLine
 62
4
  6
CONTINUOUS
 10
11.2636140302
 20
10.6899742643
 11
11.2757358682
 21
10.6845402035
  0
LINE
  5
32F
100
AcDbEntity
  8
0
100
AcDbLine
 62
4
  6
CONTINUOUS
 10
11.2880169444
 20
10.7135456707
 11
11.3001387824
 21
10.7081116099
  0
LINE
  5
330
100
AcDbEntity
  8
0
100
AcDbLine
 62
4
  6
CONTINUOUS
 10
10.6316309848
 20
11.2610494059
 11
10.6239283529
 21
11.2669425642
  0
LINE
  5
331
100
AcDbEntity
  8
0
100
AcDbLine
 62
4
  6
CONTINUOUS
 10
10.6986761665
 20
11.2724767437
 11
10.7140814349
 21
11.2606904267
  0
LINE
  5
332
100
AcDbEntity
  8
0
100
AcDbLine
 62
4
  6
CONTINUOUS
 10
14.6334270627
 20
7.0452137788
 11
14.6282506862
 21
7.0530927946
  0
LINE
  5
333
100
AcDbEntity
  8
0
100
AcDbLine
 62
4
  6
CONTINUOUS
 10
14.6386034392
 20
7.2047619127
 11
14.6437798157
 21
7.1968829004
  0
LINE
  5
334
100
AcDbEntity
  8
0
100
AcDbLine
 62
4
  6
CONTINUOUS
 10
7.8778892727
 20
10.2644722858
 11
7.8598338843
 21
10.2603654522
  0
LINE
  5
335
100
AcDbEntity
  8
0
100
AcDbLine
 62
4
  6
CONTINUOUS
 10
7.7929125718
 20
10.275724419
 11
7.8109679567
 21
10.2798312528
  0
LINE
  5
336
100
AcDbEntity
  8
0
100
AcDbLine
 62
4
  6
CONTINUOUS
 10
7.7285175113
 20
10.2801902316
 11
7.7465728962
 21
10.2842970654
  0
LINE
  5
337
100
AcDbEntity
  8
0
100
AcDbLine
 62
4
  6
CONTINUOUS
 10
10.7346630798
 20
11.2539041058
 11
10.7707119261
 21
11.2487246203
  0
LINE
  5
338
100
AcDbEntity
  8
0
100
AcDbLine
 62
4
  6
CONTINUOUS
 10
13.0063493731
 20
10.3348512204
 11
13.0166401967
 21
10.3314580599
  0
LINE
  5
339
100
AcDbEntity
  8
0
100
AcDbLine
 62
4
  6
CONTINUOUS
 10
10.6419218142
 20
11.2576562449
 11
10.6316309848
 21
11.2610494059
  0
LINE
  5
33A
100
AcDbEntity
  8
0
100
AcDbLine
 62
4
  6
CONTINUOUS
 10
10.7140814349
 20
11.2606904267
 11
10.7346630798
 21
11.2539041058
  0
LINE
  5
33B
100
AcDbEntity
  8
0
100
AcDbLine
 62
4
  6
CONTINUOUS
 10
10.6883853371
 20
11.2758699046
 11
10.6986761665
 21
11.2724767437
  0
LINE
  5
33C
100
AcDbEntity
  8
0
100
AcDbLine
 62
4
  6
CONTINUOUS
 10
12.8723209495
 20
10.3253896967
 11
12.8646183176
 21
10.331282855
  0
LINE
  5
33D
100
AcDbEntity
  8
0
100
AcDbLine
 62
4
  6
CONTINUOUS
 10
13.0166401967
 20
10.3314580599
 11
13.024342832
 21
10.3255649013
  0
LINE
  5
33E
100
AcDbEntity
  8
0
100
AcDbLine
 62
4
  6
CONTINUOUS
 10
14.7602482873
 20
7.3222618201
 11
14.7654246638
 21
7.3143828077
  0
LINE
  5
33F
100
AcDbEntity
  8
0
100
AcDbLine
 62
7
  6
CONTINUOUS
 10
13.7974422151
 20
9.7923216345
 11
13.7974422151
 21
5.4456551587
  0
LINE
  5
340
100
AcDbEntity
  8
0
100
AcDbLine
 62
4
  6
CONTINUOUS
 10
10.6291047294
 20
11.2719425603
 11
10.6471601144
 21
11.2760493941
  0
LINE
  5
341
100
AcDbEntity
  8
0
100
AcDbLine
 62
4
  6
CONTINUOUS
 10
10.6471601144
 20
11.2760493941
 11
10.6626273203
 21
11.2776562292
  0
LINE
  5
342
100
AcDbEntity
  8
0
100
AcDbLine
 62
4
  6
CONTINUOUS
 10
10.6626273203
 20
11.2776562292
 11
10.6883853371
 21
11.2758699046
  0
LINE
  5
343
100
AcDbEntity
  8
0
100
AcDbLine
 62
7
  6
CONTINUOUS
 10
7.4688233247
 20
11.5543448413
 11
15.0754896574
 21
11.0268207394
  0
LINE
  5
344
100
AcDbEntity
  8
0
100
AcDbLine
 62
7
  6
CONTINUOUS
 10
14.5693417421
 20
9.1238264519
 11
14.4560025644
 21
8.2817125965
  0
LINE
  5
345
100
AcDbEntity
  8
0
100
AcDbLine
 62
4
  6
CONTINUOUS
 10
14.6334270627
 20
7.1997619167
 11
14.6386034392
 21
7.2047619127
  0
LINE
  5
346
100
AcDbEntity
  8
0
100
AcDbLine
 62
4
  6
CONTINUOUS
 10
14.7498955342
 20
7.312261828
 11
14.7602482873
 21
7.3222618201
  0
LINE
  5
347
100
AcDbEntity
  8
0
100
AcDbLine
 62
4
  6
CONTINUOUS
 10
14.6282506862
 20
7.0530927946
 11
14.6230743096
 21
7.0738508211
  0
LINE
  5
348
100
AcDbEntity
  8
0
100
AcDbLine
 62
4
  6
CONTINUOUS
 10
14.6437798157
 20
7.1968829004
 11
14.646368004
 21
7.1865038808
  0
LINE
  5
349
100
AcDbEntity
  8
0
100
AcDbLine
 62
4
  6
CONTINUOUS
 10
14.7654246638
 20
7.3143828077
 11
14.7706010403
 21
7.2936247777
  0
LINE
  5
34A
100
AcDbEntity
  8
0
100
AcDbLine
 62
7
  6
CONTINUOUS
 10
14.4560025644
 20
8.2295295639
 11
14.5693417421
 21
7.6063701992
  0
LINE
  5
34B
100
AcDbEntity
  8
0
100
AcDbLine
 62
4
  6
CONTINUOUS
 10
14.66707351
 20
7.2322618911
 11
14.6877790161
 21
7.0977137374
  0
LINE
  5
34C
100
AcDbEntity
  8
0
100
AcDbLine
 62
4
  6
CONTINUOUS
 10
14.6230743096
 20
7.0738508211
 11
14.6204861214
 21
7.1099878576
  0
LINE
  5
34D
100
AcDbEntity
  8
0
100
AcDbLine
 62
4
  6
CONTINUOUS
 10
14.7706010403
 20
7.2936247777
 11
14.7731892286
 21
7.2574877413
  0
LINE
  5
34E
100
AcDbEntity
  8
0
100
AcDbLine
 62
4
  6
CONTINUOUS
 10
14.7188372752
 20
7.2822618516
 11
14.7188372752
 21
7.1277137137
  0
LINE
  5
34F
100
AcDbEntity
  8
0
100
AcDbLine
 62
4
  6
CONTINUOUS
 10
14.7498955342
 20
7.1577136901
 11
14.7498955342
 21
7.312261828
  0
LINE
  5
350
100
AcDbEntity
  8
0
100
AcDbLine
 62
4
  6
CONTINUOUS
 10
14.6204861214
 20
7.1099878576
 11
14.6230743096
 21
7.1511248901
  0
LINE
  5
351
100
AcDbEntity
  8
0
100
AcDbLine
 62
4
  6
CONTINUOUS
 10
14.7731892286
 20
7.2574877413
 11
14.7706010403
 21
7.2163507088
  0
LINE
  5
352
100
AcDbEntity
  8
0
100
AcDbLine
 62
4
  6
CONTINUOUS
 10
14.66707351
 20
7.0777137531
 11
14.6877790161
 21
7.2522618753
  0
LINE
  5
353
100
AcDbEntity
  8
0
100
AcDbLine
 62
4
  6
CONTINUOUS
 10
14.6230743096
 20
7.1511248901
 11
14.6282506862
 21
7.1818829122
  0
LINE
  5
354
100
AcDbEntity
  8
0
100
AcDbLine
 62
4
  6
CONTINUOUS
 10
14.646368004
 20
7.0834717927
 11
14.6437798157
 21
7.0680927828
  0
LINE
  5
355
100
AcDbEntity
  8
0
100
AcDbLine
 62
7
  6
CONTINUOUS
 10
14.6865174004
 20
7.5638211469
 11
14.6983415328
 21
7.5838687834
  0
LINE
  5
356
100
AcDbEntity
  8
0
100
AcDbLine
 62
4
  6
CONTINUOUS
 10
14.7602482873
 20
7.1677136822
 11
14.7498955342
 21
7.1577136901
  0
LINE
  5
357
100
AcDbEntity
  8
0
100
AcDbLine
 62
4
  6
CONTINUOUS
 10
14.6386034392
 20
7.0502137748
 11
14.6334270627
 21
7.0452137788
  0
LINE
  5
358
100
AcDbEntity
  8
0
100
AcDbLine
 62
7
  6
CONTINUOUS
 10
15.0754896574
 20
11.0268207394
 11
15.0754896574
 21
9.3620274457
  0
LINE
  5
359
100
AcDbEntity
  8
0
100
AcDbLine
 62
7
  6
CONTINUOUS
 10
15.0754896574
 20
7.5577134721
 11
15.0754896574
 21
6.6801542636
  0
LINE
  5
35A
100
AcDbEntity
  8
0
100
AcDbLine
 62
4
  6
CONTINUOUS
 10
14.7706010403
 20
7.2163507088
 11
14.7654246638
 21
7.1855926901
  0
LINE
  5
35B
100
AcDbEntity
  8
0
100
AcDbLine
 62
4
  6
CONTINUOUS
 10
14.6282506862
 20
7.1818829122
 11
14.6334270627
 21
7.1997619167
  0
LINE
  5
35C
100
AcDbEntity
  8
0
100
AcDbLine
 62
4
  6
CONTINUOUS
 10
14.6437798157
 20
7.0680927828
 11
14.6386034392
 21
7.0502137748
  0
LINE
  5
35D
100
AcDbEntity
  8
0
100
AcDbLine
 62
4
  6
CONTINUOUS
 10
14.7654246638
 20
7.1855926901
 11
14.7602482873
 21
7.1677136822
  0
LINE
  5
35E
100
AcDbEntity
  8
0
100
AcDbLine
 62
7
  6
CONTINUOUS
 10
13.7974422151
 20
5.4456551587
 11
15.0754896574
 21
6.6801542636
  0
LINE
  5
35F
100
AcDbEntity
  8
0
100
AcDbLine
 62
7
  6
CONTINUOUS
 10
14.8139285731
 20
9.4010344113
 11
14.8228722072
 21
9.3795465253
  0
LINE
  5
360
100
AcDbEntity
  8
0
100
AcDbLine
 62
7
  6
CONTINUOUS
 10
15.6293307469
 20
7.6783381845
 11
15.6404290741
 21
7.6971552294
  0
LINE
  5
361
100
AcDbEntity
  8
0
100
AcDbLine
 62
7
  6
CONTINUOUS
 10
15.7220503992
 20
9.1811569428
 11
15.7403035922
 21
9.1373020038
  0
ARC
  5
362
100
AcDbEntity
  8
0
100
AcDbCircle
 62
7
  6
CONTINUOUS
 10
3.933155519
 20
8.6820660311
 40
3.8005889826
100
AcDbArc
 50
351.07832252
 51
353.6399068164
  0
ARC
  5
363
100
AcDbEntity
  8
0
100
AcDbCircle
 62
7
  6
CONTINUOUS
 10
18.6668380775
 20
8.1971362953
 40
3.3700611371
100
AcDbArc
 50
179.5535163737
 51
179.998793708
  0
ARC
  5
364
100
AcDbEntity
  8
0
100
AcDbCircle
 62
7
  6
CONTINUOUS
 10
17.8139333807
 20
8.255498284
 40
3.3580331382
100
AcDbArc
 50
179.5527189095
 51
179.9995911722
  0
ARC
  5
365
100
AcDbEntity
  8
0
100
AcDbCircle
 62
7
  6
CONTINUOUS
 10
18.591807004
 20
8.1971817976
 40
3.2950300629
100
AcDbArc
 50
179.9995574573
 51
180.4515370429
  0
ARC
  5
366
100
AcDbEntity
  8
0
100
AcDbCircle
 62
7
  6
CONTINUOUS
 10
17.750930305
 20
8.2554967947
 40
3.2950300625
100
AcDbArc
 50
179.9995574573
 51
180.4515370429
  0
ARC
  5
367
100
AcDbEntity
  8
0
100
AcDbCircle
 62
7
  6
CONTINUOUS
 10
15.9857427207
 20
8.6907773631
 40
1.4811222925
100
AcDbArc
 50
161.4645031014
 51
162.999561535
  0
ARC
  5
368
100
AcDbEntity
  8
0
100
AcDbCircle
 62
7
  6
CONTINUOUS
 10
16.7911947601
 20
8.6438141373
 40
1.4439266679
100
AcDbArc
 50
161.4447302808
 51
163.0193343556
  0
ARC
  5
369
100
AcDbEntity
  8
0
100
AcDbCircle
 62
7
  6
CONTINUOUS
 10
12.6166782305
 20
8.3961919625
 40
1.0501512322
100
AcDbArc
 50
165.6666504641
 51
168.6738261495
  0
ARC
  5
36A
100
AcDbEntity
  8
0
100
AcDbCircle
 62
7
  6
CONTINUOUS
 10
12.6228894726
 20
8.4592769978
 40
0.9317573988
100
AcDbArc
 50
165.5669768473
 51
179.9892946808
  0
ARC
  5
36B
100
AcDbEntity
  8
0
100
AcDbCircle
 62
7
  6
CONTINUOUS
 10
7.860008661
 20
7.99929904
 40
0.6532110459
100
AcDbArc
 50
310.0713070907
 51
312.1101270263
  0
ARC
  5
36C
100
AcDbEntity
  8
0
100
AcDbCircle
 62
7
  6
CONTINUOUS
 10
7.7254864318
 20
8.1385634053
 40
0.6531637716
100
AcDbArc
 50
135.7837146041
 51
137.9437055195
  0
ARC
  5
36D
100
AcDbEntity
  8
0
100
AcDbCircle
 62
7
  6
CONTINUOUS
 10
11.5154967492
 20
8.1722075267
 40
0.4532604741
100
AcDbArc
 50
329.3473864332
 51
332.0317554901
  0
ARC
  5
36E
100
AcDbEntity
  8
0
100
AcDbCircle
 62
7
  6
CONTINUOUS
 10
11.5375868084
 20
8.1655340961
 40
0.4180562014
100
AcDbArc
 50
328.922332015
 51
330.5173806641
  0
ARC
  5
36F
100
AcDbEntity
  8
0
100
AcDbCircle
 62
7
  6
CONTINUOUS
 10
11.949235069
 20
8.5874732147
 40
0.3900649532
100
AcDbArc
 50
340.7032526055
 51
342.3989313872
  0
ARC
  5
370
100
AcDbEntity
  8
0
100
AcDbCircle
 62
7
  6
CONTINUOUS
 10
14.8452656099
 20
7.7171570353
 40
0.3801453851
100
AcDbArc
 50
205.0264737198
 51
208.3760928234
  0
ARC
  5
371
100
AcDbEntity
  8
0
100
AcDbCircle
 62
7
  6
CONTINUOUS
 10
14.9497509651
 20
9.2274315335
 40
0.3798465142
100
AcDbArc
 50
143.7141442355
 51
146.9885143563
  0
ARC
  5
372
100
AcDbEntity
  8
0
100
AcDbCircle
 62
7
  6
CONTINUOUS
 10
11.9950325485
 20
8.5716484192
 40
0.3416109721
100
AcDbArc
 50
339.8284520029
 51
340.6699566451
  0
ARC
  5
373
100
AcDbEntity
  8
0
100
AcDbCircle
 62
7
  6
CONTINUOUS
 10
7.4192110091
 20
9.7392378111
 40
0.2504805691
100
AcDbArc
 50
213.3354691031
 51
234.6437034449
  0
ARC
  5
374
100
AcDbEntity
  8
0
100
AcDbCircle
 62
7
  6
CONTINUOUS
 10
7.4192110091
 20
7.0829416314
 40
0.2504805691
100
AcDbArc
 50
213.3354691031
 51
234.6437034448
  0
ARC
  5
375
100
AcDbEntity
  8
0
100
AcDbCircle
 62
7
  6
CONTINUOUS
 10
12.4424566334
 20
8.4604233702
 40
0.1458217784
100
AcDbArc
 50
180.0361650536
 51
198.7280247347
  0
SPLINE
  5
376
100
AcDbEntity
  8
0
100
AcDbSpline
 62
7
  6
CONTINUOUS
 70
0
 71
3
 72
22
 73
18
 74
0
 42
0.0000001
 43
0.0000001
 44
0.0000000001
 40
0.0
 40
0.0
 40
0.0
 40
0.0
 40
0.1248267165
 40
0.1872860216
 40
0.2497221771
 40
0.3121574679
 40
0.3746139222
 40
0.4370957829
 40
0.4995987408
 40
0.562121125
 40
0.624659388
 40
0.6872095554
 40
0.7497689745
 40
0.8123309883
 40
0.8748910187
 40
0.9374490845
 40
1.0
 40
1.0
 40
1.0
 40
1.0
 10
12.2966347243
 20
8.4603313275
 30
0.0
 10
12.2966347243
 20
8.4675483235
 30
0.0
 10
12.2974523749
 20
8.4783995783
 30
0.0
 10
12.3001510511
 20
8.4925924287
 30
0.0
 10
12.3029734579
 20
8.5030605014
 30
0.0
 10
12.3065743444
 20
8.5132855702
 30
0.0
 10
12.3109376403
 20
8.523212524
 30
0.0
 10
12.3160367315
 20
8.532786647
 30
0.0
 10
12.3218442925
 20
8.5419530191
 30
0.0
 10
12.3283298304
 20
8.5506568974
 30
0.0
 10
12.335452812
 20
8.5588509103
 30
0.0
 10
12.3431755459
 20
8.5664854161
 30
0.0
 10
12.3514514226
 20
8.5735184182
 30
0.0
 10
12.360231138
 20
8.5799123252
 30
0.0
 10
12.3694659679
 20
8.5856292222
 30
0.0
 10
12.3790981655
 20
8.5906446636
 30
0.0
 10
12.3857504713
 20
8.5935047631
 30
0.0
 10
12.3891231554
 20
8.5948100292
 30
0.0
  0
SPLINE
  5
377
100
AcDbEntity
  8
0
100
AcDbSpline
 62
7
  6
CONTINUOUS
 70
0
 71
3
 72
23
 73
19
 74
0
 42
0.0000001
 43
0.0000001
 44
0.0000000001
 40
0.0
 40
0.0
 40
0.0
 40
0.0
 40
0.077887548
 40
0.154543893
 40
0.2297412557
 40
0.3032906193
 40
0.3750185305
 40
0.4447516711
 40
0.5123181952
 40
0.5775570953
 40
0.640317502
 40
0.7004581263
 40
0.7578492766
 40
0.8123725124
 40
0.8639261342
 40
0.9124222333
 40
0.9577954785
 40
1.0
 40
1.0
 40
1.0
 40
1.0
 10
15.8092241176
 20
8.6252206083
 30
0.0
 10
15.8092241176
 20
8.6387055045
 30
0.0
 10
15.8090378937
 20
8.6654625454
 30
0.0
 10
15.8081886962
 20
8.7052306069
 30
0.0
 10
15.8067725889
 20
8.7442311174
 30
0.0
 10
15.8047943322
 20
8.7823528406
 30
0.0
 10
15.8022589647
 20
8.8194935149
 30
0.0
 10
15.7991741485
 20
8.8555532409
 30
0.0
 10
15.795547908
 20
8.8904334128
 30
0.0
 10
15.7913904792
 20
8.9240384002
 30
0.0
 10
15.786713528
 20
8.9562767081
 30
0.0
 10
15.7815297212
 20
8.9870607388
 30
0.0
 10
15.775854035
 20
9.0163068487
 30
0.0
 10
15.7697013142
 20
9.043935681
 30
0.0
 10
15.7630897877
 20
9.0698725265
 30
0.0
 10
15.7560362288
 20
9.0940477584
 30
0.0
 10
15.7485618645
 20
9.1163960532
 30
0.0
 10
15.7431123739
 20
9.1305531432
 30
0.0
 10
15.740304604
 20
9.1372991451
 30
0.0
  0
SPLINE
  5
378
100
AcDbEntity
  8
0
100
AcDbSpline
 62
7
  6
CONTINUOUS
 70
0
 71
3
 72
9
 73
5
 74
0
 42
0.0000001
 43
0.0000001
 44
0.0000000001
 40
0.0
 40
0.0
 40
0.0
 40
0.0
 40
0.5137008699
 40
1.0
 40
1.0
 40
1.0
 40
1.0
 10
15.6611150045
 20
9.3078589399
 30
0.0
 10
15.6591848683
 20
9.3104394751
 30
0.0
 10
15.6552947944
 20
9.315365479
 30
0.0
 10
15.6511144989
 20
9.3200493997
 30
0.0
 10
15.6490059004
 20
9.3222539591
 30
0.0
  0
SPLINE
  5
379
100
AcDbEntity
  8
0
100
AcDbSpline
 62
7
  6
CONTINUOUS
 70
0
 71
3
 72
21
 73
17
 74
0
 42
0.0000001
 43
0.0000001
 44
0.0000000001
 40
0.0
 40
0.0
 40
0.0
 40
0.0
 40
0.1581869057
 40
0.2342974008
 40
0.3082392483
 40
0.3798849882
 40
0.4491168141
 40
0.5158285755
 40
0.5799364107
 40
0.6413821077
 40
0.7001400376
 40
0.7562247425
 40
0.8096897679
 40
0.9091706631
 40
0.9555655171
 40
1.0
 40
1.0
 40
1.0
 40
1.0
 10
15.4223275449
 20
7.5336601829
 30
0.0
 10
15.4347261847
 20
7.5391476339
 30
0.0
 10
15.4529833595
 20
7.5475234972
 30
0.0
 10
15.4766981706
 20
7.5591724641
 30
0.0
 10
15.4935872301
 20
7.5678849163
 30
0.0
 10
15.5097616038
 20
7.5766874431
 30
0.0
 10
15.5251752511
 20
7.5855806426
 30
0.0
 10
15.5397830899
 20
7.5945650257
 30
0.0
 10
15.5535429628
 20
7.6036394987
 30
0.0
 10
15.5664169978
 20
7.6128021191
 30
0.0
 10
15.5783717838
 20
7.6220503301
 30
0.0
 10
15.5893830193
 20
7.6313801652
 30
0.0
 10
15.6024649196
 20
7.6436283741
 30
0.0
 10
15.6139982445
 20
7.6563016143
 30
0.0
 10
15.6237325518
 20
7.669403519
 30
0.0
 10
15.6279345848
 20
7.6759669912
 30
0.0
 10
15.6298674197
 20
7.6792487193
 30
0.0
  0
SPLINE
  5
37A
100
AcDbEntity
  8
0
100
AcDbSpline
 62
7
  6
CONTINUOUS
 70
0
 71
3
 72
37
 73
33
 74
0
 42
0.0000001
 43
0.0000001
 44
0.0000000001
 40
0.0
 40
0.0
 40
0.0
 40
0.0
 40
0.0031766733
 40
0.0042245321
 40
0.0060301477
 40
0.0085991083
 40
0.0119374281
 40
0.0160515438
 40
0.0209483077
 40
0.0266342787
 40
0.0331061793
 40
0.0483657337
 40
0.0666491579
 40
0.0878801611
 40
0.1119084459
 40
0.1385446506
 40
0.1676088797
 40
0.1989012586
 40
0.2322029494
 40
0.2673043308
 40
0.3040101653
 40
0.3421405471
 40
0.3815230394
 40
0.4219935518
 40
0.4634121926
 40
0.5486247763
 40
0.592221466
 40
0.6363451685
 40
0.7258430871
 40
0.816536119
 40
0.9079954482
 40
1.0
 40
1.0
 40
1.0
 40
1.0
 10
12.3129697374
 20
8.4606536366
 30
0.0
 10
12.3129199202
 20
8.4605669875
 30
0.0
 10
12.3127533726
 20
8.4602899524
 30
0.0
 10
12.3128929372
 20
8.4605108167
 30
0.0
 10
12.3129752832
 20
8.4606341549
 30
0.0
 10
12.3131166158
 20
8.4608437288
 30
0.0
 10
12.3132947856
 20
8.461099026
 30
0.0
 10
12.3135218358
 20
8.4614161455
 30
0.0
 10
12.3137958354
 20
8.4617880244
 30
0.0
 10
12.3141198281
 20
8.4622160014
 30
0.0
 10
12.3146497811
 20
8.4628966108
 30
0.0
 10
12.3154453717
 20
8.4638726899
 30
0.0
 10
12.3165735675
 20
8.4651757811
 30
0.0
 10
12.3179287114
 20
8.4666461671
 30
0.0
 10
12.3195140803
 20
8.4682602836
 30
0.0
 10
12.3213300549
 20
8.4699915867
 30
0.0
 10
12.3233755834
 20
8.4718110834
 30
0.0
 10
12.3256452763
 20
8.4736914524
 30
0.0
 10
12.3281305243
 20
8.475606402
 30
0.0
 10
12.3308227967
 20
8.4775282776
 30
0.0
 10
12.3337126484
 20
8.4794306997
 30
0.0
 10
12.3367867511
 20
8.4812936856
 30
0.0
 10
12.3400324978
 20
8.483096981
 30
0.0
 10
12.343438019
 20
8.4848201599
 30
0.0
 10
12.3482197657
 20
8.4870082761
 30
0.0
 10
12.3532184831
 20
8.4889497298
 30
0.0
 10
12.3583985897
 20
8.4906183245
 30
0.0
 10
12.3637716549
 20
8.4921135103
 30
0.0
 10
12.3706795841
 20
8.4935984072
 30
0.0
 10
12.3791612906
 20
8.4947249304
 30
0.0
 10
12.3877847634
 20
8.495167821
 30
0.0
 10
12.3935621245
 20
8.4950012876
 30
0.0
 10
12.3964499687
 20
8.4948010149
 30
0.0
  0
SPLINE
  5
37B
100
AcDbEntity
  8
0
100
AcDbSpline
 62
7
  6
CONTINUOUS
 70
0
 71
3
 72
9
 73
5
 74
0
 42
0.0000001
 43
0.0000001
 44
0.0000000001
 40
0.0
 40
0.0
 40
0.0
 40
0.0
 40
0.4870302178
 40
1.0
 40
1.0
 40
1.0
 40
1.0
 10
12.3197834584
 20
8.4503632383
 30
0.0
 10
12.3211109082
 20
8.4542238395
 30
0.0
 10
12.323711334
 20
8.4621940506
 30
0.0
 10
12.3260908446
 20
8.4702326323
 30
0.0
 10
12.3272608168
 20
8.4743702803
 30
0.0
  0
SPLINE
  5
37C
100
AcDbEntity
  8
0
100
AcDbSpline
 62
7
  6
CONTINUOUS
 70
0
 71
3
 72
9
 73
5
 74
0
 42
0.0000001
 43
0.0000001
 44
0.0000000001
 40
0.0
 40
0.0
 40
0.0
 40
0.0
 40
0.4954682768
 40
1.0
 40
1.0
 40
1.0
 40
1.0
 10
15.7221881738
 20
9.1808257237
 30
0.0
 10
15.7132373528
 20
9.2023230795
 30
0.0
 10
15.6938628038
 20
9.2451729161
 30
0.0
 10
15.6723789444
 20
9.2869927673
 30
0.0
 10
15.6611150045
 20
9.3078589399
 30
0.0
  0
SPLINE
  5
37D
100
AcDbEntity
  8
0
100
AcDbSpline
 62
7
  6
CONTINUOUS
 70
0
 71
3
 72
28
 73
24
 74
0
 42
0.0000001
 43
0.0000001
 44
0.0000000001
 40
0.0
 40
0.0
 40
0.0
 40
0.0
 40
0.0188529983
 40
0.0388813969
 40
0.0600730311
 40
0.082411071
 40
0.1058723771
 40
0.1304291914
 40
0.1560506674
 40
0.1827008701
 40
0.2103416943
 40
0.2389318129
 40
0.2987780357
 40
0.3618602847
 40
0.4277640086
 40
0.4960469277
 40
0.5662445243
 40
0.6378747072
 40
0.7104428967
 40
0.7834463883
 40
0.8563743541
 40
0.9287318806
 40
1.0
 40
1.0
 40
1.0
 40
1.0
 10
15.6404332072
 20
7.6971624504
 30
0.0
 10
15.6434697831
 20
7.7023110328
 30
0.0
 10
15.6494978929
 20
7.7130685834
 30
0.0
 10
15.6581750279
 20
7.7300275164
 30
0.0
 10
15.6667469372
 20
7.7482683981
 30
0.0
 10
15.6751966299
 20
7.7677579307
 30
0.0
 10
15.6835089991
 20
7.7884604398
 30
0.0
 10
15.6916688409
 20
7.8103378899
 30
0.0
 10
15.6996602069
 20
7.8333502468
 30
0.0
 10
15.7074691066
 20
7.8574549047
 30
0.0
 10
15.715080562
 20
7.8826075458
 30
0.0
 10
15.7250997739
 20
7.9180214957
 30
0.0
 10
15.7369837379
 20
7.9645768253
 30
0.0
 10
15.7500380884
 20
8.0230135831
 30
0.0
 10
15.7619963247
 20
8.0844113672
 30
0.0
 10
15.7727690491
 20
8.1483162699
 30
0.0
 10
15.7822757054
 20
8.2142561504
 30
0.0
 10
15.7904453483
 20
8.2817433993
 30
0.0
 10
15.7972169847
 20
8.3502790255
 30
0.0
 10
15.8025398837
 20
8.4193549235
 30
0.0
 10
15.806375603
 20
8.4884625725
 30
0.0
 10
15.8086944733
 20
8.5570869602
 30
0.0
 10
15.8092241176
 20
8.602625031
 30
0.0
 10
15.8092241176
 20
8.6252206083
 30
0.0
  0
SPLINE
  5
37E
100
AcDbEntity
  8
0
100
AcDbSpline
 62
7
  6
CONTINUOUS
 70
0
 71
3
 72
22
 73
18
 74
0
 42
0.0000001
 43
0.0000001
 44
0.0000000001
 40
0.0
 40
0.0
 40
0.0
 40
0.0
 40
0.0447977327
 40
0.090841003
 40
0.1384838718
 40
0.1880433577
 40
0.2397966045
 40
0.2939795103
 40
0.3507924
 40
0.4104043773
 40
0.4729551441
 40
0.5385554372
 40
0.6072945966
 40
0.6792445381
 40
0.75446048
 40
0.8329792576
 40
1.0
 40
1.0
 40
1.0
 40
1.0
 10
14.719979781
 20
9.5150798245
 30
0.0
 10
14.7221677872
 20
9.5144597264
 30
0.0
 10
14.7265443392
 20
9.5129793232
 30
0.0
 10
14.7329702748
 20
9.5101050257
 30
0.0
 10
14.7393274667
 20
9.5065556337
 30
0.0
 10
14.7456109904
 20
9.5023346742
 30
0.0
 10
14.7518173677
 20
9.4974457041
 30
0.0
 10
14.7579435212
 20
9.4918932098
 30
0.0
 10
14.7639862002
 20
9.4856812416
 30
0.0
 10
14.7699419264
 20
9.4788137493
 30
0.0
 10
14.7758070971
 20
9.4712950647
 30
0.0
 10
14.7815786688
 20
9.4631304648
 30
0.0
 10
14.7872532025
 20
9.4543252495
 30
0.0
 10
14.7928270523
 20
9.4448848713
 30
0.0
 10
14.7982966251
 20
9.4348151149
 30
0.0
 10
14.8055966835
 20
9.4202574769
 30
0.0
 10
14.810670447
 20
9.4088623732
 30
0.0
 10
14.8139285558
 20
9.401034452
 30
0.0
  0
SPLINE
  5
37F
100
AcDbEntity
  8
0
100
AcDbSpline
 62
7
  6
CONTINUOUS
 70
0
 71
3
 72
21
 73
17
 74
0
 42
0.0000001
 43
0.0000001
 44
0.0000000001
 40
0.0
 40
0.0
 40
0.0
 40
0.0
 40
0.0448192185
 40
0.090904822
 40
0.1881448455
 40
0.2399614159
 40
0.2942049783
 40
0.3510707698
 40
0.4107232064
 40
0.4732997823
 40
0.5389108282
 40
0.6076428405
 40
0.6795649902
 40
0.7547318808
 40
0.8331819621
 40
1.0
 40
1.0
 40
1.0
 40
1.0
 10
14.5782775009
 20
7.4639145958
 30
0.0
 10
14.5805202322
 20
7.4642438797
 30
0.0
 10
14.5850387921
 20
7.4651383406
 30
0.0
 10
14.5941702009
 20
7.4678527547
 30
0.0
 10
14.6032182113
 20
7.4719250957
 30
0.0
 10
14.6120779425
 20
7.4771523765
 30
0.0
 10
14.6188779083
 20
7.4818183225
 30
0.0
 10
14.6256849039
 20
7.4871414902
 30
0.0
 10
14.6324964884
 20
7.4931188229
 30
0.0
 10
14.6393081055
 20
7.4997466013
 30
0.0
 10
14.6461159088
 20
7.5070204705
 30
0.0
 10
14.6529159999
 20
7.514935425
 30
0.0
 10
14.6597041669
 20
7.5234864428
 30
0.0
 10
14.6664761261
 20
7.5326684547
 30
0.0
 10
14.6756666329
 20
7.5460193751
 30
0.0
 10
14.6822314555
 20
7.556554608
 30
0.0
 10
14.6865176864
 20
7.5638217208
 30
0.0
  0
SPLINE
  5
380
100
AcDbEntity
  8
0
100
AcDbSpline
 62
7
  6
CONTINUOUS
 70
0
 71
3
 72
29
 73
25
 74
0
 42
0.0000001
 43
0.0000001
 44
0.0000000001
 40
0.0
 40
0.0
 40
0.0
 40
0.0
 40
0.0656328573
 40
0.0987718664
 40
0.1321278542
 40
0.1993973535
 40
0.233276719
 40
0.2672351228
 40
0.3350791661
 40
0.4023189828
 40
0.4683534209
 40
0.5327383995
 40
0.5952644499
 40
0.6258404421
 40
0.6559722127
 40
0.7150027313
 40
0.7440075676
 40
0.7727288847
 40
0.8012214695
 40
0.8295483679
 40
0.8859519338
 40
0.9425433391
 40
0.9711288542
 40
1.0
 40
1.0
 40
1.0
 40
1.0
 10
12.2975067109
 20
8.4709148727
 30
0.0
 10
12.3019290228
 20
8.4660245499
 30
0.0
 10
12.3090905559
 20
8.4591029645
 30
0.0
 10
12.3194807355
 20
8.4508333319
 30
0.0
 10
12.3305075335
 20
8.443139957
 30
0.0
 10
12.3422868408
 20
8.4364422973
 30
0.0
 10
12.3546303405
 20
8.4307851259
 30
0.0
 10
12.367327079
 20
8.4258097263
 30
0.0
 10
12.3836287609
 20
8.4209275334
 30
0.0
 10
12.4035129623
 20
8.4171621551
 30
0.0
 10
12.4233257107
 20
8.4154235023
 30
0.0
 10
12.4427370713
 20
8.4156135757
 30
0.0
 10
12.4584953688
 20
8.417299976
 30
0.0
 10
12.4706765811
 20
8.4195348597
 30
0.0
 10
12.4823877019
 20
8.4222967928
 30
0.0
 10
12.4937246051
 20
8.4259048921
 30
0.0
 10
12.5045771215
 20
8.4303665612
 30
0.0
 10
12.5123964281
 20
8.434102973
 30
0.0
 10
12.5199265982
 20
8.4382539308
 30
0.0
 10
12.5295446483
 20
8.4443360792
 30
0.0
 10
12.5408210792
 20
8.4530286712
 30
0.0
 10
12.5508577257
 20
8.4631755071
 30
0.0
 10
12.5580104324
 20
8.4721356994
 30
0.0
 10
12.5612759726
 20
8.4769029797
 30
0.0
 10
12.5628248844
 20
8.4793550828
 30
0.0
  0
SPLINE
  5
381
100
AcDbEntity
  8
0
100
AcDbSpline
 62
7
  6
CONTINUOUS
 70
0
 71
3
 72
22
 73
18
 74
0
 42
0.0000001
 43
0.0000001
 44
0.0000000001
 40
0.0
 40
0.0
 40
0.0
 40
0.0
 40
0.1720187503
 40
0.2522117221
 40
0.3285633256
 40
0.401132197
 40
0.470004999
 40
0.5352931806
 40
0.5971375492
 40
0.6557163979
 40
0.7112569792
 40
0.764035038
 40
0.8143790649
 40
0.8626753317
 40
0.9093713201
 40
0.9549667647
 40
1.0
 40
1.0
 40
1.0
 40
1.0
 10
12.7482488598
 20
7.9349370663
 30
0.0
 10
12.7509664259
 20
7.928408119
 30
0.0
 10
12.7552153409
 20
7.9189395556
 30
0.0
 10
12.7613908698
 20
7.9069234744
 30
0.0
 10
12.7660145058
 20
7.8987141814
 30
0.0
 10
12.7707351455
 20
7.891102476
 30
0.0
 10
12.7755488809
 20
7.8840940081
 30
0.0
 10
12.7804520387
 20
7.8776943072
 30
0.0
 10
12.7854411837
 20
7.8719088014
 30
0.0
 10
12.7905133423
 20
7.8667428836
 30
0.0
 10
12.7956647519
 20
7.8622006621
 30
0.0
 10
12.8008920344
 20
7.858286204
 30
0.0
 10
12.8061918636
 20
7.8550039112
 30
0.0
 10
12.8115607898
 20
7.8523590375
 30
0.0
 10
12.8169943349
 20
7.850355647
 30
0.0
 10
12.8224857963
 20
7.8489969351
 30
0.0
 10
12.8261911731
 20
7.8485216694
 30
0.0
 10
12.8280381067
 20
7.8483934171
 30
0.0
  0
SPLINE
  5
382
100
AcDbEntity
  8
0
100
AcDbSpline
 62
7
  6
CONTINUOUS
 70
0
 71
3
 72
14
 73
10
 74
0
 42
0.0000001
 43
0.0000001
 44
0.0000000001
 40
0.0
 40
0.0
 40
0.0
 40
0.0
 40
0.1126722529
 40
0.2266359618
 40
0.3431396572
 40
0.4633458202
 40
0.718712453
 40
0.8558110076
 40
1.0
 40
1.0
 40
1.0
 40
1.0
 10
12.8911063741
 20
7.8440196177
 30
0.0
 10
12.8928766137
 20
7.8438969029
 30
0.0
 10
12.8964543191
 20
7.8438490142
 30
0.0
 10
12.9018430349
 20
7.8443737954
 30
0.0
 10
12.9072618206
 20
7.8454928384
 30
0.0
 10
12.9146654301
 20
7.8478194949
 30
0.0
 10
12.9219852517
 20
7.851340487
 30
0.0
 10
12.9291330904
 20
7.8558575859
 30
0.0
 10
12.9327046134
 20
7.8584863258
 30
0.0
 10
12.9344905392
 20
7.8598889027
 30
0.0
  0
SPLINE
  5
383
100
AcDbEntity
  8
0
100
AcDbSpline
 62
7
  6
CONTINUOUS
 70
0
 71
3
 72
50
 73
46
 74
0
 42
0.0000001
 43
0.0000001
 44
0.0000000001
 40
0.0
 40
0.0
 40
0.0
 40
0.0
 40
0.0061412354
 40
0.0122975772
 40
0.0186174623
 40
0.0252367044
 40
0.0322721654
 40
0.0398151286
 40
0.0479332455
 40
0.0566773451
 40
0.0660845236
 40
0.0761761379
 40
0.0869626949
 40
0.0984486364
 40
0.1106329472
 40
0.1235057743
 40
0.1370527223
 40
0.151257326
 40
0.1815527544
 40
0.2141962077
 40
0.2489593069
 40
0.2855866632
 40
0.3238122259
 40
0.3633655001
 40
0.4039746822
 40
0.4453791605
 40
0.4873193424
 40
0.5295507068
 40
0.5718285745
 40
0.6139135478
 40
0.6555638953
 40
0.6965263406
 40
0.7365378559
 40
0.7753115747
 40
0.8125370137
 40
0.8478781973
 40
0.8809692569
 40
0.9114308179
 40
0.9388741198
 40
0.9513540304
 40
0.9629535543
 40
0.9736377295
 40
0.9833812311
 40
0.992170151
 40
1.0
 40
1.0
 40
1.0
 40
1.0
 10
12.385858629
 20
7.9567650959
 30
0.0
 10
12.3856983875
 20
7.9574766616
 30
0.0
 10
12.3854950074
 20
7.9589312756
 30
0.0
 10
12.3855652901
 20
7.9611513527
 30
0.0
 10
12.3860098783
 20
7.9633852083
 30
0.0
 10
12.3868250345
 20
7.9656219811
 30
0.0
 10
12.3880065351
 20
7.9678530472
 30
0.0
 10
12.3895490922
 20
7.9700706111
 30
0.0
 10
12.391447783
 20
7.9722668544
 30
0.0
 10
12.3936983301
 20
7.9744331987
 30
0.0
 10
12.3962962104
 20
7.9765601488
 30
0.0
 10
12.3992349644
 20
7.9786387502
 30
0.0
 10
12.4025074169
 20
7.9806594585
 30
0.0
 10
12.4061060535
 20
7.982612214
 30
0.0
 10
12.4100225243
 20
7.9844865183
 30
0.0
 10
12.4142465247
 20
7.9862734544
 30
0.0
 10
12.4187670832
 20
7.9879638377
 30
0.0
 10
12.425316171
 20
7.9901224477
 30
0.0
 10
12.4341733284
 20
7.9924986369
 30
0.0
 10
12.445558189
 20
7.9947783457
 30
0.0
 10
12.4578018285
 20
7.9964886365
 30
0.0
 10
12.4707790089
 20
7.9975997181
 30
0.0
 10
12.4843634944
 20
7.9980824927
 30
0.0
 10
12.4984281677
 20
7.9979355506
 30
0.0
 10
12.5128497238
 20
7.9971567567
 30
0.0
 10
12.5275097776
 20
7.9957686164
 30
0.0
 10
12.5422961006
 20
7.9937912654
 30
0.0
 10
12.5571031392
 20
7.9912630144
 30
0.0
 10
12.5718303932
 20
7.9882204044
 30
0.0
 10
12.5863821134
 20
7.9847106385
 30
0.0
 10
12.6006641471
 20
7.9807817463
 30
0.0
 10
12.614582832
 20
7.97648717
 30
0.0
 10
12.6280417125
 20
7.9718836311
 30
0.0
 10
12.640939908
 20
7.967031862
 30
0.0
 10
12.6531701021
 20
7.9619973343
 30
0.0
 10
12.664617252
 20
7.9568502857
 30
0.0
 10
12.6751595909
 20
7.9516659345
 30
0.0
 10
12.6846689277
 20
7.9465244894
 30
0.0
 10
12.6918391599
 20
7.9422189159
 30
0.0
 10
12.6969428011
 20
7.9388411536
 30
0.0
 10
12.7003099259
 20
7.9364501588
 30
0.0
 10
12.7033255511
 20
7.9341299817
 30
0.0
 10
12.705977639
 20
7.9318899237
 30
0.0
 10
12.7082560575
 20
7.9297399078
 30
0.0
 10
12.7095974082
 20
7.9282885954
 30
0.0
 10
12.7101960389
 20
7.9275769572
 30
0.0
  0
SPLINE
  5
384
100
AcDbEntity
  8
0
100
AcDbSpline
 62
7
  6
CONTINUOUS
 70
0
 71
3
 72
9
 73
5
 74
0
 42
0.0000001
 43
0.0000001
 44
0.0000000001
 40
0.0
 40
0.0
 40
0.0
 40
0.0
 40
0.5137008699
 40
1.0
 40
1.0
 40
1.0
 40
1.0
 10
15.4102184407
 20
7.5480552021
 30
0.0
 10
15.4121485769
 20
7.5454746669
 30
0.0
 10
15.4160386509
 20
7.540548663
 30
0.0
 10
15.4202189464
 20
7.5358647424
 30
0.0
 10
15.4223275449
 20
7.5336601829
 30
0.0
  0
SPLINE
  5
385
100
AcDbEntity
  8
0
100
AcDbSpline
 62
7
  6
CONTINUOUS
 70
0
 71
3
 72
23
 73
19
 74
0
 42
0.0000001
 43
0.0000001
 44
0.0000000001
 40
0.0
 40
0.0
 40
0.0
 40
0.0
 40
0.0430157778
 40
0.086354693
 40
0.1305214035
 40
0.1761197174
 40
0.2238111798
 40
0.2742628933
 40
0.3280895723
 40
0.3857949322
 40
0.4477353844
 40
0.514108715
 40
0.5849549498
 40
0.6601783147
 40
0.7395814076
 40
0.8228946623
 40
0.9098102043
 40
1.0
 40
1.0
 40
1.0
 40
1.0
 10
15.6490059004
 20
9.3222539591
 30
0.0
 10
15.6491087674
 20
9.3174669059
 30
0.0
 10
15.6488663395
 20
9.3078396658
 30
0.0
 10
15.6470066645
 20
9.2934037644
 30
0.0
 10
15.643502318
 20
9.2789756206
 30
0.0
 10
15.6382107594
 20
9.2645837546
 30
0.0
 10
15.6310082978
 20
9.2502591906
 30
0.0
 10
15.6217982847
 20
9.2360332562
 30
0.0
 10
15.610514488
 20
9.221934813
 30
0.0
 10
15.5971282892
 20
9.2079868082
 30
0.0
 10
15.5816491952
 20
9.1942064473
 30
0.0
 10
15.5641228891
 20
9.1806079411
 30
0.0
 10
15.5446304729
 20
9.1672005288
 30
0.0
 10
15.5232821345
 20
9.1539885974
 30
0.0
 10
15.50020793
 20
9.1409738828
 30
0.0
 10
15.4755501145
 20
9.1281536917
 30
0.0
 10
15.4494558237
 20
9.1155221064
 30
0.0
 10
15.4315077856
 20
9.1073625043
 30
0.0
 10
15.4223275449
 20
9.1032994683
 30
0.0
  0
SPLINE
  5
386
100
AcDbEntity
  8
0
100
AcDbSpline
 62
7
  6
CONTINUOUS
 70
0
 71
3
 72
21
 73
17
 74
0
 42
0.0000001
 43
0.0000001
 44
0.0000000001
 40
0.0
 40
0.0
 40
0.0
 40
0.0
 40
0.1231060406
 40
0.1848237375
 40
0.2466645184
 40
0.3086395644
 40
0.3707590064
 40
0.4330312441
 40
0.495460691
 40
0.5580484578
 40
0.6207919038
 40
0.6836843127
 40
0.7467167836
 40
0.809878012
 40
0.8731552189
 40
1.0
 40
1.0
 40
1.0
 40
1.0
 10
15.4102184407
 20
9.0655114548
 30
0.0
 10
15.4150476456
 20
9.0305054221
 30
0.0
 10
15.4209922901
 20
8.9777502651
 30
0.0
 10
15.4257574234
 20
8.9070967011
 30
0.0
 10
15.4276149105
 20
8.8538611847
 30
0.0
 10
15.4276191728
 20
8.8004772054
 30
0.0
 10
15.4256564308
 20
8.7470040272
 30
0.0
 10
15.4216378802
 20
8.693514313
 30
0.0
 10
15.4155124526
 20
8.6400890358
 30
0.0
 10
15.4072715857
 20
8.5868121816
 30
0.0
 10
15.3969465539
 20
8.5337649325
 30
0.0
 10
15.3846094048
 20
8.4810191521
 30
0.0
 10
15.3703666996
 20
8.4286329162
 30
0.0
 10
15.3543459683
 20
8.3766481181
 30
0.0
 10
15.3307880518
 20
8.3078566688
 30
0.0
 10
15.3109140052
 20
8.2569947751
 30
0.0
 10
15.296879263
 20
8.2233975994
 30
0.0
  0
SPLINE
  5
387
100
AcDbEntity
  8
0
100
AcDbSpline
 62
7
  6
CONTINUOUS
 70
0
 71
3
 72
23
 73
19
 74
0
 42
0.0000001
 43
0.0000001
 44
0.0000000001
 40
0.0
 40
0.0
 40
0.0
 40
0.0
 40
0.0681699712
 40
0.1356231914
 40
0.2022981052
 40
0.2681450185
 40
0.3331245856
 40
0.3972161392
 40
0.460421847
 40
0.5227692631
 40
0.5843122542
 40
0.6451262748
 40
0.7053024714
 40
0.7649410449
 40
0.8241416455
 40
0.8829976249
 40
0.9415942517
 40
1.0
 40
1.0
 40
1.0
 40
1.0
 10
15.296879263
 20
8.1712145668
 30
0.0
 10
15.3038721122
 20
8.1582604848
 30
0.0
 10
15.3174576319
 20
8.1323101257
 30
0.0
 10
15.3365985148
 20
8.0930340225
 30
0.0
 10
15.354255993
 20
8.0536160177
 30
0.0
 10
15.3702814523
 20
8.0140807009
 30
0.0
 10
15.3845324632
 20
7.9744619565
 30
0.0
 10
15.3968809178
 20
7.9348045482
 30
0.0
 10
15.4072195857
 20
7.8951616958
 30
0.0
 10
15.4154749977
 20
7.8555939752
 30
0.0
 10
15.4216142856
 20
7.8161650955
 30
0.0
 10
15.425644668
 20
7.77693647
 30
0.0
 10
15.4276162865
 20
7.7379631781
 30
0.0
 10
15.4276176533
 20
7.6992897538
 30
0.0
 10
15.4257629911
 20
7.660947961
 30
0.0
 10
15.4221860623
 20
7.6229561067
 30
0.0
 10
15.4170311467
 20
7.5853216505
 30
0.0
 10
15.4126325463
 20
7.5604344786
 30
0.0
 10
15.4102184407
 20
7.5480552021
 30
0.0
  0
SPLINE
  5
388
100
AcDbEntity
  8
0
100
AcDbSpline
 62
7
  6
CONTINUOUS
 70
0
 71
3
 72
39
 73
35
 74
0
 42
0.0000001
 43
0.0000001
 44
0.0000000001
 40
0.0
 40
0.0
 40
0.0
 40
0.0
 40
0.0313985274
 40
0.0469473608
 40
0.0623827179
 40
0.0929229627
 40
0.1230738797
 40
0.1529000538
 40
0.182469612
 40
0.2118687114
 40
0.2411853661
 40
0.2705055434
 40
0.2999119534
 40
0.3294743795
 40
0.359257499
 40
0.3893117746
 40
0.419675421
 40
0.4503770304
 40
0.4814279363
 40
0.5445241825
 40
0.5765728982
 40
0.6088972196
 40
0.6414452279
 40
0.6741656926
 40
0.7069965553
 40
0.7398801403
 40
0.7727595208
 40
0.8055856534
 40
0.8383192453
 40
0.8709312616
 40
0.9034063852
 40
0.9357394778
 40
0.9679341919
 40
1.0
 40
1.0
 40
1.0
 40
1.0
 10
12.6172250898
 20
8.4323564668
 30
0.0
 10
12.6170371949
 20
8.4278626855
 30
0.0
 10
12.6164245891
 20
8.421150797
 30
0.0
 10
12.6149392747
 20
8.4123361436
 30
0.0
 10
12.613031192
 20
8.4037285684
 30
0.0
 10
12.609860009
 20
8.3932734463
 30
0.0
 10
12.6048354357
 20
8.3812962381
 30
0.0
 10
12.5986853339
 20
8.3700144112
 30
0.0
 10
12.591494603
 20
8.3594970328
 30
0.0
 10
12.583350576
 20
8.3497957605
 30
0.0
 10
12.5743408601
 20
8.3409452366
 30
0.0
 10
12.56454613
 20
8.3329722825
 30
0.0
 10
12.5540448956
 20
8.3258947755
 30
0.0
 10
12.5429094343
 20
8.3197280521
 30
0.0
 10
12.531209251
 20
8.3144858095
 30
0.0
 10
12.519011772
 20
8.3101804331
 30
0.0
 10
12.5063836929
 20
8.3068268371
 30
0.0
 10
12.4933919633
 20
8.304440382
 30
0.0
 10
12.4755938432
 20
8.3025593767
 30
0.0
 10
12.4574362374
 20
8.3027120669
 30
0.0
 10
12.4392950555
 20
8.3048937152
 30
0.0
 10
12.4256599074
 20
8.3075813874
 30
0.0
 10
12.4121739069
 20
8.3113138407
 30
0.0
 10
12.3989442556
 20
8.3160926059
 30
0.0
 10
12.3860800477
 20
8.3219013013
 30
0.0
 10
12.3736966533
 20
8.3287234148
 30
0.0
 10
12.3619031156
 20
8.3365209505
 30
0.0
 10
12.3508117278
 20
8.3452549463
 30
0.0
 10
12.3405224173
 20
8.3548658854
 30
0.0
 10
12.3311344403
 20
8.3652923888
 30
0.0
 10
12.3227313669
 20
8.3764566996
 30
0.0
 10
12.3153932064
 20
8.3882788216
 30
0.0
 10
12.3091834936
 20
8.4006642391
 30
0.0
 10
12.3058260178
 20
8.4092518726
 30
0.0
 10
12.3043545797
 20
8.4136031035
 30
0.0
  0
SPLINE
  5
389
100
AcDbEntity
  8
0
100
AcDbSpline
 62
7
  6
CONTINUOUS
 70
0
 71
3
 72
26
 73
22
 74
0
 42
0.0000001
 43
0.0000001
 44
0.0000000001
 40
0.0
 40
0.0
 40
0.0
 40
0.0
 40
0.0136790791
 40
0.0276131591
 40
0.0420419489
 40
0.0571802093
 40
0.0732119838
 40
0.0902862144
 40
0.1279831517
 40
0.1709711112
 40
0.2196021367
 40
0.2460900491
 40
0.2740335674
 40
0.3342582055
 40
0.4001808319
 40
0.4716341954
 40
0.548375341
 40
0.6301235041
 40
0.716542401
 40
0.8072586197
 40
1.0
 40
1.0
 40
1.0
 40
1.0
 10
12.3964499733
 20
8.4948010802
 30
0.0
 10
12.3960045358
 20
8.4948320295
 30
0.0
 10
12.3951085845
 20
8.4949591799
 30
0.0
 10
12.3937863052
 20
8.4953413574
 30
0.0
 10
12.392482701
 20
8.4959140666
 30
0.0
 10
12.3912000038
 20
8.4966756001
 30
0.0
 10
12.3899395602
 20
8.4976243289
 30
0.0
 10
12.3882336891
 20
8.4991880583
 30
0.0
 10
12.3861726815
 20
8.5016418474
 30
0.0
 10
12.3838897387
 20
8.5052016932
 30
0.0
 10
12.3821375132
 20
8.5086417944
 30
0.0
 10
12.3807847951
 20
8.5117225115
 30
0.0
 10
12.3794034295
 20
8.5152016644
 30
0.0
 10
12.3777777151
 20
8.5199648474
 30
0.0
 10
12.3760164869
 20
8.5261722201
 30
0.0
 10
12.3744092785
 20
8.5329761694
 30
0.0
 10
12.3729632219
 20
8.5403429249
 30
0.0
 10
12.3716867922
 20
8.5482359651
 30
0.0
 10
12.3705859363
 20
8.5566155733
 30
0.0
 10
12.3693349493
 20
8.5686251095
 30
0.0
 10
12.3687200221
 20
8.5778615884
 30
0.0
 10
12.3684298069
 20
8.5841463389
 30
0.0
  0
SPLINE
  5
38A
100
AcDbEntity
  8
0
100
AcDbSpline
 62
7
  6
CONTINUOUS
 70
0
 71
3
 72
21
 73
17
 74
0
 42
0.0000001
 43
0.0000001
 44
0.0000000001
 40
0.0
 40
0.0
 40
0.0
 40
0.0
 40
0.0723519082
 40
0.141165103
 40
0.2693778227
 40
0.3297134318
 40
0.3881613266
 40
0.4452932943
 40
0.5017244346
 40
0.5580937133
 40
0.615040981
 40
0.673185954
 40
0.7331085521
 40
0.8601998366
 40
0.92835026
 40
1.0
 40
1.0
 40
1.0
 40
1.0
 10
14.5814508463
 20
7.5919751801
 30
0.0
 10
14.5833378223
 20
7.590002329
 30
0.0
 10
14.587140801
 20
7.5862651606
 30
0.0
 10
14.5948755752
 20
7.5796642792
 30
0.0
 10
14.6029769779
 20
7.5742076139
 30
0.0
 10
14.6113782902
 20
7.5701439922
 30
0.0
 10
14.6176231412
 20
7.5678593267
 30
0.0
 10
14.6239315756
 20
7.5662812102
 30
0.0
 10
14.6302976006
 20
7.5654127839
 30
0.0
 10
14.6367137026
 20
7.5652551229
 30
0.0
 10
14.6431723132
 20
7.5658077054
 30
0.0
 10
14.6496667573
 20
7.5670695831
 30
0.0
 10
14.658535271
 20
7.5697452796
 30
0.0
 10
14.6673102917
 20
7.5738467245
 30
0.0
 10
14.6758815441
 20
7.5791417877
 30
0.0
 10
14.6801638158
 20
7.5822314793
 30
0.0
 10
14.68230523
 20
7.583881694
 30
0.0
  0
SPLINE
  5
38B
100
AcDbEntity
  8
0
100
AcDbSpline
 62
7
  6
CONTINUOUS
 70
0
 71
3
 72
37
 73
33
 74
0
 42
0.0000001
 43
0.0000001
 44
0.0000000001
 40
0.0
 40
0.0
 40
0.0
 40
0.0
 40
0.0242958757
 40
0.0472720491
 40
0.06906547
 40
0.0898420657
 40
0.1098025191
 40
0.1291772502
 40
0.1482195591
 40
0.1671969267
 40
0.1863790917
 40
0.2060268442
 40
0.2263816435
 40
0.2476578252
 40
0.2700406061
 40
0.2936856295
 40
0.3187193724
 40
0.3452443247
 40
0.3733422379
 40
0.4030747875
 40
0.4344887667
 40
0.4676191269
 40
0.5024882474
 40
0.5391092416
 40
0.5774886204
 40
0.6176242977
 40
0.6595071409
 40
0.7031242385
 40
0.748458767
 40
0.7954901579
 40
0.8945412347
 40
1.0
 40
1.0
 40
1.0
 40
1.0
 10
14.8081292018
 20
9.3805689562
 30
0.0
 10
14.8060253817
 20
9.3827685199
 30
0.0
 10
14.8017822822
 20
9.3869090751
 30
0.0
 10
14.7951218612
 20
9.3924471713
 30
0.0
 10
14.7883575415
 20
9.397123636
 30
0.0
 10
14.7814948102
 20
9.4009296688
 30
0.0
 10
14.7745401029
 20
9.4038586416
 30
0.0
 10
14.7675008621
 20
9.4059047583
 30
0.0
 10
14.7603859742
 20
9.4070621917
 30
0.0
 10
14.7532064439
 20
9.4073282496
 30
0.0
 10
14.7459736731
 20
9.4067035702
 30
0.0
 10
14.7386984161
 20
9.4051901855
 30
0.0
 10
14.7313900178
 20
9.4027927634
 30
0.0
 10
14.7240556336
 20
9.3995179156
 30
0.0
 10
14.7167015541
 20
9.3953711242
 30
0.0
 10
14.7093336728
 20
9.3903579136
 30
0.0
 10
14.7019570394
 20
9.3844848296
 30
0.0
 10
14.6945773366
 20
9.3777577091
 30
0.0
 10
14.687200856
 20
9.3701826072
 30
0.0
 10
14.6798332804
 20
9.3617670925
 30
0.0
 10
14.6724809261
 20
9.3525189124
 30
0.0
 10
14.6651507445
 20
9.3424462141
 30
0.0
 10
14.6578490673
 20
9.3315585301
 30
0.0
 10
14.6505824493
 20
9.3198660123
 30
0.0
 10
14.6433580605
 20
9.3073792757
 30
0.0
 10
14.636182586
 20
9.294110214
 30
0.0
 10
14.6290625906
 20
9.2800716622
 30
0.0
 10
14.6220051336
 20
9.2652767577
 30
0.0
 10
14.6150168179
 20
9.2497391484
 30
0.0
 10
14.6056371005
 20
9.2276680036
 30
0.0
 10
14.5941696359
 20
9.1983083414
 30
0.0
 10
14.5856572522
 20
9.1741384548
 30
0.0
 10
14.5814508463
 20
9.1616144654
 30
0.0
  0
SPLINE
  5
38C
100
AcDbEntity
  8
0
100
AcDbSpline
 62
7
  6
CONTINUOUS
 70
0
 71
3
 72
29
 73
25
 74
0
 42
0.0000001
 43
0.0000001
 44
0.0000000001
 40
0.0
 40
0.0
 40
0.0
 40
0.0
 40
0.0845029209
 40
0.1672060512
 40
0.2477928116
 40
0.3259955312
 40
0.4015490781
 40
0.4741967172
 40
0.5437011092
 40
0.6098423629
 40
0.6724190906
 40
0.7312544691
 40
0.759222048
 40
0.7862006128
 40
0.8121758414
 40
0.8371363988
 40
0.8610738044
 40
0.8839816691
 40
0.9058577403
 40
0.9267048499
 40
0.9465294736
 40
0.9653422397
 40
0.9831585626
 40
1.0
 40
1.0
 40
1.0
 40
1.0
 10
14.4560025644
 20
8.2295295639
 30
0.0
 10
14.4561451823
 20
8.2114878112
 30
0.0
 10
14.4567246785
 20
8.175790105
 30
0.0
 10
14.4585066196
 20
8.1229109007
 30
0.0
 10
14.4611869823
 20
8.0714161724
 30
0.0
 10
14.4647548395
 20
8.0215053708
 30
0.0
 10
14.4691958315
 20
7.9733663466
 30
0.0
 10
14.4744932941
 20
7.9271824595
 30
0.0
 10
14.4806262797
 20
7.8831297012
 30
0.0
 10
14.4875705513
 20
7.8413749737
 30
0.0
 10
14.4952998179
 20
7.8020770185
 30
0.0
 10
14.5024851642
 20
7.7709950819
 30
0.0
 10
14.5086344708
 20
7.7474911781
 30
0.0
 10
14.5133453961
 20
7.7308668578
 30
0.0
 10
14.5182291259
 20
7.714962807
 30
0.0
 10
14.5232809755
 20
7.6997940717
 30
0.0
 10
14.5284957353
 20
7.6853749211
 30
0.0
 10
14.5338686868
 20
7.6717190663
 30
0.0
 10
14.5393949919
 20
7.65883926
 30
0.0
 10
14.545069342
 20
7.6467470373
 30
0.0
 10
14.5508868398
 20
7.6354535684
 30
0.0
 10
14.5568423765
 20
7.6249697501
 30
0.0
 10
14.5629289841
 20
7.6153062323
 30
0.0
 10
14.5671880032
 20
7.6092496847
 30
0.0
 10
14.5693417421
 20
7.6063701992
 30
0.0
  0
SPLINE
  5
38D
100
AcDbEntity
  8
0
100
AcDbSpline
 62
7
  6
CONTINUOUS
 70
0
 71
3
 72
23
 73
19
 74
0
 42
0.0000001
 43
0.0000001
 44
0.0000000001
 40
0.0
 40
0.0
 40
0.0
 40
0.0
 40
0.0516336942
 40
0.1056802294
 40
0.1619477426
 40
0.2202552621
 40
0.2804049373
 40
0.3421879345
 40
0.4053888783
 40
0.4697856779
 40
0.5351505224
 40
0.6012507051
 40
0.6678508709
 40
0.7347134147
 40
0.8015970733
 40
0.8682636889
 40
0.934483684
 40
1.0
 40
1.0
 40
1.0
 40
1.0
 10
14.5693417421
 20
9.1238264519
 30
0.0
 10
14.565050344
 20
9.1097986342
 30
0.0
 10
14.5566664164
 20
9.0809641315
 30
0.0
 10
14.5449113155
 20
9.0364763288
 30
0.0
 10
14.5337238696
 20
8.9898901814
 30
0.0
 10
14.5231473563
 20
8.9413858255
 30
0.0
 10
14.5132215289
 20
8.8911461488
 30
0.0
 10
14.5039851872
 20
8.8393625879
 30
0.0
 10
14.4954735326
 20
8.7862327889
 30
0.0
 10
14.4877190293
 20
8.7319591921
 30
0.0
 10
14.480751831
 20
8.6767487033
 30
0.0
 10
14.4745981799
 20
8.6208118962
 30
0.0
 10
14.4692817905
 20
8.5643619579
 30
0.0
 10
14.4648232631
 20
8.5076145389
 30
0.0
 10
14.4612390458
 20
8.4507862948
 30
0.0
 10
14.458543123
 20
8.394091679
 30
0.0
 10
14.4567461931
 20
8.3377502369
 30
0.0
 10
14.4561474861
 20
8.3003257505
 30
0.0
 10
14.4560025644
 20
8.2817125965
 30
0.0
  0
SPLINE
  5
38E
100
AcDbEntity
  8
0
100
AcDbSpline
 62
7
  6
CONTINUOUS
 70
0
 71
3
 72
11
 73
7
 74
0
 42
0.0000001
 43
0.0000001
 44
0.0000000001
 40
0.0
 40
0.0
 40
0.0
 40
0.0
 40
0.2702526429
 40
0.5269256595
 40
0.77011137
 40
1.0
 40
1.0
 40
1.0
 40
1.0
 10
15.740304604
 20
9.1372991451
 30
0.0
 10
15.7386532078
 20
9.1412668212
 30
0.0
 10
15.7353099292
 20
9.1489523296
 30
0.0
 10
15.7300213254
 20
9.1600012573
 30
0.0
 10
15.7245934054
 20
9.1702618649
 30
0.0
 10
15.7207797807
 20
9.1767504674
 30
0.0
 10
15.718846605
 20
9.1798532565
 30
0.0
  0
SPLINE
  5
38F
100
AcDbEntity
  8
0
100
AcDbSpline
 62
7
  6
CONTINUOUS
 70
0
 71
3
 72
54
 73
50
 74
0
 42
0.0000001
 43
0.0000001
 44
0.0000000001
 40
0.0
 40
0.0
 40
0.0
 40
0.0
 40
0.0092108238
 40
0.0178650132
 40
0.0259872228
 40
0.0336098801
 40
0.0407741653
 40
0.0475323476
 40
0.0539489081
 40
0.0601003322
 40
0.0660746808
 40
0.0719689955
 40
0.0778844401
 40
0.0839211615
 40
0.0901728333
 40
0.0967228879
 40
0.10364304
 40
0.1109924399
 40
0.1188183967
 40
0.1271585611
 40
0.1360419749
 40
0.145489763
 40
0.1555174947
 40
0.1661361414
 40
0.177351696
 40
0.1891668474
 40
0.2015819129
 40
0.2145940872
 40
0.2281981172
 40
0.242387453
 40
0.257153694
 40
0.2724862817
 40
0.3048025311
 40
0.3392310852
 40
0.3756484307
 40
0.4139155225
 40
0.4538817316
 40
0.4953846913
 40
0.5382528179
 40
0.5823066415
 40
0.6273592683
 40
0.6732186361
 40
0.7196876114
 40
0.7665663399
 40
0.8136525902
 40
0.8607406718
 40
0.9076288734
 40
0.954121876
 40
1.0
 40
1.0
 40
1.0
 40
1.0
 10
15.718846605
 20
9.1798532565
 30
0.0
 10
15.7169575936
 20
9.1828851607
 30
0.0
 10
15.7131443315
 20
9.1886749246
 30
0.0
 10
15.7071107414
 20
9.1967559133
 30
0.0
 10
15.7009506958
 20
9.2039494928
 30
0.0
 10
15.6946701093
 20
9.2102475806
 30
0.0
 10
15.6882734524
 20
9.2156418507
 30
0.0
 10
15.6817656541
 20
9.2201241096
 30
0.0
 10
15.6751527228
 20
9.2236869482
 30
0.0
 10
15.6684412382
 20
9.2263214121
 30
0.0
 10
15.6616404309
 20
9.2280182326
 30
0.0
 10
15.6547630405
 20
9.2287724763
 30
0.0
 10
15.6478230332
 20
9.2285818655
 30
0.0
 10
15.6408346436
 20
9.2274472384
 30
0.0
 10
15.6338099519
 20
9.2253753008
 30
0.0
 10
15.6267580425
 20
9.2223737856
 30
0.0
 10
15.6196865921
 20
9.2184493149
 30
0.0
 10
15.6126018458
 20
9.2136094867
 30
0.0
 10
15.605509339
 20
9.207862022
 30
0.0
 10
15.5984155943
 20
9.2012135602
 30
0.0
 10
15.5913275489
 20
9.193671511
 30
0.0
 10
15.5842515973
 20
9.1852449315
 30
0.0
 10
15.577195175
 20
9.1759429279
 30
0.0
 10
15.5701663773
 20
9.1657753633
 30
0.0
 10
15.5631723961
 20
9.1547539805
 30
0.0
 10
15.5562209458
 20
9.1428911806
 30
0.0
 10
15.5493203752
 20
9.1301999664
 30
0.0
 10
15.5424783413
 20
9.1166948475
 30
0.0
 10
15.5357023626
 20
9.1023913861
 30
0.0
 10
15.5290005791
 20
9.0873056692
 30
0.0
 10
15.522380773
 20
9.0714548524
 30
0.0
 10
15.5135175128
 20
9.0489279261
 30
0.0
 10
15.5027352746
 20
9.0189694078
 30
0.0
 10
15.4904558929
 20
8.9808844223
 30
0.0
 10
15.4786772562
 20
8.9402335299
 30
0.0
 10
15.4674532386
 20
8.897203583
 30
0.0
 10
15.4568369487
 20
8.8519917644
 30
0.0
 10
15.4468773846
 20
8.8048059386
 30
0.0
 10
15.4376207368
 20
8.7558631977
 30
0.0
 10
15.42911057
 20
8.7053887851
 30
0.0
 10
15.4213856617
 20
8.6536152217
 30
0.0
 10
15.4144824274
 20
8.6007810899
 30
0.0
 10
15.4084325998
 20
8.5471297979
 30
0.0
 10
15.4032639722
 20
8.492908527
 30
0.0
 10
15.3990011706
 20
8.4383677214
 30
0.0
 10
15.395662867
 20
8.3837588687
 30
0.0
 10
15.3932649591
 20
8.3293308572
 30
0.0
 10
15.3918190981
 20
8.275338788
 30
0.0
 10
15.3914905236
 20
8.2395137973
 30
0.0
 10
15.3914905236
 20
8.2217209174
 30
0.0
  0
SPLINE
  5
390
100
AcDbEntity
  8
0
100
AcDbSpline
 62
7
  6
CONTINUOUS
 70
0
 71
3
 72
19
 73
15
 74
0
 42
0.0000001
 43
0.0000001
 44
0.0000000001
 40
0.0
 40
0.0
 40
0.0
 40
0.0
 40
0.159553036
 40
0.3097082998
 40
0.4501151662
 40
0.5804914795
 40
0.6418622628
 40
0.7006662007
 40
0.7568962041
 40
0.8105561844
 40
0.8616629626
 40
0.9102434264
 40
0.9563366062
 40
1.0
 40
1.0
 40
1.0
 40
1.0
 10
12.8596914056
 20
8.0948401885
 30
0.0
 10
12.8615278707
 20
8.085047669
 30
0.0
 10
12.8653612367
 20
8.0660881561
 30
0.0
 10
12.8718282184
 20
8.03872927
 30
0.0
 10
12.8788183209
 20
8.0133836485
 30
0.0
 10
12.8851808164
 20
7.9936336606
 30
0.0
 10
12.8905426181
 20
7.9789338205
 30
0.0
 10
12.8945976345
 20
7.9686901904
 30
0.0
 10
12.898764267
 20
7.9590133915
 30
0.0
 10
12.9030390445
 20
7.9499119614
 30
0.0
 10
12.9074178614
 20
7.9413935803
 30
0.0
 10
12.9118969963
 20
7.9334655017
 30
0.0
 10
12.9164727764
 20
7.9261351871
 30
0.0
 10
12.9196704814
 20
7.9215284472
 30
0.0
 10
12.9212871118
 20
7.9193328704
 30
0.0
  0
SPLINE
  5
391
100
AcDbEntity
  8
0
100
AcDbSpline
 62
7
  6
CONTINUOUS
 70
0
 71
3
 72
53
 73
49
 74
0
 42
0.0000001
 43
0.0000001
 44
0.0000000001
 40
0.0
 40
0.0
 40
0.0
 40
0.0
 40
0.0544907941
 40
0.1080979901
 40
0.1606560469
 40
0.2120281743
 40
0.2620877801
 40
0.3107083338
 40
0.3577648707
 40
0.4031412931
 40
0.4467281644
 40
0.4884242193
 40
0.5281359132
 40
0.5657798024
 40
0.6012836806
 40
0.6345877502
 40
0.665648108
 40
0.6944379096
 40
0.7209543149
 40
0.7333678099
 40
0.7452252574
 40
0.7565357423
 40
0.7673110227
 40
0.7775664848
 40
0.7873222128
 40
0.7966027422
 40
0.8054376755
 40
0.8138626756
 40
0.8219206677
 40
0.8296616062
 40
0.8371424982
 40
0.8444272267
 40
0.8515857817
 40
0.858692146
 40
0.8658219848
 40
0.8730502795
 40
0.8804487398
 40
0.8880836296
 40
0.896014725
 40
0.9042948542
 40
0.9129694716
 40
0.9220766823
 40
0.9316484382
 40
0.9417113755
 40
0.9522871625
 40
0.963392516
 40
0.9750406085
 40
1.0
 40
1.0
 40
1.0
 40
1.0
 10
15.3914905236
 20
8.2217209174
 30
0.0
 10
15.3914905236
 20
8.2079485651
 30
0.0
 10
15.391684719
 20
8.1806267491
 30
0.0
 10
15.3925705576
 20
8.1400297226
 30
0.0
 10
15.3940477485
 20
8.1002384946
 30
0.0
 10
15.3961110474
 20
8.0613711348
 30
0.0
 10
15.3987550716
 20
8.0235363693
 30
0.0
 10
15.4019713116
 20
7.986840587
 30
0.0
 10
15.4057513425
 20
7.9513885282
 30
0.0
 10
15.4100835608
 20
7.917281544
 30
0.0
 10
15.4149558486
 20
7.8846164219
 30
0.0
 10
15.4203537397
 20
7.8534857898
 30
0.0
 10
15.4262617708
 20
7.8239778385
 30
0.0
 10
15.4326628847
 20
7.796176057
 30
0.0
 10
15.439538303
 20
7.7701586715
 30
0.0
 10
15.4468687501
 20
7.7459987145
 30
0.0
 10
15.454632552
 20
7.7237628651
 30
0.0
 10
15.4628088815
 20
7.7035133958
 30
0.0
 10
15.4700984692
 20
7.6880140427
 30
0.0
 10
15.4761478321
 20
7.6766898348
 30
0.0
 10
15.4806733678
 20
7.6689158365
 30
0.0
 10
15.4852843146
 20
7.6616783028
 30
0.0
 10
15.489977873
 20
7.6549824298
 30
0.0
 10
15.4947512506
 20
7.6488331057
 30
0.0
 10
15.4996011336
 20
7.6432342817
 30
0.0
 10
15.504524566
 20
7.6381897831
 30
0.0
 10
15.5095187447
 20
7.6337034843
 30
0.0
 10
15.5145811495
 20
7.6297794443
 30
0.0
 10
15.5197085581
 20
7.6264207437
 30
0.0
 10
15.5248978201
 20
7.6236305418
 30
0.0
 10
15.5301455201
 20
7.6214122531
 30
0.0
 10
15.5354478005
 20
7.6197697119
 30
0.0
 10
15.5407996826
 20
7.6187052029
 30
0.0
 10
15.546195719
 20
7.618220076
 30
0.0
 10
15.5516302278
 20
7.6183150129
 30
0.0
 10
15.5570974528
 20
7.6189901085
 30
0.0
 10
15.5625919871
 20
7.6202435548
 30
0.0
 10
15.5681092264
 20
7.622072439
 30
0.0
 10
15.5736451277
 20
7.6244740538
 30
0.0
 10
15.5791959006
 20
7.6274459442
 30
0.0
 10
15.5847580324
 20
7.6309851707
 30
0.0
 10
15.5903284508
 20
7.6350881067
 30
0.0
 10
15.5959038277
 20
7.6397515138
 30
0.0
 10
15.6014806639
 20
7.6449722473
 30
0.0
 10
15.6070552081
 20
7.6507467894
 30
0.0
 10
15.6126243413
 20
7.6570707591
 30
0.0
 10
15.6202128156
 20
7.6664463777
 30
0.0
 10
15.6256141006
 20
7.6739709489
 30
0.0
 10
15.6291374518
 20
7.679203717
 30
0.0
  0
SPLINE
  5
392
100
AcDbEntity
  8
0
100
AcDbSpline
 62
7
  6
CONTINUOUS
 70
0
 71
3
 72
9
 73
5
 74
0
 42
0.0000001
 43
0.0000001
 44
0.0000000001
 40
0.0
 40
0.0
 40
0.0
 40
0.0
 40
0.241994066
 40
1.0
 40
1.0
 40
1.0
 40
1.0
 10
15.6291374518
 20
7.679203717
 30
0.0
 10
15.6300933614
 20
7.6806234033
 30
0.0
 10
15.633995183
 20
7.6865224926
 30
0.0
 10
15.6377097327
 20
7.6925447383
 30
0.0
 10
15.6404332072
 20
7.6971624504
 30
0.0
  0
SPLINE
  5
393
100
AcDbEntity
  8
0
100
AcDbSpline
 62
7
  6
CONTINUOUS
 70
0
 71
3
 72
34
 73
30
 74
0
 42
0.0000001
 43
0.0000001
 44
0.0000000001
 40
0.0
 40
0.0
 40
0.0
 40
0.0
 40
0.0982467203
 40
0.1929150128
 40
0.2835967239
 40
0.3699135663
 40
0.451515823
 40
0.5280907875
 40
0.5644083297
 40
0.5993720648
 40
0.6329548523
 40
0.6651345568
 40
0.6958945563
 40
0.7252214264
 40
0.7531062429
 40
0.7795487948
 40
0.8045559195
 40
0.8281414695
 40
0.8503301325
 40
0.8711610789
 40
0.8906872616
 40
0.9089787802
 40
0.9261294562
 40
0.9343159308
 40
0.9422645461
 40
0.957521684
 40
0.9720856037
 40
0.9861669612
 40
1.0
 40
1.0
 40
1.0
 40
1.0
 10
12.7493169054
 20
8.2835478349
 30
0.0
 10
12.7501497263
 20
8.2677453227
 30
0.0
 10
12.7521095055
 20
8.2367317446
 30
0.0
 10
12.756024743
 20
8.1912172832
 30
0.0
 10
12.760847413
 20
8.1477220575
 30
0.0
 10
12.7665520958
 20
8.1064564318
 30
0.0
 10
12.7731114029
 20
8.0676199403
 30
0.0
 10
12.7793669919
 20
8.0369160955
 30
0.0
 10
12.7848076541
 20
8.0137294509
 30
0.0
 10
12.7890084508
 20
7.9973684992
 30
0.0
 10
12.7933969937
 20
7.9817479693
 30
0.0
 10
12.7979680927
 20
7.9668866656
 30
0.0
 10
12.8027156745
 20
7.9528021346
 30
0.0
 10
12.8076340215
 20
7.939511282
 30
0.0
 10
12.8127178978
 20
7.9270303203
 30
0.0
 10
12.8179607803
 20
7.9153738097
 30
0.0
 10
12.8233562052
 20
7.9045551771
 30
0.0
 10
12.8288983067
 20
7.8945873605
 30
0.0
 10
12.8345813651
 20
7.8854822444
 30
0.0
 10
12.8403985224
 20
7.8772497826
 30
0.0
 10
12.8463439735
 20
7.8698991541
 30
0.0
 10
12.8524124388
 20
7.8634402446
 30
0.0
 10
12.8576471173
 20
7.8587361418
 30
0.0
 10
12.8618873517
 20
7.8554518541
 30
0.0
 10
12.8660388582
 20
7.85256241
 30
0.0
 10
12.8713057645
 20
7.8494900258
 30
0.0
 10
12.8778144896
 20
7.8466787011
 30
0.0
 10
12.8844141182
 20
7.8448008232
 30
0.0
 10
12.8888836428
 20
7.8441736997
 30
0.0
 10
12.8911063741
 20
7.8440196177
 30
0.0
  0
SPLINE
  5
394
100
AcDbEntity
  8
0
100
AcDbSpline
 62
7
  6
CONTINUOUS
 70
0
 71
3
 72
32
 73
28
 74
0
 42
0.0000001
 43
0.0000001
 44
0.0000000001
 40
0.0
 40
0.0
 40
0.0
 40
0.0
 40
0.0985372193
 40
0.1932252104
 40
0.2837140539
 40
0.3696752158
 40
0.4508147779
 40
0.5268688474
 40
0.5976183916
 40
0.6309491557
 40
0.6628942304
 40
0.6934412253
 40
0.722581402
 40
0.7503134657
 40
0.7766425675
 40
0.8015795892
 40
0.8251432802
 40
0.8473648074
 40
0.8682870447
 40
0.8879659523
 40
0.9064747034
 40
0.9239087843
 40
0.9403864007
 40
0.956050915
 40
0.9710733213
 40
0.9856508048
 40
1.0
 40
1.0
 40
1.0
 40
1.0
 10
12.7641911268
 20
8.2616158096
 30
0.0
 10
12.7651820678
 20
8.2481669326
 30
0.0
 10
12.7674010492
 20
8.2218137802
 30
0.0
 10
12.7715466469
 20
8.1832044102
 30
0.0
 10
12.7764274641
 20
8.1464158475
 30
0.0
 10
12.7820237013
 20
8.1116054637
 30
0.0
 10
12.7883090085
 20
8.0789213672
 30
0.0
 10
12.7952575586
 20
8.0485030344
 30
0.0
 10
12.8016951972
 20
8.0246972805
 30
0.0
 10
12.8071875586
 20
8.0069084452
 30
0.0
 10
12.811371062
 20
7.9944781671
 30
0.0
 10
12.8156963636
 20
7.9827055185
 30
0.0
 10
12.820159477
 20
7.9716032549
 30
0.0
 10
12.824755403
 20
7.9611829343
 30
0.0
 10
12.8294790499
 20
7.951455156
 30
0.0
 10
12.8343255954
 20
7.9424301432
 30
0.0
 10
12.8392907701
 20
7.9341176798
 30
0.0
 10
12.8443692519
 20
7.9265259788
 30
0.0
 10
12.8495560707
 20
7.9196624747
 30
0.0
 10
12.8548467995
 20
7.9135344655
 30
0.0
 10
12.8602376413
 20
7.9081491624
 30
0.0
 10
12.8657238383
 20
7.9035122084
 30
0.0
 10
12.8713012535
 20
7.8996294624
 30
0.0
 10
12.8769656919
 20
7.8965078817
 30
0.0
 10
12.8827122696
 20
7.8941548756
 30
0.0
 10
12.8885318673
 20
7.892575729
 30
0.0
 10
12.8924677947
 20
7.8920404169
 30
0.0
 10
12.8944268559
 20
7.8919046128
 30
0.0
  0
SPLINE
  5
395
100
AcDbEntity
  8
0
100
AcDbSpline
 62
7
  6
CONTINUOUS
 70
0
 71
3
 72
14
 73
10
 74
0
 42
0.0000001
 43
0.0000001
 44
0.0000000001
 40
0.0
 40
0.0
 40
0.0
 40
0.0
 40
0.1094708753
 40
0.2243310182
 40
0.3441395696
 40
0.4684393349
 40
0.5967472324
 40
0.7285023093
 40
1.0
 40
1.0
 40
1.0
 40
1.0
 10
12.3895911522
 20
8.4198688503
 30
0.0
 10
12.3906758383
 20
8.4228765667
 30
0.0
 10
12.3931174027
 20
8.4289628294
 30
0.0
 10
12.3974401524
 20
8.4380434221
 30
0.0
 10
12.4024944039
 20
8.4472357601
 30
0.0
 10
12.4082580104
 20
8.456466528
 30
0.0
 10
12.4147076604
 20
8.4656620558
 30
0.0
 10
12.4242856214
 20
8.4778867127
 30
0.0
 10
12.4322912695
 20
8.4865677681
 30
0.0
 10
12.4379811786
 20
8.4920908528
 30
0.0
  0
SPLINE
  5
396
100
AcDbEntity
  8
0
100
AcDbSpline
 62
7
  6
CONTINUOUS
 70
0
 71
3
 72
20
 73
16
 74
0
 42
0.0000001
 43
0.0000001
 44
0.0000000001
 40
0.0
 40
0.0
 40
0.0
 40
0.0
 40
0.1544988669
 40
0.3026974836
 40
0.4433955257
 40
0.5105836627
 40
0.5754883327
 40
0.6379875746
 40
0.6979702705
 40
0.7553305343
 40
0.8099764585
 40
0.8618270747
 40
0.9108121096
 40
0.9568816567
 40
1.0
 40
1.0
 40
1.0
 40
1.0
 10
12.6834619578
 20
8.364270928
 30
0.0
 10
12.6839367572
 20
8.3418081733
 30
0.0
 10
12.6854405241
 20
8.2978079261
 30
0.0
 10
12.6894800263
 20
8.2334457258
 30
0.0
 10
12.6943370723
 20
8.1818801551
 30
0.0
 10
12.6991118463
 20
8.1424963963
 30
0.0
 10
12.7030460477
 20
8.1144710865
 30
0.0
 10
12.7073797413
 20
8.0875654551
 30
0.0
 10
12.7121020301
 20
8.061839728
 30
0.0
 10
12.7172032868
 20
8.0373516032
 30
0.0
 10
12.7226713471
 20
8.0141557698
 30
0.0
 10
12.7284932634
 20
7.992303889
 30
0.0
 10
12.734657241
 20
7.9718445384
 30
0.0
 10
12.7411477161
 20
7.9528232474
 30
0.0
 10
12.7458392962
 20
7.9407260383
 30
0.0
 10
12.7482488598
 20
7.9349370663
 30
0.0
  0
SPLINE
  5
397
100
AcDbEntity
  8
0
100
AcDbSpline
 62
7
  6
CONTINUOUS
 70
0
 71
3
 72
20
 73
16
 74
0
 42
0.0000001
 43
0.0000001
 44
0.0000000001
 40
0.0
 40
0.0
 40
0.0
 40
0.0
 40
0.1544878669
 40
0.3026591398
 40
0.4433241949
 40
0.5104969834
 40
0.5753885482
 40
0.6378782443
 40
0.697855937
 40
0.7552166998
 40
0.8098696487
 40
0.8617345208
 40
0.9107417789
 40
0.9568420652
 40
1.0
 40
1.0
 40
1.0
 40
1.0
 10
12.6691251944
 20
8.3795601662
 30
0.0
 10
12.6695861976
 20
8.3586161793
 30
0.0
 10
12.6710229238
 20
8.3175936342
 30
0.0
 10
12.6748369326
 20
8.2575904377
 30
0.0
 10
12.6794011294
 20
8.20952069
 30
0.0
 10
12.6838785244
 20
8.1728079125
 30
0.0
 10
12.6875641689
 20
8.1466827347
 30
0.0
 10
12.6916208833
 20
8.1216003415
 30
0.0
 10
12.6960385877
 20
8.0976164159
 30
0.0
 10
12.7008083773
 20
8.0747843192
 30
0.0
 10
12.7059189113
 20
8.0531546164
 30
0.0
 10
12.7113582412
 20
8.0327750919
 30
0.0
 10
12.7171154194
 20
8.0136906853
 30
0.0
 10
12.7231760197
 20
7.9959435159
 30
0.0
 10
12.7275553769
 20
7.9846548035
 30
0.0
 10
12.7298042888
 20
7.9792517971
 30
0.0
  0
SPLINE
  5
398
100
AcDbEntity
  8
0
100
AcDbSpline
 62
7
  6
CONTINUOUS
 70
0
 71
3
 72
9
 73
5
 74
0
 42
0.0000001
 43
0.0000001
 44
0.0000000001
 40
0.0
 40
0.0
 40
0.0
 40
0.0
 40
0.5137008699
 40
1.0
 40
1.0
 40
1.0
 40
1.0
 10
14.5693417421
 20
7.6063701992
 30
0.0
 10
14.5712718784
 20
7.6037896641
 30
0.0
 10
14.5751619523
 20
7.5988636602
 30
0.0
 10
14.5793422478
 20
7.5941797395
 30
0.0
 10
14.5814508463
 20
7.5919751801
 30
0.0
  0
SPLINE
  5
399
100
AcDbEntity
  8
0
100
AcDbSpline
 62
7
  6
CONTINUOUS
 70
0
 71
3
 72
48
 73
44
 74
0
 42
0.0000001
 43
0.0000001
 44
0.0000000001
 40
0.0
 40
0.0
 40
0.0
 40
0.0
 40
0.0047183062
 40
0.0090998024
 40
0.0134677772
 40
0.0181336834
 40
0.0233416671
 40
0.029251405
 40
0.0359557689
 40
0.0435037775
 40
0.0519158933
 40
0.0611936413
 40
0.071326833
 40
0.0822977023
 40
0.0940846432
 40
0.1066636709
 40
0.1340892068
 40
0.1643511616
 40
0.1972254509
 40
0.232482367
 40
0.2698916519
 40
0.3502127965
 40
0.4361269643
 40
0.5252282173
 40
0.5701079203
 40
0.614698963
 40
0.6585992525
 40
0.701406293
 40
0.7427212858
 40
0.7821686845
 40
0.8193979846
 40
0.8541042577
 40
0.8860260283
 40
0.9008801694
 40
0.9149695273
 40
0.9282790147
 40
0.9408018575
 40
0.9525385298
 40
0.9634958622
 40
0.9736890503
 40
0.9831433013
 40
0.9918958788
 40
1.0
 40
1.0
 40
1.0
 40
1.0
 10
12.713628677
 20
7.9214955071
 30
0.0
 10
12.7137450715
 20
7.9209805934
 30
0.0
 10
12.7138685998
 20
7.9199582524
 30
0.0
 10
12.7136447316
 20
7.9184484644
 30
0.0
 10
12.7130038605
 20
7.9170694184
 30
0.0
 10
12.7119710547
 20
7.9158365745
 30
0.0
 10
12.7105722496
 20
7.9147429192
 30
0.0
 10
12.708822645
 20
7.9137738411
 30
0.0
 10
12.7067305083
 20
7.9129198105
 30
0.0
 10
12.7043038278
 20
7.9121751187
 30
0.0
 10
12.7015519195
 20
7.911534699
 30
0.0
 10
12.6984852264
 20
7.9109931572
 30
0.0
 10
12.6951147261
 20
7.910545664
 30
0.0
 10
12.6914516262
 20
7.9101873966
 30
0.0
 10
12.6875070643
 20
7.9099133377
 30
0.0
 10
12.6817181591
 20
7.9096459999
 30
0.0
 10
12.6738559849
 20
7.9095131961
 30
0.0
 10
12.6637232802
 20
7.9096077046
 30
0.0
 10
12.6527184979
 20
7.9099176998
 30
0.0
 10
12.6409200417
 20
7.9104063547
 30
0.0
 10
12.6238252555
 20
7.9112798597
 30
0.0
 10
12.6010827003
 20
7.9126716716
 30
0.0
 10
12.5725805957
 20
7.9146148761
 30
0.0
 10
12.5480445655
 20
7.9164302693
 30
0.0
 10
12.5281298595
 20
7.9180382174
 30
0.0
 10
12.5132637288
 20
7.9193314317
 30
0.0
 10
12.4986397661
 20
7.9207277577
 30
0.0
 10
12.484396775
 20
7.9222500013
 30
0.0
 10
12.4706725137
 20
7.9239255767
 30
0.0
 10
12.4576010285
 20
7.9257808829
 30
0.0
 10
12.445309317
 20
7.9278447199
 30
0.0
 10
12.4339157277
 20
7.9301394692
 30
0.0
 10
12.4250576363
 20
7.9323118127
 30
0.0
 10
12.4185155758
 20
7.9342059889
 30
0.0
 10
12.4140165377
 20
7.9356605268
 30
0.0
 10
12.4098168993
 20
7.9371847347
 30
0.0
 10
12.4059259102
 20
7.9387783926
 30
0.0
 10
12.4023516584
 20
7.9404405847
 30
0.0
 10
12.3991018657
 20
7.9421707339
 30
0.0
 10
12.3961846088
 20
7.9439686563
 30
0.0
 10
12.3936059809
 20
7.9458311301
 30
0.0
 10
12.391372104
 20
7.947754174
 30
0.0
 10
12.3900696669
 20
7.9491244021
 30
0.0
 10
12.3894859801
 20
7.9498182753
 30
0.0
  0
SPLINE
  5
39A
100
AcDbEntity
  8
0
100
AcDbSpline
 62
7
  6
CONTINUOUS
 70
0
 71
3
 72
23
 73
19
 74
0
 42
0.0000001
 43
0.0000001
 44
0.0000000001
 40
0.0
 40
0.0
 40
0.0
 40
0.0
 40
0.063777379
 40
0.1273447372
 40
0.1907019931
 40
0.2538561345
 40
0.3168131769
 40
0.3795820929
 40
0.4421733849
 40
0.5045993366
 40
0.5668738654
 40
0.6290123812
 40
0.6910316548
 40
0.7529496517
 40
0.8147853612
 40
0.8765586089
 40
0.9382898579
 40
1.0
 40
1.0
 40
1.0
 40
1.0
 10
8.4848498557
 20
7.9874179281
 30
0.0
 10
8.4848498557
 20
7.9758463581
 30
0.0
 10
8.4842960148
 20
7.9527374017
 30
0.0
 10
8.4817961526
 20
7.9182145034
 30
0.0
 10
8.4776339344
 20
7.8839653215
 30
0.0
 10
8.4718192053
 20
7.8500701164
 30
0.0
 10
8.4643650564
 20
7.8166064944
 30
0.0
 10
8.4552886868
 20
7.7836517742
 30
0.0
 10
8.4446108961
 20
7.7512818931
 30
0.0
 10
8.4323562596
 20
7.7195715002
 30
0.0
 10
8.4185529731
 20
7.688593722
 30
0.0
 10
8.4032328025
 20
7.6584200076
 30
0.0
 10
8.3864310231
 20
7.6291199676
 30
0.0
 10
8.368186305
 20
7.6007611914
 30
0.0
 10
8.3485407534
 20
7.5734091658
 30
0.0
 10
8.3275394462
 20
7.5471267635
 30
0.0
 10
8.3052316328
 20
7.5219754441
 30
0.0
 10
8.2895201013
 20
7.5059976684
 30
0.0
 10
8.2814669827
 20
7.4982189265
 30
0.0
  0
SPLINE
  5
39B
100
AcDbEntity
  8
0
100
AcDbSpline
 62
7
  6
CONTINUOUS
 70
0
 71
3
 72
23
 73
19
 74
0
 42
0.0000001
 43
0.0000001
 44
0.0000000001
 40
0.0
 40
0.0
 40
0.0
 40
0.0
 40
0.0637776914
 40
0.1273445726
 40
0.19070205
 40
0.2538561286
 40
0.3168131755
 40
0.3795820937
 40
0.4421733816
 40
0.5045993375
 40
0.566873868
 40
0.6290123843
 40
0.691031656
 40
0.7529496505
 40
0.8147853588
 40
0.8765586069
 40
0.938289857
 40
1.0
 40
1.0
 40
1.0
 40
1.0
 10
12.952257067
 20
7.6776021857
 30
0.0
 10
12.952257067
 20
7.6621733371
 30
0.0
 10
12.9515186416
 20
7.6313614078
 30
0.0
 10
12.9481854361
 20
7.5853308285
 30
0.0
 10
12.9426358577
 20
7.5396652856
 30
0.0
 10
12.9348828283
 20
7.4944716087
 30
0.0
 10
12.9249439389
 20
7.4498534264
 30
0.0
 10
12.9128420906
 20
7.4059137653
 30
0.0
 10
12.8986050349
 20
7.3627538838
 30
0.0
 10
12.8822655144
 20
7.3204733203
 30
0.0
 10
12.8638611041
 20
7.2791695848
 30
0.0
 10
12.8434341596
 20
7.2389379481
 30
0.0
 10
12.8210317274
 20
7.1998712198
 30
0.0
 10
12.796705394
 20
7.1620595028
 30
0.0
 10
12.7705112971
 20
7.12559011
 30
0.0
 10
12.7425095191
 20
7.0905468865
 30
0.0
 10
12.7127657265
 20
7.0570117788
 30
0.0
 10
12.6918169734
 20
7.0357080859
 30
0.0
 10
12.6810794692
 20
7.0253364248
 30
0.0
  0
SPLINE
  5
39C
100
AcDbEntity
  8
0
100
AcDbSpline
 62
7
  6
CONTINUOUS
 70
0
 71
3
 72
26
 73
22
 74
0
 42
0.0000001
 43
0.0000001
 44
0.0000000001
 40
0.0
 40
0.0
 40
0.0
 40
0.0
 40
0.0782048107
 40
0.1545743684
 40
0.3016428331
 40
0.3723222284
 40
0.4410208654
 40
0.50767792
 40
0.5722187862
 40
0.6345544721
 40
0.6945821335
 40
0.7521871246
 40
0.80724724
 40
0.8337888871
 40
0.8596498869
 40
0.8848171754
 40
0.9092802843
 40
0.9330312137
 40
0.9560662182
 40
0.9783865875
 40
1.0
 40
1.0
 40
1.0
 40
1.0
 10
11.3031069217
 20
7.7490542677
 30
0.0
 10
11.3071690513
 20
7.7412932345
 30
0.0
 10
11.3155869111
 20
7.72615222
 30
0.0
 10
11.3334945486
 20
7.6974892563
 30
0.0
 10
11.3530523129
 20
7.6708918089
 30
0.0
 10
11.3740281097
 20
7.6465979908
 30
0.0
 10
11.3900047137
 20
7.6299286152
 30
0.0
 10
11.4063353365
 20
7.6145950226
 30
0.0
 10
11.4229219795
 20
7.600620589
 30
0.0
 10
11.4396633119
 20
7.5880316764
 30
0.0
 10
11.4564552097
 20
7.576856996
 30
0.0
 10
11.4731887355
 20
7.5671292035
 30
0.0
 10
11.4871590929
 20
7.5601742221
 30
0.0
 10
11.4982073366
 20
7.5553907615
 30
0.0
 10
11.5063047052
 20
7.552234271
 30
0.0
 10
11.5142985759
 20
7.5494706129
 30
0.0
 10
11.5221730652
 20
7.5471055144
 30
0.0
 10
11.5299119135
 20
7.545144755
 30
0.0
 10
11.5374988326
 20
7.5435942482
 30
0.0
 10
11.5449169609
 20
7.5424597195
 30
0.0
 10
11.549817338
 20
7.5419768539
 30
0.0
 10
11.5522325353
 20
7.5418100993
 30
0.0
  0
SPLINE
  5
39D
100
AcDbEntity
  8
0
100
AcDbSpline
 62
7
  6
CONTINUOUS
 70
0
 71
3
 72
52
 73
48
 74
0
 42
0.0000001
 43
0.0000001
 44
0.0000000001
 40
0.0
 40
0.0
 40
0.0
 40
0.0
 40
0.0157878216
 40
0.0316104677
 40
0.0474681488
 40
0.0633649183
 40
0.0793020875
 40
0.0952807367
 40
0.1113013123
 40
0.1273633261
 40
0.1434657761
 40
0.1596069096
 40
0.175784258
 40
0.1919951021
 40
0.2244941133
 40
0.2570822451
 40
0.2897221124
 40
0.3223722912
 40
0.3549882115
 40
0.3875234228
 40
0.4199307638
 40
0.4521637967
 40
0.4841787347
 40
0.5159363228
 40
0.5474041174
 40
0.5785586376
 40
0.6093873967
 40
0.6398908463
 40
0.6700837632
 40
0.6999965377
 40
0.7296758268
 40
0.7591846263
 40
0.7886017215
 40
0.8033098176
 40
0.8180308134
 40
0.8327776982
 40
0.8475636931
 40
0.8624021601
 40
0.8773057965
 40
0.892286659
 40
0.9073557894
 40
0.922522489
 40
0.9377943485
 40
0.9531766506
 40
0.9686716955
 40
0.9842812307
 40
1.0
 40
1.0
 40
1.0
 40
1.0
 10
7.6710510293
 20
8.1609487571
 30
0.0
 10
7.6710510293
 20
8.1578480065
 30
0.0
 10
7.6712518956
 20
8.1516378302
 30
0.0
 10
7.6721508847
 20
8.1423524041
 30
0.0
 10
7.6736410543
 20
8.1331214133
 30
0.0
 10
7.6757105977
 20
8.1239800605
 30
0.0
 10
7.6783441354
 20
8.1149604146
 30
0.0
 10
7.6815225916
 20
8.1060925228
 30
0.0
 10
7.6852243467
 20
8.0974036427
 30
0.0
 10
7.6894257506
 20
8.0889182262
 30
0.0
 10
7.6941014837
 20
8.0806577501
 30
0.0
 10
7.6992254951
 20
8.0726410915
 30
0.0
 10
7.7047715642
 20
8.0648843063
 30
0.0
 10
7.7126987573
 20
8.0549002933
 30
0.0
 10
7.7235334379
 20
8.0431360994
 30
0.0
 10
7.7377938014
 20
8.0302524891
 30
0.0
 10
7.7531400019
 20
8.0186367529
 30
0.0
 10
7.7693966941
 20
8.0083276596
 30
0.0
 10
7.7864020715
 20
7.9993537206
 30
0.0
 10
7.8040045448
 20
7.9917381769
 30
0.0
 10
7.8220609165
 20
7.9855005405
 30
0.0
 10
7.8404343322
 20
7.9806577345
 30
0.0
 10
7.8589927187
 20
7.9772244517
 30
0.0
 10
7.8776076265
 20
7.9752132177
 30
0.0
 10
7.8961533541
 20
7.9746343491
 30
0.0
 10
7.9145062354
 20
7.9754959464
 30
0.0
 10
7.9325438855
 20
7.977804013
 30
0.0
 10
7.9501441795
 20
7.9815626227
 30
0.0
 10
7.9671839213
 20
7.9867740697
 30
0.0
 10
7.9835368719
 20
7.9934385665
 30
0.0
 10
7.9990719008
 20
8.0015538905
 30
0.0
 10
8.0136489107
 20
8.0111118663
 30
0.0
 10
8.0248788635
 20
8.0202714735
 30
0.0
 10
8.033214304
 20
8.0282844932
 30
0.0
 10
8.0391294239
 20
8.0346382545
 30
0.0
 10
8.044685256
 20
8.0413283029
 30
0.0
 10
8.0498601085
 20
8.0483462097
 30
0.0
 10
8.054631501
 20
8.0556813694
 30
0.0
 10
8.0589771528
 20
8.0633207544
 30
0.0
 10
8.0628750832
 20
8.0712486758
 30
0.0
 10
8.0663038784
 20
8.0794466546
 30
0.0
 10
8.0692435926
 20
8.0878930807
 30
0.0
 10
8.0716760051
 20
8.0965632921
 30
0.0
 10
8.0735850718
 20
8.1054295339
 30
0.0
 10
8.0749579296
 20
8.1144616337
 30
0.0
 10
8.0757847078
 20
8.1236259536
 30
0.0
 10
8.0759675063
 20
8.1297805154
 30
0.0
 10
8.0759675063
 20
8.132867704
 30
0.0
  0
SPLINE
  5
39E
100
AcDbEntity
  8
0
100
AcDbSpline
 62
7
  6
CONTINUOUS
 70
0
 71
3
 72
47
 73
43
 74
0
 42
0.0000001
 43
0.0000001
 44
0.0000000001
 40
0.0
 40
0.0
 40
0.0
 40
0.0
 40
0.0311880507
 40
0.0627270766
 40
0.0945332255
 40
0.126514112
 40
0.1585825822
 40
0.1906645257
 40
0.2227029837
 40
0.2386968419
 40
0.2546657815
 40
0.2865116157
 40
0.3182358123
 40
0.3340545609
 40
0.3498423019
 40
0.3813205982
 40
0.4126865443
 40
0.4439517183
 40
0.475129227
 40
0.5062323403
 40
0.5372736408
 40
0.5682642842
 40
0.5992135072
 40
0.6301285171
 40
0.6610143617
 40
0.6918742915
 40
0.7227101249
 40
0.7535228192
 40
0.7843135134
 40
0.815084474
 40
0.8304695675
 40
0.8458520912
 40
0.8612334739
 40
0.8766151992
 40
0.8919992736
 40
0.9073881606
 40
0.9227845373
 40
0.9381916709
 40
0.9536130627
 40
0.9690519911
 40
0.9845139209
 40
1.0
 40
1.0
 40
1.0
 40
1.0
 10
8.0759675063
 20
8.132867704
 30
0.0
 10
8.0759675063
 20
8.1391006341
 30
0.0
 10
8.0752143587
 20
8.1516482887
 30
0.0
 10
8.0719110205
 20
8.1702885958
 30
0.0
 10
8.0665200953
 20
8.1886005402
 30
0.0
 10
8.0591785902
 20
8.2063318219
 30
0.0
 10
8.0500504073
 20
8.2232728645
 30
0.0
 10
8.0393117569
 20
8.239251685
 30
0.0
 10
8.0291584865
 20
8.2516632791
 30
0.0
 10
8.0204008053
 20
8.2609905147
 30
0.0
 10
8.0112610689
 20
8.2698887579
 30
0.0
 10
7.9991442214
 20
8.2802111663
 30
0.0
 10
7.9862024596
 20
8.2894250844
 30
0.0
 10
7.9754388294
 20
8.296089903
 30
0.0
 10
7.9644441505
 20
8.3022663411
 30
0.0
 10
7.9502638588
 20
8.3090860699
 30
0.0
 10
7.9326676186
 20
8.3157883883
 30
0.0
 10
7.9146277923
 20
8.3209723198
 30
0.0
 10
7.8962680352
 20
8.3246125067
 30
0.0
 10
7.8777115245
 20
8.3266905408
 30
0.0
 10
7.8590830638
 20
8.3271944521
 30
0.0
 10
7.8405094299
 20
8.3261189294
 30
0.0
 10
7.8221200838
 20
8.3234650781
 30
0.0
 10
7.8040479613
 20
8.3192400862
 30
0.0
 10
7.7864306006
 20
8.3134568707
 30
0.0
 10
7.7694116938
 20
8.3061339248
 30
0.0
 10
7.7531431726
 20
8.297295917
 30
0.0
 10
7.7377870262
 20
8.2869746105
 30
0.0
 10
7.723518867
 20
8.2752134808
 30
0.0
 10
7.7126873706
 20
8.264254503
 30
0.0
 10
7.7047659996
 20
8.2548402385
 30
0.0
 10
7.6992195735
 20
8.2474653488
 30
0.0
 10
7.6940954213
 20
8.2397918596
 30
0.0
 10
7.6894197006
 20
8.2318364645
 30
0.0
 10
7.6852185011
 20
8.2236186487
 30
0.0
 10
7.6815171431
 20
8.2151604538
 30
0.0
 10
7.6783392534
 20
8.206486859
 30
0.0
 10
7.675706459
 20
8.1976255634
 30
0.0
 10
7.6736378216
 20
8.1886069857
 30
0.0
 10
7.6721486564
 20
8.1794634941
 30
0.0
 10
7.6712507632
 20
8.1702304805
 30
0.0
 10
7.6710510293
 20
8.164043649
 30
0.0
 10
7.6710510293
 20
8.1609487571
 30
0.0
  0
SPLINE
  5
39F
100
AcDbEntity
  8
0
100
AcDbSpline
 62
7
  6
CONTINUOUS
 70
0
 71
3
 72
17
 73
13
 74
0
 42
0.0000001
 43
0.0000001
 44
0.0000000001
 40
0.0
 40
0.0
 40
0.0
 40
0.0
 40
0.1339495127
 40
0.2657533685
 40
0.3951523624
 40
0.4588874178
 40
0.5219436585
 40
0.6459273166
 40
0.7669884953
 40
0.8263987579
 40
0.8850449413
 40
1.0
 40
1.0
 40
1.0
 40
1.0
 10
11.2388483891
 20
8.0225763946
 30
0.0
 10
11.2388483891
 20
8.0099101857
 30
0.0
 10
11.239555
 20
7.9847742109
 30
0.0
 10
11.2427713689
 20
7.9475274699
 30
0.0
 10
11.2472248633
 20
7.9171055414
 30
0.0
 10
11.2518176369
 20
7.8933163849
 30
0.0
 10
11.2570157452
 20
7.8701767367
 30
0.0
 10
11.2646892906
 20
7.8420516477
 30
0.0
 10
11.2739607235
 20
7.8147759201
 30
0.0
 10
11.2822252587
 20
7.7937260063
 30
0.0
 10
11.2909066421
 20
7.7734722634
 30
0.0
 10
11.2980662089
 20
7.7586849645
 30
0.0
 10
11.3031069217
 20
7.7490542677
 30
0.0
  0
SPLINE
  5
3A0
100
AcDbEntity
  8
0
100
AcDbSpline
 62
7
  6
CONTINUOUS
 70
0
 71
3
 72
11
 73
7
 74
0
 42
0.0000001
 43
0.0000001
 44
0.0000000001
 40
0.0
 40
0.0
 40
0.0
 40
0.0
 40
0.2488761544
 40
0.4983752991
 40
0.7486749566
 40
1.0
 40
1.0
 40
1.0
 40
1.0
 10
11.691134328
 20
8.4594510898
 30
0.0
 10
11.691134328
 20
8.4393356295
 30
0.0
 10
11.6924414599
 20
8.3990424796
 30
0.0
 10
11.698288919
 20
8.3387741852
 30
0.0
 10
11.7079619624
 20
8.278801232
 30
0.0
 10
11.7168723313
 20
8.2392189813
 30
0.0
 10
11.7219162034
 20
8.2195417545
 30
0.0
  0
SPLINE
  5
3A1
100
AcDbEntity
  8
0
100
AcDbSpline
 62
7
  6
CONTINUOUS
 70
0
 71
3
 72
33
 73
29
 74
0
 42
0.0000001
 43
0.0000001
 44
0.0000000001
 40
0.0
 40
0.0
 40
0.0
 40
0.0
 40
0.0353448596
 40
0.0703611245
 40
0.1050540357
 40
0.1394349894
 40
0.1735145659
 40
0.2073048364
 40
0.2408182966
 40
0.2740673449
 40
0.307064443
 40
0.3398212392
 40
0.4046454432
 40
0.4686259075
 40
0.5318131989
 40
0.5942285523
 40
0.6558570328
 40
0.7166383165
 40
0.7466801298
 40
0.776459921
 40
0.8059490335
 40
0.8351137662
 40
0.8639094425
 40
0.8922839928
 40
0.9201701752
 40
0.9474878788
 40
0.9741380828
 40
1.0
 40
1.0
 40
1.0
 40
1.0
 10
11.7219162034
 20
8.2195417545
 30
0.0
 10
11.7251804509
 20
8.2102180355
 30
0.0
 10
11.7320863996
 20
8.1917971331
 30
0.0
 10
11.743588703
 20
8.1647725235
 30
0.0
 10
11.7561345683
 20
8.1385142051
 30
0.0
 10
11.7696700047
 20
8.1130486412
 30
0.0
 10
11.7841415024
 20
8.0883955364
 30
0.0
 10
11.7994951115
 20
8.0645702667
 30
0.0
 10
11.8156777244
 20
8.0415837919
 30
0.0
 10
11.8326370709
 20
8.0194434134
 30
0.0
 10
11.8503225361
 20
7.9981527648
 30
0.0
 10
11.8747169841
 20
7.9709979921
 30
0.0
 10
11.9067833573
 20
7.9391409081
 30
0.0
 10
11.947538853
 20
7.9041669781
 30
0.0
 10
11.9900977477
 20
7.8725315634
 30
0.0
 10
12.0341326849
 20
7.8441886054
 30
0.0
 10
12.0793252202
 20
7.8190954329
 30
0.0
 10
12.1178373613
 20
7.8007941921
 30
0.0
 10
12.1489302606
 20
7.7877661287
 30
0.0
 10
12.1722447346
 20
7.7788369852
 30
0.0
 10
12.1955937804
 20
7.7707176445
 30
0.0
 10
12.2189231595
 20
7.7634153221
 30
0.0
 10
12.2421728723
 20
7.7569418834
 30
0.0
 10
12.2652737375
 20
7.7513122369
 30
0.0
 10
12.2881468164
 20
7.746547431
 30
0.0
 10
12.3106991951
 20
7.7426733245
 30
0.0
 10
12.3328203956
 20
7.7397230262
 30
0.0
 10
12.3474406528
 20
7.738376376
 30
0.0
 10
12.3546517372
 20
7.7378791535
 30
0.0
  0
SPLINE
  5
3A2
100
AcDbEntity
  8
0
100
AcDbSpline
 62
7
  6
CONTINUOUS
 70
0
 71
3
 72
41
 73
37
 74
0
 42
0.0000001
 43
0.0000001
 44
0.0000000001
 40
0.0
 40
0.0
 40
0.0
 40
0.0
 40
0.0311443731
 40
0.0624425498
 40
0.0938872324
 40
0.1254695881
 40
0.1571771015
 40
0.1889951224
 40
0.2209066715
 40
0.2528929757
 40
0.28493379
 40
0.3170078157
 40
0.3490931116
 40
0.3811675191
 40
0.4132090895
 40
0.4451965082
 40
0.4771095106
 40
0.5089292837
 40
0.5406388474
 40
0.5722234085
 40
0.6036706805
 40
0.6349711645
 40
0.6661183811
 40
0.6971090487
 40
0.7279432008
 40
0.7586242349
 40
0.7891588899
 40
0.8195571457
 40
0.8498320452
 40
0.8649308854
 40
0.8800050464
 40
0.9100832538
 40
0.9400926721
 40
0.9550812717
 40
0.9700610341
 40
1.0
 40
1.0
 40
1.0
 40
1.0
 10
7.0883475891
 20
9.6456750576
 30
0.0
 10
7.093866896
 20
9.6452922924
 30
0.0
 10
7.1049088529
 20
9.6441208545
 30
0.0
 10
7.1213378896
 20
9.6411700835
 30
0.0
 10
7.1375909969
 20
9.637036801
 30
0.0
 10
7.1535802949
 20
9.6317434379
 30
0.0
 10
7.1692209173
 20
9.6253182261
 30
0.0
 10
7.1844294087
 20
9.6177956084
 30
0.0
 10
7.199124756
 20
9.6092157533
 30
0.0
 10
7.2132286543
 20
9.5996244845
 30
0.0
 10
7.2266659577
 20
9.5890729754
 30
0.0
 10
7.2393650672
 20
9.5776175028
 30
0.0
 10
7.2512583087
 20
9.5653191404
 30
0.0
 10
7.2622822902
 20
9.5522434391
 30
0.0
 10
7.2723782359
 20
9.5384600801
 30
0.0
 10
7.2814922971
 20
9.5240425081
 30
0.0
 10
7.2895758365
 20
9.5090675437
 30
0.0
 10
7.296585688
 20
9.4936149804
 30
0.0
 10
7.3024843861
 20
9.4777671633
 30
0.0
 10
7.3072403641
 20
9.4616085553
 30
0.0
 10
7.3108281237
 20
9.4452252934
 30
0.0
 10
7.3132283741
 20
9.4287047358
 30
0.0
 10
7.3144281382
 20
9.4121350014
 30
0.0
 10
7.3144208296
 20
9.3956045099
 30
0.0
 10
7.3132062869
 20
9.379201498
 30
0.0
 10
7.3107908144
 20
9.3630136166
 30
0.0
 10
7.3071870456
 20
9.3471272249
 30
0.0
 10
7.302414304
 20
9.3316278178
 30
0.0
 10
7.2974785284
 20
9.3190896877
 30
0.0
 10
7.2929742913
 20
9.3093393908
 30
0.0
 10
7.2881134747
 20
9.2998010395
 30
0.0
 10
7.2813643861
 20
9.2882639622
 30
0.0
 10
7.2737473215
 20
9.2772989691
 30
0.0
 10
7.26716499
 20
9.2689176522
 30
0.0
 10
7.2602687479
 20
9.2608098313
 30
0.0
 10
7.2547435798
 20
9.2550378164
 30
0.0
 10
7.2509182886
 20
9.251342838
 30
0.0
  0
SPLINE
  5
3A3
100
AcDbEntity
  8
0
100
AcDbSpline
 62
7
  6
CONTINUOUS
 70
0
 71
3
 72
41
 73
37
 74
0
 42
0.0000001
 43
0.0000001
 44
0.0000000001
 40
0.0
 40
0.0
 40
0.0
 40
0.0
 40
0.0311443731
 40
0.0624425498
 40
0.0938872324
 40
0.1254695881
 40
0.1571771015
 40
0.1889951224
 40
0.2209066715
 40
0.2528929757
 40
0.28493379
 40
0.3170078157
 40
0.3490931116
 40
0.3811675191
 40
0.4132090895
 40
0.4451965082
 40
0.4771095106
 40
0.5089292837
 40
0.5406388474
 40
0.5722234085
 40
0.6036706805
 40
0.6349711645
 40
0.6661183811
 40
0.6971090487
 40
0.7279432008
 40
0.7586242349
 40
0.7891588899
 40
0.8195571457
 40
0.8498320452
 40
0.8649308854
 40
0.8800050464
 40
0.9100832538
 40
0.9400926721
 40
0.9550812717
 40
0.9700610341
 40
1.0
 40
1.0
 40
1.0
 40
1.0
 10
8.446439514
 20
9.5514910627
 30
0.0
 10
8.4519588209
 20
9.5511082975
 30
0.0
 10
8.4630007778
 20
9.5499368596
 30
0.0
 10
8.4794298145
 20
9.5469860886
 30
0.0
 10
8.4956829217
 20
9.5428528061
 30
0.0
 10
8.5116722198
 20
9.537559443
 30
0.0
 10
8.5273128422
 20
9.5311342312
 30
0.0
 10
8.5425213336
 20
9.5236116135
 30
0.0
 10
8.5572166809
 20
9.5150317584
 30
0.0
 10
8.5713205792
 20
9.5054404896
 30
0.0
 10
8.5847578826
 20
9.4948889805
 30
0.0
 10
8.5974569921
 20
9.483433508
 30
0.0
 10
8.6093502336
 20
9.4711351456
 30
0.0
 10
8.6203742151
 20
9.4580594442
 30
0.0
 10
8.6304701608
 20
9.4442760852
 30
0.0
 10
8.639584222
 20
9.4298585132
 30
0.0
 10
8.6476677613
 20
9.4148835489
 30
0.0
 10
8.6546776129
 20
9.3994309856
 30
0.0
 10
8.660576311
 20
9.3835831684
 30
0.0
 10
8.6653322889
 20
9.3674245604
 30
0.0
 10
8.6689200485
 20
9.3510412985
 30
0.0
 10
8.671320299
 20
9.3345207409
 30
0.0
 10
8.6725200631
 20
9.3179510065
 30
0.0
 10
8.6725127544
 20
9.301420515
 30
0.0
 10
8.6712982118
 20
9.2850175031
 30
0.0
 10
8.6688827393
 20
9.2688296217
 30
0.0
 10
8.6652789705
 20
9.2529432301
 30
0.0
 10
8.6605062289
 20
9.2374438229
 30
0.0
 10
8.6555704533
 20
9.2249056929
 30
0.0
 10
8.6510662161
 20
9.2151553959
 30
0.0
 10
8.6462053996
 20
9.2056170446
 30
0.0
 10
8.639456311
 20
9.1940799673
 30
0.0
 10
8.6318392464
 20
9.1831149742
 30
0.0
 10
8.6252569149
 20
9.1747336574
 30
0.0
 10
8.6183606728
 20
9.1666258364
 30
0.0
 10
8.6128355046
 20
9.1608538216
 30
0.0
 10
8.6090102135
 20
9.1571588431
 30
0.0
  0
SPLINE
  5
3A4
100
AcDbEntity
  8
0
100
AcDbSpline
 62
7
  6
CONTINUOUS
 70
0
 71
3
 72
41
 73
37
 74
0
 42
0.0000001
 43
0.0000001
 44
0.0000000001
 40
0.0
 40
0.0
 40
0.0
 40
0.0
 40
0.0311443731
 40
0.0624425498
 40
0.0938872324
 40
0.1254695881
 40
0.1571771015
 40
0.1889951224
 40
0.2209066715
 40
0.2528929757
 40
0.28493379
 40
0.3170078157
 40
0.3490931116
 40
0.3811675191
 40
0.4132090895
 40
0.4451965082
 40
0.4771095106
 40
0.5089292837
 40
0.5406388474
 40
0.5722234085
 40
0.6036706805
 40
0.6349711645
 40
0.6661183811
 40
0.6971090487
 40
0.7279432008
 40
0.7586242349
 40
0.7891588899
 40
0.8195571457
 40
0.8498320452
 40
0.8649308854
 40
0.8800050464
 40
0.9100832538
 40
0.9400926721
 40
0.9550812717
 40
0.9700610341
 40
1.0
 40
1.0
 40
1.0
 40
1.0
 10
11.1780777486
 20
9.5127356479
 30
0.0
 10
11.1835970556
 20
9.5123528827
 30
0.0
 10
11.1946390124
 20
9.5111814448
 30
0.0
 10
11.2110680491
 20
9.5082306738
 30
0.0
 10
11.2273211564
 20
9.5040973913
 30
0.0
 10
11.2433104544
 20
9.4988040282
 30
0.0
 10
11.2589510768
 20
9.4923788164
 30
0.0
 10
11.2741595683
 20
9.4848561987
 30
0.0
 10
11.2888549155
 20
9.4762763436
 30
0.0
 10
11.3029588138
 20
9.4666850748
 30
0.0
 10
11.3163961172
 20
9.4561335657
 30
0.0
 10
11.3290952267
 20
9.4446780931
 30
0.0
 10
11.3409884682
 20
9.4323797307
 30
0.0
 10
11.3520124497
 20
9.4193040294
 30
0.0
 10
11.3621083954
 20
9.4055206704
 30
0.0
 10
11.3712224566
 20
9.3911030984
 30
0.0
 10
11.379305996
 20
9.376128134
 30
0.0
 10
11.3863158475
 20
9.3606755707
 30
0.0
 10
11.3922145457
 20
9.3448277536
 30
0.0
 10
11.3969705236
 20
9.3286691456
 30
0.0
 10
11.4005582832
 20
9.3122858837
 30
0.0
 10
11.4029585336
 20
9.2957653261
 30
0.0
 10
11.4041582977
 20
9.2791955917
 30
0.0
 10
11.4041509891
 20
9.2626651002
 30
0.0
 10
11.4029364464
 20
9.2462620883
 30
0.0
 10
11.400520974
 20
9.2300742069
 30
0.0
 10
11.3969172051
 20
9.2141878152
 30
0.0
 10
11.3921444635
 20
9.1986884081
 30
0.0
 10
11.3872086879
 20
9.186150278
 30
0.0
 10
11.3827044508
 20
9.1763999811
 30
0.0
 10
11.3778436342
 20
9.1668616298
 30
0.0
 10
11.3710945456
 20
9.1553245525
 30
0.0
 10
11.363477481
 20
9.1443595594
 30
0.0
 10
11.3568951495
 20
9.1359782426
 30
0.0
 10
11.3499989074
 20
9.1278704216
 30
0.0
 10
11.3444737393
 20
9.1220984068
 30
0.0
 10
11.3406484482
 20
9.1184034283
 30
0.0
  0
SPLINE
  5
3A5
100
AcDbEntity
  8
0
100
AcDbSpline
 62
7
  6
CONTINUOUS
 70
0
 71
3
 72
41
 73
37
 74
0
 42
0.0000001
 43
0.0000001
 44
0.0000000001
 40
0.0
 40
0.0
 40
0.0
 40
0.0
 40
0.0311443731
 40
0.0624425498
 40
0.0938872324
 40
0.1254695881
 40
0.1571771015
 40
0.1889951224
 40
0.2209066715
 40
0.2528929757
 40
0.28493379
 40
0.3170078157
 40
0.3490931116
 40
0.3811675191
 40
0.4132090895
 40
0.4451965082
 40
0.4771095106
 40
0.5089292837
 40
0.5406388474
 40
0.5722234085
 40
0.6036706805
 40
0.6349711645
 40
0.6661183811
 40
0.6971090487
 40
0.7279432008
 40
0.7586242349
 40
0.7891588899
 40
0.8195571457
 40
0.8498320452
 40
0.8649308854
 40
0.8800050464
 40
0.9100832538
 40
0.9400926721
 40
0.9550812717
 40
0.9700610341
 40
1.0
 40
1.0
 40
1.0
 40
1.0
 10
12.8085607201
 20
9.3996612698
 30
0.0
 10
12.8140800271
 20
9.3992785045
 30
0.0
 10
12.8251219839
 20
9.3981070667
 30
0.0
 10
12.8415510207
 20
9.3951562956
 30
0.0
 10
12.8578041279
 20
9.3910230132
 30
0.0
 10
12.8737934259
 20
9.38572965
 30
0.0
 10
12.8894340483
 20
9.3793044383
 30
0.0
 10
12.9046425398
 20
9.3717818206
 30
0.0
 10
12.919337887
 20
9.3632019655
 30
0.0
 10
12.9334417853
 20
9.3536106967
 30
0.0
 10
12.9468790887
 20
9.3430591876
 30
0.0
 10
12.9595781982
 20
9.331603715
 30
0.0
 10
12.9714714398
 20
9.3193053526
 30
0.0
 10
12.9824954213
 20
9.3062296513
 30
0.0
 10
12.992591367
 20
9.2924462922
 30
0.0
 10
13.0017054281
 20
9.2780287202
 30
0.0
 10
13.0097889675
 20
9.2630537559
 30
0.0
 10
13.0167988191
 20
9.2476011926
 30
0.0
 10
13.0226975172
 20
9.2317533754
 30
0.0
 10
13.0274534951
 20
9.2155947674
 30
0.0
 10
13.0310412547
 20
9.1992115055
 30
0.0
 10
13.0334415051
 20
9.182690948
 30
0.0
 10
13.0346412692
 20
9.1661212136
 30
0.0
 10
13.0346339606
 20
9.1495907221
 30
0.0
 10
13.033419418
 20
9.1331877101
 30
0.0
 10
13.0310039455
 20
9.1169998288
 30
0.0
 10
13.0274001767
 20
9.1011134371
 30
0.0
 10
13.0226274351
 20
9.08561403
 30
0.0
 10
13.0176916594
 20
9.0730758999
 30
0.0
 10
13.0131874223
 20
9.063325603
 30
0.0
 10
13.0083266057
 20
9.0537872517
 30
0.0
 10
13.0015775171
 20
9.0422501744
 30
0.0
 10
12.9939604525
 20
9.0312851813
 30
0.0
 10
12.987378121
 20
9.0229038644
 30
0.0
 10
12.9804818789
 20
9.0147960435
 30
0.0
 10
12.9749567108
 20
9.0090240286
 30
0.0
 10
12.9711314197
 20
9.0053290501
 30
0.0
  0
SPLINE
  5
3A6
100
AcDbEntity
  8
0
100
AcDbSpline
 62
7
  6
CONTINUOUS
 70
0
 71
3
 72
41
 73
37
 74
0
 42
0.0000001
 43
0.0000001
 44
0.0000000001
 40
0.0
 40
0.0
 40
0.0
 40
0.0
 40
0.0311443731
 40
0.0624425498
 40
0.0938872324
 40
0.1254695881
 40
0.1571771015
 40
0.1889951224
 40
0.2209066715
 40
0.2528929757
 40
0.28493379
 40
0.3170078157
 40
0.3490931116
 40
0.3811675191
 40
0.4132090895
 40
0.4451965082
 40
0.4771095106
 40
0.5089292837
 40
0.5406388474
 40
0.5722234085
 40
0.6036706805
 40
0.6349711645
 40
0.6661183811
 40
0.6971090487
 40
0.7279432008
 40
0.7586242349
 40
0.7891588899
 40
0.8195571457
 40
0.8498320452
 40
0.8649308854
 40
0.8800050464
 40
0.9100832538
 40
0.9400926721
 40
0.9550812717
 40
0.9700610341
 40
1.0
 40
1.0
 40
1.0
 40
1.0
 10
7.0883475891
 20
6.9893788779
 30
0.0
 10
7.093866896
 20
6.9889961127
 30
0.0
 10
7.1049088529
 20
6.9878246748
 30
0.0
 10
7.1213378896
 20
6.9848739038
 30
0.0
 10
7.1375909969
 20
6.9807406213
 30
0.0
 10
7.1535802949
 20
6.9754472582
 30
0.0
 10
7.1692209173
 20
6.9690220464
 30
0.0
 10
7.1844294087
 20
6.9614994287
 30
0.0
 10
7.199124756
 20
6.9529195736
 30
0.0
 10
7.2132286543
 20
6.9433283048
 30
0.0
 10
7.2266659577
 20
6.9327767957
 30
0.0
 10
7.2393650672
 20
6.9213213232
 30
0.0
 10
7.2512583087
 20
6.9090229608
 30
0.0
 10
7.2622822902
 20
6.8959472594
 30
0.0
 10
7.2723782359
 20
6.8821639004
 30
0.0
 10
7.2814922971
 20
6.8677463284
 30
0.0
 10
7.2895758365
 20
6.8527713641
 30
0.0
 10
7.296585688
 20
6.8373188007
 30
0.0
 10
7.3024843861
 20
6.8214709836
 30
0.0
 10
7.3072403641
 20
6.8053123756
 30
0.0
 10
7.3108281237
 20
6.7889291137
 30
0.0
 10
7.3132283741
 20
6.7724085561
 30
0.0
 10
7.3144281382
 20
6.7558388217
 30
0.0
 10
7.3144208296
 20
6.7393083302
 30
0.0
 10
7.3132062869
 20
6.7229053183
 30
0.0
 10
7.3107908144
 20
6.7067174369
 30
0.0
 10
7.3071870456
 20
6.6908310452
 30
0.0
 10
7.302414304
 20
6.6753316381
 30
0.0
 10
7.2974785284
 20
6.6627935081
 30
0.0
 10
7.2929742913
 20
6.6530432111
 30
0.0
 10
7.2881134747
 20
6.6435048598
 30
0.0
 10
7.2813643861
 20
6.6319677825
 30
0.0
 10
7.2737473215
 20
6.6210027894
 30
0.0
 10
7.26716499
 20
6.6126214726
 30
0.0
 10
7.2602687479
 20
6.6045136516
 30
0.0
 10
7.2547435798
 20
6.5987416368
 30
0.0
 10
7.2509182886
 20
6.5950466583
 30
0.0
  0
SPLINE
  5
3A7
100
AcDbEntity
  8
0
100
AcDbSpline
 62
7
  6
CONTINUOUS
 70
0
 71
3
 72
41
 73
37
 74
0
 42
0.0000001
 43
0.0000001
 44
0.0000000001
 40
0.0
 40
0.0
 40
0.0
 40
0.0
 40
0.0311443731
 40
0.0624425498
 40
0.0938872324
 40
0.1254695881
 40
0.1571771015
 40
0.1889951224
 40
0.2209066715
 40
0.2528929757
 40
0.28493379
 40
0.3170078157
 40
0.3490931116
 40
0.3811675191
 40
0.4132090895
 40
0.4451965082
 40
0.4771095106
 40
0.5089292837
 40
0.5406388474
 40
0.5722234085
 40
0.6036706805
 40
0.6349711645
 40
0.6661183811
 40
0.6971090487
 40
0.7279432008
 40
0.7586242349
 40
0.7891588899
 40
0.8195571457
 40
0.8498320452
 40
0.8649308854
 40
0.8800050464
 40
0.9100832538
 40
0.9400926721
 40
0.9550812717
 40
0.9700610341
 40
1.0
 40
1.0
 40
1.0
 40
1.0
 10
8.446439514
 20
6.895194883
 30
0.0
 10
8.4519588209
 20
6.8948121178
 30
0.0
 10
8.4630007778
 20
6.89364068
 30
0.0
 10
8.4794298145
 20
6.8906899089
 30
0.0
 10
8.4956829217
 20
6.8865566264
 30
0.0
 10
8.5116722198
 20
6.8812632633
 30
0.0
 10
8.5273128422
 20
6.8748380515
 30
0.0
 10
8.5425213336
 20
6.8673154338
 30
0.0
 10
8.5572166809
 20
6.8587355787
 30
0.0
 10
8.5713205792
 20
6.8491443099
 30
0.0
 10
8.5847578826
 20
6.8385928008
 30
0.0
 10
8.5974569921
 20
6.8271373283
 30
0.0
 10
8.6093502336
 20
6.8148389659
 30
0.0
 10
8.6203742151
 20
6.8017632645
 30
0.0
 10
8.6304701608
 20
6.7879799055
 30
0.0
 10
8.639584222
 20
6.7735623335
 30
0.0
 10
8.6476677613
 20
6.7585873692
 30
0.0
 10
8.6546776129
 20
6.7431348059
 30
0.0
 10
8.660576311
 20
6.7272869887
 30
0.0
 10
8.6653322889
 20
6.7111283807
 30
0.0
 10
8.6689200485
 20
6.6947451188
 30
0.0
 10
8.671320299
 20
6.6782245612
 30
0.0
 10
8.6725200631
 20
6.6616548268
 30
0.0
 10
8.6725127544
 20
6.6451243353
 30
0.0
 10
8.6712982118
 20
6.6287213234
 30
0.0
 10
8.6688827393
 20
6.6125334421
 30
0.0
 10
8.6652789705
 20
6.5966470504
 30
0.0
 10
8.6605062289
 20
6.5811476432
 30
0.0
 10
8.6555704533
 20
6.5686095132
 30
0.0
 10
8.6510662161
 20
6.5588592162
 30
0.0
 10
8.6462053996
 20
6.5493208649
 30
0.0
 10
8.639456311
 20
6.5377837876
 30
0.0
 10
8.6318392464
 20
6.5268187945
 30
0.0
 10
8.6252569149
 20
6.5184374777
 30
0.0
 10
8.6183606728
 20
6.5103296567
 30
0.0
 10
8.6128355046
 20
6.5045576419
 30
0.0
 10
8.6090102135
 20
6.5008626634
 30
0.0
  0
SPLINE
  5
3A8
100
AcDbEntity
  8
0
100
AcDbSpline
 62
7
  6
CONTINUOUS
 70
0
 71
3
 72
41
 73
37
 74
0
 42
0.0000001
 43
0.0000001
 44
0.0000000001
 40
0.0
 40
0.0
 40
0.0
 40
0.0
 40
0.0311443731
 40
0.0624425498
 40
0.0938872324
 40
0.1254695881
 40
0.1571771015
 40
0.1889951224
 40
0.2209066715
 40
0.2528929757
 40
0.28493379
 40
0.3170078157
 40
0.3490931116
 40
0.3811675191
 40
0.4132090895
 40
0.4451965082
 40
0.4771095106
 40
0.5089292837
 40
0.5406388474
 40
0.5722234085
 40
0.6036706805
 40
0.6349711645
 40
0.6661183811
 40
0.6971090487
 40
0.7279432008
 40
0.7586242349
 40
0.7891588899
 40
0.8195571457
 40
0.8498320452
 40
0.8649308854
 40
0.8800050464
 40
0.9100832538
 40
0.9400926721
 40
0.9550812717
 40
0.9700610341
 40
1.0
 40
1.0
 40
1.0
 40
1.0
 10
11.1780777486
 20
6.5550706727
 30
0.0
 10
11.1835970556
 20
6.5546879075
 30
0.0
 10
11.1946390124
 20
6.5535164696
 30
0.0
 10
11.2110680491
 20
6.5505656986
 30
0.0
 10
11.2273211564
 20
6.5464324161
 30
0.0
 10
11.2433104544
 20
6.541139053
 30
0.0
 10
11.2589510768
 20
6.5347138412
 30
0.0
 10
11.2741595683
 20
6.5271912235
 30
0.0
 10
11.2888549155
 20
6.5186113684
 30
0.0
 10
11.3029588138
 20
6.5090200996
 30
0.0
 10
11.3163961172
 20
6.4984685905
 30
0.0
 10
11.3290952267
 20
6.4870131179
 30
0.0
 10
11.3409884682
 20
6.4747147555
 30
0.0
 10
11.3520124497
 20
6.4616390542
 30
0.0
 10
11.3621083954
 20
6.4478556952
 30
0.0
 10
11.3712224566
 20
6.4334381232
 30
0.0
 10
11.379305996
 20
6.4184631588
 30
0.0
 10
11.3863158475
 20
6.4030105955
 30
0.0
 10
11.3922145457
 20
6.3871627784
 30
0.0
 10
11.3969705236
 20
6.3710041704
 30
0.0
 10
11.4005582832
 20
6.3546209085
 30
0.0
 10
11.4029585336
 20
6.3381003509
 30
0.0
 10
11.4041582977
 20
6.3215306165
 30
0.0
 10
11.4041509891
 20
6.305000125
 30
0.0
 10
11.4029364464
 20
6.2885971131
 30
0.0
 10
11.400520974
 20
6.2724092317
 30
0.0
 10
11.3969172051
 20
6.25652284
 30
0.0
 10
11.3921444635
 20
6.2410234329
 30
0.0
 10
11.3872086879
 20
6.2284853028
 30
0.0
 10
11.3827044508
 20
6.2187350059
 30
0.0
 10
11.3778436342
 20
6.2091966546
 30
0.0
 10
11.3710945456
 20
6.1976595773
 30
0.0
 10
11.363477481
 20
6.1866945842
 30
0.0
 10
11.3568951495
 20
6.1783132674
 30
0.0
 10
11.3499989074
 20
6.1702054464
 30
0.0
 10
11.3444737393
 20
6.1644334315
 30
0.0
 10
11.3406484482
 20
6.1607384531
 30
0.0
  0
SPLINE
  5
3A9
100
AcDbEntity
  8
0
100
AcDbSpline
 62
7
  6
CONTINUOUS
 70
0
 71
3
 72
41
 73
37
 74
0
 42
0.0000001
 43
0.0000001
 44
0.0000000001
 40
0.0
 40
0.0
 40
0.0
 40
0.0
 40
0.0311443731
 40
0.0624425498
 40
0.0938872324
 40
0.1254695881
 40
0.1571771015
 40
0.1889951224
 40
0.2209066715
 40
0.2528929757
 40
0.28493379
 40
0.3170078157
 40
0.3490931116
 40
0.3811675191
 40
0.4132090895
 40
0.4451965082
 40
0.4771095106
 40
0.5089292837
 40
0.5406388474
 40
0.5722234085
 40
0.6036706805
 40
0.6349711645
 40
0.6661183811
 40
0.6971090487
 40
0.7279432008
 40
0.7586242349
 40
0.7891588899
 40
0.8195571457
 40
0.8498320452
 40
0.8649308854
 40
0.8800050464
 40
0.9100832538
 40
0.9400926721
 40
0.9550812717
 40
0.9700610341
 40
1.0
 40
1.0
 40
1.0
 40
1.0
 10
12.8085607201
 20
6.4419962946
 30
0.0
 10
12.8140800271
 20
6.4416135293
 30
0.0
 10
12.8251219839
 20
6.4404420915
 30
0.0
 10
12.8415510207
 20
6.4374913204
 30
0.0
 10
12.8578041279
 20
6.433358038
 30
0.0
 10
12.8737934259
 20
6.4280646748
 30
0.0
 10
12.8894340483
 20
6.4216394631
 30
0.0
 10
12.9046425398
 20
6.4141168454
 30
0.0
 10
12.919337887
 20
6.4055369903
 30
0.0
 10
12.9334417853
 20
6.3959457215
 30
0.0
 10
12.9468790887
 20
6.3853942123
 30
0.0
 10
12.9595781982
 20
6.3739387398
 30
0.0
 10
12.9714714398
 20
6.3616403774
 30
0.0
 10
12.9824954213
 20
6.3485646761
 30
0.0
 10
12.992591367
 20
6.334781317
 30
0.0
 10
13.0017054281
 20
6.320363745
 30
0.0
 10
13.0097889675
 20
6.3053887807
 30
0.0
 10
13.0167988191
 20
6.2899362174
 30
0.0
 10
13.0226975172
 20
6.2740884002
 30
0.0
 10
13.0274534951
 20
6.2579297922
 30
0.0
 10
13.0310412547
 20
6.2415465303
 30
0.0
 10
13.0334415051
 20
6.2250259728
 30
0.0
 10
13.0346412692
 20
6.2084562384
 30
0.0
 10
13.0346339606
 20
6.1919257469
 30
0.0
 10
13.033419418
 20
6.1755227349
 30
0.0
 10
13.0310039455
 20
6.1593348536
 30
0.0
 10
13.0274001767
 20
6.1434484619
 30
0.0
 10
13.0226274351
 20
6.1279490547
 30
0.0
 10
13.0176916594
 20
6.1154109247
 30
0.0
 10
13.0131874223
 20
6.1056606278
 30
0.0
 10
13.0083266057
 20
6.0961222765
 30
0.0
 10
13.0015775171
 20
6.0845851992
 30
0.0
 10
12.9939604525
 20
6.0736202061
 30
0.0
 10
12.987378121
 20
6.0652388892
 30
0.0
 10
12.9804818789
 20
6.0571310683
 30
0.0
 10
12.9749567108
 20
6.0513590534
 30
0.0
 10
12.9711314197
 20
6.0476640749
 30
0.0
  0
SPLINE
  5
3AA
100
AcDbEntity
  8
0
100
AcDbSpline
 62
7
  6
CONTINUOUS
 70
0
 71
3
 72
18
 73
14
 74
0
 42
0.0000001
 43
0.0000001
 44
0.0000000001
 40
0.0
 40
0.0
 40
0.0
 40
0.0
 40
0.1140430341
 40
0.2338265694
 40
0.3579427002
 40
0.4851575178
 40
0.6142679099
 40
0.679158416
 40
0.7440408649
 40
0.8087416448
 40
0.8730845092
 40
0.9368933505
 40
1.0
 40
1.0
 40
1.0
 40
1.0
 10
11.4534695875
 20
8.5869627127
 30
0.0
 10
11.4394106259
 20
8.5683170911
 30
0.0
 10
11.4115060109
 20
8.5293805244
 30
0.0
 10
11.3721227466
 20
8.4675180955
 30
0.0
 10
11.335407672
 20
8.4009183751
 30
0.0
 10
11.3027415385
 20
8.3301181486
 30
0.0
 10
11.2800384784
 20
8.2682932839
 30
0.0
 10
11.2651317712
 20
8.2174055491
 30
0.0
 10
11.2557415174
 20
8.1786908734
 30
0.0
 10
11.2482887198
 20
8.1396705205
 30
0.0
 10
11.2428793596
 20
8.1005348698
 30
0.0
 10
11.2395938261
 20
8.06149171
 30
0.0
 10
11.2388483891
 20
8.0354983885
 30
0.0
 10
11.2388483891
 20
8.0225763946
 30
0.0
  0
SPLINE
  5
3AB
100
AcDbEntity
  8
0
100
AcDbSpline
 62
7
  6
CONTINUOUS
 70
0
 71
3
 72
53
 73
49
 74
0
 42
0.0000001
 43
0.0000001
 44
0.0000000001
 40
0.0
 40
0.0
 40
0.0
 40
0.0
 40
0.0077405307
 40
0.0160546246
 40
0.0249609692
 40
0.0344724762
 40
0.0445959114
 40
0.0553329712
 40
0.066681335
 40
0.0786355243
 40
0.0911869322
 40
0.1043246497
 40
0.1180353458
 40
0.1323039363
 40
0.1471133994
 40
0.1624452609
 40
0.1945937248
 40
0.2285756921
 40
0.2641983538
 40
0.3012539429
 40
0.3395222054
 40
0.3787726663
 40
0.4187667714
 40
0.459259952
 40
0.5000036485
 40
0.5407473111
 40
0.5812403903
 40
0.6212343274
 40
0.6604845551
 40
0.6987525208
 40
0.7358077523
 40
0.7714299985
 40
0.805411496
 40
0.8375594404
 40
0.8528910252
 40
0.8677002009
 40
0.8819684947
 40
0.8956788859
 40
0.9088162898
 40
0.9213673754
 40
0.9333212433
 40
0.9446692867
 40
0.9554059946
 40
0.9655290742
 40
0.9750403558
 40
0.9839464252
 40
0.992259733
 40
1.0
 40
1.0
 40
1.0
 40
1.0
 10
12.6362962224
 20
10.2657532532
 30
0.0
 10
12.6352430092
 20
10.2647732051
 30
0.0
 10
12.6329757049
 20
10.2628284325
 30
0.0
 10
12.6292563446
 20
10.2600508094
 30
0.0
 10
12.6251058449
 20
10.2573151213
 30
0.0
 10
12.6205310978
 20
10.2546256891
 30
0.0
 10
12.6155391534
 20
10.2519864919
 30
0.0
 10
12.6101379408
 20
10.2494018214
 30
0.0
 10
12.6043361581
 20
10.246875778
 30
0.0
 10
12.5981431557
 20
10.2444125662
 30
0.0
 10
12.5915690018
 20
10.2420161218
 30
0.0
 10
12.5846243886
 20
10.2396905063
 30
0.0
 10
12.5773206786
 20
10.2374394568
 30
0.0
 10
12.5696698228
 20
10.2352667977
 30
0.0
 10
12.5616843624
 20
10.2331760162
 30
0.0
 10
12.5504297861
 20
10.2304592383
 30
0.0
 10
12.5356172813
 20
10.2273085219
 30
0.0
 10
12.517001054
 20
10.2239618394
 30
0.0
 10
12.4973948249
 20
10.22101465
 30
0.0
 10
12.4769275195
 20
10.2184866665
 30
0.0
 10
12.4557335839
 20
10.216394854
 30
0.0
 10
12.4339524395
 20
10.2147532137
 30
0.0
 10
12.4117274201
 20
10.2135727301
 30
0.0
 10
12.3892048348
 20
10.2128612953
 30
0.0
 10
12.3665329785
 20
10.2126236638
 30
0.0
 10
12.3438611423
 20
10.2128614235
 30
0.0
 10
12.3213386174
 20
10.2135729858
 30
0.0
 10
12.2991136982
 20
10.2147535951
 30
0.0
 10
12.2773326931
 20
10.2163953585
 30
0.0
 10
12.2561389351
 20
10.2184872908
 30
0.0
 10
12.2356718443
 20
10.22101539
 30
0.0
 10
12.2160658653
 20
10.2239626899
 30
0.0
 10
12.1974499221
 20
10.2273094774
 30
0.0
 10
12.1826376757
 20
10.230460279
 30
0.0
 10
12.1713833225
 20
10.2331771224
 30
0.0
 10
12.1633980392
 20
10.2352679491
 30
0.0
 10
12.1557473674
 20
10.2374406514
 30
0.0
 10
12.1484438482
 20
10.2396917425
 30
0.0
 10
12.1414994324
 20
10.2420173971
 30
0.0
 10
12.134925481
 20
10.2444138777
 30
0.0
 10
12.1287326857
 20
10.2468771258
 30
0.0
 10
12.1229311197
 20
10.2494032045
 30
0.0
 10
12.1175301304
 20
10.2519878989
 30
0.0
 10
12.112538395
 20
10.2546271209
 30
0.0
 10
12.1079638636
 20
10.2573166077
 30
0.0
 10
12.1038136544
 20
10.2600523003
 30
0.0
 10
12.1000945515
 20
10.2628298566
 30
0.0
 10
12.097827477
 20
10.2647745997
 30
0.0
 10
12.0967743438
 20
10.2657546617
 30
0.0
  0
SPLINE
  5
3AC
100
AcDbEntity
  8
0
100
AcDbSpline
 62
7
  6
CONTINUOUS
 70
0
 71
3
 72
23
 73
19
 74
0
 42
0.0000001
 43
0.0000001
 44
0.0000000001
 40
0.0
 40
0.0
 40
0.0
 40
0.0
 40
0.0489748041
 40
0.0983507488
 40
0.1485185183
 40
0.1998490661
 40
0.252686224
 40
0.3073426159
 40
0.3640964947
 40
0.4231927276
 40
0.4848429593
 40
0.5492286307
 40
0.6165035251
 40
0.686796058
 40
0.7602133597
 40
0.8368421045
 40
0.9167527388
 40
1.0
 40
1.0
 40
1.0
 40
1.0
 10
14.6001333096
 20
7.4583578344
 30
0.0
 10
14.5981198037
 20
7.4584974634
 30
0.0
 10
14.5940869843
 20
7.4589685626
 30
0.0
 10
14.5880921609
 20
7.4602439464
 30
0.0
 10
14.5821452598
 20
7.4620878611
 30
0.0
 10
14.5762509406
 20
7.4644982836
 30
0.0
 10
14.570412455
 20
7.4674727419
 30
0.0
 10
14.5646330973
 20
7.4710088092
 30
0.0
 10
14.5589155998
 20
7.4751035826
 30
0.0
 10
14.5532627837
 20
7.4797543978
 30
0.0
 10
14.5476771913
 20
7.4849582327
 30
0.0
 10
14.542161447
 20
7.4907120597
 30
0.0
 10
14.536718204
 20
7.4970126603
 30
0.0
 10
14.5313499986
 20
7.503856514
 30
0.0
 10
14.526059628
 20
7.5112399971
 30
0.0
 10
14.5208496129
 20
7.5191590842
 30
0.0
 10
14.5157228074
 20
7.5276094808
 30
0.0
 10
14.5124299082
 20
7.5334736025
 30
0.0
 10
14.5107958505
 20
7.536490232
 30
0.0
  0
SPLINE
  5
3AD
100
AcDbEntity
  8
0
100
AcDbSpline
 62
7
  6
CONTINUOUS
 70
0
 71
3
 72
49
 73
45
 74
0
 42
0.0000001
 43
0.0000001
 44
0.0000000001
 40
0.0
 40
0.0
 40
0.0
 40
0.0
 40
0.0149718081
 40
0.0299466748
 40
0.0449276404
 40
0.059917709
 40
0.0749198276
 40
0.0899368702
 40
0.1049716217
 40
0.120026759
 40
0.1351048351
 40
0.1502082677
 40
0.1653393229
 40
0.1805001009
 40
0.1956925286
 40
0.2109183481
 40
0.2261791043
 40
0.2414761418
 40
0.256810598
 40
0.2721833946
 40
0.287595237
 40
0.3030466133
 40
0.3340634927
 40
0.3652389307
 40
0.3965689749
 40
0.4280463623
 40
0.4596607137
 40
0.4913987952
 40
0.5232448251
 40
0.5551808189
 40
0.5871869764
 40
0.6192420905
 40
0.6513239761
 40
0.6834099169
 40
0.7154771164
 40
0.7475031494
 40
0.779466411
 40
0.8113465537
 40
0.8431249023
 40
0.8747848503
 40
0.906312225
 40
0.9376956122
 40
0.9689264437
 40
1.0
 40
1.0
 40
1.0
 40
1.0
 10
11.2915828977
 20
8.4638423217
 30
0.0
 10
11.2998785198
 20
8.4718552992
 30
0.0
 10
11.3167919359
 20
8.4875548955
 30
0.0
 10
11.3430806884
 20
8.5100799686
 30
0.0
 10
11.370254571
 20
8.5315525085
 30
0.0
 10
11.3982757155
 20
8.5519424191
 30
0.0
 10
11.4271057166
 20
8.5712217417
 30
0.0
 10
11.4567048026
 20
8.5893639993
 30
0.0
 10
11.4870322624
 20
8.6063442292
 30
0.0
 10
11.5180463893
 20
8.6221390064
 30
0.0
 10
11.5497044543
 20
8.6367266995
 30
0.0
 10
11.5819628936
 20
8.6500872577
 30
0.0
 10
11.6147773492
 20
8.6622022306
 30
0.0
 10
11.6481026345
 20
8.6730550475
 30
0.0
 10
11.6818928909
 20
8.6826308275
 30
0.0
 10
11.7161016511
 20
8.6909163304
 30
0.0
 10
11.750681837
 20
8.6979002348
 30
0.0
 10
11.7855858579
 20
8.7035730127
 30
0.0
 10
11.8207657584
 20
8.7079268007
 30
0.0
 10
11.8561729752
 20
8.7109556697
 30
0.0
 10
11.8917594273
 20
8.7126554996
 30
0.0
 10
11.939435847
 20
8.7131475822
 30
0.0
 10
11.999246934
 20
8.7104194502
 30
0.0
 10
12.0708432622
 20
8.7018393806
 30
0.0
 10
12.1419733855
 20
8.6879971171
 30
0.0
 10
12.2122439313
 20
8.6689692432
 30
0.0
 10
12.2812698403
 20
8.6448611182
 30
0.0
 10
12.348672038
 20
8.6158056926
 30
0.0
 10
12.4140806433
 20
8.5819629351
 30
0.0
 10
12.4771368024
 20
8.5435191756
 30
0.0
 10
12.5374944895
 20
8.5006856653
 30
0.0
 10
12.5948225307
 20
8.453697758
 30
0.0
 10
12.6488064186
 20
8.4028135661
 30
0.0
 10
12.6991497868
 20
8.3483123306
 30
0.0
 10
12.7455763546
 20
8.2904932557
 30
0.0
 10
12.7878312005
 20
8.2296736255
 30
0.0
 10
12.8256820964
 20
8.1661871046
 30
0.0
 10
12.8589211052
 20
8.1003821105
 30
0.0
 10
12.8873653024
 20
8.0326197143
 30
0.0
 10
12.910858008
 20
7.9632716779
 30
0.0
 10
12.9292697707
 20
7.8927190451
 30
0.0
 10
12.9424986067
 20
7.8213478263
 30
0.0
 10
12.9504713358
 20
7.7495550562
 30
0.0
 10
12.952257067
 20
7.7015399502
 30
0.0
 10
12.952257067
 20
7.6776021857
 30
0.0
  0
SPLINE
  5
3AE
100
AcDbEntity
  8
0
100
AcDbSpline
 62
7
  6
CONTINUOUS
 70
0
 71
3
 72
41
 73
37
 74
0
 42
0.0000001
 43
0.0000001
 44
0.0000000001
 40
0.0
 40
0.0
 40
0.0
 40
0.0
 40
0.0149724862
 40
0.0299480307
 40
0.0449296746
 40
0.0599204222
 40
0.0899350731
 40
0.1200204959
 40
0.1501975964
 40
0.1804850878
 40
0.2108990702
 40
0.2414526838
 40
0.2721558423
 40
0.303015057
 40
0.3340333403
 40
0.3652101893
 40
0.3965416515
 40
0.4280204628
 40
0.4596362457
 40
0.4913757643
 40
0.5232232351
 40
0.5551606749
 40
0.587168282
 40
0.6192248472
 40
0.6513081855
 40
0.6833955794
 40
0.7154642309
 40
0.7474917144
 40
0.779456424
 40
0.8113380097
 40
0.8431177978
 40
0.8747791805
 40
0.9063079772
 40
0.937692809
 40
0.9689250164
 40
1.0
 40
1.0
 40
1.0
 40
1.0
 10
7.2393439034
 20
8.577097711
 30
0.0
 10
7.2455656196
 20
8.583107448
 30
0.0
 10
7.258250689
 20
8.5948821728
 30
0.0
 10
7.2779671776
 20
8.6117759408
 30
0.0
 10
7.298347856
 20
8.6278805457
 30
0.0
 10
7.3263769855
 20
8.6482764912
 30
0.0
 10
7.3629525008
 20
8.6716992105
 30
0.0
 10
7.4090032953
 20
8.6962992762
 30
0.0
 10
7.4569872095
 20
8.7172752479
 30
0.0
 10
7.5066379457
 20
8.7345107017
 30
0.0
 10
7.5576823156
 20
8.7479115887
 30
0.0
 10
7.6098389881
 20
8.7574046563
 30
0.0
 10
7.6628208154
 20
8.7629384183
 30
0.0
 10
7.7163362475
 20
8.7644831105
 30
0.0
 10
7.7700909638
 20
8.7620308645
 30
0.0
 10
7.8237894735
 20
8.7555958757
 30
0.0
 10
7.877136742
 20
8.7452141687
 30
0.0
 10
7.9298397726
 20
8.7309433269
 30
0.0
 10
7.9816091897
 20
8.7128622131
 30
0.0
 10
8.0321608535
 20
8.6910706343
 30
0.0
 10
8.0812173519
 20
8.6656886243
 30
0.0
 10
8.1285094791
 20
8.6368557863
 30
0.0
 10
8.1737777519
 20
8.6047306412
 30
0.0
 10
8.2167738205
 20
8.5694897331
 30
0.0
 10
8.2572617509
 20
8.5313265821
 30
0.0
 10
8.2950192974
 20
8.4904506541
 30
0.0
 10
8.3298392321
 20
8.4470863349
 30
0.0
 10
8.3615303759
 20
8.4014716015
 30
0.0
 10
8.3899186013
 20
8.3538567244
 30
0.0
 10
8.4148478321
 20
8.3045029473
 30
0.0
 10
8.436180983
 20
8.253681137
 30
0.0
 10
8.4538005692
 20
8.2016701153
 30
0.0
 10
8.4676093721
 20
8.1487556076
 30
0.0
 10
8.4775309794
 20
8.0952271886
 30
0.0
 10
8.4835105686
 20
8.0413825979
 30
0.0
 10
8.4848498557
 20
8.005371268
 30
0.0
 10
8.4848498557
 20
7.9874179281
 30
0.0
  0
SPLINE
  5
3AF
100
AcDbEntity
  8
0
100
AcDbSpline
 62
7
  6
CONTINUOUS
 70
0
 71
3
 72
15
 73
11
 74
0
 42
0.0000001
 43
0.0000001
 44
0.0000000001
 40
0.0
 40
0.0
 40
0.0
 40
0.0
 40
0.123317125
 40
0.2468171892
 40
0.3706750004
 40
0.49504957
 40
0.620077358
 40
0.7458670408
 40
0.8724927714
 40
1.0
 40
1.0
 40
1.0
 40
1.0
 10
12.6459900206
 20
6.3842752007
 30
0.0
 10
12.6512410074
 20
6.3893473071
 30
0.0
 10
12.6623065869
 20
6.3989411149
 30
0.0
 10
12.6803666411
 20
6.4114776602
 30
0.0
 10
12.6997186142
 20
6.4220457778
 30
0.0
 10
12.7201643761
 20
6.43053694
 30
0.0
 10
12.7414977282
 20
6.4368667396
 30
0.0
 10
12.7635037675
 20
6.4409719112
 30
0.0
 10
12.7859578473
 20
6.4428125269
 30
0.0
 10
12.8010301198
 20
6.4425185435
 30
0.0
 10
12.8085607201
 20
6.4419962946
 30
0.0
  0
SPLINE
  5
3B0
100
AcDbEntity
  8
0
100
AcDbSpline
 62
7
  6
CONTINUOUS
 70
0
 71
3
 72
15
 73
11
 74
0
 42
0.0000001
 43
0.0000001
 44
0.0000000001
 40
0.0
 40
0.0
 40
0.0
 40
0.0
 40
0.123317125
 40
0.2468171892
 40
0.3706750004
 40
0.49504957
 40
0.620077358
 40
0.7458670408
 40
0.8724927714
 40
1.0
 40
1.0
 40
1.0
 40
1.0
 10
11.0155070491
 20
6.4973495789
 30
0.0
 10
11.0207580359
 20
6.5024216852
 30
0.0
 10
11.0318236154
 20
6.5120154931
 30
0.0
 10
11.0498836696
 20
6.5245520383
 30
0.0
 10
11.0692356426
 20
6.5351201559
 30
0.0
 10
11.0896814045
 20
6.5436113181
 30
0.0
 10
11.1110147567
 20
6.5499411178
 30
0.0
 10
11.133020796
 20
6.5540462893
 30
0.0
 10
11.1554748757
 20
6.555886905
 30
0.0
 10
11.1705471482
 20
6.5555929216
 30
0.0
 10
11.1780777486
 20
6.5550706727
 30
0.0
  0
SPLINE
  5
3B1
100
AcDbEntity
  8
0
100
AcDbSpline
 62
7
  6
CONTINUOUS
 70
0
 71
3
 72
15
 73
11
 74
0
 42
0.0000001
 43
0.0000001
 44
0.0000000001
 40
0.0
 40
0.0
 40
0.0
 40
0.0
 40
0.123317125
 40
0.2468171892
 40
0.3706750004
 40
0.49504957
 40
0.620077358
 40
0.7458670408
 40
0.8724927714
 40
1.0
 40
1.0
 40
1.0
 40
1.0
 10
8.2838688144
 20
6.8374737892
 30
0.0
 10
8.2891198013
 20
6.8425458956
 30
0.0
 10
8.3001853807
 20
6.8521397034
 30
0.0
 10
8.318245435
 20
6.8646762486
 30
0.0
 10
8.337597408
 20
6.8752443662
 30
0.0
 10
8.3580431699
 20
6.8837355284
 30
0.0
 10
8.379376522
 20
6.8900653281
 30
0.0
 10
8.4013825614
 20
6.8941704997
 30
0.0
 10
8.4238366411
 20
6.8960111154
 30
0.0
 10
8.4389089136
 20
6.8957171319
 30
0.0
 10
8.446439514
 20
6.895194883
 30
0.0
  0
SPLINE
  5
3B2
100
AcDbEntity
  8
0
100
AcDbSpline
 62
7
  6
CONTINUOUS
 70
0
 71
3
 72
15
 73
11
 74
0
 42
0.0000001
 43
0.0000001
 44
0.0000000001
 40
0.0
 40
0.0
 40
0.0
 40
0.0
 40
0.123317125
 40
0.2468171892
 40
0.3706750004
 40
0.49504957
 40
0.620077358
 40
0.7458670408
 40
0.8724927714
 40
1.0
 40
1.0
 40
1.0
 40
1.0
 10
6.9257768895
 20
6.9316577841
 30
0.0
 10
6.9310278764
 20
6.9367298904
 30
0.0
 10
6.9420934558
 20
6.9463236983
 30
0.0
 10
6.9601535101
 20
6.9588602435
 30
0.0
 10
6.9795054831
 20
6.9694283611
 30
0.0
 10
6.999951245
 20
6.9779195233
 30
0.0
 10
7.0212845972
 20
6.984249323
 30
0.0
 10
7.0432906365
 20
6.9883544945
 30
0.0
 10
7.0657447162
 20
6.9901951103
 30
0.0
 10
7.0808169887
 20
6.9899011268
 30
0.0
 10
7.0883475891
 20
6.9893788779
 30
0.0
  0
SPLINE
  5
3B3
100
AcDbEntity
  8
0
100
AcDbSpline
 62
7
  6
CONTINUOUS
 70
0
 71
3
 72
15
 73
11
 74
0
 42
0.0000001
 43
0.0000001
 44
0.0000000001
 40
0.0
 40
0.0
 40
0.0
 40
0.0
 40
0.123317125
 40
0.2468171892
 40
0.3706750004
 40
0.49504957
 40
0.620077358
 40
0.7458670408
 40
0.8724927714
 40
1.0
 40
1.0
 40
1.0
 40
1.0
 10
12.6459900206
 20
9.3419401759
 30
0.0
 10
12.6512410074
 20
9.3470122823
 30
0.0
 10
12.6623065869
 20
9.3566060901
 30
0.0
 10
12.6803666411
 20
9.3691426354
 30
0.0
 10
12.6997186142
 20
9.379710753
 30
0.0
 10
12.7201643761
 20
9.3882019152
 30
0.0
 10
12.7414977282
 20
9.3945317148
 30
0.0
 10
12.7635037675
 20
9.3986368864
 30
0.0
 10
12.7859578473
 20
9.4004775021
 30
0.0
 10
12.8010301198
 20
9.4001835187
 30
0.0
 10
12.8085607201
 20
9.3996612698
 30
0.0
  0
SPLINE
  5
3B4
100
AcDbEntity
  8
0
100
AcDbSpline
 62
7
  6
CONTINUOUS
 70
0
 71
3
 72
15
 73
11
 74
0
 42
0.0000001
 43
0.0000001
 44
0.0000000001
 40
0.0
 40
0.0
 40
0.0
 40
0.0
 40
0.123317125
 40
0.2468171892
 40
0.3706750004
 40
0.49504957
 40
0.620077358
 40
0.7458670408
 40
0.8724927714
 40
1.0
 40
1.0
 40
1.0
 40
1.0
 10
11.0155070491
 20
9.4550145541
 30
0.0
 10
11.0207580359
 20
9.4600866604
 30
0.0
 10
11.0318236154
 20
9.4696804683
 30
0.0
 10
11.0498836696
 20
9.4822170135
 30
0.0
 10
11.0692356426
 20
9.4927851311
 30
0.0
 10
11.0896814045
 20
9.5012762933
 30
0.0
 10
11.1110147567
 20
9.507606093
 30
0.0
 10
11.133020796
 20
9.5117112645
 30
0.0
 10
11.1554748757
 20
9.5135518802
 30
0.0
 10
11.1705471482
 20
9.5132578968
 30
0.0
 10
11.1780777486
 20
9.5127356479
 30
0.0
  0
SPLINE
  5
3B5
100
AcDbEntity
  8
0
100
AcDbSpline
 62
7
  6
CONTINUOUS
 70
0
 71
3
 72
15
 73
11
 74
0
 42
0.0000001
 43
0.0000001
 44
0.0000000001
 40
0.0
 40
0.0
 40
0.0
 40
0.0
 40
0.123317125
 40
0.2468171892
 40
0.3706750004
 40
0.49504957
 40
0.620077358
 40
0.7458670408
 40
0.8724927714
 40
1.0
 40
1.0
 40
1.0
 40
1.0
 10
8.2838688144
 20
9.4937699689
 30
0.0
 10
8.2891198013
 20
9.4988420752
 30
0.0
 10
8.3001853807
 20
9.5084358831
 30
0.0
 10
8.318245435
 20
9.5209724283
 30
0.0
 10
8.337597408
 20
9.5315405459
 30
0.0
 10
8.3580431699
 20
9.5400317081
 30
0.0
 10
8.379376522
 20
9.5463615078
 30
0.0
 10
8.4013825614
 20
9.5504666793
 30
0.0
 10
8.4238366411
 20
9.5523072951
 30
0.0
 10
8.4389089136
 20
9.5520133116
 30
0.0
 10
8.446439514
 20
9.5514910627
 30
0.0
  0
SPLINE
  5
3B6
100
AcDbEntity
  8
0
100
AcDbSpline
 62
7
  6
CONTINUOUS
 70
0
 71
3
 72
55
 73
51
 74
0
 42
0.0000001
 43
0.0000001
 44
0.0000000001
 40
0.0
 40
0.0
 40
0.0
 40
0.0
 40
0.0097390193
 40
0.0199694687
 40
0.0306882256
 40
0.0418903556
 40
0.053569371
 40
0.0657174277
 40
0.0783253966
 40
0.0913830434
 40
0.1048791293
 40
0.1188014383
 40
0.1331369179
 40
0.1478717248
 40
0.1629912441
 40
0.1784802037
 40
0.1943226876
 40
0.2105021641
 40
0.2438028148
 40
0.2782402229
 40
0.3136648163
 40
0.349921051
 40
0.3868484476
 40
0.4242826219
 40
0.4620562687
 40
0.5000001346
 40
0.5379439995
 40
0.5757176418
 40
0.6131518105
 40
0.6500792006
 40
0.6863354235
 40
0.7217600027
 40
0.7561973992
 40
0.7894980337
 40
0.8056775002
 40
0.8215199707
 40
0.837008926
 40
0.8521284322
 40
0.866863225
 40
0.8811987
 40
0.895120993
 40
0.9086170652
 40
0.9216747061
 40
0.9342826568
 40
0.9464307011
 40
0.9581097085
 40
0.9693118185
 40
0.9800305653
 40
0.9902610049
 40
1.0
 40
1.0
 40
1.0
 40
1.0
 10
14.5089331302
 20
7.5357079989
 30
0.0
 10
14.5064903868
 20
7.5415769298
 30
0.0
 10
14.501694304
 20
7.5537002834
 30
0.0
 10
14.4949086305
 20
7.5725500965
 30
0.0
 10
14.4883618312
 20
7.5924918397
 30
0.0
 10
14.4820617968
 20
7.6135016311
 30
0.0
 10
14.476016028
 20
7.6355546739
 30
0.0
 10
14.4702318457
 20
7.658624772
 30
0.0
 10
14.4647161605
 20
7.6826844876
 30
0.0
 10
14.4594756132
 20
7.7077051686
 30
0.0
 10
14.4545165569
 20
7.7336569959
 30
0.0
 10
14.4498449214
 20
7.7605090024
 30
0.0
 10
14.4454663493
 20
7.7882291353
 30
0.0
 10
14.4413861466
 20
7.8167842904
 30
0.0
 10
14.4376091849
 20
7.8461403489
 30
0.0
 10
14.434140051
 20
7.8762622174
 30
0.0
 10
14.430982895
 20
7.9071139255
 30
0.0
 10
14.4271578418
 20
7.9495811897
 30
0.0
 10
14.4232065756
 20
8.0042194632
 30
0.0
 10
14.4198036726
 20
8.0714759826
 30
0.0
 10
14.4177122566
 20
8.1407159979
 30
0.0
 10
14.4169426778
 20
8.2116083499
 30
0.0
 10
14.417498965
 20
8.283814252
 30
0.0
 10
14.4193787084
 20
8.3569884601
 30
0.0
 10
14.4225731164
 20
8.4307810833
 30
0.0
 10
14.4270669957
 20
8.5048392378
 30
0.0
 10
14.4328388833
 20
8.5788087592
 30
0.0
 10
14.4398611626
 20
8.6523359106
 30
0.0
 10
14.4481001474
 20
8.7250690922
 30
0.0
 10
14.4575162514
 20
8.7966605477
 30
0.0
 10
14.4680642208
 20
8.8667680021
 30
0.0
 10
14.4796932911
 20
8.9350564714
 30
0.0
 10
14.4923474857
 20
9.0011993986
 30
0.0
 10
14.5038030199
 20
9.05476918
 30
0.0
 10
14.5134535003
 20
9.0963018849
 30
0.0
 10
14.5208391133
 20
9.1264224282
 30
0.0
 10
14.52843295
 20
9.1557770578
 30
0.0
 10
14.536225977
 20
9.1843307114
 30
0.0
 10
14.5442087885
 20
9.2120492692
 30
0.0
 10
14.5523718286
 20
9.2388996169
 30
0.0
 10
14.5607053164
 20
9.2648496881
 30
0.0
 10
14.56919921
 20
9.2898685234
 30
0.0
 10
14.5778433501
 20
9.3139262746
 30
0.0
 10
14.5866273715
 20
9.3369942718
 30
0.0
 10
14.5955407028
 20
9.3590450656
 30
0.0
 10
14.6045727149
 20
9.3800524351
 30
0.0
 10
14.6137125771
 20
9.3999914321
 30
0.0
 10
14.6229493916
 20
9.4188385501
 30
0.0
 10
14.6322720644
 20
9.4365712164
 30
0.0
 10
14.6386957139
 20
9.447916447
 30
0.0
 10
14.6419251944
 20
9.4533919926
 30
0.0
  0
SPLINE
  5
3B7
100
AcDbEntity
  8
0
100
AcDbSpline
 62
7
  6
CONTINUOUS
 70
0
 71
3
 72
15
 73
11
 74
0
 42
0.0000001
 43
0.0000001
 44
0.0000000001
 40
0.0
 40
0.0
 40
0.0
 40
0.0
 40
0.123317125
 40
0.2468171892
 40
0.3706750004
 40
0.49504957
 40
0.620077358
 40
0.7458670408
 40
0.8724927714
 40
1.0
 40
1.0
 40
1.0
 40
1.0
 10
6.9257768895
 20
9.5879539638
 30
0.0
 10
6.9310278764
 20
9.5930260701
 30
0.0
 10
6.9420934558
 20
9.602619878
 30
0.0
 10
6.9601535101
 20
9.6151564232
 30
0.0
 10
6.9795054831
 20
9.6257245408
 30
0.0
 10
6.999951245
 20
9.634215703
 30
0.0
 10
7.0212845972
 20
9.6405455026
 30
0.0
 10
7.0432906365
 20
9.6446506742
 30
0.0
 10
7.0657447162
 20
9.6464912899
 30
0.0
 10
7.0808169887
 20
9.6461973065
 30
0.0
 10
7.0883475891
 20
9.6456750576
 30
0.0
  0
SPLINE
  5
3B8
100
AcDbEntity
  8
0
100
AcDbSpline
 62
7
  6
CONTINUOUS
 70
0
 71
3
 72
11
 73
7
 74
0
 42
0.0000001
 43
0.0000001
 44
0.0000000001
 40
0.0
 40
0.0
 40
0.0
 40
0.0
 40
0.26775799
 40
0.5235163188
 40
0.7675041941
 40
1.0
 40
1.0
 40
1.0
 40
1.0
 10
14.6435664125
 20
9.4522300968
 30
0.0
 10
14.6458367032
 20
9.4553150203
 30
0.0
 10
14.6503783182
 20
9.4612720077
 30
0.0
 10
14.6573632792
 20
9.4697463228
 30
0.0
 10
14.664358621
 20
9.4775469665
 30
0.0
 10
14.6691391358
 20
9.48240996
 30
0.0
 10
14.6715312657
 20
9.4847205803
 30
0.0
  0
SPLINE
  5
3B9
100
AcDbEntity
  8
0
100
AcDbSpline
 62
7
  6
CONTINUOUS
 70
0
 71
3
 72
19
 73
15
 74
0
 42
0.0000001
 43
0.0000001
 44
0.0000000001
 40
0.0
 40
0.0
 40
0.0
 40
0.0
 40
0.0539778106
 40
0.10818639
 40
0.1628533096
 40
0.2182001125
 40
0.274439376
 40
0.3317728357
 40
0.4504197905
 40
0.5121162383
 40
0.5755803685
 40
0.7083012574
 40
0.8495393955
 40
1.0
 40
1.0
 40
1.0
 40
1.0
 10
14.7429292219
 20
9.5174123026
 30
0.0
 10
14.7414774867
 20
9.517512975
 30
0.0
 10
14.738560014
 20
9.5176161536
 30
0.0
 10
14.7341686859
 20
9.5174750284
 30
0.0
 10
14.729759627
 20
9.5170382867
 30
0.0
 10
14.7253346219
 20
9.5163061055
 30
0.0
 10
14.7208948323
 20
9.5152788769
 30
0.0
 10
14.7148900284
 20
9.5134967316
 30
0.0
 10
14.708918825
 20
9.5111284406
 30
0.0
 10
14.7030167181
 20
9.5082311517
 30
0.0
 10
14.6969352041
 20
9.5048563895
 30
0.0
 10
14.6893088514
 20
9.4998727826
 30
0.0
 10
14.6802799401
 20
9.4928263703
 30
0.0
 10
14.6744488226
 20
9.487538724
 30
0.0
 10
14.6715312657
 20
9.4847205803
 30
0.0
  0
SPLINE
  5
3BA
100
AcDbEntity
  8
0
100
AcDbSpline
 62
7
  6
CONTINUOUS
 70
0
 71
3
 72
41
 73
37
 74
0
 42
0.0000001
 43
0.0000001
 44
0.0000000001
 40
0.0
 40
0.0
 40
0.0
 40
0.0
 40
0.0311443731
 40
0.0624425498
 40
0.0938872324
 40
0.1254695881
 40
0.1571771015
 40
0.1889951224
 40
0.2209066715
 40
0.2528929757
 40
0.28493379
 40
0.3170078157
 40
0.3490931116
 40
0.3811675191
 40
0.4132090895
 40
0.4451965082
 40
0.4771095106
 40
0.5089292837
 40
0.5406388474
 40
0.5722234085
 40
0.6036706805
 40
0.6349711645
 40
0.6661183811
 40
0.6971090487
 40
0.7279432008
 40
0.7586242349
 40
0.7891588899
 40
0.8195571457
 40
0.8498320452
 40
0.8649308854
 40
0.8800050464
 40
0.9100832538
 40
0.9400926721
 40
0.9550812717
 40
0.9700610341
 40
1.0
 40
1.0
 40
1.0
 40
1.0
 10
7.0883475891
 20
9.1936217441
 30
0.0
 10
7.0828282821
 20
9.1940045094
 30
0.0
 10
7.0717863253
 20
9.1951759472
 30
0.0
 10
7.0553572886
 20
9.1981267183
 30
0.0
 10
7.0391041813
 20
9.2022600007
 30
0.0
 10
7.0231148833
 20
9.2075533639
 30
0.0
 10
7.0074742609
 20
9.2139785756
 30
0.0
 10
6.9922657694
 20
9.2215011933
 30
0.0
 10
6.9775704222
 20
9.2300810484
 30
0.0
 10
6.9634665239
 20
9.2396723172
 30
0.0
 10
6.9500292205
 20
9.2502238263
 30
0.0
 10
6.937330111
 20
9.2616792989
 30
0.0
 10
6.9254368695
 20
9.2739776613
 30
0.0
 10
6.914412888
 20
9.2870533626
 30
0.0
 10
6.9043169423
 20
9.3008367216
 30
0.0
 10
6.8952028811
 20
9.3152542937
 30
0.0
 10
6.8871193417
 20
9.330229258
 30
0.0
 10
6.8801094902
 20
9.3456818213
 30
0.0
 10
6.874210792
 20
9.3615296385
 30
0.0
 10
6.8694548141
 20
9.3776882465
 30
0.0
 10
6.8658670545
 20
9.3940715084
 30
0.0
 10
6.8634668041
 20
9.4105920659
 30
0.0
 10
6.86226704
 20
9.4271618003
 30
0.0
 10
6.8622743486
 20
9.4436922918
 30
0.0
 10
6.8634888913
 20
9.4600953038
 30
0.0
 10
6.8659043637
 20
9.4762831851
 30
0.0
 10
6.8695081326
 20
9.4921695768
 30
0.0
 10
6.8742808742
 20
9.5076689839
 30
0.0
 10
6.8792166498
 20
9.520207114
 30
0.0
 10
6.8837208869
 20
9.5299574109
 30
0.0
 10
6.8885817035
 20
9.5394957622
 30
0.0
 10
6.8953307921
 20
9.5510328395
 30
0.0
 10
6.9029478567
 20
9.5619978326
 30
0.0
 10
6.9095301882
 20
9.5703791495
 30
0.0
 10
6.9164264303
 20
9.5784869704
 30
0.0
 10
6.9219515984
 20
9.5842589853
 30
0.0
 10
6.9257768895
 20
9.5879539638
 30
0.0
  0
SPLINE
  5
3BB
100
AcDbEntity
  8
0
100
AcDbSpline
 62
7
  6
CONTINUOUS
 70
0
 71
3
 72
41
 73
37
 74
0
 42
0.0000001
 43
0.0000001
 44
0.0000000001
 40
0.0
 40
0.0
 40
0.0
 40
0.0
 40
0.0311443731
 40
0.0624425498
 40
0.0938872324
 40
0.1254695881
 40
0.1571771015
 40
0.1889951224
 40
0.2209066715
 40
0.2528929757
 40
0.28493379
 40
0.3170078157
 40
0.3490931116
 40
0.3811675191
 40
0.4132090895
 40
0.4451965082
 40
0.4771095106
 40
0.5089292837
 40
0.5406388474
 40
0.5722234085
 40
0.6036706805
 40
0.6349711645
 40
0.6661183811
 40
0.6971090487
 40
0.7279432008
 40
0.7586242349
 40
0.7891588899
 40
0.8195571457
 40
0.8498320452
 40
0.8649308854
 40
0.8800050464
 40
0.9100832538
 40
0.9400926721
 40
0.9550812717
 40
0.9700610341
 40
1.0
 40
1.0
 40
1.0
 40
1.0
 10
8.446439514
 20
9.0994377492
 30
0.0
 10
8.440920207
 20
9.0998205145
 30
0.0
 10
8.4298782502
 20
9.1009919523
 30
0.0
 10
8.4134492134
 20
9.1039427234
 30
0.0
 10
8.3971961062
 20
9.1080760058
 30
0.0
 10
8.3812068082
 20
9.113369369
 30
0.0
 10
8.3655661858
 20
9.1197945808
 30
0.0
 10
8.3503576943
 20
9.1273171985
 30
0.0
 10
8.3356623471
 20
9.1358970535
 30
0.0
 10
8.3215584488
 20
9.1454883224
 30
0.0
 10
8.3081211454
 20
9.1560398315
 30
0.0
 10
8.2954220359
 20
9.167495304
 30
0.0
 10
8.2835287943
 20
9.1797936664
 30
0.0
 10
8.2725048129
 20
9.1928693677
 30
0.0
 10
8.2624088672
 20
9.2066527268
 30
0.0
 10
8.253294806
 20
9.2210702988
 30
0.0
 10
8.2452112666
 20
9.2360452631
 30
0.0
 10
8.2382014151
 20
9.2514978264
 30
0.0
 10
8.2323027169
 20
9.2673456436
 30
0.0
 10
8.227546739
 20
9.2835042516
 30
0.0
 10
8.2239589794
 20
9.2998875135
 30
0.0
 10
8.221558729
 20
9.316408071
 30
0.0
 10
8.2203589649
 20
9.3329778055
 30
0.0
 10
8.2203662735
 20
9.349508297
 30
0.0
 10
8.2215808161
 20
9.3659113089
 30
0.0
 10
8.2239962886
 20
9.3820991902
 30
0.0
 10
8.2276000574
 20
9.3979855819
 30
0.0
 10
8.2323727991
 20
9.4134849891
 30
0.0
 10
8.2373085747
 20
9.4260231191
 30
0.0
 10
8.2418128118
 20
9.4357734161
 30
0.0
 10
8.2466736284
 20
9.4453117674
 30
0.0
 10
8.253422717
 20
9.4568488446
 30
0.0
 10
8.2610397816
 20
9.4678138377
 30
0.0
 10
8.2676221131
 20
9.4761951546
 30
0.0
 10
8.2745183552
 20
9.4843029755
 30
0.0
 10
8.2800435233
 20
9.4900749904
 30
0.0
 10
8.2838688144
 20
9.4937699689
 30
0.0
  0
SPLINE
  5
3BC
100
AcDbEntity
  8
0
100
AcDbSpline
 62
7
  6
CONTINUOUS
 70
0
 71
3
 72
41
 73
37
 74
0
 42
0.0000001
 43
0.0000001
 44
0.0000000001
 40
0.0
 40
0.0
 40
0.0
 40
0.0
 40
0.0311443731
 40
0.0624425498
 40
0.0938872324
 40
0.1254695881
 40
0.1571771015
 40
0.1889951224
 40
0.2209066715
 40
0.2528929757
 40
0.28493379
 40
0.3170078157
 40
0.3490931116
 40
0.3811675191
 40
0.4132090895
 40
0.4451965082
 40
0.4771095106
 40
0.5089292837
 40
0.5406388474
 40
0.5722234085
 40
0.6036706805
 40
0.6349711645
 40
0.6661183811
 40
0.6971090487
 40
0.7279432008
 40
0.7586242349
 40
0.7891588899
 40
0.8195571457
 40
0.8498320452
 40
0.8649308854
 40
0.8800050464
 40
0.9100832538
 40
0.9400926721
 40
0.9550812717
 40
0.9700610341
 40
1.0
 40
1.0
 40
1.0
 40
1.0
 10
11.1780777486
 20
9.0606823344
 30
0.0
 10
11.1725584417
 20
9.0610650997
 30
0.0
 10
11.1615164848
 20
9.0622365375
 30
0.0
 10
11.1450874481
 20
9.0651873086
 30
0.0
 10
11.1288343408
 20
9.069320591
 30
0.0
 10
11.1128450428
 20
9.0746139542
 30
0.0
 10
11.0972044204
 20
9.0810391659
 30
0.0
 10
11.081995929
 20
9.0885617836
 30
0.0
 10
11.0673005817
 20
9.0971416387
 30
0.0
 10
11.0531966834
 20
9.1067329075
 30
0.0
 10
11.03975938
 20
9.1172844167
 30
0.0
 10
11.0270602705
 20
9.1287398892
 30
0.0
 10
11.015167029
 20
9.1410382516
 30
0.0
 10
11.0041430475
 20
9.1541139529
 30
0.0
 10
10.9940471018
 20
9.167897312
 30
0.0
 10
10.9849330406
 20
9.182314884
 30
0.0
 10
10.9768495012
 20
9.1972898483
 30
0.0
 10
10.9698396497
 20
9.2127424116
 30
0.0
 10
10.9639409516
 20
9.2285902288
 30
0.0
 10
10.9591849736
 20
9.2447488368
 30
0.0
 10
10.955597214
 20
9.2611320987
 30
0.0
 10
10.9531969636
 20
9.2776526562
 30
0.0
 10
10.9519971995
 20
9.2942223906
 30
0.0
 10
10.9520045082
 20
9.3107528821
 30
0.0
 10
10.9532190508
 20
9.3271558941
 30
0.0
 10
10.9556345233
 20
9.3433437754
 30
0.0
 10
10.9592382921
 20
9.3592301671
 30
0.0
 10
10.9640110337
 20
9.3747295743
 30
0.0
 10
10.9689468093
 20
9.3872677043
 30
0.0
 10
10.9734510464
 20
9.3970180012
 30
0.0
 10
10.978311863
 20
9.4065563525
 30
0.0
 10
10.9850609516
 20
9.4180934298
 30
0.0
 10
10.9926780162
 20
9.4290584229
 30
0.0
 10
10.9992603477
 20
9.4374397398
 30
0.0
 10
11.0061565898
 20
9.4455475607
 30
0.0
 10
11.0116817579
 20
9.4513195756
 30
0.0
 10
11.0155070491
 20
9.4550145541
 30
0.0
  0
SPLINE
  5
3BD
100
AcDbEntity
  8
0
100
AcDbSpline
 62
7
  6
CONTINUOUS
 70
0
 71
3
 72
41
 73
37
 74
0
 42
0.0000001
 43
0.0000001
 44
0.0000000001
 40
0.0
 40
0.0
 40
0.0
 40
0.0
 40
0.0311443731
 40
0.0624425498
 40
0.0938872324
 40
0.1254695881
 40
0.1571771015
 40
0.1889951224
 40
0.2209066715
 40
0.2528929757
 40
0.28493379
 40
0.3170078157
 40
0.3490931116
 40
0.3811675191
 40
0.4132090895
 40
0.4451965082
 40
0.4771095106
 40
0.5089292837
 40
0.5406388474
 40
0.5722234085
 40
0.6036706805
 40
0.6349711645
 40
0.6661183811
 40
0.6971090487
 40
0.7279432008
 40
0.7586242349
 40
0.7891588899
 40
0.8195571457
 40
0.8498320452
 40
0.8649308854
 40
0.8800050464
 40
0.9100832538
 40
0.9400926721
 40
0.9550812717
 40
0.9700610341
 40
1.0
 40
1.0
 40
1.0
 40
1.0
 10
12.8085607201
 20
8.9476079563
 30
0.0
 10
12.8030414132
 20
8.9479907215
 30
0.0
 10
12.7919994563
 20
8.9491621594
 30
0.0
 10
12.7755704196
 20
8.9521129304
 30
0.0
 10
12.7593173124
 20
8.9562462129
 30
0.0
 10
12.7433280144
 20
8.961539576
 30
0.0
 10
12.727687392
 20
8.9679647878
 30
0.0
 10
12.7124789005
 20
8.9754874055
 30
0.0
 10
12.6977835533
 20
8.9840672606
 30
0.0
 10
12.6836796549
 20
8.9936585294
 30
0.0
 10
12.6702423515
 20
9.0042100385
 30
0.0
 10
12.657543242
 20
9.0156655111
 30
0.0
 10
12.6456500005
 20
9.0279638735
 30
0.0
 10
12.634626019
 20
9.0410395748
 30
0.0
 10
12.6245300733
 20
9.0548229338
 30
0.0
 10
12.6154160121
 20
9.0692405058
 30
0.0
 10
12.6073324728
 20
9.0842154702
 30
0.0
 10
12.6003226212
 20
9.0996680335
 30
0.0
 10
12.5944239231
 20
9.1155158506
 30
0.0
 10
12.5896679452
 20
9.1316744586
 30
0.0
 10
12.5860801856
 20
9.1480577205
 30
0.0
 10
12.5836799351
 20
9.1645782781
 30
0.0
 10
12.582480171
 20
9.1811480125
 30
0.0
 10
12.5824874797
 20
9.197678504
 30
0.0
 10
12.5837020223
 20
9.2140815159
 30
0.0
 10
12.5861174948
 20
9.2302693973
 30
0.0
 10
12.5897212636
 20
9.246155789
 30
0.0
 10
12.5944940052
 20
9.2616551961
 30
0.0
 10
12.5994297809
 20
9.2741933262
 30
0.0
 10
12.603934018
 20
9.2839436231
 30
0.0
 10
12.6087948345
 20
9.2934819744
 30
0.0
 10
12.6155439231
 20
9.3050190517
 30
0.0
 10
12.6231609878
 20
9.3159840448
 30
0.0
 10
12.6297433192
 20
9.3243653617
 30
0.0
 10
12.6366395613
 20
9.3324731826
 30
0.0
 10
12.6421647295
 20
9.3382451975
 30
0.0
 10
12.6459900206
 20
9.3419401759
 30
0.0
  0
SPLINE
  5
3BE
100
AcDbEntity
  8
0
100
AcDbSpline
 62
7
  6
CONTINUOUS
 70
0
 71
3
 72
41
 73
37
 74
0
 42
0.0000001
 43
0.0000001
 44
0.0000000001
 40
0.0
 40
0.0
 40
0.0
 40
0.0
 40
0.0311443731
 40
0.0624425498
 40
0.0938872324
 40
0.1254695881
 40
0.1571771015
 40
0.1889951224
 40
0.2209066715
 40
0.2528929757
 40
0.28493379
 40
0.3170078157
 40
0.3490931116
 40
0.3811675191
 40
0.4132090895
 40
0.4451965082
 40
0.4771095106
 40
0.5089292837
 40
0.5406388474
 40
0.5722234085
 40
0.6036706805
 40
0.6349711645
 40
0.6661183811
 40
0.6971090487
 40
0.7279432008
 40
0.7586242349
 40
0.7891588899
 40
0.8195571457
 40
0.8498320452
 40
0.8649308854
 40
0.8800050464
 40
0.9100832538
 40
0.9400926721
 40
0.9550812717
 40
0.9700610341
 40
1.0
 40
1.0
 40
1.0
 40
1.0
 10
7.0883475891
 20
6.5373255644
 30
0.0
 10
7.0828282821
 20
6.5377083297
 30
0.0
 10
7.0717863253
 20
6.5388797675
 30
0.0
 10
7.0553572886
 20
6.5418305386
 30
0.0
 10
7.0391041813
 20
6.545963821
 30
0.0
 10
7.0231148833
 20
6.5512571842
 30
0.0
 10
7.0074742609
 20
6.557682396
 30
0.0
 10
6.9922657694
 20
6.5652050136
 30
0.0
 10
6.9775704222
 20
6.5737848687
 30
0.0
 10
6.9634665239
 20
6.5833761376
 30
0.0
 10
6.9500292205
 20
6.5939276467
 30
0.0
 10
6.937330111
 20
6.6053831192
 30
0.0
 10
6.9254368695
 20
6.6176814816
 30
0.0
 10
6.914412888
 20
6.6307571829
 30
0.0
 10
6.9043169423
 20
6.644540542
 30
0.0
 10
6.8952028811
 20
6.658958114
 30
0.0
 10
6.8871193417
 20
6.6739330783
 30
0.0
 10
6.8801094902
 20
6.6893856416
 30
0.0
 10
6.874210792
 20
6.7052334588
 30
0.0
 10
6.8694548141
 20
6.7213920668
 30
0.0
 10
6.8658670545
 20
6.7377753287
 30
0.0
 10
6.8634668041
 20
6.7542958862
 30
0.0
 10
6.86226704
 20
6.7708656207
 30
0.0
 10
6.8622743486
 20
6.7873961122
 30
0.0
 10
6.8634888913
 20
6.8037991241
 30
0.0
 10
6.8659043637
 20
6.8199870054
 30
0.0
 10
6.8695081326
 20
6.8358733971
 30
0.0
 10
6.8742808742
 20
6.8513728043
 30
0.0
 10
6.8792166498
 20
6.8639109343
 30
0.0
 10
6.8837208869
 20
6.8736612313
 30
0.0
 10
6.8885817035
 20
6.8831995826
 30
0.0
 10
6.8953307921
 20
6.8947366598
 30
0.0
 10
6.9029478567
 20
6.9057016529
 30
0.0
 10
6.9095301882
 20
6.9140829698
 30
0.0
 10
6.9164264303
 20
6.9221907907
 30
0.0
 10
6.9219515984
 20
6.9279628056
 30
0.0
 10
6.9257768895
 20
6.9316577841
 30
0.0
  0
SPLINE
  5
3BF
100
AcDbEntity
  8
0
100
AcDbSpline
 62
7
  6
CONTINUOUS
 70
0
 71
3
 72
23
 73
19
 74
0
 42
0.0000001
 43
0.0000001
 44
0.0000000001
 40
0.0
 40
0.0
 40
0.0
 40
0.0
 40
0.0637776914
 40
0.1273445726
 40
0.19070205
 40
0.2538561286
 40
0.3168131755
 40
0.3795820937
 40
0.4421733816
 40
0.5045993375
 40
0.566873868
 40
0.6290123843
 40
0.691031656
 40
0.7529496505
 40
0.8147853588
 40
0.8765586069
 40
0.938289857
 40
1.0
 40
1.0
 40
1.0
 40
1.0
 10
11.0204053
 20
7.8115765608
 30
0.0
 10
11.0204053
 20
7.8270054094
 30
0.0
 10
11.0211437254
 20
7.8578173388
 30
0.0
 10
11.0244769308
 20
7.903847918
 30
0.0
 10
11.0300265093
 20
7.9495134609
 30
0.0
 10
11.0377795387
 20
7.9947071378
 30
0.0
 10
11.0477184281
 20
8.0393253201
 30
0.0
 10
11.0598202764
 20
8.0832649812
 30
0.0
 10
11.0740573321
 20
8.1264248627
 30
0.0
 10
11.0903968526
 20
8.1687054262
 30
0.0
 10
11.1088012629
 20
8.2100091617
 30
0.0
 10
11.1292282074
 20
8.2502407984
 30
0.0
 10
11.1516306396
 20
8.2893075267
 30
0.0
 10
11.175956973
 20
8.3271192437
 30
0.0
 10
11.2021510699
 20
8.3635886365
 30
0.0
 10
11.2301528479
 20
8.39863186
 30
0.0
 10
11.2598966405
 20
8.4321669677
 30
0.0
 10
11.2808453936
 20
8.4534706606
 30
0.0
 10
11.2915828977
 20
8.4638423217
 30
0.0
  0
SPLINE
  5
3C0
100
AcDbEntity
  8
0
100
AcDbSpline
 62
7
  6
CONTINUOUS
 70
0
 71
3
 72
41
 73
37
 74
0
 42
0.0000001
 43
0.0000001
 44
0.0000000001
 40
0.0
 40
0.0
 40
0.0
 40
0.0
 40
0.0311443731
 40
0.0624425498
 40
0.0938872324
 40
0.1254695881
 40
0.1571771015
 40
0.1889951224
 40
0.2209066715
 40
0.2528929757
 40
0.28493379
 40
0.3170078157
 40
0.3490931116
 40
0.3811675191
 40
0.4132090895
 40
0.4451965082
 40
0.4771095106
 40
0.5089292837
 40
0.5406388474
 40
0.5722234085
 40
0.6036706805
 40
0.6349711645
 40
0.6661183811
 40
0.6971090487
 40
0.7279432008
 40
0.7586242349
 40
0.7891588899
 40
0.8195571457
 40
0.8498320452
 40
0.8649308854
 40
0.8800050464
 40
0.9100832538
 40
0.9400926721
 40
0.9550812717
 40
0.9700610341
 40
1.0
 40
1.0
 40
1.0
 40
1.0
 10
8.446439514
 20
6.4431415695
 30
0.0
 10
8.440920207
 20
6.4435243348
 30
0.0
 10
8.4298782502
 20
6.4446957726
 30
0.0
 10
8.4134492134
 20
6.4476465437
 30
0.0
 10
8.3971961062
 20
6.4517798262
 30
0.0
 10
8.3812068082
 20
6.4570731893
 30
0.0
 10
8.3655661858
 20
6.4634984011
 30
0.0
 10
8.3503576943
 20
6.4710210188
 30
0.0
 10
8.3356623471
 20
6.4796008738
 30
0.0
 10
8.3215584488
 20
6.4891921427
 30
0.0
 10
8.3081211454
 20
6.4997436518
 30
0.0
 10
8.2954220359
 20
6.5111991243
 30
0.0
 10
8.2835287943
 20
6.5234974867
 30
0.0
 10
8.2725048129
 20
6.5365731881
 30
0.0
 10
8.2624088672
 20
6.5503565471
 30
0.0
 10
8.253294806
 20
6.5647741191
 30
0.0
 10
8.2452112666
 20
6.5797490834
 30
0.0
 10
8.2382014151
 20
6.5952016467
 30
0.0
 10
8.2323027169
 20
6.6110494639
 30
0.0
 10
8.227546739
 20
6.6272080719
 30
0.0
 10
8.2239589794
 20
6.6435913338
 30
0.0
 10
8.221558729
 20
6.6601118913
 30
0.0
 10
8.2203589649
 20
6.6766816258
 30
0.0
 10
8.2203662735
 20
6.6932121173
 30
0.0
 10
8.2215808161
 20
6.7096151292
 30
0.0
 10
8.2239962886
 20
6.7258030105
 30
0.0
 10
8.2276000574
 20
6.7416894022
 30
0.0
 10
8.2323727991
 20
6.7571888094
 30
0.0
 10
8.2373085747
 20
6.7697269394
 30
0.0
 10
8.2418128118
 20
6.7794772364
 30
0.0
 10
8.2466736284
 20
6.7890155877
 30
0.0
 10
8.253422717
 20
6.800552665
 30
0.0
 10
8.2610397816
 20
6.811517658
 30
0.0
 10
8.2676221131
 20
6.8198989749
 30
0.0
 10
8.2745183552
 20
6.8280067959
 30
0.0
 10
8.2800435233
 20
6.8337788107
 30
0.0
 10
8.2838688144
 20
6.8374737892
 30
0.0
  0
SPLINE
  5
3C1
100
AcDbEntity
  8
0
100
AcDbSpline
 62
7
  6
CONTINUOUS
 70
0
 71
3
 72
39
 73
35
 74
0
 42
0.0000001
 43
0.0000001
 44
0.0000000001
 40
0.0
 40
0.0
 40
0.0
 40
0.0
 40
0.0314026063
 40
0.0630095008
 40
0.0948071053
 40
0.1267734461
 40
0.1588809724
 40
0.1910970224
 40
0.2233851129
 40
0.2557062443
 40
0.2880202662
 40
0.3202872758
 40
0.3524690069
 40
0.3845301825
 40
0.4164397923
 40
0.4481722508
 40
0.4797084082
 40
0.5110363786
 40
0.5421521202
 40
0.573059743
 40
0.603771519
 40
0.6343075555
 40
0.6646951121
 40
0.6949675899
 40
0.7251632182
 40
0.7553234779
 40
0.7854913543
 40
0.8157095101
 40
0.8460184695
 40
0.8764549218
 40
0.9070502371
 40
0.9378293223
 40
0.9688091211
 40
1.0
 40
1.0
 40
1.0
 40
1.0
 10
11.1710896402
 20
9.0278523407
 30
0.0
 10
11.1628149139
 20
9.028426195
 30
0.0
 10
11.1462571955
 20
9.0303930978
 30
0.0
 10
11.1217543019
 20
9.0357351846
 30
0.0
 10
11.0977263501
 20
9.043427165
 30
0.0
 10
11.0744070894
 20
9.0533945062
 30
0.0
 10
11.0520195358
 20
9.0655408995
 30
0.0
 10
11.0307786536
 20
9.079749261
 30
0.0
 10
11.0108881425
 20
9.0958829281
 30
0.0
 10
10.9925388999
 20
9.1137869308
 30
0.0
 10
10.9759069962
 20
9.1332893275
 30
0.0
 10
10.961152134
 20
9.1542029519
 30
0.0
 10
10.9484161852
 20
9.1763271891
 30
0.0
 10
10.9378217778
 20
9.1994497956
 30
0.0
 10
10.9294710477
 20
9.2233488767
 30
0.0
 10
10.923444807
 20
9.2477950417
 30
0.0
 10
10.9198017627
 20
9.2725535185
 30
0.0
 10
10.9185777372
 20
9.2973863215
 30
0.0
 10
10.9197853881
 20
9.3220545333
 30
0.0
 10
10.9234140937
 20
9.346320545
 30
0.0
 10
10.9294298954
 20
9.3699503058
 30
0.0
 10
10.9377756065
 20
9.3927156327
 30
0.0
 10
10.9483714559
 20
9.4143964167
 30
0.0
 10
10.9611157689
 20
9.4347827786
 30
0.0
 10
10.9758857369
 20
9.4536772835
 30
0.0
 10
10.9925386764
 20
9.4708969519
 30
0.0
 10
11.0109135113
 20
9.4862750658
 30
0.0
 10
11.0308323528
 20
9.4996628882
 30
0.0
 10
11.052102215
 20
9.5109313065
 30
0.0
 10
11.074517219
 20
9.5199719275
 30
0.0
 10
11.0978603387
 20
9.5266981114
 30
0.0
 10
11.1219067022
 20
9.5310456681
 30
0.0
 10
11.1464213032
 20
9.5329740768
 30
0.0
 10
11.162870705
 20
9.532635637
 30
0.0
 10
11.1710896402
 20
9.5320656519
 30
0.0
  0
SPLINE
  5
3C2
100
AcDbEntity
  8
0
100
AcDbSpline
 62
7
  6
CONTINUOUS
 70
0
 71
3
 72
41
 73
37
 74
0
 42
0.0000001
 43
0.0000001
 44
0.0000000001
 40
0.0
 40
0.0
 40
0.0
 40
0.0
 40
0.0311443731
 40
0.0624425498
 40
0.0938872324
 40
0.1254695881
 40
0.1571771015
 40
0.1889951224
 40
0.2209066715
 40
0.2528929757
 40
0.28493379
 40
0.3170078157
 40
0.3490931116
 40
0.3811675191
 40
0.4132090895
 40
0.4451965082
 40
0.4771095106
 40
0.5089292837
 40
0.5406388474
 40
0.5722234085
 40
0.6036706805
 40
0.6349711645
 40
0.6661183811
 40
0.6971090487
 40
0.7279432008
 40
0.7586242349
 40
0.7891588899
 40
0.8195571457
 40
0.8498320452
 40
0.8649308854
 40
0.8800050464
 40
0.9100832538
 40
0.9400926721
 40
0.9550812717
 40
0.9700610341
 40
1.0
 40
1.0
 40
1.0
 40
1.0
 10
11.1780777486
 20
6.1030173592
 30
0.0
 10
11.1725584417
 20
6.1034001245
 30
0.0
 10
11.1615164848
 20
6.1045715623
 30
0.0
 10
11.1450874481
 20
6.1075223334
 30
0.0
 10
11.1288343408
 20
6.1116556158
 30
0.0
 10
11.1128450428
 20
6.116948979
 30
0.0
 10
11.0972044204
 20
6.1233741907
 30
0.0
 10
11.081995929
 20
6.1308968084
 30
0.0
 10
11.0673005817
 20
6.1394766635
 30
0.0
 10
11.0531966834
 20
6.1490679323
 30
0.0
 10
11.03975938
 20
6.1596194415
 30
0.0
 10
11.0270602705
 20
6.171074914
 30
0.0
 10
11.015167029
 20
6.1833732764
 30
0.0
 10
11.0041430475
 20
6.1964489777
 30
0.0
 10
10.9940471018
 20
6.2102323368
 30
0.0
 10
10.9849330406
 20
6.2246499088
 30
0.0
 10
10.9768495012
 20
6.2396248731
 30
0.0
 10
10.9698396497
 20
6.2550774364
 30
0.0
 10
10.9639409516
 20
6.2709252536
 30
0.0
 10
10.9591849736
 20
6.2870838616
 30
0.0
 10
10.955597214
 20
6.3034671235
 30
0.0
 10
10.9531969636
 20
6.319987681
 30
0.0
 10
10.9519971995
 20
6.3365574154
 30
0.0
 10
10.9520045082
 20
6.3530879069
 30
0.0
 10
10.9532190508
 20
6.3694909189
 30
0.0
 10
10.9556345233
 20
6.3856788002
 30
0.0
 10
10.9592382921
 20
6.4015651919
 30
0.0
 10
10.9640110337
 20
6.4170645991
 30
0.0
 10
10.9689468093
 20
6.4296027291
 30
0.0
 10
10.9734510464
 20
6.439353026
 30
0.0
 10
10.978311863
 20
6.4488913773
 30
0.0
 10
10.9850609516
 20
6.4604284546
 30
0.0
 10
10.9926780162
 20
6.4713934477
 30
0.0
 10
10.9992603477
 20
6.4797747646
 30
0.0
 10
11.0061565898
 20
6.4878825855
 30
0.0
 10
11.0116817579
 20
6.4936546004
 30
0.0
 10
11.0155070491
 20
6.4973495789
 30
0.0
  0
SPLINE
  5
3C3
100
AcDbEntity
  8
0
100
AcDbSpline
 62
7
  6
CONTINUOUS
 70
0
 71
3
 72
39
 73
35
 74
0
 42
0.0000001
 43
0.0000001
 44
0.0000000001
 40
0.0
 40
0.0
 40
0.0
 40
0.0
 40
0.0314026063
 40
0.0630095008
 40
0.0948071053
 40
0.1267734461
 40
0.1588809724
 40
0.1910970224
 40
0.2233851129
 40
0.2557062443
 40
0.2880202662
 40
0.3202872758
 40
0.3524690069
 40
0.3845301825
 40
0.4164397923
 40
0.4481722508
 40
0.4797084082
 40
0.5110363786
 40
0.5421521202
 40
0.573059743
 40
0.603771519
 40
0.6343075555
 40
0.6646951121
 40
0.6949675899
 40
0.7251632182
 40
0.7553234779
 40
0.7854913543
 40
0.8157095101
 40
0.8460184695
 40
0.8764549218
 40
0.9070502371
 40
0.9378293223
 40
0.9688091211
 40
1.0
 40
1.0
 40
1.0
 40
1.0
 10
11.1710896402
 20
9.5320656519
 30
0.0
 10
11.1793643664
 20
9.5314917977
 30
0.0
 10
11.1959220848
 20
9.5295248949
 30
0.0
 10
11.2204249784
 20
9.5241828081
 30
0.0
 10
11.2444529302
 20
9.5164908276
 30
0.0
 10
11.2677721909
 20
9.5065234865
 30
0.0
 10
11.2901597445
 20
9.4943770932
 30
0.0
 10
11.3114006267
 20
9.4801687316
 30
0.0
 10
11.3312911378
 20
9.4640350646
 30
0.0
 10
11.3496403804
 20
9.4461310619
 30
0.0
 10
11.3662722841
 20
9.4266286652
 30
0.0
 10
11.3810271463
 20
9.4057150408
 30
0.0
 10
11.3937630951
 20
9.3835908036
 30
0.0
 10
11.4043575025
 20
9.3604681971
 30
0.0
 10
11.4127082326
 20
9.336569116
 30
0.0
 10
11.4187344733
 20
9.312122951
 30
0.0
 10
11.4223775176
 20
9.2873644742
 30
0.0
 10
11.4236015431
 20
9.2625316711
 30
0.0
 10
11.4223938922
 20
9.2378634594
 30
0.0
 10
11.4187651867
 20
9.2135974477
 30
0.0
 10
11.4127493849
 20
9.1899676868
 30
0.0
 10
11.4044036738
 20
9.1672023599
 30
0.0
 10
11.3938078244
 20
9.1455215759
 30
0.0
 10
11.3810635114
 20
9.1251352141
 30
0.0
 10
11.3662935434
 20
9.1062407092
 30
0.0
 10
11.349640604
 20
9.0890210407
 30
0.0
 10
11.331265769
 20
9.0736429268
 30
0.0
 10
11.3113469275
 20
9.0602551045
 30
0.0
 10
11.2900770653
 20
9.0489866862
 30
0.0
 10
11.2676620614
 20
9.0399460652
 30
0.0
 10
11.2443189416
 20
9.0332198813
 30
0.0
 10
11.2202725781
 20
9.0288723245
 30
0.0
 10
11.1957579772
 20
9.0269439158
 30
0.0
 10
11.1793085753
 20
9.0272823557
 30
0.0
 10
11.1710896402
 20
9.0278523407
 30
0.0
  0
SPLINE
  5
3C4
100
AcDbEntity
  8
0
100
AcDbSpline
 62
7
  6
CONTINUOUS
 70
0
 71
3
 72
41
 73
37
 74
0
 42
0.0000001
 43
0.0000001
 44
0.0000000001
 40
0.0
 40
0.0
 40
0.0
 40
0.0
 40
0.0311443731
 40
0.0624425498
 40
0.0938872324
 40
0.1254695881
 40
0.1571771015
 40
0.1889951224
 40
0.2209066715
 40
0.2528929757
 40
0.28493379
 40
0.3170078157
 40
0.3490931116
 40
0.3811675191
 40
0.4132090895
 40
0.4451965082
 40
0.4771095106
 40
0.5089292837
 40
0.5406388474
 40
0.5722234085
 40
0.6036706805
 40
0.6349711645
 40
0.6661183811
 40
0.6971090487
 40
0.7279432008
 40
0.7586242349
 40
0.7891588899
 40
0.8195571457
 40
0.8498320452
 40
0.8649308854
 40
0.8800050464
 40
0.9100832538
 40
0.9400926721
 40
0.9550812717
 40
0.9700610341
 40
1.0
 40
1.0
 40
1.0
 40
1.0
 10
12.8085607201
 20
5.9899429811
 30
0.0
 10
12.8030414132
 20
5.9903257463
 30
0.0
 10
12.7919994563
 20
5.9914971842
 30
0.0
 10
12.7755704196
 20
5.9944479552
 30
0.0
 10
12.7593173124
 20
5.9985812377
 30
0.0
 10
12.7433280144
 20
6.0038746008
 30
0.0
 10
12.727687392
 20
6.0102998126
 30
0.0
 10
12.7124789005
 20
6.0178224303
 30
0.0
 10
12.6977835533
 20
6.0264022854
 30
0.0
 10
12.6836796549
 20
6.0359935542
 30
0.0
 10
12.6702423515
 20
6.0465450633
 30
0.0
 10
12.657543242
 20
6.0580005359
 30
0.0
 10
12.6456500005
 20
6.0702988983
 30
0.0
 10
12.634626019
 20
6.0833745996
 30
0.0
 10
12.6245300733
 20
6.0971579586
 30
0.0
 10
12.6154160121
 20
6.1115755306
 30
0.0
 10
12.6073324728
 20
6.126550495
 30
0.0
 10
12.6003226212
 20
6.1420030583
 30
0.0
 10
12.5944239231
 20
6.1578508754
 30
0.0
 10
12.5896679452
 20
6.1740094834
 30
0.0
 10
12.5860801856
 20
6.1903927453
 30
0.0
 10
12.5836799351
 20
6.2069133029
 30
0.0
 10
12.582480171
 20
6.2234830373
 30
0.0
 10
12.5824874797
 20
6.2400135288
 30
0.0
 10
12.5837020223
 20
6.2564165407
 30
0.0
 10
12.5861174948
 20
6.2726044221
 30
0.0
 10
12.5897212636
 20
6.2884908138
 30
0.0
 10
12.5944940052
 20
6.3039902209
 30
0.0
 10
12.5994297809
 20
6.316528351
 30
0.0
 10
12.603934018
 20
6.3262786479
 30
0.0
 10
12.6087948345
 20
6.3358169992
 30
0.0
 10
12.6155439231
 20
6.3473540765
 30
0.0
 10
12.6231609878
 20
6.3583190696
 30
0.0
 10
12.6297433192
 20
6.3667003864
 30
0.0
 10
12.6366395613
 20
6.3748082074
 30
0.0
 10
12.6421647295
 20
6.3805802223
 30
0.0
 10
12.6459900206
 20
6.3842752007
 30
0.0
  0
SPLINE
  5
3C5
100
AcDbEntity
  8
0
100
AcDbSpline
 62
7
  6
CONTINUOUS
 70
0
 71
3
 72
16
 73
12
 74
0
 42
0.0000001
 43
0.0000001
 44
0.0000000001
 40
0.0
 40
0.0
 40
0.0
 40
0.0
 40
0.123215291
 40
0.1850351304
 40
0.2469905372
 40
0.3712875033
 40
0.4961058792
 40
0.6214215704
 40
0.7472030825
 40
0.8734104257
 40
1.0
 40
1.0
 40
1.0
 40
1.0
 10
12.9511610708
 20
7.6358777834
 30
0.0
 10
12.9306506629
 20
7.6357025786
 30
0.0
 10
12.899829631
 20
7.6364301569
 30
0.0
 10
12.8588135697
 20
7.6393571238
 30
0.0
 10
12.8177301302
 20
7.6435988138
 30
0.0
 10
12.7664939971
 20
7.6513530163
 30
0.0
 10
12.7055300657
 20
7.6645188225
 30
0.0
 10
12.6452601814
 20
7.6815021863
 30
0.0
 10
12.5859299624
 20
7.7022340811
 30
0.0
 10
12.5277822485
 20
7.7266285919
 30
0.0
 10
12.4900081939
 20
7.7452452054
 30
0.0
 10
12.4713953769
 20
7.7551259166
 30
0.0
  0
SPLINE
  5
3C6
100
AcDbEntity
  8
0
100
AcDbSpline
 62
7
  6
CONTINUOUS
 70
0
 71
3
 72
66
 73
62
 74
0
 42
0.0000001
 43
0.0000001
 44
0.0000000001
 40
0.0
 40
0.0
 40
0.0
 40
0.0
 40
0.0085741906
 40
0.0179226887
 40
0.0280753217
 40
0.0390502963
 40
0.0508542541
 40
0.0634853275
 40
0.0769349221
 40
0.0911885609
 40
0.1062270475
 40
0.1220270515
 40
0.1385615308
 40
0.155800367
 40
0.1737105762
 40
0.1922565637
 40
0.2114005445
 40
0.2311026236
 40
0.2720110465
 40
0.3146302572
 40
0.3585859343
 40
0.4034876466
 40
0.4489338343
 40
0.4945165827
 40
0.5398263926
 40
0.5844569356
 40
0.6280098048
 40
0.6700994159
 40
0.6904803596
 40
0.7103592794
 40
0.729693806
 40
0.7484434552
 40
0.7665696675
 40
0.7840360763
 40
0.8008088669
 40
0.8168568637
 40
0.8321519595
 40
0.8466695994
 40
0.8603890627
 40
0.8732942405
 40
0.8853744885
 40
0.8966255041
 40
0.9070509781
 40
0.9166645697
 40
0.9254924522
 40
0.9335771843
 40
0.9409823495
 40
0.9477979345
 40
0.9510238666
 40
0.9541508725
 40
0.957199379
 40
0.9601915699
 40
0.9631510446
 40
0.9661022851
 40
0.9690699864
 40
0.9720784087
 40
0.9751507022
 40
0.9783084701
 40
0.9849527923
 40
0.9921504065
 40
1.0
 40
1.0
 40
1.0
 40
1.0
 10
12.0960767949
 20
10.3039287378
 30
0.0
 10
12.0973158289
 20
10.3051255529
 30
0.0
 10
12.1000340828
 20
10.3074961185
 30
0.0
 10
12.1045775319
 20
10.3108469905
 30
0.0
 10
12.109747751
 20
10.3141352221
 30
0.0
 10
12.1155324443
 20
10.3173533219
 30
0.0
 10
12.1219187525
 20
10.3204943539
 30
0.0
 10
12.1288919086
 20
10.3235509269
 30
0.0
 10
12.1364356395
 20
10.3265158053
 30
0.0
 10
12.1445321597
 20
10.3293819372
 30
0.0
 10
12.1531622858
 20
10.3321423855
 30
0.0
 10
12.1623054709
 20
10.3347904529
 30
0.0
 10
12.1719398655
 20
10.3373197655
 30
0.0
 10
12.1820424131
 20
10.3397241562
 30
0.0
 10
12.1925888954
 20
10.3419977823
 30
0.0
 10
12.203553986
 20
10.3441351521
 30
0.0
 10
12.2149113704
 20
10.3461310904
 30
0.0
 10
12.2307399361
 20
10.3486284596
 30
0.0
 10
12.2513049991
 20
10.3513470936
 30
0.0
 10
12.2767898395
 20
10.3539403841
 30
0.0
 10
12.3031372888
 20
10.3558783318
 30
0.0
 10
12.3300940367
 20
10.3571419867
 30
0.0
 10
12.3574011
 20
10.3577188942
 30
0.0
 10
12.3847959785
 20
10.3576033816
 30
0.0
 10
12.4120153138
 20
10.3567966003
 30
0.0
 10
12.4387975341
 20
10.3553064931
 30
0.0
 10
12.4648850889
 20
10.3531476062
 30
0.0
 10
12.4860585763
 20
10.3507845189
 30
0.0
 10
12.5024545521
 20
10.3485639497
 30
0.0
 10
12.514292353
 20
10.3467641065
 30
0.0
 10
12.5257744589
 20
10.3448164358
 30
0.0
 10
12.5368732939
 20
10.3427256661
 30
0.0
 10
12.5475621814
 20
10.3404968648
 30
0.0
 10
12.5578154549
 20
10.3381354154
 30
0.0
 10
12.5676085291
 20
10.335647092
 30
0.0
 10
12.5769179432
 20
10.3330379098
 30
0.0
 10
12.5857214378
 20
10.3303141781
 30
0.0
 10
12.5939980382
 20
10.3274825369
 30
0.0
 10
12.6017280823
 20
10.3245497894
 30
0.0
 10
12.6088933114
 20
10.3215229658
 30
0.0
 10
12.6154769607
 20
10.3184093121
 30
0.0
 10
12.621463765
 20
10.3152160599
 30
0.0
 10
12.6268400598
 20
10.3119504642
 30
0.0
 10
12.6315938438
 20
10.3086195952
 30
0.0
 10
12.635714555
 20
10.3052300705
 30
0.0
 10
12.6391930684
 20
10.3017874477
 30
0.0
 10
12.6420205024
 20
10.2982974683
 30
0.0
 10
12.643859552
 20
10.2952977907
 30
0.0
 10
12.6449705139
 20
10.2928938246
 30
0.0
 10
12.6456204259
 20
10.2911178388
 30
0.0
 10
12.646101496
 20
10.289337355
 30
0.0
 10
12.6464131369
 20
10.2875535408
 30
0.0
 10
12.6465548365
 20
10.2857677787
 30
0.0
 10
12.6465265
 20
10.2839815279
 30
0.0
 10
12.6463281275
 20
10.282196244
 30
0.0
 10
12.6459599365
 20
10.2804134004
 30
0.0
 10
12.6454224933
 20
10.2786342482
 30
0.0
 10
12.6444651677
 20
10.2762284089
 30
0.0
 10
12.6428168367
 20
10.2732205963
 30
0.0
 10
12.6402085146
 20
10.2697158167
 30
0.0
 10
12.6381296141
 20
10.2675115861
 30
0.0
 10
12.6369952897
 20
10.2664159128
 30
0.0
  0
SPLINE
  5
3C7
100
AcDbEntity
  8
0
100
AcDbSpline
 62
7
  6
CONTINUOUS
 70
0
 71
3
 72
39
 73
35
 74
0
 42
0.0000001
 43
0.0000001
 44
0.0000000001
 40
0.0
 40
0.0
 40
0.0
 40
0.0
 40
0.0314026063
 40
0.0630095008
 40
0.0948071053
 40
0.1267734461
 40
0.1588809724
 40
0.1910970224
 40
0.2233851129
 40
0.2557062443
 40
0.2880202662
 40
0.3202872758
 40
0.3524690069
 40
0.3845301825
 40
0.4164397923
 40
0.4481722508
 40
0.4797084082
 40
0.5110363786
 40
0.5421521202
 40
0.573059743
 40
0.603771519
 40
0.6343075555
 40
0.6646951121
 40
0.6949675899
 40
0.7251632182
 40
0.7553234779
 40
0.7854913543
 40
0.8157095101
 40
0.8460184695
 40
0.8764549218
 40
0.9070502371
 40
0.9378293223
 40
0.9688091211
 40
1.0
 40
1.0
 40
1.0
 40
1.0
 10
12.8015726117
 20
5.9571129874
 30
0.0
 10
12.7932978854
 20
5.9576868416
 30
0.0
 10
12.776740167
 20
5.9596537445
 30
0.0
 10
12.7522372734
 20
5.9649958313
 30
0.0
 10
12.7282093217
 20
5.9726878117
 30
0.0
 10
12.7048900609
 20
5.9826551528
 30
0.0
 10
12.6825025073
 20
5.9948015461
 30
0.0
 10
12.6612616251
 20
6.0090099077
 30
0.0
 10
12.641371114
 20
6.0251435747
 30
0.0
 10
12.6230218714
 20
6.0430475775
 30
0.0
 10
12.6063899678
 20
6.0625499741
 30
0.0
 10
12.5916351056
 20
6.0834635986
 30
0.0
 10
12.5788991567
 20
6.1055878358
 30
0.0
 10
12.5683047493
 20
6.1287104423
 30
0.0
 10
12.5599540192
 20
6.1526095234
 30
0.0
 10
12.5539277785
 20
6.1770556884
 30
0.0
 10
12.5502847342
 20
6.2018141652
 30
0.0
 10
12.5490607087
 20
6.2266469682
 30
0.0
 10
12.5502683596
 20
6.2513151799
 30
0.0
 10
12.5538970652
 20
6.2755811917
 30
0.0
 10
12.5599128669
 20
6.2992109525
 30
0.0
 10
12.5682585781
 20
6.3219762794
 30
0.0
 10
12.5788544274
 20
6.3436570634
 30
0.0
 10
12.5915987404
 20
6.3640434253
 30
0.0
 10
12.6063687085
 20
6.3829379302
 30
0.0
 10
12.6230216479
 20
6.4001575986
 30
0.0
 10
12.6413964829
 20
6.4155357125
 30
0.0
 10
12.6613153244
 20
6.4289235349
 30
0.0
 10
12.6825851865
 20
6.4401919532
 30
0.0
 10
12.7050001905
 20
6.4492325742
 30
0.0
 10
12.7283433103
 20
6.455958758
 30
0.0
 10
12.7523896737
 20
6.4603063148
 30
0.0
 10
12.7769042747
 20
6.4622347235
 30
0.0
 10
12.7933536766
 20
6.4618962837
 30
0.0
 10
12.8015726117
 20
6.4613262986
 30
0.0
  0
SPLINE
  5
3C8
100
AcDbEntity
  8
0
100
AcDbSpline
 62
7
  6
CONTINUOUS
 70
0
 71
3
 72
39
 73
35
 74
0
 42
0.0000001
 43
0.0000001
 44
0.0000000001
 40
0.0
 40
0.0
 40
0.0
 40
0.0
 40
0.033740211
 40
0.066063027
 40
0.0970303578
 40
0.126718793
 40
0.1552195561
 40
0.1826378049
 40
0.2090935182
 40
0.2347221326
 40
0.2596748263
 40
0.2841166281
 40
0.3082242379
 40
0.3321823874
 40
0.356179604
 40
0.3804034049
 40
0.4050357297
 40
0.430248725
 40
0.456201961
 40
0.4830401781
 40
0.5108926487
 40
0.5398730696
 40
0.5700800399
 40
0.6015984789
 40
0.6345002231
 40
0.6688460638
 40
0.7046862755
 40
0.7420623518
 40
0.7810077964
 40
0.8215489795
 40
0.8637064039
 40
0.9074946837
 40
0.9529240505
 40
1.0
 40
1.0
 40
1.0
 40
1.0
 10
14.6952847678
 20
7.4482599734
 30
0.0
 10
14.6932028201
 20
7.4462489663
 30
0.0
 10
14.6890403854
 20
7.4423989882
 30
0.0
 10
14.6826615988
 20
7.4370453929
 30
0.0
 10
14.6762875901
 20
7.4322429248
 30
0.0
 10
14.6699216877
 20
7.4279945794
 30
0.0
 10
14.663566772
 20
7.4243027883
 30
0.0
 10
14.6572257175
 20
7.4211699522
 30
0.0
 10
14.6509016154
 20
7.4185982398
 30
0.0
 10
14.6445976182
 20
7.4165900328
 30
0.0
 10
14.638317275
 20
7.4151471119
 30
0.0
 10
14.6320643199
 20
7.41427132
 30
0.0
 10
14.6258428973
 20
7.4139637695
 30
0.0
 10
14.6196573675
 20
7.4142251187
 30
0.0
 10
14.6135122264
 20
7.4150553381
 30
0.0
 10
14.6074118298
 20
7.4164534597
 30
0.0
 10
14.6013603501
 20
7.4184182038
 30
0.0
 10
14.5953614662
 20
7.4209473893
 30
0.0
 10
14.5894186185
 20
7.4240388902
 30
0.0
 10
14.5835347824
 20
7.4276900727
 30
0.0
 10
14.5777127769
 20
7.4318983577
 30
0.0
 10
14.5719552747
 20
7.4366610269
 30
0.0
 10
14.5662647802
 20
7.4419751698
 30
0.0
 10
14.560643965
 20
7.447837904
 30
0.0
 10
14.5550952625
 20
7.4542459597
 30
0.0
 10
14.5496213862
 20
7.4611960633
 30
0.0
 10
14.544224845
 20
7.4686845406
 30
0.0
 10
14.5389083095
 20
7.4767075664
 30
0.0
 10
14.5336744111
 20
7.4852610101
 30
0.0
 10
14.5285257142
 20
7.4943404477
 30
0.0
 10
14.5234649287
 20
7.5039412321
 30
0.0
 10
14.5184945179
 20
7.5140583761
 30
0.0
 10
14.513617187
 20
7.5246866051
 30
0.0
 10
14.5104850335
 20
7.5319793988
 30
0.0
 10
14.5089331302
 20
7.5357079989
 30
0.0
  0
SPLINE
  5
3C9
100
AcDbEntity
  8
0
100
AcDbSpline
 62
7
  6
CONTINUOUS
 70
0
 71
3
 72
39
 73
35
 74
0
 42
0.0000001
 43
0.0000001
 44
0.0000000001
 40
0.0
 40
0.0
 40
0.0
 40
0.0
 40
0.0314026063
 40
0.0630095008
 40
0.0948071053
 40
0.1267734461
 40
0.1588809724
 40
0.1910970224
 40
0.2233851129
 40
0.2557062443
 40
0.2880202662
 40
0.3202872758
 40
0.3524690069
 40
0.3845301825
 40
0.4164397923
 40
0.4481722508
 40
0.4797084082
 40
0.5110363786
 40
0.5421521202
 40
0.573059743
 40
0.603771519
 40
0.6343075555
 40
0.6646951121
 40
0.6949675899
 40
0.7251632182
 40
0.7553234779
 40
0.7854913543
 40
0.8157095101
 40
0.8460184695
 40
0.8764549218
 40
0.9070502371
 40
0.9378293223
 40
0.9688091211
 40
1.0
 40
1.0
 40
1.0
 40
1.0
 10
11.1710896402
 20
6.0701873655
 30
0.0
 10
11.1628149139
 20
6.0707612197
 30
0.0
 10
11.1462571955
 20
6.0727281226
 30
0.0
 10
11.1217543019
 20
6.0780702094
 30
0.0
 10
11.0977263501
 20
6.0857621898
 30
0.0
 10
11.0744070894
 20
6.095729531
 30
0.0
 10
11.0520195358
 20
6.1078759243
 30
0.0
 10
11.0307786536
 20
6.1220842858
 30
0.0
 10
11.0108881425
 20
6.1382179529
 30
0.0
 10
10.9925388999
 20
6.1561219556
 30
0.0
 10
10.9759069962
 20
6.1756243522
 30
0.0
 10
10.961152134
 20
6.1965379767
 30
0.0
 10
10.9484161852
 20
6.2186622139
 30
0.0
 10
10.9378217778
 20
6.2417848204
 30
0.0
 10
10.9294710477
 20
6.2656839015
 30
0.0
 10
10.923444807
 20
6.2901300665
 30
0.0
 10
10.9198017627
 20
6.3148885433
 30
0.0
 10
10.9185777372
 20
6.3397213463
 30
0.0
 10
10.9197853881
 20
6.3643895581
 30
0.0
 10
10.9234140937
 20
6.3886555698
 30
0.0
 10
10.9294298954
 20
6.4122853306
 30
0.0
 10
10.9377756065
 20
6.4350506575
 30
0.0
 10
10.9483714559
 20
6.4567314415
 30
0.0
 10
10.9611157689
 20
6.4771178034
 30
0.0
 10
10.9758857369
 20
6.4960123083
 30
0.0
 10
10.9925386764
 20
6.5132319767
 30
0.0
 10
11.0109135113
 20
6.5286100906
 30
0.0
 10
11.0308323528
 20
6.541997913
 30
0.0
 10
11.052102215
 20
6.5532663313
 30
0.0
 10
11.074517219
 20
6.5623069523
 30
0.0
 10
11.0978603387
 20
6.5690331361
 30
0.0
 10
11.1219067022
 20
6.5733806929
 30
0.0
 10
11.1464213032
 20
6.5753091016
 30
0.0
 10
11.162870705
 20
6.5749706618
 30
0.0
 10
11.1710896402
 20
6.5744006767
 30
0.0
  0
SPLINE
  5
3CA
100
AcDbEntity
  8
0
100
AcDbSpline
 62
7
  6
CONTINUOUS
 70
0
 71
3
 72
39
 73
35
 74
0
 42
0.0000001
 43
0.0000001
 44
0.0000000001
 40
0.0
 40
0.0
 40
0.0
 40
0.0
 40
0.0314026063
 40
0.0630095008
 40
0.0948071053
 40
0.1267734461
 40
0.1588809724
 40
0.1910970224
 40
0.2233851129
 40
0.2557062443
 40
0.2880202662
 40
0.3202872758
 40
0.3524690069
 40
0.3845301825
 40
0.4164397923
 40
0.4481722508
 40
0.4797084082
 40
0.5110363786
 40
0.5421521202
 40
0.573059743
 40
0.603771519
 40
0.6343075555
 40
0.6646951121
 40
0.6949675899
 40
0.7251632182
 40
0.7553234779
 40
0.7854913543
 40
0.8157095101
 40
0.8460184695
 40
0.8764549218
 40
0.9070502371
 40
0.9378293223
 40
0.9688091211
 40
1.0
 40
1.0
 40
1.0
 40
1.0
 10
11.1710896402
 20
6.5744006767
 30
0.0
 10
11.1793643664
 20
6.5738268225
 30
0.0
 10
11.1959220848
 20
6.5718599197
 30
0.0
 10
11.2204249784
 20
6.5665178329
 30
0.0
 10
11.2444529302
 20
6.5588258524
 30
0.0
 10
11.2677721909
 20
6.5488585113
 30
0.0
 10
11.2901597445
 20
6.536712118
 30
0.0
 10
11.3114006267
 20
6.5225037564
 30
0.0
 10
11.3312911378
 20
6.5063700894
 30
0.0
 10
11.3496403804
 20
6.4884660867
 30
0.0
 10
11.3662722841
 20
6.46896369
 30
0.0
 10
11.3810271463
 20
6.4480500656
 30
0.0
 10
11.3937630951
 20
6.4259258284
 30
0.0
 10
11.4043575025
 20
6.4028032219
 30
0.0
 10
11.4127082326
 20
6.3789041408
 30
0.0
 10
11.4187344733
 20
6.3544579758
 30
0.0
 10
11.4223775176
 20
6.329699499
 30
0.0
 10
11.4236015431
 20
6.3048666959
 30
0.0
 10
11.4223938922
 20
6.2801984842
 30
0.0
 10
11.4187651867
 20
6.2559324725
 30
0.0
 10
11.4127493849
 20
6.2323027116
 30
0.0
 10
11.4044036738
 20
6.2095373847
 30
0.0
 10
11.3938078244
 20
6.1878566007
 30
0.0
 10
11.3810635114
 20
6.1674702389
 30
0.0
 10
11.3662935434
 20
6.148575734
 30
0.0
 10
11.349640604
 20
6.1313560655
 30
0.0
 10
11.331265769
 20
6.1159779516
 30
0.0
 10
11.3113469275
 20
6.1025901293
 30
0.0
 10
11.2900770653
 20
6.091321711
 30
0.0
 10
11.2676620614
 20
6.08228109
 30
0.0
 10
11.2443189416
 20
6.0755549061
 30
0.0
 10
11.2202725781
 20
6.0712073493
 30
0.0
 10
11.1957579772
 20
6.0692789406
 30
0.0
 10
11.1793085753
 20
6.0696173804
 30
0.0
 10
11.1710896402
 20
6.0701873655
 30
0.0
  0
SPLINE
  5
3CB
100
AcDbEntity
  8
0
100
AcDbSpline
 62
7
  6
CONTINUOUS
 70
0
 71
3
 72
39
 73
35
 74
0
 42
0.0000001
 43
0.0000001
 44
0.0000000001
 40
0.0
 40
0.0
 40
0.0
 40
0.0
 40
0.0308696799
 40
0.0602452827
 40
0.0882066377
 40
0.1148548785
 40
0.1403110158
 40
0.164716648
 40
0.18823507
 40
0.211051739
 40
0.2333715263
 40
0.2554146517
 40
0.277410356
 40
0.2995895087
 40
0.3221768936
 40
0.3453842343
 40
0.3694053436
 40
0.3944127841
 40
0.4205572111
 40
0.4479673122
 40
0.4767517675
 40
0.5070005662
 40
0.5387877527
 40
0.5721727937
 40
0.6072031788
 40
0.6439153565
 40
0.6823369284
 40
0.7224871161
 40
0.7643785652
 40
0.8080174428
 40
0.8534049372
 40
0.9005370992
 40
0.9494061188
 40
1.0
 40
1.0
 40
1.0
 40
1.0
 10
14.6952847678
 20
9.5242155417
 30
0.0
 10
14.6976827401
 20
9.5265318053
 30
0.0
 10
14.7024764712
 20
9.5309367082
 30
0.0
 10
14.7098475337
 20
9.5369801181
 30
0.0
 10
14.7172118005
 20
9.5422867344
 30
0.0
 10
14.724564386
 20
9.5468521497
 30
0.0
 10
14.7319011761
 20
9.5506723655
 30
0.0
 10
14.73921762
 20
9.5537436995
 30
0.0
 10
14.746508973
 20
9.5560621011
 30
0.0
 10
14.7537696916
 20
9.5576242711
 30
0.0
 10
14.7609936163
 20
9.5584270128
 30
0.0
 10
14.7681737327
 20
9.5584686046
 30
0.0
 10
14.7753025628
 20
9.5577481928
 30
0.0
 10
14.7823726516
 20
9.5562670267
 30
0.0
 10
14.789376976
 20
9.5540272883
 30
0.0
 10
14.7963094895
 20
9.5510327133
 30
0.0
 10
14.8031648578
 20
9.547287182
 30
0.0
 10
14.8099387042
 20
9.5427952716
 30
0.0
 10
14.8166268716
 20
9.5375612539
 30
0.0
 10
14.8232257184
 20
9.5315898228
 30
0.0
 10
14.8297313719
 20
9.5248854898
 30
0.0
 10
14.8361402336
 20
9.5174532745
 30
0.0
 10
14.8424483283
 20
9.5092982771
 30
0.0
 10
14.848651919
 20
9.5004262043
 30
0.0
 10
14.8547469115
 20
9.4908430274
 30
0.0
 10
14.8607294808
 20
9.4805553518
 30
0.0
 10
14.8665955058
 20
9.469570144
 30
0.0
 10
14.8723411654
 20
9.457894986
 30
0.0
 10
14.8779624
 20
9.4455378658
 30
0.0
 10
14.8834554666
 20
9.4325073504
 30
0.0
 10
14.8888164281
 20
9.4188124366
 30
0.0
 10
14.8940416738
 20
9.4044626402
 30
0.0
 10
14.8991274126
 20
9.3894679986
 30
0.0
 10
14.9023667984
 20
9.3792250571
 30
0.0
 10
14.9039648386
 20
9.3739997473
 30
0.0
  0
SPLINE
  5
3CC
100
AcDbEntity
  8
0
100
AcDbSpline
 62
7
  6
CONTINUOUS
 70
0
 71
3
 72
15
 73
11
 74
0
 42
0.0000001
 43
0.0000001
 44
0.0000000001
 40
0.0
 40
0.0
 40
0.0
 40
0.0
 40
0.1514767005
 40
0.2953926722
 40
0.4316897199
 40
0.5603482879
 40
0.6813937886
 40
0.7949055568
 40
0.9010340493
 40
1.0
 40
1.0
 40
1.0
 40
1.0
 10
14.7793552293
 20
7.578021874
 30
0.0
 10
14.7760451976
 20
7.5709073161
 30
0.0
 10
14.7694005814
 20
7.5571203368
 30
0.0
 10
14.7590726293
 20
7.5372812896
 30
0.0
 10
14.7486514466
 20
7.5188364669
 30
0.0
 10
14.7381521088
 20
7.5018124863
 30
0.0
 10
14.7275895873
 20
7.4862336443
 30
0.0
 10
14.7169782674
 20
7.4721214452
 30
0.0
 10
14.7063333174
 20
7.459496758
 30
0.0
 10
14.6989721539
 20
7.4518217151
 30
0.0
 10
14.6952847678
 20
7.4482599734
 30
0.0
  0
SPLINE
  5
3CD
100
AcDbEntity
  8
0
100
AcDbSpline
 62
7
  6
CONTINUOUS
 70
0
 71
3
 72
19
 73
15
 74
0
 42
0.0000001
 43
0.0000001
 44
0.0000000001
 40
0.0
 40
0.0
 40
0.0
 40
0.0
 40
0.1504606045
 40
0.2916987426
 40
0.4244196315
 40
0.4878837617
 40
0.5495802095
 40
0.6682271643
 40
0.725560624
 40
0.7817998875
 40
0.8371466904
 40
0.89181361
 40
0.9460221894
 40
1.0
 40
1.0
 40
1.0
 40
1.0
 10
14.6715312657
 20
7.4910495567
 30
0.0
 10
14.6686137089
 20
7.4882314131
 30
0.0
 10
14.6627825913
 20
7.4829437667
 30
0.0
 10
14.6537536801
 20
7.4758973544
 30
0.0
 10
14.6461273274
 20
7.4709137475
 30
0.0
 10
14.6400458133
 20
7.4675389853
 30
0.0
 10
14.6341437065
 20
7.4646416965
 30
0.0
 10
14.628172503
 20
7.4622734054
 30
0.0
 10
14.6221676992
 20
7.4604912601
 30
0.0
 10
14.6177279096
 20
7.4594640315
 30
0.0
 10
14.6133029044
 20
7.4587318504
 30
0.0
 10
14.6088938455
 20
7.4582951086
 30
0.0
 10
14.6045025175
 20
7.4581539834
 30
0.0
 10
14.6015850448
 20
7.458257162
 30
0.0
 10
14.6001333096
 20
7.4583578344
 30
0.0
  0
SPLINE
  5
3CE
100
AcDbEntity
  8
0
100
AcDbSpline
 62
7
  6
CONTINUOUS
 70
0
 71
3
 72
11
 73
7
 74
0
 42
0.0000001
 43
0.0000001
 44
0.0000000001
 40
0.0
 40
0.0
 40
0.0
 40
0.0
 40
0.2447348134
 40
0.4934290448
 40
0.7454116556
 40
1.0
 40
1.0
 40
1.0
 40
1.0
 10
7.7027504078
 20
8.0679652692
 30
0.0
 10
7.7056199499
 20
8.0853150798
 30
0.0
 10
7.7111358615
 20
8.1203405143
 30
0.0
 10
7.7186873888
 20
8.1733691601
 30
0.0
 10
7.7255683275
 20
8.2272028026
 30
0.0
 10
7.729677787
 20
8.2633713086
 30
0.0
 10
7.7316184916
 20
8.281561616
 30
0.0
  0
SPLINE
  5
3CF
100
AcDbEntity
  8
0
100
AcDbSpline
 62
7
  6
CONTINUOUS
 70
0
 71
3
 72
39
 73
35
 74
0
 42
0.0000001
 43
0.0000001
 44
0.0000000001
 40
0.0
 40
0.0
 40
0.0
 40
0.0
 40
0.0314026063
 40
0.0630095008
 40
0.0948071053
 40
0.1267734461
 40
0.1588809724
 40
0.1910970224
 40
0.2233851129
 40
0.2557062443
 40
0.2880202662
 40
0.3202872758
 40
0.3524690069
 40
0.3845301825
 40
0.4164397923
 40
0.4481722508
 40
0.4797084082
 40
0.5110363786
 40
0.5421521202
 40
0.573059743
 40
0.603771519
 40
0.6343075555
 40
0.6646951121
 40
0.6949675899
 40
0.7251632182
 40
0.7553234779
 40
0.7854913543
 40
0.8157095101
 40
0.8460184695
 40
0.8764549218
 40
0.9070502371
 40
0.9378293223
 40
0.9688091211
 40
1.0
 40
1.0
 40
1.0
 40
1.0
 10
12.8015726117
 20
6.4613262986
 30
0.0
 10
12.8098473379
 20
6.4607524444
 30
0.0
 10
12.8264050563
 20
6.4587855415
 30
0.0
 10
12.85090795
 20
6.4534434547
 30
0.0
 10
12.8749359017
 20
6.4457514743
 30
0.0
 10
12.8982551625
 20
6.4357841332
 30
0.0
 10
12.9206427161
 20
6.4236377399
 30
0.0
 10
12.9418835983
 20
6.4094293783
 30
0.0
 10
12.9617741094
 20
6.3932957113
 30
0.0
 10
12.980123352
 20
6.3753917085
 30
0.0
 10
12.9967552556
 20
6.3558893119
 30
0.0
 10
13.0115101178
 20
6.3349756874
 30
0.0
 10
13.0242460667
 20
6.3128514503
 30
0.0
 10
13.0348404741
 20
6.2897288437
 30
0.0
 10
13.0431912042
 20
6.2658297627
 30
0.0
 10
13.0492174449
 20
6.2413835976
 30
0.0
 10
13.0528604892
 20
6.2166251208
 30
0.0
 10
13.0540845147
 20
6.1917923178
 30
0.0
 10
13.0528768637
 20
6.1671241061
 30
0.0
 10
13.0492481582
 20
6.1428580943
 30
0.0
 10
13.0432323565
 20
6.1192283335
 30
0.0
 10
13.0348866453
 20
6.0964630066
 30
0.0
 10
13.024290796
 20
6.0747822226
 30
0.0
 10
13.011546483
 20
6.0543958607
 30
0.0
 10
12.9967765149
 20
6.0355013558
 30
0.0
 10
12.9801235755
 20
6.0182816874
 30
0.0
 10
12.9617487405
 20
6.0029035735
 30
0.0
 10
12.941829899
 20
5.9895157511
 30
0.0
 10
12.9205600369
 20
5.9782473328
 30
0.0
 10
12.8981450329
 20
5.9692067118
 30
0.0
 10
12.8748019131
 20
5.962480528
 30
0.0
 10
12.8507555497
 20
5.9581329712
 30
0.0
 10
12.8262409487
 20
5.9562045625
 30
0.0
 10
12.8097915468
 20
5.9565430023
 30
0.0
 10
12.8015726117
 20
5.9571129874
 30
0.0
  0
SPLINE
  5
3D0
100
AcDbEntity
  8
0
100
AcDbSpline
 62
7
  6
CONTINUOUS
 70
0
 71
3
 72
23
 73
19
 74
0
 42
0.0000001
 43
0.0000001
 44
0.0000000001
 40
0.0
 40
0.0
 40
0.0
 40
0.0
 40
0.063777379
 40
0.1273447372
 40
0.1907019931
 40
0.2538561345
 40
0.3168131769
 40
0.3795820929
 40
0.4421733849
 40
0.5045993366
 40
0.5668738654
 40
0.6290123812
 40
0.6910316548
 40
0.7529496517
 40
0.8147853612
 40
0.8765586089
 40
0.9382898579
 40
1.0
 40
1.0
 40
1.0
 40
1.0
 10
7.0359610304
 20
8.0878987094
 30
0.0
 10
7.0359610304
 20
8.0994702794
 30
0.0
 10
7.0365148713
 20
8.1225792358
 30
0.0
 10
7.0390147336
 20
8.157102134
 30
0.0
 10
7.0431769517
 20
8.191351316
 30
0.0
 10
7.0489916808
 20
8.225246521
 30
0.0
 10
7.0564458298
 20
8.2587101431
 30
0.0
 10
7.0655221993
 20
8.2916648633
 30
0.0
 10
7.0761999901
 20
8.3240347444
 30
0.0
 10
7.0884546266
 20
8.3557451373
 30
0.0
 10
7.1022579131
 20
8.3867229155
 30
0.0
 10
7.1175780837
 20
8.4168966299
 30
0.0
 10
7.1343798631
 20
8.4461966699
 30
0.0
 10
7.1526245812
 20
8.4745554461
 30
0.0
 10
7.1722701328
 20
8.5019074717
 30
0.0
 10
7.19327144
 20
8.528189874
 30
0.0
 10
7.2155792533
 20
8.5533411934
 30
0.0
 10
7.2312907849
 20
8.5693189691
 30
0.0
 10
7.2393439034
 20
8.577097711
 30
0.0
  0
SPLINE
  5
3D1
100
AcDbEntity
  8
0
100
AcDbSpline
 62
7
  6
CONTINUOUS
 70
0
 71
3
 72
15
 73
11
 74
0
 42
0.0000001
 43
0.0000001
 44
0.0000000001
 40
0.0
 40
0.0
 40
0.0
 40
0.0
 40
0.103672771
 40
0.2132126588
 40
0.3287751651
 40
0.4504834983
 40
0.578423632
 40
0.7126453224
 40
0.8531710758
 40
1.0
 40
1.0
 40
1.0
 40
1.0
 10
14.6715312657
 20
7.4910495567
 30
0.0
 10
14.6742790388
 20
7.4937037018
 30
0.0
 10
14.6797687525
 20
7.4993310126
 30
0.0
 10
14.6877724524
 20
7.5084320404
 30
0.0
 10
14.6957606473
 20
7.518413079
 30
0.0
 10
14.7037262074
 20
7.5292647557
 30
0.0
 10
14.7116624847
 20
7.5409778283
 30
0.0
 10
14.7195625946
 20
7.5535420526
 30
0.0
 10
14.727419495
 20
7.5669462354
 30
0.0
 10
14.7325126873
 20
7.5762315574
 30
0.0
 10
14.7350538755
 20
7.5810082629
 30
0.0
  0
SPLINE
  5
3D2
100
AcDbEntity
  8
0
100
AcDbSpline
 62
7
  6
CONTINUOUS
 70
0
 71
3
 72
26
 73
22
 74
0
 42
0.0000001
 43
0.0000001
 44
0.0000000001
 40
0.0
 40
0.0
 40
0.0
 40
0.0
 40
0.0900611864
 40
0.176004571
 40
0.2578303452
 40
0.3355575828
 40
0.4092259639
 40
0.4789005547
 40
0.5446758749
 40
0.6066814599
 40
0.6650892261
 40
0.7201202673
 40
0.7720544732
 40
0.7969726166
 40
0.8212526125
 40
0.8681047724
 40
0.9131204284
 40
0.9351239204
 40
0.9568853117
 40
0.9784836727
 40
1.0
 40
1.0
 40
1.0
 40
1.0
 10
14.8596700432
 20
9.3771968798
 30
0.0
 10
14.8576969565
 20
9.382598101
 30
0.0
 10
14.8536973494
 20
9.3931019786
 30
0.0
 10
14.8473729468
 20
9.408303806
 30
0.0
 10
14.8408695555
 20
9.4225693223
 30
0.0
 10
14.8341937922
 20
9.4358842503
 30
0.0
 10
14.8273520445
 20
9.4482354603
 30
0.0
 10
14.820350883
 20
9.459610847
 30
0.0
 10
14.8131967606
 20
9.4699993404
 30
0.0
 10
14.8058959688
 20
9.4793907147
 30
0.0
 10
14.7984545653
 20
9.4877758974
 30
0.0
 10
14.7908788086
 20
9.4951457235
 30
0.0
 10
14.7843700394
 20
9.5005071047
 30
0.0
 10
14.7791077378
 20
9.5042532614
 30
0.0
 10
14.7739423162
 20
9.5075629083
 30
0.0
 10
14.7673988032
 20
9.5110840753
 30
0.0
 10
14.7606327162
 20
9.5137940679
 30
0.0
 10
14.755197504
 20
9.5154144898
 30
0.0
 10
14.7511293135
 20
9.516358234
 30
0.0
 10
14.7470406802
 20
9.5170388574
 30
0.0
 10
14.744299729
 20
9.5173172631
 30
0.0
 10
14.7429292219
 20
9.5174123026
 30
0.0
  0
SPLINE
  5
3D3
100
AcDbEntity
  8
0
100
AcDbSpline
 62
7
  6
CONTINUOUS
 70
0
 71
3
 72
52
 73
48
 74
0
 42
0.0000001
 43
0.0000001
 44
0.0000000001
 40
0.0
 40
0.0
 40
0.0
 40
0.0
 40
0.009288639
 40
0.0182454289
 40
0.0268925976
 40
0.0352605999
 40
0.0433894572
 40
0.0513285264
 40
0.0591365595
 40
0.0668799251
 40
0.0746303617
 40
0.082461897
 40
0.0904471496
 40
0.0986544092
 40
0.1071448476
 40
0.1159710516
 40
0.1251763083
 40
0.134794638
 40
0.144851516
 40
0.155364676
 40
0.1663453173
 40
0.1777990062
 40
0.1897269227
 40
0.2021264923
 40
0.2149925209
 40
0.2283174588
 40
0.2420924311
 40
0.2563071496
 40
0.2709508697
 40
0.2860120436
 40
0.3014791343
 40
0.317340229
 40
0.3335835775
 40
0.3501973923
 40
0.384489715
 40
0.4201250014
 40
0.4570119468
 40
0.4950589344
 40
0.5341721847
 40
0.5742536296
 40
0.6151986186
 40
0.6568937772
 40
0.6992150202
 40
0.7420260812
 40
0.8285047859
 40
0.9149905586
 40
1.0
 40
1.0
 40
1.0
 40
1.0
 10
11.5522325353
 20
7.5418100993
 30
0.0
 10
11.55486276
 20
7.5416284985
 30
0.0
 10
11.5600426201
 20
7.5414364013
 30
0.0
 10
11.5676781317
 20
7.5416936296
 30
0.0
 10
11.5750128796
 20
7.5425082007
 30
0.0
 10
11.5820244483
 20
7.5438868029
 30
0.0
 10
11.5886918409
 20
7.5458340518
 30
0.0
 10
11.5949947486
 20
7.5483540034
 30
0.0
 10
11.6009144529
 20
7.5514477307
 30
0.0
 10
11.6064339267
 20
7.5551143016
 30
0.0
 10
11.6115387131
 20
7.5593497137
 30
0.0
 10
11.6162181386
 20
7.5641467131
 30
0.0
 10
11.6204647112
 20
7.5694963769
 30
0.0
 10
11.6242762328
 20
7.5753869946
 30
0.0
 10
11.6276532478
 20
7.5818066255
 30
0.0
 10
11.6306008719
 20
7.5887418948
 30
0.0
 10
11.633126519
 20
7.5961793777
 30
0.0
 10
11.6352403226
 20
7.6041051705
 30
0.0
 10
11.6369547412
 20
7.6125050985
 30
0.0
 10
11.6382834232
 20
7.6213649742
 30
0.0
 10
11.639242211
 20
7.6306704365
 30
0.0
 10
11.6398473047
 20
7.6404073706
 30
0.0
 10
11.640116545
 20
7.6505617936
 30
0.0
 10
11.6400677944
 20
7.6611201676
 30
0.0
 10
11.6397198107
 20
7.6720693419
 30
0.0
 10
11.6390912637
 20
7.6833967617
 30
0.0
 10
11.6382010209
 20
7.6950903757
 30
0.0
 10
11.637067871
 20
7.7071388194
 30
0.0
 10
11.6357102357
 20
7.7195312308
 30
0.0
 10
11.634146522
 20
7.7322574469
 30
0.0
 10
11.6323944116
 20
7.7453077374
 30
0.0
 10
11.6304715625
 20
7.7586729925
 30
0.0
 10
11.6283948792
 20
7.7723444715
 30
0.0
 10
11.6254113794
 20
7.7911693227
 30
0.0
 10
11.621378657
 20
7.8154002512
 30
0.0
 10
11.6162312017
 20
7.845278355
 30
0.0
 10
11.610841989
 20
7.8761961347
 30
0.0
 10
11.605321796
 20
7.9080931599
 30
0.0
 10
11.5997760184
 20
7.9409058182
 30
0.0
 10
11.5943054028
 20
7.9745648889
 30
0.0
 10
11.5890063039
 20
8.008993266
 30
0.0
 10
11.5839707413
 20
8.0441037391
 30
0.0
 10
11.5792861381
 20
8.0797974003
 30
0.0
 10
11.5735985834
 20
8.1281754207
 30
0.0
 10
11.5678093657
 20
8.189158532
 30
0.0
 10
11.5634134104
 20
8.2622650003
 30
0.0
 10
11.5623719285
 20
8.3109470826
 30
0.0
 10
11.5623719285
 20
8.3350761552
 30
0.0
  0
SPLINE
  5
3D4
100
AcDbEntity
  8
0
100
AcDbSpline
 62
7
  6
CONTINUOUS
 70
0
 71
3
 72
39
 73
35
 74
0
 42
0.0000001
 43
0.0000001
 44
0.0000000001
 40
0.0
 40
0.0
 40
0.0
 40
0.0
 40
0.0314026063
 40
0.0630095008
 40
0.0948071053
 40
0.1267734461
 40
0.1588809724
 40
0.1910970224
 40
0.2233851129
 40
0.2557062443
 40
0.2880202662
 40
0.3202872758
 40
0.3524690069
 40
0.3845301825
 40
0.4164397923
 40
0.4481722508
 40
0.4797084082
 40
0.5110363786
 40
0.5421521202
 40
0.573059743
 40
0.603771519
 40
0.6343075555
 40
0.6646951121
 40
0.6949675899
 40
0.7251632182
 40
0.7553234779
 40
0.7854913543
 40
0.8157095101
 40
0.8460184695
 40
0.8764549218
 40
0.9070502371
 40
0.9378293223
 40
0.9688091211
 40
1.0
 40
1.0
 40
1.0
 40
1.0
 10
12.8015726117
 20
8.9147779626
 30
0.0
 10
12.7932978854
 20
8.9153518168
 30
0.0
 10
12.776740167
 20
8.9173187197
 30
0.0
 10
12.7522372734
 20
8.9226608065
 30
0.0
 10
12.7282093217
 20
8.9303527869
 30
0.0
 10
12.7048900609
 20
8.940320128
 30
0.0
 10
12.6825025073
 20
8.9524665213
 30
0.0
 10
12.6612616251
 20
8.9666748829
 30
0.0
 10
12.641371114
 20
8.9828085499
 30
0.0
 10
12.6230218714
 20
9.0007125527
 30
0.0
 10
12.6063899678
 20
9.0202149493
 30
0.0
 10
12.5916351056
 20
9.0411285738
 30
0.0
 10
12.5788991567
 20
9.063252811
 30
0.0
 10
12.5683047493
 20
9.0863754175
 30
0.0
 10
12.5599540192
 20
9.1102744986
 30
0.0
 10
12.5539277785
 20
9.1347206636
 30
0.0
 10
12.5502847342
 20
9.1594791404
 30
0.0
 10
12.5490607087
 20
9.1843119434
 30
0.0
 10
12.5502683596
 20
9.2089801552
 30
0.0
 10
12.5538970652
 20
9.2332461669
 30
0.0
 10
12.5599128669
 20
9.2568759277
 30
0.0
 10
12.5682585781
 20
9.2796412546
 30
0.0
 10
12.5788544274
 20
9.3013220386
 30
0.0
 10
12.5915987404
 20
9.3217084005
 30
0.0
 10
12.6063687085
 20
9.3406029054
 30
0.0
 10
12.6230216479
 20
9.3578225738
 30
0.0
 10
12.6413964829
 20
9.3732006877
 30
0.0
 10
12.6613153244
 20
9.3865885101
 30
0.0
 10
12.6825851865
 20
9.3978569284
 30
0.0
 10
12.7050001905
 20
9.4068975494
 30
0.0
 10
12.7283433103
 20
9.4136237332
 30
0.0
 10
12.7523896737
 20
9.41797129
 30
0.0
 10
12.7769042747
 20
9.4198996987
 30
0.0
 10
12.7933536766
 20
9.4195612589
 30
0.0
 10
12.8015726117
 20
9.4189912738
 30
0.0
  0
SPLINE
  5
3D5
100
AcDbEntity
  8
0
100
AcDbSpline
 62
7
  6
CONTINUOUS
 70
0
 71
3
 72
39
 73
35
 74
0
 42
0.0000001
 43
0.0000001
 44
0.0000000001
 40
0.0
 40
0.0
 40
0.0
 40
0.0
 40
0.0314026063
 40
0.0630095008
 40
0.0948071053
 40
0.1267734461
 40
0.1588809724
 40
0.1910970224
 40
0.2233851129
 40
0.2557062443
 40
0.2880202662
 40
0.3202872758
 40
0.3524690069
 40
0.3845301825
 40
0.4164397923
 40
0.4481722508
 40
0.4797084082
 40
0.5110363786
 40
0.5421521202
 40
0.573059743
 40
0.603771519
 40
0.6343075555
 40
0.6646951121
 40
0.6949675899
 40
0.7251632182
 40
0.7553234779
 40
0.7854913543
 40
0.8157095101
 40
0.8460184695
 40
0.8764549218
 40
0.9070502371
 40
0.9378293223
 40
0.9688091211
 40
1.0
 40
1.0
 40
1.0
 40
1.0
 10
12.8015726117
 20
9.4189912738
 30
0.0
 10
12.8098473379
 20
9.4184174196
 30
0.0
 10
12.8264050563
 20
9.4164505167
 30
0.0
 10
12.85090795
 20
9.4111084299
 30
0.0
 10
12.8749359017
 20
9.4034164495
 30
0.0
 10
12.8982551625
 20
9.3934491084
 30
0.0
 10
12.9206427161
 20
9.3813027151
 30
0.0
 10
12.9418835983
 20
9.3670943535
 30
0.0
 10
12.9617741094
 20
9.3509606865
 30
0.0
 10
12.980123352
 20
9.3330566837
 30
0.0
 10
12.9967552556
 20
9.3135542871
 30
0.0
 10
13.0115101178
 20
9.2926406627
 30
0.0
 10
13.0242460667
 20
9.2705164255
 30
0.0
 10
13.0348404741
 20
9.2473938189
 30
0.0
 10
13.0431912042
 20
9.2234947379
 30
0.0
 10
13.0492174449
 20
9.1990485729
 30
0.0
 10
13.0528604892
 20
9.174290096
 30
0.0
 10
13.0540845147
 20
9.149457293
 30
0.0
 10
13.0528768637
 20
9.1247890813
 30
0.0
 10
13.0492481582
 20
9.1005230696
 30
0.0
 10
13.0432323565
 20
9.0768933087
 30
0.0
 10
13.0348866453
 20
9.0541279818
 30
0.0
 10
13.024290796
 20
9.0324471978
 30
0.0
 10
13.011546483
 20
9.0120608359
 30
0.0
 10
12.9967765149
 20
8.993166331
 30
0.0
 10
12.9801235755
 20
8.9759466626
 30
0.0
 10
12.9617487405
 20
8.9605685487
 30
0.0
 10
12.941829899
 20
8.9471807263
 30
0.0
 10
12.9205600369
 20
8.935912308
 30
0.0
 10
12.8981450329
 20
8.926871687
 30
0.0
 10
12.8748019131
 20
8.9201455032
 30
0.0
 10
12.8507555497
 20
8.9157979464
 30
0.0
 10
12.8262409487
 20
8.9138695377
 30
0.0
 10
12.8097915468
 20
8.9142079775
 30
0.0
 10
12.8015726117
 20
8.9147779626
 30
0.0
  0
SPLINE
  5
3D6
100
AcDbEntity
  8
0
100
AcDbSpline
 62
7
  6
CONTINUOUS
 70
0
 71
3
 72
11
 73
7
 74
0
 42
0.0000001
 43
0.0000001
 44
0.0000000001
 40
0.0
 40
0.0
 40
0.0
 40
0.0
 40
0.2783017707
 40
0.5403895978
 40
0.7819764656
 40
1.0
 40
1.0
 40
1.0
 40
1.0
 10
11.5623719285
 20
8.3350761552
 30
0.0
 10
11.5623719285
 20
8.3600210689
 30
0.0
 10
11.5634429365
 20
8.408466453
 30
0.0
 10
11.5683584935
 20
8.4784122335
 30
0.0
 10
11.5761181402
 20
8.5426597411
 30
0.0
 10
11.5831365796
 20
8.5832748458
 30
0.0
 10
11.5869786472
 20
8.6024354561
 30
0.0
  0
SPLINE
  5
3D7
100
AcDbEntity
  8
0
100
AcDbSpline
 62
7
  6
CONTINUOUS
 70
0
 71
3
 72
39
 73
35
 74
0
 42
0.0000001
 43
0.0000001
 44
0.0000000001
 40
0.0
 40
0.0
 40
0.0
 40
0.0
 40
0.0314026063
 40
0.0630095008
 40
0.0948071053
 40
0.1267734461
 40
0.1588809724
 40
0.1910970224
 40
0.2233851129
 40
0.2557062443
 40
0.2880202662
 40
0.3202872758
 40
0.3524690069
 40
0.3845301825
 40
0.4164397923
 40
0.4481722508
 40
0.4797084082
 40
0.5110363786
 40
0.5421521202
 40
0.573059743
 40
0.603771519
 40
0.6343075555
 40
0.6646951121
 40
0.6949675899
 40
0.7251632182
 40
0.7553234779
 40
0.7854913543
 40
0.8157095101
 40
0.8460184695
 40
0.8764549218
 40
0.9070502371
 40
0.9378293223
 40
0.9688091211
 40
1.0
 40
1.0
 40
1.0
 40
1.0
 10
8.4394514055
 20
9.0666077555
 30
0.0
 10
8.4311766793
 20
9.0671816098
 30
0.0
 10
8.4146189609
 20
9.0691485126
 30
0.0
 10
8.3901160672
 20
9.0744905994
 30
0.0
 10
8.3660881155
 20
9.0821825799
 30
0.0
 10
8.3427688548
 20
9.092149921
 30
0.0
 10
8.3203813011
 20
9.1042963143
 30
0.0
 10
8.2991404189
 20
9.1185046758
 30
0.0
 10
8.2792499078
 20
9.1346383429
 30
0.0
 10
8.2609006653
 20
9.1525423456
 30
0.0
 10
8.2442687616
 20
9.1720447423
 30
0.0
 10
8.2295138994
 20
9.1929583667
 30
0.0
 10
8.2167779506
 20
9.2150826039
 30
0.0
 10
8.2061835431
 20
9.2382052104
 30
0.0
 10
8.197832813
 20
9.2621042915
 30
0.0
 10
8.1918065724
 20
9.2865504565
 30
0.0
 10
8.1881635281
 20
9.3113089333
 30
0.0
 10
8.1869395026
 20
9.3361417363
 30
0.0
 10
8.1881471535
 20
9.3608099481
 30
0.0
 10
8.191775859
 20
9.3850759598
 30
0.0
 10
8.1977916608
 20
9.4087057206
 30
0.0
 10
8.2061373719
 20
9.4314710476
 30
0.0
 10
8.2167332213
 20
9.4531518316
 30
0.0
 10
8.2294775343
 20
9.4735381934
 30
0.0
 10
8.2442475023
 20
9.4924326983
 30
0.0
 10
8.2609004417
 20
9.5096523667
 30
0.0
 10
8.2792752767
 20
9.5250304807
 30
0.0
 10
8.2991941182
 20
9.538418303
 30
0.0
 10
8.3204639803
 20
9.5496867213
 30
0.0
 10
8.3428789843
 20
9.5587273423
 30
0.0
 10
8.3662221041
 20
9.5654535262
 30
0.0
 10
8.3902684675
 20
9.5698010829
 30
0.0
 10
8.4147830685
 20
9.5717294917
 30
0.0
 10
8.4312324704
 20
9.5713910518
 30
0.0
 10
8.4394514055
 20
9.5708210667
 30
0.0
  0
SPLINE
  5
3D8
100
AcDbEntity
  8
0
100
AcDbSpline
 62
7
  6
CONTINUOUS
 70
0
 71
3
 72
15
 73
11
 74
0
 42
0.0000001
 43
0.0000001
 44
0.0000000001
 40
0.0
 40
0.0
 40
0.0
 40
0.0
 40
0.1220987222
 40
0.2453909468
 40
0.369695828
 40
0.4948205593
 40
0.6205755202
 40
0.7467866398
 40
0.8733029105
 40
1.0
 40
1.0
 40
1.0
 40
1.0
 10
12.9504472348
 20
7.7354736273
 30
0.0
 10
12.9309945058
 20
7.7370619107
 30
0.0
 10
12.8918796447
 20
7.7400230628
 30
0.0
 10
12.8329025738
 20
7.7437876099
 30
0.0
 10
12.7734036402
 20
7.7469085577
 30
0.0
 10
12.713482465
 20
7.749428518
 30
0.0
 10
12.6532366919
 20
7.7514172799
 30
0.0
 10
12.592755712
 20
7.7529647389
 30
0.0
 10
12.5321165765
 20
7.7541726599
 30
0.0
 10
12.4916456102
 20
7.7548222592
 30
0.0
 10
12.4713953769
 20
7.7551259166
 30
0.0
  0
SPLINE
  5
3D9
100
AcDbEntity
  8
0
100
AcDbSpline
 62
7
  6
CONTINUOUS
 70
0
 71
3
 72
11
 73
7
 74
0
 42
0.0000001
 43
0.0000001
 44
0.0000000001
 40
0.0
 40
0.0
 40
0.0
 40
0.0
 40
0.2292443967
 40
0.4724563882
 40
0.72945754
 40
1.0
 40
1.0
 40
1.0
 40
1.0
 10
11.9983435208
 20
7.8678416481
 30
0.0
 10
12.0017899516
 20
7.8739786129
 30
0.0
 10
12.0086276743
 20
7.8867765842
 30
0.0
 10
12.0184653394
 20
7.9069012823
 30
0.0
 10
12.0281708683
 20
7.9284878799
 30
0.0
 10
12.0343837994
 20
7.9434486215
 30
0.0
 10
12.0374712308
 20
7.9511599735
 30
0.0
  0
SPLINE
  5
3DA
100
AcDbEntity
  8
0
100
AcDbSpline
 62
7
  6
CONTINUOUS
 70
0
 71
3
 72
23
 73
19
 74
0
 42
0.0000001
 43
0.0000001
 44
0.0000000001
 40
0.0
 40
0.0
 40
0.0
 40
0.0
 40
0.0749616414
 40
0.1455674146
 40
0.2121585626
 40
0.275161383
 40
0.3350964033
 40
0.3925812682
 40
0.4483275888
 40
0.5031218566
 40
0.5577966535
 40
0.6131903874
 40
0.6701057616
 40
0.7292769217
 40
0.7913507907
 40
0.8568788261
 40
0.9263120459
 40
1.0
 40
1.0
 40
1.0
 40
1.0
 10
12.0967743438
 20
10.2657546617
 30
0.0
 10
12.0959658307
 20
10.2665070764
 30
0.0
 10
12.0944406433
 20
10.2680176998
 30
0.0
 10
12.0923826454
 20
10.2703744254
 30
0.0
 10
12.0906277423
 20
10.2727498463
 30
0.0
 10
12.0891785307
 20
10.2751418679
 30
0.0
 10
12.088037385
 20
10.2775483629
 30
0.0
 10
12.0872069783
 20
10.2799669101
 30
0.0
 10
12.0866894737
 20
10.2823943441
 30
0.0
 10
12.0864869176
 20
10.2848268643
 30
0.0
 10
12.0865998944
 20
10.287260033
 30
0.0
 10
12.0870281578
 20
10.2896893422
 30
0.0
 10
12.0877699584
 20
10.2921107424
 30
0.0
 10
12.0888230908
 20
10.2945209263
 30
0.0
 10
12.090185104
 20
10.2969172897
 30
0.0
 10
12.0918535496
 20
10.2992977211
 30
0.0
 10
12.0938257803
 20
10.3016599004
 30
0.0
 10
12.095295908
 20
10.303174459
 30
0.0
 10
12.0960767949
 20
10.3039287378
 30
0.0
  0
SPLINE
  5
3DB
100
AcDbEntity
  8
0
100
AcDbSpline
 62
7
  6
CONTINUOUS
 70
0
 71
3
 72
39
 73
35
 74
0
 42
0.0000001
 43
0.0000001
 44
0.0000000001
 40
0.0
 40
0.0
 40
0.0
 40
0.0
 40
0.0314026063
 40
0.0630095008
 40
0.0948071053
 40
0.1267734461
 40
0.1588809724
 40
0.1910970224
 40
0.2233851129
 40
0.2557062443
 40
0.2880202662
 40
0.3202872758
 40
0.3524690069
 40
0.3845301825
 40
0.4164397923
 40
0.4481722508
 40
0.4797084082
 40
0.5110363786
 40
0.5421521202
 40
0.573059743
 40
0.603771519
 40
0.6343075555
 40
0.6646951121
 40
0.6949675899
 40
0.7251632182
 40
0.7553234779
 40
0.7854913543
 40
0.8157095101
 40
0.8460184695
 40
0.8764549218
 40
0.9070502371
 40
0.9378293223
 40
0.9688091211
 40
1.0
 40
1.0
 40
1.0
 40
1.0
 10
8.4394514055
 20
9.5708210667
 30
0.0
 10
8.4477261318
 20
9.5702472125
 30
0.0
 10
8.4642838502
 20
9.5682803097
 30
0.0
 10
8.4887867438
 20
9.5629382229
 30
0.0
 10
8.5128146955
 20
9.5552462424
 30
0.0
 10
8.5361339563
 20
9.5452789013
 30
0.0
 10
8.5585215099
 20
9.533132508
 30
0.0
 10
8.5797623921
 20
9.5189241465
 30
0.0
 10
8.5996529032
 20
9.5027904794
 30
0.0
 10
8.6180021458
 20
9.4848864767
 30
0.0
 10
8.6346340495
 20
9.46538408
 30
0.0
 10
8.6493889117
 20
9.4444704556
 30
0.0
 10
8.6621248605
 20
9.4223462184
 30
0.0
 10
8.6727192679
 20
9.3992236119
 30
0.0
 10
8.681069998
 20
9.3753245308
 30
0.0
 10
8.6870962387
 20
9.3508783658
 30
0.0
 10
8.690739283
 20
9.326119889
 30
0.0
 10
8.6919633085
 20
9.301287086
 30
0.0
 10
8.6907556576
 20
9.2766188742
 30
0.0
 10
8.687126952
 20
9.2523528625
 30
0.0
 10
8.6811111503
 20
9.2287231017
 30
0.0
 10
8.6727654392
 20
9.2059577747
 30
0.0
 10
8.6621695898
 20
9.1842769907
 30
0.0
 10
8.6494252768
 20
9.1638906289
 30
0.0
 10
8.6346553087
 20
9.144996124
 30
0.0
 10
8.6180023693
 20
9.1277764556
 30
0.0
 10
8.5996275343
 20
9.1123983416
 30
0.0
 10
8.5797086928
 20
9.0990105193
 30
0.0
 10
8.5584388307
 20
9.087742101
 30
0.0
 10
8.5360238267
 20
9.07870148
 30
0.0
 10
8.512680707
 20
9.0719752961
 30
0.0
 10
8.4886343435
 20
9.0676277394
 30
0.0
 10
8.4641197425
 20
9.0656993306
 30
0.0
 10
8.4476703407
 20
9.0660377705
 30
0.0
 10
8.4394514055
 20
9.0666077555
 30
0.0
  0
SPLINE
  5
3DC
100
AcDbEntity
  8
0
100
AcDbSpline
 62
7
  6
CONTINUOUS
 70
0
 71
3
 72
49
 73
45
 74
0
 42
0.0000001
 43
0.0000001
 44
0.0000000001
 40
0.0
 40
0.0
 40
0.0
 40
0.0
 40
0.0080828859
 40
0.0167327789
 40
0.0259629395
 40
0.0357808876
 40
0.0461895354
 40
0.0571879245
 40
0.0687717801
 40
0.0809341245
 40
0.0936654211
 40
0.1069541803
 40
0.1351467567
 40
0.1653865907
 40
0.1975241709
 40
0.2313913573
 40
0.2668042828
 40
0.3035657999
 40
0.3414676505
 40
0.3802924682
 40
0.4198156794
 40
0.4598073438
 40
0.5000339595
 40
0.5402602489
 40
0.5802509368
 40
0.6197725281
 40
0.6585950938
 40
0.6964940768
 40
0.7332521323
 40
0.7686610297
 40
0.8025236548
 40
0.8346561807
 40
0.8648905152
 40
0.8930772021
 40
0.9063628829
 40
0.9190910548
 40
0.9312502029
 40
0.9428307969
 40
0.9538259618
 40
0.964231331
 40
0.9740459712
 40
0.9832726633
 40
0.9919196262
 40
1.0
 40
1.0
 40
1.0
 40
1.0
 10
12.5678880914
 20
10.2348482186
 30
0.0
 10
12.5670259947
 20
10.2355605189
 30
0.0
 10
12.5651891514
 20
10.2369726369
 30
0.0
 10
12.5622156902
 20
10.2389909189
 30
0.0
 10
12.5589366001
 20
10.2409769867
 30
0.0
 10
12.555357003
 20
10.2429278234
 30
0.0
 10
12.5514822427
 20
10.2448405227
 30
0.0
 10
12.5473182432
 20
10.2467121425
 30
0.0
 10
12.5428713916
 20
10.2485398141
 30
0.0
 10
12.5381485435
 20
10.2503206415
 30
0.0
 10
12.5331570134
 20
10.2520519295
 30
0.0
 10
12.5260119805
 20
10.2543356466
 30
0.0
 10
12.5164589692
 20
10.2570314752
 30
0.0
 10
12.5042746597
 20
10.2599681786
 30
0.0
 10
12.4912290508
 20
10.2626483083
 30
0.0
 10
12.4774035231
 20
10.2650548031
 30
0.0
 10
12.4628841966
 20
10.2671722804
 30
0.0
 10
12.4477617753
 20
10.268987243
 30
0.0
 10
12.4321308048
 20
10.270488129
 30
0.0
 10
12.4160890882
 20
10.2716653881
 30
0.0
 10
12.3997370429
 20
10.2725115348
 30
0.0
 10
12.3831770596
 20
10.2730211921
 30
0.0
 10
12.3665128489
 20
10.2731911224
 30
0.0
 10
12.3498487829
 20
10.2730202465
 30
0.0
 10
12.333289233
 20
10.2725096496
 30
0.0
 10
12.3169379072
 20
10.2716625749
 30
0.0
 10
12.3008971922
 20
10.2704844053
 30
0.0
 10
12.2852674993
 20
10.268982632
 30
0.0
 10
12.270146624
 20
10.2671668109
 30
0.0
 10
12.255629102
 20
10.2650485098
 30
0.0
 10
12.241805626
 20
10.262641231
 30
0.0
 10
12.2287623027
 20
10.2599603628
 30
0.0
 10
12.2165804984
 20
10.2570229693
 30
0.0
 10
12.2070297211
 20
10.2543265868
 30
0.0
 10
12.1998865812
 20
10.252042441
 30
0.0
 10
12.1948965255
 20
10.2503108698
 30
0.0
 10
12.1901751918
 20
10.248529782
 30
0.0
 10
12.1857298965
 20
10.2467018469
 30
0.0
 10
12.1815674759
 20
10.2448300063
 30
0.0
 10
12.1776943566
 20
10.2429170487
 30
0.0
 10
12.1741164211
 20
10.240966067
 30
0.0
 10
12.170839029
 20
10.238979787
 30
0.0
 10
12.1678671772
 20
10.2369613221
 30
0.0
 10
12.1660314807
 20
10.2355489447
 30
0.0
 10
12.1651699194
 20
10.234836542
 30
0.0
  0
SPLINE
  5
3DD
100
AcDbEntity
  8
0
100
AcDbSpline
 62
7
  6
CONTINUOUS
 70
0
 71
3
 72
49
 73
45
 74
0
 42
0.0000001
 43
0.0000001
 44
0.0000000001
 40
0.0
 40
0.0
 40
0.0
 40
0.0
 40
0.0149718081
 40
0.0299466748
 40
0.0449276404
 40
0.059917709
 40
0.0749198276
 40
0.0899368702
 40
0.1049716217
 40
0.120026759
 40
0.1351048351
 40
0.1502082677
 40
0.1653393229
 40
0.1805001009
 40
0.1956925286
 40
0.2109183481
 40
0.2261791043
 40
0.2414761418
 40
0.256810598
 40
0.2721833946
 40
0.287595237
 40
0.3030466133
 40
0.3340634927
 40
0.3652389307
 40
0.3965689749
 40
0.4280463623
 40
0.4596607137
 40
0.4913987952
 40
0.5232448251
 40
0.5551808189
 40
0.5871869764
 40
0.6192420905
 40
0.6513239761
 40
0.6834099169
 40
0.7154771164
 40
0.7475031494
 40
0.779466411
 40
0.8113465537
 40
0.8431249023
 40
0.8747848503
 40
0.906312225
 40
0.9376956122
 40
0.9689264437
 40
1.0
 40
1.0
 40
1.0
 40
1.0
 10
12.6810794692
 20
7.0253364248
 30
0.0
 10
12.6727838472
 20
7.0173234473
 30
0.0
 10
12.6558704311
 20
7.001623851
 30
0.0
 10
12.6295816786
 20
6.9790987779
 30
0.0
 10
12.6024077959
 20
6.957626238
 30
0.0
 10
12.5743866515
 20
6.9372363274
 30
0.0
 10
12.5455566503
 20
6.9179570048
 30
0.0
 10
12.5159575644
 20
6.8998147472
 30
0.0
 10
12.4856301046
 20
6.8828345173
 30
0.0
 10
12.4546159777
 20
6.8670397402
 30
0.0
 10
12.4229579127
 20
6.852452047
 30
0.0
 10
12.3906994733
 20
6.8390914888
 30
0.0
 10
12.3578850178
 20
6.8269765159
 30
0.0
 10
12.3245597325
 20
6.816123699
 30
0.0
 10
12.2907694761
 20
6.806547919
 30
0.0
 10
12.2565607159
 20
6.7982624161
 30
0.0
 10
12.2219805299
 20
6.7912785117
 30
0.0
 10
12.1870765091
 20
6.7856057338
 30
0.0
 10
12.1518966086
 20
6.7812519458
 30
0.0
 10
12.1164893918
 20
6.7782230768
 30
0.0
 10
12.0809029397
 20
6.7765232469
 30
0.0
 10
12.03322652
 20
6.7760311643
 30
0.0
 10
11.973415433
 20
6.7787592963
 30
0.0
 10
11.9018191048
 20
6.7873393659
 30
0.0
 10
11.8306889815
 20
6.8011816294
 30
0.0
 10
11.7604184357
 20
6.8202095033
 30
0.0
 10
11.6913925267
 20
6.8443176283
 30
0.0
 10
11.623990329
 20
6.8733730539
 30
0.0
 10
11.5585817237
 20
6.9072158115
 30
0.0
 10
11.4955255646
 20
6.9456595709
 30
0.0
 10
11.4351678775
 20
6.9884930812
 30
0.0
 10
11.3778398363
 20
7.0354809885
 30
0.0
 10
11.3238559484
 20
7.0863651804
 30
0.0
 10
11.2735125802
 20
7.1408664159
 30
0.0
 10
11.2270860124
 20
7.1986854908
 30
0.0
 10
11.1848311665
 20
7.259505121
 30
0.0
 10
11.1469802706
 20
7.3229916419
 30
0.0
 10
11.1137412618
 20
7.388796636
 30
0.0
 10
11.0852970646
 20
7.4565590322
 30
0.0
 10
11.061804359
 20
7.5259070686
 30
0.0
 10
11.0433925963
 20
7.5964597014
 30
0.0
 10
11.0301637603
 20
7.6678309202
 30
0.0
 10
11.0221910312
 20
7.7396236903
 30
0.0
 10
11.0204053
 20
7.7876387963
 30
0.0
 10
11.0204053
 20
7.8115765608
 30
0.0
  0
SPLINE
  5
3DE
100
AcDbEntity
  8
0
100
AcDbSpline
 62
7
  6
CONTINUOUS
 70
0
 71
3
 72
23
 73
19
 74
0
 42
0.0000001
 43
0.0000001
 44
0.0000000001
 40
0.0
 40
0.0
 40
0.0
 40
0.0
 40
0.0616706239
 40
0.1233844647
 40
0.1851585947
 40
0.2470095745
 40
0.3089533082
 40
0.3710049062
 40
0.4331785721
 40
0.4954874869
 40
0.5579437036
 40
0.6205580621
 40
0.6833400298
 40
0.7462978834
 40
0.8094383905
 40
0.8727659326
 40
0.9362873932
 40
1.0
 40
1.0
 40
1.0
 40
1.0
 10
7.240520803
 20
8.5760919773
 30
0.0
 10
7.2336431636
 20
8.5684686832
 30
0.0
 10
7.2202404288
 20
8.5528899228
 30
0.0
 10
7.2012517432
 20
8.5285927844
 30
0.0
 10
7.1834077601
 20
8.5034053349
 30
0.0
 10
7.1667436441
 20
8.4773770294
 30
0.0
 10
7.1512915372
 20
8.4505580939
 30
0.0
 10
7.1370813702
 20
8.4230005529
 30
0.0
 10
7.124140583
 20
8.3947578045
 30
0.0
 10
7.1124942094
 20
8.3658845598
 30
0.0
 10
7.1021648182
 20
8.3364367253
 30
0.0
 10
7.093172346
 20
8.3064713587
 30
0.0
 10
7.0855341036
 20
8.2760465018
 30
0.0
 10
7.0792648566
 20
8.2452210309
 30
0.0
 10
7.0743768064
 20
8.2140548005
 30
0.0
 10
7.070879103
 20
8.1826075926
 30
0.0
 10
7.0687788331
 20
8.1509415239
 30
0.0
 10
7.0683133844
 20
8.1297559013
 30
0.0
 10
7.0683133844
 20
8.1191486855
 30
0.0
  0
SPLINE
  5
3DF
100
AcDbEntity
  8
0
100
AcDbSpline
 62
7
  6
CONTINUOUS
 70
0
 71
3
 72
39
 73
35
 74
0
 42
0.0000001
 43
0.0000001
 44
0.0000000001
 40
0.0
 40
0.0
 40
0.0
 40
0.0
 40
0.0314026063
 40
0.0630095008
 40
0.0948071053
 40
0.1267734461
 40
0.1588809724
 40
0.1910970224
 40
0.2233851129
 40
0.2557062443
 40
0.2880202662
 40
0.3202872758
 40
0.3524690069
 40
0.3845301825
 40
0.4164397923
 40
0.4481722508
 40
0.4797084082
 40
0.5110363786
 40
0.5421521202
 40
0.573059743
 40
0.603771519
 40
0.6343075555
 40
0.6646951121
 40
0.6949675899
 40
0.7251632182
 40
0.7553234779
 40
0.7854913543
 40
0.8157095101
 40
0.8460184695
 40
0.8764549218
 40
0.9070502371
 40
0.9378293223
 40
0.9688091211
 40
1.0
 40
1.0
 40
1.0
 40
1.0
 10
7.0813594806
 20
6.5044955707
 30
0.0
 10
7.0730847544
 20
6.505069425
 30
0.0
 10
7.056527036
 20
6.5070363278
 30
0.0
 10
7.0320241424
 20
6.5123784146
 30
0.0
 10
7.0079961906
 20
6.5200703951
 30
0.0
 10
6.9846769299
 20
6.5300377362
 30
0.0
 10
6.9622893763
 20
6.5421841295
 30
0.0
 10
6.9410484941
 20
6.556392491
 30
0.0
 10
6.921157983
 20
6.5725261581
 30
0.0
 10
6.9028087404
 20
6.5904301608
 30
0.0
 10
6.8861768367
 20
6.6099325575
 30
0.0
 10
6.8714219745
 20
6.6308461819
 30
0.0
 10
6.8586860257
 20
6.6529704191
 30
0.0
 10
6.8480916183
 20
6.6760930256
 30
0.0
 10
6.8397408882
 20
6.6999921067
 30
0.0
 10
6.8337146475
 20
6.7244382717
 30
0.0
 10
6.8300716032
 20
6.7491967485
 30
0.0
 10
6.8288475777
 20
6.7740295515
 30
0.0
 10
6.8300552286
 20
6.7986977633
 30
0.0
 10
6.8336839341
 20
6.822963775
 30
0.0
 10
6.8396997359
 20
6.8465935358
 30
0.0
 10
6.848045447
 20
6.8693588627
 30
0.0
 10
6.8586412964
 20
6.8910396467
 30
0.0
 10
6.8713856094
 20
6.9114260086
 30
0.0
 10
6.8861555774
 20
6.9303205135
 30
0.0
 10
6.9028085168
 20
6.9475401819
 30
0.0
 10
6.9211833518
 20
6.9629182959
 30
0.0
 10
6.9411021933
 20
6.9763061182
 30
0.0
 10
6.9623720555
 20
6.9875745365
 30
0.0
 10
6.9847870595
 20
6.9966151575
 30
0.0
 10
7.0081301792
 20
7.0033413414
 30
0.0
 10
7.0321765427
 20
7.0076888981
 30
0.0
 10
7.0566911436
 20
7.0096173069
 30
0.0
 10
7.0731405455
 20
7.009278867
 30
0.0
 10
7.0813594806
 20
7.0087088819
 30
0.0
  0
SPLINE
  5
3E0
100
AcDbEntity
  8
0
100
AcDbSpline
 62
7
  6
CONTINUOUS
 70
0
 71
3
 72
39
 73
35
 74
0
 42
0.0000001
 43
0.0000001
 44
0.0000000001
 40
0.0
 40
0.0
 40
0.0
 40
0.0
 40
0.0314026063
 40
0.0630095008
 40
0.0948071053
 40
0.1267734461
 40
0.1588809724
 40
0.1910970224
 40
0.2233851129
 40
0.2557062443
 40
0.2880202662
 40
0.3202872758
 40
0.3524690069
 40
0.3845301825
 40
0.4164397923
 40
0.4481722508
 40
0.4797084082
 40
0.5110363786
 40
0.5421521202
 40
0.573059743
 40
0.603771519
 40
0.6343075555
 40
0.6646951121
 40
0.6949675899
 40
0.7251632182
 40
0.7553234779
 40
0.7854913543
 40
0.8157095101
 40
0.8460184695
 40
0.8764549218
 40
0.9070502371
 40
0.9378293223
 40
0.9688091211
 40
1.0
 40
1.0
 40
1.0
 40
1.0
 10
7.0813594806
 20
7.0087088819
 30
0.0
 10
7.0896342069
 20
7.0081350277
 30
0.0
 10
7.1061919253
 20
7.0061681249
 30
0.0
 10
7.1306948189
 20
7.0008260381
 30
0.0
 10
7.1547227707
 20
6.9931340576
 30
0.0
 10
7.1780420314
 20
6.9831667165
 30
0.0
 10
7.200429585
 20
6.9710203232
 30
0.0
 10
7.2216704672
 20
6.9568119617
 30
0.0
 10
7.2415609783
 20
6.9406782946
 30
0.0
 10
7.2599102209
 20
6.9227742919
 30
0.0
 10
7.2765421246
 20
6.9032718952
 30
0.0
 10
7.2912969868
 20
6.8823582708
 30
0.0
 10
7.3040329356
 20
6.8602340336
 30
0.0
 10
7.314627343
 20
6.8371114271
 30
0.0
 10
7.3229780731
 20
6.813212346
 30
0.0
 10
7.3290043138
 20
6.788766181
 30
0.0
 10
7.3326473581
 20
6.7640077042
 30
0.0
 10
7.3338713836
 20
6.7391749012
 30
0.0
 10
7.3326637327
 20
6.7145066894
 30
0.0
 10
7.3290350271
 20
6.6902406777
 30
0.0
 10
7.3230192254
 20
6.6666109168
 30
0.0
 10
7.3146735143
 20
6.6438455899
 30
0.0
 10
7.3040776649
 20
6.6221648059
 30
0.0
 10
7.2913333519
 20
6.6017784441
 30
0.0
 10
7.2765633839
 20
6.5828839392
 30
0.0
 10
7.2599104444
 20
6.5656642708
 30
0.0
 10
7.2415356095
 20
6.5502861568
 30
0.0
 10
7.221616768
 20
6.5368983345
 30
0.0
 10
7.2003469058
 20
6.5256299162
 30
0.0
 10
7.1779319018
 20
6.5165892952
 30
0.0
 10
7.1545887821
 20
6.5098631113
 30
0.0
 10
7.1305424186
 20
6.5055155546
 30
0.0
 10
7.1060278176
 20
6.5035871458
 30
0.0
 10
7.0895784158
 20
6.5039255857
 30
0.0
 10
7.0813594806
 20
6.5044955707
 30
0.0
  0
SPLINE
  5
3E1
100
AcDbEntity
  8
0
100
AcDbSpline
 62
7
  6
CONTINUOUS
 70
0
 71
3
 72
39
 73
35
 74
0
 42
0.0000001
 43
0.0000001
 44
0.0000000001
 40
0.0
 40
0.0
 40
0.0
 40
0.0
 40
0.0299269064
 40
0.0598969195
 40
0.0899316583
 40
0.1200512622
 40
0.1502739446
 40
0.1806156014
 40
0.2110894826
 40
0.2417059362
 40
0.2724722234
 40
0.303392407
 40
0.3344673112
 40
0.3656945543
 40
0.3970686445
 40
0.4285811337
 40
0.460220824
 40
0.49197402
 40
0.5238248249
 40
0.5557554659
 40
0.5877466484
 40
0.6197779299
 40
0.651828112
 40
0.6838756413
 40
0.715899014
 40
0.7478771803
 40
0.7797899446
 40
0.8116183518
 40
0.8433450584
 40
0.8749546787
 40
0.9064340959
 40
0.937772837
 40
0.9689628627
 40
1.0
 40
1.0
 40
1.0
 40
1.0
 10
8.280507058
 20
7.4994332894
 30
0.0
 10
8.2676183492
 20
7.4885909969
 30
0.0
 10
8.2409713901
 20
7.4678799452
 30
0.0
 10
8.1986941077
 20
7.4399673325
 30
0.0
 10
8.1543007736
 20
7.415330041
 30
0.0
 10
8.1080262184
 20
7.3940988696
 30
0.0
 10
8.0601111731
 20
7.3763835067
 30
0.0
 10
8.0108058949
 20
7.3622760299
 30
0.0
 10
7.9603675011
 20
7.3518493566
 30
0.0
 10
7.9090589495
 20
7.3451572491
 30
0.0
 10
7.8571475717
 20
7.3422339749
 30
0.0
 10
7.8049037124
 20
7.3430941874
 30
0.0
 10
7.7525993156
 20
7.3477327802
 30
0.0
 10
7.7005065139
 20
7.3561250348
 30
0.0
 10
7.648896232
 20
7.368226769
 30
0.0
 10
7.5980368038
 20
7.3839745945
 30
0.0
 10
7.5481925874
 20
7.4032862088
 30
0.0
 10
7.49962259
 20
7.4260608104
 30
0.0
 10
7.4525791668
 20
7.4521797031
 30
0.0
 10
7.4073067249
 20
7.4815068938
 30
0.0
 10
7.3640404837
 20
7.5138898078
 30
0.0
 10
7.323005213
 20
7.5491600022
 30
0.0
 10
7.2844141069
 20
7.587134092
 30
0.0
 10
7.2484677064
 20
7.6276147101
 30
0.0
 10
7.2153528713
 20
7.6703915181
 30
0.0
 10
7.1852418056
 20
7.7152422717
 30
0.0
 10
7.1582911113
 20
7.7619339295
 30
0.0
 10
7.1346410547
 20
7.810223915
 30
0.0
 10
7.1144148283
 20
7.8598613164
 30
0.0
 10
7.0977179442
 20
7.9105882871
 30
0.0
 10
7.0846375527
 20
7.9621409518
 30
0.0
 10
7.0752421946
 20
8.0142521744
 30
0.0
 10
7.0695810135
 20
8.0666475326
 30
0.0
 10
7.0683133844
 20
8.1016812281
 30
0.0
 10
7.0683133844
 20
8.1191486855
 30
0.0
  0
SPLINE
  5
3E2
100
AcDbEntity
  8
0
100
AcDbSpline
 62
7
  6
CONTINUOUS
 70
0
 71
3
 72
41
 73
37
 74
0
 42
0.0000001
 43
0.0000001
 44
0.0000000001
 40
0.0
 40
0.0
 40
0.0
 40
0.0
 40
0.0149724862
 40
0.0299480307
 40
0.0449296746
 40
0.0599204222
 40
0.0899350731
 40
0.1200204959
 40
0.1501975964
 40
0.1804850878
 40
0.2108990702
 40
0.2414526838
 40
0.2721558423
 40
0.303015057
 40
0.3340333403
 40
0.3652101893
 40
0.3965416515
 40
0.4280204628
 40
0.4596362457
 40
0.4913757643
 40
0.5232232351
 40
0.5551606749
 40
0.587168282
 40
0.6192248472
 40
0.6513081855
 40
0.6833955794
 40
0.7154642309
 40
0.7474917144
 40
0.779456424
 40
0.8113380097
 40
0.8431177978
 40
0.8747791805
 40
0.9063079772
 40
0.937692809
 40
0.9689250164
 40
1.0
 40
1.0
 40
1.0
 40
1.0
 10
8.2814669827
 20
7.4982189265
 30
0.0
 10
8.2752452666
 20
7.4922091895
 30
0.0
 10
8.2625601972
 20
7.4804344647
 30
0.0
 10
8.2428437086
 20
7.4635406967
 30
0.0
 10
8.2224630302
 20
7.4474360918
 30
0.0
 10
8.1944339006
 20
7.4270401463
 30
0.0
 10
8.1578583854
 20
7.403617427
 30
0.0
 10
8.1118075908
 20
7.3790173613
 30
0.0
 10
8.0638236767
 20
7.3580413895
 30
0.0
 10
8.0141729405
 20
7.3408059358
 30
0.0
 10
7.9631285706
 20
7.3274050488
 30
0.0
 10
7.910971898
 20
7.3179119812
 30
0.0
 10
7.8579900708
 20
7.3123782192
 30
0.0
 10
7.8044746386
 20
7.310833527
 30
0.0
 10
7.7507199223
 20
7.313285773
 30
0.0
 10
7.6970214127
 20
7.3197207618
 30
0.0
 10
7.6436741442
 20
7.3301024688
 30
0.0
 10
7.5909711135
 20
7.3443733106
 30
0.0
 10
7.5392016965
 20
7.3624544244
 30
0.0
 10
7.4886500327
 20
7.3842460032
 30
0.0
 10
7.4395935343
 20
7.4096280132
 30
0.0
 10
7.3923014071
 20
7.4384608511
 30
0.0
 10
7.3470331343
 20
7.4705859963
 30
0.0
 10
7.3040370656
 20
7.5058269044
 30
0.0
 10
7.2635491353
 20
7.5439900553
 30
0.0
 10
7.2257915888
 20
7.5848659833
 30
0.0
 10
7.190971654
 20
7.6282303026
 30
0.0
 10
7.1592805103
 20
7.673845036
 30
0.0
 10
7.1308922849
 20
7.7214599131
 30
0.0
 10
7.1059630541
 20
7.7708136902
 30
0.0
 10
7.0846299031
 20
7.8216355005
 30
0.0
 10
7.067010317
 20
7.8736465222
 30
0.0
 10
7.0532015141
 20
7.9265610299
 30
0.0
 10
7.0432799067
 20
7.9800894488
 30
0.0
 10
7.0373003176
 20
8.0339340396
 30
0.0
 10
7.0359610304
 20
8.0699453695
 30
0.0
 10
7.0359610304
 20
8.0878987094
 30
0.0
  0
SPLINE
  5
3E3
100
AcDbEntity
  8
0
100
AcDbSpline
 62
7
  6
CONTINUOUS
 70
0
 71
3
 72
15
 73
11
 74
0
 42
0.0000001
 43
0.0000001
 44
0.0000000001
 40
0.0
 40
0.0
 40
0.0
 40
0.0
 40
0.123317125
 40
0.2468171892
 40
0.3706750004
 40
0.49504957
 40
0.620077358
 40
0.7458670408
 40
0.8724927714
 40
1.0
 40
1.0
 40
1.0
 40
1.0
 10
12.9711314197
 20
6.0476640749
 30
0.0
 10
12.9658804329
 20
6.0425919686
 30
0.0
 10
12.9548148534
 20
6.0329981607
 30
0.0
 10
12.9367547992
 20
6.0204616155
 30
0.0
 10
12.9174028261
 20
6.0098934979
 30
0.0
 10
12.8969570642
 20
6.0014023357
 30
0.0
 10
12.8756237121
 20
5.995072536
 30
0.0
 10
12.8536176727
 20
5.9909673645
 30
0.0
 10
12.831163593
 20
5.9891267488
 30
0.0
 10
12.8160913205
 20
5.9894207322
 30
0.0
 10
12.8085607201
 20
5.9899429811
 30
0.0
  0
SPLINE
  5
3E4
100
AcDbEntity
  8
0
100
AcDbSpline
 62
7
  6
CONTINUOUS
 70
0
 71
3
 72
15
 73
11
 74
0
 42
0.0000001
 43
0.0000001
 44
0.0000000001
 40
0.0
 40
0.0
 40
0.0
 40
0.0
 40
0.123317125
 40
0.2468171892
 40
0.3706750004
 40
0.49504957
 40
0.620077358
 40
0.7458670408
 40
0.8724927714
 40
1.0
 40
1.0
 40
1.0
 40
1.0
 10
11.3406484482
 20
6.1607384531
 30
0.0
 10
11.3353974613
 20
6.1556663467
 30
0.0
 10
11.3243318819
 20
6.1460725389
 30
0.0
 10
11.3062718276
 20
6.1335359936
 30
0.0
 10
11.2869198546
 20
6.122967876
 30
0.0
 10
11.2664740927
 20
6.1144767138
 30
0.0
 10
11.2451407405
 20
6.1081469142
 30
0.0
 10
11.2231347012
 20
6.1040417426
 30
0.0
 10
11.2006806215
 20
6.1022011269
 30
0.0
 10
11.185608349
 20
6.1024951103
 30
0.0
 10
11.1780777486
 20
6.1030173592
 30
0.0
  0
SPLINE
  5
3E5
100
AcDbEntity
  8
0
100
AcDbSpline
 62
7
  6
CONTINUOUS
 70
0
 71
3
 72
15
 73
11
 74
0
 42
0.0000001
 43
0.0000001
 44
0.0000000001
 40
0.0
 40
0.0
 40
0.0
 40
0.0
 40
0.123317125
 40
0.2468171892
 40
0.3706750004
 40
0.49504957
 40
0.620077358
 40
0.7458670408
 40
0.8724927714
 40
1.0
 40
1.0
 40
1.0
 40
1.0
 10
8.6090102135
 20
6.5008626634
 30
0.0
 10
8.6037592267
 20
6.495790557
 30
0.0
 10
8.5926936472
 20
6.4861967492
 30
0.0
 10
8.574633593
 20
6.473660204
 30
0.0
 10
8.55528162
 20
6.4630920863
 30
0.0
 10
8.5348358581
 20
6.4546009241
 30
0.0
 10
8.5135025059
 20
6.4482711245
 30
0.0
 10
8.4914964666
 20
6.4441659529
 30
0.0
 10
8.4690423869
 20
6.4423253372
 30
0.0
 10
8.4539701143
 20
6.4426193206
 30
0.0
 10
8.446439514
 20
6.4431415695
 30
0.0
  0
SPLINE
  5
3E6
100
AcDbEntity
  8
0
100
AcDbSpline
 62
7
  6
CONTINUOUS
 70
0
 71
3
 72
15
 73
11
 74
0
 42
0.0000001
 43
0.0000001
 44
0.0000000001
 40
0.0
 40
0.0
 40
0.0
 40
0.0
 40
0.123317125
 40
0.2468171892
 40
0.3706750004
 40
0.49504957
 40
0.620077358
 40
0.7458670408
 40
0.8724927714
 40
1.0
 40
1.0
 40
1.0
 40
1.0
 10
7.2509182886
 20
6.5950466583
 30
0.0
 10
7.2456673018
 20
6.5899745519
 30
0.0
 10
7.2346017223
 20
6.5803807441
 30
0.0
 10
7.2165416681
 20
6.5678441989
 30
0.0
 10
7.1971896951
 20
6.5572760812
 30
0.0
 10
7.1767439332
 20
6.548784919
 30
0.0
 10
7.155410581
 20
6.5424551194
 30
0.0
 10
7.1334045417
 20
6.5383499478
 30
0.0
 10
7.110950462
 20
6.5365093321
 30
0.0
 10
7.0958781895
 20
6.5368033155
 30
0.0
 10
7.0883475891
 20
6.5373255644
 30
0.0
  0
SPLINE
  5
3E7
100
AcDbEntity
  8
0
100
AcDbSpline
 62
7
  6
CONTINUOUS
 70
0
 71
3
 72
15
 73
11
 74
0
 42
0.0000001
 43
0.0000001
 44
0.0000000001
 40
0.0
 40
0.0
 40
0.0
 40
0.0
 40
0.123317125
 40
0.2468171892
 40
0.3706750004
 40
0.49504957
 40
0.620077358
 40
0.7458670408
 40
0.8724927714
 40
1.0
 40
1.0
 40
1.0
 40
1.0
 10
12.9711314197
 20
9.0053290501
 30
0.0
 10
12.9658804329
 20
9.0002569438
 30
0.0
 10
12.9548148534
 20
8.9906631359
 30
0.0
 10
12.9367547992
 20
8.9781265907
 30
0.0
 10
12.9174028261
 20
8.9675584731
 30
0.0
 10
12.8969570642
 20
8.9590673109
 30
0.0
 10
12.8756237121
 20
8.9527375113
 30
0.0
 10
12.8536176727
 20
8.9486323397
 30
0.0
 10
12.831163593
 20
8.946791724
 30
0.0
 10
12.8160913205
 20
8.9470857074
 30
0.0
 10
12.8085607201
 20
8.9476079563
 30
0.0
  0
SPLINE
  5
3E8
100
AcDbEntity
  8
0
100
AcDbSpline
 62
7
  6
CONTINUOUS
 70
0
 71
3
 72
15
 73
11
 74
0
 42
0.0000001
 43
0.0000001
 44
0.0000000001
 40
0.0
 40
0.0
 40
0.0
 40
0.0
 40
0.123317125
 40
0.2468171892
 40
0.3706750004
 40
0.49504957
 40
0.620077358
 40
0.7458670408
 40
0.8724927714
 40
1.0
 40
1.0
 40
1.0
 40
1.0
 10
11.3406484482
 20
9.1184034283
 30
0.0
 10
11.3353974613
 20
9.1133313219
 30
0.0
 10
11.3243318819
 20
9.1037375141
 30
0.0
 10
11.3062718276
 20
9.0912009688
 30
0.0
 10
11.2869198546
 20
9.0806328512
 30
0.0
 10
11.2664740927
 20
9.072141689
 30
0.0
 10
11.2451407405
 20
9.0658118894
 30
0.0
 10
11.2231347012
 20
9.0617067178
 30
0.0
 10
11.2006806215
 20
9.0598661021
 30
0.0
 10
11.185608349
 20
9.0601600855
 30
0.0
 10
11.1780777486
 20
9.0606823344
 30
0.0
  0
SPLINE
  5
3E9
100
AcDbEntity
  8
0
100
AcDbSpline
 62
7
  6
CONTINUOUS
 70
0
 71
3
 72
15
 73
11
 74
0
 42
0.0000001
 43
0.0000001
 44
0.0000000001
 40
0.0
 40
0.0
 40
0.0
 40
0.0
 40
0.123317125
 40
0.2468171892
 40
0.3706750004
 40
0.49504957
 40
0.620077358
 40
0.7458670408
 40
0.8724927714
 40
1.0
 40
1.0
 40
1.0
 40
1.0
 10
8.6090102135
 20
9.1571588431
 30
0.0
 10
8.6037592267
 20
9.1520867367
 30
0.0
 10
8.5926936472
 20
9.1424929289
 30
0.0
 10
8.574633593
 20
9.1299563837
 30
0.0
 10
8.55528162
 20
9.119388266
 30
0.0
 10
8.5348358581
 20
9.1108971038
 30
0.0
 10
8.5135025059
 20
9.1045673042
 30
0.0
 10
8.4914964666
 20
9.1004621326
 30
0.0
 10
8.4690423869
 20
9.0986215169
 30
0.0
 10
8.4539701143
 20
9.0989155003
 30
0.0
 10
8.446439514
 20
9.0994377492
 30
0.0
  0
SPLINE
  5
3EA
100
AcDbEntity
  8
0
100
AcDbSpline
 62
7
  6
CONTINUOUS
 70
0
 71
3
 72
39
 73
35
 74
0
 42
0.0000001
 43
0.0000001
 44
0.0000000001
 40
0.0
 40
0.0
 40
0.0
 40
0.0
 40
0.0314026063
 40
0.0630095008
 40
0.0948071053
 40
0.1267734461
 40
0.1588809724
 40
0.1910970224
 40
0.2233851129
 40
0.2557062443
 40
0.2880202662
 40
0.3202872758
 40
0.3524690069
 40
0.3845301825
 40
0.4164397923
 40
0.4481722508
 40
0.4797084082
 40
0.5110363786
 40
0.5421521202
 40
0.573059743
 40
0.603771519
 40
0.6343075555
 40
0.6646951121
 40
0.6949675899
 40
0.7251632182
 40
0.7553234779
 40
0.7854913543
 40
0.8157095101
 40
0.8460184695
 40
0.8764549218
 40
0.9070502371
 40
0.9378293223
 40
0.9688091211
 40
1.0
 40
1.0
 40
1.0
 40
1.0
 10
7.0813594806
 20
9.1607917504
 30
0.0
 10
7.0730847544
 20
9.1613656046
 30
0.0
 10
7.056527036
 20
9.1633325075
 30
0.0
 10
7.0320241424
 20
9.1686745943
 30
0.0
 10
7.0079961906
 20
9.1763665747
 30
0.0
 10
6.9846769299
 20
9.1863339159
 30
0.0
 10
6.9622893763
 20
9.1984803092
 30
0.0
 10
6.9410484941
 20
9.2126886707
 30
0.0
 10
6.921157983
 20
9.2288223378
 30
0.0
 10
6.9028087404
 20
9.2467263405
 30
0.0
 10
6.8861768367
 20
9.2662287371
 30
0.0
 10
6.8714219745
 20
9.2871423616
 30
0.0
 10
6.8586860257
 20
9.3092665988
 30
0.0
 10
6.8480916183
 20
9.3323892053
 30
0.0
 10
6.8397408882
 20
9.3562882864
 30
0.0
 10
6.8337146475
 20
9.3807344514
 30
0.0
 10
6.8300716032
 20
9.4054929282
 30
0.0
 10
6.8288475777
 20
9.4303257312
 30
0.0
 10
6.8300552286
 20
9.454993943
 30
0.0
 10
6.8336839341
 20
9.4792599547
 30
0.0
 10
6.8396997359
 20
9.5028897155
 30
0.0
 10
6.848045447
 20
9.5256550424
 30
0.0
 10
6.8586412964
 20
9.5473358264
 30
0.0
 10
6.8713856094
 20
9.5677221883
 30
0.0
 10
6.8861555774
 20
9.5866166932
 30
0.0
 10
6.9028085168
 20
9.6038363616
 30
0.0
 10
6.9211833518
 20
9.6192144755
 30
0.0
 10
6.9411021933
 20
9.6326022979
 30
0.0
 10
6.9623720555
 20
9.6438707162
 30
0.0
 10
6.9847870595
 20
9.6529113372
 30
0.0
 10
7.0081301792
 20
9.659637521
 30
0.0
 10
7.0321765427
 20
9.6639850778
 30
0.0
 10
7.0566911436
 20
9.6659134865
 30
0.0
 10
7.0731405455
 20
9.6655750467
 30
0.0
 10
7.0813594806
 20
9.6650050616
 30
0.0
  0
SPLINE
  5
3EB
100
AcDbEntity
  8
0
100
AcDbSpline
 62
7
  6
CONTINUOUS
 70
0
 71
3
 72
15
 73
11
 74
0
 42
0.0000001
 43
0.0000001
 44
0.0000000001
 40
0.0
 40
0.0
 40
0.0
 40
0.0
 40
0.123317125
 40
0.2468171892
 40
0.3706750004
 40
0.49504957
 40
0.620077358
 40
0.7458670408
 40
0.8724927714
 40
1.0
 40
1.0
 40
1.0
 40
1.0
 10
7.2509182886
 20
9.251342838
 30
0.0
 10
7.2456673018
 20
9.2462707316
 30
0.0
 10
7.2346017223
 20
9.2366769238
 30
0.0
 10
7.2165416681
 20
9.2241403785
 30
0.0
 10
7.1971896951
 20
9.2135722609
 30
0.0
 10
7.1767439332
 20
9.2050810987
 30
0.0
 10
7.155410581
 20
9.1987512991
 30
0.0
 10
7.1334045417
 20
9.1946461275
 30
0.0
 10
7.110950462
 20
9.1928055118
 30
0.0
 10
7.0958781895
 20
9.1930994952
 30
0.0
 10
7.0883475891
 20
9.1936217441
 30
0.0
  0
SPLINE
  5
3EC
100
AcDbEntity
  8
0
100
AcDbSpline
 62
7
  6
CONTINUOUS
 70
0
 71
3
 72
15
 73
11
 74
0
 42
0.0000001
 43
0.0000001
 44
0.0000000001
 40
0.0
 40
0.0
 40
0.0
 40
0.0
 40
0.1431539673
 40
0.2810376987
 40
0.4136712803
 40
0.5410896128
 40
0.6633465419
 40
0.7805182457
 40
0.8926987413
 40
1.0
 40
1.0
 40
1.0
 40
1.0
 10
14.6419251944
 20
9.4533919926
 30
0.0
 10
14.6440810385
 20
9.4570472008
 30
0.0
 10
14.6483984387
 20
9.4641733735
 30
0.0
 10
14.6550232533
 20
9.4744942911
 30
0.0
 10
14.6616715609
 20
9.484240652
 30
0.0
 10
14.6683395226
 20
9.4934068119
 30
0.0
 10
14.6750234662
 20
9.5019875815
 30
0.0
 10
14.681719733
 20
9.5099781975
 30
0.0
 10
14.6884243207
 20
9.5173736666
 30
0.0
 10
14.692996961
 20
9.5220056899
 30
0.0
 10
14.6952847678
 20
9.5242155417
 30
0.0
  0
SPLINE
  5
3ED
100
AcDbEntity
  8
0
100
AcDbSpline
 62
7
  6
CONTINUOUS
 70
0
 71
3
 72
39
 73
35
 74
0
 42
0.0000001
 43
0.0000001
 44
0.0000000001
 40
0.0
 40
0.0
 40
0.0
 40
0.0
 40
0.0314026063
 40
0.0630095008
 40
0.0948071053
 40
0.1267734461
 40
0.1588809724
 40
0.1910970224
 40
0.2233851129
 40
0.2557062443
 40
0.2880202662
 40
0.3202872758
 40
0.3524690069
 40
0.3845301825
 40
0.4164397923
 40
0.4481722508
 40
0.4797084082
 40
0.5110363786
 40
0.5421521202
 40
0.573059743
 40
0.603771519
 40
0.6343075555
 40
0.6646951121
 40
0.6949675899
 40
0.7251632182
 40
0.7553234779
 40
0.7854913543
 40
0.8157095101
 40
0.8460184695
 40
0.8764549218
 40
0.9070502371
 40
0.9378293223
 40
0.9688091211
 40
1.0
 40
1.0
 40
1.0
 40
1.0
 10
7.0813594806
 20
9.6650050616
 30
0.0
 10
7.0896342069
 20
9.6644312074
 30
0.0
 10
7.1061919253
 20
9.6624643046
 30
0.0
 10
7.1306948189
 20
9.6571222178
 30
0.0
 10
7.1547227707
 20
9.6494302373
 30
0.0
 10
7.1780420314
 20
9.6394628962
 30
0.0
 10
7.200429585
 20
9.6273165029
 30
0.0
 10
7.2216704672
 20
9.6131081413
 30
0.0
 10
7.2415609783
 20
9.5969744743
 30
0.0
 10
7.2599102209
 20
9.5790704716
 30
0.0
 10
7.2765421246
 20
9.5595680749
 30
0.0
 10
7.2912969868
 20
9.5386544505
 30
0.0
 10
7.3040329356
 20
9.5165302133
 30
0.0
 10
7.314627343
 20
9.4934076068
 30
0.0
 10
7.3229780731
 20
9.4695085257
 30
0.0
 10
7.3290043138
 20
9.4450623607
 30
0.0
 10
7.3326473581
 20
9.4203038839
 30
0.0
 10
7.3338713836
 20
9.3954710808
 30
0.0
 10
7.3326637327
 20
9.3708028691
 30
0.0
 10
7.3290350271
 20
9.3465368574
 30
0.0
 10
7.3230192254
 20
9.3229070965
 30
0.0
 10
7.3146735143
 20
9.3001417696
 30
0.0
 10
7.3040776649
 20
9.2784609856
 30
0.0
 10
7.2913333519
 20
9.2580746238
 30
0.0
 10
7.2765633839
 20
9.2391801189
 30
0.0
 10
7.2599104444
 20
9.2219604504
 30
0.0
 10
7.2415356095
 20
9.2065823365
 30
0.0
 10
7.221616768
 20
9.1931945142
 30
0.0
 10
7.2003469058
 20
9.1819260959
 30
0.0
 10
7.1779319018
 20
9.1728854749
 30
0.0
 10
7.1545887821
 20
9.166159291
 30
0.0
 10
7.1305424186
 20
9.1618117342
 30
0.0
 10
7.1060278176
 20
9.1598833255
 30
0.0
 10
7.0895784158
 20
9.1602217653
 30
0.0
 10
7.0813594806
 20
9.1607917504
 30
0.0
  0
SPLINE
  5
3EE
100
AcDbEntity
  8
0
100
AcDbSpline
 62
7
  6
CONTINUOUS
 70
0
 71
3
 72
39
 73
35
 74
0
 42
0.0000001
 43
0.0000001
 44
0.0000000001
 40
0.0
 40
0.0
 40
0.0
 40
0.0
 40
0.0314026063
 40
0.0630095008
 40
0.0948071053
 40
0.1267734461
 40
0.1588809724
 40
0.1910970224
 40
0.2233851129
 40
0.2557062443
 40
0.2880202662
 40
0.3202872758
 40
0.3524690069
 40
0.3845301825
 40
0.4164397923
 40
0.4481722508
 40
0.4797084082
 40
0.5110363786
 40
0.5421521202
 40
0.573059743
 40
0.603771519
 40
0.6343075555
 40
0.6646951121
 40
0.6949675899
 40
0.7251632182
 40
0.7553234779
 40
0.7854913543
 40
0.8157095101
 40
0.8460184695
 40
0.8764549218
 40
0.9070502371
 40
0.9378293223
 40
0.9688091211
 40
1.0
 40
1.0
 40
1.0
 40
1.0
 10
8.4394514055
 20
6.4103115759
 30
0.0
 10
8.4311766793
 20
6.4108854301
 30
0.0
 10
8.4146189609
 20
6.4128523329
 30
0.0
 10
8.3901160672
 20
6.4181944197
 30
0.0
 10
8.3660881155
 20
6.4258864002
 30
0.0
 10
8.3427688548
 20
6.4358537413
 30
0.0
 10
8.3203813011
 20
6.4480001346
 30
0.0
 10
8.2991404189
 20
6.4622084962
 30
0.0
 10
8.2792499078
 20
6.4783421632
 30
0.0
 10
8.2609006653
 20
6.4962461659
 30
0.0
 10
8.2442687616
 20
6.5157485626
 30
0.0
 10
8.2295138994
 20
6.536662187
 30
0.0
 10
8.2167779506
 20
6.5587864242
 30
0.0
 10
8.2061835431
 20
6.5819090307
 30
0.0
 10
8.197832813
 20
6.6058081118
 30
0.0
 10
8.1918065724
 20
6.6302542768
 30
0.0
 10
8.1881635281
 20
6.6550127536
 30
0.0
 10
8.1869395026
 20
6.6798455566
 30
0.0
 10
8.1881471535
 20
6.7045137684
 30
0.0
 10
8.191775859
 20
6.7287797801
 30
0.0
 10
8.1977916608
 20
6.752409541
 30
0.0
 10
8.2061373719
 20
6.7751748679
 30
0.0
 10
8.2167332213
 20
6.7968556519
 30
0.0
 10
8.2294775343
 20
6.8172420137
 30
0.0
 10
8.2442475023
 20
6.8361365186
 30
0.0
 10
8.2609004417
 20
6.8533561871
 30
0.0
 10
8.2792752767
 20
6.868734301
 30
0.0
 10
8.2991941182
 20
6.8821221233
 30
0.0
 10
8.3204639803
 20
6.8933905416
 30
0.0
 10
8.3428789843
 20
6.9024311626
 30
0.0
 10
8.3662221041
 20
6.9091573465
 30
0.0
 10
8.3902684675
 20
6.9135049033
 30
0.0
 10
8.4147830685
 20
6.915433312
 30
0.0
 10
8.4312324704
 20
6.9150948721
 30
0.0
 10
8.4394514055
 20
6.9145248871
 30
0.0
  0
SPLINE
  5
3EF
100
AcDbEntity
  8
0
100
AcDbSpline
 62
7
  6
CONTINUOUS
 70
0
 71
3
 72
39
 73
35
 74
0
 42
0.0000001
 43
0.0000001
 44
0.0000000001
 40
0.0
 40
0.0
 40
0.0
 40
0.0
 40
0.0314026063
 40
0.0630095008
 40
0.0948071053
 40
0.1267734461
 40
0.1588809724
 40
0.1910970224
 40
0.2233851129
 40
0.2557062443
 40
0.2880202662
 40
0.3202872758
 40
0.3524690069
 40
0.3845301825
 40
0.4164397923
 40
0.4481722508
 40
0.4797084082
 40
0.5110363786
 40
0.5421521202
 40
0.573059743
 40
0.603771519
 40
0.6343075555
 40
0.6646951121
 40
0.6949675899
 40
0.7251632182
 40
0.7553234779
 40
0.7854913543
 40
0.8157095101
 40
0.8460184695
 40
0.8764549218
 40
0.9070502371
 40
0.9378293223
 40
0.9688091211
 40
1.0
 40
1.0
 40
1.0
 40
1.0
 10
8.4394514055
 20
6.9145248871
 30
0.0
 10
8.4477261318
 20
6.9139510328
 30
0.0
 10
8.4642838502
 20
6.91198413
 30
0.0
 10
8.4887867438
 20
6.9066420432
 30
0.0
 10
8.5128146955
 20
6.8989500628
 30
0.0
 10
8.5361339563
 20
6.8889827216
 30
0.0
 10
8.5585215099
 20
6.8768363283
 30
0.0
 10
8.5797623921
 20
6.8626279668
 30
0.0
 10
8.5996529032
 20
6.8464942997
 30
0.0
 10
8.6180021458
 20
6.828590297
 30
0.0
 10
8.6346340495
 20
6.8090879003
 30
0.0
 10
8.6493889117
 20
6.7881742759
 30
0.0
 10
8.6621248605
 20
6.7660500387
 30
0.0
 10
8.6727192679
 20
6.7429274322
 30
0.0
 10
8.681069998
 20
6.7190283511
 30
0.0
 10
8.6870962387
 20
6.6945821861
 30
0.0
 10
8.690739283
 20
6.6698237093
 30
0.0
 10
8.6919633085
 20
6.6449909063
 30
0.0
 10
8.6907556576
 20
6.6203226945
 30
0.0
 10
8.687126952
 20
6.5960566828
 30
0.0
 10
8.6811111503
 20
6.572426922
 30
0.0
 10
8.6727654392
 20
6.5496615951
 30
0.0
 10
8.6621695898
 20
6.5279808111
 30
0.0
 10
8.6494252768
 20
6.5075944492
 30
0.0
 10
8.6346553087
 20
6.4886999443
 30
0.0
 10
8.6180023693
 20
6.4714802759
 30
0.0
 10
8.5996275343
 20
6.456102162
 30
0.0
 10
8.5797086928
 20
6.4427143396
 30
0.0
 10
8.5584388307
 20
6.4314459213
 30
0.0
 10
8.5360238267
 20
6.4224053003
 30
0.0
 10
8.512680707
 20
6.4156791164
 30
0.0
 10
8.4886343435
 20
6.4113315597
 30
0.0
 10
8.4641197425
 20
6.409403151
 30
0.0
 10
8.4476703407
 20
6.4097415908
 30
0.0
 10
8.4394514055
 20
6.4103115759
 30
0.0
  0
SPLINE
  5
3F0
100
AcDbEntity
  8
0
100
AcDbSpline
 62
7
  6
CONTINUOUS
 70
0
 71
3
 72
22
 73
18
 74
0
 42
0.0000001
 43
0.0000001
 44
0.0000000001
 40
0.0
 40
0.0
 40
0.0
 40
0.0
 40
0.1496111271
 40
0.2224129433
 40
0.2937456225
 40
0.3635032106
 40
0.4315826523
 40
0.4978721307
 40
0.562264236
 40
0.6246561
 40
0.6849507263
 40
0.7430673819
 40
0.798943852
 40
0.8525462313
 40
0.9038818641
 40
0.95299987
 40
1.0
 40
1.0
 40
1.0
 40
1.0
 10
12.3546517372
 20
7.7378791535
 30
0.0
 10
12.3606091007
 20
7.7374683782
 30
0.0
 10
12.3694786962
 20
7.7370261281
 30
0.0
 10
12.3812021509
 20
7.7368258722
 30
0.0
 10
12.3897400426
 20
7.7368772563
 30
0.0
 10
12.3980856956
 20
7.7371341441
 30
0.0
 10
12.4062207213
 20
7.7376017782
 30
0.0
 10
12.4141256392
 20
7.7382857605
 30
0.0
 10
12.4217798456
 20
7.7391917316
 30
0.0
 10
12.4291619436
 20
7.7403251194
 30
0.0
 10
12.4362499013
 20
7.7416913013
 30
0.0
 10
12.4430211927
 20
7.7432954976
 30
0.0
 10
12.4494535086
 20
7.7451418918
 30
0.0
 10
12.4555247276
 20
7.7472350741
 30
0.0
 10
12.4612142515
 20
7.7495777463
 30
0.0
 10
12.4665015031
 20
7.7521728294
 30
0.0
 10
12.4698168182
 20
7.7541123545
 30
0.0
 10
12.4713953769
 20
7.7551259166
 30
0.0
  0
SPLINE
  5
3F1
100
AcDbEntity
  8
0
100
AcDbSpline
 62
7
  6
CONTINUOUS
 70
0
 71
3
 72
131
 73
127
 74
0
 42
0.0000001
 43
0.0000001
 44
0.0000000001
 40
0.0
 40
0.0
 40
0.0
 40
0.0
 40
0.015625
 40
0.03125
 40
0.046875
 40
0.0546875
 40
0.05859375
 40
0.0625
 40
0.06640625
 40
0.0703125
 40
0.078125
 40
0.09375
 40
0.109375
 40
0.1171875
 40
0.12109375
 40
0.125
 40
0.12890625
 40
0.1328125
 40
0.140625
 40
0.15625
 40
0.171875
 40
0.1796875
 40
0.18359375
 40
0.1875
 40
0.19140625
 40
0.1953125
 40
0.203125
 40
0.21875
 40
0.234375
 40
0.2421875
 40
0.24609375
 40
0.25
 40
0.25390625
 40
0.2578125
 40
0.265625
 40
0.28125
 40
0.296875
 40
0.3046875
 40
0.30859375
 40
0.3125
 40
0.31640625
 40
0.3203125
 40
0.328125
 40
0.34375
 40
0.359375
 40
0.3671875
 40
0.37109375
 40
0.375
 40
0.37890625
 40
0.3828125
 40
0.390625
 40
0.40625
 40
0.421875
 40
0.4296875
 40
0.43359375
 40
0.4375
 40
0.44140625
 40
0.4453125
 40
0.453125
 40
0.46875
 40
0.484375
 40
0.4921875
 40
0.49609375
 40
0.5
 40
0.50390625
 40
0.5078125
 40
0.515625
 40
0.53125
 40
0.546875
 40
0.5546875
 40
0.55859375
 40
0.5625
 40
0.56640625
 40
0.5703125
 40
0.578125
 40
0.59375
 40
0.609375
 40
0.6171875
 40
0.62109375
 40
0.625
 40
0.62890625
 40
0.6328125
 40
0.640625
 40
0.65625
 40
0.671875
 40
0.6796875
 40
0.68359375
 40
0.6875
 40
0.69140625
 40
0.6953125
 40
0.703125
 40
0.71875
 40
0.734375
 40
0.7421875
 40
0.74609375
 40
0.75
 40
0.75390625
 40
0.7578125
 40
0.765625
 40
0.78125
 40
0.796875
 40
0.8046875
 40
0.80859375
 40
0.8125
 40
0.81640625
 40
0.8203125
 40
0.828125
 40
0.84375
 40
0.859375
 40
0.8671875
 40
0.87109375
 40
0.875
 40
0.87890625
 40
0.8828125
 40
0.890625
 40
0.90625
 40
0.921875
 40
0.9296875
 40
0.93359375
 40
0.9375
 40
0.94140625
 40
0.9453125
 40
0.953125
 40
0.96875
 40
0.984375
 40
1.0
 40
1.0
 40
1.0
 40
1.0
 10
7.7604054431
 20
8.0077146164
 30
0.0
 10
7.7608901177
 20
8.0077285268
 30
0.0
 10
7.7618594253
 20
8.0077565611
 30
0.0
 10
7.7633136367
 20
8.0077973324
 30
0.0
 10
7.7645247503
 20
8.0078350422
 30
0.0
 10
7.7653739519
 20
8.0078541583
 30
0.0
 10
7.7658569909
 20
8.007876443
 30
0.0
 10
7.7662255212
 20
8.0078611529
 30
0.0
 10
7.7665701564
 20
8.0079681969
 30
0.0
 10
7.7670380094
 20
8.0080682392
 30
0.0
 10
7.767852821
 20
8.0082633158
 30
0.0
 10
7.7690192608
 20
8.0085306077
 30
0.0
 10
7.7701834958
 20
8.0088053552
 30
0.0
 10
7.7710013941
 20
8.0089899939
 30
0.0
 10
7.7714643965
 20
8.0091064385
 30
0.0
 10
7.7718239144
 20
8.0091631571
 30
0.0
 10
7.7721365521
 20
8.009336867
 30
0.0
 10
7.7725697606
 20
8.009527661
 30
0.0
 10
7.7733201949
 20
8.0098806822
 30
0.0
 10
7.7743967345
 20
8.0103740842
 30
0.0
 10
7.7754699415
 20
8.0108747007
 30
0.0
 10
7.7762250414
 20
8.0112176216
 30
0.0
 10
7.7766509183
 20
8.0114242875
 30
0.0
 10
7.7769860506
 20
8.0115492997
 30
0.0
 10
7.7772610888
 20
8.0117889051
 30
0.0
 10
7.7776487772
 20
8.012068399
 30
0.0
 10
7.778317367
 20
8.0125762278
 30
0.0
 10
7.7792784114
 20
8.0132912125
 30
0.0
 10
7.7802345815
 20
8.0140124905
 30
0.0
 10
7.7809099952
 20
8.0145115088
 30
0.0
 10
7.7812869603
 20
8.0148048477
 30
0.0
 10
7.7815948996
 20
8.0150019741
 30
0.0
 10
7.7818064698
 20
8.0152865188
 30
0.0
 10
7.7821221881
 20
8.0156354118
 30
0.0
 10
7.7826589278
 20
8.0162602599
 30
0.0
 10
7.7834347538
 20
8.0171448285
 30
0.0
 10
7.7842043929
 20
8.0180344733
 30
0.0
 10
7.7847497943
 20
8.0186522148
 30
0.0
 10
7.7850519014
 20
8.0190122753
 30
0.0
 10
7.7853052331
 20
8.019262556
 30
0.0
 10
7.7854563347
 20
8.019588363
 30
0.0
 10
7.7856934737
 20
8.0199964225
 30
0.0
 10
7.7860917358
 20
8.0207228585
 30
0.0
 10
7.7866703295
 20
8.0217537342
 30
0.0
 10
7.7872422003
 20
8.0227886808
 30
0.0
 10
7.7876498744
 20
8.0235094174
 30
0.0
 10
7.787872223
 20
8.0239264332
 30
0.0
 10
7.7880687043
 20
8.0242247608
 30
0.0
 10
7.78815161
 20
8.0245782421
 30
0.0
 10
7.7883017793
 20
8.0250303079
 30
0.0
 10
7.788545993
 20
8.0258304323
 30
0.0
 10
7.7889055421
 20
8.0269684052
 30
0.0
 10
7.7892577968
 20
8.0281094655
 30
0.0
 10
7.7895122227
 20
8.0289052675
 30
0.0
 10
7.7896463442
 20
8.0293641256
 30
0.0
 10
7.7897784874
 20
8.029696767
 30
0.0
 10
7.7897900547
 20
8.0300733601
 30
0.0
 10
7.7898475484
 20
8.0305601535
 30
0.0
 10
7.7899284372
 20
8.0314191837
 30
0.0
 10
7.7900552999
 20
8.032642645
 30
0.0
 10
7.7901745051
 20
8.0338674017
 30
0.0
 10
7.7902661146
 20
8.0347246184
 30
0.0
 10
7.7903067616
 20
8.0352142616
 30
0.0
 10
7.7903700174
 20
8.0355821109
 30
0.0
 10
7.7903080416
 20
8.0359475902
 30
0.0
 10
7.7902691014
 20
8.036435724
 30
0.0
 10
7.7901804787
 20
8.0372895573
 30
0.0
 10
7.7900655411
 20
8.0385096495
 30
0.0
 10
7.7899429427
 20
8.0397291842
 30
0.0
 10
7.7898650451
 20
8.0405837981
 30
0.0
 10
7.789809251
 20
8.0410707054
 30
0.0
 10
7.7897989856
 20
8.0414399478
 30
0.0
 10
7.7896680405
 20
8.041793664
 30
0.0
 10
7.7895355527
 20
8.0422707052
 30
0.0
 10
7.7892839686
 20
8.0431029642
 30
0.0
 10
7.7889357839
 20
8.0442935506
 30
0.0
 10
7.7885802964
 20
8.0454824387
 30
0.0
 10
7.7883389363
 20
8.0463170755
 30
0.0
 10
7.7881903823
 20
8.0467903801
 30
0.0
 10
7.7881087311
 20
8.0471555605
 30
0.0
 10
7.7879133397
 20
8.0474817487
 30
0.0
 10
7.7876925026
 20
8.0479302723
 30
0.0
 10
7.7872874386
 20
8.0487087979
 30
0.0
 10
7.7867193783
 20
8.0498247325
 30
0.0
 10
7.7861443346
 20
8.050937819
 30
0.0
 10
7.7857490473
 20
8.0517203321
 30
0.0
 10
7.7855128468
 20
8.0521625896
 30
0.0
 10
7.7853645931
 20
8.0525080034
 30
0.0
 10
7.7851059137
 20
8.052800981
 30
0.0
 10
7.7847995335
 20
8.0532099169
 30
0.0
 10
7.7842453379
 20
8.0539169403
 30
0.0
 10
7.7834637045
 20
8.0549321912
 30
0.0
 10
7.7826761159
 20
8.0559429808
 30
0.0
 10
7.7821302575
 20
8.0566562499
 30
0.0
 10
7.781810776
 20
8.0570553711
 30
0.0
 10
7.7815922939
 20
8.0573784622
 30
0.0
 10
7.7812930768
 20
8.0576107831
 30
0.0
 10
7.7809222887
 20
8.0579522156
 30
0.0
 10
7.7802602175
 20
8.0585348702
 30
0.0
 10
7.7793218452
 20
8.0593757725
 30
0.0
 10
7.7783788258
 20
8.0602108102
 30
0.0
 10
7.7777232605
 20
8.0608016752
 30
0.0
 10
7.7773422488
 20
8.0611302056
 30
0.0
 10
7.7770743996
 20
8.0614021127
 30
0.0
 10
7.7767381136
 20
8.0615765358
 30
0.0
 10
7.7763136084
 20
8.0618431144
 30
0.0
 10
7.7755595529
 20
8.0622936703
 30
0.0
 10
7.7744885516
 20
8.0629465382
 30
0.0
 10
7.7734139456
 20
8.0635929332
 30
0.0
 10
7.7726649367
 20
8.0640525513
 30
0.0
 10
7.772232501
 20
8.0643048894
 30
0.0
 10
7.7719205474
 20
8.0645230048
 30
0.0
 10
7.7715613165
 20
8.0646308233
 30
0.0
 10
7.7710988364
 20
8.0648130656
 30
0.0
 10
7.7702817758
 20
8.0651139427
 30
0.0
 10
7.7691188681
 20
8.0655541397
 30
0.0
 10
7.7679533788
 20
8.0659872214
 30
0.0
 10
7.7671399323
 20
8.0662980599
 30
0.0
 10
7.7666717728
 20
8.0664646485
 30
0.0
 10
7.7663299674
 20
8.0666204954
 30
0.0
 10
7.7659525717
 20
8.0666582373
 30
0.0
 10
7.7654617917
 20
8.0667497563
 30
0.0
 10
7.7645971425
 20
8.0668907196
 30
0.0
 10
7.7633649553
 20
8.0671021372
 30
0.0
 10
7.7618850272
 20
8.0673515128
 30
0.0
 10
7.7608986567
 20
8.0675185871
 30
0.0
 10
7.7604054405
 20
8.0676020213
 30
0.0
  0
SPLINE
  5
3F2
100
AcDbEntity
  8
0
100
AcDbSpline
 62
7
  6
CONTINUOUS
 70
0
 71
3
 72
131
 73
127
 74
0
 42
0.0000001
 43
0.0000001
 44
0.0000000001
 40
0.0
 40
0.0
 40
0.0
 40
0.0
 40
0.015625
 40
0.03125
 40
0.046875
 40
0.0546875
 40
0.05859375
 40
0.0625
 40
0.06640625
 40
0.0703125
 40
0.078125
 40
0.09375
 40
0.109375
 40
0.1171875
 40
0.12109375
 40
0.125
 40
0.12890625
 40
0.1328125
 40
0.140625
 40
0.15625
 40
0.171875
 40
0.1796875
 40
0.18359375
 40
0.1875
 40
0.19140625
 40
0.1953125
 40
0.203125
 40
0.21875
 40
0.234375
 40
0.2421875
 40
0.24609375
 40
0.25
 40
0.25390625
 40
0.2578125
 40
0.265625
 40
0.28125
 40
0.296875
 40
0.3046875
 40
0.30859375
 40
0.3125
 40
0.31640625
 40
0.3203125
 40
0.328125
 40
0.34375
 40
0.359375
 40
0.3671875
 40
0.37109375
 40
0.375
 40
0.37890625
 40
0.3828125
 40
0.390625
 40
0.40625
 40
0.421875
 40
0.4296875
 40
0.43359375
 40
0.4375
 40
0.44140625
 40
0.4453125
 40
0.453125
 40
0.46875
 40
0.484375
 40
0.4921875
 40
0.49609375
 40
0.5
 40
0.50390625
 40
0.5078125
 40
0.515625
 40
0.53125
 40
0.546875
 40
0.5546875
 40
0.55859375
 40
0.5625
 40
0.56640625
 40
0.5703125
 40
0.578125
 40
0.59375
 40
0.609375
 40
0.6171875
 40
0.62109375
 40
0.625
 40
0.62890625
 40
0.6328125
 40
0.640625
 40
0.65625
 40
0.671875
 40
0.6796875
 40
0.68359375
 40
0.6875
 40
0.69140625
 40
0.6953125
 40
0.703125
 40
0.71875
 40
0.734375
 40
0.7421875
 40
0.74609375
 40
0.75
 40
0.75390625
 40
0.7578125
 40
0.765625
 40
0.78125
 40
0.796875
 40
0.8046875
 40
0.80859375
 40
0.8125
 40
0.81640625
 40
0.8203125
 40
0.828125
 40
0.84375
 40
0.859375
 40
0.8671875
 40
0.87109375
 40
0.875
 40
0.87890625
 40
0.8828125
 40
0.890625
 40
0.90625
 40
0.921875
 40
0.9296875
 40
0.93359375
 40
0.9375
 40
0.94140625
 40
0.9453125
 40
0.953125
 40
0.96875
 40
0.984375
 40
1.0
 40
1.0
 40
1.0
 40
1.0
 10
7.7604054431
 20
8.0676020211
 30
0.0
 10
7.7599207685
 20
8.0675881107
 30
0.0
 10
7.7589514609
 20
8.0675600764
 30
0.0
 10
7.7574972494
 20
8.0675193051
 30
0.0
 10
7.7562861359
 20
8.0674815953
 30
0.0
 10
7.7554369342
 20
8.0674624792
 30
0.0
 10
7.7549538953
 20
8.0674401945
 30
0.0
 10
7.7545853649
 20
8.0674554846
 30
0.0
 10
7.7542407298
 20
8.0673484406
 30
0.0
 10
7.7537728767
 20
8.0672483983
 30
0.0
 10
7.7529580651
 20
8.0670533217
 30
0.0
 10
7.7517916253
 20
8.0667860298
 30
0.0
 10
7.7506273904
 20
8.0665112823
 30
0.0
 10
7.749809492
 20
8.0663266436
 30
0.0
 10
7.7493464896
 20
8.066210199
 30
0.0
 10
7.7489869718
 20
8.0661534804
 30
0.0
 10
7.748674334
 20
8.0659797705
 30
0.0
 10
7.7482411255
 20
8.0657889765
 30
0.0
 10
7.7474906912
 20
8.0654359553
 30
0.0
 10
7.7464141517
 20
8.0649425533
 30
0.0
 10
7.7453409447
 20
8.0644419368
 30
0.0
 10
7.7445858448
 20
8.0640990159
 30
0.0
 10
7.7441599679
 20
8.06389235
 30
0.0
 10
7.7438248355
 20
8.0637673378
 30
0.0
 10
7.7435497974
 20
8.0635277323
 30
0.0
 10
7.743162109
 20
8.0632482385
 30
0.0
 10
7.7424935192
 20
8.0627404097
 30
0.0
 10
7.7415324748
 20
8.062025425
 30
0.0
 10
7.7405763046
 20
8.061304147
 30
0.0
 10
7.7399008909
 20
8.0608051287
 30
0.0
 10
7.7395239258
 20
8.0605117898
 30
0.0
 10
7.7392159866
 20
8.0603146634
 30
0.0
 10
7.7390044164
 20
8.0600301187
 30
0.0
 10
7.7386886981
 20
8.0596812257
 30
0.0
 10
7.7381519584
 20
8.0590563776
 30
0.0
 10
7.7373761324
 20
8.058171809
 30
0.0
 10
7.7366064933
 20
8.0572821642
 30
0.0
 10
7.7360610919
 20
8.0566644227
 30
0.0
 10
7.7357589848
 20
8.0563043621
 30
0.0
 10
7.7355056531
 20
8.0560540815
 30
0.0
 10
7.7353545514
 20
8.0557282745
 30
0.0
 10
7.7351174124
 20
8.055320215
 30
0.0
 10
7.7347191504
 20
8.054593779
 30
0.0
 10
7.7341405567
 20
8.0535629033
 30
0.0
 10
7.7335686859
 20
8.0525279567
 30
0.0
 10
7.7331610118
 20
8.0518072201
 30
0.0
 10
7.7329386632
 20
8.0513902043
 30
0.0
 10
7.7327421818
 20
8.0510918767
 30
0.0
 10
7.7326592761
 20
8.0507383954
 30
0.0
 10
7.7325091069
 20
8.0502863296
 30
0.0
 10
7.7322648932
 20
8.0494862052
 30
0.0
 10
7.731905344
 20
8.0483482323
 30
0.0
 10
7.7315530894
 20
8.047207172
 30
0.0
 10
7.7312986635
 20
8.04641137
 30
0.0
 10
7.731164542
 20
8.0459525119
 30
0.0
 10
7.7310323988
 20
8.0456198705
 30
0.0
 10
7.7310208315
 20
8.0452432774
 30
0.0
 10
7.7309633378
 20
8.044756484
 30
0.0
 10
7.730882449
 20
8.0438974538
 30
0.0
 10
7.7307555862
 20
8.0426739925
 30
0.0
 10
7.730636381
 20
8.0414492358
 30
0.0
 10
7.7305447716
 20
8.0405920191
 30
0.0
 10
7.7305041246
 20
8.0401023759
 30
0.0
 10
7.7304408688
 20
8.0397345265
 30
0.0
 10
7.7305028445
 20
8.0393690473
 30
0.0
 10
7.7305417848
 20
8.0388809135
 30
0.0
 10
7.7306304075
 20
8.0380270801
 30
0.0
 10
7.7307453451
 20
8.036806988
 30
0.0
 10
7.7308679435
 20
8.0355874533
 30
0.0
 10
7.7309458411
 20
8.0347328394
 30
0.0
 10
7.7310016351
 20
8.0342459321
 30
0.0
 10
7.7310119006
 20
8.0338766897
 30
0.0
 10
7.7311428457
 20
8.0335229735
 30
0.0
 10
7.7312753335
 20
8.0330459323
 30
0.0
 10
7.7315269176
 20
8.0322136733
 30
0.0
 10
7.7318751023
 20
8.0310230869
 30
0.0
 10
7.7322305898
 20
8.0298341988
 30
0.0
 10
7.7324719499
 20
8.028999562
 30
0.0
 10
7.7326205039
 20
8.0285262574
 30
0.0
 10
7.7327021551
 20
8.028161077
 30
0.0
 10
7.7328975465
 20
8.0278348888
 30
0.0
 10
7.7331183836
 20
8.0273863652
 30
0.0
 10
7.7335234476
 20
8.0266078396
 30
0.0
 10
7.7340915079
 20
8.0254919049
 30
0.0
 10
7.7346665516
 20
8.0243788185
 30
0.0
 10
7.7350618388
 20
8.0235963054
 30
0.0
 10
7.7352980394
 20
8.0231540479
 30
0.0
 10
7.735446293
 20
8.0228086341
 30
0.0
 10
7.7357049725
 20
8.0225156565
 30
0.0
 10
7.7360113526
 20
8.0221067205
 30
0.0
 10
7.7365655483
 20
8.0213996972
 30
0.0
 10
7.7373471817
 20
8.0203844463
 30
0.0
 10
7.7381347702
 20
8.0193736567
 30
0.0
 10
7.7386806287
 20
8.0186603876
 30
0.0
 10
7.7390001102
 20
8.0182612664
 30
0.0
 10
7.7392185922
 20
8.0179381753
 30
0.0
 10
7.7395178094
 20
8.0177058543
 30
0.0
 10
7.7398885975
 20
8.0173644218
 30
0.0
 10
7.7405506687
 20
8.0167817673
 30
0.0
 10
7.741489041
 20
8.015940865
 30
0.0
 10
7.7424320604
 20
8.0151058273
 30
0.0
 10
7.7430876256
 20
8.0145149623
 30
0.0
 10
7.7434686374
 20
8.0141864319
 30
0.0
 10
7.7437364866
 20
8.0139145248
 30
0.0
 10
7.7440727726
 20
8.0137401016
 30
0.0
 10
7.7444972777
 20
8.0134735231
 30
0.0
 10
7.7452513333
 20
8.0130229672
 30
0.0
 10
7.7463223346
 20
8.0123700992
 30
0.0
 10
7.7473969406
 20
8.0117237043
 30
0.0
 10
7.7481459495
 20
8.0112640862
 30
0.0
 10
7.7485783852
 20
8.0110117481
 30
0.0
 10
7.7488903388
 20
8.0107936327
 30
0.0
 10
7.7492495696
 20
8.0106858142
 30
0.0
 10
7.7497120497
 20
8.0105035719
 30
0.0
 10
7.7505291104
 20
8.0102026948
 30
0.0
 10
7.7516920181
 20
8.0097624978
 30
0.0
 10
7.7528575074
 20
8.0093294161
 30
0.0
 10
7.7536709539
 20
8.0090185776
 30
0.0
 10
7.7541391134
 20
8.008851989
 30
0.0
 10
7.7544809188
 20
8.0086961421
 30
0.0
 10
7.7548583145
 20
8.0086584001
 30
0.0
 10
7.7553490945
 20
8.0085668812
 30
0.0
 10
7.7562137437
 20
8.0084259179
 30
0.0
 10
7.7574459309
 20
8.0082145003
 30
0.0
 10
7.758925859
 20
8.0079651247
 30
0.0
 10
7.7599122294
 20
8.0077980503
 30
0.0
 10
7.7604054457
 20
8.0077146162
 30
0.0
  0
SPLINE
  5
3F3
100
AcDbEntity
  8
0
100
AcDbSpline
 62
4
  6
CONTINUOUS
 70
0
 71
3
 72
244
 73
240
 74
0
 42
0.0000001
 43
0.0000001
 44
0.0000000001
 40
0.0
 40
0.0
 40
0.0
 40
0.0
 40
0.015625
 40
0.03125
 40
0.0390625
 40
0.046875
 40
0.0546875
 40
0.05859375
 40
0.060546875
 40
0.0625
 40
0.064453125
 40
0.06640625
 40
0.0703125
 40
0.078125
 40
0.09375
 40
0.1015625
 40
0.109375
 40
0.1171875
 40
0.12109375
 40
0.123046875
 40
0.125
 40
0.126953125
 40
0.12890625
 40
0.1328125
 40
0.140625
 40
0.15625
 40
0.1640625
 40
0.171875
 40
0.1796875
 40
0.18359375
 40
0.185546875
 40
0.1875
 40
0.189453125
 40
0.19140625
 40
0.1953125
 40
0.203125
 40
0.21875
 40
0.2265625
 40
0.234375
 40
0.23828125
 40
0.2421875
 40
0.24609375
 40
0.248046875
 40
0.2490234375
 40
0.25
 40
0.2509765625
 40
0.251953125
 40
0.25390625
 40
0.2578125
 40
0.26171875
 40
0.265625
 40
0.2734375
 40
0.28125
 40
0.2890625
 40
0.296875
 40
0.30078125
 40
0.3046875
 40
0.30859375
 40
0.310546875
 40
0.3115234375
 40
0.3125
 40
0.3134765625
 40
0.314453125
 40
0.31640625
 40
0.3203125
 40
0.32421875
 40
0.328125
 40
0.3359375
 40
0.34375
 40
0.3515625
 40
0.359375
 40
0.36328125
 40
0.3671875
 40
0.37109375
 40
0.373046875
 40
0.3740234375
 40
0.375
 40
0.3759765625
 40
0.376953125
 40
0.37890625
 40
0.3828125
 40
0.38671875
 40
0.390625
 40
0.3984375
 40
0.40625
 40
0.4140625
 40
0.421875
 40
0.42578125
 40
0.4296875
 40
0.43359375
 40
0.435546875
 40
0.4365234375
 40
0.4375
 40
0.4384765625
 40
0.439453125
 40
0.44140625
 40
0.4453125
 40
0.44921875
 40
0.453125
 40
0.4609375
 40
0.46875
 40
0.4765625
 40
0.484375
 40
0.48828125
 40
0.4921875
 40
0.494140625
 40
0.49609375
 40
0.498046875
 40
0.4990234375
 40
0.5
 40
0.5009765625
 40
0.501953125
 40
0.50390625
 40
0.505859375
 40
0.5078125
 40
0.51171875
 40
0.515625
 40
0.5234375
 40
0.53125
 40
0.5390625
 40
0.546875
 40
0.55078125
 40
0.5546875
 40
0.556640625
 40
0.55859375
 40
0.560546875
 40
0.5615234375
 40
0.5625
 40
0.5634765625
 40
0.564453125
 40
0.56640625
 40
0.568359375
 40
0.5703125
 40
0.57421875
 40
0.578125
 40
0.5859375
 40
0.59375
 40
0.6015625
 40
0.609375
 40
0.61328125
 40
0.6171875
 40
0.619140625
 40
0.62109375
 40
0.623046875
 40
0.6240234375
 40
0.625
 40
0.6259765625
 40
0.626953125
 40
0.62890625
 40
0.630859375
 40
0.6328125
 40
0.63671875
 40
0.640625
 40
0.6484375
 40
0.65625
 40
0.6640625
 40
0.671875
 40
0.67578125
 40
0.6796875
 40
0.681640625
 40
0.68359375
 40
0.685546875
 40
0.6865234375
 40
0.6875
 40
0.6884765625
 40
0.689453125
 40
0.69140625
 40
0.693359375
 40
0.6953125
 40
0.69921875
 40
0.703125
 40
0.7109375
 40
0.71875
 40
0.7265625
 40
0.734375
 40
0.73828125
 40
0.7421875
 40
0.74609375
 40
0.748046875
 40
0.7490234375
 40
0.75
 40
0.7509765625
 40
0.751953125
 40
0.75390625
 40
0.7578125
 40
0.76171875
 40
0.765625
 40
0.7734375
 40
0.78125
 40
0.7890625
 40
0.796875
 40
0.80078125
 40
0.8046875
 40
0.80859375
 40
0.810546875
 40
0.8115234375
 40
0.8125
 40
0.8134765625
 40
0.814453125
 40
0.81640625
 40
0.8203125
 40
0.82421875
 40
0.828125
 40
0.8359375
 40
0.84375
 40
0.8515625
 40
0.859375
 40
0.86328125
 40
0.8671875
 40
0.87109375
 40
0.873046875
 40
0.8740234375
 40
0.875
 40
0.8759765625
 40
0.876953125
 40
0.87890625
 40
0.8828125
 40
0.88671875
 40
0.890625
 40
0.8984375
 40
0.90625
 40
0.9140625
 40
0.921875
 40
0.92578125
 40
0.9296875
 40
0.93359375
 40
0.935546875
 40
0.9365234375
 40
0.9375
 40
0.9384765625
 40
0.939453125
 40
0.94140625
 40
0.9453125
 40
0.94921875
 40
0.953125
 40
0.9609375
 40
0.96875
 40
0.984375
 40
1.0
 40
1.0
 40
1.0
 40
1.0
 10
10.4102241572
 20
10.5205200393
 30
0.0
 10
10.4131123345
 20
10.5203962892
 30
0.0
 10
10.4188886972
 20
10.520148821
 30
0.0
 10
10.4261091097
 20
10.519839326
 30
0.0
 10
10.4318855257
 20
10.5195920654
 30
0.0
 10
10.4362176042
 20
10.5194057098
 30
0.0
 10
10.4398284122
 20
10.5192533074
 30
0.0
 10
10.4423545204
 20
10.5191409466
 30
0.0
 10
10.4438002865
 20
10.5190856079
 30
0.0
 10
10.4448782005
 20
10.519019124
 30
0.0
 10
10.4459806188
 20
10.5190481262
 30
0.0
 10
10.4474419631
 20
10.5190534921
 30
0.0
 10
10.4500032913
 20
10.5190783696
 30
0.0
 10
10.4551231107
 20
10.5191171247
 30
0.0
 10
10.4609756127
 20
10.5191660451
 30
0.0
 10
10.4668275175
 20
10.5192136503
 30
0.0
 10
10.4712169577
 20
10.5192486709
 30
0.0
 10
10.4748733681
 20
10.5192806804
 30
0.0
 10
10.4774356901
 20
10.5192974521
 30
0.0
 10
10.4788954515
 20
10.5193158481
 30
0.0
 10
10.4800027306
 20
10.5193048187
 30
0.0
 10
10.4810623884
 20
10.5193886888
 30
0.0
 10
10.4824918748
 20
10.5194674166
 30
0.0
 10
10.4849857528
 20
10.519620582
 30
0.0
 10
10.4899789866
 20
10.5199159808
 30
0.0
 10
10.4956832837
 20
10.5202581789
 30
0.0
 10
10.501388088
 20
10.5205990725
 30
0.0
 10
10.5056674254
 20
10.5208540565
 30
0.0
 10
10.5092308811
 20
10.5210693743
 30
0.0
 10
10.5117305625
 20
10.5212144516
 30
0.0
 10
10.5131507282
 20
10.5213061809
 30
0.0
 10
10.5142390201
 20
10.5213501069
 30
0.0
 10
10.5152387531
 20
10.5214891028
 30
0.0
 10
10.5166026181
 20
10.521641272
 30
0.0
 10
10.5189750173
 20
10.5219229892
 30
0.0
 10
10.5237300308
 20
10.5224754546
 30
0.0
 10
10.5291599524
 20
10.5231115636
 30
0.0
 10
10.5345913381
 20
10.5237460483
 30
0.0
 10
10.5379859436
 20
10.5241427288
 30
0.0
 10
10.5407012872
 20
10.5244601731
 30
0.0
 10
10.5427388236
 20
10.5246978802
 30
0.0
 10
10.5444334838
 20
10.5248971815
 30
0.0
 10
10.545626198
 20
10.5250343117
 30
0.0
 10
10.5462976744
 20
10.5251163894
 30
0.0
 10
10.5468296621
 20
10.525167475
 30
0.0
 10
10.5472531653
 20
10.5252585928
 30
0.0
 10
10.5478556769
 20
10.5253661194
 30
0.0
 10
10.5488924414
 20
10.5255607971
 30
0.0
 10
10.5503827512
 20
10.5258355066
 30
0.0
 10
10.5521671774
 20
10.526166614
 30
0.0
 10
10.5545477911
 20
10.5266075818
 30
0.0
 10
10.5575230816
 20
10.5271589671
 30
0.0
 10
10.5610936498
 20
10.5278205497
 30
0.0
 10
10.5646641024
 20
10.5284821704
 30
0.0
 10
10.5676396817
 20
10.5290334604
 30
0.0
 10
10.5700197178
 20
10.5294746189
 30
0.0
 10
10.5718059055
 20
10.5298051446
 30
0.0
 10
10.5732907046
 20
10.5300816738
 30
0.0
 10
10.5743373066
 20
10.530273103
 30
0.0
 10
10.5749240561
 20
10.5303858345
 30
0.0
 10
10.5753959753
 20
10.5304609647
 30
0.0
 10
10.5757461206
 20
10.5305720969
 30
0.0
 10
10.576255457
 20
10.5307077153
 30
0.0
 10
10.5771270054
 20
10.5309508985
 30
0.0
 10
10.5783824212
 20
10.531295244
 30
0.0
 10
10.5798844913
 20
10.531709768
 30
0.0
 10
10.5818887991
 20
10.5322620092
 30
0.0
 10
10.5843936486
 20
10.5329524685
 30
0.0
 10
10.5873997157
 20
10.5337809483
 30
0.0
 10
10.5904056483
 20
10.5346094609
 30
0.0
 10
10.5929108342
 20
10.5352998384
 30
0.0
 10
10.5949144692
 20
10.5358522431
 30
0.0
 10
10.5964185914
 20
10.5362662683
 30
0.0
 10
10.5976675873
 20
10.5366121742
 30
0.0
 10
10.5985505962
 20
10.5368525719
 30
0.0
 10
10.5990415701
 20
10.5369926533
 30
0.0
 10
10.5994481191
 20
10.5370900767
 30
0.0
 10
10.5997081951
 20
10.5372166948
 30
0.0
 10
10.6001060546
 20
10.5373753354
 30
0.0
 10
10.6007785041
 20
10.5376577012
 30
0.0
 10
10.6017515916
 20
10.5380586004
 30
0.0
 10
10.6029139695
 20
10.5385407412
 30
0.0
 10
10.6044656681
 20
10.5391832246
 30
0.0
 10
10.6064046481
 20
10.5399864569
 30
0.0
 10
10.6087317199
 20
10.5409502775
 30
0.0
 10
10.6110586374
 20
10.5419141256
 30
0.0
 10
10.6129980032
 20
10.5427172893
 30
0.0
 10
10.6145489302
 20
10.5433599099
 30
0.0
 10
10.6157136616
 20
10.5438416322
 30
0.0
 10
10.6166793862
 20
10.5442438405
 30
0.0
 10
10.6173649797
 20
10.5445238692
 30
0.0
 10
10.6177417792
 20
10.5446862546
 30
0.0
 10
10.6180665447
 20
10.5448013702
 30
0.0
 10
10.6182301307
 20
10.5449419947
 30
0.0
 10
10.6185044667
 20
10.5451205962
 30
0.0
 10
10.61895836
 20
10.5454372945
 30
0.0
 10
10.619620474
 20
10.5458875532
 30
0.0
 10
10.6204091488
 20
10.5464287915
 30
0.0
 10
10.6214627628
 20
10.5471501184
 30
0.0
 10
10.6227790791
 20
10.5480518881
 30
0.0
 10
10.624358953
 20
10.5491339644
 30
0.0
 10
10.6259387712
 20
10.5502160524
 30
0.0
 10
10.6272552266
 20
10.551117793
 30
0.0
 10
10.6283085623
 20
10.5518391782
 30
0.0
 10
10.6289664986
 20
10.552290062
 30
0.0
 10
10.6294937611
 20
10.5526507275
 30
0.0
 10
10.6298867069
 20
10.5529213403
 30
0.0
 10
10.6302221181
 20
10.5531464895
 30
0.0
 10
10.6304726022
 20
10.5533274195
 30
0.0
 10
10.630709226
 20
10.5534609019
 30
0.0
 10
10.6307597293
 20
10.5536028392
 30
0.0
 10
10.6308920812
 20
10.5537891356
 30
0.0
 10
10.6310352151
 20
10.5540230194
 30
0.0
 10
10.6312165235
 20
10.5543032461
 30
0.0
 10
10.6314549332
 20
10.5546770333
 30
0.0
 10
10.6317540872
 20
10.5551442154
 30
0.0
 10
10.6322320952
 20
10.5558917358
 30
0.0
 10
10.6328298257
 20
10.5568261263
 30
0.0
 10
10.6335470015
 20
10.5579473993
 30
0.0
 10
10.6342642275
 20
10.5590686708
 30
0.0
 10
10.6348618325
 20
10.5600030652
 30
0.0
 10
10.6353400914
 20
10.5607505777
 30
0.0
 10
10.6356386077
 20
10.5612177798
 30
0.0
 10
10.6358783263
 20
10.561591526
 30
0.0
 10
10.6360556358
 20
10.5618718782
 30
0.0
 10
10.6362112812
 20
10.5621053695
 30
0.0
 10
10.6363181074
 20
10.5622924666
 30
0.0
 10
10.6364465649
 20
10.5624319584
 30
0.0
 10
10.6363905159
 20
10.5625746221
 30
0.0
 10
10.6363802344
 20
10.5627637324
 30
0.0
 10
10.6363452699
 20
10.5630005004
 30
0.0
 10
10.6363127774
 20
10.5632844592
 30
0.0
 10
10.6362661482
 20
10.5636631279
 30
0.0
 10
10.6362089936
 20
10.5641364442
 30
0.0
 10
10.6361169135
 20
10.5648937612
 30
0.0
 10
10.6360020319
 20
10.5658404038
 30
0.0
 10
10.6358640741
 20
10.5669763763
 30
0.0
 10
10.6357261661
 20
10.5681123492
 30
0.0
 10
10.63561116
 20
10.5690589908
 30
0.0
 10
10.6355193289
 20
10.5698163098
 30
0.0
 10
10.6354615413
 20
10.570289621
 30
0.0
 10
10.6354162113
 20
10.5706683002
 30
0.0
 10
10.6353797496
 20
10.5709522268
 30
0.0
 10
10.6353572038
 20
10.5711890958
 30
0.0
 10
10.6353215858
 20
10.571378
 30
0.0
 10
10.6353429131
 20
10.571521293
 30
0.0
 10
10.6351808676
 20
10.571658422
 30
0.0
 10
10.6350288613
 20
10.5718434138
 30
0.0
 10
10.6348168768
 20
10.5720739149
 30
0.0
 10
10.634571902
 20
10.5723508324
 30
0.0
 10
10.6342419835
 20
10.5727199452
 30
0.0
 10
10.6338307103
 20
10.5731813741
 30
0.0
 10
10.6331720442
 20
10.5739196391
 30
0.0
 10
10.6323489289
 20
10.5748424777
 30
0.0
 10
10.6313610912
 20
10.5759498806
 30
0.0
 10
10.6303733032
 20
10.5770572858
 30
0.0
 10
10.6295500636
 20
10.5779801184
 30
0.0
 10
10.6288916461
 20
10.5787183954
 30
0.0
 10
10.6284797413
 20
10.5791797939
 30
0.0
 10
10.6281511191
 20
10.579548969
 30
0.0
 10
10.6279021838
 20
10.5798256963
 30
0.0
 10
10.6277025908
 20
10.5800567924
 30
0.0
 10
10.6275253034
 20
10.5802405702
 30
0.0
 10
10.627440465
 20
10.5803814067
 30
0.0
 10
10.6271719245
 20
10.5805107803
 30
0.0
 10
10.62687804
 20
10.5806872825
 30
0.0
 10
10.6264886681
 20
10.5809065365
 30
0.0
 10
10.6260308455
 20
10.5811702293
 30
0.0
 10
10.6254171239
 20
10.5815216143
 30
0.0
 10
10.6246510988
 20
10.5819609159
 30
0.0
 10
10.6234248295
 20
10.5826637593
 30
0.0
 10
10.6218922043
 20
10.5835423262
 30
0.0
 10
10.6200529826
 20
10.5845966045
 30
0.0
 10
10.6182137082
 20
10.5856508703
 30
0.0
 10
10.6166812148
 20
10.5865294685
 30
0.0
 10
10.6154546819
 20
10.5872322492
 30
0.0
 10
10.6145362557
 20
10.5877596022
 30
0.0
 10
10.613766213
 20
10.5881982121
 30
0.0
 10
10.6132363824
 20
10.5885069091
 30
0.0
 10
10.612919258
 20
10.5886806998
 30
0.0
 10
10.6127218785
 20
10.5888183882
 30
0.0
 10
10.6123698261
 20
10.5889279988
 30
0.0
 10
10.6119543745
 20
10.5890839402
 30
0.0
 10
10.6112021973
 20
10.5893522744
 30
0.0
 10
10.6101408003
 20
10.5897379946
 30
0.0
 10
10.6088614986
 20
10.5901998377
 30
0.0
 10
10.6071577285
 20
10.5908159854
 30
0.0
 10
10.6050273375
 20
10.5915860466
 30
0.0
 10
10.6024711765
 20
10.5925101768
 30
0.0
 10
10.5999148682
 20
10.5934342772
 30
0.0
 10
10.5977848456
 20
10.5942044132
 30
0.0
 10
10.5960803387
 20
10.5948204113
 30
0.0
 10
10.5948032844
 20
10.5952827103
 30
0.0
 10
10.5937348566
 20
10.5956670043
 30
0.0
 10
10.5929952304
 20
10.5959378846
 30
0.0
 10
10.5925596689
 20
10.5960897464
 30
0.0
 10
10.5922693878
 20
10.596211888
 30
0.0
 10
10.5918400055
 20
10.5963025122
 30
0.0
 10
10.5913160159
 20
10.5964343381
 30
0.0
 10
10.5903764276
 20
10.5966599112
 30
0.0
 10
10.5890459775
 20
10.5969848365
 30
0.0
 10
10.5874443784
 20
10.5973736005
 30
0.0
 10
10.5853106806
 20
10.5978923531
 30
0.0
 10
10.5826429486
 20
10.5985406553
 30
0.0
 10
10.5794419456
 20
10.5993186821
 30
0.0
 10
10.5762408163
 20
10.600096674
 30
0.0
 10
10.5735734002
 20
10.6007450633
 30
0.0
 10
10.5714390705
 20
10.6012636418
 30
0.0
 10
10.5698393985
 20
10.601652937
 30
0.0
 10
10.5685029198
 20
10.6019762006
 30
0.0
 10
10.5675740936
 20
10.6022047399
 30
0.0
 10
10.5670328604
 20
10.6023318132
 30
0.0
 10
10.5666564447
 20
10.6024370358
 30
0.0
 10
10.5661672297
 20
10.6025043484
 30
0.0
 10
10.5655542888
 20
10.6026073219
 30
0.0
 10
10.5644633102
 20
10.6027813645
 30
0.0
 10
10.5629143534
 20
10.6030332178
 30
0.0
 10
10.5610515029
 20
10.6033340631
 30
0.0
 10
10.5585691357
 20
10.603735672
 30
0.0
 10
10.5554656819
 20
10.6042375165
 30
0.0
 10
10.5517417618
 20
10.6048398065
 30
0.0
 10
10.5480177357
 20
10.6054420566
 30
0.0
 10
10.544914547
 20
10.6059440009
 30
0.0
 10
10.5424316497
 20
10.6063454101
 30
0.0
 10
10.5405704161
 20
10.6066468645
 30
0.0
 10
10.539016401
 20
10.6068968122
 30
0.0
 10
10.5379344523
 20
10.6070742567
 30
0.0
 10
10.5373070431
 20
10.6071717795
 30
0.0
 10
10.53686227
 20
10.6072558349
 30
0.0
 10
10.536318938
 20
10.6072981741
 30
0.0
 10
10.5356288739
 20
10.6073691774
 30
0.0
 10
10.5344052441
 20
10.6074866536
 30
0.0
 10
10.5326655756
 20
10.6076580212
 30
0.0
 10
10.5305743891
 20
10.6078621452
 30
0.0
 10
10.5277873923
 20
10.6081348404
 30
0.0
 10
10.5243032177
 20
10.608475528
 30
0.0
 10
10.518728778
 20
10.6090207295
 30
0.0
 10
10.5117606456
 20
10.6097021964
 30
0.0
 10
10.5061861649
 20
10.6102473806
 30
0.0
 10
10.5033989214
 20
10.6105199714
 30
0.0
  0
SPLINE
  5
3F4
100
AcDbEntity
  8
0
100
AcDbSpline
 62
4
  6
CONTINUOUS
 70
0
 71
3
 72
244
 73
240
 74
0
 42
0.0000001
 43
0.0000001
 44
0.0000000001
 40
0.0
 40
0.0
 40
0.0
 40
0.0
 40
0.015625
 40
0.03125
 40
0.0390625
 40
0.046875
 40
0.0546875
 40
0.05859375
 40
0.060546875
 40
0.0625
 40
0.064453125
 40
0.06640625
 40
0.0703125
 40
0.078125
 40
0.09375
 40
0.1015625
 40
0.109375
 40
0.1171875
 40
0.12109375
 40
0.123046875
 40
0.125
 40
0.126953125
 40
0.12890625
 40
0.1328125
 40
0.140625
 40
0.15625
 40
0.1640625
 40
0.171875
 40
0.1796875
 40
0.18359375
 40
0.185546875
 40
0.1875
 40
0.189453125
 40
0.19140625
 40
0.1953125
 40
0.203125
 40
0.21875
 40
0.2265625
 40
0.234375
 40
0.23828125
 40
0.2421875
 40
0.24609375
 40
0.248046875
 40
0.2490234375
 40
0.25
 40
0.2509765625
 40
0.251953125
 40
0.25390625
 40
0.2578125
 40
0.26171875
 40
0.265625
 40
0.2734375
 40
0.28125
 40
0.2890625
 40
0.296875
 40
0.30078125
 40
0.3046875
 40
0.30859375
 40
0.310546875
 40
0.3115234375
 40
0.3125
 40
0.3134765625
 40
0.314453125
 40
0.31640625
 40
0.3203125
 40
0.32421875
 40
0.328125
 40
0.3359375
 40
0.34375
 40
0.3515625
 40
0.359375
 40
0.36328125
 40
0.3671875
 40
0.37109375
 40
0.373046875
 40
0.3740234375
 40
0.375
 40
0.3759765625
 40
0.376953125
 40
0.37890625
 40
0.3828125
 40
0.38671875
 40
0.390625
 40
0.3984375
 40
0.40625
 40
0.4140625
 40
0.421875
 40
0.42578125
 40
0.4296875
 40
0.43359375
 40
0.435546875
 40
0.4365234375
 40
0.4375
 40
0.4384765625
 40
0.439453125
 40
0.44140625
 40
0.4453125
 40
0.44921875
 40
0.453125
 40
0.4609375
 40
0.46875
 40
0.4765625
 40
0.484375
 40
0.48828125
 40
0.4921875
 40
0.494140625
 40
0.49609375
 40
0.498046875
 40
0.4990234375
 40
0.5
 40
0.5009765625
 40
0.501953125
 40
0.50390625
 40
0.505859375
 40
0.5078125
 40
0.51171875
 40
0.515625
 40
0.5234375
 40
0.53125
 40
0.5390625
 40
0.546875
 40
0.55078125
 40
0.5546875
 40
0.556640625
 40
0.55859375
 40
0.560546875
 40
0.5615234375
 40
0.5625
 40
0.5634765625
 40
0.564453125
 40
0.56640625
 40
0.568359375
 40
0.5703125
 40
0.57421875
 40
0.578125
 40
0.5859375
 40
0.59375
 40
0.6015625
 40
0.609375
 40
0.61328125
 40
0.6171875
 40
0.619140625
 40
0.62109375
 40
0.623046875
 40
0.6240234375
 40
0.625
 40
0.6259765625
 40
0.626953125
 40
0.62890625
 40
0.630859375
 40
0.6328125
 40
0.63671875
 40
0.640625
 40
0.6484375
 40
0.65625
 40
0.6640625
 40
0.671875
 40
0.67578125
 40
0.6796875
 40
0.681640625
 40
0.68359375
 40
0.685546875
 40
0.6865234375
 40
0.6875
 40
0.6884765625
 40
0.689453125
 40
0.69140625
 40
0.693359375
 40
0.6953125
 40
0.69921875
 40
0.703125
 40
0.7109375
 40
0.71875
 40
0.7265625
 40
0.734375
 40
0.73828125
 40
0.7421875
 40
0.74609375
 40
0.748046875
 40
0.7490234375
 40
0.75
 40
0.7509765625
 40
0.751953125
 40
0.75390625
 40
0.7578125
 40
0.76171875
 40
0.765625
 40
0.7734375
 40
0.78125
 40
0.7890625
 40
0.796875
 40
0.80078125
 40
0.8046875
 40
0.80859375
 40
0.810546875
 40
0.8115234375
 40
0.8125
 40
0.8134765625
 40
0.814453125
 40
0.81640625
 40
0.8203125
 40
0.82421875
 40
0.828125
 40
0.8359375
 40
0.84375
 40
0.8515625
 40
0.859375
 40
0.86328125
 40
0.8671875
 40
0.87109375
 40
0.873046875
 40
0.8740234375
 40
0.875
 40
0.8759765625
 40
0.876953125
 40
0.87890625
 40
0.8828125
 40
0.88671875
 40
0.890625
 40
0.8984375
 40
0.90625
 40
0.9140625
 40
0.921875
 40
0.92578125
 40
0.9296875
 40
0.93359375
 40
0.935546875
 40
0.9365234375
 40
0.9375
 40
0.9384765625
 40
0.939453125
 40
0.94140625
 40
0.9453125
 40
0.94921875
 40
0.953125
 40
0.9609375
 40
0.96875
 40
0.984375
 40
1.0
 40
1.0
 40
1.0
 40
1.0
 10
10.5033989366
 20
10.6105199704
 30
0.0
 10
10.5005107593
 20
10.6106437204
 30
0.0
 10
10.4947343965
 20
10.6108911887
 30
0.0
 10
10.4875139841
 20
10.6112006836
 30
0.0
 10
10.4817375681
 20
10.6114479443
 30
0.0
 10
10.4774054896
 20
10.6116342999
 30
0.0
 10
10.4737946816
 20
10.6117867022
 30
0.0
 10
10.4712685733
 20
10.6118990631
 30
0.0
 10
10.4698228073
 20
10.6119544017
 30
0.0
 10
10.4687448933
 20
10.6120208857
 30
0.0
 10
10.467642475
 20
10.6119918835
 30
0.0
 10
10.4661811306
 20
10.6119865175
 30
0.0
 10
10.4636198024
 20
10.6119616401
 30
0.0
 10
10.4584999831
 20
10.6119228849
 30
0.0
 10
10.4526474811
 20
10.6118739645
 30
0.0
 10
10.4467955762
 20
10.6118263593
 30
0.0
 10
10.442406136
 20
10.6117913387
 30
0.0
 10
10.4387497257
 20
10.6117593293
 30
0.0
 10
10.4361874036
 20
10.6117425575
 30
0.0
 10
10.4347276423
 20
10.6117241615
 30
0.0
 10
10.4336203631
 20
10.611735191
 30
0.0
 10
10.4325607054
 20
10.6116513208
 30
0.0
 10
10.431131219
 20
10.6115725931
 30
0.0
 10
10.428637341
 20
10.6114194277
 30
0.0
 10
10.4236441072
 20
10.6111240288
 30
0.0
 10
10.4179398101
 20
10.6107818308
 30
0.0
 10
10.4122350058
 20
10.6104409371
 30
0.0
 10
10.4079556683
 20
10.6101859531
 30
0.0
 10
10.4043922127
 20
10.6099706354
 30
0.0
 10
10.4018925312
 20
10.609825558
 30
0.0
 10
10.4004723656
 20
10.6097338288
 30
0.0
 10
10.3993840737
 20
10.6096899028
 30
0.0
 10
10.3983843407
 20
10.6095509068
 30
0.0
 10
10.3970204756
 20
10.6093987376
 30
0.0
 10
10.3946480764
 20
10.6091170204
 30
0.0
 10
10.389893063
 20
10.6085645551
 30
0.0
 10
10.3844631414
 20
10.607928446
 30
0.0
 10
10.3790317557
 20
10.6072939613
 30
0.0
 10
10.3756371502
 20
10.6068972808
 30
0.0
 10
10.3729218066
 20
10.6065798365
 30
0.0
 10
10.3708842702
 20
10.6063421294
 30
0.0
 10
10.36918961
 20
10.6061428281
 30
0.0
 10
10.3679968957
 20
10.606005698
 30
0.0
 10
10.3673254194
 20
10.6059236202
 30
0.0
 10
10.3667934317
 20
10.6058725347
 30
0.0
 10
10.3663699285
 20
10.6057814169
 30
0.0
 10
10.3657674169
 20
10.6056738902
 30
0.0
 10
10.3647306523
 20
10.6054792126
 30
0.0
 10
10.3632403425
 20
10.605204503
 30
0.0
 10
10.3614559163
 20
10.6048733957
 30
0.0
 10
10.3590753027
 20
10.6044324279
 30
0.0
 10
10.3561000121
 20
10.6038810426
 30
0.0
 10
10.352529444
 20
10.60321946
 30
0.0
 10
10.3489589914
 20
10.6025578392
 30
0.0
 10
10.3459834121
 20
10.6020065493
 30
0.0
 10
10.343603376
 20
10.6015653908
 30
0.0
 10
10.3418171883
 20
10.6012348651
 30
0.0
 10
10.3403323892
 20
10.6009583358
 30
0.0
 10
10.3392857872
 20
10.6007669067
 30
0.0
 10
10.3386990377
 20
10.6006541751
 30
0.0
 10
10.3382271185
 20
10.6005790449
 30
0.0
 10
10.3378769732
 20
10.6004679127
 30
0.0
 10
10.3373676367
 20
10.6003322943
 30
0.0
 10
10.3364960884
 20
10.6000891112
 30
0.0
 10
10.3352406726
 20
10.5997447656
 30
0.0
 10
10.3337386025
 20
10.5993302416
 30
0.0
 10
10.3317342947
 20
10.5987780005
 30
0.0
 10
10.3292294452
 20
10.5980875412
 30
0.0
 10
10.326223378
 20
10.5972590613
 30
0.0
 10
10.3232174455
 20
10.5964305488
 30
0.0
 10
10.3207122596
 20
10.5957401713
 30
0.0
 10
10.3187086246
 20
10.5951877666
 30
0.0
 10
10.3172045024
 20
10.5947737413
 30
0.0
 10
10.3159555064
 20
10.5944278354
 30
0.0
 10
10.3150724976
 20
10.5941874377
 30
0.0
 10
10.3145815237
 20
10.5940473564
 30
0.0
 10
10.3141749746
 20
10.5939499329
 30
0.0
 10
10.3139148986
 20
10.5938233149
 30
0.0
 10
10.3135170392
 20
10.5936646742
 30
0.0
 10
10.3128445896
 20
10.5933823084
 30
0.0
 10
10.3118715021
 20
10.5929814092
 30
0.0
 10
10.3107091243
 20
10.5924992684
 30
0.0
 10
10.3091574256
 20
10.5918567851
 30
0.0
 10
10.3072184457
 20
10.5910535528
 30
0.0
 10
10.3048913738
 20
10.5900897321
 30
0.0
 10
10.3025644563
 20
10.589125884
 30
0.0
 10
10.3006250906
 20
10.5883227204
 30
0.0
 10
10.2990741636
 20
10.5876800998
 30
0.0
 10
10.2979094322
 20
10.5871983775
 30
0.0
 10
10.2969437076
 20
10.5867961691
 30
0.0
 10
10.2962581141
 20
10.5865161404
 30
0.0
 10
10.2958813146
 20
10.5863537551
 30
0.0
 10
10.2955565491
 20
10.5862386394
 30
0.0
 10
10.295392963
 20
10.586098015
 30
0.0
 10
10.2951186271
 20
10.5859194134
 30
0.0
 10
10.2946647337
 20
10.5856027151
 30
0.0
 10
10.2940026198
 20
10.5851524564
 30
0.0
 10
10.2932139449
 20
10.5846112182
 30
0.0
 10
10.292160331
 20
10.5838898913
 30
0.0
 10
10.2908440147
 20
10.5829881215
 30
0.0
 10
10.2892641408
 20
10.5819060452
 30
0.0
 10
10.2876843226
 20
10.5808239572
 30
0.0
 10
10.2863678672
 20
10.5799222166
 30
0.0
 10
10.2853145315
 20
10.5792008314
 30
0.0
 10
10.2846565951
 20
10.5787499477
 30
0.0
 10
10.2841293327
 20
10.5783892821
 30
0.0
 10
10.2837363869
 20
10.5781186694
 30
0.0
 10
10.2834009757
 20
10.5778935202
 30
0.0
 10
10.2831504916
 20
10.5777125902
 30
0.0
 10
10.2829138678
 20
10.5775791077
 30
0.0
 10
10.2828633645
 20
10.5774371704
 30
0.0
 10
10.2827310125
 20
10.577250874
 30
0.0
 10
10.2825878786
 20
10.5770169903
 30
0.0
 10
10.2824065703
 20
10.5767367635
 30
0.0
 10
10.2821681606
 20
10.5763629763
 30
0.0
 10
10.2818690066
 20
10.5758957942
 30
0.0
 10
10.2813909986
 20
10.5751482738
 30
0.0
 10
10.2807932681
 20
10.5742138833
 30
0.0
 10
10.2800760923
 20
10.5730926103
 30
0.0
 10
10.2793588663
 20
10.5719713389
 30
0.0
 10
10.2787612612
 20
10.5710369444
 30
0.0
 10
10.2782830023
 20
10.5702894319
 30
0.0
 10
10.2779844861
 20
10.5698222298
 30
0.0
 10
10.2777447675
 20
10.5694484837
 30
0.0
 10
10.2775674579
 20
10.5691681314
 30
0.0
 10
10.2774118126
 20
10.5689346402
 30
0.0
 10
10.2773049864
 20
10.5687475431
 30
0.0
 10
10.2771765289
 20
10.5686080512
 30
0.0
 10
10.2772325779
 20
10.5684653875
 30
0.0
 10
10.2772428594
 20
10.5682762773
 30
0.0
 10
10.2772778239
 20
10.5680395093
 30
0.0
 10
10.2773103164
 20
10.5677555504
 30
0.0
 10
10.2773569456
 20
10.5673768818
 30
0.0
 10
10.2774141001
 20
10.5669035654
 30
0.0
 10
10.2775061803
 20
10.5661462484
 30
0.0
 10
10.2776210619
 20
10.5651996058
 30
0.0
 10
10.2777590197
 20
10.5640636333
 30
0.0
 10
10.2778969277
 20
10.5629276604
 30
0.0
 10
10.2780119338
 20
10.5619810189
 30
0.0
 10
10.2781037649
 20
10.5612236998
 30
0.0
 10
10.2781615524
 20
10.5607503886
 30
0.0
 10
10.2782068824
 20
10.5603717094
 30
0.0
 10
10.2782433442
 20
10.5600877828
 30
0.0
 10
10.2782658899
 20
10.5598509138
 30
0.0
 10
10.278301508
 20
10.5596620096
 30
0.0
 10
10.2782801806
 20
10.5595187166
 30
0.0
 10
10.2784422262
 20
10.5593815876
 30
0.0
 10
10.2785942324
 20
10.5591965958
 30
0.0
 10
10.278806217
 20
10.5589660948
 30
0.0
 10
10.2790511917
 20
10.5586891773
 30
0.0
 10
10.2793811103
 20
10.5583200645
 30
0.0
 10
10.2797923835
 20
10.5578586356
 30
0.0
 10
10.2804510495
 20
10.5571203706
 30
0.0
 10
10.2812741649
 20
10.5561975319
 30
0.0
 10
10.2822620026
 20
10.5550901291
 30
0.0
 10
10.2832497906
 20
10.5539827239
 30
0.0
 10
10.2840730302
 20
10.5530598912
 30
0.0
 10
10.2847314477
 20
10.5523216142
 30
0.0
 10
10.2851433525
 20
10.5518602157
 30
0.0
 10
10.2854719747
 20
10.5514910406
 30
0.0
 10
10.28572091
 20
10.5512143133
 30
0.0
 10
10.285920503
 20
10.5509832173
 30
0.0
 10
10.2860977904
 20
10.5507994394
 30
0.0
 10
10.2861826288
 20
10.5506586029
 30
0.0
 10
10.2864511693
 20
10.5505292294
 30
0.0
 10
10.2867450538
 20
10.5503527271
 30
0.0
 10
10.2871344257
 20
10.5501334732
 30
0.0
 10
10.2875922483
 20
10.5498697803
 30
0.0
 10
10.2882059698
 20
10.5495183953
 30
0.0
 10
10.2889719949
 20
10.5490790937
 30
0.0
 10
10.2901982643
 20
10.5483762503
 30
0.0
 10
10.2917308895
 20
10.5474976835
 30
0.0
 10
10.2935701112
 20
10.5464434052
 30
0.0
 10
10.2954093855
 20
10.5453891394
 30
0.0
 10
10.2969418789
 20
10.5445105412
 30
0.0
 10
10.2981684119
 20
10.5438077605
 30
0.0
 10
10.299086838
 20
10.5432804074
 30
0.0
 10
10.2998568808
 20
10.5428417975
 30
0.0
 10
10.3003867114
 20
10.5425331006
 30
0.0
 10
10.3007038357
 20
10.5423593099
 30
0.0
 10
10.3009012153
 20
10.5422216214
 30
0.0
 10
10.3012532677
 20
10.5421120108
 30
0.0
 10
10.3016687192
 20
10.5419560695
 30
0.0
 10
10.3024208965
 20
10.5416877353
 30
0.0
 10
10.3034822935
 20
10.5413020151
 30
0.0
 10
10.3047615952
 20
10.5408401719
 30
0.0
 10
10.3064653652
 20
10.5402240243
 30
0.0
 10
10.3085957563
 20
10.5394539631
 30
0.0
 10
10.3111519172
 20
10.5385298328
 30
0.0
 10
10.3137082256
 20
10.5376057324
 30
0.0
 10
10.3158382482
 20
10.5368355965
 30
0.0
 10
10.3175427551
 20
10.5362195983
 30
0.0
 10
10.3188198094
 20
10.5357572993
 30
0.0
 10
10.3198882372
 20
10.5353730053
 30
0.0
 10
10.3206278634
 20
10.535102125
 30
0.0
 10
10.3210634249
 20
10.5349502632
 30
0.0
 10
10.321353706
 20
10.5348281216
 30
0.0
 10
10.3217830883
 20
10.5347374974
 30
0.0
 10
10.3223070779
 20
10.5346056716
 30
0.0
 10
10.3232466662
 20
10.5343800984
 30
0.0
 10
10.3245771163
 20
10.5340551732
 30
0.0
 10
10.3261787153
 20
10.5336664092
 30
0.0
 10
10.3283124132
 20
10.5331476566
 30
0.0
 10
10.3309801452
 20
10.5324993543
 30
0.0
 10
10.3341811482
 20
10.5317213275
 30
0.0
 10
10.3373822775
 20
10.5309433356
 30
0.0
 10
10.3400496936
 20
10.5302949463
 30
0.0
 10
10.3421840232
 20
10.5297763678
 30
0.0
 10
10.3437836952
 20
10.5293870727
 30
0.0
 10
10.345120174
 20
10.529063809
 30
0.0
 10
10.3460490002
 20
10.5288352697
 30
0.0
 10
10.3465902334
 20
10.5287081964
 30
0.0
 10
10.346966649
 20
10.5286029739
 30
0.0
 10
10.347455864
 20
10.5285356613
 30
0.0
 10
10.348068805
 20
10.5284326878
 30
0.0
 10
10.3491597836
 20
10.5282586452
 30
0.0
 10
10.3507087404
 20
10.5280067918
 30
0.0
 10
10.3525715909
 20
10.5277059465
 30
0.0
 10
10.3550539581
 20
10.5273043377
 30
0.0
 10
10.3581574118
 20
10.5268024932
 30
0.0
 10
10.3618813319
 20
10.5262002032
 30
0.0
 10
10.3656053581
 20
10.5255979531
 30
0.0
 10
10.3687085467
 20
10.5250960087
 30
0.0
 10
10.3711914441
 20
10.5246945996
 30
0.0
 10
10.3730526777
 20
10.5243931452
 30
0.0
 10
10.3746066928
 20
10.5241431975
 30
0.0
 10
10.3756886414
 20
10.5239657529
 30
0.0
 10
10.3763160507
 20
10.5238682301
 30
0.0
 10
10.3767608238
 20
10.5237841747
 30
0.0
 10
10.3773041557
 20
10.5237418356
 30
0.0
 10
10.3779942199
 20
10.5236708322
 30
0.0
 10
10.3792178497
 20
10.523553356
 30
0.0
 10
10.3809575182
 20
10.5233819884
 30
0.0
 10
10.3830487047
 20
10.5231778644
 30
0.0
 10
10.3858357014
 20
10.5229051692
 30
0.0
 10
10.389319876
 20
10.5225644817
 30
0.0
 10
10.3948943158
 20
10.5220192801
 30
0.0
 10
10.4018624482
 20
10.5213378132
 30
0.0
 10
10.4074369289
 20
10.520792629
 30
0.0
 10
10.4102241724
 20
10.5205200382
 30
0.0
  0
ENDSEC
  0
SECTION
  2
OBJECTS
  0
DICTIONARY
  5
C
100
AcDbDictionary
280
0
281
1
  3
ACAD_GROUP
350
D
  3
ACAD_MLINESTYLE
350
17
  3
ACAD_LAYOUT
350
1A
  3
ACAD_PLOTSETTINGS
350
19
  3
ACAD_PLOTSTYLENAME
350
E
  3
ACAD_IMAGE_DICT
350
       3F6
  3
ACAD_IMAGE_VARS
350
       3F7
  3
ACAD_TABLESTYLE
350
       3F8
  0
IMAGEDEF_REACTOR
  5
3F5
100
AcDbRasterImageDefReactor
 90
2
330
292
  0
DICTIONARY
  5
D
102
{ACAD_REACTORS
330
C
102
}
100
AcDbDictionary
280
0
281
1
  0
ACDBDICTIONARYWDFLT
  5
E
102
{ACAD_REACTORS
330
C
102
}
100
AcDbDictionary
281
1
  3
Normal
350
F
100
AcDbDictionaryWithDefault
340
F
  0
DICTIONARY
  5
3F6
330
C
100
AcDbDictionary
281
1
  3
K4S_assy_2_img_1
350
       3FB
  0
RASTERVARIABLES
  5
3F7
330
C
100
AcDbRasterVariables
 90
0
 70
0
 71
1
 72
5
  0
DICTIONARY
  5
17
102
{ACAD_REACTORS
330
C
102
}
100
AcDbDictionary
280
0
281
1
  3
Standard
350
18
  0
DICTIONARY
  5
3F8
330
C
100
AcDbDictionary
281
1
  3
Standard
350
       3FC
  3
Standard1
350
       3FD
  0
DICTIONARY
  5
19
102
{ACAD_REACTORS
330
C
102
}
100
AcDbDictionary
281
1
  0
DICTIONARY
  5
1A
102
{ACAD_REACTORS
330
C
102
}
100
AcDbDictionary
281
1
  3
Model
350
3F9
  3
Layout1
350
3FA
  0
ACDBPLACEHOLDER
  5
F
102
{ACAD_REACTORS
330
E
102
}
  0
MLINESTYLE
  5
18
102
{ACAD_REACTORS
330
17
102
}
100
AcDbMlineStyle
  2
STANDARD
 70
0
  3

 62
256
 51
90.0
 52
90.0
 71
2
 49
0.5
 62
256
  6
BYLAYER
 49
-0.5
 62
256
  6
BYLAYER
  0
LAYOUT
  5
3F9
102
{ACAD_REACTORS
330
1A
102
}
100
AcDbPlotSettings
  1

  2
none_device
  4
ANSI_C_(22.00_x_17.00_Inches)
  6

 40
0.0
 41
0.0
 42
0.0
 43
0.0
 44
558.8
 45
431.8
 46
0.0
 47
0.0
 48
0.0
 49
0.0
140
0.0
141
0.0
142
1.0
143
1.0
 70
1024
 72
0
 73
0
 74
0
  7

 75
0
147
1.0
148
0.0
149
0.0
100
AcDbLayout
  1
Model
 70
0
 71
0
 10
0.0
 20
0.0
 11
22.0
 21
17.0
 12
0.0
 22
0.0
 32
0.0
 14
0.0
 24
0.0
 34
0.0
 15
0.0
 25
0.0
 35
0.0
146
0.0
 13
0.0
 23
0.0
 33
0.0
 16
1.0
 26
0.0
 36
0.0
 17
0.0
 27
1.0
 37
0.0
 76
0
330
20C
345
0
346
0
  0
LAYOUT
  5
3FA
102
{ACAD_REACTORS
330
1A
102
}
100
AcDbPlotSettings
  1

  2
none_device
  4
ANSI_C_(22.00_x_17.00_Inches)
  6

 40
0.0
 41
0.0
 42
0.0
 43
0.0
 44
558.8
 45
431.8
 46
0.0
 47
0.0
 48
0.0
 49
0.0
140
0.0
141
0.0
142
1.0
143
1.0
 70
0
 72
0
 73
0
 74
0
  7

 75
0
147
1.0
148
0.0
149
0.0
100
AcDbLayout
  1
Layout1
 70
0
 71
1
 10
0.0
 20
0.0
 11
22.0
 21
17.0
 12
0.0
 22
0.0
 32
0.0
 14
0.0
 24
0.0
 34
0.0
 15
0.0
 25
0.0
 35
0.0
146
0.0
 13
0.0
 23
0.0
 33
0.0
 16
1.0
 26
0.0
 36
0.0
 17
0.0
 27
1.0
 37
0.0
 76
0
330
20D
345
0
346
0
  0
IMAGEDEF
  5
3FB
102
{ACAD_REACTORS
330
3F6
330
3F5
102
}
100
AcDbRasterImageDef
 90
0
  1
K4S_assy_2_img_1.png
 10
369.0
 20
92.0
 11
0.0066666667
 21
0.0066666667
280
1
281
0
  0
TABLESTYLE
  5
3FC
102
{ACAD_REACTORS
330
3F8
330
295
330
296
102
}
330
3F8
100
AcDbTableStyle
  3
Standard
 70
0
 71
0
 40
0.06
 41
0.06
280
1
281
1
  7
Standard
140
0.18
170
1
 62
0
 63
7
283
0
  7
Standard
140
0.18
170
1
 62
0
 63
7
283
0
  7
Standard
140
0.18
170
1
 62
0
 63
7
283
0
  0
TABLESTYLE
  5
3FD
102
{ACAD_REACTORS
330
3F8
330
294
102
}
330
3F8
100
AcDbTableStyle
  3
Standard1
 70
1
 71
0
 40
0.06
 41
0.06
280
1
281
1
  7
Standard
140
0.18
170
1
 62
0
 63
7
283
0
  7
Standard
140
0.18
170
1
 62
0
 63
7
283
0
  7
Standard
140
0.18
170
1
 62
0
 63
7
283
0
  0
ENDSEC
  0
EOF
