999
DXF file: K4R_assy_2.dxf
999
Pro/ENGINEER 2014200 by Parametric Technology Corporation
  0
SECTION
  2
HEADER
  9
$ACADVER
  1
AC1021
  9
$DWGCODEPAGE
  3
ANSI_1252
  9
$EXTMAX
 10
22.0
 20
17.0
 30
0.0
  9
$EXTMIN
 10
0.0
 20
0.0
 30
0.0
  9
$LIMMIN
 10
0.0
 20
0.0
  9
$LIMMAX
 10
22.0
 20
17.0
  9
$VIEWCTR
 10
11.0
 20
8.5
  9
$VIEWSIZE
 40
17.0
  9
$CLAYER
  8
0
  9
$LTSCALE
 40
1.21
  9
$CELTYPE
  6
BYLAYER
  9
$DIMSCALE
 40
1.0
  9
$DIMASZ
 40
0.1875
  9
$DIMEXO
 40
0.0625
  9
$DIMDLI
 40
0.836
  9
$DIMEXE
 40
0.125
  9
$DIMCEN
 40
0.198
  9
$DIMLFAC
 40
1.0
  9
$DIMBLK
  1
_FILLED
  9
$DIMTXT
 40
0.1
  9
$DIMTOL
 70
0
  9
$DIMLIM
 70
0
  9
$DIMTFAC
 40
1.0
  9
$DIMGAP
 40
0.09
  9
$DIMDSEP
 70
46
  9
$AUNITS
 70
0
  9
$PDMODE
 70
3
  9
$PDSIZE
 40
0.3125
  9
$HANDSEED
  5
3E3
  9
$TILEMODE
 70
1
  9
$MEASUREMENT
 70
0
  9
$INSUNITS
 70
1
  0
ENDSEC
  0
SECTION
  2
CLASSES
  0
CLASS
  1
ACDBDICTIONARYWDFLT
  2
AcDbDictionaryWithDefault
  3
AutoCAD 2000
 90
0
 91
1
280
0
281
0
  0
CLASS
  1
ACDBPLACEHOLDER
  2
AcDbPlaceHolder
  3
AutoCAD 2000
 90
0
 91
1
280
0
281
0
  0
CLASS
  1
LAYOUT
  2
AcDbLayout
  3
AutoCAD 2000
 90
0
 91
0
280
0
281
0
  0
CLASS
  1
RASTERVARIABLES
  2
AcDbRasterVariables
  3
ISM
 90
0
 91
1
280
0
281
0
  0
CLASS
  1
IMAGEDEF
  2
AcDbRasterImageDef
  3
ISM
 90
0
 91
1
280
0
281
0
  0
CLASS
  1
IMAGEDEF_REACTOR
  2
AcDbRasterImageDefReactor
  3
ISM
 90
0
 91
1
280
0
281
0
  0
CLASS
  1
IMAGE
  2
AcDbRasterImage
  3
ISM
 90
127
 91
1
280
0
281
1
  0
CLASS
  1
TABLESTYLE
  2
AcDbTableStyle
  3
ObjectDBX Classes
 90
2047
 91
1
280
0
281
0
  0
CLASS
  1
ACAD_TABLE
  2
AcDbTable
  3
ObjectDBX Classes
 90
1025
 91
3
280
0
281
1
  0
ENDSEC
  0
SECTION
  2
TABLES
  0
TABLE
  2
VPORT
  5
8
100
AcDbSymbolTable
 70
2
  0
VPORT
  5
1F4
100
AcDbSymbolTableRecord
100
AcDbViewportTableRecord
  2
*ACTIVE
 70
0
 10
0.0
 20
0.0
 11
1.0
 21
1.0
 12
11.0
 22
8.5
 13
0.0
 23
0.0
 14
1.0
 24
1.0
 15
0.0
 25
0.0
 16
0.0
 26
0.0
 36
1.0
 17
0.0
 27
0.0
 37
0.0
 40
17.0
 41
1.2941176471
 42
50.0
 43
0.0
 44
0.0
 50
0.0
 51
0.0
 71
0
 72
100
 73
1
 74
1
 75
0
 76
0
 77
0
 78
0
  0
ENDTAB
  0
TABLE
  2
LTYPE
  5
5
100
AcDbSymbolTable
 70
6
  0
LTYPE
  5
14
100
AcDbSymbolTableRecord
100
AcDbLinetypeTableRecord
  2
BYBLOCK
 70
0
  3

 72
65
 73
0
 40
0.0
  0
LTYPE
  5
15
100
AcDbSymbolTableRecord
100
AcDbLinetypeTableRecord
  2
BYLAYER
 70
0
  3

 72
65
 73
0
 40
0.0
  0
LTYPE
  5
16
100
AcDbSymbolTableRecord
100
AcDbLinetypeTableRecord
  2
CONTINUOUS
 70
64
  3
Solid line
 72
65
 73
0
 40
0.0
  0
LTYPE
  5
1F5
100
AcDbSymbolTableRecord
100
AcDbLinetypeTableRecord
  2
CENTER
 70
64
  3
____ _ ____ _ ____ _ ____ _ ____ _ ____ _ ____
 72
65
 73
4
 40
0.6
 49
0.375
 74
0
 49
-0.075
 74
0
 49
0.075
 74
0
 49
-0.075
 74
0
  0
LTYPE
  5
1F6
100
AcDbSymbolTableRecord
100
AcDbLinetypeTableRecord
  2
HIDDEN
 70
64
  3
- - - - - - - - - - - - - - - - - - - -
 72
65
 73
2
 40
0.2
 49
0.1
 74
0
 49
-0.1
 74
0
  0
LTYPE
  5
1F7
100
AcDbSymbolTableRecord
100
AcDbLinetypeTableRecord
  2
PHANTOM
 70
64
  3
_____ _ _ _____ _ _ _____ _ _ _____
 72
65
 73
6
 40
0.8
 49
0.45
 74
0
 49
-0.05
 74
0
 49
0.1
 74
0
 49
-0.05
 74
0
 49
0.1
 74
0
 49
-0.05
 74
0
  0
LTYPE
  5
1F8
100
AcDbSymbolTableRecord
100
AcDbLinetypeTableRecord
  2
DOT
 70
64
  3
. . . . . . . . . . . . . . . . . . . .
 72
65
 73
2
 40
0.2
 49
0.1
 74
0
 49
-0.1
 74
0
  0
LTYPE
  5
1F9
100
AcDbSymbolTableRecord
100
AcDbLinetypeTableRecord
  2
DASHED
 70
64
  3
- - - - - - - - - - - - - - - - - - - -
 72
65
 73
2
 40
0.2
 49
0.1
 74
0
 49
-0.1
 74
0
  0
ENDTAB
  0
TABLE
  2
LAYER
  5
2
100
AcDbSymbolTable
 70
36
  0
LAYER
  5
10
100
AcDbSymbolTableRecord
100
AcDbLayerTableRecord
  2
0
 70
0
 62
7
  6
CONTINUOUS
370
-3
390
F
  0
LAYER
  5
1FA
100
AcDbSymbolTableRecord
100
AcDbLayerTableRecord
  2
DEFAULT_1
 70
0
 62
7
  6
CENTER
370
-3
390
F
  0
LAYER
  5
1FB
100
AcDbSymbolTableRecord
100
AcDbLayerTableRecord
  2
DEFAULT_2
 70
0
 62
8
  6
HIDDEN
370
-3
390
F
  0
LAYER
  5
1FC
100
AcDbSymbolTableRecord
100
AcDbLayerTableRecord
  2
DEFAULT_3
 70
0
 62
7
  6
PHANTOM
370
-3
390
F
  0
LAYER
  5
1FD
100
AcDbSymbolTableRecord
100
AcDbLayerTableRecord
  2
01___PRT_ALL_DTM_PLN
 70
0
 62
7
  6
CONTINUOUS
370
-3
390
F
  0
LAYER
  5
1FE
100
AcDbSymbolTableRecord
100
AcDbLayerTableRecord
  2
01___PRT_DEF_DTM_PLN
 70
0
 62
7
  6
CONTINUOUS
370
-3
390
F
  0
LAYER
  5
1FF
100
AcDbSymbolTableRecord
100
AcDbLayerTableRecord
  2
02___PRT_ALL_AXES
 70
0
 62
7
  6
CONTINUOUS
370
-3
390
F
  0
LAYER
  5
200
100
AcDbSymbolTableRecord
100
AcDbLayerTableRecord
  2
03___PRT_ALL_CURVES
 70
0
 62
7
  6
CONTINUOUS
370
-3
390
F
  0
LAYER
  5
201
100
AcDbSymbolTableRecord
100
AcDbLayerTableRecord
  2
04___PRT_ALL_DTM_PNT
 70
0
 62
7
  6
CONTINUOUS
370
-3
390
F
  0
LAYER
  5
202
100
AcDbSymbolTableRecord
100
AcDbLayerTableRecord
  2
05___PRT_ALL_DTM_CSYS
 70
0
 62
7
  6
CONTINUOUS
370
-3
390
F
  0
LAYER
  5
203
100
AcDbSymbolTableRecord
100
AcDbLayerTableRecord
  2
05___PRT_DEF_DTM_CSYS
 70
0
 62
7
  6
CONTINUOUS
370
-3
390
F
  0
LAYER
  5
204
100
AcDbSymbolTableRecord
100
AcDbLayerTableRecord
  2
06___PRT_ALL_SURFS
 70
0
 62
7
  6
CONTINUOUS
370
-3
390
F
  0
LAYER
  5
205
100
AcDbSymbolTableRecord
100
AcDbLayerTableRecord
  2
DATUM_PLANES
 70
0
 62
7
  6
CONTINUOUS
370
-3
390
F
  0
LAYER
  5
206
100
AcDbSymbolTableRecord
100
AcDbLayerTableRecord
  2
PORT_AREAS
 70
0
 62
7
  6
CONTINUOUS
370
-3
390
F
  0
LAYER
  5
207
100
AcDbSymbolTableRecord
100
AcDbLayerTableRecord
  2
SUNNBOMCOSMETIC
 70
0
 62
7
  6
CONTINUOUS
370
-3
390
F
  0
LAYER
  5
208
100
AcDbSymbolTableRecord
100
AcDbLayerTableRecord
  2
SUNNBOMSTAMPING
 70
0
 62
7
  6
CONTINUOUS
370
-3
390
F
  0
LAYER
  5
209
100
AcDbSymbolTableRecord
100
AcDbLayerTableRecord
  2
THREADS
 70
0
 62
7
  6
CONTINUOUS
370
-3
390
F
  0
ENDTAB
  0
TABLE
  2
STYLE
  5
3
100
AcDbSymbolTable
 70
1
  0
STYLE
  5
11
100
AcDbSymbolTableRecord
100
AcDbTextStyleTableRecord
  2
STANDARD
 70
0
 40
0.0
 41
0.8
 50
0.0
 71
0
 42
0.2
  3
txt
  4

  0
STYLE
  5
20A
100
AcDbSymbolTableRecord
100
AcDbTextStyleTableRecord
  2
TEXTSTYLE_1
 70
0
 40
0.0
 41
0.8
 50
0.0
 71
0
 42
0.2
  3
gdt
  4

  0
ENDTAB
  0
TABLE
  2
VIEW
  5
6
100
AcDbSymbolTable
 70
0
  0
ENDTAB
  0
TABLE
  2
UCS
  5
7
100
AcDbSymbolTable
 70
0
  0
ENDTAB
  0
TABLE
  2
APPID
  5
9
100
AcDbSymbolTable
 70
1
  0
APPID
  5
20B
100
AcDbSymbolTableRecord
100
AcDbRegAppTableRecord
  2
ACAD
 70
0
  0
ENDTAB
  0
TABLE
  2
BLOCK_RECORD
  5
1
100
AcDbSymbolTable
 70
0
  0
BLOCK_RECORD
  5
20C
100
AcDbSymbolTableRecord
100
AcDbBlockTableRecord
  2
*Model_Space
  0
BLOCK_RECORD
  5
20D
100
AcDbSymbolTableRecord
100
AcDbBlockTableRecord
  2
*Paper_Space
  0
BLOCK_RECORD
  5
20E
100
AcDbSymbolTableRecord
100
AcDbBlockTableRecord
  2
SUN_FIRST_THIRD_ANGLE_BL0
  0
BLOCK_RECORD
  5
20F
100
AcDbSymbolTableRecord
100
AcDbBlockTableRecord
  2
*T1
  0
BLOCK_RECORD
  5
210
100
AcDbSymbolTableRecord
100
AcDbBlockTableRecord
  2
*T2
  0
BLOCK_RECORD
  5
211
100
AcDbSymbolTableRecord
100
AcDbBlockTableRecord
  2
*T3
  0
ENDTAB
  0
TABLE
  2
DIMSTYLE
  5
A
100
AcDbSymbolTable
 70
1
100
AcDbDimStyleTable
 71
0
  0
DIMSTYLE
105
212
100
AcDbSymbolTableRecord
100
AcDbDimStyleTableRecord
  2
STANDARD
 70
0
  3

  4

 40
1.0
 41
0.1875
 42
0.0625
 43
0.38
 44
0.125
 45
0.0
 46
0.0
 47
0.001
 48
0.001
140
0.1
141
0.09
142
0.0
143
25.4
144
1.0
145
0.0
146
1.0
147
0.09
 71
0.0
 72
0.0
 73
1
 74
1
 75
0
 76
0
 77
0
 78
4
170
0
171
2
172
0
173
0
174
0
175
0
176
0
177
0
178
0
270
2
271
3
272
3
273
2
274
2
275
0
280
0
281
0
282
0
283
1
284
4
285
0
286
0
287
3
288
0
340
11
278
46
  0
ENDTAB
  0
ENDSEC
  0
SECTION
  2
BLOCKS
  0
BLOCK
  5
20
100
AcDbEntity
  8
0
100
AcDbBlockBegin
  2
*Model_Space
 70
0
 10
0.0
 20
0.0
 30
0.0
  3
*Model_Space
  1

  0
ENDBLK
  5
21
100
AcDbEntity
  8
0
100
AcDbBlockEnd
  0
BLOCK
  5
1C
100
AcDbEntity
  8
0
100
AcDbBlockBegin
  2
*Paper_Space
 70
0
 10
0.0
 20
0.0
 30
0.0
  3
*Paper_Space
  1

  0
ENDBLK
  5
1D
100
AcDbEntity
  8
0
100
AcDbBlockEnd
  0
BLOCK
  5
213
100
AcDbEntity
  8
0
100
AcDbBlockBegin
 62
2
  6
CONTINUOUS
  2
SUN_FIRST_THIRD_ANGLE_BL0
 70
64
 10
20.4816717061
 20
1.2289683772
  3
SUN_FIRST_THIRD_ANGLE_BL0
  1

  0
TEXT
  5
214
100
AcDbEntity
  8
0
100
AcDbText
 62
2
  6
CONTINUOUS
 10
19.4750896608
 20
1.4136269581
  7
STANDARD
 40
0.08
  1
FIRST ANGLE
 41
0.8
 72
0
100
AcDbText
  0
TEXT
  5
215
100
AcDbEntity
  8
0
100
AcDbText
 62
2
  6
CONTINUOUS
 10
20.7842537513
 20
1.4047600029
  7
STANDARD
 40
0.08
  1
THIRD ANGLE
 41
0.8
 72
0
100
AcDbText
  0
LINE
  5
216
100
AcDbEntity
  8
0
100
AcDbLine
 62
7
  6
CONTINUOUS
 10
19.4767170086
 20
1.1727031207
 11
19.6334271527
 21
1.1717972817
  0
LINE
  5
217
100
AcDbEntity
  8
0
100
AcDbLine
 62
7
  6
CONTINUOUS
 10
19.6596964832
 20
1.1717972817
 11
19.6950230232
 21
1.171593082
  0
LINE
  5
218
100
AcDbEntity
  8
0
100
AcDbLine
 62
7
  6
CONTINUOUS
 10
19.7194818561
 20
1.1708914427
 11
19.8852396156
 21
1.1699333054
  0
LINE
  5
219
100
AcDbEntity
  8
0
100
AcDbLine
 62
7
  6
CONTINUOUS
 10
19.4758111696
 20
1.2723454088
 11
19.88525039
 21
1.3511534004
  0
LINE
  5
21A
100
AcDbEntity
  8
0
100
AcDbLine
 62
7
  6
CONTINUOUS
 10
19.88525039
 20
1.3511534004
 11
19.8831348489
 21
0.9851647912
  0
LINE
  5
21B
100
AcDbEntity
  8
0
100
AcDbLine
 62
7
  6
CONTINUOUS
 10
19.8831348489
 20
0.9851647912
 11
19.4767170086
 21
1.0658141206
  0
LINE
  5
21C
100
AcDbEntity
  8
0
100
AcDbLine
 62
7
  6
CONTINUOUS
 10
19.4767170086
 20
1.0658141206
 11
19.4779056764
 21
1.2714536432
  0
CIRCLE
  5
21D
100
AcDbEntity
  8
0
100
AcDbCircle
 62
7
  6
CONTINUOUS
 10
20.2068232291
 20
1.1717972817
 40
0.175742101
  0
CIRCLE
  5
21E
100
AcDbEntity
  8
0
100
AcDbCircle
 62
7
  6
CONTINUOUS
 10
20.2068232291
 20
1.1717972817
 40
0.1005522074
  0
LINE
  5
21F
100
AcDbEntity
  8
0
100
AcDbLine
 62
7
  6
CONTINUOUS
 10
20.2077290681
 20
1.3756110529
 11
20.2071171714
 21
1.2379342989
  0
LINE
  5
220
100
AcDbEntity
  8
0
100
AcDbLine
 62
7
  6
CONTINUOUS
 10
20.2077290681
 20
1.2016899681
 11
20.2074674401
 21
1.1428236749
  0
LINE
  5
221
100
AcDbEntity
  8
0
100
AcDbLine
 62
7
  6
CONTINUOUS
 10
20.208634907
 20
1.101141841
 11
20.2080230104
 21
0.963465087
  0
LINE
  5
222
100
AcDbEntity
  8
0
100
AcDbLine
 62
7
  6
CONTINUOUS
 10
20.0066328138
 20
1.1745147986
 11
20.1443095678
 21
1.1739029019
  0
LINE
  5
223
100
AcDbEntity
  8
0
100
AcDbLine
 62
7
  6
CONTINUOUS
 10
20.1832714155
 20
1.1727031207
 11
20.238153505
 21
1.172335442
  0
LINE
  5
224
100
AcDbEntity
  8
0
100
AcDbLine
 62
7
  6
CONTINUOUS
 10
20.2756669918
 20
1.1717972817
 11
20.407916871
 21
1.1712095044
  0
CIRCLE
  5
225
100
AcDbEntity
  8
0
100
AcDbCircle
 62
7
  6
CONTINUOUS
 10
20.7509457401
 20
1.1693297793
 40
0.1722024983
  0
CIRCLE
  5
226
100
AcDbEntity
  8
0
100
AcDbCircle
 62
7
  6
CONTINUOUS
 10
20.7509457401
 20
1.1693297793
 40
0.0985164967
  0
LINE
  5
227
100
AcDbEntity
  8
0
100
AcDbLine
 62
7
  6
CONTINUOUS
 10
20.7169767782
 20
1.170462078
 11
20.7825395137
 21
1.1682766535
  0
LINE
  5
228
100
AcDbEntity
  8
0
100
AcDbLine
 62
7
  6
CONTINUOUS
 10
20.8177513651
 20
1.1693297793
 11
20.947965719
 21
1.1693297793
  0
LINE
  5
229
100
AcDbEntity
  8
0
100
AcDbLine
 62
7
  6
CONTINUOUS
 10
20.6875370113
 20
1.170462078
 11
20.5573226574
 21
1.170462078
  0
LINE
  5
22A
100
AcDbEntity
  8
0
100
AcDbLine
 62
7
  6
CONTINUOUS
 10
20.7486811426
 20
1.1987695462
 11
20.7486811426
 21
1.1432869085
  0
LINE
  5
22B
100
AcDbEntity
  8
0
100
AcDbLine
 62
7
  6
CONTINUOUS
 10
20.7498134414
 20
1.1059210505
 11
20.7498134414
 21
0.9757066966
  0
LINE
  5
22C
100
AcDbEntity
  8
0
100
AcDbLine
 62
7
  6
CONTINUOUS
 10
20.7486811426
 20
1.2338708068
 11
20.7486811426
 21
1.3640851607
  0
LINE
  5
22D
100
AcDbEntity
  8
0
100
AcDbLine
 62
7
  6
CONTINUOUS
 10
21.0702539817
 20
1.2701043662
 11
21.4790138229
 21
1.3448360823
  0
LINE
  5
22E
100
AcDbEntity
  8
0
100
AcDbLine
 62
7
  6
CONTINUOUS
 10
21.4790138229
 20
1.3448360823
 11
21.4790138229
 21
0.9779712941
  0
LINE
  5
22F
100
AcDbEntity
  8
0
100
AcDbLine
 62
7
  6
CONTINUOUS
 10
21.4790138229
 20
0.9779712941
 11
21.069121683
 21
1.0617614
  0
LINE
  5
230
100
AcDbEntity
  8
0
100
AcDbLine
 62
7
  6
CONTINUOUS
 10
21.0702539817
 20
1.2701043662
 11
21.069121683
 21
1.0617614
  0
LINE
  5
231
100
AcDbEntity
  8
0
100
AcDbLine
 62
7
  6
CONTINUOUS
 10
21.4790138229
 20
1.1693297793
 11
21.3159628059
 21
1.1693297793
  0
LINE
  5
232
100
AcDbEntity
  8
0
100
AcDbLine
 62
7
  6
CONTINUOUS
 10
21.2876553377
 20
1.1693297793
 11
21.2502894796
 21
1.1693297793
  0
LINE
  5
233
100
AcDbEntity
  8
0
100
AcDbLine
 62
7
  6
CONTINUOUS
 10
21.2208497126
 20
1.1659328831
 11
21.0713862804
 21
1.1659328831
  0
LINE
  5
234
100
AcDbEntity
  8
0
100
AcDbLine
 62
7
  6
CONTINUOUS
 10
20.4796138713
 20
1.5284908897
 11
20.4766766948
 21
0.9294458646
  0
ENDBLK
  5
235
100
AcDbEntity
  8
0
  6
BYBLOCK
 62
0
100
AcDbBlockEnd
  0
BLOCK
  5
236
100
AcDbEntity
  8
0
100
AcDbBlockBegin
  2
*T1
 70
1
 10
0.0
 20
0.0
  3
*T1
  1

  0
LINE
  5
237
100
AcDbEntity
  8
0
100
AcDbLine
 62
2
  6
CONTINUOUS
 10
9.275
 20
0.0
 11
-0.0
 21
0.0
  0
LINE
  5
238
100
AcDbEntity
  8
0
100
AcDbLine
 62
2
  6
CONTINUOUS
 10
9.275
 20
0.0
 11
9.275
 21
1.25
  0
LINE
  5
239
100
AcDbEntity
  8
0
100
AcDbLine
 62
2
  6
CONTINUOUS
 10
9.275
 20
0.625
 11
-0.0
 21
0.625
  0
LINE
  5
23A
100
AcDbEntity
  8
0
100
AcDbLine
 62
2
  6
CONTINUOUS
 10
9.275
 20
1.25
 11
-0.0
 21
1.25
  0
LINE
  5
23B
100
AcDbEntity
  8
0
100
AcDbLine
 62
2
  6
CONTINUOUS
 10
6.8
 20
0.0
 11
6.8
 21
1.25
  0
LINE
  5
23C
100
AcDbEntity
  8
0
100
AcDbLine
 62
2
  6
CONTINUOUS
 10
6.4
 20
0.0
 11
6.4
 21
0.625
  0
LINE
  5
23D
100
AcDbEntity
  8
0
100
AcDbLine
 62
2
  6
CONTINUOUS
 10
5.9
 20
0.0
 11
5.9
 21
0.625
  0
LINE
  5
23E
100
AcDbEntity
  8
0
100
AcDbLine
 62
2
  6
CONTINUOUS
 10
5.2
 20
0.0
 11
5.2
 21
0.625
  0
LINE
  5
23F
100
AcDbEntity
  8
0
100
AcDbLine
 62
2
  6
CONTINUOUS
 10
4.1
 20
0.0
 11
4.1
 21
1.25
  0
LINE
  5
240
100
AcDbEntity
  8
0
100
AcDbLine
 62
2
  6
CONTINUOUS
 10
-0.0
 20
0.0
 11
-0.0
 21
1.25
  0
MTEXT
  5
241
100
AcDbEntity
  8
0
100
AcDbMText
 62
2
  6
CONTINUOUS
  7
STANDARD
 71
2
 72
1
 10
6.6
 20
0.325
 30
0.0
 11
1.0
 21
0.0
 31
0.0
 44
0.9
  1
2
 40
0.125
 41
0.2
  0
MTEXT
  5
242
100
AcDbEntity
  8
0
100
AcDbMText
 62
2
  6
CONTINUOUS
  7
STANDARD
 71
2
 72
1
 10
6.15
 20
0.325
 30
0.0
 11
1.0
 21
0.0
 31
0.0
 44
0.9
  1
C
 40
0.125
 41
0.2
  0
MTEXT
  5
243
100
AcDbEntity
  8
0
100
AcDbMText
 62
2
  6
CONTINUOUS
  7
STANDARD
 71
2
 72
1
 10
5.55
 20
0.325
 30
0.0
 11
1.0
 21
0.0
 31
0.0
 44
0.9
  1
1.000
 40
0.125
 41
1.0
  0
MTEXT
  5
244
100
AcDbEntity
  8
0
100
AcDbMText
 62
2
  6
CONTINUOUS
  7
STANDARD
 71
2
 72
1
 10
4.65
 20
0.325
 30
0.0
 11
1.0
 21
0.0
 31
0.0
 44
0.9
  1
Feb-26-21
 40
0.125
 41
1.8
  0
MTEXT
  5
245
100
AcDbEntity
  8
0
100
AcDbMText
 62
2
  6
CONTINUOUS
  7
STANDARD
 71
2
 72
1
 10
2.05
 20
0.4625
 30
0.0
 11
1.0
 21
0.0
 31
0.0
 44
0.9
  1
T-19A Line mount\P(See Technical Data for Body Features)
 40
0.125
 41
7.6
  0
MTEXT
  5
246
100
AcDbEntity
  8
0
100
AcDbMText
 62
2
  6
CONTINUOUS
  7
STANDARD
 71
1
 72
1
 10
6.45
 20
0.5625
 30
0.0
 11
1.0
 21
0.0
 31
0.0
 44
0.9
  1
SHEET
 40
0.06
 41
0.48
  0
MTEXT
  5
247
100
AcDbEntity
  8
0
100
AcDbMText
 62
2
  6
CONTINUOUS
  7
STANDARD
 71
1
 72
1
 10
5.95
 20
0.5625
 30
0.0
 11
1.0
 21
0.0
 31
0.0
 44
0.9
  1
DWG SIZE
 40
0.06
 41
0.768
  0
MTEXT
  5
248
100
AcDbEntity
  8
0
100
AcDbMText
 62
2
  6
CONTINUOUS
  7
STANDARD
 71
1
 72
1
 10
5.25
 20
0.5625
 30
0.0
 11
1.0
 21
0.0
 31
0.0
 44
0.9
  1
SCALE
 40
0.06
 41
0.48
  0
MTEXT
  5
249
100
AcDbEntity
  8
0
100
AcDbMText
 62
2
  6
CONTINUOUS
  7
STANDARD
 71
1
 72
1
 10
4.15
 20
0.5625
 30
0.0
 11
1.0
 21
0.0
 31
0.0
 44
0.9
  1
DATE
 40
0.06
 41
0.384
  0
MTEXT
  5
24A
100
AcDbEntity
  8
0
100
AcDbMText
 62
2
  6
CONTINUOUS
  7
STANDARD
 71
1
 72
1
 10
0.05
 20
0.5625
 30
0.0
 11
1.0
 21
0.0
 31
0.0
 44
0.9
  1
DESCRIPTION
 40
0.06
 41
1.056
  0
MTEXT
  5
24B
100
AcDbEntity
  8
0
100
AcDbMText
 62
2
  6
CONTINUOUS
  7
STANDARD
 71
2
 72
1
 10
5.45
 20
1.0375
 30
0.0
 11
1.0
 21
0.0
 31
0.0
 44
0.9
  1
ALL DIMENSIONS IN INCH\PVIEWS ARE THIRD ANGLE
 40
0.12
 41
4.224
  0
MTEXT
  5
24C
100
AcDbEntity
  8
0
100
AcDbMText
 62
2
  6
CONTINUOUS
  7
STANDARD
 71
2
 72
1
 10
2.05
 20
0.95
 30
0.0
 11
1.0
 21
0.0
 31
0.0
 44
0.9
  1
K4R
 40
0.125
 41
0.6
  0
MTEXT
  5
24D
100
AcDbEntity
  8
0
100
AcDbMText
 62
2
  6
CONTINUOUS
  7
STANDARD
 71
1
 72
1
 10
0.05
 20
1.1875
 30
0.0
 11
1.0
 21
0.0
 31
0.0
 44
0.9
  1
MODEL
 40
0.06
 41
0.48
  0
ENDBLK
  5
24E
100
AcDbEntity
  8
0
  6
BYBLOCK
 62
0
100
AcDbBlockEnd
  0
BLOCK
  5
24F
100
AcDbEntity
  8
0
100
AcDbBlockBegin
  2
*T2
 70
1
 10
0.0
 20
0.0
  3
*T2
  1

  0
LINE
  5
250
100
AcDbEntity
  8
0
100
AcDbLine
 62
2
  6
CONTINUOUS
 10
0.0
 20
0.0
 11
9.055
 21
0.0
  0
LINE
  5
251
100
AcDbEntity
  8
0
100
AcDbLine
 62
2
  6
CONTINUOUS
 10
0.0
 20
0.0
 11
0.0
 21
-1.844
  0
LINE
  5
252
100
AcDbEntity
  8
0
100
AcDbLine
 62
2
  6
CONTINUOUS
 10
0.0
 20
-0.344
 11
9.055
 21
-0.344
  0
LINE
  5
253
100
AcDbEntity
  8
0
100
AcDbLine
 62
2
  6
CONTINUOUS
 10
0.0
 20
-0.594
 11
9.055
 21
-0.594
  0
LINE
  5
254
100
AcDbEntity
  8
0
100
AcDbLine
 62
2
  6
CONTINUOUS
 10
0.0
 20
-0.844
 11
9.055
 21
-0.844
  0
LINE
  5
255
100
AcDbEntity
  8
0
100
AcDbLine
 62
2
  6
CONTINUOUS
 10
0.0
 20
-1.094
 11
9.055
 21
-1.094
  0
LINE
  5
256
100
AcDbEntity
  8
0
100
AcDbLine
 62
2
  6
CONTINUOUS
 10
0.0
 20
-1.344
 11
9.055
 21
-1.344
  0
LINE
  5
257
100
AcDbEntity
  8
0
100
AcDbLine
 62
2
  6
CONTINUOUS
 10
0.0
 20
-1.594
 11
9.055
 21
-1.594
  0
LINE
  5
258
100
AcDbEntity
  8
0
100
AcDbLine
 62
2
  6
CONTINUOUS
 10
0.0
 20
-1.844
 11
9.055
 21
-1.844
  0
LINE
  5
259
100
AcDbEntity
  8
0
100
AcDbLine
 62
2
  6
CONTINUOUS
 10
3.055
 20
0.0
 11
3.055
 21
-1.844
  0
LINE
  5
25A
100
AcDbEntity
  8
0
100
AcDbLine
 62
2
  6
CONTINUOUS
 10
9.055
 20
0.0
 11
9.055
 21
-1.844
  0
MTEXT
  5
25B
100
AcDbEntity
  8
0
100
AcDbMText
 62
2
  6
CONTINUOUS
  7
STANDARD
 71
2
 72
1
 10
1.5275
 20
-0.0995
 30
0.0
 11
1.0
 21
0.0
 31
0.0
 44
0.9
  1
Technical Data
 40
0.145
 41
3.248
  0
MTEXT
  5
25C
100
AcDbEntity
  8
0
100
AcDbMText
 62
2
  6
CONTINUOUS
  7
STANDARD
 71
2
 72
1
 10
4.555
 20
-0.0995
 30
0.0
 11
1.0
 21
0.0
 31
0.0
 44
0.9
  1
U.S. Units
 40
0.145
 41
2.32
  0
MTEXT
  5
25D
100
AcDbEntity
  8
0
100
AcDbMText
 62
2
  6
CONTINUOUS
  7
STANDARD
 71
2
 72
1
 10
7.555
 20
-0.0995
 30
0.0
 11
1.0
 21
0.0
 31
0.0
 44
0.9
  1
Metric Units
 40
0.145
 41
2.784
  0
MTEXT
  5
25E
100
AcDbEntity
  8
0
100
AcDbMText
 62
2
  6
CONTINUOUS
  7
STANDARD
 71
2
 72
1
 10
1.5275
 20
-0.4065
 30
0.0
 11
1.0
 21
0.0
 31
0.0
 44
0.9
  1
Cavity
 40
0.125
 41
1.2
  0
MTEXT
  5
25F
100
AcDbEntity
  8
0
100
AcDbMText
 62
2
  6
CONTINUOUS
  7
STANDARD
 71
2
 72
1
 10
6.055
 20
-0.4065
 30
0.0
 11
1.0
 21
0.0
 31
0.0
 44
0.9
  1
T-19A
 40
0.125
 41
1.0
  0
MTEXT
  5
260
100
AcDbEntity
  8
0
100
AcDbMText
 62
2
  6
CONTINUOUS
  7
STANDARD
 71
2
 72
1
 10
1.5275
 20
-0.6565
 30
0.0
 11
1.0
 21
0.0
 31
0.0
 44
0.9
  1
Body Features
 40
0.125
 41
2.6
  0
MTEXT
  5
261
100
AcDbEntity
  8
0
100
AcDbMText
 62
2
  6
CONTINUOUS
  7
STANDARD
 71
2
 72
1
 10
6.055
 20
-0.6565
 30
0.0
 11
1.0
 21
0.0
 31
0.0
 44
0.9
  1
Ninety degree with reverse flow check - reducing
 40
0.125
 41
9.6
  0
MTEXT
  5
262
100
AcDbEntity
  8
0
100
AcDbMText
 62
2
  6
CONTINUOUS
  7
STANDARD
 71
2
 72
1
 10
1.5275
 20
-0.9065
 30
0.0
 11
1.0
 21
0.0
 31
0.0
 44
0.9
  1
Body Type
 40
0.125
 41
1.8
  0
MTEXT
  5
263
100
AcDbEntity
  8
0
100
AcDbMText
 62
2
  6
CONTINUOUS
  7
STANDARD
 71
2
 72
1
 10
6.055
 20
-0.9065
 30
0.0
 11
1.0
 21
0.0
 31
0.0
 44
0.9
  1
Line mount
 40
0.125
 41
2.0
  0
MTEXT
  5
264
100
AcDbEntity
  8
0
100
AcDbMText
 62
2
  6
CONTINUOUS
  7
STANDARD
 71
2
 72
1
 10
1.5275
 20
-1.1565
 30
0.0
 11
1.0
 21
0.0
 31
0.0
 44
0.9
  1
Interface
 40
0.125
 41
1.8
  0
MTEXT
  5
265
100
AcDbEntity
  8
0
100
AcDbMText
 62
2
  6
CONTINUOUS
  7
STANDARD
 71
2
 72
1
 10
6.055
 20
-1.1565
 30
0.0
 11
1.0
 21
0.0
 31
0.0
 44
0.9
  1
None
 40
0.125
 41
0.8
  0
MTEXT
  5
266
100
AcDbEntity
  8
0
100
AcDbMText
 62
2
  6
CONTINUOUS
  7
STANDARD
 71
2
 72
1
 10
1.5275
 20
-1.4065
 30
0.0
 11
1.0
 21
0.0
 31
0.0
 44
0.9
  1
Open Cavity Quantity
 40
0.125
 41
4.0
  0
MTEXT
  5
267
100
AcDbEntity
  8
0
100
AcDbMText
 62
2
  6
CONTINUOUS
  7
STANDARD
 71
2
 72
1
 10
6.055
 20
-1.4065
 30
0.0
 11
1.0
 21
0.0
 31
0.0
 44
0.9
  1
1
 40
0.125
 41
0.2
  0
MTEXT
  5
268
100
AcDbEntity
  8
0
100
AcDbMText
 62
2
  6
CONTINUOUS
  7
STANDARD
 71
2
 72
1
 10
1.5275
 20
-1.6565
 30
0.0
 11
1.0
 21
0.0
 31
0.0
 44
0.9
  1
Weight
 40
0.125
 41
1.2
  0
MTEXT
  5
269
100
AcDbEntity
  8
0
100
AcDbMText
 62
2
  6
CONTINUOUS
  7
STANDARD
 71
2
 72
1
 10
4.555
 20
-1.6565
 30
0.0
 11
1.0
 21
0.0
 31
0.0
 44
0.9
  1
15.534 lb.
 40
0.125
 41
2.0
  0
MTEXT
  5
26A
100
AcDbEntity
  8
0
100
AcDbMText
 62
2
  6
CONTINUOUS
  7
STANDARD
 71
2
 72
1
 10
7.555
 20
-1.6565
 30
0.0
 11
1.0
 21
0.0
 31
0.0
 44
0.9
  1
7,046 kg.
 40
0.125
 41
1.8
  0
ENDBLK
  5
26B
100
AcDbEntity
  8
0
  6
BYBLOCK
 62
0
100
AcDbBlockEnd
  0
BLOCK
  5
26C
100
AcDbEntity
  8
0
100
AcDbBlockBegin
  2
*T3
 70
1
 10
0.0
 20
0.0
  3
*T3
  1

  0
LINE
  5
26D
100
AcDbEntity
  8
0
100
AcDbLine
 62
2
  6
CONTINUOUS
 10
0.0
 20
0.0
 11
4.6
 21
0.0
  0
LINE
  5
26E
100
AcDbEntity
  8
0
100
AcDbLine
 62
2
  6
CONTINUOUS
 10
0.0
 20
0.0
 11
0.0
 21
-1.18775
  0
LINE
  5
26F
100
AcDbEntity
  8
0
100
AcDbLine
 62
2
  6
CONTINUOUS
 10
0.0
 20
-0.34375
 11
4.6
 21
-0.34375
  0
LINE
  5
270
100
AcDbEntity
  8
0
100
AcDbLine
 62
2
  6
CONTINUOUS
 10
0.0
 20
-0.68775
 11
4.6
 21
-0.68775
  0
LINE
  5
271
100
AcDbEntity
  8
0
100
AcDbLine
 62
2
  6
CONTINUOUS
 10
0.0
 20
-0.93775
 11
4.6
 21
-0.93775
  0
LINE
  5
272
100
AcDbEntity
  8
0
100
AcDbLine
 62
2
  6
CONTINUOUS
 10
0.0
 20
-1.18775
 11
4.6
 21
-1.18775
  0
LINE
  5
273
100
AcDbEntity
  8
0
100
AcDbLine
 62
2
  6
CONTINUOUS
 10
1.3
 20
-0.34375
 11
1.3
 21
-1.18775
  0
LINE
  5
274
100
AcDbEntity
  8
0
100
AcDbLine
 62
2
  6
CONTINUOUS
 10
3.3
 20
-0.34375
 11
3.3
 21
-1.18775
  0
LINE
  5
275
100
AcDbEntity
  8
0
100
AcDbLine
 62
2
  6
CONTINUOUS
 10
4.6
 20
0.0
 11
4.6
 21
-1.18775
  0
MTEXT
  5
276
100
AcDbEntity
  8
0
100
AcDbMText
 62
2
  6
CONTINUOUS
  7
STANDARD
 71
2
 72
1
 10
2.3
 20
-0.099375
 30
0.0
 11
1.0
 21
0.0
 31
0.0
 44
0.9
  1
Port Headings
 40
0.145
 41
3.016
  0
MTEXT
  5
277
100
AcDbEntity
  8
0
100
AcDbMText
 62
2
  6
CONTINUOUS
  7
STANDARD
 71
2
 72
1
 10
0.65
 20
-0.44325
 30
0.0
 11
1.0
 21
0.0
 31
0.0
 44
0.9
  1
Product
 40
0.145
 41
1.624
  0
MTEXT
  5
278
100
AcDbEntity
  8
0
100
AcDbMText
 62
2
  6
CONTINUOUS
  7
STANDARD
 71
2
 72
1
 10
2.3
 20
-0.44325
 30
0.0
 11
1.0
 21
0.0
 31
0.0
 44
0.9
  1
Port
 40
0.145
 41
0.928
  0
MTEXT
  5
279
100
AcDbEntity
  8
0
100
AcDbMText
 62
2
  6
CONTINUOUS
  7
STANDARD
 71
2
 72
1
 10
3.95
 20
-0.44325
 30
0.0
 11
1.0
 21
0.0
 31
0.0
 44
0.9
  1
Size
 40
0.145
 41
0.928
  0
MTEXT
  5
27A
100
AcDbEntity
  8
0
100
AcDbMText
 62
2
  6
CONTINUOUS
  7
STANDARD
 71
2
 72
1
 10
0.65
 20
-0.75025
 30
0.0
 11
1.0
 21
0.0
 31
0.0
 44
0.9
  1
K4R
 40
0.125
 41
0.6
  0
MTEXT
  5
27B
100
AcDbEntity
  8
0
100
AcDbMText
 62
2
  6
CONTINUOUS
  7
STANDARD
 71
2
 72
1
 10
2.3
 20
-0.75025
 30
0.0
 11
1.0
 21
0.0
 31
0.0
 44
0.9
  1
Ports 1, 2, 3
 40
0.125
 41
2.6
  0
MTEXT
  5
27C
100
AcDbEntity
  8
0
100
AcDbMText
 62
2
  6
CONTINUOUS
  7
STANDARD
 71
2
 72
1
 10
3.95
 20
-0.75025
 30
0.0
 11
1.0
 21
0.0
 31
0.0
 44
0.9
  1
1 1/2" Code 61
 40
0.125
 41
2.8
  0
MTEXT
  5
27D
100
AcDbEntity
  8
0
100
AcDbMText
 62
2
  6
CONTINUOUS
  7
STANDARD
 71
2
 72
1
 10
0.65
 20
-1.00025
 30
0.0
 11
1.0
 21
0.0
 31
0.0
 44
0.9
  1
K4R
 40
0.125
 41
0.6
  0
MTEXT
  5
27E
100
AcDbEntity
  8
0
100
AcDbMText
 62
2
  6
CONTINUOUS
  7
STANDARD
 71
2
 72
1
 10
2.3
 20
-1.00025
 30
0.0
 11
1.0
 21
0.0
 31
0.0
 44
0.9
  1
Gage Port
 40
0.125
 41
1.8
  0
MTEXT
  5
27F
100
AcDbEntity
  8
0
100
AcDbMText
 62
2
  6
CONTINUOUS
  7
STANDARD
 71
2
 72
1
 10
3.95
 20
-1.00025
 30
0.0
 11
1.0
 21
0.0
 31
0.0
 44
0.9
  1
1/4" NPTF
 40
0.125
 41
1.8
  0
ENDBLK
  5
280
100
AcDbEntity
  8
0
  6
BYBLOCK
 62
0
100
AcDbBlockEnd
  0
ENDSEC
  0
SECTION
  2
ENTITIES
  0
IMAGE
  5
281
100
AcDbEntity
  8
0
100
AcDbRasterImage
 62
7
  6
CONTINUOUS
 10
19.2297077316
 20
0.3094318264
 30
0.0
 11
0.0066666667
 21
0.0
 31
0.0
 12
0.0
 22
0.0066666667
 32
0.0
 13
369.0
 23
92.0
340
       3E0
 70
9
280
0
281
50
282
50
283
0
360
       3DA
 71
1
 91
2
 14
-0.5
 24
-0.5
 14
368.5
 24
91.5
  0
INSERT
  5
282
100
AcDbEntity
  8
0
100
AcDbBlockReference
 62
2
  6
CONTINUOUS
  2
SUN_FIRST_THIRD_ANGLE_BL0
 10
20.4816717061
 20
1.2289683772
  0
ACAD_TABLE
  5
283
100
AcDbEntity
  8
0
 62
2
  6
CONTINUOUS
100
AcDbBlockReference
  2
*T1
 10
12.42375
 20
0.30125
 30
0.0
100
AcDbTable
342
       3E2
343
20F
 11
1.0
 21
0.0
 31
0.0
 90
6
 91
4
 92
6
 93
20
 94
0
 95
0
 96
0
 70
1
 41
0.0
141
0.525
141
0.1
141
0.525
141
0.1
142
4.1
142
1.1
142
0.7
142
0.5
142
0.4
142
2.475
171
1
172
0
173
0
174
0
175
1
176
1
 91
33
178
0
145
0.0
301
CELL_VALUE
 90
4
  1
T-19A Line mount\P(See Technical Data for Body Features)
304
ACVALUE_END
170
2
140
0.125
171
1
172
0
173
0
174
0
175
1
176
1
 91
33
178
0
145
0.0
301
CELL_VALUE
 90
4
  1
Feb-26-21
304
ACVALUE_END
170
5
140
0.125
171
1
172
0
173
0
174
0
175
1
176
1
 91
33
178
0
145
0.0
301
CELL_VALUE
 90
4
  1
1.000
304
ACVALUE_END
170
5
140
0.125
171
1
172
0
173
0
174
0
175
1
176
1
 91
33
178
0
145
0.0
301
CELL_VALUE
 90
4
  1
C
304
ACVALUE_END
170
5
140
0.125
171
1
172
0
173
0
174
0
175
1
176
1
 91
33
178
0
145
0.0
301
CELL_VALUE
 90
4
  1
2
304
ACVALUE_END
170
5
140
0.125
171
1
172
0
173
0
174
0
175
1
176
1
 91
33
178
0
145
0.0
301
CELL_VALUE
 90
4
  1
 
304
ACVALUE_END
170
1
140
0.125
171
1
172
0
173
0
174
0
175
1
176
1
 91
33
178
0
145
0.0
301
CELL_VALUE
 90
4
  1
DESCRIPTION
304
ACVALUE_END
170
1
140
0.06
171
1
172
0
173
0
174
0
175
1
176
1
 91
33
178
0
145
0.0
301
CELL_VALUE
 90
4
  1
DATE
304
ACVALUE_END
170
1
140
0.06
171
1
172
0
173
0
174
0
175
1
176
1
 91
33
178
0
145
0.0
301
CELL_VALUE
 90
4
  1
SCALE
304
ACVALUE_END
170
1
140
0.06
171
1
172
0
173
0
174
0
175
1
176
1
 91
33
178
0
145
0.0
301
CELL_VALUE
 90
4
  1
DWG SIZE
304
ACVALUE_END
170
1
140
0.06
171
1
172
0
173
0
174
0
175
1
176
1
 91
33
178
0
145
0.0
301
CELL_VALUE
 90
4
  1
SHEET
304
ACVALUE_END
170
1
140
0.06
171
1
172
0
173
0
174
0
175
1
176
1
 91
33
178
0
145
0.0
301
CELL_VALUE
 90
4
  1
 
304
ACVALUE_END
170
1
140
0.125
171
1
172
0
173
0
174
0
175
1
176
1
 91
33
178
0
145
0.0
301
CELL_VALUE
 90
4
  1
K4R
304
ACVALUE_END
170
5
140
0.125
171
1
172
0
173
0
174
0
175
4
176
1
 91
33
178
0
145
0.0
301
CELL_VALUE
 90
4
  1
ALL DIMENSIONS IN INCH\PVIEWS ARE THIRD ANGLE
304
ACVALUE_END
170
5
140
0.12
171
1
172
0
173
1
174
0
175
1
176
1
 91
1
178
0
145
0.0
170
1
171
1
172
0
173
1
174
0
175
1
176
1
 91
1
178
0
145
0.0
170
1
171
1
172
0
173
1
174
0
175
1
176
1
 91
1
178
0
145
0.0
170
5
171
1
172
0
173
0
174
0
175
1
176
1
 91
33
178
0
145
0.0
301
CELL_VALUE
 90
4
  1
 
304
ACVALUE_END
170
1
140
0.125
171
1
172
0
173
0
174
0
175
1
176
1
 91
33
178
0
145
0.0
301
CELL_VALUE
 90
4
  1
MODEL
304
ACVALUE_END
170
1
140
0.06
171
1
172
0
173
0
174
0
175
1
176
1
 91
33
178
0
145
0.0
301
CELL_VALUE
 90
4
  1
 
304
ACVALUE_END
170
1
140
0.125
171
1
172
0
173
0
174
0
175
1
176
1
 91
33
178
0
145
0.0
301
CELL_VALUE
 90
4
  1
 
304
ACVALUE_END
170
1
140
0.125
171
1
172
0
173
0
174
0
175
1
176
1
 91
33
178
0
145
0.0
301
CELL_VALUE
 90
4
  1
 
304
ACVALUE_END
170
1
140
0.125
171
1
172
0
173
0
174
0
175
1
176
1
 91
33
178
0
145
0.0
301
CELL_VALUE
 90
4
  1
 
304
ACVALUE_END
170
1
140
0.125
171
1
172
0
173
0
174
0
175
1
176
1
 91
33
178
0
145
0.0
301
CELL_VALUE
 90
4
  1
 
304
ACVALUE_END
170
1
140
0.125
  0
ACAD_TABLE
  5
284
100
AcDbEntity
  8
0
 62
2
  6
CONTINUOUS
100
AcDbBlockReference
  2
*T2
 10
12.4237499994
 20
16.47875
 30
0.0
100
AcDbTable
342
       3E1
343
210
 11
1.0
 21
0.0
 31
0.0
 90
22
 91
7
 92
3
 93
16
 94
0
 95
0
 96
0
 41
0.028
141
0.344
141
0.25
141
0.25
141
0.25
141
0.25
141
0.25
141
0.25
142
3.055
142
3.0
142
3.0
171
1
172
0
173
0
174
0
175
1
176
1
 91
33
178
0
145
0.0
301
CELL_VALUE
 90
4
  1
Technical Data
304
ACVALUE_END
170
5
140
0.145
171
1
172
0
173
0
174
0
175
1
176
1
 91
33
178
0
145
0.0
301
CELL_VALUE
 90
4
  1
U.S. Units
304
ACVALUE_END
170
5
140
0.145
171
1
172
0
173
0
174
0
175
1
176
1
 91
33
178
0
145
0.0
301
CELL_VALUE
 90
4
  1
Metric Units
304
ACVALUE_END
170
5
140
0.145
171
1
172
0
173
0
174
0
175
1
176
1
 91
33
178
0
145
0.0
301
CELL_VALUE
 90
4
  1
Cavity
304
ACVALUE_END
170
5
140
0.125
171
1
172
0
173
0
174
0
175
2
176
1
 91
33
178
0
145
0.0
301
CELL_VALUE
 90
4
  1
T-19A
304
ACVALUE_END
170
5
140
0.125
171
1
172
0
173
1
174
0
175
1
176
1
 91
1
178
0
145
0.0
170
1
171
1
172
0
173
0
174
0
175
1
176
1
 91
33
178
0
145
0.0
301
CELL_VALUE
 90
4
  1
Body Features
304
ACVALUE_END
170
5
140
0.125
171
1
172
0
173
0
174
0
175
2
176
1
 91
33
178
0
145
0.0
301
CELL_VALUE
 90
4
  1
Ninety degree with reverse flow check - reducing
304
ACVALUE_END
170
5
140
0.125
171
1
172
0
173
1
174
0
175
1
176
1
 91
1
178
0
145
0.0
170
1
171
1
172
0
173
0
174
0
175
1
176
1
 91
33
178
0
145
0.0
301
CELL_VALUE
 90
4
  1
Body Type
304
ACVALUE_END
170
5
140
0.125
171
1
172
0
173
0
174
0
175
2
176
1
 91
33
178
0
145
0.0
301
CELL_VALUE
 90
4
  1
Line mount
304
ACVALUE_END
170
5
140
0.125
171
1
172
0
173
1
174
0
175
1
176
1
 91
1
178
0
145
0.0
170
1
171
1
172
0
173
0
174
0
175
1
176
1
 91
33
178
0
145
0.0
301
CELL_VALUE
 90
4
  1
Interface
304
ACVALUE_END
170
5
140
0.125
171
1
172
0
173
0
174
0
175
2
176
1
 91
33
178
0
145
0.0
301
CELL_VALUE
 90
4
  1
None
304
ACVALUE_END
170
5
140
0.125
171
1
172
0
173
1
174
0
175
1
176
1
 91
1
178
0
145
0.0
170
1
171
1
172
0
173
0
174
0
175
1
176
1
 91
33
178
0
145
0.0
301
CELL_VALUE
 90
4
  1
Open Cavity Quantity
304
ACVALUE_END
170
5
140
0.125
171
1
172
0
173
0
174
0
175
2
176
1
 91
33
178
0
145
0.0
301
CELL_VALUE
 90
4
  1
1
304
ACVALUE_END
170
5
140
0.125
171
1
172
0
173
1
174
0
175
1
176
1
 91
1
178
0
145
0.0
170
1
171
1
172
0
173
0
174
0
175
1
176
1
 91
33
178
0
145
0.0
301
CELL_VALUE
 90
4
  1
Weight
304
ACVALUE_END
170
5
140
0.125
171
1
172
0
173
0
174
0
175
1
176
1
 91
33
178
0
145
0.0
301
CELL_VALUE
 90
4
  1
15.534 lb.
304
ACVALUE_END
170
5
140
0.125
171
1
172
0
173
0
174
0
175
1
176
1
 91
33
178
0
145
0.0
301
CELL_VALUE
 90
4
  1
7,046 kg.
304
ACVALUE_END
170
5
140
0.125
  0
ACAD_TABLE
  5
285
100
AcDbEntity
  8
0
 62
2
  6
CONTINUOUS
100
AcDbBlockReference
  2
*T3
 10
0.52125
 20
1.709
 30
0.0
100
AcDbTable
342
       3E1
343
211
 11
1.0
 21
0.0
 31
0.0
 90
22
 91
4
 92
3
 93
16
 94
0
 95
0
 96
0
 41
0.05
141
0.34375
141
0.344
141
0.25
141
0.25
142
1.3
142
2.0
142
1.3
171
1
172
0
173
0
174
0
175
3
176
1
 91
33
178
0
145
0.0
301
CELL_VALUE
 90
4
  1
Port Headings
304
ACVALUE_END
170
5
140
0.145
171
1
172
0
173
1
174
0
175
1
176
1
 91
1
178
0
145
0.0
170
1
171
1
172
0
173
1
174
0
175
1
176
1
 91
1
178
0
145
0.0
170
1
171
1
172
0
173
0
174
0
175
1
176
1
 91
33
178
0
145
0.0
301
CELL_VALUE
 90
4
  1
Product
304
ACVALUE_END
170
5
140
0.145
171
1
172
0
173
0
174
0
175
1
176
1
 91
33
178
0
145
0.0
301
CELL_VALUE
 90
4
  1
Port
304
ACVALUE_END
170
5
140
0.145
171
1
172
0
173
0
174
0
175
1
176
1
 91
33
178
0
145
0.0
301
CELL_VALUE
 90
4
  1
Size
304
ACVALUE_END
170
5
140
0.145
171
1
172
0
173
0
174
0
175
1
176
1
 91
33
178
0
145
0.0
301
CELL_VALUE
 90
4
  1
K4R
304
ACVALUE_END
170
5
140
0.125
171
1
172
0
173
0
174
0
175
1
176
1
 91
33
178
0
145
0.0
301
CELL_VALUE
 90
4
  1
Ports 1, 2, 3
304
ACVALUE_END
170
5
140
0.125
171
1
172
0
173
0
174
0
175
1
176
1
 91
33
178
0
145
0.0
301
CELL_VALUE
 90
4
  1
1 1/2" Code 61
304
ACVALUE_END
170
5
140
0.125
171
1
172
0
173
0
174
0
175
1
176
1
 91
33
178
0
145
0.0
301
CELL_VALUE
 90
4
  1
K4R
304
ACVALUE_END
170
5
140
0.125
171
1
172
0
173
0
174
0
175
1
176
1
 91
33
178
0
145
0.0
301
CELL_VALUE
 90
4
  1
Gage Port
304
ACVALUE_END
170
5
140
0.125
171
1
172
0
173
0
174
0
175
1
176
1
 91
33
178
0
145
0.0
301
CELL_VALUE
 90
4
  1
1/4" NPTF
304
ACVALUE_END
170
5
140
0.125
  0
MTEXT
  5
286
100
AcDbEntity
  8
0
100
AcDbMText
 62
2
  6
CONTINUOUS
  7
STANDARD
 71
1
 72
1
 10
0.52125
 20
5.75995
 30
0.0
 11
1.0
 21
0.0
 31
0.0
 44
0.6
  3
Notes\P \P1. Important: Carefully consider\P   the maximum system pressure. The\P   pressure rating of the manifold is\P   dependent on the manifold material,\P   with the port type/size a secondary\P   consideration. Manifolds\P   constructed of alu
  1
minum are not\P   rated for pressures higher than\P   3000 psi (210 bar), regardless of\P   the port type/size specified.
 40
0.1
 41
3.04
  0
LINE
  5
287
100
AcDbEntity
  8
0
100
AcDbLine
 62
7
  6
CONTINUOUS
 10
0.30125
 20
0.30125
 11
0.30125
 21
16.69875
  0
LINE
  5
288
100
AcDbEntity
  8
0
100
AcDbLine
 62
7
  6
CONTINUOUS
 10
0.30125
 20
0.30125
 11
21.69875
 21
0.30125
  0
LINE
  5
289
100
AcDbEntity
  8
0
100
AcDbLine
 62
7
  6
CONTINUOUS
 10
0.30125
 20
16.69875
 11
21.69875
 21
16.69875
  0
LINE
  5
28A
100
AcDbEntity
  8
0
100
AcDbLine
 62
7
  6
CONTINUOUS
 10
21.69875
 20
0.30125
 11
21.69875
 21
16.69875
  0
LINE
  5
28B
100
AcDbEntity
  8
0
100
AcDbLine
 62
7
  6
CONTINUOUS
 10
6.1907758824
 20
5.9731792606
 11
6.1907758824
 21
10.3198457364
  0
LINE
  5
28C
100
AcDbEntity
  8
0
100
AcDbLine
 62
7
  6
CONTINUOUS
 10
6.1907758824
 20
10.3198457364
 11
7.4688233247
 21
11.5543448413
  0
LINE
  5
28D
100
AcDbEntity
  8
0
100
AcDbLine
 62
4
  6
CONTINUOUS
 10
7.760037028
 20
10.2706357496
 11
7.7639193104
 21
10.2743857466
  0
LINE
  5
28E
100
AcDbEntity
  8
0
100
AcDbLine
 62
4
  6
CONTINUOUS
 10
7.8083333234
 20
10.2672863901
 11
7.8122156058
 21
10.2710363872
  0
LINE
  5
28F
100
AcDbEntity
  8
0
100
AcDbLine
 62
4
  6
CONTINUOUS
 10
7.8798304139
 20
10.2663472843
 11
7.8759481315
 21
10.2625972873
  0
LINE
  5
290
100
AcDbEntity
  8
0
100
AcDbLine
 62
7
  6
CONTINUOUS
 10
13.7974422151
 20
5.4456551587
 11
6.1907758824
 21
5.9731792606
  0
LINE
  5
291
100
AcDbEntity
  8
0
100
AcDbLine
 62
4
  6
CONTINUOUS
 10
10.6606242462
 20
11.2623880782
 11
10.6645065286
 21
11.2661380753
  0
LINE
  5
292
100
AcDbEntity
  8
0
100
AcDbLine
 62
4
  6
CONTINUOUS
 10
10.7707119261
 20
11.2487246203
 11
10.7862410556
 21
11.2637246085
  0
LINE
  5
293
100
AcDbEntity
  8
0
100
AcDbLine
 62
4
  6
CONTINUOUS
 10
10.3741942644
 20
10.5457178319
 11
10.3830680526
 21
10.5542892536
  0
LINE
  5
294
100
AcDbEntity
  8
0
100
AcDbLine
 62
4
  6
CONTINUOUS
 10
10.6152655098
 20
10.7785747876
 11
10.6160049893
 21
10.77928907
  0
LINE
  5
295
100
AcDbEntity
  8
0
100
AcDbLine
 62
4
  6
CONTINUOUS
 10
10.5951402466
 20
10.7248495635
 11
10.5840480091
 21
10.7141352842
  0
LINE
  5
296
100
AcDbEntity
  8
0
100
AcDbLine
 62
4
  6
CONTINUOUS
 10
10.5004864955
 20
10.6334210553
 11
10.511578733
 21
10.6441353346
  0
LINE
  5
297
100
AcDbEntity
  8
0
100
AcDbLine
 62
4
  6
CONTINUOUS
 10
10.5463344046
 20
10.6777067374
 11
10.5552081887
 21
10.6862781551
  0
LINE
  5
298
100
AcDbEntity
  8
0
100
AcDbLine
 62
4
  6
CONTINUOUS
 10
10.5640819875
 20
10.6948495872
 11
10.5729557716
 21
10.7034210049
  0
LINE
  5
299
100
AcDbEntity
  8
0
100
AcDbLine
 62
4
  6
CONTINUOUS
 10
10.6624331216
 20
10.7898494932
 11
10.6713069353
 21
10.7984209395
  0
LINE
  5
29A
100
AcDbEntity
  8
0
100
AcDbLine
 62
4
  6
CONTINUOUS
 10
10.682399158
 20
10.8091352045
 11
10.691272942
 21
10.8177066223
  0
LINE
  5
29B
100
AcDbEntity
  8
0
100
AcDbLine
 62
4
  6
CONTINUOUS
 10
10.6298817248
 20
10.7155501136
 11
10.6387555089
 21
10.7241215313
  0
LINE
  5
29C
100
AcDbEntity
  8
0
100
AcDbLine
 62
4
  6
CONTINUOUS
 10
10.7354295537
 20
10.8146443508
 11
10.7210361936
 21
10.806455717
  0
LINE
  5
29D
100
AcDbEntity
  8
0
100
AcDbLine
 62
4
  6
CONTINUOUS
 10
10.6712785484
 20
10.7126792341
 11
10.6585622915
 21
10.7089677012
  0
LINE
  5
29E
100
AcDbEntity
  8
0
100
AcDbLine
 62
4
  6
CONTINUOUS
 10
10.6291280519
 20
10.6719649785
 11
10.6164117949
 21
10.6682534455
  0
LINE
  5
29F
100
AcDbEntity
  8
0
100
AcDbLine
 62
4
  6
CONTINUOUS
 10
11.2675768394
 20
10.7509449167
 11
11.301486864
 21
10.7608423426
  0
LINE
  5
2A0
100
AcDbEntity
  8
0
100
AcDbLine
 62
4
  6
CONTINUOUS
 10
11.0434075277
 20
10.5115568316
 11
11.0773175515
 21
10.5214542586
  0
LINE
  5
2A1
100
AcDbEntity
  8
0
100
AcDbLine
 62
4
  6
CONTINUOUS
 10
10.7541005825
 20
10.7926791806
 11
10.7452267688
 21
10.7841077343
  0
LINE
  5
2A2
100
AcDbEntity
  8
0
100
AcDbLine
 62
4
  6
CONTINUOUS
 10
10.7178659371
 20
10.7576791987
 11
10.713429045
 21
10.7533934898
  0
LINE
  5
2A3
100
AcDbEntity
  8
0
100
AcDbLine
 62
4
  6
CONTINUOUS
 10
10.6801523325
 20
10.7212506519
 11
10.6712785484
 21
10.7126792341
  0
LINE
  5
2A4
100
AcDbEntity
  8
0
100
AcDbLine
 62
4
  6
CONTINUOUS
 10
10.6380018359
 20
10.6805363962
 11
10.6291280519
 21
10.6719649785
  0
LINE
  5
2A5
100
AcDbEntity
  8
0
100
AcDbLine
 62
4
  6
CONTINUOUS
 10
10.4878869206
 20
10.535536514
 11
10.4967607091
 21
10.544107936
  0
LINE
  5
2A6
100
AcDbEntity
  8
0
100
AcDbLine
 62
4
  6
CONTINUOUS
 10
10.5145082847
 20
10.5612507786
 11
10.5211636283
 21
10.5676793473
  0
LINE
  5
2A7
100
AcDbEntity
  8
0
100
AcDbLine
 62
4
  6
CONTINUOUS
 10
10.69124457
 20
10.7319649312
 11
10.7023368075
 21
10.7426792105
  0
LINE
  5
2A8
100
AcDbEntity
  8
0
100
AcDbLine
 62
4
  6
CONTINUOUS
 10
10.7651928052
 20
10.8033934456
 11
10.7740665893
 21
10.8119648633
  0
LINE
  5
2A9
100
AcDbEntity
  8
0
100
AcDbLine
 62
4
  6
CONTINUOUS
 10
10.6330624996
 20
10.6471939354
 11
10.6374993917
 21
10.6514796443
  0
LINE
  5
2AA
100
AcDbEntity
  8
0
100
AcDbLine
 62
4
  6
CONTINUOUS
 10
10.867846206
 20
10.6745490275
 11
10.8789384435
 21
10.6852633068
  0
LINE
  5
2AB
100
AcDbEntity
  8
0
100
AcDbLine
 62
4
  6
CONTINUOUS
 10
10.9451733593
 20
10.6806698998
 11
10.9340811218
 21
10.6699556205
  0
LINE
  5
2AC
100
AcDbEntity
  8
0
100
AcDbLine
 62
4
  6
CONTINUOUS
 10
10.9500454278
 20
10.6596616716
 11
10.9345162983
 21
10.6446616834
  0
LINE
  5
2AD
100
AcDbEntity
  8
0
100
AcDbLine
 62
4
  6
CONTINUOUS
 10
10.9949201893
 20
10.533293083
 11
11.0060124231
 21
10.5440073588
  0
LINE
  5
2AE
100
AcDbEntity
  8
0
100
AcDbLine
 62
4
  6
CONTINUOUS
 10
11.0496418807
 20
10.5861501811
 11
11.0673894562
 21
10.6032930237
  0
LINE
  5
2AF
100
AcDbEntity
  8
0
100
AcDbLine
 62
4
  6
CONTINUOUS
 10
11.0762632477
 20
10.6118644486
 11
11.0895739312
 21
10.6247215823
  0
LINE
  5
2B0
100
AcDbEntity
  8
0
100
AcDbLine
 62
4
  6
CONTINUOUS
 10
11.1272875358
 20
10.6611501291
 11
11.1361613199
 21
10.6697215468
  0
LINE
  5
2B1
100
AcDbEntity
  8
0
100
AcDbLine
 62
4
  6
CONTINUOUS
 10
11.1531694085
 20
10.6861500999
 11
11.1598247539
 21
10.6925786703
  0
LINE
  5
2B2
100
AcDbEntity
  8
0
100
AcDbLine
 62
4
  6
CONTINUOUS
 10
11.1731354301
 20
10.7054357969
 11
11.1842276676
 21
10.7161500762
  0
LINE
  5
2B3
100
AcDbEntity
  8
0
100
AcDbLine
 62
4
  6
CONTINUOUS
 10
11.201235771
 20
10.7325786435
 11
11.2145464471
 21
10.7454357701
  0
LINE
  5
2B4
100
AcDbEntity
  8
0
100
AcDbLine
 62
4
  6
CONTINUOUS
 10
11.2597857393
 20
10.7377050062
 11
11.2509119552
 21
10.7291335885
  0
LINE
  5
2B5
100
AcDbEntity
  8
0
100
AcDbLine
 62
4
  6
CONTINUOUS
 10
11.1348132234
 20
10.6169908184
 11
11.1259394319
 21
10.6084193935
  0
LINE
  5
2B6
100
AcDbEntity
  8
0
100
AcDbLine
 62
4
  6
CONTINUOUS
 10
11.1087720904
 20
10.5575512989
 11
11.1206038074
 21
10.5689798606
  0
LINE
  5
2B7
100
AcDbEntity
  8
0
100
AcDbLine
 62
4
  6
CONTINUOUS
 10
11.300138771
 20
10.7081116139
 11
11.2890465335
 21
10.6973973346
  0
LINE
  5
2B8
100
AcDbEntity
  8
0
100
AcDbLine
 62
4
  6
CONTINUOUS
 10
11.2757358574
 20
10.684540208
 11
11.2690805119
 21
10.6781116375
  0
LINE
  5
2B9
100
AcDbEntity
  8
0
100
AcDbLine
 62
4
  6
CONTINUOUS
 10
11.2520724233
 20
10.6616830845
 11
11.2431986392
 21
10.6531116668
  0
LINE
  5
2BA
100
AcDbEntity
  8
0
100
AcDbLine
 62
4
  6
CONTINUOUS
 10
11.1219235266
 20
10.5359688965
 11
11.1108312928
 21
10.5252546207
  0
LINE
  5
2BB
100
AcDbEntity
  8
0
100
AcDbLine
 62
4
  6
CONTINUOUS
 10
11.1921743511
 20
10.6038259862
 11
11.2054850347
 21
10.61668312
  0
LINE
  5
2BC
100
AcDbEntity
  8
0
100
AcDbLine
 62
4
  6
CONTINUOUS
 10
11.3171468744
 20
10.7245401812
 11
11.3304575505
 21
10.7373973078
  0
LINE
  5
2BD
100
AcDbEntity
  8
0
100
AcDbLine
 62
7
  6
CONTINUOUS
 10
14.5814508463
 20
7.5919751801
 11
15.4223275449
 21
7.5336601829
  0
LINE
  5
2BE
100
AcDbEntity
  8
0
100
AcDbLine
 62
7
  6
CONTINUOUS
 10
14.5693417421
 20
7.6063701992
 11
15.4102184407
 21
7.5480552021
  0
LINE
  5
2BF
100
AcDbEntity
  8
0
100
AcDbLine
 62
7
  6
CONTINUOUS
 10
12.1958403072
 20
7.9403514972
 11
12.6795067495
 21
7.9068091155
  0
LINE
  5
2C0
100
AcDbEntity
  8
0
100
AcDbLine
 62
4
  6
CONTINUOUS
 10
7.765814002
 20
10.2662158808
 11
7.760037028
 21
10.2706357496
  0
LINE
  5
2C1
100
AcDbEntity
  8
0
100
AcDbLine
 62
4
  6
CONTINUOUS
 10
7.806438625
 20
10.2754562564
 11
7.8122156058
 21
10.2710363872
  0
LINE
  5
2C2
100
AcDbEntity
  8
0
100
AcDbLine
 62
4
  6
CONTINUOUS
 10
7.8740534373
 20
10.2707671532
 11
7.8798304139
 21
10.2663472843
  0
LINE
  5
2C3
100
AcDbEntity
  8
0
100
AcDbLine
 62
4
  6
CONTINUOUS
 10
12.9892654969
 20
10.3736828051
 11
12.9931477793
 21
10.3774328021
  0
LINE
  5
2C4
100
AcDbEntity
  8
0
100
AcDbLine
 62
7
  6
CONTINUOUS
 10
12.6369952897
 20
10.2664159128
 11
12.6362960405
 21
10.2657532663
  0
LINE
  5
2C5
100
AcDbEntity
  8
0
100
AcDbLine
 62
7
  6
CONTINUOUS
 10
14.4560025644
 20
8.2295295639
 11
15.296879263
 21
8.1712145668
  0
LINE
  5
2C6
100
AcDbEntity
  8
0
100
AcDbLine
 62
7
  6
CONTINUOUS
 10
14.4560025644
 20
8.2817125965
 11
15.296879263
 21
8.2233975994
  0
LINE
  5
2C7
100
AcDbEntity
  8
0
100
AcDbLine
 62
4
  6
CONTINUOUS
 10
13.0491621898
 20
10.3715385724
 11
13.0569267546
 21
10.3790385665
  0
LINE
  5
2C8
100
AcDbEntity
  8
0
100
AcDbLine
 62
4
  6
CONTINUOUS
 10
13.1090588827
 20
10.3693943398
 11
13.1051766003
 21
10.3656443427
  0
LINE
  5
2C9
100
AcDbEntity
  8
0
100
AcDbLine
 62
4
  6
CONTINUOUS
 10
7.7987205099
 20
10.2780011266
 11
7.806438625
 21
10.2754562564
  0
LINE
  5
2CA
100
AcDbEntity
  8
0
100
AcDbLine
 62
4
  6
CONTINUOUS
 10
7.8586172028
 20
10.275856894
 11
7.8740534373
 21
10.2707671532
  0
LINE
  5
2CB
100
AcDbEntity
  8
0
100
AcDbLine
 62
7
  6
CONTINUOUS
 10
13.7974422151
 20
9.7923216345
 11
15.0754896574
 21
11.0268207394
  0
LINE
  5
2CC
100
AcDbEntity
  8
0
100
AcDbLine
 62
7
  6
CONTINUOUS
 10
14.5693417421
 20
9.1238264519
 11
15.4102184407
 21
9.0655114548
  0
LINE
  5
2CD
100
AcDbEntity
  8
0
100
AcDbLine
 62
7
  6
CONTINUOUS
 10
14.5814508463
 20
9.1616144654
 11
15.4223275449
 21
9.1032994683
  0
LINE
  5
2CE
100
AcDbEntity
  8
0
100
AcDbLine
 62
7
  6
CONTINUOUS
 10
14.8081292018
 20
9.3805689562
 11
15.6490059004
 21
9.3222539591
  0
LINE
  5
2CF
100
AcDbEntity
  8
0
100
AcDbLine
 62
4
  6
CONTINUOUS
 10
10.55017688
 20
10.6728468525
 11
10.5463344046
 21
10.6777067374
  0
LINE
  5
2D0
100
AcDbEntity
  8
0
100
AcDbLine
 62
4
  6
CONTINUOUS
 10
10.6337241968
 20
10.7106902289
 11
10.6298817248
 21
10.7155501136
  0
LINE
  5
2D1
100
AcDbEntity
  8
0
100
AcDbLine
 62
7
  6
CONTINUOUS
 10
12.3894859801
 20
7.9498182753
 11
12.3858586412
 21
7.9567649345
  0
LINE
  5
2D2
100
AcDbEntity
  8
0
100
AcDbLine
 62
4
  6
CONTINUOUS
 10
13.1051766003
 20
10.3656443427
 11
13.091635059
 21
10.3625642176
  0
LINE
  5
2D3
100
AcDbEntity
  8
0
100
AcDbLine
 62
4
  6
CONTINUOUS
 10
12.9931477793
 20
10.3774328021
 11
13.006689318
 21
10.3805129274
  0
LINE
  5
2D4
100
AcDbEntity
  8
0
100
AcDbLine
 62
7
  6
CONTINUOUS
 10
6.1907758824
 20
10.3198457364
 11
13.7974422151
 21
9.7923216345
  0
LINE
  5
2D5
100
AcDbEntity
  8
0
100
AcDbLine
 62
4
  6
CONTINUOUS
 10
7.7890612536
 20
10.2786709983
 11
7.7987205099
 21
10.2780011266
  0
LINE
  5
2D6
100
AcDbEntity
  8
0
100
AcDbLine
 62
4
  6
CONTINUOUS
 10
11.9908388496
 20
9.9872767323
 11
12.106749953
 21
9.97923827
  0
LINE
  5
2D7
100
AcDbEntity
  8
0
100
AcDbLine
 62
4
  6
CONTINUOUS
 10
7.848957943
 20
10.2765267659
 11
7.8586172028
 21
10.275856894
  0
LINE
  5
2D8
100
AcDbEntity
  8
0
100
AcDbLine
 62
4
  6
CONTINUOUS
 10
11.0331609381
 20
10.5245165301
 11
11.0434075277
 21
10.5115568316
  0
LINE
  5
2D9
100
AcDbEntity
  8
0
100
AcDbLine
 62
4
  6
CONTINUOUS
 10
13.091635059
 20
10.3625642176
 11
13.0684342597
 21
10.3601539642
  0
LINE
  5
2DA
100
AcDbEntity
  8
0
100
AcDbLine
 62
4
  6
CONTINUOUS
 10
13.006689318
 20
10.3805129274
 11
13.0182897224
 21
10.3817180538
  0
LINE
  5
2DB
100
AcDbEntity
  8
0
100
AcDbLine
 62
4
  6
CONTINUOUS
 10
13.0684342597
 20
10.3601539642
 11
13.0375153426
 21
10.3602885813
  0
LINE
  5
2DC
100
AcDbEntity
  8
0
100
AcDbLine
 62
4
  6
CONTINUOUS
 10
10.3863160981
 20
10.5402837691
 11
10.3741942644
 21
10.5457178319
  0
LINE
  5
2DD
100
AcDbEntity
  8
0
100
AcDbLine
 62
4
  6
CONTINUOUS
 10
10.4967607091
 20
10.544107936
 11
10.4846388732
 21
10.5495419984
  0
LINE
  5
2DE
100
AcDbEntity
  8
0
100
AcDbLine
 62
4
  6
CONTINUOUS
 10
10.5211636283
 20
10.5676793473
 11
10.5090417905
 21
10.5731134079
  0
LINE
  5
2DF
100
AcDbEntity
  8
0
100
AcDbLine
 62
4
  6
CONTINUOUS
 10
11.1098016907
 20
10.5414029589
 11
11.1219235266
 21
10.5359688965
  0
LINE
  5
2E0
100
AcDbEntity
  8
0
100
AcDbLine
 62
4
  6
CONTINUOUS
 10
11.301486864
 20
10.7608423426
 11
11.3117334528
 21
10.7478826451
  0
LINE
  5
2E1
100
AcDbEntity
  8
0
100
AcDbLine
 62
7
  6
CONTINUOUS
 10
14.8081292018
 20
9.3805689562
 11
14.5814508463
 21
9.1616144654
  0
LINE
  5
2E2
100
AcDbEntity
  8
0
100
AcDbLine
 62
4
  6
CONTINUOUS
 10
10.7210361936
 20
10.806455717
 11
10.7132981789
 21
10.8046956536
  0
LINE
  5
2E3
100
AcDbEntity
  8
0
100
AcDbLine
 62
4
  6
CONTINUOUS
 10
10.7431675683
 20
10.8164044142
 11
10.7354295537
 21
10.8146443508
  0
LINE
  5
2E4
100
AcDbEntity
  8
0
100
AcDbLine
 62
4
  6
CONTINUOUS
 10
10.4680801434
 20
10.5506903503
 11
10.4028748262
 21
10.5391354174
  0
LINE
  5
2E5
100
AcDbEntity
  8
0
100
AcDbLine
 62
4
  6
CONTINUOUS
 10
11.0060124231
 20
10.5440073588
 11
11.0270080451
 21
10.5471447177
  0
LINE
  5
2E6
100
AcDbEntity
  8
0
100
AcDbLine
 62
4
  6
CONTINUOUS
 10
10.4773891086
 20
10.5339678344
 11
10.4878869206
 21
10.535536514
  0
LINE
  5
2E7
100
AcDbEntity
  8
0
100
AcDbLine
 62
4
  6
CONTINUOUS
 10
11.2431986392
 20
10.6531116668
 11
11.2222030174
 21
10.6499743097
  0
LINE
  5
2E8
100
AcDbEntity
  8
0
100
AcDbLine
 62
4
  6
CONTINUOUS
 10
10.493512661
 20
10.5581134198
 11
10.5145082847
 21
10.5612507786
  0
LINE
  5
2E9
100
AcDbEntity
  8
0
100
AcDbLine
 62
4
  6
CONTINUOUS
 10
11.2690805119
 20
10.6781116375
 11
11.2480848901
 21
10.6749742805
  0
LINE
  5
2EA
100
AcDbEntity
  8
0
100
AcDbLine
 62
4
  6
CONTINUOUS
 10
10.3830680526
 20
10.5542892536
 11
10.3935658671
 21
10.5558579329
  0
LINE
  5
2EB
100
AcDbEntity
  8
0
100
AcDbLine
 62
4
  6
CONTINUOUS
 10
11.1598247539
 20
10.6925786703
 11
11.180820374
 21
10.6957160275
  0
LINE
  5
2EC
100
AcDbEntity
  8
0
100
AcDbLine
 62
4
  6
CONTINUOUS
 10
11.1842276676
 20
10.7161500762
 11
11.2052232877
 21
10.7192874334
  0
LINE
  5
2ED
100
AcDbEntity
  8
0
100
AcDbLine
 62
4
  6
CONTINUOUS
 10
10.8789384435
 20
10.6852633068
 11
10.8999340636
 21
10.688400664
  0
LINE
  5
2EE
100
AcDbEntity
  8
0
100
AcDbLine
 62
4
  6
CONTINUOUS
 10
10.511578733
 20
10.6441353346
 11
10.5220765465
 21
10.645704013
  0
LINE
  5
2EF
100
AcDbEntity
  8
0
100
AcDbLine
 62
4
  6
CONTINUOUS
 10
10.6807467517
 20
10.7303962455
 11
10.69124457
 21
10.7319649312
  0
LINE
  5
2F0
100
AcDbEntity
  8
0
100
AcDbLine
 62
4
  6
CONTINUOUS
 10
10.713429045
 20
10.7533934898
 11
10.7029312267
 21
10.7518248041
  0
LINE
  5
2F1
100
AcDbEntity
  8
0
100
AcDbLine
 62
4
  6
CONTINUOUS
 10
10.7452267688
 20
10.7841077343
 11
10.7347289653
 21
10.7825390629
  0
LINE
  5
2F2
100
AcDbEntity
  8
0
100
AcDbLine
 62
4
  6
CONTINUOUS
 10
10.7546950017
 20
10.8018247742
 11
10.7651928052
 21
10.8033934456
  0
LINE
  5
2F3
100
AcDbEntity
  8
0
100
AcDbLine
 62
4
  6
CONTINUOUS
 10
7.8624065902
 20
10.2595171621
 11
7.8508061901
 21
10.2583120355
  0
LINE
  5
2F4
100
AcDbEntity
  8
0
100
AcDbLine
 62
4
  6
CONTINUOUS
 10
7.8257571445
 20
10.2741165125
 11
7.848957943
 21
10.2765267659
  0
LINE
  5
2F5
100
AcDbEntity
  8
0
100
AcDbLine
 62
4
  6
CONTINUOUS
 10
7.7774608491
 20
10.277465872
 11
7.7890612536
 21
10.2786709983
  0
LINE
  5
2F6
100
AcDbEntity
  8
0
100
AcDbLine
 62
4
  6
CONTINUOUS
 10
10.9407364635
 20
10.6763841874
 11
10.999286439
 21
10.6815105534
  0
LINE
  5
2F7
100
AcDbEntity
  8
0
100
AcDbLine
 62
4
  6
CONTINUOUS
 10
10.5729557716
 20
10.7034210049
 11
10.5827140982
 21
10.7042753937
  0
LINE
  5
2F8
100
AcDbEntity
  8
0
100
AcDbLine
 62
4
  6
CONTINUOUS
 10
10.4185632047
 20
10.5885749397
 11
10.5500034377
 21
10.5955364656
  0
LINE
  5
2F9
100
AcDbEntity
  8
0
100
AcDbLine
 62
4
  6
CONTINUOUS
 10
10.8753718969
 20
10.6303897199
 11
10.9504806043
 21
10.6343677344
  0
LINE
  5
2FA
100
AcDbEntity
  8
0
100
AcDbLine
 62
4
  6
CONTINUOUS
 10
10.6139174133
 20
10.7258440591
 11
10.5951402466
 21
10.7248495635
  0
LINE
  5
2FB
100
AcDbEntity
  8
0
100
AcDbLine
 62
4
  6
CONTINUOUS
 10
10.5226709705
 20
10.6548496139
 11
10.6121199632
 21
10.6555364254
  0
LINE
  5
2FC
100
AcDbEntity
  8
0
100
AcDbLine
 62
4
  6
CONTINUOUS
 10
11.0318943051
 20
10.5690073385
 11
11.1566792
 21
10.569540301
  0
LINE
  5
2FD
100
AcDbEntity
  8
0
100
AcDbLine
 62
4
  6
CONTINUOUS
 10
10.4028748262
 20
10.5391354174
 11
10.3863160981
 21
10.5402837691
  0
LINE
  5
2FE
100
AcDbEntity
  8
0
100
AcDbLine
 62
4
  6
CONTINUOUS
 10
10.4846388732
 20
10.5495419984
 11
10.4680801434
 21
10.5506903503
  0
LINE
  5
2FF
100
AcDbEntity
  8
0
100
AcDbLine
 62
4
  6
CONTINUOUS
 10
13.0569267546
 20
10.3790385665
 11
13.0955637885
 21
10.3763590791
  0
LINE
  5
300
100
AcDbEntity
  8
0
100
AcDbLine
 62
4
  6
CONTINUOUS
 10
10.3941602874
 20
10.5650035303
 11
10.493512661
 21
10.5581134198
  0
LINE
  5
301
100
AcDbEntity
  8
0
100
AcDbLine
 62
4
  6
CONTINUOUS
 10
11.1108312928
 20
10.5252546207
 11
10.9949201893
 21
10.533293083
  0
LINE
  5
302
100
AcDbEntity
  8
0
100
AcDbLine
 62
4
  6
CONTINUOUS
 10
10.5090417905
 20
10.5731134079
 11
10.4096894169
 21
10.5800035184
  0
LINE
  5
303
100
AcDbEntity
  8
0
100
AcDbLine
 62
4
  6
CONTINUOUS
 10
10.5344743081
 20
10.5805364774
 11
10.4185632047
 21
10.5885749397
  0
LINE
  5
304
100
AcDbEntity
  8
0
100
AcDbLine
 62
4
  6
CONTINUOUS
 10
11.0270080451
 20
10.5471447177
 11
11.1098016907
 21
10.5414029589
  0
LINE
  5
305
100
AcDbEntity
  8
0
100
AcDbLine
 62
4
  6
CONTINUOUS
 10
10.5500034377
 20
10.5955364656
 11
10.4340923342
 21
10.6035749279
  0
LINE
  5
306
100
AcDbEntity
  8
0
100
AcDbLine
 62
4
  6
CONTINUOUS
 10
11.1744267756
 20
10.5866831436
 11
11.0585156721
 21
10.594721606
  0
LINE
  5
307
100
AcDbEntity
  8
0
100
AcDbLine
 62
4
  6
CONTINUOUS
 10
10.5832801428
 20
10.6276792964
 11
10.4673690393
 21
10.6357177587
  0
LINE
  5
308
100
AcDbEntity
  8
0
100
AcDbLine
 62
4
  6
CONTINUOUS
 10
10.5220765465
 20
10.645704013
 11
10.5965908263
 21
10.6405364301
  0
LINE
  5
309
100
AcDbEntity
  8
0
100
AcDbLine
 62
4
  6
CONTINUOUS
 10
10.9349514748
 20
10.6193677462
 11
10.8190403714
 21
10.6274062086
  0
LINE
  5
30A
100
AcDbEntity
  8
0
100
AcDbLine
 62
4
  6
CONTINUOUS
 10
11.1921743511
 20
10.6038259862
 11
11.0762632477
 21
10.6118644486
  0
LINE
  5
30B
100
AcDbEntity
  8
0
100
AcDbLine
 62
4
  6
CONTINUOUS
 10
10.6164117949
 20
10.6682534455
 11
10.55017688
 21
10.6728468525
  0
LINE
  5
30C
100
AcDbEntity
  8
0
100
AcDbLine
 62
4
  6
CONTINUOUS
 10
10.9697071464
 20
10.652939149
 11
10.9117515947
 21
10.6569583802
  0
LINE
  5
30D
100
AcDbEntity
  8
0
100
AcDbLine
 62
4
  6
CONTINUOUS
 10
10.5220907325
 20
10.6885748585
 11
10.6380018359
 21
10.6805363962
  0
LINE
  5
30E
100
AcDbEntity
  8
0
100
AcDbLine
 62
4
  6
CONTINUOUS
 10
10.6468756348
 20
10.6891078282
 11
10.5640819875
 21
10.6948495872
  0
LINE
  5
30F
100
AcDbEntity
  8
0
100
AcDbLine
 62
4
  6
CONTINUOUS
 10
11.2222030174
 20
10.6499743097
 11
11.1394093718
 21
10.6557160685
  0
LINE
  5
310
100
AcDbEntity
  8
0
100
AcDbLine
 62
4
  6
CONTINUOUS
 10
10.9837573094
 20
10.6665105652
 11
10.867846206
 21
10.6745490275
  0
LINE
  5
311
100
AcDbEntity
  8
0
100
AcDbLine
 62
4
  6
CONTINUOUS
 10
10.5827140982
 20
10.7042753937
 11
10.5992728263
 21
10.703127042
  0
LINE
  5
312
100
AcDbEntity
  8
0
100
AcDbLine
 62
4
  6
CONTINUOUS
 10
10.8999340636
 20
10.688400664
 11
10.9330515198
 21
10.6861039606
  0
LINE
  5
313
100
AcDbEntity
  8
0
100
AcDbLine
 62
4
  6
CONTINUOUS
 10
10.6585622915
 20
10.7089677012
 11
10.6337241968
 21
10.7106902289
  0
LINE
  5
314
100
AcDbEntity
  8
0
100
AcDbLine
 62
4
  6
CONTINUOUS
 10
11.2480848901
 20
10.6749742805
 11
11.1652912445
 21
10.6807160393
  0
LINE
  5
315
100
AcDbEntity
  8
0
100
AcDbLine
 62
4
  6
CONTINUOUS
 10
10.6801523325
 20
10.7212506519
 11
10.6139174133
 21
10.7258440591
  0
LINE
  5
316
100
AcDbEntity
  8
0
100
AcDbLine
 62
4
  6
CONTINUOUS
 10
10.6062324693
 20
10.7355638285
 11
10.6807467517
 21
10.7303962455
  0
LINE
  5
317
100
AcDbEntity
  8
0
100
AcDbLine
 62
4
  6
CONTINUOUS
 10
11.180820374
 20
10.6957160275
 11
11.2636140196
 21
10.6899742687
  0
LINE
  5
318
100
AcDbEntity
  8
0
100
AcDbLine
 62
4
  6
CONTINUOUS
 10
11.2890465335
 20
10.6973973346
 11
11.1731354301
 21
10.7054357969
  0
LINE
  5
319
100
AcDbEntity
  8
0
100
AcDbLine
 62
4
  6
CONTINUOUS
 10
10.7023368075
 20
10.7426792105
 11
10.6195431602
 21
10.7484209694
  0
LINE
  5
31A
100
AcDbEntity
  8
0
100
AcDbLine
 62
4
  6
CONTINUOUS
 10
10.7029312267
 20
10.7518248041
 11
10.5952994882
 21
10.7592890905
  0
LINE
  5
31B
100
AcDbEntity
  8
0
100
AcDbLine
 62
4
  6
CONTINUOUS
 10
11.2052232877
 20
10.7192874334
 11
11.2880169332
 21
10.7135456746
  0
LINE
  5
31C
100
AcDbEntity
  8
0
100
AcDbLine
 62
4
  6
CONTINUOUS
 10
11.3171468744
 20
10.7245401812
 11
11.201235771
 21
10.7325786435
  0
LINE
  5
31D
100
AcDbEntity
  8
0
100
AcDbLine
 62
4
  6
CONTINUOUS
 10
10.7311766132
 20
10.7705363252
 11
10.6483829659
 21
10.7762780842
  0
LINE
  5
31E
100
AcDbEntity
  8
0
100
AcDbLine
 62
4
  6
CONTINUOUS
 10
10.6235448773
 20
10.7780006115
 11
10.6152655098
 21
10.7785747876
  0
LINE
  5
31F
100
AcDbEntity
  8
0
100
AcDbLine
 62
4
  6
CONTINUOUS
 10
10.7347289653
 20
10.7825390629
 11
10.6684940504
 21
10.7871324698
  0
LINE
  5
320
100
AcDbEntity
  8
0
100
AcDbLine
 62
4
  6
CONTINUOUS
 10
10.7132981789
 20
10.8046956536
 11
10.6884600868
 21
10.8064181812
  0
LINE
  5
321
100
AcDbEntity
  8
0
100
AcDbLine
 62
4
  6
CONTINUOUS
 10
10.768005663
 20
10.8146818865
 11
10.7431675683
 21
10.8164044142
  0
LINE
  5
322
100
AcDbEntity
  8
0
100
AcDbLine
 62
4
  6
CONTINUOUS
 10
13.0375153426
 20
10.3602885813
 11
13.010478708
 21
10.3641731954
  0
LINE
  5
323
100
AcDbEntity
  8
0
100
AcDbLine
 62
4
  6
CONTINUOUS
 10
10.9345162983
 20
10.6446616834
 11
10.8500986304
 21
10.6574061849
  0
LINE
  5
324
100
AcDbEntity
  8
0
100
AcDbLine
 62
4
  6
CONTINUOUS
 10
11.1389316207
 20
10.5523974548
 11
11.0318943051
 21
10.5690073385
  0
LINE
  5
325
100
AcDbEntity
  8
0
100
AcDbLine
 62
4
  6
CONTINUOUS
 10
10.6374993917
 20
10.6514796443
 11
10.5359816466
 21
10.6677067405
  0
LINE
  5
326
100
AcDbEntity
  8
0
100
AcDbLine
 62
4
  6
CONTINUOUS
 10
10.6160049893
 20
10.77928907
 11
10.6235448773
 21
10.7780006115
  0
LINE
  5
327
100
AcDbEntity
  8
0
100
AcDbLine
 62
4
  6
CONTINUOUS
 10
10.8963144392
 20
10.6220472338
 11
10.8345695009
 21
10.6424061967
  0
LINE
  5
328
100
AcDbEntity
  8
0
100
AcDbLine
 62
4
  6
CONTINUOUS
 10
10.6684940504
 20
10.7871324698
 11
10.6624331216
 21
10.7898494932
  0
LINE
  5
329
100
AcDbEntity
  8
0
100
AcDbLine
 62
4
  6
CONTINUOUS
 10
10.9330515198
 20
10.6861039606
 11
10.9451733593
 21
10.6806698998
  0
LINE
  5
32A
100
AcDbEntity
  8
0
100
AcDbLine
 62
4
  6
CONTINUOUS
 10
10.6884600868
 20
10.8064181812
 11
10.682399158
 21
10.8091352045
  0
LINE
  5
32B
100
AcDbEntity
  8
0
100
AcDbLine
 62
4
  6
CONTINUOUS
 10
10.7740665893
 20
10.8119648633
 11
10.768005663
 21
10.8146818865
  0
LINE
  5
32C
100
AcDbEntity
  8
0
100
AcDbLine
 62
4
  6
CONTINUOUS
 10
11.1394093718
 20
10.6557160685
 11
11.1272875358
 21
10.6611501291
  0
LINE
  5
32D
100
AcDbEntity
  8
0
100
AcDbLine
 62
4
  6
CONTINUOUS
 10
11.1652912445
 20
10.6807160393
 11
11.1531694085
 21
10.6861500999
  0
LINE
  5
32E
100
AcDbEntity
  8
0
100
AcDbLine
 62
4
  6
CONTINUOUS
 10
11.2636140196
 20
10.6899742687
 11
11.2757358574
 21
10.684540208
  0
LINE
  5
32F
100
AcDbEntity
  8
0
100
AcDbLine
 62
4
  6
CONTINUOUS
 10
11.2880169332
 20
10.7135456746
 11
11.300138771
 21
10.7081116139
  0
LINE
  5
330
100
AcDbEntity
  8
0
100
AcDbLine
 62
4
  6
CONTINUOUS
 10
10.6664012201
 20
11.2579682095
 11
10.6606242462
 21
11.2623880782
  0
LINE
  5
331
100
AcDbEntity
  8
0
100
AcDbLine
 62
4
  6
CONTINUOUS
 10
10.7166851064
 20
11.2665387129
 11
10.7282390577
 21
11.2576989751
  0
LINE
  5
332
100
AcDbEntity
  8
0
100
AcDbLine
 62
4
  6
CONTINUOUS
 10
14.6571089775
 20
7.1395672695
 11
14.6532266951
 21
7.1454765314
  0
LINE
  5
333
100
AcDbEntity
  8
0
100
AcDbLine
 62
4
  6
CONTINUOUS
 10
7.8759481315
 20
10.2625972873
 11
7.8624065902
 21
10.2595171621
  0
LINE
  5
334
100
AcDbEntity
  8
0
100
AcDbLine
 62
4
  6
CONTINUOUS
 10
7.8122156058
 20
10.2710363872
 11
7.8257571445
 21
10.2741165125
  0
LINE
  5
335
100
AcDbEntity
  8
0
100
AcDbLine
 62
4
  6
CONTINUOUS
 10
7.7639193104
 20
10.2743857466
 11
7.7774608491
 21
10.277465872
  0
LINE
  5
336
100
AcDbEntity
  8
0
100
AcDbLine
 62
4
  6
CONTINUOUS
 10
10.691272942
 20
10.8177066223
 11
10.7017707481
 21
10.8192752935
  0
LINE
  5
337
100
AcDbEntity
  8
0
100
AcDbLine
 62
4
  6
CONTINUOUS
 10
10.7436752914
 20
11.2526092345
 11
10.7707119261
 21
11.2487246203
  0
LINE
  5
338
100
AcDbEntity
  8
0
100
AcDbLine
 62
4
  6
CONTINUOUS
 10
13.010478708
 20
10.3641731954
 11
12.9950424708
 21
10.3692629363
  0
LINE
  5
339
100
AcDbEntity
  8
0
100
AcDbLine
 62
4
  6
CONTINUOUS
 10
13.0955637885
 20
10.3763590791
 11
13.1032819062
 21
10.3738142087
  0
LINE
  5
33A
100
AcDbEntity
  8
0
100
AcDbLine
 62
4
  6
CONTINUOUS
 10
10.6741193422
 20
11.2554233388
 11
10.6664012201
 21
11.2579682095
  0
LINE
  5
33B
100
AcDbEntity
  8
0
100
AcDbLine
 62
4
  6
CONTINUOUS
 10
10.7282390577
 20
11.2576989751
 11
10.7436752914
 21
11.2526092345
  0
LINE
  5
33C
100
AcDbEntity
  8
0
100
AcDbLine
 62
4
  6
CONTINUOUS
 10
10.7089669843
 20
11.2690835836
 11
10.7166851064
 21
11.2665387129
  0
LINE
  5
33D
100
AcDbEntity
  8
0
100
AcDbLine
 62
4
  6
CONTINUOUS
 10
12.9950424708
 20
10.3692629363
 11
12.9892654969
 21
10.3736828051
  0
LINE
  5
33E
100
AcDbEntity
  8
0
100
AcDbLine
 62
4
  6
CONTINUOUS
 10
14.6609912598
 20
7.25922837
 11
14.6648735422
 21
7.2533191107
  0
LINE
  5
33F
100
AcDbEntity
  8
0
100
AcDbLine
 62
4
  6
CONTINUOUS
 10
14.7522248959
 20
7.3473533005
 11
14.7561071783
 21
7.3414440413
  0
LINE
  5
340
100
AcDbEntity
  8
0
100
AcDbLine
 62
7
  6
CONTINUOUS
 10
13.7974422151
 20
9.7923216345
 11
13.7974422151
 21
5.4456551587
  0
LINE
  5
341
100
AcDbEntity
  8
0
100
AcDbLine
 62
4
  6
CONTINUOUS
 10
10.6645065286
 20
11.2661380753
 11
10.6780480673
 21
11.2692182006
  0
LINE
  5
342
100
AcDbEntity
  8
0
100
AcDbLine
 62
4
  6
CONTINUOUS
 10
10.6780480673
 20
11.2692182006
 11
10.6896484717
 21
11.270423327
  0
LINE
  5
343
100
AcDbEntity
  8
0
100
AcDbLine
 62
4
  6
CONTINUOUS
 10
10.6896484717
 20
11.270423327
 11
10.7089669843
 21
11.2690835836
  0
LINE
  5
344
100
AcDbEntity
  8
0
100
AcDbLine
 62
7
  6
CONTINUOUS
 10
7.4688233247
 20
11.5543448413
 11
15.0754896574
 21
11.0268207394
  0
LINE
  5
345
100
AcDbEntity
  8
0
100
AcDbLine
 62
4
  6
CONTINUOUS
 10
13.1032819062
 20
10.3738142087
 11
13.1090588827
 21
10.3693943398
  0
LINE
  5
346
100
AcDbEntity
  8
0
100
AcDbLine
 62
7
  6
CONTINUOUS
 10
14.5693417421
 20
9.1238264519
 11
14.4560025644
 21
8.2817125965
  0
LINE
  5
347
100
AcDbEntity
  8
0
100
AcDbLine
 62
4
  6
CONTINUOUS
 10
14.6571089775
 20
7.255478373
 11
14.6609912598
 21
7.25922837
  0
LINE
  5
348
100
AcDbEntity
  8
0
100
AcDbLine
 62
4
  6
CONTINUOUS
 10
14.7444603311
 20
7.3398533065
 11
14.7522248959
 21
7.3473533005
  0
LINE
  5
349
100
AcDbEntity
  8
0
100
AcDbLine
 62
4
  6
CONTINUOUS
 10
14.6532266951
 20
7.1454765314
 11
14.6493444127
 21
7.1610450513
  0
LINE
  5
34A
100
AcDbEntity
  8
0
100
AcDbLine
 62
4
  6
CONTINUOUS
 10
14.6648735422
 20
7.2533191107
 11
14.6668146834
 21
7.245534846
  0
LINE
  5
34B
100
AcDbEntity
  8
0
100
AcDbLine
 62
4
  6
CONTINUOUS
 10
14.7561071783
 20
7.3414440413
 11
14.7599894607
 21
7.3258755188
  0
LINE
  5
34C
100
AcDbEntity
  8
0
100
AcDbLine
 62
7
  6
CONTINUOUS
 10
14.4560025644
 20
8.2295295639
 11
14.5693417421
 21
7.6063701992
  0
LINE
  5
34D
100
AcDbEntity
  8
0
100
AcDbLine
 62
4
  6
CONTINUOUS
 10
14.682343813
 20
7.2798533538
 11
14.6978729425
 21
7.1789422385
  0
LINE
  5
34E
100
AcDbEntity
  8
0
100
AcDbLine
 62
4
  6
CONTINUOUS
 10
14.6493444127
 20
7.1610450513
 11
14.6474032715
 21
7.1881478286
  0
LINE
  5
34F
100
AcDbEntity
  8
0
100
AcDbLine
 62
4
  6
CONTINUOUS
 10
14.7599894607
 20
7.3258755188
 11
14.7619306019
 21
7.2987727414
  0
LINE
  5
350
100
AcDbEntity
  8
0
100
AcDbLine
 62
4
  6
CONTINUOUS
 10
14.7211666368
 20
7.3173533242
 11
14.7211666368
 21
7.2014422208
  0
LINE
  5
351
100
AcDbEntity
  8
0
100
AcDbLine
 62
4
  6
CONTINUOUS
 10
14.7444603311
 20
7.223942203
 11
14.7444603311
 21
7.3398533065
  0
LINE
  5
352
100
AcDbEntity
  8
0
100
AcDbLine
 62
4
  6
CONTINUOUS
 10
14.6474032715
 20
7.1881478286
 11
14.6493444127
 21
7.219000603
  0
LINE
  5
353
100
AcDbEntity
  8
0
100
AcDbLine
 62
4
  6
CONTINUOUS
 10
14.7619306019
 20
7.2987727414
 11
14.7599894607
 21
7.2679199671
  0
LINE
  5
354
100
AcDbEntity
  8
0
100
AcDbLine
 62
4
  6
CONTINUOUS
 10
14.682343813
 20
7.1639422503
 11
14.6978729425
 21
7.2948533419
  0
LINE
  5
355
100
AcDbEntity
  8
0
100
AcDbLine
 62
4
  6
CONTINUOUS
 10
14.6493444127
 20
7.219000603
 11
14.6532266951
 21
7.2420691196
  0
LINE
  5
356
100
AcDbEntity
  8
0
100
AcDbLine
 62
4
  6
CONTINUOUS
 10
14.6668146834
 20
7.16826078
 11
14.6648735422
 21
7.1567265225
  0
LINE
  5
357
100
AcDbEntity
  8
0
100
AcDbLine
 62
7
  6
CONTINUOUS
 10
14.6865174004
 20
7.5638211469
 11
14.6983415328
 21
7.5838687834
  0
LINE
  5
358
100
AcDbEntity
  8
0
100
AcDbLine
 62
4
  6
CONTINUOUS
 10
14.7522248959
 20
7.2314421971
 11
14.7444603311
 21
7.223942203
  0
LINE
  5
359
100
AcDbEntity
  8
0
100
AcDbLine
 62
4
  6
CONTINUOUS
 10
14.6609912598
 20
7.1433172666
 11
14.6571089775
 21
7.1395672695
  0
LINE
  5
35A
100
AcDbEntity
  8
0
100
AcDbLine
 62
7
  6
CONTINUOUS
 10
15.0754896574
 20
11.0268207394
 11
15.0754896574
 21
9.3620274457
  0
LINE
  5
35B
100
AcDbEntity
  8
0
100
AcDbLine
 62
7
  6
CONTINUOUS
 10
15.0754896574
 20
7.5577134721
 11
15.0754896574
 21
6.6801542636
  0
LINE
  5
35C
100
AcDbEntity
  8
0
100
AcDbLine
 62
4
  6
CONTINUOUS
 10
14.7599894607
 20
7.2679199671
 11
14.7561071783
 21
7.2448514531
  0
LINE
  5
35D
100
AcDbEntity
  8
0
100
AcDbLine
 62
4
  6
CONTINUOUS
 10
14.6532266951
 20
7.2420691196
 11
14.6571089775
 21
7.255478373
  0
LINE
  5
35E
100
AcDbEntity
  8
0
100
AcDbLine
 62
4
  6
CONTINUOUS
 10
14.6648735422
 20
7.1567265225
 11
14.6609912598
 21
7.1433172666
  0
LINE
  5
35F
100
AcDbEntity
  8
0
100
AcDbLine
 62
4
  6
CONTINUOUS
 10
14.7561071783
 20
7.2448514531
 11
14.7522248959
 21
7.2314421971
  0
LINE
  5
360
100
AcDbEntity
  8
0
100
AcDbLine
 62
7
  6
CONTINUOUS
 10
13.7974422151
 20
5.4456551587
 11
15.0754896574
 21
6.6801542636
  0
LINE
  5
361
100
AcDbEntity
  8
0
100
AcDbLine
 62
7
  6
CONTINUOUS
 10
14.8139285731
 20
9.4010344113
 11
14.8228722072
 21
9.3795465253
  0
LINE
  5
362
100
AcDbEntity
  8
0
100
AcDbLine
 62
7
  6
CONTINUOUS
 10
15.6293307469
 20
7.6783381845
 11
15.6404290741
 21
7.6971552294
  0
LINE
  5
363
100
AcDbEntity
  8
0
100
AcDbLine
 62
7
  6
CONTINUOUS
 10
15.7220503992
 20
9.1811569428
 11
15.7403035922
 21
9.1373020038
  0
ARC
  5
364
100
AcDbEntity
  8
0
100
AcDbCircle
 62
7
  6
CONTINUOUS
 10
3.933155519
 20
8.6820660311
 40
3.8005889826
100
AcDbArc
 50
351.07832252
 51
353.6399068164
  0
ARC
  5
365
100
AcDbEntity
  8
0
100
AcDbCircle
 62
7
  6
CONTINUOUS
 10
18.6668380775
 20
8.1971362953
 40
3.3700611371
100
AcDbArc
 50
179.5535163737
 51
179.998793708
  0
ARC
  5
366
100
AcDbEntity
  8
0
100
AcDbCircle
 62
7
  6
CONTINUOUS
 10
17.8139333807
 20
8.255498284
 40
3.3580331382
100
AcDbArc
 50
179.5527189095
 51
179.9995911722
  0
ARC
  5
367
100
AcDbEntity
  8
0
100
AcDbCircle
 62
7
  6
CONTINUOUS
 10
18.591807004
 20
8.1971817976
 40
3.2950300629
100
AcDbArc
 50
179.9995574573
 51
180.4515370429
  0
ARC
  5
368
100
AcDbEntity
  8
0
100
AcDbCircle
 62
7
  6
CONTINUOUS
 10
17.750930305
 20
8.2554967947
 40
3.2950300625
100
AcDbArc
 50
179.9995574573
 51
180.4515370429
  0
ARC
  5
369
100
AcDbEntity
  8
0
100
AcDbCircle
 62
7
  6
CONTINUOUS
 10
15.9857427207
 20
8.6907773631
 40
1.4811222925
100
AcDbArc
 50
161.4645031014
 51
162.999561535
  0
ARC
  5
36A
100
AcDbEntity
  8
0
100
AcDbCircle
 62
7
  6
CONTINUOUS
 10
16.7911947601
 20
8.6438141373
 40
1.4439266679
100
AcDbArc
 50
161.4447302808
 51
163.0193343556
  0
ARC
  5
36B
100
AcDbEntity
  8
0
100
AcDbCircle
 62
7
  6
CONTINUOUS
 10
7.860008661
 20
7.99929904
 40
0.6532110459
100
AcDbArc
 50
310.0713070907
 51
312.1101270263
  0
ARC
  5
36C
100
AcDbEntity
  8
0
100
AcDbCircle
 62
7
  6
CONTINUOUS
 10
7.7254864318
 20
8.1385634053
 40
0.6531637716
100
AcDbArc
 50
135.7837146041
 51
137.9437055195
  0
ARC
  5
36D
100
AcDbEntity
  8
0
100
AcDbCircle
 62
7
  6
CONTINUOUS
 10
12.5257313461
 20
8.434849165
 40
0.6011389402
100
AcDbArc
 50
176.6103479729
 51
179.9899794777
  0
ARC
  5
36E
100
AcDbEntity
  8
0
100
AcDbCircle
 62
7
  6
CONTINUOUS
 10
14.8452656099
 20
7.7171570353
 40
0.3801453851
100
AcDbArc
 50
205.0264737198
 51
208.3760928234
  0
ARC
  5
36F
100
AcDbEntity
  8
0
100
AcDbCircle
 62
7
  6
CONTINUOUS
 10
14.9497509651
 20
9.2274315335
 40
0.3798465142
100
AcDbArc
 50
143.7141442355
 51
146.9885143563
  0
ARC
  5
370
100
AcDbEntity
  8
0
100
AcDbCircle
 62
7
  6
CONTINUOUS
 10
12.4627158371
 20
8.4760426502
 40
0.1719355759
100
AcDbArc
 50
231.3980466237
 51
238.3898879086
  0
SPLINE
  5
371
100
AcDbEntity
  8
0
100
AcDbSpline
 62
7
  6
CONTINUOUS
 70
0
 71
3
 72
23
 73
19
 74
0
 42
0.0000001
 43
0.0000001
 44
0.0000000001
 40
0.0
 40
0.0
 40
0.0
 40
0.0
 40
0.077887548
 40
0.154543893
 40
0.2297412557
 40
0.3032906193
 40
0.3750185305
 40
0.4447516711
 40
0.5123181952
 40
0.5775570953
 40
0.640317502
 40
0.7004581263
 40
0.7578492766
 40
0.8123725124
 40
0.8639261342
 40
0.9124222333
 40
0.9577954785
 40
1.0
 40
1.0
 40
1.0
 40
1.0
 10
15.8092241176
 20
8.6252206083
 30
0.0
 10
15.8092241176
 20
8.6387055045
 30
0.0
 10
15.8090378937
 20
8.6654625454
 30
0.0
 10
15.8081886962
 20
8.7052306069
 30
0.0
 10
15.8067725889
 20
8.7442311174
 30
0.0
 10
15.8047943322
 20
8.7823528406
 30
0.0
 10
15.8022589647
 20
8.8194935149
 30
0.0
 10
15.7991741485
 20
8.8555532409
 30
0.0
 10
15.795547908
 20
8.8904334128
 30
0.0
 10
15.7913904792
 20
8.9240384002
 30
0.0
 10
15.786713528
 20
8.9562767081
 30
0.0
 10
15.7815297212
 20
8.9870607388
 30
0.0
 10
15.775854035
 20
9.0163068487
 30
0.0
 10
15.7697013142
 20
9.043935681
 30
0.0
 10
15.7630897877
 20
9.0698725265
 30
0.0
 10
15.7560362288
 20
9.0940477584
 30
0.0
 10
15.7485618645
 20
9.1163960532
 30
0.0
 10
15.7431123739
 20
9.1305531432
 30
0.0
 10
15.740304604
 20
9.1372991451
 30
0.0
  0
SPLINE
  5
372
100
AcDbEntity
  8
0
100
AcDbSpline
 62
7
  6
CONTINUOUS
 70
0
 71
3
 72
9
 73
5
 74
0
 42
0.0000001
 43
0.0000001
 44
0.0000000001
 40
0.0
 40
0.0
 40
0.0
 40
0.0
 40
0.5137008699
 40
1.0
 40
1.0
 40
1.0
 40
1.0
 10
15.6611150045
 20
9.3078589399
 30
0.0
 10
15.6591848683
 20
9.3104394751
 30
0.0
 10
15.6552947944
 20
9.315365479
 30
0.0
 10
15.6511144989
 20
9.3200493997
 30
0.0
 10
15.6490059004
 20
9.3222539591
 30
0.0
  0
SPLINE
  5
373
100
AcDbEntity
  8
0
100
AcDbSpline
 62
7
  6
CONTINUOUS
 70
0
 71
3
 72
21
 73
17
 74
0
 42
0.0000001
 43
0.0000001
 44
0.0000000001
 40
0.0
 40
0.0
 40
0.0
 40
0.0
 40
0.1581869057
 40
0.2342974008
 40
0.3082392483
 40
0.3798849882
 40
0.4491168141
 40
0.5158285755
 40
0.5799364107
 40
0.6413821077
 40
0.7001400376
 40
0.7562247425
 40
0.8096897679
 40
0.9091706631
 40
0.9555655171
 40
1.0
 40
1.0
 40
1.0
 40
1.0
 10
15.4223275449
 20
7.5336601829
 30
0.0
 10
15.4347261847
 20
7.5391476339
 30
0.0
 10
15.4529833595
 20
7.5475234972
 30
0.0
 10
15.4766981706
 20
7.5591724641
 30
0.0
 10
15.4935872301
 20
7.5678849163
 30
0.0
 10
15.5097616038
 20
7.5766874431
 30
0.0
 10
15.5251752511
 20
7.5855806426
 30
0.0
 10
15.5397830899
 20
7.5945650257
 30
0.0
 10
15.5535429628
 20
7.6036394987
 30
0.0
 10
15.5664169978
 20
7.6128021191
 30
0.0
 10
15.5783717838
 20
7.6220503301
 30
0.0
 10
15.5893830193
 20
7.6313801652
 30
0.0
 10
15.6024649196
 20
7.6436283741
 30
0.0
 10
15.6139982445
 20
7.6563016143
 30
0.0
 10
15.6237325518
 20
7.669403519
 30
0.0
 10
15.6279345848
 20
7.6759669912
 30
0.0
 10
15.6298674197
 20
7.6792487193
 30
0.0
  0
SPLINE
  5
374
100
AcDbEntity
  8
0
100
AcDbSpline
 62
7
  6
CONTINUOUS
 70
0
 71
3
 72
9
 73
5
 74
0
 42
0.0000001
 43
0.0000001
 44
0.0000000001
 40
0.0
 40
0.0
 40
0.0
 40
0.0
 40
0.4954682768
 40
1.0
 40
1.0
 40
1.0
 40
1.0
 10
15.7221881738
 20
9.1808257237
 30
0.0
 10
15.7132373528
 20
9.2023230795
 30
0.0
 10
15.6938628038
 20
9.2451729161
 30
0.0
 10
15.6723789444
 20
9.2869927673
 30
0.0
 10
15.6611150045
 20
9.3078589399
 30
0.0
  0
SPLINE
  5
375
100
AcDbEntity
  8
0
100
AcDbSpline
 62
7
  6
CONTINUOUS
 70
0
 71
3
 72
28
 73
24
 74
0
 42
0.0000001
 43
0.0000001
 44
0.0000000001
 40
0.0
 40
0.0
 40
0.0
 40
0.0
 40
0.0188529983
 40
0.0388813969
 40
0.0600730311
 40
0.082411071
 40
0.1058723771
 40
0.1304291914
 40
0.1560506674
 40
0.1827008701
 40
0.2103416943
 40
0.2389318129
 40
0.2987780357
 40
0.3618602847
 40
0.4277640086
 40
0.4960469277
 40
0.5662445243
 40
0.6378747072
 40
0.7104428967
 40
0.7834463883
 40
0.8563743541
 40
0.9287318806
 40
1.0
 40
1.0
 40
1.0
 40
1.0
 10
15.6404332072
 20
7.6971624504
 30
0.0
 10
15.6434697831
 20
7.7023110328
 30
0.0
 10
15.6494978929
 20
7.7130685834
 30
0.0
 10
15.6581750279
 20
7.7300275164
 30
0.0
 10
15.6667469372
 20
7.7482683981
 30
0.0
 10
15.6751966299
 20
7.7677579307
 30
0.0
 10
15.6835089991
 20
7.7884604398
 30
0.0
 10
15.6916688409
 20
7.8103378899
 30
0.0
 10
15.6996602069
 20
7.8333502468
 30
0.0
 10
15.7074691066
 20
7.8574549047
 30
0.0
 10
15.715080562
 20
7.8826075458
 30
0.0
 10
15.7250997739
 20
7.9180214957
 30
0.0
 10
15.7369837379
 20
7.9645768253
 30
0.0
 10
15.7500380884
 20
8.0230135831
 30
0.0
 10
15.7619963247
 20
8.0844113672
 30
0.0
 10
15.7727690491
 20
8.1483162699
 30
0.0
 10
15.7822757054
 20
8.2142561504
 30
0.0
 10
15.7904453483
 20
8.2817433993
 30
0.0
 10
15.7972169847
 20
8.3502790255
 30
0.0
 10
15.8025398837
 20
8.4193549235
 30
0.0
 10
15.806375603
 20
8.4884625725
 30
0.0
 10
15.8086944733
 20
8.5570869602
 30
0.0
 10
15.8092241176
 20
8.602625031
 30
0.0
 10
15.8092241176
 20
8.6252206083
 30
0.0
  0
SPLINE
  5
376
100
AcDbEntity
  8
0
100
AcDbSpline
 62
7
  6
CONTINUOUS
 70
0
 71
3
 72
22
 73
18
 74
0
 42
0.0000001
 43
0.0000001
 44
0.0000000001
 40
0.0
 40
0.0
 40
0.0
 40
0.0
 40
0.0447977327
 40
0.090841003
 40
0.1384838718
 40
0.1880433577
 40
0.2397966045
 40
0.2939795103
 40
0.3507924
 40
0.4104043773
 40
0.4729551441
 40
0.5385554372
 40
0.6072945966
 40
0.6792445381
 40
0.75446048
 40
0.8329792576
 40
1.0
 40
1.0
 40
1.0
 40
1.0
 10
14.719979781
 20
9.5150798245
 30
0.0
 10
14.7221677872
 20
9.5144597264
 30
0.0
 10
14.7265443392
 20
9.5129793232
 30
0.0
 10
14.7329702748
 20
9.5101050257
 30
0.0
 10
14.7393274667
 20
9.5065556337
 30
0.0
 10
14.7456109904
 20
9.5023346742
 30
0.0
 10
14.7518173677
 20
9.4974457041
 30
0.0
 10
14.7579435212
 20
9.4918932098
 30
0.0
 10
14.7639862002
 20
9.4856812416
 30
0.0
 10
14.7699419264
 20
9.4788137493
 30
0.0
 10
14.7758070971
 20
9.4712950647
 30
0.0
 10
14.7815786688
 20
9.4631304648
 30
0.0
 10
14.7872532025
 20
9.4543252495
 30
0.0
 10
14.7928270523
 20
9.4448848713
 30
0.0
 10
14.7982966251
 20
9.4348151149
 30
0.0
 10
14.8055966835
 20
9.4202574769
 30
0.0
 10
14.810670447
 20
9.4088623732
 30
0.0
 10
14.8139285558
 20
9.401034452
 30
0.0
  0
SPLINE
  5
377
100
AcDbEntity
  8
0
100
AcDbSpline
 62
7
  6
CONTINUOUS
 70
0
 71
3
 72
21
 73
17
 74
0
 42
0.0000001
 43
0.0000001
 44
0.0000000001
 40
0.0
 40
0.0
 40
0.0
 40
0.0
 40
0.0448192185
 40
0.090904822
 40
0.1881448455
 40
0.2399614159
 40
0.2942049783
 40
0.3510707698
 40
0.4107232064
 40
0.4732997823
 40
0.5389108282
 40
0.6076428405
 40
0.6795649902
 40
0.7547318808
 40
0.8331819621
 40
1.0
 40
1.0
 40
1.0
 40
1.0
 10
14.5782775009
 20
7.4639145958
 30
0.0
 10
14.5805202322
 20
7.4642438797
 30
0.0
 10
14.5850387921
 20
7.4651383406
 30
0.0
 10
14.5941702009
 20
7.4678527547
 30
0.0
 10
14.6032182113
 20
7.4719250957
 30
0.0
 10
14.6120779425
 20
7.4771523765
 30
0.0
 10
14.6188779083
 20
7.4818183225
 30
0.0
 10
14.6256849039
 20
7.4871414902
 30
0.0
 10
14.6324964884
 20
7.4931188229
 30
0.0
 10
14.6393081055
 20
7.4997466013
 30
0.0
 10
14.6461159088
 20
7.5070204705
 30
0.0
 10
14.6529159999
 20
7.514935425
 30
0.0
 10
14.6597041669
 20
7.5234864428
 30
0.0
 10
14.6664761261
 20
7.5326684547
 30
0.0
 10
14.6756666329
 20
7.5460193751
 30
0.0
 10
14.6822314555
 20
7.556554608
 30
0.0
 10
14.6865176864
 20
7.5638217208
 30
0.0
  0
SPLINE
  5
378
100
AcDbEntity
  8
0
100
AcDbSpline
 62
7
  6
CONTINUOUS
 70
0
 71
3
 72
36
 73
32
 74
0
 42
0.0000001
 43
0.0000001
 44
0.0000000001
 40
0.0
 40
0.0
 40
0.0
 40
0.0
 40
0.0058945795
 40
0.0117781123
 40
0.0177445724
 40
0.0238832138
 40
0.0369723265
 40
0.0440719815
 40
0.0515996111
 40
0.0680648107
 40
0.0865819314
 40
0.1072389106
 40
0.1300585457
 40
0.155010147
 40
0.1820207274
 40
0.2109948699
 40
0.2418061937
 40
0.2743161022
 40
0.3083717578
 40
0.3804483902
 40
0.4567133466
 40
0.4960020585
 40
0.5358403276
 40
0.5760672179
 40
0.6165315617
 40
0.6975558971
 40
0.7777194888
 40
0.8557787362
 40
0.930382681
 40
0.9659192409
 40
1.0
 40
1.0
 40
1.0
 40
1.0
 10
12.385858629
 20
7.9567650959
 30
0.0
 10
12.3857292601
 20
7.9573395694
 30
0.0
 10
12.3855469338
 20
7.9585062951
 30
0.0
 10
12.3855151146
 20
7.9602839045
 30
0.0
 10
12.3857256202
 20
7.96207404
 30
0.0
 10
12.3863401275
 20
7.9645207954
 30
0.0
 10
12.3874497556
 20
7.9669335817
 30
0.0
 10
12.3889610829
 20
7.9692560424
 30
0.0
 10
12.3908823855
 20
7.9717017302
 30
0.0
 10
12.3939059409
 20
7.9747067827
 30
0.0
 10
12.398322686
 20
7.9780997274
 30
0.0
 10
12.4036060192
 20
7.9813489774
 30
0.0
 10
12.4097252273
 20
7.9844123521
 30
0.0
 10
12.4166420304
 20
7.9872509856
 30
0.0
 10
12.424311598
 20
7.9898268601
 30
0.0
 10
12.4326835686
 20
7.9921007513
 30
0.0
 10
12.4417005028
 20
7.9940447626
 30
0.0
 10
12.451302524
 20
7.9956268783
 30
0.0
 10
12.4650601471
 20
7.997259254
 30
0.0
 10
12.4832764011
 20
7.9982371034
 30
0.0
 10
12.5020323274
 20
7.997845666
 30
0.0
 10
12.5175188189
 20
7.9967439584
 30
0.0
 10
12.5293808372
 20
7.9955164542
 30
0.0
 10
12.5413154574
 20
7.9939076011
 30
0.0
 10
12.5572575739
 20
7.9912808957
 30
0.0
 10
12.5769887192
 20
7.9871657814
 30
0.0
 10
12.6001087619
 20
7.9810687777
 30
0.0
 10
12.6222858652
 20
7.9740275197
 30
0.0
 10
12.6399169289
 20
7.967475343
 30
0.0
 10
12.6532234367
 20
7.9619482788
 30
0.0
 10
12.659575693
 20
7.959114477
 30
0.0
 10
12.6626651595
 20
7.9576838735
 30
0.0
  0
SPLINE
  5
379
100
AcDbEntity
  8
0
100
AcDbSpline
 62
7
  6
CONTINUOUS
 70
0
 71
3
 72
9
 73
5
 74
0
 42
0.0000001
 43
0.0000001
 44
0.0000000001
 40
0.0
 40
0.0
 40
0.0
 40
0.0
 40
0.5137008699
 40
1.0
 40
1.0
 40
1.0
 40
1.0
 10
15.4102184407
 20
7.5480552021
 30
0.0
 10
15.4121485769
 20
7.5454746669
 30
0.0
 10
15.4160386509
 20
7.540548663
 30
0.0
 10
15.4202189464
 20
7.5358647424
 30
0.0
 10
15.4223275449
 20
7.5336601829
 30
0.0
  0
SPLINE
  5
37A
100
AcDbEntity
  8
0
100
AcDbSpline
 62
7
  6
CONTINUOUS
 70
0
 71
3
 72
23
 73
19
 74
0
 42
0.0000001
 43
0.0000001
 44
0.0000000001
 40
0.0
 40
0.0
 40
0.0
 40
0.0
 40
0.0430157778
 40
0.086354693
 40
0.1305214035
 40
0.1761197174
 40
0.2238111798
 40
0.2742628933
 40
0.3280895723
 40
0.3857949322
 40
0.4477353844
 40
0.514108715
 40
0.5849549498
 40
0.6601783147
 40
0.7395814076
 40
0.8228946623
 40
0.9098102043
 40
1.0
 40
1.0
 40
1.0
 40
1.0
 10
15.6490059004
 20
9.3222539591
 30
0.0
 10
15.6491087674
 20
9.3174669059
 30
0.0
 10
15.6488663395
 20
9.3078396658
 30
0.0
 10
15.6470066645
 20
9.2934037644
 30
0.0
 10
15.643502318
 20
9.2789756206
 30
0.0
 10
15.6382107594
 20
9.2645837546
 30
0.0
 10
15.6310082978
 20
9.2502591906
 30
0.0
 10
15.6217982847
 20
9.2360332562
 30
0.0
 10
15.610514488
 20
9.221934813
 30
0.0
 10
15.5971282892
 20
9.2079868082
 30
0.0
 10
15.5816491952
 20
9.1942064473
 30
0.0
 10
15.5641228891
 20
9.1806079411
 30
0.0
 10
15.5446304729
 20
9.1672005288
 30
0.0
 10
15.5232821345
 20
9.1539885974
 30
0.0
 10
15.50020793
 20
9.1409738828
 30
0.0
 10
15.4755501145
 20
9.1281536917
 30
0.0
 10
15.4494558237
 20
9.1155221064
 30
0.0
 10
15.4315077856
 20
9.1073625043
 30
0.0
 10
15.4223275449
 20
9.1032994683
 30
0.0
  0
SPLINE
  5
37B
100
AcDbEntity
  8
0
100
AcDbSpline
 62
7
  6
CONTINUOUS
 70
0
 71
3
 72
21
 73
17
 74
0
 42
0.0000001
 43
0.0000001
 44
0.0000000001
 40
0.0
 40
0.0
 40
0.0
 40
0.0
 40
0.1231060406
 40
0.1848237375
 40
0.2466645184
 40
0.3086395644
 40
0.3707590064
 40
0.4330312441
 40
0.495460691
 40
0.5580484578
 40
0.6207919038
 40
0.6836843127
 40
0.7467167836
 40
0.809878012
 40
0.8731552189
 40
1.0
 40
1.0
 40
1.0
 40
1.0
 10
15.4102184407
 20
9.0655114548
 30
0.0
 10
15.4150476456
 20
9.0305054221
 30
0.0
 10
15.4209922901
 20
8.9777502651
 30
0.0
 10
15.4257574234
 20
8.9070967011
 30
0.0
 10
15.4276149105
 20
8.8538611847
 30
0.0
 10
15.4276191728
 20
8.8004772054
 30
0.0
 10
15.4256564308
 20
8.7470040272
 30
0.0
 10
15.4216378802
 20
8.693514313
 30
0.0
 10
15.4155124526
 20
8.6400890358
 30
0.0
 10
15.4072715857
 20
8.5868121816
 30
0.0
 10
15.3969465539
 20
8.5337649325
 30
0.0
 10
15.3846094048
 20
8.4810191521
 30
0.0
 10
15.3703666996
 20
8.4286329162
 30
0.0
 10
15.3543459683
 20
8.3766481181
 30
0.0
 10
15.3307880518
 20
8.3078566688
 30
0.0
 10
15.3109140052
 20
8.2569947751
 30
0.0
 10
15.296879263
 20
8.2233975994
 30
0.0
  0
SPLINE
  5
37C
100
AcDbEntity
  8
0
100
AcDbSpline
 62
7
  6
CONTINUOUS
 70
0
 71
3
 72
23
 73
19
 74
0
 42
0.0000001
 43
0.0000001
 44
0.0000000001
 40
0.0
 40
0.0
 40
0.0
 40
0.0
 40
0.0681699712
 40
0.1356231914
 40
0.2022981052
 40
0.2681450185
 40
0.3331245856
 40
0.3972161392
 40
0.460421847
 40
0.5227692631
 40
0.5843122542
 40
0.6451262748
 40
0.7053024714
 40
0.7649410449
 40
0.8241416455
 40
0.8829976249
 40
0.9415942517
 40
1.0
 40
1.0
 40
1.0
 40
1.0
 10
15.296879263
 20
8.1712145668
 30
0.0
 10
15.3038721122
 20
8.1582604848
 30
0.0
 10
15.3174576319
 20
8.1323101257
 30
0.0
 10
15.3365985148
 20
8.0930340225
 30
0.0
 10
15.354255993
 20
8.0536160177
 30
0.0
 10
15.3702814523
 20
8.0140807009
 30
0.0
 10
15.3845324632
 20
7.9744619565
 30
0.0
 10
15.3968809178
 20
7.9348045482
 30
0.0
 10
15.4072195857
 20
7.8951616958
 30
0.0
 10
15.4154749977
 20
7.8555939752
 30
0.0
 10
15.4216142856
 20
7.8161650955
 30
0.0
 10
15.425644668
 20
7.77693647
 30
0.0
 10
15.4276162865
 20
7.7379631781
 30
0.0
 10
15.4276176533
 20
7.6992897538
 30
0.0
 10
15.4257629911
 20
7.660947961
 30
0.0
 10
15.4221860623
 20
7.6229561067
 30
0.0
 10
15.4170311467
 20
7.5853216505
 30
0.0
 10
15.4126325463
 20
7.5604344786
 30
0.0
 10
15.4102184407
 20
7.5480552021
 30
0.0
  0
SPLINE
  5
37D
100
AcDbEntity
  8
0
100
AcDbSpline
 62
7
  6
CONTINUOUS
 70
0
 71
3
 72
21
 73
17
 74
0
 42
0.0000001
 43
0.0000001
 44
0.0000000001
 40
0.0
 40
0.0
 40
0.0
 40
0.0
 40
0.0723519082
 40
0.141165103
 40
0.2693778227
 40
0.3297134318
 40
0.3881613266
 40
0.4452932943
 40
0.5017244346
 40
0.5580937133
 40
0.615040981
 40
0.673185954
 40
0.7331085521
 40
0.8601998366
 40
0.92835026
 40
1.0
 40
1.0
 40
1.0
 40
1.0
 10
14.5814508463
 20
7.5919751801
 30
0.0
 10
14.5833378223
 20
7.590002329
 30
0.0
 10
14.587140801
 20
7.5862651606
 30
0.0
 10
14.5948755752
 20
7.5796642792
 30
0.0
 10
14.6029769779
 20
7.5742076139
 30
0.0
 10
14.6113782902
 20
7.5701439922
 30
0.0
 10
14.6176231412
 20
7.5678593267
 30
0.0
 10
14.6239315756
 20
7.5662812102
 30
0.0
 10
14.6302976006
 20
7.5654127839
 30
0.0
 10
14.6367137026
 20
7.5652551229
 30
0.0
 10
14.6431723132
 20
7.5658077054
 30
0.0
 10
14.6496667573
 20
7.5670695831
 30
0.0
 10
14.658535271
 20
7.5697452796
 30
0.0
 10
14.6673102917
 20
7.5738467245
 30
0.0
 10
14.6758815441
 20
7.5791417877
 30
0.0
 10
14.6801638158
 20
7.5822314793
 30
0.0
 10
14.68230523
 20
7.583881694
 30
0.0
  0
SPLINE
  5
37E
100
AcDbEntity
  8
0
100
AcDbSpline
 62
7
  6
CONTINUOUS
 70
0
 71
3
 72
37
 73
33
 74
0
 42
0.0000001
 43
0.0000001
 44
0.0000000001
 40
0.0
 40
0.0
 40
0.0
 40
0.0
 40
0.0242958757
 40
0.0472720491
 40
0.06906547
 40
0.0898420657
 40
0.1098025191
 40
0.1291772502
 40
0.1482195591
 40
0.1671969267
 40
0.1863790917
 40
0.2060268442
 40
0.2263816435
 40
0.2476578252
 40
0.2700406061
 40
0.2936856295
 40
0.3187193724
 40
0.3452443247
 40
0.3733422379
 40
0.4030747875
 40
0.4344887667
 40
0.4676191269
 40
0.5024882474
 40
0.5391092416
 40
0.5774886204
 40
0.6176242977
 40
0.6595071409
 40
0.7031242385
 40
0.748458767
 40
0.7954901579
 40
0.8945412347
 40
1.0
 40
1.0
 40
1.0
 40
1.0
 10
14.8081292018
 20
9.3805689562
 30
0.0
 10
14.8060253817
 20
9.3827685199
 30
0.0
 10
14.8017822822
 20
9.3869090751
 30
0.0
 10
14.7951218612
 20
9.3924471713
 30
0.0
 10
14.7883575415
 20
9.397123636
 30
0.0
 10
14.7814948102
 20
9.4009296688
 30
0.0
 10
14.7745401029
 20
9.4038586416
 30
0.0
 10
14.7675008621
 20
9.4059047583
 30
0.0
 10
14.7603859742
 20
9.4070621917
 30
0.0
 10
14.7532064439
 20
9.4073282496
 30
0.0
 10
14.7459736731
 20
9.4067035702
 30
0.0
 10
14.7386984161
 20
9.4051901855
 30
0.0
 10
14.7313900178
 20
9.4027927634
 30
0.0
 10
14.7240556336
 20
9.3995179156
 30
0.0
 10
14.7167015541
 20
9.3953711242
 30
0.0
 10
14.7093336728
 20
9.3903579136
 30
0.0
 10
14.7019570394
 20
9.3844848296
 30
0.0
 10
14.6945773366
 20
9.3777577091
 30
0.0
 10
14.687200856
 20
9.3701826072
 30
0.0
 10
14.6798332804
 20
9.3617670925
 30
0.0
 10
14.6724809261
 20
9.3525189124
 30
0.0
 10
14.6651507445
 20
9.3424462141
 30
0.0
 10
14.6578490673
 20
9.3315585301
 30
0.0
 10
14.6505824493
 20
9.3198660123
 30
0.0
 10
14.6433580605
 20
9.3073792757
 30
0.0
 10
14.636182586
 20
9.294110214
 30
0.0
 10
14.6290625906
 20
9.2800716622
 30
0.0
 10
14.6220051336
 20
9.2652767577
 30
0.0
 10
14.6150168179
 20
9.2497391484
 30
0.0
 10
14.6056371005
 20
9.2276680036
 30
0.0
 10
14.5941696359
 20
9.1983083414
 30
0.0
 10
14.5856572522
 20
9.1741384548
 30
0.0
 10
14.5814508463
 20
9.1616144654
 30
0.0
  0
SPLINE
  5
37F
100
AcDbEntity
  8
0
100
AcDbSpline
 62
7
  6
CONTINUOUS
 70
0
 71
3
 72
29
 73
25
 74
0
 42
0.0000001
 43
0.0000001
 44
0.0000000001
 40
0.0
 40
0.0
 40
0.0
 40
0.0
 40
0.0845029209
 40
0.1672060512
 40
0.2477928116
 40
0.3259955312
 40
0.4015490781
 40
0.4741967172
 40
0.5437011092
 40
0.6098423629
 40
0.6724190906
 40
0.7312544691
 40
0.759222048
 40
0.7862006128
 40
0.8121758414
 40
0.8371363988
 40
0.8610738044
 40
0.8839816691
 40
0.9058577403
 40
0.9267048499
 40
0.9465294736
 40
0.9653422397
 40
0.9831585626
 40
1.0
 40
1.0
 40
1.0
 40
1.0
 10
14.4560025644
 20
8.2295295639
 30
0.0
 10
14.4561451823
 20
8.2114878112
 30
0.0
 10
14.4567246785
 20
8.175790105
 30
0.0
 10
14.4585066196
 20
8.1229109007
 30
0.0
 10
14.4611869823
 20
8.0714161724
 30
0.0
 10
14.4647548395
 20
8.0215053708
 30
0.0
 10
14.4691958315
 20
7.9733663466
 30
0.0
 10
14.4744932941
 20
7.9271824595
 30
0.0
 10
14.4806262797
 20
7.8831297012
 30
0.0
 10
14.4875705513
 20
7.8413749737
 30
0.0
 10
14.4952998179
 20
7.8020770185
 30
0.0
 10
14.5024851642
 20
7.7709950819
 30
0.0
 10
14.5086344708
 20
7.7474911781
 30
0.0
 10
14.5133453961
 20
7.7308668578
 30
0.0
 10
14.5182291259
 20
7.714962807
 30
0.0
 10
14.5232809755
 20
7.6997940717
 30
0.0
 10
14.5284957353
 20
7.6853749211
 30
0.0
 10
14.5338686868
 20
7.6717190663
 30
0.0
 10
14.5393949919
 20
7.65883926
 30
0.0
 10
14.545069342
 20
7.6467470373
 30
0.0
 10
14.5508868398
 20
7.6354535684
 30
0.0
 10
14.5568423765
 20
7.6249697501
 30
0.0
 10
14.5629289841
 20
7.6153062323
 30
0.0
 10
14.5671880032
 20
7.6092496847
 30
0.0
 10
14.5693417421
 20
7.6063701992
 30
0.0
  0
SPLINE
  5
380
100
AcDbEntity
  8
0
100
AcDbSpline
 62
7
  6
CONTINUOUS
 70
0
 71
3
 72
23
 73
19
 74
0
 42
0.0000001
 43
0.0000001
 44
0.0000000001
 40
0.0
 40
0.0
 40
0.0
 40
0.0
 40
0.0516336942
 40
0.1056802294
 40
0.1619477426
 40
0.2202552621
 40
0.2804049373
 40
0.3421879345
 40
0.4053888783
 40
0.4697856779
 40
0.5351505224
 40
0.6012507051
 40
0.6678508709
 40
0.7347134147
 40
0.8015970733
 40
0.8682636889
 40
0.934483684
 40
1.0
 40
1.0
 40
1.0
 40
1.0
 10
14.5693417421
 20
9.1238264519
 30
0.0
 10
14.565050344
 20
9.1097986342
 30
0.0
 10
14.5566664164
 20
9.0809641315
 30
0.0
 10
14.5449113155
 20
9.0364763288
 30
0.0
 10
14.5337238696
 20
8.9898901814
 30
0.0
 10
14.5231473563
 20
8.9413858255
 30
0.0
 10
14.5132215289
 20
8.8911461488
 30
0.0
 10
14.5039851872
 20
8.8393625879
 30
0.0
 10
14.4954735326
 20
8.7862327889
 30
0.0
 10
14.4877190293
 20
8.7319591921
 30
0.0
 10
14.480751831
 20
8.6767487033
 30
0.0
 10
14.4745981799
 20
8.6208118962
 30
0.0
 10
14.4692817905
 20
8.5643619579
 30
0.0
 10
14.4648232631
 20
8.5076145389
 30
0.0
 10
14.4612390458
 20
8.4507862948
 30
0.0
 10
14.458543123
 20
8.394091679
 30
0.0
 10
14.4567461931
 20
8.3377502369
 30
0.0
 10
14.4561474861
 20
8.3003257505
 30
0.0
 10
14.4560025644
 20
8.2817125965
 30
0.0
  0
SPLINE
  5
381
100
AcDbEntity
  8
0
100
AcDbSpline
 62
7
  6
CONTINUOUS
 70
0
 71
3
 72
11
 73
7
 74
0
 42
0.0000001
 43
0.0000001
 44
0.0000000001
 40
0.0
 40
0.0
 40
0.0
 40
0.0
 40
0.2702526429
 40
0.5269256595
 40
0.77011137
 40
1.0
 40
1.0
 40
1.0
 40
1.0
 10
15.740304604
 20
9.1372991451
 30
0.0
 10
15.7386532078
 20
9.1412668212
 30
0.0
 10
15.7353099292
 20
9.1489523296
 30
0.0
 10
15.7300213254
 20
9.1600012573
 30
0.0
 10
15.7245934054
 20
9.1702618649
 30
0.0
 10
15.7207797807
 20
9.1767504674
 30
0.0
 10
15.718846605
 20
9.1798532565
 30
0.0
  0
SPLINE
  5
382
100
AcDbEntity
  8
0
100
AcDbSpline
 62
7
  6
CONTINUOUS
 70
0
 71
3
 72
54
 73
50
 74
0
 42
0.0000001
 43
0.0000001
 44
0.0000000001
 40
0.0
 40
0.0
 40
0.0
 40
0.0
 40
0.0092108238
 40
0.0178650132
 40
0.0259872228
 40
0.0336098801
 40
0.0407741653
 40
0.0475323476
 40
0.0539489081
 40
0.0601003322
 40
0.0660746808
 40
0.0719689955
 40
0.0778844401
 40
0.0839211615
 40
0.0901728333
 40
0.0967228879
 40
0.10364304
 40
0.1109924399
 40
0.1188183967
 40
0.1271585611
 40
0.1360419749
 40
0.145489763
 40
0.1555174947
 40
0.1661361414
 40
0.177351696
 40
0.1891668474
 40
0.2015819129
 40
0.2145940872
 40
0.2281981172
 40
0.242387453
 40
0.257153694
 40
0.2724862817
 40
0.3048025311
 40
0.3392310852
 40
0.3756484307
 40
0.4139155225
 40
0.4538817316
 40
0.4953846913
 40
0.5382528179
 40
0.5823066415
 40
0.6273592683
 40
0.6732186361
 40
0.7196876114
 40
0.7665663399
 40
0.8136525902
 40
0.8607406718
 40
0.9076288734
 40
0.954121876
 40
1.0
 40
1.0
 40
1.0
 40
1.0
 10
15.718846605
 20
9.1798532565
 30
0.0
 10
15.7169575936
 20
9.1828851607
 30
0.0
 10
15.7131443315
 20
9.1886749246
 30
0.0
 10
15.7071107414
 20
9.1967559133
 30
0.0
 10
15.7009506958
 20
9.2039494928
 30
0.0
 10
15.6946701093
 20
9.2102475806
 30
0.0
 10
15.6882734524
 20
9.2156418507
 30
0.0
 10
15.6817656541
 20
9.2201241096
 30
0.0
 10
15.6751527228
 20
9.2236869482
 30
0.0
 10
15.6684412382
 20
9.2263214121
 30
0.0
 10
15.6616404309
 20
9.2280182326
 30
0.0
 10
15.6547630405
 20
9.2287724763
 30
0.0
 10
15.6478230332
 20
9.2285818655
 30
0.0
 10
15.6408346436
 20
9.2274472384
 30
0.0
 10
15.6338099519
 20
9.2253753008
 30
0.0
 10
15.6267580425
 20
9.2223737856
 30
0.0
 10
15.6196865921
 20
9.2184493149
 30
0.0
 10
15.6126018458
 20
9.2136094867
 30
0.0
 10
15.605509339
 20
9.207862022
 30
0.0
 10
15.5984155943
 20
9.2012135602
 30
0.0
 10
15.5913275489
 20
9.193671511
 30
0.0
 10
15.5842515973
 20
9.1852449315
 30
0.0
 10
15.577195175
 20
9.1759429279
 30
0.0
 10
15.5701663773
 20
9.1657753633
 30
0.0
 10
15.5631723961
 20
9.1547539805
 30
0.0
 10
15.5562209458
 20
9.1428911806
 30
0.0
 10
15.5493203752
 20
9.1301999664
 30
0.0
 10
15.5424783413
 20
9.1166948475
 30
0.0
 10
15.5357023626
 20
9.1023913861
 30
0.0
 10
15.5290005791
 20
9.0873056692
 30
0.0
 10
15.522380773
 20
9.0714548524
 30
0.0
 10
15.5135175128
 20
9.0489279261
 30
0.0
 10
15.5027352746
 20
9.0189694078
 30
0.0
 10
15.4904558929
 20
8.9808844223
 30
0.0
 10
15.4786772562
 20
8.9402335299
 30
0.0
 10
15.4674532386
 20
8.897203583
 30
0.0
 10
15.4568369487
 20
8.8519917644
 30
0.0
 10
15.4468773846
 20
8.8048059386
 30
0.0
 10
15.4376207368
 20
8.7558631977
 30
0.0
 10
15.42911057
 20
8.7053887851
 30
0.0
 10
15.4213856617
 20
8.6536152217
 30
0.0
 10
15.4144824274
 20
8.6007810899
 30
0.0
 10
15.4084325998
 20
8.5471297979
 30
0.0
 10
15.4032639722
 20
8.492908527
 30
0.0
 10
15.3990011706
 20
8.4383677214
 30
0.0
 10
15.395662867
 20
8.3837588687
 30
0.0
 10
15.3932649591
 20
8.3293308572
 30
0.0
 10
15.3918190981
 20
8.275338788
 30
0.0
 10
15.3914905236
 20
8.2395137973
 30
0.0
 10
15.3914905236
 20
8.2217209174
 30
0.0
  0
SPLINE
  5
383
100
AcDbEntity
  8
0
100
AcDbSpline
 62
7
  6
CONTINUOUS
 70
0
 71
3
 72
53
 73
49
 74
0
 42
0.0000001
 43
0.0000001
 44
0.0000000001
 40
0.0
 40
0.0
 40
0.0
 40
0.0
 40
0.0544907941
 40
0.1080979901
 40
0.1606560469
 40
0.2120281743
 40
0.2620877801
 40
0.3107083338
 40
0.3577648707
 40
0.4031412931
 40
0.4467281644
 40
0.4884242193
 40
0.5281359132
 40
0.5657798024
 40
0.6012836806
 40
0.6345877502
 40
0.665648108
 40
0.6944379096
 40
0.7209543149
 40
0.7333678099
 40
0.7452252574
 40
0.7565357423
 40
0.7673110227
 40
0.7775664848
 40
0.7873222128
 40
0.7966027422
 40
0.8054376755
 40
0.8138626756
 40
0.8219206677
 40
0.8296616062
 40
0.8371424982
 40
0.8444272267
 40
0.8515857817
 40
0.858692146
 40
0.8658219848
 40
0.8730502795
 40
0.8804487398
 40
0.8880836296
 40
0.896014725
 40
0.9042948542
 40
0.9129694716
 40
0.9220766823
 40
0.9316484382
 40
0.9417113755
 40
0.9522871625
 40
0.963392516
 40
0.9750406085
 40
1.0
 40
1.0
 40
1.0
 40
1.0
 10
15.3914905236
 20
8.2217209174
 30
0.0
 10
15.3914905236
 20
8.2079485651
 30
0.0
 10
15.391684719
 20
8.1806267491
 30
0.0
 10
15.3925705576
 20
8.1400297226
 30
0.0
 10
15.3940477485
 20
8.1002384946
 30
0.0
 10
15.3961110474
 20
8.0613711348
 30
0.0
 10
15.3987550716
 20
8.0235363693
 30
0.0
 10
15.4019713116
 20
7.986840587
 30
0.0
 10
15.4057513425
 20
7.9513885282
 30
0.0
 10
15.4100835608
 20
7.917281544
 30
0.0
 10
15.4149558486
 20
7.8846164219
 30
0.0
 10
15.4203537397
 20
7.8534857898
 30
0.0
 10
15.4262617708
 20
7.8239778385
 30
0.0
 10
15.4326628847
 20
7.796176057
 30
0.0
 10
15.439538303
 20
7.7701586715
 30
0.0
 10
15.4468687501
 20
7.7459987145
 30
0.0
 10
15.454632552
 20
7.7237628651
 30
0.0
 10
15.4628088815
 20
7.7035133958
 30
0.0
 10
15.4700984692
 20
7.6880140427
 30
0.0
 10
15.4761478321
 20
7.6766898348
 30
0.0
 10
15.4806733678
 20
7.6689158365
 30
0.0
 10
15.4852843146
 20
7.6616783028
 30
0.0
 10
15.489977873
 20
7.6549824298
 30
0.0
 10
15.4947512506
 20
7.6488331057
 30
0.0
 10
15.4996011336
 20
7.6432342817
 30
0.0
 10
15.504524566
 20
7.6381897831
 30
0.0
 10
15.5095187447
 20
7.6337034843
 30
0.0
 10
15.5145811495
 20
7.6297794443
 30
0.0
 10
15.5197085581
 20
7.6264207437
 30
0.0
 10
15.5248978201
 20
7.6236305418
 30
0.0
 10
15.5301455201
 20
7.6214122531
 30
0.0
 10
15.5354478005
 20
7.6197697119
 30
0.0
 10
15.5407996826
 20
7.6187052029
 30
0.0
 10
15.546195719
 20
7.618220076
 30
0.0
 10
15.5516302278
 20
7.6183150129
 30
0.0
 10
15.5570974528
 20
7.6189901085
 30
0.0
 10
15.5625919871
 20
7.6202435548
 30
0.0
 10
15.5681092264
 20
7.622072439
 30
0.0
 10
15.5736451277
 20
7.6244740538
 30
0.0
 10
15.5791959006
 20
7.6274459442
 30
0.0
 10
15.5847580324
 20
7.6309851707
 30
0.0
 10
15.5903284508
 20
7.6350881067
 30
0.0
 10
15.5959038277
 20
7.6397515138
 30
0.0
 10
15.6014806639
 20
7.6449722473
 30
0.0
 10
15.6070552081
 20
7.6507467894
 30
0.0
 10
15.6126243413
 20
7.6570707591
 30
0.0
 10
15.6202128156
 20
7.6664463777
 30
0.0
 10
15.6256141006
 20
7.6739709489
 30
0.0
 10
15.6291374518
 20
7.679203717
 30
0.0
  0
SPLINE
  5
384
100
AcDbEntity
  8
0
100
AcDbSpline
 62
7
  6
CONTINUOUS
 70
0
 71
3
 72
9
 73
5
 74
0
 42
0.0000001
 43
0.0000001
 44
0.0000000001
 40
0.0
 40
0.0
 40
0.0
 40
0.0
 40
0.241994066
 40
1.0
 40
1.0
 40
1.0
 40
1.0
 10
15.6291374518
 20
7.679203717
 30
0.0
 10
15.6300933614
 20
7.6806234033
 30
0.0
 10
15.633995183
 20
7.6865224926
 30
0.0
 10
15.6377097327
 20
7.6925447383
 30
0.0
 10
15.6404332072
 20
7.6971624504
 30
0.0
  0
SPLINE
  5
385
100
AcDbEntity
  8
0
100
AcDbSpline
 62
7
  6
CONTINUOUS
 70
0
 71
3
 72
9
 73
5
 74
0
 42
0.0000001
 43
0.0000001
 44
0.0000000001
 40
0.0
 40
0.0
 40
0.0
 40
0.0
 40
0.5137008699
 40
1.0
 40
1.0
 40
1.0
 40
1.0
 10
14.5693417421
 20
7.6063701992
 30
0.0
 10
14.5712718784
 20
7.6037896641
 30
0.0
 10
14.5751619523
 20
7.5988636602
 30
0.0
 10
14.5793422478
 20
7.5941797395
 30
0.0
 10
14.5814508463
 20
7.5919751801
 30
0.0
  0
SPLINE
  5
386
100
AcDbEntity
  8
0
100
AcDbSpline
 62
7
  6
CONTINUOUS
 70
0
 71
3
 72
33
 73
29
 74
0
 42
0.0000001
 43
0.0000001
 44
0.0000000001
 40
0.0
 40
0.0
 40
0.0
 40
0.0
 40
0.0248427079
 40
0.0515341214
 40
0.0799601194
 40
0.110003455
 40
0.1744721739
 40
0.2439818741
 40
0.3174934371
 40
0.3938417519
 40
0.4717068109
 40
0.5496025595
 40
0.5880626999
 40
0.6259241565
 40
0.6629816732
 40
0.6990322175
 40
0.7338834111
 40
0.7673530859
 40
0.7992694979
 40
0.8294847872
 40
0.8578640923
 40
0.8842979721
 40
0.9087037974
 40
0.9310251869
 40
0.9512522151
 40
0.9694180183
 40
0.9856120305
 40
1.0
 40
1.0
 40
1.0
 40
1.0
 10
12.678860234
 20
7.9096107572
 30
0.0
 10
12.6764151104
 20
7.9095640867
 30
0.0
 10
12.6713416137
 20
7.9095312371
 30
0.0
 10
12.6634704443
 20
7.9096263664
 30
0.0
 10
12.6550897358
 20
7.9098478593
 30
0.0
 10
12.6429957329
 20
7.9103002705
 30
0.0
 10
12.6268689487
 20
7.9111121925
 30
0.0
 10
12.606479827
 20
7.9123371056
 30
0.0
 10
12.5849316957
 20
7.9137638478
 30
0.0
 10
12.5625698724
 20
7.9153471328
 30
0.0
 10
12.5397858425
 20
7.9170745176
 30
0.0
 10
12.5207317818
 20
7.9186594263
 30
0.0
 10
12.5056143741
 20
7.9200539764
 30
0.0
 10
12.4945081576
 20
7.9211626184
 30
0.0
 10
12.4836486401
 20
7.9223503333
 30
0.0
 10
12.4730978245
 20
7.9236291536
 30
0.0
 10
12.4629162421
 20
7.9250112984
 30
0.0
 10
12.4531623998
 20
7.9265091505
 30
0.0
 10
12.4438919345
 20
7.9281355448
 30
0.0
 10
12.4351569927
 20
7.9298994936
 30
0.0
 10
12.4270062875
 20
7.9318117582
 30
0.0
 10
12.4194844877
 20
7.9338789816
 30
0.0
 10
12.4126314317
 20
7.9361039908
 30
0.0
 10
12.4064836305
 20
7.9384922922
 30
0.0
 10
12.4010707401
 20
7.9410403921
 30
0.0
 10
12.3964195333
 20
7.9437493917
 30
0.0
 10
12.3925547663
 20
7.9466121515
 30
0.0
 10
12.390397749
 20
7.9487343859
 30
0.0
 10
12.3894859801
 20
7.9498182753
 30
0.0
  0
SPLINE
  5
387
100
AcDbEntity
  8
0
100
AcDbSpline
 62
7
  6
CONTINUOUS
 70
0
 71
3
 72
23
 73
19
 74
0
 42
0.0000001
 43
0.0000001
 44
0.0000000001
 40
0.0
 40
0.0
 40
0.0
 40
0.0
 40
0.063777379
 40
0.1273447372
 40
0.1907019931
 40
0.2538561345
 40
0.3168131769
 40
0.3795820929
 40
0.4421733849
 40
0.5045993366
 40
0.5668738654
 40
0.6290123812
 40
0.6910316548
 40
0.7529496517
 40
0.8147853612
 40
0.8765586089
 40
0.9382898579
 40
1.0
 40
1.0
 40
1.0
 40
1.0
 10
8.4848498557
 20
7.9874179281
 30
0.0
 10
8.4848498557
 20
7.9758463581
 30
0.0
 10
8.4842960148
 20
7.9527374017
 30
0.0
 10
8.4817961526
 20
7.9182145034
 30
0.0
 10
8.4776339344
 20
7.8839653215
 30
0.0
 10
8.4718192053
 20
7.8500701164
 30
0.0
 10
8.4643650564
 20
7.8166064944
 30
0.0
 10
8.4552886868
 20
7.7836517742
 30
0.0
 10
8.4446108961
 20
7.7512818931
 30
0.0
 10
8.4323562596
 20
7.7195715002
 30
0.0
 10
8.4185529731
 20
7.688593722
 30
0.0
 10
8.4032328025
 20
7.6584200076
 30
0.0
 10
8.3864310231
 20
7.6291199676
 30
0.0
 10
8.368186305
 20
7.6007611914
 30
0.0
 10
8.3485407534
 20
7.5734091658
 30
0.0
 10
8.3275394462
 20
7.5471267635
 30
0.0
 10
8.3052316328
 20
7.5219754441
 30
0.0
 10
8.2895201013
 20
7.5059976684
 30
0.0
 10
8.2814669827
 20
7.4982189265
 30
0.0
  0
SPLINE
  5
388
100
AcDbEntity
  8
0
100
AcDbSpline
 62
7
  6
CONTINUOUS
 70
0
 71
3
 72
23
 73
19
 74
0
 42
0.0000001
 43
0.0000001
 44
0.0000000001
 40
0.0
 40
0.0
 40
0.0
 40
0.0
 40
0.063777379
 40
0.1273447372
 40
0.1907019931
 40
0.2538561345
 40
0.3168131769
 40
0.3795820929
 40
0.4421733849
 40
0.5045993366
 40
0.5668738654
 40
0.6290123812
 40
0.6910316548
 40
0.7529496517
 40
0.8147853612
 40
0.8765586089
 40
0.9382898579
 40
1.0
 40
1.0
 40
1.0
 40
1.0
 10
12.7107755961
 20
7.6943489826
 30
0.0
 10
12.7107755961
 20
7.6827774126
 30
0.0
 10
12.7102217552
 20
7.6596684562
 30
0.0
 10
12.707721893
 20
7.625145558
 30
0.0
 10
12.7035596748
 20
7.590896376
 30
0.0
 10
12.6977449457
 20
7.557001171
 30
0.0
 10
12.6902907968
 20
7.5235375489
 30
0.0
 10
12.6812144272
 20
7.4905828287
 30
0.0
 10
12.6705366365
 20
7.4582129476
 30
0.0
 10
12.658282
 20
7.4265025547
 30
0.0
 10
12.6444787135
 20
7.3955247765
 30
0.0
 10
12.6291585429
 20
7.3653510621
 30
0.0
 10
12.6123567635
 20
7.3360510221
 30
0.0
 10
12.5941120454
 20
7.3076922459
 30
0.0
 10
12.5744664938
 20
7.2803402203
 30
0.0
 10
12.5534651866
 20
7.254057818
 30
0.0
 10
12.5311573732
 20
7.2289064986
 30
0.0
 10
12.5154458417
 20
7.2129287229
 30
0.0
 10
12.5073927232
 20
7.205149981
 30
0.0
  0
SPLINE
  5
389
100
AcDbEntity
  8
0
100
AcDbSpline
 62
7
  6
CONTINUOUS
 70
0
 71
3
 72
38
 73
34
 74
0
 42
0.0000001
 43
0.0000001
 44
0.0000000001
 40
0.0
 40
0.0
 40
0.0
 40
0.0
 40
0.0378009954
 40
0.0752361135
 40
0.1122763562
 40
0.1489014578
 40
0.1850953892
 40
0.220848605
 40
0.2561567157
 40
0.291020233
 40
0.3254436809
 40
0.3594346377
 40
0.3930027782
 40
0.4261590456
 40
0.4589149717
 40
0.4912816109
 40
0.5232687814
 40
0.5548847746
 40
0.6170089421
 40
0.6776775837
 40
0.7074573974
 40
0.7368449907
 40
0.765819505
 40
0.7943526612
 40
0.8224078352
 40
0.8499395898
 40
0.8768901614
 40
0.9031907745
 40
0.9287578008
 40
0.9534923143
 40
0.9772810426
 40
0.9887829192
 40
1.0
 40
1.0
 40
1.0
 40
1.0
 10
11.48032986
 20
8.0058295977
 30
0.0
 10
11.48032986
 20
7.9970550781
 30
0.0
 10
11.4807494269
 20
7.9795878724
 30
0.0
 10
11.482651903
 20
7.9535852421
 30
0.0
 10
11.485808968
 20
7.9279792118
 30
0.0
 10
11.4901944239
 20
7.902847287
 30
0.0
 10
11.4957734186
 20
7.8782593511
 30
0.0
 10
11.502502966
 20
7.8542786027
 30
0.0
 10
11.5103337696
 20
7.8309602821
 30
0.0
 10
11.519211398
 20
7.8083516374
 30
0.0
 10
11.5290777809
 20
7.7864919902
 30
0.0
 10
11.5398725432
 20
7.7654132257
 30
0.0
 10
11.5515341128
 20
7.7451404171
 30
0.0
 10
11.5640005811
 20
7.7256925168
 30
0.0
 10
11.5772103996
 20
7.7070830988
 30
0.0
 10
11.591102882
 20
7.6893215126
 30
0.0
 10
11.6056190332
 20
7.6724131159
 30
0.0
 10
11.6256077838
 20
7.651137627
 30
0.0
 10
11.6518444743
 20
7.6266484841
 30
0.0
 10
11.6797276254
 20
7.6047414714
 30
0.0
 10
11.7026349522
 20
7.5889492627
 30
0.0
 10
11.7199462087
 20
7.5780327986
 30
0.0
 10
11.7374362566
 20
7.567974561
 30
0.0
 10
11.7550468455
 20
7.558779269
 30
0.0
 10
11.772715835
 20
7.5504547364
 30
0.0
 10
11.7903761764
 20
7.5430121727
 30
0.0
 10
11.8079547489
 20
7.5364672254
 30
0.0
 10
11.8253698933
 20
7.530840022
 30
0.0
 10
11.8425301817
 20
7.5261563529
 30
0.0
 10
11.8593311305
 20
7.5224482142
 30
0.0
 10
11.8730865204
 20
7.5201769273
 30
0.0
 10
11.8838081374
 20
7.5189035007
 30
0.0
 10
11.8890633696
 20
7.5184495076
 30
0.0
 10
11.8916609731
 20
7.518270646
 30
0.0
  0
SPLINE
  5
38A
100
AcDbEntity
  8
0
100
AcDbSpline
 62
7
  6
CONTINUOUS
 70
0
 71
3
 72
52
 73
48
 74
0
 42
0.0000001
 43
0.0000001
 44
0.0000000001
 40
0.0
 40
0.0
 40
0.0
 40
0.0
 40
0.0157878216
 40
0.0316104677
 40
0.0474681488
 40
0.0633649183
 40
0.0793020875
 40
0.0952807367
 40
0.1113013123
 40
0.1273633261
 40
0.1434657761
 40
0.1596069096
 40
0.175784258
 40
0.1919951021
 40
0.2244941133
 40
0.2570822451
 40
0.2897221124
 40
0.3223722912
 40
0.3549882115
 40
0.3875234228
 40
0.4199307638
 40
0.4521637967
 40
0.4841787347
 40
0.5159363228
 40
0.5474041174
 40
0.5785586376
 40
0.6093873967
 40
0.6398908463
 40
0.6700837632
 40
0.6999965377
 40
0.7296758268
 40
0.7591846263
 40
0.7886017215
 40
0.8033098176
 40
0.8180308134
 40
0.8327776982
 40
0.8475636931
 40
0.8624021601
 40
0.8773057965
 40
0.892286659
 40
0.9073557894
 40
0.922522489
 40
0.9377943485
 40
0.9531766506
 40
0.9686716955
 40
0.9842812307
 40
1.0
 40
1.0
 40
1.0
 40
1.0
 10
7.6710510293
 20
8.1609487571
 30
0.0
 10
7.6710510293
 20
8.1578480065
 30
0.0
 10
7.6712518956
 20
8.1516378302
 30
0.0
 10
7.6721508847
 20
8.1423524041
 30
0.0
 10
7.6736410543
 20
8.1331214133
 30
0.0
 10
7.6757105977
 20
8.1239800605
 30
0.0
 10
7.6783441354
 20
8.1149604146
 30
0.0
 10
7.6815225916
 20
8.1060925228
 30
0.0
 10
7.6852243467
 20
8.0974036427
 30
0.0
 10
7.6894257506
 20
8.0889182262
 30
0.0
 10
7.6941014837
 20
8.0806577501
 30
0.0
 10
7.6992254951
 20
8.0726410915
 30
0.0
 10
7.7047715642
 20
8.0648843063
 30
0.0
 10
7.7126987573
 20
8.0549002933
 30
0.0
 10
7.7235334379
 20
8.0431360994
 30
0.0
 10
7.7377938014
 20
8.0302524891
 30
0.0
 10
7.7531400019
 20
8.0186367529
 30
0.0
 10
7.7693966941
 20
8.0083276596
 30
0.0
 10
7.7864020715
 20
7.9993537206
 30
0.0
 10
7.8040045448
 20
7.9917381769
 30
0.0
 10
7.8220609165
 20
7.9855005405
 30
0.0
 10
7.8404343322
 20
7.9806577345
 30
0.0
 10
7.8589927187
 20
7.9772244517
 30
0.0
 10
7.8776076265
 20
7.9752132177
 30
0.0
 10
7.8961533541
 20
7.9746343491
 30
0.0
 10
7.9145062354
 20
7.9754959464
 30
0.0
 10
7.9325438855
 20
7.977804013
 30
0.0
 10
7.9501441795
 20
7.9815626227
 30
0.0
 10
7.9671839213
 20
7.9867740697
 30
0.0
 10
7.9835368719
 20
7.9934385665
 30
0.0
 10
7.9990719008
 20
8.0015538905
 30
0.0
 10
8.0136489107
 20
8.0111118663
 30
0.0
 10
8.0248788635
 20
8.0202714735
 30
0.0
 10
8.033214304
 20
8.0282844932
 30
0.0
 10
8.0391294239
 20
8.0346382545
 30
0.0
 10
8.044685256
 20
8.0413283029
 30
0.0
 10
8.0498601085
 20
8.0483462097
 30
0.0
 10
8.054631501
 20
8.0556813694
 30
0.0
 10
8.0589771528
 20
8.0633207544
 30
0.0
 10
8.0628750832
 20
8.0712486758
 30
0.0
 10
8.0663038784
 20
8.0794466546
 30
0.0
 10
8.0692435926
 20
8.0878930807
 30
0.0
 10
8.0716760051
 20
8.0965632921
 30
0.0
 10
8.0735850718
 20
8.1054295339
 30
0.0
 10
8.0749579296
 20
8.1144616337
 30
0.0
 10
8.0757847078
 20
8.1236259536
 30
0.0
 10
8.0759675063
 20
8.1297805154
 30
0.0
 10
8.0759675063
 20
8.132867704
 30
0.0
  0
SPLINE
  5
38B
100
AcDbEntity
  8
0
100
AcDbSpline
 62
7
  6
CONTINUOUS
 70
0
 71
3
 72
47
 73
43
 74
0
 42
0.0000001
 43
0.0000001
 44
0.0000000001
 40
0.0
 40
0.0
 40
0.0
 40
0.0
 40
0.0311880507
 40
0.0627270766
 40
0.0945332255
 40
0.126514112
 40
0.1585825822
 40
0.1906645257
 40
0.2227029837
 40
0.2386968419
 40
0.2546657815
 40
0.2865116157
 40
0.3182358123
 40
0.3340545609
 40
0.3498423019
 40
0.3813205982
 40
0.4126865443
 40
0.4439517183
 40
0.475129227
 40
0.5062323403
 40
0.5372736408
 40
0.5682642842
 40
0.5992135072
 40
0.6301285171
 40
0.6610143617
 40
0.6918742915
 40
0.7227101249
 40
0.7535228192
 40
0.7843135134
 40
0.815084474
 40
0.8304695675
 40
0.8458520912
 40
0.8612334739
 40
0.8766151992
 40
0.8919992736
 40
0.9073881606
 40
0.9227845373
 40
0.9381916709
 40
0.9536130627
 40
0.9690519911
 40
0.9845139209
 40
1.0
 40
1.0
 40
1.0
 40
1.0
 10
8.0759675063
 20
8.132867704
 30
0.0
 10
8.0759675063
 20
8.1391006341
 30
0.0
 10
8.0752143587
 20
8.1516482887
 30
0.0
 10
8.0719110205
 20
8.1702885958
 30
0.0
 10
8.0665200953
 20
8.1886005402
 30
0.0
 10
8.0591785902
 20
8.2063318219
 30
0.0
 10
8.0500504073
 20
8.2232728645
 30
0.0
 10
8.0393117569
 20
8.239251685
 30
0.0
 10
8.0291584865
 20
8.2516632791
 30
0.0
 10
8.0204008053
 20
8.2609905147
 30
0.0
 10
8.0112610689
 20
8.2698887579
 30
0.0
 10
7.9991442214
 20
8.2802111663
 30
0.0
 10
7.9862024596
 20
8.2894250844
 30
0.0
 10
7.9754388294
 20
8.296089903
 30
0.0
 10
7.9644441505
 20
8.3022663411
 30
0.0
 10
7.9502638588
 20
8.3090860699
 30
0.0
 10
7.9326676186
 20
8.3157883883
 30
0.0
 10
7.9146277923
 20
8.3209723198
 30
0.0
 10
7.8962680352
 20
8.3246125067
 30
0.0
 10
7.8777115245
 20
8.3266905408
 30
0.0
 10
7.8590830638
 20
8.3271944521
 30
0.0
 10
7.8405094299
 20
8.3261189294
 30
0.0
 10
7.8221200838
 20
8.3234650781
 30
0.0
 10
7.8040479613
 20
8.3192400862
 30
0.0
 10
7.7864306006
 20
8.3134568707
 30
0.0
 10
7.7694116938
 20
8.3061339248
 30
0.0
 10
7.7531431726
 20
8.297295917
 30
0.0
 10
7.7377870262
 20
8.2869746105
 30
0.0
 10
7.723518867
 20
8.2752134808
 30
0.0
 10
7.7126873706
 20
8.264254503
 30
0.0
 10
7.7047659996
 20
8.2548402385
 30
0.0
 10
7.6992195735
 20
8.2474653488
 30
0.0
 10
7.6940954213
 20
8.2397918596
 30
0.0
 10
7.6894197006
 20
8.2318364645
 30
0.0
 10
7.6852185011
 20
8.2236186487
 30
0.0
 10
7.6815171431
 20
8.2151604538
 30
0.0
 10
7.6783392534
 20
8.206486859
 30
0.0
 10
7.675706459
 20
8.1976255634
 30
0.0
 10
7.6736378216
 20
8.1886069857
 30
0.0
 10
7.6721486564
 20
8.1794634941
 30
0.0
 10
7.6712507632
 20
8.1702304805
 30
0.0
 10
7.6710510293
 20
8.164043649
 30
0.0
 10
7.6710510293
 20
8.1609487571
 30
0.0
  0
SPLINE
  5
38C
100
AcDbEntity
  8
0
100
AcDbSpline
 62
7
  6
CONTINUOUS
 70
0
 71
3
 72
36
 73
32
 74
0
 42
0.0000001
 43
0.0000001
 44
0.0000000001
 40
0.0
 40
0.0
 40
0.0
 40
0.0
 40
0.032103314
 40
0.0639597122
 40
0.0955634007
 40
0.1269149716
 40
0.1580219335
 40
0.1888979184
 40
0.2195620503
 40
0.2500379205
 40
0.2803525667
 40
0.3105355408
 40
0.340618073
 40
0.3706323839
 40
0.400611105
 40
0.4305868906
 40
0.4605921752
 40
0.4906591006
 40
0.5208195725
 40
0.5511051024
 40
0.6121629893
 40
0.6740911772
 40
0.7371156494
 40
0.7691006625
 40
0.8014146956
 40
0.8340542204
 40
0.8669943002
 40
0.9001793438
 40
0.933513118
 40
0.9668510549
 40
1.0
 40
1.0
 40
1.0
 40
1.0
 10
11.9245924151
 20
8.4349542988
 30
0.0
 10
11.9245924151
 20
8.422817199
 30
0.0
 10
11.9253352008
 20
8.3986294262
 30
0.0
 10
11.9286960456
 20
8.3626343745
 30
0.0
 10
11.9342672493
 20
8.3272008265
 30
0.0
 10
11.9419968895
 20
8.2924655205
 30
0.0
 10
11.9518157505
 20
8.2585486984
 30
0.0
 10
11.9636408917
 20
8.2255548414
 30
0.0
 10
11.9773792307
 20
8.1935710512
 30
0.0
 10
11.992931268
 20
8.1626672669
 30
0.0
 10
12.0101944621
 20
8.1328970348
 30
0.0
 10
12.0290661831
 20
8.1042988782
 30
0.0
 10
12.0494461478
 20
8.07689799
 30
0.0
 10
12.0712383099
 20
8.0507081273
 30
0.0
 10
12.0943522224
 20
8.025733508
 30
0.0
 10
12.1187039324
 20
8.0019706325
 30
0.0
 10
12.1442165811
 20
7.9794098403
 30
0.0
 10
12.1708204681
 20
7.9580368369
 30
0.0
 10
12.1984540769
 20
7.9378335514
 30
0.0
 10
12.2366967246
 20
7.9123630702
 30
0.0
 10
12.2869202485
 20
7.8833195265
 30
0.0
 10
12.3504035207
 20
7.8529217762
 30
0.0
 10
12.4056654159
 20
7.8311837179
 30
0.0
 10
12.4512854042
 20
7.8158034261
 30
0.0
 10
12.4863771282
 20
7.8052113865
 30
0.0
 10
12.5221273662
 20
7.7956157296
 30
0.0
 10
12.5584689781
 20
7.7870180723
 30
0.0
 10
12.5953020133
 20
7.7794279094
 30
0.0
 10
12.632484147
 20
7.7728625898
 30
0.0
 10
12.6698221794
 20
7.7673466492
 30
0.0
 10
12.6947859535
 20
7.7643729311
 30
0.0
 10
12.7072503964
 20
7.7630694394
 30
0.0
  0
SPLINE
  5
38D
100
AcDbEntity
  8
0
100
AcDbSpline
 62
7
  6
CONTINUOUS
 70
0
 71
3
 72
41
 73
37
 74
0
 42
0.0000001
 43
0.0000001
 44
0.0000000001
 40
0.0
 40
0.0
 40
0.0
 40
0.0
 40
0.0311443731
 40
0.0624425498
 40
0.0938872324
 40
0.1254695881
 40
0.1571771015
 40
0.1889951224
 40
0.2209066715
 40
0.2528929757
 40
0.28493379
 40
0.3170078157
 40
0.3490931116
 40
0.3811675191
 40
0.4132090895
 40
0.4451965082
 40
0.4771095106
 40
0.5089292837
 40
0.5406388474
 40
0.5722234085
 40
0.6036706805
 40
0.6349711645
 40
0.6661183811
 40
0.6971090487
 40
0.7279432008
 40
0.7586242349
 40
0.7891588899
 40
0.8195571457
 40
0.8498320452
 40
0.8649308854
 40
0.8800050464
 40
0.9100832538
 40
0.9400926721
 40
0.9550812717
 40
0.9700610341
 40
1.0
 40
1.0
 40
1.0
 40
1.0
 10
7.0883475891
 20
9.6456750576
 30
0.0
 10
7.093866896
 20
9.6452922924
 30
0.0
 10
7.1049088529
 20
9.6441208545
 30
0.0
 10
7.1213378896
 20
9.6411700835
 30
0.0
 10
7.1375909969
 20
9.637036801
 30
0.0
 10
7.1535802949
 20
9.6317434379
 30
0.0
 10
7.1692209173
 20
9.6253182261
 30
0.0
 10
7.1844294087
 20
9.6177956084
 30
0.0
 10
7.199124756
 20
9.6092157533
 30
0.0
 10
7.2132286543
 20
9.5996244845
 30
0.0
 10
7.2266659577
 20
9.5890729754
 30
0.0
 10
7.2393650672
 20
9.5776175028
 30
0.0
 10
7.2512583087
 20
9.5653191404
 30
0.0
 10
7.2622822902
 20
9.5522434391
 30
0.0
 10
7.2723782359
 20
9.5384600801
 30
0.0
 10
7.2814922971
 20
9.5240425081
 30
0.0
 10
7.2895758365
 20
9.5090675437
 30
0.0
 10
7.296585688
 20
9.4936149804
 30
0.0
 10
7.3024843861
 20
9.4777671633
 30
0.0
 10
7.3072403641
 20
9.4616085553
 30
0.0
 10
7.3108281237
 20
9.4452252934
 30
0.0
 10
7.3132283741
 20
9.4287047358
 30
0.0
 10
7.3144281382
 20
9.4121350014
 30
0.0
 10
7.3144208296
 20
9.3956045099
 30
0.0
 10
7.3132062869
 20
9.379201498
 30
0.0
 10
7.3107908144
 20
9.3630136166
 30
0.0
 10
7.3071870456
 20
9.3471272249
 30
0.0
 10
7.302414304
 20
9.3316278178
 30
0.0
 10
7.2974785284
 20
9.3190896877
 30
0.0
 10
7.2929742913
 20
9.3093393908
 30
0.0
 10
7.2881134747
 20
9.2998010395
 30
0.0
 10
7.2813643861
 20
9.2882639622
 30
0.0
 10
7.2737473215
 20
9.2772989691
 30
0.0
 10
7.26716499
 20
9.2689176522
 30
0.0
 10
7.2602687479
 20
9.2608098313
 30
0.0
 10
7.2547435798
 20
9.2550378164
 30
0.0
 10
7.2509182886
 20
9.251342838
 30
0.0
  0
SPLINE
  5
38E
100
AcDbEntity
  8
0
100
AcDbSpline
 62
7
  6
CONTINUOUS
 70
0
 71
3
 72
41
 73
37
 74
0
 42
0.0000001
 43
0.0000001
 44
0.0000000001
 40
0.0
 40
0.0
 40
0.0
 40
0.0
 40
0.0311443731
 40
0.0624425498
 40
0.0938872324
 40
0.1254695881
 40
0.1571771015
 40
0.1889951224
 40
0.2209066715
 40
0.2528929757
 40
0.28493379
 40
0.3170078157
 40
0.3490931116
 40
0.3811675191
 40
0.4132090895
 40
0.4451965082
 40
0.4771095106
 40
0.5089292837
 40
0.5406388474
 40
0.5722234085
 40
0.6036706805
 40
0.6349711645
 40
0.6661183811
 40
0.6971090487
 40
0.7279432008
 40
0.7586242349
 40
0.7891588899
 40
0.8195571457
 40
0.8498320452
 40
0.8649308854
 40
0.8800050464
 40
0.9100832538
 40
0.9400926721
 40
0.9550812717
 40
0.9700610341
 40
1.0
 40
1.0
 40
1.0
 40
1.0
 10
8.446439514
 20
9.5514910627
 30
0.0
 10
8.4519588209
 20
9.5511082975
 30
0.0
 10
8.4630007778
 20
9.5499368596
 30
0.0
 10
8.4794298145
 20
9.5469860886
 30
0.0
 10
8.4956829217
 20
9.5428528061
 30
0.0
 10
8.5116722198
 20
9.537559443
 30
0.0
 10
8.5273128422
 20
9.5311342312
 30
0.0
 10
8.5425213336
 20
9.5236116135
 30
0.0
 10
8.5572166809
 20
9.5150317584
 30
0.0
 10
8.5713205792
 20
9.5054404896
 30
0.0
 10
8.5847578826
 20
9.4948889805
 30
0.0
 10
8.5974569921
 20
9.483433508
 30
0.0
 10
8.6093502336
 20
9.4711351456
 30
0.0
 10
8.6203742151
 20
9.4580594442
 30
0.0
 10
8.6304701608
 20
9.4442760852
 30
0.0
 10
8.639584222
 20
9.4298585132
 30
0.0
 10
8.6476677613
 20
9.4148835489
 30
0.0
 10
8.6546776129
 20
9.3994309856
 30
0.0
 10
8.660576311
 20
9.3835831684
 30
0.0
 10
8.6653322889
 20
9.3674245604
 30
0.0
 10
8.6689200485
 20
9.3510412985
 30
0.0
 10
8.671320299
 20
9.3345207409
 30
0.0
 10
8.6725200631
 20
9.3179510065
 30
0.0
 10
8.6725127544
 20
9.301420515
 30
0.0
 10
8.6712982118
 20
9.2850175031
 30
0.0
 10
8.6688827393
 20
9.2688296217
 30
0.0
 10
8.6652789705
 20
9.2529432301
 30
0.0
 10
8.6605062289
 20
9.2374438229
 30
0.0
 10
8.6555704533
 20
9.2249056929
 30
0.0
 10
8.6510662161
 20
9.2151553959
 30
0.0
 10
8.6462053996
 20
9.2056170446
 30
0.0
 10
8.639456311
 20
9.1940799673
 30
0.0
 10
8.6318392464
 20
9.1831149742
 30
0.0
 10
8.6252569149
 20
9.1747336574
 30
0.0
 10
8.6183606728
 20
9.1666258364
 30
0.0
 10
8.6128355046
 20
9.1608538216
 30
0.0
 10
8.6090102135
 20
9.1571588431
 30
0.0
  0
SPLINE
  5
38F
100
AcDbEntity
  8
0
100
AcDbSpline
 62
7
  6
CONTINUOUS
 70
0
 71
3
 72
41
 73
37
 74
0
 42
0.0000001
 43
0.0000001
 44
0.0000000001
 40
0.0
 40
0.0
 40
0.0
 40
0.0
 40
0.0311443731
 40
0.0624425498
 40
0.0938872324
 40
0.1254695881
 40
0.1571771015
 40
0.1889951224
 40
0.2209066715
 40
0.2528929757
 40
0.28493379
 40
0.3170078157
 40
0.3490931116
 40
0.3811675191
 40
0.4132090895
 40
0.4451965082
 40
0.4771095106
 40
0.5089292837
 40
0.5406388474
 40
0.5722234085
 40
0.6036706805
 40
0.6349711645
 40
0.6661183811
 40
0.6971090487
 40
0.7279432008
 40
0.7586242349
 40
0.7891588899
 40
0.8195571457
 40
0.8498320452
 40
0.8649308854
 40
0.8800050464
 40
0.9100832538
 40
0.9400926721
 40
0.9550812717
 40
0.9700610341
 40
1.0
 40
1.0
 40
1.0
 40
1.0
 10
11.3142733295
 20
9.3526061121
 30
0.0
 10
11.3197926365
 20
9.3522233469
 30
0.0
 10
11.3308345933
 20
9.351051909
 30
0.0
 10
11.34726363
 20
9.348101138
 30
0.0
 10
11.3635167373
 20
9.3439678555
 30
0.0
 10
11.3795060353
 20
9.3386744924
 30
0.0
 10
11.3951466577
 20
9.3322492806
 30
0.0
 10
11.4103551492
 20
9.3247266629
 30
0.0
 10
11.4250504964
 20
9.3161468078
 30
0.0
 10
11.4391543947
 20
9.306555539
 30
0.0
 10
11.4525916981
 20
9.2960040299
 30
0.0
 10
11.4652908076
 20
9.2845485573
 30
0.0
 10
11.4771840491
 20
9.2722501949
 30
0.0
 10
11.4882080306
 20
9.2591744936
 30
0.0
 10
11.4983039763
 20
9.2453911346
 30
0.0
 10
11.5074180375
 20
9.2309735626
 30
0.0
 10
11.5155015769
 20
9.2159985982
 30
0.0
 10
11.5225114284
 20
9.2005460349
 30
0.0
 10
11.5284101266
 20
9.1846982178
 30
0.0
 10
11.5331661045
 20
9.1685396098
 30
0.0
 10
11.5367538641
 20
9.1521563479
 30
0.0
 10
11.5391541145
 20
9.1356357903
 30
0.0
 10
11.5403538786
 20
9.1190660559
 30
0.0
 10
11.54034657
 20
9.1025355644
 30
0.0
 10
11.5391320273
 20
9.0861325525
 30
0.0
 10
11.5367165549
 20
9.0699446711
 30
0.0
 10
11.533112786
 20
9.0540582794
 30
0.0
 10
11.5283400444
 20
9.0385588723
 30
0.0
 10
11.5234042688
 20
9.0260207422
 30
0.0
 10
11.5189000317
 20
9.0162704453
 30
0.0
 10
11.5140392151
 20
9.006732094
 30
0.0
 10
11.5072901265
 20
8.9951950167
 30
0.0
 10
11.4996730619
 20
8.9842300236
 30
0.0
 10
11.4930907304
 20
8.9758487068
 30
0.0
 10
11.4861944883
 20
8.9677408858
 30
0.0
 10
11.4806693202
 20
8.961968871
 30
0.0
 10
11.4768440291
 20
8.9582738925
 30
0.0
  0
SPLINE
  5
390
100
AcDbEntity
  8
0
100
AcDbSpline
 62
7
  6
CONTINUOUS
 70
0
 71
3
 72
41
 73
37
 74
0
 42
0.0000001
 43
0.0000001
 44
0.0000000001
 40
0.0
 40
0.0
 40
0.0
 40
0.0
 40
0.0311443731
 40
0.0624425498
 40
0.0938872324
 40
0.1254695881
 40
0.1571771015
 40
0.1889951224
 40
0.2209066715
 40
0.2528929757
 40
0.28493379
 40
0.3170078157
 40
0.3490931116
 40
0.3811675191
 40
0.4132090895
 40
0.4451965082
 40
0.4771095106
 40
0.5089292837
 40
0.5406388474
 40
0.5722234085
 40
0.6036706805
 40
0.6349711645
 40
0.6661183811
 40
0.6971090487
 40
0.7279432008
 40
0.7586242349
 40
0.7891588899
 40
0.8195571457
 40
0.8498320452
 40
0.8649308854
 40
0.8800050464
 40
0.9100832538
 40
0.9400926721
 40
0.9550812717
 40
0.9700610341
 40
1.0
 40
1.0
 40
1.0
 40
1.0
 10
12.6723651392
 20
9.2584221252
 30
0.0
 10
12.6778844462
 20
9.25803936
 30
0.0
 10
12.688926403
 20
9.2568679221
 30
0.0
 10
12.7053554398
 20
9.2539171511
 30
0.0
 10
12.721608547
 20
9.2497838686
 30
0.0
 10
12.737597845
 20
9.2444905055
 30
0.0
 10
12.7532384674
 20
9.2380652937
 30
0.0
 10
12.7684469589
 20
9.230542676
 30
0.0
 10
12.7831423061
 20
9.2219628209
 30
0.0
 10
12.7972462044
 20
9.2123715521
 30
0.0
 10
12.8106835078
 20
9.201820043
 30
0.0
 10
12.8233826173
 20
9.1903645704
 30
0.0
 10
12.8352758589
 20
9.178066208
 30
0.0
 10
12.8462998404
 20
9.1649905067
 30
0.0
 10
12.8563957861
 20
9.1512071477
 30
0.0
 10
12.8655098472
 20
9.1367895757
 30
0.0
 10
12.8735933866
 20
9.1218146113
 30
0.0
 10
12.8806032382
 20
9.106362048
 30
0.0
 10
12.8865019363
 20
9.0905142309
 30
0.0
 10
12.8912579142
 20
9.0743556229
 30
0.0
 10
12.8948456738
 20
9.057972361
 30
0.0
 10
12.8972459243
 20
9.0414518034
 30
0.0
 10
12.8984456883
 20
9.024882069
 30
0.0
 10
12.8984383797
 20
9.0083515775
 30
0.0
 10
12.8972238371
 20
8.9919485656
 30
0.0
 10
12.8948083646
 20
8.9757606842
 30
0.0
 10
12.8912045958
 20
8.9598742925
 30
0.0
 10
12.8864318542
 20
8.9443748854
 30
0.0
 10
12.8814960785
 20
8.9318367554
 30
0.0
 10
12.8769918414
 20
8.9220864584
 30
0.0
 10
12.8721310248
 20
8.9125481071
 30
0.0
 10
12.8653819362
 20
8.9010110298
 30
0.0
 10
12.8577648716
 20
8.8900460367
 30
0.0
 10
12.8511825401
 20
8.8816647199
 30
0.0
 10
12.844286298
 20
8.8735568989
 30
0.0
 10
12.8387611299
 20
8.8677848841
 30
0.0
 10
12.8349358388
 20
8.8640899056
 30
0.0
  0
SPLINE
  5
391
100
AcDbEntity
  8
0
100
AcDbSpline
 62
7
  6
CONTINUOUS
 70
0
 71
3
 72
41
 73
37
 74
0
 42
0.0000001
 43
0.0000001
 44
0.0000000001
 40
0.0
 40
0.0
 40
0.0
 40
0.0
 40
0.0311443731
 40
0.0624425498
 40
0.0938872324
 40
0.1254695881
 40
0.1571771015
 40
0.1889951224
 40
0.2209066715
 40
0.2528929757
 40
0.28493379
 40
0.3170078157
 40
0.3490931116
 40
0.3811675191
 40
0.4132090895
 40
0.4451965082
 40
0.4771095106
 40
0.5089292837
 40
0.5406388474
 40
0.5722234085
 40
0.6036706805
 40
0.6349711645
 40
0.6661183811
 40
0.6971090487
 40
0.7279432008
 40
0.7586242349
 40
0.7891588899
 40
0.8195571457
 40
0.8498320452
 40
0.8649308854
 40
0.8800050464
 40
0.9100832538
 40
0.9400926721
 40
0.9550812717
 40
0.9700610341
 40
1.0
 40
1.0
 40
1.0
 40
1.0
 10
7.0883475891
 20
6.9893788779
 30
0.0
 10
7.093866896
 20
6.9889961127
 30
0.0
 10
7.1049088529
 20
6.9878246748
 30
0.0
 10
7.1213378896
 20
6.9848739038
 30
0.0
 10
7.1375909969
 20
6.9807406213
 30
0.0
 10
7.1535802949
 20
6.9754472582
 30
0.0
 10
7.1692209173
 20
6.9690220464
 30
0.0
 10
7.1844294087
 20
6.9614994287
 30
0.0
 10
7.199124756
 20
6.9529195736
 30
0.0
 10
7.2132286543
 20
6.9433283048
 30
0.0
 10
7.2266659577
 20
6.9327767957
 30
0.0
 10
7.2393650672
 20
6.9213213232
 30
0.0
 10
7.2512583087
 20
6.9090229608
 30
0.0
 10
7.2622822902
 20
6.8959472594
 30
0.0
 10
7.2723782359
 20
6.8821639004
 30
0.0
 10
7.2814922971
 20
6.8677463284
 30
0.0
 10
7.2895758365
 20
6.8527713641
 30
0.0
 10
7.296585688
 20
6.8373188007
 30
0.0
 10
7.3024843861
 20
6.8214709836
 30
0.0
 10
7.3072403641
 20
6.8053123756
 30
0.0
 10
7.3108281237
 20
6.7889291137
 30
0.0
 10
7.3132283741
 20
6.7724085561
 30
0.0
 10
7.3144281382
 20
6.7558388217
 30
0.0
 10
7.3144208296
 20
6.7393083302
 30
0.0
 10
7.3132062869
 20
6.7229053183
 30
0.0
 10
7.3107908144
 20
6.7067174369
 30
0.0
 10
7.3071870456
 20
6.6908310452
 30
0.0
 10
7.302414304
 20
6.6753316381
 30
0.0
 10
7.2974785284
 20
6.6627935081
 30
0.0
 10
7.2929742913
 20
6.6530432111
 30
0.0
 10
7.2881134747
 20
6.6435048598
 30
0.0
 10
7.2813643861
 20
6.6319677825
 30
0.0
 10
7.2737473215
 20
6.6210027894
 30
0.0
 10
7.26716499
 20
6.6126214726
 30
0.0
 10
7.2602687479
 20
6.6045136516
 30
0.0
 10
7.2547435798
 20
6.5987416368
 30
0.0
 10
7.2509182886
 20
6.5950466583
 30
0.0
  0
SPLINE
  5
392
100
AcDbEntity
  8
0
100
AcDbSpline
 62
7
  6
CONTINUOUS
 70
0
 71
3
 72
41
 73
37
 74
0
 42
0.0000001
 43
0.0000001
 44
0.0000000001
 40
0.0
 40
0.0
 40
0.0
 40
0.0
 40
0.0311443731
 40
0.0624425498
 40
0.0938872324
 40
0.1254695881
 40
0.1571771015
 40
0.1889951224
 40
0.2209066715
 40
0.2528929757
 40
0.28493379
 40
0.3170078157
 40
0.3490931116
 40
0.3811675191
 40
0.4132090895
 40
0.4451965082
 40
0.4771095106
 40
0.5089292837
 40
0.5406388474
 40
0.5722234085
 40
0.6036706805
 40
0.6349711645
 40
0.6661183811
 40
0.6971090487
 40
0.7279432008
 40
0.7586242349
 40
0.7891588899
 40
0.8195571457
 40
0.8498320452
 40
0.8649308854
 40
0.8800050464
 40
0.9100832538
 40
0.9400926721
 40
0.9550812717
 40
0.9700610341
 40
1.0
 40
1.0
 40
1.0
 40
1.0
 10
8.446439514
 20
6.895194883
 30
0.0
 10
8.4519588209
 20
6.8948121178
 30
0.0
 10
8.4630007778
 20
6.89364068
 30
0.0
 10
8.4794298145
 20
6.8906899089
 30
0.0
 10
8.4956829217
 20
6.8865566264
 30
0.0
 10
8.5116722198
 20
6.8812632633
 30
0.0
 10
8.5273128422
 20
6.8748380515
 30
0.0
 10
8.5425213336
 20
6.8673154338
 30
0.0
 10
8.5572166809
 20
6.8587355787
 30
0.0
 10
8.5713205792
 20
6.8491443099
 30
0.0
 10
8.5847578826
 20
6.8385928008
 30
0.0
 10
8.5974569921
 20
6.8271373283
 30
0.0
 10
8.6093502336
 20
6.8148389659
 30
0.0
 10
8.6203742151
 20
6.8017632645
 30
0.0
 10
8.6304701608
 20
6.7879799055
 30
0.0
 10
8.639584222
 20
6.7735623335
 30
0.0
 10
8.6476677613
 20
6.7585873692
 30
0.0
 10
8.6546776129
 20
6.7431348059
 30
0.0
 10
8.660576311
 20
6.7272869887
 30
0.0
 10
8.6653322889
 20
6.7111283807
 30
0.0
 10
8.6689200485
 20
6.6947451188
 30
0.0
 10
8.671320299
 20
6.6782245612
 30
0.0
 10
8.6725200631
 20
6.6616548268
 30
0.0
 10
8.6725127544
 20
6.6451243353
 30
0.0
 10
8.6712982118
 20
6.6287213234
 30
0.0
 10
8.6688827393
 20
6.6125334421
 30
0.0
 10
8.6652789705
 20
6.5966470504
 30
0.0
 10
8.6605062289
 20
6.5811476432
 30
0.0
 10
8.6555704533
 20
6.5686095132
 30
0.0
 10
8.6510662161
 20
6.5588592162
 30
0.0
 10
8.6462053996
 20
6.5493208649
 30
0.0
 10
8.639456311
 20
6.5377837876
 30
0.0
 10
8.6318392464
 20
6.5268187945
 30
0.0
 10
8.6252569149
 20
6.5184374777
 30
0.0
 10
8.6183606728
 20
6.5103296567
 30
0.0
 10
8.6128355046
 20
6.5045576419
 30
0.0
 10
8.6090102135
 20
6.5008626634
 30
0.0
  0
SPLINE
  5
393
100
AcDbEntity
  8
0
100
AcDbSpline
 62
7
  6
CONTINUOUS
 70
0
 71
3
 72
41
 73
37
 74
0
 42
0.0000001
 43
0.0000001
 44
0.0000000001
 40
0.0
 40
0.0
 40
0.0
 40
0.0
 40
0.0311443731
 40
0.0624425498
 40
0.0938872324
 40
0.1254695881
 40
0.1571771015
 40
0.1889951224
 40
0.2209066715
 40
0.2528929757
 40
0.28493379
 40
0.3170078157
 40
0.3490931116
 40
0.3811675191
 40
0.4132090895
 40
0.4451965082
 40
0.4771095106
 40
0.5089292837
 40
0.5406388474
 40
0.5722234085
 40
0.6036706805
 40
0.6349711645
 40
0.6661183811
 40
0.6971090487
 40
0.7279432008
 40
0.7586242349
 40
0.7891588899
 40
0.8195571457
 40
0.8498320452
 40
0.8649308854
 40
0.8800050464
 40
0.9100832538
 40
0.9400926721
 40
0.9550812717
 40
0.9700610341
 40
1.0
 40
1.0
 40
1.0
 40
1.0
 10
11.3142733295
 20
6.6963099324
 30
0.0
 10
11.3197926365
 20
6.6959271672
 30
0.0
 10
11.3308345933
 20
6.6947557293
 30
0.0
 10
11.34726363
 20
6.6918049583
 30
0.0
 10
11.3635167373
 20
6.6876716758
 30
0.0
 10
11.3795060353
 20
6.6823783127
 30
0.0
 10
11.3951466577
 20
6.6759531009
 30
0.0
 10
11.4103551492
 20
6.6684304832
 30
0.0
 10
11.4250504964
 20
6.6598506281
 30
0.0
 10
11.4391543947
 20
6.6502593593
 30
0.0
 10
11.4525916981
 20
6.6397078502
 30
0.0
 10
11.4652908076
 20
6.6282523777
 30
0.0
 10
11.4771840491
 20
6.6159540153
 30
0.0
 10
11.4882080306
 20
6.6028783139
 30
0.0
 10
11.4983039763
 20
6.5890949549
 30
0.0
 10
11.5074180375
 20
6.5746773829
 30
0.0
 10
11.5155015769
 20
6.5597024186
 30
0.0
 10
11.5225114284
 20
6.5442498553
 30
0.0
 10
11.5284101266
 20
6.5284020381
 30
0.0
 10
11.5331661045
 20
6.5122434301
 30
0.0
 10
11.5367538641
 20
6.4958601682
 30
0.0
 10
11.5391541145
 20
6.4793396106
 30
0.0
 10
11.5403538786
 20
6.4627698762
 30
0.0
 10
11.54034657
 20
6.4462393847
 30
0.0
 10
11.5391320273
 20
6.4298363728
 30
0.0
 10
11.5367165549
 20
6.4136484914
 30
0.0
 10
11.533112786
 20
6.3977620998
 30
0.0
 10
11.5283400444
 20
6.3822626926
 30
0.0
 10
11.5234042688
 20
6.3697245626
 30
0.0
 10
11.5189000317
 20
6.3599742656
 30
0.0
 10
11.5140392151
 20
6.3504359143
 30
0.0
 10
11.5072901265
 20
6.338898837
 30
0.0
 10
11.4996730619
 20
6.3279338439
 30
0.0
 10
11.4930907304
 20
6.3195525271
 30
0.0
 10
11.4861944883
 20
6.3114447061
 30
0.0
 10
11.4806693202
 20
6.3056726913
 30
0.0
 10
11.4768440291
 20
6.3019777128
 30
0.0
  0
SPLINE
  5
394
100
AcDbEntity
  8
0
100
AcDbSpline
 62
7
  6
CONTINUOUS
 70
0
 71
3
 72
41
 73
37
 74
0
 42
0.0000001
 43
0.0000001
 44
0.0000000001
 40
0.0
 40
0.0
 40
0.0
 40
0.0
 40
0.0311443731
 40
0.0624425498
 40
0.0938872324
 40
0.1254695881
 40
0.1571771015
 40
0.1889951224
 40
0.2209066715
 40
0.2528929757
 40
0.28493379
 40
0.3170078157
 40
0.3490931116
 40
0.3811675191
 40
0.4132090895
 40
0.4451965082
 40
0.4771095106
 40
0.5089292837
 40
0.5406388474
 40
0.5722234085
 40
0.6036706805
 40
0.6349711645
 40
0.6661183811
 40
0.6971090487
 40
0.7279432008
 40
0.7586242349
 40
0.7891588899
 40
0.8195571457
 40
0.8498320452
 40
0.8649308854
 40
0.8800050464
 40
0.9100832538
 40
0.9400926721
 40
0.9550812717
 40
0.9700610341
 40
1.0
 40
1.0
 40
1.0
 40
1.0
 10
12.6723651392
 20
6.6021259455
 30
0.0
 10
12.6778844462
 20
6.6017431803
 30
0.0
 10
12.688926403
 20
6.6005717424
 30
0.0
 10
12.7053554398
 20
6.5976209714
 30
0.0
 10
12.721608547
 20
6.5934876889
 30
0.0
 10
12.737597845
 20
6.5881943258
 30
0.0
 10
12.7532384674
 20
6.581769114
 30
0.0
 10
12.7684469589
 20
6.5742464963
 30
0.0
 10
12.7831423061
 20
6.5656666412
 30
0.0
 10
12.7972462044
 20
6.5560753724
 30
0.0
 10
12.8106835078
 20
6.5455238633
 30
0.0
 10
12.8233826173
 20
6.5340683908
 30
0.0
 10
12.8352758589
 20
6.5217700284
 30
0.0
 10
12.8462998404
 20
6.508694327
 30
0.0
 10
12.8563957861
 20
6.494910968
 30
0.0
 10
12.8655098472
 20
6.480493396
 30
0.0
 10
12.8735933866
 20
6.4655184317
 30
0.0
 10
12.8806032382
 20
6.4500658684
 30
0.0
 10
12.8865019363
 20
6.4342180512
 30
0.0
 10
12.8912579142
 20
6.4180594432
 30
0.0
 10
12.8948456738
 20
6.4016761813
 30
0.0
 10
12.8972459243
 20
6.3851556237
 30
0.0
 10
12.8984456883
 20
6.3685858893
 30
0.0
 10
12.8984383797
 20
6.3520553978
 30
0.0
 10
12.8972238371
 20
6.3356523859
 30
0.0
 10
12.8948083646
 20
6.3194645045
 30
0.0
 10
12.8912045958
 20
6.3035781129
 30
0.0
 10
12.8864318542
 20
6.2880787057
 30
0.0
 10
12.8814960785
 20
6.2755405757
 30
0.0
 10
12.8769918414
 20
6.2657902787
 30
0.0
 10
12.8721310248
 20
6.2562519274
 30
0.0
 10
12.8653819362
 20
6.2447148501
 30
0.0
 10
12.8577648716
 20
6.233749857
 30
0.0
 10
12.8511825401
 20
6.2253685402
 30
0.0
 10
12.844286298
 20
6.2172607192
 30
0.0
 10
12.8387611299
 20
6.2114887044
 30
0.0
 10
12.8349358388
 20
6.2077937259
 30
0.0
  0
SPLINE
  5
395
100
AcDbEntity
  8
0
100
AcDbSpline
 62
7
  6
CONTINUOUS
 70
0
 71
3
 72
53
 73
49
 74
0
 42
0.0000001
 43
0.0000001
 44
0.0000000001
 40
0.0
 40
0.0
 40
0.0
 40
0.0
 40
0.0077405307
 40
0.0160546246
 40
0.0249609692
 40
0.0344724762
 40
0.0445959114
 40
0.0553329712
 40
0.066681335
 40
0.0786355243
 40
0.0911869322
 40
0.1043246497
 40
0.1180353458
 40
0.1323039363
 40
0.1471133994
 40
0.1624452609
 40
0.1945937248
 40
0.2285756921
 40
0.2641983538
 40
0.3012539429
 40
0.3395222054
 40
0.3787726663
 40
0.4187667714
 40
0.459259952
 40
0.5000036485
 40
0.5407473111
 40
0.5812403903
 40
0.6212343274
 40
0.6604845551
 40
0.6987525208
 40
0.7358077523
 40
0.7714299985
 40
0.805411496
 40
0.8375594404
 40
0.8528910252
 40
0.8677002009
 40
0.8819684947
 40
0.8956788859
 40
0.9088162898
 40
0.9213673754
 40
0.9333212433
 40
0.9446692867
 40
0.9554059946
 40
0.9655290742
 40
0.9750403558
 40
0.9839464252
 40
0.992259733
 40
1.0
 40
1.0
 40
1.0
 40
1.0
 10
12.6362962224
 20
10.2657532532
 30
0.0
 10
12.6352430092
 20
10.2647732051
 30
0.0
 10
12.6329757049
 20
10.2628284325
 30
0.0
 10
12.6292563446
 20
10.2600508094
 30
0.0
 10
12.6251058449
 20
10.2573151213
 30
0.0
 10
12.6205310978
 20
10.2546256891
 30
0.0
 10
12.6155391534
 20
10.2519864919
 30
0.0
 10
12.6101379408
 20
10.2494018214
 30
0.0
 10
12.6043361581
 20
10.246875778
 30
0.0
 10
12.5981431557
 20
10.2444125662
 30
0.0
 10
12.5915690018
 20
10.2420161218
 30
0.0
 10
12.5846243886
 20
10.2396905063
 30
0.0
 10
12.5773206786
 20
10.2374394568
 30
0.0
 10
12.5696698228
 20
10.2352667977
 30
0.0
 10
12.5616843624
 20
10.2331760162
 30
0.0
 10
12.5504297861
 20
10.2304592383
 30
0.0
 10
12.5356172813
 20
10.2273085219
 30
0.0
 10
12.517001054
 20
10.2239618394
 30
0.0
 10
12.4973948249
 20
10.22101465
 30
0.0
 10
12.4769275195
 20
10.2184866665
 30
0.0
 10
12.4557335839
 20
10.216394854
 30
0.0
 10
12.4339524395
 20
10.2147532137
 30
0.0
 10
12.4117274201
 20
10.2135727301
 30
0.0
 10
12.3892048348
 20
10.2128612953
 30
0.0
 10
12.3665329785
 20
10.2126236638
 30
0.0
 10
12.3438611423
 20
10.2128614235
 30
0.0
 10
12.3213386174
 20
10.2135729858
 30
0.0
 10
12.2991136982
 20
10.2147535951
 30
0.0
 10
12.2773326931
 20
10.2163953585
 30
0.0
 10
12.2561389351
 20
10.2184872908
 30
0.0
 10
12.2356718443
 20
10.22101539
 30
0.0
 10
12.2160658653
 20
10.2239626899
 30
0.0
 10
12.1974499221
 20
10.2273094774
 30
0.0
 10
12.1826376757
 20
10.230460279
 30
0.0
 10
12.1713833225
 20
10.2331771224
 30
0.0
 10
12.1633980392
 20
10.2352679491
 30
0.0
 10
12.1557473674
 20
10.2374406514
 30
0.0
 10
12.1484438482
 20
10.2396917425
 30
0.0
 10
12.1414994324
 20
10.2420173971
 30
0.0
 10
12.134925481
 20
10.2444138777
 30
0.0
 10
12.1287326857
 20
10.2468771258
 30
0.0
 10
12.1229311197
 20
10.2494032045
 30
0.0
 10
12.1175301304
 20
10.2519878989
 30
0.0
 10
12.112538395
 20
10.2546271209
 30
0.0
 10
12.1079638636
 20
10.2573166077
 30
0.0
 10
12.1038136544
 20
10.2600523003
 30
0.0
 10
12.1000945515
 20
10.2628298566
 30
0.0
 10
12.097827477
 20
10.2647745997
 30
0.0
 10
12.0967743438
 20
10.2657546617
 30
0.0
  0
SPLINE
  5
396
100
AcDbEntity
  8
0
100
AcDbSpline
 62
7
  6
CONTINUOUS
 70
0
 71
3
 72
23
 73
19
 74
0
 42
0.0000001
 43
0.0000001
 44
0.0000000001
 40
0.0
 40
0.0
 40
0.0
 40
0.0
 40
0.0489748041
 40
0.0983507488
 40
0.1485185183
 40
0.1998490661
 40
0.252686224
 40
0.3073426159
 40
0.3640964947
 40
0.4231927276
 40
0.4848429593
 40
0.5492286307
 40
0.6165035251
 40
0.686796058
 40
0.7602133597
 40
0.8368421045
 40
0.9167527388
 40
1.0
 40
1.0
 40
1.0
 40
1.0
 10
14.6001333096
 20
7.4583578344
 30
0.0
 10
14.5981198037
 20
7.4584974634
 30
0.0
 10
14.5940869843
 20
7.4589685626
 30
0.0
 10
14.5880921609
 20
7.4602439464
 30
0.0
 10
14.5821452598
 20
7.4620878611
 30
0.0
 10
14.5762509406
 20
7.4644982836
 30
0.0
 10
14.570412455
 20
7.4674727419
 30
0.0
 10
14.5646330973
 20
7.4710088092
 30
0.0
 10
14.5589155998
 20
7.4751035826
 30
0.0
 10
14.5532627837
 20
7.4797543978
 30
0.0
 10
14.5476771913
 20
7.4849582327
 30
0.0
 10
14.542161447
 20
7.4907120597
 30
0.0
 10
14.536718204
 20
7.4970126603
 30
0.0
 10
14.5313499986
 20
7.503856514
 30
0.0
 10
14.526059628
 20
7.5112399971
 30
0.0
 10
14.5208496129
 20
7.5191590842
 30
0.0
 10
14.5157228074
 20
7.5276094808
 30
0.0
 10
14.5124299082
 20
7.5334736025
 30
0.0
 10
14.5107958505
 20
7.536490232
 30
0.0
  0
SPLINE
  5
397
100
AcDbEntity
  8
0
100
AcDbSpline
 62
7
  6
CONTINUOUS
 70
0
 71
3
 72
55
 73
51
 74
0
 42
0.0000001
 43
0.0000001
 44
0.0000000001
 40
0.0
 40
0.0
 40
0.0
 40
0.0
 40
0.0097390193
 40
0.0199694687
 40
0.0306882256
 40
0.0418903556
 40
0.053569371
 40
0.0657174277
 40
0.0783253966
 40
0.0913830434
 40
0.1048791293
 40
0.1188014383
 40
0.1331369179
 40
0.1478717248
 40
0.1629912441
 40
0.1784802037
 40
0.1943226876
 40
0.2105021641
 40
0.2438028148
 40
0.2782402229
 40
0.3136648163
 40
0.349921051
 40
0.3868484476
 40
0.4242826219
 40
0.4620562687
 40
0.5000001346
 40
0.5379439995
 40
0.5757176418
 40
0.6131518105
 40
0.6500792006
 40
0.6863354235
 40
0.7217600027
 40
0.7561973992
 40
0.7894980337
 40
0.8056775002
 40
0.8215199707
 40
0.837008926
 40
0.8521284322
 40
0.866863225
 40
0.8811987
 40
0.895120993
 40
0.9086170652
 40
0.9216747061
 40
0.9342826568
 40
0.9464307011
 40
0.9581097085
 40
0.9693118185
 40
0.9800305653
 40
0.9902610049
 40
1.0
 40
1.0
 40
1.0
 40
1.0
 10
14.5089331302
 20
7.5357079989
 30
0.0
 10
14.5064903868
 20
7.5415769298
 30
0.0
 10
14.501694304
 20
7.5537002834
 30
0.0
 10
14.4949086305
 20
7.5725500965
 30
0.0
 10
14.4883618312
 20
7.5924918397
 30
0.0
 10
14.4820617968
 20
7.6135016311
 30
0.0
 10
14.476016028
 20
7.6355546739
 30
0.0
 10
14.4702318457
 20
7.658624772
 30
0.0
 10
14.4647161605
 20
7.6826844876
 30
0.0
 10
14.4594756132
 20
7.7077051686
 30
0.0
 10
14.4545165569
 20
7.7336569959
 30
0.0
 10
14.4498449214
 20
7.7605090024
 30
0.0
 10
14.4454663493
 20
7.7882291353
 30
0.0
 10
14.4413861466
 20
7.8167842904
 30
0.0
 10
14.4376091849
 20
7.8461403489
 30
0.0
 10
14.434140051
 20
7.8762622174
 30
0.0
 10
14.430982895
 20
7.9071139255
 30
0.0
 10
14.4271578418
 20
7.9495811897
 30
0.0
 10
14.4232065756
 20
8.0042194632
 30
0.0
 10
14.4198036726
 20
8.0714759826
 30
0.0
 10
14.4177122566
 20
8.1407159979
 30
0.0
 10
14.4169426778
 20
8.2116083499
 30
0.0
 10
14.417498965
 20
8.283814252
 30
0.0
 10
14.4193787084
 20
8.3569884601
 30
0.0
 10
14.4225731164
 20
8.4307810833
 30
0.0
 10
14.4270669957
 20
8.5048392378
 30
0.0
 10
14.4328388833
 20
8.5788087592
 30
0.0
 10
14.4398611626
 20
8.6523359106
 30
0.0
 10
14.4481001474
 20
8.7250690922
 30
0.0
 10
14.4575162514
 20
8.7966605477
 30
0.0
 10
14.4680642208
 20
8.8667680021
 30
0.0
 10
14.4796932911
 20
8.9350564714
 30
0.0
 10
14.4923474857
 20
9.0011993986
 30
0.0
 10
14.5038030199
 20
9.05476918
 30
0.0
 10
14.5134535003
 20
9.0963018849
 30
0.0
 10
14.5208391133
 20
9.1264224282
 30
0.0
 10
14.52843295
 20
9.1557770578
 30
0.0
 10
14.536225977
 20
9.1843307114
 30
0.0
 10
14.5442087885
 20
9.2120492692
 30
0.0
 10
14.5523718286
 20
9.2388996169
 30
0.0
 10
14.5607053164
 20
9.2648496881
 30
0.0
 10
14.56919921
 20
9.2898685234
 30
0.0
 10
14.5778433501
 20
9.3139262746
 30
0.0
 10
14.5866273715
 20
9.3369942718
 30
0.0
 10
14.5955407028
 20
9.3590450656
 30
0.0
 10
14.6045727149
 20
9.3800524351
 30
0.0
 10
14.6137125771
 20
9.3999914321
 30
0.0
 10
14.6229493916
 20
9.4188385501
 30
0.0
 10
14.6322720644
 20
9.4365712164
 30
0.0
 10
14.6386957139
 20
9.447916447
 30
0.0
 10
14.6419251944
 20
9.4533919926
 30
0.0
  0
SPLINE
  5
398
100
AcDbEntity
  8
0
100
AcDbSpline
 62
7
  6
CONTINUOUS
 70
0
 71
3
 72
11
 73
7
 74
0
 42
0.0000001
 43
0.0000001
 44
0.0000000001
 40
0.0
 40
0.0
 40
0.0
 40
0.0
 40
0.26775799
 40
0.5235163188
 40
0.7675041941
 40
1.0
 40
1.0
 40
1.0
 40
1.0
 10
14.6435664125
 20
9.4522300968
 30
0.0
 10
14.6458367032
 20
9.4553150203
 30
0.0
 10
14.6503783182
 20
9.4612720077
 30
0.0
 10
14.6573632792
 20
9.4697463228
 30
0.0
 10
14.664358621
 20
9.4775469665
 30
0.0
 10
14.6691391358
 20
9.48240996
 30
0.0
 10
14.6715312657
 20
9.4847205803
 30
0.0
  0
SPLINE
  5
399
100
AcDbEntity
  8
0
100
AcDbSpline
 62
7
  6
CONTINUOUS
 70
0
 71
3
 72
19
 73
15
 74
0
 42
0.0000001
 43
0.0000001
 44
0.0000000001
 40
0.0
 40
0.0
 40
0.0
 40
0.0
 40
0.0539778106
 40
0.10818639
 40
0.1628533096
 40
0.2182001125
 40
0.274439376
 40
0.3317728357
 40
0.4504197905
 40
0.5121162383
 40
0.5755803685
 40
0.7083012574
 40
0.8495393955
 40
1.0
 40
1.0
 40
1.0
 40
1.0
 10
14.7429292219
 20
9.5174123026
 30
0.0
 10
14.7414774867
 20
9.517512975
 30
0.0
 10
14.738560014
 20
9.5176161536
 30
0.0
 10
14.7341686859
 20
9.5174750284
 30
0.0
 10
14.729759627
 20
9.5170382867
 30
0.0
 10
14.7253346219
 20
9.5163061055
 30
0.0
 10
14.7208948323
 20
9.5152788769
 30
0.0
 10
14.7148900284
 20
9.5134967316
 30
0.0
 10
14.708918825
 20
9.5111284406
 30
0.0
 10
14.7030167181
 20
9.5082311517
 30
0.0
 10
14.6969352041
 20
9.5048563895
 30
0.0
 10
14.6893088514
 20
9.4998727826
 30
0.0
 10
14.6802799401
 20
9.4928263703
 30
0.0
 10
14.6744488226
 20
9.487538724
 30
0.0
 10
14.6715312657
 20
9.4847205803
 30
0.0
  0
SPLINE
  5
39A
100
AcDbEntity
  8
0
100
AcDbSpline
 62
7
  6
CONTINUOUS
 70
0
 71
3
 72
17
 73
13
 74
0
 42
0.0000001
 43
0.0000001
 44
0.0000000001
 40
0.0
 40
0.0
 40
0.0
 40
0.0
 40
0.1240469546
 40
0.249152063
 40
0.3749794449
 40
0.5011454572
 40
0.6272142642
 40
0.7527044852
 40
0.8150887854
 40
0.8771387863
 40
0.9387963441
 40
1.0
 40
1.0
 40
1.0
 40
1.0
 10
11.606399718
 20
8.3875839149
 30
0.0
 10
11.5970632358
 20
8.3735433643
 30
0.0
 10
11.5790833149
 20
8.3448184081
 30
0.0
 10
11.5546285146
 20
8.3000629118
 30
0.0
 10
11.5329509669
 20
8.253572773
 30
0.0
 10
11.5144600782
 20
8.2055790291
 30
0.0
 10
11.4995532589
 20
8.1563974078
 30
0.0
 10
11.4903989893
 20
8.1146648513
 30
0.0
 10
11.485202416
 20
8.0810844551
 30
0.0
 10
11.4824011984
 20
8.0559367091
 30
0.0
 10
11.4807102514
 20
8.0308514533
 30
0.0
 10
11.48032986
 20
8.0141488636
 30
0.0
 10
11.48032986
 20
8.0058295977
 30
0.0
  0
SPLINE
  5
39B
100
AcDbEntity
  8
0
100
AcDbSpline
 62
7
  6
CONTINUOUS
 70
0
 71
3
 72
41
 73
37
 74
0
 42
0.0000001
 43
0.0000001
 44
0.0000000001
 40
0.0
 40
0.0
 40
0.0
 40
0.0
 40
0.0149724862
 40
0.0299480307
 40
0.0449296746
 40
0.0599204222
 40
0.0899350731
 40
0.1200204959
 40
0.1501975964
 40
0.1804850878
 40
0.2108990702
 40
0.2414526838
 40
0.2721558423
 40
0.303015057
 40
0.3340333403
 40
0.3652101893
 40
0.3965416515
 40
0.4280204628
 40
0.4596362457
 40
0.4913757643
 40
0.5232232351
 40
0.5551606749
 40
0.587168282
 40
0.6192248472
 40
0.6513081855
 40
0.6833955794
 40
0.7154642309
 40
0.7474917144
 40
0.779456424
 40
0.8113380097
 40
0.8431177978
 40
0.8747791805
 40
0.9063079772
 40
0.937692809
 40
0.9689250164
 40
1.0
 40
1.0
 40
1.0
 40
1.0
 10
11.4652696438
 20
8.2840287655
 30
0.0
 10
11.47149136
 20
8.2900385025
 30
0.0
 10
11.4841764294
 20
8.3018132273
 30
0.0
 10
11.503892918
 20
8.3187069953
 30
0.0
 10
11.5242735964
 20
8.3348116002
 30
0.0
 10
11.552302726
 20
8.3552075457
 30
0.0
 10
11.5888782412
 20
8.378630265
 30
0.0
 10
11.6349290358
 20
8.4032303307
 30
0.0
 10
11.6829129499
 20
8.4242063025
 30
0.0
 10
11.7325636861
 20
8.4414417562
 30
0.0
 10
11.783608056
 20
8.4548426432
 30
0.0
 10
11.8357647286
 20
8.4643357108
 30
0.0
 10
11.8887465558
 20
8.4698694728
 30
0.0
 10
11.9422619879
 20
8.471414165
 30
0.0
 10
11.9960167042
 20
8.468961919
 30
0.0
 10
12.0497152139
 20
8.4625269302
 30
0.0
 10
12.1030624824
 20
8.4521452232
 30
0.0
 10
12.155765513
 20
8.4378743814
 30
0.0
 10
12.2075349301
 20
8.4197932676
 30
0.0
 10
12.2580865939
 20
8.3980016888
 30
0.0
 10
12.3071430923
 20
8.3726196788
 30
0.0
 10
12.3544352195
 20
8.3437868409
 30
0.0
 10
12.3997034923
 20
8.3116616957
 30
0.0
 10
12.4426995609
 20
8.2764207876
 30
0.0
 10
12.4831874913
 20
8.2382576367
 30
0.0
 10
12.5209450378
 20
8.1973817087
 30
0.0
 10
12.5557649726
 20
8.1540173894
 30
0.0
 10
12.5874561163
 20
8.108402656
 30
0.0
 10
12.6158443417
 20
8.0607877789
 30
0.0
 10
12.6407735725
 20
8.0114340018
 30
0.0
 10
12.6621067235
 20
7.9606121915
 30
0.0
 10
12.6797263096
 20
7.9086011698
 30
0.0
 10
12.6935351125
 20
7.8556866621
 30
0.0
 10
12.7034567198
 20
7.8021582432
 30
0.0
 10
12.709436309
 20
7.7483136524
 30
0.0
 10
12.7107755961
 20
7.7123023225
 30
0.0
 10
12.7107755961
 20
7.6943489826
 30
0.0
  0
SPLINE
  5
39C
100
AcDbEntity
  8
0
100
AcDbSpline
 62
7
  6
CONTINUOUS
 70
0
 71
3
 72
41
 73
37
 74
0
 42
0.0000001
 43
0.0000001
 44
0.0000000001
 40
0.0
 40
0.0
 40
0.0
 40
0.0
 40
0.0149724862
 40
0.0299480307
 40
0.0449296746
 40
0.0599204222
 40
0.0899350731
 40
0.1200204959
 40
0.1501975964
 40
0.1804850878
 40
0.2108990702
 40
0.2414526838
 40
0.2721558423
 40
0.303015057
 40
0.3340333403
 40
0.3652101893
 40
0.3965416515
 40
0.4280204628
 40
0.4596362457
 40
0.4913757643
 40
0.5232232351
 40
0.5551606749
 40
0.587168282
 40
0.6192248472
 40
0.6513081855
 40
0.6833955794
 40
0.7154642309
 40
0.7474917144
 40
0.779456424
 40
0.8113380097
 40
0.8431177978
 40
0.8747791805
 40
0.9063079772
 40
0.937692809
 40
0.9689250164
 40
1.0
 40
1.0
 40
1.0
 40
1.0
 10
7.2393439034
 20
8.577097711
 30
0.0
 10
7.2455656196
 20
8.583107448
 30
0.0
 10
7.258250689
 20
8.5948821728
 30
0.0
 10
7.2779671776
 20
8.6117759408
 30
0.0
 10
7.298347856
 20
8.6278805457
 30
0.0
 10
7.3263769855
 20
8.6482764912
 30
0.0
 10
7.3629525008
 20
8.6716992105
 30
0.0
 10
7.4090032953
 20
8.6962992762
 30
0.0
 10
7.4569872095
 20
8.7172752479
 30
0.0
 10
7.5066379457
 20
8.7345107017
 30
0.0
 10
7.5576823156
 20
8.7479115887
 30
0.0
 10
7.6098389881
 20
8.7574046563
 30
0.0
 10
7.6628208154
 20
8.7629384183
 30
0.0
 10
7.7163362475
 20
8.7644831105
 30
0.0
 10
7.7700909638
 20
8.7620308645
 30
0.0
 10
7.8237894735
 20
8.7555958757
 30
0.0
 10
7.877136742
 20
8.7452141687
 30
0.0
 10
7.9298397726
 20
8.7309433269
 30
0.0
 10
7.9816091897
 20
8.7128622131
 30
0.0
 10
8.0321608535
 20
8.6910706343
 30
0.0
 10
8.0812173519
 20
8.6656886243
 30
0.0
 10
8.1285094791
 20
8.6368557863
 30
0.0
 10
8.1737777519
 20
8.6047306412
 30
0.0
 10
8.2167738205
 20
8.5694897331
 30
0.0
 10
8.2572617509
 20
8.5313265821
 30
0.0
 10
8.2950192974
 20
8.4904506541
 30
0.0
 10
8.3298392321
 20
8.4470863349
 30
0.0
 10
8.3615303759
 20
8.4014716015
 30
0.0
 10
8.3899186013
 20
8.3538567244
 30
0.0
 10
8.4148478321
 20
8.3045029473
 30
0.0
 10
8.436180983
 20
8.253681137
 30
0.0
 10
8.4538005692
 20
8.2016701153
 30
0.0
 10
8.4676093721
 20
8.1487556076
 30
0.0
 10
8.4775309794
 20
8.0952271886
 30
0.0
 10
8.4835105686
 20
8.0413825979
 30
0.0
 10
8.4848498557
 20
8.005371268
 30
0.0
 10
8.4848498557
 20
7.9874179281
 30
0.0
  0
SPLINE
  5
39D
100
AcDbEntity
  8
0
100
AcDbSpline
 62
7
  6
CONTINUOUS
 70
0
 71
3
 72
15
 73
11
 74
0
 42
0.0000001
 43
0.0000001
 44
0.0000000001
 40
0.0
 40
0.0
 40
0.0
 40
0.0
 40
0.123317125
 40
0.2468171892
 40
0.3706750004
 40
0.49504957
 40
0.620077358
 40
0.7458670408
 40
0.8724927714
 40
1.0
 40
1.0
 40
1.0
 40
1.0
 10
12.5097944397
 20
6.5444048517
 30
0.0
 10
12.5150454265
 20
6.549476958
 30
0.0
 10
12.526111006
 20
6.5590707659
 30
0.0
 10
12.5441710602
 20
6.5716073111
 30
0.0
 10
12.5635230333
 20
6.5821754287
 30
0.0
 10
12.5839687952
 20
6.5906665909
 30
0.0
 10
12.6053021473
 20
6.5969963906
 30
0.0
 10
12.6273081866
 20
6.6011015621
 30
0.0
 10
12.6497622664
 20
6.6029421779
 30
0.0
 10
12.6648345389
 20
6.6026481944
 30
0.0
 10
12.6723651392
 20
6.6021259455
 30
0.0
  0
SPLINE
  5
39E
100
AcDbEntity
  8
0
100
AcDbSpline
 62
7
  6
CONTINUOUS
 70
0
 71
3
 72
15
 73
11
 74
0
 42
0.0000001
 43
0.0000001
 44
0.0000000001
 40
0.0
 40
0.0
 40
0.0
 40
0.0
 40
0.123317125
 40
0.2468171892
 40
0.3706750004
 40
0.49504957
 40
0.620077358
 40
0.7458670408
 40
0.8724927714
 40
1.0
 40
1.0
 40
1.0
 40
1.0
 10
11.15170263
 20
6.6385888386
 30
0.0
 10
11.1569536168
 20
6.6436609449
 30
0.0
 10
11.1680191963
 20
6.6532547528
 30
0.0
 10
11.1860792505
 20
6.665791298
 30
0.0
 10
11.2054312235
 20
6.6763594156
 30
0.0
 10
11.2258769854
 20
6.6848505778
 30
0.0
 10
11.2472103376
 20
6.6911803775
 30
0.0
 10
11.2692163769
 20
6.695285549
 30
0.0
 10
11.2916704566
 20
6.6971261648
 30
0.0
 10
11.3067427291
 20
6.6968321813
 30
0.0
 10
11.3142733295
 20
6.6963099324
 30
0.0
  0
SPLINE
  5
39F
100
AcDbEntity
  8
0
100
AcDbSpline
 62
7
  6
CONTINUOUS
 70
0
 71
3
 72
15
 73
11
 74
0
 42
0.0000001
 43
0.0000001
 44
0.0000000001
 40
0.0
 40
0.0
 40
0.0
 40
0.0
 40
0.123317125
 40
0.2468171892
 40
0.3706750004
 40
0.49504957
 40
0.620077358
 40
0.7458670408
 40
0.8724927714
 40
1.0
 40
1.0
 40
1.0
 40
1.0
 10
8.2838688144
 20
6.8374737892
 30
0.0
 10
8.2891198013
 20
6.8425458956
 30
0.0
 10
8.3001853807
 20
6.8521397034
 30
0.0
 10
8.318245435
 20
6.8646762486
 30
0.0
 10
8.337597408
 20
6.8752443662
 30
0.0
 10
8.3580431699
 20
6.8837355284
 30
0.0
 10
8.379376522
 20
6.8900653281
 30
0.0
 10
8.4013825614
 20
6.8941704997
 30
0.0
 10
8.4238366411
 20
6.8960111154
 30
0.0
 10
8.4389089136
 20
6.8957171319
 30
0.0
 10
8.446439514
 20
6.895194883
 30
0.0
  0
SPLINE
  5
3A0
100
AcDbEntity
  8
0
100
AcDbSpline
 62
7
  6
CONTINUOUS
 70
0
 71
3
 72
15
 73
11
 74
0
 42
0.0000001
 43
0.0000001
 44
0.0000000001
 40
0.0
 40
0.0
 40
0.0
 40
0.0
 40
0.123317125
 40
0.2468171892
 40
0.3706750004
 40
0.49504957
 40
0.620077358
 40
0.7458670408
 40
0.8724927714
 40
1.0
 40
1.0
 40
1.0
 40
1.0
 10
6.9257768895
 20
6.9316577841
 30
0.0
 10
6.9310278764
 20
6.9367298904
 30
0.0
 10
6.9420934558
 20
6.9463236983
 30
0.0
 10
6.9601535101
 20
6.9588602435
 30
0.0
 10
6.9795054831
 20
6.9694283611
 30
0.0
 10
6.999951245
 20
6.9779195233
 30
0.0
 10
7.0212845972
 20
6.984249323
 30
0.0
 10
7.0432906365
 20
6.9883544945
 30
0.0
 10
7.0657447162
 20
6.9901951103
 30
0.0
 10
7.0808169887
 20
6.9899011268
 30
0.0
 10
7.0883475891
 20
6.9893788779
 30
0.0
  0
SPLINE
  5
3A1
100
AcDbEntity
  8
0
100
AcDbSpline
 62
7
  6
CONTINUOUS
 70
0
 71
3
 72
15
 73
11
 74
0
 42
0.0000001
 43
0.0000001
 44
0.0000000001
 40
0.0
 40
0.0
 40
0.0
 40
0.0
 40
0.123317125
 40
0.2468171892
 40
0.3706750004
 40
0.49504957
 40
0.620077358
 40
0.7458670408
 40
0.8724927714
 40
1.0
 40
1.0
 40
1.0
 40
1.0
 10
12.5097944397
 20
9.2007010314
 30
0.0
 10
12.5150454265
 20
9.2057731377
 30
0.0
 10
12.526111006
 20
9.2153669456
 30
0.0
 10
12.5441710602
 20
9.2279034908
 30
0.0
 10
12.5635230333
 20
9.2384716084
 30
0.0
 10
12.5839687952
 20
9.2469627706
 30
0.0
 10
12.6053021473
 20
9.2532925703
 30
0.0
 10
12.6273081866
 20
9.2573977418
 30
0.0
 10
12.6497622664
 20
9.2592383576
 30
0.0
 10
12.6648345389
 20
9.2589443741
 30
0.0
 10
12.6723651392
 20
9.2584221252
 30
0.0
  0
SPLINE
  5
3A2
100
AcDbEntity
  8
0
100
AcDbSpline
 62
7
  6
CONTINUOUS
 70
0
 71
3
 72
15
 73
11
 74
0
 42
0.0000001
 43
0.0000001
 44
0.0000000001
 40
0.0
 40
0.0
 40
0.0
 40
0.0
 40
0.123317125
 40
0.2468171892
 40
0.3706750004
 40
0.49504957
 40
0.620077358
 40
0.7458670408
 40
0.8724927714
 40
1.0
 40
1.0
 40
1.0
 40
1.0
 10
11.15170263
 20
9.2948850183
 30
0.0
 10
11.1569536168
 20
9.2999571246
 30
0.0
 10
11.1680191963
 20
9.3095509325
 30
0.0
 10
11.1860792505
 20
9.3220874777
 30
0.0
 10
11.2054312235
 20
9.3326555953
 30
0.0
 10
11.2258769854
 20
9.3411467575
 30
0.0
 10
11.2472103376
 20
9.3474765572
 30
0.0
 10
11.2692163769
 20
9.3515817287
 30
0.0
 10
11.2916704566
 20
9.3534223444
 30
0.0
 10
11.3067427291
 20
9.353128361
 30
0.0
 10
11.3142733295
 20
9.3526061121
 30
0.0
  0
SPLINE
  5
3A3
100
AcDbEntity
  8
0
100
AcDbSpline
 62
7
  6
CONTINUOUS
 70
0
 71
3
 72
15
 73
11
 74
0
 42
0.0000001
 43
0.0000001
 44
0.0000000001
 40
0.0
 40
0.0
 40
0.0
 40
0.0
 40
0.123317125
 40
0.2468171892
 40
0.3706750004
 40
0.49504957
 40
0.620077358
 40
0.7458670408
 40
0.8724927714
 40
1.0
 40
1.0
 40
1.0
 40
1.0
 10
8.2838688144
 20
9.4937699689
 30
0.0
 10
8.2891198013
 20
9.4988420752
 30
0.0
 10
8.3001853807
 20
9.5084358831
 30
0.0
 10
8.318245435
 20
9.5209724283
 30
0.0
 10
8.337597408
 20
9.5315405459
 30
0.0
 10
8.3580431699
 20
9.5400317081
 30
0.0
 10
8.379376522
 20
9.5463615078
 30
0.0
 10
8.4013825614
 20
9.5504666793
 30
0.0
 10
8.4238366411
 20
9.5523072951
 30
0.0
 10
8.4389089136
 20
9.5520133116
 30
0.0
 10
8.446439514
 20
9.5514910627
 30
0.0
  0
SPLINE
  5
3A4
100
AcDbEntity
  8
0
100
AcDbSpline
 62
7
  6
CONTINUOUS
 70
0
 71
3
 72
15
 73
11
 74
0
 42
0.0000001
 43
0.0000001
 44
0.0000000001
 40
0.0
 40
0.0
 40
0.0
 40
0.0
 40
0.123317125
 40
0.2468171892
 40
0.3706750004
 40
0.49504957
 40
0.620077358
 40
0.7458670408
 40
0.8724927714
 40
1.0
 40
1.0
 40
1.0
 40
1.0
 10
6.9257768895
 20
9.5879539638
 30
0.0
 10
6.9310278764
 20
9.5930260701
 30
0.0
 10
6.9420934558
 20
9.602619878
 30
0.0
 10
6.9601535101
 20
9.6151564232
 30
0.0
 10
6.9795054831
 20
9.6257245408
 30
0.0
 10
6.999951245
 20
9.634215703
 30
0.0
 10
7.0212845972
 20
9.6405455026
 30
0.0
 10
7.0432906365
 20
9.6446506742
 30
0.0
 10
7.0657447162
 20
9.6464912899
 30
0.0
 10
7.0808169887
 20
9.6461973065
 30
0.0
 10
7.0883475891
 20
9.6456750576
 30
0.0
  0
SPLINE
  5
3A5
100
AcDbEntity
  8
0
100
AcDbSpline
 62
7
  6
CONTINUOUS
 70
0
 71
3
 72
41
 73
37
 74
0
 42
0.0000001
 43
0.0000001
 44
0.0000000001
 40
0.0
 40
0.0
 40
0.0
 40
0.0
 40
0.0311443731
 40
0.0624425498
 40
0.0938872324
 40
0.1254695881
 40
0.1571771015
 40
0.1889951224
 40
0.2209066715
 40
0.2528929757
 40
0.28493379
 40
0.3170078157
 40
0.3490931116
 40
0.3811675191
 40
0.4132090895
 40
0.4451965082
 40
0.4771095106
 40
0.5089292837
 40
0.5406388474
 40
0.5722234085
 40
0.6036706805
 40
0.6349711645
 40
0.6661183811
 40
0.6971090487
 40
0.7279432008
 40
0.7586242349
 40
0.7891588899
 40
0.8195571457
 40
0.8498320452
 40
0.8649308854
 40
0.8800050464
 40
0.9100832538
 40
0.9400926721
 40
0.9550812717
 40
0.9700610341
 40
1.0
 40
1.0
 40
1.0
 40
1.0
 10
12.6723651392
 20
8.8063688117
 30
0.0
 10
12.6668458323
 20
8.806751577
 30
0.0
 10
12.6558038754
 20
8.8079230148
 30
0.0
 10
12.6393748387
 20
8.8108737859
 30
0.0
 10
12.6231217315
 20
8.8150070683
 30
0.0
 10
12.6071324335
 20
8.8203004315
 30
0.0
 10
12.5914918111
 20
8.8267256432
 30
0.0
 10
12.5762833196
 20
8.8342482609
 30
0.0
 10
12.5615879724
 20
8.842828116
 30
0.0
 10
12.547484074
 20
8.8524193848
 30
0.0
 10
12.5340467706
 20
8.862970894
 30
0.0
 10
12.5213476611
 20
8.8744263665
 30
0.0
 10
12.5094544196
 20
8.8867247289
 30
0.0
 10
12.4984304381
 20
8.8998004302
 30
0.0
 10
12.4883344924
 20
8.9135837893
 30
0.0
 10
12.4792204312
 20
8.9280013613
 30
0.0
 10
12.4711368919
 20
8.9429763256
 30
0.0
 10
12.4641270403
 20
8.9584288889
 30
0.0
 10
12.4582283422
 20
8.9742767061
 30
0.0
 10
12.4534723643
 20
8.9904353141
 30
0.0
 10
12.4498846047
 20
9.006818576
 30
0.0
 10
12.4474843542
 20
9.0233391335
 30
0.0
 10
12.4462845901
 20
9.039908868
 30
0.0
 10
12.4462918988
 20
9.0564393595
 30
0.0
 10
12.4475064414
 20
9.0728423714
 30
0.0
 10
12.4499219139
 20
9.0890302527
 30
0.0
 10
12.4535256827
 20
9.1049166444
 30
0.0
 10
12.4582984243
 20
9.1204160516
 30
0.0
 10
12.4632342
 20
9.1329541816
 30
0.0
 10
12.4677384371
 20
9.1427044785
 30
0.0
 10
12.4725992536
 20
9.1522428298
 30
0.0
 10
12.4793483422
 20
9.1637799071
 30
0.0
 10
12.4869654069
 20
9.1747449002
 30
0.0
 10
12.4935477384
 20
9.1831262171
 30
0.0
 10
12.5004439805
 20
9.191234038
 30
0.0
 10
12.5059691486
 20
9.1970060529
 30
0.0
 10
12.5097944397
 20
9.2007010314
 30
0.0
  0
SPLINE
  5
3A6
100
AcDbEntity
  8
0
100
AcDbSpline
 62
7
  6
CONTINUOUS
 70
0
 71
3
 72
39
 73
35
 74
0
 42
0.0000001
 43
0.0000001
 44
0.0000000001
 40
0.0
 40
0.0
 40
0.0
 40
0.0
 40
0.0314026063
 40
0.0630095008
 40
0.0948071053
 40
0.1267734461
 40
0.1588809724
 40
0.1910970224
 40
0.2233851129
 40
0.2557062443
 40
0.2880202662
 40
0.3202872758
 40
0.3524690069
 40
0.3845301825
 40
0.4164397923
 40
0.4481722508
 40
0.4797084082
 40
0.5110363786
 40
0.5421521202
 40
0.573059743
 40
0.603771519
 40
0.6343075555
 40
0.6646951121
 40
0.6949675899
 40
0.7251632182
 40
0.7553234779
 40
0.7854913543
 40
0.8157095101
 40
0.8460184695
 40
0.8764549218
 40
0.9070502371
 40
0.9378293223
 40
0.9688091211
 40
1.0
 40
1.0
 40
1.0
 40
1.0
 10
8.4394514055
 20
9.5708210667
 30
0.0
 10
8.4477261318
 20
9.5702472125
 30
0.0
 10
8.4642838502
 20
9.5682803097
 30
0.0
 10
8.4887867438
 20
9.5629382229
 30
0.0
 10
8.5128146955
 20
9.5552462424
 30
0.0
 10
8.5361339563
 20
9.5452789013
 30
0.0
 10
8.5585215099
 20
9.533132508
 30
0.0
 10
8.5797623921
 20
9.5189241465
 30
0.0
 10
8.5996529032
 20
9.5027904794
 30
0.0
 10
8.6180021458
 20
9.4848864767
 30
0.0
 10
8.6346340495
 20
9.46538408
 30
0.0
 10
8.6493889117
 20
9.4444704556
 30
0.0
 10
8.6621248605
 20
9.4223462184
 30
0.0
 10
8.6727192679
 20
9.3992236119
 30
0.0
 10
8.681069998
 20
9.3753245308
 30
0.0
 10
8.6870962387
 20
9.3508783658
 30
0.0
 10
8.690739283
 20
9.326119889
 30
0.0
 10
8.6919633085
 20
9.301287086
 30
0.0
 10
8.6907556576
 20
9.2766188742
 30
0.0
 10
8.687126952
 20
9.2523528625
 30
0.0
 10
8.6811111503
 20
9.2287231017
 30
0.0
 10
8.6727654392
 20
9.2059577747
 30
0.0
 10
8.6621695898
 20
9.1842769907
 30
0.0
 10
8.6494252768
 20
9.1638906289
 30
0.0
 10
8.6346553087
 20
9.144996124
 30
0.0
 10
8.6180023693
 20
9.1277764556
 30
0.0
 10
8.5996275343
 20
9.1123983416
 30
0.0
 10
8.5797086928
 20
9.0990105193
 30
0.0
 10
8.5584388307
 20
9.087742101
 30
0.0
 10
8.5360238267
 20
9.07870148
 30
0.0
 10
8.512680707
 20
9.0719752961
 30
0.0
 10
8.4886343435
 20
9.0676277394
 30
0.0
 10
8.4641197425
 20
9.0656993306
 30
0.0
 10
8.4476703407
 20
9.0660377705
 30
0.0
 10
8.4394514055
 20
9.0666077555
 30
0.0
  0
SPLINE
  5
3A7
100
AcDbEntity
  8
0
100
AcDbSpline
 62
7
  6
CONTINUOUS
 70
0
 71
3
 72
41
 73
37
 74
0
 42
0.0000001
 43
0.0000001
 44
0.0000000001
 40
0.0
 40
0.0
 40
0.0
 40
0.0
 40
0.0311443731
 40
0.0624425498
 40
0.0938872324
 40
0.1254695881
 40
0.1571771015
 40
0.1889951224
 40
0.2209066715
 40
0.2528929757
 40
0.28493379
 40
0.3170078157
 40
0.3490931116
 40
0.3811675191
 40
0.4132090895
 40
0.4451965082
 40
0.4771095106
 40
0.5089292837
 40
0.5406388474
 40
0.5722234085
 40
0.6036706805
 40
0.6349711645
 40
0.6661183811
 40
0.6971090487
 40
0.7279432008
 40
0.7586242349
 40
0.7891588899
 40
0.8195571457
 40
0.8498320452
 40
0.8649308854
 40
0.8800050464
 40
0.9100832538
 40
0.9400926721
 40
0.9550812717
 40
0.9700610341
 40
1.0
 40
1.0
 40
1.0
 40
1.0
 10
7.0883475891
 20
6.5373255644
 30
0.0
 10
7.0828282821
 20
6.5377083297
 30
0.0
 10
7.0717863253
 20
6.5388797675
 30
0.0
 10
7.0553572886
 20
6.5418305386
 30
0.0
 10
7.0391041813
 20
6.545963821
 30
0.0
 10
7.0231148833
 20
6.5512571842
 30
0.0
 10
7.0074742609
 20
6.557682396
 30
0.0
 10
6.9922657694
 20
6.5652050136
 30
0.0
 10
6.9775704222
 20
6.5737848687
 30
0.0
 10
6.9634665239
 20
6.5833761376
 30
0.0
 10
6.9500292205
 20
6.5939276467
 30
0.0
 10
6.937330111
 20
6.6053831192
 30
0.0
 10
6.9254368695
 20
6.6176814816
 30
0.0
 10
6.914412888
 20
6.6307571829
 30
0.0
 10
6.9043169423
 20
6.644540542
 30
0.0
 10
6.8952028811
 20
6.658958114
 30
0.0
 10
6.8871193417
 20
6.6739330783
 30
0.0
 10
6.8801094902
 20
6.6893856416
 30
0.0
 10
6.874210792
 20
6.7052334588
 30
0.0
 10
6.8694548141
 20
6.7213920668
 30
0.0
 10
6.8658670545
 20
6.7377753287
 30
0.0
 10
6.8634668041
 20
6.7542958862
 30
0.0
 10
6.86226704
 20
6.7708656207
 30
0.0
 10
6.8622743486
 20
6.7873961122
 30
0.0
 10
6.8634888913
 20
6.8037991241
 30
0.0
 10
6.8659043637
 20
6.8199870054
 30
0.0
 10
6.8695081326
 20
6.8358733971
 30
0.0
 10
6.8742808742
 20
6.8513728043
 30
0.0
 10
6.8792166498
 20
6.8639109343
 30
0.0
 10
6.8837208869
 20
6.8736612313
 30
0.0
 10
6.8885817035
 20
6.8831995826
 30
0.0
 10
6.8953307921
 20
6.8947366598
 30
0.0
 10
6.9029478567
 20
6.9057016529
 30
0.0
 10
6.9095301882
 20
6.9140829698
 30
0.0
 10
6.9164264303
 20
6.9221907907
 30
0.0
 10
6.9219515984
 20
6.9279628056
 30
0.0
 10
6.9257768895
 20
6.9316577841
 30
0.0
  0
SPLINE
  5
3A8
100
AcDbEntity
  8
0
100
AcDbSpline
 62
7
  6
CONTINUOUS
 70
0
 71
3
 72
39
 73
35
 74
0
 42
0.0000001
 43
0.0000001
 44
0.0000000001
 40
0.0
 40
0.0
 40
0.0
 40
0.0
 40
0.0314026063
 40
0.0630095008
 40
0.0948071053
 40
0.1267734461
 40
0.1588809724
 40
0.1910970224
 40
0.2233851129
 40
0.2557062443
 40
0.2880202662
 40
0.3202872758
 40
0.3524690069
 40
0.3845301825
 40
0.4164397923
 40
0.4481722508
 40
0.4797084082
 40
0.5110363786
 40
0.5421521202
 40
0.573059743
 40
0.603771519
 40
0.6343075555
 40
0.6646951121
 40
0.6949675899
 40
0.7251632182
 40
0.7553234779
 40
0.7854913543
 40
0.8157095101
 40
0.8460184695
 40
0.8764549218
 40
0.9070502371
 40
0.9378293223
 40
0.9688091211
 40
1.0
 40
1.0
 40
1.0
 40
1.0
 10
12.6653770308
 20
6.6214559496
 30
0.0
 10
12.673651757
 20
6.6208820953
 30
0.0
 10
12.6902094754
 20
6.6189151925
 30
0.0
 10
12.7147123691
 20
6.6135731057
 30
0.0
 10
12.7387403208
 20
6.6058811252
 30
0.0
 10
12.7620595816
 20
6.5959137841
 30
0.0
 10
12.7844471352
 20
6.5837673908
 30
0.0
 10
12.8056880174
 20
6.5695590293
 30
0.0
 10
12.8255785285
 20
6.5534253622
 30
0.0
 10
12.8439277711
 20
6.5355213595
 30
0.0
 10
12.8605596747
 20
6.5160189628
 30
0.0
 10
12.8753145369
 20
6.4951053384
 30
0.0
 10
12.8880504858
 20
6.4729811012
 30
0.0
 10
12.8986448932
 20
6.4498584947
 30
0.0
 10
12.9069956233
 20
6.4259594136
 30
0.0
 10
12.913021864
 20
6.4015132486
 30
0.0
 10
12.9166649083
 20
6.3767547718
 30
0.0
 10
12.9178889338
 20
6.3519219688
 30
0.0
 10
12.9166812829
 20
6.327253757
 30
0.0
 10
12.9130525773
 20
6.3029877453
 30
0.0
 10
12.9070367756
 20
6.2793579845
 30
0.0
 10
12.8986910644
 20
6.2565926576
 30
0.0
 10
12.8880952151
 20
6.2349118736
 30
0.0
 10
12.8753509021
 20
6.2145255117
 30
0.0
 10
12.860580934
 20
6.1956310068
 30
0.0
 10
12.8439279946
 20
6.1784113384
 30
0.0
 10
12.8255531596
 20
6.1630332244
 30
0.0
 10
12.8056343181
 20
6.1496454021
 30
0.0
 10
12.784364456
 20
6.1383769838
 30
0.0
 10
12.761949452
 20
6.1293363628
 30
0.0
 10
12.7386063322
 20
6.1226101789
 30
0.0
 10
12.7145599688
 20
6.1182626222
 30
0.0
 10
12.6900453678
 20
6.1163342134
 30
0.0
 10
12.6735959659
 20
6.1166726533
 30
0.0
 10
12.6653770308
 20
6.1172426384
 30
0.0
  0
SPLINE
  5
3A9
100
AcDbEntity
  8
0
100
AcDbSpline
 62
7
  6
CONTINUOUS
 70
0
 71
3
 72
41
 73
37
 74
0
 42
0.0000001
 43
0.0000001
 44
0.0000000001
 40
0.0
 40
0.0
 40
0.0
 40
0.0
 40
0.0311443731
 40
0.0624425498
 40
0.0938872324
 40
0.1254695881
 40
0.1571771015
 40
0.1889951224
 40
0.2209066715
 40
0.2528929757
 40
0.28493379
 40
0.3170078157
 40
0.3490931116
 40
0.3811675191
 40
0.4132090895
 40
0.4451965082
 40
0.4771095106
 40
0.5089292837
 40
0.5406388474
 40
0.5722234085
 40
0.6036706805
 40
0.6349711645
 40
0.6661183811
 40
0.6971090487
 40
0.7279432008
 40
0.7586242349
 40
0.7891588899
 40
0.8195571457
 40
0.8498320452
 40
0.8649308854
 40
0.8800050464
 40
0.9100832538
 40
0.9400926721
 40
0.9550812717
 40
0.9700610341
 40
1.0
 40
1.0
 40
1.0
 40
1.0
 10
8.446439514
 20
6.4431415695
 30
0.0
 10
8.440920207
 20
6.4435243348
 30
0.0
 10
8.4298782502
 20
6.4446957726
 30
0.0
 10
8.4134492134
 20
6.4476465437
 30
0.0
 10
8.3971961062
 20
6.4517798262
 30
0.0
 10
8.3812068082
 20
6.4570731893
 30
0.0
 10
8.3655661858
 20
6.4634984011
 30
0.0
 10
8.3503576943
 20
6.4710210188
 30
0.0
 10
8.3356623471
 20
6.4796008738
 30
0.0
 10
8.3215584488
 20
6.4891921427
 30
0.0
 10
8.3081211454
 20
6.4997436518
 30
0.0
 10
8.2954220359
 20
6.5111991243
 30
0.0
 10
8.2835287943
 20
6.5234974867
 30
0.0
 10
8.2725048129
 20
6.5365731881
 30
0.0
 10
8.2624088672
 20
6.5503565471
 30
0.0
 10
8.253294806
 20
6.5647741191
 30
0.0
 10
8.2452112666
 20
6.5797490834
 30
0.0
 10
8.2382014151
 20
6.5952016467
 30
0.0
 10
8.2323027169
 20
6.6110494639
 30
0.0
 10
8.227546739
 20
6.6272080719
 30
0.0
 10
8.2239589794
 20
6.6435913338
 30
0.0
 10
8.221558729
 20
6.6601118913
 30
0.0
 10
8.2203589649
 20
6.6766816258
 30
0.0
 10
8.2203662735
 20
6.6932121173
 30
0.0
 10
8.2215808161
 20
6.7096151292
 30
0.0
 10
8.2239962886
 20
6.7258030105
 30
0.0
 10
8.2276000574
 20
6.7416894022
 30
0.0
 10
8.2323727991
 20
6.7571888094
 30
0.0
 10
8.2373085747
 20
6.7697269394
 30
0.0
 10
8.2418128118
 20
6.7794772364
 30
0.0
 10
8.2466736284
 20
6.7890155877
 30
0.0
 10
8.253422717
 20
6.800552665
 30
0.0
 10
8.2610397816
 20
6.811517658
 30
0.0
 10
8.2676221131
 20
6.8198989749
 30
0.0
 10
8.2745183552
 20
6.8280067959
 30
0.0
 10
8.2800435233
 20
6.8337788107
 30
0.0
 10
8.2838688144
 20
6.8374737892
 30
0.0
  0
SPLINE
  5
3AA
100
AcDbEntity
  8
0
100
AcDbSpline
 62
7
  6
CONTINUOUS
 70
0
 71
3
 72
41
 73
37
 74
0
 42
0.0000001
 43
0.0000001
 44
0.0000000001
 40
0.0
 40
0.0
 40
0.0
 40
0.0
 40
0.0311443731
 40
0.0624425498
 40
0.0938872324
 40
0.1254695881
 40
0.1571771015
 40
0.1889951224
 40
0.2209066715
 40
0.2528929757
 40
0.28493379
 40
0.3170078157
 40
0.3490931116
 40
0.3811675191
 40
0.4132090895
 40
0.4451965082
 40
0.4771095106
 40
0.5089292837
 40
0.5406388474
 40
0.5722234085
 40
0.6036706805
 40
0.6349711645
 40
0.6661183811
 40
0.6971090487
 40
0.7279432008
 40
0.7586242349
 40
0.7891588899
 40
0.8195571457
 40
0.8498320452
 40
0.8649308854
 40
0.8800050464
 40
0.9100832538
 40
0.9400926721
 40
0.9550812717
 40
0.9700610341
 40
1.0
 40
1.0
 40
1.0
 40
1.0
 10
11.3142733295
 20
6.2442566189
 30
0.0
 10
11.3087540226
 20
6.2446393842
 30
0.0
 10
11.2977120657
 20
6.245810822
 30
0.0
 10
11.281283029
 20
6.2487615931
 30
0.0
 10
11.2650299217
 20
6.2528948755
 30
0.0
 10
11.2490406237
 20
6.2581882387
 30
0.0
 10
11.2334000013
 20
6.2646134505
 30
0.0
 10
11.2181915099
 20
6.2721360682
 30
0.0
 10
11.2034961626
 20
6.2807159232
 30
0.0
 10
11.1893922643
 20
6.2903071921
 30
0.0
 10
11.1759549609
 20
6.3008587012
 30
0.0
 10
11.1632558514
 20
6.3123141737
 30
0.0
 10
11.1513626099
 20
6.3246125361
 30
0.0
 10
11.1403386284
 20
6.3376882375
 30
0.0
 10
11.1302426827
 20
6.3514715965
 30
0.0
 10
11.1211286215
 20
6.3658891685
 30
0.0
 10
11.1130450821
 20
6.3808641328
 30
0.0
 10
11.1060352306
 20
6.3963166961
 30
0.0
 10
11.1001365325
 20
6.4121645133
 30
0.0
 10
11.0953805545
 20
6.4283231213
 30
0.0
 10
11.0917927949
 20
6.4447063832
 30
0.0
 10
11.0893925445
 20
6.4612269407
 30
0.0
 10
11.0881927804
 20
6.4777966752
 30
0.0
 10
11.088200089
 20
6.4943271667
 30
0.0
 10
11.0894146317
 20
6.5107301786
 30
0.0
 10
11.0918301042
 20
6.5269180599
 30
0.0
 10
11.095433873
 20
6.5428044516
 30
0.0
 10
11.1002066146
 20
6.5583038588
 30
0.0
 10
11.1051423902
 20
6.5708419888
 30
0.0
 10
11.1096466273
 20
6.5805922858
 30
0.0
 10
11.1145074439
 20
6.5901306371
 30
0.0
 10
11.1212565325
 20
6.6016677143
 30
0.0
 10
11.1288735971
 20
6.6126327074
 30
0.0
 10
11.1354559286
 20
6.6210140243
 30
0.0
 10
11.1423521707
 20
6.6291218452
 30
0.0
 10
11.1478773388
 20
6.6348938601
 30
0.0
 10
11.15170263
 20
6.6385888386
 30
0.0
  0
SPLINE
  5
3AB
100
AcDbEntity
  8
0
100
AcDbSpline
 62
7
  6
CONTINUOUS
 70
0
 71
3
 72
41
 73
37
 74
0
 42
0.0000001
 43
0.0000001
 44
0.0000000001
 40
0.0
 40
0.0
 40
0.0
 40
0.0
 40
0.0311443731
 40
0.0624425498
 40
0.0938872324
 40
0.1254695881
 40
0.1571771015
 40
0.1889951224
 40
0.2209066715
 40
0.2528929757
 40
0.28493379
 40
0.3170078157
 40
0.3490931116
 40
0.3811675191
 40
0.4132090895
 40
0.4451965082
 40
0.4771095106
 40
0.5089292837
 40
0.5406388474
 40
0.5722234085
 40
0.6036706805
 40
0.6349711645
 40
0.6661183811
 40
0.6971090487
 40
0.7279432008
 40
0.7586242349
 40
0.7891588899
 40
0.8195571457
 40
0.8498320452
 40
0.8649308854
 40
0.8800050464
 40
0.9100832538
 40
0.9400926721
 40
0.9550812717
 40
0.9700610341
 40
1.0
 40
1.0
 40
1.0
 40
1.0
 10
12.6723651392
 20
6.150072632
 30
0.0
 10
12.6668458323
 20
6.1504553973
 30
0.0
 10
12.6558038754
 20
6.1516268351
 30
0.0
 10
12.6393748387
 20
6.1545776062
 30
0.0
 10
12.6231217315
 20
6.1587108886
 30
0.0
 10
12.6071324335
 20
6.1640042518
 30
0.0
 10
12.5914918111
 20
6.1704294636
 30
0.0
 10
12.5762833196
 20
6.1779520813
 30
0.0
 10
12.5615879724
 20
6.1865319363
 30
0.0
 10
12.547484074
 20
6.1961232052
 30
0.0
 10
12.5340467706
 20
6.2066747143
 30
0.0
 10
12.5213476611
 20
6.2181301868
 30
0.0
 10
12.5094544196
 20
6.2304285492
 30
0.0
 10
12.4984304381
 20
6.2435042506
 30
0.0
 10
12.4883344924
 20
6.2572876096
 30
0.0
 10
12.4792204312
 20
6.2717051816
 30
0.0
 10
12.4711368919
 20
6.2866801459
 30
0.0
 10
12.4641270403
 20
6.3021327092
 30
0.0
 10
12.4582283422
 20
6.3179805264
 30
0.0
 10
12.4534723643
 20
6.3341391344
 30
0.0
 10
12.4498846047
 20
6.3505223963
 30
0.0
 10
12.4474843542
 20
6.3670429538
 30
0.0
 10
12.4462845901
 20
6.3836126883
 30
0.0
 10
12.4462918988
 20
6.4001431798
 30
0.0
 10
12.4475064414
 20
6.4165461917
 30
0.0
 10
12.4499219139
 20
6.432734073
 30
0.0
 10
12.4535256827
 20
6.4486204647
 30
0.0
 10
12.4582984243
 20
6.4641198719
 30
0.0
 10
12.4632342
 20
6.4766580019
 30
0.0
 10
12.4677384371
 20
6.4864082989
 30
0.0
 10
12.4725992536
 20
6.4959466502
 30
0.0
 10
12.4793483422
 20
6.5074837274
 30
0.0
 10
12.4869654069
 20
6.5184487205
 30
0.0
 10
12.4935477384
 20
6.5268300374
 30
0.0
 10
12.5004439805
 20
6.5349378583
 30
0.0
 10
12.5059691486
 20
6.5407098732
 30
0.0
 10
12.5097944397
 20
6.5444048517
 30
0.0
  0
SPLINE
  5
3AC
100
AcDbEntity
  8
0
100
AcDbSpline
 62
7
  6
CONTINUOUS
 70
0
 71
3
 72
39
 73
35
 74
0
 42
0.0000001
 43
0.0000001
 44
0.0000000001
 40
0.0
 40
0.0
 40
0.0
 40
0.0
 40
0.0314026063
 40
0.0630095008
 40
0.0948071053
 40
0.1267734461
 40
0.1588809724
 40
0.1910970224
 40
0.2233851129
 40
0.2557062443
 40
0.2880202662
 40
0.3202872758
 40
0.3524690069
 40
0.3845301825
 40
0.4164397923
 40
0.4481722508
 40
0.4797084082
 40
0.5110363786
 40
0.5421521202
 40
0.573059743
 40
0.603771519
 40
0.6343075555
 40
0.6646951121
 40
0.6949675899
 40
0.7251632182
 40
0.7553234779
 40
0.7854913543
 40
0.8157095101
 40
0.8460184695
 40
0.8764549218
 40
0.9070502371
 40
0.9378293223
 40
0.9688091211
 40
1.0
 40
1.0
 40
1.0
 40
1.0
 10
7.0813594806
 20
9.1607917504
 30
0.0
 10
7.0730847544
 20
9.1613656046
 30
0.0
 10
7.056527036
 20
9.1633325075
 30
0.0
 10
7.0320241424
 20
9.1686745943
 30
0.0
 10
7.0079961906
 20
9.1763665747
 30
0.0
 10
6.9846769299
 20
9.1863339159
 30
0.0
 10
6.9622893763
 20
9.1984803092
 30
0.0
 10
6.9410484941
 20
9.2126886707
 30
0.0
 10
6.921157983
 20
9.2288223378
 30
0.0
 10
6.9028087404
 20
9.2467263405
 30
0.0
 10
6.8861768367
 20
9.2662287371
 30
0.0
 10
6.8714219745
 20
9.2871423616
 30
0.0
 10
6.8586860257
 20
9.3092665988
 30
0.0
 10
6.8480916183
 20
9.3323892053
 30
0.0
 10
6.8397408882
 20
9.3562882864
 30
0.0
 10
6.8337146475
 20
9.3807344514
 30
0.0
 10
6.8300716032
 20
9.4054929282
 30
0.0
 10
6.8288475777
 20
9.4303257312
 30
0.0
 10
6.8300552286
 20
9.454993943
 30
0.0
 10
6.8336839341
 20
9.4792599547
 30
0.0
 10
6.8396997359
 20
9.5028897155
 30
0.0
 10
6.848045447
 20
9.5256550424
 30
0.0
 10
6.8586412964
 20
9.5473358264
 30
0.0
 10
6.8713856094
 20
9.5677221883
 30
0.0
 10
6.8861555774
 20
9.5866166932
 30
0.0
 10
6.9028085168
 20
9.6038363616
 30
0.0
 10
6.9211833518
 20
9.6192144755
 30
0.0
 10
6.9411021933
 20
9.6326022979
 30
0.0
 10
6.9623720555
 20
9.6438707162
 30
0.0
 10
6.9847870595
 20
9.6529113372
 30
0.0
 10
7.0081301792
 20
9.659637521
 30
0.0
 10
7.0321765427
 20
9.6639850778
 30
0.0
 10
7.0566911436
 20
9.6659134865
 30
0.0
 10
7.0731405455
 20
9.6655750467
 30
0.0
 10
7.0813594806
 20
9.6650050616
 30
0.0
  0
SPLINE
  5
3AD
100
AcDbEntity
  8
0
100
AcDbSpline
 62
7
  6
CONTINUOUS
 70
0
 71
3
 72
39
 73
35
 74
0
 42
0.0000001
 43
0.0000001
 44
0.0000000001
 40
0.0
 40
0.0
 40
0.0
 40
0.0
 40
0.0314026063
 40
0.0630095008
 40
0.0948071053
 40
0.1267734461
 40
0.1588809724
 40
0.1910970224
 40
0.2233851129
 40
0.2557062443
 40
0.2880202662
 40
0.3202872758
 40
0.3524690069
 40
0.3845301825
 40
0.4164397923
 40
0.4481722508
 40
0.4797084082
 40
0.5110363786
 40
0.5421521202
 40
0.573059743
 40
0.603771519
 40
0.6343075555
 40
0.6646951121
 40
0.6949675899
 40
0.7251632182
 40
0.7553234779
 40
0.7854913543
 40
0.8157095101
 40
0.8460184695
 40
0.8764549218
 40
0.9070502371
 40
0.9378293223
 40
0.9688091211
 40
1.0
 40
1.0
 40
1.0
 40
1.0
 10
7.0813594806
 20
9.6650050616
 30
0.0
 10
7.0896342069
 20
9.6644312074
 30
0.0
 10
7.1061919253
 20
9.6624643046
 30
0.0
 10
7.1306948189
 20
9.6571222178
 30
0.0
 10
7.1547227707
 20
9.6494302373
 30
0.0
 10
7.1780420314
 20
9.6394628962
 30
0.0
 10
7.200429585
 20
9.6273165029
 30
0.0
 10
7.2216704672
 20
9.6131081413
 30
0.0
 10
7.2415609783
 20
9.5969744743
 30
0.0
 10
7.2599102209
 20
9.5790704716
 30
0.0
 10
7.2765421246
 20
9.5595680749
 30
0.0
 10
7.2912969868
 20
9.5386544505
 30
0.0
 10
7.3040329356
 20
9.5165302133
 30
0.0
 10
7.314627343
 20
9.4934076068
 30
0.0
 10
7.3229780731
 20
9.4695085257
 30
0.0
 10
7.3290043138
 20
9.4450623607
 30
0.0
 10
7.3326473581
 20
9.4203038839
 30
0.0
 10
7.3338713836
 20
9.3954710808
 30
0.0
 10
7.3326637327
 20
9.3708028691
 30
0.0
 10
7.3290350271
 20
9.3465368574
 30
0.0
 10
7.3230192254
 20
9.3229070965
 30
0.0
 10
7.3146735143
 20
9.3001417696
 30
0.0
 10
7.3040776649
 20
9.2784609856
 30
0.0
 10
7.2913333519
 20
9.2580746238
 30
0.0
 10
7.2765633839
 20
9.2391801189
 30
0.0
 10
7.2599104444
 20
9.2219604504
 30
0.0
 10
7.2415356095
 20
9.2065823365
 30
0.0
 10
7.221616768
 20
9.1931945142
 30
0.0
 10
7.2003469058
 20
9.1819260959
 30
0.0
 10
7.1779319018
 20
9.1728854749
 30
0.0
 10
7.1545887821
 20
9.166159291
 30
0.0
 10
7.1305424186
 20
9.1618117342
 30
0.0
 10
7.1060278176
 20
9.1598833255
 30
0.0
 10
7.0895784158
 20
9.1602217653
 30
0.0
 10
7.0813594806
 20
9.1607917504
 30
0.0
  0
SPLINE
  5
3AE
100
AcDbEntity
  8
0
100
AcDbSpline
 62
7
  6
CONTINUOUS
 70
0
 71
3
 72
23
 73
19
 74
0
 42
0.0000001
 43
0.0000001
 44
0.0000000001
 40
0.0
 40
0.0
 40
0.0
 40
0.0
 40
0.063777379
 40
0.1273447372
 40
0.1907019931
 40
0.2538561345
 40
0.3168131769
 40
0.3795820929
 40
0.4421733849
 40
0.5045993366
 40
0.5668738654
 40
0.6290123812
 40
0.6910316548
 40
0.7529496517
 40
0.8147853612
 40
0.8765586089
 40
0.9382898579
 40
1.0
 40
1.0
 40
1.0
 40
1.0
 10
7.0359610304
 20
8.0878987094
 30
0.0
 10
7.0359610304
 20
8.0994702794
 30
0.0
 10
7.0365148713
 20
8.1225792358
 30
0.0
 10
7.0390147336
 20
8.157102134
 30
0.0
 10
7.0431769517
 20
8.191351316
 30
0.0
 10
7.0489916808
 20
8.225246521
 30
0.0
 10
7.0564458298
 20
8.2587101431
 30
0.0
 10
7.0655221993
 20
8.2916648633
 30
0.0
 10
7.0761999901
 20
8.3240347444
 30
0.0
 10
7.0884546266
 20
8.3557451373
 30
0.0
 10
7.1022579131
 20
8.3867229155
 30
0.0
 10
7.1175780837
 20
8.4168966299
 30
0.0
 10
7.1343798631
 20
8.4461966699
 30
0.0
 10
7.1526245812
 20
8.4745554461
 30
0.0
 10
7.1722701328
 20
8.5019074717
 30
0.0
 10
7.19327144
 20
8.528189874
 30
0.0
 10
7.2155792533
 20
8.5533411934
 30
0.0
 10
7.2312907849
 20
8.5693189691
 30
0.0
 10
7.2393439034
 20
8.577097711
 30
0.0
  0
SPLINE
  5
3AF
100
AcDbEntity
  8
0
100
AcDbSpline
 62
7
  6
CONTINUOUS
 70
0
 71
3
 72
23
 73
19
 74
0
 42
0.0000001
 43
0.0000001
 44
0.0000000001
 40
0.0
 40
0.0
 40
0.0
 40
0.0
 40
0.063777379
 40
0.1273447372
 40
0.1907019931
 40
0.2538561345
 40
0.3168131769
 40
0.3795820929
 40
0.4421733849
 40
0.5045993366
 40
0.5668738654
 40
0.6290123812
 40
0.6910316548
 40
0.7529496517
 40
0.8147853612
 40
0.8765586089
 40
0.9382898579
 40
1.0
 40
1.0
 40
1.0
 40
1.0
 10
11.2618867709
 20
7.7948297639
 30
0.0
 10
11.2618867709
 20
7.8064013339
 30
0.0
 10
11.2624406118
 20
7.8295102903
 30
0.0
 10
11.264940474
 20
7.8640331886
 30
0.0
 10
11.2691026922
 20
7.8982823705
 30
0.0
 10
11.2749174212
 20
7.9321775756
 30
0.0
 10
11.2823715702
 20
7.9656411976
 30
0.0
 10
11.2914479398
 20
7.9985959178
 30
0.0
 10
11.3021257305
 20
8.0309657989
 30
0.0
 10
11.314380367
 20
8.0626761918
 30
0.0
 10
11.3281836535
 20
8.09365397
 30
0.0
 10
11.3435038241
 20
8.1238276844
 30
0.0
 10
11.3603056035
 20
8.1531277244
 30
0.0
 10
11.3785503216
 20
8.1814865006
 30
0.0
 10
11.3981958732
 20
8.2088385262
 30
0.0
 10
11.4191971804
 20
8.2351209285
 30
0.0
 10
11.4415049937
 20
8.2602722479
 30
0.0
 10
11.4572165253
 20
8.2762500236
 30
0.0
 10
11.4652696438
 20
8.2840287655
 30
0.0
  0
SPLINE
  5
3B0
100
AcDbEntity
  8
0
100
AcDbSpline
 62
7
  6
CONTINUOUS
 70
0
 71
3
 72
11
 73
7
 74
0
 42
0.0000001
 43
0.0000001
 44
0.0000000001
 40
0.0
 40
0.0
 40
0.0
 40
0.0
 40
0.2609222877
 40
0.5153169549
 40
0.762006466
 40
1.0
 40
1.0
 40
1.0
 40
1.0
 10
11.8038533993
 20
8.3183293584
 30
0.0
 10
11.8038533993
 20
8.3307093406
 30
0.0
 10
11.8042783919
 20
8.3551620236
 30
0.0
 10
11.8062252965
 20
8.3912726109
 30
0.0
 10
11.8094373347
 20
8.4262005549
 30
0.0
 10
11.8124401655
 20
8.4490077202
 30
0.0
 10
11.8141453579
 20
8.4601703105
 30
0.0
  0
SPLINE
  5
3B1
100
AcDbEntity
  8
0
100
AcDbSpline
 62
7
  6
CONTINUOUS
 70
0
 71
3
 72
39
 73
35
 74
0
 42
0.0000001
 43
0.0000001
 44
0.0000000001
 40
0.0
 40
0.0
 40
0.0
 40
0.0
 40
0.0314026063
 40
0.0630095008
 40
0.0948071053
 40
0.1267734461
 40
0.1588809724
 40
0.1910970224
 40
0.2233851129
 40
0.2557062443
 40
0.2880202662
 40
0.3202872758
 40
0.3524690069
 40
0.3845301825
 40
0.4164397923
 40
0.4481722508
 40
0.4797084082
 40
0.5110363786
 40
0.5421521202
 40
0.573059743
 40
0.603771519
 40
0.6343075555
 40
0.6646951121
 40
0.6949675899
 40
0.7251632182
 40
0.7553234779
 40
0.7854913543
 40
0.8157095101
 40
0.8460184695
 40
0.8764549218
 40
0.9070502371
 40
0.9378293223
 40
0.9688091211
 40
1.0
 40
1.0
 40
1.0
 40
1.0
 10
11.3072852211
 20
8.8677228049
 30
0.0
 10
11.2990104948
 20
8.8682966592
 30
0.0
 10
11.2824527764
 20
8.870263562
 30
0.0
 10
11.2579498828
 20
8.8756056488
 30
0.0
 10
11.233921931
 20
8.8832976292
 30
0.0
 10
11.2106026703
 20
8.8932649704
 30
0.0
 10
11.1882151167
 20
8.9054113637
 30
0.0
 10
11.1669742345
 20
8.9196197252
 30
0.0
 10
11.1470837234
 20
8.9357533923
 30
0.0
 10
11.1287344808
 20
8.953657395
 30
0.0
 10
11.1121025771
 20
8.9731597917
 30
0.0
 10
11.0973477149
 20
8.9940734161
 30
0.0
 10
11.0846117661
 20
9.0161976533
 30
0.0
 10
11.0740173587
 20
9.0393202598
 30
0.0
 10
11.0656666286
 20
9.0632193409
 30
0.0
 10
11.0596403879
 20
9.0876655059
 30
0.0
 10
11.0559973436
 20
9.1124239827
 30
0.0
 10
11.0547733181
 20
9.1372567857
 30
0.0
 10
11.055980969
 20
9.1619249975
 30
0.0
 10
11.0596096746
 20
9.1861910092
 30
0.0
 10
11.0656254763
 20
9.20982077
 30
0.0
 10
11.0739711874
 20
9.2325860969
 30
0.0
 10
11.0845670368
 20
9.2542668809
 30
0.0
 10
11.0973113498
 20
9.2746532428
 30
0.0
 10
11.1120813178
 20
9.2935477477
 30
0.0
 10
11.1287342573
 20
9.3107674161
 30
0.0
 10
11.1471090922
 20
9.32614553
 30
0.0
 10
11.1670279337
 20
9.3395333524
 30
0.0
 10
11.1882977959
 20
9.3508017707
 30
0.0
 10
11.2107127999
 20
9.3598423917
 30
0.0
 10
11.2340559196
 20
9.3665685756
 30
0.0
 10
11.2581022831
 20
9.3709161323
 30
0.0
 10
11.2826168841
 20
9.372844541
 30
0.0
 10
11.2990662859
 20
9.3725061012
 30
0.0
 10
11.3072852211
 20
9.3719361161
 30
0.0
  0
SPLINE
  5
3B2
100
AcDbEntity
  8
0
100
AcDbSpline
 62
7
  6
CONTINUOUS
 70
0
 71
3
 72
39
 73
35
 74
0
 42
0.0000001
 43
0.0000001
 44
0.0000000001
 40
0.0
 40
0.0
 40
0.0
 40
0.0
 40
0.0314026063
 40
0.0630095008
 40
0.0948071053
 40
0.1267734461
 40
0.1588809724
 40
0.1910970224
 40
0.2233851129
 40
0.2557062443
 40
0.2880202662
 40
0.3202872758
 40
0.3524690069
 40
0.3845301825
 40
0.4164397923
 40
0.4481722508
 40
0.4797084082
 40
0.5110363786
 40
0.5421521202
 40
0.573059743
 40
0.603771519
 40
0.6343075555
 40
0.6646951121
 40
0.6949675899
 40
0.7251632182
 40
0.7553234779
 40
0.7854913543
 40
0.8157095101
 40
0.8460184695
 40
0.8764549218
 40
0.9070502371
 40
0.9378293223
 40
0.9688091211
 40
1.0
 40
1.0
 40
1.0
 40
1.0
 10
11.3072852211
 20
9.3719361161
 30
0.0
 10
11.3155599473
 20
9.3713622619
 30
0.0
 10
11.3321176657
 20
9.3693953591
 30
0.0
 10
11.3566205593
 20
9.3640532723
 30
0.0
 10
11.3806485111
 20
9.3563612918
 30
0.0
 10
11.4039677718
 20
9.3463939507
 30
0.0
 10
11.4263553254
 20
9.3342475574
 30
0.0
 10
11.4475962076
 20
9.3200391958
 30
0.0
 10
11.4674867187
 20
9.3039055288
 30
0.0
 10
11.4858359613
 20
9.2860015261
 30
0.0
 10
11.502467865
 20
9.2664991294
 30
0.0
 10
11.5172227272
 20
9.245585505
 30
0.0
 10
11.529958676
 20
9.2234612678
 30
0.0
 10
11.5405530834
 20
9.2003386613
 30
0.0
 10
11.5489038135
 20
9.1764395802
 30
0.0
 10
11.5549300542
 20
9.1519934152
 30
0.0
 10
11.5585730985
 20
9.1272349384
 30
0.0
 10
11.559797124
 20
9.1024021353
 30
0.0
 10
11.5585894731
 20
9.0777339236
 30
0.0
 10
11.5549607676
 20
9.0534679119
 30
0.0
 10
11.5489449658
 20
9.029838151
 30
0.0
 10
11.5405992547
 20
9.0070728241
 30
0.0
 10
11.5300034053
 20
8.9853920401
 30
0.0
 10
11.5172590923
 20
8.9650056783
 30
0.0
 10
11.5024891243
 20
8.9461111734
 30
0.0
 10
11.4858361849
 20
8.9288915049
 30
0.0
 10
11.4674613499
 20
8.913513391
 30
0.0
 10
11.4475425084
 20
8.9001255687
 30
0.0
 10
11.4262726462
 20
8.8888571504
 30
0.0
 10
11.4038576422
 20
8.8798165294
 30
0.0
 10
11.3805145225
 20
8.8730903455
 30
0.0
 10
11.356468159
 20
8.8687427887
 30
0.0
 10
11.3319535581
 20
8.86681438
 30
0.0
 10
11.3155041562
 20
8.8671528199
 30
0.0
 10
11.3072852211
 20
8.8677228049
 30
0.0
  0
SPLINE
  5
3B3
100
AcDbEntity
  8
0
100
AcDbSpline
 62
7
  6
CONTINUOUS
 70
0
 71
3
 72
39
 73
35
 74
0
 42
0.0000001
 43
0.0000001
 44
0.0000000001
 40
0.0
 40
0.0
 40
0.0
 40
0.0
 40
0.0314026063
 40
0.0630095008
 40
0.0948071053
 40
0.1267734461
 40
0.1588809724
 40
0.1910970224
 40
0.2233851129
 40
0.2557062443
 40
0.2880202662
 40
0.3202872758
 40
0.3524690069
 40
0.3845301825
 40
0.4164397923
 40
0.4481722508
 40
0.4797084082
 40
0.5110363786
 40
0.5421521202
 40
0.573059743
 40
0.603771519
 40
0.6343075555
 40
0.6646951121
 40
0.6949675899
 40
0.7251632182
 40
0.7553234779
 40
0.7854913543
 40
0.8157095101
 40
0.8460184695
 40
0.8764549218
 40
0.9070502371
 40
0.9378293223
 40
0.9688091211
 40
1.0
 40
1.0
 40
1.0
 40
1.0
 10
11.3072852211
 20
6.2114266253
 30
0.0
 10
11.2990104948
 20
6.2120004795
 30
0.0
 10
11.2824527764
 20
6.2139673823
 30
0.0
 10
11.2579498828
 20
6.2193094691
 30
0.0
 10
11.233921931
 20
6.2270014496
 30
0.0
 10
11.2106026703
 20
6.2369687907
 30
0.0
 10
11.1882151167
 20
6.249115184
 30
0.0
 10
11.1669742345
 20
6.2633235455
 30
0.0
 10
11.1470837234
 20
6.2794572126
 30
0.0
 10
11.1287344808
 20
6.2973612153
 30
0.0
 10
11.1121025771
 20
6.316863612
 30
0.0
 10
11.0973477149
 20
6.3377772364
 30
0.0
 10
11.0846117661
 20
6.3599014736
 30
0.0
 10
11.0740173587
 20
6.3830240801
 30
0.0
 10
11.0656666286
 20
6.4069231612
 30
0.0
 10
11.0596403879
 20
6.4313693262
 30
0.0
 10
11.0559973436
 20
6.456127803
 30
0.0
 10
11.0547733181
 20
6.480960606
 30
0.0
 10
11.055980969
 20
6.5056288178
 30
0.0
 10
11.0596096746
 20
6.5298948295
 30
0.0
 10
11.0656254763
 20
6.5535245903
 30
0.0
 10
11.0739711874
 20
6.5762899173
 30
0.0
 10
11.0845670368
 20
6.5979707013
 30
0.0
 10
11.0973113498
 20
6.6183570631
 30
0.0
 10
11.1120813178
 20
6.637251568
 30
0.0
 10
11.1287342573
 20
6.6544712364
 30
0.0
 10
11.1471090922
 20
6.6698493504
 30
0.0
 10
11.1670279337
 20
6.6832371727
 30
0.0
 10
11.1882977959
 20
6.694505591
 30
0.0
 10
11.2107127999
 20
6.703546212
 30
0.0
 10
11.2340559196
 20
6.7102723959
 30
0.0
 10
11.2581022831
 20
6.7146199526
 30
0.0
 10
11.2826168841
 20
6.7165483614
 30
0.0
 10
11.2990662859
 20
6.7162099215
 30
0.0
 10
11.3072852211
 20
6.7156399364
 30
0.0
  0
SPLINE
  5
3B4
100
AcDbEntity
  8
0
100
AcDbSpline
 62
7
  6
CONTINUOUS
 70
0
 71
3
 72
39
 73
35
 74
0
 42
0.0000001
 43
0.0000001
 44
0.0000000001
 40
0.0
 40
0.0
 40
0.0
 40
0.0
 40
0.0314026063
 40
0.0630095008
 40
0.0948071053
 40
0.1267734461
 40
0.1588809724
 40
0.1910970224
 40
0.2233851129
 40
0.2557062443
 40
0.2880202662
 40
0.3202872758
 40
0.3524690069
 40
0.3845301825
 40
0.4164397923
 40
0.4481722508
 40
0.4797084082
 40
0.5110363786
 40
0.5421521202
 40
0.573059743
 40
0.603771519
 40
0.6343075555
 40
0.6646951121
 40
0.6949675899
 40
0.7251632182
 40
0.7553234779
 40
0.7854913543
 40
0.8157095101
 40
0.8460184695
 40
0.8764549218
 40
0.9070502371
 40
0.9378293223
 40
0.9688091211
 40
1.0
 40
1.0
 40
1.0
 40
1.0
 10
11.3072852211
 20
6.7156399364
 30
0.0
 10
11.3155599473
 20
6.7150660822
 30
0.0
 10
11.3321176657
 20
6.7130991794
 30
0.0
 10
11.3566205593
 20
6.7077570926
 30
0.0
 10
11.3806485111
 20
6.7000651121
 30
0.0
 10
11.4039677718
 20
6.690097771
 30
0.0
 10
11.4263553254
 20
6.6779513777
 30
0.0
 10
11.4475962076
 20
6.6637430162
 30
0.0
 10
11.4674867187
 20
6.6476093491
 30
0.0
 10
11.4858359613
 20
6.6297053464
 30
0.0
 10
11.502467865
 20
6.6102029497
 30
0.0
 10
11.5172227272
 20
6.5892893253
 30
0.0
 10
11.529958676
 20
6.5671650881
 30
0.0
 10
11.5405530834
 20
6.5440424816
 30
0.0
 10
11.5489038135
 20
6.5201434005
 30
0.0
 10
11.5549300542
 20
6.4956972355
 30
0.0
 10
11.5585730985
 20
6.4709387587
 30
0.0
 10
11.559797124
 20
6.4461059557
 30
0.0
 10
11.5585894731
 20
6.4214377439
 30
0.0
 10
11.5549607676
 20
6.3971717322
 30
0.0
 10
11.5489449658
 20
6.3735419714
 30
0.0
 10
11.5405992547
 20
6.3507766444
 30
0.0
 10
11.5300034053
 20
6.3290958604
 30
0.0
 10
11.5172590923
 20
6.3087094986
 30
0.0
 10
11.5024891243
 20
6.2898149937
 30
0.0
 10
11.4858361849
 20
6.2725953253
 30
0.0
 10
11.4674613499
 20
6.2572172113
 30
0.0
 10
11.4475425084
 20
6.243829389
 30
0.0
 10
11.4262726462
 20
6.2325609707
 30
0.0
 10
11.4038576422
 20
6.2235203497
 30
0.0
 10
11.3805145225
 20
6.2167941658
 30
0.0
 10
11.356468159
 20
6.2124466091
 30
0.0
 10
11.3319535581
 20
6.2105182003
 30
0.0
 10
11.3155041562
 20
6.2108566402
 30
0.0
 10
11.3072852211
 20
6.2114266253
 30
0.0
  0
SPLINE
  5
3B5
100
AcDbEntity
  8
0
100
AcDbSpline
 62
7
  6
CONTINUOUS
 70
0
 71
3
 72
66
 73
62
 74
0
 42
0.0000001
 43
0.0000001
 44
0.0000000001
 40
0.0
 40
0.0
 40
0.0
 40
0.0
 40
0.0085741906
 40
0.0179226887
 40
0.0280753217
 40
0.0390502963
 40
0.0508542541
 40
0.0634853275
 40
0.0769349221
 40
0.0911885609
 40
0.1062270475
 40
0.1220270515
 40
0.1385615308
 40
0.155800367
 40
0.1737105762
 40
0.1922565637
 40
0.2114005445
 40
0.2311026236
 40
0.2720110465
 40
0.3146302572
 40
0.3585859343
 40
0.4034876466
 40
0.4489338343
 40
0.4945165827
 40
0.5398263926
 40
0.5844569356
 40
0.6280098048
 40
0.6700994159
 40
0.6904803596
 40
0.7103592794
 40
0.729693806
 40
0.7484434552
 40
0.7665696675
 40
0.7840360763
 40
0.8008088669
 40
0.8168568637
 40
0.8321519595
 40
0.8466695994
 40
0.8603890627
 40
0.8732942405
 40
0.8853744885
 40
0.8966255041
 40
0.9070509781
 40
0.9166645697
 40
0.9254924522
 40
0.9335771843
 40
0.9409823495
 40
0.9477979345
 40
0.9510238666
 40
0.9541508725
 40
0.957199379
 40
0.9601915699
 40
0.9631510446
 40
0.9661022851
 40
0.9690699864
 40
0.9720784087
 40
0.9751507022
 40
0.9783084701
 40
0.9849527923
 40
0.9921504065
 40
1.0
 40
1.0
 40
1.0
 40
1.0
 10
12.0960767949
 20
10.3039287378
 30
0.0
 10
12.0973158289
 20
10.3051255529
 30
0.0
 10
12.1000340828
 20
10.3074961185
 30
0.0
 10
12.1045775319
 20
10.3108469905
 30
0.0
 10
12.109747751
 20
10.3141352221
 30
0.0
 10
12.1155324443
 20
10.3173533219
 30
0.0
 10
12.1219187525
 20
10.3204943539
 30
0.0
 10
12.1288919086
 20
10.3235509269
 30
0.0
 10
12.1364356395
 20
10.3265158053
 30
0.0
 10
12.1445321597
 20
10.3293819372
 30
0.0
 10
12.1531622858
 20
10.3321423855
 30
0.0
 10
12.1623054709
 20
10.3347904529
 30
0.0
 10
12.1719398655
 20
10.3373197655
 30
0.0
 10
12.1820424131
 20
10.3397241562
 30
0.0
 10
12.1925888954
 20
10.3419977823
 30
0.0
 10
12.203553986
 20
10.3441351521
 30
0.0
 10
12.2149113704
 20
10.3461310904
 30
0.0
 10
12.2307399361
 20
10.3486284596
 30
0.0
 10
12.2513049991
 20
10.3513470936
 30
0.0
 10
12.2767898395
 20
10.3539403841
 30
0.0
 10
12.3031372888
 20
10.3558783318
 30
0.0
 10
12.3300940367
 20
10.3571419867
 30
0.0
 10
12.3574011
 20
10.3577188942
 30
0.0
 10
12.3847959785
 20
10.3576033816
 30
0.0
 10
12.4120153138
 20
10.3567966003
 30
0.0
 10
12.4387975341
 20
10.3553064931
 30
0.0
 10
12.4648850889
 20
10.3531476062
 30
0.0
 10
12.4860585763
 20
10.3507845189
 30
0.0
 10
12.5024545521
 20
10.3485639497
 30
0.0
 10
12.514292353
 20
10.3467641065
 30
0.0
 10
12.5257744589
 20
10.3448164358
 30
0.0
 10
12.5368732939
 20
10.3427256661
 30
0.0
 10
12.5475621814
 20
10.3404968648
 30
0.0
 10
12.5578154549
 20
10.3381354154
 30
0.0
 10
12.5676085291
 20
10.335647092
 30
0.0
 10
12.5769179432
 20
10.3330379098
 30
0.0
 10
12.5857214378
 20
10.3303141781
 30
0.0
 10
12.5939980382
 20
10.3274825369
 30
0.0
 10
12.6017280823
 20
10.3245497894
 30
0.0
 10
12.6088933114
 20
10.3215229658
 30
0.0
 10
12.6154769607
 20
10.3184093121
 30
0.0
 10
12.621463765
 20
10.3152160599
 30
0.0
 10
12.6268400598
 20
10.3119504642
 30
0.0
 10
12.6315938438
 20
10.3086195952
 30
0.0
 10
12.635714555
 20
10.3052300705
 30
0.0
 10
12.6391930684
 20
10.3017874477
 30
0.0
 10
12.6420205024
 20
10.2982974683
 30
0.0
 10
12.643859552
 20
10.2952977907
 30
0.0
 10
12.6449705139
 20
10.2928938246
 30
0.0
 10
12.6456204259
 20
10.2911178388
 30
0.0
 10
12.646101496
 20
10.289337355
 30
0.0
 10
12.6464131369
 20
10.2875535408
 30
0.0
 10
12.6465548365
 20
10.2857677787
 30
0.0
 10
12.6465265
 20
10.2839815279
 30
0.0
 10
12.6463281275
 20
10.282196244
 30
0.0
 10
12.6459599365
 20
10.2804134004
 30
0.0
 10
12.6454224933
 20
10.2786342482
 30
0.0
 10
12.6444651677
 20
10.2762284089
 30
0.0
 10
12.6428168367
 20
10.2732205963
 30
0.0
 10
12.6402085146
 20
10.2697158167
 30
0.0
 10
12.6381296141
 20
10.2675115861
 30
0.0
 10
12.6369952897
 20
10.2664159128
 30
0.0
  0
SPLINE
  5
3B6
100
AcDbEntity
  8
0
100
AcDbSpline
 62
7
  6
CONTINUOUS
 70
0
 71
3
 72
39
 73
35
 74
0
 42
0.0000001
 43
0.0000001
 44
0.0000000001
 40
0.0
 40
0.0
 40
0.0
 40
0.0
 40
0.033740211
 40
0.066063027
 40
0.0970303578
 40
0.126718793
 40
0.1552195561
 40
0.1826378049
 40
0.2090935182
 40
0.2347221326
 40
0.2596748263
 40
0.2841166281
 40
0.3082242379
 40
0.3321823874
 40
0.356179604
 40
0.3804034049
 40
0.4050357297
 40
0.430248725
 40
0.456201961
 40
0.4830401781
 40
0.5108926487
 40
0.5398730696
 40
0.5700800399
 40
0.6015984789
 40
0.6345002231
 40
0.6688460638
 40
0.7046862755
 40
0.7420623518
 40
0.7810077964
 40
0.8215489795
 40
0.8637064039
 40
0.9074946837
 40
0.9529240505
 40
1.0
 40
1.0
 40
1.0
 40
1.0
 10
14.6952847678
 20
7.4482599734
 30
0.0
 10
14.6932028201
 20
7.4462489663
 30
0.0
 10
14.6890403854
 20
7.4423989882
 30
0.0
 10
14.6826615988
 20
7.4370453929
 30
0.0
 10
14.6762875901
 20
7.4322429248
 30
0.0
 10
14.6699216877
 20
7.4279945794
 30
0.0
 10
14.663566772
 20
7.4243027883
 30
0.0
 10
14.6572257175
 20
7.4211699522
 30
0.0
 10
14.6509016154
 20
7.4185982398
 30
0.0
 10
14.6445976182
 20
7.4165900328
 30
0.0
 10
14.638317275
 20
7.4151471119
 30
0.0
 10
14.6320643199
 20
7.41427132
 30
0.0
 10
14.6258428973
 20
7.4139637695
 30
0.0
 10
14.6196573675
 20
7.4142251187
 30
0.0
 10
14.6135122264
 20
7.4150553381
 30
0.0
 10
14.6074118298
 20
7.4164534597
 30
0.0
 10
14.6013603501
 20
7.4184182038
 30
0.0
 10
14.5953614662
 20
7.4209473893
 30
0.0
 10
14.5894186185
 20
7.4240388902
 30
0.0
 10
14.5835347824
 20
7.4276900727
 30
0.0
 10
14.5777127769
 20
7.4318983577
 30
0.0
 10
14.5719552747
 20
7.4366610269
 30
0.0
 10
14.5662647802
 20
7.4419751698
 30
0.0
 10
14.560643965
 20
7.447837904
 30
0.0
 10
14.5550952625
 20
7.4542459597
 30
0.0
 10
14.5496213862
 20
7.4611960633
 30
0.0
 10
14.544224845
 20
7.4686845406
 30
0.0
 10
14.5389083095
 20
7.4767075664
 30
0.0
 10
14.5336744111
 20
7.4852610101
 30
0.0
 10
14.5285257142
 20
7.4943404477
 30
0.0
 10
14.5234649287
 20
7.5039412321
 30
0.0
 10
14.5184945179
 20
7.5140583761
 30
0.0
 10
14.513617187
 20
7.5246866051
 30
0.0
 10
14.5104850335
 20
7.5319793988
 30
0.0
 10
14.5089331302
 20
7.5357079989
 30
0.0
  0
SPLINE
  5
3B7
100
AcDbEntity
  8
0
100
AcDbSpline
 62
7
  6
CONTINUOUS
 70
0
 71
3
 72
39
 73
35
 74
0
 42
0.0000001
 43
0.0000001
 44
0.0000000001
 40
0.0
 40
0.0
 40
0.0
 40
0.0
 40
0.0308696799
 40
0.0602452827
 40
0.0882066377
 40
0.1148548785
 40
0.1403110158
 40
0.164716648
 40
0.18823507
 40
0.211051739
 40
0.2333715263
 40
0.2554146517
 40
0.277410356
 40
0.2995895087
 40
0.3221768936
 40
0.3453842343
 40
0.3694053436
 40
0.3944127841
 40
0.4205572111
 40
0.4479673122
 40
0.4767517675
 40
0.5070005662
 40
0.5387877527
 40
0.5721727937
 40
0.6072031788
 40
0.6439153565
 40
0.6823369284
 40
0.7224871161
 40
0.7643785652
 40
0.8080174428
 40
0.8534049372
 40
0.9005370992
 40
0.9494061188
 40
1.0
 40
1.0
 40
1.0
 40
1.0
 10
14.6952847678
 20
9.5242155417
 30
0.0
 10
14.6976827401
 20
9.5265318053
 30
0.0
 10
14.7024764712
 20
9.5309367082
 30
0.0
 10
14.7098475337
 20
9.5369801181
 30
0.0
 10
14.7172118005
 20
9.5422867344
 30
0.0
 10
14.724564386
 20
9.5468521497
 30
0.0
 10
14.7319011761
 20
9.5506723655
 30
0.0
 10
14.73921762
 20
9.5537436995
 30
0.0
 10
14.746508973
 20
9.5560621011
 30
0.0
 10
14.7537696916
 20
9.5576242711
 30
0.0
 10
14.7609936163
 20
9.5584270128
 30
0.0
 10
14.7681737327
 20
9.5584686046
 30
0.0
 10
14.7753025628
 20
9.5577481928
 30
0.0
 10
14.7823726516
 20
9.5562670267
 30
0.0
 10
14.789376976
 20
9.5540272883
 30
0.0
 10
14.7963094895
 20
9.5510327133
 30
0.0
 10
14.8031648578
 20
9.547287182
 30
0.0
 10
14.8099387042
 20
9.5427952716
 30
0.0
 10
14.8166268716
 20
9.5375612539
 30
0.0
 10
14.8232257184
 20
9.5315898228
 30
0.0
 10
14.8297313719
 20
9.5248854898
 30
0.0
 10
14.8361402336
 20
9.5174532745
 30
0.0
 10
14.8424483283
 20
9.5092982771
 30
0.0
 10
14.848651919
 20
9.5004262043
 30
0.0
 10
14.8547469115
 20
9.4908430274
 30
0.0
 10
14.8607294808
 20
9.4805553518
 30
0.0
 10
14.8665955058
 20
9.469570144
 30
0.0
 10
14.8723411654
 20
9.457894986
 30
0.0
 10
14.8779624
 20
9.4455378658
 30
0.0
 10
14.8834554666
 20
9.4325073504
 30
0.0
 10
14.8888164281
 20
9.4188124366
 30
0.0
 10
14.8940416738
 20
9.4044626402
 30
0.0
 10
14.8991274126
 20
9.3894679986
 30
0.0
 10
14.9023667984
 20
9.3792250571
 30
0.0
 10
14.9039648386
 20
9.3739997473
 30
0.0
  0
SPLINE
  5
3B8
100
AcDbEntity
  8
0
100
AcDbSpline
 62
7
  6
CONTINUOUS
 70
0
 71
3
 72
15
 73
11
 74
0
 42
0.0000001
 43
0.0000001
 44
0.0000000001
 40
0.0
 40
0.0
 40
0.0
 40
0.0
 40
0.1514767005
 40
0.2953926722
 40
0.4316897199
 40
0.5603482879
 40
0.6813937886
 40
0.7949055568
 40
0.9010340493
 40
1.0
 40
1.0
 40
1.0
 40
1.0
 10
14.7793552293
 20
7.578021874
 30
0.0
 10
14.7760451976
 20
7.5709073161
 30
0.0
 10
14.7694005814
 20
7.5571203368
 30
0.0
 10
14.7590726293
 20
7.5372812896
 30
0.0
 10
14.7486514466
 20
7.5188364669
 30
0.0
 10
14.7381521088
 20
7.5018124863
 30
0.0
 10
14.7275895873
 20
7.4862336443
 30
0.0
 10
14.7169782674
 20
7.4721214452
 30
0.0
 10
14.7063333174
 20
7.459496758
 30
0.0
 10
14.6989721539
 20
7.4518217151
 30
0.0
 10
14.6952847678
 20
7.4482599734
 30
0.0
  0
SPLINE
  5
3B9
100
AcDbEntity
  8
0
100
AcDbSpline
 62
7
  6
CONTINUOUS
 70
0
 71
3
 72
11
 73
7
 74
0
 42
0.0000001
 43
0.0000001
 44
0.0000000001
 40
0.0
 40
0.0
 40
0.0
 40
0.0
 40
0.2447348134
 40
0.4934290448
 40
0.7454116556
 40
1.0
 40
1.0
 40
1.0
 40
1.0
 10
7.7027504078
 20
8.0679652692
 30
0.0
 10
7.7056199499
 20
8.0853150798
 30
0.0
 10
7.7111358615
 20
8.1203405143
 30
0.0
 10
7.7186873888
 20
8.1733691601
 30
0.0
 10
7.7255683275
 20
8.2272028026
 30
0.0
 10
7.729677787
 20
8.2633713086
 30
0.0
 10
7.7316184916
 20
8.281561616
 30
0.0
  0
SPLINE
  5
3BA
100
AcDbEntity
  8
0
100
AcDbSpline
 62
7
  6
CONTINUOUS
 70
0
 71
3
 72
19
 73
15
 74
0
 42
0.0000001
 43
0.0000001
 44
0.0000000001
 40
0.0
 40
0.0
 40
0.0
 40
0.0
 40
0.1504606045
 40
0.2916987426
 40
0.4244196315
 40
0.4878837617
 40
0.5495802095
 40
0.6682271643
 40
0.725560624
 40
0.7817998875
 40
0.8371466904
 40
0.89181361
 40
0.9460221894
 40
1.0
 40
1.0
 40
1.0
 40
1.0
 10
14.6715312657
 20
7.4910495567
 30
0.0
 10
14.6686137089
 20
7.4882314131
 30
0.0
 10
14.6627825913
 20
7.4829437667
 30
0.0
 10
14.6537536801
 20
7.4758973544
 30
0.0
 10
14.6461273274
 20
7.4709137475
 30
0.0
 10
14.6400458133
 20
7.4675389853
 30
0.0
 10
14.6341437065
 20
7.4646416965
 30
0.0
 10
14.628172503
 20
7.4622734054
 30
0.0
 10
14.6221676992
 20
7.4604912601
 30
0.0
 10
14.6177279096
 20
7.4594640315
 30
0.0
 10
14.6133029044
 20
7.4587318504
 30
0.0
 10
14.6088938455
 20
7.4582951086
 30
0.0
 10
14.6045025175
 20
7.4581539834
 30
0.0
 10
14.6015850448
 20
7.458257162
 30
0.0
 10
14.6001333096
 20
7.4583578344
 30
0.0
  0
SPLINE
  5
3BB
100
AcDbEntity
  8
0
100
AcDbSpline
 62
7
  6
CONTINUOUS
 70
0
 71
3
 72
55
 73
51
 74
0
 42
0.0000001
 43
0.0000001
 44
0.0000000001
 40
0.0
 40
0.0
 40
0.0
 40
0.0
 40
0.0118394237
 40
0.0231850643
 40
0.0340057475
 40
0.0442776302
 40
0.053989868
 40
0.0631506125
 40
0.0717947012
 40
0.0799900188
 40
0.0839529678
 40
0.0878457485
 40
0.091686263
 40
0.0954941662
 40
0.0992897288
 40
0.1030933976
 40
0.1069253714
 40
0.1108046243
 40
0.1187691956
 40
0.1271095084
 40
0.1359096175
 40
0.1452225159
 40
0.1550756415
 40
0.1654778466
 40
0.1764247053
 40
0.1879035802
 40
0.1998970287
 40
0.2123848798
 40
0.2253465497
 40
0.2387612042
 40
0.2526092495
 40
0.2668720719
 40
0.2815323635
 40
0.2965745687
 40
0.3277473639
 40
0.3602890334
 40
0.3941143909
 40
0.4291501273
 40
0.4653305506
 40
0.5025934143
 40
0.540875878
 40
0.5801105754
 40
0.6202217277
 40
0.6611213334
 40
0.7448450101
 40
0.8302154865
 40
0.8730941046
 40
0.9158306218
 40
0.9582064398
 40
1.0
 40
1.0
 40
1.0
 40
1.0
 10
11.8916609731
 20
7.518270646
 30
0.0
 10
11.8951660549
 20
7.5180292986
 30
0.0
 10
11.9020426423
 20
7.5177177104
 30
0.0
 10
11.912138807
 20
7.5177999115
 30
0.0
 10
11.9217490046
 20
7.5184597935
 30
0.0
 10
11.9308121629
 20
7.5197157718
 30
0.0
 10
11.9392673724
 20
7.5215852122
 30
0.0
 10
11.947055692
 20
7.5240847091
 30
0.0
 10
11.9541205769
 20
7.5272270226
 30
0.0
 10
11.9594232991
 20
7.5304265996
 30
0.0
 10
11.9632212037
 20
7.5333072457
 30
0.0
 10
11.9658292345
 20
7.5356024674
 30
0.0
 10
11.9682243397
 20
7.538055225
 30
0.0
 10
11.9704052031
 20
7.540662893
 30
0.0
 10
11.9723709495
 20
7.5434229313
 30
0.0
 10
11.974121304
 20
7.5463325509
 30
0.0
 10
11.975658397
 20
7.5493880167
 30
0.0
 10
11.9774413087
 20
7.553688435
 30
0.0
 10
11.9791445205
 20
7.5594509961
 30
0.0
 10
11.9803646299
 20
7.5668159614
 30
0.0
 10
11.9808332446
 20
7.5746641337
 30
0.0
 10
11.9806050867
 20
7.5829685479
 30
0.0
 10
11.9797371977
 20
7.5917060699
 30
0.0
 10
11.978285703
 20
7.6008552038
 30
0.0
 10
11.9763049586
 20
7.6103964689
 30
0.0
 10
11.9738473028
 20
7.6203124203
 30
0.0
 10
11.970961505
 20
7.6305874867
 30
0.0
 10
11.967694039
 20
7.6412084303
 30
0.0
 10
11.964086863
 20
7.6521634651
 30
0.0
 10
11.9601798677
 20
7.6634430278
 30
0.0
 10
11.9560086789
 20
7.6750386378
 30
0.0
 10
11.9516066352
 20
7.686943405
 30
0.0
 10
11.9470043498
 20
7.6991516068
 30
0.0
 10
11.9405604812
 20
7.7160281779
 30
0.0
 10
11.9321486283
 20
7.7378331527
 30
0.0
 10
11.9217700999
 20
7.7648537737
 30
0.0
 10
11.9111495002
 20
7.7930091042
 30
0.0
 10
11.900429075
 20
7.8222796698
 30
0.0
 10
11.8897383072
 20
7.8526451551
 30
0.0
 10
11.8791980119
 20
7.8840815282
 30
0.0
 10
11.8689232821
 20
7.9165581008
 30
0.0
 10
11.8590257913
 20
7.9500343769
 30
0.0
 10
11.8496152547
 20
7.9844572828
 30
0.0
 10
11.8377706125
 20
8.0318895298
 30
0.0
 10
11.8248331598
 20
8.0928754
 30
0.0
 10
11.8150314975
 20
8.155046339
 30
0.0
 10
11.8093177245
 20
8.2054705721
 30
0.0
 10
11.8061921611
 20
8.2433298783
 30
0.0
 10
11.80428837
 20
8.2809476096
 30
0.0
 10
11.8038533993
 20
8.3059270056
 30
0.0
 10
11.8038533993
 20
8.3183293584
 30
0.0
  0
SPLINE
  5
3BC
100
AcDbEntity
  8
0
100
AcDbSpline
 62
7
  6
CONTINUOUS
 70
0
 71
3
 72
15
 73
11
 74
0
 42
0.0000001
 43
0.0000001
 44
0.0000000001
 40
0.0
 40
0.0
 40
0.0
 40
0.0
 40
0.103672771
 40
0.2132126588
 40
0.3287751651
 40
0.4504834983
 40
0.578423632
 40
0.7126453224
 40
0.8531710758
 40
1.0
 40
1.0
 40
1.0
 40
1.0
 10
14.6715312657
 20
7.4910495567
 30
0.0
 10
14.6742790388
 20
7.4937037018
 30
0.0
 10
14.6797687525
 20
7.4993310126
 30
0.0
 10
14.6877724524
 20
7.5084320404
 30
0.0
 10
14.6957606473
 20
7.518413079
 30
0.0
 10
14.7037262074
 20
7.5292647557
 30
0.0
 10
14.7116624847
 20
7.5409778283
 30
0.0
 10
14.7195625946
 20
7.5535420526
 30
0.0
 10
14.727419495
 20
7.5669462354
 30
0.0
 10
14.7325126873
 20
7.5762315574
 30
0.0
 10
14.7350538755
 20
7.5810082629
 30
0.0
  0
SPLINE
  5
3BD
100
AcDbEntity
  8
0
100
AcDbSpline
 62
7
  6
CONTINUOUS
 70
0
 71
3
 72
26
 73
22
 74
0
 42
0.0000001
 43
0.0000001
 44
0.0000000001
 40
0.0
 40
0.0
 40
0.0
 40
0.0
 40
0.0900611864
 40
0.176004571
 40
0.2578303452
 40
0.3355575828
 40
0.4092259639
 40
0.4789005547
 40
0.5446758749
 40
0.6066814599
 40
0.6650892261
 40
0.7201202673
 40
0.7720544732
 40
0.7969726166
 40
0.8212526125
 40
0.8681047724
 40
0.9131204284
 40
0.9351239204
 40
0.9568853117
 40
0.9784836727
 40
1.0
 40
1.0
 40
1.0
 40
1.0
 10
14.8596700432
 20
9.3771968798
 30
0.0
 10
14.8576969565
 20
9.382598101
 30
0.0
 10
14.8536973494
 20
9.3931019786
 30
0.0
 10
14.8473729468
 20
9.408303806
 30
0.0
 10
14.8408695555
 20
9.4225693223
 30
0.0
 10
14.8341937922
 20
9.4358842503
 30
0.0
 10
14.8273520445
 20
9.4482354603
 30
0.0
 10
14.820350883
 20
9.459610847
 30
0.0
 10
14.8131967606
 20
9.4699993404
 30
0.0
 10
14.8058959688
 20
9.4793907147
 30
0.0
 10
14.7984545653
 20
9.4877758974
 30
0.0
 10
14.7908788086
 20
9.4951457235
 30
0.0
 10
14.7843700394
 20
9.5005071047
 30
0.0
 10
14.7791077378
 20
9.5042532614
 30
0.0
 10
14.7739423162
 20
9.5075629083
 30
0.0
 10
14.7673988032
 20
9.5110840753
 30
0.0
 10
14.7606327162
 20
9.5137940679
 30
0.0
 10
14.755197504
 20
9.5154144898
 30
0.0
 10
14.7511293135
 20
9.516358234
 30
0.0
 10
14.7470406802
 20
9.5170388574
 30
0.0
 10
14.744299729
 20
9.5173172631
 30
0.0
 10
14.7429292219
 20
9.5174123026
 30
0.0
  0
SPLINE
  5
3BE
100
AcDbEntity
  8
0
100
AcDbSpline
 62
7
  6
CONTINUOUS
 70
0
 71
3
 72
39
 73
35
 74
0
 42
0.0000001
 43
0.0000001
 44
0.0000000001
 40
0.0
 40
0.0
 40
0.0
 40
0.0
 40
0.0314026063
 40
0.0630095008
 40
0.0948071053
 40
0.1267734461
 40
0.1588809724
 40
0.1910970224
 40
0.2233851129
 40
0.2557062443
 40
0.2880202662
 40
0.3202872758
 40
0.3524690069
 40
0.3845301825
 40
0.4164397923
 40
0.4481722508
 40
0.4797084082
 40
0.5110363786
 40
0.5421521202
 40
0.573059743
 40
0.603771519
 40
0.6343075555
 40
0.6646951121
 40
0.6949675899
 40
0.7251632182
 40
0.7553234779
 40
0.7854913543
 40
0.8157095101
 40
0.8460184695
 40
0.8764549218
 40
0.9070502371
 40
0.9378293223
 40
0.9688091211
 40
1.0
 40
1.0
 40
1.0
 40
1.0
 10
12.6653770308
 20
8.773538818
 30
0.0
 10
12.6571023045
 20
8.7741126723
 30
0.0
 10
12.6405445861
 20
8.7760795751
 30
0.0
 10
12.6160416925
 20
8.7814216619
 30
0.0
 10
12.5920137408
 20
8.7891136424
 30
0.0
 10
12.56869448
 20
8.7990809835
 30
0.0
 10
12.5463069264
 20
8.8112273768
 30
0.0
 10
12.5250660442
 20
8.8254357383
 30
0.0
 10
12.5051755331
 20
8.8415694054
 30
0.0
 10
12.4868262905
 20
8.8594734081
 30
0.0
 10
12.4701943869
 20
8.8789758048
 30
0.0
 10
12.4554395247
 20
8.8998894292
 30
0.0
 10
12.4427035758
 20
8.9220136664
 30
0.0
 10
12.4321091684
 20
8.9451362729
 30
0.0
 10
12.4237584383
 20
8.969035354
 30
0.0
 10
12.4177321976
 20
8.993481519
 30
0.0
 10
12.4140891533
 20
9.0182399958
 30
0.0
 10
12.4128651278
 20
9.0430727988
 30
0.0
 10
12.4140727787
 20
9.0677410106
 30
0.0
 10
12.4177014843
 20
9.0920070223
 30
0.0
 10
12.423717286
 20
9.1156367831
 30
0.0
 10
12.4320629972
 20
9.13840211
 30
0.0
 10
12.4426588465
 20
9.160082894
 30
0.0
 10
12.4554031595
 20
9.1804692559
 30
0.0
 10
12.4701731276
 20
9.1993637608
 30
0.0
 10
12.486826067
 20
9.2165834292
 30
0.0
 10
12.505200902
 20
9.2319615432
 30
0.0
 10
12.5251197435
 20
9.2453493655
 30
0.0
 10
12.5463896056
 20
9.2566177838
 30
0.0
 10
12.5688046096
 20
9.2656584048
 30
0.0
 10
12.5921477294
 20
9.2723845887
 30
0.0
 10
12.6161940928
 20
9.2767321454
 30
0.0
 10
12.6407086938
 20
9.2786605541
 30
0.0
 10
12.6571580957
 20
9.2783221143
 30
0.0
 10
12.6653770308
 20
9.2777521292
 30
0.0
  0
SPLINE
  5
3BF
100
AcDbEntity
  8
0
100
AcDbSpline
 62
7
  6
CONTINUOUS
 70
0
 71
3
 72
39
 73
35
 74
0
 42
0.0000001
 43
0.0000001
 44
0.0000000001
 40
0.0
 40
0.0
 40
0.0
 40
0.0
 40
0.0314026063
 40
0.0630095008
 40
0.0948071053
 40
0.1267734461
 40
0.1588809724
 40
0.1910970224
 40
0.2233851129
 40
0.2557062443
 40
0.2880202662
 40
0.3202872758
 40
0.3524690069
 40
0.3845301825
 40
0.4164397923
 40
0.4481722508
 40
0.4797084082
 40
0.5110363786
 40
0.5421521202
 40
0.573059743
 40
0.603771519
 40
0.6343075555
 40
0.6646951121
 40
0.6949675899
 40
0.7251632182
 40
0.7553234779
 40
0.7854913543
 40
0.8157095101
 40
0.8460184695
 40
0.8764549218
 40
0.9070502371
 40
0.9378293223
 40
0.9688091211
 40
1.0
 40
1.0
 40
1.0
 40
1.0
 10
12.6653770308
 20
9.2777521292
 30
0.0
 10
12.673651757
 20
9.277178275
 30
0.0
 10
12.6902094754
 20
9.2752113722
 30
0.0
 10
12.7147123691
 20
9.2698692854
 30
0.0
 10
12.7387403208
 20
9.2621773049
 30
0.0
 10
12.7620595816
 20
9.2522099638
 30
0.0
 10
12.7844471352
 20
9.2400635705
 30
0.0
 10
12.8056880174
 20
9.2258552089
 30
0.0
 10
12.8255785285
 20
9.2097215419
 30
0.0
 10
12.8439277711
 20
9.1918175392
 30
0.0
 10
12.8605596747
 20
9.1723151425
 30
0.0
 10
12.8753145369
 20
9.1514015181
 30
0.0
 10
12.8880504858
 20
9.1292772809
 30
0.0
 10
12.8986448932
 20
9.1061546744
 30
0.0
 10
12.9069956233
 20
9.0822555933
 30
0.0
 10
12.913021864
 20
9.0578094283
 30
0.0
 10
12.9166649083
 20
9.0330509515
 30
0.0
 10
12.9178889338
 20
9.0082181485
 30
0.0
 10
12.9166812829
 20
8.9835499367
 30
0.0
 10
12.9130525773
 20
8.959283925
 30
0.0
 10
12.9070367756
 20
8.9356541641
 30
0.0
 10
12.8986910644
 20
8.9128888372
 30
0.0
 10
12.8880952151
 20
8.8912080532
 30
0.0
 10
12.8753509021
 20
8.8708216914
 30
0.0
 10
12.860580934
 20
8.8519271865
 30
0.0
 10
12.8439279946
 20
8.8347075181
 30
0.0
 10
12.8255531596
 20
8.8193294041
 30
0.0
 10
12.8056343181
 20
8.8059415818
 30
0.0
 10
12.784364456
 20
8.7946731635
 30
0.0
 10
12.761949452
 20
8.7856325425
 30
0.0
 10
12.7386063322
 20
8.7789063586
 30
0.0
 10
12.7145599688
 20
8.7745588019
 30
0.0
 10
12.6900453678
 20
8.7726303931
 30
0.0
 10
12.6735959659
 20
8.772968833
 30
0.0
 10
12.6653770308
 20
8.773538818
 30
0.0
  0
SPLINE
  5
3C0
100
AcDbEntity
  8
0
100
AcDbSpline
 62
7
  6
CONTINUOUS
 70
0
 71
3
 72
39
 73
35
 74
0
 42
0.0000001
 43
0.0000001
 44
0.0000000001
 40
0.0
 40
0.0
 40
0.0
 40
0.0
 40
0.0314026063
 40
0.0630095008
 40
0.0948071053
 40
0.1267734461
 40
0.1588809724
 40
0.1910970224
 40
0.2233851129
 40
0.2557062443
 40
0.2880202662
 40
0.3202872758
 40
0.3524690069
 40
0.3845301825
 40
0.4164397923
 40
0.4481722508
 40
0.4797084082
 40
0.5110363786
 40
0.5421521202
 40
0.573059743
 40
0.603771519
 40
0.6343075555
 40
0.6646951121
 40
0.6949675899
 40
0.7251632182
 40
0.7553234779
 40
0.7854913543
 40
0.8157095101
 40
0.8460184695
 40
0.8764549218
 40
0.9070502371
 40
0.9378293223
 40
0.9688091211
 40
1.0
 40
1.0
 40
1.0
 40
1.0
 10
12.6653770308
 20
6.1172426384
 30
0.0
 10
12.6571023045
 20
6.1178164926
 30
0.0
 10
12.6405445861
 20
6.1197833954
 30
0.0
 10
12.6160416925
 20
6.1251254822
 30
0.0
 10
12.5920137408
 20
6.1328174627
 30
0.0
 10
12.56869448
 20
6.1427848038
 30
0.0
 10
12.5463069264
 20
6.1549311971
 30
0.0
 10
12.5250660442
 20
6.1691395586
 30
0.0
 10
12.5051755331
 20
6.1852732257
 30
0.0
 10
12.4868262905
 20
6.2031772284
 30
0.0
 10
12.4701943869
 20
6.2226796251
 30
0.0
 10
12.4554395247
 20
6.2435932495
 30
0.0
 10
12.4427035758
 20
6.2657174867
 30
0.0
 10
12.4321091684
 20
6.2888400932
 30
0.0
 10
12.4237584383
 20
6.3127391743
 30
0.0
 10
12.4177321976
 20
6.3371853393
 30
0.0
 10
12.4140891533
 20
6.3619438161
 30
0.0
 10
12.4128651278
 20
6.3867766191
 30
0.0
 10
12.4140727787
 20
6.4114448309
 30
0.0
 10
12.4177014843
 20
6.4357108426
 30
0.0
 10
12.423717286
 20
6.4593406035
 30
0.0
 10
12.4320629972
 20
6.4821059304
 30
0.0
 10
12.4426588465
 20
6.5037867144
 30
0.0
 10
12.4554031595
 20
6.5241730762
 30
0.0
 10
12.4701731276
 20
6.5430675811
 30
0.0
 10
12.486826067
 20
6.5602872495
 30
0.0
 10
12.505200902
 20
6.5756653635
 30
0.0
 10
12.5251197435
 20
6.5890531858
 30
0.0
 10
12.5463896056
 20
6.6003216041
 30
0.0
 10
12.5688046096
 20
6.6093622251
 30
0.0
 10
12.5921477294
 20
6.616088409
 30
0.0
 10
12.6161940928
 20
6.6204359657
 30
0.0
 10
12.6407086938
 20
6.6223643745
 30
0.0
 10
12.6571580957
 20
6.6220259346
 30
0.0
 10
12.6653770308
 20
6.6214559496
 30
0.0
  0
SPLINE
  5
3C1
100
AcDbEntity
  8
0
100
AcDbSpline
 62
7
  6
CONTINUOUS
 70
0
 71
3
 72
23
 73
19
 74
0
 42
0.0000001
 43
0.0000001
 44
0.0000000001
 40
0.0
 40
0.0
 40
0.0
 40
0.0
 40
0.0749616414
 40
0.1455674146
 40
0.2121585626
 40
0.275161383
 40
0.3350964033
 40
0.3925812682
 40
0.4483275888
 40
0.5031218566
 40
0.5577966535
 40
0.6131903874
 40
0.6701057616
 40
0.7292769217
 40
0.7913507907
 40
0.8568788261
 40
0.9263120459
 40
1.0
 40
1.0
 40
1.0
 40
1.0
 10
12.0967743438
 20
10.2657546617
 30
0.0
 10
12.0959658307
 20
10.2665070764
 30
0.0
 10
12.0944406433
 20
10.2680176998
 30
0.0
 10
12.0923826454
 20
10.2703744254
 30
0.0
 10
12.0906277423
 20
10.2727498463
 30
0.0
 10
12.0891785307
 20
10.2751418679
 30
0.0
 10
12.088037385
 20
10.2775483629
 30
0.0
 10
12.0872069783
 20
10.2799669101
 30
0.0
 10
12.0866894737
 20
10.2823943441
 30
0.0
 10
12.0864869176
 20
10.2848268643
 30
0.0
 10
12.0865998944
 20
10.287260033
 30
0.0
 10
12.0870281578
 20
10.2896893422
 30
0.0
 10
12.0877699584
 20
10.2921107424
 30
0.0
 10
12.0888230908
 20
10.2945209263
 30
0.0
 10
12.090185104
 20
10.2969172897
 30
0.0
 10
12.0918535496
 20
10.2992977211
 30
0.0
 10
12.0938257803
 20
10.3016599004
 30
0.0
 10
12.095295908
 20
10.303174459
 30
0.0
 10
12.0960767949
 20
10.3039287378
 30
0.0
  0
SPLINE
  5
3C2
100
AcDbEntity
  8
0
100
AcDbSpline
 62
7
  6
CONTINUOUS
 70
0
 71
3
 72
49
 73
45
 74
0
 42
0.0000001
 43
0.0000001
 44
0.0000000001
 40
0.0
 40
0.0
 40
0.0
 40
0.0
 40
0.0080828859
 40
0.0167327789
 40
0.0259629395
 40
0.0357808876
 40
0.0461895354
 40
0.0571879245
 40
0.0687717801
 40
0.0809341245
 40
0.0936654211
 40
0.1069541803
 40
0.1351467567
 40
0.1653865907
 40
0.1975241709
 40
0.2313913573
 40
0.2668042828
 40
0.3035657999
 40
0.3414676505
 40
0.3802924682
 40
0.4198156794
 40
0.4598073438
 40
0.5000339595
 40
0.5402602489
 40
0.5802509368
 40
0.6197725281
 40
0.6585950938
 40
0.6964940768
 40
0.7332521323
 40
0.7686610297
 40
0.8025236548
 40
0.8346561807
 40
0.8648905152
 40
0.8930772021
 40
0.9063628829
 40
0.9190910548
 40
0.9312502029
 40
0.9428307969
 40
0.9538259618
 40
0.964231331
 40
0.9740459712
 40
0.9832726633
 40
0.9919196262
 40
1.0
 40
1.0
 40
1.0
 40
1.0
 10
12.5678880914
 20
10.2348482186
 30
0.0
 10
12.5670259947
 20
10.2355605189
 30
0.0
 10
12.5651891514
 20
10.2369726369
 30
0.0
 10
12.5622156902
 20
10.2389909189
 30
0.0
 10
12.5589366001
 20
10.2409769867
 30
0.0
 10
12.555357003
 20
10.2429278234
 30
0.0
 10
12.5514822427
 20
10.2448405227
 30
0.0
 10
12.5473182432
 20
10.2467121425
 30
0.0
 10
12.5428713916
 20
10.2485398141
 30
0.0
 10
12.5381485435
 20
10.2503206415
 30
0.0
 10
12.5331570134
 20
10.2520519295
 30
0.0
 10
12.5260119805
 20
10.2543356466
 30
0.0
 10
12.5164589692
 20
10.2570314752
 30
0.0
 10
12.5042746597
 20
10.2599681786
 30
0.0
 10
12.4912290508
 20
10.2626483083
 30
0.0
 10
12.4774035231
 20
10.2650548031
 30
0.0
 10
12.4628841966
 20
10.2671722804
 30
0.0
 10
12.4477617753
 20
10.268987243
 30
0.0
 10
12.4321308048
 20
10.270488129
 30
0.0
 10
12.4160890882
 20
10.2716653881
 30
0.0
 10
12.3997370429
 20
10.2725115348
 30
0.0
 10
12.3831770596
 20
10.2730211921
 30
0.0
 10
12.3665128489
 20
10.2731911224
 30
0.0
 10
12.3498487829
 20
10.2730202465
 30
0.0
 10
12.333289233
 20
10.2725096496
 30
0.0
 10
12.3169379072
 20
10.2716625749
 30
0.0
 10
12.3008971922
 20
10.2704844053
 30
0.0
 10
12.2852674993
 20
10.268982632
 30
0.0
 10
12.270146624
 20
10.2671668109
 30
0.0
 10
12.255629102
 20
10.2650485098
 30
0.0
 10
12.241805626
 20
10.262641231
 30
0.0
 10
12.2287623027
 20
10.2599603628
 30
0.0
 10
12.2165804984
 20
10.2570229693
 30
0.0
 10
12.2070297211
 20
10.2543265868
 30
0.0
 10
12.1998865812
 20
10.252042441
 30
0.0
 10
12.1948965255
 20
10.2503108698
 30
0.0
 10
12.1901751918
 20
10.248529782
 30
0.0
 10
12.1857298965
 20
10.2467018469
 30
0.0
 10
12.1815674759
 20
10.2448300063
 30
0.0
 10
12.1776943566
 20
10.2429170487
 30
0.0
 10
12.1741164211
 20
10.240966067
 30
0.0
 10
12.170839029
 20
10.238979787
 30
0.0
 10
12.1678671772
 20
10.2369613221
 30
0.0
 10
12.1660314807
 20
10.2355489447
 30
0.0
 10
12.1651699194
 20
10.234836542
 30
0.0
  0
SPLINE
  5
3C3
100
AcDbEntity
  8
0
100
AcDbSpline
 62
7
  6
CONTINUOUS
 70
0
 71
3
 72
41
 73
37
 74
0
 42
0.0000001
 43
0.0000001
 44
0.0000000001
 40
0.0
 40
0.0
 40
0.0
 40
0.0
 40
0.0311443731
 40
0.0624425498
 40
0.0938872324
 40
0.1254695881
 40
0.1571771015
 40
0.1889951224
 40
0.2209066715
 40
0.2528929757
 40
0.28493379
 40
0.3170078157
 40
0.3490931116
 40
0.3811675191
 40
0.4132090895
 40
0.4451965082
 40
0.4771095106
 40
0.5089292837
 40
0.5406388474
 40
0.5722234085
 40
0.6036706805
 40
0.6349711645
 40
0.6661183811
 40
0.6971090487
 40
0.7279432008
 40
0.7586242349
 40
0.7891588899
 40
0.8195571457
 40
0.8498320452
 40
0.8649308854
 40
0.8800050464
 40
0.9100832538
 40
0.9400926721
 40
0.9550812717
 40
0.9700610341
 40
1.0
 40
1.0
 40
1.0
 40
1.0
 10
7.0883475891
 20
9.1936217441
 30
0.0
 10
7.0828282821
 20
9.1940045094
 30
0.0
 10
7.0717863253
 20
9.1951759472
 30
0.0
 10
7.0553572886
 20
9.1981267183
 30
0.0
 10
7.0391041813
 20
9.2022600007
 30
0.0
 10
7.0231148833
 20
9.2075533639
 30
0.0
 10
7.0074742609
 20
9.2139785756
 30
0.0
 10
6.9922657694
 20
9.2215011933
 30
0.0
 10
6.9775704222
 20
9.2300810484
 30
0.0
 10
6.9634665239
 20
9.2396723172
 30
0.0
 10
6.9500292205
 20
9.2502238263
 30
0.0
 10
6.937330111
 20
9.2616792989
 30
0.0
 10
6.9254368695
 20
9.2739776613
 30
0.0
 10
6.914412888
 20
9.2870533626
 30
0.0
 10
6.9043169423
 20
9.3008367216
 30
0.0
 10
6.8952028811
 20
9.3152542937
 30
0.0
 10
6.8871193417
 20
9.330229258
 30
0.0
 10
6.8801094902
 20
9.3456818213
 30
0.0
 10
6.874210792
 20
9.3615296385
 30
0.0
 10
6.8694548141
 20
9.3776882465
 30
0.0
 10
6.8658670545
 20
9.3940715084
 30
0.0
 10
6.8634668041
 20
9.4105920659
 30
0.0
 10
6.86226704
 20
9.4271618003
 30
0.0
 10
6.8622743486
 20
9.4436922918
 30
0.0
 10
6.8634888913
 20
9.4600953038
 30
0.0
 10
6.8659043637
 20
9.4762831851
 30
0.0
 10
6.8695081326
 20
9.4921695768
 30
0.0
 10
6.8742808742
 20
9.5076689839
 30
0.0
 10
6.8792166498
 20
9.520207114
 30
0.0
 10
6.8837208869
 20
9.5299574109
 30
0.0
 10
6.8885817035
 20
9.5394957622
 30
0.0
 10
6.8953307921
 20
9.5510328395
 30
0.0
 10
6.9029478567
 20
9.5619978326
 30
0.0
 10
6.9095301882
 20
9.5703791495
 30
0.0
 10
6.9164264303
 20
9.5784869704
 30
0.0
 10
6.9219515984
 20
9.5842589853
 30
0.0
 10
6.9257768895
 20
9.5879539638
 30
0.0
  0
SPLINE
  5
3C4
100
AcDbEntity
  8
0
100
AcDbSpline
 62
7
  6
CONTINUOUS
 70
0
 71
3
 72
41
 73
37
 74
0
 42
0.0000001
 43
0.0000001
 44
0.0000000001
 40
0.0
 40
0.0
 40
0.0
 40
0.0
 40
0.0311443731
 40
0.0624425498
 40
0.0938872324
 40
0.1254695881
 40
0.1571771015
 40
0.1889951224
 40
0.2209066715
 40
0.2528929757
 40
0.28493379
 40
0.3170078157
 40
0.3490931116
 40
0.3811675191
 40
0.4132090895
 40
0.4451965082
 40
0.4771095106
 40
0.5089292837
 40
0.5406388474
 40
0.5722234085
 40
0.6036706805
 40
0.6349711645
 40
0.6661183811
 40
0.6971090487
 40
0.7279432008
 40
0.7586242349
 40
0.7891588899
 40
0.8195571457
 40
0.8498320452
 40
0.8649308854
 40
0.8800050464
 40
0.9100832538
 40
0.9400926721
 40
0.9550812717
 40
0.9700610341
 40
1.0
 40
1.0
 40
1.0
 40
1.0
 10
8.446439514
 20
9.0994377492
 30
0.0
 10
8.440920207
 20
9.0998205145
 30
0.0
 10
8.4298782502
 20
9.1009919523
 30
0.0
 10
8.4134492134
 20
9.1039427234
 30
0.0
 10
8.3971961062
 20
9.1080760058
 30
0.0
 10
8.3812068082
 20
9.113369369
 30
0.0
 10
8.3655661858
 20
9.1197945808
 30
0.0
 10
8.3503576943
 20
9.1273171985
 30
0.0
 10
8.3356623471
 20
9.1358970535
 30
0.0
 10
8.3215584488
 20
9.1454883224
 30
0.0
 10
8.3081211454
 20
9.1560398315
 30
0.0
 10
8.2954220359
 20
9.167495304
 30
0.0
 10
8.2835287943
 20
9.1797936664
 30
0.0
 10
8.2725048129
 20
9.1928693677
 30
0.0
 10
8.2624088672
 20
9.2066527268
 30
0.0
 10
8.253294806
 20
9.2210702988
 30
0.0
 10
8.2452112666
 20
9.2360452631
 30
0.0
 10
8.2382014151
 20
9.2514978264
 30
0.0
 10
8.2323027169
 20
9.2673456436
 30
0.0
 10
8.227546739
 20
9.2835042516
 30
0.0
 10
8.2239589794
 20
9.2998875135
 30
0.0
 10
8.221558729
 20
9.316408071
 30
0.0
 10
8.2203589649
 20
9.3329778055
 30
0.0
 10
8.2203662735
 20
9.349508297
 30
0.0
 10
8.2215808161
 20
9.3659113089
 30
0.0
 10
8.2239962886
 20
9.3820991902
 30
0.0
 10
8.2276000574
 20
9.3979855819
 30
0.0
 10
8.2323727991
 20
9.4134849891
 30
0.0
 10
8.2373085747
 20
9.4260231191
 30
0.0
 10
8.2418128118
 20
9.4357734161
 30
0.0
 10
8.2466736284
 20
9.4453117674
 30
0.0
 10
8.253422717
 20
9.4568488446
 30
0.0
 10
8.2610397816
 20
9.4678138377
 30
0.0
 10
8.2676221131
 20
9.4761951546
 30
0.0
 10
8.2745183552
 20
9.4843029755
 30
0.0
 10
8.2800435233
 20
9.4900749904
 30
0.0
 10
8.2838688144
 20
9.4937699689
 30
0.0
  0
SPLINE
  5
3C5
100
AcDbEntity
  8
0
100
AcDbSpline
 62
7
  6
CONTINUOUS
 70
0
 71
3
 72
15
 73
11
 74
0
 42
0.0000001
 43
0.0000001
 44
0.0000000001
 40
0.0
 40
0.0
 40
0.0
 40
0.0
 40
0.1431539673
 40
0.2810376987
 40
0.4136712803
 40
0.5410896128
 40
0.6633465419
 40
0.7805182457
 40
0.8926987413
 40
1.0
 40
1.0
 40
1.0
 40
1.0
 10
14.6419251944
 20
9.4533919926
 30
0.0
 10
14.6440810385
 20
9.4570472008
 30
0.0
 10
14.6483984387
 20
9.4641733735
 30
0.0
 10
14.6550232533
 20
9.4744942911
 30
0.0
 10
14.6616715609
 20
9.484240652
 30
0.0
 10
14.6683395226
 20
9.4934068119
 30
0.0
 10
14.6750234662
 20
9.5019875815
 30
0.0
 10
14.681719733
 20
9.5099781975
 30
0.0
 10
14.6884243207
 20
9.5173736666
 30
0.0
 10
14.692996961
 20
9.5220056899
 30
0.0
 10
14.6952847678
 20
9.5242155417
 30
0.0
  0
SPLINE
  5
3C6
100
AcDbEntity
  8
0
100
AcDbSpline
 62
7
  6
CONTINUOUS
 70
0
 71
3
 72
39
 73
35
 74
0
 42
0.0000001
 43
0.0000001
 44
0.0000000001
 40
0.0
 40
0.0
 40
0.0
 40
0.0
 40
0.0314026063
 40
0.0630095008
 40
0.0948071053
 40
0.1267734461
 40
0.1588809724
 40
0.1910970224
 40
0.2233851129
 40
0.2557062443
 40
0.2880202662
 40
0.3202872758
 40
0.3524690069
 40
0.3845301825
 40
0.4164397923
 40
0.4481722508
 40
0.4797084082
 40
0.5110363786
 40
0.5421521202
 40
0.573059743
 40
0.603771519
 40
0.6343075555
 40
0.6646951121
 40
0.6949675899
 40
0.7251632182
 40
0.7553234779
 40
0.7854913543
 40
0.8157095101
 40
0.8460184695
 40
0.8764549218
 40
0.9070502371
 40
0.9378293223
 40
0.9688091211
 40
1.0
 40
1.0
 40
1.0
 40
1.0
 10
8.4394514055
 20
9.0666077555
 30
0.0
 10
8.4311766793
 20
9.0671816098
 30
0.0
 10
8.4146189609
 20
9.0691485126
 30
0.0
 10
8.3901160672
 20
9.0744905994
 30
0.0
 10
8.3660881155
 20
9.0821825799
 30
0.0
 10
8.3427688548
 20
9.092149921
 30
0.0
 10
8.3203813011
 20
9.1042963143
 30
0.0
 10
8.2991404189
 20
9.1185046758
 30
0.0
 10
8.2792499078
 20
9.1346383429
 30
0.0
 10
8.2609006653
 20
9.1525423456
 30
0.0
 10
8.2442687616
 20
9.1720447423
 30
0.0
 10
8.2295138994
 20
9.1929583667
 30
0.0
 10
8.2167779506
 20
9.2150826039
 30
0.0
 10
8.2061835431
 20
9.2382052104
 30
0.0
 10
8.197832813
 20
9.2621042915
 30
0.0
 10
8.1918065724
 20
9.2865504565
 30
0.0
 10
8.1881635281
 20
9.3113089333
 30
0.0
 10
8.1869395026
 20
9.3361417363
 30
0.0
 10
8.1881471535
 20
9.3608099481
 30
0.0
 10
8.191775859
 20
9.3850759598
 30
0.0
 10
8.1977916608
 20
9.4087057206
 30
0.0
 10
8.2061373719
 20
9.4314710476
 30
0.0
 10
8.2167332213
 20
9.4531518316
 30
0.0
 10
8.2294775343
 20
9.4735381934
 30
0.0
 10
8.2442475023
 20
9.4924326983
 30
0.0
 10
8.2609004417
 20
9.5096523667
 30
0.0
 10
8.2792752767
 20
9.5250304807
 30
0.0
 10
8.2991941182
 20
9.538418303
 30
0.0
 10
8.3204639803
 20
9.5496867213
 30
0.0
 10
8.3428789843
 20
9.5587273423
 30
0.0
 10
8.3662221041
 20
9.5654535262
 30
0.0
 10
8.3902684675
 20
9.5698010829
 30
0.0
 10
8.4147830685
 20
9.5717294917
 30
0.0
 10
8.4312324704
 20
9.5713910518
 30
0.0
 10
8.4394514055
 20
9.5708210667
 30
0.0
  0
SPLINE
  5
3C7
100
AcDbEntity
  8
0
100
AcDbSpline
 62
7
  6
CONTINUOUS
 70
0
 71
3
 72
39
 73
35
 74
0
 42
0.0000001
 43
0.0000001
 44
0.0000000001
 40
0.0
 40
0.0
 40
0.0
 40
0.0
 40
0.0314026063
 40
0.0630095008
 40
0.0948071053
 40
0.1267734461
 40
0.1588809724
 40
0.1910970224
 40
0.2233851129
 40
0.2557062443
 40
0.2880202662
 40
0.3202872758
 40
0.3524690069
 40
0.3845301825
 40
0.4164397923
 40
0.4481722508
 40
0.4797084082
 40
0.5110363786
 40
0.5421521202
 40
0.573059743
 40
0.603771519
 40
0.6343075555
 40
0.6646951121
 40
0.6949675899
 40
0.7251632182
 40
0.7553234779
 40
0.7854913543
 40
0.8157095101
 40
0.8460184695
 40
0.8764549218
 40
0.9070502371
 40
0.9378293223
 40
0.9688091211
 40
1.0
 40
1.0
 40
1.0
 40
1.0
 10
7.0813594806
 20
6.5044955707
 30
0.0
 10
7.0730847544
 20
6.505069425
 30
0.0
 10
7.056527036
 20
6.5070363278
 30
0.0
 10
7.0320241424
 20
6.5123784146
 30
0.0
 10
7.0079961906
 20
6.5200703951
 30
0.0
 10
6.9846769299
 20
6.5300377362
 30
0.0
 10
6.9622893763
 20
6.5421841295
 30
0.0
 10
6.9410484941
 20
6.556392491
 30
0.0
 10
6.921157983
 20
6.5725261581
 30
0.0
 10
6.9028087404
 20
6.5904301608
 30
0.0
 10
6.8861768367
 20
6.6099325575
 30
0.0
 10
6.8714219745
 20
6.6308461819
 30
0.0
 10
6.8586860257
 20
6.6529704191
 30
0.0
 10
6.8480916183
 20
6.6760930256
 30
0.0
 10
6.8397408882
 20
6.6999921067
 30
0.0
 10
6.8337146475
 20
6.7244382717
 30
0.0
 10
6.8300716032
 20
6.7491967485
 30
0.0
 10
6.8288475777
 20
6.7740295515
 30
0.0
 10
6.8300552286
 20
6.7986977633
 30
0.0
 10
6.8336839341
 20
6.822963775
 30
0.0
 10
6.8396997359
 20
6.8465935358
 30
0.0
 10
6.848045447
 20
6.8693588627
 30
0.0
 10
6.8586412964
 20
6.8910396467
 30
0.0
 10
6.8713856094
 20
6.9114260086
 30
0.0
 10
6.8861555774
 20
6.9303205135
 30
0.0
 10
6.9028085168
 20
6.9475401819
 30
0.0
 10
6.9211833518
 20
6.9629182959
 30
0.0
 10
6.9411021933
 20
6.9763061182
 30
0.0
 10
6.9623720555
 20
6.9875745365
 30
0.0
 10
6.9847870595
 20
6.9966151575
 30
0.0
 10
7.0081301792
 20
7.0033413414
 30
0.0
 10
7.0321765427
 20
7.0076888981
 30
0.0
 10
7.0566911436
 20
7.0096173069
 30
0.0
 10
7.0731405455
 20
7.009278867
 30
0.0
 10
7.0813594806
 20
7.0087088819
 30
0.0
  0
SPLINE
  5
3C8
100
AcDbEntity
  8
0
100
AcDbSpline
 62
7
  6
CONTINUOUS
 70
0
 71
3
 72
39
 73
35
 74
0
 42
0.0000001
 43
0.0000001
 44
0.0000000001
 40
0.0
 40
0.0
 40
0.0
 40
0.0
 40
0.0314026063
 40
0.0630095008
 40
0.0948071053
 40
0.1267734461
 40
0.1588809724
 40
0.1910970224
 40
0.2233851129
 40
0.2557062443
 40
0.2880202662
 40
0.3202872758
 40
0.3524690069
 40
0.3845301825
 40
0.4164397923
 40
0.4481722508
 40
0.4797084082
 40
0.5110363786
 40
0.5421521202
 40
0.573059743
 40
0.603771519
 40
0.6343075555
 40
0.6646951121
 40
0.6949675899
 40
0.7251632182
 40
0.7553234779
 40
0.7854913543
 40
0.8157095101
 40
0.8460184695
 40
0.8764549218
 40
0.9070502371
 40
0.9378293223
 40
0.9688091211
 40
1.0
 40
1.0
 40
1.0
 40
1.0
 10
7.0813594806
 20
7.0087088819
 30
0.0
 10
7.0896342069
 20
7.0081350277
 30
0.0
 10
7.1061919253
 20
7.0061681249
 30
0.0
 10
7.1306948189
 20
7.0008260381
 30
0.0
 10
7.1547227707
 20
6.9931340576
 30
0.0
 10
7.1780420314
 20
6.9831667165
 30
0.0
 10
7.200429585
 20
6.9710203232
 30
0.0
 10
7.2216704672
 20
6.9568119617
 30
0.0
 10
7.2415609783
 20
6.9406782946
 30
0.0
 10
7.2599102209
 20
6.9227742919
 30
0.0
 10
7.2765421246
 20
6.9032718952
 30
0.0
 10
7.2912969868
 20
6.8823582708
 30
0.0
 10
7.3040329356
 20
6.8602340336
 30
0.0
 10
7.314627343
 20
6.8371114271
 30
0.0
 10
7.3229780731
 20
6.813212346
 30
0.0
 10
7.3290043138
 20
6.788766181
 30
0.0
 10
7.3326473581
 20
6.7640077042
 30
0.0
 10
7.3338713836
 20
6.7391749012
 30
0.0
 10
7.3326637327
 20
6.7145066894
 30
0.0
 10
7.3290350271
 20
6.6902406777
 30
0.0
 10
7.3230192254
 20
6.6666109168
 30
0.0
 10
7.3146735143
 20
6.6438455899
 30
0.0
 10
7.3040776649
 20
6.6221648059
 30
0.0
 10
7.2913333519
 20
6.6017784441
 30
0.0
 10
7.2765633839
 20
6.5828839392
 30
0.0
 10
7.2599104444
 20
6.5656642708
 30
0.0
 10
7.2415356095
 20
6.5502861568
 30
0.0
 10
7.221616768
 20
6.5368983345
 30
0.0
 10
7.2003469058
 20
6.5256299162
 30
0.0
 10
7.1779319018
 20
6.5165892952
 30
0.0
 10
7.1545887821
 20
6.5098631113
 30
0.0
 10
7.1305424186
 20
6.5055155546
 30
0.0
 10
7.1060278176
 20
6.5035871458
 30
0.0
 10
7.0895784158
 20
6.5039255857
 30
0.0
 10
7.0813594806
 20
6.5044955707
 30
0.0
  0
SPLINE
  5
3C9
100
AcDbEntity
  8
0
100
AcDbSpline
 62
7
  6
CONTINUOUS
 70
0
 71
3
 72
41
 73
37
 74
0
 42
0.0000001
 43
0.0000001
 44
0.0000000001
 40
0.0
 40
0.0
 40
0.0
 40
0.0
 40
0.0149724862
 40
0.0299480307
 40
0.0449296746
 40
0.0599204222
 40
0.0899350731
 40
0.1200204959
 40
0.1501975964
 40
0.1804850878
 40
0.2108990702
 40
0.2414526838
 40
0.2721558423
 40
0.303015057
 40
0.3340333403
 40
0.3652101893
 40
0.3965416515
 40
0.4280204628
 40
0.4596362457
 40
0.4913757643
 40
0.5232232351
 40
0.5551606749
 40
0.587168282
 40
0.6192248472
 40
0.6513081855
 40
0.6833955794
 40
0.7154642309
 40
0.7474917144
 40
0.779456424
 40
0.8113380097
 40
0.8431177978
 40
0.8747791805
 40
0.9063079772
 40
0.937692809
 40
0.9689250164
 40
1.0
 40
1.0
 40
1.0
 40
1.0
 10
12.5073927232
 20
7.205149981
 30
0.0
 10
12.501171007
 20
7.199140244
 30
0.0
 10
12.4884859376
 20
7.1873655192
 30
0.0
 10
12.468769449
 20
7.1704717512
 30
0.0
 10
12.4483887706
 20
7.1543671463
 30
0.0
 10
12.420359641
 20
7.1339712008
 30
0.0
 10
12.3837841258
 20
7.1105484815
 30
0.0
 10
12.3377333312
 20
7.0859484158
 30
0.0
 10
12.2897494171
 20
7.0649724441
 30
0.0
 10
12.2400986809
 20
7.0477369903
 30
0.0
 10
12.189054311
 20
7.0343361033
 30
0.0
 10
12.1368976384
 20
7.0248430357
 30
0.0
 10
12.0839158112
 20
7.0193092737
 30
0.0
 10
12.0304003791
 20
7.0177645815
 30
0.0
 10
11.9766456628
 20
7.0202168275
 30
0.0
 10
11.9229471531
 20
7.0266518163
 30
0.0
 10
11.8695998846
 20
7.0370335233
 30
0.0
 10
11.8168968539
 20
7.0513043651
 30
0.0
 10
11.7651274369
 20
7.0693854789
 30
0.0
 10
11.7145757731
 20
7.0911770577
 30
0.0
 10
11.6655192747
 20
7.1165590677
 30
0.0
 10
11.6182271475
 20
7.1453919057
 30
0.0
 10
11.5729588747
 20
7.1775170508
 30
0.0
 10
11.529962806
 20
7.2127579589
 30
0.0
 10
11.4894748757
 20
7.2509211098
 30
0.0
 10
11.4517173292
 20
7.2917970379
 30
0.0
 10
11.4168973944
 20
7.3351613571
 30
0.0
 10
11.3852062507
 20
7.3807760905
 30
0.0
 10
11.3568180253
 20
7.4283909676
 30
0.0
 10
11.3318887945
 20
7.4777447447
 30
0.0
 10
11.3105556435
 20
7.528566555
 30
0.0
 10
11.2929360574
 20
7.5805775767
 30
0.0
 10
11.2791272545
 20
7.6334920844
 30
0.0
 10
11.2692056472
 20
7.6870205034
 30
0.0
 10
11.263226058
 20
7.7408650941
 30
0.0
 10
11.2618867709
 20
7.776876424
 30
0.0
 10
11.2618867709
 20
7.7948297639
 30
0.0
  0
SPLINE
  5
3CA
100
AcDbEntity
  8
0
100
AcDbSpline
 62
7
  6
CONTINUOUS
 70
0
 71
3
 72
23
 73
19
 74
0
 42
0.0000001
 43
0.0000001
 44
0.0000000001
 40
0.0
 40
0.0
 40
0.0
 40
0.0
 40
0.0616706239
 40
0.1233844647
 40
0.1851585947
 40
0.2470095745
 40
0.3089533082
 40
0.3710049062
 40
0.4331785721
 40
0.4954874869
 40
0.5579437036
 40
0.6205580621
 40
0.6833400298
 40
0.7462978834
 40
0.8094383905
 40
0.8727659326
 40
0.9362873932
 40
1.0
 40
1.0
 40
1.0
 40
1.0
 10
7.240520803
 20
8.5760919773
 30
0.0
 10
7.2336431636
 20
8.5684686832
 30
0.0
 10
7.2202404288
 20
8.5528899228
 30
0.0
 10
7.2012517432
 20
8.5285927844
 30
0.0
 10
7.1834077601
 20
8.5034053349
 30
0.0
 10
7.1667436441
 20
8.4773770294
 30
0.0
 10
7.1512915372
 20
8.4505580939
 30
0.0
 10
7.1370813702
 20
8.4230005529
 30
0.0
 10
7.124140583
 20
8.3947578045
 30
0.0
 10
7.1124942094
 20
8.3658845598
 30
0.0
 10
7.1021648182
 20
8.3364367253
 30
0.0
 10
7.093172346
 20
8.3064713587
 30
0.0
 10
7.0855341036
 20
8.2760465018
 30
0.0
 10
7.0792648566
 20
8.2452210309
 30
0.0
 10
7.0743768064
 20
8.2140548005
 30
0.0
 10
7.070879103
 20
8.1826075926
 30
0.0
 10
7.0687788331
 20
8.1509415239
 30
0.0
 10
7.0683133844
 20
8.1297559013
 30
0.0
 10
7.0683133844
 20
8.1191486855
 30
0.0
  0
SPLINE
  5
3CB
100
AcDbEntity
  8
0
100
AcDbSpline
 62
7
  6
CONTINUOUS
 70
0
 71
3
 72
39
 73
35
 74
0
 42
0.0000001
 43
0.0000001
 44
0.0000000001
 40
0.0
 40
0.0
 40
0.0
 40
0.0
 40
0.0299269064
 40
0.0598969195
 40
0.0899316583
 40
0.1200512622
 40
0.1502739446
 40
0.1806156014
 40
0.2110894826
 40
0.2417059362
 40
0.2724722234
 40
0.303392407
 40
0.3344673112
 40
0.3656945543
 40
0.3970686445
 40
0.4285811337
 40
0.460220824
 40
0.49197402
 40
0.5238248249
 40
0.5557554659
 40
0.5877466484
 40
0.6197779299
 40
0.651828112
 40
0.6838756413
 40
0.715899014
 40
0.7478771803
 40
0.7797899446
 40
0.8116183518
 40
0.8433450584
 40
0.8749546787
 40
0.9064340959
 40
0.937772837
 40
0.9689628627
 40
1.0
 40
1.0
 40
1.0
 40
1.0
 10
8.280507058
 20
7.4994332894
 30
0.0
 10
8.2676183492
 20
7.4885909969
 30
0.0
 10
8.2409713901
 20
7.4678799452
 30
0.0
 10
8.1986941077
 20
7.4399673325
 30
0.0
 10
8.1543007736
 20
7.415330041
 30
0.0
 10
8.1080262184
 20
7.3940988696
 30
0.0
 10
8.0601111731
 20
7.3763835067
 30
0.0
 10
8.0108058949
 20
7.3622760299
 30
0.0
 10
7.9603675011
 20
7.3518493566
 30
0.0
 10
7.9090589495
 20
7.3451572491
 30
0.0
 10
7.8571475717
 20
7.3422339749
 30
0.0
 10
7.8049037124
 20
7.3430941874
 30
0.0
 10
7.7525993156
 20
7.3477327802
 30
0.0
 10
7.7005065139
 20
7.3561250348
 30
0.0
 10
7.648896232
 20
7.368226769
 30
0.0
 10
7.5980368038
 20
7.3839745945
 30
0.0
 10
7.5481925874
 20
7.4032862088
 30
0.0
 10
7.49962259
 20
7.4260608104
 30
0.0
 10
7.4525791668
 20
7.4521797031
 30
0.0
 10
7.4073067249
 20
7.4815068938
 30
0.0
 10
7.3640404837
 20
7.5138898078
 30
0.0
 10
7.323005213
 20
7.5491600022
 30
0.0
 10
7.2844141069
 20
7.587134092
 30
0.0
 10
7.2484677064
 20
7.6276147101
 30
0.0
 10
7.2153528713
 20
7.6703915181
 30
0.0
 10
7.1852418056
 20
7.7152422717
 30
0.0
 10
7.1582911113
 20
7.7619339295
 30
0.0
 10
7.1346410547
 20
7.810223915
 30
0.0
 10
7.1144148283
 20
7.8598613164
 30
0.0
 10
7.0977179442
 20
7.9105882871
 30
0.0
 10
7.0846375527
 20
7.9621409518
 30
0.0
 10
7.0752421946
 20
8.0142521744
 30
0.0
 10
7.0695810135
 20
8.0666475326
 30
0.0
 10
7.0683133844
 20
8.1016812281
 30
0.0
 10
7.0683133844
 20
8.1191486855
 30
0.0
  0
SPLINE
  5
3CC
100
AcDbEntity
  8
0
100
AcDbSpline
 62
7
  6
CONTINUOUS
 70
0
 71
3
 72
41
 73
37
 74
0
 42
0.0000001
 43
0.0000001
 44
0.0000000001
 40
0.0
 40
0.0
 40
0.0
 40
0.0
 40
0.0149724862
 40
0.0299480307
 40
0.0449296746
 40
0.0599204222
 40
0.0899350731
 40
0.1200204959
 40
0.1501975964
 40
0.1804850878
 40
0.2108990702
 40
0.2414526838
 40
0.2721558423
 40
0.303015057
 40
0.3340333403
 40
0.3652101893
 40
0.3965416515
 40
0.4280204628
 40
0.4596362457
 40
0.4913757643
 40
0.5232232351
 40
0.5551606749
 40
0.587168282
 40
0.6192248472
 40
0.6513081855
 40
0.6833955794
 40
0.7154642309
 40
0.7474917144
 40
0.779456424
 40
0.8113380097
 40
0.8431177978
 40
0.8747791805
 40
0.9063079772
 40
0.937692809
 40
0.9689250164
 40
1.0
 40
1.0
 40
1.0
 40
1.0
 10
8.2814669827
 20
7.4982189265
 30
0.0
 10
8.2752452666
 20
7.4922091895
 30
0.0
 10
8.2625601972
 20
7.4804344647
 30
0.0
 10
8.2428437086
 20
7.4635406967
 30
0.0
 10
8.2224630302
 20
7.4474360918
 30
0.0
 10
8.1944339006
 20
7.4270401463
 30
0.0
 10
8.1578583854
 20
7.403617427
 30
0.0
 10
8.1118075908
 20
7.3790173613
 30
0.0
 10
8.0638236767
 20
7.3580413895
 30
0.0
 10
8.0141729405
 20
7.3408059358
 30
0.0
 10
7.9631285706
 20
7.3274050488
 30
0.0
 10
7.910971898
 20
7.3179119812
 30
0.0
 10
7.8579900708
 20
7.3123782192
 30
0.0
 10
7.8044746386
 20
7.310833527
 30
0.0
 10
7.7507199223
 20
7.313285773
 30
0.0
 10
7.6970214127
 20
7.3197207618
 30
0.0
 10
7.6436741442
 20
7.3301024688
 30
0.0
 10
7.5909711135
 20
7.3443733106
 30
0.0
 10
7.5392016965
 20
7.3624544244
 30
0.0
 10
7.4886500327
 20
7.3842460032
 30
0.0
 10
7.4395935343
 20
7.4096280132
 30
0.0
 10
7.3923014071
 20
7.4384608511
 30
0.0
 10
7.3470331343
 20
7.4705859963
 30
0.0
 10
7.3040370656
 20
7.5058269044
 30
0.0
 10
7.2635491353
 20
7.5439900553
 30
0.0
 10
7.2257915888
 20
7.5848659833
 30
0.0
 10
7.190971654
 20
7.6282303026
 30
0.0
 10
7.1592805103
 20
7.673845036
 30
0.0
 10
7.1308922849
 20
7.7214599131
 30
0.0
 10
7.1059630541
 20
7.7708136902
 30
0.0
 10
7.0846299031
 20
7.8216355005
 30
0.0
 10
7.067010317
 20
7.8736465222
 30
0.0
 10
7.0532015141
 20
7.9265610299
 30
0.0
 10
7.0432799067
 20
7.9800894488
 30
0.0
 10
7.0373003176
 20
8.0339340396
 30
0.0
 10
7.0359610304
 20
8.0699453695
 30
0.0
 10
7.0359610304
 20
8.0878987094
 30
0.0
  0
SPLINE
  5
3CD
100
AcDbEntity
  8
0
100
AcDbSpline
 62
7
  6
CONTINUOUS
 70
0
 71
3
 72
15
 73
11
 74
0
 42
0.0000001
 43
0.0000001
 44
0.0000000001
 40
0.0
 40
0.0
 40
0.0
 40
0.0
 40
0.123317125
 40
0.2468171892
 40
0.3706750004
 40
0.49504957
 40
0.620077358
 40
0.7458670408
 40
0.8724927714
 40
1.0
 40
1.0
 40
1.0
 40
1.0
 10
12.8349358388
 20
6.2077937259
 30
0.0
 10
12.829684852
 20
6.2027216195
 30
0.0
 10
12.8186192725
 20
6.1931278117
 30
0.0
 10
12.8005592183
 20
6.1805912665
 30
0.0
 10
12.7812072452
 20
6.1700231488
 30
0.0
 10
12.7607614833
 20
6.1615319866
 30
0.0
 10
12.7394281312
 20
6.155202187
 30
0.0
 10
12.7174220918
 20
6.1510970154
 30
0.0
 10
12.6949680121
 20
6.1492563997
 30
0.0
 10
12.6798957396
 20
6.1495503831
 30
0.0
 10
12.6723651392
 20
6.150072632
 30
0.0
  0
SPLINE
  5
3CE
100
AcDbEntity
  8
0
100
AcDbSpline
 62
7
  6
CONTINUOUS
 70
0
 71
3
 72
15
 73
11
 74
0
 42
0.0000001
 43
0.0000001
 44
0.0000000001
 40
0.0
 40
0.0
 40
0.0
 40
0.0
 40
0.123317125
 40
0.2468171892
 40
0.3706750004
 40
0.49504957
 40
0.620077358
 40
0.7458670408
 40
0.8724927714
 40
1.0
 40
1.0
 40
1.0
 40
1.0
 10
11.4768440291
 20
6.3019777128
 30
0.0
 10
11.4715930422
 20
6.2969056064
 30
0.0
 10
11.4605274628
 20
6.2873117986
 30
0.0
 10
11.4424674085
 20
6.2747752534
 30
0.0
 10
11.4231154355
 20
6.2642071357
 30
0.0
 10
11.4026696736
 20
6.2557159735
 30
0.0
 10
11.3813363214
 20
6.2493861739
 30
0.0
 10
11.3593302821
 20
6.2452810023
 30
0.0
 10
11.3368762024
 20
6.2434403866
 30
0.0
 10
11.3218039299
 20
6.24373437
 30
0.0
 10
11.3142733295
 20
6.2442566189
 30
0.0
  0
SPLINE
  5
3CF
100
AcDbEntity
  8
0
100
AcDbSpline
 62
7
  6
CONTINUOUS
 70
0
 71
3
 72
15
 73
11
 74
0
 42
0.0000001
 43
0.0000001
 44
0.0000000001
 40
0.0
 40
0.0
 40
0.0
 40
0.0
 40
0.123317125
 40
0.2468171892
 40
0.3706750004
 40
0.49504957
 40
0.620077358
 40
0.7458670408
 40
0.8724927714
 40
1.0
 40
1.0
 40
1.0
 40
1.0
 10
8.6090102135
 20
6.5008626634
 30
0.0
 10
8.6037592267
 20
6.495790557
 30
0.0
 10
8.5926936472
 20
6.4861967492
 30
0.0
 10
8.574633593
 20
6.473660204
 30
0.0
 10
8.55528162
 20
6.4630920863
 30
0.0
 10
8.5348358581
 20
6.4546009241
 30
0.0
 10
8.5135025059
 20
6.4482711245
 30
0.0
 10
8.4914964666
 20
6.4441659529
 30
0.0
 10
8.4690423869
 20
6.4423253372
 30
0.0
 10
8.4539701143
 20
6.4426193206
 30
0.0
 10
8.446439514
 20
6.4431415695
 30
0.0
  0
SPLINE
  5
3D0
100
AcDbEntity
  8
0
100
AcDbSpline
 62
7
  6
CONTINUOUS
 70
0
 71
3
 72
15
 73
11
 74
0
 42
0.0000001
 43
0.0000001
 44
0.0000000001
 40
0.0
 40
0.0
 40
0.0
 40
0.0
 40
0.123317125
 40
0.2468171892
 40
0.3706750004
 40
0.49504957
 40
0.620077358
 40
0.7458670408
 40
0.8724927714
 40
1.0
 40
1.0
 40
1.0
 40
1.0
 10
7.2509182886
 20
6.5950466583
 30
0.0
 10
7.2456673018
 20
6.5899745519
 30
0.0
 10
7.2346017223
 20
6.5803807441
 30
0.0
 10
7.2165416681
 20
6.5678441989
 30
0.0
 10
7.1971896951
 20
6.5572760812
 30
0.0
 10
7.1767439332
 20
6.548784919
 30
0.0
 10
7.155410581
 20
6.5424551194
 30
0.0
 10
7.1334045417
 20
6.5383499478
 30
0.0
 10
7.110950462
 20
6.5365093321
 30
0.0
 10
7.0958781895
 20
6.5368033155
 30
0.0
 10
7.0883475891
 20
6.5373255644
 30
0.0
  0
SPLINE
  5
3D1
100
AcDbEntity
  8
0
100
AcDbSpline
 62
7
  6
CONTINUOUS
 70
0
 71
3
 72
15
 73
11
 74
0
 42
0.0000001
 43
0.0000001
 44
0.0000000001
 40
0.0
 40
0.0
 40
0.0
 40
0.0
 40
0.123317125
 40
0.2468171892
 40
0.3706750004
 40
0.49504957
 40
0.620077358
 40
0.7458670408
 40
0.8724927714
 40
1.0
 40
1.0
 40
1.0
 40
1.0
 10
12.8349358388
 20
8.8640899056
 30
0.0
 10
12.829684852
 20
8.8590177992
 30
0.0
 10
12.8186192725
 20
8.8494239914
 30
0.0
 10
12.8005592183
 20
8.8368874461
 30
0.0
 10
12.7812072452
 20
8.8263193285
 30
0.0
 10
12.7607614833
 20
8.8178281663
 30
0.0
 10
12.7394281312
 20
8.8114983667
 30
0.0
 10
12.7174220918
 20
8.8073931951
 30
0.0
 10
12.6949680121
 20
8.8055525794
 30
0.0
 10
12.6798957396
 20
8.8058465628
 30
0.0
 10
12.6723651392
 20
8.8063688117
 30
0.0
  0
SPLINE
  5
3D2
100
AcDbEntity
  8
0
100
AcDbSpline
 62
7
  6
CONTINUOUS
 70
0
 71
3
 72
15
 73
11
 74
0
 42
0.0000001
 43
0.0000001
 44
0.0000000001
 40
0.0
 40
0.0
 40
0.0
 40
0.0
 40
0.123317125
 40
0.2468171892
 40
0.3706750004
 40
0.49504957
 40
0.620077358
 40
0.7458670408
 40
0.8724927714
 40
1.0
 40
1.0
 40
1.0
 40
1.0
 10
11.4768440291
 20
8.9582738925
 30
0.0
 10
11.4715930422
 20
8.9532017861
 30
0.0
 10
11.4605274628
 20
8.9436079783
 30
0.0
 10
11.4424674085
 20
8.931071433
 30
0.0
 10
11.4231154355
 20
8.9205033154
 30
0.0
 10
11.4026696736
 20
8.9120121532
 30
0.0
 10
11.3813363214
 20
8.9056823536
 30
0.0
 10
11.3593302821
 20
8.901577182
 30
0.0
 10
11.3368762024
 20
8.8997365663
 30
0.0
 10
11.3218039299
 20
8.9000305497
 30
0.0
 10
11.3142733295
 20
8.9005527986
 30
0.0
  0
SPLINE
  5
3D3
100
AcDbEntity
  8
0
100
AcDbSpline
 62
7
  6
CONTINUOUS
 70
0
 71
3
 72
15
 73
11
 74
0
 42
0.0000001
 43
0.0000001
 44
0.0000000001
 40
0.0
 40
0.0
 40
0.0
 40
0.0
 40
0.123317125
 40
0.2468171892
 40
0.3706750004
 40
0.49504957
 40
0.620077358
 40
0.7458670408
 40
0.8724927714
 40
1.0
 40
1.0
 40
1.0
 40
1.0
 10
8.6090102135
 20
9.1571588431
 30
0.0
 10
8.6037592267
 20
9.1520867367
 30
0.0
 10
8.5926936472
 20
9.1424929289
 30
0.0
 10
8.574633593
 20
9.1299563837
 30
0.0
 10
8.55528162
 20
9.119388266
 30
0.0
 10
8.5348358581
 20
9.1108971038
 30
0.0
 10
8.5135025059
 20
9.1045673042
 30
0.0
 10
8.4914964666
 20
9.1004621326
 30
0.0
 10
8.4690423869
 20
9.0986215169
 30
0.0
 10
8.4539701143
 20
9.0989155003
 30
0.0
 10
8.446439514
 20
9.0994377492
 30
0.0
  0
SPLINE
  5
3D4
100
AcDbEntity
  8
0
100
AcDbSpline
 62
7
  6
CONTINUOUS
 70
0
 71
3
 72
15
 73
11
 74
0
 42
0.0000001
 43
0.0000001
 44
0.0000000001
 40
0.0
 40
0.0
 40
0.0
 40
0.0
 40
0.123317125
 40
0.2468171892
 40
0.3706750004
 40
0.49504957
 40
0.620077358
 40
0.7458670408
 40
0.8724927714
 40
1.0
 40
1.0
 40
1.0
 40
1.0
 10
7.2509182886
 20
9.251342838
 30
0.0
 10
7.2456673018
 20
9.2462707316
 30
0.0
 10
7.2346017223
 20
9.2366769238
 30
0.0
 10
7.2165416681
 20
9.2241403785
 30
0.0
 10
7.1971896951
 20
9.2135722609
 30
0.0
 10
7.1767439332
 20
9.2050810987
 30
0.0
 10
7.155410581
 20
9.1987512991
 30
0.0
 10
7.1334045417
 20
9.1946461275
 30
0.0
 10
7.110950462
 20
9.1928055118
 30
0.0
 10
7.0958781895
 20
9.1930994952
 30
0.0
 10
7.0883475891
 20
9.1936217441
 30
0.0
  0
SPLINE
  5
3D5
100
AcDbEntity
  8
0
100
AcDbSpline
 62
7
  6
CONTINUOUS
 70
0
 71
3
 72
39
 73
35
 74
0
 42
0.0000001
 43
0.0000001
 44
0.0000000001
 40
0.0
 40
0.0
 40
0.0
 40
0.0
 40
0.0314026063
 40
0.0630095008
 40
0.0948071053
 40
0.1267734461
 40
0.1588809724
 40
0.1910970224
 40
0.2233851129
 40
0.2557062443
 40
0.2880202662
 40
0.3202872758
 40
0.3524690069
 40
0.3845301825
 40
0.4164397923
 40
0.4481722508
 40
0.4797084082
 40
0.5110363786
 40
0.5421521202
 40
0.573059743
 40
0.603771519
 40
0.6343075555
 40
0.6646951121
 40
0.6949675899
 40
0.7251632182
 40
0.7553234779
 40
0.7854913543
 40
0.8157095101
 40
0.8460184695
 40
0.8764549218
 40
0.9070502371
 40
0.9378293223
 40
0.9688091211
 40
1.0
 40
1.0
 40
1.0
 40
1.0
 10
8.4394514055
 20
6.4103115759
 30
0.0
 10
8.4311766793
 20
6.4108854301
 30
0.0
 10
8.4146189609
 20
6.4128523329
 30
0.0
 10
8.3901160672
 20
6.4181944197
 30
0.0
 10
8.3660881155
 20
6.4258864002
 30
0.0
 10
8.3427688548
 20
6.4358537413
 30
0.0
 10
8.3203813011
 20
6.4480001346
 30
0.0
 10
8.2991404189
 20
6.4622084962
 30
0.0
 10
8.2792499078
 20
6.4783421632
 30
0.0
 10
8.2609006653
 20
6.4962461659
 30
0.0
 10
8.2442687616
 20
6.5157485626
 30
0.0
 10
8.2295138994
 20
6.536662187
 30
0.0
 10
8.2167779506
 20
6.5587864242
 30
0.0
 10
8.2061835431
 20
6.5819090307
 30
0.0
 10
8.197832813
 20
6.6058081118
 30
0.0
 10
8.1918065724
 20
6.6302542768
 30
0.0
 10
8.1881635281
 20
6.6550127536
 30
0.0
 10
8.1869395026
 20
6.6798455566
 30
0.0
 10
8.1881471535
 20
6.7045137684
 30
0.0
 10
8.191775859
 20
6.7287797801
 30
0.0
 10
8.1977916608
 20
6.752409541
 30
0.0
 10
8.2061373719
 20
6.7751748679
 30
0.0
 10
8.2167332213
 20
6.7968556519
 30
0.0
 10
8.2294775343
 20
6.8172420137
 30
0.0
 10
8.2442475023
 20
6.8361365186
 30
0.0
 10
8.2609004417
 20
6.8533561871
 30
0.0
 10
8.2792752767
 20
6.868734301
 30
0.0
 10
8.2991941182
 20
6.8821221233
 30
0.0
 10
8.3204639803
 20
6.8933905416
 30
0.0
 10
8.3428789843
 20
6.9024311626
 30
0.0
 10
8.3662221041
 20
6.9091573465
 30
0.0
 10
8.3902684675
 20
6.9135049033
 30
0.0
 10
8.4147830685
 20
6.915433312
 30
0.0
 10
8.4312324704
 20
6.9150948721
 30
0.0
 10
8.4394514055
 20
6.9145248871
 30
0.0
  0
SPLINE
  5
3D6
100
AcDbEntity
  8
0
100
AcDbSpline
 62
7
  6
CONTINUOUS
 70
0
 71
3
 72
39
 73
35
 74
0
 42
0.0000001
 43
0.0000001
 44
0.0000000001
 40
0.0
 40
0.0
 40
0.0
 40
0.0
 40
0.0314026063
 40
0.0630095008
 40
0.0948071053
 40
0.1267734461
 40
0.1588809724
 40
0.1910970224
 40
0.2233851129
 40
0.2557062443
 40
0.2880202662
 40
0.3202872758
 40
0.3524690069
 40
0.3845301825
 40
0.4164397923
 40
0.4481722508
 40
0.4797084082
 40
0.5110363786
 40
0.5421521202
 40
0.573059743
 40
0.603771519
 40
0.6343075555
 40
0.6646951121
 40
0.6949675899
 40
0.7251632182
 40
0.7553234779
 40
0.7854913543
 40
0.8157095101
 40
0.8460184695
 40
0.8764549218
 40
0.9070502371
 40
0.9378293223
 40
0.9688091211
 40
1.0
 40
1.0
 40
1.0
 40
1.0
 10
8.4394514055
 20
6.9145248871
 30
0.0
 10
8.4477261318
 20
6.9139510328
 30
0.0
 10
8.4642838502
 20
6.91198413
 30
0.0
 10
8.4887867438
 20
6.9066420432
 30
0.0
 10
8.5128146955
 20
6.8989500628
 30
0.0
 10
8.5361339563
 20
6.8889827216
 30
0.0
 10
8.5585215099
 20
6.8768363283
 30
0.0
 10
8.5797623921
 20
6.8626279668
 30
0.0
 10
8.5996529032
 20
6.8464942997
 30
0.0
 10
8.6180021458
 20
6.828590297
 30
0.0
 10
8.6346340495
 20
6.8090879003
 30
0.0
 10
8.6493889117
 20
6.7881742759
 30
0.0
 10
8.6621248605
 20
6.7660500387
 30
0.0
 10
8.6727192679
 20
6.7429274322
 30
0.0
 10
8.681069998
 20
6.7190283511
 30
0.0
 10
8.6870962387
 20
6.6945821861
 30
0.0
 10
8.690739283
 20
6.6698237093
 30
0.0
 10
8.6919633085
 20
6.6449909063
 30
0.0
 10
8.6907556576
 20
6.6203226945
 30
0.0
 10
8.687126952
 20
6.5960566828
 30
0.0
 10
8.6811111503
 20
6.572426922
 30
0.0
 10
8.6727654392
 20
6.5496615951
 30
0.0
 10
8.6621695898
 20
6.5279808111
 30
0.0
 10
8.6494252768
 20
6.5075944492
 30
0.0
 10
8.6346553087
 20
6.4886999443
 30
0.0
 10
8.6180023693
 20
6.4714802759
 30
0.0
 10
8.5996275343
 20
6.456102162
 30
0.0
 10
8.5797086928
 20
6.4427143396
 30
0.0
 10
8.5584388307
 20
6.4314459213
 30
0.0
 10
8.5360238267
 20
6.4224053003
 30
0.0
 10
8.512680707
 20
6.4156791164
 30
0.0
 10
8.4886343435
 20
6.4113315597
 30
0.0
 10
8.4641197425
 20
6.409403151
 30
0.0
 10
8.4476703407
 20
6.4097415908
 30
0.0
 10
8.4394514055
 20
6.4103115759
 30
0.0
  0
SPLINE
  5
3D7
100
AcDbEntity
  8
0
100
AcDbSpline
 62
7
  6
CONTINUOUS
 70
0
 71
3
 72
41
 73
37
 74
0
 42
0.0000001
 43
0.0000001
 44
0.0000000001
 40
0.0
 40
0.0
 40
0.0
 40
0.0
 40
0.0311443731
 40
0.0624425498
 40
0.0938872324
 40
0.1254695881
 40
0.1571771015
 40
0.1889951224
 40
0.2209066715
 40
0.2528929757
 40
0.28493379
 40
0.3170078157
 40
0.3490931116
 40
0.3811675191
 40
0.4132090895
 40
0.4451965082
 40
0.4771095106
 40
0.5089292837
 40
0.5406388474
 40
0.5722234085
 40
0.6036706805
 40
0.6349711645
 40
0.6661183811
 40
0.6971090487
 40
0.7279432008
 40
0.7586242349
 40
0.7891588899
 40
0.8195571457
 40
0.8498320452
 40
0.8649308854
 40
0.8800050464
 40
0.9100832538
 40
0.9400926721
 40
0.9550812717
 40
0.9700610341
 40
1.0
 40
1.0
 40
1.0
 40
1.0
 10
11.3142733295
 20
8.9005527986
 30
0.0
 10
11.3087540226
 20
8.9009355639
 30
0.0
 10
11.2977120657
 20
8.9021070017
 30
0.0
 10
11.281283029
 20
8.9050577728
 30
0.0
 10
11.2650299217
 20
8.9091910552
 30
0.0
 10
11.2490406237
 20
8.9144844184
 30
0.0
 10
11.2334000013
 20
8.9209096301
 30
0.0
 10
11.2181915099
 20
8.9284322478
 30
0.0
 10
11.2034961626
 20
8.9370121029
 30
0.0
 10
11.1893922643
 20
8.9466033717
 30
0.0
 10
11.1759549609
 20
8.9571548809
 30
0.0
 10
11.1632558514
 20
8.9686103534
 30
0.0
 10
11.1513626099
 20
8.9809087158
 30
0.0
 10
11.1403386284
 20
8.9939844171
 30
0.0
 10
11.1302426827
 20
9.0077677762
 30
0.0
 10
11.1211286215
 20
9.0221853482
 30
0.0
 10
11.1130450821
 20
9.0371603125
 30
0.0
 10
11.1060352306
 20
9.0526128758
 30
0.0
 10
11.1001365325
 20
9.068460693
 30
0.0
 10
11.0953805545
 20
9.084619301
 30
0.0
 10
11.0917927949
 20
9.1010025629
 30
0.0
 10
11.0893925445
 20
9.1175231204
 30
0.0
 10
11.0881927804
 20
9.1340928548
 30
0.0
 10
11.088200089
 20
9.1506233463
 30
0.0
 10
11.0894146317
 20
9.1670263583
 30
0.0
 10
11.0918301042
 20
9.1832142396
 30
0.0
 10
11.095433873
 20
9.1991006313
 30
0.0
 10
11.1002066146
 20
9.2146000385
 30
0.0
 10
11.1051423902
 20
9.2271381685
 30
0.0
 10
11.1096466273
 20
9.2368884654
 30
0.0
 10
11.1145074439
 20
9.2464268167
 30
0.0
 10
11.1212565325
 20
9.257963894
 30
0.0
 10
11.1288735971
 20
9.2689288871
 30
0.0
 10
11.1354559286
 20
9.277310204
 30
0.0
 10
11.1423521707
 20
9.2854180249
 30
0.0
 10
11.1478773388
 20
9.2911900398
 30
0.0
 10
11.15170263
 20
9.2948850183
 30
0.0
  0
SPLINE
  5
3D8
100
AcDbEntity
  8
0
100
AcDbSpline
 62
4
  6
CONTINUOUS
 70
0
 71
3
 72
258
 73
254
 74
0
 42
0.0000001
 43
0.0000001
 44
0.0000000001
 40
0.0
 40
0.0
 40
0.0
 40
0.0
 40
0.015625
 40
0.03125
 40
0.0390625
 40
0.046875
 40
0.0546875
 40
0.05859375
 40
0.060546875
 40
0.0625
 40
0.064453125
 40
0.06640625
 40
0.0703125
 40
0.078125
 40
0.0859375
 40
0.09375
 40
0.1015625
 40
0.109375
 40
0.1171875
 40
0.12109375
 40
0.123046875
 40
0.125
 40
0.126953125
 40
0.12890625
 40
0.1328125
 40
0.140625
 40
0.15625
 40
0.1640625
 40
0.171875
 40
0.1796875
 40
0.18359375
 40
0.185546875
 40
0.1875
 40
0.189453125
 40
0.19140625
 40
0.1953125
 40
0.203125
 40
0.2109375
 40
0.21875
 40
0.2265625
 40
0.234375
 40
0.23828125
 40
0.2421875
 40
0.24609375
 40
0.248046875
 40
0.2490234375
 40
0.25
 40
0.2509765625
 40
0.251953125
 40
0.25390625
 40
0.2578125
 40
0.26171875
 40
0.265625
 40
0.2734375
 40
0.28125
 40
0.2890625
 40
0.296875
 40
0.30078125
 40
0.3046875
 40
0.30859375
 40
0.310546875
 40
0.3115234375
 40
0.3125
 40
0.3134765625
 40
0.314453125
 40
0.31640625
 40
0.3203125
 40
0.32421875
 40
0.328125
 40
0.3359375
 40
0.34375
 40
0.3515625
 40
0.359375
 40
0.36328125
 40
0.3671875
 40
0.37109375
 40
0.373046875
 40
0.3740234375
 40
0.375
 40
0.3759765625
 40
0.376953125
 40
0.37890625
 40
0.3828125
 40
0.38671875
 40
0.390625
 40
0.3984375
 40
0.40625
 40
0.4140625
 40
0.421875
 40
0.42578125
 40
0.4296875
 40
0.431640625
 40
0.43359375
 40
0.435546875
 40
0.4365234375
 40
0.4375
 40
0.4384765625
 40
0.439453125
 40
0.44140625
 40
0.443359375
 40
0.4453125
 40
0.44921875
 40
0.453125
 40
0.4609375
 40
0.46875
 40
0.4765625
 40
0.484375
 40
0.48828125
 40
0.4921875
 40
0.494140625
 40
0.49609375
 40
0.498046875
 40
0.4990234375
 40
0.4995117188
 40
0.5
 40
0.5004882812
 40
0.5009765625
 40
0.501953125
 40
0.50390625
 40
0.505859375
 40
0.5078125
 40
0.51171875
 40
0.515625
 40
0.5234375
 40
0.53125
 40
0.5390625
 40
0.546875
 40
0.55078125
 40
0.5546875
 40
0.556640625
 40
0.55859375
 40
0.560546875
 40
0.5615234375
 40
0.5620117188
 40
0.5625
 40
0.5629882812
 40
0.5634765625
 40
0.564453125
 40
0.56640625
 40
0.568359375
 40
0.5703125
 40
0.57421875
 40
0.578125
 40
0.5859375
 40
0.59375
 40
0.6015625
 40
0.609375
 40
0.61328125
 40
0.6171875
 40
0.619140625
 40
0.62109375
 40
0.623046875
 40
0.6240234375
 40
0.6245117188
 40
0.625
 40
0.6254882812
 40
0.6259765625
 40
0.626953125
 40
0.62890625
 40
0.630859375
 40
0.6328125
 40
0.63671875
 40
0.640625
 40
0.6484375
 40
0.65625
 40
0.6640625
 40
0.671875
 40
0.67578125
 40
0.6796875
 40
0.681640625
 40
0.68359375
 40
0.685546875
 40
0.6865234375
 40
0.6870117188
 40
0.6875
 40
0.6879882812
 40
0.6884765625
 40
0.689453125
 40
0.69140625
 40
0.693359375
 40
0.6953125
 40
0.69921875
 40
0.703125
 40
0.7109375
 40
0.71875
 40
0.7265625
 40
0.734375
 40
0.73828125
 40
0.7421875
 40
0.744140625
 40
0.74609375
 40
0.748046875
 40
0.7490234375
 40
0.75
 40
0.7509765625
 40
0.751953125
 40
0.75390625
 40
0.755859375
 40
0.7578125
 40
0.76171875
 40
0.765625
 40
0.7734375
 40
0.78125
 40
0.7890625
 40
0.796875
 40
0.80078125
 40
0.8046875
 40
0.80859375
 40
0.810546875
 40
0.8115234375
 40
0.8125
 40
0.8134765625
 40
0.814453125
 40
0.81640625
 40
0.8203125
 40
0.82421875
 40
0.828125
 40
0.8359375
 40
0.84375
 40
0.8515625
 40
0.859375
 40
0.86328125
 40
0.8671875
 40
0.87109375
 40
0.873046875
 40
0.8740234375
 40
0.875
 40
0.8759765625
 40
0.876953125
 40
0.87890625
 40
0.8828125
 40
0.88671875
 40
0.890625
 40
0.8984375
 40
0.90625
 40
0.9140625
 40
0.921875
 40
0.92578125
 40
0.9296875
 40
0.93359375
 40
0.935546875
 40
0.9365234375
 40
0.9375
 40
0.9384765625
 40
0.939453125
 40
0.94140625
 40
0.9453125
 40
0.94921875
 40
0.953125
 40
0.9609375
 40
0.96875
 40
0.984375
 40
1.0
 40
1.0
 40
1.0
 40
1.0
 10
10.4071700987
 20
10.5175700451
 30
0.0
 10
10.4103856027
 20
10.51743227
 30
0.0
 10
10.4168166197
 20
10.5171567554
 30
0.0
 10
10.4248553454
 20
10.5168121844
 30
0.0
 10
10.4312864218
 20
10.5165369009
 30
0.0
 10
10.436109469
 20
10.516329425
 30
0.0
 10
10.4401295019
 20
10.5161597503
 30
0.0
 10
10.4429419023
 20
10.5160346553
 30
0.0
 10
10.4445515218
 20
10.515973045
 30
0.0
 10
10.4457515993
 20
10.515899026
 30
0.0
 10
10.4469789585
 20
10.5159313157
 30
0.0
 10
10.4486059212
 20
10.5159372869
 30
0.0
 10
10.4514575395
 20
10.5159650144
 30
0.0
 10
10.4555289638
 20
10.5159955863
 30
0.0
 10
10.4604156567
 20
10.5160361661
 30
0.0
 10
10.4653021205
 20
10.516075634
 30
0.0
 10
10.470188517
 20
10.5161156563
 30
0.0
 10
10.4750754119
 20
10.5161545726
 30
0.0
 10
10.479146219
 20
10.5161902276
 30
0.0
 10
10.481998937
 20
10.516208898
 30
0.0
 10
10.4836241379
 20
10.516229379
 30
0.0
 10
10.4848569087
 20
10.5162170996
 30
0.0
 10
10.486036661
 20
10.516310475
 30
0.0
 10
10.4876281558
 20
10.5163981252
 30
0.0
 10
10.4904046733
 20
10.5165686493
 30
0.0
 10
10.4959638068
 20
10.5168975267
 30
0.0
 10
10.5023145907
 20
10.5172785072
 30
0.0
 10
10.5086659393
 20
10.5176580355
 30
0.0
 10
10.5134302683
 20
10.5179419176
 30
0.0
 10
10.5173975821
 20
10.5181816381
 30
0.0
 10
10.5201805608
 20
10.5183431575
 30
0.0
 10
10.5217616785
 20
10.5184452828
 30
0.0
 10
10.5229733102
 20
10.5184941869
 30
0.0
 10
10.5240863458
 20
10.5186489362
 30
0.0
 10
10.5256047847
 20
10.5188183487
 30
0.0
 10
10.5282460288
 20
10.5191320223
 30
0.0
 10
10.5320276145
 20
10.5195711324
 30
0.0
 10
10.5365619206
 20
10.5201019225
 30
0.0
 10
10.5410972057
 20
10.5206316731
 30
0.0
 10
10.5456321719
 20
10.5211617234
 30
0.0
 10
10.5494115574
 20
10.5216032993
 30
0.0
 10
10.5524346323
 20
10.5219567286
 30
0.0
 10
10.5547030909
 20
10.5222213742
 30
0.0
 10
10.5565898123
 20
10.5224432634
 30
0.0
 10
10.5579177008
 20
10.5225959349
 30
0.0
 10
10.5586652778
 20
10.5226873148
 30
0.0
 10
10.5592575574
 20
10.5227441901
 30
0.0
 10
10.5597290577
 20
10.5228456345
 30
0.0
 10
10.5603998538
 20
10.5229653476
 30
0.0
 10
10.5615541184
 20
10.5231820887
 30
0.0
 10
10.5632133299
 20
10.523487932
 30
0.0
 10
10.565199991
 20
10.5238565648
 30
0.0
 10
10.5678504075
 20
10.5243475089
 30
0.0
 10
10.5711628976
 20
10.5249613846
 30
0.0
 10
10.57513813
 20
10.5256979465
 30
0.0
 10
10.5791132338
 20
10.5264345509
 30
0.0
 10
10.5824260453
 20
10.5270483204
 30
0.0
 10
10.5850758188
 20
10.5275394768
 30
0.0
 10
10.5870644411
 20
10.5279074621
 30
0.0
 10
10.5887175174
 20
10.5282153313
 30
0.0
 10
10.5898827343
 20
10.5284284558
 30
0.0
 10
10.590535982
 20
10.5285539636
 30
0.0
 10
10.5910613854
 20
10.5286376085
 30
0.0
 10
10.5914512138
 20
10.5287613357
 30
0.0
 10
10.592018275
 20
10.5289123242
 30
0.0
 10
10.5929885989
 20
10.5291830681
 30
0.0
 10
10.5943862951
 20
10.5295664394
 30
0.0
 10
10.5960585998
 20
10.5300279428
 30
0.0
 10
10.5982900624
 20
10.5306427713
 30
0.0
 10
10.6010787948
 20
10.5314114826
 30
0.0
 10
10.6044255495
 20
10.5323338568
 30
0.0
 10
10.6077721543
 20
10.5332562675
 30
0.0
 10
10.6105612612
 20
10.5340248878
 30
0.0
 10
10.6127919748
 20
10.5346398983
 30
0.0
 10
10.6144665641
 20
10.5351008464
 30
0.0
 10
10.6158571129
 20
10.5354859549
 30
0.0
 10
10.6168401961
 20
10.5357535977
 30
0.0
 10
10.6173868137
 20
10.5359095549
 30
0.0
 10
10.6178394383
 20
10.5360180197
 30
0.0
 10
10.6181289896
 20
10.5361589878
 30
0.0
 10
10.6185719397
 20
10.5363356078
 30
0.0
 10
10.6193206002
 20
10.536649975
 30
0.0
 10
10.6204039709
 20
10.5370963094
 30
0.0
 10
10.621698085
 20
10.5376330928
 30
0.0
 10
10.6234256421
 20
10.5383483911
 30
0.0
 10
10.6255843789
 20
10.5392426554
 30
0.0
 10
10.6281751612
 20
10.5403157129
 30
0.0
 10
10.630765886
 20
10.5413887828
 30
0.0
 10
10.6329247666
 20
10.542283016
 30
0.0
 10
10.6346520361
 20
10.5429983765
 30
0.0
 10
10.6357311953
 20
10.5434455377
 30
0.0
 10
10.6365954035
 20
10.5438031272
 30
0.0
 10
10.6372411477
 20
10.5440717011
 30
0.0
 10
10.6377869407
 20
10.5442942983
 30
0.0
 10
10.6382063664
 20
10.5444750996
 30
0.0
 10
10.638567958
 20
10.5446032586
 30
0.0
 10
10.6387500644
 20
10.5447598236
 30
0.0
 10
10.6390555695
 20
10.5449586543
 30
0.0
 10
10.6394159399
 20
10.5452105971
 30
0.0
 10
10.6398575918
 20
10.5455114712
 30
0.0
 10
10.640443245
 20
10.5459131458
 30
0.0
 10
10.6411764127
 20
10.5464150646
 30
0.0
 10
10.6423488656
 20
10.5472182322
 30
0.0
 10
10.6438146423
 20
10.5482221583
 30
0.0
 10
10.6455734866
 20
10.5494268838
 30
0.0
 10
10.6473323452
 20
10.5506316059
 30
0.0
 10
10.648798086
 20
10.5516355405
 30
0.0
 10
10.6499706107
 20
10.5524386911
 30
0.0
 10
10.6507035959
 20
10.5529406531
 30
0.0
 10
10.6512896237
 20
10.5533422391
 30
0.0
 10
10.6517301313
 20
10.5536433837
 30
0.0
 10
10.6520940817
 20
10.5538944802
 30
0.0
 10
10.6523550078
 20
10.5540699679
 30
0.0
 10
10.6524944888
 20
10.5541706836
 30
0.0
 10
10.6526261982
 20
10.5542449893
 30
0.0
 10
10.6526543229
 20
10.5543240006
 30
0.0
 10
10.652727954
 20
10.5544277076
 30
0.0
 10
10.652839974
 20
10.5546099596
 30
0.0
 10
10.6530088039
 20
10.5548699198
 30
0.0
 10
10.6532076325
 20
10.5551820431
 30
0.0
 10
10.6534740531
 20
10.5555981478
 30
0.0
 10
10.6538066283
 20
10.5561182992
 30
0.0
 10
10.6543390005
 20
10.5569505299
 30
0.0
 10
10.6550043787
 20
10.5579908222
 30
0.0
 10
10.6558028724
 20
10.5592391713
 30
0.0
 10
10.6566013463
 20
10.560487521
 30
0.0
 10
10.657266774
 20
10.5615278118
 30
0.0
 10
10.6577990473
 20
10.5623600456
 30
0.0
 10
10.6581318741
 20
10.5628801891
 30
0.0
 10
10.6583977782
 20
10.56329631
 30
0.0
 10
10.6585981846
 20
10.5636083839
 30
0.0
 10
10.6587620779
 20
10.5638684989
 30
0.0
 10
10.6588829106
 20
10.5640504745
 30
0.0
 10
10.6589424216
 20
10.5641546244
 30
0.0
 10
10.6590139185
 20
10.5642322751
 30
0.0
 10
10.658982729
 20
10.564311691
 30
0.0
 10
10.6589769612
 20
10.5644169631
 30
0.0
 10
10.6589501791
 20
10.5646014763
 30
0.0
 10
10.6589206439
 20
10.5648649165
 30
0.0
 10
10.6588814671
 20
10.565181109
 30
0.0
 10
10.6588305358
 20
10.5656026765
 30
0.0
 10
10.658766425
 20
10.5661296436
 30
0.0
 10
10.6586640975
 20
10.5669727866
 30
0.0
 10
10.6585361018
 20
10.5680267169
 30
0.0
 10
10.6583825464
 20
10.5692914326
 30
0.0
 10
10.6582289714
 20
10.5705561482
 30
0.0
 10
10.6581010248
 20
10.5716100789
 30
0.0
 10
10.657998599
 20
10.5724532211
 30
0.0
 10
10.657934738
 20
10.5729801902
 30
0.0
 10
10.6578832941
 20
10.5734017536
 30
0.0
 10
10.6578456834
 20
10.5737179588
 30
0.0
 10
10.6578112482
 20
10.5739813592
 30
0.0
 10
10.6577932134
 20
10.5741659434
 30
0.0
 10
10.6577734302
 20
10.5742711016
 30
0.0
 10
10.6577852914
 20
10.5743508677
 30
0.0
 10
10.6576950971
 20
10.5744272032
 30
0.0
 10
10.6576104361
 20
10.5745301805
 30
0.0
 10
10.6574456935
 20
10.5747098332
 30
0.0
 10
10.6572190183
 20
10.5749667715
 30
0.0
 10
10.6569432964
 20
10.5752749726
 30
0.0
 10
10.6565769636
 20
10.5756859511
 30
0.0
 10
10.6561186037
 20
10.5761996592
 30
0.0
 10
10.655385476
 20
10.5770216006
 30
0.0
 10
10.6544689807
 20
10.5780490243
 30
0.0
 10
10.6533692255
 20
10.5792819343
 30
0.0
 10
10.6522694508
 20
10.5805148433
 30
0.0
 10
10.6513530045
 20
10.5815422694
 30
0.0
 10
10.6506197788
 20
10.5823642061
 30
0.0
 10
10.6501616681
 20
10.5828779262
 30
0.0
 10
10.6497948238
 20
10.5832888801
 30
0.0
 10
10.6495206646
 20
10.5835971562
 30
0.0
 10
10.6492891
 20
10.5838538597
 30
0.0
 10
10.6491330856
 20
10.5840339316
 30
0.0
 10
10.6490344399
 20
10.5841362373
 30
0.0
 10
10.6489872022
 20
10.5842146356
 30
0.0
 10
10.6488377257
 20
10.5842866543
 30
0.0
 10
10.6486740857
 20
10.5843849044
 30
0.0
 10
10.6483711001
 20
10.5845558054
 30
0.0
 10
10.6479469504
 20
10.5848004916
 30
0.0
 10
10.6474342526
 20
10.5850938831
 30
0.0
 10
10.6467519541
 20
10.5854851528
 30
0.0
 10
10.6458986364
 20
10.5859742122
 30
0.0
 10
10.6445335764
 20
10.5867567227
 30
0.0
 10
10.6428271676
 20
10.5877348557
 30
0.0
 10
10.6407795071
 20
10.5889086165
 30
0.0
 10
10.6387318601
 20
10.5900823809
 30
0.0
 10
10.6370254174
 20
10.5910605049
 30
0.0
 10
10.635660425
 20
10.5918430335
 30
0.0
 10
10.6348069356
 20
10.5923320469
 30
0.0
 10
10.6341249895
 20
10.592723411
 30
0.0
 10
10.6336112153
 20
10.593016514
 30
0.0
 10
10.6331904332
 20
10.5932621031
 30
0.0
 10
10.6328372935
 20
10.5934555765
 30
0.0
 10
10.6326175629
 20
10.593608873
 30
0.0
 10
10.6322255926
 20
10.5937309028
 30
0.0
 10
10.6317631311
 20
10.593904531
 30
0.0
 10
10.6311644118
 20
10.594117819
 30
0.0
 10
10.6304547842
 20
10.5943753686
 30
0.0
 10
10.6295055281
 20
10.5947182078
 30
0.0
 10
10.6283200144
 20
10.5951469487
 30
0.0
 10
10.6264226027
 20
10.5958328269
 30
0.0
 10
10.6240510361
 20
10.5966902105
 30
0.0
 10
10.6212050905
 20
10.5977190598
 30
0.0
 10
10.6183590905
 20
10.5987478958
 30
0.0
 10
10.6159876598
 20
10.5996053128
 30
0.0
 10
10.6140899762
 20
10.6002911242
 30
0.0
 10
10.612668189
 20
10.600805817
 30
0.0
 10
10.6114786728
 20
10.6012336643
 30
0.0
 10
10.6106552223
 20
10.6015352444
 30
0.0
 10
10.6101702972
 20
10.6017043172
 30
0.0
 10
10.6098471176
 20
10.6018403015
 30
0.0
 10
10.609369072
 20
10.6019411964
 30
0.0
 10
10.6087856968
 20
10.6020879626
 30
0.0
 10
10.6077396219
 20
10.6023391006
 30
0.0
 10
10.6062583875
 20
10.6027008507
 30
0.0
 10
10.6044752739
 20
10.6031336747
 30
0.0
 10
10.6020997571
 20
10.6037112192
 30
0.0
 10
10.5991296821
 20
10.6044329957
 30
0.0
 10
10.5955658989
 20
10.6052991988
 30
0.0
 10
10.592001975
 20
10.6061653632
 30
0.0
 10
10.5890322518
 20
10.6068872366
 30
0.0
 10
10.5866560315
 20
10.6074645872
 30
0.0
 10
10.5848750634
 20
10.6078980025
 30
0.0
 10
10.5833871171
 20
10.6082579027
 30
0.0
 10
10.5823530239
 20
10.6085123432
 30
0.0
 10
10.581750451
 20
10.6086538181
 30
0.0
 10
10.5813313749
 20
10.6087709659
 30
0.0
 10
10.5807867156
 20
10.6088459072
 30
0.0
 10
10.580104308
 20
10.608960551
 30
0.0
 10
10.5788896851
 20
10.6091543185
 30
0.0
 10
10.57716518
 20
10.6094347152
 30
0.0
 10
10.5750912065
 20
10.6097696563
 30
0.0
 10
10.5723275044
 20
10.6102167808
 30
0.0
 10
10.568872326
 20
10.610775501
 30
0.0
 10
10.5647263617
 20
10.6114460505
 30
0.0
 10
10.5605802793
 20
10.6121165556
 30
0.0
 10
10.557125396
 20
10.612675387
 30
0.0
 10
10.5543611037
 20
10.6131222891
 30
0.0
 10
10.5522889303
 20
10.6134579084
 30
0.0
 10
10.5505587936
 20
10.6137361835
 30
0.0
 10
10.5493542241
 20
10.6139337384
 30
0.0
 10
10.5486557085
 20
10.6140423137
 30
0.0
 10
10.5481605277
 20
10.6141358954
 30
0.0
 10
10.5475556182
 20
10.614183033
 30
0.0
 10
10.5467873468
 20
10.6142620834
 30
0.0
 10
10.545425039
 20
10.6143928736
 30
0.0
 10
10.5434882082
 20
10.6145836628
 30
0.0
 10
10.5411600205
 20
10.6148109209
 30
0.0
 10
10.5380571642
 20
10.6151145215
 30
0.0
 10
10.5341781166
 20
10.6154938203
 30
0.0
 10
10.5279719072
 20
10.6161008114
 30
0.0
 10
10.5202140532
 20
10.6168595112
 30
0.0
 10
10.5140077982
 20
10.6174664829
 30
0.0
 10
10.5109046671
 20
10.6177699673
 30
0.0
  0
SPLINE
  5
3D9
100
AcDbEntity
  8
0
100
AcDbSpline
 62
4
  6
CONTINUOUS
 70
0
 71
3
 72
258
 73
254
 74
0
 42
0.0000001
 43
0.0000001
 44
0.0000000001
 40
0.0
 40
0.0
 40
0.0
 40
0.0
 40
0.015625
 40
0.03125
 40
0.0390625
 40
0.046875
 40
0.0546875
 40
0.05859375
 40
0.060546875
 40
0.0625
 40
0.064453125
 40
0.06640625
 40
0.0703125
 40
0.078125
 40
0.0859375
 40
0.09375
 40
0.1015625
 40
0.109375
 40
0.1171875
 40
0.12109375
 40
0.123046875
 40
0.125
 40
0.126953125
 40
0.12890625
 40
0.1328125
 40
0.140625
 40
0.15625
 40
0.1640625
 40
0.171875
 40
0.1796875
 40
0.18359375
 40
0.185546875
 40
0.1875
 40
0.189453125
 40
0.19140625
 40
0.1953125
 40
0.203125
 40
0.2109375
 40
0.21875
 40
0.2265625
 40
0.234375
 40
0.23828125
 40
0.2421875
 40
0.24609375
 40
0.248046875
 40
0.2490234375
 40
0.25
 40
0.2509765625
 40
0.251953125
 40
0.25390625
 40
0.2578125
 40
0.26171875
 40
0.265625
 40
0.2734375
 40
0.28125
 40
0.2890625
 40
0.296875
 40
0.30078125
 40
0.3046875
 40
0.30859375
 40
0.310546875
 40
0.3115234375
 40
0.3125
 40
0.3134765625
 40
0.314453125
 40
0.31640625
 40
0.3203125
 40
0.32421875
 40
0.328125
 40
0.3359375
 40
0.34375
 40
0.3515625
 40
0.359375
 40
0.36328125
 40
0.3671875
 40
0.37109375
 40
0.373046875
 40
0.3740234375
 40
0.375
 40
0.3759765625
 40
0.376953125
 40
0.37890625
 40
0.3828125
 40
0.38671875
 40
0.390625
 40
0.3984375
 40
0.40625
 40
0.4140625
 40
0.421875
 40
0.42578125
 40
0.4296875
 40
0.431640625
 40
0.43359375
 40
0.435546875
 40
0.4365234375
 40
0.4375
 40
0.4384765625
 40
0.439453125
 40
0.44140625
 40
0.443359375
 40
0.4453125
 40
0.44921875
 40
0.453125
 40
0.4609375
 40
0.46875
 40
0.4765625
 40
0.484375
 40
0.48828125
 40
0.4921875
 40
0.494140625
 40
0.49609375
 40
0.498046875
 40
0.4990234375
 40
0.4995117188
 40
0.5
 40
0.5004882812
 40
0.5009765625
 40
0.501953125
 40
0.50390625
 40
0.505859375
 40
0.5078125
 40
0.51171875
 40
0.515625
 40
0.5234375
 40
0.53125
 40
0.5390625
 40
0.546875
 40
0.55078125
 40
0.5546875
 40
0.556640625
 40
0.55859375
 40
0.560546875
 40
0.5615234375
 40
0.5620117188
 40
0.5625
 40
0.5629882812
 40
0.5634765625
 40
0.564453125
 40
0.56640625
 40
0.568359375
 40
0.5703125
 40
0.57421875
 40
0.578125
 40
0.5859375
 40
0.59375
 40
0.6015625
 40
0.609375
 40
0.61328125
 40
0.6171875
 40
0.619140625
 40
0.62109375
 40
0.623046875
 40
0.6240234375
 40
0.6245117188
 40
0.625
 40
0.6254882812
 40
0.6259765625
 40
0.626953125
 40
0.62890625
 40
0.630859375
 40
0.6328125
 40
0.63671875
 40
0.640625
 40
0.6484375
 40
0.65625
 40
0.6640625
 40
0.671875
 40
0.67578125
 40
0.6796875
 40
0.681640625
 40
0.68359375
 40
0.685546875
 40
0.6865234375
 40
0.6870117188
 40
0.6875
 40
0.6879882812
 40
0.6884765625
 40
0.689453125
 40
0.69140625
 40
0.693359375
 40
0.6953125
 40
0.69921875
 40
0.703125
 40
0.7109375
 40
0.71875
 40
0.7265625
 40
0.734375
 40
0.73828125
 40
0.7421875
 40
0.744140625
 40
0.74609375
 40
0.748046875
 40
0.7490234375
 40
0.75
 40
0.7509765625
 40
0.751953125
 40
0.75390625
 40
0.755859375
 40
0.7578125
 40
0.76171875
 40
0.765625
 40
0.7734375
 40
0.78125
 40
0.7890625
 40
0.796875
 40
0.80078125
 40
0.8046875
 40
0.80859375
 40
0.810546875
 40
0.8115234375
 40
0.8125
 40
0.8134765625
 40
0.814453125
 40
0.81640625
 40
0.8203125
 40
0.82421875
 40
0.828125
 40
0.8359375
 40
0.84375
 40
0.8515625
 40
0.859375
 40
0.86328125
 40
0.8671875
 40
0.87109375
 40
0.873046875
 40
0.8740234375
 40
0.875
 40
0.8759765625
 40
0.876953125
 40
0.87890625
 40
0.8828125
 40
0.88671875
 40
0.890625
 40
0.8984375
 40
0.90625
 40
0.9140625
 40
0.921875
 40
0.92578125
 40
0.9296875
 40
0.93359375
 40
0.935546875
 40
0.9365234375
 40
0.9375
 40
0.9384765625
 40
0.939453125
 40
0.94140625
 40
0.9453125
 40
0.94921875
 40
0.953125
 40
0.9609375
 40
0.96875
 40
0.984375
 40
1.0
 40
1.0
 40
1.0
 40
1.0
 10
10.5109046841
 20
10.6177699661
 30
0.0
 10
10.5076891801
 20
10.6179077412
 30
0.0
 10
10.501258163
 20
10.6181832558
 30
0.0
 10
10.4932194374
 20
10.6185278269
 30
0.0
 10
10.486788361
 20
10.6188031104
 30
0.0
 10
10.4819653138
 20
10.6190105863
 30
0.0
 10
10.4779452809
 20
10.6191802609
 30
0.0
 10
10.4751328805
 20
10.619305356
 30
0.0
 10
10.473523261
 20
10.6193669663
 30
0.0
 10
10.4723231834
 20
10.6194409853
 30
0.0
 10
10.4710958243
 20
10.6194086956
 30
0.0
 10
10.4694688616
 20
10.6194027243
 30
0.0
 10
10.4666172433
 20
10.6193749969
 30
0.0
 10
10.462545819
 20
10.6193444249
 30
0.0
 10
10.4576591261
 20
10.6193038451
 30
0.0
 10
10.4527726623
 20
10.6192643773
 30
0.0
 10
10.4478862658
 20
10.619224355
 30
0.0
 10
10.4429993709
 20
10.6191854387
 30
0.0
 10
10.4389285638
 20
10.6191497837
 30
0.0
 10
10.4360758458
 20
10.6191311133
 30
0.0
 10
10.4344506448
 20
10.6191106323
 30
0.0
 10
10.433217874
 20
10.6191229117
 30
0.0
 10
10.4320381218
 20
10.6190295363
 30
0.0
 10
10.430446627
 20
10.6189418861
 30
0.0
 10
10.4276701095
 20
10.6187713619
 30
0.0
 10
10.422110976
 20
10.6184424846
 30
0.0
 10
10.4157601921
 20
10.6180615041
 30
0.0
 10
10.4094088434
 20
10.6176819758
 30
0.0
 10
10.4046445145
 20
10.6173980937
 30
0.0
 10
10.4006772006
 20
10.6171583732
 30
0.0
 10
10.397894222
 20
10.6169968538
 30
0.0
 10
10.3963131043
 20
10.6168947285
 30
0.0
 10
10.3951014725
 20
10.6168458244
 30
0.0
 10
10.393988437
 20
10.616691075
 30
0.0
 10
10.3924699981
 20
10.6165216626
 30
0.0
 10
10.3898287539
 20
10.616207989
 30
0.0
 10
10.3860471683
 20
10.6157688788
 30
0.0
 10
10.3815128621
 20
10.6152380888
 30
0.0
 10
10.3769775771
 20
10.6147083382
 30
0.0
 10
10.3724426109
 20
10.6141782879
 30
0.0
 10
10.3686632253
 20
10.613736712
 30
0.0
 10
10.3656401504
 20
10.6133832826
 30
0.0
 10
10.3633716918
 20
10.613118637
 30
0.0
 10
10.3614849705
 20
10.6128967479
 30
0.0
 10
10.360157082
 20
10.6127440763
 30
0.0
 10
10.359409505
 20
10.6126526964
 30
0.0
 10
10.3588172253
 20
10.6125958212
 30
0.0
 10
10.3583457251
 20
10.6124943767
 30
0.0
 10
10.3576749289
 20
10.6123746637
 30
0.0
 10
10.3565206644
 20
10.6121579226
 30
0.0
 10
10.3548614529
 20
10.6118520793
 30
0.0
 10
10.3528747917
 20
10.6114834464
 30
0.0
 10
10.3502243752
 20
10.6109925023
 30
0.0
 10
10.3469118852
 20
10.6103786267
 30
0.0
 10
10.3429366528
 20
10.6096420648
 30
0.0
 10
10.338961549
 20
10.6089054603
 30
0.0
 10
10.3356487374
 20
10.6082916909
 30
0.0
 10
10.3329989639
 20
10.6078005344
 30
0.0
 10
10.3310103416
 20
10.6074325492
 30
0.0
 10
10.3293572654
 20
10.60712468
 30
0.0
 10
10.3281920485
 20
10.6069115555
 30
0.0
 10
10.3275388007
 20
10.6067860477
 30
0.0
 10
10.3270133974
 20
10.6067024027
 30
0.0
 10
10.326623569
 20
10.6065786755
 30
0.0
 10
10.3260565077
 20
10.6064276871
 30
0.0
 10
10.3250861839
 20
10.6061569432
 30
0.0
 10
10.3236884877
 20
10.6057735718
 30
0.0
 10
10.322016183
 20
10.6053120684
 30
0.0
 10
10.3197847203
 20
10.60469724
 30
0.0
 10
10.316995988
 20
10.6039285286
 30
0.0
 10
10.3136492333
 20
10.6030061544
 30
0.0
 10
10.3103026285
 20
10.6020837438
 30
0.0
 10
10.3075135215
 20
10.6013151235
 30
0.0
 10
10.305282808
 20
10.600700113
 30
0.0
 10
10.3036082186
 20
10.6002391649
 30
0.0
 10
10.3022176698
 20
10.5998540563
 30
0.0
 10
10.3012345867
 20
10.5995864136
 30
0.0
 10
10.3006879691
 20
10.5994304563
 30
0.0
 10
10.3002353445
 20
10.5993219916
 30
0.0
 10
10.2999457932
 20
10.5991810235
 30
0.0
 10
10.2995028431
 20
10.5990044035
 30
0.0
 10
10.2987541826
 20
10.5986900363
 30
0.0
 10
10.2976708119
 20
10.5982437019
 30
0.0
 10
10.2963766977
 20
10.5977069185
 30
0.0
 10
10.2946491407
 20
10.5969916202
 30
0.0
 10
10.2924904039
 20
10.5960973559
 30
0.0
 10
10.2898996216
 20
10.5950242984
 30
0.0
 10
10.2873088967
 20
10.5939512285
 30
0.0
 10
10.2851500162
 20
10.5930569953
 30
0.0
 10
10.2834227467
 20
10.5923416347
 30
0.0
 10
10.2823435874
 20
10.5918944736
 30
0.0
 10
10.2814793792
 20
10.5915368841
 30
0.0
 10
10.280833635
 20
10.5912683102
 30
0.0
 10
10.2802878421
 20
10.591045713
 30
0.0
 10
10.2798684164
 20
10.5908649117
 30
0.0
 10
10.2795068247
 20
10.5907367527
 30
0.0
 10
10.2793247183
 20
10.5905801877
 30
0.0
 10
10.2790192133
 20
10.590381357
 30
0.0
 10
10.2786588429
 20
10.5901294142
 30
0.0
 10
10.278217191
 20
10.58982854
 30
0.0
 10
10.2776315378
 20
10.5894268655
 30
0.0
 10
10.2768983701
 20
10.5889249466
 30
0.0
 10
10.2757259172
 20
10.5881217791
 30
0.0
 10
10.2742601404
 20
10.587117853
 30
0.0
 10
10.2725012962
 20
10.5859131275
 30
0.0
 10
10.2707424376
 20
10.5847084053
 30
0.0
 10
10.2692766967
 20
10.5837044708
 30
0.0
 10
10.268104172
 20
10.5829013202
 30
0.0
 10
10.2673711868
 20
10.5823993582
 30
0.0
 10
10.2667851591
 20
10.5819977722
 30
0.0
 10
10.2663446514
 20
10.5816966275
 30
0.0
 10
10.265980701
 20
10.581445531
 30
0.0
 10
10.2657197749
 20
10.5812700434
 30
0.0
 10
10.2655802939
 20
10.5811693277
 30
0.0
 10
10.2654485845
 20
10.581095022
 30
0.0
 10
10.2654204599
 20
10.5810160107
 30
0.0
 10
10.2653468288
 20
10.5809123037
 30
0.0
 10
10.2652348087
 20
10.5807300517
 30
0.0
 10
10.2650659789
 20
10.5804700915
 30
0.0
 10
10.2648671503
 20
10.5801579681
 30
0.0
 10
10.2646007297
 20
10.5797418634
 30
0.0
 10
10.2642681545
 20
10.5792217121
 30
0.0
 10
10.2637357823
 20
10.5783894814
 30
0.0
 10
10.263070404
 20
10.577349189
 30
0.0
 10
10.2622719104
 20
10.57610084
 30
0.0
 10
10.2614734365
 20
10.5748524903
 30
0.0
 10
10.2608080087
 20
10.5738121995
 30
0.0
 10
10.2602757355
 20
10.5729799656
 30
0.0
 10
10.2599429087
 20
10.5724598222
 30
0.0
 10
10.2596770045
 20
10.5720437013
 30
0.0
 10
10.2594765981
 20
10.5717316274
 30
0.0
 10
10.2593127049
 20
10.5714715124
 30
0.0
 10
10.2591918722
 20
10.5712895368
 30
0.0
 10
10.2591323612
 20
10.5711853869
 30
0.0
 10
10.2590608643
 20
10.5711077362
 30
0.0
 10
10.2590920538
 20
10.5710283203
 30
0.0
 10
10.2590978216
 20
10.5709230481
 30
0.0
 10
10.2591246037
 20
10.570738535
 30
0.0
 10
10.2591541389
 20
10.5704750948
 30
0.0
 10
10.2591933157
 20
10.5701589023
 30
0.0
 10
10.259244247
 20
10.5697373348
 30
0.0
 10
10.2593083577
 20
10.5692103677
 30
0.0
 10
10.2594106853
 20
10.5683672247
 30
0.0
 10
10.259538681
 20
10.5673132944
 30
0.0
 10
10.2596922364
 20
10.5660485786
 30
0.0
 10
10.2598458114
 20
10.564783863
 30
0.0
 10
10.2599737579
 20
10.5637299324
 30
0.0
 10
10.2600761838
 20
10.5628867901
 30
0.0
 10
10.2601400448
 20
10.562359821
 30
0.0
 10
10.2601914887
 20
10.5619382577
 30
0.0
 10
10.2602290994
 20
10.5616220525
 30
0.0
 10
10.2602635346
 20
10.5613586521
 30
0.0
 10
10.2602815693
 20
10.5611740678
 30
0.0
 10
10.2603013525
 20
10.5610689097
 30
0.0
 10
10.2602894913
 20
10.5609891436
 30
0.0
 10
10.2603796857
 20
10.5609128081
 30
0.0
 10
10.2604643467
 20
10.5608098308
 30
0.0
 10
10.2606290892
 20
10.560630178
 30
0.0
 10
10.2608557645
 20
10.5603732398
 30
0.0
 10
10.2611314864
 20
10.5600650386
 30
0.0
 10
10.2614978192
 20
10.5596540602
 30
0.0
 10
10.2619561791
 20
10.5591403521
 30
0.0
 10
10.2626893067
 20
10.5583184107
 30
0.0
 10
10.2636058021
 20
10.5572909869
 30
0.0
 10
10.2647055572
 20
10.556058077
 30
0.0
 10
10.265805332
 20
10.554825168
 30
0.0
 10
10.2667217783
 20
10.5537977418
 30
0.0
 10
10.267455004
 20
10.5529758052
 30
0.0
 10
10.2679131147
 20
10.5524620851
 30
0.0
 10
10.268279959
 20
10.5520511312
 30
0.0
 10
10.2685541182
 20
10.551742855
 30
0.0
 10
10.2687856827
 20
10.5514861516
 30
0.0
 10
10.2689416971
 20
10.5513060797
 30
0.0
 10
10.2690403428
 20
10.5512037739
 30
0.0
 10
10.2690875806
 20
10.5511253756
 30
0.0
 10
10.2692370571
 20
10.551053357
 30
0.0
 10
10.2694006971
 20
10.5509551069
 30
0.0
 10
10.2697036826
 20
10.5507842059
 30
0.0
 10
10.2701278323
 20
10.5505395197
 30
0.0
 10
10.2706405302
 20
10.5502461282
 30
0.0
 10
10.2713228286
 20
10.5498548584
 30
0.0
 10
10.2721761463
 20
10.5493657991
 30
0.0
 10
10.2735412063
 20
10.5485832886
 30
0.0
 10
10.2752476152
 20
10.5476051555
 30
0.0
 10
10.2772952757
 20
10.5464313947
 30
0.0
 10
10.2793429227
 20
10.5452576303
 30
0.0
 10
10.2810493653
 20
10.5442795064
 30
0.0
 10
10.2824143578
 20
10.5434969778
 30
0.0
 10
10.2832678471
 20
10.5430079644
 30
0.0
 10
10.2839497933
 20
10.5426166002
 30
0.0
 10
10.2844635675
 20
10.5423234973
 30
0.0
 10
10.2848843496
 20
10.5420779082
 30
0.0
 10
10.2852374893
 20
10.5418844348
 30
0.0
 10
10.2854572199
 20
10.5417311382
 30
0.0
 10
10.2858491902
 20
10.5416091085
 30
0.0
 10
10.2863116516
 20
10.5414354803
 30
0.0
 10
10.286910371
 20
10.5412221922
 30
0.0
 10
10.2876199985
 20
10.5409646426
 30
0.0
 10
10.2885692547
 20
10.5406218034
 30
0.0
 10
10.2897547683
 20
10.5401930626
 30
0.0
 10
10.2916521801
 20
10.5395071843
 30
0.0
 10
10.2940237467
 20
10.5386498008
 30
0.0
 10
10.2968696923
 20
10.5376209515
 30
0.0
 10
10.2997156922
 20
10.5365921155
 30
0.0
 10
10.302087123
 20
10.5357346985
 30
0.0
 10
10.3039848065
 20
10.5350488871
 30
0.0
 10
10.3054065938
 20
10.5345341942
 30
0.0
 10
10.30659611
 20
10.534106347
 30
0.0
 10
10.3074195605
 20
10.5338047669
 30
0.0
 10
10.3079044856
 20
10.5336356941
 30
0.0
 10
10.3082276652
 20
10.5334997098
 30
0.0
 10
10.3087057108
 20
10.5333988148
 30
0.0
 10
10.3092890859
 20
10.5332520487
 30
0.0
 10
10.3103351609
 20
10.5330009106
 30
0.0
 10
10.3118163953
 20
10.5326391605
 30
0.0
 10
10.3135995089
 20
10.5322063366
 30
0.0
 10
10.3159750257
 20
10.531628792
 30
0.0
 10
10.3189451006
 20
10.5309070156
 30
0.0
 10
10.3225088838
 20
10.5300408124
 30
0.0
 10
10.3260728077
 20
10.5291746481
 30
0.0
 10
10.329042531
 20
10.5284527747
 30
0.0
 10
10.3314187512
 20
10.527875424
 30
0.0
 10
10.3331997194
 20
10.5274420088
 30
0.0
 10
10.3346876657
 20
10.5270821086
 30
0.0
 10
10.3357217588
 20
10.5268276681
 30
0.0
 10
10.3363243318
 20
10.5266861932
 30
0.0
 10
10.3367434078
 20
10.5265690454
 30
0.0
 10
10.3372880672
 20
10.5264941041
 30
0.0
 10
10.3379704748
 20
10.5263794603
 30
0.0
 10
10.3391850976
 20
10.5261856928
 30
0.0
 10
10.3409096028
 20
10.5259052961
 30
0.0
 10
10.3429835763
 20
10.525570355
 30
0.0
 10
10.3457472784
 20
10.5251232305
 30
0.0
 10
10.3492024568
 20
10.5245645103
 30
0.0
 10
10.3533484211
 20
10.5238939608
 30
0.0
 10
10.3574945034
 20
10.5232234557
 30
0.0
 10
10.3609493867
 20
10.5226646243
 30
0.0
 10
10.3637136791
 20
10.5222177222
 30
0.0
 10
10.3657858524
 20
10.5218821029
 30
0.0
 10
10.3675159892
 20
10.5216038278
 30
0.0
 10
10.3687205587
 20
10.5214062729
 30
0.0
 10
10.3694190743
 20
10.5212976975
 30
0.0
 10
10.369914255
 20
10.5212041158
 30
0.0
 10
10.3705191646
 20
10.5211569782
 30
0.0
 10
10.371287436
 20
10.5210779279
 30
0.0
 10
10.3726497438
 20
10.5209471377
 30
0.0
 10
10.3745865746
 20
10.5207563484
 30
0.0
 10
10.3769147622
 20
10.5205290904
 30
0.0
 10
10.3800176185
 20
10.5202254897
 30
0.0
 10
10.3838966662
 20
10.5198461909
 30
0.0
 10
10.3901028756
 20
10.5192391999
 30
0.0
 10
10.3978607295
 20
10.5184805001
 30
0.0
 10
10.4040669846
 20
10.5178735283
 30
0.0
 10
10.4071701156
 20
10.517570044
 30
0.0
  0
ENDSEC
  0
SECTION
  2
OBJECTS
  0
DICTIONARY
  5
C
100
AcDbDictionary
280
0
281
1
  3
ACAD_GROUP
350
D
  3
ACAD_MLINESTYLE
350
17
  3
ACAD_LAYOUT
350
1A
  3
ACAD_PLOTSETTINGS
350
19
  3
ACAD_PLOTSTYLENAME
350
E
  3
ACAD_IMAGE_DICT
350
       3DB
  3
ACAD_IMAGE_VARS
350
       3DC
  3
ACAD_TABLESTYLE
350
       3DD
  0
IMAGEDEF_REACTOR
  5
3DA
100
AcDbRasterImageDefReactor
 90
2
330
281
  0
DICTIONARY
  5
D
102
{ACAD_REACTORS
330
C
102
}
100
AcDbDictionary
280
0
281
1
  0
ACDBDICTIONARYWDFLT
  5
E
102
{ACAD_REACTORS
330
C
102
}
100
AcDbDictionary
281
1
  3
Normal
350
F
100
AcDbDictionaryWithDefault
340
F
  0
DICTIONARY
  5
3DB
330
C
100
AcDbDictionary
281
1
  3
K4R_assy_2_img_1
350
       3E0
  0
RASTERVARIABLES
  5
3DC
330
C
100
AcDbRasterVariables
 90
0
 70
0
 71
1
 72
5
  0
DICTIONARY
  5
17
102
{ACAD_REACTORS
330
C
102
}
100
AcDbDictionary
280
0
281
1
  3
Standard
350
18
  0
DICTIONARY
  5
3DD
330
C
100
AcDbDictionary
281
1
  3
Standard
350
       3E1
  3
Standard1
350
       3E2
  0
DICTIONARY
  5
19
102
{ACAD_REACTORS
330
C
102
}
100
AcDbDictionary
281
1
  0
DICTIONARY
  5
1A
102
{ACAD_REACTORS
330
C
102
}
100
AcDbDictionary
281
1
  3
Model
350
3DE
  3
Layout1
350
3DF
  0
ACDBPLACEHOLDER
  5
F
102
{ACAD_REACTORS
330
E
102
}
  0
MLINESTYLE
  5
18
102
{ACAD_REACTORS
330
17
102
}
100
AcDbMlineStyle
  2
STANDARD
 70
0
  3

 62
256
 51
90.0
 52
90.0
 71
2
 49
0.5
 62
256
  6
BYLAYER
 49
-0.5
 62
256
  6
BYLAYER
  0
LAYOUT
  5
3DE
102
{ACAD_REACTORS
330
1A
102
}
100
AcDbPlotSettings
  1

  2
none_device
  4
ANSI_C_(22.00_x_17.00_Inches)
  6

 40
0.0
 41
0.0
 42
0.0
 43
0.0
 44
558.8
 45
431.8
 46
0.0
 47
0.0
 48
0.0
 49
0.0
140
0.0
141
0.0
142
1.0
143
1.0
 70
1024
 72
0
 73
0
 74
0
  7

 75
0
147
1.0
148
0.0
149
0.0
100
AcDbLayout
  1
Model
 70
0
 71
0
 10
0.0
 20
0.0
 11
22.0
 21
17.0
 12
0.0
 22
0.0
 32
0.0
 14
0.0
 24
0.0
 34
0.0
 15
0.0
 25
0.0
 35
0.0
146
0.0
 13
0.0
 23
0.0
 33
0.0
 16
1.0
 26
0.0
 36
0.0
 17
0.0
 27
1.0
 37
0.0
 76
0
330
20C
345
0
346
0
  0
LAYOUT
  5
3DF
102
{ACAD_REACTORS
330
1A
102
}
100
AcDbPlotSettings
  1

  2
none_device
  4
ANSI_C_(22.00_x_17.00_Inches)
  6

 40
0.0
 41
0.0
 42
0.0
 43
0.0
 44
558.8
 45
431.8
 46
0.0
 47
0.0
 48
0.0
 49
0.0
140
0.0
141
0.0
142
1.0
143
1.0
 70
0
 72
0
 73
0
 74
0
  7

 75
0
147
1.0
148
0.0
149
0.0
100
AcDbLayout
  1
Layout1
 70
0
 71
1
 10
0.0
 20
0.0
 11
22.0
 21
17.0
 12
0.0
 22
0.0
 32
0.0
 14
0.0
 24
0.0
 34
0.0
 15
0.0
 25
0.0
 35
0.0
146
0.0
 13
0.0
 23
0.0
 33
0.0
 16
1.0
 26
0.0
 36
0.0
 17
0.0
 27
1.0
 37
0.0
 76
0
330
20D
345
0
346
0
  0
IMAGEDEF
  5
3E0
102
{ACAD_REACTORS
330
3DB
330
3DA
102
}
100
AcDbRasterImageDef
 90
0
  1
K4R_assy_2_img_1.png
 10
369.0
 20
92.0
 11
0.0066666667
 21
0.0066666667
280
1
281
0
  0
TABLESTYLE
  5
3E1
102
{ACAD_REACTORS
330
3DD
330
284
330
285
102
}
330
3DD
100
AcDbTableStyle
  3
Standard
 70
0
 71
0
 40
0.06
 41
0.06
280
1
281
1
  7
Standard
140
0.18
170
1
 62
0
 63
7
283
0
  7
Standard
140
0.18
170
1
 62
0
 63
7
283
0
  7
Standard
140
0.18
170
1
 62
0
 63
7
283
0
  0
TABLESTYLE
  5
3E2
102
{ACAD_REACTORS
330
3DD
330
283
102
}
330
3DD
100
AcDbTableStyle
  3
Standard1
 70
1
 71
0
 40
0.06
 41
0.06
280
1
281
1
  7
Standard
140
0.18
170
1
 62
0
 63
7
283
0
  7
Standard
140
0.18
170
1
 62
0
 63
7
283
0
  7
Standard
140
0.18
170
1
 62
0
 63
7
283
0
  0
ENDSEC
  0
EOF
