999
DXF file: K2Y_assy_2.dxf
999
Pro/ENGINEER 2014200 by Parametric Technology Corporation
  0
SECTION
  2
HEADER
  9
$ACADVER
  1
AC1021
  9
$DWGCODEPAGE
  3
ANSI_1252
  9
$EXTMAX
 10
22.0
 20
17.0
 30
0.0
  9
$EXTMIN
 10
0.0
 20
0.0
 30
0.0
  9
$LIMMIN
 10
0.0
 20
0.0
  9
$LIMMAX
 10
22.0
 20
17.0
  9
$VIEWCTR
 10
11.0
 20
8.5
  9
$VIEWSIZE
 40
17.0
  9
$CLAYER
  8
0
  9
$LTSCALE
 40
1.21
  9
$CELTYPE
  6
BYLAYER
  9
$DIMSCALE
 40
1.0
  9
$DIMASZ
 40
0.1875
  9
$DIMEXO
 40
0.0625
  9
$DIMDLI
 40
0.836
  9
$DIMEXE
 40
0.125
  9
$DIMCEN
 40
0.198
  9
$DIMLFAC
 40
1.0
  9
$DIMBLK
  1
_FILLED
  9
$DIMTXT
 40
0.1
  9
$DIMTOL
 70
0
  9
$DIMLIM
 70
0
  9
$DIMTFAC
 40
1.0
  9
$DIMGAP
 40
0.09
  9
$DIMDSEP
 70
46
  9
$AUNITS
 70
0
  9
$PDMODE
 70
3
  9
$PDSIZE
 40
0.3125
  9
$HANDSEED
  5
39E
  9
$TILEMODE
 70
1
  9
$MEASUREMENT
 70
0
  9
$INSUNITS
 70
1
  0
ENDSEC
  0
SECTION
  2
CLASSES
  0
CLASS
  1
ACDBDICTIONARYWDFLT
  2
AcDbDictionaryWithDefault
  3
AutoCAD 2000
 90
0
 91
1
280
0
281
0
  0
CLASS
  1
ACDBPLACEHOLDER
  2
AcDbPlaceHolder
  3
AutoCAD 2000
 90
0
 91
1
280
0
281
0
  0
CLASS
  1
LAYOUT
  2
AcDbLayout
  3
AutoCAD 2000
 90
0
 91
0
280
0
281
0
  0
CLASS
  1
RASTERVARIABLES
  2
AcDbRasterVariables
  3
ISM
 90
0
 91
1
280
0
281
0
  0
CLASS
  1
IMAGEDEF
  2
AcDbRasterImageDef
  3
ISM
 90
0
 91
1
280
0
281
0
  0
CLASS
  1
IMAGEDEF_REACTOR
  2
AcDbRasterImageDefReactor
  3
ISM
 90
0
 91
1
280
0
281
0
  0
CLASS
  1
IMAGE
  2
AcDbRasterImage
  3
ISM
 90
127
 91
1
280
0
281
1
  0
CLASS
  1
TABLESTYLE
  2
AcDbTableStyle
  3
ObjectDBX Classes
 90
2047
 91
1
280
0
281
0
  0
CLASS
  1
ACAD_TABLE
  2
AcDbTable
  3
ObjectDBX Classes
 90
1025
 91
3
280
0
281
1
  0
ENDSEC
  0
SECTION
  2
TABLES
  0
TABLE
  2
VPORT
  5
8
100
AcDbSymbolTable
 70
2
  0
VPORT
  5
1F4
100
AcDbSymbolTableRecord
100
AcDbViewportTableRecord
  2
*ACTIVE
 70
0
 10
0.0
 20
0.0
 11
1.0
 21
1.0
 12
11.0
 22
8.5
 13
0.0
 23
0.0
 14
1.0
 24
1.0
 15
0.0
 25
0.0
 16
0.0
 26
0.0
 36
1.0
 17
0.0
 27
0.0
 37
0.0
 40
17.0
 41
1.2941176471
 42
50.0
 43
0.0
 44
0.0
 50
0.0
 51
0.0
 71
0
 72
100
 73
1
 74
1
 75
0
 76
0
 77
0
 78
0
  0
ENDTAB
  0
TABLE
  2
LTYPE
  5
5
100
AcDbSymbolTable
 70
6
  0
LTYPE
  5
14
100
AcDbSymbolTableRecord
100
AcDbLinetypeTableRecord
  2
BYBLOCK
 70
0
  3

 72
65
 73
0
 40
0.0
  0
LTYPE
  5
15
100
AcDbSymbolTableRecord
100
AcDbLinetypeTableRecord
  2
BYLAYER
 70
0
  3

 72
65
 73
0
 40
0.0
  0
LTYPE
  5
16
100
AcDbSymbolTableRecord
100
AcDbLinetypeTableRecord
  2
CONTINUOUS
 70
64
  3
Solid line
 72
65
 73
0
 40
0.0
  0
LTYPE
  5
1F5
100
AcDbSymbolTableRecord
100
AcDbLinetypeTableRecord
  2
CENTER
 70
64
  3
____ _ ____ _ ____ _ ____ _ ____ _ ____ _ ____
 72
65
 73
4
 40
0.6
 49
0.375
 74
0
 49
-0.075
 74
0
 49
0.075
 74
0
 49
-0.075
 74
0
  0
LTYPE
  5
1F6
100
AcDbSymbolTableRecord
100
AcDbLinetypeTableRecord
  2
HIDDEN
 70
64
  3
- - - - - - - - - - - - - - - - - - - -
 72
65
 73
2
 40
0.2
 49
0.1
 74
0
 49
-0.1
 74
0
  0
LTYPE
  5
1F7
100
AcDbSymbolTableRecord
100
AcDbLinetypeTableRecord
  2
PHANTOM
 70
64
  3
_____ _ _ _____ _ _ _____ _ _ _____
 72
65
 73
6
 40
0.8
 49
0.45
 74
0
 49
-0.05
 74
0
 49
0.1
 74
0
 49
-0.05
 74
0
 49
0.1
 74
0
 49
-0.05
 74
0
  0
LTYPE
  5
1F8
100
AcDbSymbolTableRecord
100
AcDbLinetypeTableRecord
  2
DOT
 70
64
  3
. . . . . . . . . . . . . . . . . . . .
 72
65
 73
2
 40
0.2
 49
0.1
 74
0
 49
-0.1
 74
0
  0
LTYPE
  5
1F9
100
AcDbSymbolTableRecord
100
AcDbLinetypeTableRecord
  2
DASHED
 70
64
  3
- - - - - - - - - - - - - - - - - - - -
 72
65
 73
2
 40
0.2
 49
0.1
 74
0
 49
-0.1
 74
0
  0
ENDTAB
  0
TABLE
  2
LAYER
  5
2
100
AcDbSymbolTable
 70
36
  0
LAYER
  5
10
100
AcDbSymbolTableRecord
100
AcDbLayerTableRecord
  2
0
 70
0
 62
7
  6
CONTINUOUS
370
-3
390
F
  0
LAYER
  5
1FA
100
AcDbSymbolTableRecord
100
AcDbLayerTableRecord
  2
DEFAULT_1
 70
0
 62
7
  6
CENTER
370
-3
390
F
  0
LAYER
  5
1FB
100
AcDbSymbolTableRecord
100
AcDbLayerTableRecord
  2
DEFAULT_2
 70
0
 62
8
  6
HIDDEN
370
-3
390
F
  0
LAYER
  5
1FC
100
AcDbSymbolTableRecord
100
AcDbLayerTableRecord
  2
DEFAULT_3
 70
0
 62
7
  6
PHANTOM
370
-3
390
F
  0
LAYER
  5
1FD
100
AcDbSymbolTableRecord
100
AcDbLayerTableRecord
  2
01___PRT_ALL_DTM_PLN
 70
0
 62
7
  6
CONTINUOUS
370
-3
390
F
  0
LAYER
  5
1FE
100
AcDbSymbolTableRecord
100
AcDbLayerTableRecord
  2
01___PRT_DEF_DTM_PLN
 70
0
 62
7
  6
CONTINUOUS
370
-3
390
F
  0
LAYER
  5
1FF
100
AcDbSymbolTableRecord
100
AcDbLayerTableRecord
  2
02___PRT_ALL_AXES
 70
0
 62
7
  6
CONTINUOUS
370
-3
390
F
  0
LAYER
  5
200
100
AcDbSymbolTableRecord
100
AcDbLayerTableRecord
  2
03___PRT_ALL_CURVES
 70
0
 62
7
  6
CONTINUOUS
370
-3
390
F
  0
LAYER
  5
201
100
AcDbSymbolTableRecord
100
AcDbLayerTableRecord
  2
04___PRT_ALL_DTM_PNT
 70
0
 62
7
  6
CONTINUOUS
370
-3
390
F
  0
LAYER
  5
202
100
AcDbSymbolTableRecord
100
AcDbLayerTableRecord
  2
05___PRT_ALL_DTM_CSYS
 70
0
 62
7
  6
CONTINUOUS
370
-3
390
F
  0
LAYER
  5
203
100
AcDbSymbolTableRecord
100
AcDbLayerTableRecord
  2
05___PRT_DEF_DTM_CSYS
 70
0
 62
7
  6
CONTINUOUS
370
-3
390
F
  0
LAYER
  5
204
100
AcDbSymbolTableRecord
100
AcDbLayerTableRecord
  2
06___PRT_ALL_SURFS
 70
0
 62
7
  6
CONTINUOUS
370
-3
390
F
  0
LAYER
  5
205
100
AcDbSymbolTableRecord
100
AcDbLayerTableRecord
  2
DATUM_PLANES
 70
0
 62
7
  6
CONTINUOUS
370
-3
390
F
  0
LAYER
  5
206
100
AcDbSymbolTableRecord
100
AcDbLayerTableRecord
  2
PORT_AREAS
 70
0
 62
7
  6
CONTINUOUS
370
-3
390
F
  0
LAYER
  5
207
100
AcDbSymbolTableRecord
100
AcDbLayerTableRecord
  2
SUNNBOMCOSMETIC
 70
0
 62
7
  6
CONTINUOUS
370
-3
390
F
  0
LAYER
  5
208
100
AcDbSymbolTableRecord
100
AcDbLayerTableRecord
  2
SUNNBOMSTAMPING
 70
0
 62
7
  6
CONTINUOUS
370
-3
390
F
  0
LAYER
  5
209
100
AcDbSymbolTableRecord
100
AcDbLayerTableRecord
  2
THREADS
 70
0
 62
7
  6
CONTINUOUS
370
-3
390
F
  0
ENDTAB
  0
TABLE
  2
STYLE
  5
3
100
AcDbSymbolTable
 70
1
  0
STYLE
  5
11
100
AcDbSymbolTableRecord
100
AcDbTextStyleTableRecord
  2
STANDARD
 70
0
 40
0.0
 41
0.8
 50
0.0
 71
0
 42
0.2
  3
txt
  4

  0
STYLE
  5
20A
100
AcDbSymbolTableRecord
100
AcDbTextStyleTableRecord
  2
TEXTSTYLE_1
 70
0
 40
0.0
 41
0.8
 50
0.0
 71
0
 42
0.2
  3
gdt
  4

  0
ENDTAB
  0
TABLE
  2
VIEW
  5
6
100
AcDbSymbolTable
 70
0
  0
ENDTAB
  0
TABLE
  2
UCS
  5
7
100
AcDbSymbolTable
 70
0
  0
ENDTAB
  0
TABLE
  2
APPID
  5
9
100
AcDbSymbolTable
 70
1
  0
APPID
  5
20B
100
AcDbSymbolTableRecord
100
AcDbRegAppTableRecord
  2
ACAD
 70
0
  0
ENDTAB
  0
TABLE
  2
BLOCK_RECORD
  5
1
100
AcDbSymbolTable
 70
0
  0
BLOCK_RECORD
  5
20C
100
AcDbSymbolTableRecord
100
AcDbBlockTableRecord
  2
*Model_Space
  0
BLOCK_RECORD
  5
20D
100
AcDbSymbolTableRecord
100
AcDbBlockTableRecord
  2
*Paper_Space
  0
BLOCK_RECORD
  5
20E
100
AcDbSymbolTableRecord
100
AcDbBlockTableRecord
  2
SUN_FIRST_THIRD_ANGLE_BL0
  0
BLOCK_RECORD
  5
20F
100
AcDbSymbolTableRecord
100
AcDbBlockTableRecord
  2
*T1
  0
BLOCK_RECORD
  5
210
100
AcDbSymbolTableRecord
100
AcDbBlockTableRecord
  2
*T2
  0
BLOCK_RECORD
  5
211
100
AcDbSymbolTableRecord
100
AcDbBlockTableRecord
  2
*T3
  0
ENDTAB
  0
TABLE
  2
DIMSTYLE
  5
A
100
AcDbSymbolTable
 70
1
100
AcDbDimStyleTable
 71
0
  0
DIMSTYLE
105
212
100
AcDbSymbolTableRecord
100
AcDbDimStyleTableRecord
  2
STANDARD
 70
0
  3

  4

 40
1.0
 41
0.1875
 42
0.0625
 43
0.38
 44
0.125
 45
0.0
 46
0.0
 47
0.001
 48
0.001
140
0.1
141
0.09
142
0.0
143
25.4
144
1.0
145
0.0
146
1.0
147
0.09
 71
0.0
 72
0.0
 73
1
 74
1
 75
0
 76
0
 77
0
 78
4
170
0
171
2
172
0
173
0
174
0
175
0
176
0
177
0
178
0
270
2
271
3
272
3
273
2
274
2
275
0
280
0
281
0
282
0
283
1
284
4
285
0
286
0
287
3
288
0
340
11
278
46
  0
ENDTAB
  0
ENDSEC
  0
SECTION
  2
BLOCKS
  0
BLOCK
  5
20
100
AcDbEntity
  8
0
100
AcDbBlockBegin
  2
*Model_Space
 70
0
 10
0.0
 20
0.0
 30
0.0
  3
*Model_Space
  1

  0
ENDBLK
  5
21
100
AcDbEntity
  8
0
100
AcDbBlockEnd
  0
BLOCK
  5
1C
100
AcDbEntity
  8
0
100
AcDbBlockBegin
  2
*Paper_Space
 70
0
 10
0.0
 20
0.0
 30
0.0
  3
*Paper_Space
  1

  0
ENDBLK
  5
1D
100
AcDbEntity
  8
0
100
AcDbBlockEnd
  0
BLOCK
  5
213
100
AcDbEntity
  8
0
100
AcDbBlockBegin
 62
2
  6
CONTINUOUS
  2
SUN_FIRST_THIRD_ANGLE_BL0
 70
64
 10
20.4816717061
 20
1.2289683772
  3
SUN_FIRST_THIRD_ANGLE_BL0
  1

  0
TEXT
  5
214
100
AcDbEntity
  8
0
100
AcDbText
 62
2
  6
CONTINUOUS
 10
19.4750896608
 20
1.4136269581
  7
STANDARD
 40
0.08
  1
FIRST ANGLE
 41
0.8
 72
0
100
AcDbText
  0
TEXT
  5
215
100
AcDbEntity
  8
0
100
AcDbText
 62
2
  6
CONTINUOUS
 10
20.7842537513
 20
1.4047600029
  7
STANDARD
 40
0.08
  1
THIRD ANGLE
 41
0.8
 72
0
100
AcDbText
  0
LINE
  5
216
100
AcDbEntity
  8
0
100
AcDbLine
 62
7
  6
CONTINUOUS
 10
19.4767170086
 20
1.1727031207
 11
19.6334271527
 21
1.1717972817
  0
LINE
  5
217
100
AcDbEntity
  8
0
100
AcDbLine
 62
7
  6
CONTINUOUS
 10
19.6596964832
 20
1.1717972817
 11
19.6950230232
 21
1.171593082
  0
LINE
  5
218
100
AcDbEntity
  8
0
100
AcDbLine
 62
7
  6
CONTINUOUS
 10
19.7194818561
 20
1.1708914427
 11
19.8852396156
 21
1.1699333054
  0
LINE
  5
219
100
AcDbEntity
  8
0
100
AcDbLine
 62
7
  6
CONTINUOUS
 10
19.4758111696
 20
1.2723454088
 11
19.88525039
 21
1.3511534004
  0
LINE
  5
21A
100
AcDbEntity
  8
0
100
AcDbLine
 62
7
  6
CONTINUOUS
 10
19.88525039
 20
1.3511534004
 11
19.8831348489
 21
0.9851647912
  0
LINE
  5
21B
100
AcDbEntity
  8
0
100
AcDbLine
 62
7
  6
CONTINUOUS
 10
19.8831348489
 20
0.9851647912
 11
19.4767170086
 21
1.0658141206
  0
LINE
  5
21C
100
AcDbEntity
  8
0
100
AcDbLine
 62
7
  6
CONTINUOUS
 10
19.4767170086
 20
1.0658141206
 11
19.4779056764
 21
1.2714536432
  0
CIRCLE
  5
21D
100
AcDbEntity
  8
0
100
AcDbCircle
 62
7
  6
CONTINUOUS
 10
20.2068232291
 20
1.1717972817
 40
0.175742101
  0
CIRCLE
  5
21E
100
AcDbEntity
  8
0
100
AcDbCircle
 62
7
  6
CONTINUOUS
 10
20.2068232291
 20
1.1717972817
 40
0.1005522074
  0
LINE
  5
21F
100
AcDbEntity
  8
0
100
AcDbLine
 62
7
  6
CONTINUOUS
 10
20.2077290681
 20
1.3756110529
 11
20.2071171714
 21
1.2379342989
  0
LINE
  5
220
100
AcDbEntity
  8
0
100
AcDbLine
 62
7
  6
CONTINUOUS
 10
20.2077290681
 20
1.2016899681
 11
20.2074674401
 21
1.1428236749
  0
LINE
  5
221
100
AcDbEntity
  8
0
100
AcDbLine
 62
7
  6
CONTINUOUS
 10
20.208634907
 20
1.101141841
 11
20.2080230104
 21
0.963465087
  0
LINE
  5
222
100
AcDbEntity
  8
0
100
AcDbLine
 62
7
  6
CONTINUOUS
 10
20.0066328138
 20
1.1745147986
 11
20.1443095678
 21
1.1739029019
  0
LINE
  5
223
100
AcDbEntity
  8
0
100
AcDbLine
 62
7
  6
CONTINUOUS
 10
20.1832714155
 20
1.1727031207
 11
20.238153505
 21
1.172335442
  0
LINE
  5
224
100
AcDbEntity
  8
0
100
AcDbLine
 62
7
  6
CONTINUOUS
 10
20.2756669918
 20
1.1717972817
 11
20.407916871
 21
1.1712095044
  0
CIRCLE
  5
225
100
AcDbEntity
  8
0
100
AcDbCircle
 62
7
  6
CONTINUOUS
 10
20.7509457401
 20
1.1693297793
 40
0.1722024983
  0
CIRCLE
  5
226
100
AcDbEntity
  8
0
100
AcDbCircle
 62
7
  6
CONTINUOUS
 10
20.7509457401
 20
1.1693297793
 40
0.0985164967
  0
LINE
  5
227
100
AcDbEntity
  8
0
100
AcDbLine
 62
7
  6
CONTINUOUS
 10
20.7169767782
 20
1.170462078
 11
20.7825395137
 21
1.1682766535
  0
LINE
  5
228
100
AcDbEntity
  8
0
100
AcDbLine
 62
7
  6
CONTINUOUS
 10
20.8177513651
 20
1.1693297793
 11
20.947965719
 21
1.1693297793
  0
LINE
  5
229
100
AcDbEntity
  8
0
100
AcDbLine
 62
7
  6
CONTINUOUS
 10
20.6875370113
 20
1.170462078
 11
20.5573226574
 21
1.170462078
  0
LINE
  5
22A
100
AcDbEntity
  8
0
100
AcDbLine
 62
7
  6
CONTINUOUS
 10
20.7486811426
 20
1.1987695462
 11
20.7486811426
 21
1.1432869085
  0
LINE
  5
22B
100
AcDbEntity
  8
0
100
AcDbLine
 62
7
  6
CONTINUOUS
 10
20.7498134414
 20
1.1059210505
 11
20.7498134414
 21
0.9757066966
  0
LINE
  5
22C
100
AcDbEntity
  8
0
100
AcDbLine
 62
7
  6
CONTINUOUS
 10
20.7486811426
 20
1.2338708068
 11
20.7486811426
 21
1.3640851607
  0
LINE
  5
22D
100
AcDbEntity
  8
0
100
AcDbLine
 62
7
  6
CONTINUOUS
 10
21.0702539817
 20
1.2701043662
 11
21.4790138229
 21
1.3448360823
  0
LINE
  5
22E
100
AcDbEntity
  8
0
100
AcDbLine
 62
7
  6
CONTINUOUS
 10
21.4790138229
 20
1.3448360823
 11
21.4790138229
 21
0.9779712941
  0
LINE
  5
22F
100
AcDbEntity
  8
0
100
AcDbLine
 62
7
  6
CONTINUOUS
 10
21.4790138229
 20
0.9779712941
 11
21.069121683
 21
1.0617614
  0
LINE
  5
230
100
AcDbEntity
  8
0
100
AcDbLine
 62
7
  6
CONTINUOUS
 10
21.0702539817
 20
1.2701043662
 11
21.069121683
 21
1.0617614
  0
LINE
  5
231
100
AcDbEntity
  8
0
100
AcDbLine
 62
7
  6
CONTINUOUS
 10
21.4790138229
 20
1.1693297793
 11
21.3159628059
 21
1.1693297793
  0
LINE
  5
232
100
AcDbEntity
  8
0
100
AcDbLine
 62
7
  6
CONTINUOUS
 10
21.2876553377
 20
1.1693297793
 11
21.2502894796
 21
1.1693297793
  0
LINE
  5
233
100
AcDbEntity
  8
0
100
AcDbLine
 62
7
  6
CONTINUOUS
 10
21.2208497126
 20
1.1659328831
 11
21.0713862804
 21
1.1659328831
  0
LINE
  5
234
100
AcDbEntity
  8
0
100
AcDbLine
 62
7
  6
CONTINUOUS
 10
20.4796138713
 20
1.5284908897
 11
20.4766766948
 21
0.9294458646
  0
ENDBLK
  5
235
100
AcDbEntity
  8
0
  6
BYBLOCK
 62
0
100
AcDbBlockEnd
  0
BLOCK
  5
236
100
AcDbEntity
  8
0
100
AcDbBlockBegin
  2
*T1
 70
1
 10
0.0
 20
0.0
  3
*T1
  1

  0
LINE
  5
237
100
AcDbEntity
  8
0
100
AcDbLine
 62
2
  6
CONTINUOUS
 10
9.275
 20
0.0
 11
-0.0
 21
0.0
  0
LINE
  5
238
100
AcDbEntity
  8
0
100
AcDbLine
 62
2
  6
CONTINUOUS
 10
9.275
 20
0.0
 11
9.275
 21
1.25
  0
LINE
  5
239
100
AcDbEntity
  8
0
100
AcDbLine
 62
2
  6
CONTINUOUS
 10
9.275
 20
0.625
 11
-0.0
 21
0.625
  0
LINE
  5
23A
100
AcDbEntity
  8
0
100
AcDbLine
 62
2
  6
CONTINUOUS
 10
9.275
 20
1.25
 11
-0.0
 21
1.25
  0
LINE
  5
23B
100
AcDbEntity
  8
0
100
AcDbLine
 62
2
  6
CONTINUOUS
 10
6.8
 20
0.0
 11
6.8
 21
1.25
  0
LINE
  5
23C
100
AcDbEntity
  8
0
100
AcDbLine
 62
2
  6
CONTINUOUS
 10
6.4
 20
0.0
 11
6.4
 21
0.625
  0
LINE
  5
23D
100
AcDbEntity
  8
0
100
AcDbLine
 62
2
  6
CONTINUOUS
 10
5.9
 20
0.0
 11
5.9
 21
0.625
  0
LINE
  5
23E
100
AcDbEntity
  8
0
100
AcDbLine
 62
2
  6
CONTINUOUS
 10
5.2
 20
0.0
 11
5.2
 21
0.625
  0
LINE
  5
23F
100
AcDbEntity
  8
0
100
AcDbLine
 62
2
  6
CONTINUOUS
 10
4.1
 20
0.0
 11
4.1
 21
1.25
  0
LINE
  5
240
100
AcDbEntity
  8
0
100
AcDbLine
 62
2
  6
CONTINUOUS
 10
-0.0
 20
0.0
 11
-0.0
 21
1.25
  0
MTEXT
  5
241
100
AcDbEntity
  8
0
100
AcDbMText
 62
2
  6
CONTINUOUS
  7
STANDARD
 71
2
 72
1
 10
6.6
 20
0.325
 30
0.0
 11
1.0
 21
0.0
 31
0.0
 44
0.9
  1
2
 40
0.125
 41
0.2
  0
MTEXT
  5
242
100
AcDbEntity
  8
0
100
AcDbMText
 62
2
  6
CONTINUOUS
  7
STANDARD
 71
2
 72
1
 10
6.15
 20
0.325
 30
0.0
 11
1.0
 21
0.0
 31
0.0
 44
0.9
  1
C
 40
0.125
 41
0.2
  0
MTEXT
  5
243
100
AcDbEntity
  8
0
100
AcDbMText
 62
2
  6
CONTINUOUS
  7
STANDARD
 71
2
 72
1
 10
5.55
 20
0.325
 30
0.0
 11
1.0
 21
0.0
 31
0.0
 44
0.9
  1
0.900
 40
0.125
 41
1.0
  0
MTEXT
  5
244
100
AcDbEntity
  8
0
100
AcDbMText
 62
2
  6
CONTINUOUS
  7
STANDARD
 71
2
 72
1
 10
4.65
 20
0.325
 30
0.0
 11
1.0
 21
0.0
 31
0.0
 44
0.9
  1
Jul-13-20
 40
0.125
 41
1.8
  0
MTEXT
  5
245
100
AcDbEntity
  8
0
100
AcDbMText
 62
2
  6
CONTINUOUS
  7
STANDARD
 71
2
 72
1
 10
2.05
 20
0.4625
 30
0.0
 11
1.0
 21
0.0
 31
0.0
 44
0.9
  1
T-19A Line mount\P(See Technical Data for Body Features)
 40
0.125
 41
7.6
  0
MTEXT
  5
246
100
AcDbEntity
  8
0
100
AcDbMText
 62
2
  6
CONTINUOUS
  7
STANDARD
 71
1
 72
1
 10
6.45
 20
0.5625
 30
0.0
 11
1.0
 21
0.0
 31
0.0
 44
0.9
  1
SHEET
 40
0.06
 41
0.48
  0
MTEXT
  5
247
100
AcDbEntity
  8
0
100
AcDbMText
 62
2
  6
CONTINUOUS
  7
STANDARD
 71
1
 72
1
 10
5.95
 20
0.5625
 30
0.0
 11
1.0
 21
0.0
 31
0.0
 44
0.9
  1
DWG SIZE
 40
0.06
 41
0.768
  0
MTEXT
  5
248
100
AcDbEntity
  8
0
100
AcDbMText
 62
2
  6
CONTINUOUS
  7
STANDARD
 71
1
 72
1
 10
5.25
 20
0.5625
 30
0.0
 11
1.0
 21
0.0
 31
0.0
 44
0.9
  1
SCALE
 40
0.06
 41
0.48
  0
MTEXT
  5
249
100
AcDbEntity
  8
0
100
AcDbMText
 62
2
  6
CONTINUOUS
  7
STANDARD
 71
1
 72
1
 10
4.15
 20
0.5625
 30
0.0
 11
1.0
 21
0.0
 31
0.0
 44
0.9
  1
DATE
 40
0.06
 41
0.384
  0
MTEXT
  5
24A
100
AcDbEntity
  8
0
100
AcDbMText
 62
2
  6
CONTINUOUS
  7
STANDARD
 71
1
 72
1
 10
0.05
 20
0.5625
 30
0.0
 11
1.0
 21
0.0
 31
0.0
 44
0.9
  1
DESCRIPTION
 40
0.06
 41
1.056
  0
MTEXT
  5
24B
100
AcDbEntity
  8
0
100
AcDbMText
 62
2
  6
CONTINUOUS
  7
STANDARD
 71
2
 72
1
 10
5.45
 20
1.0375
 30
0.0
 11
1.0
 21
0.0
 31
0.0
 44
0.9
  1
ALL DIMENSIONS IN INCH\PVIEWS ARE THIRD ANGLE
 40
0.12
 41
4.224
  0
MTEXT
  5
24C
100
AcDbEntity
  8
0
100
AcDbMText
 62
2
  6
CONTINUOUS
  7
STANDARD
 71
2
 72
1
 10
2.05
 20
0.95
 30
0.0
 11
1.0
 21
0.0
 31
0.0
 44
0.9
  1
K2Y
 40
0.125
 41
0.6
  0
MTEXT
  5
24D
100
AcDbEntity
  8
0
100
AcDbMText
 62
2
  6
CONTINUOUS
  7
STANDARD
 71
1
 72
1
 10
0.05
 20
1.1875
 30
0.0
 11
1.0
 21
0.0
 31
0.0
 44
0.9
  1
MODEL
 40
0.06
 41
0.48
  0
ENDBLK
  5
24E
100
AcDbEntity
  8
0
  6
BYBLOCK
 62
0
100
AcDbBlockEnd
  0
BLOCK
  5
24F
100
AcDbEntity
  8
0
100
AcDbBlockBegin
  2
*T2
 70
1
 10
0.0
 20
0.0
  3
*T2
  1

  0
LINE
  5
250
100
AcDbEntity
  8
0
100
AcDbLine
 62
2
  6
CONTINUOUS
 10
0.0
 20
0.0
 11
9.055
 21
0.0
  0
LINE
  5
251
100
AcDbEntity
  8
0
100
AcDbLine
 62
2
  6
CONTINUOUS
 10
0.0
 20
0.0
 11
0.0
 21
-2.594
  0
LINE
  5
252
100
AcDbEntity
  8
0
100
AcDbLine
 62
2
  6
CONTINUOUS
 10
0.0
 20
-0.344
 11
9.055
 21
-0.344
  0
LINE
  5
253
100
AcDbEntity
  8
0
100
AcDbLine
 62
2
  6
CONTINUOUS
 10
0.0
 20
-0.594
 11
9.055
 21
-0.594
  0
LINE
  5
254
100
AcDbEntity
  8
0
100
AcDbLine
 62
2
  6
CONTINUOUS
 10
0.0
 20
-0.844
 11
9.055
 21
-0.844
  0
LINE
  5
255
100
AcDbEntity
  8
0
100
AcDbLine
 62
2
  6
CONTINUOUS
 10
0.0
 20
-1.094
 11
9.055
 21
-1.094
  0
LINE
  5
256
100
AcDbEntity
  8
0
100
AcDbLine
 62
2
  6
CONTINUOUS
 10
0.0
 20
-1.344
 11
9.055
 21
-1.344
  0
LINE
  5
257
100
AcDbEntity
  8
0
100
AcDbLine
 62
2
  6
CONTINUOUS
 10
0.0
 20
-1.594
 11
9.055
 21
-1.594
  0
LINE
  5
258
100
AcDbEntity
  8
0
100
AcDbLine
 62
2
  6
CONTINUOUS
 10
0.0
 20
-1.844
 11
9.055
 21
-1.844
  0
LINE
  5
259
100
AcDbEntity
  8
0
100
AcDbLine
 62
2
  6
CONTINUOUS
 10
0.0
 20
-2.094
 11
9.055
 21
-2.094
  0
LINE
  5
25A
100
AcDbEntity
  8
0
100
AcDbLine
 62
2
  6
CONTINUOUS
 10
0.0
 20
-2.344
 11
9.055
 21
-2.344
  0
LINE
  5
25B
100
AcDbEntity
  8
0
100
AcDbLine
 62
2
  6
CONTINUOUS
 10
0.0
 20
-2.594
 11
9.055
 21
-2.594
  0
LINE
  5
25C
100
AcDbEntity
  8
0
100
AcDbLine
 62
2
  6
CONTINUOUS
 10
3.055
 20
0.0
 11
3.055
 21
-2.594
  0
LINE
  5
25D
100
AcDbEntity
  8
0
100
AcDbLine
 62
2
  6
CONTINUOUS
 10
9.055
 20
0.0
 11
9.055
 21
-2.594
  0
MTEXT
  5
25E
100
AcDbEntity
  8
0
100
AcDbMText
 62
2
  6
CONTINUOUS
  7
STANDARD
 71
2
 72
1
 10
1.5275
 20
-0.0995
 30
0.0
 11
1.0
 21
0.0
 31
0.0
 44
0.9
  1
Technical Data
 40
0.145
 41
3.248
  0
MTEXT
  5
25F
100
AcDbEntity
  8
0
100
AcDbMText
 62
2
  6
CONTINUOUS
  7
STANDARD
 71
2
 72
1
 10
4.555
 20
-0.0995
 30
0.0
 11
1.0
 21
0.0
 31
0.0
 44
0.9
  1
U.S. Units
 40
0.145
 41
2.32
  0
MTEXT
  5
260
100
AcDbEntity
  8
0
100
AcDbMText
 62
2
  6
CONTINUOUS
  7
STANDARD
 71
2
 72
1
 10
7.555
 20
-0.0995
 30
0.0
 11
1.0
 21
0.0
 31
0.0
 44
0.9
  1
Metric Units
 40
0.145
 41
2.784
  0
MTEXT
  5
261
100
AcDbEntity
  8
0
100
AcDbMText
 62
2
  6
CONTINUOUS
  7
STANDARD
 71
2
 72
1
 10
1.5275
 20
-0.4065
 30
0.0
 11
1.0
 21
0.0
 31
0.0
 44
0.9
  1
Cavity
 40
0.125
 41
1.2
  0
MTEXT
  5
262
100
AcDbEntity
  8
0
100
AcDbMText
 62
2
  6
CONTINUOUS
  7
STANDARD
 71
2
 72
1
 10
6.055
 20
-0.4065
 30
0.0
 11
1.0
 21
0.0
 31
0.0
 44
0.9
  1
T-19A
 40
0.125
 41
1.0
  0
MTEXT
  5
263
100
AcDbEntity
  8
0
100
AcDbMText
 62
2
  6
CONTINUOUS
  7
STANDARD
 71
2
 72
1
 10
1.5275
 20
-0.6565
 30
0.0
 11
1.0
 21
0.0
 31
0.0
 44
0.9
  1
Body Features
 40
0.125
 41
2.6
  0
MTEXT
  5
264
100
AcDbEntity
  8
0
100
AcDbMText
 62
2
  6
CONTINUOUS
  7
STANDARD
 71
2
 72
1
 10
6.055
 20
-0.6565
 30
0.0
 11
1.0
 21
0.0
 31
0.0
 44
0.9
  1
Ninety degree with reverse flow check - reducing
 40
0.125
 41
9.6
  0
MTEXT
  5
265
100
AcDbEntity
  8
0
100
AcDbMText
 62
2
  6
CONTINUOUS
  7
STANDARD
 71
2
 72
1
 10
1.5275
 20
-0.9065
 30
0.0
 11
1.0
 21
0.0
 31
0.0
 44
0.9
  1
Body Type
 40
0.125
 41
1.8
  0
MTEXT
  5
266
100
AcDbEntity
  8
0
100
AcDbMText
 62
2
  6
CONTINUOUS
  7
STANDARD
 71
2
 72
1
 10
6.055
 20
-0.9065
 30
0.0
 11
1.0
 21
0.0
 31
0.0
 44
0.9
  1
Line mount
 40
0.125
 41
2.0
  0
MTEXT
  5
267
100
AcDbEntity
  8
0
100
AcDbMText
 62
2
  6
CONTINUOUS
  7
STANDARD
 71
2
 72
1
 10
1.5275
 20
-1.1565
 30
0.0
 11
1.0
 21
0.0
 31
0.0
 44
0.9
  1
Interface
 40
0.125
 41
1.8
  0
MTEXT
  5
268
100
AcDbEntity
  8
0
100
AcDbMText
 62
2
  6
CONTINUOUS
  7
STANDARD
 71
2
 72
1
 10
6.055
 20
-1.1565
 30
0.0
 11
1.0
 21
0.0
 31
0.0
 44
0.9
  1
None
 40
0.125
 41
0.8
  0
MTEXT
  5
269
100
AcDbEntity
  8
0
100
AcDbMText
 62
2
  6
CONTINUOUS
  7
STANDARD
 71
2
 72
1
 10
1.5275
 20
-1.4065
 30
0.0
 11
1.0
 21
0.0
 31
0.0
 44
0.9
  1
Open Cavity Quantity
 40
0.125
 41
4.0
  0
MTEXT
  5
26A
100
AcDbEntity
  8
0
100
AcDbMText
 62
2
  6
CONTINUOUS
  7
STANDARD
 71
2
 72
1
 10
6.055
 20
-1.4065
 30
0.0
 11
1.0
 21
0.0
 31
0.0
 44
0.9
  1
1
 40
0.125
 41
0.2
  0
MTEXT
  5
26B
100
AcDbEntity
  8
0
100
AcDbMText
 62
2
  6
CONTINUOUS
  7
STANDARD
 71
2
 72
1
 10
1.5275
 20
-1.6565
 30
0.0
 11
1.0
 21
0.0
 31
0.0
 44
0.9
  1
Weight
 40
0.125
 41
1.2
  0
MTEXT
  5
26C
100
AcDbEntity
  8
0
100
AcDbMText
 62
2
  6
CONTINUOUS
  7
STANDARD
 71
2
 72
1
 10
4.555
 20
-1.6565
 30
0.0
 11
1.0
 21
0.0
 31
0.0
 44
0.9
  1
11.263 lb.
 40
0.125
 41
2.0
  0
MTEXT
  5
26D
100
AcDbEntity
  8
0
100
AcDbMText
 62
2
  6
CONTINUOUS
  7
STANDARD
 71
2
 72
1
 10
7.555
 20
-1.6565
 30
0.0
 11
1.0
 21
0.0
 31
0.0
 44
0.9
  1
5,109 kg.
 40
0.125
 41
1.8
  0
MTEXT
  5
26E
100
AcDbEntity
  8
0
100
AcDbMText
 62
2
  6
CONTINUOUS
  7
STANDARD
 71
2
 72
1
 10
1.5275
 20
-1.9065
 30
0.0
 11
1.0
 21
0.0
 31
0.0
 44
0.9
  1
Mounting Hole Diameter
 40
0.125
 41
4.4
  0
MTEXT
  5
26F
100
AcDbEntity
  8
0
100
AcDbMText
 62
2
  6
CONTINUOUS
  7
STANDARD
 71
2
 72
1
 10
4.555
 20
-1.9065
 30
0.0
 11
1.0
 21
0.0
 31
0.0
 44
0.9
  1
.41 in.
 40
0.125
 41
1.4
  0
MTEXT
  5
270
100
AcDbEntity
  8
0
100
AcDbMText
 62
2
  6
CONTINUOUS
  7
STANDARD
 71
2
 72
1
 10
7.555
 20
-1.9065
 30
0.0
 11
1.0
 21
0.0
 31
0.0
 44
0.9
  1
10,4 mm
 40
0.125
 41
1.4
  0
MTEXT
  5
271
100
AcDbEntity
  8
0
100
AcDbMText
 62
2
  6
CONTINUOUS
  7
STANDARD
 71
2
 72
1
 10
1.5275
 20
-2.1565
 30
0.0
 11
1.0
 21
0.0
 31
0.0
 44
0.9
  1
Mounting Hole Depth
 40
0.125
 41
3.8
  0
MTEXT
  5
272
100
AcDbEntity
  8
0
100
AcDbMText
 62
2
  6
CONTINUOUS
  7
STANDARD
 71
2
 72
1
 10
6.055
 20
-2.1565
 30
0.0
 11
1.0
 21
0.0
 31
0.0
 44
0.9
  1
Through
 40
0.125
 41
1.4
  0
MTEXT
  5
273
100
AcDbEntity
  8
0
100
AcDbMText
 62
2
  6
CONTINUOUS
  7
STANDARD
 71
2
 72
1
 10
1.5275
 20
-2.4065
 30
0.0
 11
1.0
 21
0.0
 31
0.0
 44
0.9
  1
Mounting Hole Quantity
 40
0.125
 41
4.4
  0
MTEXT
  5
274
100
AcDbEntity
  8
0
100
AcDbMText
 62
2
  6
CONTINUOUS
  7
STANDARD
 71
2
 72
1
 10
6.055
 20
-2.4065
 30
0.0
 11
1.0
 21
0.0
 31
0.0
 44
0.9
  1
2
 40
0.125
 41
0.2
  0
ENDBLK
  5
275
100
AcDbEntity
  8
0
  6
BYBLOCK
 62
0
100
AcDbBlockEnd
  0
BLOCK
  5
276
100
AcDbEntity
  8
0
100
AcDbBlockBegin
  2
*T3
 70
1
 10
0.0
 20
0.0
  3
*T3
  1

  0
LINE
  5
277
100
AcDbEntity
  8
0
100
AcDbLine
 62
2
  6
CONTINUOUS
 10
0.0
 20
0.0
 11
4.6
 21
0.0
  0
LINE
  5
278
100
AcDbEntity
  8
0
100
AcDbLine
 62
2
  6
CONTINUOUS
 10
0.0
 20
0.0
 11
0.0
 21
-1.43775
  0
LINE
  5
279
100
AcDbEntity
  8
0
100
AcDbLine
 62
2
  6
CONTINUOUS
 10
0.0
 20
-0.34375
 11
4.6
 21
-0.34375
  0
LINE
  5
27A
100
AcDbEntity
  8
0
100
AcDbLine
 62
2
  6
CONTINUOUS
 10
0.0
 20
-0.68775
 11
4.6
 21
-0.68775
  0
LINE
  5
27B
100
AcDbEntity
  8
0
100
AcDbLine
 62
2
  6
CONTINUOUS
 10
0.0
 20
-0.93775
 11
4.6
 21
-0.93775
  0
LINE
  5
27C
100
AcDbEntity
  8
0
100
AcDbLine
 62
2
  6
CONTINUOUS
 10
0.0
 20
-1.18775
 11
4.6
 21
-1.18775
  0
LINE
  5
27D
100
AcDbEntity
  8
0
100
AcDbLine
 62
2
  6
CONTINUOUS
 10
0.0
 20
-1.43775
 11
4.6
 21
-1.43775
  0
LINE
  5
27E
100
AcDbEntity
  8
0
100
AcDbLine
 62
2
  6
CONTINUOUS
 10
1.3
 20
-0.34375
 11
1.3
 21
-1.43775
  0
LINE
  5
27F
100
AcDbEntity
  8
0
100
AcDbLine
 62
2
  6
CONTINUOUS
 10
3.3
 20
-0.34375
 11
3.3
 21
-1.43775
  0
LINE
  5
280
100
AcDbEntity
  8
0
100
AcDbLine
 62
2
  6
CONTINUOUS
 10
4.6
 20
0.0
 11
4.6
 21
-1.43775
  0
MTEXT
  5
281
100
AcDbEntity
  8
0
100
AcDbMText
 62
2
  6
CONTINUOUS
  7
STANDARD
 71
2
 72
1
 10
2.3
 20
-0.099375
 30
0.0
 11
1.0
 21
0.0
 31
0.0
 44
0.9
  1
Port Headings
 40
0.145
 41
3.016
  0
MTEXT
  5
282
100
AcDbEntity
  8
0
100
AcDbMText
 62
2
  6
CONTINUOUS
  7
STANDARD
 71
2
 72
1
 10
0.65
 20
-0.44325
 30
0.0
 11
1.0
 21
0.0
 31
0.0
 44
0.9
  1
Product
 40
0.145
 41
1.624
  0
MTEXT
  5
283
100
AcDbEntity
  8
0
100
AcDbMText
 62
2
  6
CONTINUOUS
  7
STANDARD
 71
2
 72
1
 10
2.3
 20
-0.44325
 30
0.0
 11
1.0
 21
0.0
 31
0.0
 44
0.9
  1
Port
 40
0.145
 41
0.928
  0
MTEXT
  5
284
100
AcDbEntity
  8
0
100
AcDbMText
 62
2
  6
CONTINUOUS
  7
STANDARD
 71
2
 72
1
 10
3.95
 20
-0.44325
 30
0.0
 11
1.0
 21
0.0
 31
0.0
 44
0.9
  1
Size
 40
0.145
 41
0.928
  0
MTEXT
  5
285
100
AcDbEntity
  8
0
100
AcDbMText
 62
2
  6
CONTINUOUS
  7
STANDARD
 71
2
 72
1
 10
0.65
 20
-0.75025
 30
0.0
 11
1.0
 21
0.0
 31
0.0
 44
0.9
  1
K2Y
 40
0.125
 41
0.6
  0
MTEXT
  5
286
100
AcDbEntity
  8
0
100
AcDbMText
 62
2
  6
CONTINUOUS
  7
STANDARD
 71
2
 72
1
 10
2.3
 20
-0.75025
 30
0.0
 11
1.0
 21
0.0
 31
0.0
 44
0.9
  1
Ports 1 &  2
 40
0.125
 41
2.4
  0
MTEXT
  5
287
100
AcDbEntity
  8
0
100
AcDbMText
 62
2
  6
CONTINUOUS
  7
STANDARD
 71
2
 72
1
 10
3.95
 20
-0.75025
 30
0.0
 11
1.0
 21
0.0
 31
0.0
 44
0.9
  1
1 1/4" BSPP
 40
0.125
 41
2.2
  0
MTEXT
  5
288
100
AcDbEntity
  8
0
100
AcDbMText
 62
2
  6
CONTINUOUS
  7
STANDARD
 71
2
 72
1
 10
0.65
 20
-1.00025
 30
0.0
 11
1.0
 21
0.0
 31
0.0
 44
0.9
  1
K2Y
 40
0.125
 41
0.6
  0
MTEXT
  5
289
100
AcDbEntity
  8
0
100
AcDbMText
 62
2
  6
CONTINUOUS
  7
STANDARD
 71
2
 72
1
 10
2.3
 20
-1.00025
 30
0.0
 11
1.0
 21
0.0
 31
0.0
 44
0.9
  1
Port 3
 40
0.125
 41
1.2
  0
MTEXT
  5
28A
100
AcDbEntity
  8
0
100
AcDbMText
 62
2
  6
CONTINUOUS
  7
STANDARD
 71
2
 72
1
 10
3.95
 20
-1.00025
 30
0.0
 11
1.0
 21
0.0
 31
0.0
 44
0.9
  1
1/4" BSPP
 40
0.125
 41
1.8
  0
MTEXT
  5
28B
100
AcDbEntity
  8
0
100
AcDbMText
 62
2
  6
CONTINUOUS
  7
STANDARD
 71
2
 72
1
 10
0.65
 20
-1.25025
 30
0.0
 11
1.0
 21
0.0
 31
0.0
 44
0.9
  1
K2Y
 40
0.125
 41
0.6
  0
MTEXT
  5
28C
100
AcDbEntity
  8
0
100
AcDbMText
 62
2
  6
CONTINUOUS
  7
STANDARD
 71
2
 72
1
 10
2.3
 20
-1.25025
 30
0.0
 11
1.0
 21
0.0
 31
0.0
 44
0.9
  1
Gage Port
 40
0.125
 41
1.8
  0
MTEXT
  5
28D
100
AcDbEntity
  8
0
100
AcDbMText
 62
2
  6
CONTINUOUS
  7
STANDARD
 71
2
 72
1
 10
3.95
 20
-1.25025
 30
0.0
 11
1.0
 21
0.0
 31
0.0
 44
0.9
  1
1/4" BSPP
 40
0.125
 41
1.8
  0
ENDBLK
  5
28E
100
AcDbEntity
  8
0
  6
BYBLOCK
 62
0
100
AcDbBlockEnd
  0
ENDSEC
  0
SECTION
  2
ENTITIES
  0
IMAGE
  5
28F
100
AcDbEntity
  8
0
100
AcDbRasterImage
 62
7
  6
CONTINUOUS
 10
19.2297077316
 20
0.3094318264
 30
0.0
 11
0.0066666667
 21
0.0
 31
0.0
 12
0.0
 22
0.0066666667
 32
0.0
 13
369.0
 23
92.0
340
       39B
 70
9
280
0
281
50
282
50
283
0
360
       395
 71
1
 91
2
 14
-0.5
 24
-0.5
 14
368.5
 24
91.5
  0
INSERT
  5
290
100
AcDbEntity
  8
0
100
AcDbBlockReference
 62
2
  6
CONTINUOUS
  2
SUN_FIRST_THIRD_ANGLE_BL0
 10
20.4816717061
 20
1.2289683772
  0
ACAD_TABLE
  5
291
100
AcDbEntity
  8
0
 62
2
  6
CONTINUOUS
100
AcDbBlockReference
  2
*T1
 10
12.42375
 20
0.30125
 30
0.0
100
AcDbTable
342
       39D
343
20F
 11
1.0
 21
0.0
 31
0.0
 90
6
 91
4
 92
6
 93
20
 94
0
 95
0
 96
0
 70
1
 41
0.0
141
0.525
141
0.1
141
0.525
141
0.1
142
4.1
142
1.1
142
0.7
142
0.5
142
0.4
142
2.475
171
1
172
0
173
0
174
0
175
1
176
1
 91
33
178
0
145
0.0
301
CELL_VALUE
 90
4
  1
T-19A Line mount\P(See Technical Data for Body Features)
304
ACVALUE_END
170
2
140
0.125
171
1
172
0
173
0
174
0
175
1
176
1
 91
33
178
0
145
0.0
301
CELL_VALUE
 90
4
  1
Jul-13-20
304
ACVALUE_END
170
5
140
0.125
171
1
172
0
173
0
174
0
175
1
176
1
 91
33
178
0
145
0.0
301
CELL_VALUE
 90
4
  1
0.900
304
ACVALUE_END
170
5
140
0.125
171
1
172
0
173
0
174
0
175
1
176
1
 91
33
178
0
145
0.0
301
CELL_VALUE
 90
4
  1
C
304
ACVALUE_END
170
5
140
0.125
171
1
172
0
173
0
174
0
175
1
176
1
 91
33
178
0
145
0.0
301
CELL_VALUE
 90
4
  1
2
304
ACVALUE_END
170
5
140
0.125
171
1
172
0
173
0
174
0
175
1
176
1
 91
33
178
0
145
0.0
301
CELL_VALUE
 90
4
  1
 
304
ACVALUE_END
170
1
140
0.125
171
1
172
0
173
0
174
0
175
1
176
1
 91
33
178
0
145
0.0
301
CELL_VALUE
 90
4
  1
DESCRIPTION
304
ACVALUE_END
170
1
140
0.06
171
1
172
0
173
0
174
0
175
1
176
1
 91
33
178
0
145
0.0
301
CELL_VALUE
 90
4
  1
DATE
304
ACVALUE_END
170
1
140
0.06
171
1
172
0
173
0
174
0
175
1
176
1
 91
33
178
0
145
0.0
301
CELL_VALUE
 90
4
  1
SCALE
304
ACVALUE_END
170
1
140
0.06
171
1
172
0
173
0
174
0
175
1
176
1
 91
33
178
0
145
0.0
301
CELL_VALUE
 90
4
  1
DWG SIZE
304
ACVALUE_END
170
1
140
0.06
171
1
172
0
173
0
174
0
175
1
176
1
 91
33
178
0
145
0.0
301
CELL_VALUE
 90
4
  1
SHEET
304
ACVALUE_END
170
1
140
0.06
171
1
172
0
173
0
174
0
175
1
176
1
 91
33
178
0
145
0.0
301
CELL_VALUE
 90
4
  1
 
304
ACVALUE_END
170
1
140
0.125
171
1
172
0
173
0
174
0
175
1
176
1
 91
33
178
0
145
0.0
301
CELL_VALUE
 90
4
  1
K2Y
304
ACVALUE_END
170
5
140
0.125
171
1
172
0
173
0
174
0
175
4
176
1
 91
33
178
0
145
0.0
301
CELL_VALUE
 90
4
  1
ALL DIMENSIONS IN INCH\PVIEWS ARE THIRD ANGLE
304
ACVALUE_END
170
5
140
0.12
171
1
172
0
173
1
174
0
175
1
176
1
 91
1
178
0
145
0.0
170
1
171
1
172
0
173
1
174
0
175
1
176
1
 91
1
178
0
145
0.0
170
1
171
1
172
0
173
1
174
0
175
1
176
1
 91
1
178
0
145
0.0
170
5
171
1
172
0
173
0
174
0
175
1
176
1
 91
33
178
0
145
0.0
301
CELL_VALUE
 90
4
  1
 
304
ACVALUE_END
170
1
140
0.125
171
1
172
0
173
0
174
0
175
1
176
1
 91
33
178
0
145
0.0
301
CELL_VALUE
 90
4
  1
MODEL
304
ACVALUE_END
170
1
140
0.06
171
1
172
0
173
0
174
0
175
1
176
1
 91
33
178
0
145
0.0
301
CELL_VALUE
 90
4
  1
 
304
ACVALUE_END
170
1
140
0.125
171
1
172
0
173
0
174
0
175
1
176
1
 91
33
178
0
145
0.0
301
CELL_VALUE
 90
4
  1
 
304
ACVALUE_END
170
1
140
0.125
171
1
172
0
173
0
174
0
175
1
176
1
 91
33
178
0
145
0.0
301
CELL_VALUE
 90
4
  1
 
304
ACVALUE_END
170
1
140
0.125
171
1
172
0
173
0
174
0
175
1
176
1
 91
33
178
0
145
0.0
301
CELL_VALUE
 90
4
  1
 
304
ACVALUE_END
170
1
140
0.125
171
1
172
0
173
0
174
0
175
1
176
1
 91
33
178
0
145
0.0
301
CELL_VALUE
 90
4
  1
 
304
ACVALUE_END
170
1
140
0.125
  0
ACAD_TABLE
  5
292
100
AcDbEntity
  8
0
 62
2
  6
CONTINUOUS
100
AcDbBlockReference
  2
*T2
 10
12.4237499994
 20
16.47875
 30
0.0
100
AcDbTable
342
       39C
343
210
 11
1.0
 21
0.0
 31
0.0
 90
22
 91
10
 92
3
 93
16
 94
0
 95
0
 96
0
 41
0.028
141
0.344
141
0.25
141
0.25
141
0.25
141
0.25
141
0.25
141
0.25
141
0.25
141
0.25
141
0.25
142
3.055
142
3.0
142
3.0
171
1
172
0
173
0
174
0
175
1
176
1
 91
33
178
0
145
0.0
301
CELL_VALUE
 90
4
  1
Technical Data
304
ACVALUE_END
170
5
140
0.145
171
1
172
0
173
0
174
0
175
1
176
1
 91
33
178
0
145
0.0
301
CELL_VALUE
 90
4
  1
U.S. Units
304
ACVALUE_END
170
5
140
0.145
171
1
172
0
173
0
174
0
175
1
176
1
 91
33
178
0
145
0.0
301
CELL_VALUE
 90
4
  1
Metric Units
304
ACVALUE_END
170
5
140
0.145
171
1
172
0
173
0
174
0
175
1
176
1
 91
33
178
0
145
0.0
301
CELL_VALUE
 90
4
  1
Cavity
304
ACVALUE_END
170
5
140
0.125
171
1
172
0
173
0
174
0
175
2
176
1
 91
33
178
0
145
0.0
301
CELL_VALUE
 90
4
  1
T-19A
304
ACVALUE_END
170
5
140
0.125
171
1
172
0
173
1
174
0
175
1
176
1
 91
1
178
0
145
0.0
170
1
171
1
172
0
173
0
174
0
175
1
176
1
 91
33
178
0
145
0.0
301
CELL_VALUE
 90
4
  1
Body Features
304
ACVALUE_END
170
5
140
0.125
171
1
172
0
173
0
174
0
175
2
176
1
 91
33
178
0
145
0.0
301
CELL_VALUE
 90
4
  1
Ninety degree with reverse flow check - reducing
304
ACVALUE_END
170
5
140
0.125
171
1
172
0
173
1
174
0
175
1
176
1
 91
1
178
0
145
0.0
170
1
171
1
172
0
173
0
174
0
175
1
176
1
 91
33
178
0
145
0.0
301
CELL_VALUE
 90
4
  1
Body Type
304
ACVALUE_END
170
5
140
0.125
171
1
172
0
173
0
174
0
175
2
176
1
 91
33
178
0
145
0.0
301
CELL_VALUE
 90
4
  1
Line mount
304
ACVALUE_END
170
5
140
0.125
171
1
172
0
173
1
174
0
175
1
176
1
 91
1
178
0
145
0.0
170
1
171
1
172
0
173
0
174
0
175
1
176
1
 91
33
178
0
145
0.0
301
CELL_VALUE
 90
4
  1
Interface
304
ACVALUE_END
170
5
140
0.125
171
1
172
0
173
0
174
0
175
2
176
1
 91
33
178
0
145
0.0
301
CELL_VALUE
 90
4
  1
None
304
ACVALUE_END
170
5
140
0.125
171
1
172
0
173
1
174
0
175
1
176
1
 91
1
178
0
145
0.0
170
1
171
1
172
0
173
0
174
0
175
1
176
1
 91
33
178
0
145
0.0
301
CELL_VALUE
 90
4
  1
Open Cavity Quantity
304
ACVALUE_END
170
5
140
0.125
171
1
172
0
173
0
174
0
175
2
176
1
 91
33
178
0
145
0.0
301
CELL_VALUE
 90
4
  1
1
304
ACVALUE_END
170
5
140
0.125
171
1
172
0
173
1
174
0
175
1
176
1
 91
1
178
0
145
0.0
170
1
171
1
172
0
173
0
174
0
175
1
176
1
 91
33
178
0
145
0.0
301
CELL_VALUE
 90
4
  1
Weight
304
ACVALUE_END
170
5
140
0.125
171
1
172
0
173
0
174
0
175
1
176
1
 91
33
178
0
145
0.0
301
CELL_VALUE
 90
4
  1
11.263 lb.
304
ACVALUE_END
170
5
140
0.125
171
1
172
0
173
0
174
0
175
1
176
1
 91
33
178
0
145
0.0
301
CELL_VALUE
 90
4
  1
5,109 kg.
304
ACVALUE_END
170
5
140
0.125
171
1
172
0
173
0
174
0
175
1
176
1
 91
33
178
0
145
0.0
301
CELL_VALUE
 90
4
  1
Mounting Hole Diameter
304
ACVALUE_END
170
5
140
0.125
171
1
172
0
173
0
174
0
175
1
176
1
 91
33
178
0
145
0.0
301
CELL_VALUE
 90
4
  1
.41 in.
304
ACVALUE_END
170
5
140
0.125
171
1
172
0
173
0
174
0
175
1
176
1
 91
33
178
0
145
0.0
301
CELL_VALUE
 90
4
  1
10,4 mm
304
ACVALUE_END
170
5
140
0.125
171
1
172
0
173
0
174
0
175
1
176
1
 91
33
178
0
145
0.0
301
CELL_VALUE
 90
4
  1
Mounting Hole Depth
304
ACVALUE_END
170
5
140
0.125
171
1
172
0
173
0
174
0
175
2
176
1
 91
33
178
0
145
0.0
301
CELL_VALUE
 90
4
  1
Through
304
ACVALUE_END
170
5
140
0.125
171
1
172
0
173
1
174
0
175
1
176
1
 91
1
178
0
145
0.0
170
1
171
1
172
0
173
0
174
0
175
1
176
1
 91
33
178
0
145
0.0
301
CELL_VALUE
 90
4
  1
Mounting Hole Quantity
304
ACVALUE_END
170
5
140
0.125
171
1
172
0
173
0
174
0
175
2
176
1
 91
33
178
0
145
0.0
301
CELL_VALUE
 90
4
  1
2
304
ACVALUE_END
170
5
140
0.125
171
1
172
0
173
1
174
0
175
1
176
1
 91
1
178
0
145
0.0
170
1
  0
ACAD_TABLE
  5
293
100
AcDbEntity
  8
0
 62
2
  6
CONTINUOUS
100
AcDbBlockReference
  2
*T3
 10
0.52125
 20
1.959
 30
0.0
100
AcDbTable
342
       39C
343
211
 11
1.0
 21
0.0
 31
0.0
 90
22
 91
5
 92
3
 93
16
 94
0
 95
0
 96
0
 41
0.05
141
0.34375
141
0.344
141
0.25
141
0.25
141
0.25
142
1.3
142
2.0
142
1.3
171
1
172
0
173
0
174
0
175
3
176
1
 91
33
178
0
145
0.0
301
CELL_VALUE
 90
4
  1
Port Headings
304
ACVALUE_END
170
5
140
0.145
171
1
172
0
173
1
174
0
175
1
176
1
 91
1
178
0
145
0.0
170
1
171
1
172
0
173
1
174
0
175
1
176
1
 91
1
178
0
145
0.0
170
1
171
1
172
0
173
0
174
0
175
1
176
1
 91
33
178
0
145
0.0
301
CELL_VALUE
 90
4
  1
Product
304
ACVALUE_END
170
5
140
0.145
171
1
172
0
173
0
174
0
175
1
176
1
 91
33
178
0
145
0.0
301
CELL_VALUE
 90
4
  1
Port
304
ACVALUE_END
170
5
140
0.145
171
1
172
0
173
0
174
0
175
1
176
1
 91
33
178
0
145
0.0
301
CELL_VALUE
 90
4
  1
Size
304
ACVALUE_END
170
5
140
0.145
171
1
172
0
173
0
174
0
175
1
176
1
 91
33
178
0
145
0.0
301
CELL_VALUE
 90
4
  1
K2Y
304
ACVALUE_END
170
5
140
0.125
171
1
172
0
173
0
174
0
175
1
176
1
 91
33
178
0
145
0.0
301
CELL_VALUE
 90
4
  1
Ports 1 &  2
304
ACVALUE_END
170
5
140
0.125
171
1
172
0
173
0
174
0
175
1
176
1
 91
33
178
0
145
0.0
301
CELL_VALUE
 90
4
  1
1 1/4" BSPP
304
ACVALUE_END
170
5
140
0.125
171
1
172
0
173
0
174
0
175
1
176
1
 91
33
178
0
145
0.0
301
CELL_VALUE
 90
4
  1
K2Y
304
ACVALUE_END
170
5
140
0.125
171
1
172
0
173
0
174
0
175
1
176
1
 91
33
178
0
145
0.0
301
CELL_VALUE
 90
4
  1
Port 3
304
ACVALUE_END
170
5
140
0.125
171
1
172
0
173
0
174
0
175
1
176
1
 91
33
178
0
145
0.0
301
CELL_VALUE
 90
4
  1
1/4" BSPP
304
ACVALUE_END
170
5
140
0.125
171
1
172
0
173
0
174
0
175
1
176
1
 91
33
178
0
145
0.0
301
CELL_VALUE
 90
4
  1
K2Y
304
ACVALUE_END
170
5
140
0.125
171
1
172
0
173
0
174
0
175
1
176
1
 91
33
178
0
145
0.0
301
CELL_VALUE
 90
4
  1
Gage Port
304
ACVALUE_END
170
5
140
0.125
171
1
172
0
173
0
174
0
175
1
176
1
 91
33
178
0
145
0.0
301
CELL_VALUE
 90
4
  1
1/4" BSPP
304
ACVALUE_END
170
5
140
0.125
  0
MTEXT
  5
294
100
AcDbEntity
  8
0
100
AcDbMText
 62
2
  6
CONTINUOUS
  7
STANDARD
 71
1
 72
1
 10
0.52125
 20
5.75995
 30
0.0
 11
1.0
 21
0.0
 31
0.0
 44
0.6
  3
Notes\P \P1. Important: Carefully consider\P   the maximum system pressure. The\P   pressure rating of the manifold is\P   dependent on the manifold material,\P   with the port type/size a secondary\P   consideration. Manifolds\P   constructed of alu
  1
minum are not\P   rated for pressures higher than\P   3000 psi (210 bar), regardless of\P   the port type/size specified.
 40
0.1
 41
3.04
  0
LINE
  5
295
100
AcDbEntity
  8
0
100
AcDbLine
 62
7
  6
CONTINUOUS
 10
0.30125
 20
0.30125
 11
0.30125
 21
16.69875
  0
LINE
  5
296
100
AcDbEntity
  8
0
100
AcDbLine
 62
7
  6
CONTINUOUS
 10
0.30125
 20
0.30125
 11
21.69875
 21
0.30125
  0
LINE
  5
297
100
AcDbEntity
  8
0
100
AcDbLine
 62
7
  6
CONTINUOUS
 10
0.30125
 20
16.69875
 11
21.69875
 21
16.69875
  0
LINE
  5
298
100
AcDbEntity
  8
0
100
AcDbLine
 62
7
  6
CONTINUOUS
 10
21.69875
 20
0.30125
 11
21.69875
 21
16.69875
  0
LINE
  5
299
100
AcDbEntity
  8
0
100
AcDbLine
 62
7
  6
CONTINUOUS
 10
8.741405537
 20
12.4299897698
 11
8.042594692
 21
11.7549902868
  0
LINE
  5
29A
100
AcDbEntity
  8
0
100
AcDbLine
 62
4
  6
CONTINUOUS
 10
8.3033944966
 20
11.1631435994
 11
8.2947011638
 21
11.1521553765
  0
LINE
  5
29B
100
AcDbEntity
  8
0
100
AcDbLine
 62
4
  6
CONTINUOUS
 10
8.3120878293
 20
11.0929940527
 11
8.2947011638
 21
11.0710176017
  0
LINE
  5
29C
100
AcDbEntity
  8
0
100
AcDbLine
 62
4
  6
CONTINUOUS
 10
8.2425411673
 20
11.1905460156
 11
8.2599278328
 21
11.2009313538
  0
LINE
  5
29D
100
AcDbEntity
  8
0
100
AcDbLine
 62
4
  6
CONTINUOUS
 10
8.2947011638
 20
11.1521553765
 11
8.2773144983
 21
11.14177003
  0
LINE
  5
29E
100
AcDbEntity
  8
0
100
AcDbLine
 62
4
  6
CONTINUOUS
 10
8.2947011638
 20
11.0710176017
 11
8.2773144983
 21
11.0606322604
  0
LINE
  5
29F
100
AcDbEntity
  8
0
100
AcDbLine
 62
7
  6
CONTINUOUS
 10
8.042594692
 20
5.6696572207
 11
8.042594692
 21
11.7549902868
  0
LINE
  5
2A0
100
AcDbEntity
  8
0
100
AcDbLine
 62
7
  6
CONTINUOUS
 10
8.042594692
 20
5.6696572207
 11
13.258594463
 21
5.3079264079
  0
LINE
  5
2A1
100
AcDbEntity
  8
0
100
AcDbLine
 62
7
  6
CONTINUOUS
 10
11.6397042185
 20
4.6809670458
 11
11.6606563448
 21
4.6706170966
  0
LINE
  5
2A2
100
AcDbEntity
  8
0
100
AcDbLine
 62
4
  6
CONTINUOUS
 10
8.3033944966
 20
11.174734707
 11
8.3033944966
 21
11.1631435994
  0
LINE
  5
2A3
100
AcDbEntity
  8
0
100
AcDbLine
 62
4
  6
CONTINUOUS
 10
8.3033944966
 20
7.4250106077
 11
8.3033944966
 21
7.2859172835
  0
LINE
  5
2A4
100
AcDbEntity
  8
0
100
AcDbLine
 62
4
  6
CONTINUOUS
 10
8.3120878293
 20
11.1045851644
 11
8.3120878293
 21
11.0929940527
  0
LINE
  5
2A5
100
AcDbEntity
  8
0
100
AcDbLine
 62
4
  6
CONTINUOUS
 10
9.7825032154
 20
9.9453368189
 11
9.8023736912
 21
9.9638292705
  0
LINE
  5
2A6
100
AcDbEntity
  8
0
100
AcDbLine
 62
4
  6
CONTINUOUS
 10
9.8321794038
 20
9.8226689131
 11
9.8520498775
 21
9.8411613669
  0
LINE
  5
2A7
100
AcDbEntity
  8
0
100
AcDbLine
 62
4
  6
CONTINUOUS
 10
9.9414670215
 20
9.8150897911
 11
9.9613374869
 21
9.8335822454
  0
LINE
  5
2A8
100
AcDbEntity
  8
0
100
AcDbLine
 62
4
  6
CONTINUOUS
 10
10.4051114408
 20
9.8723530772
 11
10.4249819062
 21
9.8809102967
  0
LINE
  5
2A9
100
AcDbEntity
  8
0
100
AcDbLine
 62
4
  6
CONTINUOUS
 10
10.5938809616
 20
9.8095856822
 11
10.613751427
 21
9.8181428976
  0
LINE
  5
2AA
100
AcDbEntity
  8
0
100
AcDbLine
 62
4
  6
CONTINUOUS
 10
9.7825032154
 20
9.9254663453
 11
9.7825032154
 21
9.9453368189
  0
LINE
  5
2AB
100
AcDbEntity
  8
0
100
AcDbLine
 62
4
  6
CONTINUOUS
 10
9.8520498775
 20
9.8411613669
 11
9.8520498775
 21
9.8610318426
  0
LINE
  5
2AC
100
AcDbEntity
  8
0
100
AcDbLine
 62
4
  6
CONTINUOUS
 10
9.8917908249
 20
9.9576281712
 11
9.8917908249
 21
9.8384053228
  0
LINE
  5
2AD
100
AcDbEntity
  8
0
100
AcDbLine
 62
4
  6
CONTINUOUS
 10
9.9348436065
 20
9.1061731735
 11
9.9348436065
 21
9.2452664976
  0
LINE
  5
2AE
100
AcDbEntity
  8
0
100
AcDbLine
 62
4
  6
CONTINUOUS
 10
9.9613374869
 20
9.8335822454
 11
9.9613374869
 21
9.9528050938
  0
LINE
  5
2AF
100
AcDbEntity
  8
0
100
AcDbLine
 62
4
  6
CONTINUOUS
 10
10.0010784343
 20
9.8109557256
 11
10.0010784343
 21
9.9500490497
  0
LINE
  5
2B0
100
AcDbEntity
  8
0
100
AcDbLine
 62
4
  6
CONTINUOUS
 10
10.0043902603
 20
9.2205729471
 11
10.0043902603
 21
9.1212205724
  0
LINE
  5
2B1
100
AcDbEntity
  8
0
100
AcDbLine
 62
4
  6
CONTINUOUS
 10
10.0606899399
 20
9.0974457006
 11
10.1004308873
 21
9.2337829807
  0
LINE
  5
2B2
100
AcDbEntity
  8
0
100
AcDbLine
 62
4
  6
CONTINUOUS
 10
10.3388765119
 20
9.7544118911
 11
10.3786174427
 21
9.8841256832
  0
LINE
  5
2B3
100
AcDbEntity
  8
0
100
AcDbLine
 62
4
  6
CONTINUOUS
 10
10.4133906772
 20
9.5180844586
 11
10.3935202035
 21
9.489656766
  0
LINE
  5
2B4
100
AcDbEntity
  8
0
100
AcDbLine
 62
4
  6
CONTINUOUS
 10
10.3935202035
 20
9.3803691565
 11
10.4630668655
 21
9.4748984559
  0
LINE
  5
2B5
100
AcDbEntity
  8
0
100
AcDbLine
 62
4
  6
CONTINUOUS
 10
10.284232594
 20
9.4343127207
 11
10.3537792561
 21
9.5222185247
  0
LINE
  5
2B6
100
AcDbEntity
  8
0
100
AcDbLine
 62
4
  6
CONTINUOUS
 10
10.0043902603
 20
9.1212205724
 11
9.9845197866
 21
9.1027281187
  0
LINE
  5
2B7
100
AcDbEntity
  8
0
100
AcDbLine
 62
4
  6
CONTINUOUS
 10
10.9349907392
 20
9.835605823
 11
10.9449259387
 21
9.8448520556
  0
LINE
  5
2B8
100
AcDbEntity
  8
0
100
AcDbLine
 62
4
  6
CONTINUOUS
 10
11.024407933
 20
9.8294047196
 11
11.0343431325
 21
9.8386509521
  0
LINE
  5
2B9
100
AcDbEntity
  8
0
100
AcDbLine
 62
4
  6
CONTINUOUS
 10
9.9083496375
 20
9.1941159308
 11
9.8553617035
 21
9.1712966874
  0
LINE
  5
2BA
100
AcDbEntity
  8
0
100
AcDbLine
 62
4
  6
CONTINUOUS
 10
10.2228825634
 20
7.561386904
 11
10.2054958979
 21
7.5625926733
  0
LINE
  5
2BB
100
AcDbEntity
  8
0
100
AcDbLine
 62
4
  6
CONTINUOUS
 10
10.2054958979
 20
7.5625926733
 11
10.1881092324
 21
7.5753895533
  0
LINE
  5
2BC
100
AcDbEntity
  8
0
100
AcDbLine
 62
4
  6
CONTINUOUS
 10
10.2228825634
 20
7.7004802281
 11
10.2402692289
 21
7.6876833511
  0
LINE
  5
2BD
100
AcDbEntity
  8
0
100
AcDbLine
 62
4
  6
CONTINUOUS
 10
10.1881092324
 20
7.5753895533
 11
10.1707225668
 21
7.599777543
  0
LINE
  5
2BE
100
AcDbEntity
  8
0
100
AcDbLine
 62
4
  6
CONTINUOUS
 10
10.2402692289
 20
7.6876833511
 11
10.2489625617
 21
7.6754893506
  0
LINE
  5
2BF
100
AcDbEntity
  8
0
100
AcDbLine
 62
4
  6
CONTINUOUS
 10
10.1707225668
 20
7.599777543
 11
10.1620292341
 21
7.6351537587
  0
LINE
  5
2C0
100
AcDbEntity
  8
0
100
AcDbLine
 62
4
  6
CONTINUOUS
 10
10.0706250964
 20
9.8061326482
 11
10.0706250964
 21
9.9452259723
  0
LINE
  5
2C1
100
AcDbEntity
  8
0
100
AcDbLine
 62
4
  6
CONTINUOUS
 10
10.2196536532
 20
9.7957974827
 11
10.2196536532
 21
9.9348908068
  0
LINE
  5
2C2
100
AcDbEntity
  8
0
100
AcDbLine
 62
4
  6
CONTINUOUS
 10
10.219653746
 20
9.0864215232
 11
10.219653746
 21
9.2255148474
  0
LINE
  5
2C3
100
AcDbEntity
  8
0
100
AcDbLine
 62
4
  6
CONTINUOUS
 10
10.2489625617
 20
7.629124912
 11
10.2489625617
 21
7.5827604713
  0
LINE
  5
2C4
100
AcDbEntity
  8
0
100
AcDbLine
 62
4
  6
CONTINUOUS
 10
10.2792650825
 20
9.8810805518
 11
10.2792650825
 21
9.791663416
  0
LINE
  5
2C5
100
AcDbEntity
  8
0
100
AcDbLine
 62
4
  6
CONTINUOUS
 10
10.284232594
 20
9.387948278
 11
10.284232594
 21
9.5270416021
  0
LINE
  5
2C6
100
AcDbEntity
  8
0
100
AcDbLine
 62
4
  6
CONTINUOUS
 10
10.2991356408
 20
9.0809094351
 11
10.2991356408
 21
9.2200027592
  0
LINE
  5
2C7
100
AcDbEntity
  8
0
100
AcDbLine
 62
4
  6
CONTINUOUS
 10
10.5425487603
 20
9.4495158941
 11
10.5822897077
 21
9.5063712711
  0
LINE
  5
2C8
100
AcDbEntity
  8
0
100
AcDbLine
 62
4
  6
CONTINUOUS
 10
11.0740840633
 20
9.7365425325
 11
11.0840192628
 21
9.7457887619
  0
LINE
  5
2C9
100
AcDbEntity
  8
0
100
AcDbLine
 62
4
  6
CONTINUOUS
 10
10.5077756601
 20
9.1856630511
 11
10.5276461255
 21
9.2041555033
  0
LINE
  5
2CA
100
AcDbEntity
  8
0
100
AcDbLine
 62
4
  6
CONTINUOUS
 10
10.6236867193
 20
9.1776245918
 11
10.6435571847
 21
9.196117044
  0
LINE
  5
2CB
100
AcDbEntity
  8
0
100
AcDbLine
 62
4
  6
CONTINUOUS
 10
10.6932333814
 20
9.0734491397
 11
10.673362916
 21
9.0549566854
  0
LINE
  5
2CC
100
AcDbEntity
  8
0
100
AcDbLine
 62
4
  6
CONTINUOUS
 10
10.2141892306
 20
7.6315364507
 11
10.2489625617
 21
7.629124912
  0
LINE
  5
2CD
100
AcDbEntity
  8
0
100
AcDbLine
 62
4
  6
CONTINUOUS
 10
10.2054958979
 20
7.7016859974
 11
10.2228825634
 21
7.7004802281
  0
LINE
  5
2CE
100
AcDbEntity
  8
0
100
AcDbLine
 62
4
  6
CONTINUOUS
 10
8.2425411673
 20
11.0746349097
 11
8.2338478345
 21
11.0868289051
  0
LINE
  5
2CF
100
AcDbEntity
  8
0
100
AcDbLine
 62
4
  6
CONTINUOUS
 10
8.2947011638
 20
11.1289731531
 11
8.3120878293
 21
11.1045851644
  0
LINE
  5
2D0
100
AcDbEntity
  8
0
100
AcDbLine
 62
4
  6
CONTINUOUS
 10
8.2947011638
 20
11.1869287075
 11
8.3033944966
 21
11.174734707
  0
LINE
  5
2D1
100
AcDbEntity
  8
0
100
AcDbLine
 62
4
  6
CONTINUOUS
 10
10.1004308873
 20
9.2337829807
 11
10.1401718513
 21
9.0919336114
  0
LINE
  5
2D2
100
AcDbEntity
  8
0
100
AcDbLine
 62
4
  6
CONTINUOUS
 10
10.4051114408
 20
9.7928711793
 11
10.4051114408
 21
9.8723530772
  0
LINE
  5
2D3
100
AcDbEntity
  8
0
100
AcDbLine
 62
4
  6
CONTINUOUS
 10
10.4630668655
 20
9.4748984559
 11
10.4630668655
 21
9.4947689296
  0
LINE
  5
2D4
100
AcDbEntity
  8
0
100
AcDbLine
 62
4
  6
CONTINUOUS
 10
10.464722837
 20
9.9178952012
 11
10.464722837
 21
9.7788018771
  0
LINE
  5
2D5
100
AcDbEntity
  8
0
100
AcDbLine
 62
4
  6
CONTINUOUS
 10
10.5044638341
 20
9.7760458296
 11
10.5044638341
 21
9.8753982063
  0
LINE
  5
2D6
100
AcDbEntity
  8
0
100
AcDbLine
 62
4
  6
CONTINUOUS
 10
10.5077756601
 20
9.0863106764
 11
10.5077756601
 21
9.1856630511
  0
LINE
  5
2D7
100
AcDbEntity
  8
0
100
AcDbLine
 62
4
  6
CONTINUOUS
 10
10.5425487603
 20
9.4495158941
 11
10.5425487603
 21
9.370033991
  0
LINE
  5
2D8
100
AcDbEntity
  8
0
100
AcDbLine
 62
4
  6
CONTINUOUS
 10
10.5508282313
 20
9.8622475834
 11
10.5508282313
 21
9.8423771097
  0
LINE
  5
2D9
100
AcDbEntity
  8
0
100
AcDbLine
 62
4
  6
CONTINUOUS
 10
10.5938809616
 20
9.7797799686
 11
10.5938809616
 21
9.8095856822
  0
LINE
  5
2DA
100
AcDbEntity
  8
0
100
AcDbLine
 62
4
  6
CONTINUOUS
 10
10.6236867193
 20
9.0782722171
 11
10.6236867193
 21
9.1776245918
  0
LINE
  5
2DB
100
AcDbEntity
  8
0
100
AcDbLine
 62
4
  6
CONTINUOUS
 10
10.6534923578
 20
9.7657106663
 11
10.6534923578
 21
9.8451925694
  0
LINE
  5
2DC
100
AcDbEntity
  8
0
100
AcDbLine
 62
4
  6
CONTINUOUS
 10
10.6932332886
 20
9.8623070002
 11
10.6932332886
 21
9.7728898613
  0
LINE
  5
2DD
100
AcDbEntity
  8
0
100
AcDbLine
 62
4
  6
CONTINUOUS
 10
10.6932333814
 20
9.1728015144
 11
10.6932333814
 21
9.0734491397
  0
LINE
  5
2DE
100
AcDbEntity
  8
0
100
AcDbLine
 62
4
  6
CONTINUOUS
 10
10.1620292341
 20
7.6351537587
 11
10.1707225668
 21
7.6693242051
  0
LINE
  5
2DF
100
AcDbEntity
  8
0
100
AcDbLine
 62
4
  6
CONTINUOUS
 10
10.8853145425
 20
9.8887270673
 11
10.8820028093
 21
9.8790214958
  0
LINE
  5
2E0
100
AcDbEntity
  8
0
100
AcDbLine
 62
7
  6
CONTINUOUS
 10
13.258594463
 20
11.3932594741
 11
13.957405308
 21
12.068258957
  0
LINE
  5
2E1
100
AcDbEntity
  8
0
100
AcDbLine
 62
4
  6
CONTINUOUS
 10
10.8025209742
 20
9.0658700194
 11
10.7826505088
 21
9.0473775651
  0
LINE
  5
2E2
100
AcDbEntity
  8
0
100
AcDbLine
 62
4
  6
CONTINUOUS
 10
11.0111609604
 20
9.0911417367
 11
10.9581730306
 21
9.0683224951
  0
LINE
  5
2E3
100
AcDbEntity
  8
0
100
AcDbLine
 62
4
  6
CONTINUOUS
 10
10.7329743122
 20
9.0508226211
 11
10.7329743122
 21
9.1899159452
  0
LINE
  5
2E4
100
AcDbEntity
  8
0
100
AcDbLine
 62
4
  6
CONTINUOUS
 10
10.7528447511
 20
9.7588205545
 11
10.7528447511
 21
9.8581729312
  0
LINE
  5
2E5
100
AcDbEntity
  8
0
100
AcDbLine
 62
4
  6
CONTINUOUS
 10
10.7925856819
 20
9.7659997494
 11
10.7925856819
 21
9.8951578357
  0
LINE
  5
2E6
100
AcDbEntity
  8
0
100
AcDbLine
 62
4
  6
CONTINUOUS
 10
10.8025209742
 20
9.1652223941
 11
10.8025209742
 21
9.0658700194
  0
LINE
  5
2E7
100
AcDbEntity
  8
0
100
AcDbLine
 62
4
  6
CONTINUOUS
 10
10.8588207036
 20
9.0420951442
 11
10.8588207036
 21
9.1811884683
  0
LINE
  5
2E8
100
AcDbEntity
  8
0
100
AcDbLine
 62
4
  6
CONTINUOUS
 10
10.8820028093
 20
9.7498634127
 11
10.8820028093
 21
9.8492157894
  0
LINE
  5
2E9
100
AcDbEntity
  8
0
100
AcDbLine
 62
4
  6
CONTINUOUS
 10
10.8820028093
 20
9.8790214958
 11
10.8820028093
 21
9.8889567368
  0
LINE
  5
2EA
100
AcDbEntity
  8
0
100
AcDbLine
 62
4
  6
CONTINUOUS
 10
10.9349907392
 20
9.7561239252
 11
10.9349907392
 21
9.835605823
  0
LINE
  5
2EB
100
AcDbEntity
  8
0
100
AcDbLine
 62
4
  6
CONTINUOUS
 10
11.024407933
 20
9.799599009
 11
11.024407933
 21
9.8294047196
  0
LINE
  5
2EC
100
AcDbEntity
  8
0
100
AcDbLine
 62
4
  6
CONTINUOUS
 10
10.1707225668
 20
7.6693242051
 11
10.1881092324
 21
7.6913006592
  0
LINE
  5
2ED
100
AcDbEntity
  8
0
100
AcDbLine
 62
4
  6
CONTINUOUS
 10
10.2489625617
 20
7.5827604713
 11
10.2402692289
 21
7.5717722453
  0
LINE
  5
2EE
100
AcDbEntity
  8
0
100
AcDbLine
 62
4
  6
CONTINUOUS
 10
9.8553617035
 20
9.1712966874
 11
9.9083496375
 21
9.1411279947
  0
LINE
  5
2EF
100
AcDbEntity
  8
0
100
AcDbLine
 62
4
  6
CONTINUOUS
 10
9.9845197866
 20
9.2418214428
 11
10.0043902603
 21
9.2205729471
  0
LINE
  5
2F0
100
AcDbEntity
  8
0
100
AcDbLine
 62
4
  6
CONTINUOUS
 10
9.7825032154
 20
9.8360492064
 11
9.7924384533
 21
9.8254249574
  0
LINE
  5
2F1
100
AcDbEntity
  8
0
100
AcDbLine
 62
4
  6
CONTINUOUS
 10
10.5276461255
 20
9.0650621792
 11
10.5077756601
 21
9.0863106764
  0
LINE
  5
2F2
100
AcDbEntity
  8
0
100
AcDbLine
 62
4
  6
CONTINUOUS
 10
10.0010784343
 20
9.9500490497
 11
10.0706250964
 21
9.8061326482
  0
LINE
  5
2F3
100
AcDbEntity
  8
0
100
AcDbLine
 62
4
  6
CONTINUOUS
 10
10.3140383066
 20
9.4653631478
 11
10.3537792561
 21
9.3831252006
  0
LINE
  5
2F4
100
AcDbEntity
  8
0
100
AcDbLine
 62
4
  6
CONTINUOUS
 10
10.3190060465
 20
9.8882597475
 11
10.3488117778
 21
9.7868403363
  0
LINE
  5
2F5
100
AcDbEntity
  8
0
100
AcDbLine
 62
4
  6
CONTINUOUS
 10
11.0840192628
 20
9.7457887619
 11
11.0840192628
 21
9.7755944756
  0
LINE
  5
2F6
100
AcDbEntity
  8
0
100
AcDbLine
 62
4
  6
CONTINUOUS
 10
10.1881092324
 20
7.6913006592
 11
10.2054958979
 21
7.7016859974
  0
LINE
  5
2F7
100
AcDbEntity
  8
0
100
AcDbLine
 62
4
  6
CONTINUOUS
 10
13.0064877968
 20
9.2866719802
 11
13.0238744623
 21
9.2970573184
  0
LINE
  5
2F8
100
AcDbEntity
  8
0
100
AcDbLine
 62
4
  6
CONTINUOUS
 10
9.8520498775
 20
9.8610318426
 11
9.7825032154
 21
9.9254663453
  0
LINE
  5
2F9
100
AcDbEntity
  8
0
100
AcDbLine
 62
4
  6
CONTINUOUS
 10
9.8917908249
 20
9.8384053228
 11
9.9116612986
 21
9.817156825
  0
LINE
  5
2FA
100
AcDbEntity
  8
0
100
AcDbLine
 62
4
  6
CONTINUOUS
 10
10.6435571847
 20
9.0570237199
 11
10.6236867193
 21
9.0782722171
  0
LINE
  5
2FB
100
AcDbEntity
  8
0
100
AcDbLine
 62
4
  6
CONTINUOUS
 10
9.8421146406
 20
9.9610732262
 11
9.8520498775
 21
9.9504489742
  0
LINE
  5
2FC
100
AcDbEntity
  8
0
100
AcDbLine
 62
4
  6
CONTINUOUS
 10
10.673362916
 20
9.1940500096
 11
10.6932333814
 21
9.1728015144
  0
LINE
  5
2FD
100
AcDbEntity
  8
0
100
AcDbLine
 62
4
  6
CONTINUOUS
 10
10.4630668655
 20
9.4947689296
 11
10.4431964001
 21
9.5160174247
  0
LINE
  5
2FE
100
AcDbEntity
  8
0
100
AcDbLine
 62
4
  6
CONTINUOUS
 10
10.7826505088
 20
9.1864708892
 11
10.8025209742
 21
9.1652223941
  0
LINE
  5
2FF
100
AcDbEntity
  8
0
100
AcDbLine
 62
4
  6
CONTINUOUS
 10
10.5028078129
 20
9.5118833592
 11
10.5425487603
 21
9.4495158941
  0
LINE
  5
300
100
AcDbEntity
  8
0
100
AcDbLine
 62
4
  6
CONTINUOUS
 10
10.5442047649
 20
9.8726421634
 11
10.5508282313
 21
9.8622475834
  0
LINE
  5
301
100
AcDbEntity
  8
0
100
AcDbLine
 62
4
  6
CONTINUOUS
 10
10.6534923578
 20
9.8451925694
 11
10.6435571582
 21
9.8657520515
  0
LINE
  5
302
100
AcDbEntity
  8
0
100
AcDbLine
 62
7
  6
CONTINUOUS
 10
11.4956569197
 20
5.4301865418
 11
11.4956569197
 21
4.8656251777
  0
LINE
  5
303
100
AcDbEntity
  8
0
100
AcDbLine
 62
7
  6
CONTINUOUS
 10
11.6996677764
 20
5.4160383408
 11
11.6996677764
 21
4.6685661593
  0
LINE
  5
304
100
AcDbEntity
  8
0
100
AcDbLine
 62
7
  6
CONTINUOUS
 10
13.5959171467
 20
10.1999519672
 11
13.5940905521
 21
10.1982200178
  0
LINE
  5
305
100
AcDbEntity
  8
0
100
AcDbLine
 62
4
  6
CONTINUOUS
 10
10.2402692289
 20
7.5717722453
 11
10.2228825634
 21
7.561386904
  0
LINE
  5
306
100
AcDbEntity
  8
0
100
AcDbLine
 62
4
  6
CONTINUOUS
 10
13.0586477934
 20
9.2366902252
 11
13.0238744623
 21
9.2159195446
  0
LINE
  5
307
100
AcDbEntity
  8
0
100
AcDbLine
 62
4
  6
CONTINUOUS
 10
10.7826505088
 20
9.0473775651
 11
10.7329743122
 21
9.0508226211
  0
LINE
  5
308
100
AcDbEntity
  8
0
100
AcDbLine
 62
4
  6
CONTINUOUS
 10
10.673362916
 20
9.0549566854
 11
10.6435571847
 21
9.0570237199
  0
LINE
  5
309
100
AcDbEntity
  8
0
100
AcDbLine
 62
4
  6
CONTINUOUS
 10
10.5673870563
 20
9.0623061363
 11
10.5276461255
 21
9.0650621792
  0
LINE
  5
30A
100
AcDbEntity
  8
0
100
AcDbLine
 62
4
  6
CONTINUOUS
 10
9.9845197866
 20
9.1027281187
 11
9.9348436065
 21
9.1061731735
  0
LINE
  5
30B
100
AcDbEntity
  8
0
100
AcDbLine
 62
4
  6
CONTINUOUS
 10
10.2991356408
 20
9.0809094351
 11
10.3587470701
 21
9.0767753685
  0
LINE
  5
30C
100
AcDbEntity
  8
0
100
AcDbLine
 62
4
  6
CONTINUOUS
 10
10.8588207036
 20
9.0420951442
 11
10.9184320998
 21
9.0379610798
  0
LINE
  5
30D
100
AcDbEntity
  8
0
100
AcDbLine
 62
4
  6
CONTINUOUS
 10
10.0739369224
 20
9.1362679708
 11
10.1269248522
 21
9.1325932454
  0
LINE
  5
30E
100
AcDbEntity
  8
0
100
AcDbLine
 62
4
  6
CONTINUOUS
 10
10.8985616344
 20
9.1188210043
 11
10.8588207036
 21
9.1215770472
  0
LINE
  5
30F
100
AcDbEntity
  8
0
100
AcDbLine
 62
4
  6
CONTINUOUS
 10
10.3388766047
 20
9.157635293
 11
10.2991356408
 21
9.1603913382
  0
LINE
  5
310
100
AcDbEntity
  8
0
100
AcDbLine
 62
4
  6
CONTINUOUS
 10
9.9348436065
 20
9.2452664976
 11
9.9845197866
 21
9.2418214428
  0
LINE
  5
311
100
AcDbEntity
  8
0
100
AcDbLine
 62
4
  6
CONTINUOUS
 10
10.179912782
 20
9.2282708926
 11
10.2593946768
 21
9.2227588045
  0
LINE
  5
312
100
AcDbEntity
  8
0
100
AcDbLine
 62
4
  6
CONTINUOUS
 10
10.2991356408
 20
9.2200027592
 11
10.3587470701
 21
9.2158686926
  0
LINE
  5
313
100
AcDbEntity
  8
0
100
AcDbLine
 62
4
  6
CONTINUOUS
 10
10.5276461255
 20
9.2041555033
 11
10.5673870563
 21
9.2013994604
  0
LINE
  5
314
100
AcDbEntity
  8
0
100
AcDbLine
 62
4
  6
CONTINUOUS
 10
10.6435571847
 20
9.196117044
 11
10.673362916
 21
9.1940500096
  0
LINE
  5
315
100
AcDbEntity
  8
0
100
AcDbLine
 62
4
  6
CONTINUOUS
 10
10.7329743122
 20
9.1899159452
 11
10.7826505088
 21
9.1864708892
  0
LINE
  5
316
100
AcDbEntity
  8
0
100
AcDbLine
 62
4
  6
CONTINUOUS
 10
10.8588207036
 20
9.1811884683
 11
10.9184320998
 21
9.1770544039
  0
LINE
  5
317
100
AcDbEntity
  8
0
100
AcDbLine
 62
4
  6
CONTINUOUS
 10
10.9581730306
 20
9.1213104312
 11
11.0111609604
 21
9.0911417367
  0
LINE
  5
318
100
AcDbEntity
  8
0
100
AcDbLine
 62
4
  6
CONTINUOUS
 10
8.2599278328
 20
11.0618380297
 11
8.2425411673
 21
11.0746349097
  0
LINE
  5
319
100
AcDbEntity
  8
0
100
AcDbLine
 62
4
  6
CONTINUOUS
 10
8.2773144983
 20
11.14177003
 11
8.2947011638
 21
11.1289731531
  0
LINE
  5
31A
100
AcDbEntity
  8
0
100
AcDbLine
 62
4
  6
CONTINUOUS
 10
8.2773144983
 20
11.1997255845
 11
8.2947011638
 21
11.1869287075
  0
LINE
  5
31B
100
AcDbEntity
  8
0
100
AcDbLine
 62
4
  6
CONTINUOUS
 10
10.2693298498
 20
9.8917048035
 11
10.2792650825
 21
9.8810805518
  0
LINE
  5
31C
100
AcDbEntity
  8
0
100
AcDbLine
 62
4
  6
CONTINUOUS
 10
10.6932332886
 20
9.7728898613
 11
10.7031685544
 21
9.7622656104
  0
LINE
  5
31D
100
AcDbEntity
  8
0
100
AcDbLine
 62
7
  6
CONTINUOUS
 10
11.73404835
 20
5.41365404
 11
11.73404835
 21
4.6596678233
  0
LINE
  5
31E
100
AcDbEntity
  8
0
100
AcDbLine
 62
4
  6
CONTINUOUS
 10
12.9977944641
 20
9.1597726483
 11
13.0673411261
 21
9.1549495709
  0
LINE
  5
31F
100
AcDbEntity
  8
0
100
AcDbLine
 62
4
  6
CONTINUOUS
 10
10.4630668655
 20
9.3755460791
 11
10.3935202035
 21
9.3803691565
  0
LINE
  5
320
100
AcDbEntity
  8
0
100
AcDbLine
 62
4
  6
CONTINUOUS
 10
13.0238744623
 20
9.2970573184
 11
13.0412611279
 21
9.2958515491
  0
LINE
  5
321
100
AcDbEntity
  8
0
100
AcDbLine
 62
4
  6
CONTINUOUS
 10
10.4431964001
 20
9.5160174247
 11
10.4133906772
 21
9.5180844586
  0
LINE
  5
322
100
AcDbEntity
  8
0
100
AcDbLine
 62
4
  6
CONTINUOUS
 10
10.4249819062
 20
9.78155792
 11
10.4051114408
 21
9.7928711793
  0
LINE
  5
323
100
AcDbEntity
  8
0
100
AcDbLine
 62
4
  6
CONTINUOUS
 10
10.613751427
 20
9.7684667092
 11
10.5938809616
 21
9.7797799686
  0
LINE
  5
324
100
AcDbEntity
  8
0
100
AcDbLine
 62
4
  6
CONTINUOUS
 10
10.8025209477
 20
9.7553754985
 11
10.7925856819
 21
9.7659997494
  0
LINE
  5
325
100
AcDbEntity
  8
0
100
AcDbLine
 62
4
  6
CONTINUOUS
 10
10.9449259387
 20
9.7454996788
 11
10.9349907392
 21
9.7561239252
  0
LINE
  5
326
100
AcDbEntity
  8
0
100
AcDbLine
 62
4
  6
CONTINUOUS
 10
11.024407933
 20
9.7499228217
 11
11.0343431325
 21
9.7392985754
  0
LINE
  5
327
100
AcDbEntity
  8
0
100
AcDbLine
 62
4
  6
CONTINUOUS
 10
11.0740840633
 20
9.8358949092
 11
11.0840192628
 21
9.8252706598
  0
LINE
  5
328
100
AcDbEntity
  8
0
100
AcDbLine
 62
4
  6
CONTINUOUS
 10
12.9977944641
 20
9.275683749
 11
13.0064877968
 21
9.2866719802
  0
LINE
  5
329
100
AcDbEntity
  8
0
100
AcDbLine
 62
4
  6
CONTINUOUS
 10
13.0238744623
 20
9.2159195446
 11
13.0064877968
 21
9.1939430947
  0
LINE
  5
32A
100
AcDbEntity
  8
0
100
AcDbLine
 62
4
  6
CONTINUOUS
 10
13.0673411261
 20
9.2476784564
 11
13.0586477934
 21
9.2366902252
  0
LINE
  5
32B
100
AcDbEntity
  8
0
100
AcDbLine
 62
4
  6
CONTINUOUS
 10
10.3190060465
 20
9.7557899126
 11
10.3388765119
 21
9.7544118911
  0
LINE
  5
32C
100
AcDbEntity
  8
0
100
AcDbLine
 62
4
  6
CONTINUOUS
 10
10.9846670022
 20
9.7427436267
 11
10.9449259387
 21
9.7454996788
  0
LINE
  5
32D
100
AcDbEntity
  8
0
100
AcDbLine
 62
4
  6
CONTINUOUS
 10
10.8223914131
 20
9.7539974771
 11
10.8025209477
 21
9.7553754985
  0
LINE
  5
32E
100
AcDbEntity
  8
0
100
AcDbLine
 62
4
  6
CONTINUOUS
 10
10.6534923578
 20
9.7657106663
 11
10.613751427
 21
9.7684667092
  0
LINE
  5
32F
100
AcDbEntity
  8
0
100
AcDbLine
 62
4
  6
CONTINUOUS
 10
10.464722837
 20
9.7788018771
 11
10.4249819062
 21
9.78155792
  0
LINE
  5
330
100
AcDbEntity
  8
0
100
AcDbLine
 62
4
  6
CONTINUOUS
 10
9.7924384533
 20
9.8254249574
 11
9.8321794038
 21
9.8226689131
  0
LINE
  5
331
100
AcDbEntity
  8
0
100
AcDbLine
 62
4
  6
CONTINUOUS
 10
9.9116612986
 20
9.817156825
 11
9.9414670215
 21
9.8150897911
  0
LINE
  5
332
100
AcDbEntity
  8
0
100
AcDbLine
 62
4
  6
CONTINUOUS
 10
10.7031685544
 20
9.7622656104
 11
10.7528447511
 21
9.7588205545
  0
LINE
  5
333
100
AcDbEntity
  8
0
100
AcDbLine
 62
4
  6
CONTINUOUS
 10
11.0343431325
 20
9.7392985754
 11
11.0740840633
 21
9.7365425325
  0
LINE
  5
334
100
AcDbEntity
  8
0
100
AcDbLine
 62
4
  6
CONTINUOUS
 10
10.613751427
 20
9.8181428976
 11
10.6534923578
 21
9.8153868547
  0
LINE
  5
335
100
AcDbEntity
  8
0
100
AcDbLine
 62
4
  6
CONTINUOUS
 10
10.6435571582
 20
9.8657520515
 11
10.5938809616
 21
9.8691971074
  0
LINE
  5
336
100
AcDbEntity
  8
0
100
AcDbLine
 62
4
  6
CONTINUOUS
 10
10.2196536532
 20
9.8951498594
 11
10.2693298498
 21
9.8917048035
  0
LINE
  5
337
100
AcDbEntity
  8
0
100
AcDbLine
 62
4
  6
CONTINUOUS
 10
10.4249819062
 20
9.8809102967
 11
10.464722837
 21
9.8781542538
  0
LINE
  5
338
100
AcDbEntity
  8
0
100
AcDbLine
 62
4
  6
CONTINUOUS
 10
10.5044638341
 20
9.8753982063
 11
10.5442047649
 21
9.8726421634
  0
LINE
  5
339
100
AcDbEntity
  8
0
100
AcDbLine
 62
4
  6
CONTINUOUS
 10
10.9449259387
 20
9.8448520556
 11
10.9846670022
 21
9.8420960035
  0
LINE
  5
33A
100
AcDbEntity
  8
0
100
AcDbLine
 62
4
  6
CONTINUOUS
 10
11.0343431325
 20
9.8386509521
 11
11.0740840633
 21
9.8358949092
  0
LINE
  5
33B
100
AcDbEntity
  8
0
100
AcDbLine
 62
4
  6
CONTINUOUS
 10
11.0740840633
 20
9.7829069752
 11
11.0343431325
 21
9.7922865094
  0
LINE
  5
33C
100
AcDbEntity
  8
0
100
AcDbLine
 62
4
  6
CONTINUOUS
 10
11.0343431325
 20
9.7922865094
 11
11.024407933
 21
9.799599009
  0
LINE
  5
33D
100
AcDbEntity
  8
0
100
AcDbLine
 62
4
  6
CONTINUOUS
 10
11.0840192628
 20
9.7755944756
 11
11.0740840633
 21
9.7829069752
  0
LINE
  5
33E
100
AcDbEntity
  8
0
100
AcDbLine
 62
7
  6
CONTINUOUS
 10
12.4954266493
 20
5.3608522756
 11
12.4954266493
 21
4.6068660589
  0
LINE
  5
33F
100
AcDbEntity
  8
0
100
AcDbLine
 62
7
  6
CONTINUOUS
 10
12.5423913731
 20
5.3575952609
 11
12.5423913731
 21
4.6101230793
  0
LINE
  5
340
100
AcDbEntity
  8
0
100
AcDbLine
 62
4
  6
CONTINUOUS
 10
9.8023736912
 20
9.9638292705
 11
9.8421146406
 21
9.9610732262
  0
LINE
  5
341
100
AcDbEntity
  8
0
100
AcDbLine
 62
4
  6
CONTINUOUS
 10
10.8820028093
 20
9.8889567368
 11
10.8853145425
 21
9.8887270673
  0
LINE
  5
342
100
AcDbEntity
  8
0
100
AcDbLine
 62
4
  6
CONTINUOUS
 10
13.0064877968
 20
9.1939430947
 11
12.9977944641
 21
9.1597726483
  0
LINE
  5
343
100
AcDbEntity
  8
0
100
AcDbLine
 62
4
  6
CONTINUOUS
 10
13.0412611279
 20
9.2958515491
 11
13.0586477934
 21
9.2830546721
  0
LINE
  5
344
100
AcDbEntity
  8
0
100
AcDbLine
 62
4
  6
CONTINUOUS
 10
13.0673411261
 20
9.2708606716
 11
13.0673411261
 21
9.2476784564
  0
LINE
  5
345
100
AcDbEntity
  8
0
100
AcDbLine
 62
7
  6
CONTINUOUS
 10
13.0997588156
 20
5.3189416975
 11
13.0997588156
 21
4.7543803333
  0
LINE
  5
346
100
AcDbEntity
  8
0
100
AcDbLine
 62
7
  6
CONTINUOUS
 10
13.1123429658
 20
5.3180689837
 11
13.1123429658
 21
4.7665356897
  0
LINE
  5
347
100
AcDbEntity
  8
0
100
AcDbLine
 62
7
  6
CONTINUOUS
 10
13.258594463
 20
5.3079264079
 11
13.258594463
 21
11.3932594741
  0
LINE
  5
348
100
AcDbEntity
  8
0
100
AcDbLine
 62
4
  6
CONTINUOUS
 10
13.0586477934
 20
9.2830546721
 11
13.0673411261
 21
9.2708606716
  0
LINE
  5
349
100
AcDbEntity
  8
0
100
AcDbLine
 62
4
  6
CONTINUOUS
 10
8.2773144983
 20
11.0606322604
 11
8.2599278328
 21
11.0618380297
  0
LINE
  5
34A
100
AcDbEntity
  8
0
100
AcDbLine
 62
4
  6
CONTINUOUS
 10
8.2599278328
 20
11.1429757993
 11
8.2773144983
 21
11.14177003
  0
LINE
  5
34B
100
AcDbEntity
  8
0
100
AcDbLine
 62
4
  6
CONTINUOUS
 10
8.2599278328
 20
11.2009313538
 11
8.2773144983
 21
11.1997255845
  0
LINE
  5
34C
100
AcDbEntity
  8
0
100
AcDbLine
 62
7
  6
CONTINUOUS
 10
13.957405308
 20
5.9829258909
 11
13.957405308
 21
12.068258957
  0
LINE
  5
34D
100
AcDbEntity
  8
0
100
AcDbLine
 62
7
  6
CONTINUOUS
 10
8.042594692
 20
11.7549902868
 11
13.258594463
 21
11.3932594741
  0
LINE
  5
34E
100
AcDbEntity
  8
0
100
AcDbLine
 62
7
  6
CONTINUOUS
 10
13.258594463
 20
5.3079264079
 11
13.957405308
 21
5.9829258909
  0
LINE
  5
34F
100
AcDbEntity
  8
0
100
AcDbLine
 62
7
  6
CONTINUOUS
 10
13.957405308
 20
12.068258957
 11
8.741405537
 21
12.4299897698
  0
LINE
  5
350
100
AcDbEntity
  8
0
100
AcDbLine
 62
7
  6
CONTINUOUS
 10
12.9832229158
 20
4.6883408209
 11
12.9473435407
 21
4.6706170966
  0
ARC
  5
351
100
AcDbEntity
  8
0
100
AcDbCircle
 62
7
  6
CONTINUOUS
 10
12.3181373321
 20
7.5035290612
 40
2.9020833983
100
AcDbArc
 50
273.5024005705
 51
274.4318614998
  0
ARC
  5
352
100
AcDbEntity
  8
0
100
AcDbCircle
 62
7
  6
CONTINUOUS
 10
12.0341054436
 20
5.8898682971
 40
1.2662651638
100
AcDbArc
 50
254.6857191954
 51
256.2926786396
  0
ARC
  5
353
100
AcDbEntity
  8
0
100
AcDbCircle
 62
7
  6
CONTINUOUS
 10
12.5399910471
 20
5.5836622069
 40
0.9990265333
100
AcDbArc
 50
294.0424242342
 51
296.3106753905
  0
ARC
  5
354
100
AcDbEntity
  8
0
100
AcDbCircle
 62
7
  6
CONTINUOUS
 10
10.0238581112
 20
7.3849366358
 40
0.1683076286
100
AcDbArc
 50
178.6443074249
 51
179.9995218502
  0
ARC
  5
355
100
AcDbEntity
  8
0
100
AcDbCircle
 62
7
  6
CONTINUOUS
 10
12.9954715862
 20
4.8753557129
 40
0.1597212218
100
AcDbArc
 50
310.7630914437
 51
313.9856916518
  0
ARC
  5
356
100
AcDbEntity
  8
0
100
AcDbCircle
 62
7
  6
CONTINUOUS
 10
13.0117731499
 20
4.8586313328
 40
0.1363667677
100
AcDbArc
 50
313.9375979844
 51
317.5184669645
  0
ARC
  5
357
100
AcDbEntity
  8
0
100
AcDbCircle
 62
7
  6
CONTINUOUS
 10
13.6546065071
 20
10.3536655148
 40
0.0614412175
100
AcDbArc
 50
73.7353280335
 51
79.0430914092
  0
SPLINE
  5
358
100
AcDbEntity
  8
0
100
AcDbSpline
 62
7
  6
CONTINUOUS
 70
0
 71
3
 72
9
 73
5
 74
0
 42
0.0000001
 43
0.0000001
 44
0.0000000001
 40
0.0
 40
0.0
 40
0.0
 40
0.0
 40
0.5047194233
 40
1.0
 40
1.0
 40
1.0
 40
1.0
 10
13.0997588156
 20
4.7543803333
 30
0.0
 10
13.0806438582
 20
4.7422805824
 30
0.0
 10
13.0422566241
 20
4.7191068893
 30
0.0
 10
13.002699409
 20
4.6979670207
 30
0.0
 10
12.9827977865
 20
4.6881309647
 30
0.0
  0
SPLINE
  5
359
100
AcDbEntity
  8
0
100
AcDbSpline
 62
7
  6
CONTINUOUS
 70
0
 71
3
 72
20
 73
16
 74
0
 42
0.0000001
 43
0.0000001
 44
0.0000000001
 40
0.0
 40
0.0
 40
0.0
 40
0.0
 40
0.1321092246
 40
0.2654630393
 40
0.3983965104
 40
0.4641824508
 40
0.5292377163
 40
0.593358461
 40
0.6563452314
 40
0.7180031916
 40
0.7781436148
 40
0.8365831781
 40
0.8931456382
 40
0.9476711375
 40
1.0
 40
1.0
 40
1.0
 40
1.0
 10
12.4716978061
 20
5.3622953435
 30
0.0
 10
12.4398803066
 20
5.360598091
 30
0.0
 10
12.3758878684
 20
5.3581923977
 30
0.0
 10
12.2797901545
 20
5.357479174
 30
0.0
 10
12.1997058777
 20
5.3592832654
 30
0.0
 10
12.1361513286
 20
5.3621799438
 30
0.0
 10
12.0892153648
 20
5.365054486
 30
0.0
 10
12.0430046358
 20
5.3686288708
 30
0.0
 10
11.9976749989
 20
5.3728905102
 30
0.0
 10
11.9533793588
 20
5.3778252133
 30
0.0
 10
11.9102672454
 20
5.3834161678
 30
0.0
 10
11.8684844514
 20
5.3896439346
 30
0.0
 10
11.8281707565
 20
5.3964877847
 30
0.0
 10
11.7894618629
 20
5.4039242929
 30
0.0
 10
11.7642706712
 20
5.4093777264
 30
0.0
 10
11.7519713122
 20
5.4122085454
 30
0.0
  0
SPLINE
  5
35A
100
AcDbEntity
  8
0
100
AcDbSpline
 62
7
  6
CONTINUOUS
 70
0
 71
3
 72
22
 73
18
 74
0
 42
0.0000001
 43
0.0000001
 44
0.0000000001
 40
0.0
 40
0.0
 40
0.0
 40
0.0
 40
0.043290989
 40
0.0886107636
 40
0.1362169549
 40
0.1863255266
 40
0.2391104607
 40
0.2946904167
 40
0.3531382065
 40
0.4144717324
 40
0.4786700373
 40
0.5456687108
 40
0.6153767118
 40
0.6876754969
 40
0.7624330017
 40
0.8395067268
 40
1.0
 40
1.0
 40
1.0
 40
1.0
 10
11.6401915743
 20
4.6807264271
 30
0.0
 10
11.6371082453
 20
4.6822482639
 30
0.0
 10
11.630917478
 20
4.6856127147
 30
0.0
 10
11.6218080234
 20
4.6914658112
 30
0.0
 10
11.6126863661
 20
4.6982518824
 30
0.0
 10
11.6035587536
 20
4.7059815785
 30
0.0
 10
11.5944323412
 20
4.7146590251
 30
0.0
 10
11.5853120769
 20
4.7242770232
 30
0.0
 10
11.5762053564
 20
4.7348216617
 30
0.0
 10
11.5671163702
 20
4.7462686135
 30
0.0
 10
11.5580517182
 20
4.7585881042
 30
0.0
 10
11.5490146397
 20
4.771742587
 30
0.0
 10
11.5400101662
 20
4.7856912091
 30
0.0
 10
11.5310404594
 20
4.800388748
 30
0.0
 10
11.5221084372
 20
4.8157891487
 30
0.0
 10
11.5100886915
 20
4.8374907892
 30
0.0
 10
11.5013847418
 20
4.8542371087
 30
0.0
 10
11.4956569197
 20
4.8656251777
 30
0.0
  0
SPLINE
  5
35B
100
AcDbEntity
  8
0
100
AcDbSpline
 62
7
  6
CONTINUOUS
 70
0
 71
3
 72
42
 73
38
 74
0
 42
0.0000001
 43
0.0000001
 44
0.0000000001
 40
0.0
 40
0.0
 40
0.0
 40
0.0
 40
0.0099876471
 40
0.0204482153
 40
0.0313778979
 40
0.0427717855
 40
0.0546232227
 40
0.0669241187
 40
0.0928371108
 40
0.1204281727
 40
0.1495999526
 40
0.1802423267
 40
0.212235641
 40
0.2454510317
 40
0.2797517947
 40
0.3149951022
 40
0.3510319967
 40
0.3877093471
 40
0.4248702027
 40
0.4623548651
 40
0.5000019479
 40
0.5376490075
 40
0.5751337455
 40
0.6122945894
 40
0.6489720274
 40
0.6850089917
 40
0.7202522813
 40
0.7545532871
 40
0.78776864
 40
0.8197621595
 40
0.8504046934
 40
0.8795764413
 40
0.9071678821
 40
0.9330808459
 40
0.9572320527
 40
0.9795539769
 40
1.0
 40
1.0
 40
1.0
 40
1.0
 10
12.9473412597
 20
4.6706159598
 30
0.0
 10
12.9434276847
 20
4.6686827868
 30
0.0
 10
12.9353483344
 20
4.6648592193
 30
0.0
 10
12.9227822412
 20
4.6593639853
 30
0.0
 10
12.9095017795
 20
4.6539818126
 30
0.0
 10
12.8955221538
 20
4.6487195188
 30
0.0
 10
12.8808594036
 20
4.6435829692
 30
0.0
 10
12.8600581338
 20
4.6367913449
 30
0.0
 10
12.8324544607
 20
4.6286940509
 30
0.0
 10
12.7974457144
 20
4.6197278016
 30
0.0
 10
12.7601606004
 20
4.6113942301
 30
0.0
 10
12.7207708577
 20
4.6037314069
 30
0.0
 10
12.6794574209
 20
4.5967757839
 30
0.0
 10
12.6364105887
 20
4.590559948
 30
0.0
 10
12.5918288252
 20
4.5851125418
 30
0.0
 10
12.5459178012
 20
4.5804597421
 30
0.0
 10
12.4988894242
 20
4.5766226805
 30
0.0
 10
12.4509608654
 20
4.5736195591
 30
0.0
 10
12.4023534356
 20
4.5714645661
 30
0.0
 10
12.3532916626
 20
4.5701672527
 30
0.0
 10
12.3040021829
 20
4.5697343143
 30
0.0
 10
12.2547126732
 20
4.5701672818
 30
0.0
 10
12.2056508717
 20
4.5714642516
 30
0.0
 10
12.1570433855
 20
4.573619472
 30
0.0
 10
12.1091147461
 20
4.5766222937
 30
0.0
 10
12.0620863018
 20
4.58045932
 30
0.0
 10
12.0161751626
 20
4.58511223
 30
0.0
 10
11.971593267
 20
4.5905592358
 30
0.0
 10
11.9285462876
 20
4.5967753308
 30
0.0
 10
11.8872326757
 20
4.6037306997
 30
0.0
 10
11.8478427268
 20
4.6113934144
 30
0.0
 10
11.810557557
 20
4.6197272482
 30
0.0
 10
11.7755481479
 20
4.6286928961
 30
0.0
 10
11.742974786
 20
4.6382490166
 30
0.0
 10
11.7129848023
 20
4.648350175
 30
0.0
 10
11.6857151832
 20
4.6589495977
 30
0.0
 10
11.6686724716
 20
4.6666574802
 30
0.0
 10
11.6606608971
 20
4.6706149926
 30
0.0
  0
SPLINE
  5
35C
100
AcDbEntity
  8
0
100
AcDbSpline
 62
7
  6
CONTINUOUS
 70
0
 71
3
 72
21
 73
17
 74
0
 42
0.0000001
 43
0.0000001
 44
0.0000000001
 40
0.0
 40
0.0
 40
0.0
 40
0.0
 40
0.1229683586
 40
0.1846291852
 40
0.2464222231
 40
0.3083594657
 40
0.3704517377
 40
0.4327079591
 40
0.49513282
 40
0.557727432
 40
0.6204888849
 40
0.6834099387
 40
0.7464809678
 40
0.8096898189
 40
0.8730228
 40
1.0
 40
1.0
 40
1.0
 40
1.0
 10
12.4954266493
 20
4.6068660589
 30
0.0
 10
12.4643657713
 20
4.6005119794
 30
0.0
 10
12.417475165
 20
4.5921314521
 30
0.0
 10
12.3544857602
 20
4.5837725908
 30
0.0
 10
12.3069142275
 20
4.5790266917
 30
0.0
 10
12.2590946342
 20
4.5759326958
 30
0.0
 10
12.2110730185
 20
4.5745959707
 30
0.0
 10
12.1629089833
 20
4.5751002807
 30
0.0
 10
12.1146719018
 20
4.5774960538
 30
0.0
 10
12.0664364681
 20
4.5817958081
 30
0.0
 10
12.0182773372
 20
4.5879762074
 30
0.0
 10
11.970263334
 20
4.5959768483
 30
0.0
 10
11.9224530648
 20
4.6057056151
 30
0.0
 10
11.874891958
 20
4.6170506669
 30
0.0
 10
11.8118044703
 20
4.6341769285
 30
0.0
 10
11.7650125422
 20
4.6490387746
 30
0.0
 10
11.73404835
 20
4.6596678233
 30
0.0
  0
SPLINE
  5
35D
100
AcDbEntity
  8
0
100
AcDbSpline
 62
7
  6
CONTINUOUS
 70
0
 71
3
 72
11
 73
7
 74
0
 42
0.0000001
 43
0.0000001
 44
0.0000000001
 40
0.0
 40
0.0
 40
0.0
 40
0.0
 40
0.2458672335
 40
0.4933492082
 40
0.7440905688
 40
1.0
 40
1.0
 40
1.0
 40
1.0
 10
11.6996677764
 20
4.6685661593
 30
0.0
 10
11.6965360396
 20
4.6683896735
 30
0.0
 10
11.6902363284
 20
4.6682642605
 30
0.0
 10
11.6807495418
 20
4.6688164648
 30
0.0
 10
11.6712124722
 20
4.6701643539
 30
0.0
 10
11.6649033683
 20
4.6716122029
 30
0.0
 10
11.6617552612
 20
4.6724773499
 30
0.0
  0
LINE
  5
35E
100
AcDbEntity
  8
0
100
AcDbLine
 62
7
  6
CONTINUOUS
 10
11.6617552612
 20
4.6724773499
 11
11.6613947704
 21
4.6725770477
  0
SPLINE
  5
35F
100
AcDbEntity
  8
0
100
AcDbSpline
 62
7
  6
CONTINUOUS
 70
0
 71
3
 72
9
 73
5
 74
0
 42
0.0000001
 43
0.0000001
 44
0.0000000001
 40
0.0
 40
0.0
 40
0.0
 40
0.0
 40
0.4899125641
 40
1.0
 40
1.0
 40
1.0
 40
1.0
 10
11.6613947704
 20
4.6725770477
 30
0.0
 10
11.6578171472
 20
4.673572731
 30
0.0
 10
11.650609234
 20
4.6759600988
 30
0.0
 10
11.6436587681
 20
4.6790151263
 30
0.0
 10
11.6401915743
 20
4.6807264271
 30
0.0
  0
LINE
  5
360
100
AcDbEntity
  8
0
100
AcDbLine
 62
7
  6
CONTINUOUS
 10
12.9470074036
 20
4.6713071774
 11
12.9459194048
 21
4.6708233679
  0
SPLINE
  5
361
100
AcDbEntity
  8
0
100
AcDbSpline
 62
7
  6
CONTINUOUS
 70
0
 71
3
 72
15
 73
11
 74
0
 42
0.0000001
 43
0.0000001
 44
0.0000000001
 40
0.0
 40
0.0
 40
0.0
 40
0.0
 40
0.1323763415
 40
0.2621392813
 40
0.3894055944
 40
0.5144404382
 40
0.637615975
 40
0.7593469011
 40
0.8800294664
 40
1.0
 40
1.0
 40
1.0
 40
1.0
 10
12.9459194048
 20
4.6708233679
 30
0.0
 10
12.9292518535
 20
4.6634243897
 30
0.0
 10
12.8958056256
 20
4.6497341983
 30
0.0
 10
12.8448852557
 20
4.6327273548
 30
0.0
 10
12.7938533646
 20
4.6196521703
 30
0.0
 10
12.7428857868
 20
4.6105556564
 30
0.0
 10
12.6921484997
 20
4.6053157745
 30
0.0
 10
12.6417736049
 20
4.6036693644
 30
0.0
 10
12.5918473137
 20
4.6052620064
 30
0.0
 10
12.5588094887
 20
4.6082290656
 30
0.0
 10
12.5423913731
 20
4.6101230793
 30
0.0
  0
SPLINE
  5
362
100
AcDbEntity
  8
0
100
AcDbSpline
 62
7
  6
CONTINUOUS
 70
0
 71
3
 72
49
 73
45
 74
0
 42
0.0000001
 43
0.0000001
 44
0.0000000001
 40
0.0
 40
0.0
 40
0.0
 40
0.0
 40
0.0321974564
 40
0.0654883787
 40
0.0997680175
 40
0.1349263389
 40
0.1708495829
 40
0.2074204546
 40
0.2445188136
 40
0.2820222069
 40
0.3198064251
 40
0.3577460499
 40
0.3957149968
 40
0.4335870564
 40
0.471236434
 40
0.5085382913
 40
0.5453692905
 40
0.5816081453
 40
0.6171361769
 40
0.65183788
 40
0.6856015059
 40
0.718319669
 40
0.7498899893
 40
0.7802157856
 40
0.7948838237
 40
0.8092074836
 40
0.8231766373
 40
0.8367816849
 40
0.8500136041
 40
0.8628639331
 40
0.8753249144
 40
0.8873894303
 40
0.8990511804
 40
0.9103046612
 40
0.9211452978
 40
0.931569547
 40
0.9415749562
 40
0.951160405
 40
0.9603261475
 40
0.9690741422
 40
0.9774081957
 40
0.9853343196
 40
0.992861084
 40
1.0
 40
1.0
 40
1.0
 40
1.0
 10
10.7653117165
 20
11.7535131156
 30
0.0
 10
10.748504058
 20
11.7504671143
 30
0.0
 10
10.7142468196
 20
11.7446586695
 30
0.0
 10
10.6618872366
 20
11.7368926213
 30
0.0
 10
10.6078284874
 20
11.7299465628
 30
0.0
 10
10.5522630633
 20
11.7238455425
 30
0.0
 10
10.4953886523
 20
11.7186114638
 30
0.0
 10
10.4374076512
 20
11.7142631421
 30
0.0
 10
10.3785264407
 20
11.7108161919
 30
0.0
 10
10.3189546347
 20
11.7082829933
 30
0.0
 10
10.2589043264
 20
11.7066726378
 30
0.0
 10
10.1985893259
 20
11.7059909037
 30
0.0
 10
10.1382243913
 20
11.7062402369
 30
0.0
 10
10.0780244599
 20
11.7074197424
 30
0.0
 10
10.0182038772
 20
11.7095251875
 30
0.0
 10
9.9589756288
 20
11.7125490157
 30
0.0
 10
9.9005505759
 20
11.7164803737
 30
0.0
 10
9.8431366941
 20
11.7213051425
 30
0.0
 10
9.7869383267
 20
11.7270059895
 30
0.0
 10
9.732155437
 20
11.7335624266
 30
0.0
 10
9.6789829182
 20
11.7409508875
 30
0.0
 10
9.6276097537
 20
11.7491447827
 30
0.0
 10
9.5782187728
 20
11.7581146795
 30
0.0
 10
9.5384280895
 20
11.7662973463
 30
0.0
 10
9.5077301614
 20
11.7732252398
 30
0.0
 10
9.4855653548
 20
11.7785368693
 30
0.0
 10
9.4640230334
 20
11.7840170763
 30
0.0
 10
9.4431223257
 20
11.7896610166
 30
0.0
 10
9.422881809
 20
11.7954636003
 30
0.0
 10
9.4033194673
 20
11.8014197102
 30
0.0
 10
9.3844526569
 20
11.8075239518
 30
0.0
 10
9.3662981237
 20
11.8137709544
 30
0.0
 10
9.3488719459
 20
11.8201550871
 30
0.0
 10
9.3321895532
 20
11.8266706963
 30
0.0
 10
9.316265692
 20
11.8333119912
 30
0.0
 10
9.3011143998
 20
11.8400730382
 30
0.0
 10
9.2867490358
 20
11.8469479298
 30
0.0
 10
9.2731821808
 20
11.8539305188
 30
0.0
 10
9.2604257423
 20
11.8610147848
 30
0.0
 10
9.248490802
 20
11.8681945072
 30
0.0
 10
9.2373877739
 20
11.8754635356
 30
0.0
 10
9.2271261468
 20
11.8828158323
 30
0.0
 10
9.2177151613
 20
11.8902448812
 30
0.0
 10
9.2118619882
 20
11.8953779198
 30
0.0
 10
9.2090894573
 20
11.89795805
 30
0.0
  0
SPLINE
  5
363
100
AcDbEntity
  8
0
100
AcDbSpline
 62
7
  6
CONTINUOUS
 70
0
 71
3
 72
19
 73
15
 74
0
 42
0.0000001
 43
0.0000001
 44
0.0000000001
 40
0.0
 40
0.0
 40
0.0
 40
0.0
 40
0.1504611406
 40
0.2916985742
 40
0.4244193292
 40
0.4878835935
 40
0.5495802133
 40
0.6682271463
 40
0.7255606136
 40
0.7817999183
 40
0.8371467056
 40
0.8918136429
 40
0.9460222308
 40
1.0
 40
1.0
 40
1.0
 40
1.0
 10
13.6079998855
 20
10.3841620607
 30
0.0
 10
13.6106587597
 20
10.3867303362
 30
0.0
 10
13.6159728366
 20
10.3915491471
 30
0.0
 10
13.6242011798
 20
10.3979707574
 30
0.0
 10
13.6311512969
 20
10.4025124906
 30
0.0
 10
13.6366935832
 20
10.4055880222
 30
0.0
 10
13.6420723568
 20
10.4082284503
 30
0.0
 10
13.6475141142
 20
10.4103867508
 30
0.0
 10
13.6529864807
 20
10.4120109012
 30
0.0
 10
13.6570325991
 20
10.412947083
 30
0.0
 10
13.6610652527
 20
10.4136143393
 30
0.0
 10
13.665083369
 20
10.4140123789
 30
0.0
 10
13.6690853277
 20
10.4141410372
 30
0.0
 10
13.6717441161
 20
10.4140470174
 30
0.0
 10
13.6730671287
 20
10.4139552705
 30
0.0
  0
SPLINE
  5
364
100
AcDbEntity
  8
0
100
AcDbSpline
 62
7
  6
CONTINUOUS
 70
0
 71
3
 72
21
 73
17
 74
0
 42
0.0000001
 43
0.0000001
 44
0.0000000001
 40
0.0
 40
0.0
 40
0.0
 40
0.0
 40
0.1273174669
 40
0.2538000755
 40
0.316761934
 40
0.3795355049
 40
0.4421315085
 40
0.504562148
 40
0.5668413451
 40
0.628984521
 40
0.6910084481
 40
0.7529310917
 40
0.8147714402
 40
0.876549326
 40
0.9382852166
 40
1.0
 40
1.0
 40
1.0
 40
1.0
 10
10.217666628
 20
7.148815398
 30
0.0
 10
10.217666628
 20
7.1366193515
 30
0.0
 10
10.216502415
 20
7.1122915351
 30
0.0
 10
10.2121056427
 20
7.0822171064
 30
0.0
 10
10.2068504589
 20
7.0586263399
 30
0.0
 10
10.2020579994
 20
7.0412258128
 30
0.0
 10
10.1964200578
 20
7.0241344395
 30
0.0
 10
10.1899494891
 20
7.0073911927
 30
0.0
 10
10.1826611984
 20
6.9910348146
 30
0.0
 10
10.174571996
 20
6.97510298
 30
0.0
 10
10.1657005052
 20
6.9596324506
 30
0.0
 10
10.1560671081
 20
6.9446589348
 30
0.0
 10
10.1456940627
 20
6.9302169964
 30
0.0
 10
10.1346051813
 20
6.9163398245
 30
0.0
 10
10.1228264728
 20
6.9030598591
 30
0.0
 10
10.114530595
 20
6.8946236202
 30
0.0
 10
10.1102784909
 20
6.8905164216
 30
0.0
  0
SPLINE
  5
365
100
AcDbEntity
  8
0
100
AcDbSpline
 62
7
  6
CONTINUOUS
 70
0
 71
3
 72
15
 73
11
 74
0
 42
0.0000001
 43
0.0000001
 44
0.0000000001
 40
0.0
 40
0.0
 40
0.0
 40
0.0
 40
0.1273483438
 40
0.2538606048
 40
0.3795878922
 40
0.5046051199
 40
0.6290174392
 40
0.7529533668
 40
0.8765605676
 40
1.0
 40
1.0
 40
1.0
 40
1.0
 10
12.1380238455
 20
11.0363046628
 30
0.0
 10
12.1380238455
 20
11.0304560614
 30
0.0
 10
12.1374654153
 20
11.0187891707
 30
0.0
 10
12.1349399733
 20
11.0015132311
 30
0.0
 10
12.1307523676
 20
10.98467138
 30
0.0
 10
12.1249404311
 20
10.9684211215
 30
0.0
 10
12.1175574705
 20
10.9529123264
 30
0.0
 10
12.1086707822
 20
10.9382882169
 30
0.0
 10
12.098363965
 20
10.9246857892
 30
0.0
 10
12.0906034353
 20
10.9163766945
 30
0.0
 10
12.0865259067
 20
10.9124381369
 30
0.0
  0
SPLINE
  5
366
100
AcDbEntity
  8
0
100
AcDbSpline
 62
7
  6
CONTINUOUS
 70
0
 71
3
 72
15
 73
11
 74
0
 42
0.0000001
 43
0.0000001
 44
0.0000000001
 40
0.0
 40
0.0
 40
0.0
 40
0.0
 40
0.1273483438
 40
0.2538606048
 40
0.3795878922
 40
0.5046051199
 40
0.6290174392
 40
0.7529533668
 40
0.8765605676
 40
1.0
 40
1.0
 40
1.0
 40
1.0
 10
9.9646906076
 20
5.9710260637
 30
0.0
 10
9.9646906076
 20
5.9651774624
 30
0.0
 10
9.9641321774
 20
5.9535105716
 30
0.0
 10
9.9616067354
 20
5.9362346321
 30
0.0
 10
9.9574191296
 20
5.919392781
 30
0.0
 10
9.9516071932
 20
5.9031425225
 30
0.0
 10
9.9442242325
 20
5.8876337273
 30
0.0
 10
9.9353375443
 20
5.8730096178
 30
0.0
 10
9.9250307271
 20
5.8594071901
 30
0.0
 10
9.9172701973
 20
5.8510980955
 30
0.0
 10
9.9131926688
 20
5.8471595378
 30
0.0
  0
SPLINE
  5
367
100
AcDbEntity
  8
0
100
AcDbSpline
 62
7
  6
CONTINUOUS
 70
0
 71
3
 72
23
 73
19
 74
0
 42
0.0000001
 43
0.0000001
 44
0.0000000001
 40
0.0
 40
0.0
 40
0.0
 40
0.0
 40
0.0614743864
 40
0.1228938849
 40
0.1843311255
 40
0.2458657559
 40
0.3075807712
 40
0.3695524581
 40
0.4318416816
 40
0.4944853335
 40
0.5574883403
 40
0.6208163351
 40
0.6843898087
 40
0.7480808312
 40
0.8117136518
 40
0.8750722472
 40
0.9379154026
 40
1.0
 40
1.0
 40
1.0
 40
1.0
 10
9.8555504826
 20
7.3849380404
 30
0.0
 10
9.8555504826
 20
7.3788787337
 30
0.0
 10
9.85620671
 20
7.3667552276
 30
0.0
 10
9.8591498513
 20
7.3487922482
 30
0.0
 10
9.864003987
 20
7.331241368
 30
0.0
 10
9.8706948074
 20
7.3142759706
 30
0.0
 10
9.8791254932
 20
7.2980467598
 30
0.0
 10
9.8891831443
 20
7.2826855089
 30
0.0
 10
9.9007437942
 20
7.2683056546
 30
0.0
 10
9.9136759226
 20
7.2550057356
 30
0.0
 10
9.9278420414
 20
7.242873038
 30
0.0
 10
9.9430985631
 20
7.2319872302
 30
0.0
 10
9.9592942158
 20
7.2224230029
 30
0.0
 10
9.976267953
 20
7.2142513691
 30
0.0
 10
9.9938469195
 20
7.2075392513
 30
0.0
 10
10.0118469222
 20
7.2023475178
 30
0.0
 10
10.0300710974
 20
7.1987280609
 30
0.0
 10
10.0423295277
 20
7.1973792223
 30
0.0
 10
10.0484361392
 20
7.1969829899
 30
0.0
  0
SPLINE
  5
368
100
AcDbEntity
  8
0
100
AcDbSpline
 62
7
  6
CONTINUOUS
 70
0
 71
3
 72
15
 73
11
 74
0
 42
0.0000001
 43
0.0000001
 44
0.0000000001
 40
0.0
 40
0.0
 40
0.0
 40
0.0
 40
0.1273483316
 40
0.2538605887
 40
0.3795878789
 40
0.5046051138
 40
0.6290174418
 40
0.7529533759
 40
0.8765605771
 40
1.0
 40
1.0
 40
1.0
 40
1.0
 10
10.0501684023
 20
7.1715245263
 30
0.0
 10
10.0501684023
 20
7.1650107468
 30
0.0
 10
10.0495464665
 20
7.1520169468
 30
0.0
 10
10.0467338271
 20
7.1327761604
 30
0.0
 10
10.0420699994
 20
7.1140188242
 30
0.0
 10
10.0355971182
 20
7.0959203522
 30
0.0
 10
10.0273745507
 20
7.0786476573
 30
0.0
 10
10.0174772452
 20
7.0623602481
 30
0.0
 10
10.0059983057
 20
7.0472106992
 30
0.0
 10
9.9973552206
 20
7.0379565198
 30
0.0
 10
9.9928139794
 20
7.0335699808
 30
0.0
  0
SPLINE
  5
369
100
AcDbEntity
  8
0
100
AcDbSpline
 62
7
  6
CONTINUOUS
 70
0
 71
3
 72
41
 73
37
 74
0
 42
0.0000001
 43
0.0000001
 44
0.0000000001
 40
0.0
 40
0.0
 40
0.0
 40
0.0
 40
0.0310747051
 40
0.0623073113
 40
0.0936919989
 40
0.1252208455
 40
0.1568822151
 40
0.1886620094
 40
0.2205435949
 40
0.2525083053
 40
0.2845357889
 40
0.316604441
 40
0.348691836
 40
0.3807751761
 40
0.4128317441
 40
0.4448393548
 40
0.4767767997
 40
0.508624277
 40
0.5403638028
 40
0.5719795929
 40
0.6034584126
 40
0.6347898832
 40
0.6659667393
 40
0.6969850295
 40
0.7278442515
 40
0.7585474165
 40
0.7891010353
 40
0.8195150233
 40
0.84980252
 40
0.8649066417
 40
0.8799854015
 40
0.9100708282
 40
0.9400854833
 40
0.9550762344
 40
0.9700578784
 40
1.0
 40
1.0
 40
1.0
 40
1.0
 10
10.0501684023
 20
7.1715245263
 30
0.0
 10
10.0501684023
 20
7.1765873155
 30
0.0
 10
10.0497907075
 20
7.1867425137
 30
0.0
 10
10.0481045164
 20
7.2019266688
 30
0.0
 10
10.0453065777
 20
7.2170217029
 30
0.0
 10
10.0414125241
 20
7.2319435594
 30
0.0
 10
10.0364438067
 20
7.2466106537
 30
0.0
 10
10.0304278754
 20
7.2609423858
 30
0.0
 10
10.0233978402
 20
7.2748601308
 30
0.0
 10
10.015392384
 20
7.2882875135
 30
0.0
 10
10.006455508
 20
7.3011508595
 30
0.0
 10
9.9966363086
 20
7.3133795868
 30
0.0
 10
9.9859887037
 20
7.3249065894
 30
0.0
 10
9.9745711411
 20
7.3356686017
 30
0.0
 10
9.9624462807
 20
7.3456065422
 30
0.0
 10
9.9496806542
 20
7.3546658344
 30
0.0
 10
9.9363443041
 20
7.3627967043
 30
0.0
 10
9.9225104039
 20
7.3699544511
 30
0.0
 10
9.9082548619
 20
7.376099692
 30
0.0
 10
9.8936559104
 20
7.3811985779
 30
0.0
 10
9.8787936817
 20
7.3852229802
 30
0.0
 10
9.8637497759
 20
7.3881506487
 30
0.0
 10
9.8486068165
 20
7.3899653356
 30
0.0
 10
9.8334480081
 20
7.3906568925
 30
0.0
 10
9.8183566674
 20
7.3902213246
 30
0.0
 10
9.8034158309
 20
7.3886608507
 30
0.0
 10
9.7887075742
 20
7.3859837935
 30
0.0
 10
9.7743133997
 20
7.3822049428
 30
0.0
 10
9.7626331454
 20
7.3781502366
 30
0.0
 10
9.7535289186
 20
7.3743795325
 30
0.0
 10
9.7446090232
 20
7.3702693806
 30
0.0
 10
9.7337935723
 20
7.3644919963
 30
0.0
 10
9.7234796332
 20
7.3578870231
 30
0.0
 10
9.7155752084
 20
7.3521352383
 30
0.0
 10
9.7079147746
 20
7.3460821939
 30
0.0
 10
9.7024448767
 20
7.341203825
 30
0.0
 10
9.6989361764
 20
7.3378146522
 30
0.0
  0
SPLINE
  5
36A
100
AcDbEntity
  8
0
100
AcDbSpline
 62
7
  6
CONTINUOUS
 70
0
 71
3
 72
11
 73
7
 74
0
 42
0.0000001
 43
0.0000001
 44
0.0000000001
 40
0.0
 40
0.0
 40
0.0
 40
0.0
 40
0.2697183344
 40
0.5237013691
 40
0.7658764722
 40
1.0
 40
1.0
 40
1.0
 40
1.0
 10
9.2583057327
 20
11.8624633778
 30
0.0
 10
9.2578747458
 20
11.8636461895
 30
0.0
 10
9.2571284219
 20
11.865977258
 30
0.0
 10
9.2563295238
 20
11.8694659583
 30
0.0
 10
9.2558659301
 20
11.8728473251
 30
0.0
 10
9.2557654006
 20
11.8750716937
 30
0.0
 10
9.2557654006
 20
11.8761644439
 30
0.0
  0
SPLINE
  5
36B
100
AcDbEntity
  8
0
100
AcDbSpline
 62
7
  6
CONTINUOUS
 70
0
 71
3
 72
29
 73
25
 74
0
 42
0.0000001
 43
0.0000001
 44
0.0000000001
 40
0.0
 40
0.0
 40
0.0
 40
0.0
 40
0.0191436973
 40
0.0390355211
 40
0.0596935659
 40
0.0811327518
 40
0.1033648686
 40
0.1263993078
 40
0.1502429301
 40
0.1749005738
 40
0.2003752217
 40
0.2266679852
 40
0.2537786426
 40
0.2817053285
 40
0.3399913541
 40
0.4014903187
 40
0.4661475825
 40
0.533894394
 40
0.604649601
 40
0.6783209807
 40
0.7548067634
 40
0.8339951261
 40
0.9157694204
 40
1.0
 40
1.0
 40
1.0
 40
1.0
 10
11.1600408204
 20
11.8979575488
 30
0.0
 10
11.1580567139
 20
11.896111137
 30
0.0
 10
11.1539308768
 20
11.8924314489
 30
0.0
 10
11.1474107154
 20
11.8870515964
 30
0.0
 10
11.1404452991
 20
11.881709552
 30
0.0
 10
11.1330379119
 20
11.8764078812
 30
0.0
 10
11.1251919393
 20
11.8711488184
 30
0.0
 10
11.1169109214
 20
11.8659348313
 30
0.0
 10
11.108198668
 20
11.8607682149
 30
0.0
 10
11.0990591539
 20
11.8556513355
 30
0.0
 10
11.0894965504
 20
11.8505865628
 30
0.0
 10
11.0795152714
 20
11.8455761569
 30
0.0
 10
11.0691198542
 20
11.8406224629
 30
0.0
 10
11.0545045829
 20
11.834001641
 30
0.0
 10
11.0352193114
 20
11.8259012304
 30
0.0
 10
11.010823825
 20
11.8165760851
 30
0.0
 10
10.9849007563
 20
11.807529951
 30
0.0
 10
10.9574978698
 20
11.7987796216
 30
0.0
 10
10.9286653844
 20
11.7903413637
 30
0.0
 10
10.8984563448
 20
11.782230863
 30
0.0
 10
10.8669265117
 20
11.7744632708
 30
0.0
 10
10.8341338134
 20
11.7670529421
 30
0.0
 10
10.8001391634
 20
11.7600138502
 30
0.0
 10
10.7770458148
 20
11.7556396508
 30
0.0
 10
10.7653117165
 20
11.7535131156
 30
0.0
  0
SPLINE
  5
36C
100
AcDbEntity
  8
0
100
AcDbSpline
 62
7
  6
CONTINUOUS
 70
0
 71
3
 72
11
 73
7
 74
0
 42
0.0000001
 43
0.0000001
 44
0.0000000001
 40
0.0
 40
0.0
 40
0.0
 40
0.0
 40
0.2341956276
 40
0.4764098744
 40
0.7303772225
 40
1.0
 40
1.0
 40
1.0
 40
1.0
 10
11.1133654006
 20
11.8761644439
 30
0.0
 10
11.1133654006
 20
11.8750750639
 30
0.0
 10
11.1132655007
 20
11.8728577285
 30
0.0
 10
11.1128048453
 20
11.8694872178
 30
0.0
 10
11.1120110534
 20
11.8660101686
 30
0.0
 10
11.1112695194
 20
11.863686845
 30
0.0
 10
11.1108413157
 20
11.8625080364
 30
0.0
  0
SPLINE
  5
36D
100
AcDbEntity
  8
0
100
AcDbSpline
 62
7
  6
CONTINUOUS
 70
0
 71
3
 72
41
 73
37
 74
0
 42
0.0000001
 43
0.0000001
 44
0.0000000001
 40
0.0
 40
0.0
 40
0.0
 40
0.0
 40
0.0299421689
 40
0.0599087154
 40
0.0899234217
 40
0.1200089011
 40
0.1501860597
 40
0.1804736107
 40
0.2108876533
 40
0.2414413269
 40
0.2721445469
 40
0.3030038242
 40
0.3340221695
 40
0.3651990796
 40
0.3965306028
 40
0.4280094739
 40
0.4596253147
 40
0.4913648909
 40
0.5232124193
 40
0.5551499155
 40
0.5871575776
 40
0.6192141968
 40
0.6512975879
 40
0.683385034
 40
0.7154537372
 40
0.7314764367
 40
0.7474861023
 40
0.7794508627
 40
0.8113324993
 40
0.8431123361
 40
0.8747737727
 40
0.9063026037
 40
0.9376875169
 40
0.9533255933
 40
0.9689249755
 40
1.0
 40
1.0
 40
1.0
 40
1.0
 10
9.5600414653
 20
7.4601682269
 30
0.0
 10
9.5666109763
 20
7.4665138585
 30
0.0
 10
9.5802666143
 20
7.4786929545
 30
0.0
 10
9.6021450227
 20
7.4952848402
 30
0.0
 10
9.6253066049
 20
7.5101168774
 30
0.0
 10
9.6496219271
 20
7.5231058807
 30
0.0
 10
9.6749573068
 20
7.5341808893
 30
0.0
 10
9.7011729198
 20
7.5432810277
 30
0.0
 10
9.7281243039
 20
7.5503565057
 30
0.0
 10
9.7556629779
 20
7.555368693
 30
0.0
 10
9.7836373204
 20
7.5582903601
 30
0.0
 10
9.8118933951
 20
7.5591057921
 30
0.0
 10
9.8402757993
 20
7.55781087
 30
0.0
 10
9.868628517
 20
7.5544130731
 30
0.0
 10
9.8967957681
 20
7.5489314102
 30
0.0
 10
9.9246228539
 20
7.5413963047
 30
0.0
 10
9.951956995
 20
7.5318494169
 30
0.0
 10
9.9786481566
 20
7.5203434091
 30
0.0
 10
10.0045498615
 20
7.5069416516
 30
0.0
 10
10.0295199773
 20
7.4917178794
 30
0.0
 10
10.0534215111
 20
7.4747557793
 30
0.0
 10
10.0761232855
 20
7.4561486002
 30
0.0
 10
10.0975008717
 20
7.4359983361
 30
0.0
 10
10.1174364322
 20
7.4144163269
 30
0.0
 10
10.1327630546
 20
7.395328534
 30
0.0
 10
10.1441981066
 20
7.3794627204
 30
0.0
 10
10.1550578608
 20
7.3632358821
 30
0.0
 10
10.1675434702
 20
7.3422941626
 30
0.0
 10
10.1807057273
 20
7.31623588
 30
0.0
 10
10.191969635
 20
7.2894019472
 30
0.0
 10
10.2012726923
 20
7.261940106
 30
0.0
 10
10.2085636511
 20
7.2340017992
 30
0.0
 10
10.2129347249
 20
7.2104188169
 30
0.0
 10
10.2153867943
 20
7.1914702277
 30
0.0
 10
10.2171367553
 20
7.1725397534
 30
0.0
 10
10.217666628
 20
7.1582947287
 30
0.0
 10
10.217666628
 20
7.148815398
 30
0.0
  0
SPLINE
  5
36E
100
AcDbEntity
  8
0
100
AcDbSpline
 62
7
  6
CONTINUOUS
 70
0
 71
3
 72
39
 73
35
 74
0
 42
0.0000001
 43
0.0000001
 44
0.0000000001
 40
0.0
 40
0.0
 40
0.0
 40
0.0
 40
0.0299424683
 40
0.0599093148
 40
0.0899243219
 40
0.1200101034
 40
0.1501875656
 40
0.1804754221
 40
0.2108897722
 40
0.2414437551
 40
0.2721472861
 40
0.3030068757
 40
0.334025535
 40
0.3652027614
 40
0.3965346031
 40
0.4280137946
 40
0.459629957
 40
0.4913698552
 40
0.5232177051
 40
0.5551555222
 40
0.5871635048
 40
0.6192204442
 40
0.6513041551
 40
0.68339192
 40
0.7154609412
 40
0.7474887928
 40
0.7794538702
 40
0.8113358216
 40
0.8431159806
 40
0.8747777136
 40
0.9063069224
 40
0.9376919709
 40
0.9689249367
 40
1.0
 40
1.0
 40
1.0
 40
1.0
 10
11.8226631338
 20
11.1856129225
 30
0.0
 10
11.8258135139
 20
11.188655931
 30
0.0
 10
11.8323620387
 20
11.1944963138
 30
0.0
 10
11.8428537416
 20
11.2024528285
 30
0.0
 10
11.8539607821
 20
11.2095654152
 30
0.0
 10
11.8656210865
 20
11.215794188
 30
0.0
 10
11.8777705513
 20
11.2211051144
 30
0.0
 10
11.8903421247
 20
11.2254690014
 30
0.0
 10
11.9032665306
 20
11.2288619723
 30
0.0
 10
11.9164725655
 20
11.2312655029
 30
0.0
 10
11.9298875198
 20
11.2326665374
 30
0.0
 10
11.9434375743
 20
11.2330575433
 30
0.0
 10
11.9570482077
 20
11.2324365452
 30
0.0
 10
11.9706446037
 20
11.2308071258
 30
0.0
 10
11.9841520585
 20
11.2281783986
 30
0.0
 10
11.9974963867
 20
11.2245649519
 30
0.0
 10
12.0106043231
 20
11.2199867638
 30
0.0
 10
12.0234039194
 20
11.2144690901
 30
0.0
 10
12.0358249342
 20
11.2080423231
 30
0.0
 10
12.0477992122
 20
11.2007418233
 30
0.0
 10
12.0592610536
 20
11.1926077261
 30
0.0
 10
12.07014757
 20
11.1836847222
 30
0.0
 10
12.0803990251
 20
11.1740218137
 30
0.0
 10
12.0899591592
 20
11.1636720482
 30
0.0
 10
12.098775494
 20
11.1526922295
 30
0.0
 10
12.1067996189
 20
11.1411426097
 30
0.0
 10
12.113987452
 20
11.129086562
 30
0.0
 10
12.1202994865
 20
11.116590236
 30
0.0
 10
12.1257009905
 20
11.1037222062
 30
0.0
 10
12.1301622357
 20
11.0905530671
 30
0.0
 10
12.1336585762
 20
11.0771551865
 30
0.0
 10
12.1361707516
 20
11.0636018163
 30
0.0
 10
12.137684726
 20
11.0499684279
 30
0.0
 10
12.1380238455
 20
11.0408503862
 30
0.0
 10
12.1380238455
 20
11.0363046628
 30
0.0
  0
SPLINE
  5
36F
100
AcDbEntity
  8
0
100
AcDbSpline
 62
7
  6
CONTINUOUS
 70
0
 71
3
 72
39
 73
35
 74
0
 42
0.0000001
 43
0.0000001
 44
0.0000000001
 40
0.0
 40
0.0
 40
0.0
 40
0.0
 40
0.0299424683
 40
0.0599093148
 40
0.0899243219
 40
0.1200101034
 40
0.1501875656
 40
0.1804754221
 40
0.2108897722
 40
0.2414437551
 40
0.2721472861
 40
0.3030068757
 40
0.334025535
 40
0.3652027614
 40
0.3965346031
 40
0.4280137946
 40
0.459629957
 40
0.4913698552
 40
0.5232177051
 40
0.5551555222
 40
0.5871635048
 40
0.6192204442
 40
0.6513041551
 40
0.68339192
 40
0.7154609412
 40
0.7474887928
 40
0.7794538702
 40
0.8113358216
 40
0.8431159806
 40
0.8747777136
 40
0.9063069224
 40
0.9376919709
 40
0.9689249367
 40
1.0
 40
1.0
 40
1.0
 40
1.0
 10
9.6493298958
 20
6.1203343235
 30
0.0
 10
9.652480276
 20
6.1233773319
 30
0.0
 10
9.6590288007
 20
6.1292177148
 30
0.0
 10
9.6695205037
 20
6.1371742294
 30
0.0
 10
9.6806275442
 20
6.1442868161
 30
0.0
 10
9.6922878486
 20
6.1505155889
 30
0.0
 10
9.7044373134
 20
6.1558265153
 30
0.0
 10
9.7170088868
 20
6.1601904023
 30
0.0
 10
9.7299332927
 20
6.1635833732
 30
0.0
 10
9.7431393275
 20
6.1659869039
 30
0.0
 10
9.7565542819
 20
6.1673879383
 30
0.0
 10
9.7701043364
 20
6.1677789443
 30
0.0
 10
9.7837149698
 20
6.1671579462
 30
0.0
 10
9.7973113658
 20
6.1655285267
 30
0.0
 10
9.8108188206
 20
6.1628997996
 30
0.0
 10
9.8241631488
 20
6.1592863529
 30
0.0
 10
9.8372710851
 20
6.1547081647
 30
0.0
 10
9.8500706815
 20
6.1491904911
 30
0.0
 10
9.8624916963
 20
6.142763724
 30
0.0
 10
9.8744659743
 20
6.1354632243
 30
0.0
 10
9.8859278157
 20
6.1273291271
 30
0.0
 10
9.8968143321
 20
6.1184061231
 30
0.0
 10
9.9070657872
 20
6.1087432147
 30
0.0
 10
9.9166259213
 20
6.0983934492
 30
0.0
 10
9.9254422561
 20
6.0874136304
 30
0.0
 10
9.9334663809
 20
6.0758640106
 30
0.0
 10
9.9406542141
 20
6.063807963
 30
0.0
 10
9.9469662486
 20
6.0513116369
 30
0.0
 10
9.9523677525
 20
6.0384436072
 30
0.0
 10
9.9568289978
 20
6.0252744681
 30
0.0
 10
9.9603253382
 20
6.0118765875
 30
0.0
 10
9.9628375136
 20
5.9983232172
 30
0.0
 10
9.9643514881
 20
5.9846898288
 30
0.0
 10
9.9646906076
 20
5.9755717872
 30
0.0
 10
9.9646906076
 20
5.9710260637
 30
0.0
  0
SPLINE
  5
370
100
AcDbEntity
  8
0
100
AcDbSpline
 62
7
  6
CONTINUOUS
 70
0
 71
3
 72
86
 73
82
 74
0
 42
0.0000001
 43
0.0000001
 44
0.0000000001
 40
0.0
 40
0.0
 40
0.0
 40
0.0
 40
0.002716423
 40
0.0054532184
 40
0.0082302775
 40
0.0110665566
 40
0.0139797488
 40
0.0169860419
 40
0.020099982
 40
0.0233344833
 40
0.0267008106
 40
0.0302087435
 40
0.0338666327
 40
0.0376815707
 40
0.041659524
 40
0.0458054172
 40
0.050123326
 40
0.0546164853
 40
0.059287471
 40
0.0641382186
 40
0.0691701101
 40
0.0743840651
 40
0.0797805185
 40
0.0853595635
 40
0.0911208899
 40
0.097063894
 40
0.1094905757
 40
0.122629762
 40
0.1364673676
 40
0.1509861198
 40
0.1661659549
 40
0.1819843348
 40
0.1984165055
 40
0.2154357144
 40
0.2330133935
 40
0.2511193234
 40
0.269721785
 40
0.2887876939
 40
0.3082827249
 40
0.3281714286
 40
0.3484173427
 40
0.3689830984
 40
0.3898305293
 40
0.4109207748
 40
0.4322143812
 40
0.4536714006
 40
0.49691332
 40
0.5403215239
 40
0.5835687025
 40
0.6050303106
 40
0.6263297971
 40
0.6474271998
 40
0.6682830476
 40
0.6888584598
 40
0.7091152471
 40
0.729016014
 40
0.7485242648
 40
0.7676045153
 40
0.7862224028
 40
0.804344802
 40
0.8219399494
 40
0.8389775763
 40
0.8554290562
 40
0.8712675732
 40
0.8864683068
 40
0.901008645
 40
0.9148684417
 40
0.92803033
 40
0.9404801139
 40
0.9464347718
 40
0.9522078119
 40
0.957798587
 40
0.9632067885
 40
0.9684324781
 40
0.9734760666
 40
0.9783384297
 40
0.9830208824
 40
0.987525401
 40
0.99185459
 40
0.9960115652
 40
1.0
 40
1.0
 40
1.0
 40
1.0
 10
13.5429326424
 20
8.5374622641
 30
0.0
 10
13.541177314
 20
8.5375839907
 30
0.0
 10
13.5376624838
 20
8.5379872484
 30
0.0
 10
13.5324349669
 20
8.5390662644
 30
0.0
 10
13.527246981
 20
8.5406194075
 30
0.0
 10
13.5221021779
 20
8.5426450191
 30
0.0
 10
13.5170032459
 20
8.5451413901
 30
0.0
 10
13.5119528033
 20
8.5481065537
 30
0.0
 10
13.5069531294
 20
8.5515383399
 30
0.0
 10
13.5020065328
 20
8.55543468
 30
0.0
 10
13.4971150469
 20
8.55979318
 30
0.0
 10
13.4922808744
 20
8.5646115567
 30
0.0
 10
13.4875060675
 20
8.5698872371
 30
0.0
 10
13.4827927514
 20
8.575617559
 30
0.0
 10
13.4781431079
 20
8.5817996923
 30
0.0
 10
13.4735591952
 20
8.5884305313
 30
0.0
 10
13.4690432746
 20
8.5955068709
 30
0.0
 10
13.4645973966
 20
8.6030251756
 30
0.0
 10
13.460223776
 20
8.6109817761
 30
0.0
 10
13.4559245192
 20
8.6193727311
 30
0.0
 10
13.4517017115
 20
8.6281938841
 30
0.0
 10
13.4475575067
 20
8.6374408818
 30
0.0
 10
13.4434938686
 20
8.6471091055
 30
0.0
 10
13.4395129259
 20
8.6571937644
 30
0.0
 10
13.4356165509
 20
8.6676898285
 30
0.0
 10
13.4304600584
 20
8.682446334
 30
0.0
 10
13.4242591102
 20
8.7018958462
 30
0.0
 10
13.4172918202
 20
8.7264537216
 30
0.0
 10
13.410706027
 20
8.7525163921
 30
0.0
 10
13.4045150693
 20
8.7800316846
 30
0.0
 10
13.3987315295
 20
8.8089447782
 30
0.0
 10
13.3933671707
 20
8.8391978325
 30
0.0
 10
13.3884329111
 20
8.8707302733
 30
0.0
 10
13.3839387979
 20
8.9034788859
 30
0.0
 10
13.3798939794
 20
8.9373779637
 30
0.0
 10
13.3763066856
 20
8.9723594474
 30
0.0
 10
13.3731842184
 20
9.0083530745
 30
0.0
 10
13.3705329355
 20
9.0452865275
 30
0.0
 10
13.3683582389
 20
9.0830855838
 30
0.0
 10
13.3666645646
 20
9.1216742663
 30
0.0
 10
13.3654553738
 20
9.1609749967
 30
0.0
 10
13.3647331403
 20
9.2009087522
 30
0.0
 10
13.3644993504
 20
9.2413952356
 30
0.0
 10
13.3647545154
 20
9.282353011
 30
0.0
 10
13.3654981113
 20
9.3236997789
 30
0.0
 10
13.3671432156
 20
9.3793775548
 30
0.0
 10
13.3704096979
 20
9.4493335396
 30
0.0
 10
13.3762162283
 20
9.5332796577
 30
0.0
 10
13.3826128356
 20
9.6030255265
 30
0.0
 10
13.3886497292
 20
9.6584097479
 30
0.0
 10
13.3936066149
 20
9.6994765445
 30
0.0
 10
13.3989938974
 20
9.7400932918
 30
0.0
 10
13.4048007624
 20
9.7801783742
 30
0.0
 10
13.4110154883
 20
9.8196511702
 30
0.0
 10
13.4176255446
 20
9.8584323155
 30
0.0
 10
13.4246175967
 20
9.8964438371
 30
0.0
 10
13.4319775382
 20
9.9336093217
 30
0.0
 10
13.43969051
 20
9.9698540726
 30
0.0
 10
13.4477409381
 20
10.0051052617
 30
0.0
 10
13.4561125639
 20
10.0392920762
 30
0.0
 10
13.4647884767
 20
10.0723458647
 30
0.0
 10
13.4737511475
 20
10.1042002793
 30
0.0
 10
13.4829824675
 20
10.1347914208
 30
0.0
 10
13.4924637785
 20
10.1640579774
 30
0.0
 10
13.5021759185
 20
10.1919413727
 30
0.0
 10
13.5120992668
 20
10.2183858523
 30
0.0
 10
13.5222138048
 20
10.2433387621
 30
0.0
 10
13.5324991337
 20
10.2667501682
 30
0.0
 10
13.5413213744
 20
10.2852007311
 30
0.0
 10
13.5484625038
 20
10.2991395229
 30
0.0
 10
13.5537685719
 20
10.3090240673
 30
0.0
 10
13.5591018133
 20
10.318489768
 30
0.0
 10
13.5644596193
 20
10.3275319154
 30
0.0
 10
13.5698392692
 20
10.3361460301
 30
0.0
 10
13.5752381676
 20
10.3443277866
 30
0.0
 10
13.5806535259
 20
10.3520731568
 30
0.0
 10
13.5860827673
 20
10.3593782825
 30
0.0
 10
13.591523242
 20
10.3662396242
 30
0.0
 10
13.5969724167
 20
10.3726538429
 30
0.0
 10
13.6024273887
 20
10.3786174564
 30
0.0
 10
13.6061417053
 20
10.3823671963
 30
0.0
 10
13.6079998855
 20
10.3841620607
 30
0.0
  0
SPLINE
  5
371
100
AcDbEntity
  8
0
100
AcDbSpline
 62
7
  6
CONTINUOUS
 70
0
 71
3
 72
61
 73
57
 74
0
 42
0.0000001
 43
0.0000001
 44
0.0000000001
 40
0.0
 40
0.0
 40
0.0
 40
0.0
 40
0.0075207324
 40
0.0156240055
 40
0.0243308433
 40
0.0336545768
 40
0.0436023655
 40
0.0541763112
 40
0.065374328
 40
0.0771908606
 40
0.0896173893
 40
0.1026427859
 40
0.1162536758
 40
0.1304347083
 40
0.145168727
 40
0.1604369411
 40
0.1762191128
 40
0.1924936716
 40
0.2092377896
 40
0.2264275197
 40
0.2440378952
 40
0.2620429852
 40
0.2804159755
 40
0.2991292715
 40
0.3374622021
 40
0.3768084315
 40
0.4169256179
 40
0.4575651873
 40
0.4984744046
 40
0.5393983996
 40
0.5800821848
 40
0.6202726688
 40
0.6597207048
 40
0.6981831032
 40
0.716971193
 40
0.7354254645
 40
0.7535181528
 40
0.77122227
 40
0.7885116657
 40
0.8053611304
 40
0.8217464875
 40
0.8376446498
 40
0.8530337228
 40
0.8678931552
 40
0.8822038278
 40
0.8959481785
 40
0.9091104066
 40
0.9216766781
 40
0.9336353289
 40
0.9449771747
 40
0.9556959343
 40
0.9657887051
 40
0.9752565188
 40
0.9841051808
 40
0.9923468454
 40
1.0
 40
1.0
 40
1.0
 40
1.0
 10
13.4960598385
 20
8.7600674177
 30
0.0
 10
13.4937071234
 20
8.7629601889
 30
0.0
 10
13.4890714508
 20
8.7691773167
 30
0.0
 10
13.4825479589
 20
8.779333449
 30
0.0
 10
13.4762106849
 20
8.7906428543
 30
0.0
 10
13.4700697052
 20
8.8030870214
 30
0.0
 10
13.4641343257
 20
8.8166466102
 30
0.0
 10
13.4584140934
 20
8.8312998809
 30
0.0
 10
13.4529182779
 20
8.8470231952
 30
0.0
 10
13.4476559529
 20
8.8637909838
 30
0.0
 10
13.4426358826
 20
8.8815758365
 30
0.0
 10
13.43786642
 20
8.9003485343
 30
0.0
 10
13.4333555398
 20
8.920078149
 30
0.0
 10
13.429110821
 20
8.9407321174
 30
0.0
 10
13.4251393863
 20
8.9622762849
 30
0.0
 10
13.4214478805
 20
8.9846749727
 30
0.0
 10
13.418042506
 20
9.0078910652
 30
0.0
 10
13.414929
 20
9.0318860681
 30
0.0
 10
13.4121125701
 20
9.0566201641
 30
0.0
 10
13.4095979395
 20
9.082052294
 30
0.0
 10
13.4073893436
 20
9.1081402387
 30
0.0
 10
13.4054905033
 20
9.134840662
 30
0.0
 10
13.4039045516
 20
9.1621092461
 30
0.0
 10
13.4021972277
 20
9.1994633523
 30
0.0
 10
13.4008796098
 20
9.2472406338
 30
0.0
 10
13.4005861618
 20
9.3056470407
 30
0.0
 10
13.4015708527
 20
9.3651895993
 30
0.0
 10
13.4038273599
 20
9.4254727763
 30
0.0
 10
13.4073409301
 20
9.4860963797
 30
0.0
 10
13.4120883126
 20
9.5466578457
 30
0.0
 10
13.4180378974
 20
9.6067550315
 30
0.0
 10
13.4251500349
 20
9.665989
 30
0.0
 10
13.4333771934
 20
9.7239662951
 30
0.0
 10
13.4411758798
 20
9.771274952
 30
0.0
 10
13.4479451959
 20
9.8081941517
 30
0.0
 10
13.4532251413
 20
9.8351167634
 30
0.0
 10
13.4587386541
 20
9.8614436771
 30
0.0
 10
13.4644765786
 20
9.8871312009
 30
0.0
 10
13.4704293494
 20
9.912136661
 30
0.0
 10
13.476587042
 20
9.936418544
 30
0.0
 10
13.4829393659
 20
9.959936557
 30
0.0
 10
13.4894757252
 20
9.9826516801
 30
0.0
 10
13.4961852324
 20
10.0045262396
 30
0.0
 10
13.5030566721
 20
10.0255239973
 30
0.0
 10
13.5100785713
 20
10.0456101971
 30
0.0
 10
13.5172392343
 20
10.0647516151
 30
0.0
 10
13.5245267275
 20
10.0829166495
 30
0.0
 10
13.531928899
 20
10.1000753907
 30
0.0
 10
13.539433456
 20
10.1161996512
 30
0.0
 10
13.5470280064
 20
10.1312630324
 30
0.0
 10
13.5547000223
 20
10.1452410368
 30
0.0
 10
13.5624370251
 20
10.1581111005
 30
0.0
 10
13.5702265366
 20
10.1698524913
 30
0.0
 10
13.5780566141
 20
10.1804469926
 30
0.0
 10
13.5859146793
 20
10.1898770102
 30
0.0
 10
13.5913614274
 20
10.1955838856
 30
0.0
 10
13.5940905521
 20
10.1982200178
 30
0.0
  0
SPLINE
  5
372
100
AcDbEntity
  8
0
100
AcDbSpline
 62
7
  6
CONTINUOUS
 70
0
 71
3
 72
13
 73
9
 74
0
 42
0.0000001
 43
0.0000001
 44
0.0000000001
 40
0.0
 40
0.0
 40
0.0
 40
0.0
 40
0.1202674098
 40
0.2410045897
 40
0.3626753573
 40
0.4857317999
 40
0.7376159295
 40
1.0
 40
1.0
 40
1.0
 40
1.0
 10
13.4980213359
 20
8.7841605382
 30
0.0
 10
13.4970837311
 20
8.7842255568
 30
0.0
 10
13.495208513
 20
8.7844167427
 30
0.0
 10
13.4924115102
 20
8.7848857021
 30
0.0
 10
13.489628707
 20
8.7855369076
 30
0.0
 10
13.4859104217
 20
8.7866560559
 30
0.0
 10
13.4812822369
 20
8.7885291879
 30
0.0
 10
13.4777443299
 20
8.7904543437
 30
0.0
 10
13.4759949979
 20
8.7915240253
 30
0.0
  0
SPLINE
  5
373
100
AcDbEntity
  8
0
100
AcDbSpline
 62
7
  6
CONTINUOUS
 70
0
 71
3
 72
13
 73
9
 74
0
 42
0.0000001
 43
0.0000001
 44
0.0000000001
 40
0.0
 40
0.0
 40
0.0
 40
0.0
 40
0.120123352
 40
0.2407311327
 40
0.3623017086
 40
0.4853011086
 40
0.7372461718
 40
1.0
 40
1.0
 40
1.0
 40
1.0
 10
13.5945331059
 20
10.1758179591
 30
0.0
 10
13.593580203
 20
10.1758840386
 30
0.0
 10
13.5916656016
 20
10.1759536375
 30
0.0
 10
13.58878397
 20
10.175869462
 30
0.0
 10
13.5858909126
 20
10.1755967777
 30
0.0
 10
13.5819893165
 20
10.1749774301
 30
0.0
 10
13.5770648274
 20
10.1737149595
 30
0.0
 10
13.5732347086
 20
10.1722463256
 30
0.0
 10
13.571324452
 20
10.1713999698
 30
0.0
  0
SPLINE
  5
374
100
AcDbEntity
  8
0
100
AcDbSpline
 62
7
  6
CONTINUOUS
 70
0
 71
3
 72
57
 73
53
 74
0
 42
0.0000001
 43
0.0000001
 44
0.0000000001
 40
0.0
 40
0.0
 40
0.0
 40
0.0
 40
0.0026707129
 40
0.0053521983
 40
0.0080550836
 40
0.0107897235
 40
0.0135660894
 40
0.0163936513
 40
0.0222352009
 40
0.0252673712
 40
0.0283826313
 40
0.03488576
 40
0.0417902241
 40
0.0491309307
 40
0.0569350589
 40
0.0652232609
 40
0.0740107557
 40
0.0833081307
 40
0.0931221717
 40
0.103456437
 40
0.1143116873
 40
0.1256863743
 40
0.1375768696
 40
0.1499777378
 40
0.1628820011
 40
0.1762812095
 40
0.1901656619
 40
0.2045245165
 40
0.2193458268
 40
0.2346167225
 40
0.250323421
 40
0.2664512942
 40
0.2829849887
 40
0.2999083976
 40
0.3348560741
 40
0.3711538615
 40
0.4086519992
 40
0.4471933788
 40
0.4866146812
 40
0.526747472
 40
0.5674192422
 40
0.6084544238
 40
0.649675406
 40
0.6909035415
 40
0.7319601408
 40
0.7726674747
 40
0.8128497794
 40
0.8523342587
 40
0.8909521024
 40
0.9285396043
 40
0.9649388605
 40
1.0
 40
1.0
 40
1.0
 40
1.0
 10
11.1133653872
 20
11.8761644439
 30
0.0
 10
11.1133653935
 20
11.8775308774
 30
0.0
 10
11.1132750413
 20
11.8802701086
 30
0.0
 10
11.1128686948
 20
11.8843741024
 30
0.0
 10
11.1121917203
 20
11.8884754966
 30
0.0
 10
11.1112444544
 20
11.8925726691
 30
0.0
 10
11.1100271489
 20
11.8966645012
 30
0.0
 10
11.1080237027
 20
11.9021700197
 30
0.0
 10
11.1054875212
 20
11.9076090558
 30
0.0
 10
11.10247076
 20
11.9129519728
 30
0.0
 10
11.0990112667
 20
11.9184252957
 30
0.0
 10
11.0939884679
 20
11.9252402807
 30
0.0
 10
11.0869929035
 20
11.9332386876
 30
0.0
 10
11.078953165
 20
11.9411655558
 30
0.0
 10
11.0698791435
 20
11.9490129795
 30
0.0
 10
11.0597809793
 20
11.9567734608
 30
0.0
 10
11.0486699266
 20
11.9644388856
 30
0.0
 10
11.0365584152
 20
11.9720011513
 30
0.0
 10
11.0234600047
 20
11.9794519305
 30
0.0
 10
11.0093894496
 20
11.9867828562
 30
0.0
 10
10.9943627329
 20
11.9939856828
 30
0.0
 10
10.9783969561
 20
12.0010521122
 30
0.0
 10
10.9615103937
 20
12.0079740207
 30
0.0
 10
10.9437224374
 20
12.0147434365
 30
0.0
 10
10.9250535399
 20
12.0213524466
 30
0.0
 10
10.9055252398
 20
12.0277934164
 30
0.0
 10
10.8851600862
 20
12.0340588436
 30
0.0
 10
10.8639816174
 20
12.0401413927
 30
0.0
 10
10.8420143525
 20
12.046034028
 30
0.0
 10
10.8192837273
 20
12.0517298425
 30
0.0
 10
10.7958160804
 20
12.0572221967
 30
0.0
 10
10.7716386315
 20
12.0625047087
 30
0.0
 10
10.7467793849
 20
12.0675712192
 30
0.0
 10
10.7123945771
 20
12.0741004908
 30
0.0
 10
10.6679163832
 20
12.0816563963
 30
0.0
 10
10.6128563436
 20
12.0896812377
 30
0.0
 10
10.5558087303
 20
12.0967201459
 30
0.0
 10
10.4970383185
 20
12.1027401029
 30
0.0
 10
10.4368176126
 20
12.1077128183
 30
0.0
 10
10.3754260456
 20
12.1116149476
 30
0.0
 10
10.3131485158
 20
12.1144281615
 30
0.0
 10
10.2502740892
 20
12.1161392645
 30
0.0
 10
10.1870946293
 20
12.1167402401
 30
0.0
 10
10.1239034287
 20
12.1162282682
 30
0.0
 10
10.0609938347
 20
12.1146057361
 30
0.0
 10
9.9986578733
 20
12.1118802619
 30
0.0
 10
9.9371848841
 20
12.1080646421
 30
0.0
 10
9.8768601504
 20
12.1031767801
 30
0.0
 10
9.8179635873
 20
12.0972396196
 30
0.0
 10
9.7607683462
 20
12.0902810392
 30
0.0
 10
9.7055399152
 20
12.0823338452
 30
0.0
 10
9.669478471
 20
12.0762799791
 30
0.0
 10
9.6518274383
 20
12.0730811357
 30
0.0
  0
SPLINE
  5
375
100
AcDbEntity
  8
0
100
AcDbSpline
 62
7
  6
CONTINUOUS
 70
0
 71
3
 72
83
 73
79
 74
0
 42
0.0000001
 43
0.0000001
 44
0.0000000001
 40
0.0
 40
0.0
 40
0.0
 40
0.0
 40
0.003934869
 40
0.0080327093
 40
0.0122970189
 40
0.0167307633
 40
0.021336443
 40
0.0261160034
 40
0.0310707475
 40
0.0362015546
 40
0.0415088819
 40
0.046992827
 40
0.0526531827
 40
0.0584893814
 40
0.0706854029
 40
0.0835719214
 40
0.0971359651
 40
0.1113615509
 40
0.1262300559
 40
0.1417205065
 40
0.157809821
 40
0.1744730242
 40
0.1916834229
 40
0.2094127591
 40
0.227631343
 40
0.2463081732
 40
0.2654110613
 40
0.2849067423
 40
0.3047609767
 40
0.3249386489
 40
0.3454038592
 40
0.3661200235
 40
0.408155334
 40
0.4507424472
 40
0.4935733799
 40
0.5363379116
 40
0.5787264261
 40
0.5996841393
 40
0.6204334842
 40
0.6409372081
 40
0.6611586345
 40
0.6810617622
 40
0.7006113572
 40
0.7197730466
 40
0.7385134165
 40
0.7568001142
 40
0.7746019634
 40
0.79188908
 40
0.8086329896
 40
0.824806762
 40
0.8403851608
 40
0.8553448207
 40
0.8696644549
 40
0.883325083
 40
0.8963103177
 40
0.9086067222
 40
0.9144935665
 40
0.9202047766
 40
0.9257397107
 40
0.9310980504
 40
0.9362798055
 40
0.9412853126
 40
0.9461153583
 40
0.9507711215
 40
0.9552543127
 40
0.9595671927
 40
0.9637126265
 40
0.9676942311
 40
0.9715163725
 40
0.9751843559
 40
0.9787044832
 40
0.9820841759
 40
0.9853321404
 40
0.9884584117
 40
0.9914745246
 40
0.9943935249
 40
0.9972299948
 40
1.0
 40
1.0
 40
1.0
 40
1.0
 10
13.5940905521
 20
8.5682200894
 30
0.0
 10
13.5959110088
 20
8.5699785156
 30
0.0
 10
13.5995500138
 20
8.5736489482
 30
0.0
 10
13.60489667
 20
8.5794804247
 30
0.0
 10
13.6102378953
 20
8.5857449092
 30
0.0
 10
13.6155709107
 20
8.5924391317
 30
0.0
 10
13.6208933491
 20
8.5995599331
 30
0.0
 10
13.6262026953
 20
8.6071040229
 30
0.0
 10
13.6314965442
 20
8.615067786
 30
0.0
 10
13.6367722841
 20
8.6234474501
 30
0.0
 10
13.642027418
 20
8.6322389887
 30
0.0
 10
13.6472594482
 20
8.6414381879
 30
0.0
 10
13.6524658492
 20
8.6510406816
 30
0.0
 10
13.6594732601
 20
8.6645747758
 30
0.0
 10
13.6681342216
 20
8.6824824856
 30
0.0
 10
13.6782390486
 20
8.7051987277
 30
0.0
 10
13.6881829093
 20
8.7294032111
 30
0.0
 10
13.6979465466
 20
8.7550494121
 30
0.0
 10
13.7075110415
 20
8.7820882929
 30
0.0
 10
13.7168578368
 20
8.8104679193
 30
0.0
 10
13.7259687996
 20
8.8401337216
 30
0.0
 10
13.7348262451
 20
8.8710285849
 30
0.0
 10
13.7434129808
 20
8.9030929856
 30
0.0
 10
13.7517123394
 20
8.93626511
 30
0.0
 10
13.7597082122
 20
8.9704809739
 30
0.0
 10
13.7673850944
 20
9.005674548
 30
0.0
 10
13.7747280997
 20
9.0417778966
 30
0.0
 10
13.7817229899
 20
9.0787213161
 30
0.0
 10
13.7883562078
 20
9.116433476
 30
0.0
 10
13.794614879
 20
9.1548415323
 30
0.0
 10
13.8004869313
 20
9.1938713533
 30
0.0
 10
13.8078208171
 20
9.2468952155
 30
0.0
 10
13.8159293563
 20
9.3141719187
 30
0.0
 10
13.8239124479
 20
9.3957708924
 30
0.0
 10
13.8301327032
 20
9.4779937586
 30
0.0
 10
13.834542025
 20
9.5602053896
 30
0.0
 10
13.8366873909
 20
9.6284317581
 30
0.0
 10
13.8374620037
 20
9.682520142
 30
0.0
 10
13.837571177
 20
9.7225368933
 30
0.0
 10
13.8372106985
 20
9.7620785314
 30
0.0
 10
13.83638125
 20
9.8010687304
 30
0.0
 10
13.8350844842
 20
9.8394321591
 30
0.0
 10
13.83332295
 20
9.8770947273
 30
0.0
 10
13.8311001007
 20
9.9139837009
 30
0.0
 10
13.8284202854
 20
9.9500278476
 30
0.0
 10
13.8252887391
 20
9.9851575781
 30
0.0
 10
13.8217115839
 20
10.0193050888
 30
0.0
 10
13.8176958183
 20
10.0524044992
 30
0.0
 10
13.8132492924
 20
10.0843919785
 30
0.0
 10
13.8083806968
 20
10.1152058707
 30
0.0
 10
13.8030995424
 20
10.1447868209
 30
0.0
 10
13.7974161439
 20
10.1730779197
 30
0.0
 10
13.7913416073
 20
10.200024794
 30
0.0
 10
13.7848877922
 20
10.2255758631
 30
0.0
 10
13.7780672479
 20
10.2496819784
 30
0.0
 10
13.772004154
 20
10.2687961074
 30
0.0
 10
13.766965641
 20
10.283317242
 30
0.0
 10
13.7631583188
 20
10.2936599109
 30
0.0
 10
13.759269427
 20
10.3036080876
 30
0.0
 10
13.7553008071
 20
10.3131570225
 30
0.0
 10
13.7512544076
 20
10.3223021554
 30
0.0
 10
13.747132079
 20
10.3310390931
 30
0.0
 10
13.7429358775
 20
10.3393637026
 30
0.0
 10
13.7386677075
 20
10.3472719962
 30
0.0
 10
13.7343296089
 20
10.3547602306
 30
0.0
 10
13.7299236237
 20
10.3618248718
 30
0.0
 10
13.7254517047
 20
10.3684625344
 30
0.0
 10
13.720915989
 20
10.3746701361
 30
0.0
 10
13.7163184093
 20
10.3804446758
 30
0.0
 10
13.7116610458
 20
10.3857834312
 30
0.0
 10
13.7069459124
 20
10.3906838322
 30
0.0
 10
13.7021749458
 20
10.3951433957
 30
0.0
 10
13.6973502448
 20
10.3991599337
 30
0.0
 10
13.6924737071
 20
10.4027311692
 30
0.0
 10
13.6875475018
 20
10.4058550917
 30
0.0
 10
13.6825736206
 20
10.4085297349
 30
0.0
 10
13.677554837
 20
10.4107529915
 30
0.0
 10
13.6741462045
 20
10.4119451692
 30
0.0
 10
13.6724409362
 20
10.4124616104
 30
0.0
  0
LINE
  5
376
100
AcDbEntity
  8
0
100
AcDbLine
 62
7
  6
CONTINUOUS
 10
13.6724409362
 20
10.4124616104
 11
13.6718146467
 21
10.412647742
  0
SPLINE
  5
377
100
AcDbEntity
  8
0
100
AcDbSpline
 62
7
  6
CONTINUOUS
 70
0
 71
3
 72
15
 73
11
 74
0
 42
0.0000001
 43
0.0000001
 44
0.0000000001
 40
0.0
 40
0.0
 40
0.0
 40
0.0
 40
0.1486334953
 40
0.2890765148
 40
0.4218602652
 40
0.5476677774
 40
0.6673267186
 40
0.7818177618
 40
0.8922809244
 40
1.0
 40
1.0
 40
1.0
 40
1.0
 10
13.5940905521
 20
8.5682200894
 30
0.0
 10
13.5917009499
 20
8.5659119108
 30
0.0
 10
13.5869245409
 20
8.5615530267
 30
0.0
 10
13.5795534998
 20
8.5556604641
 30
0.0
 10
13.5721904665
 20
8.5506105633
 30
0.0
 10
13.5648412827
 20
8.5464092361
 30
0.0
 10
13.5575113218
 20
8.5430618592
 30
0.0
 10
13.5502060857
 20
8.5405741095
 30
0.0
 10
13.5429340183
 20
8.538951414
 30
0.0
 10
13.5380698893
 20
8.5384452285
 30
0.0
 10
13.5356643383
 20
8.5383413777
 30
0.0
  0
SPLINE
  5
378
100
AcDbEntity
  8
0
100
AcDbSpline
 62
7
  6
CONTINUOUS
 70
0
 71
3
 72
23
 73
19
 74
0
 42
0.0000001
 43
0.0000001
 44
0.0000000001
 40
0.0
 40
0.0
 40
0.0
 40
0.0
 40
0.0755972399
 40
0.1466395047
 40
0.2134649845
 40
0.2765140689
 40
0.3363265565
 40
0.3935467574
 40
0.4489229844
 40
0.5032880879
 40
0.5575259989
 40
0.6125272937
 40
0.6691433527
 40
0.7281488082
 40
0.7902194195
 40
0.8559234935
 40
0.9257264946
 40
1.0
 40
1.0
 40
1.0
 40
1.0
 10
13.5940905521
 20
8.7551267479
 30
0.0
 10
13.5920144241
 20
8.753121362
 30
0.0
 10
13.5878649732
 20
8.7493546496
 30
0.0
 10
13.5814432614
 20
8.7443226064
 30
0.0
 10
13.575029122
 20
8.7400963702
 30
0.0
 10
13.5686283616
 20
8.7366823751
 30
0.0
 10
13.5622464095
 20
8.7340866403
 30
0.0
 10
13.5558897591
 20
8.7323158283
 30
0.0
 10
13.5495668303
 20
8.7313758822
 30
0.0
 10
13.543288106
 20
8.7312714872
 30
0.0
 10
13.5370656663
 20
8.7320040299
 30
0.0
 10
13.5309115724
 20
8.7335714043
 30
0.0
 10
13.5248362883
 20
8.7359683319
 30
0.0
 10
13.5188478263
 20
8.7391877356
 30
0.0
 10
13.5129523246
 20
8.7432223797
 30
0.0
 10
13.5071544431
 20
8.7480651223
 30
0.0
 10
13.5014589613
 20
8.7537089265
 30
0.0
 10
13.4978492425
 20
8.7578672633
 30
0.0
 10
13.4960598385
 20
8.7600674177
 30
0.0
  0
SPLINE
  5
379
100
AcDbEntity
  8
0
100
AcDbSpline
 62
7
  6
CONTINUOUS
 70
0
 71
3
 72
18
 73
14
 74
0
 42
0.0000001
 43
0.0000001
 44
0.0000000001
 40
0.0
 40
0.0
 40
0.0
 40
0.0
 40
0.1504674448
 40
0.2917141796
 40
0.424442482
 40
0.4879098255
 40
0.5496092838
 40
0.6682624819
 40
0.7817883454
 40
0.8371380809
 40
0.8918079269
 40
0.9460193378
 40
1.0
 40
1.0
 40
1.0
 40
1.0
 10
13.5462772209
 20
8.8062559449
 30
0.0
 10
13.5443053406
 20
8.8043512546
 30
0.0
 10
13.5403642391
 20
8.8007774929
 30
0.0
 10
13.5342618736
 20
8.7960149964
 30
0.0
 10
13.5291073696
 20
8.7926467102
 30
0.0
 10
13.5249971215
 20
8.7903658
 30
0.0
 10
13.5210077902
 20
8.7884075766
 30
0.0
 10
13.5160198622
 20
8.7864288493
 30
0.0
 10
13.5109432062
 20
8.785078531
 30
0.0
 10
13.506922339
 20
8.7844133501
 30
0.0
 10
13.5039423248
 20
8.7841180999
 30
0.0
 10
13.5009743629
 20
8.7840227501
 30
0.0
 10
13.4990025231
 20
8.7840924973
 30
0.0
 10
13.4980213359
 20
8.7841605382
 30
0.0
  0
SPLINE
  5
37A
100
AcDbEntity
  8
0
100
AcDbSpline
 62
7
  6
CONTINUOUS
 70
0
 71
3
 72
15
 73
11
 74
0
 42
0.0000001
 43
0.0000001
 44
0.0000000001
 40
0.0
 40
0.0
 40
0.0
 40
0.0
 40
0.1273483438
 40
0.2538606048
 40
0.3795878922
 40
0.5046051199
 40
0.6290174392
 40
0.7529533668
 40
0.8765605676
 40
1.0
 40
1.0
 40
1.0
 40
1.0
 10
11.7711651949
 20
11.0617463966
 30
0.0
 10
11.7711651949
 20
11.067594998
 30
0.0
 10
11.7717236251
 20
11.0792618888
 30
0.0
 10
11.7742490671
 20
11.0965378283
 30
0.0
 10
11.7784366729
 20
11.1133796794
 30
0.0
 10
11.7842486093
 20
11.1296299379
 30
0.0
 10
11.79163157
 20
11.1451387331
 30
0.0
 10
11.8005182583
 20
11.1597628426
 30
0.0
 10
11.8108250754
 20
11.1733652702
 30
0.0
 10
11.8185856052
 20
11.1816743649
 30
0.0
 10
11.8226631338
 20
11.1856129225
 30
0.0
  0
SPLINE
  5
37B
100
AcDbEntity
  8
0
100
AcDbSpline
 62
7
  6
CONTINUOUS
 70
0
 71
3
 72
91
 73
87
 74
0
 42
0.0000001
 43
0.0000001
 44
0.0000000001
 40
0.0
 40
0.0
 40
0.0
 40
0.0
 40
0.0042067517
 40
0.0086075399
 40
0.013206835
 40
0.0180083482
 40
0.0230150951
 40
0.0282292496
 40
0.0336521469
 40
0.0392845585
 40
0.0451266562
 40
0.051178182
 40
0.0574383839
 40
0.0639061149
 40
0.0774572906
 40
0.0918163556
 40
0.1069627617
 40
0.1228720226
 40
0.1395162079
 40
0.1568643379
 40
0.1748827089
 40
0.1935351686
 40
0.2127833552
 40
0.2325869078
 40
0.2529036663
 40
0.2736898538
 40
0.2949002471
 40
0.3164883395
 40
0.3384064987
 40
0.36060612
 40
0.3830377768
 40
0.4056513731
 40
0.4512206755
 40
0.4969063307
 40
0.5196650468
 40
0.5422992894
 40
0.5647583819
 40
0.5869921508
 40
0.6089510729
 40
0.6305864239
 40
0.6518504289
 40
0.6726964174
 40
0.6930789842
 40
0.7129541498
 40
0.7322795294
 40
0.7510145116
 40
0.7691204517
 40
0.7865608814
 40
0.8033017477
 40
0.819311688
 40
0.8345623435
 40
0.849028742
 40
0.8626897754
 40
0.8692131706
 40
0.8755294101
 40
0.8816372302
 40
0.8875358077
 40
0.8932246895
 40
0.898703975
 40
0.903974244
 40
0.9090367201
 40
0.9138933026
 40
0.9185466472
 40
0.9230003412
 40
0.9272589224
 40
0.9313281508
 40
0.9352150562
 40
0.9389282079
 40
0.9424778701
 40
0.9458761908
 40
0.9491374315
 40
0.9522780256
 40
0.9553167113
 40
0.9582743882
 40
0.9611739259
 40
0.9640397237
 40
0.9668971256
 40
0.9697717159
 40
0.9726885935
 40
0.9756716848
 40
0.9787432342
 40
0.9852253981
 40
0.9886743181
 40
0.9922790669
 40
0.9960511985
 40
1.0
 40
1.0
 40
1.0
 40
1.0
 10
13.5940905521
 20
8.7551267479
 30
0.0
 10
13.595703707
 20
8.7566849359
 30
0.0
 10
13.5989278691
 20
8.759953198
 30
0.0
 10
13.6036537559
 20
8.7651752928
 30
0.0
 10
13.6083736366
 20
8.7708226878
 30
0.0
 10
13.6130845565
 20
8.7768917487
 30
0.0
 10
13.6177839058
 20
8.7833789836
 30
0.0
 10
13.6224689707
 20
8.7902806463
 30
0.0
 10
13.6271370864
 20
8.7975926588
 30
0.0
 10
13.6317853825
 20
8.8053107395
 30
0.0
 10
13.6364112079
 20
8.8134302795
 30
0.0
 10
13.6410117369
 20
8.8219465041
 30
0.0
 10
13.6455843239
 20
8.8308543565
 30
0.0
 10
13.6517359848
 20
8.8434430663
 30
0.0
 10
13.6593192038
 20
8.8601337796
 30
0.0
 10
13.6681289612
 20
8.8813352479
 30
0.0
 10
13.6767634336
 20
8.9039594266
 30
0.0
 10
13.6852018685
 20
8.9279524364
 30
0.0
 10
13.6934239707
 20
8.9532573748
 30
0.0
 10
13.7014099487
 20
8.9798139896
 30
0.0
 10
13.7091405774
 20
9.0075589894
 30
0.0
 10
13.7165972472
 20
9.0364261708
 30
0.0
 10
13.7237620111
 20
9.0663465984
 30
0.0
 10
13.7306176354
 20
9.0972487761
 30
0.0
 10
13.7371476336
 20
9.129058829
 30
0.0
 10
13.7433363075
 20
9.1617006892
 30
0.0
 10
13.7491687842
 20
9.1950962822
 30
0.0
 10
13.7546310495
 20
9.2291657153
 30
0.0
 10
13.7597099863
 20
9.2638274764
 30
0.0
 10
13.7643933853
 20
9.2989986066
 30
0.0
 10
13.7686700568
 20
9.3345949898
 30
0.0
 10
13.7738290209
 20
9.3826306465
 30
0.0
 10
13.7791868909
 20
9.4431089221
 30
0.0
 10
13.7830732864
 20
9.5037769994
 30
0.0
 10
13.7852847129
 20
9.5522858962
 30
0.0
 10
13.78648432
 20
9.5884420604
 30
0.0
 10
13.7872242894
 20
9.6243305903
 30
0.0
 10
13.7875028376
 20
9.6598656541
 30
0.0
 10
13.787319339
 20
9.6949621888
 30
0.0
 10
13.7866742681
 20
9.729536207
 30
0.0
 10
13.7855692148
 20
9.7635049727
 30
0.0
 10
13.7840068777
 20
9.79678721
 30
0.0
 10
13.7819910651
 20
9.8293033005
 30
0.0
 10
13.7795266802
 20
9.8609754769
 30
0.0
 10
13.7766197112
 20
9.8917280118
 30
0.0
 10
13.7732772175
 20
9.921487403
 30
0.0
 10
13.7695073143
 20
9.950182557
 30
0.0
 10
13.7653191529
 20
9.977744966
 30
0.0
 10
13.7607228994
 20
10.0041088996
 30
0.0
 10
13.755729711
 20
10.0292115427
 30
0.0
 10
13.7503517113
 20
10.0529933061
 30
0.0
 10
13.7446018968
 20
10.07539752
 30
0.0
 10
13.7394358559
 20
10.0931386688
 30
0.0
 10
13.7351125228
 20
10.106590467
 30
0.0
 10
13.7318357044
 20
10.116146729
 30
0.0
 10
13.728476565
 20
10.1253204491
 30
0.0
 10
13.7250371482
 20
10.1341062156
 30
0.0
 10
13.7215194097
 20
10.1424987969
 30
0.0
 10
13.717925525
 20
10.1504932569
 30
0.0
 10
13.7142575412
 20
10.1580848621
 30
0.0
 10
13.7105176367
 20
10.1652691545
 30
0.0
 10
13.7067079989
 20
10.1720419303
 30
0.0
 10
13.7028307513
 20
10.1783991977
 30
0.0
 10
13.6988881897
 20
10.1843372961
 30
0.0
 10
13.6948823892
 20
10.1898526988
 30
0.0
 10
13.6908156449
 20
10.1949422452
 30
0.0
 10
13.6866900361
 20
10.1996028838
 30
0.0
 10
13.6825077358
 20
10.2038318333
 30
0.0
 10
13.678270873
 20
10.2076264866
 30
0.0
 10
13.6739814918
 20
10.2109842724
 30
0.0
 10
13.6696418296
 20
10.2139029059
 30
0.0
 10
13.6652540225
 20
10.2163799049
 30
0.0
 10
13.6608206022
 20
10.2184131547
 30
0.0
 10
13.6563442394
 20
10.2200004127
 30
0.0
 10
13.6518280788
 20
10.221139851
 30
0.0
 10
13.6472756133
 20
10.2218300478
 30
0.0
 10
13.6426906418
 20
10.2220700409
 30
0.0
 10
13.6380770661
 20
10.2218598517
 30
0.0
 10
13.6334387928
 20
10.2211998671
 30
0.0
 10
13.6287790798
 20
10.2200912673
 30
0.0
 10
13.6224300017
 20
10.2179798907
 30
0.0
 10
13.616147416
 20
10.2149743719
 30
0.0
 10
13.6099896002
 20
10.2112056797
 30
0.0
 10
13.6052665652
 20
10.2078808972
 30
0.0
 10
13.6005392834
 20
10.2041194992
 30
0.0
 10
13.5974582886
 20
10.2013864269
 30
0.0
 10
13.5959171472
 20
10.1999521578
 30
0.0
  0
SPLINE
  5
37C
100
AcDbEntity
  8
0
100
AcDbSpline
 62
7
  6
CONTINUOUS
 70
0
 71
3
 72
64
 73
60
 74
0
 42
0.0000001
 43
0.0000001
 44
0.0000000001
 40
0.0
 40
0.0
 40
0.0
 40
0.0
 40
0.0059877716
 40
0.0088872947
 40
0.0117371525
 40
0.0145487526
 40
0.0173340217
 40
0.0201052693
 40
0.0228750046
 40
0.0256557622
 40
0.028459911
 40
0.0312994853
 40
0.0341860395
 40
0.0371305005
 40
0.0401430994
 40
0.0464074947
 40
0.0530481713
 40
0.0601190234
 40
0.0676627181
 40
0.0757121387
 40
0.084291977
 40
0.0934201303
 40
0.103108808
 40
0.113365557
 40
0.1241940368
 40
0.1355945592
 40
0.1475646434
 40
0.1600994051
 40
0.173191796
 40
0.1868329232
 40
0.201012254
 40
0.2157177186
 40
0.2309359173
 40
0.2466522397
 40
0.2628509064
 40
0.279515121
 40
0.2966271473
 40
0.3141683259
 40
0.3321191957
 40
0.3504595498
 40
0.3691684443
 40
0.3882243005
 40
0.4272870286
 40
0.4674645578
 40
0.5085656431
 40
0.55039304
 40
0.5927448398
 40
0.6354158207
 40
0.6781987545
 40
0.7208857091
 40
0.7632693554
 40
0.8051442655
 40
0.8463082399
 40
0.8865636248
 40
0.9257186772
 40
0.944825897
 40
0.9635893934
 40
0.9819882896
 40
1.0
 40
1.0
 40
1.0
 40
1.0
 10
11.1138106254
 20
11.8641414491
 30
0.0
 10
11.1152199513
 20
11.8669641762
 30
0.0
 10
11.1170823552
 20
11.8712768256
 30
0.0
 10
11.1189872566
 20
11.877163833
 30
0.0
 10
11.1200960487
 20
11.88153984
 30
0.0
 10
11.1208989816
 20
11.8859208551
 30
0.0
 10
11.1213956724
 20
11.8903055414
 30
0.0
 10
11.1215859002
 20
11.8946921244
 30
0.0
 10
11.121469557
 20
11.899078923
 30
0.0
 10
11.1210466127
 20
11.9034642076
 30
0.0
 10
11.1203174164
 20
11.9078462906
 30
0.0
 10
11.1192823535
 20
11.9122235416
 30
0.0
 10
11.1179418974
 20
11.9165943193
 30
0.0
 10
11.1162967431
 20
11.9209572408
 30
0.0
 10
11.1136641391
 20
11.9268377126
 30
0.0
 10
11.1095732035
 20
11.9341806902
 30
0.0
 10
11.1035237536
 20
11.9428132056
 30
0.0
 10
11.0962813323
 20
11.951373805
 30
0.0
 10
11.0878570636
 20
11.9598533242
 30
0.0
 10
11.0782620951
 20
11.9682436703
 30
0.0
 10
11.0675085933
 20
11.9765357763
 30
0.0
 10
11.0556098997
 20
11.9847202109
 30
0.0
 10
11.0425808636
 20
11.9927873092
 30
0.0
 10
11.0284377881
 20
12.0007271956
 30
0.0
 10
11.0131984807
 20
12.0085298869
 30
0.0
 10
10.9968823082
 20
12.0161855166
 30
0.0
 10
10.9795100925
 20
12.0236842582
 30
0.0
 10
10.9611040898
 20
12.031016381
 30
0.0
 10
10.9416879983
 20
12.0381724093
 30
0.0
 10
10.9212868655
 20
12.0451430256
 30
0.0
 10
10.8999270537
 20
12.0519190995
 30
0.0
 10
10.8776362335
 20
12.0584918187
 30
0.0
 10
10.8544433041
 20
12.0648525912
 30
0.0
 10
10.8303783549
 20
12.0709930648
 30
0.0
 10
10.8054726479
 20
12.0769052421
 30
0.0
 10
10.7797585473
 20
12.0825813889
 30
0.0
 10
10.7532694763
 20
12.088014048
 30
0.0
 10
10.726039892
 20
12.0931961445
 30
0.0
 10
10.6981052161
 20
12.0981209028
 30
0.0
 10
10.6695018018
 20
12.1027818417
 30
0.0
 10
10.6402668452
 20
12.1071729369
 30
0.0
 10
10.6001650386
 20
12.112705704
 30
0.0
 10
10.5487376528
 20
12.1188877471
 30
0.0
 10
10.4856284033
 20
12.1250886599
 30
0.0
 10
10.4209523978
 20
12.1300989033
 30
0.0
 10
10.3550463312
 20
12.1338921105
 30
0.0
 10
10.2882530398
 20
12.1364483071
 30
0.0
 10
10.2209201273
 20
12.1377540346
 30
0.0
 10
10.1533980068
 20
12.1378023918
 30
0.0
 10
10.086038096
 20
12.1365931499
 30
0.0
 10
10.019190953
 20
12.1341326767
 30
0.0
 10
9.9532044638
 20
12.1304338996
 30
0.0
 10
9.8884218852
 20
12.1255163455
 30
0.0
 10
9.8251804619
 20
12.119405874
 30
0.0
 10
9.7736266818
 20
12.1132981268
 30
0.0
 10
9.7334114451
 20
12.1078236222
 30
0.0
 10
9.7040825766
 20
12.1034745113
 30
0.0
 10
9.6753796963
 20
12.0988546339
 30
0.0
 10
9.6564787006
 20
12.0955620583
 30
0.0
 10
9.6471403303
 20
12.0938696936
 30
0.0
  0
SPLINE
  5
37D
100
AcDbEntity
  8
0
100
AcDbSpline
 62
7
  6
CONTINUOUS
 70
0
 71
3
 72
78
 73
74
 74
0
 42
0.0000001
 43
0.0000001
 44
0.0000000001
 40
0.0
 40
0.0
 40
0.0
 40
0.0
 40
0.0039883987
 40
0.0081453993
 40
0.0124746576
 40
0.0169792314
 40
0.0216616914
 40
0.0265240591
 40
0.0315676749
 40
0.0367933842
 40
0.047791766
 40
0.0595189856
 40
0.0719688294
 40
0.0851307702
 40
0.0989906279
 40
0.1135310417
 40
0.1287318525
 40
0.1445704431
 40
0.1610219966
 40
0.1780597055
 40
0.195654938
 40
0.2137774209
 40
0.2323953937
 40
0.2514757378
 40
0.2709840866
 40
0.2908849475
 40
0.3111418272
 40
0.3317173367
 40
0.373670039
 40
0.4164306257
 40
0.4596780181
 40
0.5030864384
 40
0.546328575
 40
0.5890787064
 40
0.6310158448
 40
0.6515817052
 40
0.6718277268
 40
0.6917165419
 40
0.7112116802
 40
0.7302776915
 40
0.7488802562
 40
0.7669862909
 40
0.7845640702
 40
0.8015833727
 40
0.8180156401
 40
0.8338341215
 40
0.8490140553
 40
0.8635328915
 40
0.8773705761
 40
0.8905098479
 40
0.9029366215
 40
0.9146404894
 40
0.9256153978
 40
0.9308293919
 40
0.9358613149
 40
0.9407121012
 40
0.9453831205
 40
0.949876311
 40
0.9541942552
 40
0.9583401789
 40
0.9623181591
 40
0.9661331339
 40
0.9697910438
 40
0.9732990079
 40
0.9766653619
 40
0.979899881
 40
0.9830138541
 40
0.9860201611
 40
0.9889333771
 40
0.9917696757
 40
0.9945467489
 40
0.9972835631
 40
1.0
 40
1.0
 40
1.0
 40
1.0
 10
13.5462772209
 20
8.8062559449
 30
0.0
 10
13.547655277
 20
8.807587045
 30
0.0
 10
13.5504098906
 20
8.810367938
 30
0.0
 10
13.5544554369
 20
8.8147907127
 30
0.0
 10
13.5584967337
 20
8.8195476821
 30
0.0
 10
13.5625315429
 20
8.8246362658
 30
0.0
 10
13.5665580214
 20
8.8300539319
 30
0.0
 10
13.5705741711
 20
8.8357980934
 30
0.0
 10
13.5745781459
 20
8.8418659028
 30
0.0
 10
13.5799903151
 20
8.8505322501
 30
0.0
 10
13.5866961911
 20
8.862170606
 30
0.0
 10
13.5945313023
 20
8.8771463256
 30
0.0
 10
13.6022705615
 20
8.8933316022
 30
0.0
 10
13.6098984467
 20
8.9106942237
 30
0.0
 10
13.6173996569
 20
8.9291999142
 30
0.0
 10
13.6247590693
 20
8.9488118481
 30
0.0
 10
13.6319618467
 20
8.9694909069
 30
0.0
 10
13.6389934393
 20
8.9911957513
 30
0.0
 10
13.6458396354
 20
9.0138829385
 30
0.0
 10
13.6524865878
 20
9.0375070062
 30
0.0
 10
13.6589208734
 20
9.0620205617
 30
0.0
 10
13.6651294953
 20
9.0873743961
 30
0.0
 10
13.6710999117
 20
9.1135175989
 30
0.0
 10
13.676820055
 20
9.1403976579
 30
0.0
 10
13.6822783803
 20
9.1679605613
 30
0.0
 10
13.6874638667
 20
9.1961508947
 30
0.0
 10
13.6923660967
 20
9.2249120303
 30
0.0
 10
13.6985511926
 20
9.2641973707
 30
0.0
 10
13.705490654
 20
9.3143031816
 30
0.0
 10
13.7124956502
 20
9.3753779038
 30
0.0
 10
13.7181741585
 20
9.4372925225
 30
0.0
 10
13.7224804731
 20
9.4995494353
 30
0.0
 10
13.7253799713
 20
9.5616487121
 30
0.0
 10
13.7268495053
 20
9.6230912511
 30
0.0
 10
13.7268734578
 20
9.6736581904
 30
0.0
 10
13.726154759
 20
9.7134036181
 30
0.0
 10
13.7252579736
 20
9.7425501166
 30
0.0
 10
13.7240019209
 20
9.7711685084
 30
0.0
 10
13.7223891148
 20
9.7992013027
 30
0.0
 10
13.7204228582
 20
9.826592139
 30
0.0
 10
13.7181071615
 20
9.8532859787
 30
0.0
 10
13.715446741
 20
9.8792291891
 30
0.0
 10
13.7124470051
 20
9.9043696579
 30
0.0
 10
13.7091140546
 20
9.928656911
 30
0.0
 10
13.7054546857
 20
9.9520422244
 30
0.0
 10
13.7014763486
 20
9.9744787202
 30
0.0
 10
13.697187137
 20
9.9959214613
 30
0.0
 10
13.6925957619
 20
10.0163275606
 30
0.0
 10
13.687711563
 20
10.0356563108
 30
0.0
 10
13.6825444517
 20
10.0538692312
 30
0.0
 10
13.6771048587
 20
10.0709303288
 30
0.0
 10
13.6714037181
 20
10.0868056269
 30
0.0
 10
13.6663616931
 20
10.0992251365
 30
0.0
 10
13.6621923485
 20
10.1085285841
 30
0.0
 10
13.6590605676
 20
10.1150706065
 30
0.0
 10
13.6558721442
 20
10.1212935809
 30
0.0
 10
13.6526285516
 20
10.1271944257
 30
0.0
 10
13.6493313703
 20
10.1327702162
 30
0.0
 10
13.6459822533
 20
10.1380182405
 30
0.0
 10
13.6425827069
 20
10.1429358668
 30
0.0
 10
13.6391343982
 20
10.1475207124
 30
0.0
 10
13.6356389056
 20
10.1517705097
 30
0.0
 10
13.6320977616
 20
10.1556830968
 30
0.0
 10
13.6285126271
 20
10.1592565637
 30
0.0
 10
13.6248849818
 20
10.1624889738
 30
0.0
 10
13.6212164306
 20
10.1653785912
 30
0.0
 10
13.6175085814
 20
10.1679237704
 30
0.0
 10
13.613763009
 20
10.1701227872
 30
0.0
 10
13.6099815257
 20
10.1719742105
 30
0.0
 10
13.6061660084
 20
10.1734764964
 30
0.0
 10
13.602318449
 20
10.1746283177
 30
0.0
 10
13.5984416027
 20
10.1754286463
 30
0.0
 10
13.5958349039
 20
10.1757276853
 30
0.0
 10
13.5945331059
 20
10.1758179591
 30
0.0
  0
SPLINE
  5
37E
100
AcDbEntity
  8
0
100
AcDbSpline
 62
7
  6
CONTINUOUS
 70
0
 71
3
 72
15
 73
11
 74
0
 42
0.0000001
 43
0.0000001
 44
0.0000000001
 40
0.0
 40
0.0
 40
0.0
 40
0.0
 40
0.1273483438
 40
0.2538606048
 40
0.3795878922
 40
0.5046051199
 40
0.6290174392
 40
0.7529533668
 40
0.8765605676
 40
1.0
 40
1.0
 40
1.0
 40
1.0
 10
9.597831957
 20
5.9964677976
 30
0.0
 10
9.597831957
 20
6.002316399
 30
0.0
 10
9.5983903872
 20
6.0139832897
 30
0.0
 10
9.6009158292
 20
6.0312592292
 30
0.0
 10
9.605103435
 20
6.0481010803
 30
0.0
 10
9.6109153714
 20
6.0643513388
 30
0.0
 10
9.6182983321
 20
6.079860134
 30
0.0
 10
9.6271850203
 20
6.0944842435
 30
0.0
 10
9.6374918375
 20
6.1080866712
 30
0.0
 10
9.6452523673
 20
6.1163957658
 30
0.0
 10
9.6493298958
 20
6.1203343235
 30
0.0
  0
SPLINE
  5
37F
100
AcDbEntity
  8
0
100
AcDbSpline
 62
7
  6
CONTINUOUS
 70
0
 71
3
 72
67
 73
63
 74
0
 42
0.0000001
 43
0.0000001
 44
0.0000000001
 40
0.0
 40
0.0
 40
0.0
 40
0.0
 40
0.0186279168
 40
0.0376789862
 40
0.0571274372
 40
0.0769486302
 40
0.0971162871
 40
0.1176036401
 40
0.159426917
 40
0.2021941344
 40
0.2456733765
 40
0.2896276152
 40
0.3338164422
 40
0.3779977876
 40
0.4219296362
 40
0.4653717395
 40
0.5080873283
 40
0.5498448708
 40
0.5702942192
 40
0.5904205104
 40
0.6101970755
 40
0.6295979059
 40
0.6485977223
 40
0.6671720587
 40
0.6852973107
 40
0.7029508014
 40
0.7201108784
 40
0.7367570084
 40
0.7528698479
 40
0.7684313489
 40
0.7834249102
 40
0.7978355101
 40
0.8116498528
 40
0.8248565759
 40
0.8374465272
 40
0.8494130385
 40
0.860752289
 40
0.8714637975
 40
0.8815510471
 40
0.8910222223
 40
0.8998911887
 40
0.9081787659
 40
0.9159142711
 40
0.9231373305
 40
0.9298999105
 40
0.9362682546
 40
0.9393311166
 40
0.9423273815
 40
0.9452696119
 40
0.9481711489
 40
0.9510459551
 40
0.9539084321
 40
0.9567731805
 40
0.9596547665
 40
0.9625674737
 40
0.9655250972
 40
0.9685407491
 40
0.9716267108
 40
0.9780513356
 40
0.9848814787
 40
0.9921810548
 40
1.0
 40
1.0
 40
1.0
 40
1.0
 10
9.6038190848
 20
12.1828372914
 30
0.0
 10
9.6145410584
 20
12.1847804023
 30
0.0
 10
9.6362572769
 20
12.1885538939
 30
0.0
 10
9.6692572106
 20
12.1938253355
 30
0.0
 10
9.703013909
 20
12.1987660561
 30
0.0
 10
9.7374773445
 20
12.2033687629
 30
0.0
 10
9.7725973182
 20
12.2076267115
 30
0.0
 10
9.8205589582
 20
12.2128716745
 30
0.0
 10
9.8817724296
 20
12.2185045547
 30
0.0
 10
9.9565093622
 20
12.2237578323
 30
0.0
 10
10.0325842728
 20
12.2275189418
 30
0.0
 10
10.109550674
 20
12.229765571
 30
0.0
 10
10.1869571595
 20
12.2304843513
 30
0.0
 10
10.264349614
 20
12.2296710244
 30
0.0
 10
10.3412740048
 20
12.2273303977
 30
0.0
 10
10.4172791756
 20
12.223476437
 30
0.0
 10
10.4919190508
 20
12.2181319447
 30
0.0
 10
10.5530343083
 20
12.2124239107
 30
0.0
 10
10.6009040502
 20
12.2071198007
 30
0.0
 10
10.6359457185
 20
12.202818917
 30
0.0
 10
10.6703246464
 20
12.1981741
 30
0.0
 10
10.7039904208
 20
12.1931921485
 30
0.0
 10
10.7368936262
 20
12.1878804082
 30
0.0
 10
10.7689859983
 20
12.1822467265
 30
0.0
 10
10.8002204667
 20
12.1762994175
 30
0.0
 10
10.830551223
 20
12.1700472429
 30
0.0
 10
10.8599338046
 20
12.1634994231
 30
0.0
 10
10.8883251684
 20
12.1566656353
 30
0.0
 10
10.9156837391
 20
12.1495559633
 30
0.0
 10
10.9419694735
 20
12.1421808775
 30
0.0
 10
10.9671439481
 20
12.1345512613
 30
0.0
 10
10.9911704172
 20
12.1266783709
 30
0.0
 10
11.0140138548
 20
12.1185737932
 30
0.0
 10
11.0356410245
 20
12.1102494159
 30
0.0
 10
11.0560205707
 20
12.1017174522
 30
0.0
 10
11.0751230591
 20
12.0929903518
 30
0.0
 10
11.0929210178
 20
12.084080742
 30
0.0
 10
11.1093890103
 20
12.0750013671
 30
0.0
 10
11.124503711
 20
12.065765042
 30
0.0
 10
11.1382438868
 20
12.0563844578
 30
0.0
 10
11.1505903434
 20
12.0468720261
 30
0.0
 10
11.1615258611
 20
12.0372396451
 30
0.0
 10
11.1710348542
 20
12.0274987115
 30
0.0
 10
11.1791029972
 20
12.0176592071
 30
0.0
 10
11.1857156287
 20
12.0077324372
 30
0.0
 10
11.1900570352
 20
11.9992847325
 30
0.0
 10
11.1927468996
 20
11.9925262437
 30
0.0
 10
11.1943674496
 20
11.9875120445
 30
0.0
 10
11.1956159483
 20
11.9824896026
 30
0.0
 10
11.1964917783
 20
11.9774608357
 30
0.0
 10
11.1969942157
 20
11.9724279208
 30
0.0
 10
11.1971230459
 20
11.9673930969
 30
0.0
 10
11.1968781449
 20
11.9623586203
 30
0.0
 10
11.1962596089
 20
11.9573267671
 30
0.0
 10
11.1952679774
 20
11.9522997209
 30
0.0
 10
11.1939038104
 20
11.9472796609
 30
0.0
 10
11.1921678499
 20
11.9422684837
 30
0.0
 10
11.1893213573
 20
11.9355118139
 30
0.0
 10
11.1847844571
 20
11.9270705179
 30
0.0
 10
11.1779447713
 20
11.9171567278
 30
0.0
 10
11.1696523236
 20
11.9073322003
 30
0.0
 10
11.1633890703
 20
11.9010734338
 30
0.0
 10
11.1600408204
 20
11.8979575488
 30
0.0
  0
SPLINE
  5
380
100
AcDbEntity
  8
0
100
AcDbSpline
 62
7
  6
CONTINUOUS
 70
0
 71
3
 72
41
 73
37
 74
0
 42
0.0000001
 43
0.0000001
 44
0.0000000001
 40
0.0
 40
0.0
 40
0.0
 40
0.0
 40
0.0299421689
 40
0.0599087154
 40
0.0899234217
 40
0.1200089011
 40
0.1501860597
 40
0.1804736107
 40
0.2108876533
 40
0.2414413269
 40
0.2721445469
 40
0.3030038242
 40
0.3340221695
 40
0.3651990796
 40
0.3965306028
 40
0.4280094739
 40
0.4596253147
 40
0.4913648909
 40
0.5232124193
 40
0.5551499155
 40
0.5871575776
 40
0.6192141968
 40
0.6512975879
 40
0.683385034
 40
0.7154537372
 40
0.7314764367
 40
0.7474861023
 40
0.7794508627
 40
0.8113324993
 40
0.8431123361
 40
0.8747737727
 40
0.9063026037
 40
0.9376875169
 40
0.9533255933
 40
0.9689249755
 40
1.0
 40
1.0
 40
1.0
 40
1.0
 10
10.1102784909
 20
6.8905164216
 30
0.0
 10
10.1037089799
 20
6.88417079
 30
0.0
 10
10.0900533419
 20
6.8719916941
 30
0.0
 10
10.0681749335
 20
6.8553998083
 30
0.0
 10
10.0450133513
 20
6.8405677711
 30
0.0
 10
10.0206980291
 20
6.8275787678
 30
0.0
 10
9.9953626494
 20
6.8165037592
 30
0.0
 10
9.9691470364
 20
6.8074036209
 30
0.0
 10
9.9421956523
 20
6.8003281428
 30
0.0
 10
9.9146569783
 20
6.7953159556
 30
0.0
 10
9.8866826358
 20
6.7923942884
 30
0.0
 10
9.8584265611
 20
6.7915788564
 30
0.0
 10
9.8300441569
 20
6.7928737785
 30
0.0
 10
9.8016914392
 20
6.7962715754
 30
0.0
 10
9.7735241881
 20
6.8017532383
 30
0.0
 10
9.7456971023
 20
6.8092883438
 30
0.0
 10
9.7183629612
 20
6.8188352317
 30
0.0
 10
9.6916717996
 20
6.8303412394
 30
0.0
 10
9.6657700947
 20
6.8437429969
 30
0.0
 10
9.6407999789
 20
6.8589667691
 30
0.0
 10
9.6168984451
 20
6.8759288693
 30
0.0
 10
9.5941966708
 20
6.8945360484
 30
0.0
 10
9.5728190845
 20
6.9146863125
 30
0.0
 10
9.552883524
 20
6.9362683216
 30
0.0
 10
9.5375569016
 20
6.9553561145
 30
0.0
 10
9.5261218496
 20
6.9712219282
 30
0.0
 10
9.5152620954
 20
6.9874487665
 30
0.0
 10
9.502776486
 20
7.008390486
 30
0.0
 10
9.4896142289
 20
7.0344487686
 30
0.0
 10
9.4783503212
 20
7.0612827014
 30
0.0
 10
9.4690472639
 20
7.0887445425
 30
0.0
 10
9.4617563051
 20
7.1166828493
 30
0.0
 10
9.4573852313
 20
7.1402658316
 30
0.0
 10
9.4549331619
 20
7.1592144208
 30
0.0
 10
9.4531832009
 20
7.1781448951
 30
0.0
 10
9.4526533282
 20
7.1923899199
 30
0.0
 10
9.4526533282
 20
7.2018692505
 30
0.0
  0
SPLINE
  5
381
100
AcDbEntity
  8
0
100
AcDbSpline
 62
7
  6
CONTINUOUS
 70
0
 71
3
 72
41
 73
37
 74
0
 42
0.0000001
 43
0.0000001
 44
0.0000000001
 40
0.0
 40
0.0
 40
0.0
 40
0.0
 40
0.0299374084
 40
0.0599034349
 40
0.0899214092
 40
0.1200134164
 40
0.1501997788
 40
0.1804985917
 40
0.2109253236
 40
0.2414924906
 40
0.272209411
 40
0.3030820412
 40
0.3341128936
 40
0.3653010341
 40
0.3966421536
 40
0.4281287082
 40
0.4597501219
 40
0.4914930436
 40
0.5233416514
 40
0.5552779969
 40
0.5872823811
 40
0.6193337576
 40
0.6514101536
 40
0.683489105
 40
0.715548097
 40
0.7315655516
 40
0.7475697802
 40
0.7795233138
 40
0.8113934314
 40
0.8431617522
 40
0.8748119496
 40
0.9063300528
 40
0.9377049474
 40
0.9533382707
 40
0.9689332038
 40
1.0
 40
1.0
 40
1.0
 40
1.0
 10
10.1102521401
 20
6.8905451341
 30
0.0
 10
10.1036267609
 20
6.8843352742
 30
0.0
 10
10.0898721083
 20
6.8724285347
 30
0.0
 10
10.0678845575
 20
6.8562438549
 30
0.0
 10
10.0446508436
 20
6.8418132959
 30
0.0
 10
10.0202992703
 20
6.8292168386
 30
0.0
 10
9.9949621295
 20
6.8185224695
 30
0.0
 10
9.968777597
 20
6.809788265
 30
0.0
 10
9.941888251
 20
6.803061432
 30
0.0
 10
9.9144404727
 20
6.7983782457
 30
0.0
 10
9.8865835898
 20
6.795763824
 30
0.0
 10
9.8584690741
 20
6.7952320245
 30
0.0
 10
9.8302497157
 20
6.7967853853
 30
0.0
 10
9.8020787989
 20
6.8004151296
 30
0.0
 10
9.7741092771
 20
6.806101229
 30
0.0
 10
9.7464929525
 20
6.8138125201
 30
0.0
 10
9.7193796603
 20
6.8235068804
 30
0.0
 10
9.6929164696
 20
6.8351314702
 30
0.0
 10
9.667246895
 20
6.8486230231
 30
0.0
 10
9.6425101338
 20
6.8639081845
 30
0.0
 10
9.6188403058
 20
6.8809039314
 30
0.0
 10
9.5963657936
 20
6.899517938
 30
0.0
 10
9.5752083364
 20
6.9196493782
 30
0.0
 10
9.5554831933
 20
6.9411883296
 30
0.0
 10
9.5403217814
 20
6.9602214876
 30
0.0
 10
9.5290117381
 20
6.9760331847
 30
0.0
 10
9.5182718681
 20
6.9921991569
 30
0.0
 10
9.5059257977
 20
7.0130531013
 30
0.0
 10
9.4929126047
 20
7.0389895762
 30
0.0
 10
9.4817777567
 20
7.0656874598
 30
0.0
 10
9.472582316
 20
7.0930014852
 30
0.0
 10
9.4653763429
 20
7.1207827953
 30
0.0
 10
9.4610565451
 20
7.1442291272
 30
0.0
 10
9.4586333081
 20
7.1630665215
 30
0.0
 10
9.4569039248
 20
7.1818855371
 30
0.0
 10
9.4563803196
 20
7.1960460419
 30
0.0
 10
9.4563803196
 20
7.2054692479
 30
0.0
  0
SPLINE
  5
382
100
AcDbEntity
  8
0
100
AcDbSpline
 62
7
  6
CONTINUOUS
 70
0
 71
3
 72
41
 73
37
 74
0
 42
0.0000001
 43
0.0000001
 44
0.0000000001
 40
0.0
 40
0.0
 40
0.0
 40
0.0
 40
0.0299421216
 40
0.0449237656
 40
0.0599145167
 40
0.0899291718
 40
0.1200145985
 40
0.1350933583
 40
0.15019748
 40
0.1804849767
 40
0.2108989647
 40
0.2414525835
 40
0.2721557485
 40
0.3030149705
 40
0.3340332607
 40
0.3652101168
 40
0.3965415874
 40
0.4280204071
 40
0.4596361972
 40
0.491375723
 40
0.5232232003
 40
0.5551606452
 40
0.5871682559
 40
0.6192248239
 40
0.651308164
 40
0.683395559
 40
0.7154642111
 40
0.7474916947
 40
0.7794564051
 40
0.8113379906
 40
0.8431177849
 40
0.8747791545
 40
0.9063080011
 40
0.9376926887
 40
0.9689252949
 40
1.0
 40
1.0
 40
1.0
 40
1.0
 10
9.9928139794
 20
7.0335699808
 30
0.0
 10
9.9893052791
 20
7.0301808081
 30
0.0
 10
9.9838353812
 20
7.0253024392
 30
0.0
 10
9.9761749474
 20
7.0192493947
 30
0.0
 10
9.9682705226
 20
7.0134976099
 30
0.0
 10
9.9579565835
 20
7.0068926367
 30
0.0
 10
9.9471411326
 20
7.0011152525
 30
0.0
 10
9.9382212372
 20
6.9970051005
 30
0.0
 10
9.9291170104
 20
6.9932343964
 30
0.0
 10
9.9174367561
 20
6.9891796902
 30
0.0
 10
9.9030425816
 20
6.9854008395
 30
0.0
 10
9.8883343249
 20
6.9827237823
 30
0.0
 10
9.8733934884
 20
6.9811633084
 30
0.0
 10
9.8583021477
 20
6.9807277405
 30
0.0
 10
9.8431433393
 20
6.9814192974
 30
0.0
 10
9.8280003799
 20
6.9832339844
 30
0.0
 10
9.8129564741
 20
6.9861616528
 30
0.0
 10
9.7980942454
 20
6.9901860551
 30
0.0
 10
9.7834952939
 20
6.995284941
 30
0.0
 10
9.7692397519
 20
7.0014301819
 30
0.0
 10
9.7554058517
 20
7.0085879287
 30
0.0
 10
9.7420695016
 20
7.0167187986
 30
0.0
 10
9.7293038751
 20
7.0257780908
 30
0.0
 10
9.7171790147
 20
7.0357160313
 30
0.0
 10
9.7057614522
 20
7.0464780437
 30
0.0
 10
9.6951138472
 20
7.0580050462
 30
0.0
 10
9.6852946478
 20
7.0702337735
 30
0.0
 10
9.6763577718
 20
7.0830971196
 30
0.0
 10
9.6683523156
 20
7.0965245022
 30
0.0
 10
9.6613222804
 20
7.1104422473
 30
0.0
 10
9.6553063491
 20
7.1247739793
 30
0.0
 10
9.6503376317
 20
7.1394410736
 30
0.0
 10
9.6464435781
 20
7.1543629301
 30
0.0
 10
9.6436456394
 20
7.1694579642
 30
0.0
 10
9.6419594484
 20
7.1846421193
 30
0.0
 10
9.6415817535
 20
7.1947973175
 30
0.0
 10
9.6415817535
 20
7.1998601067
 30
0.0
  0
SPLINE
  5
383
100
AcDbEntity
  8
0
100
AcDbSpline
 62
7
  6
CONTINUOUS
 70
0
 71
3
 72
35
 73
31
 74
0
 42
0.0000001
 43
0.0000001
 44
0.0000000001
 40
0.0
 40
0.0
 40
0.0
 40
0.0
 40
0.0301496473
 40
0.060410331
 40
0.090788999
 40
0.121290816
 40
0.1519191233
 40
0.1826754114
 40
0.2135593135
 40
0.2445686259
 40
0.2756993738
 40
0.3069458926
 40
0.3383009172
 40
0.3697556895
 40
0.4013000995
 40
0.4329228422
 40
0.4963277906
 40
0.5598877461
 40
0.6234862515
 40
0.6870048181
 40
0.7187107205
 40
0.75035451
 40
0.7819235462
 40
0.8134062083
 40
0.8447919834
 40
0.876071742
 40
0.9072378626
 40
0.9382833956
 40
0.9692062879
 40
1.0
 40
1.0
 40
1.0
 40
1.0
 10
10.0400066159
 20
7.1083619897
 30
0.0
 10
10.0361588537
 20
7.1072101038
 30
0.0
 10
10.0283745208
 20
7.1051436346
 30
0.0
 10
10.0165070287
 20
7.102772197
 30
0.0
 10
10.0044688937
 20
7.1011315087
 30
0.0
 10
9.9923042565
 20
7.1002275824
 30
0.0
 10
9.980056933
 20
7.1000635479
 30
0.0
 10
9.9677712264
 20
7.1006399466
 30
0.0
 10
9.955491517
 20
7.1019546657
 30
0.0
 10
9.9432621693
 20
7.1040028835
 30
0.0
 10
9.931127341
 20
7.1067771117
 30
0.0
 10
9.9191308523
 20
7.1102672709
 30
0.0
 10
9.9073159899
 20
7.114460758
 30
0.0
 10
9.8957255202
 20
7.1193423178
 30
0.0
 10
9.8844008511
 20
7.1248945594
 30
0.0
 10
9.8697009014
 20
7.1331698471
 30
0.0
 10
9.8521969594
 20
7.1450871938
 30
0.0
 10
9.8329095117
 20
7.1616742989
 30
0.0
 10
9.8155883677
 20
7.1803258997
 30
0.0
 10
9.8029888113
 20
7.1973839772
 30
0.0
 10
9.7941279951
 20
7.2117848432
 30
0.0
 10
9.7881175876
 20
7.2229180317
 30
0.0
 10
9.7827620382
 20
7.2343473992
 30
0.0
 10
9.7780803651
 20
7.2460320843
 30
0.0
 10
9.7740895817
 20
7.2579298038
 30
0.0
 10
9.7708041359
 20
7.2699976771
 30
0.0
 10
9.7682360377
 20
7.2821920134
 30
0.0
 10
9.7663943723
 20
7.2944691374
 30
0.0
 10
9.7652861804
 20
7.3067838776
 30
0.0
 10
9.7650383362
 20
7.3150077338
 30
0.0
 10
9.7650383362
 20
7.3191100153
 30
0.0
  0
SPLINE
  5
384
100
AcDbEntity
  8
0
100
AcDbSpline
 62
7
  6
CONTINUOUS
 70
0
 71
3
 72
21
 73
17
 74
0
 42
0.0000001
 43
0.0000001
 44
0.0000000001
 40
0.0
 40
0.0
 40
0.0
 40
0.0
 40
0.0617038654
 40
0.1234340949
 40
0.1852107345
 40
0.2470533626
 40
0.3089809182
 40
0.3710115191
 40
0.43316227
 40
0.4954491015
 40
0.5578866697
 40
0.6204881769
 40
0.683265179
 40
0.746227922
 40
0.8727038246
 40
1.0
 40
1.0
 40
1.0
 40
1.0
 10
9.5600691577
 20
7.4601408763
 30
0.0
 10
9.5559554659
 20
7.4560461317
 30
0.0
 10
9.5479318318
 20
7.4476454108
 30
0.0
 10
9.5365451281
 20
7.4344500522
 30
0.0
 10
9.525829785
 20
7.4206868189
 30
0.0
 10
9.5158100082
 20
7.4063867503
 30
0.0
 10
9.5065079003
 20
7.3915815625
 30
0.0
 10
9.4979441759
 20
7.3763041848
 30
0.0
 10
9.4901378872
 20
7.3605885534
 30
0.0
 10
9.4831062927
 20
7.3444696539
 30
0.0
 10
9.4768649842
 20
7.3279832824
 30
0.0
 10
9.4714278856
 20
7.311166178
 30
0.0
 10
9.4668069392
 20
7.2940552977
 30
0.0
 10
9.461740609
 20
7.2708693822
 30
0.0
 10
9.4575025871
 20
7.2413297854
 30
0.0
 10
9.4563803196
 20
7.2174435326
 30
0.0
 10
9.4563803196
 20
7.2054692479
 30
0.0
  0
SPLINE
  5
385
100
AcDbEntity
  8
0
100
AcDbSpline
 62
7
  6
CONTINUOUS
 70
0
 71
3
 72
15
 73
11
 74
0
 42
0.0000001
 43
0.0000001
 44
0.0000000001
 40
0.0
 40
0.0
 40
0.0
 40
0.0
 40
0.1234394229
 40
0.2470466241
 40
0.3709825582
 40
0.4953948862
 40
0.6204121211
 40
0.7461394113
 40
0.8726516684
 40
1.0
 40
1.0
 40
1.0
 40
1.0
 10
9.6989361764
 20
7.3378146522
 30
0.0
 10
9.6943949352
 20
7.3334281133
 30
0.0
 10
9.6857518502
 20
7.3241739339
 30
0.0
 10
9.6742729106
 20
7.3090243849
 30
0.0
 10
9.6643756051
 20
7.2927369757
 30
0.0
 10
9.6561530377
 20
7.2754642808
 30
0.0
 10
9.6496801564
 20
7.2573658089
 30
0.0
 10
9.6450163287
 20
7.2386084726
 30
0.0
 10
9.6422036893
 20
7.2193676862
 30
0.0
 10
9.6415817535
 20
7.2063738863
 30
0.0
 10
9.6415817535
 20
7.1998601067
 30
0.0
  0
SPLINE
  5
386
100
AcDbEntity
  8
0
100
AcDbSpline
 62
7
  6
CONTINUOUS
 70
0
 71
3
 72
11
 73
7
 74
0
 42
0.0000001
 43
0.0000001
 44
0.0000000001
 40
0.0
 40
0.0
 40
0.0
 40
0.0
 40
0.2480744714
 40
0.4973806485
 40
0.7480047183
 40
1.0
 40
1.0
 40
1.0
 40
1.0
 10
9.7752320861
 20
7.3821299725
 30
0.0
 10
9.773543933
 20
7.3771052952
 30
0.0
 10
9.7705754354
 20
7.3668858534
 30
0.0
 10
9.7673845536
 20
7.3512073908
 30
0.0
 10
9.7654633422
 20
7.3352390908
 30
0.0
 10
9.7650383362
 20
7.3244944756
 30
0.0
 10
9.7650383362
 20
7.3191100153
 30
0.0
  0
SPLINE
  5
387
100
AcDbEntity
  8
0
100
AcDbSpline
 62
7
  6
CONTINUOUS
 70
0
 71
3
 72
35
 73
31
 74
0
 42
0.0000001
 43
0.0000001
 44
0.0000000001
 40
0.0
 40
0.0
 40
0.0
 40
0.0
 40
0.0300807811
 40
0.0602672421
 40
0.0905686231
 40
0.1209922967
 40
0.1515436676
 40
0.1822261202
 40
0.2130409941
 40
0.2439875852
 40
0.2750631776
 40
0.3062631069
 40
0.3375808644
 40
0.3690082131
 40
0.4005353212
 40
0.4321509132
 40
0.4955692424
 40
0.5591785102
 40
0.6228558627
 40
0.6864746662
 40
0.7182367251
 40
0.7499385906
 40
0.7815665008
 40
0.8131077594
 40
0.8445508714
 40
0.8758857678
 40
0.907104129
 40
0.9381983866
 40
0.9691657879
 40
1.0
 40
1.0
 40
1.0
 40
1.0
 10
10.0468046779
 20
7.1351792293
 30
0.0
 10
10.0433269966
 20
7.1338810209
 30
0.0
 10
10.0362723312
 20
7.1315069493
 30
0.0
 10
10.0254638817
 20
7.1286334157
 30
0.0
 10
10.014451246
 20
7.126451915
 30
0.0
 10
10.0032775203
 20
7.1249710276
 30
0.0
 10
9.9919856671
 20
7.1241963289
 30
0.0
 10
9.9806192896
 20
7.1241307284
 30
0.0
 10
9.9692222058
 20
7.1247744022
 30
0.0
 10
9.9578383549
 20
7.1261248099
 30
0.0
 10
9.9465116139
 20
7.1281767082
 30
0.0
 10
9.9352856342
 20
7.1309220998
 30
0.0
 10
9.9242036289
 20
7.1343503566
 30
0.0
 10
9.9133083918
 20
7.1384481415
 30
0.0
 10
9.90264147
 20
7.1431999312
 30
0.0
 10
9.8887675432
 20
7.1503883095
 30
0.0
 10
9.8722033954
 20
7.1609145784
 30
0.0
 10
9.8539008944
 20
7.1757908188
 30
0.0
 10
9.8374232346
 20
7.1927003405
 30
0.0
 10
9.8254125772
 20
7.2082858939
 30
0.0
 10
9.816955362
 20
7.2215012683
 30
0.0
 10
9.8112139103
 20
7.2317435246
 30
0.0
 10
9.8060945743
 20
7.2422798042
 30
0.0
 10
9.801616776
 20
7.2530699293
 30
0.0
 10
9.7977978944
 20
7.2640722418
 30
0.0
 10
9.7946526703
 20
7.2752444317
 30
0.0
 10
9.7921933429
 20
7.2865433459
 30
0.0
 10
9.7904292366
 20
7.2979257766
 30
0.0
 10
9.7893675053
 20
7.3093470848
 30
0.0
 10
9.7891300043
 20
7.3169757148
 30
0.0
 10
9.7891300043
 20
7.3207807811
 30
0.0
  0
SPLINE
  5
388
100
AcDbEntity
  8
0
100
AcDbSpline
 62
7
  6
CONTINUOUS
 70
0
 71
3
 72
37
 73
33
 74
0
 42
0.0000001
 43
0.0000001
 44
0.0000000001
 40
0.0
 40
0.0
 40
0.0
 40
0.0
 40
0.0155472121
 40
0.03128734
 40
0.0474056788
 40
0.0640736693
 40
0.0814445296
 40
0.0996515024
 40
0.1188074627
 40
0.1390063555
 40
0.1603247836
 40
0.1828242504
 40
0.2065531714
 40
0.231548646
 40
0.2578383369
 40
0.2854414938
 40
0.3143705679
 40
0.3446316909
 40
0.3762259293
 40
0.4091495639
 40
0.4433948874
 40
0.4789505504
 40
0.515801882
 40
0.5539314124
 40
0.5933188189
 40
0.6339415583
 40
0.675774578
 40
0.7187910126
 40
0.7629620282
 40
0.8082568025
 40
0.9020843778
 40
1.0
 40
1.0
 40
1.0
 40
1.0
 10
9.2557654141
 20
11.8761644439
 30
0.0
 10
9.255765425
 20
11.8785718525
 30
0.0
 10
9.2560481037
 20
11.8834211353
 30
0.0
 10
9.2573165371
 20
11.8906663784
 30
0.0
 10
9.2594267869
 20
11.8978934407
 30
0.0
 10
9.2623743426
 20
11.9050930859
 30
0.0
 10
9.2661536477
 20
11.9122591317
 30
0.0
 10
9.2707592973
 20
11.9193856593
 30
0.0
 10
9.2761855166
 20
11.9264675552
 30
0.0
 10
9.2824266739
 20
11.9334996345
 30
0.0
 10
9.28947672
 20
11.9404768009
 30
0.0
 10
9.2973292773
 20
11.9473937499
 30
0.0
 10
9.3059774281
 20
11.9542450113
 30
0.0
 10
9.3154135848
 20
11.9610250771
 30
0.0
 10
9.3256295758
 20
11.9677281876
 30
0.0
 10
9.3366164242
 20
11.9743487377
 30
0.0
 10
9.3483645506
 20
11.9808808734
 30
0.0
 10
9.360863571
 20
11.9873189768
 30
0.0
 10
9.374102473
 20
11.9936572709
 30
0.0
 10
9.388069502
 20
11.9998901752
 30
0.0
 10
9.4027522503
 20
12.0060120992
 30
0.0
 10
9.4181376379
 20
12.0120175459
 30
0.0
 10
9.4342119246
 20
12.0179011639
 30
0.0
 10
9.450960754
 20
12.0236575942
 30
0.0
 10
9.4683691254
 20
12.0292817361
 30
0.0
 10
9.4864214526
 20
12.0347684294
 30
0.0
 10
9.5051015401
 20
12.0401128166
 30
0.0
 10
9.5243926505
 20
12.0453099998
 30
0.0
 10
9.5442774828
 20
12.0503553742
 30
0.0
 10
9.5718832445
 20
12.0569514465
 30
0.0
 10
9.6077509079
 20
12.0647626659
 30
0.0
 10
9.6369087013
 20
12.070377458
 30
0.0
 10
9.6518274383
 20
12.0730811357
 30
0.0
  0
SPLINE
  5
389
100
AcDbEntity
  8
0
100
AcDbSpline
 62
7
  6
CONTINUOUS
 70
0
 71
3
 72
39
 73
35
 74
0
 42
0.0000001
 43
0.0000001
 44
0.0000000001
 40
0.0
 40
0.0
 40
0.0
 40
0.0
 40
0.0299424683
 40
0.0599093148
 40
0.0899243219
 40
0.1200101034
 40
0.1501875656
 40
0.1804754221
 40
0.2108897722
 40
0.2414437551
 40
0.2721472861
 40
0.3030068757
 40
0.334025535
 40
0.3652027614
 40
0.3965346031
 40
0.4280137946
 40
0.459629957
 40
0.4913698552
 40
0.5232177051
 40
0.5551555222
 40
0.5871635048
 40
0.6192204442
 40
0.6513041551
 40
0.68339192
 40
0.7154609412
 40
0.7474887928
 40
0.7794538702
 40
0.8113358216
 40
0.8431159806
 40
0.8747777136
 40
0.9063069224
 40
0.9376919709
 40
0.9689249367
 40
1.0
 40
1.0
 40
1.0
 40
1.0
 10
12.0865259067
 20
10.9124381369
 30
0.0
 10
12.0833755265
 20
10.9093951284
 30
0.0
 10
12.0768270018
 20
10.9035547456
 30
0.0
 10
12.0663352988
 20
10.895598231
 30
0.0
 10
12.0552282584
 20
10.8884856442
 30
0.0
 10
12.043567954
 20
10.8822568715
 30
0.0
 10
12.0314184891
 20
10.8769459451
 30
0.0
 10
12.0188469158
 20
10.872582058
 30
0.0
 10
12.0059225098
 20
10.8691890872
 30
0.0
 10
11.992716475
 20
10.8667855565
 30
0.0
 10
11.9793015207
 20
10.8653845221
 30
0.0
 10
11.9657514661
 20
10.8649935161
 30
0.0
 10
11.9521408327
 20
10.8656145142
 30
0.0
 10
11.9385444368
 20
10.8672439336
 30
0.0
 10
11.9250369819
 20
10.8698726608
 30
0.0
 10
11.9116926537
 20
10.8734861075
 30
0.0
 10
11.8985847174
 20
10.8780642956
 30
0.0
 10
11.885785121
 20
10.8835819693
 30
0.0
 10
11.8733641062
 20
10.8900087364
 30
0.0
 10
11.8613898282
 20
10.8973092361
 30
0.0
 10
11.8499279868
 20
10.9054433333
 30
0.0
 10
11.8390414704
 20
10.9143663372
 30
0.0
 10
11.8287900153
 20
10.9240292457
 30
0.0
 10
11.8192298813
 20
10.9343790112
 30
0.0
 10
11.8104135465
 20
10.9453588299
 30
0.0
 10
11.8023894216
 20
10.9569084497
 30
0.0
 10
11.7952015885
 20
10.9689644974
 30
0.0
 10
11.7888895539
 20
10.9814608235
 30
0.0
 10
11.78348805
 20
10.9943288532
 30
0.0
 10
11.7790268047
 20
11.0074979923
 30
0.0
 10
11.7755304643
 20
11.0208958729
 30
0.0
 10
11.7730182889
 20
11.0344492431
 30
0.0
 10
11.7715043144
 20
11.0480826316
 30
0.0
 10
11.7711651949
 20
11.0572006732
 30
0.0
 10
11.7711651949
 20
11.0617463966
 30
0.0
  0
SPLINE
  5
38A
100
AcDbEntity
  8
0
100
AcDbSpline
 62
7
  6
CONTINUOUS
 70
0
 71
3
 72
39
 73
35
 74
0
 42
0.0000001
 43
0.0000001
 44
0.0000000001
 40
0.0
 40
0.0
 40
0.0
 40
0.0
 40
0.0299424683
 40
0.0599093148
 40
0.0899243219
 40
0.1200101034
 40
0.1501875656
 40
0.1804754221
 40
0.2108897722
 40
0.2414437551
 40
0.2721472861
 40
0.3030068757
 40
0.334025535
 40
0.3652027614
 40
0.3965346031
 40
0.4280137946
 40
0.459629957
 40
0.4913698552
 40
0.5232177051
 40
0.5551555222
 40
0.5871635048
 40
0.6192204442
 40
0.6513041551
 40
0.68339192
 40
0.7154609412
 40
0.7474887928
 40
0.7794538702
 40
0.8113358216
 40
0.8431159806
 40
0.8747777136
 40
0.9063069224
 40
0.9376919709
 40
0.9689249367
 40
1.0
 40
1.0
 40
1.0
 40
1.0
 10
9.9131926688
 20
5.8471595378
 30
0.0
 10
9.9100422886
 20
5.8441165294
 30
0.0
 10
9.9034937639
 20
5.8382761465
 30
0.0
 10
9.8930020609
 20
5.8303196319
 30
0.0
 10
9.8818950204
 20
5.8232070452
 30
0.0
 10
9.870234716
 20
5.8169782724
 30
0.0
 10
9.8580852512
 20
5.811667346
 30
0.0
 10
9.8455136778
 20
5.807303459
 30
0.0
 10
9.8325892719
 20
5.8039104881
 30
0.0
 10
9.8193832371
 20
5.8015069575
 30
0.0
 10
9.8059682827
 20
5.800105923
 30
0.0
 10
9.7924182282
 20
5.799714917
 30
0.0
 10
9.7788075948
 20
5.8003359151
 30
0.0
 10
9.7652111988
 20
5.8019653346
 30
0.0
 10
9.751703744
 20
5.8045940618
 30
0.0
 10
9.7383594158
 20
5.8082075084
 30
0.0
 10
9.7252514795
 20
5.8127856966
 30
0.0
 10
9.7124518831
 20
5.8183033703
 30
0.0
 10
9.7000308683
 20
5.8247301373
 30
0.0
 10
9.6880565903
 20
5.8320306371
 30
0.0
 10
9.6765947489
 20
5.8401647342
 30
0.0
 10
9.6657082325
 20
5.8490877382
 30
0.0
 10
9.6554567774
 20
5.8587506466
 30
0.0
 10
9.6458966433
 20
5.8691004122
 30
0.0
 10
9.6370803085
 20
5.8800802309
 30
0.0
 10
9.6290561837
 20
5.8916298507
 30
0.0
 10
9.6218683505
 20
5.9036858983
 30
0.0
 10
9.615556316
 20
5.9161822244
 30
0.0
 10
9.6101548121
 20
5.9290502542
 30
0.0
 10
9.6056935668
 20
5.9422193933
 30
0.0
 10
9.6021972263
 20
5.9556172738
 30
0.0
 10
9.599685051
 20
5.9691706441
 30
0.0
 10
9.5981710765
 20
5.9828040325
 30
0.0
 10
9.597831957
 20
5.9919220741
 30
0.0
 10
9.597831957
 20
5.9964677976
 30
0.0
  0
SPLINE
  5
38B
100
AcDbEntity
  8
0
100
AcDbSpline
 62
7
  6
CONTINUOUS
 70
0
 71
3
 72
39
 73
35
 74
0
 42
0.0000001
 43
0.0000001
 44
0.0000000001
 40
0.0
 40
0.0
 40
0.0
 40
0.0
 40
0.0311159951
 40
0.062023302
 40
0.0927351462
 40
0.1232711779
 40
0.1536587317
 40
0.1839312106
 40
0.2141268394
 40
0.2442870987
 40
0.2744549756
 40
0.3046731307
 40
0.3349820889
 40
0.3654185443
 40
0.3960138644
 40
0.4267928812
 40
0.4577729965
 40
0.4889636213
 40
0.5203659689
 40
0.5519731774
 40
0.5837707183
 40
0.6157370645
 40
0.6478445901
 40
0.6800606397
 40
0.712348731
 40
0.7446698625
 40
0.7769838844
 40
0.809250893
 40
0.8414326244
 40
0.8734938009
 40
0.9054034054
 40
0.9371359272
 40
0.9686717714
 40
1.0
 40
1.0
 40
1.0
 40
1.0
 10
10.0692602927
 20
7.1629658775
 30
0.0
 10
10.0692602927
 20
7.1554555069
 30
0.0
 10
10.0685270851
 20
7.1404742699
 30
0.0
 10
10.0652111084
 20
7.1183019298
 30
0.0
 10
10.0597140082
 20
7.0967087909
 30
0.0
 10
10.0520877443
 20
7.0759061
 30
0.0
 10
10.0424052851
 20
7.0560943409
 30
0.0
 10
10.0307596344
 20
7.0374654272
 30
0.0
 10
10.0172629762
 20
7.0201997257
 30
0.0
 10
10.0020456084
 20
7.0044645343
 30
0.0
 10
9.98525479
 20
6.990412148
 30
0.0
 10
9.9670531205
 20
6.9781784093
 30
0.0
 10
9.947616863
 20
6.9678813921
 30
0.0
 10
9.9271341981
 20
6.9596201793
 30
0.0
 10
9.9058033104
 20
6.9534738569
 30
0.0
 10
9.8838303243
 20
6.9495009627
 30
0.0
 10
9.8614273001
 20
6.9477390083
 30
0.0
 10
9.8388101862
 20
6.9482040337
 30
0.0
 10
9.8161967097
 20
6.9508906527
 30
0.0
 10
9.7938043296
 20
6.9557722434
 30
0.0
 10
9.7718482001
 20
6.9628011892
 30
0.0
 10
9.7505391045
 20
6.9719092731
 30
0.0
 10
9.7300815229
 20
6.9830085198
 30
0.0
 10
9.7106717481
 20
6.9959920366
 30
0.0
 10
9.6924959677
 20
7.0107349042
 30
0.0
 10
9.6757285344
 20
7.0270954342
 30
0.0
 10
9.6605303899
 20
7.0449165694
 30
0.0
 10
9.6470475345
 20
7.0640273243
 30
0.0
 10
9.6354095261
 20
7.0842442956
 30
0.0
 10
9.6257283867
 20
7.1053735877
 30
0.0
 10
9.6180975354
 20
7.1272122867
 30
0.0
 10
9.6125908963
 20
7.1495514689
 30
0.0
 10
9.609261811
 20
7.1721737786
 30
0.0
 10
9.6085136462
 20
7.1873571692
 30
0.0
 10
9.6085136462
 20
7.1949187659
 30
0.0
  0
SPLINE
  5
38C
100
AcDbEntity
  8
0
100
AcDbSpline
 62
7
  6
CONTINUOUS
 70
0
 71
3
 72
19
 73
15
 74
0
 42
0.0000001
 43
0.0000001
 44
0.0000000001
 40
0.0
 40
0.0
 40
0.0
 40
0.0
 40
0.1504611406
 40
0.2916985742
 40
0.4244193292
 40
0.4878835935
 40
0.5495802133
 40
0.6682271463
 40
0.7255606136
 40
0.7817999183
 40
0.8371467056
 40
0.8918136429
 40
0.9460222308
 40
1.0
 40
1.0
 40
1.0
 40
1.0
 10
13.6079998855
 20
8.5672554738
 30
0.0
 10
13.6053410113
 20
8.5646871984
 30
0.0
 10
13.6000269344
 20
8.5598683875
 30
0.0
 10
13.5917985912
 20
8.5534467772
 30
0.0
 10
13.5848484741
 20
8.548905044
 30
0.0
 10
13.5793061878
 20
8.5458295124
 30
0.0
 10
13.5739274143
 20
8.5431890843
 30
0.0
 10
13.5684856568
 20
8.5410307838
 30
0.0
 10
13.5630132903
 20
8.5394066334
 30
0.0
 10
13.558967172
 20
8.5384704516
 30
0.0
 10
13.5549345183
 20
8.5378031953
 30
0.0
 10
13.550916402
 20
8.5374051557
 30
0.0
 10
13.5469144433
 20
8.5372764974
 30
0.0
 10
13.544255655
 20
8.5373705172
 30
0.0
 10
13.5429326424
 20
8.5374622641
 30
0.0
  0
SPLINE
  5
38D
100
AcDbEntity
  8
0
100
AcDbSpline
 62
7
  6
CONTINUOUS
 70
0
 71
3
 72
86
 73
82
 74
0
 42
0.0000001
 43
0.0000001
 44
0.0000000001
 40
0.0
 40
0.0
 40
0.0
 40
0.0
 40
0.002716423
 40
0.0054532184
 40
0.0082302775
 40
0.0110665566
 40
0.0139797488
 40
0.0169860419
 40
0.020099982
 40
0.0233344833
 40
0.0267008106
 40
0.0302087435
 40
0.0338666327
 40
0.0376815707
 40
0.041659524
 40
0.0458054172
 40
0.050123326
 40
0.0546164853
 40
0.059287471
 40
0.0641382186
 40
0.0691701101
 40
0.0743840651
 40
0.0797805185
 40
0.0853595635
 40
0.0911208899
 40
0.097063894
 40
0.1094905757
 40
0.122629762
 40
0.1364673676
 40
0.1509861198
 40
0.1661659549
 40
0.1819843348
 40
0.1984165055
 40
0.2154357144
 40
0.2330133935
 40
0.2511193234
 40
0.269721785
 40
0.2887876939
 40
0.3082827249
 40
0.3281714286
 40
0.3484173427
 40
0.3689830984
 40
0.3898305293
 40
0.4109207748
 40
0.4322143812
 40
0.4536714006
 40
0.49691332
 40
0.5403215239
 40
0.5835687025
 40
0.6050303106
 40
0.6263297971
 40
0.6474271998
 40
0.6682830476
 40
0.6888584598
 40
0.7091152471
 40
0.729016014
 40
0.7485242648
 40
0.7676045153
 40
0.7862224028
 40
0.804344802
 40
0.8219399494
 40
0.8389775763
 40
0.8554290562
 40
0.8712675732
 40
0.8864683068
 40
0.901008645
 40
0.9148684417
 40
0.92803033
 40
0.9404801139
 40
0.9464347718
 40
0.9522078119
 40
0.957798587
 40
0.9632067885
 40
0.9684324781
 40
0.9734760666
 40
0.9783384297
 40
0.9830208824
 40
0.987525401
 40
0.99185459
 40
0.9960115652
 40
1.0
 40
1.0
 40
1.0
 40
1.0
 10
13.6730671287
 20
10.4139552705
 30
0.0
 10
13.674822457
 20
10.4138335439
 30
0.0
 10
13.6783372872
 20
10.4134302862
 30
0.0
 10
13.6835648041
 20
10.4123512702
 30
0.0
 10
13.68875279
 20
10.4107981271
 30
0.0
 10
13.6938975931
 20
10.4087725155
 30
0.0
 10
13.6989965251
 20
10.4062761445
 30
0.0
 10
13.7040469677
 20
10.4033109809
 30
0.0
 10
13.7090466416
 20
10.3998791947
 30
0.0
 10
13.7139932382
 20
10.3959828546
 30
0.0
 10
13.7188847242
 20
10.3916243545
 30
0.0
 10
13.7237188966
 20
10.3868059779
 30
0.0
 10
13.7284937036
 20
10.3815302975
 30
0.0
 10
13.7332070196
 20
10.3757999756
 30
0.0
 10
13.7378566631
 20
10.3696178422
 30
0.0
 10
13.7424405758
 20
10.3629870033
 30
0.0
 10
13.7469564964
 20
10.3559106637
 30
0.0
 10
13.7514023744
 20
10.3483923589
 30
0.0
 10
13.755775995
 20
10.3404357585
 30
0.0
 10
13.7600752519
 20
10.3320448035
 30
0.0
 10
13.7642980595
 20
10.3232236505
 30
0.0
 10
13.7684422643
 20
10.3139766528
 30
0.0
 10
13.7725059024
 20
10.3043084291
 30
0.0
 10
13.7764868451
 20
10.2942237702
 30
0.0
 10
13.7803832201
 20
10.2837277061
 30
0.0
 10
13.7855397127
 20
10.2689712006
 30
0.0
 10
13.7917406608
 20
10.2495216884
 30
0.0
 10
13.7987079508
 20
10.224963813
 30
0.0
 10
13.8052937441
 20
10.1989011424
 30
0.0
 10
13.8114847018
 20
10.17138585
 30
0.0
 10
13.8172682416
 20
10.1424727564
 30
0.0
 10
13.8226326003
 20
10.1122197021
 30
0.0
 10
13.8275668599
 20
10.0806872613
 30
0.0
 10
13.8320609732
 20
10.0479386487
 30
0.0
 10
13.8361057917
 20
10.0140395709
 30
0.0
 10
13.8396930855
 20
9.9790580872
 30
0.0
 10
13.8428155526
 20
9.9430644601
 30
0.0
 10
13.8454668355
 20
9.9061310071
 30
0.0
 10
13.8476415322
 20
9.8683319508
 30
0.0
 10
13.8493352064
 20
9.8297432683
 30
0.0
 10
13.8505443972
 20
9.7904425379
 30
0.0
 10
13.8512666307
 20
9.7505087824
 30
0.0
 10
13.8515004207
 20
9.710022299
 30
0.0
 10
13.8512452556
 20
9.6690645236
 30
0.0
 10
13.8505016598
 20
9.6277177557
 30
0.0
 10
13.8488565555
 20
9.5720399798
 30
0.0
 10
13.8455900731
 20
9.502083995
 30
0.0
 10
13.8397835428
 20
9.4181378769
 30
0.0
 10
13.8333869354
 20
9.3483920081
 30
0.0
 10
13.8273500418
 20
9.2930077867
 30
0.0
 10
13.8223931561
 20
9.2519409901
 30
0.0
 10
13.8170058737
 20
9.2113242428
 30
0.0
 10
13.8111990086
 20
9.1712391604
 30
0.0
 10
13.8049842827
 20
9.1317663644
 30
0.0
 10
13.7983742265
 20
9.0929852191
 30
0.0
 10
13.7913821744
 20
9.0549736975
 30
0.0
 10
13.7840222328
 20
9.0178082129
 30
0.0
 10
13.776309261
 20
8.981563462
 30
0.0
 10
13.7682588329
 20
8.9463122729
 30
0.0
 10
13.7598872071
 20
8.9121254584
 30
0.0
 10
13.7512112943
 20
8.8790716699
 30
0.0
 10
13.7422486235
 20
8.8472172553
 30
0.0
 10
13.7330173035
 20
8.8166261138
 30
0.0
 10
13.7235359925
 20
8.7873595572
 30
0.0
 10
13.7138238526
 20
8.7594761619
 30
0.0
 10
13.7039005042
 20
8.7330316823
 30
0.0
 10
13.6937859662
 20
8.7080787725
 30
0.0
 10
13.6835006373
 20
8.6846673664
 30
0.0
 10
13.6746783966
 20
8.6662168035
 30
0.0
 10
13.6675372673
 20
8.6522780117
 30
0.0
 10
13.6622311991
 20
8.6423934673
 30
0.0
 10
13.6568979577
 20
8.6329277666
 30
0.0
 10
13.6515401517
 20
8.6238856192
 30
0.0
 10
13.6461605019
 20
8.6152715045
 30
0.0
 10
13.6407616034
 20
8.607089748
 30
0.0
 10
13.6353462451
 20
8.5993443778
 30
0.0
 10
13.6299170038
 20
8.5920392521
 30
0.0
 10
13.624476529
 20
8.5851779104
 30
0.0
 10
13.6190273543
 20
8.5787636917
 30
0.0
 10
13.6135723823
 20
8.5728000782
 30
0.0
 10
13.6098580658
 20
8.5690503382
 30
0.0
 10
13.6079998855
 20
8.5672554738
 30
0.0
  0
SPLINE
  5
38E
100
AcDbEntity
  8
0
100
AcDbSpline
 62
7
  6
CONTINUOUS
 70
0
 71
3
 72
39
 73
35
 74
0
 42
0.0000001
 43
0.0000001
 44
0.0000000001
 40
0.0
 40
0.0
 40
0.0
 40
0.0
 40
0.0313282286
 40
0.0628640728
 40
0.0945965946
 40
0.1265061991
 40
0.1585673756
 40
0.190749107
 40
0.2230161156
 40
0.2553301375
 40
0.287651269
 40
0.3199393603
 40
0.3521554099
 40
0.3842629355
 40
0.4162292817
 40
0.4480268226
 40
0.4796340311
 40
0.5110363787
 40
0.5422270035
 40
0.5732071188
 40
0.6039861356
 40
0.6345814557
 40
0.6650179111
 40
0.6953268693
 40
0.7255450244
 40
0.7557129013
 40
0.7858731606
 40
0.8160687894
 40
0.8463412683
 40
0.8767288221
 40
0.9072648538
 40
0.937976698
 40
0.9688840049
 40
1.0
 40
1.0
 40
1.0
 40
1.0
 10
10.0692602927
 20
7.1629658775
 30
0.0
 10
10.0692602927
 20
7.1705274742
 30
0.0
 10
10.0685121279
 20
7.1857108647
 30
0.0
 10
10.0651830426
 20
7.2083331744
 30
0.0
 10
10.0596764035
 20
7.2306723567
 30
0.0
 10
10.0520455522
 20
7.2525110557
 30
0.0
 10
10.0423644128
 20
7.2736403478
 30
0.0
 10
10.0307264044
 20
7.293857319
 30
0.0
 10
10.017243549
 20
7.312968074
 30
0.0
 10
10.0020454045
 20
7.3307892091
 30
0.0
 10
9.9852779712
 20
7.3471497392
 30
0.0
 10
9.9671021908
 20
7.3618926067
 30
0.0
 10
9.947692416
 20
7.3748761236
 30
0.0
 10
9.9272348344
 20
7.3859753702
 30
0.0
 10
9.9059257388
 20
7.3950834541
 30
0.0
 10
9.8839696093
 20
7.4021123999
 30
0.0
 10
9.8615772292
 20
7.4069939907
 30
0.0
 10
9.8389637527
 20
7.4096806097
 30
0.0
 10
9.8163466388
 20
7.4101456351
 30
0.0
 10
9.7939436146
 20
7.4083836806
 30
0.0
 10
9.7719706285
 20
7.4044107865
 30
0.0
 10
9.7506397408
 20
7.3982644641
 30
0.0
 10
9.7301570759
 20
7.3900032513
 30
0.0
 10
9.7107208184
 20
7.3797062341
 30
0.0
 10
9.6925191489
 20
7.3674724953
 30
0.0
 10
9.6757283305
 20
7.353420109
 30
0.0
 10
9.6605109627
 20
7.3376849177
 30
0.0
 10
9.6470143045
 20
7.3204192161
 30
0.0
 10
9.6353686538
 20
7.3017903025
 30
0.0
 10
9.6256861946
 20
7.2819785434
 30
0.0
 10
9.6180599307
 20
7.2611758525
 30
0.0
 10
9.6125628305
 20
7.2395827136
 30
0.0
 10
9.6092468538
 20
7.2174103734
 30
0.0
 10
9.6085136462
 20
7.2024291365
 30
0.0
 10
9.6085136462
 20
7.1949187659
 30
0.0
  0
SPLINE
  5
38F
100
AcDbEntity
  8
0
100
AcDbSpline
 62
7
  6
CONTINUOUS
 70
0
 71
3
 72
21
 73
17
 74
0
 42
0.0000001
 43
0.0000001
 44
0.0000000001
 40
0.0
 40
0.0
 40
0.0
 40
0.0
 40
0.1273174669
 40
0.2538000755
 40
0.316761934
 40
0.3795355049
 40
0.4421315085
 40
0.504562148
 40
0.5668413451
 40
0.628984521
 40
0.6910084481
 40
0.7529310917
 40
0.8147714402
 40
0.876549326
 40
0.9382852166
 40
1.0
 40
1.0
 40
1.0
 40
1.0
 10
9.4526533282
 20
7.2018692505
 30
0.0
 10
9.4526533282
 20
7.214065297
 30
0.0
 10
9.4538175412
 20
7.2383931134
 30
0.0
 10
9.4582143135
 20
7.2684675422
 30
0.0
 10
9.4634694973
 20
7.2920583087
 30
0.0
 10
9.4682619568
 20
7.3094588358
 30
0.0
 10
9.4738998984
 20
7.326550209
 30
0.0
 10
9.4803704671
 20
7.3432934559
 30
0.0
 10
9.4876587578
 20
7.359649834
 30
0.0
 10
9.4957479602
 20
7.3755816685
 30
0.0
 10
9.504619451
 20
7.3910521979
 30
0.0
 10
9.5142528481
 20
7.4060257138
 30
0.0
 10
9.5246258935
 20
7.4204676522
 30
0.0
 10
9.5357147749
 20
7.434344824
 30
0.0
 10
9.5474934834
 20
7.4476247895
 30
0.0
 10
9.5557893612
 20
7.4560610284
 30
0.0
 10
9.5600414653
 20
7.4601682269
 30
0.0
  0
SPLINE
  5
390
100
AcDbEntity
  8
0
100
AcDbSpline
 62
7
  6
CONTINUOUS
 70
0
 71
3
 72
11
 73
7
 74
0
 42
0.0000001
 43
0.0000001
 44
0.0000000001
 40
0.0
 40
0.0
 40
0.0
 40
0.0
 40
0.2523606205
 40
0.5030733183
 40
0.7522377995
 40
1.0
 40
1.0
 40
1.0
 40
1.0
 10
9.7891300043
 20
7.3207807811
 30
0.0
 10
9.7891300043
 20
7.3265968948
 30
0.0
 10
9.7896822141
 20
7.338199013
 30
0.0
 10
9.7921797996
 20
7.3553816641
 30
0.0
 10
9.7963206665
 20
7.3721351167
 30
0.0
 10
9.8001640719
 20
7.3829473344
 30
0.0
 10
9.8023442927
 20
7.3882248599
 30
0.0
  0
SPLINE
  5
391
100
AcDbEntity
  8
0
100
AcDbSpline
 62
7
  6
CONTINUOUS
 70
0
 71
3
 72
45
 73
41
 74
0
 42
0.0000001
 43
0.0000001
 44
0.0000000001
 40
0.0
 40
0.0
 40
0.0
 40
0.0
 40
0.0234201688
 40
0.0452789911
 40
0.0657274003
 40
0.084958819
 40
0.0941960288
 40
0.1032230178
 40
0.112076981
 40
0.1207976095
 40
0.1294265994
 40
0.1380071471
 40
0.1465832415
 40
0.1551989531
 40
0.1638976808
 40
0.1727214862
 40
0.1817105091
 40
0.1909024453
 40
0.2100236833
 40
0.2303398604
 40
0.2520489334
 40
0.2753059113
 40
0.3002286355
 40
0.3269039819
 40
0.3553934513
 40
0.385737775
 40
0.4179605692
 40
0.4520713747
 40
0.4880679813
 40
0.5259381658
 40
0.5656610734
 40
0.6072084325
 40
0.6505454599
 40
0.6956315136
 40
0.7424206475
 40
0.7908623718
 40
0.8409018276
 40
0.8924796049
 40
0.945535409
 40
1.0
 40
1.0
 40
1.0
 40
1.0
 10
9.2090894573
 20
11.89795805
 30
0.0
 10
9.2057287585
 20
11.901085532
 30
0.0
 10
9.1994437896
 20
11.9073677117
 30
0.0
 10
9.191127336
 20
11.917230743
 30
0.0
 10
9.1842749678
 20
11.927183793
 30
0.0
 10
9.179737063
 20
11.9356589444
 30
0.0
 10
9.1768959477
 20
11.9424423263
 30
0.0
 10
9.1751669431
 20
11.9474732797
 30
0.0
 10
9.1738126708
 20
11.9525131159
 30
0.0
 10
9.1728337552
 20
11.9575598925
 30
0.0
 10
9.1722309807
 20
11.9626114403
 30
0.0
 10
9.1720046898
 20
11.9676655077
 30
0.0
 10
9.1721549979
 20
11.9727198109
 30
0.0
 10
9.1726819252
 20
11.9777720428
 30
0.0
 10
9.1735849899
 20
11.9828199661
 30
0.0
 10
9.1748636165
 20
11.9878613666
 30
0.0
 10
9.1765171714
 20
11.992894285
 30
0.0
 10
9.1792557137
 20
11.9996789149
 30
0.0
 10
9.1836658274
 20
12.0081582622
 30
0.0
 10
9.1903696458
 20
12.0181197946
 30
0.0
 10
9.1985395048
 20
12.0279928256
 30
0.0
 10
9.2081606033
 20
12.0377659008
 30
0.0
 10
9.219218381
 20
12.047428925
 30
0.0
 10
9.231696954
 20
12.0569703789
 30
0.0
 10
9.2455788197
 20
12.0663781949
 30
0.0
 10
9.2608444722
 20
12.0756397641
 30
0.0
 10
9.2774722664
 20
12.0847422728
 30
0.0
 10
9.2954384398
 20
12.0936727851
 30
0.0
 10
9.3147171351
 20
12.1024183876
 30
0.0
 10
9.3352804192
 20
12.1109663038
 30
0.0
 10
9.3570983313
 20
12.1193039874
 30
0.0
 10
9.3801389797
 20
12.1274191245
 30
0.0
 10
9.4043686026
 20
12.1352996803
 30
0.0
 10
9.4297515976
 20
12.1429339615
 30
0.0
 10
9.4562506127
 20
12.1503106519
 30
0.0
 10
9.4838266211
 20
12.1574187798
 30
0.0
 10
9.512438866
 20
12.1642477306
 30
0.0
 10
9.5420454265
 20
12.1707874742
 30
0.0
 10
9.5726021413
 20
12.1770281066
 30
0.0
 10
9.5933141017
 20
12.180933505
 30
0.0
 10
9.6038190848
 20
12.1828372914
 30
0.0
  0
SPLINE
  5
392
100
AcDbEntity
  8
0
100
AcDbSpline
 62
7
  6
CONTINUOUS
 70
0
 71
3
 72
45
 73
41
 74
0
 42
0.0000001
 43
0.0000001
 44
0.0000000001
 40
0.0
 40
0.0
 40
0.0
 40
0.0
 40
0.017828842
 40
0.0264745149
 40
0.0349756405
 40
0.0433620336
 40
0.0516648879
 40
0.0599164185
 40
0.0681495151
 40
0.076397308
 40
0.0846927318
 40
0.0930681189
 40
0.1015547698
 40
0.1101826612
 40
0.1189801973
 40
0.1371819434
 40
0.1563569355
 40
0.1766631436
 40
0.1982290096
 40
0.221156459
 40
0.2455245356
 40
0.2713931267
 40
0.2988057928
 40
0.327792621
 40
0.3583724164
 40
0.3905542149
 40
0.4243390244
 40
0.4597207645
 40
0.4966871514
 40
0.5352206895
 40
0.5752989667
 40
0.6168953606
 40
0.659979495
 40
0.704517293
 40
0.7504717141
 40
0.7978028357
 40
0.8464673259
 40
0.8964202262
 40
0.9476160703
 40
1.0
 40
1.0
 40
1.0
 40
1.0
 10
9.2553202423
 20
11.864141286
 30
0.0
 10
9.2539903882
 20
11.866804787
 30
0.0
 10
9.2522201821
 20
11.8708690481
 30
0.0
 10
9.2503708538
 20
11.8764114379
 30
0.0
 10
9.249268409
 20
11.8805329108
 30
0.0
 10
9.2484373883
 20
11.8846590897
 30
0.0
 10
9.2478779718
 20
11.8887888683
 30
0.0
 10
9.2475905141
 20
11.8929208228
 30
0.0
 10
9.2475751836
 20
11.8970535645
 30
0.0
 10
9.2478319016
 20
11.9011856792
 30
0.0
 10
9.2483605747
 20
11.9053157703
 30
0.0
 10
9.2491610196
 20
11.9094424529
 30
0.0
 10
9.2502327607
 20
11.9135643734
 30
0.0
 10
9.2515754051
 20
11.9176803479
 30
0.0
 10
9.2537503485
 20
11.9232206005
 30
0.0
 10
9.2571779142
 20
11.9301454392
 30
0.0
 10
9.2623179872
 20
11.9383081767
 30
0.0
 10
9.2685225581
 20
11.9464120144
 30
0.0
 10
9.2757826271
 20
11.95444899
 30
0.0
 10
9.2840892418
 20
11.962412268
 30
0.0
 10
9.2934327412
 20
11.970294375
 30
0.0
 10
9.3038027254
 20
11.9780874663
 30
0.0
 10
9.3151876355
 20
11.9857835339
 30
0.0
 10
9.3275748234
 20
11.9933743415
 30
0.0
 10
9.3409504741
 20
12.000851502
 30
0.0
 10
9.3552995191
 20
12.0082067351
 30
0.0
 10
9.3706057611
 20
12.0154316741
 30
0.0
 10
9.3868518176
 20
12.0225180712
 30
0.0
 10
9.4040191537
 20
12.0294578423
 30
0.0
 10
9.4220881576
 20
12.0362429279
 30
0.0
 10
9.4410381067
 20
12.0428655266
 30
0.0
 10
9.4608472405
 20
12.0493179807
 30
0.0
 10
9.4814927833
 20
12.0555927607
 30
0.0
 10
9.5029509545
 20
12.0616826493
 30
0.0
 10
9.5251970531
 20
12.0675805532
 30
0.0
 10
9.5482053785
 20
12.0732795903
 30
0.0
 10
9.5719493451
 20
12.0787732086
 30
0.0
 10
9.5964018776
 20
12.0840550437
 30
0.0
 10
9.6215342566
 20
12.0891188311
 30
0.0
 10
9.6385335251
 20
12.0923099083
 30
0.0
 10
9.6471403303
 20
12.0938696936
 30
0.0
  0
SPLINE
  5
393
100
AcDbEntity
  8
0
100
AcDbSpline
 62
4
  6
CONTINUOUS
 70
0
 71
3
 72
313
 73
309
 74
0
 42
0.0000001
 43
0.0000001
 44
0.0000000001
 40
0.0
 40
0.0
 40
0.0
 40
0.0
 40
0.015625
 40
0.0234375
 40
0.03125
 40
0.0390625
 40
0.046875
 40
0.05078125
 40
0.0546875
 40
0.056640625
 40
0.05859375
 40
0.060546875
 40
0.0615234375
 40
0.0620117188
 40
0.0625
 40
0.0629882812
 40
0.0634765625
 40
0.064453125
 40
0.06640625
 40
0.068359375
 40
0.0703125
 40
0.07421875
 40
0.078125
 40
0.0859375
 40
0.09375
 40
0.1015625
 40
0.109375
 40
0.11328125
 40
0.1171875
 40
0.119140625
 40
0.12109375
 40
0.123046875
 40
0.1240234375
 40
0.1245117188
 40
0.125
 40
0.1254882812
 40
0.1259765625
 40
0.126953125
 40
0.12890625
 40
0.130859375
 40
0.1328125
 40
0.13671875
 40
0.140625
 40
0.1484375
 40
0.15625
 40
0.1640625
 40
0.171875
 40
0.17578125
 40
0.1796875
 40
0.181640625
 40
0.18359375
 40
0.185546875
 40
0.1865234375
 40
0.1870117188
 40
0.1875
 40
0.1879882812
 40
0.1884765625
 40
0.189453125
 40
0.19140625
 40
0.193359375
 40
0.1953125
 40
0.19921875
 40
0.203125
 40
0.2109375
 40
0.21875
 40
0.2265625
 40
0.234375
 40
0.23828125
 40
0.2421875
 40
0.244140625
 40
0.24609375
 40
0.248046875
 40
0.2490234375
 40
0.2495117188
 40
0.25
 40
0.2504882812
 40
0.2509765625
 40
0.251953125
 40
0.25390625
 40
0.255859375
 40
0.2578125
 40
0.26171875
 40
0.265625
 40
0.2734375
 40
0.28125
 40
0.2890625
 40
0.296875
 40
0.30078125
 40
0.3046875
 40
0.306640625
 40
0.30859375
 40
0.310546875
 40
0.3115234375
 40
0.3120117188
 40
0.3125
 40
0.3129882812
 40
0.3134765625
 40
0.314453125
 40
0.31640625
 40
0.318359375
 40
0.3203125
 40
0.32421875
 40
0.328125
 40
0.3359375
 40
0.34375
 40
0.3515625
 40
0.359375
 40
0.36328125
 40
0.3671875
 40
0.369140625
 40
0.37109375
 40
0.373046875
 40
0.3740234375
 40
0.3745117188
 40
0.375
 40
0.3754882812
 40
0.3759765625
 40
0.376953125
 40
0.37890625
 40
0.380859375
 40
0.3828125
 40
0.38671875
 40
0.390625
 40
0.3984375
 40
0.40625
 40
0.4140625
 40
0.421875
 40
0.42578125
 40
0.4296875
 40
0.431640625
 40
0.43359375
 40
0.435546875
 40
0.4365234375
 40
0.4370117188
 40
0.4375
 40
0.4379882812
 40
0.4384765625
 40
0.439453125
 40
0.44140625
 40
0.443359375
 40
0.4453125
 40
0.44921875
 40
0.453125
 40
0.4609375
 40
0.46875
 40
0.4765625
 40
0.484375
 40
0.48828125
 40
0.4921875
 40
0.494140625
 40
0.49609375
 40
0.498046875
 40
0.4990234375
 40
0.4995117188
 40
0.5
 40
0.5004882812
 40
0.5009765625
 40
0.501953125
 40
0.50390625
 40
0.505859375
 40
0.5078125
 40
0.51171875
 40
0.515625
 40
0.5234375
 40
0.53125
 40
0.5390625
 40
0.546875
 40
0.55078125
 40
0.5546875
 40
0.556640625
 40
0.55859375
 40
0.560546875
 40
0.5615234375
 40
0.5620117188
 40
0.5625
 40
0.5629882812
 40
0.5634765625
 40
0.564453125
 40
0.56640625
 40
0.568359375
 40
0.5703125
 40
0.57421875
 40
0.578125
 40
0.5859375
 40
0.59375
 40
0.6015625
 40
0.609375
 40
0.61328125
 40
0.6171875
 40
0.619140625
 40
0.62109375
 40
0.623046875
 40
0.6240234375
 40
0.6245117188
 40
0.625
 40
0.6254882812
 40
0.6259765625
 40
0.626953125
 40
0.62890625
 40
0.630859375
 40
0.6328125
 40
0.63671875
 40
0.640625
 40
0.6484375
 40
0.65625
 40
0.6640625
 40
0.671875
 40
0.67578125
 40
0.6796875
 40
0.681640625
 40
0.68359375
 40
0.685546875
 40
0.6865234375
 40
0.6870117188
 40
0.6875
 40
0.6879882812
 40
0.6884765625
 40
0.689453125
 40
0.69140625
 40
0.693359375
 40
0.6953125
 40
0.69921875
 40
0.703125
 40
0.7109375
 40
0.71875
 40
0.7265625
 40
0.734375
 40
0.73828125
 40
0.7421875
 40
0.744140625
 40
0.74609375
 40
0.748046875
 40
0.7490234375
 40
0.7495117188
 40
0.75
 40
0.7504882812
 40
0.7509765625
 40
0.751953125
 40
0.75390625
 40
0.755859375
 40
0.7578125
 40
0.76171875
 40
0.765625
 40
0.7734375
 40
0.78125
 40
0.7890625
 40
0.796875
 40
0.80078125
 40
0.8046875
 40
0.806640625
 40
0.80859375
 40
0.810546875
 40
0.8115234375
 40
0.8120117188
 40
0.8125
 40
0.8129882812
 40
0.8134765625
 40
0.814453125
 40
0.81640625
 40
0.818359375
 40
0.8203125
 40
0.82421875
 40
0.828125
 40
0.8359375
 40
0.84375
 40
0.8515625
 40
0.859375
 40
0.86328125
 40
0.8671875
 40
0.869140625
 40
0.87109375
 40
0.873046875
 40
0.8740234375
 40
0.8745117188
 40
0.875
 40
0.8754882812
 40
0.8759765625
 40
0.876953125
 40
0.87890625
 40
0.880859375
 40
0.8828125
 40
0.88671875
 40
0.890625
 40
0.8984375
 40
0.90625
 40
0.9140625
 40
0.921875
 40
0.92578125
 40
0.9296875
 40
0.931640625
 40
0.93359375
 40
0.935546875
 40
0.9365234375
 40
0.9370117188
 40
0.9375
 40
0.9379882812
 40
0.9384765625
 40
0.939453125
 40
0.94140625
 40
0.943359375
 40
0.9453125
 40
0.94921875
 40
0.953125
 40
0.9609375
 40
0.96875
 40
0.9765625
 40
0.984375
 40
1.0
 40
1.0
 40
1.0
 40
1.0
 10
9.9227887542
 20
9.6536459441
 30
0.0
 10
9.9265485785
 20
9.6537538534
 30
0.0
 10
9.932188315
 20
9.6539157171
 30
0.0
 10
9.9397079634
 20
9.6541315365
 30
0.0
 10
9.9453477003
 20
9.654293398
 30
0.0
 10
9.950987435
 20
9.6544552709
 30
0.0
 10
9.9556872209
 20
9.6545901297
 30
0.0
 10
9.9594470341
 20
9.6546980958
 30
0.0
 10
9.9617969525
 20
9.6547653944
 30
0.0
 10
9.9636768067
 20
9.6548196461
 30
0.0
 10
9.965086918
 20
9.6548592047
 30
0.0
 10
9.9662613086
 20
9.6548957653
 30
0.0
 10
9.96708476
 20
9.6549143025
 30
0.0
 10
9.967553152
 20
9.6549359113
 30
0.0
 10
9.9679105074
 20
9.6549210853
 30
0.0
 10
9.9682446931
 20
9.6550248816
 30
0.0
 10
9.9686983559
 20
9.6551218998
 30
0.0
 10
9.9694885002
 20
9.6553109599
 30
0.0
 10
9.9706192465
 20
9.655570967
 30
0.0
 10
9.9719752995
 20
9.6558872895
 30
0.0
 10
9.9737836644
 20
9.656307546
 30
0.0
 10
9.9760440197
 20
9.6568333826
 30
0.0
 10
9.9796606446
 20
9.6576744327
 30
0.0
 10
9.9841814061
 20
9.658725845
 30
0.0
 10
9.9896063295
 20
9.6599874943
 30
0.0
 10
9.9950312462
 20
9.6612491659
 30
0.0
 10
9.9995520242
 20
9.6623005224
 30
0.0
 10
10.0031686161
 20
9.663141684
 30
0.0
 10
10.0054290552
 20
9.6636672375
 30
0.0
 10
10.0072372483
 20
9.664088075
 30
0.0
 10
10.0085938261
 20
9.6644026225
 30
0.0
 10
10.00972293
 20
9.6646681833
 30
0.0
 10
10.0105160064
 20
9.664847329
 30
0.0
 10
10.0109649714
 20
9.6649602327
 30
0.0
 10
10.0113135871
 20
9.6650152339
 30
0.0
 10
10.0116167459
 20
9.665183674
 30
0.0
 10
10.0120368135
 20
9.6653686921
 30
0.0
 10
10.0127645444
 20
9.6657109096
 30
0.0
 10
10.0138080221
 20
9.6661901532
 30
0.0
 10
10.0150585422
 20
9.6667693712
 30
0.0
 10
10.0167264798
 20
9.6675402208
 30
0.0
 10
10.018811204
 20
9.6685042763
 30
0.0
 10
10.0221468734
 20
9.6700464891
 30
0.0
 10
10.0263164218
 20
9.6719743505
 30
0.0
 10
10.0313198978
 20
9.6742877406
 30
0.0
 10
10.0363233637
 20
9.6766011523
 30
0.0
 10
10.040492937
 20
9.6785289598
 30
0.0
 10
10.0438285566
 20
9.6800712804
 30
0.0
 10
10.0459134074
 20
9.6810350619
 30
0.0
 10
10.0475810853
 20
9.6818064738
 30
0.0
 10
10.0488323988
 20
9.6823839741
 30
0.0
 10
10.0498733941
 20
9.6828685919
 30
0.0
 10
10.0506055565
 20
9.6832012156
 30
0.0
 10
10.0510185237
 20
9.6834016052
 30
0.0
 10
10.0513434928
 20
9.683522829
 30
0.0
 10
10.0516101928
 20
9.6837551671
 30
0.0
 10
10.0519861177
 20
9.6840261933
 30
0.0
 10
10.0526345166
 20
9.6845185471
 30
0.0
 10
10.0535657516
 20
9.6852124688
 30
0.0
 10
10.0546811144
 20
9.6860492159
 30
0.0
 10
10.056169005
 20
9.6871634672
 30
0.0
 10
10.0580286148
 20
9.6885567646
 30
0.0
 10
10.0610041323
 20
9.6907857703
 30
0.0
 10
10.0647234799
 20
9.6935721206
 30
0.0
 10
10.0691867204
 20
9.696915699
 30
0.0
 10
10.0736499464
 20
9.7002592962
 30
0.0
 10
10.0773693305
 20
9.7030455995
 30
0.0
 10
10.0803447751
 20
9.7052746992
 30
0.0
 10
10.08220457
 20
9.7066677576
 30
0.0
 10
10.0836920808
 20
9.7077824994
 30
0.0
 10
10.0848086041
 20
9.7086177481
 30
0.0
 10
10.0857362082
 20
9.7093163577
 30
0.0
 10
10.0863910888
 20
9.7098003429
 30
0.0
 10
10.0867566284
 20
9.7100847777
 30
0.0
 10
10.0870552287
 20
9.7102759289
 30
0.0
 10
10.0872603855
 20
9.7105518437
 30
0.0
 10
10.087566522
 20
9.7108901637
 30
0.0
 10
10.0880870746
 20
9.7114959992
 30
0.0
 10
10.0888386608
 20
9.7123542764
 30
0.0
 10
10.0897371659
 20
9.7133872918
 30
0.0
 10
10.0909363596
 20
9.7147635689
 30
0.0
 10
10.0924349453
 20
9.716484284
 30
0.0
 10
10.0948329097
 20
9.7192372221
 30
0.0
 10
10.0978302866
 20
9.7226784658
 30
0.0
 10
10.101427175
 20
9.7268079259
 30
0.0
 10
10.1050240449
 20
9.7309374013
 30
0.0
 10
10.108021468
 20
9.734378607
 30
0.0
 10
10.11041934
 20
9.7371316209
 30
0.0
 10
10.1119181606
 20
9.7388521433
 30
0.0
 10
10.1131168722
 20
9.740228816
 30
0.0
 10
10.1140168502
 20
9.7412606228
 30
0.0
 10
10.1147638277
 20
9.7421226813
 30
0.0
 10
10.1152926076
 20
9.7427217666
 30
0.0
 10
10.115585562
 20
9.7430709021
 30
0.0
 10
10.11583121
 20
9.7433135952
 30
0.0
 10
10.1159777321
 20
9.7436295217
 30
0.0
 10
10.1162076711
 20
9.7440252123
 30
0.0
 10
10.1165939548
 20
9.7447295727
 30
0.0
 10
10.1171542109
 20
9.7457295795
 30
0.0
 10
10.1178229131
 20
9.746932251
 30
0.0
 10
10.1187157753
 20
9.7485348828
 30
0.0
 10
10.1198314219
 20
9.750538491
 30
0.0
 10
10.1216166975
 20
9.7537440861
 30
0.0
 10
10.1238482087
 20
9.7577511413
 30
0.0
 10
10.1265260605
 20
9.76255958
 30
0.0
 10
10.1292038922
 20
9.7673680309
 30
0.0
 10
10.1314354536
 20
9.7713750558
 30
0.0
 10
10.1332206288
 20
9.7745807117
 30
0.0
 10
10.1343365307
 20
9.7765841653
 30
0.0
 10
10.135228869
 20
9.7781871143
 30
0.0
 10
10.1358991719
 20
9.7793888166
 30
0.0
 10
10.13645442
 20
9.7803918559
 30
0.0
 10
10.1368496436
 20
9.7810908027
 30
0.0
 10
10.1370652585
 20
9.7814951673
 30
0.0
 10
10.1372557799
 20
9.7817844502
 30
0.0
 10
10.1373361741
 20
9.782127212
 30
0.0
 10
10.1374817799
 20
9.7825655737
 30
0.0
 10
10.1377186925
 20
9.783341398
 30
0.0
 10
10.1380664962
 20
9.7844451744
 30
0.0
 10
10.1384798555
 20
9.7857716511
 30
0.0
 10
10.1390324001
 20
9.7875396073
 30
0.0
 10
10.1397226018
 20
9.7897497852
 30
0.0
 10
10.1408271924
 20
9.7932859398
 30
0.0
 10
10.1422078382
 20
9.7977061779
 30
0.0
 10
10.1438646555
 20
9.8030104434
 30
0.0
 10
10.1455214511
 20
9.8083147181
 30
0.0
 10
10.1469021513
 20
9.8127349332
 30
0.0
 10
10.1480066329
 20
9.8162711339
 30
0.0
 10
10.1486971117
 20
9.8184811946
 30
0.0
 10
10.1492490878
 20
9.8202493914
 30
0.0
 10
10.1496641838
 20
9.821575133
 30
0.0
 10
10.1500065538
 20
9.8226812093
 30
0.0
 10
10.1502531664
 20
9.823452928
 30
0.0
 10
10.1503832304
 20
9.8238978678
 30
0.0
 10
10.1505113642
 20
9.8242204236
 30
0.0
 10
10.1505225834
 20
9.8245855972
 30
0.0
 10
10.1505783233
 20
9.8250576297
 30
0.0
 10
10.1506568676
 20
9.8258906128
 30
0.0
 10
10.1507790075
 20
9.8270769676
 30
0.0
 10
10.1509213235
 20
9.8285021433
 30
0.0
 10
10.1511125631
 20
9.8304018362
 30
0.0
 10
10.1513511042
 20
9.8327766377
 30
0.0
 10
10.1517330542
 20
9.8365762165
 30
0.0
 10
10.1522103936
 20
9.8413257255
 30
0.0
 10
10.1527832458
 20
9.8470251211
 30
0.0
 10
10.1533560751
 20
9.8527245206
 30
0.0
 10
10.1538334716
 20
9.8574740199
 30
0.0
 10
10.1542153072
 20
9.861273618
 30
0.0
 10
10.154454139
 20
9.8636483703
 30
0.0
 10
10.154644782
 20
9.8655481642
 30
0.0
 10
10.154788921
 20
9.8669730315
 30
0.0
 10
10.1549053568
 20
9.8681603512
 30
0.0
 10
10.154994084
 20
9.8689916117
 30
0.0
 10
10.1550335084
 20
9.8694664043
 30
0.0
 10
10.1550948436
 20
9.8698231
 30
0.0
 10
10.1550347496
 20
9.870177497
 30
0.0
 10
10.1549969802
 20
9.8706508282
 30
0.0
 10
10.1549111492
 20
9.8714787842
 30
0.0
 10
10.154798851
 20
9.8726617738
 30
0.0
 10
10.1546596769
 20
9.8740812776
 30
0.0
 10
10.1544756539
 20
9.8759739787
 30
0.0
 10
10.154245097
 20
9.8783398449
 30
0.0
 10
10.1538765013
 20
9.8821252366
 30
0.0
 10
10.1534156547
 20
9.8868569742
 30
0.0
 10
10.1528626853
 20
9.8925350605
 30
0.0
 10
10.152309693
 20
9.8982131451
 30
0.0
 10
10.1518489036
 20
9.9029448868
 30
0.0
 10
10.1514801934
 20
9.9067302701
 30
0.0
 10
10.1512499274
 20
9.9090961576
 30
0.0
 10
10.1510653074
 20
9.9109888152
 30
0.0
 10
10.1509279573
 20
9.9124084518
 30
0.0
 10
10.1508099524
 20
9.913591026
 30
0.0
 10
10.1507343087
 20
9.9144197234
 30
0.0
 10
10.1506802168
 20
9.9148918667
 30
0.0
 10
10.1506702601
 20
9.9152499125
 30
0.0
 10
10.1505432879
 20
9.9155929038
 30
0.0
 10
10.1504148081
 20
9.9160554767
 30
0.0
 10
10.1501709513
 20
9.9168625326
 30
0.0
 10
10.1498325267
 20
9.9180167487
 30
0.0
 10
10.1494221616
 20
9.9194012605
 30
0.0
 10
10.1488764945
 20
9.9212474676
 30
0.0
 10
10.1481939018
 20
9.9235551609
 30
0.0
 10
10.1471020378
 20
9.9272475068
 30
0.0
 10
10.1457371097
 20
9.9318629264
 30
0.0
 10
10.1440992407
 20
9.9374014363
 30
0.0
 10
10.1424613499
 20
9.9429399412
 30
0.0
 10
10.1410964763
 20
9.9475553735
 30
0.0
 10
10.1400045033
 20
9.951247694
 30
0.0
 10
10.1393221878
 20
9.9535554518
 30
0.0
 10
10.1387759516
 20
9.9554015265
 30
0.0
 10
10.1383673252
 20
9.9567864427
 30
0.0
 10
10.1380234607
 20
9.9579393937
 30
0.0
 10
10.137789315
 20
9.9587487081
 30
0.0
 10
10.1376452755
 20
9.9592076623
 30
0.0
 10
10.1375660977
 20
9.959561769
 30
0.0
 10
10.1373766334
 20
9.9598780672
 30
0.0
 10
10.1371624835
 20
9.9603129862
 30
0.0
 10
10.1367697978
 20
9.9610679498
 30
0.0
 10
10.1362181887
 20
9.9621496818
 30
0.0
 10
10.1355522469
 20
9.9634463851
 30
0.0
 10
10.1346657254
 20
9.9651758032
 30
0.0
 10
10.1335570938
 20
9.9673374113
 30
0.0
 10
10.1317835515
 20
9.9707960762
 30
0.0
 10
10.1295665309
 20
9.9751193756
 30
0.0
 10
10.1269061486
 20
9.9803073496
 30
0.0
 10
10.1242457454
 20
9.9854953152
 30
0.0
 10
10.122028777
 20
9.9898186358
 30
0.0
 10
10.1202551304
 20
9.9932772582
 30
0.0
 10
10.119146764
 20
9.9954389744
 30
0.0
 10
10.1182596983
 20
9.9971681705
 30
0.0
 10
10.1175954191
 20
9.998465552
 30
0.0
 10
10.117038608
 20
9.9995451623
 30
0.0
 10
10.1166552086
 20
10.0003039135
 30
0.0
 10
10.1164261796
 20
10.0007327639
 30
0.0
 10
10.1162824192
 20
10.0010677028
 30
0.0
 10
10.1160315854
 20
10.0013517982
 30
0.0
 10
10.1157344887
 20
10.0017483268
 30
0.0
 10
10.1151971683
 20
10.002433989
 30
0.0
 10
10.1144386652
 20
10.0034178263
 30
0.0
 10
10.1135245675
 20
10.0045965821
 30
0.0
 10
10.1123071306
 20
10.0061689022
 30
0.0
 10
10.1107848688
 20
10.0081340813
 30
0.0
 10
10.1083495103
 20
10.0112784914
 30
0.0
 10
10.1053052223
 20
10.0152089611
 30
0.0
 10
10.1016521172
 20
10.0199255453
 30
0.0
 10
10.0979989942
 20
10.0246421162
 30
0.0
 10
10.0949547508
 20
10.0285726193
 30
0.0
 10
10.0925193033
 20
10.0317169628
 30
0.0
 10
10.0909972676
 20
10.0336823112
 30
0.0
 10
10.0897793666
 20
10.0352542837
 30
0.0
 10
10.0888666867
 20
10.0364341016
 30
0.0
 10
10.0881037476
 20
10.0374146157
 30
0.0
 10
10.0875743462
 20
10.0381062104
 30
0.0
 10
10.0872645612
 20
10.0384932337
 30
0.0
 10
10.087052702
 20
10.0388065265
 30
0.0
 10
10.0867625595
 20
10.0390318047
 30
0.0
 10
10.0864030089
 20
10.0393628761
 30
0.0
 10
10.085761073
 20
10.0399279472
 30
0.0
 10
10.084850673
 20
10.0407426698
 30
0.0
 10
10.0837553461
 20
10.041717136
 30
0.0
 10
10.0822959046
 20
10.0430175424
 30
0.0
 10
10.0804712622
 20
10.0446426675
 30
0.0
 10
10.0775520248
 20
10.0472430816
 30
0.0
 10
10.0739029123
 20
10.0504935254
 30
0.0
 10
10.0695240071
 20
10.0543940919
 30
0.0
 10
10.065145088
 20
10.0582946408
 30
0.0
 10
10.0614960102
 20
10.0615451284
 30
0.0
 10
10.0585767033
 20
10.064145455
 30
0.0
 10
10.0567522374
 20
10.0657708027
 30
0.0
 10
10.0552924338
 20
10.067070752
 30
0.0
 10
10.0541982132
 20
10.0680466145
 30
0.0
 10
10.0532843517
 20
10.0688569686
 30
0.0
 10
10.0526485954
 20
10.0694298383
 30
0.0
 10
10.0522791435
 20
10.0697484143
 30
0.0
 10
10.0520194146
 20
10.0700120745
 30
0.0
 10
10.0516933268
 20
10.0701812109
 30
0.0
 10
10.0512816898
 20
10.0704396971
 30
0.0
 10
10.0505505405
 20
10.0708766861
 30
0.0
 10
10.0495116798
 20
10.0715089874
 30
0.0
 10
10.0482626337
 20
10.0722643113
 30
0.0
 10
10.0465980817
 20
10.0732726106
 30
0.0
 10
10.0445171031
 20
10.0745325735
 30
0.0
 10
10.0411876988
 20
10.0765487441
 30
0.0
 10
10.0370258877
 20
10.0790688779
 30
0.0
 10
10.0320317393
 20
10.082093075
 30
0.0
 10
10.0270375802
 20
10.0851172528
 30
0.0
 10
10.0228757961
 20
10.087637435
 30
0.0
 10
10.0195463378
 20
10.0896535088
 30
0.0
 10
10.0174654961
 20
10.0909137176
 30
0.0
 10
10.0158006633
 20
10.0919215124
 30
0.0
 10
10.0145524753
 20
10.0926783774
 30
0.0
 10
10.0135109294
 20
10.093305857
 30
0.0
 10
10.0127845738
 20
10.0937514536
 30
0.0
 10
10.0123652562
 20
10.0939961483
 30
0.0
 10
10.0120627606
 20
10.0942076478
 30
0.0
 10
10.0117144234
 20
10.0943121992
 30
0.0
 10
10.0112659639
 20
10.0944889058
 30
0.0
 10
10.0104737097
 20
10.0947807615
 30
0.0
 10
10.009345813
 20
10.095206785
 30
0.0
 10
10.0079906698
 20
10.0957141238
 30
0.0
 10
10.0061843945
 20
10.096391934
 30
0.0
 10
10.0039263509
 20
10.0972387316
 30
0.0
 10
10.0003135927
 20
10.0985938679
 30
0.0
 10
9.9957976065
 20
10.1002876983
 30
0.0
 10
9.9903784403
 20
10.1023203361
 30
0.0
 10
9.9849592664
 20
10.1043529527
 30
0.0
 10
9.9804432995
 20
10.1060468363
 30
0.0
 10
9.9768305027
 20
10.1074018662
 30
0.0
 10
9.9745725572
 20
10.108248934
 30
0.0
 10
9.9727660807
 20
10.1089261897
 30
0.0
 10
9.9714115521
 20
10.1094352226
 30
0.0
 10
9.9702817323
 20
10.1098559458
 30
0.0
 10
9.9694929111
 20
10.1101572634
 30
0.0
 10
9.9690389512
 20
10.1103188096
 30
0.0
 10
9.9687075094
 20
10.110469929
 30
0.0
 10
9.9683415575
 20
10.110506527
 30
0.0
 10
9.9678656592
 20
10.1105952706
 30
0.0
 10
9.9670272287
 20
10.1107319603
 30
0.0
 10
9.9658324029
 20
10.1109369616
 30
0.0
 10
9.9643973569
 20
10.1111787983
 30
0.0
 10
9.9624844007
 20
10.111502702
 30
0.0
 10
9.9600930553
 20
10.1119070834
 30
0.0
 10
9.9562669865
 20
10.1125543721
 30
0.0
 10
9.9514843717
 20
10.1133633875
 30
0.0
 10
9.9457452463
 20
10.1143342469
 30
0.0
 10
9.9400061177
 20
10.1153050954
 30
0.0
 10
9.9323539472
 20
10.1165995638
 30
0.0
 10
9.9266148192
 20
10.1175704143
 30
0.0
 10
9.9227887339
 20
10.1182176481
 30
0.0
  0
SPLINE
  5
394
100
AcDbEntity
  8
0
100
AcDbSpline
 62
4
  6
CONTINUOUS
 70
0
 71
3
 72
313
 73
309
 74
0
 42
0.0000001
 43
0.0000001
 44
0.0000000001
 40
0.0
 40
0.0
 40
0.0
 40
0.0
 40
0.015625
 40
0.0234375
 40
0.03125
 40
0.0390625
 40
0.046875
 40
0.05078125
 40
0.0546875
 40
0.056640625
 40
0.05859375
 40
0.060546875
 40
0.0615234375
 40
0.0620117188
 40
0.0625
 40
0.0629882812
 40
0.0634765625
 40
0.064453125
 40
0.06640625
 40
0.068359375
 40
0.0703125
 40
0.07421875
 40
0.078125
 40
0.0859375
 40
0.09375
 40
0.1015625
 40
0.109375
 40
0.11328125
 40
0.1171875
 40
0.119140625
 40
0.12109375
 40
0.123046875
 40
0.1240234375
 40
0.1245117188
 40
0.125
 40
0.1254882812
 40
0.1259765625
 40
0.126953125
 40
0.12890625
 40
0.130859375
 40
0.1328125
 40
0.13671875
 40
0.140625
 40
0.1484375
 40
0.15625
 40
0.1640625
 40
0.171875
 40
0.17578125
 40
0.1796875
 40
0.181640625
 40
0.18359375
 40
0.185546875
 40
0.1865234375
 40
0.1870117188
 40
0.1875
 40
0.1879882812
 40
0.1884765625
 40
0.189453125
 40
0.19140625
 40
0.193359375
 40
0.1953125
 40
0.19921875
 40
0.203125
 40
0.2109375
 40
0.21875
 40
0.2265625
 40
0.234375
 40
0.23828125
 40
0.2421875
 40
0.244140625
 40
0.24609375
 40
0.248046875
 40
0.2490234375
 40
0.2495117188
 40
0.25
 40
0.2504882812
 40
0.2509765625
 40
0.251953125
 40
0.25390625
 40
0.255859375
 40
0.2578125
 40
0.26171875
 40
0.265625
 40
0.2734375
 40
0.28125
 40
0.2890625
 40
0.296875
 40
0.30078125
 40
0.3046875
 40
0.306640625
 40
0.30859375
 40
0.310546875
 40
0.3115234375
 40
0.3120117188
 40
0.3125
 40
0.3129882812
 40
0.3134765625
 40
0.314453125
 40
0.31640625
 40
0.318359375
 40
0.3203125
 40
0.32421875
 40
0.328125
 40
0.3359375
 40
0.34375
 40
0.3515625
 40
0.359375
 40
0.36328125
 40
0.3671875
 40
0.369140625
 40
0.37109375
 40
0.373046875
 40
0.3740234375
 40
0.3745117188
 40
0.375
 40
0.3754882812
 40
0.3759765625
 40
0.376953125
 40
0.37890625
 40
0.380859375
 40
0.3828125
 40
0.38671875
 40
0.390625
 40
0.3984375
 40
0.40625
 40
0.4140625
 40
0.421875
 40
0.42578125
 40
0.4296875
 40
0.431640625
 40
0.43359375
 40
0.435546875
 40
0.4365234375
 40
0.4370117188
 40
0.4375
 40
0.4379882812
 40
0.4384765625
 40
0.439453125
 40
0.44140625
 40
0.443359375
 40
0.4453125
 40
0.44921875
 40
0.453125
 40
0.4609375
 40
0.46875
 40
0.4765625
 40
0.484375
 40
0.48828125
 40
0.4921875
 40
0.494140625
 40
0.49609375
 40
0.498046875
 40
0.4990234375
 40
0.4995117188
 40
0.5
 40
0.5004882812
 40
0.5009765625
 40
0.501953125
 40
0.50390625
 40
0.505859375
 40
0.5078125
 40
0.51171875
 40
0.515625
 40
0.5234375
 40
0.53125
 40
0.5390625
 40
0.546875
 40
0.55078125
 40
0.5546875
 40
0.556640625
 40
0.55859375
 40
0.560546875
 40
0.5615234375
 40
0.5620117188
 40
0.5625
 40
0.5629882812
 40
0.5634765625
 40
0.564453125
 40
0.56640625
 40
0.568359375
 40
0.5703125
 40
0.57421875
 40
0.578125
 40
0.5859375
 40
0.59375
 40
0.6015625
 40
0.609375
 40
0.61328125
 40
0.6171875
 40
0.619140625
 40
0.62109375
 40
0.623046875
 40
0.6240234375
 40
0.6245117188
 40
0.625
 40
0.6254882812
 40
0.6259765625
 40
0.626953125
 40
0.62890625
 40
0.630859375
 40
0.6328125
 40
0.63671875
 40
0.640625
 40
0.6484375
 40
0.65625
 40
0.6640625
 40
0.671875
 40
0.67578125
 40
0.6796875
 40
0.681640625
 40
0.68359375
 40
0.685546875
 40
0.6865234375
 40
0.6870117188
 40
0.6875
 40
0.6879882812
 40
0.6884765625
 40
0.689453125
 40
0.69140625
 40
0.693359375
 40
0.6953125
 40
0.69921875
 40
0.703125
 40
0.7109375
 40
0.71875
 40
0.7265625
 40
0.734375
 40
0.73828125
 40
0.7421875
 40
0.744140625
 40
0.74609375
 40
0.748046875
 40
0.7490234375
 40
0.7495117188
 40
0.75
 40
0.7504882812
 40
0.7509765625
 40
0.751953125
 40
0.75390625
 40
0.755859375
 40
0.7578125
 40
0.76171875
 40
0.765625
 40
0.7734375
 40
0.78125
 40
0.7890625
 40
0.796875
 40
0.80078125
 40
0.8046875
 40
0.806640625
 40
0.80859375
 40
0.810546875
 40
0.8115234375
 40
0.8120117188
 40
0.8125
 40
0.8129882812
 40
0.8134765625
 40
0.814453125
 40
0.81640625
 40
0.818359375
 40
0.8203125
 40
0.82421875
 40
0.828125
 40
0.8359375
 40
0.84375
 40
0.8515625
 40
0.859375
 40
0.86328125
 40
0.8671875
 40
0.869140625
 40
0.87109375
 40
0.873046875
 40
0.8740234375
 40
0.8745117188
 40
0.875
 40
0.8754882812
 40
0.8759765625
 40
0.876953125
 40
0.87890625
 40
0.880859375
 40
0.8828125
 40
0.88671875
 40
0.890625
 40
0.8984375
 40
0.90625
 40
0.9140625
 40
0.921875
 40
0.92578125
 40
0.9296875
 40
0.931640625
 40
0.93359375
 40
0.935546875
 40
0.9365234375
 40
0.9370117188
 40
0.9375
 40
0.9379882812
 40
0.9384765625
 40
0.939453125
 40
0.94140625
 40
0.943359375
 40
0.9453125
 40
0.94921875
 40
0.953125
 40
0.9609375
 40
0.96875
 40
0.9765625
 40
0.984375
 40
1.0
 40
1.0
 40
1.0
 40
1.0
 10
9.9227887542
 20
10.1182176467
 30
0.0
 10
9.9190289299
 20
10.1181097374
 30
0.0
 10
9.9133891933
 20
10.1179478738
 30
0.0
 10
9.9058695449
 20
10.1177320544
 30
0.0
 10
9.900229808
 20
10.1175701928
 30
0.0
 10
9.8945900733
 20
10.1174083199
 30
0.0
 10
9.8898902875
 20
10.1172734612
 30
0.0
 10
9.8861304743
 20
10.117165495
 30
0.0
 10
9.8837805558
 20
10.1170981964
 30
0.0
 10
9.8819007017
 20
10.1170439448
 30
0.0
 10
9.8804905903
 20
10.1170043861
 30
0.0
 10
9.8793161997
 20
10.1169678256
 30
0.0
 10
9.8784927483
 20
10.1169492884
 30
0.0
 10
9.8780243563
 20
10.1169276796
 30
0.0
 10
9.8776670009
 20
10.1169425055
 30
0.0
 10
9.8773328152
 20
10.1168387093
 30
0.0
 10
9.8768791525
 20
10.116741691
 30
0.0
 10
9.8760890081
 20
10.1165526309
 30
0.0
 10
9.8749582618
 20
10.1162926239
 30
0.0
 10
9.8736022088
 20
10.1159763014
 30
0.0
 10
9.871793844
 20
10.1155560448
 30
0.0
 10
9.8695334886
 20
10.1150302082
 30
0.0
 10
9.8659168637
 20
10.1141891581
 30
0.0
 10
9.8613961022
 20
10.1131377458
 30
0.0
 10
9.8559711789
 20
10.1118760965
 30
0.0
 10
9.8505462621
 20
10.110614425
 30
0.0
 10
9.8460254841
 20
10.1095630684
 30
0.0
 10
9.8424088922
 20
10.1087219069
 30
0.0
 10
9.8401484531
 20
10.1081963533
 30
0.0
 10
9.8383402601
 20
10.1077755158
 30
0.0
 10
9.8369836822
 20
10.1074609684
 30
0.0
 10
9.8358545783
 20
10.1071954075
 30
0.0
 10
9.8350615019
 20
10.1070162619
 30
0.0
 10
9.8346125369
 20
10.1069033582
 30
0.0
 10
9.8342639213
 20
10.106848357
 30
0.0
 10
9.8339607624
 20
10.1066799168
 30
0.0
 10
9.8335406948
 20
10.1064948987
 30
0.0
 10
9.832812964
 20
10.1061526813
 30
0.0
 10
9.8317694862
 20
10.1056734376
 30
0.0
 10
9.8305189661
 20
10.1050942196
 30
0.0
 10
9.8288510285
 20
10.10432337
 30
0.0
 10
9.8267663043
 20
10.1033593146
 30
0.0
 10
9.8234306349
 20
10.1018171017
 30
0.0
 10
9.8192610865
 20
10.0998892403
 30
0.0
 10
9.8142576106
 20
10.0975758502
 30
0.0
 10
9.8092541446
 20
10.0952624385
 30
0.0
 10
9.8050845713
 20
10.0933346311
 30
0.0
 10
9.8017489517
 20
10.0917923104
 30
0.0
 10
9.7996641009
 20
10.0908285289
 30
0.0
 10
9.797996423
 20
10.0900571171
 30
0.0
 10
9.7967451095
 20
10.0894796168
 30
0.0
 10
9.7957041142
 20
10.088994999
 30
0.0
 10
9.7949719518
 20
10.0886623752
 30
0.0
 10
9.7945589846
 20
10.0884619856
 30
0.0
 10
9.7942340155
 20
10.0883407618
 30
0.0
 10
9.7939673155
 20
10.0881084237
 30
0.0
 10
9.7935913906
 20
10.0878373976
 30
0.0
 10
9.7929429918
 20
10.0873450437
 30
0.0
 10
9.7920117568
 20
10.086651122
 30
0.0
 10
9.7908963939
 20
10.085814375
 30
0.0
 10
9.7894085033
 20
10.0847001237
 30
0.0
 10
9.7875488935
 20
10.0833068262
 30
0.0
 10
9.784573376
 20
10.0810778205
 30
0.0
 10
9.7808540284
 20
10.0782914702
 30
0.0
 10
9.7763907879
 20
10.0749478919
 30
0.0
 10
9.7719275619
 20
10.0716042947
 30
0.0
 10
9.7682081779
 20
10.0688179914
 30
0.0
 10
9.7652327332
 20
10.0665888917
 30
0.0
 10
9.7633729383
 20
10.0651958332
 30
0.0
 10
9.7618854276
 20
10.0640810915
 30
0.0
 10
9.7607689042
 20
10.0632458427
 30
0.0
 10
9.7598413001
 20
10.0625472332
 30
0.0
 10
9.7591864196
 20
10.0620632479
 30
0.0
 10
9.75882088
 20
10.0617788131
 30
0.0
 10
9.7585222796
 20
10.0615876619
 30
0.0
 10
9.7583171229
 20
10.0613117471
 30
0.0
 10
9.7580109864
 20
10.0609734272
 30
0.0
 10
9.7574904337
 20
10.0603675917
 30
0.0
 10
9.7567388475
 20
10.0595093144
 30
0.0
 10
9.7558403425
 20
10.058476299
 30
0.0
 10
9.7546411487
 20
10.0571000219
 30
0.0
 10
9.753142563
 20
10.0553793068
 30
0.0
 10
9.7507445987
 20
10.0526263688
 30
0.0
 10
9.7477472217
 20
10.0491851251
 30
0.0
 10
9.7441503334
 20
10.0450556649
 30
0.0
 10
9.7405534635
 20
10.0409261896
 30
0.0
 10
9.7375560403
 20
10.0374849838
 30
0.0
 10
9.7351581684
 20
10.0347319699
 30
0.0
 10
9.7336593477
 20
10.0330114476
 30
0.0
 10
9.7324606362
 20
10.0316347748
 30
0.0
 10
9.7315606581
 20
10.030602968
 30
0.0
 10
9.7308136806
 20
10.0297409095
 30
0.0
 10
9.7302849007
 20
10.0291418242
 30
0.0
 10
9.7299919463
 20
10.0287926888
 30
0.0
 10
9.7297462983
 20
10.0285499956
 30
0.0
 10
9.7295997762
 20
10.0282340692
 30
0.0
 10
9.7293698372
 20
10.0278383785
 30
0.0
 10
9.7289835535
 20
10.0271340181
 30
0.0
 10
9.7284232975
 20
10.0261340113
 30
0.0
 10
9.7277545952
 20
10.0249313398
 30
0.0
 10
9.726861733
 20
10.023328708
 30
0.0
 10
9.7257460864
 20
10.0213250998
 30
0.0
 10
9.7239608108
 20
10.0181195047
 30
0.0
 10
9.7217292996
 20
10.0141124495
 30
0.0
 10
9.7190514478
 20
10.0093040108
 30
0.0
 10
9.7163736161
 20
10.0044955599
 30
0.0
 10
9.7141420547
 20
10.0004885351
 30
0.0
 10
9.7123568795
 20
9.9972828792
 30
0.0
 10
9.7112409777
 20
9.9952794255
 30
0.0
 10
9.7103486394
 20
9.9936764765
 30
0.0
 10
9.7096783365
 20
9.9924747743
 30
0.0
 10
9.7091230883
 20
9.9914717349
 30
0.0
 10
9.7087278647
 20
9.9907727881
 30
0.0
 10
9.7085122498
 20
9.9903684235
 30
0.0
 10
9.7083217284
 20
9.9900791406
 30
0.0
 10
9.7082413343
 20
9.9897363788
 30
0.0
 10
9.7080957284
 20
9.9892980171
 30
0.0
 10
9.7078588158
 20
9.9885221928
 30
0.0
 10
9.7075110121
 20
9.9874184164
 30
0.0
 10
9.7070976529
 20
9.9860919397
 30
0.0
 10
9.7065451082
 20
9.9843239835
 30
0.0
 10
9.7058549065
 20
9.9821138056
 30
0.0
 10
9.7047503159
 20
9.978577651
 30
0.0
 10
9.7033696701
 20
9.9741574129
 30
0.0
 10
9.7017128528
 20
9.9688531474
 30
0.0
 10
9.7000560572
 20
9.9635488727
 30
0.0
 10
9.698675357
 20
9.9591286576
 30
0.0
 10
9.6975708754
 20
9.9555924569
 30
0.0
 10
9.6968803967
 20
9.9533823963
 30
0.0
 10
9.6963284205
 20
9.9516141994
 30
0.0
 10
9.6959133245
 20
9.9502884578
 30
0.0
 10
9.6955709545
 20
9.9491823815
 30
0.0
 10
9.6953243419
 20
9.9484106629
 30
0.0
 10
9.6951942779
 20
9.947965723
 30
0.0
 10
9.6950661441
 20
9.9476431673
 30
0.0
 10
9.695054925
 20
9.9472779937
 30
0.0
 10
9.694999185
 20
9.9468059611
 30
0.0
 10
9.6949206407
 20
9.945972978
 30
0.0
 10
9.6947985008
 20
9.9447866232
 30
0.0
 10
9.6946561849
 20
9.9433614475
 30
0.0
 10
9.6944649452
 20
9.9414617546
 30
0.0
 10
9.6942264041
 20
9.9390869531
 30
0.0
 10
9.6938444541
 20
9.9352873744
 30
0.0
 10
9.6933671148
 20
9.9305378654
 30
0.0
 10
9.6927942626
 20
9.9248384697
 30
0.0
 10
9.6922214333
 20
9.9191390703
 30
0.0
 10
9.6917440367
 20
9.9143895709
 30
0.0
 10
9.6913622011
 20
9.9105899728
 30
0.0
 10
9.6911233693
 20
9.9082152205
 30
0.0
 10
9.6909327263
 20
9.9063154267
 30
0.0
 10
9.6907885873
 20
9.9048905594
 30
0.0
 10
9.6906721515
 20
9.9037032396
 30
0.0
 10
9.6905834244
 20
9.9028719791
 30
0.0
 10
9.6905439999
 20
9.9023971866
 30
0.0
 10
9.6904826647
 20
9.9020404908
 30
0.0
 10
9.6905427587
 20
9.9016860938
 30
0.0
 10
9.6905805281
 20
9.9012127626
 30
0.0
 10
9.6906663591
 20
9.9003848066
 30
0.0
 10
9.6907786574
 20
9.8992018171
 30
0.0
 10
9.6909178314
 20
9.8977823132
 30
0.0
 10
9.6911018544
 20
9.8958896122
 30
0.0
 10
9.6913324113
 20
9.8935237459
 30
0.0
 10
9.691701007
 20
9.8897383542
 30
0.0
 10
9.6921618536
 20
9.8850066167
 30
0.0
 10
9.692714823
 20
9.8793285304
 30
0.0
 10
9.6932678154
 20
9.8736504457
 30
0.0
 10
9.6937286048
 20
9.868918704
 30
0.0
 10
9.6940973149
 20
9.8651333207
 30
0.0
 10
9.6943275809
 20
9.8627674332
 30
0.0
 10
9.6945122009
 20
9.8608747757
 30
0.0
 10
9.6946495511
 20
9.8594551391
 30
0.0
 10
9.6947675559
 20
9.8582725648
 30
0.0
 10
9.6948431997
 20
9.8574438674
 30
0.0
 10
9.6948972916
 20
9.8569717242
 30
0.0
 10
9.6949072483
 20
9.8566136783
 30
0.0
 10
9.6950342204
 20
9.856270687
 30
0.0
 10
9.6951627002
 20
9.8558081142
 30
0.0
 10
9.6954065571
 20
9.8550010583
 30
0.0
 10
9.6957449816
 20
9.8538468421
 30
0.0
 10
9.6961553467
 20
9.8524623303
 30
0.0
 10
9.6967010138
 20
9.8506161233
 30
0.0
 10
9.6973836066
 20
9.84830843
 30
0.0
 10
9.6984754705
 20
9.844616084
 30
0.0
 10
9.6998403986
 20
9.8400006644
 30
0.0
 10
9.7014782676
 20
9.8344621545
 30
0.0
 10
9.7031161585
 20
9.8289236496
 30
0.0
 10
9.7044810321
 20
9.8243082173
 30
0.0
 10
9.7055730051
 20
9.8206158968
 30
0.0
 10
9.7062553206
 20
9.818308139
 30
0.0
 10
9.7068015567
 20
9.8164620643
 30
0.0
 10
9.7072101832
 20
9.8150771481
 30
0.0
 10
9.7075540476
 20
9.8139241971
 30
0.0
 10
9.7077881933
 20
9.8131148827
 30
0.0
 10
9.7079322328
 20
9.8126559285
 30
0.0
 10
9.7080114106
 20
9.8123018219
 30
0.0
 10
9.7082008749
 20
9.8119855236
 30
0.0
 10
9.7084150248
 20
9.8115506047
 30
0.0
 10
9.7088077106
 20
9.810795641
 30
0.0
 10
9.7093593197
 20
9.809713909
 30
0.0
 10
9.7100252615
 20
9.8084172057
 30
0.0
 10
9.710911783
 20
9.8066877876
 30
0.0
 10
9.7120204145
 20
9.8045261795
 30
0.0
 10
9.7137939569
 20
9.8010675146
 30
0.0
 10
9.7160109774
 20
9.7967442153
 30
0.0
 10
9.7186713597
 20
9.7915562412
 30
0.0
 10
9.721331763
 20
9.7863682757
 30
0.0
 10
9.7235487313
 20
9.782044955
 30
0.0
 10
9.7253223779
 20
9.7785863327
 30
0.0
 10
9.7264307444
 20
9.7764246164
 30
0.0
 10
9.7273178101
 20
9.7746954203
 30
0.0
 10
9.7279820893
 20
9.7733980389
 30
0.0
 10
9.7285389003
 20
9.7723184286
 30
0.0
 10
9.7289222997
 20
9.7715596774
 30
0.0
 10
9.7291513287
 20
9.7711308269
 30
0.0
 10
9.7292950892
 20
9.770795888
 30
0.0
 10
9.7295459229
 20
9.7705117926
 30
0.0
 10
9.7298430196
 20
9.770115264
 30
0.0
 10
9.7303803401
 20
9.7694296018
 30
0.0
 10
9.7311388431
 20
9.7684457645
 30
0.0
 10
9.7320529409
 20
9.7672670088
 30
0.0
 10
9.7332703777
 20
9.7656946886
 30
0.0
 10
9.7347926395
 20
9.7637295096
 30
0.0
 10
9.7372279981
 20
9.7605850994
 30
0.0
 10
9.740272286
 20
9.7566546297
 30
0.0
 10
9.7439253912
 20
9.7519380455
 30
0.0
 10
9.7475785141
 20
9.7472214746
 30
0.0
 10
9.7506227576
 20
9.7432909715
 30
0.0
 10
9.7530582051
 20
9.740146628
 30
0.0
 10
9.7545802408
 20
9.7381812796
 30
0.0
 10
9.7557981417
 20
9.7366093071
 30
0.0
 10
9.7567108216
 20
9.7354294892
 30
0.0
 10
9.7574737607
 20
9.7344489751
 30
0.0
 10
9.7580031621
 20
9.7337573805
 30
0.0
 10
9.7583129471
 20
9.7333703572
 30
0.0
 10
9.7585248063
 20
9.7330570643
 30
0.0
 10
9.7588149488
 20
9.7328317861
 30
0.0
 10
9.7591744994
 20
9.7325007147
 30
0.0
 10
9.7598164354
 20
9.7319356437
 30
0.0
 10
9.7607268353
 20
9.731120921
 30
0.0
 10
9.7618221622
 20
9.7301464548
 30
0.0
 10
9.7632816037
 20
9.7288460485
 30
0.0
 10
9.7651062461
 20
9.7272209234
 30
0.0
 10
9.7680254835
 20
9.7246205092
 30
0.0
 10
9.771674596
 20
9.7213700654
 30
0.0
 10
9.7760535012
 20
9.717469499
 30
0.0
 10
9.7804324204
 20
9.71356895
 30
0.0
 10
9.7840814981
 20
9.7103184624
 30
0.0
 10
9.787000805
 20
9.7077181359
 30
0.0
 10
9.7888252709
 20
9.7060927881
 30
0.0
 10
9.7902850745
 20
9.7047928388
 30
0.0
 10
9.7913792951
 20
9.7038169763
 30
0.0
 10
9.7922931566
 20
9.7030066223
 30
0.0
 10
9.792928913
 20
9.7024337525
 30
0.0
 10
9.7932983649
 20
9.7021151765
 30
0.0
 10
9.7935580937
 20
9.7018515163
 30
0.0
 10
9.7938841815
 20
9.7016823799
 30
0.0
 10
9.7942958185
 20
9.7014238938
 30
0.0
 10
9.7950269678
 20
9.7009869048
 30
0.0
 10
9.7960658285
 20
9.7003546035
 30
0.0
 10
9.7973148746
 20
9.6995992795
 30
0.0
 10
9.7989794266
 20
9.6985909803
 30
0.0
 10
9.8010604052
 20
9.6973310173
 30
0.0
 10
9.8043898095
 20
9.6953148467
 30
0.0
 10
9.8085516206
 20
9.692794713
 30
0.0
 10
9.813545769
 20
9.6897705158
 30
0.0
 10
9.8185399281
 20
9.686746338
 30
0.0
 10
9.8227017123
 20
9.6842261559
 30
0.0
 10
9.8260311705
 20
9.682210082
 30
0.0
 10
9.8281120122
 20
9.6809498733
 30
0.0
 10
9.8297768451
 20
9.6799420784
 30
0.0
 10
9.831025033
 20
9.6791852134
 30
0.0
 10
9.8320665789
 20
9.6785577338
 30
0.0
 10
9.8327929346
 20
9.6781121372
 30
0.0
 10
9.8332122521
 20
9.6778674426
 30
0.0
 10
9.8335147477
 20
9.6776559431
 30
0.0
 10
9.8338630849
 20
9.6775513916
 30
0.0
 10
9.8343115444
 20
9.677374685
 30
0.0
 10
9.8351037986
 20
9.6770828294
 30
0.0
 10
9.8362316953
 20
9.6766568058
 30
0.0
 10
9.8375868385
 20
9.676149467
 30
0.0
 10
9.8393931139
 20
9.6754716568
 30
0.0
 10
9.8416511574
 20
9.6746248592
 30
0.0
 10
9.8452639156
 20
9.6732697229
 30
0.0
 10
9.8497799019
 20
9.6715758925
 30
0.0
 10
9.855199068
 20
9.6695432547
 30
0.0
 10
9.8606182419
 20
9.6675106382
 30
0.0
 10
9.8651342088
 20
9.6658167546
 30
0.0
 10
9.8687470056
 20
9.6644617246
 30
0.0
 10
9.8710049511
 20
9.6636146568
 30
0.0
 10
9.8728114276
 20
9.6629374011
 30
0.0
 10
9.8741659563
 20
9.6624283683
 30
0.0
 10
9.875295776
 20
9.662007645
 30
0.0
 10
9.8760845973
 20
9.6617063274
 30
0.0
 10
9.8765385571
 20
9.6615447813
 30
0.0
 10
9.8768699989
 20
9.6613936618
 30
0.0
 10
9.8772359508
 20
9.6613570639
 30
0.0
 10
9.8777118491
 20
9.6612683202
 30
0.0
 10
9.8785502797
 20
9.6611316306
 30
0.0
 10
9.8797451054
 20
9.6609266292
 30
0.0
 10
9.8811801514
 20
9.6606847925
 30
0.0
 10
9.8830931076
 20
9.6603608889
 30
0.0
 10
9.8854844531
 20
9.6599565074
 30
0.0
 10
9.8893105218
 20
9.6593092187
 30
0.0
 10
9.8940931366
 20
9.6585002033
 30
0.0
 10
9.899832262
 20
9.6575293439
 30
0.0
 10
9.9055713907
 20
9.6565584955
 30
0.0
 10
9.9132235611
 20
9.655264027
 30
0.0
 10
9.9189626891
 20
9.6542931766
 30
0.0
 10
9.9227887745
 20
9.6536459427
 30
0.0
  0
ENDSEC
  0
SECTION
  2
OBJECTS
  0
DICTIONARY
  5
C
100
AcDbDictionary
280
0
281
1
  3
ACAD_GROUP
350
D
  3
ACAD_MLINESTYLE
350
17
  3
ACAD_LAYOUT
350
1A
  3
ACAD_PLOTSETTINGS
350
19
  3
ACAD_PLOTSTYLENAME
350
E
  3
ACAD_IMAGE_DICT
350
       396
  3
ACAD_IMAGE_VARS
350
       397
  3
ACAD_TABLESTYLE
350
       398
  0
IMAGEDEF_REACTOR
  5
395
100
AcDbRasterImageDefReactor
 90
2
330
28F
  0
DICTIONARY
  5
D
102
{ACAD_REACTORS
330
C
102
}
100
AcDbDictionary
280
0
281
1
  0
ACDBDICTIONARYWDFLT
  5
E
102
{ACAD_REACTORS
330
C
102
}
100
AcDbDictionary
281
1
  3
Normal
350
F
100
AcDbDictionaryWithDefault
340
F
  0
DICTIONARY
  5
396
330
C
100
AcDbDictionary
281
1
  3
K2Y_assy_2_img_1
350
       39B
  0
RASTERVARIABLES
  5
397
330
C
100
AcDbRasterVariables
 90
0
 70
0
 71
1
 72
5
  0
DICTIONARY
  5
17
102
{ACAD_REACTORS
330
C
102
}
100
AcDbDictionary
280
0
281
1
  3
Standard
350
18
  0
DICTIONARY
  5
398
330
C
100
AcDbDictionary
281
1
  3
Standard
350
       39C
  3
Standard1
350
       39D
  0
DICTIONARY
  5
19
102
{ACAD_REACTORS
330
C
102
}
100
AcDbDictionary
281
1
  0
DICTIONARY
  5
1A
102
{ACAD_REACTORS
330
C
102
}
100
AcDbDictionary
281
1
  3
Model
350
399
  3
Layout1
350
39A
  0
ACDBPLACEHOLDER
  5
F
102
{ACAD_REACTORS
330
E
102
}
  0
MLINESTYLE
  5
18
102
{ACAD_REACTORS
330
17
102
}
100
AcDbMlineStyle
  2
STANDARD
 70
0
  3

 62
256
 51
90.0
 52
90.0
 71
2
 49
0.5
 62
256
  6
BYLAYER
 49
-0.5
 62
256
  6
BYLAYER
  0
LAYOUT
  5
399
102
{ACAD_REACTORS
330
1A
102
}
100
AcDbPlotSettings
  1

  2
none_device
  4
ANSI_C_(22.00_x_17.00_Inches)
  6

 40
0.0
 41
0.0
 42
0.0
 43
0.0
 44
558.8
 45
431.8
 46
0.0
 47
0.0
 48
0.0
 49
0.0
140
0.0
141
0.0
142
1.0
143
1.0
 70
1024
 72
0
 73
0
 74
0
  7

 75
0
147
1.0
148
0.0
149
0.0
100
AcDbLayout
  1
Model
 70
0
 71
0
 10
0.0
 20
0.0
 11
22.0
 21
17.0
 12
0.0
 22
0.0
 32
0.0
 14
0.0
 24
0.0
 34
0.0
 15
0.0
 25
0.0
 35
0.0
146
0.0
 13
0.0
 23
0.0
 33
0.0
 16
1.0
 26
0.0
 36
0.0
 17
0.0
 27
1.0
 37
0.0
 76
0
330
20C
345
0
346
0
  0
LAYOUT
  5
39A
102
{ACAD_REACTORS
330
1A
102
}
100
AcDbPlotSettings
  1

  2
none_device
  4
ANSI_C_(22.00_x_17.00_Inches)
  6

 40
0.0
 41
0.0
 42
0.0
 43
0.0
 44
558.8
 45
431.8
 46
0.0
 47
0.0
 48
0.0
 49
0.0
140
0.0
141
0.0
142
1.0
143
1.0
 70
0
 72
0
 73
0
 74
0
  7

 75
0
147
1.0
148
0.0
149
0.0
100
AcDbLayout
  1
Layout1
 70
0
 71
1
 10
0.0
 20
0.0
 11
22.0
 21
17.0
 12
0.0
 22
0.0
 32
0.0
 14
0.0
 24
0.0
 34
0.0
 15
0.0
 25
0.0
 35
0.0
146
0.0
 13
0.0
 23
0.0
 33
0.0
 16
1.0
 26
0.0
 36
0.0
 17
0.0
 27
1.0
 37
0.0
 76
0
330
20D
345
0
346
0
  0
IMAGEDEF
  5
39B
102
{ACAD_REACTORS
330
396
330
395
102
}
100
AcDbRasterImageDef
 90
0
  1
K2Y_assy_2_img_1.png
 10
369.0
 20
92.0
 11
0.0066666667
 21
0.0066666667
280
1
281
0
  0
TABLESTYLE
  5
39C
102
{ACAD_REACTORS
330
398
330
292
330
293
102
}
330
398
100
AcDbTableStyle
  3
Standard
 70
0
 71
0
 40
0.06
 41
0.06
280
1
281
1
  7
Standard
140
0.18
170
1
 62
0
 63
7
283
0
  7
Standard
140
0.18
170
1
 62
0
 63
7
283
0
  7
Standard
140
0.18
170
1
 62
0
 63
7
283
0
  0
TABLESTYLE
  5
39D
102
{ACAD_REACTORS
330
398
330
291
102
}
330
398
100
AcDbTableStyle
  3
Standard1
 70
1
 71
0
 40
0.06
 41
0.06
280
1
281
1
  7
Standard
140
0.18
170
1
 62
0
 63
7
283
0
  7
Standard
140
0.18
170
1
 62
0
 63
7
283
0
  7
Standard
140
0.18
170
1
 62
0
 63
7
283
0
  0
ENDSEC
  0
EOF
