999
DXF file: K2R_assy_2.dxf
999
Pro/ENGINEER 2014200 by Parametric Technology Corporation
  0
SECTION
  2
HEADER
  9
$ACADVER
  1
AC1021
  9
$DWGCODEPAGE
  3
ANSI_1252
  9
$EXTMAX
 10
22.0
 20
17.0
 30
0.0
  9
$EXTMIN
 10
0.0
 20
0.0
 30
0.0
  9
$LIMMIN
 10
0.0
 20
0.0
  9
$LIMMAX
 10
22.0
 20
17.0
  9
$VIEWCTR
 10
11.0
 20
8.5
  9
$VIEWSIZE
 40
17.0
  9
$CLAYER
  8
0
  9
$LTSCALE
 40
1.21
  9
$CELTYPE
  6
BYLAYER
  9
$DIMSCALE
 40
1.0
  9
$DIMASZ
 40
0.1875
  9
$DIMEXO
 40
0.0625
  9
$DIMDLI
 40
0.836
  9
$DIMEXE
 40
0.125
  9
$DIMCEN
 40
0.198
  9
$DIMLFAC
 40
1.0
  9
$DIMBLK
  1
_FILLED
  9
$DIMTXT
 40
0.1
  9
$DIMTOL
 70
0
  9
$DIMLIM
 70
0
  9
$DIMTFAC
 40
1.0
  9
$DIMGAP
 40
0.09
  9
$DIMDSEP
 70
46
  9
$AUNITS
 70
0
  9
$PDMODE
 70
3
  9
$PDSIZE
 40
0.3125
  9
$HANDSEED
  5
3D5
  9
$TILEMODE
 70
1
  9
$MEASUREMENT
 70
0
  9
$INSUNITS
 70
1
  0
ENDSEC
  0
SECTION
  2
CLASSES
  0
CLASS
  1
ACDBDICTIONARYWDFLT
  2
AcDbDictionaryWithDefault
  3
AutoCAD 2000
 90
0
 91
1
280
0
281
0
  0
CLASS
  1
ACDBPLACEHOLDER
  2
AcDbPlaceHolder
  3
AutoCAD 2000
 90
0
 91
1
280
0
281
0
  0
CLASS
  1
LAYOUT
  2
AcDbLayout
  3
AutoCAD 2000
 90
0
 91
0
280
0
281
0
  0
CLASS
  1
RASTERVARIABLES
  2
AcDbRasterVariables
  3
ISM
 90
0
 91
1
280
0
281
0
  0
CLASS
  1
IMAGEDEF
  2
AcDbRasterImageDef
  3
ISM
 90
0
 91
1
280
0
281
0
  0
CLASS
  1
IMAGEDEF_REACTOR
  2
AcDbRasterImageDefReactor
  3
ISM
 90
0
 91
1
280
0
281
0
  0
CLASS
  1
IMAGE
  2
AcDbRasterImage
  3
ISM
 90
127
 91
1
280
0
281
1
  0
CLASS
  1
TABLESTYLE
  2
AcDbTableStyle
  3
ObjectDBX Classes
 90
2047
 91
1
280
0
281
0
  0
CLASS
  1
ACAD_TABLE
  2
AcDbTable
  3
ObjectDBX Classes
 90
1025
 91
3
280
0
281
1
  0
ENDSEC
  0
SECTION
  2
TABLES
  0
TABLE
  2
VPORT
  5
8
100
AcDbSymbolTable
 70
2
  0
VPORT
  5
1F4
100
AcDbSymbolTableRecord
100
AcDbViewportTableRecord
  2
*ACTIVE
 70
0
 10
0.0
 20
0.0
 11
1.0
 21
1.0
 12
11.0
 22
8.5
 13
0.0
 23
0.0
 14
1.0
 24
1.0
 15
0.0
 25
0.0
 16
0.0
 26
0.0
 36
1.0
 17
0.0
 27
0.0
 37
0.0
 40
17.0
 41
1.2941176471
 42
50.0
 43
0.0
 44
0.0
 50
0.0
 51
0.0
 71
0
 72
100
 73
1
 74
1
 75
0
 76
0
 77
0
 78
0
  0
ENDTAB
  0
TABLE
  2
LTYPE
  5
5
100
AcDbSymbolTable
 70
6
  0
LTYPE
  5
14
100
AcDbSymbolTableRecord
100
AcDbLinetypeTableRecord
  2
BYBLOCK
 70
0
  3

 72
65
 73
0
 40
0.0
  0
LTYPE
  5
15
100
AcDbSymbolTableRecord
100
AcDbLinetypeTableRecord
  2
BYLAYER
 70
0
  3

 72
65
 73
0
 40
0.0
  0
LTYPE
  5
16
100
AcDbSymbolTableRecord
100
AcDbLinetypeTableRecord
  2
CONTINUOUS
 70
64
  3
Solid line
 72
65
 73
0
 40
0.0
  0
LTYPE
  5
1F5
100
AcDbSymbolTableRecord
100
AcDbLinetypeTableRecord
  2
CENTER
 70
64
  3
____ _ ____ _ ____ _ ____ _ ____ _ ____ _ ____
 72
65
 73
4
 40
0.6
 49
0.375
 74
0
 49
-0.075
 74
0
 49
0.075
 74
0
 49
-0.075
 74
0
  0
LTYPE
  5
1F6
100
AcDbSymbolTableRecord
100
AcDbLinetypeTableRecord
  2
HIDDEN
 70
64
  3
- - - - - - - - - - - - - - - - - - - -
 72
65
 73
2
 40
0.2
 49
0.1
 74
0
 49
-0.1
 74
0
  0
LTYPE
  5
1F7
100
AcDbSymbolTableRecord
100
AcDbLinetypeTableRecord
  2
PHANTOM
 70
64
  3
_____ _ _ _____ _ _ _____ _ _ _____
 72
65
 73
6
 40
0.8
 49
0.45
 74
0
 49
-0.05
 74
0
 49
0.1
 74
0
 49
-0.05
 74
0
 49
0.1
 74
0
 49
-0.05
 74
0
  0
LTYPE
  5
1F8
100
AcDbSymbolTableRecord
100
AcDbLinetypeTableRecord
  2
DOT
 70
64
  3
. . . . . . . . . . . . . . . . . . . .
 72
65
 73
2
 40
0.2
 49
0.1
 74
0
 49
-0.1
 74
0
  0
LTYPE
  5
1F9
100
AcDbSymbolTableRecord
100
AcDbLinetypeTableRecord
  2
DASHED
 70
64
  3
- - - - - - - - - - - - - - - - - - - -
 72
65
 73
2
 40
0.2
 49
0.1
 74
0
 49
-0.1
 74
0
  0
ENDTAB
  0
TABLE
  2
LAYER
  5
2
100
AcDbSymbolTable
 70
36
  0
LAYER
  5
10
100
AcDbSymbolTableRecord
100
AcDbLayerTableRecord
  2
0
 70
0
 62
7
  6
CONTINUOUS
370
-3
390
F
  0
LAYER
  5
1FA
100
AcDbSymbolTableRecord
100
AcDbLayerTableRecord
  2
DEFAULT_1
 70
0
 62
7
  6
CENTER
370
-3
390
F
  0
LAYER
  5
1FB
100
AcDbSymbolTableRecord
100
AcDbLayerTableRecord
  2
DEFAULT_2
 70
0
 62
8
  6
HIDDEN
370
-3
390
F
  0
LAYER
  5
1FC
100
AcDbSymbolTableRecord
100
AcDbLayerTableRecord
  2
DEFAULT_3
 70
0
 62
7
  6
PHANTOM
370
-3
390
F
  0
LAYER
  5
1FD
100
AcDbSymbolTableRecord
100
AcDbLayerTableRecord
  2
01___PRT_ALL_DTM_PLN
 70
0
 62
7
  6
CONTINUOUS
370
-3
390
F
  0
LAYER
  5
1FE
100
AcDbSymbolTableRecord
100
AcDbLayerTableRecord
  2
01___PRT_DEF_DTM_PLN
 70
0
 62
7
  6
CONTINUOUS
370
-3
390
F
  0
LAYER
  5
1FF
100
AcDbSymbolTableRecord
100
AcDbLayerTableRecord
  2
02___PRT_ALL_AXES
 70
0
 62
7
  6
CONTINUOUS
370
-3
390
F
  0
LAYER
  5
200
100
AcDbSymbolTableRecord
100
AcDbLayerTableRecord
  2
03___PRT_ALL_CURVES
 70
0
 62
7
  6
CONTINUOUS
370
-3
390
F
  0
LAYER
  5
201
100
AcDbSymbolTableRecord
100
AcDbLayerTableRecord
  2
04___PRT_ALL_DTM_PNT
 70
0
 62
7
  6
CONTINUOUS
370
-3
390
F
  0
LAYER
  5
202
100
AcDbSymbolTableRecord
100
AcDbLayerTableRecord
  2
05___PRT_ALL_DTM_CSYS
 70
0
 62
7
  6
CONTINUOUS
370
-3
390
F
  0
LAYER
  5
203
100
AcDbSymbolTableRecord
100
AcDbLayerTableRecord
  2
05___PRT_DEF_DTM_CSYS
 70
0
 62
7
  6
CONTINUOUS
370
-3
390
F
  0
LAYER
  5
204
100
AcDbSymbolTableRecord
100
AcDbLayerTableRecord
  2
06___PRT_ALL_SURFS
 70
0
 62
7
  6
CONTINUOUS
370
-3
390
F
  0
LAYER
  5
205
100
AcDbSymbolTableRecord
100
AcDbLayerTableRecord
  2
DATUM_PLANES
 70
0
 62
7
  6
CONTINUOUS
370
-3
390
F
  0
LAYER
  5
206
100
AcDbSymbolTableRecord
100
AcDbLayerTableRecord
  2
PORT_AREAS
 70
0
 62
7
  6
CONTINUOUS
370
-3
390
F
  0
LAYER
  5
207
100
AcDbSymbolTableRecord
100
AcDbLayerTableRecord
  2
SUNNBOMCOSMETIC
 70
0
 62
7
  6
CONTINUOUS
370
-3
390
F
  0
LAYER
  5
208
100
AcDbSymbolTableRecord
100
AcDbLayerTableRecord
  2
SUNNBOMSTAMPING
 70
0
 62
7
  6
CONTINUOUS
370
-3
390
F
  0
LAYER
  5
209
100
AcDbSymbolTableRecord
100
AcDbLayerTableRecord
  2
THREADS
 70
0
 62
7
  6
CONTINUOUS
370
-3
390
F
  0
ENDTAB
  0
TABLE
  2
STYLE
  5
3
100
AcDbSymbolTable
 70
1
  0
STYLE
  5
11
100
AcDbSymbolTableRecord
100
AcDbTextStyleTableRecord
  2
STANDARD
 70
0
 40
0.0
 41
0.8
 50
0.0
 71
0
 42
0.2
  3
txt
  4

  0
STYLE
  5
20A
100
AcDbSymbolTableRecord
100
AcDbTextStyleTableRecord
  2
TEXTSTYLE_1
 70
0
 40
0.0
 41
0.8
 50
0.0
 71
0
 42
0.2
  3
gdt
  4

  0
ENDTAB
  0
TABLE
  2
VIEW
  5
6
100
AcDbSymbolTable
 70
0
  0
ENDTAB
  0
TABLE
  2
UCS
  5
7
100
AcDbSymbolTable
 70
0
  0
ENDTAB
  0
TABLE
  2
APPID
  5
9
100
AcDbSymbolTable
 70
1
  0
APPID
  5
20B
100
AcDbSymbolTableRecord
100
AcDbRegAppTableRecord
  2
ACAD
 70
0
  0
ENDTAB
  0
TABLE
  2
BLOCK_RECORD
  5
1
100
AcDbSymbolTable
 70
0
  0
BLOCK_RECORD
  5
20C
100
AcDbSymbolTableRecord
100
AcDbBlockTableRecord
  2
*Model_Space
  0
BLOCK_RECORD
  5
20D
100
AcDbSymbolTableRecord
100
AcDbBlockTableRecord
  2
*Paper_Space
  0
BLOCK_RECORD
  5
20E
100
AcDbSymbolTableRecord
100
AcDbBlockTableRecord
  2
SUN_FIRST_THIRD_ANGLE_BL0
  0
BLOCK_RECORD
  5
20F
100
AcDbSymbolTableRecord
100
AcDbBlockTableRecord
  2
*T1
  0
BLOCK_RECORD
  5
210
100
AcDbSymbolTableRecord
100
AcDbBlockTableRecord
  2
*T2
  0
BLOCK_RECORD
  5
211
100
AcDbSymbolTableRecord
100
AcDbBlockTableRecord
  2
*T3
  0
ENDTAB
  0
TABLE
  2
DIMSTYLE
  5
A
100
AcDbSymbolTable
 70
1
100
AcDbDimStyleTable
 71
0
  0
DIMSTYLE
105
212
100
AcDbSymbolTableRecord
100
AcDbDimStyleTableRecord
  2
STANDARD
 70
0
  3

  4

 40
1.0
 41
0.1875
 42
0.0625
 43
0.38
 44
0.125
 45
0.0
 46
0.0
 47
0.001
 48
0.001
140
0.1
141
0.09
142
0.0
143
25.4
144
1.0
145
0.0
146
1.0
147
0.09
 71
0.0
 72
0.0
 73
1
 74
1
 75
0
 76
0
 77
0
 78
4
170
0
171
2
172
0
173
0
174
0
175
0
176
0
177
0
178
0
270
2
271
3
272
3
273
2
274
2
275
0
280
0
281
0
282
0
283
1
284
4
285
0
286
0
287
3
288
0
340
11
278
46
  0
ENDTAB
  0
ENDSEC
  0
SECTION
  2
BLOCKS
  0
BLOCK
  5
20
100
AcDbEntity
  8
0
100
AcDbBlockBegin
  2
*Model_Space
 70
0
 10
0.0
 20
0.0
 30
0.0
  3
*Model_Space
  1

  0
ENDBLK
  5
21
100
AcDbEntity
  8
0
100
AcDbBlockEnd
  0
BLOCK
  5
1C
100
AcDbEntity
  8
0
100
AcDbBlockBegin
  2
*Paper_Space
 70
0
 10
0.0
 20
0.0
 30
0.0
  3
*Paper_Space
  1

  0
ENDBLK
  5
1D
100
AcDbEntity
  8
0
100
AcDbBlockEnd
  0
BLOCK
  5
213
100
AcDbEntity
  8
0
100
AcDbBlockBegin
 62
2
  6
CONTINUOUS
  2
SUN_FIRST_THIRD_ANGLE_BL0
 70
64
 10
20.4816717061
 20
1.2289683772
  3
SUN_FIRST_THIRD_ANGLE_BL0
  1

  0
TEXT
  5
214
100
AcDbEntity
  8
0
100
AcDbText
 62
2
  6
CONTINUOUS
 10
19.4750896608
 20
1.4136269581
  7
STANDARD
 40
0.08
  1
FIRST ANGLE
 41
0.8
 72
0
100
AcDbText
  0
TEXT
  5
215
100
AcDbEntity
  8
0
100
AcDbText
 62
2
  6
CONTINUOUS
 10
20.7842537513
 20
1.4047600029
  7
STANDARD
 40
0.08
  1
THIRD ANGLE
 41
0.8
 72
0
100
AcDbText
  0
LINE
  5
216
100
AcDbEntity
  8
0
100
AcDbLine
 62
7
  6
CONTINUOUS
 10
19.4767170086
 20
1.1727031207
 11
19.6334271527
 21
1.1717972817
  0
LINE
  5
217
100
AcDbEntity
  8
0
100
AcDbLine
 62
7
  6
CONTINUOUS
 10
19.6596964832
 20
1.1717972817
 11
19.6950230232
 21
1.171593082
  0
LINE
  5
218
100
AcDbEntity
  8
0
100
AcDbLine
 62
7
  6
CONTINUOUS
 10
19.7194818561
 20
1.1708914427
 11
19.8852396156
 21
1.1699333054
  0
LINE
  5
219
100
AcDbEntity
  8
0
100
AcDbLine
 62
7
  6
CONTINUOUS
 10
19.4758111696
 20
1.2723454088
 11
19.88525039
 21
1.3511534004
  0
LINE
  5
21A
100
AcDbEntity
  8
0
100
AcDbLine
 62
7
  6
CONTINUOUS
 10
19.88525039
 20
1.3511534004
 11
19.8831348489
 21
0.9851647912
  0
LINE
  5
21B
100
AcDbEntity
  8
0
100
AcDbLine
 62
7
  6
CONTINUOUS
 10
19.8831348489
 20
0.9851647912
 11
19.4767170086
 21
1.0658141206
  0
LINE
  5
21C
100
AcDbEntity
  8
0
100
AcDbLine
 62
7
  6
CONTINUOUS
 10
19.4767170086
 20
1.0658141206
 11
19.4779056764
 21
1.2714536432
  0
CIRCLE
  5
21D
100
AcDbEntity
  8
0
100
AcDbCircle
 62
7
  6
CONTINUOUS
 10
20.2068232291
 20
1.1717972817
 40
0.175742101
  0
CIRCLE
  5
21E
100
AcDbEntity
  8
0
100
AcDbCircle
 62
7
  6
CONTINUOUS
 10
20.2068232291
 20
1.1717972817
 40
0.1005522074
  0
LINE
  5
21F
100
AcDbEntity
  8
0
100
AcDbLine
 62
7
  6
CONTINUOUS
 10
20.2077290681
 20
1.3756110529
 11
20.2071171714
 21
1.2379342989
  0
LINE
  5
220
100
AcDbEntity
  8
0
100
AcDbLine
 62
7
  6
CONTINUOUS
 10
20.2077290681
 20
1.2016899681
 11
20.2074674401
 21
1.1428236749
  0
LINE
  5
221
100
AcDbEntity
  8
0
100
AcDbLine
 62
7
  6
CONTINUOUS
 10
20.208634907
 20
1.101141841
 11
20.2080230104
 21
0.963465087
  0
LINE
  5
222
100
AcDbEntity
  8
0
100
AcDbLine
 62
7
  6
CONTINUOUS
 10
20.0066328138
 20
1.1745147986
 11
20.1443095678
 21
1.1739029019
  0
LINE
  5
223
100
AcDbEntity
  8
0
100
AcDbLine
 62
7
  6
CONTINUOUS
 10
20.1832714155
 20
1.1727031207
 11
20.238153505
 21
1.172335442
  0
LINE
  5
224
100
AcDbEntity
  8
0
100
AcDbLine
 62
7
  6
CONTINUOUS
 10
20.2756669918
 20
1.1717972817
 11
20.407916871
 21
1.1712095044
  0
CIRCLE
  5
225
100
AcDbEntity
  8
0
100
AcDbCircle
 62
7
  6
CONTINUOUS
 10
20.7509457401
 20
1.1693297793
 40
0.1722024983
  0
CIRCLE
  5
226
100
AcDbEntity
  8
0
100
AcDbCircle
 62
7
  6
CONTINUOUS
 10
20.7509457401
 20
1.1693297793
 40
0.0985164967
  0
LINE
  5
227
100
AcDbEntity
  8
0
100
AcDbLine
 62
7
  6
CONTINUOUS
 10
20.7169767782
 20
1.170462078
 11
20.7825395137
 21
1.1682766535
  0
LINE
  5
228
100
AcDbEntity
  8
0
100
AcDbLine
 62
7
  6
CONTINUOUS
 10
20.8177513651
 20
1.1693297793
 11
20.947965719
 21
1.1693297793
  0
LINE
  5
229
100
AcDbEntity
  8
0
100
AcDbLine
 62
7
  6
CONTINUOUS
 10
20.6875370113
 20
1.170462078
 11
20.5573226574
 21
1.170462078
  0
LINE
  5
22A
100
AcDbEntity
  8
0
100
AcDbLine
 62
7
  6
CONTINUOUS
 10
20.7486811426
 20
1.1987695462
 11
20.7486811426
 21
1.1432869085
  0
LINE
  5
22B
100
AcDbEntity
  8
0
100
AcDbLine
 62
7
  6
CONTINUOUS
 10
20.7498134414
 20
1.1059210505
 11
20.7498134414
 21
0.9757066966
  0
LINE
  5
22C
100
AcDbEntity
  8
0
100
AcDbLine
 62
7
  6
CONTINUOUS
 10
20.7486811426
 20
1.2338708068
 11
20.7486811426
 21
1.3640851607
  0
LINE
  5
22D
100
AcDbEntity
  8
0
100
AcDbLine
 62
7
  6
CONTINUOUS
 10
21.0702539817
 20
1.2701043662
 11
21.4790138229
 21
1.3448360823
  0
LINE
  5
22E
100
AcDbEntity
  8
0
100
AcDbLine
 62
7
  6
CONTINUOUS
 10
21.4790138229
 20
1.3448360823
 11
21.4790138229
 21
0.9779712941
  0
LINE
  5
22F
100
AcDbEntity
  8
0
100
AcDbLine
 62
7
  6
CONTINUOUS
 10
21.4790138229
 20
0.9779712941
 11
21.069121683
 21
1.0617614
  0
LINE
  5
230
100
AcDbEntity
  8
0
100
AcDbLine
 62
7
  6
CONTINUOUS
 10
21.0702539817
 20
1.2701043662
 11
21.069121683
 21
1.0617614
  0
LINE
  5
231
100
AcDbEntity
  8
0
100
AcDbLine
 62
7
  6
CONTINUOUS
 10
21.4790138229
 20
1.1693297793
 11
21.3159628059
 21
1.1693297793
  0
LINE
  5
232
100
AcDbEntity
  8
0
100
AcDbLine
 62
7
  6
CONTINUOUS
 10
21.2876553377
 20
1.1693297793
 11
21.2502894796
 21
1.1693297793
  0
LINE
  5
233
100
AcDbEntity
  8
0
100
AcDbLine
 62
7
  6
CONTINUOUS
 10
21.2208497126
 20
1.1659328831
 11
21.0713862804
 21
1.1659328831
  0
LINE
  5
234
100
AcDbEntity
  8
0
100
AcDbLine
 62
7
  6
CONTINUOUS
 10
20.4796138713
 20
1.5284908897
 11
20.4766766948
 21
0.9294458646
  0
ENDBLK
  5
235
100
AcDbEntity
  8
0
  6
BYBLOCK
 62
0
100
AcDbBlockEnd
  0
BLOCK
  5
236
100
AcDbEntity
  8
0
100
AcDbBlockBegin
  2
*T1
 70
1
 10
0.0
 20
0.0
  3
*T1
  1

  0
LINE
  5
237
100
AcDbEntity
  8
0
100
AcDbLine
 62
2
  6
CONTINUOUS
 10
9.275
 20
0.0
 11
-0.0
 21
0.0
  0
LINE
  5
238
100
AcDbEntity
  8
0
100
AcDbLine
 62
2
  6
CONTINUOUS
 10
9.275
 20
0.0
 11
9.275
 21
1.25
  0
LINE
  5
239
100
AcDbEntity
  8
0
100
AcDbLine
 62
2
  6
CONTINUOUS
 10
9.275
 20
0.625
 11
-0.0
 21
0.625
  0
LINE
  5
23A
100
AcDbEntity
  8
0
100
AcDbLine
 62
2
  6
CONTINUOUS
 10
9.275
 20
1.25
 11
-0.0
 21
1.25
  0
LINE
  5
23B
100
AcDbEntity
  8
0
100
AcDbLine
 62
2
  6
CONTINUOUS
 10
6.8
 20
0.0
 11
6.8
 21
1.25
  0
LINE
  5
23C
100
AcDbEntity
  8
0
100
AcDbLine
 62
2
  6
CONTINUOUS
 10
6.4
 20
0.0
 11
6.4
 21
0.625
  0
LINE
  5
23D
100
AcDbEntity
  8
0
100
AcDbLine
 62
2
  6
CONTINUOUS
 10
5.9
 20
0.0
 11
5.9
 21
0.625
  0
LINE
  5
23E
100
AcDbEntity
  8
0
100
AcDbLine
 62
2
  6
CONTINUOUS
 10
5.2
 20
0.0
 11
5.2
 21
0.625
  0
LINE
  5
23F
100
AcDbEntity
  8
0
100
AcDbLine
 62
2
  6
CONTINUOUS
 10
4.1
 20
0.0
 11
4.1
 21
1.25
  0
LINE
  5
240
100
AcDbEntity
  8
0
100
AcDbLine
 62
2
  6
CONTINUOUS
 10
-0.0
 20
0.0
 11
-0.0
 21
1.25
  0
MTEXT
  5
241
100
AcDbEntity
  8
0
100
AcDbMText
 62
2
  6
CONTINUOUS
  7
STANDARD
 71
2
 72
1
 10
6.6
 20
0.325
 30
0.0
 11
1.0
 21
0.0
 31
0.0
 44
0.9
  1
2
 40
0.125
 41
0.2
  0
MTEXT
  5
242
100
AcDbEntity
  8
0
100
AcDbMText
 62
2
  6
CONTINUOUS
  7
STANDARD
 71
2
 72
1
 10
6.15
 20
0.325
 30
0.0
 11
1.0
 21
0.0
 31
0.0
 44
0.9
  1
C
 40
0.125
 41
0.2
  0
MTEXT
  5
243
100
AcDbEntity
  8
0
100
AcDbMText
 62
2
  6
CONTINUOUS
  7
STANDARD
 71
2
 72
1
 10
5.55
 20
0.325
 30
0.0
 11
1.0
 21
0.0
 31
0.0
 44
0.9
  1
1.000
 40
0.125
 41
1.0
  0
MTEXT
  5
244
100
AcDbEntity
  8
0
100
AcDbMText
 62
2
  6
CONTINUOUS
  7
STANDARD
 71
2
 72
1
 10
4.65
 20
0.325
 30
0.0
 11
1.0
 21
0.0
 31
0.0
 44
0.9
  1
May-23-23
 40
0.125
 41
1.8
  0
MTEXT
  5
245
100
AcDbEntity
  8
0
100
AcDbMText
 62
2
  6
CONTINUOUS
  7
STANDARD
 71
2
 72
1
 10
2.05
 20
0.4625
 30
0.0
 11
1.0
 21
0.0
 31
0.0
 44
0.9
  1
T-19A Line mount\P(See Technical Data for Body Features)
 40
0.125
 41
7.6
  0
MTEXT
  5
246
100
AcDbEntity
  8
0
100
AcDbMText
 62
2
  6
CONTINUOUS
  7
STANDARD
 71
1
 72
1
 10
6.45
 20
0.5625
 30
0.0
 11
1.0
 21
0.0
 31
0.0
 44
0.9
  1
SHEET
 40
0.06
 41
0.48
  0
MTEXT
  5
247
100
AcDbEntity
  8
0
100
AcDbMText
 62
2
  6
CONTINUOUS
  7
STANDARD
 71
1
 72
1
 10
5.95
 20
0.5625
 30
0.0
 11
1.0
 21
0.0
 31
0.0
 44
0.9
  1
DWG SIZE
 40
0.06
 41
0.768
  0
MTEXT
  5
248
100
AcDbEntity
  8
0
100
AcDbMText
 62
2
  6
CONTINUOUS
  7
STANDARD
 71
1
 72
1
 10
5.25
 20
0.5625
 30
0.0
 11
1.0
 21
0.0
 31
0.0
 44
0.9
  1
SCALE
 40
0.06
 41
0.48
  0
MTEXT
  5
249
100
AcDbEntity
  8
0
100
AcDbMText
 62
2
  6
CONTINUOUS
  7
STANDARD
 71
1
 72
1
 10
4.15
 20
0.5625
 30
0.0
 11
1.0
 21
0.0
 31
0.0
 44
0.9
  1
DATE
 40
0.06
 41
0.384
  0
MTEXT
  5
24A
100
AcDbEntity
  8
0
100
AcDbMText
 62
2
  6
CONTINUOUS
  7
STANDARD
 71
1
 72
1
 10
0.05
 20
0.5625
 30
0.0
 11
1.0
 21
0.0
 31
0.0
 44
0.9
  1
DESCRIPTION
 40
0.06
 41
1.056
  0
MTEXT
  5
24B
100
AcDbEntity
  8
0
100
AcDbMText
 62
2
  6
CONTINUOUS
  7
STANDARD
 71
2
 72
1
 10
5.45
 20
1.0375
 30
0.0
 11
1.0
 21
0.0
 31
0.0
 44
0.9
  1
ALL DIMENSIONS IN INCH\PVIEWS ARE THIRD ANGLE
 40
0.12
 41
4.224
  0
MTEXT
  5
24C
100
AcDbEntity
  8
0
100
AcDbMText
 62
2
  6
CONTINUOUS
  7
STANDARD
 71
2
 72
1
 10
2.05
 20
0.95
 30
0.0
 11
1.0
 21
0.0
 31
0.0
 44
0.9
  1
K2R
 40
0.125
 41
0.6
  0
MTEXT
  5
24D
100
AcDbEntity
  8
0
100
AcDbMText
 62
2
  6
CONTINUOUS
  7
STANDARD
 71
1
 72
1
 10
0.05
 20
1.1875
 30
0.0
 11
1.0
 21
0.0
 31
0.0
 44
0.9
  1
MODEL
 40
0.06
 41
0.48
  0
ENDBLK
  5
24E
100
AcDbEntity
  8
0
  6
BYBLOCK
 62
0
100
AcDbBlockEnd
  0
BLOCK
  5
24F
100
AcDbEntity
  8
0
100
AcDbBlockBegin
  2
*T2
 70
1
 10
0.0
 20
0.0
  3
*T2
  1

  0
LINE
  5
250
100
AcDbEntity
  8
0
100
AcDbLine
 62
2
  6
CONTINUOUS
 10
0.0
 20
0.0
 11
9.055
 21
0.0
  0
LINE
  5
251
100
AcDbEntity
  8
0
100
AcDbLine
 62
2
  6
CONTINUOUS
 10
0.0
 20
0.0
 11
0.0
 21
-2.844
  0
LINE
  5
252
100
AcDbEntity
  8
0
100
AcDbLine
 62
2
  6
CONTINUOUS
 10
0.0
 20
-0.344
 11
9.055
 21
-0.344
  0
LINE
  5
253
100
AcDbEntity
  8
0
100
AcDbLine
 62
2
  6
CONTINUOUS
 10
0.0
 20
-0.594
 11
9.055
 21
-0.594
  0
LINE
  5
254
100
AcDbEntity
  8
0
100
AcDbLine
 62
2
  6
CONTINUOUS
 10
0.0
 20
-0.844
 11
9.055
 21
-0.844
  0
LINE
  5
255
100
AcDbEntity
  8
0
100
AcDbLine
 62
2
  6
CONTINUOUS
 10
0.0
 20
-1.094
 11
9.055
 21
-1.094
  0
LINE
  5
256
100
AcDbEntity
  8
0
100
AcDbLine
 62
2
  6
CONTINUOUS
 10
0.0
 20
-1.344
 11
9.055
 21
-1.344
  0
LINE
  5
257
100
AcDbEntity
  8
0
100
AcDbLine
 62
2
  6
CONTINUOUS
 10
0.0
 20
-1.594
 11
9.055
 21
-1.594
  0
LINE
  5
258
100
AcDbEntity
  8
0
100
AcDbLine
 62
2
  6
CONTINUOUS
 10
0.0
 20
-1.844
 11
9.055
 21
-1.844
  0
LINE
  5
259
100
AcDbEntity
  8
0
100
AcDbLine
 62
2
  6
CONTINUOUS
 10
0.0
 20
-2.094
 11
9.055
 21
-2.094
  0
LINE
  5
25A
100
AcDbEntity
  8
0
100
AcDbLine
 62
2
  6
CONTINUOUS
 10
0.0
 20
-2.344
 11
9.055
 21
-2.344
  0
LINE
  5
25B
100
AcDbEntity
  8
0
100
AcDbLine
 62
2
  6
CONTINUOUS
 10
0.0
 20
-2.594
 11
9.055
 21
-2.594
  0
LINE
  5
25C
100
AcDbEntity
  8
0
100
AcDbLine
 62
2
  6
CONTINUOUS
 10
0.0
 20
-2.844
 11
9.055
 21
-2.844
  0
LINE
  5
25D
100
AcDbEntity
  8
0
100
AcDbLine
 62
2
  6
CONTINUOUS
 10
3.055
 20
0.0
 11
3.055
 21
-2.844
  0
LINE
  5
25E
100
AcDbEntity
  8
0
100
AcDbLine
 62
2
  6
CONTINUOUS
 10
9.055
 20
0.0
 11
9.055
 21
-2.844
  0
MTEXT
  5
25F
100
AcDbEntity
  8
0
100
AcDbMText
 62
2
  6
CONTINUOUS
  7
STANDARD
 71
2
 72
1
 10
1.5275
 20
-0.0995
 30
0.0
 11
1.0
 21
0.0
 31
0.0
 44
0.9
  1
Technical Data
 40
0.145
 41
3.248
  0
MTEXT
  5
260
100
AcDbEntity
  8
0
100
AcDbMText
 62
2
  6
CONTINUOUS
  7
STANDARD
 71
2
 72
1
 10
4.555
 20
-0.0995
 30
0.0
 11
1.0
 21
0.0
 31
0.0
 44
0.9
  1
U.S. Units
 40
0.145
 41
2.32
  0
MTEXT
  5
261
100
AcDbEntity
  8
0
100
AcDbMText
 62
2
  6
CONTINUOUS
  7
STANDARD
 71
2
 72
1
 10
7.555
 20
-0.0995
 30
0.0
 11
1.0
 21
0.0
 31
0.0
 44
0.9
  1
Metric Units
 40
0.145
 41
2.784
  0
MTEXT
  5
262
100
AcDbEntity
  8
0
100
AcDbMText
 62
2
  6
CONTINUOUS
  7
STANDARD
 71
2
 72
1
 10
1.5275
 20
-0.4065
 30
0.0
 11
1.0
 21
0.0
 31
0.0
 44
0.9
  1
Cavity
 40
0.125
 41
1.2
  0
MTEXT
  5
263
100
AcDbEntity
  8
0
100
AcDbMText
 62
2
  6
CONTINUOUS
  7
STANDARD
 71
2
 72
1
 10
6.055
 20
-0.4065
 30
0.0
 11
1.0
 21
0.0
 31
0.0
 44
0.9
  1
T-19A
 40
0.125
 41
1.0
  0
MTEXT
  5
264
100
AcDbEntity
  8
0
100
AcDbMText
 62
2
  6
CONTINUOUS
  7
STANDARD
 71
2
 72
1
 10
1.5275
 20
-0.6565
 30
0.0
 11
1.0
 21
0.0
 31
0.0
 44
0.9
  1
Body Features
 40
0.125
 41
2.6
  0
MTEXT
  5
265
100
AcDbEntity
  8
0
100
AcDbMText
 62
2
  6
CONTINUOUS
  7
STANDARD
 71
2
 72
1
 10
6.055
 20
-0.6565
 30
0.0
 11
1.0
 21
0.0
 31
0.0
 44
0.9
  1
Ninety degree with reverse flow check - reducing
 40
0.125
 41
9.6
  0
MTEXT
  5
266
100
AcDbEntity
  8
0
100
AcDbMText
 62
2
  6
CONTINUOUS
  7
STANDARD
 71
2
 72
1
 10
1.5275
 20
-0.9065
 30
0.0
 11
1.0
 21
0.0
 31
0.0
 44
0.9
  1
Body Type
 40
0.125
 41
1.8
  0
MTEXT
  5
267
100
AcDbEntity
  8
0
100
AcDbMText
 62
2
  6
CONTINUOUS
  7
STANDARD
 71
2
 72
1
 10
6.055
 20
-0.9065
 30
0.0
 11
1.0
 21
0.0
 31
0.0
 44
0.9
  1
Line mount
 40
0.125
 41
2.0
  0
MTEXT
  5
268
100
AcDbEntity
  8
0
100
AcDbMText
 62
2
  6
CONTINUOUS
  7
STANDARD
 71
2
 72
1
 10
1.5275
 20
-1.1565
 30
0.0
 11
1.0
 21
0.0
 31
0.0
 44
0.9
  1
Interface
 40
0.125
 41
1.8
  0
MTEXT
  5
269
100
AcDbEntity
  8
0
100
AcDbMText
 62
2
  6
CONTINUOUS
  7
STANDARD
 71
2
 72
1
 10
6.055
 20
-1.1565
 30
0.0
 11
1.0
 21
0.0
 31
0.0
 44
0.9
  1
None
 40
0.125
 41
0.8
  0
MTEXT
  5
26A
100
AcDbEntity
  8
0
100
AcDbMText
 62
2
  6
CONTINUOUS
  7
STANDARD
 71
2
 72
1
 10
1.5275
 20
-1.4065
 30
0.0
 11
1.0
 21
0.0
 31
0.0
 44
0.9
  1
Open Cavity Quantity
 40
0.125
 41
4.0
  0
MTEXT
  5
26B
100
AcDbEntity
  8
0
100
AcDbMText
 62
2
  6
CONTINUOUS
  7
STANDARD
 71
2
 72
1
 10
6.055
 20
-1.4065
 30
0.0
 11
1.0
 21
0.0
 31
0.0
 44
0.9
  1
1
 40
0.125
 41
0.2
  0
MTEXT
  5
26C
100
AcDbEntity
  8
0
100
AcDbMText
 62
2
  6
CONTINUOUS
  7
STANDARD
 71
2
 72
1
 10
1.5275
 20
-1.6565
 30
0.0
 11
1.0
 21
0.0
 31
0.0
 44
0.9
  1
Weight
 40
0.125
 41
1.2
  0
MTEXT
  5
26D
100
AcDbEntity
  8
0
100
AcDbMText
 62
2
  6
CONTINUOUS
  7
STANDARD
 71
2
 72
1
 10
4.555
 20
-1.6565
 30
0.0
 11
1.0
 21
0.0
 31
0.0
 44
0.9
  1
14.142 lb.
 40
0.125
 41
2.0
  0
MTEXT
  5
26E
100
AcDbEntity
  8
0
100
AcDbMText
 62
2
  6
CONTINUOUS
  7
STANDARD
 71
2
 72
1
 10
7.555
 20
-1.6565
 30
0.0
 11
1.0
 21
0.0
 31
0.0
 44
0.9
  1
6,415 kg.
 40
0.125
 41
1.8
  0
MTEXT
  5
26F
100
AcDbEntity
  8
0
100
AcDbMText
 62
2
  6
CONTINUOUS
  7
STANDARD
 71
2
 72
1
 10
1.5275
 20
-1.9065
 30
0.0
 11
1.0
 21
0.0
 31
0.0
 44
0.9
  1
Mounting Hole Thread
 40
0.125
 41
4.0
  0
MTEXT
  5
270
100
AcDbEntity
  8
0
100
AcDbMText
 62
2
  6
CONTINUOUS
  7
STANDARD
 71
2
 72
1
 10
6.055
 20
-1.9065
 30
0.0
 11
1.0
 21
0.0
 31
0.0
 44
0.9
  1
.375-16 UNC - 2B in.
 40
0.125
 41
4.0
  0
MTEXT
  5
271
100
AcDbEntity
  8
0
100
AcDbMText
 62
2
  6
CONTINUOUS
  7
STANDARD
 71
2
 72
1
 10
1.5275
 20
-2.1565
 30
0.0
 11
1.0
 21
0.0
 31
0.0
 44
0.9
  1
Mounting Hole Depth
 40
0.125
 41
3.8
  0
MTEXT
  5
272
100
AcDbEntity
  8
0
100
AcDbMText
 62
2
  6
CONTINUOUS
  7
STANDARD
 71
2
 72
1
 10
4.555
 20
-2.1565
 30
0.0
 11
1.0
 21
0.0
 31
0.0
 44
0.9
  1
.62 in.
 40
0.125
 41
1.4
  0
MTEXT
  5
273
100
AcDbEntity
  8
0
100
AcDbMText
 62
2
  6
CONTINUOUS
  7
STANDARD
 71
2
 72
1
 10
7.555
 20
-2.1565
 30
0.0
 11
1.0
 21
0.0
 31
0.0
 44
0.9
  1
15,7 mm
 40
0.125
 41
1.4
  0
MTEXT
  5
274
100
AcDbEntity
  8
0
100
AcDbMText
 62
2
  6
CONTINUOUS
  7
STANDARD
 71
2
 72
1
 10
1.5275
 20
-2.4065
 30
0.0
 11
1.0
 21
0.0
 31
0.0
 44
0.9
  1
Mounting Hole Quantity
 40
0.125
 41
4.4
  0
MTEXT
  5
275
100
AcDbEntity
  8
0
100
AcDbMText
 62
2
  6
CONTINUOUS
  7
STANDARD
 71
2
 72
1
 10
6.055
 20
-2.4065
 30
0.0
 11
1.0
 21
0.0
 31
0.0
 44
0.9
  1
2
 40
0.125
 41
0.2
  0
MTEXT
  5
276
100
AcDbEntity
  8
0
100
AcDbMText
 62
2
  6
CONTINUOUS
  7
STANDARD
 71
2
 72
1
 10
1.5275
 20
-2.6565
 30
0.0
 11
1.0
 21
0.0
 31
0.0
 44
0.9
  1
Includes integral cartridge(s)
 40
0.125
 41
6.0
  0
MTEXT
  5
277
100
AcDbEntity
  8
0
100
AcDbMText
 62
2
  6
CONTINUOUS
  7
STANDARD
 71
2
 72
1
 10
6.055
 20
-2.6565
 30
0.0
 11
1.0
 21
0.0
 31
0.0
 44
0.9
  1
Yes (see Included Components)
 40
0.125
 41
5.8
  0
ENDBLK
  5
278
100
AcDbEntity
  8
0
  6
BYBLOCK
 62
0
100
AcDbBlockEnd
  0
BLOCK
  5
279
100
AcDbEntity
  8
0
100
AcDbBlockBegin
  2
*T3
 70
1
 10
0.0
 20
0.0
  3
*T3
  1

  0
LINE
  5
27A
100
AcDbEntity
  8
0
100
AcDbLine
 62
2
  6
CONTINUOUS
 10
0.0
 20
0.0
 11
4.6
 21
0.0
  0
LINE
  5
27B
100
AcDbEntity
  8
0
100
AcDbLine
 62
2
  6
CONTINUOUS
 10
0.0
 20
0.0
 11
0.0
 21
-1.43775
  0
LINE
  5
27C
100
AcDbEntity
  8
0
100
AcDbLine
 62
2
  6
CONTINUOUS
 10
0.0
 20
-0.34375
 11
4.6
 21
-0.34375
  0
LINE
  5
27D
100
AcDbEntity
  8
0
100
AcDbLine
 62
2
  6
CONTINUOUS
 10
0.0
 20
-0.68775
 11
4.6
 21
-0.68775
  0
LINE
  5
27E
100
AcDbEntity
  8
0
100
AcDbLine
 62
2
  6
CONTINUOUS
 10
0.0
 20
-0.93775
 11
4.6
 21
-0.93775
  0
LINE
  5
27F
100
AcDbEntity
  8
0
100
AcDbLine
 62
2
  6
CONTINUOUS
 10
0.0
 20
-1.18775
 11
4.6
 21
-1.18775
  0
LINE
  5
280
100
AcDbEntity
  8
0
100
AcDbLine
 62
2
  6
CONTINUOUS
 10
0.0
 20
-1.43775
 11
4.6
 21
-1.43775
  0
LINE
  5
281
100
AcDbEntity
  8
0
100
AcDbLine
 62
2
  6
CONTINUOUS
 10
1.3
 20
-0.34375
 11
1.3
 21
-1.43775
  0
LINE
  5
282
100
AcDbEntity
  8
0
100
AcDbLine
 62
2
  6
CONTINUOUS
 10
3.3
 20
-0.34375
 11
3.3
 21
-1.43775
  0
LINE
  5
283
100
AcDbEntity
  8
0
100
AcDbLine
 62
2
  6
CONTINUOUS
 10
4.6
 20
0.0
 11
4.6
 21
-1.43775
  0
MTEXT
  5
284
100
AcDbEntity
  8
0
100
AcDbMText
 62
2
  6
CONTINUOUS
  7
STANDARD
 71
2
 72
1
 10
2.3
 20
-0.099375
 30
0.0
 11
1.0
 21
0.0
 31
0.0
 44
0.9
  1
Port Headings
 40
0.145
 41
3.016
  0
MTEXT
  5
285
100
AcDbEntity
  8
0
100
AcDbMText
 62
2
  6
CONTINUOUS
  7
STANDARD
 71
2
 72
1
 10
0.65
 20
-0.44325
 30
0.0
 11
1.0
 21
0.0
 31
0.0
 44
0.9
  1
Product
 40
0.145
 41
1.624
  0
MTEXT
  5
286
100
AcDbEntity
  8
0
100
AcDbMText
 62
2
  6
CONTINUOUS
  7
STANDARD
 71
2
 72
1
 10
2.3
 20
-0.44325
 30
0.0
 11
1.0
 21
0.0
 31
0.0
 44
0.9
  1
Port
 40
0.145
 41
0.928
  0
MTEXT
  5
287
100
AcDbEntity
  8
0
100
AcDbMText
 62
2
  6
CONTINUOUS
  7
STANDARD
 71
2
 72
1
 10
3.95
 20
-0.44325
 30
0.0
 11
1.0
 21
0.0
 31
0.0
 44
0.9
  1
Size
 40
0.145
 41
0.928
  0
MTEXT
  5
288
100
AcDbEntity
  8
0
100
AcDbMText
 62
2
  6
CONTINUOUS
  7
STANDARD
 71
2
 72
1
 10
0.65
 20
-0.75025
 30
0.0
 11
1.0
 21
0.0
 31
0.0
 44
0.9
  1
K2R
 40
0.125
 41
0.6
  0
MTEXT
  5
289
100
AcDbEntity
  8
0
100
AcDbMText
 62
2
  6
CONTINUOUS
  7
STANDARD
 71
2
 72
1
 10
2.3
 20
-0.75025
 30
0.0
 11
1.0
 21
0.0
 31
0.0
 44
0.9
  1
Ports 1 &  2
 40
0.125
 41
2.4
  0
MTEXT
  5
28A
100
AcDbEntity
  8
0
100
AcDbMText
 62
2
  6
CONTINUOUS
  7
STANDARD
 71
2
 72
1
 10
3.95
 20
-0.75025
 30
0.0
 11
1.0
 21
0.0
 31
0.0
 44
0.9
  1
 1 1/2" Code 61
 40
0.125
 41
3.0
  0
MTEXT
  5
28B
100
AcDbEntity
  8
0
100
AcDbMText
 62
2
  6
CONTINUOUS
  7
STANDARD
 71
2
 72
1
 10
0.65
 20
-1.00025
 30
0.0
 11
1.0
 21
0.0
 31
0.0
 44
0.9
  1
K2R
 40
0.125
 41
0.6
  0
MTEXT
  5
28C
100
AcDbEntity
  8
0
100
AcDbMText
 62
2
  6
CONTINUOUS
  7
STANDARD
 71
2
 72
1
 10
2.3
 20
-1.00025
 30
0.0
 11
1.0
 21
0.0
 31
0.0
 44
0.9
  1
Port 3
 40
0.125
 41
1.2
  0
MTEXT
  5
28D
100
AcDbEntity
  8
0
100
AcDbMText
 62
2
  6
CONTINUOUS
  7
STANDARD
 71
2
 72
1
 10
3.95
 20
-1.00025
 30
0.0
 11
1.0
 21
0.0
 31
0.0
 44
0.9
  1
SAE 6
 40
0.125
 41
1.0
  0
MTEXT
  5
28E
100
AcDbEntity
  8
0
100
AcDbMText
 62
2
  6
CONTINUOUS
  7
STANDARD
 71
2
 72
1
 10
0.65
 20
-1.25025
 30
0.0
 11
1.0
 21
0.0
 31
0.0
 44
0.9
  1
K2R
 40
0.125
 41
0.6
  0
MTEXT
  5
28F
100
AcDbEntity
  8
0
100
AcDbMText
 62
2
  6
CONTINUOUS
  7
STANDARD
 71
2
 72
1
 10
2.3
 20
-1.25025
 30
0.0
 11
1.0
 21
0.0
 31
0.0
 44
0.9
  1
Gage Port
 40
0.125
 41
1.8
  0
MTEXT
  5
290
100
AcDbEntity
  8
0
100
AcDbMText
 62
2
  6
CONTINUOUS
  7
STANDARD
 71
2
 72
1
 10
3.95
 20
-1.25025
 30
0.0
 11
1.0
 21
0.0
 31
0.0
 44
0.9
  1
1/4" NPTF
 40
0.125
 41
1.8
  0
ENDBLK
  5
291
100
AcDbEntity
  8
0
  6
BYBLOCK
 62
0
100
AcDbBlockEnd
  0
ENDSEC
  0
SECTION
  2
ENTITIES
  0
IMAGE
  5
292
100
AcDbEntity
  8
0
100
AcDbRasterImage
 62
7
  6
CONTINUOUS
 10
19.2297077316
 20
0.3094318264
 30
0.0
 11
0.0066666667
 21
0.0
 31
0.0
 12
0.0
 22
0.0066666667
 32
0.0
 13
369.0
 23
92.0
340
       3D2
 70
9
280
0
281
50
282
50
283
0
360
       3CC
 71
1
 91
2
 14
-0.5
 24
-0.5
 14
368.5
 24
91.5
  0
INSERT
  5
293
100
AcDbEntity
  8
0
100
AcDbBlockReference
 62
2
  6
CONTINUOUS
  2
SUN_FIRST_THIRD_ANGLE_BL0
 10
20.4816717061
 20
1.2289683772
  0
ACAD_TABLE
  5
294
100
AcDbEntity
  8
0
 62
2
  6
CONTINUOUS
100
AcDbBlockReference
  2
*T1
 10
12.42375
 20
0.30125
 30
0.0
100
AcDbTable
342
       3D4
343
20F
 11
1.0
 21
0.0
 31
0.0
 90
6
 91
4
 92
6
 93
20
 94
0
 95
0
 96
0
 70
1
 41
0.0
141
0.525
141
0.1
141
0.525
141
0.1
142
4.1
142
1.1
142
0.7
142
0.5
142
0.4
142
2.475
171
1
172
0
173
0
174
0
175
1
176
1
 91
33
178
0
145
0.0
301
CELL_VALUE
 90
4
  1
T-19A Line mount\P(See Technical Data for Body Features)
304
ACVALUE_END
170
2
140
0.125
171
1
172
0
173
0
174
0
175
1
176
1
 91
33
178
0
145
0.0
301
CELL_VALUE
 90
4
  1
May-23-23
304
ACVALUE_END
170
5
140
0.125
171
1
172
0
173
0
174
0
175
1
176
1
 91
33
178
0
145
0.0
301
CELL_VALUE
 90
4
  1
1.000
304
ACVALUE_END
170
5
140
0.125
171
1
172
0
173
0
174
0
175
1
176
1
 91
33
178
0
145
0.0
301
CELL_VALUE
 90
4
  1
C
304
ACVALUE_END
170
5
140
0.125
171
1
172
0
173
0
174
0
175
1
176
1
 91
33
178
0
145
0.0
301
CELL_VALUE
 90
4
  1
2
304
ACVALUE_END
170
5
140
0.125
171
1
172
0
173
0
174
0
175
1
176
1
 91
33
178
0
145
0.0
301
CELL_VALUE
 90
4
  1
 
304
ACVALUE_END
170
1
140
0.125
171
1
172
0
173
0
174
0
175
1
176
1
 91
33
178
0
145
0.0
301
CELL_VALUE
 90
4
  1
DESCRIPTION
304
ACVALUE_END
170
1
140
0.06
171
1
172
0
173
0
174
0
175
1
176
1
 91
33
178
0
145
0.0
301
CELL_VALUE
 90
4
  1
DATE
304
ACVALUE_END
170
1
140
0.06
171
1
172
0
173
0
174
0
175
1
176
1
 91
33
178
0
145
0.0
301
CELL_VALUE
 90
4
  1
SCALE
304
ACVALUE_END
170
1
140
0.06
171
1
172
0
173
0
174
0
175
1
176
1
 91
33
178
0
145
0.0
301
CELL_VALUE
 90
4
  1
DWG SIZE
304
ACVALUE_END
170
1
140
0.06
171
1
172
0
173
0
174
0
175
1
176
1
 91
33
178
0
145
0.0
301
CELL_VALUE
 90
4
  1
SHEET
304
ACVALUE_END
170
1
140
0.06
171
1
172
0
173
0
174
0
175
1
176
1
 91
33
178
0
145
0.0
301
CELL_VALUE
 90
4
  1
 
304
ACVALUE_END
170
1
140
0.125
171
1
172
0
173
0
174
0
175
1
176
1
 91
33
178
0
145
0.0
301
CELL_VALUE
 90
4
  1
K2R
304
ACVALUE_END
170
5
140
0.125
171
1
172
0
173
0
174
0
175
4
176
1
 91
33
178
0
145
0.0
301
CELL_VALUE
 90
4
  1
ALL DIMENSIONS IN INCH\PVIEWS ARE THIRD ANGLE
304
ACVALUE_END
170
5
140
0.12
171
1
172
0
173
1
174
0
175
1
176
1
 91
1
178
0
145
0.0
170
1
171
1
172
0
173
1
174
0
175
1
176
1
 91
1
178
0
145
0.0
170
1
171
1
172
0
173
1
174
0
175
1
176
1
 91
1
178
0
145
0.0
170
5
171
1
172
0
173
0
174
0
175
1
176
1
 91
33
178
0
145
0.0
301
CELL_VALUE
 90
4
  1
 
304
ACVALUE_END
170
1
140
0.125
171
1
172
0
173
0
174
0
175
1
176
1
 91
33
178
0
145
0.0
301
CELL_VALUE
 90
4
  1
MODEL
304
ACVALUE_END
170
1
140
0.06
171
1
172
0
173
0
174
0
175
1
176
1
 91
33
178
0
145
0.0
301
CELL_VALUE
 90
4
  1
 
304
ACVALUE_END
170
1
140
0.125
171
1
172
0
173
0
174
0
175
1
176
1
 91
33
178
0
145
0.0
301
CELL_VALUE
 90
4
  1
 
304
ACVALUE_END
170
1
140
0.125
171
1
172
0
173
0
174
0
175
1
176
1
 91
33
178
0
145
0.0
301
CELL_VALUE
 90
4
  1
 
304
ACVALUE_END
170
1
140
0.125
171
1
172
0
173
0
174
0
175
1
176
1
 91
33
178
0
145
0.0
301
CELL_VALUE
 90
4
  1
 
304
ACVALUE_END
170
1
140
0.125
171
1
172
0
173
0
174
0
175
1
176
1
 91
33
178
0
145
0.0
301
CELL_VALUE
 90
4
  1
 
304
ACVALUE_END
170
1
140
0.125
  0
ACAD_TABLE
  5
295
100
AcDbEntity
  8
0
 62
2
  6
CONTINUOUS
100
AcDbBlockReference
  2
*T2
 10
12.4237499994
 20
16.47875
 30
0.0
100
AcDbTable
342
       3D3
343
210
 11
1.0
 21
0.0
 31
0.0
 90
22
 91
11
 92
3
 93
16
 94
0
 95
0
 96
0
 41
0.028
141
0.344
141
0.25
141
0.25
141
0.25
141
0.25
141
0.25
141
0.25
141
0.25
141
0.25
141
0.25
141
0.25
142
3.055
142
3.0
142
3.0
171
1
172
0
173
0
174
0
175
1
176
1
 91
33
178
0
145
0.0
301
CELL_VALUE
 90
4
  1
Technical Data
304
ACVALUE_END
170
5
140
0.145
171
1
172
0
173
0
174
0
175
1
176
1
 91
33
178
0
145
0.0
301
CELL_VALUE
 90
4
  1
U.S. Units
304
ACVALUE_END
170
5
140
0.145
171
1
172
0
173
0
174
0
175
1
176
1
 91
33
178
0
145
0.0
301
CELL_VALUE
 90
4
  1
Metric Units
304
ACVALUE_END
170
5
140
0.145
171
1
172
0
173
0
174
0
175
1
176
1
 91
33
178
0
145
0.0
301
CELL_VALUE
 90
4
  1
Cavity
304
ACVALUE_END
170
5
140
0.125
171
1
172
0
173
0
174
0
175
2
176
1
 91
33
178
0
145
0.0
301
CELL_VALUE
 90
4
  1
T-19A
304
ACVALUE_END
170
5
140
0.125
171
1
172
0
173
1
174
0
175
1
176
1
 91
1
178
0
145
0.0
170
1
171
1
172
0
173
0
174
0
175
1
176
1
 91
33
178
0
145
0.0
301
CELL_VALUE
 90
4
  1
Body Features
304
ACVALUE_END
170
5
140
0.125
171
1
172
0
173
0
174
0
175
2
176
1
 91
33
178
0
145
0.0
301
CELL_VALUE
 90
4
  1
Ninety degree with reverse flow check - reducing
304
ACVALUE_END
170
5
140
0.125
171
1
172
0
173
1
174
0
175
1
176
1
 91
1
178
0
145
0.0
170
1
171
1
172
0
173
0
174
0
175
1
176
1
 91
33
178
0
145
0.0
301
CELL_VALUE
 90
4
  1
Body Type
304
ACVALUE_END
170
5
140
0.125
171
1
172
0
173
0
174
0
175
2
176
1
 91
33
178
0
145
0.0
301
CELL_VALUE
 90
4
  1
Line mount
304
ACVALUE_END
170
5
140
0.125
171
1
172
0
173
1
174
0
175
1
176
1
 91
1
178
0
145
0.0
170
1
171
1
172
0
173
0
174
0
175
1
176
1
 91
33
178
0
145
0.0
301
CELL_VALUE
 90
4
  1
Interface
304
ACVALUE_END
170
5
140
0.125
171
1
172
0
173
0
174
0
175
2
176
1
 91
33
178
0
145
0.0
301
CELL_VALUE
 90
4
  1
None
304
ACVALUE_END
170
5
140
0.125
171
1
172
0
173
1
174
0
175
1
176
1
 91
1
178
0
145
0.0
170
1
171
1
172
0
173
0
174
0
175
1
176
1
 91
33
178
0
145
0.0
301
CELL_VALUE
 90
4
  1
Open Cavity Quantity
304
ACVALUE_END
170
5
140
0.125
171
1
172
0
173
0
174
0
175
2
176
1
 91
33
178
0
145
0.0
301
CELL_VALUE
 90
4
  1
1
304
ACVALUE_END
170
5
140
0.125
171
1
172
0
173
1
174
0
175
1
176
1
 91
1
178
0
145
0.0
170
1
171
1
172
0
173
0
174
0
175
1
176
1
 91
33
178
0
145
0.0
301
CELL_VALUE
 90
4
  1
Weight
304
ACVALUE_END
170
5
140
0.125
171
1
172
0
173
0
174
0
175
1
176
1
 91
33
178
0
145
0.0
301
CELL_VALUE
 90
4
  1
14.142 lb.
304
ACVALUE_END
170
5
140
0.125
171
1
172
0
173
0
174
0
175
1
176
1
 91
33
178
0
145
0.0
301
CELL_VALUE
 90
4
  1
6,415 kg.
304
ACVALUE_END
170
5
140
0.125
171
1
172
0
173
0
174
0
175
1
176
1
 91
33
178
0
145
0.0
301
CELL_VALUE
 90
4
  1
Mounting Hole Thread
304
ACVALUE_END
170
5
140
0.125
171
1
172
0
173
0
174
0
175
2
176
1
 91
33
178
0
145
0.0
301
CELL_VALUE
 90
4
  1
.375-16 UNC - 2B in.
304
ACVALUE_END
170
5
140
0.125
171
1
172
0
173
1
174
0
175
1
176
1
 91
1
178
0
145
0.0
170
1
171
1
172
0
173
0
174
0
175
1
176
1
 91
33
178
0
145
0.0
301
CELL_VALUE
 90
4
  1
Mounting Hole Depth
304
ACVALUE_END
170
5
140
0.125
171
1
172
0
173
0
174
0
175
1
176
1
 91
33
178
0
145
0.0
301
CELL_VALUE
 90
4
  1
.62 in.
304
ACVALUE_END
170
5
140
0.125
171
1
172
0
173
0
174
0
175
1
176
1
 91
33
178
0
145
0.0
301
CELL_VALUE
 90
4
  1
15,7 mm
304
ACVALUE_END
170
5
140
0.125
171
1
172
0
173
0
174
0
175
1
176
1
 91
33
178
0
145
0.0
301
CELL_VALUE
 90
4
  1
Mounting Hole Quantity
304
ACVALUE_END
170
5
140
0.125
171
1
172
0
173
0
174
0
175
2
176
1
 91
33
178
0
145
0.0
301
CELL_VALUE
 90
4
  1
2
304
ACVALUE_END
170
5
140
0.125
171
1
172
0
173
1
174
0
175
1
176
1
 91
1
178
0
145
0.0
170
1
171
1
172
0
173
0
174
0
175
1
176
1
 91
33
178
0
145
0.0
301
CELL_VALUE
 90
4
  1
Includes integral cartridge(s)
304
ACVALUE_END
170
5
140
0.125
171
1
172
0
173
0
174
0
175
2
176
1
 91
33
178
0
145
0.0
301
CELL_VALUE
 90
4
  1
Yes (see Included Components)
304
ACVALUE_END
170
5
140
0.125
171
1
172
0
173
1
174
0
175
1
176
1
 91
1
178
0
145
0.0
170
1
  0
ACAD_TABLE
  5
296
100
AcDbEntity
  8
0
 62
2
  6
CONTINUOUS
100
AcDbBlockReference
  2
*T3
 10
0.52125
 20
1.959
 30
0.0
100
AcDbTable
342
       3D3
343
211
 11
1.0
 21
0.0
 31
0.0
 90
22
 91
5
 92
3
 93
16
 94
0
 95
0
 96
0
 41
0.05
141
0.34375
141
0.344
141
0.25
141
0.25
141
0.25
142
1.3
142
2.0
142
1.3
171
1
172
0
173
0
174
0
175
3
176
1
 91
33
178
0
145
0.0
301
CELL_VALUE
 90
4
  1
Port Headings
304
ACVALUE_END
170
5
140
0.145
171
1
172
0
173
1
174
0
175
1
176
1
 91
1
178
0
145
0.0
170
1
171
1
172
0
173
1
174
0
175
1
176
1
 91
1
178
0
145
0.0
170
1
171
1
172
0
173
0
174
0
175
1
176
1
 91
33
178
0
145
0.0
301
CELL_VALUE
 90
4
  1
Product
304
ACVALUE_END
170
5
140
0.145
171
1
172
0
173
0
174
0
175
1
176
1
 91
33
178
0
145
0.0
301
CELL_VALUE
 90
4
  1
Port
304
ACVALUE_END
170
5
140
0.145
171
1
172
0
173
0
174
0
175
1
176
1
 91
33
178
0
145
0.0
301
CELL_VALUE
 90
4
  1
Size
304
ACVALUE_END
170
5
140
0.145
171
1
172
0
173
0
174
0
175
1
176
1
 91
33
178
0
145
0.0
301
CELL_VALUE
 90
4
  1
K2R
304
ACVALUE_END
170
5
140
0.125
171
1
172
0
173
0
174
0
175
1
176
1
 91
33
178
0
145
0.0
301
CELL_VALUE
 90
4
  1
Ports 1 &  2
304
ACVALUE_END
170
5
140
0.125
171
1
172
0
173
0
174
0
175
1
176
1
 91
33
178
0
145
0.0
301
CELL_VALUE
 90
4
  1
 1 1/2" Code 61
304
ACVALUE_END
170
5
140
0.125
171
1
172
0
173
0
174
0
175
1
176
1
 91
33
178
0
145
0.0
301
CELL_VALUE
 90
4
  1
K2R
304
ACVALUE_END
170
5
140
0.125
171
1
172
0
173
0
174
0
175
1
176
1
 91
33
178
0
145
0.0
301
CELL_VALUE
 90
4
  1
Port 3
304
ACVALUE_END
170
5
140
0.125
171
1
172
0
173
0
174
0
175
1
176
1
 91
33
178
0
145
0.0
301
CELL_VALUE
 90
4
  1
SAE 6
304
ACVALUE_END
170
5
140
0.125
171
1
172
0
173
0
174
0
175
1
176
1
 91
33
178
0
145
0.0
301
CELL_VALUE
 90
4
  1
K2R
304
ACVALUE_END
170
5
140
0.125
171
1
172
0
173
0
174
0
175
1
176
1
 91
33
178
0
145
0.0
301
CELL_VALUE
 90
4
  1
Gage Port
304
ACVALUE_END
170
5
140
0.125
171
1
172
0
173
0
174
0
175
1
176
1
 91
33
178
0
145
0.0
301
CELL_VALUE
 90
4
  1
1/4" NPTF
304
ACVALUE_END
170
5
140
0.125
  0
MTEXT
  5
297
100
AcDbEntity
  8
0
100
AcDbMText
 62
2
  6
CONTINUOUS
  7
STANDARD
 71
1
 72
1
 10
0.52125
 20
5.75995
 30
0.0
 11
1.0
 21
0.0
 31
0.0
 44
0.6
  3
Notes\P \P1. Important: Carefully consider\P   the maximum system pressure. The\P   pressure rating of the manifold is\P   dependent on the manifold material,\P   with the port type/size a secondary\P   consideration. Manifolds\P   constructed of alu
  3
minum are not\P   rated for pressures higher than\P   3000 psi (210 bar), regardless of\P   the port type/size specified.\P2. Flange mounting hole data: Inch:\P   1/2-13 UNC x 1.06 (26,9 mm) DP,\P   Metric: M12\P3. This drawing is for reference\P   o
  1
nly. It is generated by an\P   automated process and does not fall\P   under Sun's document control\P   process.
 40
0.1
 41
3.04
  0
LINE
  5
298
100
AcDbEntity
  8
0
100
AcDbLine
 62
7
  6
CONTINUOUS
 10
0.30125
 20
0.30125
 11
0.30125
 21
16.69875
  0
LINE
  5
299
100
AcDbEntity
  8
0
100
AcDbLine
 62
7
  6
CONTINUOUS
 10
0.30125
 20
0.30125
 11
21.69875
 21
0.30125
  0
LINE
  5
29A
100
AcDbEntity
  8
0
100
AcDbLine
 62
7
  6
CONTINUOUS
 10
0.30125
 20
16.69875
 11
21.69875
 21
16.69875
  0
LINE
  5
29B
100
AcDbEntity
  8
0
100
AcDbLine
 62
7
  6
CONTINUOUS
 10
21.69875
 20
0.30125
 11
21.69875
 21
16.69875
  0
LINE
  5
29C
100
AcDbEntity
  8
0
100
AcDbLine
 62
7
  6
CONTINUOUS
 10
6.6133684564
 20
5.943872366
 11
6.6133684564
 21
10.2905388419
  0
LINE
  5
29D
100
AcDbEntity
  8
0
100
AcDbLine
 62
7
  6
CONTINUOUS
 10
6.6133684564
 20
10.2905388419
 11
7.8914158987
 21
11.5250379468
  0
LINE
  5
29E
100
AcDbEntity
  8
0
100
AcDbLine
 62
4
  6
CONTINUOUS
 10
7.337444454
 20
10.2999426441
 11
7.3413267364
 21
10.3036926412
  0
LINE
  5
29F
100
AcDbEntity
  8
0
100
AcDbLine
 62
4
  6
CONTINUOUS
 10
7.3857407494
 20
10.2965932847
 11
7.3896230318
 21
10.3003432817
  0
LINE
  5
2A0
100
AcDbEntity
  8
0
100
AcDbLine
 62
4
  6
CONTINUOUS
 10
7.4572378398
 20
10.2956541789
 11
7.4533555574
 21
10.2919041818
  0
LINE
  5
2A1
100
AcDbEntity
  8
0
100
AcDbLine
 62
7
  6
CONTINUOUS
 10
13.3748496411
 20
5.4749620532
 11
6.6133684564
 21
5.943872366
  0
LINE
  5
2A2
100
AcDbEntity
  8
0
100
AcDbLine
 62
4
  6
CONTINUOUS
 10
10.2380316722
 20
11.2916949728
 11
10.2419139545
 21
11.2954449698
  0
LINE
  5
2A3
100
AcDbEntity
  8
0
100
AcDbLine
 62
4
  6
CONTINUOUS
 10
10.348119352
 20
11.2780315149
 11
10.3636484816
 21
11.2930315031
  0
LINE
  5
2A4
100
AcDbEntity
  8
0
100
AcDbLine
 62
4
  6
CONTINUOUS
 10
9.9607342899
 20
10.5838461421
 11
9.9452051601
 21
10.5688461536
  0
LINE
  5
2A5
100
AcDbEntity
  8
0
100
AcDbLine
 62
4
  6
CONTINUOUS
 10
9.9917925497
 20
10.6138461191
 11
10.0073216796
 21
10.6288461076
  0
LINE
  5
2A6
100
AcDbEntity
  8
0
100
AcDbLine
 62
4
  6
CONTINUOUS
 10
10.2333899963
 20
10.8172113462
 11
10.2372722788
 21
10.8209613433
  0
LINE
  5
2A7
100
AcDbEntity
  8
0
100
AcDbLine
 62
4
  6
CONTINUOUS
 10
10.2177215244
 20
10.7720767636
 11
10.2073687711
 21
10.7620767713
  0
LINE
  5
2A8
100
AcDbEntity
  8
0
100
AcDbLine
 62
4
  6
CONTINUOUS
 10
10.1118646223
 20
10.6698268419
 11
10.0963354924
 21
10.6548268534
  0
LINE
  5
2A9
100
AcDbEntity
  8
0
100
AcDbLine
 62
4
  6
CONTINUOUS
 10
10.0031607131
 20
10.5648269224
 11
10.018689843
 21
10.5798269109
  0
LINE
  5
2AA
100
AcDbEntity
  8
0
100
AcDbLine
 62
4
  6
CONTINUOUS
 10
10.1504286282
 20
10.7070768134
 11
10.1659577581
 21
10.7220768019
  0
LINE
  5
2AB
100
AcDbEntity
  8
0
100
AcDbLine
 62
4
  6
CONTINUOUS
 10
10.1763105113
 20
10.7320767942
 11
10.1918396412
 21
10.7470767827
  0
LINE
  5
2AC
100
AcDbEntity
  8
0
100
AcDbLine
 62
4
  6
CONTINUOUS
 10
10.2746616673
 20
10.8270767215
 11
10.2901907972
 21
10.84207671
  0
LINE
  5
2AD
100
AcDbEntity
  8
0
100
AcDbLine
 62
4
  6
CONTINUOUS
 10
10.3005435505
 20
10.8520767023
 11
10.3160726804
 21
10.8670766908
  0
LINE
  5
2AE
100
AcDbEntity
  8
0
100
AcDbLine
 62
4
  6
CONTINUOUS
 10
10.2215109122
 20
10.7557370313
 11
10.2370400421
 21
10.7707370198
  0
LINE
  5
2AF
100
AcDbEntity
  8
0
100
AcDbLine
 62
4
  6
CONTINUOUS
 10
10.329521327
 20
10.8500670867
 11
10.3450504569
 21
10.8650670752
  0
LINE
  5
2B0
100
AcDbEntity
  8
0
100
AcDbLine
 62
4
  6
CONTINUOUS
 10
10.3740282334
 20
10.8630574596
 11
10.3584991035
 21
10.8480574711
  0
LINE
  5
2B1
100
AcDbEntity
  8
0
100
AcDbLine
 62
4
  6
CONTINUOUS
 10
10.2756770774
 20
10.7680575323
 11
10.2601479475
 21
10.7530575438
  0
LINE
  5
2B2
100
AcDbEntity
  8
0
100
AcDbLine
 62
4
  6
CONTINUOUS
 10
10.2239133111
 20
10.7180575706
 11
10.2083841812
 21
10.7030575821
  0
LINE
  5
2B3
100
AcDbEntity
  8
0
100
AcDbLine
 62
4
  6
CONTINUOUS
 10
10.1980314279
 20
10.6930575898
 11
10.1825022981
 21
10.6780576013
  0
LINE
  5
2B4
100
AcDbEntity
  8
0
100
AcDbLine
 62
4
  6
CONTINUOUS
 10
10.0999390908
 20
10.5983076624
 11
10.0844099609
 21
10.5833076739
  0
LINE
  5
2B5
100
AcDbEntity
  8
0
100
AcDbLine
 62
4
  6
CONTINUOUS
 10
10.076645396
 20
10.5758076796
 11
10.0611162661
 21
10.5608076911
  0
LINE
  5
2B6
100
AcDbEntity
  8
0
100
AcDbLine
 62
4
  6
CONTINUOUS
 10
10.2860298307
 20
10.7780575247
 11
10.3015589605
 21
10.7930575132
  0
LINE
  5
2B7
100
AcDbEntity
  8
0
100
AcDbLine
 62
4
  6
CONTINUOUS
 10
10.3326172203
 20
10.8230574902
 11
10.3481463502
 21
10.8380574787
  0
LINE
  5
2B8
100
AcDbEntity
  8
0
100
AcDbLine
 62
4
  6
CONTINUOUS
 10
10.255986981
 20
10.6890383585
 11
10.2456342277
 21
10.6790383662
  0
LINE
  5
2B9
100
AcDbEntity
  8
0
100
AcDbLine
 62
4
  6
CONTINUOUS
 10
10.844984276
 20
10.7802518082
 11
10.8788943014
 21
10.7901492343
  0
LINE
  5
2BA
100
AcDbEntity
  8
0
100
AcDbLine
 62
4
  6
CONTINUOUS
 10
10.4319429553
 20
10.6909987885
 11
10.4252876115
 21
10.6845702197
  0
LINE
  5
2BB
100
AcDbEntity
  8
0
100
AcDbLine
 62
4
  6
CONTINUOUS
 10
10.4452536354
 20
10.703855919
 11
10.4563458732
 21
10.7145701985
  0
LINE
  5
2BC
100
AcDbEntity
  8
0
100
AcDbLine
 62
4
  6
CONTINUOUS
 10
10.5225807904
 20
10.7099767914
 11
10.5114885527
 21
10.6992625119
  0
LINE
  5
2BD
100
AcDbEntity
  8
0
100
AcDbLine
 62
4
  6
CONTINUOUS
 10
10.5522909535
 20
10.687246035
 11
10.5367618236
 21
10.6722460465
  0
LINE
  5
2BE
100
AcDbEntity
  8
0
100
AcDbLine
 62
4
  6
CONTINUOUS
 10
10.5723276199
 20
10.5625999697
 11
10.5834198539
 21
10.5733142457
  0
LINE
  5
2BF
100
AcDbEntity
  8
0
100
AcDbLine
 62
4
  6
CONTINUOUS
 10
10.6270493124
 20
10.6154570689
 11
10.6447968884
 21
10.6325999119
  0
LINE
  5
2C0
100
AcDbEntity
  8
0
100
AcDbLine
 62
4
  6
CONTINUOUS
 10
10.6536706801
 20
10.641171337
 11
10.6669813639
 21
10.654028471
  0
LINE
  5
2C1
100
AcDbEntity
  8
0
100
AcDbLine
 62
4
  6
CONTINUOUS
 10
10.7046949693
 20
10.6904570186
 11
10.7135687536
 21
10.6990284365
  0
LINE
  5
2C2
100
AcDbEntity
  8
0
100
AcDbLine
 62
4
  6
CONTINUOUS
 10
10.7305768426
 20
10.7154569899
 11
10.7372321882
 21
10.7218855605
  0
LINE
  5
2C3
100
AcDbEntity
  8
0
100
AcDbLine
 62
4
  6
CONTINUOUS
 10
10.7505428646
 20
10.7347426874
 11
10.7616351023
 21
10.7454569669
  0
LINE
  5
2C4
100
AcDbEntity
  8
0
100
AcDbLine
 62
4
  6
CONTINUOUS
 10
10.7786432062
 20
10.7618855346
 11
10.7919538826
 21
10.7747426615
  0
LINE
  5
2C5
100
AcDbEntity
  8
0
100
AcDbLine
 62
4
  6
CONTINUOUS
 10
10.8371931758
 20
10.7670118974
 11
10.8283193915
 21
10.7584404795
  0
LINE
  5
2C6
100
AcDbEntity
  8
0
100
AcDbLine
 62
4
  6
CONTINUOUS
 10
10.7122206571
 20
10.6462977069
 11
10.7033468654
 21
10.6377262818
  0
LINE
  5
2C7
100
AcDbEntity
  8
0
100
AcDbLine
 62
4
  6
CONTINUOUS
 10
10.6208149593
 20
10.5408637178
 11
10.6547249839
 21
10.550761145
  0
LINE
  5
2C8
100
AcDbEntity
  8
0
100
AcDbLine
 62
4
  6
CONTINUOUS
 10
10.6861795235
 20
10.5868581861
 11
10.6980112408
 21
10.5982867481
  0
LINE
  5
2C9
100
AcDbEntity
  8
0
100
AcDbLine
 62
4
  6
CONTINUOUS
 10
10.8775462084
 20
10.7374185044
 11
10.8664539706
 21
10.7267042249
  0
LINE
  5
2CA
100
AcDbEntity
  8
0
100
AcDbLine
 62
4
  6
CONTINUOUS
 10
10.8531432942
 20
10.713847098
 11
10.8464879486
 21
10.7074185274
  0
LINE
  5
2CB
100
AcDbEntity
  8
0
100
AcDbLine
 62
4
  6
CONTINUOUS
 10
10.8294798596
 20
10.690989974
 11
10.8206060753
 21
10.6824185561
  0
LINE
  5
2CC
100
AcDbEntity
  8
0
100
AcDbLine
 62
4
  6
CONTINUOUS
 10
10.69933096
 20
10.5652757832
 11
10.6882387259
 21
10.5545615072
  0
LINE
  5
2CD
100
AcDbEntity
  8
0
100
AcDbLine
 62
4
  6
CONTINUOUS
 10
10.7695817861
 20
10.6331328745
 11
10.7828924699
 21
10.6459900085
  0
LINE
  5
2CE
100
AcDbEntity
  8
0
100
AcDbLine
 62
4
  6
CONTINUOUS
 10
10.8945543122
 20
10.7538470721
 11
10.9078649886
 21
10.766704199
  0
LINE
  5
2CF
100
AcDbEntity
  8
0
100
AcDbLine
 62
4
  6
CONTINUOUS
 10
7.3432214279
 20
10.2955227754
 11
7.337444454
 21
10.2999426441
  0
LINE
  5
2D0
100
AcDbEntity
  8
0
100
AcDbLine
 62
4
  6
CONTINUOUS
 10
7.3838460509
 20
10.3047631509
 11
7.3896230318
 21
10.3003432817
  0
LINE
  5
2D1
100
AcDbEntity
  8
0
100
AcDbLine
 62
4
  6
CONTINUOUS
 10
7.4514608633
 20
10.3000740478
 11
7.4572378398
 21
10.2956541789
  0
LINE
  5
2D2
100
AcDbEntity
  8
0
100
AcDbLine
 62
4
  6
CONTINUOUS
 10
12.378058494
 20
10.4158021932
 11
12.3819407763
 21
10.4195521902
  0
LINE
  5
2D3
100
AcDbEntity
  8
0
100
AcDbLine
 62
4
  6
CONTINUOUS
 10
12.4379551869
 20
10.4136579606
 11
12.4457197516
 21
10.4211579546
  0
LINE
  5
2D4
100
AcDbEntity
  8
0
100
AcDbLine
 62
4
  6
CONTINUOUS
 10
12.4978518798
 20
10.4115137279
 11
12.4939695974
 21
10.4077637309
  0
LINE
  5
2D5
100
AcDbEntity
  8
0
100
AcDbLine
 62
7
  6
CONTINUOUS
 10
12.2144027156
 20
10.2957228074
 11
12.2137035358
 21
10.2950602109
  0
LINE
  5
2D6
100
AcDbEntity
  8
0
100
AcDbLine
 62
7
  6
CONTINUOUS
 10
14.1588582723
 20
7.6212820746
 11
14.9997349708
 21
7.5629670775
  0
LINE
  5
2D7
100
AcDbEntity
  8
0
100
AcDbLine
 62
7
  6
CONTINUOUS
 10
14.1467491681
 20
7.6356770938
 11
14.9876258667
 21
7.5773620967
  0
LINE
  5
2D8
100
AcDbEntity
  8
0
100
AcDbLine
 62
7
  6
CONTINUOUS
 10
11.7732695184
 20
7.9696568809
 11
12.2569141754
 21
7.93611601
  0
LINE
  5
2D9
100
AcDbEntity
  8
0
100
AcDbLine
 62
7
  6
CONTINUOUS
 10
14.0334099904
 20
8.2588364584
 11
14.8742866889
 21
8.2005214613
  0
LINE
  5
2DA
100
AcDbEntity
  8
0
100
AcDbLine
 62
7
  6
CONTINUOUS
 10
14.0334099904
 20
8.3110194911
 11
14.8742866889
 21
8.2527044939
  0
LINE
  5
2DB
100
AcDbEntity
  8
0
100
AcDbLine
 62
7
  6
CONTINUOUS
 10
13.3748496411
 20
9.8216285291
 11
14.6528970834
 21
11.056127634
  0
LINE
  5
2DC
100
AcDbEntity
  8
0
100
AcDbLine
 62
4
  6
CONTINUOUS
 10
7.3761279358
 20
10.3073080212
 11
7.3838460509
 21
10.3047631509
  0
LINE
  5
2DD
100
AcDbEntity
  8
0
100
AcDbLine
 62
4
  6
CONTINUOUS
 10
7.4360246287
 20
10.3051637885
 11
7.4514608633
 21
10.3000740478
  0
LINE
  5
2DE
100
AcDbEntity
  8
0
100
AcDbLine
 62
7
  6
CONTINUOUS
 10
11.966893406
 20
7.9791251699
 11
11.9632660672
 21
7.986071829
  0
LINE
  5
2DF
100
AcDbEntity
  8
0
100
AcDbLine
 62
7
  6
CONTINUOUS
 10
14.1467491681
 20
9.1531333465
 11
14.9876258667
 21
9.0948183494
  0
LINE
  5
2E0
100
AcDbEntity
  8
0
100
AcDbLine
 62
7
  6
CONTINUOUS
 10
14.1588582723
 20
9.1909213599
 11
14.9997349708
 21
9.1326063628
  0
LINE
  5
2E1
100
AcDbEntity
  8
0
100
AcDbLine
 62
4
  6
CONTINUOUS
 10
10.6105683695
 20
10.5538234166
 11
10.6208149593
 21
10.5408637178
  0
LINE
  5
2E2
100
AcDbEntity
  8
0
100
AcDbLine
 62
7
  6
CONTINUOUS
 10
14.3855366278
 20
9.4098758508
 11
15.2264133263
 21
9.3515608537
  0
LINE
  5
2E3
100
AcDbEntity
  8
0
100
AcDbLine
 62
4
  6
CONTINUOUS
 10
10.8788943014
 20
10.7901492343
 11
10.8891408904
 21
10.7771895366
  0
LINE
  5
2E4
100
AcDbEntity
  8
0
100
AcDbLine
 62
7
  6
CONTINUOUS
 10
14.3855366278
 20
9.4098758508
 11
14.1588582723
 21
9.1909213599
  0
LINE
  5
2E5
100
AcDbEntity
  8
0
100
AcDbLine
 62
4
  6
CONTINUOUS
 10
12.4939695974
 20
10.4077637309
 11
12.4804280561
 21
10.4046836057
  0
LINE
  5
2E6
100
AcDbEntity
  8
0
100
AcDbLine
 62
4
  6
CONTINUOUS
 10
12.3819407763
 20
10.4195521902
 11
12.395482315
 21
10.4226323156
  0
LINE
  5
2E7
100
AcDbEntity
  8
0
100
AcDbLine
 62
4
  6
CONTINUOUS
 10
12.4804280561
 20
10.4046836057
 11
12.4572272568
 21
10.4022733524
  0
LINE
  5
2E8
100
AcDbEntity
  8
0
100
AcDbLine
 62
4
  6
CONTINUOUS
 10
12.395482315
 20
10.4226323156
 11
12.4070827195
 21
10.4238374419
  0
LINE
  5
2E9
100
AcDbEntity
  8
0
100
AcDbLine
 62
7
  6
CONTINUOUS
 10
6.6133684564
 20
10.2905388419
 11
13.3748496411
 21
9.8216285291
  0
LINE
  5
2EA
100
AcDbEntity
  8
0
100
AcDbLine
 62
4
  6
CONTINUOUS
 10
7.3664686795
 20
10.3079778929
 11
7.3761279358
 21
10.3073080212
  0
LINE
  5
2EB
100
AcDbEntity
  8
0
100
AcDbLine
 62
4
  6
CONTINUOUS
 10
11.5682462756
 20
10.0165836269
 11
11.684157379
 21
10.0085451645
  0
LINE
  5
2EC
100
AcDbEntity
  8
0
100
AcDbLine
 62
4
  6
CONTINUOUS
 10
7.426365369
 20
10.3058336605
 11
7.4360246287
 21
10.3051637885
  0
LINE
  5
2ED
100
AcDbEntity
  8
0
100
AcDbLine
 62
4
  6
CONTINUOUS
 10
10.6872091238
 20
10.5707098458
 11
10.69933096
 21
10.5652757832
  0
LINE
  5
2EE
100
AcDbEntity
  8
0
100
AcDbLine
 62
4
  6
CONTINUOUS
 10
10.5104589506
 20
10.7154108523
 11
10.5225807904
 21
10.7099767914
  0
LINE
  5
2EF
100
AcDbEntity
  8
0
100
AcDbLine
 62
4
  6
CONTINUOUS
 10
10.2438086461
 20
11.287275104
 11
10.2380316722
 21
11.2916949728
  0
LINE
  5
2F0
100
AcDbEntity
  8
0
100
AcDbLine
 62
4
  6
CONTINUOUS
 10
10.2940925323
 20
11.2958456074
 11
10.3056464836
 21
11.2870058697
  0
LINE
  5
2F1
100
AcDbEntity
  8
0
100
AcDbLine
 62
4
  6
CONTINUOUS
 10
10.5834198539
 20
10.5733142457
 11
10.6044154764
 21
10.5764516047
  0
LINE
  5
2F2
100
AcDbEntity
  8
0
100
AcDbLine
 62
4
  6
CONTINUOUS
 10
7.4398140161
 20
10.2888240566
 11
7.428213616
 21
10.28761893
  0
LINE
  5
2F3
100
AcDbEntity
  8
0
100
AcDbLine
 62
4
  6
CONTINUOUS
 10
7.4031645705
 20
10.3034234071
 11
7.426365369
 21
10.3058336605
  0
LINE
  5
2F4
100
AcDbEntity
  8
0
100
AcDbLine
 62
4
  6
CONTINUOUS
 10
7.3548682751
 20
10.3067727665
 11
7.3664686795
 21
10.3079778929
  0
LINE
  5
2F5
100
AcDbEntity
  8
0
100
AcDbLine
 62
4
  6
CONTINUOUS
 10
10.6093017365
 20
10.5983142259
 11
10.7340866342
 21
10.5988471885
  0
LINE
  5
2F6
100
AcDbEntity
  8
0
100
AcDbLine
 62
4
  6
CONTINUOUS
 10
12.4572272568
 20
10.4022733524
 11
12.4263083397
 21
10.4024079694
  0
LINE
  5
2F7
100
AcDbEntity
  8
0
100
AcDbLine
 62
4
  6
CONTINUOUS
 10
9.9452051601
 20
10.5688461536
 11
10.0031607131
 21
10.5648269224
  0
LINE
  5
2F8
100
AcDbEntity
  8
0
100
AcDbLine
 62
4
  6
CONTINUOUS
 10
10.018689843
 20
10.5798269109
 11
10.076645396
 21
10.5758076796
  0
LINE
  5
2F9
100
AcDbEntity
  8
0
100
AcDbLine
 62
4
  6
CONTINUOUS
 10
10.0844099609
 20
10.5833076739
 11
9.9684988549
 21
10.5913461364
  0
LINE
  5
2FA
100
AcDbEntity
  8
0
100
AcDbLine
 62
4
  6
CONTINUOUS
 10
12.4457197516
 20
10.4211579546
 11
12.4843567855
 21
10.4184784672
  0
LINE
  5
2FB
100
AcDbEntity
  8
0
100
AcDbLine
 62
4
  6
CONTINUOUS
 10
10.6882387259
 20
10.5545615072
 11
10.5723276199
 21
10.5625999697
  0
LINE
  5
2FC
100
AcDbEntity
  8
0
100
AcDbLine
 62
4
  6
CONTINUOUS
 10
9.9840279848
 20
10.6063461249
 11
10.0999390908
 21
10.5983076624
  0
LINE
  5
2FD
100
AcDbEntity
  8
0
100
AcDbLine
 62
4
  6
CONTINUOUS
 10
9.9917925497
 20
10.6138461191
 11
10.1077036557
 21
10.6058076566
  0
LINE
  5
2FE
100
AcDbEntity
  8
0
100
AcDbLine
 62
4
  6
CONTINUOUS
 10
10.6044154764
 20
10.5764516047
 11
10.6872091238
 21
10.5707098458
  0
LINE
  5
2FF
100
AcDbEntity
  8
0
100
AcDbLine
 62
4
  6
CONTINUOUS
 10
10.0073216796
 20
10.6288461076
 11
10.1232327856
 21
10.6208076451
  0
LINE
  5
300
100
AcDbEntity
  8
0
100
AcDbLine
 62
4
  6
CONTINUOUS
 10
10.1542910454
 20
10.6508076222
 11
10.0383799394
 21
10.6588460847
  0
LINE
  5
301
100
AcDbEntity
  8
0
100
AcDbLine
 62
4
  6
CONTINUOUS
 10
10.7518342101
 20
10.6159900315
 11
10.6359231041
 21
10.624028494
  0
LINE
  5
302
100
AcDbEntity
  8
0
100
AcDbLine
 62
4
  6
CONTINUOUS
 10
10.1698201753
 20
10.6658076107
 11
10.1118646223
 21
10.6698268419
  0
LINE
  5
303
100
AcDbEntity
  8
0
100
AcDbLine
 62
4
  6
CONTINUOUS
 10
10.5123589057
 20
10.6486746365
 11
10.3964477997
 21
10.656713099
  0
LINE
  5
304
100
AcDbEntity
  8
0
100
AcDbLine
 62
4
  6
CONTINUOUS
 10
10.7695817861
 20
10.6331328745
 11
10.6536706801
 21
10.641171337
  0
LINE
  5
305
100
AcDbEntity
  8
0
100
AcDbLine
 62
4
  6
CONTINUOUS
 10
10.1825022981
 20
10.6780576013
 11
10.124546745
 21
10.6820768325
  0
LINE
  5
306
100
AcDbEntity
  8
0
100
AcDbLine
 62
4
  6
CONTINUOUS
 10
10.1400758749
 20
10.697076821
 11
10.255986981
 21
10.6890383585
  0
LINE
  5
307
100
AcDbEntity
  8
0
100
AcDbLine
 62
4
  6
CONTINUOUS
 10
10.2083841812
 20
10.7030575821
 11
10.1504286282
 21
10.7070768134
  0
LINE
  5
308
100
AcDbEntity
  8
0
100
AcDbLine
 62
4
  6
CONTINUOUS
 10
10.4694973043
 20
10.692987794
 11
10.4529385759
 21
10.6941361458
  0
LINE
  5
309
100
AcDbEntity
  8
0
100
AcDbLine
 62
4
  6
CONTINUOUS
 10
10.1080022051
 20
10.7260960331
 11
10.2239133111
 21
10.7180575706
  0
LINE
  5
30A
100
AcDbEntity
  8
0
100
AcDbLine
 62
4
  6
CONTINUOUS
 10
10.799610453
 20
10.679281199
 11
10.7168168056
 21
10.6850229579
  0
LINE
  5
30B
100
AcDbEntity
  8
0
100
AcDbLine
 62
4
  6
CONTINUOUS
 10
10.5611647414
 20
10.6958174565
 11
10.4452536354
 21
10.703855919
  0
LINE
  5
30C
100
AcDbEntity
  8
0
100
AcDbLine
 62
4
  6
CONTINUOUS
 10
10.1763105113
 20
10.7320767942
 11
10.2342660644
 21
10.728057563
  0
LINE
  5
30D
100
AcDbEntity
  8
0
100
AcDbLine
 62
4
  6
CONTINUOUS
 10
10.4773414938
 20
10.7177075558
 11
10.5104589506
 21
10.7154108523
  0
LINE
  5
30E
100
AcDbEntity
  8
0
100
AcDbLine
 62
4
  6
CONTINUOUS
 10
12.4263083397
 20
10.4024079694
 11
12.399271705
 21
10.4062925835
  0
LINE
  5
30F
100
AcDbEntity
  8
0
100
AcDbLine
 62
4
  6
CONTINUOUS
 10
10.7163390545
 20
10.5817043419
 11
10.6093017365
 21
10.5983142259
  0
LINE
  5
310
100
AcDbEntity
  8
0
100
AcDbLine
 62
4
  6
CONTINUOUS
 10
10.4252876115
 20
10.6845702197
 11
10.4456888137
 21
10.6785619812
  0
LINE
  5
311
100
AcDbEntity
  8
0
100
AcDbLine
 62
4
  6
CONTINUOUS
 10
10.5367618236
 20
10.6722460465
 11
10.4694973043
 21
10.692987794
  0
LINE
  5
312
100
AcDbEntity
  8
0
100
AcDbLine
 62
4
  6
CONTINUOUS
 10
10.4737218692
 20
10.651354124
 11
10.4119769296
 21
10.6717130875
  0
LINE
  5
313
100
AcDbEntity
  8
0
100
AcDbLine
 62
4
  6
CONTINUOUS
 10
10.7168168056
 20
10.6850229579
 11
10.7046949693
 21
10.6904570186
  0
LINE
  5
314
100
AcDbEntity
  8
0
100
AcDbLine
 62
4
  6
CONTINUOUS
 10
10.7426986789
 20
10.7100229293
 11
10.7305768426
 21
10.7154569899
  0
LINE
  5
315
100
AcDbEntity
  8
0
100
AcDbLine
 62
4
  6
CONTINUOUS
 10
10.8410214562
 20
10.7192811588
 11
10.8531432942
 21
10.713847098
  0
LINE
  5
316
100
AcDbEntity
  8
0
100
AcDbLine
 62
4
  6
CONTINUOUS
 10
10.8654243703
 20
10.7428525652
 11
10.8775462084
 21
10.7374185044
  0
LINE
  5
317
100
AcDbEntity
  8
0
100
AcDbLine
 62
4
  6
CONTINUOUS
 10
14.2345164034
 20
7.1505215783
 11
14.230634121
 21
7.1564308402
  0
LINE
  5
318
100
AcDbEntity
  8
0
100
AcDbLine
 62
4
  6
CONTINUOUS
 10
14.2383986858
 20
7.2701826788
 11
14.2422809682
 21
7.2642734195
  0
LINE
  5
319
100
AcDbEntity
  8
0
100
AcDbLine
 62
4
  6
CONTINUOUS
 10
14.3296323219
 20
7.3583076093
 11
14.3335146043
 21
7.35239835
  0
LINE
  5
31A
100
AcDbEntity
  8
0
100
AcDbLine
 62
7
  6
CONTINUOUS
 10
13.3748496411
 20
9.8216285291
 11
13.3748496411
 21
5.4749620532
  0
LINE
  5
31B
100
AcDbEntity
  8
0
100
AcDbLine
 62
4
  6
CONTINUOUS
 10
7.4533555574
 20
10.2919041818
 11
7.4398140161
 21
10.2888240566
  0
LINE
  5
31C
100
AcDbEntity
  8
0
100
AcDbLine
 62
4
  6
CONTINUOUS
 10
10.8206060753
 20
10.6824185561
 11
10.799610453
 21
10.679281199
  0
LINE
  5
31D
100
AcDbEntity
  8
0
100
AcDbLine
 62
4
  6
CONTINUOUS
 10
10.8464879486
 20
10.7074185274
 11
10.8254923263
 21
10.7042811703
  0
LINE
  5
31E
100
AcDbEntity
  8
0
100
AcDbLine
 62
4
  6
CONTINUOUS
 10
10.7372321882
 20
10.7218855605
 11
10.7582278088
 21
10.7250229178
  0
LINE
  5
31F
100
AcDbEntity
  8
0
100
AcDbLine
 62
4
  6
CONTINUOUS
 10
10.4529385759
 20
10.6941361458
 11
10.4319429553
 21
10.6909987885
  0
LINE
  5
320
100
AcDbEntity
  8
0
100
AcDbLine
 62
4
  6
CONTINUOUS
 10
10.7616351023
 20
10.7454569669
 11
10.7826307229
 21
10.7485943242
  0
LINE
  5
321
100
AcDbEntity
  8
0
100
AcDbLine
 62
4
  6
CONTINUOUS
 10
10.4563458732
 20
10.7145701985
 11
10.4773414938
 21
10.7177075558
  0
LINE
  5
322
100
AcDbEntity
  8
0
100
AcDbLine
 62
4
  6
CONTINUOUS
 10
10.5181438946
 20
10.7056910789
 11
10.5766938713
 21
10.710817445
  0
LINE
  5
323
100
AcDbEntity
  8
0
100
AcDbLine
 62
4
  6
CONTINUOUS
 10
10.4527793265
 20
10.6596966104
 11
10.5278880356
 21
10.663674625
  0
LINE
  5
324
100
AcDbEntity
  8
0
100
AcDbLine
 62
4
  6
CONTINUOUS
 10
10.8254923263
 20
10.7042811703
 11
10.7426986789
 21
10.7100229293
  0
LINE
  5
325
100
AcDbEntity
  8
0
100
AcDbLine
 62
4
  6
CONTINUOUS
 10
10.2601479475
 20
10.7530575438
 11
10.2215109122
 21
10.7557370313
  0
LINE
  5
326
100
AcDbEntity
  8
0
100
AcDbLine
 62
4
  6
CONTINUOUS
 10
10.7582278088
 20
10.7250229178
 11
10.8410214562
 21
10.7192811588
  0
LINE
  5
327
100
AcDbEntity
  8
0
100
AcDbLine
 62
4
  6
CONTINUOUS
 10
10.8664539706
 20
10.7267042249
 11
10.7505428646
 21
10.7347426874
  0
LINE
  5
328
100
AcDbEntity
  8
0
100
AcDbLine
 62
4
  6
CONTINUOUS
 10
10.2177215244
 20
10.7720767636
 11
10.2756770774
 21
10.7680575323
  0
LINE
  5
329
100
AcDbEntity
  8
0
100
AcDbLine
 62
4
  6
CONTINUOUS
 10
10.2280742776
 20
10.7820767559
 11
10.2860298307
 21
10.7780575247
  0
LINE
  5
32A
100
AcDbEntity
  8
0
100
AcDbLine
 62
4
  6
CONTINUOUS
 10
10.7826307229
 20
10.7485943242
 11
10.8654243703
 21
10.7428525652
  0
LINE
  5
32B
100
AcDbEntity
  8
0
100
AcDbLine
 62
4
  6
CONTINUOUS
 10
10.3015589605
 20
10.7930575132
 11
10.2436034075
 21
10.7970767444
  0
LINE
  5
32C
100
AcDbEntity
  8
0
100
AcDbLine
 62
4
  6
CONTINUOUS
 10
10.8945543122
 20
10.7538470721
 11
10.7786432062
 21
10.7618855346
  0
LINE
  5
32D
100
AcDbEntity
  8
0
100
AcDbLine
 62
4
  6
CONTINUOUS
 10
10.3119117138
 20
10.8030575055
 11
10.1960006078
 21
10.811095968
  0
LINE
  5
32E
100
AcDbEntity
  8
0
100
AcDbLine
 62
4
  6
CONTINUOUS
 10
10.3222644671
 20
10.8130574979
 11
10.2643089141
 21
10.8170767291
  0
LINE
  5
32F
100
AcDbEntity
  8
0
100
AcDbLine
 62
4
  6
CONTINUOUS
 10
10.2746616673
 20
10.8270767215
 11
10.3326172203
 21
10.8230574902
  0
LINE
  5
330
100
AcDbEntity
  8
0
100
AcDbLine
 62
4
  6
CONTINUOUS
 10
10.3005435505
 20
10.8520767023
 11
10.329521327
 21
10.8500670867
  0
LINE
  5
331
100
AcDbEntity
  8
0
100
AcDbLine
 62
4
  6
CONTINUOUS
 10
10.3450504569
 20
10.8650670752
 11
10.3740282334
 21
10.8630574596
  0
LINE
  5
332
100
AcDbEntity
  8
0
100
AcDbLine
 62
4
  6
CONTINUOUS
 10
12.399271705
 20
10.4062925835
 11
12.3838354679
 21
10.4113823245
  0
LINE
  5
333
100
AcDbEntity
  8
0
100
AcDbLine
 62
4
  6
CONTINUOUS
 10
12.4843567855
 20
10.4184784672
 11
12.4920749033
 21
10.4159335968
  0
LINE
  5
334
100
AcDbEntity
  8
0
100
AcDbLine
 62
4
  6
CONTINUOUS
 10
10.2515267681
 20
11.2847302333
 11
10.2438086461
 21
11.287275104
  0
LINE
  5
335
100
AcDbEntity
  8
0
100
AcDbLine
 62
4
  6
CONTINUOUS
 10
10.3056464836
 20
11.2870058697
 11
10.3210827173
 21
11.281916129
  0
LINE
  5
336
100
AcDbEntity
  8
0
100
AcDbLine
 62
4
  6
CONTINUOUS
 10
10.2863744103
 20
11.2983904781
 11
10.2940925323
 21
11.2958456074
  0
LINE
  5
337
100
AcDbEntity
  8
0
100
AcDbLine
 62
4
  6
CONTINUOUS
 10
12.3838354679
 20
10.4113823245
 11
12.378058494
 21
10.4158021932
  0
LINE
  5
338
100
AcDbEntity
  8
0
100
AcDbLine
 62
4
  6
CONTINUOUS
 10
12.4920749033
 20
10.4159335968
 11
12.4978518798
 21
10.4115137279
  0
LINE
  5
339
100
AcDbEntity
  8
0
100
AcDbLine
 62
4
  6
CONTINUOUS
 10
7.3896230318
 20
10.3003432817
 11
7.4031645705
 21
10.3034234071
  0
LINE
  5
33A
100
AcDbEntity
  8
0
100
AcDbLine
 62
4
  6
CONTINUOUS
 10
7.3413267364
 20
10.3036926412
 11
7.3548682751
 21
10.3067727665
  0
LINE
  5
33B
100
AcDbEntity
  8
0
100
AcDbLine
 62
4
  6
CONTINUOUS
 10
10.2554554932
 20
11.2985250952
 11
10.2670558977
 21
11.2997302215
  0
LINE
  5
33C
100
AcDbEntity
  8
0
100
AcDbLine
 62
4
  6
CONTINUOUS
 10
10.2670558977
 20
11.2997302215
 11
10.2863744103
 21
11.2983904781
  0
LINE
  5
33D
100
AcDbEntity
  8
0
100
AcDbLine
 62
7
  6
CONTINUOUS
 10
7.8914158987
 20
11.5250379468
 11
14.6528970834
 21
11.056127634
  0
LINE
  5
33E
100
AcDbEntity
  8
0
100
AcDbLine
 62
4
  6
CONTINUOUS
 10
10.3210827173
 20
11.281916129
 11
10.348119352
 21
11.2780315149
  0
LINE
  5
33F
100
AcDbEntity
  8
0
100
AcDbLine
 62
4
  6
CONTINUOUS
 10
14.230634121
 20
7.1564308402
 11
14.2267518386
 21
7.1719993601
  0
LINE
  5
340
100
AcDbEntity
  8
0
100
AcDbLine
 62
4
  6
CONTINUOUS
 10
14.2422809682
 20
7.2642734195
 11
14.2442221094
 21
7.2564891548
  0
LINE
  5
341
100
AcDbEntity
  8
0
100
AcDbLine
 62
4
  6
CONTINUOUS
 10
14.2267518386
 20
7.1719993601
 11
14.2248106975
 21
7.1991021374
  0
LINE
  5
342
100
AcDbEntity
  8
0
100
AcDbLine
 62
7
  6
CONTINUOUS
 10
14.1467491681
 20
9.1531333465
 11
14.0334099904
 21
8.3110194911
  0
LINE
  5
343
100
AcDbEntity
  8
0
100
AcDbLine
 62
4
  6
CONTINUOUS
 10
14.2345164034
 20
7.2664326817
 11
14.2383986858
 21
7.2701826788
  0
LINE
  5
344
100
AcDbEntity
  8
0
100
AcDbLine
 62
4
  6
CONTINUOUS
 10
14.3218677571
 20
7.3508076152
 11
14.3296323219
 21
7.3583076093
  0
LINE
  5
345
100
AcDbEntity
  8
0
100
AcDbLine
 62
4
  6
CONTINUOUS
 10
14.3296323219
 20
7.2423965059
 11
14.3218677571
 21
7.2348965118
  0
LINE
  5
346
100
AcDbEntity
  8
0
100
AcDbLine
 62
4
  6
CONTINUOUS
 10
14.2383986858
 20
7.1542715753
 11
14.2345164034
 21
7.1505215783
  0
LINE
  5
347
100
AcDbEntity
  8
0
100
AcDbLine
 62
4
  6
CONTINUOUS
 10
10.2419139545
 20
11.2954449698
 11
10.2554554932
 21
11.2985250952
  0
LINE
  5
348
100
AcDbEntity
  8
0
100
AcDbLine
 62
4
  6
CONTINUOUS
 10
14.3335146043
 20
7.35239835
 11
14.3373968866
 21
7.3368298275
  0
LINE
  5
349
100
AcDbEntity
  8
0
100
AcDbLine
 62
7
  6
CONTINUOUS
 10
14.0334099904
 20
8.2588364584
 11
14.1467491681
 21
7.6356770938
  0
LINE
  5
34A
100
AcDbEntity
  8
0
100
AcDbLine
 62
4
  6
CONTINUOUS
 10
14.2597512389
 20
7.2908076625
 11
14.2752803685
 21
7.1898965472
  0
LINE
  5
34B
100
AcDbEntity
  8
0
100
AcDbLine
 62
4
  6
CONTINUOUS
 10
14.3373968866
 20
7.3368298275
 11
14.3393380278
 21
7.3097270502
  0
LINE
  5
34C
100
AcDbEntity
  8
0
100
AcDbLine
 62
4
  6
CONTINUOUS
 10
14.2985740628
 20
7.3283076329
 11
14.2985740628
 21
7.2123965295
  0
LINE
  5
34D
100
AcDbEntity
  8
0
100
AcDbLine
 62
4
  6
CONTINUOUS
 10
14.3218677571
 20
7.2348965118
 11
14.3218677571
 21
7.3508076152
  0
LINE
  5
34E
100
AcDbEntity
  8
0
100
AcDbLine
 62
4
  6
CONTINUOUS
 10
14.2248106975
 20
7.1991021374
 11
14.2267518386
 21
7.2299549118
  0
LINE
  5
34F
100
AcDbEntity
  8
0
100
AcDbLine
 62
4
  6
CONTINUOUS
 10
14.3393380278
 20
7.3097270502
 11
14.3373968866
 21
7.2788742758
  0
LINE
  5
350
100
AcDbEntity
  8
0
100
AcDbLine
 62
4
  6
CONTINUOUS
 10
14.2597512389
 20
7.1748965591
 11
14.2752803685
 21
7.3058076507
  0
LINE
  5
351
100
AcDbEntity
  8
0
100
AcDbLine
 62
4
  6
CONTINUOUS
 10
14.2267518386
 20
7.2299549118
 11
14.230634121
 21
7.2530234284
  0
LINE
  5
352
100
AcDbEntity
  8
0
100
AcDbLine
 62
4
  6
CONTINUOUS
 10
14.2442221094
 20
7.1792150887
 11
14.2422809682
 21
7.1676808313
  0
LINE
  5
353
100
AcDbEntity
  8
0
100
AcDbLine
 62
4
  6
CONTINUOUS
 10
14.3373968866
 20
7.2788742758
 11
14.3335146043
 21
7.2558057618
  0
LINE
  5
354
100
AcDbEntity
  8
0
100
AcDbLine
 62
4
  6
CONTINUOUS
 10
14.230634121
 20
7.2530234284
 11
14.2345164034
 21
7.2664326817
  0
LINE
  5
355
100
AcDbEntity
  8
0
100
AcDbLine
 62
4
  6
CONTINUOUS
 10
14.2422809682
 20
7.1676808313
 11
14.2383986858
 21
7.1542715753
  0
LINE
  5
356
100
AcDbEntity
  8
0
100
AcDbLine
 62
4
  6
CONTINUOUS
 10
14.3335146043
 20
7.2558057618
 11
14.3296323219
 21
7.2423965059
  0
LINE
  5
357
100
AcDbEntity
  8
0
100
AcDbLine
 62
7
  6
CONTINUOUS
 10
14.2639248264
 20
7.5931280415
 11
14.2757489588
 21
7.613175678
  0
LINE
  5
358
100
AcDbEntity
  8
0
100
AcDbLine
 62
7
  6
CONTINUOUS
 10
14.391335999
 20
9.4303413058
 11
14.4002796332
 21
9.4088534199
  0
LINE
  5
359
100
AcDbEntity
  8
0
100
AcDbLine
 62
7
  6
CONTINUOUS
 10
14.6528970834
 20
11.056127634
 11
14.6528970834
 21
9.3913343402
  0
LINE
  5
35A
100
AcDbEntity
  8
0
100
AcDbLine
 62
7
  6
CONTINUOUS
 10
14.6528970834
 20
7.5870203667
 11
14.6528970834
 21
6.7094611581
  0
LINE
  5
35B
100
AcDbEntity
  8
0
100
AcDbLine
 62
7
  6
CONTINUOUS
 10
13.3748496411
 20
5.4749620532
 11
14.6528970834
 21
6.7094611581
  0
LINE
  5
35C
100
AcDbEntity
  8
0
100
AcDbLine
 62
7
  6
CONTINUOUS
 10
15.2067381729
 20
7.7076450791
 11
15.2178365001
 21
7.7264621239
  0
LINE
  5
35D
100
AcDbEntity
  8
0
100
AcDbLine
 62
7
  6
CONTINUOUS
 10
15.2994578252
 20
9.2104638373
 11
15.3177110181
 21
9.1666088984
  0
ARC
  5
35E
100
AcDbEntity
  8
0
100
AcDbCircle
 62
7
  6
CONTINUOUS
 10
18.2442455039
 20
8.2264431899
 40
3.3700611375
100
AcDbArc
 50
179.5535163738
 51
179.998793708
  0
ARC
  5
35F
100
AcDbEntity
  8
0
100
AcDbCircle
 62
7
  6
CONTINUOUS
 10
17.3913408067
 20
8.2848051786
 40
3.3580331382
100
AcDbArc
 50
179.5527189095
 51
179.9995911722
  0
ARC
  5
360
100
AcDbEntity
  8
0
100
AcDbCircle
 62
7
  6
CONTINUOUS
 10
17.3283377309
 20
8.2848036892
 40
3.2950300625
100
AcDbArc
 50
179.9995574573
 51
180.4515370429
  0
ARC
  5
361
100
AcDbEntity
  8
0
100
AcDbCircle
 62
7
  6
CONTINUOUS
 10
18.1692144295
 20
8.2264886921
 40
3.2950300625
100
AcDbArc
 50
179.9995574573
 51
180.4515370429
  0
ARC
  5
362
100
AcDbEntity
  8
0
100
AcDbCircle
 62
7
  6
CONTINUOUS
 10
8.1321831825
 20
6.4679018677
 40
2.514396148
100
AcDbArc
 50
109.1702388033
 51
109.4815028365
  0
ARC
  5
363
100
AcDbEntity
  8
0
100
AcDbCircle
 62
7
  6
CONTINUOUS
 10
15.5631501466
 20
8.7200842577
 40
1.4811222925
100
AcDbArc
 50
161.4645031014
 51
162.999561535
  0
ARC
  5
364
100
AcDbEntity
  8
0
100
AcDbCircle
 62
7
  6
CONTINUOUS
 10
16.3686021861
 20
8.6731210319
 40
1.4439266679
100
AcDbArc
 50
161.4447302808
 51
163.0193343556
  0
ARC
  5
365
100
AcDbEntity
  8
0
100
AcDbCircle
 62
7
  6
CONTINUOUS
 10
12.1031274866
 20
8.4641564061
 40
0.6011276547
100
AcDbArc
 50
176.610356223
 51
179.9900123229
  0
ARC
  5
366
100
AcDbEntity
  8
0
100
AcDbCircle
 62
7
  6
CONTINUOUS
 10
14.4230588642
 20
7.74665358
 40
0.380575222
100
AcDbArc
 50
205.0282657947
 51
208.345057983
  0
ARC
  5
367
100
AcDbEntity
  8
0
100
AcDbCircle
 62
7
  6
CONTINUOUS
 10
14.5267933801
 20
9.2569979049
 40
0.3793987698
100
AcDbArc
 50
143.7191306495
 51
146.9493971241
  0
ARC
  5
368
100
AcDbEntity
  8
0
100
AcDbCircle
 62
7
  6
CONTINUOUS
 10
7.3824560378
 20
8.7617686517
 40
0.3526648967
100
AcDbArc
 50
312.1364489418
 51
313.2786622832
  0
ARC
  5
369
100
AcDbEntity
  8
0
100
AcDbCircle
 62
7
  6
CONTINUOUS
 10
7.3096555784
 20
8.8371346557
 40
0.3525498843
100
AcDbArc
 50
135.1223432666
 51
135.8764711908
  0
ARC
  5
36A
100
AcDbEntity
  8
0
100
AcDbCircle
 62
7
  6
CONTINUOUS
 10
7.3517606712
 20
8.7784696874
 40
0.2937714761
100
AcDbArc
 50
349.3352982742
 51
0.0339175012
  0
ARC
  5
36B
100
AcDbEntity
  8
0
100
AcDbCircle
 62
7
  6
CONTINUOUS
 10
7.3860783485
 20
8.8032508917
 40
0.2646469184
100
AcDbArc
 50
342.7030905753
 51
346.0662717051
  0
ARC
  5
36C
100
AcDbEntity
  8
0
100
AcDbCircle
 62
7
  6
CONTINUOUS
 10
7.351315368
 20
8.8392545312
 40
0.2646276762
100
AcDbArc
 50
101.8398892216
 51
105.2966339667
  0
ARC
  5
36D
100
AcDbEntity
  8
0
100
AcDbCircle
 62
7
  6
CONTINUOUS
 10
12.0401232631
 20
8.5053495447
 40
0.1719355759
100
AcDbArc
 50
231.3980466237
 51
238.3898879086
  0
SPLINE
  5
36E
100
AcDbEntity
  8
0
100
AcDbSpline
 62
7
  6
CONTINUOUS
 70
0
 71
3
 72
23
 73
19
 74
0
 42
0.0000001
 43
0.0000001
 44
0.0000000001
 40
0.0
 40
0.0
 40
0.0
 40
0.0
 40
0.077887548
 40
0.154543893
 40
0.2297412557
 40
0.3032906193
 40
0.3750185305
 40
0.4447516711
 40
0.5123181952
 40
0.5775570953
 40
0.640317502
 40
0.7004581263
 40
0.7578492766
 40
0.8123725124
 40
0.8639261342
 40
0.9124222333
 40
0.9577954785
 40
1.0
 40
1.0
 40
1.0
 40
1.0
 10
15.3866315436
 20
8.6545275028
 30
0.0
 10
15.3866315436
 20
8.6680123991
 30
0.0
 10
15.3864453197
 20
8.69476944
 30
0.0
 10
15.3855961222
 20
8.7345375015
 30
0.0
 10
15.3841800149
 20
8.7735380119
 30
0.0
 10
15.3822017582
 20
8.8116597352
 30
0.0
 10
15.3796663906
 20
8.8488004095
 30
0.0
 10
15.3765815744
 20
8.8848601355
 30
0.0
 10
15.3729553339
 20
8.9197403073
 30
0.0
 10
15.3687979051
 20
8.9533452947
 30
0.0
 10
15.364120954
 20
8.9855836027
 30
0.0
 10
15.3589371472
 20
9.0163676334
 30
0.0
 10
15.353261461
 20
9.0456137432
 30
0.0
 10
15.3471087401
 20
9.0732425756
 30
0.0
 10
15.3404972137
 20
9.0991794211
 30
0.0
 10
15.3334436548
 20
9.1233546529
 30
0.0
 10
15.3259692905
 20
9.1457029478
 30
0.0
 10
15.3205197999
 20
9.1598600377
 30
0.0
 10
15.31771203
 20
9.1666060397
 30
0.0
  0
SPLINE
  5
36F
100
AcDbEntity
  8
0
100
AcDbSpline
 62
7
  6
CONTINUOUS
 70
0
 71
3
 72
9
 73
5
 74
0
 42
0.0000001
 43
0.0000001
 44
0.0000000001
 40
0.0
 40
0.0
 40
0.0
 40
0.0
 40
0.5137008699
 40
1.0
 40
1.0
 40
1.0
 40
1.0
 10
15.2385224305
 20
9.3371658345
 30
0.0
 10
15.2365922943
 20
9.3397463697
 30
0.0
 10
15.2327022203
 20
9.3446723736
 30
0.0
 10
15.2285219248
 20
9.3493562942
 30
0.0
 10
15.2264133263
 20
9.3515608537
 30
0.0
  0
SPLINE
  5
370
100
AcDbEntity
  8
0
100
AcDbSpline
 62
7
  6
CONTINUOUS
 70
0
 71
3
 72
21
 73
17
 74
0
 42
0.0000001
 43
0.0000001
 44
0.0000000001
 40
0.0
 40
0.0
 40
0.0
 40
0.0
 40
0.1581869057
 40
0.2342974008
 40
0.3082392483
 40
0.3798849882
 40
0.4491168141
 40
0.5158285755
 40
0.5799364107
 40
0.6413821077
 40
0.7001400376
 40
0.7562247425
 40
0.8096897679
 40
0.9091706631
 40
0.9555655171
 40
1.0
 40
1.0
 40
1.0
 40
1.0
 10
14.9997349708
 20
7.5629670775
 30
0.0
 10
15.0121336107
 20
7.5684545284
 30
0.0
 10
15.0303907855
 20
7.5768303918
 30
0.0
 10
15.0541055965
 20
7.5884793587
 30
0.0
 10
15.0709946561
 20
7.5971918108
 30
0.0
 10
15.0871690297
 20
7.6059943376
 30
0.0
 10
15.1025826771
 20
7.6148875372
 30
0.0
 10
15.1171905159
 20
7.6238719203
 30
0.0
 10
15.1309503887
 20
7.6329463933
 30
0.0
 10
15.1438244238
 20
7.6421090137
 30
0.0
 10
15.1557792097
 20
7.6513572246
 30
0.0
 10
15.1667904452
 20
7.6606870597
 30
0.0
 10
15.1798723455
 20
7.6729352686
 30
0.0
 10
15.1914056705
 20
7.6856085088
 30
0.0
 10
15.2011399778
 20
7.6987104136
 30
0.0
 10
15.2053420108
 20
7.7052738858
 30
0.0
 10
15.2072748457
 20
7.7085556139
 30
0.0
  0
SPLINE
  5
371
100
AcDbEntity
  8
0
100
AcDbSpline
 62
7
  6
CONTINUOUS
 70
0
 71
3
 72
9
 73
5
 74
0
 42
0.0000001
 43
0.0000001
 44
0.0000000001
 40
0.0
 40
0.0
 40
0.0
 40
0.0
 40
0.4954682768
 40
1.0
 40
1.0
 40
1.0
 40
1.0
 10
15.2995955997
 20
9.2101326182
 30
0.0
 10
15.2906447787
 20
9.2316299741
 30
0.0
 10
15.2712702297
 20
9.2744798107
 30
0.0
 10
15.2497863704
 20
9.3162996618
 30
0.0
 10
15.2385224305
 20
9.3371658345
 30
0.0
  0
SPLINE
  5
372
100
AcDbEntity
  8
0
100
AcDbSpline
 62
7
  6
CONTINUOUS
 70
0
 71
3
 72
28
 73
24
 74
0
 42
0.0000001
 43
0.0000001
 44
0.0000000001
 40
0.0
 40
0.0
 40
0.0
 40
0.0
 40
0.0188529983
 40
0.0388813969
 40
0.0600730311
 40
0.082411071
 40
0.1058723771
 40
0.1304291914
 40
0.1560506674
 40
0.1827008701
 40
0.2103416943
 40
0.2389318129
 40
0.2987780357
 40
0.3618602847
 40
0.4277640086
 40
0.4960469277
 40
0.5662445243
 40
0.6378747072
 40
0.7104428967
 40
0.7834463883
 40
0.8563743541
 40
0.9287318806
 40
1.0
 40
1.0
 40
1.0
 40
1.0
 10
15.2178406332
 20
7.7264693449
 30
0.0
 10
15.2208772091
 20
7.7316179273
 30
0.0
 10
15.2269053188
 20
7.7423754779
 30
0.0
 10
15.2355824538
 20
7.7593344109
 30
0.0
 10
15.2441543632
 20
7.7775752927
 30
0.0
 10
15.2526040559
 20
7.7970648252
 30
0.0
 10
15.2609164251
 20
7.8177673344
 30
0.0
 10
15.2690762669
 20
7.8396447844
 30
0.0
 10
15.2770676328
 20
7.8626571413
 30
0.0
 10
15.2848765326
 20
7.8867617993
 30
0.0
 10
15.2924879879
 20
7.9119144404
 30
0.0
 10
15.3025071998
 20
7.9473283903
 30
0.0
 10
15.3143911638
 20
7.9938837199
 30
0.0
 10
15.3274455143
 20
8.0523204776
 30
0.0
 10
15.3394037507
 20
8.1137182617
 30
0.0
 10
15.3501764751
 20
8.1776231645
 30
0.0
 10
15.3596831314
 20
8.2435630449
 30
0.0
 10
15.3678527742
 20
8.3110502939
 30
0.0
 10
15.3746244107
 20
8.37958592
 30
0.0
 10
15.3799473097
 20
8.4486618181
 30
0.0
 10
15.3837830289
 20
8.517769467
 30
0.0
 10
15.3861018992
 20
8.5863938547
 30
0.0
 10
15.3866315436
 20
8.6319319255
 30
0.0
 10
15.3866315436
 20
8.6545275028
 30
0.0
  0
SPLINE
  5
373
100
AcDbEntity
  8
0
100
AcDbSpline
 62
7
  6
CONTINUOUS
 70
0
 71
3
 72
22
 73
18
 74
0
 42
0.0000001
 43
0.0000001
 44
0.0000000001
 40
0.0
 40
0.0
 40
0.0
 40
0.0
 40
0.0447985033
 40
0.0908434601
 40
0.1384886248
 40
0.1880507296
 40
0.2398066504
 40
0.2939920578
 40
0.3508070902
 40
0.4104206973
 40
0.472972447
 40
0.538572974
 40
0.6073115423
 40
0.6792600091
 40
0.7544735445
 40
0.8329889513
 40
1.0
 40
1.0
 40
1.0
 40
1.0
 10
14.2974112075
 20
9.5443799123
 30
0.0
 10
14.2995986668
 20
9.5437591065
 30
0.0
 10
14.303974101
 20
9.5422773911
 30
0.0
 10
14.3103983173
 20
9.5394015012
 30
0.0
 10
14.3167538105
 20
9.5358508405
 30
0.0
 10
14.3230356597
 20
9.5316289321
 30
0.0
 10
14.3292403913
 20
9.5267393335
 30
0.0
 10
14.3353649298
 20
9.5211865271
 30
0.0
 10
14.341406026
 20
9.5149745598
 30
0.0
 10
14.3473602028
 20
9.5081073785
 30
0.0
 10
14.3532238608
 20
9.5005893139
 30
0.0
 10
14.3589939582
 20
9.4924256401
 30
0.0
 10
14.3646670579
 20
9.4836216533
 30
0.0
 10
14.370239516
 20
9.4741828027
 30
0.0
 10
14.3757077424
 20
9.4641148698
 30
0.0
 10
14.3830059944
 20
9.4495601878
 30
0.0
 10
14.3880785953
 20
9.4381675324
 30
0.0
 10
14.3913359817
 20
9.4303413466
 30
0.0
  0
SPLINE
  5
374
100
AcDbEntity
  8
0
100
AcDbSpline
 62
7
  6
CONTINUOUS
 70
0
 71
3
 72
21
 73
17
 74
0
 42
0.0000001
 43
0.0000001
 44
0.0000000001
 40
0.0
 40
0.0
 40
0.0
 40
0.0
 40
0.0448173895
 40
0.0908992496
 40
0.1881284667
 40
0.2399392845
 40
0.2941774899
 40
0.3510387178
 40
0.4106877088
 40
0.4732622237
 40
0.5388728232
 40
0.6076061668
 40
0.6795315477
 40
0.7547036635
 40
0.8331610391
 40
1.0
 40
1.0
 40
1.0
 40
1.0
 10
14.1556318562
 20
7.4932137195
 30
0.0
 10
14.1578755444
 20
7.493541353
 30
0.0
 10
14.1623960998
 20
7.494432724
 30
0.0
 10
14.1715317333
 20
7.4971418839
 30
0.0
 10
14.1805842189
 20
7.5012105542
 30
0.0
 10
14.1894482686
 20
7.5064354976
 30
0.0
 10
14.196251579
 20
7.5111003349
 30
0.0
 10
14.2030619406
 20
7.5164230665
 30
0.0
 10
14.2098769113
 20
7.5224006297
 30
0.0
 10
14.21669193
 20
7.5290293003
 30
0.0
 10
14.2235031425
 20
7.5363047217
 30
0.0
 10
14.2303066466
 20
7.5442218807
 30
0.0
 10
14.2370982246
 20
7.5527757486
 30
0.0
 10
14.2438735876
 20
7.5619612489
 30
0.0
 10
14.2530688096
 20
7.5753179276
 30
0.0
 10
14.2596368305
 20
7.5858580252
 30
0.0
 10
14.2639251123
 20
7.5931286154
 30
0.0
  0
SPLINE
  5
375
100
AcDbEntity
  8
0
100
AcDbSpline
 62
7
  6
CONTINUOUS
 70
0
 71
3
 72
36
 73
32
 74
0
 42
0.0000001
 43
0.0000001
 44
0.0000000001
 40
0.0
 40
0.0
 40
0.0
 40
0.0
 40
0.0058945795
 40
0.0117781123
 40
0.0177445724
 40
0.0238832138
 40
0.0369723265
 40
0.0440719815
 40
0.0515996111
 40
0.0680648107
 40
0.0865819314
 40
0.1072389106
 40
0.1300585457
 40
0.155010147
 40
0.1820207274
 40
0.2109948699
 40
0.2418061937
 40
0.2743161022
 40
0.3083717578
 40
0.3804483902
 40
0.4567133466
 40
0.4960020585
 40
0.5358403276
 40
0.5760672179
 40
0.6165315617
 40
0.6975558971
 40
0.7777194888
 40
0.8557787362
 40
0.930382681
 40
0.9659192409
 40
1.0
 40
1.0
 40
1.0
 40
1.0
 10
11.963266055
 20
7.9860719904
 30
0.0
 10
11.9631366861
 20
7.9866464639
 30
0.0
 10
11.9629543598
 20
7.9878131897
 30
0.0
 10
11.9629225405
 20
7.9895907991
 30
0.0
 10
11.9631330462
 20
7.9913809345
 30
0.0
 10
11.9637475535
 20
7.99382769
 30
0.0
 10
11.9648571815
 20
7.9962404762
 30
0.0
 10
11.9663685089
 20
7.9985629369
 30
0.0
 10
11.9682898115
 20
8.0010086248
 30
0.0
 10
11.9713133668
 20
8.0040136772
 30
0.0
 10
11.9757301119
 20
8.0074066219
 30
0.0
 10
11.9810134452
 20
8.0106558719
 30
0.0
 10
11.9871326532
 20
8.0137192467
 30
0.0
 10
11.9940494564
 20
8.0165578802
 30
0.0
 10
12.0017190239
 20
8.0191337547
 30
0.0
 10
12.0100909946
 20
8.0214076459
 30
0.0
 10
12.0191079288
 20
8.0233516572
 30
0.0
 10
12.02870995
 20
8.0249337728
 30
0.0
 10
12.0424675731
 20
8.0265661486
 30
0.0
 10
12.0606838271
 20
8.027543998
 30
0.0
 10
12.0794397534
 20
8.0271525605
 30
0.0
 10
12.0949262449
 20
8.0260508529
 30
0.0
 10
12.1067882631
 20
8.0248233488
 30
0.0
 10
12.1187228833
 20
8.0232144956
 30
0.0
 10
12.1346649998
 20
8.0205877902
 30
0.0
 10
12.1543961452
 20
8.0164726759
 30
0.0
 10
12.1775161878
 20
8.0103756722
 30
0.0
 10
12.1996932911
 20
8.0033344143
 30
0.0
 10
12.2173243548
 20
7.9967822375
 30
0.0
 10
12.2306308626
 20
7.9912551733
 30
0.0
 10
12.2369831189
 20
7.9884213716
 30
0.0
 10
12.2400725855
 20
7.986990768
 30
0.0
  0
SPLINE
  5
376
100
AcDbEntity
  8
0
100
AcDbSpline
 62
7
  6
CONTINUOUS
 70
0
 71
3
 72
9
 73
5
 74
0
 42
0.0000001
 43
0.0000001
 44
0.0000000001
 40
0.0
 40
0.0
 40
0.0
 40
0.0
 40
0.5137008699
 40
1.0
 40
1.0
 40
1.0
 40
1.0
 10
14.9876258667
 20
7.5773620967
 30
0.0
 10
14.9895560029
 20
7.5747815615
 30
0.0
 10
14.9934460768
 20
7.5698555576
 30
0.0
 10
14.9976263724
 20
7.565171637
 30
0.0
 10
14.9997349708
 20
7.5629670775
 30
0.0
  0
SPLINE
  5
377
100
AcDbEntity
  8
0
100
AcDbSpline
 62
7
  6
CONTINUOUS
 70
0
 71
3
 72
23
 73
19
 74
0
 42
0.0000001
 43
0.0000001
 44
0.0000000001
 40
0.0
 40
0.0
 40
0.0
 40
0.0
 40
0.0430157778
 40
0.086354693
 40
0.1305214035
 40
0.1761197174
 40
0.2238111798
 40
0.2742628933
 40
0.3280895723
 40
0.3857949322
 40
0.4477353844
 40
0.514108715
 40
0.5849549498
 40
0.6601783147
 40
0.7395814076
 40
0.8228946623
 40
0.9098102043
 40
1.0
 40
1.0
 40
1.0
 40
1.0
 10
15.2264133263
 20
9.3515608537
 30
0.0
 10
15.2265161933
 20
9.3467738005
 30
0.0
 10
15.2262737654
 20
9.3371465604
 30
0.0
 10
15.2244140905
 20
9.322710659
 30
0.0
 10
15.220909744
 20
9.3082825151
 30
0.0
 10
15.2156181853
 20
9.2938906492
 30
0.0
 10
15.2084157238
 20
9.2795660851
 30
0.0
 10
15.1992057106
 20
9.2653401507
 30
0.0
 10
15.1879219139
 20
9.2512417075
 30
0.0
 10
15.1745357151
 20
9.2372937027
 30
0.0
 10
15.1590566211
 20
9.2235133418
 30
0.0
 10
15.1415303151
 20
9.2099148357
 30
0.0
 10
15.1220378989
 20
9.1965074234
 30
0.0
 10
15.1006895604
 20
9.1832954919
 30
0.0
 10
15.077615356
 20
9.1702807773
 30
0.0
 10
15.0529575405
 20
9.1574605862
 30
0.0
 10
15.0268632496
 20
9.1448290009
 30
0.0
 10
15.0089152115
 20
9.1366693989
 30
0.0
 10
14.9997349708
 20
9.1326063628
 30
0.0
  0
SPLINE
  5
378
100
AcDbEntity
  8
0
100
AcDbSpline
 62
7
  6
CONTINUOUS
 70
0
 71
3
 72
21
 73
17
 74
0
 42
0.0000001
 43
0.0000001
 44
0.0000000001
 40
0.0
 40
0.0
 40
0.0
 40
0.0
 40
0.1231060406
 40
0.1848237375
 40
0.2466645184
 40
0.3086395644
 40
0.3707590064
 40
0.4330312441
 40
0.495460691
 40
0.5580484578
 40
0.6207919038
 40
0.6836843127
 40
0.7467167836
 40
0.809878012
 40
0.8731552189
 40
1.0
 40
1.0
 40
1.0
 40
1.0
 10
14.9876258667
 20
9.0948183494
 30
0.0
 10
14.9924550716
 20
9.0598123167
 30
0.0
 10
14.9983997161
 20
9.0070571596
 30
0.0
 10
15.0031648494
 20
8.9364035956
 30
0.0
 10
15.0050223365
 20
8.8831680793
 30
0.0
 10
15.0050265987
 20
8.8297841
 30
0.0
 10
15.0030638567
 20
8.7763109218
 30
0.0
 10
14.9990453061
 20
8.7228212076
 30
0.0
 10
14.9929198785
 20
8.6693959304
 30
0.0
 10
14.9846790117
 20
8.6161190761
 30
0.0
 10
14.9743539798
 20
8.563071827
 30
0.0
 10
14.9620168308
 20
8.5103260466
 30
0.0
 10
14.9477741256
 20
8.4579398107
 30
0.0
 10
14.9317533942
 20
8.4059550127
 30
0.0
 10
14.9081954777
 20
8.3371635634
 30
0.0
 10
14.8883214312
 20
8.2863016696
 30
0.0
 10
14.8742866889
 20
8.2527044939
 30
0.0
  0
SPLINE
  5
379
100
AcDbEntity
  8
0
100
AcDbSpline
 62
7
  6
CONTINUOUS
 70
0
 71
3
 72
23
 73
19
 74
0
 42
0.0000001
 43
0.0000001
 44
0.0000000001
 40
0.0
 40
0.0
 40
0.0
 40
0.0
 40
0.0681699712
 40
0.1356231914
 40
0.2022981052
 40
0.2681450185
 40
0.3331245856
 40
0.3972161392
 40
0.460421847
 40
0.5227692631
 40
0.5843122542
 40
0.6451262748
 40
0.7053024714
 40
0.7649410449
 40
0.8241416455
 40
0.8829976249
 40
0.9415942517
 40
1.0
 40
1.0
 40
1.0
 40
1.0
 10
14.8742866889
 20
8.2005214613
 30
0.0
 10
14.8812795382
 20
8.1875673794
 30
0.0
 10
14.8948650578
 20
8.1616170203
 30
0.0
 10
14.9140059407
 20
8.122340917
 30
0.0
 10
14.931663419
 20
8.0829229122
 30
0.0
 10
14.9476888782
 20
8.0433875955
 30
0.0
 10
14.9619398891
 20
8.0037688511
 30
0.0
 10
14.9742883437
 20
7.9641114427
 30
0.0
 10
14.9846270117
 20
7.9244685904
 30
0.0
 10
14.9928824237
 20
7.8849008697
 30
0.0
 10
14.9990217116
 20
7.8454719901
 30
0.0
 10
15.0030520939
 20
7.8062433645
 30
0.0
 10
15.0050237125
 20
7.7672700727
 30
0.0
 10
15.0050250793
 20
7.7285966483
 30
0.0
 10
15.0031704171
 20
7.6902548555
 30
0.0
 10
14.9995934883
 20
7.6522630012
 30
0.0
 10
14.9944385726
 20
7.614628545
 30
0.0
 10
14.9900399722
 20
7.5897413731
 30
0.0
 10
14.9876258667
 20
7.5773620967
 30
0.0
  0
SPLINE
  5
37A
100
AcDbEntity
  8
0
100
AcDbSpline
 62
7
  6
CONTINUOUS
 70
0
 71
3
 72
21
 73
17
 74
0
 42
0.0000001
 43
0.0000001
 44
0.0000000001
 40
0.0
 40
0.0
 40
0.0
 40
0.0
 40
0.0723519082
 40
0.141165103
 40
0.2693778227
 40
0.3297134318
 40
0.3881613266
 40
0.4452932943
 40
0.5017244346
 40
0.5580937133
 40
0.615040981
 40
0.673185954
 40
0.7331085521
 40
0.8601998366
 40
0.92835026
 40
1.0
 40
1.0
 40
1.0
 40
1.0
 10
14.1588582723
 20
7.6212820746
 30
0.0
 10
14.1607452482
 20
7.6193092236
 30
0.0
 10
14.164548227
 20
7.6155720551
 30
0.0
 10
14.1722830012
 20
7.6089711737
 30
0.0
 10
14.1803844039
 20
7.6035145084
 30
0.0
 10
14.1887857161
 20
7.5994508868
 30
0.0
 10
14.1950305671
 20
7.5971662212
 30
0.0
 10
14.2013390016
 20
7.5955881048
 30
0.0
 10
14.2077050265
 20
7.5947196784
 30
0.0
 10
14.2141211285
 20
7.5945620175
 30
0.0
 10
14.2205797391
 20
7.5951146
 30
0.0
 10
14.2270741832
 20
7.5963764776
 30
0.0
 10
14.235942697
 20
7.5990521741
 30
0.0
 10
14.2447177177
 20
7.6031536191
 30
0.0
 10
14.2532889701
 20
7.6084486823
 30
0.0
 10
14.2575712417
 20
7.6115383738
 30
0.0
 10
14.259712656
 20
7.6131885885
 30
0.0
  0
SPLINE
  5
37B
100
AcDbEntity
  8
0
100
AcDbSpline
 62
7
  6
CONTINUOUS
 70
0
 71
3
 72
37
 73
33
 74
0
 42
0.0000001
 43
0.0000001
 44
0.0000000001
 40
0.0
 40
0.0
 40
0.0
 40
0.0
 40
0.0242958757
 40
0.0472720491
 40
0.06906547
 40
0.0898420657
 40
0.1098025191
 40
0.1291772502
 40
0.1482195591
 40
0.1671969267
 40
0.1863790917
 40
0.2060268442
 40
0.2263816435
 40
0.2476578252
 40
0.2700406061
 40
0.2936856295
 40
0.3187193724
 40
0.3452443247
 40
0.3733422379
 40
0.4030747875
 40
0.4344887667
 40
0.4676191269
 40
0.5024882474
 40
0.5391092416
 40
0.5774886204
 40
0.6176242977
 40
0.6595071409
 40
0.7031242385
 40
0.748458767
 40
0.7954901579
 40
0.8945412347
 40
1.0
 40
1.0
 40
1.0
 40
1.0
 10
14.3855366278
 20
9.4098758508
 30
0.0
 10
14.3834328077
 20
9.4120754144
 30
0.0
 10
14.3791897082
 20
9.4162159697
 30
0.0
 10
14.3725292872
 20
9.4217540658
 30
0.0
 10
14.3657649675
 20
9.4264305306
 30
0.0
 10
14.3589022361
 20
9.4302365633
 30
0.0
 10
14.3519475288
 20
9.4331655362
 30
0.0
 10
14.344908288
 20
9.4352116528
 30
0.0
 10
14.3377934001
 20
9.4363690862
 30
0.0
 10
14.3306138698
 20
9.4366351441
 30
0.0
 10
14.323381099
 20
9.4360104648
 30
0.0
 10
14.316105842
 20
9.43449708
 30
0.0
 10
14.3087974437
 20
9.4320996579
 30
0.0
 10
14.3014630595
 20
9.4288248101
 30
0.0
 10
14.29410898
 20
9.4246780187
 30
0.0
 10
14.2867410988
 20
9.4196648082
 30
0.0
 10
14.2793644654
 20
9.4137917241
 30
0.0
 10
14.2719847626
 20
9.4070646037
 30
0.0
 10
14.2646082819
 20
9.3994895017
 30
0.0
 10
14.2572407063
 20
9.3910739871
 30
0.0
 10
14.2498883521
 20
9.381825807
 30
0.0
 10
14.2425581704
 20
9.3717531086
 30
0.0
 10
14.2352564933
 20
9.3608654247
 30
0.0
 10
14.2279898753
 20
9.3491729068
 30
0.0
 10
14.2207654864
 20
9.3366861703
 30
0.0
 10
14.2135900119
 20
9.3234171085
 30
0.0
 10
14.2064700165
 20
9.3093785567
 30
0.0
 10
14.1994125596
 20
9.2945836523
 30
0.0
 10
14.1924242438
 20
9.2790460429
 30
0.0
 10
14.1830445265
 20
9.2569748981
 30
0.0
 10
14.1715770618
 20
9.227615236
 30
0.0
 10
14.1630646782
 20
9.2034453494
 30
0.0
 10
14.1588582723
 20
9.1909213599
 30
0.0
  0
SPLINE
  5
37C
100
AcDbEntity
  8
0
100
AcDbSpline
 62
7
  6
CONTINUOUS
 70
0
 71
3
 72
29
 73
25
 74
0
 42
0.0000001
 43
0.0000001
 44
0.0000000001
 40
0.0
 40
0.0
 40
0.0
 40
0.0
 40
0.0845029209
 40
0.1672060512
 40
0.2477928116
 40
0.3259955312
 40
0.4015490781
 40
0.4741967172
 40
0.5437011092
 40
0.6098423629
 40
0.6724190906
 40
0.7312544691
 40
0.759222048
 40
0.7862006128
 40
0.8121758414
 40
0.8371363988
 40
0.8610738044
 40
0.8839816691
 40
0.9058577403
 40
0.9267048499
 40
0.9465294736
 40
0.9653422397
 40
0.9831585626
 40
1.0
 40
1.0
 40
1.0
 40
1.0
 10
14.0334099904
 20
8.2588364584
 30
0.0
 10
14.0335526083
 20
8.2407947057
 30
0.0
 10
14.0341321045
 20
8.2050969996
 30
0.0
 10
14.0359140455
 20
8.1522177952
 30
0.0
 10
14.0385944082
 20
8.100723067
 30
0.0
 10
14.0421622654
 20
8.0508122653
 30
0.0
 10
14.0466032575
 20
8.0026732411
 30
0.0
 10
14.0519007201
 20
7.956489354
 30
0.0
 10
14.0580337056
 20
7.9124365958
 30
0.0
 10
14.0649779773
 20
7.8706818683
 30
0.0
 10
14.0727072439
 20
7.8313839131
 30
0.0
 10
14.0798925902
 20
7.8003019765
 30
0.0
 10
14.0860418967
 20
7.7767980727
 30
0.0
 10
14.0907528221
 20
7.7601737524
 30
0.0
 10
14.0956365519
 20
7.7442697015
 30
0.0
 10
14.1006884014
 20
7.7291009662
 30
0.0
 10
14.1059031612
 20
7.7146818156
 30
0.0
 10
14.1112761127
 20
7.7010259608
 30
0.0
 10
14.1168024178
 20
7.6881461545
 30
0.0
 10
14.122476768
 20
7.6760539318
 30
0.0
 10
14.1282942658
 20
7.664760463
 30
0.0
 10
14.1342498024
 20
7.6542766447
 30
0.0
 10
14.14033641
 20
7.6446131268
 30
0.0
 10
14.1445954292
 20
7.6385565792
 30
0.0
 10
14.1467491681
 20
7.6356770938
 30
0.0
  0
SPLINE
  5
37D
100
AcDbEntity
  8
0
100
AcDbSpline
 62
7
  6
CONTINUOUS
 70
0
 71
3
 72
23
 73
19
 74
0
 42
0.0000001
 43
0.0000001
 44
0.0000000001
 40
0.0
 40
0.0
 40
0.0
 40
0.0
 40
0.0516336942
 40
0.1056802294
 40
0.1619477426
 40
0.2202552621
 40
0.2804049373
 40
0.3421879345
 40
0.4053888783
 40
0.4697856779
 40
0.5351505224
 40
0.6012507051
 40
0.6678508709
 40
0.7347134147
 40
0.8015970733
 40
0.8682636889
 40
0.934483684
 40
1.0
 40
1.0
 40
1.0
 40
1.0
 10
14.1467491681
 20
9.1531333465
 30
0.0
 10
14.14245777
 20
9.1391055287
 30
0.0
 10
14.1340738424
 20
9.110271026
 30
0.0
 10
14.1223187415
 20
9.0657832233
 30
0.0
 10
14.1111312956
 20
9.019197076
 30
0.0
 10
14.1005547823
 20
8.97069272
 30
0.0
 10
14.0906289548
 20
8.9204530434
 30
0.0
 10
14.0813926132
 20
8.8686694824
 30
0.0
 10
14.0728809585
 20
8.8155396835
 30
0.0
 10
14.0651264553
 20
8.7612660867
 30
0.0
 10
14.0581592569
 20
8.7060555978
 30
0.0
 10
14.0520056058
 20
8.6501187908
 30
0.0
 10
14.0466892164
 20
8.5936688524
 30
0.0
 10
14.042230689
 20
8.5369214335
 30
0.0
 10
14.0386464718
 20
8.4800931894
 30
0.0
 10
14.0359505489
 20
8.4233985735
 30
0.0
 10
14.0341536191
 20
8.3670571314
 30
0.0
 10
14.033554912
 20
8.3296326451
 30
0.0
 10
14.0334099904
 20
8.3110194911
 30
0.0
  0
SPLINE
  5
37E
100
AcDbEntity
  8
0
100
AcDbSpline
 62
7
  6
CONTINUOUS
 70
0
 71
3
 72
11
 73
7
 74
0
 42
0.0000001
 43
0.0000001
 44
0.0000000001
 40
0.0
 40
0.0
 40
0.0
 40
0.0
 40
0.2702526429
 40
0.5269256595
 40
0.77011137
 40
1.0
 40
1.0
 40
1.0
 40
1.0
 10
15.31771203
 20
9.1666060397
 30
0.0
 10
15.3160606338
 20
9.1705737157
 30
0.0
 10
15.3127173551
 20
9.1782592241
 30
0.0
 10
15.3074287514
 20
9.1893081519
 30
0.0
 10
15.3020008314
 20
9.1995687594
 30
0.0
 10
15.2981872067
 20
9.2060573619
 30
0.0
 10
15.2962540309
 20
9.209160151
 30
0.0
  0
SPLINE
  5
37F
100
AcDbEntity
  8
0
100
AcDbSpline
 62
7
  6
CONTINUOUS
 70
0
 71
3
 72
54
 73
50
 74
0
 42
0.0000001
 43
0.0000001
 44
0.0000000001
 40
0.0
 40
0.0
 40
0.0
 40
0.0
 40
0.0092108238
 40
0.0178650132
 40
0.0259872228
 40
0.0336098801
 40
0.0407741653
 40
0.0475323476
 40
0.0539489081
 40
0.0601003322
 40
0.0660746808
 40
0.0719689955
 40
0.0778844401
 40
0.0839211615
 40
0.0901728333
 40
0.0967228879
 40
0.10364304
 40
0.1109924399
 40
0.1188183967
 40
0.1271585611
 40
0.1360419749
 40
0.145489763
 40
0.1555174947
 40
0.1661361414
 40
0.177351696
 40
0.1891668474
 40
0.2015819129
 40
0.2145940872
 40
0.2281981172
 40
0.242387453
 40
0.257153694
 40
0.2724862817
 40
0.3048025311
 40
0.3392310852
 40
0.3756484307
 40
0.4139155225
 40
0.4538817316
 40
0.4953846913
 40
0.5382528179
 40
0.5823066415
 40
0.6273592683
 40
0.6732186361
 40
0.7196876114
 40
0.7665663399
 40
0.8136525902
 40
0.8607406718
 40
0.9076288734
 40
0.954121876
 40
1.0
 40
1.0
 40
1.0
 40
1.0
 10
15.2962540309
 20
9.209160151
 30
0.0
 10
15.2943650196
 20
9.2121920552
 30
0.0
 10
15.2905517574
 20
9.2179818191
 30
0.0
 10
15.2845181673
 20
9.2260628079
 30
0.0
 10
15.2783581217
 20
9.2332563874
 30
0.0
 10
15.2720775353
 20
9.2395544751
 30
0.0
 10
15.2656808784
 20
9.2449487452
 30
0.0
 10
15.25917308
 20
9.2494310041
 30
0.0
 10
15.2525601487
 20
9.2529938427
 30
0.0
 10
15.2458486641
 20
9.2556283067
 30
0.0
 10
15.2390478569
 20
9.2573251272
 30
0.0
 10
15.2321704664
 20
9.2580793708
 30
0.0
 10
15.2252304592
 20
9.25788876
 30
0.0
 10
15.2182420696
 20
9.2567541329
 30
0.0
 10
15.2112173778
 20
9.2546821953
 30
0.0
 10
15.2041654684
 20
9.2516806802
 30
0.0
 10
15.1970940181
 20
9.2477562094
 30
0.0
 10
15.1900092718
 20
9.2429163812
 30
0.0
 10
15.182916765
 20
9.2371689165
 30
0.0
 10
15.1758230203
 20
9.2305204547
 30
0.0
 10
15.1687349749
 20
9.2229784056
 30
0.0
 10
15.1616590233
 20
9.2145518261
 30
0.0
 10
15.154602601
 20
9.2052498224
 30
0.0
 10
15.1475738033
 20
9.1950822579
 30
0.0
 10
15.1405798221
 20
9.1840608751
 30
0.0
 10
15.1336283718
 20
9.1721980751
 30
0.0
 10
15.1267278012
 20
9.1595068609
 30
0.0
 10
15.1198857672
 20
9.1460017421
 30
0.0
 10
15.1131097885
 20
9.1316982807
 30
0.0
 10
15.106408005
 20
9.1166125638
 30
0.0
 10
15.0997881989
 20
9.1007617469
 30
0.0
 10
15.0909249388
 20
9.0782348207
 30
0.0
 10
15.0801427006
 20
9.0482763024
 30
0.0
 10
15.0678633189
 20
9.0101913169
 30
0.0
 10
15.0560846822
 20
8.9695404244
 30
0.0
 10
15.0448606645
 20
8.9265104776
 30
0.0
 10
15.0342443747
 20
8.881298659
 30
0.0
 10
15.0242848105
 20
8.8341128331
 30
0.0
 10
15.0150281627
 20
8.7851700922
 30
0.0
 10
15.006517996
 20
8.7346956797
 30
0.0
 10
14.9987930876
 20
8.6829221162
 30
0.0
 10
14.9918898533
 20
8.6300879845
 30
0.0
 10
14.9858400258
 20
8.5764366925
 30
0.0
 10
14.9806713982
 20
8.5222154216
 30
0.0
 10
14.9764085966
 20
8.4676746159
 30
0.0
 10
14.9730702929
 20
8.4130657632
 30
0.0
 10
14.970672385
 20
8.3586377517
 30
0.0
 10
14.969226524
 20
8.3046456825
 30
0.0
 10
14.9688979495
 20
8.2688206919
 30
0.0
 10
14.9688979495
 20
8.2510278119
 30
0.0
  0
SPLINE
  5
380
100
AcDbEntity
  8
0
100
AcDbSpline
 62
7
  6
CONTINUOUS
 70
0
 71
3
 72
53
 73
49
 74
0
 42
0.0000001
 43
0.0000001
 44
0.0000000001
 40
0.0
 40
0.0
 40
0.0
 40
0.0
 40
0.0544907941
 40
0.1080979901
 40
0.1606560469
 40
0.2120281743
 40
0.2620877801
 40
0.3107083338
 40
0.3577648707
 40
0.4031412931
 40
0.4467281644
 40
0.4884242193
 40
0.5281359132
 40
0.5657798024
 40
0.6012836806
 40
0.6345877502
 40
0.665648108
 40
0.6944379096
 40
0.7209543149
 40
0.7333678099
 40
0.7452252574
 40
0.7565357423
 40
0.7673110227
 40
0.7775664848
 40
0.7873222128
 40
0.7966027422
 40
0.8054376755
 40
0.8138626756
 40
0.8219206677
 40
0.8296616062
 40
0.8371424982
 40
0.8444272267
 40
0.8515857817
 40
0.858692146
 40
0.8658219848
 40
0.8730502795
 40
0.8804487398
 40
0.8880836296
 40
0.896014725
 40
0.9042948542
 40
0.9129694716
 40
0.9220766823
 40
0.9316484382
 40
0.9417113755
 40
0.9522871625
 40
0.963392516
 40
0.9750406085
 40
1.0
 40
1.0
 40
1.0
 40
1.0
 10
14.9688979495
 20
8.2510278119
 30
0.0
 10
14.9688979495
 20
8.2372554597
 30
0.0
 10
14.9690921449
 20
8.2099336437
 30
0.0
 10
14.9699779836
 20
8.1693366172
 30
0.0
 10
14.9714551744
 20
8.1295453892
 30
0.0
 10
14.9735184733
 20
8.0906780293
 30
0.0
 10
14.9761624975
 20
8.0528432638
 30
0.0
 10
14.9793787376
 20
8.0161474815
 30
0.0
 10
14.9831587685
 20
7.9806954228
 30
0.0
 10
14.9874909868
 20
7.9465884385
 30
0.0
 10
14.9923632746
 20
7.9139233165
 30
0.0
 10
14.9977611656
 20
7.8827926843
 30
0.0
 10
15.0036691967
 20
7.853284733
 30
0.0
 10
15.0100703106
 20
7.8254829516
 30
0.0
 10
15.016945729
 20
7.7994655661
 30
0.0
 10
15.0242761761
 20
7.775305609
 30
0.0
 10
15.032039978
 20
7.7530697596
 30
0.0
 10
15.0402163075
 20
7.7328202904
 30
0.0
 10
15.0475058951
 20
7.7173209373
 30
0.0
 10
15.0535552581
 20
7.7059967293
 30
0.0
 10
15.0580807937
 20
7.6982227311
 30
0.0
 10
15.0626917406
 20
7.6909851974
 30
0.0
 10
15.067385299
 20
7.6842893244
 30
0.0
 10
15.0721586766
 20
7.6781400003
 30
0.0
 10
15.0770085596
 20
7.6725411763
 30
0.0
 10
15.081931992
 20
7.6674966777
 30
0.0
 10
15.0869261707
 20
7.6630103789
 30
0.0
 10
15.0919885754
 20
7.6590863389
 30
0.0
 10
15.097115984
 20
7.6557276383
 30
0.0
 10
15.1023052461
 20
7.6529374363
 30
0.0
 10
15.1075529461
 20
7.6507191476
 30
0.0
 10
15.1128552264
 20
7.6490766065
 30
0.0
 10
15.1182071086
 20
7.6480120975
 30
0.0
 10
15.1236031449
 20
7.6475269706
 30
0.0
 10
15.1290376538
 20
7.6476219074
 30
0.0
 10
15.1345048788
 20
7.648297003
 30
0.0
 10
15.1399994131
 20
7.6495504493
 30
0.0
 10
15.1455166524
 20
7.6513793335
 30
0.0
 10
15.1510525537
 20
7.6537809483
 30
0.0
 10
15.1566033265
 20
7.6567528387
 30
0.0
 10
15.1621654584
 20
7.6602920653
 30
0.0
 10
15.1677358768
 20
7.6643950013
 30
0.0
 10
15.1733112536
 20
7.6690584083
 30
0.0
 10
15.1788880899
 20
7.6742791419
 30
0.0
 10
15.1844626341
 20
7.680053684
 30
0.0
 10
15.1900317673
 20
7.6863776536
 30
0.0
 10
15.1976202416
 20
7.6957532722
 30
0.0
 10
15.2030215265
 20
7.7032778435
 30
0.0
 10
15.2065448777
 20
7.7085106116
 30
0.0
  0
SPLINE
  5
381
100
AcDbEntity
  8
0
100
AcDbSpline
 62
7
  6
CONTINUOUS
 70
0
 71
3
 72
9
 73
5
 74
0
 42
0.0000001
 43
0.0000001
 44
0.0000000001
 40
0.0
 40
0.0
 40
0.0
 40
0.0
 40
0.241994066
 40
1.0
 40
1.0
 40
1.0
 40
1.0
 10
15.2065448777
 20
7.7085106116
 30
0.0
 10
15.2075007873
 20
7.7099302978
 30
0.0
 10
15.2114026089
 20
7.7158293871
 30
0.0
 10
15.2151171587
 20
7.7218516329
 30
0.0
 10
15.2178406332
 20
7.7264693449
 30
0.0
  0
SPLINE
  5
382
100
AcDbEntity
  8
0
100
AcDbSpline
 62
7
  6
CONTINUOUS
 70
0
 71
3
 72
9
 73
5
 74
0
 42
0.0000001
 43
0.0000001
 44
0.0000000001
 40
0.0
 40
0.0
 40
0.0
 40
0.0
 40
0.5137008699
 40
1.0
 40
1.0
 40
1.0
 40
1.0
 10
14.1467491681
 20
7.6356770938
 30
0.0
 10
14.1486793043
 20
7.6330965586
 30
0.0
 10
14.1525693783
 20
7.6281705547
 30
0.0
 10
14.1567496738
 20
7.6234866341
 30
0.0
 10
14.1588582723
 20
7.6212820746
 30
0.0
  0
SPLINE
  5
383
100
AcDbEntity
  8
0
100
AcDbSpline
 62
7
  6
CONTINUOUS
 70
0
 71
3
 72
33
 73
29
 74
0
 42
0.0000001
 43
0.0000001
 44
0.0000000001
 40
0.0
 40
0.0
 40
0.0
 40
0.0
 40
0.0248427079
 40
0.0515341214
 40
0.0799601194
 40
0.110003455
 40
0.1744721739
 40
0.2439818741
 40
0.3174934371
 40
0.3938417519
 40
0.4717068109
 40
0.5496025595
 40
0.5880626999
 40
0.6259241565
 40
0.6629816732
 40
0.6990322175
 40
0.7338834111
 40
0.7673530859
 40
0.7992694979
 40
0.8294847872
 40
0.8578640923
 40
0.8842979721
 40
0.9087037974
 40
0.9310251869
 40
0.9512522151
 40
0.9694180183
 40
0.9856120305
 40
1.0
 40
1.0
 40
1.0
 40
1.0
 10
12.25626766
 20
7.9389176517
 30
0.0
 10
12.2538225363
 20
7.9388709812
 30
0.0
 10
12.2487490397
 20
7.9388381317
 30
0.0
 10
12.2408778703
 20
7.9389332609
 30
0.0
 10
12.2324971618
 20
7.9391547539
 30
0.0
 10
12.2204031589
 20
7.9396071651
 30
0.0
 10
12.2042763746
 20
7.9404190871
 30
0.0
 10
12.1838872529
 20
7.9416440002
 30
0.0
 10
12.1623391216
 20
7.9430707424
 30
0.0
 10
12.1399772984
 20
7.9446540273
 30
0.0
 10
12.1171932684
 20
7.9463814122
 30
0.0
 10
12.0981392078
 20
7.9479663208
 30
0.0
 10
12.0830218
 20
7.949360871
 30
0.0
 10
12.0719155836
 20
7.9504695129
 30
0.0
 10
12.061056066
 20
7.9516572278
 30
0.0
 10
12.0505052505
 20
7.9529360482
 30
0.0
 10
12.040323668
 20
7.954318193
 30
0.0
 10
12.0305698257
 20
7.9558160451
 30
0.0
 10
12.0212993605
 20
7.9574424393
 30
0.0
 10
12.0125644186
 20
7.9592063881
 30
0.0
 10
12.0044137135
 20
7.9611186527
 30
0.0
 10
11.9968919136
 20
7.9631858762
 30
0.0
 10
11.9900388577
 20
7.9654108854
 30
0.0
 10
11.9838910564
 20
7.9677991868
 30
0.0
 10
11.978478166
 20
7.9703472867
 30
0.0
 10
11.9738269593
 20
7.9730562862
 30
0.0
 10
11.9699621922
 20
7.975919046
 30
0.0
 10
11.9678051749
 20
7.9780412804
 30
0.0
 10
11.966893406
 20
7.9791251699
 30
0.0
  0
SPLINE
  5
384
100
AcDbEntity
  8
0
100
AcDbSpline
 62
7
  6
CONTINUOUS
 70
0
 71
3
 72
21
 73
17
 74
0
 42
0.0000001
 43
0.0000001
 44
0.0000000001
 40
0.0
 40
0.0
 40
0.0
 40
0.0
 40
0.1273175203
 40
0.253800042
 40
0.3167619342
 40
0.3795354977
 40
0.4421315044
 40
0.5045621463
 40
0.5668413435
 40
0.6289845249
 40
0.6910084556
 40
0.7529310973
 40
0.8147714461
 40
0.8765493353
 40
0.9382852242
 40
1.0
 40
1.0
 40
1.0
 40
1.0
 10
7.7290128519
 20
8.764279815
 30
0.0
 10
7.7290128519
 20
8.7518066528
 30
0.0
 10
7.7278221957
 20
8.7269260789
 30
0.0
 10
7.7233255415
 20
8.6961683167
 30
0.0
 10
7.7179509858
 20
8.6720415354
 30
0.0
 10
7.7130496705
 20
8.6542456325
 30
0.0
 10
7.7072836655
 20
8.6367659076
 30
0.0
 10
7.7006660953
 20
8.6196422241
 30
0.0
 10
7.6932122542
 20
8.602914185
 30
0.0
 10
7.684939316
 20
8.5866203253
 30
0.0
 10
7.6758662895
 20
8.5707982626
 30
0.0
 10
7.6660140489
 20
8.5554845028
 30
0.0
 10
7.655405385
 20
8.540714374
 30
0.0
 10
7.6440646224
 20
8.526521834
 30
0.0
 10
7.6320183094
 20
8.512940111
 30
0.0
 10
7.6235340019
 20
8.504312128
 30
0.0
 10
7.619185295
 20
8.5001115984
 30
0.0
  0
SPLINE
  5
385
100
AcDbEntity
  8
0
100
AcDbSpline
 62
7
  6
CONTINUOUS
 70
0
 71
3
 72
23
 73
19
 74
0
 42
0.0000001
 43
0.0000001
 44
0.0000000001
 40
0.0
 40
0.0
 40
0.0
 40
0.0
 40
0.063777379
 40
0.1273447372
 40
0.1907019931
 40
0.2538561345
 40
0.3168131769
 40
0.3795820929
 40
0.4421733849
 40
0.5045993366
 40
0.5668738654
 40
0.6290123812
 40
0.6910316548
 40
0.7529496517
 40
0.8147853612
 40
0.8765586089
 40
0.9382898579
 40
1.0
 40
1.0
 40
1.0
 40
1.0
 10
12.2881830221
 20
7.7236558771
 30
0.0
 10
12.2881830221
 20
7.7120843071
 30
0.0
 10
12.2876291812
 20
7.6889753507
 30
0.0
 10
12.2851293189
 20
7.6544524525
 30
0.0
 10
12.2809671008
 20
7.6202032705
 30
0.0
 10
12.2751523717
 20
7.5863080655
 30
0.0
 10
12.2676982227
 20
7.5528444434
 30
0.0
 10
12.2586218532
 20
7.5198897233
 30
0.0
 10
12.2479440624
 20
7.4875198421
 30
0.0
 10
12.2356894259
 20
7.4558094492
 30
0.0
 10
12.2218861395
 20
7.424831671
 30
0.0
 10
12.2065659689
 20
7.3946579567
 30
0.0
 10
12.1897641895
 20
7.3653579166
 30
0.0
 10
12.1715194714
 20
7.3369991405
 30
0.0
 10
12.1518739198
 20
7.3096471148
 30
0.0
 10
12.1308726125
 20
7.2833647126
 30
0.0
 10
12.1085647992
 20
7.2582133931
 30
0.0
 10
12.0928532676
 20
7.2422356175
 30
0.0
 10
12.0848001491
 20
7.2344568755
 30
0.0
  0
SPLINE
  5
386
100
AcDbEntity
  8
0
100
AcDbSpline
 62
7
  6
CONTINUOUS
 70
0
 71
3
 72
39
 73
35
 74
0
 42
0.0000001
 43
0.0000001
 44
0.0000000001
 40
0.0
 40
0.0
 40
0.0
 40
0.0
 40
0.0377997885
 40
0.0752336132
 40
0.1122727535
 40
0.1488967578
 40
0.1850896685
 40
0.2208419328
 40
0.2561491822
 40
0.291011899
 40
0.325434576
 40
0.3594248007
 40
0.392992301
 40
0.4261480038
 40
0.4589033346
 40
0.4912694326
 40
0.5232561809
 40
0.5548717074
 40
0.6169951622
 40
0.6776633246
 40
0.7074429364
 40
0.7368305976
 40
0.7658050443
 40
0.7943384897
 40
0.8223941263
 40
0.8499262001
 40
0.8768779806
 40
0.9031794564
 40
0.9287479153
 40
0.9534846872
 40
0.9655070933
 40
0.9772782096
 40
0.988781428
 40
1.0
 40
1.0
 40
1.0
 40
1.0
 10
11.0577372859
 20
8.0351364923
 30
0.0
 10
11.0577372859
 20
8.0263628881
 30
0.0
 10
11.0581567574
 20
8.0088975281
 30
0.0
 10
11.0600588368
 20
7.9828976028
 30
0.0
 10
11.0632152264
 20
7.9572941911
 30
0.0
 10
11.0675997775
 20
7.9321647449
 30
0.0
 10
11.0731776245
 20
7.9075791539
 30
0.0
 10
11.079905804
 20
7.883600581
 30
0.0
 10
11.0877350169
 20
7.8602842477
 30
0.0
 10
11.0966108885
 20
7.8376774112
 30
0.0
 10
11.1064753722
 20
7.8158194008
 30
0.0
 10
11.1172680972
 20
7.7947420811
 30
0.0
 10
11.1289274923
 20
7.7744704967
 30
0.0
 10
11.1413916885
 20
7.7550236245
 30
0.0
 10
11.1545991837
 20
7.7364150698
 30
0.0
 10
11.1684892627
 20
7.7186541386
 30
0.0
 10
11.1830029626
 20
7.7017462031
 30
0.0
 10
11.2029884709
 20
7.6804710799
 30
0.0
 10
11.2292210726
 20
7.6559819431
 30
0.0
 10
11.2571000885
 20
7.6340743555
 30
0.0
 10
11.2800042527
 20
7.6182813637
 30
0.0
 10
11.2973131746
 20
7.6073640646
 30
0.0
 10
11.3148010749
 20
7.5973048907
 30
0.0
 10
11.3324095755
 20
7.5881083685
 30
0.0
 10
11.3500766238
 20
7.5797824546
 30
0.0
 10
11.3677353022
 20
7.5723383181
 30
0.0
 10
11.3853122698
 20
7.5657914477
 30
0.0
 10
11.402726315
 20
7.5601621849
 30
0.0
 10
11.4198853768
 20
7.5554762794
 30
0.0
 10
11.4340184332
 20
7.5523542978
 30
0.0
 10
11.4451083764
 20
7.5503733994
 30
0.0
 10
11.4532121347
 20
7.5491617139
 30
0.0
 10
11.4611633084
 20
7.5482157834
 30
0.0
 10
11.4664186851
 20
7.5477606257
 30
0.0
 10
11.4690164038
 20
7.5475811439
 30
0.0
  0
SPLINE
  5
387
100
AcDbEntity
  8
0
100
AcDbSpline
 62
7
  6
CONTINUOUS
 70
0
 71
3
 72
23
 73
19
 74
0
 42
0.0000001
 43
0.0000001
 44
0.0000000001
 40
0.0
 40
0.0
 40
0.0
 40
0.0
 40
0.059691314
 40
0.1197509173
 40
0.1801779835
 40
0.2409688392
 40
0.3021211264
 40
0.3636335238
 40
0.4255080023
 40
0.4877502738
 40
0.5503703807
 40
0.613382368
 40
0.6768013264
 40
0.7406395044
 40
0.8049007781
 40
0.8695740165
 40
0.9346268738
 40
1.0
 40
1.0
 40
1.0
 40
1.0
 10
7.2936257237
 20
8.8383468423
 30
0.0
 10
7.296011687
 20
8.831143404
 30
0.0
 10
7.301453113
 20
8.8168986282
 30
0.0
 10
7.3116220608
 20
8.796336337
 30
0.0
 10
7.3238440488
 20
8.776752802
 30
0.0
 10
7.3380960183
 20
8.7584134163
 30
0.0
 10
7.3543096772
 20
8.741586626
 30
0.0
 10
7.3723678042
 20
8.7265366382
 30
0.0
 10
7.3921056981
 20
8.7135118779
 30
0.0
 10
7.413314817
 20
8.7027345139
 30
0.0
 10
7.4357494131
 20
8.6943912339
 30
0.0
 10
7.4591350864
 20
8.6886269493
 30
0.0
 10
7.4831776462
 20
8.6855388627
 30
0.0
 10
7.5075728421
 20
8.6851746266
 30
0.0
 10
7.5320152422
 20
8.6875294282
 30
0.0
 10
7.5562086202
 20
8.6925478576
 30
0.0
 10
7.5798703302
 20
8.7001225585
 30
0.0
 10
7.5950970572
 20
8.7067653567
 30
0.0
 10
7.6025441697
 20
8.710454085
 30
0.0
  0
SPLINE
  5
388
100
AcDbEntity
  8
0
100
AcDbSpline
 62
7
  6
CONTINUOUS
 70
0
 71
3
 72
36
 73
32
 74
0
 42
0.0000001
 43
0.0000001
 44
0.0000000001
 40
0.0
 40
0.0
 40
0.0
 40
0.0
 40
0.0321033255
 40
0.0639596702
 40
0.0955633176
 40
0.1269148277
 40
0.1580217475
 40
0.1888977105
 40
0.2195618348
 40
0.2500376787
 40
0.2803522864
 40
0.310535229
 40
0.3406177458
 40
0.3706320369
 40
0.4006107235
 40
0.4305864837
 40
0.4605917977
 40
0.4906587895
 40
0.5208192647
 40
0.551104782
 40
0.6121628084
 40
0.6740910576
 40
0.7371156896
 40
0.76910078
 40
0.8014148938
 40
0.8340544688
 40
0.8669945518
 40
0.9001795709
 40
0.9335132931
 40
0.9668511769
 40
1.0
 40
1.0
 40
1.0
 40
1.0
 10
11.501999841
 20
8.4642611934
 30
0.0
 10
11.501999841
 20
8.4521239524
 30
0.0
 10
11.5027426417
 20
8.4279359225
 30
0.0
 10
11.5061035653
 20
8.3919405001
 30
0.0
 10
11.5116748803
 20
8.3565066195
 30
0.0
 10
11.5194046803
 20
8.3217709934
 30
0.0
 10
11.5292237374
 20
8.2878538624
 30
0.0
 10
11.541049121
 20
8.2548597009
 30
0.0
 10
11.5547877384
 20
8.2228756258
 30
0.0
 10
11.5703400835
 20
8.1919715901
 30
0.0
 10
11.5876036048
 20
8.1622011412
 30
0.0
 10
11.6064756793
 20
8.1336027934
 30
0.0
 10
11.6268560314
 20
8.1062017445
 30
0.0
 10
11.6486486006
 20
8.080011755
 30
0.0
 10
11.6717629273
 20
8.0550370375
 30
0.0
 10
11.696115065
 20
8.0312740677
 30
0.0
 10
11.7216281857
 20
8.0087131886
 30
0.0
 10
11.7482325883
 20
7.9873401523
 30
0.0
 10
11.7758666835
 20
7.9671368437
 30
0.0
 10
11.8141099788
 20
7.941666309
 30
0.0
 10
11.864334428
 20
7.912622917
 30
0.0
 10
11.9278187459
 20
7.8822252001
 30
0.0
 10
11.9830815916
 20
7.8604874148
 30
0.0
 10
12.0287023316
 20
7.8451072811
 30
0.0
 10
12.0637946193
 20
7.8345154051
 30
0.0
 10
12.0995453938
 20
7.8249199424
 30
0.0
 10
12.1358875021
 20
7.8163225074
 30
0.0
 10
12.1727209923
 20
7.8087325897
 30
0.0
 10
12.2099035547
 20
7.8021675321
 30
0.0
 10
12.2472419742
 20
7.7966518879
 30
0.0
 10
12.2722059924
 20
7.7936783807
 30
0.0
 10
12.2846705436
 20
7.7923750096
 30
0.0
  0
SPLINE
  5
389
100
AcDbEntity
  8
0
100
AcDbSpline
 62
7
  6
CONTINUOUS
 70
0
 71
3
 72
15
 73
11
 74
0
 42
0.0000001
 43
0.0000001
 44
0.0000000001
 40
0.0
 40
0.0
 40
0.0
 40
0.0
 40
0.1273483176
 40
0.2538606274
 40
0.3795878627
 40
0.5046051194
 40
0.6290174385
 40
0.7529533738
 40
0.8765605773
 40
1.0
 40
1.0
 40
1.0
 40
1.0
 10
7.6270217269
 20
8.8157639475
 30
0.0
 10
7.6270217269
 20
8.8079104552
 30
0.0
 10
7.6262718721
 20
8.7922441693
 30
0.0
 10
7.6228807533
 20
8.7690460579
 30
0.0
 10
7.6172577008
 20
8.7464308279
 30
0.0
 10
7.6094535205
 20
8.7246099757
 30
0.0
 10
7.5995397632
 20
8.7037847514
 30
0.0
 10
7.5876068557
 20
8.684147441
 30
0.0
 10
7.5737670021
 20
8.6658820282
 30
0.0
 10
7.5633462947
 20
8.6547244709
 30
0.0
 10
7.5578710125
 20
8.6494357636
 30
0.0
  0
SPLINE
  5
38A
100
AcDbEntity
  8
0
100
AcDbSpline
 62
7
  6
CONTINUOUS
 70
0
 71
3
 72
37
 73
33
 74
0
 42
0.0000001
 43
0.0000001
 44
0.0000000001
 40
0.0
 40
0.0
 40
0.0
 40
0.0
 40
0.0307113878
 40
0.0615426327
 40
0.0924882489
 40
0.1235467249
 40
0.1547124043
 40
0.1859791226
 40
0.2173394645
 40
0.24878485
 40
0.2803057527
 40
0.3118917528
 40
0.343531687
 40
0.3752137831
 40
0.4069257877
 40
0.4386551029
 40
0.5020928405
 40
0.565446465
 40
0.5970716298
 40
0.6286394823
 40
0.6601390726
 40
0.6915602297
 40
0.7228936903
 40
0.7541312211
 40
0.7852657182
 40
0.816291295
 40
0.8472033699
 40
0.8779987445
 40
0.908675653
 40
0.9392337933
 40
0.9696743483
 40
1.0
 40
1.0
 40
1.0
 40
1.0
 10
7.6455320957
 20
8.7786435919
 30
0.0
 10
7.6455320957
 20
8.7842362328
 30
0.0
 10
7.6452179
 20
8.7954458043
 30
0.0
 10
7.6438122605
 20
8.8122376305
 30
0.0
 10
7.6414754469
 20
8.8289896395
 30
0.0
 10
7.6382151876
 20
8.8456484807
 30
0.0
 10
7.6340414634
 20
8.862162516
 30
0.0
 10
7.6289674702
 20
8.8784800045
 30
0.0
 10
7.6230091313
 20
8.8945500075
 30
0.0
 10
7.6161850929
 20
8.9103223184
 30
0.0
 10
7.6085166845
 20
8.9257476539
 30
0.0
 10
7.6000278997
 20
8.9407778176
 30
0.0
 10
7.5907452911
 20
8.9553659069
 30
0.0
 10
7.5806979902
 20
8.969466256
 30
0.0
 10
7.5699169664
 20
8.9830351896
 30
0.0
 10
7.5546134748
 20
9.0003572099
 30
0.0
 10
7.5338285062
 20
9.0204699393
 30
0.0
 10
7.5110741694
 20
9.0382941202
 30
0.0
 10
7.4918643992
 20
9.0510395164
 30
0.0
 10
7.4770069416
 20
9.0598083768
 30
0.0
 10
7.4617403637
 20
9.0677629346
 30
0.0
 10
7.4461119058
 20
9.0748786204
 30
0.0
 10
7.4301705137
 20
9.0811330824
 30
0.0
 10
7.4139659687
 20
9.0865067889
 30
0.0
 10
7.3975489042
 20
9.0909828932
 30
0.0
 10
7.3809706067
 20
9.094547321
 30
0.0
 10
7.3642828921
 20
9.0971888632
 30
0.0
 10
7.3475379132
 20
9.0988992413
 30
0.0
 10
7.3307880666
 20
9.0996730553
 30
0.0
 10
7.3140855322
 20
9.0995077663
 30
0.0
 10
7.2974832644
 20
9.0984038971
 30
0.0
 10
7.286494514
 20
9.0970417659
 30
0.0
 10
7.2810358359
 20
9.0962052831
 30
0.0
  0
SPLINE
  5
38B
100
AcDbEntity
  8
0
100
AcDbSpline
 62
7
  6
CONTINUOUS
 70
0
 71
3
 72
41
 73
37
 74
0
 42
0.0000001
 43
0.0000001
 44
0.0000000001
 40
0.0
 40
0.0
 40
0.0
 40
0.0
 40
0.0310747705
 40
0.0623072725
 40
0.0936920139
 40
0.1252208392
 40
0.1568822171
 40
0.1886620102
 40
0.2205435978
 40
0.2525083095
 40
0.2845357945
 40
0.3166044477
 40
0.3486918434
 40
0.3807751835
 40
0.4128317507
 40
0.4448393598
 40
0.4767768022
 40
0.5086242765
 40
0.5403637988
 40
0.5719795854
 40
0.603458402
 40
0.6347898701
 40
0.6659667248
 40
0.6969850144
 40
0.7278442368
 40
0.7585474029
 40
0.7891010235
 40
0.8195150139
 40
0.8498025133
 40
0.8649066328
 40
0.8799853948
 40
0.9100708242
 40
0.9400854817
 40
0.9550762305
 40
0.9700578769
 40
1.0
 40
1.0
 40
1.0
 40
1.0
 10
7.6270217269
 20
8.8157639475
 30
0.0
 10
7.6270217269
 20
8.8218680324
 30
0.0
 10
7.6265663573
 20
8.8341118815
 30
0.0
 10
7.6245333465
 20
8.85241902
 30
0.0
 10
7.6211599648
 20
8.8706186959
 30
0.0
 10
7.6164649974
 20
8.888609593
 30
0.0
 10
7.610474353
 20
8.9062933233
 30
0.0
 10
7.6032211008
 20
8.9235727181
 30
0.0
 10
7.594745173
 20
8.9403529793
 30
0.0
 10
7.5850932034
 20
8.9565420228
 30
0.0
 10
7.5743182449
 20
8.9720510216
 30
0.0
 10
7.5624794914
 20
8.9867948763
 30
0.0
 10
7.5496419507
 20
9.0006926789
 30
0.0
 10
7.5358760922
 20
9.0136681518
 30
0.0
 10
7.5212574636
 20
9.0256500621
 30
0.0
 10
7.5058662806
 20
9.0365726087
 30
0.0
 10
7.4897869919
 20
9.0463757806
 30
0.0
 10
7.4731078212
 20
9.055005684
 30
0.0
 10
7.4559202891
 20
9.0624148367
 30
0.0
 10
7.438318718
 20
9.0685624286
 30
0.0
 10
7.4203997212
 20
9.0734145465
 30
0.0
 10
7.4022616807
 20
9.0769443635
 30
0.0
 10
7.3840042134
 20
9.0791322893
 30
0.0
 10
7.3657276364
 20
9.0799660874
 30
0.0
 10
7.3475324023
 20
9.0794409412
 30
0.0
 10
7.3295186268
 20
9.0775595234
 30
0.0
 10
7.3117852638
 20
9.0743318748
 30
0.0
 10
7.2944305895
 20
9.0697758017
 30
0.0
 10
7.2803479914
 20
9.0648871991
 30
0.0
 10
7.2693713047
 20
9.0603408628
 30
0.0
 10
7.2586167755
 20
9.0553854586
 30
0.0
 10
7.2455768974
 20
9.0484197601
 30
0.0
 10
7.2331416213
 20
9.0404563619
 30
0.0
 10
7.2236115145
 20
9.0335215163
 30
0.0
 10
7.2143754756
 20
9.0262235881
 30
0.0
 10
7.2077806096
 20
9.0203418126
 30
0.0
 10
7.2035502407
 20
9.0162555971
 30
0.0
  0
SPLINE
  5
38C
100
AcDbEntity
  8
0
100
AcDbSpline
 62
7
  6
CONTINUOUS
 70
0
 71
3
 72
41
 73
37
 74
0
 42
0.0000001
 43
0.0000001
 44
0.0000000001
 40
0.0
 40
0.0
 40
0.0
 40
0.0
 40
0.0311444435
 40
0.0624425082
 40
0.0938872491
 40
0.1254695823
 40
0.1571771047
 40
0.1889951244
 40
0.2209066755
 40
0.2528929806
 40
0.2849337954
 40
0.3170078208
 40
0.3490931155
 40
0.3811675209
 40
0.4132090884
 40
0.4451965039
 40
0.4771095035
 40
0.5089292748
 40
0.5406388381
 40
0.5722234001
 40
0.6036706745
 40
0.6349711617
 40
0.666118382
 40
0.6971090532
 40
0.7279432083
 40
0.7586242446
 40
0.7891589004
 40
0.819557156
 40
0.849832054
 40
0.8649308927
 40
0.8800050544
 40
0.9100832588
 40
0.9400926743
 40
0.955081275
 40
0.9700610362
 40
1.0
 40
1.0
 40
1.0
 40
1.0
 10
10.8916807555
 20
9.3819130067
 30
0.0
 10
10.8972000749
 20
9.3815302406
 30
0.0
 10
10.9082420255
 20
9.3803588101
 30
0.0
 10
10.9246710626
 20
9.3774080255
 30
0.0
 10
10.9409241608
 20
9.3732747623
 30
0.0
 10
10.9569134644
 20
9.3679813897
 30
0.0
 10
10.9725540866
 20
9.3615561845
 30
0.0
 10
10.9877625789
 20
9.3540335639
 30
0.0
 10
11.0024579263
 20
9.3454537083
 30
0.0
 10
11.0165618236
 20
9.3358624366
 30
0.0
 10
11.029999125
 20
9.3253109245
 30
0.0
 10
11.0426982315
 20
9.3138554487
 30
0.0
 10
11.0545914693
 20
9.3015570835
 30
0.0
 10
11.0656154468
 20
9.2884813801
 30
0.0
 10
11.0757113892
 20
9.2746980204
 30
0.0
 10
11.0848254487
 20
9.2602804491
 30
0.0
 10
11.0929089896
 20
9.2453054872
 30
0.0
 10
11.0999188459
 20
9.229852927
 30
0.0
 10
11.1058175508
 20
9.2140051125
 30
0.0
 10
11.1105735363
 20
9.197846506
 30
0.0
 10
11.1141613031
 20
9.1814632444
 30
0.0
 10
11.1165615593
 20
9.1649426859
 30
0.0
 10
11.1177613269
 20
9.1483729497
 30
0.0
 10
11.1177540187
 20
9.1318424562
 30
0.0
 10
11.1165394732
 20
9.1154394428
 30
0.0
 10
11.114123996
 20
9.0992515607
 30
0.0
 10
11.110520218
 20
9.083365171
 30
0.0
 10
11.1057474769
 20
9.0678657624
 30
0.0
 10
11.1008116704
 20
9.055327647
 30
0.0
 10
11.0963074799
 20
9.0455773284
 30
0.0
 10
11.0914466092
 20
9.0360390053
 30
0.0
 10
11.0846975529
 20
9.02450191
 30
0.0
 10
11.077080447
 20
9.0135369489
 30
0.0
 10
11.0704981884
 20
9.0051555746
 30
0.0
 10
11.0636018748
 20
8.9970478146
 30
0.0
 10
11.0580767526
 20
8.9912757583
 30
0.0
 10
11.0542514481
 20
8.9875807942
 30
0.0
  0
SPLINE
  5
38D
100
AcDbEntity
  8
0
100
AcDbSpline
 62
7
  6
CONTINUOUS
 70
0
 71
3
 72
41
 73
37
 74
0
 42
0.0000001
 43
0.0000001
 44
0.0000000001
 40
0.0
 40
0.0
 40
0.0
 40
0.0
 40
0.0311444435
 40
0.0624425082
 40
0.0938872491
 40
0.1254695823
 40
0.1571771047
 40
0.1889951244
 40
0.2209066755
 40
0.2528929806
 40
0.2849337954
 40
0.3170078208
 40
0.3490931155
 40
0.3811675209
 40
0.4132090884
 40
0.4451965039
 40
0.4771095035
 40
0.5089292748
 40
0.5406388381
 40
0.5722234001
 40
0.6036706745
 40
0.6349711617
 40
0.666118382
 40
0.6971090532
 40
0.7279432083
 40
0.7586242446
 40
0.7891589004
 40
0.819557156
 40
0.849832054
 40
0.8649308927
 40
0.8800050544
 40
0.9100832588
 40
0.9400926743
 40
0.955081275
 40
0.9700610362
 40
1.0
 40
1.0
 40
1.0
 40
1.0
 10
12.2497725652
 20
9.2877290198
 30
0.0
 10
12.2552918846
 20
9.2873462537
 30
0.0
 10
12.2663338352
 20
9.2861748232
 30
0.0
 10
12.2827628723
 20
9.2832240386
 30
0.0
 10
12.2990159706
 20
9.2790907754
 30
0.0
 10
12.3150052742
 20
9.2737974028
 30
0.0
 10
12.3306458964
 20
9.2673721976
 30
0.0
 10
12.3458543887
 20
9.259849577
 30
0.0
 10
12.360549736
 20
9.2512697214
 30
0.0
 10
12.3746536333
 20
9.2416784497
 30
0.0
 10
12.3880909347
 20
9.2311269376
 30
0.0
 10
12.4007900412
 20
9.2196714618
 30
0.0
 10
12.412683279
 20
9.2073730966
 30
0.0
 10
12.4237072565
 20
9.1942973932
 30
0.0
 10
12.4338031989
 20
9.1805140335
 30
0.0
 10
12.4429172584
 20
9.1660964622
 30
0.0
 10
12.4510007993
 20
9.1511215003
 30
0.0
 10
12.4580106557
 20
9.1356689401
 30
0.0
 10
12.4639093605
 20
9.1198211256
 30
0.0
 10
12.468665346
 20
9.1036625191
 30
0.0
 10
12.4722531128
 20
9.0872792575
 30
0.0
 10
12.474653369
 20
9.070758699
 30
0.0
 10
12.4758531366
 20
9.0541889628
 30
0.0
 10
12.4758458284
 20
9.0376584693
 30
0.0
 10
12.4746312829
 20
9.0212554559
 30
0.0
 10
12.4722158057
 20
9.0050675738
 30
0.0
 10
12.4686120278
 20
8.9891811841
 30
0.0
 10
12.4638392866
 20
8.9736817755
 30
0.0
 10
12.4589034802
 20
8.9611436601
 30
0.0
 10
12.4543992896
 20
8.9513933415
 30
0.0
 10
12.449538419
 20
8.9418550184
 30
0.0
 10
12.4427893627
 20
8.9303179231
 30
0.0
 10
12.4351722567
 20
8.919352962
 30
0.0
 10
12.4285899981
 20
8.9109715877
 30
0.0
 10
12.4216936845
 20
8.9028638277
 30
0.0
 10
12.4161685623
 20
8.8970917714
 30
0.0
 10
12.4123432578
 20
8.8933968073
 30
0.0
  0
SPLINE
  5
38E
100
AcDbEntity
  8
0
100
AcDbSpline
 62
7
  6
CONTINUOUS
 70
0
 71
3
 72
41
 73
37
 74
0
 42
0.0000001
 43
0.0000001
 44
0.0000000001
 40
0.0
 40
0.0
 40
0.0
 40
0.0
 40
0.0311444435
 40
0.0624425082
 40
0.0938872491
 40
0.1254695823
 40
0.1571771047
 40
0.1889951244
 40
0.2209066755
 40
0.2528929806
 40
0.2849337954
 40
0.3170078208
 40
0.3490931155
 40
0.3811675209
 40
0.4132090884
 40
0.4451965039
 40
0.4771095035
 40
0.5089292748
 40
0.5406388381
 40
0.5722234001
 40
0.6036706745
 40
0.6349711617
 40
0.666118382
 40
0.6971090532
 40
0.7279432083
 40
0.7586242446
 40
0.7891589004
 40
0.819557156
 40
0.849832054
 40
0.8649308927
 40
0.8800050544
 40
0.9100832588
 40
0.9400926743
 40
0.955081275
 40
0.9700610362
 40
1.0
 40
1.0
 40
1.0
 40
1.0
 10
10.8916807555
 20
6.725616827
 30
0.0
 10
10.8972000749
 20
6.7252340609
 30
0.0
 10
10.9082420255
 20
6.7240626304
 30
0.0
 10
10.9246710626
 20
6.7211118458
 30
0.0
 10
10.9409241608
 20
6.7169785826
 30
0.0
 10
10.9569134644
 20
6.71168521
 30
0.0
 10
10.9725540866
 20
6.7052600048
 30
0.0
 10
10.9877625789
 20
6.6977373842
 30
0.0
 10
11.0024579263
 20
6.6891575286
 30
0.0
 10
11.0165618236
 20
6.6795662569
 30
0.0
 10
11.029999125
 20
6.6690147449
 30
0.0
 10
11.0426982315
 20
6.657559269
 30
0.0
 10
11.0545914693
 20
6.6452609038
 30
0.0
 10
11.0656154468
 20
6.6321852004
 30
0.0
 10
11.0757113892
 20
6.6184018407
 30
0.0
 10
11.0848254487
 20
6.6039842694
 30
0.0
 10
11.0929089896
 20
6.5890093075
 30
0.0
 10
11.0999188459
 20
6.5735567473
 30
0.0
 10
11.1058175508
 20
6.5577089328
 30
0.0
 10
11.1105735363
 20
6.5415503264
 30
0.0
 10
11.1141613031
 20
6.5251670647
 30
0.0
 10
11.1165615593
 20
6.5086465062
 30
0.0
 10
11.1177613269
 20
6.49207677
 30
0.0
 10
11.1177540187
 20
6.4755462765
 30
0.0
 10
11.1165394732
 20
6.4591432631
 30
0.0
 10
11.114123996
 20
6.442955381
 30
0.0
 10
11.110520218
 20
6.4270689913
 30
0.0
 10
11.1057474769
 20
6.4115695827
 30
0.0
 10
11.1008116704
 20
6.3990314674
 30
0.0
 10
11.0963074799
 20
6.3892811487
 30
0.0
 10
11.0914466092
 20
6.3797428256
 30
0.0
 10
11.0846975529
 20
6.3682057303
 30
0.0
 10
11.077080447
 20
6.3572407693
 30
0.0
 10
11.0704981884
 20
6.3488593949
 30
0.0
 10
11.0636018748
 20
6.3407516349
 30
0.0
 10
11.0580767526
 20
6.3349795786
 30
0.0
 10
11.0542514481
 20
6.3312846145
 30
0.0
  0
SPLINE
  5
38F
100
AcDbEntity
  8
0
100
AcDbSpline
 62
7
  6
CONTINUOUS
 70
0
 71
3
 72
41
 73
37
 74
0
 42
0.0000001
 43
0.0000001
 44
0.0000000001
 40
0.0
 40
0.0
 40
0.0
 40
0.0
 40
0.0311444435
 40
0.0624425082
 40
0.0938872491
 40
0.1254695823
 40
0.1571771047
 40
0.1889951244
 40
0.2209066755
 40
0.2528929806
 40
0.2849337954
 40
0.3170078208
 40
0.3490931155
 40
0.3811675209
 40
0.4132090884
 40
0.4451965039
 40
0.4771095035
 40
0.5089292748
 40
0.5406388381
 40
0.5722234001
 40
0.6036706745
 40
0.6349711617
 40
0.666118382
 40
0.6971090532
 40
0.7279432083
 40
0.7586242446
 40
0.7891589004
 40
0.819557156
 40
0.849832054
 40
0.8649308927
 40
0.8800050544
 40
0.9100832588
 40
0.9400926743
 40
0.955081275
 40
0.9700610362
 40
1.0
 40
1.0
 40
1.0
 40
1.0
 10
12.2497725652
 20
6.6314328401
 30
0.0
 10
12.2552918846
 20
6.631050074
 30
0.0
 10
12.2663338352
 20
6.6298786435
 30
0.0
 10
12.2827628723
 20
6.6269278589
 30
0.0
 10
12.2990159706
 20
6.6227945958
 30
0.0
 10
12.3150052742
 20
6.6175012231
 30
0.0
 10
12.3306458964
 20
6.6110760179
 30
0.0
 10
12.3458543887
 20
6.6035533973
 30
0.0
 10
12.360549736
 20
6.5949735417
 30
0.0
 10
12.3746536333
 20
6.5853822701
 30
0.0
 10
12.3880909347
 20
6.574830758
 30
0.0
 10
12.4007900412
 20
6.5633752821
 30
0.0
 10
12.412683279
 20
6.5510769169
 30
0.0
 10
12.4237072565
 20
6.5380012135
 30
0.0
 10
12.4338031989
 20
6.5242178538
 30
0.0
 10
12.4429172584
 20
6.5098002825
 30
0.0
 10
12.4510007993
 20
6.4948253206
 30
0.0
 10
12.4580106557
 20
6.4793727604
 30
0.0
 10
12.4639093605
 20
6.4635249459
 30
0.0
 10
12.468665346
 20
6.4473663395
 30
0.0
 10
12.4722531128
 20
6.4309830778
 30
0.0
 10
12.474653369
 20
6.4144625193
 30
0.0
 10
12.4758531366
 20
6.3978927831
 30
0.0
 10
12.4758458284
 20
6.3813622896
 30
0.0
 10
12.4746312829
 20
6.3649592762
 30
0.0
 10
12.4722158057
 20
6.3487713941
 30
0.0
 10
12.4686120278
 20
6.3328850044
 30
0.0
 10
12.4638392866
 20
6.3173855958
 30
0.0
 10
12.4589034802
 20
6.3048474805
 30
0.0
 10
12.4543992896
 20
6.2950971618
 30
0.0
 10
12.449538419
 20
6.2855588387
 30
0.0
 10
12.4427893627
 20
6.2740217434
 30
0.0
 10
12.4351722567
 20
6.2630567824
 30
0.0
 10
12.4285899981
 20
6.254675408
 30
0.0
 10
12.4216936845
 20
6.246567648
 30
0.0
 10
12.4161685623
 20
6.2407955917
 30
0.0
 10
12.4123432578
 20
6.2371006276
 30
0.0
  0
SPLINE
  5
390
100
AcDbEntity
  8
0
100
AcDbSpline
 62
7
  6
CONTINUOUS
 70
0
 71
3
 72
53
 73
49
 74
0
 42
0.0000001
 43
0.0000001
 44
0.0000000001
 40
0.0
 40
0.0
 40
0.0
 40
0.0
 40
0.0077405415
 40
0.0160545889
 40
0.0249609011
 40
0.0344724222
 40
0.0445958437
 40
0.0553328932
 40
0.066681244
 40
0.0786354248
 40
0.091186832
 40
0.104324527
 40
0.1180352334
 40
0.1323037938
 40
0.147113273
 40
0.1624451037
 40
0.1945935609
 40
0.2285755282
 40
0.2641981904
 40
0.3012537768
 40
0.3395220343
 40
0.3787724906
 40
0.4187665936
 40
0.4592597761
 40
0.5000034789
 40
0.5407471502
 40
0.5812402375
 40
0.6212341806
 40
0.6604844129
 40
0.6987523844
 40
0.7358076264
 40
0.7714298907
 40
0.8054114126
 40
0.8375593835
 40
0.8528909453
 40
0.8677001653
 40
0.8819684229
 40
0.8956788619
 40
0.9088162332
 40
0.9213673563
 40
0.9333212102
 40
0.9446692693
 40
0.9554059878
 40
0.9655290592
 40
0.9750403692
 40
0.9839464156
 40
0.9922597561
 40
1.0
 40
1.0
 40
1.0
 40
1.0
 10
12.2137037037
 20
10.2950601988
 30
0.0
 10
12.2126504909
 20
10.2940801471
 30
0.0
 10
12.2103831971
 20
10.2921353718
 30
0.0
 10
12.2066638439
 20
10.2893577596
 30
0.0
 10
12.2025133599
 20
10.2866220691
 30
0.0
 10
12.197938618
 20
10.283932639
 30
0.0
 10
12.1929466809
 20
10.281293431
 30
0.0
 10
12.1875454724
 20
10.2787087664
 30
0.0
 10
12.1817436974
 20
10.2761827193
 30
0.0
 10
12.1755507006
 20
10.2737195027
 30
0.0
 10
12.1689765502
 20
10.2713230645
 30
0.0
 10
12.1620319437
 20
10.2689974343
 30
0.0
 10
12.1547282366
 20
10.2667464001
 30
0.0
 10
12.1470773871
 20
10.264573719
 30
0.0
 10
12.1390919297
 20
10.2624829558
 30
0.0
 10
12.1278373626
 20
10.2597661539
 30
0.0
 10
12.1130248612
 20
10.2566154466
 30
0.0
 10
12.0944086347
 20
10.253268759
 30
0.0
 10
12.0748024043
 20
10.2503215694
 30
0.0
 10
12.054335099
 20
10.2477935827
 30
0.0
 10
12.0331411644
 20
10.2457017661
 30
0.0
 10
12.0113600208
 20
10.2440601203
 30
0.0
 10
11.9891350008
 20
10.2428796305
 30
0.0
 10
11.9666124127
 20
10.2421681894
 30
0.0
 10
11.9439405515
 20
10.2419305526
 30
0.0
 10
11.9212687091
 20
10.2421683091
 30
0.0
 10
11.8987461782
 20
10.242879871
 30
0.0
 10
11.8765212536
 20
10.2440604812
 30
0.0
 10
11.8547402438
 20
10.2457022455
 30
0.0
 10
11.8335464801
 20
10.2477941777
 30
0.0
 10
11.8130793811
 20
10.2503222758
 30
0.0
 10
11.7934733897
 20
10.2532695709
 30
0.0
 10
11.7748574325
 20
10.2566163597
 30
0.0
 10
11.7600451747
 20
10.2597671411
 30
0.0
 10
11.7487908185
 20
10.262484013
 30
0.0
 10
11.7408055287
 20
10.2645748071
 30
0.0
 10
11.7331548562
 20
10.266747547
 30
0.0
 10
11.7258513285
 20
10.2689985995
 30
0.0
 10
11.7189069138
 20
10.2713242901
 30
0.0
 10
11.7123329529
 20
10.2737207411
 30
0.0
 10
11.7061401571
 20
10.2761840096
 30
0.0
 10
11.7003385845
 20
10.2787100793
 30
0.0
 10
11.6949375888
 20
10.2812947704
 30
0.0
 10
11.6899458552
 20
10.2839340079
 30
0.0
 10
11.6853713084
 20
10.2866234695
 30
0.0
 10
11.6812211126
 20
10.2893591949
 30
0.0
 10
11.6775019858
 20
10.2921367163
 30
0.0
 10
11.6752349273
 20
10.2940814817
 30
0.0
 10
11.6741817968
 20
10.2950615407
 30
0.0
  0
SPLINE
  5
391
100
AcDbEntity
  8
0
100
AcDbSpline
 62
7
  6
CONTINUOUS
 70
0
 71
3
 72
23
 73
19
 74
0
 42
0.0000001
 43
0.0000001
 44
0.0000000001
 40
0.0
 40
0.0
 40
0.0
 40
0.0
 40
0.0489551089
 40
0.0983120839
 40
0.1484623562
 40
0.199777398
 40
0.2526016975
 40
0.3072481398
 40
0.3639953814
 40
0.4230885098
 40
0.4847391394
 40
0.5491290684
 40
0.6164116716
 40
0.6867157703
 40
0.7601480231
 40
0.8367952546
 40
0.9167277966
 40
1.0
 40
1.0
 40
1.0
 40
1.0
 10
14.1775407353
 20
7.487664726
 30
0.0
 10
14.1755249534
 20
7.4878045202
 30
0.0
 10
14.1714875489
 20
7.4882763768
 30
0.0
 10
14.1654859804
 20
7.4895541587
 30
0.0
 10
14.1595324769
 20
7.4914018203
 30
0.0
 10
14.1536316658
 20
7.4938171951
 30
0.0
 10
14.1477868699
 20
7.4967979397
 30
0.0
 10
14.1420013331
 20
7.5003414965
 30
0.0
 10
14.1362778327
 20
7.5044450228
 30
0.0
 10
14.1306192008
 20
7.5091058327
 30
0.0
 10
14.1250279337
 20
7.5143208464
 30
0.0
 10
14.119506764
 20
7.5200871108
 30
0.0
 10
14.1140582207
 20
7.5264012872
 30
0.0
 10
14.1086849885
 20
7.5332599441
 30
0.0
 10
14.1033897528
 20
7.5406593581
 30
0.0
 10
14.0981751163
 20
7.5485955374
 30
0.0
 10
14.0930439353
 20
7.5570641582
 30
0.0
 10
14.0897483475
 20
7.5629408138
 30
0.0
 10
14.0881129925
 20
7.5659638939
 30
0.0
  0
SPLINE
  5
392
100
AcDbEntity
  8
0
100
AcDbSpline
 62
7
  6
CONTINUOUS
 70
0
 71
3
 72
17
 73
13
 74
0
 42
0.0000001
 43
0.0000001
 44
0.0000000001
 40
0.0
 40
0.0
 40
0.0
 40
0.0
 40
0.1240520892
 40
0.2491601766
 40
0.3749884208
 40
0.5011538463
 40
0.6272207971
 40
0.7527085963
 40
0.8150916166
 40
0.8771405196
 40
0.938796949
 40
1.0
 40
1.0
 40
1.0
 40
1.0
 10
11.1836584264
 20
8.4166671035
 30
0.0
 10
11.1743318104
 20
8.4026324891
 30
0.0
 10
11.1563713566
 20
8.3739203867
 30
0.0
 10
11.1319440567
 20
8.329186771
 30
0.0
 10
11.110291879
 20
8.2827216166
 30
0.0
 10
11.0918235731
 20
8.2347557407
 30
0.0
 10
11.0769354883
 20
8.1856045443
 30
0.0
 10
11.0677931222
 20
8.1438990129
 30
0.0
 10
11.0626033599
 20
8.1103408753
 30
0.0
 10
11.0598058593
 20
8.0852099696
 30
0.0
 10
11.0581171592
 20
8.0601415511
 30
0.0
 10
11.0577372859
 20
8.043450198
 30
0.0
 10
11.0577372859
 20
8.0351364923
 30
0.0
  0
SPLINE
  5
393
100
AcDbEntity
  8
0
100
AcDbSpline
 62
7
  6
CONTINUOUS
 70
0
 71
3
 72
42
 73
38
 74
0
 42
0.0000001
 43
0.0000001
 44
0.0000000001
 40
0.0
 40
0.0
 40
0.0
 40
0.0
 40
0.0149723984
 40
0.029947855
 40
0.044929411
 40
0.0599200705
 40
0.0749227797
 40
0.0899404141
 40
0.1200256603
 40
0.1502025837
 40
0.1804898973
 40
0.2109037013
 40
0.2414571355
 40
0.2721601139
 40
0.3030191474
 40
0.3340372487
 40
0.3652139147
 40
0.3965451931
 40
0.4280238196
 40
0.4596394169
 40
0.4913787493
 40
0.5232260332
 40
0.5551632855
 40
0.5871707048
 40
0.6192270819
 40
0.6513102319
 40
0.6833974375
 40
0.7154659008
 40
0.7474931963
 40
0.7794577183
 40
0.8113391169
 40
0.8431187185
 40
0.8747799153
 40
0.906308527
 40
0.9376931747
 40
0.9689251987
 40
1.0
 40
1.0
 40
1.0
 40
1.0
 10
11.0426770698
 20
8.3133356601
 30
0.0
 10
11.0488987859
 20
8.319345397
 30
0.0
 10
11.0615838391
 20
8.3311201128
 30
0.0
 10
11.0813004007
 20
8.3480139217
 30
0.0
 10
11.1016808113
 20
8.3641183763
 30
0.0
 10
11.1226966053
 20
8.3794107642
 30
0.0
 10
11.1443193935
 20
8.3938704162
 30
0.0
 10
11.1739324131
 20
8.4120215253
 30
0.0
 10
11.2123375716
 20
8.4325379822
 30
0.0
 10
11.2603200769
 20
8.4535129931
 30
0.0
 10
11.3099711927
 20
8.4707487057
 30
0.0
 10
11.3610154602
 20
8.484149523
 30
0.0
 10
11.4131721604
 20
8.4936426094
 30
0.0
 10
11.4661539802
 20
8.4991763663
 30
0.0
 10
11.5196694143
 20
8.5007210598
 30
0.0
 10
11.5734241301
 20
8.4982688135
 30
0.0
 10
11.6271226399
 20
8.4918338247
 30
0.0
 10
11.6804699084
 20
8.4814521177
 30
0.0
 10
11.733172939
 20
8.4671812759
 30
0.0
 10
11.7849423561
 20
8.4491001621
 30
0.0
 10
11.8354940199
 20
8.4273085833
 30
0.0
 10
11.8845505183
 20
8.4019265734
 30
0.0
 10
11.9318426455
 20
8.3730937354
 30
0.0
 10
11.9771109183
 20
8.3409685902
 30
0.0
 10
12.0201069869
 20
8.3057276822
 30
0.0
 10
12.0605949173
 20
8.2675645312
 30
0.0
 10
12.0983524638
 20
8.2266886032
 30
0.0
 10
12.1331723985
 20
8.183324284
 30
0.0
 10
12.1648635423
 20
8.1377095506
 30
0.0
 10
12.1932517677
 20
8.0900946734
 30
0.0
 10
12.2181809984
 20
8.0407408964
 30
0.0
 10
12.2395141494
 20
7.989919086
 30
0.0
 10
12.2571337355
 20
7.9379080643
 30
0.0
 10
12.2709425384
 20
7.8849935566
 30
0.0
 10
12.2808641458
 20
7.8314651377
 30
0.0
 10
12.2868437349
 20
7.7776205469
 30
0.0
 10
12.2881830221
 20
7.7416092171
 30
0.0
 10
12.2881830221
 20
7.7236558771
 30
0.0
  0
SPLINE
  5
394
100
AcDbEntity
  8
0
100
AcDbSpline
 62
7
  6
CONTINUOUS
 70
0
 71
3
 72
19
 73
15
 74
0
 42
0.0000001
 43
0.0000001
 44
0.0000000001
 40
0.0
 40
0.0
 40
0.0
 40
0.0
 40
0.0616584462
 40
0.1233399329
 40
0.1850672163
 40
0.2468625637
 40
0.3087474953
 40
0.370742507
 40
0.4328668993
 40
0.495138574
 40
0.6201443378
 40
0.7459117844
 40
0.8725152897
 40
1.0
 40
1.0
 40
1.0
 40
1.0
 10
12.0872018726
 20
6.5737117391
 30
0.0
 10
12.0898278332
 20
6.5762482249
 30
0.0
 10
12.0952183126
 20
6.5811819065
 30
0.0
 10
12.1036917324
 20
6.5881385738
 30
0.0
 10
12.1125331241
 20
6.5946353864
 30
0.0
 10
12.1217198425
 20
6.6006557732
 30
0.0
 10
12.1312289016
 20
6.6061845739
 30
0.0
 10
12.141036197
 20
6.6112078487
 30
0.0
 10
12.151117362
 20
6.615713122
 30
0.0
 10
12.164904621
 20
6.621020076
 30
0.0
 10
12.1827103019
 20
6.6263036156
 30
0.0
 10
12.2047154133
 20
6.6304083764
 30
0.0
 10
12.2271697495
 20
6.6322490937
 30
0.0
 10
12.2422419674
 20
6.6319550888
 30
0.0
 10
12.2497725652
 20
6.6314328401
 30
0.0
  0
SPLINE
  5
395
100
AcDbEntity
  8
0
100
AcDbSpline
 62
7
  6
CONTINUOUS
 70
0
 71
3
 72
19
 73
15
 74
0
 42
0.0000001
 43
0.0000001
 44
0.0000000001
 40
0.0
 40
0.0
 40
0.0
 40
0.0
 40
0.0616584462
 40
0.1233399329
 40
0.1850672163
 40
0.2468625637
 40
0.3087474953
 40
0.370742507
 40
0.4328668993
 40
0.495138574
 40
0.6201443378
 40
0.7459117844
 40
0.8725152897
 40
1.0
 40
1.0
 40
1.0
 40
1.0
 10
10.7291100628
 20
6.667895726
 30
0.0
 10
10.7317360235
 20
6.6704322118
 30
0.0
 10
10.7371265029
 20
6.6753658934
 30
0.0
 10
10.7455999226
 20
6.6823225607
 30
0.0
 10
10.7544413143
 20
6.6888193733
 30
0.0
 10
10.7636280328
 20
6.6948397601
 30
0.0
 10
10.7731370919
 20
6.7003685608
 30
0.0
 10
10.7829443873
 20
6.7053918356
 30
0.0
 10
10.7930255523
 20
6.7098971089
 30
0.0
 10
10.8068128112
 20
6.7152040629
 30
0.0
 10
10.8246184922
 20
6.7204876025
 30
0.0
 10
10.8466236035
 20
6.7245923633
 30
0.0
 10
10.8690779397
 20
6.7264330806
 30
0.0
 10
10.8841501577
 20
6.7261390757
 30
0.0
 10
10.8916807555
 20
6.725616827
 30
0.0
  0
SPLINE
  5
396
100
AcDbEntity
  8
0
100
AcDbSpline
 62
7
  6
CONTINUOUS
 70
0
 71
3
 72
19
 73
15
 74
0
 42
0.0000001
 43
0.0000001
 44
0.0000000001
 40
0.0
 40
0.0
 40
0.0
 40
0.0
 40
0.0616584462
 40
0.1233399329
 40
0.1850672163
 40
0.2468625637
 40
0.3087474953
 40
0.370742507
 40
0.4328668993
 40
0.495138574
 40
0.6201443378
 40
0.7459117844
 40
0.8725152897
 40
1.0
 40
1.0
 40
1.0
 40
1.0
 10
12.0872018726
 20
9.2300079188
 30
0.0
 10
12.0898278332
 20
9.2325444046
 30
0.0
 10
12.0952183126
 20
9.2374780861
 30
0.0
 10
12.1036917324
 20
9.2444347535
 30
0.0
 10
12.1125331241
 20
9.2509315661
 30
0.0
 10
12.1217198425
 20
9.2569519529
 30
0.0
 10
12.1312289016
 20
9.2624807536
 30
0.0
 10
12.141036197
 20
9.2675040284
 30
0.0
 10
12.151117362
 20
9.2720093017
 30
0.0
 10
12.164904621
 20
9.2773162557
 30
0.0
 10
12.1827103019
 20
9.2825997953
 30
0.0
 10
12.2047154133
 20
9.2867045561
 30
0.0
 10
12.2271697495
 20
9.2885452734
 30
0.0
 10
12.2422419674
 20
9.2882512685
 30
0.0
 10
12.2497725652
 20
9.2877290198
 30
0.0
  0
SPLINE
  5
397
100
AcDbEntity
  8
0
100
AcDbSpline
 62
7
  6
CONTINUOUS
 70
0
 71
3
 72
19
 73
15
 74
0
 42
0.0000001
 43
0.0000001
 44
0.0000000001
 40
0.0
 40
0.0
 40
0.0
 40
0.0
 40
0.0616584462
 40
0.1233399329
 40
0.1850672163
 40
0.2468625637
 40
0.3087474953
 40
0.370742507
 40
0.4328668993
 40
0.495138574
 40
0.6201443378
 40
0.7459117844
 40
0.8725152897
 40
1.0
 40
1.0
 40
1.0
 40
1.0
 10
10.7291100628
 20
9.3241919057
 30
0.0
 10
10.7317360235
 20
9.3267283915
 30
0.0
 10
10.7371265029
 20
9.331662073
 30
0.0
 10
10.7455999226
 20
9.3386187404
 30
0.0
 10
10.7544413143
 20
9.345115553
 30
0.0
 10
10.7636280328
 20
9.3511359398
 30
0.0
 10
10.7731370919
 20
9.3566647405
 30
0.0
 10
10.7829443873
 20
9.3616880153
 30
0.0
 10
10.7930255523
 20
9.3661932886
 30
0.0
 10
10.8068128112
 20
9.3715002426
 30
0.0
 10
10.8246184922
 20
9.3767837822
 30
0.0
 10
10.8466236035
 20
9.380888543
 30
0.0
 10
10.8690779397
 20
9.3827292603
 30
0.0
 10
10.8841501577
 20
9.3824352554
 30
0.0
 10
10.8916807555
 20
9.3819130067
 30
0.0
  0
SPLINE
  5
398
100
AcDbEntity
  8
0
100
AcDbSpline
 62
7
  6
CONTINUOUS
 70
0
 71
3
 72
19
 73
15
 74
0
 42
0.0000001
 43
0.0000001
 44
0.0000000001
 40
0.0
 40
0.0
 40
0.0
 40
0.0
 40
0.1218496754
 40
0.2444746962
 40
0.3061121599
 40
0.3679682841
 40
0.4923373341
 40
0.617663035
 40
0.6807213069
 40
0.7440387157
 40
0.8076211801
 40
0.8714715974
 40
0.9355985664
 40
1.0
 40
1.0
 40
1.0
 40
1.0
 10
7.328165092
 20
9.0770220115
 30
0.0
 10
7.3240096813
 20
9.0681632776
 30
0.0
 10
7.316292477
 20
9.0500905825
 30
0.0
 10
7.3083422638
 20
9.0268026365
 30
0.0
 10
7.3030871041
 20
9.0077447262
 30
0.0
 10
7.2985968769
 20
8.9883485701
 30
0.0
 10
7.2945407047
 20
8.9636256289
 30
0.0
 10
7.2928058742
 20
8.9385270936
 30
0.0
 10
7.2929487366
 20
8.9183073309
 30
0.0
 10
7.2938648246
 20
8.9030729012
 30
0.0
 10
7.2956284757
 20
8.8878488382
 30
0.0
 10
7.2982768228
 20
8.8726865052
 30
0.0
 10
7.3018447317
 20
8.8576461637
 30
0.0
 10
7.3048511736
 20
8.8477638318
 30
0.0
 10
7.3065156717
 20
8.8428673729
 30
0.0
  0
SPLINE
  5
399
100
AcDbEntity
  8
0
100
AcDbSpline
 62
7
  6
CONTINUOUS
 70
0
 71
3
 72
55
 73
51
 74
0
 42
0.0000001
 43
0.0000001
 44
0.0000000001
 40
0.0
 40
0.0
 40
0.0
 40
0.0
 40
0.0097389837
 40
0.0199694047
 40
0.0306881155
 40
0.0418902156
 40
0.0535692052
 40
0.0657172189
 40
0.0783251641
 40
0.0913827877
 40
0.1048788354
 40
0.118801127
 40
0.1331365858
 40
0.1478713608
 40
0.1629908685
 40
0.1784798097
 40
0.1943222689
 40
0.2105017389
 40
0.2438023568
 40
0.2782397504
 40
0.3136643346
 40
0.3499205578
 40
0.3868479546
 40
0.424282136
 40
0.4620557913
 40
0.4999996713
 40
0.5379435542
 40
0.5757172198
 40
0.6131514152
 40
0.6500788303
 40
0.6863350839
 40
0.7217596995
 40
0.756197125
 40
0.7894977913
 40
0.8056772775
 40
0.8215197689
 40
0.837008734
 40
0.8521282609
 40
0.866863073
 40
0.8811985576
 40
0.8951208712
 40
0.9086169603
 40
0.9216746109
 40
0.9342825808
 40
0.9464306392
 40
0.9581096565
 40
0.9693117834
 40
0.9800305412
 40
0.9902609907
 40
1.0
 40
1.0
 40
1.0
 40
1.0
 10
14.0863411605
 20
7.5650134289
 30
0.0
 10
14.0838984157
 20
7.5708823388
 30
0.0
 10
14.0791022967
 20
7.5830056428
 30
0.0
 10
14.0723166221
 20
7.6018553939
 30
0.0
 10
14.0657697683
 20
7.6217970625
 30
0.0
 10
14.0594697164
 20
7.6428067955
 30
0.0
 10
14.0534239352
 20
7.6648597841
 30
0.0
 10
14.0476396999
 20
7.6879298235
 30
0.0
 10
14.0421240006
 20
7.7119894935
 30
0.0
 10
14.036883437
 20
7.737010132
 30
0.0
 10
14.0319243291
 20
7.7629619157
 30
0.0
 10
14.0272526832
 20
7.789813889
 30
0.0
 10
14.0228740904
 20
7.8175339917
 30
0.0
 10
14.0187938394
 20
7.8460891176
 30
0.0
 10
14.0150168705
 20
7.8754451551
 30
0.0
 10
14.0115477119
 20
7.9055670057
 30
0.0
 10
14.008390512
 20
7.9364186984
 30
0.0
 10
14.0045654528
 20
7.9788859495
 30
0.0
 10
14.0006141176
 20
8.0335242205
 30
0.0
 10
13.9972111857
 20
8.1007807484
 30
0.0
 10
13.9951197337
 20
8.170020787
 30
0.0
 10
13.9943500986
 20
8.2409131738
 30
0.0
 10
13.9949063531
 20
8.3131191234
 30
0.0
 10
13.996786076
 20
8.3862933927
 30
0.0
 10
13.9999804393
 20
8.460086088
 30
0.0
 10
14.0044742892
 20
8.5341443222
 30
0.0
 10
14.0102461675
 20
8.6081139318
 30
0.0
 10
14.0172684188
 20
8.6816411814
 30
0.0
 10
14.0255073786
 20
8.754374466
 30
0.0
 10
14.0349234822
 20
8.825966026
 30
0.0
 10
14.0454714416
 20
8.896073592
 30
0.0
 10
14.057100493
 20
8.9643621767
 30
0.0
 10
14.0697546945
 20
9.0305052144
 30
0.0
 10
14.0812102318
 20
9.0840750874
 30
0.0
 10
14.0908607104
 20
9.1256078713
 30
0.0
 10
14.0982463163
 20
9.1557284723
 30
0.0
 10
14.1058401717
 20
9.1850831533
 30
0.0
 10
14.1136331931
 20
9.2136368631
 30
0.0
 10
14.1216160037
 20
9.2413554757
 30
0.0
 10
14.1297790624
 20
9.2682058716
 30
0.0
 10
14.1381125457
 20
9.2941559961
 30
0.0
 10
14.1466064432
 20
9.319174882
 30
0.0
 10
14.1552506011
 20
9.3432326772
 30
0.0
 10
14.1640346196
 20
9.3663007237
 30
0.0
 10
14.1729479594
 20
9.3883515624
 30
0.0
 10
14.1819799873
 20
9.4093589712
 30
0.0
 10
14.1911198493
 20
9.429298012
 30
0.0
 10
14.2003566753
 20
9.4481451681
 30
0.0
 10
14.2096793624
 20
9.4658778681
 30
0.0
 10
14.2161030128
 20
9.4772231266
 30
0.0
 10
14.2193324989
 20
9.4826986848
 30
0.0
  0
SPLINE
  5
39A
100
AcDbEntity
  8
0
100
AcDbSpline
 62
7
  6
CONTINUOUS
 70
0
 71
3
 72
11
 73
7
 74
0
 42
0.0000001
 43
0.0000001
 44
0.0000000001
 40
0.0
 40
0.0
 40
0.0
 40
0.0
 40
0.2677723212
 40
0.5235347616
 40
0.7675175711
 40
1.0
 40
1.0
 40
1.0
 40
1.0
 10
14.220950203
 20
9.4815048703
 30
0.0
 10
14.2232223595
 20
9.484593094
 30
0.0
 10
14.2277677074
 20
9.4905563221
 30
0.0
 10
14.2347585512
 20
9.4990392639
 30
0.0
 10
14.241759809
 20
9.5068474088
 30
0.0
 10
14.2465444769
 20
9.5117148408
 30
0.0
 10
14.2489386917
 20
9.5140274749
 30
0.0
  0
SPLINE
  5
39B
100
AcDbEntity
  8
0
100
AcDbSpline
 62
7
  6
CONTINUOUS
 70
0
 71
3
 72
41
 73
37
 74
0
 42
0.0000001
 43
0.0000001
 44
0.0000000001
 40
0.0
 40
0.0
 40
0.0
 40
0.0
 40
0.0299421701
 40
0.0599087164
 40
0.0899234211
 40
0.1200088983
 40
0.1501860543
 40
0.1804736026
 40
0.2108876422
 40
0.2414413123
 40
0.2721445279
 40
0.3030038001
 40
0.33402214
 40
0.3651990456
 40
0.3965305656
 40
0.428009435
 40
0.4596252751
 40
0.4913648511
 40
0.523212379
 40
0.5551498748
 40
0.5871575372
 40
0.6192141578
 40
0.6512975514
 40
0.6833850007
 40
0.7154537075
 40
0.7314764095
 40
0.7474860758
 40
0.7794508394
 40
0.8113324795
 40
0.8431123195
 40
0.8747737607
 40
0.9063025939
 40
0.9376875098
 40
0.9533255635
 40
0.9689249841
 40
1.0
 40
1.0
 40
1.0
 40
1.0
 10
7.0564404431
 20
9.0827076535
 30
0.0
 10
7.063159258
 20
9.0891975323
 30
0.0
 10
7.0771252005
 20
9.1016535328
 30
0.0
 10
7.0995008158
 20
9.1186226321
 30
0.0
 10
7.123188763
 20
9.133791906
 30
0.0
 10
7.1480566866
 20
9.147076256
 30
0.0
 10
7.1739678662
 20
9.1584031022
 30
0.0
 10
7.2007793003
 20
9.1677101787
 30
0.0
 10
7.2283432393
 20
9.1749465674
 30
0.0
 10
7.2565078244
 20
9.1800727631
 30
0.0
 10
7.2851179864
 20
9.1830609228
 30
0.0
 10
7.3140162895
 20
9.1838949826
 30
0.0
 10
7.343043801
 20
9.1825707287
 30
0.0
 10
7.372040959
 20
9.1790958005
 30
0.0
 10
7.4008484417
 20
9.1734896325
 30
0.0
 10
7.4293080314
 20
9.1657833335
 30
0.0
 10
7.4572634726
 20
9.156019509
 30
0.0
 10
7.484561321
 20
9.1442520265
 30
0.0
 10
7.511051772
 20
9.1305457039
 30
0.0
 10
7.5365894676
 20
9.1149759596
 30
0.0
 10
7.5610342988
 20
9.0976283762
 30
0.0
 10
7.5842521036
 20
9.0785983173
 30
0.0
 10
7.6061156227
 20
9.0579900927
 30
0.0
 10
7.6265043337
 20
9.0359175695
 30
0.0
 10
7.6421793466
 20
9.0163959469
 30
0.0
 10
7.6538743093
 20
9.0001695161
 30
0.0
 10
7.6649809222
 20
8.9835738709
 30
0.0
 10
7.6777503301
 20
8.962156168
 30
0.0
 10
7.6912117812
 20
8.935505614
 30
0.0
 10
7.7027317329
 20
8.9080617758
 30
0.0
 10
7.7122462623
 20
8.8799757548
 30
0.0
 10
7.7197029552
 20
8.8514024359
 30
0.0
 10
7.7241733896
 20
8.8272834401
 30
0.0
 10
7.7266811932
 20
8.8079041603
 30
0.0
 10
7.7284709354
 20
8.7885434111
 30
0.0
 10
7.7290128519
 20
8.7739745999
 30
0.0
 10
7.7290128519
 20
8.764279815
 30
0.0
  0
SPLINE
  5
39C
100
AcDbEntity
  8
0
100
AcDbSpline
 62
7
  6
CONTINUOUS
 70
0
 71
3
 72
19
 73
15
 74
0
 42
0.0000001
 43
0.0000001
 44
0.0000000001
 40
0.0
 40
0.0
 40
0.0
 40
0.0
 40
0.0539778077
 40
0.1081864
 40
0.1628533246
 40
0.2182001146
 40
0.2744393889
 40
0.3317728338
 40
0.4504197548
 40
0.5121162794
 40
0.5755804662
 40
0.7083012734
 40
0.8495390695
 40
1.0
 40
1.0
 40
1.0
 40
1.0
 10
14.3203366481
 20
9.5467192001
 30
0.0
 10
14.3188849133
 20
9.5468198776
 30
0.0
 10
14.3159674398
 20
9.5469230561
 30
0.0
 10
14.3115761119
 20
9.5467819174
 30
0.0
 10
14.307167053
 20
9.5463451783
 30
0.0
 10
14.3027420457
 20
9.545613008
 30
0.0
 10
14.2983022588
 20
9.5445857688
 30
0.0
 10
14.2922974562
 20
9.5428036242
 30
0.0
 10
14.2863262483
 20
9.540435341
 30
0.0
 10
14.280424144
 20
9.5375380407
 30
0.0
 10
14.274342625
 20
9.5341632847
 30
0.0
 10
14.2667162844
 20
9.529179677
 30
0.0
 10
14.2576873683
 20
9.5221332754
 30
0.0
 10
14.2518562549
 20
9.5168456246
 30
0.0
 10
14.2489386917
 20
9.5140274749
 30
0.0
  0
SPLINE
  5
39D
100
AcDbEntity
  8
0
100
AcDbSpline
 62
7
  6
CONTINUOUS
 70
0
 71
3
 72
39
 73
35
 74
0
 42
0.0000001
 43
0.0000001
 44
0.0000000001
 40
0.0
 40
0.0
 40
0.0
 40
0.0
 40
0.0314025961
 40
0.0630095117
 40
0.0948071013
 40
0.1267734468
 40
0.1588809726
 40
0.1910970221
 40
0.2233851126
 40
0.2557062443
 40
0.2880202666
 40
0.3202872754
 40
0.3524690059
 40
0.3845301832
 40
0.4164397932
 40
0.4481722491
 40
0.4797084079
 40
0.5110363805
 40
0.5421521194
 40
0.5730597416
 40
0.6037715202
 40
0.6343075557
 40
0.6646951111
 40
0.6949675901
 40
0.7251632182
 40
0.7553234778
 40
0.7854913545
 40
0.8157095094
 40
0.8460184692
 40
0.8764549219
 40
0.9070502403
 40
0.9378293108
 40
0.9688091314
 40
1.0
 40
1.0
 40
1.0
 40
1.0
 10
10.884692647
 20
8.8970296995
 30
0.0
 10
10.8764179234
 20
8.8976035535
 30
0.0
 10
10.8598602027
 20
8.8995704605
 30
0.0
 10
10.8353573078
 20
8.9049125358
 30
0.0
 10
10.8113293525
 20
8.9126045177
 30
0.0
 10
10.7880101021
 20
8.9225718755
 30
0.0
 10
10.7656225431
 20
8.9347182587
 30
0.0
 10
10.7443816475
 20
8.9489266021
 30
0.0
 10
10.7244911575
 20
8.9650602964
 30
0.0
 10
10.706141917
 20
8.982964299
 30
0.0
 10
10.6895099851
 20
9.002466672
 30
0.0
 10
10.6747551336
 20
9.0233803063
 30
0.0
 10
10.6620192191
 20
9.0455045618
 30
0.0
 10
10.6514247734
 20
9.0686271495
 30
0.0
 10
10.6430740256
 20
9.0925262273
 30
0.0
 10
10.6370478433
 20
9.1169724065
 30
0.0
 10
10.6334047786
 20
9.1417308776
 30
0.0
 10
10.6321807056
 20
9.1665636806
 30
0.0
 10
10.6333884036
 20
9.1912318919
 30
0.0
 10
10.637017131
 20
9.215497897
 30
0.0
 10
10.6430328726
 20
9.2391276735
 30
0.0
 10
10.6513786016
 20
9.2618929975
 30
0.0
 10
10.6619744909
 20
9.2835737597
 30
0.0
 10
10.6747187682
 20
9.3039601419
 30
0.0
 10
10.6894887255
 20
9.3228546587
 30
0.0
 10
10.7061416937
 20
9.3400743
 30
0.0
 10
10.7245165258
 20
9.3554524136
 30
0.0
 10
10.7444353476
 20
9.3688402669
 30
0.0
 10
10.7657052224
 20
9.3801086646
 30
0.0
 10
10.7881202305
 20
9.3891492745
 30
0.0
 10
10.8114633417
 20
9.3958754771
 30
0.0
 10
10.8355097088
 20
9.4002230346
 30
0.0
 10
10.8600243097
 20
9.4021514315
 30
0.0
 10
10.8764737146
 20
9.4018129956
 30
0.0
 10
10.884692647
 20
9.4012430107
 30
0.0
  0
SPLINE
  5
39E
100
AcDbEntity
  8
0
100
AcDbSpline
 62
7
  6
CONTINUOUS
 70
0
 71
3
 72
66
 73
62
 74
0
 42
0.0000001
 43
0.0000001
 44
0.0000000001
 40
0.0
 40
0.0
 40
0.0
 40
0.0
 40
0.0085742252
 40
0.0179226828
 40
0.028075312
 40
0.0390502964
 40
0.0508542578
 40
0.0634853249
 40
0.0769349151
 40
0.0911885677
 40
0.1062270448
 40
0.1220270428
 40
0.1385615398
 40
0.1558003631
 40
0.1737105673
 40
0.1922565736
 40
0.2114005395
 40
0.2311026156
 40
0.2720110412
 40
0.314630265
 40
0.3585859304
 40
0.4034876426
 40
0.4489338346
 40
0.4945165841
 40
0.5398263927
 40
0.5844569258
 40
0.6280098106
 40
0.6700994214
 40
0.6904803668
 40
0.7103592618
 40
0.729693814
 40
0.7484434627
 40
0.7665696479
 40
0.7840360862
 40
0.800808874
 40
0.8168568436
 40
0.8321519704
 40
0.8466696053
 40
0.860389044
 40
0.8732942514
 40
0.8853744927
 40
0.8966254882
 40
0.9070509876
 40
0.9166645719
 40
0.9254924408
 40
0.9335771906
 40
0.9409823501
 40
0.9477979288
 40
0.9510238654
 40
0.9541508738
 40
0.9571993763
 40
0.9601915696
 40
0.9631510449
 40
0.9661022844
 40
0.969069982
 40
0.9720784015
 40
0.9751507017
 40
0.9783084788
 40
0.984952798
 40
0.9921503667
 40
1.0
 40
1.0
 40
1.0
 40
1.0
 10
11.6734842209
 20
10.3332356324
 30
0.0
 10
11.6747232599
 20
10.3344324523
 30
0.0
 10
11.6774415089
 20
10.3368030217
 30
0.0
 10
11.6819849624
 20
10.340153885
 30
0.0
 10
11.6871551753
 20
10.3434421126
 30
0.0
 10
11.6929398659
 20
10.3466602219
 30
0.0
 10
11.6993261802
 20
10.3498012449
 30
0.0
 10
11.7062993332
 20
10.3528578208
 30
0.0
 10
11.7138430628
 20
10.355822705
 30
0.0
 10
11.7219395866
 20
10.3586888267
 30
0.0
 10
11.7305697104
 20
10.3614492807
 30
0.0
 10
11.7397128947
 20
10.364097353
 30
0.0
 10
11.7493472922
 20
10.3666266537
 30
0.0
 10
11.7594498378
 20
10.3690310523
 30
0.0
 10
11.7699963196
 20
10.3713046828
 30
0.0
 10
11.7809614126
 20
10.3734420392
 30
0.0
 10
11.7923187953
 20
10.375437988
 30
0.0
 10
11.8081473581
 20
10.3779353569
 30
0.0
 10
11.8287124237
 20
10.3806539919
 30
0.0
 10
11.8541972662
 20
10.3832472697
 30
0.0
 10
11.8805447147
 20
10.3851852326
 30
0.0
 10
11.9075014615
 20
10.3864488856
 30
0.0
 10
11.9348085262
 20
10.3870257787
 30
0.0
 10
11.9622034056
 20
10.386910282
 30
0.0
 10
11.9894227392
 20
10.3861035008
 30
0.0
 10
12.0162049592
 20
10.384613376
 30
0.0
 10
12.0422925168
 20
10.382454508
 30
0.0
 10
12.063466007
 20
10.380091414
 30
0.0
 10
12.0798619791
 20
10.3778708512
 30
0.0
 10
12.0916997776
 20
10.3760709887
 30
0.0
 10
12.1031818868
 20
10.3741233375
 30
0.0
 10
12.1142807213
 20
10.3720325662
 30
0.0
 10
12.1249696054
 20
10.3698037471
 30
0.0
 10
12.1352228833
 20
10.3674423175
 30
0.0
 10
12.1450159572
 20
10.3649539917
 30
0.0
 10
12.1543253664
 20
10.3623447921
 30
0.0
 10
12.1631288669
 20
10.3596210807
 30
0.0
 10
12.171405467
 20
10.356789436
 30
0.0
 10
12.1791355044
 20
10.3538566718
 30
0.0
 10
12.1863007417
 20
10.3508298688
 30
0.0
 10
12.1928843901
 20
10.3477162104
 30
0.0
 10
12.1988711853
 20
10.3445229428
 30
0.0
 10
12.2042474919
 20
10.3412573675
 30
0.0
 10
12.2090012737
 20
10.3379264921
 30
0.0
 10
12.2131219727
 20
10.3345369551
 30
0.0
 10
12.2166005033
 20
10.3310943503
 30
0.0
 10
12.2194279316
 20
10.327604363
 30
0.0
 10
12.2212669699
 20
10.3246046812
 30
0.0
 10
12.2223779405
 20
10.3222007196
 30
0.0
 10
12.2230278638
 20
10.3204247366
 30
0.0
 10
12.2235089133
 20
10.3186442469
 30
0.0
 10
12.2238205632
 20
10.3168604354
 30
0.0
 10
12.2239622715
 20
10.3150746728
 30
0.0
 10
12.2239339189
 20
10.3132884231
 30
0.0
 10
12.223735556
 20
10.3115031403
 30
0.0
 10
12.2233673726
 20
10.3097202945
 30
0.0
 10
12.2228299158
 20
10.3079411435
 30
0.0
 10
12.2218725916
 20
10.3055353012
 30
0.0
 10
12.220224262
 20
10.3025274969
 30
0.0
 10
12.2176159514
 20
10.2990227111
 30
0.0
 10
12.2155370458
 20
10.2968184862
 30
0.0
 10
12.2144027156
 20
10.2957228074
 30
0.0
  0
SPLINE
  5
39F
100
AcDbEntity
  8
0
100
AcDbSpline
 62
7
  6
CONTINUOUS
 70
0
 71
3
 72
41
 73
37
 74
0
 42
0.0000001
 43
0.0000001
 44
0.0000000001
 40
0.0
 40
0.0
 40
0.0
 40
0.0
 40
0.0311444435
 40
0.0624425082
 40
0.0938872491
 40
0.1254695823
 40
0.1571771047
 40
0.1889951244
 40
0.2209066755
 40
0.2528929806
 40
0.2849337954
 40
0.3170078208
 40
0.3490931155
 40
0.3811675209
 40
0.4132090884
 40
0.4451965039
 40
0.4771095035
 40
0.5089292748
 40
0.5406388381
 40
0.5722234001
 40
0.6036706745
 40
0.6349711617
 40
0.666118382
 40
0.6971090532
 40
0.7279432083
 40
0.7586242446
 40
0.7891589004
 40
0.819557156
 40
0.849832054
 40
0.8649308927
 40
0.8800050544
 40
0.9100832588
 40
0.9400926743
 40
0.955081275
 40
0.9700610362
 40
1.0
 40
1.0
 40
1.0
 40
1.0
 10
10.8916807555
 20
8.9298596932
 30
0.0
 10
10.886161436
 20
8.9302424593
 30
0.0
 10
10.8751194855
 20
8.9314138897
 30
0.0
 10
10.8586904483
 20
8.9343646744
 30
0.0
 10
10.8424373501
 20
8.9384979375
 30
0.0
 10
10.8264480465
 20
8.9437913101
 30
0.0
 10
10.8108074243
 20
8.9502165153
 30
0.0
 10
10.795598932
 20
8.9577391359
 30
0.0
 10
10.7809035847
 20
8.9663189915
 30
0.0
 10
10.7667996874
 20
8.9759102632
 30
0.0
 10
10.7533623859
 20
8.9864617753
 30
0.0
 10
10.7406632794
 20
8.9979172511
 30
0.0
 10
10.7287700417
 20
9.0102156164
 30
0.0
 10
10.7177460641
 20
9.0232913197
 30
0.0
 10
10.7076501218
 20
9.0370746795
 30
0.0
 10
10.6985360623
 20
9.0514922508
 30
0.0
 10
10.6904525213
 20
9.0664672127
 30
0.0
 10
10.683442665
 20
9.0819197729
 30
0.0
 10
10.6775439601
 20
9.0977675874
 30
0.0
 10
10.6727879746
 20
9.1139261938
 30
0.0
 10
10.6692002078
 20
9.1303094554
 30
0.0
 10
10.6667999516
 20
9.1468300139
 30
0.0
 10
10.6656001841
 20
9.1633997501
 30
0.0
 10
10.6656074922
 20
9.1799302437
 30
0.0
 10
10.6668220378
 20
9.196333257
 30
0.0
 10
10.669237515
 20
9.2125211391
 30
0.0
 10
10.6728412929
 20
9.2284075288
 30
0.0
 10
10.6776140341
 20
9.2439069374
 30
0.0
 10
10.6825498405
 20
9.2564450528
 30
0.0
 10
10.6870540311
 20
9.2661953714
 30
0.0
 10
10.6919149017
 20
9.2757336946
 30
0.0
 10
10.698663958
 20
9.2872707898
 30
0.0
 10
10.7062810639
 20
9.2982357509
 30
0.0
 10
10.7128633225
 20
9.3066171252
 30
0.0
 10
10.7197596361
 20
9.3147248852
 30
0.0
 10
10.7252847583
 20
9.3204969415
 30
0.0
 10
10.7291100628
 20
9.3241919057
 30
0.0
  0
SPLINE
  5
3A0
100
AcDbEntity
  8
0
100
AcDbSpline
 62
7
  6
CONTINUOUS
 70
0
 71
3
 72
41
 73
37
 74
0
 42
0.0000001
 43
0.0000001
 44
0.0000000001
 40
0.0
 40
0.0
 40
0.0
 40
0.0
 40
0.0311444435
 40
0.0624425082
 40
0.0938872491
 40
0.1254695823
 40
0.1571771047
 40
0.1889951244
 40
0.2209066755
 40
0.2528929806
 40
0.2849337954
 40
0.3170078208
 40
0.3490931155
 40
0.3811675209
 40
0.4132090884
 40
0.4451965039
 40
0.4771095035
 40
0.5089292748
 40
0.5406388381
 40
0.5722234001
 40
0.6036706745
 40
0.6349711617
 40
0.666118382
 40
0.6971090532
 40
0.7279432083
 40
0.7586242446
 40
0.7891589004
 40
0.819557156
 40
0.849832054
 40
0.8649308927
 40
0.8800050544
 40
0.9100832588
 40
0.9400926743
 40
0.955081275
 40
0.9700610362
 40
1.0
 40
1.0
 40
1.0
 40
1.0
 10
12.2497725652
 20
8.8356757063
 30
0.0
 10
12.2442532458
 20
8.8360584724
 30
0.0
 10
12.2332112952
 20
8.8372299028
 30
0.0
 10
12.2167822581
 20
8.8401806875
 30
0.0
 10
12.2005291598
 20
8.8443139506
 30
0.0
 10
12.1845398562
 20
8.8496073232
 30
0.0
 10
12.168899234
 20
8.8560325284
 30
0.0
 10
12.1536907417
 20
8.863555149
 30
0.0
 10
12.1389953944
 20
8.8721350046
 30
0.0
 10
12.1248914971
 20
8.8817262763
 30
0.0
 10
12.1114541956
 20
8.8922777884
 30
0.0
 10
12.0987550892
 20
8.9037332642
 30
0.0
 10
12.0868618514
 20
8.9160316295
 30
0.0
 10
12.0758378739
 20
8.9291073328
 30
0.0
 10
12.0657419315
 20
8.9428906926
 30
0.0
 10
12.056627872
 20
8.9573082639
 30
0.0
 10
12.0485443311
 20
8.9722832258
 30
0.0
 10
12.0415344747
 20
8.987735786
 30
0.0
 10
12.0356357699
 20
9.0035836005
 30
0.0
 10
12.0308797844
 20
9.0197422069
 30
0.0
 10
12.0272920176
 20
9.0361254685
 30
0.0
 10
12.0248917614
 20
9.052646027
 30
0.0
 10
12.0236919938
 20
9.0692157632
 30
0.0
 10
12.023699302
 20
9.0857462568
 30
0.0
 10
12.0249138475
 20
9.1021492701
 30
0.0
 10
12.0273293247
 20
9.1183371522
 30
0.0
 10
12.0309331026
 20
9.1342235419
 30
0.0
 10
12.0357058438
 20
9.1497229505
 30
0.0
 10
12.0406416502
 20
9.1622610659
 30
0.0
 10
12.0451458408
 20
9.1720113845
 30
0.0
 10
12.0500067114
 20
9.1815497077
 30
0.0
 10
12.0567557677
 20
9.1930868029
 30
0.0
 10
12.0643728737
 20
9.204051764
 30
0.0
 10
12.0709551323
 20
9.2124331383
 30
0.0
 10
12.0778514459
 20
9.2205408983
 30
0.0
 10
12.0833765681
 20
9.2263129546
 30
0.0
 10
12.0872018726
 20
9.2300079188
 30
0.0
  0
SPLINE
  5
3A1
100
AcDbEntity
  8
0
100
AcDbSpline
 62
7
  6
CONTINUOUS
 70
0
 71
3
 72
39
 73
35
 74
0
 42
0.0000001
 43
0.0000001
 44
0.0000000001
 40
0.0
 40
0.0
 40
0.0
 40
0.0
 40
0.0337403737
 40
0.06606325
 40
0.0970305793
 40
0.1267190778
 40
0.1552199424
 40
0.1826383006
 40
0.2090940824
 40
0.2347227684
 40
0.2596755372
 40
0.2841174073
 40
0.3082250837
 40
0.3321832854
 40
0.3561805441
 40
0.3804043854
 40
0.4050367294
 40
0.4302497362
 40
0.4562029841
 40
0.4830411716
 40
0.5108936549
 40
0.5398740108
 40
0.57008098
 40
0.6015993415
 40
0.6345010384
 40
0.6688468246
 40
0.7046869287
 40
0.7420629831
 40
0.7810082808
 40
0.8215494439
 40
0.8637067177
 40
0.9074949316
 40
0.952924189
 40
1.0
 40
1.0
 40
1.0
 40
1.0
 10
14.2726921937
 20
7.477566868
 30
0.0
 10
14.2706102488
 20
7.4755558635
 30
0.0
 10
14.2664478273
 20
7.4717058945
 30
0.0
 10
14.2600690673
 20
7.4663523172
 30
0.0
 10
14.253695088
 20
7.4615498747
 30
0.0
 10
14.2473292196
 20
7.4573015378
 30
0.0
 10
14.240974323
 20
7.4536097572
 30
0.0
 10
14.2346332967
 20
7.4504769083
 30
0.0
 10
14.2283092147
 20
7.4479052004
 30
0.0
 10
14.2220052446
 20
7.4458969833
 30
0.0
 10
14.215724927
 20
7.4444540429
 30
0.0
 10
14.2094719942
 20
7.4435782477
 30
0.0
 10
14.2032505956
 20
7.4432706505
 30
0.0
 10
14.1970650905
 20
7.4435320029
 30
0.0
 10
14.1909199683
 20
7.4443621608
 30
0.0
 10
14.1848195991
 20
7.4457602716
 30
0.0
 10
14.178768137
 20
7.4477249596
 30
0.0
 10
14.172769272
 20
7.4502540994
 30
0.0
 10
14.1668264537
 20
7.4533455643
 30
0.0
 10
14.1609426193
 20
7.456996669
 30
0.0
 10
14.1551206571
 20
7.4612049263
 30
0.0
 10
14.149363145
 20
7.465967504
 30
0.0
 10
14.1436726945
 20
7.4712816066
 30
0.0
 10
14.1380518758
 20
7.4771442523
 30
0.0
 10
14.1325031966
 20
7.4835522399
 30
0.0
 10
14.1270293411
 20
7.490502267
 30
0.0
 10
14.1216327934
 20
7.4979906508
 30
0.0
 10
14.1163163019
 20
7.5060136061
 30
0.0
 10
14.1110823792
 20
7.5145669436
 30
0.0
 10
14.1059337299
 20
7.5236463034
 30
0.0
 10
14.1008729246
 20
7.5332469784
 30
0.0
 10
14.0959025404
 20
7.5433640277
 30
0.0
 10
14.0910252161
 20
7.5539921505
 30
0.0
 10
14.0878930551
 20
7.5612848649
 30
0.0
 10
14.0863411605
 20
7.5650134289
 30
0.0
  0
SPLINE
  5
3A2
100
AcDbEntity
  8
0
100
AcDbSpline
 62
7
  6
CONTINUOUS
 70
0
 71
3
 72
41
 73
37
 74
0
 42
0.0000001
 43
0.0000001
 44
0.0000000001
 40
0.0
 40
0.0
 40
0.0
 40
0.0
 40
0.0311444435
 40
0.0624425082
 40
0.0938872491
 40
0.1254695823
 40
0.1571771047
 40
0.1889951244
 40
0.2209066755
 40
0.2528929806
 40
0.2849337954
 40
0.3170078208
 40
0.3490931155
 40
0.3811675209
 40
0.4132090884
 40
0.4451965039
 40
0.4771095035
 40
0.5089292748
 40
0.5406388381
 40
0.5722234001
 40
0.6036706745
 40
0.6349711617
 40
0.666118382
 40
0.6971090532
 40
0.7279432083
 40
0.7586242446
 40
0.7891589004
 40
0.819557156
 40
0.849832054
 40
0.8649308927
 40
0.8800050544
 40
0.9100832588
 40
0.9400926743
 40
0.955081275
 40
0.9700610362
 40
1.0
 40
1.0
 40
1.0
 40
1.0
 10
10.8916807555
 20
6.2735635135
 30
0.0
 10
10.886161436
 20
6.2739462796
 30
0.0
 10
10.8751194855
 20
6.27511771
 30
0.0
 10
10.8586904483
 20
6.2780684947
 30
0.0
 10
10.8424373501
 20
6.2822017578
 30
0.0
 10
10.8264480465
 20
6.2874951304
 30
0.0
 10
10.8108074243
 20
6.2939203356
 30
0.0
 10
10.795598932
 20
6.3014429562
 30
0.0
 10
10.7809035847
 20
6.3100228118
 30
0.0
 10
10.7667996874
 20
6.3196140835
 30
0.0
 10
10.7533623859
 20
6.3301655956
 30
0.0
 10
10.7406632794
 20
6.3416210714
 30
0.0
 10
10.7287700417
 20
6.3539194367
 30
0.0
 10
10.7177460641
 20
6.36699514
 30
0.0
 10
10.7076501218
 20
6.3807784998
 30
0.0
 10
10.6985360623
 20
6.3951960711
 30
0.0
 10
10.6904525213
 20
6.410171033
 30
0.0
 10
10.683442665
 20
6.4256235932
 30
0.0
 10
10.6775439601
 20
6.4414714077
 30
0.0
 10
10.6727879746
 20
6.4576300141
 30
0.0
 10
10.6692002078
 20
6.4740132757
 30
0.0
 10
10.6667999516
 20
6.4905338342
 30
0.0
 10
10.6656001841
 20
6.5071035705
 30
0.0
 10
10.6656074922
 20
6.523634064
 30
0.0
 10
10.6668220378
 20
6.5400370774
 30
0.0
 10
10.669237515
 20
6.5562249594
 30
0.0
 10
10.6728412929
 20
6.5721113492
 30
0.0
 10
10.6776140341
 20
6.5876107577
 30
0.0
 10
10.6825498405
 20
6.6001488731
 30
0.0
 10
10.6870540311
 20
6.6098991917
 30
0.0
 10
10.6919149017
 20
6.6194375149
 30
0.0
 10
10.698663958
 20
6.6309746101
 30
0.0
 10
10.7062810639
 20
6.6419395712
 30
0.0
 10
10.7128633225
 20
6.6503209455
 30
0.0
 10
10.7197596361
 20
6.6584287055
 30
0.0
 10
10.7252847583
 20
6.6642007618
 30
0.0
 10
10.7291100628
 20
6.667895726
 30
0.0
  0
SPLINE
  5
3A3
100
AcDbEntity
  8
0
100
AcDbSpline
 62
7
  6
CONTINUOUS
 70
0
 71
3
 72
39
 73
35
 74
0
 42
0.0000001
 43
0.0000001
 44
0.0000000001
 40
0.0
 40
0.0
 40
0.0
 40
0.0
 40
0.0308748231
 40
0.0602555676
 40
0.0882221289
 40
0.1148756663
 40
0.1403370972
 40
0.1647478956
 40
0.1882713021
 40
0.211092685
 40
0.2334168169
 40
0.255463808
 40
0.277462816
 40
0.2996446415
 40
0.3222340166
 40
0.3454426526
 40
0.3694643491
 40
0.3944717102
 40
0.4206153979
 40
0.4480241761
 40
0.4768067316
 40
0.5070531489
 40
0.5388374673
 40
0.57221926
 40
0.6072459948
 40
0.6439542354
 40
0.6823715447
 40
0.7225172674
 40
0.7644039947
 40
0.8080380251
 40
0.8534204785
 40
0.9005475454
 40
0.9494113352
 40
1.0
 40
1.0
 40
1.0
 40
1.0
 10
14.2726921937
 20
9.5535224362
 30
0.0
 10
14.2750895993
 20
9.5558381523
 30
0.0
 10
14.2798821872
 20
9.5602420616
 30
0.0
 10
14.2872514469
 20
9.5662842476
 30
0.0
 10
14.2946139064
 20
9.5715900004
 30
0.0
 10
14.3019646987
 20
9.5761549189
 30
0.0
 10
14.3092997045
 20
9.5799750194
 30
0.0
 10
14.316614382
 20
9.5830465962
 30
0.0
 10
14.3239039791
 20
9.585365624
 30
0.0
 10
14.3311629674
 20
9.5869287881
 30
0.0
 10
14.3383851892
 20
9.5877329188
 30
0.0
 10
14.3455636398
 20
9.5877762614
 30
0.0
 10
14.3526908485
 20
9.5870579949
 30
0.0
 10
14.3597593622
 20
9.5855793263
 30
0.0
 10
14.3667621715
 20
9.5833424718
 30
0.0
 10
14.3736932168
 20
9.5803511182
 30
0.0
 10
14.3805471861
 20
9.5766091843
 30
0.0
 10
14.3873196771
 20
9.5721211988
 30
0.0
 10
14.394006566
 20
9.5668914728
 30
0.0
 10
14.4006041758
 20
9.5609246538
 30
0.0
 10
14.407108678
 20
9.5542252893
 30
0.0
 10
14.4135164305
 20
9.5467983557
 30
0.0
 10
14.419823511
 20
9.5386489837
 30
0.0
 10
14.4260261319
 20
9.5297828401
 30
0.0
 10
14.4321202584
 20
9.5202059206
 30
0.0
 10
14.4381020092
 20
9.5099247946
 30
0.0
 10
14.4439673274
 20
9.4989464467
 30
0.0
 10
14.4497123311
 20
9.4872784267
 30
0.0
 10
14.4553330288
 20
9.4749287353
 30
0.0
 10
14.4608256125
 20
9.4619059106
 30
0.0
 10
14.4661862161
 20
9.4482189569
 30
0.0
 10
14.4714111621
 20
9.4338773647
 30
0.0
 10
14.4764967274
 20
9.4188911725
 30
0.0
 10
14.4797360466
 20
9.4086539322
 30
0.0
 10
14.4813340639
 20
9.4034315066
 30
0.0
  0
SPLINE
  5
3A4
100
AcDbEntity
  8
0
100
AcDbSpline
 62
7
  6
CONTINUOUS
 70
0
 71
3
 72
15
 73
11
 74
0
 42
0.0000001
 43
0.0000001
 44
0.0000000001
 40
0.0
 40
0.0
 40
0.0
 40
0.0
 40
0.1514861198
 40
0.2954090823
 40
0.4317105013
 40
0.560370595
 40
0.6814148033
 40
0.794922428
 40
0.9010436898
 40
1.0
 40
1.0
 40
1.0
 40
1.0
 10
14.3568016356
 20
7.6074125576
 30
0.0
 10
14.3534901959
 20
7.6002929708
 30
0.0
 10
14.3468427151
 20
7.5864963262
 30
0.0
 10
14.3365101511
 20
7.5666434724
 30
0.0
 10
14.3260842233
 20
7.5481860946
 30
0.0
 10
14.3155800283
 20
7.5311508548
 30
0.0
 10
14.3050125537
 20
7.5155620918
 30
0.0
 10
14.2943962221
 20
7.5014413425
 30
0.0
 10
14.2837462123
 20
7.4888094961
 30
0.0
 10
14.2763814127
 20
7.4811303801
 30
0.0
 10
14.2726921937
 20
7.477566868
 30
0.0
  0
SPLINE
  5
3A5
100
AcDbEntity
  8
0
100
AcDbSpline
 62
7
  6
CONTINUOUS
 70
0
 71
3
 72
41
 73
37
 74
0
 42
0.0000001
 43
0.0000001
 44
0.0000000001
 40
0.0
 40
0.0
 40
0.0
 40
0.0
 40
0.0311444435
 40
0.0624425082
 40
0.0938872491
 40
0.1254695823
 40
0.1571771047
 40
0.1889951244
 40
0.2209066755
 40
0.2528929806
 40
0.2849337954
 40
0.3170078208
 40
0.3490931155
 40
0.3811675209
 40
0.4132090884
 40
0.4451965039
 40
0.4771095035
 40
0.5089292748
 40
0.5406388381
 40
0.5722234001
 40
0.6036706745
 40
0.6349711617
 40
0.666118382
 40
0.6971090532
 40
0.7279432083
 40
0.7586242446
 40
0.7891589004
 40
0.819557156
 40
0.849832054
 40
0.8649308927
 40
0.8800050544
 40
0.9100832588
 40
0.9400926743
 40
0.955081275
 40
0.9700610362
 40
1.0
 40
1.0
 40
1.0
 40
1.0
 10
12.2497725652
 20
6.1793795266
 30
0.0
 10
12.2442532458
 20
6.1797622927
 30
0.0
 10
12.2332112952
 20
6.1809337231
 30
0.0
 10
12.2167822581
 20
6.1838845078
 30
0.0
 10
12.2005291598
 20
6.1880177709
 30
0.0
 10
12.1845398562
 20
6.1933111435
 30
0.0
 10
12.168899234
 20
6.1997363487
 30
0.0
 10
12.1536907417
 20
6.2072589693
 30
0.0
 10
12.1389953944
 20
6.2158388249
 30
0.0
 10
12.1248914971
 20
6.2254300966
 30
0.0
 10
12.1114541956
 20
6.2359816087
 30
0.0
 10
12.0987550892
 20
6.2474370845
 30
0.0
 10
12.0868618514
 20
6.2597354498
 30
0.0
 10
12.0758378739
 20
6.2728111532
 30
0.0
 10
12.0657419315
 20
6.2865945129
 30
0.0
 10
12.056627872
 20
6.3010120842
 30
0.0
 10
12.0485443311
 20
6.3159870461
 30
0.0
 10
12.0415344747
 20
6.3314396063
 30
0.0
 10
12.0356357699
 20
6.3472874208
 30
0.0
 10
12.0308797844
 20
6.3634460272
 30
0.0
 10
12.0272920176
 20
6.3798292888
 30
0.0
 10
12.0248917614
 20
6.3963498473
 30
0.0
 10
12.0236919938
 20
6.4129195836
 30
0.0
 10
12.023699302
 20
6.4294500771
 30
0.0
 10
12.0249138475
 20
6.4458530905
 30
0.0
 10
12.0273293247
 20
6.4620409725
 30
0.0
 10
12.0309331026
 20
6.4779273623
 30
0.0
 10
12.0357058438
 20
6.4934267708
 30
0.0
 10
12.0406416502
 20
6.5059648862
 30
0.0
 10
12.0451458408
 20
6.5157152048
 30
0.0
 10
12.0500067114
 20
6.525253528
 30
0.0
 10
12.0567557677
 20
6.5367906232
 30
0.0
 10
12.0643728737
 20
6.5477555843
 30
0.0
 10
12.0709551323
 20
6.5561369586
 30
0.0
 10
12.0778514459
 20
6.5642447186
 30
0.0
 10
12.0833765681
 20
6.5700167749
 30
0.0
 10
12.0872018726
 20
6.5737117391
 30
0.0
  0
SPLINE
  5
3A6
100
AcDbEntity
  8
0
100
AcDbSpline
 62
7
  6
CONTINUOUS
 70
0
 71
3
 72
11
 73
7
 74
0
 42
0.0000001
 43
0.0000001
 44
0.0000000001
 40
0.0
 40
0.0
 40
0.0
 40
0.0
 40
0.2609176823
 40
0.5153104443
 40
0.7620012851
 40
1.0
 40
1.0
 40
1.0
 40
1.0
 10
11.3812608253
 20
8.3476362529
 30
0.0
 10
11.3812608253
 20
8.3600123432
 30
0.0
 10
11.3816855552
 20
8.3844574597
 30
0.0
 10
11.3836312338
 20
8.4205571154
 30
0.0
 10
11.3868412808
 20
8.4554750041
 30
0.0
 10
11.3898422428
 20
8.4782758373
 30
0.0
 10
11.3915463986
 20
8.4894354449
 30
0.0
  0
SPLINE
  5
3A7
100
AcDbEntity
  8
0
100
AcDbSpline
 62
7
  6
CONTINUOUS
 70
0
 71
3
 72
39
 73
35
 74
0
 42
0.0000001
 43
0.0000001
 44
0.0000000001
 40
0.0
 40
0.0
 40
0.0
 40
0.0
 40
0.0314025961
 40
0.0630095117
 40
0.0948071013
 40
0.1267734468
 40
0.1588809726
 40
0.1910970221
 40
0.2233851126
 40
0.2557062443
 40
0.2880202666
 40
0.3202872754
 40
0.3524690059
 40
0.3845301832
 40
0.4164397932
 40
0.4481722491
 40
0.4797084079
 40
0.5110363805
 40
0.5421521194
 40
0.5730597416
 40
0.6037715202
 40
0.6343075557
 40
0.6646951111
 40
0.6949675901
 40
0.7251632182
 40
0.7553234778
 40
0.7854913545
 40
0.8157095094
 40
0.8460184692
 40
0.8764549219
 40
0.9070502403
 40
0.9378293108
 40
0.9688091314
 40
1.0
 40
1.0
 40
1.0
 40
1.0
 10
10.884692647
 20
9.4012430107
 30
0.0
 10
10.8929673706
 20
9.4006691567
 30
0.0
 10
10.9095250913
 20
9.3987022496
 30
0.0
 10
10.9340279862
 20
9.3933601744
 30
0.0
 10
10.9580559415
 20
9.3856681925
 30
0.0
 10
10.981375192
 20
9.3757008346
 30
0.0
 10
11.0037627509
 20
9.3635544515
 30
0.0
 10
11.0250036465
 20
9.3493461081
 30
0.0
 10
11.0448941365
 20
9.3332124138
 30
0.0
 10
11.063243377
 20
9.3153084112
 30
0.0
 10
11.0798753089
 20
9.2958060381
 30
0.0
 10
11.0946301604
 20
9.2748924038
 30
0.0
 10
11.107366075
 20
9.2527681483
 30
0.0
 10
11.1179605206
 20
9.2296455607
 30
0.0
 10
11.1263112684
 20
9.2057464829
 30
0.0
 10
11.1323374507
 20
9.1813003037
 30
0.0
 10
11.1359805154
 20
9.1565418326
 30
0.0
 10
11.1372045884
 20
9.1317090296
 30
0.0
 10
11.1359968904
 20
9.1070408183
 30
0.0
 10
11.132368163
 20
9.0827748131
 30
0.0
 10
11.1263524214
 20
9.0591450367
 30
0.0
 10
11.1180066925
 20
9.0363797126
 30
0.0
 10
11.1074108031
 20
9.0146989505
 30
0.0
 10
11.0946665259
 20
8.9943125683
 30
0.0
 10
11.0798965685
 20
8.9754180514
 30
0.0
 10
11.0632436004
 20
8.9581984102
 30
0.0
 10
11.0448687682
 20
8.9428202966
 30
0.0
 10
11.0249499464
 20
8.9294324432
 30
0.0
 10
11.0036800716
 20
8.9181640456
 30
0.0
 10
10.9812650635
 20
8.9091234357
 30
0.0
 10
10.9579219523
 20
8.9023972331
 30
0.0
 10
10.9338755853
 20
8.8980496756
 30
0.0
 10
10.9093609843
 20
8.8961212786
 30
0.0
 10
10.8929115795
 20
8.8964597146
 30
0.0
 10
10.884692647
 20
8.8970296995
 30
0.0
  0
SPLINE
  5
3A8
100
AcDbEntity
  8
0
100
AcDbSpline
 62
7
  6
CONTINUOUS
 70
0
 71
3
 72
19
 73
15
 74
0
 42
0.0000001
 43
0.0000001
 44
0.0000000001
 40
0.0
 40
0.0
 40
0.0
 40
0.0
 40
0.1504609305
 40
0.2916987266
 40
0.4244195338
 40
0.4878837206
 40
0.5495802452
 40
0.6682271662
 40
0.7255606111
 40
0.7817998854
 40
0.8371466754
 40
0.8918136
 40
0.9460221923
 40
1.0
 40
1.0
 40
1.0
 40
1.0
 10
14.2489386917
 20
7.5203564513
 30
0.0
 10
14.2460211285
 20
7.5175383015
 30
0.0
 10
14.2401900151
 20
7.5122506507
 30
0.0
 10
14.231161099
 20
7.5052042491
 30
0.0
 10
14.2235347584
 20
7.5002206414
 30
0.0
 10
14.2174532394
 20
7.4968458854
 30
0.0
 10
14.2115511351
 20
7.4939485851
 30
0.0
 10
14.2055799272
 20
7.4915803019
 30
0.0
 10
14.1995751246
 20
7.4897981573
 30
0.0
 10
14.1951353377
 20
7.4887709182
 30
0.0
 10
14.1907103304
 20
7.4880387479
 30
0.0
 10
14.1863012715
 20
7.4876020088
 30
0.0
 10
14.1819099436
 20
7.48746087
 30
0.0
 10
14.1789924701
 20
7.4875640485
 30
0.0
 10
14.1775407353
 20
7.487664726
 30
0.0
  0
SPLINE
  5
3A9
100
AcDbEntity
  8
0
100
AcDbSpline
 62
7
  6
CONTINUOUS
 70
0
 71
3
 72
14
 73
10
 74
0
 42
0.0000001
 43
0.0000001
 44
0.0000000001
 40
0.0
 40
0.0
 40
0.0
 40
0.0
 40
0.2623593398
 40
0.3908806864
 40
0.5173938048
 40
0.641727299
 40
0.7637138397
 40
0.8831906442
 40
1.0
 40
1.0
 40
1.0
 40
1.0
 10
7.3328555647
 20
8.765842552
 30
0.0
 10
7.332661428
 20
8.790981421
 30
0.0
 10
7.3319844484
 20
8.8284338535
 30
0.0
 10
7.3302632945
 20
8.8779820673
 30
0.0
 10
7.3285881278
 20
8.914295857
 30
0.0
 10
7.3265224987
 20
8.9499622897
 30
0.0
 10
7.3240694621
 20
8.9849284073
 30
0.0
 10
7.3212327057
 20
9.0191420743
 30
0.0
 10
7.3190631453
 20
9.0416799701
 30
0.0
 10
7.3179124012
 20
9.0528134853
 30
0.0
  0
SPLINE
  5
3AA
100
AcDbEntity
  8
0
100
AcDbSpline
 62
7
  6
CONTINUOUS
 70
0
 71
3
 72
39
 73
35
 74
0
 42
0.0000001
 43
0.0000001
 44
0.0000000001
 40
0.0
 40
0.0
 40
0.0
 40
0.0
 40
0.0314025961
 40
0.0630095117
 40
0.0948071013
 40
0.1267734468
 40
0.1588809726
 40
0.1910970221
 40
0.2233851126
 40
0.2557062443
 40
0.2880202666
 40
0.3202872754
 40
0.3524690059
 40
0.3845301832
 40
0.4164397932
 40
0.4481722491
 40
0.4797084079
 40
0.5110363805
 40
0.5421521194
 40
0.5730597416
 40
0.6037715202
 40
0.6343075557
 40
0.6646951111
 40
0.6949675901
 40
0.7251632182
 40
0.7553234778
 40
0.7854913545
 40
0.8157095094
 40
0.8460184692
 40
0.8764549219
 40
0.9070502403
 40
0.9378293108
 40
0.9688091314
 40
1.0
 40
1.0
 40
1.0
 40
1.0
 10
10.884692647
 20
6.2407335198
 30
0.0
 10
10.8764179234
 20
6.2413073738
 30
0.0
 10
10.8598602027
 20
6.2432742808
 30
0.0
 10
10.8353573078
 20
6.2486163561
 30
0.0
 10
10.8113293525
 20
6.256308338
 30
0.0
 10
10.7880101021
 20
6.2662756958
 30
0.0
 10
10.7656225431
 20
6.278422079
 30
0.0
 10
10.7443816475
 20
6.2926304224
 30
0.0
 10
10.7244911575
 20
6.3087641167
 30
0.0
 10
10.706141917
 20
6.3266681193
 30
0.0
 10
10.6895099851
 20
6.3461704923
 30
0.0
 10
10.6747551336
 20
6.3670841266
 30
0.0
 10
10.6620192191
 20
6.3892083821
 30
0.0
 10
10.6514247734
 20
6.4123309698
 30
0.0
 10
10.6430740256
 20
6.4362300476
 30
0.0
 10
10.6370478433
 20
6.4606762268
 30
0.0
 10
10.6334047786
 20
6.4854346979
 30
0.0
 10
10.6321807056
 20
6.5102675009
 30
0.0
 10
10.6333884036
 20
6.5349357122
 30
0.0
 10
10.637017131
 20
6.5592017174
 30
0.0
 10
10.6430328726
 20
6.5828314938
 30
0.0
 10
10.6513786016
 20
6.6055968179
 30
0.0
 10
10.6619744909
 20
6.62727758
 30
0.0
 10
10.6747187682
 20
6.6476639622
 30
0.0
 10
10.6894887255
 20
6.666558479
 30
0.0
 10
10.7061416937
 20
6.6837781203
 30
0.0
 10
10.7245165258
 20
6.6991562339
 30
0.0
 10
10.7444353476
 20
6.7125440873
 30
0.0
 10
10.7657052224
 20
6.7238124849
 30
0.0
 10
10.7881202305
 20
6.7328530948
 30
0.0
 10
10.8114633417
 20
6.7395792974
 30
0.0
 10
10.8355097088
 20
6.7439268549
 30
0.0
 10
10.8600243097
 20
6.7458552518
 30
0.0
 10
10.8764737146
 20
6.7455168159
 30
0.0
 10
10.884692647
 20
6.744946831
 30
0.0
  0
SPLINE
  5
3AB
100
AcDbEntity
  8
0
100
AcDbSpline
 62
7
  6
CONTINUOUS
 70
0
 71
3
 72
39
 73
35
 74
0
 42
0.0000001
 43
0.0000001
 44
0.0000000001
 40
0.0
 40
0.0
 40
0.0
 40
0.0
 40
0.0314025961
 40
0.0630095117
 40
0.0948071013
 40
0.1267734468
 40
0.1588809726
 40
0.1910970221
 40
0.2233851126
 40
0.2557062443
 40
0.2880202666
 40
0.3202872754
 40
0.3524690059
 40
0.3845301832
 40
0.4164397932
 40
0.4481722491
 40
0.4797084079
 40
0.5110363805
 40
0.5421521194
 40
0.5730597416
 40
0.6037715202
 40
0.6343075557
 40
0.6646951111
 40
0.6949675901
 40
0.7251632182
 40
0.7553234778
 40
0.7854913545
 40
0.8157095094
 40
0.8460184692
 40
0.8764549219
 40
0.9070502403
 40
0.9378293108
 40
0.9688091314
 40
1.0
 40
1.0
 40
1.0
 40
1.0
 10
10.884692647
 20
6.744946831
 30
0.0
 10
10.8929673706
 20
6.744372977
 30
0.0
 10
10.9095250913
 20
6.74240607
 30
0.0
 10
10.9340279862
 20
6.7370639947
 30
0.0
 10
10.9580559415
 20
6.7293720128
 30
0.0
 10
10.981375192
 20
6.719404655
 30
0.0
 10
11.0037627509
 20
6.7072582718
 30
0.0
 10
11.0250036465
 20
6.6930499284
 30
0.0
 10
11.0448941365
 20
6.6769162341
 30
0.0
 10
11.063243377
 20
6.6590122315
 30
0.0
 10
11.0798753089
 20
6.6395098585
 30
0.0
 10
11.0946301604
 20
6.6185962242
 30
0.0
 10
11.107366075
 20
6.5964719687
 30
0.0
 10
11.1179605206
 20
6.573349381
 30
0.0
 10
11.1263112684
 20
6.5494503032
 30
0.0
 10
11.1323374507
 20
6.525004124
 30
0.0
 10
11.1359805154
 20
6.5002456529
 30
0.0
 10
11.1372045884
 20
6.4754128499
 30
0.0
 10
11.1359968904
 20
6.4507446386
 30
0.0
 10
11.132368163
 20
6.4264786334
 30
0.0
 10
11.1263524214
 20
6.402848857
 30
0.0
 10
11.1180066925
 20
6.3800835329
 30
0.0
 10
11.1074108031
 20
6.3584027708
 30
0.0
 10
11.0946665259
 20
6.3380163886
 30
0.0
 10
11.0798965685
 20
6.3191218718
 30
0.0
 10
11.0632436004
 20
6.3019022305
 30
0.0
 10
11.0448687682
 20
6.2865241169
 30
0.0
 10
11.0249499464
 20
6.2731362635
 30
0.0
 10
11.0036800716
 20
6.2618678659
 30
0.0
 10
10.9812650635
 20
6.252827256
 30
0.0
 10
10.9579219523
 20
6.2461010534
 30
0.0
 10
10.9338755853
 20
6.2417534959
 30
0.0
 10
10.9093609843
 20
6.239825099
 30
0.0
 10
10.8929115795
 20
6.2401635349
 30
0.0
 10
10.884692647
 20
6.2407335198
 30
0.0
  0
SPLINE
  5
3AC
100
AcDbEntity
  8
0
100
AcDbSpline
 62
7
  6
CONTINUOUS
 70
0
 71
3
 72
15
 73
11
 74
0
 42
0.0000001
 43
0.0000001
 44
0.0000000001
 40
0.0
 40
0.0
 40
0.0
 40
0.0
 40
0.1036745194
 40
0.2132153618
 40
0.3287783715
 40
0.4504870421
 40
0.5784269532
 40
0.7126479823
 40
0.8531725582
 40
1.0
 40
1.0
 40
1.0
 40
1.0
 10
14.2489386917
 20
7.5203564513
 30
0.0
 10
14.2516862277
 20
7.5230103674
 30
0.0
 10
14.257175462
 20
7.5286371513
 30
0.0
 10
14.2651784683
 20
7.537737281
 30
0.0
 10
14.2731659791
 20
7.5477172622
 30
0.0
 10
14.2811308576
 20
7.5585677447
 30
0.0
 10
14.2890664787
 20
7.5702794746
 30
0.0
 10
14.2969659179
 20
7.5828422224
 30
0.0
 10
14.3048221805
 20
7.5962447793
 30
0.0
 10
14.3099149562
 20
7.6055289722
 30
0.0
 10
14.3124559448
 20
7.6103050899
 30
0.0
  0
SPLINE
  5
3AD
100
AcDbEntity
  8
0
100
AcDbSpline
 62
7
  6
CONTINUOUS
 70
0
 71
3
 72
26
 73
22
 74
0
 42
0.0000001
 43
0.0000001
 44
0.0000000001
 40
0.0
 40
0.0
 40
0.0
 40
0.0
 40
0.0900514119
 40
0.1759857588
 40
0.2578037483
 40
0.3355243179
 40
0.4091872809
 40
0.4788579662
 40
0.5446306921
 40
0.6066354046
 40
0.665043805
 40
0.7200771764
 40
0.7720153689
 40
0.7969360771
 40
0.8212189956
 40
0.8680781462
 40
0.9131019378
 40
0.9351098665
 40
0.9568758446
 40
0.9784789074
 40
1.0
 40
1.0
 40
1.0
 40
1.0
 10
14.4370320723
 20
9.4066279869
 30
0.0
 10
14.4350594306
 20
9.4120244807
 30
0.0
 10
14.4310608215
 20
9.4225191527
 30
0.0
 10
14.4247380975
 20
9.4377075315
 30
0.0
 10
14.4182366553
 20
9.4519603955
 30
0.0
 10
14.4115630171
 20
9.4652634707
 30
0.0
 10
14.4047235718
 20
9.4776036475
 30
0.0
 10
14.3977249446
 20
9.4889688759
 30
0.0
 10
14.3905734626
 20
9.4993480445
 30
0.0
 10
14.3832755463
 20
9.5087310244
 30
0.0
 10
14.375837124
 20
9.5171086844
 30
0.0
 10
14.3682645231
 20
9.5244719241
 30
0.0
 10
14.3617585973
 20
9.5298284877
 30
0.0
 10
14.3564986413
 20
9.5335712921
 30
0.0
 10
14.3513354398
 20
9.5368780277
 30
0.0
 10
14.3447948246
 20
9.5403961733
 30
0.0
 10
14.338031866
 20
9.5431037716
 30
0.0
 10
14.3325992055
 20
9.5447228726
 30
0.0
 10
14.3285328998
 20
9.5456658549
 30
0.0
 10
14.3244461738
 20
9.5463459594
 30
0.0
 10
14.3217065121
 20
9.5466242003
 30
0.0
 10
14.3203366481
 20
9.5467192001
 30
0.0
  0
SPLINE
  5
3AE
100
AcDbEntity
  8
0
100
AcDbSpline
 62
7
  6
CONTINUOUS
 70
0
 71
3
 72
62
 73
58
 74
0
 42
0.0000001
 43
0.0000001
 44
0.0000000001
 40
0.0
 40
0.0
 40
0.0
 40
0.0
 40
0.0118418166
 40
0.0231898955
 40
0.0340130555
 40
0.0442875518
 40
0.0540022459
 40
0.0631654347
 40
0.0675514734
 40
0.071815364
 40
0.0759664674
 40
0.0800167998
 40
0.0839804895
 40
0.0878736706
 40
0.0917146303
 40
0.0955226994
 40
0.0993182416
 40
0.1031218313
 40
0.1069534524
 40
0.1108322786
 40
0.1147758447
 40
0.1187998713
 40
0.1271385846
 40
0.1314776509
 40
0.1359394198
 40
0.1452503089
 40
0.1551015371
 40
0.1655017989
 40
0.1764467727
 40
0.1879240085
 40
0.199915662
 40
0.2124021638
 40
0.2253622169
 40
0.2387757203
 40
0.2526223993
 40
0.2668841488
 40
0.2815433755
 40
0.2965845017
 40
0.3119929852
 40
0.3277555048
 40
0.3438601883
 40
0.3602956994
 40
0.3770520702
 40
0.3941197761
 40
0.42915431
 40
0.4653336834
 40
0.5025956677
 40
0.5408773996
 40
0.5801114887
 40
0.6202221457
 40
0.6611213751
 40
0.7448446229
 40
0.8302150545
 40
0.8730937662
 40
0.9158303985
 40
0.9582063449
 40
1.0
 40
1.0
 40
1.0
 40
1.0
 10
11.4690164038
 20
7.5475811439
 30
0.0
 10
11.4725223953
 20
7.5473389077
 30
0.0
 10
11.4794008389
 20
7.5470255126
 30
0.0
 10
11.4894999437
 20
7.5471051132
 30
0.0
 10
11.4991132308
 20
7.5477622374
 30
0.0
 10
11.5081798382
 20
7.5490155468
 30
0.0
 10
11.5166380582
 20
7.5508823519
 30
0.0
 10
11.5232253784
 20
7.5529929666
 30
0.0
 10
11.5281125997
 20
7.5550149281
 30
0.0
 10
11.5315350476
 20
7.5566693646
 30
0.0
 10
11.5347613942
 20
7.5584845412
 30
0.0
 10
11.5377865549
 20
7.5604600627
 30
0.0
 10
11.540606021
 20
7.5625953145
 30
0.0
 10
11.5432155969
 20
7.5648897479
 30
0.0
 10
11.5456129391
 20
7.5673411017
 30
0.0
 10
11.5477957137
 20
7.569947748
 30
0.0
 10
11.5497630825
 20
7.5727069363
 30
0.0
 10
11.5515157452
 20
7.5756153284
 30
0.0
 10
11.553054302
 20
7.578669981
 30
0.0
 10
11.5543817874
 20
7.5818668505
 30
0.0
 10
11.5555014382
 20
7.5852024515
 30
0.0
 10
11.556736798
 20
7.589884331
 30
0.0
 10
11.557551965
 20
7.5947865728
 30
0.0
 10
11.5579946515
 20
7.599855103
 30
0.0
 10
11.5582053505
 20
7.6052280347
 30
0.0
 10
11.5580144854
 20
7.6122446207
 30
0.0
 10
11.55714887
 20
7.6209809336
 30
0.0
 10
11.5556990904
 20
7.6301294159
 30
0.0
 10
11.5537201275
 20
7.6396701017
 30
0.0
 10
11.5512635268
 20
7.6495854731
 30
0.0
 10
11.5483792185
 20
7.6598602983
 30
0.0
 10
11.5451122274
 20
7.6704807679
 30
0.0
 10
11.5415062476
 20
7.6814358023
 30
0.0
 10
11.5375993764
 20
7.6927150417
 30
0.0
 10
11.5334289721
 20
7.7043107631
 30
0.0
 10
11.5290270039
 20
7.7162154469
 30
0.0
 10
11.5244249235
 20
7.7284237308
 30
0.0
 10
11.5196499928
 20
7.740930391
 30
0.0
 10
11.5147282959
 20
7.7537314387
 30
0.0
 10
11.509683842
 20
7.7668234421
 30
0.0
 10
11.5045382055
 20
7.7802030994
 30
0.0
 10
11.4993128474
 20
7.7938680881
 30
0.0
 10
11.494026375
 20
7.807815644
 30
0.0
 10
11.4868588708
 20
7.8269529775
 30
0.0
 10
11.4778477756
 20
7.8515549244
 30
0.0
 10
11.4671561834
 20
7.8819216376
 30
0.0
 10
11.456614882
 20
7.9133594141
 30
0.0
 10
11.4463390951
 20
7.945837589
 30
0.0
 10
11.436440503
 20
7.9793156492
 30
0.0
 10
11.427028861
 20
8.0137405191
 30
0.0
 10
11.4151827435
 20
8.0611757067
 30
0.0
 10
11.4022435802
 20
8.1221656463
 30
0.0
 10
11.3924405486
 20
8.1843409464
 30
0.0
 10
11.3867259588
 20
8.2347688936
 30
0.0
 10
11.3835999374
 20
8.2726310671
 30
0.0
 10
11.3816958638
 20
8.3102516597
 30
0.0
 10
11.3812608253
 20
8.3352329597
 30
0.0
 10
11.3812608253
 20
8.3476362529
 30
0.0
  0
SPLINE
  5
3AF
100
AcDbEntity
  8
0
100
AcDbSpline
 62
7
  6
CONTINUOUS
 70
0
 71
3
 72
11
 73
7
 74
0
 42
0.0000001
 43
0.0000001
 44
0.0000000001
 40
0.0
 40
0.0
 40
0.0
 40
0.0
 40
0.2588184532
 40
0.5122502975
 40
0.7595507216
 40
1.0
 40
1.0
 40
1.0
 40
1.0
 10
7.3137678469
 20
8.7937528824
 30
0.0
 10
7.3135021971
 20
8.8123043387
 30
0.0
 10
7.3126919305
 20
8.8490177961
 30
0.0
 10
7.3106060625
 20
8.9034285366
 30
0.0
 10
7.3076681965
 20
8.9564812905
 30
0.0
 10
7.3051096838
 20
8.9913541837
 30
0.0
 10
7.3036824519
 20
9.0085315597
 30
0.0
  0
SPLINE
  5
3B0
100
AcDbEntity
  8
0
100
AcDbSpline
 62
7
  6
CONTINUOUS
 70
0
 71
3
 72
23
 73
19
 74
0
 42
0.0000001
 43
0.0000001
 44
0.0000000001
 40
0.0
 40
0.0
 40
0.0
 40
0.0
 40
0.0749619582
 40
0.1455674926
 40
0.2121588364
 40
0.275161539
 40
0.3350966021
 40
0.3925814523
 40
0.4483277544
 40
0.5031220258
 40
0.5577967814
 40
0.6131904148
 40
0.6701058916
 40
0.7292771639
 40
0.7913509475
 40
0.8568784947
 40
0.9263115463
 40
1.0
 40
1.0
 40
1.0
 40
1.0
 10
11.6741817968
 20
10.2950615407
 30
0.0
 10
11.6733732796
 20
10.2958139589
 30
0.0
 10
11.6718480675
 20
10.2973245624
 30
0.0
 10
11.6697900956
 20
10.2996813186
 30
0.0
 10
11.6680351634
 20
10.3020567175
 30
0.0
 10
11.6665859697
 20
10.3044487552
 30
0.0
 10
11.6654448111
 20
10.3068552436
 30
0.0
 10
11.6646144023
 20
10.3092737936
 30
0.0
 10
11.6640969099
 20
10.3117012304
 30
0.0
 10
11.6638943326
 20
10.3141337505
 30
0.0
 10
11.6640073309
 20
10.3165669176
 30
0.0
 10
11.6644355668
 20
10.3189962327
 30
0.0
 10
11.6651773905
 20
10.3214176304
 30
0.0
 10
11.6662305133
 20
10.3238278218
 30
0.0
 10
11.6675925305
 20
10.3262241779
 30
0.0
 10
11.6692609628
 20
10.3286046072
 30
0.0
 10
11.6712331939
 20
10.3309667868
 30
0.0
 10
11.6727033281
 20
10.3324813479
 30
0.0
 10
11.6734842209
 20
10.3332356324
 30
0.0
  0
SPLINE
  5
3B1
100
AcDbEntity
  8
0
100
AcDbSpline
 62
7
  6
CONTINUOUS
 70
0
 71
3
 72
50
 73
46
 74
0
 42
0.0000001
 43
0.0000001
 44
0.0000000001
 40
0.0
 40
0.0
 40
0.0
 40
0.0
 40
0.0080802849
 40
0.0167276254
 40
0.0259554341
 40
0.0357711358
 40
0.0461778214
 40
0.0571743762
 40
0.068756734
 40
0.0809177125
 40
0.0936480089
 40
0.1069358952
 40
0.1207680365
 40
0.1351291381
 40
0.1653690708
 40
0.1975076706
 40
0.2313767245
 40
0.2667922757
 40
0.3035570735
 40
0.3414627455
 40
0.3802918024
 40
0.4198195411
 40
0.4598158871
 40
0.5000472015
 40
0.540278069
 40
0.580273078
 40
0.6197985996
 40
0.6586245763
 40
0.6965263289
 40
0.7332863991
 40
0.768696453
 40
0.802559286
 40
0.8346909963
 40
0.8649234362
 40
0.8931071172
 40
0.9063908974
 40
0.9191168537
 40
0.9312735525
 40
0.9428514082
 40
0.9538436003
 40
0.9642457697
 40
0.9740570348
 40
0.9832801685
 40
0.9919233999
 40
1.0
 40
1.0
 40
1.0
 40
1.0
 10
12.1453117278
 20
10.2641417201
 30
0.0
 10
12.1444501155
 20
10.2648542495
 30
0.0
 10
12.1426141849
 20
10.2662668393
 30
0.0
 10
12.1396419213
 20
10.2682858005
 30
0.0
 10
12.1363638401
 20
10.2702725049
 30
0.0
 10
12.132785103
 20
10.2722240355
 30
0.0
 10
12.1289110122
 20
10.274137362
 30
0.0
 10
12.1247475342
 20
10.2760096772
 30
0.0
 10
12.1203010205
 20
10.2778379597
 30
0.0
 10
12.1155783616
 20
10.2796194786
 30
0.0
 10
12.110586851
 20
10.2813513319
 30
0.0
 10
12.1053342636
 20
10.2830308982
 30
0.0
 10
12.0998287583
 20
10.284655469
 30
0.0
 10
12.0920274028
 20
10.2867815424
 30
0.0
 10
12.0817021184
 20
10.2892705874
 30
0.0
 10
12.0686548538
 20
10.2919517819
 30
0.0
 10
12.0548269723
 20
10.2943591724
 30
0.0
 10
12.0403049307
 20
10.2964774457
 30
0.0
 10
12.0251794112
 20
10.2982930694
 30
0.0
 10
12.0095450461
 20
10.2997944786
 30
0.0
 10
11.9934996992
 20
10.3009721132
 30
0.0
 10
11.9771438594
 20
10.3018184824
 30
0.0
 10
11.9605799886
 20
10.3023282051
 30
0.0
 10
11.9439118708
 20
10.302498042
 30
0.0
 10
11.9272439511
 20
10.3023269138
 30
0.0
 10
11.9106806737
 20
10.301815908
 30
0.0
 10
11.8943258184
 20
10.3009682722
 30
0.0
 10
11.8782818414
 20
10.2997893953
 30
0.0
 10
11.8626492212
 20
10.2982867766
 30
0.0
 10
11.8475258167
 20
10.296469982
 30
0.0
 10
11.8330062237
 20
10.2943505908
 30
0.0
 10
11.8191811897
 20
10.2919421189
 30
0.0
 10
11.806136871
 20
10.2892599683
 30
0.0
 10
11.7939546763
 20
10.2863212235
 30
0.0
 10
11.7844040001
 20
10.2836236062
 30
0.0
 10
11.7772612836
 20
10.2813384526
 30
0.0
 10
11.772271786
 20
10.2796061337
 30
0.0
 10
11.7675511834
 20
10.2778243139
 30
0.0
 10
11.7631068008
 20
10.2759956284
 30
0.0
 10
11.7589454692
 20
10.2741230513
 30
0.0
 10
11.7550736182
 20
10.2722093492
 30
0.0
 10
11.7514971319
 20
10.270257626
 30
0.0
 10
11.7482213725
 20
10.2682706177
 30
0.0
 10
11.7452513394
 20
10.2662514368
 30
0.0
 10
11.7434169905
 20
10.2648385541
 30
0.0
 10
11.7425561435
 20
10.2641258997
 30
0.0
  0
SPLINE
  5
3B2
100
AcDbEntity
  8
0
100
AcDbSpline
 62
7
  6
CONTINUOUS
 70
0
 71
3
 72
39
 73
35
 74
0
 42
0.0000001
 43
0.0000001
 44
0.0000000001
 40
0.0
 40
0.0
 40
0.0
 40
0.0
 40
0.0314025961
 40
0.0630095117
 40
0.0948071013
 40
0.1267734468
 40
0.1588809726
 40
0.1910970221
 40
0.2233851126
 40
0.2557062443
 40
0.2880202666
 40
0.3202872754
 40
0.3524690059
 40
0.3845301832
 40
0.4164397932
 40
0.4481722491
 40
0.4797084079
 40
0.5110363805
 40
0.5421521194
 40
0.5730597416
 40
0.6037715202
 40
0.6343075557
 40
0.6646951111
 40
0.6949675901
 40
0.7251632182
 40
0.7553234778
 40
0.7854913545
 40
0.8157095094
 40
0.8460184692
 40
0.8764549219
 40
0.9070502403
 40
0.9378293108
 40
0.9688091314
 40
1.0
 40
1.0
 40
1.0
 40
1.0
 10
12.2427844567
 20
6.1465495329
 30
0.0
 10
12.2345097332
 20
6.1471233869
 30
0.0
 10
12.2179520125
 20
6.1490902939
 30
0.0
 10
12.1934491175
 20
6.1544323692
 30
0.0
 10
12.1694211623
 20
6.1621243511
 30
0.0
 10
12.1461019118
 20
6.1720917089
 30
0.0
 10
12.1237143529
 20
6.1842380921
 30
0.0
 10
12.1024734573
 20
6.1984464355
 30
0.0
 10
12.0825829672
 20
6.2145801298
 30
0.0
 10
12.0642337267
 20
6.2324841324
 30
0.0
 10
12.0476017948
 20
6.2519865054
 30
0.0
 10
12.0328469434
 20
6.2729001397
 30
0.0
 10
12.0201110288
 20
6.2950243953
 30
0.0
 10
12.0095165831
 20
6.3181469829
 30
0.0
 10
12.0011658354
 20
6.3420460607
 30
0.0
 10
11.9951396531
 20
6.3664922399
 30
0.0
 10
11.9914965884
 20
6.391250711
 30
0.0
 10
11.9902725154
 20
6.416083514
 30
0.0
 10
11.9914802133
 20
6.4407517253
 30
0.0
 10
11.9951089408
 20
6.4650177305
 30
0.0
 10
12.0011246824
 20
6.4886475069
 30
0.0
 10
12.0094704113
 20
6.511412831
 30
0.0
 10
12.0200663006
 20
6.5330935931
 30
0.0
 10
12.0328105779
 20
6.5534799753
 30
0.0
 10
12.0475805353
 20
6.5723744921
 30
0.0
 10
12.0642335034
 20
6.5895941334
 30
0.0
 10
12.0826083356
 20
6.604972247
 30
0.0
 10
12.1025271574
 20
6.6183601004
 30
0.0
 10
12.1237970322
 20
6.629628498
 30
0.0
 10
12.1462120402
 20
6.6386691079
 30
0.0
 10
12.1695551514
 20
6.6453953105
 30
0.0
 10
12.1936015185
 20
6.649742868
 30
0.0
 10
12.2181161194
 20
6.6516712649
 30
0.0
 10
12.2345655243
 20
6.651332829
 30
0.0
 10
12.2427844567
 20
6.6507628441
 30
0.0
  0
SPLINE
  5
3B3
100
AcDbEntity
  8
0
100
AcDbSpline
 62
7
  6
CONTINUOUS
 70
0
 71
3
 72
39
 73
35
 74
0
 42
0.0000001
 43
0.0000001
 44
0.0000000001
 40
0.0
 40
0.0
 40
0.0
 40
0.0
 40
0.0314025961
 40
0.0630095117
 40
0.0948071013
 40
0.1267734468
 40
0.1588809726
 40
0.1910970221
 40
0.2233851126
 40
0.2557062443
 40
0.2880202666
 40
0.3202872754
 40
0.3524690059
 40
0.3845301832
 40
0.4164397932
 40
0.4481722491
 40
0.4797084079
 40
0.5110363805
 40
0.5421521194
 40
0.5730597416
 40
0.6037715202
 40
0.6343075557
 40
0.6646951111
 40
0.6949675901
 40
0.7251632182
 40
0.7553234778
 40
0.7854913545
 40
0.8157095094
 40
0.8460184692
 40
0.8764549219
 40
0.9070502403
 40
0.9378293108
 40
0.9688091314
 40
1.0
 40
1.0
 40
1.0
 40
1.0
 10
12.2427844567
 20
6.6507628441
 30
0.0
 10
12.2510591803
 20
6.6501889901
 30
0.0
 10
12.267616901
 20
6.6482220831
 30
0.0
 10
12.292119796
 20
6.6428800078
 30
0.0
 10
12.3161477512
 20
6.6351880259
 30
0.0
 10
12.3394670017
 20
6.6252206681
 30
0.0
 10
12.3618545606
 20
6.6130742849
 30
0.0
 10
12.3830954562
 20
6.5988659415
 30
0.0
 10
12.4029859463
 20
6.5827322472
 30
0.0
 10
12.4213351868
 20
6.5648282446
 30
0.0
 10
12.4379671187
 20
6.5453258716
 30
0.0
 10
12.4527219701
 20
6.5244122373
 30
0.0
 10
12.4654578847
 20
6.5022879818
 30
0.0
 10
12.4760523304
 20
6.4791653941
 30
0.0
 10
12.4844030781
 20
6.4552663163
 30
0.0
 10
12.4904292604
 20
6.4308201371
 30
0.0
 10
12.4940723251
 20
6.406061666
 30
0.0
 10
12.4952963981
 20
6.381228863
 30
0.0
 10
12.4940887002
 20
6.3565606517
 30
0.0
 10
12.4904599727
 20
6.3322946466
 30
0.0
 10
12.4844442311
 20
6.3086648701
 30
0.0
 10
12.4760985022
 20
6.285899546
 30
0.0
 10
12.4655026129
 20
6.2642187839
 30
0.0
 10
12.4527583356
 20
6.2438324017
 30
0.0
 10
12.4379883782
 20
6.2249378849
 30
0.0
 10
12.4213354101
 20
6.2077182436
 30
0.0
 10
12.4029605779
 20
6.19234013
 30
0.0
 10
12.3830417561
 20
6.1789522766
 30
0.0
 10
12.3617718813
 20
6.167683879
 30
0.0
 10
12.3393568733
 20
6.1586432691
 30
0.0
 10
12.316013762
 20
6.1519170665
 30
0.0
 10
12.291967395
 20
6.147569509
 30
0.0
 10
12.2674527941
 20
6.1456411121
 30
0.0
 10
12.2510033892
 20
6.145979548
 30
0.0
 10
12.2427844567
 20
6.1465495329
 30
0.0
  0
SPLINE
  5
3B4
100
AcDbEntity
  8
0
100
AcDbSpline
 62
7
  6
CONTINUOUS
 70
0
 71
3
 72
21
 73
17
 74
0
 42
0.0000001
 43
0.0000001
 44
0.0000000001
 40
0.0
 40
0.0
 40
0.0
 40
0.0
 40
0.1273175203
 40
0.253800042
 40
0.3167619342
 40
0.3795354977
 40
0.4421315044
 40
0.5045621463
 40
0.5668413435
 40
0.6289845249
 40
0.6910084556
 40
0.7529310973
 40
0.8147714461
 40
0.8765493353
 40
0.9382852242
 40
1.0
 40
1.0
 40
1.0
 40
1.0
 10
6.9466128862
 20
8.8185394369
 30
0.0
 10
6.9466128862
 20
8.8310125991
 30
0.0
 10
6.9478035424
 20
8.855893173
 30
0.0
 10
6.9523001966
 20
8.8866509352
 30
0.0
 10
6.9576747523
 20
8.9107777165
 30
0.0
 10
6.9625760676
 20
8.9285736194
 30
0.0
 10
6.9683420725
 20
8.9460533443
 30
0.0
 10
6.9749596428
 20
8.9631770278
 30
0.0
 10
6.9824134839
 20
8.9799050669
 30
0.0
 10
6.9906864221
 20
8.9961989266
 30
0.0
 10
6.9997594486
 20
9.0120209893
 30
0.0
 10
7.0096116892
 20
9.0273347491
 30
0.0
 10
7.0202203531
 20
9.0421048779
 30
0.0
 10
7.0315611157
 20
9.0562974179
 30
0.0
 10
7.0436074287
 20
9.0698791409
 30
0.0
 10
7.0520917362
 20
9.0785071239
 30
0.0
 10
7.0564404431
 20
9.0827076535
 30
0.0
  0
SPLINE
  5
3B5
100
AcDbEntity
  8
0
100
AcDbSpline
 62
7
  6
CONTINUOUS
 70
0
 71
3
 72
39
 73
35
 74
0
 42
0.0000001
 43
0.0000001
 44
0.0000000001
 40
0.0
 40
0.0
 40
0.0
 40
0.0
 40
0.0314025961
 40
0.0630095117
 40
0.0948071013
 40
0.1267734468
 40
0.1588809726
 40
0.1910970221
 40
0.2233851126
 40
0.2557062443
 40
0.2880202666
 40
0.3202872754
 40
0.3524690059
 40
0.3845301832
 40
0.4164397932
 40
0.4481722491
 40
0.4797084079
 40
0.5110363805
 40
0.5421521194
 40
0.5730597416
 40
0.6037715202
 40
0.6343075557
 40
0.6646951111
 40
0.6949675901
 40
0.7251632182
 40
0.7553234778
 40
0.7854913545
 40
0.8157095094
 40
0.8460184692
 40
0.8764549219
 40
0.9070502403
 40
0.9378293108
 40
0.9688091314
 40
1.0
 40
1.0
 40
1.0
 40
1.0
 10
12.2427844567
 20
8.8028457126
 30
0.0
 10
12.2345097332
 20
8.8034195666
 30
0.0
 10
12.2179520125
 20
8.8053864736
 30
0.0
 10
12.1934491175
 20
8.8107285489
 30
0.0
 10
12.1694211623
 20
8.8184205308
 30
0.0
 10
12.1461019118
 20
8.8283878886
 30
0.0
 10
12.1237143529
 20
8.8405342718
 30
0.0
 10
12.1024734573
 20
8.8547426152
 30
0.0
 10
12.0825829672
 20
8.8708763095
 30
0.0
 10
12.0642337267
 20
8.8887803121
 30
0.0
 10
12.0476017948
 20
8.9082826851
 30
0.0
 10
12.0328469434
 20
8.9291963194
 30
0.0
 10
12.0201110288
 20
8.9513205749
 30
0.0
 10
12.0095165831
 20
8.9744431626
 30
0.0
 10
12.0011658354
 20
8.9983422404
 30
0.0
 10
11.9951396531
 20
9.0227884196
 30
0.0
 10
11.9914965884
 20
9.0475468907
 30
0.0
 10
11.9902725154
 20
9.0723796937
 30
0.0
 10
11.9914802133
 20
9.097047905
 30
0.0
 10
11.9951089408
 20
9.1213139101
 30
0.0
 10
12.0011246824
 20
9.1449436866
 30
0.0
 10
12.0094704113
 20
9.1677090106
 30
0.0
 10
12.0200663006
 20
9.1893897728
 30
0.0
 10
12.0328105779
 20
9.209776155
 30
0.0
 10
12.0475805353
 20
9.2286706718
 30
0.0
 10
12.0642335034
 20
9.2458903131
 30
0.0
 10
12.0826083356
 20
9.2612684267
 30
0.0
 10
12.1025271574
 20
9.2746562801
 30
0.0
 10
12.1237970322
 20
9.2859246777
 30
0.0
 10
12.1462120402
 20
9.2949652876
 30
0.0
 10
12.1695551514
 20
9.3016914902
 30
0.0
 10
12.1936015185
 20
9.3060390477
 30
0.0
 10
12.2181161194
 20
9.3079674446
 30
0.0
 10
12.2345655243
 20
9.3076290087
 30
0.0
 10
12.2427844567
 20
9.3070590238
 30
0.0
  0
SPLINE
  5
3B6
100
AcDbEntity
  8
0
100
AcDbSpline
 62
7
  6
CONTINUOUS
 70
0
 71
3
 72
42
 73
38
 74
0
 42
0.0000001
 43
0.0000001
 44
0.0000000001
 40
0.0
 40
0.0
 40
0.0
 40
0.0
 40
0.0149723984
 40
0.029947855
 40
0.044929411
 40
0.0599200705
 40
0.0749227797
 40
0.0899404141
 40
0.1200256603
 40
0.1502025837
 40
0.1804898973
 40
0.2109037013
 40
0.2414571355
 40
0.2721601139
 40
0.3030191474
 40
0.3340372487
 40
0.3652139147
 40
0.3965451931
 40
0.4280238196
 40
0.4596394169
 40
0.4913787493
 40
0.5232260332
 40
0.5551632855
 40
0.5871707048
 40
0.6192270819
 40
0.6513102319
 40
0.6833974375
 40
0.7154659008
 40
0.7474931963
 40
0.7794577183
 40
0.8113391169
 40
0.8431187185
 40
0.8747799153
 40
0.906308527
 40
0.9376931747
 40
0.9689251987
 40
1.0
 40
1.0
 40
1.0
 40
1.0
 10
12.0848001491
 20
7.2344568755
 30
0.0
 10
12.078578433
 20
7.2284471386
 30
0.0
 10
12.0658933798
 20
7.2166724228
 30
0.0
 10
12.0461768182
 20
7.1997786139
 30
0.0
 10
12.0257964076
 20
7.1836741593
 30
0.0
 10
12.0047806136
 20
7.1683817714
 30
0.0
 10
11.9831578254
 20
7.1539221194
 30
0.0
 10
11.9535448058
 20
7.1357710103
 30
0.0
 10
11.9151396473
 20
7.1152545534
 30
0.0
 10
11.867157142
 20
7.0942795425
 30
0.0
 10
11.8175060263
 20
7.0770438299
 30
0.0
 10
11.7664617587
 20
7.0636430126
 30
0.0
 10
11.7143050585
 20
7.0541499262
 30
0.0
 10
11.6613232387
 20
7.0486161693
 30
0.0
 10
11.6078078046
 20
7.0470714758
 30
0.0
 10
11.5540530888
 20
7.0495237221
 30
0.0
 10
11.500354579
 20
7.0559587109
 30
0.0
 10
11.4470073105
 20
7.0663404179
 30
0.0
 10
11.3943042799
 20
7.0806112597
 30
0.0
 10
11.3425348628
 20
7.0986923735
 30
0.0
 10
11.2919831991
 20
7.1204839523
 30
0.0
 10
11.2429267006
 20
7.1458659622
 30
0.0
 10
11.1956345734
 20
7.1746988002
 30
0.0
 10
11.1503663006
 20
7.2068239454
 30
0.0
 10
11.107370232
 20
7.2420648534
 30
0.0
 10
11.0668823016
 20
7.2802280044
 30
0.0
 10
11.0291247551
 20
7.3211039324
 30
0.0
 10
10.9943048204
 20
7.3644682516
 30
0.0
 10
10.9626136766
 20
7.410082985
 30
0.0
 10
10.9342254512
 20
7.4576978622
 30
0.0
 10
10.9092962205
 20
7.5070516392
 30
0.0
 10
10.8879630695
 20
7.5578734496
 30
0.0
 10
10.8703434834
 20
7.6098844713
 30
0.0
 10
10.8565346805
 20
7.662798979
 30
0.0
 10
10.8466130731
 20
7.7163273979
 30
0.0
 10
10.840633484
 20
7.7701719887
 30
0.0
 10
10.8392941968
 20
7.8061833185
 30
0.0
 10
10.8392941968
 20
7.8241366585
 30
0.0
  0
SPLINE
  5
3B7
100
AcDbEntity
  8
0
100
AcDbSpline
 62
7
  6
CONTINUOUS
 70
0
 71
3
 72
19
 73
15
 74
0
 42
0.0000001
 43
0.0000001
 44
0.0000000001
 40
0.0
 40
0.0
 40
0.0
 40
0.0
 40
0.0616584462
 40
0.1233399329
 40
0.1850672163
 40
0.2468625637
 40
0.3087474953
 40
0.370742507
 40
0.4328668993
 40
0.495138574
 40
0.6201443378
 40
0.7459117844
 40
0.8725152897
 40
1.0
 40
1.0
 40
1.0
 40
1.0
 10
12.4123432578
 20
6.2371006276
 30
0.0
 10
12.4097172972
 20
6.2345641418
 30
0.0
 10
12.4043268178
 20
6.2296304602
 30
0.0
 10
12.395853398
 20
6.2226737928
 30
0.0
 10
12.3870120063
 20
6.2161769803
 30
0.0
 10
12.3778252879
 20
6.2101565934
 30
0.0
 10
12.3683162288
 20
6.2046277928
 30
0.0
 10
12.3585089333
 20
6.199604518
 30
0.0
 10
12.3484277684
 20
6.1950992446
 30
0.0
 10
12.3346405094
 20
6.1897922907
 30
0.0
 10
12.3168348285
 20
6.184508751
 30
0.0
 10
12.2948297171
 20
6.1804039903
 30
0.0
 10
12.2723753809
 20
6.1785632729
 30
0.0
 10
12.257303163
 20
6.1788572779
 30
0.0
 10
12.2497725652
 20
6.1793795266
 30
0.0
  0
SPLINE
  5
3B8
100
AcDbEntity
  8
0
100
AcDbSpline
 62
7
  6
CONTINUOUS
 70
0
 71
3
 72
19
 73
15
 74
0
 42
0.0000001
 43
0.0000001
 44
0.0000000001
 40
0.0
 40
0.0
 40
0.0
 40
0.0
 40
0.0616584462
 40
0.1233399329
 40
0.1850672163
 40
0.2468625637
 40
0.3087474953
 40
0.370742507
 40
0.4328668993
 40
0.495138574
 40
0.6201443378
 40
0.7459117844
 40
0.8725152897
 40
1.0
 40
1.0
 40
1.0
 40
1.0
 10
11.0542514481
 20
6.3312846145
 30
0.0
 10
11.0516254874
 20
6.3287481287
 30
0.0
 10
11.046235008
 20
6.3238144471
 30
0.0
 10
11.0377615883
 20
6.3168577797
 30
0.0
 10
11.0289201966
 20
6.3103609672
 30
0.0
 10
11.0197334781
 20
6.3043405803
 30
0.0
 10
11.010224419
 20
6.2988117797
 30
0.0
 10
11.0004171236
 20
6.2937885049
 30
0.0
 10
10.9903359586
 20
6.2892832315
 30
0.0
 10
10.9765486997
 20
6.2839762776
 30
0.0
 10
10.9587430187
 20
6.2786927379
 30
0.0
 10
10.9367379074
 20
6.2745879772
 30
0.0
 10
10.9142835712
 20
6.2727472598
 30
0.0
 10
10.8992113533
 20
6.2730412648
 30
0.0
 10
10.8916807555
 20
6.2735635135
 30
0.0
  0
SPLINE
  5
3B9
100
AcDbEntity
  8
0
100
AcDbSpline
 62
7
  6
CONTINUOUS
 70
0
 71
3
 72
19
 73
15
 74
0
 42
0.0000001
 43
0.0000001
 44
0.0000000001
 40
0.0
 40
0.0
 40
0.0
 40
0.0
 40
0.0616584462
 40
0.1233399329
 40
0.1850672163
 40
0.2468625637
 40
0.3087474953
 40
0.370742507
 40
0.4328668993
 40
0.495138574
 40
0.6201443378
 40
0.7459117844
 40
0.8725152897
 40
1.0
 40
1.0
 40
1.0
 40
1.0
 10
12.4123432578
 20
8.8933968073
 30
0.0
 10
12.4097172972
 20
8.8908603215
 30
0.0
 10
12.4043268178
 20
8.8859266399
 30
0.0
 10
12.395853398
 20
8.8789699725
 30
0.0
 10
12.3870120063
 20
8.8724731599
 30
0.0
 10
12.3778252879
 20
8.8664527731
 30
0.0
 10
12.3683162288
 20
8.8609239725
 30
0.0
 10
12.3585089333
 20
8.8559006977
 30
0.0
 10
12.3484277684
 20
8.8513954243
 30
0.0
 10
12.3346405094
 20
8.8460884703
 30
0.0
 10
12.3168348285
 20
8.8408049307
 30
0.0
 10
12.2948297171
 20
8.83670017
 30
0.0
 10
12.2723753809
 20
8.8348594526
 30
0.0
 10
12.257303163
 20
8.8351534575
 30
0.0
 10
12.2497725652
 20
8.8356757063
 30
0.0
  0
SPLINE
  5
3BA
100
AcDbEntity
  8
0
100
AcDbSpline
 62
7
  6
CONTINUOUS
 70
0
 71
3
 72
39
 73
35
 74
0
 42
0.0000001
 43
0.0000001
 44
0.0000000001
 40
0.0
 40
0.0
 40
0.0
 40
0.0
 40
0.0314025961
 40
0.0630095117
 40
0.0948071013
 40
0.1267734468
 40
0.1588809726
 40
0.1910970221
 40
0.2233851126
 40
0.2557062443
 40
0.2880202666
 40
0.3202872754
 40
0.3524690059
 40
0.3845301832
 40
0.4164397932
 40
0.4481722491
 40
0.4797084079
 40
0.5110363805
 40
0.5421521194
 40
0.5730597416
 40
0.6037715202
 40
0.6343075557
 40
0.6646951111
 40
0.6949675901
 40
0.7251632182
 40
0.7553234778
 40
0.7854913545
 40
0.8157095094
 40
0.8460184692
 40
0.8764549219
 40
0.9070502403
 40
0.9378293108
 40
0.9688091314
 40
1.0
 40
1.0
 40
1.0
 40
1.0
 10
12.2427844567
 20
9.3070590238
 30
0.0
 10
12.2510591803
 20
9.3064851698
 30
0.0
 10
12.267616901
 20
9.3045182627
 30
0.0
 10
12.292119796
 20
9.2991761875
 30
0.0
 10
12.3161477512
 20
9.2914842056
 30
0.0
 10
12.3394670017
 20
9.2815168477
 30
0.0
 10
12.3618545606
 20
9.2693704646
 30
0.0
 10
12.3830954562
 20
9.2551621212
 30
0.0
 10
12.4029859463
 20
9.2390284269
 30
0.0
 10
12.4213351868
 20
9.2211244243
 30
0.0
 10
12.4379671187
 20
9.2016220512
 30
0.0
 10
12.4527219701
 20
9.1807084169
 30
0.0
 10
12.4654578847
 20
9.1585841614
 30
0.0
 10
12.4760523304
 20
9.1354615738
 30
0.0
 10
12.4844030781
 20
9.111562496
 30
0.0
 10
12.4904292604
 20
9.0871163168
 30
0.0
 10
12.4940723251
 20
9.0623578457
 30
0.0
 10
12.4952963981
 20
9.0375250427
 30
0.0
 10
12.4940887002
 20
9.0128568314
 30
0.0
 10
12.4904599727
 20
8.9885908262
 30
0.0
 10
12.4844442311
 20
8.9649610498
 30
0.0
 10
12.4760985022
 20
8.9421957257
 30
0.0
 10
12.4655026129
 20
8.9205149636
 30
0.0
 10
12.4527583356
 20
8.9001285814
 30
0.0
 10
12.4379883782
 20
8.8812340645
 30
0.0
 10
12.4213354101
 20
8.8640144233
 30
0.0
 10
12.4029605779
 20
8.8486363097
 30
0.0
 10
12.3830417561
 20
8.8352484563
 30
0.0
 10
12.3617718813
 20
8.8239800587
 30
0.0
 10
12.3393568733
 20
8.8149394488
 30
0.0
 10
12.316013762
 20
8.8082132462
 30
0.0
 10
12.291967395
 20
8.8038656887
 30
0.0
 10
12.2674527941
 20
8.8019372918
 30
0.0
 10
12.2510033892
 20
8.8022757277
 30
0.0
 10
12.2427844567
 20
8.8028457126
 30
0.0
  0
SPLINE
  5
3BB
100
AcDbEntity
  8
0
100
AcDbSpline
 62
7
  6
CONTINUOUS
 70
0
 71
3
 72
19
 73
15
 74
0
 42
0.0000001
 43
0.0000001
 44
0.0000000001
 40
0.0
 40
0.0
 40
0.0
 40
0.0
 40
0.0616584462
 40
0.1233399329
 40
0.1850672163
 40
0.2468625637
 40
0.3087474953
 40
0.370742507
 40
0.4328668993
 40
0.495138574
 40
0.6201443378
 40
0.7459117844
 40
0.8725152897
 40
1.0
 40
1.0
 40
1.0
 40
1.0
 10
11.0542514481
 20
8.9875807942
 30
0.0
 10
11.0516254874
 20
8.9850443084
 30
0.0
 10
11.046235008
 20
8.9801106268
 30
0.0
 10
11.0377615883
 20
8.9731539594
 30
0.0
 10
11.0289201966
 20
8.9666571468
 30
0.0
 10
11.0197334781
 20
8.96063676
 30
0.0
 10
11.010224419
 20
8.9551079594
 30
0.0
 10
11.0004171236
 20
8.9500846846
 30
0.0
 10
10.9903359586
 20
8.9455794112
 30
0.0
 10
10.9765486997
 20
8.9402724572
 30
0.0
 10
10.9587430187
 20
8.9349889176
 30
0.0
 10
10.9367379074
 20
8.9308841569
 30
0.0
 10
10.9142835712
 20
8.9290434395
 30
0.0
 10
10.8992113533
 20
8.9293374444
 30
0.0
 10
10.8916807555
 20
8.9298596932
 30
0.0
  0
SPLINE
  5
3BC
100
AcDbEntity
  8
0
100
AcDbSpline
 62
7
  6
CONTINUOUS
 70
0
 71
3
 72
15
 73
11
 74
0
 42
0.0000001
 43
0.0000001
 44
0.0000000001
 40
0.0
 40
0.0
 40
0.0
 40
0.0
 40
0.1265467372
 40
0.2527514677
 40
0.3785545863
 40
0.5039034575
 40
0.6287534078
 40
0.7530686068
 40
0.8768228178
 40
1.0
 40
1.0
 40
1.0
 40
1.0
 10
7.2936257237
 20
8.8383468423
 30
0.0
 10
7.2907079698
 20
8.8433384534
 30
0.0
 10
7.2851990894
 20
8.8534985548
 30
0.0
 10
7.2779498041
 20
8.8692146024
 30
0.0
 10
7.2717564612
 20
8.8853182245
 30
0.0
 10
7.2666485469
 20
8.901733452
 30
0.0
 10
7.2626498968
 20
8.9183837783
 30
0.0
 10
7.2597793422
 20
8.9351916671
 30
0.0
 10
7.2580504157
 20
8.952077571
 30
0.0
 10
7.2576634588
 20
8.963363366
 30
0.0
 10
7.2576634588
 20
8.968991236
 30
0.0
  0
SPLINE
  5
3BD
100
AcDbEntity
  8
0
100
AcDbSpline
 62
7
  6
CONTINUOUS
 70
0
 71
3
 72
23
 73
19
 74
0
 42
0.0000001
 43
0.0000001
 44
0.0000000001
 40
0.0
 40
0.0
 40
0.0
 40
0.0
 40
0.0607006764
 40
0.1215933428
 40
0.182701355
 40
0.2440444123
 40
0.3056382642
 40
0.3674944933
 40
0.4296203865
 40
0.4920188767
 40
0.554688542
 40
0.6176236982
 40
0.6808145235
 40
0.7442471699
 40
0.8079046202
 40
0.8717646909
 40
0.9358069777
 40
1.0
 40
1.0
 40
1.0
 40
1.0
 10
7.2946765759
 20
9.069617739
 30
0.0
 10
7.292521561
 20
9.0653375063
 30
0.0
 10
7.2884900464
 20
9.0566164577
 30
0.0
 10
7.2833154293
 20
9.0431422366
 30
0.0
 10
7.279024017
 20
9.0293075842
 30
0.0
 10
7.2756332103
 20
9.0151684768
 30
0.0
 10
7.2731563568
 20
9.0007811193
 30
0.0
 10
7.271603249
 20
8.9862029553
 30
0.0
 10
7.2709799587
 20
8.9714920957
 30
0.0
 10
7.2712888697
 20
8.9567071771
 30
0.0
 10
7.272528656
 20
8.9419071069
 30
0.0
 10
7.274694296
 20
8.9271508369
 30
0.0
 10
7.2777770996
 20
8.9124971474
 30
0.0
 10
7.2817646817
 20
8.8980043353
 30
0.0
 10
7.2866411113
 20
8.8837302395
 30
0.0
 10
7.2923869139
 20
8.8697312682
 30
0.0
 10
7.2989789578
 20
8.8560640513
 30
0.0
 10
7.3039159134
 20
8.8472175712
 30
0.0
 10
7.3065156717
 20
8.8428673729
 30
0.0
  0
SPLINE
  5
3BE
100
AcDbEntity
  8
0
100
AcDbSpline
 62
7
  6
CONTINUOUS
 70
0
 71
3
 72
11
 73
7
 74
0
 42
0.0000001
 43
0.0000001
 44
0.0000000001
 40
0.0
 40
0.0
 40
0.0
 40
0.0
 40
0.2476844252
 40
0.4968097473
 40
0.7475441204
 40
1.0
 40
1.0
 40
1.0
 40
1.0
 10
7.2770662397
 20
9.0634671908
 30
0.0
 10
7.2738686668
 20
9.0561170689
 30
0.0
 10
7.2682276081
 20
9.041024555
 30
0.0
 10
7.2621453575
 20
9.0175668866
 30
0.0
 10
7.2584749121
 20
8.9934574855
 30
0.0
 10
7.2576634588
 20
8.9771611819
 30
0.0
 10
7.2576634588
 20
8.968991236
 30
0.0
  0
SPLINE
  5
3BF
100
AcDbEntity
  8
0
100
AcDbSpline
 62
7
  6
CONTINUOUS
 70
0
 71
3
 72
15
 73
11
 74
0
 42
0.0000001
 43
0.0000001
 44
0.0000000001
 40
0.0
 40
0.0
 40
0.0
 40
0.0
 40
0.1234394227
 40
0.2470466262
 40
0.3709825615
 40
0.4953948806
 40
0.6204121373
 40
0.7461393726
 40
0.8726516824
 40
1.0
 40
1.0
 40
1.0
 40
1.0
 10
7.2035502407
 20
9.0162555971
 30
0.0
 10
7.1980749586
 20
9.0109668898
 30
0.0
 10
7.1876542512
 20
8.9998093325
 30
0.0
 10
7.1738143976
 20
8.9815439197
 30
0.0
 10
7.1618814901
 20
8.9619066093
 30
0.0
 10
7.1519677328
 20
8.941081385
 30
0.0
 10
7.1441635525
 20
8.9192605328
 30
0.0
 10
7.1385405
 20
8.8966453028
 30
0.0
 10
7.1351493812
 20
8.8734471914
 30
0.0
 10
7.1343995263
 20
8.8577809055
 30
0.0
 10
7.1343995263
 20
8.8499274132
 30
0.0
  0
SPLINE
  5
3C0
100
AcDbEntity
  8
0
100
AcDbSpline
 62
7
  6
CONTINUOUS
 70
0
 71
3
 72
25
 73
21
 74
0
 42
0.0000001
 43
0.0000001
 44
0.0000000001
 40
0.0
 40
0.0
 40
0.0
 40
0.0
 40
0.0626906788
 40
0.1251309868
 40
0.1873614929
 40
0.2494282334
 40
0.3113815514
 40
0.3732747934
 40
0.4351629036
 40
0.4971009629
 40
0.5591427229
 40
0.621339188
 40
0.6837372821
 40
0.7150316645
 40
0.7463915605
 40
0.8093116013
 40
0.8725387158
 40
0.9042796372
 40
0.9361053813
 40
1.0
 40
1.0
 40
1.0
 40
1.0
 10
7.2815022515
 20
9.0945072213
 30
0.0
 10
7.2747011953
 20
9.0926465323
 30
0.0
 10
7.2612691945
 20
9.0883843742
 30
0.0
 10
7.2417466919
 20
9.0803914435
 30
0.0
 10
7.2230047971
 20
9.0708588936
 30
0.0
 10
7.2051581975
 20
9.059844396
 30
0.0
 10
7.1883140213
 20
9.0474140299
 30
0.0
 10
7.172573942
 20
9.0336426396
 30
0.0
 10
7.1580327923
 20
9.0186131524
 30
0.0
 10
7.1447782041
 20
9.0024162113
 30
0.0
 10
7.1328898816
 20
8.9851492498
 30
0.0
 10
7.122439615
 20
8.9669171753
 30
0.0
 10
7.114987523
 20
8.951022972
 30
0.0
 10
7.1098032724
 20
8.9379447373
 30
0.0
 10
7.1051337494
 20
8.9246116715
 30
0.0
 10
7.1002965407
 20
8.9075484554
 30
0.0
 10
7.0968306579
 20
8.8901116546
 30
0.0
 10
7.0948840613
 20
8.8759808967
 30
0.0
 10
7.0934879745
 20
8.8617104334
 30
0.0
 10
7.0930713196
 20
8.8509381777
 30
0.0
 10
7.0930713196
 20
8.8437517724
 30
0.0
  0
SPLINE
  5
3C1
100
AcDbEntity
  8
0
100
AcDbSpline
 62
7
  6
CONTINUOUS
 70
0
 71
3
 72
23
 73
19
 74
0
 42
0.0000001
 43
0.0000001
 44
0.0000000001
 40
0.0
 40
0.0
 40
0.0
 40
0.0
 40
0.0630509608
 40
0.1257811011
 40
0.1882283924
 40
0.2504394296
 40
0.3124681041
 40
0.3743739968
 40
0.436220547
 40
0.4980730677
 40
0.5599966832
 40
0.6220542745
 40
0.684304515
 40
0.7468000891
 40
0.8095860495
 40
0.872698958
 40
0.9361643744
 40
1.0
 40
1.0
 40
1.0
 40
1.0
 10
7.2810358359
 20
9.0962052831
 30
0.0
 10
7.2728293213
 20
9.0949477244
 30
0.0
 10
7.256557366
 20
9.0917296162
 30
0.0
 10
7.232727736
 20
9.084803693
 30
0.0
 10
7.2097037409
 20
9.0758396475
 30
0.0
 10
7.1876525736
 20
9.0649015102
 30
0.0
 10
7.1667315052
 20
9.0520671026
 30
0.0
 10
7.1470905673
 20
9.0374280721
 30
0.0
 10
7.1288704117
 20
9.0210890722
 30
0.0
 10
7.1122015309
 20
9.0031670453
 30
0.0
 10
7.0972032107
 20
8.9837903478
 30
0.0
 10
7.0839826753
 20
8.9630977877
 30
0.0
 10
7.0726342801
 20
8.941237614
 30
0.0
 10
7.0632388549
 20
8.9183663393
 30
0.0
 10
7.0558630924
 20
8.8946478018
 30
0.0
 10
7.0505593092
 20
8.8702510809
 30
0.0
 10
7.0473646714
 20
8.8453527512
 30
0.0
 10
7.046658048
 20
8.8285812788
 30
0.0
 10
7.046658048
 20
8.8201756481
 30
0.0
  0
SPLINE
  5
3C2
100
AcDbEntity
  8
0
100
AcDbSpline
 62
7
  6
CONTINUOUS
 70
0
 71
3
 72
21
 73
17
 74
0
 42
0.0000001
 43
0.0000001
 44
0.0000000001
 40
0.0
 40
0.0
 40
0.0
 40
0.0
 40
0.0616925892
 40
0.1234173969
 40
0.18519348
 40
0.2470394225
 40
0.3089731364
 40
0.3710117171
 40
0.4331712991
 40
0.4954668807
 40
0.5579122294
 40
0.6205197148
 40
0.6833002178
 40
0.7462634036
 40
0.8727301514
 40
1.0
 40
1.0
 40
1.0
 40
1.0
 10
7.0565810083
 20
9.0825825787
 30
0.0
 10
7.052537755
 20
9.0784136956
 30
0.0
 10
7.0446537918
 20
9.0698724176
 30
0.0
 10
7.0334717102
 20
9.0564887413
 30
0.0
 10
7.022953836
 20
9.0425583982
 30
0.0
 10
7.0131229831
 20
9.0281113732
 30
0.0
 10
7.0039999813
 20
9.0131782799
 30
0.0
 10
6.9956041559
 20
8.9977909743
 30
0.0
 10
6.9879533754
 20
8.9819821547
 30
0.0
 10
6.9810639458
 20
8.9657854384
 30
0.0
 10
6.9749503928
 20
8.9492352911
 30
0.0
 10
6.9696257261
 20
8.9323670104
 30
0.0
 10
6.9651012559
 20
8.9152160229
 30
0.0
 10
6.9601415965
 20
8.8919897671
 30
0.0
 10
6.9559936112
 20
8.8624203212
 30
0.0
 10
6.954895089
 20
8.8385201945
 30
0.0
 10
6.954895089
 20
8.826539431
 30
0.0
  0
SPLINE
  5
3C3
100
AcDbEntity
  8
0
100
AcDbSpline
 62
7
  6
CONTINUOUS
 70
0
 71
3
 72
15
 73
11
 74
0
 42
0.0000001
 43
0.0000001
 44
0.0000000001
 40
0.0
 40
0.0
 40
0.0
 40
0.0
 40
0.1431539302
 40
0.2810377195
 40
0.4136713171
 40
0.5410897927
 40
0.6633466627
 40
0.7805181329
 40
0.8926985348
 40
1.0
 40
1.0
 40
1.0
 40
1.0
 10
14.2193324989
 20
9.4826986848
 30
0.0
 10
14.2214883474
 20
9.4863539022
 30
0.0
 10
14.2258057609
 20
9.4934800934
 30
0.0
 10
14.2324305804
 20
9.5038010478
 30
0.0
 10
14.2390789131
 20
9.5135474374
 30
0.0
 10
14.2457468881
 20
9.5227136285
 30
0.0
 10
14.2524308467
 20
9.5312944174
 30
0.0
 10
14.2591271189
 20
9.53928505
 30
0.0
 10
14.2658317204
 20
9.5466805377
 30
0.0
 10
14.2704043765
 20
9.5513125743
 30
0.0
 10
14.2726921937
 20
9.5535224362
 30
0.0
  0
SPLINE
  5
3C4
100
AcDbEntity
  8
0
100
AcDbSpline
 62
7
  6
CONTINUOUS
 70
0
 71
3
 72
23
 73
19
 74
0
 42
0.0000001
 43
0.0000001
 44
0.0000000001
 40
0.0
 40
0.0
 40
0.0
 40
0.0
 40
0.063777379
 40
0.1273447372
 40
0.1907019931
 40
0.2538561345
 40
0.3168131769
 40
0.3795820929
 40
0.4421733849
 40
0.5045993366
 40
0.5668738654
 40
0.6290123812
 40
0.6910316548
 40
0.7529496517
 40
0.8147853612
 40
0.8765586089
 40
0.9382898579
 40
1.0
 40
1.0
 40
1.0
 40
1.0
 10
10.8392941968
 20
7.8241366585
 30
0.0
 10
10.8392941968
 20
7.8357082285
 30
0.0
 10
10.8398480377
 20
7.8588171849
 30
0.0
 10
10.8423479
 20
7.8933400831
 30
0.0
 10
10.8465101181
 20
7.9275892651
 30
0.0
 10
10.8523248472
 20
7.9614844701
 30
0.0
 10
10.8597789962
 20
7.9949480922
 30
0.0
 10
10.8688553657
 20
8.0279028123
 30
0.0
 10
10.8795331565
 20
8.0602726935
 30
0.0
 10
10.891787793
 20
8.0919830864
 30
0.0
 10
10.9055910794
 20
8.1229608646
 30
0.0
 10
10.9209112501
 20
8.1531345789
 30
0.0
 10
10.9377130294
 20
8.182434619
 30
0.0
 10
10.9559577476
 20
8.2107933952
 30
0.0
 10
10.9756032991
 20
8.2381454208
 30
0.0
 10
10.9966046064
 20
8.264427823
 30
0.0
 10
11.0189124197
 20
8.2895791425
 30
0.0
 10
11.0346239513
 20
8.3055569181
 30
0.0
 10
11.0426770698
 20
8.3133356601
 30
0.0
  0
SPLINE
  5
3C5
100
AcDbEntity
  8
0
100
AcDbSpline
 62
7
  6
CONTINUOUS
 70
0
 71
3
 72
41
 73
37
 74
0
 42
0.0000001
 43
0.0000001
 44
0.0000000001
 40
0.0
 40
0.0
 40
0.0
 40
0.0
 40
0.0299421231
 40
0.0449237695
 40
0.0599145183
 40
0.0899291758
 40
0.1200146052
 40
0.1350933672
 40
0.1501974867
 40
0.1804849861
 40
0.2108989765
 40
0.2414525971
 40
0.2721557632
 40
0.3030149856
 40
0.3340332752
 40
0.3652101299
 40
0.396541598
 40
0.4280204146
 40
0.4596362012
 40
0.4913757235
 40
0.5232231978
 40
0.5551606402
 40
0.5871682493
 40
0.6192248165
 40
0.6513081566
 40
0.6833955523
 40
0.7154642055
 40
0.7474916905
 40
0.7794564022
 40
0.8113379898
 40
0.8431177829
 40
0.8747791608
 40
0.9063079861
 40
0.9376927275
 40
0.9689252295
 40
1.0
 40
1.0
 40
1.0
 40
1.0
 10
7.5578710125
 20
8.6494357636
 30
0.0
 10
7.5536406437
 20
8.6453495481
 30
0.0
 10
7.5470457776
 20
8.6394677726
 30
0.0
 10
7.5378097388
 20
8.6321698444
 30
0.0
 10
7.5282796319
 20
8.6252349988
 30
0.0
 10
7.5158443559
 20
8.6172716006
 30
0.0
 10
7.5028044778
 20
8.6103059021
 30
0.0
 10
7.4920499486
 20
8.6053504979
 30
0.0
 10
7.4810732619
 20
8.6008041616
 30
0.0
 10
7.4669906638
 20
8.595915559
 30
0.0
 10
7.4496359895
 20
8.5913594859
 30
0.0
 10
7.4319026265
 20
8.5881318373
 30
0.0
 10
7.413888851
 20
8.5862504195
 30
0.0
 10
7.3956936169
 20
8.5857252733
 30
0.0
 10
7.3774170399
 20
8.5865590713
 30
0.0
 10
7.3591595726
 20
8.5887469972
 30
0.0
 10
7.3410215321
 20
8.5922768142
 30
0.0
 10
7.3231025353
 20
8.5971289321
 30
0.0
 10
7.3055009642
 20
8.603276524
 30
0.0
 10
7.2883134321
 20
8.6106856767
 30
0.0
 10
7.2716342613
 20
8.6193155801
 30
0.0
 10
7.2555549727
 20
8.629118752
 30
0.0
 10
7.2401637897
 20
8.6400412986
 30
0.0
 10
7.2255451611
 20
8.6520232089
 30
0.0
 10
7.2117793026
 20
8.6649986818
 30
0.0
 10
7.1989417618
 20
8.6788964844
 30
0.0
 10
7.1871030084
 20
8.6936403391
 30
0.0
 10
7.1763280499
 20
8.7091493379
 30
0.0
 10
7.1666760802
 20
8.7253383814
 30
0.0
 10
7.1582001525
 20
8.7421186425
 30
0.0
 10
7.1509469003
 20
8.7593980374
 30
0.0
 10
7.1449562559
 20
8.7770817677
 30
0.0
 10
7.1402612885
 20
8.7950726648
 30
0.0
 10
7.1368879067
 20
8.8132723407
 30
0.0
 10
7.1348548959
 20
8.8315794792
 30
0.0
 10
7.1343995263
 20
8.8438233282
 30
0.0
 10
7.1343995263
 20
8.8499274132
 30
0.0
  0
SPLINE
  5
3C6
100
AcDbEntity
  8
0
100
AcDbSpline
 62
7
  6
CONTINUOUS
 70
0
 71
3
 72
39
 73
35
 74
0
 42
0.0000001
 43
0.0000001
 44
0.0000000001
 40
0.0
 40
0.0
 40
0.0
 40
0.0
 40
0.030506884
 40
0.0608772006
 40
0.0911377608
 40
0.1213191414
 40
0.1514546677
 40
0.1815792649
 40
0.2117282409
 40
0.2419360505
 40
0.2722350994
 40
0.3026546394
 40
0.3332198018
 40
0.3639508022
 40
0.3948623419
 40
0.4259632232
 40
0.4572561714
 40
0.4887378589
 40
0.5203991149
 40
0.5522253025
 40
0.5841968458
 40
0.6162898785
 40
0.6484769909
 40
0.6807280549
 40
0.7130111068
 40
0.7452932699
 40
0.7775416935
 40
0.8097244907
 40
0.8418116568
 40
0.873775953
 40
0.9055937023
 40
0.9372457101
 40
0.9687171375
 40
1.0
 40
1.0
 40
1.0
 40
1.0
 10
7.6387570966
 20
8.7245651772
 30
0.0
 10
7.6363527799
 20
8.7168464833
 30
0.0
 10
7.6308406086
 20
8.7016553913
 30
0.0
 10
7.6205061097
 20
8.6797887525
 30
0.0
 10
7.6082043294
 20
8.6590626048
 30
0.0
 10
7.594033273
 20
8.6396440539
 30
0.0
 10
7.5781049059
 20
8.6216866049
 30
0.0
 10
7.5605455503
 20
8.605333015
 30
0.0
 10
7.5414945379
 20
8.5907129754
 30
0.0
 10
7.5211031401
 20
8.5779423223
 30
0.0
 10
7.4995332522
 20
8.5671220557
 30
0.0
 10
7.4769560617
 20
8.5583375551
 30
0.0
 10
7.4535506312
 20
8.5516579279
 30
0.0
 10
7.4295024429
 20
8.5471354899
 30
0.0
 10
7.4050019011
 20
8.5448053567
 30
0.0
 10
7.3802427942
 20
8.544685281
 30
0.0
 10
7.3554207707
 20
8.5467755589
 30
0.0
 10
7.3307318111
 20
8.5510590745
 30
0.0
 10
7.3063707112
 20
8.5575014762
 30
0.0
 10
7.2825295573
 20
8.5660514168
 30
0.0
 10
7.2593962462
 20
8.5766410278
 30
0.0
 10
7.2371530418
 20
8.5891864711
 30
0.0
 10
7.2159751678
 20
8.6035885971
 30
0.0
 10
7.196029464
 20
8.6197337277
 30
0.0
 10
7.1774730653
 20
8.6374945055
 30
0.0
 10
7.1604521848
 20
8.6567309022
 30
0.0
 10
7.1451010032
 20
8.6772913299
 30
0.0
 10
7.1315406226
 20
8.699013814
 30
0.0
 10
7.1198781278
 20
8.7217272274
 30
0.0
 10
7.1102057479
 20
8.7452526813
 30
0.0
 10
7.1026000335
 20
8.7694046199
 30
0.0
 10
7.0971215037
 20
8.7939932976
 30
0.0
 10
7.0938136872
 20
8.8188223065
 30
0.0
 10
7.0930713196
 20
8.8354616441
 30
0.0
 10
7.0930713196
 20
8.8437517724
 30
0.0
  0
SPLINE
  5
3C7
100
AcDbEntity
  8
0
100
AcDbSpline
 62
7
  6
CONTINUOUS
 70
0
 71
3
 72
39
 73
35
 74
0
 42
0.0000001
 43
0.0000001
 44
0.0000000001
 40
0.0
 40
0.0
 40
0.0
 40
0.0
 40
0.0307265667
 40
0.061283732
 40
0.0916944584
 40
0.1219869794
 40
0.1521939075
 40
0.1823510588
 40
0.2124961259
 40
0.2426672571
 40
0.272901616
 40
0.3032339912
 40
0.3336955152
 40
0.3643125574
 40
0.3951058364
 40
0.4260897709
 40
0.4572720783
 40
0.4886536371
 40
0.5202285889
 40
0.5519846533
 40
0.583903635
 40
0.6159621066
 40
0.6481322233
 40
0.6803826412
 40
0.7126795213
 40
0.7449875906
 40
0.7772712311
 40
0.8094955778
 40
0.8416276017
 40
0.8736371467
 40
0.9054979036
 40
0.9371883858
 40
0.9686921077
 40
1.0
 40
1.0
 40
1.0
 40
1.0
 10
7.6404578307
 20
8.7241039794
 30
0.0
 10
7.6387725403
 20
8.7151832284
 30
0.0
 10
7.6345673905
 20
8.6975379358
 30
0.0
 10
7.6257786383
 20
8.6718684951
 30
0.0
 10
7.6145996204
 20
8.6472836145
 30
0.0
 10
7.6011260371
 20
8.6239970696
 30
0.0
 10
7.5854726575
 20
8.6022077217
 30
0.0
 10
7.567773307
 20
8.5821027298
 30
0.0
 10
7.5481795389
 20
8.5638544738
 30
0.0
 10
7.5268593664
 20
8.54761931
 30
0.0
 10
7.5039956425
 20
8.5335361713
 30
0.0
 10
7.4797844352
 20
8.5217253913
 30
0.0
 10
7.4544333274
 20
8.5122875449
 30
0.0
 10
7.428159506
 20
8.5053026702
 30
0.0
 10
7.4011878205
 20
8.5008297188
 30
0.0
 10
7.3737488485
 20
8.4989061256
 30
0.0
 10
7.3460769238
 20
8.4995474033
 30
0.0
 10
7.3184081129
 20
8.502747216
 30
0.0
 10
7.2909782432
 20
8.5084775236
 30
0.0
 10
7.2640209446
 20
8.516688839
 30
0.0
 10
7.2377656547
 20
8.5273105559
 30
0.0
 10
7.2124357414
 20
8.5402517266
 30
0.0
 10
7.1882466661
 20
8.5554018399
 30
0.0
 10
7.1654041653
 20
8.5726316957
 30
0.0
 10
7.1441024819
 20
8.5917944509
 30
0.0
 10
7.124522821
 20
8.6127269694
 30
0.0
 10
7.1068318527
 20
8.6352511721
 30
0.0
 10
7.0911802296
 20
8.6591754566
 30
0.0
 10
7.0777013231
 20
8.6842963011
 30
0.0
 10
7.066510187
 20
8.7104001127
 30
0.0
 10
7.057702559
 20
8.7372646348
 30
0.0
 10
7.051354049
 20
8.7646619985
 30
0.0
 10
7.0475191507
 20
8.7923559087
 30
0.0
 10
7.046658048
 20
8.810925342
 30
0.0
 10
7.046658048
 20
8.8201756481
 30
0.0
  0
SPLINE
  5
3C8
100
AcDbEntity
  8
0
100
AcDbSpline
 62
7
  6
CONTINUOUS
 70
0
 71
3
 72
41
 73
37
 74
0
 42
0.0000001
 43
0.0000001
 44
0.0000000001
 40
0.0
 40
0.0
 40
0.0
 40
0.0
 40
0.0299327975
 40
0.0598990847
 40
0.0899216457
 40
0.120021936
 40
0.1502195891
 40
0.1805319766
 40
0.2109738325
 40
0.2415569509
 40
0.2722899616
 40
0.3031781839
 40
0.3342235602
 40
0.3654246649
 40
0.3967767843
 40
0.4282720628
 40
0.4598997064
 40
0.4916462394
 40
0.5234958051
 40
0.5554305039
 40
0.5874307627
 40
0.6194757288
 40
0.6515436807
 40
0.6836124521
 40
0.7156598609
 40
0.731671076
 40
0.7476688466
 40
0.7796090623
 40
0.8114655358
 40
0.8432202292
 40
0.8748571324
 40
0.9063625509
 40
0.9377255873
 40
0.9533532926
 40
0.96894296
 40
1.0
 40
1.0
 40
1.0
 40
1.0
 10
7.6190583859
 20
8.500250281
 30
0.0
 10
7.6122185931
 20
8.4940621467
 30
0.0
 10
7.5980388021
 20
8.4822112043
 30
0.0
 10
7.5754294767
 20
8.4661458234
 30
0.0
 10
7.5515895174
 20
8.4518668709
 30
0.0
 10
7.5266487511
 20
8.4394523766
 30
0.0
 10
7.5007407698
 20
8.4289683963
 30
0.0
 10
7.4740048866
 20
8.4204710581
 30
0.0
 10
7.4465846441
 20
8.4140056324
 30
0.0
 10
7.4186272254
 20
8.4096064807
 30
0.0
 10
7.3902826039
 20
8.4072968442
 30
0.0
 10
7.3617027506
 20
8.4070887514
 30
0.0
 10
7.3330408167
 20
8.4089829694
 30
0.0
 10
7.3044503198
 20
8.4129690172
 30
0.0
 10
7.2760843288
 20
8.4190252365
 30
0.0
 10
7.248094655
 20
8.4271189185
 30
0.0
 10
7.2206310501
 20
8.4372064878
 30
0.0
 10
7.1938404162
 20
8.449233741
 30
0.0
 10
7.1678660306
 20
8.4631361407
 30
0.0
 10
7.142846793
 20
8.4788391568
 30
0.0
 10
7.1189164781
 20
8.4962586861
 30
0.0
 10
7.0962030831
 20
8.5153014143
 30
0.0
 10
7.0748279412
 20
8.5358656256
 30
0.0
 10
7.0549058679
 20
8.5578405806
 30
0.0
 10
7.039597163
 20
8.5772395007
 30
0.0
 10
7.0281791971
 20
8.5933447058
 30
0.0
 10
7.0173383426
 20
8.6098043419
 30
0.0
 10
7.004878079
 20
8.6310261354
 30
0.0
 10
6.9917468827
 20
8.6574052791
 30
0.0
 10
6.980512812
 20
8.684546276
 30
0.0
 10
6.9712366373
 20
8.7123035022
 30
0.0
 10
6.9639681574
 20
8.7405277755
 30
0.0
 10
6.9596112675
 20
8.7643430737
 30
0.0
 10
6.9571673039
 20
8.7834752554
 30
0.0
 10
6.9554231303
 20
8.8025883381
 30
0.0
 10
6.954895089
 20
8.816969348
 30
0.0
 10
6.954895089
 20
8.826539431
 30
0.0
  0
SPLINE
  5
3C9
100
AcDbEntity
  8
0
100
AcDbSpline
 62
7
  6
CONTINUOUS
 70
0
 71
3
 72
41
 73
37
 74
0
 42
0.0000001
 43
0.0000001
 44
0.0000000001
 40
0.0
 40
0.0
 40
0.0
 40
0.0
 40
0.0299421701
 40
0.0599087164
 40
0.0899234211
 40
0.1200088983
 40
0.1501860543
 40
0.1804736026
 40
0.2108876422
 40
0.2414413123
 40
0.2721445279
 40
0.3030038001
 40
0.33402214
 40
0.3651990456
 40
0.3965305656
 40
0.428009435
 40
0.4596252751
 40
0.4913648511
 40
0.523212379
 40
0.5551498748
 40
0.5871575372
 40
0.6192141578
 40
0.6512975514
 40
0.6833850007
 40
0.7154537075
 40
0.7314764095
 40
0.7474860758
 40
0.7794508394
 40
0.8113324795
 40
0.8431123195
 40
0.8747737607
 40
0.9063025939
 40
0.9376875098
 40
0.9533255635
 40
0.9689249841
 40
1.0
 40
1.0
 40
1.0
 40
1.0
 10
7.619185295
 20
8.5001115984
 30
0.0
 10
7.6124664801
 20
8.4936217196
 30
0.0
 10
7.5985005376
 20
8.481165719
 30
0.0
 10
7.5761249223
 20
8.4641966198
 30
0.0
 10
7.5524369751
 20
8.4490273459
 30
0.0
 10
7.5275690515
 20
8.4357429958
 30
0.0
 10
7.5016578719
 20
8.4244161496
 30
0.0
 10
7.4748464378
 20
8.4151090731
 30
0.0
 10
7.4472824988
 20
8.4078726845
 30
0.0
 10
7.4191179137
 20
8.4027464888
 30
0.0
 10
7.3905077517
 20
8.3997583291
 30
0.0
 10
7.3616094486
 20
8.3989242693
 30
0.0
 10
7.3325819371
 20
8.4002485232
 30
0.0
 10
7.3035847791
 20
8.4037234514
 30
0.0
 10
7.2747772964
 20
8.4093296194
 30
0.0
 10
7.2463177067
 20
8.4170359184
 30
0.0
 10
7.2183622655
 20
8.4267997428
 30
0.0
 10
7.1910644171
 20
8.4385672253
 30
0.0
 10
7.164573966
 20
8.452273548
 30
0.0
 10
7.1390362705
 20
8.4678432923
 30
0.0
 10
7.1145914393
 20
8.4851908757
 30
0.0
 10
7.0913736345
 20
8.5042209346
 30
0.0
 10
7.0695101154
 20
8.5248291592
 30
0.0
 10
7.0491214044
 20
8.5469016823
 30
0.0
 10
7.0334463915
 20
8.566423305
 30
0.0
 10
7.0217514288
 20
8.5826497358
 30
0.0
 10
7.0106448159
 20
8.599245381
 30
0.0
 10
6.997875408
 20
8.6206630839
 30
0.0
 10
6.9844139569
 20
8.6473136378
 30
0.0
 10
6.9728940052
 20
8.6747574761
 30
0.0
 10
6.9633794758
 20
8.7028434971
 30
0.0
 10
6.9559227829
 20
8.731416816
 30
0.0
 10
6.9514523485
 20
8.7555358117
 30
0.0
 10
6.9489445449
 20
8.7749150916
 30
0.0
 10
6.9471548027
 20
8.7942758407
 30
0.0
 10
6.9466128862
 20
8.808844652
 30
0.0
 10
6.9466128862
 20
8.8185394369
 30
0.0
  0
SPLINE
  5
3CA
100
AcDbEntity
  8
0
100
AcDbSpline
 62
4
  6
CONTINUOUS
 70
0
 71
3
 72
252
 73
248
 74
0
 42
0.0000001
 43
0.0000001
 44
0.0000000001
 40
0.0
 40
0.0
 40
0.0
 40
0.0
 40
0.015625
 40
0.03125
 40
0.0390625
 40
0.046875
 40
0.0546875
 40
0.05859375
 40
0.060546875
 40
0.0625
 40
0.064453125
 40
0.06640625
 40
0.0703125
 40
0.078125
 40
0.09375
 40
0.1015625
 40
0.109375
 40
0.1171875
 40
0.12109375
 40
0.123046875
 40
0.125
 40
0.126953125
 40
0.12890625
 40
0.1328125
 40
0.140625
 40
0.15625
 40
0.1640625
 40
0.171875
 40
0.1796875
 40
0.18359375
 40
0.185546875
 40
0.1875
 40
0.189453125
 40
0.19140625
 40
0.1953125
 40
0.203125
 40
0.21875
 40
0.2265625
 40
0.234375
 40
0.23828125
 40
0.2421875
 40
0.24609375
 40
0.248046875
 40
0.2490234375
 40
0.25
 40
0.2509765625
 40
0.251953125
 40
0.25390625
 40
0.2578125
 40
0.26171875
 40
0.265625
 40
0.2734375
 40
0.28125
 40
0.2890625
 40
0.296875
 40
0.30078125
 40
0.3046875
 40
0.30859375
 40
0.310546875
 40
0.3115234375
 40
0.3125
 40
0.3134765625
 40
0.314453125
 40
0.31640625
 40
0.3203125
 40
0.32421875
 40
0.328125
 40
0.3359375
 40
0.34375
 40
0.3515625
 40
0.359375
 40
0.36328125
 40
0.3671875
 40
0.37109375
 40
0.373046875
 40
0.3740234375
 40
0.375
 40
0.3759765625
 40
0.376953125
 40
0.37890625
 40
0.3828125
 40
0.38671875
 40
0.390625
 40
0.3984375
 40
0.40625
 40
0.4140625
 40
0.421875
 40
0.42578125
 40
0.4296875
 40
0.43359375
 40
0.435546875
 40
0.4365234375
 40
0.4375
 40
0.4384765625
 40
0.439453125
 40
0.44140625
 40
0.4453125
 40
0.44921875
 40
0.453125
 40
0.4609375
 40
0.46875
 40
0.4765625
 40
0.484375
 40
0.48828125
 40
0.4921875
 40
0.494140625
 40
0.49609375
 40
0.498046875
 40
0.4990234375
 40
0.4995117188
 40
0.5
 40
0.5004882812
 40
0.5009765625
 40
0.501953125
 40
0.50390625
 40
0.505859375
 40
0.5078125
 40
0.51171875
 40
0.515625
 40
0.5234375
 40
0.53125
 40
0.5390625
 40
0.546875
 40
0.55078125
 40
0.5546875
 40
0.556640625
 40
0.55859375
 40
0.560546875
 40
0.5615234375
 40
0.5620117188
 40
0.5625
 40
0.5629882812
 40
0.5634765625
 40
0.564453125
 40
0.56640625
 40
0.568359375
 40
0.5703125
 40
0.57421875
 40
0.578125
 40
0.5859375
 40
0.59375
 40
0.6015625
 40
0.609375
 40
0.61328125
 40
0.6171875
 40
0.619140625
 40
0.62109375
 40
0.623046875
 40
0.6240234375
 40
0.6245117188
 40
0.625
 40
0.6254882812
 40
0.6259765625
 40
0.626953125
 40
0.62890625
 40
0.630859375
 40
0.6328125
 40
0.63671875
 40
0.640625
 40
0.6484375
 40
0.65625
 40
0.6640625
 40
0.671875
 40
0.67578125
 40
0.6796875
 40
0.681640625
 40
0.68359375
 40
0.685546875
 40
0.6865234375
 40
0.6870117188
 40
0.6875
 40
0.6879882812
 40
0.6884765625
 40
0.689453125
 40
0.69140625
 40
0.693359375
 40
0.6953125
 40
0.69921875
 40
0.703125
 40
0.7109375
 40
0.71875
 40
0.7265625
 40
0.734375
 40
0.73828125
 40
0.7421875
 40
0.74609375
 40
0.748046875
 40
0.7490234375
 40
0.75
 40
0.7509765625
 40
0.751953125
 40
0.75390625
 40
0.7578125
 40
0.76171875
 40
0.765625
 40
0.7734375
 40
0.78125
 40
0.7890625
 40
0.796875
 40
0.80078125
 40
0.8046875
 40
0.80859375
 40
0.810546875
 40
0.8115234375
 40
0.8125
 40
0.8134765625
 40
0.814453125
 40
0.81640625
 40
0.8203125
 40
0.82421875
 40
0.828125
 40
0.8359375
 40
0.84375
 40
0.8515625
 40
0.859375
 40
0.86328125
 40
0.8671875
 40
0.87109375
 40
0.873046875
 40
0.8740234375
 40
0.875
 40
0.8759765625
 40
0.876953125
 40
0.87890625
 40
0.8828125
 40
0.88671875
 40
0.890625
 40
0.8984375
 40
0.90625
 40
0.9140625
 40
0.921875
 40
0.92578125
 40
0.9296875
 40
0.93359375
 40
0.935546875
 40
0.9365234375
 40
0.9375
 40
0.9384765625
 40
0.939453125
 40
0.94140625
 40
0.9453125
 40
0.94921875
 40
0.953125
 40
0.9609375
 40
0.96875
 40
0.984375
 40
1.0
 40
1.0
 40
1.0
 40
1.0
 10
9.9876315832
 20
10.5498269338
 30
0.0
 10
9.9905197605
 20
10.5497031838
 30
0.0
 10
9.9962961232
 20
10.5494557155
 30
0.0
 10
10.0035165357
 20
10.5491462206
 30
0.0
 10
10.0092929517
 20
10.5488989599
 30
0.0
 10
10.0136250301
 20
10.5487126043
 30
0.0
 10
10.0172358382
 20
10.548560202
 30
0.0
 10
10.0197619464
 20
10.5484478411
 30
0.0
 10
10.0212077124
 20
10.5483925025
 30
0.0
 10
10.0222856264
 20
10.5483260185
 30
0.0
 10
10.0233880447
 20
10.5483550207
 30
0.0
 10
10.0248493891
 20
10.5483603867
 30
0.0
 10
10.0274107173
 20
10.5483852641
 30
0.0
 10
10.0325305367
 20
10.5484240193
 30
0.0
 10
10.0383830386
 20
10.5484729396
 30
0.0
 10
10.0442349435
 20
10.5485205449
 30
0.0
 10
10.0486243837
 20
10.5485555655
 30
0.0
 10
10.0522807941
 20
10.5485875749
 30
0.0
 10
10.0548431161
 20
10.5486043467
 30
0.0
 10
10.0563028774
 20
10.5486227427
 30
0.0
 10
10.0574101566
 20
10.5486117132
 30
0.0
 10
10.0584698144
 20
10.5486955834
 30
0.0
 10
10.0598993007
 20
10.5487743111
 30
0.0
 10
10.0623931788
 20
10.5489274765
 30
0.0
 10
10.0673864125
 20
10.5492228754
 30
0.0
 10
10.0730907096
 20
10.5495650734
 30
0.0
 10
10.0787955139
 20
10.5499059671
 30
0.0
 10
10.0830748514
 20
10.5501609511
 30
0.0
 10
10.086638307
 20
10.5503762688
 30
0.0
 10
10.0891379885
 20
10.5505213461
 30
0.0
 10
10.0905581541
 20
10.5506130754
 30
0.0
 10
10.0916464461
 20
10.5506570014
 30
0.0
 10
10.0926461791
 20
10.5507959974
 30
0.0
 10
10.0940100441
 20
10.5509481666
 30
0.0
 10
10.0963824433
 20
10.5512298838
 30
0.0
 10
10.1011374567
 20
10.5517823491
 30
0.0
 10
10.1065673784
 20
10.5524184582
 30
0.0
 10
10.111998764
 20
10.5530529429
 30
0.0
 10
10.1153933695
 20
10.5534496234
 30
0.0
 10
10.1181087132
 20
10.5537670677
 30
0.0
 10
10.1201462495
 20
10.5540047748
 30
0.0
 10
10.1218409098
 20
10.5542040761
 30
0.0
 10
10.123033624
 20
10.5543412062
 30
0.0
 10
10.1237051003
 20
10.554423284
 30
0.0
 10
10.1242370881
 20
10.5544743695
 30
0.0
 10
10.1246605913
 20
10.5545654873
 30
0.0
 10
10.1252631028
 20
10.554673014
 30
0.0
 10
10.1262998674
 20
10.5548676916
 30
0.0
 10
10.1277901772
 20
10.5551424012
 30
0.0
 10
10.1295746034
 20
10.5554735085
 30
0.0
 10
10.1319552171
 20
10.5559144763
 30
0.0
 10
10.1349305076
 20
10.5564658616
 30
0.0
 10
10.1385010757
 20
10.5571274442
 30
0.0
 10
10.1420715283
 20
10.557789065
 30
0.0
 10
10.1450471076
 20
10.5583403549
 30
0.0
 10
10.1474271437
 20
10.5587815134
 30
0.0
 10
10.1492133315
 20
10.5591120391
 30
0.0
 10
10.1506981305
 20
10.5593885684
 30
0.0
 10
10.1517447326
 20
10.5595799975
 30
0.0
 10
10.1523314821
 20
10.5596927291
 30
0.0
 10
10.1528034013
 20
10.5597678593
 30
0.0
 10
10.1531535465
 20
10.5598789915
 30
0.0
 10
10.153662883
 20
10.5600146099
 30
0.0
 10
10.1545344314
 20
10.560257793
 30
0.0
 10
10.1557898472
 20
10.5606021386
 30
0.0
 10
10.1572919173
 20
10.5610166626
 30
0.0
 10
10.1592962251
 20
10.5615689037
 30
0.0
 10
10.1618010746
 20
10.562259363
 30
0.0
 10
10.1648071417
 20
10.5630878429
 30
0.0
 10
10.1678130743
 20
10.5639163554
 30
0.0
 10
10.1703182602
 20
10.5646067329
 30
0.0
 10
10.1723218951
 20
10.5651591376
 30
0.0
 10
10.1738260174
 20
10.5655731629
 30
0.0
 10
10.1750750133
 20
10.5659190687
 30
0.0
 10
10.1759580221
 20
10.5661594665
 30
0.0
 10
10.1764489961
 20
10.5662995478
 30
0.0
 10
10.1768555451
 20
10.5663969713
 30
0.0
 10
10.1771156211
 20
10.5665235893
 30
0.0
 10
10.1775134805
 20
10.56668223
 30
0.0
 10
10.1781859301
 20
10.5669645958
 30
0.0
 10
10.1791590176
 20
10.567365495
 30
0.0
 10
10.1803213955
 20
10.5678476358
 30
0.0
 10
10.1818730941
 20
10.5684901191
 30
0.0
 10
10.183812074
 20
10.5692933514
 30
0.0
 10
10.1861391459
 20
10.5702571721
 30
0.0
 10
10.1884660634
 20
10.5712210202
 30
0.0
 10
10.1904054292
 20
10.5720241838
 30
0.0
 10
10.1919563561
 20
10.5726668044
 30
0.0
 10
10.1931210876
 20
10.5731485267
 30
0.0
 10
10.1940868121
 20
10.5735507351
 30
0.0
 10
10.1947724057
 20
10.5738307638
 30
0.0
 10
10.1951492051
 20
10.5739931491
 30
0.0
 10
10.1954739706
 20
10.5741082648
 30
0.0
 10
10.1956375567
 20
10.5742488892
 30
0.0
 10
10.1959118926
 20
10.5744274908
 30
0.0
 10
10.196365786
 20
10.574744189
 30
0.0
 10
10.1970278999
 20
10.5751944478
 30
0.0
 10
10.1978165748
 20
10.575735686
 30
0.0
 10
10.1988701889
 20
10.5764570129
 30
0.0
 10
10.2001865035
 20
10.5773587827
 30
0.0
 10
10.2017663846
 20
10.5784408587
 30
0.0
 10
10.203346176
 20
10.5795229479
 30
0.0
 10
10.2046627149
 20
10.5804246848
 30
0.0
 10
10.2057158802
 20
10.5811460777
 30
0.0
 10
10.2063742502
 20
10.5815969417
 30
0.0
 10
10.2069006225
 20
10.5819576477
 30
0.0
 10
10.207296288
 20
10.5822281369
 30
0.0
 10
10.2076231896
 20
10.5824536727
 30
0.0
 10
10.2078575544
 20
10.5826112963
 30
0.0
 10
10.2079828367
 20
10.5827017595
 30
0.0
 10
10.2081011386
 20
10.5827685012
 30
0.0
 10
10.2081264003
 20
10.5828394694
 30
0.0
 10
10.208192536
 20
10.5829326194
 30
0.0
 10
10.2082931528
 20
10.5830963188
 30
0.0
 10
10.2084447963
 20
10.583329816
 30
0.0
 10
10.2086233849
 20
10.5836101663
 30
0.0
 10
10.2088626848
 20
10.5839839131
 30
0.0
 10
10.2091614051
 20
10.5844511149
 30
0.0
 10
10.2096395837
 20
10.5851986275
 30
0.0
 10
10.2102372289
 20
10.5861330219
 30
0.0
 10
10.2109544388
 20
10.5872542935
 30
0.0
 10
10.2116716309
 20
10.5883755657
 30
0.0
 10
10.2122693205
 20
10.5893099587
 30
0.0
 10
10.2127474103
 20
10.5900574741
 30
0.0
 10
10.2130463565
 20
10.5905246688
 30
0.0
 10
10.2132851926
 20
10.5908984301
 30
0.0
 10
10.2134651983
 20
10.591178736
 30
0.0
 10
10.2136124078
 20
10.5914123723
 30
0.0
 10
10.2137209402
 20
10.5915758234
 30
0.0
 10
10.2137743932
 20
10.5916693713
 30
0.0
 10
10.213838612
 20
10.5917391174
 30
0.0
 10
10.2138105975
 20
10.591810449
 30
0.0
 10
10.2138054168
 20
10.5919050049
 30
0.0
 10
10.213781361
 20
10.5920707352
 30
0.0
 10
10.2137548324
 20
10.5923073582
 30
0.0
 10
10.2137196437
 20
10.5925913634
 30
0.0
 10
10.213673897
 20
10.5929700169
 30
0.0
 10
10.2136163125
 20
10.5934433406
 30
0.0
 10
10.2135244015
 20
10.5942006547
 30
0.0
 10
10.2134094353
 20
10.5951472987
 30
0.0
 10
10.2132715113
 20
10.596283271
 30
0.0
 10
10.2131335696
 20
10.5974192431
 30
0.0
 10
10.2130186476
 20
10.5983658874
 30
0.0
 10
10.2129266484
 20
10.5991232008
 30
0.0
 10
10.2128692882
 20
10.5995965264
 30
0.0
 10
10.212823081
 20
10.5999751761
 30
0.0
 10
10.212789299
 20
10.6002591927
 30
0.0
 10
10.2127583692
 20
10.6004957799
 30
0.0
 10
10.2127421703
 20
10.6006615742
 30
0.0
 10
10.212724401
 20
10.6007560276
 30
0.0
 10
10.2127350547
 20
10.6008276738
 30
0.0
 10
10.2126540418
 20
10.6008962386
 30
0.0
 10
10.212577999
 20
10.6009887332
 30
0.0
 10
10.2124300267
 20
10.6011500979
 30
0.0
 10
10.2122264261
 20
10.6013808808
 30
0.0
 10
10.2119787717
 20
10.6016577082
 30
0.0
 10
10.2116497303
 20
10.6020268505
 30
0.0
 10
10.2112380298
 20
10.602488265
 30
0.0
 10
10.2105795319
 20
10.6032265357
 30
0.0
 10
10.2097563325
 20
10.6041493715
 30
0.0
 10
10.2087685284
 20
10.6052567756
 30
0.0
 10
10.2077807067
 20
10.606364179
 30
0.0
 10
10.2069575513
 20
10.6072870168
 30
0.0
 10
10.2062989653
 20
10.6080252833
 30
0.0
 10
10.2058874887
 20
10.6084867085
 30
0.0
 10
10.2055579878
 20
10.6088558288
 30
0.0
 10
10.205311737
 20
10.6091327236
 30
0.0
 10
10.2051037449
 20
10.6093632956
 30
0.0
 10
10.2049636122
 20
10.6095250368
 30
0.0
 10
10.2048750083
 20
10.6096169282
 30
0.0
 10
10.2048325791
 20
10.6096873458
 30
0.0
 10
10.2046983188
 20
10.6097520332
 30
0.0
 10
10.2045513368
 20
10.6098402818
 30
0.0
 10
10.2042791941
 20
10.6099937857
 30
0.0
 10
10.2038982213
 20
10.6102135638
 30
0.0
 10
10.2034377142
 20
10.6104770891
 30
0.0
 10
10.2028248713
 20
10.6108285289
 30
0.0
 10
10.2020584182
 20
10.6112678038
 30
0.0
 10
10.200832317
 20
10.6119706577
 30
0.0
 10
10.1992996093
 20
10.6128492194
 30
0.0
 10
10.1974604142
 20
10.6139034994
 30
0.0
 10
10.1956211327
 20
10.6149577647
 30
0.0
 10
10.194088641
 20
10.615836363
 30
0.0
 10
10.1928621078
 20
10.6165391437
 30
0.0
 10
10.1919436817
 20
10.6170664968
 30
0.0
 10
10.1911736389
 20
10.6175051067
 30
0.0
 10
10.1906438084
 20
10.6178138036
 30
0.0
 10
10.190326684
 20
10.6179875943
 30
0.0
 10
10.1901293044
 20
10.6181252828
 30
0.0
 10
10.1897772521
 20
10.6182348934
 30
0.0
 10
10.1893618005
 20
10.6183908347
 30
0.0
 10
10.1886096232
 20
10.6186591689
 30
0.0
 10
10.1875482263
 20
10.6190448891
 30
0.0
 10
10.1862689245
 20
10.6195067323
 30
0.0
 10
10.1845651545
 20
10.6201228799
 30
0.0
 10
10.1824347635
 20
10.6208929411
 30
0.0
 10
10.1798786025
 20
10.6218170714
 30
0.0
 10
10.1773222941
 20
10.6227411718
 30
0.0
 10
10.1751922715
 20
10.6235113077
 30
0.0
 10
10.1734877646
 20
10.6241273059
 30
0.0
 10
10.1722107103
 20
10.6245896049
 30
0.0
 10
10.1711422825
 20
10.6249738989
 30
0.0
 10
10.1704026563
 20
10.6252447792
 30
0.0
 10
10.1699670948
 20
10.625396641
 30
0.0
 10
10.1696768138
 20
10.6255187826
 30
0.0
 10
10.1692474315
 20
10.6256094068
 30
0.0
 10
10.1687234418
 20
10.6257412326
 30
0.0
 10
10.1677838535
 20
10.6259668058
 30
0.0
 10
10.1664534035
 20
10.626291731
 30
0.0
 10
10.1648518044
 20
10.626680495
 30
0.0
 10
10.1627181066
 20
10.6271992476
 30
0.0
 10
10.1600503745
 20
10.6278475499
 30
0.0
 10
10.1568493716
 20
10.6286255766
 30
0.0
 10
10.1536482423
 20
10.6294035686
 30
0.0
 10
10.1509808261
 20
10.6300519579
 30
0.0
 10
10.1488464965
 20
10.6305705363
 30
0.0
 10
10.1472468245
 20
10.6309598315
 30
0.0
 10
10.1459103457
 20
10.6312830952
 30
0.0
 10
10.1449815195
 20
10.6315116345
 30
0.0
 10
10.1444402863
 20
10.6316387078
 30
0.0
 10
10.1440638707
 20
10.6317439303
 30
0.0
 10
10.1435746557
 20
10.6318112429
 30
0.0
 10
10.1429617147
 20
10.6319142164
 30
0.0
 10
10.1418707361
 20
10.632088259
 30
0.0
 10
10.1403217794
 20
10.6323401124
 30
0.0
 10
10.1384589289
 20
10.6326409577
 30
0.0
 10
10.1359765616
 20
10.6330425665
 30
0.0
 10
10.1328731079
 20
10.633544411
 30
0.0
 10
10.1291491878
 20
10.634146701
 30
0.0
 10
10.1254251617
 20
10.6347489511
 30
0.0
 10
10.122321973
 20
10.6352508955
 30
0.0
 10
10.1198390756
 20
10.6356523046
 30
0.0
 10
10.117977842
 20
10.635953759
 30
0.0
 10
10.1164238269
 20
10.6362037067
 30
0.0
 10
10.1153418783
 20
10.6363811513
 30
0.0
 10
10.114714469
 20
10.636478674
 30
0.0
 10
10.1142696959
 20
10.6365627295
 30
0.0
 10
10.113726364
 20
10.6366050686
 30
0.0
 10
10.1130362998
 20
10.636676072
 30
0.0
 10
10.11181267
 20
10.6367935482
 30
0.0
 10
10.1100730016
 20
10.6369649158
 30
0.0
 10
10.1079818151
 20
10.6371690397
 30
0.0
 10
10.1051948183
 20
10.637441735
 30
0.0
 10
10.1017106437
 20
10.6377824225
 30
0.0
 10
10.096136204
 20
10.6383276241
 30
0.0
 10
10.0891680715
 20
10.639009091
 30
0.0
 10
10.0835935908
 20
10.6395542752
 30
0.0
 10
10.0808063473
 20
10.639826866
 30
0.0
  0
SPLINE
  5
3CB
100
AcDbEntity
  8
0
100
AcDbSpline
 62
4
  6
CONTINUOUS
 70
0
 71
3
 72
252
 73
248
 74
0
 42
0.0000001
 43
0.0000001
 44
0.0000000001
 40
0.0
 40
0.0
 40
0.0
 40
0.0
 40
0.015625
 40
0.03125
 40
0.0390625
 40
0.046875
 40
0.0546875
 40
0.05859375
 40
0.060546875
 40
0.0625
 40
0.064453125
 40
0.06640625
 40
0.0703125
 40
0.078125
 40
0.09375
 40
0.1015625
 40
0.109375
 40
0.1171875
 40
0.12109375
 40
0.123046875
 40
0.125
 40
0.126953125
 40
0.12890625
 40
0.1328125
 40
0.140625
 40
0.15625
 40
0.1640625
 40
0.171875
 40
0.1796875
 40
0.18359375
 40
0.185546875
 40
0.1875
 40
0.189453125
 40
0.19140625
 40
0.1953125
 40
0.203125
 40
0.21875
 40
0.2265625
 40
0.234375
 40
0.23828125
 40
0.2421875
 40
0.24609375
 40
0.248046875
 40
0.2490234375
 40
0.25
 40
0.2509765625
 40
0.251953125
 40
0.25390625
 40
0.2578125
 40
0.26171875
 40
0.265625
 40
0.2734375
 40
0.28125
 40
0.2890625
 40
0.296875
 40
0.30078125
 40
0.3046875
 40
0.30859375
 40
0.310546875
 40
0.3115234375
 40
0.3125
 40
0.3134765625
 40
0.314453125
 40
0.31640625
 40
0.3203125
 40
0.32421875
 40
0.328125
 40
0.3359375
 40
0.34375
 40
0.3515625
 40
0.359375
 40
0.36328125
 40
0.3671875
 40
0.37109375
 40
0.373046875
 40
0.3740234375
 40
0.375
 40
0.3759765625
 40
0.376953125
 40
0.37890625
 40
0.3828125
 40
0.38671875
 40
0.390625
 40
0.3984375
 40
0.40625
 40
0.4140625
 40
0.421875
 40
0.42578125
 40
0.4296875
 40
0.43359375
 40
0.435546875
 40
0.4365234375
 40
0.4375
 40
0.4384765625
 40
0.439453125
 40
0.44140625
 40
0.4453125
 40
0.44921875
 40
0.453125
 40
0.4609375
 40
0.46875
 40
0.4765625
 40
0.484375
 40
0.48828125
 40
0.4921875
 40
0.494140625
 40
0.49609375
 40
0.498046875
 40
0.4990234375
 40
0.4995117188
 40
0.5
 40
0.5004882812
 40
0.5009765625
 40
0.501953125
 40
0.50390625
 40
0.505859375
 40
0.5078125
 40
0.51171875
 40
0.515625
 40
0.5234375
 40
0.53125
 40
0.5390625
 40
0.546875
 40
0.55078125
 40
0.5546875
 40
0.556640625
 40
0.55859375
 40
0.560546875
 40
0.5615234375
 40
0.5620117188
 40
0.5625
 40
0.5629882812
 40
0.5634765625
 40
0.564453125
 40
0.56640625
 40
0.568359375
 40
0.5703125
 40
0.57421875
 40
0.578125
 40
0.5859375
 40
0.59375
 40
0.6015625
 40
0.609375
 40
0.61328125
 40
0.6171875
 40
0.619140625
 40
0.62109375
 40
0.623046875
 40
0.6240234375
 40
0.6245117188
 40
0.625
 40
0.6254882812
 40
0.6259765625
 40
0.626953125
 40
0.62890625
 40
0.630859375
 40
0.6328125
 40
0.63671875
 40
0.640625
 40
0.6484375
 40
0.65625
 40
0.6640625
 40
0.671875
 40
0.67578125
 40
0.6796875
 40
0.681640625
 40
0.68359375
 40
0.685546875
 40
0.6865234375
 40
0.6870117188
 40
0.6875
 40
0.6879882812
 40
0.6884765625
 40
0.689453125
 40
0.69140625
 40
0.693359375
 40
0.6953125
 40
0.69921875
 40
0.703125
 40
0.7109375
 40
0.71875
 40
0.7265625
 40
0.734375
 40
0.73828125
 40
0.7421875
 40
0.74609375
 40
0.748046875
 40
0.7490234375
 40
0.75
 40
0.7509765625
 40
0.751953125
 40
0.75390625
 40
0.7578125
 40
0.76171875
 40
0.765625
 40
0.7734375
 40
0.78125
 40
0.7890625
 40
0.796875
 40
0.80078125
 40
0.8046875
 40
0.80859375
 40
0.810546875
 40
0.8115234375
 40
0.8125
 40
0.8134765625
 40
0.814453125
 40
0.81640625
 40
0.8203125
 40
0.82421875
 40
0.828125
 40
0.8359375
 40
0.84375
 40
0.8515625
 40
0.859375
 40
0.86328125
 40
0.8671875
 40
0.87109375
 40
0.873046875
 40
0.8740234375
 40
0.875
 40
0.8759765625
 40
0.876953125
 40
0.87890625
 40
0.8828125
 40
0.88671875
 40
0.890625
 40
0.8984375
 40
0.90625
 40
0.9140625
 40
0.921875
 40
0.92578125
 40
0.9296875
 40
0.93359375
 40
0.935546875
 40
0.9365234375
 40
0.9375
 40
0.9384765625
 40
0.939453125
 40
0.94140625
 40
0.9453125
 40
0.94921875
 40
0.953125
 40
0.9609375
 40
0.96875
 40
0.984375
 40
1.0
 40
1.0
 40
1.0
 40
1.0
 10
10.0808063625
 20
10.6398268649
 30
0.0
 10
10.0779181852
 20
10.639950615
 30
0.0
 10
10.0721418225
 20
10.6401980832
 30
0.0
 10
10.06492141
 20
10.6405075782
 30
0.0
 10
10.059144994
 20
10.6407548388
 30
0.0
 10
10.0548129156
 20
10.6409411944
 30
0.0
 10
10.0512021075
 20
10.6410935968
 30
0.0
 10
10.0486759993
 20
10.6412059576
 30
0.0
 10
10.0472302333
 20
10.6412612963
 30
0.0
 10
10.0461523193
 20
10.6413277802
 30
0.0
 10
10.0450499009
 20
10.641298778
 30
0.0
 10
10.0435885566
 20
10.641293412
 30
0.0
 10
10.0410272284
 20
10.6412685346
 30
0.0
 10
10.035907409
 20
10.6412297795
 30
0.0
 10
10.030054907
 20
10.6411808591
 30
0.0
 10
10.0242030022
 20
10.6411332539
 30
0.0
 10
10.019813562
 20
10.6410982333
 30
0.0
 10
10.0161571516
 20
10.6410662238
 30
0.0
 10
10.0135948296
 20
10.6410494521
 30
0.0
 10
10.0121350683
 20
10.6410310561
 30
0.0
 10
10.0110277891
 20
10.6410420855
 30
0.0
 10
10.0099681313
 20
10.6409582154
 30
0.0
 10
10.008538645
 20
10.6408794876
 30
0.0
 10
10.0060447669
 20
10.6407263222
 30
0.0
 10
10.0010515331
 20
10.6404309234
 30
0.0
 10
9.995347236
 20
10.6400887253
 30
0.0
 10
9.9896424318
 20
10.6397478317
 30
0.0
 10
9.9853630943
 20
10.6394928477
 30
0.0
 10
9.9817996387
 20
10.6392775299
 30
0.0
 10
9.9792999572
 20
10.6391324526
 30
0.0
 10
9.9778797916
 20
10.6390407233
 30
0.0
 10
9.9767914996
 20
10.6389967973
 30
0.0
 10
9.9757917666
 20
10.6388578014
 30
0.0
 10
9.9744279016
 20
10.6387056321
 30
0.0
 10
9.9720555024
 20
10.638423915
 30
0.0
 10
9.9673004889
 20
10.6378714496
 30
0.0
 10
9.9618705673
 20
10.6372353405
 30
0.0
 10
9.9564391817
 20
10.6366008559
 30
0.0
 10
9.9530445762
 20
10.6362041753
 30
0.0
 10
9.9503292325
 20
10.6358867311
 30
0.0
 10
9.9482916962
 20
10.635649024
 30
0.0
 10
9.9465970359
 20
10.6354497227
 30
0.0
 10
9.9454043217
 20
10.6353125925
 30
0.0
 10
9.9447328453
 20
10.6352305148
 30
0.0
 10
9.9442008576
 20
10.6351794292
 30
0.0
 10
9.9437773544
 20
10.6350883114
 30
0.0
 10
9.9431748429
 20
10.6349807847
 30
0.0
 10
9.9421380783
 20
10.6347861071
 30
0.0
 10
9.9406477685
 20
10.6345113976
 30
0.0
 10
9.9388633423
 20
10.6341802902
 30
0.0
 10
9.9364827286
 20
10.6337393224
 30
0.0
 10
9.9335074381
 20
10.6331879371
 30
0.0
 10
9.92993687
 20
10.6325263545
 30
0.0
 10
9.9263664174
 20
10.6318647338
 30
0.0
 10
9.9233908381
 20
10.6313134438
 30
0.0
 10
9.9210108019
 20
10.6308722853
 30
0.0
 10
9.9192246142
 20
10.6305417596
 30
0.0
 10
9.9177398151
 20
10.6302652304
 30
0.0
 10
9.9166932131
 20
10.6300738012
 30
0.0
 10
9.9161064636
 20
10.6299610697
 30
0.0
 10
9.9156345444
 20
10.6298859395
 30
0.0
 10
9.9152843992
 20
10.6297748073
 30
0.0
 10
9.9147750627
 20
10.6296391889
 30
0.0
 10
9.9139035143
 20
10.6293960057
 30
0.0
 10
9.9126480985
 20
10.6290516602
 30
0.0
 10
9.9111460284
 20
10.6286371362
 30
0.0
 10
9.9091417206
 20
10.628084895
 30
0.0
 10
9.9066368711
 20
10.6273944357
 30
0.0
 10
9.903630804
 20
10.6265659559
 30
0.0
 10
9.9006248714
 20
10.6257374433
 30
0.0
 10
9.8981196855
 20
10.6250470658
 30
0.0
 10
9.8961160505
 20
10.6244946611
 30
0.0
 10
9.8946119283
 20
10.6240806359
 30
0.0
 10
9.8933629324
 20
10.62373473
 30
0.0
 10
9.8924799235
 20
10.6234943323
 30
0.0
 10
9.8919889496
 20
10.6233542509
 30
0.0
 10
9.8915824006
 20
10.6232568275
 30
0.0
 10
9.8913223246
 20
10.6231302094
 30
0.0
 10
9.8909244652
 20
10.6229715688
 30
0.0
 10
9.8902520156
 20
10.6226892029
 30
0.0
 10
9.8892789281
 20
10.6222883038
 30
0.0
 10
9.8881165502
 20
10.621806163
 30
0.0
 10
9.8865648516
 20
10.6211636796
 30
0.0
 10
9.8846258717
 20
10.6203604473
 30
0.0
 10
9.8822987998
 20
10.6193966267
 30
0.0
 10
9.8799718823
 20
10.6184327786
 30
0.0
 10
9.8780325165
 20
10.6176296149
 30
0.0
 10
9.8764815895
 20
10.6169869943
 30
0.0
 10
9.8753168581
 20
10.616505272
 30
0.0
 10
9.8743511336
 20
10.6161030637
 30
0.0
 10
9.87366554
 20
10.615823035
 30
0.0
 10
9.8732887406
 20
10.6156606496
 30
0.0
 10
9.8729639751
 20
10.615545534
 30
0.0
 10
9.872800389
 20
10.6154049095
 30
0.0
 10
9.8725260531
 20
10.615226308
 30
0.0
 10
9.8720721597
 20
10.6149096097
 30
0.0
 10
9.8714100458
 20
10.6144593509
 30
0.0
 10
9.8706213709
 20
10.6139181127
 30
0.0
 10
9.8695677568
 20
10.6131967858
 30
0.0
 10
9.8682514422
 20
10.612295016
 30
0.0
 10
9.8666715611
 20
10.61121294
 30
0.0
 10
9.8650917697
 20
10.6101308508
 30
0.0
 10
9.8637752307
 20
10.609229114
 30
0.0
 10
9.8627220655
 20
10.6085077211
 30
0.0
 10
9.8620636954
 20
10.608056857
 30
0.0
 10
9.8615373232
 20
10.607696151
 30
0.0
 10
9.8611416576
 20
10.6074256618
 30
0.0
 10
9.8608147561
 20
10.6072001261
 30
0.0
 10
9.8605803913
 20
10.6070425024
 30
0.0
 10
9.860455109
 20
10.6069520392
 30
0.0
 10
9.8603368071
 20
10.6068852975
 30
0.0
 10
9.8603115454
 20
10.6068143293
 30
0.0
 10
9.8602454097
 20
10.6067211793
 30
0.0
 10
9.8601447929
 20
10.6065574799
 30
0.0
 10
9.8599931494
 20
10.6063239827
 30
0.0
 10
9.8598145608
 20
10.6060436324
 30
0.0
 10
9.8595752609
 20
10.6056698857
 30
0.0
 10
9.8592765406
 20
10.6052026838
 30
0.0
 10
9.858798362
 20
10.6044551712
 30
0.0
 10
9.8582007168
 20
10.6035207769
 30
0.0
 10
9.8574835069
 20
10.6023995052
 30
0.0
 10
9.8567663148
 20
10.601278233
 30
0.0
 10
9.8561686252
 20
10.6003438401
 30
0.0
 10
9.8556905354
 20
10.5995963246
 30
0.0
 10
9.8553915892
 20
10.5991291299
 30
0.0
 10
9.8551527531
 20
10.5987553686
 30
0.0
 10
9.8549727473
 20
10.5984750627
 30
0.0
 10
9.8548255378
 20
10.5982414264
 30
0.0
 10
9.8547170055
 20
10.5980779754
 30
0.0
 10
9.8546635525
 20
10.5979844275
 30
0.0
 10
9.8545993337
 20
10.5979146814
 30
0.0
 10
9.8546273482
 20
10.5978433497
 30
0.0
 10
9.8546325289
 20
10.5977487939
 30
0.0
 10
9.8546565846
 20
10.5975830635
 30
0.0
 10
9.8546831133
 20
10.5973464406
 30
0.0
 10
9.854718302
 20
10.5970624354
 30
0.0
 10
9.8547640487
 20
10.5966837819
 30
0.0
 10
9.8548216332
 20
10.5962104581
 30
0.0
 10
9.8549135442
 20
10.595453144
 30
0.0
 10
9.8550285104
 20
10.5945065001
 30
0.0
 10
9.8551664344
 20
10.5933705278
 30
0.0
 10
9.8553043761
 20
10.5922345557
 30
0.0
 10
9.8554192981
 20
10.5912879113
 30
0.0
 10
9.8555112973
 20
10.5905305979
 30
0.0
 10
9.8555686575
 20
10.5900572724
 30
0.0
 10
9.8556148647
 20
10.5896786226
 30
0.0
 10
9.8556486467
 20
10.589394606
 30
0.0
 10
9.8556795765
 20
10.5891580188
 30
0.0
 10
9.8556957754
 20
10.5889922246
 30
0.0
 10
9.8557135447
 20
10.5888977711
 30
0.0
 10
9.855702891
 20
10.588826125
 30
0.0
 10
9.8557839038
 20
10.5887575601
 30
0.0
 10
9.8558599467
 20
10.5886650655
 30
0.0
 10
9.856007919
 20
10.5885037008
 30
0.0
 10
9.8562115196
 20
10.5882729179
 30
0.0
 10
9.856459174
 20
10.5879960905
 30
0.0
 10
9.8567882154
 20
10.5876269482
 30
0.0
 10
9.8571999159
 20
10.5871655337
 30
0.0
 10
9.8578584138
 20
10.586427263
 30
0.0
 10
9.8586816132
 20
10.5855044273
 30
0.0
 10
9.8596694173
 20
10.5843970231
 30
0.0
 10
9.860657239
 20
10.5832896198
 30
0.0
 10
9.8614803944
 20
10.5823667819
 30
0.0
 10
9.8621389803
 20
10.5816285154
 30
0.0
 10
9.862550457
 20
10.5811670902
 30
0.0
 10
9.8628799579
 20
10.5807979699
 30
0.0
 10
9.8631262087
 20
10.5805210752
 30
0.0
 10
9.8633342008
 20
10.5802905032
 30
0.0
 10
9.8634743335
 20
10.580128762
 30
0.0
 10
9.8635629374
 20
10.5800368706
 30
0.0
 10
9.8636053665
 20
10.5799664529
 30
0.0
 10
9.8637396269
 20
10.5799017655
 30
0.0
 10
9.8638866089
 20
10.5798135169
 30
0.0
 10
9.8641587516
 20
10.5796600131
 30
0.0
 10
9.8645397244
 20
10.579440235
 30
0.0
 10
9.8650002315
 20
10.5791767097
 30
0.0
 10
9.8656130744
 20
10.5788252698
 30
0.0
 10
9.8663795275
 20
10.5783859949
 30
0.0
 10
9.8676056287
 20
10.577683141
 30
0.0
 10
9.8691383364
 20
10.5768045793
 30
0.0
 10
9.8709775315
 20
10.5757502994
 30
0.0
 10
9.872816813
 20
10.574696034
 30
0.0
 10
9.8743493047
 20
10.5738174357
 30
0.0
 10
9.8755758379
 20
10.573114655
 30
0.0
 10
9.876494264
 20
10.572587302
 30
0.0
 10
9.8772643068
 20
10.572148692
 30
0.0
 10
9.8777941373
 20
10.5718399951
 30
0.0
 10
9.8781112617
 20
10.5716662044
 30
0.0
 10
9.8783086413
 20
10.571528516
 30
0.0
 10
9.8786606936
 20
10.5714189054
 30
0.0
 10
9.8790761452
 20
10.571262964
 30
0.0
 10
9.8798283225
 20
10.5709946298
 30
0.0
 10
9.8808897194
 20
10.5706089096
 30
0.0
 10
9.8821690211
 20
10.5701470665
 30
0.0
 10
9.8838727912
 20
10.5695309188
 30
0.0
 10
9.8860031822
 20
10.5687608576
 30
0.0
 10
9.8885593432
 20
10.5678367274
 30
0.0
 10
9.8911156516
 20
10.566912627
 30
0.0
 10
9.8932456742
 20
10.566142491
 30
0.0
 10
9.8949501811
 20
10.5655264929
 30
0.0
 10
9.8962272354
 20
10.5650641938
 30
0.0
 10
9.8972956632
 20
10.5646798999
 30
0.0
 10
9.8980352894
 20
10.5644090196
 30
0.0
 10
9.8984708509
 20
10.5642571577
 30
0.0
 10
9.8987611319
 20
10.5641350162
 30
0.0
 10
9.8991905142
 20
10.564044392
 30
0.0
 10
9.8997145039
 20
10.5639125661
 30
0.0
 10
9.9006540922
 20
10.563686993
 30
0.0
 10
9.9019845422
 20
10.5633620677
 30
0.0
 10
9.9035861413
 20
10.5629733037
 30
0.0
 10
9.9057198391
 20
10.5624545511
 30
0.0
 10
9.9083875712
 20
10.5618062489
 30
0.0
 10
9.9115885741
 20
10.5610282221
 30
0.0
 10
9.9147897034
 20
10.5602502301
 30
0.0
 10
9.9174571196
 20
10.5596018409
 30
0.0
 10
9.9195914492
 20
10.5590832624
 30
0.0
 10
9.9211911212
 20
10.5586939672
 30
0.0
 10
9.9225275999
 20
10.5583707036
 30
0.0
 10
9.9234564262
 20
10.5581421643
 30
0.0
 10
9.9239976593
 20
10.558015091
 30
0.0
 10
9.924374075
 20
10.5579098684
 30
0.0
 10
9.92486329
 20
10.5578425558
 30
0.0
 10
9.925476231
 20
10.5577395823
 30
0.0
 10
9.9265672096
 20
10.5575655397
 30
0.0
 10
9.9281161663
 20
10.5573136863
 30
0.0
 10
9.9299790168
 20
10.5570128411
 30
0.0
 10
9.932461384
 20
10.5566112322
 30
0.0
 10
9.9355648378
 20
10.5561093877
 30
0.0
 10
9.9392887579
 20
10.5555070977
 30
0.0
 10
9.943012784
 20
10.5549048476
 30
0.0
 10
9.9461159727
 20
10.5544029032
 30
0.0
 10
9.9485988701
 20
10.5540014941
 30
0.0
 10
9.9504601037
 20
10.5537000397
 30
0.0
 10
9.9520141188
 20
10.553450092
 30
0.0
 10
9.9530960674
 20
10.5532726475
 30
0.0
 10
9.9537234767
 20
10.5531751247
 30
0.0
 10
9.9541682498
 20
10.5530910693
 30
0.0
 10
9.9547115817
 20
10.5530487301
 30
0.0
 10
9.9554016459
 20
10.5529777268
 30
0.0
 10
9.9566252757
 20
10.5528602506
 30
0.0
 10
9.9583649441
 20
10.552688883
 30
0.0
 10
9.9604561306
 20
10.552484759
 30
0.0
 10
9.9632431274
 20
10.5522120638
 30
0.0
 10
9.966727302
 20
10.5518713762
 30
0.0
 10
9.9723017417
 20
10.5513261747
 30
0.0
 10
9.9792698741
 20
10.5506447078
 30
0.0
 10
9.9848443549
 20
10.5500995236
 30
0.0
 10
9.9876315984
 20
10.5498269328
 30
0.0
  0
ENDSEC
  0
SECTION
  2
OBJECTS
  0
DICTIONARY
  5
C
100
AcDbDictionary
280
0
281
1
  3
ACAD_GROUP
350
D
  3
ACAD_MLINESTYLE
350
17
  3
ACAD_LAYOUT
350
1A
  3
ACAD_PLOTSETTINGS
350
19
  3
ACAD_PLOTSTYLENAME
350
E
  3
ACAD_IMAGE_DICT
350
       3CD
  3
ACAD_IMAGE_VARS
350
       3CE
  3
ACAD_TABLESTYLE
350
       3CF
  0
IMAGEDEF_REACTOR
  5
3CC
100
AcDbRasterImageDefReactor
 90
2
330
292
  0
DICTIONARY
  5
D
102
{ACAD_REACTORS
330
C
102
}
100
AcDbDictionary
280
0
281
1
  0
ACDBDICTIONARYWDFLT
  5
E
102
{ACAD_REACTORS
330
C
102
}
100
AcDbDictionary
281
1
  3
Normal
350
F
100
AcDbDictionaryWithDefault
340
F
  0
DICTIONARY
  5
3CD
330
C
100
AcDbDictionary
281
1
  3
K2R_assy_2_img_1
350
       3D2
  0
RASTERVARIABLES
  5
3CE
330
C
100
AcDbRasterVariables
 90
0
 70
0
 71
1
 72
5
  0
DICTIONARY
  5
17
102
{ACAD_REACTORS
330
C
102
}
100
AcDbDictionary
280
0
281
1
  3
Standard
350
18
  0
DICTIONARY
  5
3CF
330
C
100
AcDbDictionary
281
1
  3
Standard
350
       3D3
  3
Standard1
350
       3D4
  0
DICTIONARY
  5
19
102
{ACAD_REACTORS
330
C
102
}
100
AcDbDictionary
281
1
  0
DICTIONARY
  5
1A
102
{ACAD_REACTORS
330
C
102
}
100
AcDbDictionary
281
1
  3
Model
350
3D0
  3
Layout1
350
3D1
  0
ACDBPLACEHOLDER
  5
F
102
{ACAD_REACTORS
330
E
102
}
  0
MLINESTYLE
  5
18
102
{ACAD_REACTORS
330
17
102
}
100
AcDbMlineStyle
  2
STANDARD
 70
0
  3

 62
256
 51
90.0
 52
90.0
 71
2
 49
0.5
 62
256
  6
BYLAYER
 49
-0.5
 62
256
  6
BYLAYER
  0
LAYOUT
  5
3D0
102
{ACAD_REACTORS
330
1A
102
}
100
AcDbPlotSettings
  1

  2
none_device
  4
ANSI_C_(22.00_x_17.00_Inches)
  6

 40
0.0
 41
0.0
 42
0.0
 43
0.0
 44
558.8
 45
431.8
 46
0.0
 47
0.0
 48
0.0
 49
0.0
140
0.0
141
0.0
142
1.0
143
1.0
 70
1024
 72
0
 73
0
 74
0
  7

 75
0
147
1.0
148
0.0
149
0.0
100
AcDbLayout
  1
Model
 70
0
 71
0
 10
0.0
 20
0.0
 11
22.0
 21
17.0
 12
0.0
 22
0.0
 32
0.0
 14
0.0
 24
0.0
 34
0.0
 15
0.0
 25
0.0
 35
0.0
146
0.0
 13
0.0
 23
0.0
 33
0.0
 16
1.0
 26
0.0
 36
0.0
 17
0.0
 27
1.0
 37
0.0
 76
0
330
20C
345
0
346
0
  0
LAYOUT
  5
3D1
102
{ACAD_REACTORS
330
1A
102
}
100
AcDbPlotSettings
  1

  2
none_device
  4
ANSI_C_(22.00_x_17.00_Inches)
  6

 40
0.0
 41
0.0
 42
0.0
 43
0.0
 44
558.8
 45
431.8
 46
0.0
 47
0.0
 48
0.0
 49
0.0
140
0.0
141
0.0
142
1.0
143
1.0
 70
0
 72
0
 73
0
 74
0
  7

 75
0
147
1.0
148
0.0
149
0.0
100
AcDbLayout
  1
Layout1
 70
0
 71
1
 10
0.0
 20
0.0
 11
22.0
 21
17.0
 12
0.0
 22
0.0
 32
0.0
 14
0.0
 24
0.0
 34
0.0
 15
0.0
 25
0.0
 35
0.0
146
0.0
 13
0.0
 23
0.0
 33
0.0
 16
1.0
 26
0.0
 36
0.0
 17
0.0
 27
1.0
 37
0.0
 76
0
330
20D
345
0
346
0
  0
IMAGEDEF
  5
3D2
102
{ACAD_REACTORS
330
3CD
330
3CC
102
}
100
AcDbRasterImageDef
 90
0
  1
K2R_assy_2_img_1.png
 10
369.0
 20
92.0
 11
0.0066666667
 21
0.0066666667
280
1
281
0
  0
TABLESTYLE
  5
3D3
102
{ACAD_REACTORS
330
3CF
330
295
330
296
102
}
330
3CF
100
AcDbTableStyle
  3
Standard
 70
0
 71
0
 40
0.06
 41
0.06
280
1
281
1
  7
Standard
140
0.18
170
1
 62
0
 63
7
283
0
  7
Standard
140
0.18
170
1
 62
0
 63
7
283
0
  7
Standard
140
0.18
170
1
 62
0
 63
7
283
0
  0
TABLESTYLE
  5
3D4
102
{ACAD_REACTORS
330
3CF
330
294
102
}
330
3CF
100
AcDbTableStyle
  3
Standard1
 70
1
 71
0
 40
0.06
 41
0.06
280
1
281
1
  7
Standard
140
0.18
170
1
 62
0
 63
7
283
0
  7
Standard
140
0.18
170
1
 62
0
 63
7
283
0
  7
Standard
140
0.18
170
1
 62
0
 63
7
283
0
  0
ENDSEC
  0
EOF
