999
DXF file: K2N_assy_2.dxf
999
Pro/ENGINEER 2014200 by Parametric Technology Corporation
  0
SECTION
  2
HEADER
  9
$ACADVER
  1
AC1021
  9
$DWGCODEPAGE
  3
ANSI_1252
  9
$EXTMAX
 10
22.0
 20
17.0
 30
0.0
  9
$EXTMIN
 10
0.0
 20
0.0
 30
0.0
  9
$LIMMIN
 10
0.0
 20
0.0
  9
$LIMMAX
 10
22.0
 20
17.0
  9
$VIEWCTR
 10
11.0
 20
8.5
  9
$VIEWSIZE
 40
17.0
  9
$CLAYER
  8
0
  9
$LTSCALE
 40
1.21
  9
$CELTYPE
  6
BYLAYER
  9
$DIMSCALE
 40
1.0
  9
$DIMASZ
 40
0.1875
  9
$DIMEXO
 40
0.0625
  9
$DIMDLI
 40
0.836
  9
$DIMEXE
 40
0.125
  9
$DIMCEN
 40
0.198
  9
$DIMLFAC
 40
1.0
  9
$DIMBLK
  1
_FILLED
  9
$DIMTXT
 40
0.1
  9
$DIMTOL
 70
0
  9
$DIMLIM
 70
0
  9
$DIMTFAC
 40
1.0
  9
$DIMGAP
 40
0.09
  9
$DIMDSEP
 70
46
  9
$AUNITS
 70
0
  9
$PDMODE
 70
3
  9
$PDSIZE
 40
0.3125
  9
$HANDSEED
  5
393
  9
$TILEMODE
 70
1
  9
$MEASUREMENT
 70
0
  9
$INSUNITS
 70
1
  0
ENDSEC
  0
SECTION
  2
CLASSES
  0
CLASS
  1
ACDBDICTIONARYWDFLT
  2
AcDbDictionaryWithDefault
  3
AutoCAD 2000
 90
0
 91
1
280
0
281
0
  0
CLASS
  1
ACDBPLACEHOLDER
  2
AcDbPlaceHolder
  3
AutoCAD 2000
 90
0
 91
1
280
0
281
0
  0
CLASS
  1
LAYOUT
  2
AcDbLayout
  3
AutoCAD 2000
 90
0
 91
0
280
0
281
0
  0
CLASS
  1
RASTERVARIABLES
  2
AcDbRasterVariables
  3
ISM
 90
0
 91
1
280
0
281
0
  0
CLASS
  1
IMAGEDEF
  2
AcDbRasterImageDef
  3
ISM
 90
0
 91
1
280
0
281
0
  0
CLASS
  1
IMAGEDEF_REACTOR
  2
AcDbRasterImageDefReactor
  3
ISM
 90
0
 91
1
280
0
281
0
  0
CLASS
  1
IMAGE
  2
AcDbRasterImage
  3
ISM
 90
127
 91
1
280
0
281
1
  0
CLASS
  1
TABLESTYLE
  2
AcDbTableStyle
  3
ObjectDBX Classes
 90
2047
 91
1
280
0
281
0
  0
CLASS
  1
ACAD_TABLE
  2
AcDbTable
  3
ObjectDBX Classes
 90
1025
 91
3
280
0
281
1
  0
ENDSEC
  0
SECTION
  2
TABLES
  0
TABLE
  2
VPORT
  5
8
100
AcDbSymbolTable
 70
2
  0
VPORT
  5
1F4
100
AcDbSymbolTableRecord
100
AcDbViewportTableRecord
  2
*ACTIVE
 70
0
 10
0.0
 20
0.0
 11
1.0
 21
1.0
 12
11.0
 22
8.5
 13
0.0
 23
0.0
 14
1.0
 24
1.0
 15
0.0
 25
0.0
 16
0.0
 26
0.0
 36
1.0
 17
0.0
 27
0.0
 37
0.0
 40
17.0
 41
1.2941176471
 42
50.0
 43
0.0
 44
0.0
 50
0.0
 51
0.0
 71
0
 72
100
 73
1
 74
1
 75
0
 76
0
 77
0
 78
0
  0
ENDTAB
  0
TABLE
  2
LTYPE
  5
5
100
AcDbSymbolTable
 70
6
  0
LTYPE
  5
14
100
AcDbSymbolTableRecord
100
AcDbLinetypeTableRecord
  2
BYBLOCK
 70
0
  3

 72
65
 73
0
 40
0.0
  0
LTYPE
  5
15
100
AcDbSymbolTableRecord
100
AcDbLinetypeTableRecord
  2
BYLAYER
 70
0
  3

 72
65
 73
0
 40
0.0
  0
LTYPE
  5
16
100
AcDbSymbolTableRecord
100
AcDbLinetypeTableRecord
  2
CONTINUOUS
 70
64
  3
Solid line
 72
65
 73
0
 40
0.0
  0
LTYPE
  5
1F5
100
AcDbSymbolTableRecord
100
AcDbLinetypeTableRecord
  2
CENTER
 70
64
  3
____ _ ____ _ ____ _ ____ _ ____ _ ____ _ ____
 72
65
 73
4
 40
0.6
 49
0.375
 74
0
 49
-0.075
 74
0
 49
0.075
 74
0
 49
-0.075
 74
0
  0
LTYPE
  5
1F6
100
AcDbSymbolTableRecord
100
AcDbLinetypeTableRecord
  2
HIDDEN
 70
64
  3
- - - - - - - - - - - - - - - - - - - -
 72
65
 73
2
 40
0.2
 49
0.1
 74
0
 49
-0.1
 74
0
  0
LTYPE
  5
1F7
100
AcDbSymbolTableRecord
100
AcDbLinetypeTableRecord
  2
PHANTOM
 70
64
  3
_____ _ _ _____ _ _ _____ _ _ _____
 72
65
 73
6
 40
0.8
 49
0.45
 74
0
 49
-0.05
 74
0
 49
0.1
 74
0
 49
-0.05
 74
0
 49
0.1
 74
0
 49
-0.05
 74
0
  0
LTYPE
  5
1F8
100
AcDbSymbolTableRecord
100
AcDbLinetypeTableRecord
  2
DOT
 70
64
  3
. . . . . . . . . . . . . . . . . . . .
 72
65
 73
2
 40
0.2
 49
0.1
 74
0
 49
-0.1
 74
0
  0
LTYPE
  5
1F9
100
AcDbSymbolTableRecord
100
AcDbLinetypeTableRecord
  2
DASHED
 70
64
  3
- - - - - - - - - - - - - - - - - - - -
 72
65
 73
2
 40
0.2
 49
0.1
 74
0
 49
-0.1
 74
0
  0
ENDTAB
  0
TABLE
  2
LAYER
  5
2
100
AcDbSymbolTable
 70
36
  0
LAYER
  5
10
100
AcDbSymbolTableRecord
100
AcDbLayerTableRecord
  2
0
 70
0
 62
7
  6
CONTINUOUS
370
-3
390
F
  0
LAYER
  5
1FA
100
AcDbSymbolTableRecord
100
AcDbLayerTableRecord
  2
DEFAULT_1
 70
0
 62
7
  6
CENTER
370
-3
390
F
  0
LAYER
  5
1FB
100
AcDbSymbolTableRecord
100
AcDbLayerTableRecord
  2
DEFAULT_2
 70
0
 62
8
  6
HIDDEN
370
-3
390
F
  0
LAYER
  5
1FC
100
AcDbSymbolTableRecord
100
AcDbLayerTableRecord
  2
DEFAULT_3
 70
0
 62
7
  6
PHANTOM
370
-3
390
F
  0
LAYER
  5
1FD
100
AcDbSymbolTableRecord
100
AcDbLayerTableRecord
  2
01___PRT_ALL_DTM_PLN
 70
0
 62
7
  6
CONTINUOUS
370
-3
390
F
  0
LAYER
  5
1FE
100
AcDbSymbolTableRecord
100
AcDbLayerTableRecord
  2
01___PRT_DEF_DTM_PLN
 70
0
 62
7
  6
CONTINUOUS
370
-3
390
F
  0
LAYER
  5
1FF
100
AcDbSymbolTableRecord
100
AcDbLayerTableRecord
  2
02___PRT_ALL_AXES
 70
0
 62
7
  6
CONTINUOUS
370
-3
390
F
  0
LAYER
  5
200
100
AcDbSymbolTableRecord
100
AcDbLayerTableRecord
  2
03___PRT_ALL_CURVES
 70
0
 62
7
  6
CONTINUOUS
370
-3
390
F
  0
LAYER
  5
201
100
AcDbSymbolTableRecord
100
AcDbLayerTableRecord
  2
04___PRT_ALL_DTM_PNT
 70
0
 62
7
  6
CONTINUOUS
370
-3
390
F
  0
LAYER
  5
202
100
AcDbSymbolTableRecord
100
AcDbLayerTableRecord
  2
05___PRT_ALL_DTM_CSYS
 70
0
 62
7
  6
CONTINUOUS
370
-3
390
F
  0
LAYER
  5
203
100
AcDbSymbolTableRecord
100
AcDbLayerTableRecord
  2
05___PRT_DEF_DTM_CSYS
 70
0
 62
7
  6
CONTINUOUS
370
-3
390
F
  0
LAYER
  5
204
100
AcDbSymbolTableRecord
100
AcDbLayerTableRecord
  2
06___PRT_ALL_SURFS
 70
0
 62
7
  6
CONTINUOUS
370
-3
390
F
  0
LAYER
  5
205
100
AcDbSymbolTableRecord
100
AcDbLayerTableRecord
  2
DATUM_PLANES
 70
0
 62
7
  6
CONTINUOUS
370
-3
390
F
  0
LAYER
  5
206
100
AcDbSymbolTableRecord
100
AcDbLayerTableRecord
  2
PORT_AREAS
 70
0
 62
7
  6
CONTINUOUS
370
-3
390
F
  0
LAYER
  5
207
100
AcDbSymbolTableRecord
100
AcDbLayerTableRecord
  2
SUNNBOMCOSMETIC
 70
0
 62
7
  6
CONTINUOUS
370
-3
390
F
  0
LAYER
  5
208
100
AcDbSymbolTableRecord
100
AcDbLayerTableRecord
  2
SUNNBOMSTAMPING
 70
0
 62
7
  6
CONTINUOUS
370
-3
390
F
  0
LAYER
  5
209
100
AcDbSymbolTableRecord
100
AcDbLayerTableRecord
  2
THREADS
 70
0
 62
7
  6
CONTINUOUS
370
-3
390
F
  0
ENDTAB
  0
TABLE
  2
STYLE
  5
3
100
AcDbSymbolTable
 70
1
  0
STYLE
  5
11
100
AcDbSymbolTableRecord
100
AcDbTextStyleTableRecord
  2
STANDARD
 70
0
 40
0.0
 41
0.8
 50
0.0
 71
0
 42
0.2
  3
txt
  4

  0
STYLE
  5
20A
100
AcDbSymbolTableRecord
100
AcDbTextStyleTableRecord
  2
TEXTSTYLE_1
 70
0
 40
0.0
 41
0.8
 50
0.0
 71
0
 42
0.2
  3
gdt
  4

  0
ENDTAB
  0
TABLE
  2
VIEW
  5
6
100
AcDbSymbolTable
 70
0
  0
ENDTAB
  0
TABLE
  2
UCS
  5
7
100
AcDbSymbolTable
 70
0
  0
ENDTAB
  0
TABLE
  2
APPID
  5
9
100
AcDbSymbolTable
 70
1
  0
APPID
  5
20B
100
AcDbSymbolTableRecord
100
AcDbRegAppTableRecord
  2
ACAD
 70
0
  0
ENDTAB
  0
TABLE
  2
BLOCK_RECORD
  5
1
100
AcDbSymbolTable
 70
0
  0
BLOCK_RECORD
  5
20C
100
AcDbSymbolTableRecord
100
AcDbBlockTableRecord
  2
*Model_Space
  0
BLOCK_RECORD
  5
20D
100
AcDbSymbolTableRecord
100
AcDbBlockTableRecord
  2
*Paper_Space
  0
BLOCK_RECORD
  5
20E
100
AcDbSymbolTableRecord
100
AcDbBlockTableRecord
  2
SUN_FIRST_THIRD_ANGLE_BL0
  0
BLOCK_RECORD
  5
20F
100
AcDbSymbolTableRecord
100
AcDbBlockTableRecord
  2
*T1
  0
BLOCK_RECORD
  5
210
100
AcDbSymbolTableRecord
100
AcDbBlockTableRecord
  2
*T2
  0
BLOCK_RECORD
  5
211
100
AcDbSymbolTableRecord
100
AcDbBlockTableRecord
  2
*T3
  0
ENDTAB
  0
TABLE
  2
DIMSTYLE
  5
A
100
AcDbSymbolTable
 70
1
100
AcDbDimStyleTable
 71
0
  0
DIMSTYLE
105
212
100
AcDbSymbolTableRecord
100
AcDbDimStyleTableRecord
  2
STANDARD
 70
0
  3

  4

 40
1.0
 41
0.1875
 42
0.0625
 43
0.38
 44
0.125
 45
0.0
 46
0.0
 47
0.001
 48
0.001
140
0.1
141
0.09
142
0.0
143
25.4
144
1.0
145
0.0
146
1.0
147
0.09
 71
0.0
 72
0.0
 73
1
 74
1
 75
0
 76
0
 77
0
 78
4
170
0
171
2
172
0
173
0
174
0
175
0
176
0
177
0
178
0
270
2
271
3
272
3
273
2
274
2
275
0
280
0
281
0
282
0
283
1
284
4
285
0
286
0
287
3
288
0
340
11
278
46
  0
ENDTAB
  0
ENDSEC
  0
SECTION
  2
BLOCKS
  0
BLOCK
  5
20
100
AcDbEntity
  8
0
100
AcDbBlockBegin
  2
*Model_Space
 70
0
 10
0.0
 20
0.0
 30
0.0
  3
*Model_Space
  1

  0
ENDBLK
  5
21
100
AcDbEntity
  8
0
100
AcDbBlockEnd
  0
BLOCK
  5
1C
100
AcDbEntity
  8
0
100
AcDbBlockBegin
  2
*Paper_Space
 70
0
 10
0.0
 20
0.0
 30
0.0
  3
*Paper_Space
  1

  0
ENDBLK
  5
1D
100
AcDbEntity
  8
0
100
AcDbBlockEnd
  0
BLOCK
  5
213
100
AcDbEntity
  8
0
100
AcDbBlockBegin
 62
2
  6
CONTINUOUS
  2
SUN_FIRST_THIRD_ANGLE_BL0
 70
64
 10
20.4816717061
 20
1.2289683772
  3
SUN_FIRST_THIRD_ANGLE_BL0
  1

  0
TEXT
  5
214
100
AcDbEntity
  8
0
100
AcDbText
 62
2
  6
CONTINUOUS
 10
19.4750896608
 20
1.4136269581
  7
STANDARD
 40
0.08
  1
FIRST ANGLE
 41
0.8
 72
0
100
AcDbText
  0
TEXT
  5
215
100
AcDbEntity
  8
0
100
AcDbText
 62
2
  6
CONTINUOUS
 10
20.7842537513
 20
1.4047600029
  7
STANDARD
 40
0.08
  1
THIRD ANGLE
 41
0.8
 72
0
100
AcDbText
  0
LINE
  5
216
100
AcDbEntity
  8
0
100
AcDbLine
 62
7
  6
CONTINUOUS
 10
19.4767170086
 20
1.1727031207
 11
19.6334271527
 21
1.1717972817
  0
LINE
  5
217
100
AcDbEntity
  8
0
100
AcDbLine
 62
7
  6
CONTINUOUS
 10
19.6596964832
 20
1.1717972817
 11
19.6950230232
 21
1.171593082
  0
LINE
  5
218
100
AcDbEntity
  8
0
100
AcDbLine
 62
7
  6
CONTINUOUS
 10
19.7194818561
 20
1.1708914427
 11
19.8852396156
 21
1.1699333054
  0
LINE
  5
219
100
AcDbEntity
  8
0
100
AcDbLine
 62
7
  6
CONTINUOUS
 10
19.4758111696
 20
1.2723454088
 11
19.88525039
 21
1.3511534004
  0
LINE
  5
21A
100
AcDbEntity
  8
0
100
AcDbLine
 62
7
  6
CONTINUOUS
 10
19.88525039
 20
1.3511534004
 11
19.8831348489
 21
0.9851647912
  0
LINE
  5
21B
100
AcDbEntity
  8
0
100
AcDbLine
 62
7
  6
CONTINUOUS
 10
19.8831348489
 20
0.9851647912
 11
19.4767170086
 21
1.0658141206
  0
LINE
  5
21C
100
AcDbEntity
  8
0
100
AcDbLine
 62
7
  6
CONTINUOUS
 10
19.4767170086
 20
1.0658141206
 11
19.4779056764
 21
1.2714536432
  0
CIRCLE
  5
21D
100
AcDbEntity
  8
0
100
AcDbCircle
 62
7
  6
CONTINUOUS
 10
20.2068232291
 20
1.1717972817
 40
0.175742101
  0
CIRCLE
  5
21E
100
AcDbEntity
  8
0
100
AcDbCircle
 62
7
  6
CONTINUOUS
 10
20.2068232291
 20
1.1717972817
 40
0.1005522074
  0
LINE
  5
21F
100
AcDbEntity
  8
0
100
AcDbLine
 62
7
  6
CONTINUOUS
 10
20.2077290681
 20
1.3756110529
 11
20.2071171714
 21
1.2379342989
  0
LINE
  5
220
100
AcDbEntity
  8
0
100
AcDbLine
 62
7
  6
CONTINUOUS
 10
20.2077290681
 20
1.2016899681
 11
20.2074674401
 21
1.1428236749
  0
LINE
  5
221
100
AcDbEntity
  8
0
100
AcDbLine
 62
7
  6
CONTINUOUS
 10
20.208634907
 20
1.101141841
 11
20.2080230104
 21
0.963465087
  0
LINE
  5
222
100
AcDbEntity
  8
0
100
AcDbLine
 62
7
  6
CONTINUOUS
 10
20.0066328138
 20
1.1745147986
 11
20.1443095678
 21
1.1739029019
  0
LINE
  5
223
100
AcDbEntity
  8
0
100
AcDbLine
 62
7
  6
CONTINUOUS
 10
20.1832714155
 20
1.1727031207
 11
20.238153505
 21
1.172335442
  0
LINE
  5
224
100
AcDbEntity
  8
0
100
AcDbLine
 62
7
  6
CONTINUOUS
 10
20.2756669918
 20
1.1717972817
 11
20.407916871
 21
1.1712095044
  0
CIRCLE
  5
225
100
AcDbEntity
  8
0
100
AcDbCircle
 62
7
  6
CONTINUOUS
 10
20.7509457401
 20
1.1693297793
 40
0.1722024983
  0
CIRCLE
  5
226
100
AcDbEntity
  8
0
100
AcDbCircle
 62
7
  6
CONTINUOUS
 10
20.7509457401
 20
1.1693297793
 40
0.0985164967
  0
LINE
  5
227
100
AcDbEntity
  8
0
100
AcDbLine
 62
7
  6
CONTINUOUS
 10
20.7169767782
 20
1.170462078
 11
20.7825395137
 21
1.1682766535
  0
LINE
  5
228
100
AcDbEntity
  8
0
100
AcDbLine
 62
7
  6
CONTINUOUS
 10
20.8177513651
 20
1.1693297793
 11
20.947965719
 21
1.1693297793
  0
LINE
  5
229
100
AcDbEntity
  8
0
100
AcDbLine
 62
7
  6
CONTINUOUS
 10
20.6875370113
 20
1.170462078
 11
20.5573226574
 21
1.170462078
  0
LINE
  5
22A
100
AcDbEntity
  8
0
100
AcDbLine
 62
7
  6
CONTINUOUS
 10
20.7486811426
 20
1.1987695462
 11
20.7486811426
 21
1.1432869085
  0
LINE
  5
22B
100
AcDbEntity
  8
0
100
AcDbLine
 62
7
  6
CONTINUOUS
 10
20.7498134414
 20
1.1059210505
 11
20.7498134414
 21
0.9757066966
  0
LINE
  5
22C
100
AcDbEntity
  8
0
100
AcDbLine
 62
7
  6
CONTINUOUS
 10
20.7486811426
 20
1.2338708068
 11
20.7486811426
 21
1.3640851607
  0
LINE
  5
22D
100
AcDbEntity
  8
0
100
AcDbLine
 62
7
  6
CONTINUOUS
 10
21.0702539817
 20
1.2701043662
 11
21.4790138229
 21
1.3448360823
  0
LINE
  5
22E
100
AcDbEntity
  8
0
100
AcDbLine
 62
7
  6
CONTINUOUS
 10
21.4790138229
 20
1.3448360823
 11
21.4790138229
 21
0.9779712941
  0
LINE
  5
22F
100
AcDbEntity
  8
0
100
AcDbLine
 62
7
  6
CONTINUOUS
 10
21.4790138229
 20
0.9779712941
 11
21.069121683
 21
1.0617614
  0
LINE
  5
230
100
AcDbEntity
  8
0
100
AcDbLine
 62
7
  6
CONTINUOUS
 10
21.0702539817
 20
1.2701043662
 11
21.069121683
 21
1.0617614
  0
LINE
  5
231
100
AcDbEntity
  8
0
100
AcDbLine
 62
7
  6
CONTINUOUS
 10
21.4790138229
 20
1.1693297793
 11
21.3159628059
 21
1.1693297793
  0
LINE
  5
232
100
AcDbEntity
  8
0
100
AcDbLine
 62
7
  6
CONTINUOUS
 10
21.2876553377
 20
1.1693297793
 11
21.2502894796
 21
1.1693297793
  0
LINE
  5
233
100
AcDbEntity
  8
0
100
AcDbLine
 62
7
  6
CONTINUOUS
 10
21.2208497126
 20
1.1659328831
 11
21.0713862804
 21
1.1659328831
  0
LINE
  5
234
100
AcDbEntity
  8
0
100
AcDbLine
 62
7
  6
CONTINUOUS
 10
20.4796138713
 20
1.5284908897
 11
20.4766766948
 21
0.9294458646
  0
ENDBLK
  5
235
100
AcDbEntity
  8
0
  6
BYBLOCK
 62
0
100
AcDbBlockEnd
  0
BLOCK
  5
236
100
AcDbEntity
  8
0
100
AcDbBlockBegin
  2
*T1
 70
1
 10
0.0
 20
0.0
  3
*T1
  1

  0
LINE
  5
237
100
AcDbEntity
  8
0
100
AcDbLine
 62
2
  6
CONTINUOUS
 10
9.275
 20
0.0
 11
-0.0
 21
0.0
  0
LINE
  5
238
100
AcDbEntity
  8
0
100
AcDbLine
 62
2
  6
CONTINUOUS
 10
9.275
 20
0.0
 11
9.275
 21
1.25
  0
LINE
  5
239
100
AcDbEntity
  8
0
100
AcDbLine
 62
2
  6
CONTINUOUS
 10
9.275
 20
0.625
 11
-0.0
 21
0.625
  0
LINE
  5
23A
100
AcDbEntity
  8
0
100
AcDbLine
 62
2
  6
CONTINUOUS
 10
9.275
 20
1.25
 11
-0.0
 21
1.25
  0
LINE
  5
23B
100
AcDbEntity
  8
0
100
AcDbLine
 62
2
  6
CONTINUOUS
 10
6.8
 20
0.0
 11
6.8
 21
1.25
  0
LINE
  5
23C
100
AcDbEntity
  8
0
100
AcDbLine
 62
2
  6
CONTINUOUS
 10
6.4
 20
0.0
 11
6.4
 21
0.625
  0
LINE
  5
23D
100
AcDbEntity
  8
0
100
AcDbLine
 62
2
  6
CONTINUOUS
 10
5.9
 20
0.0
 11
5.9
 21
0.625
  0
LINE
  5
23E
100
AcDbEntity
  8
0
100
AcDbLine
 62
2
  6
CONTINUOUS
 10
5.2
 20
0.0
 11
5.2
 21
0.625
  0
LINE
  5
23F
100
AcDbEntity
  8
0
100
AcDbLine
 62
2
  6
CONTINUOUS
 10
4.1
 20
0.0
 11
4.1
 21
1.25
  0
LINE
  5
240
100
AcDbEntity
  8
0
100
AcDbLine
 62
2
  6
CONTINUOUS
 10
-0.0
 20
0.0
 11
-0.0
 21
1.25
  0
MTEXT
  5
241
100
AcDbEntity
  8
0
100
AcDbMText
 62
2
  6
CONTINUOUS
  7
STANDARD
 71
2
 72
1
 10
6.6
 20
0.325
 30
0.0
 11
1.0
 21
0.0
 31
0.0
 44
0.9
  1
2
 40
0.125
 41
0.2
  0
MTEXT
  5
242
100
AcDbEntity
  8
0
100
AcDbMText
 62
2
  6
CONTINUOUS
  7
STANDARD
 71
2
 72
1
 10
6.15
 20
0.325
 30
0.0
 11
1.0
 21
0.0
 31
0.0
 44
0.9
  1
C
 40
0.125
 41
0.2
  0
MTEXT
  5
243
100
AcDbEntity
  8
0
100
AcDbMText
 62
2
  6
CONTINUOUS
  7
STANDARD
 71
2
 72
1
 10
5.55
 20
0.325
 30
0.0
 11
1.0
 21
0.0
 31
0.0
 44
0.9
  1
0.900
 40
0.125
 41
1.0
  0
MTEXT
  5
244
100
AcDbEntity
  8
0
100
AcDbMText
 62
2
  6
CONTINUOUS
  7
STANDARD
 71
2
 72
1
 10
4.65
 20
0.325
 30
0.0
 11
1.0
 21
0.0
 31
0.0
 44
0.9
  1
Mar-10-20
 40
0.125
 41
1.8
  0
MTEXT
  5
245
100
AcDbEntity
  8
0
100
AcDbMText
 62
2
  6
CONTINUOUS
  7
STANDARD
 71
2
 72
1
 10
2.05
 20
0.4625
 30
0.0
 11
1.0
 21
0.0
 31
0.0
 44
0.9
  1
T-19A Line mount\P(See Technical Data for Body Features)
 40
0.125
 41
7.6
  0
MTEXT
  5
246
100
AcDbEntity
  8
0
100
AcDbMText
 62
2
  6
CONTINUOUS
  7
STANDARD
 71
1
 72
1
 10
6.45
 20
0.5625
 30
0.0
 11
1.0
 21
0.0
 31
0.0
 44
0.9
  1
SHEET
 40
0.06
 41
0.48
  0
MTEXT
  5
247
100
AcDbEntity
  8
0
100
AcDbMText
 62
2
  6
CONTINUOUS
  7
STANDARD
 71
1
 72
1
 10
5.95
 20
0.5625
 30
0.0
 11
1.0
 21
0.0
 31
0.0
 44
0.9
  1
DWG SIZE
 40
0.06
 41
0.768
  0
MTEXT
  5
248
100
AcDbEntity
  8
0
100
AcDbMText
 62
2
  6
CONTINUOUS
  7
STANDARD
 71
1
 72
1
 10
5.25
 20
0.5625
 30
0.0
 11
1.0
 21
0.0
 31
0.0
 44
0.9
  1
SCALE
 40
0.06
 41
0.48
  0
MTEXT
  5
249
100
AcDbEntity
  8
0
100
AcDbMText
 62
2
  6
CONTINUOUS
  7
STANDARD
 71
1
 72
1
 10
4.15
 20
0.5625
 30
0.0
 11
1.0
 21
0.0
 31
0.0
 44
0.9
  1
DATE
 40
0.06
 41
0.384
  0
MTEXT
  5
24A
100
AcDbEntity
  8
0
100
AcDbMText
 62
2
  6
CONTINUOUS
  7
STANDARD
 71
1
 72
1
 10
0.05
 20
0.5625
 30
0.0
 11
1.0
 21
0.0
 31
0.0
 44
0.9
  1
DESCRIPTION
 40
0.06
 41
1.056
  0
MTEXT
  5
24B
100
AcDbEntity
  8
0
100
AcDbMText
 62
2
  6
CONTINUOUS
  7
STANDARD
 71
2
 72
1
 10
5.45
 20
1.0375
 30
0.0
 11
1.0
 21
0.0
 31
0.0
 44
0.9
  1
ALL DIMENSIONS IN INCH\PVIEWS ARE THIRD ANGLE
 40
0.12
 41
4.224
  0
MTEXT
  5
24C
100
AcDbEntity
  8
0
100
AcDbMText
 62
2
  6
CONTINUOUS
  7
STANDARD
 71
2
 72
1
 10
2.05
 20
0.95
 30
0.0
 11
1.0
 21
0.0
 31
0.0
 44
0.9
  1
K2N
 40
0.125
 41
0.6
  0
MTEXT
  5
24D
100
AcDbEntity
  8
0
100
AcDbMText
 62
2
  6
CONTINUOUS
  7
STANDARD
 71
1
 72
1
 10
0.05
 20
1.1875
 30
0.0
 11
1.0
 21
0.0
 31
0.0
 44
0.9
  1
MODEL
 40
0.06
 41
0.48
  0
ENDBLK
  5
24E
100
AcDbEntity
  8
0
  6
BYBLOCK
 62
0
100
AcDbBlockEnd
  0
BLOCK
  5
24F
100
AcDbEntity
  8
0
100
AcDbBlockBegin
  2
*T2
 70
1
 10
0.0
 20
0.0
  3
*T2
  1

  0
LINE
  5
250
100
AcDbEntity
  8
0
100
AcDbLine
 62
2
  6
CONTINUOUS
 10
0.0
 20
0.0
 11
9.055
 21
0.0
  0
LINE
  5
251
100
AcDbEntity
  8
0
100
AcDbLine
 62
2
  6
CONTINUOUS
 10
0.0
 20
0.0
 11
0.0
 21
-2.594
  0
LINE
  5
252
100
AcDbEntity
  8
0
100
AcDbLine
 62
2
  6
CONTINUOUS
 10
0.0
 20
-0.344
 11
9.055
 21
-0.344
  0
LINE
  5
253
100
AcDbEntity
  8
0
100
AcDbLine
 62
2
  6
CONTINUOUS
 10
0.0
 20
-0.594
 11
9.055
 21
-0.594
  0
LINE
  5
254
100
AcDbEntity
  8
0
100
AcDbLine
 62
2
  6
CONTINUOUS
 10
0.0
 20
-0.844
 11
9.055
 21
-0.844
  0
LINE
  5
255
100
AcDbEntity
  8
0
100
AcDbLine
 62
2
  6
CONTINUOUS
 10
0.0
 20
-1.094
 11
9.055
 21
-1.094
  0
LINE
  5
256
100
AcDbEntity
  8
0
100
AcDbLine
 62
2
  6
CONTINUOUS
 10
0.0
 20
-1.344
 11
9.055
 21
-1.344
  0
LINE
  5
257
100
AcDbEntity
  8
0
100
AcDbLine
 62
2
  6
CONTINUOUS
 10
0.0
 20
-1.594
 11
9.055
 21
-1.594
  0
LINE
  5
258
100
AcDbEntity
  8
0
100
AcDbLine
 62
2
  6
CONTINUOUS
 10
0.0
 20
-1.844
 11
9.055
 21
-1.844
  0
LINE
  5
259
100
AcDbEntity
  8
0
100
AcDbLine
 62
2
  6
CONTINUOUS
 10
0.0
 20
-2.094
 11
9.055
 21
-2.094
  0
LINE
  5
25A
100
AcDbEntity
  8
0
100
AcDbLine
 62
2
  6
CONTINUOUS
 10
0.0
 20
-2.344
 11
9.055
 21
-2.344
  0
LINE
  5
25B
100
AcDbEntity
  8
0
100
AcDbLine
 62
2
  6
CONTINUOUS
 10
0.0
 20
-2.594
 11
9.055
 21
-2.594
  0
LINE
  5
25C
100
AcDbEntity
  8
0
100
AcDbLine
 62
2
  6
CONTINUOUS
 10
3.055
 20
0.0
 11
3.055
 21
-2.594
  0
LINE
  5
25D
100
AcDbEntity
  8
0
100
AcDbLine
 62
2
  6
CONTINUOUS
 10
9.055
 20
0.0
 11
9.055
 21
-2.594
  0
MTEXT
  5
25E
100
AcDbEntity
  8
0
100
AcDbMText
 62
2
  6
CONTINUOUS
  7
STANDARD
 71
2
 72
1
 10
1.5275
 20
-0.0995
 30
0.0
 11
1.0
 21
0.0
 31
0.0
 44
0.9
  1
Technical Data
 40
0.145
 41
3.248
  0
MTEXT
  5
25F
100
AcDbEntity
  8
0
100
AcDbMText
 62
2
  6
CONTINUOUS
  7
STANDARD
 71
2
 72
1
 10
4.555
 20
-0.0995
 30
0.0
 11
1.0
 21
0.0
 31
0.0
 44
0.9
  1
U.S. Units
 40
0.145
 41
2.32
  0
MTEXT
  5
260
100
AcDbEntity
  8
0
100
AcDbMText
 62
2
  6
CONTINUOUS
  7
STANDARD
 71
2
 72
1
 10
7.555
 20
-0.0995
 30
0.0
 11
1.0
 21
0.0
 31
0.0
 44
0.9
  1
Metric Units
 40
0.145
 41
2.784
  0
MTEXT
  5
261
100
AcDbEntity
  8
0
100
AcDbMText
 62
2
  6
CONTINUOUS
  7
STANDARD
 71
2
 72
1
 10
1.5275
 20
-0.4065
 30
0.0
 11
1.0
 21
0.0
 31
0.0
 44
0.9
  1
Cavity
 40
0.125
 41
1.2
  0
MTEXT
  5
262
100
AcDbEntity
  8
0
100
AcDbMText
 62
2
  6
CONTINUOUS
  7
STANDARD
 71
2
 72
1
 10
6.055
 20
-0.4065
 30
0.0
 11
1.0
 21
0.0
 31
0.0
 44
0.9
  1
T-19A
 40
0.125
 41
1.0
  0
MTEXT
  5
263
100
AcDbEntity
  8
0
100
AcDbMText
 62
2
  6
CONTINUOUS
  7
STANDARD
 71
2
 72
1
 10
1.5275
 20
-0.6565
 30
0.0
 11
1.0
 21
0.0
 31
0.0
 44
0.9
  1
Body Features
 40
0.125
 41
2.6
  0
MTEXT
  5
264
100
AcDbEntity
  8
0
100
AcDbMText
 62
2
  6
CONTINUOUS
  7
STANDARD
 71
2
 72
1
 10
6.055
 20
-0.6565
 30
0.0
 11
1.0
 21
0.0
 31
0.0
 44
0.9
  1
Ninety degree with reverse flow check - reducing
 40
0.125
 41
9.6
  0
MTEXT
  5
265
100
AcDbEntity
  8
0
100
AcDbMText
 62
2
  6
CONTINUOUS
  7
STANDARD
 71
2
 72
1
 10
1.5275
 20
-0.9065
 30
0.0
 11
1.0
 21
0.0
 31
0.0
 44
0.9
  1
Body Type
 40
0.125
 41
1.8
  0
MTEXT
  5
266
100
AcDbEntity
  8
0
100
AcDbMText
 62
2
  6
CONTINUOUS
  7
STANDARD
 71
2
 72
1
 10
6.055
 20
-0.9065
 30
0.0
 11
1.0
 21
0.0
 31
0.0
 44
0.9
  1
Line mount
 40
0.125
 41
2.0
  0
MTEXT
  5
267
100
AcDbEntity
  8
0
100
AcDbMText
 62
2
  6
CONTINUOUS
  7
STANDARD
 71
2
 72
1
 10
1.5275
 20
-1.1565
 30
0.0
 11
1.0
 21
0.0
 31
0.0
 44
0.9
  1
Interface
 40
0.125
 41
1.8
  0
MTEXT
  5
268
100
AcDbEntity
  8
0
100
AcDbMText
 62
2
  6
CONTINUOUS
  7
STANDARD
 71
2
 72
1
 10
6.055
 20
-1.1565
 30
0.0
 11
1.0
 21
0.0
 31
0.0
 44
0.9
  1
None
 40
0.125
 41
0.8
  0
MTEXT
  5
269
100
AcDbEntity
  8
0
100
AcDbMText
 62
2
  6
CONTINUOUS
  7
STANDARD
 71
2
 72
1
 10
1.5275
 20
-1.4065
 30
0.0
 11
1.0
 21
0.0
 31
0.0
 44
0.9
  1
Open Cavity Quantity
 40
0.125
 41
4.0
  0
MTEXT
  5
26A
100
AcDbEntity
  8
0
100
AcDbMText
 62
2
  6
CONTINUOUS
  7
STANDARD
 71
2
 72
1
 10
6.055
 20
-1.4065
 30
0.0
 11
1.0
 21
0.0
 31
0.0
 44
0.9
  1
1
 40
0.125
 41
0.2
  0
MTEXT
  5
26B
100
AcDbEntity
  8
0
100
AcDbMText
 62
2
  6
CONTINUOUS
  7
STANDARD
 71
2
 72
1
 10
1.5275
 20
-1.6565
 30
0.0
 11
1.0
 21
0.0
 31
0.0
 44
0.9
  1
Weight
 40
0.125
 41
1.2
  0
MTEXT
  5
26C
100
AcDbEntity
  8
0
100
AcDbMText
 62
2
  6
CONTINUOUS
  7
STANDARD
 71
2
 72
1
 10
4.555
 20
-1.6565
 30
0.0
 11
1.0
 21
0.0
 31
0.0
 44
0.9
  1
11.280 lb.
 40
0.125
 41
2.0
  0
MTEXT
  5
26D
100
AcDbEntity
  8
0
100
AcDbMText
 62
2
  6
CONTINUOUS
  7
STANDARD
 71
2
 72
1
 10
7.555
 20
-1.6565
 30
0.0
 11
1.0
 21
0.0
 31
0.0
 44
0.9
  1
5,116 kg.
 40
0.125
 41
1.8
  0
MTEXT
  5
26E
100
AcDbEntity
  8
0
100
AcDbMText
 62
2
  6
CONTINUOUS
  7
STANDARD
 71
2
 72
1
 10
1.5275
 20
-1.9065
 30
0.0
 11
1.0
 21
0.0
 31
0.0
 44
0.9
  1
Mounting Hole Diameter
 40
0.125
 41
4.4
  0
MTEXT
  5
26F
100
AcDbEntity
  8
0
100
AcDbMText
 62
2
  6
CONTINUOUS
  7
STANDARD
 71
2
 72
1
 10
4.555
 20
-1.9065
 30
0.0
 11
1.0
 21
0.0
 31
0.0
 44
0.9
  1
.41 in.
 40
0.125
 41
1.4
  0
MTEXT
  5
270
100
AcDbEntity
  8
0
100
AcDbMText
 62
2
  6
CONTINUOUS
  7
STANDARD
 71
2
 72
1
 10
7.555
 20
-1.9065
 30
0.0
 11
1.0
 21
0.0
 31
0.0
 44
0.9
  1
10,4 mm
 40
0.125
 41
1.4
  0
MTEXT
  5
271
100
AcDbEntity
  8
0
100
AcDbMText
 62
2
  6
CONTINUOUS
  7
STANDARD
 71
2
 72
1
 10
1.5275
 20
-2.1565
 30
0.0
 11
1.0
 21
0.0
 31
0.0
 44
0.9
  1
Mounting Hole Depth
 40
0.125
 41
3.8
  0
MTEXT
  5
272
100
AcDbEntity
  8
0
100
AcDbMText
 62
2
  6
CONTINUOUS
  7
STANDARD
 71
2
 72
1
 10
6.055
 20
-2.1565
 30
0.0
 11
1.0
 21
0.0
 31
0.0
 44
0.9
  1
Through
 40
0.125
 41
1.4
  0
MTEXT
  5
273
100
AcDbEntity
  8
0
100
AcDbMText
 62
2
  6
CONTINUOUS
  7
STANDARD
 71
2
 72
1
 10
1.5275
 20
-2.4065
 30
0.0
 11
1.0
 21
0.0
 31
0.0
 44
0.9
  1
Mounting Hole Quantity
 40
0.125
 41
4.4
  0
MTEXT
  5
274
100
AcDbEntity
  8
0
100
AcDbMText
 62
2
  6
CONTINUOUS
  7
STANDARD
 71
2
 72
1
 10
6.055
 20
-2.4065
 30
0.0
 11
1.0
 21
0.0
 31
0.0
 44
0.9
  1
2
 40
0.125
 41
0.2
  0
ENDBLK
  5
275
100
AcDbEntity
  8
0
  6
BYBLOCK
 62
0
100
AcDbBlockEnd
  0
BLOCK
  5
276
100
AcDbEntity
  8
0
100
AcDbBlockBegin
  2
*T3
 70
1
 10
0.0
 20
0.0
  3
*T3
  1

  0
LINE
  5
277
100
AcDbEntity
  8
0
100
AcDbLine
 62
2
  6
CONTINUOUS
 10
0.0
 20
0.0
 11
4.6
 21
0.0
  0
LINE
  5
278
100
AcDbEntity
  8
0
100
AcDbLine
 62
2
  6
CONTINUOUS
 10
0.0
 20
0.0
 11
0.0
 21
-1.43775
  0
LINE
  5
279
100
AcDbEntity
  8
0
100
AcDbLine
 62
2
  6
CONTINUOUS
 10
0.0
 20
-0.34375
 11
4.6
 21
-0.34375
  0
LINE
  5
27A
100
AcDbEntity
  8
0
100
AcDbLine
 62
2
  6
CONTINUOUS
 10
0.0
 20
-0.68775
 11
4.6
 21
-0.68775
  0
LINE
  5
27B
100
AcDbEntity
  8
0
100
AcDbLine
 62
2
  6
CONTINUOUS
 10
0.0
 20
-0.93775
 11
4.6
 21
-0.93775
  0
LINE
  5
27C
100
AcDbEntity
  8
0
100
AcDbLine
 62
2
  6
CONTINUOUS
 10
0.0
 20
-1.18775
 11
4.6
 21
-1.18775
  0
LINE
  5
27D
100
AcDbEntity
  8
0
100
AcDbLine
 62
2
  6
CONTINUOUS
 10
0.0
 20
-1.43775
 11
4.6
 21
-1.43775
  0
LINE
  5
27E
100
AcDbEntity
  8
0
100
AcDbLine
 62
2
  6
CONTINUOUS
 10
1.3
 20
-0.34375
 11
1.3
 21
-1.43775
  0
LINE
  5
27F
100
AcDbEntity
  8
0
100
AcDbLine
 62
2
  6
CONTINUOUS
 10
3.3
 20
-0.34375
 11
3.3
 21
-1.43775
  0
LINE
  5
280
100
AcDbEntity
  8
0
100
AcDbLine
 62
2
  6
CONTINUOUS
 10
4.6
 20
0.0
 11
4.6
 21
-1.43775
  0
MTEXT
  5
281
100
AcDbEntity
  8
0
100
AcDbMText
 62
2
  6
CONTINUOUS
  7
STANDARD
 71
2
 72
1
 10
2.3
 20
-0.099375
 30
0.0
 11
1.0
 21
0.0
 31
0.0
 44
0.9
  1
Port Headings
 40
0.145
 41
3.016
  0
MTEXT
  5
282
100
AcDbEntity
  8
0
100
AcDbMText
 62
2
  6
CONTINUOUS
  7
STANDARD
 71
2
 72
1
 10
0.65
 20
-0.44325
 30
0.0
 11
1.0
 21
0.0
 31
0.0
 44
0.9
  1
Product
 40
0.145
 41
1.624
  0
MTEXT
  5
283
100
AcDbEntity
  8
0
100
AcDbMText
 62
2
  6
CONTINUOUS
  7
STANDARD
 71
2
 72
1
 10
2.3
 20
-0.44325
 30
0.0
 11
1.0
 21
0.0
 31
0.0
 44
0.9
  1
Port
 40
0.145
 41
0.928
  0
MTEXT
  5
284
100
AcDbEntity
  8
0
100
AcDbMText
 62
2
  6
CONTINUOUS
  7
STANDARD
 71
2
 72
1
 10
3.95
 20
-0.44325
 30
0.0
 11
1.0
 21
0.0
 31
0.0
 44
0.9
  1
Size
 40
0.145
 41
0.928
  0
MTEXT
  5
285
100
AcDbEntity
  8
0
100
AcDbMText
 62
2
  6
CONTINUOUS
  7
STANDARD
 71
2
 72
1
 10
0.65
 20
-0.75025
 30
0.0
 11
1.0
 21
0.0
 31
0.0
 44
0.9
  1
K2N
 40
0.125
 41
0.6
  0
MTEXT
  5
286
100
AcDbEntity
  8
0
100
AcDbMText
 62
2
  6
CONTINUOUS
  7
STANDARD
 71
2
 72
1
 10
2.3
 20
-0.75025
 30
0.0
 11
1.0
 21
0.0
 31
0.0
 44
0.9
  1
Ports 1 &  2
 40
0.125
 41
2.4
  0
MTEXT
  5
287
100
AcDbEntity
  8
0
100
AcDbMText
 62
2
  6
CONTINUOUS
  7
STANDARD
 71
2
 72
1
 10
3.95
 20
-0.75025
 30
0.0
 11
1.0
 21
0.0
 31
0.0
 44
0.9
  1
SAE 20
 40
0.125
 41
1.2
  0
MTEXT
  5
288
100
AcDbEntity
  8
0
100
AcDbMText
 62
2
  6
CONTINUOUS
  7
STANDARD
 71
2
 72
1
 10
0.65
 20
-1.00025
 30
0.0
 11
1.0
 21
0.0
 31
0.0
 44
0.9
  1
K2N
 40
0.125
 41
0.6
  0
MTEXT
  5
289
100
AcDbEntity
  8
0
100
AcDbMText
 62
2
  6
CONTINUOUS
  7
STANDARD
 71
2
 72
1
 10
2.3
 20
-1.00025
 30
0.0
 11
1.0
 21
0.0
 31
0.0
 44
0.9
  1
Port 3
 40
0.125
 41
1.2
  0
MTEXT
  5
28A
100
AcDbEntity
  8
0
100
AcDbMText
 62
2
  6
CONTINUOUS
  7
STANDARD
 71
2
 72
1
 10
3.95
 20
-1.00025
 30
0.0
 11
1.0
 21
0.0
 31
0.0
 44
0.9
  1
SAE 6
 40
0.125
 41
1.0
  0
MTEXT
  5
28B
100
AcDbEntity
  8
0
100
AcDbMText
 62
2
  6
CONTINUOUS
  7
STANDARD
 71
2
 72
1
 10
0.65
 20
-1.25025
 30
0.0
 11
1.0
 21
0.0
 31
0.0
 44
0.9
  1
K2N
 40
0.125
 41
0.6
  0
MTEXT
  5
28C
100
AcDbEntity
  8
0
100
AcDbMText
 62
2
  6
CONTINUOUS
  7
STANDARD
 71
2
 72
1
 10
2.3
 20
-1.25025
 30
0.0
 11
1.0
 21
0.0
 31
0.0
 44
0.9
  1
Gage Port
 40
0.125
 41
1.8
  0
MTEXT
  5
28D
100
AcDbEntity
  8
0
100
AcDbMText
 62
2
  6
CONTINUOUS
  7
STANDARD
 71
2
 72
1
 10
3.95
 20
-1.25025
 30
0.0
 11
1.0
 21
0.0
 31
0.0
 44
0.9
  1
1/4" NPTF
 40
0.125
 41
1.8
  0
ENDBLK
  5
28E
100
AcDbEntity
  8
0
  6
BYBLOCK
 62
0
100
AcDbBlockEnd
  0
ENDSEC
  0
SECTION
  2
ENTITIES
  0
IMAGE
  5
28F
100
AcDbEntity
  8
0
100
AcDbRasterImage
 62
7
  6
CONTINUOUS
 10
19.2297077316
 20
0.3094318264
 30
0.0
 11
0.0066666667
 21
0.0
 31
0.0
 12
0.0
 22
0.0066666667
 32
0.0
 13
369.0
 23
92.0
340
       390
 70
9
280
0
281
50
282
50
283
0
360
       38A
 71
1
 91
2
 14
-0.5
 24
-0.5
 14
368.5
 24
91.5
  0
INSERT
  5
290
100
AcDbEntity
  8
0
100
AcDbBlockReference
 62
2
  6
CONTINUOUS
  2
SUN_FIRST_THIRD_ANGLE_BL0
 10
20.4816717061
 20
1.2289683772
  0
ACAD_TABLE
  5
291
100
AcDbEntity
  8
0
 62
2
  6
CONTINUOUS
100
AcDbBlockReference
  2
*T1
 10
12.42375
 20
0.30125
 30
0.0
100
AcDbTable
342
       392
343
20F
 11
1.0
 21
0.0
 31
0.0
 90
6
 91
4
 92
6
 93
20
 94
0
 95
0
 96
0
 70
1
 41
0.0
141
0.525
141
0.1
141
0.525
141
0.1
142
4.1
142
1.1
142
0.7
142
0.5
142
0.4
142
2.475
171
1
172
0
173
0
174
0
175
1
176
1
 91
33
178
0
145
0.0
301
CELL_VALUE
 90
4
  1
T-19A Line mount\P(See Technical Data for Body Features)
304
ACVALUE_END
170
2
140
0.125
171
1
172
0
173
0
174
0
175
1
176
1
 91
33
178
0
145
0.0
301
CELL_VALUE
 90
4
  1
Mar-10-20
304
ACVALUE_END
170
5
140
0.125
171
1
172
0
173
0
174
0
175
1
176
1
 91
33
178
0
145
0.0
301
CELL_VALUE
 90
4
  1
0.900
304
ACVALUE_END
170
5
140
0.125
171
1
172
0
173
0
174
0
175
1
176
1
 91
33
178
0
145
0.0
301
CELL_VALUE
 90
4
  1
C
304
ACVALUE_END
170
5
140
0.125
171
1
172
0
173
0
174
0
175
1
176
1
 91
33
178
0
145
0.0
301
CELL_VALUE
 90
4
  1
2
304
ACVALUE_END
170
5
140
0.125
171
1
172
0
173
0
174
0
175
1
176
1
 91
33
178
0
145
0.0
301
CELL_VALUE
 90
4
  1
 
304
ACVALUE_END
170
1
140
0.125
171
1
172
0
173
0
174
0
175
1
176
1
 91
33
178
0
145
0.0
301
CELL_VALUE
 90
4
  1
DESCRIPTION
304
ACVALUE_END
170
1
140
0.06
171
1
172
0
173
0
174
0
175
1
176
1
 91
33
178
0
145
0.0
301
CELL_VALUE
 90
4
  1
DATE
304
ACVALUE_END
170
1
140
0.06
171
1
172
0
173
0
174
0
175
1
176
1
 91
33
178
0
145
0.0
301
CELL_VALUE
 90
4
  1
SCALE
304
ACVALUE_END
170
1
140
0.06
171
1
172
0
173
0
174
0
175
1
176
1
 91
33
178
0
145
0.0
301
CELL_VALUE
 90
4
  1
DWG SIZE
304
ACVALUE_END
170
1
140
0.06
171
1
172
0
173
0
174
0
175
1
176
1
 91
33
178
0
145
0.0
301
CELL_VALUE
 90
4
  1
SHEET
304
ACVALUE_END
170
1
140
0.06
171
1
172
0
173
0
174
0
175
1
176
1
 91
33
178
0
145
0.0
301
CELL_VALUE
 90
4
  1
 
304
ACVALUE_END
170
1
140
0.125
171
1
172
0
173
0
174
0
175
1
176
1
 91
33
178
0
145
0.0
301
CELL_VALUE
 90
4
  1
K2N
304
ACVALUE_END
170
5
140
0.125
171
1
172
0
173
0
174
0
175
4
176
1
 91
33
178
0
145
0.0
301
CELL_VALUE
 90
4
  1
ALL DIMENSIONS IN INCH\PVIEWS ARE THIRD ANGLE
304
ACVALUE_END
170
5
140
0.12
171
1
172
0
173
1
174
0
175
1
176
1
 91
1
178
0
145
0.0
170
1
171
1
172
0
173
1
174
0
175
1
176
1
 91
1
178
0
145
0.0
170
1
171
1
172
0
173
1
174
0
175
1
176
1
 91
1
178
0
145
0.0
170
5
171
1
172
0
173
0
174
0
175
1
176
1
 91
33
178
0
145
0.0
301
CELL_VALUE
 90
4
  1
 
304
ACVALUE_END
170
1
140
0.125
171
1
172
0
173
0
174
0
175
1
176
1
 91
33
178
0
145
0.0
301
CELL_VALUE
 90
4
  1
MODEL
304
ACVALUE_END
170
1
140
0.06
171
1
172
0
173
0
174
0
175
1
176
1
 91
33
178
0
145
0.0
301
CELL_VALUE
 90
4
  1
 
304
ACVALUE_END
170
1
140
0.125
171
1
172
0
173
0
174
0
175
1
176
1
 91
33
178
0
145
0.0
301
CELL_VALUE
 90
4
  1
 
304
ACVALUE_END
170
1
140
0.125
171
1
172
0
173
0
174
0
175
1
176
1
 91
33
178
0
145
0.0
301
CELL_VALUE
 90
4
  1
 
304
ACVALUE_END
170
1
140
0.125
171
1
172
0
173
0
174
0
175
1
176
1
 91
33
178
0
145
0.0
301
CELL_VALUE
 90
4
  1
 
304
ACVALUE_END
170
1
140
0.125
171
1
172
0
173
0
174
0
175
1
176
1
 91
33
178
0
145
0.0
301
CELL_VALUE
 90
4
  1
 
304
ACVALUE_END
170
1
140
0.125
  0
ACAD_TABLE
  5
292
100
AcDbEntity
  8
0
 62
2
  6
CONTINUOUS
100
AcDbBlockReference
  2
*T2
 10
12.4237499994
 20
16.47875
 30
0.0
100
AcDbTable
342
       391
343
210
 11
1.0
 21
0.0
 31
0.0
 90
22
 91
10
 92
3
 93
16
 94
0
 95
0
 96
0
 41
0.028
141
0.344
141
0.25
141
0.25
141
0.25
141
0.25
141
0.25
141
0.25
141
0.25
141
0.25
141
0.25
142
3.055
142
3.0
142
3.0
171
1
172
0
173
0
174
0
175
1
176
1
 91
33
178
0
145
0.0
301
CELL_VALUE
 90
4
  1
Technical Data
304
ACVALUE_END
170
5
140
0.145
171
1
172
0
173
0
174
0
175
1
176
1
 91
33
178
0
145
0.0
301
CELL_VALUE
 90
4
  1
U.S. Units
304
ACVALUE_END
170
5
140
0.145
171
1
172
0
173
0
174
0
175
1
176
1
 91
33
178
0
145
0.0
301
CELL_VALUE
 90
4
  1
Metric Units
304
ACVALUE_END
170
5
140
0.145
171
1
172
0
173
0
174
0
175
1
176
1
 91
33
178
0
145
0.0
301
CELL_VALUE
 90
4
  1
Cavity
304
ACVALUE_END
170
5
140
0.125
171
1
172
0
173
0
174
0
175
2
176
1
 91
33
178
0
145
0.0
301
CELL_VALUE
 90
4
  1
T-19A
304
ACVALUE_END
170
5
140
0.125
171
1
172
0
173
1
174
0
175
1
176
1
 91
1
178
0
145
0.0
170
1
171
1
172
0
173
0
174
0
175
1
176
1
 91
33
178
0
145
0.0
301
CELL_VALUE
 90
4
  1
Body Features
304
ACVALUE_END
170
5
140
0.125
171
1
172
0
173
0
174
0
175
2
176
1
 91
33
178
0
145
0.0
301
CELL_VALUE
 90
4
  1
Ninety degree with reverse flow check - reducing
304
ACVALUE_END
170
5
140
0.125
171
1
172
0
173
1
174
0
175
1
176
1
 91
1
178
0
145
0.0
170
1
171
1
172
0
173
0
174
0
175
1
176
1
 91
33
178
0
145
0.0
301
CELL_VALUE
 90
4
  1
Body Type
304
ACVALUE_END
170
5
140
0.125
171
1
172
0
173
0
174
0
175
2
176
1
 91
33
178
0
145
0.0
301
CELL_VALUE
 90
4
  1
Line mount
304
ACVALUE_END
170
5
140
0.125
171
1
172
0
173
1
174
0
175
1
176
1
 91
1
178
0
145
0.0
170
1
171
1
172
0
173
0
174
0
175
1
176
1
 91
33
178
0
145
0.0
301
CELL_VALUE
 90
4
  1
Interface
304
ACVALUE_END
170
5
140
0.125
171
1
172
0
173
0
174
0
175
2
176
1
 91
33
178
0
145
0.0
301
CELL_VALUE
 90
4
  1
None
304
ACVALUE_END
170
5
140
0.125
171
1
172
0
173
1
174
0
175
1
176
1
 91
1
178
0
145
0.0
170
1
171
1
172
0
173
0
174
0
175
1
176
1
 91
33
178
0
145
0.0
301
CELL_VALUE
 90
4
  1
Open Cavity Quantity
304
ACVALUE_END
170
5
140
0.125
171
1
172
0
173
0
174
0
175
2
176
1
 91
33
178
0
145
0.0
301
CELL_VALUE
 90
4
  1
1
304
ACVALUE_END
170
5
140
0.125
171
1
172
0
173
1
174
0
175
1
176
1
 91
1
178
0
145
0.0
170
1
171
1
172
0
173
0
174
0
175
1
176
1
 91
33
178
0
145
0.0
301
CELL_VALUE
 90
4
  1
Weight
304
ACVALUE_END
170
5
140
0.125
171
1
172
0
173
0
174
0
175
1
176
1
 91
33
178
0
145
0.0
301
CELL_VALUE
 90
4
  1
11.280 lb.
304
ACVALUE_END
170
5
140
0.125
171
1
172
0
173
0
174
0
175
1
176
1
 91
33
178
0
145
0.0
301
CELL_VALUE
 90
4
  1
5,116 kg.
304
ACVALUE_END
170
5
140
0.125
171
1
172
0
173
0
174
0
175
1
176
1
 91
33
178
0
145
0.0
301
CELL_VALUE
 90
4
  1
Mounting Hole Diameter
304
ACVALUE_END
170
5
140
0.125
171
1
172
0
173
0
174
0
175
1
176
1
 91
33
178
0
145
0.0
301
CELL_VALUE
 90
4
  1
.41 in.
304
ACVALUE_END
170
5
140
0.125
171
1
172
0
173
0
174
0
175
1
176
1
 91
33
178
0
145
0.0
301
CELL_VALUE
 90
4
  1
10,4 mm
304
ACVALUE_END
170
5
140
0.125
171
1
172
0
173
0
174
0
175
1
176
1
 91
33
178
0
145
0.0
301
CELL_VALUE
 90
4
  1
Mounting Hole Depth
304
ACVALUE_END
170
5
140
0.125
171
1
172
0
173
0
174
0
175
2
176
1
 91
33
178
0
145
0.0
301
CELL_VALUE
 90
4
  1
Through
304
ACVALUE_END
170
5
140
0.125
171
1
172
0
173
1
174
0
175
1
176
1
 91
1
178
0
145
0.0
170
1
171
1
172
0
173
0
174
0
175
1
176
1
 91
33
178
0
145
0.0
301
CELL_VALUE
 90
4
  1
Mounting Hole Quantity
304
ACVALUE_END
170
5
140
0.125
171
1
172
0
173
0
174
0
175
2
176
1
 91
33
178
0
145
0.0
301
CELL_VALUE
 90
4
  1
2
304
ACVALUE_END
170
5
140
0.125
171
1
172
0
173
1
174
0
175
1
176
1
 91
1
178
0
145
0.0
170
1
  0
ACAD_TABLE
  5
293
100
AcDbEntity
  8
0
 62
2
  6
CONTINUOUS
100
AcDbBlockReference
  2
*T3
 10
0.52125
 20
1.959
 30
0.0
100
AcDbTable
342
       391
343
211
 11
1.0
 21
0.0
 31
0.0
 90
22
 91
5
 92
3
 93
16
 94
0
 95
0
 96
0
 41
0.05
141
0.34375
141
0.344
141
0.25
141
0.25
141
0.25
142
1.3
142
2.0
142
1.3
171
1
172
0
173
0
174
0
175
3
176
1
 91
33
178
0
145
0.0
301
CELL_VALUE
 90
4
  1
Port Headings
304
ACVALUE_END
170
5
140
0.145
171
1
172
0
173
1
174
0
175
1
176
1
 91
1
178
0
145
0.0
170
1
171
1
172
0
173
1
174
0
175
1
176
1
 91
1
178
0
145
0.0
170
1
171
1
172
0
173
0
174
0
175
1
176
1
 91
33
178
0
145
0.0
301
CELL_VALUE
 90
4
  1
Product
304
ACVALUE_END
170
5
140
0.145
171
1
172
0
173
0
174
0
175
1
176
1
 91
33
178
0
145
0.0
301
CELL_VALUE
 90
4
  1
Port
304
ACVALUE_END
170
5
140
0.145
171
1
172
0
173
0
174
0
175
1
176
1
 91
33
178
0
145
0.0
301
CELL_VALUE
 90
4
  1
Size
304
ACVALUE_END
170
5
140
0.145
171
1
172
0
173
0
174
0
175
1
176
1
 91
33
178
0
145
0.0
301
CELL_VALUE
 90
4
  1
K2N
304
ACVALUE_END
170
5
140
0.125
171
1
172
0
173
0
174
0
175
1
176
1
 91
33
178
0
145
0.0
301
CELL_VALUE
 90
4
  1
Ports 1 &  2
304
ACVALUE_END
170
5
140
0.125
171
1
172
0
173
0
174
0
175
1
176
1
 91
33
178
0
145
0.0
301
CELL_VALUE
 90
4
  1
SAE 20
304
ACVALUE_END
170
5
140
0.125
171
1
172
0
173
0
174
0
175
1
176
1
 91
33
178
0
145
0.0
301
CELL_VALUE
 90
4
  1
K2N
304
ACVALUE_END
170
5
140
0.125
171
1
172
0
173
0
174
0
175
1
176
1
 91
33
178
0
145
0.0
301
CELL_VALUE
 90
4
  1
Port 3
304
ACVALUE_END
170
5
140
0.125
171
1
172
0
173
0
174
0
175
1
176
1
 91
33
178
0
145
0.0
301
CELL_VALUE
 90
4
  1
SAE 6
304
ACVALUE_END
170
5
140
0.125
171
1
172
0
173
0
174
0
175
1
176
1
 91
33
178
0
145
0.0
301
CELL_VALUE
 90
4
  1
K2N
304
ACVALUE_END
170
5
140
0.125
171
1
172
0
173
0
174
0
175
1
176
1
 91
33
178
0
145
0.0
301
CELL_VALUE
 90
4
  1
Gage Port
304
ACVALUE_END
170
5
140
0.125
171
1
172
0
173
0
174
0
175
1
176
1
 91
33
178
0
145
0.0
301
CELL_VALUE
 90
4
  1
1/4" NPTF
304
ACVALUE_END
170
5
140
0.125
  0
MTEXT
  5
294
100
AcDbEntity
  8
0
100
AcDbMText
 62
2
  6
CONTINUOUS
  7
STANDARD
 71
1
 72
1
 10
0.52125
 20
5.75995
 30
0.0
 11
1.0
 21
0.0
 31
0.0
 44
0.6
  3
Notes\P \P1. Important: Carefully consider\P   the maximum system pressure. The\P   pressure rating of the manifold is\P   dependent on the manifold material,\P   with the port type/size a secondary\P   consideration. Manifolds\P   constructed of alu
  1
minum are not\P   rated for pressures higher than\P   3000 psi (210 bar), regardless of\P   the port type/size specified.
 40
0.1
 41
3.04
  0
LINE
  5
295
100
AcDbEntity
  8
0
100
AcDbLine
 62
7
  6
CONTINUOUS
 10
0.30125
 20
0.30125
 11
0.30125
 21
16.69875
  0
LINE
  5
296
100
AcDbEntity
  8
0
100
AcDbLine
 62
7
  6
CONTINUOUS
 10
0.30125
 20
0.30125
 11
21.69875
 21
0.30125
  0
LINE
  5
297
100
AcDbEntity
  8
0
100
AcDbLine
 62
7
  6
CONTINUOUS
 10
0.30125
 20
16.69875
 11
21.69875
 21
16.69875
  0
LINE
  5
298
100
AcDbEntity
  8
0
100
AcDbLine
 62
7
  6
CONTINUOUS
 10
21.69875
 20
0.30125
 11
21.69875
 21
16.69875
  0
LINE
  5
299
100
AcDbEntity
  8
0
100
AcDbLine
 62
7
  6
CONTINUOUS
 10
8.741405537
 20
12.4299897698
 11
8.042594692
 21
11.7549902868
  0
LINE
  5
29A
100
AcDbEntity
  8
0
100
AcDbLine
 62
4
  6
CONTINUOUS
 10
8.2208080159
 20
11.1688709913
 11
8.2121146832
 21
11.1578827684
  0
LINE
  5
29B
100
AcDbEntity
  8
0
100
AcDbLine
 62
4
  6
CONTINUOUS
 10
8.2295013487
 20
11.0987214446
 11
8.2121146832
 21
11.0767449936
  0
LINE
  5
29C
100
AcDbEntity
  8
0
100
AcDbLine
 62
4
  6
CONTINUOUS
 10
8.1599546866
 20
11.1962734075
 11
8.1773413521
 21
11.2066587457
  0
LINE
  5
29D
100
AcDbEntity
  8
0
100
AcDbLine
 62
4
  6
CONTINUOUS
 10
8.2121146832
 20
11.1578827684
 11
8.1947280176
 21
11.1474974219
  0
LINE
  5
29E
100
AcDbEntity
  8
0
100
AcDbLine
 62
4
  6
CONTINUOUS
 10
8.2121146832
 20
11.0767449936
 11
8.1947280176
 21
11.0663596522
  0
LINE
  5
29F
100
AcDbEntity
  8
0
100
AcDbLine
 62
7
  6
CONTINUOUS
 10
8.042594692
 20
5.6696572207
 11
8.042594692
 21
11.7549902868
  0
LINE
  5
2A0
100
AcDbEntity
  8
0
100
AcDbLine
 62
7
  6
CONTINUOUS
 10
8.042594692
 20
5.6696572207
 11
13.258594463
 21
5.3079264079
  0
LINE
  5
2A1
100
AcDbEntity
  8
0
100
AcDbLine
 62
7
  6
CONTINUOUS
 10
11.6397042185
 20
4.6809670458
 11
11.6606563448
 21
4.6706170966
  0
LINE
  5
2A2
100
AcDbEntity
  8
0
100
AcDbLine
 62
4
  6
CONTINUOUS
 10
8.2208080159
 20
11.1804620989
 11
8.2208080159
 21
11.1688709913
  0
LINE
  5
2A3
100
AcDbEntity
  8
0
100
AcDbLine
 62
4
  6
CONTINUOUS
 10
8.2208080159
 20
7.4307379995
 11
8.2208080159
 21
7.2916446754
  0
LINE
  5
2A4
100
AcDbEntity
  8
0
100
AcDbLine
 62
4
  6
CONTINUOUS
 10
8.2295013487
 20
11.1103125563
 11
8.2295013487
 21
11.0987214446
  0
LINE
  5
2A5
100
AcDbEntity
  8
0
100
AcDbLine
 62
4
  6
CONTINUOUS
 10
9.7825032154
 20
9.9453368189
 11
9.8023736912
 21
9.9638292705
  0
LINE
  5
2A6
100
AcDbEntity
  8
0
100
AcDbLine
 62
4
  6
CONTINUOUS
 10
9.8321794038
 20
9.8226689131
 11
9.8520498775
 21
9.8411613669
  0
LINE
  5
2A7
100
AcDbEntity
  8
0
100
AcDbLine
 62
4
  6
CONTINUOUS
 10
9.9414670215
 20
9.8150897911
 11
9.9613374869
 21
9.8335822454
  0
LINE
  5
2A8
100
AcDbEntity
  8
0
100
AcDbLine
 62
4
  6
CONTINUOUS
 10
10.4051114408
 20
9.8723530772
 11
10.4249819062
 21
9.8809102967
  0
LINE
  5
2A9
100
AcDbEntity
  8
0
100
AcDbLine
 62
4
  6
CONTINUOUS
 10
10.5938809616
 20
9.8095856822
 11
10.613751427
 21
9.8181428976
  0
LINE
  5
2AA
100
AcDbEntity
  8
0
100
AcDbLine
 62
4
  6
CONTINUOUS
 10
10.1724613471
 20
7.4866437052
 11
10.1550746815
 21
7.4994405853
  0
LINE
  5
2AB
100
AcDbEntity
  8
0
100
AcDbLine
 62
4
  6
CONTINUOUS
 10
10.1550746815
 20
7.4994405853
 11
10.137688016
 21
7.523828575
  0
LINE
  5
2AC
100
AcDbEntity
  8
0
100
AcDbLine
 62
4
  6
CONTINUOUS
 10
9.7825032154
 20
9.9254663453
 11
9.7825032154
 21
9.9453368189
  0
LINE
  5
2AD
100
AcDbEntity
  8
0
100
AcDbLine
 62
4
  6
CONTINUOUS
 10
9.8520498775
 20
9.8411613669
 11
9.8520498775
 21
9.8610318426
  0
LINE
  5
2AE
100
AcDbEntity
  8
0
100
AcDbLine
 62
4
  6
CONTINUOUS
 10
9.8917908249
 20
9.9576281712
 11
9.8917908249
 21
9.8384053228
  0
LINE
  5
2AF
100
AcDbEntity
  8
0
100
AcDbLine
 62
4
  6
CONTINUOUS
 10
9.9348436065
 20
9.1061731735
 11
9.9348436065
 21
9.2452664976
  0
LINE
  5
2B0
100
AcDbEntity
  8
0
100
AcDbLine
 62
4
  6
CONTINUOUS
 10
9.9613374869
 20
9.8335822454
 11
9.9613374869
 21
9.9528050938
  0
LINE
  5
2B1
100
AcDbEntity
  8
0
100
AcDbLine
 62
4
  6
CONTINUOUS
 10
10.0010784343
 20
9.8109557256
 11
10.0010784343
 21
9.9500490497
  0
LINE
  5
2B2
100
AcDbEntity
  8
0
100
AcDbLine
 62
4
  6
CONTINUOUS
 10
10.0043902603
 20
9.2205729471
 11
10.0043902603
 21
9.1212205724
  0
LINE
  5
2B3
100
AcDbEntity
  8
0
100
AcDbLine
 62
4
  6
CONTINUOUS
 10
10.0606899399
 20
9.0974457006
 11
10.1004308873
 21
9.2337829807
  0
LINE
  5
2B4
100
AcDbEntity
  8
0
100
AcDbLine
 62
4
  6
CONTINUOUS
 10
10.3388765119
 20
9.7544118911
 11
10.3786174427
 21
9.8841256832
  0
LINE
  5
2B5
100
AcDbEntity
  8
0
100
AcDbLine
 62
4
  6
CONTINUOUS
 10
10.4183584097
 20
9.5177399452
 11
10.398487936
 21
9.4893122525
  0
LINE
  5
2B6
100
AcDbEntity
  8
0
100
AcDbLine
 62
4
  6
CONTINUOUS
 10
10.398487936
 20
9.3800246431
 11
10.4680345981
 21
9.4745539424
  0
LINE
  5
2B7
100
AcDbEntity
  8
0
100
AcDbLine
 62
4
  6
CONTINUOUS
 10
10.2892003266
 20
9.4339682073
 11
10.3587469886
 21
9.5218740113
  0
LINE
  5
2B8
100
AcDbEntity
  8
0
100
AcDbLine
 62
4
  6
CONTINUOUS
 10
10.0043902603
 20
9.1212205724
 11
9.9845197866
 21
9.1027281187
  0
LINE
  5
2B9
100
AcDbEntity
  8
0
100
AcDbLine
 62
4
  6
CONTINUOUS
 10
10.9349907392
 20
9.835605823
 11
10.9449259387
 21
9.8448520556
  0
LINE
  5
2BA
100
AcDbEntity
  8
0
100
AcDbLine
 62
4
  6
CONTINUOUS
 10
11.024407933
 20
9.8294047196
 11
11.0343431325
 21
9.8386509521
  0
LINE
  5
2BB
100
AcDbEntity
  8
0
100
AcDbLine
 62
4
  6
CONTINUOUS
 10
9.9083496375
 20
9.1941159308
 11
9.8553617035
 21
9.1712966874
  0
LINE
  5
2BC
100
AcDbEntity
  8
0
100
AcDbLine
 62
4
  6
CONTINUOUS
 10
10.1898480126
 20
7.4854379359
 11
10.1724613471
 21
7.4866437052
  0
LINE
  5
2BD
100
AcDbEntity
  8
0
100
AcDbLine
 62
4
  6
CONTINUOUS
 10
10.1811546798
 20
7.5555874826
 11
10.2159280108
 21
7.5531759439
  0
LINE
  5
2BE
100
AcDbEntity
  8
0
100
AcDbLine
 62
4
  6
CONTINUOUS
 10
10.1898480126
 20
7.62453126
 11
10.2072346781
 21
7.6117343831
  0
LINE
  5
2BF
100
AcDbEntity
  8
0
100
AcDbLine
 62
4
  6
CONTINUOUS
 10
10.2072346781
 20
7.6117343831
 11
10.2159280108
 21
7.5995403825
  0
LINE
  5
2C0
100
AcDbEntity
  8
0
100
AcDbLine
 62
4
  6
CONTINUOUS
 10
10.137688016
 20
7.523828575
 11
10.1289946833
 21
7.5592047907
  0
LINE
  5
2C1
100
AcDbEntity
  8
0
100
AcDbLine
 62
4
  6
CONTINUOUS
 10
10.0706250964
 20
9.8061326482
 11
10.0706250964
 21
9.9452259723
  0
LINE
  5
2C2
100
AcDbEntity
  8
0
100
AcDbLine
 62
4
  6
CONTINUOUS
 10
10.2159280108
 20
7.5531759439
 11
10.2159280108
 21
7.5068115032
  0
LINE
  5
2C3
100
AcDbEntity
  8
0
100
AcDbLine
 62
4
  6
CONTINUOUS
 10
10.2196536532
 20
9.7957974827
 11
10.2196536532
 21
9.9348908068
  0
LINE
  5
2C4
100
AcDbEntity
  8
0
100
AcDbLine
 62
4
  6
CONTINUOUS
 10
10.219653746
 20
9.0864215232
 11
10.219653746
 21
9.2255148474
  0
LINE
  5
2C5
100
AcDbEntity
  8
0
100
AcDbLine
 62
4
  6
CONTINUOUS
 10
10.2792650825
 20
9.8810805518
 11
10.2792650825
 21
9.791663416
  0
LINE
  5
2C6
100
AcDbEntity
  8
0
100
AcDbLine
 62
4
  6
CONTINUOUS
 10
10.2892003266
 20
9.3876037646
 11
10.2892003266
 21
9.5266970887
  0
LINE
  5
2C7
100
AcDbEntity
  8
0
100
AcDbLine
 62
4
  6
CONTINUOUS
 10
10.2991356408
 20
9.0809094351
 11
10.2991356408
 21
9.2200027592
  0
LINE
  5
2C8
100
AcDbEntity
  8
0
100
AcDbLine
 62
4
  6
CONTINUOUS
 10
10.1289946833
 20
7.5592047907
 11
10.137688016
 21
7.593375237
  0
LINE
  5
2C9
100
AcDbEntity
  8
0
100
AcDbLine
 62
4
  6
CONTINUOUS
 10
11.0740840633
 20
9.7365425325
 11
11.0840192628
 21
9.7457887619
  0
LINE
  5
2CA
100
AcDbEntity
  8
0
100
AcDbLine
 62
4
  6
CONTINUOUS
 10
10.5077756601
 20
9.1856630511
 11
10.5276461255
 21
9.2041555033
  0
LINE
  5
2CB
100
AcDbEntity
  8
0
100
AcDbLine
 62
4
  6
CONTINUOUS
 10
10.6236867193
 20
9.1776245918
 11
10.6435571847
 21
9.196117044
  0
LINE
  5
2CC
100
AcDbEntity
  8
0
100
AcDbLine
 62
4
  6
CONTINUOUS
 10
10.6932333814
 20
9.0734491397
 11
10.673362916
 21
9.0549566854
  0
LINE
  5
2CD
100
AcDbEntity
  8
0
100
AcDbLine
 62
4
  6
CONTINUOUS
 10
10.1724613471
 20
7.6257370294
 11
10.1898480126
 21
7.62453126
  0
LINE
  5
2CE
100
AcDbEntity
  8
0
100
AcDbLine
 62
4
  6
CONTINUOUS
 10
8.1599546866
 20
11.0803623016
 11
8.1512613539
 21
11.092556297
  0
LINE
  5
2CF
100
AcDbEntity
  8
0
100
AcDbLine
 62
4
  6
CONTINUOUS
 10
8.2121146832
 20
11.134700545
 11
8.2295013487
 21
11.1103125563
  0
LINE
  5
2D0
100
AcDbEntity
  8
0
100
AcDbLine
 62
4
  6
CONTINUOUS
 10
8.2121146832
 20
11.1926560994
 11
8.2208080159
 21
11.1804620989
  0
LINE
  5
2D1
100
AcDbEntity
  8
0
100
AcDbLine
 62
4
  6
CONTINUOUS
 10
10.1004308873
 20
9.2337829807
 11
10.1401718513
 21
9.0919336114
  0
LINE
  5
2D2
100
AcDbEntity
  8
0
100
AcDbLine
 62
4
  6
CONTINUOUS
 10
10.4051114408
 20
9.7928711793
 11
10.4051114408
 21
9.8723530772
  0
LINE
  5
2D3
100
AcDbEntity
  8
0
100
AcDbLine
 62
4
  6
CONTINUOUS
 10
10.464722837
 20
9.9178952012
 11
10.464722837
 21
9.7788018771
  0
LINE
  5
2D4
100
AcDbEntity
  8
0
100
AcDbLine
 62
4
  6
CONTINUOUS
 10
10.4680345981
 20
9.4745539424
 11
10.4680345981
 21
9.4944244161
  0
LINE
  5
2D5
100
AcDbEntity
  8
0
100
AcDbLine
 62
4
  6
CONTINUOUS
 10
10.5044638341
 20
9.7760458296
 11
10.5044638341
 21
9.8753982063
  0
LINE
  5
2D6
100
AcDbEntity
  8
0
100
AcDbLine
 62
4
  6
CONTINUOUS
 10
10.5077755454
 20
9.3724455216
 11
10.5077755454
 21
9.5115388458
  0
LINE
  5
2D7
100
AcDbEntity
  8
0
100
AcDbLine
 62
4
  6
CONTINUOUS
 10
10.5077756601
 20
9.0863106764
 11
10.5077756601
 21
9.1856630511
  0
LINE
  5
2D8
100
AcDbEntity
  8
0
100
AcDbLine
 62
4
  6
CONTINUOUS
 10
10.5508282313
 20
9.8622475834
 11
10.5508282313
 21
9.8423771097
  0
LINE
  5
2D9
100
AcDbEntity
  8
0
100
AcDbLine
 62
4
  6
CONTINUOUS
 10
10.5773222075
 20
9.3676224443
 11
10.5773222075
 21
9.5067157684
  0
LINE
  5
2DA
100
AcDbEntity
  8
0
100
AcDbLine
 62
4
  6
CONTINUOUS
 10
10.5938809616
 20
9.7797799686
 11
10.5938809616
 21
9.8095856822
  0
LINE
  5
2DB
100
AcDbEntity
  8
0
100
AcDbLine
 62
4
  6
CONTINUOUS
 10
10.6236867193
 20
9.0782722171
 11
10.6236867193
 21
9.1776245918
  0
LINE
  5
2DC
100
AcDbEntity
  8
0
100
AcDbLine
 62
4
  6
CONTINUOUS
 10
10.6534923578
 20
9.7657106663
 11
10.6534923578
 21
9.8451925694
  0
LINE
  5
2DD
100
AcDbEntity
  8
0
100
AcDbLine
 62
4
  6
CONTINUOUS
 10
10.6932332886
 20
9.8623070002
 11
10.6932332886
 21
9.7728898613
  0
LINE
  5
2DE
100
AcDbEntity
  8
0
100
AcDbLine
 62
4
  6
CONTINUOUS
 10
10.6932333814
 20
9.1728015144
 11
10.6932333814
 21
9.0734491397
  0
LINE
  5
2DF
100
AcDbEntity
  8
0
100
AcDbLine
 62
4
  6
CONTINUOUS
 10
10.8853145425
 20
9.8887270673
 11
10.8820028093
 21
9.8790214958
  0
LINE
  5
2E0
100
AcDbEntity
  8
0
100
AcDbLine
 62
7
  6
CONTINUOUS
 10
13.258594463
 20
11.3932594741
 11
13.957405308
 21
12.068258957
  0
LINE
  5
2E1
100
AcDbEntity
  8
0
100
AcDbLine
 62
4
  6
CONTINUOUS
 10
10.8025209742
 20
9.0658700194
 11
10.7826505088
 21
9.0473775651
  0
LINE
  5
2E2
100
AcDbEntity
  8
0
100
AcDbLine
 62
4
  6
CONTINUOUS
 10
11.0111609604
 20
9.0911417367
 11
10.9581730306
 21
9.0683224951
  0
LINE
  5
2E3
100
AcDbEntity
  8
0
100
AcDbLine
 62
4
  6
CONTINUOUS
 10
10.7329743122
 20
9.0508226211
 11
10.7329743122
 21
9.1899159452
  0
LINE
  5
2E4
100
AcDbEntity
  8
0
100
AcDbLine
 62
4
  6
CONTINUOUS
 10
10.7528447511
 20
9.7588205545
 11
10.7528447511
 21
9.8581729312
  0
LINE
  5
2E5
100
AcDbEntity
  8
0
100
AcDbLine
 62
4
  6
CONTINUOUS
 10
10.7925856819
 20
9.7659997494
 11
10.7925856819
 21
9.8951578357
  0
LINE
  5
2E6
100
AcDbEntity
  8
0
100
AcDbLine
 62
4
  6
CONTINUOUS
 10
10.8025209742
 20
9.1652223941
 11
10.8025209742
 21
9.0658700194
  0
LINE
  5
2E7
100
AcDbEntity
  8
0
100
AcDbLine
 62
4
  6
CONTINUOUS
 10
10.8588207036
 20
9.0420951442
 11
10.8588207036
 21
9.1811884683
  0
LINE
  5
2E8
100
AcDbEntity
  8
0
100
AcDbLine
 62
4
  6
CONTINUOUS
 10
10.8820028093
 20
9.7498634127
 11
10.8820028093
 21
9.8492157894
  0
LINE
  5
2E9
100
AcDbEntity
  8
0
100
AcDbLine
 62
4
  6
CONTINUOUS
 10
10.8820028093
 20
9.8790214958
 11
10.8820028093
 21
9.8889567368
  0
LINE
  5
2EA
100
AcDbEntity
  8
0
100
AcDbLine
 62
4
  6
CONTINUOUS
 10
10.9349907392
 20
9.7561239252
 11
10.9349907392
 21
9.835605823
  0
LINE
  5
2EB
100
AcDbEntity
  8
0
100
AcDbLine
 62
4
  6
CONTINUOUS
 10
11.024407933
 20
9.799599009
 11
11.024407933
 21
9.8294047196
  0
LINE
  5
2EC
100
AcDbEntity
  8
0
100
AcDbLine
 62
4
  6
CONTINUOUS
 10
10.137688016
 20
7.593375237
 11
10.1550746815
 21
7.6153516911
  0
LINE
  5
2ED
100
AcDbEntity
  8
0
100
AcDbLine
 62
4
  6
CONTINUOUS
 10
10.2159280108
 20
7.5068115032
 11
10.2072346781
 21
7.4958232772
  0
LINE
  5
2EE
100
AcDbEntity
  8
0
100
AcDbLine
 62
4
  6
CONTINUOUS
 10
9.8553617035
 20
9.1712966874
 11
9.9083496375
 21
9.1411279947
  0
LINE
  5
2EF
100
AcDbEntity
  8
0
100
AcDbLine
 62
4
  6
CONTINUOUS
 10
9.9845197866
 20
9.2418214428
 11
10.0043902603
 21
9.2205729471
  0
LINE
  5
2F0
100
AcDbEntity
  8
0
100
AcDbLine
 62
4
  6
CONTINUOUS
 10
9.7825032154
 20
9.8360492064
 11
9.7924384533
 21
9.8254249574
  0
LINE
  5
2F1
100
AcDbEntity
  8
0
100
AcDbLine
 62
4
  6
CONTINUOUS
 10
10.5276461255
 20
9.0650621792
 11
10.5077756601
 21
9.0863106764
  0
LINE
  5
2F2
100
AcDbEntity
  8
0
100
AcDbLine
 62
4
  6
CONTINUOUS
 10
10.0010784343
 20
9.9500490497
 11
10.0706250964
 21
9.8061326482
  0
LINE
  5
2F3
100
AcDbEntity
  8
0
100
AcDbLine
 62
4
  6
CONTINUOUS
 10
10.3190060392
 20
9.4650186344
 11
10.3587469886
 21
9.3827806872
  0
LINE
  5
2F4
100
AcDbEntity
  8
0
100
AcDbLine
 62
4
  6
CONTINUOUS
 10
10.5077755454
 20
9.5115388458
 11
10.5773222075
 21
9.3676224443
  0
LINE
  5
2F5
100
AcDbEntity
  8
0
100
AcDbLine
 62
4
  6
CONTINUOUS
 10
10.3190060465
 20
9.8882597475
 11
10.3488117778
 21
9.7868403363
  0
LINE
  5
2F6
100
AcDbEntity
  8
0
100
AcDbLine
 62
4
  6
CONTINUOUS
 10
11.0840192628
 20
9.7457887619
 11
11.0840192628
 21
9.7755944756
  0
LINE
  5
2F7
100
AcDbEntity
  8
0
100
AcDbLine
 62
4
  6
CONTINUOUS
 10
10.1550746815
 20
7.6153516911
 11
10.1724613471
 21
7.6257370294
  0
LINE
  5
2F8
100
AcDbEntity
  8
0
100
AcDbLine
 62
4
  6
CONTINUOUS
 10
9.8520498775
 20
9.8610318426
 11
9.7825032154
 21
9.9254663453
  0
LINE
  5
2F9
100
AcDbEntity
  8
0
100
AcDbLine
 62
4
  6
CONTINUOUS
 10
9.8917908249
 20
9.8384053228
 11
9.9116612986
 21
9.817156825
  0
LINE
  5
2FA
100
AcDbEntity
  8
0
100
AcDbLine
 62
4
  6
CONTINUOUS
 10
10.6435571847
 20
9.0570237199
 11
10.6236867193
 21
9.0782722171
  0
LINE
  5
2FB
100
AcDbEntity
  8
0
100
AcDbLine
 62
4
  6
CONTINUOUS
 10
9.8421146406
 20
9.9610732262
 11
9.8520498775
 21
9.9504489742
  0
LINE
  5
2FC
100
AcDbEntity
  8
0
100
AcDbLine
 62
4
  6
CONTINUOUS
 10
10.673362916
 20
9.1940500096
 11
10.6932333814
 21
9.1728015144
  0
LINE
  5
2FD
100
AcDbEntity
  8
0
100
AcDbLine
 62
4
  6
CONTINUOUS
 10
10.4680345981
 20
9.4944244161
 11
10.4481641327
 21
9.5156729113
  0
LINE
  5
2FE
100
AcDbEntity
  8
0
100
AcDbLine
 62
4
  6
CONTINUOUS
 10
10.7826505088
 20
9.1864708892
 11
10.8025209742
 21
9.1652223941
  0
LINE
  5
2FF
100
AcDbEntity
  8
0
100
AcDbLine
 62
4
  6
CONTINUOUS
 10
10.5442047649
 20
9.8726421634
 11
10.5508282313
 21
9.8622475834
  0
LINE
  5
300
100
AcDbEntity
  8
0
100
AcDbLine
 62
4
  6
CONTINUOUS
 10
10.6534923578
 20
9.8451925694
 11
10.6435571582
 21
9.8657520515
  0
LINE
  5
301
100
AcDbEntity
  8
0
100
AcDbLine
 62
7
  6
CONTINUOUS
 10
11.4956569197
 20
5.4301865418
 11
11.4956569197
 21
4.8656251777
  0
LINE
  5
302
100
AcDbEntity
  8
0
100
AcDbLine
 62
7
  6
CONTINUOUS
 10
11.6996677764
 20
5.4160383408
 11
11.6996677764
 21
4.6685661593
  0
LINE
  5
303
100
AcDbEntity
  8
0
100
AcDbLine
 62
4
  6
CONTINUOUS
 10
13.0499544719
 20
9.283657556
 11
13.0673411375
 21
9.2940428943
  0
LINE
  5
304
100
AcDbEntity
  8
0
100
AcDbLine
 62
4
  6
CONTINUOUS
 10
13.1021144685
 20
9.2336758011
 11
13.0673411375
 21
9.2129051205
  0
LINE
  5
305
100
AcDbEntity
  8
0
100
AcDbLine
 62
4
  6
CONTINUOUS
 10
10.2072346781
 20
7.4958232772
 11
10.1898480126
 21
7.4854379359
  0
LINE
  5
306
100
AcDbEntity
  8
0
100
AcDbLine
 62
4
  6
CONTINUOUS
 10
10.7826505088
 20
9.0473775651
 11
10.7329743122
 21
9.0508226211
  0
LINE
  5
307
100
AcDbEntity
  8
0
100
AcDbLine
 62
4
  6
CONTINUOUS
 10
10.673362916
 20
9.0549566854
 11
10.6435571847
 21
9.0570237199
  0
LINE
  5
308
100
AcDbEntity
  8
0
100
AcDbLine
 62
4
  6
CONTINUOUS
 10
10.5673870563
 20
9.0623061363
 11
10.5276461255
 21
9.0650621792
  0
LINE
  5
309
100
AcDbEntity
  8
0
100
AcDbLine
 62
4
  6
CONTINUOUS
 10
9.9845197866
 20
9.1027281187
 11
9.9348436065
 21
9.1061731735
  0
LINE
  5
30A
100
AcDbEntity
  8
0
100
AcDbLine
 62
4
  6
CONTINUOUS
 10
10.2991356408
 20
9.0809094351
 11
10.3587470701
 21
9.0767753685
  0
LINE
  5
30B
100
AcDbEntity
  8
0
100
AcDbLine
 62
4
  6
CONTINUOUS
 10
10.8588207036
 20
9.0420951442
 11
10.9184320998
 21
9.0379610798
  0
LINE
  5
30C
100
AcDbEntity
  8
0
100
AcDbLine
 62
4
  6
CONTINUOUS
 10
10.0739369224
 20
9.1362679708
 11
10.1269248522
 21
9.1325932454
  0
LINE
  5
30D
100
AcDbEntity
  8
0
100
AcDbLine
 62
4
  6
CONTINUOUS
 10
10.8985616344
 20
9.1188210043
 11
10.8588207036
 21
9.1215770472
  0
LINE
  5
30E
100
AcDbEntity
  8
0
100
AcDbLine
 62
4
  6
CONTINUOUS
 10
10.3388766047
 20
9.157635293
 11
10.2991356408
 21
9.1603913382
  0
LINE
  5
30F
100
AcDbEntity
  8
0
100
AcDbLine
 62
4
  6
CONTINUOUS
 10
9.9348436065
 20
9.2452664976
 11
9.9845197866
 21
9.2418214428
  0
LINE
  5
310
100
AcDbEntity
  8
0
100
AcDbLine
 62
4
  6
CONTINUOUS
 10
10.179912782
 20
9.2282708926
 11
10.2593946768
 21
9.2227588045
  0
LINE
  5
311
100
AcDbEntity
  8
0
100
AcDbLine
 62
4
  6
CONTINUOUS
 10
10.2991356408
 20
9.2200027592
 11
10.3587470701
 21
9.2158686926
  0
LINE
  5
312
100
AcDbEntity
  8
0
100
AcDbLine
 62
4
  6
CONTINUOUS
 10
10.5276461255
 20
9.2041555033
 11
10.5673870563
 21
9.2013994604
  0
LINE
  5
313
100
AcDbEntity
  8
0
100
AcDbLine
 62
4
  6
CONTINUOUS
 10
10.6435571847
 20
9.196117044
 11
10.673362916
 21
9.1940500096
  0
LINE
  5
314
100
AcDbEntity
  8
0
100
AcDbLine
 62
4
  6
CONTINUOUS
 10
10.7329743122
 20
9.1899159452
 11
10.7826505088
 21
9.1864708892
  0
LINE
  5
315
100
AcDbEntity
  8
0
100
AcDbLine
 62
4
  6
CONTINUOUS
 10
10.8588207036
 20
9.1811884683
 11
10.9184320998
 21
9.1770544039
  0
LINE
  5
316
100
AcDbEntity
  8
0
100
AcDbLine
 62
4
  6
CONTINUOUS
 10
10.9581730306
 20
9.1213104312
 11
11.0111609604
 21
9.0911417367
  0
LINE
  5
317
100
AcDbEntity
  8
0
100
AcDbLine
 62
4
  6
CONTINUOUS
 10
8.1773413521
 20
11.0675654216
 11
8.1599546866
 21
11.0803623016
  0
LINE
  5
318
100
AcDbEntity
  8
0
100
AcDbLine
 62
4
  6
CONTINUOUS
 10
8.1947280176
 20
11.1474974219
 11
8.2121146832
 21
11.134700545
  0
LINE
  5
319
100
AcDbEntity
  8
0
100
AcDbLine
 62
4
  6
CONTINUOUS
 10
8.1947280176
 20
11.2054529764
 11
8.2121146832
 21
11.1926560994
  0
LINE
  5
31A
100
AcDbEntity
  8
0
100
AcDbLine
 62
4
  6
CONTINUOUS
 10
10.2693298498
 20
9.8917048035
 11
10.2792650825
 21
9.8810805518
  0
LINE
  5
31B
100
AcDbEntity
  8
0
100
AcDbLine
 62
4
  6
CONTINUOUS
 10
10.6932332886
 20
9.7728898613
 11
10.7031685544
 21
9.7622656104
  0
LINE
  5
31C
100
AcDbEntity
  8
0
100
AcDbLine
 62
7
  6
CONTINUOUS
 10
11.73404835
 20
5.41365404
 11
11.73404835
 21
4.6596678233
  0
LINE
  5
31D
100
AcDbEntity
  8
0
100
AcDbLine
 62
4
  6
CONTINUOUS
 10
13.0412611392
 20
9.1567582242
 11
13.1108078012
 21
9.1519351468
  0
LINE
  5
31E
100
AcDbEntity
  8
0
100
AcDbLine
 62
4
  6
CONTINUOUS
 10
10.4680345981
 20
9.3752015657
 11
10.398487936
 21
9.3800246431
  0
LINE
  5
31F
100
AcDbEntity
  8
0
100
AcDbLine
 62
4
  6
CONTINUOUS
 10
13.0673411375
 20
9.2940428943
 11
13.084727803
 21
9.2928371249
  0
LINE
  5
320
100
AcDbEntity
  8
0
100
AcDbLine
 62
4
  6
CONTINUOUS
 10
10.4481641327
 20
9.5156729113
 11
10.4183584097
 21
9.5177399452
  0
LINE
  5
321
100
AcDbEntity
  8
0
100
AcDbLine
 62
4
  6
CONTINUOUS
 10
10.4249819062
 20
9.78155792
 11
10.4051114408
 21
9.7928711793
  0
LINE
  5
322
100
AcDbEntity
  8
0
100
AcDbLine
 62
4
  6
CONTINUOUS
 10
10.613751427
 20
9.7684667092
 11
10.5938809616
 21
9.7797799686
  0
LINE
  5
323
100
AcDbEntity
  8
0
100
AcDbLine
 62
4
  6
CONTINUOUS
 10
10.8025209477
 20
9.7553754985
 11
10.7925856819
 21
9.7659997494
  0
LINE
  5
324
100
AcDbEntity
  8
0
100
AcDbLine
 62
4
  6
CONTINUOUS
 10
10.9449259387
 20
9.7454996788
 11
10.9349907392
 21
9.7561239252
  0
LINE
  5
325
100
AcDbEntity
  8
0
100
AcDbLine
 62
4
  6
CONTINUOUS
 10
11.024407933
 20
9.7499228217
 11
11.0343431325
 21
9.7392985754
  0
LINE
  5
326
100
AcDbEntity
  8
0
100
AcDbLine
 62
4
  6
CONTINUOUS
 10
11.0740840633
 20
9.8358949092
 11
11.0840192628
 21
9.8252706598
  0
LINE
  5
327
100
AcDbEntity
  8
0
100
AcDbLine
 62
4
  6
CONTINUOUS
 10
13.0412611392
 20
9.2726693248
 11
13.0499544719
 21
9.283657556
  0
LINE
  5
328
100
AcDbEntity
  8
0
100
AcDbLine
 62
4
  6
CONTINUOUS
 10
13.0673411375
 20
9.2129051205
 11
13.0499544719
 21
9.1909286705
  0
LINE
  5
329
100
AcDbEntity
  8
0
100
AcDbLine
 62
4
  6
CONTINUOUS
 10
13.1108078012
 20
9.2446640323
 11
13.1021144685
 21
9.2336758011
  0
LINE
  5
32A
100
AcDbEntity
  8
0
100
AcDbLine
 62
4
  6
CONTINUOUS
 10
10.3190060465
 20
9.7557899126
 11
10.3388765119
 21
9.7544118911
  0
LINE
  5
32B
100
AcDbEntity
  8
0
100
AcDbLine
 62
4
  6
CONTINUOUS
 10
10.9846670022
 20
9.7427436267
 11
10.9449259387
 21
9.7454996788
  0
LINE
  5
32C
100
AcDbEntity
  8
0
100
AcDbLine
 62
4
  6
CONTINUOUS
 10
10.8223914131
 20
9.7539974771
 11
10.8025209477
 21
9.7553754985
  0
LINE
  5
32D
100
AcDbEntity
  8
0
100
AcDbLine
 62
4
  6
CONTINUOUS
 10
10.6534923578
 20
9.7657106663
 11
10.613751427
 21
9.7684667092
  0
LINE
  5
32E
100
AcDbEntity
  8
0
100
AcDbLine
 62
4
  6
CONTINUOUS
 10
10.464722837
 20
9.7788018771
 11
10.4249819062
 21
9.78155792
  0
LINE
  5
32F
100
AcDbEntity
  8
0
100
AcDbLine
 62
4
  6
CONTINUOUS
 10
9.7924384533
 20
9.8254249574
 11
9.8321794038
 21
9.8226689131
  0
LINE
  5
330
100
AcDbEntity
  8
0
100
AcDbLine
 62
4
  6
CONTINUOUS
 10
9.9116612986
 20
9.817156825
 11
9.9414670215
 21
9.8150897911
  0
LINE
  5
331
100
AcDbEntity
  8
0
100
AcDbLine
 62
4
  6
CONTINUOUS
 10
10.7031685544
 20
9.7622656104
 11
10.7528447511
 21
9.7588205545
  0
LINE
  5
332
100
AcDbEntity
  8
0
100
AcDbLine
 62
4
  6
CONTINUOUS
 10
11.0343431325
 20
9.7392985754
 11
11.0740840633
 21
9.7365425325
  0
LINE
  5
333
100
AcDbEntity
  8
0
100
AcDbLine
 62
4
  6
CONTINUOUS
 10
10.613751427
 20
9.8181428976
 11
10.6534923578
 21
9.8153868547
  0
LINE
  5
334
100
AcDbEntity
  8
0
100
AcDbLine
 62
4
  6
CONTINUOUS
 10
10.6435571582
 20
9.8657520515
 11
10.5938809616
 21
9.8691971074
  0
LINE
  5
335
100
AcDbEntity
  8
0
100
AcDbLine
 62
4
  6
CONTINUOUS
 10
10.2196536532
 20
9.8951498594
 11
10.2693298498
 21
9.8917048035
  0
LINE
  5
336
100
AcDbEntity
  8
0
100
AcDbLine
 62
4
  6
CONTINUOUS
 10
10.4249819062
 20
9.8809102967
 11
10.464722837
 21
9.8781542538
  0
LINE
  5
337
100
AcDbEntity
  8
0
100
AcDbLine
 62
4
  6
CONTINUOUS
 10
10.5044638341
 20
9.8753982063
 11
10.5442047649
 21
9.8726421634
  0
LINE
  5
338
100
AcDbEntity
  8
0
100
AcDbLine
 62
4
  6
CONTINUOUS
 10
10.9449259387
 20
9.8448520556
 11
10.9846670022
 21
9.8420960035
  0
LINE
  5
339
100
AcDbEntity
  8
0
100
AcDbLine
 62
4
  6
CONTINUOUS
 10
11.0343431325
 20
9.8386509521
 11
11.0740840633
 21
9.8358949092
  0
LINE
  5
33A
100
AcDbEntity
  8
0
100
AcDbLine
 62
4
  6
CONTINUOUS
 10
11.0740840633
 20
9.7829069752
 11
11.0343431325
 21
9.7922865094
  0
LINE
  5
33B
100
AcDbEntity
  8
0
100
AcDbLine
 62
4
  6
CONTINUOUS
 10
11.0343431325
 20
9.7922865094
 11
11.024407933
 21
9.799599009
  0
LINE
  5
33C
100
AcDbEntity
  8
0
100
AcDbLine
 62
4
  6
CONTINUOUS
 10
11.0840192628
 20
9.7755944756
 11
11.0740840633
 21
9.7829069752
  0
LINE
  5
33D
100
AcDbEntity
  8
0
100
AcDbLine
 62
7
  6
CONTINUOUS
 10
12.4954266493
 20
5.3608522756
 11
12.4954266493
 21
4.6068660589
  0
LINE
  5
33E
100
AcDbEntity
  8
0
100
AcDbLine
 62
7
  6
CONTINUOUS
 10
12.5423913731
 20
5.3575952609
 11
12.5423913731
 21
4.6101230793
  0
LINE
  5
33F
100
AcDbEntity
  8
0
100
AcDbLine
 62
4
  6
CONTINUOUS
 10
9.8023736912
 20
9.9638292705
 11
9.8421146406
 21
9.9610732262
  0
LINE
  5
340
100
AcDbEntity
  8
0
100
AcDbLine
 62
4
  6
CONTINUOUS
 10
10.8820028093
 20
9.8889567368
 11
10.8853145425
 21
9.8887270673
  0
LINE
  5
341
100
AcDbEntity
  8
0
100
AcDbLine
 62
4
  6
CONTINUOUS
 10
13.0499544719
 20
9.1909286705
 11
13.0412611392
 21
9.1567582242
  0
LINE
  5
342
100
AcDbEntity
  8
0
100
AcDbLine
 62
4
  6
CONTINUOUS
 10
13.084727803
 20
9.2928371249
 11
13.1021144685
 21
9.280040248
  0
LINE
  5
343
100
AcDbEntity
  8
0
100
AcDbLine
 62
7
  6
CONTINUOUS
 10
13.0997588156
 20
5.3189416975
 11
13.0997588156
 21
4.7543803333
  0
LINE
  5
344
100
AcDbEntity
  8
0
100
AcDbLine
 62
4
  6
CONTINUOUS
 10
13.1108078012
 20
9.2678462474
 11
13.1108078012
 21
9.2446640323
  0
LINE
  5
345
100
AcDbEntity
  8
0
100
AcDbLine
 62
7
  6
CONTINUOUS
 10
13.1123429658
 20
5.3180689837
 11
13.1123429658
 21
4.7665356897
  0
LINE
  5
346
100
AcDbEntity
  8
0
100
AcDbLine
 62
7
  6
CONTINUOUS
 10
13.258594463
 20
5.3079264079
 11
13.258594463
 21
11.3932594741
  0
LINE
  5
347
100
AcDbEntity
  8
0
100
AcDbLine
 62
4
  6
CONTINUOUS
 10
13.1021144685
 20
9.280040248
 11
13.1108078012
 21
9.2678462474
  0
LINE
  5
348
100
AcDbEntity
  8
0
100
AcDbLine
 62
4
  6
CONTINUOUS
 10
8.1947280176
 20
11.0663596522
 11
8.1773413521
 21
11.0675654216
  0
LINE
  5
349
100
AcDbEntity
  8
0
100
AcDbLine
 62
4
  6
CONTINUOUS
 10
8.1773413521
 20
11.1487031912
 11
8.1947280176
 21
11.1474974219
  0
LINE
  5
34A
100
AcDbEntity
  8
0
100
AcDbLine
 62
4
  6
CONTINUOUS
 10
8.1773413521
 20
11.2066587457
 11
8.1947280176
 21
11.2054529764
  0
LINE
  5
34B
100
AcDbEntity
  8
0
100
AcDbLine
 62
7
  6
CONTINUOUS
 10
13.957405308
 20
5.9829258909
 11
13.957405308
 21
12.068258957
  0
LINE
  5
34C
100
AcDbEntity
  8
0
100
AcDbLine
 62
7
  6
CONTINUOUS
 10
8.042594692
 20
11.7549902868
 11
13.258594463
 21
11.3932594741
  0
LINE
  5
34D
100
AcDbEntity
  8
0
100
AcDbLine
 62
7
  6
CONTINUOUS
 10
13.258594463
 20
5.3079264079
 11
13.957405308
 21
5.9829258909
  0
LINE
  5
34E
100
AcDbEntity
  8
0
100
AcDbLine
 62
7
  6
CONTINUOUS
 10
13.957405308
 20
12.068258957
 11
8.741405537
 21
12.4299897698
  0
LINE
  5
34F
100
AcDbEntity
  8
0
100
AcDbLine
 62
7
  6
CONTINUOUS
 10
12.9832229158
 20
4.6883408209
 11
12.9473435407
 21
4.6706170966
  0
ARC
  5
350
100
AcDbEntity
  8
0
100
AcDbCircle
 62
7
  6
CONTINUOUS
 10
12.3181373321
 20
7.5035290612
 40
2.9020833983
100
AcDbArc
 50
273.5024005705
 51
274.4318614998
  0
ARC
  5
351
100
AcDbEntity
  8
0
100
AcDbCircle
 62
7
  6
CONTINUOUS
 10
12.0341054436
 20
5.8898682971
 40
1.2662651638
100
AcDbArc
 50
254.6857191954
 51
256.2926786396
  0
ARC
  5
352
100
AcDbEntity
  8
0
100
AcDbCircle
 62
7
  6
CONTINUOUS
 10
12.5399910471
 20
5.5836622069
 40
0.9990265333
100
AcDbArc
 50
294.0424242342
 51
296.3106753905
  0
ARC
  5
353
100
AcDbEntity
  8
0
100
AcDbCircle
 62
7
  6
CONTINUOUS
 10
12.9954715862
 20
4.8753557129
 40
0.1597212218
100
AcDbArc
 50
310.7630914437
 51
313.9856916518
  0
ARC
  5
354
100
AcDbEntity
  8
0
100
AcDbCircle
 62
7
  6
CONTINUOUS
 10
13.0117731499
 20
4.8586313328
 40
0.1363667677
100
AcDbArc
 50
313.9375979844
 51
317.5184669645
  0
ARC
  5
355
100
AcDbEntity
  8
0
100
AcDbCircle
 62
7
  6
CONTINUOUS
 10
13.3645645735
 20
8.870454369
 40
0.1351681954
100
AcDbArc
 50
313.1916001009
 51
314.0084072006
  0
SPLINE
  5
356
100
AcDbEntity
  8
0
100
AcDbSpline
 62
7
  6
CONTINUOUS
 70
0
 71
3
 72
9
 73
5
 74
0
 42
0.0000001
 43
0.0000001
 44
0.0000000001
 40
0.0
 40
0.0
 40
0.0
 40
0.0
 40
0.5047194233
 40
1.0
 40
1.0
 40
1.0
 40
1.0
 10
13.0997588156
 20
4.7543803333
 30
0.0
 10
13.0806438582
 20
4.7422805824
 30
0.0
 10
13.0422566241
 20
4.7191068893
 30
0.0
 10
13.002699409
 20
4.6979670207
 30
0.0
 10
12.9827977865
 20
4.6881309647
 30
0.0
  0
SPLINE
  5
357
100
AcDbEntity
  8
0
100
AcDbSpline
 62
7
  6
CONTINUOUS
 70
0
 71
3
 72
20
 73
16
 74
0
 42
0.0000001
 43
0.0000001
 44
0.0000000001
 40
0.0
 40
0.0
 40
0.0
 40
0.0
 40
0.1321092246
 40
0.2654630393
 40
0.3983965104
 40
0.4641824508
 40
0.5292377163
 40
0.593358461
 40
0.6563452314
 40
0.7180031916
 40
0.7781436148
 40
0.8365831781
 40
0.8931456382
 40
0.9476711375
 40
1.0
 40
1.0
 40
1.0
 40
1.0
 10
12.4716978061
 20
5.3622953435
 30
0.0
 10
12.4398803066
 20
5.360598091
 30
0.0
 10
12.3758878684
 20
5.3581923977
 30
0.0
 10
12.2797901545
 20
5.357479174
 30
0.0
 10
12.1997058777
 20
5.3592832654
 30
0.0
 10
12.1361513286
 20
5.3621799438
 30
0.0
 10
12.0892153648
 20
5.365054486
 30
0.0
 10
12.0430046358
 20
5.3686288708
 30
0.0
 10
11.9976749989
 20
5.3728905102
 30
0.0
 10
11.9533793588
 20
5.3778252133
 30
0.0
 10
11.9102672454
 20
5.3834161678
 30
0.0
 10
11.8684844514
 20
5.3896439346
 30
0.0
 10
11.8281707565
 20
5.3964877847
 30
0.0
 10
11.7894618629
 20
5.4039242929
 30
0.0
 10
11.7642706712
 20
5.4093777264
 30
0.0
 10
11.7519713122
 20
5.4122085454
 30
0.0
  0
SPLINE
  5
358
100
AcDbEntity
  8
0
100
AcDbSpline
 62
7
  6
CONTINUOUS
 70
0
 71
3
 72
22
 73
18
 74
0
 42
0.0000001
 43
0.0000001
 44
0.0000000001
 40
0.0
 40
0.0
 40
0.0
 40
0.0
 40
0.043290989
 40
0.0886107636
 40
0.1362169549
 40
0.1863255266
 40
0.2391104607
 40
0.2946904167
 40
0.3531382065
 40
0.4144717324
 40
0.4786700373
 40
0.5456687108
 40
0.6153767118
 40
0.6876754969
 40
0.7624330017
 40
0.8395067268
 40
1.0
 40
1.0
 40
1.0
 40
1.0
 10
11.6401915743
 20
4.6807264271
 30
0.0
 10
11.6371082453
 20
4.6822482639
 30
0.0
 10
11.630917478
 20
4.6856127147
 30
0.0
 10
11.6218080234
 20
4.6914658112
 30
0.0
 10
11.6126863661
 20
4.6982518824
 30
0.0
 10
11.6035587536
 20
4.7059815785
 30
0.0
 10
11.5944323412
 20
4.7146590251
 30
0.0
 10
11.5853120769
 20
4.7242770232
 30
0.0
 10
11.5762053564
 20
4.7348216617
 30
0.0
 10
11.5671163702
 20
4.7462686135
 30
0.0
 10
11.5580517182
 20
4.7585881042
 30
0.0
 10
11.5490146397
 20
4.771742587
 30
0.0
 10
11.5400101662
 20
4.7856912091
 30
0.0
 10
11.5310404594
 20
4.800388748
 30
0.0
 10
11.5221084372
 20
4.8157891487
 30
0.0
 10
11.5100886915
 20
4.8374907892
 30
0.0
 10
11.5013847418
 20
4.8542371087
 30
0.0
 10
11.4956569197
 20
4.8656251777
 30
0.0
  0
SPLINE
  5
359
100
AcDbEntity
  8
0
100
AcDbSpline
 62
7
  6
CONTINUOUS
 70
0
 71
3
 72
42
 73
38
 74
0
 42
0.0000001
 43
0.0000001
 44
0.0000000001
 40
0.0
 40
0.0
 40
0.0
 40
0.0
 40
0.0099876471
 40
0.0204482153
 40
0.0313778979
 40
0.0427717855
 40
0.0546232227
 40
0.0669241187
 40
0.0928371108
 40
0.1204281727
 40
0.1495999526
 40
0.1802423267
 40
0.212235641
 40
0.2454510317
 40
0.2797517947
 40
0.3149951022
 40
0.3510319967
 40
0.3877093471
 40
0.4248702027
 40
0.4623548651
 40
0.5000019479
 40
0.5376490075
 40
0.5751337455
 40
0.6122945894
 40
0.6489720274
 40
0.6850089917
 40
0.7202522813
 40
0.7545532871
 40
0.78776864
 40
0.8197621595
 40
0.8504046934
 40
0.8795764413
 40
0.9071678821
 40
0.9330808459
 40
0.9572320527
 40
0.9795539769
 40
1.0
 40
1.0
 40
1.0
 40
1.0
 10
12.9473412597
 20
4.6706159598
 30
0.0
 10
12.9434276847
 20
4.6686827868
 30
0.0
 10
12.9353483344
 20
4.6648592193
 30
0.0
 10
12.9227822412
 20
4.6593639853
 30
0.0
 10
12.9095017795
 20
4.6539818126
 30
0.0
 10
12.8955221538
 20
4.6487195188
 30
0.0
 10
12.8808594036
 20
4.6435829692
 30
0.0
 10
12.8600581338
 20
4.6367913449
 30
0.0
 10
12.8324544607
 20
4.6286940509
 30
0.0
 10
12.7974457144
 20
4.6197278016
 30
0.0
 10
12.7601606004
 20
4.6113942301
 30
0.0
 10
12.7207708577
 20
4.6037314069
 30
0.0
 10
12.6794574209
 20
4.5967757839
 30
0.0
 10
12.6364105887
 20
4.590559948
 30
0.0
 10
12.5918288252
 20
4.5851125418
 30
0.0
 10
12.5459178012
 20
4.5804597421
 30
0.0
 10
12.4988894242
 20
4.5766226805
 30
0.0
 10
12.4509608654
 20
4.5736195591
 30
0.0
 10
12.4023534356
 20
4.5714645661
 30
0.0
 10
12.3532916626
 20
4.5701672527
 30
0.0
 10
12.3040021829
 20
4.5697343143
 30
0.0
 10
12.2547126732
 20
4.5701672818
 30
0.0
 10
12.2056508717
 20
4.5714642516
 30
0.0
 10
12.1570433855
 20
4.573619472
 30
0.0
 10
12.1091147461
 20
4.5766222937
 30
0.0
 10
12.0620863018
 20
4.58045932
 30
0.0
 10
12.0161751626
 20
4.58511223
 30
0.0
 10
11.971593267
 20
4.5905592358
 30
0.0
 10
11.9285462876
 20
4.5967753308
 30
0.0
 10
11.8872326757
 20
4.6037306997
 30
0.0
 10
11.8478427268
 20
4.6113934144
 30
0.0
 10
11.810557557
 20
4.6197272482
 30
0.0
 10
11.7755481479
 20
4.6286928961
 30
0.0
 10
11.742974786
 20
4.6382490166
 30
0.0
 10
11.7129848023
 20
4.648350175
 30
0.0
 10
11.6857151832
 20
4.6589495977
 30
0.0
 10
11.6686724716
 20
4.6666574802
 30
0.0
 10
11.6606608971
 20
4.6706149926
 30
0.0
  0
SPLINE
  5
35A
100
AcDbEntity
  8
0
100
AcDbSpline
 62
7
  6
CONTINUOUS
 70
0
 71
3
 72
21
 73
17
 74
0
 42
0.0000001
 43
0.0000001
 44
0.0000000001
 40
0.0
 40
0.0
 40
0.0
 40
0.0
 40
0.1229683586
 40
0.1846291852
 40
0.2464222231
 40
0.3083594657
 40
0.3704517377
 40
0.4327079591
 40
0.49513282
 40
0.557727432
 40
0.6204888849
 40
0.6834099387
 40
0.7464809678
 40
0.8096898189
 40
0.8730228
 40
1.0
 40
1.0
 40
1.0
 40
1.0
 10
12.4954266493
 20
4.6068660589
 30
0.0
 10
12.4643657713
 20
4.6005119794
 30
0.0
 10
12.417475165
 20
4.5921314521
 30
0.0
 10
12.3544857602
 20
4.5837725908
 30
0.0
 10
12.3069142275
 20
4.5790266917
 30
0.0
 10
12.2590946342
 20
4.5759326958
 30
0.0
 10
12.2110730185
 20
4.5745959707
 30
0.0
 10
12.1629089833
 20
4.5751002807
 30
0.0
 10
12.1146719018
 20
4.5774960538
 30
0.0
 10
12.0664364681
 20
4.5817958081
 30
0.0
 10
12.0182773372
 20
4.5879762074
 30
0.0
 10
11.970263334
 20
4.5959768483
 30
0.0
 10
11.9224530648
 20
4.6057056151
 30
0.0
 10
11.874891958
 20
4.6170506669
 30
0.0
 10
11.8118044703
 20
4.6341769285
 30
0.0
 10
11.7650125422
 20
4.6490387746
 30
0.0
 10
11.73404835
 20
4.6596678233
 30
0.0
  0
SPLINE
  5
35B
100
AcDbEntity
  8
0
100
AcDbSpline
 62
7
  6
CONTINUOUS
 70
0
 71
3
 72
11
 73
7
 74
0
 42
0.0000001
 43
0.0000001
 44
0.0000000001
 40
0.0
 40
0.0
 40
0.0
 40
0.0
 40
0.2458672335
 40
0.4933492082
 40
0.7440905688
 40
1.0
 40
1.0
 40
1.0
 40
1.0
 10
11.6996677764
 20
4.6685661593
 30
0.0
 10
11.6965360396
 20
4.6683896735
 30
0.0
 10
11.6902363284
 20
4.6682642605
 30
0.0
 10
11.6807495418
 20
4.6688164648
 30
0.0
 10
11.6712124722
 20
4.6701643539
 30
0.0
 10
11.6649033683
 20
4.6716122029
 30
0.0
 10
11.6617552612
 20
4.6724773499
 30
0.0
  0
LINE
  5
35C
100
AcDbEntity
  8
0
100
AcDbLine
 62
7
  6
CONTINUOUS
 10
11.6617552612
 20
4.6724773499
 11
11.6613947704
 21
4.6725770477
  0
SPLINE
  5
35D
100
AcDbEntity
  8
0
100
AcDbSpline
 62
7
  6
CONTINUOUS
 70
0
 71
3
 72
9
 73
5
 74
0
 42
0.0000001
 43
0.0000001
 44
0.0000000001
 40
0.0
 40
0.0
 40
0.0
 40
0.0
 40
0.4899125641
 40
1.0
 40
1.0
 40
1.0
 40
1.0
 10
11.6613947704
 20
4.6725770477
 30
0.0
 10
11.6578171472
 20
4.673572731
 30
0.0
 10
11.650609234
 20
4.6759600988
 30
0.0
 10
11.6436587681
 20
4.6790151263
 30
0.0
 10
11.6401915743
 20
4.6807264271
 30
0.0
  0
LINE
  5
35E
100
AcDbEntity
  8
0
100
AcDbLine
 62
7
  6
CONTINUOUS
 10
12.9470074036
 20
4.6713071774
 11
12.9459194048
 21
4.6708233679
  0
SPLINE
  5
35F
100
AcDbEntity
  8
0
100
AcDbSpline
 62
7
  6
CONTINUOUS
 70
0
 71
3
 72
15
 73
11
 74
0
 42
0.0000001
 43
0.0000001
 44
0.0000000001
 40
0.0
 40
0.0
 40
0.0
 40
0.0
 40
0.1323763415
 40
0.2621392813
 40
0.3894055944
 40
0.5144404382
 40
0.637615975
 40
0.7593469011
 40
0.8800294664
 40
1.0
 40
1.0
 40
1.0
 40
1.0
 10
12.9459194048
 20
4.6708233679
 30
0.0
 10
12.9292518535
 20
4.6634243897
 30
0.0
 10
12.8958056256
 20
4.6497341983
 30
0.0
 10
12.8448852557
 20
4.6327273548
 30
0.0
 10
12.7938533646
 20
4.6196521703
 30
0.0
 10
12.7428857868
 20
4.6105556564
 30
0.0
 10
12.6921484997
 20
4.6053157745
 30
0.0
 10
12.6417736049
 20
4.6036693644
 30
0.0
 10
12.5918473137
 20
4.6052620064
 30
0.0
 10
12.5588094887
 20
4.6082290656
 30
0.0
 10
12.5423913731
 20
4.6101230793
 30
0.0
  0
SPLINE
  5
360
100
AcDbEntity
  8
0
100
AcDbSpline
 62
7
  6
CONTINUOUS
 70
0
 71
3
 72
49
 73
45
 74
0
 42
0.0000001
 43
0.0000001
 44
0.0000000001
 40
0.0
 40
0.0
 40
0.0
 40
0.0
 40
0.0321974564
 40
0.0654883787
 40
0.0997680175
 40
0.1349263389
 40
0.1708495829
 40
0.2074204546
 40
0.2445188136
 40
0.2820222069
 40
0.3198064251
 40
0.3577460499
 40
0.3957149968
 40
0.4335870564
 40
0.471236434
 40
0.5085382913
 40
0.5453692905
 40
0.5816081453
 40
0.6171361769
 40
0.65183788
 40
0.6856015059
 40
0.718319669
 40
0.7498899893
 40
0.7802157856
 40
0.7948838237
 40
0.8092074836
 40
0.8231766373
 40
0.8367816849
 40
0.8500136041
 40
0.8628639331
 40
0.8753249144
 40
0.8873894303
 40
0.8990511804
 40
0.9103046612
 40
0.9211452978
 40
0.931569547
 40
0.9415749562
 40
0.951160405
 40
0.9603261475
 40
0.9690741422
 40
0.9774081957
 40
0.9853343196
 40
0.992861084
 40
1.0
 40
1.0
 40
1.0
 40
1.0
 10
10.7653117165
 20
11.7535131156
 30
0.0
 10
10.748504058
 20
11.7504671143
 30
0.0
 10
10.7142468196
 20
11.7446586695
 30
0.0
 10
10.6618872366
 20
11.7368926213
 30
0.0
 10
10.6078284874
 20
11.7299465628
 30
0.0
 10
10.5522630633
 20
11.7238455425
 30
0.0
 10
10.4953886523
 20
11.7186114638
 30
0.0
 10
10.4374076512
 20
11.7142631421
 30
0.0
 10
10.3785264407
 20
11.7108161919
 30
0.0
 10
10.3189546347
 20
11.7082829933
 30
0.0
 10
10.2589043264
 20
11.7066726378
 30
0.0
 10
10.1985893259
 20
11.7059909037
 30
0.0
 10
10.1382243913
 20
11.7062402369
 30
0.0
 10
10.0780244599
 20
11.7074197424
 30
0.0
 10
10.0182038772
 20
11.7095251875
 30
0.0
 10
9.9589756288
 20
11.7125490157
 30
0.0
 10
9.9005505759
 20
11.7164803737
 30
0.0
 10
9.8431366941
 20
11.7213051425
 30
0.0
 10
9.7869383267
 20
11.7270059895
 30
0.0
 10
9.732155437
 20
11.7335624266
 30
0.0
 10
9.6789829182
 20
11.7409508875
 30
0.0
 10
9.6276097537
 20
11.7491447827
 30
0.0
 10
9.5782187728
 20
11.7581146795
 30
0.0
 10
9.5384280895
 20
11.7662973463
 30
0.0
 10
9.5077301614
 20
11.7732252398
 30
0.0
 10
9.4855653548
 20
11.7785368693
 30
0.0
 10
9.4640230334
 20
11.7840170763
 30
0.0
 10
9.4431223257
 20
11.7896610166
 30
0.0
 10
9.422881809
 20
11.7954636003
 30
0.0
 10
9.4033194673
 20
11.8014197102
 30
0.0
 10
9.3844526569
 20
11.8075239518
 30
0.0
 10
9.3662981237
 20
11.8137709544
 30
0.0
 10
9.3488719459
 20
11.8201550871
 30
0.0
 10
9.3321895532
 20
11.8266706963
 30
0.0
 10
9.316265692
 20
11.8333119912
 30
0.0
 10
9.3011143998
 20
11.8400730382
 30
0.0
 10
9.2867490358
 20
11.8469479298
 30
0.0
 10
9.2731821808
 20
11.8539305188
 30
0.0
 10
9.2604257423
 20
11.8610147848
 30
0.0
 10
9.248490802
 20
11.8681945072
 30
0.0
 10
9.2373877739
 20
11.8754635356
 30
0.0
 10
9.2271261468
 20
11.8828158323
 30
0.0
 10
9.2177151613
 20
11.8902448812
 30
0.0
 10
9.2118619882
 20
11.8953779198
 30
0.0
 10
9.2090894573
 20
11.89795805
 30
0.0
  0
SPLINE
  5
361
100
AcDbEntity
  8
0
100
AcDbSpline
 62
7
  6
CONTINUOUS
 70
0
 71
3
 72
19
 73
15
 74
0
 42
0.0000001
 43
0.0000001
 44
0.0000000001
 40
0.0
 40
0.0
 40
0.0
 40
0.0
 40
0.1504613852
 40
0.2916984919
 40
0.4244192036
 40
0.4878835354
 40
0.5495802287
 40
0.668227132
 40
0.7255606127
 40
0.7817999309
 40
0.8371467096
 40
0.8918136625
 40
0.9460222505
 40
1.0
 40
1.0
 40
1.0
 40
1.0
 10
13.6079998855
 20
10.4267593922
 30
0.0
 10
13.6107834331
 20
10.4294480928
 30
0.0
 10
13.6163466704
 20
10.4344928501
 30
0.0
 10
13.6249608237
 20
10.4412155488
 30
0.0
 10
13.6322368052
 20
10.4459702374
 30
0.0
 10
13.6380389593
 20
10.4491899752
 30
0.0
 10
13.6436699271
 20
10.4519542236
 30
0.0
 10
13.6493668405
 20
10.454213717
 30
0.0
 10
13.6550957894
 20
10.4559140351
 30
0.0
 10
13.6593316194
 20
10.4568941253
 30
0.0
 10
13.6635533568
 20
10.4575926619
 30
0.0
 10
13.6677598718
 20
10.4580093819
 30
0.0
 10
13.6719494735
 20
10.4581440919
 30
0.0
 10
13.674732926
 20
10.4580456579
 30
0.0
 10
13.6761179714
 20
10.457949611
 30
0.0
  0
SPLINE
  5
362
100
AcDbEntity
  8
0
100
AcDbSpline
 62
7
  6
CONTINUOUS
 70
0
 71
3
 72
15
 73
11
 74
0
 42
0.0000001
 43
0.0000001
 44
0.0000000001
 40
0.0
 40
0.0
 40
0.0
 40
0.0
 40
0.1273483281
 40
0.2538605602
 40
0.3795878981
 40
0.5046051042
 40
0.6290174419
 40
0.7529533761
 40
0.876560577
 40
1.0
 40
1.0
 40
1.0
 40
1.0
 10
12.1310691791
 20
11.0367869705
 30
0.0
 10
12.1310691791
 20
11.031160163
 30
0.0
 10
12.1305319323
 20
11.0199357108
 30
0.0
 10
12.128102278
 20
11.0033149144
 30
0.0
 10
12.1240735078
 20
10.9871117394
 30
0.0
 10
12.1184820097
 20
10.9714777158
 30
0.0
 10
12.1113790979
 20
10.9565570199
 30
0.0
 10
12.1028294868
 20
10.9424874457
 30
0.0
 10
12.0929135861
 20
10.9294008135
 30
0.0
 10
12.0854474129
 20
10.9214067648
 30
0.0
 10
12.081524527
 20
10.9176175539
 30
0.0
  0
SPLINE
  5
363
100
AcDbEntity
  8
0
100
AcDbSpline
 62
7
  6
CONTINUOUS
 70
0
 71
3
 72
15
 73
11
 74
0
 42
0.0000001
 43
0.0000001
 44
0.0000000001
 40
0.0
 40
0.0
 40
0.0
 40
0.0
 40
0.1273483281
 40
0.2538605602
 40
0.3795878981
 40
0.5046051042
 40
0.6290174419
 40
0.7529533761
 40
0.876560577
 40
1.0
 40
1.0
 40
1.0
 40
1.0
 10
9.9577359412
 20
5.9715083715
 30
0.0
 10
9.9577359412
 20
5.9658815639
 30
0.0
 10
9.9571986944
 20
5.9546571118
 30
0.0
 10
9.9547690401
 20
5.9380363153
 30
0.0
 10
9.9507402699
 20
5.9218331403
 30
0.0
 10
9.9451487718
 20
5.9061991167
 30
0.0
 10
9.9380458599
 20
5.8912784208
 30
0.0
 10
9.9294962488
 20
5.8772088466
 30
0.0
 10
9.9195803482
 20
5.8641222144
 30
0.0
 10
9.912114175
 20
5.8561281657
 30
0.0
 10
9.9081912891
 20
5.8523389548
 30
0.0
  0
SPLINE
  5
364
100
AcDbEntity
  8
0
100
AcDbSpline
 62
7
  6
CONTINUOUS
 70
0
 71
3
 72
23
 73
19
 74
0
 42
0.0000001
 43
0.0000001
 44
0.0000000001
 40
0.0
 40
0.0
 40
0.0
 40
0.0
 40
0.0613681631
 40
0.12271848
 40
0.1841148797
 40
0.2456258284
 40
0.3073190678
 40
0.369255812
 40
0.4314845982
 40
0.4940354547
 40
0.556914427
 40
0.6200984733
 40
0.6835312981
 40
0.7471204439
 40
0.8107367333
 40
0.8742172119
 40
0.9373725815
 40
1.0
 40
1.0
 40
1.0
 40
1.0
 10
9.8559193048
 20
7.3738100823
 30
0.0
 10
9.8562843051
 20
7.368310141
 30
0.0
 10
9.8575576455
 20
7.3573402163
 30
0.0
 10
9.8610721361
 20
7.3411552456
 30
0.0
 10
9.8661451536
 20
7.3253746965
 30
0.0
 10
9.8727133773
 20
7.3101235928
 30
0.0
 10
9.8807000361
 20
7.2955108644
 30
0.0
 10
9.8900181683
 20
7.2816327783
 30
0.0
 10
9.9005737445
 20
7.2685733224
 30
0.0
 10
9.9122676934
 20
7.2564065033
 30
0.0
 10
9.9249968592
 20
7.2451986385
 30
0.0
 10
9.9386539341
 20
7.2350106305
 30
0.0
 10
9.9531265404
 20
7.2258997285
 30
0.0
 10
9.9682959472
 20
7.2179205632
 30
0.0
 10
9.9840355936
 20
7.2111252693
 30
0.0
 10
10.0002109663
 20
7.2055625741
 30
0.0
 10
10.016677677
 20
7.2012764041
 30
0.0
 10
10.0278121022
 20
7.1992833456
 30
0.0
 10
10.0333842499
 20
7.1985130051
 30
0.0
  0
SPLINE
  5
365
100
AcDbEntity
  8
0
100
AcDbSpline
 62
7
  6
CONTINUOUS
 70
0
 71
3
 72
15
 73
11
 74
0
 42
0.0000001
 43
0.0000001
 44
0.0000000001
 40
0.0
 40
0.0
 40
0.0
 40
0.0
 40
0.1273483257
 40
0.253860557
 40
0.3795878955
 40
0.504605103
 40
0.6290174424
 40
0.7529533779
 40
0.8765605788
 40
1.0
 40
1.0
 40
1.0
 40
1.0
 10
10.0346619528
 20
7.1781464455
 30
0.0
 10
10.0346619528
 20
7.1722979032
 30
0.0
 10
10.0341035359
 20
7.160631131
 30
0.0
 10
10.0315781416
 20
7.1433553608
 30
0.0
 10
10.0273906185
 20
7.1265136678
 30
0.0
 10
10.0215787883
 20
7.1102635525
 30
0.0
 10
10.0141959869
 20
7.0947548723
 30
0.0
 10
10.0053094787
 20
7.0801308507
 30
0.0
 10
9.9950028416
 20
7.0665285021
 30
0.0
 10
9.9872424628
 20
7.0582194215
 30
0.0
 10
9.9831649948
 20
7.0542808832
 30
0.0
  0
SPLINE
  5
366
100
AcDbEntity
  8
0
100
AcDbSpline
 62
7
  6
CONTINUOUS
 70
0
 71
3
 72
40
 73
36
 74
0
 42
0.0000001
 43
0.0000001
 44
0.0000000001
 40
0.0
 40
0.0
 40
0.0
 40
0.0
 40
0.0310748092
 40
0.0623077253
 40
0.0936925326
 40
0.1252215898
 40
0.1568831362
 40
0.1886631191
 40
0.2205448907
 40
0.2525097893
 40
0.2845374621
 40
0.3166063048
 40
0.3486938916
 40
0.3807774241
 40
0.4128341841
 40
0.4448419855
 40
0.4767796187
 40
0.5086272821
 40
0.5403669917
 40
0.5719829641
 40
0.6034619653
 40
0.6347936174
 40
0.6659706556
 40
0.6969891286
 40
0.7278485342
 40
0.7585518833
 40
0.7891056862
 40
0.8195198573
 40
0.8498075357
 40
0.8649117414
 40
0.8799905948
 40
0.9100761996
 40
0.9400910313
 40
0.9700577039
 40
1.0
 40
1.0
 40
1.0
 40
1.0
 10
10.0346619528
 20
7.1781464455
 30
0.0
 10
10.0346619528
 20
7.1826921722
 30
0.0
 10
10.0343228245
 20
7.1918102501
 30
0.0
 10
10.0328088527
 20
7.2054436817
 30
0.0
 10
10.0302966435
 20
7.2189971047
 30
0.0
 10
10.0268002893
 20
7.2323950213
 30
0.0
 10
10.02233901
 20
7.2455642003
 30
0.0
 10
10.0169374752
 20
7.2584322657
 30
0.0
 10
10.0106254026
 20
7.2709286246
 30
0.0
 10
10.0034375285
 20
7.2829847017
 30
0.0
 10
9.9954133581
 20
7.2945343469
 30
0.0
 10
9.9865969736
 20
7.305514186
 30
0.0
 10
9.9770367855
 20
7.3158639659
 30
0.0
 10
9.9667852719
 20
7.3255268811
 30
0.0
 10
9.9558986929
 20
7.3344498821
 30
0.0
 10
9.9444367859
 20
7.3425839655
 30
0.0
 10
9.932462442
 20
7.3498844421
 30
0.0
 10
9.9200413629
 20
7.3563111778
 30
0.0
 10
9.9072417049
 20
7.3618288133
 30
0.0
 10
9.8941337107
 20
7.3664069579
 30
0.0
 10
9.8807893284
 20
7.3700203569
 30
0.0
 10
9.8672818236
 20
7.3726490324
 30
0.0
 10
9.8536853808
 20
7.3742783954
 30
0.0
 10
9.8400747065
 20
7.3748993328
 30
0.0
 10
9.8265246082
 20
7.3745082568
 30
0.0
 10
9.8131096426
 20
7.3731071569
 30
0.0
 10
9.7999035023
 20
7.3707035089
 30
0.0
 10
9.786979373
 20
7.3673105722
 30
0.0
 10
9.7764919858
 20
7.3636699949
 30
0.0
 10
9.7683175749
 20
7.3602843115
 30
0.0
 10
9.7603086443
 20
7.3565939986
 30
0.0
 10
9.750597582
 20
7.3514064688
 30
0.0
 10
9.7394908517
 20
7.3442938944
 30
0.0
 10
9.7289990983
 20
7.3363372403
 30
0.0
 10
9.7224506353
 20
7.3304967752
 30
0.0
 10
9.7193002603
 20
7.3274537415
 30
0.0
  0
SPLINE
  5
367
100
AcDbEntity
  8
0
100
AcDbSpline
 62
7
  6
CONTINUOUS
 70
0
 71
3
 72
11
 73
7
 74
0
 42
0.0000001
 43
0.0000001
 44
0.0000000001
 40
0.0
 40
0.0
 40
0.0
 40
0.0
 40
0.2697183344
 40
0.5237013691
 40
0.7658764722
 40
1.0
 40
1.0
 40
1.0
 40
1.0
 10
9.2583057327
 20
11.8624633778
 30
0.0
 10
9.2578747458
 20
11.8636461895
 30
0.0
 10
9.2571284219
 20
11.865977258
 30
0.0
 10
9.2563295238
 20
11.8694659583
 30
0.0
 10
9.2558659301
 20
11.8728473251
 30
0.0
 10
9.2557654006
 20
11.8750716937
 30
0.0
 10
9.2557654006
 20
11.8761644439
 30
0.0
  0
SPLINE
  5
368
100
AcDbEntity
  8
0
100
AcDbSpline
 62
7
  6
CONTINUOUS
 70
0
 71
3
 72
29
 73
25
 74
0
 42
0.0000001
 43
0.0000001
 44
0.0000000001
 40
0.0
 40
0.0
 40
0.0
 40
0.0
 40
0.0191436973
 40
0.0390355211
 40
0.0596935659
 40
0.0811327518
 40
0.1033648686
 40
0.1263993078
 40
0.1502429301
 40
0.1749005738
 40
0.2003752217
 40
0.2266679852
 40
0.2537786426
 40
0.2817053285
 40
0.3399913541
 40
0.4014903187
 40
0.4661475825
 40
0.533894394
 40
0.604649601
 40
0.6783209807
 40
0.7548067634
 40
0.8339951261
 40
0.9157694204
 40
1.0
 40
1.0
 40
1.0
 40
1.0
 10
11.1600408204
 20
11.8979575488
 30
0.0
 10
11.1580567139
 20
11.896111137
 30
0.0
 10
11.1539308768
 20
11.8924314489
 30
0.0
 10
11.1474107154
 20
11.8870515964
 30
0.0
 10
11.1404452991
 20
11.881709552
 30
0.0
 10
11.1330379119
 20
11.8764078812
 30
0.0
 10
11.1251919393
 20
11.8711488184
 30
0.0
 10
11.1169109214
 20
11.8659348313
 30
0.0
 10
11.108198668
 20
11.8607682149
 30
0.0
 10
11.0990591539
 20
11.8556513355
 30
0.0
 10
11.0894965504
 20
11.8505865628
 30
0.0
 10
11.0795152714
 20
11.8455761569
 30
0.0
 10
11.0691198542
 20
11.8406224629
 30
0.0
 10
11.0545045829
 20
11.834001641
 30
0.0
 10
11.0352193114
 20
11.8259012304
 30
0.0
 10
11.010823825
 20
11.8165760851
 30
0.0
 10
10.9849007563
 20
11.807529951
 30
0.0
 10
10.9574978698
 20
11.7987796216
 30
0.0
 10
10.9286653844
 20
11.7903413637
 30
0.0
 10
10.8984563448
 20
11.782230863
 30
0.0
 10
10.8669265117
 20
11.7744632708
 30
0.0
 10
10.8341338134
 20
11.7670529421
 30
0.0
 10
10.8001391634
 20
11.7600138502
 30
0.0
 10
10.7770458148
 20
11.7556396508
 30
0.0
 10
10.7653117165
 20
11.7535131156
 30
0.0
  0
SPLINE
  5
369
100
AcDbEntity
  8
0
100
AcDbSpline
 62
7
  6
CONTINUOUS
 70
0
 71
3
 72
11
 73
7
 74
0
 42
0.0000001
 43
0.0000001
 44
0.0000000001
 40
0.0
 40
0.0
 40
0.0
 40
0.0
 40
0.2341956276
 40
0.4764098744
 40
0.7303772225
 40
1.0
 40
1.0
 40
1.0
 40
1.0
 10
11.1133654006
 20
11.8761644439
 30
0.0
 10
11.1133654006
 20
11.8750750639
 30
0.0
 10
11.1132655007
 20
11.8728577285
 30
0.0
 10
11.1128048453
 20
11.8694872178
 30
0.0
 10
11.1120110534
 20
11.8660101686
 30
0.0
 10
11.1112695194
 20
11.863686845
 30
0.0
 10
11.1108413157
 20
11.8625080364
 30
0.0
  0
SPLINE
  5
36A
100
AcDbEntity
  8
0
100
AcDbSpline
 62
7
  6
CONTINUOUS
 70
0
 71
3
 72
40
 73
36
 74
0
 42
0.0000001
 43
0.0000001
 44
0.0000000001
 40
0.0
 40
0.0
 40
0.0
 40
0.0
 40
0.0299422956
 40
0.059908968
 40
0.0899238
 40
0.1200094056
 40
0.1350882594
 40
0.1501924656
 40
0.1804801452
 40
0.2108943177
 40
0.241448122
 40
0.2721514726
 40
0.3030108797
 40
0.334029354
 40
0.3652063934
 40
0.3965380465
 40
0.4280170486
 40
0.4596330217
 40
0.4913727316
 40
0.5232203951
 40
0.5551580282
 40
0.5871658292
 40
0.6192225887
 40
0.6513061205
 40
0.6833937063
 40
0.715462548
 40
0.7474902197
 40
0.779455117
 40
0.8113368874
 40
0.8431168691
 40
0.8747784143
 40
0.9063074703
 40
0.9376922765
 40
0.9689251917
 40
1.0
 40
1.0
 40
1.0
 40
1.0
 10
11.8276645134
 20
11.1804335055
 30
0.0
 10
11.8306954457
 20
11.1833611568
 30
0.0
 10
11.8369956308
 20
11.1889801689
 30
0.0
 10
11.8470895982
 20
11.1966351286
 30
0.0
 10
11.857775224
 20
11.2034780119
 30
0.0
 10
11.867118096
 20
11.2084688418
 30
0.0
 10
11.8748233708
 20
11.2120192249
 30
0.0
 10
11.8826878514
 20
11.2152765287
 30
0.0
 10
11.8927776114
 20
11.2187790593
 30
0.0
 10
11.9052117234
 20
11.2220433364
 30
0.0
 10
11.9179171524
 20
11.2243558345
 30
0.0
 10
11.930823488
 20
11.2257037968
 30
0.0
 10
11.9438598316
 20
11.226080031
 30
0.0
 10
11.9569544533
 20
11.2254826233
 30
0.0
 10
11.9700353821
 20
11.2239150255
 30
0.0
 10
11.9830307443
 20
11.2213860052
 30
0.0
 10
11.995869168
 20
11.2179095982
 30
0.0
 10
12.0084801657
 20
11.2135050251
 30
0.0
 10
12.0207945172
 20
11.2081965831
 30
0.0
 10
12.0327446435
 20
11.2020135107
 30
0.0
 10
12.0442649722
 20
11.1949898263
 30
0.0
 10
12.055292293
 20
11.1871641424
 30
0.0
 10
12.0657660994
 20
11.1785794538
 30
0.0
 10
12.075628919
 20
11.169282906
 30
0.0
 10
12.084826625
 20
11.1593255369
 30
0.0
 10
12.0933087291
 20
11.1487619982
 30
0.0
 10
12.1010286564
 20
11.1376502586
 30
0.0
 10
12.1079439961
 20
11.1260512891
 30
0.0
 10
12.114016741
 20
11.1140287318
 30
0.0
 10
12.1192134719
 20
11.101648562
 30
0.0
 10
12.1235055977
 20
11.0889786957
 30
0.0
 10
12.1268693845
 20
11.0760887648
 30
0.0
 10
12.129286341
 20
11.0630492238
 30
0.0
 10
12.1307429091
 20
11.0499327078
 30
0.0
 10
12.1310691791
 20
11.0411603447
 30
0.0
 10
12.1310691791
 20
11.0367869705
 30
0.0
  0
SPLINE
  5
36B
100
AcDbEntity
  8
0
100
AcDbSpline
 62
7
  6
CONTINUOUS
 70
0
 71
3
 72
40
 73
36
 74
0
 42
0.0000001
 43
0.0000001
 44
0.0000000001
 40
0.0
 40
0.0
 40
0.0
 40
0.0
 40
0.0299422956
 40
0.059908968
 40
0.0899238
 40
0.1200094056
 40
0.1350882594
 40
0.1501924656
 40
0.1804801452
 40
0.2108943177
 40
0.241448122
 40
0.2721514726
 40
0.3030108797
 40
0.334029354
 40
0.3652063934
 40
0.3965380465
 40
0.4280170486
 40
0.4596330217
 40
0.4913727316
 40
0.5232203951
 40
0.5551580282
 40
0.5871658292
 40
0.6192225887
 40
0.6513061205
 40
0.6833937063
 40
0.715462548
 40
0.7474902197
 40
0.779455117
 40
0.8113368874
 40
0.8431168691
 40
0.8747784143
 40
0.9063074703
 40
0.9376922765
 40
0.9689251917
 40
1.0
 40
1.0
 40
1.0
 40
1.0
 10
9.6543312755
 20
6.1151549065
 30
0.0
 10
9.6573622078
 20
6.1180825577
 30
0.0
 10
9.6636623929
 20
6.1237015698
 30
0.0
 10
9.6737563603
 20
6.1313565296
 30
0.0
 10
9.6844419861
 20
6.1381994128
 30
0.0
 10
9.6937848581
 20
6.1431902428
 30
0.0
 10
9.7014901329
 20
6.1467406259
 30
0.0
 10
9.7093546135
 20
6.1499979296
 30
0.0
 10
9.7194443734
 20
6.1535004603
 30
0.0
 10
9.7318784854
 20
6.1567647374
 30
0.0
 10
9.7445839145
 20
6.1590772354
 30
0.0
 10
9.7574902501
 20
6.1604251977
 30
0.0
 10
9.7705265937
 20
6.1608014319
 30
0.0
 10
9.7836212154
 20
6.1602040243
 30
0.0
 10
9.7967021442
 20
6.1586364264
 30
0.0
 10
9.8096975064
 20
6.1561074061
 30
0.0
 10
9.82253593
 20
6.1526309991
 30
0.0
 10
9.8351469278
 20
6.1482264261
 30
0.0
 10
9.8474612793
 20
6.1429179841
 30
0.0
 10
9.8594114055
 20
6.1367349116
 30
0.0
 10
9.8709317342
 20
6.1297112272
 30
0.0
 10
9.881959055
 20
6.1218855433
 30
0.0
 10
9.8924328614
 20
6.1133008547
 30
0.0
 10
9.902295681
 20
6.1040043069
 30
0.0
 10
9.9114933871
 20
6.0940469379
 30
0.0
 10
9.9199754912
 20
6.0834833992
 30
0.0
 10
9.9276954185
 20
6.0723716595
 30
0.0
 10
9.9346107582
 20
6.06077269
 30
0.0
 10
9.9406835031
 20
6.0487501328
 30
0.0
 10
9.945880234
 20
6.0363699629
 30
0.0
 10
9.9501723598
 20
6.0237000966
 30
0.0
 10
9.9535361466
 20
6.0108101658
 30
0.0
 10
9.9559531031
 20
5.9977706247
 30
0.0
 10
9.9574096712
 20
5.9846541087
 30
0.0
 10
9.9577359412
 20
5.9758817456
 30
0.0
 10
9.9577359412
 20
5.9715083715
 30
0.0
  0
SPLINE
  5
36C
100
AcDbEntity
  8
0
100
AcDbSpline
 62
7
  6
CONTINUOUS
 70
0
 71
3
 72
35
 73
31
 74
0
 42
0.0000001
 43
0.0000001
 44
0.0000000001
 40
0.0
 40
0.0
 40
0.0
 40
0.0
 40
0.0178986239
 40
0.0359339049
 40
0.054239218
 40
0.0729415488
 40
0.0921593309
 40
0.1120006623
 40
0.1325626614
 40
0.1539312276
 40
0.1761812816
 40
0.1993776757
 40
0.2235756017
 40
0.2488220158
 40
0.2751560166
 40
0.3026101255
 40
0.3312108308
 40
0.3609792831
 40
0.3919321667
 40
0.4240817603
 40
0.4574370128
 40
0.4920033013
 40
0.5277833253
 40
0.5647770439
 40
0.602982033
 40
0.6423938721
 40
0.7248070787
 40
0.8119475282
 40
0.9037179805
 40
1.0
 40
1.0
 40
1.0
 40
1.0
 10
13.5398817996
 20
8.4934679236
 30
0.0
 10
13.5380275081
 20
8.4935965107
 30
0.0
 10
13.5343143317
 20
8.4940240416
 30
0.0
 10
13.5287923798
 20
8.4951707945
 30
0.0
 10
13.5233126662
 20
8.4968229603
 30
0.0
 10
13.5178791014
 20
8.4989787
 30
0.0
 10
13.5124946169
 20
8.5016362396
 30
0.0
 10
13.507161948
 20
8.5047933193
 30
0.0
 10
13.5018836184
 20
8.5084477207
 30
0.0
 10
13.496662017
 20
8.5125970887
 30
0.0
 10
13.4914993749
 20
8.5172389095
 30
0.0
 10
13.4863980483
 20
8.5223706958
 30
0.0
 10
13.4813601861
 20
8.5279896303
 30
0.0
 10
13.4763881762
 20
8.5340929056
 30
0.0
 10
13.4714842217
 20
8.5406773628
 30
0.0
 10
13.4666506803
 20
8.5477397286
 30
0.0
 10
13.4618898593
 20
8.5552764564
 30
0.0
 10
13.4572040306
 20
8.5632837557
 30
0.0
 10
13.4525955749
 20
8.5717576422
 30
0.0
 10
13.4480666796
 20
8.5806938186
 30
0.0
 10
13.4436197138
 20
8.5900878212
 30
0.0
 10
13.4392568274
 20
8.5999348774
 30
0.0
 10
13.4349802828
 20
8.6102300255
 30
0.0
 10
13.4307922415
 20
8.6209680362
 30
0.0
 10
13.426694772
 20
8.6321434742
 30
0.0
 10
13.4212743289
 20
8.6478544302
 30
0.0
 10
13.4147606244
 20
8.668559434
 30
0.0
 10
13.4074494912
 20
8.6946983259
 30
0.0
 10
13.4005468385
 20
8.7224341434
 30
0.0
 10
13.3963260087
 20
8.7415039266
 30
0.0
 10
13.3942789306
 20
8.7512908705
 30
0.0
  0
LINE
  5
36D
100
AcDbEntity
  8
0
100
AcDbLine
 62
7
  6
CONTINUOUS
 10
13.3942789306
 20
8.7512908705
 11
13.3940614256
 21
8.7523328974
  0
SPLINE
  5
36E
100
AcDbEntity
  8
0
100
AcDbSpline
 62
7
  6
CONTINUOUS
 70
0
 71
3
 72
39
 73
35
 74
0
 42
0.0000001
 43
0.0000001
 44
0.0000000001
 40
0.0
 40
0.0
 40
0.0
 40
0.0
 40
0.0247404857
 40
0.0506761301
 40
0.0777495948
 40
0.1058985499
 40
0.1350562077
 40
0.1651517891
 40
0.1961109405
 40
0.2278561177
 40
0.2603069441
 40
0.2933805528
 40
0.3269919145
 40
0.3610541586
 40
0.3954788865
 40
0.4301764814
 40
0.4650564154
 40
0.5000275542
 40
0.534998461
 40
0.5698776997
 40
0.6045741383
 40
0.6389972526
 40
0.6730574315
 40
0.7066662833
 40
0.7397369457
 40
0.7721843999
 40
0.8039257905
 40
0.8348807546
 40
0.8649717632
 40
0.8941244799
 40
0.9222681446
 40
0.9493359911
 40
0.9752657134
 40
1.0
 40
1.0
 40
1.0
 40
1.0
 10
13.3940614256
 20
8.7523328974
 30
0.0
 10
13.3915615721
 20
8.7643340093
 30
0.0
 10
13.3867896947
 20
8.7889895741
 30
0.0
 10
13.3804190921
 20
8.8269869428
 30
0.0
 10
13.3746798512
 20
8.8667917821
 30
0.0
 10
13.3695883037
 20
8.9082931236
 30
0.0
 10
13.3651588636
 20
8.9513756952
 30
0.0
 10
13.3614040932
 20
8.995919587
 30
0.0
 10
13.3583346396
 20
9.0418007979
 30
0.0
 10
13.3559592153
 20
9.0888915411
 30
0.0
 10
13.3542845747
 20
9.1370606262
 30
0.0
 10
13.3533154973
 20
9.1861738283
 30
0.0
 10
13.3530547769
 20
9.23609427
 30
0.0
 10
13.3535032154
 20
9.2866828074
 30
0.0
 10
13.3546596218
 20
9.3377984222
 30
0.0
 10
13.356520817
 20
9.3892986177
 30
0.0
 10
13.3590816433
 20
9.4410398191
 30
0.0
 10
13.3623349798
 20
9.4928777762
 30
0.0
 10
13.3662717624
 20
9.5446679679
 30
0.0
 10
13.3708810095
 20
9.596266007
 30
0.0
 10
13.3761498527
 20
9.6475280449
 30
0.0
 10
13.3820635723
 20
9.6983111751
 30
0.0
 10
13.3886056383
 20
9.7484738342
 30
0.0
 10
13.3957577555
 20
9.797876199
 30
0.0
 10
13.4034999145
 20
9.8463805803
 30
0.0
 10
13.4118104457
 20
9.8938518103
 30
0.0
 10
13.4206660795
 20
9.9401576245
 30
0.0
 10
13.4300420094
 20
9.9851690384
 30
0.0
 10
13.4399119597
 20
10.0287607103
 30
0.0
 10
13.4502482618
 20
10.0708113173
 30
0.0
 10
13.4610219156
 20
10.1112038543
 30
0.0
 10
13.4722027251
 20
10.1498261677
 30
0.0
 10
13.4837591995
 20
10.1865706292
 30
0.0
 10
13.4918899782
 20
10.2103247162
 30
0.0
 10
13.4960230914
 20
10.2218623949
 30
0.0
  0
SPLINE
  5
36F
100
AcDbEntity
  8
0
100
AcDbSpline
 62
7
  6
CONTINUOUS
 70
0
 71
3
 72
23
 73
19
 74
0
 42
0.0000001
 43
0.0000001
 44
0.0000000001
 40
0.0
 40
0.0
 40
0.0
 40
0.0
 40
0.0808879993
 40
0.1594456838
 40
0.235630623
 40
0.3094039658
 40
0.3807315548
 40
0.4495834501
 40
0.5159352991
 40
0.5797680003
 40
0.6410690876
 40
0.6998329909
 40
0.7560623589
 40
0.8097686858
 40
0.8609736815
 40
0.9097126121
 40
0.9560344933
 40
1.0
 40
1.0
 40
1.0
 40
1.0
 10
13.4960230914
 20
10.2218623949
 30
0.0
 10
13.4981622991
 20
10.2278340413
 30
0.0
 10
13.502465847
 20
10.2395744698
 30
0.0
 10
13.5090992687
 20
10.2568217822
 30
0.0
 10
13.5158123218
 20
10.2734381172
 30
0.0
 10
13.5225996366
 20
10.2894100368
 30
0.0
 10
13.5294556454
 20
10.3047247322
 30
0.0
 10
13.5363749003
 20
10.3193698808
 30
0.0
 10
13.5433517365
 20
10.333333764
 30
0.0
 10
13.5503806162
 20
10.3466051806
 30
0.0
 10
13.5574558345
 20
10.3591735527
 30
0.0
 10
13.5645717826
 20
10.3710288625
 30
0.0
 10
13.5717227926
 20
10.3821616905
 30
0.0
 10
13.5789031909
 20
10.3925632225
 30
0.0
 10
13.5861073757
 20
10.4022252543
 30
0.0
 10
13.5933299393
 20
10.4111403892
 30
0.0
 10
13.6005650676
 20
10.4193010872
 30
0.0
 10
13.605520054
 20
10.4243640587
 30
0.0
 10
13.6079998855
 20
10.4267593922
 30
0.0
  0
SPLINE
  5
370
100
AcDbEntity
  8
0
100
AcDbSpline
 62
7
  6
CONTINUOUS
 70
0
 71
3
 72
77
 73
73
 74
0
 42
0.0000001
 43
0.0000001
 44
0.0000000001
 40
0.0
 40
0.0
 40
0.0
 40
0.0
 40
0.0027966496
 40
0.0056681964
 40
0.0116913115
 40
0.0148721304
 40
0.0181792486
 40
0.021621871
 40
0.025207912
 40
0.0289441504
 40
0.0328362597
 40
0.0368890167
 40
0.0411063556
 40
0.0454914409
 40
0.0500468368
 40
0.0547744715
 40
0.059675778
 40
0.0647517478
 40
0.0700029042
 40
0.0810306549
 40
0.0927572876
 40
0.1051758706
 40
0.1182756966
 40
0.1320428038
 40
0.1464603921
 40
0.1615091823
 40
0.1771676866
 40
0.1934124221
 40
0.2102180837
 40
0.2275577322
 40
0.2454029417
 40
0.263723924
 40
0.2824896307
 40
0.3016678796
 40
0.3212254668
 40
0.3411282627
 40
0.3613412972
 40
0.3818288587
 40
0.4234809126
 40
0.4657882045
 40
0.5084477227
 40
0.551153245
 40
0.5935981283
 40
0.6354781029
 40
0.6764940998
 40
0.6965871452
 40
0.7163558532
 40
0.7357655831
 40
0.7547825626
 40
0.7733739806
 40
0.7915080949
 40
0.8091543558
 40
0.8262835043
 40
0.842867689
 40
0.8588806027
 40
0.8742976583
 40
0.8890961484
 40
0.9032554352
 40
0.916757191
 40
0.9295857143
 40
0.941728298
 40
0.9531756629
 40
0.9586371125
 40
0.9639232038
 40
0.9690340201
 40
0.9739700476
 40
0.978732144
 40
0.9833216345
 40
0.9877404733
 40
0.9919911198
 40
0.9960764776
 40
1.0
 40
1.0
 40
1.0
 40
1.0
 10
13.5135998795
 20
8.7105055056
 30
0.0
 10
13.5122103018
 20
8.7109967993
 30
0.0
 10
13.5094338924
 20
8.712109626
 30
0.0
 10
13.5039063641
 20
8.714842553
 30
0.0
 10
13.4985326861
 20
8.7182970808
 30
0.0
 10
13.4933455061
 20
8.7223712341
 30
0.0
 10
13.4894262142
 20
8.7258443855
 30
0.0
 10
13.485551959
 20
8.7296767673
 30
0.0
 10
13.4817237711
 20
8.7338667841
 30
0.0
 10
13.47794352
 20
8.7384123811
 30
0.0
 10
13.4742127028
 20
8.7433113521
 30
0.0
 10
13.4705330285
 20
8.7485614205
 30
0.0
 10
13.4669061523
 20
8.7541601246
 30
0.0
 10
13.4633336536
 20
8.7601048041
 30
0.0
 10
13.459817263
 20
8.7663927123
 30
0.0
 10
13.4563585432
 20
8.77302086
 30
0.0
 10
13.4529591293
 20
8.7799861271
 30
0.0
 10
13.4496206257
 20
8.7872852549
 30
0.0
 10
13.4451799584
 20
8.7976273572
 30
0.0
 10
13.4398096472
 20
8.8113799325
 30
0.0
 10
13.4337335143
 20
8.8288964644
 30
0.0
 10
13.4279362976
 20
8.8476530835
 30
0.0
 10
13.4224291212
 20
8.8676141745
 30
0.0
 10
13.4172225908
 20
8.8887420964
 30
0.0
 10
13.4123267489
 20
8.9109967254
 30
0.0
 10
13.4077510675
 20
8.9343357383
 30
0.0
 10
13.4035044123
 20
8.9587146698
 30
0.0
 10
13.3995950206
 20
8.9840870107
 30
0.0
 10
13.3960304527
 20
9.0104042982
 30
0.0
 10
13.3928176127
 20
9.0376162304
 30
0.0
 10
13.3899627283
 20
9.0656707774
 30
0.0
 10
13.3874713439
 20
9.094514276
 30
0.0
 10
13.3853482792
 20
9.124091529
 30
0.0
 10
13.3835976455
 20
9.1543459184
 30
0.0
 10
13.3822228379
 20
9.1852195304
 30
0.0
 10
13.381226548
 20
9.2166532432
 30
0.0
 10
13.380610679
 20
9.2485869133
 30
0.0
 10
13.3802968146
 20
9.2919875693
 30
0.0
 10
13.3808729674
 20
9.3470347886
 30
0.0
 10
13.3830761673
 20
9.4137335523
 30
0.0
 10
13.3867786892
 20
9.480922033
 30
0.0
 10
13.3919523053
 20
9.5480859057
 30
0.0
 10
13.3985573129
 20
9.6147114957
 30
0.0
 10
13.4065430329
 20
9.6802888192
 30
0.0
 10
13.4143492671
 20
9.7340067645
 30
0.0
 10
13.4212528451
 20
9.776068549
 30
0.0
 10
13.4266990651
 20
9.8068278477
 30
0.0
 10
13.4324385478
 20
9.8369566759
 30
0.0
 10
13.4384603119
 20
9.8663974006
 30
0.0
 10
13.444752774
 20
9.8950936544
 30
0.0
 10
13.4513038481
 20
9.9229905227
 30
0.0
 10
13.4581009233
 20
9.9500346424
 30
0.0
 10
13.4651309225
 20
9.9761743025
 30
0.0
 10
13.4723803214
 20
10.0013595357
 30
0.0
 10
13.4798351829
 20
10.0255422265
 30
0.0
 10
13.4874811531
 20
10.0486762278
 30
0.0
 10
13.4953035156
 20
10.0707174472
 30
0.0
 10
13.5032872279
 20
10.0916239396
 30
0.0
 10
13.5114169618
 20
10.1113559632
 30
0.0
 10
13.5196771386
 20
10.12987624
 30
0.0
 10
13.5280519283
 20
10.147149558
 30
0.0
 10
13.5352212023
 20
10.1606824369
 30
0.0
 10
13.5410130353
 20
10.1708457253
 30
0.0
 10
13.5453073602
 20
10.1780164649
 30
0.0
 10
13.5496183835
 20
10.1848519925
 30
0.0
 10
13.5539440389
 20
10.1913490935
 30
0.0
 10
13.5582822613
 20
10.1975046912
 30
0.0
 10
13.5626310993
 20
10.2033158777
 30
0.0
 10
13.5669885111
 20
10.2087800105
 30
0.0
 10
13.5713525948
 20
10.2138944945
 30
0.0
 10
13.575721041
 20
10.2186566847
 30
0.0
 10
13.5786939823
 20
10.2216547382
 30
0.0
 10
13.5801812194
 20
10.223091299
 30
0.0
  0
SPLINE
  5
371
100
AcDbEntity
  8
0
100
AcDbSpline
 62
7
  6
CONTINUOUS
 70
0
 71
3
 72
15
 73
11
 74
0
 42
0.0000001
 43
0.0000001
 44
0.0000000001
 40
0.0
 40
0.0
 40
0.0
 40
0.0
 40
0.1084409689
 40
0.2203200574
 40
0.3363916714
 40
0.4573220485
 40
0.5836914378
 40
0.7159983307
 40
0.8546576762
 40
1.0
 40
1.0
 40
1.0
 40
1.0
 10
13.620129945
 20
10.2466175446
 30
0.0
 10
13.6184663993
 20
10.2462779765
 30
0.0
 10
13.6151176798
 20
10.2454265067
 30
0.0
 10
13.6101431171
 20
10.2436778017
 30
0.0
 10
13.6051524133
 20
10.2414428084
 30
0.0
 10
13.6001491261
 20
10.2387238221
 30
0.0
 10
13.5951357954
 20
10.2355231135
 30
0.0
 10
13.5901151011
 20
10.2318430454
 30
0.0
 10
13.5850901058
 20
10.22768642
 30
0.0
 10
13.5818179619
 20
10.2246722709
 30
0.0
 10
13.5801812194
 20
10.223091299
 30
0.0
  0
SPLINE
  5
372
100
AcDbEntity
  8
0
100
AcDbSpline
 62
7
  6
CONTINUOUS
 70
0
 71
3
 72
83
 73
79
 74
0
 42
0.0000001
 43
0.0000001
 44
0.0000000001
 40
0.0
 40
0.0
 40
0.0
 40
0.0
 40
0.0039358734
 40
0.00803481
 40
0.0123003146
 40
0.0167353658
 40
0.0213424718
 40
0.0261235689
 40
0.031079958
 40
0.0362125228
 40
0.0415217146
 40
0.0470076404
 40
0.0526700807
 40
0.0585084711
 40
0.0707091882
 40
0.0836008052
 40
0.0971703262
 40
0.111401741
 40
0.1262763962
 40
0.1417732918
 40
0.1578693195
 40
0.1745394685
 40
0.1917570078
 40
0.2094936396
 40
0.2277196365
 40
0.2464039653
 40
0.2655143982
 40
0.2850176265
 40
0.304879367
 40
0.3250644611
 40
0.3455369714
 40
0.3662602744
 40
0.387197152
 40
0.4083098871
 40
0.4509094519
 40
0.4937513526
 40
0.5365250485
 40
0.5789206323
 40
0.5998810059
 40
0.6206323824
 40
0.6411374808
 40
0.661359601
 40
0.6812627157
 40
0.7008115636
 40
0.7199717468
 40
0.738709835
 40
0.7569934674
 40
0.7747914586
 40
0.7920739124
 40
0.8088123457
 40
0.8249798261
 40
0.8405511307
 40
0.8555029127
 40
0.8698139005
 40
0.8834651354
 40
0.8964402622
 40
0.9087258936
 40
0.9203120731
 40
0.9258411364
 40
0.931193475
 40
0.9363691302
 40
0.9413684577
 40
0.9461922431
 40
0.9508417154
 40
0.9553185797
 40
0.9596251453
 40
0.9637643034
 40
0.9677396994
 40
0.9715557605
 40
0.9752178174
 40
0.978732245
 40
0.9821065173
 40
0.9853494095
 40
0.9884710414
 40
0.9914830174
 40
0.9943984797
 40
0.9972320901
 40
1.0
 40
1.0
 40
1.0
 40
1.0
 10
13.5801812194
 20
8.5265873734
 30
0.0
 10
13.5820877766
 20
8.5284289664
 30
0.0
 10
13.5858988865
 20
8.5322730519
 30
0.0
 10
13.5914983586
 20
8.5383805349
 30
0.0
 10
13.5970921266
 20
8.5449416658
 30
0.0
 10
13.6026772993
 20
8.5519530172
 30
0.0
 10
13.6082513859
 20
8.5594112918
 30
0.0
 10
13.6138117588
 20
8.5673130289
 30
0.0
 10
13.6193558881
 20
8.5756544392
 30
0.0
 10
13.6248810255
 20
8.5844315729
 30
0.0
 10
13.6303845831
 20
8.5936401989
 30
0.0
 10
13.6358639096
 20
8.6032759159
 30
0.0
 10
13.6413163895
 20
8.6133341324
 30
0.0
 10
13.6486549873
 20
8.6275106775
 30
0.0
 10
13.6577252138
 20
8.6462685933
 30
0.0
 10
13.6683073853
 20
8.6700634681
 30
0.0
 10
13.6787208547
 20
8.695417402
 30
0.0
 10
13.6889454397
 20
8.7222816206
 30
0.0
 10
13.6989613183
 20
8.750604715
 30
0.0
 10
13.7087490396
 20
8.7803322486
 30
0.0
 10
13.7182895943
 20
8.811407023
 30
0.0
 10
13.7275644536
 20
8.8437691641
 30
0.0
 10
13.7365556018
 20
8.8773562686
 30
0.0
 10
13.7452455764
 20
8.9121035333
 30
0.0
 10
13.7536175019
 20
8.9479438869
 30
0.0
 10
13.7616551206
 20
8.9848081205
 30
0.0
 10
13.7693428353
 20
9.0226250223
 30
0.0
 10
13.7766657322
 20
9.0613215211
 30
0.0
 10
13.7836096063
 20
9.1008228365
 30
0.0
 10
13.7901609893
 20
9.1410526237
 30
0.0
 10
13.7963071791
 20
9.1819331276
 30
0.0
 10
13.8020362449
 20
9.223385307
 30
0.0
 10
13.8073371341
 20
9.2653290816
 30
0.0
 10
13.813839292
 20
9.321967803
 30
0.0
 10
13.8208190132
 20
9.3933964164
 30
0.0
 10
13.827323165
 20
9.4795085493
 30
0.0
 10
13.8319297251
 20
9.565605464
 30
0.0
 10
13.8341664488
 20
9.6370534641
 30
0.0
 10
13.8349691324
 20
9.6936936085
 30
0.0
 10
13.8350768662
 20
9.7355964067
 30
0.0
 10
13.8346925594
 20
9.7770003433
 30
0.0
 10
13.8338169483
 20
9.8178254408
 30
0.0
 10
13.832451774
 20
9.857992764
 30
0.0
 10
13.8305997157
 20
9.8974246746
 30
0.0
 10
13.8282644009
 20
9.9360449594
 30
0.0
 10
13.8254504061
 20
9.9737789893
 30
0.0
 10
13.8221632426
 20
10.0105538656
 30
0.0
 10
13.8184093429
 20
10.04629856
 30
0.0
 10
13.8141960496
 20
10.0809440534
 30
0.0
 10
13.8095316017
 20
10.1144234748
 30
0.0
 10
13.8044251178
 20
10.1466722422
 30
0.0
 10
13.7988865905
 20
10.1776282024
 30
0.0
 10
13.7929268533
 20
10.2072317564
 30
0.0
 10
13.7865575551
 20
10.235425999
 30
0.0
 10
13.7797911321
 20
10.2621567964
 30
0.0
 10
13.7726407635
 20
10.2873730966
 30
0.0
 10
13.7651203403
 20
10.3110264612
 30
0.0
 10
13.7584572132
 20
10.3296782031
 30
0.0
 10
13.752935975
 20
10.3437674776
 30
0.0
 10
13.7487762444
 20
10.3537505455
 30
0.0
 10
13.7445351572
 20
10.3633103518
 30
0.0
 10
13.7402146207
 20
10.3724423262
 30
0.0
 10
13.7358167292
 20
10.3811421141
 30
0.0
 10
13.7313435865
 20
10.3894055876
 30
0.0
 10
13.7267972199
 20
10.3972287873
 30
0.0
 10
13.7221798483
 20
10.4046080501
 30
0.0
 10
13.7174934977
 20
10.4115398333
 30
0.0
 10
13.712740368
 20
10.4180208883
 30
0.0
 10
13.7079225705
 20
10.424048135
 30
0.0
 10
13.7030421817
 20
10.4296186583
 30
0.0
 10
13.6981013979
 20
10.4347298332
 30
0.0
 10
13.6931022026
 20
10.439379033
 30
0.0
 10
13.6880467913
 20
10.4435639579
 30
0.0
 10
13.6829372014
 20
10.447282286
 30
0.0
 10
13.6777756408
 20
10.4505318249
 30
0.0
 10
13.672564267
 20
10.4533106067
 30
0.0
 10
13.6673059547
 20
10.4556163666
 30
0.0
 10
13.6637352191
 20
10.4568493268
 30
0.0
 10
13.661948928
 20
10.4573824067
 30
0.0
  0
SPLINE
  5
373
100
AcDbEntity
  8
0
100
AcDbSpline
 62
7
  6
CONTINUOUS
 70
0
 71
3
 72
15
 73
11
 74
0
 42
0.0000001
 43
0.0000001
 44
0.0000000001
 40
0.0
 40
0.0
 40
0.0
 40
0.0
 40
0.1462617486
 40
0.2854461288
 40
0.4179311608
 40
0.5441957336
 40
0.6648128497
 40
0.7804529817
 40
0.8918893212
 40
1.0
 40
1.0
 40
1.0
 40
1.0
 10
13.5801812194
 20
8.5265873734
 30
0.0
 10
13.5779845737
 20
8.5244655764
 30
0.0
 10
13.5735933094
 20
8.5204304493
 30
0.0
 10
13.566841137
 20
8.5148942291
 30
0.0
 10
13.5600951927
 20
8.5100327803
 30
0.0
 10
13.5533599282
 20
8.5058501353
 30
0.0
 10
13.5466391875
 20
8.5023499657
 30
0.0
 10
13.5399368689
 20
8.4995356046
 30
0.0
 10
13.5332582615
 20
8.4974108934
 30
0.0
 10
13.528768016
 20
8.4964440871
 30
0.0
 10
13.5265397513
 20
8.4960823574
 30
0.0
  0
SPLINE
  5
374
100
AcDbEntity
  8
0
100
AcDbSpline
 62
7
  6
CONTINUOUS
 70
0
 71
3
 72
57
 73
53
 74
0
 42
0.0000001
 43
0.0000001
 44
0.0000000001
 40
0.0
 40
0.0
 40
0.0
 40
0.0
 40
0.0026707129
 40
0.0053521983
 40
0.0080550836
 40
0.0107897235
 40
0.0135660894
 40
0.0163936513
 40
0.0222352009
 40
0.0252673712
 40
0.0283826313
 40
0.03488576
 40
0.0417902241
 40
0.0491309307
 40
0.0569350589
 40
0.0652232609
 40
0.0740107557
 40
0.0833081307
 40
0.0931221717
 40
0.103456437
 40
0.1143116873
 40
0.1256863743
 40
0.1375768696
 40
0.1499777378
 40
0.1628820011
 40
0.1762812095
 40
0.1901656619
 40
0.2045245165
 40
0.2193458268
 40
0.2346167225
 40
0.250323421
 40
0.2664512942
 40
0.2829849887
 40
0.2999083976
 40
0.3348560741
 40
0.3711538615
 40
0.4086519992
 40
0.4471933788
 40
0.4866146812
 40
0.526747472
 40
0.5674192422
 40
0.6084544238
 40
0.649675406
 40
0.6909035415
 40
0.7319601408
 40
0.7726674747
 40
0.8128497794
 40
0.8523342587
 40
0.8909521024
 40
0.9285396043
 40
0.9649388605
 40
1.0
 40
1.0
 40
1.0
 40
1.0
 10
11.1133653872
 20
11.8761644439
 30
0.0
 10
11.1133653935
 20
11.8775308774
 30
0.0
 10
11.1132750413
 20
11.8802701086
 30
0.0
 10
11.1128686948
 20
11.8843741024
 30
0.0
 10
11.1121917203
 20
11.8884754966
 30
0.0
 10
11.1112444544
 20
11.8925726691
 30
0.0
 10
11.1100271489
 20
11.8966645012
 30
0.0
 10
11.1080237027
 20
11.9021700197
 30
0.0
 10
11.1054875212
 20
11.9076090558
 30
0.0
 10
11.10247076
 20
11.9129519728
 30
0.0
 10
11.0990112667
 20
11.9184252957
 30
0.0
 10
11.0939884679
 20
11.9252402807
 30
0.0
 10
11.0869929035
 20
11.9332386876
 30
0.0
 10
11.078953165
 20
11.9411655558
 30
0.0
 10
11.0698791435
 20
11.9490129795
 30
0.0
 10
11.0597809793
 20
11.9567734608
 30
0.0
 10
11.0486699266
 20
11.9644388856
 30
0.0
 10
11.0365584152
 20
11.9720011513
 30
0.0
 10
11.0234600047
 20
11.9794519305
 30
0.0
 10
11.0093894496
 20
11.9867828562
 30
0.0
 10
10.9943627329
 20
11.9939856828
 30
0.0
 10
10.9783969561
 20
12.0010521122
 30
0.0
 10
10.9615103937
 20
12.0079740207
 30
0.0
 10
10.9437224374
 20
12.0147434365
 30
0.0
 10
10.9250535399
 20
12.0213524466
 30
0.0
 10
10.9055252398
 20
12.0277934164
 30
0.0
 10
10.8851600862
 20
12.0340588436
 30
0.0
 10
10.8639816174
 20
12.0401413927
 30
0.0
 10
10.8420143525
 20
12.046034028
 30
0.0
 10
10.8192837273
 20
12.0517298425
 30
0.0
 10
10.7958160804
 20
12.0572221967
 30
0.0
 10
10.7716386315
 20
12.0625047087
 30
0.0
 10
10.7467793849
 20
12.0675712192
 30
0.0
 10
10.7123945771
 20
12.0741004908
 30
0.0
 10
10.6679163832
 20
12.0816563963
 30
0.0
 10
10.6128563436
 20
12.0896812377
 30
0.0
 10
10.5558087303
 20
12.0967201459
 30
0.0
 10
10.4970383185
 20
12.1027401029
 30
0.0
 10
10.4368176126
 20
12.1077128183
 30
0.0
 10
10.3754260456
 20
12.1116149476
 30
0.0
 10
10.3131485158
 20
12.1144281615
 30
0.0
 10
10.2502740892
 20
12.1161392645
 30
0.0
 10
10.1870946293
 20
12.1167402401
 30
0.0
 10
10.1239034287
 20
12.1162282682
 30
0.0
 10
10.0609938347
 20
12.1146057361
 30
0.0
 10
9.9986578733
 20
12.1118802619
 30
0.0
 10
9.9371848841
 20
12.1080646421
 30
0.0
 10
9.8768601504
 20
12.1031767801
 30
0.0
 10
9.8179635873
 20
12.0972396196
 30
0.0
 10
9.7607683462
 20
12.0902810392
 30
0.0
 10
9.7055399152
 20
12.0823338452
 30
0.0
 10
9.669478471
 20
12.0762799791
 30
0.0
 10
9.6518274383
 20
12.0730811357
 30
0.0
  0
SPLINE
  5
375
100
AcDbEntity
  8
0
100
AcDbSpline
 62
7
  6
CONTINUOUS
 70
0
 71
3
 72
23
 73
19
 74
0
 42
0.0000001
 43
0.0000001
 44
0.0000000001
 40
0.0
 40
0.0
 40
0.0
 40
0.0
 40
0.0781366256
 40
0.1532314921
 40
0.2254044528
 40
0.2947999486
 40
0.3615917484
 40
0.4259788933
 40
0.4881872746
 40
0.5484705101
 40
0.6071104664
 40
0.6644173581
 40
0.7207256504
 40
0.7763896105
 40
0.8317771081
 40
0.8872618933
 40
0.9432156738
 40
1.0
 40
1.0
 40
1.0
 40
1.0
 10
13.5801812194
 20
8.7321846977
 30
0.0
 10
13.5787949453
 20
8.7308456597
 30
0.0
 10
13.5760232136
 20
8.7282739039
 30
0.0
 10
13.5717823989
 20
8.724675283
 30
0.0
 10
13.567544392
 20
8.7214155846
 30
0.0
 10
13.563311104
 20
8.7184966647
 30
0.0
 10
13.559084312
 20
8.7159198558
 30
0.0
 10
13.5548656199
 20
8.7136865373
 30
0.0
 10
13.5506567563
 20
8.7117979391
 30
0.0
 10
13.54645954
 20
8.710255218
 30
0.0
 10
13.5422758242
 20
8.7090596468
 30
0.0
 10
13.5381076748
 20
8.7082121101
 30
0.0
 10
13.5339572386
 20
8.7077134396
 30
0.0
 10
13.5298268164
 20
8.707564296
 30
0.0
 10
13.5257188487
 20
8.7077647916
 30
0.0
 10
13.5216356998
 20
8.7083149917
 30
0.0
 10
13.5175801046
 20
8.7092143282
 30
0.0
 10
13.5149204563
 20
8.7100386076
 30
0.0
 10
13.5135998795
 20
8.7105055056
 30
0.0
  0
SPLINE
  5
376
100
AcDbEntity
  8
0
100
AcDbSpline
 62
7
  6
CONTINUOUS
 70
0
 71
3
 72
39
 73
35
 74
0
 42
0.0000001
 43
0.0000001
 44
0.0000000001
 40
0.0
 40
0.0
 40
0.0
 40
0.0
 40
0.0311159723
 40
0.0620233248
 40
0.0927351404
 40
0.1232711776
 40
0.1536587326
 40
0.1839312111
 40
0.2141268393
 40
0.2442870992
 40
0.2744549754
 40
0.3046731314
 40
0.3349820899
 40
0.3654185435
 40
0.3960138648
 40
0.4267928822
 40
0.4577729963
 40
0.4889636214
 40
0.5203659689
 40
0.551973178
 40
0.5837707188
 40
0.6157370639
 40
0.6478445901
 40
0.6800606405
 40
0.7123487311
 40
0.7446698622
 40
0.7769838843
 40
0.8092508939
 40
0.8414326243
 40
0.8734937998
 40
0.9054034123
 40
0.9371359058
 40
0.9686717941
 40
1.0
 40
1.0
 40
1.0
 40
1.0
 10
10.0785733008
 20
7.158461553
 30
0.0
 10
10.0785733008
 20
7.1505260728
 30
0.0
 10
10.0777985827
 20
7.1346968364
 30
0.0
 10
10.0742949347
 20
7.1112694558
 30
0.0
 10
10.0684866668
 20
7.0884540586
 30
0.0
 10
10.0604287009
 20
7.0664738736
 30
0.0
 10
10.050198209
 20
7.045540679
 30
0.0
 10
10.0378933833
 20
7.0258572866
 30
0.0
 10
10.0236327143
 20
7.00761432
 30
0.0
 10
10.0075540145
 20
6.9909884343
 30
0.0
 10
9.9898127902
 20
6.9761406033
 30
0.0
 10
9.970580806
 20
6.9632144342
 30
0.0
 10
9.95004439
 20
6.9523345599
 30
0.0
 10
9.9284023421
 20
6.9436056944
 30
0.0
 10
9.9058640351
 20
6.9371114982
 30
0.0
 10
9.8826472956
 20
6.9329137282
 30
0.0
 10
9.8589761766
 20
6.9310520208
 30
0.0
 10
9.8350788489
 20
6.9315433777
 30
0.0
 10
9.8111853627
 20
6.9343820604
 30
0.0
 10
9.7875254928
 20
6.9395399868
 30
0.0
 10
9.7643265634
 20
6.9469667921
 30
0.0
 10
9.7418112792
 20
6.9565903996
 30
0.0
 10
9.7201957377
 20
6.9683179391
 30
0.0
 10
9.699687303
 20
6.9820363779
 30
0.0
 10
9.6804826719
 20
6.9976137077
 30
0.0
 10
9.6627661575
 20
7.0149003285
 30
0.0
 10
9.646707768
 20
7.0337302277
 30
0.0
 10
9.6324616846
 20
7.0539226897
 30
0.0
 10
9.6201649334
 20
7.0752840279
 30
0.0
 10
9.6099358348
 20
7.0976093316
 30
0.0
 10
9.6018730231
 20
7.1206841679
 30
0.0
 10
9.5960546762
 20
7.1442878374
 30
0.0
 10
9.5925371772
 20
7.1681906572
 30
0.0
 10
9.5917466555
 20
7.1842334896
 30
0.0
 10
9.5917466555
 20
7.1922230955
 30
0.0
  0
SPLINE
  5
377
100
AcDbEntity
  8
0
100
AcDbSpline
 62
7
  6
CONTINUOUS
 70
0
 71
3
 72
39
 73
35
 74
0
 42
0.0000001
 43
0.0000001
 44
0.0000000001
 40
0.0
 40
0.0
 40
0.0
 40
0.0
 40
0.0311159723
 40
0.0620233248
 40
0.0927351404
 40
0.1232711776
 40
0.1536587326
 40
0.1839312111
 40
0.2141268393
 40
0.2442870992
 40
0.2744549754
 40
0.3046731314
 40
0.3349820899
 40
0.3654185435
 40
0.3960138648
 40
0.4267928822
 40
0.4577729963
 40
0.4889636214
 40
0.5203659689
 40
0.551973178
 40
0.5837707188
 40
0.6157370639
 40
0.6478445901
 40
0.6800606405
 40
0.7123487311
 40
0.7446698622
 40
0.7769838843
 40
0.8092508939
 40
0.8414326243
 40
0.8734937998
 40
0.9054034123
 40
0.9371359058
 40
0.9686717941
 40
1.0
 40
1.0
 40
1.0
 40
1.0
 10
9.5917466555
 20
7.1922230955
 30
0.0
 10
9.5917466555
 20
7.2001585757
 30
0.0
 10
9.5925213736
 20
7.2159878122
 30
0.0
 10
9.5960250215
 20
7.2394151928
 30
0.0
 10
9.6018332894
 20
7.2622305899
 30
0.0
 10
9.6098912553
 20
7.2842107749
 30
0.0
 10
9.6201217472
 20
7.3051439696
 30
0.0
 10
9.6324265729
 20
7.324827362
 30
0.0
 10
9.6466872419
 20
7.3430703285
 30
0.0
 10
9.6627659417
 20
7.3596962143
 30
0.0
 10
9.680507166
 20
7.3745440452
 30
0.0
 10
9.6997391502
 20
7.3874702144
 30
0.0
 10
9.7202755662
 20
7.3983500887
 30
0.0
 10
9.7419176141
 20
7.4070789542
 30
0.0
 10
9.7644559211
 20
7.4135731503
 30
0.0
 10
9.7876726606
 20
7.4177709204
 30
0.0
 10
9.8113437796
 20
7.4196326277
 30
0.0
 10
9.8352411073
 20
7.4191412708
 30
0.0
 10
9.8591345935
 20
7.4163025881
 30
0.0
 10
9.8827944634
 20
7.4111446618
 30
0.0
 10
9.9059933929
 20
7.4037178564
 30
0.0
 10
9.928508677
 20
7.3940942489
 30
0.0
 10
9.9501242185
 20
7.3823667094
 30
0.0
 10
9.9706326532
 20
7.3686482706
 30
0.0
 10
9.9898372843
 20
7.3530709409
 30
0.0
 10
10.0075537987
 20
7.3357843201
 30
0.0
 10
10.0236121882
 20
7.3169544208
 30
0.0
 10
10.0378582716
 20
7.2967619588
 30
0.0
 10
10.0501550228
 20
7.2754006207
 30
0.0
 10
10.0603841215
 20
7.2530753169
 30
0.0
 10
10.0684469331
 20
7.2300004807
 30
0.0
 10
10.07426528
 20
7.2063968111
 30
0.0
 10
10.077782779
 20
7.1824939914
 30
0.0
 10
10.0785733008
 20
7.1664511589
 30
0.0
 10
10.0785733008
 20
7.158461553
 30
0.0
  0
SPLINE
  5
378
100
AcDbEntity
  8
0
100
AcDbSpline
 62
7
  6
CONTINUOUS
 70
0
 71
3
 72
19
 73
15
 74
0
 42
0.0000001
 43
0.0000001
 44
0.0000000001
 40
0.0
 40
0.0
 40
0.0
 40
0.0
 40
0.1504613852
 40
0.2916984919
 40
0.4244192036
 40
0.4878835354
 40
0.5495802287
 40
0.668227132
 40
0.7255606127
 40
0.7817999309
 40
0.8371467096
 40
0.8918136625
 40
0.9460222505
 40
1.0
 40
1.0
 40
1.0
 40
1.0
 10
13.6079998855
 20
8.5246581424
 30
0.0
 10
13.605216338
 20
8.5219694418
 30
0.0
 10
13.5996531007
 20
8.5169246845
 30
0.0
 10
13.5910389473
 20
8.5102019858
 30
0.0
 10
13.5837629658
 20
8.5054472972
 30
0.0
 10
13.5779608117
 20
8.5022275593
 30
0.0
 10
13.5723298439
 20
8.499463311
 30
0.0
 10
13.5666329305
 20
8.4972038176
 30
0.0
 10
13.5609039816
 20
8.4955034994
 30
0.0
 10
13.5566681517
 20
8.4945234093
 30
0.0
 10
13.5524464142
 20
8.4938248727
 30
0.0
 10
13.5482398992
 20
8.4934081527
 30
0.0
 10
13.5440502975
 20
8.4932734427
 30
0.0
 10
13.541266845
 20
8.4933718767
 30
0.0
 10
13.5398817996
 20
8.4934679236
 30
0.0
  0
SPLINE
  5
379
100
AcDbEntity
  8
0
100
AcDbSpline
 62
7
  6
CONTINUOUS
 70
0
 71
3
 72
15
 73
11
 74
0
 42
0.0000001
 43
0.0000001
 44
0.0000000001
 40
0.0
 40
0.0
 40
0.0
 40
0.0
 40
0.1273483281
 40
0.2538605602
 40
0.3795878981
 40
0.5046051042
 40
0.6290174419
 40
0.7529533761
 40
0.876560577
 40
1.0
 40
1.0
 40
1.0
 40
1.0
 10
11.7781198613
 20
11.0612640889
 30
0.0
 10
11.7781198613
 20
11.0668908965
 30
0.0
 10
11.7786571081
 20
11.0781153486
 30
0.0
 10
11.7810867624
 20
11.094736145
 30
0.0
 10
11.7851155326
 20
11.11093932
 30
0.0
 10
11.7907070307
 20
11.1265733437
 30
0.0
 10
11.7978099426
 20
11.1414940396
 30
0.0
 10
11.8063595537
 20
11.1555636138
 30
0.0
 10
11.8162754544
 20
11.1686502459
 30
0.0
 10
11.8237416275
 20
11.1766442947
 30
0.0
 10
11.8276645134
 20
11.1804335055
 30
0.0
  0
SPLINE
  5
37A
100
AcDbEntity
  8
0
100
AcDbSpline
 62
7
  6
CONTINUOUS
 70
0
 71
3
 72
84
 73
80
 74
0
 42
0.0000001
 43
0.0000001
 44
0.0000000001
 40
0.0
 40
0.0
 40
0.0
 40
0.0
 40
0.0040523024
 40
0.0082800365
 40
0.0126870732
 40
0.0172766515
 40
0.0220514698
 40
0.0270135988
 40
0.0321643709
 40
0.0375046322
 40
0.0430347556
 40
0.0487546958
 40
0.0607615469
 40
0.0735185976
 40
0.0870139818
 40
0.1012319395
 40
0.1161533433
 40
0.1317561147
 40
0.1480155447
 40
0.164904579
 40
0.1823940565
 40
0.2004529073
 40
0.2190483267
 40
0.2381459225
 40
0.2577098679
 40
0.2777030434
 40
0.2980871638
 40
0.3188228992
 40
0.339869988
 40
0.361187357
 40
0.3827332403
 40
0.4263399338
 40
0.4703470372
 40
0.514406693
 40
0.5581705186
 40
0.6012931043
 40
0.6225080811
 40
0.6434363725
 40
0.6640372137
 40
0.6842707018
 40
0.7040979071
 40
0.7234809915
 40
0.7423833314
 40
0.7607696527
 40
0.7786061799
 40
0.795860777
 40
0.8125031086
 40
0.828504823
 40
0.8438397666
 40
0.8584842447
 40
0.8724173068
 40
0.8856211055
 40
0.8980813535
 40
0.9040295767
 40
0.9097885235
 40
0.9153576844
 40
0.9207369498
 40
0.9259266281
 40
0.9309274401
 40
0.9357406804
 40
0.9403681583
 40
0.9448123623
 40
0.9490765156
 40
0.9531646318
 40
0.9570817241
 40
0.9608338169
 40
0.964428172
 40
0.9678734011
 40
0.9711795873
 40
0.9743584959
 40
0.9774235976
 40
0.9803901945
 40
0.983275368
 40
0.9860978447
 40
0.9888777731
 40
0.9916363107
 40
0.9943951591
 40
0.9971760071
 40
1.0
 40
1.0
 40
1.0
 40
1.0
 10
13.5801812194
 20
8.7321846977
 30
0.0
 10
13.5817435331
 20
8.733693777
 30
0.0
 10
13.5848663612
 20
8.7368498133
 30
0.0
 10
13.5894503022
 20
8.7418754538
 30
0.0
 10
13.5940291581
 20
8.7472887481
 30
0.0
 10
13.5986003228
 20
8.7530866174
 30
0.0
 10
13.6031615934
 20
8.7592660711
 30
0.0
 10
13.6077106121
 20
8.7658240006
 30
0.0
 10
13.612245139
 20
8.7727569788
 30
0.0
 10
13.6167627254
 20
8.7800614189
 30
0.0
 10
13.6212610686
 20
8.787733502
 30
0.0
 10
13.6273283894
 20
8.7986246016
 30
0.0
 10
13.6348314037
 20
8.8131453188
 30
0.0
 10
13.6435814271
 20
8.8316970074
 30
0.0
 10
13.6521992837
 20
8.851608571
 30
0.0
 10
13.6606667785
 20
8.8728383152
 30
0.0
 10
13.6689660211
 20
8.8953420592
 30
0.0
 10
13.6770794276
 20
8.9190727002
 30
0.0
 10
13.6849898094
 20
8.9439804881
 30
0.0
 10
13.6926804003
 20
8.9700131107
 30
0.0
 10
13.7001348956
 20
8.9971158414
 30
0.0
 10
13.7073374919
 20
9.0252316622
 30
0.0
 10
13.714272917
 20
9.0543013871
 30
0.0
 10
13.720926479
 20
9.0842637854
 30
0.0
 10
13.7272840887
 20
9.1150557204
 30
0.0
 10
13.7333322837
 20
9.1466122942
 30
0.0
 10
13.7390582578
 20
9.178866987
 30
0.0
 10
13.7444498887
 20
9.2117518006
 30
0.0
 10
13.7494957576
 20
9.2451973775
 30
0.0
 10
13.7541852418
 20
9.2791332336
 30
0.0
 10
13.7599722045
 20
9.3251214092
 30
0.0
 10
13.7662377137
 20
9.3833030533
 30
0.0
 10
13.7721701325
 20
9.4536393893
 30
0.0
 10
13.7764956436
 20
9.5241774622
 30
0.0
 10
13.7791778114
 20
9.594322469
 30
0.0
 10
13.780029868
 20
9.6522671926
 30
0.0
 10
13.7798593273
 20
9.6979723565
 30
0.0
 10
13.7793115246
 20
9.7316011521
 30
0.0
 10
13.7783444829
 20
9.7646941801
 30
0.0
 10
13.7769602469
 20
9.7971817145
 30
0.0
 10
13.7751617972
 20
9.8289952453
 30
0.0
 10
13.7729529792
 20
9.8600677094
 30
0.0
 10
13.7703385119
 20
9.8903336105
 30
0.0
 10
13.7673239758
 20
9.9197291728
 30
0.0
 10
13.7639158185
 20
9.9481924823
 30
0.0
 10
13.7601213232
 20
9.9756636202
 30
0.0
 10
13.7559485955
 20
10.0020847892
 30
0.0
 10
13.7514065452
 20
10.0274004409
 30
0.0
 10
13.7465048641
 20
10.0515574247
 30
0.0
 10
13.7412540195
 20
10.074505084
 30
0.0
 10
13.735665213
 20
10.0961955209
 30
0.0
 10
13.7297503097
 20
10.1165832324
 30
0.0
 10
13.7244816152
 20
10.1326925218
 30
0.0
 10
13.7200989733
 20
10.1448837376
 30
0.0
 10
13.7167892733
 20
10.1535333625
 30
0.0
 10
13.7134076218
 20
10.1618267089
 30
0.0
 10
13.7099557547
 20
10.1697594596
 30
0.0
 10
13.706435527
 20
10.1773274924
 30
0.0
 10
13.7028486769
 20
10.1845268418
 30
0.0
 10
13.6991971508
 20
10.1913538065
 30
0.0
 10
13.6954827477
 20
10.1978048277
 30
0.0
 10
13.691707368
 20
10.2038765767
 30
0.0
 10
13.6878729459
 20
10.2095659486
 30
0.0
 10
13.6839812812
 20
10.214869955
 30
0.0
 10
13.6800343668
 20
10.2197859187
 30
0.0
 10
13.6760339957
 20
10.2243112282
 30
0.0
 10
13.6719820557
 20
10.2284435015
 30
0.0
 10
13.6678804293
 20
10.2321805314
 30
0.0
 10
13.6637308734
 20
10.2355200983
 30
0.0
 10
13.6595353548
 20
10.2384602875
 30
0.0
 10
13.655295717
 20
10.2409990484
 30
0.0
 10
13.6510140419
 20
10.2431345348
 30
0.0
 10
13.6466925746
 20
10.2448650143
 30
0.0
 10
13.6423337544
 20
10.246188733
 30
0.0
 10
13.637940391
 20
10.2471045054
 30
0.0
 10
13.6335154946
 20
10.2476112178
 30
0.0
 10
13.6290621678
 20
10.2477084423
 30
0.0
 10
13.6245840384
 20
10.2473963464
 30
0.0
 10
13.6216130882
 20
10.2469202885
 30
0.0
 10
13.620129945
 20
10.2466175446
 30
0.0
  0
SPLINE
  5
37B
100
AcDbEntity
  8
0
100
AcDbSpline
 62
7
  6
CONTINUOUS
 70
0
 71
3
 72
61
 73
57
 74
0
 42
0.0000001
 43
0.0000001
 44
0.0000000001
 40
0.0
 40
0.0
 40
0.0
 40
0.0
 40
0.0076504083
 40
0.0158887481
 40
0.0247334832
 40
0.0341967594
 40
0.0442843845
 40
0.0549974004
 40
0.066332922
 40
0.0782846904
 40
0.0908435482
 40
0.1039978622
 40
0.1177338329
 40
0.132035696
 40
0.1468859296
 40
0.1622654568
 40
0.1781537701
 40
0.1945290207
 40
0.2113681698
 40
0.2286470901
 40
0.2463406222
 40
0.2644226675
 40
0.2828662914
 40
0.3016437822
 40
0.3400853456
 40
0.3795133964
 40
0.4196851846
 40
0.460352
 40
0.5012611787
 40
0.5421581459
 40
0.5827884234
 40
0.6228996429
 40
0.6622435634
 40
0.7005781397
 40
0.7192938205
 40
0.7376702749
 40
0.7556799305
 40
0.7732959919
 40
0.7904925453
 40
0.8072446341
 40
0.8235283156
 40
0.8393207639
 40
0.8546004039
 40
0.8693469842
 40
0.8835416934
 40
0.8971673498
 40
0.9102085627
 40
0.9226519045
 40
0.9344861839
 40
0.9457027986
 40
0.9562960846
 40
0.9662638201
 40
0.9756079381
 40
0.9843353756
 40
0.9924591764
 40
1.0
 40
1.0
 40
1.0
 40
1.0
 10
13.4584745581
 20
8.773236285
 30
0.0
 10
13.4611690099
 20
8.7758389257
 30
0.0
 10
13.4665465741
 20
8.7814730191
 30
0.0
 10
13.4743050217
 20
8.7907823268
 30
0.0
 10
13.4820358707
 20
8.801240659
 30
0.0
 10
13.4897267164
 20
8.812830668
 30
0.0
 10
13.497365783
 20
8.8255343938
 30
0.0
 10
13.5049407654
 20
8.8393313975
 30
0.0
 10
13.5124393581
 20
8.8541994351
 30
0.0
 10
13.5198492073
 20
8.8701143571
 30
0.0
 10
13.5271580933
 20
8.8870501397
 30
0.0
 10
13.534353893
 20
8.9049789969
 30
0.0
 10
13.5414246223
 20
8.9238714453
 30
0.0
 10
13.5483585132
 20
8.9436963325
 30
0.0
 10
13.5551440308
 20
8.9644209083
 30
0.0
 10
13.5617698591
 20
8.9860109119
 30
0.0
 10
13.568224937
 20
9.0084306213
 30
0.0
 10
13.5744985264
 20
9.0316428989
 30
0.0
 10
13.5805801752
 20
9.0556092807
 30
0.0
 10
13.5864597321
 20
9.0802900471
 30
0.0
 10
13.5921274083
 20
9.1056442747
 30
0.0
 10
13.597573767
 20
9.1316298963
 30
0.0
 10
13.6027897744
 20
9.1582038406
 30
0.0
 10
13.6094777045
 20
9.194645717
 30
0.0
 10
13.617183729
 20
9.2413439686
 30
0.0
 10
13.625314995
 20
9.2985749706
 30
0.0
 10
13.6323464732
 20
9.3570490632
 30
0.0
 10
13.6382312289
 20
9.4163783231
 30
0.0
 10
13.6429300911
 20
9.476169403
 30
0.0
 10
13.6464118145
 20
9.5360257714
 30
0.0
 10
13.6486533817
 20
9.5955504555
 30
0.0
 10
13.6496401573
 20
9.654348791
 30
0.0
 10
13.6493658034
 20
9.7120306755
 30
0.0
 10
13.6480784258
 20
9.7592191032
 30
0.0
 10
13.6464039681
 20
9.79611608
 30
0.0
 10
13.6448465694
 20
9.8230535128
 30
0.0
 10
13.6429803624
 20
9.8494315578
 30
0.0
 10
13.6408084216
 20
9.8752064866
 30
0.0
 10
13.6383344045
 20
9.900335537
 30
0.0
 10
13.6355624717
 20
9.9247770444
 30
0.0
 10
13.632497264
 20
9.9484904848
 30
0.0
 10
13.6291439035
 20
9.9714365576
 30
0.0
 10
13.6255080336
 20
9.9935772633
 30
0.0
 10
13.6215957541
 20
10.0148759576
 30
0.0
 10
13.6174136008
 20
10.0352974106
 30
0.0
 10
13.6129685869
 20
10.0548078942
 30
0.0
 10
13.6082681701
 20
10.0733752444
 30
0.0
 10
13.6033201974
 20
10.0909689049
 30
0.0
 10
13.5981328953
 20
10.1075600045
 30
0.0
 10
13.5927148955
 20
10.1231214515
 30
0.0
 10
13.5870751326
 20
10.137627963
 30
0.0
 10
13.5812227375
 20
10.151056157
 30
0.0
 10
13.5751671262
 20
10.1633845254
 30
0.0
 10
13.5689174793
 20
10.1745939171
 30
0.0
 10
13.5624837291
 20
10.1846660026
 30
0.0
 10
13.5579117801
 20
10.1908358236
 30
0.0
 10
13.5555912494
 20
10.1937080673
 30
0.0
  0
SPLINE
  5
37C
100
AcDbEntity
  8
0
100
AcDbSpline
 62
7
  6
CONTINUOUS
 70
0
 71
3
 72
64
 73
60
 74
0
 42
0.0000001
 43
0.0000001
 44
0.0000000001
 40
0.0
 40
0.0
 40
0.0
 40
0.0
 40
0.0059877716
 40
0.0088872947
 40
0.0117371525
 40
0.0145487526
 40
0.0173340217
 40
0.0201052693
 40
0.0228750046
 40
0.0256557622
 40
0.028459911
 40
0.0312994853
 40
0.0341860395
 40
0.0371305005
 40
0.0401430994
 40
0.0464074947
 40
0.0530481713
 40
0.0601190234
 40
0.0676627181
 40
0.0757121387
 40
0.084291977
 40
0.0934201303
 40
0.103108808
 40
0.113365557
 40
0.1241940368
 40
0.1355945592
 40
0.1475646434
 40
0.1600994051
 40
0.173191796
 40
0.1868329232
 40
0.201012254
 40
0.2157177186
 40
0.2309359173
 40
0.2466522397
 40
0.2628509064
 40
0.279515121
 40
0.2966271473
 40
0.3141683259
 40
0.3321191957
 40
0.3504595498
 40
0.3691684443
 40
0.3882243005
 40
0.4272870286
 40
0.4674645578
 40
0.5085656431
 40
0.55039304
 40
0.5927448398
 40
0.6354158207
 40
0.6781987545
 40
0.7208857091
 40
0.7632693554
 40
0.8051442655
 40
0.8463082399
 40
0.8865636248
 40
0.9257186772
 40
0.944825897
 40
0.9635893934
 40
0.9819882896
 40
1.0
 40
1.0
 40
1.0
 40
1.0
 10
11.1138106254
 20
11.8641414491
 30
0.0
 10
11.1152199513
 20
11.8669641762
 30
0.0
 10
11.1170823552
 20
11.8712768256
 30
0.0
 10
11.1189872566
 20
11.877163833
 30
0.0
 10
11.1200960487
 20
11.88153984
 30
0.0
 10
11.1208989816
 20
11.8859208551
 30
0.0
 10
11.1213956724
 20
11.8903055414
 30
0.0
 10
11.1215859002
 20
11.8946921244
 30
0.0
 10
11.121469557
 20
11.899078923
 30
0.0
 10
11.1210466127
 20
11.9034642076
 30
0.0
 10
11.1203174164
 20
11.9078462906
 30
0.0
 10
11.1192823535
 20
11.9122235416
 30
0.0
 10
11.1179418974
 20
11.9165943193
 30
0.0
 10
11.1162967431
 20
11.9209572408
 30
0.0
 10
11.1136641391
 20
11.9268377126
 30
0.0
 10
11.1095732035
 20
11.9341806902
 30
0.0
 10
11.1035237536
 20
11.9428132056
 30
0.0
 10
11.0962813323
 20
11.951373805
 30
0.0
 10
11.0878570636
 20
11.9598533242
 30
0.0
 10
11.0782620951
 20
11.9682436703
 30
0.0
 10
11.0675085933
 20
11.9765357763
 30
0.0
 10
11.0556098997
 20
11.9847202109
 30
0.0
 10
11.0425808636
 20
11.9927873092
 30
0.0
 10
11.0284377881
 20
12.0007271956
 30
0.0
 10
11.0131984807
 20
12.0085298869
 30
0.0
 10
10.9968823082
 20
12.0161855166
 30
0.0
 10
10.9795100925
 20
12.0236842582
 30
0.0
 10
10.9611040898
 20
12.031016381
 30
0.0
 10
10.9416879983
 20
12.0381724093
 30
0.0
 10
10.9212868655
 20
12.0451430256
 30
0.0
 10
10.8999270537
 20
12.0519190995
 30
0.0
 10
10.8776362335
 20
12.0584918187
 30
0.0
 10
10.8544433041
 20
12.0648525912
 30
0.0
 10
10.8303783549
 20
12.0709930648
 30
0.0
 10
10.8054726479
 20
12.0769052421
 30
0.0
 10
10.7797585473
 20
12.0825813889
 30
0.0
 10
10.7532694763
 20
12.088014048
 30
0.0
 10
10.726039892
 20
12.0931961445
 30
0.0
 10
10.6981052161
 20
12.0981209028
 30
0.0
 10
10.6695018018
 20
12.1027818417
 30
0.0
 10
10.6402668452
 20
12.1071729369
 30
0.0
 10
10.6001650386
 20
12.112705704
 30
0.0
 10
10.5487376528
 20
12.1188877471
 30
0.0
 10
10.4856284033
 20
12.1250886599
 30
0.0
 10
10.4209523978
 20
12.1300989033
 30
0.0
 10
10.3550463312
 20
12.1338921105
 30
0.0
 10
10.2882530398
 20
12.1364483071
 30
0.0
 10
10.2209201273
 20
12.1377540346
 30
0.0
 10
10.1533980068
 20
12.1378023918
 30
0.0
 10
10.086038096
 20
12.1365931499
 30
0.0
 10
10.019190953
 20
12.1341326767
 30
0.0
 10
9.9532044638
 20
12.1304338996
 30
0.0
 10
9.8884218852
 20
12.1255163455
 30
0.0
 10
9.8251804619
 20
12.119405874
 30
0.0
 10
9.7736266818
 20
12.1132981268
 30
0.0
 10
9.7334114451
 20
12.1078236222
 30
0.0
 10
9.7040825766
 20
12.1034745113
 30
0.0
 10
9.6753796963
 20
12.0988546339
 30
0.0
 10
9.6564787006
 20
12.0955620583
 30
0.0
 10
9.6471403303
 20
12.0938696936
 30
0.0
  0
SPLINE
  5
37D
100
AcDbEntity
  8
0
100
AcDbSpline
 62
7
  6
CONTINUOUS
 70
0
 71
3
 72
57
 73
53
 74
0
 42
0.0000001
 43
0.0000001
 44
0.0000000001
 40
0.0
 40
0.0
 40
0.0
 40
0.0
 40
0.0085771345
 40
0.0177104248
 40
0.0274046952
 40
0.0376610368
 40
0.0484774792
 40
0.059849285
 40
0.0717694108
 40
0.084228835
 40
0.097216692
 40
0.110720545
 40
0.12472655
 40
0.1392195069
 40
0.1541830599
 40
0.169599776
 40
0.1854511736
 40
0.2017178821
 40
0.218379675
 40
0.2354155028
 40
0.2705209706
 40
0.3068531614
 40
0.3442211937
 40
0.3824267248
 40
0.421265495
 40
0.4605288491
 40
0.5000052027
 40
0.5394815072
 40
0.5787447176
 40
0.6175832448
 40
0.655788435
 40
0.6931560429
 40
0.7294877184
 40
0.7645925747
 40
0.7816280801
 40
0.7982895129
 40
0.8145558496
 40
0.8304068691
 40
0.8458231669
 40
0.8607862998
 40
0.875278829
 40
0.8892843662
 40
0.90278776
 40
0.9157751476
 40
0.9282340665
 40
0.9401537053
 40
0.9515250102
 40
0.962340926
 40
0.9725967723
 40
0.9822905168
 40
0.9914232791
 40
1.0
 40
1.0
 40
1.0
 40
1.0
 10
13.4317240588
 20
8.8356545448
 30
0.0
 10
13.4340638659
 20
8.8386657356
 30
0.0
 10
13.4387240474
 20
8.8450176036
 30
0.0
 10
13.4454638494
 20
8.8551722521
 30
0.0
 10
13.4521619667
 20
8.8662368823
 30
0.0
 10
13.4588087561
 20
8.8781956365
 30
0.0
 10
13.465394875
 20
8.8910318624
 30
0.0
 10
13.4719109426
 20
8.9047273935
 30
0.0
 10
13.4783476427
 20
8.9192628071
 30
0.0
 10
13.4846956762
 20
8.9346174264
 30
0.0
 10
13.4909459352
 20
8.9507693249
 30
0.0
 10
13.4970894045
 20
8.9676954052
 30
0.0
 10
13.5031171778
 20
8.985371438
 30
0.0
 10
13.5090205881
 20
9.0037720677
 30
0.0
 10
13.5147910993
 20
9.0228708909
 30
0.0
 10
13.5204203465
 20
9.0426404877
 30
0.0
 10
13.5259002382
 20
9.0630524464
 30
0.0
 10
13.531222832
 20
9.0840774237
 30
0.0
 10
13.5363804651
 20
9.1056852181
 30
0.0
 10
13.5430944699
 20
9.1355298951
 30
0.0
 10
13.5510027151
 20
9.1740663093
 30
0.0
 10
13.559631461
 20
9.2216694671
 30
0.0
 10
13.5674411299
 20
9.2708097925
 30
0.0
 10
13.5743864927
 20
9.3212046131
 30
0.0
 10
13.5804273278
 20
9.3725642574
 30
0.0
 10
13.5855286923
 20
9.4245933447
 30
0.0
 10
13.5896611133
 20
9.4769926246
 30
0.0
 10
13.5928008033
 20
9.5294606821
 30
0.0
 10
13.5949297388
 20
9.5816957012
 30
0.0
 10
13.5960357702
 20
9.6333972293
 30
0.0
 10
13.5961127421
 20
9.6842678936
 30
0.0
 10
13.5951605346
 20
9.7340152467
 30
0.0
 10
13.5931849119
 20
9.78235308
 30
0.0
 10
13.5906713967
 20
9.8216115455
 30
0.0
 10
13.5881410351
 20
9.8520967006
 30
0.0
 10
13.5860152035
 20
9.8742090948
 30
0.0
 10
13.5836455556
 20
9.8957669943
 30
0.0
 10
13.5810355177
 20
9.9167394291
 30
0.0
 10
13.5781888533
 20
9.9370962377
 30
0.0
 10
13.575109712
 20
9.9568081698
 30
0.0
 10
13.5718025836
 20
9.9758469128
 30
0.0
 10
13.5682722284
 20
9.9941851321
 30
0.0
 10
13.5645238005
 20
10.01179653
 30
0.0
 10
13.5605627487
 20
10.0286558765
 30
0.0
 10
13.5563947715
 20
10.0447390429
 30
0.0
 10
13.5520259423
 20
10.060023073
 30
0.0
 10
13.5474625711
 20
10.0744861968
 30
0.0
 10
13.542711174
 20
10.0881078837
 30
0.0
 10
13.5377786142
 20
10.1008688647
 30
0.0
 10
13.5326717967
 20
10.1127513496
 30
0.0
 10
13.5273980395
 20
10.1237383145
 30
0.0
 10
13.5236591569
 20
10.1306721227
 30
0.0
 10
13.5217573217
 20
10.1339772079
 30
0.0
  0
SPLINE
  5
37E
100
AcDbEntity
  8
0
100
AcDbSpline
 62
7
  6
CONTINUOUS
 70
0
 71
3
 72
37
 73
33
 74
0
 42
0.0000001
 43
0.0000001
 44
0.0000000001
 40
0.0
 40
0.0
 40
0.0
 40
0.0
 40
0.0155472121
 40
0.03128734
 40
0.0474056788
 40
0.0640736693
 40
0.0814445296
 40
0.0996515024
 40
0.1188074627
 40
0.1390063555
 40
0.1603247836
 40
0.1828242504
 40
0.2065531714
 40
0.231548646
 40
0.2578383369
 40
0.2854414938
 40
0.3143705679
 40
0.3446316909
 40
0.3762259293
 40
0.4091495639
 40
0.4433948874
 40
0.4789505504
 40
0.515801882
 40
0.5539314124
 40
0.5933188189
 40
0.6339415583
 40
0.675774578
 40
0.7187910126
 40
0.7629620282
 40
0.8082568025
 40
0.9020843778
 40
1.0
 40
1.0
 40
1.0
 40
1.0
 10
9.2557654141
 20
11.8761644439
 30
0.0
 10
9.255765425
 20
11.8785718525
 30
0.0
 10
9.2560481037
 20
11.8834211353
 30
0.0
 10
9.2573165371
 20
11.8906663784
 30
0.0
 10
9.2594267869
 20
11.8978934407
 30
0.0
 10
9.2623743426
 20
11.9050930859
 30
0.0
 10
9.2661536477
 20
11.9122591317
 30
0.0
 10
9.2707592973
 20
11.9193856593
 30
0.0
 10
9.2761855166
 20
11.9264675552
 30
0.0
 10
9.2824266739
 20
11.9334996345
 30
0.0
 10
9.28947672
 20
11.9404768009
 30
0.0
 10
9.2973292773
 20
11.9473937499
 30
0.0
 10
9.3059774281
 20
11.9542450113
 30
0.0
 10
9.3154135848
 20
11.9610250771
 30
0.0
 10
9.3256295758
 20
11.9677281876
 30
0.0
 10
9.3366164242
 20
11.9743487377
 30
0.0
 10
9.3483645506
 20
11.9808808734
 30
0.0
 10
9.360863571
 20
11.9873189768
 30
0.0
 10
9.374102473
 20
11.9936572709
 30
0.0
 10
9.388069502
 20
11.9998901752
 30
0.0
 10
9.4027522503
 20
12.0060120992
 30
0.0
 10
9.4181376379
 20
12.0120175459
 30
0.0
 10
9.4342119246
 20
12.0179011639
 30
0.0
 10
9.450960754
 20
12.0236575942
 30
0.0
 10
9.4683691254
 20
12.0292817361
 30
0.0
 10
9.4864214526
 20
12.0347684294
 30
0.0
 10
9.5051015401
 20
12.0401128166
 30
0.0
 10
9.5243926505
 20
12.0453099998
 30
0.0
 10
9.5442774828
 20
12.0503553742
 30
0.0
 10
9.5718832445
 20
12.0569514465
 30
0.0
 10
9.6077509079
 20
12.0647626659
 30
0.0
 10
9.6369087013
 20
12.070377458
 30
0.0
 10
9.6518274383
 20
12.0730811357
 30
0.0
  0
SPLINE
  5
37F
100
AcDbEntity
  8
0
100
AcDbSpline
 62
7
  6
CONTINUOUS
 70
0
 71
3
 72
15
 73
11
 74
0
 42
0.0000001
 43
0.0000001
 44
0.0000000001
 40
0.0
 40
0.0
 40
0.0
 40
0.0
 40
0.1273483281
 40
0.2538605602
 40
0.3795878981
 40
0.5046051042
 40
0.6290174419
 40
0.7529533761
 40
0.876560577
 40
1.0
 40
1.0
 40
1.0
 40
1.0
 10
9.6047866234
 20
5.9959854898
 30
0.0
 10
9.6047866234
 20
6.0016122974
 30
0.0
 10
9.6053238702
 20
6.0128367495
 30
0.0
 10
9.6077535245
 20
6.029457546
 30
0.0
 10
9.6117822947
 20
6.045660721
 30
0.0
 10
9.6173737928
 20
6.0612947446
 30
0.0
 10
9.6244767047
 20
6.0762154405
 30
0.0
 10
9.6330263158
 20
6.0902850147
 30
0.0
 10
9.6429422164
 20
6.1033716469
 30
0.0
 10
9.6504083896
 20
6.1113656956
 30
0.0
 10
9.6543312755
 20
6.1151549065
 30
0.0
  0
SPLINE
  5
380
100
AcDbEntity
  8
0
100
AcDbSpline
 62
7
  6
CONTINUOUS
 70
0
 71
3
 72
40
 73
36
 74
0
 42
0.0000001
 43
0.0000001
 44
0.0000000001
 40
0.0
 40
0.0
 40
0.0
 40
0.0
 40
0.0299422961
 40
0.0599089687
 40
0.0899238004
 40
0.1200094052
 40
0.1350882586
 40
0.1501924643
 40
0.1804801427
 40
0.2108943138
 40
0.2414481167
 40
0.2721514658
 40
0.3030108714
 40
0.3340293444
 40
0.3652063826
 40
0.3965380347
 40
0.4280170359
 40
0.4596330083
 40
0.4913727179
 40
0.5232203813
 40
0.5551580145
 40
0.5871658159
 40
0.6192225759
 40
0.6513061084
 40
0.6833936952
 40
0.7154625379
 40
0.7474902107
 40
0.7794551093
 40
0.8113368809
 40
0.8431168638
 40
0.8747784102
 40
0.9063074674
 40
0.9376922747
 40
0.9689251908
 40
1.0
 40
1.0
 40
1.0
 40
1.0
 10
9.9831649948
 20
7.0542808832
 30
0.0
 10
9.9800146198
 20
7.0512378496
 30
0.0
 10
9.9734661568
 20
7.0453973845
 30
0.0
 10
9.9629744034
 20
7.0374407304
 30
0.0
 10
9.9518676731
 20
7.030328156
 30
0.0
 10
9.9421566108
 20
7.0251406262
 30
0.0
 10
9.9341476802
 20
7.0214503132
 30
0.0
 10
9.9259732692
 20
7.0180646298
 30
0.0
 10
9.9154858821
 20
7.0144240526
 30
0.0
 10
9.9025617527
 20
7.0110311159
 30
0.0
 10
9.8893556125
 20
7.0086274679
 30
0.0
 10
9.8759406469
 20
7.0072263679
 30
0.0
 10
9.8623905485
 20
7.006835292
 30
0.0
 10
9.8487798743
 20
7.0074562294
 30
0.0
 10
9.8351834315
 20
7.0090855924
 30
0.0
 10
9.8216759266
 20
7.0117142679
 30
0.0
 10
9.8083315444
 20
7.0153276669
 30
0.0
 10
9.7952235501
 20
7.0199058115
 30
0.0
 10
9.7824238922
 20
7.025423447
 30
0.0
 10
9.770002813
 20
7.0318501826
 30
0.0
 10
9.7580284692
 20
7.0391506592
 30
0.0
 10
9.7465665622
 20
7.0472847427
 30
0.0
 10
9.7356799831
 20
7.0562077437
 30
0.0
 10
9.7254284696
 20
7.0658706589
 30
0.0
 10
9.7158682815
 20
7.0762204387
 30
0.0
 10
9.707051897
 20
7.0872002779
 30
0.0
 10
9.6990277266
 20
7.0987499231
 30
0.0
 10
9.6918398525
 20
7.1108060002
 30
0.0
 10
9.6855277798
 20
7.1233023591
 30
0.0
 10
9.680126245
 20
7.1361704244
 30
0.0
 10
9.6756649658
 20
7.1493396034
 30
0.0
 10
9.6721686116
 20
7.16273752
 30
0.0
 10
9.6696564024
 20
7.176290943
 30
0.0
 10
9.6681424306
 20
7.1899243747
 30
0.0
 10
9.6678033023
 20
7.1990424526
 30
0.0
 10
9.6678033023
 20
7.2035881793
 30
0.0
  0
SPLINE
  5
381
100
AcDbEntity
  8
0
100
AcDbSpline
 62
7
  6
CONTINUOUS
 70
0
 71
3
 72
15
 73
11
 74
0
 42
0.0000001
 43
0.0000001
 44
0.0000000001
 40
0.0
 40
0.0
 40
0.0
 40
0.0
 40
0.1234394212
 40
0.2470466221
 40
0.3709825576
 40
0.495394897
 40
0.6204121045
 40
0.746139443
 40
0.8726516743
 40
1.0
 40
1.0
 40
1.0
 40
1.0
 10
9.7193002603
 20
7.3274537415
 30
0.0
 10
9.7152227923
 20
7.3235152033
 30
0.0
 10
9.7074624135
 20
7.3152061226
 30
0.0
 10
9.6971557764
 20
7.3016037741
 30
0.0
 10
9.6882692682
 20
7.2869797525
 30
0.0
 10
9.6808864668
 20
7.2714710723
 30
0.0
 10
9.6750746366
 20
7.255220957
 30
0.0
 10
9.6708871135
 20
7.2383792639
 30
0.0
 10
9.6683617192
 20
7.2211034938
 30
0.0
 10
9.6678033023
 20
7.2094367215
 30
0.0
 10
9.6678033023
 20
7.2035881793
 30
0.0
  0
SPLINE
  5
382
100
AcDbEntity
  8
0
100
AcDbSpline
 62
7
  6
CONTINUOUS
 70
0
 71
3
 72
40
 73
36
 74
0
 42
0.0000001
 43
0.0000001
 44
0.0000000001
 40
0.0
 40
0.0
 40
0.0
 40
0.0
 40
0.0299422956
 40
0.059908968
 40
0.0899238
 40
0.1200094056
 40
0.1350882594
 40
0.1501924656
 40
0.1804801452
 40
0.2108943177
 40
0.241448122
 40
0.2721514726
 40
0.3030108797
 40
0.334029354
 40
0.3652063934
 40
0.3965380465
 40
0.4280170486
 40
0.4596330217
 40
0.4913727316
 40
0.5232203951
 40
0.5551580282
 40
0.5871658292
 40
0.6192225887
 40
0.6513061205
 40
0.6833937063
 40
0.715462548
 40
0.7474902197
 40
0.779455117
 40
0.8113368874
 40
0.8431168691
 40
0.8747784143
 40
0.9063074703
 40
0.9376922765
 40
0.9689251917
 40
1.0
 40
1.0
 40
1.0
 40
1.0
 10
12.081524527
 20
10.9176175539
 30
0.0
 10
12.0784935947
 20
10.9146899027
 30
0.0
 10
12.0721934096
 20
10.9090708906
 30
0.0
 10
12.0620994422
 20
10.9014159308
 30
0.0
 10
12.0514138164
 20
10.8945730475
 30
0.0
 10
12.0420709444
 20
10.8895822176
 30
0.0
 10
12.0343656696
 20
10.8860318345
 30
0.0
 10
12.026501189
 20
10.8827745308
 30
0.0
 10
12.0164114291
 20
10.8792720001
 30
0.0
 10
12.0039773171
 20
10.876007723
 30
0.0
 10
11.991271888
 20
10.873695225
 30
0.0
 10
11.9783655524
 20
10.8723472627
 30
0.0
 10
11.9653292089
 20
10.8719710284
 30
0.0
 10
11.9522345871
 20
10.8725684361
 30
0.0
 10
11.9391536583
 20
10.8741360339
 30
0.0
 10
11.9261582961
 20
10.8766650543
 30
0.0
 10
11.9133198725
 20
10.8801414612
 30
0.0
 10
11.9007088748
 20
10.8845460343
 30
0.0
 10
11.8883945232
 20
10.8898544763
 30
0.0
 10
11.876444397
 20
10.8960375488
 30
0.0
 10
11.8649240683
 20
10.9030612331
 30
0.0
 10
11.8538967475
 20
10.9108869171
 30
0.0
 10
11.8434229411
 20
10.9194716056
 30
0.0
 10
11.8335601215
 20
10.9287681535
 30
0.0
 10
11.8243624154
 20
10.9387255225
 30
0.0
 10
11.8158803113
 20
10.9492890612
 30
0.0
 10
11.808160384
 20
10.9604008009
 30
0.0
 10
11.8012450443
 20
10.9719997703
 30
0.0
 10
11.7951722994
 20
10.9840223276
 30
0.0
 10
11.7899755686
 20
10.9964024974
 30
0.0
 10
11.7856834427
 20
11.0090723637
 30
0.0
 10
11.7823196559
 20
11.0219622946
 30
0.0
 10
11.7799026994
 20
11.0350018357
 30
0.0
 10
11.7784461313
 20
11.0481183516
 30
0.0
 10
11.7781198613
 20
11.0568907148
 30
0.0
 10
11.7781198613
 20
11.0612640889
 30
0.0
  0
SPLINE
  5
383
100
AcDbEntity
  8
0
100
AcDbSpline
 62
7
  6
CONTINUOUS
 70
0
 71
3
 72
40
 73
36
 74
0
 42
0.0000001
 43
0.0000001
 44
0.0000000001
 40
0.0
 40
0.0
 40
0.0
 40
0.0
 40
0.0299422956
 40
0.059908968
 40
0.0899238
 40
0.1200094056
 40
0.1350882594
 40
0.1501924656
 40
0.1804801452
 40
0.2108943177
 40
0.241448122
 40
0.2721514726
 40
0.3030108797
 40
0.334029354
 40
0.3652063934
 40
0.3965380465
 40
0.4280170486
 40
0.4596330217
 40
0.4913727316
 40
0.5232203951
 40
0.5551580282
 40
0.5871658292
 40
0.6192225887
 40
0.6513061205
 40
0.6833937063
 40
0.715462548
 40
0.7474902197
 40
0.779455117
 40
0.8113368874
 40
0.8431168691
 40
0.8747784143
 40
0.9063074703
 40
0.9376922765
 40
0.9689251917
 40
1.0
 40
1.0
 40
1.0
 40
1.0
 10
9.9081912891
 20
5.8523389548
 30
0.0
 10
9.9051603568
 20
5.8494113036
 30
0.0
 10
9.8988601717
 20
5.8437922915
 30
0.0
 10
9.8887662043
 20
5.8361373318
 30
0.0
 10
9.8780805785
 20
5.8292944485
 30
0.0
 10
9.8687377065
 20
5.8243036186
 30
0.0
 10
9.8610324317
 20
5.8207532354
 30
0.0
 10
9.8531679511
 20
5.8174959317
 30
0.0
 10
9.8430781912
 20
5.813993401
 30
0.0
 10
9.8306440792
 20
5.8107291239
 30
0.0
 10
9.8179386501
 20
5.8084166259
 30
0.0
 10
9.8050323145
 20
5.8070686636
 30
0.0
 10
9.7919959709
 20
5.8066924294
 30
0.0
 10
9.7789013492
 20
5.807289837
 30
0.0
 10
9.7658204204
 20
5.8088574349
 30
0.0
 10
9.7528250582
 20
5.8113864552
 30
0.0
 10
9.7399866346
 20
5.8148628622
 30
0.0
 10
9.7273756368
 20
5.8192674352
 30
0.0
 10
9.7150612853
 20
5.8245758772
 30
0.0
 10
9.7031111591
 20
5.8307589497
 30
0.0
 10
9.6915908304
 20
5.8377826341
 30
0.0
 10
9.6805635096
 20
5.845608318
 30
0.0
 10
9.6700897031
 20
5.8541930066
 30
0.0
 10
9.6602268836
 20
5.8634895544
 30
0.0
 10
9.6510291775
 20
5.8734469234
 30
0.0
 10
9.6425470734
 20
5.8840104622
 30
0.0
 10
9.6348271461
 20
5.8951222018
 30
0.0
 10
9.6279118064
 20
5.9067211713
 30
0.0
 10
9.6218390615
 20
5.9187437285
 30
0.0
 10
9.6166423306
 20
5.9311238984
 30
0.0
 10
9.6123502048
 20
5.9437937647
 30
0.0
 10
9.608986418
 20
5.9566836956
 30
0.0
 10
9.6065694615
 20
5.9697232366
 30
0.0
 10
9.6051128934
 20
5.9828397526
 30
0.0
 10
9.6047866234
 20
5.9916121157
 30
0.0
 10
9.6047866234
 20
5.9959854898
 30
0.0
  0
SPLINE
  5
384
100
AcDbEntity
  8
0
100
AcDbSpline
 62
7
  6
CONTINUOUS
 70
0
 71
3
 72
67
 73
63
 74
0
 42
0.0000001
 43
0.0000001
 44
0.0000000001
 40
0.0
 40
0.0
 40
0.0
 40
0.0
 40
0.0186279168
 40
0.0376789862
 40
0.0571274372
 40
0.0769486302
 40
0.0971162871
 40
0.1176036401
 40
0.159426917
 40
0.2021941344
 40
0.2456733765
 40
0.2896276152
 40
0.3338164422
 40
0.3779977876
 40
0.4219296362
 40
0.4653717395
 40
0.5080873283
 40
0.5498448708
 40
0.5702942192
 40
0.5904205104
 40
0.6101970755
 40
0.6295979059
 40
0.6485977223
 40
0.6671720587
 40
0.6852973107
 40
0.7029508014
 40
0.7201108784
 40
0.7367570084
 40
0.7528698479
 40
0.7684313489
 40
0.7834249102
 40
0.7978355101
 40
0.8116498528
 40
0.8248565759
 40
0.8374465272
 40
0.8494130385
 40
0.860752289
 40
0.8714637975
 40
0.8815510471
 40
0.8910222223
 40
0.8998911887
 40
0.9081787659
 40
0.9159142711
 40
0.9231373305
 40
0.9298999105
 40
0.9362682546
 40
0.9393311166
 40
0.9423273815
 40
0.9452696119
 40
0.9481711489
 40
0.9510459551
 40
0.9539084321
 40
0.9567731805
 40
0.9596547665
 40
0.9625674737
 40
0.9655250972
 40
0.9685407491
 40
0.9716267108
 40
0.9780513356
 40
0.9848814787
 40
0.9921810548
 40
1.0
 40
1.0
 40
1.0
 40
1.0
 10
9.6038190848
 20
12.1828372914
 30
0.0
 10
9.6145410584
 20
12.1847804023
 30
0.0
 10
9.6362572769
 20
12.1885538939
 30
0.0
 10
9.6692572106
 20
12.1938253355
 30
0.0
 10
9.703013909
 20
12.1987660561
 30
0.0
 10
9.7374773445
 20
12.2033687629
 30
0.0
 10
9.7725973182
 20
12.2076267115
 30
0.0
 10
9.8205589582
 20
12.2128716745
 30
0.0
 10
9.8817724296
 20
12.2185045547
 30
0.0
 10
9.9565093622
 20
12.2237578323
 30
0.0
 10
10.0325842728
 20
12.2275189418
 30
0.0
 10
10.109550674
 20
12.229765571
 30
0.0
 10
10.1869571595
 20
12.2304843513
 30
0.0
 10
10.264349614
 20
12.2296710244
 30
0.0
 10
10.3412740048
 20
12.2273303977
 30
0.0
 10
10.4172791756
 20
12.223476437
 30
0.0
 10
10.4919190508
 20
12.2181319447
 30
0.0
 10
10.5530343083
 20
12.2124239107
 30
0.0
 10
10.6009040502
 20
12.2071198007
 30
0.0
 10
10.6359457185
 20
12.202818917
 30
0.0
 10
10.6703246464
 20
12.1981741
 30
0.0
 10
10.7039904208
 20
12.1931921485
 30
0.0
 10
10.7368936262
 20
12.1878804082
 30
0.0
 10
10.7689859983
 20
12.1822467265
 30
0.0
 10
10.8002204667
 20
12.1762994175
 30
0.0
 10
10.830551223
 20
12.1700472429
 30
0.0
 10
10.8599338046
 20
12.1634994231
 30
0.0
 10
10.8883251684
 20
12.1566656353
 30
0.0
 10
10.9156837391
 20
12.1495559633
 30
0.0
 10
10.9419694735
 20
12.1421808775
 30
0.0
 10
10.9671439481
 20
12.1345512613
 30
0.0
 10
10.9911704172
 20
12.1266783709
 30
0.0
 10
11.0140138548
 20
12.1185737932
 30
0.0
 10
11.0356410245
 20
12.1102494159
 30
0.0
 10
11.0560205707
 20
12.1017174522
 30
0.0
 10
11.0751230591
 20
12.0929903518
 30
0.0
 10
11.0929210178
 20
12.084080742
 30
0.0
 10
11.1093890103
 20
12.0750013671
 30
0.0
 10
11.124503711
 20
12.065765042
 30
0.0
 10
11.1382438868
 20
12.0563844578
 30
0.0
 10
11.1505903434
 20
12.0468720261
 30
0.0
 10
11.1615258611
 20
12.0372396451
 30
0.0
 10
11.1710348542
 20
12.0274987115
 30
0.0
 10
11.1791029972
 20
12.0176592071
 30
0.0
 10
11.1857156287
 20
12.0077324372
 30
0.0
 10
11.1900570352
 20
11.9992847325
 30
0.0
 10
11.1927468996
 20
11.9925262437
 30
0.0
 10
11.1943674496
 20
11.9875120445
 30
0.0
 10
11.1956159483
 20
11.9824896026
 30
0.0
 10
11.1964917783
 20
11.9774608357
 30
0.0
 10
11.1969942157
 20
11.9724279208
 30
0.0
 10
11.1971230459
 20
11.9673930969
 30
0.0
 10
11.1968781449
 20
11.9623586203
 30
0.0
 10
11.1962596089
 20
11.9573267671
 30
0.0
 10
11.1952679774
 20
11.9522997209
 30
0.0
 10
11.1939038104
 20
11.9472796609
 30
0.0
 10
11.1921678499
 20
11.9422684837
 30
0.0
 10
11.1893213573
 20
11.9355118139
 30
0.0
 10
11.1847844571
 20
11.9270705179
 30
0.0
 10
11.1779447713
 20
11.9171567278
 30
0.0
 10
11.1696523236
 20
11.9073322003
 30
0.0
 10
11.1633890703
 20
11.9010734338
 30
0.0
 10
11.1600408204
 20
11.8979575488
 30
0.0
  0
SPLINE
  5
385
100
AcDbEntity
  8
0
100
AcDbSpline
 62
7
  6
CONTINUOUS
 70
0
 71
3
 72
86
 73
82
 74
0
 42
0.0000001
 43
0.0000001
 44
0.0000000001
 40
0.0
 40
0.0
 40
0.0
 40
0.0
 40
0.002716423
 40
0.0054532179
 40
0.0082302764
 40
0.0110665528
 40
0.0139797454
 40
0.0169860334
 40
0.0200999738
 40
0.0233344702
 40
0.0267007939
 40
0.030208726
 40
0.0338666071
 40
0.0376815478
 40
0.0416594915
 40
0.0458053858
 40
0.0501232885
 40
0.0546164418
 40
0.0592874292
 40
0.0641381654
 40
0.0691700624
 40
0.0743840061
 40
0.0797804607
 40
0.0853595011
 40
0.0911208198
 40
0.0970638285
 40
0.1094905044
 40
0.1226296802
 40
0.1364672751
 40
0.1509860215
 40
0.1661658552
 40
0.1819842353
 40
0.198416405
 40
0.215435609
 40
0.2330132806
 40
0.251119205
 40
0.2697216659
 40
0.288787577
 40
0.3082826103
 40
0.3281713141
 40
0.3484172258
 40
0.3689829794
 40
0.3898304106
 40
0.4109206589
 40
0.4322142687
 40
0.4536712907
 40
0.4969132138
 40
0.5403214248
 40
0.5835686097
 40
0.6050302207
 40
0.6263297115
 40
0.6474271199
 40
0.6682829738
 40
0.6888583909
 40
0.7091151806
 40
0.7290159492
 40
0.7485242041
 40
0.7676044609
 40
0.7862223555
 40
0.8043447608
 40
0.8219399117
 40
0.8389775393
 40
0.8554290213
 40
0.8712675431
 40
0.8864682827
 40
0.9010086263
 40
0.9148684268
 40
0.9280303167
 40
0.9404801009
 40
0.9464347631
 40
0.9522078016
 40
0.9577985813
 40
0.9632067818
 40
0.9684324716
 40
0.9734760613
 40
0.9783384267
 40
0.9830208848
 40
0.9875253998
 40
0.9918545811
 40
0.9960115554
 40
1.0
 40
1.0
 40
1.0
 40
1.0
 10
13.6761179714
 20
10.457949611
 30
0.0
 10
13.6779556073
 20
10.4578221789
 30
0.0
 10
13.68163525
 20
10.457400035
 30
0.0
 10
13.6871078875
 20
10.4562704329
 30
0.0
 10
13.6925391359
 20
10.4546444679
 30
0.0
 10
13.6979251915
 20
10.4525239101
 30
0.0
 10
13.7032631988
 20
10.4499104679
 30
0.0
 10
13.7085504776
 20
10.4468063095
 30
0.0
 10
13.7137845711
 20
10.4432135949
 30
0.0
 10
13.7189631266
 20
10.439134582
 30
0.0
 10
13.7240839783
 20
10.4345717242
 30
0.0
 10
13.7291448137
 20
10.4295274151
 30
0.0
 10
13.7341435383
 20
10.4240043872
 30
0.0
 10
13.7390778339
 20
10.4180053604
 30
0.0
 10
13.7439455311
 20
10.4115333758
 30
0.0
 10
13.7487443638
 20
10.4045916144
 30
0.0
 10
13.7534720481
 20
10.3971834821
 30
0.0
 10
13.758126403
 20
10.3893126571
 30
0.0
 10
13.7627050843
 20
10.3809829737
 30
0.0
 10
13.7672059665
 20
10.3721985865
 30
0.0
 10
13.7716267504
 20
10.3629638071
 30
0.0
 10
13.7759653091
 20
10.3532832355
 30
0.0
 10
13.7802194753
 20
10.3431616722
 30
0.0
 10
13.7843870917
 20
10.3326041545
 30
0.0
 10
13.788466181
 20
10.3216159399
 30
0.0
 10
13.7938644451
 20
10.306167502
 30
0.0
 10
13.8003561698
 20
10.2858060146
 30
0.0
 10
13.8076501626
 20
10.2600966402
 30
0.0
 10
13.8145447756
 20
10.232811912
 30
0.0
 10
13.8210260329
 20
10.2040064402
 30
0.0
 10
13.8270807658
 20
10.173737616
 30
0.0
 10
13.832696661
 20
10.1420659967
 30
0.0
 10
13.8378622902
 20
10.1090550029
 30
0.0
 10
13.8425671391
 20
10.0747708169
 30
0.0
 10
13.84680163
 20
10.0392822238
 30
0.0
 10
13.8505571415
 20
10.0026604673
 30
0.0
 10
13.8538260254
 20
9.9649791009
 30
0.0
 10
13.8566016277
 20
9.9263138346
 30
0.0
 10
13.858878296
 20
9.8867423761
 30
0.0
 10
13.8606513894
 20
9.8463442691
 30
0.0
 10
13.8619172875
 20
9.8052007293
 30
0.0
 10
13.862673396
 20
9.7633944817
 30
0.0
 10
13.8629181555
 20
9.7210095852
 30
0.0
 10
13.8626510272
 20
9.6781312939
 30
0.0
 10
13.8618725629
 20
9.6348457687
 30
0.0
 10
13.8601503185
 20
9.5765572534
 30
0.0
 10
13.8567306826
 20
9.5033210207
 30
0.0
 10
13.8506518978
 20
9.4154386536
 30
0.0
 10
13.8439553468
 20
9.3424223881
 30
0.0
 10
13.8376353829
 20
9.2844411895
 30
0.0
 10
13.832446073
 20
9.2414487601
 30
0.0
 10
13.8268061858
 20
9.1989274805
 30
0.0
 10
13.8207270406
 20
9.1569627952
 30
0.0
 10
13.8142209073
 20
9.115639109
 30
0.0
 10
13.8073009023
 20
9.0750395089
 30
0.0
 10
13.7999809894
 20
9.0352456207
 30
0.0
 10
13.792275941
 20
8.9963374366
 30
0.0
 10
13.7842013102
 20
8.9583931555
 30
0.0
 10
13.7757733996
 20
8.9214890229
 30
0.0
 10
13.7670092291
 20
8.8856991756
 30
0.0
 10
13.7579265018
 20
8.8510954869
 30
0.0
 10
13.7485435667
 20
8.8177474144
 30
0.0
 10
13.7388793881
 20
8.7857218485
 30
0.0
 10
13.7289534987
 20
8.7550829727
 30
0.0
 10
13.7187859566
 20
8.7258921123
 30
0.0
 10
13.7083973021
 20
8.6982076391
 30
0.0
 10
13.6978084918
 20
8.6720846793
 30
0.0
 10
13.6870408832
 20
8.6475755072
 30
0.0
 10
13.677804958
 20
8.6282597968
 30
0.0
 10
13.6703289911
 20
8.6136674068
 30
0.0
 10
13.66477411
 20
8.6033193764
 30
0.0
 10
13.6591908008
 20
8.5934098225
 30
0.0
 10
13.6535817606
 20
8.5839436893
 30
0.0
 10
13.6479498616
 20
8.5749256564
 30
0.0
 10
13.6422978092
 20
8.5663602536
 30
0.0
 10
13.6366285164
 20
8.5582517012
 30
0.0
 10
13.6309446999
 20
8.5506040329
 30
0.0
 10
13.6252491211
 20
8.5434209679
 30
0.0
 10
13.6195444437
 20
8.5367059892
 30
0.0
 10
13.613833687
 20
8.5304627413
 30
0.0
 10
13.6099452007
 20
8.5265371727
 30
0.0
 10
13.6079998855
 20
8.5246581424
 30
0.0
  0
SPLINE
  5
386
100
AcDbEntity
  8
0
100
AcDbSpline
 62
7
  6
CONTINUOUS
 70
0
 71
3
 72
45
 73
41
 74
0
 42
0.0000001
 43
0.0000001
 44
0.0000000001
 40
0.0
 40
0.0
 40
0.0
 40
0.0
 40
0.0234201688
 40
0.0452789911
 40
0.0657274003
 40
0.084958819
 40
0.0941960288
 40
0.1032230178
 40
0.112076981
 40
0.1207976095
 40
0.1294265994
 40
0.1380071471
 40
0.1465832415
 40
0.1551989531
 40
0.1638976808
 40
0.1727214862
 40
0.1817105091
 40
0.1909024453
 40
0.2100236833
 40
0.2303398604
 40
0.2520489334
 40
0.2753059113
 40
0.3002286355
 40
0.3269039819
 40
0.3553934513
 40
0.385737775
 40
0.4179605692
 40
0.4520713747
 40
0.4880679813
 40
0.5259381658
 40
0.5656610734
 40
0.6072084325
 40
0.6505454599
 40
0.6956315136
 40
0.7424206475
 40
0.7908623718
 40
0.8409018276
 40
0.8924796049
 40
0.945535409
 40
1.0
 40
1.0
 40
1.0
 40
1.0
 10
9.2090894573
 20
11.89795805
 30
0.0
 10
9.2057287585
 20
11.901085532
 30
0.0
 10
9.1994437896
 20
11.9073677117
 30
0.0
 10
9.191127336
 20
11.917230743
 30
0.0
 10
9.1842749678
 20
11.927183793
 30
0.0
 10
9.179737063
 20
11.9356589444
 30
0.0
 10
9.1768959477
 20
11.9424423263
 30
0.0
 10
9.1751669431
 20
11.9474732797
 30
0.0
 10
9.1738126708
 20
11.9525131159
 30
0.0
 10
9.1728337552
 20
11.9575598925
 30
0.0
 10
9.1722309807
 20
11.9626114403
 30
0.0
 10
9.1720046898
 20
11.9676655077
 30
0.0
 10
9.1721549979
 20
11.9727198109
 30
0.0
 10
9.1726819252
 20
11.9777720428
 30
0.0
 10
9.1735849899
 20
11.9828199661
 30
0.0
 10
9.1748636165
 20
11.9878613666
 30
0.0
 10
9.1765171714
 20
11.992894285
 30
0.0
 10
9.1792557137
 20
11.9996789149
 30
0.0
 10
9.1836658274
 20
12.0081582622
 30
0.0
 10
9.1903696458
 20
12.0181197946
 30
0.0
 10
9.1985395048
 20
12.0279928256
 30
0.0
 10
9.2081606033
 20
12.0377659008
 30
0.0
 10
9.219218381
 20
12.047428925
 30
0.0
 10
9.231696954
 20
12.0569703789
 30
0.0
 10
9.2455788197
 20
12.0663781949
 30
0.0
 10
9.2608444722
 20
12.0756397641
 30
0.0
 10
9.2774722664
 20
12.0847422728
 30
0.0
 10
9.2954384398
 20
12.0936727851
 30
0.0
 10
9.3147171351
 20
12.1024183876
 30
0.0
 10
9.3352804192
 20
12.1109663038
 30
0.0
 10
9.3570983313
 20
12.1193039874
 30
0.0
 10
9.3801389797
 20
12.1274191245
 30
0.0
 10
9.4043686026
 20
12.1352996803
 30
0.0
 10
9.4297515976
 20
12.1429339615
 30
0.0
 10
9.4562506127
 20
12.1503106519
 30
0.0
 10
9.4838266211
 20
12.1574187798
 30
0.0
 10
9.512438866
 20
12.1642477306
 30
0.0
 10
9.5420454265
 20
12.1707874742
 30
0.0
 10
9.5726021413
 20
12.1770281066
 30
0.0
 10
9.5933141017
 20
12.180933505
 30
0.0
 10
9.6038190848
 20
12.1828372914
 30
0.0
  0
SPLINE
  5
387
100
AcDbEntity
  8
0
100
AcDbSpline
 62
7
  6
CONTINUOUS
 70
0
 71
3
 72
45
 73
41
 74
0
 42
0.0000001
 43
0.0000001
 44
0.0000000001
 40
0.0
 40
0.0
 40
0.0
 40
0.0
 40
0.017828842
 40
0.0264745149
 40
0.0349756405
 40
0.0433620336
 40
0.0516648879
 40
0.0599164185
 40
0.0681495151
 40
0.076397308
 40
0.0846927318
 40
0.0930681189
 40
0.1015547698
 40
0.1101826612
 40
0.1189801973
 40
0.1371819434
 40
0.1563569355
 40
0.1766631436
 40
0.1982290096
 40
0.221156459
 40
0.2455245356
 40
0.2713931267
 40
0.2988057928
 40
0.327792621
 40
0.3583724164
 40
0.3905542149
 40
0.4243390244
 40
0.4597207645
 40
0.4966871514
 40
0.5352206895
 40
0.5752989667
 40
0.6168953606
 40
0.659979495
 40
0.704517293
 40
0.7504717141
 40
0.7978028357
 40
0.8464673259
 40
0.8964202262
 40
0.9476160703
 40
1.0
 40
1.0
 40
1.0
 40
1.0
 10
9.2553202423
 20
11.864141286
 30
0.0
 10
9.2539903882
 20
11.866804787
 30
0.0
 10
9.2522201821
 20
11.8708690481
 30
0.0
 10
9.2503708538
 20
11.8764114379
 30
0.0
 10
9.249268409
 20
11.8805329108
 30
0.0
 10
9.2484373883
 20
11.8846590897
 30
0.0
 10
9.2478779718
 20
11.8887888683
 30
0.0
 10
9.2475905141
 20
11.8929208228
 30
0.0
 10
9.2475751836
 20
11.8970535645
 30
0.0
 10
9.2478319016
 20
11.9011856792
 30
0.0
 10
9.2483605747
 20
11.9053157703
 30
0.0
 10
9.2491610196
 20
11.9094424529
 30
0.0
 10
9.2502327607
 20
11.9135643734
 30
0.0
 10
9.2515754051
 20
11.9176803479
 30
0.0
 10
9.2537503485
 20
11.9232206005
 30
0.0
 10
9.2571779142
 20
11.9301454392
 30
0.0
 10
9.2623179872
 20
11.9383081767
 30
0.0
 10
9.2685225581
 20
11.9464120144
 30
0.0
 10
9.2757826271
 20
11.95444899
 30
0.0
 10
9.2840892418
 20
11.962412268
 30
0.0
 10
9.2934327412
 20
11.970294375
 30
0.0
 10
9.3038027254
 20
11.9780874663
 30
0.0
 10
9.3151876355
 20
11.9857835339
 30
0.0
 10
9.3275748234
 20
11.9933743415
 30
0.0
 10
9.3409504741
 20
12.000851502
 30
0.0
 10
9.3552995191
 20
12.0082067351
 30
0.0
 10
9.3706057611
 20
12.0154316741
 30
0.0
 10
9.3868518176
 20
12.0225180712
 30
0.0
 10
9.4040191537
 20
12.0294578423
 30
0.0
 10
9.4220881576
 20
12.0362429279
 30
0.0
 10
9.4410381067
 20
12.0428655266
 30
0.0
 10
9.4608472405
 20
12.0493179807
 30
0.0
 10
9.4814927833
 20
12.0555927607
 30
0.0
 10
9.5029509545
 20
12.0616826493
 30
0.0
 10
9.5251970531
 20
12.0675805532
 30
0.0
 10
9.5482053785
 20
12.0732795903
 30
0.0
 10
9.5719493451
 20
12.0787732086
 30
0.0
 10
9.5964018776
 20
12.0840550437
 30
0.0
 10
9.6215342566
 20
12.0891188311
 30
0.0
 10
9.6385335251
 20
12.0923099083
 30
0.0
 10
9.6471403303
 20
12.0938696936
 30
0.0
  0
SPLINE
  5
388
100
AcDbEntity
  8
0
100
AcDbSpline
 62
4
  6
CONTINUOUS
 70
0
 71
3
 72
313
 73
309
 74
0
 42
0.0000001
 43
0.0000001
 44
0.0000000001
 40
0.0
 40
0.0
 40
0.0
 40
0.0
 40
0.015625
 40
0.0234375
 40
0.03125
 40
0.0390625
 40
0.046875
 40
0.05078125
 40
0.0546875
 40
0.056640625
 40
0.05859375
 40
0.060546875
 40
0.0615234375
 40
0.0620117188
 40
0.0625
 40
0.0629882812
 40
0.0634765625
 40
0.064453125
 40
0.06640625
 40
0.068359375
 40
0.0703125
 40
0.07421875
 40
0.078125
 40
0.0859375
 40
0.09375
 40
0.1015625
 40
0.109375
 40
0.11328125
 40
0.1171875
 40
0.119140625
 40
0.12109375
 40
0.123046875
 40
0.1240234375
 40
0.1245117188
 40
0.125
 40
0.1254882812
 40
0.1259765625
 40
0.126953125
 40
0.12890625
 40
0.130859375
 40
0.1328125
 40
0.13671875
 40
0.140625
 40
0.1484375
 40
0.15625
 40
0.1640625
 40
0.171875
 40
0.17578125
 40
0.1796875
 40
0.181640625
 40
0.18359375
 40
0.185546875
 40
0.1865234375
 40
0.1870117188
 40
0.1875
 40
0.1879882812
 40
0.1884765625
 40
0.189453125
 40
0.19140625
 40
0.193359375
 40
0.1953125
 40
0.19921875
 40
0.203125
 40
0.2109375
 40
0.21875
 40
0.2265625
 40
0.234375
 40
0.23828125
 40
0.2421875
 40
0.244140625
 40
0.24609375
 40
0.248046875
 40
0.2490234375
 40
0.2495117188
 40
0.25
 40
0.2504882812
 40
0.2509765625
 40
0.251953125
 40
0.25390625
 40
0.255859375
 40
0.2578125
 40
0.26171875
 40
0.265625
 40
0.2734375
 40
0.28125
 40
0.2890625
 40
0.296875
 40
0.30078125
 40
0.3046875
 40
0.306640625
 40
0.30859375
 40
0.310546875
 40
0.3115234375
 40
0.3120117188
 40
0.3125
 40
0.3129882812
 40
0.3134765625
 40
0.314453125
 40
0.31640625
 40
0.318359375
 40
0.3203125
 40
0.32421875
 40
0.328125
 40
0.3359375
 40
0.34375
 40
0.3515625
 40
0.359375
 40
0.36328125
 40
0.3671875
 40
0.369140625
 40
0.37109375
 40
0.373046875
 40
0.3740234375
 40
0.3745117188
 40
0.375
 40
0.3754882812
 40
0.3759765625
 40
0.376953125
 40
0.37890625
 40
0.380859375
 40
0.3828125
 40
0.38671875
 40
0.390625
 40
0.3984375
 40
0.40625
 40
0.4140625
 40
0.421875
 40
0.42578125
 40
0.4296875
 40
0.431640625
 40
0.43359375
 40
0.435546875
 40
0.4365234375
 40
0.4370117188
 40
0.4375
 40
0.4379882812
 40
0.4384765625
 40
0.439453125
 40
0.44140625
 40
0.443359375
 40
0.4453125
 40
0.44921875
 40
0.453125
 40
0.4609375
 40
0.46875
 40
0.4765625
 40
0.484375
 40
0.48828125
 40
0.4921875
 40
0.494140625
 40
0.49609375
 40
0.498046875
 40
0.4990234375
 40
0.4995117188
 40
0.5
 40
0.5004882812
 40
0.5009765625
 40
0.501953125
 40
0.50390625
 40
0.505859375
 40
0.5078125
 40
0.51171875
 40
0.515625
 40
0.5234375
 40
0.53125
 40
0.5390625
 40
0.546875
 40
0.55078125
 40
0.5546875
 40
0.556640625
 40
0.55859375
 40
0.560546875
 40
0.5615234375
 40
0.5620117188
 40
0.5625
 40
0.5629882812
 40
0.5634765625
 40
0.564453125
 40
0.56640625
 40
0.568359375
 40
0.5703125
 40
0.57421875
 40
0.578125
 40
0.5859375
 40
0.59375
 40
0.6015625
 40
0.609375
 40
0.61328125
 40
0.6171875
 40
0.619140625
 40
0.62109375
 40
0.623046875
 40
0.6240234375
 40
0.6245117188
 40
0.625
 40
0.6254882812
 40
0.6259765625
 40
0.626953125
 40
0.62890625
 40
0.630859375
 40
0.6328125
 40
0.63671875
 40
0.640625
 40
0.6484375
 40
0.65625
 40
0.6640625
 40
0.671875
 40
0.67578125
 40
0.6796875
 40
0.681640625
 40
0.68359375
 40
0.685546875
 40
0.6865234375
 40
0.6870117188
 40
0.6875
 40
0.6879882812
 40
0.6884765625
 40
0.689453125
 40
0.69140625
 40
0.693359375
 40
0.6953125
 40
0.69921875
 40
0.703125
 40
0.7109375
 40
0.71875
 40
0.7265625
 40
0.734375
 40
0.73828125
 40
0.7421875
 40
0.744140625
 40
0.74609375
 40
0.748046875
 40
0.7490234375
 40
0.7495117188
 40
0.75
 40
0.7504882812
 40
0.7509765625
 40
0.751953125
 40
0.75390625
 40
0.755859375
 40
0.7578125
 40
0.76171875
 40
0.765625
 40
0.7734375
 40
0.78125
 40
0.7890625
 40
0.796875
 40
0.80078125
 40
0.8046875
 40
0.806640625
 40
0.80859375
 40
0.810546875
 40
0.8115234375
 40
0.8120117188
 40
0.8125
 40
0.8129882812
 40
0.8134765625
 40
0.814453125
 40
0.81640625
 40
0.818359375
 40
0.8203125
 40
0.82421875
 40
0.828125
 40
0.8359375
 40
0.84375
 40
0.8515625
 40
0.859375
 40
0.86328125
 40
0.8671875
 40
0.869140625
 40
0.87109375
 40
0.873046875
 40
0.8740234375
 40
0.8745117188
 40
0.875
 40
0.8754882812
 40
0.8759765625
 40
0.876953125
 40
0.87890625
 40
0.880859375
 40
0.8828125
 40
0.88671875
 40
0.890625
 40
0.8984375
 40
0.90625
 40
0.9140625
 40
0.921875
 40
0.92578125
 40
0.9296875
 40
0.931640625
 40
0.93359375
 40
0.935546875
 40
0.9365234375
 40
0.9370117188
 40
0.9375
 40
0.9379882812
 40
0.9384765625
 40
0.939453125
 40
0.94140625
 40
0.943359375
 40
0.9453125
 40
0.94921875
 40
0.953125
 40
0.9609375
 40
0.96875
 40
0.9765625
 40
0.984375
 40
1.0
 40
1.0
 40
1.0
 40
1.0
 10
9.9227887542
 20
9.6536459441
 30
0.0
 10
9.9265485785
 20
9.6537538534
 30
0.0
 10
9.932188315
 20
9.6539157171
 30
0.0
 10
9.9397079634
 20
9.6541315365
 30
0.0
 10
9.9453477003
 20
9.654293398
 30
0.0
 10
9.950987435
 20
9.6544552709
 30
0.0
 10
9.9556872209
 20
9.6545901297
 30
0.0
 10
9.9594470341
 20
9.6546980958
 30
0.0
 10
9.9617969525
 20
9.6547653944
 30
0.0
 10
9.9636768067
 20
9.6548196461
 30
0.0
 10
9.965086918
 20
9.6548592047
 30
0.0
 10
9.9662613086
 20
9.6548957653
 30
0.0
 10
9.96708476
 20
9.6549143025
 30
0.0
 10
9.967553152
 20
9.6549359113
 30
0.0
 10
9.9679105074
 20
9.6549210853
 30
0.0
 10
9.9682446931
 20
9.6550248816
 30
0.0
 10
9.9686983559
 20
9.6551218998
 30
0.0
 10
9.9694885002
 20
9.6553109599
 30
0.0
 10
9.9706192465
 20
9.655570967
 30
0.0
 10
9.9719752995
 20
9.6558872895
 30
0.0
 10
9.9737836644
 20
9.656307546
 30
0.0
 10
9.9760440197
 20
9.6568333826
 30
0.0
 10
9.9796606446
 20
9.6576744327
 30
0.0
 10
9.9841814061
 20
9.658725845
 30
0.0
 10
9.9896063295
 20
9.6599874943
 30
0.0
 10
9.9950312462
 20
9.6612491659
 30
0.0
 10
9.9995520242
 20
9.6623005224
 30
0.0
 10
10.0031686161
 20
9.663141684
 30
0.0
 10
10.0054290552
 20
9.6636672375
 30
0.0
 10
10.0072372483
 20
9.664088075
 30
0.0
 10
10.0085938261
 20
9.6644026225
 30
0.0
 10
10.00972293
 20
9.6646681833
 30
0.0
 10
10.0105160064
 20
9.664847329
 30
0.0
 10
10.0109649714
 20
9.6649602327
 30
0.0
 10
10.0113135871
 20
9.6650152339
 30
0.0
 10
10.0116167459
 20
9.665183674
 30
0.0
 10
10.0120368135
 20
9.6653686921
 30
0.0
 10
10.0127645444
 20
9.6657109096
 30
0.0
 10
10.0138080221
 20
9.6661901532
 30
0.0
 10
10.0150585422
 20
9.6667693712
 30
0.0
 10
10.0167264798
 20
9.6675402208
 30
0.0
 10
10.018811204
 20
9.6685042763
 30
0.0
 10
10.0221468734
 20
9.6700464891
 30
0.0
 10
10.0263164218
 20
9.6719743505
 30
0.0
 10
10.0313198978
 20
9.6742877406
 30
0.0
 10
10.0363233637
 20
9.6766011523
 30
0.0
 10
10.040492937
 20
9.6785289598
 30
0.0
 10
10.0438285566
 20
9.6800712804
 30
0.0
 10
10.0459134074
 20
9.6810350619
 30
0.0
 10
10.0475810853
 20
9.6818064738
 30
0.0
 10
10.0488323988
 20
9.6823839741
 30
0.0
 10
10.0498733941
 20
9.6828685919
 30
0.0
 10
10.0506055565
 20
9.6832012156
 30
0.0
 10
10.0510185237
 20
9.6834016052
 30
0.0
 10
10.0513434928
 20
9.683522829
 30
0.0
 10
10.0516101928
 20
9.6837551671
 30
0.0
 10
10.0519861177
 20
9.6840261933
 30
0.0
 10
10.0526345166
 20
9.6845185471
 30
0.0
 10
10.0535657516
 20
9.6852124688
 30
0.0
 10
10.0546811144
 20
9.6860492159
 30
0.0
 10
10.056169005
 20
9.6871634672
 30
0.0
 10
10.0580286148
 20
9.6885567646
 30
0.0
 10
10.0610041323
 20
9.6907857703
 30
0.0
 10
10.0647234799
 20
9.6935721206
 30
0.0
 10
10.0691867204
 20
9.696915699
 30
0.0
 10
10.0736499464
 20
9.7002592962
 30
0.0
 10
10.0773693305
 20
9.7030455995
 30
0.0
 10
10.0803447751
 20
9.7052746992
 30
0.0
 10
10.08220457
 20
9.7066677576
 30
0.0
 10
10.0836920808
 20
9.7077824994
 30
0.0
 10
10.0848086041
 20
9.7086177481
 30
0.0
 10
10.0857362082
 20
9.7093163577
 30
0.0
 10
10.0863910888
 20
9.7098003429
 30
0.0
 10
10.0867566284
 20
9.7100847777
 30
0.0
 10
10.0870552287
 20
9.7102759289
 30
0.0
 10
10.0872603855
 20
9.7105518437
 30
0.0
 10
10.087566522
 20
9.7108901637
 30
0.0
 10
10.0880870746
 20
9.7114959992
 30
0.0
 10
10.0888386608
 20
9.7123542764
 30
0.0
 10
10.0897371659
 20
9.7133872918
 30
0.0
 10
10.0909363596
 20
9.7147635689
 30
0.0
 10
10.0924349453
 20
9.716484284
 30
0.0
 10
10.0948329097
 20
9.7192372221
 30
0.0
 10
10.0978302866
 20
9.7226784658
 30
0.0
 10
10.101427175
 20
9.7268079259
 30
0.0
 10
10.1050240449
 20
9.7309374013
 30
0.0
 10
10.108021468
 20
9.734378607
 30
0.0
 10
10.11041934
 20
9.7371316209
 30
0.0
 10
10.1119181606
 20
9.7388521433
 30
0.0
 10
10.1131168722
 20
9.740228816
 30
0.0
 10
10.1140168502
 20
9.7412606228
 30
0.0
 10
10.1147638277
 20
9.7421226813
 30
0.0
 10
10.1152926076
 20
9.7427217666
 30
0.0
 10
10.115585562
 20
9.7430709021
 30
0.0
 10
10.11583121
 20
9.7433135952
 30
0.0
 10
10.1159777321
 20
9.7436295217
 30
0.0
 10
10.1162076711
 20
9.7440252123
 30
0.0
 10
10.1165939548
 20
9.7447295727
 30
0.0
 10
10.1171542109
 20
9.7457295795
 30
0.0
 10
10.1178229131
 20
9.746932251
 30
0.0
 10
10.1187157753
 20
9.7485348828
 30
0.0
 10
10.1198314219
 20
9.750538491
 30
0.0
 10
10.1216166975
 20
9.7537440861
 30
0.0
 10
10.1238482087
 20
9.7577511413
 30
0.0
 10
10.1265260605
 20
9.76255958
 30
0.0
 10
10.1292038922
 20
9.7673680309
 30
0.0
 10
10.1314354536
 20
9.7713750558
 30
0.0
 10
10.1332206288
 20
9.7745807117
 30
0.0
 10
10.1343365307
 20
9.7765841653
 30
0.0
 10
10.135228869
 20
9.7781871143
 30
0.0
 10
10.1358991719
 20
9.7793888166
 30
0.0
 10
10.13645442
 20
9.7803918559
 30
0.0
 10
10.1368496436
 20
9.7810908027
 30
0.0
 10
10.1370652585
 20
9.7814951673
 30
0.0
 10
10.1372557799
 20
9.7817844502
 30
0.0
 10
10.1373361741
 20
9.782127212
 30
0.0
 10
10.1374817799
 20
9.7825655737
 30
0.0
 10
10.1377186925
 20
9.783341398
 30
0.0
 10
10.1380664962
 20
9.7844451744
 30
0.0
 10
10.1384798555
 20
9.7857716511
 30
0.0
 10
10.1390324001
 20
9.7875396073
 30
0.0
 10
10.1397226018
 20
9.7897497852
 30
0.0
 10
10.1408271924
 20
9.7932859398
 30
0.0
 10
10.1422078382
 20
9.7977061779
 30
0.0
 10
10.1438646555
 20
9.8030104434
 30
0.0
 10
10.1455214511
 20
9.8083147181
 30
0.0
 10
10.1469021513
 20
9.8127349332
 30
0.0
 10
10.1480066329
 20
9.8162711339
 30
0.0
 10
10.1486971117
 20
9.8184811946
 30
0.0
 10
10.1492490878
 20
9.8202493914
 30
0.0
 10
10.1496641838
 20
9.821575133
 30
0.0
 10
10.1500065538
 20
9.8226812093
 30
0.0
 10
10.1502531664
 20
9.823452928
 30
0.0
 10
10.1503832304
 20
9.8238978678
 30
0.0
 10
10.1505113642
 20
9.8242204236
 30
0.0
 10
10.1505225834
 20
9.8245855972
 30
0.0
 10
10.1505783233
 20
9.8250576297
 30
0.0
 10
10.1506568676
 20
9.8258906128
 30
0.0
 10
10.1507790075
 20
9.8270769676
 30
0.0
 10
10.1509213235
 20
9.8285021433
 30
0.0
 10
10.1511125631
 20
9.8304018362
 30
0.0
 10
10.1513511042
 20
9.8327766377
 30
0.0
 10
10.1517330542
 20
9.8365762165
 30
0.0
 10
10.1522103936
 20
9.8413257255
 30
0.0
 10
10.1527832458
 20
9.8470251211
 30
0.0
 10
10.1533560751
 20
9.8527245206
 30
0.0
 10
10.1538334716
 20
9.8574740199
 30
0.0
 10
10.1542153072
 20
9.861273618
 30
0.0
 10
10.154454139
 20
9.8636483703
 30
0.0
 10
10.154644782
 20
9.8655481642
 30
0.0
 10
10.154788921
 20
9.8669730315
 30
0.0
 10
10.1549053568
 20
9.8681603512
 30
0.0
 10
10.154994084
 20
9.8689916117
 30
0.0
 10
10.1550335084
 20
9.8694664043
 30
0.0
 10
10.1550948436
 20
9.8698231
 30
0.0
 10
10.1550347496
 20
9.870177497
 30
0.0
 10
10.1549969802
 20
9.8706508282
 30
0.0
 10
10.1549111492
 20
9.8714787842
 30
0.0
 10
10.154798851
 20
9.8726617738
 30
0.0
 10
10.1546596769
 20
9.8740812776
 30
0.0
 10
10.1544756539
 20
9.8759739787
 30
0.0
 10
10.154245097
 20
9.8783398449
 30
0.0
 10
10.1538765013
 20
9.8821252366
 30
0.0
 10
10.1534156547
 20
9.8868569742
 30
0.0
 10
10.1528626853
 20
9.8925350605
 30
0.0
 10
10.152309693
 20
9.8982131451
 30
0.0
 10
10.1518489036
 20
9.9029448868
 30
0.0
 10
10.1514801934
 20
9.9067302701
 30
0.0
 10
10.1512499274
 20
9.9090961576
 30
0.0
 10
10.1510653074
 20
9.9109888152
 30
0.0
 10
10.1509279573
 20
9.9124084518
 30
0.0
 10
10.1508099524
 20
9.913591026
 30
0.0
 10
10.1507343087
 20
9.9144197234
 30
0.0
 10
10.1506802168
 20
9.9148918667
 30
0.0
 10
10.1506702601
 20
9.9152499125
 30
0.0
 10
10.1505432879
 20
9.9155929038
 30
0.0
 10
10.1504148081
 20
9.9160554767
 30
0.0
 10
10.1501709513
 20
9.9168625326
 30
0.0
 10
10.1498325267
 20
9.9180167487
 30
0.0
 10
10.1494221616
 20
9.9194012605
 30
0.0
 10
10.1488764945
 20
9.9212474676
 30
0.0
 10
10.1481939018
 20
9.9235551609
 30
0.0
 10
10.1471020378
 20
9.9272475068
 30
0.0
 10
10.1457371097
 20
9.9318629264
 30
0.0
 10
10.1440992407
 20
9.9374014363
 30
0.0
 10
10.1424613499
 20
9.9429399412
 30
0.0
 10
10.1410964763
 20
9.9475553735
 30
0.0
 10
10.1400045033
 20
9.951247694
 30
0.0
 10
10.1393221878
 20
9.9535554518
 30
0.0
 10
10.1387759516
 20
9.9554015265
 30
0.0
 10
10.1383673252
 20
9.9567864427
 30
0.0
 10
10.1380234607
 20
9.9579393937
 30
0.0
 10
10.137789315
 20
9.9587487081
 30
0.0
 10
10.1376452755
 20
9.9592076623
 30
0.0
 10
10.1375660977
 20
9.959561769
 30
0.0
 10
10.1373766334
 20
9.9598780672
 30
0.0
 10
10.1371624835
 20
9.9603129862
 30
0.0
 10
10.1367697978
 20
9.9610679498
 30
0.0
 10
10.1362181887
 20
9.9621496818
 30
0.0
 10
10.1355522469
 20
9.9634463851
 30
0.0
 10
10.1346657254
 20
9.9651758032
 30
0.0
 10
10.1335570938
 20
9.9673374113
 30
0.0
 10
10.1317835515
 20
9.9707960762
 30
0.0
 10
10.1295665309
 20
9.9751193756
 30
0.0
 10
10.1269061486
 20
9.9803073496
 30
0.0
 10
10.1242457454
 20
9.9854953152
 30
0.0
 10
10.122028777
 20
9.9898186358
 30
0.0
 10
10.1202551304
 20
9.9932772582
 30
0.0
 10
10.119146764
 20
9.9954389744
 30
0.0
 10
10.1182596983
 20
9.9971681705
 30
0.0
 10
10.1175954191
 20
9.998465552
 30
0.0
 10
10.117038608
 20
9.9995451623
 30
0.0
 10
10.1166552086
 20
10.0003039135
 30
0.0
 10
10.1164261796
 20
10.0007327639
 30
0.0
 10
10.1162824192
 20
10.0010677028
 30
0.0
 10
10.1160315854
 20
10.0013517982
 30
0.0
 10
10.1157344887
 20
10.0017483268
 30
0.0
 10
10.1151971683
 20
10.002433989
 30
0.0
 10
10.1144386652
 20
10.0034178263
 30
0.0
 10
10.1135245675
 20
10.0045965821
 30
0.0
 10
10.1123071306
 20
10.0061689022
 30
0.0
 10
10.1107848688
 20
10.0081340813
 30
0.0
 10
10.1083495103
 20
10.0112784914
 30
0.0
 10
10.1053052223
 20
10.0152089611
 30
0.0
 10
10.1016521172
 20
10.0199255453
 30
0.0
 10
10.0979989942
 20
10.0246421162
 30
0.0
 10
10.0949547508
 20
10.0285726193
 30
0.0
 10
10.0925193033
 20
10.0317169628
 30
0.0
 10
10.0909972676
 20
10.0336823112
 30
0.0
 10
10.0897793666
 20
10.0352542837
 30
0.0
 10
10.0888666867
 20
10.0364341016
 30
0.0
 10
10.0881037476
 20
10.0374146157
 30
0.0
 10
10.0875743462
 20
10.0381062104
 30
0.0
 10
10.0872645612
 20
10.0384932337
 30
0.0
 10
10.087052702
 20
10.0388065265
 30
0.0
 10
10.0867625595
 20
10.0390318047
 30
0.0
 10
10.0864030089
 20
10.0393628761
 30
0.0
 10
10.085761073
 20
10.0399279472
 30
0.0
 10
10.084850673
 20
10.0407426698
 30
0.0
 10
10.0837553461
 20
10.041717136
 30
0.0
 10
10.0822959046
 20
10.0430175424
 30
0.0
 10
10.0804712622
 20
10.0446426675
 30
0.0
 10
10.0775520248
 20
10.0472430816
 30
0.0
 10
10.0739029123
 20
10.0504935254
 30
0.0
 10
10.0695240071
 20
10.0543940919
 30
0.0
 10
10.065145088
 20
10.0582946408
 30
0.0
 10
10.0614960102
 20
10.0615451284
 30
0.0
 10
10.0585767033
 20
10.064145455
 30
0.0
 10
10.0567522374
 20
10.0657708027
 30
0.0
 10
10.0552924338
 20
10.067070752
 30
0.0
 10
10.0541982132
 20
10.0680466145
 30
0.0
 10
10.0532843517
 20
10.0688569686
 30
0.0
 10
10.0526485954
 20
10.0694298383
 30
0.0
 10
10.0522791435
 20
10.0697484143
 30
0.0
 10
10.0520194146
 20
10.0700120745
 30
0.0
 10
10.0516933268
 20
10.0701812109
 30
0.0
 10
10.0512816898
 20
10.0704396971
 30
0.0
 10
10.0505505405
 20
10.0708766861
 30
0.0
 10
10.0495116798
 20
10.0715089874
 30
0.0
 10
10.0482626337
 20
10.0722643113
 30
0.0
 10
10.0465980817
 20
10.0732726106
 30
0.0
 10
10.0445171031
 20
10.0745325735
 30
0.0
 10
10.0411876988
 20
10.0765487441
 30
0.0
 10
10.0370258877
 20
10.0790688779
 30
0.0
 10
10.0320317393
 20
10.082093075
 30
0.0
 10
10.0270375802
 20
10.0851172528
 30
0.0
 10
10.0228757961
 20
10.087637435
 30
0.0
 10
10.0195463378
 20
10.0896535088
 30
0.0
 10
10.0174654961
 20
10.0909137176
 30
0.0
 10
10.0158006633
 20
10.0919215124
 30
0.0
 10
10.0145524753
 20
10.0926783774
 30
0.0
 10
10.0135109294
 20
10.093305857
 30
0.0
 10
10.0127845738
 20
10.0937514536
 30
0.0
 10
10.0123652562
 20
10.0939961483
 30
0.0
 10
10.0120627606
 20
10.0942076478
 30
0.0
 10
10.0117144234
 20
10.0943121992
 30
0.0
 10
10.0112659639
 20
10.0944889058
 30
0.0
 10
10.0104737097
 20
10.0947807615
 30
0.0
 10
10.009345813
 20
10.095206785
 30
0.0
 10
10.0079906698
 20
10.0957141238
 30
0.0
 10
10.0061843945
 20
10.096391934
 30
0.0
 10
10.0039263509
 20
10.0972387316
 30
0.0
 10
10.0003135927
 20
10.0985938679
 30
0.0
 10
9.9957976065
 20
10.1002876983
 30
0.0
 10
9.9903784403
 20
10.1023203361
 30
0.0
 10
9.9849592664
 20
10.1043529527
 30
0.0
 10
9.9804432995
 20
10.1060468363
 30
0.0
 10
9.9768305027
 20
10.1074018662
 30
0.0
 10
9.9745725572
 20
10.108248934
 30
0.0
 10
9.9727660807
 20
10.1089261897
 30
0.0
 10
9.9714115521
 20
10.1094352226
 30
0.0
 10
9.9702817323
 20
10.1098559458
 30
0.0
 10
9.9694929111
 20
10.1101572634
 30
0.0
 10
9.9690389512
 20
10.1103188096
 30
0.0
 10
9.9687075094
 20
10.110469929
 30
0.0
 10
9.9683415575
 20
10.110506527
 30
0.0
 10
9.9678656592
 20
10.1105952706
 30
0.0
 10
9.9670272287
 20
10.1107319603
 30
0.0
 10
9.9658324029
 20
10.1109369616
 30
0.0
 10
9.9643973569
 20
10.1111787983
 30
0.0
 10
9.9624844007
 20
10.111502702
 30
0.0
 10
9.9600930553
 20
10.1119070834
 30
0.0
 10
9.9562669865
 20
10.1125543721
 30
0.0
 10
9.9514843717
 20
10.1133633875
 30
0.0
 10
9.9457452463
 20
10.1143342469
 30
0.0
 10
9.9400061177
 20
10.1153050954
 30
0.0
 10
9.9323539472
 20
10.1165995638
 30
0.0
 10
9.9266148192
 20
10.1175704143
 30
0.0
 10
9.9227887339
 20
10.1182176481
 30
0.0
  0
SPLINE
  5
389
100
AcDbEntity
  8
0
100
AcDbSpline
 62
4
  6
CONTINUOUS
 70
0
 71
3
 72
313
 73
309
 74
0
 42
0.0000001
 43
0.0000001
 44
0.0000000001
 40
0.0
 40
0.0
 40
0.0
 40
0.0
 40
0.015625
 40
0.0234375
 40
0.03125
 40
0.0390625
 40
0.046875
 40
0.05078125
 40
0.0546875
 40
0.056640625
 40
0.05859375
 40
0.060546875
 40
0.0615234375
 40
0.0620117188
 40
0.0625
 40
0.0629882812
 40
0.0634765625
 40
0.064453125
 40
0.06640625
 40
0.068359375
 40
0.0703125
 40
0.07421875
 40
0.078125
 40
0.0859375
 40
0.09375
 40
0.1015625
 40
0.109375
 40
0.11328125
 40
0.1171875
 40
0.119140625
 40
0.12109375
 40
0.123046875
 40
0.1240234375
 40
0.1245117188
 40
0.125
 40
0.1254882812
 40
0.1259765625
 40
0.126953125
 40
0.12890625
 40
0.130859375
 40
0.1328125
 40
0.13671875
 40
0.140625
 40
0.1484375
 40
0.15625
 40
0.1640625
 40
0.171875
 40
0.17578125
 40
0.1796875
 40
0.181640625
 40
0.18359375
 40
0.185546875
 40
0.1865234375
 40
0.1870117188
 40
0.1875
 40
0.1879882812
 40
0.1884765625
 40
0.189453125
 40
0.19140625
 40
0.193359375
 40
0.1953125
 40
0.19921875
 40
0.203125
 40
0.2109375
 40
0.21875
 40
0.2265625
 40
0.234375
 40
0.23828125
 40
0.2421875
 40
0.244140625
 40
0.24609375
 40
0.248046875
 40
0.2490234375
 40
0.2495117188
 40
0.25
 40
0.2504882812
 40
0.2509765625
 40
0.251953125
 40
0.25390625
 40
0.255859375
 40
0.2578125
 40
0.26171875
 40
0.265625
 40
0.2734375
 40
0.28125
 40
0.2890625
 40
0.296875
 40
0.30078125
 40
0.3046875
 40
0.306640625
 40
0.30859375
 40
0.310546875
 40
0.3115234375
 40
0.3120117188
 40
0.3125
 40
0.3129882812
 40
0.3134765625
 40
0.314453125
 40
0.31640625
 40
0.318359375
 40
0.3203125
 40
0.32421875
 40
0.328125
 40
0.3359375
 40
0.34375
 40
0.3515625
 40
0.359375
 40
0.36328125
 40
0.3671875
 40
0.369140625
 40
0.37109375
 40
0.373046875
 40
0.3740234375
 40
0.3745117188
 40
0.375
 40
0.3754882812
 40
0.3759765625
 40
0.376953125
 40
0.37890625
 40
0.380859375
 40
0.3828125
 40
0.38671875
 40
0.390625
 40
0.3984375
 40
0.40625
 40
0.4140625
 40
0.421875
 40
0.42578125
 40
0.4296875
 40
0.431640625
 40
0.43359375
 40
0.435546875
 40
0.4365234375
 40
0.4370117188
 40
0.4375
 40
0.4379882812
 40
0.4384765625
 40
0.439453125
 40
0.44140625
 40
0.443359375
 40
0.4453125
 40
0.44921875
 40
0.453125
 40
0.4609375
 40
0.46875
 40
0.4765625
 40
0.484375
 40
0.48828125
 40
0.4921875
 40
0.494140625
 40
0.49609375
 40
0.498046875
 40
0.4990234375
 40
0.4995117188
 40
0.5
 40
0.5004882812
 40
0.5009765625
 40
0.501953125
 40
0.50390625
 40
0.505859375
 40
0.5078125
 40
0.51171875
 40
0.515625
 40
0.5234375
 40
0.53125
 40
0.5390625
 40
0.546875
 40
0.55078125
 40
0.5546875
 40
0.556640625
 40
0.55859375
 40
0.560546875
 40
0.5615234375
 40
0.5620117188
 40
0.5625
 40
0.5629882812
 40
0.5634765625
 40
0.564453125
 40
0.56640625
 40
0.568359375
 40
0.5703125
 40
0.57421875
 40
0.578125
 40
0.5859375
 40
0.59375
 40
0.6015625
 40
0.609375
 40
0.61328125
 40
0.6171875
 40
0.619140625
 40
0.62109375
 40
0.623046875
 40
0.6240234375
 40
0.6245117188
 40
0.625
 40
0.6254882812
 40
0.6259765625
 40
0.626953125
 40
0.62890625
 40
0.630859375
 40
0.6328125
 40
0.63671875
 40
0.640625
 40
0.6484375
 40
0.65625
 40
0.6640625
 40
0.671875
 40
0.67578125
 40
0.6796875
 40
0.681640625
 40
0.68359375
 40
0.685546875
 40
0.6865234375
 40
0.6870117188
 40
0.6875
 40
0.6879882812
 40
0.6884765625
 40
0.689453125
 40
0.69140625
 40
0.693359375
 40
0.6953125
 40
0.69921875
 40
0.703125
 40
0.7109375
 40
0.71875
 40
0.7265625
 40
0.734375
 40
0.73828125
 40
0.7421875
 40
0.744140625
 40
0.74609375
 40
0.748046875
 40
0.7490234375
 40
0.7495117188
 40
0.75
 40
0.7504882812
 40
0.7509765625
 40
0.751953125
 40
0.75390625
 40
0.755859375
 40
0.7578125
 40
0.76171875
 40
0.765625
 40
0.7734375
 40
0.78125
 40
0.7890625
 40
0.796875
 40
0.80078125
 40
0.8046875
 40
0.806640625
 40
0.80859375
 40
0.810546875
 40
0.8115234375
 40
0.8120117188
 40
0.8125
 40
0.8129882812
 40
0.8134765625
 40
0.814453125
 40
0.81640625
 40
0.818359375
 40
0.8203125
 40
0.82421875
 40
0.828125
 40
0.8359375
 40
0.84375
 40
0.8515625
 40
0.859375
 40
0.86328125
 40
0.8671875
 40
0.869140625
 40
0.87109375
 40
0.873046875
 40
0.8740234375
 40
0.8745117188
 40
0.875
 40
0.8754882812
 40
0.8759765625
 40
0.876953125
 40
0.87890625
 40
0.880859375
 40
0.8828125
 40
0.88671875
 40
0.890625
 40
0.8984375
 40
0.90625
 40
0.9140625
 40
0.921875
 40
0.92578125
 40
0.9296875
 40
0.931640625
 40
0.93359375
 40
0.935546875
 40
0.9365234375
 40
0.9370117188
 40
0.9375
 40
0.9379882812
 40
0.9384765625
 40
0.939453125
 40
0.94140625
 40
0.943359375
 40
0.9453125
 40
0.94921875
 40
0.953125
 40
0.9609375
 40
0.96875
 40
0.9765625
 40
0.984375
 40
1.0
 40
1.0
 40
1.0
 40
1.0
 10
9.9227887542
 20
10.1182176467
 30
0.0
 10
9.9190289299
 20
10.1181097374
 30
0.0
 10
9.9133891933
 20
10.1179478738
 30
0.0
 10
9.9058695449
 20
10.1177320544
 30
0.0
 10
9.900229808
 20
10.1175701928
 30
0.0
 10
9.8945900733
 20
10.1174083199
 30
0.0
 10
9.8898902875
 20
10.1172734612
 30
0.0
 10
9.8861304743
 20
10.117165495
 30
0.0
 10
9.8837805558
 20
10.1170981964
 30
0.0
 10
9.8819007017
 20
10.1170439448
 30
0.0
 10
9.8804905903
 20
10.1170043861
 30
0.0
 10
9.8793161997
 20
10.1169678256
 30
0.0
 10
9.8784927483
 20
10.1169492884
 30
0.0
 10
9.8780243563
 20
10.1169276796
 30
0.0
 10
9.8776670009
 20
10.1169425055
 30
0.0
 10
9.8773328152
 20
10.1168387093
 30
0.0
 10
9.8768791525
 20
10.116741691
 30
0.0
 10
9.8760890081
 20
10.1165526309
 30
0.0
 10
9.8749582618
 20
10.1162926239
 30
0.0
 10
9.8736022088
 20
10.1159763014
 30
0.0
 10
9.871793844
 20
10.1155560448
 30
0.0
 10
9.8695334886
 20
10.1150302082
 30
0.0
 10
9.8659168637
 20
10.1141891581
 30
0.0
 10
9.8613961022
 20
10.1131377458
 30
0.0
 10
9.8559711789
 20
10.1118760965
 30
0.0
 10
9.8505462621
 20
10.110614425
 30
0.0
 10
9.8460254841
 20
10.1095630684
 30
0.0
 10
9.8424088922
 20
10.1087219069
 30
0.0
 10
9.8401484531
 20
10.1081963533
 30
0.0
 10
9.8383402601
 20
10.1077755158
 30
0.0
 10
9.8369836822
 20
10.1074609684
 30
0.0
 10
9.8358545783
 20
10.1071954075
 30
0.0
 10
9.8350615019
 20
10.1070162619
 30
0.0
 10
9.8346125369
 20
10.1069033582
 30
0.0
 10
9.8342639213
 20
10.106848357
 30
0.0
 10
9.8339607624
 20
10.1066799168
 30
0.0
 10
9.8335406948
 20
10.1064948987
 30
0.0
 10
9.832812964
 20
10.1061526813
 30
0.0
 10
9.8317694862
 20
10.1056734376
 30
0.0
 10
9.8305189661
 20
10.1050942196
 30
0.0
 10
9.8288510285
 20
10.10432337
 30
0.0
 10
9.8267663043
 20
10.1033593146
 30
0.0
 10
9.8234306349
 20
10.1018171017
 30
0.0
 10
9.8192610865
 20
10.0998892403
 30
0.0
 10
9.8142576106
 20
10.0975758502
 30
0.0
 10
9.8092541446
 20
10.0952624385
 30
0.0
 10
9.8050845713
 20
10.0933346311
 30
0.0
 10
9.8017489517
 20
10.0917923104
 30
0.0
 10
9.7996641009
 20
10.0908285289
 30
0.0
 10
9.797996423
 20
10.0900571171
 30
0.0
 10
9.7967451095
 20
10.0894796168
 30
0.0
 10
9.7957041142
 20
10.088994999
 30
0.0
 10
9.7949719518
 20
10.0886623752
 30
0.0
 10
9.7945589846
 20
10.0884619856
 30
0.0
 10
9.7942340155
 20
10.0883407618
 30
0.0
 10
9.7939673155
 20
10.0881084237
 30
0.0
 10
9.7935913906
 20
10.0878373976
 30
0.0
 10
9.7929429918
 20
10.0873450437
 30
0.0
 10
9.7920117568
 20
10.086651122
 30
0.0
 10
9.7908963939
 20
10.085814375
 30
0.0
 10
9.7894085033
 20
10.0847001237
 30
0.0
 10
9.7875488935
 20
10.0833068262
 30
0.0
 10
9.784573376
 20
10.0810778205
 30
0.0
 10
9.7808540284
 20
10.0782914702
 30
0.0
 10
9.7763907879
 20
10.0749478919
 30
0.0
 10
9.7719275619
 20
10.0716042947
 30
0.0
 10
9.7682081779
 20
10.0688179914
 30
0.0
 10
9.7652327332
 20
10.0665888917
 30
0.0
 10
9.7633729383
 20
10.0651958332
 30
0.0
 10
9.7618854276
 20
10.0640810915
 30
0.0
 10
9.7607689042
 20
10.0632458427
 30
0.0
 10
9.7598413001
 20
10.0625472332
 30
0.0
 10
9.7591864196
 20
10.0620632479
 30
0.0
 10
9.75882088
 20
10.0617788131
 30
0.0
 10
9.7585222796
 20
10.0615876619
 30
0.0
 10
9.7583171229
 20
10.0613117471
 30
0.0
 10
9.7580109864
 20
10.0609734272
 30
0.0
 10
9.7574904337
 20
10.0603675917
 30
0.0
 10
9.7567388475
 20
10.0595093144
 30
0.0
 10
9.7558403425
 20
10.058476299
 30
0.0
 10
9.7546411487
 20
10.0571000219
 30
0.0
 10
9.753142563
 20
10.0553793068
 30
0.0
 10
9.7507445987
 20
10.0526263688
 30
0.0
 10
9.7477472217
 20
10.0491851251
 30
0.0
 10
9.7441503334
 20
10.0450556649
 30
0.0
 10
9.7405534635
 20
10.0409261896
 30
0.0
 10
9.7375560403
 20
10.0374849838
 30
0.0
 10
9.7351581684
 20
10.0347319699
 30
0.0
 10
9.7336593477
 20
10.0330114476
 30
0.0
 10
9.7324606362
 20
10.0316347748
 30
0.0
 10
9.7315606581
 20
10.030602968
 30
0.0
 10
9.7308136806
 20
10.0297409095
 30
0.0
 10
9.7302849007
 20
10.0291418242
 30
0.0
 10
9.7299919463
 20
10.0287926888
 30
0.0
 10
9.7297462983
 20
10.0285499956
 30
0.0
 10
9.7295997762
 20
10.0282340692
 30
0.0
 10
9.7293698372
 20
10.0278383785
 30
0.0
 10
9.7289835535
 20
10.0271340181
 30
0.0
 10
9.7284232975
 20
10.0261340113
 30
0.0
 10
9.7277545952
 20
10.0249313398
 30
0.0
 10
9.726861733
 20
10.023328708
 30
0.0
 10
9.7257460864
 20
10.0213250998
 30
0.0
 10
9.7239608108
 20
10.0181195047
 30
0.0
 10
9.7217292996
 20
10.0141124495
 30
0.0
 10
9.7190514478
 20
10.0093040108
 30
0.0
 10
9.7163736161
 20
10.0044955599
 30
0.0
 10
9.7141420547
 20
10.0004885351
 30
0.0
 10
9.7123568795
 20
9.9972828792
 30
0.0
 10
9.7112409777
 20
9.9952794255
 30
0.0
 10
9.7103486394
 20
9.9936764765
 30
0.0
 10
9.7096783365
 20
9.9924747743
 30
0.0
 10
9.7091230883
 20
9.9914717349
 30
0.0
 10
9.7087278647
 20
9.9907727881
 30
0.0
 10
9.7085122498
 20
9.9903684235
 30
0.0
 10
9.7083217284
 20
9.9900791406
 30
0.0
 10
9.7082413343
 20
9.9897363788
 30
0.0
 10
9.7080957284
 20
9.9892980171
 30
0.0
 10
9.7078588158
 20
9.9885221928
 30
0.0
 10
9.7075110121
 20
9.9874184164
 30
0.0
 10
9.7070976529
 20
9.9860919397
 30
0.0
 10
9.7065451082
 20
9.9843239835
 30
0.0
 10
9.7058549065
 20
9.9821138056
 30
0.0
 10
9.7047503159
 20
9.978577651
 30
0.0
 10
9.7033696701
 20
9.9741574129
 30
0.0
 10
9.7017128528
 20
9.9688531474
 30
0.0
 10
9.7000560572
 20
9.9635488727
 30
0.0
 10
9.698675357
 20
9.9591286576
 30
0.0
 10
9.6975708754
 20
9.9555924569
 30
0.0
 10
9.6968803967
 20
9.9533823963
 30
0.0
 10
9.6963284205
 20
9.9516141994
 30
0.0
 10
9.6959133245
 20
9.9502884578
 30
0.0
 10
9.6955709545
 20
9.9491823815
 30
0.0
 10
9.6953243419
 20
9.9484106629
 30
0.0
 10
9.6951942779
 20
9.947965723
 30
0.0
 10
9.6950661441
 20
9.9476431673
 30
0.0
 10
9.695054925
 20
9.9472779937
 30
0.0
 10
9.694999185
 20
9.9468059611
 30
0.0
 10
9.6949206407
 20
9.945972978
 30
0.0
 10
9.6947985008
 20
9.9447866232
 30
0.0
 10
9.6946561849
 20
9.9433614475
 30
0.0
 10
9.6944649452
 20
9.9414617546
 30
0.0
 10
9.6942264041
 20
9.9390869531
 30
0.0
 10
9.6938444541
 20
9.9352873744
 30
0.0
 10
9.6933671148
 20
9.9305378654
 30
0.0
 10
9.6927942626
 20
9.9248384697
 30
0.0
 10
9.6922214333
 20
9.9191390703
 30
0.0
 10
9.6917440367
 20
9.9143895709
 30
0.0
 10
9.6913622011
 20
9.9105899728
 30
0.0
 10
9.6911233693
 20
9.9082152205
 30
0.0
 10
9.6909327263
 20
9.9063154267
 30
0.0
 10
9.6907885873
 20
9.9048905594
 30
0.0
 10
9.6906721515
 20
9.9037032396
 30
0.0
 10
9.6905834244
 20
9.9028719791
 30
0.0
 10
9.6905439999
 20
9.9023971866
 30
0.0
 10
9.6904826647
 20
9.9020404908
 30
0.0
 10
9.6905427587
 20
9.9016860938
 30
0.0
 10
9.6905805281
 20
9.9012127626
 30
0.0
 10
9.6906663591
 20
9.9003848066
 30
0.0
 10
9.6907786574
 20
9.8992018171
 30
0.0
 10
9.6909178314
 20
9.8977823132
 30
0.0
 10
9.6911018544
 20
9.8958896122
 30
0.0
 10
9.6913324113
 20
9.8935237459
 30
0.0
 10
9.691701007
 20
9.8897383542
 30
0.0
 10
9.6921618536
 20
9.8850066167
 30
0.0
 10
9.692714823
 20
9.8793285304
 30
0.0
 10
9.6932678154
 20
9.8736504457
 30
0.0
 10
9.6937286048
 20
9.868918704
 30
0.0
 10
9.6940973149
 20
9.8651333207
 30
0.0
 10
9.6943275809
 20
9.8627674332
 30
0.0
 10
9.6945122009
 20
9.8608747757
 30
0.0
 10
9.6946495511
 20
9.8594551391
 30
0.0
 10
9.6947675559
 20
9.8582725648
 30
0.0
 10
9.6948431997
 20
9.8574438674
 30
0.0
 10
9.6948972916
 20
9.8569717242
 30
0.0
 10
9.6949072483
 20
9.8566136783
 30
0.0
 10
9.6950342204
 20
9.856270687
 30
0.0
 10
9.6951627002
 20
9.8558081142
 30
0.0
 10
9.6954065571
 20
9.8550010583
 30
0.0
 10
9.6957449816
 20
9.8538468421
 30
0.0
 10
9.6961553467
 20
9.8524623303
 30
0.0
 10
9.6967010138
 20
9.8506161233
 30
0.0
 10
9.6973836066
 20
9.84830843
 30
0.0
 10
9.6984754705
 20
9.844616084
 30
0.0
 10
9.6998403986
 20
9.8400006644
 30
0.0
 10
9.7014782676
 20
9.8344621545
 30
0.0
 10
9.7031161585
 20
9.8289236496
 30
0.0
 10
9.7044810321
 20
9.8243082173
 30
0.0
 10
9.7055730051
 20
9.8206158968
 30
0.0
 10
9.7062553206
 20
9.818308139
 30
0.0
 10
9.7068015567
 20
9.8164620643
 30
0.0
 10
9.7072101832
 20
9.8150771481
 30
0.0
 10
9.7075540476
 20
9.8139241971
 30
0.0
 10
9.7077881933
 20
9.8131148827
 30
0.0
 10
9.7079322328
 20
9.8126559285
 30
0.0
 10
9.7080114106
 20
9.8123018219
 30
0.0
 10
9.7082008749
 20
9.8119855236
 30
0.0
 10
9.7084150248
 20
9.8115506047
 30
0.0
 10
9.7088077106
 20
9.810795641
 30
0.0
 10
9.7093593197
 20
9.809713909
 30
0.0
 10
9.7100252615
 20
9.8084172057
 30
0.0
 10
9.710911783
 20
9.8066877876
 30
0.0
 10
9.7120204145
 20
9.8045261795
 30
0.0
 10
9.7137939569
 20
9.8010675146
 30
0.0
 10
9.7160109774
 20
9.7967442153
 30
0.0
 10
9.7186713597
 20
9.7915562412
 30
0.0
 10
9.721331763
 20
9.7863682757
 30
0.0
 10
9.7235487313
 20
9.782044955
 30
0.0
 10
9.7253223779
 20
9.7785863327
 30
0.0
 10
9.7264307444
 20
9.7764246164
 30
0.0
 10
9.7273178101
 20
9.7746954203
 30
0.0
 10
9.7279820893
 20
9.7733980389
 30
0.0
 10
9.7285389003
 20
9.7723184286
 30
0.0
 10
9.7289222997
 20
9.7715596774
 30
0.0
 10
9.7291513287
 20
9.7711308269
 30
0.0
 10
9.7292950892
 20
9.770795888
 30
0.0
 10
9.7295459229
 20
9.7705117926
 30
0.0
 10
9.7298430196
 20
9.770115264
 30
0.0
 10
9.7303803401
 20
9.7694296018
 30
0.0
 10
9.7311388431
 20
9.7684457645
 30
0.0
 10
9.7320529409
 20
9.7672670088
 30
0.0
 10
9.7332703777
 20
9.7656946886
 30
0.0
 10
9.7347926395
 20
9.7637295096
 30
0.0
 10
9.7372279981
 20
9.7605850994
 30
0.0
 10
9.740272286
 20
9.7566546297
 30
0.0
 10
9.7439253912
 20
9.7519380455
 30
0.0
 10
9.7475785141
 20
9.7472214746
 30
0.0
 10
9.7506227576
 20
9.7432909715
 30
0.0
 10
9.7530582051
 20
9.740146628
 30
0.0
 10
9.7545802408
 20
9.7381812796
 30
0.0
 10
9.7557981417
 20
9.7366093071
 30
0.0
 10
9.7567108216
 20
9.7354294892
 30
0.0
 10
9.7574737607
 20
9.7344489751
 30
0.0
 10
9.7580031621
 20
9.7337573805
 30
0.0
 10
9.7583129471
 20
9.7333703572
 30
0.0
 10
9.7585248063
 20
9.7330570643
 30
0.0
 10
9.7588149488
 20
9.7328317861
 30
0.0
 10
9.7591744994
 20
9.7325007147
 30
0.0
 10
9.7598164354
 20
9.7319356437
 30
0.0
 10
9.7607268353
 20
9.731120921
 30
0.0
 10
9.7618221622
 20
9.7301464548
 30
0.0
 10
9.7632816037
 20
9.7288460485
 30
0.0
 10
9.7651062461
 20
9.7272209234
 30
0.0
 10
9.7680254835
 20
9.7246205092
 30
0.0
 10
9.771674596
 20
9.7213700654
 30
0.0
 10
9.7760535012
 20
9.717469499
 30
0.0
 10
9.7804324204
 20
9.71356895
 30
0.0
 10
9.7840814981
 20
9.7103184624
 30
0.0
 10
9.787000805
 20
9.7077181359
 30
0.0
 10
9.7888252709
 20
9.7060927881
 30
0.0
 10
9.7902850745
 20
9.7047928388
 30
0.0
 10
9.7913792951
 20
9.7038169763
 30
0.0
 10
9.7922931566
 20
9.7030066223
 30
0.0
 10
9.792928913
 20
9.7024337525
 30
0.0
 10
9.7932983649
 20
9.7021151765
 30
0.0
 10
9.7935580937
 20
9.7018515163
 30
0.0
 10
9.7938841815
 20
9.7016823799
 30
0.0
 10
9.7942958185
 20
9.7014238938
 30
0.0
 10
9.7950269678
 20
9.7009869048
 30
0.0
 10
9.7960658285
 20
9.7003546035
 30
0.0
 10
9.7973148746
 20
9.6995992795
 30
0.0
 10
9.7989794266
 20
9.6985909803
 30
0.0
 10
9.8010604052
 20
9.6973310173
 30
0.0
 10
9.8043898095
 20
9.6953148467
 30
0.0
 10
9.8085516206
 20
9.692794713
 30
0.0
 10
9.813545769
 20
9.6897705158
 30
0.0
 10
9.8185399281
 20
9.686746338
 30
0.0
 10
9.8227017123
 20
9.6842261559
 30
0.0
 10
9.8260311705
 20
9.682210082
 30
0.0
 10
9.8281120122
 20
9.6809498733
 30
0.0
 10
9.8297768451
 20
9.6799420784
 30
0.0
 10
9.831025033
 20
9.6791852134
 30
0.0
 10
9.8320665789
 20
9.6785577338
 30
0.0
 10
9.8327929346
 20
9.6781121372
 30
0.0
 10
9.8332122521
 20
9.6778674426
 30
0.0
 10
9.8335147477
 20
9.6776559431
 30
0.0
 10
9.8338630849
 20
9.6775513916
 30
0.0
 10
9.8343115444
 20
9.677374685
 30
0.0
 10
9.8351037986
 20
9.6770828294
 30
0.0
 10
9.8362316953
 20
9.6766568058
 30
0.0
 10
9.8375868385
 20
9.676149467
 30
0.0
 10
9.8393931139
 20
9.6754716568
 30
0.0
 10
9.8416511574
 20
9.6746248592
 30
0.0
 10
9.8452639156
 20
9.6732697229
 30
0.0
 10
9.8497799019
 20
9.6715758925
 30
0.0
 10
9.855199068
 20
9.6695432547
 30
0.0
 10
9.8606182419
 20
9.6675106382
 30
0.0
 10
9.8651342088
 20
9.6658167546
 30
0.0
 10
9.8687470056
 20
9.6644617246
 30
0.0
 10
9.8710049511
 20
9.6636146568
 30
0.0
 10
9.8728114276
 20
9.6629374011
 30
0.0
 10
9.8741659563
 20
9.6624283683
 30
0.0
 10
9.875295776
 20
9.662007645
 30
0.0
 10
9.8760845973
 20
9.6617063274
 30
0.0
 10
9.8765385571
 20
9.6615447813
 30
0.0
 10
9.8768699989
 20
9.6613936618
 30
0.0
 10
9.8772359508
 20
9.6613570639
 30
0.0
 10
9.8777118491
 20
9.6612683202
 30
0.0
 10
9.8785502797
 20
9.6611316306
 30
0.0
 10
9.8797451054
 20
9.6609266292
 30
0.0
 10
9.8811801514
 20
9.6606847925
 30
0.0
 10
9.8830931076
 20
9.6603608889
 30
0.0
 10
9.8854844531
 20
9.6599565074
 30
0.0
 10
9.8893105218
 20
9.6593092187
 30
0.0
 10
9.8940931366
 20
9.6585002033
 30
0.0
 10
9.899832262
 20
9.6575293439
 30
0.0
 10
9.9055713907
 20
9.6565584955
 30
0.0
 10
9.9132235611
 20
9.655264027
 30
0.0
 10
9.9189626891
 20
9.6542931766
 30
0.0
 10
9.9227887745
 20
9.6536459427
 30
0.0
  0
ENDSEC
  0
SECTION
  2
OBJECTS
  0
DICTIONARY
  5
C
100
AcDbDictionary
280
0
281
1
  3
ACAD_GROUP
350
D
  3
ACAD_MLINESTYLE
350
17
  3
ACAD_LAYOUT
350
1A
  3
ACAD_PLOTSETTINGS
350
19
  3
ACAD_PLOTSTYLENAME
350
E
  3
ACAD_IMAGE_DICT
350
       38B
  3
ACAD_IMAGE_VARS
350
       38C
  3
ACAD_TABLESTYLE
350
       38D
  0
IMAGEDEF_REACTOR
  5
38A
100
AcDbRasterImageDefReactor
 90
2
330
28F
  0
DICTIONARY
  5
D
102
{ACAD_REACTORS
330
C
102
}
100
AcDbDictionary
280
0
281
1
  0
ACDBDICTIONARYWDFLT
  5
E
102
{ACAD_REACTORS
330
C
102
}
100
AcDbDictionary
281
1
  3
Normal
350
F
100
AcDbDictionaryWithDefault
340
F
  0
DICTIONARY
  5
38B
330
C
100
AcDbDictionary
281
1
  3
K2N_assy_2_img_1
350
       390
  0
RASTERVARIABLES
  5
38C
330
C
100
AcDbRasterVariables
 90
0
 70
0
 71
1
 72
5
  0
DICTIONARY
  5
17
102
{ACAD_REACTORS
330
C
102
}
100
AcDbDictionary
280
0
281
1
  3
Standard
350
18
  0
DICTIONARY
  5
38D
330
C
100
AcDbDictionary
281
1
  3
Standard
350
       391
  3
Standard1
350
       392
  0
DICTIONARY
  5
19
102
{ACAD_REACTORS
330
C
102
}
100
AcDbDictionary
281
1
  0
DICTIONARY
  5
1A
102
{ACAD_REACTORS
330
C
102
}
100
AcDbDictionary
281
1
  3
Model
350
38E
  3
Layout1
350
38F
  0
ACDBPLACEHOLDER
  5
F
102
{ACAD_REACTORS
330
E
102
}
  0
MLINESTYLE
  5
18
102
{ACAD_REACTORS
330
17
102
}
100
AcDbMlineStyle
  2
STANDARD
 70
0
  3

 62
256
 51
90.0
 52
90.0
 71
2
 49
0.5
 62
256
  6
BYLAYER
 49
-0.5
 62
256
  6
BYLAYER
  0
LAYOUT
  5
38E
102
{ACAD_REACTORS
330
1A
102
}
100
AcDbPlotSettings
  1

  2
none_device
  4
ANSI_C_(22.00_x_17.00_Inches)
  6

 40
0.0
 41
0.0
 42
0.0
 43
0.0
 44
558.8
 45
431.8
 46
0.0
 47
0.0
 48
0.0
 49
0.0
140
0.0
141
0.0
142
1.0
143
1.0
 70
1024
 72
0
 73
0
 74
0
  7

 75
0
147
1.0
148
0.0
149
0.0
100
AcDbLayout
  1
Model
 70
0
 71
0
 10
0.0
 20
0.0
 11
22.0
 21
17.0
 12
0.0
 22
0.0
 32
0.0
 14
0.0
 24
0.0
 34
0.0
 15
0.0
 25
0.0
 35
0.0
146
0.0
 13
0.0
 23
0.0
 33
0.0
 16
1.0
 26
0.0
 36
0.0
 17
0.0
 27
1.0
 37
0.0
 76
0
330
20C
345
0
346
0
  0
LAYOUT
  5
38F
102
{ACAD_REACTORS
330
1A
102
}
100
AcDbPlotSettings
  1

  2
none_device
  4
ANSI_C_(22.00_x_17.00_Inches)
  6

 40
0.0
 41
0.0
 42
0.0
 43
0.0
 44
558.8
 45
431.8
 46
0.0
 47
0.0
 48
0.0
 49
0.0
140
0.0
141
0.0
142
1.0
143
1.0
 70
0
 72
0
 73
0
 74
0
  7

 75
0
147
1.0
148
0.0
149
0.0
100
AcDbLayout
  1
Layout1
 70
0
 71
1
 10
0.0
 20
0.0
 11
22.0
 21
17.0
 12
0.0
 22
0.0
 32
0.0
 14
0.0
 24
0.0
 34
0.0
 15
0.0
 25
0.0
 35
0.0
146
0.0
 13
0.0
 23
0.0
 33
0.0
 16
1.0
 26
0.0
 36
0.0
 17
0.0
 27
1.0
 37
0.0
 76
0
330
20D
345
0
346
0
  0
IMAGEDEF
  5
390
102
{ACAD_REACTORS
330
38B
330
38A
102
}
100
AcDbRasterImageDef
 90
0
  1
K2N_assy_2_img_1.png
 10
369.0
 20
92.0
 11
0.0066666667
 21
0.0066666667
280
1
281
0
  0
TABLESTYLE
  5
391
102
{ACAD_REACTORS
330
38D
330
292
330
293
102
}
330
38D
100
AcDbTableStyle
  3
Standard
 70
0
 71
0
 40
0.06
 41
0.06
280
1
281
1
  7
Standard
140
0.18
170
1
 62
0
 63
7
283
0
  7
Standard
140
0.18
170
1
 62
0
 63
7
283
0
  7
Standard
140
0.18
170
1
 62
0
 63
7
283
0
  0
TABLESTYLE
  5
392
102
{ACAD_REACTORS
330
38D
330
291
102
}
330
38D
100
AcDbTableStyle
  3
Standard1
 70
1
 71
0
 40
0.06
 41
0.06
280
1
281
1
  7
Standard
140
0.18
170
1
 62
0
 63
7
283
0
  7
Standard
140
0.18
170
1
 62
0
 63
7
283
0
  7
Standard
140
0.18
170
1
 62
0
 63
7
283
0
  0
ENDSEC
  0
EOF
