999
DXF file: K2M_assy_2.dxf
999
Pro/ENGINEER 2014200 by Parametric Technology Corporation
  0
SECTION
  2
HEADER
  9
$ACADVER
  1
AC1021
  9
$DWGCODEPAGE
  3
ANSI_1252
  9
$EXTMAX
 10
22.0
 20
17.0
 30
0.0
  9
$EXTMIN
 10
0.0
 20
0.0
 30
0.0
  9
$LIMMIN
 10
0.0
 20
0.0
  9
$LIMMAX
 10
22.0
 20
17.0
  9
$VIEWCTR
 10
11.0
 20
8.5
  9
$VIEWSIZE
 40
17.0
  9
$CLAYER
  8
0
  9
$LTSCALE
 40
1.21
  9
$CELTYPE
  6
BYLAYER
  9
$DIMSCALE
 40
1.0
  9
$DIMASZ
 40
0.1875
  9
$DIMEXO
 40
0.0625
  9
$DIMDLI
 40
0.836
  9
$DIMEXE
 40
0.125
  9
$DIMCEN
 40
0.198
  9
$DIMLFAC
 40
1.0
  9
$DIMBLK
  1
_FILLED
  9
$DIMTXT
 40
0.1
  9
$DIMTOL
 70
0
  9
$DIMLIM
 70
0
  9
$DIMTFAC
 40
1.0
  9
$DIMGAP
 40
0.09
  9
$DIMDSEP
 70
46
  9
$AUNITS
 70
0
  9
$PDMODE
 70
3
  9
$PDSIZE
 40
0.3125
  9
$HANDSEED
  5
379
  9
$TILEMODE
 70
1
  9
$MEASUREMENT
 70
0
  9
$INSUNITS
 70
1
  0
ENDSEC
  0
SECTION
  2
CLASSES
  0
CLASS
  1
ACDBDICTIONARYWDFLT
  2
AcDbDictionaryWithDefault
  3
AutoCAD 2000
 90
0
 91
1
280
0
281
0
  0
CLASS
  1
ACDBPLACEHOLDER
  2
AcDbPlaceHolder
  3
AutoCAD 2000
 90
0
 91
1
280
0
281
0
  0
CLASS
  1
LAYOUT
  2
AcDbLayout
  3
AutoCAD 2000
 90
0
 91
0
280
0
281
0
  0
CLASS
  1
RASTERVARIABLES
  2
AcDbRasterVariables
  3
ISM
 90
0
 91
1
280
0
281
0
  0
CLASS
  1
IMAGEDEF
  2
AcDbRasterImageDef
  3
ISM
 90
0
 91
1
280
0
281
0
  0
CLASS
  1
IMAGEDEF_REACTOR
  2
AcDbRasterImageDefReactor
  3
ISM
 90
0
 91
1
280
0
281
0
  0
CLASS
  1
IMAGE
  2
AcDbRasterImage
  3
ISM
 90
127
 91
1
280
0
281
1
  0
CLASS
  1
TABLESTYLE
  2
AcDbTableStyle
  3
ObjectDBX Classes
 90
2047
 91
1
280
0
281
0
  0
CLASS
  1
ACAD_TABLE
  2
AcDbTable
  3
ObjectDBX Classes
 90
1025
 91
3
280
0
281
1
  0
ENDSEC
  0
SECTION
  2
TABLES
  0
TABLE
  2
VPORT
  5
8
100
AcDbSymbolTable
 70
2
  0
VPORT
  5
1F4
100
AcDbSymbolTableRecord
100
AcDbViewportTableRecord
  2
*ACTIVE
 70
0
 10
0.0
 20
0.0
 11
1.0
 21
1.0
 12
11.0
 22
8.5
 13
0.0
 23
0.0
 14
1.0
 24
1.0
 15
0.0
 25
0.0
 16
0.0
 26
0.0
 36
1.0
 17
0.0
 27
0.0
 37
0.0
 40
17.0
 41
1.2941176471
 42
50.0
 43
0.0
 44
0.0
 50
0.0
 51
0.0
 71
0
 72
100
 73
1
 74
1
 75
0
 76
0
 77
0
 78
0
  0
ENDTAB
  0
TABLE
  2
LTYPE
  5
5
100
AcDbSymbolTable
 70
6
  0
LTYPE
  5
14
100
AcDbSymbolTableRecord
100
AcDbLinetypeTableRecord
  2
BYBLOCK
 70
0
  3

 72
65
 73
0
 40
0.0
  0
LTYPE
  5
15
100
AcDbSymbolTableRecord
100
AcDbLinetypeTableRecord
  2
BYLAYER
 70
0
  3

 72
65
 73
0
 40
0.0
  0
LTYPE
  5
16
100
AcDbSymbolTableRecord
100
AcDbLinetypeTableRecord
  2
CONTINUOUS
 70
64
  3
Solid line
 72
65
 73
0
 40
0.0
  0
LTYPE
  5
1F5
100
AcDbSymbolTableRecord
100
AcDbLinetypeTableRecord
  2
CENTER
 70
64
  3
____ _ ____ _ ____ _ ____ _ ____ _ ____ _ ____
 72
65
 73
4
 40
0.6
 49
0.375
 74
0
 49
-0.075
 74
0
 49
0.075
 74
0
 49
-0.075
 74
0
  0
LTYPE
  5
1F6
100
AcDbSymbolTableRecord
100
AcDbLinetypeTableRecord
  2
HIDDEN
 70
64
  3
- - - - - - - - - - - - - - - - - - - -
 72
65
 73
2
 40
0.2
 49
0.1
 74
0
 49
-0.1
 74
0
  0
LTYPE
  5
1F7
100
AcDbSymbolTableRecord
100
AcDbLinetypeTableRecord
  2
PHANTOM
 70
64
  3
_____ _ _ _____ _ _ _____ _ _ _____
 72
65
 73
6
 40
0.8
 49
0.45
 74
0
 49
-0.05
 74
0
 49
0.1
 74
0
 49
-0.05
 74
0
 49
0.1
 74
0
 49
-0.05
 74
0
  0
LTYPE
  5
1F8
100
AcDbSymbolTableRecord
100
AcDbLinetypeTableRecord
  2
DOT
 70
64
  3
. . . . . . . . . . . . . . . . . . . .
 72
65
 73
2
 40
0.2
 49
0.1
 74
0
 49
-0.1
 74
0
  0
LTYPE
  5
1F9
100
AcDbSymbolTableRecord
100
AcDbLinetypeTableRecord
  2
DASHED
 70
64
  3
- - - - - - - - - - - - - - - - - - - -
 72
65
 73
2
 40
0.2
 49
0.1
 74
0
 49
-0.1
 74
0
  0
ENDTAB
  0
TABLE
  2
LAYER
  5
2
100
AcDbSymbolTable
 70
36
  0
LAYER
  5
10
100
AcDbSymbolTableRecord
100
AcDbLayerTableRecord
  2
0
 70
0
 62
7
  6
CONTINUOUS
370
-3
390
F
  0
LAYER
  5
1FA
100
AcDbSymbolTableRecord
100
AcDbLayerTableRecord
  2
DEFAULT_1
 70
0
 62
7
  6
CENTER
370
-3
390
F
  0
LAYER
  5
1FB
100
AcDbSymbolTableRecord
100
AcDbLayerTableRecord
  2
DEFAULT_2
 70
0
 62
8
  6
HIDDEN
370
-3
390
F
  0
LAYER
  5
1FC
100
AcDbSymbolTableRecord
100
AcDbLayerTableRecord
  2
DEFAULT_3
 70
0
 62
7
  6
PHANTOM
370
-3
390
F
  0
LAYER
  5
1FD
100
AcDbSymbolTableRecord
100
AcDbLayerTableRecord
  2
01___PRT_ALL_DTM_PLN
 70
0
 62
7
  6
CONTINUOUS
370
-3
390
F
  0
LAYER
  5
1FE
100
AcDbSymbolTableRecord
100
AcDbLayerTableRecord
  2
01___PRT_DEF_DTM_PLN
 70
0
 62
7
  6
CONTINUOUS
370
-3
390
F
  0
LAYER
  5
1FF
100
AcDbSymbolTableRecord
100
AcDbLayerTableRecord
  2
02___PRT_ALL_AXES
 70
0
 62
7
  6
CONTINUOUS
370
-3
390
F
  0
LAYER
  5
200
100
AcDbSymbolTableRecord
100
AcDbLayerTableRecord
  2
03___PRT_ALL_CURVES
 70
0
 62
7
  6
CONTINUOUS
370
-3
390
F
  0
LAYER
  5
201
100
AcDbSymbolTableRecord
100
AcDbLayerTableRecord
  2
04___PRT_ALL_DTM_PNT
 70
0
 62
7
  6
CONTINUOUS
370
-3
390
F
  0
LAYER
  5
202
100
AcDbSymbolTableRecord
100
AcDbLayerTableRecord
  2
05___PRT_ALL_DTM_CSYS
 70
0
 62
7
  6
CONTINUOUS
370
-3
390
F
  0
LAYER
  5
203
100
AcDbSymbolTableRecord
100
AcDbLayerTableRecord
  2
05___PRT_DEF_DTM_CSYS
 70
0
 62
7
  6
CONTINUOUS
370
-3
390
F
  0
LAYER
  5
204
100
AcDbSymbolTableRecord
100
AcDbLayerTableRecord
  2
06___PRT_ALL_SURFS
 70
0
 62
7
  6
CONTINUOUS
370
-3
390
F
  0
LAYER
  5
205
100
AcDbSymbolTableRecord
100
AcDbLayerTableRecord
  2
DATUM_PLANES
 70
0
 62
7
  6
CONTINUOUS
370
-3
390
F
  0
LAYER
  5
206
100
AcDbSymbolTableRecord
100
AcDbLayerTableRecord
  2
PORT_AREAS
 70
0
 62
7
  6
CONTINUOUS
370
-3
390
F
  0
LAYER
  5
207
100
AcDbSymbolTableRecord
100
AcDbLayerTableRecord
  2
SUNNBOMCOSMETIC
 70
0
 62
7
  6
CONTINUOUS
370
-3
390
F
  0
LAYER
  5
208
100
AcDbSymbolTableRecord
100
AcDbLayerTableRecord
  2
SUNNBOMSTAMPING
 70
0
 62
7
  6
CONTINUOUS
370
-3
390
F
  0
LAYER
  5
209
100
AcDbSymbolTableRecord
100
AcDbLayerTableRecord
  2
THREADS
 70
0
 62
7
  6
CONTINUOUS
370
-3
390
F
  0
ENDTAB
  0
TABLE
  2
STYLE
  5
3
100
AcDbSymbolTable
 70
1
  0
STYLE
  5
11
100
AcDbSymbolTableRecord
100
AcDbTextStyleTableRecord
  2
STANDARD
 70
0
 40
0.0
 41
0.8
 50
0.0
 71
0
 42
0.2
  3
txt
  4

  0
STYLE
  5
20A
100
AcDbSymbolTableRecord
100
AcDbTextStyleTableRecord
  2
TEXTSTYLE_1
 70
0
 40
0.0
 41
0.8
 50
0.0
 71
0
 42
0.2
  3
gdt
  4

  0
ENDTAB
  0
TABLE
  2
VIEW
  5
6
100
AcDbSymbolTable
 70
0
  0
ENDTAB
  0
TABLE
  2
UCS
  5
7
100
AcDbSymbolTable
 70
0
  0
ENDTAB
  0
TABLE
  2
APPID
  5
9
100
AcDbSymbolTable
 70
1
  0
APPID
  5
20B
100
AcDbSymbolTableRecord
100
AcDbRegAppTableRecord
  2
ACAD
 70
0
  0
ENDTAB
  0
TABLE
  2
BLOCK_RECORD
  5
1
100
AcDbSymbolTable
 70
0
  0
BLOCK_RECORD
  5
20C
100
AcDbSymbolTableRecord
100
AcDbBlockTableRecord
  2
*Model_Space
  0
BLOCK_RECORD
  5
20D
100
AcDbSymbolTableRecord
100
AcDbBlockTableRecord
  2
*Paper_Space
  0
BLOCK_RECORD
  5
20E
100
AcDbSymbolTableRecord
100
AcDbBlockTableRecord
  2
SUN_FIRST_THIRD_ANGLE_BL0
  0
BLOCK_RECORD
  5
20F
100
AcDbSymbolTableRecord
100
AcDbBlockTableRecord
  2
*T1
  0
BLOCK_RECORD
  5
210
100
AcDbSymbolTableRecord
100
AcDbBlockTableRecord
  2
*T2
  0
BLOCK_RECORD
  5
211
100
AcDbSymbolTableRecord
100
AcDbBlockTableRecord
  2
*T3
  0
ENDTAB
  0
TABLE
  2
DIMSTYLE
  5
A
100
AcDbSymbolTable
 70
1
100
AcDbDimStyleTable
 71
0
  0
DIMSTYLE
105
212
100
AcDbSymbolTableRecord
100
AcDbDimStyleTableRecord
  2
STANDARD
 70
0
  3

  4

 40
1.0
 41
0.1875
 42
0.0625
 43
0.38
 44
0.125
 45
0.0
 46
0.0
 47
0.001
 48
0.001
140
0.1
141
0.09
142
0.0
143
25.4
144
1.0
145
0.0
146
1.0
147
0.09
 71
0.0
 72
0.0
 73
1
 74
1
 75
0
 76
0
 77
0
 78
4
170
0
171
2
172
0
173
0
174
0
175
0
176
0
177
0
178
0
270
2
271
3
272
3
273
2
274
2
275
0
280
0
281
0
282
0
283
1
284
4
285
0
286
0
287
3
288
0
340
11
278
46
  0
ENDTAB
  0
ENDSEC
  0
SECTION
  2
BLOCKS
  0
BLOCK
  5
20
100
AcDbEntity
  8
0
100
AcDbBlockBegin
  2
*Model_Space
 70
0
 10
0.0
 20
0.0
 30
0.0
  3
*Model_Space
  1

  0
ENDBLK
  5
21
100
AcDbEntity
  8
0
100
AcDbBlockEnd
  0
BLOCK
  5
1C
100
AcDbEntity
  8
0
100
AcDbBlockBegin
  2
*Paper_Space
 70
0
 10
0.0
 20
0.0
 30
0.0
  3
*Paper_Space
  1

  0
ENDBLK
  5
1D
100
AcDbEntity
  8
0
100
AcDbBlockEnd
  0
BLOCK
  5
213
100
AcDbEntity
  8
0
100
AcDbBlockBegin
 62
2
  6
CONTINUOUS
  2
SUN_FIRST_THIRD_ANGLE_BL0
 70
64
 10
20.4816717061
 20
1.2289683772
  3
SUN_FIRST_THIRD_ANGLE_BL0
  1

  0
TEXT
  5
214
100
AcDbEntity
  8
0
100
AcDbText
 62
2
  6
CONTINUOUS
 10
19.4750896608
 20
1.4136269581
  7
STANDARD
 40
0.08
  1
FIRST ANGLE
 41
0.8
 72
0
100
AcDbText
  0
TEXT
  5
215
100
AcDbEntity
  8
0
100
AcDbText
 62
2
  6
CONTINUOUS
 10
20.7842537513
 20
1.4047600029
  7
STANDARD
 40
0.08
  1
THIRD ANGLE
 41
0.8
 72
0
100
AcDbText
  0
LINE
  5
216
100
AcDbEntity
  8
0
100
AcDbLine
 62
7
  6
CONTINUOUS
 10
19.4767170086
 20
1.1727031207
 11
19.6334271527
 21
1.1717972817
  0
LINE
  5
217
100
AcDbEntity
  8
0
100
AcDbLine
 62
7
  6
CONTINUOUS
 10
19.6596964832
 20
1.1717972817
 11
19.6950230232
 21
1.171593082
  0
LINE
  5
218
100
AcDbEntity
  8
0
100
AcDbLine
 62
7
  6
CONTINUOUS
 10
19.7194818561
 20
1.1708914427
 11
19.8852396156
 21
1.1699333054
  0
LINE
  5
219
100
AcDbEntity
  8
0
100
AcDbLine
 62
7
  6
CONTINUOUS
 10
19.4758111696
 20
1.2723454088
 11
19.88525039
 21
1.3511534004
  0
LINE
  5
21A
100
AcDbEntity
  8
0
100
AcDbLine
 62
7
  6
CONTINUOUS
 10
19.88525039
 20
1.3511534004
 11
19.8831348489
 21
0.9851647912
  0
LINE
  5
21B
100
AcDbEntity
  8
0
100
AcDbLine
 62
7
  6
CONTINUOUS
 10
19.8831348489
 20
0.9851647912
 11
19.4767170086
 21
1.0658141206
  0
LINE
  5
21C
100
AcDbEntity
  8
0
100
AcDbLine
 62
7
  6
CONTINUOUS
 10
19.4767170086
 20
1.0658141206
 11
19.4779056764
 21
1.2714536432
  0
CIRCLE
  5
21D
100
AcDbEntity
  8
0
100
AcDbCircle
 62
7
  6
CONTINUOUS
 10
20.2068232291
 20
1.1717972817
 40
0.175742101
  0
CIRCLE
  5
21E
100
AcDbEntity
  8
0
100
AcDbCircle
 62
7
  6
CONTINUOUS
 10
20.2068232291
 20
1.1717972817
 40
0.1005522074
  0
LINE
  5
21F
100
AcDbEntity
  8
0
100
AcDbLine
 62
7
  6
CONTINUOUS
 10
20.2077290681
 20
1.3756110529
 11
20.2071171714
 21
1.2379342989
  0
LINE
  5
220
100
AcDbEntity
  8
0
100
AcDbLine
 62
7
  6
CONTINUOUS
 10
20.2077290681
 20
1.2016899681
 11
20.2074674401
 21
1.1428236749
  0
LINE
  5
221
100
AcDbEntity
  8
0
100
AcDbLine
 62
7
  6
CONTINUOUS
 10
20.208634907
 20
1.101141841
 11
20.2080230104
 21
0.963465087
  0
LINE
  5
222
100
AcDbEntity
  8
0
100
AcDbLine
 62
7
  6
CONTINUOUS
 10
20.0066328138
 20
1.1745147986
 11
20.1443095678
 21
1.1739029019
  0
LINE
  5
223
100
AcDbEntity
  8
0
100
AcDbLine
 62
7
  6
CONTINUOUS
 10
20.1832714155
 20
1.1727031207
 11
20.238153505
 21
1.172335442
  0
LINE
  5
224
100
AcDbEntity
  8
0
100
AcDbLine
 62
7
  6
CONTINUOUS
 10
20.2756669918
 20
1.1717972817
 11
20.407916871
 21
1.1712095044
  0
CIRCLE
  5
225
100
AcDbEntity
  8
0
100
AcDbCircle
 62
7
  6
CONTINUOUS
 10
20.7509457401
 20
1.1693297793
 40
0.1722024983
  0
CIRCLE
  5
226
100
AcDbEntity
  8
0
100
AcDbCircle
 62
7
  6
CONTINUOUS
 10
20.7509457401
 20
1.1693297793
 40
0.0985164967
  0
LINE
  5
227
100
AcDbEntity
  8
0
100
AcDbLine
 62
7
  6
CONTINUOUS
 10
20.7169767782
 20
1.170462078
 11
20.7825395137
 21
1.1682766535
  0
LINE
  5
228
100
AcDbEntity
  8
0
100
AcDbLine
 62
7
  6
CONTINUOUS
 10
20.8177513651
 20
1.1693297793
 11
20.947965719
 21
1.1693297793
  0
LINE
  5
229
100
AcDbEntity
  8
0
100
AcDbLine
 62
7
  6
CONTINUOUS
 10
20.6875370113
 20
1.170462078
 11
20.5573226574
 21
1.170462078
  0
LINE
  5
22A
100
AcDbEntity
  8
0
100
AcDbLine
 62
7
  6
CONTINUOUS
 10
20.7486811426
 20
1.1987695462
 11
20.7486811426
 21
1.1432869085
  0
LINE
  5
22B
100
AcDbEntity
  8
0
100
AcDbLine
 62
7
  6
CONTINUOUS
 10
20.7498134414
 20
1.1059210505
 11
20.7498134414
 21
0.9757066966
  0
LINE
  5
22C
100
AcDbEntity
  8
0
100
AcDbLine
 62
7
  6
CONTINUOUS
 10
20.7486811426
 20
1.2338708068
 11
20.7486811426
 21
1.3640851607
  0
LINE
  5
22D
100
AcDbEntity
  8
0
100
AcDbLine
 62
7
  6
CONTINUOUS
 10
21.0702539817
 20
1.2701043662
 11
21.4790138229
 21
1.3448360823
  0
LINE
  5
22E
100
AcDbEntity
  8
0
100
AcDbLine
 62
7
  6
CONTINUOUS
 10
21.4790138229
 20
1.3448360823
 11
21.4790138229
 21
0.9779712941
  0
LINE
  5
22F
100
AcDbEntity
  8
0
100
AcDbLine
 62
7
  6
CONTINUOUS
 10
21.4790138229
 20
0.9779712941
 11
21.069121683
 21
1.0617614
  0
LINE
  5
230
100
AcDbEntity
  8
0
100
AcDbLine
 62
7
  6
CONTINUOUS
 10
21.0702539817
 20
1.2701043662
 11
21.069121683
 21
1.0617614
  0
LINE
  5
231
100
AcDbEntity
  8
0
100
AcDbLine
 62
7
  6
CONTINUOUS
 10
21.4790138229
 20
1.1693297793
 11
21.3159628059
 21
1.1693297793
  0
LINE
  5
232
100
AcDbEntity
  8
0
100
AcDbLine
 62
7
  6
CONTINUOUS
 10
21.2876553377
 20
1.1693297793
 11
21.2502894796
 21
1.1693297793
  0
LINE
  5
233
100
AcDbEntity
  8
0
100
AcDbLine
 62
7
  6
CONTINUOUS
 10
21.2208497126
 20
1.1659328831
 11
21.0713862804
 21
1.1659328831
  0
LINE
  5
234
100
AcDbEntity
  8
0
100
AcDbLine
 62
7
  6
CONTINUOUS
 10
20.4796138713
 20
1.5284908897
 11
20.4766766948
 21
0.9294458646
  0
ENDBLK
  5
235
100
AcDbEntity
  8
0
  6
BYBLOCK
 62
0
100
AcDbBlockEnd
  0
BLOCK
  5
236
100
AcDbEntity
  8
0
100
AcDbBlockBegin
  2
*T1
 70
1
 10
0.0
 20
0.0
  3
*T1
  1

  0
LINE
  5
237
100
AcDbEntity
  8
0
100
AcDbLine
 62
2
  6
CONTINUOUS
 10
9.275
 20
0.0
 11
-0.0
 21
0.0
  0
LINE
  5
238
100
AcDbEntity
  8
0
100
AcDbLine
 62
2
  6
CONTINUOUS
 10
9.275
 20
0.0
 11
9.275
 21
1.25
  0
LINE
  5
239
100
AcDbEntity
  8
0
100
AcDbLine
 62
2
  6
CONTINUOUS
 10
9.275
 20
0.625
 11
-0.0
 21
0.625
  0
LINE
  5
23A
100
AcDbEntity
  8
0
100
AcDbLine
 62
2
  6
CONTINUOUS
 10
9.275
 20
1.25
 11
-0.0
 21
1.25
  0
LINE
  5
23B
100
AcDbEntity
  8
0
100
AcDbLine
 62
2
  6
CONTINUOUS
 10
6.8
 20
0.0
 11
6.8
 21
1.25
  0
LINE
  5
23C
100
AcDbEntity
  8
0
100
AcDbLine
 62
2
  6
CONTINUOUS
 10
6.4
 20
0.0
 11
6.4
 21
0.625
  0
LINE
  5
23D
100
AcDbEntity
  8
0
100
AcDbLine
 62
2
  6
CONTINUOUS
 10
5.9
 20
0.0
 11
5.9
 21
0.625
  0
LINE
  5
23E
100
AcDbEntity
  8
0
100
AcDbLine
 62
2
  6
CONTINUOUS
 10
5.2
 20
0.0
 11
5.2
 21
0.625
  0
LINE
  5
23F
100
AcDbEntity
  8
0
100
AcDbLine
 62
2
  6
CONTINUOUS
 10
4.1
 20
0.0
 11
4.1
 21
1.25
  0
LINE
  5
240
100
AcDbEntity
  8
0
100
AcDbLine
 62
2
  6
CONTINUOUS
 10
-0.0
 20
0.0
 11
-0.0
 21
1.25
  0
MTEXT
  5
241
100
AcDbEntity
  8
0
100
AcDbMText
 62
2
  6
CONTINUOUS
  7
STANDARD
 71
2
 72
1
 10
6.6
 20
0.325
 30
0.0
 11
1.0
 21
0.0
 31
0.0
 44
0.9
  1
2
 40
0.125
 41
0.2
  0
MTEXT
  5
242
100
AcDbEntity
  8
0
100
AcDbMText
 62
2
  6
CONTINUOUS
  7
STANDARD
 71
2
 72
1
 10
6.15
 20
0.325
 30
0.0
 11
1.0
 21
0.0
 31
0.0
 44
0.9
  1
C
 40
0.125
 41
0.2
  0
MTEXT
  5
243
100
AcDbEntity
  8
0
100
AcDbMText
 62
2
  6
CONTINUOUS
  7
STANDARD
 71
2
 72
1
 10
5.55
 20
0.325
 30
0.0
 11
1.0
 21
0.0
 31
0.0
 44
0.9
  1
0.900
 40
0.125
 41
1.0
  0
MTEXT
  5
244
100
AcDbEntity
  8
0
100
AcDbMText
 62
2
  6
CONTINUOUS
  7
STANDARD
 71
2
 72
1
 10
4.65
 20
0.325
 30
0.0
 11
1.0
 21
0.0
 31
0.0
 44
0.9
  1
May-02-23
 40
0.125
 41
1.8
  0
MTEXT
  5
245
100
AcDbEntity
  8
0
100
AcDbMText
 62
2
  6
CONTINUOUS
  7
STANDARD
 71
2
 72
1
 10
2.05
 20
0.4625
 30
0.0
 11
1.0
 21
0.0
 31
0.0
 44
0.9
  1
T-19A Line mount\P(See Technical Data for Body Features)
 40
0.125
 41
7.6
  0
MTEXT
  5
246
100
AcDbEntity
  8
0
100
AcDbMText
 62
2
  6
CONTINUOUS
  7
STANDARD
 71
1
 72
1
 10
6.45
 20
0.5625
 30
0.0
 11
1.0
 21
0.0
 31
0.0
 44
0.9
  1
SHEET
 40
0.06
 41
0.48
  0
MTEXT
  5
247
100
AcDbEntity
  8
0
100
AcDbMText
 62
2
  6
CONTINUOUS
  7
STANDARD
 71
1
 72
1
 10
5.95
 20
0.5625
 30
0.0
 11
1.0
 21
0.0
 31
0.0
 44
0.9
  1
DWG SIZE
 40
0.06
 41
0.768
  0
MTEXT
  5
248
100
AcDbEntity
  8
0
100
AcDbMText
 62
2
  6
CONTINUOUS
  7
STANDARD
 71
1
 72
1
 10
5.25
 20
0.5625
 30
0.0
 11
1.0
 21
0.0
 31
0.0
 44
0.9
  1
SCALE
 40
0.06
 41
0.48
  0
MTEXT
  5
249
100
AcDbEntity
  8
0
100
AcDbMText
 62
2
  6
CONTINUOUS
  7
STANDARD
 71
1
 72
1
 10
4.15
 20
0.5625
 30
0.0
 11
1.0
 21
0.0
 31
0.0
 44
0.9
  1
DATE
 40
0.06
 41
0.384
  0
MTEXT
  5
24A
100
AcDbEntity
  8
0
100
AcDbMText
 62
2
  6
CONTINUOUS
  7
STANDARD
 71
1
 72
1
 10
0.05
 20
0.5625
 30
0.0
 11
1.0
 21
0.0
 31
0.0
 44
0.9
  1
DESCRIPTION
 40
0.06
 41
1.056
  0
MTEXT
  5
24B
100
AcDbEntity
  8
0
100
AcDbMText
 62
2
  6
CONTINUOUS
  7
STANDARD
 71
2
 72
1
 10
5.45
 20
1.0375
 30
0.0
 11
1.0
 21
0.0
 31
0.0
 44
0.9
  1
ALL DIMENSIONS IN INCH\PVIEWS ARE THIRD ANGLE
 40
0.12
 41
4.224
  0
MTEXT
  5
24C
100
AcDbEntity
  8
0
100
AcDbMText
 62
2
  6
CONTINUOUS
  7
STANDARD
 71
2
 72
1
 10
2.05
 20
0.95
 30
0.0
 11
1.0
 21
0.0
 31
0.0
 44
0.9
  1
K2M
 40
0.125
 41
0.6
  0
MTEXT
  5
24D
100
AcDbEntity
  8
0
100
AcDbMText
 62
2
  6
CONTINUOUS
  7
STANDARD
 71
1
 72
1
 10
0.05
 20
1.1875
 30
0.0
 11
1.0
 21
0.0
 31
0.0
 44
0.9
  1
MODEL
 40
0.06
 41
0.48
  0
ENDBLK
  5
24E
100
AcDbEntity
  8
0
  6
BYBLOCK
 62
0
100
AcDbBlockEnd
  0
BLOCK
  5
24F
100
AcDbEntity
  8
0
100
AcDbBlockBegin
  2
*T2
 70
1
 10
0.0
 20
0.0
  3
*T2
  1

  0
LINE
  5
250
100
AcDbEntity
  8
0
100
AcDbLine
 62
2
  6
CONTINUOUS
 10
0.0
 20
0.0
 11
9.055
 21
0.0
  0
LINE
  5
251
100
AcDbEntity
  8
0
100
AcDbLine
 62
2
  6
CONTINUOUS
 10
0.0
 20
0.0
 11
0.0
 21
-2.844
  0
LINE
  5
252
100
AcDbEntity
  8
0
100
AcDbLine
 62
2
  6
CONTINUOUS
 10
0.0
 20
-0.344
 11
9.055
 21
-0.344
  0
LINE
  5
253
100
AcDbEntity
  8
0
100
AcDbLine
 62
2
  6
CONTINUOUS
 10
0.0
 20
-0.594
 11
9.055
 21
-0.594
  0
LINE
  5
254
100
AcDbEntity
  8
0
100
AcDbLine
 62
2
  6
CONTINUOUS
 10
0.0
 20
-0.844
 11
9.055
 21
-0.844
  0
LINE
  5
255
100
AcDbEntity
  8
0
100
AcDbLine
 62
2
  6
CONTINUOUS
 10
0.0
 20
-1.094
 11
9.055
 21
-1.094
  0
LINE
  5
256
100
AcDbEntity
  8
0
100
AcDbLine
 62
2
  6
CONTINUOUS
 10
0.0
 20
-1.344
 11
9.055
 21
-1.344
  0
LINE
  5
257
100
AcDbEntity
  8
0
100
AcDbLine
 62
2
  6
CONTINUOUS
 10
0.0
 20
-1.594
 11
9.055
 21
-1.594
  0
LINE
  5
258
100
AcDbEntity
  8
0
100
AcDbLine
 62
2
  6
CONTINUOUS
 10
0.0
 20
-1.844
 11
9.055
 21
-1.844
  0
LINE
  5
259
100
AcDbEntity
  8
0
100
AcDbLine
 62
2
  6
CONTINUOUS
 10
0.0
 20
-2.094
 11
9.055
 21
-2.094
  0
LINE
  5
25A
100
AcDbEntity
  8
0
100
AcDbLine
 62
2
  6
CONTINUOUS
 10
0.0
 20
-2.344
 11
9.055
 21
-2.344
  0
LINE
  5
25B
100
AcDbEntity
  8
0
100
AcDbLine
 62
2
  6
CONTINUOUS
 10
0.0
 20
-2.594
 11
9.055
 21
-2.594
  0
LINE
  5
25C
100
AcDbEntity
  8
0
100
AcDbLine
 62
2
  6
CONTINUOUS
 10
0.0
 20
-2.844
 11
9.055
 21
-2.844
  0
LINE
  5
25D
100
AcDbEntity
  8
0
100
AcDbLine
 62
2
  6
CONTINUOUS
 10
3.055
 20
0.0
 11
3.055
 21
-2.844
  0
LINE
  5
25E
100
AcDbEntity
  8
0
100
AcDbLine
 62
2
  6
CONTINUOUS
 10
9.055
 20
0.0
 11
9.055
 21
-2.844
  0
MTEXT
  5
25F
100
AcDbEntity
  8
0
100
AcDbMText
 62
2
  6
CONTINUOUS
  7
STANDARD
 71
2
 72
1
 10
1.5275
 20
-0.0995
 30
0.0
 11
1.0
 21
0.0
 31
0.0
 44
0.9
  1
Technical Data
 40
0.145
 41
3.248
  0
MTEXT
  5
260
100
AcDbEntity
  8
0
100
AcDbMText
 62
2
  6
CONTINUOUS
  7
STANDARD
 71
2
 72
1
 10
4.555
 20
-0.0995
 30
0.0
 11
1.0
 21
0.0
 31
0.0
 44
0.9
  1
U.S. Units
 40
0.145
 41
2.32
  0
MTEXT
  5
261
100
AcDbEntity
  8
0
100
AcDbMText
 62
2
  6
CONTINUOUS
  7
STANDARD
 71
2
 72
1
 10
7.555
 20
-0.0995
 30
0.0
 11
1.0
 21
0.0
 31
0.0
 44
0.9
  1
Metric Units
 40
0.145
 41
2.784
  0
MTEXT
  5
262
100
AcDbEntity
  8
0
100
AcDbMText
 62
2
  6
CONTINUOUS
  7
STANDARD
 71
2
 72
1
 10
1.5275
 20
-0.4065
 30
0.0
 11
1.0
 21
0.0
 31
0.0
 44
0.9
  1
Cavity
 40
0.125
 41
1.2
  0
MTEXT
  5
263
100
AcDbEntity
  8
0
100
AcDbMText
 62
2
  6
CONTINUOUS
  7
STANDARD
 71
2
 72
1
 10
6.055
 20
-0.4065
 30
0.0
 11
1.0
 21
0.0
 31
0.0
 44
0.9
  1
T-19A
 40
0.125
 41
1.0
  0
MTEXT
  5
264
100
AcDbEntity
  8
0
100
AcDbMText
 62
2
  6
CONTINUOUS
  7
STANDARD
 71
2
 72
1
 10
1.5275
 20
-0.6565
 30
0.0
 11
1.0
 21
0.0
 31
0.0
 44
0.9
  1
Body Features
 40
0.125
 41
2.6
  0
MTEXT
  5
265
100
AcDbEntity
  8
0
100
AcDbMText
 62
2
  6
CONTINUOUS
  7
STANDARD
 71
2
 72
1
 10
6.055
 20
-0.6565
 30
0.0
 11
1.0
 21
0.0
 31
0.0
 44
0.9
  1
Ninety degree with reverse flow check - reducing
 40
0.125
 41
9.6
  0
MTEXT
  5
266
100
AcDbEntity
  8
0
100
AcDbMText
 62
2
  6
CONTINUOUS
  7
STANDARD
 71
2
 72
1
 10
1.5275
 20
-0.9065
 30
0.0
 11
1.0
 21
0.0
 31
0.0
 44
0.9
  1
Body Type
 40
0.125
 41
1.8
  0
MTEXT
  5
267
100
AcDbEntity
  8
0
100
AcDbMText
 62
2
  6
CONTINUOUS
  7
STANDARD
 71
2
 72
1
 10
6.055
 20
-0.9065
 30
0.0
 11
1.0
 21
0.0
 31
0.0
 44
0.9
  1
Line mount
 40
0.125
 41
2.0
  0
MTEXT
  5
268
100
AcDbEntity
  8
0
100
AcDbMText
 62
2
  6
CONTINUOUS
  7
STANDARD
 71
2
 72
1
 10
1.5275
 20
-1.1565
 30
0.0
 11
1.0
 21
0.0
 31
0.0
 44
0.9
  1
Interface
 40
0.125
 41
1.8
  0
MTEXT
  5
269
100
AcDbEntity
  8
0
100
AcDbMText
 62
2
  6
CONTINUOUS
  7
STANDARD
 71
2
 72
1
 10
6.055
 20
-1.1565
 30
0.0
 11
1.0
 21
0.0
 31
0.0
 44
0.9
  1
None
 40
0.125
 41
0.8
  0
MTEXT
  5
26A
100
AcDbEntity
  8
0
100
AcDbMText
 62
2
  6
CONTINUOUS
  7
STANDARD
 71
2
 72
1
 10
1.5275
 20
-1.4065
 30
0.0
 11
1.0
 21
0.0
 31
0.0
 44
0.9
  1
Open Cavity Quantity
 40
0.125
 41
4.0
  0
MTEXT
  5
26B
100
AcDbEntity
  8
0
100
AcDbMText
 62
2
  6
CONTINUOUS
  7
STANDARD
 71
2
 72
1
 10
6.055
 20
-1.4065
 30
0.0
 11
1.0
 21
0.0
 31
0.0
 44
0.9
  1
1
 40
0.125
 41
0.2
  0
MTEXT
  5
26C
100
AcDbEntity
  8
0
100
AcDbMText
 62
2
  6
CONTINUOUS
  7
STANDARD
 71
2
 72
1
 10
1.5275
 20
-1.6565
 30
0.0
 11
1.0
 21
0.0
 31
0.0
 44
0.9
  1
Weight
 40
0.125
 41
1.2
  0
MTEXT
  5
26D
100
AcDbEntity
  8
0
100
AcDbMText
 62
2
  6
CONTINUOUS
  7
STANDARD
 71
2
 72
1
 10
4.555
 20
-1.6565
 30
0.0
 11
1.0
 21
0.0
 31
0.0
 44
0.9
  1
11.457 lb.
 40
0.125
 41
2.0
  0
MTEXT
  5
26E
100
AcDbEntity
  8
0
100
AcDbMText
 62
2
  6
CONTINUOUS
  7
STANDARD
 71
2
 72
1
 10
7.555
 20
-1.6565
 30
0.0
 11
1.0
 21
0.0
 31
0.0
 44
0.9
  1
5,197 kg.
 40
0.125
 41
1.8
  0
MTEXT
  5
26F
100
AcDbEntity
  8
0
100
AcDbMText
 62
2
  6
CONTINUOUS
  7
STANDARD
 71
2
 72
1
 10
1.5275
 20
-1.9065
 30
0.0
 11
1.0
 21
0.0
 31
0.0
 44
0.9
  1
Mounting Hole Diameter
 40
0.125
 41
4.4
  0
MTEXT
  5
270
100
AcDbEntity
  8
0
100
AcDbMText
 62
2
  6
CONTINUOUS
  7
STANDARD
 71
2
 72
1
 10
4.555
 20
-1.9065
 30
0.0
 11
1.0
 21
0.0
 31
0.0
 44
0.9
  1
.41 in.
 40
0.125
 41
1.4
  0
MTEXT
  5
271
100
AcDbEntity
  8
0
100
AcDbMText
 62
2
  6
CONTINUOUS
  7
STANDARD
 71
2
 72
1
 10
7.555
 20
-1.9065
 30
0.0
 11
1.0
 21
0.0
 31
0.0
 44
0.9
  1
10,4 mm
 40
0.125
 41
1.4
  0
MTEXT
  5
272
100
AcDbEntity
  8
0
100
AcDbMText
 62
2
  6
CONTINUOUS
  7
STANDARD
 71
2
 72
1
 10
1.5275
 20
-2.1565
 30
0.0
 11
1.0
 21
0.0
 31
0.0
 44
0.9
  1
Mounting Hole Depth
 40
0.125
 41
3.8
  0
MTEXT
  5
273
100
AcDbEntity
  8
0
100
AcDbMText
 62
2
  6
CONTINUOUS
  7
STANDARD
 71
2
 72
1
 10
6.055
 20
-2.1565
 30
0.0
 11
1.0
 21
0.0
 31
0.0
 44
0.9
  1
Through
 40
0.125
 41
1.4
  0
MTEXT
  5
274
100
AcDbEntity
  8
0
100
AcDbMText
 62
2
  6
CONTINUOUS
  7
STANDARD
 71
2
 72
1
 10
1.5275
 20
-2.4065
 30
0.0
 11
1.0
 21
0.0
 31
0.0
 44
0.9
  1
Mounting Hole Quantity
 40
0.125
 41
4.4
  0
MTEXT
  5
275
100
AcDbEntity
  8
0
100
AcDbMText
 62
2
  6
CONTINUOUS
  7
STANDARD
 71
2
 72
1
 10
6.055
 20
-2.4065
 30
0.0
 11
1.0
 21
0.0
 31
0.0
 44
0.9
  1
2
 40
0.125
 41
0.2
  0
MTEXT
  5
276
100
AcDbEntity
  8
0
100
AcDbMText
 62
2
  6
CONTINUOUS
  7
STANDARD
 71
2
 72
1
 10
1.5275
 20
-2.6565
 30
0.0
 11
1.0
 21
0.0
 31
0.0
 44
0.9
  1
Includes integral cartridge(s)
 40
0.125
 41
6.0
  0
MTEXT
  5
277
100
AcDbEntity
  8
0
100
AcDbMText
 62
2
  6
CONTINUOUS
  7
STANDARD
 71
2
 72
1
 10
6.055
 20
-2.6565
 30
0.0
 11
1.0
 21
0.0
 31
0.0
 44
0.9
  1
Yes (see Included Components)
 40
0.125
 41
5.8
  0
ENDBLK
  5
278
100
AcDbEntity
  8
0
  6
BYBLOCK
 62
0
100
AcDbBlockEnd
  0
BLOCK
  5
279
100
AcDbEntity
  8
0
100
AcDbBlockBegin
  2
*T3
 70
1
 10
0.0
 20
0.0
  3
*T3
  1

  0
LINE
  5
27A
100
AcDbEntity
  8
0
100
AcDbLine
 62
2
  6
CONTINUOUS
 10
0.0
 20
0.0
 11
4.6
 21
0.0
  0
LINE
  5
27B
100
AcDbEntity
  8
0
100
AcDbLine
 62
2
  6
CONTINUOUS
 10
0.0
 20
0.0
 11
0.0
 21
-1.43775
  0
LINE
  5
27C
100
AcDbEntity
  8
0
100
AcDbLine
 62
2
  6
CONTINUOUS
 10
0.0
 20
-0.34375
 11
4.6
 21
-0.34375
  0
LINE
  5
27D
100
AcDbEntity
  8
0
100
AcDbLine
 62
2
  6
CONTINUOUS
 10
0.0
 20
-0.68775
 11
4.6
 21
-0.68775
  0
LINE
  5
27E
100
AcDbEntity
  8
0
100
AcDbLine
 62
2
  6
CONTINUOUS
 10
0.0
 20
-0.93775
 11
4.6
 21
-0.93775
  0
LINE
  5
27F
100
AcDbEntity
  8
0
100
AcDbLine
 62
2
  6
CONTINUOUS
 10
0.0
 20
-1.18775
 11
4.6
 21
-1.18775
  0
LINE
  5
280
100
AcDbEntity
  8
0
100
AcDbLine
 62
2
  6
CONTINUOUS
 10
0.0
 20
-1.43775
 11
4.6
 21
-1.43775
  0
LINE
  5
281
100
AcDbEntity
  8
0
100
AcDbLine
 62
2
  6
CONTINUOUS
 10
1.3
 20
-0.34375
 11
1.3
 21
-1.43775
  0
LINE
  5
282
100
AcDbEntity
  8
0
100
AcDbLine
 62
2
  6
CONTINUOUS
 10
3.3
 20
-0.34375
 11
3.3
 21
-1.43775
  0
LINE
  5
283
100
AcDbEntity
  8
0
100
AcDbLine
 62
2
  6
CONTINUOUS
 10
4.6
 20
0.0
 11
4.6
 21
-1.43775
  0
MTEXT
  5
284
100
AcDbEntity
  8
0
100
AcDbMText
 62
2
  6
CONTINUOUS
  7
STANDARD
 71
2
 72
1
 10
2.3
 20
-0.099375
 30
0.0
 11
1.0
 21
0.0
 31
0.0
 44
0.9
  1
Port Headings
 40
0.145
 41
3.016
  0
MTEXT
  5
285
100
AcDbEntity
  8
0
100
AcDbMText
 62
2
  6
CONTINUOUS
  7
STANDARD
 71
2
 72
1
 10
0.65
 20
-0.44325
 30
0.0
 11
1.0
 21
0.0
 31
0.0
 44
0.9
  1
Product
 40
0.145
 41
1.624
  0
MTEXT
  5
286
100
AcDbEntity
  8
0
100
AcDbMText
 62
2
  6
CONTINUOUS
  7
STANDARD
 71
2
 72
1
 10
2.3
 20
-0.44325
 30
0.0
 11
1.0
 21
0.0
 31
0.0
 44
0.9
  1
Port
 40
0.145
 41
0.928
  0
MTEXT
  5
287
100
AcDbEntity
  8
0
100
AcDbMText
 62
2
  6
CONTINUOUS
  7
STANDARD
 71
2
 72
1
 10
3.95
 20
-0.44325
 30
0.0
 11
1.0
 21
0.0
 31
0.0
 44
0.9
  1
Size
 40
0.145
 41
0.928
  0
MTEXT
  5
288
100
AcDbEntity
  8
0
100
AcDbMText
 62
2
  6
CONTINUOUS
  7
STANDARD
 71
2
 72
1
 10
0.65
 20
-0.75025
 30
0.0
 11
1.0
 21
0.0
 31
0.0
 44
0.9
  1
K2M
 40
0.125
 41
0.6
  0
MTEXT
  5
289
100
AcDbEntity
  8
0
100
AcDbMText
 62
2
  6
CONTINUOUS
  7
STANDARD
 71
2
 72
1
 10
2.3
 20
-0.75025
 30
0.0
 11
1.0
 21
0.0
 31
0.0
 44
0.9
  1
Ports 1 &  2
 40
0.125
 41
2.4
  0
MTEXT
  5
28A
100
AcDbEntity
  8
0
100
AcDbMText
 62
2
  6
CONTINUOUS
  7
STANDARD
 71
2
 72
1
 10
3.95
 20
-0.75025
 30
0.0
 11
1.0
 21
0.0
 31
0.0
 44
0.9
  1
SAE 16
 40
0.125
 41
1.2
  0
MTEXT
  5
28B
100
AcDbEntity
  8
0
100
AcDbMText
 62
2
  6
CONTINUOUS
  7
STANDARD
 71
2
 72
1
 10
0.65
 20
-1.00025
 30
0.0
 11
1.0
 21
0.0
 31
0.0
 44
0.9
  1
K2M
 40
0.125
 41
0.6
  0
MTEXT
  5
28C
100
AcDbEntity
  8
0
100
AcDbMText
 62
2
  6
CONTINUOUS
  7
STANDARD
 71
2
 72
1
 10
2.3
 20
-1.00025
 30
0.0
 11
1.0
 21
0.0
 31
0.0
 44
0.9
  1
Port 3
 40
0.125
 41
1.2
  0
MTEXT
  5
28D
100
AcDbEntity
  8
0
100
AcDbMText
 62
2
  6
CONTINUOUS
  7
STANDARD
 71
2
 72
1
 10
3.95
 20
-1.00025
 30
0.0
 11
1.0
 21
0.0
 31
0.0
 44
0.9
  1
SAE 6
 40
0.125
 41
1.0
  0
MTEXT
  5
28E
100
AcDbEntity
  8
0
100
AcDbMText
 62
2
  6
CONTINUOUS
  7
STANDARD
 71
2
 72
1
 10
0.65
 20
-1.25025
 30
0.0
 11
1.0
 21
0.0
 31
0.0
 44
0.9
  1
K2M
 40
0.125
 41
0.6
  0
MTEXT
  5
28F
100
AcDbEntity
  8
0
100
AcDbMText
 62
2
  6
CONTINUOUS
  7
STANDARD
 71
2
 72
1
 10
2.3
 20
-1.25025
 30
0.0
 11
1.0
 21
0.0
 31
0.0
 44
0.9
  1
Gage Port
 40
0.125
 41
1.8
  0
MTEXT
  5
290
100
AcDbEntity
  8
0
100
AcDbMText
 62
2
  6
CONTINUOUS
  7
STANDARD
 71
2
 72
1
 10
3.95
 20
-1.25025
 30
0.0
 11
1.0
 21
0.0
 31
0.0
 44
0.9
  1
1/4" NPTF
 40
0.125
 41
1.8
  0
ENDBLK
  5
291
100
AcDbEntity
  8
0
  6
BYBLOCK
 62
0
100
AcDbBlockEnd
  0
ENDSEC
  0
SECTION
  2
ENTITIES
  0
IMAGE
  5
292
100
AcDbEntity
  8
0
100
AcDbRasterImage
 62
7
  6
CONTINUOUS
 10
19.2297077316
 20
0.3094318264
 30
0.0
 11
0.0066666667
 21
0.0
 31
0.0
 12
0.0
 22
0.0066666667
 32
0.0
 13
369.0
 23
92.0
340
       376
 70
9
280
0
281
50
282
50
283
0
360
       370
 71
1
 91
2
 14
-0.5
 24
-0.5
 14
368.5
 24
91.5
  0
INSERT
  5
293
100
AcDbEntity
  8
0
100
AcDbBlockReference
 62
2
  6
CONTINUOUS
  2
SUN_FIRST_THIRD_ANGLE_BL0
 10
20.4816717061
 20
1.2289683772
  0
ACAD_TABLE
  5
294
100
AcDbEntity
  8
0
 62
2
  6
CONTINUOUS
100
AcDbBlockReference
  2
*T1
 10
12.42375
 20
0.30125
 30
0.0
100
AcDbTable
342
       378
343
20F
 11
1.0
 21
0.0
 31
0.0
 90
6
 91
4
 92
6
 93
20
 94
0
 95
0
 96
0
 70
1
 41
0.0
141
0.525
141
0.1
141
0.525
141
0.1
142
4.1
142
1.1
142
0.7
142
0.5
142
0.4
142
2.475
171
1
172
0
173
0
174
0
175
1
176
1
 91
33
178
0
145
0.0
301
CELL_VALUE
 90
4
  1
T-19A Line mount\P(See Technical Data for Body Features)
304
ACVALUE_END
170
2
140
0.125
171
1
172
0
173
0
174
0
175
1
176
1
 91
33
178
0
145
0.0
301
CELL_VALUE
 90
4
  1
May-02-23
304
ACVALUE_END
170
5
140
0.125
171
1
172
0
173
0
174
0
175
1
176
1
 91
33
178
0
145
0.0
301
CELL_VALUE
 90
4
  1
0.900
304
ACVALUE_END
170
5
140
0.125
171
1
172
0
173
0
174
0
175
1
176
1
 91
33
178
0
145
0.0
301
CELL_VALUE
 90
4
  1
C
304
ACVALUE_END
170
5
140
0.125
171
1
172
0
173
0
174
0
175
1
176
1
 91
33
178
0
145
0.0
301
CELL_VALUE
 90
4
  1
2
304
ACVALUE_END
170
5
140
0.125
171
1
172
0
173
0
174
0
175
1
176
1
 91
33
178
0
145
0.0
301
CELL_VALUE
 90
4
  1
 
304
ACVALUE_END
170
1
140
0.125
171
1
172
0
173
0
174
0
175
1
176
1
 91
33
178
0
145
0.0
301
CELL_VALUE
 90
4
  1
DESCRIPTION
304
ACVALUE_END
170
1
140
0.06
171
1
172
0
173
0
174
0
175
1
176
1
 91
33
178
0
145
0.0
301
CELL_VALUE
 90
4
  1
DATE
304
ACVALUE_END
170
1
140
0.06
171
1
172
0
173
0
174
0
175
1
176
1
 91
33
178
0
145
0.0
301
CELL_VALUE
 90
4
  1
SCALE
304
ACVALUE_END
170
1
140
0.06
171
1
172
0
173
0
174
0
175
1
176
1
 91
33
178
0
145
0.0
301
CELL_VALUE
 90
4
  1
DWG SIZE
304
ACVALUE_END
170
1
140
0.06
171
1
172
0
173
0
174
0
175
1
176
1
 91
33
178
0
145
0.0
301
CELL_VALUE
 90
4
  1
SHEET
304
ACVALUE_END
170
1
140
0.06
171
1
172
0
173
0
174
0
175
1
176
1
 91
33
178
0
145
0.0
301
CELL_VALUE
 90
4
  1
 
304
ACVALUE_END
170
1
140
0.125
171
1
172
0
173
0
174
0
175
1
176
1
 91
33
178
0
145
0.0
301
CELL_VALUE
 90
4
  1
K2M
304
ACVALUE_END
170
5
140
0.125
171
1
172
0
173
0
174
0
175
4
176
1
 91
33
178
0
145
0.0
301
CELL_VALUE
 90
4
  1
ALL DIMENSIONS IN INCH\PVIEWS ARE THIRD ANGLE
304
ACVALUE_END
170
5
140
0.12
171
1
172
0
173
1
174
0
175
1
176
1
 91
1
178
0
145
0.0
170
1
171
1
172
0
173
1
174
0
175
1
176
1
 91
1
178
0
145
0.0
170
1
171
1
172
0
173
1
174
0
175
1
176
1
 91
1
178
0
145
0.0
170
5
171
1
172
0
173
0
174
0
175
1
176
1
 91
33
178
0
145
0.0
301
CELL_VALUE
 90
4
  1
 
304
ACVALUE_END
170
1
140
0.125
171
1
172
0
173
0
174
0
175
1
176
1
 91
33
178
0
145
0.0
301
CELL_VALUE
 90
4
  1
MODEL
304
ACVALUE_END
170
1
140
0.06
171
1
172
0
173
0
174
0
175
1
176
1
 91
33
178
0
145
0.0
301
CELL_VALUE
 90
4
  1
 
304
ACVALUE_END
170
1
140
0.125
171
1
172
0
173
0
174
0
175
1
176
1
 91
33
178
0
145
0.0
301
CELL_VALUE
 90
4
  1
 
304
ACVALUE_END
170
1
140
0.125
171
1
172
0
173
0
174
0
175
1
176
1
 91
33
178
0
145
0.0
301
CELL_VALUE
 90
4
  1
 
304
ACVALUE_END
170
1
140
0.125
171
1
172
0
173
0
174
0
175
1
176
1
 91
33
178
0
145
0.0
301
CELL_VALUE
 90
4
  1
 
304
ACVALUE_END
170
1
140
0.125
171
1
172
0
173
0
174
0
175
1
176
1
 91
33
178
0
145
0.0
301
CELL_VALUE
 90
4
  1
 
304
ACVALUE_END
170
1
140
0.125
  0
ACAD_TABLE
  5
295
100
AcDbEntity
  8
0
 62
2
  6
CONTINUOUS
100
AcDbBlockReference
  2
*T2
 10
12.4237499994
 20
16.47875
 30
0.0
100
AcDbTable
342
       377
343
210
 11
1.0
 21
0.0
 31
0.0
 90
22
 91
11
 92
3
 93
16
 94
0
 95
0
 96
0
 41
0.028
141
0.344
141
0.25
141
0.25
141
0.25
141
0.25
141
0.25
141
0.25
141
0.25
141
0.25
141
0.25
141
0.25
142
3.055
142
3.0
142
3.0
171
1
172
0
173
0
174
0
175
1
176
1
 91
33
178
0
145
0.0
301
CELL_VALUE
 90
4
  1
Technical Data
304
ACVALUE_END
170
5
140
0.145
171
1
172
0
173
0
174
0
175
1
176
1
 91
33
178
0
145
0.0
301
CELL_VALUE
 90
4
  1
U.S. Units
304
ACVALUE_END
170
5
140
0.145
171
1
172
0
173
0
174
0
175
1
176
1
 91
33
178
0
145
0.0
301
CELL_VALUE
 90
4
  1
Metric Units
304
ACVALUE_END
170
5
140
0.145
171
1
172
0
173
0
174
0
175
1
176
1
 91
33
178
0
145
0.0
301
CELL_VALUE
 90
4
  1
Cavity
304
ACVALUE_END
170
5
140
0.125
171
1
172
0
173
0
174
0
175
2
176
1
 91
33
178
0
145
0.0
301
CELL_VALUE
 90
4
  1
T-19A
304
ACVALUE_END
170
5
140
0.125
171
1
172
0
173
1
174
0
175
1
176
1
 91
1
178
0
145
0.0
170
1
171
1
172
0
173
0
174
0
175
1
176
1
 91
33
178
0
145
0.0
301
CELL_VALUE
 90
4
  1
Body Features
304
ACVALUE_END
170
5
140
0.125
171
1
172
0
173
0
174
0
175
2
176
1
 91
33
178
0
145
0.0
301
CELL_VALUE
 90
4
  1
Ninety degree with reverse flow check - reducing
304
ACVALUE_END
170
5
140
0.125
171
1
172
0
173
1
174
0
175
1
176
1
 91
1
178
0
145
0.0
170
1
171
1
172
0
173
0
174
0
175
1
176
1
 91
33
178
0
145
0.0
301
CELL_VALUE
 90
4
  1
Body Type
304
ACVALUE_END
170
5
140
0.125
171
1
172
0
173
0
174
0
175
2
176
1
 91
33
178
0
145
0.0
301
CELL_VALUE
 90
4
  1
Line mount
304
ACVALUE_END
170
5
140
0.125
171
1
172
0
173
1
174
0
175
1
176
1
 91
1
178
0
145
0.0
170
1
171
1
172
0
173
0
174
0
175
1
176
1
 91
33
178
0
145
0.0
301
CELL_VALUE
 90
4
  1
Interface
304
ACVALUE_END
170
5
140
0.125
171
1
172
0
173
0
174
0
175
2
176
1
 91
33
178
0
145
0.0
301
CELL_VALUE
 90
4
  1
None
304
ACVALUE_END
170
5
140
0.125
171
1
172
0
173
1
174
0
175
1
176
1
 91
1
178
0
145
0.0
170
1
171
1
172
0
173
0
174
0
175
1
176
1
 91
33
178
0
145
0.0
301
CELL_VALUE
 90
4
  1
Open Cavity Quantity
304
ACVALUE_END
170
5
140
0.125
171
1
172
0
173
0
174
0
175
2
176
1
 91
33
178
0
145
0.0
301
CELL_VALUE
 90
4
  1
1
304
ACVALUE_END
170
5
140
0.125
171
1
172
0
173
1
174
0
175
1
176
1
 91
1
178
0
145
0.0
170
1
171
1
172
0
173
0
174
0
175
1
176
1
 91
33
178
0
145
0.0
301
CELL_VALUE
 90
4
  1
Weight
304
ACVALUE_END
170
5
140
0.125
171
1
172
0
173
0
174
0
175
1
176
1
 91
33
178
0
145
0.0
301
CELL_VALUE
 90
4
  1
11.457 lb.
304
ACVALUE_END
170
5
140
0.125
171
1
172
0
173
0
174
0
175
1
176
1
 91
33
178
0
145
0.0
301
CELL_VALUE
 90
4
  1
5,197 kg.
304
ACVALUE_END
170
5
140
0.125
171
1
172
0
173
0
174
0
175
1
176
1
 91
33
178
0
145
0.0
301
CELL_VALUE
 90
4
  1
Mounting Hole Diameter
304
ACVALUE_END
170
5
140
0.125
171
1
172
0
173
0
174
0
175
1
176
1
 91
33
178
0
145
0.0
301
CELL_VALUE
 90
4
  1
.41 in.
304
ACVALUE_END
170
5
140
0.125
171
1
172
0
173
0
174
0
175
1
176
1
 91
33
178
0
145
0.0
301
CELL_VALUE
 90
4
  1
10,4 mm
304
ACVALUE_END
170
5
140
0.125
171
1
172
0
173
0
174
0
175
1
176
1
 91
33
178
0
145
0.0
301
CELL_VALUE
 90
4
  1
Mounting Hole Depth
304
ACVALUE_END
170
5
140
0.125
171
1
172
0
173
0
174
0
175
2
176
1
 91
33
178
0
145
0.0
301
CELL_VALUE
 90
4
  1
Through
304
ACVALUE_END
170
5
140
0.125
171
1
172
0
173
1
174
0
175
1
176
1
 91
1
178
0
145
0.0
170
1
171
1
172
0
173
0
174
0
175
1
176
1
 91
33
178
0
145
0.0
301
CELL_VALUE
 90
4
  1
Mounting Hole Quantity
304
ACVALUE_END
170
5
140
0.125
171
1
172
0
173
0
174
0
175
2
176
1
 91
33
178
0
145
0.0
301
CELL_VALUE
 90
4
  1
2
304
ACVALUE_END
170
5
140
0.125
171
1
172
0
173
1
174
0
175
1
176
1
 91
1
178
0
145
0.0
170
1
171
1
172
0
173
0
174
0
175
1
176
1
 91
33
178
0
145
0.0
301
CELL_VALUE
 90
4
  1
Includes integral cartridge(s)
304
ACVALUE_END
170
5
140
0.125
171
1
172
0
173
0
174
0
175
2
176
1
 91
33
178
0
145
0.0
301
CELL_VALUE
 90
4
  1
Yes (see Included Components)
304
ACVALUE_END
170
5
140
0.125
171
1
172
0
173
1
174
0
175
1
176
1
 91
1
178
0
145
0.0
170
1
  0
ACAD_TABLE
  5
296
100
AcDbEntity
  8
0
 62
2
  6
CONTINUOUS
100
AcDbBlockReference
  2
*T3
 10
0.52125
 20
1.959
 30
0.0
100
AcDbTable
342
       377
343
211
 11
1.0
 21
0.0
 31
0.0
 90
22
 91
5
 92
3
 93
16
 94
0
 95
0
 96
0
 41
0.05
141
0.34375
141
0.344
141
0.25
141
0.25
141
0.25
142
1.3
142
2.0
142
1.3
171
1
172
0
173
0
174
0
175
3
176
1
 91
33
178
0
145
0.0
301
CELL_VALUE
 90
4
  1
Port Headings
304
ACVALUE_END
170
5
140
0.145
171
1
172
0
173
1
174
0
175
1
176
1
 91
1
178
0
145
0.0
170
1
171
1
172
0
173
1
174
0
175
1
176
1
 91
1
178
0
145
0.0
170
1
171
1
172
0
173
0
174
0
175
1
176
1
 91
33
178
0
145
0.0
301
CELL_VALUE
 90
4
  1
Product
304
ACVALUE_END
170
5
140
0.145
171
1
172
0
173
0
174
0
175
1
176
1
 91
33
178
0
145
0.0
301
CELL_VALUE
 90
4
  1
Port
304
ACVALUE_END
170
5
140
0.145
171
1
172
0
173
0
174
0
175
1
176
1
 91
33
178
0
145
0.0
301
CELL_VALUE
 90
4
  1
Size
304
ACVALUE_END
170
5
140
0.145
171
1
172
0
173
0
174
0
175
1
176
1
 91
33
178
0
145
0.0
301
CELL_VALUE
 90
4
  1
K2M
304
ACVALUE_END
170
5
140
0.125
171
1
172
0
173
0
174
0
175
1
176
1
 91
33
178
0
145
0.0
301
CELL_VALUE
 90
4
  1
Ports 1 &  2
304
ACVALUE_END
170
5
140
0.125
171
1
172
0
173
0
174
0
175
1
176
1
 91
33
178
0
145
0.0
301
CELL_VALUE
 90
4
  1
SAE 16
304
ACVALUE_END
170
5
140
0.125
171
1
172
0
173
0
174
0
175
1
176
1
 91
33
178
0
145
0.0
301
CELL_VALUE
 90
4
  1
K2M
304
ACVALUE_END
170
5
140
0.125
171
1
172
0
173
0
174
0
175
1
176
1
 91
33
178
0
145
0.0
301
CELL_VALUE
 90
4
  1
Port 3
304
ACVALUE_END
170
5
140
0.125
171
1
172
0
173
0
174
0
175
1
176
1
 91
33
178
0
145
0.0
301
CELL_VALUE
 90
4
  1
SAE 6
304
ACVALUE_END
170
5
140
0.125
171
1
172
0
173
0
174
0
175
1
176
1
 91
33
178
0
145
0.0
301
CELL_VALUE
 90
4
  1
K2M
304
ACVALUE_END
170
5
140
0.125
171
1
172
0
173
0
174
0
175
1
176
1
 91
33
178
0
145
0.0
301
CELL_VALUE
 90
4
  1
Gage Port
304
ACVALUE_END
170
5
140
0.125
171
1
172
0
173
0
174
0
175
1
176
1
 91
33
178
0
145
0.0
301
CELL_VALUE
 90
4
  1
1/4" NPTF
304
ACVALUE_END
170
5
140
0.125
  0
MTEXT
  5
297
100
AcDbEntity
  8
0
100
AcDbMText
 62
2
  6
CONTINUOUS
  7
STANDARD
 71
1
 72
1
 10
0.52125
 20
5.75995
 30
0.0
 11
1.0
 21
0.0
 31
0.0
 44
0.6
  3
Notes\P \P1. Important: Carefully consider\P   the maximum system pressure. The\P   pressure rating of the manifold is\P   dependent on the manifold material,\P   with the port type/size a secondary\P   consideration. Manifolds\P   constructed of alu
  3
minum are not\P   rated for pressures higher than\P   3000 psi (210 bar), regardless of\P   the port type/size specified.\P2. This drawing is for reference\P   only. It is generated by an\P   automated process and does not fall\P   under Sun's docume
  1
nt control\P   process.
 40
0.1
 41
3.04
  0
LINE
  5
298
100
AcDbEntity
  8
0
100
AcDbLine
 62
7
  6
CONTINUOUS
 10
0.30125
 20
0.30125
 11
0.30125
 21
16.69875
  0
LINE
  5
299
100
AcDbEntity
  8
0
100
AcDbLine
 62
7
  6
CONTINUOUS
 10
0.30125
 20
0.30125
 11
21.69875
 21
0.30125
  0
LINE
  5
29A
100
AcDbEntity
  8
0
100
AcDbLine
 62
7
  6
CONTINUOUS
 10
0.30125
 20
16.69875
 11
21.69875
 21
16.69875
  0
LINE
  5
29B
100
AcDbEntity
  8
0
100
AcDbLine
 62
7
  6
CONTINUOUS
 10
21.69875
 20
0.30125
 11
21.69875
 21
16.69875
  0
LINE
  5
29C
100
AcDbEntity
  8
0
100
AcDbLine
 62
7
  6
CONTINUOUS
 10
8.741405537
 20
12.4299897698
 11
8.042594692
 21
11.7549902868
  0
LINE
  5
29D
100
AcDbEntity
  8
0
100
AcDbLine
 62
4
  6
CONTINUOUS
 10
8.2599278668
 20
11.1531180237
 11
8.2523212004
 21
11.1435033284
  0
LINE
  5
29E
100
AcDbEntity
  8
0
100
AcDbLine
 62
4
  6
CONTINUOUS
 10
8.2675345331
 20
11.0917371687
 11
8.2523212004
 21
11.0725077736
  0
LINE
  5
29F
100
AcDbEntity
  8
0
100
AcDbLine
 62
4
  6
CONTINUOUS
 10
8.2066812022
 20
11.1770951385
 11
8.221894535
 21
11.1861823097
  0
LINE
  5
2A0
100
AcDbEntity
  8
0
100
AcDbLine
 62
4
  6
CONTINUOUS
 10
8.2523212004
 20
11.1435033284
 11
8.2371078677
 21
11.13441615
  0
LINE
  5
2A1
100
AcDbEntity
  8
0
100
AcDbLine
 62
4
  6
CONTINUOUS
 10
8.2523212004
 20
11.0725077736
 11
8.2371078677
 21
11.0634205997
  0
LINE
  5
2A2
100
AcDbEntity
  8
0
100
AcDbLine
 62
7
  6
CONTINUOUS
 10
8.042594692
 20
5.6696572207
 11
8.042594692
 21
11.7549902868
  0
LINE
  5
2A3
100
AcDbEntity
  8
0
100
AcDbLine
 62
7
  6
CONTINUOUS
 10
8.042594692
 20
5.6696572207
 11
13.258594463
 21
5.3079264079
  0
LINE
  5
2A4
100
AcDbEntity
  8
0
100
AcDbLine
 62
7
  6
CONTINUOUS
 10
11.6397042185
 20
4.6809670458
 11
11.6606563448
 21
4.6706170966
  0
LINE
  5
2A5
100
AcDbEntity
  8
0
100
AcDbLine
 62
4
  6
CONTINUOUS
 10
8.2599278668
 20
11.1632602431
 11
8.2599278668
 21
11.1531180237
  0
LINE
  5
2A6
100
AcDbEntity
  8
0
100
AcDbLine
 62
4
  6
CONTINUOUS
 10
8.2599278668
 20
7.4106383664
 11
8.2599278668
 21
7.2889317046
  0
LINE
  5
2A7
100
AcDbEntity
  8
0
100
AcDbLine
 62
4
  6
CONTINUOUS
 10
8.2675345331
 20
11.1018793917
 11
8.2675345331
 21
11.0917371687
  0
LINE
  5
2A8
100
AcDbEntity
  8
0
100
AcDbLine
 62
4
  6
CONTINUOUS
 10
9.9386106087
 20
9.9369945438
 11
9.9386106087
 21
9.8848345461
  0
LINE
  5
2A9
100
AcDbEntity
  8
0
100
AcDbLine
 62
4
  6
CONTINUOUS
 10
9.9907706064
 20
9.8812172379
 11
9.9907706064
 21
9.8290572402
  0
LINE
  5
2AA
100
AcDbEntity
  8
0
100
AcDbLine
 62
4
  6
CONTINUOUS
 10
10.0168506053
 20
9.8272485862
 11
10.0168506053
 21
9.9315685816
  0
LINE
  5
2AB
100
AcDbEntity
  8
0
100
AcDbLine
 62
4
  6
CONTINUOUS
 10
10.0594479419
 20
9.2922624742
 11
10.0594479419
 21
9.3965824696
  0
LINE
  5
2AC
100
AcDbEntity
  8
0
100
AcDbLine
 62
4
  6
CONTINUOUS
 10
10.1538326941
 20
9.2857168694
 11
10.1836384053
 21
9.3879698317
  0
LINE
  5
2AD
100
AcDbEntity
  8
0
100
AcDbLine
 62
4
  6
CONTINUOUS
 10
10.4183583882
 20
9.6011959356
 11
10.4034555326
 21
9.5798751656
  0
LINE
  5
2AE
100
AcDbEntity
  8
0
100
AcDbLine
 62
4
  6
CONTINUOUS
 10
10.4034555326
 20
9.4979094567
 11
10.4556155303
 21
9.5688064328
  0
LINE
  5
2AF
100
AcDbEntity
  8
0
100
AcDbLine
 62
4
  6
CONTINUOUS
 10
10.3214898237
 20
9.5383671307
 11
10.3736498214
 21
9.6042964852
  0
LINE
  5
2B0
100
AcDbEntity
  8
0
100
AcDbLine
 62
4
  6
CONTINUOUS
 10
10.1116079334
 20
9.3035480237
 11
10.0967050778
 21
9.2896786831
  0
LINE
  5
2B1
100
AcDbEntity
  8
0
100
AcDbLine
 62
4
  6
CONTINUOUS
 10
10.4891469917
 20
9.3518798837
 11
10.5040498411
 21
9.3657492232
  0
LINE
  5
2B2
100
AcDbEntity
  8
0
100
AcDbLine
 62
4
  6
CONTINUOUS
 10
10.0395774647
 20
9.3582195436
 11
9.9998365133
 21
9.3411051107
  0
LINE
  5
2B3
100
AcDbEntity
  8
0
100
AcDbLine
 62
4
  6
CONTINUOUS
 10
10.2152758986
 20
7.5340959134
 11
10.2000625659
 21
7.5351509616
  0
LINE
  5
2B4
100
AcDbEntity
  8
0
100
AcDbLine
 62
4
  6
CONTINUOUS
 10
10.2076692323
 20
7.5954767684
 11
10.2380958977
 21
7.593366672
  0
LINE
  5
2B5
100
AcDbEntity
  8
0
100
AcDbLine
 62
4
  6
CONTINUOUS
 10
10.2000625659
 20
7.5351509616
 11
10.1848492332
 21
7.5463482319
  0
LINE
  5
2B6
100
AcDbEntity
  8
0
100
AcDbLine
 62
4
  6
CONTINUOUS
 10
10.2152758986
 20
7.6558025752
 11
10.2304892314
 21
7.6446053076
  0
LINE
  5
2B7
100
AcDbEntity
  8
0
100
AcDbLine
 62
4
  6
CONTINUOUS
 10
10.1848492332
 20
7.5463482319
 11
10.1696359004
 21
7.5676877235
  0
LINE
  5
2B8
100
AcDbEntity
  8
0
100
AcDbLine
 62
4
  6
CONTINUOUS
 10
10.2304892314
 20
7.6446053076
 11
10.2380958977
 21
7.6339355569
  0
LINE
  5
2B9
100
AcDbEntity
  8
0
100
AcDbLine
 62
4
  6
CONTINUOUS
 10
10.1696359004
 20
7.5676877235
 11
10.1620292341
 21
7.598641913
  0
LINE
  5
2BA
100
AcDbEntity
  8
0
100
AcDbLine
 62
4
  6
CONTINUOUS
 10
10.069010603
 20
9.9279512735
 11
10.069010603
 21
9.823631278
  0
LINE
  5
2BB
100
AcDbEntity
  8
0
100
AcDbLine
 62
4
  6
CONTINUOUS
 10
10.0950906019
 20
9.9261426194
 11
10.0950906019
 21
9.821822624
  0
LINE
  5
2BC
100
AcDbEntity
  8
0
100
AcDbLine
 62
4
  6
CONTINUOUS
 10
10.1116079334
 20
9.3780623063
 11
10.1116079334
 21
9.3035480237
  0
LINE
  5
2BD
100
AcDbEntity
  8
0
100
AcDbLine
 62
4
  6
CONTINUOUS
 10
10.1472505996
 20
9.9225253113
 11
10.1472505996
 21
9.8182053159
  0
LINE
  5
2BE
100
AcDbEntity
  8
0
100
AcDbLine
 62
4
  6
CONTINUOUS
 10
10.2380958977
 20
7.593366672
 11
10.2380958977
 21
7.5527977853
  0
LINE
  5
2BF
100
AcDbEntity
  8
0
100
AcDbLine
 62
4
  6
CONTINUOUS
 10
10.251570595
 20
9.8109706996
 11
10.251570595
 21
9.915290695
  0
LINE
  5
2C0
100
AcDbEntity
  8
0
100
AcDbLine
 62
4
  6
CONTINUOUS
 10
10.2730555513
 20
9.2774487362
 11
10.2730555513
 21
9.3817687316
  0
LINE
  5
2C1
100
AcDbEntity
  8
0
100
AcDbLine
 62
4
  6
CONTINUOUS
 10
10.3037305927
 20
9.8073533915
 11
10.3037305927
 21
9.8595133892
  0
LINE
  5
2C2
100
AcDbEntity
  8
0
100
AcDbLine
 62
4
  6
CONTINUOUS
 10
10.3214898237
 20
9.5035937979
 11
10.3214898237
 21
9.6079137933
  0
LINE
  5
2C3
100
AcDbEntity
  8
0
100
AcDbLine
 62
4
  6
CONTINUOUS
 10
10.3326669737
 20
9.27331467
 11
10.3326669737
 21
9.3776346654
  0
LINE
  5
2C4
100
AcDbEntity
  8
0
100
AcDbLine
 62
4
  6
CONTINUOUS
 10
10.3463279242
 20
9.8043992565
 11
10.3463279242
 21
9.8565592542
  0
LINE
  5
2C5
100
AcDbEntity
  8
0
100
AcDbLine
 62
4
  6
CONTINUOUS
 10
10.5152269527
 20
9.5348666523
 11
10.5450326639
 21
9.5924110447
  0
LINE
  5
2C6
100
AcDbEntity
  8
0
100
AcDbLine
 62
4
  6
CONTINUOUS
 10
10.5760802881
 20
9.3458510391
 11
10.5909831374
 21
9.3597203786
  0
LINE
  5
2C7
100
AcDbEntity
  8
0
100
AcDbLine
 62
4
  6
CONTINUOUS
 10
10.6282402858
 20
9.2677194483
 11
10.6133374364
 21
9.2538501073
  0
LINE
  5
2C8
100
AcDbEntity
  8
0
100
AcDbLine
 62
4
  6
CONTINUOUS
 10
10.7102059823
 20
9.262035108
 11
10.6953031329
 21
9.2481657669
  0
LINE
  5
2C9
100
AcDbEntity
  8
0
100
AcDbLine
 62
4
  6
CONTINUOUS
 10
10.8666859754
 20
9.2809888963
 11
10.8269450271
 21
9.2638744648
  0
LINE
  5
2CA
100
AcDbEntity
  8
0
100
AcDbLine
 62
4
  6
CONTINUOUS
 10
10.2000625659
 20
7.6568576234
 11
10.2152758986
 21
7.6558025752
  0
LINE
  5
2CB
100
AcDbEntity
  8
0
100
AcDbLine
 62
4
  6
CONTINUOUS
 10
8.2066812022
 20
11.0756729182
 11
8.1990745359
 21
11.0863426644
  0
LINE
  5
2CC
100
AcDbEntity
  8
0
100
AcDbLine
 62
4
  6
CONTINUOUS
 10
8.2523212004
 20
11.1232188824
 11
8.2675345331
 21
11.1018793917
  0
LINE
  5
2CD
100
AcDbEntity
  8
0
100
AcDbLine
 62
4
  6
CONTINUOUS
 10
8.2523212004
 20
11.1739299939
 11
8.2599278668
 21
11.1632602431
  0
LINE
  5
2CE
100
AcDbEntity
  8
0
100
AcDbLine
 62
4
  6
CONTINUOUS
 10
10.3984879219
 20
9.8529419461
 11
10.3984879219
 21
9.7486219507
  0
LINE
  5
2CF
100
AcDbEntity
  8
0
100
AcDbLine
 62
4
  6
CONTINUOUS
 10
10.4332612537
 20
9.7983704096
 11
10.4332612537
 21
9.8505304073
  0
LINE
  5
2D0
100
AcDbEntity
  8
0
100
AcDbLine
 62
4
  6
CONTINUOUS
 10
10.4556155303
 20
9.5688064328
 11
10.4556155303
 21
9.5837092884
  0
LINE
  5
2D1
100
AcDbEntity
  8
0
100
AcDbLine
 62
4
  6
CONTINUOUS
 10
10.4854212415
 20
9.4922251155
 11
10.4854212415
 21
9.5965451109
  0
LINE
  5
2D2
100
AcDbEntity
  8
0
100
AcDbLine
 62
4
  6
CONTINUOUS
 10
10.4854212514
 20
9.8990730969
 11
10.4854212514
 21
9.7947531015
  0
LINE
  5
2D3
100
AcDbEntity
  8
0
100
AcDbLine
 62
4
  6
CONTINUOUS
 10
10.4891469917
 20
9.277365601
 11
10.4891469917
 21
9.3518798837
  0
LINE
  5
2D4
100
AcDbEntity
  8
0
100
AcDbLine
 62
4
  6
CONTINUOUS
 10
10.5201945832
 20
9.8445015605
 11
10.5201945832
 21
9.7923415627
  0
LINE
  5
2D5
100
AcDbEntity
  8
0
100
AcDbLine
 62
4
  6
CONTINUOUS
 10
10.5450326639
 20
9.5924110447
 11
10.5450326639
 21
9.4880910493
  0
LINE
  5
2D6
100
AcDbEntity
  8
0
100
AcDbLine
 62
4
  6
CONTINUOUS
 10
10.5760802881
 20
9.2713367565
 11
10.5760802881
 21
9.3458510391
  0
LINE
  5
2D7
100
AcDbEntity
  8
0
100
AcDbLine
 62
4
  6
CONTINUOUS
 10
10.6071279127
 20
9.7863127159
 11
10.6071279127
 21
9.8210860477
  0
LINE
  5
2D8
100
AcDbEntity
  8
0
100
AcDbLine
 62
4
  6
CONTINUOUS
 10
10.6282402858
 20
9.342233731
 11
10.6282402858
 21
9.2677194483
  0
LINE
  5
2D9
100
AcDbEntity
  8
0
100
AcDbLine
 62
4
  6
CONTINUOUS
 10
10.6580459845
 20
9.2507495589
 11
10.6580459845
 21
9.3550695544
  0
LINE
  5
2DA
100
AcDbEntity
  8
0
100
AcDbLine
 62
4
  6
CONTINUOUS
 10
10.6592879104
 20
9.8348554055
 11
10.6592879104
 21
9.7826954077
  0
LINE
  5
2DB
100
AcDbEntity
  8
0
100
AcDbLine
 62
4
  6
CONTINUOUS
 10
10.6940612422
 20
9.8324438667
 11
10.6940612422
 21
9.780283869
  0
LINE
  5
2DC
100
AcDbEntity
  8
0
100
AcDbLine
 62
4
  6
CONTINUOUS
 10
10.7102059823
 20
9.3365493906
 11
10.7102059823
 21
9.262035108
  0
LINE
  5
2DD
100
AcDbEntity
  8
0
100
AcDbLine
 62
4
  6
CONTINUOUS
 10
10.1620292341
 20
7.598641913
 11
10.1696359004
 21
7.6285410544
  0
LINE
  5
2DE
100
AcDbEntity
  8
0
100
AcDbLine
 62
7
  6
CONTINUOUS
 10
13.258594463
 20
11.3932594741
 11
13.957405308
 21
12.068258957
  0
LINE
  5
2DF
100
AcDbEntity
  8
0
100
AcDbLine
 62
4
  6
CONTINUOUS
 10
10.1836384053
 20
9.3879698317
 11
10.2134441289
 21
9.2815828024
  0
LINE
  5
2E0
100
AcDbEntity
  8
0
100
AcDbLine
 62
4
  6
CONTINUOUS
 10
10.7462212399
 20
9.7766665609
 11
10.7462212399
 21
9.8288265586
  0
LINE
  5
2E1
100
AcDbEntity
  8
0
100
AcDbLine
 62
4
  6
CONTINUOUS
 10
10.7524307802
 20
9.2442039511
 11
10.7524307802
 21
9.3485239466
  0
LINE
  5
2E2
100
AcDbEntity
  8
0
100
AcDbLine
 62
4
  6
CONTINUOUS
 10
10.7809945717
 20
9.7742550221
 11
10.7809945717
 21
9.8785750175
  0
LINE
  5
2E3
100
AcDbEntity
  8
0
100
AcDbLine
 62
4
  6
CONTINUOUS
 10
10.8157679036
 20
9.7718434834
 11
10.8157679036
 21
9.8240034811
  0
LINE
  5
2E4
100
AcDbEntity
  8
0
100
AcDbLine
 62
4
  6
CONTINUOUS
 10
10.8505412354
 20
9.8215919423
 11
10.8505412354
 21
9.7694319446
  0
LINE
  5
2E5
100
AcDbEntity
  8
0
100
AcDbLine
 62
4
  6
CONTINUOUS
 10
10.9374745649
 20
9.8155630954
 11
10.9374745649
 21
9.7894830966
  0
LINE
  5
2E6
100
AcDbEntity
  8
0
100
AcDbLine
 62
4
  6
CONTINUOUS
 10
10.9896345626
 20
9.7858657885
 11
10.9896345626
 21
9.7597857896
  0
LINE
  5
2E7
100
AcDbEntity
  8
0
100
AcDbLine
 62
4
  6
CONTINUOUS
 10
10.1696359004
 20
7.6285410544
 11
10.1848492332
 21
7.6477704522
  0
LINE
  5
2E8
100
AcDbEntity
  8
0
100
AcDbLine
 62
4
  6
CONTINUOUS
 10
10.2380958977
 20
7.5527977853
 11
10.2304892314
 21
7.5431830873
  0
LINE
  5
2E9
100
AcDbEntity
  8
0
100
AcDbLine
 62
4
  6
CONTINUOUS
 10
10.0967050778
 20
9.3939986785
 11
10.1116079334
 21
9.3780623063
  0
LINE
  5
2EA
100
AcDbEntity
  8
0
100
AcDbLine
 62
4
  6
CONTINUOUS
 10
10.3438441087
 20
9.5616549516
 11
10.3736498214
 21
9.4999764898
  0
LINE
  5
2EB
100
AcDbEntity
  8
0
100
AcDbLine
 62
4
  6
CONTINUOUS
 10
10.4854212415
 20
9.5965451109
 11
10.5152269527
 21
9.5348666523
  0
LINE
  5
2EC
100
AcDbEntity
  8
0
100
AcDbLine
 62
4
  6
CONTINUOUS
 10
10.1848492332
 20
7.6477704522
 11
10.2000625659
 21
7.6568576234
  0
LINE
  5
2ED
100
AcDbEntity
  8
0
100
AcDbLine
 62
4
  6
CONTINUOUS
 10
9.9998365133
 20
9.3411051107
 11
10.0395774647
 21
9.3184785907
  0
LINE
  5
2EE
100
AcDbEntity
  8
0
100
AcDbLine
 62
4
  6
CONTINUOUS
 10
10.5040498411
 20
9.2614292278
 11
10.4891469917
 21
9.277365601
  0
LINE
  5
2EF
100
AcDbEntity
  8
0
100
AcDbLine
 62
4
  6
CONTINUOUS
 10
10.5909831374
 20
9.2554003832
 11
10.5760802881
 21
9.2713367565
  0
LINE
  5
2F0
100
AcDbEntity
  8
0
100
AcDbLine
 62
4
  6
CONTINUOUS
 10
10.6133374364
 20
9.3581701027
 11
10.6282402858
 21
9.342233731
  0
LINE
  5
2F1
100
AcDbEntity
  8
0
100
AcDbLine
 62
4
  6
CONTINUOUS
 10
10.4556155303
 20
9.5837092884
 11
10.440712681
 21
9.5996456601
  0
LINE
  5
2F2
100
AcDbEntity
  8
0
100
AcDbLine
 62
4
  6
CONTINUOUS
 10
10.6953031329
 20
9.3524857624
 11
10.7102059823
 21
9.3365493906
  0
LINE
  5
2F3
100
AcDbEntity
  8
0
100
AcDbLine
 62
7
  6
CONTINUOUS
 10
11.4956569197
 20
5.4301865418
 11
11.4956569197
 21
4.8656251777
  0
LINE
  5
2F4
100
AcDbEntity
  8
0
100
AcDbLine
 62
7
  6
CONTINUOUS
 10
11.6996677764
 20
5.4160383408
 11
11.6996677764
 21
4.6685661593
  0
LINE
  5
2F5
100
AcDbEntity
  8
0
100
AcDbLine
 62
4
  6
CONTINUOUS
 10
13.0488678056
 20
9.2677951425
 11
13.0640811383
 21
9.2768823137
  0
LINE
  5
2F6
100
AcDbEntity
  8
0
100
AcDbLine
 62
4
  6
CONTINUOUS
 10
10.2304892314
 20
7.5431830873
 11
10.2152758986
 21
7.5340959134
  0
LINE
  5
2F7
100
AcDbEntity
  8
0
100
AcDbLine
 62
4
  6
CONTINUOUS
 10
13.0945078037
 20
9.2240611058
 11
13.0640811383
 21
9.2058867598
  0
LINE
  5
2F8
100
AcDbEntity
  8
0
100
AcDbLine
 62
4
  6
CONTINUOUS
 10
10.8269450271
 20
9.3036154177
 11
10.8666859754
 21
9.2809888963
  0
LINE
  5
2F9
100
AcDbEntity
  8
0
100
AcDbLine
 62
4
  6
CONTINUOUS
 10
8.221894535
 20
11.0644756479
 11
8.2066812022
 21
11.0756729182
  0
LINE
  5
2FA
100
AcDbEntity
  8
0
100
AcDbLine
 62
4
  6
CONTINUOUS
 10
8.2371078677
 20
11.13441615
 11
8.2523212004
 21
11.1232188824
  0
LINE
  5
2FB
100
AcDbEntity
  8
0
100
AcDbLine
 62
4
  6
CONTINUOUS
 10
8.2371078677
 20
11.1851272615
 11
8.2523212004
 21
11.1739299939
  0
LINE
  5
2FC
100
AcDbEntity
  8
0
100
AcDbLine
 62
7
  6
CONTINUOUS
 10
11.73404835
 20
5.41365404
 11
11.73404835
 21
4.6596678233
  0
LINE
  5
2FD
100
AcDbEntity
  8
0
100
AcDbLine
 62
4
  6
CONTINUOUS
 10
10.6953031329
 20
9.2481657669
 11
10.6580459845
 21
9.2507495589
  0
LINE
  5
2FE
100
AcDbEntity
  8
0
100
AcDbLine
 62
4
  6
CONTINUOUS
 10
10.6133374364
 20
9.2538501073
 11
10.5909831374
 21
9.2554003832
  0
LINE
  5
2FF
100
AcDbEntity
  8
0
100
AcDbLine
 62
4
  6
CONTINUOUS
 10
10.5338555399
 20
9.2593621955
 11
10.5040498411
 21
9.2614292278
  0
LINE
  5
300
100
AcDbEntity
  8
0
100
AcDbLine
 62
4
  6
CONTINUOUS
 10
10.0967050778
 20
9.2896786831
 11
10.0594479419
 21
9.2922624742
  0
LINE
  5
301
100
AcDbEntity
  8
0
100
AcDbLine
 62
4
  6
CONTINUOUS
 10
10.3326669737
 20
9.27331467
 11
10.3773755467
 21
9.2702141199
  0
LINE
  5
302
100
AcDbEntity
  8
0
100
AcDbLine
 62
4
  6
CONTINUOUS
 10
10.7524307802
 20
9.2442039511
 11
10.7971393284
 21
9.2411034028
  0
LINE
  5
303
100
AcDbEntity
  8
0
100
AcDbLine
 62
4
  6
CONTINUOUS
 10
10.1637679311
 20
9.3148335727
 11
10.2035088794
 21
9.3120775286
  0
LINE
  5
304
100
AcDbEntity
  8
0
100
AcDbLine
 62
4
  6
CONTINUOUS
 10
10.782236479
 20
9.3017483475
 11
10.7524307802
 21
9.3038153798
  0
LINE
  5
305
100
AcDbEntity
  8
0
100
AcDbLine
 62
4
  6
CONTINUOUS
 10
10.3624726973
 20
9.3308590647
 11
10.3326669737
 21
9.3329260986
  0
LINE
  5
306
100
AcDbEntity
  8
0
100
AcDbLine
 62
4
  6
CONTINUOUS
 10
13.0412611392
 20
9.1567582242
 11
13.1021144701
 21
9.1525380313
  0
LINE
  5
307
100
AcDbEntity
  8
0
100
AcDbLine
 62
4
  6
CONTINUOUS
 10
10.0594479419
 20
9.3965824696
 11
10.0967050778
 21
9.3939986785
  0
LINE
  5
308
100
AcDbEntity
  8
0
100
AcDbLine
 62
4
  6
CONTINUOUS
 10
10.2432498277
 20
9.3838357656
 11
10.3028612501
 21
9.3797016994
  0
LINE
  5
309
100
AcDbEntity
  8
0
100
AcDbLine
 62
4
  6
CONTINUOUS
 10
10.3326669737
 20
9.3776346654
 11
10.3773755467
 21
9.3745341153
  0
LINE
  5
30A
100
AcDbEntity
  8
0
100
AcDbLine
 62
4
  6
CONTINUOUS
 10
10.5040498411
 20
9.3657492232
 11
10.5338555399
 21
9.363682191
  0
LINE
  5
30B
100
AcDbEntity
  8
0
100
AcDbLine
 62
4
  6
CONTINUOUS
 10
10.5909831374
 20
9.3597203786
 11
10.6133374364
 21
9.3581701027
  0
LINE
  5
30C
100
AcDbEntity
  8
0
100
AcDbLine
 62
4
  6
CONTINUOUS
 10
10.6580459845
 20
9.3550695544
 11
10.6953031329
 21
9.3524857624
  0
LINE
  5
30D
100
AcDbEntity
  8
0
100
AcDbLine
 62
4
  6
CONTINUOUS
 10
10.7524307802
 20
9.3485239466
 11
10.7971393284
 21
9.3454233982
  0
LINE
  5
30E
100
AcDbEntity
  8
0
100
AcDbLine
 62
4
  6
CONTINUOUS
 10
13.0640811383
 20
9.2768823137
 11
13.079294471
 21
9.2758272655
  0
LINE
  5
30F
100
AcDbEntity
  8
0
100
AcDbLine
 62
4
  6
CONTINUOUS
 10
10.4556155303
 20
9.4942921486
 11
10.4034555326
 21
9.4979094567
  0
LINE
  5
310
100
AcDbEntity
  8
0
100
AcDbLine
 62
4
  6
CONTINUOUS
 10
13.0412611392
 20
9.25818044
 11
13.0488678056
 21
9.2677951425
  0
LINE
  5
311
100
AcDbEntity
  8
0
100
AcDbLine
 62
4
  6
CONTINUOUS
 10
13.0640811383
 20
9.2058867598
 11
13.0488678056
 21
9.1866573655
  0
LINE
  5
312
100
AcDbEntity
  8
0
100
AcDbLine
 62
4
  6
CONTINUOUS
 10
13.1021144701
 20
9.2336758083
 11
13.0945078037
 21
9.2240611058
  0
LINE
  5
313
100
AcDbEntity
  8
0
100
AcDbLine
 62
4
  6
CONTINUOUS
 10
10.440712681
 20
9.5996456601
 11
10.4183583882
 21
9.6011959356
  0
LINE
  5
314
100
AcDbEntity
  8
0
100
AcDbLine
 62
4
  6
CONTINUOUS
 10
10.3984879219
 20
9.7486219507
 11
10.3637145901
 21
9.7510334894
  0
LINE
  5
315
100
AcDbEntity
  8
0
100
AcDbLine
 62
4
  6
CONTINUOUS
 10
10.9896345626
 20
9.7597857896
 11
10.9374745649
 21
9.7634030977
  0
LINE
  5
316
100
AcDbEntity
  8
0
100
AcDbLine
 62
4
  6
CONTINUOUS
 10
10.6592879104
 20
9.7826954077
 11
10.6071279127
 21
9.7863127159
  0
LINE
  5
317
100
AcDbEntity
  8
0
100
AcDbLine
 62
4
  6
CONTINUOUS
 10
10.4854212514
 20
9.7947531015
 11
10.4332612537
 21
9.7983704096
  0
LINE
  5
318
100
AcDbEntity
  8
0
100
AcDbLine
 62
4
  6
CONTINUOUS
 10
10.3984879219
 20
9.8007819484
 11
10.3463279242
 21
9.8043992565
  0
LINE
  5
319
100
AcDbEntity
  8
0
100
AcDbLine
 62
4
  6
CONTINUOUS
 10
10.069010603
 20
9.823631278
 11
10.0168506053
 21
9.8272485862
  0
LINE
  5
31A
100
AcDbEntity
  8
0
100
AcDbLine
 62
4
  6
CONTINUOUS
 10
9.9907706064
 20
9.8290572402
 11
9.9386106087
 21
9.8326745484
  0
LINE
  5
31B
100
AcDbEntity
  8
0
100
AcDbLine
 62
4
  6
CONTINUOUS
 10
10.6940612422
 20
9.780283869
 11
10.7462212399
 21
9.7766665609
  0
LINE
  5
31C
100
AcDbEntity
  8
0
100
AcDbLine
 62
4
  6
CONTINUOUS
 10
10.8505412354
 20
9.7694319446
 11
10.9027012331
 21
9.7658146365
  0
LINE
  5
31D
100
AcDbEntity
  8
0
100
AcDbLine
 62
4
  6
CONTINUOUS
 10
10.9374745649
 20
9.7894830966
 11
10.9896345626
 21
9.7858657885
  0
LINE
  5
31E
100
AcDbEntity
  8
0
100
AcDbLine
 62
4
  6
CONTINUOUS
 10
10.6071279127
 20
9.8210860477
 11
10.6592879104
 21
9.8174687395
  0
LINE
  5
31F
100
AcDbEntity
  8
0
100
AcDbLine
 62
4
  6
CONTINUOUS
 10
10.6592879104
 20
9.8348554055
 11
10.6245145786
 21
9.8372669442
  0
LINE
  5
320
100
AcDbEntity
  8
0
100
AcDbLine
 62
4
  6
CONTINUOUS
 10
10.3037305927
 20
9.8595133892
 11
10.251570595
 21
9.8631306973
  0
LINE
  5
321
100
AcDbEntity
  8
0
100
AcDbLine
 62
4
  6
CONTINUOUS
 10
9.9386106087
 20
9.8848345461
 11
9.9907706064
 21
9.8812172379
  0
LINE
  5
322
100
AcDbEntity
  8
0
100
AcDbLine
 62
4
  6
CONTINUOUS
 10
10.4332612537
 20
9.8505304073
 11
10.4854212514
 21
9.8469130992
  0
LINE
  5
323
100
AcDbEntity
  8
0
100
AcDbLine
 62
4
  6
CONTINUOUS
 10
10.5201945832
 20
9.8445015605
 11
10.5723545809
 21
9.8408842523
  0
LINE
  5
324
100
AcDbEntity
  8
0
100
AcDbLine
 62
4
  6
CONTINUOUS
 10
10.8505412354
 20
9.8215919423
 11
10.9027012331
 21
9.8179746342
  0
LINE
  5
325
100
AcDbEntity
  8
0
100
AcDbLine
 62
4
  6
CONTINUOUS
 10
10.9374745649
 20
9.8155630954
 11
10.9896345626
 21
9.8119457873
  0
LINE
  5
326
100
AcDbEntity
  8
0
100
AcDbLine
 62
4
  6
CONTINUOUS
 10
10.8092479038
 20
9.8505356434
 11
10.8222879033
 21
9.8496313164
  0
LINE
  5
327
100
AcDbEntity
  8
0
100
AcDbLine
 62
7
  6
CONTINUOUS
 10
12.4954266493
 20
5.3608522756
 11
12.4954266493
 21
4.6068660589
  0
LINE
  5
328
100
AcDbEntity
  8
0
100
AcDbLine
 62
7
  6
CONTINUOUS
 10
12.5423913731
 20
5.3575952609
 11
12.5423913731
 21
4.6101230793
  0
LINE
  5
329
100
AcDbEntity
  8
0
100
AcDbLine
 62
4
  6
CONTINUOUS
 10
9.9907706064
 20
9.9333772357
 11
9.9386106087
 21
9.9369945438
  0
LINE
  5
32A
100
AcDbEntity
  8
0
100
AcDbLine
 62
4
  6
CONTINUOUS
 10
10.0950906019
 20
9.9261426194
 11
10.1472505996
 21
9.9225253113
  0
LINE
  5
32B
100
AcDbEntity
  8
0
100
AcDbLine
 62
4
  6
CONTINUOUS
 10
13.0488678056
 20
9.1866573655
 11
13.0412611392
 21
9.1567582242
  0
LINE
  5
32C
100
AcDbEntity
  8
0
100
AcDbLine
 62
4
  6
CONTINUOUS
 10
13.079294471
 20
9.2758272655
 11
13.0945078037
 21
9.2646299979
  0
LINE
  5
32D
100
AcDbEntity
  8
0
100
AcDbLine
 62
7
  6
CONTINUOUS
 10
13.0997588156
 20
5.3189416975
 11
13.0997588156
 21
4.7543803333
  0
LINE
  5
32E
100
AcDbEntity
  8
0
100
AcDbLine
 62
4
  6
CONTINUOUS
 10
13.1021144701
 20
9.2539602471
 11
13.1021144701
 21
9.2336758083
  0
LINE
  5
32F
100
AcDbEntity
  8
0
100
AcDbLine
 62
7
  6
CONTINUOUS
 10
13.1123429658
 20
5.3180689837
 11
13.1123429658
 21
4.7665356897
  0
LINE
  5
330
100
AcDbEntity
  8
0
100
AcDbLine
 62
7
  6
CONTINUOUS
 10
13.258594463
 20
5.3079264079
 11
13.258594463
 21
11.3932594741
  0
LINE
  5
331
100
AcDbEntity
  8
0
100
AcDbLine
 62
4
  6
CONTINUOUS
 10
13.0945078037
 20
9.2646299979
 11
13.1021144701
 21
9.2539602471
  0
LINE
  5
332
100
AcDbEntity
  8
0
100
AcDbLine
 62
4
  6
CONTINUOUS
 10
8.2371078677
 20
11.0634205997
 11
8.221894535
 21
11.0644756479
  0
LINE
  5
333
100
AcDbEntity
  8
0
100
AcDbLine
 62
4
  6
CONTINUOUS
 10
8.221894535
 20
11.1354711982
 11
8.2371078677
 21
11.13441615
  0
LINE
  5
334
100
AcDbEntity
  8
0
100
AcDbLine
 62
4
  6
CONTINUOUS
 10
8.221894535
 20
11.1861823097
 11
8.2371078677
 21
11.1851272615
  0
LINE
  5
335
100
AcDbEntity
  8
0
100
AcDbLine
 62
7
  6
CONTINUOUS
 10
13.957405308
 20
5.9829258909
 11
13.957405308
 21
12.068258957
  0
LINE
  5
336
100
AcDbEntity
  8
0
100
AcDbLine
 62
7
  6
CONTINUOUS
 10
8.042594692
 20
11.7549902868
 11
13.258594463
 21
11.3932594741
  0
LINE
  5
337
100
AcDbEntity
  8
0
100
AcDbLine
 62
7
  6
CONTINUOUS
 10
13.258594463
 20
5.3079264079
 11
13.957405308
 21
5.9829258909
  0
LINE
  5
338
100
AcDbEntity
  8
0
100
AcDbLine
 62
7
  6
CONTINUOUS
 10
13.957405308
 20
12.068258957
 11
8.741405537
 21
12.4299897698
  0
LINE
  5
339
100
AcDbEntity
  8
0
100
AcDbLine
 62
7
  6
CONTINUOUS
 10
12.9832229158
 20
4.6883408209
 11
12.9473435407
 21
4.6706170966
  0
ARC
  5
33A
100
AcDbEntity
  8
0
100
AcDbCircle
 62
7
  6
CONTINUOUS
 10
12.3181373321
 20
7.5035290612
 40
2.9020833983
100
AcDbArc
 50
273.5024005705
 51
274.4318614998
  0
ARC
  5
33B
100
AcDbEntity
  8
0
100
AcDbCircle
 62
7
  6
CONTINUOUS
 10
12.0341054436
 20
5.8898682971
 40
1.2662651638
100
AcDbArc
 50
254.6857191954
 51
256.2926786396
  0
ARC
  5
33C
100
AcDbEntity
  8
0
100
AcDbCircle
 62
7
  6
CONTINUOUS
 10
12.5399910471
 20
5.5836622069
 40
0.9990265333
100
AcDbArc
 50
294.0424242342
 51
296.3106753905
  0
ARC
  5
33D
100
AcDbEntity
  8
0
100
AcDbCircle
 62
7
  6
CONTINUOUS
 10
12.9954715862
 20
4.8753557129
 40
0.1597212218
100
AcDbArc
 50
310.7630914437
 51
313.9856916518
  0
ARC
  5
33E
100
AcDbEntity
  8
0
100
AcDbCircle
 62
7
  6
CONTINUOUS
 10
13.0117731499
 20
4.8586313328
 40
0.1363667677
100
AcDbArc
 50
313.9375979844
 51
317.5184669645
  0
SPLINE
  5
33F
100
AcDbEntity
  8
0
100
AcDbSpline
 62
7
  6
CONTINUOUS
 70
0
 71
3
 72
9
 73
5
 74
0
 42
0.0000001
 43
0.0000001
 44
0.0000000001
 40
0.0
 40
0.0
 40
0.0
 40
0.0
 40
0.5047194233
 40
1.0
 40
1.0
 40
1.0
 40
1.0
 10
13.0997588156
 20
4.7543803333
 30
0.0
 10
13.0806438582
 20
4.7422805824
 30
0.0
 10
13.0422566241
 20
4.7191068893
 30
0.0
 10
13.002699409
 20
4.6979670207
 30
0.0
 10
12.9827977865
 20
4.6881309647
 30
0.0
  0
SPLINE
  5
340
100
AcDbEntity
  8
0
100
AcDbSpline
 62
7
  6
CONTINUOUS
 70
0
 71
3
 72
20
 73
16
 74
0
 42
0.0000001
 43
0.0000001
 44
0.0000000001
 40
0.0
 40
0.0
 40
0.0
 40
0.0
 40
0.1321092246
 40
0.2654630393
 40
0.3983965104
 40
0.4641824508
 40
0.5292377163
 40
0.593358461
 40
0.6563452314
 40
0.7180031916
 40
0.7781436148
 40
0.8365831781
 40
0.8931456382
 40
0.9476711375
 40
1.0
 40
1.0
 40
1.0
 40
1.0
 10
12.4716978061
 20
5.3622953435
 30
0.0
 10
12.4398803066
 20
5.360598091
 30
0.0
 10
12.3758878684
 20
5.3581923977
 30
0.0
 10
12.2797901545
 20
5.357479174
 30
0.0
 10
12.1997058777
 20
5.3592832654
 30
0.0
 10
12.1361513286
 20
5.3621799438
 30
0.0
 10
12.0892153648
 20
5.365054486
 30
0.0
 10
12.0430046358
 20
5.3686288708
 30
0.0
 10
11.9976749989
 20
5.3728905102
 30
0.0
 10
11.9533793588
 20
5.3778252133
 30
0.0
 10
11.9102672454
 20
5.3834161678
 30
0.0
 10
11.8684844514
 20
5.3896439346
 30
0.0
 10
11.8281707565
 20
5.3964877847
 30
0.0
 10
11.7894618629
 20
5.4039242929
 30
0.0
 10
11.7642706712
 20
5.4093777264
 30
0.0
 10
11.7519713122
 20
5.4122085454
 30
0.0
  0
SPLINE
  5
341
100
AcDbEntity
  8
0
100
AcDbSpline
 62
7
  6
CONTINUOUS
 70
0
 71
3
 72
22
 73
18
 74
0
 42
0.0000001
 43
0.0000001
 44
0.0000000001
 40
0.0
 40
0.0
 40
0.0
 40
0.0
 40
0.043290989
 40
0.0886107636
 40
0.1362169549
 40
0.1863255266
 40
0.2391104607
 40
0.2946904167
 40
0.3531382065
 40
0.4144717324
 40
0.4786700373
 40
0.5456687108
 40
0.6153767118
 40
0.6876754969
 40
0.7624330017
 40
0.8395067268
 40
1.0
 40
1.0
 40
1.0
 40
1.0
 10
11.6401915743
 20
4.6807264271
 30
0.0
 10
11.6371082453
 20
4.6822482639
 30
0.0
 10
11.630917478
 20
4.6856127147
 30
0.0
 10
11.6218080234
 20
4.6914658112
 30
0.0
 10
11.6126863661
 20
4.6982518824
 30
0.0
 10
11.6035587536
 20
4.7059815785
 30
0.0
 10
11.5944323412
 20
4.7146590251
 30
0.0
 10
11.5853120769
 20
4.7242770232
 30
0.0
 10
11.5762053564
 20
4.7348216617
 30
0.0
 10
11.5671163702
 20
4.7462686135
 30
0.0
 10
11.5580517182
 20
4.7585881042
 30
0.0
 10
11.5490146397
 20
4.771742587
 30
0.0
 10
11.5400101662
 20
4.7856912091
 30
0.0
 10
11.5310404594
 20
4.800388748
 30
0.0
 10
11.5221084372
 20
4.8157891487
 30
0.0
 10
11.5100886915
 20
4.8374907892
 30
0.0
 10
11.5013847418
 20
4.8542371087
 30
0.0
 10
11.4956569197
 20
4.8656251777
 30
0.0
  0
SPLINE
  5
342
100
AcDbEntity
  8
0
100
AcDbSpline
 62
7
  6
CONTINUOUS
 70
0
 71
3
 72
42
 73
38
 74
0
 42
0.0000001
 43
0.0000001
 44
0.0000000001
 40
0.0
 40
0.0
 40
0.0
 40
0.0
 40
0.0099876471
 40
0.0204482153
 40
0.0313778979
 40
0.0427717855
 40
0.0546232227
 40
0.0669241187
 40
0.0928371108
 40
0.1204281727
 40
0.1495999526
 40
0.1802423267
 40
0.212235641
 40
0.2454510317
 40
0.2797517947
 40
0.3149951022
 40
0.3510319967
 40
0.3877093471
 40
0.4248702027
 40
0.4623548651
 40
0.5000019479
 40
0.5376490075
 40
0.5751337455
 40
0.6122945894
 40
0.6489720274
 40
0.6850089917
 40
0.7202522813
 40
0.7545532871
 40
0.78776864
 40
0.8197621595
 40
0.8504046934
 40
0.8795764413
 40
0.9071678821
 40
0.9330808459
 40
0.9572320527
 40
0.9795539769
 40
1.0
 40
1.0
 40
1.0
 40
1.0
 10
12.9473412597
 20
4.6706159598
 30
0.0
 10
12.9434276847
 20
4.6686827868
 30
0.0
 10
12.9353483344
 20
4.6648592193
 30
0.0
 10
12.9227822412
 20
4.6593639853
 30
0.0
 10
12.9095017795
 20
4.6539818126
 30
0.0
 10
12.8955221538
 20
4.6487195188
 30
0.0
 10
12.8808594036
 20
4.6435829692
 30
0.0
 10
12.8600581338
 20
4.6367913449
 30
0.0
 10
12.8324544607
 20
4.6286940509
 30
0.0
 10
12.7974457144
 20
4.6197278016
 30
0.0
 10
12.7601606004
 20
4.6113942301
 30
0.0
 10
12.7207708577
 20
4.6037314069
 30
0.0
 10
12.6794574209
 20
4.5967757839
 30
0.0
 10
12.6364105887
 20
4.590559948
 30
0.0
 10
12.5918288252
 20
4.5851125418
 30
0.0
 10
12.5459178012
 20
4.5804597421
 30
0.0
 10
12.4988894242
 20
4.5766226805
 30
0.0
 10
12.4509608654
 20
4.5736195591
 30
0.0
 10
12.4023534356
 20
4.5714645661
 30
0.0
 10
12.3532916626
 20
4.5701672527
 30
0.0
 10
12.3040021829
 20
4.5697343143
 30
0.0
 10
12.2547126732
 20
4.5701672818
 30
0.0
 10
12.2056508717
 20
4.5714642516
 30
0.0
 10
12.1570433855
 20
4.573619472
 30
0.0
 10
12.1091147461
 20
4.5766222937
 30
0.0
 10
12.0620863018
 20
4.58045932
 30
0.0
 10
12.0161751626
 20
4.58511223
 30
0.0
 10
11.971593267
 20
4.5905592358
 30
0.0
 10
11.9285462876
 20
4.5967753308
 30
0.0
 10
11.8872326757
 20
4.6037306997
 30
0.0
 10
11.8478427268
 20
4.6113934144
 30
0.0
 10
11.810557557
 20
4.6197272482
 30
0.0
 10
11.7755481479
 20
4.6286928961
 30
0.0
 10
11.742974786
 20
4.6382490166
 30
0.0
 10
11.7129848023
 20
4.648350175
 30
0.0
 10
11.6857151832
 20
4.6589495977
 30
0.0
 10
11.6686724716
 20
4.6666574802
 30
0.0
 10
11.6606608971
 20
4.6706149926
 30
0.0
  0
SPLINE
  5
343
100
AcDbEntity
  8
0
100
AcDbSpline
 62
7
  6
CONTINUOUS
 70
0
 71
3
 72
21
 73
17
 74
0
 42
0.0000001
 43
0.0000001
 44
0.0000000001
 40
0.0
 40
0.0
 40
0.0
 40
0.0
 40
0.1229683586
 40
0.1846291852
 40
0.2464222231
 40
0.3083594657
 40
0.3704517377
 40
0.4327079591
 40
0.49513282
 40
0.557727432
 40
0.6204888849
 40
0.6834099387
 40
0.7464809678
 40
0.8096898189
 40
0.8730228
 40
1.0
 40
1.0
 40
1.0
 40
1.0
 10
12.4954266493
 20
4.6068660589
 30
0.0
 10
12.4643657713
 20
4.6005119794
 30
0.0
 10
12.417475165
 20
4.5921314521
 30
0.0
 10
12.3544857602
 20
4.5837725908
 30
0.0
 10
12.3069142275
 20
4.5790266917
 30
0.0
 10
12.2590946342
 20
4.5759326958
 30
0.0
 10
12.2110730185
 20
4.5745959707
 30
0.0
 10
12.1629089833
 20
4.5751002807
 30
0.0
 10
12.1146719018
 20
4.5774960538
 30
0.0
 10
12.0664364681
 20
4.5817958081
 30
0.0
 10
12.0182773372
 20
4.5879762074
 30
0.0
 10
11.970263334
 20
4.5959768483
 30
0.0
 10
11.9224530648
 20
4.6057056151
 30
0.0
 10
11.874891958
 20
4.6170506669
 30
0.0
 10
11.8118044703
 20
4.6341769285
 30
0.0
 10
11.7650125422
 20
4.6490387746
 30
0.0
 10
11.73404835
 20
4.6596678233
 30
0.0
  0
SPLINE
  5
344
100
AcDbEntity
  8
0
100
AcDbSpline
 62
7
  6
CONTINUOUS
 70
0
 71
3
 72
11
 73
7
 74
0
 42
0.0000001
 43
0.0000001
 44
0.0000000001
 40
0.0
 40
0.0
 40
0.0
 40
0.0
 40
0.2458672335
 40
0.4933492082
 40
0.7440905688
 40
1.0
 40
1.0
 40
1.0
 40
1.0
 10
11.6996677764
 20
4.6685661593
 30
0.0
 10
11.6965360396
 20
4.6683896735
 30
0.0
 10
11.6902363284
 20
4.6682642605
 30
0.0
 10
11.6807495418
 20
4.6688164648
 30
0.0
 10
11.6712124722
 20
4.6701643539
 30
0.0
 10
11.6649033683
 20
4.6716122029
 30
0.0
 10
11.6617552612
 20
4.6724773499
 30
0.0
  0
LINE
  5
345
100
AcDbEntity
  8
0
100
AcDbLine
 62
7
  6
CONTINUOUS
 10
11.6617552612
 20
4.6724773499
 11
11.6613947704
 21
4.6725770477
  0
SPLINE
  5
346
100
AcDbEntity
  8
0
100
AcDbSpline
 62
7
  6
CONTINUOUS
 70
0
 71
3
 72
9
 73
5
 74
0
 42
0.0000001
 43
0.0000001
 44
0.0000000001
 40
0.0
 40
0.0
 40
0.0
 40
0.0
 40
0.4899125641
 40
1.0
 40
1.0
 40
1.0
 40
1.0
 10
11.6613947704
 20
4.6725770477
 30
0.0
 10
11.6578171472
 20
4.673572731
 30
0.0
 10
11.650609234
 20
4.6759600988
 30
0.0
 10
11.6436587681
 20
4.6790151263
 30
0.0
 10
11.6401915743
 20
4.6807264271
 30
0.0
  0
LINE
  5
347
100
AcDbEntity
  8
0
100
AcDbLine
 62
7
  6
CONTINUOUS
 10
12.9470074036
 20
4.6713071774
 11
12.9459194048
 21
4.6708233679
  0
SPLINE
  5
348
100
AcDbEntity
  8
0
100
AcDbSpline
 62
7
  6
CONTINUOUS
 70
0
 71
3
 72
15
 73
11
 74
0
 42
0.0000001
 43
0.0000001
 44
0.0000000001
 40
0.0
 40
0.0
 40
0.0
 40
0.0
 40
0.1323763415
 40
0.2621392813
 40
0.3894055944
 40
0.5144404382
 40
0.637615975
 40
0.7593469011
 40
0.8800294664
 40
1.0
 40
1.0
 40
1.0
 40
1.0
 10
12.9459194048
 20
4.6708233679
 30
0.0
 10
12.9292518535
 20
4.6634243897
 30
0.0
 10
12.8958056256
 20
4.6497341983
 30
0.0
 10
12.8448852557
 20
4.6327273548
 30
0.0
 10
12.7938533646
 20
4.6196521703
 30
0.0
 10
12.7428857868
 20
4.6105556564
 30
0.0
 10
12.6921484997
 20
4.6053157745
 30
0.0
 10
12.6417736049
 20
4.6036693644
 30
0.0
 10
12.5918473137
 20
4.6052620064
 30
0.0
 10
12.5588094887
 20
4.6082290656
 30
0.0
 10
12.5423913731
 20
4.6101230793
 30
0.0
  0
SPLINE
  5
349
100
AcDbEntity
  8
0
100
AcDbSpline
 62
7
  6
CONTINUOUS
 70
0
 71
3
 72
49
 73
45
 74
0
 42
0.0000001
 43
0.0000001
 44
0.0000000001
 40
0.0
 40
0.0
 40
0.0
 40
0.0
 40
0.0321974564
 40
0.0654883787
 40
0.0997680175
 40
0.1349263389
 40
0.1708495829
 40
0.2074204546
 40
0.2445188136
 40
0.2820222069
 40
0.3198064251
 40
0.3577460499
 40
0.3957149968
 40
0.4335870564
 40
0.471236434
 40
0.5085382913
 40
0.5453692905
 40
0.5816081453
 40
0.6171361769
 40
0.65183788
 40
0.6856015059
 40
0.718319669
 40
0.7498899893
 40
0.7802157856
 40
0.7948838237
 40
0.8092074836
 40
0.8231766373
 40
0.8367816849
 40
0.8500136041
 40
0.8628639331
 40
0.8753249144
 40
0.8873894303
 40
0.8990511804
 40
0.9103046612
 40
0.9211452978
 40
0.931569547
 40
0.9415749562
 40
0.951160405
 40
0.9603261475
 40
0.9690741422
 40
0.9774081957
 40
0.9853343196
 40
0.992861084
 40
1.0
 40
1.0
 40
1.0
 40
1.0
 10
10.7653117165
 20
11.7535131156
 30
0.0
 10
10.748504058
 20
11.7504671143
 30
0.0
 10
10.7142468196
 20
11.7446586695
 30
0.0
 10
10.6618872366
 20
11.7368926213
 30
0.0
 10
10.6078284874
 20
11.7299465628
 30
0.0
 10
10.5522630633
 20
11.7238455425
 30
0.0
 10
10.4953886523
 20
11.7186114638
 30
0.0
 10
10.4374076512
 20
11.7142631421
 30
0.0
 10
10.3785264407
 20
11.7108161919
 30
0.0
 10
10.3189546347
 20
11.7082829933
 30
0.0
 10
10.2589043264
 20
11.7066726378
 30
0.0
 10
10.1985893259
 20
11.7059909037
 30
0.0
 10
10.1382243913
 20
11.7062402369
 30
0.0
 10
10.0780244599
 20
11.7074197424
 30
0.0
 10
10.0182038772
 20
11.7095251875
 30
0.0
 10
9.9589756288
 20
11.7125490157
 30
0.0
 10
9.9005505759
 20
11.7164803737
 30
0.0
 10
9.8431366941
 20
11.7213051425
 30
0.0
 10
9.7869383267
 20
11.7270059895
 30
0.0
 10
9.732155437
 20
11.7335624266
 30
0.0
 10
9.6789829182
 20
11.7409508875
 30
0.0
 10
9.6276097537
 20
11.7491447827
 30
0.0
 10
9.5782187728
 20
11.7581146795
 30
0.0
 10
9.5384280895
 20
11.7662973463
 30
0.0
 10
9.5077301614
 20
11.7732252398
 30
0.0
 10
9.4855653548
 20
11.7785368693
 30
0.0
 10
9.4640230334
 20
11.7840170763
 30
0.0
 10
9.4431223257
 20
11.7896610166
 30
0.0
 10
9.422881809
 20
11.7954636003
 30
0.0
 10
9.4033194673
 20
11.8014197102
 30
0.0
 10
9.3844526569
 20
11.8075239518
 30
0.0
 10
9.3662981237
 20
11.8137709544
 30
0.0
 10
9.3488719459
 20
11.8201550871
 30
0.0
 10
9.3321895532
 20
11.8266706963
 30
0.0
 10
9.316265692
 20
11.8333119912
 30
0.0
 10
9.3011143998
 20
11.8400730382
 30
0.0
 10
9.2867490358
 20
11.8469479298
 30
0.0
 10
9.2731821808
 20
11.8539305188
 30
0.0
 10
9.2604257423
 20
11.8610147848
 30
0.0
 10
9.248490802
 20
11.8681945072
 30
0.0
 10
9.2373877739
 20
11.8754635356
 30
0.0
 10
9.2271261468
 20
11.8828158323
 30
0.0
 10
9.2177151613
 20
11.8902448812
 30
0.0
 10
9.2118619882
 20
11.8953779198
 30
0.0
 10
9.2090894573
 20
11.89795805
 30
0.0
  0
SPLINE
  5
34A
100
AcDbEntity
  8
0
100
AcDbSpline
 62
7
  6
CONTINUOUS
 70
0
 71
3
 72
18
 73
14
 74
0
 42
0.0000001
 43
0.0000001
 44
0.0000000001
 40
0.0
 40
0.0
 40
0.0
 40
0.0
 40
0.1504686872
 40
0.2917143508
 40
0.4244422581
 40
0.4879097286
 40
0.549609416
 40
0.6682625881
 40
0.7817882869
 40
0.8371380068
 40
0.8918078217
 40
0.9460192903
 40
1.0
 40
1.0
 40
1.0
 40
1.0
 10
13.6079998855
 20
10.2363754006
 30
0.0
 10
13.6102262338
 20
10.238525888
 30
0.0
 10
13.6146758845
 20
10.2425608185
 30
0.0
 10
13.6215657122
 20
10.2479378309
 30
0.0
 10
13.6273853213
 20
10.2517407498
 30
0.0
 10
13.6320259662
 20
10.2543159591
 30
0.0
 10
13.6365300803
 20
10.2565268779
 30
0.0
 10
13.6421616571
 20
10.2587609166
 30
0.0
 10
13.6478934025
 20
10.2602854473
 30
0.0
 10
13.6524331169
 20
10.2610364532
 30
0.0
 10
13.6557976756
 20
10.2613697401
 30
0.0
 10
13.6591486206
 20
10.2614773984
 30
0.0
 10
13.6613749076
 20
10.2613986501
 30
0.0
 10
13.6624827066
 20
10.26132182
 30
0.0
  0
SPLINE
  5
34B
100
AcDbEntity
  8
0
100
AcDbSpline
 62
7
  6
CONTINUOUS
 70
0
 71
3
 72
15
 73
11
 74
0
 42
0.0000001
 43
0.0000001
 44
0.0000000001
 40
0.0
 40
0.0
 40
0.0
 40
0.0
 40
0.1273483281
 40
0.2538605602
 40
0.3795878981
 40
0.5046051042
 40
0.6290174419
 40
0.7529533761
 40
0.876560577
 40
1.0
 40
1.0
 40
1.0
 40
1.0
 10
12.1310691791
 20
11.0367869705
 30
0.0
 10
12.1310691791
 20
11.031160163
 30
0.0
 10
12.1305319323
 20
11.0199357108
 30
0.0
 10
12.128102278
 20
11.0033149144
 30
0.0
 10
12.1240735078
 20
10.9871117394
 30
0.0
 10
12.1184820097
 20
10.9714777158
 30
0.0
 10
12.1113790979
 20
10.9565570199
 30
0.0
 10
12.1028294868
 20
10.9424874457
 30
0.0
 10
12.0929135861
 20
10.9294008135
 30
0.0
 10
12.0854474129
 20
10.9214067648
 30
0.0
 10
12.081524527
 20
10.9176175539
 30
0.0
  0
SPLINE
  5
34C
100
AcDbEntity
  8
0
100
AcDbSpline
 62
7
  6
CONTINUOUS
 70
0
 71
3
 72
15
 73
11
 74
0
 42
0.0000001
 43
0.0000001
 44
0.0000000001
 40
0.0
 40
0.0
 40
0.0
 40
0.0
 40
0.1273483281
 40
0.2538605602
 40
0.3795878981
 40
0.5046051042
 40
0.6290174419
 40
0.7529533761
 40
0.876560577
 40
1.0
 40
1.0
 40
1.0
 40
1.0
 10
9.9577359412
 20
5.9715083715
 30
0.0
 10
9.9577359412
 20
5.9658815639
 30
0.0
 10
9.9571986944
 20
5.9546571118
 30
0.0
 10
9.9547690401
 20
5.9380363153
 30
0.0
 10
9.9507402699
 20
5.9218331403
 30
0.0
 10
9.9451487718
 20
5.9061991167
 30
0.0
 10
9.9380458599
 20
5.8912784208
 30
0.0
 10
9.9294962488
 20
5.8772088466
 30
0.0
 10
9.9195803482
 20
5.8641222144
 30
0.0
 10
9.912114175
 20
5.8561281657
 30
0.0
 10
9.9081912891
 20
5.8523389548
 30
0.0
  0
SPLINE
  5
34D
100
AcDbEntity
  8
0
100
AcDbSpline
 62
7
  6
CONTINUOUS
 70
0
 71
3
 72
22
 73
18
 74
0
 42
0.0000001
 43
0.0000001
 44
0.0000000001
 40
0.0
 40
0.0
 40
0.0
 40
0.0
 40
0.0613327317
 40
0.1226523404
 40
0.1840184012
 40
0.2454958346
 40
0.3071482173
 40
0.3690332948
 40
0.4311978336
 40
0.4936729089
 40
0.5564693378
 40
0.6195732228
 40
0.682942325
 40
0.7465029249
 40
0.810148457
 40
0.8737404546
 40
1.0
 40
1.0
 40
1.0
 40
1.0
 10
9.8638661449
 20
7.3728109631
 30
0.0
 10
9.8644563239
 20
7.3676804006
 30
0.0
 10
9.8661138833
 20
7.3574688872
 30
0.0
 10
9.8700008208
 20
7.3424480616
 30
0.0
 10
9.8752431828
 20
7.3278312256
 30
0.0
 10
9.8817830453
 20
7.3137174339
 30
0.0
 10
9.8895531721
 20
7.3001922868
 30
0.0
 10
9.8984792844
 20
7.2873312727
 30
0.0
 10
9.9084823934
 20
7.2752002363
 30
0.0
 10
9.9194802024
 20
7.2638573128
 30
0.0
 10
9.931387741
 20
7.2533547789
 30
0.0
 10
9.9441171462
 20
7.2437408845
 30
0.0
 10
9.9575770968
 20
7.2350612482
 30
0.0
 10
9.9716708116
 20
7.2273600277
 30
0.0
 10
9.9862980299
 20
7.220679304
 30
0.0
 10
10.0063055646
 20
7.2132086173
 30
0.0
 10
10.0218605172
 20
7.2092182674
 30
0.0
 10
10.0323239246
 20
7.2073356439
 30
0.0
  0
SPLINE
  5
34E
100
AcDbEntity
  8
0
100
AcDbSpline
 62
7
  6
CONTINUOUS
 70
0
 71
3
 72
15
 73
11
 74
0
 42
0.0000001
 43
0.0000001
 44
0.0000000001
 40
0.0
 40
0.0
 40
0.0
 40
0.0
 40
0.1273483257
 40
0.253860557
 40
0.3795878955
 40
0.504605103
 40
0.6290174424
 40
0.7529533779
 40
0.8765605788
 40
1.0
 40
1.0
 40
1.0
 40
1.0
 10
10.0346619528
 20
7.1781464455
 30
0.0
 10
10.0346619528
 20
7.1722979032
 30
0.0
 10
10.0341035359
 20
7.160631131
 30
0.0
 10
10.0315781416
 20
7.1433553608
 30
0.0
 10
10.0273906185
 20
7.1265136678
 30
0.0
 10
10.0215787883
 20
7.1102635525
 30
0.0
 10
10.0141959869
 20
7.0947548723
 30
0.0
 10
10.0053094787
 20
7.0801308507
 30
0.0
 10
9.9950028416
 20
7.0665285021
 30
0.0
 10
9.9872424628
 20
7.0582194215
 30
0.0
 10
9.9831649948
 20
7.0542808832
 30
0.0
  0
SPLINE
  5
34F
100
AcDbEntity
  8
0
100
AcDbSpline
 62
7
  6
CONTINUOUS
 70
0
 71
3
 72
40
 73
36
 74
0
 42
0.0000001
 43
0.0000001
 44
0.0000000001
 40
0.0
 40
0.0
 40
0.0
 40
0.0
 40
0.0310748092
 40
0.0623077253
 40
0.0936925326
 40
0.1252215898
 40
0.1568831362
 40
0.1886631191
 40
0.2205448907
 40
0.2525097893
 40
0.2845374621
 40
0.3166063048
 40
0.3486938916
 40
0.3807774241
 40
0.4128341841
 40
0.4448419855
 40
0.4767796187
 40
0.5086272821
 40
0.5403669917
 40
0.5719829641
 40
0.6034619653
 40
0.6347936174
 40
0.6659706556
 40
0.6969891286
 40
0.7278485342
 40
0.7585518833
 40
0.7891056862
 40
0.8195198573
 40
0.8498075357
 40
0.8649117414
 40
0.8799905948
 40
0.9100761996
 40
0.9400910313
 40
0.9700577039
 40
1.0
 40
1.0
 40
1.0
 40
1.0
 10
10.0346619528
 20
7.1781464455
 30
0.0
 10
10.0346619528
 20
7.1826921722
 30
0.0
 10
10.0343228245
 20
7.1918102501
 30
0.0
 10
10.0328088527
 20
7.2054436817
 30
0.0
 10
10.0302966435
 20
7.2189971047
 30
0.0
 10
10.0268002893
 20
7.2323950213
 30
0.0
 10
10.02233901
 20
7.2455642003
 30
0.0
 10
10.0169374752
 20
7.2584322657
 30
0.0
 10
10.0106254026
 20
7.2709286246
 30
0.0
 10
10.0034375285
 20
7.2829847017
 30
0.0
 10
9.9954133581
 20
7.2945343469
 30
0.0
 10
9.9865969736
 20
7.305514186
 30
0.0
 10
9.9770367855
 20
7.3158639659
 30
0.0
 10
9.9667852719
 20
7.3255268811
 30
0.0
 10
9.9558986929
 20
7.3344498821
 30
0.0
 10
9.9444367859
 20
7.3425839655
 30
0.0
 10
9.932462442
 20
7.3498844421
 30
0.0
 10
9.9200413629
 20
7.3563111778
 30
0.0
 10
9.9072417049
 20
7.3618288133
 30
0.0
 10
9.8941337107
 20
7.3664069579
 30
0.0
 10
9.8807893284
 20
7.3700203569
 30
0.0
 10
9.8672818236
 20
7.3726490324
 30
0.0
 10
9.8536853808
 20
7.3742783954
 30
0.0
 10
9.8400747065
 20
7.3748993328
 30
0.0
 10
9.8265246082
 20
7.3745082568
 30
0.0
 10
9.8131096426
 20
7.3731071569
 30
0.0
 10
9.7999035023
 20
7.3707035089
 30
0.0
 10
9.786979373
 20
7.3673105722
 30
0.0
 10
9.7764919858
 20
7.3636699949
 30
0.0
 10
9.7683175749
 20
7.3602843115
 30
0.0
 10
9.7603086443
 20
7.3565939986
 30
0.0
 10
9.750597582
 20
7.3514064688
 30
0.0
 10
9.7394908517
 20
7.3442938944
 30
0.0
 10
9.7289990983
 20
7.3363372403
 30
0.0
 10
9.7224506353
 20
7.3304967752
 30
0.0
 10
9.7193002603
 20
7.3274537415
 30
0.0
  0
SPLINE
  5
350
100
AcDbEntity
  8
0
100
AcDbSpline
 62
7
  6
CONTINUOUS
 70
0
 71
3
 72
11
 73
7
 74
0
 42
0.0000001
 43
0.0000001
 44
0.0000000001
 40
0.0
 40
0.0
 40
0.0
 40
0.0
 40
0.2697183344
 40
0.5237013691
 40
0.7658764722
 40
1.0
 40
1.0
 40
1.0
 40
1.0
 10
9.2583057327
 20
11.8624633778
 30
0.0
 10
9.2578747458
 20
11.8636461895
 30
0.0
 10
9.2571284219
 20
11.865977258
 30
0.0
 10
9.2563295238
 20
11.8694659583
 30
0.0
 10
9.2558659301
 20
11.8728473251
 30
0.0
 10
9.2557654006
 20
11.8750716937
 30
0.0
 10
9.2557654006
 20
11.8761644439
 30
0.0
  0
SPLINE
  5
351
100
AcDbEntity
  8
0
100
AcDbSpline
 62
7
  6
CONTINUOUS
 70
0
 71
3
 72
29
 73
25
 74
0
 42
0.0000001
 43
0.0000001
 44
0.0000000001
 40
0.0
 40
0.0
 40
0.0
 40
0.0
 40
0.0191436973
 40
0.0390355211
 40
0.0596935659
 40
0.0811327518
 40
0.1033648686
 40
0.1263993078
 40
0.1502429301
 40
0.1749005738
 40
0.2003752217
 40
0.2266679852
 40
0.2537786426
 40
0.2817053285
 40
0.3399913541
 40
0.4014903187
 40
0.4661475825
 40
0.533894394
 40
0.604649601
 40
0.6783209807
 40
0.7548067634
 40
0.8339951261
 40
0.9157694204
 40
1.0
 40
1.0
 40
1.0
 40
1.0
 10
11.1600408204
 20
11.8979575488
 30
0.0
 10
11.1580567139
 20
11.896111137
 30
0.0
 10
11.1539308768
 20
11.8924314489
 30
0.0
 10
11.1474107154
 20
11.8870515964
 30
0.0
 10
11.1404452991
 20
11.881709552
 30
0.0
 10
11.1330379119
 20
11.8764078812
 30
0.0
 10
11.1251919393
 20
11.8711488184
 30
0.0
 10
11.1169109214
 20
11.8659348313
 30
0.0
 10
11.108198668
 20
11.8607682149
 30
0.0
 10
11.0990591539
 20
11.8556513355
 30
0.0
 10
11.0894965504
 20
11.8505865628
 30
0.0
 10
11.0795152714
 20
11.8455761569
 30
0.0
 10
11.0691198542
 20
11.8406224629
 30
0.0
 10
11.0545045829
 20
11.834001641
 30
0.0
 10
11.0352193114
 20
11.8259012304
 30
0.0
 10
11.010823825
 20
11.8165760851
 30
0.0
 10
10.9849007563
 20
11.807529951
 30
0.0
 10
10.9574978698
 20
11.7987796216
 30
0.0
 10
10.9286653844
 20
11.7903413637
 30
0.0
 10
10.8984563448
 20
11.782230863
 30
0.0
 10
10.8669265117
 20
11.7744632708
 30
0.0
 10
10.8341338134
 20
11.7670529421
 30
0.0
 10
10.8001391634
 20
11.7600138502
 30
0.0
 10
10.7770458148
 20
11.7556396508
 30
0.0
 10
10.7653117165
 20
11.7535131156
 30
0.0
  0
SPLINE
  5
352
100
AcDbEntity
  8
0
100
AcDbSpline
 62
7
  6
CONTINUOUS
 70
0
 71
3
 72
11
 73
7
 74
0
 42
0.0000001
 43
0.0000001
 44
0.0000000001
 40
0.0
 40
0.0
 40
0.0
 40
0.0
 40
0.2341956276
 40
0.4764098744
 40
0.7303772225
 40
1.0
 40
1.0
 40
1.0
 40
1.0
 10
11.1133654006
 20
11.8761644439
 30
0.0
 10
11.1133654006
 20
11.8750750639
 30
0.0
 10
11.1132655007
 20
11.8728577285
 30
0.0
 10
11.1128048453
 20
11.8694872178
 30
0.0
 10
11.1120110534
 20
11.8660101686
 30
0.0
 10
11.1112695194
 20
11.863686845
 30
0.0
 10
11.1108413157
 20
11.8625080364
 30
0.0
  0
SPLINE
  5
353
100
AcDbEntity
  8
0
100
AcDbSpline
 62
7
  6
CONTINUOUS
 70
0
 71
3
 72
40
 73
36
 74
0
 42
0.0000001
 43
0.0000001
 44
0.0000000001
 40
0.0
 40
0.0
 40
0.0
 40
0.0
 40
0.0299422956
 40
0.059908968
 40
0.0899238
 40
0.1200094056
 40
0.1350882594
 40
0.1501924656
 40
0.1804801452
 40
0.2108943177
 40
0.241448122
 40
0.2721514726
 40
0.3030108797
 40
0.334029354
 40
0.3652063934
 40
0.3965380465
 40
0.4280170486
 40
0.4596330217
 40
0.4913727316
 40
0.5232203951
 40
0.5551580282
 40
0.5871658292
 40
0.6192225887
 40
0.6513061205
 40
0.6833937063
 40
0.715462548
 40
0.7474902197
 40
0.779455117
 40
0.8113368874
 40
0.8431168691
 40
0.8747784143
 40
0.9063074703
 40
0.9376922765
 40
0.9689251917
 40
1.0
 40
1.0
 40
1.0
 40
1.0
 10
11.8276645134
 20
11.1804335055
 30
0.0
 10
11.8306954457
 20
11.1833611568
 30
0.0
 10
11.8369956308
 20
11.1889801689
 30
0.0
 10
11.8470895982
 20
11.1966351286
 30
0.0
 10
11.857775224
 20
11.2034780119
 30
0.0
 10
11.867118096
 20
11.2084688418
 30
0.0
 10
11.8748233708
 20
11.2120192249
 30
0.0
 10
11.8826878514
 20
11.2152765287
 30
0.0
 10
11.8927776114
 20
11.2187790593
 30
0.0
 10
11.9052117234
 20
11.2220433364
 30
0.0
 10
11.9179171524
 20
11.2243558345
 30
0.0
 10
11.930823488
 20
11.2257037968
 30
0.0
 10
11.9438598316
 20
11.226080031
 30
0.0
 10
11.9569544533
 20
11.2254826233
 30
0.0
 10
11.9700353821
 20
11.2239150255
 30
0.0
 10
11.9830307443
 20
11.2213860052
 30
0.0
 10
11.995869168
 20
11.2179095982
 30
0.0
 10
12.0084801657
 20
11.2135050251
 30
0.0
 10
12.0207945172
 20
11.2081965831
 30
0.0
 10
12.0327446435
 20
11.2020135107
 30
0.0
 10
12.0442649722
 20
11.1949898263
 30
0.0
 10
12.055292293
 20
11.1871641424
 30
0.0
 10
12.0657660994
 20
11.1785794538
 30
0.0
 10
12.075628919
 20
11.169282906
 30
0.0
 10
12.084826625
 20
11.1593255369
 30
0.0
 10
12.0933087291
 20
11.1487619982
 30
0.0
 10
12.1010286564
 20
11.1376502586
 30
0.0
 10
12.1079439961
 20
11.1260512891
 30
0.0
 10
12.114016741
 20
11.1140287318
 30
0.0
 10
12.1192134719
 20
11.101648562
 30
0.0
 10
12.1235055977
 20
11.0889786957
 30
0.0
 10
12.1268693845
 20
11.0760887648
 30
0.0
 10
12.129286341
 20
11.0630492238
 30
0.0
 10
12.1307429091
 20
11.0499327078
 30
0.0
 10
12.1310691791
 20
11.0411603447
 30
0.0
 10
12.1310691791
 20
11.0367869705
 30
0.0
  0
SPLINE
  5
354
100
AcDbEntity
  8
0
100
AcDbSpline
 62
7
  6
CONTINUOUS
 70
0
 71
3
 72
40
 73
36
 74
0
 42
0.0000001
 43
0.0000001
 44
0.0000000001
 40
0.0
 40
0.0
 40
0.0
 40
0.0
 40
0.0299422956
 40
0.059908968
 40
0.0899238
 40
0.1200094056
 40
0.1350882594
 40
0.1501924656
 40
0.1804801452
 40
0.2108943177
 40
0.241448122
 40
0.2721514726
 40
0.3030108797
 40
0.334029354
 40
0.3652063934
 40
0.3965380465
 40
0.4280170486
 40
0.4596330217
 40
0.4913727316
 40
0.5232203951
 40
0.5551580282
 40
0.5871658292
 40
0.6192225887
 40
0.6513061205
 40
0.6833937063
 40
0.715462548
 40
0.7474902197
 40
0.779455117
 40
0.8113368874
 40
0.8431168691
 40
0.8747784143
 40
0.9063074703
 40
0.9376922765
 40
0.9689251917
 40
1.0
 40
1.0
 40
1.0
 40
1.0
 10
9.6543312755
 20
6.1151549065
 30
0.0
 10
9.6573622078
 20
6.1180825577
 30
0.0
 10
9.6636623929
 20
6.1237015698
 30
0.0
 10
9.6737563603
 20
6.1313565296
 30
0.0
 10
9.6844419861
 20
6.1381994128
 30
0.0
 10
9.6937848581
 20
6.1431902428
 30
0.0
 10
9.7014901329
 20
6.1467406259
 30
0.0
 10
9.7093546135
 20
6.1499979296
 30
0.0
 10
9.7194443734
 20
6.1535004603
 30
0.0
 10
9.7318784854
 20
6.1567647374
 30
0.0
 10
9.7445839145
 20
6.1590772354
 30
0.0
 10
9.7574902501
 20
6.1604251977
 30
0.0
 10
9.7705265937
 20
6.1608014319
 30
0.0
 10
9.7836212154
 20
6.1602040243
 30
0.0
 10
9.7967021442
 20
6.1586364264
 30
0.0
 10
9.8096975064
 20
6.1561074061
 30
0.0
 10
9.82253593
 20
6.1526309991
 30
0.0
 10
9.8351469278
 20
6.1482264261
 30
0.0
 10
9.8474612793
 20
6.1429179841
 30
0.0
 10
9.8594114055
 20
6.1367349116
 30
0.0
 10
9.8709317342
 20
6.1297112272
 30
0.0
 10
9.881959055
 20
6.1218855433
 30
0.0
 10
9.8924328614
 20
6.1133008547
 30
0.0
 10
9.902295681
 20
6.1040043069
 30
0.0
 10
9.9114933871
 20
6.0940469379
 30
0.0
 10
9.9199754912
 20
6.0834833992
 30
0.0
 10
9.9276954185
 20
6.0723716595
 30
0.0
 10
9.9346107582
 20
6.06077269
 30
0.0
 10
9.9406835031
 20
6.0487501328
 30
0.0
 10
9.945880234
 20
6.0363699629
 30
0.0
 10
9.9501723598
 20
6.0237000966
 30
0.0
 10
9.9535361466
 20
6.0108101658
 30
0.0
 10
9.9559531031
 20
5.9977706247
 30
0.0
 10
9.9574096712
 20
5.9846541087
 30
0.0
 10
9.9577359412
 20
5.9758817456
 30
0.0
 10
9.9577359412
 20
5.9715083715
 30
0.0
  0
SPLINE
  5
355
100
AcDbEntity
  8
0
100
AcDbSpline
 62
7
  6
CONTINUOUS
 70
0
 71
3
 72
82
 73
78
 74
0
 42
0.0000001
 43
0.0000001
 44
0.0000000001
 40
0.0
 40
0.0
 40
0.0
 40
0.0
 40
0.0027164293
 40
0.0054532352
 40
0.0082303039
 40
0.0110666017
 40
0.0139798083
 40
0.0169861229
 40
0.0201000879
 40
0.0233346065
 40
0.0267009682
 40
0.0302089184
 40
0.0338668424
 40
0.037681809
 40
0.0416597867
 40
0.0458057216
 40
0.0501236475
 40
0.0546168506
 40
0.0592878619
 40
0.0641386413
 40
0.0691705739
 40
0.0743845478
 40
0.0797810495
 40
0.0853601154
 40
0.0970639755
 40
0.1094907276
 40
0.1226299755
 40
0.1364676385
 40
0.1509864523
 40
0.1661663556
 40
0.1819848033
 40
0.198417037
 40
0.2154363025
 40
0.2330140358
 40
0.2511200237
 40
0.2697225441
 40
0.2887885095
 40
0.3082835936
 40
0.3281723476
 40
0.3484183114
 40
0.3689841164
 40
0.3898315949
 40
0.4109218859
 40
0.4536718839
 40
0.4969138843
 40
0.5403221633
 40
0.5835694113
 40
0.6263298543
 40
0.6474272888
 40
0.668283168
 40
0.6888586078
 40
0.7091154181
 40
0.7290162075
 40
0.7485244842
 40
0.7676047632
 40
0.7862226768
 40
0.8043450949
 40
0.8219402576
 40
0.8389779015
 40
0.8554294043
 40
0.8712679467
 40
0.8864686995
 40
0.901009051
 40
0.9148688601
 40
0.9280307634
 40
0.9404805673
 40
0.9522077427
 40
0.9577985182
 40
0.9632067335
 40
0.9684324298
 40
0.9734760263
 40
0.9783383919
 40
0.9830208436
 40
0.98752538
 40
0.991854594
 40
0.9960115787
 40
1.0
 40
1.0
 40
1.0
 40
1.0
 10
13.5535170644
 20
8.6900957145
 30
0.0
 10
13.5520472934
 20
8.6901976487
 30
0.0
 10
13.5491042567
 20
8.6905353485
 30
0.0
 10
13.5447271683
 20
8.6914389195
 30
0.0
 10
13.5403831557
 20
8.6927394094
 30
0.0
 10
13.5360753364
 20
8.6944355998
 30
0.0
 10
13.5318058904
 20
8.6965258839
 30
0.0
 10
13.5275770672
 20
8.6990087444
 30
0.0
 10
13.5233907617
 20
8.7018823168
 30
0.0
 10
13.5192488566
 20
8.7051448231
 30
0.0
 10
13.5151531658
 20
8.7087943742
 30
0.0
 10
13.5111053864
 20
8.7128289141
 30
0.0
 10
13.5071073807
 20
8.7172464216
 30
0.0
 10
13.5031608322
 20
8.722044581
 30
0.0
 10
13.4992675829
 20
8.7272210446
 30
0.0
 10
13.4954294291
 20
8.7327732477
 30
0.0
 10
13.4916481216
 20
8.738698432
 30
0.0
 10
13.4879255498
 20
8.7449937249
 30
0.0
 10
13.4842634167
 20
8.7516559808
 30
0.0
 10
13.4806635737
 20
8.7586819412
 30
0.0
 10
13.477127764
 20
8.7660681198
 30
0.0
 10
13.4736577169
 20
8.7738108447
 30
0.0
 10
13.470255178
 20
8.7819063026
 30
0.0
 10
13.4657384607
 20
8.7933484866
 30
0.0
 10
13.4602910536
 20
8.8085180652
 30
0.0
 10
13.4541495868
 20
8.8277803591
 30
0.0
 10
13.448315762
 20
8.8483434337
 30
0.0
 10
13.4428013592
 20
8.8701662203
 30
0.0
 10
13.4376175672
 20
8.8932053968
 30
0.0
 10
13.4327749201
 20
8.9174149613
 30
0.0
 10
13.4282832615
 20
8.9427465057
 30
0.0
 10
13.4241517313
 20
8.9691492944
 30
0.0
 10
13.4203887394
 20
8.9965703976
 30
0.0
 10
13.4170019483
 20
9.0249548028
 30
0.0
 10
13.4139982578
 20
9.0542455278
 30
0.0
 10
13.4113837772
 20
9.0843837397
 30
0.0
 10
13.4091638274
 20
9.1153088818
 30
0.0
 10
13.4073429305
 20
9.1469588043
 30
0.0
 10
13.405924801
 20
9.1792698904
 30
0.0
 10
13.4049123376
 20
9.2121771877
 30
0.0
 10
13.4043076223
 20
9.2456145162
 30
0.0
 10
13.4041118617
 20
9.2795146912
 30
0.0
 10
13.404398149
 20
9.3254465492
 30
0.0
 10
13.4057871818
 20
9.383513509
 30
0.0
 10
13.4090607651
 20
9.4536253123
 30
0.0
 10
13.4139227354
 20
9.5239154537
 30
0.0
 10
13.4203340202
 20
9.5938187535
 30
0.0
 10
13.4269537406
 20
9.6515363327
 30
0.0
 10
13.4329949807
 20
9.6970842849
 30
0.0
 10
13.4378572141
 20
9.7306483268
 30
0.0
 10
13.4430609287
 20
9.7636996487
 30
0.0
 10
13.4485956731
 20
9.7961718425
 30
0.0
 10
13.4544502652
 20
9.8279996132
 30
0.0
 10
13.4606128928
 20
9.8591189864
 30
0.0
 10
13.4670711165
 20
9.8894674149
 30
0.0
 10
13.4738118999
 20
9.9189839118
 30
0.0
 10
13.4808216342
 20
9.9476091798
 30
0.0
 10
13.488086154
 20
9.9752857389
 30
0.0
 10
13.4955907796
 20
10.0019580432
 30
0.0
 10
13.5033203452
 20
10.0275725924
 30
0.0
 10
13.51125923
 20
10.0520780467
 30
0.0
 10
13.5193913969
 20
10.0754253413
 30
0.0
 10
13.5277004172
 20
10.0975678195
 30
0.0
 10
13.5361695159
 20
10.1184612981
 30
0.0
 10
13.5447816443
 20
10.1380643242
 30
0.0
 10
13.5535194703
 20
10.1563377554
 30
0.0
 10
13.5610057489
 20
10.1706472454
 30
0.0
 10
13.567056557
 20
10.1813867153
 30
0.0
 10
13.5715427681
 20
10.1889578891
 30
0.0
 10
13.5760472594
 20
10.1961706483
 30
0.0
 10
13.5805678605
 20
10.2030213899
 30
0.0
 10
13.5851022357
 20
10.2095067364
 30
0.0
 10
13.5896482506
 20
10.215623454
 30
0.0
 10
13.5942036688
 20
10.2213686005
 30
0.0
 10
13.5987663878
 20
10.2267393571
 30
0.0
 10
13.6033339415
 20
10.2317328077
 30
0.0
 10
13.6064440028
 20
10.2348725332
 30
0.0
 10
13.6079998855
 20
10.2363754006
 30
0.0
  0
SPLINE
  5
356
100
AcDbEntity
  8
0
100
AcDbSpline
 62
7
  6
CONTINUOUS
 70
0
 71
3
 72
70
 73
66
 74
0
 42
0.0000001
 43
0.0000001
 44
0.0000000001
 40
0.0
 40
0.0
 40
0.0
 40
0.0
 40
0.0027966671
 40
0.0056682435
 40
0.0116914064
 40
0.0148722642
 40
0.0181794025
 40
0.021622061
 40
0.0252081428
 40
0.0289444006
 40
0.0328365597
 40
0.0368893499
 40
0.0411067189
 40
0.0454918607
 40
0.0500472806
 40
0.0547749628
 40
0.0596763211
 40
0.0700028252
 40
0.0810306533
 40
0.0927573833
 40
0.1051760799
 40
0.1182760077
 40
0.1320432064
 40
0.1464609054
 40
0.1615098181
 40
0.1771684365
 40
0.1934132773
 40
0.2102190597
 40
0.2275588359
 40
0.2454041682
 40
0.2637252686
 40
0.282491103
 40
0.3016694824
 40
0.3212271977
 40
0.3411301213
 40
0.3818302398
 40
0.423482557
 40
0.465790112
 40
0.5084498931
 40
0.5511556745
 40
0.5936008129
 40
0.6354810378
 40
0.676497276
 40
0.696590436
 40
0.7163592656
 40
0.7357691142
 40
0.7547861974
 40
0.7733777181
 40
0.7915119463
 40
0.8091583159
 40
0.826287555
 40
0.8428718292
 40
0.8588848455
 40
0.8743019965
 40
0.8891005639
 40
0.9032599272
 40
0.91676177
 40
0.9295903729
 40
0.9417330212
 40
0.9531804479
 40
0.9639274336
 40
0.9739735657
 40
0.9833242402
 40
0.9919926172
 40
1.0
 40
1.0
 40
1.0
 40
1.0
 10
13.525828825
 20
8.851407503
 30
0.0
 10
13.5246944778
 20
8.8518085627
 30
0.0
 10
13.5224280105
 20
8.8527169789
 30
0.0
 10
13.5179157769
 20
8.8549480245
 30
0.0
 10
13.5135290696
 20
8.8577680238
 30
0.0
 10
13.5092946828
 20
8.8610939383
 30
0.0
 10
13.506095235
 20
8.8639291513
 30
0.0
 10
13.5029325937
 20
8.8670576612
 30
0.0
 10
13.4998075665
 20
8.8704781172
 30
0.0
 10
13.4967216131
 20
8.8741887998
 30
0.0
 10
13.4936760891
 20
8.8781880045
 30
0.0
 10
13.4906722664
 20
8.8824737848
 30
0.0
 10
13.4877115389
 20
8.8870441657
 30
0.0
 10
13.4847952552
 20
8.8918970024
 30
0.0
 10
13.4819247071
 20
8.8970299866
 30
0.0
 10
13.479101257
 20
8.9024407503
 30
0.0
 10
13.4753355483
 20
8.9101568687
 30
0.0
 10
13.4707703695
 20
8.9204938029
 30
0.0
 10
13.4655920023
 20
8.9337541691
 30
0.0
 10
13.4606318969
 20
8.9480536313
 30
0.0
 10
13.4558995023
 20
8.9633651265
 30
0.0
 10
13.4514038575
 20
8.9796599348
 30
0.0
 10
13.447153626
 20
8.9969072229
 30
0.0
 10
13.4431570344
 20
9.0150742861
 30
0.0
 10
13.4394218042
 20
9.0341265636
 30
0.0
 10
13.4359551585
 20
9.054027745
 30
0.0
 10
13.4327638171
 20
9.0747398647
 30
0.0
 10
13.4298539793
 20
9.0962233725
 30
0.0
 10
13.4272312688
 20
9.1184372052
 30
0.0
 10
13.4249007616
 20
9.1413388806
 30
0.0
 10
13.4228669803
 20
9.1648845923
 30
0.0
 10
13.4211338769
 20
9.1890292895
 30
0.0
 10
13.4197048061
 20
9.2137267438
 30
0.0
 10
13.4185825001
 20
9.2389297119
 30
0.0
 10
13.417490107
 20
9.2733992966
 30
0.0
 10
13.4169194458
 20
9.3173917651
 30
0.0
 10
13.4174805687
 20
9.371023593
 30
0.0
 10
13.4192791745
 20
9.4254717132
 30
0.0
 10
13.4223016379
 20
9.4803193698
 30
0.0
 10
13.4265250059
 20
9.5351469965
 30
0.0
 10
13.4319168604
 20
9.5895351881
 30
0.0
 10
13.4384358148
 20
9.6430676548
 30
0.0
 10
13.4448082542
 20
9.6869189991
 30
0.0
 10
13.4504438372
 20
9.7212551183
 30
0.0
 10
13.4548897233
 20
9.7463647313
 30
0.0
 10
13.4595750098
 20
9.7709596727
 30
0.0
 10
13.4644907439
 20
9.7949928893
 30
0.0
 10
13.469627452
 20
9.8184183769
 30
0.0
 10
13.4749752576
 20
9.8411913144
 30
0.0
 10
13.4805238836
 20
9.8632681289
 30
0.0
 10
13.4862626647
 20
9.8846065994
 30
0.0
 10
13.4921805447
 20
9.9051659485
 30
0.0
 10
13.4982661344
 20
9.9249069076
 30
0.0
 10
13.5045077355
 20
9.943791792
 30
0.0
 10
13.5108933416
 20
9.9617846008
 30
0.0
 10
13.5174106589
 20
9.9788510997
 30
0.0
 10
13.5240471663
 20
9.9949588769
 30
0.0
 10
13.5307901554
 20
10.0100774175
 30
0.0
 10
13.5376267399
 20
10.0241782107
 30
0.0
 10
13.5445439079
 20
10.0372348271
 30
0.0
 10
13.5515286729
 20
10.049222993
 30
0.0
 10
13.5585680459
 20
10.0601204924
 30
0.0
 10
13.5656495707
 20
10.0699079262
 30
0.0
 10
13.5727602255
 20
10.0785667091
 30
0.0
 10
13.57770348
 20
10.0837779923
 30
0.0
 10
13.5801812194
 20
10.086171305
 30
0.0
  0
SPLINE
  5
357
100
AcDbEntity
  8
0
100
AcDbSpline
 62
7
  6
CONTINUOUS
 70
0
 71
3
 72
15
 73
11
 74
0
 42
0.0000001
 43
0.0000001
 44
0.0000000001
 40
0.0
 40
0.0
 40
0.0
 40
0.0
 40
0.1084411279
 40
0.2203204234
 40
0.3363917976
 40
0.4573220227
 40
0.5836916406
 40
0.7159994405
 40
0.8546588732
 40
1.0
 40
1.0
 40
1.0
 40
1.0
 10
13.612792088
 20
10.1053763344
 30
0.0
 10
13.6114341029
 20
10.1050991321
 30
0.0
 10
13.6087004795
 20
10.1044040368
 30
0.0
 10
13.604639661
 20
10.1029764975
 30
0.0
 10
13.6005656543
 20
10.1011520338
 30
0.0
 10
13.5964813912
 20
10.0989324468
 30
0.0
 10
13.5923889034
 20
10.096319639
 30
0.0
 10
13.5882904142
 20
10.0933155018
 30
0.0
 10
13.584188418
 20
10.0899223686
 30
0.0
 10
13.5815173128
 20
10.0874618721
 30
0.0
 10
13.5801812194
 20
10.086171305
 30
0.0
  0
SPLINE
  5
358
100
AcDbEntity
  8
0
100
AcDbSpline
 62
7
  6
CONTINUOUS
 70
0
 71
3
 72
39
 73
35
 74
0
 42
0.0000001
 43
0.0000001
 44
0.0000000001
 40
0.0
 40
0.0
 40
0.0
 40
0.0
 40
0.0311159723
 40
0.0620233248
 40
0.0927351404
 40
0.1232711776
 40
0.1536587326
 40
0.1839312111
 40
0.2141268393
 40
0.2442870992
 40
0.2744549754
 40
0.3046731314
 40
0.3349820899
 40
0.3654185435
 40
0.3960138648
 40
0.4267928822
 40
0.4577729963
 40
0.4889636214
 40
0.5203659689
 40
0.551973178
 40
0.5837707188
 40
0.6157370639
 40
0.6478445901
 40
0.6800606405
 40
0.7123487311
 40
0.7446698622
 40
0.7769838843
 40
0.8092508939
 40
0.8414326243
 40
0.8734937998
 40
0.9054034123
 40
0.9371359058
 40
0.9686717941
 40
1.0
 40
1.0
 40
1.0
 40
1.0
 10
10.0785733008
 20
7.158461553
 30
0.0
 10
10.0785733008
 20
7.1505260728
 30
0.0
 10
10.0777985827
 20
7.1346968364
 30
0.0
 10
10.0742949347
 20
7.1112694558
 30
0.0
 10
10.0684866668
 20
7.0884540586
 30
0.0
 10
10.0604287009
 20
7.0664738736
 30
0.0
 10
10.050198209
 20
7.045540679
 30
0.0
 10
10.0378933833
 20
7.0258572866
 30
0.0
 10
10.0236327143
 20
7.00761432
 30
0.0
 10
10.0075540145
 20
6.9909884343
 30
0.0
 10
9.9898127902
 20
6.9761406033
 30
0.0
 10
9.970580806
 20
6.9632144342
 30
0.0
 10
9.95004439
 20
6.9523345599
 30
0.0
 10
9.9284023421
 20
6.9436056944
 30
0.0
 10
9.9058640351
 20
6.9371114982
 30
0.0
 10
9.8826472956
 20
6.9329137282
 30
0.0
 10
9.8589761766
 20
6.9310520208
 30
0.0
 10
9.8350788489
 20
6.9315433777
 30
0.0
 10
9.8111853627
 20
6.9343820604
 30
0.0
 10
9.7875254928
 20
6.9395399868
 30
0.0
 10
9.7643265634
 20
6.9469667921
 30
0.0
 10
9.7418112792
 20
6.9565903996
 30
0.0
 10
9.7201957377
 20
6.9683179391
 30
0.0
 10
9.699687303
 20
6.9820363779
 30
0.0
 10
9.6804826719
 20
6.9976137077
 30
0.0
 10
9.6627661575
 20
7.0149003285
 30
0.0
 10
9.646707768
 20
7.0337302277
 30
0.0
 10
9.6324616846
 20
7.0539226897
 30
0.0
 10
9.6201649334
 20
7.0752840279
 30
0.0
 10
9.6099358348
 20
7.0976093316
 30
0.0
 10
9.6018730231
 20
7.1206841679
 30
0.0
 10
9.5960546762
 20
7.1442878374
 30
0.0
 10
9.5925371772
 20
7.1681906572
 30
0.0
 10
9.5917466555
 20
7.1842334896
 30
0.0
 10
9.5917466555
 20
7.1922230955
 30
0.0
  0
SPLINE
  5
359
100
AcDbEntity
  8
0
100
AcDbSpline
 62
7
  6
CONTINUOUS
 70
0
 71
3
 72
39
 73
35
 74
0
 42
0.0000001
 43
0.0000001
 44
0.0000000001
 40
0.0
 40
0.0
 40
0.0
 40
0.0
 40
0.0311159723
 40
0.0620233248
 40
0.0927351404
 40
0.1232711776
 40
0.1536587326
 40
0.1839312111
 40
0.2141268393
 40
0.2442870992
 40
0.2744549754
 40
0.3046731314
 40
0.3349820899
 40
0.3654185435
 40
0.3960138648
 40
0.4267928822
 40
0.4577729963
 40
0.4889636214
 40
0.5203659689
 40
0.551973178
 40
0.5837707188
 40
0.6157370639
 40
0.6478445901
 40
0.6800606405
 40
0.7123487311
 40
0.7446698622
 40
0.7769838843
 40
0.8092508939
 40
0.8414326243
 40
0.8734937998
 40
0.9054034123
 40
0.9371359058
 40
0.9686717941
 40
1.0
 40
1.0
 40
1.0
 40
1.0
 10
9.5917466555
 20
7.1922230955
 30
0.0
 10
9.5917466555
 20
7.2001585757
 30
0.0
 10
9.5925213736
 20
7.2159878122
 30
0.0
 10
9.5960250215
 20
7.2394151928
 30
0.0
 10
9.6018332894
 20
7.2622305899
 30
0.0
 10
9.6098912553
 20
7.2842107749
 30
0.0
 10
9.6201217472
 20
7.3051439696
 30
0.0
 10
9.6324265729
 20
7.324827362
 30
0.0
 10
9.6466872419
 20
7.3430703285
 30
0.0
 10
9.6627659417
 20
7.3596962143
 30
0.0
 10
9.680507166
 20
7.3745440452
 30
0.0
 10
9.6997391502
 20
7.3874702144
 30
0.0
 10
9.7202755662
 20
7.3983500887
 30
0.0
 10
9.7419176141
 20
7.4070789542
 30
0.0
 10
9.7644559211
 20
7.4135731503
 30
0.0
 10
9.7876726606
 20
7.4177709204
 30
0.0
 10
9.8113437796
 20
7.4196326277
 30
0.0
 10
9.8352411073
 20
7.4191412708
 30
0.0
 10
9.8591345935
 20
7.4163025881
 30
0.0
 10
9.8827944634
 20
7.4111446618
 30
0.0
 10
9.9059933929
 20
7.4037178564
 30
0.0
 10
9.928508677
 20
7.3940942489
 30
0.0
 10
9.9501242185
 20
7.3823667094
 30
0.0
 10
9.9706326532
 20
7.3686482706
 30
0.0
 10
9.9898372843
 20
7.3530709409
 30
0.0
 10
10.0075537987
 20
7.3357843201
 30
0.0
 10
10.0236121882
 20
7.3169544208
 30
0.0
 10
10.0378582716
 20
7.2967619588
 30
0.0
 10
10.0501550228
 20
7.2754006207
 30
0.0
 10
10.0603841215
 20
7.2530753169
 30
0.0
 10
10.0684469331
 20
7.2300004807
 30
0.0
 10
10.07426528
 20
7.2063968111
 30
0.0
 10
10.077782779
 20
7.1824939914
 30
0.0
 10
10.0785733008
 20
7.1664511589
 30
0.0
 10
10.0785733008
 20
7.158461553
 30
0.0
  0
SPLINE
  5
35A
100
AcDbEntity
  8
0
100
AcDbSpline
 62
7
  6
CONTINUOUS
 70
0
 71
3
 72
45
 73
41
 74
0
 42
0.0000001
 43
0.0000001
 44
0.0000000001
 40
0.0
 40
0.0
 40
0.0
 40
0.0
 40
0.0234201688
 40
0.0452789911
 40
0.0657274003
 40
0.084958819
 40
0.0941960288
 40
0.1032230178
 40
0.112076981
 40
0.1207976095
 40
0.1294265994
 40
0.1380071471
 40
0.1465832415
 40
0.1551989531
 40
0.1638976808
 40
0.1727214862
 40
0.1817105091
 40
0.1909024453
 40
0.2100236833
 40
0.2303398604
 40
0.2520489334
 40
0.2753059113
 40
0.3002286355
 40
0.3269039819
 40
0.3553934513
 40
0.385737775
 40
0.4179605692
 40
0.4520713747
 40
0.4880679813
 40
0.5259381658
 40
0.5656610734
 40
0.6072084325
 40
0.6505454599
 40
0.6956315136
 40
0.7424206475
 40
0.7908623718
 40
0.8409018276
 40
0.8924796049
 40
0.945535409
 40
1.0
 40
1.0
 40
1.0
 40
1.0
 10
9.2090894573
 20
11.89795805
 30
0.0
 10
9.2057287585
 20
11.901085532
 30
0.0
 10
9.1994437896
 20
11.9073677117
 30
0.0
 10
9.191127336
 20
11.917230743
 30
0.0
 10
9.1842749678
 20
11.927183793
 30
0.0
 10
9.179737063
 20
11.9356589444
 30
0.0
 10
9.1768959477
 20
11.9424423263
 30
0.0
 10
9.1751669431
 20
11.9474732797
 30
0.0
 10
9.1738126708
 20
11.9525131159
 30
0.0
 10
9.1728337552
 20
11.9575598925
 30
0.0
 10
9.1722309807
 20
11.9626114403
 30
0.0
 10
9.1720046898
 20
11.9676655077
 30
0.0
 10
9.1721549979
 20
11.9727198109
 30
0.0
 10
9.1726819252
 20
11.9777720428
 30
0.0
 10
9.1735849899
 20
11.9828199661
 30
0.0
 10
9.1748636165
 20
11.9878613666
 30
0.0
 10
9.1765171714
 20
11.992894285
 30
0.0
 10
9.1792557137
 20
11.9996789149
 30
0.0
 10
9.1836658274
 20
12.0081582622
 30
0.0
 10
9.1903696458
 20
12.0181197946
 30
0.0
 10
9.1985395048
 20
12.0279928256
 30
0.0
 10
9.2081606033
 20
12.0377659008
 30
0.0
 10
9.219218381
 20
12.047428925
 30
0.0
 10
9.231696954
 20
12.0569703789
 30
0.0
 10
9.2455788197
 20
12.0663781949
 30
0.0
 10
9.2608444722
 20
12.0756397641
 30
0.0
 10
9.2774722664
 20
12.0847422728
 30
0.0
 10
9.2954384398
 20
12.0936727851
 30
0.0
 10
9.3147171351
 20
12.1024183876
 30
0.0
 10
9.3352804192
 20
12.1109663038
 30
0.0
 10
9.3570983313
 20
12.1193039874
 30
0.0
 10
9.3801389797
 20
12.1274191245
 30
0.0
 10
9.4043686026
 20
12.1352996803
 30
0.0
 10
9.4297515976
 20
12.1429339615
 30
0.0
 10
9.4562506127
 20
12.1503106519
 30
0.0
 10
9.4838266211
 20
12.1574187798
 30
0.0
 10
9.512438866
 20
12.1642477306
 30
0.0
 10
9.5420454265
 20
12.1707874742
 30
0.0
 10
9.5726021413
 20
12.1770281066
 30
0.0
 10
9.5933141017
 20
12.180933505
 30
0.0
 10
9.6038190848
 20
12.1828372914
 30
0.0
  0
SPLINE
  5
35B
100
AcDbEntity
  8
0
100
AcDbSpline
 62
7
  6
CONTINUOUS
 70
0
 71
3
 72
45
 73
41
 74
0
 42
0.0000001
 43
0.0000001
 44
0.0000000001
 40
0.0
 40
0.0
 40
0.0
 40
0.0
 40
0.017828842
 40
0.0264745149
 40
0.0349756405
 40
0.0433620336
 40
0.0516648879
 40
0.0599164185
 40
0.0681495151
 40
0.076397308
 40
0.0846927318
 40
0.0930681189
 40
0.1015547698
 40
0.1101826612
 40
0.1189801973
 40
0.1371819434
 40
0.1563569355
 40
0.1766631436
 40
0.1982290096
 40
0.221156459
 40
0.2455245356
 40
0.2713931267
 40
0.2988057928
 40
0.327792621
 40
0.3583724164
 40
0.3905542149
 40
0.4243390244
 40
0.4597207645
 40
0.4966871514
 40
0.5352206895
 40
0.5752989667
 40
0.6168953606
 40
0.659979495
 40
0.704517293
 40
0.7504717141
 40
0.7978028357
 40
0.8464673259
 40
0.8964202262
 40
0.9476160703
 40
1.0
 40
1.0
 40
1.0
 40
1.0
 10
9.2553202423
 20
11.864141286
 30
0.0
 10
9.2539903882
 20
11.866804787
 30
0.0
 10
9.2522201821
 20
11.8708690481
 30
0.0
 10
9.2503708538
 20
11.8764114379
 30
0.0
 10
9.249268409
 20
11.8805329108
 30
0.0
 10
9.2484373883
 20
11.8846590897
 30
0.0
 10
9.2478779718
 20
11.8887888683
 30
0.0
 10
9.2475905141
 20
11.8929208228
 30
0.0
 10
9.2475751836
 20
11.8970535645
 30
0.0
 10
9.2478319016
 20
11.9011856792
 30
0.0
 10
9.2483605747
 20
11.9053157703
 30
0.0
 10
9.2491610196
 20
11.9094424529
 30
0.0
 10
9.2502327607
 20
11.9135643734
 30
0.0
 10
9.2515754051
 20
11.9176803479
 30
0.0
 10
9.2537503485
 20
11.9232206005
 30
0.0
 10
9.2571779142
 20
11.9301454392
 30
0.0
 10
9.2623179872
 20
11.9383081767
 30
0.0
 10
9.2685225581
 20
11.9464120144
 30
0.0
 10
9.2757826271
 20
11.95444899
 30
0.0
 10
9.2840892418
 20
11.962412268
 30
0.0
 10
9.2934327412
 20
11.970294375
 30
0.0
 10
9.3038027254
 20
11.9780874663
 30
0.0
 10
9.3151876355
 20
11.9857835339
 30
0.0
 10
9.3275748234
 20
11.9933743415
 30
0.0
 10
9.3409504741
 20
12.000851502
 30
0.0
 10
9.3552995191
 20
12.0082067351
 30
0.0
 10
9.3706057611
 20
12.0154316741
 30
0.0
 10
9.3868518176
 20
12.0225180712
 30
0.0
 10
9.4040191537
 20
12.0294578423
 30
0.0
 10
9.4220881576
 20
12.0362429279
 30
0.0
 10
9.4410381067
 20
12.0428655266
 30
0.0
 10
9.4608472405
 20
12.0493179807
 30
0.0
 10
9.4814927833
 20
12.0555927607
 30
0.0
 10
9.5029509545
 20
12.0616826493
 30
0.0
 10
9.5251970531
 20
12.0675805532
 30
0.0
 10
9.5482053785
 20
12.0732795903
 30
0.0
 10
9.5719493451
 20
12.0787732086
 30
0.0
 10
9.5964018776
 20
12.0840550437
 30
0.0
 10
9.6215342566
 20
12.0891188311
 30
0.0
 10
9.6385335251
 20
12.0923099083
 30
0.0
 10
9.6471403303
 20
12.0938696936
 30
0.0
  0
SPLINE
  5
35C
100
AcDbEntity
  8
0
100
AcDbSpline
 62
7
  6
CONTINUOUS
 70
0
 71
3
 72
18
 73
14
 74
0
 42
0.0000001
 43
0.0000001
 44
0.0000000001
 40
0.0
 40
0.0
 40
0.0
 40
0.0
 40
0.1504686872
 40
0.2917143508
 40
0.4244422581
 40
0.4879097286
 40
0.549609416
 40
0.6682625881
 40
0.7817882869
 40
0.8371380068
 40
0.8918078217
 40
0.9460192903
 40
1.0
 40
1.0
 40
1.0
 40
1.0
 10
13.6079998855
 20
8.715042134
 30
0.0
 10
13.6057735372
 20
8.7128916466
 30
0.0
 10
13.6013238866
 20
8.708856716
 30
0.0
 10
13.5944340588
 20
8.7034797037
 30
0.0
 10
13.5886144497
 20
8.6996767848
 30
0.0
 10
13.5839738048
 20
8.6971015755
 30
0.0
 10
13.5794696907
 20
8.6948906567
 30
0.0
 10
13.5738381139
 20
8.692656618
 30
0.0
 10
13.5681063685
 20
8.6911320873
 30
0.0
 10
13.5635666541
 20
8.6903810814
 30
0.0
 10
13.5602020954
 20
8.6900477945
 30
0.0
 10
13.5568511504
 20
8.6899401362
 30
0.0
 10
13.5546248634
 20
8.6900188845
 30
0.0
 10
13.5535170644
 20
8.6900957145
 30
0.0
  0
SPLINE
  5
35D
100
AcDbEntity
  8
0
100
AcDbSpline
 62
7
  6
CONTINUOUS
 70
0
 71
3
 72
57
 73
53
 74
0
 42
0.0000001
 43
0.0000001
 44
0.0000000001
 40
0.0
 40
0.0
 40
0.0
 40
0.0
 40
0.0026707129
 40
0.0053521983
 40
0.0080550836
 40
0.0107897235
 40
0.0135660894
 40
0.0163936513
 40
0.0222352009
 40
0.0252673712
 40
0.0283826313
 40
0.03488576
 40
0.0417902241
 40
0.0491309307
 40
0.0569350589
 40
0.0652232609
 40
0.0740107557
 40
0.0833081307
 40
0.0931221717
 40
0.103456437
 40
0.1143116873
 40
0.1256863743
 40
0.1375768696
 40
0.1499777378
 40
0.1628820011
 40
0.1762812095
 40
0.1901656619
 40
0.2045245165
 40
0.2193458268
 40
0.2346167225
 40
0.250323421
 40
0.2664512942
 40
0.2829849887
 40
0.2999083976
 40
0.3348560741
 40
0.3711538615
 40
0.4086519992
 40
0.4471933788
 40
0.4866146812
 40
0.526747472
 40
0.5674192422
 40
0.6084544238
 40
0.649675406
 40
0.6909035415
 40
0.7319601408
 40
0.7726674747
 40
0.8128497794
 40
0.8523342587
 40
0.8909521024
 40
0.9285396043
 40
0.9649388605
 40
1.0
 40
1.0
 40
1.0
 40
1.0
 10
11.1133653872
 20
11.8761644439
 30
0.0
 10
11.1133653935
 20
11.8775308774
 30
0.0
 10
11.1132750413
 20
11.8802701086
 30
0.0
 10
11.1128686948
 20
11.8843741024
 30
0.0
 10
11.1121917203
 20
11.8884754966
 30
0.0
 10
11.1112444544
 20
11.8925726691
 30
0.0
 10
11.1100271489
 20
11.8966645012
 30
0.0
 10
11.1080237027
 20
11.9021700197
 30
0.0
 10
11.1054875212
 20
11.9076090558
 30
0.0
 10
11.10247076
 20
11.9129519728
 30
0.0
 10
11.0990112667
 20
11.9184252957
 30
0.0
 10
11.0939884679
 20
11.9252402807
 30
0.0
 10
11.0869929035
 20
11.9332386876
 30
0.0
 10
11.078953165
 20
11.9411655558
 30
0.0
 10
11.0698791435
 20
11.9490129795
 30
0.0
 10
11.0597809793
 20
11.9567734608
 30
0.0
 10
11.0486699266
 20
11.9644388856
 30
0.0
 10
11.0365584152
 20
11.9720011513
 30
0.0
 10
11.0234600047
 20
11.9794519305
 30
0.0
 10
11.0093894496
 20
11.9867828562
 30
0.0
 10
10.9943627329
 20
11.9939856828
 30
0.0
 10
10.9783969561
 20
12.0010521122
 30
0.0
 10
10.9615103937
 20
12.0079740207
 30
0.0
 10
10.9437224374
 20
12.0147434365
 30
0.0
 10
10.9250535399
 20
12.0213524466
 30
0.0
 10
10.9055252398
 20
12.0277934164
 30
0.0
 10
10.8851600862
 20
12.0340588436
 30
0.0
 10
10.8639816174
 20
12.0401413927
 30
0.0
 10
10.8420143525
 20
12.046034028
 30
0.0
 10
10.8192837273
 20
12.0517298425
 30
0.0
 10
10.7958160804
 20
12.0572221967
 30
0.0
 10
10.7716386315
 20
12.0625047087
 30
0.0
 10
10.7467793849
 20
12.0675712192
 30
0.0
 10
10.7123945771
 20
12.0741004908
 30
0.0
 10
10.6679163832
 20
12.0816563963
 30
0.0
 10
10.6128563436
 20
12.0896812377
 30
0.0
 10
10.5558087303
 20
12.0967201459
 30
0.0
 10
10.4970383185
 20
12.1027401029
 30
0.0
 10
10.4368176126
 20
12.1077128183
 30
0.0
 10
10.3754260456
 20
12.1116149476
 30
0.0
 10
10.3131485158
 20
12.1144281615
 30
0.0
 10
10.2502740892
 20
12.1161392645
 30
0.0
 10
10.1870946293
 20
12.1167402401
 30
0.0
 10
10.1239034287
 20
12.1162282682
 30
0.0
 10
10.0609938347
 20
12.1146057361
 30
0.0
 10
9.9986578733
 20
12.1118802619
 30
0.0
 10
9.9371848841
 20
12.1080646421
 30
0.0
 10
9.8768601504
 20
12.1031767801
 30
0.0
 10
9.8179635873
 20
12.0972396196
 30
0.0
 10
9.7607683462
 20
12.0902810392
 30
0.0
 10
9.7055399152
 20
12.0823338452
 30
0.0
 10
9.669478471
 20
12.0762799791
 30
0.0
 10
9.6518274383
 20
12.0730811357
 30
0.0
  0
SPLINE
  5
35E
100
AcDbEntity
  8
0
100
AcDbSpline
 62
7
  6
CONTINUOUS
 70
0
 71
3
 72
77
 73
73
 74
0
 42
0.0000001
 43
0.0000001
 44
0.0000000001
 40
0.0
 40
0.0
 40
0.0
 40
0.0
 40
0.0039207307
 40
0.0080029953
 40
0.0122502412
 40
0.0166653757
 40
0.0212508607
 40
0.0260086431
 40
0.030940037
 40
0.0360459084
 40
0.0413267391
 40
0.0467826205
 40
0.058217944
 40
0.0703473097
 40
0.0831614884
 40
0.0966478287
 40
0.1107907068
 40
0.1255718755
 40
0.1409707751
 40
0.1569647802
 40
0.1735293996
 40
0.1906384353
 40
0.2082641327
 40
0.2263773313
 40
0.244947587
 40
0.2639432807
 40
0.283331714
 40
0.3030792224
 40
0.3231512775
 40
0.3641264163
 40
0.4059678041
 40
0.4483773032
 40
0.4910515634
 40
0.5336848253
 40
0.5759716975
 40
0.6176099577
 40
0.6380933226
 40
0.6583040662
 40
0.6782065595
 40
0.6977659025
 40
0.7169480153
 40
0.7357197385
 40
0.754048944
 40
0.7719046279
 40
0.7892570162
 40
0.8060776828
 40
0.8223396942
 40
0.8380177499
 40
0.8530883324
 40
0.8675298918
 40
0.8813230743
 40
0.8944510061
 40
0.906899603
 40
0.9186579793
 40
0.9297189781
 40
0.9349872456
 40
0.9400805808
 40
0.9449994979
 40
0.9497448864
 40
0.9543181464
 40
0.9587211348
 40
0.9629563056
 40
0.9670267676
 40
0.9709363121
 40
0.9746896034
 40
0.9782921877
 40
0.9817506522
 40
0.9882646852
 40
0.9913424581
 40
0.9943151142
 40
0.9971960054
 40
1.0
 40
1.0
 40
1.0
 40
1.0
 10
13.5801812194
 20
8.7169713651
 30
0.0
 10
13.5816971539
 20
8.7184356455
 30
0.0
 10
13.5847274607
 20
8.7214914037
 30
0.0
 10
13.5891802937
 20
8.7263449842
 30
0.0
 10
13.593628678
 20
8.7315572814
 30
0.0
 10
13.5980702822
 20
8.7371256043
 30
0.0
 10
13.6025031688
 20
8.7430473257
 30
0.0
 10
13.6069252589
 20
8.7493197544
 30
0.0
 10
13.6113345735
 20
8.755939926
 30
0.0
 10
13.6157289903
 20
8.7629047208
 30
0.0
 10
13.6201064315
 20
8.7702108592
 30
0.0
 10
13.6260103518
 20
8.7805656887
 30
0.0
 10
13.6333185215
 20
8.7943532158
 30
0.0
 10
13.6418558635
 20
8.8119511913
 30
0.0
 10
13.6502766228
 20
8.8308191112
 30
0.0
 10
13.6585647042
 20
8.8509211763
 30
0.0
 10
13.6667042505
 20
8.8722194989
 30
0.0
 10
13.6746796662
 20
8.8946736832
 30
0.0
 10
13.6824756509
 20
8.9182410844
 30
0.0
 10
13.6900772371
 20
8.9428768738
 30
0.0
 10
13.6974698212
 20
8.9685341442
 30
0.0
 10
13.7046392065
 20
8.9951639926
 30
0.0
 10
13.711571638
 20
9.022715621
 30
0.0
 10
13.7182538094
 20
9.0511364525
 30
0.0
 10
13.7246728947
 20
9.0803722378
 30
0.0
 10
13.7308165725
 20
9.1103671586
 30
0.0
 10
13.7366730528
 20
9.1410639115
 30
0.0
 10
13.7422311589
 20
9.1724038956
 30
0.0
 10
13.7492779519
 20
9.2152617611
 30
0.0
 10
13.7572486992
 20
9.2699994615
 30
0.0
 10
13.7654071699
 20
9.3368259831
 30
0.0
 10
13.7721605751
 20
9.40472706
 30
0.0
 10
13.7774571344
 20
9.4731840629
 30
0.0
 10
13.7812563798
 20
9.5416745387
 30
0.0
 10
13.7835292967
 20
9.6096753261
 30
0.0
 10
13.784140889
 20
9.6658037534
 30
0.0
 10
13.7838413788
 20
9.7100625985
 30
0.0
 10
13.7832292083
 20
9.742632283
 30
0.0
 10
13.782229627
 20
9.7746954185
 30
0.0
 10
13.7808445416
 20
9.8061907899
 30
0.0
 10
13.7790766425
 20
9.8370582053
 30
0.0
 10
13.7769293434
 20
9.8672386994
 30
0.0
 10
13.7744068094
 20
9.8966746308
 30
0.0
 10
13.771513921
 20
9.925309796
 30
0.0
 10
13.7682562712
 20
9.9530895294
 30
0.0
 10
13.764640148
 20
9.9799608171
 30
0.0
 10
13.7606725454
 20
10.0058724121
 30
0.0
 10
13.7563611419
 20
10.0307749388
 30
0.0
 10
13.7517142717
 20
10.0546209856
 30
0.0
 10
13.7467409096
 20
10.0773651989
 30
0.0
 10
13.7414506465
 20
10.0989644086
 30
0.0
 10
13.7358536926
 20
10.1193776939
 30
0.0
 10
13.7299608033
 20
10.1385666381
 30
0.0
 10
13.7237832621
 20
10.1564948646
 30
0.0
 10
13.7183227726
 20
10.1705768252
 30
0.0
 10
13.7138070842
 20
10.1811715184
 30
0.0
 10
13.7104115852
 20
10.1886520295
 30
0.0
 10
13.7069539386
 20
10.1957930328
 30
0.0
 10
13.7034356494
 20
10.2025911465
 30
0.0
 10
13.6998584562
 20
10.2090432042
 30
0.0
 10
13.6962239549
 20
10.2151461546
 30
0.0
 10
13.6925338171
 20
10.2208971384
 30
0.0
 10
13.688789779
 20
10.2262934863
 30
0.0
 10
13.6849933956
 20
10.2313326466
 30
0.0
 10
13.6811465314
 20
10.2360121939
 30
0.0
 10
13.6772504377
 20
10.2403302744
 30
0.0
 10
13.6720961161
 20
10.2454986856
 30
0.0
 10
13.6667484928
 20
10.2500694299
 30
0.0
 10
13.6612109244
 20
10.2539439138
 30
0.0
 10
13.6570950956
 20
10.2564240643
 30
0.0
 10
13.6529408888
 20
10.2585312787
 30
0.0
 10
13.6501132764
 20
10.2597004965
 30
0.0
 10
13.6486978585
 20
10.2602187937
 30
0.0
  0
SPLINE
  5
35F
100
AcDbEntity
  8
0
100
AcDbSpline
 62
7
  6
CONTINUOUS
 70
0
 71
3
 72
15
 73
11
 74
0
 42
0.0000001
 43
0.0000001
 44
0.0000000001
 40
0.0
 40
0.0
 40
0.0
 40
0.0
 40
0.1452774259
 40
0.2838985811
 40
0.4161912079
 40
0.5425667918
 40
0.6635186866
 40
0.7796209549
 40
0.891532536
 40
1.0
 40
1.0
 40
1.0
 40
1.0
 10
13.5801812194
 20
8.7169713651
 30
0.0
 10
13.5785171266
 20
8.7153639748
 30
0.0
 10
13.5751903028
 20
8.7122989287
 30
0.0
 10
13.5700817928
 20
8.7080706275
 30
0.0
 10
13.5649776352
 20
8.7043250014
 30
0.0
 10
13.5598809251
 20
8.7010648585
 30
0.0
 10
13.5547943557
 20
8.698292598
 30
0.0
 10
13.5497205104
 20
8.6960104846
 30
0.0
 10
13.5446629597
 20
8.6942208717
 30
0.0
 10
13.541258126
 20
8.6933458996
 30
0.0
 10
13.5395665838
 20
8.6929956971
 30
0.0
  0
SPLINE
  5
360
100
AcDbEntity
  8
0
100
AcDbSpline
 62
7
  6
CONTINUOUS
 70
0
 71
3
 72
19
 73
15
 74
0
 42
0.0000001
 43
0.0000001
 44
0.0000000001
 40
0.0
 40
0.0
 40
0.0
 40
0.0
 40
0.1532268151
 40
0.2947792672
 40
0.4259266361
 40
0.5483709413
 40
0.6070238647
 40
0.6643433042
 40
0.7206639744
 40
0.7763401531
 40
0.8317398391
 40
0.8872368568
 40
0.9432030378
 40
1.0
 40
1.0
 40
1.0
 40
1.0
 10
13.5801812194
 20
8.8691046917
 30
0.0
 10
13.5779625132
 20
8.866961586
 30
0.0
 10
13.5735294574
 20
8.8630028975
 30
0.0
 10
13.5666050851
 20
8.8579200028
 30
0.0
 10
13.5596900027
 20
8.8539501669
 30
0.0
 10
13.5538569587
 20
8.8515469382
 30
0.0
 10
13.5492379433
 20
8.8502270843
 30
0.0
 10
13.5458352665
 20
8.8495352058
 30
0.0
 10
13.5424471623
 20
8.8491281373
 30
0.0
 10
13.5390753652
 20
8.8490063954
 30
0.0
 10
13.5357219103
 20
8.8491701193
 30
0.0
 10
13.5323887057
 20
8.8496192449
 30
0.0
 10
13.5290780008
 20
8.8503534405
 30
0.0
 10
13.5269068537
 20
8.8510263551
 30
0.0
 10
13.525828825
 20
8.851407503
 30
0.0
  0
SPLINE
  5
361
100
AcDbEntity
  8
0
100
AcDbSpline
 62
7
  6
CONTINUOUS
 70
0
 71
3
 72
15
 73
11
 74
0
 42
0.0000001
 43
0.0000001
 44
0.0000000001
 40
0.0
 40
0.0
 40
0.0
 40
0.0
 40
0.1273483281
 40
0.2538605602
 40
0.3795878981
 40
0.5046051042
 40
0.6290174419
 40
0.7529533761
 40
0.876560577
 40
1.0
 40
1.0
 40
1.0
 40
1.0
 10
11.7781198613
 20
11.0612640889
 30
0.0
 10
11.7781198613
 20
11.0668908965
 30
0.0
 10
11.7786571081
 20
11.0781153486
 30
0.0
 10
11.7810867624
 20
11.094736145
 30
0.0
 10
11.7851155326
 20
11.11093932
 30
0.0
 10
11.7907070307
 20
11.1265733437
 30
0.0
 10
11.7978099426
 20
11.1414940396
 30
0.0
 10
11.8063595537
 20
11.1555636138
 30
0.0
 10
11.8162754544
 20
11.1686502459
 30
0.0
 10
11.8237416275
 20
11.1766442947
 30
0.0
 10
11.8276645134
 20
11.1804335055
 30
0.0
  0
SPLINE
  5
362
100
AcDbEntity
  8
0
100
AcDbSpline
 62
7
  6
CONTINUOUS
 70
0
 71
3
 72
15
 73
11
 74
0
 42
0.0000001
 43
0.0000001
 44
0.0000000001
 40
0.0
 40
0.0
 40
0.0
 40
0.0
 40
0.1273483281
 40
0.2538605602
 40
0.3795878981
 40
0.5046051042
 40
0.6290174419
 40
0.7529533761
 40
0.876560577
 40
1.0
 40
1.0
 40
1.0
 40
1.0
 10
9.6047866234
 20
5.9959854898
 30
0.0
 10
9.6047866234
 20
6.0016122974
 30
0.0
 10
9.6053238702
 20
6.0128367495
 30
0.0
 10
9.6077535245
 20
6.029457546
 30
0.0
 10
9.6117822947
 20
6.045660721
 30
0.0
 10
9.6173737928
 20
6.0612947446
 30
0.0
 10
9.6244767047
 20
6.0762154405
 30
0.0
 10
9.6330263158
 20
6.0902850147
 30
0.0
 10
9.6429422164
 20
6.1033716469
 30
0.0
 10
9.6504083896
 20
6.1113656956
 30
0.0
 10
9.6543312755
 20
6.1151549065
 30
0.0
  0
SPLINE
  5
363
100
AcDbEntity
  8
0
100
AcDbSpline
 62
7
  6
CONTINUOUS
 70
0
 71
3
 72
79
 73
75
 74
0
 42
0.0000001
 43
0.0000001
 44
0.0000000001
 40
0.0
 40
0.0
 40
0.0
 40
0.0
 40
0.0040523062
 40
0.0082800732
 40
0.0126871646
 40
0.0172767938
 40
0.022051643
 40
0.0270137982
 40
0.0321646109
 40
0.0375049088
 40
0.0487543814
 40
0.0607613262
 40
0.0735184711
 40
0.0870139518
 40
0.101232019
 40
0.1161535481
 40
0.1317564414
 40
0.1480159888
 40
0.1649051465
 40
0.1823947641
 40
0.2004537628
 40
0.2190493235
 40
0.2381470578
 40
0.2577111508
 40
0.2777044855
 40
0.2980887656
 40
0.3188246558
 40
0.3398718998
 40
0.3827346891
 40
0.4263417082
 40
0.4703491389
 40
0.5144091179
 40
0.5581732622
 40
0.6012961557
 40
0.6434388885
 40
0.6640398714
 40
0.684273499
 40
0.7041008416
 40
0.7234840566
 40
0.7423865158
 40
0.7607729555
 40
0.778609602
 40
0.7958643139
 40
0.8125067442
 40
0.8285085454
 40
0.8438435809
 40
0.8584881536
 40
0.8724212989
 40
0.8856251584
 40
0.8980854613
 40
0.9097920887
 40
0.9153612782
 40
0.9207405799
 40
0.9259302632
 40
0.9309311155
 40
0.9357443669
 40
0.940371863
 40
0.944816098
 40
0.9490802508
 40
0.9531683972
 40
0.9570854992
 40
0.9608376029
 40
0.9644319827
 40
0.9678772123
 40
0.9711834199
 40
0.9774234429
 40
0.9803900596
 40
0.983275243
 40
0.9860977381
 40
0.9888776845
 40
0.9916362413
 40
0.99439511
 40
0.9971759819
 40
1.0
 40
1.0
 40
1.0
 40
1.0
 10
13.5801812194
 20
8.8691046917
 30
0.0
 10
13.5814565702
 20
8.8703365861
 30
0.0
 10
13.5840058101
 20
8.8729129384
 30
0.0
 10
13.5877478027
 20
8.877015506
 30
0.0
 10
13.5914856663
 20
8.8814345321
 30
0.0
 10
13.595217237
 20
8.8861675052
 30
0.0
 10
13.59894073
 20
8.8912119603
 30
0.0
 10
13.6026542063
 20
8.8965653718
 30
0.0
 10
13.606355879
 20
8.9022249548
 30
0.0
 10
13.6113600617
 20
8.9103163627
 30
0.0
 10
13.6175578132
 20
8.9211918551
 30
0.0
 10
13.6247936202
 20
8.935194895
 30
0.0
 10
13.6319365323
 20
8.9503393611
 30
0.0
 10
13.6389715172
 20
8.9665936456
 30
0.0
 10
13.645883766
 20
8.9839240876
 30
0.0
 10
13.6526586526
 20
9.0022945146
 30
0.0
 10
13.6592818449
 20
9.0216664912
 30
0.0
 10
13.6657393071
 20
9.0419993936
 30
0.0
 10
13.6720173489
 20
9.0632505317
 30
0.0
 10
13.6781026499
 20
9.0853752382
 30
0.0
 10
13.6839823149
 20
9.108326961
 30
0.0
 10
13.689643889
 20
9.1320573732
 30
0.0
 10
13.6950753762
 20
9.1565164928
 30
0.0
 10
13.7002652652
 20
9.1816527894
 30
0.0
 10
13.7052025628
 20
9.2074132905
 30
0.0
 10
13.709876815
 20
9.2337436763
 30
0.0
 10
13.7142781737
 20
9.2605884699
 30
0.0
 10
13.7198035556
 20
9.2972131325
 30
0.0
 10
13.7259505125
 20
9.3438608963
 30
0.0
 10
13.7320641539
 20
9.4006302569
 30
0.0
 10
13.7369069032
 20
9.4580479277
 30
0.0
 10
13.7404379051
 20
9.5156299611
 30
0.0
 10
13.7426274964
 20
9.572891443
 30
0.0
 10
13.7434574088
 20
9.6293497458
 30
0.0
 10
13.7430075939
 20
9.6756766928
 30
0.0
 10
13.7419471421
 20
9.7119702626
 30
0.0
 10
13.7408171184
 20
9.7384907313
 30
0.0
 10
13.7393489954
 20
9.7644609582
 30
0.0
 10
13.7375458676
 20
9.7898262361
 30
0.0
 10
13.7354115913
 20
9.8145330881
 30
0.0
 10
13.7329507337
 20
9.8385294598
 30
0.0
 10
13.7301685566
 20
9.8617648117
 30
0.0
 10
13.7270710029
 20
9.8841902243
 30
0.0
 10
13.7236646793
 20
9.9057585085
 30
0.0
 10
13.7199568621
 20
9.9264243254
 30
0.0
 10
13.715955479
 20
9.9461442905
 30
0.0
 10
13.7116690706
 20
9.9648770783
 30
0.0
 10
13.7071067694
 20
9.9825834811
 30
0.0
 10
13.7022782652
 20
9.9992266701
 30
0.0
 10
13.6971937919
 20
10.0147718264
 30
0.0
 10
13.6926804018
 20
10.0269797939
 30
0.0
 10
13.688937268
 20
10.0361598842
 30
0.0
 10
13.6861194134
 20
10.0426355968
 30
0.0
 10
13.6832457158
 20
10.0488135477
 30
0.0
 10
13.6803177075
 20
10.0546905634
 30
0.0
 10
13.6773368424
 20
10.0602635684
 30
0.0
 10
13.674304664
 20
10.0655296837
 30
0.0
 10
13.6712227483
 20
10.0704862106
 30
0.0
 10
13.6680925567
 20
10.0751305474
 30
0.0
 10
13.6649157171
 20
10.0794603493
 30
0.0
 10
13.6616937329
 20
10.083473346
 30
0.0
 10
13.6584280798
 20
10.0871674563
 30
0.0
 10
13.6551204915
 20
10.090540693
 30
0.0
 10
13.651771866
 20
10.0935914579
 30
0.0
 10
13.6473417524
 20
10.0971571146
 30
0.0
 10
13.6427428423
 20
10.1001696936
 30
0.0
 10
13.6380037312
 20
10.1025332256
 30
0.0
 10
13.6344758607
 20
10.1039458688
 30
0.0
 10
13.6309176769
 20
10.105026435
 30
0.0
 10
13.6273312422
 20
10.105773983
 30
0.0
 10
13.6237190779
 20
10.1061875662
 30
0.0
 10
13.6200837048
 20
10.1062669442
 30
0.0
 10
13.6164280867
 20
10.1060121067
 30
0.0
 10
13.6140028188
 20
10.105623478
 30
0.0
 10
13.612792088
 20
10.1053763344
 30
0.0
  0
SPLINE
  5
364
100
AcDbEntity
  8
0
100
AcDbSpline
 62
7
  6
CONTINUOUS
 70
0
 71
3
 72
57
 73
53
 74
0
 42
0.0000001
 43
0.0000001
 44
0.0000000001
 40
0.0
 40
0.0
 40
0.0
 40
0.0
 40
0.0083832149
 40
0.0173306645
 40
0.0268495116
 40
0.0369424627
 40
0.0476086863
 40
0.0588443736
 40
0.0706431444
 40
0.0829963218
 40
0.0958933276
 40
0.1093218282
 40
0.1232678883
 40
0.1377162241
 40
0.1526502242
 40
0.168052098
 40
0.1839030232
 40
0.2001831261
 40
0.216871643
 40
0.2339469827
 40
0.2691671105
 40
0.3056568287
 40
0.3432190102
 40
0.3816485685
 40
0.4207341243
 40
0.4602595986
 40
0.5000057816
 40
0.5397519103
 40
0.5792772213
 40
0.6183625068
 40
0.6567916902
 40
0.6943533938
 40
0.7308425328
 40
0.7660619889
 40
0.7831369583
 40
0.7998250851
 40
0.8161047733
 40
0.831955267
 40
0.8473566897
 40
0.8622902176
 40
0.8767380694
 40
0.890683626
 40
0.9041116078
 40
0.917008087
 40
0.9293607214
 40
0.9411589406
 40
0.9523940711
 40
0.9630597335
 40
0.9731521181
 40
0.9826703799
 40
0.9916173224
 40
1.0
 40
1.0
 40
1.0
 40
1.0
 10
13.4707374961
 20
8.9210752884
 30
0.0
 10
13.4727826089
 20
8.923572029
 30
0.0
 10
13.476857078
 20
8.9288604362
 30
0.0
 10
13.4827464884
 20
8.9373595429
 30
0.0
 10
13.4886026663
 20
8.9466689458
 30
0.0
 10
13.4944168639
 20
8.9567750442
 30
0.0
 10
13.5001808145
 20
8.9676633472
 30
0.0
 10
13.5058860669
 20
8.9793180531
 30
0.0
 10
13.5115241898
 20
8.9917222118
 30
0.0
 10
13.5170869036
 20
9.0048576538
 30
0.0
 10
13.5225659359
 20
9.0187051185
 30
0.0
 10
13.5279531434
 20
9.0332442456
 30
0.0
 10
13.5332405641
 20
9.0484536069
 30
0.0
 10
13.5384202956
 20
9.0643107793
 30
0.0
 10
13.5434846519
 20
9.0807923466
 30
0.0
 10
13.5484261231
 20
9.0978739512
 30
0.0
 10
13.5532373211
 20
9.1155303488
 30
0.0
 10
13.5579111157
 20
9.1337354114
 30
0.0
 10
13.5624405973
 20
9.1524622231
 30
0.0
 10
13.5683391922
 20
9.1783573736
 30
0.0
 10
13.5752864816
 20
9.2118287745
 30
0.0
 10
13.5828637509
 20
9.2532124209
 30
0.0
 10
13.589719755
 20
9.2959733632
 30
0.0
 10
13.5958136263
 20
9.3398584562
 30
0.0
 10
13.6011090166
 20
9.3846081031
 30
0.0
 10
13.6055743874
 20
9.4299574395
 30
0.0
 10
13.6091832098
 20
9.4756380249
 30
0.0
 10
13.6119140907
 20
9.5213794286
 30
0.0
 10
13.613750889
 20
9.5669108562
 30
0.0
 10
13.6146828318
 20
9.6119627762
 30
0.0
 10
13.6147045976
 20
9.656268508
 30
0.0
 10
13.6138163534
 20
9.6995659243
 30
0.0
 10
13.6120236318
 20
9.7415986659
 30
0.0
 10
13.6097627586
 20
9.7757079799
 30
0.0
 10
13.6074948145
 20
9.8021688829
 30
0.0
 10
13.6055934677
 20
9.821341184
 30
0.0
 10
13.6034771661
 20
9.8400166235
 30
0.0
 10
13.6011490489
 20
9.8581675903
 30
0.0
 10
13.5986125655
 20
9.8757672227
 30
0.0
 10
13.5958715463
 20
9.8927894991
 30
0.0
 10
13.5929300779
 20
9.9092092602
 30
0.0
 10
13.5897925293
 20
9.9250022526
 30
0.0
 10
13.5864636359
 20
9.9401451784
 30
0.0
 10
13.5829483339
 20
9.954615718
 30
0.0
 10
13.5792518638
 20
9.9683925801
 30
0.0
 10
13.5753797708
 20
9.9814555491
 30
0.0
 10
13.5713377505
 20
9.9937854913
 30
0.0
 10
13.5671317961
 20
10.0053644485
 30
0.0
 10
13.5627681193
 20
10.0161756033
 30
0.0
 10
13.558252904
 20
10.0262034947
 30
0.0
 10
13.5535928889
 20
10.0354334066
 30
0.0
 10
13.5502873078
 20
10.0412330891
 30
0.0
 10
13.54860637
 20
10.0439879598
 30
0.0
  0
SPLINE
  5
365
100
AcDbEntity
  8
0
100
AcDbSpline
 62
7
  6
CONTINUOUS
 70
0
 71
3
 72
64
 73
60
 74
0
 42
0.0000001
 43
0.0000001
 44
0.0000000001
 40
0.0
 40
0.0
 40
0.0
 40
0.0
 40
0.0059877716
 40
0.0088872947
 40
0.0117371525
 40
0.0145487526
 40
0.0173340217
 40
0.0201052693
 40
0.0228750046
 40
0.0256557622
 40
0.028459911
 40
0.0312994853
 40
0.0341860395
 40
0.0371305005
 40
0.0401430994
 40
0.0464074947
 40
0.0530481713
 40
0.0601190234
 40
0.0676627181
 40
0.0757121387
 40
0.084291977
 40
0.0934201303
 40
0.103108808
 40
0.113365557
 40
0.1241940368
 40
0.1355945592
 40
0.1475646434
 40
0.1600994051
 40
0.173191796
 40
0.1868329232
 40
0.201012254
 40
0.2157177186
 40
0.2309359173
 40
0.2466522397
 40
0.2628509064
 40
0.279515121
 40
0.2966271473
 40
0.3141683259
 40
0.3321191957
 40
0.3504595498
 40
0.3691684443
 40
0.3882243005
 40
0.4272870286
 40
0.4674645578
 40
0.5085656431
 40
0.55039304
 40
0.5927448398
 40
0.6354158207
 40
0.6781987545
 40
0.7208857091
 40
0.7632693554
 40
0.8051442655
 40
0.8463082399
 40
0.8865636248
 40
0.9257186772
 40
0.944825897
 40
0.9635893934
 40
0.9819882896
 40
1.0
 40
1.0
 40
1.0
 40
1.0
 10
11.1138106254
 20
11.8641414491
 30
0.0
 10
11.1152199513
 20
11.8669641762
 30
0.0
 10
11.1170823552
 20
11.8712768256
 30
0.0
 10
11.1189872566
 20
11.877163833
 30
0.0
 10
11.1200960487
 20
11.88153984
 30
0.0
 10
11.1208989816
 20
11.8859208551
 30
0.0
 10
11.1213956724
 20
11.8903055414
 30
0.0
 10
11.1215859002
 20
11.8946921244
 30
0.0
 10
11.121469557
 20
11.899078923
 30
0.0
 10
11.1210466127
 20
11.9034642076
 30
0.0
 10
11.1203174164
 20
11.9078462906
 30
0.0
 10
11.1192823535
 20
11.9122235416
 30
0.0
 10
11.1179418974
 20
11.9165943193
 30
0.0
 10
11.1162967431
 20
11.9209572408
 30
0.0
 10
11.1136641391
 20
11.9268377126
 30
0.0
 10
11.1095732035
 20
11.9341806902
 30
0.0
 10
11.1035237536
 20
11.9428132056
 30
0.0
 10
11.0962813323
 20
11.951373805
 30
0.0
 10
11.0878570636
 20
11.9598533242
 30
0.0
 10
11.0782620951
 20
11.9682436703
 30
0.0
 10
11.0675085933
 20
11.9765357763
 30
0.0
 10
11.0556098997
 20
11.9847202109
 30
0.0
 10
11.0425808636
 20
11.9927873092
 30
0.0
 10
11.0284377881
 20
12.0007271956
 30
0.0
 10
11.0131984807
 20
12.0085298869
 30
0.0
 10
10.9968823082
 20
12.0161855166
 30
0.0
 10
10.9795100925
 20
12.0236842582
 30
0.0
 10
10.9611040898
 20
12.031016381
 30
0.0
 10
10.9416879983
 20
12.0381724093
 30
0.0
 10
10.9212868655
 20
12.0451430256
 30
0.0
 10
10.8999270537
 20
12.0519190995
 30
0.0
 10
10.8776362335
 20
12.0584918187
 30
0.0
 10
10.8544433041
 20
12.0648525912
 30
0.0
 10
10.8303783549
 20
12.0709930648
 30
0.0
 10
10.8054726479
 20
12.0769052421
 30
0.0
 10
10.7797585473
 20
12.0825813889
 30
0.0
 10
10.7532694763
 20
12.088014048
 30
0.0
 10
10.726039892
 20
12.0931961445
 30
0.0
 10
10.6981052161
 20
12.0981209028
 30
0.0
 10
10.6695018018
 20
12.1027818417
 30
0.0
 10
10.6402668452
 20
12.1071729369
 30
0.0
 10
10.6001650386
 20
12.112705704
 30
0.0
 10
10.5487376528
 20
12.1188877471
 30
0.0
 10
10.4856284033
 20
12.1250886599
 30
0.0
 10
10.4209523978
 20
12.1300989033
 30
0.0
 10
10.3550463312
 20
12.1338921105
 30
0.0
 10
10.2882530398
 20
12.1364483071
 30
0.0
 10
10.2209201273
 20
12.1377540346
 30
0.0
 10
10.1533980068
 20
12.1378023918
 30
0.0
 10
10.086038096
 20
12.1365931499
 30
0.0
 10
10.019190953
 20
12.1341326767
 30
0.0
 10
9.9532044638
 20
12.1304338996
 30
0.0
 10
9.8884218852
 20
12.1255163455
 30
0.0
 10
9.8251804619
 20
12.119405874
 30
0.0
 10
9.7736266818
 20
12.1132981268
 30
0.0
 10
9.7334114451
 20
12.1078236222
 30
0.0
 10
9.7040825766
 20
12.1034745113
 30
0.0
 10
9.6753796963
 20
12.0988546339
 30
0.0
 10
9.6564787006
 20
12.0955620583
 30
0.0
 10
9.6471403303
 20
12.0938696936
 30
0.0
  0
SPLINE
  5
366
100
AcDbEntity
  8
0
100
AcDbSpline
 62
7
  6
CONTINUOUS
 70
0
 71
3
 72
49
 73
45
 74
0
 42
0.0000001
 43
0.0000001
 44
0.0000000001
 40
0.0
 40
0.0
 40
0.0
 40
0.0
 40
0.0098832245
 40
0.0202483878
 40
0.0310917047
 40
0.042407877
 40
0.0541900685
 40
0.0664302668
 40
0.0791192308
 40
0.0922467216
 40
0.1058015355
 40
0.1197715702
 40
0.1489042958
 40
0.1795339629
 40
0.2115383767
 40
0.2447863588
 40
0.279138958
 40
0.3144505508
 40
0.3505698716
 40
0.387340996
 40
0.4246042963
 40
0.4621973785
 40
0.4999560078
 40
0.5377150297
 40
0.575309288
 40
0.6125745426
 40
0.6493483886
 40
0.6854711831
 40
0.7207869812
 40
0.7551444916
 40
0.7883980603
 40
0.8204087004
 40
0.8510451958
 40
0.8801853102
 40
0.8941592491
 40
0.9077180553
 40
0.9208496783
 40
0.9335428522
 40
0.9457873685
 40
0.957573956
 40
0.9688945869
 40
0.9797424388
 40
0.9901121568
 40
1.0
 40
1.0
 40
1.0
 40
1.0
 10
13.4478839032
 20
8.9940240652
 30
0.0
 10
13.4495204301
 20
8.9968863908
 30
0.0
 10
13.4527752109
 20
9.0028071119
 30
0.0
 10
13.4575008707
 20
9.0120420165
 30
0.0
 10
13.4621814095
 20
9.0218324986
 30
0.0
 10
13.4668112122
 20
9.0321671658
 30
0.0
 10
13.4713849973
 20
9.0430340896
 30
0.0
 10
13.4758973483
 20
9.0544206922
 30
0.0
 10
13.4803430473
 20
9.0663137619
 30
0.0
 10
13.4847168623
 20
9.0786994886
 30
0.0
 10
13.4890137192
 20
9.0915634897
 30
0.0
 10
13.4947132767
 20
9.1095859192
 30
0.0
 10
13.5015900581
 20
9.1332068733
 30
0.0
 10
13.5093476347
 20
9.1628253615
 30
0.0
 10
13.5166851433
 20
9.1939627225
 30
0.0
 10
13.5235680926
 20
9.2264739678
 30
0.0
 10
13.5299640926
 20
9.2602079051
 30
0.0
 10
13.5358430903
 20
9.2950074433
 30
0.0
 10
13.5411774813
 20
9.3307104771
 30
0.0
 10
13.5459422415
 20
9.3671506274
 30
0.0
 10
13.550115039
 20
9.4041580414
 30
0.0
 10
13.5536763361
 20
9.4415601934
 30
0.0
 10
13.5566094783
 20
9.479182699
 30
0.0
 10
13.5589007744
 20
9.5168501361
 30
0.0
 10
13.5605395574
 20
9.5543868716
 30
0.0
 10
13.5615182356
 20
9.5916178871
 30
0.0
 10
13.5618323294
 20
9.6283696033
 30
0.0
 10
13.5614804956
 20
9.6644706981
 30
0.0
 10
13.5604645368
 20
9.6997529136
 30
0.0
 10
13.5587894011
 20
9.7340518648
 30
0.0
 10
13.5564631547
 20
9.7672077905
 30
0.0
 10
13.55349699
 20
9.7990664465
 30
0.0
 10
13.5499050487
 20
9.8294794429
 30
0.0
 10
13.5463570727
 20
9.8538299827
 30
0.0
 10
13.5432017669
 20
9.8724721326
 30
0.0
 10
13.540723091
 20
9.8858104429
 30
0.0
 10
13.5381021895
 20
9.8986858247
 30
0.0
 10
13.5353420199
 20
9.911083327
 30
0.0
 10
13.5324459183
 20
9.9229885458
 30
0.0
 10
13.5294171953
 20
9.9343876688
 30
0.0
 10
13.5262594736
 20
9.9452674835
 30
0.0
 10
13.522976381
 20
9.9556154482
 30
0.0
 10
13.5195718227
 20
9.965419487
 30
0.0
 10
13.5171662697
 20
9.9717363838
 30
0.0
 10
13.5159408979
 20
9.9747990225
 30
0.0
  0
SPLINE
  5
367
100
AcDbEntity
  8
0
100
AcDbSpline
 62
7
  6
CONTINUOUS
 70
0
 71
3
 72
67
 73
63
 74
0
 42
0.0000001
 43
0.0000001
 44
0.0000000001
 40
0.0
 40
0.0
 40
0.0
 40
0.0
 40
0.0186279168
 40
0.0376789862
 40
0.0571274372
 40
0.0769486302
 40
0.0971162871
 40
0.1176036401
 40
0.159426917
 40
0.2021941344
 40
0.2456733765
 40
0.2896276152
 40
0.3338164422
 40
0.3779977876
 40
0.4219296362
 40
0.4653717395
 40
0.5080873283
 40
0.5498448708
 40
0.5702942192
 40
0.5904205104
 40
0.6101970755
 40
0.6295979059
 40
0.6485977223
 40
0.6671720587
 40
0.6852973107
 40
0.7029508014
 40
0.7201108784
 40
0.7367570084
 40
0.7528698479
 40
0.7684313489
 40
0.7834249102
 40
0.7978355101
 40
0.8116498528
 40
0.8248565759
 40
0.8374465272
 40
0.8494130385
 40
0.860752289
 40
0.8714637975
 40
0.8815510471
 40
0.8910222223
 40
0.8998911887
 40
0.9081787659
 40
0.9159142711
 40
0.9231373305
 40
0.9298999105
 40
0.9362682546
 40
0.9393311166
 40
0.9423273815
 40
0.9452696119
 40
0.9481711489
 40
0.9510459551
 40
0.9539084321
 40
0.9567731805
 40
0.9596547665
 40
0.9625674737
 40
0.9655250972
 40
0.9685407491
 40
0.9716267108
 40
0.9780513356
 40
0.9848814787
 40
0.9921810548
 40
1.0
 40
1.0
 40
1.0
 40
1.0
 10
9.6038190848
 20
12.1828372914
 30
0.0
 10
9.6145410584
 20
12.1847804023
 30
0.0
 10
9.6362572769
 20
12.1885538939
 30
0.0
 10
9.6692572106
 20
12.1938253355
 30
0.0
 10
9.703013909
 20
12.1987660561
 30
0.0
 10
9.7374773445
 20
12.2033687629
 30
0.0
 10
9.7725973182
 20
12.2076267115
 30
0.0
 10
9.8205589582
 20
12.2128716745
 30
0.0
 10
9.8817724296
 20
12.2185045547
 30
0.0
 10
9.9565093622
 20
12.2237578323
 30
0.0
 10
10.0325842728
 20
12.2275189418
 30
0.0
 10
10.109550674
 20
12.229765571
 30
0.0
 10
10.1869571595
 20
12.2304843513
 30
0.0
 10
10.264349614
 20
12.2296710244
 30
0.0
 10
10.3412740048
 20
12.2273303977
 30
0.0
 10
10.4172791756
 20
12.223476437
 30
0.0
 10
10.4919190508
 20
12.2181319447
 30
0.0
 10
10.5530343083
 20
12.2124239107
 30
0.0
 10
10.6009040502
 20
12.2071198007
 30
0.0
 10
10.6359457185
 20
12.202818917
 30
0.0
 10
10.6703246464
 20
12.1981741
 30
0.0
 10
10.7039904208
 20
12.1931921485
 30
0.0
 10
10.7368936262
 20
12.1878804082
 30
0.0
 10
10.7689859983
 20
12.1822467265
 30
0.0
 10
10.8002204667
 20
12.1762994175
 30
0.0
 10
10.830551223
 20
12.1700472429
 30
0.0
 10
10.8599338046
 20
12.1634994231
 30
0.0
 10
10.8883251684
 20
12.1566656353
 30
0.0
 10
10.9156837391
 20
12.1495559633
 30
0.0
 10
10.9419694735
 20
12.1421808775
 30
0.0
 10
10.9671439481
 20
12.1345512613
 30
0.0
 10
10.9911704172
 20
12.1266783709
 30
0.0
 10
11.0140138548
 20
12.1185737932
 30
0.0
 10
11.0356410245
 20
12.1102494159
 30
0.0
 10
11.0560205707
 20
12.1017174522
 30
0.0
 10
11.0751230591
 20
12.0929903518
 30
0.0
 10
11.0929210178
 20
12.084080742
 30
0.0
 10
11.1093890103
 20
12.0750013671
 30
0.0
 10
11.124503711
 20
12.065765042
 30
0.0
 10
11.1382438868
 20
12.0563844578
 30
0.0
 10
11.1505903434
 20
12.0468720261
 30
0.0
 10
11.1615258611
 20
12.0372396451
 30
0.0
 10
11.1710348542
 20
12.0274987115
 30
0.0
 10
11.1791029972
 20
12.0176592071
 30
0.0
 10
11.1857156287
 20
12.0077324372
 30
0.0
 10
11.1900570352
 20
11.9992847325
 30
0.0
 10
11.1927468996
 20
11.9925262437
 30
0.0
 10
11.1943674496
 20
11.9875120445
 30
0.0
 10
11.1956159483
 20
11.9824896026
 30
0.0
 10
11.1964917783
 20
11.9774608357
 30
0.0
 10
11.1969942157
 20
11.9724279208
 30
0.0
 10
11.1971230459
 20
11.9673930969
 30
0.0
 10
11.1968781449
 20
11.9623586203
 30
0.0
 10
11.1962596089
 20
11.9573267671
 30
0.0
 10
11.1952679774
 20
11.9522997209
 30
0.0
 10
11.1939038104
 20
11.9472796609
 30
0.0
 10
11.1921678499
 20
11.9422684837
 30
0.0
 10
11.1893213573
 20
11.9355118139
 30
0.0
 10
11.1847844571
 20
11.9270705179
 30
0.0
 10
11.1779447713
 20
11.9171567278
 30
0.0
 10
11.1696523236
 20
11.9073322003
 30
0.0
 10
11.1633890703
 20
11.9010734338
 30
0.0
 10
11.1600408204
 20
11.8979575488
 30
0.0
  0
SPLINE
  5
368
100
AcDbEntity
  8
0
100
AcDbSpline
 62
7
  6
CONTINUOUS
 70
0
 71
3
 72
37
 73
33
 74
0
 42
0.0000001
 43
0.0000001
 44
0.0000000001
 40
0.0
 40
0.0
 40
0.0
 40
0.0
 40
0.0155472121
 40
0.03128734
 40
0.0474056788
 40
0.0640736693
 40
0.0814445296
 40
0.0996515024
 40
0.1188074627
 40
0.1390063555
 40
0.1603247836
 40
0.1828242504
 40
0.2065531714
 40
0.231548646
 40
0.2578383369
 40
0.2854414938
 40
0.3143705679
 40
0.3446316909
 40
0.3762259293
 40
0.4091495639
 40
0.4433948874
 40
0.4789505504
 40
0.515801882
 40
0.5539314124
 40
0.5933188189
 40
0.6339415583
 40
0.675774578
 40
0.7187910126
 40
0.7629620282
 40
0.8082568025
 40
0.9020843778
 40
1.0
 40
1.0
 40
1.0
 40
1.0
 10
9.2557654141
 20
11.8761644439
 30
0.0
 10
9.255765425
 20
11.8785718525
 30
0.0
 10
9.2560481037
 20
11.8834211353
 30
0.0
 10
9.2573165371
 20
11.8906663784
 30
0.0
 10
9.2594267869
 20
11.8978934407
 30
0.0
 10
9.2623743426
 20
11.9050930859
 30
0.0
 10
9.2661536477
 20
11.9122591317
 30
0.0
 10
9.2707592973
 20
11.9193856593
 30
0.0
 10
9.2761855166
 20
11.9264675552
 30
0.0
 10
9.2824266739
 20
11.9334996345
 30
0.0
 10
9.28947672
 20
11.9404768009
 30
0.0
 10
9.2973292773
 20
11.9473937499
 30
0.0
 10
9.3059774281
 20
11.9542450113
 30
0.0
 10
9.3154135848
 20
11.9610250771
 30
0.0
 10
9.3256295758
 20
11.9677281876
 30
0.0
 10
9.3366164242
 20
11.9743487377
 30
0.0
 10
9.3483645506
 20
11.9808808734
 30
0.0
 10
9.360863571
 20
11.9873189768
 30
0.0
 10
9.374102473
 20
11.9936572709
 30
0.0
 10
9.388069502
 20
11.9998901752
 30
0.0
 10
9.4027522503
 20
12.0060120992
 30
0.0
 10
9.4181376379
 20
12.0120175459
 30
0.0
 10
9.4342119246
 20
12.0179011639
 30
0.0
 10
9.450960754
 20
12.0236575942
 30
0.0
 10
9.4683691254
 20
12.0292817361
 30
0.0
 10
9.4864214526
 20
12.0347684294
 30
0.0
 10
9.5051015401
 20
12.0401128166
 30
0.0
 10
9.5243926505
 20
12.0453099998
 30
0.0
 10
9.5442774828
 20
12.0503553742
 30
0.0
 10
9.5718832445
 20
12.0569514465
 30
0.0
 10
9.6077509079
 20
12.0647626659
 30
0.0
 10
9.6369087013
 20
12.070377458
 30
0.0
 10
9.6518274383
 20
12.0730811357
 30
0.0
  0
SPLINE
  5
369
100
AcDbEntity
  8
0
100
AcDbSpline
 62
7
  6
CONTINUOUS
 70
0
 71
3
 72
40
 73
36
 74
0
 42
0.0000001
 43
0.0000001
 44
0.0000000001
 40
0.0
 40
0.0
 40
0.0
 40
0.0
 40
0.0299422961
 40
0.0599089687
 40
0.0899238004
 40
0.1200094052
 40
0.1350882586
 40
0.1501924643
 40
0.1804801427
 40
0.2108943138
 40
0.2414481167
 40
0.2721514658
 40
0.3030108714
 40
0.3340293444
 40
0.3652063826
 40
0.3965380347
 40
0.4280170359
 40
0.4596330083
 40
0.4913727179
 40
0.5232203813
 40
0.5551580145
 40
0.5871658159
 40
0.6192225759
 40
0.6513061084
 40
0.6833936952
 40
0.7154625379
 40
0.7474902107
 40
0.7794551093
 40
0.8113368809
 40
0.8431168638
 40
0.8747784102
 40
0.9063074674
 40
0.9376922747
 40
0.9689251908
 40
1.0
 40
1.0
 40
1.0
 40
1.0
 10
9.9831649948
 20
7.0542808832
 30
0.0
 10
9.9800146198
 20
7.0512378496
 30
0.0
 10
9.9734661568
 20
7.0453973845
 30
0.0
 10
9.9629744034
 20
7.0374407304
 30
0.0
 10
9.9518676731
 20
7.030328156
 30
0.0
 10
9.9421566108
 20
7.0251406262
 30
0.0
 10
9.9341476802
 20
7.0214503132
 30
0.0
 10
9.9259732692
 20
7.0180646298
 30
0.0
 10
9.9154858821
 20
7.0144240526
 30
0.0
 10
9.9025617527
 20
7.0110311159
 30
0.0
 10
9.8893556125
 20
7.0086274679
 30
0.0
 10
9.8759406469
 20
7.0072263679
 30
0.0
 10
9.8623905485
 20
7.006835292
 30
0.0
 10
9.8487798743
 20
7.0074562294
 30
0.0
 10
9.8351834315
 20
7.0090855924
 30
0.0
 10
9.8216759266
 20
7.0117142679
 30
0.0
 10
9.8083315444
 20
7.0153276669
 30
0.0
 10
9.7952235501
 20
7.0199058115
 30
0.0
 10
9.7824238922
 20
7.025423447
 30
0.0
 10
9.770002813
 20
7.0318501826
 30
0.0
 10
9.7580284692
 20
7.0391506592
 30
0.0
 10
9.7465665622
 20
7.0472847427
 30
0.0
 10
9.7356799831
 20
7.0562077437
 30
0.0
 10
9.7254284696
 20
7.0658706589
 30
0.0
 10
9.7158682815
 20
7.0762204387
 30
0.0
 10
9.707051897
 20
7.0872002779
 30
0.0
 10
9.6990277266
 20
7.0987499231
 30
0.0
 10
9.6918398525
 20
7.1108060002
 30
0.0
 10
9.6855277798
 20
7.1233023591
 30
0.0
 10
9.680126245
 20
7.1361704244
 30
0.0
 10
9.6756649658
 20
7.1493396034
 30
0.0
 10
9.6721686116
 20
7.16273752
 30
0.0
 10
9.6696564024
 20
7.176290943
 30
0.0
 10
9.6681424306
 20
7.1899243747
 30
0.0
 10
9.6678033023
 20
7.1990424526
 30
0.0
 10
9.6678033023
 20
7.2035881793
 30
0.0
  0
SPLINE
  5
36A
100
AcDbEntity
  8
0
100
AcDbSpline
 62
7
  6
CONTINUOUS
 70
0
 71
3
 72
15
 73
11
 74
0
 42
0.0000001
 43
0.0000001
 44
0.0000000001
 40
0.0
 40
0.0
 40
0.0
 40
0.0
 40
0.1234394212
 40
0.2470466221
 40
0.3709825576
 40
0.495394897
 40
0.6204121045
 40
0.746139443
 40
0.8726516743
 40
1.0
 40
1.0
 40
1.0
 40
1.0
 10
9.7193002603
 20
7.3274537415
 30
0.0
 10
9.7152227923
 20
7.3235152033
 30
0.0
 10
9.7074624135
 20
7.3152061226
 30
0.0
 10
9.6971557764
 20
7.3016037741
 30
0.0
 10
9.6882692682
 20
7.2869797525
 30
0.0
 10
9.6808864668
 20
7.2714710723
 30
0.0
 10
9.6750746366
 20
7.255220957
 30
0.0
 10
9.6708871135
 20
7.2383792639
 30
0.0
 10
9.6683617192
 20
7.2211034938
 30
0.0
 10
9.6678033023
 20
7.2094367215
 30
0.0
 10
9.6678033023
 20
7.2035881793
 30
0.0
  0
SPLINE
  5
36B
100
AcDbEntity
  8
0
100
AcDbSpline
 62
7
  6
CONTINUOUS
 70
0
 71
3
 72
40
 73
36
 74
0
 42
0.0000001
 43
0.0000001
 44
0.0000000001
 40
0.0
 40
0.0
 40
0.0
 40
0.0
 40
0.0299422956
 40
0.059908968
 40
0.0899238
 40
0.1200094056
 40
0.1350882594
 40
0.1501924656
 40
0.1804801452
 40
0.2108943177
 40
0.241448122
 40
0.2721514726
 40
0.3030108797
 40
0.334029354
 40
0.3652063934
 40
0.3965380465
 40
0.4280170486
 40
0.4596330217
 40
0.4913727316
 40
0.5232203951
 40
0.5551580282
 40
0.5871658292
 40
0.6192225887
 40
0.6513061205
 40
0.6833937063
 40
0.715462548
 40
0.7474902197
 40
0.779455117
 40
0.8113368874
 40
0.8431168691
 40
0.8747784143
 40
0.9063074703
 40
0.9376922765
 40
0.9689251917
 40
1.0
 40
1.0
 40
1.0
 40
1.0
 10
12.081524527
 20
10.9176175539
 30
0.0
 10
12.0784935947
 20
10.9146899027
 30
0.0
 10
12.0721934096
 20
10.9090708906
 30
0.0
 10
12.0620994422
 20
10.9014159308
 30
0.0
 10
12.0514138164
 20
10.8945730475
 30
0.0
 10
12.0420709444
 20
10.8895822176
 30
0.0
 10
12.0343656696
 20
10.8860318345
 30
0.0
 10
12.026501189
 20
10.8827745308
 30
0.0
 10
12.0164114291
 20
10.8792720001
 30
0.0
 10
12.0039773171
 20
10.876007723
 30
0.0
 10
11.991271888
 20
10.873695225
 30
0.0
 10
11.9783655524
 20
10.8723472627
 30
0.0
 10
11.9653292089
 20
10.8719710284
 30
0.0
 10
11.9522345871
 20
10.8725684361
 30
0.0
 10
11.9391536583
 20
10.8741360339
 30
0.0
 10
11.9261582961
 20
10.8766650543
 30
0.0
 10
11.9133198725
 20
10.8801414612
 30
0.0
 10
11.9007088748
 20
10.8845460343
 30
0.0
 10
11.8883945232
 20
10.8898544763
 30
0.0
 10
11.876444397
 20
10.8960375488
 30
0.0
 10
11.8649240683
 20
10.9030612331
 30
0.0
 10
11.8538967475
 20
10.9108869171
 30
0.0
 10
11.8434229411
 20
10.9194716056
 30
0.0
 10
11.8335601215
 20
10.9287681535
 30
0.0
 10
11.8243624154
 20
10.9387255225
 30
0.0
 10
11.8158803113
 20
10.9492890612
 30
0.0
 10
11.808160384
 20
10.9604008009
 30
0.0
 10
11.8012450443
 20
10.9719997703
 30
0.0
 10
11.7951722994
 20
10.9840223276
 30
0.0
 10
11.7899755686
 20
10.9964024974
 30
0.0
 10
11.7856834427
 20
11.0090723637
 30
0.0
 10
11.7823196559
 20
11.0219622946
 30
0.0
 10
11.7799026994
 20
11.0350018357
 30
0.0
 10
11.7784461313
 20
11.0481183516
 30
0.0
 10
11.7781198613
 20
11.0568907148
 30
0.0
 10
11.7781198613
 20
11.0612640889
 30
0.0
  0
SPLINE
  5
36C
100
AcDbEntity
  8
0
100
AcDbSpline
 62
7
  6
CONTINUOUS
 70
0
 71
3
 72
40
 73
36
 74
0
 42
0.0000001
 43
0.0000001
 44
0.0000000001
 40
0.0
 40
0.0
 40
0.0
 40
0.0
 40
0.0299422956
 40
0.059908968
 40
0.0899238
 40
0.1200094056
 40
0.1350882594
 40
0.1501924656
 40
0.1804801452
 40
0.2108943177
 40
0.241448122
 40
0.2721514726
 40
0.3030108797
 40
0.334029354
 40
0.3652063934
 40
0.3965380465
 40
0.4280170486
 40
0.4596330217
 40
0.4913727316
 40
0.5232203951
 40
0.5551580282
 40
0.5871658292
 40
0.6192225887
 40
0.6513061205
 40
0.6833937063
 40
0.715462548
 40
0.7474902197
 40
0.779455117
 40
0.8113368874
 40
0.8431168691
 40
0.8747784143
 40
0.9063074703
 40
0.9376922765
 40
0.9689251917
 40
1.0
 40
1.0
 40
1.0
 40
1.0
 10
9.9081912891
 20
5.8523389548
 30
0.0
 10
9.9051603568
 20
5.8494113036
 30
0.0
 10
9.8988601717
 20
5.8437922915
 30
0.0
 10
9.8887662043
 20
5.8361373318
 30
0.0
 10
9.8780805785
 20
5.8292944485
 30
0.0
 10
9.8687377065
 20
5.8243036186
 30
0.0
 10
9.8610324317
 20
5.8207532354
 30
0.0
 10
9.8531679511
 20
5.8174959317
 30
0.0
 10
9.8430781912
 20
5.813993401
 30
0.0
 10
9.8306440792
 20
5.8107291239
 30
0.0
 10
9.8179386501
 20
5.8084166259
 30
0.0
 10
9.8050323145
 20
5.8070686636
 30
0.0
 10
9.7919959709
 20
5.8066924294
 30
0.0
 10
9.7789013492
 20
5.807289837
 30
0.0
 10
9.7658204204
 20
5.8088574349
 30
0.0
 10
9.7528250582
 20
5.8113864552
 30
0.0
 10
9.7399866346
 20
5.8148628622
 30
0.0
 10
9.7273756368
 20
5.8192674352
 30
0.0
 10
9.7150612853
 20
5.8245758772
 30
0.0
 10
9.7031111591
 20
5.8307589497
 30
0.0
 10
9.6915908304
 20
5.8377826341
 30
0.0
 10
9.6805635096
 20
5.845608318
 30
0.0
 10
9.6700897031
 20
5.8541930066
 30
0.0
 10
9.6602268836
 20
5.8634895544
 30
0.0
 10
9.6510291775
 20
5.8734469234
 30
0.0
 10
9.6425470734
 20
5.8840104622
 30
0.0
 10
9.6348271461
 20
5.8951222018
 30
0.0
 10
9.6279118064
 20
5.9067211713
 30
0.0
 10
9.6218390615
 20
5.9187437285
 30
0.0
 10
9.6166423306
 20
5.9311238984
 30
0.0
 10
9.6123502048
 20
5.9437937647
 30
0.0
 10
9.608986418
 20
5.9566836956
 30
0.0
 10
9.6065694615
 20
5.9697232366
 30
0.0
 10
9.6051128934
 20
5.9828397526
 30
0.0
 10
9.6047866234
 20
5.9916121157
 30
0.0
 10
9.6047866234
 20
5.9959854898
 30
0.0
  0
SPLINE
  5
36D
100
AcDbEntity
  8
0
100
AcDbSpline
 62
7
  6
CONTINUOUS
 70
0
 71
3
 72
82
 73
78
 74
0
 42
0.0000001
 43
0.0000001
 44
0.0000000001
 40
0.0
 40
0.0
 40
0.0
 40
0.0
 40
0.0027164293
 40
0.0054532352
 40
0.0082303039
 40
0.0110666017
 40
0.0139798083
 40
0.0169861229
 40
0.0201000879
 40
0.0233346065
 40
0.0267009682
 40
0.0302089184
 40
0.0338668424
 40
0.037681809
 40
0.0416597867
 40
0.0458057216
 40
0.0501236475
 40
0.0546168506
 40
0.0592878619
 40
0.0641386413
 40
0.0691705739
 40
0.0743845478
 40
0.0797810495
 40
0.0853601154
 40
0.0970639755
 40
0.1094907276
 40
0.1226299755
 40
0.1364676385
 40
0.1509864523
 40
0.1661663556
 40
0.1819848033
 40
0.198417037
 40
0.2154363025
 40
0.2330140358
 40
0.2511200237
 40
0.2697225441
 40
0.2887885095
 40
0.3082835936
 40
0.3281723476
 40
0.3484183114
 40
0.3689841164
 40
0.3898315949
 40
0.4109218859
 40
0.4536718839
 40
0.4969138843
 40
0.5403221633
 40
0.5835694113
 40
0.6263298543
 40
0.6474272888
 40
0.668283168
 40
0.6888586078
 40
0.7091154181
 40
0.7290162075
 40
0.7485244842
 40
0.7676047632
 40
0.7862226768
 40
0.8043450949
 40
0.8219402576
 40
0.8389779015
 40
0.8554294043
 40
0.8712679467
 40
0.8864686995
 40
0.901009051
 40
0.9148688601
 40
0.9280307634
 40
0.9404805673
 40
0.9522077427
 40
0.9577985182
 40
0.9632067335
 40
0.9684324298
 40
0.9734760263
 40
0.9783383919
 40
0.9830208436
 40
0.98752538
 40
0.991854594
 40
0.9960115787
 40
1.0
 40
1.0
 40
1.0
 40
1.0
 10
13.6624827066
 20
10.26132182
 30
0.0
 10
13.6639524776
 20
10.2612198859
 30
0.0
 10
13.6668955143
 20
10.2608821861
 30
0.0
 10
13.6712726027
 20
10.2599786151
 30
0.0
 10
13.6756166153
 20
10.2586781252
 30
0.0
 10
13.6799244347
 20
10.2569819348
 30
0.0
 10
13.6841938806
 20
10.2548916507
 30
0.0
 10
13.6884227038
 20
10.2524087902
 30
0.0
 10
13.6926090094
 20
10.2495352178
 30
0.0
 10
13.6967509144
 20
10.2462727115
 30
0.0
 10
13.7008466052
 20
10.2426231604
 30
0.0
 10
13.7048943846
 20
10.2385886205
 30
0.0
 10
13.7088923903
 20
10.234171113
 30
0.0
 10
13.7128389389
 20
10.2293729536
 30
0.0
 10
13.7167321881
 20
10.2241964899
 30
0.0
 10
13.7205703419
 20
10.2186442869
 30
0.0
 10
13.7243516494
 20
10.2127191026
 30
0.0
 10
13.7280742212
 20
10.2064238097
 30
0.0
 10
13.7317363543
 20
10.1997615538
 30
0.0
 10
13.7353361973
 20
10.1927355934
 30
0.0
 10
13.738872007
 20
10.1853494148
 30
0.0
 10
13.7423420542
 20
10.1776066899
 30
0.0
 10
13.745744593
 20
10.169511232
 30
0.0
 10
13.7502613103
 20
10.158069048
 30
0.0
 10
13.7557087174
 20
10.1428994693
 30
0.0
 10
13.7618501842
 20
10.1236371755
 30
0.0
 10
13.767684009
 20
10.1030741009
 30
0.0
 10
13.7731984119
 20
10.0812513143
 30
0.0
 10
13.7783822038
 20
10.0582121378
 30
0.0
 10
13.7832248509
 20
10.0340025733
 30
0.0
 10
13.7877165095
 20
10.0086710289
 30
0.0
 10
13.7918480397
 20
9.9822682402
 30
0.0
 10
13.7956110317
 20
9.954847137
 30
0.0
 10
13.7989978227
 20
9.9264627318
 30
0.0
 10
13.8020015132
 20
9.8971720068
 30
0.0
 10
13.8046159939
 20
9.8670337949
 30
0.0
 10
13.8068359436
 20
9.8361086528
 30
0.0
 10
13.8086568405
 20
9.8044587303
 30
0.0
 10
13.8100749701
 20
9.7721476442
 30
0.0
 10
13.8110874334
 20
9.7392403469
 30
0.0
 10
13.8116921487
 20
9.7058030184
 30
0.0
 10
13.8118879093
 20
9.6719028434
 30
0.0
 10
13.8116016221
 20
9.6259709854
 30
0.0
 10
13.8102125892
 20
9.5679040256
 30
0.0
 10
13.8069390059
 20
9.4977922223
 30
0.0
 10
13.8020770357
 20
9.4275020808
 30
0.0
 10
13.7956657509
 20
9.3575987811
 30
0.0
 10
13.7890460304
 20
9.2998812019
 30
0.0
 10
13.7830047903
 20
9.2543332497
 30
0.0
 10
13.7781425569
 20
9.2207692078
 30
0.0
 10
13.7729388423
 20
9.1877178859
 30
0.0
 10
13.7674040979
 20
9.1552456921
 30
0.0
 10
13.7615495058
 20
9.1234179214
 30
0.0
 10
13.7553868782
 20
9.0922985482
 30
0.0
 10
13.7489286546
 20
9.0619501196
 30
0.0
 10
13.7421878711
 20
9.0324336227
 30
0.0
 10
13.7351781368
 20
9.0038083548
 30
0.0
 10
13.7279136171
 20
8.9761317957
 30
0.0
 10
13.7204089915
 20
8.9494594914
 30
0.0
 10
13.7126794259
 20
8.9238449422
 30
0.0
 10
13.704740541
 20
8.8993394879
 30
0.0
 10
13.6966083741
 20
8.8759921933
 30
0.0
 10
13.6882993539
 20
8.8538497151
 30
0.0
 10
13.6798302551
 20
8.8329562365
 30
0.0
 10
13.6712181267
 20
8.8133532104
 30
0.0
 10
13.6624803007
 20
8.7950797792
 30
0.0
 10
13.6549940221
 20
8.7807702892
 30
0.0
 10
13.6489432141
 20
8.7700308193
 30
0.0
 10
13.6444570029
 20
8.7624596455
 30
0.0
 10
13.6399525117
 20
8.7552468863
 30
0.0
 10
13.6354319105
 20
8.7483961447
 30
0.0
 10
13.6308975353
 20
8.7419107982
 30
0.0
 10
13.6263515204
 20
8.7357940806
 30
0.0
 10
13.6217961022
 20
8.730048934
 30
0.0
 10
13.6172333832
 20
8.7246781775
 30
0.0
 10
13.6126658295
 20
8.7196847269
 30
0.0
 10
13.6095557682
 20
8.7165450014
 30
0.0
 10
13.6079998855
 20
8.715042134
 30
0.0
  0
SPLINE
  5
36E
100
AcDbEntity
  8
0
100
AcDbSpline
 62
4
  6
CONTINUOUS
 70
0
 71
3
 72
307
 73
303
 74
0
 42
0.0000001
 43
0.0000001
 44
0.0000000001
 40
0.0
 40
0.0
 40
0.0
 40
0.0
 40
0.015625
 40
0.0234375
 40
0.03125
 40
0.0390625
 40
0.046875
 40
0.05078125
 40
0.0546875
 40
0.056640625
 40
0.05859375
 40
0.060546875
 40
0.0615234375
 40
0.0620117188
 40
0.0625
 40
0.0629882812
 40
0.0634765625
 40
0.064453125
 40
0.06640625
 40
0.068359375
 40
0.0703125
 40
0.07421875
 40
0.078125
 40
0.0859375
 40
0.09375
 40
0.1015625
 40
0.109375
 40
0.11328125
 40
0.1171875
 40
0.119140625
 40
0.12109375
 40
0.123046875
 40
0.1240234375
 40
0.1245117188
 40
0.125
 40
0.1254882812
 40
0.1259765625
 40
0.126953125
 40
0.12890625
 40
0.130859375
 40
0.1328125
 40
0.13671875
 40
0.140625
 40
0.1484375
 40
0.15625
 40
0.1640625
 40
0.171875
 40
0.17578125
 40
0.1796875
 40
0.181640625
 40
0.18359375
 40
0.185546875
 40
0.1865234375
 40
0.1870117188
 40
0.1875
 40
0.1879882812
 40
0.1884765625
 40
0.189453125
 40
0.19140625
 40
0.193359375
 40
0.1953125
 40
0.19921875
 40
0.203125
 40
0.2109375
 40
0.21875
 40
0.2265625
 40
0.234375
 40
0.23828125
 40
0.2421875
 40
0.244140625
 40
0.24609375
 40
0.248046875
 40
0.2490234375
 40
0.2495117188
 40
0.25
 40
0.2504882812
 40
0.2509765625
 40
0.251953125
 40
0.25390625
 40
0.255859375
 40
0.2578125
 40
0.26171875
 40
0.265625
 40
0.2734375
 40
0.28125
 40
0.2890625
 40
0.296875
 40
0.30078125
 40
0.3046875
 40
0.306640625
 40
0.30859375
 40
0.310546875
 40
0.3115234375
 40
0.3120117188
 40
0.3125
 40
0.3129882812
 40
0.3134765625
 40
0.314453125
 40
0.31640625
 40
0.318359375
 40
0.3203125
 40
0.32421875
 40
0.328125
 40
0.3359375
 40
0.34375
 40
0.3515625
 40
0.359375
 40
0.36328125
 40
0.3671875
 40
0.369140625
 40
0.37109375
 40
0.373046875
 40
0.3740234375
 40
0.3745117188
 40
0.375
 40
0.3754882812
 40
0.3759765625
 40
0.376953125
 40
0.37890625
 40
0.380859375
 40
0.3828125
 40
0.38671875
 40
0.390625
 40
0.3984375
 40
0.40625
 40
0.4140625
 40
0.421875
 40
0.42578125
 40
0.4296875
 40
0.431640625
 40
0.43359375
 40
0.435546875
 40
0.4365234375
 40
0.4370117188
 40
0.4375
 40
0.4379882812
 40
0.4384765625
 40
0.439453125
 40
0.44140625
 40
0.443359375
 40
0.4453125
 40
0.44921875
 40
0.453125
 40
0.4609375
 40
0.46875
 40
0.4765625
 40
0.484375
 40
0.48828125
 40
0.4921875
 40
0.494140625
 40
0.49609375
 40
0.498046875
 40
0.4990234375
 40
0.4995117188
 40
0.5
 40
0.5004882812
 40
0.5009765625
 40
0.501953125
 40
0.50390625
 40
0.505859375
 40
0.5078125
 40
0.51171875
 40
0.515625
 40
0.5234375
 40
0.53125
 40
0.5390625
 40
0.546875
 40
0.55078125
 40
0.5546875
 40
0.556640625
 40
0.55859375
 40
0.560546875
 40
0.5615234375
 40
0.5620117188
 40
0.5625
 40
0.5629882812
 40
0.5634765625
 40
0.564453125
 40
0.56640625
 40
0.568359375
 40
0.5703125
 40
0.57421875
 40
0.578125
 40
0.5859375
 40
0.59375
 40
0.6015625
 40
0.609375
 40
0.61328125
 40
0.6171875
 40
0.619140625
 40
0.62109375
 40
0.623046875
 40
0.6240234375
 40
0.625
 40
0.6259765625
 40
0.626953125
 40
0.62890625
 40
0.630859375
 40
0.6328125
 40
0.63671875
 40
0.640625
 40
0.6484375
 40
0.65625
 40
0.6640625
 40
0.671875
 40
0.67578125
 40
0.6796875
 40
0.681640625
 40
0.68359375
 40
0.685546875
 40
0.6865234375
 40
0.6870117188
 40
0.6875
 40
0.6879882812
 40
0.6884765625
 40
0.689453125
 40
0.69140625
 40
0.693359375
 40
0.6953125
 40
0.69921875
 40
0.703125
 40
0.7109375
 40
0.71875
 40
0.7265625
 40
0.734375
 40
0.73828125
 40
0.7421875
 40
0.744140625
 40
0.74609375
 40
0.748046875
 40
0.7490234375
 40
0.7495117188
 40
0.75
 40
0.7504882812
 40
0.7509765625
 40
0.751953125
 40
0.75390625
 40
0.755859375
 40
0.7578125
 40
0.76171875
 40
0.765625
 40
0.7734375
 40
0.78125
 40
0.7890625
 40
0.796875
 40
0.80078125
 40
0.8046875
 40
0.806640625
 40
0.80859375
 40
0.810546875
 40
0.8115234375
 40
0.8125
 40
0.8134765625
 40
0.814453125
 40
0.81640625
 40
0.818359375
 40
0.8203125
 40
0.82421875
 40
0.828125
 40
0.8359375
 40
0.84375
 40
0.8515625
 40
0.859375
 40
0.86328125
 40
0.8671875
 40
0.869140625
 40
0.87109375
 40
0.873046875
 40
0.8740234375
 40
0.875
 40
0.8759765625
 40
0.876953125
 40
0.87890625
 40
0.880859375
 40
0.8828125
 40
0.88671875
 40
0.890625
 40
0.8984375
 40
0.90625
 40
0.9140625
 40
0.921875
 40
0.92578125
 40
0.9296875
 40
0.931640625
 40
0.93359375
 40
0.935546875
 40
0.9365234375
 40
0.9370117188
 40
0.9375
 40
0.9379882812
 40
0.9384765625
 40
0.939453125
 40
0.94140625
 40
0.943359375
 40
0.9453125
 40
0.94921875
 40
0.953125
 40
0.9609375
 40
0.96875
 40
0.9765625
 40
0.984375
 40
1.0
 40
1.0
 40
1.0
 40
1.0
 10
10.0429306041
 20
9.7211199367
 30
0.0
 10
10.04546342
 20
9.7211926301
 30
0.0
 10
10.0492626438
 20
9.72130167
 30
0.0
 10
10.0543282753
 20
9.7214470573
 30
0.0
 10
10.0581274994
 20
9.7215560957
 30
0.0
 10
10.0619267219
 20
9.7216651419
 30
0.0
 10
10.0650927454
 20
9.7217559898
 30
0.0
 10
10.0676255537
 20
9.7218287215
 30
0.0
 10
10.0692085827
 20
9.7218740574
 30
0.0
 10
10.0704749515
 20
9.7219106042
 30
0.0
 10
10.0714248768
 20
9.721937253
 30
0.0
 10
10.0722160082
 20
9.7219618821
 30
0.0
 10
10.0727707285
 20
9.7219743697
 30
0.0
 10
10.0730862621
 20
9.7219889265
 30
0.0
 10
10.0733269955
 20
9.721978939
 30
0.0
 10
10.0735521206
 20
9.7220488616
 30
0.0
 10
10.0738577317
 20
9.7221142182
 30
0.0
 10
10.0743900146
 20
9.7222415791
 30
0.0
 10
10.0751517449
 20
9.7224167335
 30
0.0
 10
10.0760652537
 20
9.722629825
 30
0.0
 10
10.0772834636
 20
9.722912932
 30
0.0
 10
10.0788061581
 20
9.7232671633
 30
0.0
 10
10.0812425072
 20
9.723833739
 30
0.0
 10
10.0842879305
 20
9.7245420257
 30
0.0
 10
10.0879424448
 20
9.7253919391
 30
0.0
 10
10.0915969547
 20
9.7262418676
 30
0.0
 10
10.094642389
 20
9.7269501168
 30
0.0
 10
10.097078716
 20
9.7275167675
 30
0.0
 10
10.0986014669
 20
9.7278708081
 30
0.0
 10
10.099819561
 20
9.7281543065
 30
0.0
 10
10.1007334234
 20
9.7283662022
 30
0.0
 10
10.1014940473
 20
9.728545098
 30
0.0
 10
10.1020283053
 20
9.7286657799
 30
0.0
 10
10.1023307518
 20
9.7287418378
 30
0.0
 10
10.1025655977
 20
9.7287788895
 30
0.0
 10
10.1027698215
 20
9.7288923597
 30
0.0
 10
10.1030528012
 20
9.7290169976
 30
0.0
 10
10.103543039
 20
9.7292475333
 30
0.0
 10
10.1042459806
 20
9.7295703771
 30
0.0
 10
10.1050883969
 20
9.7299605689
 30
0.0
 10
10.1062120076
 20
9.7304798538
 30
0.0
 10
10.1076163877
 20
9.7311292924
 30
0.0
 10
10.1098634704
 20
9.7321682083
 30
0.0
 10
10.112672298
 20
9.7334669173
 30
0.0
 10
10.1160429031
 20
9.7350253388
 30
0.0
 10
10.1194135015
 20
9.7365837749
 30
0.0
 10
10.1222223459
 20
9.7378824476
 30
0.0
 10
10.124469395
 20
9.7389214361
 30
0.0
 10
10.1258738604
 20
9.7395706901
 30
0.0
 10
10.1269972961
 20
9.7400903538
 30
0.0
 10
10.1278402469
 20
9.7404793884
 30
0.0
 10
10.1285415162
 20
9.7408058525
 30
0.0
 10
10.1290347394
 20
9.7410299254
 30
0.0
 10
10.1293129359
 20
9.7411649184
 30
0.0
 10
10.1295318522
 20
9.7412465811
 30
0.0
 10
10.1297115153
 20
9.7414030963
 30
0.0
 10
10.1299647582
 20
9.7415856738
 30
0.0
 10
10.1304015538
 20
9.7419173493
 30
0.0
 10
10.1310288828
 20
9.7423848116
 30
0.0
 10
10.13178025
 20
9.7429484885
 30
0.0
 10
10.1327825715
 20
9.7436991069
 30
0.0
 10
10.1340353027
 20
9.7446377055
 30
0.0
 10
10.1360397681
 20
9.7461392812
 30
0.0
 10
10.1385453168
 20
9.7480163136
 30
0.0
 10
10.1415519908
 20
9.7502687243
 30
0.0
 10
10.1445586551
 20
9.7525211476
 30
0.0
 10
10.1470642282
 20
9.7543981483
 30
0.0
 10
10.1490686446
 20
9.7558997874
 30
0.0
 10
10.1503215004
 20
9.756838225
 30
0.0
 10
10.1513235661
 20
9.7575891738
 30
0.0
 10
10.1520757151
 20
9.7581518414
 30
0.0
 10
10.1527005981
 20
9.7586224616
 30
0.0
 10
10.1531417601
 20
9.7589484996
 30
0.0
 10
10.1533880069
 20
9.7591401098
 30
0.0
 10
10.1535891598
 20
9.7592688794
 30
0.0
 10
10.1537273642
 20
9.7594547501
 30
0.0
 10
10.1539335939
 20
9.7596826603
 30
0.0
 10
10.1542842656
 20
9.760090783
 30
0.0
 10
10.1547905737
 20
9.7606689638
 30
0.0
 10
10.1553958541
 20
9.7613648574
 30
0.0
 10
10.1562036942
 20
9.7622919902
 30
0.0
 10
10.1572132205
 20
9.7634511546
 30
0.0
 10
10.1588286157
 20
9.7653056788
 30
0.0
 10
10.1608478068
 20
9.7676238819
 30
0.0
 10
10.1632708604
 20
9.770405704
 30
0.0
 10
10.1656939015
 20
9.7731875362
 30
0.0
 10
10.1677131237
 20
9.7755057138
 30
0.0
 10
10.1693284567
 20
9.7773602891
 30
0.0
 10
10.1703381413
 20
9.7785193236
 30
0.0
 10
10.1711456566
 20
9.7794467229
 30
0.0
 10
10.1717519292
 20
9.7801418024
 30
0.0
 10
10.1722551326
 20
9.7807225304
 30
0.0
 10
10.1726113467
 20
9.7811261059
 30
0.0
 10
10.1728086962
 20
9.7813613019
 30
0.0
 10
10.1729741776
 20
9.7815247928
 30
0.0
 10
10.1730728826
 20
9.7817376175
 30
0.0
 10
10.1732277817
 20
9.7820041756
 30
0.0
 10
10.1734880027
 20
9.7824786699
 30
0.0
 10
10.1738654207
 20
9.7831523272
 30
0.0
 10
10.1743158938
 20
9.7839625101
 30
0.0
 10
10.1749173729
 20
9.7850421273
 30
0.0
 10
10.1756689312
 20
9.7863918634
 30
0.0
 10
10.176871587
 20
9.7885513213
 30
0.0
 10
10.1783748505
 20
9.7912506849
 30
0.0
 10
10.1801787926
 20
9.7944899026
 30
0.0
 10
10.1819827212
 20
9.7977291286
 30
0.0
 10
10.1834860186
 20
9.8004284717
 30
0.0
 10
10.1846886067
 20
9.8025879705
 30
0.0
 10
10.185440337
 20
9.8039376025
 30
0.0
 10
10.1860414631
 20
9.8050174334
 30
0.0
 10
10.1864930145
 20
9.8058269634
 30
0.0
 10
10.1868670589
 20
9.8065026636
 30
0.0
 10
10.1871333024
 20
9.806973511
 30
0.0
 10
10.1872785519
 20
9.8072459123
 30
0.0
 10
10.1874068972
 20
9.8074407885
 30
0.0
 10
10.1874610549
 20
9.807671691
 30
0.0
 10
10.1875591427
 20
9.8079669945
 30
0.0
 10
10.1877187395
 20
9.8084896306
 30
0.0
 10
10.1879530384
 20
9.8092331926
 30
0.0
 10
10.188231499
 20
9.8101267772
 30
0.0
 10
10.1886037222
 20
9.8113177657
 30
0.0
 10
10.1890686784
 20
9.812806658
 30
0.0
 10
10.1898127889
 20
9.8151887982
 30
0.0
 10
10.1907428646
 20
9.8181665036
 30
0.0
 10
10.1918589841
 20
9.8217397364
 30
0.0
 10
10.192975089
 20
9.8253129754
 30
0.0
 10
10.1939052014
 20
9.8282906652
 30
0.0
 10
10.1946492385
 20
9.8306728364
 30
0.0
 10
10.1951143813
 20
9.8321616498
 30
0.0
 10
10.1954862215
 20
9.8333528004
 30
0.0
 10
10.1957658521
 20
9.8342458898
 30
0.0
 10
10.1959964905
 20
9.8349910011
 30
0.0
 10
10.1961626218
 20
9.8355108715
 30
0.0
 10
10.1962502398
 20
9.8358106064
 30
0.0
 10
10.1963365575
 20
9.836027897
 30
0.0
 10
10.1963441153
 20
9.8362738971
 30
0.0
 10
10.1963816647
 20
9.8365918831
 30
0.0
 10
10.1964345762
 20
9.8371530245
 30
0.0
 10
10.1965168561
 20
9.8379522156
 30
0.0
 10
10.1966127276
 20
9.8389122891
 30
0.0
 10
10.1967415567
 20
9.8401920223
 30
0.0
 10
10.1969022506
 20
9.8417918138
 30
0.0
 10
10.1971595523
 20
9.8443514103
 30
0.0
 10
10.1974811132
 20
9.8475509299
 30
0.0
 10
10.1978670166
 20
9.8513903432
 30
0.0
 10
10.1982529046
 20
9.8552297591
 30
0.0
 10
10.1985745041
 20
9.8584292722
 30
0.0
 10
10.1988317287
 20
9.8609888818
 30
0.0
 10
10.1989926184
 20
9.8625886401
 30
0.0
 10
10.1991210455
 20
9.8638684414
 30
0.0
 10
10.1992181452
 20
9.8648283071
 30
0.0
 10
10.1992965825
 20
9.8656281483
 30
0.0
 10
10.1993563538
 20
9.8661881292
 30
0.0
 10
10.1993829121
 20
9.8665079745
 30
0.0
 10
10.1994242308
 20
9.8667482635
 30
0.0
 10
10.1993837483
 20
9.866987004
 30
0.0
 10
10.1993583048
 20
9.8673058649
 30
0.0
 10
10.1993004846
 20
9.8678636197
 30
0.0
 10
10.1992248345
 20
9.8686605438
 30
0.0
 10
10.1991310795
 20
9.8696167964
 30
0.0
 10
10.199007112
 20
9.8708918196
 30
0.0
 10
10.1988517967
 20
9.8724855918
 30
0.0
 10
10.1986034912
 20
9.8750356312
 30
0.0
 10
10.1982930406
 20
9.878223179
 30
0.0
 10
10.1979205313
 20
9.8820482372
 30
0.0
 10
10.1975480065
 20
9.8858732943
 30
0.0
 10
10.1972375945
 20
9.8890608449
 30
0.0
 10
10.1969892119
 20
9.8916108787
 30
0.0
 10
10.1968340926
 20
9.8932046652
 30
0.0
 10
10.1967097228
 20
9.8944796591
 30
0.0
 10
10.1966171965
 20
9.8954360011
 30
0.0
 10
10.1965377022
 20
9.8962326455
 30
0.0
 10
10.1964867446
 20
9.8967908997
 30
0.0
 10
10.1964503054
 20
9.8971089603
 30
0.0
 10
10.1964435981
 20
9.8973501589
 30
0.0
 10
10.196358063
 20
9.8975812158
 30
0.0
 10
10.1962715122
 20
9.8978928293
 30
0.0
 10
10.1961072373
 20
9.8984365047
 30
0.0
 10
10.1958792567
 20
9.8992140455
 30
0.0
 10
10.1956028132
 20
9.9001467257
 30
0.0
 10
10.1952352231
 20
9.9013904281
 30
0.0
 10
10.1947753926
 20
9.9029450119
 30
0.0
 10
10.1940398554
 20
9.9054323707
 30
0.0
 10
10.1931203692
 20
9.9085415611
 30
0.0
 10
10.1920170085
 20
9.9122725913
 30
0.0
 10
10.1909136604
 20
9.9160036275
 30
0.0
 10
10.1899941429
 20
9.9191128031
 30
0.0
 10
10.1892586684
 20
9.9216001915
 30
0.0
 10
10.1887986784
 20
9.9231547001
 30
0.0
 10
10.1884314158
 20
9.924398557
 30
0.0
 10
10.1881539716
 20
9.925330765
 30
0.0
 10
10.1879291216
 20
9.926109783
 30
0.0
 10
10.187734992
 20
9.9267281125
 30
0.0
 10
10.1876283314
 20
9.9272052078
 30
0.0
 10
10.1873730491
 20
9.9276313526
 30
0.0
 10
10.1870845881
 20
9.9282173434
 30
0.0
 10
10.1867062
 20
9.9289437255
 30
0.0
 10
10.1862597583
 20
9.9298179978
 30
0.0
 10
10.1856618399
 20
9.9309827812
 30
0.0
 10
10.1849153535
 20
9.9324390731
 30
0.0
 10
10.1837204658
 20
9.9347689655
 30
0.0
 10
10.1822270307
 20
9.9376813907
 30
0.0
 10
10.1804348355
 20
9.9411762761
 30
0.0
 10
10.1786426534
 20
9.9446711651
 30
0.0
 10
10.1771491853
 20
9.9475835813
 30
0.0
 10
10.1759543636
 20
9.9499134917
 30
0.0
 10
10.1752077095
 20
9.9513697377
 30
0.0
 10
10.1746101353
 20
9.9525346153
 30
0.0
 10
10.1741626418
 20
9.9534085999
 30
0.0
 10
10.1737875445
 20
9.9541358823
 30
0.0
 10
10.1735292665
 20
9.9546470171
 30
0.0
 10
10.1733749805
 20
9.9549359133
 30
0.0
 10
10.1732781359
 20
9.9551615458
 30
0.0
 10
10.173109161
 20
9.9553529274
 30
0.0
 10
10.172909021
 20
9.95562005
 30
0.0
 10
10.1725470537
 20
9.9560819482
 30
0.0
 10
10.172036086
 20
9.9567447129
 30
0.0
 10
10.1714203016
 20
9.9575387849
 30
0.0
 10
10.170600172
 20
9.9585979826
 30
0.0
 10
10.1695746962
 20
9.9599218308
 30
0.0
 10
10.1679341103
 20
9.9620400712
 30
0.0
 10
10.1658833175
 20
9.9646878428
 30
0.0
 10
10.1634223933
 20
9.9678651825
 30
0.0
 10
10.1609614571
 20
9.9710425133
 30
0.0
 10
10.1589106943
 20
9.9736903073
 30
0.0
 10
10.1572700485
 20
9.9758085028
 30
0.0
 10
10.156244725
 20
9.9771324651
 30
0.0
 10
10.1554242827
 20
9.9781914287
 30
0.0
 10
10.1548094534
 20
9.9789862162
 30
0.0
 10
10.1542954974
 20
9.9796467422
 30
0.0
 10
10.1539388647
 20
9.9801126368
 30
0.0
 10
10.1537301772
 20
9.9803733561
 30
0.0
 10
10.1535874577
 20
9.9805844066
 30
0.0
 10
10.1533920024
 20
9.9807361659
 30
0.0
 10
10.1531497902
 20
9.9809591931
 30
0.0
 10
10.1527173483
 20
9.9813398547
 30
0.0
 10
10.1521040549
 20
9.9818886948
 30
0.0
 10
10.151366185
 20
9.9825451467
 30
0.0
 10
10.1503830282
 20
9.9834211689
 30
0.0
 10
10.149153853
 20
9.9845159389
 30
0.0
 10
10.1471873007
 20
9.9862677148
 30
0.0
 10
10.144729067
 20
9.9884573862
 30
0.0
 10
10.1417792021
 20
9.9910850084
 30
0.0
 10
10.1388293443
 20
9.9937126422
 30
0.0
 10
10.1363710931
 20
9.9959022847
 30
0.0
 10
10.134404576
 20
9.9976541184
 30
0.0
 10
10.1331753112
 20
9.9987487415
 30
0.0
 10
10.1321923382
 20
9.9996250652
 30
0.0
 10
10.1314539068
 20
10.0002805961
 30
0.0
 10
10.1308423701
 20
10.0008323173
 30
0.0
 10
10.1303445669
 20
10.0012614813
 30
0.0
 10
10.1299946424
 20
10.0016167259
 30
0.0
 10
10.1295552929
 20
10.0018445905
 30
0.0
 10
10.1290007308
 20
10.0021929055
 30
0.0
 10
10.1282968109
 20
10.002613033
 30
0.0
 10
10.1274566943
 20
10.0031237204
 30
0.0
 10
10.1263349367
 20
10.0038023547
 30
0.0
 10
10.1249332882
 20
10.004651429
 30
0.0
 10
10.122690344
 20
10.006009511
 30
0.0
 10
10.1198867694
 20
10.0077072645
 30
0.0
 10
10.1165224325
 20
10.0097444991
 30
0.0
 10
10.1131581161
 20
10.0117817704
 30
0.0
 10
10.1103544903
 20
10.013479432
 30
0.0
 10
10.1081116485
 20
10.0148376978
 30
0.0
 10
10.1067097398
 20
10.0156863049
 30
0.0
 10
10.1055885161
 20
10.016365898
 30
0.0
 10
10.1047467682
 20
10.0168736561
 30
0.0
 10
10.1040479525
 20
10.0173029489
 30
0.0
 10
10.1034829769
 20
10.0176325649
 30
0.0
 10
10.1030754296
 20
10.017917535
 30
0.0
 10
10.1026061064
 20
10.0180583821
 30
0.0
 10
10.1020019212
 20
10.0182965223
 30
0.0
 10
10.101239286
 20
10.0185769247
 30
0.0
 10
10.1003272929
 20
10.018920801
 30
0.0
 10
10.0991101951
 20
10.0193767203
 30
0.0
 10
10.0975892019
 20
10.0199475036
 30
0.0
 10
10.095155401
 20
10.0208602629
 30
0.0
 10
10.0921132224
 20
10.0220013811
 30
0.0
 10
10.0884625775
 20
10.0233706522
 30
0.0
 10
10.0848119387
 20
10.0247399355
 30
0.0
 10
10.0817697448
 20
10.0258810234
 30
0.0
 10
10.0793359745
 20
10.0267938432
 30
0.0
 10
10.0778149034
 20
10.0273644726
 30
0.0
 10
10.0765979656
 20
10.0278207078
 30
0.0
 10
10.0756854837
 20
10.0281636191
 30
0.0
 10
10.0749243776
 20
10.0284470405
 30
0.0
 10
10.074392986
 20
10.0286500239
 30
0.0
 10
10.0740871747
 20
10.0287588499
 30
0.0
 10
10.073863898
 20
10.0288606519
 30
0.0
 10
10.0736173736
 20
10.0288853062
 30
0.0
 10
10.0732967834
 20
10.0289450887
 30
0.0
 10
10.0727319724
 20
10.02903717
 30
0.0
 10
10.0719270748
 20
10.0291752697
 30
0.0
 10
10.0709603522
 20
10.0293381837
 30
0.0
 10
10.069671684
 20
10.0295563822
 30
0.0
 10
10.0680607477
 20
10.0298287949
 30
0.0
 10
10.0654833061
 20
10.0302648427
 30
0.0
 10
10.0622614847
 20
10.0308098381
 30
0.0
 10
10.0583953073
 20
10.0314638602
 30
0.0
 10
10.0545291277
 20
10.0321178749
 30
0.0
 10
10.0493742224
 20
10.032989897
 30
0.0
 10
10.0455080432
 20
10.0336439131
 30
0.0
 10
10.0429305905
 20
10.0340799239
 30
0.0
  0
SPLINE
  5
36F
100
AcDbEntity
  8
0
100
AcDbSpline
 62
4
  6
CONTINUOUS
 70
0
 71
3
 72
307
 73
303
 74
0
 42
0.0000001
 43
0.0000001
 44
0.0000000001
 40
0.0
 40
0.0
 40
0.0
 40
0.0
 40
0.015625
 40
0.0234375
 40
0.03125
 40
0.0390625
 40
0.046875
 40
0.05078125
 40
0.0546875
 40
0.056640625
 40
0.05859375
 40
0.060546875
 40
0.0615234375
 40
0.0620117188
 40
0.0625
 40
0.0629882812
 40
0.0634765625
 40
0.064453125
 40
0.06640625
 40
0.068359375
 40
0.0703125
 40
0.07421875
 40
0.078125
 40
0.0859375
 40
0.09375
 40
0.1015625
 40
0.109375
 40
0.11328125
 40
0.1171875
 40
0.119140625
 40
0.12109375
 40
0.123046875
 40
0.1240234375
 40
0.1245117188
 40
0.125
 40
0.1254882812
 40
0.1259765625
 40
0.126953125
 40
0.12890625
 40
0.130859375
 40
0.1328125
 40
0.13671875
 40
0.140625
 40
0.1484375
 40
0.15625
 40
0.1640625
 40
0.171875
 40
0.17578125
 40
0.1796875
 40
0.181640625
 40
0.18359375
 40
0.185546875
 40
0.1865234375
 40
0.1870117188
 40
0.1875
 40
0.1879882812
 40
0.1884765625
 40
0.189453125
 40
0.19140625
 40
0.193359375
 40
0.1953125
 40
0.19921875
 40
0.203125
 40
0.2109375
 40
0.21875
 40
0.2265625
 40
0.234375
 40
0.23828125
 40
0.2421875
 40
0.244140625
 40
0.24609375
 40
0.248046875
 40
0.2490234375
 40
0.2495117188
 40
0.25
 40
0.2504882812
 40
0.2509765625
 40
0.251953125
 40
0.25390625
 40
0.255859375
 40
0.2578125
 40
0.26171875
 40
0.265625
 40
0.2734375
 40
0.28125
 40
0.2890625
 40
0.296875
 40
0.30078125
 40
0.3046875
 40
0.306640625
 40
0.30859375
 40
0.310546875
 40
0.3115234375
 40
0.3120117188
 40
0.3125
 40
0.3129882812
 40
0.3134765625
 40
0.314453125
 40
0.31640625
 40
0.318359375
 40
0.3203125
 40
0.32421875
 40
0.328125
 40
0.3359375
 40
0.34375
 40
0.3515625
 40
0.359375
 40
0.36328125
 40
0.3671875
 40
0.369140625
 40
0.37109375
 40
0.373046875
 40
0.3740234375
 40
0.3745117188
 40
0.375
 40
0.3754882812
 40
0.3759765625
 40
0.376953125
 40
0.37890625
 40
0.380859375
 40
0.3828125
 40
0.38671875
 40
0.390625
 40
0.3984375
 40
0.40625
 40
0.4140625
 40
0.421875
 40
0.42578125
 40
0.4296875
 40
0.431640625
 40
0.43359375
 40
0.435546875
 40
0.4365234375
 40
0.4370117188
 40
0.4375
 40
0.4379882812
 40
0.4384765625
 40
0.439453125
 40
0.44140625
 40
0.443359375
 40
0.4453125
 40
0.44921875
 40
0.453125
 40
0.4609375
 40
0.46875
 40
0.4765625
 40
0.484375
 40
0.48828125
 40
0.4921875
 40
0.494140625
 40
0.49609375
 40
0.498046875
 40
0.4990234375
 40
0.4995117188
 40
0.5
 40
0.5004882812
 40
0.5009765625
 40
0.501953125
 40
0.50390625
 40
0.505859375
 40
0.5078125
 40
0.51171875
 40
0.515625
 40
0.5234375
 40
0.53125
 40
0.5390625
 40
0.546875
 40
0.55078125
 40
0.5546875
 40
0.556640625
 40
0.55859375
 40
0.560546875
 40
0.5615234375
 40
0.5620117188
 40
0.5625
 40
0.5629882812
 40
0.5634765625
 40
0.564453125
 40
0.56640625
 40
0.568359375
 40
0.5703125
 40
0.57421875
 40
0.578125
 40
0.5859375
 40
0.59375
 40
0.6015625
 40
0.609375
 40
0.61328125
 40
0.6171875
 40
0.619140625
 40
0.62109375
 40
0.623046875
 40
0.6240234375
 40
0.625
 40
0.6259765625
 40
0.626953125
 40
0.62890625
 40
0.630859375
 40
0.6328125
 40
0.63671875
 40
0.640625
 40
0.6484375
 40
0.65625
 40
0.6640625
 40
0.671875
 40
0.67578125
 40
0.6796875
 40
0.681640625
 40
0.68359375
 40
0.685546875
 40
0.6865234375
 40
0.6870117188
 40
0.6875
 40
0.6879882812
 40
0.6884765625
 40
0.689453125
 40
0.69140625
 40
0.693359375
 40
0.6953125
 40
0.69921875
 40
0.703125
 40
0.7109375
 40
0.71875
 40
0.7265625
 40
0.734375
 40
0.73828125
 40
0.7421875
 40
0.744140625
 40
0.74609375
 40
0.748046875
 40
0.7490234375
 40
0.7495117188
 40
0.75
 40
0.7504882812
 40
0.7509765625
 40
0.751953125
 40
0.75390625
 40
0.755859375
 40
0.7578125
 40
0.76171875
 40
0.765625
 40
0.7734375
 40
0.78125
 40
0.7890625
 40
0.796875
 40
0.80078125
 40
0.8046875
 40
0.806640625
 40
0.80859375
 40
0.810546875
 40
0.8115234375
 40
0.8125
 40
0.8134765625
 40
0.814453125
 40
0.81640625
 40
0.818359375
 40
0.8203125
 40
0.82421875
 40
0.828125
 40
0.8359375
 40
0.84375
 40
0.8515625
 40
0.859375
 40
0.86328125
 40
0.8671875
 40
0.869140625
 40
0.87109375
 40
0.873046875
 40
0.8740234375
 40
0.875
 40
0.8759765625
 40
0.876953125
 40
0.87890625
 40
0.880859375
 40
0.8828125
 40
0.88671875
 40
0.890625
 40
0.8984375
 40
0.90625
 40
0.9140625
 40
0.921875
 40
0.92578125
 40
0.9296875
 40
0.931640625
 40
0.93359375
 40
0.935546875
 40
0.9365234375
 40
0.9370117188
 40
0.9375
 40
0.9379882812
 40
0.9384765625
 40
0.939453125
 40
0.94140625
 40
0.943359375
 40
0.9453125
 40
0.94921875
 40
0.953125
 40
0.9609375
 40
0.96875
 40
0.9765625
 40
0.984375
 40
1.0
 40
1.0
 40
1.0
 40
1.0
 10
10.0429306041
 20
10.034079923
 30
0.0
 10
10.0403977883
 20
10.0340072296
 30
0.0
 10
10.0365985645
 20
10.0338981897
 30
0.0
 10
10.031532933
 20
10.0337528024
 30
0.0
 10
10.0277337089
 20
10.0336437639
 30
0.0
 10
10.0239344864
 20
10.0335347178
 30
0.0
 10
10.0207684629
 20
10.0334438698
 30
0.0
 10
10.0182356546
 20
10.0333711381
 30
0.0
 10
10.0166526256
 20
10.0333258022
 30
0.0
 10
10.0153862568
 20
10.0332892555
 30
0.0
 10
10.0144363315
 20
10.0332626067
 30
0.0
 10
10.0136452001
 20
10.0332379776
 30
0.0
 10
10.0130904798
 20
10.0332254899
 30
0.0
 10
10.0127749462
 20
10.0332109331
 30
0.0
 10
10.0125342128
 20
10.0332209206
 30
0.0
 10
10.0123090877
 20
10.033150998
 30
0.0
 10
10.0120034766
 20
10.0330856414
 30
0.0
 10
10.0114711937
 20
10.0329582806
 30
0.0
 10
10.0107094633
 20
10.0327831261
 30
0.0
 10
10.0097959546
 20
10.0325700346
 30
0.0
 10
10.0085777447
 20
10.0322869276
 30
0.0
 10
10.0070550502
 20
10.0319326964
 30
0.0
 10
10.004618701
 20
10.0313661207
 30
0.0
 10
10.0015732778
 20
10.030657834
 30
0.0
 10
9.9979187635
 20
10.0298079205
 30
0.0
 10
9.9942642536
 20
10.028957992
 30
0.0
 10
9.9912188193
 20
10.0282497428
 30
0.0
 10
9.9887824923
 20
10.0276830921
 30
0.0
 10
9.9872597414
 20
10.0273290515
 30
0.0
 10
9.9860416473
 20
10.0270455532
 30
0.0
 10
9.9851277849
 20
10.0268336575
 30
0.0
 10
9.984367161
 20
10.0266547617
 30
0.0
 10
9.983832903
 20
10.0265340797
 30
0.0
 10
9.9835304565
 20
10.0264580218
 30
0.0
 10
9.9832956106
 20
10.0264209701
 30
0.0
 10
9.9830913868
 20
10.0263075
 30
0.0
 10
9.9828084071
 20
10.026182862
 30
0.0
 10
9.9823181693
 20
10.0259523263
 30
0.0
 10
9.9816152277
 20
10.0256294825
 30
0.0
 10
9.9807728114
 20
10.0252392908
 30
0.0
 10
9.9796492007
 20
10.0247200058
 30
0.0
 10
9.9782448206
 20
10.0240705672
 30
0.0
 10
9.9759977379
 20
10.0230316514
 30
0.0
 10
9.9731889103
 20
10.0217329423
 30
0.0
 10
9.9698183052
 20
10.0201745208
 30
0.0
 10
9.9664477068
 20
10.0186160848
 30
0.0
 10
9.9636388624
 20
10.0173174121
 30
0.0
 10
9.9613918132
 20
10.0162784236
 30
0.0
 10
9.9599873479
 20
10.0156291695
 30
0.0
 10
9.9588639121
 20
10.0151095059
 30
0.0
 10
9.9580209614
 20
10.0147204712
 30
0.0
 10
9.9573196921
 20
10.0143940071
 30
0.0
 10
9.9568264689
 20
10.0141699342
 30
0.0
 10
9.9565482724
 20
10.0140349412
 30
0.0
 10
9.9563293561
 20
10.0139532785
 30
0.0
 10
9.9561496929
 20
10.0137967633
 30
0.0
 10
9.9558964501
 20
10.0136141858
 30
0.0
 10
9.9554596545
 20
10.0132825103
 30
0.0
 10
9.9548323255
 20
10.0128150481
 30
0.0
 10
9.9540809583
 20
10.0122513711
 30
0.0
 10
9.9530786367
 20
10.0115007527
 30
0.0
 10
9.9518259055
 20
10.0105621541
 30
0.0
 10
9.9498214402
 20
10.0090605784
 30
0.0
 10
9.9473158915
 20
10.007183546
 30
0.0
 10
9.9443092175
 20
10.0049311354
 30
0.0
 10
9.9413025532
 20
10.0026787121
 30
0.0
 10
9.9387969801
 20
10.0008017113
 30
0.0
 10
9.9367925637
 20
9.9993000722
 30
0.0
 10
9.9355397078
 20
9.9983616346
 30
0.0
 10
9.9345376422
 20
9.9976106858
 30
0.0
 10
9.9337854932
 20
9.9970480182
 30
0.0
 10
9.9331606102
 20
9.996577398
 30
0.0
 10
9.9327194481
 20
9.9962513601
 30
0.0
 10
9.9324732014
 20
9.9960597498
 30
0.0
 10
9.9322720485
 20
9.9959309803
 30
0.0
 10
9.9321338441
 20
9.9957451095
 30
0.0
 10
9.9319276144
 20
9.9955171993
 30
0.0
 10
9.9315769427
 20
9.9951090766
 30
0.0
 10
9.9310706346
 20
9.9945308958
 30
0.0
 10
9.9304653542
 20
9.9938350022
 30
0.0
 10
9.9296575141
 20
9.9929078694
 30
0.0
 10
9.9286479878
 20
9.991748705
 30
0.0
 10
9.9270325926
 20
9.9898941808
 30
0.0
 10
9.9250134015
 20
9.9875759777
 30
0.0
 10
9.9225903479
 20
9.9847941557
 30
0.0
 10
9.9201673068
 20
9.9820123234
 30
0.0
 10
9.9181480845
 20
9.9796941458
 30
0.0
 10
9.9165327516
 20
9.9778395706
 30
0.0
 10
9.915523067
 20
9.976680536
 30
0.0
 10
9.9147155517
 20
9.9757531367
 30
0.0
 10
9.9141092791
 20
9.9750580572
 30
0.0
 10
9.9136060756
 20
9.9744773292
 30
0.0
 10
9.9132498616
 20
9.9740737538
 30
0.0
 10
9.9130525121
 20
9.9738385577
 30
0.0
 10
9.9128870307
 20
9.9736750668
 30
0.0
 10
9.9127883257
 20
9.9734622421
 30
0.0
 10
9.9126334266
 20
9.973195684
 30
0.0
 10
9.9123732056
 20
9.9727211897
 30
0.0
 10
9.9119957876
 20
9.9720475325
 30
0.0
 10
9.9115453145
 20
9.9712373495
 30
0.0
 10
9.9109438354
 20
9.9701577323
 30
0.0
 10
9.9101922771
 20
9.9688079962
 30
0.0
 10
9.9089896213
 20
9.9666485384
 30
0.0
 10
9.9074863578
 20
9.9639491748
 30
0.0
 10
9.9056824157
 20
9.960709957
 30
0.0
 10
9.9038784871
 20
9.957470731
 30
0.0
 10
9.9023751897
 20
9.9547713879
 30
0.0
 10
9.9011726016
 20
9.9526118891
 30
0.0
 10
9.9004208713
 20
9.9512622571
 30
0.0
 10
9.8998197452
 20
9.9501824262
 30
0.0
 10
9.8993681938
 20
9.9493728962
 30
0.0
 10
9.8989941494
 20
9.9486971961
 30
0.0
 10
9.8987279059
 20
9.9482263486
 30
0.0
 10
9.8985826564
 20
9.9479539473
 30
0.0
 10
9.8984543111
 20
9.9477590711
 30
0.0
 10
9.8984001534
 20
9.9475281687
 30
0.0
 10
9.8983020656
 20
9.9472328651
 30
0.0
 10
9.8981424688
 20
9.946710229
 30
0.0
 10
9.8979081699
 20
9.945966667
 30
0.0
 10
9.8976297093
 20
9.9450730824
 30
0.0
 10
9.8972574861
 20
9.9438820939
 30
0.0
 10
9.8967925298
 20
9.9423932016
 30
0.0
 10
9.8960484194
 20
9.9400110615
 30
0.0
 10
9.8951183436
 20
9.9370333561
 30
0.0
 10
9.8940022241
 20
9.9334601233
 30
0.0
 10
9.8928861193
 20
9.9298868842
 30
0.0
 10
9.8919560069
 20
9.9269091944
 30
0.0
 10
9.8912119698
 20
9.9245270232
 30
0.0
 10
9.890746827
 20
9.9230382098
 30
0.0
 10
9.8903749867
 20
9.9218470593
 30
0.0
 10
9.8900953562
 20
9.9209539698
 30
0.0
 10
9.8898647177
 20
9.9202088585
 30
0.0
 10
9.8896985865
 20
9.9196889882
 30
0.0
 10
9.8896109685
 20
9.9193892532
 30
0.0
 10
9.8895246508
 20
9.9191719627
 30
0.0
 10
9.889517093
 20
9.9189259625
 30
0.0
 10
9.8894795436
 20
9.9186079765
 30
0.0
 10
9.8894266321
 20
9.9180468352
 30
0.0
 10
9.8893443522
 20
9.917247644
 30
0.0
 10
9.8892484807
 20
9.9162875706
 30
0.0
 10
9.8891196515
 20
9.9150078373
 30
0.0
 10
9.8889589577
 20
9.9134080459
 30
0.0
 10
9.888701656
 20
9.9108484493
 30
0.0
 10
9.8883800951
 20
9.9076489297
 30
0.0
 10
9.8879941917
 20
9.9038095164
 30
0.0
 10
9.8876083037
 20
9.8999701005
 30
0.0
 10
9.8872867042
 20
9.8967705874
 30
0.0
 10
9.8870294796
 20
9.8942109778
 30
0.0
 10
9.8868685899
 20
9.8926112195
 30
0.0
 10
9.8867401628
 20
9.8913314182
 30
0.0
 10
9.8866430631
 20
9.8903715525
 30
0.0
 10
9.8865646258
 20
9.8895717114
 30
0.0
 10
9.8865048545
 20
9.8890117305
 30
0.0
 10
9.8864782961
 20
9.8886918852
 30
0.0
 10
9.8864369775
 20
9.8884515961
 30
0.0
 10
9.88647746
 20
9.8882128556
 30
0.0
 10
9.8865029035
 20
9.8878939948
 30
0.0
 10
9.8865607237
 20
9.88733624
 30
0.0
 10
9.8866363738
 20
9.8865393159
 30
0.0
 10
9.8867301288
 20
9.8855830632
 30
0.0
 10
9.8868540963
 20
9.8843080401
 30
0.0
 10
9.8870094116
 20
9.8827142678
 30
0.0
 10
9.8872577171
 20
9.8801642285
 30
0.0
 10
9.8875681677
 20
9.8769766807
 30
0.0
 10
9.887940677
 20
9.8731516224
 30
0.0
 10
9.8883132018
 20
9.8693265653
 30
0.0
 10
9.8886236138
 20
9.8661390147
 30
0.0
 10
9.8888719964
 20
9.863588981
 30
0.0
 10
9.8890271157
 20
9.8619951945
 30
0.0
 10
9.8891514855
 20
9.8607202006
 30
0.0
 10
9.8892440118
 20
9.8597638585
 30
0.0
 10
9.8893235061
 20
9.8589672142
 30
0.0
 10
9.8893744637
 20
9.8584089599
 30
0.0
 10
9.8894109029
 20
9.8580908993
 30
0.0
 10
9.8894176102
 20
9.8578497008
 30
0.0
 10
9.8895031453
 20
9.8576186438
 30
0.0
 10
9.8895896961
 20
9.8573070303
 30
0.0
 10
9.8897539709
 20
9.8567633549
 30
0.0
 10
9.8899819516
 20
9.8559858141
 30
0.0
 10
9.8902583951
 20
9.8550531339
 30
0.0
 10
9.8906259852
 20
9.8538094316
 30
0.0
 10
9.8910858157
 20
9.8522548477
 30
0.0
 10
9.8918213529
 20
9.849767489
 30
0.0
 10
9.8927408391
 20
9.8466582985
 30
0.0
 10
9.8938441998
 20
9.8429272683
 30
0.0
 10
9.8949475479
 20
9.8391962321
 30
0.0
 10
9.8958670654
 20
9.8360870565
 30
0.0
 10
9.8966025399
 20
9.8335996682
 30
0.0
 10
9.8970625299
 20
9.8320451596
 30
0.0
 10
9.8974297925
 20
9.8308013027
 30
0.0
 10
9.8977072366
 20
9.8298690947
 30
0.0
 10
9.8979320867
 20
9.8290900766
 30
0.0
 10
9.8981262163
 20
9.8284717472
 30
0.0
 10
9.8982328769
 20
9.8279946518
 30
0.0
 10
9.8984881592
 20
9.827568507
 30
0.0
 10
9.8987766201
 20
9.8269825163
 30
0.0
 10
9.8991550083
 20
9.8262561341
 30
0.0
 10
9.8996014499
 20
9.8253818619
 30
0.0
 10
9.9001993684
 20
9.8242170784
 30
0.0
 10
9.9009458548
 20
9.8227607865
 30
0.0
 10
9.9021407424
 20
9.8204308942
 30
0.0
 10
9.9036341776
 20
9.817518469
 30
0.0
 10
9.9054263728
 20
9.8140235836
 30
0.0
 10
9.9072185549
 20
9.8105286945
 30
0.0
 10
9.908712023
 20
9.8076162784
 30
0.0
 10
9.9099068447
 20
9.805286368
 30
0.0
 10
9.9106534988
 20
9.803830122
 30
0.0
 10
9.911251073
 20
9.8026652443
 30
0.0
 10
9.9116985665
 20
9.8017912598
 30
0.0
 10
9.9120736637
 20
9.8010639774
 30
0.0
 10
9.9123319418
 20
9.8005528426
 30
0.0
 10
9.9124862278
 20
9.8002639463
 30
0.0
 10
9.9125830724
 20
9.8000383138
 30
0.0
 10
9.9127520473
 20
9.7998469322
 30
0.0
 10
9.9129521872
 20
9.7995798096
 30
0.0
 10
9.9133141546
 20
9.7991179114
 30
0.0
 10
9.9138251223
 20
9.7984551467
 30
0.0
 10
9.9144409067
 20
9.7976610748
 30
0.0
 10
9.9152610363
 20
9.796601877
 30
0.0
 10
9.9162865121
 20
9.7952780288
 30
0.0
 10
9.917927098
 20
9.7931597884
 30
0.0
 10
9.9199778908
 20
9.7905120168
 30
0.0
 10
9.922438815
 20
9.7873346771
 30
0.0
 10
9.9248997512
 20
9.7841573464
 30
0.0
 10
9.926950514
 20
9.7815095523
 30
0.0
 10
9.9285911598
 20
9.7793913568
 30
0.0
 10
9.9296164833
 20
9.7780673945
 30
0.0
 10
9.9304369256
 20
9.777008431
 30
0.0
 10
9.9310517549
 20
9.7762136435
 30
0.0
 10
9.9315657109
 20
9.7755531175
 30
0.0
 10
9.9319223435
 20
9.7750872228
 30
0.0
 10
9.9321310311
 20
9.7748265036
 30
0.0
 10
9.9322737506
 20
9.774615453
 30
0.0
 10
9.9324692059
 20
9.7744636937
 30
0.0
 10
9.9327114181
 20
9.7742406666
 30
0.0
 10
9.93314386
 20
9.7738600049
 30
0.0
 10
9.9337571534
 20
9.7733111648
 30
0.0
 10
9.9344950233
 20
9.772654713
 30
0.0
 10
9.93547818
 20
9.7717786907
 30
0.0
 10
9.9367073553
 20
9.7706839208
 30
0.0
 10
9.9386739076
 20
9.7689321449
 30
0.0
 10
9.9411321413
 20
9.7667424734
 30
0.0
 10
9.9440820061
 20
9.7641148512
 30
0.0
 10
9.947031864
 20
9.7614872175
 30
0.0
 10
9.9494901152
 20
9.7592975749
 30
0.0
 10
9.9514566323
 20
9.7575457412
 30
0.0
 10
9.9526858971
 20
9.7564511181
 30
0.0
 10
9.9536688701
 20
9.7555747945
 30
0.0
 10
9.9544073015
 20
9.7549192635
 30
0.0
 10
9.9550188382
 20
9.7543675423
 30
0.0
 10
9.9555166414
 20
9.7539383783
 30
0.0
 10
9.9558665659
 20
9.7535831337
 30
0.0
 10
9.9563059154
 20
9.7533552691
 30
0.0
 10
9.9568604775
 20
9.7530069542
 30
0.0
 10
9.9575643974
 20
9.7525868266
 30
0.0
 10
9.958404514
 20
9.7520761392
 30
0.0
 10
9.9595262716
 20
9.7513975049
 30
0.0
 10
9.9609279201
 20
9.7505484306
 30
0.0
 10
9.9631708643
 20
9.7491903487
 30
0.0
 10
9.9659744389
 20
9.7474925952
 30
0.0
 10
9.9693387758
 20
9.7454553606
 30
0.0
 10
9.9727030922
 20
9.7434180892
 30
0.0
 10
9.975506718
 20
9.7417204276
 30
0.0
 10
9.9777495598
 20
9.7403621619
 30
0.0
 10
9.9791514685
 20
9.7395135547
 30
0.0
 10
9.9802726922
 20
9.7388339616
 30
0.0
 10
9.9811144401
 20
9.7383262035
 30
0.0
 10
9.9818132558
 20
9.7378969107
 30
0.0
 10
9.9823782314
 20
9.7375672947
 30
0.0
 10
9.9827857787
 20
9.7372823247
 30
0.0
 10
9.9832551019
 20
9.7371414776
 30
0.0
 10
9.9838592871
 20
9.7369033374
 30
0.0
 10
9.9846219222
 20
9.7366229349
 30
0.0
 10
9.9855339154
 20
9.7362790587
 30
0.0
 10
9.9867510132
 20
9.7358231393
 30
0.0
 10
9.9882720064
 20
9.735252356
 30
0.0
 10
9.9907058073
 20
9.7343395968
 30
0.0
 10
9.9937479859
 20
9.7331984786
 30
0.0
 10
9.9973986308
 20
9.7318292074
 30
0.0
 10
10.0010492696
 20
9.7304599242
 30
0.0
 10
10.0040914635
 20
9.7293188363
 30
0.0
 10
10.0065252338
 20
9.7284060165
 30
0.0
 10
10.0080463049
 20
9.727835387
 30
0.0
 10
10.0092632427
 20
9.7273791519
 30
0.0
 10
10.0101757246
 20
9.7270362405
 30
0.0
 10
10.0109368307
 20
9.7267528191
 30
0.0
 10
10.0114682223
 20
9.7265498357
 30
0.0
 10
10.0117740336
 20
9.7264410097
 30
0.0
 10
10.0119973102
 20
9.7263392077
 30
0.0
 10
10.0122438347
 20
9.7263145534
 30
0.0
 10
10.0125644249
 20
9.726254771
 30
0.0
 10
10.0131292359
 20
9.7261626896
 30
0.0
 10
10.0139341335
 20
9.7260245899
 30
0.0
 10
10.0149008561
 20
9.725861676
 30
0.0
 10
10.0161895243
 20
9.7256434774
 30
0.0
 10
10.0178004606
 20
9.7253710647
 30
0.0
 10
10.0203779022
 20
9.7249350169
 30
0.0
 10
10.0235997236
 20
9.7243900215
 30
0.0
 10
10.027465901
 20
9.7237359995
 30
0.0
 10
10.0313320806
 20
9.7230819848
 30
0.0
 10
10.0364869859
 20
9.7222099626
 30
0.0
 10
10.0403531651
 20
9.7215559466
 30
0.0
 10
10.0429306178
 20
9.7211199357
 30
0.0
  0
ENDSEC
  0
SECTION
  2
OBJECTS
  0
DICTIONARY
  5
C
100
AcDbDictionary
280
0
281
1
  3
ACAD_GROUP
350
D
  3
ACAD_MLINESTYLE
350
17
  3
ACAD_LAYOUT
350
1A
  3
ACAD_PLOTSETTINGS
350
19
  3
ACAD_PLOTSTYLENAME
350
E
  3
ACAD_IMAGE_DICT
350
       371
  3
ACAD_IMAGE_VARS
350
       372
  3
ACAD_TABLESTYLE
350
       373
  0
IMAGEDEF_REACTOR
  5
370
100
AcDbRasterImageDefReactor
 90
2
330
292
  0
DICTIONARY
  5
D
102
{ACAD_REACTORS
330
C
102
}
100
AcDbDictionary
280
0
281
1
  0
ACDBDICTIONARYWDFLT
  5
E
102
{ACAD_REACTORS
330
C
102
}
100
AcDbDictionary
281
1
  3
Normal
350
F
100
AcDbDictionaryWithDefault
340
F
  0
DICTIONARY
  5
371
330
C
100
AcDbDictionary
281
1
  3
K2M_assy_2_img_1
350
       376
  0
RASTERVARIABLES
  5
372
330
C
100
AcDbRasterVariables
 90
0
 70
0
 71
1
 72
5
  0
DICTIONARY
  5
17
102
{ACAD_REACTORS
330
C
102
}
100
AcDbDictionary
280
0
281
1
  3
Standard
350
18
  0
DICTIONARY
  5
373
330
C
100
AcDbDictionary
281
1
  3
Standard
350
       377
  3
Standard1
350
       378
  0
DICTIONARY
  5
19
102
{ACAD_REACTORS
330
C
102
}
100
AcDbDictionary
281
1
  0
DICTIONARY
  5
1A
102
{ACAD_REACTORS
330
C
102
}
100
AcDbDictionary
281
1
  3
Model
350
374
  3
Layout1
350
375
  0
ACDBPLACEHOLDER
  5
F
102
{ACAD_REACTORS
330
E
102
}
  0
MLINESTYLE
  5
18
102
{ACAD_REACTORS
330
17
102
}
100
AcDbMlineStyle
  2
STANDARD
 70
0
  3

 62
256
 51
90.0
 52
90.0
 71
2
 49
0.5
 62
256
  6
BYLAYER
 49
-0.5
 62
256
  6
BYLAYER
  0
LAYOUT
  5
374
102
{ACAD_REACTORS
330
1A
102
}
100
AcDbPlotSettings
  1

  2
none_device
  4
ANSI_C_(22.00_x_17.00_Inches)
  6

 40
0.0
 41
0.0
 42
0.0
 43
0.0
 44
558.8
 45
431.8
 46
0.0
 47
0.0
 48
0.0
 49
0.0
140
0.0
141
0.0
142
1.0
143
1.0
 70
1024
 72
0
 73
0
 74
0
  7

 75
0
147
1.0
148
0.0
149
0.0
100
AcDbLayout
  1
Model
 70
0
 71
0
 10
0.0
 20
0.0
 11
22.0
 21
17.0
 12
0.0
 22
0.0
 32
0.0
 14
0.0
 24
0.0
 34
0.0
 15
0.0
 25
0.0
 35
0.0
146
0.0
 13
0.0
 23
0.0
 33
0.0
 16
1.0
 26
0.0
 36
0.0
 17
0.0
 27
1.0
 37
0.0
 76
0
330
20C
345
0
346
0
  0
LAYOUT
  5
375
102
{ACAD_REACTORS
330
1A
102
}
100
AcDbPlotSettings
  1

  2
none_device
  4
ANSI_C_(22.00_x_17.00_Inches)
  6

 40
0.0
 41
0.0
 42
0.0
 43
0.0
 44
558.8
 45
431.8
 46
0.0
 47
0.0
 48
0.0
 49
0.0
140
0.0
141
0.0
142
1.0
143
1.0
 70
0
 72
0
 73
0
 74
0
  7

 75
0
147
1.0
148
0.0
149
0.0
100
AcDbLayout
  1
Layout1
 70
0
 71
1
 10
0.0
 20
0.0
 11
22.0
 21
17.0
 12
0.0
 22
0.0
 32
0.0
 14
0.0
 24
0.0
 34
0.0
 15
0.0
 25
0.0
 35
0.0
146
0.0
 13
0.0
 23
0.0
 33
0.0
 16
1.0
 26
0.0
 36
0.0
 17
0.0
 27
1.0
 37
0.0
 76
0
330
20D
345
0
346
0
  0
IMAGEDEF
  5
376
102
{ACAD_REACTORS
330
371
330
370
102
}
100
AcDbRasterImageDef
 90
0
  1
K2M_assy_2_img_1.png
 10
369.0
 20
92.0
 11
0.0066666667
 21
0.0066666667
280
1
281
0
  0
TABLESTYLE
  5
377
102
{ACAD_REACTORS
330
373
330
295
330
296
102
}
330
373
100
AcDbTableStyle
  3
Standard
 70
0
 71
0
 40
0.06
 41
0.06
280
1
281
1
  7
Standard
140
0.18
170
1
 62
0
 63
7
283
0
  7
Standard
140
0.18
170
1
 62
0
 63
7
283
0
  7
Standard
140
0.18
170
1
 62
0
 63
7
283
0
  0
TABLESTYLE
  5
378
102
{ACAD_REACTORS
330
373
330
294
102
}
330
373
100
AcDbTableStyle
  3
Standard1
 70
1
 71
0
 40
0.06
 41
0.06
280
1
281
1
  7
Standard
140
0.18
170
1
 62
0
 63
7
283
0
  7
Standard
140
0.18
170
1
 62
0
 63
7
283
0
  7
Standard
140
0.18
170
1
 62
0
 63
7
283
0
  0
ENDSEC
  0
EOF
