999
DXF file: K2D_assy_2.dxf
999
Pro/ENGINEER 2014200 by Parametric Technology Corporation
  0
SECTION
  2
HEADER
  9
$ACADVER
  1
AC1021
  9
$DWGCODEPAGE
  3
ANSI_1252
  9
$EXTMAX
 10
22.0
 20
17.0
 30
0.0
  9
$EXTMIN
 10
0.0
 20
0.0
 30
0.0
  9
$LIMMIN
 10
0.0
 20
0.0
  9
$LIMMAX
 10
22.0
 20
17.0
  9
$VIEWCTR
 10
11.0
 20
8.5
  9
$VIEWSIZE
 40
17.0
  9
$CLAYER
  8
0
  9
$LTSCALE
 40
1.21
  9
$CELTYPE
  6
BYLAYER
  9
$DIMSCALE
 40
1.0
  9
$DIMASZ
 40
0.1875
  9
$DIMEXO
 40
0.0625
  9
$DIMDLI
 40
0.836
  9
$DIMEXE
 40
0.125
  9
$DIMCEN
 40
0.198
  9
$DIMLFAC
 40
1.0
  9
$DIMBLK
  1
_FILLED
  9
$DIMTXT
 40
0.1
  9
$DIMTOL
 70
0
  9
$DIMLIM
 70
0
  9
$DIMTFAC
 40
1.0
  9
$DIMGAP
 40
0.09
  9
$DIMDSEP
 70
46
  9
$AUNITS
 70
0
  9
$PDMODE
 70
3
  9
$PDSIZE
 40
0.3125
  9
$HANDSEED
  5
38D
  9
$TILEMODE
 70
1
  9
$MEASUREMENT
 70
0
  9
$INSUNITS
 70
1
  0
ENDSEC
  0
SECTION
  2
CLASSES
  0
CLASS
  1
ACDBDICTIONARYWDFLT
  2
AcDbDictionaryWithDefault
  3
AutoCAD 2000
 90
0
 91
1
280
0
281
0
  0
CLASS
  1
ACDBPLACEHOLDER
  2
AcDbPlaceHolder
  3
AutoCAD 2000
 90
0
 91
1
280
0
281
0
  0
CLASS
  1
LAYOUT
  2
AcDbLayout
  3
AutoCAD 2000
 90
0
 91
0
280
0
281
0
  0
CLASS
  1
RASTERVARIABLES
  2
AcDbRasterVariables
  3
ISM
 90
0
 91
1
280
0
281
0
  0
CLASS
  1
IMAGEDEF
  2
AcDbRasterImageDef
  3
ISM
 90
0
 91
1
280
0
281
0
  0
CLASS
  1
IMAGEDEF_REACTOR
  2
AcDbRasterImageDefReactor
  3
ISM
 90
0
 91
1
280
0
281
0
  0
CLASS
  1
IMAGE
  2
AcDbRasterImage
  3
ISM
 90
127
 91
1
280
0
281
1
  0
CLASS
  1
TABLESTYLE
  2
AcDbTableStyle
  3
ObjectDBX Classes
 90
2047
 91
1
280
0
281
0
  0
CLASS
  1
ACAD_TABLE
  2
AcDbTable
  3
ObjectDBX Classes
 90
1025
 91
3
280
0
281
1
  0
ENDSEC
  0
SECTION
  2
TABLES
  0
TABLE
  2
VPORT
  5
8
100
AcDbSymbolTable
 70
2
  0
VPORT
  5
1F4
100
AcDbSymbolTableRecord
100
AcDbViewportTableRecord
  2
*ACTIVE
 70
0
 10
0.0
 20
0.0
 11
1.0
 21
1.0
 12
11.0
 22
8.5
 13
0.0
 23
0.0
 14
1.0
 24
1.0
 15
0.0
 25
0.0
 16
0.0
 26
0.0
 36
1.0
 17
0.0
 27
0.0
 37
0.0
 40
17.0
 41
1.2941176471
 42
50.0
 43
0.0
 44
0.0
 50
0.0
 51
0.0
 71
0
 72
100
 73
1
 74
1
 75
0
 76
0
 77
0
 78
0
  0
ENDTAB
  0
TABLE
  2
LTYPE
  5
5
100
AcDbSymbolTable
 70
6
  0
LTYPE
  5
14
100
AcDbSymbolTableRecord
100
AcDbLinetypeTableRecord
  2
BYBLOCK
 70
0
  3

 72
65
 73
0
 40
0.0
  0
LTYPE
  5
15
100
AcDbSymbolTableRecord
100
AcDbLinetypeTableRecord
  2
BYLAYER
 70
0
  3

 72
65
 73
0
 40
0.0
  0
LTYPE
  5
16
100
AcDbSymbolTableRecord
100
AcDbLinetypeTableRecord
  2
CONTINUOUS
 70
64
  3
Solid line
 72
65
 73
0
 40
0.0
  0
LTYPE
  5
1F5
100
AcDbSymbolTableRecord
100
AcDbLinetypeTableRecord
  2
CENTER
 70
64
  3
____ _ ____ _ ____ _ ____ _ ____ _ ____ _ ____
 72
65
 73
4
 40
0.6
 49
0.375
 74
0
 49
-0.075
 74
0
 49
0.075
 74
0
 49
-0.075
 74
0
  0
LTYPE
  5
1F6
100
AcDbSymbolTableRecord
100
AcDbLinetypeTableRecord
  2
HIDDEN
 70
64
  3
- - - - - - - - - - - - - - - - - - - -
 72
65
 73
2
 40
0.2
 49
0.1
 74
0
 49
-0.1
 74
0
  0
LTYPE
  5
1F7
100
AcDbSymbolTableRecord
100
AcDbLinetypeTableRecord
  2
PHANTOM
 70
64
  3
_____ _ _ _____ _ _ _____ _ _ _____
 72
65
 73
6
 40
0.8
 49
0.45
 74
0
 49
-0.05
 74
0
 49
0.1
 74
0
 49
-0.05
 74
0
 49
0.1
 74
0
 49
-0.05
 74
0
  0
LTYPE
  5
1F8
100
AcDbSymbolTableRecord
100
AcDbLinetypeTableRecord
  2
DOT
 70
64
  3
. . . . . . . . . . . . . . . . . . . .
 72
65
 73
2
 40
0.2
 49
0.1
 74
0
 49
-0.1
 74
0
  0
LTYPE
  5
1F9
100
AcDbSymbolTableRecord
100
AcDbLinetypeTableRecord
  2
DASHED
 70
64
  3
- - - - - - - - - - - - - - - - - - - -
 72
65
 73
2
 40
0.2
 49
0.1
 74
0
 49
-0.1
 74
0
  0
ENDTAB
  0
TABLE
  2
LAYER
  5
2
100
AcDbSymbolTable
 70
36
  0
LAYER
  5
10
100
AcDbSymbolTableRecord
100
AcDbLayerTableRecord
  2
0
 70
0
 62
7
  6
CONTINUOUS
370
-3
390
F
  0
LAYER
  5
1FA
100
AcDbSymbolTableRecord
100
AcDbLayerTableRecord
  2
DEFAULT_1
 70
0
 62
7
  6
CENTER
370
-3
390
F
  0
LAYER
  5
1FB
100
AcDbSymbolTableRecord
100
AcDbLayerTableRecord
  2
DEFAULT_2
 70
0
 62
8
  6
HIDDEN
370
-3
390
F
  0
LAYER
  5
1FC
100
AcDbSymbolTableRecord
100
AcDbLayerTableRecord
  2
DEFAULT_3
 70
0
 62
7
  6
PHANTOM
370
-3
390
F
  0
LAYER
  5
1FD
100
AcDbSymbolTableRecord
100
AcDbLayerTableRecord
  2
01___PRT_ALL_DTM_PLN
 70
0
 62
7
  6
CONTINUOUS
370
-3
390
F
  0
LAYER
  5
1FE
100
AcDbSymbolTableRecord
100
AcDbLayerTableRecord
  2
01___PRT_DEF_DTM_PLN
 70
0
 62
7
  6
CONTINUOUS
370
-3
390
F
  0
LAYER
  5
1FF
100
AcDbSymbolTableRecord
100
AcDbLayerTableRecord
  2
02___PRT_ALL_AXES
 70
0
 62
7
  6
CONTINUOUS
370
-3
390
F
  0
LAYER
  5
200
100
AcDbSymbolTableRecord
100
AcDbLayerTableRecord
  2
03___PRT_ALL_CURVES
 70
0
 62
7
  6
CONTINUOUS
370
-3
390
F
  0
LAYER
  5
201
100
AcDbSymbolTableRecord
100
AcDbLayerTableRecord
  2
04___PRT_ALL_DTM_PNT
 70
0
 62
7
  6
CONTINUOUS
370
-3
390
F
  0
LAYER
  5
202
100
AcDbSymbolTableRecord
100
AcDbLayerTableRecord
  2
05___PRT_ALL_DTM_CSYS
 70
0
 62
7
  6
CONTINUOUS
370
-3
390
F
  0
LAYER
  5
203
100
AcDbSymbolTableRecord
100
AcDbLayerTableRecord
  2
05___PRT_DEF_DTM_CSYS
 70
0
 62
7
  6
CONTINUOUS
370
-3
390
F
  0
LAYER
  5
204
100
AcDbSymbolTableRecord
100
AcDbLayerTableRecord
  2
06___PRT_ALL_SURFS
 70
0
 62
7
  6
CONTINUOUS
370
-3
390
F
  0
LAYER
  5
205
100
AcDbSymbolTableRecord
100
AcDbLayerTableRecord
  2
DATUM_PLANES
 70
0
 62
7
  6
CONTINUOUS
370
-3
390
F
  0
LAYER
  5
206
100
AcDbSymbolTableRecord
100
AcDbLayerTableRecord
  2
PORT_AREAS
 70
0
 62
7
  6
CONTINUOUS
370
-3
390
F
  0
LAYER
  5
207
100
AcDbSymbolTableRecord
100
AcDbLayerTableRecord
  2
SUNNBOMCOSMETIC
 70
0
 62
7
  6
CONTINUOUS
370
-3
390
F
  0
LAYER
  5
208
100
AcDbSymbolTableRecord
100
AcDbLayerTableRecord
  2
SUNNBOMSTAMPING
 70
0
 62
7
  6
CONTINUOUS
370
-3
390
F
  0
LAYER
  5
209
100
AcDbSymbolTableRecord
100
AcDbLayerTableRecord
  2
THREADS
 70
0
 62
7
  6
CONTINUOUS
370
-3
390
F
  0
ENDTAB
  0
TABLE
  2
STYLE
  5
3
100
AcDbSymbolTable
 70
1
  0
STYLE
  5
11
100
AcDbSymbolTableRecord
100
AcDbTextStyleTableRecord
  2
STANDARD
 70
0
 40
0.0
 41
0.8
 50
0.0
 71
0
 42
0.2
  3
txt
  4

  0
STYLE
  5
20A
100
AcDbSymbolTableRecord
100
AcDbTextStyleTableRecord
  2
TEXTSTYLE_1
 70
0
 40
0.0
 41
0.8
 50
0.0
 71
0
 42
0.2
  3
gdt
  4

  0
ENDTAB
  0
TABLE
  2
VIEW
  5
6
100
AcDbSymbolTable
 70
0
  0
ENDTAB
  0
TABLE
  2
UCS
  5
7
100
AcDbSymbolTable
 70
0
  0
ENDTAB
  0
TABLE
  2
APPID
  5
9
100
AcDbSymbolTable
 70
1
  0
APPID
  5
20B
100
AcDbSymbolTableRecord
100
AcDbRegAppTableRecord
  2
ACAD
 70
0
  0
ENDTAB
  0
TABLE
  2
BLOCK_RECORD
  5
1
100
AcDbSymbolTable
 70
0
  0
BLOCK_RECORD
  5
20C
100
AcDbSymbolTableRecord
100
AcDbBlockTableRecord
  2
*Model_Space
  0
BLOCK_RECORD
  5
20D
100
AcDbSymbolTableRecord
100
AcDbBlockTableRecord
  2
*Paper_Space
  0
BLOCK_RECORD
  5
20E
100
AcDbSymbolTableRecord
100
AcDbBlockTableRecord
  2
SUN_FIRST_THIRD_ANGLE_BL0
  0
BLOCK_RECORD
  5
20F
100
AcDbSymbolTableRecord
100
AcDbBlockTableRecord
  2
*T1
  0
BLOCK_RECORD
  5
210
100
AcDbSymbolTableRecord
100
AcDbBlockTableRecord
  2
*T2
  0
BLOCK_RECORD
  5
211
100
AcDbSymbolTableRecord
100
AcDbBlockTableRecord
  2
*T3
  0
ENDTAB
  0
TABLE
  2
DIMSTYLE
  5
A
100
AcDbSymbolTable
 70
1
100
AcDbDimStyleTable
 71
0
  0
DIMSTYLE
105
212
100
AcDbSymbolTableRecord
100
AcDbDimStyleTableRecord
  2
STANDARD
 70
0
  3

  4

 40
1.0
 41
0.1875
 42
0.0625
 43
0.38
 44
0.125
 45
0.0
 46
0.0
 47
0.001
 48
0.001
140
0.1
141
0.09
142
0.0
143
25.4
144
1.0
145
0.0
146
1.0
147
0.09
 71
0.0
 72
0.0
 73
1
 74
1
 75
0
 76
0
 77
0
 78
4
170
0
171
2
172
0
173
0
174
0
175
0
176
0
177
0
178
0
270
2
271
3
272
3
273
2
274
2
275
0
280
0
281
0
282
0
283
1
284
4
285
0
286
0
287
3
288
0
340
11
278
46
  0
ENDTAB
  0
ENDSEC
  0
SECTION
  2
BLOCKS
  0
BLOCK
  5
20
100
AcDbEntity
  8
0
100
AcDbBlockBegin
  2
*Model_Space
 70
0
 10
0.0
 20
0.0
 30
0.0
  3
*Model_Space
  1

  0
ENDBLK
  5
21
100
AcDbEntity
  8
0
100
AcDbBlockEnd
  0
BLOCK
  5
1C
100
AcDbEntity
  8
0
100
AcDbBlockBegin
  2
*Paper_Space
 70
0
 10
0.0
 20
0.0
 30
0.0
  3
*Paper_Space
  1

  0
ENDBLK
  5
1D
100
AcDbEntity
  8
0
100
AcDbBlockEnd
  0
BLOCK
  5
213
100
AcDbEntity
  8
0
100
AcDbBlockBegin
 62
2
  6
CONTINUOUS
  2
SUN_FIRST_THIRD_ANGLE_BL0
 70
64
 10
20.4816717061
 20
1.2289683772
  3
SUN_FIRST_THIRD_ANGLE_BL0
  1

  0
TEXT
  5
214
100
AcDbEntity
  8
0
100
AcDbText
 62
2
  6
CONTINUOUS
 10
19.4750896608
 20
1.4136269581
  7
STANDARD
 40
0.08
  1
FIRST ANGLE
 41
0.8
 72
0
100
AcDbText
  0
TEXT
  5
215
100
AcDbEntity
  8
0
100
AcDbText
 62
2
  6
CONTINUOUS
 10
20.7842537513
 20
1.4047600029
  7
STANDARD
 40
0.08
  1
THIRD ANGLE
 41
0.8
 72
0
100
AcDbText
  0
LINE
  5
216
100
AcDbEntity
  8
0
100
AcDbLine
 62
7
  6
CONTINUOUS
 10
19.4767170086
 20
1.1727031207
 11
19.6334271527
 21
1.1717972817
  0
LINE
  5
217
100
AcDbEntity
  8
0
100
AcDbLine
 62
7
  6
CONTINUOUS
 10
19.6596964832
 20
1.1717972817
 11
19.6950230232
 21
1.171593082
  0
LINE
  5
218
100
AcDbEntity
  8
0
100
AcDbLine
 62
7
  6
CONTINUOUS
 10
19.7194818561
 20
1.1708914427
 11
19.8852396156
 21
1.1699333054
  0
LINE
  5
219
100
AcDbEntity
  8
0
100
AcDbLine
 62
7
  6
CONTINUOUS
 10
19.4758111696
 20
1.2723454088
 11
19.88525039
 21
1.3511534004
  0
LINE
  5
21A
100
AcDbEntity
  8
0
100
AcDbLine
 62
7
  6
CONTINUOUS
 10
19.88525039
 20
1.3511534004
 11
19.8831348489
 21
0.9851647912
  0
LINE
  5
21B
100
AcDbEntity
  8
0
100
AcDbLine
 62
7
  6
CONTINUOUS
 10
19.8831348489
 20
0.9851647912
 11
19.4767170086
 21
1.0658141206
  0
LINE
  5
21C
100
AcDbEntity
  8
0
100
AcDbLine
 62
7
  6
CONTINUOUS
 10
19.4767170086
 20
1.0658141206
 11
19.4779056764
 21
1.2714536432
  0
CIRCLE
  5
21D
100
AcDbEntity
  8
0
100
AcDbCircle
 62
7
  6
CONTINUOUS
 10
20.2068232291
 20
1.1717972817
 40
0.175742101
  0
CIRCLE
  5
21E
100
AcDbEntity
  8
0
100
AcDbCircle
 62
7
  6
CONTINUOUS
 10
20.2068232291
 20
1.1717972817
 40
0.1005522074
  0
LINE
  5
21F
100
AcDbEntity
  8
0
100
AcDbLine
 62
7
  6
CONTINUOUS
 10
20.2077290681
 20
1.3756110529
 11
20.2071171714
 21
1.2379342989
  0
LINE
  5
220
100
AcDbEntity
  8
0
100
AcDbLine
 62
7
  6
CONTINUOUS
 10
20.2077290681
 20
1.2016899681
 11
20.2074674401
 21
1.1428236749
  0
LINE
  5
221
100
AcDbEntity
  8
0
100
AcDbLine
 62
7
  6
CONTINUOUS
 10
20.208634907
 20
1.101141841
 11
20.2080230104
 21
0.963465087
  0
LINE
  5
222
100
AcDbEntity
  8
0
100
AcDbLine
 62
7
  6
CONTINUOUS
 10
20.0066328138
 20
1.1745147986
 11
20.1443095678
 21
1.1739029019
  0
LINE
  5
223
100
AcDbEntity
  8
0
100
AcDbLine
 62
7
  6
CONTINUOUS
 10
20.1832714155
 20
1.1727031207
 11
20.238153505
 21
1.172335442
  0
LINE
  5
224
100
AcDbEntity
  8
0
100
AcDbLine
 62
7
  6
CONTINUOUS
 10
20.2756669918
 20
1.1717972817
 11
20.407916871
 21
1.1712095044
  0
CIRCLE
  5
225
100
AcDbEntity
  8
0
100
AcDbCircle
 62
7
  6
CONTINUOUS
 10
20.7509457401
 20
1.1693297793
 40
0.1722024983
  0
CIRCLE
  5
226
100
AcDbEntity
  8
0
100
AcDbCircle
 62
7
  6
CONTINUOUS
 10
20.7509457401
 20
1.1693297793
 40
0.0985164967
  0
LINE
  5
227
100
AcDbEntity
  8
0
100
AcDbLine
 62
7
  6
CONTINUOUS
 10
20.7169767782
 20
1.170462078
 11
20.7825395137
 21
1.1682766535
  0
LINE
  5
228
100
AcDbEntity
  8
0
100
AcDbLine
 62
7
  6
CONTINUOUS
 10
20.8177513651
 20
1.1693297793
 11
20.947965719
 21
1.1693297793
  0
LINE
  5
229
100
AcDbEntity
  8
0
100
AcDbLine
 62
7
  6
CONTINUOUS
 10
20.6875370113
 20
1.170462078
 11
20.5573226574
 21
1.170462078
  0
LINE
  5
22A
100
AcDbEntity
  8
0
100
AcDbLine
 62
7
  6
CONTINUOUS
 10
20.7486811426
 20
1.1987695462
 11
20.7486811426
 21
1.1432869085
  0
LINE
  5
22B
100
AcDbEntity
  8
0
100
AcDbLine
 62
7
  6
CONTINUOUS
 10
20.7498134414
 20
1.1059210505
 11
20.7498134414
 21
0.9757066966
  0
LINE
  5
22C
100
AcDbEntity
  8
0
100
AcDbLine
 62
7
  6
CONTINUOUS
 10
20.7486811426
 20
1.2338708068
 11
20.7486811426
 21
1.3640851607
  0
LINE
  5
22D
100
AcDbEntity
  8
0
100
AcDbLine
 62
7
  6
CONTINUOUS
 10
21.0702539817
 20
1.2701043662
 11
21.4790138229
 21
1.3448360823
  0
LINE
  5
22E
100
AcDbEntity
  8
0
100
AcDbLine
 62
7
  6
CONTINUOUS
 10
21.4790138229
 20
1.3448360823
 11
21.4790138229
 21
0.9779712941
  0
LINE
  5
22F
100
AcDbEntity
  8
0
100
AcDbLine
 62
7
  6
CONTINUOUS
 10
21.4790138229
 20
0.9779712941
 11
21.069121683
 21
1.0617614
  0
LINE
  5
230
100
AcDbEntity
  8
0
100
AcDbLine
 62
7
  6
CONTINUOUS
 10
21.0702539817
 20
1.2701043662
 11
21.069121683
 21
1.0617614
  0
LINE
  5
231
100
AcDbEntity
  8
0
100
AcDbLine
 62
7
  6
CONTINUOUS
 10
21.4790138229
 20
1.1693297793
 11
21.3159628059
 21
1.1693297793
  0
LINE
  5
232
100
AcDbEntity
  8
0
100
AcDbLine
 62
7
  6
CONTINUOUS
 10
21.2876553377
 20
1.1693297793
 11
21.2502894796
 21
1.1693297793
  0
LINE
  5
233
100
AcDbEntity
  8
0
100
AcDbLine
 62
7
  6
CONTINUOUS
 10
21.2208497126
 20
1.1659328831
 11
21.0713862804
 21
1.1659328831
  0
LINE
  5
234
100
AcDbEntity
  8
0
100
AcDbLine
 62
7
  6
CONTINUOUS
 10
20.4796138713
 20
1.5284908897
 11
20.4766766948
 21
0.9294458646
  0
ENDBLK
  5
235
100
AcDbEntity
  8
0
  6
BYBLOCK
 62
0
100
AcDbBlockEnd
  0
BLOCK
  5
236
100
AcDbEntity
  8
0
100
AcDbBlockBegin
  2
*T1
 70
1
 10
0.0
 20
0.0
  3
*T1
  1

  0
LINE
  5
237
100
AcDbEntity
  8
0
100
AcDbLine
 62
2
  6
CONTINUOUS
 10
9.275
 20
0.0
 11
-0.0
 21
0.0
  0
LINE
  5
238
100
AcDbEntity
  8
0
100
AcDbLine
 62
2
  6
CONTINUOUS
 10
9.275
 20
0.0
 11
9.275
 21
1.25
  0
LINE
  5
239
100
AcDbEntity
  8
0
100
AcDbLine
 62
2
  6
CONTINUOUS
 10
9.275
 20
0.625
 11
-0.0
 21
0.625
  0
LINE
  5
23A
100
AcDbEntity
  8
0
100
AcDbLine
 62
2
  6
CONTINUOUS
 10
9.275
 20
1.25
 11
-0.0
 21
1.25
  0
LINE
  5
23B
100
AcDbEntity
  8
0
100
AcDbLine
 62
2
  6
CONTINUOUS
 10
6.8
 20
0.0
 11
6.8
 21
1.25
  0
LINE
  5
23C
100
AcDbEntity
  8
0
100
AcDbLine
 62
2
  6
CONTINUOUS
 10
6.4
 20
0.0
 11
6.4
 21
0.625
  0
LINE
  5
23D
100
AcDbEntity
  8
0
100
AcDbLine
 62
2
  6
CONTINUOUS
 10
5.9
 20
0.0
 11
5.9
 21
0.625
  0
LINE
  5
23E
100
AcDbEntity
  8
0
100
AcDbLine
 62
2
  6
CONTINUOUS
 10
5.2
 20
0.0
 11
5.2
 21
0.625
  0
LINE
  5
23F
100
AcDbEntity
  8
0
100
AcDbLine
 62
2
  6
CONTINUOUS
 10
4.1
 20
0.0
 11
4.1
 21
1.25
  0
LINE
  5
240
100
AcDbEntity
  8
0
100
AcDbLine
 62
2
  6
CONTINUOUS
 10
-0.0
 20
0.0
 11
-0.0
 21
1.25
  0
MTEXT
  5
241
100
AcDbEntity
  8
0
100
AcDbMText
 62
2
  6
CONTINUOUS
  7
STANDARD
 71
2
 72
1
 10
6.6
 20
0.325
 30
0.0
 11
1.0
 21
0.0
 31
0.0
 44
0.9
  1
2
 40
0.125
 41
0.2
  0
MTEXT
  5
242
100
AcDbEntity
  8
0
100
AcDbMText
 62
2
  6
CONTINUOUS
  7
STANDARD
 71
2
 72
1
 10
6.15
 20
0.325
 30
0.0
 11
1.0
 21
0.0
 31
0.0
 44
0.9
  1
C
 40
0.125
 41
0.2
  0
MTEXT
  5
243
100
AcDbEntity
  8
0
100
AcDbMText
 62
2
  6
CONTINUOUS
  7
STANDARD
 71
2
 72
1
 10
5.55
 20
0.325
 30
0.0
 11
1.0
 21
0.0
 31
0.0
 44
0.9
  1
0.900
 40
0.125
 41
1.0
  0
MTEXT
  5
244
100
AcDbEntity
  8
0
100
AcDbMText
 62
2
  6
CONTINUOUS
  7
STANDARD
 71
2
 72
1
 10
4.65
 20
0.325
 30
0.0
 11
1.0
 21
0.0
 31
0.0
 44
0.9
  1
Feb-08-21
 40
0.125
 41
1.8
  0
MTEXT
  5
245
100
AcDbEntity
  8
0
100
AcDbMText
 62
2
  6
CONTINUOUS
  7
STANDARD
 71
2
 72
1
 10
2.05
 20
0.4625
 30
0.0
 11
1.0
 21
0.0
 31
0.0
 44
0.9
  1
T-19A Line mount\P(See Technical Data for Body Features)
 40
0.125
 41
7.6
  0
MTEXT
  5
246
100
AcDbEntity
  8
0
100
AcDbMText
 62
2
  6
CONTINUOUS
  7
STANDARD
 71
1
 72
1
 10
6.45
 20
0.5625
 30
0.0
 11
1.0
 21
0.0
 31
0.0
 44
0.9
  1
SHEET
 40
0.06
 41
0.48
  0
MTEXT
  5
247
100
AcDbEntity
  8
0
100
AcDbMText
 62
2
  6
CONTINUOUS
  7
STANDARD
 71
1
 72
1
 10
5.95
 20
0.5625
 30
0.0
 11
1.0
 21
0.0
 31
0.0
 44
0.9
  1
DWG SIZE
 40
0.06
 41
0.768
  0
MTEXT
  5
248
100
AcDbEntity
  8
0
100
AcDbMText
 62
2
  6
CONTINUOUS
  7
STANDARD
 71
1
 72
1
 10
5.25
 20
0.5625
 30
0.0
 11
1.0
 21
0.0
 31
0.0
 44
0.9
  1
SCALE
 40
0.06
 41
0.48
  0
MTEXT
  5
249
100
AcDbEntity
  8
0
100
AcDbMText
 62
2
  6
CONTINUOUS
  7
STANDARD
 71
1
 72
1
 10
4.15
 20
0.5625
 30
0.0
 11
1.0
 21
0.0
 31
0.0
 44
0.9
  1
DATE
 40
0.06
 41
0.384
  0
MTEXT
  5
24A
100
AcDbEntity
  8
0
100
AcDbMText
 62
2
  6
CONTINUOUS
  7
STANDARD
 71
1
 72
1
 10
0.05
 20
0.5625
 30
0.0
 11
1.0
 21
0.0
 31
0.0
 44
0.9
  1
DESCRIPTION
 40
0.06
 41
1.056
  0
MTEXT
  5
24B
100
AcDbEntity
  8
0
100
AcDbMText
 62
2
  6
CONTINUOUS
  7
STANDARD
 71
2
 72
1
 10
5.45
 20
1.0375
 30
0.0
 11
1.0
 21
0.0
 31
0.0
 44
0.9
  1
ALL DIMENSIONS IN INCH\PVIEWS ARE THIRD ANGLE
 40
0.12
 41
4.224
  0
MTEXT
  5
24C
100
AcDbEntity
  8
0
100
AcDbMText
 62
2
  6
CONTINUOUS
  7
STANDARD
 71
2
 72
1
 10
2.05
 20
0.95
 30
0.0
 11
1.0
 21
0.0
 31
0.0
 44
0.9
  1
K2D
 40
0.125
 41
0.6
  0
MTEXT
  5
24D
100
AcDbEntity
  8
0
100
AcDbMText
 62
2
  6
CONTINUOUS
  7
STANDARD
 71
1
 72
1
 10
0.05
 20
1.1875
 30
0.0
 11
1.0
 21
0.0
 31
0.0
 44
0.9
  1
MODEL
 40
0.06
 41
0.48
  0
ENDBLK
  5
24E
100
AcDbEntity
  8
0
  6
BYBLOCK
 62
0
100
AcDbBlockEnd
  0
BLOCK
  5
24F
100
AcDbEntity
  8
0
100
AcDbBlockBegin
  2
*T2
 70
1
 10
0.0
 20
0.0
  3
*T2
  1

  0
LINE
  5
250
100
AcDbEntity
  8
0
100
AcDbLine
 62
2
  6
CONTINUOUS
 10
0.0
 20
0.0
 11
9.055
 21
0.0
  0
LINE
  5
251
100
AcDbEntity
  8
0
100
AcDbLine
 62
2
  6
CONTINUOUS
 10
0.0
 20
0.0
 11
0.0
 21
-2.594
  0
LINE
  5
252
100
AcDbEntity
  8
0
100
AcDbLine
 62
2
  6
CONTINUOUS
 10
0.0
 20
-0.344
 11
9.055
 21
-0.344
  0
LINE
  5
253
100
AcDbEntity
  8
0
100
AcDbLine
 62
2
  6
CONTINUOUS
 10
0.0
 20
-0.594
 11
9.055
 21
-0.594
  0
LINE
  5
254
100
AcDbEntity
  8
0
100
AcDbLine
 62
2
  6
CONTINUOUS
 10
0.0
 20
-0.844
 11
9.055
 21
-0.844
  0
LINE
  5
255
100
AcDbEntity
  8
0
100
AcDbLine
 62
2
  6
CONTINUOUS
 10
0.0
 20
-1.094
 11
9.055
 21
-1.094
  0
LINE
  5
256
100
AcDbEntity
  8
0
100
AcDbLine
 62
2
  6
CONTINUOUS
 10
0.0
 20
-1.344
 11
9.055
 21
-1.344
  0
LINE
  5
257
100
AcDbEntity
  8
0
100
AcDbLine
 62
2
  6
CONTINUOUS
 10
0.0
 20
-1.594
 11
9.055
 21
-1.594
  0
LINE
  5
258
100
AcDbEntity
  8
0
100
AcDbLine
 62
2
  6
CONTINUOUS
 10
0.0
 20
-1.844
 11
9.055
 21
-1.844
  0
LINE
  5
259
100
AcDbEntity
  8
0
100
AcDbLine
 62
2
  6
CONTINUOUS
 10
0.0
 20
-2.094
 11
9.055
 21
-2.094
  0
LINE
  5
25A
100
AcDbEntity
  8
0
100
AcDbLine
 62
2
  6
CONTINUOUS
 10
0.0
 20
-2.344
 11
9.055
 21
-2.344
  0
LINE
  5
25B
100
AcDbEntity
  8
0
100
AcDbLine
 62
2
  6
CONTINUOUS
 10
0.0
 20
-2.594
 11
9.055
 21
-2.594
  0
LINE
  5
25C
100
AcDbEntity
  8
0
100
AcDbLine
 62
2
  6
CONTINUOUS
 10
3.055
 20
0.0
 11
3.055
 21
-2.594
  0
LINE
  5
25D
100
AcDbEntity
  8
0
100
AcDbLine
 62
2
  6
CONTINUOUS
 10
9.055
 20
0.0
 11
9.055
 21
-2.594
  0
MTEXT
  5
25E
100
AcDbEntity
  8
0
100
AcDbMText
 62
2
  6
CONTINUOUS
  7
STANDARD
 71
2
 72
1
 10
1.5275
 20
-0.0995
 30
0.0
 11
1.0
 21
0.0
 31
0.0
 44
0.9
  1
Technical Data
 40
0.145
 41
3.248
  0
MTEXT
  5
25F
100
AcDbEntity
  8
0
100
AcDbMText
 62
2
  6
CONTINUOUS
  7
STANDARD
 71
2
 72
1
 10
4.555
 20
-0.0995
 30
0.0
 11
1.0
 21
0.0
 31
0.0
 44
0.9
  1
U.S. Units
 40
0.145
 41
2.32
  0
MTEXT
  5
260
100
AcDbEntity
  8
0
100
AcDbMText
 62
2
  6
CONTINUOUS
  7
STANDARD
 71
2
 72
1
 10
7.555
 20
-0.0995
 30
0.0
 11
1.0
 21
0.0
 31
0.0
 44
0.9
  1
Metric Units
 40
0.145
 41
2.784
  0
MTEXT
  5
261
100
AcDbEntity
  8
0
100
AcDbMText
 62
2
  6
CONTINUOUS
  7
STANDARD
 71
2
 72
1
 10
1.5275
 20
-0.4065
 30
0.0
 11
1.0
 21
0.0
 31
0.0
 44
0.9
  1
Cavity
 40
0.125
 41
1.2
  0
MTEXT
  5
262
100
AcDbEntity
  8
0
100
AcDbMText
 62
2
  6
CONTINUOUS
  7
STANDARD
 71
2
 72
1
 10
6.055
 20
-0.4065
 30
0.0
 11
1.0
 21
0.0
 31
0.0
 44
0.9
  1
T-19A
 40
0.125
 41
1.0
  0
MTEXT
  5
263
100
AcDbEntity
  8
0
100
AcDbMText
 62
2
  6
CONTINUOUS
  7
STANDARD
 71
2
 72
1
 10
1.5275
 20
-0.6565
 30
0.0
 11
1.0
 21
0.0
 31
0.0
 44
0.9
  1
Body Features
 40
0.125
 41
2.6
  0
MTEXT
  5
264
100
AcDbEntity
  8
0
100
AcDbMText
 62
2
  6
CONTINUOUS
  7
STANDARD
 71
2
 72
1
 10
6.055
 20
-0.6565
 30
0.0
 11
1.0
 21
0.0
 31
0.0
 44
0.9
  1
Ninety degree with reverse flow check - reducing
 40
0.125
 41
9.6
  0
MTEXT
  5
265
100
AcDbEntity
  8
0
100
AcDbMText
 62
2
  6
CONTINUOUS
  7
STANDARD
 71
2
 72
1
 10
1.5275
 20
-0.9065
 30
0.0
 11
1.0
 21
0.0
 31
0.0
 44
0.9
  1
Body Type
 40
0.125
 41
1.8
  0
MTEXT
  5
266
100
AcDbEntity
  8
0
100
AcDbMText
 62
2
  6
CONTINUOUS
  7
STANDARD
 71
2
 72
1
 10
6.055
 20
-0.9065
 30
0.0
 11
1.0
 21
0.0
 31
0.0
 44
0.9
  1
Line mount
 40
0.125
 41
2.0
  0
MTEXT
  5
267
100
AcDbEntity
  8
0
100
AcDbMText
 62
2
  6
CONTINUOUS
  7
STANDARD
 71
2
 72
1
 10
1.5275
 20
-1.1565
 30
0.0
 11
1.0
 21
0.0
 31
0.0
 44
0.9
  1
Interface
 40
0.125
 41
1.8
  0
MTEXT
  5
268
100
AcDbEntity
  8
0
100
AcDbMText
 62
2
  6
CONTINUOUS
  7
STANDARD
 71
2
 72
1
 10
6.055
 20
-1.1565
 30
0.0
 11
1.0
 21
0.0
 31
0.0
 44
0.9
  1
None
 40
0.125
 41
0.8
  0
MTEXT
  5
269
100
AcDbEntity
  8
0
100
AcDbMText
 62
2
  6
CONTINUOUS
  7
STANDARD
 71
2
 72
1
 10
1.5275
 20
-1.4065
 30
0.0
 11
1.0
 21
0.0
 31
0.0
 44
0.9
  1
Open Cavity Quantity
 40
0.125
 41
4.0
  0
MTEXT
  5
26A
100
AcDbEntity
  8
0
100
AcDbMText
 62
2
  6
CONTINUOUS
  7
STANDARD
 71
2
 72
1
 10
6.055
 20
-1.4065
 30
0.0
 11
1.0
 21
0.0
 31
0.0
 44
0.9
  1
1
 40
0.125
 41
0.2
  0
MTEXT
  5
26B
100
AcDbEntity
  8
0
100
AcDbMText
 62
2
  6
CONTINUOUS
  7
STANDARD
 71
2
 72
1
 10
1.5275
 20
-1.6565
 30
0.0
 11
1.0
 21
0.0
 31
0.0
 44
0.9
  1
Weight
 40
0.125
 41
1.2
  0
MTEXT
  5
26C
100
AcDbEntity
  8
0
100
AcDbMText
 62
2
  6
CONTINUOUS
  7
STANDARD
 71
2
 72
1
 10
4.555
 20
-1.6565
 30
0.0
 11
1.0
 21
0.0
 31
0.0
 44
0.9
  1
11.749 lb.
 40
0.125
 41
2.0
  0
MTEXT
  5
26D
100
AcDbEntity
  8
0
100
AcDbMText
 62
2
  6
CONTINUOUS
  7
STANDARD
 71
2
 72
1
 10
7.555
 20
-1.6565
 30
0.0
 11
1.0
 21
0.0
 31
0.0
 44
0.9
  1
5,329 kg.
 40
0.125
 41
1.8
  0
MTEXT
  5
26E
100
AcDbEntity
  8
0
100
AcDbMText
 62
2
  6
CONTINUOUS
  7
STANDARD
 71
2
 72
1
 10
1.5275
 20
-1.9065
 30
0.0
 11
1.0
 21
0.0
 31
0.0
 44
0.9
  1
Mounting Hole Diameter
 40
0.125
 41
4.4
  0
MTEXT
  5
26F
100
AcDbEntity
  8
0
100
AcDbMText
 62
2
  6
CONTINUOUS
  7
STANDARD
 71
2
 72
1
 10
4.555
 20
-1.9065
 30
0.0
 11
1.0
 21
0.0
 31
0.0
 44
0.9
  1
.41 in.
 40
0.125
 41
1.4
  0
MTEXT
  5
270
100
AcDbEntity
  8
0
100
AcDbMText
 62
2
  6
CONTINUOUS
  7
STANDARD
 71
2
 72
1
 10
7.555
 20
-1.9065
 30
0.0
 11
1.0
 21
0.0
 31
0.0
 44
0.9
  1
10,4 mm
 40
0.125
 41
1.4
  0
MTEXT
  5
271
100
AcDbEntity
  8
0
100
AcDbMText
 62
2
  6
CONTINUOUS
  7
STANDARD
 71
2
 72
1
 10
1.5275
 20
-2.1565
 30
0.0
 11
1.0
 21
0.0
 31
0.0
 44
0.9
  1
Mounting Hole Depth
 40
0.125
 41
3.8
  0
MTEXT
  5
272
100
AcDbEntity
  8
0
100
AcDbMText
 62
2
  6
CONTINUOUS
  7
STANDARD
 71
2
 72
1
 10
6.055
 20
-2.1565
 30
0.0
 11
1.0
 21
0.0
 31
0.0
 44
0.9
  1
Through
 40
0.125
 41
1.4
  0
MTEXT
  5
273
100
AcDbEntity
  8
0
100
AcDbMText
 62
2
  6
CONTINUOUS
  7
STANDARD
 71
2
 72
1
 10
1.5275
 20
-2.4065
 30
0.0
 11
1.0
 21
0.0
 31
0.0
 44
0.9
  1
Mounting Hole Quantity
 40
0.125
 41
4.4
  0
MTEXT
  5
274
100
AcDbEntity
  8
0
100
AcDbMText
 62
2
  6
CONTINUOUS
  7
STANDARD
 71
2
 72
1
 10
6.055
 20
-2.4065
 30
0.0
 11
1.0
 21
0.0
 31
0.0
 44
0.9
  1
2
 40
0.125
 41
0.2
  0
ENDBLK
  5
275
100
AcDbEntity
  8
0
  6
BYBLOCK
 62
0
100
AcDbBlockEnd
  0
BLOCK
  5
276
100
AcDbEntity
  8
0
100
AcDbBlockBegin
  2
*T3
 70
1
 10
0.0
 20
0.0
  3
*T3
  1

  0
LINE
  5
277
100
AcDbEntity
  8
0
100
AcDbLine
 62
2
  6
CONTINUOUS
 10
0.0
 20
0.0
 11
4.6
 21
0.0
  0
LINE
  5
278
100
AcDbEntity
  8
0
100
AcDbLine
 62
2
  6
CONTINUOUS
 10
0.0
 20
0.0
 11
0.0
 21
-1.43775
  0
LINE
  5
279
100
AcDbEntity
  8
0
100
AcDbLine
 62
2
  6
CONTINUOUS
 10
0.0
 20
-0.34375
 11
4.6
 21
-0.34375
  0
LINE
  5
27A
100
AcDbEntity
  8
0
100
AcDbLine
 62
2
  6
CONTINUOUS
 10
0.0
 20
-0.68775
 11
4.6
 21
-0.68775
  0
LINE
  5
27B
100
AcDbEntity
  8
0
100
AcDbLine
 62
2
  6
CONTINUOUS
 10
0.0
 20
-0.93775
 11
4.6
 21
-0.93775
  0
LINE
  5
27C
100
AcDbEntity
  8
0
100
AcDbLine
 62
2
  6
CONTINUOUS
 10
0.0
 20
-1.18775
 11
4.6
 21
-1.18775
  0
LINE
  5
27D
100
AcDbEntity
  8
0
100
AcDbLine
 62
2
  6
CONTINUOUS
 10
0.0
 20
-1.43775
 11
4.6
 21
-1.43775
  0
LINE
  5
27E
100
AcDbEntity
  8
0
100
AcDbLine
 62
2
  6
CONTINUOUS
 10
1.3
 20
-0.34375
 11
1.3
 21
-1.43775
  0
LINE
  5
27F
100
AcDbEntity
  8
0
100
AcDbLine
 62
2
  6
CONTINUOUS
 10
3.3
 20
-0.34375
 11
3.3
 21
-1.43775
  0
LINE
  5
280
100
AcDbEntity
  8
0
100
AcDbLine
 62
2
  6
CONTINUOUS
 10
4.6
 20
0.0
 11
4.6
 21
-1.43775
  0
MTEXT
  5
281
100
AcDbEntity
  8
0
100
AcDbMText
 62
2
  6
CONTINUOUS
  7
STANDARD
 71
2
 72
1
 10
2.3
 20
-0.099375
 30
0.0
 11
1.0
 21
0.0
 31
0.0
 44
0.9
  1
Port Headings
 40
0.145
 41
3.016
  0
MTEXT
  5
282
100
AcDbEntity
  8
0
100
AcDbMText
 62
2
  6
CONTINUOUS
  7
STANDARD
 71
2
 72
1
 10
0.65
 20
-0.44325
 30
0.0
 11
1.0
 21
0.0
 31
0.0
 44
0.9
  1
Product
 40
0.145
 41
1.624
  0
MTEXT
  5
283
100
AcDbEntity
  8
0
100
AcDbMText
 62
2
  6
CONTINUOUS
  7
STANDARD
 71
2
 72
1
 10
2.3
 20
-0.44325
 30
0.0
 11
1.0
 21
0.0
 31
0.0
 44
0.9
  1
Port
 40
0.145
 41
0.928
  0
MTEXT
  5
284
100
AcDbEntity
  8
0
100
AcDbMText
 62
2
  6
CONTINUOUS
  7
STANDARD
 71
2
 72
1
 10
3.95
 20
-0.44325
 30
0.0
 11
1.0
 21
0.0
 31
0.0
 44
0.9
  1
Size
 40
0.145
 41
0.928
  0
MTEXT
  5
285
100
AcDbEntity
  8
0
100
AcDbMText
 62
2
  6
CONTINUOUS
  7
STANDARD
 71
2
 72
1
 10
0.65
 20
-0.75025
 30
0.0
 11
1.0
 21
0.0
 31
0.0
 44
0.9
  1
K2D
 40
0.125
 41
0.6
  0
MTEXT
  5
286
100
AcDbEntity
  8
0
100
AcDbMText
 62
2
  6
CONTINUOUS
  7
STANDARD
 71
2
 72
1
 10
2.3
 20
-0.75025
 30
0.0
 11
1.0
 21
0.0
 31
0.0
 44
0.9
  1
Ports 1 &  2
 40
0.125
 41
2.4
  0
MTEXT
  5
287
100
AcDbEntity
  8
0
100
AcDbMText
 62
2
  6
CONTINUOUS
  7
STANDARD
 71
2
 72
1
 10
3.95
 20
-0.75025
 30
0.0
 11
1.0
 21
0.0
 31
0.0
 44
0.9
  1
3/4" NPTF
 40
0.125
 41
1.8
  0
MTEXT
  5
288
100
AcDbEntity
  8
0
100
AcDbMText
 62
2
  6
CONTINUOUS
  7
STANDARD
 71
2
 72
1
 10
0.65
 20
-1.00025
 30
0.0
 11
1.0
 21
0.0
 31
0.0
 44
0.9
  1
K2D
 40
0.125
 41
0.6
  0
MTEXT
  5
289
100
AcDbEntity
  8
0
100
AcDbMText
 62
2
  6
CONTINUOUS
  7
STANDARD
 71
2
 72
1
 10
2.3
 20
-1.00025
 30
0.0
 11
1.0
 21
0.0
 31
0.0
 44
0.9
  1
Port 3
 40
0.125
 41
1.2
  0
MTEXT
  5
28A
100
AcDbEntity
  8
0
100
AcDbMText
 62
2
  6
CONTINUOUS
  7
STANDARD
 71
2
 72
1
 10
3.95
 20
-1.00025
 30
0.0
 11
1.0
 21
0.0
 31
0.0
 44
0.9
  1
1/4" NPTF
 40
0.125
 41
1.8
  0
MTEXT
  5
28B
100
AcDbEntity
  8
0
100
AcDbMText
 62
2
  6
CONTINUOUS
  7
STANDARD
 71
2
 72
1
 10
0.65
 20
-1.25025
 30
0.0
 11
1.0
 21
0.0
 31
0.0
 44
0.9
  1
K2D
 40
0.125
 41
0.6
  0
MTEXT
  5
28C
100
AcDbEntity
  8
0
100
AcDbMText
 62
2
  6
CONTINUOUS
  7
STANDARD
 71
2
 72
1
 10
2.3
 20
-1.25025
 30
0.0
 11
1.0
 21
0.0
 31
0.0
 44
0.9
  1
Gage Port
 40
0.125
 41
1.8
  0
MTEXT
  5
28D
100
AcDbEntity
  8
0
100
AcDbMText
 62
2
  6
CONTINUOUS
  7
STANDARD
 71
2
 72
1
 10
3.95
 20
-1.25025
 30
0.0
 11
1.0
 21
0.0
 31
0.0
 44
0.9
  1
1/4" NPTF
 40
0.125
 41
1.8
  0
ENDBLK
  5
28E
100
AcDbEntity
  8
0
  6
BYBLOCK
 62
0
100
AcDbBlockEnd
  0
ENDSEC
  0
SECTION
  2
ENTITIES
  0
IMAGE
  5
28F
100
AcDbEntity
  8
0
100
AcDbRasterImage
 62
7
  6
CONTINUOUS
 10
19.2297077316
 20
0.3094318264
 30
0.0
 11
0.0066666667
 21
0.0
 31
0.0
 12
0.0
 22
0.0066666667
 32
0.0
 13
369.0
 23
92.0
340
       38A
 70
9
280
0
281
50
282
50
283
0
360
       384
 71
1
 91
2
 14
-0.5
 24
-0.5
 14
368.5
 24
91.5
  0
INSERT
  5
290
100
AcDbEntity
  8
0
100
AcDbBlockReference
 62
2
  6
CONTINUOUS
  2
SUN_FIRST_THIRD_ANGLE_BL0
 10
20.4816717061
 20
1.2289683772
  0
ACAD_TABLE
  5
291
100
AcDbEntity
  8
0
 62
2
  6
CONTINUOUS
100
AcDbBlockReference
  2
*T1
 10
12.42375
 20
0.30125
 30
0.0
100
AcDbTable
342
       38C
343
20F
 11
1.0
 21
0.0
 31
0.0
 90
6
 91
4
 92
6
 93
20
 94
0
 95
0
 96
0
 70
1
 41
0.0
141
0.525
141
0.1
141
0.525
141
0.1
142
4.1
142
1.1
142
0.7
142
0.5
142
0.4
142
2.475
171
1
172
0
173
0
174
0
175
1
176
1
 91
33
178
0
145
0.0
301
CELL_VALUE
 90
4
  1
T-19A Line mount\P(See Technical Data for Body Features)
304
ACVALUE_END
170
2
140
0.125
171
1
172
0
173
0
174
0
175
1
176
1
 91
33
178
0
145
0.0
301
CELL_VALUE
 90
4
  1
Feb-08-21
304
ACVALUE_END
170
5
140
0.125
171
1
172
0
173
0
174
0
175
1
176
1
 91
33
178
0
145
0.0
301
CELL_VALUE
 90
4
  1
0.900
304
ACVALUE_END
170
5
140
0.125
171
1
172
0
173
0
174
0
175
1
176
1
 91
33
178
0
145
0.0
301
CELL_VALUE
 90
4
  1
C
304
ACVALUE_END
170
5
140
0.125
171
1
172
0
173
0
174
0
175
1
176
1
 91
33
178
0
145
0.0
301
CELL_VALUE
 90
4
  1
2
304
ACVALUE_END
170
5
140
0.125
171
1
172
0
173
0
174
0
175
1
176
1
 91
33
178
0
145
0.0
301
CELL_VALUE
 90
4
  1
 
304
ACVALUE_END
170
1
140
0.125
171
1
172
0
173
0
174
0
175
1
176
1
 91
33
178
0
145
0.0
301
CELL_VALUE
 90
4
  1
DESCRIPTION
304
ACVALUE_END
170
1
140
0.06
171
1
172
0
173
0
174
0
175
1
176
1
 91
33
178
0
145
0.0
301
CELL_VALUE
 90
4
  1
DATE
304
ACVALUE_END
170
1
140
0.06
171
1
172
0
173
0
174
0
175
1
176
1
 91
33
178
0
145
0.0
301
CELL_VALUE
 90
4
  1
SCALE
304
ACVALUE_END
170
1
140
0.06
171
1
172
0
173
0
174
0
175
1
176
1
 91
33
178
0
145
0.0
301
CELL_VALUE
 90
4
  1
DWG SIZE
304
ACVALUE_END
170
1
140
0.06
171
1
172
0
173
0
174
0
175
1
176
1
 91
33
178
0
145
0.0
301
CELL_VALUE
 90
4
  1
SHEET
304
ACVALUE_END
170
1
140
0.06
171
1
172
0
173
0
174
0
175
1
176
1
 91
33
178
0
145
0.0
301
CELL_VALUE
 90
4
  1
 
304
ACVALUE_END
170
1
140
0.125
171
1
172
0
173
0
174
0
175
1
176
1
 91
33
178
0
145
0.0
301
CELL_VALUE
 90
4
  1
K2D
304
ACVALUE_END
170
5
140
0.125
171
1
172
0
173
0
174
0
175
4
176
1
 91
33
178
0
145
0.0
301
CELL_VALUE
 90
4
  1
ALL DIMENSIONS IN INCH\PVIEWS ARE THIRD ANGLE
304
ACVALUE_END
170
5
140
0.12
171
1
172
0
173
1
174
0
175
1
176
1
 91
1
178
0
145
0.0
170
1
171
1
172
0
173
1
174
0
175
1
176
1
 91
1
178
0
145
0.0
170
1
171
1
172
0
173
1
174
0
175
1
176
1
 91
1
178
0
145
0.0
170
5
171
1
172
0
173
0
174
0
175
1
176
1
 91
33
178
0
145
0.0
301
CELL_VALUE
 90
4
  1
 
304
ACVALUE_END
170
1
140
0.125
171
1
172
0
173
0
174
0
175
1
176
1
 91
33
178
0
145
0.0
301
CELL_VALUE
 90
4
  1
MODEL
304
ACVALUE_END
170
1
140
0.06
171
1
172
0
173
0
174
0
175
1
176
1
 91
33
178
0
145
0.0
301
CELL_VALUE
 90
4
  1
 
304
ACVALUE_END
170
1
140
0.125
171
1
172
0
173
0
174
0
175
1
176
1
 91
33
178
0
145
0.0
301
CELL_VALUE
 90
4
  1
 
304
ACVALUE_END
170
1
140
0.125
171
1
172
0
173
0
174
0
175
1
176
1
 91
33
178
0
145
0.0
301
CELL_VALUE
 90
4
  1
 
304
ACVALUE_END
170
1
140
0.125
171
1
172
0
173
0
174
0
175
1
176
1
 91
33
178
0
145
0.0
301
CELL_VALUE
 90
4
  1
 
304
ACVALUE_END
170
1
140
0.125
171
1
172
0
173
0
174
0
175
1
176
1
 91
33
178
0
145
0.0
301
CELL_VALUE
 90
4
  1
 
304
ACVALUE_END
170
1
140
0.125
  0
ACAD_TABLE
  5
292
100
AcDbEntity
  8
0
 62
2
  6
CONTINUOUS
100
AcDbBlockReference
  2
*T2
 10
12.4237499994
 20
16.47875
 30
0.0
100
AcDbTable
342
       38B
343
210
 11
1.0
 21
0.0
 31
0.0
 90
22
 91
10
 92
3
 93
16
 94
0
 95
0
 96
0
 41
0.028
141
0.344
141
0.25
141
0.25
141
0.25
141
0.25
141
0.25
141
0.25
141
0.25
141
0.25
141
0.25
142
3.055
142
3.0
142
3.0
171
1
172
0
173
0
174
0
175
1
176
1
 91
33
178
0
145
0.0
301
CELL_VALUE
 90
4
  1
Technical Data
304
ACVALUE_END
170
5
140
0.145
171
1
172
0
173
0
174
0
175
1
176
1
 91
33
178
0
145
0.0
301
CELL_VALUE
 90
4
  1
U.S. Units
304
ACVALUE_END
170
5
140
0.145
171
1
172
0
173
0
174
0
175
1
176
1
 91
33
178
0
145
0.0
301
CELL_VALUE
 90
4
  1
Metric Units
304
ACVALUE_END
170
5
140
0.145
171
1
172
0
173
0
174
0
175
1
176
1
 91
33
178
0
145
0.0
301
CELL_VALUE
 90
4
  1
Cavity
304
ACVALUE_END
170
5
140
0.125
171
1
172
0
173
0
174
0
175
2
176
1
 91
33
178
0
145
0.0
301
CELL_VALUE
 90
4
  1
T-19A
304
ACVALUE_END
170
5
140
0.125
171
1
172
0
173
1
174
0
175
1
176
1
 91
1
178
0
145
0.0
170
1
171
1
172
0
173
0
174
0
175
1
176
1
 91
33
178
0
145
0.0
301
CELL_VALUE
 90
4
  1
Body Features
304
ACVALUE_END
170
5
140
0.125
171
1
172
0
173
0
174
0
175
2
176
1
 91
33
178
0
145
0.0
301
CELL_VALUE
 90
4
  1
Ninety degree with reverse flow check - reducing
304
ACVALUE_END
170
5
140
0.125
171
1
172
0
173
1
174
0
175
1
176
1
 91
1
178
0
145
0.0
170
1
171
1
172
0
173
0
174
0
175
1
176
1
 91
33
178
0
145
0.0
301
CELL_VALUE
 90
4
  1
Body Type
304
ACVALUE_END
170
5
140
0.125
171
1
172
0
173
0
174
0
175
2
176
1
 91
33
178
0
145
0.0
301
CELL_VALUE
 90
4
  1
Line mount
304
ACVALUE_END
170
5
140
0.125
171
1
172
0
173
1
174
0
175
1
176
1
 91
1
178
0
145
0.0
170
1
171
1
172
0
173
0
174
0
175
1
176
1
 91
33
178
0
145
0.0
301
CELL_VALUE
 90
4
  1
Interface
304
ACVALUE_END
170
5
140
0.125
171
1
172
0
173
0
174
0
175
2
176
1
 91
33
178
0
145
0.0
301
CELL_VALUE
 90
4
  1
None
304
ACVALUE_END
170
5
140
0.125
171
1
172
0
173
1
174
0
175
1
176
1
 91
1
178
0
145
0.0
170
1
171
1
172
0
173
0
174
0
175
1
176
1
 91
33
178
0
145
0.0
301
CELL_VALUE
 90
4
  1
Open Cavity Quantity
304
ACVALUE_END
170
5
140
0.125
171
1
172
0
173
0
174
0
175
2
176
1
 91
33
178
0
145
0.0
301
CELL_VALUE
 90
4
  1
1
304
ACVALUE_END
170
5
140
0.125
171
1
172
0
173
1
174
0
175
1
176
1
 91
1
178
0
145
0.0
170
1
171
1
172
0
173
0
174
0
175
1
176
1
 91
33
178
0
145
0.0
301
CELL_VALUE
 90
4
  1
Weight
304
ACVALUE_END
170
5
140
0.125
171
1
172
0
173
0
174
0
175
1
176
1
 91
33
178
0
145
0.0
301
CELL_VALUE
 90
4
  1
11.749 lb.
304
ACVALUE_END
170
5
140
0.125
171
1
172
0
173
0
174
0
175
1
176
1
 91
33
178
0
145
0.0
301
CELL_VALUE
 90
4
  1
5,329 kg.
304
ACVALUE_END
170
5
140
0.125
171
1
172
0
173
0
174
0
175
1
176
1
 91
33
178
0
145
0.0
301
CELL_VALUE
 90
4
  1
Mounting Hole Diameter
304
ACVALUE_END
170
5
140
0.125
171
1
172
0
173
0
174
0
175
1
176
1
 91
33
178
0
145
0.0
301
CELL_VALUE
 90
4
  1
.41 in.
304
ACVALUE_END
170
5
140
0.125
171
1
172
0
173
0
174
0
175
1
176
1
 91
33
178
0
145
0.0
301
CELL_VALUE
 90
4
  1
10,4 mm
304
ACVALUE_END
170
5
140
0.125
171
1
172
0
173
0
174
0
175
1
176
1
 91
33
178
0
145
0.0
301
CELL_VALUE
 90
4
  1
Mounting Hole Depth
304
ACVALUE_END
170
5
140
0.125
171
1
172
0
173
0
174
0
175
2
176
1
 91
33
178
0
145
0.0
301
CELL_VALUE
 90
4
  1
Through
304
ACVALUE_END
170
5
140
0.125
171
1
172
0
173
1
174
0
175
1
176
1
 91
1
178
0
145
0.0
170
1
171
1
172
0
173
0
174
0
175
1
176
1
 91
33
178
0
145
0.0
301
CELL_VALUE
 90
4
  1
Mounting Hole Quantity
304
ACVALUE_END
170
5
140
0.125
171
1
172
0
173
0
174
0
175
2
176
1
 91
33
178
0
145
0.0
301
CELL_VALUE
 90
4
  1
2
304
ACVALUE_END
170
5
140
0.125
171
1
172
0
173
1
174
0
175
1
176
1
 91
1
178
0
145
0.0
170
1
  0
ACAD_TABLE
  5
293
100
AcDbEntity
  8
0
 62
2
  6
CONTINUOUS
100
AcDbBlockReference
  2
*T3
 10
0.52125
 20
1.959
 30
0.0
100
AcDbTable
342
       38B
343
211
 11
1.0
 21
0.0
 31
0.0
 90
22
 91
5
 92
3
 93
16
 94
0
 95
0
 96
0
 41
0.05
141
0.34375
141
0.344
141
0.25
141
0.25
141
0.25
142
1.3
142
2.0
142
1.3
171
1
172
0
173
0
174
0
175
3
176
1
 91
33
178
0
145
0.0
301
CELL_VALUE
 90
4
  1
Port Headings
304
ACVALUE_END
170
5
140
0.145
171
1
172
0
173
1
174
0
175
1
176
1
 91
1
178
0
145
0.0
170
1
171
1
172
0
173
1
174
0
175
1
176
1
 91
1
178
0
145
0.0
170
1
171
1
172
0
173
0
174
0
175
1
176
1
 91
33
178
0
145
0.0
301
CELL_VALUE
 90
4
  1
Product
304
ACVALUE_END
170
5
140
0.145
171
1
172
0
173
0
174
0
175
1
176
1
 91
33
178
0
145
0.0
301
CELL_VALUE
 90
4
  1
Port
304
ACVALUE_END
170
5
140
0.145
171
1
172
0
173
0
174
0
175
1
176
1
 91
33
178
0
145
0.0
301
CELL_VALUE
 90
4
  1
Size
304
ACVALUE_END
170
5
140
0.145
171
1
172
0
173
0
174
0
175
1
176
1
 91
33
178
0
145
0.0
301
CELL_VALUE
 90
4
  1
K2D
304
ACVALUE_END
170
5
140
0.125
171
1
172
0
173
0
174
0
175
1
176
1
 91
33
178
0
145
0.0
301
CELL_VALUE
 90
4
  1
Ports 1 &  2
304
ACVALUE_END
170
5
140
0.125
171
1
172
0
173
0
174
0
175
1
176
1
 91
33
178
0
145
0.0
301
CELL_VALUE
 90
4
  1
3/4" NPTF
304
ACVALUE_END
170
5
140
0.125
171
1
172
0
173
0
174
0
175
1
176
1
 91
33
178
0
145
0.0
301
CELL_VALUE
 90
4
  1
K2D
304
ACVALUE_END
170
5
140
0.125
171
1
172
0
173
0
174
0
175
1
176
1
 91
33
178
0
145
0.0
301
CELL_VALUE
 90
4
  1
Port 3
304
ACVALUE_END
170
5
140
0.125
171
1
172
0
173
0
174
0
175
1
176
1
 91
33
178
0
145
0.0
301
CELL_VALUE
 90
4
  1
1/4" NPTF
304
ACVALUE_END
170
5
140
0.125
171
1
172
0
173
0
174
0
175
1
176
1
 91
33
178
0
145
0.0
301
CELL_VALUE
 90
4
  1
K2D
304
ACVALUE_END
170
5
140
0.125
171
1
172
0
173
0
174
0
175
1
176
1
 91
33
178
0
145
0.0
301
CELL_VALUE
 90
4
  1
Gage Port
304
ACVALUE_END
170
5
140
0.125
171
1
172
0
173
0
174
0
175
1
176
1
 91
33
178
0
145
0.0
301
CELL_VALUE
 90
4
  1
1/4" NPTF
304
ACVALUE_END
170
5
140
0.125
  0
MTEXT
  5
294
100
AcDbEntity
  8
0
100
AcDbMText
 62
2
  6
CONTINUOUS
  7
STANDARD
 71
1
 72
1
 10
0.52125
 20
5.75995
 30
0.0
 11
1.0
 21
0.0
 31
0.0
 44
0.6
  3
Notes\P \P1. Important: Carefully consider\P   the maximum system pressure. The\P   pressure rating of the manifold is\P   dependent on the manifold material,\P   with the port type/size a secondary\P   consideration. Manifolds\P   constructed of alu
  1
minum are not\P   rated for pressures higher than\P   3000 psi (210 bar), regardless of\P   the port type/size specified.
 40
0.1
 41
3.04
  0
LINE
  5
295
100
AcDbEntity
  8
0
100
AcDbLine
 62
7
  6
CONTINUOUS
 10
0.30125
 20
0.30125
 11
0.30125
 21
16.69875
  0
LINE
  5
296
100
AcDbEntity
  8
0
100
AcDbLine
 62
7
  6
CONTINUOUS
 10
0.30125
 20
0.30125
 11
21.69875
 21
0.30125
  0
LINE
  5
297
100
AcDbEntity
  8
0
100
AcDbLine
 62
7
  6
CONTINUOUS
 10
0.30125
 20
16.69875
 11
21.69875
 21
16.69875
  0
LINE
  5
298
100
AcDbEntity
  8
0
100
AcDbLine
 62
7
  6
CONTINUOUS
 10
21.69875
 20
0.30125
 11
21.69875
 21
16.69875
  0
LINE
  5
299
100
AcDbEntity
  8
0
100
AcDbLine
 62
7
  6
CONTINUOUS
 10
8.741405537
 20
12.4299897698
 11
8.042594692
 21
11.7549902868
  0
LINE
  5
29A
100
AcDbEntity
  8
0
100
AcDbLine
 62
4
  6
CONTINUOUS
 10
8.2773147298
 20
11.1649522374
 11
8.2686213971
 21
11.1539640145
  0
LINE
  5
29B
100
AcDbEntity
  8
0
100
AcDbLine
 62
4
  6
CONTINUOUS
 10
8.2860080626
 20
11.0948026907
 11
8.2686213971
 21
11.0728262397
  0
LINE
  5
29C
100
AcDbEntity
  8
0
100
AcDbLine
 62
4
  6
CONTINUOUS
 10
8.2164614005
 20
11.1923546536
 11
8.2338480661
 21
11.2027399918
  0
LINE
  5
29D
100
AcDbEntity
  8
0
100
AcDbLine
 62
4
  6
CONTINUOUS
 10
8.2686213971
 20
11.1539640145
 11
8.2512347316
 21
11.143578668
  0
LINE
  5
29E
100
AcDbEntity
  8
0
100
AcDbLine
 62
4
  6
CONTINUOUS
 10
8.2686213971
 20
11.0728262397
 11
8.2512347316
 21
11.0624408983
  0
LINE
  5
29F
100
AcDbEntity
  8
0
100
AcDbLine
 62
7
  6
CONTINUOUS
 10
8.042594692
 20
5.6696572207
 11
8.042594692
 21
11.7549902868
  0
LINE
  5
2A0
100
AcDbEntity
  8
0
100
AcDbLine
 62
7
  6
CONTINUOUS
 10
8.042594692
 20
5.6696572207
 11
13.258594463
 21
5.3079264079
  0
LINE
  5
2A1
100
AcDbEntity
  8
0
100
AcDbLine
 62
7
  6
CONTINUOUS
 10
11.6397042185
 20
4.6809670458
 11
11.6606563448
 21
4.6706170966
  0
LINE
  5
2A2
100
AcDbEntity
  8
0
100
AcDbLine
 62
4
  6
CONTINUOUS
 10
8.2773147298
 20
11.176543345
 11
8.2773147298
 21
11.1649522374
  0
LINE
  5
2A3
100
AcDbEntity
  8
0
100
AcDbLine
 62
4
  6
CONTINUOUS
 10
8.2773147298
 20
7.4268192456
 11
8.2773147298
 21
7.2877259215
  0
LINE
  5
2A4
100
AcDbEntity
  8
0
100
AcDbLine
 62
4
  6
CONTINUOUS
 10
8.2860080626
 20
11.1063938024
 11
8.2860080626
 21
11.0948026907
  0
LINE
  5
2A5
100
AcDbEntity
  8
0
100
AcDbLine
 62
4
  6
CONTINUOUS
 10
9.9998365392
 20
9.9302647017
 11
10.019707015
 21
9.9487571533
  0
LINE
  5
2A6
100
AcDbEntity
  8
0
100
AcDbLine
 62
4
  6
CONTINUOUS
 10
10.0495127276
 20
9.807596796
 11
10.0693832013
 21
9.8260892497
  0
LINE
  5
2A7
100
AcDbEntity
  8
0
100
AcDbLine
 62
4
  6
CONTINUOUS
 10
10.1588003453
 20
9.8000176739
 11
10.1786708107
 21
9.8185101282
  0
LINE
  5
2A8
100
AcDbEntity
  8
0
100
AcDbLine
 62
4
  6
CONTINUOUS
 10
10.6224447646
 20
9.85728096
 11
10.64231523
 21
9.8658381795
  0
LINE
  5
2A9
100
AcDbEntity
  8
0
100
AcDbLine
 62
4
  6
CONTINUOUS
 10
10.2228825634
 20
7.483146982
 11
10.2054958979
 21
7.495943862
  0
LINE
  5
2AA
100
AcDbEntity
  8
0
100
AcDbLine
 62
4
  6
CONTINUOUS
 10
9.9998365392
 20
9.9103942281
 11
9.9998365392
 21
9.9302647017
  0
LINE
  5
2AB
100
AcDbEntity
  8
0
100
AcDbLine
 62
4
  6
CONTINUOUS
 10
10.5065336504
 20
9.4188960901
 11
10.5760803124
 21
9.5068018941
  0
LINE
  5
2AC
100
AcDbEntity
  8
0
100
AcDbLine
 62
4
  6
CONTINUOUS
 10
10.2217235841
 20
9.1061484552
 11
10.2018531104
 21
9.0876560015
  0
LINE
  5
2AD
100
AcDbEntity
  8
0
100
AcDbLine
 62
4
  6
CONTINUOUS
 10
10.8112142854
 20
9.794513565
 11
10.8310847508
 21
9.8030707804
  0
LINE
  5
2AE
100
AcDbEntity
  8
0
100
AcDbLine
 62
4
  6
CONTINUOUS
 10
10.1256829613
 20
9.1790438136
 11
10.0726950273
 21
9.1562245702
  0
LINE
  5
2AF
100
AcDbEntity
  8
0
100
AcDbLine
 62
4
  6
CONTINUOUS
 10
10.2402692289
 20
7.4819412127
 11
10.2228825634
 21
7.483146982
  0
LINE
  5
2B0
100
AcDbEntity
  8
0
100
AcDbLine
 62
4
  6
CONTINUOUS
 10
10.2315758961
 20
7.5520907594
 11
10.2663492272
 21
7.5496792207
  0
LINE
  5
2B1
100
AcDbEntity
  8
0
100
AcDbLine
 62
4
  6
CONTINUOUS
 10
10.2402692289
 20
7.6210345368
 11
10.2576558944
 21
7.6082376598
  0
LINE
  5
2B2
100
AcDbEntity
  8
0
100
AcDbLine
 62
4
  6
CONTINUOUS
 10
10.2054958979
 20
7.495943862
 11
10.1881092324
 21
7.5203318517
  0
LINE
  5
2B3
100
AcDbEntity
  8
0
100
AcDbLine
 62
4
  6
CONTINUOUS
 10
10.2576558944
 20
7.6082376598
 11
10.2663492272
 21
7.5960436593
  0
LINE
  5
2B4
100
AcDbEntity
  8
0
100
AcDbLine
 62
4
  6
CONTINUOUS
 10
10.1881092324
 20
7.5203318517
 11
10.1794158996
 21
7.5557080674
  0
LINE
  5
2B5
100
AcDbEntity
  8
0
100
AcDbLine
 62
4
  6
CONTINUOUS
 10
10.0693832013
 20
9.8260892497
 11
10.0693832013
 21
9.8459597254
  0
LINE
  5
2B6
100
AcDbEntity
  8
0
100
AcDbLine
 62
4
  6
CONTINUOUS
 10
10.1091241487
 20
9.942556054
 11
10.1091241487
 21
9.8233332056
  0
LINE
  5
2B7
100
AcDbEntity
  8
0
100
AcDbLine
 62
4
  6
CONTINUOUS
 10
10.1521769303
 20
9.0911010563
 11
10.1521769303
 21
9.2301943804
  0
LINE
  5
2B8
100
AcDbEntity
  8
0
100
AcDbLine
 62
4
  6
CONTINUOUS
 10
10.1786708107
 20
9.8185101282
 11
10.1786708107
 21
9.9377329766
  0
LINE
  5
2B9
100
AcDbEntity
  8
0
100
AcDbLine
 62
4
  6
CONTINUOUS
 10
10.2184117581
 20
9.7958836084
 11
10.2184117581
 21
9.9349769325
  0
LINE
  5
2BA
100
AcDbEntity
  8
0
100
AcDbLine
 62
4
  6
CONTINUOUS
 10
10.2217235841
 20
9.2055008299
 11
10.2217235841
 21
9.1061484552
  0
LINE
  5
2BB
100
AcDbEntity
  8
0
100
AcDbLine
 62
4
  6
CONTINUOUS
 10
10.2663492272
 20
7.5496792207
 11
10.2663492272
 21
7.50331478
  0
LINE
  5
2BC
100
AcDbEntity
  8
0
100
AcDbLine
 62
4
  6
CONTINUOUS
 10
10.2879584202
 20
9.791060531
 11
10.2879584202
 21
9.9301538551
  0
LINE
  5
2BD
100
AcDbEntity
  8
0
100
AcDbLine
 62
4
  6
CONTINUOUS
 10
10.2780232637
 20
9.0823735834
 11
10.3177642111
 21
9.2187108635
  0
LINE
  5
2BE
100
AcDbEntity
  8
0
100
AcDbLine
 62
4
  6
CONTINUOUS
 10
10.5562098357
 20
9.7393397739
 11
10.5959507665
 21
9.869053566
  0
LINE
  5
2BF
100
AcDbEntity
  8
0
100
AcDbLine
 62
4
  6
CONTINUOUS
 10
10.6356917335
 20
9.502667828
 11
10.6158212598
 21
9.4742401353
  0
LINE
  5
2C0
100
AcDbEntity
  8
0
100
AcDbLine
 62
4
  6
CONTINUOUS
 10
10.6158212598
 20
9.3649525259
 11
10.6853679219
 21
9.4594818253
  0
LINE
  5
2C1
100
AcDbEntity
  8
0
100
AcDbLine
 62
4
  6
CONTINUOUS
 10
11.152324063
 20
9.8205337058
 11
11.1622592625
 21
9.8297799384
  0
LINE
  5
2C2
100
AcDbEntity
  8
0
100
AcDbLine
 62
4
  6
CONTINUOUS
 10
11.2417412568
 20
9.8143326024
 11
11.2516764563
 21
9.8235788349
  0
LINE
  5
2C3
100
AcDbEntity
  8
0
100
AcDbLine
 62
4
  6
CONTINUOUS
 10
10.7946555313
 20
9.3724208028
 11
10.7747850659
 21
9.3539283485
  0
LINE
  5
2C4
100
AcDbEntity
  8
0
100
AcDbLine
 62
4
  6
CONTINUOUS
 10
11.2914173871
 20
9.7214704153
 11
11.3013525866
 21
9.7307166447
  0
LINE
  5
2C5
100
AcDbEntity
  8
0
100
AcDbLine
 62
4
  6
CONTINUOUS
 10
10.7251089839
 20
9.1705909339
 11
10.7449794493
 21
9.1890833861
  0
LINE
  5
2C6
100
AcDbEntity
  8
0
100
AcDbLine
 62
4
  6
CONTINUOUS
 10
10.2228825634
 20
7.6222403061
 11
10.2402692289
 21
7.6210345368
  0
LINE
  5
2C7
100
AcDbEntity
  8
0
100
AcDbLine
 62
4
  6
CONTINUOUS
 10
8.2164614005
 20
11.0764435477
 11
8.2077680678
 21
11.0886375431
  0
LINE
  5
2C8
100
AcDbEntity
  8
0
100
AcDbLine
 62
4
  6
CONTINUOUS
 10
8.2686213971
 20
11.130781791
 11
8.2860080626
 21
11.1063938024
  0
LINE
  5
2C9
100
AcDbEntity
  8
0
100
AcDbLine
 62
4
  6
CONTINUOUS
 10
8.2686213971
 20
11.1887373455
 11
8.2773147298
 21
11.176543345
  0
LINE
  5
2CA
100
AcDbEntity
  8
0
100
AcDbLine
 62
4
  6
CONTINUOUS
 10
10.436986977
 20
9.7807253655
 11
10.436986977
 21
9.9198186896
  0
LINE
  5
2CB
100
AcDbEntity
  8
0
100
AcDbLine
 62
4
  6
CONTINUOUS
 10
10.4369870698
 20
9.071349406
 11
10.4369870698
 21
9.2104427302
  0
LINE
  5
2CC
100
AcDbEntity
  8
0
100
AcDbLine
 62
4
  6
CONTINUOUS
 10
10.4965984063
 20
9.8660084346
 11
10.4965984063
 21
9.7765912988
  0
LINE
  5
2CD
100
AcDbEntity
  8
0
100
AcDbLine
 62
4
  6
CONTINUOUS
 10
10.5065336504
 20
9.3725316474
 11
10.5065336504
 21
9.5116249715
  0
LINE
  5
2CE
100
AcDbEntity
  8
0
100
AcDbLine
 62
4
  6
CONTINUOUS
 10
10.5164689646
 20
9.0658373179
 11
10.5164689646
 21
9.204930642
  0
LINE
  5
2CF
100
AcDbEntity
  8
0
100
AcDbLine
 62
4
  6
CONTINUOUS
 10
10.6224447646
 20
9.7777990621
 11
10.6224447646
 21
9.85728096
  0
LINE
  5
2D0
100
AcDbEntity
  8
0
100
AcDbLine
 62
4
  6
CONTINUOUS
 10
10.6820561608
 20
9.902823084
 11
10.6820561608
 21
9.7637297599
  0
LINE
  5
2D1
100
AcDbEntity
  8
0
100
AcDbLine
 62
4
  6
CONTINUOUS
 10
10.6853679219
 20
9.4594818253
 11
10.6853679219
 21
9.4793522989
  0
LINE
  5
2D2
100
AcDbEntity
  8
0
100
AcDbLine
 62
4
  6
CONTINUOUS
 10
10.1794158996
 20
7.5557080674
 11
10.1881092324
 21
7.5898785138
  0
LINE
  5
2D3
100
AcDbEntity
  8
0
100
AcDbLine
 62
4
  6
CONTINUOUS
 10
11.1026478663
 20
9.8736549501
 11
11.0993361331
 21
9.8639493786
  0
LINE
  5
2D4
100
AcDbEntity
  8
0
100
AcDbLine
 62
7
  6
CONTINUOUS
 10
13.258594463
 20
11.3932594741
 11
13.957405308
 21
12.068258957
  0
LINE
  5
2D5
100
AcDbEntity
  8
0
100
AcDbLine
 62
4
  6
CONTINUOUS
 10
10.8410200431
 20
9.1625524746
 11
10.8608905085
 21
9.1810449268
  0
LINE
  5
2D6
100
AcDbEntity
  8
0
100
AcDbLine
 62
4
  6
CONTINUOUS
 10
10.9105667052
 20
9.0583770225
 11
10.8906962398
 21
9.0398845682
  0
LINE
  5
2D7
100
AcDbEntity
  8
0
100
AcDbLine
 62
4
  6
CONTINUOUS
 10
11.019854298
 20
9.0507979022
 11
10.9999838326
 21
9.0323054479
  0
LINE
  5
2D8
100
AcDbEntity
  8
0
100
AcDbLine
 62
4
  6
CONTINUOUS
 10
11.2284942842
 20
9.0760696195
 11
11.1755063544
 21
9.0532503779
  0
LINE
  5
2D9
100
AcDbEntity
  8
0
100
AcDbLine
 62
4
  6
CONTINUOUS
 10
10.3177642111
 20
9.2187108635
 11
10.357505175
 21
9.0768614942
  0
LINE
  5
2DA
100
AcDbEntity
  8
0
100
AcDbLine
 62
4
  6
CONTINUOUS
 10
10.7217971579
 20
9.7609737124
 11
10.7217971579
 21
9.8603260891
  0
LINE
  5
2DB
100
AcDbEntity
  8
0
100
AcDbLine
 62
4
  6
CONTINUOUS
 10
10.7251088692
 20
9.3573734045
 11
10.7251088692
 21
9.4964667286
  0
LINE
  5
2DC
100
AcDbEntity
  8
0
100
AcDbLine
 62
4
  6
CONTINUOUS
 10
10.7251089839
 20
9.0712385592
 11
10.7251089839
 21
9.1705909339
  0
LINE
  5
2DD
100
AcDbEntity
  8
0
100
AcDbLine
 62
4
  6
CONTINUOUS
 10
10.7681615551
 20
9.8471754662
 11
10.7681615551
 21
9.8273049926
  0
LINE
  5
2DE
100
AcDbEntity
  8
0
100
AcDbLine
 62
4
  6
CONTINUOUS
 10
10.7946555313
 20
9.4717731775
 11
10.7946555313
 21
9.3724208028
  0
LINE
  5
2DF
100
AcDbEntity
  8
0
100
AcDbLine
 62
4
  6
CONTINUOUS
 10
10.8112142854
 20
9.7647078514
 11
10.8112142854
 21
9.794513565
  0
LINE
  5
2E0
100
AcDbEntity
  8
0
100
AcDbLine
 62
4
  6
CONTINUOUS
 10
10.8410200431
 20
9.0632000999
 11
10.8410200431
 21
9.1625524746
  0
LINE
  5
2E1
100
AcDbEntity
  8
0
100
AcDbLine
 62
4
  6
CONTINUOUS
 10
10.8708256816
 20
9.7506385491
 11
10.8708256816
 21
9.8301204522
  0
LINE
  5
2E2
100
AcDbEntity
  8
0
100
AcDbLine
 62
4
  6
CONTINUOUS
 10
10.9105666123
 20
9.847234883
 11
10.9105666123
 21
9.7578177441
  0
LINE
  5
2E3
100
AcDbEntity
  8
0
100
AcDbLine
 62
4
  6
CONTINUOUS
 10
10.9105667052
 20
9.1577293972
 11
10.9105667052
 21
9.0583770225
  0
LINE
  5
2E4
100
AcDbEntity
  8
0
100
AcDbLine
 62
4
  6
CONTINUOUS
 10
10.950307636
 20
9.0357505039
 11
10.950307636
 21
9.174843828
  0
LINE
  5
2E5
100
AcDbEntity
  8
0
100
AcDbLine
 62
4
  6
CONTINUOUS
 10
10.9701780749
 20
9.7437484373
 11
10.9701780749
 21
9.843100814
  0
LINE
  5
2E6
100
AcDbEntity
  8
0
100
AcDbLine
 62
4
  6
CONTINUOUS
 10
11.0099190057
 20
9.7509276322
 11
11.0099190057
 21
9.8800857185
  0
LINE
  5
2E7
100
AcDbEntity
  8
0
100
AcDbLine
 62
4
  6
CONTINUOUS
 10
11.019854298
 20
9.1501502769
 11
11.019854298
 21
9.0507979022
  0
LINE
  5
2E8
100
AcDbEntity
  8
0
100
AcDbLine
 62
4
  6
CONTINUOUS
 10
10.1881092324
 20
7.5898785138
 11
10.2054958979
 21
7.6118549679
  0
LINE
  5
2E9
100
AcDbEntity
  8
0
100
AcDbLine
 62
4
  6
CONTINUOUS
 10
10.2663492272
 20
7.50331478
 11
10.2576558944
 21
7.492326554
  0
LINE
  5
2EA
100
AcDbEntity
  8
0
100
AcDbLine
 62
4
  6
CONTINUOUS
 10
10.2018531104
 20
9.2267493256
 11
10.2217235841
 21
9.2055008299
  0
LINE
  5
2EB
100
AcDbEntity
  8
0
100
AcDbLine
 62
4
  6
CONTINUOUS
 10
10.2184117581
 20
9.9349769325
 11
10.2879584202
 21
9.791060531
  0
LINE
  5
2EC
100
AcDbEntity
  8
0
100
AcDbLine
 62
4
  6
CONTINUOUS
 10
10.536339363
 20
9.4499465172
 11
10.5760803124
 21
9.36770857
  0
LINE
  5
2ED
100
AcDbEntity
  8
0
100
AcDbLine
 62
4
  6
CONTINUOUS
 10
10.5363393703
 20
9.8731876303
 11
10.5661451016
 21
9.7717682191
  0
LINE
  5
2EE
100
AcDbEntity
  8
0
100
AcDbLine
 62
4
  6
CONTINUOUS
 10
11.0761540274
 20
9.027023027
 11
11.0761540274
 21
9.1661163511
  0
LINE
  5
2EF
100
AcDbEntity
  8
0
100
AcDbLine
 62
4
  6
CONTINUOUS
 10
11.0993361331
 20
9.7347912955
 11
11.0993361331
 21
9.8341436722
  0
LINE
  5
2F0
100
AcDbEntity
  8
0
100
AcDbLine
 62
4
  6
CONTINUOUS
 10
11.0993361331
 20
9.8639493786
 11
11.0993361331
 21
9.8738846196
  0
LINE
  5
2F1
100
AcDbEntity
  8
0
100
AcDbLine
 62
4
  6
CONTINUOUS
 10
11.152324063
 20
9.741051808
 11
11.152324063
 21
9.8205337058
  0
LINE
  5
2F2
100
AcDbEntity
  8
0
100
AcDbLine
 62
4
  6
CONTINUOUS
 10
11.2417412568
 20
9.7845268918
 11
11.2417412568
 21
9.8143326024
  0
LINE
  5
2F3
100
AcDbEntity
  8
0
100
AcDbLine
 62
4
  6
CONTINUOUS
 10
11.3013525866
 20
9.7307166447
 11
11.3013525866
 21
9.7605223584
  0
LINE
  5
2F4
100
AcDbEntity
  8
0
100
AcDbLine
 62
4
  6
CONTINUOUS
 10
10.2054958979
 20
7.6118549679
 11
10.2228825634
 21
7.6222403061
  0
LINE
  5
2F5
100
AcDbEntity
  8
0
100
AcDbLine
 62
4
  6
CONTINUOUS
 10
13.0151811474
 20
9.2860690943
 11
13.0325678129
 21
9.2964544325
  0
LINE
  5
2F6
100
AcDbEntity
  8
0
100
AcDbLine
 62
4
  6
CONTINUOUS
 10
10.0726950273
 20
9.1562245702
 11
10.1256829613
 21
9.1260558775
  0
LINE
  5
2F7
100
AcDbEntity
  8
0
100
AcDbLine
 62
4
  6
CONTINUOUS
 10
10.0693832013
 20
9.8459597254
 11
9.9998365392
 21
9.9103942281
  0
LINE
  5
2F8
100
AcDbEntity
  8
0
100
AcDbLine
 62
4
  6
CONTINUOUS
 10
9.9998365392
 20
9.8209770892
 11
10.0097717771
 21
9.8103528402
  0
LINE
  5
2F9
100
AcDbEntity
  8
0
100
AcDbLine
 62
4
  6
CONTINUOUS
 10
10.7449794493
 20
9.049990062
 11
10.7251089839
 21
9.0712385592
  0
LINE
  5
2FA
100
AcDbEntity
  8
0
100
AcDbLine
 62
4
  6
CONTINUOUS
 10
10.1091241487
 20
9.8233332056
 11
10.1289946224
 21
9.8020847078
  0
LINE
  5
2FB
100
AcDbEntity
  8
0
100
AcDbLine
 62
4
  6
CONTINUOUS
 10
10.8608905085
 20
9.0419516027
 11
10.8410200431
 21
9.0632000999
  0
LINE
  5
2FC
100
AcDbEntity
  8
0
100
AcDbLine
 62
4
  6
CONTINUOUS
 10
10.0594479644
 20
9.9460011091
 11
10.0693832013
 21
9.935376857
  0
LINE
  5
2FD
100
AcDbEntity
  8
0
100
AcDbLine
 62
7
  6
CONTINUOUS
 10
11.4956569197
 20
5.4301865418
 11
11.4956569197
 21
4.8656251777
  0
LINE
  5
2FE
100
AcDbEntity
  8
0
100
AcDbLine
 62
7
  6
CONTINUOUS
 10
11.6996677764
 20
5.4160383408
 11
11.6996677764
 21
4.6685661593
  0
LINE
  5
2FF
100
AcDbEntity
  8
0
100
AcDbLine
 62
4
  6
CONTINUOUS
 10
13.0673411439
 20
9.2360873393
 11
13.0325678129
 21
9.2153166587
  0
LINE
  5
300
100
AcDbEntity
  8
0
100
AcDbLine
 62
4
  6
CONTINUOUS
 10
10.2576558944
 20
7.492326554
 11
10.2402692289
 21
7.4819412127
  0
LINE
  5
301
100
AcDbEntity
  8
0
100
AcDbLine
 62
4
  6
CONTINUOUS
 10
10.9999838326
 20
9.0323054479
 11
10.950307636
 21
9.0357505039
  0
LINE
  5
302
100
AcDbEntity
  8
0
100
AcDbLine
 62
4
  6
CONTINUOUS
 10
10.8906962398
 20
9.0398845682
 11
10.8608905085
 21
9.0419516027
  0
LINE
  5
303
100
AcDbEntity
  8
0
100
AcDbLine
 62
4
  6
CONTINUOUS
 10
10.7847203801
 20
9.0472340191
 11
10.7449794493
 21
9.049990062
  0
LINE
  5
304
100
AcDbEntity
  8
0
100
AcDbLine
 62
4
  6
CONTINUOUS
 10
10.2018531104
 20
9.0876560015
 11
10.1521769303
 21
9.0911010563
  0
LINE
  5
305
100
AcDbEntity
  8
0
100
AcDbLine
 62
4
  6
CONTINUOUS
 10
10.5164689646
 20
9.0658373179
 11
10.5760803939
 21
9.0617032513
  0
LINE
  5
306
100
AcDbEntity
  8
0
100
AcDbLine
 62
4
  6
CONTINUOUS
 10
11.0761540274
 20
9.027023027
 11
11.1357654236
 21
9.0228889626
  0
LINE
  5
307
100
AcDbEntity
  8
0
100
AcDbLine
 62
4
  6
CONTINUOUS
 10
10.2912702462
 20
9.1211958536
 11
10.344258176
 21
9.1175211282
  0
LINE
  5
308
100
AcDbEntity
  8
0
100
AcDbLine
 62
4
  6
CONTINUOUS
 10
11.1158949582
 20
9.1037488871
 11
11.0761540274
 21
9.10650493
  0
LINE
  5
309
100
AcDbEntity
  8
0
100
AcDbLine
 62
4
  6
CONTINUOUS
 10
10.5562099285
 20
9.1425631758
 11
10.5164689646
 21
9.145319221
  0
LINE
  5
30A
100
AcDbEntity
  8
0
100
AcDbLine
 62
4
  6
CONTINUOUS
 10
10.1521769303
 20
9.2301943804
 11
10.2018531104
 21
9.2267493256
  0
LINE
  5
30B
100
AcDbEntity
  8
0
100
AcDbLine
 62
4
  6
CONTINUOUS
 10
10.3972461058
 20
9.2131987754
 11
10.4767280006
 21
9.2076866873
  0
LINE
  5
30C
100
AcDbEntity
  8
0
100
AcDbLine
 62
4
  6
CONTINUOUS
 10
10.5164689646
 20
9.204930642
 11
10.5760803939
 21
9.2007965754
  0
LINE
  5
30D
100
AcDbEntity
  8
0
100
AcDbLine
 62
4
  6
CONTINUOUS
 10
10.7449794493
 20
9.1890833861
 11
10.7847203801
 21
9.1863273432
  0
LINE
  5
30E
100
AcDbEntity
  8
0
100
AcDbLine
 62
4
  6
CONTINUOUS
 10
10.8608905085
 20
9.1810449268
 11
10.8906962398
 21
9.1789778924
  0
LINE
  5
30F
100
AcDbEntity
  8
0
100
AcDbLine
 62
4
  6
CONTINUOUS
 10
10.950307636
 20
9.174843828
 11
10.9999838326
 21
9.1713987721
  0
LINE
  5
310
100
AcDbEntity
  8
0
100
AcDbLine
 62
4
  6
CONTINUOUS
 10
11.0761540274
 20
9.1661163511
 11
11.1357654236
 21
9.1619822867
  0
LINE
  5
311
100
AcDbEntity
  8
0
100
AcDbLine
 62
4
  6
CONTINUOUS
 10
11.1755063544
 20
9.106238314
 11
11.2284942842
 21
9.0760696195
  0
LINE
  5
312
100
AcDbEntity
  8
0
100
AcDbLine
 62
4
  6
CONTINUOUS
 10
8.2338480661
 20
11.0636466677
 11
8.2164614005
 21
11.0764435477
  0
LINE
  5
313
100
AcDbEntity
  8
0
100
AcDbLine
 62
4
  6
CONTINUOUS
 10
8.2512347316
 20
11.143578668
 11
8.2686213971
 21
11.130781791
  0
LINE
  5
314
100
AcDbEntity
  8
0
100
AcDbLine
 62
4
  6
CONTINUOUS
 10
8.2512347316
 20
11.2015342224
 11
8.2686213971
 21
11.1887373455
  0
LINE
  5
315
100
AcDbEntity
  8
0
100
AcDbLine
 62
4
  6
CONTINUOUS
 10
10.8906962398
 20
9.1789778924
 11
10.9105667052
 21
9.1577293972
  0
LINE
  5
316
100
AcDbEntity
  8
0
100
AcDbLine
 62
4
  6
CONTINUOUS
 10
10.6853679219
 20
9.4793522989
 11
10.6654974565
 21
9.5006007941
  0
LINE
  5
317
100
AcDbEntity
  8
0
100
AcDbLine
 62
4
  6
CONTINUOUS
 10
10.9999838326
 20
9.1713987721
 11
11.019854298
 21
9.1501502769
  0
LINE
  5
318
100
AcDbEntity
  8
0
100
AcDbLine
 62
4
  6
CONTINUOUS
 10
10.7747850659
 20
9.4930216726
 11
10.7946555313
 21
9.4717731775
  0
LINE
  5
319
100
AcDbEntity
  8
0
100
AcDbLine
 62
4
  6
CONTINUOUS
 10
10.4866631736
 20
9.8766326863
 11
10.4965984063
 21
9.8660084346
  0
LINE
  5
31A
100
AcDbEntity
  8
0
100
AcDbLine
 62
4
  6
CONTINUOUS
 10
10.7615380887
 20
9.8575700462
 11
10.7681615551
 21
9.8471754662
  0
LINE
  5
31B
100
AcDbEntity
  8
0
100
AcDbLine
 62
4
  6
CONTINUOUS
 10
10.8708256816
 20
9.8301204522
 11
10.860890482
 21
9.8506799343
  0
LINE
  5
31C
100
AcDbEntity
  8
0
100
AcDbLine
 62
7
  6
CONTINUOUS
 10
11.73404835
 20
5.41365404
 11
11.73404835
 21
4.6596678233
  0
LINE
  5
31D
100
AcDbEntity
  8
0
100
AcDbLine
 62
7
  6
CONTINUOUS
 10
13.6079998855
 20
9.9408020802
 11
13.6091775051
 21
9.9419186261
  0
LINE
  5
31E
100
AcDbEntity
  8
0
100
AcDbLine
 62
4
  6
CONTINUOUS
 10
13.0064878146
 20
9.1591697624
 11
13.0760344767
 21
9.154346685
  0
LINE
  5
31F
100
AcDbEntity
  8
0
100
AcDbLine
 62
4
  6
CONTINUOUS
 10
10.7747850659
 20
9.3539283485
 11
10.7251088692
 21
9.3573734045
  0
LINE
  5
320
100
AcDbEntity
  8
0
100
AcDbLine
 62
4
  6
CONTINUOUS
 10
10.6853679219
 20
9.3601294485
 11
10.6158212598
 21
9.3649525259
  0
LINE
  5
321
100
AcDbEntity
  8
0
100
AcDbLine
 62
4
  6
CONTINUOUS
 10
13.0325678129
 20
9.2964544325
 11
13.0499544784
 21
9.2952486632
  0
LINE
  5
322
100
AcDbEntity
  8
0
100
AcDbLine
 62
4
  6
CONTINUOUS
 10
10.6654974565
 20
9.5006007941
 11
10.6356917335
 21
9.502667828
  0
LINE
  5
323
100
AcDbEntity
  8
0
100
AcDbLine
 62
4
  6
CONTINUOUS
 10
10.7251088692
 20
9.4964667286
 11
10.7747850659
 21
9.4930216726
  0
LINE
  5
324
100
AcDbEntity
  8
0
100
AcDbLine
 62
4
  6
CONTINUOUS
 10
10.64231523
 20
9.7664858028
 11
10.6224447646
 21
9.7777990621
  0
LINE
  5
325
100
AcDbEntity
  8
0
100
AcDbLine
 62
4
  6
CONTINUOUS
 10
10.8310847508
 20
9.753394592
 11
10.8112142854
 21
9.7647078514
  0
LINE
  5
326
100
AcDbEntity
  8
0
100
AcDbLine
 62
4
  6
CONTINUOUS
 10
10.9105666123
 20
9.7578177441
 11
10.9205018782
 21
9.7471934932
  0
LINE
  5
327
100
AcDbEntity
  8
0
100
AcDbLine
 62
4
  6
CONTINUOUS
 10
11.0198542715
 20
9.7403033813
 11
11.0099190057
 21
9.7509276322
  0
LINE
  5
328
100
AcDbEntity
  8
0
100
AcDbLine
 62
4
  6
CONTINUOUS
 10
11.1622592625
 20
9.7304275617
 11
11.152324063
 21
9.741051808
  0
LINE
  5
329
100
AcDbEntity
  8
0
100
AcDbLine
 62
4
  6
CONTINUOUS
 10
11.2417412568
 20
9.7348507045
 11
11.2516764563
 21
9.7242264582
  0
LINE
  5
32A
100
AcDbEntity
  8
0
100
AcDbLine
 62
4
  6
CONTINUOUS
 10
13.0064878146
 20
9.2750808631
 11
13.0151811474
 21
9.2860690943
  0
LINE
  5
32B
100
AcDbEntity
  8
0
100
AcDbLine
 62
4
  6
CONTINUOUS
 10
13.0325678129
 20
9.2153166587
 11
13.0151811474
 21
9.1933402088
  0
LINE
  5
32C
100
AcDbEntity
  8
0
100
AcDbLine
 62
4
  6
CONTINUOUS
 10
13.0760344767
 20
9.2470755705
 11
13.0673411439
 21
9.2360873393
  0
LINE
  5
32D
100
AcDbEntity
  8
0
100
AcDbLine
 62
4
  6
CONTINUOUS
 10
10.5363393703
 20
9.7407177954
 11
10.5562098357
 21
9.7393397739
  0
LINE
  5
32E
100
AcDbEntity
  8
0
100
AcDbLine
 62
4
  6
CONTINUOUS
 10
11.202000326
 20
9.7276715095
 11
11.1622592625
 21
9.7304275617
  0
LINE
  5
32F
100
AcDbEntity
  8
0
100
AcDbLine
 62
4
  6
CONTINUOUS
 10
11.0397247369
 20
9.7389253599
 11
11.0198542715
 21
9.7403033813
  0
LINE
  5
330
100
AcDbEntity
  8
0
100
AcDbLine
 62
4
  6
CONTINUOUS
 10
10.8708256816
 20
9.7506385491
 11
10.8310847508
 21
9.753394592
  0
LINE
  5
331
100
AcDbEntity
  8
0
100
AcDbLine
 62
4
  6
CONTINUOUS
 10
10.6820561608
 20
9.7637297599
 11
10.64231523
 21
9.7664858028
  0
LINE
  5
332
100
AcDbEntity
  8
0
100
AcDbLine
 62
4
  6
CONTINUOUS
 10
10.0097717771
 20
9.8103528402
 11
10.0495127276
 21
9.807596796
  0
LINE
  5
333
100
AcDbEntity
  8
0
100
AcDbLine
 62
4
  6
CONTINUOUS
 10
10.1289946224
 20
9.8020847078
 11
10.1588003453
 21
9.8000176739
  0
LINE
  5
334
100
AcDbEntity
  8
0
100
AcDbLine
 62
4
  6
CONTINUOUS
 10
10.9205018782
 20
9.7471934932
 11
10.9701780749
 21
9.7437484373
  0
LINE
  5
335
100
AcDbEntity
  8
0
100
AcDbLine
 62
4
  6
CONTINUOUS
 10
11.2516764563
 20
9.7242264582
 11
11.2914173871
 21
9.7214704153
  0
LINE
  5
336
100
AcDbEntity
  8
0
100
AcDbLine
 62
4
  6
CONTINUOUS
 10
10.8310847508
 20
9.8030707804
 11
10.8708256816
 21
9.8003147375
  0
LINE
  5
337
100
AcDbEntity
  8
0
100
AcDbLine
 62
4
  6
CONTINUOUS
 10
10.860890482
 20
9.8506799343
 11
10.8112142854
 21
9.8541249902
  0
LINE
  5
338
100
AcDbEntity
  8
0
100
AcDbLine
 62
4
  6
CONTINUOUS
 10
10.436986977
 20
9.8800777422
 11
10.4866631736
 21
9.8766326863
  0
LINE
  5
339
100
AcDbEntity
  8
0
100
AcDbLine
 62
4
  6
CONTINUOUS
 10
10.64231523
 20
9.8658381795
 11
10.6820561608
 21
9.8630821366
  0
LINE
  5
33A
100
AcDbEntity
  8
0
100
AcDbLine
 62
4
  6
CONTINUOUS
 10
10.7217971579
 20
9.8603260891
 11
10.7615380887
 21
9.8575700462
  0
LINE
  5
33B
100
AcDbEntity
  8
0
100
AcDbLine
 62
4
  6
CONTINUOUS
 10
11.1622592625
 20
9.8297799384
 11
11.202000326
 21
9.8270238863
  0
LINE
  5
33C
100
AcDbEntity
  8
0
100
AcDbLine
 62
4
  6
CONTINUOUS
 10
11.2516764563
 20
9.8235788349
 11
11.2914173871
 21
9.820822792
  0
LINE
  5
33D
100
AcDbEntity
  8
0
100
AcDbLine
 62
4
  6
CONTINUOUS
 10
11.2914173871
 20
9.767834858
 11
11.2516764563
 21
9.7772143922
  0
LINE
  5
33E
100
AcDbEntity
  8
0
100
AcDbLine
 62
4
  6
CONTINUOUS
 10
11.2516764563
 20
9.7772143922
 11
11.2417412568
 21
9.7845268918
  0
LINE
  5
33F
100
AcDbEntity
  8
0
100
AcDbLine
 62
4
  6
CONTINUOUS
 10
11.3013525866
 20
9.7605223584
 11
11.2914173871
 21
9.767834858
  0
LINE
  5
340
100
AcDbEntity
  8
0
100
AcDbLine
 62
4
  6
CONTINUOUS
 10
11.2914173871
 20
9.820822792
 11
11.3013525866
 21
9.8101985426
  0
LINE
  5
341
100
AcDbEntity
  8
0
100
AcDbLine
 62
7
  6
CONTINUOUS
 10
12.4954266493
 20
5.3608522756
 11
12.4954266493
 21
4.6068660589
  0
LINE
  5
342
100
AcDbEntity
  8
0
100
AcDbLine
 62
7
  6
CONTINUOUS
 10
12.5423913731
 20
5.3575952609
 11
12.5423913731
 21
4.6101230793
  0
LINE
  5
343
100
AcDbEntity
  8
0
100
AcDbLine
 62
4
  6
CONTINUOUS
 10
10.019707015
 20
9.9487571533
 11
10.0594479644
 21
9.9460011091
  0
LINE
  5
344
100
AcDbEntity
  8
0
100
AcDbLine
 62
4
  6
CONTINUOUS
 10
11.0993361331
 20
9.8738846196
 11
11.1026478663
 21
9.8736549501
  0
LINE
  5
345
100
AcDbEntity
  8
0
100
AcDbLine
 62
4
  6
CONTINUOUS
 10
13.0151811474
 20
9.1933402088
 11
13.0064878146
 21
9.1591697624
  0
LINE
  5
346
100
AcDbEntity
  8
0
100
AcDbLine
 62
4
  6
CONTINUOUS
 10
13.0499544784
 20
9.2952486632
 11
13.0673411439
 21
9.2824517862
  0
LINE
  5
347
100
AcDbEntity
  8
0
100
AcDbLine
 62
4
  6
CONTINUOUS
 10
13.0760344767
 20
9.2702577857
 11
13.0760344767
 21
9.2470755705
  0
LINE
  5
348
100
AcDbEntity
  8
0
100
AcDbLine
 62
7
  6
CONTINUOUS
 10
13.0997588156
 20
5.3189416975
 11
13.0997588156
 21
4.7543803333
  0
LINE
  5
349
100
AcDbEntity
  8
0
100
AcDbLine
 62
7
  6
CONTINUOUS
 10
13.1123429658
 20
5.3180689837
 11
13.1123429658
 21
4.7665356897
  0
LINE
  5
34A
100
AcDbEntity
  8
0
100
AcDbLine
 62
7
  6
CONTINUOUS
 10
13.258594463
 20
5.3079264079
 11
13.258594463
 21
11.3932594741
  0
LINE
  5
34B
100
AcDbEntity
  8
0
100
AcDbLine
 62
4
  6
CONTINUOUS
 10
13.0673411439
 20
9.2824517862
 11
13.0760344767
 21
9.2702577857
  0
LINE
  5
34C
100
AcDbEntity
  8
0
100
AcDbLine
 62
4
  6
CONTINUOUS
 10
8.2512347316
 20
11.0624408983
 11
8.2338480661
 21
11.0636466677
  0
LINE
  5
34D
100
AcDbEntity
  8
0
100
AcDbLine
 62
4
  6
CONTINUOUS
 10
8.2338480661
 20
11.1447844373
 11
8.2512347316
 21
11.143578668
  0
LINE
  5
34E
100
AcDbEntity
  8
0
100
AcDbLine
 62
4
  6
CONTINUOUS
 10
8.2338480661
 20
11.2027399918
 11
8.2512347316
 21
11.2015342224
  0
LINE
  5
34F
100
AcDbEntity
  8
0
100
AcDbLine
 62
7
  6
CONTINUOUS
 10
13.957405308
 20
5.9829258909
 11
13.957405308
 21
12.068258957
  0
LINE
  5
350
100
AcDbEntity
  8
0
100
AcDbLine
 62
7
  6
CONTINUOUS
 10
8.042594692
 20
11.7549902868
 11
13.258594463
 21
11.3932594741
  0
LINE
  5
351
100
AcDbEntity
  8
0
100
AcDbLine
 62
7
  6
CONTINUOUS
 10
13.258594463
 20
5.3079264079
 11
13.957405308
 21
5.9829258909
  0
LINE
  5
352
100
AcDbEntity
  8
0
100
AcDbLine
 62
7
  6
CONTINUOUS
 10
13.957405308
 20
12.068258957
 11
8.741405537
 21
12.4299897698
  0
LINE
  5
353
100
AcDbEntity
  8
0
100
AcDbLine
 62
7
  6
CONTINUOUS
 10
12.9832229158
 20
4.6883408209
 11
12.9473435407
 21
4.6706170966
  0
ARC
  5
354
100
AcDbEntity
  8
0
100
AcDbCircle
 62
7
  6
CONTINUOUS
 10
12.3181373321
 20
7.5035290612
 40
2.9020833983
100
AcDbArc
 50
273.5024005705
 51
274.4318614998
  0
ARC
  5
355
100
AcDbEntity
  8
0
100
AcDbCircle
 62
7
  6
CONTINUOUS
 10
12.0341054436
 20
5.8898682971
 40
1.2662651638
100
AcDbArc
 50
254.6857191954
 51
256.2926786396
  0
ARC
  5
356
100
AcDbEntity
  8
0
100
AcDbCircle
 62
7
  6
CONTINUOUS
 10
12.5399910471
 20
5.5836622069
 40
0.9990265333
100
AcDbArc
 50
294.0424242342
 51
296.3106753905
  0
ARC
  5
357
100
AcDbEntity
  8
0
100
AcDbCircle
 62
7
  6
CONTINUOUS
 10
10.1344182461
 20
7.6867774209
 40
0.4001093063
100
AcDbArc
 50
233.4160012132
 51
236.0344485417
  0
ARC
  5
358
100
AcDbEntity
  8
0
100
AcDbCircle
 62
7
  6
CONTINUOUS
 10
12.9954715862
 20
4.8753557129
 40
0.1597212218
100
AcDbArc
 50
310.7630914437
 51
313.9856916518
  0
ARC
  5
359
100
AcDbEntity
  8
0
100
AcDbCircle
 62
7
  6
CONTINUOUS
 10
13.0117731499
 20
4.8586313328
 40
0.1363667677
100
AcDbArc
 50
313.9375979844
 51
317.5184669645
  0
SPLINE
  5
35A
100
AcDbEntity
  8
0
100
AcDbSpline
 62
7
  6
CONTINUOUS
 70
0
 71
3
 72
9
 73
5
 74
0
 42
0.0000001
 43
0.0000001
 44
0.0000000001
 40
0.0
 40
0.0
 40
0.0
 40
0.0
 40
0.5047194233
 40
1.0
 40
1.0
 40
1.0
 40
1.0
 10
13.0997588156
 20
4.7543803333
 30
0.0
 10
13.0806438582
 20
4.7422805824
 30
0.0
 10
13.0422566241
 20
4.7191068893
 30
0.0
 10
13.002699409
 20
4.6979670207
 30
0.0
 10
12.9827977865
 20
4.6881309647
 30
0.0
  0
SPLINE
  5
35B
100
AcDbEntity
  8
0
100
AcDbSpline
 62
7
  6
CONTINUOUS
 70
0
 71
3
 72
20
 73
16
 74
0
 42
0.0000001
 43
0.0000001
 44
0.0000000001
 40
0.0
 40
0.0
 40
0.0
 40
0.0
 40
0.1321092246
 40
0.2654630393
 40
0.3983965104
 40
0.4641824508
 40
0.5292377163
 40
0.593358461
 40
0.6563452314
 40
0.7180031916
 40
0.7781436148
 40
0.8365831781
 40
0.8931456382
 40
0.9476711375
 40
1.0
 40
1.0
 40
1.0
 40
1.0
 10
12.4716978061
 20
5.3622953435
 30
0.0
 10
12.4398803066
 20
5.360598091
 30
0.0
 10
12.3758878684
 20
5.3581923977
 30
0.0
 10
12.2797901545
 20
5.357479174
 30
0.0
 10
12.1997058777
 20
5.3592832654
 30
0.0
 10
12.1361513286
 20
5.3621799438
 30
0.0
 10
12.0892153648
 20
5.365054486
 30
0.0
 10
12.0430046358
 20
5.3686288708
 30
0.0
 10
11.9976749989
 20
5.3728905102
 30
0.0
 10
11.9533793588
 20
5.3778252133
 30
0.0
 10
11.9102672454
 20
5.3834161678
 30
0.0
 10
11.8684844514
 20
5.3896439346
 30
0.0
 10
11.8281707565
 20
5.3964877847
 30
0.0
 10
11.7894618629
 20
5.4039242929
 30
0.0
 10
11.7642706712
 20
5.4093777264
 30
0.0
 10
11.7519713122
 20
5.4122085454
 30
0.0
  0
SPLINE
  5
35C
100
AcDbEntity
  8
0
100
AcDbSpline
 62
7
  6
CONTINUOUS
 70
0
 71
3
 72
22
 73
18
 74
0
 42
0.0000001
 43
0.0000001
 44
0.0000000001
 40
0.0
 40
0.0
 40
0.0
 40
0.0
 40
0.043290989
 40
0.0886107636
 40
0.1362169549
 40
0.1863255266
 40
0.2391104607
 40
0.2946904167
 40
0.3531382065
 40
0.4144717324
 40
0.4786700373
 40
0.5456687108
 40
0.6153767118
 40
0.6876754969
 40
0.7624330017
 40
0.8395067268
 40
1.0
 40
1.0
 40
1.0
 40
1.0
 10
11.6401915743
 20
4.6807264271
 30
0.0
 10
11.6371082453
 20
4.6822482639
 30
0.0
 10
11.630917478
 20
4.6856127147
 30
0.0
 10
11.6218080234
 20
4.6914658112
 30
0.0
 10
11.6126863661
 20
4.6982518824
 30
0.0
 10
11.6035587536
 20
4.7059815785
 30
0.0
 10
11.5944323412
 20
4.7146590251
 30
0.0
 10
11.5853120769
 20
4.7242770232
 30
0.0
 10
11.5762053564
 20
4.7348216617
 30
0.0
 10
11.5671163702
 20
4.7462686135
 30
0.0
 10
11.5580517182
 20
4.7585881042
 30
0.0
 10
11.5490146397
 20
4.771742587
 30
0.0
 10
11.5400101662
 20
4.7856912091
 30
0.0
 10
11.5310404594
 20
4.800388748
 30
0.0
 10
11.5221084372
 20
4.8157891487
 30
0.0
 10
11.5100886915
 20
4.8374907892
 30
0.0
 10
11.5013847418
 20
4.8542371087
 30
0.0
 10
11.4956569197
 20
4.8656251777
 30
0.0
  0
SPLINE
  5
35D
100
AcDbEntity
  8
0
100
AcDbSpline
 62
7
  6
CONTINUOUS
 70
0
 71
3
 72
42
 73
38
 74
0
 42
0.0000001
 43
0.0000001
 44
0.0000000001
 40
0.0
 40
0.0
 40
0.0
 40
0.0
 40
0.0099876471
 40
0.0204482153
 40
0.0313778979
 40
0.0427717855
 40
0.0546232227
 40
0.0669241187
 40
0.0928371108
 40
0.1204281727
 40
0.1495999526
 40
0.1802423267
 40
0.212235641
 40
0.2454510317
 40
0.2797517947
 40
0.3149951022
 40
0.3510319967
 40
0.3877093471
 40
0.4248702027
 40
0.4623548651
 40
0.5000019479
 40
0.5376490075
 40
0.5751337455
 40
0.6122945894
 40
0.6489720274
 40
0.6850089917
 40
0.7202522813
 40
0.7545532871
 40
0.78776864
 40
0.8197621595
 40
0.8504046934
 40
0.8795764413
 40
0.9071678821
 40
0.9330808459
 40
0.9572320527
 40
0.9795539769
 40
1.0
 40
1.0
 40
1.0
 40
1.0
 10
12.9473412597
 20
4.6706159598
 30
0.0
 10
12.9434276847
 20
4.6686827868
 30
0.0
 10
12.9353483344
 20
4.6648592193
 30
0.0
 10
12.9227822412
 20
4.6593639853
 30
0.0
 10
12.9095017795
 20
4.6539818126
 30
0.0
 10
12.8955221538
 20
4.6487195188
 30
0.0
 10
12.8808594036
 20
4.6435829692
 30
0.0
 10
12.8600581338
 20
4.6367913449
 30
0.0
 10
12.8324544607
 20
4.6286940509
 30
0.0
 10
12.7974457144
 20
4.6197278016
 30
0.0
 10
12.7601606004
 20
4.6113942301
 30
0.0
 10
12.7207708577
 20
4.6037314069
 30
0.0
 10
12.6794574209
 20
4.5967757839
 30
0.0
 10
12.6364105887
 20
4.590559948
 30
0.0
 10
12.5918288252
 20
4.5851125418
 30
0.0
 10
12.5459178012
 20
4.5804597421
 30
0.0
 10
12.4988894242
 20
4.5766226805
 30
0.0
 10
12.4509608654
 20
4.5736195591
 30
0.0
 10
12.4023534356
 20
4.5714645661
 30
0.0
 10
12.3532916626
 20
4.5701672527
 30
0.0
 10
12.3040021829
 20
4.5697343143
 30
0.0
 10
12.2547126732
 20
4.5701672818
 30
0.0
 10
12.2056508717
 20
4.5714642516
 30
0.0
 10
12.1570433855
 20
4.573619472
 30
0.0
 10
12.1091147461
 20
4.5766222937
 30
0.0
 10
12.0620863018
 20
4.58045932
 30
0.0
 10
12.0161751626
 20
4.58511223
 30
0.0
 10
11.971593267
 20
4.5905592358
 30
0.0
 10
11.9285462876
 20
4.5967753308
 30
0.0
 10
11.8872326757
 20
4.6037306997
 30
0.0
 10
11.8478427268
 20
4.6113934144
 30
0.0
 10
11.810557557
 20
4.6197272482
 30
0.0
 10
11.7755481479
 20
4.6286928961
 30
0.0
 10
11.742974786
 20
4.6382490166
 30
0.0
 10
11.7129848023
 20
4.648350175
 30
0.0
 10
11.6857151832
 20
4.6589495977
 30
0.0
 10
11.6686724716
 20
4.6666574802
 30
0.0
 10
11.6606608971
 20
4.6706149926
 30
0.0
  0
SPLINE
  5
35E
100
AcDbEntity
  8
0
100
AcDbSpline
 62
7
  6
CONTINUOUS
 70
0
 71
3
 72
21
 73
17
 74
0
 42
0.0000001
 43
0.0000001
 44
0.0000000001
 40
0.0
 40
0.0
 40
0.0
 40
0.0
 40
0.1229683586
 40
0.1846291852
 40
0.2464222231
 40
0.3083594657
 40
0.3704517377
 40
0.4327079591
 40
0.49513282
 40
0.557727432
 40
0.6204888849
 40
0.6834099387
 40
0.7464809678
 40
0.8096898189
 40
0.8730228
 40
1.0
 40
1.0
 40
1.0
 40
1.0
 10
12.4954266493
 20
4.6068660589
 30
0.0
 10
12.4643657713
 20
4.6005119794
 30
0.0
 10
12.417475165
 20
4.5921314521
 30
0.0
 10
12.3544857602
 20
4.5837725908
 30
0.0
 10
12.3069142275
 20
4.5790266917
 30
0.0
 10
12.2590946342
 20
4.5759326958
 30
0.0
 10
12.2110730185
 20
4.5745959707
 30
0.0
 10
12.1629089833
 20
4.5751002807
 30
0.0
 10
12.1146719018
 20
4.5774960538
 30
0.0
 10
12.0664364681
 20
4.5817958081
 30
0.0
 10
12.0182773372
 20
4.5879762074
 30
0.0
 10
11.970263334
 20
4.5959768483
 30
0.0
 10
11.9224530648
 20
4.6057056151
 30
0.0
 10
11.874891958
 20
4.6170506669
 30
0.0
 10
11.8118044703
 20
4.6341769285
 30
0.0
 10
11.7650125422
 20
4.6490387746
 30
0.0
 10
11.73404835
 20
4.6596678233
 30
0.0
  0
SPLINE
  5
35F
100
AcDbEntity
  8
0
100
AcDbSpline
 62
7
  6
CONTINUOUS
 70
0
 71
3
 72
11
 73
7
 74
0
 42
0.0000001
 43
0.0000001
 44
0.0000000001
 40
0.0
 40
0.0
 40
0.0
 40
0.0
 40
0.2458672335
 40
0.4933492082
 40
0.7440905688
 40
1.0
 40
1.0
 40
1.0
 40
1.0
 10
11.6996677764
 20
4.6685661593
 30
0.0
 10
11.6965360396
 20
4.6683896735
 30
0.0
 10
11.6902363284
 20
4.6682642605
 30
0.0
 10
11.6807495418
 20
4.6688164648
 30
0.0
 10
11.6712124722
 20
4.6701643539
 30
0.0
 10
11.6649033683
 20
4.6716122029
 30
0.0
 10
11.6617552612
 20
4.6724773499
 30
0.0
  0
LINE
  5
360
100
AcDbEntity
  8
0
100
AcDbLine
 62
7
  6
CONTINUOUS
 10
11.6617552612
 20
4.6724773499
 11
11.6613947704
 21
4.6725770477
  0
SPLINE
  5
361
100
AcDbEntity
  8
0
100
AcDbSpline
 62
7
  6
CONTINUOUS
 70
0
 71
3
 72
9
 73
5
 74
0
 42
0.0000001
 43
0.0000001
 44
0.0000000001
 40
0.0
 40
0.0
 40
0.0
 40
0.0
 40
0.4899125641
 40
1.0
 40
1.0
 40
1.0
 40
1.0
 10
11.6613947704
 20
4.6725770477
 30
0.0
 10
11.6578171472
 20
4.673572731
 30
0.0
 10
11.650609234
 20
4.6759600988
 30
0.0
 10
11.6436587681
 20
4.6790151263
 30
0.0
 10
11.6401915743
 20
4.6807264271
 30
0.0
  0
LINE
  5
362
100
AcDbEntity
  8
0
100
AcDbLine
 62
7
  6
CONTINUOUS
 10
12.9470074036
 20
4.6713071774
 11
12.9459194048
 21
4.6708233679
  0
SPLINE
  5
363
100
AcDbEntity
  8
0
100
AcDbSpline
 62
7
  6
CONTINUOUS
 70
0
 71
3
 72
15
 73
11
 74
0
 42
0.0000001
 43
0.0000001
 44
0.0000000001
 40
0.0
 40
0.0
 40
0.0
 40
0.0
 40
0.1323763415
 40
0.2621392813
 40
0.3894055944
 40
0.5144404382
 40
0.637615975
 40
0.7593469011
 40
0.8800294664
 40
1.0
 40
1.0
 40
1.0
 40
1.0
 10
12.9459194048
 20
4.6708233679
 30
0.0
 10
12.9292518535
 20
4.6634243897
 30
0.0
 10
12.8958056256
 20
4.6497341983
 30
0.0
 10
12.8448852557
 20
4.6327273548
 30
0.0
 10
12.7938533646
 20
4.6196521703
 30
0.0
 10
12.7428857868
 20
4.6105556564
 30
0.0
 10
12.6921484997
 20
4.6053157745
 30
0.0
 10
12.6417736049
 20
4.6036693644
 30
0.0
 10
12.5918473137
 20
4.6052620064
 30
0.0
 10
12.5588094887
 20
4.6082290656
 30
0.0
 10
12.5423913731
 20
4.6101230793
 30
0.0
  0
SPLINE
  5
364
100
AcDbEntity
  8
0
100
AcDbSpline
 62
7
  6
CONTINUOUS
 70
0
 71
3
 72
49
 73
45
 74
0
 42
0.0000001
 43
0.0000001
 44
0.0000000001
 40
0.0
 40
0.0
 40
0.0
 40
0.0
 40
0.0321974564
 40
0.0654883787
 40
0.0997680175
 40
0.1349263389
 40
0.1708495829
 40
0.2074204546
 40
0.2445188136
 40
0.2820222069
 40
0.3198064251
 40
0.3577460499
 40
0.3957149968
 40
0.4335870564
 40
0.471236434
 40
0.5085382913
 40
0.5453692905
 40
0.5816081453
 40
0.6171361769
 40
0.65183788
 40
0.6856015059
 40
0.718319669
 40
0.7498899893
 40
0.7802157856
 40
0.7948838237
 40
0.8092074836
 40
0.8231766373
 40
0.8367816849
 40
0.8500136041
 40
0.8628639331
 40
0.8753249144
 40
0.8873894303
 40
0.8990511804
 40
0.9103046612
 40
0.9211452978
 40
0.931569547
 40
0.9415749562
 40
0.951160405
 40
0.9603261475
 40
0.9690741422
 40
0.9774081957
 40
0.9853343196
 40
0.992861084
 40
1.0
 40
1.0
 40
1.0
 40
1.0
 10
10.7653117165
 20
11.7535131156
 30
0.0
 10
10.748504058
 20
11.7504671143
 30
0.0
 10
10.7142468196
 20
11.7446586695
 30
0.0
 10
10.6618872366
 20
11.7368926213
 30
0.0
 10
10.6078284874
 20
11.7299465628
 30
0.0
 10
10.5522630633
 20
11.7238455425
 30
0.0
 10
10.4953886523
 20
11.7186114638
 30
0.0
 10
10.4374076512
 20
11.7142631421
 30
0.0
 10
10.3785264407
 20
11.7108161919
 30
0.0
 10
10.3189546347
 20
11.7082829933
 30
0.0
 10
10.2589043264
 20
11.7066726378
 30
0.0
 10
10.1985893259
 20
11.7059909037
 30
0.0
 10
10.1382243913
 20
11.7062402369
 30
0.0
 10
10.0780244599
 20
11.7074197424
 30
0.0
 10
10.0182038772
 20
11.7095251875
 30
0.0
 10
9.9589756288
 20
11.7125490157
 30
0.0
 10
9.9005505759
 20
11.7164803737
 30
0.0
 10
9.8431366941
 20
11.7213051425
 30
0.0
 10
9.7869383267
 20
11.7270059895
 30
0.0
 10
9.732155437
 20
11.7335624266
 30
0.0
 10
9.6789829182
 20
11.7409508875
 30
0.0
 10
9.6276097537
 20
11.7491447827
 30
0.0
 10
9.5782187728
 20
11.7581146795
 30
0.0
 10
9.5384280895
 20
11.7662973463
 30
0.0
 10
9.5077301614
 20
11.7732252398
 30
0.0
 10
9.4855653548
 20
11.7785368693
 30
0.0
 10
9.4640230334
 20
11.7840170763
 30
0.0
 10
9.4431223257
 20
11.7896610166
 30
0.0
 10
9.422881809
 20
11.7954636003
 30
0.0
 10
9.4033194673
 20
11.8014197102
 30
0.0
 10
9.3844526569
 20
11.8075239518
 30
0.0
 10
9.3662981237
 20
11.8137709544
 30
0.0
 10
9.3488719459
 20
11.8201550871
 30
0.0
 10
9.3321895532
 20
11.8266706963
 30
0.0
 10
9.316265692
 20
11.8333119912
 30
0.0
 10
9.3011143998
 20
11.8400730382
 30
0.0
 10
9.2867490358
 20
11.8469479298
 30
0.0
 10
9.2731821808
 20
11.8539305188
 30
0.0
 10
9.2604257423
 20
11.8610147848
 30
0.0
 10
9.248490802
 20
11.8681945072
 30
0.0
 10
9.2373877739
 20
11.8754635356
 30
0.0
 10
9.2271261468
 20
11.8828158323
 30
0.0
 10
9.2177151613
 20
11.8902448812
 30
0.0
 10
9.2118619882
 20
11.8953779198
 30
0.0
 10
9.2090894573
 20
11.89795805
 30
0.0
  0
SPLINE
  5
365
100
AcDbEntity
  8
0
100
AcDbSpline
 62
7
  6
CONTINUOUS
 70
0
 71
3
 72
15
 73
11
 74
0
 42
0.0000001
 43
0.0000001
 44
0.0000000001
 40
0.0
 40
0.0
 40
0.0
 40
0.0
 40
0.1273483281
 40
0.2538605602
 40
0.3795878981
 40
0.5046051042
 40
0.6290174419
 40
0.7529533761
 40
0.876560577
 40
1.0
 40
1.0
 40
1.0
 40
1.0
 10
12.1310691791
 20
11.0367869705
 30
0.0
 10
12.1310691791
 20
11.031160163
 30
0.0
 10
12.1305319323
 20
11.0199357108
 30
0.0
 10
12.128102278
 20
11.0033149144
 30
0.0
 10
12.1240735078
 20
10.9871117394
 30
0.0
 10
12.1184820097
 20
10.9714777158
 30
0.0
 10
12.1113790979
 20
10.9565570199
 30
0.0
 10
12.1028294868
 20
10.9424874457
 30
0.0
 10
12.0929135861
 20
10.9294008135
 30
0.0
 10
12.0854474129
 20
10.9214067648
 30
0.0
 10
12.081524527
 20
10.9176175539
 30
0.0
  0
SPLINE
  5
366
100
AcDbEntity
  8
0
100
AcDbSpline
 62
7
  6
CONTINUOUS
 70
0
 71
3
 72
15
 73
11
 74
0
 42
0.0000001
 43
0.0000001
 44
0.0000000001
 40
0.0
 40
0.0
 40
0.0
 40
0.0
 40
0.1273483281
 40
0.2538605602
 40
0.3795878981
 40
0.5046051042
 40
0.6290174419
 40
0.7529533761
 40
0.876560577
 40
1.0
 40
1.0
 40
1.0
 40
1.0
 10
9.9577359412
 20
5.9715083715
 30
0.0
 10
9.9577359412
 20
5.9658815639
 30
0.0
 10
9.9571986944
 20
5.9546571118
 30
0.0
 10
9.9547690401
 20
5.9380363153
 30
0.0
 10
9.9507402699
 20
5.9218331403
 30
0.0
 10
9.9451487718
 20
5.9061991167
 30
0.0
 10
9.9380458599
 20
5.8912784208
 30
0.0
 10
9.9294962488
 20
5.8772088466
 30
0.0
 10
9.9195803482
 20
5.8641222144
 30
0.0
 10
9.912114175
 20
5.8561281657
 30
0.0
 10
9.9081912891
 20
5.8523389548
 30
0.0
  0
SPLINE
  5
367
100
AcDbEntity
  8
0
100
AcDbSpline
 62
7
  6
CONTINUOUS
 70
0
 71
3
 72
17
 73
13
 74
0
 42
0.0000001
 43
0.0000001
 44
0.0000000001
 40
0.0
 40
0.0
 40
0.0
 40
0.0
 40
0.1225976243
 40
0.2455315264
 40
0.3690531546
 40
0.4311179854
 40
0.4934023476
 40
0.6186557403
 40
0.744901555
 40
0.8083960283
 40
0.8721039654
 40
1.0
 40
1.0
 40
1.0
 40
1.0
 10
9.9108794366
 20
7.3549373123
 30
0.0
 10
9.9134253855
 20
7.3494582937
 30
0.0
 10
9.919120721
 20
7.3387519587
 30
0.0
 10
9.9293007893
 20
7.3236457004
 30
0.0
 10
9.9390286814
 20
7.3119267087
 30
0.0
 10
9.9474846384
 20
7.303106459
 30
0.0
 10
9.9564046009
 20
7.2946309587
 30
0.0
 10
9.9683346753
 20
7.2847582144
 30
0.0
 10
9.981128103
 20
7.2759316055
 30
0.0
 10
9.9918374266
 20
7.2694980027
 30
0.0
 10
10.0028747201
 20
7.2634745684
 30
0.0
 10
10.0114369906
 20
7.2594619691
 30
0.0
 10
10.0172463957
 20
7.2570174803
 30
0.0
  0
SPLINE
  5
368
100
AcDbEntity
  8
0
100
AcDbSpline
 62
7
  6
CONTINUOUS
 70
0
 71
3
 72
15
 73
11
 74
0
 42
0.0000001
 43
0.0000001
 44
0.0000000001
 40
0.0
 40
0.0
 40
0.0
 40
0.0
 40
0.1273483257
 40
0.253860557
 40
0.3795878955
 40
0.504605103
 40
0.6290174424
 40
0.7529533779
 40
0.8765605788
 40
1.0
 40
1.0
 40
1.0
 40
1.0
 10
10.0346619528
 20
7.1781464455
 30
0.0
 10
10.0346619528
 20
7.1722979032
 30
0.0
 10
10.0341035359
 20
7.160631131
 30
0.0
 10
10.0315781416
 20
7.1433553608
 30
0.0
 10
10.0273906185
 20
7.1265136678
 30
0.0
 10
10.0215787883
 20
7.1102635525
 30
0.0
 10
10.0141959869
 20
7.0947548723
 30
0.0
 10
10.0053094787
 20
7.0801308507
 30
0.0
 10
9.9950028416
 20
7.0665285021
 30
0.0
 10
9.9872424628
 20
7.0582194215
 30
0.0
 10
9.9831649948
 20
7.0542808832
 30
0.0
  0
SPLINE
  5
369
100
AcDbEntity
  8
0
100
AcDbSpline
 62
7
  6
CONTINUOUS
 70
0
 71
3
 72
40
 73
36
 74
0
 42
0.0000001
 43
0.0000001
 44
0.0000000001
 40
0.0
 40
0.0
 40
0.0
 40
0.0
 40
0.0310748092
 40
0.0623077253
 40
0.0936925326
 40
0.1252215898
 40
0.1568831362
 40
0.1886631191
 40
0.2205448907
 40
0.2525097893
 40
0.2845374621
 40
0.3166063048
 40
0.3486938916
 40
0.3807774241
 40
0.4128341841
 40
0.4448419855
 40
0.4767796187
 40
0.5086272821
 40
0.5403669917
 40
0.5719829641
 40
0.6034619653
 40
0.6347936174
 40
0.6659706556
 40
0.6969891286
 40
0.7278485342
 40
0.7585518833
 40
0.7891056862
 40
0.8195198573
 40
0.8498075357
 40
0.8649117414
 40
0.8799905948
 40
0.9100761996
 40
0.9400910313
 40
0.9700577039
 40
1.0
 40
1.0
 40
1.0
 40
1.0
 10
10.0346619528
 20
7.1781464455
 30
0.0
 10
10.0346619528
 20
7.1826921722
 30
0.0
 10
10.0343228245
 20
7.1918102501
 30
0.0
 10
10.0328088527
 20
7.2054436817
 30
0.0
 10
10.0302966435
 20
7.2189971047
 30
0.0
 10
10.0268002893
 20
7.2323950213
 30
0.0
 10
10.02233901
 20
7.2455642003
 30
0.0
 10
10.0169374752
 20
7.2584322657
 30
0.0
 10
10.0106254026
 20
7.2709286246
 30
0.0
 10
10.0034375285
 20
7.2829847017
 30
0.0
 10
9.9954133581
 20
7.2945343469
 30
0.0
 10
9.9865969736
 20
7.305514186
 30
0.0
 10
9.9770367855
 20
7.3158639659
 30
0.0
 10
9.9667852719
 20
7.3255268811
 30
0.0
 10
9.9558986929
 20
7.3344498821
 30
0.0
 10
9.9444367859
 20
7.3425839655
 30
0.0
 10
9.932462442
 20
7.3498844421
 30
0.0
 10
9.9200413629
 20
7.3563111778
 30
0.0
 10
9.9072417049
 20
7.3618288133
 30
0.0
 10
9.8941337107
 20
7.3664069579
 30
0.0
 10
9.8807893284
 20
7.3700203569
 30
0.0
 10
9.8672818236
 20
7.3726490324
 30
0.0
 10
9.8536853808
 20
7.3742783954
 30
0.0
 10
9.8400747065
 20
7.3748993328
 30
0.0
 10
9.8265246082
 20
7.3745082568
 30
0.0
 10
9.8131096426
 20
7.3731071569
 30
0.0
 10
9.7999035023
 20
7.3707035089
 30
0.0
 10
9.786979373
 20
7.3673105722
 30
0.0
 10
9.7764919858
 20
7.3636699949
 30
0.0
 10
9.7683175749
 20
7.3602843115
 30
0.0
 10
9.7603086443
 20
7.3565939986
 30
0.0
 10
9.750597582
 20
7.3514064688
 30
0.0
 10
9.7394908517
 20
7.3442938944
 30
0.0
 10
9.7289990983
 20
7.3363372403
 30
0.0
 10
9.7224506353
 20
7.3304967752
 30
0.0
 10
9.7193002603
 20
7.3274537415
 30
0.0
  0
SPLINE
  5
36A
100
AcDbEntity
  8
0
100
AcDbSpline
 62
7
  6
CONTINUOUS
 70
0
 71
3
 72
11
 73
7
 74
0
 42
0.0000001
 43
0.0000001
 44
0.0000000001
 40
0.0
 40
0.0
 40
0.0
 40
0.0
 40
0.2697183344
 40
0.5237013691
 40
0.7658764722
 40
1.0
 40
1.0
 40
1.0
 40
1.0
 10
9.2583057327
 20
11.8624633778
 30
0.0
 10
9.2578747458
 20
11.8636461895
 30
0.0
 10
9.2571284219
 20
11.865977258
 30
0.0
 10
9.2563295238
 20
11.8694659583
 30
0.0
 10
9.2558659301
 20
11.8728473251
 30
0.0
 10
9.2557654006
 20
11.8750716937
 30
0.0
 10
9.2557654006
 20
11.8761644439
 30
0.0
  0
SPLINE
  5
36B
100
AcDbEntity
  8
0
100
AcDbSpline
 62
7
  6
CONTINUOUS
 70
0
 71
3
 72
29
 73
25
 74
0
 42
0.0000001
 43
0.0000001
 44
0.0000000001
 40
0.0
 40
0.0
 40
0.0
 40
0.0
 40
0.0191436973
 40
0.0390355211
 40
0.0596935659
 40
0.0811327518
 40
0.1033648686
 40
0.1263993078
 40
0.1502429301
 40
0.1749005738
 40
0.2003752217
 40
0.2266679852
 40
0.2537786426
 40
0.2817053285
 40
0.3399913541
 40
0.4014903187
 40
0.4661475825
 40
0.533894394
 40
0.604649601
 40
0.6783209807
 40
0.7548067634
 40
0.8339951261
 40
0.9157694204
 40
1.0
 40
1.0
 40
1.0
 40
1.0
 10
11.1600408204
 20
11.8979575488
 30
0.0
 10
11.1580567139
 20
11.896111137
 30
0.0
 10
11.1539308768
 20
11.8924314489
 30
0.0
 10
11.1474107154
 20
11.8870515964
 30
0.0
 10
11.1404452991
 20
11.881709552
 30
0.0
 10
11.1330379119
 20
11.8764078812
 30
0.0
 10
11.1251919393
 20
11.8711488184
 30
0.0
 10
11.1169109214
 20
11.8659348313
 30
0.0
 10
11.108198668
 20
11.8607682149
 30
0.0
 10
11.0990591539
 20
11.8556513355
 30
0.0
 10
11.0894965504
 20
11.8505865628
 30
0.0
 10
11.0795152714
 20
11.8455761569
 30
0.0
 10
11.0691198542
 20
11.8406224629
 30
0.0
 10
11.0545045829
 20
11.834001641
 30
0.0
 10
11.0352193114
 20
11.8259012304
 30
0.0
 10
11.010823825
 20
11.8165760851
 30
0.0
 10
10.9849007563
 20
11.807529951
 30
0.0
 10
10.9574978698
 20
11.7987796216
 30
0.0
 10
10.9286653844
 20
11.7903413637
 30
0.0
 10
10.8984563448
 20
11.782230863
 30
0.0
 10
10.8669265117
 20
11.7744632708
 30
0.0
 10
10.8341338134
 20
11.7670529421
 30
0.0
 10
10.8001391634
 20
11.7600138502
 30
0.0
 10
10.7770458148
 20
11.7556396508
 30
0.0
 10
10.7653117165
 20
11.7535131156
 30
0.0
  0
SPLINE
  5
36C
100
AcDbEntity
  8
0
100
AcDbSpline
 62
7
  6
CONTINUOUS
 70
0
 71
3
 72
11
 73
7
 74
0
 42
0.0000001
 43
0.0000001
 44
0.0000000001
 40
0.0
 40
0.0
 40
0.0
 40
0.0
 40
0.2341956276
 40
0.4764098744
 40
0.7303772225
 40
1.0
 40
1.0
 40
1.0
 40
1.0
 10
11.1133654006
 20
11.8761644439
 30
0.0
 10
11.1133654006
 20
11.8750750639
 30
0.0
 10
11.1132655007
 20
11.8728577285
 30
0.0
 10
11.1128048453
 20
11.8694872178
 30
0.0
 10
11.1120110534
 20
11.8660101686
 30
0.0
 10
11.1112695194
 20
11.863686845
 30
0.0
 10
11.1108413157
 20
11.8625080364
 30
0.0
  0
SPLINE
  5
36D
100
AcDbEntity
  8
0
100
AcDbSpline
 62
7
  6
CONTINUOUS
 70
0
 71
3
 72
40
 73
36
 74
0
 42
0.0000001
 43
0.0000001
 44
0.0000000001
 40
0.0
 40
0.0
 40
0.0
 40
0.0
 40
0.0299422956
 40
0.059908968
 40
0.0899238
 40
0.1200094056
 40
0.1350882594
 40
0.1501924656
 40
0.1804801452
 40
0.2108943177
 40
0.241448122
 40
0.2721514726
 40
0.3030108797
 40
0.334029354
 40
0.3652063934
 40
0.3965380465
 40
0.4280170486
 40
0.4596330217
 40
0.4913727316
 40
0.5232203951
 40
0.5551580282
 40
0.5871658292
 40
0.6192225887
 40
0.6513061205
 40
0.6833937063
 40
0.715462548
 40
0.7474902197
 40
0.779455117
 40
0.8113368874
 40
0.8431168691
 40
0.8747784143
 40
0.9063074703
 40
0.9376922765
 40
0.9689251917
 40
1.0
 40
1.0
 40
1.0
 40
1.0
 10
11.8276645134
 20
11.1804335055
 30
0.0
 10
11.8306954457
 20
11.1833611568
 30
0.0
 10
11.8369956308
 20
11.1889801689
 30
0.0
 10
11.8470895982
 20
11.1966351286
 30
0.0
 10
11.857775224
 20
11.2034780119
 30
0.0
 10
11.867118096
 20
11.2084688418
 30
0.0
 10
11.8748233708
 20
11.2120192249
 30
0.0
 10
11.8826878514
 20
11.2152765287
 30
0.0
 10
11.8927776114
 20
11.2187790593
 30
0.0
 10
11.9052117234
 20
11.2220433364
 30
0.0
 10
11.9179171524
 20
11.2243558345
 30
0.0
 10
11.930823488
 20
11.2257037968
 30
0.0
 10
11.9438598316
 20
11.226080031
 30
0.0
 10
11.9569544533
 20
11.2254826233
 30
0.0
 10
11.9700353821
 20
11.2239150255
 30
0.0
 10
11.9830307443
 20
11.2213860052
 30
0.0
 10
11.995869168
 20
11.2179095982
 30
0.0
 10
12.0084801657
 20
11.2135050251
 30
0.0
 10
12.0207945172
 20
11.2081965831
 30
0.0
 10
12.0327446435
 20
11.2020135107
 30
0.0
 10
12.0442649722
 20
11.1949898263
 30
0.0
 10
12.055292293
 20
11.1871641424
 30
0.0
 10
12.0657660994
 20
11.1785794538
 30
0.0
 10
12.075628919
 20
11.169282906
 30
0.0
 10
12.084826625
 20
11.1593255369
 30
0.0
 10
12.0933087291
 20
11.1487619982
 30
0.0
 10
12.1010286564
 20
11.1376502586
 30
0.0
 10
12.1079439961
 20
11.1260512891
 30
0.0
 10
12.114016741
 20
11.1140287318
 30
0.0
 10
12.1192134719
 20
11.101648562
 30
0.0
 10
12.1235055977
 20
11.0889786957
 30
0.0
 10
12.1268693845
 20
11.0760887648
 30
0.0
 10
12.129286341
 20
11.0630492238
 30
0.0
 10
12.1307429091
 20
11.0499327078
 30
0.0
 10
12.1310691791
 20
11.0411603447
 30
0.0
 10
12.1310691791
 20
11.0367869705
 30
0.0
  0
SPLINE
  5
36E
100
AcDbEntity
  8
0
100
AcDbSpline
 62
7
  6
CONTINUOUS
 70
0
 71
3
 72
40
 73
36
 74
0
 42
0.0000001
 43
0.0000001
 44
0.0000000001
 40
0.0
 40
0.0
 40
0.0
 40
0.0
 40
0.0299422956
 40
0.059908968
 40
0.0899238
 40
0.1200094056
 40
0.1350882594
 40
0.1501924656
 40
0.1804801452
 40
0.2108943177
 40
0.241448122
 40
0.2721514726
 40
0.3030108797
 40
0.334029354
 40
0.3652063934
 40
0.3965380465
 40
0.4280170486
 40
0.4596330217
 40
0.4913727316
 40
0.5232203951
 40
0.5551580282
 40
0.5871658292
 40
0.6192225887
 40
0.6513061205
 40
0.6833937063
 40
0.715462548
 40
0.7474902197
 40
0.779455117
 40
0.8113368874
 40
0.8431168691
 40
0.8747784143
 40
0.9063074703
 40
0.9376922765
 40
0.9689251917
 40
1.0
 40
1.0
 40
1.0
 40
1.0
 10
9.6543312755
 20
6.1151549065
 30
0.0
 10
9.6573622078
 20
6.1180825577
 30
0.0
 10
9.6636623929
 20
6.1237015698
 30
0.0
 10
9.6737563603
 20
6.1313565296
 30
0.0
 10
9.6844419861
 20
6.1381994128
 30
0.0
 10
9.6937848581
 20
6.1431902428
 30
0.0
 10
9.7014901329
 20
6.1467406259
 30
0.0
 10
9.7093546135
 20
6.1499979296
 30
0.0
 10
9.7194443734
 20
6.1535004603
 30
0.0
 10
9.7318784854
 20
6.1567647374
 30
0.0
 10
9.7445839145
 20
6.1590772354
 30
0.0
 10
9.7574902501
 20
6.1604251977
 30
0.0
 10
9.7705265937
 20
6.1608014319
 30
0.0
 10
9.7836212154
 20
6.1602040243
 30
0.0
 10
9.7967021442
 20
6.1586364264
 30
0.0
 10
9.8096975064
 20
6.1561074061
 30
0.0
 10
9.82253593
 20
6.1526309991
 30
0.0
 10
9.8351469278
 20
6.1482264261
 30
0.0
 10
9.8474612793
 20
6.1429179841
 30
0.0
 10
9.8594114055
 20
6.1367349116
 30
0.0
 10
9.8709317342
 20
6.1297112272
 30
0.0
 10
9.881959055
 20
6.1218855433
 30
0.0
 10
9.8924328614
 20
6.1133008547
 30
0.0
 10
9.902295681
 20
6.1040043069
 30
0.0
 10
9.9114933871
 20
6.0940469379
 30
0.0
 10
9.9199754912
 20
6.0834833992
 30
0.0
 10
9.9276954185
 20
6.0723716595
 30
0.0
 10
9.9346107582
 20
6.06077269
 30
0.0
 10
9.9406835031
 20
6.0487501328
 30
0.0
 10
9.945880234
 20
6.0363699629
 30
0.0
 10
9.9501723598
 20
6.0237000966
 30
0.0
 10
9.9535361466
 20
6.0108101658
 30
0.0
 10
9.9559531031
 20
5.9977706247
 30
0.0
 10
9.9574096712
 20
5.9846541087
 30
0.0
 10
9.9577359412
 20
5.9758817456
 30
0.0
 10
9.9577359412
 20
5.9715083715
 30
0.0
  0
SPLINE
  5
36F
100
AcDbEntity
  8
0
100
AcDbSpline
 62
7
  6
CONTINUOUS
 70
0
 71
3
 72
57
 73
53
 74
0
 42
0.0000001
 43
0.0000001
 44
0.0000000001
 40
0.0
 40
0.0
 40
0.0
 40
0.0
 40
0.0075207721
 40
0.0156240917
 40
0.0243309804
 40
0.0336547579
 40
0.0436026095
 40
0.0541766024
 40
0.0653746632
 40
0.0771912706
 40
0.0896178469
 40
0.1026432873
 40
0.1162542539
 40
0.1304353395
 40
0.1451694045
 40
0.1604376904
 40
0.1762199193
 40
0.1924945312
 40
0.2092387141
 40
0.2264285006
 40
0.2620432788
 40
0.2991289698
 40
0.3374620098
 40
0.3768083629
 40
0.4169256638
 40
0.4575653442
 40
0.498474673
 40
0.5393987759
 40
0.5800826662
 40
0.6202732545
 40
0.6597213815
 40
0.6981838787
 40
0.7354256269
 40
0.7712217119
 40
0.788511156
 40
0.8053606567
 40
0.8217460535
 40
0.8376442541
 40
0.8530333577
 40
0.8678928348
 40
0.8822035382
 40
0.8959479099
 40
0.9091101862
 40
0.9216764844
 40
0.933635149
 40
0.9449770381
 40
0.9556958223
 40
0.9657886191
 40
0.9752564383
 40
0.9841051208
 40
0.9923469063
 40
1.0
 40
1.0
 40
1.0
 40
1.0
 10
13.5448112244
 20
9.0138003463
 30
0.0
 10
13.5432947157
 20
9.0156649701
 30
0.0
 10
13.5403066681
 20
9.0196724143
 30
0.0
 10
13.5361017735
 20
9.0262188624
 30
0.0
 10
13.5320169178
 20
9.0335086869
 30
0.0
 10
13.5280585718
 20
9.0415299482
 30
0.0
 10
13.5242327774
 20
9.050270194
 30
0.0
 10
13.5205456425
 20
9.0597153915
 30
0.0
 10
13.5170031548
 20
9.0698503158
 30
0.0
 10
13.5136112034
 20
9.0806584938
 30
0.0
 10
13.5103753745
 20
9.0921222374
 30
0.0
 10
13.5073010781
 20
9.1042227226
 30
0.0
 10
13.5043934897
 20
9.1169400227
 30
0.0
 10
13.5016574386
 20
9.130253134
 30
0.0
 10
13.4990975348
 20
9.1441400443
 30
0.0
 10
13.4967180919
 20
9.158577763
 30
0.0
 10
13.4945230642
 20
9.1735423619
 30
0.0
 10
13.4925161742
 20
9.1890090204
 30
0.0
 10
13.4907007534
 20
9.2049521017
 30
0.0
 10
13.4885138469
 20
9.227071059
 30
0.0
 10
13.486298024
 20
9.2557161339
 30
0.0
 10
13.4844715659
 20
9.2911562508
 30
0.0
 10
13.4834602601
 20
9.3278218268
 30
0.0
 10
13.4832711688
 20
9.3654694066
 30
0.0
 10
13.4839058756
 20
9.403849206
 30
0.0
 10
13.4853603762
 20
9.4427064186
 30
0.0
 10
13.4876251612
 20
9.4817830508
 30
0.0
 10
13.4906852253
 20
9.5208196289
 30
0.0
 10
13.4945202053
 20
9.5595569484
 30
0.0
 10
13.4991045332
 20
9.5977378219
 30
0.0
 10
13.504407579
 20
9.6351087873
 30
0.0
 10
13.5103938104
 20
9.6714219335
 30
0.0
 10
13.5170231553
 20
9.706436177
 30
0.0
 10
13.5231146785
 20
9.7346564653
 30
0.0
 10
13.5282905759
 20
9.7563991249
 30
0.0
 10
13.532259723
 20
9.7720506962
 30
0.0
 10
13.5363542828
 20
9.7872098783
 30
0.0
 10
13.5405674762
 20
9.801851539
 30
0.0
 10
13.5448922838
 20
9.81595139
 30
0.0
 10
13.5493214538
 20
9.8294860783
 30
0.0
 10
13.5538476163
 20
9.8424331917
 30
0.0
 10
13.5584632343
 20
9.8547713178
 30
0.0
 10
13.5631605755
 20
9.8664800999
 30
0.0
 10
13.5679318538
 20
9.87754024
 30
0.0
 10
13.5727691433
 20
9.8879335686
 30
0.0
 10
13.5776644011
 20
9.897643098
 30
0.0
 10
13.5826096167
 20
9.9066530119
 30
0.0
 10
13.5875967372
 20
9.9149487487
 30
0.0
 10
13.5926176547
 20
9.9225169991
 30
0.0
 10
13.5976647675
 20
9.9293459984
 30
0.0
 10
13.6027299267
 20
9.935424364
 30
0.0
 10
13.6062407708
 20
9.9391029058
 30
0.0
 10
13.6079998855
 20
9.9408020802
 30
0.0
  0
SPLINE
  5
370
100
AcDbEntity
  8
0
100
AcDbSpline
 62
7
  6
CONTINUOUS
 70
0
 71
3
 72
40
 73
36
 74
0
 42
0.0000001
 43
0.0000001
 44
0.0000000001
 40
0.0
 40
0.0
 40
0.0
 40
0.0
 40
0.0299422961
 40
0.0599089687
 40
0.0899238004
 40
0.1200094052
 40
0.1350882586
 40
0.1501924643
 40
0.1804801427
 40
0.2108943138
 40
0.2414481167
 40
0.2721514658
 40
0.3030108714
 40
0.3340293444
 40
0.3652063826
 40
0.3965380347
 40
0.4280170359
 40
0.4596330083
 40
0.4913727179
 40
0.5232203813
 40
0.5551580145
 40
0.5871658159
 40
0.6192225759
 40
0.6513061084
 40
0.6833936952
 40
0.7154625379
 40
0.7474902107
 40
0.7794551093
 40
0.8113368809
 40
0.8431168638
 40
0.8747784102
 40
0.9063074674
 40
0.9376922747
 40
0.9689251908
 40
1.0
 40
1.0
 40
1.0
 40
1.0
 10
9.9831649948
 20
7.0542808832
 30
0.0
 10
9.9800146198
 20
7.0512378496
 30
0.0
 10
9.9734661568
 20
7.0453973845
 30
0.0
 10
9.9629744034
 20
7.0374407304
 30
0.0
 10
9.9518676731
 20
7.030328156
 30
0.0
 10
9.9421566108
 20
7.0251406262
 30
0.0
 10
9.9341476802
 20
7.0214503132
 30
0.0
 10
9.9259732692
 20
7.0180646298
 30
0.0
 10
9.9154858821
 20
7.0144240526
 30
0.0
 10
9.9025617527
 20
7.0110311159
 30
0.0
 10
9.8893556125
 20
7.0086274679
 30
0.0
 10
9.8759406469
 20
7.0072263679
 30
0.0
 10
9.8623905485
 20
7.006835292
 30
0.0
 10
9.8487798743
 20
7.0074562294
 30
0.0
 10
9.8351834315
 20
7.0090855924
 30
0.0
 10
9.8216759266
 20
7.0117142679
 30
0.0
 10
9.8083315444
 20
7.0153276669
 30
0.0
 10
9.7952235501
 20
7.0199058115
 30
0.0
 10
9.7824238922
 20
7.025423447
 30
0.0
 10
9.770002813
 20
7.0318501826
 30
0.0
 10
9.7580284692
 20
7.0391506592
 30
0.0
 10
9.7465665622
 20
7.0472847427
 30
0.0
 10
9.7356799831
 20
7.0562077437
 30
0.0
 10
9.7254284696
 20
7.0658706589
 30
0.0
 10
9.7158682815
 20
7.0762204387
 30
0.0
 10
9.707051897
 20
7.0872002779
 30
0.0
 10
9.6990277266
 20
7.0987499231
 30
0.0
 10
9.6918398525
 20
7.1108060002
 30
0.0
 10
9.6855277798
 20
7.1233023591
 30
0.0
 10
9.680126245
 20
7.1361704244
 30
0.0
 10
9.6756649658
 20
7.1493396034
 30
0.0
 10
9.6721686116
 20
7.16273752
 30
0.0
 10
9.6696564024
 20
7.176290943
 30
0.0
 10
9.6681424306
 20
7.1899243747
 30
0.0
 10
9.6678033023
 20
7.1990424526
 30
0.0
 10
9.6678033023
 20
7.2035881793
 30
0.0
  0
SPLINE
  5
371
100
AcDbEntity
  8
0
100
AcDbSpline
 62
7
  6
CONTINUOUS
 70
0
 71
3
 72
15
 73
11
 74
0
 42
0.0000001
 43
0.0000001
 44
0.0000000001
 40
0.0
 40
0.0
 40
0.0
 40
0.0
 40
0.1234394212
 40
0.2470466221
 40
0.3709825576
 40
0.495394897
 40
0.6204121045
 40
0.746139443
 40
0.8726516743
 40
1.0
 40
1.0
 40
1.0
 40
1.0
 10
9.7193002603
 20
7.3274537415
 30
0.0
 10
9.7152227923
 20
7.3235152033
 30
0.0
 10
9.7074624135
 20
7.3152061226
 30
0.0
 10
9.6971557764
 20
7.3016037741
 30
0.0
 10
9.6882692682
 20
7.2869797525
 30
0.0
 10
9.6808864668
 20
7.2714710723
 30
0.0
 10
9.6750746366
 20
7.255220957
 30
0.0
 10
9.6708871135
 20
7.2383792639
 30
0.0
 10
9.6683617192
 20
7.2211034938
 30
0.0
 10
9.6678033023
 20
7.2094367215
 30
0.0
 10
9.6678033023
 20
7.2035881793
 30
0.0
  0
SPLINE
  5
372
100
AcDbEntity
  8
0
100
AcDbSpline
 62
7
  6
CONTINUOUS
 70
0
 71
3
 72
40
 73
36
 74
0
 42
0.0000001
 43
0.0000001
 44
0.0000000001
 40
0.0
 40
0.0
 40
0.0
 40
0.0
 40
0.0299422956
 40
0.059908968
 40
0.0899238
 40
0.1200094056
 40
0.1350882594
 40
0.1501924656
 40
0.1804801452
 40
0.2108943177
 40
0.241448122
 40
0.2721514726
 40
0.3030108797
 40
0.334029354
 40
0.3652063934
 40
0.3965380465
 40
0.4280170486
 40
0.4596330217
 40
0.4913727316
 40
0.5232203951
 40
0.5551580282
 40
0.5871658292
 40
0.6192225887
 40
0.6513061205
 40
0.6833937063
 40
0.715462548
 40
0.7474902197
 40
0.779455117
 40
0.8113368874
 40
0.8431168691
 40
0.8747784143
 40
0.9063074703
 40
0.9376922765
 40
0.9689251917
 40
1.0
 40
1.0
 40
1.0
 40
1.0
 10
12.081524527
 20
10.9176175539
 30
0.0
 10
12.0784935947
 20
10.9146899027
 30
0.0
 10
12.0721934096
 20
10.9090708906
 30
0.0
 10
12.0620994422
 20
10.9014159308
 30
0.0
 10
12.0514138164
 20
10.8945730475
 30
0.0
 10
12.0420709444
 20
10.8895822176
 30
0.0
 10
12.0343656696
 20
10.8860318345
 30
0.0
 10
12.026501189
 20
10.8827745308
 30
0.0
 10
12.0164114291
 20
10.8792720001
 30
0.0
 10
12.0039773171
 20
10.876007723
 30
0.0
 10
11.991271888
 20
10.873695225
 30
0.0
 10
11.9783655524
 20
10.8723472627
 30
0.0
 10
11.9653292089
 20
10.8719710284
 30
0.0
 10
11.9522345871
 20
10.8725684361
 30
0.0
 10
11.9391536583
 20
10.8741360339
 30
0.0
 10
11.9261582961
 20
10.8766650543
 30
0.0
 10
11.9133198725
 20
10.8801414612
 30
0.0
 10
11.9007088748
 20
10.8845460343
 30
0.0
 10
11.8883945232
 20
10.8898544763
 30
0.0
 10
11.876444397
 20
10.8960375488
 30
0.0
 10
11.8649240683
 20
10.9030612331
 30
0.0
 10
11.8538967475
 20
10.9108869171
 30
0.0
 10
11.8434229411
 20
10.9194716056
 30
0.0
 10
11.8335601215
 20
10.9287681535
 30
0.0
 10
11.8243624154
 20
10.9387255225
 30
0.0
 10
11.8158803113
 20
10.9492890612
 30
0.0
 10
11.808160384
 20
10.9604008009
 30
0.0
 10
11.8012450443
 20
10.9719997703
 30
0.0
 10
11.7951722994
 20
10.9840223276
 30
0.0
 10
11.7899755686
 20
10.9964024974
 30
0.0
 10
11.7856834427
 20
11.0090723637
 30
0.0
 10
11.7823196559
 20
11.0219622946
 30
0.0
 10
11.7799026994
 20
11.0350018357
 30
0.0
 10
11.7784461313
 20
11.0481183516
 30
0.0
 10
11.7781198613
 20
11.0568907148
 30
0.0
 10
11.7781198613
 20
11.0612640889
 30
0.0
  0
SPLINE
  5
373
100
AcDbEntity
  8
0
100
AcDbSpline
 62
7
  6
CONTINUOUS
 70
0
 71
3
 72
40
 73
36
 74
0
 42
0.0000001
 43
0.0000001
 44
0.0000000001
 40
0.0
 40
0.0
 40
0.0
 40
0.0
 40
0.0299422956
 40
0.059908968
 40
0.0899238
 40
0.1200094056
 40
0.1350882594
 40
0.1501924656
 40
0.1804801452
 40
0.2108943177
 40
0.241448122
 40
0.2721514726
 40
0.3030108797
 40
0.334029354
 40
0.3652063934
 40
0.3965380465
 40
0.4280170486
 40
0.4596330217
 40
0.4913727316
 40
0.5232203951
 40
0.5551580282
 40
0.5871658292
 40
0.6192225887
 40
0.6513061205
 40
0.6833937063
 40
0.715462548
 40
0.7474902197
 40
0.779455117
 40
0.8113368874
 40
0.8431168691
 40
0.8747784143
 40
0.9063074703
 40
0.9376922765
 40
0.9689251917
 40
1.0
 40
1.0
 40
1.0
 40
1.0
 10
9.9081912891
 20
5.8523389548
 30
0.0
 10
9.9051603568
 20
5.8494113036
 30
0.0
 10
9.8988601717
 20
5.8437922915
 30
0.0
 10
9.8887662043
 20
5.8361373318
 30
0.0
 10
9.8780805785
 20
5.8292944485
 30
0.0
 10
9.8687377065
 20
5.8243036186
 30
0.0
 10
9.8610324317
 20
5.8207532354
 30
0.0
 10
9.8531679511
 20
5.8174959317
 30
0.0
 10
9.8430781912
 20
5.813993401
 30
0.0
 10
9.8306440792
 20
5.8107291239
 30
0.0
 10
9.8179386501
 20
5.8084166259
 30
0.0
 10
9.8050323145
 20
5.8070686636
 30
0.0
 10
9.7919959709
 20
5.8066924294
 30
0.0
 10
9.7789013492
 20
5.807289837
 30
0.0
 10
9.7658204204
 20
5.8088574349
 30
0.0
 10
9.7528250582
 20
5.8113864552
 30
0.0
 10
9.7399866346
 20
5.8148628622
 30
0.0
 10
9.7273756368
 20
5.8192674352
 30
0.0
 10
9.7150612853
 20
5.8245758772
 30
0.0
 10
9.7031111591
 20
5.8307589497
 30
0.0
 10
9.6915908304
 20
5.8377826341
 30
0.0
 10
9.6805635096
 20
5.845608318
 30
0.0
 10
9.6700897031
 20
5.8541930066
 30
0.0
 10
9.6602268836
 20
5.8634895544
 30
0.0
 10
9.6510291775
 20
5.8734469234
 30
0.0
 10
9.6425470734
 20
5.8840104622
 30
0.0
 10
9.6348271461
 20
5.8951222018
 30
0.0
 10
9.6279118064
 20
5.9067211713
 30
0.0
 10
9.6218390615
 20
5.9187437285
 30
0.0
 10
9.6166423306
 20
5.9311238984
 30
0.0
 10
9.6123502048
 20
5.9437937647
 30
0.0
 10
9.608986418
 20
5.9566836956
 30
0.0
 10
9.6065694615
 20
5.9697232366
 30
0.0
 10
9.6051128934
 20
5.9828397526
 30
0.0
 10
9.6047866234
 20
5.9916121157
 30
0.0
 10
9.6047866234
 20
5.9959854898
 30
0.0
  0
SPLINE
  5
374
100
AcDbEntity
  8
0
100
AcDbSpline
 62
7
  6
CONTINUOUS
 70
0
 71
3
 72
37
 73
33
 74
0
 42
0.0000001
 43
0.0000001
 44
0.0000000001
 40
0.0
 40
0.0
 40
0.0
 40
0.0
 40
0.0155472121
 40
0.03128734
 40
0.0474056788
 40
0.0640736693
 40
0.0814445296
 40
0.0996515024
 40
0.1188074627
 40
0.1390063555
 40
0.1603247836
 40
0.1828242504
 40
0.2065531714
 40
0.231548646
 40
0.2578383369
 40
0.2854414938
 40
0.3143705679
 40
0.3446316909
 40
0.3762259293
 40
0.4091495639
 40
0.4433948874
 40
0.4789505504
 40
0.515801882
 40
0.5539314124
 40
0.5933188189
 40
0.6339415583
 40
0.675774578
 40
0.7187910126
 40
0.7629620282
 40
0.8082568025
 40
0.9020843778
 40
1.0
 40
1.0
 40
1.0
 40
1.0
 10
9.2557654141
 20
11.8761644439
 30
0.0
 10
9.255765425
 20
11.8785718525
 30
0.0
 10
9.2560481037
 20
11.8834211353
 30
0.0
 10
9.2573165371
 20
11.8906663784
 30
0.0
 10
9.2594267869
 20
11.8978934407
 30
0.0
 10
9.2623743426
 20
11.9050930859
 30
0.0
 10
9.2661536477
 20
11.9122591317
 30
0.0
 10
9.2707592973
 20
11.9193856593
 30
0.0
 10
9.2761855166
 20
11.9264675552
 30
0.0
 10
9.2824266739
 20
11.9334996345
 30
0.0
 10
9.28947672
 20
11.9404768009
 30
0.0
 10
9.2973292773
 20
11.9473937499
 30
0.0
 10
9.3059774281
 20
11.9542450113
 30
0.0
 10
9.3154135848
 20
11.9610250771
 30
0.0
 10
9.3256295758
 20
11.9677281876
 30
0.0
 10
9.3366164242
 20
11.9743487377
 30
0.0
 10
9.3483645506
 20
11.9808808734
 30
0.0
 10
9.360863571
 20
11.9873189768
 30
0.0
 10
9.374102473
 20
11.9936572709
 30
0.0
 10
9.388069502
 20
11.9998901752
 30
0.0
 10
9.4027522503
 20
12.0060120992
 30
0.0
 10
9.4181376379
 20
12.0120175459
 30
0.0
 10
9.4342119246
 20
12.0179011639
 30
0.0
 10
9.450960754
 20
12.0236575942
 30
0.0
 10
9.4683691254
 20
12.0292817361
 30
0.0
 10
9.4864214526
 20
12.0347684294
 30
0.0
 10
9.5051015401
 20
12.0401128166
 30
0.0
 10
9.5243926505
 20
12.0453099998
 30
0.0
 10
9.5442774828
 20
12.0503553742
 30
0.0
 10
9.5718832445
 20
12.0569514465
 30
0.0
 10
9.6077509079
 20
12.0647626659
 30
0.0
 10
9.6369087013
 20
12.070377458
 30
0.0
 10
9.6518274383
 20
12.0730811357
 30
0.0
  0
SPLINE
  5
375
100
AcDbEntity
  8
0
100
AcDbSpline
 62
7
  6
CONTINUOUS
 70
0
 71
3
 72
23
 73
19
 74
0
 42
0.0000001
 43
0.0000001
 44
0.0000000001
 40
0.0
 40
0.0
 40
0.0
 40
0.0
 40
0.075595957
 40
0.1466391305
 40
0.2134651345
 40
0.2765138419
 40
0.3363259052
 40
0.3935462661
 40
0.4489224105
 40
0.5032874244
 40
0.5575253055
 40
0.6125266122
 40
0.6691426489
 40
0.72814827
 40
0.7902188159
 40
0.8559231893
 40
0.9257261654
 40
1.0
 40
1.0
 40
1.0
 40
1.0
 10
13.6079998855
 20
9.0106154544
 30
0.0
 10
13.6066616756
 20
9.0093228428
 30
0.0
 10
13.603987013
 20
9.0068949127
 30
0.0
 10
13.599847715
 20
9.0036513272
 30
0.0
 10
13.5957132509
 20
9.0009271789
 30
0.0
 10
13.5915874593
 20
8.998726561
 30
0.0
 10
13.5874737635
 20
8.997053474
 30
0.0
 10
13.5833764116
 20
8.9959119876
 30
0.0
 10
13.579300762
 20
8.9953061761
 30
0.0
 10
13.5752536232
 20
8.9952388678
 30
0.0
 10
13.5712427604
 20
8.9957110781
 30
0.0
 10
13.567275959
 20
8.9967214041
 30
0.0
 10
13.5633599349
 20
8.9982664041
 30
0.0
 10
13.5594999196
 20
9.0003416347
 30
0.0
 10
13.5556997603
 20
9.0029422606
 30
0.0
 10
13.5519626018
 20
9.0060638643
 30
0.0
 10
13.5482913696
 20
9.0097017389
 30
0.0
 10
13.5459646427
 20
9.0123821603
 30
0.0
 10
13.5448112244
 20
9.0138003463
 30
0.0
  0
SPLINE
  5
376
100
AcDbEntity
  8
0
100
AcDbSpline
 62
7
  6
CONTINUOUS
 70
0
 71
3
 72
82
 73
78
 74
0
 42
0.0000001
 43
0.0000001
 44
0.0000000001
 40
0.0
 40
0.0
 40
0.0
 40
0.0
 40
0.0039487658
 40
0.0077209512
 40
0.0113257736
 40
0.0147747135
 40
0.0212568587
 40
0.0243284289
 40
0.0273115428
 40
0.0302284351
 40
0.0331030435
 40
0.0359604631
 40
0.0388262815
 40
0.0417258439
 40
0.0446835504
 40
0.0477222558
 40
0.0508628917
 40
0.0541241558
 40
0.0575225141
 40
0.0610722165
 40
0.0647853966
 40
0.0686723536
 40
0.0727416168
 40
0.077000243
 40
0.0814539848
 40
0.0861073719
 40
0.090964004
 40
0.0960265329
 40
0.1012968454
 40
0.1067761902
 40
0.1124651255
 40
0.1244709029
 40
0.1373100462
 40
0.1509711893
 40
0.16543771
 40
0.1806885057
 40
0.1966985876
 40
0.2134395888
 40
0.2308801506
 40
0.2489862344
 40
0.2677213678
 40
0.2870468969
 40
0.3069222111
 40
0.3273049323
 40
0.3481510825
 40
0.3694152457
 40
0.4130088439
 40
0.4577011169
 40
0.5030935229
 40
0.5487794976
 40
0.5943491146
 40
0.6393937839
 40
0.6835109084
 40
0.7050991511
 40
0.7263096922
 40
0.7470960163
 40
0.7674129053
 40
0.787216589
 40
0.8064649083
 40
0.8251174936
 40
0.8431359807
 40
0.8604842266
 40
0.8771285293
 40
0.8930379
 40
0.9081843971
 40
0.9225435483
 40
0.9360948207
 40
0.9488222298
 40
0.9607151808
 40
0.9663476245
 40
0.9717705621
 40
0.9769847311
 40
0.9819914874
 40
0.9867930754
 40
0.9913924652
 40
0.9957932917
 40
1.0
 40
1.0
 40
1.0
 40
1.0
 10
13.6091775056
 20
9.9419187982
 30
0.0
 10
13.6101708804
 20
9.942843276
 30
0.0
 10
13.6121568261
 20
9.9446049301
 30
0.0
 10
13.6152039353
 20
9.9470294405
 30
0.0
 10
13.6182483227
 20
9.9491725315
 30
0.0
 10
13.6222175271
 20
9.9516017153
 30
0.0
 10
13.6262671435
 20
9.953538947
 30
0.0
 10
13.6303595997
 20
9.9548998786
 30
0.0
 10
13.63336315
 20
9.9556144503
 30
0.0
 10
13.6363528836
 20
9.9560397956
 30
0.0
 10
13.6393266882
 20
9.9561753239
 30
0.0
 10
13.6422820537
 20
9.9560205313
 30
0.0
 10
13.6452164749
 20
9.9555756735
 30
0.0
 10
13.648127492
 20
9.9548411837
 30
0.0
 10
13.6510128401
 20
9.9538180219
 30
0.0
 10
13.653870551
 20
9.9525074663
 30
0.0
 10
13.6566987969
 20
9.9509107665
 30
0.0
 10
13.6594960727
 20
9.9490294998
 30
0.0
 10
13.6622608994
 20
9.9468651083
 30
0.0
 10
13.6649918767
 20
9.9444191326
 30
0.0
 10
13.667687715
 20
9.9416932439
 30
0.0
 10
13.6703469621
 20
9.9386890581
 30
0.0
 10
13.6729683112
 20
9.935408442
 30
0.0
 10
13.675550352
 20
9.9318533116
 30
0.0
 10
13.6780916344
 20
9.9280257241
 30
0.0
 10
13.6805908253
 20
9.9239279547
 30
0.0
 10
13.683046428
 20
9.9195623533
 30
0.0
 10
13.6854570804
 20
9.9149314971
 30
0.0
 10
13.6878213836
 20
9.9100381045
 30
0.0
 10
13.6901379342
 20
9.9048850254
 30
0.0
 10
13.6932166282
 20
9.8975395837
 30
0.0
 10
13.6969213612
 20
9.8877182161
 30
0.0
 10
13.7010794824
 20
9.8751525469
 30
0.0
 10
13.7050163658
 20
9.8616330021
 30
0.0
 10
13.7087225524
 20
9.8471916192
 30
0.0
 10
13.7121890813
 20
9.8318624154
 30
0.0
 10
13.7154075677
 20
9.8156817681
 30
0.0
 10
13.7183702048
 20
9.7986881407
 30
0.0
 10
13.7210697996
 20
9.7809220048
 30
0.0
 10
13.7234997877
 20
9.7624257258
 30
0.0
 10
13.7256542746
 20
9.7432434611
 30
0.0
 10
13.7275280346
 20
9.7234210417
 30
0.0
 10
13.72911652
 20
9.7030058428
 30
0.0
 10
13.7304158548
 20
9.6820466833
 30
0.0
 10
13.7314229176
 20
9.6605936498
 30
0.0
 10
13.7323804143
 20
9.6311560545
 30
0.0
 10
13.7328167776
 20
9.5935064903
 30
0.0
 10
13.7321529123
 20
9.5475676751
 30
0.0
 10
13.730311189
 20
9.5009413742
 30
0.0
 10
13.7273089957
 20
9.4540734332
 30
0.0
 10
13.7231749675
 20
9.4074115994
 30
0.0
 10
13.7179487467
 20
9.3614020504
 30
0.0
 10
13.7126883342
 20
9.3237030051
 30
0.0
 10
13.7079599262
 20
9.2942100113
 30
0.0
 10
13.7042004139
 20
9.2726839313
 30
0.0
 10
13.7002113323
 20
9.2516437244
 30
0.0
 10
13.6960022322
 20
9.2311396772
 30
0.0
 10
13.6915832466
 20
9.2112208251
 30
0.0
 10
13.6869649997
 20
9.1919347836
 30
0.0
 10
13.6821585943
 20
9.173327643
 30
0.0
 10
13.6771755976
 20
9.1554438382
 30
0.0
 10
13.6720280116
 20
9.1383260364
 30
0.0
 10
13.6667282283
 20
9.1220150367
 30
0.0
 10
13.6612890024
 20
9.1065496693
 30
0.0
 10
13.6557234069
 20
9.0919666665
 30
0.0
 10
13.6500448259
 20
9.0783005809
 30
0.0
 10
13.6442668499
 20
9.0655835455
 30
0.0
 10
13.6384032954
 20
9.0538456692
 30
0.0
 10
13.6333699356
 20
9.044744373
 30
0.0
 10
13.6293009552
 20
9.0379880414
 30
0.0
 10
13.6262919795
 20
9.0332748802
 30
0.0
 10
13.6232721156
 20
9.0288262272
 30
0.0
 10
13.6202430077
 20
9.0246447088
 30
0.0
 10
13.6172064469
 20
9.0207326972
 30
0.0
 10
13.6141640731
 20
9.0170924971
 30
0.0
 10
13.6111178749
 20
9.0137264487
 30
0.0
 10
13.6090396715
 20
9.0116198106
 30
0.0
 10
13.6079998855
 20
9.0106154544
 30
0.0
  0
SPLINE
  5
377
100
AcDbEntity
  8
0
100
AcDbSpline
 62
7
  6
CONTINUOUS
 70
0
 71
3
 72
15
 73
11
 74
0
 42
0.0000001
 43
0.0000001
 44
0.0000000001
 40
0.0
 40
0.0
 40
0.0
 40
0.0
 40
0.1273483281
 40
0.2538605602
 40
0.3795878981
 40
0.5046051042
 40
0.6290174419
 40
0.7529533761
 40
0.876560577
 40
1.0
 40
1.0
 40
1.0
 40
1.0
 10
11.7781198613
 20
11.0612640889
 30
0.0
 10
11.7781198613
 20
11.0668908965
 30
0.0
 10
11.7786571081
 20
11.0781153486
 30
0.0
 10
11.7810867624
 20
11.094736145
 30
0.0
 10
11.7851155326
 20
11.11093932
 30
0.0
 10
11.7907070307
 20
11.1265733437
 30
0.0
 10
11.7978099426
 20
11.1414940396
 30
0.0
 10
11.8063595537
 20
11.1555636138
 30
0.0
 10
11.8162754544
 20
11.1686502459
 30
0.0
 10
11.8237416275
 20
11.1766442947
 30
0.0
 10
11.8276645134
 20
11.1804335055
 30
0.0
  0
SPLINE
  5
378
100
AcDbEntity
  8
0
100
AcDbSpline
 62
7
  6
CONTINUOUS
 70
0
 71
3
 72
67
 73
63
 74
0
 42
0.0000001
 43
0.0000001
 44
0.0000000001
 40
0.0
 40
0.0
 40
0.0
 40
0.0
 40
0.0186279168
 40
0.0376789862
 40
0.0571274372
 40
0.0769486302
 40
0.0971162871
 40
0.1176036401
 40
0.159426917
 40
0.2021941344
 40
0.2456733765
 40
0.2896276152
 40
0.3338164422
 40
0.3779977876
 40
0.4219296362
 40
0.4653717395
 40
0.5080873283
 40
0.5498448708
 40
0.5702942192
 40
0.5904205104
 40
0.6101970755
 40
0.6295979059
 40
0.6485977223
 40
0.6671720587
 40
0.6852973107
 40
0.7029508014
 40
0.7201108784
 40
0.7367570084
 40
0.7528698479
 40
0.7684313489
 40
0.7834249102
 40
0.7978355101
 40
0.8116498528
 40
0.8248565759
 40
0.8374465272
 40
0.8494130385
 40
0.860752289
 40
0.8714637975
 40
0.8815510471
 40
0.8910222223
 40
0.8998911887
 40
0.9081787659
 40
0.9159142711
 40
0.9231373305
 40
0.9298999105
 40
0.9362682546
 40
0.9393311166
 40
0.9423273815
 40
0.9452696119
 40
0.9481711489
 40
0.9510459551
 40
0.9539084321
 40
0.9567731805
 40
0.9596547665
 40
0.9625674737
 40
0.9655250972
 40
0.9685407491
 40
0.9716267108
 40
0.9780513356
 40
0.9848814787
 40
0.9921810548
 40
1.0
 40
1.0
 40
1.0
 40
1.0
 10
9.6038190848
 20
12.1828372914
 30
0.0
 10
9.6145410584
 20
12.1847804023
 30
0.0
 10
9.6362572769
 20
12.1885538939
 30
0.0
 10
9.6692572106
 20
12.1938253355
 30
0.0
 10
9.703013909
 20
12.1987660561
 30
0.0
 10
9.7374773445
 20
12.2033687629
 30
0.0
 10
9.7725973182
 20
12.2076267115
 30
0.0
 10
9.8205589582
 20
12.2128716745
 30
0.0
 10
9.8817724296
 20
12.2185045547
 30
0.0
 10
9.9565093622
 20
12.2237578323
 30
0.0
 10
10.0325842728
 20
12.2275189418
 30
0.0
 10
10.109550674
 20
12.229765571
 30
0.0
 10
10.1869571595
 20
12.2304843513
 30
0.0
 10
10.264349614
 20
12.2296710244
 30
0.0
 10
10.3412740048
 20
12.2273303977
 30
0.0
 10
10.4172791756
 20
12.223476437
 30
0.0
 10
10.4919190508
 20
12.2181319447
 30
0.0
 10
10.5530343083
 20
12.2124239107
 30
0.0
 10
10.6009040502
 20
12.2071198007
 30
0.0
 10
10.6359457185
 20
12.202818917
 30
0.0
 10
10.6703246464
 20
12.1981741
 30
0.0
 10
10.7039904208
 20
12.1931921485
 30
0.0
 10
10.7368936262
 20
12.1878804082
 30
0.0
 10
10.7689859983
 20
12.1822467265
 30
0.0
 10
10.8002204667
 20
12.1762994175
 30
0.0
 10
10.830551223
 20
12.1700472429
 30
0.0
 10
10.8599338046
 20
12.1634994231
 30
0.0
 10
10.8883251684
 20
12.1566656353
 30
0.0
 10
10.9156837391
 20
12.1495559633
 30
0.0
 10
10.9419694735
 20
12.1421808775
 30
0.0
 10
10.9671439481
 20
12.1345512613
 30
0.0
 10
10.9911704172
 20
12.1266783709
 30
0.0
 10
11.0140138548
 20
12.1185737932
 30
0.0
 10
11.0356410245
 20
12.1102494159
 30
0.0
 10
11.0560205707
 20
12.1017174522
 30
0.0
 10
11.0751230591
 20
12.0929903518
 30
0.0
 10
11.0929210178
 20
12.084080742
 30
0.0
 10
11.1093890103
 20
12.0750013671
 30
0.0
 10
11.124503711
 20
12.065765042
 30
0.0
 10
11.1382438868
 20
12.0563844578
 30
0.0
 10
11.1505903434
 20
12.0468720261
 30
0.0
 10
11.1615258611
 20
12.0372396451
 30
0.0
 10
11.1710348542
 20
12.0274987115
 30
0.0
 10
11.1791029972
 20
12.0176592071
 30
0.0
 10
11.1857156287
 20
12.0077324372
 30
0.0
 10
11.1900570352
 20
11.9992847325
 30
0.0
 10
11.1927468996
 20
11.9925262437
 30
0.0
 10
11.1943674496
 20
11.9875120445
 30
0.0
 10
11.1956159483
 20
11.9824896026
 30
0.0
 10
11.1964917783
 20
11.9774608357
 30
0.0
 10
11.1969942157
 20
11.9724279208
 30
0.0
 10
11.1971230459
 20
11.9673930969
 30
0.0
 10
11.1968781449
 20
11.9623586203
 30
0.0
 10
11.1962596089
 20
11.9573267671
 30
0.0
 10
11.1952679774
 20
11.9522997209
 30
0.0
 10
11.1939038104
 20
11.9472796609
 30
0.0
 10
11.1921678499
 20
11.9422684837
 30
0.0
 10
11.1893213573
 20
11.9355118139
 30
0.0
 10
11.1847844571
 20
11.9270705179
 30
0.0
 10
11.1779447713
 20
11.9171567278
 30
0.0
 10
11.1696523236
 20
11.9073322003
 30
0.0
 10
11.1633890703
 20
11.9010734338
 30
0.0
 10
11.1600408204
 20
11.8979575488
 30
0.0
  0
SPLINE
  5
379
100
AcDbEntity
  8
0
100
AcDbSpline
 62
7
  6
CONTINUOUS
 70
0
 71
3
 72
15
 73
11
 74
0
 42
0.0000001
 43
0.0000001
 44
0.0000000001
 40
0.0
 40
0.0
 40
0.0
 40
0.0
 40
0.1273483281
 40
0.2538605602
 40
0.3795878981
 40
0.5046051042
 40
0.6290174419
 40
0.7529533761
 40
0.876560577
 40
1.0
 40
1.0
 40
1.0
 40
1.0
 10
9.6047866234
 20
5.9959854898
 30
0.0
 10
9.6047866234
 20
6.0016122974
 30
0.0
 10
9.6053238702
 20
6.0128367495
 30
0.0
 10
9.6077535245
 20
6.029457546
 30
0.0
 10
9.6117822947
 20
6.045660721
 30
0.0
 10
9.6173737928
 20
6.0612947446
 30
0.0
 10
9.6244767047
 20
6.0762154405
 30
0.0
 10
9.6330263158
 20
6.0902850147
 30
0.0
 10
9.6429422164
 20
6.1033716469
 30
0.0
 10
9.6504083896
 20
6.1113656956
 30
0.0
 10
9.6543312755
 20
6.1151549065
 30
0.0
  0
SPLINE
  5
37A
100
AcDbEntity
  8
0
100
AcDbSpline
 62
7
  6
CONTINUOUS
 70
0
 71
3
 72
45
 73
41
 74
0
 42
0.0000001
 43
0.0000001
 44
0.0000000001
 40
0.0
 40
0.0
 40
0.0
 40
0.0
 40
0.0234201688
 40
0.0452789911
 40
0.0657274003
 40
0.084958819
 40
0.0941960288
 40
0.1032230178
 40
0.112076981
 40
0.1207976095
 40
0.1294265994
 40
0.1380071471
 40
0.1465832415
 40
0.1551989531
 40
0.1638976808
 40
0.1727214862
 40
0.1817105091
 40
0.1909024453
 40
0.2100236833
 40
0.2303398604
 40
0.2520489334
 40
0.2753059113
 40
0.3002286355
 40
0.3269039819
 40
0.3553934513
 40
0.385737775
 40
0.4179605692
 40
0.4520713747
 40
0.4880679813
 40
0.5259381658
 40
0.5656610734
 40
0.6072084325
 40
0.6505454599
 40
0.6956315136
 40
0.7424206475
 40
0.7908623718
 40
0.8409018276
 40
0.8924796049
 40
0.945535409
 40
1.0
 40
1.0
 40
1.0
 40
1.0
 10
9.2090894573
 20
11.89795805
 30
0.0
 10
9.2057287585
 20
11.901085532
 30
0.0
 10
9.1994437896
 20
11.9073677117
 30
0.0
 10
9.191127336
 20
11.917230743
 30
0.0
 10
9.1842749678
 20
11.927183793
 30
0.0
 10
9.179737063
 20
11.9356589444
 30
0.0
 10
9.1768959477
 20
11.9424423263
 30
0.0
 10
9.1751669431
 20
11.9474732797
 30
0.0
 10
9.1738126708
 20
11.9525131159
 30
0.0
 10
9.1728337552
 20
11.9575598925
 30
0.0
 10
9.1722309807
 20
11.9626114403
 30
0.0
 10
9.1720046898
 20
11.9676655077
 30
0.0
 10
9.1721549979
 20
11.9727198109
 30
0.0
 10
9.1726819252
 20
11.9777720428
 30
0.0
 10
9.1735849899
 20
11.9828199661
 30
0.0
 10
9.1748636165
 20
11.9878613666
 30
0.0
 10
9.1765171714
 20
11.992894285
 30
0.0
 10
9.1792557137
 20
11.9996789149
 30
0.0
 10
9.1836658274
 20
12.0081582622
 30
0.0
 10
9.1903696458
 20
12.0181197946
 30
0.0
 10
9.1985395048
 20
12.0279928256
 30
0.0
 10
9.2081606033
 20
12.0377659008
 30
0.0
 10
9.219218381
 20
12.047428925
 30
0.0
 10
9.231696954
 20
12.0569703789
 30
0.0
 10
9.2455788197
 20
12.0663781949
 30
0.0
 10
9.2608444722
 20
12.0756397641
 30
0.0
 10
9.2774722664
 20
12.0847422728
 30
0.0
 10
9.2954384398
 20
12.0936727851
 30
0.0
 10
9.3147171351
 20
12.1024183876
 30
0.0
 10
9.3352804192
 20
12.1109663038
 30
0.0
 10
9.3570983313
 20
12.1193039874
 30
0.0
 10
9.3801389797
 20
12.1274191245
 30
0.0
 10
9.4043686026
 20
12.1352996803
 30
0.0
 10
9.4297515976
 20
12.1429339615
 30
0.0
 10
9.4562506127
 20
12.1503106519
 30
0.0
 10
9.4838266211
 20
12.1574187798
 30
0.0
 10
9.512438866
 20
12.1642477306
 30
0.0
 10
9.5420454265
 20
12.1707874742
 30
0.0
 10
9.5726021413
 20
12.1770281066
 30
0.0
 10
9.5933141017
 20
12.180933505
 30
0.0
 10
9.6038190848
 20
12.1828372914
 30
0.0
  0
SPLINE
  5
37B
100
AcDbEntity
  8
0
100
AcDbSpline
 62
7
  6
CONTINUOUS
 70
0
 71
3
 72
45
 73
41
 74
0
 42
0.0000001
 43
0.0000001
 44
0.0000000001
 40
0.0
 40
0.0
 40
0.0
 40
0.0
 40
0.017828842
 40
0.0264745149
 40
0.0349756405
 40
0.0433620336
 40
0.0516648879
 40
0.0599164185
 40
0.0681495151
 40
0.076397308
 40
0.0846927318
 40
0.0930681189
 40
0.1015547698
 40
0.1101826612
 40
0.1189801973
 40
0.1371819434
 40
0.1563569355
 40
0.1766631436
 40
0.1982290096
 40
0.221156459
 40
0.2455245356
 40
0.2713931267
 40
0.2988057928
 40
0.327792621
 40
0.3583724164
 40
0.3905542149
 40
0.4243390244
 40
0.4597207645
 40
0.4966871514
 40
0.5352206895
 40
0.5752989667
 40
0.6168953606
 40
0.659979495
 40
0.704517293
 40
0.7504717141
 40
0.7978028357
 40
0.8464673259
 40
0.8964202262
 40
0.9476160703
 40
1.0
 40
1.0
 40
1.0
 40
1.0
 10
9.2553202423
 20
11.864141286
 30
0.0
 10
9.2539903882
 20
11.866804787
 30
0.0
 10
9.2522201821
 20
11.8708690481
 30
0.0
 10
9.2503708538
 20
11.8764114379
 30
0.0
 10
9.249268409
 20
11.8805329108
 30
0.0
 10
9.2484373883
 20
11.8846590897
 30
0.0
 10
9.2478779718
 20
11.8887888683
 30
0.0
 10
9.2475905141
 20
11.8929208228
 30
0.0
 10
9.2475751836
 20
11.8970535645
 30
0.0
 10
9.2478319016
 20
11.9011856792
 30
0.0
 10
9.2483605747
 20
11.9053157703
 30
0.0
 10
9.2491610196
 20
11.9094424529
 30
0.0
 10
9.2502327607
 20
11.9135643734
 30
0.0
 10
9.2515754051
 20
11.9176803479
 30
0.0
 10
9.2537503485
 20
11.9232206005
 30
0.0
 10
9.2571779142
 20
11.9301454392
 30
0.0
 10
9.2623179872
 20
11.9383081767
 30
0.0
 10
9.2685225581
 20
11.9464120144
 30
0.0
 10
9.2757826271
 20
11.95444899
 30
0.0
 10
9.2840892418
 20
11.962412268
 30
0.0
 10
9.2934327412
 20
11.970294375
 30
0.0
 10
9.3038027254
 20
11.9780874663
 30
0.0
 10
9.3151876355
 20
11.9857835339
 30
0.0
 10
9.3275748234
 20
11.9933743415
 30
0.0
 10
9.3409504741
 20
12.000851502
 30
0.0
 10
9.3552995191
 20
12.0082067351
 30
0.0
 10
9.3706057611
 20
12.0154316741
 30
0.0
 10
9.3868518176
 20
12.0225180712
 30
0.0
 10
9.4040191537
 20
12.0294578423
 30
0.0
 10
9.4220881576
 20
12.0362429279
 30
0.0
 10
9.4410381067
 20
12.0428655266
 30
0.0
 10
9.4608472405
 20
12.0493179807
 30
0.0
 10
9.4814927833
 20
12.0555927607
 30
0.0
 10
9.5029509545
 20
12.0616826493
 30
0.0
 10
9.5251970531
 20
12.0675805532
 30
0.0
 10
9.5482053785
 20
12.0732795903
 30
0.0
 10
9.5719493451
 20
12.0787732086
 30
0.0
 10
9.5964018776
 20
12.0840550437
 30
0.0
 10
9.6215342566
 20
12.0891188311
 30
0.0
 10
9.6385335251
 20
12.0923099083
 30
0.0
 10
9.6471403303
 20
12.0938696936
 30
0.0
  0
SPLINE
  5
37C
100
AcDbEntity
  8
0
100
AcDbSpline
 62
7
  6
CONTINUOUS
 70
0
 71
3
 72
39
 73
35
 74
0
 42
0.0000001
 43
0.0000001
 44
0.0000000001
 40
0.0
 40
0.0
 40
0.0
 40
0.0
 40
0.0311159723
 40
0.0620233248
 40
0.0927351404
 40
0.1232711776
 40
0.1536587326
 40
0.1839312111
 40
0.2141268393
 40
0.2442870992
 40
0.2744549754
 40
0.3046731314
 40
0.3349820899
 40
0.3654185435
 40
0.3960138648
 40
0.4267928822
 40
0.4577729963
 40
0.4889636214
 40
0.5203659689
 40
0.551973178
 40
0.5837707188
 40
0.6157370639
 40
0.6478445901
 40
0.6800606405
 40
0.7123487311
 40
0.7446698622
 40
0.7769838843
 40
0.8092508939
 40
0.8414326243
 40
0.8734937998
 40
0.9054034123
 40
0.9371359058
 40
0.9686717941
 40
1.0
 40
1.0
 40
1.0
 40
1.0
 10
10.0785733008
 20
7.158461553
 30
0.0
 10
10.0785733008
 20
7.1505260728
 30
0.0
 10
10.0777985827
 20
7.1346968364
 30
0.0
 10
10.0742949347
 20
7.1112694558
 30
0.0
 10
10.0684866668
 20
7.0884540586
 30
0.0
 10
10.0604287009
 20
7.0664738736
 30
0.0
 10
10.050198209
 20
7.045540679
 30
0.0
 10
10.0378933833
 20
7.0258572866
 30
0.0
 10
10.0236327143
 20
7.00761432
 30
0.0
 10
10.0075540145
 20
6.9909884343
 30
0.0
 10
9.9898127902
 20
6.9761406033
 30
0.0
 10
9.970580806
 20
6.9632144342
 30
0.0
 10
9.95004439
 20
6.9523345599
 30
0.0
 10
9.9284023421
 20
6.9436056944
 30
0.0
 10
9.9058640351
 20
6.9371114982
 30
0.0
 10
9.8826472956
 20
6.9329137282
 30
0.0
 10
9.8589761766
 20
6.9310520208
 30
0.0
 10
9.8350788489
 20
6.9315433777
 30
0.0
 10
9.8111853627
 20
6.9343820604
 30
0.0
 10
9.7875254928
 20
6.9395399868
 30
0.0
 10
9.7643265634
 20
6.9469667921
 30
0.0
 10
9.7418112792
 20
6.9565903996
 30
0.0
 10
9.7201957377
 20
6.9683179391
 30
0.0
 10
9.699687303
 20
6.9820363779
 30
0.0
 10
9.6804826719
 20
6.9976137077
 30
0.0
 10
9.6627661575
 20
7.0149003285
 30
0.0
 10
9.646707768
 20
7.0337302277
 30
0.0
 10
9.6324616846
 20
7.0539226897
 30
0.0
 10
9.6201649334
 20
7.0752840279
 30
0.0
 10
9.6099358348
 20
7.0976093316
 30
0.0
 10
9.6018730231
 20
7.1206841679
 30
0.0
 10
9.5960546762
 20
7.1442878374
 30
0.0
 10
9.5925371772
 20
7.1681906572
 30
0.0
 10
9.5917466555
 20
7.1842334896
 30
0.0
 10
9.5917466555
 20
7.1922230955
 30
0.0
  0
SPLINE
  5
37D
100
AcDbEntity
  8
0
100
AcDbSpline
 62
7
  6
CONTINUOUS
 70
0
 71
3
 72
14
 73
10
 74
0
 42
0.0000001
 43
0.0000001
 44
0.0000000001
 40
0.0
 40
0.0
 40
0.0
 40
0.0
 40
0.1453063033
 40
0.2839551424
 40
0.5425333522
 40
0.6634957838
 40
0.7796047854
 40
0.8915233496
 40
1.0
 40
1.0
 40
1.0
 40
1.0
 10
13.5367145553
 20
9.086844439
 30
0.0
 10
13.5358523428
 20
9.0860116056
 30
0.0
 10
13.5341284286
 20
9.0844234171
 30
0.0
 10
13.5306793996
 20
9.0815691686
 30
0.0
 10
13.52715401
 20
9.0791260234
 30
0.0
 10
13.5235602898
 20
9.0771685362
 30
0.0
 10
13.5209311939
 20
9.0759872396
 30
0.0
 10
13.5183106431
 20
9.0750613929
 30
0.0
 10
13.5165464626
 20
9.0746090808
 30
0.0
 10
13.5156700119
 20
9.0744282126
 30
0.0
  0
SPLINE
  5
37E
100
AcDbEntity
  8
0
100
AcDbSpline
 62
7
  6
CONTINUOUS
 70
0
 71
3
 72
57
 73
53
 74
0
 42
0.0000001
 43
0.0000001
 44
0.0000000001
 40
0.0
 40
0.0
 40
0.0
 40
0.0
 40
0.0026707129
 40
0.0053521983
 40
0.0080550836
 40
0.0107897235
 40
0.0135660894
 40
0.0163936513
 40
0.0222352009
 40
0.0252673712
 40
0.0283826313
 40
0.03488576
 40
0.0417902241
 40
0.0491309307
 40
0.0569350589
 40
0.0652232609
 40
0.0740107557
 40
0.0833081307
 40
0.0931221717
 40
0.103456437
 40
0.1143116873
 40
0.1256863743
 40
0.1375768696
 40
0.1499777378
 40
0.1628820011
 40
0.1762812095
 40
0.1901656619
 40
0.2045245165
 40
0.2193458268
 40
0.2346167225
 40
0.250323421
 40
0.2664512942
 40
0.2829849887
 40
0.2999083976
 40
0.3348560741
 40
0.3711538615
 40
0.4086519992
 40
0.4471933788
 40
0.4866146812
 40
0.526747472
 40
0.5674192422
 40
0.6084544238
 40
0.649675406
 40
0.6909035415
 40
0.7319601408
 40
0.7726674747
 40
0.8128497794
 40
0.8523342587
 40
0.8909521024
 40
0.9285396043
 40
0.9649388605
 40
1.0
 40
1.0
 40
1.0
 40
1.0
 10
11.1133653872
 20
11.8761644439
 30
0.0
 10
11.1133653935
 20
11.8775308774
 30
0.0
 10
11.1132750413
 20
11.8802701086
 30
0.0
 10
11.1128686948
 20
11.8843741024
 30
0.0
 10
11.1121917203
 20
11.8884754966
 30
0.0
 10
11.1112444544
 20
11.8925726691
 30
0.0
 10
11.1100271489
 20
11.8966645012
 30
0.0
 10
11.1080237027
 20
11.9021700197
 30
0.0
 10
11.1054875212
 20
11.9076090558
 30
0.0
 10
11.10247076
 20
11.9129519728
 30
0.0
 10
11.0990112667
 20
11.9184252957
 30
0.0
 10
11.0939884679
 20
11.9252402807
 30
0.0
 10
11.0869929035
 20
11.9332386876
 30
0.0
 10
11.078953165
 20
11.9411655558
 30
0.0
 10
11.0698791435
 20
11.9490129795
 30
0.0
 10
11.0597809793
 20
11.9567734608
 30
0.0
 10
11.0486699266
 20
11.9644388856
 30
0.0
 10
11.0365584152
 20
11.9720011513
 30
0.0
 10
11.0234600047
 20
11.9794519305
 30
0.0
 10
11.0093894496
 20
11.9867828562
 30
0.0
 10
10.9943627329
 20
11.9939856828
 30
0.0
 10
10.9783969561
 20
12.0010521122
 30
0.0
 10
10.9615103937
 20
12.0079740207
 30
0.0
 10
10.9437224374
 20
12.0147434365
 30
0.0
 10
10.9250535399
 20
12.0213524466
 30
0.0
 10
10.9055252398
 20
12.0277934164
 30
0.0
 10
10.8851600862
 20
12.0340588436
 30
0.0
 10
10.8639816174
 20
12.0401413927
 30
0.0
 10
10.8420143525
 20
12.046034028
 30
0.0
 10
10.8192837273
 20
12.0517298425
 30
0.0
 10
10.7958160804
 20
12.0572221967
 30
0.0
 10
10.7716386315
 20
12.0625047087
 30
0.0
 10
10.7467793849
 20
12.0675712192
 30
0.0
 10
10.7123945771
 20
12.0741004908
 30
0.0
 10
10.6679163832
 20
12.0816563963
 30
0.0
 10
10.6128563436
 20
12.0896812377
 30
0.0
 10
10.5558087303
 20
12.0967201459
 30
0.0
 10
10.4970383185
 20
12.1027401029
 30
0.0
 10
10.4368176126
 20
12.1077128183
 30
0.0
 10
10.3754260456
 20
12.1116149476
 30
0.0
 10
10.3131485158
 20
12.1144281615
 30
0.0
 10
10.2502740892
 20
12.1161392645
 30
0.0
 10
10.1870946293
 20
12.1167402401
 30
0.0
 10
10.1239034287
 20
12.1162282682
 30
0.0
 10
10.0609938347
 20
12.1146057361
 30
0.0
 10
9.9986578733
 20
12.1118802619
 30
0.0
 10
9.9371848841
 20
12.1080646421
 30
0.0
 10
9.8768601504
 20
12.1031767801
 30
0.0
 10
9.8179635873
 20
12.0972396196
 30
0.0
 10
9.7607683462
 20
12.0902810392
 30
0.0
 10
9.7055399152
 20
12.0823338452
 30
0.0
 10
9.669478471
 20
12.0762799791
 30
0.0
 10
9.6518274383
 20
12.0730811357
 30
0.0
  0
SPLINE
  5
37F
100
AcDbEntity
  8
0
100
AcDbSpline
 62
7
  6
CONTINUOUS
 70
0
 71
3
 72
60
 73
56
 74
0
 42
0.0000001
 43
0.0000001
 44
0.0000000001
 40
0.0
 40
0.0
 40
0.0
 40
0.0
 40
0.0080066091
 40
0.0166743245
 40
0.0260240244
 40
0.0360690253
 40
0.0468147524
 40
0.0582607491
 40
0.0704018574
 40
0.0832287581
 40
0.0967287584
 40
0.110886187
 40
0.125682692
 40
0.1410976796
 40
0.157108451
 40
0.1736903887
 40
0.1908172434
 40
0.2084611743
 40
0.2265929046
 40
0.2451819239
 40
0.2836029391
 40
0.3234591862
 40
0.3644706499
 40
0.4063464094
 40
0.4487875126
 40
0.4914898009
 40
0.5341467427
 40
0.5764522125
 40
0.6181033044
 40
0.6588031424
 40
0.6982637087
 40
0.7362088134
 40
0.7545312551
 40
0.7723782066
 40
0.7897198734
 40
0.8065278563
 40
0.8227751831
 40
0.8384365673
 40
0.8534885425
 40
0.8679095609
 40
0.8816803589
 40
0.8947841577
 40
0.9072069255
 40
0.9189379574
 40
0.9299703049
 40
0.9403014402
 40
0.9499343469
 40
0.9588786237
 40
0.9671521459
 40
0.9747834077
 40
0.9818142189
 40
0.9883031961
 40
0.9943295313
 40
0.9972023442
 40
1.0
 40
1.0
 40
1.0
 40
1.0
 10
13.5367145553
 20
9.086844439
 30
0.0
 10
13.5383177506
 20
9.0883930069
 30
0.0
 10
13.5415162685
 20
9.0917649432
 30
0.0
 10
13.5461172695
 20
9.0973674497
 30
0.0
 10
13.5506994203
 20
9.1037001979
 30
0.0
 10
13.5552542451
 20
9.1107511132
 30
0.0
 10
13.5597738011
 20
9.1185076224
 30
0.0
 10
13.5642496199
 20
9.1269554098
 30
0.0
 10
13.5686732806
 20
9.1360787648
 30
0.0
 10
13.5730364261
 20
9.1458605673
 30
0.0
 10
13.5773306929
 20
9.156282388
 30
0.0
 10
13.5815478353
 20
9.1673245008
 30
0.0
 10
13.585679795
 20
9.1789659276
 30
0.0
 10
13.5897185982
 20
9.1911845272
 30
0.0
 10
13.5936564717
 20
9.2039570156
 30
0.0
 10
13.5974858723
 20
9.2172590147
 30
0.0
 10
13.6011994046
 20
9.231065132
 30
0.0
 10
13.6047899188
 20
9.2453489806
 30
0.0
 10
13.6082505771
 20
9.2600832673
 30
0.0
 10
13.6127319008
 20
9.2805170629
 30
0.0
 10
13.6179458968
 20
9.3069786146
 30
0.0
 10
13.6235204652
 20
9.3397196782
 30
0.0
 10
13.6284363758
 20
9.3735381553
 30
0.0
 10
13.6326557175
 20
9.4081753762
 30
0.0
 10
13.6361459383
 20
9.4433665938
 30
0.0
 10
13.6388802299
 20
9.4788426688
 30
0.0
 10
13.6408376419
 20
9.5143322703
 30
0.0
 10
13.6420032514
 20
9.5495639649
 30
0.0
 10
13.6423683277
 20
9.5842682981
 30
0.0
 10
13.6419304115
 20
9.6181799944
 30
0.0
 10
13.640693164
 20
9.6510396514
 30
0.0
 10
13.6389853624
 20
9.6776385155
 30
0.0
 10
13.6372116924
 20
9.6981956129
 30
0.0
 10
13.6357048675
 20
9.7130168368
 30
0.0
 10
13.634008997
 20
9.727393201
 30
0.0
 10
13.632127355
 20
9.7412972499
 30
0.0
 10
13.6300635614
 20
9.7547024079
 30
0.0
 10
13.6278216214
 20
9.7675830838
 30
0.0
 10
13.6254059031
 20
9.7799147114
 30
0.0
 10
13.6228210412
 20
9.7916737935
 30
0.0
 10
13.6200720556
 20
9.8028379735
 30
0.0
 10
13.6171642766
 20
9.8133860803
 30
0.0
 10
13.6141032534
 20
9.8232981644
 30
0.0
 10
13.6108948808
 20
9.8325555884
 30
0.0
 10
13.6075452653
 20
9.8411410647
 30
0.0
 10
13.6040606165
 20
9.8490386838
 30
0.0
 10
13.6004473354
 20
9.8562340331
 30
0.0
 10
13.5967117631
 20
9.8627141795
 30
0.0
 10
13.5928599254
 20
9.8684676349
 30
0.0
 10
13.588897625
 20
9.8734842799
 30
0.0
 10
13.5848294643
 20
9.8777551055
 30
0.0
 10
13.5806604587
 20
9.8812707681
 30
0.0
 10
13.5770469657
 20
9.8836000228
 30
0.0
 10
13.5741275448
 20
9.8850483358
 30
0.0
 10
13.572661207
 20
9.885638508
 30
0.0
 10
13.5719272924
 20
9.885899208
 30
0.0
  0
SPLINE
  5
380
100
AcDbEntity
  8
0
100
AcDbSpline
 62
7
  6
CONTINUOUS
 70
0
 71
3
 72
64
 73
60
 74
0
 42
0.0000001
 43
0.0000001
 44
0.0000000001
 40
0.0
 40
0.0
 40
0.0
 40
0.0
 40
0.0059877716
 40
0.0088872947
 40
0.0117371525
 40
0.0145487526
 40
0.0173340217
 40
0.0201052693
 40
0.0228750046
 40
0.0256557622
 40
0.028459911
 40
0.0312994853
 40
0.0341860395
 40
0.0371305005
 40
0.0401430994
 40
0.0464074947
 40
0.0530481713
 40
0.0601190234
 40
0.0676627181
 40
0.0757121387
 40
0.084291977
 40
0.0934201303
 40
0.103108808
 40
0.113365557
 40
0.1241940368
 40
0.1355945592
 40
0.1475646434
 40
0.1600994051
 40
0.173191796
 40
0.1868329232
 40
0.201012254
 40
0.2157177186
 40
0.2309359173
 40
0.2466522397
 40
0.2628509064
 40
0.279515121
 40
0.2966271473
 40
0.3141683259
 40
0.3321191957
 40
0.3504595498
 40
0.3691684443
 40
0.3882243005
 40
0.4272870286
 40
0.4674645578
 40
0.5085656431
 40
0.55039304
 40
0.5927448398
 40
0.6354158207
 40
0.6781987545
 40
0.7208857091
 40
0.7632693554
 40
0.8051442655
 40
0.8463082399
 40
0.8865636248
 40
0.9257186772
 40
0.944825897
 40
0.9635893934
 40
0.9819882896
 40
1.0
 40
1.0
 40
1.0
 40
1.0
 10
11.1138106254
 20
11.8641414491
 30
0.0
 10
11.1152199513
 20
11.8669641762
 30
0.0
 10
11.1170823552
 20
11.8712768256
 30
0.0
 10
11.1189872566
 20
11.877163833
 30
0.0
 10
11.1200960487
 20
11.88153984
 30
0.0
 10
11.1208989816
 20
11.8859208551
 30
0.0
 10
11.1213956724
 20
11.8903055414
 30
0.0
 10
11.1215859002
 20
11.8946921244
 30
0.0
 10
11.121469557
 20
11.899078923
 30
0.0
 10
11.1210466127
 20
11.9034642076
 30
0.0
 10
11.1203174164
 20
11.9078462906
 30
0.0
 10
11.1192823535
 20
11.9122235416
 30
0.0
 10
11.1179418974
 20
11.9165943193
 30
0.0
 10
11.1162967431
 20
11.9209572408
 30
0.0
 10
11.1136641391
 20
11.9268377126
 30
0.0
 10
11.1095732035
 20
11.9341806902
 30
0.0
 10
11.1035237536
 20
11.9428132056
 30
0.0
 10
11.0962813323
 20
11.951373805
 30
0.0
 10
11.0878570636
 20
11.9598533242
 30
0.0
 10
11.0782620951
 20
11.9682436703
 30
0.0
 10
11.0675085933
 20
11.9765357763
 30
0.0
 10
11.0556098997
 20
11.9847202109
 30
0.0
 10
11.0425808636
 20
11.9927873092
 30
0.0
 10
11.0284377881
 20
12.0007271956
 30
0.0
 10
11.0131984807
 20
12.0085298869
 30
0.0
 10
10.9968823082
 20
12.0161855166
 30
0.0
 10
10.9795100925
 20
12.0236842582
 30
0.0
 10
10.9611040898
 20
12.031016381
 30
0.0
 10
10.9416879983
 20
12.0381724093
 30
0.0
 10
10.9212868655
 20
12.0451430256
 30
0.0
 10
10.8999270537
 20
12.0519190995
 30
0.0
 10
10.8776362335
 20
12.0584918187
 30
0.0
 10
10.8544433041
 20
12.0648525912
 30
0.0
 10
10.8303783549
 20
12.0709930648
 30
0.0
 10
10.8054726479
 20
12.0769052421
 30
0.0
 10
10.7797585473
 20
12.0825813889
 30
0.0
 10
10.7532694763
 20
12.088014048
 30
0.0
 10
10.726039892
 20
12.0931961445
 30
0.0
 10
10.6981052161
 20
12.0981209028
 30
0.0
 10
10.6695018018
 20
12.1027818417
 30
0.0
 10
10.6402668452
 20
12.1071729369
 30
0.0
 10
10.6001650386
 20
12.112705704
 30
0.0
 10
10.5487376528
 20
12.1188877471
 30
0.0
 10
10.4856284033
 20
12.1250886599
 30
0.0
 10
10.4209523978
 20
12.1300989033
 30
0.0
 10
10.3550463312
 20
12.1338921105
 30
0.0
 10
10.2882530398
 20
12.1364483071
 30
0.0
 10
10.2209201273
 20
12.1377540346
 30
0.0
 10
10.1533980068
 20
12.1378023918
 30
0.0
 10
10.086038096
 20
12.1365931499
 30
0.0
 10
10.019190953
 20
12.1341326767
 30
0.0
 10
9.9532044638
 20
12.1304338996
 30
0.0
 10
9.8884218852
 20
12.1255163455
 30
0.0
 10
9.8251804619
 20
12.119405874
 30
0.0
 10
9.7736266818
 20
12.1132981268
 30
0.0
 10
9.7334114451
 20
12.1078236222
 30
0.0
 10
9.7040825766
 20
12.1034745113
 30
0.0
 10
9.6753796963
 20
12.0988546339
 30
0.0
 10
9.6564787006
 20
12.0955620583
 30
0.0
 10
9.6471403303
 20
12.0938696936
 30
0.0
  0
SPLINE
  5
381
100
AcDbEntity
  8
0
100
AcDbSpline
 62
7
  6
CONTINUOUS
 70
0
 71
3
 72
39
 73
35
 74
0
 42
0.0000001
 43
0.0000001
 44
0.0000000001
 40
0.0
 40
0.0
 40
0.0
 40
0.0
 40
0.0311159723
 40
0.0620233248
 40
0.0927351404
 40
0.1232711776
 40
0.1536587326
 40
0.1839312111
 40
0.2141268393
 40
0.2442870992
 40
0.2744549754
 40
0.3046731314
 40
0.3349820899
 40
0.3654185435
 40
0.3960138648
 40
0.4267928822
 40
0.4577729963
 40
0.4889636214
 40
0.5203659689
 40
0.551973178
 40
0.5837707188
 40
0.6157370639
 40
0.6478445901
 40
0.6800606405
 40
0.7123487311
 40
0.7446698622
 40
0.7769838843
 40
0.8092508939
 40
0.8414326243
 40
0.8734937998
 40
0.9054034123
 40
0.9371359058
 40
0.9686717941
 40
1.0
 40
1.0
 40
1.0
 40
1.0
 10
9.5917466555
 20
7.1922230955
 30
0.0
 10
9.5917466555
 20
7.2001585757
 30
0.0
 10
9.5925213736
 20
7.2159878122
 30
0.0
 10
9.5960250215
 20
7.2394151928
 30
0.0
 10
9.6018332894
 20
7.2622305899
 30
0.0
 10
9.6098912553
 20
7.2842107749
 30
0.0
 10
9.6201217472
 20
7.3051439696
 30
0.0
 10
9.6324265729
 20
7.324827362
 30
0.0
 10
9.6466872419
 20
7.3430703285
 30
0.0
 10
9.6627659417
 20
7.3596962143
 30
0.0
 10
9.680507166
 20
7.3745440452
 30
0.0
 10
9.6997391502
 20
7.3874702144
 30
0.0
 10
9.7202755662
 20
7.3983500887
 30
0.0
 10
9.7419176141
 20
7.4070789542
 30
0.0
 10
9.7644559211
 20
7.4135731503
 30
0.0
 10
9.7876726606
 20
7.4177709204
 30
0.0
 10
9.8113437796
 20
7.4196326277
 30
0.0
 10
9.8352411073
 20
7.4191412708
 30
0.0
 10
9.8591345935
 20
7.4163025881
 30
0.0
 10
9.8827944634
 20
7.4111446618
 30
0.0
 10
9.9059933929
 20
7.4037178564
 30
0.0
 10
9.928508677
 20
7.3940942489
 30
0.0
 10
9.9501242185
 20
7.3823667094
 30
0.0
 10
9.9706326532
 20
7.3686482706
 30
0.0
 10
9.9898372843
 20
7.3530709409
 30
0.0
 10
10.0075537987
 20
7.3357843201
 30
0.0
 10
10.0236121882
 20
7.3169544208
 30
0.0
 10
10.0378582716
 20
7.2967619588
 30
0.0
 10
10.0501550228
 20
7.2754006207
 30
0.0
 10
10.0603841215
 20
7.2530753169
 30
0.0
 10
10.0684469331
 20
7.2300004807
 30
0.0
 10
10.07426528
 20
7.2063968111
 30
0.0
 10
10.077782779
 20
7.1824939914
 30
0.0
 10
10.0785733008
 20
7.1664511589
 30
0.0
 10
10.0785733008
 20
7.158461553
 30
0.0
  0
SPLINE
  5
382
100
AcDbEntity
  8
0
100
AcDbSpline
 62
4
  6
CONTINUOUS
 70
0
 71
3
 72
313
 73
309
 74
0
 42
0.0000001
 43
0.0000001
 44
0.0000000001
 40
0.0
 40
0.0
 40
0.0
 40
0.0
 40
0.015625
 40
0.0234375
 40
0.03125
 40
0.0390625
 40
0.046875
 40
0.05078125
 40
0.0546875
 40
0.056640625
 40
0.05859375
 40
0.060546875
 40
0.0615234375
 40
0.0620117188
 40
0.0625
 40
0.0629882812
 40
0.0634765625
 40
0.064453125
 40
0.06640625
 40
0.068359375
 40
0.0703125
 40
0.07421875
 40
0.078125
 40
0.0859375
 40
0.09375
 40
0.1015625
 40
0.109375
 40
0.11328125
 40
0.1171875
 40
0.119140625
 40
0.12109375
 40
0.123046875
 40
0.1240234375
 40
0.1245117188
 40
0.125
 40
0.1254882812
 40
0.1259765625
 40
0.126953125
 40
0.12890625
 40
0.130859375
 40
0.1328125
 40
0.13671875
 40
0.140625
 40
0.1484375
 40
0.15625
 40
0.1640625
 40
0.171875
 40
0.17578125
 40
0.1796875
 40
0.181640625
 40
0.18359375
 40
0.185546875
 40
0.1865234375
 40
0.1870117188
 40
0.1875
 40
0.1879882812
 40
0.1884765625
 40
0.189453125
 40
0.19140625
 40
0.193359375
 40
0.1953125
 40
0.19921875
 40
0.203125
 40
0.2109375
 40
0.21875
 40
0.2265625
 40
0.234375
 40
0.23828125
 40
0.2421875
 40
0.244140625
 40
0.24609375
 40
0.248046875
 40
0.2490234375
 40
0.2495117188
 40
0.25
 40
0.2504882812
 40
0.2509765625
 40
0.251953125
 40
0.25390625
 40
0.255859375
 40
0.2578125
 40
0.26171875
 40
0.265625
 40
0.2734375
 40
0.28125
 40
0.2890625
 40
0.296875
 40
0.30078125
 40
0.3046875
 40
0.306640625
 40
0.30859375
 40
0.310546875
 40
0.3115234375
 40
0.3120117188
 40
0.3125
 40
0.3129882812
 40
0.3134765625
 40
0.314453125
 40
0.31640625
 40
0.318359375
 40
0.3203125
 40
0.32421875
 40
0.328125
 40
0.3359375
 40
0.34375
 40
0.3515625
 40
0.359375
 40
0.36328125
 40
0.3671875
 40
0.369140625
 40
0.37109375
 40
0.373046875
 40
0.3740234375
 40
0.3745117188
 40
0.375
 40
0.3754882812
 40
0.3759765625
 40
0.376953125
 40
0.37890625
 40
0.380859375
 40
0.3828125
 40
0.38671875
 40
0.390625
 40
0.3984375
 40
0.40625
 40
0.4140625
 40
0.421875
 40
0.42578125
 40
0.4296875
 40
0.431640625
 40
0.43359375
 40
0.435546875
 40
0.4365234375
 40
0.4370117188
 40
0.4375
 40
0.4379882812
 40
0.4384765625
 40
0.439453125
 40
0.44140625
 40
0.443359375
 40
0.4453125
 40
0.44921875
 40
0.453125
 40
0.4609375
 40
0.46875
 40
0.4765625
 40
0.484375
 40
0.48828125
 40
0.4921875
 40
0.494140625
 40
0.49609375
 40
0.498046875
 40
0.4990234375
 40
0.4995117188
 40
0.5
 40
0.5004882812
 40
0.5009765625
 40
0.501953125
 40
0.50390625
 40
0.505859375
 40
0.5078125
 40
0.51171875
 40
0.515625
 40
0.5234375
 40
0.53125
 40
0.5390625
 40
0.546875
 40
0.55078125
 40
0.5546875
 40
0.556640625
 40
0.55859375
 40
0.560546875
 40
0.5615234375
 40
0.5620117188
 40
0.5625
 40
0.5629882812
 40
0.5634765625
 40
0.564453125
 40
0.56640625
 40
0.568359375
 40
0.5703125
 40
0.57421875
 40
0.578125
 40
0.5859375
 40
0.59375
 40
0.6015625
 40
0.609375
 40
0.61328125
 40
0.6171875
 40
0.619140625
 40
0.62109375
 40
0.623046875
 40
0.6240234375
 40
0.6245117188
 40
0.625
 40
0.6254882812
 40
0.6259765625
 40
0.626953125
 40
0.62890625
 40
0.630859375
 40
0.6328125
 40
0.63671875
 40
0.640625
 40
0.6484375
 40
0.65625
 40
0.6640625
 40
0.671875
 40
0.67578125
 40
0.6796875
 40
0.681640625
 40
0.68359375
 40
0.685546875
 40
0.6865234375
 40
0.6870117188
 40
0.6875
 40
0.6879882812
 40
0.6884765625
 40
0.689453125
 40
0.69140625
 40
0.693359375
 40
0.6953125
 40
0.69921875
 40
0.703125
 40
0.7109375
 40
0.71875
 40
0.7265625
 40
0.734375
 40
0.73828125
 40
0.7421875
 40
0.744140625
 40
0.74609375
 40
0.748046875
 40
0.7490234375
 40
0.7495117188
 40
0.75
 40
0.7504882812
 40
0.7509765625
 40
0.751953125
 40
0.75390625
 40
0.755859375
 40
0.7578125
 40
0.76171875
 40
0.765625
 40
0.7734375
 40
0.78125
 40
0.7890625
 40
0.796875
 40
0.80078125
 40
0.8046875
 40
0.806640625
 40
0.80859375
 40
0.810546875
 40
0.8115234375
 40
0.8120117188
 40
0.8125
 40
0.8129882812
 40
0.8134765625
 40
0.814453125
 40
0.81640625
 40
0.818359375
 40
0.8203125
 40
0.82421875
 40
0.828125
 40
0.8359375
 40
0.84375
 40
0.8515625
 40
0.859375
 40
0.86328125
 40
0.8671875
 40
0.869140625
 40
0.87109375
 40
0.873046875
 40
0.8740234375
 40
0.8745117188
 40
0.875
 40
0.8754882812
 40
0.8759765625
 40
0.876953125
 40
0.87890625
 40
0.880859375
 40
0.8828125
 40
0.88671875
 40
0.890625
 40
0.8984375
 40
0.90625
 40
0.9140625
 40
0.921875
 40
0.92578125
 40
0.9296875
 40
0.931640625
 40
0.93359375
 40
0.935546875
 40
0.9365234375
 40
0.9370117188
 40
0.9375
 40
0.9379882812
 40
0.9384765625
 40
0.939453125
 40
0.94140625
 40
0.943359375
 40
0.9453125
 40
0.94921875
 40
0.953125
 40
0.9609375
 40
0.96875
 40
0.9765625
 40
0.984375
 40
1.0
 40
1.0
 40
1.0
 40
1.0
 10
10.140122078
 20
10.1031455295
 30
0.0
 10
10.1363622537
 20
10.1030376202
 30
0.0
 10
10.1307225171
 20
10.1028757566
 30
0.0
 10
10.1232028687
 20
10.1026599372
 30
0.0
 10
10.1175631318
 20
10.1024980756
 30
0.0
 10
10.1119233971
 20
10.1023362027
 30
0.0
 10
10.1072236112
 20
10.102201344
 30
0.0
 10
10.1034637981
 20
10.1020933778
 30
0.0
 10
10.1011138796
 20
10.1020260792
 30
0.0
 10
10.0992340255
 20
10.1019718276
 30
0.0
 10
10.0978239141
 20
10.1019322689
 30
0.0
 10
10.0966495235
 20
10.1018957084
 30
0.0
 10
10.0958260721
 20
10.1018771712
 30
0.0
 10
10.0953576801
 20
10.1018555624
 30
0.0
 10
10.0950003247
 20
10.1018703883
 30
0.0
 10
10.094666139
 20
10.1017665921
 30
0.0
 10
10.0942124763
 20
10.1016695738
 30
0.0
 10
10.0934223319
 20
10.1014805137
 30
0.0
 10
10.0922915856
 20
10.1012205067
 30
0.0
 10
10.0909355326
 20
10.1009041842
 30
0.0
 10
10.0891271677
 20
10.1004839276
 30
0.0
 10
10.0868668124
 20
10.099958091
 30
0.0
 10
10.0832501875
 20
10.0991170409
 30
0.0
 10
10.078729426
 20
10.0980656286
 30
0.0
 10
10.0733045027
 20
10.0968039793
 30
0.0
 10
10.0678795859
 20
10.0955423078
 30
0.0
 10
10.0633588079
 20
10.0944909512
 30
0.0
 10
10.059742216
 20
10.0936497897
 30
0.0
 10
10.0574817769
 20
10.0931242362
 30
0.0
 10
10.0556735838
 20
10.0927033986
 30
0.0
 10
10.054317006
 20
10.0923888512
 30
0.0
 10
10.0531879021
 20
10.0921232903
 30
0.0
 10
10.0523948257
 20
10.0919441447
 30
0.0
 10
10.0519458607
 20
10.091831241
 30
0.0
 10
10.0515972451
 20
10.0917762398
 30
0.0
 10
10.0512940862
 20
10.0916077996
 30
0.0
 10
10.0508740186
 20
10.0914227815
 30
0.0
 10
10.0501462878
 20
10.0910805641
 30
0.0
 10
10.04910281
 20
10.0906013204
 30
0.0
 10
10.0478522899
 20
10.0900221024
 30
0.0
 10
10.0461843523
 20
10.0892512528
 30
0.0
 10
10.0440996281
 20
10.0882871974
 30
0.0
 10
10.0407639587
 20
10.0867449845
 30
0.0
 10
10.0365944103
 20
10.0848171231
 30
0.0
 10
10.0315909344
 20
10.082503733
 30
0.0
 10
10.0265874684
 20
10.0801903213
 30
0.0
 10
10.0224178951
 20
10.0782625139
 30
0.0
 10
10.0190822755
 20
10.0767201932
 30
0.0
 10
10.0169974247
 20
10.0757564117
 30
0.0
 10
10.0153297468
 20
10.0749849999
 30
0.0
 10
10.0140784333
 20
10.0744074996
 30
0.0
 10
10.013037438
 20
10.0739228818
 30
0.0
 10
10.0123052756
 20
10.073590258
 30
0.0
 10
10.0118923084
 20
10.0733898684
 30
0.0
 10
10.0115673393
 20
10.0732686446
 30
0.0
 10
10.0113006393
 20
10.0730363066
 30
0.0
 10
10.0109247144
 20
10.0727652804
 30
0.0
 10
10.0102763155
 20
10.0722729265
 30
0.0
 10
10.0093450806
 20
10.0715790048
 30
0.0
 10
10.0082297177
 20
10.0707422578
 30
0.0
 10
10.0067418271
 20
10.0696280065
 30
0.0
 10
10.0048822173
 20
10.068234709
 30
0.0
 10
10.0019066998
 20
10.0660057033
 30
0.0
 10
9.9981873522
 20
10.063219353
 30
0.0
 10
9.9937241117
 20
10.0598757747
 30
0.0
 10
9.9892608857
 20
10.0565321775
 30
0.0
 10
9.9855415017
 20
10.0537458742
 30
0.0
 10
9.982566057
 20
10.0515167745
 30
0.0
 10
9.9807062621
 20
10.050123716
 30
0.0
 10
9.9792187514
 20
10.0490089743
 30
0.0
 10
9.978102228
 20
10.0481737255
 30
0.0
 10
9.9771746239
 20
10.047475116
 30
0.0
 10
9.9765197434
 20
10.0469911307
 30
0.0
 10
9.9761542038
 20
10.0467066959
 30
0.0
 10
9.9758556034
 20
10.0465155448
 30
0.0
 10
9.9756504467
 20
10.0462396299
 30
0.0
 10
9.9753443102
 20
10.04590131
 30
0.0
 10
9.9748237575
 20
10.0452954745
 30
0.0
 10
9.9740721713
 20
10.0444371972
 30
0.0
 10
9.9731736663
 20
10.0434041818
 30
0.0
 10
9.9719744725
 20
10.0420279047
 30
0.0
 10
9.9704758868
 20
10.0403071896
 30
0.0
 10
9.9680779225
 20
10.0375542516
 30
0.0
 10
9.9650805455
 20
10.0341130079
 30
0.0
 10
9.9614836571
 20
10.0299835477
 30
0.0
 10
9.9578867873
 20
10.0258540724
 30
0.0
 10
9.9548893641
 20
10.0224128666
 30
0.0
 10
9.9524914922
 20
10.0196598527
 30
0.0
 10
9.9509926715
 20
10.0179393304
 30
0.0
 10
9.94979396
 20
10.0165626576
 30
0.0
 10
9.9488939819
 20
10.0155308508
 30
0.0
 10
9.9481470044
 20
10.0146687923
 30
0.0
 10
9.9476182245
 20
10.014069707
 30
0.0
 10
9.9473252701
 20
10.0137205716
 30
0.0
 10
9.9470796221
 20
10.0134778784
 30
0.0
 10
9.9469331
 20
10.013161952
 30
0.0
 10
9.946703161
 20
10.0127662613
 30
0.0
 10
9.9463168773
 20
10.0120619009
 30
0.0
 10
9.9457566213
 20
10.0110618941
 30
0.0
 10
9.945087919
 20
10.0098592226
 30
0.0
 10
9.9441950568
 20
10.0082565908
 30
0.0
 10
9.9430794102
 20
10.0062529826
 30
0.0
 10
9.9412941346
 20
10.0030473875
 30
0.0
 10
9.9390626234
 20
9.9990403323
 30
0.0
 10
9.9363847716
 20
9.9942318936
 30
0.0
 10
9.9337069399
 20
9.9894234427
 30
0.0
 10
9.9314753785
 20
9.9854164179
 30
0.0
 10
9.9296902033
 20
9.982210762
 30
0.0
 10
9.9285743014
 20
9.9802073083
 30
0.0
 10
9.9276819632
 20
9.9786043593
 30
0.0
 10
9.9270116603
 20
9.9774026571
 30
0.0
 10
9.9264564121
 20
9.9763996177
 30
0.0
 10
9.9260611885
 20
9.9757006709
 30
0.0
 10
9.9258455736
 20
9.9752963063
 30
0.0
 10
9.9256550522
 20
9.9750070234
 30
0.0
 10
9.925574658
 20
9.9746642616
 30
0.0
 10
9.9254290522
 20
9.9742258999
 30
0.0
 10
9.9251921396
 20
9.9734500757
 30
0.0
 10
9.9248443359
 20
9.9723462992
 30
0.0
 10
9.9244309767
 20
9.9710198225
 30
0.0
 10
9.923878432
 20
9.9692518663
 30
0.0
 10
9.9231882303
 20
9.9670416884
 30
0.0
 10
9.9220836397
 20
9.9635055338
 30
0.0
 10
9.9207029939
 20
9.9590852957
 30
0.0
 10
9.9190461766
 20
9.9537810302
 30
0.0
 10
9.917389381
 20
9.9484767555
 30
0.0
 10
9.9160086808
 20
9.9440565405
 30
0.0
 10
9.9149041992
 20
9.9405203397
 30
0.0
 10
9.9142137204
 20
9.9383102791
 30
0.0
 10
9.9136617443
 20
9.9365420822
 30
0.0
 10
9.9132466483
 20
9.9352163406
 30
0.0
 10
9.9129042783
 20
9.9341102643
 30
0.0
 10
9.9126576657
 20
9.9333385457
 30
0.0
 10
9.9125276017
 20
9.9328936058
 30
0.0
 10
9.9123994679
 20
9.9325710501
 30
0.0
 10
9.9123882488
 20
9.9322058765
 30
0.0
 10
9.9123325088
 20
9.9317338439
 30
0.0
 10
9.9122539645
 20
9.9309008608
 30
0.0
 10
9.9121318246
 20
9.929714506
 30
0.0
 10
9.9119895087
 20
9.9282893303
 30
0.0
 10
9.911798269
 20
9.9263896374
 30
0.0
 10
9.9115597279
 20
9.9240148359
 30
0.0
 10
9.9111777779
 20
9.9202152572
 30
0.0
 10
9.9107004386
 20
9.9154657482
 30
0.0
 10
9.9101275864
 20
9.9097663526
 30
0.0
 10
9.9095547571
 20
9.9040669531
 30
0.0
 10
9.9090773605
 20
9.8993174537
 30
0.0
 10
9.9086955249
 20
9.8955178556
 30
0.0
 10
9.9084566931
 20
9.8931431033
 30
0.0
 10
9.9082660501
 20
9.8912433095
 30
0.0
 10
9.9081219111
 20
9.8898184422
 30
0.0
 10
9.9080054753
 20
9.8886311224
 30
0.0
 10
9.9079167482
 20
9.8877998619
 30
0.0
 10
9.9078773237
 20
9.8873250694
 30
0.0
 10
9.9078159885
 20
9.8869683736
 30
0.0
 10
9.9078760825
 20
9.8866139766
 30
0.0
 10
9.9079138519
 20
9.8861406454
 30
0.0
 10
9.9079996829
 20
9.8853126894
 30
0.0
 10
9.9081119811
 20
9.8841296999
 30
0.0
 10
9.9082511552
 20
9.882710196
 30
0.0
 10
9.9084351782
 20
9.880817495
 30
0.0
 10
9.9086657351
 20
9.8784516287
 30
0.0
 10
9.9090343308
 20
9.874666237
 30
0.0
 10
9.9094951774
 20
9.8699344995
 30
0.0
 10
9.9100481468
 20
9.8642564132
 30
0.0
 10
9.9106011392
 20
9.8585783286
 30
0.0
 10
9.9110619285
 20
9.8538465868
 30
0.0
 10
9.9114306387
 20
9.8500612035
 30
0.0
 10
9.9116609047
 20
9.847695316
 30
0.0
 10
9.9118455247
 20
9.8458026585
 30
0.0
 10
9.9119828749
 20
9.8443830219
 30
0.0
 10
9.9121008797
 20
9.8432004476
 30
0.0
 10
9.9121765235
 20
9.8423717502
 30
0.0
 10
9.9122306154
 20
9.841899607
 30
0.0
 10
9.9122405721
 20
9.8415415611
 30
0.0
 10
9.9123675442
 20
9.8411985699
 30
0.0
 10
9.912496024
 20
9.840735997
 30
0.0
 10
9.9127398809
 20
9.8399289411
 30
0.0
 10
9.9130783054
 20
9.8387747249
 30
0.0
 10
9.9134886705
 20
9.8373902131
 30
0.0
 10
9.9140343376
 20
9.8355440061
 30
0.0
 10
9.9147169304
 20
9.8332363128
 30
0.0
 10
9.9158087943
 20
9.8295439668
 30
0.0
 10
9.9171737224
 20
9.8249285472
 30
0.0
 10
9.9188115914
 20
9.8193900373
 30
0.0
 10
9.9204494823
 20
9.8138515324
 30
0.0
 10
9.9218143558
 20
9.8092361001
 30
0.0
 10
9.9229063289
 20
9.8055437796
 30
0.0
 10
9.9235886444
 20
9.8032360218
 30
0.0
 10
9.9241348805
 20
9.8013899471
 30
0.0
 10
9.924543507
 20
9.8000050309
 30
0.0
 10
9.9248873714
 20
9.7988520799
 30
0.0
 10
9.9251215171
 20
9.7980427655
 30
0.0
 10
9.9252655566
 20
9.7975838113
 30
0.0
 10
9.9253447344
 20
9.7972297047
 30
0.0
 10
9.9255341987
 20
9.7969134064
 30
0.0
 10
9.9257483486
 20
9.7964784875
 30
0.0
 10
9.9261410344
 20
9.7957235238
 30
0.0
 10
9.9266926434
 20
9.7946417918
 30
0.0
 10
9.9273585853
 20
9.7933450885
 30
0.0
 10
9.9282451068
 20
9.7916156704
 30
0.0
 10
9.9293537383
 20
9.7894540623
 30
0.0
 10
9.9311272807
 20
9.7859953974
 30
0.0
 10
9.9333443012
 20
9.7816720981
 30
0.0
 10
9.9360046835
 20
9.776484124
 30
0.0
 10
9.9386650867
 20
9.7712961585
 30
0.0
 10
9.9408820551
 20
9.7669728378
 30
0.0
 10
9.9426557017
 20
9.7635142155
 30
0.0
 10
9.9437640682
 20
9.7613524992
 30
0.0
 10
9.9446511339
 20
9.7596233031
 30
0.0
 10
9.9453154131
 20
9.7583259217
 30
0.0
 10
9.9458722241
 20
9.7572463114
 30
0.0
 10
9.9462556235
 20
9.7564875602
 30
0.0
 10
9.9464846525
 20
9.7560587097
 30
0.0
 10
9.946628413
 20
9.7557237708
 30
0.0
 10
9.9468792467
 20
9.7554396755
 30
0.0
 10
9.9471763434
 20
9.7550431468
 30
0.0
 10
9.9477136639
 20
9.7543574846
 30
0.0
 10
9.9484721669
 20
9.7533736473
 30
0.0
 10
9.9493862647
 20
9.7521948916
 30
0.0
 10
9.9506037015
 20
9.7506225714
 30
0.0
 10
9.9521259633
 20
9.7486573924
 30
0.0
 10
9.9545613219
 20
9.7455129822
 30
0.0
 10
9.9576056098
 20
9.7415825125
 30
0.0
 10
9.961258715
 20
9.7368659283
 30
0.0
 10
9.9649118379
 20
9.7321493574
 30
0.0
 10
9.9679560814
 20
9.7282188543
 30
0.0
 10
9.9703915289
 20
9.7250745108
 30
0.0
 10
9.9719135646
 20
9.7231091624
 30
0.0
 10
9.9731314655
 20
9.7215371899
 30
0.0
 10
9.9740441454
 20
9.720357372
 30
0.0
 10
9.9748070845
 20
9.7193768579
 30
0.0
 10
9.9753364859
 20
9.7186852633
 30
0.0
 10
9.9756462709
 20
9.71829824
 30
0.0
 10
9.9758581301
 20
9.7179849471
 30
0.0
 10
9.9761482726
 20
9.7177596689
 30
0.0
 10
9.9765078232
 20
9.7174285975
 30
0.0
 10
9.9771497592
 20
9.7168635265
 30
0.0
 10
9.9780601591
 20
9.7160488038
 30
0.0
 10
9.979155486
 20
9.7150743376
 30
0.0
 10
9.9806149275
 20
9.7137739313
 30
0.0
 10
9.9824395699
 20
9.7121488062
 30
0.0
 10
9.9853588073
 20
9.709548392
 30
0.0
 10
9.9890079198
 20
9.7062979482
 30
0.0
 10
9.993386825
 20
9.7023973818
 30
0.0
 10
9.9977657441
 20
9.6984968328
 30
0.0
 10
10.0014148219
 20
9.6952463453
 30
0.0
 10
10.0043341288
 20
9.6926460187
 30
0.0
 10
10.0061585947
 20
9.6910206709
 30
0.0
 10
10.0076183983
 20
9.6897207216
 30
0.0
 10
10.0087126189
 20
9.6887448591
 30
0.0
 10
10.0096264804
 20
9.6879345051
 30
0.0
 10
10.0102622368
 20
9.6873616353
 30
0.0
 10
10.0106316887
 20
9.6870430594
 30
0.0
 10
10.0108914175
 20
9.6867793991
 30
0.0
 10
10.0112175053
 20
9.6866102627
 30
0.0
 10
10.0116291423
 20
9.6863517766
 30
0.0
 10
10.0123602916
 20
9.6859147876
 30
0.0
 10
10.0133991523
 20
9.6852824863
 30
0.0
 10
10.0146481984
 20
9.6845271623
 30
0.0
 10
10.0163127504
 20
9.6835188631
 30
0.0
 10
10.018393729
 20
9.6822589001
 30
0.0
 10
10.0217231333
 20
9.6802427295
 30
0.0
 10
10.0258849444
 20
9.6777225958
 30
0.0
 10
10.0308790928
 20
9.6746983986
 30
0.0
 10
10.0358732519
 20
9.6716742208
 30
0.0
 10
10.040035036
 20
9.6691540387
 30
0.0
 10
10.0433644943
 20
9.6671379648
 30
0.0
 10
10.045445336
 20
9.6658777561
 30
0.0
 10
10.0471101688
 20
9.6648699612
 30
0.0
 10
10.0483583568
 20
9.6641130962
 30
0.0
 10
10.0493999027
 20
9.6634856166
 30
0.0
 10
10.0501262583
 20
9.66304002
 30
0.0
 10
10.0505455759
 20
9.6627953254
 30
0.0
 10
10.0508480715
 20
9.6625838259
 30
0.0
 10
10.0511964087
 20
9.6624792744
 30
0.0
 10
10.0516448682
 20
9.6623025678
 30
0.0
 10
10.0524371224
 20
9.6620107122
 30
0.0
 10
10.0535650191
 20
9.6615846886
 30
0.0
 10
10.0549201623
 20
9.6610773498
 30
0.0
 10
10.0567264377
 20
9.6603995396
 30
0.0
 10
10.0589844812
 20
9.659552742
 30
0.0
 10
10.0625972394
 20
9.6581976057
 30
0.0
 10
10.0671132256
 20
9.6565037753
 30
0.0
 10
10.0725323918
 20
9.6544711375
 30
0.0
 10
10.0779515657
 20
9.652438521
 30
0.0
 10
10.0824675326
 20
9.6507446374
 30
0.0
 10
10.0860803294
 20
9.6493896074
 30
0.0
 10
10.0883382749
 20
9.6485425397
 30
0.0
 10
10.0901447514
 20
9.6478652839
 30
0.0
 10
10.09149928
 20
9.6473562511
 30
0.0
 10
10.0926290998
 20
9.6469355278
 30
0.0
 10
10.0934179211
 20
9.6466342102
 30
0.0
 10
10.0938718809
 20
9.6464726641
 30
0.0
 10
10.0942033227
 20
9.6463215446
 30
0.0
 10
10.0945692746
 20
9.6462849467
 30
0.0
 10
10.0950451729
 20
9.646196203
 30
0.0
 10
10.0958836034
 20
9.6460595134
 30
0.0
 10
10.0970784292
 20
9.645854512
 30
0.0
 10
10.0985134752
 20
9.6456126753
 30
0.0
 10
10.1004264314
 20
9.6452887717
 30
0.0
 10
10.1028177768
 20
9.6448843902
 30
0.0
 10
10.1066438456
 20
9.6442371015
 30
0.0
 10
10.1114264604
 20
9.6434280861
 30
0.0
 10
10.1171655858
 20
9.6424572267
 30
0.0
 10
10.1229047145
 20
9.6414863783
 30
0.0
 10
10.1305568849
 20
9.6401919098
 30
0.0
 10
10.1362960129
 20
9.6392210594
 30
0.0
 10
10.1401220983
 20
9.6385738255
 30
0.0
  0
SPLINE
  5
383
100
AcDbEntity
  8
0
100
AcDbSpline
 62
4
  6
CONTINUOUS
 70
0
 71
3
 72
313
 73
309
 74
0
 42
0.0000001
 43
0.0000001
 44
0.0000000001
 40
0.0
 40
0.0
 40
0.0
 40
0.0
 40
0.015625
 40
0.0234375
 40
0.03125
 40
0.0390625
 40
0.046875
 40
0.05078125
 40
0.0546875
 40
0.056640625
 40
0.05859375
 40
0.060546875
 40
0.0615234375
 40
0.0620117188
 40
0.0625
 40
0.0629882812
 40
0.0634765625
 40
0.064453125
 40
0.06640625
 40
0.068359375
 40
0.0703125
 40
0.07421875
 40
0.078125
 40
0.0859375
 40
0.09375
 40
0.1015625
 40
0.109375
 40
0.11328125
 40
0.1171875
 40
0.119140625
 40
0.12109375
 40
0.123046875
 40
0.1240234375
 40
0.1245117188
 40
0.125
 40
0.1254882812
 40
0.1259765625
 40
0.126953125
 40
0.12890625
 40
0.130859375
 40
0.1328125
 40
0.13671875
 40
0.140625
 40
0.1484375
 40
0.15625
 40
0.1640625
 40
0.171875
 40
0.17578125
 40
0.1796875
 40
0.181640625
 40
0.18359375
 40
0.185546875
 40
0.1865234375
 40
0.1870117188
 40
0.1875
 40
0.1879882812
 40
0.1884765625
 40
0.189453125
 40
0.19140625
 40
0.193359375
 40
0.1953125
 40
0.19921875
 40
0.203125
 40
0.2109375
 40
0.21875
 40
0.2265625
 40
0.234375
 40
0.23828125
 40
0.2421875
 40
0.244140625
 40
0.24609375
 40
0.248046875
 40
0.2490234375
 40
0.2495117188
 40
0.25
 40
0.2504882812
 40
0.2509765625
 40
0.251953125
 40
0.25390625
 40
0.255859375
 40
0.2578125
 40
0.26171875
 40
0.265625
 40
0.2734375
 40
0.28125
 40
0.2890625
 40
0.296875
 40
0.30078125
 40
0.3046875
 40
0.306640625
 40
0.30859375
 40
0.310546875
 40
0.3115234375
 40
0.3120117188
 40
0.3125
 40
0.3129882812
 40
0.3134765625
 40
0.314453125
 40
0.31640625
 40
0.318359375
 40
0.3203125
 40
0.32421875
 40
0.328125
 40
0.3359375
 40
0.34375
 40
0.3515625
 40
0.359375
 40
0.36328125
 40
0.3671875
 40
0.369140625
 40
0.37109375
 40
0.373046875
 40
0.3740234375
 40
0.3745117188
 40
0.375
 40
0.3754882812
 40
0.3759765625
 40
0.376953125
 40
0.37890625
 40
0.380859375
 40
0.3828125
 40
0.38671875
 40
0.390625
 40
0.3984375
 40
0.40625
 40
0.4140625
 40
0.421875
 40
0.42578125
 40
0.4296875
 40
0.431640625
 40
0.43359375
 40
0.435546875
 40
0.4365234375
 40
0.4370117188
 40
0.4375
 40
0.4379882812
 40
0.4384765625
 40
0.439453125
 40
0.44140625
 40
0.443359375
 40
0.4453125
 40
0.44921875
 40
0.453125
 40
0.4609375
 40
0.46875
 40
0.4765625
 40
0.484375
 40
0.48828125
 40
0.4921875
 40
0.494140625
 40
0.49609375
 40
0.498046875
 40
0.4990234375
 40
0.4995117188
 40
0.5
 40
0.5004882812
 40
0.5009765625
 40
0.501953125
 40
0.50390625
 40
0.505859375
 40
0.5078125
 40
0.51171875
 40
0.515625
 40
0.5234375
 40
0.53125
 40
0.5390625
 40
0.546875
 40
0.55078125
 40
0.5546875
 40
0.556640625
 40
0.55859375
 40
0.560546875
 40
0.5615234375
 40
0.5620117188
 40
0.5625
 40
0.5629882812
 40
0.5634765625
 40
0.564453125
 40
0.56640625
 40
0.568359375
 40
0.5703125
 40
0.57421875
 40
0.578125
 40
0.5859375
 40
0.59375
 40
0.6015625
 40
0.609375
 40
0.61328125
 40
0.6171875
 40
0.619140625
 40
0.62109375
 40
0.623046875
 40
0.6240234375
 40
0.6245117188
 40
0.625
 40
0.6254882812
 40
0.6259765625
 40
0.626953125
 40
0.62890625
 40
0.630859375
 40
0.6328125
 40
0.63671875
 40
0.640625
 40
0.6484375
 40
0.65625
 40
0.6640625
 40
0.671875
 40
0.67578125
 40
0.6796875
 40
0.681640625
 40
0.68359375
 40
0.685546875
 40
0.6865234375
 40
0.6870117188
 40
0.6875
 40
0.6879882812
 40
0.6884765625
 40
0.689453125
 40
0.69140625
 40
0.693359375
 40
0.6953125
 40
0.69921875
 40
0.703125
 40
0.7109375
 40
0.71875
 40
0.7265625
 40
0.734375
 40
0.73828125
 40
0.7421875
 40
0.744140625
 40
0.74609375
 40
0.748046875
 40
0.7490234375
 40
0.7495117188
 40
0.75
 40
0.7504882812
 40
0.7509765625
 40
0.751953125
 40
0.75390625
 40
0.755859375
 40
0.7578125
 40
0.76171875
 40
0.765625
 40
0.7734375
 40
0.78125
 40
0.7890625
 40
0.796875
 40
0.80078125
 40
0.8046875
 40
0.806640625
 40
0.80859375
 40
0.810546875
 40
0.8115234375
 40
0.8120117188
 40
0.8125
 40
0.8129882812
 40
0.8134765625
 40
0.814453125
 40
0.81640625
 40
0.818359375
 40
0.8203125
 40
0.82421875
 40
0.828125
 40
0.8359375
 40
0.84375
 40
0.8515625
 40
0.859375
 40
0.86328125
 40
0.8671875
 40
0.869140625
 40
0.87109375
 40
0.873046875
 40
0.8740234375
 40
0.8745117188
 40
0.875
 40
0.8754882812
 40
0.8759765625
 40
0.876953125
 40
0.87890625
 40
0.880859375
 40
0.8828125
 40
0.88671875
 40
0.890625
 40
0.8984375
 40
0.90625
 40
0.9140625
 40
0.921875
 40
0.92578125
 40
0.9296875
 40
0.931640625
 40
0.93359375
 40
0.935546875
 40
0.9365234375
 40
0.9370117188
 40
0.9375
 40
0.9379882812
 40
0.9384765625
 40
0.939453125
 40
0.94140625
 40
0.943359375
 40
0.9453125
 40
0.94921875
 40
0.953125
 40
0.9609375
 40
0.96875
 40
0.9765625
 40
0.984375
 40
1.0
 40
1.0
 40
1.0
 40
1.0
 10
10.140122078
 20
9.6385738269
 30
0.0
 10
10.1438819023
 20
9.6386817362
 30
0.0
 10
10.1495216388
 20
9.6388435999
 30
0.0
 10
10.1570412872
 20
9.6390594193
 30
0.0
 10
10.1626810241
 20
9.6392212808
 30
0.0
 10
10.1683207588
 20
9.6393831537
 30
0.0
 10
10.1730205447
 20
9.6395180125
 30
0.0
 10
10.1767803579
 20
9.6396259786
 30
0.0
 10
10.1791302763
 20
9.6396932772
 30
0.0
 10
10.1810101304
 20
9.6397475289
 30
0.0
 10
10.1824202418
 20
9.6397870875
 30
0.0
 10
10.1835946324
 20
9.6398236481
 30
0.0
 10
10.1844180838
 20
9.6398421853
 30
0.0
 10
10.1848864758
 20
9.6398637941
 30
0.0
 10
10.1852438312
 20
9.6398489681
 30
0.0
 10
10.1855780169
 20
9.6399527644
 30
0.0
 10
10.1860316797
 20
9.6400497826
 30
0.0
 10
10.186821824
 20
9.6402388427
 30
0.0
 10
10.1879525703
 20
9.6404988498
 30
0.0
 10
10.1893086233
 20
9.6408151723
 30
0.0
 10
10.1911169882
 20
9.6412354288
 30
0.0
 10
10.1933773435
 20
9.6417612654
 30
0.0
 10
10.1969939684
 20
9.6426023155
 30
0.0
 10
10.2015147299
 20
9.6436537278
 30
0.0
 10
10.2069396532
 20
9.6449153771
 30
0.0
 10
10.21236457
 20
9.6461770487
 30
0.0
 10
10.216885348
 20
9.6472284053
 30
0.0
 10
10.2205019399
 20
9.6480695668
 30
0.0
 10
10.222762379
 20
9.6485951203
 30
0.0
 10
10.2245705721
 20
9.6490159578
 30
0.0
 10
10.2259271499
 20
9.6493305053
 30
0.0
 10
10.2270562538
 20
9.6495960661
 30
0.0
 10
10.2278493302
 20
9.6497752118
 30
0.0
 10
10.2282982952
 20
9.6498881155
 30
0.0
 10
10.2286469109
 20
9.6499431167
 30
0.0
 10
10.2289500697
 20
9.6501115568
 30
0.0
 10
10.2293701373
 20
9.6502965749
 30
0.0
 10
10.2300978682
 20
9.6506387924
 30
0.0
 10
10.2311413459
 20
9.651118036
 30
0.0
 10
10.232391866
 20
9.651697254
 30
0.0
 10
10.2340598036
 20
9.6524681036
 30
0.0
 10
10.2361445278
 20
9.6534321591
 30
0.0
 10
10.2394801972
 20
9.6549743719
 30
0.0
 10
10.2436497456
 20
9.6569022333
 30
0.0
 10
10.2486532216
 20
9.6592156234
 30
0.0
 10
10.2536566875
 20
9.6615290351
 30
0.0
 10
10.2578262608
 20
9.6634568426
 30
0.0
 10
10.2611618804
 20
9.6649991632
 30
0.0
 10
10.2632467312
 20
9.6659629447
 30
0.0
 10
10.2649144091
 20
9.6667343566
 30
0.0
 10
10.2661657226
 20
9.6673118569
 30
0.0
 10
10.2672067179
 20
9.6677964747
 30
0.0
 10
10.2679388803
 20
9.6681290984
 30
0.0
 10
10.2683518475
 20
9.668329488
 30
0.0
 10
10.2686768166
 20
9.6684507118
 30
0.0
 10
10.2689435166
 20
9.6686830499
 30
0.0
 10
10.2693194415
 20
9.6689540761
 30
0.0
 10
10.2699678404
 20
9.6694464299
 30
0.0
 10
10.2708990753
 20
9.6701403516
 30
0.0
 10
10.2720144382
 20
9.6709770987
 30
0.0
 10
10.2735023288
 20
9.67209135
 30
0.0
 10
10.2753619386
 20
9.6734846474
 30
0.0
 10
10.2783374561
 20
9.6757136531
 30
0.0
 10
10.2820568037
 20
9.6785000034
 30
0.0
 10
10.2865200442
 20
9.6818435818
 30
0.0
 10
10.2909832702
 20
9.685187179
 30
0.0
 10
10.2947026543
 20
9.6879734823
 30
0.0
 10
10.2976780989
 20
9.690202582
 30
0.0
 10
10.2995378938
 20
9.6915956404
 30
0.0
 10
10.3010254046
 20
9.6927103822
 30
0.0
 10
10.3021419279
 20
9.6935456309
 30
0.0
 10
10.303069532
 20
9.6942442405
 30
0.0
 10
10.3037244125
 20
9.6947282257
 30
0.0
 10
10.3040899522
 20
9.6950126605
 30
0.0
 10
10.3043885525
 20
9.6952038117
 30
0.0
 10
10.3045937093
 20
9.6954797265
 30
0.0
 10
10.3048998458
 20
9.6958180465
 30
0.0
 10
10.3054203984
 20
9.696423882
 30
0.0
 10
10.3061719846
 20
9.6972821592
 30
0.0
 10
10.3070704897
 20
9.6983151746
 30
0.0
 10
10.3082696834
 20
9.6996914517
 30
0.0
 10
10.3097682691
 20
9.7014121668
 30
0.0
 10
10.3121662335
 20
9.7041651049
 30
0.0
 10
10.3151636104
 20
9.7076063486
 30
0.0
 10
10.3187604988
 20
9.7117358087
 30
0.0
 10
10.3223573686
 20
9.7158652841
 30
0.0
 10
10.3253547918
 20
9.7193064898
 30
0.0
 10
10.3277526637
 20
9.7220595037
 30
0.0
 10
10.3292514844
 20
9.7237800261
 30
0.0
 10
10.3304501959
 20
9.7251566988
 30
0.0
 10
10.331350174
 20
9.7261885056
 30
0.0
 10
10.3320971515
 20
9.7270505641
 30
0.0
 10
10.3326259314
 20
9.7276496494
 30
0.0
 10
10.3329188858
 20
9.7279987849
 30
0.0
 10
10.3331645338
 20
9.728241478
 30
0.0
 10
10.3333110559
 20
9.7285574045
 30
0.0
 10
10.3335409949
 20
9.7289530952
 30
0.0
 10
10.3339272786
 20
9.7296574555
 30
0.0
 10
10.3344875347
 20
9.7306574623
 30
0.0
 10
10.3351562369
 20
9.7318601338
 30
0.0
 10
10.3360490991
 20
9.7334627656
 30
0.0
 10
10.3371647457
 20
9.7354663738
 30
0.0
 10
10.3389500213
 20
9.7386719689
 30
0.0
 10
10.3411815325
 20
9.7426790241
 30
0.0
 10
10.3438593843
 20
9.7474874629
 30
0.0
 10
10.346537216
 20
9.7522959137
 30
0.0
 10
10.3487687774
 20
9.7563029386
 30
0.0
 10
10.3505539526
 20
9.7595085945
 30
0.0
 10
10.3516698545
 20
9.7615120481
 30
0.0
 10
10.3525621927
 20
9.7631149971
 30
0.0
 10
10.3532324956
 20
9.7643166994
 30
0.0
 10
10.3537877438
 20
9.7653197387
 30
0.0
 10
10.3541829674
 20
9.7660186855
 30
0.0
 10
10.3543985823
 20
9.7664230501
 30
0.0
 10
10.3545891037
 20
9.7667123331
 30
0.0
 10
10.3546694979
 20
9.7670550948
 30
0.0
 10
10.3548151037
 20
9.7674934565
 30
0.0
 10
10.3550520163
 20
9.7682692808
 30
0.0
 10
10.35539982
 20
9.7693730572
 30
0.0
 10
10.3558131793
 20
9.7706995339
 30
0.0
 10
10.3563657239
 20
9.7724674901
 30
0.0
 10
10.3570559256
 20
9.774677668
 30
0.0
 10
10.3581605162
 20
9.7782138226
 30
0.0
 10
10.359541162
 20
9.7826340608
 30
0.0
 10
10.3611979793
 20
9.7879383262
 30
0.0
 10
10.3628547749
 20
9.7932426009
 30
0.0
 10
10.3642354751
 20
9.797662816
 30
0.0
 10
10.3653399567
 20
9.8011990167
 30
0.0
 10
10.3660304355
 20
9.8034090774
 30
0.0
 10
10.3665824116
 20
9.8051772742
 30
0.0
 10
10.3669975076
 20
9.8065030158
 30
0.0
 10
10.3673398776
 20
9.8076090921
 30
0.0
 10
10.3675864902
 20
9.8083808108
 30
0.0
 10
10.3677165542
 20
9.8088257506
 30
0.0
 10
10.367844688
 20
9.8091483064
 30
0.0
 10
10.3678559071
 20
9.80951348
 30
0.0
 10
10.3679116471
 20
9.8099855125
 30
0.0
 10
10.3679901914
 20
9.8108184956
 30
0.0
 10
10.3681123313
 20
9.8120048504
 30
0.0
 10
10.3682546472
 20
9.8134300261
 30
0.0
 10
10.3684458869
 20
9.815329719
 30
0.0
 10
10.368684428
 20
9.8177045205
 30
0.0
 10
10.369066378
 20
9.8215040993
 30
0.0
 10
10.3695437174
 20
9.8262536083
 30
0.0
 10
10.3701165695
 20
9.8319530039
 30
0.0
 10
10.3706893989
 20
9.8376524034
 30
0.0
 10
10.3711667954
 20
9.8424019027
 30
0.0
 10
10.371548631
 20
9.8462015008
 30
0.0
 10
10.3717874628
 20
9.8485762531
 30
0.0
 10
10.3719781058
 20
9.850476047
 30
0.0
 10
10.3721222448
 20
9.8519009143
 30
0.0
 10
10.3722386806
 20
9.853088234
 30
0.0
 10
10.3723274077
 20
9.8539194945
 30
0.0
 10
10.3723668322
 20
9.8543942871
 30
0.0
 10
10.3724281674
 20
9.8547509828
 30
0.0
 10
10.3723680734
 20
9.8551053799
 30
0.0
 10
10.372330304
 20
9.855578711
 30
0.0
 10
10.372244473
 20
9.856406667
 30
0.0
 10
10.3721321748
 20
9.8575896566
 30
0.0
 10
10.3719930007
 20
9.8590091604
 30
0.0
 10
10.3718089777
 20
9.8609018615
 30
0.0
 10
10.3715784208
 20
9.8632677277
 30
0.0
 10
10.3712098251
 20
9.8670531194
 30
0.0
 10
10.3707489785
 20
9.871784857
 30
0.0
 10
10.3701960091
 20
9.8774629433
 30
0.0
 10
10.3696430168
 20
9.8831410279
 30
0.0
 10
10.3691822274
 20
9.8878727696
 30
0.0
 10
10.3688135172
 20
9.8916581529
 30
0.0
 10
10.3685832512
 20
9.8940240404
 30
0.0
 10
10.3683986312
 20
9.895916698
 30
0.0
 10
10.368261281
 20
9.8973363346
 30
0.0
 10
10.3681432762
 20
9.8985189088
 30
0.0
 10
10.3680676325
 20
9.8993476062
 30
0.0
 10
10.3680135406
 20
9.8998197495
 30
0.0
 10
10.3680035838
 20
9.9001777953
 30
0.0
 10
10.3678766117
 20
9.9005207866
 30
0.0
 10
10.3677481319
 20
9.9009833595
 30
0.0
 10
10.3675042751
 20
9.9017904154
 30
0.0
 10
10.3671658505
 20
9.9029446315
 30
0.0
 10
10.3667554854
 20
9.9043291433
 30
0.0
 10
10.3662098183
 20
9.9061753504
 30
0.0
 10
10.3655272255
 20
9.9084830437
 30
0.0
 10
10.3644353616
 20
9.9121753896
 30
0.0
 10
10.3630704335
 20
9.9167908092
 30
0.0
 10
10.3614325645
 20
9.9223293191
 30
0.0
 10
10.3597946737
 20
9.927867824
 30
0.0
 10
10.3584298001
 20
9.9324832563
 30
0.0
 10
10.3573378271
 20
9.9361755768
 30
0.0
 10
10.3566555115
 20
9.9384833346
 30
0.0
 10
10.3561092754
 20
9.9403294093
 30
0.0
 10
10.355700649
 20
9.9417143255
 30
0.0
 10
10.3553567845
 20
9.9428672765
 30
0.0
 10
10.3551226388
 20
9.9436765909
 30
0.0
 10
10.3549785993
 20
9.9441355451
 30
0.0
 10
10.3548994215
 20
9.9444896518
 30
0.0
 10
10.3547099572
 20
9.94480595
 30
0.0
 10
10.3544958073
 20
9.945240869
 30
0.0
 10
10.3541031216
 20
9.9459958326
 30
0.0
 10
10.3535515125
 20
9.9470775646
 30
0.0
 10
10.3528855706
 20
9.9483742679
 30
0.0
 10
10.3519990491
 20
9.950103686
 30
0.0
 10
10.3508904176
 20
9.9522652941
 30
0.0
 10
10.3491168753
 20
9.955723959
 30
0.0
 10
10.3468998547
 20
9.9600472584
 30
0.0
 10
10.3442394724
 20
9.9652352324
 30
0.0
 10
10.3415790692
 20
9.970423198
 30
0.0
 10
10.3393621008
 20
9.9747465186
 30
0.0
 10
10.3375884542
 20
9.978205141
 30
0.0
 10
10.3364800878
 20
9.9803668572
 30
0.0
 10
10.335593022
 20
9.9820960533
 30
0.0
 10
10.3349287428
 20
9.9833934348
 30
0.0
 10
10.3343719318
 20
9.9844730451
 30
0.0
 10
10.3339885324
 20
9.9852317963
 30
0.0
 10
10.3337595034
 20
9.9856606467
 30
0.0
 10
10.333615743
 20
9.9859955856
 30
0.0
 10
10.3333649092
 20
9.986279681
 30
0.0
 10
10.3330678125
 20
9.9866762096
 30
0.0
 10
10.332530492
 20
9.9873618718
 30
0.0
 10
10.331771989
 20
9.9883457091
 30
0.0
 10
10.3308578912
 20
9.9895244649
 30
0.0
 10
10.3296404544
 20
9.991096785
 30
0.0
 10
10.3281181926
 20
9.9930619641
 30
0.0
 10
10.325682834
 20
9.9962063742
 30
0.0
 10
10.3226385461
 20
10.0001368439
 30
0.0
 10
10.3189854409
 20
10.0048534282
 30
0.0
 10
10.315332318
 20
10.009569999
 30
0.0
 10
10.3122880745
 20
10.0135005021
 30
0.0
 10
10.309852627
 20
10.0166448456
 30
0.0
 10
10.3083305914
 20
10.018610194
 30
0.0
 10
10.3071126904
 20
10.0201821665
 30
0.0
 10
10.3062000105
 20
10.0213619844
 30
0.0
 10
10.3054370714
 20
10.0223424985
 30
0.0
 10
10.30490767
 20
10.0230340932
 30
0.0
 10
10.304597885
 20
10.0234211165
 30
0.0
 10
10.3043860258
 20
10.0237344093
 30
0.0
 10
10.3040958833
 20
10.0239596875
 30
0.0
 10
10.3037363327
 20
10.0242907589
 30
0.0
 10
10.3030943967
 20
10.02485583
 30
0.0
 10
10.3021839968
 20
10.0256705526
 30
0.0
 10
10.3010886699
 20
10.0266450189
 30
0.0
 10
10.2996292284
 20
10.0279454252
 30
0.0
 10
10.297804586
 20
10.0295705503
 30
0.0
 10
10.2948853486
 20
10.0321709644
 30
0.0
 10
10.2912362361
 20
10.0354214082
 30
0.0
 10
10.2868573309
 20
10.0393219747
 30
0.0
 10
10.2824784118
 20
10.0432225236
 30
0.0
 10
10.278829334
 20
10.0464730112
 30
0.0
 10
10.2759100271
 20
10.0490733378
 30
0.0
 10
10.2740855612
 20
10.0506986855
 30
0.0
 10
10.2726257576
 20
10.0519986348
 30
0.0
 10
10.271531537
 20
10.0529744973
 30
0.0
 10
10.2706176755
 20
10.0537848514
 30
0.0
 10
10.2699819191
 20
10.0543577211
 30
0.0
 10
10.2696124673
 20
10.0546762971
 30
0.0
 10
10.2693527384
 20
10.0549399573
 30
0.0
 10
10.2690266506
 20
10.0551090937
 30
0.0
 10
10.2686150136
 20
10.0553675799
 30
0.0
 10
10.2678838643
 20
10.0558045689
 30
0.0
 10
10.2668450036
 20
10.0564368702
 30
0.0
 10
10.2655959575
 20
10.0571921941
 30
0.0
 10
10.2639314055
 20
10.0582004934
 30
0.0
 10
10.2618504269
 20
10.0594604563
 30
0.0
 10
10.2585210226
 20
10.0614766269
 30
0.0
 10
10.2543592115
 20
10.0639967607
 30
0.0
 10
10.2493650631
 20
10.0670209578
 30
0.0
 10
10.244370904
 20
10.0700451356
 30
0.0
 10
10.2402091199
 20
10.0725653178
 30
0.0
 10
10.2368796616
 20
10.0745813917
 30
0.0
 10
10.2347988199
 20
10.0758416004
 30
0.0
 10
10.2331339871
 20
10.0768493952
 30
0.0
 10
10.2318857991
 20
10.0776062602
 30
0.0
 10
10.2308442532
 20
10.0782337398
 30
0.0
 10
10.2301178976
 20
10.0786793364
 30
0.0
 10
10.22969858
 20
10.0789240311
 30
0.0
 10
10.2293960844
 20
10.0791355306
 30
0.0
 10
10.2290477472
 20
10.079240082
 30
0.0
 10
10.2285992877
 20
10.0794167886
 30
0.0
 10
10.2278070335
 20
10.0797086443
 30
0.0
 10
10.2266791368
 20
10.0801346678
 30
0.0
 10
10.2253239936
 20
10.0806420066
 30
0.0
 10
10.2235177183
 20
10.0813198168
 30
0.0
 10
10.2212596747
 20
10.0821666144
 30
0.0
 10
10.2176469165
 20
10.0835217507
 30
0.0
 10
10.2131309303
 20
10.0852155811
 30
0.0
 10
10.2077117641
 20
10.0872482189
 30
0.0
 10
10.2022925902
 20
10.0892808355
 30
0.0
 10
10.1977766233
 20
10.0909747191
 30
0.0
 10
10.1941638265
 20
10.092329749
 30
0.0
 10
10.191905881
 20
10.0931768168
 30
0.0
 10
10.1900994045
 20
10.0938540725
 30
0.0
 10
10.1887448759
 20
10.0943631054
 30
0.0
 10
10.1876150561
 20
10.0947838286
 30
0.0
 10
10.1868262349
 20
10.0950851462
 30
0.0
 10
10.186372275
 20
10.0952466924
 30
0.0
 10
10.1860408332
 20
10.0953978118
 30
0.0
 10
10.1856748813
 20
10.0954344098
 30
0.0
 10
10.185198983
 20
10.0955231534
 30
0.0
 10
10.1843605525
 20
10.0956598431
 30
0.0
 10
10.1831657267
 20
10.0958648444
 30
0.0
 10
10.1817306807
 20
10.0961066811
 30
0.0
 10
10.1798177245
 20
10.0964305848
 30
0.0
 10
10.1774263791
 20
10.0968349662
 30
0.0
 10
10.1736003103
 20
10.0974822549
 30
0.0
 10
10.1688176955
 20
10.0982912703
 30
0.0
 10
10.1630785701
 20
10.0992621297
 30
0.0
 10
10.1573394415
 20
10.1002329782
 30
0.0
 10
10.149687271
 20
10.1015274466
 30
0.0
 10
10.143948143
 20
10.1024982971
 30
0.0
 10
10.1401220576
 20
10.1031455309
 30
0.0
  0
ENDSEC
  0
SECTION
  2
OBJECTS
  0
DICTIONARY
  5
C
100
AcDbDictionary
280
0
281
1
  3
ACAD_GROUP
350
D
  3
ACAD_MLINESTYLE
350
17
  3
ACAD_LAYOUT
350
1A
  3
ACAD_PLOTSETTINGS
350
19
  3
ACAD_PLOTSTYLENAME
350
E
  3
ACAD_IMAGE_DICT
350
       385
  3
ACAD_IMAGE_VARS
350
       386
  3
ACAD_TABLESTYLE
350
       387
  0
IMAGEDEF_REACTOR
  5
384
100
AcDbRasterImageDefReactor
 90
2
330
28F
  0
DICTIONARY
  5
D
102
{ACAD_REACTORS
330
C
102
}
100
AcDbDictionary
280
0
281
1
  0
ACDBDICTIONARYWDFLT
  5
E
102
{ACAD_REACTORS
330
C
102
}
100
AcDbDictionary
281
1
  3
Normal
350
F
100
AcDbDictionaryWithDefault
340
F
  0
DICTIONARY
  5
385
330
C
100
AcDbDictionary
281
1
  3
K2D_assy_2_img_1
350
       38A
  0
RASTERVARIABLES
  5
386
330
C
100
AcDbRasterVariables
 90
0
 70
0
 71
1
 72
5
  0
DICTIONARY
  5
17
102
{ACAD_REACTORS
330
C
102
}
100
AcDbDictionary
280
0
281
1
  3
Standard
350
18
  0
DICTIONARY
  5
387
330
C
100
AcDbDictionary
281
1
  3
Standard
350
       38B
  3
Standard1
350
       38C
  0
DICTIONARY
  5
19
102
{ACAD_REACTORS
330
C
102
}
100
AcDbDictionary
281
1
  0
DICTIONARY
  5
1A
102
{ACAD_REACTORS
330
C
102
}
100
AcDbDictionary
281
1
  3
Model
350
388
  3
Layout1
350
389
  0
ACDBPLACEHOLDER
  5
F
102
{ACAD_REACTORS
330
E
102
}
  0
MLINESTYLE
  5
18
102
{ACAD_REACTORS
330
17
102
}
100
AcDbMlineStyle
  2
STANDARD
 70
0
  3

 62
256
 51
90.0
 52
90.0
 71
2
 49
0.5
 62
256
  6
BYLAYER
 49
-0.5
 62
256
  6
BYLAYER
  0
LAYOUT
  5
388
102
{ACAD_REACTORS
330
1A
102
}
100
AcDbPlotSettings
  1

  2
none_device
  4
ANSI_C_(22.00_x_17.00_Inches)
  6

 40
0.0
 41
0.0
 42
0.0
 43
0.0
 44
558.8
 45
431.8
 46
0.0
 47
0.0
 48
0.0
 49
0.0
140
0.0
141
0.0
142
1.0
143
1.0
 70
1024
 72
0
 73
0
 74
0
  7

 75
0
147
1.0
148
0.0
149
0.0
100
AcDbLayout
  1
Model
 70
0
 71
0
 10
0.0
 20
0.0
 11
22.0
 21
17.0
 12
0.0
 22
0.0
 32
0.0
 14
0.0
 24
0.0
 34
0.0
 15
0.0
 25
0.0
 35
0.0
146
0.0
 13
0.0
 23
0.0
 33
0.0
 16
1.0
 26
0.0
 36
0.0
 17
0.0
 27
1.0
 37
0.0
 76
0
330
20C
345
0
346
0
  0
LAYOUT
  5
389
102
{ACAD_REACTORS
330
1A
102
}
100
AcDbPlotSettings
  1

  2
none_device
  4
ANSI_C_(22.00_x_17.00_Inches)
  6

 40
0.0
 41
0.0
 42
0.0
 43
0.0
 44
558.8
 45
431.8
 46
0.0
 47
0.0
 48
0.0
 49
0.0
140
0.0
141
0.0
142
1.0
143
1.0
 70
0
 72
0
 73
0
 74
0
  7

 75
0
147
1.0
148
0.0
149
0.0
100
AcDbLayout
  1
Layout1
 70
0
 71
1
 10
0.0
 20
0.0
 11
22.0
 21
17.0
 12
0.0
 22
0.0
 32
0.0
 14
0.0
 24
0.0
 34
0.0
 15
0.0
 25
0.0
 35
0.0
146
0.0
 13
0.0
 23
0.0
 33
0.0
 16
1.0
 26
0.0
 36
0.0
 17
0.0
 27
1.0
 37
0.0
 76
0
330
20D
345
0
346
0
  0
IMAGEDEF
  5
38A
102
{ACAD_REACTORS
330
385
330
384
102
}
100
AcDbRasterImageDef
 90
0
  1
K2D_assy_2_img_1.png
 10
369.0
 20
92.0
 11
0.0066666667
 21
0.0066666667
280
1
281
0
  0
TABLESTYLE
  5
38B
102
{ACAD_REACTORS
330
387
330
292
330
293
102
}
330
387
100
AcDbTableStyle
  3
Standard
 70
0
 71
0
 40
0.06
 41
0.06
280
1
281
1
  7
Standard
140
0.18
170
1
 62
0
 63
7
283
0
  7
Standard
140
0.18
170
1
 62
0
 63
7
283
0
  7
Standard
140
0.18
170
1
 62
0
 63
7
283
0
  0
TABLESTYLE
  5
38C
102
{ACAD_REACTORS
330
387
330
291
102
}
330
387
100
AcDbTableStyle
  3
Standard1
 70
1
 71
0
 40
0.06
 41
0.06
280
1
281
1
  7
Standard
140
0.18
170
1
 62
0
 63
7
283
0
  7
Standard
140
0.18
170
1
 62
0
 63
7
283
0
  7
Standard
140
0.18
170
1
 62
0
 63
7
283
0
  0
ENDSEC
  0
EOF
