999
DXF file: K28_assy_2.dxf
999
Pro/ENGINEER 2014200 by Parametric Technology Corporation
  0
SECTION
  2
HEADER
  9
$ACADVER
  1
AC1021
  9
$DWGCODEPAGE
  3
ANSI_1252
  9
$EXTMAX
 10
22.0
 20
17.0
 30
0.0
  9
$EXTMIN
 10
0.0
 20
0.0
 30
0.0
  9
$LIMMIN
 10
0.0
 20
0.0
  9
$LIMMAX
 10
22.0
 20
17.0
  9
$VIEWCTR
 10
11.0
 20
8.5
  9
$VIEWSIZE
 40
17.0
  9
$CLAYER
  8
0
  9
$LTSCALE
 40
1.21
  9
$CELTYPE
  6
BYLAYER
  9
$DIMSCALE
 40
1.0
  9
$DIMASZ
 40
0.1875
  9
$DIMEXO
 40
0.0625
  9
$DIMDLI
 40
0.836
  9
$DIMEXE
 40
0.125
  9
$DIMCEN
 40
0.198
  9
$DIMLFAC
 40
1.0
  9
$DIMBLK
  1
_FILLED
  9
$DIMTXT
 40
0.1
  9
$DIMTOL
 70
0
  9
$DIMLIM
 70
0
  9
$DIMTFAC
 40
1.0
  9
$DIMGAP
 40
0.09
  9
$DIMDSEP
 70
46
  9
$AUNITS
 70
0
  9
$PDMODE
 70
3
  9
$PDSIZE
 40
0.3125
  9
$HANDSEED
  5
3BB
  9
$TILEMODE
 70
1
  9
$MEASUREMENT
 70
0
  9
$INSUNITS
 70
1
  0
ENDSEC
  0
SECTION
  2
CLASSES
  0
CLASS
  1
ACDBDICTIONARYWDFLT
  2
AcDbDictionaryWithDefault
  3
AutoCAD 2000
 90
0
 91
1
280
0
281
0
  0
CLASS
  1
ACDBPLACEHOLDER
  2
AcDbPlaceHolder
  3
AutoCAD 2000
 90
0
 91
1
280
0
281
0
  0
CLASS
  1
LAYOUT
  2
AcDbLayout
  3
AutoCAD 2000
 90
0
 91
0
280
0
281
0
  0
CLASS
  1
RASTERVARIABLES
  2
AcDbRasterVariables
  3
ISM
 90
0
 91
1
280
0
281
0
  0
CLASS
  1
IMAGEDEF
  2
AcDbRasterImageDef
  3
ISM
 90
0
 91
1
280
0
281
0
  0
CLASS
  1
IMAGEDEF_REACTOR
  2
AcDbRasterImageDefReactor
  3
ISM
 90
0
 91
1
280
0
281
0
  0
CLASS
  1
IMAGE
  2
AcDbRasterImage
  3
ISM
 90
127
 91
1
280
0
281
1
  0
CLASS
  1
TABLESTYLE
  2
AcDbTableStyle
  3
ObjectDBX Classes
 90
2047
 91
1
280
0
281
0
  0
CLASS
  1
ACAD_TABLE
  2
AcDbTable
  3
ObjectDBX Classes
 90
1025
 91
3
280
0
281
1
  0
ENDSEC
  0
SECTION
  2
TABLES
  0
TABLE
  2
VPORT
  5
8
100
AcDbSymbolTable
 70
2
  0
VPORT
  5
1F4
100
AcDbSymbolTableRecord
100
AcDbViewportTableRecord
  2
*ACTIVE
 70
0
 10
0.0
 20
0.0
 11
1.0
 21
1.0
 12
11.0
 22
8.5
 13
0.0
 23
0.0
 14
1.0
 24
1.0
 15
0.0
 25
0.0
 16
0.0
 26
0.0
 36
1.0
 17
0.0
 27
0.0
 37
0.0
 40
17.0
 41
1.2941176471
 42
50.0
 43
0.0
 44
0.0
 50
0.0
 51
0.0
 71
0
 72
100
 73
1
 74
1
 75
0
 76
0
 77
0
 78
0
  0
ENDTAB
  0
TABLE
  2
LTYPE
  5
5
100
AcDbSymbolTable
 70
6
  0
LTYPE
  5
14
100
AcDbSymbolTableRecord
100
AcDbLinetypeTableRecord
  2
BYBLOCK
 70
0
  3

 72
65
 73
0
 40
0.0
  0
LTYPE
  5
15
100
AcDbSymbolTableRecord
100
AcDbLinetypeTableRecord
  2
BYLAYER
 70
0
  3

 72
65
 73
0
 40
0.0
  0
LTYPE
  5
16
100
AcDbSymbolTableRecord
100
AcDbLinetypeTableRecord
  2
CONTINUOUS
 70
64
  3
Solid line
 72
65
 73
0
 40
0.0
  0
LTYPE
  5
1F5
100
AcDbSymbolTableRecord
100
AcDbLinetypeTableRecord
  2
CENTER
 70
64
  3
____ _ ____ _ ____ _ ____ _ ____ _ ____ _ ____
 72
65
 73
4
 40
0.6
 49
0.375
 74
0
 49
-0.075
 74
0
 49
0.075
 74
0
 49
-0.075
 74
0
  0
LTYPE
  5
1F6
100
AcDbSymbolTableRecord
100
AcDbLinetypeTableRecord
  2
HIDDEN
 70
64
  3
- - - - - - - - - - - - - - - - - - - -
 72
65
 73
2
 40
0.2
 49
0.1
 74
0
 49
-0.1
 74
0
  0
LTYPE
  5
1F7
100
AcDbSymbolTableRecord
100
AcDbLinetypeTableRecord
  2
PHANTOM
 70
64
  3
_____ _ _ _____ _ _ _____ _ _ _____
 72
65
 73
6
 40
0.8
 49
0.45
 74
0
 49
-0.05
 74
0
 49
0.1
 74
0
 49
-0.05
 74
0
 49
0.1
 74
0
 49
-0.05
 74
0
  0
LTYPE
  5
1F8
100
AcDbSymbolTableRecord
100
AcDbLinetypeTableRecord
  2
DOT
 70
64
  3
. . . . . . . . . . . . . . . . . . . .
 72
65
 73
2
 40
0.2
 49
0.1
 74
0
 49
-0.1
 74
0
  0
LTYPE
  5
1F9
100
AcDbSymbolTableRecord
100
AcDbLinetypeTableRecord
  2
DASHED
 70
64
  3
- - - - - - - - - - - - - - - - - - - -
 72
65
 73
2
 40
0.2
 49
0.1
 74
0
 49
-0.1
 74
0
  0
ENDTAB
  0
TABLE
  2
LAYER
  5
2
100
AcDbSymbolTable
 70
36
  0
LAYER
  5
10
100
AcDbSymbolTableRecord
100
AcDbLayerTableRecord
  2
0
 70
0
 62
7
  6
CONTINUOUS
370
-3
390
F
  0
LAYER
  5
1FA
100
AcDbSymbolTableRecord
100
AcDbLayerTableRecord
  2
DEFAULT_1
 70
0
 62
7
  6
CENTER
370
-3
390
F
  0
LAYER
  5
1FB
100
AcDbSymbolTableRecord
100
AcDbLayerTableRecord
  2
DEFAULT_2
 70
0
 62
8
  6
HIDDEN
370
-3
390
F
  0
LAYER
  5
1FC
100
AcDbSymbolTableRecord
100
AcDbLayerTableRecord
  2
DEFAULT_3
 70
0
 62
7
  6
PHANTOM
370
-3
390
F
  0
LAYER
  5
1FD
100
AcDbSymbolTableRecord
100
AcDbLayerTableRecord
  2
01___PRT_ALL_DTM_PLN
 70
0
 62
7
  6
CONTINUOUS
370
-3
390
F
  0
LAYER
  5
1FE
100
AcDbSymbolTableRecord
100
AcDbLayerTableRecord
  2
01___PRT_DEF_DTM_PLN
 70
0
 62
7
  6
CONTINUOUS
370
-3
390
F
  0
LAYER
  5
1FF
100
AcDbSymbolTableRecord
100
AcDbLayerTableRecord
  2
02___PRT_ALL_AXES
 70
0
 62
7
  6
CONTINUOUS
370
-3
390
F
  0
LAYER
  5
200
100
AcDbSymbolTableRecord
100
AcDbLayerTableRecord
  2
03___PRT_ALL_CURVES
 70
0
 62
7
  6
CONTINUOUS
370
-3
390
F
  0
LAYER
  5
201
100
AcDbSymbolTableRecord
100
AcDbLayerTableRecord
  2
04___PRT_ALL_DTM_PNT
 70
0
 62
7
  6
CONTINUOUS
370
-3
390
F
  0
LAYER
  5
202
100
AcDbSymbolTableRecord
100
AcDbLayerTableRecord
  2
05___PRT_ALL_DTM_CSYS
 70
0
 62
7
  6
CONTINUOUS
370
-3
390
F
  0
LAYER
  5
203
100
AcDbSymbolTableRecord
100
AcDbLayerTableRecord
  2
05___PRT_DEF_DTM_CSYS
 70
0
 62
7
  6
CONTINUOUS
370
-3
390
F
  0
LAYER
  5
204
100
AcDbSymbolTableRecord
100
AcDbLayerTableRecord
  2
06___PRT_ALL_SURFS
 70
0
 62
7
  6
CONTINUOUS
370
-3
390
F
  0
LAYER
  5
205
100
AcDbSymbolTableRecord
100
AcDbLayerTableRecord
  2
DATUM_PLANES
 70
0
 62
7
  6
CONTINUOUS
370
-3
390
F
  0
LAYER
  5
206
100
AcDbSymbolTableRecord
100
AcDbLayerTableRecord
  2
PORT_AREAS
 70
0
 62
7
  6
CONTINUOUS
370
-3
390
F
  0
LAYER
  5
207
100
AcDbSymbolTableRecord
100
AcDbLayerTableRecord
  2
SUNNBOMCOSMETIC
 70
0
 62
7
  6
CONTINUOUS
370
-3
390
F
  0
LAYER
  5
208
100
AcDbSymbolTableRecord
100
AcDbLayerTableRecord
  2
SUNNBOMSTAMPING
 70
0
 62
7
  6
CONTINUOUS
370
-3
390
F
  0
LAYER
  5
209
100
AcDbSymbolTableRecord
100
AcDbLayerTableRecord
  2
THREADS
 70
0
 62
7
  6
CONTINUOUS
370
-3
390
F
  0
ENDTAB
  0
TABLE
  2
STYLE
  5
3
100
AcDbSymbolTable
 70
1
  0
STYLE
  5
11
100
AcDbSymbolTableRecord
100
AcDbTextStyleTableRecord
  2
STANDARD
 70
0
 40
0.0
 41
0.8
 50
0.0
 71
0
 42
0.2
  3
txt
  4

  0
STYLE
  5
20A
100
AcDbSymbolTableRecord
100
AcDbTextStyleTableRecord
  2
TEXTSTYLE_1
 70
0
 40
0.0
 41
0.8
 50
0.0
 71
0
 42
0.2
  3
gdt
  4

  0
ENDTAB
  0
TABLE
  2
VIEW
  5
6
100
AcDbSymbolTable
 70
0
  0
ENDTAB
  0
TABLE
  2
UCS
  5
7
100
AcDbSymbolTable
 70
0
  0
ENDTAB
  0
TABLE
  2
APPID
  5
9
100
AcDbSymbolTable
 70
1
  0
APPID
  5
20B
100
AcDbSymbolTableRecord
100
AcDbRegAppTableRecord
  2
ACAD
 70
0
  0
ENDTAB
  0
TABLE
  2
BLOCK_RECORD
  5
1
100
AcDbSymbolTable
 70
0
  0
BLOCK_RECORD
  5
20C
100
AcDbSymbolTableRecord
100
AcDbBlockTableRecord
  2
*Model_Space
  0
BLOCK_RECORD
  5
20D
100
AcDbSymbolTableRecord
100
AcDbBlockTableRecord
  2
*Paper_Space
  0
BLOCK_RECORD
  5
20E
100
AcDbSymbolTableRecord
100
AcDbBlockTableRecord
  2
SUN_FIRST_THIRD_ANGLE_BL0
  0
BLOCK_RECORD
  5
20F
100
AcDbSymbolTableRecord
100
AcDbBlockTableRecord
  2
*T1
  0
BLOCK_RECORD
  5
210
100
AcDbSymbolTableRecord
100
AcDbBlockTableRecord
  2
*T2
  0
BLOCK_RECORD
  5
211
100
AcDbSymbolTableRecord
100
AcDbBlockTableRecord
  2
*T3
  0
ENDTAB
  0
TABLE
  2
DIMSTYLE
  5
A
100
AcDbSymbolTable
 70
1
100
AcDbDimStyleTable
 71
0
  0
DIMSTYLE
105
212
100
AcDbSymbolTableRecord
100
AcDbDimStyleTableRecord
  2
STANDARD
 70
0
  3

  4

 40
1.0
 41
0.1875
 42
0.0625
 43
0.38
 44
0.125
 45
0.0
 46
0.0
 47
0.001
 48
0.001
140
0.1
141
0.09
142
0.0
143
25.4
144
1.0
145
0.0
146
1.0
147
0.09
 71
0.0
 72
0.0
 73
1
 74
1
 75
0
 76
0
 77
0
 78
4
170
0
171
2
172
0
173
0
174
0
175
0
176
0
177
0
178
0
270
2
271
3
272
3
273
2
274
2
275
0
280
0
281
0
282
0
283
1
284
4
285
0
286
0
287
3
288
0
340
11
278
46
  0
ENDTAB
  0
ENDSEC
  0
SECTION
  2
BLOCKS
  0
BLOCK
  5
20
100
AcDbEntity
  8
0
100
AcDbBlockBegin
  2
*Model_Space
 70
0
 10
0.0
 20
0.0
 30
0.0
  3
*Model_Space
  1

  0
ENDBLK
  5
21
100
AcDbEntity
  8
0
100
AcDbBlockEnd
  0
BLOCK
  5
1C
100
AcDbEntity
  8
0
100
AcDbBlockBegin
  2
*Paper_Space
 70
0
 10
0.0
 20
0.0
 30
0.0
  3
*Paper_Space
  1

  0
ENDBLK
  5
1D
100
AcDbEntity
  8
0
100
AcDbBlockEnd
  0
BLOCK
  5
213
100
AcDbEntity
  8
0
100
AcDbBlockBegin
 62
2
  6
CONTINUOUS
  2
SUN_FIRST_THIRD_ANGLE_BL0
 70
64
 10
20.4816717061
 20
1.2289683772
  3
SUN_FIRST_THIRD_ANGLE_BL0
  1

  0
TEXT
  5
214
100
AcDbEntity
  8
0
100
AcDbText
 62
2
  6
CONTINUOUS
 10
19.4750896608
 20
1.4136269581
  7
STANDARD
 40
0.08
  1
FIRST ANGLE
 41
0.8
 72
0
100
AcDbText
  0
TEXT
  5
215
100
AcDbEntity
  8
0
100
AcDbText
 62
2
  6
CONTINUOUS
 10
20.7842537513
 20
1.4047600029
  7
STANDARD
 40
0.08
  1
THIRD ANGLE
 41
0.8
 72
0
100
AcDbText
  0
LINE
  5
216
100
AcDbEntity
  8
0
100
AcDbLine
 62
7
  6
CONTINUOUS
 10
19.4767170086
 20
1.1727031207
 11
19.6334271527
 21
1.1717972817
  0
LINE
  5
217
100
AcDbEntity
  8
0
100
AcDbLine
 62
7
  6
CONTINUOUS
 10
19.6596964832
 20
1.1717972817
 11
19.6950230232
 21
1.171593082
  0
LINE
  5
218
100
AcDbEntity
  8
0
100
AcDbLine
 62
7
  6
CONTINUOUS
 10
19.7194818561
 20
1.1708914427
 11
19.8852396156
 21
1.1699333054
  0
LINE
  5
219
100
AcDbEntity
  8
0
100
AcDbLine
 62
7
  6
CONTINUOUS
 10
19.4758111696
 20
1.2723454088
 11
19.88525039
 21
1.3511534004
  0
LINE
  5
21A
100
AcDbEntity
  8
0
100
AcDbLine
 62
7
  6
CONTINUOUS
 10
19.88525039
 20
1.3511534004
 11
19.8831348489
 21
0.9851647912
  0
LINE
  5
21B
100
AcDbEntity
  8
0
100
AcDbLine
 62
7
  6
CONTINUOUS
 10
19.8831348489
 20
0.9851647912
 11
19.4767170086
 21
1.0658141206
  0
LINE
  5
21C
100
AcDbEntity
  8
0
100
AcDbLine
 62
7
  6
CONTINUOUS
 10
19.4767170086
 20
1.0658141206
 11
19.4779056764
 21
1.2714536432
  0
CIRCLE
  5
21D
100
AcDbEntity
  8
0
100
AcDbCircle
 62
7
  6
CONTINUOUS
 10
20.2068232291
 20
1.1717972817
 40
0.175742101
  0
CIRCLE
  5
21E
100
AcDbEntity
  8
0
100
AcDbCircle
 62
7
  6
CONTINUOUS
 10
20.2068232291
 20
1.1717972817
 40
0.1005522074
  0
LINE
  5
21F
100
AcDbEntity
  8
0
100
AcDbLine
 62
7
  6
CONTINUOUS
 10
20.2077290681
 20
1.3756110529
 11
20.2071171714
 21
1.2379342989
  0
LINE
  5
220
100
AcDbEntity
  8
0
100
AcDbLine
 62
7
  6
CONTINUOUS
 10
20.2077290681
 20
1.2016899681
 11
20.2074674401
 21
1.1428236749
  0
LINE
  5
221
100
AcDbEntity
  8
0
100
AcDbLine
 62
7
  6
CONTINUOUS
 10
20.208634907
 20
1.101141841
 11
20.2080230104
 21
0.963465087
  0
LINE
  5
222
100
AcDbEntity
  8
0
100
AcDbLine
 62
7
  6
CONTINUOUS
 10
20.0066328138
 20
1.1745147986
 11
20.1443095678
 21
1.1739029019
  0
LINE
  5
223
100
AcDbEntity
  8
0
100
AcDbLine
 62
7
  6
CONTINUOUS
 10
20.1832714155
 20
1.1727031207
 11
20.238153505
 21
1.172335442
  0
LINE
  5
224
100
AcDbEntity
  8
0
100
AcDbLine
 62
7
  6
CONTINUOUS
 10
20.2756669918
 20
1.1717972817
 11
20.407916871
 21
1.1712095044
  0
CIRCLE
  5
225
100
AcDbEntity
  8
0
100
AcDbCircle
 62
7
  6
CONTINUOUS
 10
20.7509457401
 20
1.1693297793
 40
0.1722024983
  0
CIRCLE
  5
226
100
AcDbEntity
  8
0
100
AcDbCircle
 62
7
  6
CONTINUOUS
 10
20.7509457401
 20
1.1693297793
 40
0.0985164967
  0
LINE
  5
227
100
AcDbEntity
  8
0
100
AcDbLine
 62
7
  6
CONTINUOUS
 10
20.7169767782
 20
1.170462078
 11
20.7825395137
 21
1.1682766535
  0
LINE
  5
228
100
AcDbEntity
  8
0
100
AcDbLine
 62
7
  6
CONTINUOUS
 10
20.8177513651
 20
1.1693297793
 11
20.947965719
 21
1.1693297793
  0
LINE
  5
229
100
AcDbEntity
  8
0
100
AcDbLine
 62
7
  6
CONTINUOUS
 10
20.6875370113
 20
1.170462078
 11
20.5573226574
 21
1.170462078
  0
LINE
  5
22A
100
AcDbEntity
  8
0
100
AcDbLine
 62
7
  6
CONTINUOUS
 10
20.7486811426
 20
1.1987695462
 11
20.7486811426
 21
1.1432869085
  0
LINE
  5
22B
100
AcDbEntity
  8
0
100
AcDbLine
 62
7
  6
CONTINUOUS
 10
20.7498134414
 20
1.1059210505
 11
20.7498134414
 21
0.9757066966
  0
LINE
  5
22C
100
AcDbEntity
  8
0
100
AcDbLine
 62
7
  6
CONTINUOUS
 10
20.7486811426
 20
1.2338708068
 11
20.7486811426
 21
1.3640851607
  0
LINE
  5
22D
100
AcDbEntity
  8
0
100
AcDbLine
 62
7
  6
CONTINUOUS
 10
21.0702539817
 20
1.2701043662
 11
21.4790138229
 21
1.3448360823
  0
LINE
  5
22E
100
AcDbEntity
  8
0
100
AcDbLine
 62
7
  6
CONTINUOUS
 10
21.4790138229
 20
1.3448360823
 11
21.4790138229
 21
0.9779712941
  0
LINE
  5
22F
100
AcDbEntity
  8
0
100
AcDbLine
 62
7
  6
CONTINUOUS
 10
21.4790138229
 20
0.9779712941
 11
21.069121683
 21
1.0617614
  0
LINE
  5
230
100
AcDbEntity
  8
0
100
AcDbLine
 62
7
  6
CONTINUOUS
 10
21.0702539817
 20
1.2701043662
 11
21.069121683
 21
1.0617614
  0
LINE
  5
231
100
AcDbEntity
  8
0
100
AcDbLine
 62
7
  6
CONTINUOUS
 10
21.4790138229
 20
1.1693297793
 11
21.3159628059
 21
1.1693297793
  0
LINE
  5
232
100
AcDbEntity
  8
0
100
AcDbLine
 62
7
  6
CONTINUOUS
 10
21.2876553377
 20
1.1693297793
 11
21.2502894796
 21
1.1693297793
  0
LINE
  5
233
100
AcDbEntity
  8
0
100
AcDbLine
 62
7
  6
CONTINUOUS
 10
21.2208497126
 20
1.1659328831
 11
21.0713862804
 21
1.1659328831
  0
LINE
  5
234
100
AcDbEntity
  8
0
100
AcDbLine
 62
7
  6
CONTINUOUS
 10
20.4796138713
 20
1.5284908897
 11
20.4766766948
 21
0.9294458646
  0
ENDBLK
  5
235
100
AcDbEntity
  8
0
  6
BYBLOCK
 62
0
100
AcDbBlockEnd
  0
BLOCK
  5
236
100
AcDbEntity
  8
0
100
AcDbBlockBegin
  2
*T1
 70
1
 10
0.0
 20
0.0
  3
*T1
  1

  0
LINE
  5
237
100
AcDbEntity
  8
0
100
AcDbLine
 62
2
  6
CONTINUOUS
 10
9.275
 20
0.0
 11
-0.0
 21
0.0
  0
LINE
  5
238
100
AcDbEntity
  8
0
100
AcDbLine
 62
2
  6
CONTINUOUS
 10
9.275
 20
0.0
 11
9.275
 21
1.25
  0
LINE
  5
239
100
AcDbEntity
  8
0
100
AcDbLine
 62
2
  6
CONTINUOUS
 10
9.275
 20
0.625
 11
-0.0
 21
0.625
  0
LINE
  5
23A
100
AcDbEntity
  8
0
100
AcDbLine
 62
2
  6
CONTINUOUS
 10
9.275
 20
1.25
 11
-0.0
 21
1.25
  0
LINE
  5
23B
100
AcDbEntity
  8
0
100
AcDbLine
 62
2
  6
CONTINUOUS
 10
6.8
 20
0.0
 11
6.8
 21
1.25
  0
LINE
  5
23C
100
AcDbEntity
  8
0
100
AcDbLine
 62
2
  6
CONTINUOUS
 10
6.4
 20
0.0
 11
6.4
 21
0.625
  0
LINE
  5
23D
100
AcDbEntity
  8
0
100
AcDbLine
 62
2
  6
CONTINUOUS
 10
5.9
 20
0.0
 11
5.9
 21
0.625
  0
LINE
  5
23E
100
AcDbEntity
  8
0
100
AcDbLine
 62
2
  6
CONTINUOUS
 10
5.2
 20
0.0
 11
5.2
 21
0.625
  0
LINE
  5
23F
100
AcDbEntity
  8
0
100
AcDbLine
 62
2
  6
CONTINUOUS
 10
4.1
 20
0.0
 11
4.1
 21
1.25
  0
LINE
  5
240
100
AcDbEntity
  8
0
100
AcDbLine
 62
2
  6
CONTINUOUS
 10
-0.0
 20
0.0
 11
-0.0
 21
1.25
  0
MTEXT
  5
241
100
AcDbEntity
  8
0
100
AcDbMText
 62
2
  6
CONTINUOUS
  7
STANDARD
 71
2
 72
1
 10
6.6
 20
0.325
 30
0.0
 11
1.0
 21
0.0
 31
0.0
 44
0.9
  1
2
 40
0.125
 41
0.2
  0
MTEXT
  5
242
100
AcDbEntity
  8
0
100
AcDbMText
 62
2
  6
CONTINUOUS
  7
STANDARD
 71
2
 72
1
 10
6.15
 20
0.325
 30
0.0
 11
1.0
 21
0.0
 31
0.0
 44
0.9
  1
C
 40
0.125
 41
0.2
  0
MTEXT
  5
243
100
AcDbEntity
  8
0
100
AcDbMText
 62
2
  6
CONTINUOUS
  7
STANDARD
 71
2
 72
1
 10
5.55
 20
0.325
 30
0.0
 11
1.0
 21
0.0
 31
0.0
 44
0.9
  1
0.900
 40
0.125
 41
1.0
  0
MTEXT
  5
244
100
AcDbEntity
  8
0
100
AcDbMText
 62
2
  6
CONTINUOUS
  7
STANDARD
 71
2
 72
1
 10
4.65
 20
0.325
 30
0.0
 11
1.0
 21
0.0
 31
0.0
 44
0.9
  1
Feb-23-23
 40
0.125
 41
1.8
  0
MTEXT
  5
245
100
AcDbEntity
  8
0
100
AcDbMText
 62
2
  6
CONTINUOUS
  7
STANDARD
 71
2
 72
1
 10
2.05
 20
0.4625
 30
0.0
 11
1.0
 21
0.0
 31
0.0
 44
0.9
  1
T-19A Line mount\P(See Technical Data for Body Features)
 40
0.125
 41
7.6
  0
MTEXT
  5
246
100
AcDbEntity
  8
0
100
AcDbMText
 62
2
  6
CONTINUOUS
  7
STANDARD
 71
1
 72
1
 10
6.45
 20
0.5625
 30
0.0
 11
1.0
 21
0.0
 31
0.0
 44
0.9
  1
SHEET
 40
0.06
 41
0.48
  0
MTEXT
  5
247
100
AcDbEntity
  8
0
100
AcDbMText
 62
2
  6
CONTINUOUS
  7
STANDARD
 71
1
 72
1
 10
5.95
 20
0.5625
 30
0.0
 11
1.0
 21
0.0
 31
0.0
 44
0.9
  1
DWG SIZE
 40
0.06
 41
0.768
  0
MTEXT
  5
248
100
AcDbEntity
  8
0
100
AcDbMText
 62
2
  6
CONTINUOUS
  7
STANDARD
 71
1
 72
1
 10
5.25
 20
0.5625
 30
0.0
 11
1.0
 21
0.0
 31
0.0
 44
0.9
  1
SCALE
 40
0.06
 41
0.48
  0
MTEXT
  5
249
100
AcDbEntity
  8
0
100
AcDbMText
 62
2
  6
CONTINUOUS
  7
STANDARD
 71
1
 72
1
 10
4.15
 20
0.5625
 30
0.0
 11
1.0
 21
0.0
 31
0.0
 44
0.9
  1
DATE
 40
0.06
 41
0.384
  0
MTEXT
  5
24A
100
AcDbEntity
  8
0
100
AcDbMText
 62
2
  6
CONTINUOUS
  7
STANDARD
 71
1
 72
1
 10
0.05
 20
0.5625
 30
0.0
 11
1.0
 21
0.0
 31
0.0
 44
0.9
  1
DESCRIPTION
 40
0.06
 41
1.056
  0
MTEXT
  5
24B
100
AcDbEntity
  8
0
100
AcDbMText
 62
2
  6
CONTINUOUS
  7
STANDARD
 71
2
 72
1
 10
5.45
 20
1.0375
 30
0.0
 11
1.0
 21
0.0
 31
0.0
 44
0.9
  1
ALL DIMENSIONS IN INCH\PVIEWS ARE THIRD ANGLE
 40
0.12
 41
4.224
  0
MTEXT
  5
24C
100
AcDbEntity
  8
0
100
AcDbMText
 62
2
  6
CONTINUOUS
  7
STANDARD
 71
2
 72
1
 10
2.05
 20
0.95
 30
0.0
 11
1.0
 21
0.0
 31
0.0
 44
0.9
  1
K28
 40
0.125
 41
0.6
  0
MTEXT
  5
24D
100
AcDbEntity
  8
0
100
AcDbMText
 62
2
  6
CONTINUOUS
  7
STANDARD
 71
1
 72
1
 10
0.05
 20
1.1875
 30
0.0
 11
1.0
 21
0.0
 31
0.0
 44
0.9
  1
MODEL
 40
0.06
 41
0.48
  0
ENDBLK
  5
24E
100
AcDbEntity
  8
0
  6
BYBLOCK
 62
0
100
AcDbBlockEnd
  0
BLOCK
  5
24F
100
AcDbEntity
  8
0
100
AcDbBlockBegin
  2
*T2
 70
1
 10
0.0
 20
0.0
  3
*T2
  1

  0
LINE
  5
250
100
AcDbEntity
  8
0
100
AcDbLine
 62
2
  6
CONTINUOUS
 10
0.0
 20
0.0
 11
9.055
 21
0.0
  0
LINE
  5
251
100
AcDbEntity
  8
0
100
AcDbLine
 62
2
  6
CONTINUOUS
 10
0.0
 20
0.0
 11
0.0
 21
-2.094
  0
LINE
  5
252
100
AcDbEntity
  8
0
100
AcDbLine
 62
2
  6
CONTINUOUS
 10
0.0
 20
-0.344
 11
9.055
 21
-0.344
  0
LINE
  5
253
100
AcDbEntity
  8
0
100
AcDbLine
 62
2
  6
CONTINUOUS
 10
0.0
 20
-0.594
 11
9.055
 21
-0.594
  0
LINE
  5
254
100
AcDbEntity
  8
0
100
AcDbLine
 62
2
  6
CONTINUOUS
 10
0.0
 20
-0.844
 11
9.055
 21
-0.844
  0
LINE
  5
255
100
AcDbEntity
  8
0
100
AcDbLine
 62
2
  6
CONTINUOUS
 10
0.0
 20
-1.094
 11
9.055
 21
-1.094
  0
LINE
  5
256
100
AcDbEntity
  8
0
100
AcDbLine
 62
2
  6
CONTINUOUS
 10
0.0
 20
-1.344
 11
9.055
 21
-1.344
  0
LINE
  5
257
100
AcDbEntity
  8
0
100
AcDbLine
 62
2
  6
CONTINUOUS
 10
0.0
 20
-1.594
 11
9.055
 21
-1.594
  0
LINE
  5
258
100
AcDbEntity
  8
0
100
AcDbLine
 62
2
  6
CONTINUOUS
 10
0.0
 20
-1.844
 11
9.055
 21
-1.844
  0
LINE
  5
259
100
AcDbEntity
  8
0
100
AcDbLine
 62
2
  6
CONTINUOUS
 10
0.0
 20
-2.094
 11
9.055
 21
-2.094
  0
LINE
  5
25A
100
AcDbEntity
  8
0
100
AcDbLine
 62
2
  6
CONTINUOUS
 10
3.055
 20
0.0
 11
3.055
 21
-2.094
  0
LINE
  5
25B
100
AcDbEntity
  8
0
100
AcDbLine
 62
2
  6
CONTINUOUS
 10
9.055
 20
0.0
 11
9.055
 21
-2.094
  0
MTEXT
  5
25C
100
AcDbEntity
  8
0
100
AcDbMText
 62
2
  6
CONTINUOUS
  7
STANDARD
 71
2
 72
1
 10
1.5275
 20
-0.0995
 30
0.0
 11
1.0
 21
0.0
 31
0.0
 44
0.9
  1
Technical Data
 40
0.145
 41
3.248
  0
MTEXT
  5
25D
100
AcDbEntity
  8
0
100
AcDbMText
 62
2
  6
CONTINUOUS
  7
STANDARD
 71
2
 72
1
 10
4.555
 20
-0.0995
 30
0.0
 11
1.0
 21
0.0
 31
0.0
 44
0.9
  1
U.S. Units
 40
0.145
 41
2.32
  0
MTEXT
  5
25E
100
AcDbEntity
  8
0
100
AcDbMText
 62
2
  6
CONTINUOUS
  7
STANDARD
 71
2
 72
1
 10
7.555
 20
-0.0995
 30
0.0
 11
1.0
 21
0.0
 31
0.0
 44
0.9
  1
Metric Units
 40
0.145
 41
2.784
  0
MTEXT
  5
25F
100
AcDbEntity
  8
0
100
AcDbMText
 62
2
  6
CONTINUOUS
  7
STANDARD
 71
2
 72
1
 10
1.5275
 20
-0.4065
 30
0.0
 11
1.0
 21
0.0
 31
0.0
 44
0.9
  1
Cavity
 40
0.125
 41
1.2
  0
MTEXT
  5
260
100
AcDbEntity
  8
0
100
AcDbMText
 62
2
  6
CONTINUOUS
  7
STANDARD
 71
2
 72
1
 10
6.055
 20
-0.4065
 30
0.0
 11
1.0
 21
0.0
 31
0.0
 44
0.9
  1
T-19A
 40
0.125
 41
1.0
  0
MTEXT
  5
261
100
AcDbEntity
  8
0
100
AcDbMText
 62
2
  6
CONTINUOUS
  7
STANDARD
 71
2
 72
1
 10
1.5275
 20
-0.6565
 30
0.0
 11
1.0
 21
0.0
 31
0.0
 44
0.9
  1
Body Features
 40
0.125
 41
2.6
  0
MTEXT
  5
262
100
AcDbEntity
  8
0
100
AcDbMText
 62
2
  6
CONTINUOUS
  7
STANDARD
 71
2
 72
1
 10
6.055
 20
-0.6565
 30
0.0
 11
1.0
 21
0.0
 31
0.0
 44
0.9
  1
Ninety degree with reverse flow check - reducing
 40
0.125
 41
9.6
  0
MTEXT
  5
263
100
AcDbEntity
  8
0
100
AcDbMText
 62
2
  6
CONTINUOUS
  7
STANDARD
 71
2
 72
1
 10
1.5275
 20
-0.9065
 30
0.0
 11
1.0
 21
0.0
 31
0.0
 44
0.9
  1
Body Type
 40
0.125
 41
1.8
  0
MTEXT
  5
264
100
AcDbEntity
  8
0
100
AcDbMText
 62
2
  6
CONTINUOUS
  7
STANDARD
 71
2
 72
1
 10
6.055
 20
-0.9065
 30
0.0
 11
1.0
 21
0.0
 31
0.0
 44
0.9
  1
Line mount
 40
0.125
 41
2.0
  0
MTEXT
  5
265
100
AcDbEntity
  8
0
100
AcDbMText
 62
2
  6
CONTINUOUS
  7
STANDARD
 71
2
 72
1
 10
1.5275
 20
-1.1565
 30
0.0
 11
1.0
 21
0.0
 31
0.0
 44
0.9
  1
Interface
 40
0.125
 41
1.8
  0
MTEXT
  5
266
100
AcDbEntity
  8
0
100
AcDbMText
 62
2
  6
CONTINUOUS
  7
STANDARD
 71
2
 72
1
 10
6.055
 20
-1.1565
 30
0.0
 11
1.0
 21
0.0
 31
0.0
 44
0.9
  1
None
 40
0.125
 41
0.8
  0
MTEXT
  5
267
100
AcDbEntity
  8
0
100
AcDbMText
 62
2
  6
CONTINUOUS
  7
STANDARD
 71
2
 72
1
 10
1.5275
 20
-1.4065
 30
0.0
 11
1.0
 21
0.0
 31
0.0
 44
0.9
  1
Open Cavity Quantity
 40
0.125
 41
4.0
  0
MTEXT
  5
268
100
AcDbEntity
  8
0
100
AcDbMText
 62
2
  6
CONTINUOUS
  7
STANDARD
 71
2
 72
1
 10
6.055
 20
-1.4065
 30
0.0
 11
1.0
 21
0.0
 31
0.0
 44
0.9
  1
1
 40
0.125
 41
0.2
  0
MTEXT
  5
269
100
AcDbEntity
  8
0
100
AcDbMText
 62
2
  6
CONTINUOUS
  7
STANDARD
 71
2
 72
1
 10
1.5275
 20
-1.6565
 30
0.0
 11
1.0
 21
0.0
 31
0.0
 44
0.9
  1
Weight
 40
0.125
 41
1.2
  0
MTEXT
  5
26A
100
AcDbEntity
  8
0
100
AcDbMText
 62
2
  6
CONTINUOUS
  7
STANDARD
 71
2
 72
1
 10
4.555
 20
-1.6565
 30
0.0
 11
1.0
 21
0.0
 31
0.0
 44
0.9
  1
23.328 lb.
 40
0.125
 41
2.0
  0
MTEXT
  5
26B
100
AcDbEntity
  8
0
100
AcDbMText
 62
2
  6
CONTINUOUS
  7
STANDARD
 71
2
 72
1
 10
7.555
 20
-1.6565
 30
0.0
 11
1.0
 21
0.0
 31
0.0
 44
0.9
  1
10,581 kg.
 40
0.125
 41
2.0
  0
MTEXT
  5
26C
100
AcDbEntity
  8
0
100
AcDbMText
 62
2
  6
CONTINUOUS
  7
STANDARD
 71
2
 72
1
 10
1.5275
 20
-1.9065
 30
0.0
 11
1.0
 21
0.0
 31
0.0
 44
0.9
  1
Includes integral cartridge(s)
 40
0.125
 41
6.0
  0
MTEXT
  5
26D
100
AcDbEntity
  8
0
100
AcDbMText
 62
2
  6
CONTINUOUS
  7
STANDARD
 71
2
 72
1
 10
6.055
 20
-1.9065
 30
0.0
 11
1.0
 21
0.0
 31
0.0
 44
0.9
  1
Yes (see Included Components)
 40
0.125
 41
5.8
  0
ENDBLK
  5
26E
100
AcDbEntity
  8
0
  6
BYBLOCK
 62
0
100
AcDbBlockEnd
  0
BLOCK
  5
26F
100
AcDbEntity
  8
0
100
AcDbBlockBegin
  2
*T3
 70
1
 10
0.0
 20
0.0
  3
*T3
  1

  0
LINE
  5
270
100
AcDbEntity
  8
0
100
AcDbLine
 62
2
  6
CONTINUOUS
 10
0.0
 20
0.0
 11
4.6
 21
0.0
  0
LINE
  5
271
100
AcDbEntity
  8
0
100
AcDbLine
 62
2
  6
CONTINUOUS
 10
0.0
 20
0.0
 11
0.0
 21
-1.43775
  0
LINE
  5
272
100
AcDbEntity
  8
0
100
AcDbLine
 62
2
  6
CONTINUOUS
 10
0.0
 20
-0.34375
 11
4.6
 21
-0.34375
  0
LINE
  5
273
100
AcDbEntity
  8
0
100
AcDbLine
 62
2
  6
CONTINUOUS
 10
0.0
 20
-0.68775
 11
4.6
 21
-0.68775
  0
LINE
  5
274
100
AcDbEntity
  8
0
100
AcDbLine
 62
2
  6
CONTINUOUS
 10
0.0
 20
-0.93775
 11
4.6
 21
-0.93775
  0
LINE
  5
275
100
AcDbEntity
  8
0
100
AcDbLine
 62
2
  6
CONTINUOUS
 10
0.0
 20
-1.18775
 11
4.6
 21
-1.18775
  0
LINE
  5
276
100
AcDbEntity
  8
0
100
AcDbLine
 62
2
  6
CONTINUOUS
 10
0.0
 20
-1.43775
 11
4.6
 21
-1.43775
  0
LINE
  5
277
100
AcDbEntity
  8
0
100
AcDbLine
 62
2
  6
CONTINUOUS
 10
1.3
 20
-0.34375
 11
1.3
 21
-1.43775
  0
LINE
  5
278
100
AcDbEntity
  8
0
100
AcDbLine
 62
2
  6
CONTINUOUS
 10
3.3
 20
-0.34375
 11
3.3
 21
-1.43775
  0
LINE
  5
279
100
AcDbEntity
  8
0
100
AcDbLine
 62
2
  6
CONTINUOUS
 10
4.6
 20
0.0
 11
4.6
 21
-1.43775
  0
MTEXT
  5
27A
100
AcDbEntity
  8
0
100
AcDbMText
 62
2
  6
CONTINUOUS
  7
STANDARD
 71
2
 72
1
 10
2.3
 20
-0.099375
 30
0.0
 11
1.0
 21
0.0
 31
0.0
 44
0.9
  1
Port Headings
 40
0.145
 41
3.016
  0
MTEXT
  5
27B
100
AcDbEntity
  8
0
100
AcDbMText
 62
2
  6
CONTINUOUS
  7
STANDARD
 71
2
 72
1
 10
0.65
 20
-0.44325
 30
0.0
 11
1.0
 21
0.0
 31
0.0
 44
0.9
  1
Product
 40
0.145
 41
1.624
  0
MTEXT
  5
27C
100
AcDbEntity
  8
0
100
AcDbMText
 62
2
  6
CONTINUOUS
  7
STANDARD
 71
2
 72
1
 10
2.3
 20
-0.44325
 30
0.0
 11
1.0
 21
0.0
 31
0.0
 44
0.9
  1
Port
 40
0.145
 41
0.928
  0
MTEXT
  5
27D
100
AcDbEntity
  8
0
100
AcDbMText
 62
2
  6
CONTINUOUS
  7
STANDARD
 71
2
 72
1
 10
3.95
 20
-0.44325
 30
0.0
 11
1.0
 21
0.0
 31
0.0
 44
0.9
  1
Size
 40
0.145
 41
0.928
  0
MTEXT
  5
27E
100
AcDbEntity
  8
0
100
AcDbMText
 62
2
  6
CONTINUOUS
  7
STANDARD
 71
2
 72
1
 10
0.65
 20
-0.75025
 30
0.0
 11
1.0
 21
0.0
 31
0.0
 44
0.9
  1
K28
 40
0.125
 41
0.6
  0
MTEXT
  5
27F
100
AcDbEntity
  8
0
100
AcDbMText
 62
2
  6
CONTINUOUS
  7
STANDARD
 71
2
 72
1
 10
2.3
 20
-0.75025
 30
0.0
 11
1.0
 21
0.0
 31
0.0
 44
0.9
  1
Ports 1 &  2
 40
0.125
 41
2.4
  0
MTEXT
  5
280
100
AcDbEntity
  8
0
100
AcDbMText
 62
2
  6
CONTINUOUS
  7
STANDARD
 71
2
 72
1
 10
3.95
 20
-0.75025
 30
0.0
 11
1.0
 21
0.0
 31
0.0
 44
0.9
  1
2" Code 62
 40
0.125
 41
2.0
  0
MTEXT
  5
281
100
AcDbEntity
  8
0
100
AcDbMText
 62
2
  6
CONTINUOUS
  7
STANDARD
 71
2
 72
1
 10
0.65
 20
-1.00025
 30
0.0
 11
1.0
 21
0.0
 31
0.0
 44
0.9
  1
K28
 40
0.125
 41
0.6
  0
MTEXT
  5
282
100
AcDbEntity
  8
0
100
AcDbMText
 62
2
  6
CONTINUOUS
  7
STANDARD
 71
2
 72
1
 10
2.3
 20
-1.00025
 30
0.0
 11
1.0
 21
0.0
 31
0.0
 44
0.9
  1
Port 3
 40
0.125
 41
1.2
  0
MTEXT
  5
283
100
AcDbEntity
  8
0
100
AcDbMText
 62
2
  6
CONTINUOUS
  7
STANDARD
 71
2
 72
1
 10
3.95
 20
-1.00025
 30
0.0
 11
1.0
 21
0.0
 31
0.0
 44
0.9
  1
SAE 6
 40
0.125
 41
1.0
  0
MTEXT
  5
284
100
AcDbEntity
  8
0
100
AcDbMText
 62
2
  6
CONTINUOUS
  7
STANDARD
 71
2
 72
1
 10
0.65
 20
-1.25025
 30
0.0
 11
1.0
 21
0.0
 31
0.0
 44
0.9
  1
K28
 40
0.125
 41
0.6
  0
MTEXT
  5
285
100
AcDbEntity
  8
0
100
AcDbMText
 62
2
  6
CONTINUOUS
  7
STANDARD
 71
2
 72
1
 10
2.3
 20
-1.25025
 30
0.0
 11
1.0
 21
0.0
 31
0.0
 44
0.9
  1
Gage Port
 40
0.125
 41
1.8
  0
MTEXT
  5
286
100
AcDbEntity
  8
0
100
AcDbMText
 62
2
  6
CONTINUOUS
  7
STANDARD
 71
2
 72
1
 10
3.95
 20
-1.25025
 30
0.0
 11
1.0
 21
0.0
 31
0.0
 44
0.9
  1
1/4" NPTF
 40
0.125
 41
1.8
  0
ENDBLK
  5
287
100
AcDbEntity
  8
0
  6
BYBLOCK
 62
0
100
AcDbBlockEnd
  0
ENDSEC
  0
SECTION
  2
ENTITIES
  0
IMAGE
  5
288
100
AcDbEntity
  8
0
100
AcDbRasterImage
 62
7
  6
CONTINUOUS
 10
19.2297077316
 20
0.3094318264
 30
0.0
 11
0.0066666667
 21
0.0
 31
0.0
 12
0.0
 22
0.0066666667
 32
0.0
 13
369.0
 23
92.0
340
       3B8
 70
9
280
0
281
50
282
50
283
0
360
       3B2
 71
1
 91
2
 14
-0.5
 24
-0.5
 14
368.5
 24
91.5
  0
INSERT
  5
289
100
AcDbEntity
  8
0
100
AcDbBlockReference
 62
2
  6
CONTINUOUS
  2
SUN_FIRST_THIRD_ANGLE_BL0
 10
20.4816717061
 20
1.2289683772
  0
ACAD_TABLE
  5
28A
100
AcDbEntity
  8
0
 62
2
  6
CONTINUOUS
100
AcDbBlockReference
  2
*T1
 10
12.42375
 20
0.30125
 30
0.0
100
AcDbTable
342
       3BA
343
20F
 11
1.0
 21
0.0
 31
0.0
 90
6
 91
4
 92
6
 93
20
 94
0
 95
0
 96
0
 70
1
 41
0.0
141
0.525
141
0.1
141
0.525
141
0.1
142
4.1
142
1.1
142
0.7
142
0.5
142
0.4
142
2.475
171
1
172
0
173
0
174
0
175
1
176
1
 91
33
178
0
145
0.0
301
CELL_VALUE
 90
4
  1
T-19A Line mount\P(See Technical Data for Body Features)
304
ACVALUE_END
170
2
140
0.125
171
1
172
0
173
0
174
0
175
1
176
1
 91
33
178
0
145
0.0
301
CELL_VALUE
 90
4
  1
Feb-23-23
304
ACVALUE_END
170
5
140
0.125
171
1
172
0
173
0
174
0
175
1
176
1
 91
33
178
0
145
0.0
301
CELL_VALUE
 90
4
  1
0.900
304
ACVALUE_END
170
5
140
0.125
171
1
172
0
173
0
174
0
175
1
176
1
 91
33
178
0
145
0.0
301
CELL_VALUE
 90
4
  1
C
304
ACVALUE_END
170
5
140
0.125
171
1
172
0
173
0
174
0
175
1
176
1
 91
33
178
0
145
0.0
301
CELL_VALUE
 90
4
  1
2
304
ACVALUE_END
170
5
140
0.125
171
1
172
0
173
0
174
0
175
1
176
1
 91
33
178
0
145
0.0
301
CELL_VALUE
 90
4
  1
 
304
ACVALUE_END
170
1
140
0.125
171
1
172
0
173
0
174
0
175
1
176
1
 91
33
178
0
145
0.0
301
CELL_VALUE
 90
4
  1
DESCRIPTION
304
ACVALUE_END
170
1
140
0.06
171
1
172
0
173
0
174
0
175
1
176
1
 91
33
178
0
145
0.0
301
CELL_VALUE
 90
4
  1
DATE
304
ACVALUE_END
170
1
140
0.06
171
1
172
0
173
0
174
0
175
1
176
1
 91
33
178
0
145
0.0
301
CELL_VALUE
 90
4
  1
SCALE
304
ACVALUE_END
170
1
140
0.06
171
1
172
0
173
0
174
0
175
1
176
1
 91
33
178
0
145
0.0
301
CELL_VALUE
 90
4
  1
DWG SIZE
304
ACVALUE_END
170
1
140
0.06
171
1
172
0
173
0
174
0
175
1
176
1
 91
33
178
0
145
0.0
301
CELL_VALUE
 90
4
  1
SHEET
304
ACVALUE_END
170
1
140
0.06
171
1
172
0
173
0
174
0
175
1
176
1
 91
33
178
0
145
0.0
301
CELL_VALUE
 90
4
  1
 
304
ACVALUE_END
170
1
140
0.125
171
1
172
0
173
0
174
0
175
1
176
1
 91
33
178
0
145
0.0
301
CELL_VALUE
 90
4
  1
K28
304
ACVALUE_END
170
5
140
0.125
171
1
172
0
173
0
174
0
175
4
176
1
 91
33
178
0
145
0.0
301
CELL_VALUE
 90
4
  1
ALL DIMENSIONS IN INCH\PVIEWS ARE THIRD ANGLE
304
ACVALUE_END
170
5
140
0.12
171
1
172
0
173
1
174
0
175
1
176
1
 91
1
178
0
145
0.0
170
1
171
1
172
0
173
1
174
0
175
1
176
1
 91
1
178
0
145
0.0
170
1
171
1
172
0
173
1
174
0
175
1
176
1
 91
1
178
0
145
0.0
170
5
171
1
172
0
173
0
174
0
175
1
176
1
 91
33
178
0
145
0.0
301
CELL_VALUE
 90
4
  1
 
304
ACVALUE_END
170
1
140
0.125
171
1
172
0
173
0
174
0
175
1
176
1
 91
33
178
0
145
0.0
301
CELL_VALUE
 90
4
  1
MODEL
304
ACVALUE_END
170
1
140
0.06
171
1
172
0
173
0
174
0
175
1
176
1
 91
33
178
0
145
0.0
301
CELL_VALUE
 90
4
  1
 
304
ACVALUE_END
170
1
140
0.125
171
1
172
0
173
0
174
0
175
1
176
1
 91
33
178
0
145
0.0
301
CELL_VALUE
 90
4
  1
 
304
ACVALUE_END
170
1
140
0.125
171
1
172
0
173
0
174
0
175
1
176
1
 91
33
178
0
145
0.0
301
CELL_VALUE
 90
4
  1
 
304
ACVALUE_END
170
1
140
0.125
171
1
172
0
173
0
174
0
175
1
176
1
 91
33
178
0
145
0.0
301
CELL_VALUE
 90
4
  1
 
304
ACVALUE_END
170
1
140
0.125
171
1
172
0
173
0
174
0
175
1
176
1
 91
33
178
0
145
0.0
301
CELL_VALUE
 90
4
  1
 
304
ACVALUE_END
170
1
140
0.125
  0
ACAD_TABLE
  5
28B
100
AcDbEntity
  8
0
 62
2
  6
CONTINUOUS
100
AcDbBlockReference
  2
*T2
 10
12.4237499994
 20
16.47875
 30
0.0
100
AcDbTable
342
       3B9
343
210
 11
1.0
 21
0.0
 31
0.0
 90
22
 91
8
 92
3
 93
16
 94
0
 95
0
 96
0
 41
0.028
141
0.344
141
0.25
141
0.25
141
0.25
141
0.25
141
0.25
141
0.25
141
0.25
142
3.055
142
3.0
142
3.0
171
1
172
0
173
0
174
0
175
1
176
1
 91
33
178
0
145
0.0
301
CELL_VALUE
 90
4
  1
Technical Data
304
ACVALUE_END
170
5
140
0.145
171
1
172
0
173
0
174
0
175
1
176
1
 91
33
178
0
145
0.0
301
CELL_VALUE
 90
4
  1
U.S. Units
304
ACVALUE_END
170
5
140
0.145
171
1
172
0
173
0
174
0
175
1
176
1
 91
33
178
0
145
0.0
301
CELL_VALUE
 90
4
  1
Metric Units
304
ACVALUE_END
170
5
140
0.145
171
1
172
0
173
0
174
0
175
1
176
1
 91
33
178
0
145
0.0
301
CELL_VALUE
 90
4
  1
Cavity
304
ACVALUE_END
170
5
140
0.125
171
1
172
0
173
0
174
0
175
2
176
1
 91
33
178
0
145
0.0
301
CELL_VALUE
 90
4
  1
T-19A
304
ACVALUE_END
170
5
140
0.125
171
1
172
0
173
1
174
0
175
1
176
1
 91
1
178
0
145
0.0
170
1
171
1
172
0
173
0
174
0
175
1
176
1
 91
33
178
0
145
0.0
301
CELL_VALUE
 90
4
  1
Body Features
304
ACVALUE_END
170
5
140
0.125
171
1
172
0
173
0
174
0
175
2
176
1
 91
33
178
0
145
0.0
301
CELL_VALUE
 90
4
  1
Ninety degree with reverse flow check - reducing
304
ACVALUE_END
170
5
140
0.125
171
1
172
0
173
1
174
0
175
1
176
1
 91
1
178
0
145
0.0
170
1
171
1
172
0
173
0
174
0
175
1
176
1
 91
33
178
0
145
0.0
301
CELL_VALUE
 90
4
  1
Body Type
304
ACVALUE_END
170
5
140
0.125
171
1
172
0
173
0
174
0
175
2
176
1
 91
33
178
0
145
0.0
301
CELL_VALUE
 90
4
  1
Line mount
304
ACVALUE_END
170
5
140
0.125
171
1
172
0
173
1
174
0
175
1
176
1
 91
1
178
0
145
0.0
170
1
171
1
172
0
173
0
174
0
175
1
176
1
 91
33
178
0
145
0.0
301
CELL_VALUE
 90
4
  1
Interface
304
ACVALUE_END
170
5
140
0.125
171
1
172
0
173
0
174
0
175
2
176
1
 91
33
178
0
145
0.0
301
CELL_VALUE
 90
4
  1
None
304
ACVALUE_END
170
5
140
0.125
171
1
172
0
173
1
174
0
175
1
176
1
 91
1
178
0
145
0.0
170
1
171
1
172
0
173
0
174
0
175
1
176
1
 91
33
178
0
145
0.0
301
CELL_VALUE
 90
4
  1
Open Cavity Quantity
304
ACVALUE_END
170
5
140
0.125
171
1
172
0
173
0
174
0
175
2
176
1
 91
33
178
0
145
0.0
301
CELL_VALUE
 90
4
  1
1
304
ACVALUE_END
170
5
140
0.125
171
1
172
0
173
1
174
0
175
1
176
1
 91
1
178
0
145
0.0
170
1
171
1
172
0
173
0
174
0
175
1
176
1
 91
33
178
0
145
0.0
301
CELL_VALUE
 90
4
  1
Weight
304
ACVALUE_END
170
5
140
0.125
171
1
172
0
173
0
174
0
175
1
176
1
 91
33
178
0
145
0.0
301
CELL_VALUE
 90
4
  1
23.328 lb.
304
ACVALUE_END
170
5
140
0.125
171
1
172
0
173
0
174
0
175
1
176
1
 91
33
178
0
145
0.0
301
CELL_VALUE
 90
4
  1
10,581 kg.
304
ACVALUE_END
170
5
140
0.125
171
1
172
0
173
0
174
0
175
1
176
1
 91
33
178
0
145
0.0
301
CELL_VALUE
 90
4
  1
Includes integral cartridge(s)
304
ACVALUE_END
170
5
140
0.125
171
1
172
0
173
0
174
0
175
2
176
1
 91
33
178
0
145
0.0
301
CELL_VALUE
 90
4
  1
Yes (see Included Components)
304
ACVALUE_END
170
5
140
0.125
171
1
172
0
173
1
174
0
175
1
176
1
 91
1
178
0
145
0.0
170
1
  0
ACAD_TABLE
  5
28C
100
AcDbEntity
  8
0
 62
2
  6
CONTINUOUS
100
AcDbBlockReference
  2
*T3
 10
0.52125
 20
1.959
 30
0.0
100
AcDbTable
342
       3B9
343
211
 11
1.0
 21
0.0
 31
0.0
 90
22
 91
5
 92
3
 93
16
 94
0
 95
0
 96
0
 41
0.05
141
0.34375
141
0.344
141
0.25
141
0.25
141
0.25
142
1.3
142
2.0
142
1.3
171
1
172
0
173
0
174
0
175
3
176
1
 91
33
178
0
145
0.0
301
CELL_VALUE
 90
4
  1
Port Headings
304
ACVALUE_END
170
5
140
0.145
171
1
172
0
173
1
174
0
175
1
176
1
 91
1
178
0
145
0.0
170
1
171
1
172
0
173
1
174
0
175
1
176
1
 91
1
178
0
145
0.0
170
1
171
1
172
0
173
0
174
0
175
1
176
1
 91
33
178
0
145
0.0
301
CELL_VALUE
 90
4
  1
Product
304
ACVALUE_END
170
5
140
0.145
171
1
172
0
173
0
174
0
175
1
176
1
 91
33
178
0
145
0.0
301
CELL_VALUE
 90
4
  1
Port
304
ACVALUE_END
170
5
140
0.145
171
1
172
0
173
0
174
0
175
1
176
1
 91
33
178
0
145
0.0
301
CELL_VALUE
 90
4
  1
Size
304
ACVALUE_END
170
5
140
0.145
171
1
172
0
173
0
174
0
175
1
176
1
 91
33
178
0
145
0.0
301
CELL_VALUE
 90
4
  1
K28
304
ACVALUE_END
170
5
140
0.125
171
1
172
0
173
0
174
0
175
1
176
1
 91
33
178
0
145
0.0
301
CELL_VALUE
 90
4
  1
Ports 1 &  2
304
ACVALUE_END
170
5
140
0.125
171
1
172
0
173
0
174
0
175
1
176
1
 91
33
178
0
145
0.0
301
CELL_VALUE
 90
4
  1
2" Code 62
304
ACVALUE_END
170
5
140
0.125
171
1
172
0
173
0
174
0
175
1
176
1
 91
33
178
0
145
0.0
301
CELL_VALUE
 90
4
  1
K28
304
ACVALUE_END
170
5
140
0.125
171
1
172
0
173
0
174
0
175
1
176
1
 91
33
178
0
145
0.0
301
CELL_VALUE
 90
4
  1
Port 3
304
ACVALUE_END
170
5
140
0.125
171
1
172
0
173
0
174
0
175
1
176
1
 91
33
178
0
145
0.0
301
CELL_VALUE
 90
4
  1
SAE 6
304
ACVALUE_END
170
5
140
0.125
171
1
172
0
173
0
174
0
175
1
176
1
 91
33
178
0
145
0.0
301
CELL_VALUE
 90
4
  1
K28
304
ACVALUE_END
170
5
140
0.125
171
1
172
0
173
0
174
0
175
1
176
1
 91
33
178
0
145
0.0
301
CELL_VALUE
 90
4
  1
Gage Port
304
ACVALUE_END
170
5
140
0.125
171
1
172
0
173
0
174
0
175
1
176
1
 91
33
178
0
145
0.0
301
CELL_VALUE
 90
4
  1
1/4" NPTF
304
ACVALUE_END
170
5
140
0.125
  0
MTEXT
  5
28D
100
AcDbEntity
  8
0
100
AcDbMText
 62
2
  6
CONTINUOUS
  7
STANDARD
 71
1
 72
1
 10
0.52125
 20
5.75995
 30
0.0
 11
1.0
 21
0.0
 31
0.0
 44
0.6
  3
Notes\P \P1. Important: Carefully consider\P   the maximum system pressure. The\P   pressure rating of the manifold is\P   dependent on the manifold material,\P   with the port type/size a secondary\P   consideration. Manifolds\P   constructed of alu
  1
minum are not\P   rated for pressures higher than\P   3000 psi (210 bar), regardless of\P   the port type/size specified.
 40
0.1
 41
3.04
  0
LINE
  5
28E
100
AcDbEntity
  8
0
100
AcDbLine
 62
7
  6
CONTINUOUS
 10
0.30125
 20
0.30125
 11
0.30125
 21
16.69875
  0
LINE
  5
28F
100
AcDbEntity
  8
0
100
AcDbLine
 62
7
  6
CONTINUOUS
 10
0.30125
 20
0.30125
 11
21.69875
 21
0.30125
  0
LINE
  5
290
100
AcDbEntity
  8
0
100
AcDbLine
 62
7
  6
CONTINUOUS
 10
0.30125
 20
16.69875
 11
21.69875
 21
16.69875
  0
LINE
  5
291
100
AcDbEntity
  8
0
100
AcDbLine
 62
7
  6
CONTINUOUS
 10
21.69875
 20
0.30125
 11
21.69875
 21
16.69875
  0
LINE
  5
292
100
AcDbEntity
  8
0
100
AcDbLine
 62
7
  6
CONTINUOUS
 10
9.0835899377
 20
12.5545564433
 11
7.7004102913
 21
11.2185074213
  0
LINE
  5
293
100
AcDbEntity
  8
0
100
AcDbLine
 62
7
  6
CONTINUOUS
 10
7.7004102913
 20
4.8071743694
 11
12.9164100623
 21
4.4454435567
  0
LINE
  5
294
100
AcDbEntity
  8
0
100
AcDbLine
 62
4
  6
CONTINUOUS
 10
8.4150092928
 20
5.3743492017
 11
9.5684711607
 21
4.8229814179
  0
LINE
  5
295
100
AcDbEntity
  8
0
100
AcDbLine
 62
7
  6
CONTINUOUS
 10
7.7004102913
 20
4.8071743694
 11
7.7004102913
 21
11.2185074213
  0
LINE
  5
296
100
AcDbEntity
  8
0
100
AcDbLine
 62
4
  6
CONTINUOUS
 10
8.026410277
 20
5.9798994745
 11
8.026410277
 21
7.501232741
  0
LINE
  5
297
100
AcDbEntity
  8
0
100
AcDbLine
 62
7
  6
CONTINUOUS
 10
10.6114684881
 20
7.0532540698
 11
10.6114684881
 21
7.0182207875
  0
LINE
  5
298
100
AcDbEntity
  8
0
100
AcDbLine
 62
7
  6
CONTINUOUS
 10
12.9164100623
 20
10.8567766086
 11
14.2995897087
 21
12.1928256306
  0
LINE
  5
299
100
AcDbEntity
  8
0
100
AcDbLine
 62
4
  6
CONTINUOUS
 10
9.5684711607
 20
8.4442662266
 11
8.4150092928
 21
8.0528841472
  0
LINE
  5
29A
100
AcDbEntity
  8
0
100
AcDbLine
 62
7
  6
CONTINUOUS
 10
10.7253184881
 20
7.2533261675
 11
10.7253184881
 21
7.0645554026
  0
LINE
  5
29B
100
AcDbEntity
  8
0
100
AcDbLine
 62
4
  6
CONTINUOUS
 10
12.9734796151
 20
10.4120348676
 11
12.9804677234
 21
10.4187848623
  0
LINE
  5
29C
100
AcDbEntity
  8
0
100
AcDbLine
 62
4
  6
CONTINUOUS
 10
13.8657944815
 20
9.6743716875
 11
13.8498216701
 21
9.6688783724
  0
LINE
  5
29D
100
AcDbEntity
  8
0
100
AcDbLine
 62
4
  6
CONTINUOUS
 10
12.2018110608
 20
7.7902685526
 11
11.0483491929
 21
8.3416363365
  0
LINE
  5
29E
100
AcDbEntity
  8
0
100
AcDbLine
 62
4
  6
CONTINUOUS
 10
12.9734796151
 20
10.3251015359
 11
12.9804677234
 21
10.3318515306
  0
LINE
  5
29F
100
AcDbEntity
  8
0
100
AcDbLine
 62
4
  6
CONTINUOUS
 10
12.9804677234
 20
10.2101448761
 11
12.9734796151
 21
10.2033948815
  0
LINE
  5
2A0
100
AcDbEntity
  8
0
100
AcDbLine
 62
4
  6
CONTINUOUS
 10
13.3546642828
 20
9.3197511207
 11
13.3706371016
 21
9.3351796799
  0
LINE
  5
2A1
100
AcDbEntity
  8
0
100
AcDbLine
 62
4
  6
CONTINUOUS
 10
13.7885925244
 20
9.738893641
 11
13.7899235876
 21
9.7401793493
  0
LINE
  5
2A2
100
AcDbEntity
  8
0
100
AcDbLine
 62
4
  6
CONTINUOUS
 10
13.6927556297
 20
9.5867108827
 11
13.6727896022
 21
9.5674251799
  0
LINE
  5
2A3
100
AcDbEntity
  8
0
100
AcDbLine
 62
4
  6
CONTINUOUS
 10
13.5223788777
 20
9.4221395679
 11
13.5423449052
 21
9.4414252707
  0
LINE
  5
2A4
100
AcDbEntity
  8
0
100
AcDbLine
 62
4
  6
CONTINUOUS
 10
13.604905114
 20
9.5018537957
 11
13.6208779254
 21
9.5172823476
  0
LINE
  5
2A5
100
AcDbEntity
  8
0
100
AcDbLine
 62
4
  6
CONTINUOUS
 10
13.6368507634
 20
9.5327109253
 11
13.6528235747
 21
9.5481394772
  0
LINE
  5
2A6
100
AcDbEntity
  8
0
100
AcDbLine
 62
4
  6
CONTINUOUS
 10
13.8138828046
 20
9.7037107561
 11
13.8298556693
 21
9.7191393595
  0
LINE
  5
2A7
100
AcDbEntity
  8
0
100
AcDbLine
 62
4
  6
CONTINUOUS
 10
13.8498216701
 20
9.7384250365
 11
13.8657944815
 21
9.7538535884
  0
LINE
  5
2A8
100
AcDbEntity
  8
0
100
AcDbLine
 62
7
  6
CONTINUOUS
 10
10.6505168652
 20
7.1164224438
 11
10.6392446978
 21
7.1059325087
  0
LINE
  5
2A9
100
AcDbEntity
  8
0
100
AcDbLine
 62
4
  6
CONTINUOUS
 10
12.9664915068
 20
10.3878982116
 11
12.9734796151
 21
10.4120348676
  0
LINE
  5
2AA
100
AcDbEntity
  8
0
100
AcDbLine
 62
4
  6
CONTINUOUS
 10
12.9874558317
 20
10.3559881991
 11
12.9804677234
 21
10.3318515306
  0
LINE
  5
2AB
100
AcDbEntity
  8
0
100
AcDbLine
 62
4
  6
CONTINUOUS
 10
12.9874558317
 20
10.2342815369
 11
12.9804677234
 21
10.2101448761
  0
LINE
  5
2AC
100
AcDbEntity
  8
0
100
AcDbLine
 62
4
  6
CONTINUOUS
 10
14.2434518453
 20
10.0652407016
 11
14.2504399536
 21
10.0719906963
  0
LINE
  5
2AD
100
AcDbEntity
  8
0
100
AcDbLine
 62
4
  6
CONTINUOUS
 10
13.6807760079
 20
9.5006251733
 11
13.6967488192
 21
9.5160537252
  0
LINE
  5
2AE
100
AcDbEntity
  8
0
100
AcDbLine
 62
4
  6
CONTINUOUS
 10
13.8298556693
 20
9.5701107944
 11
13.8138828046
 21
9.554682191
  0
LINE
  5
2AF
100
AcDbEntity
  8
0
100
AcDbLine
 62
4
  6
CONTINUOUS
 10
13.7646333074
 20
9.5071108269
 11
13.7566469018
 21
9.499396551
  0
LINE
  5
2B0
100
AcDbEntity
  8
0
100
AcDbLine
 62
4
  6
CONTINUOUS
 10
13.6967488192
 20
9.4415394427
 11
13.6807760079
 21
9.4261108908
  0
LINE
  5
2B1
100
AcDbEntity
  8
0
100
AcDbLine
 62
4
  6
CONTINUOUS
 10
13.6208779254
 20
9.3682537825
 11
13.604905114
 21
9.3528252306
  0
LINE
  5
2B2
100
AcDbEntity
  8
0
100
AcDbLine
 62
4
  6
CONTINUOUS
 10
13.3506710779
 20
9.1072539946
 11
13.3666438971
 21
9.1226825541
  0
LINE
  5
2B3
100
AcDbEntity
  8
0
100
AcDbLine
 62
4
  6
CONTINUOUS
 10
13.3985895331
 20
9.1535396708
 11
13.4105691516
 21
9.1651110944
  0
LINE
  5
2B4
100
AcDbEntity
  8
0
100
AcDbLine
 62
4
  6
CONTINUOUS
 10
13.7167148467
 20
9.4608251454
 11
13.7366808743
 21
9.4801108482
  0
LINE
  5
2B5
100
AcDbEntity
  8
0
100
AcDbLine
 62
4
  6
CONTINUOUS
 10
13.8498216701
 20
9.5893964714
 11
13.8657944815
 21
9.6048250233
  0
LINE
  5
2B6
100
AcDbEntity
  8
0
100
AcDbLine
 62
4
  6
CONTINUOUS
 10
13.5623109327
 20
9.262006221
 11
13.5702973384
 21
9.269720497
  0
LINE
  5
2B7
100
AcDbEntity
  8
0
100
AcDbLine
 62
4
  6
CONTINUOUS
 10
14.2329696828
 20
9.8464757234
 11
14.260922116
 21
9.8734757021
  0
LINE
  5
2B8
100
AcDbEntity
  8
0
100
AcDbLine
 62
4
  6
CONTINUOUS
 10
13.3759613788
 20
8.1570357592
 11
13.3972584712
 21
8.1378662214
  0
LINE
  5
2B9
100
AcDbEntity
  8
0
100
AcDbLine
 62
4
  6
CONTINUOUS
 10
13.4365582723
 20
7.0151427702
 11
13.429570164
 21
7.0257794415
  0
LINE
  5
2BA
100
AcDbEntity
  8
0
100
AcDbLine
 62
4
  6
CONTINUOUS
 10
13.4435463806
 20
7.230532751
 11
13.4505344889
 21
7.2198960843
  0
LINE
  5
2BB
100
AcDbEntity
  8
0
100
AcDbLine
 62
4
  6
CONTINUOUS
 10
12.5904100766
 20
7.1847182799
 11
12.5904100766
 21
5.6633850133
  0
LINE
  5
2BC
100
AcDbEntity
  8
0
100
AcDbLine
 62
4
  6
CONTINUOUS
 10
12.9909498858
 20
10.3767498578
 11
12.9874558317
 21
10.3559881991
  0
LINE
  5
2BD
100
AcDbEntity
  8
0
100
AcDbLine
 62
4
  6
CONTINUOUS
 10
12.99444394
 20
10.275804862
 11
12.9874558317
 21
10.2342815369
  0
LINE
  5
2BE
100
AcDbEntity
  8
0
100
AcDbLine
 62
4
  6
CONTINUOUS
 10
13.6142226219
 20
8.9654092788
 11
13.6022430034
 21
8.9538378552
  0
LINE
  5
2BF
100
AcDbEntity
  8
0
100
AcDbLine
 62
4
  6
CONTINUOUS
 10
13.6461682579
 20
8.9962663955
 11
13.658147873
 21
9.0078378159
  0
LINE
  5
2C0
100
AcDbEntity
  8
0
100
AcDbLine
 62
4
  6
CONTINUOUS
 10
13.6461682579
 20
8.9068492639
 11
13.658147873
 21
8.9184206843
  0
LINE
  5
2C1
100
AcDbEntity
  8
0
100
AcDbLine
 62
4
  6
CONTINUOUS
 10
13.658147873
 20
8.7991978297
 11
13.6461682579
 21
8.7876264093
  0
LINE
  5
2C2
100
AcDbEntity
  8
0
100
AcDbLine
 62
4
  6
CONTINUOUS
 10
13.6222090275
 20
8.7644835686
 11
13.5942565944
 21
8.7374835899
  0
LINE
  5
2C3
100
AcDbEntity
  8
0
100
AcDbLine
 62
7
  6
CONTINUOUS
 10
12.9164100623
 20
4.4454435567
 11
12.9164100623
 21
10.8567766086
  0
LINE
  5
2C4
100
AcDbEntity
  8
0
100
AcDbLine
 62
4
  6
CONTINUOUS
 10
12.9909498858
 20
10.3941365192
 11
12.9909498858
 21
10.3767498578
  0
LINE
  5
2C5
100
AcDbEntity
  8
0
100
AcDbLine
 62
4
  6
CONTINUOUS
 10
12.9909498858
 20
6.6299234539
 11
12.9909498858
 21
6.4212834678
  0
LINE
  5
2C6
100
AcDbEntity
  8
0
100
AcDbLine
 62
4
  6
CONTINUOUS
 10
12.99444394
 20
10.2931915296
 11
12.99444394
 21
10.275804862
  0
LINE
  5
2C7
100
AcDbEntity
  8
0
100
AcDbLine
 62
4
  6
CONTINUOUS
 10
13.3466778729
 20
9.2822311302
 11
13.3546642828
 21
9.3197511207
  0
LINE
  5
2C8
100
AcDbEntity
  8
0
100
AcDbLine
 62
4
  6
CONTINUOUS
 10
13.5969187084
 20
9.4792366583
 11
13.604905114
 21
9.5018537957
  0
LINE
  5
2C9
100
AcDbEntity
  8
0
100
AcDbLine
 62
4
  6
CONTINUOUS
 10
13.4079070182
 20
8.3071157275
 11
13.427873039
 21
8.3264014238
  0
LINE
  5
2CA
100
AcDbEntity
  8
0
100
AcDbLine
 62
4
  6
CONTINUOUS
 10
13.5064060625
 20
8.4022585039
 11
13.5383516986
 21
8.4331156206
  0
LINE
  5
2CB
100
AcDbEntity
  8
0
100
AcDbLine
 62
4
  6
CONTINUOUS
 10
13.5543245232
 20
8.4485441854
 11
13.5782837536
 21
8.4716870261
  0
LINE
  5
2CC
100
AcDbEntity
  8
0
100
AcDbLine
 62
4
  6
CONTINUOUS
 10
13.6461682418
 20
8.5372584104
 11
13.6621410531
 21
8.5526869623
  0
LINE
  5
2CD
100
AcDbEntity
  8
0
100
AcDbLine
 62
4
  6
CONTINUOUS
 10
13.6927556126
 20
8.5822583577
 11
13.7047352345
 21
8.5938297845
  0
LINE
  5
2CE
100
AcDbEntity
  8
0
100
AcDbLine
 62
4
  6
CONTINUOUS
 10
13.7286944515
 20
8.6169726124
 11
13.748660479
 21
8.6362583152
  0
LINE
  5
2CF
100
AcDbEntity
  8
0
100
AcDbLine
 62
4
  6
CONTINUOUS
 10
13.7792750651
 20
8.6658297363
 11
13.8032342822
 21
8.6889725642
  0
LINE
  5
2D0
100
AcDbEntity
  8
0
100
AcDbLine
 62
4
  6
CONTINUOUS
 10
13.7952478765
 20
8.5918411567
 11
13.7792750651
 21
8.5764126047
  0
LINE
  5
2D1
100
AcDbEntity
  8
0
100
AcDbLine
 62
4
  6
CONTINUOUS
 10
13.5702973479
 20
8.3745556186
 11
13.5543245232
 21
8.3591270538
  0
LINE
  5
2D2
100
AcDbEntity
  8
0
100
AcDbLine
 62
4
  6
CONTINUOUS
 10
13.4638118812
 20
8.2120871228
 11
13.4851089719
 21
8.2326585339
  0
LINE
  5
2D3
100
AcDbEntity
  8
0
100
AcDbLine
 62
4
  6
CONTINUOUS
 10
13.748660479
 20
8.427618329
 11
13.7286944515
 21
8.4083326262
  0
LINE
  5
2D4
100
AcDbEntity
  8
0
100
AcDbLine
 62
4
  6
CONTINUOUS
 10
13.7047352345
 20
8.3851897984
 11
13.6927556126
 21
8.3736183715
  0
LINE
  5
2D5
100
AcDbEntity
  8
0
100
AcDbLine
 62
4
  6
CONTINUOUS
 10
13.6621410531
 20
8.3440469761
 11
13.6461682418
 21
8.3286184242
  0
LINE
  5
2D6
100
AcDbEntity
  8
0
100
AcDbLine
 62
4
  6
CONTINUOUS
 10
13.427873039
 20
8.1177614376
 11
13.4079070182
 21
8.0984757413
  0
LINE
  5
2D7
100
AcDbEntity
  8
0
100
AcDbLine
 62
4
  6
CONTINUOUS
 10
13.5543245232
 20
8.2399041992
 11
13.5782837536
 21
8.26304704
  0
LINE
  5
2D8
100
AcDbEntity
  8
0
100
AcDbLine
 62
4
  6
CONTINUOUS
 10
13.7792750651
 20
8.4571897502
 11
13.8032342822
 21
8.480332578
  0
LINE
  5
2D9
100
AcDbEntity
  8
0
100
AcDbLine
 62
4
  6
CONTINUOUS
 10
13.8192070935
 20
8.6249192214
 11
13.8405041842
 21
8.6057496789
  0
LINE
  5
2DA
100
AcDbEntity
  8
0
100
AcDbLine
 62
4
  6
CONTINUOUS
 10
13.429570164
 20
7.0257794415
 11
13.4225820557
 21
7.0538027773
  0
LINE
  5
2DB
100
AcDbEntity
  8
0
100
AcDbLine
 62
4
  6
CONTINUOUS
 10
13.4505344889
 20
7.2198960843
 11
13.4540285431
 21
7.2058844079
  0
LINE
  5
2DC
100
AcDbEntity
  8
0
100
AcDbLine
 62
4
  6
CONTINUOUS
 10
13.4744604265
 20
8.3714013872
 11
13.4904332512
 21
8.1781899658
  0
LINE
  5
2DD
100
AcDbEntity
  8
0
100
AcDbLine
 62
4
  6
CONTINUOUS
 10
13.4225820557
 20
7.0538027773
 11
13.4190880016
 21
7.1025877765
  0
LINE
  5
2DE
100
AcDbEntity
  8
0
100
AcDbLine
 62
4
  6
CONTINUOUS
 10
13.3466778729
 20
9.2524254197
 11
13.3466778729
 21
9.2822311302
  0
LINE
  5
2DF
100
AcDbEntity
  8
0
100
AcDbLine
 62
4
  6
CONTINUOUS
 10
13.3746303061
 20
9.1602025469
 11
13.3746303061
 21
9.1900082606
  0
LINE
  5
2E0
100
AcDbEntity
  8
0
100
AcDbLine
 62
4
  6
CONTINUOUS
 10
13.3906031241
 20
9.3544653778
 11
13.3906031241
 21
9.1756311053
  0
LINE
  5
2E1
100
AcDbEntity
  8
0
100
AcDbLine
 62
4
  6
CONTINUOUS
 10
13.4079070182
 20
8.0984757413
 11
13.4079070182
 21
8.3071157275
  0
LINE
  5
2E2
100
AcDbEntity
  8
0
100
AcDbLine
 62
4
  6
CONTINUOUS
 10
13.4185555573
 20
9.202631084
 11
13.4185555573
 21
9.3814653565
  0
LINE
  5
2E3
100
AcDbEntity
  8
0
100
AcDbLine
 62
4
  6
CONTINUOUS
 10
13.4345283753
 20
9.1882539287
 11
13.4345283753
 21
9.3968939149
  0
LINE
  5
2E4
100
AcDbEntity
  8
0
100
AcDbLine
 62
4
  6
CONTINUOUS
 10
13.435859448
 20
8.3043099924
 11
13.435859448
 21
8.1552814304
  0
LINE
  5
2E5
100
AcDbEntity
  8
0
100
AcDbLine
 62
4
  6
CONTINUOUS
 10
13.4540285431
 20
7.1363377499
 11
13.4540285431
 21
7.0667910889
  0
LINE
  5
2E6
100
AcDbEntity
  8
0
100
AcDbLine
 62
4
  6
CONTINUOUS
 10
13.4624808085
 20
9.2152539074
 11
13.4624808085
 21
9.4238938936
  0
LINE
  5
2E7
100
AcDbEntity
  8
0
100
AcDbLine
 62
4
  6
CONTINUOUS
 10
13.4584876085
 20
8.1473328427
 11
13.4744604265
 21
8.3714013872
  0
LINE
  5
2E8
100
AcDbEntity
  8
0
100
AcDbLine
 62
4
  6
CONTINUOUS
 10
13.5503313432
 20
8.764601717
 11
13.5782837764
 21
8.9306950177
  0
LINE
  5
2E9
100
AcDbEntity
  8
0
100
AcDbLine
 62
4
  6
CONTINUOUS
 10
13.3666438971
 20
9.1226825541
 11
13.3746303061
 21
9.1602025469
  0
LINE
  5
2EA
100
AcDbEntity
  8
0
100
AcDbLine
 62
4
  6
CONTINUOUS
 10
13.4105691516
 20
9.1651110944
 11
13.4185555573
 21
9.202631084
  0
LINE
  5
2EB
100
AcDbEntity
  8
0
100
AcDbLine
 62
4
  6
CONTINUOUS
 10
13.435859448
 20
8.1552814304
 11
13.427873039
 21
8.1177614376
  0
LINE
  5
2EC
100
AcDbEntity
  8
0
100
AcDbLine
 62
4
  6
CONTINUOUS
 10
13.6634721391
 20
8.9384663797
 11
13.658147873
 21
8.9184206843
  0
LINE
  5
2ED
100
AcDbEntity
  8
0
100
AcDbLine
 62
4
  6
CONTINUOUS
 10
13.6727896022
 20
9.4780080421
 11
13.6807760079
 21
9.5006251733
  0
LINE
  5
2EE
100
AcDbEntity
  8
0
100
AcDbLine
 62
4
  6
CONTINUOUS
 10
13.3972584712
 20
8.2173481255
 11
13.3759613788
 21
8.1570357592
  0
LINE
  5
2EF
100
AcDbEntity
  8
0
100
AcDbLine
 62
7
  6
CONTINUOUS
 10
7.7004102913
 20
11.2185074213
 11
12.9164100623
 21
10.8567766086
  0
LINE
  5
2F0
100
AcDbEntity
  8
0
100
AcDbLine
 62
4
  6
CONTINUOUS
 10
13.604905114
 20
9.3528252306
 11
13.5969187084
 21
9.3600138115
  0
LINE
  5
2F1
100
AcDbEntity
  8
0
100
AcDbLine
 62
4
  6
CONTINUOUS
 10
13.6807760079
 20
9.4261108908
 11
13.6727896022
 21
9.4332994716
  0
LINE
  5
2F2
100
AcDbEntity
  8
0
100
AcDbLine
 62
4
  6
CONTINUOUS
 10
13.3746303061
 20
9.1900082606
 11
13.3466778729
 21
9.2524254197
  0
LINE
  5
2F3
100
AcDbEntity
  8
0
100
AcDbLine
 62
4
  6
CONTINUOUS
 10
13.427873039
 20
8.3264014238
 11
13.435859448
 21
8.3043099924
  0
LINE
  5
2F4
100
AcDbEntity
  8
0
100
AcDbLine
 62
4
  6
CONTINUOUS
 10
13.3466778729
 20
9.1182997114
 11
13.3506710779
 21
9.1072539946
  0
LINE
  5
2F5
100
AcDbEntity
  8
0
100
AcDbLine
 62
4
  6
CONTINUOUS
 10
13.6461682418
 20
8.3286184242
 11
13.6381818361
 21
8.3507098619
  0
LINE
  5
2F6
100
AcDbEntity
  8
0
100
AcDbLine
 62
4
  6
CONTINUOUS
 10
13.3906031241
 20
9.1756311053
 11
13.3985895331
 21
9.1535396708
  0
LINE
  5
2F7
100
AcDbEntity
  8
0
100
AcDbLine
 62
4
  6
CONTINUOUS
 10
12.9664915068
 20
10.2140315528
 11
12.9629974527
 21
10.2280432215
  0
LINE
  5
2F8
100
AcDbEntity
  8
0
100
AcDbLine
 62
4
  6
CONTINUOUS
 10
12.9874558317
 20
10.3212148639
 11
12.99444394
 21
10.2931915296
  0
LINE
  5
2F9
100
AcDbEntity
  8
0
100
AcDbLine
 62
4
  6
CONTINUOUS
 10
12.9874558317
 20
10.4081481956
 11
12.9909498858
 21
10.3941365192
  0
LINE
  5
2FA
100
AcDbEntity
  8
0
100
AcDbLine
 62
4
  6
CONTINUOUS
 10
13.5623109327
 20
9.4607109734
 11
13.5742905545
 21
9.3232538351
  0
LINE
  5
2FB
100
AcDbEntity
  8
0
100
AcDbLine
 62
4
  6
CONTINUOUS
 10
13.5223788872
 20
8.2090470825
 11
13.5223788872
 21
8.4176870687
  0
LINE
  5
2FC
100
AcDbEntity
  8
0
100
AcDbLine
 62
4
  6
CONTINUOUS
 10
13.5223788777
 20
9.2731110028
 11
13.5223788777
 21
9.481750989
  0
LINE
  5
2FD
100
AcDbEntity
  8
0
100
AcDbLine
 62
4
  6
CONTINUOUS
 10
13.546338108
 20
9.4303795472
 11
13.546338108
 21
9.2962538436
  0
LINE
  5
2FE
100
AcDbEntity
  8
0
100
AcDbLine
 62
4
  6
CONTINUOUS
 10
13.5503313432
 20
8.6950550528
 11
13.5503313432
 21
8.903695039
  0
LINE
  5
2FF
100
AcDbEntity
  8
0
100
AcDbLine
 62
4
  6
CONTINUOUS
 10
13.5543245232
 20
8.2399041992
 11
13.5543245232
 21
8.4485441854
  0
LINE
  5
300
100
AcDbEntity
  8
0
100
AcDbLine
 62
4
  6
CONTINUOUS
 10
13.5969187084
 20
9.3600138115
 11
13.5969187084
 21
9.4792366583
  0
LINE
  5
301
100
AcDbEntity
  8
0
100
AcDbLine
 62
4
  6
CONTINUOUS
 10
13.6208779254
 20
9.5768937687
 11
13.6208779254
 21
9.3682537825
  0
LINE
  5
302
100
AcDbEntity
  8
0
100
AcDbLine
 62
4
  6
CONTINUOUS
 10
13.6222090275
 20
8.9135121337
 11
13.6222090275
 21
8.9433178443
  0
LINE
  5
303
100
AcDbEntity
  8
0
100
AcDbLine
 62
4
  6
CONTINUOUS
 10
13.6368507634
 20
9.3836823602
 11
13.6368507634
 21
9.5327109253
  0
LINE
  5
304
100
AcDbEntity
  8
0
100
AcDbLine
 62
4
  6
CONTINUOUS
 10
13.6381818361
 20
8.3507098619
 11
13.6381818361
 21
8.4997384239
  0
LINE
  5
305
100
AcDbEntity
  8
0
100
AcDbLine
 62
4
  6
CONTINUOUS
 10
13.6381818455
 20
8.8097178406
 11
13.6381818455
 21
8.8693292648
  0
LINE
  5
306
100
AcDbEntity
  8
0
100
AcDbLine
 62
4
  6
CONTINUOUS
 10
13.6408439852
 20
8.9166092602
 11
13.6408439852
 21
8.9613178322
  0
LINE
  5
307
100
AcDbEntity
  8
0
100
AcDbLine
 62
4
  6
CONTINUOUS
 10
13.6554857011
 20
9.5358080324
 11
13.6554857011
 21
9.5060023219
  0
LINE
  5
308
100
AcDbEntity
  8
0
100
AcDbLine
 62
4
  6
CONTINUOUS
 10
13.6634721391
 20
8.9831749517
 11
13.6634721391
 21
8.9384663797
  0
LINE
  5
309
100
AcDbEntity
  8
0
100
AcDbLine
 62
4
  6
CONTINUOUS
 10
13.6661342787
 20
8.8963292435
 11
13.6661342787
 21
8.8367178193
  0
LINE
  5
30A
100
AcDbEntity
  8
0
100
AcDbLine
 62
4
  6
CONTINUOUS
 10
13.6727896022
 20
9.4332994716
 11
13.6727896022
 21
9.4780080421
  0
LINE
  5
30B
100
AcDbEntity
  8
0
100
AcDbLine
 62
4
  6
CONTINUOUS
 10
13.6847692069
 20
8.3957098092
 11
13.6847692069
 21
8.5447383712
  0
LINE
  5
30C
100
AcDbEntity
  8
0
100
AcDbLine
 62
4
  6
CONTINUOUS
 10
13.6967488192
 20
9.4415394427
 11
13.6967488192
 21
9.5607622973
  0
LINE
  5
30D
100
AcDbEntity
  8
0
100
AcDbLine
 62
4
  6
CONTINUOUS
 10
13.7127216306
 20
9.6059965597
 11
13.7127216306
 21
9.4718708514
  0
LINE
  5
30E
100
AcDbEntity
  8
0
100
AcDbLine
 62
4
  6
CONTINUOUS
 10
13.7127216401
 20
8.5717383499
 11
13.7127216401
 21
8.4227097879
  0
LINE
  5
30F
100
AcDbEntity
  8
0
100
AcDbLine
 62
4
  6
CONTINUOUS
 10
13.7286944515
 20
8.4083326262
 11
13.7286944515
 21
8.6169726124
  0
LINE
  5
310
100
AcDbEntity
  8
0
100
AcDbLine
 62
4
  6
CONTINUOUS
 10
13.7366808743
 20
9.4801108482
 11
13.7366808743
 21
9.6291394133
  0
LINE
  5
311
100
AcDbEntity
  8
0
100
AcDbLine
 62
4
  6
CONTINUOUS
 10
13.7526536856
 20
9.5104422569
 11
13.7526536856
 21
9.7041793863
  0
LINE
  5
312
100
AcDbEntity
  8
0
100
AcDbLine
 62
4
  6
CONTINUOUS
 10
13.7566468846
 20
8.6141668806
 11
13.7566468846
 21
8.4651383186
  0
LINE
  5
313
100
AcDbEntity
  8
0
100
AcDbLine
 62
4
  6
CONTINUOUS
 10
13.7792750651
 20
8.4571897502
 11
13.7792750651
 21
8.6658297363
  0
LINE
  5
314
100
AcDbEntity
  8
0
100
AcDbLine
 62
4
  6
CONTINUOUS
 10
13.7885925244
 20
9.5302536548
 11
13.7885925244
 21
9.6792822199
  0
LINE
  5
315
100
AcDbEntity
  8
0
100
AcDbLine
 62
4
  6
CONTINUOUS
 10
13.7885925244
 20
9.7239907795
 11
13.7885925244
 21
9.738893641
  0
LINE
  5
316
100
AcDbEntity
  8
0
100
AcDbLine
 62
4
  6
CONTINUOUS
 10
13.8098896151
 20
9.5657279227
 11
13.8098896151
 21
9.6849507695
  0
LINE
  5
317
100
AcDbEntity
  8
0
100
AcDbLine
 62
4
  6
CONTINUOUS
 10
13.4190880016
 20
7.1025877765
 11
13.4225820557
 21
7.1581227704
  0
LINE
  5
318
100
AcDbEntity
  8
0
100
AcDbLine
 62
4
  6
CONTINUOUS
 10
13.5702973384
 20
9.269720497
 11
13.5862701497
 21
9.4838538013
  0
LINE
  5
319
100
AcDbEntity
  8
0
100
AcDbLine
 62
4
  6
CONTINUOUS
 10
13.7899235876
 20
9.7401793493
 11
13.7885925244
 21
9.7239907795
  0
LINE
  5
31A
100
AcDbEntity
  8
0
100
AcDbLine
 62
4
  6
CONTINUOUS
 10
13.6022430034
 20
8.9538378552
 11
13.5942565944
 21
8.9014150041
  0
LINE
  5
31B
100
AcDbEntity
  8
0
100
AcDbLine
 62
4
  6
CONTINUOUS
 10
13.6408439852
 20
8.9613178322
 11
13.6461682579
 21
8.9962663955
  0
LINE
  5
31C
100
AcDbEntity
  8
0
100
AcDbLine
 62
4
  6
CONTINUOUS
 10
13.5942565944
 20
8.7374835899
 11
13.6222090275
 21
8.9135121337
  0
LINE
  5
31D
100
AcDbEntity
  8
0
100
AcDbLine
 62
4
  6
CONTINUOUS
 10
13.4225820557
 20
7.1581227704
 11
13.429570164
 21
7.1996461003
  0
LINE
  5
31E
100
AcDbEntity
  8
0
100
AcDbLine
 62
4
  6
CONTINUOUS
 10
13.4540285431
 20
7.0667910889
 11
13.4505344889
 21
7.0460294255
  0
LINE
  5
31F
100
AcDbEntity
  8
0
100
AcDbLine
 62
4
  6
CONTINUOUS
 10
13.8098896151
 20
9.6849507695
 11
13.8138828046
 21
9.7037107561
  0
LINE
  5
320
100
AcDbEntity
  8
0
100
AcDbLine
 62
4
  6
CONTINUOUS
 10
13.6381818455
 20
8.8693292648
 11
13.6461682579
 21
8.9068492639
  0
LINE
  5
321
100
AcDbEntity
  8
0
100
AcDbLine
 62
4
  6
CONTINUOUS
 10
13.8458284806
 20
9.71966505
 11
13.8498216701
 21
9.7384250365
  0
LINE
  5
322
100
AcDbEntity
  8
0
100
AcDbLine
 62
4
  6
CONTINUOUS
 10
13.6661342787
 20
8.8367178193
 11
13.658147873
 21
8.7991978297
  0
LINE
  5
323
100
AcDbEntity
  8
0
100
AcDbLine
 62
4
  6
CONTINUOUS
 10
13.8657944815
 20
9.6048250233
 11
13.869787671
 21
9.6235850053
  0
LINE
  5
324
100
AcDbEntity
  8
0
100
AcDbLine
 62
4
  6
CONTINUOUS
 10
13.6381818361
 20
8.4997384239
 11
13.6461682418
 21
8.5372584104
  0
LINE
  5
325
100
AcDbEntity
  8
0
100
AcDbLine
 62
4
  6
CONTINUOUS
 10
13.6847692069
 20
8.5447383712
 11
13.6927556126
 21
8.5822583577
  0
LINE
  5
326
100
AcDbEntity
  8
0
100
AcDbLine
 62
4
  6
CONTINUOUS
 10
13.7127216401
 20
8.4227097879
 11
13.7047352345
 21
8.3851897984
  0
LINE
  5
327
100
AcDbEntity
  8
0
100
AcDbLine
 62
4
  6
CONTINUOUS
 10
13.7566468846
 20
8.4651383186
 11
13.748660479
 21
8.427618329
  0
LINE
  5
328
100
AcDbEntity
  8
0
100
AcDbLine
 62
4
  6
CONTINUOUS
 10
14.236463737
 20
10.0411040456
 11
14.2434518453
 21
10.0652407016
  0
LINE
  5
329
100
AcDbEntity
  8
0
100
AcDbLine
 62
4
  6
CONTINUOUS
 10
13.429570164
 20
7.1996461003
 11
13.4365582723
 21
7.2237827563
  0
LINE
  5
32A
100
AcDbEntity
  8
0
100
AcDbLine
 62
4
  6
CONTINUOUS
 10
14.2574280619
 20
9.9918073593
 11
14.2434518453
 21
9.9435340409
  0
LINE
  5
32B
100
AcDbEntity
  8
0
100
AcDbLine
 62
4
  6
CONTINUOUS
 10
13.4505344889
 20
7.0460294255
 11
13.4435463806
 21
7.0218927648
  0
LINE
  5
32C
100
AcDbEntity
  8
0
100
AcDbLine
 62
4
  6
CONTINUOUS
 10
13.8405041842
 20
8.6057496789
 11
13.8192070935
 21
8.5454373173
  0
LINE
  5
32D
100
AcDbEntity
  8
0
100
AcDbLine
 62
4
  6
CONTINUOUS
 10
13.4365582723
 20
7.2237827563
 11
13.4435463806
 21
7.230532751
  0
LINE
  5
32E
100
AcDbEntity
  8
0
100
AcDbLine
 62
4
  6
CONTINUOUS
 10
13.4400523265
 20
7.1228377606
 11
13.4540285431
 21
7.1363377499
  0
LINE
  5
32F
100
AcDbEntity
  8
0
100
AcDbLine
 62
4
  6
CONTINUOUS
 10
13.4435463806
 20
7.0218927648
 11
13.4365582723
 21
7.0151427702
  0
LINE
  5
330
100
AcDbEntity
  8
0
100
AcDbLine
 62
7
  6
CONTINUOUS
 10
13.3096076227
 20
7.0246564944
 11
13.3102243004
 21
7.0252410926
  0
LINE
  5
331
100
AcDbEntity
  8
0
100
AcDbLine
 62
4
  6
CONTINUOUS
 10
12.9734796151
 20
10.2033948815
 11
12.9664915068
 21
10.2140315528
  0
LINE
  5
332
100
AcDbEntity
  8
0
100
AcDbLine
 62
4
  6
CONTINUOUS
 10
12.9804677234
 20
10.3318515306
 11
12.9874558317
 21
10.3212148639
  0
LINE
  5
333
100
AcDbEntity
  8
0
100
AcDbLine
 62
4
  6
CONTINUOUS
 10
12.9804677234
 20
10.4187848623
 11
12.9874558317
 21
10.4081481956
  0
LINE
  5
334
100
AcDbEntity
  8
0
100
AcDbLine
 62
4
  6
CONTINUOUS
 10
13.6461682579
 20
8.9068492639
 11
13.6408439852
 21
8.9166092602
  0
LINE
  5
335
100
AcDbEntity
  8
0
100
AcDbLine
 62
4
  6
CONTINUOUS
 10
13.6927556126
 20
8.3736183715
 11
13.6847692069
 21
8.3957098092
  0
LINE
  5
336
100
AcDbEntity
  8
0
100
AcDbLine
 62
4
  6
CONTINUOUS
 10
13.3706371016
 20
9.3351796799
 11
13.3746303061
 21
9.324133958
  0
LINE
  5
337
100
AcDbEntity
  8
0
100
AcDbLine
 62
4
  6
CONTINUOUS
 10
13.7047352345
 20
8.5938297845
 11
13.7127216401
 21
8.5717383499
  0
LINE
  5
338
100
AcDbEntity
  8
0
100
AcDbLine
 62
4
  6
CONTINUOUS
 10
13.6461682579
 20
8.7876264093
 11
13.6381818455
 21
8.8097178406
  0
LINE
  5
339
100
AcDbEntity
  8
0
100
AcDbLine
 62
4
  6
CONTINUOUS
 10
13.6222090275
 20
8.9433178443
 11
13.6142226219
 21
8.9654092788
  0
LINE
  5
33A
100
AcDbEntity
  8
0
100
AcDbLine
 62
4
  6
CONTINUOUS
 10
13.748660479
 20
8.6362583152
 11
13.7566468846
 21
8.6141668806
  0
LINE
  5
33B
100
AcDbEntity
  8
0
100
AcDbLine
 62
4
  6
CONTINUOUS
 10
13.658147873
 20
8.9184206843
 11
13.6661342787
 21
8.8963292435
  0
LINE
  5
33C
100
AcDbEntity
  8
0
100
AcDbLine
 62
4
  6
CONTINUOUS
 10
13.5423449052
 20
9.4414252707
 11
13.546338108
 21
9.4303795472
  0
LINE
  5
33D
100
AcDbEntity
  8
0
100
AcDbLine
 62
4
  6
CONTINUOUS
 10
13.658147873
 20
9.0078378159
 11
13.6634721391
 21
8.9831749517
  0
LINE
  5
33E
100
AcDbEntity
  8
0
100
AcDbLine
 62
4
  6
CONTINUOUS
 10
13.6528235747
 20
9.5481394772
 11
13.6554857011
 21
9.5358080324
  0
LINE
  5
33F
100
AcDbEntity
  8
0
100
AcDbLine
 62
4
  6
CONTINUOUS
 10
13.4345283753
 20
9.3968939149
 11
13.4624808085
 21
9.2152539074
  0
LINE
  5
340
100
AcDbEntity
  8
0
100
AcDbLine
 62
4
  6
CONTINUOUS
 10
13.5623109575
 20
8.825849327
 11
13.5782837764
 21
8.7220550316
  0
LINE
  5
341
100
AcDbEntity
  8
0
100
AcDbLine
 62
4
  6
CONTINUOUS
 10
13.6967488192
 20
9.5607622973
 11
13.6927556297
 21
9.5867108827
  0
LINE
  5
342
100
AcDbEntity
  8
0
100
AcDbLine
 62
4
  6
CONTINUOUS
 10
13.8458284806
 20
9.6749564841
 11
13.8458284806
 21
9.71966505
  0
LINE
  5
343
100
AcDbEntity
  8
0
100
AcDbLine
 62
4
  6
CONTINUOUS
 10
13.869787671
 20
9.6235850053
 11
13.869787671
 21
9.6682935757
  0
LINE
  5
344
100
AcDbEntity
  8
0
100
AcDbLine
 62
4
  6
CONTINUOUS
 10
14.236463737
 20
9.9020107173
 11
14.2329696828
 21
9.8464757234
  0
LINE
  5
345
100
AcDbEntity
  8
0
100
AcDbLine
 62
4
  6
CONTINUOUS
 10
14.2329696828
 20
10.0203423744
 11
14.236463737
 21
10.0411040456
  0
LINE
  5
346
100
AcDbEntity
  8
0
100
AcDbLine
 62
4
  6
CONTINUOUS
 10
14.2434518453
 20
9.9435340409
 11
14.236463737
 21
9.9020107173
  0
LINE
  5
347
100
AcDbEntity
  8
0
100
AcDbLine
 62
4
  6
CONTINUOUS
 10
14.260922116
 20
10.0125690304
 11
14.2574280619
 21
9.9918073593
  0
LINE
  5
348
100
AcDbEntity
  8
0
100
AcDbLine
 62
4
  6
CONTINUOUS
 10
13.8498216701
 20
9.6688783724
 11
13.8458284806
 21
9.6749564841
  0
LINE
  5
349
100
AcDbEntity
  8
0
100
AcDbLine
 62
4
  6
CONTINUOUS
 10
13.869787671
 20
9.6682935757
 11
13.8657944815
 21
9.6743716875
  0
LINE
  5
34A
100
AcDbEntity
  8
0
100
AcDbLine
 62
4
  6
CONTINUOUS
 10
13.7127216306
 20
9.4718708514
 11
13.7167148467
 21
9.4608251454
  0
LINE
  5
34B
100
AcDbEntity
  8
0
100
AcDbLine
 62
4
  6
CONTINUOUS
 10
13.7566469018
 20
9.499396551
 11
13.7526536856
 21
9.5104422569
  0
LINE
  5
34C
100
AcDbEntity
  8
0
100
AcDbLine
 62
4
  6
CONTINUOUS
 10
13.8138828046
 20
9.554682191
 11
13.8098896151
 21
9.5657279227
  0
LINE
  5
34D
100
AcDbEntity
  8
0
100
AcDbLine
 62
4
  6
CONTINUOUS
 10
13.8458284806
 20
9.6004422031
 11
13.8498216701
 21
9.5893964714
  0
LINE
  5
34E
100
AcDbEntity
  8
0
100
AcDbLine
 62
4
  6
CONTINUOUS
 10
13.8657944815
 20
9.7538535884
 11
13.869787671
 21
9.7428078521
  0
LINE
  5
34F
100
AcDbEntity
  8
0
100
AcDbLine
 62
4
  6
CONTINUOUS
 10
14.260922116
 20
10.0473423531
 11
14.260922116
 21
10.0125690304
  0
LINE
  5
350
100
AcDbEntity
  8
0
100
AcDbLine
 62
7
  6
CONTINUOUS
 10
14.2995897087
 20
5.7814925787
 11
14.2995897087
 21
12.1928256306
  0
LINE
  5
351
100
AcDbEntity
  8
0
100
AcDbLine
 62
4
  6
CONTINUOUS
 10
11.0483491929
 20
4.7203515277
 11
12.2018110608
 21
5.1117336072
  0
LINE
  5
352
100
AcDbEntity
  8
0
100
AcDbLine
 62
4
  6
CONTINUOUS
 10
14.2504399536
 20
10.0719906963
 11
14.2574280619
 21
10.0613540296
  0
LINE
  5
353
100
AcDbEntity
  8
0
100
AcDbLine
 62
4
  6
CONTINUOUS
 10
14.2574280619
 20
10.0613540296
 11
14.260922116
 21
10.0473423531
  0
LINE
  5
354
100
AcDbEntity
  8
0
100
AcDbLine
 62
7
  6
CONTINUOUS
 10
14.2995897087
 20
12.1928256306
 11
9.0835899377
 21
12.5545564433
  0
LINE
  5
355
100
AcDbEntity
  8
0
100
AcDbLine
 62
7
  6
CONTINUOUS
 10
12.9164100623
 20
4.4454435567
 11
14.2995897087
 21
5.7814925787
  0
ARC
  5
356
100
AcDbEntity
  8
0
100
AcDbCircle
 62
7
  6
CONTINUOUS
 10
11.222090061
 20
7.322074543
 40
0.6686716244
100
AcDbArc
 50
178.2763058853
 51
179.9838943887
  0
ARC
  5
357
100
AcDbEntity
  8
0
100
AcDbCircle
 62
7
  6
CONTINUOUS
 10
10.3556241732
 20
10.3516821367
 40
0.385572409
100
AcDbArc
 50
312.4671940158
 51
313.1402720906
  0
ARC
  5
358
100
AcDbEntity
  8
0
100
AcDbCircle
 62
7
  6
CONTINUOUS
 10
10.2759955022
 20
10.4341158997
 40
0.3854149654
100
AcDbArc
 50
135.1395581064
 51
135.5460572089
  0
ARC
  5
359
100
AcDbEntity
  8
0
100
AcDbCircle
 62
7
  6
CONTINUOUS
 10
10.297345551
 20
10.3976253844
 40
0.2644897413
100
AcDbArc
 50
85.9850732522
 51
98.6650740431
  0
ARC
  5
35A
100
AcDbEntity
  8
0
100
AcDbCircle
 62
7
  6
CONTINUOUS
 10
10.3219650893
 20
10.4305347356
 40
0.2356840486
100
AcDbArc
 50
101.8347833385
 51
105.7459491327
  0
ARC
  5
35B
100
AcDbEntity
  8
0
100
AcDbCircle
 62
7
  6
CONTINUOUS
 10
10.3537904917
 20
10.3976180662
 40
0.2356367635
100
AcDbArc
 50
342.2481127357
 51
345.791289725
  0
ARC
  5
35C
100
AcDbEntity
  8
0
100
AcDbCircle
 62
7
  6
CONTINUOUS
 10
10.717921813
 20
7.0404071643
 40
0.1014627042
100
AcDbArc
 50
140.276816822
 51
140.8574533934
  0
SPLINE
  5
35D
100
AcDbEntity
  8
0
100
AcDbSpline
 62
7
  6
CONTINUOUS
 70
0
 71
3
 72
15
 73
11
 74
0
 42
0.0000001
 43
0.0000001
 44
0.0000000001
 40
0.0
 40
0.0
 40
0.0
 40
0.0
 40
0.1029995036
 40
0.2120292663
 40
0.3272750179
 40
0.4488673975
 40
0.5768990587
 40
0.711425149
 40
0.8524612452
 40
1.0
 40
1.0
 40
1.0
 40
1.0
 10
10.6505191417
 20
7.1164243169
 30
0.0
 10
10.6527289754
 20
7.1184807544
 30
0.0
 10
10.6574136387
 20
7.12256993
 30
0.0
 10
10.6649799336
 20
7.1284714134
 30
0.0
 10
10.6732733933
 20
7.134306124
 30
0.0
 10
10.6822851135
 20
7.1400684543
 30
0.0
 10
10.692006442
 20
7.1457526122
 30
0.0
 10
10.702427741
 20
7.1513526974
 30
0.0
 10
10.7135380901
 20
7.1568634834
 30
0.0
 10
10.7212244635
 20
7.1603947882
 30
0.0
 10
10.725177391
 20
7.1621472952
 30
0.0
  0
SPLINE
  5
35E
100
AcDbEntity
  8
0
100
AcDbSpline
 62
7
  6
CONTINUOUS
 70
0
 71
3
 72
15
 73
11
 74
0
 42
0.0000001
 43
0.0000001
 44
0.0000000001
 40
0.0
 40
0.0
 40
0.0
 40
0.0
 40
0.1090323895
 40
0.2197882602
 40
0.3339052666
 40
0.4528710961
 40
0.5779738364
 40
0.7102985311
 40
0.8507388906
 40
1.0
 40
1.0
 40
1.0
 40
1.0
 10
10.6114685133
 20
7.0532544089
 30
0.0
 10
10.611468586
 20
7.0554808322
 30
0.0
 10
10.6117654736
 20
7.0599742486
 30
0.0
 10
10.6130947656
 20
7.0666794709
 30
0.0
 10
10.6153044366
 20
7.0733617039
 30
0.0
 10
10.6183885106
 20
7.0800098931
 30
0.0
 10
10.6223385837
 20
7.0866176548
 30
0.0
 10
10.6271476847
 20
7.0931790031
 30
0.0
 10
10.6328091142
 20
7.0996874537
 30
0.0
 10
10.6370139863
 20
7.1038563212
 30
0.0
 10
10.6392451809
 20
7.105932709
 30
0.0
  0
SPLINE
  5
35F
100
AcDbEntity
  8
0
100
AcDbSpline
 62
7
  6
CONTINUOUS
 70
0
 71
3
 72
36
 73
32
 74
0
 42
0.0000001
 43
0.0000001
 44
0.0000000001
 40
0.0
 40
0.0
 40
0.0
 40
0.0
 40
0.1057626755
 40
0.2068506256
 40
0.3026631395
 40
0.3484205284
 40
0.392660274
 40
0.4353229473
 40
0.4763551793
 40
0.5157086029
 40
0.553339122
 40
0.5892111649
 40
0.6232945974
 40
0.655567902
 40
0.68602037
 40
0.714650456
 40
0.7414721634
 40
0.7665152206
 40
0.7898286461
 40
0.8114885593
 40
0.8316002466
 40
0.850307973
 40
0.8678017351
 40
0.8843212178
 40
0.9001588798
 40
0.9156499372
 40
0.9311547084
 40
0.9470323101
 40
0.9636156422
 40
0.9811928448
 40
1.0
 40
1.0
 40
1.0
 40
1.0
 10
11.0393198904
 20
6.8910700602
 30
0.0
 10
11.0212672856
 20
6.8933825319
 30
0.0
 10
10.9860154876
 20
6.8983563716
 30
0.0
 10
10.9346618492
 20
6.907087328
 30
0.0
 10
10.8937242205
 20
6.9153654829
 30
0.0
 10
10.8625622496
 20
6.9225368172
 30
0.0
 10
10.8404134415
 20
6.928072731
 30
0.0
 10
10.8191649644
 20
6.9338396203
 30
0.0
 10
10.7988526846
 20
6.9398275324
 30
0.0
 10
10.7795108179
 20
6.9460258989
 30
0.0
 10
10.7611721015
 20
6.9524249104
 30
0.0
 10
10.743867177
 20
6.9590129237
 30
0.0
 10
10.7276250729
 20
6.9657791261
 30
0.0
 10
10.7124729858
 20
6.9727123988
 30
0.0
 10
10.698435719
 20
6.9798003684
 30
0.0
 10
10.6855366865
 20
6.9870322828
 30
0.0
 10
10.6737966847
 20
6.9943959505
 30
0.0
 10
10.66323442
 20
7.0018797094
 30
0.0
 10
10.6538673823
 20
7.0094733733
 30
0.0
 10
10.6457098749
 20
7.0171654548
 30
0.0
 10
10.6387761011
 20
7.0249471968
 30
0.0
 10
10.6330795281
 20
7.0328099703
 30
0.0
 10
10.6286329889
 20
7.0407447644
 30
0.0
 10
10.6254535118
 20
7.0487424402
 30
0.0
 10
10.6235560671
 20
7.0567875794
 30
0.0
 10
10.6229541458
 20
7.0648588866
 30
0.0
 10
10.6236539793
 20
7.0729290608
 30
0.0
 10
10.6256477841
 20
7.0809714037
 30
0.0
 10
10.6289236976
 20
7.0889647362
 30
0.0
 10
10.6334639695
 20
7.0968939329
 30
0.0
 10
10.6371866135
 20
7.1019455757
 30
0.0
 10
10.6392295853
 20
7.10445569
 30
0.0
  0
SPLINE
  5
360
100
AcDbEntity
  8
0
100
AcDbSpline
 62
7
  6
CONTINUOUS
 70
0
 71
3
 72
9
 73
5
 74
0
 42
0.0000001
 43
0.0000001
 44
0.0000000001
 40
0.0
 40
0.0
 40
0.0
 40
0.0
 40
0.2401414711
 40
1.0
 40
1.0
 40
1.0
 40
1.0
 10
10.639882684
 20
7.1052498561
 30
0.0
 10
10.6406721758
 20
7.106200076
 30
0.0
 10
10.6440310848
 20
7.1100976027
 30
0.0
 10
10.647657475
 20
7.1137612936
 30
0.0
 10
10.6505191417
 20
7.1164243169
 30
0.0
  0
SPLINE
  5
361
100
AcDbEntity
  8
0
100
AcDbSpline
 62
7
  6
CONTINUOUS
 70
0
 71
3
 72
33
 73
29
 74
0
 42
0.0000001
 43
0.0000001
 44
0.0000000001
 40
0.0
 40
0.0
 40
0.0
 40
0.0
 40
0.0976028577
 40
0.1917329279
 40
0.2819724803
 40
0.3679372989
 40
0.4492743214
 40
0.5256653076
 40
0.5968368063
 40
0.6303951674
 40
0.6625702085
 40
0.6933430182
 40
0.722700808
 40
0.7506367728
 40
0.777148987
 40
0.8022440536
 40
0.8259380422
 40
0.8482559699
 40
0.8692362312
 40
0.8889331743
 40
0.9074179088
 40
0.9247837454
 40
0.9330858571
 40
0.9411553002
 40
0.9566687672
 40
0.9715063114
 40
0.9858739362
 40
1.0
 40
1.0
 40
1.0
 40
1.0
 10
11.0462813864
 20
6.875532862
 30
0.0
 10
11.0303912583
 20
6.8774781187
 30
0.0
 10
10.9992163891
 20
6.881637103
 30
0.0
 10
10.953525282
 20
6.8888267907
 30
0.0
 10
10.9099079266
 20
6.8968288135
 30
0.0
 10
10.8685812262
 20
6.9056020854
 30
0.0
 10
10.8297489243
 20
6.9151022786
 30
0.0
 10
10.793603106
 20
6.9252820614
 30
0.0
 10
10.7653380251
 20
6.9344588303
 30
0.0
 10
10.744235283
 20
6.9421393951
 30
0.0
 10
10.7294992751
 20
6.9479239914
 30
0.0
 10
10.7155605209
 20
6.9538392058
 30
0.0
 10
10.7024360776
 20
6.9598777556
 30
0.0
 10
10.6901417645
 20
6.9660317727
 30
0.0
 10
10.6786927696
 20
6.9722942476
 30
0.0
 10
10.6681029611
 20
6.9786576418
 30
0.0
 10
10.6583847152
 20
6.9851139249
 30
0.0
 10
10.6495499159
 20
6.9916561543
 30
0.0
 10
10.6416092577
 20
6.9982771272
 30
0.0
 10
10.6345716247
 20
7.0049694304
 30
0.0
 10
10.6284464853
 20
7.0117263423
 30
0.0
 10
10.6240449621
 20
7.0174907263
 30
0.0
 10
10.6210129161
 20
7.0221222481
 30
0.0
 10
10.6183721691
 20
7.0266383958
 30
0.0
 10
10.6156250326
 20
7.0323254986
 30
0.0
 10
10.613231204
 20
7.0392782946
 30
0.0
 10
10.6117902185
 20
7.0462578852
 30
0.0
 10
10.6114684376
 20
7.0509374616
 30
0.0
 10
10.6114685133
 20
7.0532544089
 30
0.0
  0
SPLINE
  5
362
100
AcDbEntity
  8
0
100
AcDbSpline
 62
7
  6
CONTINUOUS
 70
0
 71
3
 72
31
 73
27
 74
0
 42
0.0000001
 43
0.0000001
 44
0.0000000001
 40
0.0
 40
0.0
 40
0.0
 40
0.0
 40
0.0979795134
 40
0.1919959987
 40
0.2817396624
 40
0.3669287259
 40
0.4473075409
 40
0.5226583139
 40
0.5927995391
 40
0.6576011382
 40
0.6879771107
 40
0.7169975613
 40
0.7446649301
 40
0.7709877667
 40
0.7959835027
 40
0.8196770627
 40
0.8421021401
 40
0.8633051875
 40
0.8833469107
 40
0.9023028468
 40
0.9202666107
 40
0.9373538128
 40
0.9537017397
 40
0.9694694545
 40
0.9848369181
 40
1.0
 40
1.0
 40
1.0
 40
1.0
 10
11.0228428112
 20
6.9238065573
 30
0.0
 10
11.0117121544
 20
6.9256512244
 30
0.0
 10
10.9899394327
 20
6.9295035354
 30
0.0
 10
10.958134121
 20
6.9359193062
 30
0.0
 10
10.9279422992
 20
6.9428351075
 30
0.0
 10
10.8994814705
 20
6.9502226871
 30
0.0
 10
10.8728620495
 20
6.9580538082
 30
0.0
 10
10.8481863469
 20
6.9662964051
 30
0.0
 10
10.8255499092
 20
6.9749191758
 30
0.0
 10
10.8080980913
 20
6.9825485786
 30
0.0
 10
10.7952553339
 20
6.9888457634
 30
0.0
 10
10.7863947699
 20
6.9935402319
 30
0.0
 10
10.7781052387
 20
6.9983040177
 30
0.0
 10
10.7703948692
 20
7.0031330173
 30
0.0
 10
10.7632707056
 20
7.008022335
 30
0.0
 10
10.7567393731
 20
7.0129674383
 30
0.0
 10
10.7508073938
 20
7.0179642732
 30
0.0
 10
10.7454804266
 20
7.0230085061
 30
0.0
 10
10.7407632756
 20
7.0280956766
 30
0.0
 10
10.7366608185
 20
7.0332218459
 30
0.0
 10
10.733178254
 20
7.0383834412
 30
0.0
 10
10.7303196761
 20
7.0435761348
 30
0.0
 10
10.7280893385
 20
7.0487954634
 30
0.0
 10
10.7264922515
 20
7.054036857
 30
0.0
 10
10.7255326671
 20
7.0592930208
 30
0.0
 10
10.7253187695
 20
7.06281227
 30
0.0
 10
10.7253188177
 20
7.0645583201
 30
0.0
  0
SPLINE
  5
363
100
AcDbEntity
  8
0
100
AcDbSpline
 62
7
  6
CONTINUOUS
 70
0
 71
3
 72
15
 73
11
 74
0
 42
0.0000001
 43
0.0000001
 44
0.0000000001
 40
0.0
 40
0.0
 40
0.0
 40
0.0
 40
0.1379225607
 40
0.2728463245
 40
0.404417088
 40
0.532281094
 40
0.6560880185
 40
0.7755114091
 40
0.8902434116
 40
1.0
 40
1.0
 40
1.0
 40
1.0
 10
11.1107189965
 20
6.6677477066
 30
0.0
 10
11.0976999401
 20
6.6689769938
 30
0.0
 10
11.0719636946
 20
6.6716136954
 30
0.0
 10
11.0338878408
 20
6.6761583064
 30
0.0
 10
10.9968419831
 20
6.6812392168
 30
0.0
 10
10.9609374499
 20
6.6868403171
 30
0.0
 10
10.9262838065
 20
6.6929450889
 30
0.0
 10
10.8929869706
 20
6.6995340721
 30
0.0
 10
10.8611484906
 20
6.7065874979
 30
0.0
 10
10.840484579
 20
6.7117020253
 30
0.0
 10
10.830418535
 20
6.714341866
 30
0.0
  0
SPLINE
  5
364
100
AcDbEntity
  8
0
100
AcDbSpline
 62
7
  6
CONTINUOUS
 70
0
 71
3
 72
19
 73
15
 74
0
 42
0.0000001
 43
0.0000001
 44
0.0000000001
 40
0.0
 40
0.0
 40
0.0
 40
0.0
 40
0.1528983927
 40
0.2978695827
 40
0.4348159286
 40
0.5637001566
 40
0.6251239772
 40
0.6845420306
 40
0.7419662742
 40
0.7974142132
 40
0.8509087349
 40
0.9024788955
 40
0.9521613295
 40
1.0
 40
1.0
 40
1.0
 40
1.0
 10
9.895070786
 20
11.2712754582
 30
0.0
 10
9.8872800905
 20
11.274155144
 30
0.0
 10
9.8721814674
 20
11.2799823492
 30
0.0
 10
9.8504285552
 20
11.2891991164
 30
0.0
 10
9.83020489
 20
11.2986456569
 30
0.0
 10
9.814411845
 20
11.306821079
 30
0.0
 10
9.8025904276
 20
11.3134781923
 30
0.0
 10
9.7942715759
 20
11.3184376176
 30
0.0
 10
9.786360986
 20
11.3234416778
 30
0.0
 10
9.7788621235
 20
11.3284881739
 30
0.0
 10
9.7717783278
 20
11.3335748722
 30
0.0
 10
9.7651127426
 20
11.3386996621
 30
0.0
 10
9.7588684009
 20
11.3438601149
 30
0.0
 10
9.7549145836
 20
11.3473885052
 30
0.0
 10
9.7530121759
 20
11.3491588871
 30
0.0
  0
SPLINE
  5
365
100
AcDbEntity
  8
0
100
AcDbSpline
 62
7
  6
CONTINUOUS
 70
0
 71
3
 72
41
 73
37
 74
0
 42
0.0000001
 43
0.0000001
 44
0.0000000001
 40
0.0
 40
0.0
 40
0.0
 40
0.0
 40
0.0311447108
 40
0.0467774295
 40
0.0624475249
 40
0.0938924651
 40
0.1254747955
 40
0.1571823865
 40
0.1890004527
 40
0.2209120576
 40
0.2528984154
 40
0.2689156901
 40
0.2849439669
 40
0.3170180467
 40
0.3491033961
 40
0.3811778561
 40
0.4132194776
 40
0.4452069463
 40
0.4771199982
 40
0.5089398211
 40
0.5406494354
 40
0.5722340478
 40
0.6036813723
 40
0.6349819093
 40
0.666129179
 40
0.6971198991
 40
0.7279541027
 40
0.7586351871
 40
0.7891698911
 40
0.819568195
 40
0.8498431417
 40
0.8800105805
 40
0.9100888347
 40
0.9400983003
 40
0.9700609852
 40
1.0
 40
1.0
 40
1.0
 40
1.0
 10
10.3084101768
 20
10.8133540248
 30
0.0
 10
10.3188545022
 20
10.8126297083
 30
0.0
 10
10.3345091217
 20
10.8109688508
 30
0.0
 10
10.3552372588
 20
10.8076311975
 30
0.0
 10
10.3759324735
 20
10.803533567
 30
0.0
 10
10.401594243
 20
10.7970077519
 30
0.0
 10
10.431850459
 20
10.7869911044
 30
0.0
 10
10.4614474316
 20
10.7748326602
 30
0.0
 10
10.4902266733
 20
10.7605974498
 30
0.0
 10
10.5180343476
 20
10.7443620811
 30
0.0
 10
10.54026716
 20
10.729242669
 30
0.0
 10
10.5574243338
 20
10.7162390627
 30
0.0
 10
10.5741499991
 20
10.7026381167
 30
0.0
 10
10.5941821402
 20
10.6845678761
 30
0.0
 10
10.616687351
 20
10.661295946
 30
0.0
 10
10.6375482294
 20
10.6365525798
 30
0.0
 10
10.6566528199
 20
10.6104702339
 30
0.0
 10
10.6738994248
 20
10.5831877314
 30
0.0
 10
10.6891959594
 20
10.5548504846
 30
0.0
 10
10.7024607557
 20
10.5256094745
 30
0.0
 10
10.7136229117
 20
10.4956205241
 30
0.0
 10
10.7226226927
 20
10.4650434611
 30
0.0
 10
10.7294118458
 20
10.4340412826
 30
0.0
 10
10.7339538635
 20
10.4027792965
 30
0.0
 10
10.7362241868
 20
10.3714242527
 30
0.0
 10
10.7362103453
 20
10.3401434644
 30
0.0
 10
10.7339120442
 20
10.3091039251
 30
0.0
 10
10.729341181
 20
10.2784714221
 30
0.0
 10
10.722521798
 20
10.2484096561
 30
0.0
 10
10.713489972
 20
10.2190793617
 30
0.0
 10
10.702293657
 20
10.1906374567
 30
0.0
 10
10.6889923933
 20
10.1632361385
 30
0.0
 10
10.6736572095
 20
10.1370222501
 30
0.0
 10
10.6563694972
 20
10.1121357418
 30
0.0
 10
10.6372234001
 20
10.0887116172
 30
0.0
 10
10.6232825033
 20
10.0741479943
 30
0.0
 10
10.6160438431
 20
10.0671559884
 30
0.0
  0
SPLINE
  5
366
100
AcDbEntity
  8
0
100
AcDbSpline
 62
7
  6
CONTINUOUS
 70
0
 71
3
 72
41
 73
37
 74
0
 42
0.0000001
 43
0.0000001
 44
0.0000000001
 40
0.0
 40
0.0
 40
0.0
 40
0.0
 40
0.0311446828
 40
0.0624424124
 40
0.0938872637
 40
0.1254695594
 40
0.1571770905
 40
0.1889951041
 40
0.2209066545
 40
0.2528929582
 40
0.284933772
 40
0.3170077963
 40
0.3490930898
 40
0.3811674939
 40
0.4132090598
 40
0.4451964726
 40
0.4771094688
 40
0.5089292364
 40
0.5406387947
 40
0.5722233505
 40
0.6036706186
 40
0.6349710988
 40
0.6661183108
 40
0.6971089744
 40
0.7279431223
 40
0.7586241507
 40
0.7891587995
 40
0.8195570492
 40
0.8498319415
 40
0.8799993261
 40
0.9100775268
 40
0.9400869391
 40
0.9550755387
 40
0.9700552973
 40
0.9850291337
 40
1.0
 40
1.0
 40
1.0
 40
1.0
 10
10.3084101768
 20
7.3973088414
 30
0.0
 10
10.3283117447
 20
7.395928663
 30
0.0
 10
10.3681264632
 20
7.3917048029
 30
0.0
 10
10.4273658259
 20
7.3810647838
 30
0.0
 10
10.4859706835
 20
7.3661613463
 30
0.0
 10
10.5436245173
 20
7.3470745548
 30
0.0
 10
10.6000210328
 20
7.3239067293
 30
0.0
 10
10.6548594091
 20
7.2967818606
 30
0.0
 10
10.7078474933
 20
7.2658448419
 30
0.0
 10
10.758702918
 20
7.2312608453
 30
0.0
 10
10.8071547669
 20
7.1932144708
 30
0.0
 10
10.852944856
 20
7.1519086111
 30
0.0
 10
10.8958291222
 20
7.1075634436
 30
0.0
 10
10.9355790431
 20
7.0604153889
 30
0.0
 10
10.9719826983
 20
7.0107157034
 30
0.0
 10
11.0048458594
 20
6.9587291682
 30
0.0
 10
11.0339931962
 20
6.9047328145
 30
0.0
 10
11.0592690995
 20
6.8490143707
 30
0.0
 10
11.080538413
 20
6.7918707229
 30
0.0
 10
11.0976873066
 20
6.7336064292
 30
0.0
 10
11.1106239033
 20
6.6745320978
 30
0.0
 10
11.1192786074
 20
6.6149627095
 30
0.0
 10
11.1236045706
 20
6.555216003
 30
0.0
 10
11.1235781201
 20
6.4956107995
 30
0.0
 10
11.1191986908
 20
6.4364652942
 30
0.0
 10
11.1104888628
 20
6.3780954009
 30
0.0
 10
11.0974945168
 20
6.3208130548
 30
0.0
 10
11.0802843982
 20
6.2649244911
 30
0.0
 10
11.0589499007
 20
6.2107288521
 30
0.0
 10
11.0336041547
 20
6.1585157316
 30
0.0
 10
11.0043838292
 20
6.1085664637
 30
0.0
 10
10.9769174597
 20
6.0690279518
 30
0.0
 10
10.9531837965
 20
6.0388075071
 30
0.0
 10
10.9345271813
 20
6.016873913
 30
0.0
 10
10.9150348914
 20
5.9956961628
 30
0.0
 10
10.9014985
 20
5.9820987322
 30
0.0
 10
10.8946012599
 20
5.9754365267
 30
0.0
  0
SPLINE
  5
367
100
AcDbEntity
  8
0
100
AcDbSpline
 62
7
  6
CONTINUOUS
 70
0
 71
3
 72
15
 73
11
 74
0
 42
0.0000001
 43
0.0000001
 44
0.0000000001
 40
0.0
 40
0.0
 40
0.0
 40
0.0
 40
0.1250387613
 40
0.2500354385
 40
0.3749983532
 40
0.4999584788
 40
0.624928613
 40
0.749920898
 40
0.8749434718
 40
1.0
 40
1.0
 40
1.0
 40
1.0
 10
10.4612168065
 20
10.3228632649
 30
0.0
 10
10.4653530939
 20
10.3225764124
 30
0.0
 10
10.4736445646
 20
10.3222614763
 30
0.0
 10
10.4860832729
 20
10.3225677181
 30
0.0
 10
10.498476402
 20
10.3236504677
 30
0.0
 10
10.5107769185
 20
10.3255033194
 30
0.0
 10
10.5229394711
 20
10.3281169136
 30
0.0
 10
10.5349191205
 20
10.3314783349
 30
0.0
 10
10.5466713633
 20
10.3355714439
 30
0.0
 10
10.5543263698
 20
10.3387757661
 30
0.0
 10
10.5581009952
 20
10.3404928121
 30
0.0
  0
SPLINE
  5
368
100
AcDbEntity
  8
0
100
AcDbSpline
 62
7
  6
CONTINUOUS
 70
0
 71
3
 72
37
 73
33
 74
0
 42
0.0000001
 43
0.0000001
 44
0.0000000001
 40
0.0
 40
0.0
 40
0.0
 40
0.0
 40
0.0350507389
 40
0.0697617054
 40
0.1041206874
 40
0.1381228842
 40
0.1717700355
 40
0.2050698942
 40
0.238035177
 40
0.2706825111
 40
0.3030314155
 40
0.3351032489
 40
0.366920272
 40
0.3985048567
 40
0.4298788665
 40
0.4610632801
 40
0.4920776924
 40
0.5229399194
 40
0.553665948
 40
0.5842698369
 40
0.6451434073
 40
0.7056380919
 40
0.7657717224
 40
0.8255013543
 40
0.8551817269
 40
0.8846999949
 40
0.9140146989
 40
0.9430665193
 40
0.9574685549
 40
0.9717703949
 40
0.9859540626
 40
1.0
 40
1.0
 40
1.0
 40
1.0
 10
11.1202688776
 20
6.5932908637
 30
0.0
 10
11.1085915462
 20
6.5948383234
 30
0.0
 10
11.0854319002
 20
6.5985793259
 30
0.0
 10
11.0512485129
 20
6.6061428306
 30
0.0
 10
11.0178979061
 20
6.6155753054
 30
0.0
 10
10.9854872509
 20
6.6268042631
 30
0.0
 10
10.9541066373
 20
6.6397457199
 30
0.0
 10
10.923830919
 20
6.6543069192
 30
0.0
 10
10.8947192681
 20
6.6703895196
 30
0.0
 10
10.8668161852
 20
6.6878923532
 30
0.0
 10
10.8401527616
 20
6.7067138561
 30
0.0
 10
10.8147482854
 20
6.7267540098
 30
0.0
 10
10.7906119822
 20
6.7479158073
 30
0.0
 10
10.7677447338
 20
6.7701062678
 30
0.0
 10
10.7461406338
 20
6.7932370841
 30
0.0
 10
10.7257884833
 20
6.8172249648
 30
0.0
 10
10.7066731467
 20
6.8419917956
 30
0.0
 10
10.68877672
 20
6.8674641936
 30
0.0
 10
10.6720789896
 20
6.8935741315
 30
0.0
 10
10.6514255334
 20
6.9290830936
 30
0.0
 10
10.6284700529
 20
6.9747725347
 30
0.0
 10
10.6053470609
 20
7.0312770334
 30
0.0
 10
10.5865364734
 20
7.0889502579
 30
0.0
 10
10.5743226705
 20
7.1377447262
 30
0.0
 10
10.5666096392
 20
7.1769676694
 30
0.0
 10
10.5618596118
 20
7.2063385204
 30
0.0
 10
10.5581337159
 20
7.235643293
 30
0.0
 10
10.5558820222
 20
7.2600000175
 30
0.0
 10
10.5546090689
 20
7.2793689056
 30
0.0
 10
10.5539233699
 20
7.2937665527
 30
0.0
 10
10.553509075
 20
7.3080547821
 30
0.0
 10
10.5534165667
 20
7.3175421195
 30
0.0
 10
10.553418463
 20
7.3222625039
 30
0.0
  0
SPLINE
  5
369
100
AcDbEntity
  8
0
100
AcDbSpline
 62
7
  6
CONTINUOUS
 70
0
 71
3
 72
19
 73
15
 74
0
 42
0.0000001
 43
0.0000001
 44
0.0000000001
 40
0.0
 40
0.0
 40
0.0
 40
0.0
 40
0.1273276112
 40
0.2538197126
 40
0.3795264544
 40
0.5045235342
 40
0.5668075908
 40
0.6289556139
 40
0.69098437
 40
0.7529118409
 40
0.8147570139
 40
0.8765397109
 40
0.9382804089
 40
1.0
 40
1.0
 40
1.0
 40
1.0
 10
12.2789665347
 20
5.6933035114
 30
0.0
 10
12.2789665347
 20
5.68356057
 30
0.0
 10
12.2780362936
 20
5.6641252178
 30
0.0
 10
12.2738292019
 20
5.6353456141
 30
0.0
 10
12.2668538408
 20
5.6072904944
 30
0.0
 10
12.2587734606
 20
5.5846988463
 30
0.0
 10
12.2510023596
 20
5.5672591927
 30
0.0
 10
12.2445401595
 20
5.5545316203
 30
0.0
 10
12.2374531192
 20
5.5421729123
 30
0.0
 10
12.2297574622
 20
5.5302111122
 30
0.0
 10
12.2214708936
 20
5.5186740161
 30
0.0
 10
12.2126124632
 20
5.5075880887
 30
0.0
 10
12.2032029949
 20
5.4969792123
 30
0.0
 10
12.196575779
 20
5.490239823
 30
0.0
 10
12.1931789641
 20
5.4869587313
 30
0.0
  0
SPLINE
  5
36A
100
AcDbEntity
  8
0
100
AcDbSpline
 62
7
  6
CONTINUOUS
 70
0
 71
3
 72
19
 73
15
 74
0
 42
0.0000001
 43
0.0000001
 44
0.0000000001
 40
0.0
 40
0.0
 40
0.0
 40
0.0
 40
0.1273276112
 40
0.2538197126
 40
0.3795264544
 40
0.5045235342
 40
0.5668075908
 40
0.6289556139
 40
0.69098437
 40
0.7529118409
 40
0.8147570139
 40
0.8765397109
 40
0.9382804089
 40
1.0
 40
1.0
 40
1.0
 40
1.0
 10
8.9650678784
 20
5.9231231638
 30
0.0
 10
8.9650678784
 20
5.9133802224
 30
0.0
 10
8.9641376373
 20
5.8939448702
 30
0.0
 10
8.9599305455
 20
5.8651652665
 30
0.0
 10
8.9529551844
 20
5.8371101467
 30
0.0
 10
8.9448748043
 20
5.8145184987
 30
0.0
 10
8.9371037032
 20
5.7970788451
 30
0.0
 10
8.9306415032
 20
5.7843512726
 30
0.0
 10
8.9235544628
 20
5.7719925647
 30
0.0
 10
8.9158588059
 20
5.7600307646
 30
0.0
 10
8.9075722373
 20
5.7484936685
 30
0.0
 10
8.8987138069
 20
5.7374077411
 30
0.0
 10
8.8893043386
 20
5.7267988647
 30
0.0
 10
8.8826771227
 20
5.7200594754
 30
0.0
 10
8.8792803078
 20
5.7167783837
 30
0.0
  0
SPLINE
  5
36B
100
AcDbEntity
  8
0
100
AcDbSpline
 62
7
  6
CONTINUOUS
 70
0
 71
3
 72
19
 73
15
 74
0
 42
0.0000001
 43
0.0000001
 44
0.0000000001
 40
0.0
 40
0.0
 40
0.0
 40
0.0
 40
0.1273276112
 40
0.2538197126
 40
0.3795264544
 40
0.5045235342
 40
0.5668075908
 40
0.6289556139
 40
0.69098437
 40
0.7529118409
 40
0.8147570139
 40
0.8765397109
 40
0.9382804089
 40
1.0
 40
1.0
 40
1.0
 40
1.0
 10
8.9650678784
 20
7.4444564303
 30
0.0
 10
8.9650678784
 20
7.4347134889
 30
0.0
 10
8.9641376373
 20
7.4152781367
 30
0.0
 10
8.9599305455
 20
7.3864985331
 30
0.0
 10
8.9529551844
 20
7.3584434133
 30
0.0
 10
8.9448748043
 20
7.3358517652
 30
0.0
 10
8.9371037032
 20
7.3184121116
 30
0.0
 10
8.9306415032
 20
7.3056845392
 30
0.0
 10
8.9235544628
 20
7.2933258312
 30
0.0
 10
8.9158588059
 20
7.2813640311
 30
0.0
 10
8.9075722373
 20
7.2698269351
 30
0.0
 10
8.8987138069
 20
7.2587410076
 30
0.0
 10
8.8893043386
 20
7.2481321313
 30
0.0
 10
8.8826771227
 20
7.2413927419
 30
0.0
 10
8.8792803078
 20
7.2381116503
 30
0.0
  0
SPLINE
  5
36C
100
AcDbEntity
  8
0
100
AcDbSpline
 62
7
  6
CONTINUOUS
 70
0
 71
3
 72
19
 73
15
 74
0
 42
0.0000001
 43
0.0000001
 44
0.0000000001
 40
0.0
 40
0.0
 40
0.0
 40
0.0
 40
0.1273276112
 40
0.2538197126
 40
0.3795264544
 40
0.5045235342
 40
0.5668075908
 40
0.6289556139
 40
0.69098437
 40
0.7529118409
 40
0.8147570139
 40
0.8765397109
 40
0.9382804089
 40
1.0
 40
1.0
 40
1.0
 40
1.0
 10
12.2789665347
 20
7.2146367779
 30
0.0
 10
12.2789665347
 20
7.2048938365
 30
0.0
 10
12.2780362936
 20
7.1854584843
 30
0.0
 10
12.2738292019
 20
7.1566788807
 30
0.0
 10
12.2668538408
 20
7.1286237609
 30
0.0
 10
12.2587734606
 20
7.1060321128
 30
0.0
 10
12.2510023596
 20
7.0885924592
 30
0.0
 10
12.2445401595
 20
7.0758648868
 30
0.0
 10
12.2374531192
 20
7.0635061788
 30
0.0
 10
12.2297574622
 20
7.0515443787
 30
0.0
 10
12.2214708936
 20
7.0400072827
 30
0.0
 10
12.2126124632
 20
7.0289213552
 30
0.0
 10
12.2032029949
 20
7.0183124789
 30
0.0
 10
12.196575779
 20
7.0115730895
 30
0.0
 10
12.1931789641
 20
7.0082919979
 30
0.0
  0
SPLINE
  5
36D
100
AcDbEntity
  8
0
100
AcDbSpline
 62
7
  6
CONTINUOUS
 70
0
 71
3
 72
15
 73
11
 74
0
 42
0.0000001
 43
0.0000001
 44
0.0000000001
 40
0.0
 40
0.0
 40
0.0
 40
0.0
 40
0.1537859281
 40
0.2970051012
 40
0.4304439556
 40
0.5554814511
 40
0.6736029616
 40
0.7862092569
 40
0.894590465
 40
1.0
 40
1.0
 40
1.0
 40
1.0
 10
9.7811348507
 20
11.3271650771
 30
0.0
 10
9.7803952
 20
11.328329639
 30
0.0
 10
9.7790287457
 20
11.3306190942
 30
0.0
 10
9.7772542656
 20
11.3340514216
 30
0.0
 10
9.7758089334
 20
11.3373554191
 30
0.0
 10
9.7746722537
 20
11.3405399162
 30
0.0
 10
9.7738194197
 20
11.3436183529
 30
0.0
 10
9.7732273578
 20
11.3466053324
 30
0.0
 10
9.7728827488
 20
11.3495159568
 30
0.0
 10
9.7728077372
 20
11.3514346866
 30
0.0
 10
9.7728077372
 20
11.3523803042
 30
0.0
  0
SPLINE
  5
36E
100
AcDbEntity
  8
0
100
AcDbSpline
 62
7
  6
CONTINUOUS
 70
0
 71
3
 72
55
 73
51
 74
0
 42
0.0000001
 43
0.0000001
 44
0.0000000001
 40
0.0
 40
0.0
 40
0.0
 40
0.0
 40
0.0073042936
 40
0.0150784093
 40
0.0233375461
 40
0.0320921965
 40
0.0413489
 40
0.0511108469
 40
0.0613784628
 40
0.0721497587
 40
0.0834206464
 40
0.0951852656
 40
0.1074361281
 40
0.1201643065
 40
0.1333596274
 40
0.1470107199
 40
0.1611051536
 40
0.1756295567
 40
0.190569624
 40
0.2059102349
 40
0.2216355239
 40
0.2377288786
 40
0.2709495338
 40
0.3054277706
 40
0.3410100205
 40
0.3775355446
 40
0.4148376488
 40
0.4527448381
 40
0.4910819154
 40
0.5296710814
 40
0.568333026
 40
0.6068880006
 40
0.6451569002
 40
0.6829623401
 40
0.7201297364
 40
0.7564884217
 40
0.7918727545
 40
0.8261232596
 40
0.8427757978
 40
0.8590885128
 40
0.8750437783
 40
0.8906245691
 40
0.9058145603
 40
0.920598159
 40
0.9349605373
 40
0.9488877844
 40
0.9623667874
 40
0.9753854902
 40
0.9879334919
 40
1.0
 40
1.0
 40
1.0
 40
1.0
 10
11.6502045427
 20
11.3491600459
 30
0.0
 10
11.6470002672
 20
11.3461781178
 30
0.0
 10
11.6401683796
 20
11.3402531753
 30
0.0
 10
11.6290679451
 20
11.3317352746
 30
0.0
 10
11.6168160889
 20
11.3233252611
 30
0.0
 10
11.6034280735
 20
11.3150334042
 30
0.0
 10
11.5889197523
 20
11.3068692756
 30
0.0
 10
11.5733087322
 20
11.2988426591
 30
0.0
 10
11.556613944
 20
11.2909633433
 30
0.0
 10
11.5388557882
 20
11.2832410107
 30
0.0
 10
11.5200560668
 20
11.2756851586
 30
0.0
 10
11.5002379056
 20
11.2683052147
 30
0.0
 10
11.4794257702
 20
11.2611103553
 30
0.0
 10
11.4576454085
 20
11.2541095237
 30
0.0
 10
11.4349237869
 20
11.2473115115
 30
0.0
 10
11.4112890915
 20
11.2407247928
 30
0.0
 10
11.3867706659
 20
11.2343575857
 30
0.0
 10
11.3613989605
 20
11.2282179004
 30
0.0
 10
11.3352055173
 20
11.2223133828
 30
0.0
 10
11.308222921
 20
11.2166514269
 30
0.0
 10
11.2804846975
 20
11.2112391007
 30
0.0
 10
11.2421328949
 20
11.2042911738
 30
0.0
 10
11.1925534828
 20
11.196304556
 30
0.0
 10
11.1312280537
 20
11.18791304
 30
0.0
 10
11.0677642523
 20
11.1806581086
 30
0.0
 10
11.0024780162
 20
11.17457626
 30
0.0
 10
10.9356940518
 20
11.1696981701
 30
0.0
 10
10.8677447416
 20
11.1660484307
 30
0.0
 10
10.7989683055
 20
11.1636454273
 30
0.0
 10
10.7297071388
 20
11.1625012398
 30
0.0
 10
10.6603060717
 20
11.1626216386
 30
0.0
 10
10.5911106367
 20
11.1640060328
 30
0.0
 10
10.5224653335
 20
11.1666474308
 30
0.0
 10
10.4547118891
 20
11.1705325306
 30
0.0
 10
10.3881875708
 20
11.175641791
 30
0.0
 10
10.3232233398
 20
11.1819494283
 30
0.0
 10
10.2601426728
 20
11.1894236981
 30
0.0
 10
10.2089380425
 20
11.1966588943
 30
0.0
 10
10.1691634516
 20
11.2030211717
 30
0.0
 10
10.1402752395
 20
11.2080150181
 30
0.0
 10
10.1120862928
 20
11.2132692576
 30
0.0
 10
10.0846316643
 20
11.2187774012
 30
0.0
 10
10.057945526
 20
11.2245325379
 30
0.0
 10
10.0320610669
 20
11.2305274407
 30
0.0
 10
10.0070104628
 20
11.2367546524
 30
0.0
 10
9.9828248709
 20
11.2432063703
 30
0.0
 10
9.9595343674
 20
11.2498744674
 30
0.0
 10
9.9371675728
 20
11.256750732
 30
0.0
 10
9.9157527354
 20
11.2638264631
 30
0.0
 10
9.9018531935
 20
11.2687684672
 30
0.0
 10
9.895070786
 20
11.2712754582
 30
0.0
  0
SPLINE
  5
36F
100
AcDbEntity
  8
0
100
AcDbSpline
 62
7
  6
CONTINUOUS
 70
0
 71
3
 72
15
 73
11
 74
0
 42
0.0000001
 43
0.0000001
 44
0.0000000001
 40
0.0
 40
0.0
 40
0.0
 40
0.0
 40
0.1049976929
 40
0.2130176482
 40
0.325346533
 40
0.4433104682
 40
0.5683531657
 40
0.7020004544
 40
0.8456275246
 40
1.0
 40
1.0
 40
1.0
 40
1.0
 10
11.6304077372
 20
11.3523803042
 30
0.0
 10
11.6304077372
 20
11.3514204354
 30
0.0
 10
11.6303304159
 20
11.3494721942
 30
0.0
 10
11.6299750921
 20
11.3465162044
 30
0.0
 10
11.6293644072
 20
11.3434811294
 30
0.0
 10
11.6284842798
 20
11.3403511255
 30
0.0
 10
11.6273100838
 20
11.3371110396
 30
0.0
 10
11.6258162505
 20
11.3337470651
 30
0.0
 10
11.6239815423
 20
11.3302506491
 30
0.0
 10
11.6225688592
 20
11.3279190657
 30
0.0
 10
11.6218041094
 20
11.3267329939
 30
0.0
  0
SPLINE
  5
370
100
AcDbEntity
  8
0
100
AcDbSpline
 62
7
  6
CONTINUOUS
 70
0
 71
3
 72
23
 73
19
 74
0
 42
0.0000001
 43
0.0000001
 44
0.0000000001
 40
0.0
 40
0.0
 40
0.0
 40
0.0
 40
0.0616482102
 40
0.1233194434
 40
0.1850364728
 40
0.2468215621
 40
0.3086962116
 40
0.370680925
 40
0.4327950032
 40
0.4950563306
 40
0.5574811832
 40
0.6200840863
 40
0.6828775763
 40
0.7458723561
 40
0.8090769818
 40
0.8724965655
 40
0.9361390263
 40
1.0
 40
1.0
 40
1.0
 40
1.0
 10
10.0007765104
 20
10.7041280986
 30
0.0
 10
10.0057456373
 20
10.7089279046
 30
0.0
 10
10.0159461135
 20
10.7182639042
 30
0.0
 10
10.0319804373
 20
10.7314280309
 30
0.0
 10
10.0487110222
 20
10.7437220436
 30
0.0
 10
10.0660951485
 20
10.7551144223
 30
0.0
 10
10.0840891794
 20
10.7655765883
 30
0.0
 10
10.1026476957
 20
10.775082217
 30
0.0
 10
10.1217239358
 20
10.7836074226
 30
0.0
 10
10.1412698393
 20
10.7911307527
 30
0.0
 10
10.1612361779
 20
10.7976332602
 30
0.0
 10
10.1815726329
 20
10.8030986576
 30
0.0
 10
10.2022279808
 20
10.8075132696
 30
0.0
 10
10.2231502457
 20
10.8108660114
 30
0.0
 10
10.2442865986
 20
10.8131484002
 30
0.0
 10
10.2655843104
 20
10.8143549786
 30
0.0
 10
10.2869887033
 20
10.8144824813
 30
0.0
 10
10.3012706315
 20
10.8138491539
 30
0.0
 10
10.3084101768
 20
10.8133540248
 30
0.0
  0
SPLINE
  5
371
100
AcDbEntity
  8
0
100
AcDbSpline
 62
7
  6
CONTINUOUS
 70
0
 71
3
 72
15
 73
11
 74
0
 42
0.0000001
 43
0.0000001
 44
0.0000000001
 40
0.0
 40
0.0
 40
0.0
 40
0.0
 40
0.1233171271
 40
0.2468171901
 40
0.3706749979
 40
0.4950495722
 40
0.6200773419
 40
0.7458670892
 40
0.8724927417
 40
1.0
 40
1.0
 40
1.0
 40
1.0
 10
10.188870527
 20
10.5886303008
 30
0.0
 10
10.1940104633
 20
10.5935950837
 30
0.0
 10
10.2048419478
 20
10.6029859583
 30
0.0
 10
10.2225199639
 20
10.6152573071
 30
0.0
 10
10.2414625557
 20
10.6256018901
 30
0.0
 10
10.2614758152
 20
10.633913422
 30
0.0
 10
10.2823578907
 20
10.6401093099
 30
0.0
 10
10.3038984144
 20
10.6441276451
 30
0.0
 10
10.3258775042
 20
10.6459293336
 30
0.0
 10
10.3406309373
 20
10.6456415655
 30
0.0
 10
10.3480022382
 20
10.645130364
 30
0.0
  0
SPLINE
  5
372
100
AcDbEntity
  8
0
100
AcDbSpline
 62
7
  6
CONTINUOUS
 70
0
 71
3
 72
27
 73
23
 74
0
 42
0.0000001
 43
0.0000001
 44
0.0000000001
 40
0.0
 40
0.0
 40
0.0
 40
0.0
 40
0.0303202628
 40
0.0607531201
 40
0.0913011894
 40
0.1219656917
 40
0.1527464333
 40
0.1836418248
 40
0.2146489385
 40
0.2457635425
 40
0.3082703983
 40
0.3711271557
 40
0.4342607244
 40
0.4975857886
 40
0.5610086383
 40
0.6244313207
 40
0.6877558918
 40
0.7508886613
 40
0.8137443597
 40
0.8762499493
 40
0.938347571
 40
1.0
 40
1.0
 40
1.0
 40
1.0
 10
10.5799358482
 20
10.3252844304
 30
0.0
 10
10.5808376817
 20
10.3300580364
 30
0.0
 10
10.5823755489
 20
10.3396760325
 30
0.0
 10
10.5838760986
 20
10.3542347573
 30
0.0
 10
10.584570645
 20
10.3689097296
 30
0.0
 10
10.5844569939
 20
10.3836562119
 30
0.0
 10
10.583535506
 20
10.3984300498
 30
0.0
 10
10.5818091246
 20
10.4131866513
 30
0.0
 10
10.5792829173
 20
10.4278821709
 30
0.0
 10
10.5748528987
 20
10.447361106
 30
0.0
 10
10.5673499842
 20
10.4713370028
 30
0.0
 10
10.5553439179
 20
10.4991080052
 30
0.0
 10
10.5404635439
 20
10.5256025616
 30
0.0
 10
10.522888016
 20
10.5505013594
 30
0.0
 10
10.5028281784
 20
10.5735072271
 30
0.0
 10
10.480524162
 20
10.5943444902
 30
0.0
 10
10.4562430871
 20
10.6127637615
 30
0.0
 10
10.4302752471
 20
10.6285440168
 30
0.0
 10
10.4029316886
 20
10.6414957052
 30
0.0
 10
10.3745384077
 20
10.6514628223
 30
0.0
 10
10.3454398954
 20
10.658324477
 30
0.0
 10
10.3257187153
 20
10.6607826106
 30
0.0
 10
10.3158641593
 20
10.6614660264
 30
0.0
  0
SPLINE
  5
373
100
AcDbEntity
  8
0
100
AcDbSpline
 62
7
  6
CONTINUOUS
 70
0
 71
3
 72
40
 73
36
 74
0
 42
0.0000001
 43
0.0000001
 44
0.0000000001
 40
0.0
 40
0.0
 40
0.0
 40
0.0
 40
0.0299391354
 40
0.0449189788
 40
0.0599076659
 40
0.0899172509
 40
0.119995624
 40
0.1501631817
 40
0.1804382476
 40
0.2108366715
 40
0.2413714969
 40
0.2720527042
 40
0.3028870323
 40
0.3338778783
 40
0.3650252742
 40
0.3963259371
 40
0.4277733869
 40
0.4593581243
 40
0.4910678632
 40
0.5228878112
 40
0.5548009889
 40
0.5867885846
 40
0.6188303344
 40
0.6509049237
 40
0.6829904025
 40
0.7150646111
 40
0.7471056072
 40
0.7790920918
 40
0.8110038191
 40
0.8428220199
 40
0.8745297018
 40
0.90611226
 40
0.9375570501
 40
0.9688555361
 40
1.0
 40
1.0
 40
1.0
 40
1.0
 10
10.5071339493
 20
10.2591397801
 30
0.0
 10
10.5108783413
 20
10.2627565747
 30
0.0
 10
10.5162865943
 20
10.2684065203
 30
0.0
 10
10.5230369703
 20
10.2763428287
 30
0.0
 10
10.5294800234
 20
10.2845468256
 30
0.0
 10
10.5369360999
 20
10.2952801524
 30
0.0
 10
10.5448684354
 20
10.3088397399
 30
0.0
 10
10.5517489069
 20
10.3230138598
 30
0.0
 10
10.5575404773
 20
10.3377261673
 30
0.0
 10
10.5622124275
 20
10.3528980389
 30
0.0
 10
10.56573993
 20
10.3684482774
 30
0.0
 10
10.5681043279
 20
10.3842937465
 30
0.0
 10
10.569293182
 20
10.400349766
 30
0.0
 10
10.5693003361
 20
10.416530578
 30
0.0
 10
10.5681259437
 20
10.4327497999
 30
0.0
 10
10.5657764573
 20
10.4489208842
 30
0.0
 10
10.562264582
 20
10.4649575752
 30
0.0
 10
10.557609203
 20
10.4807743635
 30
0.0
 10
10.5518352805
 20
10.4962869351
 30
0.0
 10
10.5449737145
 20
10.5114126151
 30
0.0
 10
10.5370611783
 20
10.5260708019
 30
0.0
 10
10.5281399233
 20
10.5401833907
 30
0.0
 10
10.5182575545
 20
10.5536751848
 30
0.0
 10
10.507466779
 20
10.5664742911
 30
0.0
 10
10.4958251261
 20
10.5785124984
 30
0.0
 10
10.4833946489
 20
10.5897256427
 30
0.0
 10
10.4702415924
 20
10.6000539436
 30
0.0
 10
10.4564360424
 20
10.6094423155
 30
0.0
 10
10.4420515562
 20
10.6178406704
 30
0.0
 10
10.4271647822
 20
10.6252041502
 30
0.0
 10
10.4118550179
 20
10.6314934491
 30
0.0
 10
10.3962039612
 20
10.6366748253
 30
0.0
 10
10.3802946592
 20
10.640720695
 30
0.0
 10
10.3642131603
 20
10.6436090304
 30
0.0
 10
10.3534047759
 20
10.6447556968
 30
0.0
 10
10.3480022382
 20
10.645130364
 30
0.0
  0
SPLINE
  5
374
100
AcDbEntity
  8
0
100
AcDbSpline
 62
7
  6
CONTINUOUS
 70
0
 71
3
 72
33
 73
29
 74
0
 42
0.0000001
 43
0.0000001
 44
0.0000000001
 40
0.0
 40
0.0
 40
0.0
 40
0.0
 40
0.0292104562
 40
0.058687483
 40
0.0884473374
 40
0.1184981867
 40
0.1794381209
 40
0.2414494422
 40
0.3043488992
 40
0.3678936869
 40
0.3998379872
 40
0.4318457365
 40
0.4638869664
 40
0.4959343453
 40
0.5599287876
 40
0.6237021335
 40
0.6554882525
 40
0.6871890314
 40
0.7188014696
 40
0.7503254683
 40
0.7817635711
 40
0.8131205467
 40
0.8444029546
 40
0.8756187898
 40
0.9067771186
 40
0.9378865736
 40
0.9689588474
 40
1.0
 40
1.0
 40
1.0
 40
1.0
 10
10.2746903695
 20
10.6377169645
 30
0.0
 10
10.2730108658
 20
10.6339454573
 30
0.0
 10
10.2698873704
 20
10.6262535952
 30
0.0
 10
10.2659438225
 20
10.6143823511
 30
0.0
 10
10.2627348421
 20
10.6021682272
 30
0.0
 10
10.2594367197
 20
10.5854138674
 30
0.0
 10
10.2572300138
 20
10.5638439852
 30
0.0
 10
10.2576552255
 20
10.5375219212
 30
0.0
 10
10.2611265804
 20
10.5110568613
 30
0.0
 10
10.2665060226
 20
10.4892750318
 30
0.0
 10
10.2722581786
 20
10.4721897019
 30
0.0
 10
10.2772916419
 20
10.4595827204
 30
0.0
 10
10.2830189198
 20
10.4472593298
 30
0.0
 10
10.2915489181
 20
10.431283119
 30
0.0
 10
10.3038390703
 20
10.4122713562
 30
0.0
 10
10.3181821464
 20
10.3948004165
 30
0.0
 10
10.3307713352
 20
10.3819415522
 30
0.0
 10
10.34073106
 20
10.3729032357
 30
0.0
 10
10.351185494
 20
10.3645013184
 30
0.0
 10
10.3621014973
 20
10.3567719944
 30
0.0
 10
10.3734431154
 20
10.3497498994
 30
0.0
 10
10.3851719652
 20
10.3434672067
 30
0.0
 10
10.3972470232
 20
10.3379534761
 30
0.0
 10
10.4096246867
 20
10.333235201
 30
0.0
 10
10.422258646
 20
10.3293355206
 30
0.0
 10
10.4351007299
 20
10.3262734055
 30
0.0
 10
10.4480994021
 20
10.3240643668
 30
0.0
 10
10.4568400122
 20
10.3231667966
 30
0.0
 10
10.4612168065
 20
10.3228632649
 30
0.0
  0
SPLINE
  5
375
100
AcDbEntity
  8
0
100
AcDbSpline
 62
7
  6
CONTINUOUS
 70
0
 71
3
 72
23
 73
19
 74
0
 42
0.0000001
 43
0.0000001
 44
0.0000000001
 40
0.0
 40
0.0
 40
0.0
 40
0.0
 40
0.0616482057
 40
0.123319439
 40
0.1850364697
 40
0.2468215573
 40
0.308696204
 40
0.3706809203
 40
0.4327950036
 40
0.4950563332
 40
0.5574811873
 40
0.6200840738
 40
0.6828776141
 40
0.7458723365
 40
0.8090768798
 40
0.872497055
 40
0.9361379958
 40
1.0
 40
1.0
 40
1.0
 40
1.0
 10
9.7222190937
 20
7.1891812277
 30
0.0
 10
9.7316876906
 20
7.198327167
 30
0.0
 10
9.7511245607
 20
7.2161167202
 30
0.0
 10
9.7816777238
 20
7.2412007086
 30
0.0
 10
9.8135576308
 20
7.2646266677
 30
0.0
 10
9.8466828442
 20
7.2863345723
 30
0.0
 10
9.8809701727
 20
7.3062700455
 30
0.0
 10
9.9163331279
 20
7.3243828409
 30
0.0
 10
9.9526826171
 20
7.3406274111
 30
0.0
 10
9.9899270416
 20
7.3549629089
 30
0.0
 10
10.0279725646
 20
7.3673533188
 30
0.0
 10
10.0667233484
 20
7.37776754
 30
0.0
 10
10.1060817796
 20
7.3861794365
 30
0.0
 10
10.1459487925
 20
7.3925679742
 30
0.0
 10
10.1862238494
 20
7.3969171027
 30
0.0
 10
10.2268060718
 20
7.3992161071
 30
0.0
 10
10.2675918048
 20
7.3994592001
 30
0.0
 10
10.2948056731
 20
7.3982523169
 30
0.0
 10
10.3084101768
 20
7.3973088414
 30
0.0
  0
SPLINE
  5
376
100
AcDbEntity
  8
0
100
AcDbSpline
 62
7
  6
CONTINUOUS
 70
0
 71
3
 72
41
 73
37
 74
0
 42
0.0000001
 43
0.0000001
 44
0.0000000001
 40
0.0
 40
0.0
 40
0.0
 40
0.0
 40
0.0299421215
 40
0.0449237664
 40
0.0599145163
 40
0.0899291726
 40
0.1200146011
 40
0.1350933633
 40
0.150197482
 40
0.1804849812
 40
0.2108989716
 40
0.2414525927
 40
0.2721557594
 40
0.3030149826
 40
0.3340332732
 40
0.3652101289
 40
0.3965415981
 40
0.4280204157
 40
0.4596362033
 40
0.4913757265
 40
0.5232232015
 40
0.5551606446
 40
0.5871682542
 40
0.6192248218
 40
0.6513081621
 40
0.6833955577
 40
0.7154642108
 40
0.7474916956
 40
0.7794564066
 40
0.8113379949
 40
0.8431177834
 40
0.8747791731
 40
0.9063079611
 40
0.9376927982
 40
0.9689250982
 40
1.0
 40
1.0
 40
1.0
 40
1.0
 10
11.7536127989
 20
5.942031085
 30
0.0
 10
11.7588609244
 20
5.9471004165
 30
0.0
 10
11.7670424726
 20
5.9543972379
 30
0.0
 10
11.7785005547
 20
5.9634510102
 30
0.0
 10
11.7903235238
 20
5.9720542567
 30
0.0
 10
11.8057505633
 20
5.981933579
 30
0.0
 10
11.8219276861
 20
5.9905751383
 30
0.0
 10
11.8352696258
 20
5.9967227597
 30
0.0
 10
11.8488871743
 20
6.002362891
 30
0.0
 10
11.8663578783
 20
6.0084276377
 30
0.0
 10
11.887887883
 20
6.0140798506
 30
0.0
 10
11.9098876848
 20
6.0180840354
 30
0.0
 10
11.9322353635
 20
6.0204181012
 30
0.0
 10
11.9548081579
 20
6.021069592
 30
0.0
 10
11.9774818653
 20
6.0200351918
 30
0.0
 10
12.0001318655
 20
6.0173208762
 30
0.0
 10
12.0226337061
 20
6.0129418259
 30
0.0
 10
12.0448638036
 20
6.0069223443
 30
0.0
 10
12.0667001063
 20
5.9992957127
 30
0.0
 10
12.0880227569
 20
5.9901040036
 30
0.0
 10
12.1087147401
 20
5.9793978454
 30
0.0
 10
12.1286625165
 20
5.9672361442
 30
0.0
 10
12.1477566369
 20
5.95368576
 30
0.0
 10
12.1658923354
 20
5.9388211418
 30
0.0
 10
12.1829700971
 20
5.9227239216
 30
0.0
 10
12.1988961987
 20
5.9054824702
 30
0.0
 10
12.2135832166
 20
5.887191417
 30
0.0
 10
12.2269505025
 20
5.8679511349
 30
0.0
 10
12.2389246231
 20
5.8478671978
 30
0.0
 10
12.2494397567
 20
5.8270498029
 30
0.0
 10
12.2584380615
 20
5.8056131885
 30
0.0
 10
12.2658699715
 20
5.7836749642
 30
0.0
 10
12.2716945178
 20
5.7613556568
 30
0.0
 10
12.2758794564
 20
5.7387773812
 30
0.0
 10
12.2784016243
 20
5.7160657589
 30
0.0
 10
12.2789665347
 20
5.7008761994
 30
0.0
 10
12.2789665347
 20
5.6933035114
 30
0.0
  0
SPLINE
  5
377
100
AcDbEntity
  8
0
100
AcDbSpline
 62
7
  6
CONTINUOUS
 70
0
 71
3
 72
41
 73
37
 74
0
 42
0.0000001
 43
0.0000001
 44
0.0000000001
 40
0.0
 40
0.0
 40
0.0
 40
0.0
 40
0.0299421215
 40
0.0449237664
 40
0.0599145163
 40
0.0899291726
 40
0.1200146011
 40
0.1350933633
 40
0.150197482
 40
0.1804849812
 40
0.2108989716
 40
0.2414525927
 40
0.2721557594
 40
0.3030149826
 40
0.3340332732
 40
0.3652101289
 40
0.3965415981
 40
0.4280204157
 40
0.4596362033
 40
0.4913757265
 40
0.5232232015
 40
0.5551606446
 40
0.5871682542
 40
0.6192248218
 40
0.6513081621
 40
0.6833955577
 40
0.7154642108
 40
0.7474916956
 40
0.7794564066
 40
0.8113379949
 40
0.8431177834
 40
0.8747791731
 40
0.9063079611
 40
0.9376927982
 40
0.9689250982
 40
1.0
 40
1.0
 40
1.0
 40
1.0
 10
8.4397141425
 20
6.1718507374
 30
0.0
 10
8.444962268
 20
6.1769200689
 30
0.0
 10
8.4531438162
 20
6.1842168903
 30
0.0
 10
8.4646018984
 20
6.1932706626
 30
0.0
 10
8.4764248675
 20
6.2018739091
 30
0.0
 10
8.491851907
 20
6.2117532314
 30
0.0
 10
8.5080290297
 20
6.2203947907
 30
0.0
 10
8.5213709694
 20
6.2265424121
 30
0.0
 10
8.5349885179
 20
6.2321825434
 30
0.0
 10
8.552459222
 20
6.2382472901
 30
0.0
 10
8.5739892267
 20
6.243899503
 30
0.0
 10
8.5959890285
 20
6.2479036878
 30
0.0
 10
8.6183367072
 20
6.2502377536
 30
0.0
 10
8.6409095015
 20
6.2508892443
 30
0.0
 10
8.663583209
 20
6.2498548442
 30
0.0
 10
8.6862332092
 20
6.2471405286
 30
0.0
 10
8.7087350498
 20
6.2427614783
 30
0.0
 10
8.7309651472
 20
6.2367419967
 30
0.0
 10
8.75280145
 20
6.2291153651
 30
0.0
 10
8.7741241005
 20
6.219923656
 30
0.0
 10
8.7948160838
 20
6.2092174978
 30
0.0
 10
8.8147638602
 20
6.1970557966
 30
0.0
 10
8.8338579806
 20
6.1835054124
 30
0.0
 10
8.8519936791
 20
6.1686407941
 30
0.0
 10
8.8690714408
 20
6.152543574
 30
0.0
 10
8.8849975423
 20
6.1353021226
 30
0.0
 10
8.8996845602
 20
6.1170110693
 30
0.0
 10
8.9130518462
 20
6.0977707873
 30
0.0
 10
8.9250259667
 20
6.0776868502
 30
0.0
 10
8.9355411004
 20
6.0568694553
 30
0.0
 10
8.9445394051
 20
6.0354328409
 30
0.0
 10
8.9519713152
 20
6.0134946166
 30
0.0
 10
8.9577958614
 20
5.9911753092
 30
0.0
 10
8.9619808
 20
5.9685970336
 30
0.0
 10
8.964502968
 20
5.9458854113
 30
0.0
 10
8.9650678784
 20
5.9306958518
 30
0.0
 10
8.9650678784
 20
5.9231231638
 30
0.0
  0
SPLINE
  5
378
100
AcDbEntity
  8
0
100
AcDbSpline
 62
7
  6
CONTINUOUS
 70
0
 71
3
 72
41
 73
37
 74
0
 42
0.0000001
 43
0.0000001
 44
0.0000000001
 40
0.0
 40
0.0
 40
0.0
 40
0.0
 40
0.0299421215
 40
0.0449237664
 40
0.0599145163
 40
0.0899291726
 40
0.1200146011
 40
0.1350933633
 40
0.150197482
 40
0.1804849812
 40
0.2108989716
 40
0.2414525927
 40
0.2721557594
 40
0.3030149826
 40
0.3340332732
 40
0.3652101289
 40
0.3965415981
 40
0.4280204157
 40
0.4596362033
 40
0.4913757265
 40
0.5232232015
 40
0.5551606446
 40
0.5871682542
 40
0.6192248218
 40
0.6513081621
 40
0.6833955577
 40
0.7154642108
 40
0.7474916956
 40
0.7794564066
 40
0.8113379949
 40
0.8431177834
 40
0.8747791731
 40
0.9063079611
 40
0.9376927982
 40
0.9689250982
 40
1.0
 40
1.0
 40
1.0
 40
1.0
 10
8.4397141425
 20
7.6931840039
 30
0.0
 10
8.444962268
 20
7.6982533354
 30
0.0
 10
8.4531438162
 20
7.7055501568
 30
0.0
 10
8.4646018984
 20
7.7146039291
 30
0.0
 10
8.4764248675
 20
7.7232071757
 30
0.0
 10
8.491851907
 20
7.733086498
 30
0.0
 10
8.5080290297
 20
7.7417280573
 30
0.0
 10
8.5213709694
 20
7.7478756786
 30
0.0
 10
8.5349885179
 20
7.7535158099
 30
0.0
 10
8.552459222
 20
7.7595805566
 30
0.0
 10
8.5739892267
 20
7.7652327696
 30
0.0
 10
8.5959890285
 20
7.7692369543
 30
0.0
 10
8.6183367072
 20
7.7715710202
 30
0.0
 10
8.6409095015
 20
7.7722225109
 30
0.0
 10
8.663583209
 20
7.7711881108
 30
0.0
 10
8.6862332092
 20
7.7684737951
 30
0.0
 10
8.7087350498
 20
7.7640947449
 30
0.0
 10
8.7309651472
 20
7.7580752632
 30
0.0
 10
8.75280145
 20
7.7504486317
 30
0.0
 10
8.7741241005
 20
7.7412569225
 30
0.0
 10
8.7948160838
 20
7.7305507644
 30
0.0
 10
8.8147638602
 20
7.7183890631
 30
0.0
 10
8.8338579806
 20
7.7048386789
 30
0.0
 10
8.8519936791
 20
7.6899740607
 30
0.0
 10
8.8690714408
 20
7.6738768405
 30
0.0
 10
8.8849975423
 20
7.6566353892
 30
0.0
 10
8.8996845602
 20
7.6383443359
 30
0.0
 10
8.9130518462
 20
7.6191040539
 30
0.0
 10
8.9250259667
 20
7.5990201167
 30
0.0
 10
8.9355411004
 20
7.5782027219
 30
0.0
 10
8.9445394051
 20
7.5567661074
 30
0.0
 10
8.9519713152
 20
7.5348278832
 30
0.0
 10
8.9577958614
 20
7.5125085757
 30
0.0
 10
8.9619808
 20
7.4899303002
 30
0.0
 10
8.964502968
 20
7.4672186779
 30
0.0
 10
8.9650678784
 20
7.4520291184
 30
0.0
 10
8.9650678784
 20
7.4444564303
 30
0.0
  0
SPLINE
  5
379
100
AcDbEntity
  8
0
100
AcDbSpline
 62
7
  6
CONTINUOUS
 70
0
 71
3
 72
41
 73
37
 74
0
 42
0.0000001
 43
0.0000001
 44
0.0000000001
 40
0.0
 40
0.0
 40
0.0
 40
0.0
 40
0.0299421215
 40
0.0449237664
 40
0.0599145163
 40
0.0899291726
 40
0.1200146011
 40
0.1350933633
 40
0.150197482
 40
0.1804849812
 40
0.2108989716
 40
0.2414525927
 40
0.2721557594
 40
0.3030149826
 40
0.3340332732
 40
0.3652101289
 40
0.3965415981
 40
0.4280204157
 40
0.4596362033
 40
0.4913757265
 40
0.5232232015
 40
0.5551606446
 40
0.5871682542
 40
0.6192248218
 40
0.6513081621
 40
0.6833955577
 40
0.7154642108
 40
0.7474916956
 40
0.7794564066
 40
0.8113379949
 40
0.8431177834
 40
0.8747791731
 40
0.9063079611
 40
0.9376927982
 40
0.9689250982
 40
1.0
 40
1.0
 40
1.0
 40
1.0
 10
11.7536127989
 20
7.4633643515
 30
0.0
 10
11.7588609244
 20
7.468433683
 30
0.0
 10
11.7670424726
 20
7.4757305044
 30
0.0
 10
11.7785005547
 20
7.4847842767
 30
0.0
 10
11.7903235238
 20
7.4933875233
 30
0.0
 10
11.8057505633
 20
7.5032668456
 30
0.0
 10
11.8219276861
 20
7.5119084049
 30
0.0
 10
11.8352696258
 20
7.5180560262
 30
0.0
 10
11.8488871743
 20
7.5236961576
 30
0.0
 10
11.8663578783
 20
7.5297609042
 30
0.0
 10
11.887887883
 20
7.5354131172
 30
0.0
 10
11.9098876848
 20
7.5394173019
 30
0.0
 10
11.9322353635
 20
7.5417513678
 30
0.0
 10
11.9548081579
 20
7.5424028585
 30
0.0
 10
11.9774818653
 20
7.5413684584
 30
0.0
 10
12.0001318655
 20
7.5386541428
 30
0.0
 10
12.0226337061
 20
7.5342750925
 30
0.0
 10
12.0448638036
 20
7.5282556108
 30
0.0
 10
12.0667001063
 20
7.5206289793
 30
0.0
 10
12.0880227569
 20
7.5114372701
 30
0.0
 10
12.1087147401
 20
7.500731112
 30
0.0
 10
12.1286625165
 20
7.4885694108
 30
0.0
 10
12.1477566369
 20
7.4750190265
 30
0.0
 10
12.1658923354
 20
7.4601544083
 30
0.0
 10
12.1829700971
 20
7.4440571881
 30
0.0
 10
12.1988961987
 20
7.4268157368
 30
0.0
 10
12.2135832166
 20
7.4085246835
 30
0.0
 10
12.2269505025
 20
7.3892844015
 30
0.0
 10
12.2389246231
 20
7.3692004644
 30
0.0
 10
12.2494397567
 20
7.3483830695
 30
0.0
 10
12.2584380615
 20
7.326946455
 30
0.0
 10
12.2658699715
 20
7.3050082308
 30
0.0
 10
12.2716945178
 20
7.2826889233
 30
0.0
 10
12.2758794564
 20
7.2601106478
 30
0.0
 10
12.2784016243
 20
7.2373990255
 30
0.0
 10
12.2789665347
 20
7.222209466
 30
0.0
 10
12.2789665347
 20
7.2146367779
 30
0.0
  0
SPLINE
  5
37A
100
AcDbEntity
  8
0
100
AcDbSpline
 62
7
  6
CONTINUOUS
 70
0
 71
3
 72
51
 73
47
 74
0
 42
0.0000001
 43
0.0000001
 44
0.0000000001
 40
0.0
 40
0.0
 40
0.0
 40
0.0
 40
0.0075209181
 40
0.0156243109
 40
0.0243313416
 40
0.0336552196
 40
0.0436032122
 40
0.0541773024
 40
0.0653755225
 40
0.0771922311
 40
0.0896189475
 40
0.1026445258
 40
0.1162556078
 40
0.1304368404
 40
0.1604381023
 40
0.1924941114
 40
0.2264274131
 40
0.2620424489
 40
0.2991284045
 40
0.3374617068
 40
0.3768083104
 40
0.4169258619
 40
0.4575657908
 40
0.4984753608
 40
0.5393996986
 40
0.5800838138
 40
0.620274619
 40
0.6597229573
 40
0.6981856495
 40
0.7354275802
 40
0.7712238504
 40
0.8053620473
 40
0.8376447096
 40
0.8678921268
 40
0.8822029164
 40
0.8959473528
 40
0.9091096964
 40
0.9216760575
 40
0.9336347797
 40
0.9449767241
 40
0.9556955942
 40
0.9657884458
 40
0.9752561582
 40
0.9841050712
 40
0.9923471344
 40
1.0
 40
1.0
 40
1.0
 40
1.0
 10
13.2765366679
 20
6.5394970102
 30
0.0
 10
13.275742976
 20
6.5404729032
 30
0.0
 10
13.2741791818
 20
6.5425703108
 30
0.0
 10
13.2719784542
 20
6.5459965008
 30
0.0
 10
13.2698406297
 20
6.5498117847
 30
0.0
 10
13.2677689585
 20
6.5540098527
 30
0.0
 10
13.2657667065
 20
6.5585842226
 30
0.0
 10
13.263836977
 20
6.5635275264
 30
0.0
 10
13.2619830015
 20
6.5688318176
 30
0.0
 10
13.2602077658
 20
6.5744884543
 30
0.0
 10
13.2585142652
 20
6.5804881939
 30
0.0
 10
13.2569053099
 20
6.5868211771
 30
0.0
 10
13.2553835519
 20
6.5934769835
 30
0.0
 10
13.2534377154
 20
6.6029459576
 30
0.0
 10
13.2512594661
 20
6.615513175
 30
0.0
 10
13.2490751049
 20
6.6314214353
 30
0.0
 10
13.2472889154
 20
6.6483235173
 30
0.0
 10
13.2459131222
 20
6.6661074718
 30
0.0
 10
13.2449572713
 20
6.6846556435
 30
0.0
 10
13.244427998
 20
6.7038450673
 30
0.0
 10
13.2443290467
 20
6.7235484594
 30
0.0
 10
13.2446612407
 20
6.7436350558
 30
0.0
 10
13.2454224891
 20
6.7639715116
 30
0.0
 10
13.2466078043
 20
6.7844227997
 30
0.0
 10
13.2482093394
 20
6.8048531208
 30
0.0
 10
13.2502164416
 20
6.8251268174
 30
0.0
 10
13.2526157229
 20
6.8451092856
 30
0.0
 10
13.2553911479
 20
6.8646678833
 30
0.0
 10
13.2585241377
 20
6.8836728239
 30
0.0
 10
13.2619936862
 20
6.9019980696
 30
0.0
 10
13.2657765033
 20
6.919522161
 30
0.0
 10
13.2698471324
 20
6.9361291982
 30
0.0
 10
13.2741782253
 20
6.9517092202
 30
0.0
 10
13.278048222
 20
6.9639681269
 30
0.0
 10
13.2812662668
 20
6.9731738295
 30
0.0
 10
13.2836819485
 20
6.9796311527
 30
0.0
 10
13.2861403575
 20
6.9857590963
 30
0.0
 10
13.2886374765
 20
6.9915475639
 30
0.0
 10
13.2911691312
 20
6.9969870503
 30
0.0
 10
13.2937311313
 20
7.002068665
 30
0.0
 10
13.2963192976
 20
7.0067841158
 30
0.0
 10
13.2989293403
 20
7.0111257957
 30
0.0
 10
13.3015571198
 20
7.0150867353
 30
0.0
 10
13.3041986028
 20
7.0186608317
 30
0.0
 10
13.3068495805
 20
7.0218420078
 30
0.0
 10
13.3086869989
 20
7.02376724
 30
0.0
 10
13.3096076227
 20
7.0246564944
 30
0.0
  0
SPLINE
  5
37B
100
AcDbEntity
  8
0
100
AcDbSpline
 62
7
  6
CONTINUOUS
 70
0
 71
3
 72
19
 73
15
 74
0
 42
0.0000001
 43
0.0000001
 44
0.0000000001
 40
0.0
 40
0.0
 40
0.0
 40
0.0
 40
0.1273276112
 40
0.2538197126
 40
0.3795264544
 40
0.5045235342
 40
0.5668075908
 40
0.6289556139
 40
0.69098437
 40
0.7529118409
 40
0.8147570139
 40
0.8765397109
 40
0.9382804089
 40
1.0
 40
1.0
 40
1.0
 40
1.0
 10
8.3539265719
 20
5.9655059573
 30
0.0
 10
8.3539265719
 20
5.9752488987
 30
0.0
 10
8.3548568131
 20
5.9946842509
 30
0.0
 10
8.3590639048
 20
6.0234638546
 30
0.0
 10
8.3660392659
 20
6.0515189744
 30
0.0
 10
8.374119646
 20
6.0741106224
 30
0.0
 10
8.3818907471
 20
6.091550276
 30
0.0
 10
8.3883529471
 20
6.1042778485
 30
0.0
 10
8.3954399875
 20
6.1166365564
 30
0.0
 10
8.4031356444
 20
6.1285983565
 30
0.0
 10
8.411422213
 20
6.1401354526
 30
0.0
 10
8.4202806434
 20
6.15122138
 30
0.0
 10
8.4296901117
 20
6.1618302564
 30
0.0
 10
8.4363173276
 20
6.1685696457
 30
0.0
 10
8.4397141425
 20
6.1718507374
 30
0.0
  0
SPLINE
  5
37C
100
AcDbEntity
  8
0
100
AcDbSpline
 62
7
  6
CONTINUOUS
 70
0
 71
3
 72
63
 73
59
 74
0
 42
0.0000001
 43
0.0000001
 44
0.0000000001
 40
0.0
 40
0.0
 40
0.0
 40
0.0
 40
0.0026858115
 40
0.0053861826
 40
0.0081154137
 40
0.0108873244
 40
0.0137150315
 40
0.0166108116
 40
0.0226482036
 40
0.02908135
 40
0.0359731051
 40
0.0433720874
 40
0.0513147419
 40
0.059827462
 40
0.068928487
 40
0.0786294038
 40
0.088936327
 40
0.0998508996
 40
0.111371026
 40
0.1234913904
 40
0.1362039435
 40
0.14949828
 40
0.1633618803
 40
0.1777803374
 40
0.1927375917
 40
0.208216072
 40
0.224196794
 40
0.2406595245
 40
0.2575828886
 40
0.2749444227
 40
0.2927206798
 40
0.3108873304
 40
0.3294192111
 40
0.3674735277
 40
0.406669075
 40
0.4467814304
 40
0.4875790775
 40
0.528825248
 40
0.5702797797
 40
0.6117009437
 40
0.6528472629
 40
0.6934793244
 40
0.7333616288
 40
0.7722644231
 40
0.791279095
 40
0.8099663169
 40
0.8282998542
 40
0.8462541858
 40
0.8638045815
 40
0.8809272028
 40
0.8975991474
 40
0.9137985194
 40
0.9295045525
 40
0.944697746
 40
0.9593598294
 40
0.973473914
 40
0.9870254499
 40
1.0
 40
1.0
 40
1.0
 40
1.0
 10
9.7728077409
 20
11.3523803042
 30
0.0
 10
9.772807734
 20
11.3539656371
 30
0.0
 10
9.7729295498
 20
11.357146224
 30
0.0
 10
9.7734770257
 20
11.3619094234
 30
0.0
 10
9.7743889658
 20
11.3666683654
 30
0.0
 10
9.7756648424
 20
11.3714204456
 30
0.0
 10
9.7773037982
 20
11.3761638614
 30
0.0
 10
9.7800088026
 20
11.382561999
 30
0.0
 10
9.7843475382
 20
11.3905551907
 30
0.0
 10
9.7909146212
 20
11.3999339084
 30
0.0
 10
9.7988992267
 20
11.4092242736
 30
0.0
 10
9.8082865145
 20
11.4184150467
 30
0.0
 10
9.8190617859
 20
11.4274961765
 30
0.0
 10
9.8312088408
 20
11.4364561619
 30
0.0
 10
9.8447097672
 20
11.4452829143
 30
0.0
 10
9.8595445416
 20
11.4539638374
 30
0.0
 10
9.8756909246
 20
11.4624861801
 30
0.0
 10
9.8931245239
 20
11.4708370806
 30
0.0
 10
9.9118188092
 20
11.4790037155
 30
0.0
 10
9.9317451166
 20
11.4869734835
 30
0.0
 10
9.9528727565
 20
11.4947339955
 30
0.0
 10
9.9751690956
 20
11.502273102
 30
0.0
 10
9.9985995871
 20
11.5095789938
 30
0.0
 10
10.0231278395
 20
11.5166402388
 30
0.0
 10
10.048715719
 20
11.5234457413
 30
0.0
 10
10.0753234006
 20
11.5299847881
 30
0.0
 10
10.1029094161
 20
11.5362471352
 30
0.0
 10
10.1314307529
 20
11.542222947
 30
0.0
 10
10.1608429272
 20
11.5479028089
 30
0.0
 10
10.1911000382
 20
11.5532778137
 30
0.0
 10
10.2221548336
 20
11.5583395214
 30
0.0
 10
10.2539588716
 20
11.5630800227
 30
0.0
 10
10.297682784
 20
11.5690145841
 30
0.0
 10
10.3538458383
 20
11.5755540545
 30
0.0
 10
10.4228303383
 20
11.5819491668
 30
0.0
 10
10.4935553974
 20
11.5869188265
 30
0.0
 10
10.5655792878
 20
11.5904315803
 30
0.0
 10
10.6384525067
 20
11.5924651745
 30
0.0
 10
10.7117200482
 20
11.5930067492
 30
0.0
 10
10.7849244565
 20
11.5920528364
 30
0.0
 10
10.8576086346
 20
11.5896095247
 30
0.0
 10
10.9293188891
 20
11.5856922546
 30
0.0
 10
10.999607288
 20
11.5803257987
 30
0.0
 10
11.0570591084
 20
11.574632303
 30
0.0
 10
11.1019686033
 20
11.5693609553
 30
0.0
 10
11.1347693464
 20
11.5650987722
 30
0.0
 10
11.1668931518
 20
11.5605047789
 30
0.0
 10
11.1982898855
 20
11.5555861304
 30
0.0
 10
11.2289105007
 20
11.5503505436
 30
0.0
 10
11.258707201
 20
11.5448062635
 30
0.0
 10
11.2876334789
 20
11.5389620015
 30
0.0
 10
11.315644187
 20
11.5328269104
 30
0.0
 10
11.34269566
 20
11.5264106482
 30
0.0
 10
11.3687457385
 20
11.5197232979
 30
0.0
 10
11.3937537558
 20
11.5127753715
 30
0.0
 10
11.4176811324
 20
11.5055777201
 30
0.0
 10
11.4404901067
 20
11.4981417206
 30
0.0
 10
11.4552526686
 20
11.4929181202
 30
0.0
 10
11.4624360381
 20
11.4902629211
 30
0.0
  0
SPLINE
  5
37D
100
AcDbEntity
  8
0
100
AcDbSpline
 62
7
  6
CONTINUOUS
 70
0
 71
3
 72
11
 73
7
 74
0
 42
0.0000001
 43
0.0000001
 44
0.0000000001
 40
0.0
 40
0.0
 40
0.0
 40
0.0
 40
0.2421481022
 40
0.4899614642
 40
0.7427986401
 40
1.0
 40
1.0
 40
1.0
 40
1.0
 10
10.2617144483
 20
10.5963938187
 30
0.0
 10
10.2764672815
 20
10.5984471145
 30
0.0
 10
10.3063553859
 20
10.6023378827
 30
0.0
 10
10.3517578382
 20
10.6074826791
 30
0.0
 10
10.3981579577
 20
10.6119938347
 30
0.0
 10
10.4294285443
 20
10.6145505759
 30
0.0
 10
10.4452060042
 20
10.6157234359
 30
0.0
  0
SPLINE
  5
37E
100
AcDbEntity
  8
0
100
AcDbSpline
 62
7
  6
CONTINUOUS
 70
0
 71
3
 72
11
 73
7
 74
0
 42
0.0000001
 43
0.0000001
 44
0.0000000001
 40
0.0
 40
0.0
 40
0.0
 40
0.0
 40
0.2400647358
 40
0.4873776415
 40
0.7410100935
 40
1.0
 40
1.0
 40
1.0
 40
1.0
 10
10.259122868
 20
10.5799889465
 30
0.0
 10
10.2756080212
 20
10.5824907216
 30
0.0
 10
10.3091334281
 20
10.5871979034
 30
0.0
 10
10.3602401846
 20
10.593308242
 30
0.0
 10
10.4127637055
 20
10.5985561928
 30
0.0
 10
10.4482537629
 20
10.6014388226
 30
0.0
 10
10.4661952801
 20
10.6027362958
 30
0.0
  0
SPLINE
  5
37F
100
AcDbEntity
  8
0
100
AcDbSpline
 62
7
  6
CONTINUOUS
 70
0
 71
3
 72
23
 73
19
 74
0
 42
0.0000001
 43
0.0000001
 44
0.0000000001
 40
0.0
 40
0.0
 40
0.0
 40
0.0
 40
0.075591959
 40
0.1466365666
 40
0.213465506
 40
0.2765141334
 40
0.3363248298
 40
0.3935445898
 40
0.4489210667
 40
0.5032860434
 40
0.5575237654
 40
0.6125251014
 40
0.6691412194
 40
0.7281469582
 40
0.7902179648
 40
0.8559223253
 40
0.9257261846
 40
1.0
 40
1.0
 40
1.0
 40
1.0
 10
13.3096076227
 20
6.5378298491
 30
0.0
 10
13.3089072812
 20
6.5371533711
 30
0.0
 10
13.3075074532
 20
6.535882705
 30
0.0
 10
13.3053410745
 20
6.5341850998
 30
0.0
 10
13.3031771896
 20
6.5327593084
 30
0.0
 10
13.3010178501
 20
6.531607579
 30
0.0
 10
13.2988648873
 20
6.5307319482
 30
0.0
 10
13.296720462
 20
6.5301346036
 30
0.0
 10
13.2945874029
 20
6.5298174762
 30
0.0
 10
13.292469249
 20
6.5297823271
 30
0.0
 10
13.2903700852
 20
6.5300294386
 30
0.0
 10
13.2882939952
 20
6.5305582735
 30
0.0
 10
13.286244471
 20
6.5313668899
 30
0.0
 10
13.2842242507
 20
6.532453016
 30
0.0
 10
13.2822353939
 20
6.533814161
 30
0.0
 10
13.2802794462
 20
6.5354479024
 30
0.0
 10
13.27835809
 20
6.5373519283
 30
0.0
 10
13.2771403286
 20
6.5387547721
 30
0.0
 10
13.2765366679
 20
6.5394970102
 30
0.0
  0
SPLINE
  5
380
100
AcDbEntity
  8
0
100
AcDbSpline
 62
7
  6
CONTINUOUS
 70
0
 71
3
 72
11
 73
7
 74
0
 42
0.0000001
 43
0.0000001
 44
0.0000000001
 40
0.0
 40
0.0
 40
0.0
 40
0.0
 40
0.2386298645
 40
0.4856868271
 40
0.7399131804
 40
1.0
 40
1.0
 40
1.0
 40
1.0
 10
10.2574381102
 20
10.5530798412
 30
0.0
 10
10.2762594688
 20
10.5560119341
 30
0.0
 10
10.3146465925
 20
10.561476884
 30
0.0
 10
10.3733066832
 20
10.5684046295
 30
0.0
 10
10.4338120391
 20
10.5741790222
 30
0.0
 10
10.4747581129
 20
10.5772085415
 30
0.0
 10
10.4954771503
 20
10.5785303307
 30
0.0
  0
SPLINE
  5
381
100
AcDbEntity
  8
0
100
AcDbSpline
 62
7
  6
CONTINUOUS
 70
0
 71
3
 72
11
 73
7
 74
0
 42
0.0000001
 43
0.0000001
 44
0.0000000001
 40
0.0
 40
0.0
 40
0.0
 40
0.0
 40
0.2409116625
 40
0.488769703
 40
0.7422530745
 40
1.0
 40
1.0
 40
1.0
 40
1.0
 10
10.3194001472
 20
10.3940595546
 30
0.0
 10
10.3393552397
 20
10.3966170424
 30
0.0
 10
10.3799057865
 20
10.4013093959
 30
0.0
 10
10.4416300721
 20
10.4070390102
 30
0.0
 10
10.504865553
 20
10.4115382641
 30
0.0
 10
10.5475073607
 20
10.4136858231
 30
0.0
 10
10.5690140909
 20
10.4145530774
 30
0.0
  0
SPLINE
  5
382
100
AcDbEntity
  8
0
100
AcDbSpline
 62
7
  6
CONTINUOUS
 70
0
 71
3
 72
11
 73
7
 74
0
 42
0.0000001
 43
0.0000001
 44
0.0000000001
 40
0.0
 40
0.0
 40
0.0
 40
0.0
 40
0.2435521862
 40
0.4919327414
 40
0.7443512468
 40
1.0
 40
1.0
 40
1.0
 40
1.0
 10
10.3795403744
 20
10.3466418599
 30
0.0
 10
10.3944480661
 20
10.3482953316
 30
0.0
 10
10.4245896103
 20
10.3513643496
 30
0.0
 10
10.4702690338
 20
10.3552305845
 30
0.0
 10
10.5167490153
 20
10.3583960696
 30
0.0
 10
10.5479974157
 20
10.3600232668
 30
0.0
 10
10.5637260763
 20
10.3607197216
 30
0.0
  0
SPLINE
  5
383
100
AcDbEntity
  8
0
100
AcDbSpline
 62
7
  6
CONTINUOUS
 70
0
 71
3
 72
19
 73
15
 74
0
 42
0.0000001
 43
0.0000001
 44
0.0000000001
 40
0.0
 40
0.0
 40
0.0
 40
0.0
 40
0.1273276112
 40
0.2538197126
 40
0.3795264544
 40
0.5045235342
 40
0.5668075908
 40
0.6289556139
 40
0.69098437
 40
0.7529118409
 40
0.8147570139
 40
0.8765397109
 40
0.9382804089
 40
1.0
 40
1.0
 40
1.0
 40
1.0
 10
8.3539265719
 20
7.4868392239
 30
0.0
 10
8.3539265719
 20
7.4965821653
 30
0.0
 10
8.3548568131
 20
7.5160175175
 30
0.0
 10
8.3590639048
 20
7.5447971211
 30
0.0
 10
8.3660392659
 20
7.5728522409
 30
0.0
 10
8.374119646
 20
7.595443889
 30
0.0
 10
8.3818907471
 20
7.6128835426
 30
0.0
 10
8.3883529471
 20
7.625611115
 30
0.0
 10
8.3954399875
 20
7.637969823
 30
0.0
 10
8.4031356444
 20
7.6499316231
 30
0.0
 10
8.411422213
 20
7.6614687191
 30
0.0
 10
8.4202806434
 20
7.6725546466
 30
0.0
 10
8.4296901117
 20
7.6831635229
 30
0.0
 10
8.4363173276
 20
7.6899029123
 30
0.0
 10
8.4397141425
 20
7.6931840039
 30
0.0
  0
SPLINE
  5
384
100
AcDbEntity
  8
0
100
AcDbSpline
 62
7
  6
CONTINUOUS
 70
0
 71
3
 72
19
 73
15
 74
0
 42
0.0000001
 43
0.0000001
 44
0.0000000001
 40
0.0
 40
0.0
 40
0.0
 40
0.0
 40
0.1273276112
 40
0.2538197126
 40
0.3795264544
 40
0.5045235342
 40
0.5668075908
 40
0.6289556139
 40
0.69098437
 40
0.7529118409
 40
0.8147570139
 40
0.8765397109
 40
0.9382804089
 40
1.0
 40
1.0
 40
1.0
 40
1.0
 10
11.6678252282
 20
7.2570195715
 30
0.0
 10
11.6678252282
 20
7.2667625129
 30
0.0
 10
11.6687554694
 20
7.2861978651
 30
0.0
 10
11.6729625611
 20
7.3149774688
 30
0.0
 10
11.6799379222
 20
7.3430325885
 30
0.0
 10
11.6880183024
 20
7.3656242366
 30
0.0
 10
11.6957894034
 20
7.3830638902
 30
0.0
 10
11.7022516034
 20
7.3957914626
 30
0.0
 10
11.7093386438
 20
7.4081501706
 30
0.0
 10
11.7170343007
 20
7.4201119707
 30
0.0
 10
11.7253208693
 20
7.4316490667
 30
0.0
 10
11.7341792997
 20
7.4427349942
 30
0.0
 10
11.743588768
 20
7.4533438706
 30
0.0
 10
11.750215984
 20
7.4600832599
 30
0.0
 10
11.7536127989
 20
7.4633643515
 30
0.0
  0
SPLINE
  5
385
100
AcDbEntity
  8
0
100
AcDbSpline
 62
7
  6
CONTINUOUS
 70
0
 71
3
 72
81
 73
77
 74
0
 42
0.0000001
 43
0.0000001
 44
0.0000000001
 40
0.0
 40
0.0
 40
0.0
 40
0.0
 40
0.003953304
 40
0.0077537399
 40
0.0114080895
 40
0.0149243177
 40
0.0183115997
 40
0.0215804908
 40
0.0247429583
 40
0.0278124195
 40
0.0308037516
 40
0.0337331526
 40
0.0366180041
 40
0.0394765788
 40
0.0423277068
 40
0.0451903788
 40
0.0480833406
 40
0.051024695
 40
0.0540315854
 40
0.0571199478
 40
0.0635943722
 40
0.0670086847
 40
0.070554034
 40
0.0742393419
 40
0.0780722768
 40
0.0820594287
 40
0.0862063298
 40
0.0905176398
 40
0.0949972017
 40
0.0996481154
 40
0.104472883
 40
0.1094733795
 40
0.1146510081
 40
0.1200066972
 40
0.125540944
 40
0.1371447772
 40
0.1494604226
 40
0.1624805154
 40
0.1761938441
 40
0.1905858883
 40
0.2056392397
 40
0.2213339292
 40
0.2376477096
 40
0.2545562914
 40
0.2720335368
 40
0.2900516276
 40
0.308581207
 40
0.3275915166
 40
0.347050528
 40
0.3669250576
 40
0.3871808743
 40
0.4077827993
 40
0.4286948062
 40
0.4498801249
 40
0.4929197111
 40
0.5365968817
 40
0.5806002011
 40
0.6246152282
 40
0.6683274074
 40
0.7114249893
 40
0.7326477594
 40
0.7536027378
 40
0.7742530551
 40
0.794562573
 40
0.8144959801
 40
0.8340188916
 40
0.8530979576
 40
0.8717009757
 40
0.8897969971
 40
0.9073564514
 40
0.9243512722
 40
0.9407550498
 40
0.9565432564
 40
0.9716931737
 40
0.9861849018
 40
1.0
 40
1.0
 40
1.0
 40
1.0
 10
9.7530121759
 20
11.3491588871
 30
0.0
 10
9.7511246825
 20
11.3509153897
 30
0.0
 10
9.7474934025
 20
11.3544376726
 30
0.0
 10
9.7423930891
 20
11.3598585896
 30
0.0
 10
9.7377515413
 20
11.365308387
 30
0.0
 10
9.733571108
 20
11.3707845041
 30
0.0
 10
9.7298540523
 20
11.3762847202
 30
0.0
 10
9.7266023928
 20
11.381806609
 30
0.0
 10
9.7238180639
 20
11.38734775
 30
0.0
 10
9.72150301
 20
11.3929056635
 30
0.0
 10
9.7196587732
 20
11.3984776043
 30
0.0
 10
9.7182870235
 20
11.4040607586
 30
0.0
 10
9.7173888878
 20
11.4096519929
 30
0.0
 10
9.7169652505
 20
11.4152480286
 30
0.0
 10
9.7170166435
 20
11.4208454272
 30
0.0
 10
9.7175428388
 20
11.426440715
 30
0.0
 10
9.7185435018
 20
11.4320304813
 30
0.0
 10
9.7200174892
 20
11.4376114199
 30
0.0
 10
9.7219637047
 20
11.4431807461
 30
0.0
 10
9.7252367252
 20
11.4507036699
 30
0.0
 10
9.7294348342
 20
11.4580864543
 30
0.0
 10
9.7344355146
 20
11.4652845905
 30
0.0
 10
9.7387160228
 20
11.4707556426
 30
0.0
 10
9.7434569299
 20
11.4761992424
 30
0.0
 10
9.7486561617
 20
11.4816137931
 30
0.0
 10
9.7543111842
 20
11.4869966382
 30
0.0
 10
9.7604192384
 20
11.4923455505
 30
0.0
 10
9.766977465
 20
11.4976580687
 30
0.0
 10
9.7739827722
 20
11.5029317791
 30
0.0
 10
9.7814318219
 20
11.5081643319
 30
0.0
 10
9.7893211606
 20
11.5133532065
 30
0.0
 10
9.7976470152
 20
11.518496087
 30
0.0
 10
9.8064054813
 20
11.5235904876
 30
0.0
 10
9.8155924235
 20
11.5286340713
 30
0.0
 10
9.8286134898
 20
11.5353948404
 30
0.0
 10
9.8459504436
 20
11.5436819657
 30
0.0
 10
9.8680729381
 20
11.5532352321
 30
0.0
 10
9.8917889813
 20
11.5625300601
 30
0.0
 10
9.9170534944
 20
11.5715486649
 30
0.0
 10
9.9438188171
 20
11.5802737721
 30
0.0
 10
9.9720341265
 20
11.5886885967
 30
0.0
 10
10.0016457555
 20
11.5967769437
 30
0.0
 10
10.0325972649
 20
11.6045232315
 30
0.0
 10
10.0648295957
 20
11.6119125278
 30
0.0
 10
10.0982811917
 20
11.6189305853
 30
0.0
 10
10.132888123
 20
11.6255638675
 30
0.0
 10
10.168584209
 20
11.6317995888
 30
0.0
 10
10.2053011528
 20
11.637625738
 30
0.0
 10
10.2429686852
 20
11.6430310905
 30
0.0
 10
10.2815147043
 20
11.6480052316
 30
0.0
 10
10.3208654187
 20
11.6525385795
 30
0.0
 10
10.36094546
 20
11.6566223879
 30
0.0
 10
10.401678131
 20
11.6602488533
 30
0.0
 10
10.4570439177
 20
11.6644869591
 30
0.0
 10
10.5273062053
 20
11.6685792595
 30
0.0
 10
10.6125176296
 20
11.6715550193
 30
0.0
 10
10.6984109607
 20
11.6725976784
 30
0.0
 10
10.784328749
 20
11.671699221
 30
0.0
 10
10.8696133638
 20
11.6688665112
 30
0.0
 10
10.9399676422
 20
11.6648927446
 30
0.0
 10
10.9954310538
 20
11.660748476
 30
0.0
 10
11.0362541008
 20
11.6571906169
 30
0.0
 10
11.0764360403
 20
11.6531743214
 30
0.0
 10
11.1158999846
 20
11.6487072715
 30
0.0
 10
11.1545703451
 20
11.6437980814
 30
0.0
 10
11.1923730819
 20
11.6384561964
 30
0.0
 10
11.2292358279
 20
11.6326919065
 30
0.0
 10
11.2650880385
 20
11.6265163244
 30
0.0
 10
11.2998611256
 20
11.6199413534
 30
0.0
 10
11.3334885854
 20
11.6129796658
 30
0.0
 10
11.3659061278
 20
11.605644678
 30
0.0
 10
11.3970518605
 20
11.5979505285
 30
0.0
 10
11.4268662349
 20
11.5899120554
 30
0.0
 10
11.4552927394
 20
11.5815447381
 30
0.0
 10
11.4822766715
 20
11.5728647542
 30
0.0
 10
11.4996933009
 20
11.5667318719
 30
0.0
 10
11.5081446884
 20
11.5636079735
 30
0.0
  0
SPLINE
  5
386
100
AcDbEntity
  8
0
100
AcDbSpline
 62
7
  6
CONTINUOUS
 70
0
 71
3
 72
75
 73
71
 74
0
 42
0.0000001
 43
0.0000001
 44
0.0000000001
 40
0.0
 40
0.0
 40
0.0
 40
0.0
 40
0.0065159649
 40
0.0096192467
 40
0.0126345284
 40
0.0155755155
 40
0.0184571194
 40
0.0212952794
 40
0.0241067686
 40
0.0269088799
 40
0.0297190986
 40
0.0325547419
 40
0.0354326293
 40
0.0383687785
 40
0.0413781667
 40
0.0476672808
 40
0.0509740543
 40
0.0544015629
 40
0.0579585102
 40
0.0616525036
 40
0.065490083
 40
0.0694768273
 40
0.0736174998
 40
0.0779160424
 40
0.0823757381
 40
0.0869992632
 40
0.0917886978
 40
0.0967456818
 40
0.1071658067
 40
0.1182652901
 40
0.1300435941
 40
0.1424957986
 40
0.1556132886
 40
0.1693842712
 40
0.1837941622
 40
0.1988259422
 40
0.2144604328
 40
0.2306765105
 40
0.2474512685
 40
0.2647601983
 40
0.2825773403
 40
0.3008754026
 40
0.3196258551
 40
0.3387990504
 40
0.3583643319
 40
0.3782901216
 40
0.3985439951
 40
0.4190927784
 40
0.4609384476
 40
0.5035507267
 40
0.5466456948
 40
0.5899352436
 40
0.6331295825
 40
0.675939738
 40
0.7180800775
 40
0.7592708065
 40
0.7794252761
 40
0.7992414052
 40
0.8186870213
 40
0.8377308269
 40
0.8563424754
 40
0.8744926592
 40
0.8921532188
 40
0.9092972723
 40
0.9258992952
 40
0.9419352817
 40
0.9573828759
 40
0.972221371
 40
0.986432802
 40
1.0
 40
1.0
 40
1.0
 40
1.0
 10
9.7799146344
 20
11.3278211289
 30
0.0
 10
9.7776171334
 20
11.3310734466
 30
0.0
 10
9.7744809718
 20
11.3360682221
 30
0.0
 10
9.7710367931
 20
11.3429835907
 30
0.0
 10
9.7689131354
 20
11.3481017233
 30
0.0
 10
9.7672092683
 20
11.3532320109
 30
0.0
 10
9.7659261449
 20
11.3583722694
 30
0.0
 10
9.7650650281
 20
11.3635198247
 30
0.0
 10
9.7646265448
 20
11.3686718696
 30
0.0
 10
9.7646110974
 20
11.3738255043
 30
0.0
 10
9.7650188258
 20
11.3789777592
 30
0.0
 10
9.7658491861
 20
11.384125748
 30
0.0
 10
9.7671015358
 20
11.3892665901
 30
0.0
 10
9.7687749741
 20
11.3943978682
 30
0.0
 10
9.7716064874
 20
11.4013234719
 30
0.0
 10
9.7752666033
 20
11.4081312211
 30
0.0
 10
9.7796501574
 20
11.4147771903
 30
0.0
 10
9.783406806
 20
11.4198253952
 30
0.0
 10
9.7875746424
 20
11.4248502344
 30
0.0
 10
9.7921520832
 20
11.4298501927
 30
0.0
 10
9.7971369108
 20
11.4348230784
 30
0.0
 10
9.8025268631
 20
11.439766936
 30
0.0
 10
9.8083196055
 20
11.4446795896
 30
0.0
 10
9.8145125035
 20
11.4495590488
 30
0.0
 10
9.8211028442
 20
11.4544032027
 30
0.0
 10
9.8280877379
 20
11.4592099009
 30
0.0
 10
9.835464061
 20
11.4639772014
 30
0.0
 10
9.8459926848
 20
11.4703849552
 30
0.0
 10
9.8601330451
 20
11.4782630697
 30
0.0
 10
9.8783339988
 20
11.4873745896
 30
0.0
 10
9.8980081187
 20
11.4962792639
 30
0.0
 10
9.9191205143
 20
11.5049612532
 30
0.0
 10
9.9416341566
 20
11.5134051213
 30
0.0
 10
9.965509185
 20
11.5215957121
 30
0.0
 10
9.9907032089
 20
11.529518324
 30
0.0
 10
10.0171713677
 20
11.5371586905
 30
0.0
 10
10.0448664629
 20
11.5445030315
 30
0.0
 10
10.073739038
 20
11.5515380781
 30
0.0
 10
10.103737463
 20
11.5582511477
 30
0.0
 10
10.1348080507
 20
11.5646301306
 30
0.0
 10
10.166895175
 20
11.5706635121
 30
0.0
 10
10.1999413651
 20
11.576340389
 30
0.0
 10
10.2338874
 20
11.5816505299
 30
0.0
 10
10.268672425
 20
11.5865843634
 30
0.0
 10
10.3042340828
 20
11.5911329932
 30
0.0
 10
10.3405085969
 20
11.5952881902
 30
0.0
 10
10.3774309656
 20
11.5990425178
 30
0.0
 10
10.4277393301
 20
11.6035316075
 30
0.0
 10
10.4917551896
 20
11.608078236
 30
0.0
 10
10.5696207625
 20
11.6118161747
 30
0.0
 10
10.6484324118
 20
11.6138409872
 30
0.0
 10
10.7276250618
 20
11.6141379693
 30
0.0
 10
10.8066312617
 20
11.6127049806
 30
0.0
 10
10.8848849306
 20
11.6095524322
 30
0.0
 10
10.961825017
 20
11.6047032464
 30
0.0
 10
11.0248363944
 20
11.5992392923
 30
0.0
 10
11.0741613953
 20
11.5940272818
 30
0.0
 10
11.1102192257
 20
11.5897477628
 30
0.0
 10
11.1455439927
 20
11.5850773617
 30
0.0
 10
11.1800724166
 20
11.5800244601
 30
0.0
 10
11.2137425865
 20
11.5745981876
 30
0.0
 10
11.2464941517
 20
11.5688083222
 30
0.0
 10
11.2782684248
 20
11.5626652998
 30
0.0
 10
11.3090084989
 20
11.5561802198
 30
0.0
 10
11.3386593534
 20
11.5493647934
 30
0.0
 10
11.3671679555
 20
11.5422313101
 30
0.0
 10
11.3944832262
 20
11.5347926371
 30
0.0
 10
11.4205567484
 20
11.5270621869
 30
0.0
 10
11.4453414203
 20
11.5190539505
 30
0.0
 10
11.4613531301
 20
11.5134066339
 30
0.0
 10
11.4691299189
 20
11.5105320884
 30
0.0
  0
SPLINE
  5
387
100
AcDbEntity
  8
0
100
AcDbSpline
 62
7
  6
CONTINUOUS
 70
0
 71
3
 72
26
 73
22
 74
0
 42
0.0000001
 43
0.0000001
 44
0.0000000001
 40
0.0
 40
0.0
 40
0.0
 40
0.0
 40
0.0200829251
 40
0.0402673578
 40
0.0606531608
 40
0.0813370071
 40
0.1024109609
 40
0.1239616472
 40
0.1687881247
 40
0.2164009175
 40
0.2672546004
 40
0.3217057758
 40
0.3800261456
 40
0.4424163593
 40
0.5090189918
 40
0.5799288802
 40
0.6552017603
 40
0.7348603438
 40
0.8189001802
 40
0.9072985144
 40
1.0
 40
1.0
 40
1.0
 40
1.0
 10
11.6304077334
 20
11.3523803042
 30
0.0
 10
11.6304077267
 20
11.3539109025
 30
0.0
 10
11.6302942092
 20
11.3569810287
 30
0.0
 10
11.6297840579
 20
11.3615793391
 30
0.0
 10
11.6289341483
 20
11.3661738568
 30
0.0
 10
11.6277450156
 20
11.3707622575
 30
0.0
 10
11.6262174039
 20
11.3753429422
 30
0.0
 10
11.6236978387
 20
11.3815177172
 30
0.0
 10
11.6196574544
 20
11.3892341798
 30
0.0
 10
11.6135347714
 20
11.3983003884
 30
0.0
 10
11.6060879522
 20
11.4072867821
 30
0.0
 10
11.5973301904
 20
11.4161830164
 30
0.0
 10
11.5872745072
 20
11.424979959
 30
0.0
 10
11.5759351692
 20
11.43366729
 30
0.0
 10
11.5633278396
 20
11.4422341478
 30
0.0
 10
11.5494699648
 20
11.4506692294
 30
0.0
 10
11.5343809154
 20
11.4589610385
 30
0.0
 10
11.5180819871
 20
11.4670979472
 30
0.0
 10
11.5005960065
 20
11.4750685024
 30
0.0
 10
11.4819483855
 20
11.4828609751
 30
0.0
 10
11.4690629608
 20
11.4878134022
 30
0.0
 10
11.4624360381
 20
11.4902629211
 30
0.0
  0
SPLINE
  5
388
100
AcDbEntity
  8
0
100
AcDbSpline
 62
7
  6
CONTINUOUS
 70
0
 71
3
 72
47
 73
43
 74
0
 42
0.0000001
 43
0.0000001
 44
0.0000000001
 40
0.0
 40
0.0
 40
0.0
 40
0.0
 40
0.0083961429
 40
0.0173554542
 40
0.0268853129
 40
0.0369886748
 40
0.0476644158
 40
0.0589087253
 40
0.070714991
 40
0.0830747724
 40
0.1094086895
 40
0.1378076911
 40
0.1681443824
 40
0.2002725743
 40
0.2340302015
 40
0.2692416822
 40
0.3057199568
 40
0.3432683329
 40
0.3816822009
 40
0.4207506747
 40
0.4602581881
 40
0.4999860652
 40
0.5397140771
 40
0.5792219927
 40
0.6182911292
 40
0.6567059092
 40
0.6942554364
 40
0.7307350947
 40
0.7659481874
 40
0.7997076518
 40
0.831837896
 40
0.8621768354
 40
0.8905782584
 40
0.9169147323
 40
0.9292757586
 40
0.9410834597
 40
0.9523290237
 40
0.9630061773
 40
0.9731108297
 40
0.9826422802
 40
0.9916029887
 40
1.0
 40
1.0
 40
1.0
 40
1.0
 10
13.253028691
 20
6.6057035478
 30
0.0
 10
13.2536788428
 20
6.6065000246
 30
0.0
 10
13.2549740453
 20
6.6081865495
 30
0.0
 10
13.2568462181
 20
6.6108959767
 30
0.0
 10
13.2587077096
 20
6.6138626221
 30
0.0
 10
13.2605558089
 20
6.617082191
 30
0.0
 10
13.2623879349
 20
6.6205500859
 30
0.0
 10
13.2642012773
 20
6.6242612962
 30
0.0
 10
13.2659933296
 20
6.6282103897
 30
0.0
 10
13.2684017443
 20
6.6339066625
 30
0.0
 10
13.2713261851
 20
6.6415874775
 30
0.0
 10
13.2746398223
 20
6.6514659037
 30
0.0
 10
13.2778081734
 20
6.6621340244
 30
0.0
 10
13.2808122951
 20
6.6735291735
 30
0.0
 10
13.283634189
 20
6.6855845191
 30
0.0
 10
13.2862569814
 20
6.6982290914
 30
0.0
 10
13.2886650065
 20
6.711388372
 30
0.0
 10
13.2908439005
 20
6.7249847278
 30
0.0
 10
13.2927806823
 20
6.7389379009
 30
0.0
 10
13.2944638281
 20
6.7531654932
 30
0.0
 10
13.2958833368
 20
6.7675834641
 30
0.0
 10
13.2970307879
 20
6.7821066342
 30
0.0
 10
13.2978993903
 20
6.7966491952
 30
0.0
 10
13.2984840225
 20
6.8111252219
 30
0.0
 10
13.2987812637
 20
6.825449186
 30
0.0
 10
13.2987894154
 20
6.8395364675
 30
0.0
 10
13.2985085158
 20
6.8533038633
 30
0.0
 10
13.2979403426
 20
6.8666700898
 30
0.0
 10
13.297088405
 20
6.8795562735
 30
0.0
 10
13.2959579326
 20
6.891886446
 30
0.0
 10
13.2945558373
 20
6.9035879844
 30
0.0
 10
13.2928907222
 20
6.9145922091
 30
0.0
 10
13.2909726788
 20
6.9248344263
 30
0.0
 10
13.2891367439
 20
6.9328462396
 30
0.0
 10
13.287537819
 20
6.9388211325
 30
0.0
 10
13.2863082227
 20
6.9429803472
 30
0.0
 10
13.2850245914
 20
6.9469068887
 30
0.0
 10
13.2836888921
 20
6.9505950709
 30
0.0
 10
13.2823029646
 20
6.9540395164
 30
0.0
 10
13.2808689229
 20
6.9572353458
 30
0.0
 10
13.2793887624
 20
6.9601778386
 30
0.0
 10
13.2783388715
 20
6.9620273835
 30
0.0
 10
13.2778049752
 20
6.9629061588
 30
0.0
  0
SPLINE
  5
389
100
AcDbEntity
  8
0
100
AcDbSpline
 62
7
  6
CONTINUOUS
 70
0
 71
3
 72
39
 73
35
 74
0
 42
0.0000001
 43
0.0000001
 44
0.0000000001
 40
0.0
 40
0.0
 40
0.0
 40
0.0
 40
0.0507369081
 40
0.0997924583
 40
0.1471455382
 40
0.1927852163
 40
0.2367051674
 40
0.2789024714
 40
0.3193788436
 40
0.3581426803
 40
0.3952087389
 40
0.4305996813
 40
0.4643466462
 40
0.4964912989
 40
0.5270867755
 40
0.5562000581
 40
0.5839134638
 40
0.6103272215
 40
0.6355610818
 40
0.6597563255
 40
0.6830763244
 40
0.7057063171
 40
0.7278509661
 40
0.7497301141
 40
0.7715724154
 40
0.7936077823
 40
0.816059638
 40
0.839138071
 40
0.8630348624
 40
0.8879205126
 40
0.9139432931
 40
0.9412297199
 40
0.9698859965
 40
1.0
 40
1.0
 40
1.0
 40
1.0
 10
11.5081446884
 20
11.5636079735
 30
0.0
 10
11.513249552
 20
11.5617210555
 30
0.0
 10
11.5232556343
 20
11.5579154964
 30
0.0
 10
11.537892481
 20
11.552005184
 30
0.0
 10
11.5518947212
 20
11.545992741
 30
0.0
 10
11.5652514195
 20
11.5398829971
 30
0.0
 10
11.5779527208
 20
11.5336804053
 30
0.0
 10
11.5899892169
 20
11.5273897047
 30
0.0
 10
11.601351807
 20
11.5210154783
 30
0.0
 10
11.6120320491
 20
11.5145625998
 30
0.0
 10
11.6220219676
 20
11.5080356927
 30
0.0
 10
11.6313142234
 20
11.5014396216
 30
0.0
 10
11.6399018715
 20
11.4947789862
 30
0.0
 10
11.6477786282
 20
11.4880585829
 30
0.0
 10
11.6549385482
 20
11.4812829008
 30
0.0
 10
11.6613762997
 20
11.4744565665
 30
0.0
 10
11.667086752
 20
11.4675839012
 30
0.0
 10
11.6720652674
 20
11.4606693603
 30
0.0
 10
11.6763072094
 20
11.45371723
 30
0.0
 10
11.6798082863
 20
11.4467321146
 30
0.0
 10
11.6825641165
 20
11.4397188596
 30
0.0
 10
11.6845707949
 20
11.4326830489
 30
0.0
 10
11.6858247617
 20
11.4256310089
 30
0.0
 10
11.6863236484
 20
11.4185699518
 30
0.0
 10
11.6860663075
 20
11.4115076309
 30
0.0
 10
11.6850533669
 20
11.404451894
 30
0.0
 10
11.6832868213
 20
11.3974101638
 30
0.0
 10
11.6807699061
 20
11.3903890669
 30
0.0
 10
11.6775064661
 20
11.3833943991
 30
0.0
 10
11.6735007279
 20
11.3764312301
 30
0.0
 10
11.6687570629
 20
11.3695042009
 30
0.0
 10
11.6632798924
 20
11.3626176603
 30
0.0
 10
11.6570741296
 20
11.3557761812
 30
0.0
 10
11.6525692532
 20
11.3513606672
 30
0.0
 10
11.6502045427
 20
11.3491600459
 30
0.0
  0
SPLINE
  5
38A
100
AcDbEntity
  8
0
100
AcDbSpline
 62
7
  6
CONTINUOUS
 70
0
 71
3
 72
37
 73
33
 74
0
 42
0.0000001
 43
0.0000001
 44
0.0000000001
 40
0.0
 40
0.0
 40
0.0
 40
0.0
 40
0.025508608
 40
0.0500268526
 40
0.0736750753
 40
0.0965896171
 40
0.1189221784
 40
0.1408379275
 40
0.1625127068
 40
0.1841287655
 40
0.2058699948
 40
0.2279168729
 40
0.2504417668
 40
0.2736052674
 40
0.3223830937
 40
0.3482770619
 40
0.3753001822
 40
0.4035373064
 40
0.4330597141
 40
0.4639270983
 40
0.496188453
 40
0.5298835188
 40
0.5650439968
 40
0.6016941258
 40
0.6398522717
 40
0.6795308764
 40
0.7207379086
 40
0.7634762485
 40
0.8077450498
 40
0.8535408127
 40
0.9008576896
 40
1.0
 40
1.0
 40
1.0
 40
1.0
 10
11.6232485993
 20
11.3277472204
 30
0.0
 10
11.6246125765
 20
11.3296746753
 30
0.0
 10
11.6271667511
 20
11.3335425149
 30
0.0
 10
11.6305118608
 20
11.3394925737
 30
0.0
 10
11.6332876056
 20
11.345465961
 30
0.0
 10
11.6354910798
 20
11.3514588325
 30
0.0
 10
11.6371200085
 20
11.3574673559
 30
0.0
 10
11.6381721452
 20
11.3634872476
 30
0.0
 10
11.638646247
 20
11.3695137598
 30
0.0
 10
11.6385413558
 20
11.3755418973
 30
0.0
 10
11.6378578527
 20
11.3815665972
 30
0.0
 10
11.6365966113
 20
11.387582833
 30
0.0
 10
11.6347592462
 20
11.3935863871
 30
0.0
 10
11.6314892623
 20
11.4017059008
 30
0.0
 10
11.6270797138
 20
11.4096630595
 30
0.0
 10
11.6216990089
 20
11.4173919995
 30
0.0
 10
11.6170195767
 20
11.4232755436
 30
0.0
 10
11.611780937
 20
11.4291244795
 30
0.0
 10
11.6059860319
 20
11.4349367826
 30
0.0
 10
11.5996385099
 20
11.4407089128
 30
0.0
 10
11.5927422178
 20
11.4464377798
 30
0.0
 10
11.5853013153
 20
11.4521201202
 30
0.0
 10
11.5773202318
 20
11.4577526045
 30
0.0
 10
11.5688038074
 20
11.463332038
 30
0.0
 10
11.5597570886
 20
11.4688550007
 30
0.0
 10
11.5501855619
 20
11.4743183352
 30
0.0
 10
11.5400949549
 20
11.4797186284
 30
0.0
 10
11.5294914513
 20
11.4850527097
 30
0.0
 10
11.5183814704
 20
11.4903172822
 30
0.0
 10
11.5067715475
 20
11.4955092781
 30
0.0
 10
11.4903786441
 20
11.5024388226
 30
0.0
 10
11.4777379882
 20
11.5073502755
 30
0.0
 10
11.4691299189
 20
11.5105320884
 30
0.0
  0
SPLINE
  5
38B
100
AcDbEntity
  8
0
100
AcDbSpline
 62
7
  6
CONTINUOUS
 70
0
 71
3
 72
21
 73
17
 74
0
 42
0.0000001
 43
0.0000001
 44
0.0000000001
 40
0.0
 40
0.0
 40
0.0
 40
0.0
 40
0.1274330622
 40
0.2540127261
 40
0.3170135958
 40
0.3798180088
 40
0.4424358046
 40
0.5048783356
 40
0.5671588167
 40
0.629292114
 40
0.6912945627
 40
0.7531838462
 40
0.8149788293
 40
0.876699352
 40
0.9383660176
 40
1.0
 40
1.0
 40
1.0
 40
1.0
 10
10.3158641593
 20
9.965130057
 30
0.0
 10
10.3296710227
 20
9.9641725477
 30
0.0
 10
10.3573024225
 20
9.9635905569
 30
0.0
 10
10.3916882567
 20
9.9662451882
 30
0.0
 10
10.4187937802
 20
9.9703881826
 30
0.0
 10
10.4388517256
 20
9.9744888207
 30
0.0
 10
10.4586190486
 20
9.9795777131
 30
0.0
 10
10.4780495374
 20
9.985642992
 30
0.0
 10
10.4970971353
 20
9.9926702745
 30
0.0
 10
10.5157168596
 20
10.0006429786
 30
0.0
 10
10.5338646383
 20
10.0095423657
 30
0.0
 10
10.5514975714
 20
10.0193474176
 30
0.0
 10
10.568573951
 20
10.0300348904
 30
0.0
 10
10.5850535199
 20
10.0415796956
 30
0.0
 10
10.6008967216
 20
10.0539541294
 30
0.0
 10
10.6110125058
 20
10.0627397728
 30
0.0
 10
10.615950307
 20
10.0672592357
 30
0.0
  0
SPLINE
  5
38C
100
AcDbEntity
  8
0
100
AcDbSpline
 62
7
  6
CONTINUOUS
 70
0
 71
3
 72
43
 73
39
 74
0
 42
0.0000001
 43
0.0000001
 44
0.0000000001
 40
0.0
 40
0.0
 40
0.0
 40
0.0
 40
0.0311293084
 40
0.0467537231
 40
0.0624150246
 40
0.0938414491
 40
0.1254040903
 40
0.1570911638
 40
0.188888319
 40
0.2207791049
 40
0.252745257
 40
0.284767074
 40
0.3168237964
 40
0.3488940051
 40
0.380956026
 40
0.4129883399
 40
0.4449699888
 40
0.4768809756
 40
0.5087026513
 40
0.5404180824
 40
0.5720123949
 40
0.6034730874
 40
0.6347903068
 40
0.6659570808
 40
0.6969694995
 40
0.7278268416
 40
0.7585316363
 40
0.789089659
 40
0.8195098543
 40
0.834674592
 40
0.8498095976
 40
0.8649168024
 40
0.8799982907
 40
0.9100876508
 40
0.9401025296
 40
0.9550913662
 40
0.9700696045
 40
1.0
 40
1.0
 40
1.0
 40
1.0
 10
10.3158641593
 20
9.965130057
 30
0.0
 10
10.3055319816
 20
9.9658465959
 30
0.0
 10
10.2900453806
 20
9.9674834956
 30
0.0
 10
10.2695372399
 20
9.9707654592
 30
0.0
 10
10.2490604021
 20
9.9747913024
 30
0.0
 10
10.223665018
 20
9.9811978991
 30
0.0
 10
10.1937118651
 20
9.9910264533
 30
0.0
 10
10.1643971392
 20
10.0029536814
 30
0.0
 10
10.1358746741
 20
10.0169169947
 30
0.0
 10
10.1082929723
 20
10.0328433936
 30
0.0
 10
10.0817959381
 20
10.0506496423
 30
0.0
 10
10.0565217302
 20
10.0702427474
 30
0.0
 10
10.0326021598
 20
10.0915204308
 30
0.0
 10
10.0101619813
 20
10.1143716607
 30
0.0
 10
9.9893182558
 20
10.1386772261
 30
0.0
 10
9.9701797444
 20
10.164310352
 30
0.0
 10
9.9528463468
 20
10.1911373548
 30
0.0
 10
9.9374085833
 20
10.2190183312
 30
0.0
 10
9.9239471262
 20
10.2478078801
 30
0.0
 10
9.9125323795
 20
10.2773558517
 30
0.0
 10
9.9032241127
 20
10.3075081204
 30
0.0
 10
9.8960711438
 20
10.338107378
 30
0.0
 10
9.8911110839
 20
10.3689939461
 30
0.0
 10
9.8883701299
 20
10.4000065898
 30
0.0
 10
9.8878629321
 20
10.4309833823
 30
0.0
 10
9.8895924554
 20
10.4617624162
 30
0.0
 10
9.8935501339
 20
10.492183108
 30
0.0
 10
9.8997152116
 20
10.5220853053
 30
0.0
 10
9.9066745554
 20
10.5464710798
 30
0.0
 10
9.9133086835
 20
10.5655569791
 30
0.0
 10
9.9188059181
 20
10.5796326155
 30
0.0
 10
9.9248221336
 20
10.5934641921
 30
0.0
 10
9.9335175283
 20
10.6115406129
 30
0.0
 10
9.9456462752
 20
10.6334483336
 30
0.0
 10
9.9594050081
 20
10.654334041
 30
0.0
 10
9.9713324781
 20
10.6703396716
 30
0.0
 10
9.9838508851
 20
10.6858500309
 30
0.0
 10
9.9939070237
 20
10.6969275256
 30
0.0
 10
10.0008810411
 20
10.704035756
 30
0.0
  0
SPLINE
  5
38D
100
AcDbEntity
  8
0
100
AcDbSpline
 62
7
  6
CONTINUOUS
 70
0
 71
3
 72
39
 73
35
 74
0
 42
0.0000001
 43
0.0000001
 44
0.0000000001
 40
0.0
 40
0.0
 40
0.0
 40
0.0
 40
0.0313810784
 40
0.0629528376
 40
0.0947043025
 40
0.1266173393
 40
0.1586693839
 40
0.1908334097
 40
0.2230789865
 40
0.2553732072
 40
0.2876816978
 40
0.3199696547
 40
0.3522028912
 40
0.3843488734
 40
0.4163777203
 40
0.4482631445
 40
0.4799833089
 40
0.5115215767
 40
0.5428671294
 40
0.5740154233
 40
0.6049684536
 40
0.6357348099
 40
0.6663295034
 40
0.6967735563
 40
0.7270933513
 40
0.7573197524
 40
0.7874870278
 40
0.817631618
 40
0.8477908008
 40
0.8780013149
 40
0.9082980113
 40
0.9387125899
 40
0.9692724974
 40
1.0
 40
1.0
 40
1.0
 40
1.0
 10
10.3158641593
 20
10.12421805
 30
0.0
 10
10.3076634629
 20
10.1247867702
 30
0.0
 10
10.291254892
 20
10.1266789938
 30
0.0
 10
10.2669335336
 20
10.1317256203
 30
0.0
 10
10.2430198198
 20
10.1389471399
 30
0.0
 10
10.2197151703
 20
10.148282992
 30
0.0
 10
10.1972126032
 20
10.1596550449
 30
0.0
 10
10.1756992695
 20
10.1729684661
 30
0.0
 10
10.1553538283
 20
10.188112313
 30
0.0
 10
10.1363453029
 20
10.2049605416
 30
0.0
 10
10.118831631
 20
10.2233730424
 30
0.0
 10
10.102958396
 20
10.2431967826
 30
0.0
 10
10.0888576419
 20
10.2642670625
 30
0.0
 10
10.0766467486
 20
10.2864088287
 30
0.0
 10
10.06642747
 20
10.3094381194
 30
0.0
 10
10.0582851286
 20
10.3331635815
 30
0.0
 10
10.0522878964
 20
10.3573880189
 30
0.0
 10
10.0484862296
 20
10.3819099953
 30
0.0
 10
10.0469123954
 20
10.4065254648
 30
0.0
 10
10.0475801476
 20
10.4310294452
 30
0.0
 10
10.0504846287
 20
10.4552177037
 30
0.0
 10
10.0556023452
 20
10.4788884347
 30
0.0
 10
10.0628913084
 20
10.5018439361
 30
0.0
 10
10.0722913065
 20
10.5238922747
 30
0.0
 10
10.0837243014
 20
10.5448489534
 30
0.0
 10
10.0970951034
 20
10.5645384883
 30
0.0
 10
10.1122921314
 20
10.5827959417
 30
0.0
 10
10.1291883529
 20
10.5994683744
 30
0.0
 10
10.1476423499
 20
10.6144161855
 30
0.0
 10
10.1674995943
 20
10.6275144063
 30
0.0
 10
10.1885935513
 20
10.6386536815
 30
0.0
 10
10.210748302
 20
10.6477413788
 30
0.0
 10
10.2337757408
 20
10.6547016099
 30
0.0
 10
10.2495416838
 20
10.657876981
 30
0.0
 10
10.2574979939
 20
10.6590962153
 30
0.0
  0
SPLINE
  5
38E
100
AcDbEntity
  8
0
100
AcDbSpline
 62
7
  6
CONTINUOUS
 70
0
 71
3
 72
23
 73
19
 74
0
 42
0.0000001
 43
0.0000001
 44
0.0000000001
 40
0.0
 40
0.0
 40
0.0
 40
0.0
 40
0.0616482102
 40
0.1233194434
 40
0.1850364728
 40
0.2468215621
 40
0.3086962116
 40
0.370680925
 40
0.4327950032
 40
0.4950563306
 40
0.5574811832
 40
0.6200840863
 40
0.6828775763
 40
0.7458723561
 40
0.8090769818
 40
0.8724965655
 40
0.9361390263
 40
1.0
 40
1.0
 40
1.0
 40
1.0
 10
10.6160438431
 20
10.0671559884
 30
0.0
 10
10.6110747163
 20
10.0623561825
 30
0.0
 10
10.60087424
 20
10.0530201829
 30
0.0
 10
10.5848399163
 20
10.0398560562
 30
0.0
 10
10.5681093313
 20
10.0275620435
 30
0.0
 10
10.5507252051
 20
10.0161696648
 30
0.0
 10
10.5327311742
 20
10.0057074988
 30
0.0
 10
10.5141726579
 20
9.99620187
 30
0.0
 10
10.4950964177
 20
9.9876766645
 30
0.0
 10
10.4755505143
 20
9.9801533344
 30
0.0
 10
10.4555841757
 20
9.9736508269
 30
0.0
 10
10.4352477207
 20
9.9681854294
 30
0.0
 10
10.4145923728
 20
9.9637708175
 30
0.0
 10
10.3936701078
 20
9.9604180757
 30
0.0
 10
10.3725337549
 20
9.9581356869
 30
0.0
 10
10.3512360432
 20
9.9569291085
 30
0.0
 10
10.3298316502
 20
9.9568016057
 30
0.0
 10
10.3155497221
 20
9.9574349332
 30
0.0
 10
10.3084101768
 20
9.9579300623
 30
0.0
  0
SPLINE
  5
38F
100
AcDbEntity
  8
0
100
AcDbSpline
 62
7
  6
CONTINUOUS
 70
0
 71
3
 72
41
 73
37
 74
0
 42
0.0000001
 43
0.0000001
 44
0.0000000001
 40
0.0
 40
0.0
 40
0.0
 40
0.0
 40
0.0313533164
 40
0.0628898593
 40
0.0945997996
 40
0.1264669583
 40
0.1584712402
 40
0.1745207951
 40
0.1905952806
 40
0.2227980298
 40
0.2550565811
 40
0.271200408
 40
0.2873463703
 40
0.3196219251
 40
0.3518582095
 40
0.3840245351
 40
0.4160921643
 40
0.448035133
 40
0.479831015
 40
0.5114616101
 40
0.5429135356
 40
0.5741787
 40
0.6052546393
 40
0.6361446934
 40
0.6668580071
 40
0.6974093416
 40
0.7278186921
 40
0.7581107107
 40
0.7883139483
 40
0.8184599363
 40
0.8485821423
 40
0.8787148419
 40
0.9088919539
 40
0.9391458929
 40
0.9695064821
 40
1.0
 40
1.0
 40
1.0
 40
1.0
 10
10.3405554758
 20
10.1676549763
 30
0.0
 10
10.3332626128
 20
10.1681607381
 30
0.0
 10
10.3186709473
 20
10.169815984
 30
0.0
 10
10.2970247151
 20
10.1741842338
 30
0.0
 10
10.275712061
 20
10.1804118191
 30
0.0
 10
10.254899066
 20
10.1884501897
 30
0.0
 10
10.2381155853
 20
10.1966006213
 30
0.0
 10
10.2250934149
 20
10.203955978
 30
0.0
 10
10.2123465257
 20
10.211867047
 30
0.0
 10
10.1970152191
 20
10.222748321
 30
0.0
 10
10.1826143228
 20
10.2348589256
 30
0.0
 10
10.1717083363
 20
10.2452357244
 30
0.0
 10
10.1612325514
 20
10.2560520714
 30
0.0
 10
10.1489861582
 20
10.27035451
 30
0.0
 10
10.135759608
 20
10.2886382476
 30
0.0
 10
10.1241018831
 20
10.3079045162
 30
0.0
 10
10.1141030108
 20
10.3280052813
 30
0.0
 10
10.1058395753
 20
10.3487869787
 30
0.0
 10
10.0993751808
 20
10.3700905739
 30
0.0
 10
10.0947596823
 20
10.3917530466
 30
0.0
 10
10.0920288674
 20
10.4136085357
 30
0.0
 10
10.0912041484
 20
10.4354896053
 30
0.0
 10
10.0922923652
 20
10.4572284998
 30
0.0
 10
10.0952857059
 20
10.4786584174
 30
0.0
 10
10.1001617353
 20
10.4996147795
 30
0.0
 10
10.1068835225
 20
10.5199364942
 30
0.0
 10
10.1153998811
 20
10.5394672075
 30
0.0
 10
10.1256457232
 20
10.5580565316
 30
0.0
 10
10.1375425276
 20
10.575561241
 30
0.0
 10
10.1509989327
 20
10.5918464241
 30
0.0
 10
10.165911421
 20
10.6067865685
 30
0.0
 10
10.1821651939
 20
10.6202666068
 30
0.0
 10
10.1996348493
 20
10.6321827637
 30
0.0
 10
10.218186346
 20
10.6424436368
 30
0.0
 10
10.2376745187
 20
10.6509699375
 30
0.0
 10
10.2511638997
 20
10.6554449551
 30
0.0
 10
10.2580069428
 20
10.6573746047
 30
0.0
  0
SPLINE
  5
390
100
AcDbEntity
  8
0
100
AcDbSpline
 62
7
  6
CONTINUOUS
 70
0
 71
3
 72
40
 73
36
 74
0
 42
0.0000001
 43
0.0000001
 44
0.0000000001
 40
0.0
 40
0.0
 40
0.0
 40
0.0
 40
0.0311444639
 40
0.0624429499
 40
0.09388774
 40
0.1254702982
 40
0.1571779801
 40
0.1889961809
 40
0.2209079082
 40
0.2528943928
 40
0.2849353889
 40
0.3170095975
 40
0.3490950763
 40
0.3811696656
 40
0.4132114154
 40
0.4451990111
 40
0.4771121888
 40
0.5089321368
 40
0.5406418757
 40
0.5722266131
 40
0.6036740629
 40
0.6349747258
 40
0.6661221217
 40
0.6971129677
 40
0.7279472958
 40
0.7586285031
 40
0.7891633285
 40
0.8195617524
 40
0.8498368183
 40
0.880004376
 40
0.9100827491
 40
0.9400923341
 40
0.9550810212
 40
0.9700608646
 40
1.0
 40
1.0
 40
1.0
 40
1.0
 10
10.3480022382
 20
10.2026397168
 30
0.0
 10
10.3425997004
 20
10.2030143841
 30
0.0
 10
10.3317913161
 20
10.2041610504
 30
0.0
 10
10.3157098171
 20
10.2070493858
 30
0.0
 10
10.2998005151
 20
10.2110952555
 30
0.0
 10
10.2841494585
 20
10.2162766317
 30
0.0
 10
10.2688396942
 20
10.2225659306
 30
0.0
 10
10.2539529202
 20
10.2299294105
 30
0.0
 10
10.2395684339
 20
10.2383277653
 30
0.0
 10
10.2257628839
 20
10.2477161373
 30
0.0
 10
10.2126098275
 20
10.2580444382
 30
0.0
 10
10.2001793503
 20
10.2692575824
 30
0.0
 10
10.1885376974
 20
10.2812957898
 30
0.0
 10
10.1777469218
 20
10.294094896
 30
0.0
 10
10.1678645531
 20
10.3075866901
 30
0.0
 10
10.1589432981
 20
10.321699279
 30
0.0
 10
10.1510307619
 20
10.3363574658
 30
0.0
 10
10.1441691958
 20
10.3514831458
 30
0.0
 10
10.1383952734
 20
10.3669957174
 30
0.0
 10
10.1337398943
 20
10.3828125056
 30
0.0
 10
10.130228019
 20
10.3988491967
 30
0.0
 10
10.1278785327
 20
10.415020281
 30
0.0
 10
10.1267041403
 20
10.4312395029
 30
0.0
 10
10.1267112944
 20
10.4474203149
 30
0.0
 10
10.1279001484
 20
10.4634763343
 30
0.0
 10
10.1302645463
 20
10.4793218035
 30
0.0
 10
10.1337920488
 20
10.494872042
 30
0.0
 10
10.138463999
 20
10.5100439136
 30
0.0
 10
10.1442555694
 20
10.524756221
 30
0.0
 10
10.151136041
 20
10.5389303409
 30
0.0
 10
10.1590683765
 20
10.5524899285
 30
0.0
 10
10.166524453
 20
10.5632232553
 30
0.0
 10
10.1729675061
 20
10.5714272521
 30
0.0
 10
10.179717882
 20
10.5793635606
 30
0.0
 10
10.185126135
 20
10.5850135062
 30
0.0
 10
10.188870527
 20
10.5886303008
 30
0.0
  0
SPLINE
  5
391
100
AcDbEntity
  8
0
100
AcDbSpline
 62
7
  6
CONTINUOUS
 70
0
 71
3
 72
15
 73
11
 74
0
 42
0.0000001
 43
0.0000001
 44
0.0000000001
 40
0.0
 40
0.0
 40
0.0
 40
0.0
 40
0.1234354609
 40
0.2472460681
 40
0.3714764474
 40
0.4961647784
 40
0.6213425217
 40
0.7470296606
 40
0.8732512673
 40
1.0
 40
1.0
 40
1.0
 40
1.0
 10
10.5573832706
 20
10.3381875571
 30
0.0
 10
10.553600031
 20
10.3364414406
 30
0.0
 10
10.5459068275
 20
10.333187695
 30
0.0
 10
10.5340606589
 20
10.3290503901
 30
0.0
 10
10.5219339996
 20
10.3256640044
 30
0.0
 10
10.509572617
 20
10.3230413709
 30
0.0
 10
10.4970225066
 20
10.3211921848
 30
0.0
 10
10.4843300671
 20
10.3201230492
 30
0.0
 10
10.4715434043
 20
10.3198381487
 30
0.0
 10
10.4630042336
 20
10.3201708714
 30
0.0
 10
10.4587358886
 20
10.3204668822
 30
0.0
  0
SPLINE
  5
392
100
AcDbEntity
  8
0
100
AcDbSpline
 62
7
  6
CONTINUOUS
 70
0
 71
3
 72
39
 73
35
 74
0
 42
0.0000001
 43
0.0000001
 44
0.0000000001
 40
0.0
 40
0.0
 40
0.0
 40
0.0
 40
0.0309426068
 40
0.0620192905
 40
0.0932226905
 40
0.1245485521
 40
0.1559879423
 40
0.187531176
 40
0.2191667918
 40
0.2508819706
 40
0.2826627465
 40
0.3144941816
 40
0.3463606013
 40
0.3782458198
 40
0.4101333839
 40
0.4420068103
 40
0.4738498189
 40
0.5056465652
 40
0.5373818751
 40
0.5690414763
 40
0.6006122118
 40
0.6320822385
 40
0.6634412123
 40
0.6946804624
 40
0.7257931488
 40
0.7567743856
 40
0.7876213377
 40
0.8183332888
 40
0.8489116831
 40
0.8793601382
 40
0.9096844102
 40
0.9398923223
 40
0.9699936544
 40
1.0
 40
1.0
 40
1.0
 40
1.0
 10
10.4587358886
 20
10.3204668822
 30
0.0
 10
10.454291168
 20
10.3207751246
 30
0.0
 10
10.4453994956
 20
10.3216743136
 30
0.0
 10
10.4321466818
 20
10.3238564072
 30
0.0
 10
10.4189999819
 20
10.3268664325
 30
0.0
 10
10.4060128144
 20
10.3306918965
 30
0.0
 10
10.3932367162
 20
10.3353176968
 30
0.0
 10
10.380722844
 20
10.3407252093
 30
0.0
 10
10.368521144
 20
10.3468927916
 30
0.0
 10
10.356680346
 20
10.3537957443
 30
0.0
 10
10.3452477318
 20
10.3614064544
 30
0.0
 10
10.33426896
 20
10.3696945027
 30
0.0
 10
10.3237878914
 20
10.3786267822
 30
0.0
 10
10.3138463802
 20
10.3881675905
 30
0.0
 10
10.3044841219
 20
10.398278799
 30
0.0
 10
10.2957385135
 20
10.4089200197
 30
0.0
 10
10.2876445016
 20
10.4200487571
 30
0.0
 10
10.2802344555
 20
10.4316205799
 30
0.0
 10
10.2735379981
 20
10.4435892698
 30
0.0
 10
10.2675818938
 20
10.455907018
 30
0.0
 10
10.2623899731
 20
10.4685246309
 30
0.0
 10
10.2579830309
 20
10.4813917162
 30
0.0
 10
10.2543787539
 20
10.4944568827
 30
0.0
 10
10.2515916137
 20
10.5076679311
 30
0.0
 10
10.2496327966
 20
10.5209720666
 30
0.0
 10
10.2485102046
 20
10.5343161183
 30
0.0
 10
10.2482284114
 20
10.5476467423
 30
0.0
 10
10.2487886513
 20
10.5609106321
 30
0.0
 10
10.2501887825
 20
10.5740547227
 30
0.0
 10
10.252423275
 20
10.587026433
 30
0.0
 10
10.2554832436
 20
10.5997737937
 30
0.0
 10
10.2593566273
 20
10.612245944
 30
0.0
 10
10.2640276524
 20
10.6243922467
 30
0.0
 10
10.2676671368
 20
10.6322530321
 30
0.0
 10
10.2696125617
 20
10.6361108521
 30
0.0
  0
SPLINE
  5
393
100
AcDbEntity
  8
0
100
AcDbSpline
 62
7
  6
CONTINUOUS
 70
0
 71
3
 72
39
 73
35
 74
0
 42
0.0000001
 43
0.0000001
 44
0.0000000001
 40
0.0
 40
0.0
 40
0.0
 40
0.0
 40
0.0309084463
 40
0.0619481054
 40
0.0931109348
 40
0.1243936459
 40
0.1557878104
 40
0.1872843391
 40
0.2188726213
 40
0.2505406721
 40
0.2822754407
 40
0.3140629218
 40
0.3458883875
 40
0.3777365955
 40
0.4095919871
 40
0.4414388968
 40
0.4732617789
 40
0.5050454259
 40
0.5367751685
 40
0.5684370742
 40
0.6000181577
 40
0.6315065746
 40
0.6628917878
 40
0.6941647214
 40
0.7253179172
 40
0.7563456693
 40
0.7872441188
 40
0.8180113249
 40
0.8486473249
 40
0.8791541723
 40
0.9095359217
 40
0.9397985822
 40
0.9699500463
 40
1.0
 40
1.0
 40
1.0
 40
1.0
 10
10.4579556978
 20
10.3088466094
 30
0.0
 10
10.4534002722
 20
10.3091625293
 30
0.0
 10
10.4442871525
 20
10.3100767468
 30
0.0
 10
10.4307006785
 20
10.3122806535
 30
0.0
 10
10.4172174875
 20
10.3153121869
 30
0.0
 10
10.4038896986
 20
10.319159309
 30
0.0
 10
10.3907675047
 20
10.3238076695
 30
0.0
 10
10.3779008277
 20
10.3292394509
 30
0.0
 10
10.3653384412
 20
10.3354339702
 30
0.0
 10
10.3531280099
 20
10.3423676931
 30
0.0
 10
10.3413158764
 20
10.3500143005
 30
0.0
 10
10.3299468578
 20
10.358344752
 30
0.0
 10
10.3190640604
 20
10.3673273809
 30
0.0
 10
10.3087087682
 20
10.3769280898
 30
0.0
 10
10.2989202894
 20
10.3871104633
 30
0.0
 10
10.289735793
 20
10.3978358799
 30
0.0
 10
10.2811901013
 20
10.4090636107
 30
0.0
 10
10.2733156463
 20
10.4207510559
 30
0.0
 10
10.2661423396
 20
10.4328538858
 30
0.0
 10
10.2596974717
 20
10.4453262057
 30
0.0
 10
10.2540054988
 20
10.458120674
 30
0.0
 10
10.2490880462
 20
10.4711887426
 30
0.0
 10
10.2449638307
 20
10.4844808309
 30
0.0
 10
10.2416486108
 20
10.4979465094
 30
0.0
 10
10.2391550152
 20
10.51153466
 30
0.0
 10
10.237492547
 20
10.5251936956
 30
0.0
 10
10.2366675931
 20
10.5388717572
 30
0.0
 10
10.2366834059
 20
10.5525168995
 30
0.0
 10
10.2375400137
 20
10.566077276
 30
0.0
 10
10.2392342045
 20
10.5795013717
 30
0.0
 10
10.2417595988
 20
10.5927381135
 30
0.0
 10
10.2451067852
 20
10.6057373473
 30
0.0
 10
10.2492628532
 20
10.618448935
 30
0.0
 10
10.2525681898
 20
10.626713903
 30
0.0
 10
10.2543496635
 20
10.6307803289
 30
0.0
  0
SPLINE
  5
394
100
AcDbEntity
  8
0
100
AcDbSpline
 62
7
  6
CONTINUOUS
 70
0
 71
3
 72
23
 73
19
 74
0
 42
0.0000001
 43
0.0000001
 44
0.0000000001
 40
0.0
 40
0.0
 40
0.0
 40
0.0
 40
0.0616482057
 40
0.123319439
 40
0.1850364697
 40
0.2468215573
 40
0.308696204
 40
0.3706809203
 40
0.4327950036
 40
0.4950563332
 40
0.5574811873
 40
0.6200840738
 40
0.6828776141
 40
0.7458723365
 40
0.8090768798
 40
0.872497055
 40
0.9361379958
 40
1.0
 40
1.0
 40
1.0
 40
1.0
 10
10.8946012599
 20
5.9754365267
 30
0.0
 10
10.885132663
 20
5.9662905874
 30
0.0
 10
10.8656957929
 20
5.9485010341
 30
0.0
 10
10.8351426297
 20
5.9234170457
 30
0.0
 10
10.8032627228
 20
5.8999910866
 30
0.0
 10
10.7701375094
 20
5.8782831821
 30
0.0
 10
10.7358501808
 20
5.8583477089
 30
0.0
 10
10.7004872256
 20
5.8402349135
 30
0.0
 10
10.6641377365
 20
5.8239903433
 30
0.0
 10
10.6268933119
 20
5.8096548454
 30
0.0
 10
10.588847789
 20
5.7972644355
 30
0.0
 10
10.5500970052
 20
5.7868502143
 30
0.0
 10
10.510738574
 20
5.7784383178
 30
0.0
 10
10.4708715611
 20
5.7720497801
 30
0.0
 10
10.4305965042
 20
5.7677006516
 30
0.0
 10
10.3900142818
 20
5.7654016472
 30
0.0
 10
10.3492285487
 20
5.7651585543
 30
0.0
 10
10.3220146804
 20
5.7663654374
 30
0.0
 10
10.3084101768
 20
5.767308913
 30
0.0
  0
SPLINE
  5
395
100
AcDbEntity
  8
0
100
AcDbSpline
 62
7
  6
CONTINUOUS
 70
0
 71
3
 72
41
 73
37
 74
0
 42
0.0000001
 43
0.0000001
 44
0.0000000001
 40
0.0
 40
0.0
 40
0.0
 40
0.0
 40
0.0299421215
 40
0.0449237664
 40
0.0599145163
 40
0.0899291726
 40
0.1200146011
 40
0.1350933633
 40
0.150197482
 40
0.1804849812
 40
0.2108989716
 40
0.2414525927
 40
0.2721557594
 40
0.3030149826
 40
0.3340332732
 40
0.3652101289
 40
0.3965415981
 40
0.4280204157
 40
0.4596362033
 40
0.4913757265
 40
0.5232232015
 40
0.5551606446
 40
0.5871682542
 40
0.6192248218
 40
0.6513081621
 40
0.6833955577
 40
0.7154642108
 40
0.7474916956
 40
0.7794564066
 40
0.8113379949
 40
0.8431177834
 40
0.8747791731
 40
0.9063079611
 40
0.9376927982
 40
0.9689250982
 40
1.0
 40
1.0
 40
1.0
 40
1.0
 10
12.1931789641
 20
5.4869587313
 30
0.0
 10
12.1879308386
 20
5.4818893998
 30
0.0
 10
12.1797492904
 20
5.4745925784
 30
0.0
 10
12.1682912083
 20
5.4655388062
 30
0.0
 10
12.1564682391
 20
5.4569355596
 30
0.0
 10
12.1410411996
 20
5.4470562373
 30
0.0
 10
12.1248640769
 20
5.438414678
 30
0.0
 10
12.1115221372
 20
5.4322670566
 30
0.0
 10
12.0979045887
 20
5.4266269253
 30
0.0
 10
12.0804338846
 20
5.4205621787
 30
0.0
 10
12.0589038799
 20
5.4149099657
 30
0.0
 10
12.0369040781
 20
5.4109057809
 30
0.0
 10
12.0145563995
 20
5.4085717151
 30
0.0
 10
11.9919836051
 20
5.4079202244
 30
0.0
 10
11.9693098976
 20
5.4089546245
 30
0.0
 10
11.9466598975
 20
5.4116689401
 30
0.0
 10
11.9241580569
 20
5.4160479904
 30
0.0
 10
11.9019279594
 20
5.4220674721
 30
0.0
 10
11.8800916567
 20
5.4296941036
 30
0.0
 10
11.8587690061
 20
5.4388858128
 30
0.0
 10
11.8380770229
 20
5.4495919709
 30
0.0
 10
11.8181292464
 20
5.4617536721
 30
0.0
 10
11.799035126
 20
5.4753040563
 30
0.0
 10
11.7808994276
 20
5.4901686746
 30
0.0
 10
11.7638216658
 20
5.5062658948
 30
0.0
 10
11.7478955643
 20
5.5235073461
 30
0.0
 10
11.7332085464
 20
5.5417983994
 30
0.0
 10
11.7198412604
 20
5.5610386814
 30
0.0
 10
11.7078671399
 20
5.5811226185
 30
0.0
 10
11.6973520062
 20
5.6019400134
 30
0.0
 10
11.6883537015
 20
5.6233766279
 30
0.0
 10
11.6809217915
 20
5.6453148521
 30
0.0
 10
11.6750972452
 20
5.6676341595
 30
0.0
 10
11.6709123066
 20
5.6902124351
 30
0.0
 10
11.6683901387
 20
5.7129240574
 30
0.0
 10
11.6678252282
 20
5.7281136169
 30
0.0
 10
11.6678252282
 20
5.7356863049
 30
0.0
  0
SPLINE
  5
396
100
AcDbEntity
  8
0
100
AcDbSpline
 62
7
  6
CONTINUOUS
 70
0
 71
3
 72
41
 73
37
 74
0
 42
0.0000001
 43
0.0000001
 44
0.0000000001
 40
0.0
 40
0.0
 40
0.0
 40
0.0
 40
0.0299421215
 40
0.0449237664
 40
0.0599145163
 40
0.0899291726
 40
0.1200146011
 40
0.1350933633
 40
0.150197482
 40
0.1804849812
 40
0.2108989716
 40
0.2414525927
 40
0.2721557594
 40
0.3030149826
 40
0.3340332732
 40
0.3652101289
 40
0.3965415981
 40
0.4280204157
 40
0.4596362033
 40
0.4913757265
 40
0.5232232015
 40
0.5551606446
 40
0.5871682542
 40
0.6192248218
 40
0.6513081621
 40
0.6833955577
 40
0.7154642108
 40
0.7474916956
 40
0.7794564066
 40
0.8113379949
 40
0.8431177834
 40
0.8747791731
 40
0.9063079611
 40
0.9376927982
 40
0.9689250982
 40
1.0
 40
1.0
 40
1.0
 40
1.0
 10
8.8792803078
 20
5.7167783837
 30
0.0
 10
8.8740321823
 20
5.7117090522
 30
0.0
 10
8.8658506341
 20
5.7044122308
 30
0.0
 10
8.8543925519
 20
5.6953584585
 30
0.0
 10
8.8425695828
 20
5.686755212
 30
0.0
 10
8.8271425433
 20
5.6768758897
 30
0.0
 10
8.8109654206
 20
5.6682343304
 30
0.0
 10
8.7976234809
 20
5.662086709
 30
0.0
 10
8.7840059324
 20
5.6564465777
 30
0.0
 10
8.7665352283
 20
5.650381831
 30
0.0
 10
8.7450052236
 20
5.6447296181
 30
0.0
 10
8.7230054218
 20
5.6407254333
 30
0.0
 10
8.7006577431
 20
5.6383913675
 30
0.0
 10
8.6780849488
 20
5.6377398768
 30
0.0
 10
8.6554112413
 20
5.6387742769
 30
0.0
 10
8.6327612411
 20
5.6414885925
 30
0.0
 10
8.6102594006
 20
5.6458676428
 30
0.0
 10
8.5880293031
 20
5.6518871244
 30
0.0
 10
8.5661930003
 20
5.659513756
 30
0.0
 10
8.5448703498
 20
5.6687054652
 30
0.0
 10
8.5241783665
 20
5.6794116233
 30
0.0
 10
8.5042305901
 20
5.6915733245
 30
0.0
 10
8.4851364697
 20
5.7051237087
 30
0.0
 10
8.4670007713
 20
5.719988327
 30
0.0
 10
8.4499230095
 20
5.7360855471
 30
0.0
 10
8.433996908
 20
5.7533269985
 30
0.0
 10
8.4193098901
 20
5.7716180518
 30
0.0
 10
8.4059426041
 20
5.7908583338
 30
0.0
 10
8.3939684836
 20
5.8109422709
 30
0.0
 10
8.3834533499
 20
5.8317596658
 30
0.0
 10
8.3744550452
 20
5.8531962802
 30
0.0
 10
8.3670231351
 20
5.8751345045
 30
0.0
 10
8.3611985889
 20
5.8974538119
 30
0.0
 10
8.3570136503
 20
5.9200320875
 30
0.0
 10
8.3544914824
 20
5.9427437098
 30
0.0
 10
8.3539265719
 20
5.9579332693
 30
0.0
 10
8.3539265719
 20
5.9655059573
 30
0.0
  0
SPLINE
  5
397
100
AcDbEntity
  8
0
100
AcDbSpline
 62
7
  6
CONTINUOUS
 70
0
 71
3
 72
26
 73
22
 74
0
 42
0.0000001
 43
0.0000001
 44
0.0000000001
 40
0.0
 40
0.0
 40
0.0
 40
0.0
 40
0.0639406262
 40
0.0957746367
 40
0.1275137495
 40
0.1907031185
 40
0.2535471852
 40
0.2848583936
 40
0.3160972796
 40
0.3472697489
 40
0.378382251
 40
0.4404390009
 40
0.5023441126
 40
0.5641628851
 40
0.6259634803
 40
0.6878146647
 40
0.7497835242
 40
0.8119332522
 40
0.8743211029
 40
0.9369965908
 40
1.0
 40
1.0
 40
1.0
 40
1.0
 10
10.3158641593
 20
10.12421805
 30
0.0
 10
10.3235974873
 20
10.1236817419
 30
0.0
 10
10.3352240185
 20
10.1233764678
 30
0.0
 10
10.3506748944
 20
10.1239842854
 30
0.0
 10
10.365994382
 20
10.1252618121
 30
0.0
 10
10.3849354376
 20
10.1281116009
 30
0.0
 10
10.4034970188
 20
10.1326287141
 30
0.0
 10
10.4179949828
 20
10.1372168769
 30
0.0
 10
10.428665208
 20
10.1411341771
 30
0.0
 10
10.439123804
 20
10.1455240635
 30
0.0
 10
10.4527463279
 20
10.1519895757
 30
0.0
 10
10.4691617726
 20
10.1612137786
 30
0.0
 10
10.4877212873
 20
10.1740302175
 30
0.0
 10
10.5049911461
 20
10.1884911087
 30
0.0
 10
10.5208400867
 20
10.2044871178
 30
0.0
 10
10.53514905
 20
10.2218978461
 30
0.0
 10
10.5478103174
 20
10.2405920717
 30
0.0
 10
10.5587287719
 20
10.2604287319
 30
0.0
 10
10.5678226794
 20
10.281258964
 30
0.0
 10
10.5750235897
 20
10.3029235945
 30
0.0
 10
10.5785179007
 20
10.3177789181
 30
0.0
 10
10.5799358482
 20
10.3252844304
 30
0.0
  0
SPLINE
  5
398
100
AcDbEntity
  8
0
100
AcDbSpline
 62
7
  6
CONTINUOUS
 70
0
 71
3
 72
41
 73
37
 74
0
 42
0.0000001
 43
0.0000001
 44
0.0000000001
 40
0.0
 40
0.0
 40
0.0
 40
0.0
 40
0.0311446828
 40
0.0624424124
 40
0.0938872637
 40
0.1254695594
 40
0.1571770905
 40
0.1889951041
 40
0.2209066545
 40
0.2528929582
 40
0.284933772
 40
0.3170077963
 40
0.3490930898
 40
0.3811674939
 40
0.4132090598
 40
0.4451964726
 40
0.4771094688
 40
0.5089292364
 40
0.5406387947
 40
0.5722233505
 40
0.6036706186
 40
0.6349710988
 40
0.6661183108
 40
0.6971089744
 40
0.7279431223
 40
0.7586241507
 40
0.7891587995
 40
0.8195570492
 40
0.8498319415
 40
0.8799993261
 40
0.9100775268
 40
0.9400869391
 40
0.9550755387
 40
0.9700552973
 40
0.9850291337
 40
1.0
 40
1.0
 40
1.0
 40
1.0
 10
10.3084101768
 20
5.767308913
 30
0.0
 10
10.2885086088
 20
5.7686890914
 30
0.0
 10
10.2486938904
 20
5.7729129514
 30
0.0
 10
10.1894545276
 20
5.7835529706
 30
0.0
 10
10.1308496701
 20
5.7984564081
 30
0.0
 10
10.0731958363
 20
5.8175431995
 30
0.0
 10
10.0167993207
 20
5.840711025
 30
0.0
 10
9.9619609445
 20
5.8678358938
 30
0.0
 10
9.9089728602
 20
5.8987729125
 30
0.0
 10
9.8581174356
 20
5.933356909
 30
0.0
 10
9.8096655867
 20
5.9714032836
 30
0.0
 10
9.7638754975
 20
6.0127091432
 30
0.0
 10
9.7209912314
 20
6.0570543107
 30
0.0
 10
9.6812413105
 20
6.1042023654
 30
0.0
 10
9.6448376552
 20
6.1539020509
 30
0.0
 10
9.6119744942
 20
6.2058885861
 30
0.0
 10
9.5828271574
 20
6.2598849399
 30
0.0
 10
9.5575512541
 20
6.3156033836
 30
0.0
 10
9.5362819405
 20
6.3727470315
 30
0.0
 10
9.519133047
 20
6.4310113251
 30
0.0
 10
9.5061964503
 20
6.4900856566
 30
0.0
 10
9.4975417462
 20
6.5496550448
 30
0.0
 10
9.493215783
 20
6.6094017513
 30
0.0
 10
9.4932422334
 20
6.6690069549
 30
0.0
 10
9.4976216628
 20
6.7281524601
 30
0.0
 10
9.5063314908
 20
6.7865223534
 30
0.0
 10
9.5193258368
 20
6.8438046996
 30
0.0
 10
9.5365359554
 20
6.8996932632
 30
0.0
 10
9.5578704529
 20
6.9538889022
 30
0.0
 10
9.5832161989
 20
7.0061020227
 30
0.0
 10
9.6124365243
 20
7.0560512907
 30
0.0
 10
9.6399028938
 20
7.0955898026
 30
0.0
 10
9.6636365571
 20
7.1258102473
 30
0.0
 10
9.6822931722
 20
7.1477438413
 30
0.0
 10
9.7017854622
 20
7.1689215916
 30
0.0
 10
9.7153218536
 20
7.1825190221
 30
0.0
 10
9.7222190937
 20
7.1891812277
 30
0.0
  0
SPLINE
  5
399
100
AcDbEntity
  8
0
100
AcDbSpline
 62
7
  6
CONTINUOUS
 70
0
 71
3
 72
41
 73
37
 74
0
 42
0.0000001
 43
0.0000001
 44
0.0000000001
 40
0.0
 40
0.0
 40
0.0
 40
0.0
 40
0.0299421215
 40
0.0449237664
 40
0.0599145163
 40
0.0899291726
 40
0.1200146011
 40
0.1350933633
 40
0.150197482
 40
0.1804849812
 40
0.2108989716
 40
0.2414525927
 40
0.2721557594
 40
0.3030149826
 40
0.3340332732
 40
0.3652101289
 40
0.3965415981
 40
0.4280204157
 40
0.4596362033
 40
0.4913757265
 40
0.5232232015
 40
0.5551606446
 40
0.5871682542
 40
0.6192248218
 40
0.6513081621
 40
0.6833955577
 40
0.7154642108
 40
0.7474916956
 40
0.7794564066
 40
0.8113379949
 40
0.8431177834
 40
0.8747791731
 40
0.9063079611
 40
0.9376927982
 40
0.9689250982
 40
1.0
 40
1.0
 40
1.0
 40
1.0
 10
8.8792803078
 20
7.2381116503
 30
0.0
 10
8.8740321823
 20
7.2330423188
 30
0.0
 10
8.8658506341
 20
7.2257454974
 30
0.0
 10
8.8543925519
 20
7.2166917251
 30
0.0
 10
8.8425695828
 20
7.2080884785
 30
0.0
 10
8.8271425433
 20
7.1982091562
 30
0.0
 10
8.8109654206
 20
7.1895675969
 30
0.0
 10
8.7976234809
 20
7.1834199756
 30
0.0
 10
8.7840059324
 20
7.1777798443
 30
0.0
 10
8.7665352283
 20
7.1717150976
 30
0.0
 10
8.7450052236
 20
7.1660628846
 30
0.0
 10
8.7230054218
 20
7.1620586999
 30
0.0
 10
8.7006577431
 20
7.159724634
 30
0.0
 10
8.6780849488
 20
7.1590731433
 30
0.0
 10
8.6554112413
 20
7.1601075434
 30
0.0
 10
8.6327612411
 20
7.1628218591
 30
0.0
 10
8.6102594006
 20
7.1672009093
 30
0.0
 10
8.5880293031
 20
7.173220391
 30
0.0
 10
8.5661930003
 20
7.1808470225
 30
0.0
 10
8.5448703498
 20
7.1900387317
 30
0.0
 10
8.5241783665
 20
7.2007448898
 30
0.0
 10
8.5042305901
 20
7.2129065911
 30
0.0
 10
8.4851364697
 20
7.2264569753
 30
0.0
 10
8.4670007713
 20
7.2413215935
 30
0.0
 10
8.4499230095
 20
7.2574188137
 30
0.0
 10
8.433996908
 20
7.274660265
 30
0.0
 10
8.4193098901
 20
7.2929513183
 30
0.0
 10
8.4059426041
 20
7.3121916003
 30
0.0
 10
8.3939684836
 20
7.3322755375
 30
0.0
 10
8.3834533499
 20
7.3530929323
 30
0.0
 10
8.3744550452
 20
7.3745295468
 30
0.0
 10
8.3670231351
 20
7.396467771
 30
0.0
 10
8.3611985889
 20
7.4187870785
 30
0.0
 10
8.3570136503
 20
7.441365354
 30
0.0
 10
8.3544914824
 20
7.4640769763
 30
0.0
 10
8.3539265719
 20
7.4792665358
 30
0.0
 10
8.3539265719
 20
7.4868392239
 30
0.0
  0
SPLINE
  5
39A
100
AcDbEntity
  8
0
100
AcDbSpline
 62
7
  6
CONTINUOUS
 70
0
 71
3
 72
25
 73
21
 74
0
 42
0.0000001
 43
0.0000001
 44
0.0000000001
 40
0.0
 40
0.0
 40
0.0
 40
0.0
 40
0.0640005512
 40
0.0958762163
 40
0.1276638917
 40
0.1909740511
 40
0.2539618357
 40
0.2853494896
 40
0.3166672214
 40
0.3790978533
 40
0.4413085125
 40
0.5033465811
 40
0.565264176
 40
0.6271167411
 40
0.6889615245
 40
0.7508559908
 40
0.812856225
 40
0.8750153862
 40
0.9373822664
 40
1.0
 40
1.0
 40
1.0
 40
1.0
 10
10.3405554758
 20
10.1676549763
 30
0.0
 10
10.3471106321
 20
10.1672003747
 30
0.0
 10
10.3569633636
 20
10.1669053395
 30
0.0
 10
10.3700671963
 20
10.167297599
 30
0.0
 10
10.3830747583
 20
10.1682092804
 30
0.0
 10
10.3991862811
 20
10.1703208368
 30
0.0
 10
10.4150329778
 20
10.173727685
 30
0.0
 10
10.4274612365
 20
10.1772143705
 30
0.0
 10
10.4396805367
 20
10.1811931862
 30
0.0
 10
10.4545872002
 20
10.1870946536
 30
0.0
 10
10.4717757823
 20
10.1956235584
 30
0.0
 10
10.4881422772
 20
10.2055402265
 30
0.0
 10
10.5035829176
 20
10.2167822061
 30
0.0
 10
10.5180007401
 20
10.2292789547
 30
0.0
 10
10.5313049722
 20
10.2429518768
 30
0.0
 10
10.5434119745
 20
10.2577149888
 30
0.0
 10
10.554245632
 20
10.2734752659
 30
0.0
 10
10.5637380982
 20
10.2901339518
 30
0.0
 10
10.5718293452
 20
10.3075846089
 30
0.0
 10
10.5762472602
 20
10.3196506748
 30
0.0
 10
10.5782075891
 20
10.3257734374
 30
0.0
  0
SPLINE
  5
39B
100
AcDbEntity
  8
0
100
AcDbSpline
 62
7
  6
CONTINUOUS
 70
0
 71
3
 72
41
 73
37
 74
0
 42
0.0000001
 43
0.0000001
 44
0.0000000001
 40
0.0
 40
0.0
 40
0.0
 40
0.0
 40
0.0299421215
 40
0.0449237664
 40
0.0599145163
 40
0.0899291726
 40
0.1200146011
 40
0.1350933633
 40
0.150197482
 40
0.1804849812
 40
0.2108989716
 40
0.2414525927
 40
0.2721557594
 40
0.3030149826
 40
0.3340332732
 40
0.3652101289
 40
0.3965415981
 40
0.4280204157
 40
0.4596362033
 40
0.4913757265
 40
0.5232232015
 40
0.5551606446
 40
0.5871682542
 40
0.6192248218
 40
0.6513081621
 40
0.6833955577
 40
0.7154642108
 40
0.7474916956
 40
0.7794564066
 40
0.8113379949
 40
0.8431177834
 40
0.8747791731
 40
0.9063079611
 40
0.9376927982
 40
0.9689250982
 40
1.0
 40
1.0
 40
1.0
 40
1.0
 10
12.1931789641
 20
7.0082919979
 30
0.0
 10
12.1879308386
 20
7.0032226664
 30
0.0
 10
12.1797492904
 20
6.995925845
 30
0.0
 10
12.1682912083
 20
6.9868720727
 30
0.0
 10
12.1564682391
 20
6.9782688261
 30
0.0
 10
12.1410411996
 20
6.9683895039
 30
0.0
 10
12.1248640769
 20
6.9597479445
 30
0.0
 10
12.1115221372
 20
6.9536003232
 30
0.0
 10
12.0979045887
 20
6.9479601919
 30
0.0
 10
12.0804338846
 20
6.9418954452
 30
0.0
 10
12.0589038799
 20
6.9362432322
 30
0.0
 10
12.0369040781
 20
6.9322390475
 30
0.0
 10
12.0145563995
 20
6.9299049816
 30
0.0
 10
11.9919836051
 20
6.9292534909
 30
0.0
 10
11.9693098976
 20
6.930287891
 30
0.0
 10
11.9466598975
 20
6.9330022067
 30
0.0
 10
11.9241580569
 20
6.937381257
 30
0.0
 10
11.9019279594
 20
6.9434007386
 30
0.0
 10
11.8800916567
 20
6.9510273701
 30
0.0
 10
11.8587690061
 20
6.9602190793
 30
0.0
 10
11.8380770229
 20
6.9709252374
 30
0.0
 10
11.8181292464
 20
6.9830869387
 30
0.0
 10
11.799035126
 20
6.9966373229
 30
0.0
 10
11.7808994276
 20
7.0115019411
 30
0.0
 10
11.7638216658
 20
7.0275991613
 30
0.0
 10
11.7478955643
 20
7.0448406126
 30
0.0
 10
11.7332085464
 20
7.0631316659
 30
0.0
 10
11.7198412604
 20
7.082371948
 30
0.0
 10
11.7078671399
 20
7.1024558851
 30
0.0
 10
11.6973520062
 20
7.1232732799
 30
0.0
 10
11.6883537015
 20
7.1447098944
 30
0.0
 10
11.6809217915
 20
7.1666481187
 30
0.0
 10
11.6750972452
 20
7.1889674261
 30
0.0
 10
11.6709123066
 20
7.2115457017
 30
0.0
 10
11.6683901387
 20
7.234257324
 30
0.0
 10
11.6678252282
 20
7.2494468834
 30
0.0
 10
11.6678252282
 20
7.2570195715
 30
0.0
  0
SPLINE
  5
39C
100
AcDbEntity
  8
0
100
AcDbSpline
 62
7
  6
CONTINUOUS
 70
0
 71
3
 72
63
 73
59
 74
0
 42
0.0000001
 43
0.0000001
 44
0.0000000001
 40
0.0
 40
0.0
 40
0.0
 40
0.0
 40
0.0077182677
 40
0.0147688826
 40
0.0212511537
 40
0.0243227591
 40
0.027305975
 40
0.0302229936
 40
0.0330977104
 40
0.0359552375
 40
0.0388211633
 40
0.0417208481
 40
0.0446786841
 40
0.0508528757
 40
0.0575084802
 40
0.0647683939
 40
0.0727224273
 40
0.0814332765
 40
0.090942274
 40
0.1012744133
 40
0.1124422997
 40
0.1244486078
 40
0.1372882928
 40
0.1509500659
 40
0.1654172012
 40
0.1806686251
 40
0.1966793994
 40
0.2134210836
 40
0.2308623745
 40
0.2489692099
 40
0.2677050777
 40
0.2870313988
 40
0.3272897856
 40
0.3694006707
 40
0.4129959808
 40
0.4576899749
 40
0.5030841256
 40
0.5487718433
 40
0.5943431908
 40
0.6393895631
 40
0.6835083448
 40
0.7263076769
 40
0.7674112668
 40
0.8064633554
 40
0.8251166213
 40
0.8431357823
 40
0.8604846974
 40
0.8771295901
 40
0.8930395546
 40
0.9081866356
 40
0.9225463067
 40
0.936098096
 40
0.9488259685
 40
0.9607193874
 40
0.9717741994
 40
0.9819942761
 40
0.9913943801
 40
1.0
 40
1.0
 40
1.0
 40
1.0
 10
13.3102243009
 20
7.025241271
 30
0.0
 10
13.3112404673
 20
7.0261869298
 30
0.0
 10
13.3132711535
 20
7.027908281
 30
0.0
 10
13.3164627316
 20
7.0300282787
 30
0.0
 10
13.3191683492
 20
7.0313226887
 30
0.0
 10
13.3213102894
 20
7.032034855
 30
0.0
 10
13.3228822087
 20
7.0324088027
 30
0.0
 10
13.324446931
 20
7.03263143
 30
0.0
 10
13.3260033163
 20
7.0327022803
 30
0.0
 10
13.3275500463
 20
7.0326212472
 30
0.0
 10
13.3290858036
 20
7.0323884181
 30
0.0
 10
13.3306093579
 20
7.0320039069
 30
0.0
 10
13.3326514111
 20
7.0312799013
 30
0.0
 10
13.335187394
 20
7.0299699957
 30
0.0
 10
13.3381090295
 20
7.027824119
 30
0.0
 10
13.3409520041
 20
7.0250922349
 30
0.0
 10
13.3437130277
 20
7.0217828058
 30
0.0
 10
13.3463889582
 20
7.0179034276
 30
0.0
 10
13.3489753689
 20
7.0134625066
 30
0.0
 10
13.351467311
 20
7.0084696546
 30
0.0
 10
13.3538593648
 20
7.0029358914
 30
0.0
 10
13.3561461701
 20
6.9968737621
 30
0.0
 10
13.3583223821
 20
6.9902972143
 30
0.0
 10
13.3603827719
 20
6.9832215544
 30
0.0
 10
13.3623224496
 20
6.9756634127
 30
0.0
 10
13.3641367033
 20
6.967640634
 30
0.0
 10
13.3658211165
 20
6.9591722369
 30
0.0
 10
13.3673716517
 20
6.9502783588
 30
0.0
 10
13.3687845072
 20
6.940980178
 30
0.0
 10
13.3700562482
 20
6.9312998758
 30
0.0
 10
13.3711838582
 20
6.9212605422
 30
0.0
 10
13.372509342
 20
6.907236635
 30
0.0
 10
13.3737720714
 20
6.8889871472
 30
0.0
 10
13.374660446
 20
6.8663471175
 30
0.0
 10
13.3749323663
 20
6.842893636
 30
0.0
 10
13.3745848842
 20
6.8188508457
 30
0.0
 10
13.3736209823
 20
6.7944483612
 30
0.0
 10
13.372049722
 20
6.7699193808
 30
0.0
 10
13.3698861049
 20
6.7454983126
 30
0.0
 10
13.3671509061
 20
6.7214185146
 30
0.0
 10
13.3638704628
 20
6.6979100455
 30
0.0
 10
13.3600765215
 20
6.675197282
 30
0.0
 10
13.3558057645
 20
6.6534971543
 30
0.0
 10
13.3518257468
 20
6.6361741875
 30
0.0
 10
13.3484196134
 20
6.6229874005
 30
0.0
 10
13.3458116605
 20
6.6136276699
 30
0.0
 10
13.3431176219
 20
6.6046688455
 30
0.0
 10
13.3403438893
 20
6.5961322789
 30
0.0
 10
13.3374971993
 20
6.5880382795
 30
0.0
 10
13.3345843801
 20
6.5804060733
 30
0.0
 10
13.3316124005
 20
6.5732537467
 30
0.0
 10
13.3285884361
 20
6.5665981456
 30
0.0
 10
13.3255196524
 20
6.5604548803
 30
0.0
 10
13.322413268
 20
6.554838238
 30
0.0
 10
13.3192766218
 20
6.5497611224
 30
0.0
 10
13.3161165162
 20
6.5452347811
 30
0.0
 10
13.3129402089
 20
6.5412698978
 30
0.0
 10
13.3107208159
 20
6.5389051112
 30
0.0
 10
13.3096076227
 20
6.5378298491
 30
0.0
  0
SPLINE
  5
39D
100
AcDbEntity
  8
0
100
AcDbSpline
 62
7
  6
CONTINUOUS
 70
0
 71
3
 72
15
 73
11
 74
0
 42
0.0000001
 43
0.0000001
 44
0.0000000001
 40
0.0
 40
0.0
 40
0.0
 40
0.0
 40
0.1275072583
 40
0.2541329108
 40
0.3799226581
 40
0.5049504278
 40
0.6293250021
 40
0.7531828099
 40
0.8766828729
 40
1.0
 40
1.0
 40
1.0
 40
1.0
 10
10.3480022382
 20
10.2026397168
 30
0.0
 10
10.355373539
 20
10.2021285154
 30
0.0
 10
10.3701269721
 20
10.2018407473
 30
0.0
 10
10.392106062
 20
10.2036424358
 30
0.0
 10
10.4136465857
 20
10.2076607709
 30
0.0
 10
10.4345286612
 20
10.2138566588
 30
0.0
 10
10.4545419206
 20
10.2221681907
 30
0.0
 10
10.4734845125
 20
10.2325127737
 30
0.0
 10
10.4911625285
 20
10.2447841226
 30
0.0
 10
10.5019940131
 20
10.2541749972
 30
0.0
 10
10.5071339493
 20
10.2591397801
 30
0.0
  0
SPLINE
  5
39E
100
AcDbEntity
  8
0
100
AcDbSpline
 62
7
  6
CONTINUOUS
 70
0
 71
3
 72
39
 73
35
 74
0
 42
0.0000001
 43
0.0000001
 44
0.0000000001
 40
0.0
 40
0.0
 40
0.0
 40
0.0
 40
0.0311159435
 40
0.0620233446
 40
0.0927351373
 40
0.1232711777
 40
0.1536587331
 40
0.1839312108
 40
0.2141268399
 40
0.2442870988
 40
0.274454976
 40
0.3046731308
 40
0.3349820902
 40
0.3654185441
 40
0.3960138642
 40
0.4267928828
 40
0.4577729963
 40
0.4889636214
 40
0.5203659689
 40
0.5519731787
 40
0.5837707188
 40
0.6157370636
 40
0.647844591
 40
0.6800606403
 40
0.712348731
 40
0.744669863
 40
0.7769838843
 40
0.8092508935
 40
0.8414326252
 40
0.8734938001
 40
0.9054034144
 40
0.9371358873
 40
0.968671823
 40
1.0
 40
1.0
 40
1.0
 40
1.0
 10
8.3158982485
 20
7.481156682
 30
0.0
 10
8.3158982485
 20
7.4920962982
 30
0.0
 10
8.3169662646
 20
7.5139180365
 30
0.0
 10
8.3217962495
 20
7.5462143611
 30
0.0
 10
8.329803419
 20
7.5776670128
 30
0.0
 10
8.3409118725
 20
7.6079682674
 30
0.0
 10
8.3550153082
 20
7.6368261912
 30
0.0
 10
8.3719784596
 20
7.6639611079
 30
0.0
 10
8.3916377415
 20
7.6891103915
 30
0.0
 10
8.4138034068
 20
7.712030342
 30
0.0
 10
8.4382609723
 20
7.7324991051
 30
0.0
 10
8.4647735899
 20
7.7503188255
 30
0.0
 10
8.4930845449
 20
7.7653174409
 30
0.0
 10
8.5229196393
 20
7.7773508324
 30
0.0
 10
8.5539903035
 20
7.7863035633
 30
0.0
 10
8.5859962432
 20
7.7920904521
 30
0.0
 10
8.6186285691
 20
7.7946569766
 30
0.0
 10
8.6515727426
 20
7.7939795959
 30
0.0
 10
8.6845116221
 20
7.7900662787
 30
0.0
 10
8.7171284366
 20
7.7829556823
 30
0.0
 10
8.7491098284
 20
7.7727173356
 30
0.0
 10
8.7801487516
 20
7.7594504881
 30
0.0
 10
8.8099473035
 20
7.743283214
 30
0.0
 10
8.8382196882
 20
7.7243714264
 30
0.0
 10
8.8646945942
 20
7.7028969006
 30
0.0
 10
8.8891180971
 20
7.6790660873
 30
0.0
 10
8.9112557618
 20
7.6531077444
 30
0.0
 10
8.9308949389
 20
7.625270948
 30
0.0
 10
8.9478469562
 20
7.5958228579
 30
0.0
 10
8.9619484727
 20
7.5650458146
 30
0.0
 10
8.9730636069
 20
7.5332355053
 30
0.0
 10
8.9810846694
 20
7.5006961631
 30
0.0
 10
8.9859337504
 20
7.4677444118
 30
0.0
 10
8.9870235524
 20
7.4456282164
 30
0.0
 10
8.9870235524
 20
7.4346139841
 30
0.0
  0
SPLINE
  5
39F
100
AcDbEntity
  8
0
100
AcDbSpline
 62
7
  6
CONTINUOUS
 70
0
 71
3
 72
13
 73
9
 74
0
 42
0.0000001
 43
0.0000001
 44
0.0000000001
 40
0.0
 40
0.0
 40
0.0
 40
0.0
 40
0.2526576777
 40
0.5034203526
 40
0.6281740976
 40
0.7525026361
 40
0.8764339265
 40
1.0
 40
1.0
 40
1.0
 40
1.0
 10
10.4579556978
 20
10.3088466094
 30
0.0
 10
10.4659715577
 20
10.3082907077
 30
0.0
 10
10.4820164328
 20
10.3080473195
 30
0.0
 10
10.5019462541
 20
10.3099504797
 30
0.0
 10
10.5175947742
 20
10.3127863328
 30
0.0
 10
10.5291361787
 20
10.3155571898
 30
0.0
 10
10.5404650903
 20
10.3189670511
 30
0.0
 10
10.5478651752
 20
10.3216636785
 30
0.0
 10
10.5515171711
 20
10.3231146852
 30
0.0
  0
SPLINE
  5
3A0
100
AcDbEntity
  8
0
100
AcDbSpline
 62
7
  6
CONTINUOUS
 70
0
 71
3
 72
39
 73
35
 74
0
 42
0.0000001
 43
0.0000001
 44
0.0000000001
 40
0.0
 40
0.0
 40
0.0
 40
0.0
 40
0.0311159435
 40
0.0620233446
 40
0.0927351373
 40
0.1232711777
 40
0.1536587331
 40
0.1839312108
 40
0.2141268399
 40
0.2442870988
 40
0.274454976
 40
0.3046731308
 40
0.3349820902
 40
0.3654185441
 40
0.3960138642
 40
0.4267928828
 40
0.4577729963
 40
0.4889636214
 40
0.5203659689
 40
0.5519731787
 40
0.5837707188
 40
0.6157370636
 40
0.647844591
 40
0.6800606403
 40
0.712348731
 40
0.744669863
 40
0.7769838843
 40
0.8092508935
 40
0.8414326252
 40
0.8734938001
 40
0.9054034144
 40
0.9371358873
 40
0.968671823
 40
1.0
 40
1.0
 40
1.0
 40
1.0
 10
8.9870235524
 20
7.4346139841
 30
0.0
 10
8.9870235524
 20
7.4236743679
 30
0.0
 10
8.9859555363
 20
7.4018526296
 30
0.0
 10
8.9811255513
 20
7.369556305
 30
0.0
 10
8.9731183819
 20
7.3381036533
 30
0.0
 10
8.9620099284
 20
7.3078023987
 30
0.0
 10
8.9479064927
 20
7.2789444749
 30
0.0
 10
8.9309433413
 20
7.2518095582
 30
0.0
 10
8.9112840594
 20
7.2266602746
 30
0.0
 10
8.8891183941
 20
7.2037403241
 30
0.0
 10
8.8646608285
 20
7.183271561
 30
0.0
 10
8.8381482109
 20
7.1654518406
 30
0.0
 10
8.8098372559
 20
7.1504532252
 30
0.0
 10
8.7800021616
 20
7.1384198337
 30
0.0
 10
8.7489314974
 20
7.1294671028
 30
0.0
 10
8.7169255577
 20
7.123680214
 30
0.0
 10
8.6842932318
 20
7.1211136895
 30
0.0
 10
8.6513490583
 20
7.1217910701
 30
0.0
 10
8.6184101788
 20
7.1257043874
 30
0.0
 10
8.5857933643
 20
7.1328149838
 30
0.0
 10
8.5538119724
 20
7.1430533305
 30
0.0
 10
8.5227730493
 20
7.156320178
 30
0.0
 10
8.4929744974
 20
7.1724874521
 30
0.0
 10
8.4647021127
 20
7.1913992397
 30
0.0
 10
8.4382272067
 20
7.2128737655
 30
0.0
 10
8.4138037038
 20
7.2367045788
 30
0.0
 10
8.3916660391
 20
7.2626629216
 30
0.0
 10
8.372026862
 20
7.2904997181
 30
0.0
 10
8.3550748447
 20
7.3199478082
 30
0.0
 10
8.3409733282
 20
7.3507248515
 30
0.0
 10
8.329858194
 20
7.3825351608
 30
0.0
 10
8.3218371315
 20
7.415074503
 30
0.0
 10
8.3169880505
 20
7.4480262543
 30
0.0
 10
8.3158982485
 20
7.4701424497
 30
0.0
 10
8.3158982485
 20
7.481156682
 30
0.0
  0
SPLINE
  5
3A1
100
AcDbEntity
  8
0
100
AcDbSpline
 62
7
  6
CONTINUOUS
 70
0
 71
3
 72
39
 73
35
 74
0
 42
0.0000001
 43
0.0000001
 44
0.0000000001
 40
0.0
 40
0.0
 40
0.0
 40
0.0
 40
0.0311159435
 40
0.0620233446
 40
0.0927351373
 40
0.1232711777
 40
0.1536587331
 40
0.1839312108
 40
0.2141268399
 40
0.2442870988
 40
0.274454976
 40
0.3046731308
 40
0.3349820902
 40
0.3654185441
 40
0.3960138642
 40
0.4267928828
 40
0.4577729963
 40
0.4889636214
 40
0.5203659689
 40
0.5519731787
 40
0.5837707188
 40
0.6157370636
 40
0.647844591
 40
0.6800606403
 40
0.712348731
 40
0.744669863
 40
0.7769838843
 40
0.8092508935
 40
0.8414326252
 40
0.8734938001
 40
0.9054034144
 40
0.9371358873
 40
0.968671823
 40
1.0
 40
1.0
 40
1.0
 40
1.0
 10
8.3158982485
 20
5.9598234155
 30
0.0
 10
8.3158982485
 20
5.9707630316
 30
0.0
 10
8.3169662646
 20
5.99258477
 30
0.0
 10
8.3217962495
 20
6.0248810946
 30
0.0
 10
8.329803419
 20
6.0563337463
 30
0.0
 10
8.3409118725
 20
6.0866350008
 30
0.0
 10
8.3550153082
 20
6.1154929247
 30
0.0
 10
8.3719784596
 20
6.1426278413
 30
0.0
 10
8.3916377415
 20
6.1677771249
 30
0.0
 10
8.4138034068
 20
6.1906970754
 30
0.0
 10
8.4382609723
 20
6.2111658385
 30
0.0
 10
8.4647735899
 20
6.2289855589
 30
0.0
 10
8.4930845449
 20
6.2439841744
 30
0.0
 10
8.5229196393
 20
6.2560175658
 30
0.0
 10
8.5539903035
 20
6.2649702968
 30
0.0
 10
8.5859962432
 20
6.2707571856
 30
0.0
 10
8.6186285691
 20
6.27332371
 30
0.0
 10
8.6515727426
 20
6.2726463294
 30
0.0
 10
8.6845116221
 20
6.2687330122
 30
0.0
 10
8.7171284366
 20
6.2616224158
 30
0.0
 10
8.7491098284
 20
6.2513840691
 30
0.0
 10
8.7801487516
 20
6.2381172216
 30
0.0
 10
8.8099473035
 20
6.2219499475
 30
0.0
 10
8.8382196882
 20
6.2030381598
 30
0.0
 10
8.8646945942
 20
6.1815636341
 30
0.0
 10
8.8891180971
 20
6.1577328207
 30
0.0
 10
8.9112557618
 20
6.1317744779
 30
0.0
 10
8.9308949389
 20
6.1039376815
 30
0.0
 10
8.9478469562
 20
6.0744895913
 30
0.0
 10
8.9619484727
 20
6.0437125481
 30
0.0
 10
8.9730636069
 20
6.0119022387
 30
0.0
 10
8.9810846694
 20
5.9793628965
 30
0.0
 10
8.9859337504
 20
5.9464111452
 30
0.0
 10
8.9870235524
 20
5.9242949499
 30
0.0
 10
8.9870235524
 20
5.9132807175
 30
0.0
  0
SPLINE
  5
3A2
100
AcDbEntity
  8
0
100
AcDbSpline
 62
7
  6
CONTINUOUS
 70
0
 71
3
 72
39
 73
35
 74
0
 42
0.0000001
 43
0.0000001
 44
0.0000000001
 40
0.0
 40
0.0
 40
0.0
 40
0.0
 40
0.0311159435
 40
0.0620233446
 40
0.0927351373
 40
0.1232711777
 40
0.1536587331
 40
0.1839312108
 40
0.2141268399
 40
0.2442870988
 40
0.274454976
 40
0.3046731308
 40
0.3349820902
 40
0.3654185441
 40
0.3960138642
 40
0.4267928828
 40
0.4577729963
 40
0.4889636214
 40
0.5203659689
 40
0.5519731787
 40
0.5837707188
 40
0.6157370636
 40
0.647844591
 40
0.6800606403
 40
0.712348731
 40
0.744669863
 40
0.7769838843
 40
0.8092508935
 40
0.8414326252
 40
0.8734938001
 40
0.9054034144
 40
0.9371358873
 40
0.968671823
 40
1.0
 40
1.0
 40
1.0
 40
1.0
 10
11.6297969048
 20
5.7300037631
 30
0.0
 10
11.6297969048
 20
5.7409433792
 30
0.0
 10
11.6308649209
 20
5.7627651176
 30
0.0
 10
11.6356949059
 20
5.7950614422
 30
0.0
 10
11.6437020753
 20
5.8265140939
 30
0.0
 10
11.6548105289
 20
5.8568153484
 30
0.0
 10
11.6689139645
 20
5.8856732723
 30
0.0
 10
11.6858771159
 20
5.9128081889
 30
0.0
 10
11.7055363978
 20
5.9379574726
 30
0.0
 10
11.7277020631
 20
5.9608774231
 30
0.0
 10
11.7521596287
 20
5.9813461861
 30
0.0
 10
11.7786722463
 20
5.9991659065
 30
0.0
 10
11.8069832013
 20
6.014164522
 30
0.0
 10
11.8368182956
 20
6.0261979135
 30
0.0
 10
11.8678889598
 20
6.0351506444
 30
0.0
 10
11.8998948995
 20
6.0409375332
 30
0.0
 10
11.9325272254
 20
6.0435040576
 30
0.0
 10
11.9654713989
 20
6.042826677
 30
0.0
 10
11.9984102784
 20
6.0389133598
 30
0.0
 10
12.0310270929
 20
6.0318027634
 30
0.0
 10
12.0630084848
 20
6.0215644167
 30
0.0
 10
12.0940474079
 20
6.0082975692
 30
0.0
 10
12.1238459598
 20
5.9921302951
 30
0.0
 10
12.1521183445
 20
5.9732185074
 30
0.0
 10
12.1785932505
 20
5.9517439817
 30
0.0
 10
12.2030167534
 20
5.9279131683
 30
0.0
 10
12.2251544181
 20
5.9019548255
 30
0.0
 10
12.2447935952
 20
5.8741180291
 30
0.0
 10
12.2617456126
 20
5.8446699389
 30
0.0
 10
12.275847129
 20
5.8138928957
 30
0.0
 10
12.2869622632
 20
5.7820825863
 30
0.0
 10
12.2949833257
 20
5.7495432441
 30
0.0
 10
12.2998324067
 20
5.7165914928
 30
0.0
 10
12.3009222087
 20
5.6944752975
 30
0.0
 10
12.3009222087
 20
5.6834610652
 30
0.0
  0
SPLINE
  5
3A3
100
AcDbEntity
  8
0
100
AcDbSpline
 62
7
  6
CONTINUOUS
 70
0
 71
3
 72
39
 73
35
 74
0
 42
0.0000001
 43
0.0000001
 44
0.0000000001
 40
0.0
 40
0.0
 40
0.0
 40
0.0
 40
0.0311159435
 40
0.0620233446
 40
0.0927351373
 40
0.1232711777
 40
0.1536587331
 40
0.1839312108
 40
0.2141268399
 40
0.2442870988
 40
0.274454976
 40
0.3046731308
 40
0.3349820902
 40
0.3654185441
 40
0.3960138642
 40
0.4267928828
 40
0.4577729963
 40
0.4889636214
 40
0.5203659689
 40
0.5519731787
 40
0.5837707188
 40
0.6157370636
 40
0.647844591
 40
0.6800606403
 40
0.712348731
 40
0.744669863
 40
0.7769838843
 40
0.8092508935
 40
0.8414326252
 40
0.8734938001
 40
0.9054034144
 40
0.9371358873
 40
0.968671823
 40
1.0
 40
1.0
 40
1.0
 40
1.0
 10
11.6297969048
 20
7.2513370296
 30
0.0
 10
11.6297969048
 20
7.2622766458
 30
0.0
 10
11.6308649209
 20
7.2840983841
 30
0.0
 10
11.6356949059
 20
7.3163947087
 30
0.0
 10
11.6437020753
 20
7.3478473604
 30
0.0
 10
11.6548105289
 20
7.378148615
 30
0.0
 10
11.6689139645
 20
7.4070065388
 30
0.0
 10
11.6858771159
 20
7.4341414555
 30
0.0
 10
11.7055363978
 20
7.4592907391
 30
0.0
 10
11.7277020631
 20
7.4822106896
 30
0.0
 10
11.7521596287
 20
7.5026794527
 30
0.0
 10
11.7786722463
 20
7.5204991731
 30
0.0
 10
11.8069832013
 20
7.5354977885
 30
0.0
 10
11.8368182956
 20
7.54753118
 30
0.0
 10
11.8678889598
 20
7.5564839109
 30
0.0
 10
11.8998948995
 20
7.5622707997
 30
0.0
 10
11.9325272254
 20
7.5648373242
 30
0.0
 10
11.9654713989
 20
7.5641599436
 30
0.0
 10
11.9984102784
 20
7.5602466263
 30
0.0
 10
12.0310270929
 20
7.5531360299
 30
0.0
 10
12.0630084848
 20
7.5428976832
 30
0.0
 10
12.0940474079
 20
7.5296308358
 30
0.0
 10
12.1238459598
 20
7.5134635616
 30
0.0
 10
12.1521183445
 20
7.494551774
 30
0.0
 10
12.1785932505
 20
7.4730772482
 30
0.0
 10
12.2030167534
 20
7.4492464349
 30
0.0
 10
12.2251544181
 20
7.4232880921
 30
0.0
 10
12.2447935952
 20
7.3954512957
 30
0.0
 10
12.2617456126
 20
7.3660032055
 30
0.0
 10
12.275847129
 20
7.3352261622
 30
0.0
 10
12.2869622632
 20
7.3034158529
 30
0.0
 10
12.2949833257
 20
7.2708765107
 30
0.0
 10
12.2998324067
 20
7.2379247594
 30
0.0
 10
12.3009222087
 20
7.215808564
 30
0.0
 10
12.3009222087
 20
7.2047943317
 30
0.0
  0
SPLINE
  5
3A4
100
AcDbEntity
  8
0
100
AcDbSpline
 62
7
  6
CONTINUOUS
 70
0
 71
3
 72
39
 73
35
 74
0
 42
0.0000001
 43
0.0000001
 44
0.0000000001
 40
0.0
 40
0.0
 40
0.0
 40
0.0
 40
0.0311159435
 40
0.0620233446
 40
0.0927351373
 40
0.1232711777
 40
0.1536587331
 40
0.1839312108
 40
0.2141268399
 40
0.2442870988
 40
0.274454976
 40
0.3046731308
 40
0.3349820902
 40
0.3654185441
 40
0.3960138642
 40
0.4267928828
 40
0.4577729963
 40
0.4889636214
 40
0.5203659689
 40
0.5519731787
 40
0.5837707188
 40
0.6157370636
 40
0.647844591
 40
0.6800606403
 40
0.712348731
 40
0.744669863
 40
0.7769838843
 40
0.8092508935
 40
0.8414326252
 40
0.8734938001
 40
0.9054034144
 40
0.9371358873
 40
0.968671823
 40
1.0
 40
1.0
 40
1.0
 40
1.0
 10
8.9870235524
 20
5.9132807175
 30
0.0
 10
8.9870235524
 20
5.9023411014
 30
0.0
 10
8.9859555363
 20
5.880519363
 30
0.0
 10
8.9811255513
 20
5.8482230384
 30
0.0
 10
8.9731183819
 20
5.8167703867
 30
0.0
 10
8.9620099284
 20
5.7864691322
 30
0.0
 10
8.9479064927
 20
5.7576112083
 30
0.0
 10
8.9309433413
 20
5.7304762917
 30
0.0
 10
8.9112840594
 20
5.705327008
 30
0.0
 10
8.8891183941
 20
5.6824070576
 30
0.0
 10
8.8646608285
 20
5.6619382945
 30
0.0
 10
8.8381482109
 20
5.6441185741
 30
0.0
 10
8.8098372559
 20
5.6291199586
 30
0.0
 10
8.7800021616
 20
5.6170865672
 30
0.0
 10
8.7489314974
 20
5.6081338362
 30
0.0
 10
8.7169255577
 20
5.6023469474
 30
0.0
 10
8.6842932318
 20
5.599780423
 30
0.0
 10
8.6513490583
 20
5.6004578036
 30
0.0
 10
8.6184101788
 20
5.6043711208
 30
0.0
 10
8.5857933643
 20
5.6114817172
 30
0.0
 10
8.5538119724
 20
5.6217200639
 30
0.0
 10
8.5227730493
 20
5.6349869114
 30
0.0
 10
8.4929744974
 20
5.6511541855
 30
0.0
 10
8.4647021127
 20
5.6700659732
 30
0.0
 10
8.4382272067
 20
5.6915404989
 30
0.0
 10
8.4138037038
 20
5.7153713123
 30
0.0
 10
8.3916660391
 20
5.7413296551
 30
0.0
 10
8.372026862
 20
5.7691664515
 30
0.0
 10
8.3550748447
 20
5.7986145417
 30
0.0
 10
8.3409733282
 20
5.8293915849
 30
0.0
 10
8.329858194
 20
5.8612018943
 30
0.0
 10
8.3218371315
 20
5.8937412365
 30
0.0
 10
8.3169880505
 20
5.9266929878
 30
0.0
 10
8.3158982485
 20
5.9488091831
 30
0.0
 10
8.3158982485
 20
5.9598234155
 30
0.0
  0
SPLINE
  5
3A5
100
AcDbEntity
  8
0
100
AcDbSpline
 62
7
  6
CONTINUOUS
 70
0
 71
3
 72
39
 73
35
 74
0
 42
0.0000001
 43
0.0000001
 44
0.0000000001
 40
0.0
 40
0.0
 40
0.0
 40
0.0
 40
0.0311159435
 40
0.0620233446
 40
0.0927351373
 40
0.1232711777
 40
0.1536587331
 40
0.1839312108
 40
0.2141268399
 40
0.2442870988
 40
0.274454976
 40
0.3046731308
 40
0.3349820902
 40
0.3654185441
 40
0.3960138642
 40
0.4267928828
 40
0.4577729963
 40
0.4889636214
 40
0.5203659689
 40
0.5519731787
 40
0.5837707188
 40
0.6157370636
 40
0.647844591
 40
0.6800606403
 40
0.712348731
 40
0.744669863
 40
0.7769838843
 40
0.8092508935
 40
0.8414326252
 40
0.8734938001
 40
0.9054034144
 40
0.9371358873
 40
0.968671823
 40
1.0
 40
1.0
 40
1.0
 40
1.0
 10
12.3009222087
 20
7.2047943317
 30
0.0
 10
12.3009222087
 20
7.1938547155
 30
0.0
 10
12.2998541926
 20
7.1720329772
 30
0.0
 10
12.2950242077
 20
7.1397366526
 30
0.0
 10
12.2870170382
 20
7.1082840009
 30
0.0
 10
12.2759085847
 20
7.0779827463
 30
0.0
 10
12.261805149
 20
7.0491248225
 30
0.0
 10
12.2448419976
 20
7.0219899058
 30
0.0
 10
12.2251827157
 20
6.9968406222
 30
0.0
 10
12.2030170504
 20
6.9739206717
 30
0.0
 10
12.1785594849
 20
6.9534519086
 30
0.0
 10
12.1520468673
 20
6.9356321882
 30
0.0
 10
12.1237359123
 20
6.9206335728
 30
0.0
 10
12.0939008179
 20
6.9086001813
 30
0.0
 10
12.0628301537
 20
6.8996474504
 30
0.0
 10
12.030824214
 20
6.8938605616
 30
0.0
 10
11.9981918881
 20
6.8912940371
 30
0.0
 10
11.9652477146
 20
6.8919714178
 30
0.0
 10
11.9323088351
 20
6.895884735
 30
0.0
 10
11.8996920206
 20
6.9029953314
 30
0.0
 10
11.8677106288
 20
6.9132336781
 30
0.0
 10
11.8366717056
 20
6.9265005256
 30
0.0
 10
11.8068731538
 20
6.9426677997
 30
0.0
 10
11.778600769
 20
6.9615795873
 30
0.0
 10
11.752125863
 20
6.9830541131
 30
0.0
 10
11.7277023602
 20
7.0068849264
 30
0.0
 10
11.7055646954
 20
7.0328432693
 30
0.0
 10
11.6859255183
 20
7.0606800657
 30
0.0
 10
11.668973501
 20
7.0901281558
 30
0.0
 10
11.6548719845
 20
7.1209051991
 30
0.0
 10
11.6437568503
 20
7.1527155084
 30
0.0
 10
11.6357357878
 20
7.1852548506
 30
0.0
 10
11.6308867068
 20
7.2182066019
 30
0.0
 10
11.6297969048
 20
7.2403227973
 30
0.0
 10
11.6297969048
 20
7.2513370296
 30
0.0
  0
SPLINE
  5
3A6
100
AcDbEntity
  8
0
100
AcDbSpline
 62
7
  6
CONTINUOUS
 70
0
 71
3
 72
19
 73
15
 74
0
 42
0.0000001
 43
0.0000001
 44
0.0000000001
 40
0.0
 40
0.0
 40
0.0
 40
0.0
 40
0.1273276112
 40
0.2538197126
 40
0.3795264544
 40
0.5045235342
 40
0.5668075908
 40
0.6289556139
 40
0.69098437
 40
0.7529118409
 40
0.8147570139
 40
0.8765397109
 40
0.9382804089
 40
1.0
 40
1.0
 40
1.0
 40
1.0
 10
11.6678252282
 20
5.7356863049
 30
0.0
 10
11.6678252282
 20
5.7454292463
 30
0.0
 10
11.6687554694
 20
5.7648645986
 30
0.0
 10
11.6729625611
 20
5.7936442022
 30
0.0
 10
11.6799379222
 20
5.821699322
 30
0.0
 10
11.6880183024
 20
5.84429097
 30
0.0
 10
11.6957894034
 20
5.8617306236
 30
0.0
 10
11.7022516034
 20
5.8744581961
 30
0.0
 10
11.7093386438
 20
5.886816904
 30
0.0
 10
11.7170343007
 20
5.8987787041
 30
0.0
 10
11.7253208693
 20
5.9103158002
 30
0.0
 10
11.7341792997
 20
5.9214017276
 30
0.0
 10
11.743588768
 20
5.932010604
 30
0.0
 10
11.750215984
 20
5.9387499933
 30
0.0
 10
11.7536127989
 20
5.942031085
 30
0.0
  0
SPLINE
  5
3A7
100
AcDbEntity
  8
0
100
AcDbSpline
 62
7
  6
CONTINUOUS
 70
0
 71
3
 72
39
 73
35
 74
0
 42
0.0000001
 43
0.0000001
 44
0.0000000001
 40
0.0
 40
0.0
 40
0.0
 40
0.0
 40
0.0311159435
 40
0.0620233446
 40
0.0927351373
 40
0.1232711777
 40
0.1536587331
 40
0.1839312108
 40
0.2141268399
 40
0.2442870988
 40
0.274454976
 40
0.3046731308
 40
0.3349820902
 40
0.3654185441
 40
0.3960138642
 40
0.4267928828
 40
0.4577729963
 40
0.4889636214
 40
0.5203659689
 40
0.5519731787
 40
0.5837707188
 40
0.6157370636
 40
0.647844591
 40
0.6800606403
 40
0.712348731
 40
0.744669863
 40
0.7769838843
 40
0.8092508935
 40
0.8414326252
 40
0.8734938001
 40
0.9054034144
 40
0.9371358873
 40
0.968671823
 40
1.0
 40
1.0
 40
1.0
 40
1.0
 10
12.3009222087
 20
5.6834610652
 30
0.0
 10
12.3009222087
 20
5.672521449
 30
0.0
 10
12.2998541926
 20
5.6506997106
 30
0.0
 10
12.2950242077
 20
5.618403386
 30
0.0
 10
12.2870170382
 20
5.5869507343
 30
0.0
 10
12.2759085847
 20
5.5566494798
 30
0.0
 10
12.261805149
 20
5.5277915559
 30
0.0
 10
12.2448419976
 20
5.5006566393
 30
0.0
 10
12.2251827157
 20
5.4755073557
 30
0.0
 10
12.2030170504
 20
5.4525874052
 30
0.0
 10
12.1785594849
 20
5.4321186421
 30
0.0
 10
12.1520468673
 20
5.4142989217
 30
0.0
 10
12.1237359123
 20
5.3993003062
 30
0.0
 10
12.0939008179
 20
5.3872669148
 30
0.0
 10
12.0628301537
 20
5.3783141838
 30
0.0
 10
12.030824214
 20
5.372527295
 30
0.0
 10
11.9981918881
 20
5.3699607706
 30
0.0
 10
11.9652477146
 20
5.3706381512
 30
0.0
 10
11.9323088351
 20
5.3745514685
 30
0.0
 10
11.8996920206
 20
5.3816620649
 30
0.0
 10
11.8677106288
 20
5.3919004115
 30
0.0
 10
11.8366717056
 20
5.405167259
 30
0.0
 10
11.8068731538
 20
5.4213345331
 30
0.0
 10
11.778600769
 20
5.4402463208
 30
0.0
 10
11.752125863
 20
5.4617208465
 30
0.0
 10
11.7277023602
 20
5.4855516599
 30
0.0
 10
11.7055646954
 20
5.5115100027
 30
0.0
 10
11.6859255183
 20
5.5393467991
 30
0.0
 10
11.668973501
 20
5.5687948893
 30
0.0
 10
11.6548719845
 20
5.5995719325
 30
0.0
 10
11.6437568503
 20
5.6313822419
 30
0.0
 10
11.6357357878
 20
5.6639215841
 30
0.0
 10
11.6308867068
 20
5.6968733354
 30
0.0
 10
11.6297969048
 20
5.7189895307
 30
0.0
 10
11.6297969048
 20
5.7300037631
 30
0.0
  0
SPLINE
  5
3A8
100
AcDbEntity
  8
0
100
AcDbSpline
 62
7
  6
CONTINUOUS
 70
0
 71
3
 72
41
 73
37
 74
0
 42
0.0000001
 43
0.0000001
 44
0.0000000001
 40
0.0
 40
0.0
 40
0.0
 40
0.0
 40
0.0311447108
 40
0.0467774295
 40
0.0624475249
 40
0.0938924651
 40
0.1254747955
 40
0.1571823865
 40
0.1890004527
 40
0.2209120576
 40
0.2528984154
 40
0.2689156901
 40
0.2849439669
 40
0.3170180467
 40
0.3491033961
 40
0.3811778561
 40
0.4132194776
 40
0.4452069463
 40
0.4771199982
 40
0.5089398211
 40
0.5406494354
 40
0.5722340478
 40
0.6036813723
 40
0.6349819093
 40
0.666129179
 40
0.6971198991
 40
0.7279541027
 40
0.7586351871
 40
0.7891698911
 40
0.819568195
 40
0.8498431417
 40
0.8800105805
 40
0.9100888347
 40
0.9400983003
 40
0.9700609852
 40
1.0
 40
1.0
 40
1.0
 40
1.0
 10
10.3084101768
 20
9.9579300623
 30
0.0
 10
10.2979658514
 20
9.9586543787
 30
0.0
 10
10.2823112319
 20
9.9603152363
 30
0.0
 10
10.2615830948
 20
9.9636528896
 30
0.0
 10
10.2408878801
 20
9.9677505201
 30
0.0
 10
10.2152261106
 20
9.9742763352
 30
0.0
 10
10.1849698945
 20
9.9842929827
 30
0.0
 10
10.155372922
 20
9.9964514269
 30
0.0
 10
10.1265936803
 20
10.0106866372
 30
0.0
 10
10.0987860059
 20
10.026922006
 30
0.0
 10
10.0765531936
 20
10.042041418
 30
0.0
 10
10.0593960197
 20
10.0550450244
 30
0.0
 10
10.0426703545
 20
10.0686459703
 30
0.0
 10
10.0226382134
 20
10.0867162109
 30
0.0
 10
10.0001330026
 20
10.1099881411
 30
0.0
 10
9.9792721242
 20
10.1347315073
 30
0.0
 10
9.9601675337
 20
10.1608138532
 30
0.0
 10
9.9429209287
 20
10.1880963557
 30
0.0
 10
9.9276243941
 20
10.2164336025
 30
0.0
 10
9.9143595979
 20
10.2456746126
 30
0.0
 10
9.9031974419
 20
10.275663563
 30
0.0
 10
9.8941976608
 20
10.3062406259
 30
0.0
 10
9.8874085078
 20
10.3372428045
 30
0.0
 10
9.88286649
 20
10.3685047906
 30
0.0
 10
9.8805961668
 20
10.3998598344
 30
0.0
 10
9.8806100083
 20
10.4311406227
 30
0.0
 10
9.8829083094
 20
10.462180162
 30
0.0
 10
9.8874791726
 20
10.492812665
 30
0.0
 10
9.8942985556
 20
10.522874431
 30
0.0
 10
9.9033303816
 20
10.5522047254
 30
0.0
 10
9.9145266966
 20
10.5806466304
 30
0.0
 10
9.9278279603
 20
10.6080479485
 30
0.0
 10
9.943163144
 20
10.634261837
 30
0.0
 10
9.9604508564
 20
10.6591483453
 30
0.0
 10
9.9795969534
 20
10.6825724698
 30
0.0
 10
9.9935378503
 20
10.6971360928
 30
0.0
 10
10.0007765104
 20
10.7041280986
 30
0.0
  0
SPLINE
  5
3A9
100
AcDbEntity
  8
0
100
AcDbSpline
 62
4
  6
CONTINUOUS
 70
0
 71
3
 72
324
 73
320
 74
0
 42
0.0000001
 43
0.0000001
 44
0.0000000001
 40
0.0
 40
0.0
 40
0.0
 40
0.0
 40
0.015625
 40
0.0234375
 40
0.03125
 40
0.0390625
 40
0.046875
 40
0.05078125
 40
0.0546875
 40
0.056640625
 40
0.05859375
 40
0.060546875
 40
0.0615234375
 40
0.0620117188
 40
0.0625
 40
0.0629882812
 40
0.0634765625
 40
0.064453125
 40
0.06640625
 40
0.068359375
 40
0.0703125
 40
0.07421875
 40
0.078125
 40
0.0859375
 40
0.09375
 40
0.1015625
 40
0.109375
 40
0.11328125
 40
0.1171875
 40
0.119140625
 40
0.12109375
 40
0.123046875
 40
0.1240234375
 40
0.1245117188
 40
0.125
 40
0.1254882812
 40
0.1259765625
 40
0.126953125
 40
0.12890625
 40
0.130859375
 40
0.1328125
 40
0.13671875
 40
0.140625
 40
0.1484375
 40
0.15625
 40
0.1640625
 40
0.171875
 40
0.17578125
 40
0.1796875
 40
0.181640625
 40
0.18359375
 40
0.185546875
 40
0.1865234375
 40
0.1870117188
 40
0.1875
 40
0.1879882812
 40
0.1884765625
 40
0.189453125
 40
0.19140625
 40
0.193359375
 40
0.1953125
 40
0.19921875
 40
0.203125
 40
0.2109375
 40
0.21875
 40
0.2265625
 40
0.23046875
 40
0.234375
 40
0.23828125
 40
0.2421875
 40
0.244140625
 40
0.24609375
 40
0.2470703125
 40
0.248046875
 40
0.2490234375
 40
0.2495117188
 40
0.25
 40
0.2504882812
 40
0.2509765625
 40
0.251953125
 40
0.2529296875
 40
0.25390625
 40
0.255859375
 40
0.2578125
 40
0.26171875
 40
0.265625
 40
0.26953125
 40
0.2734375
 40
0.28125
 40
0.2890625
 40
0.29296875
 40
0.296875
 40
0.30078125
 40
0.3046875
 40
0.306640625
 40
0.30859375
 40
0.3095703125
 40
0.310546875
 40
0.3115234375
 40
0.3120117188
 40
0.3125
 40
0.3129882812
 40
0.3134765625
 40
0.314453125
 40
0.3154296875
 40
0.31640625
 40
0.318359375
 40
0.3203125
 40
0.32421875
 40
0.328125
 40
0.33203125
 40
0.3359375
 40
0.34375
 40
0.3515625
 40
0.35546875
 40
0.359375
 40
0.36328125
 40
0.3671875
 40
0.369140625
 40
0.37109375
 40
0.3720703125
 40
0.373046875
 40
0.3740234375
 40
0.3745117188
 40
0.3747558594
 40
0.375
 40
0.3752441406
 40
0.3754882812
 40
0.3759765625
 40
0.376953125
 40
0.3779296875
 40
0.37890625
 40
0.380859375
 40
0.3828125
 40
0.38671875
 40
0.390625
 40
0.39453125
 40
0.3984375
 40
0.40625
 40
0.4140625
 40
0.41796875
 40
0.421875
 40
0.42578125
 40
0.4296875
 40
0.431640625
 40
0.43359375
 40
0.4345703125
 40
0.435546875
 40
0.4365234375
 40
0.4370117188
 40
0.4372558594
 40
0.4375
 40
0.4377441406
 40
0.4379882812
 40
0.4384765625
 40
0.439453125
 40
0.4404296875
 40
0.44140625
 40
0.443359375
 40
0.4453125
 40
0.44921875
 40
0.453125
 40
0.45703125
 40
0.4609375
 40
0.46875
 40
0.4765625
 40
0.48046875
 40
0.484375
 40
0.48828125
 40
0.4921875
 40
0.494140625
 40
0.49609375
 40
0.4970703125
 40
0.498046875
 40
0.4990234375
 40
0.4995117188
 40
0.5
 40
0.5004882812
 40
0.5009765625
 40
0.501953125
 40
0.5029296875
 40
0.50390625
 40
0.505859375
 40
0.5078125
 40
0.51171875
 40
0.515625
 40
0.51953125
 40
0.5234375
 40
0.53125
 40
0.5390625
 40
0.54296875
 40
0.546875
 40
0.55078125
 40
0.5546875
 40
0.556640625
 40
0.55859375
 40
0.560546875
 40
0.5615234375
 40
0.5620117188
 40
0.5625
 40
0.5629882812
 40
0.5634765625
 40
0.564453125
 40
0.56640625
 40
0.568359375
 40
0.5703125
 40
0.57421875
 40
0.578125
 40
0.58203125
 40
0.5859375
 40
0.59375
 40
0.6015625
 40
0.609375
 40
0.61328125
 40
0.6171875
 40
0.619140625
 40
0.62109375
 40
0.623046875
 40
0.6240234375
 40
0.6245117188
 40
0.625
 40
0.6254882812
 40
0.6259765625
 40
0.626953125
 40
0.62890625
 40
0.630859375
 40
0.6328125
 40
0.63671875
 40
0.640625
 40
0.6484375
 40
0.65625
 40
0.6640625
 40
0.671875
 40
0.67578125
 40
0.6796875
 40
0.681640625
 40
0.68359375
 40
0.685546875
 40
0.6865234375
 40
0.6870117188
 40
0.6875
 40
0.6879882812
 40
0.6884765625
 40
0.689453125
 40
0.69140625
 40
0.693359375
 40
0.6953125
 40
0.69921875
 40
0.703125
 40
0.7109375
 40
0.71875
 40
0.7265625
 40
0.734375
 40
0.73828125
 40
0.7421875
 40
0.744140625
 40
0.74609375
 40
0.748046875
 40
0.7490234375
 40
0.75
 40
0.7509765625
 40
0.751953125
 40
0.75390625
 40
0.755859375
 40
0.7578125
 40
0.76171875
 40
0.765625
 40
0.7734375
 40
0.78125
 40
0.7890625
 40
0.796875
 40
0.80078125
 40
0.8046875
 40
0.80859375
 40
0.810546875
 40
0.8115234375
 40
0.8125
 40
0.8134765625
 40
0.814453125
 40
0.81640625
 40
0.8203125
 40
0.82421875
 40
0.828125
 40
0.8359375
 40
0.84375
 40
0.8515625
 40
0.859375
 40
0.86328125
 40
0.8671875
 40
0.87109375
 40
0.873046875
 40
0.8740234375
 40
0.875
 40
0.8759765625
 40
0.876953125
 40
0.87890625
 40
0.8828125
 40
0.88671875
 40
0.890625
 40
0.8984375
 40
0.90625
 40
0.9140625
 40
0.921875
 40
0.92578125
 40
0.9296875
 40
0.93359375
 40
0.935546875
 40
0.9365234375
 40
0.9375
 40
0.9384765625
 40
0.939453125
 40
0.94140625
 40
0.9453125
 40
0.94921875
 40
0.953125
 40
0.9609375
 40
0.96875
 40
0.984375
 40
1.0
 40
1.0
 40
1.0
 40
1.0
 10
13.3097008192
 20
9.1719997544
 30
0.0
 10
13.3098489899
 20
9.1665031398
 30
0.0
 10
13.3100712458
 20
9.1582582178
 30
0.0
 10
13.3103675875
 20
9.1472649892
 30
0.0
 10
13.3105898426
 20
9.1390200658
 30
0.0
 10
13.3108121021
 20
9.13077515
 30
0.0
 10
13.3109973044
 20
9.123904363
 30
0.0
 10
13.3111454977
 20
9.1184077868
 30
0.0
 10
13.311238047
 20
9.1149723049
 30
0.0
 10
13.3113122501
 20
9.1122241984
 30
0.0
 10
13.3113674543
 20
9.1101623546
 30
0.0
 10
13.3114148832
 20
9.1084465815
 30
0.0
 10
13.3114452862
 20
9.1072407714
 30
0.0
 10
13.311467027
 20
9.1065591834
 30
0.0
 10
13.3114710289
 20
9.1060270158
 30
0.0
 10
13.3115220619
 20
9.1055750315
 30
0.0
 10
13.311573701
 20
9.1049444168
 30
0.0
 10
13.3116717128
 20
9.1038538724
 30
0.0
 10
13.3118077335
 20
9.1022891389
 30
0.0
 10
13.3119726689
 20
9.1004143748
 30
0.0
 10
13.3121919852
 20
9.0979136708
 30
0.0
 10
13.3124663353
 20
9.0947881396
 30
0.0
 10
13.312905181
 20
9.0897870947
 30
0.0
 10
13.3134537776
 20
9.0835358561
 30
0.0
 10
13.3141120755
 20
9.0760343381
 30
0.0
 10
13.3147703822
 20
9.0685328385
 30
0.0
 10
13.3153189569
 20
9.062281554
 30
0.0
 10
13.3157578464
 20
9.0572806008
 30
0.0
 10
13.316032085
 20
9.0541548364
 30
0.0
 10
13.3162516301
 20
9.0516546111
 30
0.0
 10
13.3164158667
 20
9.0497783846
 30
0.0
 10
13.3165540739
 20
9.0482182266
 30
0.0
 10
13.3166481825
 20
9.0471195141
 30
0.0
 10
13.3167060754
 20
9.0465019868
 30
0.0
 10
13.3167378988
 20
9.0460098023
 30
0.0
 10
13.3168140489
 20
9.0456286194
 30
0.0
 10
13.3169001208
 20
9.045081657
 30
0.0
 10
13.3170579504
 20
9.0441425125
 30
0.0
 10
13.317279655
 20
9.0427914461
 30
0.0
 10
13.3175473126
 20
9.0411742034
 30
0.0
 10
13.3179036264
 20
9.0390164697
 30
0.0
 10
13.3183492114
 20
9.0363197854
 30
0.0
 10
13.3190620396
 20
9.0320048206
 30
0.0
 10
13.3199531121
 20
9.0266112079
 30
0.0
 10
13.3210223821
 20
9.0201388296
 30
0.0
 10
13.3220916605
 20
9.0136664744
 30
0.0
 10
13.322982712
 20
9.0082728041
 30
0.0
 10
13.3236955822
 20
9.0039579545
 30
0.0
 10
13.3241410606
 20
9.0012609775
 30
0.0
 10
13.3244975931
 20
8.9991038446
 30
0.0
 10
13.3247645825
 20
8.9974847663
 30
0.0
 10
13.3249883779
 20
8.9961394431
 30
0.0
 10
13.3251424751
 20
8.995190046
 30
0.0
 10
13.3252345272
 20
8.9946595107
 30
0.0
 10
13.3252923079
 20
8.994227869
 30
0.0
 10
13.3253931239
 20
8.9939251997
 30
0.0
 10
13.325512534
 20
8.9934766536
 30
0.0
 10
13.3257284957
 20
8.9927126583
 30
0.0
 10
13.3260333559
 20
8.9916102782
 30
0.0
 10
13.3264007532
 20
8.9902921125
 30
0.0
 10
13.3268900696
 20
8.9885329199
 30
0.0
 10
13.3275019022
 20
8.9863344902
 30
0.0
 10
13.3284807299
 20
8.9828166891
 30
0.0
 10
13.3297043004
 20
8.9784195454
 30
0.0
 10
13.3311725696
 20
8.9731429265
 30
0.0
 10
13.3323961309
 20
8.9687457555
 30
0.0
 10
13.3333749788
 20
8.9652280143
 30
0.0
 10
13.334109116
 20
8.9625897148
 30
0.0
 10
13.3348432488
 20
8.9599513922
 30
0.0
 10
13.3354550395
 20
8.9577528617
 30
0.0
 10
13.3359444423
 20
8.9559938767
 30
0.0
 10
13.3362503866
 20
8.9548948767
 30
0.0
 10
13.3364949875
 20
8.9540148394
 30
0.0
 10
13.3366788611
 20
8.9533571039
 30
0.0
 10
13.3368307438
 20
8.9528016983
 30
0.0
 10
13.3369552673
 20
8.95237373
 30
0.0
 10
13.3370404151
 20
8.9520080608
 30
0.0
 10
13.3371570335
 20
8.9518129856
 30
0.0
 10
13.3373015317
 20
8.9514932947
 30
0.0
 10
13.3374859261
 20
8.9511141263
 30
0.0
 10
13.337705585
 20
8.950650373
 30
0.0
 10
13.3379990274
 20
8.9500350919
 30
0.0
 10
13.3383656374
 20
8.949264944
 30
0.0
 10
13.3389523211
 20
8.9480332922
 30
0.0
 10
13.3396856389
 20
8.9464935267
 30
0.0
 10
13.340565636
 20
8.9446458942
 30
0.0
 10
13.3414456289
 20
8.9427982386
 30
0.0
 10
13.3426189542
 20
8.940334706
 30
0.0
 10
13.3440856103
 20
8.9372552872
 30
0.0
 10
13.3455522667
 20
8.9341758704
 30
0.0
 10
13.3467255915
 20
8.9317123344
 30
0.0
 10
13.3476055861
 20
8.9298646887
 30
0.0
 10
13.348485577
 20
8.9280170194
 30
0.0
 10
13.349218914
 20
8.9264773683
 30
0.0
 10
13.3498055585
 20
8.9252454832
 30
0.0
 10
13.3501722684
 20
8.924475929
 30
0.0
 10
13.3504655055
 20
8.9238594292
 30
0.0
 10
13.3506857917
 20
8.9233993992
 30
0.0
 10
13.3508682232
 20
8.9230085816
 30
0.0
 10
13.3510167262
 20
8.9227126572
 30
0.0
 10
13.3511211144
 20
8.9224450005
 30
0.0
 10
13.3512521796
 20
8.9223518327
 30
0.0
 10
13.3514176146
 20
8.9221666577
 30
0.0
 10
13.3516276055
 20
8.921956101
 30
0.0
 10
13.3518782262
 20
8.921694482
 30
0.0
 10
13.352212865
 20
8.921348783
 30
0.0
 10
13.3526309998
 20
8.9209155887
 30
0.0
 10
13.3533001071
 20
8.9202230763
 30
0.0
 10
13.3541364598
 20
8.9193572304
 30
0.0
 10
13.3551400964
 20
8.9183183033
 30
0.0
 10
13.3561437295
 20
8.9172793527
 30
0.0
 10
13.3574819082
 20
8.9158940935
 30
0.0
 10
13.3591546311
 20
8.9141625167
 30
0.0
 10
13.3608273541
 20
8.9124309405
 30
0.0
 10
13.3621655326
 20
8.9110456803
 30
0.0
 10
13.3631691663
 20
8.9100067328
 30
0.0
 10
13.3641728008
 20
8.908967794
 30
0.0
 10
13.3650091601
 20
8.9081019845
 30
0.0
 10
13.3656782538
 20
8.9074093979
 30
0.0
 10
13.3660964233
 20
8.9069763923
 30
0.0
 10
13.366430991
 20
8.9066303062
 30
0.0
 10
13.3666818289
 20
8.9063698699
 30
0.0
 10
13.3668911398
 20
8.9061556126
 30
0.0
 10
13.3670371095
 20
8.9060001907
 30
0.0
 10
13.3671213763
 20
8.905919875
 30
0.0
 10
13.3671821663
 20
8.9058357027
 30
0.0
 10
13.3672521687
 20
8.9058430242
 30
0.0
 10
13.3673422919
 20
8.9058208721
 30
0.0
 10
13.3675015047
 20
8.9057969754
 30
0.0
 10
13.3677281687
 20
8.9057550633
 30
0.0
 10
13.3680005007
 20
8.9057080963
 30
0.0
 10
13.3683634928
 20
8.9056443114
 30
0.0
 10
13.3688172732
 20
8.9055649782
 30
0.0
 10
13.3695432993
 20
8.9054378227
 30
0.0
 10
13.3704508396
 20
8.9052789547
 30
0.0
 10
13.3715398846
 20
8.9050882803
 30
0.0
 10
13.3726289306
 20
8.9048976146
 30
0.0
 10
13.3740809916
 20
8.9046433907
 30
0.0
 10
13.3758960679
 20
8.904325612
 30
0.0
 10
13.3777111441
 20
8.9040078324
 30
0.0
 10
13.3791632052
 20
8.9037536098
 30
0.0
 10
13.3802522508
 20
8.9035629404
 30
0.0
 10
13.3813412971
 20
8.90337228
 30
0.0
 10
13.3822488336
 20
8.9032133683
 30
0.0
 10
13.3829748675
 20
8.9030863019
 30
0.0
 10
13.3834286281
 20
8.903006742
 30
0.0
 10
13.3837916607
 20
8.9029434225
 30
0.0
 10
13.3840638691
 20
8.9028950336
 30
0.0
 10
13.3842909196
 20
8.9028575701
 30
0.0
 10
13.3844494425
 20
8.902825732
 30
0.0
 10
13.3845406711
 20
8.902816304
 30
0.0
 10
13.3846072782
 20
8.9027845412
 30
0.0
 10
13.3846808204
 20
8.9028471632
 30
0.0
 10
13.3847764577
 20
8.9028977368
 30
0.0
 10
13.3849449501
 20
8.9030015797
 30
0.0
 10
13.3851850642
 20
8.9031419072
 30
0.0
 10
13.3854734534
 20
8.9033137328
 30
0.0
 10
13.3858578842
 20
8.9035416347
 30
0.0
 10
13.3863384529
 20
8.9038269226
 30
0.0
 10
13.3871073459
 20
8.9042831538
 30
0.0
 10
13.3880684679
 20
8.9048535216
 30
0.0
 10
13.3892218119
 20
8.9055379291
 30
0.0
 10
13.3903751566
 20
8.9062223456
 30
0.0
 10
13.3919129492
 20
8.9071348979
 30
0.0
 10
13.3938351901
 20
8.9082755891
 30
0.0
 10
13.3957574309
 20
8.9094162809
 30
0.0
 10
13.3972952236
 20
8.9103288321
 30
0.0
 10
13.3984485679
 20
8.9110132518
 30
0.0
 10
13.3996019129
 20
8.9116976475
 30
0.0
 10
13.4005630319
 20
8.912268052
 30
0.0
 10
13.4013319311
 20
8.9127242081
 30
0.0
 10
13.4018124839
 20
8.9130096872
 30
0.0
 10
13.4021969473
 20
8.9132371967
 30
0.0
 10
13.402485237
 20
8.9134102211
 30
0.0
 10
13.4027256625
 20
8.9135467979
 30
0.0
 10
13.4029175898
 20
8.9136731277
 30
0.0
 10
13.4030626643
 20
8.9137212363
 30
0.0
 10
13.4032034293
 20
8.9139473655
 30
0.0
 10
13.4033926213
 20
8.9141866863
 30
0.0
 10
13.4036285948
 20
8.9145071725
 30
0.0
 10
13.403911984
 20
8.9148826239
 30
0.0
 10
13.4042897592
 20
8.9153864153
 30
0.0
 10
13.4047620046
 20
8.9160150625
 30
0.0
 10
13.4055175824
 20
8.9170215083
 30
0.0
 10
13.4064620598
 20
8.9182793562
 30
0.0
 10
13.4075954304
 20
8.9197888634
 30
0.0
 10
13.4087288017
 20
8.9212983466
 30
0.0
 10
13.4102399631
 20
8.9233109991
 30
0.0
 10
13.412128915
 20
8.9258268129
 30
0.0
 10
13.414017867
 20
8.928342624
 30
0.0
 10
13.4155290282
 20
8.9303552807
 30
0.0
 10
13.4166624002
 20
8.9318647515
 30
0.0
 10
13.4177957677
 20
8.9333743054
 30
0.0
 10
13.4187402551
 20
8.9346320078
 30
0.0
 10
13.4194958125
 20
8.9356387504
 30
0.0
 10
13.4200625693
 20
8.9363922207
 30
0.0
 10
13.4205345844
 20
8.9370251595
 30
0.0
 10
13.4208655488
 20
8.9374583123
 30
0.0
 10
13.4210538065
 20
8.9377212931
 30
0.0
 10
13.421197436
 20
8.9378749636
 30
0.0
 10
13.4213317531
 20
8.9381951621
 30
0.0
 10
13.4215140908
 20
8.9385640066
 30
0.0
 10
13.4218316683
 20
8.9392365482
 30
0.0
 10
13.4222861418
 20
8.9401831727
 30
0.0
 10
13.4228311712
 20
8.9413251784
 30
0.0
 10
13.4235579954
 20
8.9428457372
 30
0.0
 10
13.4244664851
 20
8.9447471616
 30
0.0
 10
13.4255566902
 20
8.9470285596
 30
0.0
 10
13.4266468906
 20
8.9493100409
 30
0.0
 10
13.4281004927
 20
8.9523519872
 30
0.0
 10
13.4299174951
 20
8.956154427
 30
0.0
 10
13.4320978965
 20
8.9607173649
 30
0.0
 10
13.4339149031
 20
8.96451977
 30
0.0
 10
13.4353684961
 20
8.9675617926
 30
0.0
 10
13.4362770196
 20
8.9694628321
 30
0.0
 10
13.4370037747
 20
8.970984178
 30
0.0
 10
13.4375490152
 20
8.9721237795
 30
0.0
 10
13.4380028285
 20
8.9730779262
 30
0.0
 10
13.4383215844
 20
8.9737370394
 30
0.0
 10
13.438502034
 20
8.9741273996
 30
0.0
 10
13.4386421508
 20
8.9743815087
 30
0.0
 10
13.4387639975
 20
8.9747834
 30
0.0
 10
13.4389328325
 20
8.9752677069
 30
0.0
 10
13.4392253245
 20
8.9761392612
 30
0.0
 10
13.4396447227
 20
8.9773717824
 30
0.0
 10
13.440147336
 20
8.9788561824
 30
0.0
 10
13.4408177192
 20
8.9808335051
 30
0.0
 10
13.4416556188
 20
8.9833058013
 30
0.0
 10
13.4429963024
 20
8.9872611158
 30
0.0
 10
13.4446721417
 20
8.9922053831
 30
0.0
 10
13.4466831559
 20
8.9981384473
 30
0.0
 10
13.4486941661
 20
9.004071539
 30
0.0
 10
13.4503700153
 20
9.0090157376
 30
0.0
 10
13.451710679
 20
9.0129711893
 30
0.0
 10
13.4525486294
 20
9.0154431369
 30
0.0
 10
13.4532189082
 20
9.0174211752
 30
0.0
 10
13.4537218404
 20
9.0189033892
 30
0.0
 10
13.4541402408
 20
9.0201427496
 30
0.0
 10
13.4544345141
 20
9.0210020948
 30
0.0
 10
13.4546004953
 20
9.0215059638
 30
0.0
 10
13.4547311079
 20
9.0218477667
 30
0.0
 10
13.4548383009
 20
9.0223275578
 30
0.0
 10
13.454989394
 20
9.0229191475
 30
0.0
 10
13.4552500007
 20
9.0239768549
 30
0.0
 10
13.4556242858
 20
9.0254761412
 30
0.0
 10
13.4560725763
 20
9.0272803032
 30
0.0
 10
13.4566705944
 20
9.0296840997
 30
0.0
 10
13.4574180152
 20
9.0326894454
 30
0.0
 10
13.4586139453
 20
9.0374976633
 30
0.0
 10
13.4601088389
 20
9.0435080495
 30
0.0
 10
13.461902717
 20
9.0507204696
 30
0.0
 10
13.4636966029
 20
9.057932881
 30
0.0
 10
13.4651914768
 20
9.063943289
 30
0.0
 10
13.4663874465
 20
9.0687514633
 30
0.0
 10
13.4671347666
 20
9.07175692
 30
0.0
 10
13.4677329914
 20
9.0741604887
 30
0.0
 10
13.4681806504
 20
9.0759653466
 30
0.0
 10
13.4685569113
 20
9.0774624554
 30
0.0
 10
13.4688507166
 20
9.0786757064
 30
0.0
 10
13.4690907537
 20
9.0795431166
 30
0.0
 10
13.4692556602
 20
9.080572857
 30
0.0
 10
13.4695017796
 20
9.0818891402
 30
0.0
 10
13.4698004246
 20
9.083553949
 30
0.0
 10
13.4701626527
 20
9.0855433922
 30
0.0
 10
13.4706442774
 20
9.0881988918
 30
0.0
 10
13.4712467692
 20
9.0915172705
 30
0.0
 10
13.4722104987
 20
9.0968272324
 30
0.0
 10
13.4734152466
 20
9.1034644975
 30
0.0
 10
13.4748609172
 20
9.1114292807
 30
0.0
 10
13.4763065579
 20
9.1193941031
 30
0.0
 10
13.4775113803
 20
9.12603127
 30
0.0
 10
13.4784749608
 20
9.1313414283
 30
0.0
 10
13.4791984054
 20
9.1353228837
 30
0.0
 10
13.4797988609
 20
9.138644464
 30
0.0
 10
13.480223919
 20
9.1409623075
 30
0.0
 10
13.4804594095
 20
9.1422981296
 30
0.0
 10
13.4806568728
 20
9.1432680511
 30
0.0
 10
13.4807746542
 20
9.1443600826
 30
0.0
 10
13.4809594899
 20
9.1457735313
 30
0.0
 10
13.4812700028
 20
9.1482669115
 30
0.0
 10
13.4817203629
 20
9.151818508
 30
0.0
 10
13.4822578971
 20
9.1560848648
 30
0.0
 10
13.482975622
 20
9.161771789
 30
0.0
 10
13.483872428
 20
9.1688809781
 30
0.0
 10
13.4849487564
 20
9.1774117697
 30
0.0
 10
13.4860250004
 20
9.1859426487
 30
0.0
 10
13.4869220174
 20
9.1930516194
 30
0.0
 10
13.4876393204
 20
9.1987389804
 30
0.0
 10
13.4881781413
 20
9.2030040051
 30
0.0
 10
13.4886244758
 20
9.2065597689
 30
0.0
 10
13.4889421751
 20
9.2090457099
 30
0.0
 10
13.4891154964
 20
9.2104710781
 30
0.0
 10
13.4892686464
 20
9.2115264965
 30
0.0
 10
13.4893332711
 20
9.2126339306
 30
0.0
 10
13.4894503159
 20
9.2140923657
 30
0.0
 10
13.4896407573
 20
9.2166530806
 30
0.0
 10
13.4899203382
 20
9.2203068251
 30
0.0
 10
13.4902526157
 20
9.2246932103
 30
0.0
 10
13.4906967774
 20
9.2305410631
 30
0.0
 10
13.4912515907
 20
9.2378511062
 30
0.0
 10
13.4919175451
 20
9.2466230589
 30
0.0
 10
13.492583408
 20
9.2553950441
 30
0.0
 10
13.4931384502
 20
9.2627050059
 30
0.0
 10
13.4935821541
 20
9.2685530211
 30
0.0
 10
13.4939158278
 20
9.2729389109
 30
0.0
 10
13.4941910408
 20
9.2765942055
 30
0.0
 10
13.4943892796
 20
9.2791521533
 30
0.0
 10
13.4944938311
 20
9.2806150219
 30
0.0
 10
13.4945968311
 20
9.2817088376
 30
0.0
 10
13.4946058495
 20
9.2828154044
 30
0.0
 10
13.494650656
 20
9.284286379
 30
0.0
 10
13.4947137935
 20
9.2868626569
 30
0.0
 10
13.4948119753
 20
9.2905419705
 30
0.0
 10
13.4949263755
 20
9.2949576105
 30
0.0
 10
13.4950801029
 20
9.3008449686
 30
0.0
 10
13.4952718534
 20
9.3082042216
 30
0.0
 10
13.4955788828
 20
9.3199789955
 30
0.0
 10
13.4959625905
 20
9.3346974735
 30
0.0
 10
13.4962695808
 20
9.3464722527
 30
0.0
 10
13.4964230729
 20
9.3523596427
 30
0.0
  0
SPLINE
  5
3AA
100
AcDbEntity
  8
0
100
AcDbSpline
 62
4
  6
CONTINUOUS
 70
0
 71
3
 72
324
 73
320
 74
0
 42
0.0000001
 43
0.0000001
 44
0.0000000001
 40
0.0
 40
0.0
 40
0.0
 40
0.0
 40
0.015625
 40
0.0234375
 40
0.03125
 40
0.0390625
 40
0.046875
 40
0.05078125
 40
0.0546875
 40
0.056640625
 40
0.05859375
 40
0.060546875
 40
0.0615234375
 40
0.0620117188
 40
0.0625
 40
0.0629882812
 40
0.0634765625
 40
0.064453125
 40
0.06640625
 40
0.068359375
 40
0.0703125
 40
0.07421875
 40
0.078125
 40
0.0859375
 40
0.09375
 40
0.1015625
 40
0.109375
 40
0.11328125
 40
0.1171875
 40
0.119140625
 40
0.12109375
 40
0.123046875
 40
0.1240234375
 40
0.1245117188
 40
0.125
 40
0.1254882812
 40
0.1259765625
 40
0.126953125
 40
0.12890625
 40
0.130859375
 40
0.1328125
 40
0.13671875
 40
0.140625
 40
0.1484375
 40
0.15625
 40
0.1640625
 40
0.171875
 40
0.17578125
 40
0.1796875
 40
0.181640625
 40
0.18359375
 40
0.185546875
 40
0.1865234375
 40
0.1870117188
 40
0.1875
 40
0.1879882812
 40
0.1884765625
 40
0.189453125
 40
0.19140625
 40
0.193359375
 40
0.1953125
 40
0.19921875
 40
0.203125
 40
0.2109375
 40
0.21875
 40
0.2265625
 40
0.23046875
 40
0.234375
 40
0.23828125
 40
0.2421875
 40
0.244140625
 40
0.24609375
 40
0.2470703125
 40
0.248046875
 40
0.2490234375
 40
0.2495117188
 40
0.25
 40
0.2504882812
 40
0.2509765625
 40
0.251953125
 40
0.2529296875
 40
0.25390625
 40
0.255859375
 40
0.2578125
 40
0.26171875
 40
0.265625
 40
0.26953125
 40
0.2734375
 40
0.28125
 40
0.2890625
 40
0.29296875
 40
0.296875
 40
0.30078125
 40
0.3046875
 40
0.306640625
 40
0.30859375
 40
0.3095703125
 40
0.310546875
 40
0.3115234375
 40
0.3120117188
 40
0.3125
 40
0.3129882812
 40
0.3134765625
 40
0.314453125
 40
0.3154296875
 40
0.31640625
 40
0.318359375
 40
0.3203125
 40
0.32421875
 40
0.328125
 40
0.33203125
 40
0.3359375
 40
0.34375
 40
0.3515625
 40
0.35546875
 40
0.359375
 40
0.36328125
 40
0.3671875
 40
0.369140625
 40
0.37109375
 40
0.3720703125
 40
0.373046875
 40
0.3740234375
 40
0.3745117188
 40
0.3747558594
 40
0.375
 40
0.3752441406
 40
0.3754882812
 40
0.3759765625
 40
0.376953125
 40
0.3779296875
 40
0.37890625
 40
0.380859375
 40
0.3828125
 40
0.38671875
 40
0.390625
 40
0.39453125
 40
0.3984375
 40
0.40625
 40
0.4140625
 40
0.41796875
 40
0.421875
 40
0.42578125
 40
0.4296875
 40
0.431640625
 40
0.43359375
 40
0.4345703125
 40
0.435546875
 40
0.4365234375
 40
0.4370117188
 40
0.4372558594
 40
0.4375
 40
0.4377441406
 40
0.4379882812
 40
0.4384765625
 40
0.439453125
 40
0.4404296875
 40
0.44140625
 40
0.443359375
 40
0.4453125
 40
0.44921875
 40
0.453125
 40
0.45703125
 40
0.4609375
 40
0.46875
 40
0.4765625
 40
0.48046875
 40
0.484375
 40
0.48828125
 40
0.4921875
 40
0.494140625
 40
0.49609375
 40
0.4970703125
 40
0.498046875
 40
0.4990234375
 40
0.4995117188
 40
0.5
 40
0.5004882812
 40
0.5009765625
 40
0.501953125
 40
0.5029296875
 40
0.50390625
 40
0.505859375
 40
0.5078125
 40
0.51171875
 40
0.515625
 40
0.51953125
 40
0.5234375
 40
0.53125
 40
0.5390625
 40
0.54296875
 40
0.546875
 40
0.55078125
 40
0.5546875
 40
0.556640625
 40
0.55859375
 40
0.560546875
 40
0.5615234375
 40
0.5620117188
 40
0.5625
 40
0.5629882812
 40
0.5634765625
 40
0.564453125
 40
0.56640625
 40
0.568359375
 40
0.5703125
 40
0.57421875
 40
0.578125
 40
0.58203125
 40
0.5859375
 40
0.59375
 40
0.6015625
 40
0.609375
 40
0.61328125
 40
0.6171875
 40
0.619140625
 40
0.62109375
 40
0.623046875
 40
0.6240234375
 40
0.6245117188
 40
0.625
 40
0.6254882812
 40
0.6259765625
 40
0.626953125
 40
0.62890625
 40
0.630859375
 40
0.6328125
 40
0.63671875
 40
0.640625
 40
0.6484375
 40
0.65625
 40
0.6640625
 40
0.671875
 40
0.67578125
 40
0.6796875
 40
0.681640625
 40
0.68359375
 40
0.685546875
 40
0.6865234375
 40
0.6870117188
 40
0.6875
 40
0.6879882812
 40
0.6884765625
 40
0.689453125
 40
0.69140625
 40
0.693359375
 40
0.6953125
 40
0.69921875
 40
0.703125
 40
0.7109375
 40
0.71875
 40
0.7265625
 40
0.734375
 40
0.73828125
 40
0.7421875
 40
0.744140625
 40
0.74609375
 40
0.748046875
 40
0.7490234375
 40
0.75
 40
0.7509765625
 40
0.751953125
 40
0.75390625
 40
0.755859375
 40
0.7578125
 40
0.76171875
 40
0.765625
 40
0.7734375
 40
0.78125
 40
0.7890625
 40
0.796875
 40
0.80078125
 40
0.8046875
 40
0.80859375
 40
0.810546875
 40
0.8115234375
 40
0.8125
 40
0.8134765625
 40
0.814453125
 40
0.81640625
 40
0.8203125
 40
0.82421875
 40
0.828125
 40
0.8359375
 40
0.84375
 40
0.8515625
 40
0.859375
 40
0.86328125
 40
0.8671875
 40
0.87109375
 40
0.873046875
 40
0.8740234375
 40
0.875
 40
0.8759765625
 40
0.876953125
 40
0.87890625
 40
0.8828125
 40
0.88671875
 40
0.890625
 40
0.8984375
 40
0.90625
 40
0.9140625
 40
0.921875
 40
0.92578125
 40
0.9296875
 40
0.93359375
 40
0.935546875
 40
0.9365234375
 40
0.9375
 40
0.9384765625
 40
0.939453125
 40
0.94140625
 40
0.9453125
 40
0.94921875
 40
0.953125
 40
0.9609375
 40
0.96875
 40
0.984375
 40
1.0
 40
1.0
 40
1.0
 40
1.0
 10
13.4964230729
 20
9.3523596122
 30
0.0
 10
13.4962749022
 20
9.3578562268
 30
0.0
 10
13.4960526463
 20
9.3661011488
 30
0.0
 10
13.4957563046
 20
9.3770943774
 30
0.0
 10
13.4955340495
 20
9.3853393008
 30
0.0
 10
13.49531179
 20
9.3935842166
 30
0.0
 10
13.4951265877
 20
9.4004550037
 30
0.0
 10
13.4949783944
 20
9.4059515798
 30
0.0
 10
13.4948858451
 20
9.4093870617
 30
0.0
 10
13.494811642
 20
9.4121351682
 30
0.0
 10
13.4947564378
 20
9.414197012
 30
0.0
 10
13.4947090089
 20
9.4159127851
 30
0.0
 10
13.4946786059
 20
9.4171185952
 30
0.0
 10
13.4946568651
 20
9.4178001832
 30
0.0
 10
13.4946528632
 20
9.4183323508
 30
0.0
 10
13.4946018302
 20
9.4187843352
 30
0.0
 10
13.4945501911
 20
9.4194149498
 30
0.0
 10
13.4944521793
 20
9.4205054943
 30
0.0
 10
13.4943161586
 20
9.4220702277
 30
0.0
 10
13.4941512232
 20
9.4239449918
 30
0.0
 10
13.4939319069
 20
9.4264456958
 30
0.0
 10
13.4936575568
 20
9.429571227
 30
0.0
 10
13.4932187111
 20
9.4345722719
 30
0.0
 10
13.4926701145
 20
9.4408235106
 30
0.0
 10
13.4920118166
 20
9.4483250285
 30
0.0
 10
13.4913535099
 20
9.4558265281
 30
0.0
 10
13.4908049352
 20
9.4620778127
 30
0.0
 10
13.4903660457
 20
9.4670787658
 30
0.0
 10
13.4900918071
 20
9.4702045303
 30
0.0
 10
13.489872262
 20
9.4727047556
 30
0.0
 10
13.4897080254
 20
9.474580982
 30
0.0
 10
13.4895698182
 20
9.47614114
 30
0.0
 10
13.4894757096
 20
9.4772398525
 30
0.0
 10
13.4894178167
 20
9.4778573799
 30
0.0
 10
13.4893859933
 20
9.4783495643
 30
0.0
 10
13.4893098432
 20
9.4787307472
 30
0.0
 10
13.4892237713
 20
9.4792777096
 30
0.0
 10
13.4890659417
 20
9.4802168541
 30
0.0
 10
13.4888442371
 20
9.4815679205
 30
0.0
 10
13.4885765795
 20
9.4831851632
 30
0.0
 10
13.4882202657
 20
9.4853428969
 30
0.0
 10
13.4877746807
 20
9.4880395812
 30
0.0
 10
13.4870618525
 20
9.492354546
 30
0.0
 10
13.48617078
 20
9.4977481587
 30
0.0
 10
13.48510151
 20
9.504220537
 30
0.0
 10
13.4840322316
 20
9.5106928922
 30
0.0
 10
13.4831411801
 20
9.5160865625
 30
0.0
 10
13.4824283099
 20
9.5204014121
 30
0.0
 10
13.4819828315
 20
9.5230983891
 30
0.0
 10
13.481626299
 20
9.525255522
 30
0.0
 10
13.4813593096
 20
9.5268746003
 30
0.0
 10
13.4811355142
 20
9.5282199236
 30
0.0
 10
13.480981417
 20
9.5291693206
 30
0.0
 10
13.4808893649
 20
9.5296998559
 30
0.0
 10
13.4808315842
 20
9.5301314977
 30
0.0
 10
13.4807307682
 20
9.5304341669
 30
0.0
 10
13.4806113581
 20
9.530882713
 30
0.0
 10
13.4803953964
 20
9.5316467083
 30
0.0
 10
13.4800905363
 20
9.5327490884
 30
0.0
 10
13.479723139
 20
9.5340672541
 30
0.0
 10
13.4792338225
 20
9.5358264467
 30
0.0
 10
13.4786219899
 20
9.5380248764
 30
0.0
 10
13.4776431622
 20
9.5415426775
 30
0.0
 10
13.4764195917
 20
9.5459398212
 30
0.0
 10
13.4749513225
 20
9.5512164402
 30
0.0
 10
13.4737277612
 20
9.5556136111
 30
0.0
 10
13.4727489133
 20
9.5591313523
 30
0.0
 10
13.4720147761
 20
9.5617696518
 30
0.0
 10
13.4712806433
 20
9.5644079745
 30
0.0
 10
13.4706688526
 20
9.566606505
 30
0.0
 10
13.4701794498
 20
9.5683654899
 30
0.0
 10
13.4698735055
 20
9.5694644899
 30
0.0
 10
13.4696289046
 20
9.5703445272
 30
0.0
 10
13.469445031
 20
9.5710022627
 30
0.0
 10
13.4692931483
 20
9.5715576683
 30
0.0
 10
13.4691686248
 20
9.5719856366
 30
0.0
 10
13.469083477
 20
9.5723513058
 30
0.0
 10
13.4689668586
 20
9.572546381
 30
0.0
 10
13.4688223604
 20
9.5728660719
 30
0.0
 10
13.468637966
 20
9.5732452403
 30
0.0
 10
13.4684183071
 20
9.5737089936
 30
0.0
 10
13.4681248647
 20
9.5743242747
 30
0.0
 10
13.4677582547
 20
9.5750944226
 30
0.0
 10
13.467171571
 20
9.5763260744
 30
0.0
 10
13.4664382532
 20
9.5778658399
 30
0.0
 10
13.4655582561
 20
9.5797134724
 30
0.0
 10
13.4646782632
 20
9.581561128
 30
0.0
 10
13.4635049379
 20
9.5840246606
 30
0.0
 10
13.4620382818
 20
9.5871040795
 30
0.0
 10
13.4605716254
 20
9.5901834963
 30
0.0
 10
13.4593983006
 20
9.5926470322
 30
0.0
 10
13.458518306
 20
9.5944946779
 30
0.0
 10
13.4576383151
 20
9.5963423472
 30
0.0
 10
13.4569049781
 20
9.5978819983
 30
0.0
 10
13.4563183336
 20
9.5991138834
 30
0.0
 10
13.4559516237
 20
9.5998834376
 30
0.0
 10
13.4556583866
 20
9.6004999374
 30
0.0
 10
13.4554381004
 20
9.6009599674
 30
0.0
 10
13.4552556689
 20
9.601350785
 30
0.0
 10
13.4551071659
 20
9.6016467094
 30
0.0
 10
13.4550027777
 20
9.6019143661
 30
0.0
 10
13.4548717125
 20
9.6020075339
 30
0.0
 10
13.4547062775
 20
9.6021927089
 30
0.0
 10
13.4544962866
 20
9.6024032656
 30
0.0
 10
13.4542456659
 20
9.6026648847
 30
0.0
 10
13.4539110271
 20
9.6030105837
 30
0.0
 10
13.4534928923
 20
9.6034437779
 30
0.0
 10
13.452823785
 20
9.6041362904
 30
0.0
 10
13.4519874323
 20
9.6050021362
 30
0.0
 10
13.4509837957
 20
9.6060410633
 30
0.0
 10
13.4499801626
 20
9.6070800139
 30
0.0
 10
13.4486419839
 20
9.6084652731
 30
0.0
 10
13.446969261
 20
9.6101968499
 30
0.0
 10
13.445296538
 20
9.6119284261
 30
0.0
 10
13.4439583595
 20
9.6133136864
 30
0.0
 10
13.4429547258
 20
9.6143526338
 30
0.0
 10
13.4419510913
 20
9.6153915726
 30
0.0
 10
13.441114732
 20
9.6162573821
 30
0.0
 10
13.4404456383
 20
9.6169499687
 30
0.0
 10
13.4400274688
 20
9.6173829743
 30
0.0
 10
13.4396929011
 20
9.6177290605
 30
0.0
 10
13.4394420632
 20
9.6179894967
 30
0.0
 10
13.4392327523
 20
9.6182037541
 30
0.0
 10
13.4390867826
 20
9.6183591759
 30
0.0
 10
13.4390025158
 20
9.6184394916
 30
0.0
 10
13.4389417258
 20
9.6185236639
 30
0.0
 10
13.4388717234
 20
9.6185163424
 30
0.0
 10
13.4387816002
 20
9.6185384945
 30
0.0
 10
13.4386223874
 20
9.6185623912
 30
0.0
 10
13.4383957234
 20
9.6186043033
 30
0.0
 10
13.4381233914
 20
9.6186512703
 30
0.0
 10
13.4377603993
 20
9.6187150552
 30
0.0
 10
13.4373066189
 20
9.6187943884
 30
0.0
 10
13.4365805928
 20
9.6189215439
 30
0.0
 10
13.4356730525
 20
9.619080412
 30
0.0
 10
13.4345840075
 20
9.6192710863
 30
0.0
 10
13.4334949615
 20
9.619461752
 30
0.0
 10
13.4320429005
 20
9.6197159759
 30
0.0
 10
13.4302278242
 20
9.6200337546
 30
0.0
 10
13.428412748
 20
9.6203515342
 30
0.0
 10
13.4269606869
 20
9.6206057568
 30
0.0
 10
13.4258716413
 20
9.6207964262
 30
0.0
 10
13.424782595
 20
9.6209870866
 30
0.0
 10
13.4238750585
 20
9.6211459983
 30
0.0
 10
13.4231490246
 20
9.6212730647
 30
0.0
 10
13.422695264
 20
9.6213526246
 30
0.0
 10
13.4223322314
 20
9.6214159442
 30
0.0
 10
13.422060023
 20
9.621464333
 30
0.0
 10
13.4218329725
 20
9.6215017965
 30
0.0
 10
13.4216744496
 20
9.6215336346
 30
0.0
 10
13.421583221
 20
9.6215430626
 30
0.0
 10
13.4215166139
 20
9.6215748254
 30
0.0
 10
13.4214430717
 20
9.6215122034
 30
0.0
 10
13.4213474344
 20
9.6214616299
 30
0.0
 10
13.421178942
 20
9.6213577869
 30
0.0
 10
13.4209388279
 20
9.6212174594
 30
0.0
 10
13.4206504387
 20
9.6210456338
 30
0.0
 10
13.4202660079
 20
9.6208177319
 30
0.0
 10
13.4197854392
 20
9.620532444
 30
0.0
 10
13.4190165462
 20
9.6200762128
 30
0.0
 10
13.4180554242
 20
9.6195058451
 30
0.0
 10
13.4169020802
 20
9.6188214375
 30
0.0
 10
13.4157487355
 20
9.618137021
 30
0.0
 10
13.4142109429
 20
9.6172244687
 30
0.0
 10
13.4122887021
 20
9.6160837776
 30
0.0
 10
13.4103664612
 20
9.6149430857
 30
0.0
 10
13.4088286685
 20
9.6140305345
 30
0.0
 10
13.4076753242
 20
9.6133461148
 30
0.0
 10
13.4065219792
 20
9.6126617191
 30
0.0
 10
13.4055608602
 20
9.6120913146
 30
0.0
 10
13.404791961
 20
9.6116351585
 30
0.0
 10
13.4043114082
 20
9.6113496794
 30
0.0
 10
13.4039269448
 20
9.6111221699
 30
0.0
 10
13.4036386551
 20
9.6109491455
 30
0.0
 10
13.4033982296
 20
9.6108125687
 30
0.0
 10
13.4032063023
 20
9.6106862389
 30
0.0
 10
13.4030612278
 20
9.6106381303
 30
0.0
 10
13.4029204628
 20
9.6104120011
 30
0.0
 10
13.4027312708
 20
9.6101726803
 30
0.0
 10
13.4024952973
 20
9.6098521941
 30
0.0
 10
13.4022119081
 20
9.6094767428
 30
0.0
 10
13.4018341329
 20
9.6089729513
 30
0.0
 10
13.4013618875
 20
9.6083443042
 30
0.0
 10
13.4006063097
 20
9.6073378583
 30
0.0
 10
13.3996618323
 20
9.6060800105
 30
0.0
 10
13.3985284617
 20
9.6045705032
 30
0.0
 10
13.3973950904
 20
9.60306102
 30
0.0
 10
13.395883929
 20
9.6010483675
 30
0.0
 10
13.3939949771
 20
9.5985325537
 30
0.0
 10
13.3921060251
 20
9.5960167426
 30
0.0
 10
13.390594864
 20
9.5940040859
 30
0.0
 10
13.3894614919
 20
9.5924946152
 30
0.0
 10
13.3883281244
 20
9.5909850612
 30
0.0
 10
13.387383637
 20
9.5897273589
 30
0.0
 10
13.3866280796
 20
9.5887206162
 30
0.0
 10
13.3860613228
 20
9.587967146
 30
0.0
 10
13.3855893077
 20
9.5873342071
 30
0.0
 10
13.3852583433
 20
9.5869010543
 30
0.0
 10
13.3850700856
 20
9.5866380735
 30
0.0
 10
13.3849264561
 20
9.586484403
 30
0.0
 10
13.384792139
 20
9.5861642045
 30
0.0
 10
13.3846098013
 20
9.58579536
 30
0.0
 10
13.3842922238
 20
9.5851228184
 30
0.0
 10
13.3838377503
 20
9.5841761939
 30
0.0
 10
13.3832927209
 20
9.5830341882
 30
0.0
 10
13.3825658967
 20
9.5815136294
 30
0.0
 10
13.381657407
 20
9.5796122051
 30
0.0
 10
13.3805672019
 20
9.577330807
 30
0.0
 10
13.3794770015
 20
9.5750493257
 30
0.0
 10
13.3780233994
 20
9.5720073794
 30
0.0
 10
13.376206397
 20
9.5682049396
 30
0.0
 10
13.3740259956
 20
9.5636420017
 30
0.0
 10
13.372208989
 20
9.5598395966
 30
0.0
 10
13.370755396
 20
9.556797574
 30
0.0
 10
13.3698468725
 20
9.5548965345
 30
0.0
 10
13.3691201174
 20
9.5533751886
 30
0.0
 10
13.3685748769
 20
9.5522355871
 30
0.0
 10
13.3681210636
 20
9.5512814404
 30
0.0
 10
13.3678023077
 20
9.5506223272
 30
0.0
 10
13.3676218581
 20
9.550231967
 30
0.0
 10
13.3674817413
 20
9.5499778579
 30
0.0
 10
13.3673598947
 20
9.5495759667
 30
0.0
 10
13.3671910596
 20
9.5490916597
 30
0.0
 10
13.3668985676
 20
9.5482201054
 30
0.0
 10
13.3664791694
 20
9.5469875842
 30
0.0
 10
13.3659765561
 20
9.5455031842
 30
0.0
 10
13.3653061729
 20
9.5435258615
 30
0.0
 10
13.3644682733
 20
9.5410535653
 30
0.0
 10
13.3631275897
 20
9.5370982508
 30
0.0
 10
13.3614517504
 20
9.5321539835
 30
0.0
 10
13.3594407362
 20
9.5262209193
 30
0.0
 10
13.357429726
 20
9.5202878277
 30
0.0
 10
13.3557538768
 20
9.515343629
 30
0.0
 10
13.3544132131
 20
9.5113881773
 30
0.0
 10
13.3535752627
 20
9.5089162297
 30
0.0
 10
13.3529049839
 20
9.5069381915
 30
0.0
 10
13.3524020517
 20
9.5054559774
 30
0.0
 10
13.3519836513
 20
9.504216617
 30
0.0
 10
13.351689378
 20
9.5033572718
 30
0.0
 10
13.3515233968
 20
9.5028534028
 30
0.0
 10
13.3513927842
 20
9.5025116
 30
0.0
 10
13.3512855912
 20
9.5020318088
 30
0.0
 10
13.3511344981
 20
9.5014402191
 30
0.0
 10
13.3508738914
 20
9.5003825117
 30
0.0
 10
13.3504996063
 20
9.4988832254
 30
0.0
 10
13.3500513158
 20
9.4970790634
 30
0.0
 10
13.3494532977
 20
9.4946752669
 30
0.0
 10
13.3487058769
 20
9.4916699212
 30
0.0
 10
13.3475099468
 20
9.4868617033
 30
0.0
 10
13.3460150532
 20
9.4808513171
 30
0.0
 10
13.3442211751
 20
9.473638897
 30
0.0
 10
13.3424272892
 20
9.4664264856
 30
0.0
 10
13.3409324153
 20
9.4604160776
 30
0.0
 10
13.3397364456
 20
9.4556079033
 30
0.0
 10
13.3389891255
 20
9.4526024466
 30
0.0
 10
13.3383909007
 20
9.4501988779
 30
0.0
 10
13.3379432417
 20
9.44839402
 30
0.0
 10
13.3375669808
 20
9.4468969112
 30
0.0
 10
13.3372731755
 20
9.4456836602
 30
0.0
 10
13.3370331384
 20
9.44481625
 30
0.0
 10
13.3368682319
 20
9.4437865096
 30
0.0
 10
13.3366221125
 20
9.4424702265
 30
0.0
 10
13.3363234675
 20
9.4408054176
 30
0.0
 10
13.3359612394
 20
9.4388159744
 30
0.0
 10
13.3354796147
 20
9.4361604748
 30
0.0
 10
13.3348771229
 20
9.4328420961
 30
0.0
 10
13.3339133934
 20
9.4275321342
 30
0.0
 10
13.3327086455
 20
9.4208948692
 30
0.0
 10
13.3312629749
 20
9.412930086
 30
0.0
 10
13.3298173342
 20
9.4049652635
 30
0.0
 10
13.3286125118
 20
9.3983280966
 30
0.0
 10
13.3276489313
 20
9.3930179383
 30
0.0
 10
13.3269254867
 20
9.3890364829
 30
0.0
 10
13.3263250312
 20
9.3857149026
 30
0.0
 10
13.3258999731
 20
9.3833970591
 30
0.0
 10
13.3256644826
 20
9.3820612371
 30
0.0
 10
13.3254670193
 20
9.3810913155
 30
0.0
 10
13.3253492379
 20
9.379999284
 30
0.0
 10
13.3251644022
 20
9.3785858353
 30
0.0
 10
13.3248538893
 20
9.3760924551
 30
0.0
 10
13.3244035292
 20
9.3725408586
 30
0.0
 10
13.323865995
 20
9.3682745019
 30
0.0
 10
13.3231482701
 20
9.3625875776
 30
0.0
 10
13.3222514641
 20
9.3554783885
 30
0.0
 10
13.3211751357
 20
9.3469475969
 30
0.0
 10
13.3200988917
 20
9.338416718
 30
0.0
 10
13.3192018747
 20
9.3313077472
 30
0.0
 10
13.3184845717
 20
9.3256203862
 30
0.0
 10
13.3179457508
 20
9.3213553615
 30
0.0
 10
13.3174994163
 20
9.3177995977
 30
0.0
 10
13.317181717
 20
9.3153136568
 30
0.0
 10
13.3170083957
 20
9.3138882885
 30
0.0
 10
13.3168552457
 20
9.3128328701
 30
0.0
 10
13.316790621
 20
9.311725436
 30
0.0
 10
13.3166735763
 20
9.3102670009
 30
0.0
 10
13.3164831348
 20
9.307706286
 30
0.0
 10
13.3162035539
 20
9.3040525415
 30
0.0
 10
13.3158712764
 20
9.2996661563
 30
0.0
 10
13.3154271147
 20
9.2938183035
 30
0.0
 10
13.3148723014
 20
9.2865082604
 30
0.0
 10
13.314206347
 20
9.2777363077
 30
0.0
 10
13.3135404841
 20
9.2689643225
 30
0.0
 10
13.3129854419
 20
9.2616543607
 30
0.0
 10
13.312541738
 20
9.2558063455
 30
0.0
 10
13.3122080643
 20
9.2514204558
 30
0.0
 10
13.3119328513
 20
9.2477651612
 30
0.0
 10
13.3117346125
 20
9.2452072133
 30
0.0
 10
13.311630061
 20
9.2437443447
 30
0.0
 10
13.311527061
 20
9.242650529
 30
0.0
 10
13.3115180426
 20
9.2415439622
 30
0.0
 10
13.3114732361
 20
9.2400729876
 30
0.0
 10
13.3114100986
 20
9.2374967097
 30
0.0
 10
13.3113119168
 20
9.2338173961
 30
0.0
 10
13.3111975166
 20
9.2294017561
 30
0.0
 10
13.3110437892
 20
9.223514398
 30
0.0
 10
13.3108520387
 20
9.216155145
 30
0.0
 10
13.3105450093
 20
9.2043803711
 30
0.0
 10
13.3101613016
 20
9.1896618931
 30
0.0
 10
13.3098543114
 20
9.1778871139
 30
0.0
 10
13.3097008192
 20
9.1719997239
 30
0.0
  0
SPLINE
  5
3AB
100
AcDbEntity
  8
0
100
AcDbSpline
 62
4
  6
CONTINUOUS
 70
0
 71
3
 72
109
 73
105
 74
0
 42
0.0000001
 43
0.0000001
 44
0.0000000001
 40
0.0
 40
0.0
 40
0.0
 40
0.0
 40
0.03125
 40
0.0625
 40
0.09375
 40
0.109375
 40
0.125
 40
0.140625
 40
0.1484375
 40
0.15625
 40
0.16015625
 40
0.1640625
 40
0.166015625
 40
0.1669921875
 40
0.16796875
 40
0.169921875
 40
0.171875
 40
0.1796875
 40
0.1875
 40
0.1953125
 40
0.203125
 40
0.21875
 40
0.25
 40
0.28125
 40
0.296875
 40
0.3046875
 40
0.3125
 40
0.3203125
 40
0.328125
 40
0.330078125
 40
0.33203125
 40
0.3330078125
 40
0.333984375
 40
0.3359375
 40
0.33984375
 40
0.34375
 40
0.3515625
 40
0.359375
 40
0.375
 40
0.390625
 40
0.40625
 40
0.421875
 40
0.4375
 40
0.453125
 40
0.46875
 40
0.4765625
 40
0.484375
 40
0.48828125
 40
0.4921875
 40
0.49609375
 40
0.498046875
 40
0.4990234375
 40
0.5
 40
0.5009765625
 40
0.501953125
 40
0.50390625
 40
0.5078125
 40
0.51171875
 40
0.515625
 40
0.5234375
 40
0.53125
 40
0.546875
 40
0.5625
 40
0.578125
 40
0.59375
 40
0.609375
 40
0.625
 40
0.640625
 40
0.6484375
 40
0.65625
 40
0.66015625
 40
0.6640625
 40
0.666015625
 40
0.6669921875
 40
0.66796875
 40
0.669921875
 40
0.671875
 40
0.6796875
 40
0.6875
 40
0.6953125
 40
0.703125
 40
0.71875
 40
0.75
 40
0.78125
 40
0.796875
 40
0.8046875
 40
0.8125
 40
0.8203125
 40
0.828125
 40
0.830078125
 40
0.83203125
 40
0.8330078125
 40
0.833984375
 40
0.8359375
 40
0.83984375
 40
0.84375
 40
0.8515625
 40
0.859375
 40
0.875
 40
0.890625
 40
0.90625
 40
0.9375
 40
0.96875
 40
1.0
 40
1.0
 40
1.0
 40
1.0
 10
9.5684711607
 20
4.8229814179
 30
0.0
 10
9.5756681155
 20
4.8198017907
 30
0.0
 10
9.5900620246
 20
4.8134425361
 30
0.0
 10
9.6116528922
 20
4.8039036563
 30
0.0
 10
9.6296452702
 20
4.7959545834
 30
0.0
 10
9.6440391986
 20
4.7895953393
 30
0.0
 10
9.6548345741
 20
4.7848258677
 30
0.0
 10
9.6638309453
 20
4.7808514303
 30
0.0
 10
9.6710275378
 20
4.7776716061
 30
0.0
 10
9.6755265569
 20
4.7756848406
 30
0.0
 10
9.6791231411
 20
4.7740939977
 30
0.0
 10
9.6813770094
 20
4.7731029849
 30
0.0
 10
9.6829426862
 20
4.7724027345
 30
0.0
 10
9.6838561823
 20
4.772012826
 30
0.0
 10
9.6848405773
 20
4.7716614659
 30
0.0
 10
9.6860468374
 20
4.7712090899
 30
0.0
 10
9.6889618072
 20
4.7701342317
 30
0.0
 10
9.6933258845
 20
4.7685173897
 30
0.0
 10
9.6991494424
 20
4.7663642038
 30
0.0
 10
9.7049717194
 20
4.7642103214
 30
0.0
 10
9.7127352022
 20
4.7613387212
 30
0.0
 10
9.7263210896
 20
4.7563133063
 30
0.0
 10
9.7457296039
 20
4.7491342132
 30
0.0
 10
9.7651380982
 20
4.7419550546
 30
0.0
 10
9.7787240137
 20
4.7369297314
 30
0.0
 10
9.7864874522
 20
4.7340579872
 30
0.0
 10
9.792309865
 20
4.7319045467
 30
0.0
 10
9.7981329134
 20
4.729749701
 30
0.0
 10
9.8024984173
 20
4.7281375068
 30
0.0
 10
9.8054115252
 20
4.7270565829
 30
0.0
 10
9.8066211954
 20
4.7266153163
 30
0.0
 10
9.8075985538
 20
4.7262410319
 30
0.0
 10
9.8085407227
 20
4.7259445375
 30
0.0
 10
9.8101731684
 20
4.7254618155
 30
0.0
 10
9.8125137642
 20
4.724753355
 30
0.0
 10
9.8162539503
 20
4.7236303568
 30
0.0
 10
9.8209308151
 20
4.7222230006
 30
0.0
 10
9.8284128866
 20
4.7199732474
 30
0.0
 10
9.837765789
 20
4.7171603638
 30
0.0
 10
9.8489891376
 20
4.7137852003
 30
0.0
 10
9.8602125221
 20
4.7104099571
 30
0.0
 10
9.8714358975
 20
4.7070347357
 30
0.0
 10
9.8826592734
 20
4.703659507
 30
0.0
 10
9.8938826566
 20
4.7002842857
 30
0.0
 10
9.9032354511
 20
4.6974715826
 30
0.0
 10
9.9107177426
 20
4.6952214614
 30
0.0
 10
9.9153940476
 20
4.6938150418
 30
0.0
 10
9.9191353827
 20
4.6926901209
 30
0.0
 10
9.9219405871
 20
4.6918458423
 30
0.0
 10
9.9242807925
 20
4.6911441472
 30
0.0
 10
9.9259139614
 20
4.6906492899
 30
0.0
 10
9.9268549686
 20
4.6903722458
 30
0.0
 10
9.927538842
 20
4.690148317
 30
0.0
 10
9.9283063591
 20
4.6899861054
 30
0.0
 10
9.9293005394
 20
4.6897482957
 30
0.0
 10
9.9310539485
 20
4.6893421587
 30
0.0
 10
9.9335517117
 20
4.6887567192
 30
0.0
 10
9.9365520695
 20
4.6880564362
 30
0.0
 10
9.9405514841
 20
4.6871219417
 30
0.0
 10
9.9455511161
 20
4.685954092
 30
0.0
 10
9.9535503241
 20
4.6840853825
 30
0.0
 10
9.9635494037
 20
4.6817495471
 30
0.0
 10
9.9755482697
 20
4.6789465222
 30
0.0
 10
9.9875471427
 20
4.6761435046
 30
0.0
 10
9.9995460169
 20
4.67334048
 30
0.0
 10
10.0115448794
 20
4.670537476
 30
0.0
 10
10.0235437874
 20
4.667734397
 30
0.0
 10
10.0335427357
 20
4.6653987307
 30
0.0
 10
10.0415422117
 20
4.6635296761
 30
0.0
 10
10.0465411615
 20
4.6623627044
 30
0.0
 10
10.0505419765
 20
4.6614264076
 30
0.0
 10
10.0530387094
 20
4.6608474271
 30
0.0
 10
10.0547939909
 20
4.6604297052
 30
0.0
 10
10.0557851673
 20
4.6602104635
 30
0.0
 10
10.0567317426
 20
4.6600645048
 30
0.0
 10
10.0579302065
 20
4.6598570081
 30
0.0
 10
10.0607939726
 20
4.6593796318
 30
0.0
 10
10.0650948918
 20
4.6586549085
 30
0.0
 10
10.0708264387
 20
4.6576935598
 30
0.0
 10
10.0765587913
 20
4.6567308872
 30
0.0
 10
10.0842016471
 20
4.6554477857
 30
0.0
 10
10.0975767746
 20
4.6532021418
 30
0.0
 10
10.1166840406
 20
4.6499942002
 30
0.0
 10
10.1357912953
 20
4.646786186
 30
0.0
 10
10.1491664387
 20
4.6445406437
 30
0.0
 10
10.1568092694
 20
4.6432573825
 30
0.0
 10
10.1625416991
 20
4.6422951997
 30
0.0
 10
10.1682729564
 20
4.6413320118
 30
0.0
 10
10.1725746866
 20
4.6406124387
 30
0.0
 10
10.1754373944
 20
4.640128341
 30
0.0
 10
10.1766377967
 20
4.6399331546
 30
0.0
 10
10.177580372
 20
4.6397617935
 30
0.0
 10
10.1785878478
 20
4.6396460637
 30
0.0
 10
10.1803810847
 20
4.6394693843
 30
0.0
 10
10.1829271188
 20
4.6392034992
 30
0.0
 10
10.1870095656
 20
4.6387856195
 30
0.0
 10
10.1921096136
 20
4.6382606894
 30
0.0
 10
10.2002713731
 20
4.6374222435
 30
0.0
 10
10.210472995
 20
4.6363736913
 30
0.0
 10
10.2227151885
 20
4.6351156405
 30
0.0
 10
10.2390380269
 20
4.6334381654
 30
0.0
 10
10.2594416044
 20
4.631341347
 30
0.0
 10
10.2839258847
 20
4.6288251539
 30
0.0
 10
10.3002487407
 20
4.6271476939
 30
0.0
 10
10.3084101684
 20
4.6263089636
 30
0.0
  0
SPLINE
  5
3AC
100
AcDbEntity
  8
0
100
AcDbSpline
 62
4
  6
CONTINUOUS
 70
0
 71
3
 72
112
 73
108
 74
0
 42
0.0000001
 43
0.0000001
 44
0.0000000001
 40
0.0
 40
0.0
 40
0.0
 40
0.0
 40
0.03125
 40
0.0625
 40
0.09375
 40
0.109375
 40
0.125
 40
0.140625
 40
0.1484375
 40
0.15625
 40
0.16015625
 40
0.1640625
 40
0.166015625
 40
0.1669921875
 40
0.16796875
 40
0.169921875
 40
0.171875
 40
0.1796875
 40
0.1875
 40
0.1953125
 40
0.203125
 40
0.21875
 40
0.25
 40
0.28125
 40
0.296875
 40
0.3046875
 40
0.3125
 40
0.3203125
 40
0.32421875
 40
0.328125
 40
0.330078125
 40
0.33203125
 40
0.3330078125
 40
0.333984375
 40
0.3359375
 40
0.33984375
 40
0.34375
 40
0.3515625
 40
0.359375
 40
0.375
 40
0.390625
 40
0.40625
 40
0.421875
 40
0.4375
 40
0.453125
 40
0.46875
 40
0.4765625
 40
0.484375
 40
0.48828125
 40
0.4921875
 40
0.49609375
 40
0.498046875
 40
0.4990234375
 40
0.5
 40
0.5009765625
 40
0.501953125
 40
0.50390625
 40
0.5078125
 40
0.51171875
 40
0.515625
 40
0.5234375
 40
0.53125
 40
0.546875
 40
0.5625
 40
0.578125
 40
0.59375
 40
0.609375
 40
0.625
 40
0.640625
 40
0.6484375
 40
0.65625
 40
0.66015625
 40
0.6640625
 40
0.666015625
 40
0.6669921875
 40
0.66796875
 40
0.669921875
 40
0.671875
 40
0.67578125
 40
0.6796875
 40
0.6875
 40
0.6953125
 40
0.703125
 40
0.71875
 40
0.75
 40
0.78125
 40
0.796875
 40
0.8046875
 40
0.8125
 40
0.8203125
 40
0.82421875
 40
0.828125
 40
0.830078125
 40
0.83203125
 40
0.8330078125
 40
0.833984375
 40
0.8359375
 40
0.83984375
 40
0.84375
 40
0.8515625
 40
0.859375
 40
0.875
 40
0.890625
 40
0.90625
 40
0.9375
 40
0.96875
 40
1.0
 40
1.0
 40
1.0
 40
1.0
 10
10.3084101768
 20
4.626308963
 30
0.0
 10
10.3160863175
 20
4.6260178533
 30
0.0
 10
10.3314385984
 20
4.6254356333
 30
0.0
 10
10.3544670225
 20
4.6245623068
 30
0.0
 10
10.3736573678
 20
4.6238345243
 30
0.0
 10
10.3890096621
 20
4.6232523215
 30
0.0
 10
10.4005238337
 20
4.622815606
 30
0.0
 10
10.4101191328
 20
4.6224518783
 30
0.0
 10
10.417795022
 20
4.6221604432
 30
0.0
 10
10.4225932498
 20
4.6219793276
 30
0.0
 10
10.4264300067
 20
4.6218320732
 30
0.0
 10
10.4288321446
 20
4.6217454282
 30
0.0
 10
10.4305052943
 20
4.6216739766
 30
0.0
 10
10.4314744392
 20
4.6216500448
 30
0.0
 10
10.4324927716
 20
4.6216897574
 30
0.0
 10
10.4337488746
 20
4.6217176443
 30
0.0
 10
10.4367773592
 20
4.6218024773
 30
0.0
 10
10.4413142744
 20
4.6219222067
 30
0.0
 10
10.4473668163
 20
4.6220861441
 30
0.0
 10
10.4534184697
 20
4.6222489317
 30
0.0
 10
10.4614876509
 20
4.6224663829
 30
0.0
 10
10.4756085732
 20
4.622846736
 30
0.0
 10
10.4957813977
 20
4.6233901927
 30
0.0
 10
10.5159541843
 20
4.6239336238
 30
0.0
 10
10.5300751597
 20
4.6243140128
 30
0.0
 10
10.5381442574
 20
4.6245314075
 30
0.0
 10
10.5441961667
 20
4.6246943684
 30
0.0
 10
10.5492391508
 20
4.6248304409
 30
0.0
 10
10.553274152
 20
4.6249386891
 30
0.0
 10
10.5557946297
 20
4.6250077329
 30
0.0
 10
10.5578142136
 20
4.6250597875
 30
0.0
 10
10.5590691483
 20
4.6250995784
 30
0.0
 10
10.5600898281
 20
4.62511479
 30
0.0
 10
10.5610494239
 20
4.6251906809
 30
0.0
 10
10.5627003405
 20
4.6253516781
 30
0.0
 10
10.5650735979
 20
4.6255669671
 30
0.0
 10
10.5688625359
 20
4.6259196484
 30
0.0
 10
10.5736015415
 20
4.6263576859
 30
0.0
 10
10.581182367
 20
4.6270601187
 30
0.0
 10
10.5906589421
 20
4.6279376199
 30
0.0
 10
10.6020305994
 20
4.6289908529
 30
0.0
 10
10.6134023191
 20
4.6300440237
 30
0.0
 10
10.6247740223
 20
4.6310972117
 30
0.0
 10
10.6361457287
 20
4.632150393
 30
0.0
 10
10.6475174389
 20
4.6332035841
 30
0.0
 10
10.6569938488
 20
4.6340812161
 30
0.0
 10
10.6645750114
 20
4.6347833822
 30
0.0
 10
10.6693131591
 20
4.6352220985
 30
0.0
 10
10.6731038579
 20
4.6355733865
 30
0.0
 10
10.6759463876
 20
4.6358359899
 30
0.0
 10
10.6783167349
 20
4.6360575702
 30
0.0
 10
10.679972892
 20
4.6362072912
 30
0.0
 10
10.680924086
 20
4.6363012546
 30
0.0
 10
10.6816239077
 20
4.6363480401
 30
0.0
 10
10.6823756155
 20
4.6364853695
 30
0.0
 10
10.6833597942
 20
4.6366368925
 30
0.0
 10
10.6850905393
 20
4.6369167729
 30
0.0
 10
10.6875586238
 20
4.6373089088
 30
0.0
 10
10.6905222121
 20
4.6377827648
 30
0.0
 10
10.6944730041
 20
4.6384134226
 30
0.0
 10
10.6994117198
 20
4.6392021388
 30
0.0
 10
10.7073135389
 20
4.6404638645
 30
0.0
 10
10.7171908558
 20
4.6420410972
 30
0.0
 10
10.729043618
 20
4.6439337438
 30
0.0
 10
10.7408963838
 20
4.6458264001
 30
0.0
 10
10.7527491533
 20
4.6477190502
 30
0.0
 10
10.7646019045
 20
4.6496117154
 30
0.0
 10
10.776454725
 20
4.6515043265
 30
0.0
 10
10.7863318598
 20
4.6530816702
 30
0.0
 10
10.7942340504
 20
4.6543431694
 30
0.0
 10
10.7991718204
 20
4.655132462
 30
0.0
 10
10.8031245537
 20
4.6557619366
 30
0.0
 10
10.8055892684
 20
4.656159829
 30
0.0
 10
10.8073260795
 20
4.6564293937
 30
0.0
 10
10.8083005333
 20
4.6565974495
 30
0.0
 10
10.8092071423
 20
4.656818316
 30
0.0
 10
10.8103636334
 20
4.6570763169
 30
0.0
 10
10.8122010373
 20
4.6574992235
 30
0.0
 10
10.8145022371
 20
4.6580243967
 30
0.0
 10
10.8181816726
 20
4.6588666077
 30
0.0
 10
10.8227818192
 20
4.6599187079
 30
0.0
 10
10.8283016304
 20
4.6611815121
 30
0.0
 10
10.8356615059
 20
4.662865152
 30
0.0
 10
10.848541229
 20
4.6658115684
 30
0.0
 10
10.8669408627
 20
4.6700207071
 30
0.0
 10
10.8853404913
 20
4.6742298675
 30
0.0
 10
10.8982202215
 20
4.6771762533
 30
0.0
 10
10.9055800857
 20
4.6788599413
 30
0.0
 10
10.9110999314
 20
4.6801225981
 30
0.0
 10
10.9156999701
 20
4.6811751599
 30
0.0
 10
10.9193796259
 20
4.6820164291
 30
0.0
 10
10.9216802651
 20
4.682543999
 30
0.0
 10
10.9235188197
 20
4.682961986
 30
0.0
 10
10.9246723811
 20
4.6832325121
 30
0.0
 10
10.925585004
 20
4.6834276679
 30
0.0
 10
10.9265349601
 20
4.6837004566
 30
0.0
 10
10.9282147261
 20
4.6842139006
 30
0.0
 10
10.9306053432
 20
4.6849285758
 30
0.0
 10
10.9344353874
 20
4.6860825715
 30
0.0
 10
10.9392212111
 20
4.6875214656
 30
0.0
 10
10.9468794969
 20
4.6898257086
 30
0.0
 10
10.9564520221
 20
4.6927053218
 30
0.0
 10
10.9679391944
 20
4.6961611532
 30
0.0
 10
10.9832553745
 20
4.7007688252
 30
0.0
 10
11.0024006166
 20
4.7065284506
 30
0.0
 10
11.0253748999
 20
4.7134399859
 30
0.0
 10
11.0406910902
 20
4.7180476789
 30
0.0
 10
11.0483491851
 20
4.7203515251
 30
0.0
  0
SPLINE
  5
3AD
100
AcDbEntity
  8
0
100
AcDbSpline
 62
4
  6
CONTINUOUS
 70
0
 71
3
 72
141
 73
137
 74
0
 42
0.0000001
 43
0.0000001
 44
0.0000000001
 40
0.0
 40
0.0
 40
0.0
 40
0.0
 40
0.03125
 40
0.0625
 40
0.078125
 40
0.09375
 40
0.109375
 40
0.125
 40
0.140625
 40
0.1484375
 40
0.15234375
 40
0.15625
 40
0.16015625
 40
0.162109375
 40
0.1640625
 40
0.1650390625
 40
0.166015625
 40
0.1665039062
 40
0.1669921875
 40
0.16796875
 40
0.169921875
 40
0.171875
 40
0.17578125
 40
0.1796875
 40
0.1875
 40
0.1953125
 40
0.203125
 40
0.21875
 40
0.234375
 40
0.25
 40
0.265625
 40
0.28125
 40
0.296875
 40
0.3046875
 40
0.3125
 40
0.3203125
 40
0.32421875
 40
0.328125
 40
0.330078125
 40
0.33203125
 40
0.3330078125
 40
0.3334960938
 40
0.333984375
 40
0.3349609375
 40
0.3359375
 40
0.337890625
 40
0.33984375
 40
0.34375
 40
0.34765625
 40
0.3515625
 40
0.359375
 40
0.375
 40
0.390625
 40
0.40625
 40
0.421875
 40
0.4375
 40
0.453125
 40
0.4609375
 40
0.46875
 40
0.4765625
 40
0.484375
 40
0.48828125
 40
0.4921875
 40
0.494140625
 40
0.49609375
 40
0.498046875
 40
0.4990234375
 40
0.4995117188
 40
0.5
 40
0.5004882812
 40
0.5009765625
 40
0.501953125
 40
0.50390625
 40
0.505859375
 40
0.5078125
 40
0.51171875
 40
0.515625
 40
0.5234375
 40
0.53125
 40
0.5390625
 40
0.546875
 40
0.5625
 40
0.578125
 40
0.59375
 40
0.609375
 40
0.625
 40
0.640625
 40
0.6484375
 40
0.65234375
 40
0.65625
 40
0.66015625
 40
0.662109375
 40
0.6640625
 40
0.6650390625
 40
0.666015625
 40
0.6665039062
 40
0.6669921875
 40
0.66796875
 40
0.669921875
 40
0.671875
 40
0.67578125
 40
0.6796875
 40
0.6875
 40
0.6953125
 40
0.703125
 40
0.71875
 40
0.734375
 40
0.75
 40
0.765625
 40
0.78125
 40
0.796875
 40
0.8046875
 40
0.8125
 40
0.8203125
 40
0.82421875
 40
0.828125
 40
0.830078125
 40
0.83203125
 40
0.8330078125
 40
0.8334960938
 40
0.833984375
 40
0.8349609375
 40
0.8359375
 40
0.837890625
 40
0.83984375
 40
0.84375
 40
0.84765625
 40
0.8515625
 40
0.859375
 40
0.875
 40
0.890625
 40
0.90625
 40
0.921875
 40
0.9375
 40
0.96875
 40
1.0
 40
1.0
 40
1.0
 40
1.0
 10
8.026410277
 20
5.9798994745
 30
0.0
 10
8.0271542765
 20
5.9722599838
 30
0.0
 10
8.0286422755
 20
5.9569810026
 30
0.0
 10
8.0305022743
 20
5.937882276
 30
0.0
 10
8.0319902734
 20
5.9226032948
 30
0.0
 10
8.0331062724
 20
5.9111440588
 30
0.0
 10
8.0342222727
 20
5.899684823
 30
0.0
 10
8.0353382682
 20
5.8882255865
 30
0.0
 10
8.0362682794
 20
5.8786762248
 30
0.0
 10
8.036919258
 20
5.8719916678
 30
0.0
 10
8.0372912914
 20
5.8681719268
 30
0.0
 10
8.0375701879
 20
5.8653071045
 30
0.0
 10
8.037803011
 20
5.8629198053
 30
0.0
 10
8.0379883513
 20
5.8610098478
 30
0.0
 10
8.0381062799
 20
5.8598163933
 30
0.0
 10
8.0381958342
 20
5.8588610137
 30
0.0
 10
8.0382627314
 20
5.8582653071
 30
0.0
 10
8.0382912246
 20
5.8577855222
 30
0.0
 10
8.0384110754
 20
5.857317491
 30
0.0
 10
8.038663254
 20
5.8565038965
 30
0.0
 10
8.0390013662
 20
5.8553387698
 30
0.0
 10
8.0395547202
 20
5.8534761591
 30
0.0
 10
8.0402421756
 20
5.8511473507
 30
0.0
 10
8.0413444725
 20
5.8474215618
 30
0.0
 10
8.042721531
 20
5.8427642212
 30
0.0
 10
8.0443743491
 20
5.8371754572
 30
0.0
 10
8.046577985
 20
5.8297237562
 30
0.0
 10
8.0493325715
 20
5.8204091353
 30
0.0
 10
8.0526380575
 20
5.809231588
 30
0.0
 10
8.0559435485
 20
5.7980540414
 30
0.0
 10
8.059249037
 20
5.7868764943
 30
0.0
 10
8.0625545306
 20
5.7756989484
 30
0.0
 10
8.0653090937
 20
5.7663843232
 30
0.0
 10
8.0675127774
 20
5.7589326311
 30
0.0
 10
8.0691654496
 20
5.75334384
 30
0.0
 10
8.0705429645
 20
5.7486865841
 30
0.0
 10
8.0716443302
 20
5.7449606223
 30
0.0
 10
8.0723341554
 20
5.742632254
 30
0.0
 10
8.0728826452
 20
5.7407687398
 30
0.0
 10
8.0732331414
 20
5.7396059134
 30
0.0
 10
8.0734630767
 20
5.7387881872
 30
0.0
 10
8.073618582
 20
5.7383267788
 30
0.0
 10
8.073864927
 20
5.7378874596
 30
0.0
 10
8.0741417549
 20
5.7373307472
 30
0.0
 10
8.0746020615
 20
5.7364442343
 30
0.0
 10
8.0751714932
 20
5.7353346458
 30
0.0
 10
8.0760859102
 20
5.7335601131
 30
0.0
 10
8.0772277902
 20
5.7313416697
 30
0.0
 10
8.0785985347
 20
5.7286796564
 30
0.0
 10
8.0804260236
 20
5.7251302639
 30
0.0
 10
8.0836242086
 20
5.7189188464
 30
0.0
 10
8.0881930028
 20
5.7100453827
 30
0.0
 10
8.0936755737
 20
5.6993972306
 30
0.0
 10
8.0991581398
 20
5.6887490773
 30
0.0
 10
8.1046407071
 20
5.6781009243
 30
0.0
 10
8.1101232742
 20
5.6674527713
 30
0.0
 10
8.1146920798
 20
5.6585793102
 30
0.0
 10
8.1183471252
 20
5.651480542
 30
0.0
 10
8.1210884068
 20
5.646156464
 30
0.0
 10
8.1238296976
 20
5.6408323928
 30
0.0
 10
8.126114078
 20
5.6363956458
 30
0.0
 10
8.1279416463
 20
5.6328462953
 30
0.0
 10
8.1290837309
 20
5.630627844
 30
0.0
 10
8.1299977319
 20
5.6288533284
 30
0.0
 10
8.13068232
 20
5.6275217699
 30
0.0
 10
8.1312557136
 20
5.6264142748
 30
0.0
 10
8.131651391
 20
5.6256348346
 30
0.0
 10
8.1318863895
 20
5.6251959881
 30
0.0
 10
8.1320375751
 20
5.6248484076
 30
0.0
 10
8.1322845649
 20
5.6245713357
 30
0.0
 10
8.132580467
 20
5.6241773123
 30
0.0
 10
8.1331138655
 20
5.6234992302
 30
0.0
 10
8.1338677234
 20
5.6225245506
 30
0.0
 10
8.134775837
 20
5.6213574994
 30
0.0
 10
8.1359854382
 20
5.6198005355
 30
0.0
 10
8.1374978564
 20
5.6178546373
 30
0.0
 10
8.1399174926
 20
5.6147410287
 30
0.0
 10
8.1429421178
 20
5.6108490768
 30
0.0
 10
8.1465716337
 20
5.6061787094
 30
0.0
 10
8.1502011589
 20
5.6015083486
 30
0.0
 10
8.1550405225
 20
5.5952811987
 30
0.0
 10
8.1610897281
 20
5.587497262
 30
0.0
 10
8.1683487744
 20
5.5781565377
 30
0.0
 10
8.1756078206
 20
5.5688158132
 30
0.0
 10
8.1828668678
 20
5.5594750896
 30
0.0
 10
8.1901259112
 20
5.550134363
 30
0.0
 10
8.1961751259
 20
5.5423504333
 30
0.0
 10
8.2004095529
 20
5.5369016646
 30
0.0
 10
8.2028292619
 20
5.5337881105
 30
0.0
 10
8.204643941
 20
5.531452866
 30
0.0
 10
8.2061565005
 20
5.5295070801
 30
0.0
 10
8.2073658148
 20
5.527949888
 30
0.0
 10
8.2081233059
 20
5.5269779259
 30
0.0
 10
8.208725475
 20
5.526197418
 30
0.0
 10
8.2091105554
 20
5.5257163047
 30
0.0
 10
8.2093986362
 20
5.5253160586
 30
0.0
 10
8.2097596715
 20
5.5249718713
 30
0.0
 10
8.2104253735
 20
5.5243955853
 30
0.0
 10
8.2113586941
 20
5.5235587323
 30
0.0
 10
8.2128618887
 20
5.5222273607
 30
0.0
 10
8.2147374985
 20
5.5205605463
 30
0.0
 10
8.2177403652
 20
5.5178950964
 30
0.0
 10
8.2214932998
 20
5.5145627855
 30
0.0
 10
8.225997099
 20
5.5105642257
 30
0.0
 10
8.2320020677
 20
5.5052327382
 30
0.0
 10
8.2395083117
 20
5.4985684044
 30
0.0
 10
8.2485157903
 20
5.4905711927
 30
0.0
 10
8.2575232729
 20
5.4825739843
 30
0.0
 10
8.2665307537
 20
5.4745767741
 30
0.0
 10
8.2755382376
 20
5.466579568
 30
0.0
 10
8.2830444655
 20
5.4599152171
 30
0.0
 10
8.289049467
 20
5.4545837645
 30
0.0
 10
8.2935531659
 20
5.450585098
 30
0.0
 10
8.2973064142
 20
5.4472531209
 30
0.0
 10
8.3003086409
 20
5.44458699
 30
0.0
 10
8.3021858796
 20
5.4429219086
 30
0.0
 10
8.3036857307
 20
5.4415869798
 30
0.0
 10
8.3046275639
 20
5.4407591832
 30
0.0
 10
8.3052779762
 20
5.4401666309
 30
0.0
 10
8.3056635198
 20
5.4398485175
 30
0.0
 10
8.3061013495
 20
5.4396075855
 30
0.0
 10
8.306630734
 20
5.4392799938
 30
0.0
 10
8.307487754
 20
5.4387706156
 30
0.0
 10
8.3085556033
 20
5.438128836
 30
0.0
 10
8.3102660768
 20
5.4371048149
 30
0.0
 10
8.3124035119
 20
5.4358238189
 30
0.0
 10
8.314968715
 20
5.4342870386
 30
0.0
 10
8.3183888878
 20
5.4322378536
 30
0.0
 10
8.324374236
 20
5.4286518472
 30
0.0
 10
8.3329247094
 20
5.4235289456
 30
0.0
 10
8.3431852877
 20
5.4173814788
 30
0.0
 10
8.3534458634
 20
5.411234008
 30
0.0
 10
8.3637064397
 20
5.4050865383
 30
0.0
 10
8.3773872079
 20
5.3968899116
 30
0.0
 10
8.3944881682
 20
5.3866441284
 30
0.0
 10
8.4081689365
 20
5.3784475018
 30
0.0
 10
8.4150093206
 20
5.3743491885
 30
0.0
  0
SPLINE
  5
3AE
100
AcDbEntity
  8
0
100
AcDbSpline
 62
4
  6
CONTINUOUS
 70
0
 71
3
 72
141
 73
137
 74
0
 42
0.0000001
 43
0.0000001
 44
0.0000000001
 40
0.0
 40
0.0
 40
0.0
 40
0.0
 40
0.03125
 40
0.0625
 40
0.078125
 40
0.09375
 40
0.109375
 40
0.125
 40
0.140625
 40
0.1484375
 40
0.15234375
 40
0.15625
 40
0.16015625
 40
0.162109375
 40
0.1640625
 40
0.1650390625
 40
0.166015625
 40
0.1665039062
 40
0.1669921875
 40
0.16796875
 40
0.169921875
 40
0.171875
 40
0.17578125
 40
0.1796875
 40
0.1875
 40
0.1953125
 40
0.203125
 40
0.21875
 40
0.234375
 40
0.25
 40
0.265625
 40
0.28125
 40
0.296875
 40
0.3046875
 40
0.3125
 40
0.3203125
 40
0.32421875
 40
0.328125
 40
0.330078125
 40
0.33203125
 40
0.3330078125
 40
0.3334960938
 40
0.333984375
 40
0.3349609375
 40
0.3359375
 40
0.337890625
 40
0.33984375
 40
0.34375
 40
0.34765625
 40
0.3515625
 40
0.359375
 40
0.375
 40
0.390625
 40
0.40625
 40
0.421875
 40
0.4375
 40
0.453125
 40
0.4609375
 40
0.46875
 40
0.4765625
 40
0.484375
 40
0.48828125
 40
0.4921875
 40
0.494140625
 40
0.49609375
 40
0.498046875
 40
0.4990234375
 40
0.4995117188
 40
0.5
 40
0.5004882812
 40
0.5009765625
 40
0.501953125
 40
0.50390625
 40
0.505859375
 40
0.5078125
 40
0.51171875
 40
0.515625
 40
0.5234375
 40
0.53125
 40
0.5390625
 40
0.546875
 40
0.5625
 40
0.578125
 40
0.59375
 40
0.609375
 40
0.625
 40
0.640625
 40
0.6484375
 40
0.65234375
 40
0.65625
 40
0.66015625
 40
0.662109375
 40
0.6640625
 40
0.6650390625
 40
0.666015625
 40
0.6665039062
 40
0.6669921875
 40
0.66796875
 40
0.669921875
 40
0.671875
 40
0.67578125
 40
0.6796875
 40
0.6875
 40
0.6953125
 40
0.703125
 40
0.71875
 40
0.734375
 40
0.75
 40
0.765625
 40
0.78125
 40
0.796875
 40
0.8046875
 40
0.8125
 40
0.8203125
 40
0.82421875
 40
0.828125
 40
0.830078125
 40
0.83203125
 40
0.8330078125
 40
0.8334960938
 40
0.833984375
 40
0.8349609375
 40
0.8359375
 40
0.837890625
 40
0.83984375
 40
0.84375
 40
0.84765625
 40
0.8515625
 40
0.859375
 40
0.875
 40
0.890625
 40
0.90625
 40
0.921875
 40
0.9375
 40
0.96875
 40
1.0
 40
1.0
 40
1.0
 40
1.0
 10
8.4150092928
 20
8.0528841472
 30
0.0
 10
8.4082667319
 20
8.0497925959
 30
0.0
 10
8.3947816102
 20
8.0436094935
 30
0.0
 10
8.3779252079
 20
8.0358806154
 30
0.0
 10
8.3644400862
 20
8.0296975128
 30
0.0
 10
8.3543262447
 20
8.0250601862
 30
0.0
 10
8.3442124039
 20
8.0204228585
 30
0.0
 10
8.3340985605
 20
8.015785535
 30
0.0
 10
8.325670366
 20
8.0119210855
 30
0.0
 10
8.3197706134
 20
8.0092159968
 30
0.0
 10
8.3163993518
 20
8.0076701913
 30
0.0
 10
8.3138708335
 20
8.0065109515
 30
0.0
 10
8.3117639648
 20
8.0055445541
 30
0.0
 10
8.3100779541
 20
8.0047722531
 30
0.0
 10
8.3090253717
 20
8.0042877047
 30
0.0
 10
8.3081806166
 20
8.0039043264
 30
0.0
 10
8.3076587804
 20
8.0036549941
 30
0.0
 10
8.307227258
 20
8.0034777933
 30
0.0
 10
8.3068470405
 20
8.003219309
 30
0.0
 10
8.3062054933
 20
8.0027292018
 30
0.0
 10
8.3052765622
 20
8.0020487497
 30
0.0
 10
8.3037972217
 20
8.0009490165
 30
0.0
 10
8.3019456667
 20
7.9995781198
 30
0.0
 10
8.2989845085
 20
7.9973825781
 30
0.0
 10
8.2952826045
 20
7.9946388739
 30
0.0
 10
8.290840515
 20
7.9913461195
 30
0.0
 10
8.2849176607
 20
7.9869558883
 30
0.0
 10
8.2775141163
 20
7.9814680622
 30
0.0
 10
8.268629853
 20
7.9748826868
 30
0.0
 10
8.2597455926
 20
7.9682973069
 30
0.0
 10
8.2508613306
 20
7.9617119293
 30
0.0
 10
8.2419770719
 20
7.9551265472
 30
0.0
 10
8.2345735131
 20
7.9496387416
 30
0.0
 10
8.2286506883
 20
7.9452484687
 30
0.0
 10
8.2242085091
 20
7.9419558414
 30
0.0
 10
8.2205068855
 20
7.9392117393
 30
0.0
 10
8.2175451552
 20
7.9370170094
 30
0.0
 10
8.2156950562
 20
7.9356440468
 30
0.0
 10
8.214212727
 20
7.9345485542
 30
0.0
 10
8.2132914051
 20
7.9338573058
 30
0.0
 10
8.2126361909
 20
7.9333865901
 30
0.0
 10
8.2122778806
 20
7.9330970224
 30
0.0
 10
8.2119802137
 20
7.9327298994
 30
0.0
 10
8.2115873659
 20
7.9322975504
 30
0.0
 10
8.2109704133
 20
7.9315909519
 30
0.0
 10
8.2101952494
 20
7.930712785
 30
0.0
 10
8.2089572077
 20
7.9293048781
 30
0.0
 10
8.2074088938
 20
7.9275459688
 30
0.0
 10
8.2055512431
 20
7.9254348607
 30
0.0
 10
8.2030742618
 20
7.9226201953
 30
0.0
 10
8.1987395976
 20
7.9176944631
 30
0.0
 10
8.1925471924
 20
7.9106577383
 30
0.0
 10
8.185116318
 20
7.9022136532
 30
0.0
 10
8.1776854405
 20
7.8937695723
 30
0.0
 10
8.1702545637
 20
7.8853254903
 30
0.0
 10
8.1628236869
 20
7.8768814085
 30
0.0
 10
8.1566312892
 20
7.8698446738
 30
0.0
 10
8.151677372
 20
7.8642152855
 30
0.0
 10
8.1479619314
 20
7.859993246
 30
0.0
 10
8.1442465011
 20
7.8557712
 30
0.0
 10
8.1411502771
 20
7.8522528483
 30
0.0
 10
8.1386733697
 20
7.8494381223
 30
0.0
 10
8.137125139
 20
7.8476790203
 30
0.0
 10
8.1358869291
 20
7.8462715056
 30
0.0
 10
8.134957246
 20
7.8452165076
 30
0.0
 10
8.1341857729
 20
7.8443353131
 30
0.0
 10
8.1336393385
 20
7.8437224598
 30
0.0
 10
8.1333370884
 20
7.8433660391
 30
0.0
 10
8.1330822358
 20
7.843116242
 30
0.0
 10
8.1329350442
 20
7.8427994804
 30
0.0
 10
8.1327012354
 20
7.8424004895
 30
0.0
 10
8.1323095668
 20
7.8416913726
 30
0.0
 10
8.1317408927
 20
7.8406840382
 30
0.0
 10
8.1310623992
 20
7.8394728014
 30
0.0
 10
8.1301563736
 20
7.8378586697
 30
0.0
 10
8.1290243099
 20
7.8358407139
 30
0.0
 10
8.1272127462
 20
7.8326121473
 30
0.0
 10
8.1249483814
 20
7.8285763832
 30
0.0
 10
8.1222311051
 20
7.8237334902
 30
0.0
 10
8.1195138392
 20
7.8188905908
 30
0.0
 10
8.1158908143
 20
7.8124333939
 30
0.0
 10
8.1113620344
 20
7.804361897
 30
0.0
 10
8.1059274981
 20
7.794676101
 30
0.0
 10
8.1004929617
 20
7.784990305
 30
0.0
 10
8.0950584263
 20
7.7753045084
 30
0.0
 10
8.0896238866
 20
7.7656187144
 30
0.0
 10
8.0850951173
 20
7.7575472112
 30
0.0
 10
8.0819249518
 20
7.7518971751
 30
0.0
 10
8.0801134707
 20
7.7486685579
 30
0.0
 10
8.0787547414
 20
7.7462471657
 30
0.0
 10
8.0776228443
 20
7.7442291137
 30
0.0
 10
8.0767164805
 20
7.7426151771
 30
0.0
 10
8.0761519296
 20
7.7416053168
 30
0.0
 10
8.0756958769
 20
7.7408000623
 30
0.0
 10
8.0754209106
 20
7.7402907687
 30
0.0
 10
8.0751778807
 20
7.7398970982
 30
0.0
 10
8.0750190251
 20
7.7394531779
 30
0.0
 10
8.0747801306
 20
7.7386529741
 30
0.0
 10
8.0744184508
 20
7.7375220051
 30
0.0
 10
8.0738511647
 20
7.7357056484
 30
0.0
 10
8.0731381532
 20
7.7334375331
 30
0.0
 10
8.0719995166
 20
7.7298072459
 30
0.0
 10
8.0705754723
 20
7.7252698339
 30
0.0
 10
8.0688669396
 20
7.7198247482
 30
0.0
 10
8.0665887841
 20
7.7125647008
 30
0.0
 10
8.0637411281
 20
7.7034896185
 30
0.0
 10
8.0603239243
 20
7.6925995297
 30
0.0
 10
8.0569067253
 20
7.6817094381
 30
0.0
 10
8.0534895237
 20
7.6708193476
 30
0.0
 10
8.0500723275
 20
7.6599292556
 30
0.0
 10
8.0472246484
 20
7.650854183
 30
0.0
 10
8.0449465398
 20
7.643594116
 30
0.0
 10
8.0432378639
 20
7.6381490901
 30
0.0
 10
8.0418142674
 20
7.6336114911
 30
0.0
 10
8.0406747173
 20
7.6299815854
 30
0.0
 10
8.0399640307
 20
7.6277124992
 30
0.0
 10
8.0393919723
 20
7.6258981353
 30
0.0
 10
8.0390424427
 20
7.6247620929
 30
0.0
 10
8.038781725
 20
7.6239710015
 30
0.0
 10
8.0386578505
 20
7.6235124746
 30
0.0
 10
8.0386285576
 20
7.6230295568
 30
0.0
 10
8.038559557
 20
7.6224342609
 30
0.0
 10
8.038467254
 20
7.6214771204
 30
0.0
 10
8.0383456785
 20
7.6202822927
 30
0.0
 10
8.038154621
 20
7.6183696754
 30
0.0
 10
8.0379146109
 20
7.6159792101
 30
0.0
 10
8.0376271074
 20
7.6131105206
 30
0.0
 10
8.037243592
 20
7.609285647
 30
0.0
 10
8.0365725226
 20
7.6025920968
 30
0.0
 10
8.0356138089
 20
7.5930298936
 30
0.0
 10
8.0344633709
 20
7.5815552448
 30
0.0
 10
8.033312928
 20
7.5700805974
 30
0.0
 10
8.0321624864
 20
7.5586059496
 30
0.0
 10
8.0306285638
 20
7.5433064193
 30
0.0
 10
8.0287111607
 20
7.5241820064
 30
0.0
 10
8.0271772382
 20
7.5088824761
 30
0.0
 10
8.026410277
 20
7.501232711
 30
0.0
  0
SPLINE
  5
3AF
100
AcDbEntity
  8
0
100
AcDbSpline
 62
4
  6
CONTINUOUS
 70
0
 71
3
 72
161
 73
157
 74
0
 42
0.0000001
 43
0.0000001
 44
0.0000000001
 40
0.0
 40
0.0
 40
0.0
 40
0.0
 40
0.03125
 40
0.0625
 40
0.078125
 40
0.09375
 40
0.109375
 40
0.125
 40
0.1328125
 40
0.140625
 40
0.1484375
 40
0.15234375
 40
0.15625
 40
0.16015625
 40
0.162109375
 40
0.1640625
 40
0.1650390625
 40
0.166015625
 40
0.1665039062
 40
0.1669921875
 40
0.1674804688
 40
0.16796875
 40
0.169921875
 40
0.171875
 40
0.173828125
 40
0.17578125
 40
0.1796875
 40
0.1875
 40
0.1953125
 40
0.203125
 40
0.2109375
 40
0.21875
 40
0.234375
 40
0.25
 40
0.265625
 40
0.28125
 40
0.2890625
 40
0.296875
 40
0.3046875
 40
0.3125
 40
0.3203125
 40
0.32421875
 40
0.326171875
 40
0.328125
 40
0.330078125
 40
0.33203125
 40
0.3325195312
 40
0.3330078125
 40
0.3334960938
 40
0.333984375
 40
0.3349609375
 40
0.3359375
 40
0.337890625
 40
0.33984375
 40
0.34375
 40
0.34765625
 40
0.3515625
 40
0.359375
 40
0.3671875
 40
0.375
 40
0.390625
 40
0.40625
 40
0.421875
 40
0.4375
 40
0.453125
 40
0.4609375
 40
0.46875
 40
0.4765625
 40
0.48046875
 40
0.484375
 40
0.48828125
 40
0.4921875
 40
0.494140625
 40
0.49609375
 40
0.498046875
 40
0.4990234375
 40
0.4995117188
 40
0.5
 40
0.5004882812
 40
0.5009765625
 40
0.501953125
 40
0.50390625
 40
0.505859375
 40
0.5078125
 40
0.51171875
 40
0.515625
 40
0.51953125
 40
0.5234375
 40
0.53125
 40
0.5390625
 40
0.546875
 40
0.5625
 40
0.578125
 40
0.59375
 40
0.609375
 40
0.625
 40
0.6328125
 40
0.640625
 40
0.6484375
 40
0.65234375
 40
0.65625
 40
0.66015625
 40
0.662109375
 40
0.6640625
 40
0.6650390625
 40
0.666015625
 40
0.6665039062
 40
0.6667480469
 40
0.6669921875
 40
0.6674804688
 40
0.66796875
 40
0.669921875
 40
0.671875
 40
0.673828125
 40
0.67578125
 40
0.6796875
 40
0.6875
 40
0.6953125
 40
0.703125
 40
0.7109375
 40
0.71875
 40
0.734375
 40
0.75
 40
0.765625
 40
0.78125
 40
0.7890625
 40
0.796875
 40
0.8046875
 40
0.8125
 40
0.8203125
 40
0.82421875
 40
0.826171875
 40
0.828125
 40
0.830078125
 40
0.83203125
 40
0.8325195312
 40
0.8330078125
 40
0.8332519531
 40
0.8334960938
 40
0.833984375
 40
0.8349609375
 40
0.8359375
 40
0.837890625
 40
0.83984375
 40
0.84375
 40
0.84765625
 40
0.8515625
 40
0.859375
 40
0.8671875
 40
0.875
 40
0.890625
 40
0.90625
 40
0.921875
 40
0.9375
 40
0.96875
 40
1.0
 40
1.0
 40
1.0
 40
1.0
 10
11.0483491929
 20
8.3416363365
 30
0.0
 10
11.0333888429
 20
8.3476876116
 30
0.0
 10
11.0034681428
 20
8.3597901617
 30
0.0
 10
10.9660672677
 20
8.3749183494
 30
0.0
 10
10.9361465676
 20
8.3870208996
 30
0.0
 10
10.9137060426
 20
8.3960978121
 30
0.0
 10
10.8912655176
 20
8.4051747251
 30
0.0
 10
10.8725650798
 20
8.4127388178
 30
0.0
 10
10.8576047303
 20
8.4187900951
 30
0.0
 10
10.846384466
 20
8.4233285446
 30
0.0
 10
10.837034253
 20
8.4271106129
 30
0.0
 10
10.8295540662
 20
8.4301362068
 30
0.0
 10
10.8239439709
 20
8.4324055683
 30
0.0
 10
10.819268749
 20
8.4342961745
 30
0.0
 10
10.815528891
 20
8.4358098445
 30
0.0
 10
10.8131907521
 20
8.43675319
 30
0.0
 10
10.8113219075
 20
8.437514046
 30
0.0
 10
10.8101500771
 20
8.437975481
 30
0.0
 10
10.8092213223
 20
8.4383769241
 30
0.0
 10
10.8085009092
 20
8.4385895809
 30
0.0
 10
10.8077738137
 20
8.4387774592
 30
0.0
 10
10.8063230602
 20
8.4391659619
 30
0.0
 10
10.8041454862
 20
8.4397433624
 30
0.0
 10
10.8012428794
 20
8.4405162895
 30
0.0
 10
10.7983400519
 20
8.4412883982
 30
0.0
 10
10.7944696922
 20
8.4423181619
 30
0.0
 10
10.7876965267
 20
8.4441201155
 30
0.0
 10
10.7780205949
 20
8.4466944043
 30
0.0
 10
10.7664094687
 20
8.4497835211
 30
0.0
 10
10.7547983446
 20
8.4528726459
 30
0.0
 10
10.74318722
 20
8.4559617686
 30
0.0
 10
10.7277057206
 20
8.4600805995
 30
0.0
 10
10.7083538464
 20
8.465229138
 30
0.0
 10
10.6851315974
 20
8.4714073842
 30
0.0
 10
10.6619093483
 20
8.4775856304
 30
0.0
 10
10.6425574741
 20
8.482734169
 30
0.0
 10
10.6270759747
 20
8.4868529996
 30
0.0
 10
10.6154648502
 20
8.4899421232
 30
0.0
 10
10.6038537255
 20
8.4930312446
 30
0.0
 10
10.5922426018
 20
8.4961203742
 30
0.0
 10
10.582566662
 20
8.4986946232
 30
0.0
 10
10.5757935108
 20
8.5004966479
 30
0.0
 10
10.5719231283
 20
8.5015262976
 30
0.0
 10
10.5690203706
 20
8.5022987565
 30
0.0
 10
10.5661175014
 20
8.503070368
 30
0.0
 10
10.5639406622
 20
8.5036514529
 30
0.0
 10
10.5624889498
 20
8.5040351471
 30
0.0
 10
10.5617639618
 20
8.5042335936
 30
0.0
 10
10.5610355982
 20
8.5044063818
 30
0.0
 10
10.5600483847
 20
8.5045146793
 30
0.0
 10
10.5588198673
 20
8.5046918534
 30
0.0
 10
10.5568511662
 20
8.5049519709
 30
0.0
 10
10.5543913421
 20
8.5052851167
 30
0.0
 10
10.5504550354
 20
8.5058136794
 30
0.0
 10
10.5455348538
 20
8.5064759165
 30
0.0
 10
10.5396305496
 20
8.5072699446
 30
0.0
 10
10.5317581741
 20
8.508328878
 30
0.0
 10
10.5219176943
 20
8.5096524661
 30
0.0
 10
10.5101091231
 20
8.5112408055
 30
0.0
 10
10.4943643598
 20
8.5133585795
 30
0.0
 10
10.4746834063
 20
8.5160058012
 30
0.0
 10
10.4510662619
 20
8.5191824654
 30
0.0
 10
10.4274491175
 20
8.5223591301
 30
0.0
 10
10.4038319732
 20
8.5255357947
 30
0.0
 10
10.3841510195
 20
8.5281830151
 30
0.0
 10
10.3684062566
 20
8.5303007918
 30
0.0
 10
10.3565976844
 20
8.5318891232
 30
0.0
 10
10.3467572076
 20
8.5332127362
 30
0.0
 10
10.3388848261
 20
8.5342716187
 30
0.0
 10
10.33298054
 20
8.5350658022
 30
0.0
 10
10.3270762539
 20
8.5358599033
 30
0.0
 10
10.3221560156
 20
8.5365219108
 30
0.0
 10
10.3182198247
 20
8.5370509423
 30
0.0
 10
10.3152676822
 20
8.5374492854
 30
0.0
 10
10.3128075611
 20
8.5377762457
 30
0.0
 10
10.3110854811
 20
8.5380149151
 30
0.0
 10
10.3101014279
 20
8.538136
 30
0.0
 10
10.309363409
 20
8.5382699075
 30
0.0
 10
10.3086253099
 20
8.5382390885
 30
0.0
 10
10.3076412056
 20
8.538255455
 30
0.0
 10
10.3059190102
 20
8.5382573253
 30
0.0
 10
10.3034587379
 20
8.5382739933
 30
0.0
 10
10.3005064081
 20
8.5382880042
 30
0.0
 10
10.2965699695
 20
8.538308778
 30
0.0
 10
10.2916494209
 20
8.5383340271
 30
0.0
 10
10.2857447627
 20
8.5383646339
 30
0.0
 10
10.2798401044
 20
8.5383951584
 30
0.0
 10
10.2719672268
 20
8.5384358865
 30
0.0
 10
10.2621261297
 20
8.5384867867
 30
0.0
 10
10.2503168132
 20
8.5385478711
 30
0.0
 10
10.2345710579
 20
8.5386293156
 30
0.0
 10
10.2148888637
 20
8.5387311217
 30
0.0
 10
10.1912702307
 20
8.5388532888
 30
0.0
 10
10.1676515978
 20
8.5389754559
 30
0.0
 10
10.1440329648
 20
8.5390976231
 30
0.0
 10
10.1243507707
 20
8.5391994287
 30
0.0
 10
10.1086050152
 20
8.5392808743
 30
0.0
 10
10.0967956991
 20
8.5393419552
 30
0.0
 10
10.0869546009
 20
8.5393928664
 30
0.0
 10
10.0790817254
 20
8.5394335721
 30
0.0
 10
10.0731770606
 20
8.5394641649
 30
0.0
 10
10.0682565326
 20
8.5394894566
 30
0.0
 10
10.064320052
 20
8.5395101437
 30
0.0
 10
10.0618598841
 20
8.53952204
 30
0.0
 10
10.0598914463
 20
8.5395339232
 30
0.0
 10
10.058661865
 20
8.5395359514
 30
0.0
 10
10.0577997707
 20
8.539548191
 30
0.0
 10
10.0573093161
 20
8.5395382563
 30
0.0
 10
10.0568270379
 20
8.5394645594
 30
0.0
 10
10.0562213954
 20
8.5393942325
 30
0.0
 10
10.0547701536
 20
8.5392075102
 30
0.0
 10
10.0525923247
 20
8.5389349608
 30
0.0
 10
10.0496891051
 20
8.5385672554
 30
0.0
 10
10.0467857378
 20
8.538200702
 30
0.0
 10
10.0429146329
 20
8.5377115622
 30
0.0
 10
10.0361401753
 20
8.5368557549
 30
0.0
 10
10.0264623913
 20
8.5356330751
 30
0.0
 10
10.0148490451
 20
8.5341659013
 30
0.0
 10
10.0032357004
 20
8.5326987162
 30
0.0
 10
9.9916223553
 20
8.5312315342
 30
0.0
 10
9.9761378953
 20
8.5292752904
 30
0.0
 10
9.9567823202
 20
8.526829986
 30
0.0
 10
9.9335556302
 20
8.5238956206
 30
0.0
 10
9.9103289401
 20
8.5209612553
 30
0.0
 10
9.8909733651
 20
8.5185159508
 30
0.0
 10
9.875488905
 20
8.5165597074
 30
0.0
 10
9.8638755601
 20
8.5150925241
 30
0.0
 10
9.8522622146
 20
8.5136253438
 30
0.0
 10
9.8406488713
 20
8.5121581523
 30
0.0
 10
9.8309710782
 20
8.5109355277
 30
0.0
 10
9.8241966369
 20
8.5100796218
 30
0.0
 10
9.820325506
 20
8.5095906399
 30
0.0
 10
9.8174222184
 20
8.5092236015
 30
0.0
 10
9.8145186996
 20
8.5088577176
 30
0.0
 10
9.8123417085
 20
8.5085800676
 30
0.0
 10
9.8108893733
 20
8.508400002
 30
0.0
 10
9.8102857334
 20
8.5083174831
 30
0.0
 10
9.8097993227
 20
8.5082689443
 30
0.0
 10
9.8093257075
 20
8.5081564936
 30
0.0
 10
9.8085028258
 20
8.5079300099
 30
0.0
 10
9.8073241787
 20
8.5076219552
 30
0.0
 10
9.8054400768
 20
8.5071204092
 30
0.0
 10
9.8030843559
 20
8.5064964414
 30
0.0
 10
9.7993155343
 20
8.505496436
 30
0.0
 10
9.7946043933
 20
8.5042469977
 30
0.0
 10
9.788951073
 20
8.5027474284
 30
0.0
 10
9.7814132954
 20
8.5007480876
 30
0.0
 10
9.7719910794
 20
8.4982488825
 30
0.0
 10
9.7606844176
 20
8.4952498489
 30
0.0
 10
9.7456088694
 20
8.491251133
 30
0.0
 10
9.7267644339
 20
8.4862527397
 30
0.0
 10
9.7041511114
 20
8.480254667
 30
0.0
 10
9.6815377889
 20
8.4742565945
 30
0.0
 10
9.6513866922
 20
8.4662591645
 30
0.0
 10
9.6136978213
 20
8.4562623769
 30
0.0
 10
9.5835467246
 20
8.4482649469
 30
0.0
 10
9.5684711763
 20
8.4442662319
 30
0.0
  0
SPLINE
  5
3B0
100
AcDbEntity
  8
0
100
AcDbSpline
 62
4
  6
CONTINUOUS
 70
0
 71
3
 72
141
 73
137
 74
0
 42
0.0000001
 43
0.0000001
 44
0.0000000001
 40
0.0
 40
0.0
 40
0.0
 40
0.0
 40
0.03125
 40
0.0625
 40
0.078125
 40
0.09375
 40
0.109375
 40
0.125
 40
0.140625
 40
0.1484375
 40
0.15234375
 40
0.15625
 40
0.16015625
 40
0.162109375
 40
0.1640625
 40
0.1650390625
 40
0.166015625
 40
0.1665039062
 40
0.1669921875
 40
0.16796875
 40
0.169921875
 40
0.171875
 40
0.17578125
 40
0.1796875
 40
0.1875
 40
0.1953125
 40
0.203125
 40
0.21875
 40
0.234375
 40
0.25
 40
0.265625
 40
0.28125
 40
0.296875
 40
0.3046875
 40
0.3125
 40
0.3203125
 40
0.32421875
 40
0.328125
 40
0.330078125
 40
0.33203125
 40
0.3330078125
 40
0.3334960938
 40
0.333984375
 40
0.3349609375
 40
0.3359375
 40
0.337890625
 40
0.33984375
 40
0.34375
 40
0.34765625
 40
0.3515625
 40
0.359375
 40
0.375
 40
0.390625
 40
0.40625
 40
0.421875
 40
0.4375
 40
0.453125
 40
0.4609375
 40
0.46875
 40
0.4765625
 40
0.484375
 40
0.48828125
 40
0.4921875
 40
0.494140625
 40
0.49609375
 40
0.498046875
 40
0.4990234375
 40
0.4995117188
 40
0.5
 40
0.5004882812
 40
0.5009765625
 40
0.501953125
 40
0.50390625
 40
0.505859375
 40
0.5078125
 40
0.51171875
 40
0.515625
 40
0.5234375
 40
0.53125
 40
0.5390625
 40
0.546875
 40
0.5625
 40
0.578125
 40
0.59375
 40
0.609375
 40
0.625
 40
0.640625
 40
0.6484375
 40
0.65234375
 40
0.65625
 40
0.66015625
 40
0.662109375
 40
0.6640625
 40
0.6650390625
 40
0.666015625
 40
0.6665039062
 40
0.6669921875
 40
0.66796875
 40
0.669921875
 40
0.671875
 40
0.67578125
 40
0.6796875
 40
0.6875
 40
0.6953125
 40
0.703125
 40
0.71875
 40
0.734375
 40
0.75
 40
0.765625
 40
0.78125
 40
0.796875
 40
0.8046875
 40
0.8125
 40
0.8203125
 40
0.82421875
 40
0.828125
 40
0.830078125
 40
0.83203125
 40
0.8330078125
 40
0.8334960938
 40
0.833984375
 40
0.8349609375
 40
0.8359375
 40
0.837890625
 40
0.83984375
 40
0.84375
 40
0.84765625
 40
0.8515625
 40
0.859375
 40
0.875
 40
0.890625
 40
0.90625
 40
0.921875
 40
0.9375
 40
0.96875
 40
1.0
 40
1.0
 40
1.0
 40
1.0
 10
12.5904100766
 20
7.1847182799
 30
0.0
 10
12.5896660771
 20
7.1923577705
 30
0.0
 10
12.588178078
 20
7.2076367518
 30
0.0
 10
12.5863180793
 20
7.2267354783
 30
0.0
 10
12.5848300802
 20
7.2420144596
 30
0.0
 10
12.5837140811
 20
7.2534736956
 30
0.0
 10
12.5825980808
 20
7.2649329314
 30
0.0
 10
12.5814820854
 20
7.2763921678
 30
0.0
 10
12.5805520742
 20
7.2859415296
 30
0.0
 10
12.5799010956
 20
7.2926260866
 30
0.0
 10
12.5795290622
 20
7.2964458276
 30
0.0
 10
12.5792501657
 20
7.2993106498
 30
0.0
 10
12.5790173425
 20
7.3016979491
 30
0.0
 10
12.5788320022
 20
7.3036079066
 30
0.0
 10
12.5787140737
 20
7.304801361
 30
0.0
 10
12.5786245194
 20
7.3057567407
 30
0.0
 10
12.5785576222
 20
7.3063524473
 30
0.0
 10
12.578529129
 20
7.3068322321
 30
0.0
 10
12.5784092781
 20
7.3073002633
 30
0.0
 10
12.5781570996
 20
7.3081138578
 30
0.0
 10
12.5778189874
 20
7.3092789845
 30
0.0
 10
12.5772656334
 20
7.3111415952
 30
0.0
 10
12.5765781779
 20
7.3134704037
 30
0.0
 10
12.5754758811
 20
7.3171961926
 30
0.0
 10
12.5740988225
 20
7.3218535332
 30
0.0
 10
12.5724460045
 20
7.3274422972
 30
0.0
 10
12.5702423686
 20
7.3348939981
 30
0.0
 10
12.567487782
 20
7.344208619
 30
0.0
 10
12.5641822961
 20
7.3553861663
 30
0.0
 10
12.5608768051
 20
7.366563713
 30
0.0
 10
12.5575713166
 20
7.3777412601
 30
0.0
 10
12.554265823
 20
7.388918806
 30
0.0
 10
12.5515112598
 20
7.3982334312
 30
0.0
 10
12.5493075762
 20
7.4056851233
 30
0.0
 10
12.547654904
 20
7.4112739144
 30
0.0
 10
12.5462773891
 20
7.4159311702
 30
0.0
 10
12.5451760234
 20
7.4196571321
 30
0.0
 10
12.5444861982
 20
7.4219855004
 30
0.0
 10
12.5439377084
 20
7.4238490146
 30
0.0
 10
12.5435872122
 20
7.4250118409
 30
0.0
 10
12.5433572768
 20
7.4258295671
 30
0.0
 10
12.5432017716
 20
7.4262909756
 30
0.0
 10
12.5429554266
 20
7.4267302948
 30
0.0
 10
12.5426785987
 20
7.4272870071
 30
0.0
 10
12.5422182921
 20
7.4281735201
 30
0.0
 10
12.5416488604
 20
7.4292831086
 30
0.0
 10
12.5407344434
 20
7.4310576413
 30
0.0
 10
12.5395925634
 20
7.4332760846
 30
0.0
 10
12.5382218189
 20
7.4359380979
 30
0.0
 10
12.53639433
 20
7.4394874904
 30
0.0
 10
12.533196145
 20
7.4456989079
 30
0.0
 10
12.5286273508
 20
7.4545723717
 30
0.0
 10
12.5231447799
 20
7.4652205238
 30
0.0
 10
12.5176622138
 20
7.4758686771
 30
0.0
 10
12.5121796465
 20
7.4865168301
 30
0.0
 10
12.5066970794
 20
7.4971649831
 30
0.0
 10
12.5021282738
 20
7.5060384442
 30
0.0
 10
12.4984732284
 20
7.5131372124
 30
0.0
 10
12.4957319468
 20
7.5184612903
 30
0.0
 10
12.492990656
 20
7.5237853615
 30
0.0
 10
12.4907062756
 20
7.5282221085
 30
0.0
 10
12.4888787073
 20
7.5317714591
 30
0.0
 10
12.4877366227
 20
7.5339899103
 30
0.0
 10
12.4868226216
 20
7.5357644259
 30
0.0
 10
12.4861380336
 20
7.5370959844
 30
0.0
 10
12.48556464
 20
7.5382034796
 30
0.0
 10
12.4851689626
 20
7.5389829198
 30
0.0
 10
12.4849339641
 20
7.5394217662
 30
0.0
 10
12.4847827784
 20
7.5397693467
 30
0.0
 10
12.4845357887
 20
7.5400464187
 30
0.0
 10
12.4842398866
 20
7.5404404421
 30
0.0
 10
12.483706488
 20
7.5411185242
 30
0.0
 10
12.4829526302
 20
7.5420932037
 30
0.0
 10
12.4820445166
 20
7.5432602549
 30
0.0
 10
12.4808349154
 20
7.5448172189
 30
0.0
 10
12.4793224972
 20
7.5467631171
 30
0.0
 10
12.476902861
 20
7.5498767256
 30
0.0
 10
12.4738782358
 20
7.5537686775
 30
0.0
 10
12.4702487198
 20
7.558439045
 30
0.0
 10
12.4666191947
 20
7.5631094057
 30
0.0
 10
12.4617798311
 20
7.5693365557
 30
0.0
 10
12.4557306255
 20
7.5771204924
 30
0.0
 10
12.4484715791
 20
7.5864612167
 30
0.0
 10
12.4412125329
 20
7.5958019411
 30
0.0
 10
12.4339534857
 20
7.6051426648
 30
0.0
 10
12.4266944424
 20
7.6144833914
 30
0.0
 10
12.4206452277
 20
7.6222673211
 30
0.0
 10
12.4164108007
 20
7.6277160898
 30
0.0
 10
12.4139910917
 20
7.6308296439
 30
0.0
 10
12.4121764126
 20
7.6331648883
 30
0.0
 10
12.4106638531
 20
7.6351106742
 30
0.0
 10
12.4094545388
 20
7.6366678663
 30
0.0
 10
12.4086970476
 20
7.6376398284
 30
0.0
 10
12.4080948786
 20
7.6384203364
 30
0.0
 10
12.4077097981
 20
7.6389014496
 30
0.0
 10
12.4074217173
 20
7.6393016958
 30
0.0
 10
12.4070606821
 20
7.6396458831
 30
0.0
 10
12.4063949801
 20
7.6402221691
 30
0.0
 10
12.4054616595
 20
7.641059022
 30
0.0
 10
12.4039584649
 20
7.6423903936
 30
0.0
 10
12.4020828551
 20
7.644057208
 30
0.0
 10
12.3990799883
 20
7.6467226579
 30
0.0
 10
12.3953270538
 20
7.6500549689
 30
0.0
 10
12.3908232545
 20
7.6540535286
 30
0.0
 10
12.3848182859
 20
7.6593850161
 30
0.0
 10
12.3773120418
 20
7.66604935
 30
0.0
 10
12.3683045633
 20
7.6740465616
 30
0.0
 10
12.3592970807
 20
7.68204377
 30
0.0
 10
12.3502895999
 20
7.6900409803
 30
0.0
 10
12.341282116
 20
7.6980381863
 30
0.0
 10
12.3337758881
 20
7.7047025373
 30
0.0
 10
12.3277708866
 20
7.7100339899
 30
0.0
 10
12.3232671877
 20
7.7140326563
 30
0.0
 10
12.3195139393
 20
7.7173646335
 30
0.0
 10
12.3165117127
 20
7.7200307644
 30
0.0
 10
12.3146344739
 20
7.7216958458
 30
0.0
 10
12.3131346229
 20
7.7230307745
 30
0.0
 10
12.3121927897
 20
7.7238585711
 30
0.0
 10
12.3115423774
 20
7.7244511235
 30
0.0
 10
12.3111568337
 20
7.7247692368
 30
0.0
 10
12.310719004
 20
7.7250101688
 30
0.0
 10
12.3101896196
 20
7.7253377605
 30
0.0
 10
12.3093325996
 20
7.7258471388
 30
0.0
 10
12.3082647503
 20
7.7264889184
 30
0.0
 10
12.3065542767
 20
7.7275129395
 30
0.0
 10
12.3044168417
 20
7.7287939355
 30
0.0
 10
12.3018516385
 20
7.7303307157
 30
0.0
 10
12.2984314657
 20
7.7323799008
 30
0.0
 10
12.2924461176
 20
7.7359659072
 30
0.0
 10
12.2838956442
 20
7.7410888088
 30
0.0
 10
12.2736350658
 20
7.7472362755
 30
0.0
 10
12.2633744902
 20
7.7533837463
 30
0.0
 10
12.2531139139
 20
7.7595312161
 30
0.0
 10
12.2394331457
 20
7.7677278427
 30
0.0
 10
12.2223321853
 20
7.777973626
 30
0.0
 10
12.2086514171
 20
7.7861702526
 30
0.0
 10
12.201811033
 20
7.7902685659
 30
0.0
  0
SPLINE
  5
3B1
100
AcDbEntity
  8
0
100
AcDbSpline
 62
4
  6
CONTINUOUS
 70
0
 71
3
 72
141
 73
137
 74
0
 42
0.0000001
 43
0.0000001
 44
0.0000000001
 40
0.0
 40
0.0
 40
0.0
 40
0.0
 40
0.03125
 40
0.0625
 40
0.078125
 40
0.09375
 40
0.109375
 40
0.125
 40
0.140625
 40
0.1484375
 40
0.15234375
 40
0.15625
 40
0.16015625
 40
0.162109375
 40
0.1640625
 40
0.1650390625
 40
0.166015625
 40
0.1665039062
 40
0.1669921875
 40
0.16796875
 40
0.169921875
 40
0.171875
 40
0.17578125
 40
0.1796875
 40
0.1875
 40
0.1953125
 40
0.203125
 40
0.21875
 40
0.234375
 40
0.25
 40
0.265625
 40
0.28125
 40
0.296875
 40
0.3046875
 40
0.3125
 40
0.3203125
 40
0.32421875
 40
0.328125
 40
0.330078125
 40
0.33203125
 40
0.3330078125
 40
0.3334960938
 40
0.333984375
 40
0.3349609375
 40
0.3359375
 40
0.337890625
 40
0.33984375
 40
0.34375
 40
0.34765625
 40
0.3515625
 40
0.359375
 40
0.375
 40
0.390625
 40
0.40625
 40
0.421875
 40
0.4375
 40
0.453125
 40
0.4609375
 40
0.46875
 40
0.4765625
 40
0.484375
 40
0.48828125
 40
0.4921875
 40
0.494140625
 40
0.49609375
 40
0.498046875
 40
0.4990234375
 40
0.4995117188
 40
0.5
 40
0.5004882812
 40
0.5009765625
 40
0.501953125
 40
0.50390625
 40
0.505859375
 40
0.5078125
 40
0.51171875
 40
0.515625
 40
0.5234375
 40
0.53125
 40
0.5390625
 40
0.546875
 40
0.5625
 40
0.578125
 40
0.59375
 40
0.609375
 40
0.625
 40
0.640625
 40
0.6484375
 40
0.65234375
 40
0.65625
 40
0.66015625
 40
0.662109375
 40
0.6640625
 40
0.6650390625
 40
0.666015625
 40
0.6665039062
 40
0.6669921875
 40
0.66796875
 40
0.669921875
 40
0.671875
 40
0.67578125
 40
0.6796875
 40
0.6875
 40
0.6953125
 40
0.703125
 40
0.71875
 40
0.734375
 40
0.75
 40
0.765625
 40
0.78125
 40
0.796875
 40
0.8046875
 40
0.8125
 40
0.8203125
 40
0.82421875
 40
0.828125
 40
0.830078125
 40
0.83203125
 40
0.8330078125
 40
0.8334960938
 40
0.833984375
 40
0.8349609375
 40
0.8359375
 40
0.837890625
 40
0.83984375
 40
0.84375
 40
0.84765625
 40
0.8515625
 40
0.859375
 40
0.875
 40
0.890625
 40
0.90625
 40
0.921875
 40
0.9375
 40
0.96875
 40
1.0
 40
1.0
 40
1.0
 40
1.0
 10
12.2018110608
 20
5.1117336072
 30
0.0
 10
12.2085536216
 20
5.1148251584
 30
0.0
 10
12.2220387434
 20
5.1210082609
 30
0.0
 10
12.2388951457
 20
5.1287371389
 30
0.0
 10
12.2523802674
 20
5.1349202415
 30
0.0
 10
12.2624941089
 20
5.1395575681
 30
0.0
 10
12.2726079496
 20
5.1441948959
 30
0.0
 10
12.2827217931
 20
5.1488322194
 30
0.0
 10
12.2911499876
 20
5.1526966689
 30
0.0
 10
12.2970497402
 20
5.1554017575
 30
0.0
 10
12.3004210017
 20
5.1569475631
 30
0.0
 10
12.3029495201
 20
5.1581068029
 30
0.0
 10
12.3050563888
 20
5.1590732003
 30
0.0
 10
12.3067423994
 20
5.1598455012
 30
0.0
 10
12.3077949819
 20
5.1603300496
 30
0.0
 10
12.308639737
 20
5.1607134279
 30
0.0
 10
12.3091615732
 20
5.1609627602
 30
0.0
 10
12.3095930956
 20
5.161139961
 30
0.0
 10
12.309973313
 20
5.1613984454
 30
0.0
 10
12.3106148603
 20
5.1618885526
 30
0.0
 10
12.3115437914
 20
5.1625690046
 30
0.0
 10
12.3130231319
 20
5.1636687378
 30
0.0
 10
12.3148746869
 20
5.1650396345
 30
0.0
 10
12.3178358451
 20
5.1672351762
 30
0.0
 10
12.3215377491
 20
5.1699788804
 30
0.0
 10
12.3259798386
 20
5.1732716349
 30
0.0
 10
12.3319026929
 20
5.1776618661
 30
0.0
 10
12.3393062372
 20
5.1831496922
 30
0.0
 10
12.3481905006
 20
5.1897350675
 30
0.0
 10
12.357074761
 20
5.1963204474
 30
0.0
 10
12.365959023
 20
5.2029058251
 30
0.0
 10
12.3748432816
 20
5.2094912071
 30
0.0
 10
12.3822468404
 20
5.2149790128
 30
0.0
 10
12.3881696653
 20
5.2193692856
 30
0.0
 10
12.3926118445
 20
5.2226619129
 30
0.0
 10
12.396313468
 20
5.225406015
 30
0.0
 10
12.3992751984
 20
5.2276007449
 30
0.0
 10
12.4011252974
 20
5.2289737075
 30
0.0
 10
12.4026076266
 20
5.2300692001
 30
0.0
 10
12.4035289485
 20
5.2307604485
 30
0.0
 10
12.4041841627
 20
5.2312311642
 30
0.0
 10
12.4045424729
 20
5.2315207319
 30
0.0
 10
12.4048401399
 20
5.231887855
 30
0.0
 10
12.4052329877
 20
5.232320204
 30
0.0
 10
12.4058499403
 20
5.2330268025
 30
0.0
 10
12.4066251042
 20
5.2339049693
 30
0.0
 10
12.4078631459
 20
5.2353128762
 30
0.0
 10
12.4094114598
 20
5.2370717855
 30
0.0
 10
12.4112691105
 20
5.2391828936
 30
0.0
 10
12.4137460918
 20
5.241997559
 30
0.0
 10
12.418080756
 20
5.2469232912
 30
0.0
 10
12.4242731612
 20
5.2539600161
 30
0.0
 10
12.4317040356
 20
5.2624041011
 30
0.0
 10
12.4391349131
 20
5.2708481821
 30
0.0
 10
12.4465657898
 20
5.2792922641
 30
0.0
 10
12.4539966667
 20
5.2877363459
 30
0.0
 10
12.4601890644
 20
5.2947730805
 30
0.0
 10
12.4651429816
 20
5.3004024688
 30
0.0
 10
12.4688584222
 20
5.3046245084
 30
0.0
 10
12.4725738525
 20
5.3088465543
 30
0.0
 10
12.4756700765
 20
5.312364906
 30
0.0
 10
12.4781469839
 20
5.3151796321
 30
0.0
 10
12.4796952145
 20
5.3169387341
 30
0.0
 10
12.4809334245
 20
5.3183462487
 30
0.0
 10
12.4818631076
 20
5.3194012467
 30
0.0
 10
12.4826345807
 20
5.3202824412
 30
0.0
 10
12.4831810151
 20
5.3208952945
 30
0.0
 10
12.4834832652
 20
5.3212517153
 30
0.0
 10
12.4837381177
 20
5.3215015123
 30
0.0
 10
12.4838853093
 20
5.3218182739
 30
0.0
 10
12.4841191181
 20
5.3222172648
 30
0.0
 10
12.4845107868
 20
5.3229263817
 30
0.0
 10
12.4850794609
 20
5.3239337162
 30
0.0
 10
12.4857579544
 20
5.3251449529
 30
0.0
 10
12.48666398
 20
5.3267590846
 30
0.0
 10
12.4877960437
 20
5.3287770405
 30
0.0
 10
12.4896076074
 20
5.332005607
 30
0.0
 10
12.4918719722
 20
5.3360413711
 30
0.0
 10
12.4945892485
 20
5.3408842641
 30
0.0
 10
12.4973065144
 20
5.3457271635
 30
0.0
 10
12.5009295393
 20
5.3521843604
 30
0.0
 10
12.5054583192
 20
5.3602558574
 30
0.0
 10
12.5108928554
 20
5.3699416534
 30
0.0
 10
12.5163273919
 20
5.3796274493
 30
0.0
 10
12.5217619272
 20
5.3893132459
 30
0.0
 10
12.527196467
 20
5.3989990399
 30
0.0
 10
12.5317252363
 20
5.4070705431
 30
0.0
 10
12.5348954018
 20
5.4127205793
 30
0.0
 10
12.5367068829
 20
5.4159491965
 30
0.0
 10
12.5380656121
 20
5.4183705887
 30
0.0
 10
12.5391975093
 20
5.4203886407
 30
0.0
 10
12.5401038731
 20
5.4220025772
 30
0.0
 10
12.540668424
 20
5.4230124376
 30
0.0
 10
12.5411244767
 20
5.4238176921
 30
0.0
 10
12.5413994429
 20
5.4243269856
 30
0.0
 10
12.5416424729
 20
5.4247206561
 30
0.0
 10
12.5418013284
 20
5.4251645765
 30
0.0
 10
12.542040223
 20
5.4259647802
 30
0.0
 10
12.5424019028
 20
5.4270957492
 30
0.0
 10
12.5429691889
 20
5.4289121059
 30
0.0
 10
12.5436822004
 20
5.4311802213
 30
0.0
 10
12.5448208369
 20
5.4348105084
 30
0.0
 10
12.5462448812
 20
5.4393479204
 30
0.0
 10
12.547953414
 20
5.4447930061
 30
0.0
 10
12.5502315695
 20
5.4520530536
 30
0.0
 10
12.5530792255
 20
5.4611281358
 30
0.0
 10
12.5564964293
 20
5.4720182246
 30
0.0
 10
12.5599136283
 20
5.4829083162
 30
0.0
 10
12.5633308298
 20
5.4937984067
 30
0.0
 10
12.5667480261
 20
5.5046884987
 30
0.0
 10
12.5695957051
 20
5.5137635713
 30
0.0
 10
12.5718738138
 20
5.5210236383
 30
0.0
 10
12.5735824897
 20
5.5264686643
 30
0.0
 10
12.5750060862
 20
5.5310062633
 30
0.0
 10
12.5761456363
 20
5.5346361689
 30
0.0
 10
12.5768563228
 20
5.5369052551
 30
0.0
 10
12.5774283813
 20
5.5387196191
 30
0.0
 10
12.5777779109
 20
5.5398556614
 30
0.0
 10
12.5780386286
 20
5.5406467528
 30
0.0
 10
12.5781625031
 20
5.5411052797
 30
0.0
 10
12.5781917959
 20
5.5415881975
 30
0.0
 10
12.5782607966
 20
5.5421834934
 30
0.0
 10
12.5783530996
 20
5.543140634
 30
0.0
 10
12.5784746751
 20
5.5443354616
 30
0.0
 10
12.5786657326
 20
5.546248079
 30
0.0
 10
12.5789057426
 20
5.5486385443
 30
0.0
 10
12.5791932462
 20
5.5515072338
 30
0.0
 10
12.5795767616
 20
5.5553321074
 30
0.0
 10
12.580247831
 20
5.5620256575
 30
0.0
 10
12.5812065447
 20
5.5715878608
 30
0.0
 10
12.5823569827
 20
5.5830625095
 30
0.0
 10
12.5835074256
 20
5.594537157
 30
0.0
 10
12.5846578672
 20
5.6060118048
 30
0.0
 10
12.5861917898
 20
5.621311335
 30
0.0
 10
12.5881091929
 20
5.6404357479
 30
0.0
 10
12.5896431154
 20
5.6557352782
 30
0.0
 10
12.5904100766
 20
5.6633850433
 30
0.0
  0
ENDSEC
  0
SECTION
  2
OBJECTS
  0
DICTIONARY
  5
C
100
AcDbDictionary
280
0
281
1
  3
ACAD_GROUP
350
D
  3
ACAD_MLINESTYLE
350
17
  3
ACAD_LAYOUT
350
1A
  3
ACAD_PLOTSETTINGS
350
19
  3
ACAD_PLOTSTYLENAME
350
E
  3
ACAD_IMAGE_DICT
350
       3B3
  3
ACAD_IMAGE_VARS
350
       3B4
  3
ACAD_TABLESTYLE
350
       3B5
  0
IMAGEDEF_REACTOR
  5
3B2
100
AcDbRasterImageDefReactor
 90
2
330
288
  0
DICTIONARY
  5
D
102
{ACAD_REACTORS
330
C
102
}
100
AcDbDictionary
280
0
281
1
  0
ACDBDICTIONARYWDFLT
  5
E
102
{ACAD_REACTORS
330
C
102
}
100
AcDbDictionary
281
1
  3
Normal
350
F
100
AcDbDictionaryWithDefault
340
F
  0
DICTIONARY
  5
3B3
330
C
100
AcDbDictionary
281
1
  3
K28_assy_2_img_1
350
       3B8
  0
RASTERVARIABLES
  5
3B4
330
C
100
AcDbRasterVariables
 90
0
 70
0
 71
1
 72
5
  0
DICTIONARY
  5
17
102
{ACAD_REACTORS
330
C
102
}
100
AcDbDictionary
280
0
281
1
  3
Standard
350
18
  0
DICTIONARY
  5
3B5
330
C
100
AcDbDictionary
281
1
  3
Standard
350
       3B9
  3
Standard1
350
       3BA
  0
DICTIONARY
  5
19
102
{ACAD_REACTORS
330
C
102
}
100
AcDbDictionary
281
1
  0
DICTIONARY
  5
1A
102
{ACAD_REACTORS
330
C
102
}
100
AcDbDictionary
281
1
  3
Model
350
3B6
  3
Layout1
350
3B7
  0
ACDBPLACEHOLDER
  5
F
102
{ACAD_REACTORS
330
E
102
}
  0
MLINESTYLE
  5
18
102
{ACAD_REACTORS
330
17
102
}
100
AcDbMlineStyle
  2
STANDARD
 70
0
  3

 62
256
 51
90.0
 52
90.0
 71
2
 49
0.5
 62
256
  6
BYLAYER
 49
-0.5
 62
256
  6
BYLAYER
  0
LAYOUT
  5
3B6
102
{ACAD_REACTORS
330
1A
102
}
100
AcDbPlotSettings
  1

  2
none_device
  4
ANSI_C_(22.00_x_17.00_Inches)
  6

 40
0.0
 41
0.0
 42
0.0
 43
0.0
 44
558.8
 45
431.8
 46
0.0
 47
0.0
 48
0.0
 49
0.0
140
0.0
141
0.0
142
1.0
143
1.0
 70
1024
 72
0
 73
0
 74
0
  7

 75
0
147
1.0
148
0.0
149
0.0
100
AcDbLayout
  1
Model
 70
0
 71
0
 10
0.0
 20
0.0
 11
22.0
 21
17.0
 12
0.0
 22
0.0
 32
0.0
 14
0.0
 24
0.0
 34
0.0
 15
0.0
 25
0.0
 35
0.0
146
0.0
 13
0.0
 23
0.0
 33
0.0
 16
1.0
 26
0.0
 36
0.0
 17
0.0
 27
1.0
 37
0.0
 76
0
330
20C
345
0
346
0
  0
LAYOUT
  5
3B7
102
{ACAD_REACTORS
330
1A
102
}
100
AcDbPlotSettings
  1

  2
none_device
  4
ANSI_C_(22.00_x_17.00_Inches)
  6

 40
0.0
 41
0.0
 42
0.0
 43
0.0
 44
558.8
 45
431.8
 46
0.0
 47
0.0
 48
0.0
 49
0.0
140
0.0
141
0.0
142
1.0
143
1.0
 70
0
 72
0
 73
0
 74
0
  7

 75
0
147
1.0
148
0.0
149
0.0
100
AcDbLayout
  1
Layout1
 70
0
 71
1
 10
0.0
 20
0.0
 11
22.0
 21
17.0
 12
0.0
 22
0.0
 32
0.0
 14
0.0
 24
0.0
 34
0.0
 15
0.0
 25
0.0
 35
0.0
146
0.0
 13
0.0
 23
0.0
 33
0.0
 16
1.0
 26
0.0
 36
0.0
 17
0.0
 27
1.0
 37
0.0
 76
0
330
20D
345
0
346
0
  0
IMAGEDEF
  5
3B8
102
{ACAD_REACTORS
330
3B3
330
3B2
102
}
100
AcDbRasterImageDef
 90
0
  1
K28_assy_2_img_1.png
 10
369.0
 20
92.0
 11
0.0066666667
 21
0.0066666667
280
1
281
0
  0
TABLESTYLE
  5
3B9
102
{ACAD_REACTORS
330
3B5
330
28B
330
28C
102
}
330
3B5
100
AcDbTableStyle
  3
Standard
 70
0
 71
0
 40
0.06
 41
0.06
280
1
281
1
  7
Standard
140
0.18
170
1
 62
0
 63
7
283
0
  7
Standard
140
0.18
170
1
 62
0
 63
7
283
0
  7
Standard
140
0.18
170
1
 62
0
 63
7
283
0
  0
TABLESTYLE
  5
3BA
102
{ACAD_REACTORS
330
3B5
330
28A
102
}
330
3B5
100
AcDbTableStyle
  3
Standard1
 70
1
 71
0
 40
0.06
 41
0.06
280
1
281
1
  7
Standard
140
0.18
170
1
 62
0
 63
7
283
0
  7
Standard
140
0.18
170
1
 62
0
 63
7
283
0
  7
Standard
140
0.18
170
1
 62
0
 63
7
283
0
  0
ENDSEC
  0
EOF
