999
DXF file: K26_assy_2.dxf
999
Pro/ENGINEER 2014200 by Parametric Technology Corporation
  0
SECTION
  2
HEADER
  9
$ACADVER
  1
AC1021
  9
$DWGCODEPAGE
  3
ANSI_1252
  9
$EXTMAX
 10
22.0
 20
17.0
 30
0.0
  9
$EXTMIN
 10
0.0
 20
0.0
 30
0.0
  9
$LIMMIN
 10
0.0
 20
0.0
  9
$LIMMAX
 10
22.0
 20
17.0
  9
$VIEWCTR
 10
11.0
 20
8.5
  9
$VIEWSIZE
 40
17.0
  9
$CLAYER
  8
0
  9
$LTSCALE
 40
1.21
  9
$CELTYPE
  6
BYLAYER
  9
$DIMSCALE
 40
1.0
  9
$DIMASZ
 40
0.1875
  9
$DIMEXO
 40
0.0625
  9
$DIMDLI
 40
0.836
  9
$DIMEXE
 40
0.125
  9
$DIMCEN
 40
0.198
  9
$DIMLFAC
 40
1.0
  9
$DIMBLK
  1
_FILLED
  9
$DIMTXT
 40
0.1
  9
$DIMTOL
 70
0
  9
$DIMLIM
 70
0
  9
$DIMTFAC
 40
1.0
  9
$DIMGAP
 40
0.09
  9
$DIMDSEP
 70
46
  9
$AUNITS
 70
0
  9
$PDMODE
 70
3
  9
$PDSIZE
 40
0.3125
  9
$HANDSEED
  5
39C
  9
$TILEMODE
 70
1
  9
$MEASUREMENT
 70
0
  9
$INSUNITS
 70
1
  0
ENDSEC
  0
SECTION
  2
CLASSES
  0
CLASS
  1
ACDBDICTIONARYWDFLT
  2
AcDbDictionaryWithDefault
  3
AutoCAD 2000
 90
0
 91
1
280
0
281
0
  0
CLASS
  1
ACDBPLACEHOLDER
  2
AcDbPlaceHolder
  3
AutoCAD 2000
 90
0
 91
1
280
0
281
0
  0
CLASS
  1
LAYOUT
  2
AcDbLayout
  3
AutoCAD 2000
 90
0
 91
0
280
0
281
0
  0
CLASS
  1
RASTERVARIABLES
  2
AcDbRasterVariables
  3
ISM
 90
0
 91
1
280
0
281
0
  0
CLASS
  1
IMAGEDEF
  2
AcDbRasterImageDef
  3
ISM
 90
0
 91
1
280
0
281
0
  0
CLASS
  1
IMAGEDEF_REACTOR
  2
AcDbRasterImageDefReactor
  3
ISM
 90
0
 91
1
280
0
281
0
  0
CLASS
  1
IMAGE
  2
AcDbRasterImage
  3
ISM
 90
127
 91
1
280
0
281
1
  0
CLASS
  1
TABLESTYLE
  2
AcDbTableStyle
  3
ObjectDBX Classes
 90
2047
 91
1
280
0
281
0
  0
CLASS
  1
ACAD_TABLE
  2
AcDbTable
  3
ObjectDBX Classes
 90
1025
 91
3
280
0
281
1
  0
ENDSEC
  0
SECTION
  2
TABLES
  0
TABLE
  2
VPORT
  5
8
100
AcDbSymbolTable
 70
2
  0
VPORT
  5
1F4
100
AcDbSymbolTableRecord
100
AcDbViewportTableRecord
  2
*ACTIVE
 70
0
 10
0.0
 20
0.0
 11
1.0
 21
1.0
 12
11.0
 22
8.5
 13
0.0
 23
0.0
 14
1.0
 24
1.0
 15
0.0
 25
0.0
 16
0.0
 26
0.0
 36
1.0
 17
0.0
 27
0.0
 37
0.0
 40
17.0
 41
1.2941176471
 42
50.0
 43
0.0
 44
0.0
 50
0.0
 51
0.0
 71
0
 72
100
 73
1
 74
1
 75
0
 76
0
 77
0
 78
0
  0
ENDTAB
  0
TABLE
  2
LTYPE
  5
5
100
AcDbSymbolTable
 70
6
  0
LTYPE
  5
14
100
AcDbSymbolTableRecord
100
AcDbLinetypeTableRecord
  2
BYBLOCK
 70
0
  3

 72
65
 73
0
 40
0.0
  0
LTYPE
  5
15
100
AcDbSymbolTableRecord
100
AcDbLinetypeTableRecord
  2
BYLAYER
 70
0
  3

 72
65
 73
0
 40
0.0
  0
LTYPE
  5
16
100
AcDbSymbolTableRecord
100
AcDbLinetypeTableRecord
  2
CONTINUOUS
 70
64
  3
Solid line
 72
65
 73
0
 40
0.0
  0
LTYPE
  5
1F5
100
AcDbSymbolTableRecord
100
AcDbLinetypeTableRecord
  2
CENTER
 70
64
  3
____ _ ____ _ ____ _ ____ _ ____ _ ____ _ ____
 72
65
 73
4
 40
0.6
 49
0.375
 74
0
 49
-0.075
 74
0
 49
0.075
 74
0
 49
-0.075
 74
0
  0
LTYPE
  5
1F6
100
AcDbSymbolTableRecord
100
AcDbLinetypeTableRecord
  2
HIDDEN
 70
64
  3
- - - - - - - - - - - - - - - - - - - -
 72
65
 73
2
 40
0.2
 49
0.1
 74
0
 49
-0.1
 74
0
  0
LTYPE
  5
1F7
100
AcDbSymbolTableRecord
100
AcDbLinetypeTableRecord
  2
PHANTOM
 70
64
  3
_____ _ _ _____ _ _ _____ _ _ _____
 72
65
 73
6
 40
0.8
 49
0.45
 74
0
 49
-0.05
 74
0
 49
0.1
 74
0
 49
-0.05
 74
0
 49
0.1
 74
0
 49
-0.05
 74
0
  0
LTYPE
  5
1F8
100
AcDbSymbolTableRecord
100
AcDbLinetypeTableRecord
  2
DOT
 70
64
  3
. . . . . . . . . . . . . . . . . . . .
 72
65
 73
2
 40
0.2
 49
0.1
 74
0
 49
-0.1
 74
0
  0
LTYPE
  5
1F9
100
AcDbSymbolTableRecord
100
AcDbLinetypeTableRecord
  2
DASHED
 70
64
  3
- - - - - - - - - - - - - - - - - - - -
 72
65
 73
2
 40
0.2
 49
0.1
 74
0
 49
-0.1
 74
0
  0
ENDTAB
  0
TABLE
  2
LAYER
  5
2
100
AcDbSymbolTable
 70
36
  0
LAYER
  5
10
100
AcDbSymbolTableRecord
100
AcDbLayerTableRecord
  2
0
 70
0
 62
7
  6
CONTINUOUS
370
-3
390
F
  0
LAYER
  5
1FA
100
AcDbSymbolTableRecord
100
AcDbLayerTableRecord
  2
DEFAULT_1
 70
0
 62
7
  6
CENTER
370
-3
390
F
  0
LAYER
  5
1FB
100
AcDbSymbolTableRecord
100
AcDbLayerTableRecord
  2
DEFAULT_2
 70
0
 62
8
  6
HIDDEN
370
-3
390
F
  0
LAYER
  5
1FC
100
AcDbSymbolTableRecord
100
AcDbLayerTableRecord
  2
DEFAULT_3
 70
0
 62
7
  6
PHANTOM
370
-3
390
F
  0
LAYER
  5
1FD
100
AcDbSymbolTableRecord
100
AcDbLayerTableRecord
  2
01___PRT_ALL_DTM_PLN
 70
0
 62
7
  6
CONTINUOUS
370
-3
390
F
  0
LAYER
  5
1FE
100
AcDbSymbolTableRecord
100
AcDbLayerTableRecord
  2
01___PRT_DEF_DTM_PLN
 70
0
 62
7
  6
CONTINUOUS
370
-3
390
F
  0
LAYER
  5
1FF
100
AcDbSymbolTableRecord
100
AcDbLayerTableRecord
  2
02___PRT_ALL_AXES
 70
0
 62
7
  6
CONTINUOUS
370
-3
390
F
  0
LAYER
  5
200
100
AcDbSymbolTableRecord
100
AcDbLayerTableRecord
  2
03___PRT_ALL_CURVES
 70
0
 62
7
  6
CONTINUOUS
370
-3
390
F
  0
LAYER
  5
201
100
AcDbSymbolTableRecord
100
AcDbLayerTableRecord
  2
04___PRT_ALL_DTM_PNT
 70
0
 62
7
  6
CONTINUOUS
370
-3
390
F
  0
LAYER
  5
202
100
AcDbSymbolTableRecord
100
AcDbLayerTableRecord
  2
05___PRT_ALL_DTM_CSYS
 70
0
 62
7
  6
CONTINUOUS
370
-3
390
F
  0
LAYER
  5
203
100
AcDbSymbolTableRecord
100
AcDbLayerTableRecord
  2
05___PRT_DEF_DTM_CSYS
 70
0
 62
7
  6
CONTINUOUS
370
-3
390
F
  0
LAYER
  5
204
100
AcDbSymbolTableRecord
100
AcDbLayerTableRecord
  2
06___PRT_ALL_SURFS
 70
0
 62
7
  6
CONTINUOUS
370
-3
390
F
  0
LAYER
  5
205
100
AcDbSymbolTableRecord
100
AcDbLayerTableRecord
  2
DATUM_PLANES
 70
0
 62
7
  6
CONTINUOUS
370
-3
390
F
  0
LAYER
  5
206
100
AcDbSymbolTableRecord
100
AcDbLayerTableRecord
  2
PORT_AREAS
 70
0
 62
7
  6
CONTINUOUS
370
-3
390
F
  0
LAYER
  5
207
100
AcDbSymbolTableRecord
100
AcDbLayerTableRecord
  2
SUNNBOMCOSMETIC
 70
0
 62
7
  6
CONTINUOUS
370
-3
390
F
  0
LAYER
  5
208
100
AcDbSymbolTableRecord
100
AcDbLayerTableRecord
  2
SUNNBOMSTAMPING
 70
0
 62
7
  6
CONTINUOUS
370
-3
390
F
  0
LAYER
  5
209
100
AcDbSymbolTableRecord
100
AcDbLayerTableRecord
  2
THREADS
 70
0
 62
7
  6
CONTINUOUS
370
-3
390
F
  0
ENDTAB
  0
TABLE
  2
STYLE
  5
3
100
AcDbSymbolTable
 70
1
  0
STYLE
  5
11
100
AcDbSymbolTableRecord
100
AcDbTextStyleTableRecord
  2
STANDARD
 70
0
 40
0.0
 41
0.8
 50
0.0
 71
0
 42
0.2
  3
txt
  4

  0
STYLE
  5
20A
100
AcDbSymbolTableRecord
100
AcDbTextStyleTableRecord
  2
TEXTSTYLE_1
 70
0
 40
0.0
 41
0.8
 50
0.0
 71
0
 42
0.2
  3
gdt
  4

  0
ENDTAB
  0
TABLE
  2
VIEW
  5
6
100
AcDbSymbolTable
 70
0
  0
ENDTAB
  0
TABLE
  2
UCS
  5
7
100
AcDbSymbolTable
 70
0
  0
ENDTAB
  0
TABLE
  2
APPID
  5
9
100
AcDbSymbolTable
 70
1
  0
APPID
  5
20B
100
AcDbSymbolTableRecord
100
AcDbRegAppTableRecord
  2
ACAD
 70
0
  0
ENDTAB
  0
TABLE
  2
BLOCK_RECORD
  5
1
100
AcDbSymbolTable
 70
0
  0
BLOCK_RECORD
  5
20C
100
AcDbSymbolTableRecord
100
AcDbBlockTableRecord
  2
*Model_Space
  0
BLOCK_RECORD
  5
20D
100
AcDbSymbolTableRecord
100
AcDbBlockTableRecord
  2
*Paper_Space
  0
BLOCK_RECORD
  5
20E
100
AcDbSymbolTableRecord
100
AcDbBlockTableRecord
  2
SUN_FIRST_THIRD_ANGLE_BL0
  0
BLOCK_RECORD
  5
20F
100
AcDbSymbolTableRecord
100
AcDbBlockTableRecord
  2
*T1
  0
BLOCK_RECORD
  5
210
100
AcDbSymbolTableRecord
100
AcDbBlockTableRecord
  2
*T2
  0
BLOCK_RECORD
  5
211
100
AcDbSymbolTableRecord
100
AcDbBlockTableRecord
  2
*T3
  0
ENDTAB
  0
TABLE
  2
DIMSTYLE
  5
A
100
AcDbSymbolTable
 70
1
100
AcDbDimStyleTable
 71
0
  0
DIMSTYLE
105
212
100
AcDbSymbolTableRecord
100
AcDbDimStyleTableRecord
  2
STANDARD
 70
0
  3

  4

 40
1.0
 41
0.1875
 42
0.0625
 43
0.38
 44
0.125
 45
0.0
 46
0.0
 47
0.001
 48
0.001
140
0.1
141
0.09
142
0.0
143
25.4
144
1.0
145
0.0
146
1.0
147
0.09
 71
0.0
 72
0.0
 73
1
 74
1
 75
0
 76
0
 77
0
 78
4
170
0
171
2
172
0
173
0
174
0
175
0
176
0
177
0
178
0
270
2
271
3
272
3
273
2
274
2
275
0
280
0
281
0
282
0
283
1
284
4
285
0
286
0
287
3
288
0
340
11
278
46
  0
ENDTAB
  0
ENDSEC
  0
SECTION
  2
BLOCKS
  0
BLOCK
  5
20
100
AcDbEntity
  8
0
100
AcDbBlockBegin
  2
*Model_Space
 70
0
 10
0.0
 20
0.0
 30
0.0
  3
*Model_Space
  1

  0
ENDBLK
  5
21
100
AcDbEntity
  8
0
100
AcDbBlockEnd
  0
BLOCK
  5
1C
100
AcDbEntity
  8
0
100
AcDbBlockBegin
  2
*Paper_Space
 70
0
 10
0.0
 20
0.0
 30
0.0
  3
*Paper_Space
  1

  0
ENDBLK
  5
1D
100
AcDbEntity
  8
0
100
AcDbBlockEnd
  0
BLOCK
  5
213
100
AcDbEntity
  8
0
100
AcDbBlockBegin
 62
2
  6
CONTINUOUS
  2
SUN_FIRST_THIRD_ANGLE_BL0
 70
64
 10
20.4816717061
 20
1.2289683772
  3
SUN_FIRST_THIRD_ANGLE_BL0
  1

  0
TEXT
  5
214
100
AcDbEntity
  8
0
100
AcDbText
 62
2
  6
CONTINUOUS
 10
19.4750896608
 20
1.4136269581
  7
STANDARD
 40
0.08
  1
FIRST ANGLE
 41
0.8
 72
0
100
AcDbText
  0
TEXT
  5
215
100
AcDbEntity
  8
0
100
AcDbText
 62
2
  6
CONTINUOUS
 10
20.7842537513
 20
1.4047600029
  7
STANDARD
 40
0.08
  1
THIRD ANGLE
 41
0.8
 72
0
100
AcDbText
  0
LINE
  5
216
100
AcDbEntity
  8
0
100
AcDbLine
 62
7
  6
CONTINUOUS
 10
19.4767170086
 20
1.1727031207
 11
19.6334271527
 21
1.1717972817
  0
LINE
  5
217
100
AcDbEntity
  8
0
100
AcDbLine
 62
7
  6
CONTINUOUS
 10
19.6596964832
 20
1.1717972817
 11
19.6950230232
 21
1.171593082
  0
LINE
  5
218
100
AcDbEntity
  8
0
100
AcDbLine
 62
7
  6
CONTINUOUS
 10
19.7194818561
 20
1.1708914427
 11
19.8852396156
 21
1.1699333054
  0
LINE
  5
219
100
AcDbEntity
  8
0
100
AcDbLine
 62
7
  6
CONTINUOUS
 10
19.4758111696
 20
1.2723454088
 11
19.88525039
 21
1.3511534004
  0
LINE
  5
21A
100
AcDbEntity
  8
0
100
AcDbLine
 62
7
  6
CONTINUOUS
 10
19.88525039
 20
1.3511534004
 11
19.8831348489
 21
0.9851647912
  0
LINE
  5
21B
100
AcDbEntity
  8
0
100
AcDbLine
 62
7
  6
CONTINUOUS
 10
19.8831348489
 20
0.9851647912
 11
19.4767170086
 21
1.0658141206
  0
LINE
  5
21C
100
AcDbEntity
  8
0
100
AcDbLine
 62
7
  6
CONTINUOUS
 10
19.4767170086
 20
1.0658141206
 11
19.4779056764
 21
1.2714536432
  0
CIRCLE
  5
21D
100
AcDbEntity
  8
0
100
AcDbCircle
 62
7
  6
CONTINUOUS
 10
20.2068232291
 20
1.1717972817
 40
0.175742101
  0
CIRCLE
  5
21E
100
AcDbEntity
  8
0
100
AcDbCircle
 62
7
  6
CONTINUOUS
 10
20.2068232291
 20
1.1717972817
 40
0.1005522074
  0
LINE
  5
21F
100
AcDbEntity
  8
0
100
AcDbLine
 62
7
  6
CONTINUOUS
 10
20.2077290681
 20
1.3756110529
 11
20.2071171714
 21
1.2379342989
  0
LINE
  5
220
100
AcDbEntity
  8
0
100
AcDbLine
 62
7
  6
CONTINUOUS
 10
20.2077290681
 20
1.2016899681
 11
20.2074674401
 21
1.1428236749
  0
LINE
  5
221
100
AcDbEntity
  8
0
100
AcDbLine
 62
7
  6
CONTINUOUS
 10
20.208634907
 20
1.101141841
 11
20.2080230104
 21
0.963465087
  0
LINE
  5
222
100
AcDbEntity
  8
0
100
AcDbLine
 62
7
  6
CONTINUOUS
 10
20.0066328138
 20
1.1745147986
 11
20.1443095678
 21
1.1739029019
  0
LINE
  5
223
100
AcDbEntity
  8
0
100
AcDbLine
 62
7
  6
CONTINUOUS
 10
20.1832714155
 20
1.1727031207
 11
20.238153505
 21
1.172335442
  0
LINE
  5
224
100
AcDbEntity
  8
0
100
AcDbLine
 62
7
  6
CONTINUOUS
 10
20.2756669918
 20
1.1717972817
 11
20.407916871
 21
1.1712095044
  0
CIRCLE
  5
225
100
AcDbEntity
  8
0
100
AcDbCircle
 62
7
  6
CONTINUOUS
 10
20.7509457401
 20
1.1693297793
 40
0.1722024983
  0
CIRCLE
  5
226
100
AcDbEntity
  8
0
100
AcDbCircle
 62
7
  6
CONTINUOUS
 10
20.7509457401
 20
1.1693297793
 40
0.0985164967
  0
LINE
  5
227
100
AcDbEntity
  8
0
100
AcDbLine
 62
7
  6
CONTINUOUS
 10
20.7169767782
 20
1.170462078
 11
20.7825395137
 21
1.1682766535
  0
LINE
  5
228
100
AcDbEntity
  8
0
100
AcDbLine
 62
7
  6
CONTINUOUS
 10
20.8177513651
 20
1.1693297793
 11
20.947965719
 21
1.1693297793
  0
LINE
  5
229
100
AcDbEntity
  8
0
100
AcDbLine
 62
7
  6
CONTINUOUS
 10
20.6875370113
 20
1.170462078
 11
20.5573226574
 21
1.170462078
  0
LINE
  5
22A
100
AcDbEntity
  8
0
100
AcDbLine
 62
7
  6
CONTINUOUS
 10
20.7486811426
 20
1.1987695462
 11
20.7486811426
 21
1.1432869085
  0
LINE
  5
22B
100
AcDbEntity
  8
0
100
AcDbLine
 62
7
  6
CONTINUOUS
 10
20.7498134414
 20
1.1059210505
 11
20.7498134414
 21
0.9757066966
  0
LINE
  5
22C
100
AcDbEntity
  8
0
100
AcDbLine
 62
7
  6
CONTINUOUS
 10
20.7486811426
 20
1.2338708068
 11
20.7486811426
 21
1.3640851607
  0
LINE
  5
22D
100
AcDbEntity
  8
0
100
AcDbLine
 62
7
  6
CONTINUOUS
 10
21.0702539817
 20
1.2701043662
 11
21.4790138229
 21
1.3448360823
  0
LINE
  5
22E
100
AcDbEntity
  8
0
100
AcDbLine
 62
7
  6
CONTINUOUS
 10
21.4790138229
 20
1.3448360823
 11
21.4790138229
 21
0.9779712941
  0
LINE
  5
22F
100
AcDbEntity
  8
0
100
AcDbLine
 62
7
  6
CONTINUOUS
 10
21.4790138229
 20
0.9779712941
 11
21.069121683
 21
1.0617614
  0
LINE
  5
230
100
AcDbEntity
  8
0
100
AcDbLine
 62
7
  6
CONTINUOUS
 10
21.0702539817
 20
1.2701043662
 11
21.069121683
 21
1.0617614
  0
LINE
  5
231
100
AcDbEntity
  8
0
100
AcDbLine
 62
7
  6
CONTINUOUS
 10
21.4790138229
 20
1.1693297793
 11
21.3159628059
 21
1.1693297793
  0
LINE
  5
232
100
AcDbEntity
  8
0
100
AcDbLine
 62
7
  6
CONTINUOUS
 10
21.2876553377
 20
1.1693297793
 11
21.2502894796
 21
1.1693297793
  0
LINE
  5
233
100
AcDbEntity
  8
0
100
AcDbLine
 62
7
  6
CONTINUOUS
 10
21.2208497126
 20
1.1659328831
 11
21.0713862804
 21
1.1659328831
  0
LINE
  5
234
100
AcDbEntity
  8
0
100
AcDbLine
 62
7
  6
CONTINUOUS
 10
20.4796138713
 20
1.5284908897
 11
20.4766766948
 21
0.9294458646
  0
ENDBLK
  5
235
100
AcDbEntity
  8
0
  6
BYBLOCK
 62
0
100
AcDbBlockEnd
  0
BLOCK
  5
236
100
AcDbEntity
  8
0
100
AcDbBlockBegin
  2
*T1
 70
1
 10
0.0
 20
0.0
  3
*T1
  1

  0
LINE
  5
237
100
AcDbEntity
  8
0
100
AcDbLine
 62
2
  6
CONTINUOUS
 10
9.275
 20
0.0
 11
-0.0
 21
0.0
  0
LINE
  5
238
100
AcDbEntity
  8
0
100
AcDbLine
 62
2
  6
CONTINUOUS
 10
9.275
 20
0.0
 11
9.275
 21
1.25
  0
LINE
  5
239
100
AcDbEntity
  8
0
100
AcDbLine
 62
2
  6
CONTINUOUS
 10
9.275
 20
0.625
 11
-0.0
 21
0.625
  0
LINE
  5
23A
100
AcDbEntity
  8
0
100
AcDbLine
 62
2
  6
CONTINUOUS
 10
9.275
 20
1.25
 11
-0.0
 21
1.25
  0
LINE
  5
23B
100
AcDbEntity
  8
0
100
AcDbLine
 62
2
  6
CONTINUOUS
 10
6.8
 20
0.0
 11
6.8
 21
1.25
  0
LINE
  5
23C
100
AcDbEntity
  8
0
100
AcDbLine
 62
2
  6
CONTINUOUS
 10
6.4
 20
0.0
 11
6.4
 21
0.625
  0
LINE
  5
23D
100
AcDbEntity
  8
0
100
AcDbLine
 62
2
  6
CONTINUOUS
 10
5.9
 20
0.0
 11
5.9
 21
0.625
  0
LINE
  5
23E
100
AcDbEntity
  8
0
100
AcDbLine
 62
2
  6
CONTINUOUS
 10
5.2
 20
0.0
 11
5.2
 21
0.625
  0
LINE
  5
23F
100
AcDbEntity
  8
0
100
AcDbLine
 62
2
  6
CONTINUOUS
 10
4.1
 20
0.0
 11
4.1
 21
1.25
  0
LINE
  5
240
100
AcDbEntity
  8
0
100
AcDbLine
 62
2
  6
CONTINUOUS
 10
-0.0
 20
0.0
 11
-0.0
 21
1.25
  0
MTEXT
  5
241
100
AcDbEntity
  8
0
100
AcDbMText
 62
2
  6
CONTINUOUS
  7
STANDARD
 71
2
 72
1
 10
6.6
 20
0.325
 30
0.0
 11
1.0
 21
0.0
 31
0.0
 44
0.9
  1
2
 40
0.125
 41
0.2
  0
MTEXT
  5
242
100
AcDbEntity
  8
0
100
AcDbMText
 62
2
  6
CONTINUOUS
  7
STANDARD
 71
2
 72
1
 10
6.15
 20
0.325
 30
0.0
 11
1.0
 21
0.0
 31
0.0
 44
0.9
  1
C
 40
0.125
 41
0.2
  0
MTEXT
  5
243
100
AcDbEntity
  8
0
100
AcDbMText
 62
2
  6
CONTINUOUS
  7
STANDARD
 71
2
 72
1
 10
5.55
 20
0.325
 30
0.0
 11
1.0
 21
0.0
 31
0.0
 44
0.9
  1
0.900
 40
0.125
 41
1.0
  0
MTEXT
  5
244
100
AcDbEntity
  8
0
100
AcDbMText
 62
2
  6
CONTINUOUS
  7
STANDARD
 71
2
 72
1
 10
4.65
 20
0.325
 30
0.0
 11
1.0
 21
0.0
 31
0.0
 44
0.9
  1
Aug-07-19
 40
0.125
 41
1.8
  0
MTEXT
  5
245
100
AcDbEntity
  8
0
100
AcDbMText
 62
2
  6
CONTINUOUS
  7
STANDARD
 71
2
 72
1
 10
2.05
 20
0.4625
 30
0.0
 11
1.0
 21
0.0
 31
0.0
 44
0.9
  1
T-19A Line mount\P(See Technical Data for Body Features)
 40
0.125
 41
7.6
  0
MTEXT
  5
246
100
AcDbEntity
  8
0
100
AcDbMText
 62
2
  6
CONTINUOUS
  7
STANDARD
 71
1
 72
1
 10
6.45
 20
0.5625
 30
0.0
 11
1.0
 21
0.0
 31
0.0
 44
0.9
  1
SHEET
 40
0.06
 41
0.48
  0
MTEXT
  5
247
100
AcDbEntity
  8
0
100
AcDbMText
 62
2
  6
CONTINUOUS
  7
STANDARD
 71
1
 72
1
 10
5.95
 20
0.5625
 30
0.0
 11
1.0
 21
0.0
 31
0.0
 44
0.9
  1
DWG SIZE
 40
0.06
 41
0.768
  0
MTEXT
  5
248
100
AcDbEntity
  8
0
100
AcDbMText
 62
2
  6
CONTINUOUS
  7
STANDARD
 71
1
 72
1
 10
5.25
 20
0.5625
 30
0.0
 11
1.0
 21
0.0
 31
0.0
 44
0.9
  1
SCALE
 40
0.06
 41
0.48
  0
MTEXT
  5
249
100
AcDbEntity
  8
0
100
AcDbMText
 62
2
  6
CONTINUOUS
  7
STANDARD
 71
1
 72
1
 10
4.15
 20
0.5625
 30
0.0
 11
1.0
 21
0.0
 31
0.0
 44
0.9
  1
DATE
 40
0.06
 41
0.384
  0
MTEXT
  5
24A
100
AcDbEntity
  8
0
100
AcDbMText
 62
2
  6
CONTINUOUS
  7
STANDARD
 71
1
 72
1
 10
0.05
 20
0.5625
 30
0.0
 11
1.0
 21
0.0
 31
0.0
 44
0.9
  1
DESCRIPTION
 40
0.06
 41
1.056
  0
MTEXT
  5
24B
100
AcDbEntity
  8
0
100
AcDbMText
 62
2
  6
CONTINUOUS
  7
STANDARD
 71
2
 72
1
 10
5.45
 20
1.0375
 30
0.0
 11
1.0
 21
0.0
 31
0.0
 44
0.9
  1
ALL DIMENSIONS IN INCH\PVIEWS ARE THIRD ANGLE
 40
0.12
 41
4.224
  0
MTEXT
  5
24C
100
AcDbEntity
  8
0
100
AcDbMText
 62
2
  6
CONTINUOUS
  7
STANDARD
 71
2
 72
1
 10
2.05
 20
0.95
 30
0.0
 11
1.0
 21
0.0
 31
0.0
 44
0.9
  1
K26
 40
0.125
 41
0.6
  0
MTEXT
  5
24D
100
AcDbEntity
  8
0
100
AcDbMText
 62
2
  6
CONTINUOUS
  7
STANDARD
 71
1
 72
1
 10
0.05
 20
1.1875
 30
0.0
 11
1.0
 21
0.0
 31
0.0
 44
0.9
  1
MODEL
 40
0.06
 41
0.48
  0
ENDBLK
  5
24E
100
AcDbEntity
  8
0
  6
BYBLOCK
 62
0
100
AcDbBlockEnd
  0
BLOCK
  5
24F
100
AcDbEntity
  8
0
100
AcDbBlockBegin
  2
*T2
 70
1
 10
0.0
 20
0.0
  3
*T2
  1

  0
LINE
  5
250
100
AcDbEntity
  8
0
100
AcDbLine
 62
2
  6
CONTINUOUS
 10
0.0
 20
0.0
 11
9.055
 21
0.0
  0
LINE
  5
251
100
AcDbEntity
  8
0
100
AcDbLine
 62
2
  6
CONTINUOUS
 10
0.0
 20
0.0
 11
0.0
 21
-1.844
  0
LINE
  5
252
100
AcDbEntity
  8
0
100
AcDbLine
 62
2
  6
CONTINUOUS
 10
0.0
 20
-0.344
 11
9.055
 21
-0.344
  0
LINE
  5
253
100
AcDbEntity
  8
0
100
AcDbLine
 62
2
  6
CONTINUOUS
 10
0.0
 20
-0.594
 11
9.055
 21
-0.594
  0
LINE
  5
254
100
AcDbEntity
  8
0
100
AcDbLine
 62
2
  6
CONTINUOUS
 10
0.0
 20
-0.844
 11
9.055
 21
-0.844
  0
LINE
  5
255
100
AcDbEntity
  8
0
100
AcDbLine
 62
2
  6
CONTINUOUS
 10
0.0
 20
-1.094
 11
9.055
 21
-1.094
  0
LINE
  5
256
100
AcDbEntity
  8
0
100
AcDbLine
 62
2
  6
CONTINUOUS
 10
0.0
 20
-1.344
 11
9.055
 21
-1.344
  0
LINE
  5
257
100
AcDbEntity
  8
0
100
AcDbLine
 62
2
  6
CONTINUOUS
 10
0.0
 20
-1.594
 11
9.055
 21
-1.594
  0
LINE
  5
258
100
AcDbEntity
  8
0
100
AcDbLine
 62
2
  6
CONTINUOUS
 10
0.0
 20
-1.844
 11
9.055
 21
-1.844
  0
LINE
  5
259
100
AcDbEntity
  8
0
100
AcDbLine
 62
2
  6
CONTINUOUS
 10
3.055
 20
0.0
 11
3.055
 21
-1.844
  0
LINE
  5
25A
100
AcDbEntity
  8
0
100
AcDbLine
 62
2
  6
CONTINUOUS
 10
9.055
 20
0.0
 11
9.055
 21
-1.844
  0
MTEXT
  5
25B
100
AcDbEntity
  8
0
100
AcDbMText
 62
2
  6
CONTINUOUS
  7
STANDARD
 71
2
 72
1
 10
1.5275
 20
-0.0995
 30
0.0
 11
1.0
 21
0.0
 31
0.0
 44
0.9
  1
Technical Data
 40
0.145
 41
3.248
  0
MTEXT
  5
25C
100
AcDbEntity
  8
0
100
AcDbMText
 62
2
  6
CONTINUOUS
  7
STANDARD
 71
2
 72
1
 10
4.555
 20
-0.0995
 30
0.0
 11
1.0
 21
0.0
 31
0.0
 44
0.9
  1
U.S. Units
 40
0.145
 41
2.32
  0
MTEXT
  5
25D
100
AcDbEntity
  8
0
100
AcDbMText
 62
2
  6
CONTINUOUS
  7
STANDARD
 71
2
 72
1
 10
7.555
 20
-0.0995
 30
0.0
 11
1.0
 21
0.0
 31
0.0
 44
0.9
  1
Metric Units
 40
0.145
 41
2.784
  0
MTEXT
  5
25E
100
AcDbEntity
  8
0
100
AcDbMText
 62
2
  6
CONTINUOUS
  7
STANDARD
 71
2
 72
1
 10
1.5275
 20
-0.4065
 30
0.0
 11
1.0
 21
0.0
 31
0.0
 44
0.9
  1
Cavity
 40
0.125
 41
1.2
  0
MTEXT
  5
25F
100
AcDbEntity
  8
0
100
AcDbMText
 62
2
  6
CONTINUOUS
  7
STANDARD
 71
2
 72
1
 10
6.055
 20
-0.4065
 30
0.0
 11
1.0
 21
0.0
 31
0.0
 44
0.9
  1
T-19A
 40
0.125
 41
1.0
  0
MTEXT
  5
260
100
AcDbEntity
  8
0
100
AcDbMText
 62
2
  6
CONTINUOUS
  7
STANDARD
 71
2
 72
1
 10
1.5275
 20
-0.6565
 30
0.0
 11
1.0
 21
0.0
 31
0.0
 44
0.9
  1
Body Features
 40
0.125
 41
2.6
  0
MTEXT
  5
261
100
AcDbEntity
  8
0
100
AcDbMText
 62
2
  6
CONTINUOUS
  7
STANDARD
 71
2
 72
1
 10
6.055
 20
-0.6565
 30
0.0
 11
1.0
 21
0.0
 31
0.0
 44
0.9
  1
Ninety degree with reverse flow check - reducing
 40
0.125
 41
9.6
  0
MTEXT
  5
262
100
AcDbEntity
  8
0
100
AcDbMText
 62
2
  6
CONTINUOUS
  7
STANDARD
 71
2
 72
1
 10
1.5275
 20
-0.9065
 30
0.0
 11
1.0
 21
0.0
 31
0.0
 44
0.9
  1
Body Type
 40
0.125
 41
1.8
  0
MTEXT
  5
263
100
AcDbEntity
  8
0
100
AcDbMText
 62
2
  6
CONTINUOUS
  7
STANDARD
 71
2
 72
1
 10
6.055
 20
-0.9065
 30
0.0
 11
1.0
 21
0.0
 31
0.0
 44
0.9
  1
Line mount
 40
0.125
 41
2.0
  0
MTEXT
  5
264
100
AcDbEntity
  8
0
100
AcDbMText
 62
2
  6
CONTINUOUS
  7
STANDARD
 71
2
 72
1
 10
1.5275
 20
-1.1565
 30
0.0
 11
1.0
 21
0.0
 31
0.0
 44
0.9
  1
Interface
 40
0.125
 41
1.8
  0
MTEXT
  5
265
100
AcDbEntity
  8
0
100
AcDbMText
 62
2
  6
CONTINUOUS
  7
STANDARD
 71
2
 72
1
 10
6.055
 20
-1.1565
 30
0.0
 11
1.0
 21
0.0
 31
0.0
 44
0.9
  1
None
 40
0.125
 41
0.8
  0
MTEXT
  5
266
100
AcDbEntity
  8
0
100
AcDbMText
 62
2
  6
CONTINUOUS
  7
STANDARD
 71
2
 72
1
 10
1.5275
 20
-1.4065
 30
0.0
 11
1.0
 21
0.0
 31
0.0
 44
0.9
  1
Open Cavity Quantity
 40
0.125
 41
4.0
  0
MTEXT
  5
267
100
AcDbEntity
  8
0
100
AcDbMText
 62
2
  6
CONTINUOUS
  7
STANDARD
 71
2
 72
1
 10
6.055
 20
-1.4065
 30
0.0
 11
1.0
 21
0.0
 31
0.0
 44
0.9
  1
1
 40
0.125
 41
0.2
  0
MTEXT
  5
268
100
AcDbEntity
  8
0
100
AcDbMText
 62
2
  6
CONTINUOUS
  7
STANDARD
 71
2
 72
1
 10
1.5275
 20
-1.6565
 30
0.0
 11
1.0
 21
0.0
 31
0.0
 44
0.9
  1
Weight
 40
0.125
 41
1.2
  0
MTEXT
  5
269
100
AcDbEntity
  8
0
100
AcDbMText
 62
2
  6
CONTINUOUS
  7
STANDARD
 71
2
 72
1
 10
4.555
 20
-1.6565
 30
0.0
 11
1.0
 21
0.0
 31
0.0
 44
0.9
  1
16.765 lb.
 40
0.125
 41
2.0
  0
MTEXT
  5
26A
100
AcDbEntity
  8
0
100
AcDbMText
 62
2
  6
CONTINUOUS
  7
STANDARD
 71
2
 72
1
 10
7.555
 20
-1.6565
 30
0.0
 11
1.0
 21
0.0
 31
0.0
 44
0.9
  1
7,604 kg.
 40
0.125
 41
1.8
  0
ENDBLK
  5
26B
100
AcDbEntity
  8
0
  6
BYBLOCK
 62
0
100
AcDbBlockEnd
  0
BLOCK
  5
26C
100
AcDbEntity
  8
0
100
AcDbBlockBegin
  2
*T3
 70
1
 10
0.0
 20
0.0
  3
*T3
  1

  0
LINE
  5
26D
100
AcDbEntity
  8
0
100
AcDbLine
 62
2
  6
CONTINUOUS
 10
0.0
 20
0.0
 11
4.6
 21
0.0
  0
LINE
  5
26E
100
AcDbEntity
  8
0
100
AcDbLine
 62
2
  6
CONTINUOUS
 10
0.0
 20
0.0
 11
0.0
 21
-1.43775
  0
LINE
  5
26F
100
AcDbEntity
  8
0
100
AcDbLine
 62
2
  6
CONTINUOUS
 10
0.0
 20
-0.34375
 11
4.6
 21
-0.34375
  0
LINE
  5
270
100
AcDbEntity
  8
0
100
AcDbLine
 62
2
  6
CONTINUOUS
 10
0.0
 20
-0.68775
 11
4.6
 21
-0.68775
  0
LINE
  5
271
100
AcDbEntity
  8
0
100
AcDbLine
 62
2
  6
CONTINUOUS
 10
0.0
 20
-0.93775
 11
4.6
 21
-0.93775
  0
LINE
  5
272
100
AcDbEntity
  8
0
100
AcDbLine
 62
2
  6
CONTINUOUS
 10
0.0
 20
-1.18775
 11
4.6
 21
-1.18775
  0
LINE
  5
273
100
AcDbEntity
  8
0
100
AcDbLine
 62
2
  6
CONTINUOUS
 10
0.0
 20
-1.43775
 11
4.6
 21
-1.43775
  0
LINE
  5
274
100
AcDbEntity
  8
0
100
AcDbLine
 62
2
  6
CONTINUOUS
 10
1.3
 20
-0.34375
 11
1.3
 21
-1.43775
  0
LINE
  5
275
100
AcDbEntity
  8
0
100
AcDbLine
 62
2
  6
CONTINUOUS
 10
3.3
 20
-0.34375
 11
3.3
 21
-1.43775
  0
LINE
  5
276
100
AcDbEntity
  8
0
100
AcDbLine
 62
2
  6
CONTINUOUS
 10
4.6
 20
0.0
 11
4.6
 21
-1.43775
  0
MTEXT
  5
277
100
AcDbEntity
  8
0
100
AcDbMText
 62
2
  6
CONTINUOUS
  7
STANDARD
 71
2
 72
1
 10
2.3
 20
-0.099375
 30
0.0
 11
1.0
 21
0.0
 31
0.0
 44
0.9
  1
Port Headings
 40
0.145
 41
3.016
  0
MTEXT
  5
278
100
AcDbEntity
  8
0
100
AcDbMText
 62
2
  6
CONTINUOUS
  7
STANDARD
 71
2
 72
1
 10
0.65
 20
-0.44325
 30
0.0
 11
1.0
 21
0.0
 31
0.0
 44
0.9
  1
Product
 40
0.145
 41
1.624
  0
MTEXT
  5
279
100
AcDbEntity
  8
0
100
AcDbMText
 62
2
  6
CONTINUOUS
  7
STANDARD
 71
2
 72
1
 10
2.3
 20
-0.44325
 30
0.0
 11
1.0
 21
0.0
 31
0.0
 44
0.9
  1
Port
 40
0.145
 41
0.928
  0
MTEXT
  5
27A
100
AcDbEntity
  8
0
100
AcDbMText
 62
2
  6
CONTINUOUS
  7
STANDARD
 71
2
 72
1
 10
3.95
 20
-0.44325
 30
0.0
 11
1.0
 21
0.0
 31
0.0
 44
0.9
  1
Size
 40
0.145
 41
0.928
  0
MTEXT
  5
27B
100
AcDbEntity
  8
0
100
AcDbMText
 62
2
  6
CONTINUOUS
  7
STANDARD
 71
2
 72
1
 10
0.65
 20
-0.75025
 30
0.0
 11
1.0
 21
0.0
 31
0.0
 44
0.9
  1
K26
 40
0.125
 41
0.6
  0
MTEXT
  5
27C
100
AcDbEntity
  8
0
100
AcDbMText
 62
2
  6
CONTINUOUS
  7
STANDARD
 71
2
 72
1
 10
2.3
 20
-0.75025
 30
0.0
 11
1.0
 21
0.0
 31
0.0
 44
0.9
  1
Ports 1 &  2
 40
0.125
 41
2.4
  0
MTEXT
  5
27D
100
AcDbEntity
  8
0
100
AcDbMText
 62
2
  6
CONTINUOUS
  7
STANDARD
 71
2
 72
1
 10
3.95
 20
-0.75025
 30
0.0
 11
1.0
 21
0.0
 31
0.0
 44
0.9
  1
1 1/2" Code 62
 40
0.125
 41
2.8
  0
MTEXT
  5
27E
100
AcDbEntity
  8
0
100
AcDbMText
 62
2
  6
CONTINUOUS
  7
STANDARD
 71
2
 72
1
 10
0.65
 20
-1.00025
 30
0.0
 11
1.0
 21
0.0
 31
0.0
 44
0.9
  1
K26
 40
0.125
 41
0.6
  0
MTEXT
  5
27F
100
AcDbEntity
  8
0
100
AcDbMText
 62
2
  6
CONTINUOUS
  7
STANDARD
 71
2
 72
1
 10
2.3
 20
-1.00025
 30
0.0
 11
1.0
 21
0.0
 31
0.0
 44
0.9
  1
Port 3
 40
0.125
 41
1.2
  0
MTEXT
  5
280
100
AcDbEntity
  8
0
100
AcDbMText
 62
2
  6
CONTINUOUS
  7
STANDARD
 71
2
 72
1
 10
3.95
 20
-1.00025
 30
0.0
 11
1.0
 21
0.0
 31
0.0
 44
0.9
  1
SAE 6
 40
0.125
 41
1.0
  0
MTEXT
  5
281
100
AcDbEntity
  8
0
100
AcDbMText
 62
2
  6
CONTINUOUS
  7
STANDARD
 71
2
 72
1
 10
0.65
 20
-1.25025
 30
0.0
 11
1.0
 21
0.0
 31
0.0
 44
0.9
  1
K26
 40
0.125
 41
0.6
  0
MTEXT
  5
282
100
AcDbEntity
  8
0
100
AcDbMText
 62
2
  6
CONTINUOUS
  7
STANDARD
 71
2
 72
1
 10
2.3
 20
-1.25025
 30
0.0
 11
1.0
 21
0.0
 31
0.0
 44
0.9
  1
Gage Port
 40
0.125
 41
1.8
  0
MTEXT
  5
283
100
AcDbEntity
  8
0
100
AcDbMText
 62
2
  6
CONTINUOUS
  7
STANDARD
 71
2
 72
1
 10
3.95
 20
-1.25025
 30
0.0
 11
1.0
 21
0.0
 31
0.0
 44
0.9
  1
1/4" NPTF
 40
0.125
 41
1.8
  0
ENDBLK
  5
284
100
AcDbEntity
  8
0
  6
BYBLOCK
 62
0
100
AcDbBlockEnd
  0
ENDSEC
  0
SECTION
  2
ENTITIES
  0
IMAGE
  5
285
100
AcDbEntity
  8
0
100
AcDbRasterImage
 62
7
  6
CONTINUOUS
 10
19.2297077316
 20
0.3094318264
 30
0.0
 11
0.0066666667
 21
0.0
 31
0.0
 12
0.0
 22
0.0066666667
 32
0.0
 13
369.0
 23
92.0
340
       399
 70
9
280
0
281
50
282
50
283
0
360
       393
 71
1
 91
2
 14
-0.5
 24
-0.5
 14
368.5
 24
91.5
  0
INSERT
  5
286
100
AcDbEntity
  8
0
100
AcDbBlockReference
 62
2
  6
CONTINUOUS
  2
SUN_FIRST_THIRD_ANGLE_BL0
 10
20.4816717061
 20
1.2289683772
  0
ACAD_TABLE
  5
287
100
AcDbEntity
  8
0
 62
2
  6
CONTINUOUS
100
AcDbBlockReference
  2
*T1
 10
12.42375
 20
0.30125
 30
0.0
100
AcDbTable
342
       39B
343
20F
 11
1.0
 21
0.0
 31
0.0
 90
6
 91
4
 92
6
 93
20
 94
0
 95
0
 96
0
 70
1
 41
0.0
141
0.525
141
0.1
141
0.525
141
0.1
142
4.1
142
1.1
142
0.7
142
0.5
142
0.4
142
2.475
171
1
172
0
173
0
174
0
175
1
176
1
 91
33
178
0
145
0.0
301
CELL_VALUE
 90
4
  1
T-19A Line mount\P(See Technical Data for Body Features)
304
ACVALUE_END
170
2
140
0.125
171
1
172
0
173
0
174
0
175
1
176
1
 91
33
178
0
145
0.0
301
CELL_VALUE
 90
4
  1
Aug-07-19
304
ACVALUE_END
170
5
140
0.125
171
1
172
0
173
0
174
0
175
1
176
1
 91
33
178
0
145
0.0
301
CELL_VALUE
 90
4
  1
0.900
304
ACVALUE_END
170
5
140
0.125
171
1
172
0
173
0
174
0
175
1
176
1
 91
33
178
0
145
0.0
301
CELL_VALUE
 90
4
  1
C
304
ACVALUE_END
170
5
140
0.125
171
1
172
0
173
0
174
0
175
1
176
1
 91
33
178
0
145
0.0
301
CELL_VALUE
 90
4
  1
2
304
ACVALUE_END
170
5
140
0.125
171
1
172
0
173
0
174
0
175
1
176
1
 91
33
178
0
145
0.0
301
CELL_VALUE
 90
4
  1
 
304
ACVALUE_END
170
1
140
0.125
171
1
172
0
173
0
174
0
175
1
176
1
 91
33
178
0
145
0.0
301
CELL_VALUE
 90
4
  1
DESCRIPTION
304
ACVALUE_END
170
1
140
0.06
171
1
172
0
173
0
174
0
175
1
176
1
 91
33
178
0
145
0.0
301
CELL_VALUE
 90
4
  1
DATE
304
ACVALUE_END
170
1
140
0.06
171
1
172
0
173
0
174
0
175
1
176
1
 91
33
178
0
145
0.0
301
CELL_VALUE
 90
4
  1
SCALE
304
ACVALUE_END
170
1
140
0.06
171
1
172
0
173
0
174
0
175
1
176
1
 91
33
178
0
145
0.0
301
CELL_VALUE
 90
4
  1
DWG SIZE
304
ACVALUE_END
170
1
140
0.06
171
1
172
0
173
0
174
0
175
1
176
1
 91
33
178
0
145
0.0
301
CELL_VALUE
 90
4
  1
SHEET
304
ACVALUE_END
170
1
140
0.06
171
1
172
0
173
0
174
0
175
1
176
1
 91
33
178
0
145
0.0
301
CELL_VALUE
 90
4
  1
 
304
ACVALUE_END
170
1
140
0.125
171
1
172
0
173
0
174
0
175
1
176
1
 91
33
178
0
145
0.0
301
CELL_VALUE
 90
4
  1
K26
304
ACVALUE_END
170
5
140
0.125
171
1
172
0
173
0
174
0
175
4
176
1
 91
33
178
0
145
0.0
301
CELL_VALUE
 90
4
  1
ALL DIMENSIONS IN INCH\PVIEWS ARE THIRD ANGLE
304
ACVALUE_END
170
5
140
0.12
171
1
172
0
173
1
174
0
175
1
176
1
 91
1
178
0
145
0.0
170
1
171
1
172
0
173
1
174
0
175
1
176
1
 91
1
178
0
145
0.0
170
1
171
1
172
0
173
1
174
0
175
1
176
1
 91
1
178
0
145
0.0
170
5
171
1
172
0
173
0
174
0
175
1
176
1
 91
33
178
0
145
0.0
301
CELL_VALUE
 90
4
  1
 
304
ACVALUE_END
170
1
140
0.125
171
1
172
0
173
0
174
0
175
1
176
1
 91
33
178
0
145
0.0
301
CELL_VALUE
 90
4
  1
MODEL
304
ACVALUE_END
170
1
140
0.06
171
1
172
0
173
0
174
0
175
1
176
1
 91
33
178
0
145
0.0
301
CELL_VALUE
 90
4
  1
 
304
ACVALUE_END
170
1
140
0.125
171
1
172
0
173
0
174
0
175
1
176
1
 91
33
178
0
145
0.0
301
CELL_VALUE
 90
4
  1
 
304
ACVALUE_END
170
1
140
0.125
171
1
172
0
173
0
174
0
175
1
176
1
 91
33
178
0
145
0.0
301
CELL_VALUE
 90
4
  1
 
304
ACVALUE_END
170
1
140
0.125
171
1
172
0
173
0
174
0
175
1
176
1
 91
33
178
0
145
0.0
301
CELL_VALUE
 90
4
  1
 
304
ACVALUE_END
170
1
140
0.125
171
1
172
0
173
0
174
0
175
1
176
1
 91
33
178
0
145
0.0
301
CELL_VALUE
 90
4
  1
 
304
ACVALUE_END
170
1
140
0.125
  0
ACAD_TABLE
  5
288
100
AcDbEntity
  8
0
 62
2
  6
CONTINUOUS
100
AcDbBlockReference
  2
*T2
 10
12.4237499994
 20
16.47875
 30
0.0
100
AcDbTable
342
       39A
343
210
 11
1.0
 21
0.0
 31
0.0
 90
22
 91
7
 92
3
 93
16
 94
0
 95
0
 96
0
 41
0.028
141
0.344
141
0.25
141
0.25
141
0.25
141
0.25
141
0.25
141
0.25
142
3.055
142
3.0
142
3.0
171
1
172
0
173
0
174
0
175
1
176
1
 91
33
178
0
145
0.0
301
CELL_VALUE
 90
4
  1
Technical Data
304
ACVALUE_END
170
5
140
0.145
171
1
172
0
173
0
174
0
175
1
176
1
 91
33
178
0
145
0.0
301
CELL_VALUE
 90
4
  1
U.S. Units
304
ACVALUE_END
170
5
140
0.145
171
1
172
0
173
0
174
0
175
1
176
1
 91
33
178
0
145
0.0
301
CELL_VALUE
 90
4
  1
Metric Units
304
ACVALUE_END
170
5
140
0.145
171
1
172
0
173
0
174
0
175
1
176
1
 91
33
178
0
145
0.0
301
CELL_VALUE
 90
4
  1
Cavity
304
ACVALUE_END
170
5
140
0.125
171
1
172
0
173
0
174
0
175
2
176
1
 91
33
178
0
145
0.0
301
CELL_VALUE
 90
4
  1
T-19A
304
ACVALUE_END
170
5
140
0.125
171
1
172
0
173
1
174
0
175
1
176
1
 91
1
178
0
145
0.0
170
1
171
1
172
0
173
0
174
0
175
1
176
1
 91
33
178
0
145
0.0
301
CELL_VALUE
 90
4
  1
Body Features
304
ACVALUE_END
170
5
140
0.125
171
1
172
0
173
0
174
0
175
2
176
1
 91
33
178
0
145
0.0
301
CELL_VALUE
 90
4
  1
Ninety degree with reverse flow check - reducing
304
ACVALUE_END
170
5
140
0.125
171
1
172
0
173
1
174
0
175
1
176
1
 91
1
178
0
145
0.0
170
1
171
1
172
0
173
0
174
0
175
1
176
1
 91
33
178
0
145
0.0
301
CELL_VALUE
 90
4
  1
Body Type
304
ACVALUE_END
170
5
140
0.125
171
1
172
0
173
0
174
0
175
2
176
1
 91
33
178
0
145
0.0
301
CELL_VALUE
 90
4
  1
Line mount
304
ACVALUE_END
170
5
140
0.125
171
1
172
0
173
1
174
0
175
1
176
1
 91
1
178
0
145
0.0
170
1
171
1
172
0
173
0
174
0
175
1
176
1
 91
33
178
0
145
0.0
301
CELL_VALUE
 90
4
  1
Interface
304
ACVALUE_END
170
5
140
0.125
171
1
172
0
173
0
174
0
175
2
176
1
 91
33
178
0
145
0.0
301
CELL_VALUE
 90
4
  1
None
304
ACVALUE_END
170
5
140
0.125
171
1
172
0
173
1
174
0
175
1
176
1
 91
1
178
0
145
0.0
170
1
171
1
172
0
173
0
174
0
175
1
176
1
 91
33
178
0
145
0.0
301
CELL_VALUE
 90
4
  1
Open Cavity Quantity
304
ACVALUE_END
170
5
140
0.125
171
1
172
0
173
0
174
0
175
2
176
1
 91
33
178
0
145
0.0
301
CELL_VALUE
 90
4
  1
1
304
ACVALUE_END
170
5
140
0.125
171
1
172
0
173
1
174
0
175
1
176
1
 91
1
178
0
145
0.0
170
1
171
1
172
0
173
0
174
0
175
1
176
1
 91
33
178
0
145
0.0
301
CELL_VALUE
 90
4
  1
Weight
304
ACVALUE_END
170
5
140
0.125
171
1
172
0
173
0
174
0
175
1
176
1
 91
33
178
0
145
0.0
301
CELL_VALUE
 90
4
  1
16.765 lb.
304
ACVALUE_END
170
5
140
0.125
171
1
172
0
173
0
174
0
175
1
176
1
 91
33
178
0
145
0.0
301
CELL_VALUE
 90
4
  1
7,604 kg.
304
ACVALUE_END
170
5
140
0.125
  0
ACAD_TABLE
  5
289
100
AcDbEntity
  8
0
 62
2
  6
CONTINUOUS
100
AcDbBlockReference
  2
*T3
 10
0.52125
 20
1.959
 30
0.0
100
AcDbTable
342
       39A
343
211
 11
1.0
 21
0.0
 31
0.0
 90
22
 91
5
 92
3
 93
16
 94
0
 95
0
 96
0
 41
0.05
141
0.34375
141
0.344
141
0.25
141
0.25
141
0.25
142
1.3
142
2.0
142
1.3
171
1
172
0
173
0
174
0
175
3
176
1
 91
33
178
0
145
0.0
301
CELL_VALUE
 90
4
  1
Port Headings
304
ACVALUE_END
170
5
140
0.145
171
1
172
0
173
1
174
0
175
1
176
1
 91
1
178
0
145
0.0
170
1
171
1
172
0
173
1
174
0
175
1
176
1
 91
1
178
0
145
0.0
170
1
171
1
172
0
173
0
174
0
175
1
176
1
 91
33
178
0
145
0.0
301
CELL_VALUE
 90
4
  1
Product
304
ACVALUE_END
170
5
140
0.145
171
1
172
0
173
0
174
0
175
1
176
1
 91
33
178
0
145
0.0
301
CELL_VALUE
 90
4
  1
Port
304
ACVALUE_END
170
5
140
0.145
171
1
172
0
173
0
174
0
175
1
176
1
 91
33
178
0
145
0.0
301
CELL_VALUE
 90
4
  1
Size
304
ACVALUE_END
170
5
140
0.145
171
1
172
0
173
0
174
0
175
1
176
1
 91
33
178
0
145
0.0
301
CELL_VALUE
 90
4
  1
K26
304
ACVALUE_END
170
5
140
0.125
171
1
172
0
173
0
174
0
175
1
176
1
 91
33
178
0
145
0.0
301
CELL_VALUE
 90
4
  1
Ports 1 &  2
304
ACVALUE_END
170
5
140
0.125
171
1
172
0
173
0
174
0
175
1
176
1
 91
33
178
0
145
0.0
301
CELL_VALUE
 90
4
  1
1 1/2" Code 62
304
ACVALUE_END
170
5
140
0.125
171
1
172
0
173
0
174
0
175
1
176
1
 91
33
178
0
145
0.0
301
CELL_VALUE
 90
4
  1
K26
304
ACVALUE_END
170
5
140
0.125
171
1
172
0
173
0
174
0
175
1
176
1
 91
33
178
0
145
0.0
301
CELL_VALUE
 90
4
  1
Port 3
304
ACVALUE_END
170
5
140
0.125
171
1
172
0
173
0
174
0
175
1
176
1
 91
33
178
0
145
0.0
301
CELL_VALUE
 90
4
  1
SAE 6
304
ACVALUE_END
170
5
140
0.125
171
1
172
0
173
0
174
0
175
1
176
1
 91
33
178
0
145
0.0
301
CELL_VALUE
 90
4
  1
K26
304
ACVALUE_END
170
5
140
0.125
171
1
172
0
173
0
174
0
175
1
176
1
 91
33
178
0
145
0.0
301
CELL_VALUE
 90
4
  1
Gage Port
304
ACVALUE_END
170
5
140
0.125
171
1
172
0
173
0
174
0
175
1
176
1
 91
33
178
0
145
0.0
301
CELL_VALUE
 90
4
  1
1/4" NPTF
304
ACVALUE_END
170
5
140
0.125
  0
MTEXT
  5
28A
100
AcDbEntity
  8
0
100
AcDbMText
 62
2
  6
CONTINUOUS
  7
STANDARD
 71
1
 72
1
 10
0.52125
 20
5.75995
 30
0.0
 11
1.0
 21
0.0
 31
0.0
 44
0.6
  3
Notes\P \P1. Important: Carefully consider\P   the maximum system pressure. The\P   pressure rating of the manifold is\P   dependent on the manifold material,\P   with the port type/size a secondary\P   consideration. Manifolds\P   constructed of alu
  1
minum are not\P   rated for pressures higher than\P   3000 psi (210 bar), regardless of\P   the port type/size specified.
 40
0.1
 41
3.04
  0
LINE
  5
28B
100
AcDbEntity
  8
0
100
AcDbLine
 62
7
  6
CONTINUOUS
 10
0.30125
 20
0.30125
 11
0.30125
 21
16.69875
  0
LINE
  5
28C
100
AcDbEntity
  8
0
100
AcDbLine
 62
7
  6
CONTINUOUS
 10
0.30125
 20
0.30125
 11
21.69875
 21
0.30125
  0
LINE
  5
28D
100
AcDbEntity
  8
0
100
AcDbLine
 62
7
  6
CONTINUOUS
 10
0.30125
 20
16.69875
 11
21.69875
 21
16.69875
  0
LINE
  5
28E
100
AcDbEntity
  8
0
100
AcDbLine
 62
7
  6
CONTINUOUS
 10
21.69875
 20
0.30125
 11
21.69875
 21
16.69875
  0
LINE
  5
28F
100
AcDbEntity
  8
0
100
AcDbLine
 62
7
  6
CONTINUOUS
 10
8.3524102627
 20
4.9249580107
 11
12.2644100909
 21
4.6536599011
  0
LINE
  5
290
100
AcDbEntity
  8
0
100
AcDbLine
 62
7
  6
CONTINUOUS
 10
9.7355899091
 20
12.3463400989
 11
8.3524102627
 21
11.0102910768
  0
LINE
  5
291
100
AcDbEntity
  8
0
100
AcDbLine
 62
7
  6
CONTINUOUS
 10
8.3524102627
 20
4.9249580107
 11
8.3524102627
 21
11.0102910768
  0
LINE
  5
292
100
AcDbEntity
  8
0
100
AcDbLine
 62
7
  6
CONTINUOUS
 10
12.2644100909
 20
10.7389929673
 11
13.6475897373
 21
12.0750419893
  0
LINE
  5
293
100
AcDbEntity
  8
0
100
AcDbLine
 62
7
  6
CONTINUOUS
 10
10.7253184881
 20
6.9463561043
 11
10.7253184881
 21
6.9269195396
  0
LINE
  5
294
100
AcDbEntity
  8
0
100
AcDbLine
 62
4
  6
CONTINUOUS
 10
12.3179855896
 20
10.225676333
 11
12.3226443284
 21
10.2301763294
  0
LINE
  5
295
100
AcDbEntity
  8
0
100
AcDbLine
 62
4
  6
CONTINUOUS
 10
12.3179855896
 20
10.1677207785
 11
12.3226443284
 21
10.1722207749
  0
LINE
  5
296
100
AcDbEntity
  8
0
100
AcDbLine
 62
4
  6
CONTINUOUS
 10
12.3226443284
 20
10.0910830053
 11
12.3179855896
 21
10.0865830088
  0
LINE
  5
297
100
AcDbEntity
  8
0
100
AcDbLine
 62
4
  6
CONTINUOUS
 10
13.1279406089
 20
9.3765839886
 11
13.117292068
 21
9.3729217785
  0
LINE
  5
298
100
AcDbEntity
  8
0
100
AcDbLine
 62
4
  6
CONTINUOUS
 10
12.3133268507
 20
10.2095852289
 11
12.3179855896
 21
10.225676333
  0
LINE
  5
299
100
AcDbEntity
  8
0
100
AcDbLine
 62
4
  6
CONTINUOUS
 10
12.3273030673
 20
10.1883118873
 11
12.3226443284
 21
10.1722207749
  0
LINE
  5
29A
100
AcDbEntity
  8
0
100
AcDbLine
 62
4
  6
CONTINUOUS
 10
12.3273030673
 20
10.1071741124
 11
12.3226443284
 21
10.0910830053
  0
LINE
  5
29B
100
AcDbEntity
  8
0
100
AcDbLine
 62
4
  6
CONTINUOUS
 10
12.7871871431
 20
9.1401702774
 11
12.797835689
 21
9.1504559835
  0
LINE
  5
29C
100
AcDbEntity
  8
0
100
AcDbLine
 62
4
  6
CONTINUOUS
 10
13.0764726375
 20
9.4195986242
 11
13.077360013
 21
9.4204557632
  0
LINE
  5
29D
100
AcDbEntity
  8
0
100
AcDbLine
 62
4
  6
CONTINUOUS
 10
13.5879578198
 20
9.8788821669
 11
13.5926165586
 21
9.8833821634
  0
LINE
  5
29E
100
AcDbEntity
  8
0
100
AcDbLine
 62
4
  6
CONTINUOUS
 10
13.0125813744
 20
9.3181434521
 11
12.9992706894
 21
9.3052863169
  0
LINE
  5
29F
100
AcDbEntity
  8
0
100
AcDbLine
 62
4
  6
CONTINUOUS
 10
12.898996873
 20
9.2084292422
 11
12.912307558
 21
9.2212863774
  0
LINE
  5
2A0
100
AcDbEntity
  8
0
100
AcDbLine
 62
4
  6
CONTINUOUS
 10
12.9540143639
 20
9.2615720607
 11
12.9646629048
 21
9.271857762
  0
LINE
  5
2A1
100
AcDbEntity
  8
0
100
AcDbLine
 62
4
  6
CONTINUOUS
 10
12.9753114635
 20
9.2821434804
 11
12.9859600044
 21
9.2924291817
  0
LINE
  5
2A2
100
AcDbEntity
  8
0
100
AcDbLine
 62
4
  6
CONTINUOUS
 10
13.0933328243
 20
9.3961433677
 11
13.1039814007
 21
9.4064291033
  0
LINE
  5
2A3
100
AcDbEntity
  8
0
100
AcDbLine
 62
4
  6
CONTINUOUS
 10
13.117292068
 20
9.4192862213
 11
13.1279406089
 21
9.4295719226
  0
LINE
  5
2A4
100
AcDbEntity
  8
0
100
AcDbLine
 62
4
  6
CONTINUOUS
 10
13.0045949598
 20
9.2607529792
 11
13.0152435007
 21
9.2710386804
  0
LINE
  5
2A5
100
AcDbEntity
  8
0
100
AcDbLine
 62
4
  6
CONTINUOUS
 10
13.1039814007
 20
9.3070767265
 11
13.0933328243
 21
9.2967909909
  0
LINE
  5
2A6
100
AcDbEntity
  8
0
100
AcDbLine
 62
4
  6
CONTINUOUS
 10
13.0604998262
 20
9.2650767482
 11
13.0551755557
 21
9.2599338976
  0
LINE
  5
2A7
100
AcDbEntity
  8
0
100
AcDbLine
 62
4
  6
CONTINUOUS
 10
13.0152435007
 20
9.2213624921
 11
13.0045949598
 21
9.2110767908
  0
LINE
  5
2A8
100
AcDbEntity
  8
0
100
AcDbLine
 62
4
  6
CONTINUOUS
 10
12.9646629048
 20
9.1725053853
 11
12.9540143639
 21
9.162219684
  0
LINE
  5
2A9
100
AcDbEntity
  8
0
100
AcDbLine
 62
4
  6
CONTINUOUS
 10
12.7845250065
 20
8.9985055266
 11
12.7951735526
 21
9.008791233
  0
LINE
  5
2AA
100
AcDbEntity
  8
0
100
AcDbLine
 62
4
  6
CONTINUOUS
 10
12.8164706433
 20
9.0293626441
 11
12.8244570556
 21
9.0370769265
  0
LINE
  5
2AB
100
AcDbEntity
  8
0
100
AcDbLine
 62
4
  6
CONTINUOUS
 10
13.0285541857
 20
9.2342196272
 11
13.0418648707
 21
9.2470767624
  0
LINE
  5
2AC
100
AcDbEntity
  8
0
100
AcDbLine
 62
4
  6
CONTINUOUS
 10
13.117292068
 20
9.3199338446
 11
13.1279406089
 21
9.3302195458
  0
LINE
  5
2AD
100
AcDbEntity
  8
0
100
AcDbLine
 62
4
  6
CONTINUOUS
 10
12.925618243
 20
9.1016736776
 11
12.9309425135
 21
9.1068165282
  0
LINE
  5
2AE
100
AcDbEntity
  8
0
100
AcDbLine
 62
4
  6
CONTINUOUS
 10
13.5809697115
 20
9.7330388481
 11
13.5996046669
 21
9.7510388339
  0
LINE
  5
2AF
100
AcDbEntity
  8
0
100
AcDbLine
 62
4
  6
CONTINUOUS
 10
12.7764055079
 20
7.2154841208
 11
12.7717467691
 21
7.222575235
  0
LINE
  5
2B0
100
AcDbEntity
  8
0
100
AcDbLine
 62
4
  6
CONTINUOUS
 10
12.7810642468
 20
7.3590774414
 11
12.7857229857
 21
7.3519863302
  0
LINE
  5
2B1
100
AcDbEntity
  8
0
100
AcDbLine
 62
7
  6
CONTINUOUS
 10
12.2644100909
 20
4.6536599011
 11
12.2644100909
 21
10.7389929673
  0
LINE
  5
2B2
100
AcDbEntity
  8
0
100
AcDbLine
 62
4
  6
CONTINUOUS
 10
12.3296324367
 20
10.2021529931
 11
12.3273030673
 21
10.1883118873
  0
LINE
  5
2B3
100
AcDbEntity
  8
0
100
AcDbLine
 62
4
  6
CONTINUOUS
 10
12.3319618062
 20
10.1348563292
 11
12.3273030673
 21
10.1071741124
  0
LINE
  5
2B4
100
AcDbEntity
  8
0
100
AcDbLine
 62
4
  6
CONTINUOUS
 10
12.9602260451
 20
8.9039423918
 11
12.9522396327
 21
8.8962281094
  0
LINE
  5
2B5
100
AcDbEntity
  8
0
100
AcDbLine
 62
4
  6
CONTINUOUS
 10
12.9895095458
 20
8.8726166621
 11
12.9779736206
 21
8.8614738133
  0
LINE
  5
2B6
100
AcDbEntity
  8
0
100
AcDbLine
 62
4
  6
CONTINUOUS
 10
12.9655503155
 20
8.7699919183
 11
12.9469153601
 21
8.7519919325
  0
LINE
  5
2B7
100
AcDbEntity
  8
0
100
AcDbLine
 62
4
  6
CONTINUOUS
 10
12.9815231357
 20
8.7854204788
 11
12.9895095458
 21
8.793134759
  0
LINE
  5
2B8
100
AcDbEntity
  8
0
100
AcDbLine
 62
4
  6
CONTINUOUS
 10
12.8013852256
 20
8.3650267209
 11
12.8155832872
 21
8.3522470291
  0
LINE
  5
2B9
100
AcDbEntity
  8
0
100
AcDbLine
 62
4
  6
CONTINUOUS
 10
12.3296324367
 20
10.2137441006
 11
12.3296324367
 21
10.2021529931
  0
LINE
  5
2BA
100
AcDbEntity
  8
0
100
AcDbLine
 62
4
  6
CONTINUOUS
 10
12.3296324367
 20
6.490099768
 11
12.3296324367
 21
6.3510064439
  0
LINE
  5
2BB
100
AcDbEntity
  8
0
100
AcDbLine
 62
4
  6
CONTINUOUS
 10
12.3319618062
 20
10.1464474409
 11
12.3319618062
 21
10.1348563292
  0
LINE
  5
2BC
100
AcDbEntity
  8
0
100
AcDbLine
 62
4
  6
CONTINUOUS
 10
12.9486900935
 20
9.2464939691
 11
12.9540143639
 21
9.2615720607
  0
LINE
  5
2BD
100
AcDbEntity
  8
0
100
AcDbLine
 62
4
  6
CONTINUOUS
 10
12.8226823185
 20
8.4650800331
 11
12.8359929991
 21
8.477937164
  0
LINE
  5
2BE
100
AcDbEntity
  8
0
100
AcDbLine
 62
4
  6
CONTINUOUS
 10
12.8883483481
 20
8.5285085508
 11
12.9096454388
 21
8.5490799619
  0
LINE
  5
2BF
100
AcDbEntity
  8
0
100
AcDbLine
 62
4
  6
CONTINUOUS
 10
12.9202939886
 20
8.5593656717
 11
12.9362668088
 21
8.5747942322
  0
LINE
  5
2C0
100
AcDbEntity
  8
0
100
AcDbLine
 62
4
  6
CONTINUOUS
 10
12.9815231342
 20
8.6185084884
 11
12.9921716751
 21
8.6287941897
  0
LINE
  5
2C1
100
AcDbEntity
  8
0
100
AcDbLine
 62
4
  6
CONTINUOUS
 10
13.0125813815
 20
8.6485084533
 11
13.020567796
 21
8.6562227378
  0
LINE
  5
2C2
100
AcDbEntity
  8
0
100
AcDbLine
 62
4
  6
CONTINUOUS
 10
13.0365406074
 20
8.6716512897
 11
13.0498512924
 21
8.6845084249
  0
LINE
  5
2C3
100
AcDbEntity
  8
0
100
AcDbLine
 62
4
  6
CONTINUOUS
 10
13.0702610165
 20
8.7042227057
 11
13.0862338278
 21
8.7196512576
  0
LINE
  5
2C4
100
AcDbEntity
  8
0
100
AcDbLine
 62
4
  6
CONTINUOUS
 10
13.0809095574
 20
8.6548969859
 11
13.0702610165
 21
8.6446112846
  0
LINE
  5
2C5
100
AcDbEntity
  8
0
100
AcDbLine
 62
4
  6
CONTINUOUS
 10
12.9309425383
 20
8.5100399605
 11
12.9202939886
 21
8.4997542507
  0
LINE
  5
2C6
100
AcDbEntity
  8
0
100
AcDbLine
 62
4
  6
CONTINUOUS
 10
12.8599522272
 20
8.40172763
 11
12.8741502876
 21
8.4154419041
  0
LINE
  5
2C7
100
AcDbEntity
  8
0
100
AcDbLine
 62
4
  6
CONTINUOUS
 10
13.0498512924
 20
8.5454151008
 11
13.0365406074
 21
8.5325579656
  0
LINE
  5
2C8
100
AcDbEntity
  8
0
100
AcDbLine
 62
4
  6
CONTINUOUS
 10
13.020567796
 20
8.5171294137
 11
13.0125813815
 21
8.5094151292
  0
LINE
  5
2C9
100
AcDbEntity
  8
0
100
AcDbLine
 62
4
  6
CONTINUOUS
 10
12.9921716751
 20
8.4897008655
 11
12.9815231342
 21
8.4794151643
  0
LINE
  5
2CA
100
AcDbEntity
  8
0
100
AcDbLine
 62
4
  6
CONTINUOUS
 10
12.8359929991
 20
8.3388438399
 11
12.8226823185
 21
8.325986709
  0
LINE
  5
2CB
100
AcDbEntity
  8
0
100
AcDbLine
 62
4
  6
CONTINUOUS
 10
12.9202939886
 20
8.4202723476
 11
12.9362668088
 21
8.4357009081
  0
LINE
  5
2CC
100
AcDbEntity
  8
0
100
AcDbLine
 62
4
  6
CONTINUOUS
 10
13.0702610165
 20
8.5651293816
 11
13.0862338278
 21
8.5805579335
  0
LINE
  5
2CD
100
AcDbEntity
  8
0
100
AcDbLine
 62
4
  6
CONTINUOUS
 10
13.0968823687
 20
8.6769490291
 11
13.1110804292
 21
8.6641693341
  0
LINE
  5
2CE
100
AcDbEntity
  8
0
100
AcDbLine
 62
4
  6
CONTINUOUS
 10
12.7717467691
 20
7.222575235
 11
12.7670880302
 21
7.2412574589
  0
LINE
  5
2CF
100
AcDbEntity
  8
0
100
AcDbLine
 62
4
  6
CONTINUOUS
 10
12.7857229857
 20
7.3519863302
 11
12.7880523551
 21
7.3426452126
  0
LINE
  5
2D0
100
AcDbEntity
  8
0
100
AcDbLine
 62
4
  6
CONTINUOUS
 10
12.8670512574
 20
8.5079371396
 11
12.8776998072
 21
8.3791295254
  0
LINE
  5
2D1
100
AcDbEntity
  8
0
100
AcDbLine
 62
4
  6
CONTINUOUS
 10
12.7670880302
 20
7.2412574589
 11
12.7647586608
 21
7.2737807917
  0
LINE
  5
2D2
100
AcDbEntity
  8
0
100
AcDbLine
 62
4
  6
CONTINUOUS
 10
12.7818628698
 20
9.0952864767
 11
12.7818628698
 21
9.1151569504
  0
LINE
  5
2D3
100
AcDbEntity
  8
0
100
AcDbLine
 62
4
  6
CONTINUOUS
 10
12.7880523551
 20
7.296280774
 11
12.7880523551
 21
7.2499163333
  0
LINE
  5
2D4
100
AcDbEntity
  8
0
100
AcDbLine
 62
4
  6
CONTINUOUS
 10
12.8004978253
 20
9.0338045616
 11
12.8004978253
 21
9.0536750373
  0
LINE
  5
2D5
100
AcDbEntity
  8
0
100
AcDbLine
 62
4
  6
CONTINUOUS
 10
12.8111463706
 20
9.1633131155
 11
12.8111463706
 21
9.0440902671
  0
LINE
  5
2D6
100
AcDbEntity
  8
0
100
AcDbLine
 62
4
  6
CONTINUOUS
 10
12.8226823185
 20
8.325986709
 11
12.8226823185
 21
8.4650800331
  0
LINE
  5
2D7
100
AcDbEntity
  8
0
100
AcDbLine
 62
4
  6
CONTINUOUS
 10
12.8297813261
 20
9.0620902529
 11
12.8297813261
 21
9.1813131013
  0
LINE
  5
2D8
100
AcDbEntity
  8
0
100
AcDbLine
 62
4
  6
CONTINUOUS
 10
12.8404298714
 20
9.0525054827
 11
12.8404298714
 21
9.1915988068
  0
LINE
  5
2D9
100
AcDbEntity
  8
0
100
AcDbLine
 62
4
  6
CONTINUOUS
 10
12.8413172717
 20
8.4632095431
 11
12.8413172717
 21
8.3638571684
  0
LINE
  5
2DA
100
AcDbEntity
  8
0
100
AcDbLine
 62
4
  6
CONTINUOUS
 10
12.8590648269
 20
9.0705054685
 11
12.8590648269
 21
9.2095987927
  0
LINE
  5
2DB
100
AcDbEntity
  8
0
100
AcDbLine
 62
4
  6
CONTINUOUS
 10
12.8989968979
 20
8.3997009365
 11
12.8989968979
 21
8.5387942606
  0
LINE
  5
2DC
100
AcDbEntity
  8
0
100
AcDbLine
 62
4
  6
CONTINUOUS
 10
12.898996873
 20
9.1090768655
 11
12.898996873
 21
9.2481701896
  0
LINE
  5
2DD
100
AcDbEntity
  8
0
100
AcDbLine
 62
4
  6
CONTINUOUS
 10
12.7647586608
 20
7.2737807917
 11
12.7670880302
 21
7.310804121
  0
LINE
  5
2DE
100
AcDbEntity
  8
0
100
AcDbLine
 62
4
  6
CONTINUOUS
 10
12.8564027121
 20
8.35855811
 11
12.8670512574
 21
8.5079371396
  0
LINE
  5
2DF
100
AcDbEntity
  8
0
100
AcDbLine
 62
4
  6
CONTINUOUS
 10
12.9309425135
 20
9.1068165282
 11
12.9415910544
 21
9.2495720645
  0
LINE
  5
2E0
100
AcDbEntity
  8
0
100
AcDbLine
 62
4
  6
CONTINUOUS
 10
12.9522396327
 20
8.8962281094
 11
12.9469153601
 21
8.8612795419
  0
LINE
  5
2E1
100
AcDbEntity
  8
0
100
AcDbLine
 62
4
  6
CONTINUOUS
 10
12.9469153601
 20
8.7519919325
 11
12.9655503155
 21
8.869344295
  0
LINE
  5
2E2
100
AcDbEntity
  8
0
100
AcDbLine
 62
4
  6
CONTINUOUS
 10
12.9176318593
 20
8.7700706839
 11
12.9362668147
 21
8.880799551
  0
LINE
  5
2E3
100
AcDbEntity
  8
0
100
AcDbLine
 62
4
  6
CONTINUOUS
 10
12.7818628698
 20
9.1151569504
 11
12.7871871431
 21
9.1401702774
  0
LINE
  5
2E4
100
AcDbEntity
  8
0
100
AcDbLine
 62
4
  6
CONTINUOUS
 10
12.7951735526
 20
9.008791233
 11
12.8004978253
 21
9.0338045616
  0
LINE
  5
2E5
100
AcDbEntity
  8
0
100
AcDbLine
 62
4
  6
CONTINUOUS
 10
12.8244570556
 20
9.0370769265
 11
12.8297813261
 21
9.0620902529
  0
LINE
  5
2E6
100
AcDbEntity
  8
0
100
AcDbLine
 62
4
  6
CONTINUOUS
 10
12.8413172717
 20
8.3638571684
 11
12.8359929991
 21
8.3388438399
  0
LINE
  5
2E7
100
AcDbEntity
  8
0
100
AcDbLine
 62
4
  6
CONTINUOUS
 10
12.9895095458
 20
8.9322280831
 11
12.9815231357
 21
8.8947080882
  0
LINE
  5
2E8
100
AcDbEntity
  8
0
100
AcDbLine
 62
4
  6
CONTINUOUS
 10
13.090670698
 20
9.38363671
 11
13.0933328243
 21
9.3961433677
  0
LINE
  5
2E9
100
AcDbEntity
  8
0
100
AcDbLine
 62
4
  6
CONTINUOUS
 10
13.1146299416
 20
9.4067795636
 11
13.117292068
 21
9.4192862213
  0
LINE
  5
2EA
100
AcDbEntity
  8
0
100
AcDbLine
 62
4
  6
CONTINUOUS
 10
12.9895095458
 20
8.793134759
 11
12.9948338163
 21
8.8181480854
  0
LINE
  5
2EB
100
AcDbEntity
  8
0
100
AcDbLine
 62
4
  6
CONTINUOUS
 10
13.1279406089
 20
9.3302195458
 11
13.1306027352
 21
9.3427262004
  0
LINE
  5
2EC
100
AcDbEntity
  8
0
100
AcDbLine
 62
4
  6
CONTINUOUS
 10
12.9992706894
 20
9.2456748917
 11
13.0045949598
 21
9.2607529792
  0
LINE
  5
2ED
100
AcDbEntity
  8
0
100
AcDbLine
 62
4
  6
CONTINUOUS
 10
12.8155832872
 20
8.4052349652
 11
12.8013852256
 21
8.3650267209
  0
LINE
  5
2EE
100
AcDbEntity
  8
0
100
AcDbLine
 62
4
  6
CONTINUOUS
 10
12.9540143639
 20
9.162219684
 11
12.9486900935
 21
9.1670120712
  0
LINE
  5
2EF
100
AcDbEntity
  8
0
100
AcDbLine
 62
4
  6
CONTINUOUS
 10
13.0045949598
 20
9.2110767908
 11
12.9992706894
 21
9.215869178
  0
LINE
  5
2F0
100
AcDbEntity
  8
0
100
AcDbLine
 62
4
  6
CONTINUOUS
 10
12.8004978253
 20
9.0536750373
 11
12.7818628698
 21
9.0952864767
  0
LINE
  5
2F1
100
AcDbEntity
  8
0
100
AcDbLine
 62
4
  6
CONTINUOUS
 10
12.8359929991
 20
8.477937164
 11
12.8413172717
 21
8.4632095431
  0
LINE
  5
2F2
100
AcDbEntity
  8
0
100
AcDbLine
 62
4
  6
CONTINUOUS
 10
12.7818628698
 20
9.0058693379
 11
12.7845250065
 21
8.9985055266
  0
LINE
  5
2F3
100
AcDbEntity
  8
0
100
AcDbLine
 62
4
  6
CONTINUOUS
 10
12.9815231342
 20
8.4794151643
 11
12.9761988638
 21
8.4941427894
  0
LINE
  5
2F4
100
AcDbEntity
  8
0
100
AcDbLine
 62
4
  6
CONTINUOUS
 10
12.8111463706
 20
9.0440902671
 11
12.8164706433
 21
9.0293626441
  0
LINE
  5
2F5
100
AcDbEntity
  8
0
100
AcDbLine
 62
4
  6
CONTINUOUS
 10
13.0125813815
 20
8.5094151292
 11
13.007257111
 21
8.5241427543
  0
LINE
  5
2F6
100
AcDbEntity
  8
0
100
AcDbLine
 62
4
  6
CONTINUOUS
 10
12.3133268507
 20
10.0936741231
 11
12.3109974813
 21
10.1030152355
  0
LINE
  5
2F7
100
AcDbEntity
  8
0
100
AcDbLine
 62
4
  6
CONTINUOUS
 10
12.3273030673
 20
10.1651296638
 11
12.3319618062
 21
10.1464474409
  0
LINE
  5
2F8
100
AcDbEntity
  8
0
100
AcDbLine
 62
4
  6
CONTINUOUS
 10
12.3273030673
 20
10.2230852183
 11
12.3296324367
 21
10.2137441006
  0
LINE
  5
2F9
100
AcDbEntity
  8
0
100
AcDbLine
 62
4
  6
CONTINUOUS
 10
12.925618243
 20
9.2341435126
 11
12.9336046576
 21
9.1425054204
  0
LINE
  5
2FA
100
AcDbEntity
  8
0
100
AcDbLine
 62
4
  6
CONTINUOUS
 10
12.9149696932
 20
9.2139225617
 11
12.9149696932
 21
9.124505426
  0
LINE
  5
2FB
100
AcDbEntity
  8
0
100
AcDbLine
 62
4
  6
CONTINUOUS
 10
12.9176318593
 20
8.7237062411
 11
12.9176318593
 21
8.8627995652
  0
LINE
  5
2FC
100
AcDbEntity
  8
0
100
AcDbLine
 62
4
  6
CONTINUOUS
 10
12.9202939886
 20
8.4202723476
 11
12.9202939886
 21
8.5593656717
  0
LINE
  5
2FD
100
AcDbEntity
  8
0
100
AcDbLine
 62
4
  6
CONTINUOUS
 10
12.9486900935
 20
9.1670120712
 11
12.9486900935
 21
9.2464939691
  0
LINE
  5
2FE
100
AcDbEntity
  8
0
100
AcDbLine
 62
4
  6
CONTINUOUS
 10
12.9646629048
 20
9.3115987094
 11
12.9646629048
 21
9.1725053853
  0
LINE
  5
2FF
100
AcDbEntity
  8
0
100
AcDbLine
 62
4
  6
CONTINUOUS
 10
12.9655503155
 20
8.869344295
 11
12.9655503155
 21
8.8892147687
  0
LINE
  5
300
100
AcDbEntity
  8
0
100
AcDbLine
 62
4
  6
CONTINUOUS
 10
12.9753114635
 20
9.1827911037
 11
12.9753114635
 21
9.2821434804
  0
LINE
  5
301
100
AcDbEntity
  8
0
100
AcDbLine
 62
4
  6
CONTINUOUS
 10
12.9761988608
 20
8.8498242859
 11
12.9761988608
 21
8.8001480996
  0
LINE
  5
302
100
AcDbEntity
  8
0
100
AcDbLine
 62
4
  6
CONTINUOUS
 10
12.9761988638
 20
8.4941427894
 11
12.9761988638
 21
8.5934951641
  0
LINE
  5
303
100
AcDbEntity
  8
0
100
AcDbLine
 62
4
  6
CONTINUOUS
 10
12.9877347553
 20
9.2842082185
 11
12.9877347553
 21
9.2643377449
  0
LINE
  5
304
100
AcDbEntity
  8
0
100
AcDbLine
 62
4
  6
CONTINUOUS
 10
12.9948338163
 20
8.8181480854
 11
12.9948338163
 21
8.8578890349
  0
LINE
  5
305
100
AcDbEntity
  8
0
100
AcDbLine
 62
4
  6
CONTINUOUS
 10
12.9992706894
 20
9.215869178
 11
12.9992706894
 21
9.2456748917
  0
LINE
  5
306
100
AcDbEntity
  8
0
100
AcDbLine
 62
4
  6
CONTINUOUS
 10
13.007257111
 20
8.5241427543
 11
13.007257111
 21
8.623495129
  0
LINE
  5
307
100
AcDbEntity
  8
0
100
AcDbLine
 62
4
  6
CONTINUOUS
 10
13.0152435007
 20
9.2213624921
 11
13.0152435007
 21
9.3008443951
  0
LINE
  5
308
100
AcDbEntity
  8
0
100
AcDbLine
 62
4
  6
CONTINUOUS
 10
13.0258920416
 20
9.3310005701
 11
13.0258920416
 21
9.2415834312
  0
LINE
  5
309
100
AcDbEntity
  8
0
100
AcDbLine
 62
4
  6
CONTINUOUS
 10
13.0258920665
 20
8.6414951148
 11
13.0258920665
 21
8.5421427401
  0
LINE
  5
30A
100
AcDbEntity
  8
0
100
AcDbLine
 62
4
  6
CONTINUOUS
 10
13.0365406074
 20
8.5325579656
 11
13.0365406074
 21
8.6716512897
  0
LINE
  5
30B
100
AcDbEntity
  8
0
100
AcDbLine
 62
4
  6
CONTINUOUS
 10
13.0418648707
 20
9.2470767624
 11
13.0418648707
 21
9.3464291391
  0
LINE
  5
30C
100
AcDbEntity
  8
0
100
AcDbLine
 62
4
  6
CONTINUOUS
 10
13.0525134116
 20
9.2672977016
 11
13.0525134116
 21
9.3964557878
  0
LINE
  5
30D
100
AcDbEntity
  8
0
100
AcDbLine
 62
4
  6
CONTINUOUS
 10
13.0551755628
 20
8.6697808019
 11
13.0551755628
 21
8.5704284272
  0
LINE
  5
30E
100
AcDbEntity
  8
0
100
AcDbLine
 62
4
  6
CONTINUOUS
 10
13.0702610165
 20
8.5651293816
 11
13.0702610165
 21
8.7042227057
  0
LINE
  5
30F
100
AcDbEntity
  8
0
100
AcDbLine
 62
4
  6
CONTINUOUS
 10
13.0764726375
 20
9.2805053001
 11
13.0764726375
 21
9.3798576769
  0
LINE
  5
310
100
AcDbEntity
  8
0
100
AcDbLine
 62
4
  6
CONTINUOUS
 10
13.0764726375
 20
9.4096633832
 11
13.0764726375
 21
9.4195986242
  0
LINE
  5
311
100
AcDbEntity
  8
0
100
AcDbLine
 62
4
  6
CONTINUOUS
 10
13.090670698
 20
9.3041548121
 11
13.090670698
 21
9.38363671
  0
LINE
  5
312
100
AcDbEntity
  8
0
100
AcDbLine
 62
4
  6
CONTINUOUS
 10
13.1146299416
 20
9.376973853
 11
13.1146299416
 21
9.4067795636
  0
LINE
  5
313
100
AcDbEntity
  8
0
100
AcDbLine
 62
4
  6
CONTINUOUS
 10
13.1306027352
 20
9.3427262004
 11
13.1306027352
 21
9.3725319141
  0
LINE
  5
314
100
AcDbEntity
  8
0
100
AcDbLine
 62
4
  6
CONTINUOUS
 10
13.077360013
 20
9.4204557632
 11
13.0764726375
 21
9.4096633832
  0
LINE
  5
315
100
AcDbEntity
  8
0
100
AcDbLine
 62
4
  6
CONTINUOUS
 10
12.9815231357
 20
8.8947080882
 11
12.9761988608
 21
8.8498242859
  0
LINE
  5
316
100
AcDbEntity
  8
0
100
AcDbLine
 62
4
  6
CONTINUOUS
 10
12.7670880302
 20
7.310804121
 11
12.7717467691
 21
7.3384863409
  0
LINE
  5
317
100
AcDbEntity
  8
0
100
AcDbLine
 62
4
  6
CONTINUOUS
 10
12.7880523551
 20
7.2499163333
 11
12.7857229857
 21
7.2360752244
  0
LINE
  5
318
100
AcDbEntity
  8
0
100
AcDbLine
 62
4
  6
CONTINUOUS
 10
12.9761988638
 20
8.5934951641
 11
12.9815231342
 21
8.6185084884
  0
LINE
  5
319
100
AcDbEntity
  8
0
100
AcDbLine
 62
4
  6
CONTINUOUS
 10
13.007257111
 20
8.623495129
 11
13.0125813815
 21
8.6485084533
  0
LINE
  5
31A
100
AcDbEntity
  8
0
100
AcDbLine
 62
4
  6
CONTINUOUS
 10
13.0258920665
 20
8.5421427401
 11
13.020567796
 21
8.5171294137
  0
LINE
  5
31B
100
AcDbEntity
  8
0
100
AcDbLine
 62
4
  6
CONTINUOUS
 10
13.0551755628
 20
8.5704284272
 11
13.0498512924
 21
8.5454151008
  0
LINE
  5
31C
100
AcDbEntity
  8
0
100
AcDbLine
 62
4
  6
CONTINUOUS
 10
12.7717467691
 20
7.3384863409
 11
12.7764055079
 21
7.3545774449
  0
LINE
  5
31D
100
AcDbEntity
  8
0
100
AcDbLine
 62
4
  6
CONTINUOUS
 10
12.7857229857
 20
7.2360752244
 11
12.7810642468
 21
7.2199841172
  0
LINE
  5
31E
100
AcDbEntity
  8
0
100
AcDbLine
 62
4
  6
CONTINUOUS
 10
13.5832990809
 20
9.8627910629
 11
13.5879578198
 21
9.8788821669
  0
LINE
  5
31F
100
AcDbEntity
  8
0
100
AcDbLine
 62
4
  6
CONTINUOUS
 10
13.5972752975
 20
9.8299266054
 11
13.5879578198
 21
9.7977443931
  0
LINE
  5
320
100
AcDbEntity
  8
0
100
AcDbLine
 62
4
  6
CONTINUOUS
 10
13.1110804292
 20
8.6641693341
 11
13.0968823687
 21
8.623961093
  0
LINE
  5
321
100
AcDbEntity
  8
0
100
AcDbLine
 62
4
  6
CONTINUOUS
 10
12.7764055079
 20
7.3545774449
 11
12.7810642468
 21
7.3590774414
  0
LINE
  5
322
100
AcDbEntity
  8
0
100
AcDbLine
 62
4
  6
CONTINUOUS
 10
12.7787348774
 20
7.2872807811
 11
12.7880523551
 21
7.296280774
  0
LINE
  5
323
100
AcDbEntity
  8
0
100
AcDbLine
 62
4
  6
CONTINUOUS
 10
12.7810642468
 20
7.2199841172
 11
12.7764055079
 21
7.2154841208
  0
LINE
  5
324
100
AcDbEntity
  8
0
100
AcDbLine
 62
4
  6
CONTINUOUS
 10
12.3179855896
 20
10.0865830088
 11
12.3133268507
 21
10.0936741231
  0
LINE
  5
325
100
AcDbEntity
  8
0
100
AcDbLine
 62
4
  6
CONTINUOUS
 10
12.3226443284
 20
10.1722207749
 11
12.3273030673
 21
10.1651296638
  0
LINE
  5
326
100
AcDbEntity
  8
0
100
AcDbLine
 62
4
  6
CONTINUOUS
 10
12.3226443284
 20
10.2301763294
 11
12.3273030673
 21
10.2230852183
  0
LINE
  5
327
100
AcDbEntity
  8
0
100
AcDbLine
 62
4
  6
CONTINUOUS
 10
12.797835689
 20
9.1504559835
 11
12.8004978253
 21
9.1430921689
  0
LINE
  5
328
100
AcDbEntity
  8
0
100
AcDbLine
 62
4
  6
CONTINUOUS
 10
13.020567796
 20
8.6562227378
 11
13.0258920665
 21
8.6414951148
  0
LINE
  5
329
100
AcDbEntity
  8
0
100
AcDbLine
 62
4
  6
CONTINUOUS
 10
12.9761988608
 20
8.8001480996
 11
12.9815231357
 21
8.7854204788
  0
LINE
  5
32A
100
AcDbEntity
  8
0
100
AcDbLine
 62
4
  6
CONTINUOUS
 10
12.9655503155
 20
8.8892147687
 11
12.9602260451
 21
8.9039423918
  0
LINE
  5
32B
100
AcDbEntity
  8
0
100
AcDbLine
 62
4
  6
CONTINUOUS
 10
13.0498512924
 20
8.6845084249
 11
13.0551755628
 21
8.6697808019
  0
LINE
  5
32C
100
AcDbEntity
  8
0
100
AcDbLine
 62
4
  6
CONTINUOUS
 10
12.9948338163
 20
8.8578890349
 11
12.9895095458
 21
8.8726166621
  0
LINE
  5
32D
100
AcDbEntity
  8
0
100
AcDbLine
 62
4
  6
CONTINUOUS
 10
12.912307558
 20
9.2212863774
 11
12.9149696932
 21
9.2139225617
  0
LINE
  5
32E
100
AcDbEntity
  8
0
100
AcDbLine
 62
4
  6
CONTINUOUS
 10
13.0258920416
 20
9.2415834312
 11
13.0285541857
 21
9.2342196272
  0
LINE
  5
32F
100
AcDbEntity
  8
0
100
AcDbLine
 62
4
  6
CONTINUOUS
 10
13.0551755557
 20
9.2599338976
 11
13.0525134116
 21
9.2672977016
  0
LINE
  5
330
100
AcDbEntity
  8
0
100
AcDbLine
 62
4
  6
CONTINUOUS
 10
12.9859600044
 20
9.2924291817
 11
12.9877347553
 21
9.2842082185
  0
LINE
  5
331
100
AcDbEntity
  8
0
100
AcDbLine
 62
4
  6
CONTINUOUS
 10
12.8404298714
 20
9.1915988068
 11
12.8590648269
 21
9.0705054685
  0
LINE
  5
332
100
AcDbEntity
  8
0
100
AcDbLine
 62
4
  6
CONTINUOUS
 10
12.9256182688
 20
8.8109024239
 11
12.9362668147
 21
8.7417062269
  0
LINE
  5
333
100
AcDbEntity
  8
0
100
AcDbLine
 62
4
  6
CONTINUOUS
 10
13.0152435007
 20
9.3008443951
 11
13.0125813744
 21
9.3181434521
  0
LINE
  5
334
100
AcDbEntity
  8
0
100
AcDbLine
 62
4
  6
CONTINUOUS
 10
13.5832990809
 20
9.7700621774
 11
13.5809697115
 21
9.7330388481
  0
LINE
  5
335
100
AcDbEntity
  8
0
100
AcDbLine
 62
4
  6
CONTINUOUS
 10
13.5809697115
 20
9.8489499488
 11
13.5832990809
 21
9.8627910629
  0
LINE
  5
336
100
AcDbEntity
  8
0
100
AcDbLine
 62
4
  6
CONTINUOUS
 10
13.5879578198
 20
9.7977443931
 11
13.5832990809
 21
9.7700621774
  0
LINE
  5
337
100
AcDbEntity
  8
0
100
AcDbLine
 62
4
  6
CONTINUOUS
 10
13.5996046669
 20
9.8437677194
 11
13.5972752975
 21
9.8299266054
  0
LINE
  5
338
100
AcDbEntity
  8
0
100
AcDbLine
 62
7
  6
CONTINUOUS
 10
12.6576076513
 20
6.9616408192
 11
12.6582242779
 21
6.9622253843
  0
LINE
  5
339
100
AcDbEntity
  8
0
100
AcDbLine
 62
7
  6
CONTINUOUS
 10
8.3524102627
 20
11.0102910768
 11
12.2644100909
 21
10.7389929673
  0
LINE
  5
33A
100
AcDbEntity
  8
0
100
AcDbLine
 62
4
  6
CONTINUOUS
 10
13.117292068
 20
9.3729217785
 11
13.1146299416
 21
9.376973853
  0
LINE
  5
33B
100
AcDbEntity
  8
0
100
AcDbLine
 62
4
  6
CONTINUOUS
 10
13.1306027352
 20
9.3725319141
 11
13.1279406089
 21
9.3765839886
  0
LINE
  5
33C
100
AcDbEntity
  8
0
100
AcDbLine
 62
4
  6
CONTINUOUS
 10
13.0933328243
 20
9.2967909909
 11
13.090670698
 21
9.3041548121
  0
LINE
  5
33D
100
AcDbEntity
  8
0
100
AcDbLine
 62
4
  6
CONTINUOUS
 10
13.1146299416
 20
9.3272976657
 11
13.117292068
 21
9.3199338446
  0
LINE
  5
33E
100
AcDbEntity
  8
0
100
AcDbLine
 62
4
  6
CONTINUOUS
 10
13.1279406089
 20
9.4295719226
 11
13.1306027352
 21
9.4222080983
  0
LINE
  5
33F
100
AcDbEntity
  8
0
100
AcDbLine
 62
4
  6
CONTINUOUS
 10
13.5996046669
 20
9.8669499346
 11
13.5996046669
 21
9.8437677194
  0
LINE
  5
340
100
AcDbEntity
  8
0
100
AcDbLine
 62
7
  6
CONTINUOUS
 10
13.6475897373
 20
5.9897089232
 11
13.6475897373
 21
12.0750419893
  0
LINE
  5
341
100
AcDbEntity
  8
0
100
AcDbLine
 62
4
  6
CONTINUOUS
 10
13.5926165586
 20
9.8833821634
 11
13.5972752975
 21
9.8762910523
  0
LINE
  5
342
100
AcDbEntity
  8
0
100
AcDbLine
 62
4
  6
CONTINUOUS
 10
13.5972752975
 20
9.8762910523
 11
13.5996046669
 21
9.8669499346
  0
LINE
  5
343
100
AcDbEntity
  8
0
100
AcDbLine
 62
7
  6
CONTINUOUS
 10
12.2644100909
 20
4.6536599011
 11
13.6475897373
 21
5.9897089232
  0
LINE
  5
344
100
AcDbEntity
  8
0
100
AcDbLine
 62
7
  6
CONTINUOUS
 10
13.6475897373
 20
12.0750419893
 11
9.7355899091
 21
12.3463400989
  0
ARC
  5
345
100
AcDbEntity
  8
0
100
AcDbCircle
 62
7
  6
CONTINUOUS
 10
11.1626313701
 20
8.0115326051
 40
1.2865352548
100
AcDbArc
 50
256.7118938964
 51
257.0347748029
  0
ARC
  5
346
100
AcDbEntity
  8
0
100
AcDbCircle
 62
7
  6
CONTINUOUS
 10
10.3486346146
 20
10.195914917
 40
0.3173305693
100
AcDbArc
 50
312.1364284937
 51
313.2550185807
  0
ARC
  5
347
100
AcDbEntity
  8
0
100
AcDbCircle
 62
7
  6
CONTINUOUS
 10
10.2830838731
 20
10.2637775515
 40
0.3173177093
100
AcDbArc
 50
135.120777123
 51
135.8782566169
  0
ARC
  5
348
100
AcDbEntity
  8
0
100
AcDbCircle
 62
7
  6
CONTINUOUS
 10
10.2972856182
 20
10.2346401642
 40
0.265346401
100
AcDbArc
 50
85.9850835109
 51
98.6649042499
  0
ARC
  5
349
100
AcDbEntity
  8
0
100
AcDbCircle
 62
7
  6
CONTINUOUS
 10
10.3204688452
 20
10.2660918409
 40
0.2377646417
100
AcDbArc
 50
101.7628448159
 51
105.2961369818
  0
ARC
  5
34A
100
AcDbEntity
  8
0
100
AcDbCircle
 62
7
  6
CONTINUOUS
 10
10.3522650643
 20
10.233183735
 40
0.2377507367
100
AcDbArc
 50
342.7164920793
 51
346.2018424554
  0
SPLINE
  5
34B
100
AcDbEntity
  8
0
100
AcDbSpline
 62
7
  6
CONTINUOUS
 70
0
 71
3
 72
11
 73
7
 74
0
 42
0.0000001
 43
0.0000001
 44
0.0000000001
 40
0.0
 40
0.0
 40
0.0
 40
0.0
 40
0.266865543
 40
0.5225688463
 40
0.7669774292
 40
1.0
 40
1.0
 40
1.0
 40
1.0
 10
10.8455391248
 20
6.805303215
 30
0.0
 10
10.8412526688
 20
6.8068569645
 30
0.0
 10
10.8328938735
 20
6.8099968712
 30
0.0
 10
10.8207479521
 20
6.8149187235
 30
0.0
 10
10.8092742236
 20
6.8199471019
 30
0.0
 10
10.8019061125
 20
6.8234503955
 30
0.0
 10
10.7983409143
 20
6.8252221285
 30
0.0
  0
SPLINE
  5
34C
100
AcDbEntity
  8
0
100
AcDbSpline
 62
7
  6
CONTINUOUS
 70
0
 71
3
 72
20
 73
16
 74
0
 42
0.0000001
 43
0.0000001
 44
0.0000000001
 40
0.0
 40
0.0
 40
0.0
 40
0.0
 40
0.1528975359
 40
0.2978673989
 40
0.4348128375
 40
0.5002667037
 40
0.5637037031
 40
0.6251270572
 40
0.6845446437
 40
0.741968424
 40
0.7974159564
 40
0.8509099909
 40
0.9024797523
 40
0.9521617721
 40
1.0
 40
1.0
 40
1.0
 40
1.0
 10
9.895070786
 20
11.1082754653
 30
0.0
 10
9.8872800584
 20
11.111155163
 30
0.0
 10
9.8721813281
 20
11.1169823904
 30
0.0
 10
9.8504286591
 20
11.1261991449
 30
0.0
 10
9.8333267546
 20
11.1341872352
 30
0.0
 10
9.8204376418
 20
11.1407021425
 30
0.0
 10
9.8113135824
 20
11.145565747
 30
0.0
 10
9.8025902049
 20
11.1504783501
 30
0.0
 10
9.7942713485
 20
11.1554377557
 30
0.0
 10
9.7863607488
 20
11.1604418466
 30
0.0
 10
9.7788618723
 20
11.1654883443
 30
0.0
 10
9.7717780794
 20
11.1705750724
 30
0.0
 10
9.7651124865
 20
11.1756998699
 30
0.0
 10
9.7588681415
 20
11.180860336
 30
0.0
 10
9.7549143347
 20
11.1843887452
 30
0.0
 10
9.7530119277
 20
11.1861591297
 30
0.0
  0
SPLINE
  5
34D
100
AcDbEntity
  8
0
100
AcDbSpline
 62
7
  6
CONTINUOUS
 70
0
 71
3
 72
42
 73
38
 74
0
 42
0.0000001
 43
0.0000001
 44
0.0000000001
 40
0.0
 40
0.0
 40
0.0
 40
0.0
 40
0.0311444822
 40
0.0467771409
 40
0.0624471084
 40
0.0938918288
 40
0.125473946
 40
0.1571813221
 40
0.1889991721
 40
0.2209105603
 40
0.2528967007
 40
0.2849373517
 40
0.3170112137
 40
0.3490963459
 40
0.3811705896
 40
0.4132119965
 40
0.4451992522
 40
0.4771120925
 40
0.5089317052
 40
0.5406411103
 40
0.5722255148
 40
0.6036726323
 40
0.6349729635
 40
0.6661200289
 40
0.6971105466
 40
0.7279445496
 40
0.7586254353
 40
0.7891599419
 40
0.8195580492
 40
0.8498327998
 40
0.8649315645
 40
0.8800056518
 40
0.9100837089
 40
0.9400929761
 40
0.9550815025
 40
0.9700611869
 40
1.0
 40
1.0
 40
1.0
 40
1.0
 10
10.3084101768
 20
10.5747220352
 30
0.0
 10
10.3170076146
 20
10.5741258009
 30
0.0
 10
10.3298940168
 20
10.5727586353
 30
0.0
 10
10.3469567746
 20
10.5700111853
 30
0.0
 10
10.3639924361
 20
10.5666381533
 30
0.0
 10
10.3851163997
 20
10.5612663123
 30
0.0
 10
10.4100223687
 20
10.5530209426
 30
0.0
 10
10.4343857068
 20
10.5430124862
 30
0.0
 10
10.4580757874
 20
10.5312946019
 30
0.0
 10
10.4809665902
 20
10.517929882
 30
0.0
 10
10.5029360915
 20
10.5029896905
 30
0.0
 10
10.5238672519
 20
10.486553746
 30
0.0
 10
10.5436485384
 20
10.4687097077
 30
0.0
 10
10.5621745375
 20
10.4495527099
 30
0.0
 10
10.5793465041
 20
10.4291848602
 30
0.0
 10
10.5950728848
 20
10.4077147001
 30
0.0
 10
10.6092698006
 20
10.3852566331
 30
0.0
 10
10.6218614911
 20
10.3619303216
 30
0.0
 10
10.6327807174
 20
10.3378600577
 30
0.0
 10
10.6419691191
 20
10.313174108
 30
0.0
 10
10.6493775241
 20
10.2880040384
 30
0.0
 10
10.6549662136
 20
10.2624840228
 30
0.0
 10
10.6587051375
 20
10.2367501376
 30
0.0
 10
10.6605740807
 20
10.2109396438
 30
0.0
 10
10.6605627832
 20
10.1851902719
 30
0.0
 10
10.6586709929
 20
10.1596394668
 30
0.0
 10
10.65490853
 20
10.1344237613
 30
0.0
 10
10.6492950713
 20
10.1096776763
 30
0.0
 10
10.6418607235
 20
10.085534383
 30
0.0
 10
10.6341723876
 20
10.0660038458
 30
0.0
 10
10.6271562784
 20
10.0508158694
 30
0.0
 10
10.6195846767
 20
10.0359580619
 30
0.0
 10
10.6090717951
 20
10.0179868224
 30
0.0
 10
10.5972068417
 20
10.0009067266
 30
0.0
 10
10.5869537133
 20
9.9878511628
 30
0.0
 10
10.5762115403
 20
9.9752216765
 30
0.0
 10
10.5676051551
 20
9.9662305665
 30
0.0
 10
10.5616465326
 20
9.9604749479
 30
0.0
  0
SPLINE
  5
34E
100
AcDbEntity
  8
0
100
AcDbSpline
 62
7
  6
CONTINUOUS
 70
0
 71
3
 72
39
 73
35
 74
0
 42
0.0000001
 43
0.0000001
 44
0.0000000001
 40
0.0
 40
0.0
 40
0.0
 40
0.0
 40
0.0311450437
 40
0.0624431125
 40
0.0938883331
 40
0.1254709822
 40
0.157178873
 40
0.1889972474
 40
0.2209091591
 40
0.2528958248
 40
0.2849370022
 40
0.3170113907
 40
0.3490970489
 40
0.3811718181
 40
0.4132137492
 40
0.4452015278
 40
0.4771148901
 40
0.5089350229
 40
0.5406449458
 40
0.5722298665
 40
0.6036774985
 40
0.6349783412
 40
0.6661259148
 40
0.6971169386
 40
0.7279514454
 40
0.7586328312
 40
0.789167835
 40
0.8195664378
 40
0.8498416821
 40
0.8800094162
 40
0.9100879636
 40
0.9400977212
 40
0.9700606965
 40
1.0
 40
1.0
 40
1.0
 40
1.0
 10
10.3084101768
 20
7.1260768218
 30
0.0
 10
10.3243313968
 20
7.1249726814
 30
0.0
 10
10.3561830917
 20
7.1215936091
 30
0.0
 10
10.4035744705
 20
7.113081614
 30
0.0
 10
10.4504582436
 20
7.1011589106
 30
0.0
 10
10.4965812194
 20
7.0858895608
 30
0.0
 10
10.5416983345
 20
7.0673553761
 30
0.0
 10
10.5855689374
 20
7.0456555493
 30
0.0
 10
10.6279593324
 20
7.0209060481
 30
0.0
 10
10.6686436278
 20
6.993238996
 30
0.0
 10
10.7074050381
 20
6.962801999
 30
0.0
 10
10.7440370554
 20
6.9297574293
 30
0.0
 10
10.7783444751
 20
6.894281466
 30
0.0
 10
10.8101444162
 20
6.8565631764
 30
0.0
 10
10.8392673166
 20
6.8168035536
 30
0.0
 10
10.8655578844
 20
6.7752144863
 30
0.0
 10
10.8888758307
 20
6.7320175716
 30
0.0
 10
10.9090966074
 20
6.6874429618
 30
0.0
 10
10.9261121245
 20
6.6417281854
 30
0.0
 10
10.9398313641
 20
6.5951168995
 30
0.0
 10
10.9501807744
 20
6.5478575706
 30
0.0
 10
10.9571046656
 20
6.5002021837
 30
0.0
 10
10.9605656008
 20
6.4524049337
 30
0.0
 10
10.9605446181
 20
6.4047208719
 30
0.0
 10
10.9570412659
 20
6.357404554
 30
0.0
 10
10.9500736279
 20
6.3107087077
 30
0.0
 10
10.939678361
 20
6.2648828796
 30
0.0
 10
10.9259104944
 20
6.2201720821
 30
0.0
 10
10.9088431218
 20
6.1768155161
 30
0.0
 10
10.8885669584
 20
6.1350452099
 30
0.0
 10
10.8651903002
 20
6.0950850051
 30
0.0
 10
10.8388372523
 20
6.0571482167
 30
0.0
 10
10.809651303
 20
6.0214406576
 30
0.0
 10
10.788400068
 20
5.9992399479
 30
0.0
 10
10.7773655625
 20
5.9885813974
 30
0.0
  0
SPLINE
  5
34F
100
AcDbEntity
  8
0
100
AcDbSpline
 62
7
  6
CONTINUOUS
 70
0
 71
3
 72
15
 73
11
 74
0
 42
0.0000001
 43
0.0000001
 44
0.0000000001
 40
0.0
 40
0.0
 40
0.0
 40
0.0
 40
0.125039277
 40
0.2500351895
 40
0.3749983219
 40
0.4999584562
 40
0.6249285245
 40
0.7499208684
 40
0.8749434602
 40
1.0
 40
1.0
 40
1.0
 40
1.0
 10
10.4612168065
 20
10.159863272
 30
0.0
 10
10.4653535912
 20
10.1595763851
 30
0.0
 10
10.4736460188
 20
10.1592614325
 30
0.0
 10
10.4860861686
 20
10.1595678595
 30
0.0
 10
10.498480701
 20
10.1606509569
 30
0.0
 10
10.5107826052
 20
10.1625043398
 30
0.0
 10
10.52294649
 20
10.1651186181
 30
0.0
 10
10.5349274007
 20
10.1684809024
 30
0.0
 10
10.5466808145
 20
10.1725750542
 30
0.0
 10
10.5543365484
 20
10.1757801409
 30
0.0
 10
10.5581115107
 20
10.17749761
 30
0.0
  0
SPLINE
  5
350
100
AcDbEntity
  8
0
100
AcDbSpline
 62
7
  6
CONTINUOUS
 70
0
 71
3
 72
15
 73
11
 74
0
 42
0.0000001
 43
0.0000001
 44
0.0000000001
 40
0.0
 40
0.0
 40
0.0
 40
0.0
 40
0.1273482888
 40
0.2538606703
 40
0.3795878487
 40
0.5046051206
 40
0.6290174369
 40
0.7529533749
 40
0.8765605786
 40
1.0
 40
1.0
 40
1.0
 40
1.0
 10
9.2097852371
 20
7.1827678134
 30
0.0
 10
9.2097852371
 20
7.174757253
 30
0.0
 10
9.2090203817
 20
7.1587776388
 30
0.0
 10
9.205561449
 20
7.1351155649
 30
0.0
 10
9.1998259386
 20
7.1120480269
 30
0.0
 10
9.1918656611
 20
7.089790765
 30
0.0
 10
9.1817536249
 20
7.0685490379
 30
0.0
 10
9.1695820778
 20
7.0485189698
 30
0.0
 10
9.1554654284
 20
7.029888247
 30
0.0
 10
9.1448363007
 20
7.0185075424
 30
0.0
 10
9.1392514994
 20
7.013113075
 30
0.0
  0
SPLINE
  5
351
100
AcDbEntity
  8
0
100
AcDbSpline
 62
7
  6
CONTINUOUS
 70
0
 71
3
 72
15
 73
11
 74
0
 42
0.0000001
 43
0.0000001
 44
0.0000000001
 40
0.0
 40
0.0
 40
0.0
 40
0.0
 40
0.1273482888
 40
0.2538606703
 40
0.3795878487
 40
0.5046051206
 40
0.6290174369
 40
0.7529533749
 40
0.8765605786
 40
1.0
 40
1.0
 40
1.0
 40
1.0
 10
11.9255824624
 20
6.9944266361
 30
0.0
 10
11.9255824624
 20
6.9864160757
 30
0.0
 10
11.924817607
 20
6.9704364616
 30
0.0
 10
11.9213586744
 20
6.9467743877
 30
0.0
 10
11.9156231639
 20
6.9237068496
 30
0.0
 10
11.9076628864
 20
6.9014495877
 30
0.0
 10
11.8975508502
 20
6.8802078607
 30
0.0
 10
11.8853793031
 20
6.8601777925
 30
0.0
 10
11.8712626537
 20
6.8415470698
 30
0.0
 10
11.860633526
 20
6.8301663651
 30
0.0
 10
11.8550487247
 20
6.8247718978
 30
0.0
  0
SPLINE
  5
352
100
AcDbEntity
  8
0
100
AcDbSpline
 62
7
  6
CONTINUOUS
 70
0
 71
3
 72
15
 73
11
 74
0
 42
0.0000001
 43
0.0000001
 44
0.0000000001
 40
0.0
 40
0.0
 40
0.0
 40
0.0
 40
0.1273482888
 40
0.2538606703
 40
0.3795878487
 40
0.5046051206
 40
0.6290174369
 40
0.7529533749
 40
0.8765605786
 40
1.0
 40
1.0
 40
1.0
 40
1.0
 10
9.2097852371
 20
5.9335359404
 30
0.0
 10
9.2097852371
 20
5.9255253799
 30
0.0
 10
9.2090203817
 20
5.9095457658
 30
0.0
 10
9.205561449
 20
5.8858836919
 30
0.0
 10
9.1998259386
 20
5.8628161539
 30
0.0
 10
9.1918656611
 20
5.840558892
 30
0.0
 10
9.1817536249
 20
5.8193171649
 30
0.0
 10
9.1695820778
 20
5.7992870967
 30
0.0
 10
9.1554654284
 20
5.780656374
 30
0.0
 10
9.1448363007
 20
5.7692756694
 30
0.0
 10
9.1392514994
 20
5.763881202
 30
0.0
  0
SPLINE
  5
353
100
AcDbEntity
  8
0
100
AcDbSpline
 62
7
  6
CONTINUOUS
 70
0
 71
3
 72
15
 73
11
 74
0
 42
0.0000001
 43
0.0000001
 44
0.0000000001
 40
0.0
 40
0.0
 40
0.0
 40
0.0
 40
0.1273482888
 40
0.2538606703
 40
0.3795878487
 40
0.5046051206
 40
0.6290174369
 40
0.7529533749
 40
0.8765605786
 40
1.0
 40
1.0
 40
1.0
 40
1.0
 10
11.9255824624
 20
5.7451947631
 30
0.0
 10
11.9255824624
 20
5.7371842027
 30
0.0
 10
11.924817607
 20
5.7212045885
 30
0.0
 10
11.9213586744
 20
5.6975425146
 30
0.0
 10
11.9156231639
 20
5.6744749766
 30
0.0
 10
11.9076628864
 20
5.6522177147
 30
0.0
 10
11.8975508502
 20
5.6309759876
 30
0.0
 10
11.8853793031
 20
5.6109459195
 30
0.0
 10
11.8712626537
 20
5.5923151967
 30
0.0
 10
11.860633526
 20
5.5809344921
 30
0.0
 10
11.8550487247
 20
5.5755400247
 30
0.0
  0
SPLINE
  5
354
100
AcDbEntity
  8
0
100
AcDbSpline
 62
7
  6
CONTINUOUS
 70
0
 71
3
 72
15
 73
11
 74
0
 42
0.0000001
 43
0.0000001
 44
0.0000000001
 40
0.0
 40
0.0
 40
0.0
 40
0.0
 40
0.1250755788
 40
0.24980823
 40
0.3743588309
 40
0.4988890346
 40
0.6235597204
 40
0.748530122
 40
0.8739580843
 40
1.0
 40
1.0
 40
1.0
 40
1.0
 10
10.8776305444
 20
6.7515562335
 30
0.0
 10
10.8685093517
 20
6.7585893131
 30
0.0
 10
10.8507303389
 20
6.7732148044
 30
0.0
 10
10.825480395
 20
6.7967141028
 30
0.0
 10
10.8016923673
 20
6.8216226382
 30
0.0
 10
10.7793578892
 20
6.8478325057
 30
0.0
 10
10.7584587893
 20
6.8752475585
 30
0.0
 10
10.738971467
 20
6.9037822952
 30
0.0
 10
10.7208689492
 20
6.9333609049
 30
0.0
 10
10.709734727
 20
6.9536769273
 30
0.0
 10
10.7043903511
 20
6.9639801212
 30
0.0
  0
SPLINE
  5
355
100
AcDbEntity
  8
0
100
AcDbSpline
 62
7
  6
CONTINUOUS
 70
0
 71
3
 72
15
 73
11
 74
0
 42
0.0000001
 43
0.0000001
 44
0.0000000001
 40
0.0
 40
0.0
 40
0.0
 40
0.0
 40
0.1538499092
 40
0.2971130603
 40
0.4305758223
 40
0.555616548
 40
0.6737204537
 40
0.7862911969
 40
0.8946294104
 40
1.0
 40
1.0
 40
1.0
 40
1.0
 10
9.7811648494
 20
11.1641178904
 30
0.0
 10
9.780422476
 20
11.1652847986
 30
0.0
 10
9.7790510058
 20
11.1675788433
 30
0.0
 10
9.7772699838
 20
11.1710181634
 30
0.0
 10
9.7758194113
 20
11.1743287489
 30
0.0
 10
9.7746786823
 20
11.1775193549
 30
0.0
 10
9.7738228424
 20
11.1806033845
 30
0.0
 10
9.7732287296
 20
11.1835955332
 30
0.0
 10
9.7728829751
 20
11.1865110983
 30
0.0
 10
9.7728077372
 20
11.1884330798
 30
0.0
 10
9.7728077372
 20
11.1893803113
 30
0.0
  0
SPLINE
  5
356
100
AcDbEntity
  8
0
100
AcDbSpline
 62
7
  6
CONTINUOUS
 70
0
 71
3
 72
56
 73
52
 74
0
 42
0.0000001
 43
0.0000001
 44
0.0000000001
 40
0.0
 40
0.0
 40
0.0
 40
0.0
 40
0.0073043253
 40
0.0150784613
 40
0.0233376392
 40
0.0320923182
 40
0.0413490407
 40
0.0511110274
 40
0.0613786655
 40
0.0721499775
 40
0.083420901
 40
0.0951855345
 40
0.1074364097
 40
0.120164618
 40
0.133359945
 40
0.1470110465
 40
0.1611055029
 40
0.1756299044
 40
0.1905699767
 40
0.205910602
 40
0.2216358829
 40
0.2377292384
 40
0.2541734112
 40
0.2709505221
 40
0.3054287525
 40
0.3410109761
 40
0.3775364688
 40
0.4148385422
 40
0.4527456898
 40
0.4910827193
 40
0.5296718356
 40
0.5683337261
 40
0.6068886445
 40
0.6451574833
 40
0.6829628615
 40
0.7201302
 40
0.7564888223
 40
0.7918730923
 40
0.8261235428
 40
0.8427760485
 40
0.8590887388
 40
0.8750439777
 40
0.8906247391
 40
0.9058147075
 40
0.9205982826
 40
0.934960635
 40
0.9488878588
 40
0.962366849
 40
0.9753855291
 40
0.9879334888
 40
1.0
 40
1.0
 40
1.0
 40
1.0
 10
11.6502037093
 20
11.1861592825
 30
0.0
 10
11.6469994109
 20
11.1831773512
 30
0.0
 10
11.6401674459
 20
11.1772524502
 30
0.0
 10
11.6290669547
 20
11.168734533
 30
0.0
 10
11.6168149958
 20
11.1603245718
 30
0.0
 10
11.6034269088
 20
11.1520327321
 30
0.0
 10
11.5889185272
 20
11.1438686028
 30
0.0
 10
11.5733074257
 20
11.135842038
 30
0.0
 10
11.5566125799
 20
11.1279627358
 30
0.0
 10
11.5388543726
 20
11.120240409
 30
0.0
 10
11.5200545874
 20
11.1126846089
 30
0.0
 10
11.5002363827
 20
11.1053046749
 30
0.0
 10
11.4794242066
 20
11.0981098274
 30
0.0
 10
11.4576437978
 20
11.0911090467
 30
0.0
 10
11.4349221461
 20
11.0843110414
 30
0.0
 10
11.4112874221
 20
11.0777243399
 30
0.0
 10
11.3867689652
 20
11.0713571816
 30
0.0
 10
11.3613972423
 20
11.0652175001
 30
0.0
 10
11.3352037844
 20
11.0593130062
 30
0.0
 10
11.3082211661
 20
11.0536510874
 30
0.0
 10
11.2804829586
 20
11.0482387963
 30
0.0
 10
11.2520236839
 20
11.0430829438
 30
0.0
 10
11.2228787305
 20
11.0381899318
 30
0.0
 10
11.1827885531
 20
11.0319681482
 30
0.0
 10
11.131226131
 20
11.0249128875
 30
0.0
 10
11.0677626051
 20
11.0176579253
 30
0.0
 10
11.0024763516
 20
11.0115761261
 30
0.0
 10
10.9356924642
 20
11.0066980834
 30
0.0
 10
10.8677432194
 20
11.0030483734
 30
0.0
 10
10.798966867
 20
11.0006453894
 30
0.0
 10
10.7297057897
 20
10.9995012414
 30
0.0
 10
10.6603048184
 20
10.9996216649
 30
0.0
 10
10.5911094855
 20
11.0010060663
 30
0.0
 10
10.52246429
 20
11.0036474895
 30
0.0
 10
10.4547109547
 20
11.007532607
 30
0.0
 10
10.3881867455
 20
11.0126418643
 30
0.0
 10
10.3232226256
 20
11.0189495117
 30
0.0
 10
10.2601420685
 20
11.0264237912
 30
0.0
 10
10.2089375264
 20
11.0336589719
 30
0.0
 10
10.1691630046
 20
11.0400212583
 30
0.0
 10
10.1402748416
 20
11.0450150943
 30
0.0
 10
10.1120859432
 20
11.0502693302
 30
0.0
 10
10.0846313629
 20
11.055777475
 30
0.0
 10
10.0579452685
 20
11.0615326
 30
0.0
 10
10.0320608528
 20
11.0675274986
 30
0.0
 10
10.0070102924
 20
11.073754706
 30
0.0
 10
9.9828247356
 20
11.0802064116
 30
0.0
 10
9.9595342677
 20
11.0868745057
 30
0.0
 10
9.9371675178
 20
11.0937507581
 30
0.0
 10
9.9157527143
 20
11.1008264747
 30
0.0
 10
9.9018531952
 20
11.1057684737
 30
0.0
 10
9.895070786
 20
11.1082754653
 30
0.0
  0
SPLINE
  5
357
100
AcDbEntity
  8
0
100
AcDbSpline
 62
7
  6
CONTINUOUS
 70
0
 71
3
 72
15
 73
11
 74
0
 42
0.0000001
 43
0.0000001
 44
0.0000000001
 40
0.0
 40
0.0
 40
0.0
 40
0.0
 40
0.1053377928
 40
0.2136472233
 40
0.3261958967
 40
0.4442873215
 40
0.569328472
 40
0.7028076918
 40
0.8461033419
 40
1.0
 40
1.0
 40
1.0
 40
1.0
 10
11.6304077372
 20
11.1893803113
 30
0.0
 10
11.6304077372
 20
11.1884319461
 30
0.0
 10
11.6303323168
 20
11.1865076179
 30
0.0
 10
11.629985715
 20
11.1835884454
 30
0.0
 10
11.6293901284
 20
11.1805924731
 30
0.0
 10
11.6285321301
 20
11.1775043447
 30
0.0
 10
11.6273884366
 20
11.1743093223
 30
0.0
 10
11.6259340305
 20
11.1709939741
 30
0.0
 10
11.6241482487
 20
11.1675495647
 30
0.0
 10
11.6227731248
 20
11.1652521726
 30
0.0
 10
11.6220287677
 20
11.1640835549
 30
0.0
  0
SPLINE
  5
358
100
AcDbEntity
  8
0
100
AcDbSpline
 62
7
  6
CONTINUOUS
 70
0
 71
3
 72
21
 73
17
 74
0
 42
0.0000001
 43
0.0000001
 44
0.0000000001
 40
0.0
 40
0.0
 40
0.0
 40
0.0
 40
0.0616532342
 40
0.1233294953
 40
0.1850515501
 40
0.2468416649
 40
0.3087213494
 40
0.3707111104
 40
0.4328302434
 40
0.4950966323
 40
0.5575265657
 40
0.6201345673
 40
0.682933156
 40
0.7459330948
 40
0.8725263949
 40
1.0
 40
1.0
 40
1.0
 40
1.0
 10
10.055173821
 20
10.4848091535
 30
0.0
 10
10.0592642769
 20
10.488760252
 30
0.0
 10
10.0676609844
 20
10.4964455156
 30
0.0
 10
10.0808600204
 20
10.5072819634
 30
0.0
 10
10.0946322002
 20
10.5174021567
 30
0.0
 10
10.108942356
 20
10.5267801574
 30
0.0
 10
10.1237545644
 20
10.53539245
 30
0.0
 10
10.1390314709
 20
10.5432173029
 30
0.0
 10
10.1547345606
 20
10.5502350906
 30
0.0
 10
10.170824256
 20
10.5564281713
 30
0.0
 10
10.1872600731
 20
10.5617809405
 30
0.0
 10
10.2040004728
 20
10.5662799492
 30
0.0
 10
10.2210037552
 20
10.5699139932
 30
0.0
 10
10.2440005818
 20
10.5735994017
 30
0.0
 10
10.2732028814
 20
10.5759936981
 30
0.0
 10
10.2966797785
 20
10.5755355411
 30
0.0
 10
10.3084101768
 20
10.5747220352
 30
0.0
  0
SPLINE
  5
359
100
AcDbEntity
  8
0
100
AcDbSpline
 62
7
  6
CONTINUOUS
 70
0
 71
3
 72
15
 73
11
 74
0
 42
0.0000001
 43
0.0000001
 44
0.0000000001
 40
0.0
 40
0.0
 40
0.0
 40
0.0
 40
0.123317125
 40
0.2468171892
 40
0.3706750004
 40
0.49504957
 40
0.620077358
 40
0.7458670408
 40
0.8724927714
 40
1.0
 40
1.0
 40
1.0
 40
1.0
 10
10.1875738187
 20
10.4250034171
 30
0.0
 10
10.192723825
 20
10.429977983
 30
0.0
 10
10.2035766049
 20
10.4393872945
 30
0.0
 10
10.2212893504
 20
10.4516827523
 30
0.0
 10
10.2402691701
 20
10.4620476369
 30
0.0
 10
10.2603217442
 20
10.4703755075
 30
0.0
 10
10.2812448396
 20
10.4765835803
 30
0.0
 10
10.3028276859
 20
10.4806098062
 30
0.0
 10
10.3248499564
 20
10.4824150255
 30
0.0
 10
10.3396323775
 20
10.4821266956
 30
0.0
 10
10.3470181586
 20
10.4816144899
 30
0.0
  0
SPLINE
  5
35A
100
AcDbEntity
  8
0
100
AcDbSpline
 62
7
  6
CONTINUOUS
 70
0
 71
3
 72
28
 73
24
 74
0
 42
0.0000001
 43
0.0000001
 44
0.0000000001
 40
0.0
 40
0.0
 40
0.0
 40
0.0
 40
0.0303196073
 40
0.0607518121
 40
0.0912992344
 40
0.1219630784
 40
0.1527431531
 40
0.1836378847
 40
0.2146443373
 40
0.2457582663
 40
0.2769741967
 40
0.3082854869
 40
0.3711408824
 40
0.4342730852
 40
0.4975967684
 40
0.5610182375
 40
0.6244395336
 40
0.6877627191
 40
0.7508941096
 40
0.8137484297
 40
0.8762526356
 40
0.9383489603
 40
1.0
 40
1.0
 40
1.0
 40
1.0
 10
10.5807907472
 20
10.1620674859
 30
0.0
 10
10.5816954805
 20
10.166856527
 30
0.0
 10
10.5832382425
 20
10.176505629
 30
0.0
 10
10.584743612
 20
10.1911114256
 30
0.0
 10
10.5854402733
 20
10.2058338492
 30
0.0
 10
10.5853261359
 20
10.2206280095
 30
0.0
 10
10.5844016451
 20
10.2354495867
 30
0.0
 10
10.5826695949
 20
10.2502539673
 30
0.0
 10
10.5801351947
 20
10.264996686
 30
0.0
 10
10.5768062323
 20
10.2796333123
 30
0.0
 10
10.5726925314
 20
10.2941203379
 30
0.0
 10
10.5661712132
 20
10.3131989793
 30
0.0
 10
10.55611805
 20
10.3364542594
 30
0.0
 10
10.5411899563
 20
10.3630326895
 30
0.0
 10
10.5235574333
 20
10.388012407
 30
0.0
 10
10.5034326756
 20
10.4110924212
 30
0.0
 10
10.481056548
 20
10.431997073
 30
0.0
 10
10.4566969071
 20
10.4504757732
 30
0.0
 10
10.4306451289
 20
10.466307045
 30
0.0
 10
10.403213148
 20
10.4793005245
 30
0.0
 10
10.3747280801
 20
10.4892998628
 30
0.0
 10
10.3455354957
 20
10.4961836621
 30
0.0
 10
10.325750564
 20
10.4986497424
 30
0.0
 10
10.3158641593
 20
10.4993353669
 30
0.0
  0
SPLINE
  5
35B
100
AcDbEntity
  8
0
100
AcDbSpline
 62
7
  6
CONTINUOUS
 70
0
 71
3
 72
41
 73
37
 74
0
 42
0.0000001
 43
0.0000001
 44
0.0000000001
 40
0.0
 40
0.0
 40
0.0
 40
0.0
 40
0.0299389659
 40
0.0449187283
 40
0.0599073279
 40
0.0899167462
 40
0.1199949536
 40
0.1350691146
 40
0.1501679548
 40
0.1804428543
 40
0.2108411101
 40
0.2413757651
 40
0.2720567992
 40
0.3028909513
 40
0.3338816189
 40
0.3650288355
 40
0.3963293195
 40
0.4277765915
 40
0.4593611526
 40
0.4910707163
 40
0.5228904894
 40
0.5548034918
 40
0.5867909105
 40
0.6188324809
 40
0.6509068884
 40
0.6829921843
 40
0.71506621
 40
0.7471070243
 40
0.7790933285
 40
0.8110048776
 40
0.8428228985
 40
0.8745304119
 40
0.9061127676
 40
0.9375574502
 40
0.9688556269
 40
1.0
 40
1.0
 40
1.0
 40
1.0
 10
10.5064624986
 20
10.0948655822
 30
0.0
 10
10.5102142264
 20
10.0984895034
 30
0.0
 10
10.5156331413
 20
10.104150518
 30
0.0
 10
10.5223967633
 20
10.1121024193
 30
0.0
 10
10.5288525115
 20
10.120322557
 30
0.0
 10
10.5363230941
 20
10.1310766848
 30
0.0
 10
10.5429423926
 20
10.1423918952
 30
0.0
 10
10.5477097319
 20
10.1517468167
 30
0.0
 10
10.5521273491
 20
10.161309608
 30
0.0
 10
10.5569682059
 20
10.1736066201
 30
0.0
 10
10.5616491641
 20
10.1888079617
 30
0.0
 10
10.5651836296
 20
10.2043888459
 30
0.0
 10
10.5675526507
 20
10.2202654218
 30
0.0
 10
10.5687438368
 20
10.2363529912
 30
0.0
 10
10.5687510049
 20
10.2525655886
 30
0.0
 10
10.5675743132
 20
10.2688166743
 30
0.0
 10
10.5652202214
 20
10.2850195288
 30
0.0
 10
10.5617014572
 20
10.301087728
 30
0.0
 10
10.5570369403
 20
10.3169355936
 30
0.0
 10
10.5512516787
 20
10.332478645
 30
0.0
 10
10.544376632
 20
10.3476340436
 30
0.0
 10
10.5364485453
 20
10.3623210279
 30
0.0
 10
10.5275097545
 20
10.3764613389
 30
0.0
 10
10.5176079617
 20
10.3899796333
 30
0.0
 10
10.5067959798
 20
10.4028038789
 30
0.0
 10
10.4951314545
 20
10.4148657343
 30
0.0
 10
10.4826765586
 20
10.4261009093
 30
0.0
 10
10.4694976649
 20
10.4364495048
 30
0.0
 10
10.4556649954
 20
10.4458563261
 30
0.0
 10
10.441252251
 20
10.454271184
 30
0.0
 10
10.4263362305
 20
10.4616491359
 30
0.0
 10
10.4109963893
 20
10.4679507859
 30
0.0
 10
10.3953145778
 20
10.4731423536
 30
0.0
 10
10.3793740303
 20
10.4771961499
 30
0.0
 10
10.3632609366
 20
10.4800901754
 30
0.0
 10
10.3524313251
 20
10.4812390856
 30
0.0
 10
10.3470181586
 20
10.4816144899
 30
0.0
  0
SPLINE
  5
35C
100
AcDbEntity
  8
0
100
AcDbSpline
 62
7
  6
CONTINUOUS
 70
0
 71
3
 72
34
 73
30
 74
0
 42
0.0000001
 43
0.0000001
 44
0.0000000001
 40
0.0
 40
0.0
 40
0.0
 40
0.0
 40
0.0292162356
 40
0.0586994241
 40
0.0884654779
 40
0.1185222735
 40
0.1488697317
 40
0.1795001434
 40
0.2415186415
 40
0.3044213052
 40
0.3679654615
 40
0.3999081137
 40
0.4319135181
 40
0.4639518103
 40
0.4959957543
 40
0.5599823614
 40
0.6237472147
 40
0.6555290038
 40
0.6872255142
 40
0.718833762
 40
0.7503536852
 40
0.7817878435
 40
0.8131410204
 40
0.8444197784
 40
0.8756320673
 40
0.9067869529
 40
0.9378931313
 40
0.968961964
 40
1.0
 40
1.0
 40
1.0
 40
1.0
 10
10.2745157589
 20
10.4743236826
 30
0.0
 10
10.272846286
 20
10.4705512846
 30
0.0
 10
10.2697425375
 20
10.4628584872
 30
0.0
 10
10.265827501
 20
10.4509880444
 30
0.0
 10
10.2626458576
 20
10.4387773169
 30
0.0
 10
10.2602093792
 20
10.4262725127
 30
0.0
 10
10.2585269502
 20
10.413520799
 30
0.0
 10
10.2572923875
 20
10.3961891615
 30
0.0
 10
10.2576819636
 20
10.3741744316
 30
0.0
 10
10.2611875779
 20
10.3477412844
 30
0.0
 10
10.2665892284
 20
10.3259872358
 30
0.0
 10
10.272355533
 20
10.3089262157
 30
0.0
 10
10.277397648
 20
10.2963381718
 30
0.0
 10
10.2831317102
 20
10.2840340994
 30
0.0
 10
10.2916682672
 20
10.2680839401
 30
0.0
 10
10.3039621994
 20
10.2491046626
 30
0.0
 10
10.3183033982
 20
10.2316649458
 30
0.0
 10
10.3308879094
 20
10.2188297471
 30
0.0
 10
10.3408426256
 20
10.2098083658
 30
0.0
 10
10.3512906117
 20
10.2014223979
 30
0.0
 10
10.3621988081
 20
10.1937078936
 30
0.0
 10
10.3735313678
 20
10.1866993678
 30
0.0
 10
10.3852500178
 20
10.1804288738
 30
0.0
 10
10.397313852
 20
10.1749258692
 30
0.0
 10
10.4096793766
 20
10.1702167059
 30
0.0
 10
10.422300435
 20
10.1663244305
 30
0.0
 10
10.4351289849
 20
10.1632679744
 30
0.0
 10
10.4481136832
 20
10.1610627379
 30
0.0
 10
10.4568447679
 20
10.1601664739
 30
0.0
 10
10.4612168065
 20
10.159863272
 30
0.0
  0
SPLINE
  5
35D
100
AcDbEntity
  8
0
100
AcDbSpline
 62
7
  6
CONTINUOUS
 70
0
 71
3
 72
41
 73
37
 74
0
 42
0.0000001
 43
0.0000001
 44
0.0000000001
 40
0.0
 40
0.0
 40
0.0
 40
0.0
 40
0.0299421207
 40
0.0449237678
 40
0.059914515
 40
0.0899291702
 40
0.1200145975
 40
0.1350933607
 40
0.1501974781
 40
0.1804849759
 40
0.210898965
 40
0.2414525847
 40
0.2721557502
 40
0.3030149724
 40
0.3340332622
 40
0.3652101173
 40
0.3965415863
 40
0.428020404
 40
0.4596361919
 40
0.4913757156
 40
0.5232231916
 40
0.5551606357
 40
0.5871682465
 40
0.6192248153
 40
0.651308157
 40
0.6833955539
 40
0.7154642081
 40
0.747491694
 40
0.779456406
 40
0.8113379944
 40
0.8431177853
 40
0.8747791687
 40
0.9063079764
 40
0.9376927595
 40
0.9689251765
 40
1.0
 40
1.0
 40
1.0
 40
1.0
 10
8.7778443301
 20
7.3872692867
 30
0.0
 10
8.7821593166
 20
7.3914372154
 30
0.0
 10
8.7888860814
 20
7.397436621
 30
0.0
 10
8.7983068044
 20
7.4048805551
 30
0.0
 10
8.8080275493
 20
7.4119540482
 30
0.0
 10
8.8207115093
 20
7.4200767441
 30
0.0
 10
8.8340121965
 20
7.4271817347
 30
0.0
 10
8.8449817997
 20
7.4322362824
 30
0.0
 10
8.8561780337
 20
7.4368735131
 30
0.0
 10
8.8705422753
 20
7.4418599063
 30
0.0
 10
8.8882440444
 20
7.4465070982
 30
0.0
 10
8.9063320735
 20
7.449799304
 30
0.0
 10
8.9247061245
 20
7.4517183525
 30
0.0
 10
8.9432652636
 20
7.4522540044
 30
0.0
 10
8.9619073728
 20
7.4514035328
 30
0.0
 10
8.9805299905
 20
7.4491718505
 30
0.0
 10
8.9990307931
 20
7.4455714388
 30
0.0
 10
9.0173081714
 20
7.4406222797
 30
0.0
 10
9.0352617755
 20
7.4343517367
 30
0.0
 10
9.0527930599
 20
7.4267944011
 30
0.0
 10
9.0698058155
 20
7.4179918993
 30
0.0
 10
9.0862066913
 20
7.4079926632
 30
0.0
 10
9.101905699
 20
7.3968516646
 30
0.0
 10
9.1168167009
 20
7.3846301146
 30
0.0
 10
9.1308578769
 20
7.3713951305
 30
0.0
 10
9.1439521683
 20
7.35721937
 30
0.0
 10
9.1560276963
 20
7.3421806364
 30
0.0
 10
9.167018153
 20
7.3263614558
 30
0.0
 10
9.1768631612
 20
7.3098486298
 30
0.0
 10
9.1855086051
 20
7.292732762
 30
0.0
 10
9.1929069229
 20
7.2751077779
 30
0.0
 10
9.1990173736
 20
7.2570703735
 30
0.0
 10
9.2038062481
 20
7.2387196536
 30
0.0
 10
9.2072470822
 20
7.2201559933
 30
0.0
 10
9.2093207657
 20
7.2014827112
 30
0.0
 10
9.2097852371
 20
7.1889939908
 30
0.0
 10
9.2097852371
 20
7.1827678134
 30
0.0
  0
SPLINE
  5
35E
100
AcDbEntity
  8
0
100
AcDbSpline
 62
7
  6
CONTINUOUS
 70
0
 71
3
 72
41
 73
37
 74
0
 42
0.0000001
 43
0.0000001
 44
0.0000000001
 40
0.0
 40
0.0
 40
0.0
 40
0.0
 40
0.0299421207
 40
0.0449237678
 40
0.059914515
 40
0.0899291702
 40
0.1200145975
 40
0.1350933607
 40
0.1501974781
 40
0.1804849759
 40
0.210898965
 40
0.2414525847
 40
0.2721557502
 40
0.3030149724
 40
0.3340332622
 40
0.3652101173
 40
0.3965415863
 40
0.428020404
 40
0.4596361919
 40
0.4913757156
 40
0.5232231916
 40
0.5551606357
 40
0.5871682465
 40
0.6192248153
 40
0.651308157
 40
0.6833955539
 40
0.7154642081
 40
0.747491694
 40
0.779456406
 40
0.8113379944
 40
0.8431177853
 40
0.8747791687
 40
0.9063079764
 40
0.9376927595
 40
0.9689251765
 40
1.0
 40
1.0
 40
1.0
 40
1.0
 10
11.4936415554
 20
7.1989281094
 30
0.0
 10
11.4979565419
 20
7.2030960381
 30
0.0
 10
11.5046833067
 20
7.2090954437
 30
0.0
 10
11.5141040297
 20
7.2165393779
 30
0.0
 10
11.5238247746
 20
7.2236128709
 30
0.0
 10
11.5365087346
 20
7.2317355669
 30
0.0
 10
11.5498094218
 20
7.2388405574
 30
0.0
 10
11.560779025
 20
7.2438951052
 30
0.0
 10
11.571975259
 20
7.2485323358
 30
0.0
 10
11.5863395006
 20
7.253518729
 30
0.0
 10
11.6040412697
 20
7.2581659209
 30
0.0
 10
11.6221292988
 20
7.2614581267
 30
0.0
 10
11.6405033498
 20
7.2633771753
 30
0.0
 10
11.6590624889
 20
7.2639128272
 30
0.0
 10
11.6777045981
 20
7.2630623555
 30
0.0
 10
11.6963272158
 20
7.2608306732
 30
0.0
 10
11.7148280184
 20
7.2572302616
 30
0.0
 10
11.7331053967
 20
7.2522811024
 30
0.0
 10
11.7510590008
 20
7.2460105594
 30
0.0
 10
11.7685902852
 20
7.2384532238
 30
0.0
 10
11.7856030408
 20
7.2296507221
 30
0.0
 10
11.8020039166
 20
7.219651486
 30
0.0
 10
11.8177029243
 20
7.2085104873
 30
0.0
 10
11.8326139262
 20
7.1962889373
 30
0.0
 10
11.8466551022
 20
7.1830539532
 30
0.0
 10
11.8597493936
 20
7.1688781927
 30
0.0
 10
11.8718249216
 20
7.1538394591
 30
0.0
 10
11.8828153783
 20
7.1380202785
 30
0.0
 10
11.8926603865
 20
7.1215074526
 30
0.0
 10
11.9013058304
 20
7.1043915847
 30
0.0
 10
11.9087041483
 20
7.0867666007
 30
0.0
 10
11.9148145989
 20
7.0687291962
 30
0.0
 10
11.9196034734
 20
7.0503784763
 30
0.0
 10
11.9230443075
 20
7.0318148161
 30
0.0
 10
11.925117991
 20
7.013141534
 30
0.0
 10
11.9255824624
 20
7.0006528135
 30
0.0
 10
11.9255824624
 20
6.9944266361
 30
0.0
  0
SPLINE
  5
35F
100
AcDbEntity
  8
0
100
AcDbSpline
 62
7
  6
CONTINUOUS
 70
0
 71
3
 72
41
 73
37
 74
0
 42
0.0000001
 43
0.0000001
 44
0.0000000001
 40
0.0
 40
0.0
 40
0.0
 40
0.0
 40
0.0299421207
 40
0.0449237678
 40
0.059914515
 40
0.0899291702
 40
0.1200145975
 40
0.1350933607
 40
0.1501974781
 40
0.1804849759
 40
0.210898965
 40
0.2414525847
 40
0.2721557502
 40
0.3030149724
 40
0.3340332622
 40
0.3652101173
 40
0.3965415863
 40
0.428020404
 40
0.4596361919
 40
0.4913757156
 40
0.5232231916
 40
0.5551606357
 40
0.5871682465
 40
0.6192248153
 40
0.651308157
 40
0.6833955539
 40
0.7154642081
 40
0.747491694
 40
0.779456406
 40
0.8113379944
 40
0.8431177853
 40
0.8747791687
 40
0.9063079764
 40
0.9376927595
 40
0.9689251765
 40
1.0
 40
1.0
 40
1.0
 40
1.0
 10
8.7778443301
 20
6.1380374137
 30
0.0
 10
8.7821593166
 20
6.1422053424
 30
0.0
 10
8.7888860814
 20
6.148204748
 30
0.0
 10
8.7983068044
 20
6.1556486821
 30
0.0
 10
8.8080275493
 20
6.1627221751
 30
0.0
 10
8.8207115093
 20
6.1708448711
 30
0.0
 10
8.8340121965
 20
6.1779498617
 30
0.0
 10
8.8449817997
 20
6.1830044094
 30
0.0
 10
8.8561780337
 20
6.1876416401
 30
0.0
 10
8.8705422753
 20
6.1926280333
 30
0.0
 10
8.8882440444
 20
6.1972752252
 30
0.0
 10
8.9063320735
 20
6.200567431
 30
0.0
 10
8.9247061245
 20
6.2024864795
 30
0.0
 10
8.9432652636
 20
6.2030221314
 30
0.0
 10
8.9619073728
 20
6.2021716598
 30
0.0
 10
8.9805299905
 20
6.1999399775
 30
0.0
 10
8.9990307931
 20
6.1963395658
 30
0.0
 10
9.0173081714
 20
6.1913904067
 30
0.0
 10
9.0352617755
 20
6.1851198636
 30
0.0
 10
9.0527930599
 20
6.1775625281
 30
0.0
 10
9.0698058155
 20
6.1687600263
 30
0.0
 10
9.0862066913
 20
6.1587607902
 30
0.0
 10
9.101905699
 20
6.1476197915
 30
0.0
 10
9.1168167009
 20
6.1353982415
 30
0.0
 10
9.1308578769
 20
6.1221632574
 30
0.0
 10
9.1439521683
 20
6.1079874969
 30
0.0
 10
9.1560276963
 20
6.0929487634
 30
0.0
 10
9.167018153
 20
6.0771295828
 30
0.0
 10
9.1768631612
 20
6.0606167568
 30
0.0
 10
9.1855086051
 20
6.0435008889
 30
0.0
 10
9.1929069229
 20
6.0258759049
 30
0.0
 10
9.1990173736
 20
6.0078385004
 30
0.0
 10
9.2038062481
 20
5.9894877805
 30
0.0
 10
9.2072470822
 20
5.9709241203
 30
0.0
 10
9.2093207657
 20
5.9522508382
 30
0.0
 10
9.2097852371
 20
5.9397621178
 30
0.0
 10
9.2097852371
 20
5.9335359404
 30
0.0
  0
SPLINE
  5
360
100
AcDbEntity
  8
0
100
AcDbSpline
 62
7
  6
CONTINUOUS
 70
0
 71
3
 72
41
 73
37
 74
0
 42
0.0000001
 43
0.0000001
 44
0.0000000001
 40
0.0
 40
0.0
 40
0.0
 40
0.0
 40
0.0299421207
 40
0.0449237678
 40
0.059914515
 40
0.0899291702
 40
0.1200145975
 40
0.1350933607
 40
0.1501974781
 40
0.1804849759
 40
0.210898965
 40
0.2414525847
 40
0.2721557502
 40
0.3030149724
 40
0.3340332622
 40
0.3652101173
 40
0.3965415863
 40
0.428020404
 40
0.4596361919
 40
0.4913757156
 40
0.5232231916
 40
0.5551606357
 40
0.5871682465
 40
0.6192248153
 40
0.651308157
 40
0.6833955539
 40
0.7154642081
 40
0.747491694
 40
0.779456406
 40
0.8113379944
 40
0.8431177853
 40
0.8747791687
 40
0.9063079764
 40
0.9376927595
 40
0.9689251765
 40
1.0
 40
1.0
 40
1.0
 40
1.0
 10
11.4936415554
 20
5.9496962364
 30
0.0
 10
11.4979565419
 20
5.9538641651
 30
0.0
 10
11.5046833067
 20
5.9598635707
 30
0.0
 10
11.5141040297
 20
5.9673075048
 30
0.0
 10
11.5238247746
 20
5.9743809979
 30
0.0
 10
11.5365087346
 20
5.9825036938
 30
0.0
 10
11.5498094218
 20
5.9896086844
 30
0.0
 10
11.560779025
 20
5.9946632321
 30
0.0
 10
11.571975259
 20
5.9993004628
 30
0.0
 10
11.5863395006
 20
6.004286856
 30
0.0
 10
11.6040412697
 20
6.0089340479
 30
0.0
 10
11.6221292988
 20
6.0122262537
 30
0.0
 10
11.6405033498
 20
6.0141453022
 30
0.0
 10
11.6590624889
 20
6.0146809541
 30
0.0
 10
11.6777045981
 20
6.0138304825
 30
0.0
 10
11.6963272158
 20
6.0115988002
 30
0.0
 10
11.7148280184
 20
6.0079983885
 30
0.0
 10
11.7331053967
 20
6.0030492294
 30
0.0
 10
11.7510590008
 20
5.9967786864
 30
0.0
 10
11.7685902852
 20
5.9892213508
 30
0.0
 10
11.7856030408
 20
5.980418849
 30
0.0
 10
11.8020039166
 20
5.9704196129
 30
0.0
 10
11.8177029243
 20
5.9592786143
 30
0.0
 10
11.8326139262
 20
5.9470570643
 30
0.0
 10
11.8466551022
 20
5.9338220802
 30
0.0
 10
11.8597493936
 20
5.9196463197
 30
0.0
 10
11.8718249216
 20
5.9046075861
 30
0.0
 10
11.8828153783
 20
5.8887884055
 30
0.0
 10
11.8926603865
 20
5.8722755795
 30
0.0
 10
11.9013058304
 20
5.8551597117
 30
0.0
 10
11.9087041483
 20
5.8375347276
 30
0.0
 10
11.9148145989
 20
5.8194973232
 30
0.0
 10
11.9196034734
 20
5.8011466033
 30
0.0
 10
11.9230443075
 20
5.7825829431
 30
0.0
 10
11.925117991
 20
5.7639096609
 30
0.0
 10
11.9255824624
 20
5.7514209405
 30
0.0
 10
11.9255824624
 20
5.7451947631
 30
0.0
  0
SPLINE
  5
361
100
AcDbEntity
  8
0
100
AcDbSpline
 62
7
  6
CONTINUOUS
 70
0
 71
3
 72
23
 73
19
 74
0
 42
0.0000001
 43
0.0000001
 44
0.0000000001
 40
0.0
 40
0.0
 40
0.0
 40
0.0
 40
0.0616482117
 40
0.1233194496
 40
0.1850364829
 40
0.24682157
 40
0.3086962136
 40
0.370680925
 40
0.4327950024
 40
0.4950563275
 40
0.5574811782
 40
0.6200840647
 40
0.6828776055
 40
0.7458723192
 40
0.8090769012
 40
0.8724969623
 40
0.9361381423
 40
1.0
 40
1.0
 40
1.0
 40
1.0
 10
9.8394547911
 20
6.9595723034
 30
0.0
 10
9.8470296993
 20
6.966889128
 30
0.0
 10
9.8625791787
 20
6.9811210029
 30
0.0
 10
9.8870217842
 20
7.0011884492
 30
0.0
 10
9.9125257938
 20
7.0199294682
 30
0.0
 10
9.9390260732
 20
7.0372960209
 30
0.0
 10
9.9664560589
 20
7.0532446161
 30
0.0
 10
9.9947465592
 20
7.0677350572
 30
0.0
 10
10.0238262983
 20
7.0807309092
 30
0.0
 10
10.0536219987
 20
7.0921994901
 30
0.0
 10
10.0840585941
 20
7.1021119768
 30
0.0
 10
10.1150594138
 20
7.1104434804
 30
0.0
 10
10.1465463607
 20
7.1171730979
 30
0.0
 10
10.1784401862
 20
7.1222840134
 30
0.0
 10
10.2106604343
 20
7.1257633649
 30
0.0
 10
10.2431264592
 20
7.1276026306
 30
0.0
 10
10.275755265
 20
7.1277971054
 30
0.0
 10
10.2975265246
 20
7.1268316056
 30
0.0
 10
10.3084101768
 20
7.1260768218
 30
0.0
  0
SPLINE
  5
362
100
AcDbEntity
  8
0
100
AcDbSpline
 62
7
  6
CONTINUOUS
 70
0
 71
3
 72
52
 73
48
 74
0
 42
0.0000001
 43
0.0000001
 44
0.0000000001
 40
0.0
 40
0.0
 40
0.0
 40
0.0
 40
0.0075207873
 40
0.0156240748
 40
0.0243309529
 40
0.0336547391
 40
0.0436025679
 40
0.0541765786
 40
0.065374636
 40
0.077191272
 40
0.0896178407
 40
0.1026433446
 40
0.1162543061
 40
0.1304354547
 40
0.1451695561
 40
0.1604378873
 40
0.1924937381
 40
0.2264269084
 40
0.2620418408
 40
0.2991277201
 40
0.3374609684
 40
0.3768075371
 40
0.4169250699
 40
0.457564995
 40
0.4984745754
 40
0.5393989378
 40
0.5800830919
 40
0.6202739491
 40
0.6597223498
 40
0.6981851106
 40
0.735427111
 40
0.7712234494
 40
0.8053617116
 40
0.8376444357
 40
0.8678919106
 40
0.8822027385
 40
0.8959471899
 40
0.9091095745
 40
0.9216759428
 40
0.9336347059
 40
0.9449766504
 40
0.9556955458
 40
0.9657884116
 40
0.9752561589
 40
0.9841050448
 40
0.9923470874
 40
1.0
 40
1.0
 40
1.0
 40
1.0
 10
12.6245372045
 20
6.4764807126
 30
0.0
 10
12.6237435152
 20
6.4774565844
 30
0.0
 10
12.6221796822
 20
6.4795539233
 30
0.0
 10
12.6199789625
 20
6.4829800562
 30
0.0
 10
12.6178410851
 20
6.4867952579
 30
0.0
 10
12.6157694286
 20
6.490993273
 30
0.0
 10
12.6137671157
 20
6.4955675709
 30
0.0
 10
12.6118374049
 20
6.5005108263
 30
0.0
 10
12.6099833681
 20
6.5058150576
 30
0.0
 10
12.6082081465
 20
6.5114716505
 30
0.0
 10
12.6065145945
 20
6.5174713424
 30
0.0
 10
12.6049056348
 20
6.5238042891
 30
0.0
 10
12.6033838672
 20
6.5304600529
 30
0.0
 10
12.6019519287
 20
6.5374276453
 30
0.0
 10
12.6006121254
 20
6.5446955557
 30
0.0
 10
12.5989242847
 20
6.5549374306
 30
0.0
 10
12.597075347
 20
6.5684045224
 30
0.0
 10
12.5952890483
 20
6.5853064142
 30
0.0
 10
12.5939132377
 20
6.6030904157
 30
0.0
 10
12.5929573479
 20
6.6216385876
 30
0.0
 10
12.5924280463
 20
6.6408280437
 30
0.0
 10
12.5923290678
 20
6.6605314749
 30
0.0
 10
12.5926612379
 20
6.6806181218
 30
0.0
 10
12.5934224646
 20
6.7009546365
 30
0.0
 10
12.5946077604
 20
6.7214059916
 30
0.0
 10
12.5962092781
 20
6.7418363873
 30
0.0
 10
12.5982163654
 20
6.7621101653
 30
0.0
 10
12.6006156347
 20
6.7820927207
 30
0.0
 10
12.6033910511
 20
6.8016514096
 30
0.0
 10
12.6065240364
 20
6.8206564426
 30
0.0
 10
12.609993585
 20
6.8389817796
 30
0.0
 10
12.6137764058
 20
6.8565059592
 30
0.0
 10
12.6178470422
 20
6.8731130803
 30
0.0
 10
12.622178143
 20
6.8886931819
 30
0.0
 10
12.626048154
 20
6.9009521514
 30
0.0
 10
12.6292662
 20
6.9101579039
 30
0.0
 10
12.6316818977
 20
6.9166152597
 30
0.0
 10
12.6341403014
 20
6.922743238
 30
0.0
 10
12.636637442
 20
6.9285317326
 30
0.0
 10
12.639169091
 20
6.9339712502
 30
0.0
 10
12.6417311122
 20
6.9390528855
 30
0.0
 10
12.6443192731
 20
6.943768365
 30
0.0
 10
12.6469293386
 20
6.9481100633
 30
0.0
 10
12.64955712
 20
6.9520710229
 30
0.0
 10
12.6521986105
 20
6.9556451273
 30
0.0
 10
12.6548495887
 20
6.9588263188
 30
0.0
 10
12.6566870191
 20
6.9607515568
 30
0.0
 10
12.6576076513
 20
6.9616408192
 30
0.0
  0
SPLINE
  5
363
100
AcDbEntity
  8
0
100
AcDbSpline
 62
7
  6
CONTINUOUS
 70
0
 71
3
 72
15
 73
11
 74
0
 42
0.0000001
 43
0.0000001
 44
0.0000000001
 40
0.0
 40
0.0
 40
0.0
 40
0.0
 40
0.1273482888
 40
0.2538606703
 40
0.3795878487
 40
0.5046051206
 40
0.6290174369
 40
0.7529533749
 40
0.8765605786
 40
1.0
 40
1.0
 40
1.0
 40
1.0
 10
11.4231078178
 20
7.0292733711
 30
0.0
 10
11.4231078178
 20
7.0372839315
 30
0.0
 10
11.4238726731
 20
7.0532635456
 30
0.0
 10
11.4273316058
 20
7.0769256195
 30
0.0
 10
11.4330671162
 20
7.0999931576
 30
0.0
 10
11.4410273938
 20
7.1222504194
 30
0.0
 10
11.45113943
 20
7.1434921465
 30
0.0
 10
11.463310977
 20
7.1635222147
 30
0.0
 10
11.4774276264
 20
7.1821529374
 30
0.0
 10
11.4880567541
 20
7.193533642
 30
0.0
 10
11.4936415554
 20
7.1989281094
 30
0.0
  0
SPLINE
  5
364
100
AcDbEntity
  8
0
100
AcDbSpline
 62
7
  6
CONTINUOUS
 70
0
 71
3
 72
39
 73
35
 74
0
 42
0.0000001
 43
0.0000001
 44
0.0000000001
 40
0.0
 40
0.0
 40
0.0
 40
0.0
 40
0.0311450437
 40
0.0624431125
 40
0.0938883331
 40
0.1254709822
 40
0.157178873
 40
0.1889972474
 40
0.2209091591
 40
0.2528958248
 40
0.2849370022
 40
0.3170113907
 40
0.3490970489
 40
0.3811718181
 40
0.4132137492
 40
0.4452015278
 40
0.4771148901
 40
0.5089350229
 40
0.5406449458
 40
0.5722298665
 40
0.6036774985
 40
0.6349783412
 40
0.6661259148
 40
0.6971169386
 40
0.7279514454
 40
0.7586328312
 40
0.789167835
 40
0.8195664378
 40
0.8498416821
 40
0.8800094162
 40
0.9100879636
 40
0.9400977212
 40
0.9700606965
 40
1.0
 40
1.0
 40
1.0
 40
1.0
 10
10.3084101768
 20
5.822076879
 30
0.0
 10
10.2924889568
 20
5.8231810194
 30
0.0
 10
10.2606372619
 20
5.8265600918
 30
0.0
 10
10.2132458831
 20
5.8350720868
 30
0.0
 10
10.16636211
 20
5.8469947902
 30
0.0
 10
10.1202391342
 20
5.8622641401
 30
0.0
 10
10.0751220191
 20
5.8807983248
 30
0.0
 10
10.0312514162
 20
5.9024981515
 30
0.0
 10
9.9888610212
 20
5.9272476527
 30
0.0
 10
9.9481767258
 20
5.9549147048
 30
0.0
 10
9.9094153155
 20
5.9853517019
 30
0.0
 10
9.8727832982
 20
6.0183962716
 30
0.0
 10
9.8384758785
 20
6.0538722348
 30
0.0
 10
9.8066759373
 20
6.0915905244
 30
0.0
 10
9.777553037
 20
6.1313501473
 30
0.0
 10
9.7512624692
 20
6.1729392145
 30
0.0
 10
9.7279445228
 20
6.2161361292
 30
0.0
 10
9.7077237462
 20
6.260710739
 30
0.0
 10
9.6907082291
 20
6.3064255154
 30
0.0
 10
9.6769889895
 20
6.3530368014
 30
0.0
 10
9.6666395792
 20
6.4002961303
 30
0.0
 10
9.659715688
 20
6.4479515171
 30
0.0
 10
9.6562547527
 20
6.4957487671
 30
0.0
 10
9.6562757354
 20
6.543432829
 30
0.0
 10
9.6597790877
 20
6.5907491469
 30
0.0
 10
9.6667467257
 20
6.6374449931
 30
0.0
 10
9.6771419926
 20
6.6832708213
 30
0.0
 10
9.6909098592
 20
6.7279816188
 30
0.0
 10
9.7079772318
 20
6.7713381848
 30
0.0
 10
9.7282533951
 20
6.8131084909
 30
0.0
 10
9.7516300534
 20
6.8530686957
 30
0.0
 10
9.7779831013
 20
6.8910054841
 30
0.0
 10
9.8071690506
 20
6.9267130433
 30
0.0
 10
9.8284202856
 20
6.948913753
 30
0.0
 10
9.8394547911
 20
6.9595723034
 30
0.0
  0
SPLINE
  5
365
100
AcDbEntity
  8
0
100
AcDbSpline
 62
7
  6
CONTINUOUS
 70
0
 71
3
 72
64
 73
60
 74
0
 42
0.0000001
 43
0.0000001
 44
0.0000000001
 40
0.0
 40
0.0
 40
0.0
 40
0.0
 40
0.0026858099
 40
0.0053861777
 40
0.0081154087
 40
0.0108873176
 40
0.0137150191
 40
0.0166108026
 40
0.0226481837
 40
0.0290813289
 40
0.035973086
 40
0.0433720553
 40
0.0513147002
 40
0.0598274249
 40
0.0689284439
 40
0.0786293408
 40
0.088936264
 40
0.0998508384
 40
0.1113709446
 40
0.1234912973
 40
0.1362038543
 40
0.1494981791
 40
0.1633617573
 40
0.1777802132
 40
0.1927374645
 40
0.208215922
 40
0.2241966316
 40
0.2406593619
 40
0.2575827097
 40
0.2749442232
 40
0.2927204758
 40
0.3108871173
 40
0.3294189765
 40
0.3482901358
 40
0.3674739769
 40
0.406669489
 40
0.4467818214
 40
0.4875794376
 40
0.5288255793
 40
0.5702800825
 40
0.6117012174
 40
0.6528475059
 40
0.6934795423
 40
0.7333618151
 40
0.7722645845
 40
0.7912792396
 40
0.8099664513
 40
0.8282999777
 40
0.8462542922
 40
0.8638046765
 40
0.8809272889
 40
0.8975992197
 40
0.9137985788
 40
0.9295046041
 40
0.9446977829
 40
0.9593598599
 40
0.9734739396
 40
0.9870254376
 40
1.0
 40
1.0
 40
1.0
 40
1.0
 10
9.7728077393
 20
11.1893803113
 30
0.0
 10
9.7728077447
 20
11.1909656444
 30
0.0
 10
9.7729295679
 20
11.1941462289
 30
0.0
 10
9.7734769989
 20
11.1989094347
 30
0.0
 10
9.7743889776
 20
11.2036683708
 30
0.0
 10
9.7756648537
 20
11.208420448
 30
0.0
 10
9.7773037701
 20
11.2131638799
 30
0.0
 10
9.7800088374
 20
11.219561988
 30
0.0
 10
9.7843475072
 20
11.2275552126
 30
0.0
 10
9.7909146208
 20
11.2369339176
 30
0.0
 10
9.798899242
 20
11.2462242677
 30
0.0
 10
9.8082865087
 20
11.2554150579
 30
0.0
 10
9.8190617739
 20
11.2644961953
 30
0.0
 10
9.8312088484
 20
11.2734561612
 30
0.0
 10
9.8447097735
 20
11.2822829117
 30
0.0
 10
9.8595445299
 20
11.2909638597
 30
0.0
 10
9.8756909236
 20
11.2994861884
 30
0.0
 10
9.8931245326
 20
11.3078370737
 30
0.0
 10
9.9118188051
 20
11.316003729
 30
0.0
 10
9.9317451099
 20
11.3239735008
 30
0.0
 10
9.9528727616
 20
11.3317339934
 30
0.0
 10
9.9751690982
 20
11.3392731031
 30
0.0
 10
9.9985995801
 20
11.3465790143
 30
0.0
 10
10.0231278392
 20
11.3536402456
 30
0.0
 10
10.0487157243
 20
11.3604457364
 30
0.0
 10
10.0753233978
 20
11.3669848019
 30
0.0
 10
10.1029094122
 20
11.3732471508
 30
0.0
 10
10.1314307563
 20
11.3792229443
 30
0.0
 10
10.1608429288
 20
11.3849028133
 30
0.0
 10
10.1911000325
 20
11.3902778308
 30
0.0
 10
10.2221548389
 20
11.3953395334
 30
0.0
 10
10.2539588539
 20
11.4000799943
 30
0.0
 10
10.2864623909
 20
11.404491765
 30
0.0
 10
10.3196147279
 20
11.408567949
 30
0.0
 10
10.3649371829
 20
11.4135824469
 30
0.0
 10
10.4228305325
 20
11.4189491426
 30
0.0
 10
10.4935553435
 20
11.4239188342
 30
0.0
 10
10.5655793027
 20
11.427431592
 30
0.0
 10
10.6384525027
 20
11.4294651821
 30
0.0
 10
10.7117200496
 20
11.4300067506
 30
0.0
 10
10.7849244563
 20
11.4290528532
 30
0.0
 10
10.857608635
 20
11.4266095205
 30
0.0
 10
10.9293188895
 20
11.4226922726
 30
0.0
 10
10.9996072885
 20
11.4173257981
 30
0.0
 10
11.0570591077
 20
11.4116323163
 30
0.0
 10
11.1019686025
 20
11.406360957
 30
0.0
 10
11.1347693473
 20
11.4020987808
 30
0.0
 10
11.1668931536
 20
11.3975047909
 30
0.0
 10
11.198289885
 20
11.3925861337
 30
0.0
 10
11.2289105004
 20
11.3873505497
 30
0.0
 10
11.2587072027
 20
11.3818062739
 30
0.0
 10
11.2876334798
 20
11.375962009
 30
0.0
 10
11.315644187
 20
11.369826915
 30
0.0
 10
11.3426956595
 20
11.3634106565
 30
0.0
 10
11.3687457404
 20
11.3567233079
 30
0.0
 10
11.3937537591
 20
11.3497753755
 30
0.0
 10
11.417681125
 20
11.3425777286
 30
0.0
 10
11.4404900997
 20
11.3351417336
 30
0.0
 10
11.4552526567
 20
11.3299181317
 30
0.0
 10
11.4624360381
 20
11.3272629282
 30
0.0
  0
SPLINE
  5
366
100
AcDbEntity
  8
0
100
AcDbSpline
 62
7
  6
CONTINUOUS
 70
0
 71
3
 72
11
 73
7
 74
0
 42
0.0000001
 43
0.0000001
 44
0.0000000001
 40
0.0
 40
0.0
 40
0.0
 40
0.0
 40
0.242185331
 40
0.4900050667
 40
0.7428267334
 40
1.0
 40
1.0
 40
1.0
 40
1.0
 10
10.2615487564
 20
10.4333707543
 30
0.0
 10
10.2761960147
 20
10.4354103554
 30
0.0
 10
10.3058680779
 20
10.4392768088
 30
0.0
 10
10.3509395941
 20
10.4443947907
 30
0.0
 10
10.3969972311
 20
10.4488881411
 30
0.0
 10
10.4280357968
 20
10.4514392642
 30
0.0
 10
10.4436958263
 20
10.4526108171
 30
0.0
  0
SPLINE
  5
367
100
AcDbEntity
  8
0
100
AcDbSpline
 62
7
  6
CONTINUOUS
 70
0
 71
3
 72
11
 73
7
 74
0
 42
0.0000001
 43
0.0000001
 44
0.0000000001
 40
0.0
 40
0.0
 40
0.0
 40
0.0
 40
0.2401026036
 40
0.4874201939
 40
0.7410359262
 40
1.0
 40
1.0
 40
1.0
 40
1.0
 10
10.2589168201
 20
10.4169576685
 30
0.0
 10
10.2752943536
 20
10.4194446582
 30
0.0
 10
10.3085982335
 20
10.4241261858
 30
0.0
 10
10.3593641158
 20
10.4302099563
 30
0.0
 10
10.4115326296
 20
10.4354424977
 30
0.0
 10
10.4467816063
 20
10.4383225341
 30
0.0
 10
10.4646009773
 20
10.439620593
 30
0.0
  0
SPLINE
  5
368
100
AcDbEntity
  8
0
100
AcDbSpline
 62
7
  6
CONTINUOUS
 70
0
 71
3
 72
42
 73
38
 74
0
 42
0.0000001
 43
0.0000001
 44
0.0000000001
 40
0.0
 40
0.0
 40
0.0
 40
0.0
 40
0.0311444822
 40
0.0467771409
 40
0.0624471084
 40
0.0938918288
 40
0.125473946
 40
0.1571813221
 40
0.1889991721
 40
0.2209105603
 40
0.2528967007
 40
0.2849373517
 40
0.3170112137
 40
0.3490963459
 40
0.3811705896
 40
0.4132119965
 40
0.4451992522
 40
0.4771120925
 40
0.5089317052
 40
0.5406411103
 40
0.5722255148
 40
0.6036726323
 40
0.6349729635
 40
0.6661200289
 40
0.6971105466
 40
0.7279445496
 40
0.7586254353
 40
0.7891599419
 40
0.8195580492
 40
0.8498327998
 40
0.8649315645
 40
0.8800056518
 40
0.9100837089
 40
0.9400929761
 40
0.9550815025
 40
0.9700611869
 40
1.0
 40
1.0
 40
1.0
 40
1.0
 10
10.3084101768
 20
9.8705620662
 30
0.0
 10
10.2998127389
 20
9.8711583005
 30
0.0
 10
10.2869263368
 20
9.8725254661
 30
0.0
 10
10.269863579
 20
9.8752729161
 30
0.0
 10
10.2528279175
 20
9.8786459481
 30
0.0
 10
10.2317039539
 20
9.8840177891
 30
0.0
 10
10.2067979849
 20
9.8922631588
 30
0.0
 10
10.1824346468
 20
9.9022716152
 30
0.0
 10
10.1587445661
 20
9.9139894995
 30
0.0
 10
10.1358537634
 20
9.9273542194
 30
0.0
 10
10.1138842621
 20
9.9422944109
 30
0.0
 10
10.0929531016
 20
9.9587303554
 30
0.0
 10
10.0731718151
 20
9.9765743937
 30
0.0
 10
10.0546458161
 20
9.9957313915
 30
0.0
 10
10.0374738494
 20
10.0160992412
 30
0.0
 10
10.0217474688
 20
10.0375694013
 30
0.0
 10
10.007550553
 20
10.0600274683
 30
0.0
 10
9.9949588625
 20
10.0833537797
 30
0.0
 10
9.9840396362
 20
10.1074240437
 30
0.0
 10
9.9748512345
 20
10.1321099934
 30
0.0
 10
9.9674428295
 20
10.157280063
 30
0.0
 10
9.96185414
 20
10.1828000786
 30
0.0
 10
9.9581152161
 20
10.2085339638
 30
0.0
 10
9.9562462728
 20
10.2343444576
 30
0.0
 10
9.9562575704
 20
10.2600938295
 30
0.0
 10
9.9581493607
 20
10.2856446345
 30
0.0
 10
9.9619118236
 20
10.3108603401
 30
0.0
 10
9.9675252823
 20
10.3356064251
 30
0.0
 10
9.9749596301
 20
10.3597497184
 30
0.0
 10
9.982647966
 20
10.3792802556
 30
0.0
 10
9.9896640751
 20
10.3944682319
 30
0.0
 10
9.9972356769
 20
10.4093260395
 30
0.0
 10
10.0077485585
 20
10.427297279
 30
0.0
 10
10.0196135119
 20
10.4443773748
 30
0.0
 10
10.0298666403
 20
10.4574329386
 30
0.0
 10
10.0406088133
 20
10.4700624249
 30
0.0
 10
10.0492151984
 20
10.4790535349
 30
0.0
 10
10.055173821
 20
10.4848091535
 30
0.0
  0
SPLINE
  5
369
100
AcDbEntity
  8
0
100
AcDbSpline
 62
7
  6
CONTINUOUS
 70
0
 71
3
 72
11
 73
7
 74
0
 42
0.0000001
 43
0.0000001
 44
0.0000000001
 40
0.0
 40
0.0
 40
0.0
 40
0.0
 40
0.2386808307
 40
0.4857443602
 40
0.7399483642
 40
1.0
 40
1.0
 40
1.0
 40
1.0
 10
10.2575566316
 20
10.3900983103
 30
0.0
 10
10.2762632275
 20
10.3930114476
 30
0.0
 10
10.3144121153
 20
10.3984435764
 30
0.0
 10
10.3727031457
 20
10.4053375186
 30
0.0
 10
10.4328204757
 20
10.4110923443
 30
0.0
 10
10.4735020379
 20
10.4141186922
 30
0.0
 10
10.4940867795
 20
10.415441315
 30
0.0
  0
SPLINE
  5
36A
100
AcDbEntity
  8
0
100
AcDbSpline
 62
7
  6
CONTINUOUS
 70
0
 71
3
 72
11
 73
7
 74
0
 42
0.0000001
 43
0.0000001
 44
0.0000000001
 40
0.0
 40
0.0
 40
0.0
 40
0.0
 40
0.2409156246
 40
0.4887719265
 40
0.7422523674
 40
1.0
 40
1.0
 40
1.0
 40
1.0
 10
10.319256081
 20
10.2310410906
 30
0.0
 10
10.3391743068
 20
10.2335950683
 30
0.0
 10
10.3796493865
 20
10.2382819038
 30
0.0
 10
10.441258384
 20
10.2440077806
 30
0.0
 10
10.5043754964
 20
10.2485077315
 30
0.0
 10
10.546937581
 20
10.2506587291
 30
0.0
 10
10.5684042844
 20
10.2515284415
 30
0.0
  0
SPLINE
  5
36B
100
AcDbEntity
  8
0
100
AcDbSpline
 62
7
  6
CONTINUOUS
 70
0
 71
3
 72
15
 73
11
 74
0
 42
0.0000001
 43
0.0000001
 44
0.0000000001
 40
0.0
 40
0.0
 40
0.0
 40
0.0
 40
0.1273482888
 40
0.2538606703
 40
0.3795878487
 40
0.5046051206
 40
0.6290174369
 40
0.7529533749
 40
0.8765605786
 40
1.0
 40
1.0
 40
1.0
 40
1.0
 10
8.7073105925
 20
5.9683826753
 30
0.0
 10
8.7073105925
 20
5.9763932357
 30
0.0
 10
8.7080754478
 20
5.9923728499
 30
0.0
 10
8.7115343805
 20
6.0160349238
 30
0.0
 10
8.7172698909
 20
6.0391024618
 30
0.0
 10
8.7252301685
 20
6.0613597237
 30
0.0
 10
8.7353422047
 20
6.0826014508
 30
0.0
 10
8.7475137517
 20
6.1026315189
 30
0.0
 10
8.7616304011
 20
6.1212622417
 30
0.0
 10
8.7722595288
 20
6.1326429463
 30
0.0
 10
8.7778443301
 20
6.1380374137
 30
0.0
  0
SPLINE
  5
36C
100
AcDbEntity
  8
0
100
AcDbSpline
 62
7
  6
CONTINUOUS
 70
0
 71
3
 72
11
 73
7
 74
0
 42
0.0000001
 43
0.0000001
 44
0.0000000001
 40
0.0
 40
0.0
 40
0.0
 40
0.0
 40
0.243562172
 40
0.491944008
 40
0.7443581383
 40
1.0
 40
1.0
 40
1.0
 40
1.0
 10
10.3796001543
 20
10.1836485025
 30
0.0
 10
10.394479258
 20
10.185298434
 30
0.0
 10
10.4245623849
 20
10.1883613306
 30
0.0
 10
10.4701525308
 20
10.1922212158
 30
0.0
 10
10.5165405528
 20
10.1953830729
 30
0.0
 10
10.547726829
 20
10.1970097232
 30
0.0
 10
10.563424149
 20
10.1977063478
 30
0.0
  0
SPLINE
  5
36D
100
AcDbEntity
  8
0
100
AcDbSpline
 62
7
  6
CONTINUOUS
 70
0
 71
3
 72
15
 73
11
 74
0
 42
0.0000001
 43
0.0000001
 44
0.0000000001
 40
0.0
 40
0.0
 40
0.0
 40
0.0
 40
0.1273482888
 40
0.2538606703
 40
0.3795878487
 40
0.5046051206
 40
0.6290174369
 40
0.7529533749
 40
0.8765605786
 40
1.0
 40
1.0
 40
1.0
 40
1.0
 10
11.4231078178
 20
5.780041498
 30
0.0
 10
11.4231078178
 20
5.7880520585
 30
0.0
 10
11.4238726731
 20
5.8040316726
 30
0.0
 10
11.4273316058
 20
5.8276937465
 30
0.0
 10
11.4330671162
 20
5.8507612845
 30
0.0
 10
11.4410273938
 20
5.8730185464
 30
0.0
 10
11.45113943
 20
5.8942602735
 30
0.0
 10
11.463310977
 20
5.9142903417
 30
0.0
 10
11.4774276264
 20
5.9329210644
 30
0.0
 10
11.4880567541
 20
5.944301769
 30
0.0
 10
11.4936415554
 20
5.9496962364
 30
0.0
  0
SPLINE
  5
36E
100
AcDbEntity
  8
0
100
AcDbSpline
 62
7
  6
CONTINUOUS
 70
0
 71
3
 72
82
 73
78
 74
0
 42
0.0000001
 43
0.0000001
 44
0.0000000001
 40
0.0
 40
0.0
 40
0.0
 40
0.0
 40
0.0039532977
 40
0.007753719
 40
0.0114080621
 40
0.0149242813
 40
0.0183115528
 40
0.0215804397
 40
0.0247428961
 40
0.0278123537
 40
0.0308036793
 40
0.0337330749
 40
0.0366179235
 40
0.0394764941
 40
0.0423276194
 40
0.0451902901
 40
0.0480832509
 40
0.0510246028
 40
0.0540314972
 40
0.0571198555
 40
0.063594285
 40
0.0670085954
 40
0.0705539537
 40
0.0742392549
 40
0.0780721998
 40
0.0820593492
 40
0.0862062497
 40
0.0905175693
 40
0.094997122
 40
0.0996480489
 40
0.1044728104
 40
0.1094733082
 40
0.1146509444
 40
0.1200066227
 40
0.1255408839
 40
0.1371447107
 40
0.149460349
 40
0.1624804427
 40
0.1761937761
 40
0.1905858214
 40
0.2056391639
 40
0.2213338401
 40
0.237647612
 40
0.2545561915
 40
0.2720334336
 40
0.2900515134
 40
0.3085810758
 40
0.3275913698
 40
0.3470503708
 40
0.3669248913
 40
0.3871806943
 40
0.4077826004
 40
0.428694588
 40
0.4498798899
 40
0.4713010871
 40
0.4929202019
 40
0.5365973319
 40
0.5806006121
 40
0.624615597
 40
0.6683277359
 40
0.7114252744
 40
0.732648022
 40
0.7536029805
 40
0.7742532791
 40
0.7945627778
 40
0.8144961635
 40
0.8340190528
 40
0.8530981
 40
0.8717011013
 40
0.8897971061
 40
0.9073565421
 40
0.9243513446
 40
0.9407551054
 40
0.956543296
 40
0.9716932093
 40
0.9861848989
 40
1.0
 40
1.0
 40
1.0
 40
1.0
 10
9.7530119277
 20
11.1861591297
 30
0.0
 10
9.7511244378
 20
11.1879156322
 30
0.0
 10
9.7474931615
 20
11.1914379042
 30
0.0
 10
9.7423928878
 20
11.1968588399
 30
0.0
 10
9.737751349
 20
11.202308624
 30
0.0
 10
9.7335709348
 20
11.2077847407
 30
0.0
 10
9.729853917
 20
11.2132849672
 30
0.0
 10
9.7266022475
 20
11.2188068358
 30
0.0
 10
9.7238179773
 20
11.2243479966
 30
0.0
 10
9.721502913
 20
11.2299058935
 30
0.0
 10
9.719658706
 20
11.2354778388
 30
0.0
 10
9.7182869917
 20
11.2410609935
 30
0.0
 10
9.7173888328
 20
11.2466522207
 30
0.0
 10
9.7169652727
 20
11.2522482588
 30
0.0
 10
9.7170166326
 20
11.2578456547
 30
0.0
 10
9.7175428762
 20
11.2634409399
 30
0.0
 10
9.7185435583
 20
11.2690307006
 30
0.0
 10
9.7200175282
 20
11.2746116494
 30
0.0
 10
9.7219638151
 20
11.280180952
 30
0.0
 10
9.725236795
 20
11.2877039015
 30
0.0
 10
9.7294349763
 20
11.295086652
 30
0.0
 10
9.7344356436
 20
11.3022848126
 30
0.0
 10
9.7387162069
 20
11.3077558269
 30
0.0
 10
9.7434570874
 20
11.3131994654
 30
0.0
 10
9.7486563687
 20
11.3186139765
 30
0.0
 10
9.7543113872
 20
11.3239968373
 30
0.0
 10
9.760419451
 20
11.3293457541
 30
0.0
 10
9.7669777102
 20
11.3346582386
 30
0.0
 10
9.7739830045
 20
11.3399319895
 30
0.0
 10
9.7814320925
 20
11.3451644952
 30
0.0
 10
9.789321427
 20
11.3503533952
 30
0.0
 10
9.7976472955
 20
11.3554962687
 30
0.0
 10
9.8064057806
 20
11.3605906452
 30
0.0
 10
9.8155927197
 20
11.3656342627
 30
0.0
 10
9.8286138212
 20
11.3723949791
 30
0.0
 10
9.8459507738
 20
11.3806821317
 30
0.0
 10
9.8680732793
 20
11.3902353893
 30
0.0
 10
9.8917893403
 20
11.3995302094
 30
0.0
 10
9.9170538798
 20
11.4085488004
 30
0.0
 10
9.9438192216
 20
11.4172738951
 30
0.0
 10
9.9720345356
 20
11.4256887164
 30
0.0
 10
10.0016461622
 20
11.4337770638
 30
0.0
 10
10.0325976761
 20
11.441523346
 30
0.0
 10
10.0648300204
 20
11.4489126292
 30
0.0
 10
10.0982816286
 20
11.4559306729
 30
0.0
 10
10.1328885614
 20
11.4625639485
 30
0.0
 10
10.16858464
 20
11.4687996697
 30
0.0
 10
10.2053015776
 20
11.4746258173
 30
0.0
 10
10.2429691107
 20
11.4800311599
 30
0.0
 10
10.2815151332
 20
11.4850052876
 30
0.0
 10
10.3208658421
 20
11.4895386241
 30
0.0
 10
10.3609458829
 20
11.4936224399
 30
0.0
 10
10.4016785047
 20
11.4972488746
 30
0.0
 10
10.4429856775
 20
11.5004109326
 30
0.0
 10
10.4847883468
 20
11.5031025678
 30
0.0
 10
10.5412691365
 20
11.5060670518
 30
0.0
 10
10.6125181937
 20
11.5085549862
 30
0.0
 10
10.6984112262
 20
11.5095977039
 30
0.0
 10
10.7843290573
 20
11.5086992096
 30
0.0
 10
10.8696136209
 20
11.5058665151
 30
0.0
 10
10.9399678753
 20
11.5018927362
 30
0.0
 10
10.9954312623
 20
11.4977484619
 30
0.0
 10
11.0362542937
 20
11.4941906048
 30
0.0
 10
11.0764362192
 20
11.4901743117
 30
0.0
 10
11.1159001482
 20
11.485707263
 30
0.0
 10
11.15457049
 20
11.4807980701
 30
0.0
 10
11.1923732077
 20
11.4754561815
 30
0.0
 10
11.2292359379
 20
11.4696918938
 30
0.0
 10
11.2650881362
 20
11.4635163148
 30
0.0
 10
11.2998612104
 20
11.4569413461
 30
0.0
 10
11.3334886556
 20
11.44997966
 30
0.0
 10
11.3659061817
 20
11.4426446705
 30
0.0
 10
11.3970519002
 20
11.434950524
 30
0.0
 10
11.4268662693
 20
11.4269120543
 30
0.0
 10
11.4552927529
 20
11.4185447398
 30
0.0
 10
11.4822766773
 20
11.4098647622
 30
0.0
 10
11.4996932943
 20
11.4037318815
 30
0.0
 10
11.5081446884
 20
11.4006079806
 30
0.0
  0
SPLINE
  5
36F
100
AcDbEntity
  8
0
100
AcDbSpline
 62
7
  6
CONTINUOUS
 70
0
 71
3
 72
76
 73
72
 74
0
 42
0.0000001
 43
0.0000001
 44
0.0000000001
 40
0.0
 40
0.0
 40
0.0
 40
0.0
 40
0.0065123951
 40
0.0096141631
 40
0.0126281228
 40
0.0155680056
 40
0.0184487223
 40
0.0212862269
 40
0.0240972962
 40
0.0268992212
 40
0.0297094828
 40
0.0325453894
 40
0.0354237497
 40
0.0383605554
 40
0.0413707797
 40
0.047661992
 40
0.0509700017
 40
0.054398824
 40
0.0579571712
 40
0.0616526293
 40
0.0654917055
 40
0.0694800032
 40
0.0736222367
 40
0.0779223547
 40
0.0823836498
 40
0.0870087472
 40
0.0917997656
 40
0.0967583155
 40
0.1071815101
 40
0.1182839397
 40
0.1300650641
 40
0.1425199485
 40
0.155639945
 40
0.1694132372
 40
0.1838252519
 40
0.198858975
 40
0.214495208
 40
0.2307128107
 40
0.2474888895
 40
0.2647989508
 40
0.2826170247
 40
0.3009158077
 40
0.319666782
 40
0.3388403174
 40
0.3584057568
 40
0.3783315154
 40
0.3985851798
 40
0.4191335925
 40
0.4609780534
 40
0.5035885452
 40
0.5466812322
 40
0.5899680777
 40
0.6331593743
 40
0.6759662384
 40
0.7181031147
 40
0.7388329733
 40
0.7592910638
 40
0.7794437607
 40
0.7992581255
 40
0.8187020044
 40
0.8377441077
 40
0.856354094
 40
0.8745026635
 40
0.8921616738
 40
0.90930425
 40
0.9259048742
 40
0.9419395407
 40
0.9573859152
 40
0.9722232989
 40
0.9864336862
 40
1.0
 40
1.0
 40
1.0
 40
1.0
 10
9.7798638358
 20
11.1648930927
 30
0.0
 10
9.7775703135
 20
11.1681453181
 30
0.0
 10
9.7744402374
 20
11.1731399393
 30
0.0
 10
9.7710043845
 20
11.1800546755
 30
0.0
 10
9.768886808
 20
11.1851724422
 30
0.0
 10
9.7671888625
 20
11.1903022937
 30
0.0
 10
9.76591165
 20
11.1954421036
 30
0.0
 10
9.7650563477
 20
11.2005891615
 30
0.0
 10
9.7646235363
 20
11.2057406684
 30
0.0
 10
9.7646137761
 20
11.2108937278
 30
0.0
 10
9.7650269933
 20
11.2160453687
 30
0.0
 10
9.7658627756
 20
11.2211927109
 30
0.0
 10
9.7671204894
 20
11.2263328549
 30
0.0
 10
9.7687990821
 20
11.2314634384
 30
0.0
 10
9.7716376194
 20
11.2383881486
 30
0.0
 10
9.7753042387
 20
11.2451948324
 30
0.0
 10
9.7796940498
 20
11.2518396188
 30
0.0
 10
9.7834553073
 20
11.2568870216
 30
0.0
 10
9.7876276896
 20
11.2619110012
 30
0.0
 10
9.7922095649
 20
11.2669100698
 30
0.0
 10
9.7971986607
 20
11.2718821062
 30
0.0
 10
9.8025928313
 20
11.2768250168
 30
0.0
 10
9.8083896225
 20
11.2817367649
 30
0.0
 10
9.8145864568
 20
11.2866152986
 30
0.0
 10
9.8211806469
 20
11.2914584553
 30
0.0
 10
9.8281692184
 20
11.2962642235
 30
0.0
 10
9.8355491357
 20
11.3010305111
 30
0.0
 10
9.8460823734
 20
11.3074368683
 30
0.0
 10
9.8602281492
 20
11.3153131899
 30
0.0
 10
9.8784350895
 20
11.3244226468
 30
0.0
 10
9.8981147075
 20
11.3333252015
 30
0.0
 10
9.9192321115
 20
11.3420050263
 30
0.0
 10
9.9417502481
 20
11.3504467071
 30
0.0
 10
9.9656292445
 20
11.3586351132
 30
0.0
 10
9.9908267343
 20
11.3665555234
 30
0.0
 10
10.0172978725
 20
11.3741936659
 30
0.0
 10
10.0449954476
 20
11.3815357858
 30
0.0
 10
10.0738699953
 20
11.3885686393
 30
0.0
 10
10.1038699074
 20
11.3952795338
 30
0.0
 10
10.1349415204
 20
11.4016563465
 30
0.0
 10
10.1670292077
 20
11.4076875831
 30
0.0
 10
10.2000754964
 20
11.4133623676
 30
0.0
 10
10.2340211855
 20
11.4186704634
 30
0.0
 10
10.2688054474
 20
11.4236022854
 30
0.0
 10
10.3043659355
 20
11.4281489473
 30
0.0
 10
10.3406388784
 20
11.4323022497
 30
0.0
 10
10.3775592934
 20
11.4360547548
 30
0.0
 10
10.4278643763
 20
11.4405414609
 30
0.0
 10
10.4918753283
 20
11.4450852994
 30
0.0
 10
10.5697341215
 20
11.4488202994
 30
0.0
 10
10.6485379748
 20
11.4508424668
 30
0.0
 10
10.7277219636
 20
11.4511372254
 30
0.0
 10
10.8067189406
 20
11.4497023688
 30
0.0
 10
10.8849625893
 20
11.4465483169
 30
0.0
 10
10.9494160764
 20
11.4424849305
 30
0.0
 10
11.0001694008
 20
11.4383778872
 30
0.0
 10
11.0374930024
 20
11.4349023588
 30
0.0
 10
11.0742141078
 20
11.4310213414
 30
0.0
 10
11.1102669225
 20
11.4267417728
 30
0.0
 10
11.1455867945
 20
11.4220713893
 30
0.0
 10
11.1801104162
 20
11.4170186122
 30
0.0
 10
11.2137759063
 20
11.4115925526
 30
0.0
 10
11.2465229323
 20
11.4058029839
 30
0.0
 10
11.2782928345
 20
11.3996603539
 30
0.0
 10
11.3090287277
 20
11.3931757523
 30
0.0
 10
11.3386756034
 20
11.3863608833
 30
0.0
 10
11.3671804503
 20
11.3792280319
 30
0.0
 10
11.3944922139
 20
11.3717900664
 30
0.0
 10
11.4205624749
 20
11.3640603958
 30
0.0
 10
11.4453441738
 20
11.3560530053
 30
0.0
 10
11.4613540045
 20
11.3504063178
 30
0.0
 10
11.4691299189
 20
11.3475320955
 30
0.0
  0
SPLINE
  5
370
100
AcDbEntity
  8
0
100
AcDbSpline
 62
7
  6
CONTINUOUS
 70
0
 71
3
 72
23
 73
19
 74
0
 42
0.0000001
 43
0.0000001
 44
0.0000000001
 40
0.0
 40
0.0
 40
0.0
 40
0.0
 40
0.0755928687
 40
0.1466377249
 40
0.2134665492
 40
0.2765155287
 40
0.3363267959
 40
0.3935471461
 40
0.4489239134
 40
0.5032891329
 40
0.5575270071
 40
0.6125283945
 40
0.6691442933
 40
0.7281498607
 40
0.7902201918
 40
0.8559241498
 40
0.9257269949
 40
1.0
 40
1.0
 40
1.0
 40
1.0
 10
12.6576076513
 20
6.4748141739
 30
0.0
 10
12.6569073159
 20
6.4741377019
 30
0.0
 10
12.6555075083
 20
6.4728670496
 30
0.0
 10
12.6533411676
 20
6.471169466
 30
0.0
 10
12.6511773224
 20
6.4697437017
 30
0.0
 10
12.6490180287
 20
6.4685919717
 30
0.0
 10
12.6468650958
 20
6.4677163455
 30
0.0
 10
12.6447207092
 20
6.4671189634
 30
0.0
 10
12.6425876814
 20
6.4668018299
 30
0.0
 10
12.6404695646
 20
6.466766636
 30
0.0
 10
12.6383704326
 20
6.4670137017
 30
0.0
 10
12.6362943791
 20
6.4675424933
 30
0.0
 10
12.6342448732
 20
6.4683510223
 30
0.0
 10
12.6322247005
 20
6.4694371069
 30
0.0
 10
12.630235847
 20
6.470798139
 30
0.0
 10
12.6282799506
 20
6.472431819
 30
0.0
 10
12.6263585979
 20
6.4743357259
 30
0.0
 10
12.6251408528
 20
6.4757385035
 30
0.0
 10
12.6245372045
 20
6.4764807126
 30
0.0
  0
SPLINE
  5
371
100
AcDbEntity
  8
0
100
AcDbSpline
 62
7
  6
CONTINUOUS
 70
0
 71
3
 72
26
 73
22
 74
0
 42
0.0000001
 43
0.0000001
 44
0.0000000001
 40
0.0
 40
0.0
 40
0.0
 40
0.0
 40
0.020082923
 40
0.0402673647
 40
0.0606531578
 40
0.0813369997
 40
0.1024109763
 40
0.1239616384
 40
0.1687881442
 40
0.2164009069
 40
0.267254581
 40
0.3217057972
 40
0.3800261422
 40
0.4424163368
 40
0.5090190093
 40
0.579928885
 40
0.655201719
 40
0.7348603821
 40
0.8189002204
 40
0.9072983332
 40
1.0
 40
1.0
 40
1.0
 40
1.0
 10
11.6304077351
 20
11.1893803113
 30
0.0
 10
11.6304077403
 20
11.1909109095
 30
0.0
 10
11.6302942265
 20
11.1939810377
 30
0.0
 10
11.6297840371
 20
11.1985793431
 30
0.0
 10
11.6289341566
 20
11.2031738646
 30
0.0
 10
11.6277450293
 20
11.2077622691
 30
0.0
 10
11.626217385
 20
11.2123429416
 30
0.0
 10
11.6236978605
 20
11.2185177352
 30
0.0
 10
11.6196574343
 20
11.2262341761
 30
0.0
 10
11.6135347798
 20
11.2353003995
 30
0.0
 10
11.6060879591
 20
11.2442867949
 30
0.0
 10
11.5973301836
 20
11.2531830157
 30
0.0
 10
11.5872745094
 20
11.2619799676
 30
0.0
 10
11.575935174
 20
11.2706673024
 30
0.0
 10
11.5633278367
 20
11.27923415
 30
0.0
 10
11.5494699664
 20
11.2876692357
 30
0.0
 10
11.5343809179
 20
11.2959610504
 30
0.0
 10
11.5180819833
 20
11.3040979526
 30
0.0
 10
11.5005960134
 20
11.3120685056
 30
0.0
 10
11.4819483969
 20
11.3198609815
 30
0.0
 10
11.4690629738
 20
11.3248134046
 30
0.0
 10
11.4624360381
 20
11.3272629282
 30
0.0
  0
SPLINE
  5
372
100
AcDbEntity
  8
0
100
AcDbSpline
 62
7
  6
CONTINUOUS
 70
0
 71
3
 72
47
 73
43
 74
0
 42
0.0000001
 43
0.0000001
 44
0.0000000001
 40
0.0
 40
0.0
 40
0.0
 40
0.0
 40
0.0083889294
 40
0.0173412825
 40
0.0268645586
 40
0.0369616715
 40
0.0476316041
 40
0.0588705243
 40
0.0706719231
 40
0.0830273182
 40
0.1093540222
 40
0.137747894
 40
0.1680815074
 40
0.2002085948
 40
0.2339669758
 40
0.2691809263
 40
0.305663223
 40
0.3432169847
 40
0.3816373914
 40
0.4207133289
 40
0.4602289911
 40
0.4999654552
 40
0.5397022422
 40
0.5792188714
 40
0.618296415
 40
0.6567190583
 40
0.6942756741
 40
0.7307614233
 40
0.7659793987
 40
0.7997423442
 40
0.8318744965
 40
0.8622136275
 40
0.8906134165
 40
0.9169463677
 40
0.9293049232
 40
0.9411096857
 40
0.952351892
 40
0.9630251798
 40
0.9731256482
 40
0.9826524275
 40
0.99160825
 40
1.0
 40
1.0
 40
1.0
 40
1.0
 10
12.6009979011
 20
6.542650148
 30
0.0
 10
12.6016483981
 20
6.5434455162
 30
0.0
 10
12.6029443041
 20
6.5451299529
 30
0.0
 10
12.604817477
 20
6.5478365514
 30
0.0
 10
12.6066799921
 20
6.5508006758
 30
0.0
 10
12.6085291628
 20
6.5540180136
 30
0.0
 10
12.6103623565
 20
6.5574839802
 30
0.0
 10
12.6121768107
 20
6.5611935475
 30
0.0
 10
12.6139699728
 20
6.5651412971
 30
0.0
 10
12.6163800037
 20
6.5708362881
 30
0.0
 10
12.6193064293
 20
6.5785162455
 30
0.0
 10
12.6226223299
 20
6.5883945273
 30
0.0
 10
12.6257929172
 20
6.5990635472
 30
0.0
 10
12.62879922
 20
6.6104605755
 30
0.0
 10
12.6316232104
 20
6.6225187103
 30
0.0
 10
12.6342479869
 20
6.6351669021
 30
0.0
 10
12.6366578564
 20
6.6483305458
 30
0.0
 10
12.6388384299
 20
6.661931914
 30
0.0
 10
12.6407767036
 20
6.6758906462
 30
0.0
 10
12.642461134
 20
6.6901242356
 30
0.0
 10
12.6438817033
 20
6.7045485283
 30
0.0
 10
12.6450299771
 20
6.7190782291
 30
0.0
 10
12.6458991539
 20
6.7336274118
 30
0.0
 10
12.6464841045
 20
6.7481100343
 30
0.0
 10
12.6467814042
 20
6.7624404519
 30
0.0
 10
12.6467893537
 20
6.7765339313
 30
0.0
 10
12.6465079923
 20
6.790307158
 30
0.0
 10
12.645939101
 20
6.8036787403
 30
0.0
 10
12.6450861963
 20
6.8165697005
 30
0.0
 10
12.6439545176
 20
6.828903972
 30
0.0
 10
12.6425509907
 20
6.8406088403
 30
0.0
 10
12.6408842349
 20
6.8516155431
 30
0.0
 10
12.6389643622
 20
6.8618593136
 30
0.0
 10
12.6371266902
 20
6.8698717734
 30
0.0
 10
12.6355262766
 20
6.875846653
 30
0.0
 10
12.6342955692
 20
6.8800054912
 30
0.0
 10
12.6330108262
 20
6.8839313907
 30
0.0
 10
12.6316739382
 20
6.8876186457
 30
0.0
 10
12.6302868657
 20
6.8910619014
 30
0.0
 10
12.6288515793
 20
6.8942562395
 30
0.0
 10
12.6273702405
 20
6.8971969845
 30
0.0
 10
12.6263194421
 20
6.8990451694
 30
0.0
 10
12.6257850999
 20
6.8999232043
 30
0.0
  0
SPLINE
  5
373
100
AcDbEntity
  8
0
100
AcDbSpline
 62
7
  6
CONTINUOUS
 70
0
 71
3
 72
39
 73
35
 74
0
 42
0.0000001
 43
0.0000001
 44
0.0000000001
 40
0.0
 40
0.0
 40
0.0
 40
0.0
 40
0.0311159584
 40
0.0620233352
 40
0.0927351385
 40
0.1232711775
 40
0.1536587332
 40
0.1839312107
 40
0.2141268395
 40
0.244287099
 40
0.2744549757
 40
0.3046731314
 40
0.3349820893
 40
0.3654185446
 40
0.396013864
 40
0.426792882
 40
0.4577729977
 40
0.4889636199
 40
0.5203659696
 40
0.5519731789
 40
0.5837707176
 40
0.6157370646
 40
0.6478445906
 40
0.68006064
 40
0.7123487314
 40
0.7446698626
 40
0.7769838842
 40
0.8092508939
 40
0.8414326248
 40
0.8734937998
 40
0.9054034138
 40
0.9371358961
 40
0.9686718081
 40
1.0
 40
1.0
 40
1.0
 40
1.0
 10
8.6692822691
 20
5.9627001334
 30
0.0
 10
8.6692822691
 20
5.971868443
 30
0.0
 10
8.6701773503
 20
5.9901568668
 30
0.0
 10
8.6742252964
 20
6.0172238611
 30
0.0
 10
8.6809359422
 20
6.0435837926
 30
0.0
 10
8.690245766
 20
6.0689787531
 30
0.0
 10
8.7020656149
 20
6.0931640827
 30
0.0
 10
8.7162821199
 20
6.1159054083
 30
0.0
 10
8.7327582651
 20
6.1369825627
 30
0.0
 10
8.7513348916
 20
6.1561914169
 30
0.0
 10
8.7718323793
 20
6.1733459182
 30
0.0
 10
8.794052158
 20
6.1882803032
 30
0.0
 10
8.8177790597
 20
6.2008504399
 30
0.0
 10
8.8427833698
 20
6.2109353506
 30
0.0
 10
8.8688231437
 20
6.218438536
 30
0.0
 10
8.8956467808
 20
6.2232884167
 30
0.0
 10
8.9229953745
 20
6.2254393353
 30
0.0
 10
8.9506053263
 20
6.224871712
 30
0.0
 10
8.9782108298
 20
6.2215919503
 30
0.0
 10
9.00554643
 20
6.2156327227
 30
0.0
 10
9.0323494946
 20
6.2070521489
 30
0.0
 10
9.0583626615
 20
6.1959333817
 30
0.0
 10
9.0833363521
 20
6.1823839274
 30
0.0
 10
9.1070309245
 20
6.166534234
 30
0.0
 10
9.1292190996
 20
6.1485368171
 30
0.0
 10
9.1496880394
 20
6.1285646365
 30
0.0
 10
9.1682411998
 20
6.1068093622
 30
0.0
 10
9.1847004944
 20
6.0834798456
 30
0.0
 10
9.198907669
 20
6.0587998908
 30
0.0
 10
9.2107259092
 20
6.0330061795
 30
0.0
 10
9.2200413315
 20
6.0063465057
 30
0.0
 10
9.2267636216
 20
5.9790758378
 30
0.0
 10
9.2308275712
 20
5.9514595416
 30
0.0
 10
9.231740911
 20
5.9329243383
 30
0.0
 10
9.231740911
 20
5.9236934941
 30
0.0
  0
SPLINE
  5
374
100
AcDbEntity
  8
0
100
AcDbSpline
 62
7
  6
CONTINUOUS
 70
0
 71
3
 72
38
 73
34
 74
0
 42
0.0000001
 43
0.0000001
 44
0.0000000001
 40
0.0
 40
0.0
 40
0.0
 40
0.0
 40
0.0255189257
 40
0.0500460966
 40
0.0737019668
 40
0.096622713
 40
0.1189600677
 40
0.1408791935
 40
0.1625559613
 40
0.1841727105
 40
0.2059134572
 40
0.2279587895
 40
0.2504813022
 40
0.273641689
 40
0.3224118999
 40
0.3483016785
 40
0.3753205734
 40
0.4035534556
 40
0.4330718295
 40
0.4639353297
 40
0.4961931509
 40
0.5298849725
 40
0.5650426276
 40
0.6016903484
 40
0.6398465154
 40
0.6795236158
 40
0.7207295889
 40
0.7634674377
 40
0.8077362396
 40
0.8535324308
 40
0.9008501194
 40
0.9496786824
 40
1.0
 40
1.0
 40
1.0
 40
1.0
 10
11.6232113157
 20
11.1646945964
 30
0.0
 10
11.6245772968
 20
11.1666224862
 30
0.0
 10
11.6271354341
 20
11.1704911538
 30
0.0
 10
11.6304862563
 20
11.1764427031
 30
0.0
 10
11.6332675211
 20
11.1824175616
 30
0.0
 10
11.6354761469
 20
11.1884119848
 30
0.0
 10
11.6371099465
 20
11.1944220869
 30
0.0
 10
11.6381666718
 20
11.2004435997
 30
0.0
 10
11.638644971
 20
11.2064717775
 30
0.0
 10
11.6385440661
 20
11.2125016174
 30
0.0
 10
11.6378640899
 20
11.2185280404
 30
0.0
 10
11.6366061739
 20
11.2245460461
 30
0.0
 10
11.6347716821
 20
11.2305513584
 30
0.0
 10
11.6315052866
 20
11.2386732452
 30
0.0
 10
11.6270984517
 20
11.2466328433
 30
0.0
 10
11.6217198421
 20
11.2543641486
 30
0.0
 10
11.6170416583
 20
11.2602494648
 30
0.0
 10
11.6118039833
 20
11.2661002064
 30
0.0
 10
11.6060096763
 20
11.2719142593
 30
0.0
 10
11.5996624699
 20
11.2776881771
 30
0.0
 10
11.5927661422
 20
11.2834187752
 30
0.0
 10
11.5853249096
 20
11.2891028657
 30
0.0
 10
11.5773431667
 20
11.2947370602
 30
0.0
 10
11.5688257761
 20
11.3003181916
 30
0.0
 10
11.5597777856
 20
11.3058428322
 30
0.0
 10
11.5502046805
 20
11.3113078058
 30
0.0
 10
11.5401121984
 20
11.3167097289
 30
0.0
 10
11.5295065137
 20
11.3220453882
 30
0.0
 10
11.5183940551
 20
11.3273115332
 30
0.0
 10
11.5067814268
 20
11.3325049906
 30
0.0
 10
11.4946755611
 20
11.3376226597
 30
0.0
 10
11.482084242
 20
11.3426611957
 30
0.0
 10
11.4735001186
 20
11.3459167324
 30
0.0
 10
11.4691299189
 20
11.3475320955
 30
0.0
  0
SPLINE
  5
375
100
AcDbEntity
  8
0
100
AcDbSpline
 62
7
  6
CONTINUOUS
 70
0
 71
3
 72
39
 73
35
 74
0
 42
0.0000001
 43
0.0000001
 44
0.0000000001
 40
0.0
 40
0.0
 40
0.0
 40
0.0
 40
0.0311159584
 40
0.0620233352
 40
0.0927351385
 40
0.1232711775
 40
0.1536587332
 40
0.1839312107
 40
0.2141268395
 40
0.244287099
 40
0.2744549757
 40
0.3046731314
 40
0.3349820893
 40
0.3654185446
 40
0.396013864
 40
0.426792882
 40
0.4577729977
 40
0.4889636199
 40
0.5203659696
 40
0.5519731789
 40
0.5837707176
 40
0.6157370646
 40
0.6478445906
 40
0.68006064
 40
0.7123487314
 40
0.7446698626
 40
0.7769838842
 40
0.8092508939
 40
0.8414326248
 40
0.8734937998
 40
0.9054034138
 40
0.9371358961
 40
0.9686718081
 40
1.0
 40
1.0
 40
1.0
 40
1.0
 10
9.231740911
 20
5.9236934941
 30
0.0
 10
9.231740911
 20
5.9145251845
 30
0.0
 10
9.2308458298
 20
5.8962367607
 30
0.0
 10
9.2267978837
 20
5.8691697665
 30
0.0
 10
9.2200872379
 20
5.842809835
 30
0.0
 10
9.2107774141
 20
5.8174148745
 30
0.0
 10
9.1989575652
 20
5.7932295449
 30
0.0
 10
9.1847410602
 20
5.7704882193
 30
0.0
 10
9.168264915
 20
5.7494110649
 30
0.0
 10
9.1496882885
 20
5.7302022107
 30
0.0
 10
9.1291908008
 20
5.7130477094
 30
0.0
 10
9.1069710221
 20
5.6981133243
 30
0.0
 10
9.0832441204
 20
5.6855431877
 30
0.0
 10
9.0582398103
 20
5.675458277
 30
0.0
 10
9.0322000364
 20
5.6679550915
 30
0.0
 10
9.0053763992
 20
5.6631052109
 30
0.0
 10
8.9780278056
 20
5.6609542923
 30
0.0
 10
8.9504178538
 20
5.6615219155
 30
0.0
 10
8.9228123503
 20
5.6648016773
 30
0.0
 10
8.8954767501
 20
5.6707609049
 30
0.0
 10
8.8686736855
 20
5.6793414787
 30
0.0
 10
8.8426605186
 20
5.6904602459
 30
0.0
 10
8.817686828
 20
5.7040097001
 30
0.0
 10
8.7939922556
 20
5.7198593936
 30
0.0
 10
8.7718040805
 20
5.7378568105
 30
0.0
 10
8.7513351407
 20
5.757828991
 30
0.0
 10
8.7327819803
 20
5.7795842654
 30
0.0
 10
8.7163226857
 20
5.802913782
 30
0.0
 10
8.7021155111
 20
5.8275937368
 30
0.0
 10
8.6902972708
 20
5.853387448
 30
0.0
 10
8.6809818486
 20
5.8800471219
 30
0.0
 10
8.6742595585
 20
5.9073177898
 30
0.0
 10
8.6701956089
 20
5.934934086
 30
0.0
 10
8.6692822691
 20
5.9534692893
 30
0.0
 10
8.6692822691
 20
5.9627001334
 30
0.0
  0
SPLINE
  5
376
100
AcDbEntity
  8
0
100
AcDbSpline
 62
7
  6
CONTINUOUS
 70
0
 71
3
 72
21
 73
17
 74
0
 42
0.0000001
 43
0.0000001
 44
0.0000000001
 40
0.0
 40
0.0
 40
0.0
 40
0.0
 40
0.0616532342
 40
0.1233294953
 40
0.1850515501
 40
0.2468416649
 40
0.3087213494
 40
0.3707111104
 40
0.4328302434
 40
0.4950966323
 40
0.5575265657
 40
0.6201345673
 40
0.682933156
 40
0.7459330948
 40
0.8725263949
 40
1.0
 40
1.0
 40
1.0
 40
1.0
 10
10.5616465326
 20
9.9604749479
 30
0.0
 10
10.5575560766
 20
9.9565238494
 30
0.0
 10
10.5491593692
 20
9.9488385858
 30
0.0
 10
10.5359603331
 20
9.938002138
 30
0.0
 10
10.5221881533
 20
9.9278819447
 30
0.0
 10
10.5078779976
 20
9.918503944
 30
0.0
 10
10.4930657892
 20
9.9098916514
 30
0.0
 10
10.4777888826
 20
9.9020667985
 30
0.0
 10
10.462085793
 20
9.8950490108
 30
0.0
 10
10.4459960976
 20
9.8888559301
 30
0.0
 10
10.4295602805
 20
9.8835031609
 30
0.0
 10
10.4128198808
 20
9.8790041522
 30
0.0
 10
10.3958165984
 20
9.8753701082
 30
0.0
 10
10.3728197718
 20
9.8716846997
 30
0.0
 10
10.3436174722
 20
9.8692904033
 30
0.0
 10
10.320140575
 20
9.8697485603
 30
0.0
 10
10.3084101768
 20
9.8705620662
 30
0.0
  0
SPLINE
  5
377
100
AcDbEntity
  8
0
100
AcDbSpline
 62
7
  6
CONTINUOUS
 70
0
 71
3
 72
15
 73
11
 74
0
 42
0.0000001
 43
0.0000001
 44
0.0000000001
 40
0.0
 40
0.0
 40
0.0
 40
0.0
 40
0.1234360958
 40
0.2472473043
 40
0.37147821
 40
0.4961667757
 40
0.6213445204
 40
0.747031593
 40
0.8732518229
 40
1.0
 40
1.0
 40
1.0
 40
1.0
 10
10.5573509018
 20
10.1751883875
 30
0.0
 10
10.5535696236
 20
10.1734448415
 30
0.0
 10
10.5458806167
 20
10.1701959113
 30
0.0
 10
10.5340413862
 20
10.1660648919
 30
0.0
 10
10.5219222449
 20
10.1626838074
 30
0.0
 10
10.5095688687
 20
10.1600654452
 30
0.0
 10
10.4970271545
 20
10.1582194513
 30
0.0
 10
10.4843434294
 20
10.1571524408
 30
0.0
 10
10.4715656622
 20
10.1568685495
 30
0.0
 10
10.4630324731
 20
10.1572012287
 30
0.0
 10
10.4587670963
 20
10.1574970336
 30
0.0
  0
SPLINE
  5
378
100
AcDbEntity
  8
0
100
AcDbSpline
 62
7
  6
CONTINUOUS
 70
0
 71
3
 72
41
 73
37
 74
0
 42
0.0000001
 43
0.0000001
 44
0.0000000001
 40
0.0
 40
0.0
 40
0.0
 40
0.0
 40
0.0299421207
 40
0.0449237678
 40
0.059914515
 40
0.0899291702
 40
0.1200145975
 40
0.1350933607
 40
0.1501974781
 40
0.1804849759
 40
0.210898965
 40
0.2414525847
 40
0.2721557502
 40
0.3030149724
 40
0.3340332622
 40
0.3652101173
 40
0.3965415863
 40
0.428020404
 40
0.4596361919
 40
0.4913757156
 40
0.5232231916
 40
0.5551606357
 40
0.5871682465
 40
0.6192248153
 40
0.651308157
 40
0.6833955539
 40
0.7154642081
 40
0.747491694
 40
0.779456406
 40
0.8113379944
 40
0.8431177853
 40
0.8747791687
 40
0.9063079764
 40
0.9376927595
 40
0.9689251765
 40
1.0
 40
1.0
 40
1.0
 40
1.0
 10
9.1392514994
 20
7.013113075
 30
0.0
 10
9.1349365129
 20
7.0089451463
 30
0.0
 10
9.1282097481
 20
7.0029457407
 30
0.0
 10
9.1187890251
 20
6.9955018066
 30
0.0
 10
9.1090682802
 20
6.9884283136
 30
0.0
 10
9.0963843202
 20
6.9803056176
 30
0.0
 10
9.083083633
 20
6.973200627
 30
0.0
 10
9.0721140298
 20
6.9681460793
 30
0.0
 10
9.0609177958
 20
6.9635088486
 30
0.0
 10
9.0465535542
 20
6.9585224554
 30
0.0
 10
9.0288517851
 20
6.9538752635
 30
0.0
 10
9.010763756
 20
6.9505830577
 30
0.0
 10
8.992389705
 20
6.9486640092
 30
0.0
 10
8.973830566
 20
6.9481283573
 30
0.0
 10
8.9551884567
 20
6.9489788289
 30
0.0
 10
8.936565839
 20
6.9512105113
 30
0.0
 10
8.9180650365
 20
6.9548109229
 30
0.0
 10
8.8997876582
 20
6.959760082
 30
0.0
 10
8.881834054
 20
6.9660306251
 30
0.0
 10
8.8643027697
 20
6.9735879606
 30
0.0
 10
8.847290014
 20
6.9823904624
 30
0.0
 10
8.8308891382
 20
6.9923896985
 30
0.0
 10
8.8151901306
 20
7.0035306972
 30
0.0
 10
8.8002791287
 20
7.0157522472
 30
0.0
 10
8.7862379527
 20
7.0289872313
 30
0.0
 10
8.7731436613
 20
7.0431629918
 30
0.0
 10
8.7610681332
 20
7.0582017253
 30
0.0
 10
8.7500776766
 20
7.0740209059
 30
0.0
 10
8.7402326683
 20
7.0905337319
 30
0.0
 10
8.7315872244
 20
7.1076495998
 30
0.0
 10
8.7241889066
 20
7.1252745838
 30
0.0
 10
8.7180784559
 20
7.1433119883
 30
0.0
 10
8.7132895814
 20
7.1616627082
 30
0.0
 10
8.7098487474
 20
7.1802263684
 30
0.0
 10
8.7077750638
 20
7.1988996505
 30
0.0
 10
8.7073105925
 20
7.2113883709
 30
0.0
 10
8.7073105925
 20
7.2176145483
 30
0.0
  0
SPLINE
  5
379
100
AcDbEntity
  8
0
100
AcDbSpline
 62
7
  6
CONTINUOUS
 70
0
 71
3
 72
41
 73
37
 74
0
 42
0.0000001
 43
0.0000001
 44
0.0000000001
 40
0.0
 40
0.0
 40
0.0
 40
0.0
 40
0.0299421207
 40
0.0449237678
 40
0.059914515
 40
0.0899291702
 40
0.1200145975
 40
0.1350933607
 40
0.1501974781
 40
0.1804849759
 40
0.210898965
 40
0.2414525847
 40
0.2721557502
 40
0.3030149724
 40
0.3340332622
 40
0.3652101173
 40
0.3965415863
 40
0.428020404
 40
0.4596361919
 40
0.4913757156
 40
0.5232231916
 40
0.5551606357
 40
0.5871682465
 40
0.6192248153
 40
0.651308157
 40
0.6833955539
 40
0.7154642081
 40
0.747491694
 40
0.779456406
 40
0.8113379944
 40
0.8431177853
 40
0.8747791687
 40
0.9063079764
 40
0.9376927595
 40
0.9689251765
 40
1.0
 40
1.0
 40
1.0
 40
1.0
 10
11.8550487247
 20
6.8247718978
 30
0.0
 10
11.8507337383
 20
6.8206039691
 30
0.0
 10
11.8440069734
 20
6.8146045635
 30
0.0
 10
11.8345862504
 20
6.8071606293
 30
0.0
 10
11.8248655055
 20
6.8000871363
 30
0.0
 10
11.8121815455
 20
6.7919644403
 30
0.0
 10
11.7988808583
 20
6.7848594498
 30
0.0
 10
11.7879112551
 20
6.779804902
 30
0.0
 10
11.7767150211
 20
6.7751676714
 30
0.0
 10
11.7623507795
 20
6.7701812782
 30
0.0
 10
11.7446490104
 20
6.7655340863
 30
0.0
 10
11.7265609813
 20
6.7622418805
 30
0.0
 10
11.7081869303
 20
6.7603228319
 30
0.0
 10
11.6896277913
 20
6.75978718
 30
0.0
 10
11.670985682
 20
6.7606376517
 30
0.0
 10
11.6523630643
 20
6.762869334
 30
0.0
 10
11.6338622618
 20
6.7664697456
 30
0.0
 10
11.6155848835
 20
6.7714189048
 30
0.0
 10
11.5976312793
 20
6.7776894478
 30
0.0
 10
11.580099995
 20
6.7852467834
 30
0.0
 10
11.5630872393
 20
6.7940492851
 30
0.0
 10
11.5466863635
 20
6.8040485212
 30
0.0
 10
11.5309873559
 20
6.8151895199
 30
0.0
 10
11.516076354
 20
6.8274110699
 30
0.0
 10
11.502035178
 20
6.840646054
 30
0.0
 10
11.4889408866
 20
6.8548218145
 30
0.0
 10
11.4768653585
 20
6.8698605481
 30
0.0
 10
11.4658749019
 20
6.8856797287
 30
0.0
 10
11.4560298936
 20
6.9021925546
 30
0.0
 10
11.4473844497
 20
6.9193084225
 30
0.0
 10
11.4399861319
 20
6.9369334065
 30
0.0
 10
11.4338756812
 20
6.954970811
 30
0.0
 10
11.4290868067
 20
6.9733215309
 30
0.0
 10
11.4256459727
 20
6.9918851911
 30
0.0
 10
11.4235722891
 20
7.0105584732
 30
0.0
 10
11.4231078178
 20
7.0230471937
 30
0.0
 10
11.4231078178
 20
7.0292733711
 30
0.0
  0
SPLINE
  5
37A
100
AcDbEntity
  8
0
100
AcDbSpline
 62
7
  6
CONTINUOUS
 70
0
 71
3
 72
21
 73
17
 74
0
 42
0.0000001
 43
0.0000001
 44
0.0000000001
 40
0.0
 40
0.0
 40
0.0
 40
0.0
 40
0.1274239697
 40
0.2540001813
 40
0.3170010989
 40
0.3798065857
 40
0.4424263273
 40
0.5048714528
 40
0.5671548956
 40
0.629291224
 40
0.6912964457
 40
0.7531879198
 40
0.8149841653
 40
0.8767046557
 40
0.9383696524
 40
1.0
 40
1.0
 40
1.0
 40
1.0
 10
10.3158641593
 20
9.8777620608
 30
0.0
 10
10.3271511587
 20
9.8769793047
 30
0.0
 10
10.3497393726
 20
9.8764960221
 30
0.0
 10
10.3778519399
 20
9.8786374728
 30
0.0
 10
10.4000169841
 20
9.8819901089
 30
0.0
 10
10.416421904
 20
9.8853112813
 30
0.0
 10
10.4325924695
 20
9.889435122
 30
0.0
 10
10.4484914189
 20
9.8943520846
 30
0.0
 10
10.4640815932
 20
9.900050667
 30
0.0
 10
10.4793266601
 20
9.906517667
 30
0.0
 10
10.4941910373
 20
9.9137380775
 30
0.0
 10
10.5086401089
 20
9.9216950144
 30
0.0
 10
10.5226401395
 20
9.9303699411
 30
0.0
 10
10.5361585451
 20
9.9397428169
 30
0.0
 10
10.5491634082
 20
9.9497913441
 30
0.0
 10
10.5574732052
 20
9.9569273096
 30
0.0
 10
10.5615311317
 20
9.9605986124
 30
0.0
  0
SPLINE
  5
37B
100
AcDbEntity
  8
0
100
AcDbSpline
 62
7
  6
CONTINUOUS
 70
0
 71
3
 72
42
 73
38
 74
0
 42
0.0000001
 43
0.0000001
 44
0.0000000001
 40
0.0
 40
0.0
 40
0.0
 40
0.0
 40
0.0311261721
 40
0.0467489459
 40
0.0624084428
 40
0.0938310689
 40
0.1253896764
 40
0.1570725302
 40
0.18886538
 40
0.2207518766
 40
0.2527138672
 40
0.2847317661
 40
0.3167849297
 40
0.348852051
 40
0.3809115606
 40
0.4129420319
 40
0.4449225847
 40
0.4768332813
 40
0.5086555096
 40
0.540372349
 40
0.5719689113
 40
0.6034326524
 40
0.634753647
 40
0.6659248206
 40
0.6969421327
 40
0.7278047033
 40
0.7585148789
 40
0.7890782309
 40
0.8195034837
 40
0.849802369
 40
0.8649115722
 40
0.8799948487
 40
0.9100870579
 40
0.9401035958
 40
0.9550927374
 40
0.9700709079
 40
1.0
 40
1.0
 40
1.0
 40
1.0
 10
10.3158641593
 20
9.8777620608
 30
0.0
 10
10.3073789632
 20
9.8783505112
 30
0.0
 10
10.2946607202
 20
9.8796937147
 30
0.0
 10
10.2778181476
 20
9.8823854728
 30
0.0
 10
10.2610010565
 20
9.885686724
 30
0.0
 10
10.2401437314
 20
9.8909393602
 30
0.0
 10
10.2155411431
 20
9.8989966647
 30
0.0
 10
10.1914604392
 20
9.9087739065
 30
0.0
 10
10.1680274014
 20
9.9202200095
 30
0.0
 10
10.145363465
 20
9.9332754165
 30
0.0
 10
10.1235863255
 20
9.9478722132
 30
0.0
 10
10.1028090019
 20
9.9639345232
 30
0.0
 10
10.0831393482
 20
9.9813788899
 30
0.0
 10
10.0646794739
 20
10.0001147084
 30
0.0
 10
10.0475252269
 20
10.0200446922
 30
0.0
 10
10.0317656986
 20
10.0410653731
 30
0.0
 10
10.0174827654
 20
10.0630676331
 30
0.0
 10
10.0047506673
 20
10.085937265
 30
0.0
 10
9.9936356247
 20
10.1095555582
 30
0.0
 10
9.9841954952
 20
10.1337999081
 30
0.0
 10
9.976479474
 20
10.1585444441
 30
0.0
 10
9.9705278363
 20
10.1836606751
 30
0.0
 10
9.9663717247
 20
10.2090181472
 30
0.0
 10
9.9640329834
 20
10.2344851144
 30
0.0
 10
9.9635240331
 20
10.2599292077
 30
0.0
 10
9.9648478091
 20
10.2852181416
 30
0.0
 10
9.9679976899
 20
10.3102202991
 30
0.0
 10
9.9729576783
 20
10.334805774
 30
0.0
 10
9.979701875
 20
10.3588457061
 30
0.0
 10
9.9867878962
 20
10.3783415888
 30
0.0
 10
9.9933090746
 20
10.39353457
 30
0.0
 10
10.0003779121
 20
10.4084181498
 30
0.0
 10
10.0102482281
 20
10.426463442
 30
0.0
 10
10.0214578514
 20
10.4436782379
 30
0.0
 10
10.0311824734
 20
10.4568777539
 30
0.0
 10
10.0413928509
 20
10.4696735665
 30
0.0
 10
10.0495997772
 20
10.4788184581
 30
0.0
 10
10.0552934995
 20
10.4846894669
 30
0.0
  0
SPLINE
  5
37C
100
AcDbEntity
  8
0
100
AcDbSpline
 62
7
  6
CONTINUOUS
 70
0
 71
3
 72
39
 73
35
 74
0
 42
0.0000001
 43
0.0000001
 44
0.0000000001
 40
0.0
 40
0.0
 40
0.0
 40
0.0
 40
0.0313810808
 40
0.062952846
 40
0.0947043011
 40
0.1266173446
 40
0.1586693893
 40
0.1908334167
 40
0.2230789942
 40
0.255373216
 40
0.2876817077
 40
0.3199696646
 40
0.3522029006
 40
0.3843488829
 40
0.4163777307
 40
0.4482631539
 40
0.4799833147
 40
0.5115215795
 40
0.5428671319
 40
0.5740154256
 40
0.6049684528
 40
0.6357348047
 40
0.6663294954
 40
0.6967735476
 40
0.7270933421
 40
0.7573197422
 40
0.7874870171
 40
0.8176316076
 40
0.8477907914
 40
0.878001308
 40
0.9082980083
 40
0.9387125917
 40
0.9692725057
 40
1.0
 40
1.0
 40
1.0
 40
1.0
 10
10.3158641593
 20
9.9603487238
 30
0.0
 10
10.3076369157
 20
9.9609192851
 30
0.0
 10
10.2911752266
 20
9.9628176372
 30
0.0
 10
10.2667751375
 20
9.9678805996
 30
0.0
 10
10.2427840127
 20
9.9751254995
 30
0.0
 10
10.2194039226
 20
9.9844915693
 30
0.0
 10
10.1968285213
 20
9.9959004592
 30
0.0
 10
10.1752455572
 20
10.0092569949
 30
0.0
 10
10.1548342562
 20
10.0244498658
 30
0.0
 10
10.1357641959
 20
10.0413526327
 30
0.0
 10
10.1181938358
 20
10.0598247441
 30
0.0
 10
10.1022692561
 20
10.0797126878
 30
0.0
 10
10.0881228831
 20
10.1008511912
 30
0.0
 10
10.0758724636
 20
10.1230646333
 30
0.0
 10
10.0656201021
 20
10.146168472
 30
0.0
 10
10.0574514313
 20
10.1699707461
 30
0.0
 10
10.051434849
 20
10.1942736146
 30
0.0
 10
10.0476209165
 20
10.2188749746
 30
0.0
 10
10.0460419912
 20
10.2435701257
 30
0.0
 10
10.046711911
 20
10.2681534282
 30
0.0
 10
10.0496258486
 20
10.2924199796
 30
0.0
 10
10.0547602005
 20
10.3161673176
 30
0.0
 10
10.0620728051
 20
10.3391971103
 30
0.0
 10
10.071503239
 20
10.3613168171
 30
0.0
 10
10.0829732684
 20
10.3823413224
 30
0.0
 10
10.096387411
 20
10.4020945556
 30
0.0
 10
10.1116336887
 20
10.4204110637
 30
0.0
 10
10.1285846441
 20
10.4371374262
 30
0.0
 10
10.1470983932
 20
10.4521336085
 30
0.0
 10
10.1670199501
 20
10.4652741864
 30
0.0
 10
10.188182227
 20
10.4764494585
 30
0.0
 10
10.2104087255
 20
10.4855665089
 30
0.0
 10
10.2335107242
 20
10.4925492164
 30
0.0
 10
10.2493277108
 20
10.4957348237
 30
0.0
 10
10.2573097756
 20
10.4969579953
 30
0.0
  0
SPLINE
  5
37D
100
AcDbEntity
  8
0
100
AcDbSpline
 62
7
  6
CONTINUOUS
 70
0
 71
3
 72
41
 73
37
 74
0
 42
0.0000001
 43
0.0000001
 44
0.0000000001
 40
0.0
 40
0.0
 40
0.0
 40
0.0
 40
0.0299421207
 40
0.0449237678
 40
0.059914515
 40
0.0899291702
 40
0.1200145975
 40
0.1350933607
 40
0.1501974781
 40
0.1804849759
 40
0.210898965
 40
0.2414525847
 40
0.2721557502
 40
0.3030149724
 40
0.3340332622
 40
0.3652101173
 40
0.3965415863
 40
0.428020404
 40
0.4596361919
 40
0.4913757156
 40
0.5232231916
 40
0.5551606357
 40
0.5871682465
 40
0.6192248153
 40
0.651308157
 40
0.6833955539
 40
0.7154642081
 40
0.747491694
 40
0.779456406
 40
0.8113379944
 40
0.8431177853
 40
0.8747791687
 40
0.9063079764
 40
0.9376927595
 40
0.9689251765
 40
1.0
 40
1.0
 40
1.0
 40
1.0
 10
9.1392514994
 20
5.763881202
 30
0.0
 10
9.1349365129
 20
5.7597132733
 30
0.0
 10
9.1282097481
 20
5.7537138677
 30
0.0
 10
9.1187890251
 20
5.7462699336
 30
0.0
 10
9.1090682802
 20
5.7391964405
 30
0.0
 10
9.0963843202
 20
5.7310737446
 30
0.0
 10
9.083083633
 20
5.723968754
 30
0.0
 10
9.0721140298
 20
5.7189142063
 30
0.0
 10
9.0609177958
 20
5.7142769756
 30
0.0
 10
9.0465535542
 20
5.7092905824
 30
0.0
 10
9.0288517851
 20
5.7046433905
 30
0.0
 10
9.010763756
 20
5.7013511847
 30
0.0
 10
8.992389705
 20
5.6994321362
 30
0.0
 10
8.973830566
 20
5.6988964843
 30
0.0
 10
8.9551884567
 20
5.6997469559
 30
0.0
 10
8.936565839
 20
5.7019786382
 30
0.0
 10
8.9180650365
 20
5.7055790499
 30
0.0
 10
8.8997876582
 20
5.710528209
 30
0.0
 10
8.881834054
 20
5.716798752
 30
0.0
 10
8.8643027697
 20
5.7243560876
 30
0.0
 10
8.847290014
 20
5.7331585894
 30
0.0
 10
8.8308891382
 20
5.7431578255
 30
0.0
 10
8.8151901306
 20
5.7542988241
 30
0.0
 10
8.8002791287
 20
5.7665203741
 30
0.0
 10
8.7862379527
 20
5.7797553582
 30
0.0
 10
8.7731436613
 20
5.7939311187
 30
0.0
 10
8.7610681332
 20
5.8089698523
 30
0.0
 10
8.7500776766
 20
5.8247890329
 30
0.0
 10
8.7402326683
 20
5.8413018589
 30
0.0
 10
8.7315872244
 20
5.8584177267
 30
0.0
 10
8.7241889066
 20
5.8760427108
 30
0.0
 10
8.7180784559
 20
5.8940801152
 30
0.0
 10
8.7132895814
 20
5.9124308351
 30
0.0
 10
8.7098487474
 20
5.9309944954
 30
0.0
 10
8.7077750638
 20
5.9496677775
 30
0.0
 10
8.7073105925
 20
5.9621564979
 30
0.0
 10
8.7073105925
 20
5.9683826753
 30
0.0
  0
SPLINE
  5
37E
100
AcDbEntity
  8
0
100
AcDbSpline
 62
7
  6
CONTINUOUS
 70
0
 71
3
 72
41
 73
37
 74
0
 42
0.0000001
 43
0.0000001
 44
0.0000000001
 40
0.0
 40
0.0
 40
0.0
 40
0.0
 40
0.0313554049
 40
0.0628944795
 40
0.094607375
 40
0.1264777777
 40
0.1584854339
 40
0.1745366927
 40
0.1906128466
 40
0.222818702
 40
0.2550799321
 40
0.2712248977
 40
0.2873718169
 40
0.31964863
 40
0.3518852185
 40
0.384050771
 40
0.4161164677
 40
0.4480563095
 40
0.4798478899
 40
0.5114730887
 40
0.5429186651
 40
0.5741767308
 40
0.6052450811
 40
0.6361273659
 40
0.666833081
 40
0.6973773701
 40
0.727780626
 40
0.7580678966
 40
0.7882681067
 40
0.8184131217
 40
0.8485366841
 40
0.8786732692
 40
0.9088569074
 40
0.9391200263
 40
0.9694923616
 40
1.0
 40
1.0
 40
1.0
 40
1.0
 10
10.3391578541
 20
10.0013269562
 30
0.0
 10
10.331787214
 20
10.0018381119
 30
0.0
 10
10.3170399099
 20
10.0035127758
 30
0.0
 10
10.2951639322
 20
10.0079353057
 30
0.0
 10
10.2736269022
 20
10.0142418144
 30
0.0
 10
10.2525975506
 20
10.0223828882
 30
0.0
 10
10.2356426328
 20
10.0306376848
 30
0.0
 10
10.2224897934
 20
10.0380872237
 30
0.0
 10
10.2096166976
 20
10.0460993447
 30
0.0
 10
10.1941372309
 20
10.0571193159
 30
0.0
 10
10.179602666
 20
10.0693834683
 30
0.0
 10
10.1685993121
 20
10.079890999
 30
0.0
 10
10.1580330731
 20
10.0908429766
 30
0.0
 10
10.1456866721
 20
10.1053233689
 30
0.0
 10
10.1323626217
 20
10.1238320629
 30
0.0
 10
10.1206312304
 20
10.1433321089
 30
0.0
 10
10.1105836038
 20
10.1636728849
 30
0.0
 10
10.1022971265
 20
10.1846981577
 30
0.0
 10
10.0958359359
 20
10.2062461608
 30
0.0
 10
10.0912501249
 20
10.2281511078
 30
0.0
 10
10.0885754457
 20
10.2502443742
 30
0.0
 10
10.0878329935
 20
10.2723557882
 30
0.0
 10
10.0890290256
 20
10.2943149119
 30
0.0
 10
10.0921548772
 20
10.3159523383
 30
0.0
 10
10.0971869925
 20
10.337100986
 30
0.0
 10
10.1040870415
 20
10.3575973942
 30
0.0
 10
10.112802174
 20
10.3772830063
 30
0.0
 10
10.1232654064
 20
10.3960054182
 30
0.0
 10
10.1353961036
 20
10.4136195971
 30
0.0
 10
10.1491005927
 20
10.4299890543
 30
0.0
 10
10.1642728693
 20
10.4449869493
 30
0.0
 10
10.1807955107
 20
10.4584971358
 30
0.0
 10
10.198540345
 20
10.4704150534
 30
0.0
 10
10.2173704743
 20
10.4806488086
 30
0.0
 10
10.2371377675
 20
10.489118921
 30
0.0
 10
10.2508107474
 20
10.4935371355
 30
0.0
 10
10.2577446267
 20
10.4954337194
 30
0.0
  0
SPLINE
  5
37F
100
AcDbEntity
  8
0
100
AcDbSpline
 62
7
  6
CONTINUOUS
 70
0
 71
3
 72
41
 73
37
 74
0
 42
0.0000001
 43
0.0000001
 44
0.0000000001
 40
0.0
 40
0.0
 40
0.0
 40
0.0
 40
0.0311443731
 40
0.0624425498
 40
0.0938872324
 40
0.1254695881
 40
0.1571771015
 40
0.1889951224
 40
0.2209066715
 40
0.2528929757
 40
0.28493379
 40
0.3170078157
 40
0.3490931116
 40
0.3811675191
 40
0.4132090895
 40
0.4451965082
 40
0.4771095106
 40
0.5089292837
 40
0.5406388474
 40
0.5722234085
 40
0.6036706805
 40
0.6349711645
 40
0.6661183811
 40
0.6971090487
 40
0.7279432008
 40
0.7586242349
 40
0.7891588899
 40
0.8195571457
 40
0.8498320452
 40
0.8649308854
 40
0.8800050464
 40
0.9100832538
 40
0.9400926721
 40
0.9550812717
 40
0.9700610341
 40
1.0
 40
1.0
 40
1.0
 40
1.0
 10
10.3470181586
 20
10.0382545094
 30
0.0
 10
10.3416049922
 20
10.0386299138
 30
0.0
 10
10.3307753807
 20
10.039778824
 30
0.0
 10
10.314662287
 20
10.0426728494
 30
0.0
 10
10.2987217395
 20
10.0467266457
 30
0.0
 10
10.283039928
 20
10.0519182134
 30
0.0
 10
10.2677000868
 20
10.0582198634
 30
0.0
 10
10.2527840663
 20
10.0655978154
 30
0.0
 10
10.2383713219
 20
10.0740126732
 30
0.0
 10
10.2245386524
 20
10.0834194946
 30
0.0
 10
10.2113597587
 20
10.09376809
 30
0.0
 10
10.1989048628
 20
10.105003265
 30
0.0
 10
10.1872403374
 20
10.1170651205
 30
0.0
 10
10.1764283556
 20
10.129889366
 30
0.0
 10
10.1665265627
 20
10.1434076604
 30
0.0
 10
10.1575877719
 20
10.1575479715
 30
0.0
 10
10.1496596852
 20
10.1722349557
 30
0.0
 10
10.1427846385
 20
10.1873903543
 30
0.0
 10
10.1369993769
 20
10.2029334058
 30
0.0
 10
10.1323348601
 20
10.2187812713
 30
0.0
 10
10.1288160959
 20
10.2348494705
 30
0.0
 10
10.1264620041
 20
10.251052325
 30
0.0
 10
10.1252853124
 20
10.2673034107
 30
0.0
 10
10.1252924805
 20
10.2835160081
 30
0.0
 10
10.1264836665
 20
10.2996035775
 30
0.0
 10
10.1288526876
 20
10.3154801534
 30
0.0
 10
10.1323871532
 20
10.3310610376
 30
0.0
 10
10.1370681113
 20
10.3462623792
 30
0.0
 10
10.1419089682
 20
10.3585593914
 30
0.0
 10
10.1463265854
 20
10.3681221826
 30
0.0
 10
10.1510939247
 20
10.3774771041
 30
0.0
 10
10.1577132231
 20
10.3887923145
 30
0.0
 10
10.1651838057
 20
10.3995464423
 30
0.0
 10
10.1716395539
 20
10.40776658
 30
0.0
 10
10.178403176
 20
10.4157184814
 30
0.0
 10
10.1838220909
 20
10.4213794959
 30
0.0
 10
10.1875738187
 20
10.4250034171
 30
0.0
  0
SPLINE
  5
380
100
AcDbEntity
  8
0
100
AcDbSpline
 62
7
  6
CONTINUOUS
 70
0
 71
3
 72
41
 73
37
 74
0
 42
0.0000001
 43
0.0000001
 44
0.0000000001
 40
0.0
 40
0.0
 40
0.0
 40
0.0
 40
0.0299421207
 40
0.0449237678
 40
0.059914515
 40
0.0899291702
 40
0.1200145975
 40
0.1350933607
 40
0.1501974781
 40
0.1804849759
 40
0.210898965
 40
0.2414525847
 40
0.2721557502
 40
0.3030149724
 40
0.3340332622
 40
0.3652101173
 40
0.3965415863
 40
0.428020404
 40
0.4596361919
 40
0.4913757156
 40
0.5232231916
 40
0.5551606357
 40
0.5871682465
 40
0.6192248153
 40
0.651308157
 40
0.6833955539
 40
0.7154642081
 40
0.747491694
 40
0.779456406
 40
0.8113379944
 40
0.8431177853
 40
0.8747791687
 40
0.9063079764
 40
0.9376927595
 40
0.9689251765
 40
1.0
 40
1.0
 40
1.0
 40
1.0
 10
11.8550487247
 20
5.5755400247
 30
0.0
 10
11.8507337383
 20
5.571372096
 30
0.0
 10
11.8440069734
 20
5.5653726904
 30
0.0
 10
11.8345862504
 20
5.5579287563
 30
0.0
 10
11.8248655055
 20
5.5508552633
 30
0.0
 10
11.8121815455
 20
5.5427325673
 30
0.0
 10
11.7988808583
 20
5.5356275767
 30
0.0
 10
11.7879112551
 20
5.530573029
 30
0.0
 10
11.7767150211
 20
5.5259357983
 30
0.0
 10
11.7623507795
 20
5.5209494051
 30
0.0
 10
11.7446490104
 20
5.5163022132
 30
0.0
 10
11.7265609813
 20
5.5130100074
 30
0.0
 10
11.7081869303
 20
5.5110909589
 30
0.0
 10
11.6896277913
 20
5.510555307
 30
0.0
 10
11.670985682
 20
5.5114057786
 30
0.0
 10
11.6523630643
 20
5.513637461
 30
0.0
 10
11.6338622618
 20
5.5172378726
 30
0.0
 10
11.6155848835
 20
5.5221870317
 30
0.0
 10
11.5976312793
 20
5.5284575748
 30
0.0
 10
11.580099995
 20
5.5360149103
 30
0.0
 10
11.5630872393
 20
5.5448174121
 30
0.0
 10
11.5466863635
 20
5.5548166482
 30
0.0
 10
11.5309873559
 20
5.5659576469
 30
0.0
 10
11.516076354
 20
5.5781791969
 30
0.0
 10
11.502035178
 20
5.591414181
 30
0.0
 10
11.4889408866
 20
5.6055899415
 30
0.0
 10
11.4768653585
 20
5.620628675
 30
0.0
 10
11.4658749019
 20
5.6364478556
 30
0.0
 10
11.4560298936
 20
5.6529606816
 30
0.0
 10
11.4473844497
 20
5.6700765495
 30
0.0
 10
11.4399861319
 20
5.6877015335
 30
0.0
 10
11.4338756812
 20
5.705738938
 30
0.0
 10
11.4290868067
 20
5.7240896579
 30
0.0
 10
11.4256459727
 20
5.7426533181
 30
0.0
 10
11.4235722891
 20
5.7613266002
 30
0.0
 10
11.4231078178
 20
5.7738153206
 30
0.0
 10
11.4231078178
 20
5.780041498
 30
0.0
  0
SPLINE
  5
381
100
AcDbEntity
  8
0
100
AcDbSpline
 62
7
  6
CONTINUOUS
 70
0
 71
3
 72
37
 73
33
 74
0
 42
0.0000001
 43
0.0000001
 44
0.0000000001
 40
0.0
 40
0.0
 40
0.0
 40
0.0
 40
0.0309437181
 40
0.0620211741
 40
0.0932255188
 40
0.1245521974
 40
0.1559923714
 40
0.1875363756
 40
0.2191727494
 40
0.2508887006
 40
0.2826702752
 40
0.3145025552
 40
0.3463698887
 40
0.3782561124
 40
0.4419916912
 40
0.5056064103
 40
0.5373433965
 40
0.5690048398
 40
0.6005775793
 40
0.6320497694
 40
0.6634110657
 40
0.6946527929
 40
0.7257680935
 40
0.7567520552
 40
0.7876018168
 40
0.8183166391
 40
0.8488979423
 40
0.8793493089
 40
0.9096764523
 40
0.9398871512
 40
0.9699911473
 40
1.0
 40
1.0
 40
1.0
 40
1.0
 10
10.4587670963
 20
10.1574970336
 30
0.0
 10
10.4543247554
 20
10.157805111
 30
0.0
 10
10.4454378841
 20
10.1587036535
 30
0.0
 10
10.4321921411
 20
10.160883912
 30
0.0
 10
10.4190523538
 20
10.163891198
 30
0.0
 10
10.4060718246
 20
10.1677130902
 30
0.0
 10
10.3933020339
 20
10.172334485
 30
0.0
 10
10.3807940429
 20
10.1777367894
 30
0.0
 10
10.3685977312
 20
10.1838984362
 30
0.0
 10
10.3567617621
 20
10.1907947601
 30
0.0
 10
10.34533332
 20
10.1983982336
 30
0.0
 10
10.3343580917
 20
10.2066783734
 30
0.0
 10
10.3238794962
 20
10.2156025663
 30
0.0
 10
10.3106313069
 20
10.228307181
 30
0.0
 10
10.2955196437
 20
10.2456087249
 30
0.0
 10
10.2825647361
 20
10.2645537529
 30
0.0
 10
10.2736274061
 20
10.280508147
 30
0.0
 10
10.2676672191
 20
10.292816493
 30
0.0
 10
10.2624704569
 20
10.3054245088
 30
0.0
 10
10.2580575654
 20
10.3182823422
 30
0.0
 10
10.2544462995
 20
10.3313385673
 30
0.0
 10
10.2516511174
 20
10.3445411136
 30
0.0
 10
10.2496832666
 20
10.3578372762
 30
0.0
 10
10.2485506938
 20
10.3711739733
 30
0.0
 10
10.2482579877
 20
10.3844979417
 30
0.0
 10
10.248806397
 20
10.3977559604
 30
0.0
 10
10.250193817
 20
10.4108950511
 30
0.0
 10
10.2524148046
 20
10.4238627089
 30
0.0
 10
10.2554605625
 20
10.4366070287
 30
0.0
 10
10.2593190923
 20
10.4490772148
 30
0.0
 10
10.2639746914
 20
10.4612226886
 30
0.0
 10
10.2676034763
 20
10.4690837793
 30
0.0
 10
10.2695435368
 20
10.4729419409
 30
0.0
  0
SPLINE
  5
382
100
AcDbEntity
  8
0
100
AcDbSpline
 62
7
  6
CONTINUOUS
 70
0
 71
3
 72
23
 73
19
 74
0
 42
0.0000001
 43
0.0000001
 44
0.0000000001
 40
0.0
 40
0.0
 40
0.0
 40
0.0
 40
0.0616482117
 40
0.1233194496
 40
0.1850364829
 40
0.24682157
 40
0.3086962136
 40
0.370680925
 40
0.4327950024
 40
0.4950563275
 40
0.5574811782
 40
0.6200840647
 40
0.6828776055
 40
0.7458723192
 40
0.8090769012
 40
0.8724969623
 40
0.9361381423
 40
1.0
 40
1.0
 40
1.0
 40
1.0
 10
10.7773655625
 20
5.9885813974
 30
0.0
 10
10.7697906543
 20
5.9812645728
 30
0.0
 10
10.7542411749
 20
5.967032698
 30
0.0
 10
10.7297985694
 20
5.9469652516
 30
0.0
 10
10.7042945598
 20
5.9282242327
 30
0.0
 10
10.6777942804
 20
5.9108576799
 30
0.0
 10
10.6503642947
 20
5.8949090848
 30
0.0
 10
10.6220737944
 20
5.8804186436
 30
0.0
 10
10.5929940553
 20
5.8674227917
 30
0.0
 10
10.5631983549
 20
5.8559542107
 30
0.0
 10
10.5327617595
 20
5.846041724
 30
0.0
 10
10.5017609397
 20
5.8377102204
 30
0.0
 10
10.4702739929
 20
5.830980603
 30
0.0
 10
10.4383801674
 20
5.8258696875
 30
0.0
 10
10.4061599192
 20
5.8223903359
 30
0.0
 10
10.3736938944
 20
5.8205510702
 30
0.0
 10
10.3410650885
 20
5.8203565955
 30
0.0
 10
10.319293829
 20
5.8213220952
 30
0.0
 10
10.3084101768
 20
5.822076879
 30
0.0
  0
SPLINE
  5
383
100
AcDbEntity
  8
0
100
AcDbSpline
 62
7
  6
CONTINUOUS
 70
0
 71
3
 72
39
 73
35
 74
0
 42
0.0000001
 43
0.0000001
 44
0.0000000001
 40
0.0
 40
0.0
 40
0.0
 40
0.0
 40
0.0309064097
 40
0.0619435015
 40
0.0931038073
 40
0.1243837647
 40
0.1557750184
 40
0.1872685691
 40
0.2188538161
 40
0.250518839
 40
0.2822506439
 40
0.3140352894
 40
0.3458581052
 40
0.3777039024
 40
0.409557181
 40
0.4414023362
 40
0.4732238678
 40
0.5050066015
 40
0.5367359021
 40
0.5683978709
 40
0.5999795369
 40
0.6314690477
 40
0.662855855
 40
0.6941308715
 40
0.7252866098
 40
0.7563173046
 40
0.7872190297
 40
0.8179897794
 40
0.8486295166
 40
0.8791401929
 40
0.9095257469
 40
0.9397920783
 40
0.9699469738
 40
1.0
 40
1.0
 40
1.0
 40
1.0
 10
10.4579556978
 20
10.1454119499
 30
0.0
 10
10.4533989323
 20
10.1457279627
 30
0.0
 10
10.444283183
 20
10.146641961
 30
0.0
 10
10.4306925507
 20
10.1488444369
 30
0.0
 10
10.417204902
 20
10.1518734109
 30
0.0
 10
10.4038721641
 20
10.1557169332
 30
0.0
 10
10.3907444039
 20
10.1603606805
 30
0.0
 10
10.3778713993
 20
10.1657869386
 30
0.0
 10
10.3653017873
 20
10.1719751212
 30
0.0
 10
10.3530831006
 20
10.1789017817
 30
0.0
 10
10.3412615391
 20
10.1865406902
 30
0.0
 10
10.3298818227
 20
10.1948629617
 30
0.0
 10
10.3189869708
 20
10.2038370828
 30
0.0
 10
10.3086181651
 20
10.2134290837
 30
0.0
 10
10.298814614
 20
10.2236026832
 30
0.0
 10
10.2896134077
 20
10.2343194183
 30
0.0
 10
10.2810493742
 20
10.2455387766
 30
0.0
 10
10.2731548886
 20
10.2572183104
 30
0.0
 10
10.2659598181
 20
10.2693138533
 30
0.0
 10
10.2594914037
 20
10.281779674
 30
0.0
 10
10.2537741741
 20
10.2945686501
 30
0.0
 10
10.248829797
 20
10.3076324165
 30
0.0
 10
10.2446769948
 20
10.3209215575
 30
0.0
 10
10.2413315295
 20
10.3343858126
 30
0.0
 10
10.2388061311
 20
10.3479742536
 30
0.0
 10
10.2371104602
 20
10.3616354723
 30
0.0
 10
10.2362509801
 20
10.3753177633
 30
0.0
 10
10.2362310035
 20
10.3889693381
 30
0.0
 10
10.2370506862
 20
10.4025385077
 30
0.0
 10
10.2387070374
 20
10.4159738924
 30
0.0
 10
10.2411938644
 20
10.4292245349
 30
0.0
 10
10.2445018664
 20
10.4422404071
 30
0.0
 10
10.2486182981
 20
10.4549714891
 30
0.0
 10
10.2518970289
 20
10.4632514994
 30
0.0
 10
10.2536652437
 20
10.4673259457
 30
0.0
  0
SPLINE
  5
384
100
AcDbEntity
  8
0
100
AcDbSpline
 62
7
  6
CONTINUOUS
 70
0
 71
3
 72
39
 73
35
 74
0
 42
0.0000001
 43
0.0000001
 44
0.0000000001
 40
0.0
 40
0.0
 40
0.0
 40
0.0
 40
0.0311159584
 40
0.0620233352
 40
0.0927351385
 40
0.1232711775
 40
0.1536587332
 40
0.1839312107
 40
0.2141268395
 40
0.244287099
 40
0.2744549757
 40
0.3046731314
 40
0.3349820893
 40
0.3654185446
 40
0.396013864
 40
0.426792882
 40
0.4577729977
 40
0.4889636199
 40
0.5203659696
 40
0.5519731789
 40
0.5837707176
 40
0.6157370646
 40
0.6478445906
 40
0.68006064
 40
0.7123487314
 40
0.7446698626
 40
0.7769838842
 40
0.8092508939
 40
0.8414326248
 40
0.8734937998
 40
0.9054034138
 40
0.9371358961
 40
0.9686718081
 40
1.0
 40
1.0
 40
1.0
 40
1.0
 10
8.6692822691
 20
7.2119320065
 30
0.0
 10
8.6692822691
 20
7.2211003161
 30
0.0
 10
8.6701773503
 20
7.2393887399
 30
0.0
 10
8.6742252964
 20
7.2664557341
 30
0.0
 10
8.6809359422
 20
7.2928156656
 30
0.0
 10
8.690245766
 20
7.3182106261
 30
0.0
 10
8.7020656149
 20
7.3423959557
 30
0.0
 10
8.7162821199
 20
7.3651372813
 30
0.0
 10
8.7327582651
 20
7.3862144357
 30
0.0
 10
8.7513348916
 20
7.4054232899
 30
0.0
 10
8.7718323793
 20
7.4225777912
 30
0.0
 10
8.794052158
 20
7.4375121763
 30
0.0
 10
8.8177790597
 20
7.4500823129
 30
0.0
 10
8.8427833698
 20
7.4601672236
 30
0.0
 10
8.8688231437
 20
7.467670409
 30
0.0
 10
8.8956467808
 20
7.4725202897
 30
0.0
 10
8.9229953745
 20
7.4746712083
 30
0.0
 10
8.9506053263
 20
7.4741035851
 30
0.0
 10
8.9782108298
 20
7.4708238233
 30
0.0
 10
9.00554643
 20
7.4648645957
 30
0.0
 10
9.0323494946
 20
7.4562840219
 30
0.0
 10
9.0583626615
 20
7.4451652547
 30
0.0
 10
9.0833363521
 20
7.4316158005
 30
0.0
 10
9.1070309245
 20
7.415766107
 30
0.0
 10
9.1292190996
 20
7.3977686901
 30
0.0
 10
9.1496880394
 20
7.3777965096
 30
0.0
 10
9.1682411998
 20
7.3560412352
 30
0.0
 10
9.1847004944
 20
7.3327117186
 30
0.0
 10
9.198907669
 20
7.3080317638
 30
0.0
 10
9.2107259092
 20
7.2822380526
 30
0.0
 10
9.2200413315
 20
7.2555783787
 30
0.0
 10
9.2267636216
 20
7.2283077108
 30
0.0
 10
9.2308275712
 20
7.2006914146
 30
0.0
 10
9.231740911
 20
7.1821562113
 30
0.0
 10
9.231740911
 20
7.1729253672
 30
0.0
  0
SPLINE
  5
385
100
AcDbEntity
  8
0
100
AcDbSpline
 62
7
  6
CONTINUOUS
 70
0
 71
3
 72
65
 73
61
 74
0
 42
0.0000001
 43
0.0000001
 44
0.0000000001
 40
0.0
 40
0.0
 40
0.0
 40
0.0
 40
0.0077182526
 40
0.0147687821
 40
0.0212510204
 40
0.0243226192
 40
0.027305824
 40
0.0302228201
 40
0.0330975158
 40
0.035955023
 40
0.0388209303
 40
0.0417205965
 40
0.0446784059
 40
0.047717222
 40
0.0508579838
 40
0.0575135255
 40
0.0647733794
 40
0.0727273685
 40
0.0814381221
 40
0.0909470539
 40
0.1012791343
 40
0.1124468971
 40
0.1244531367
 40
0.1372927382
 40
0.1509543714
 40
0.1654214336
 40
0.1806727434
 40
0.1966833742
 40
0.2134249758
 40
0.2308661239
 40
0.2489728193
 40
0.2677085892
 40
0.2870347474
 40
0.3272928812
 40
0.3694034623
 40
0.4129984671
 40
0.4576921722
 40
0.5030860201
 40
0.5487734325
 40
0.5943444757
 40
0.6393905451
 40
0.6835090499
 40
0.7263081034
 40
0.7674114074
 40
0.7872157092
 40
0.8064646171
 40
0.8251177597
 40
0.843136823
 40
0.8604856019
 40
0.8771303944
 40
0.8930402683
 40
0.9081872285
 40
0.9225468184
 40
0.9360985258
 40
0.9488262988
 40
0.9607196455
 40
0.9717744009
 40
0.9819943993
 40
0.9913943988
 40
1.0
 40
1.0
 40
1.0
 40
1.0
 10
12.6582242783
 20
6.9622255486
 30
0.0
 10
12.6592404475
 20
6.9631712144
 30
0.0
 10
12.6612711277
 20
6.9648925736
 30
0.0
 10
12.6644627087
 20
6.9670125719
 30
0.0
 10
12.6671683221
 20
6.9683069859
 30
0.0
 10
12.6693102649
 20
6.9690191634
 30
0.0
 10
12.6708821844
 20
6.969393129
 30
0.0
 10
12.6724469093
 20
6.9696157485
 30
0.0
 10
12.6740032938
 20
6.9696865994
 30
0.0
 10
12.6755500222
 20
6.9696055896
 30
0.0
 10
12.6770857906
 20
6.9693727418
 30
0.0
 10
12.6786093014
 20
6.9689882754
 30
0.0
 10
12.680119382
 20
6.9684527865
 30
0.0
 10
12.6816150374
 20
6.967766844
 30
0.0
 10
12.6836272016
 20
6.9666308219
 30
0.0
 10
12.6861095141
 20
6.9648083022
 30
0.0
 10
12.6889518446
 20
6.9620766685
 30
0.0
 10
12.6917130491
 20
6.9587671585
 30
0.0
 10
12.6943889443
 20
6.954887827
 30
0.0
 10
12.6969753681
 20
6.9504468989
 30
0.0
 10
12.6994672903
 20
6.9454540496
 30
0.0
 10
12.7018593756
 20
6.9399203024
 30
0.0
 10
12.7041461661
 20
6.9338581721
 30
0.0
 10
12.7063223725
 20
6.9272816278
 30
0.0
 10
12.7083827892
 20
6.9202059779
 30
0.0
 10
12.7103224475
 20
6.9126478359
 30
0.0
 10
12.7121367055
 20
6.9046250611
 30
0.0
 10
12.7138211384
 20
6.8961566691
 30
0.0
 10
12.7153716524
 20
6.8872627911
 30
0.0
 10
12.7167845213
 20
6.8779646132
 30
0.0
 10
12.7180562732
 20
6.868284313
 30
0.0
 10
12.7191838628
 20
6.8582449793
 30
0.0
 10
12.7205093753
 20
6.8442210696
 30
0.0
 10
12.7217720801
 20
6.8259715825
 30
0.0
 10
12.7226604751
 20
6.8033315522
 30
0.0
 10
12.7229324037
 20
6.7798780695
 30
0.0
 10
12.7225849105
 20
6.7558352741
 30
0.0
 10
12.7216210107
 20
6.7314327817
 30
0.0
 10
12.720049766
 20
6.7069037949
 30
0.0
 10
12.7178861441
 20
6.6824827177
 30
0.0
 10
12.7151509326
 20
6.6584029253
 30
0.0
 10
12.7118705177
 20
6.6348943952
 30
0.0
 10
12.708076522
 20
6.6121817981
 30
0.0
 10
12.7044744766
 20
6.5938781367
 30
0.0
 10
12.7013521754
 20
6.5798036542
 30
0.0
 10
12.6989351264
 20
6.5697100422
 30
0.0
 10
12.6964196232
 20
6.5599717546
 30
0.0
 10
12.6938117126
 20
6.5506120249
 30
0.0
 10
12.6911176515
 20
6.5416531981
 30
0.0
 10
12.6883439258
 20
6.5331166269
 30
0.0
 10
12.6854972416
 20
6.5250226214
 30
0.0
 10
12.682584409
 20
6.5173904162
 30
0.0
 10
12.6796124371
 20
6.5102380837
 30
0.0
 10
12.6765884729
 20
6.5035824786
 30
0.0
 10
12.6735196807
 20
6.4974392154
 30
0.0
 10
12.6704133044
 20
6.4918225648
 30
0.0
 10
12.66727665
 20
6.4867454492
 30
0.0
 10
12.6641165465
 20
6.4822191128
 30
0.0
 10
12.6609402474
 20
6.478254224
 30
0.0
 10
12.6587208498
 20
6.4758894412
 30
0.0
 10
12.6576076513
 20
6.4748141739
 30
0.0
  0
SPLINE
  5
386
100
AcDbEntity
  8
0
100
AcDbSpline
 62
7
  6
CONTINUOUS
 70
0
 71
3
 72
26
 73
22
 74
0
 42
0.0000001
 43
0.0000001
 44
0.0000000001
 40
0.0
 40
0.0
 40
0.0
 40
0.0
 40
0.0639406468
 40
0.0957745534
 40
0.1275137406
 40
0.1907030963
 40
0.2535471631
 40
0.2848583621
 40
0.3160972447
 40
0.3472697086
 40
0.3783822068
 40
0.4404389471
 40
0.50234405
 40
0.5641628158
 40
0.6259634078
 40
0.687814593
 40
0.7497834583
 40
0.8119331976
 40
0.8743210646
 40
0.9369965713
 40
1.0
 40
1.0
 40
1.0
 40
1.0
 10
10.3158641593
 20
9.9603487238
 30
0.0
 10
10.3236225531
 20
9.9598106774
 30
0.0
 10
10.3352867551
 20
9.9595044184
 30
0.0
 10
10.3507877051
 20
9.96011421
 30
0.0
 10
10.3661568361
 20
9.9613958916
 30
0.0
 10
10.3851592811
 20
9.9642549399
 30
0.0
 10
10.4037810187
 20
9.9687866925
 30
0.0
 10
10.4183259468
 20
9.9733897904
 30
0.0
 10
10.42903076
 20
9.977319763
 30
0.0
 10
10.4395232215
 20
9.9817239451
 30
0.0
 10
10.4531898999
 20
9.9882103946
 30
0.0
 10
10.4696585013
 20
9.9974645722
 30
0.0
 10
10.4882781177
 20
10.0103226106
 30
0.0
 10
10.5056038918
 20
10.0248304317
 30
0.0
 10
10.5215041395
 20
10.0408783388
 30
0.0
 10
10.5358594109
 20
10.0583455495
 30
0.0
 10
10.5485616321
 20
10.0771004197
 30
0.0
 10
10.5595153662
 20
10.0970014338
 30
0.0
 10
10.5686386059
 20
10.1178992426
 30
0.0
 10
10.5758627189
 20
10.1396341403
 30
0.0
 10
10.5793682286
 20
10.1545376418
 30
0.0
 10
10.5807907472
 20
10.1620674859
 30
0.0
  0
SPLINE
  5
387
100
AcDbEntity
  8
0
100
AcDbSpline
 62
7
  6
CONTINUOUS
 70
0
 71
3
 72
25
 73
21
 74
0
 42
0.0000001
 43
0.0000001
 44
0.0000000001
 40
0.0
 40
0.0
 40
0.0
 40
0.0
 40
0.0639978583
 40
0.0958711859
 40
0.1276562557
 40
0.1909596276
 40
0.2539389572
 40
0.2853220638
 40
0.3166350371
 40
0.3790557591
 40
0.4412568296
 40
0.5032864338
 40
0.5651975255
 40
0.6270463715
 40
0.688890988
 40
0.7507895102
 40
0.8127985579
 40
0.8749716571
 40
0.9373577723
 40
1.0
 40
1.0
 40
1.0
 40
1.0
 10
10.3391578541
 20
10.0013269562
 30
0.0
 10
10.3458059772
 20
10.0008659073
 30
0.0
 10
10.3557985836
 20
10.0005691143
 30
0.0
 10
10.3690878057
 20
10.0009751709
 30
0.0
 10
10.3822784083
 20
10.0019112527
 30
0.0
 10
10.3986148155
 20
10.0040731173
 30
0.0
 10
10.4146789893
 20
10.0075566182
 30
0.0
 10
10.4272745911
 20
10.0111197735
 30
0.0
 10
10.4396559459
 20
10.0151848593
 30
0.0
 10
10.454755477
 20
10.0212123846
 30
0.0
 10
10.4721568288
 20
10.0299204164
 30
0.0
 10
10.4887145625
 20
10.0400421071
 30
0.0
 10
10.504322381
 20
10.0515129242
 30
0.0
 10
10.5188810481
 20
10.0642599848
 30
0.0
 10
10.5322977616
 20
10.078202115
 30
0.0
 10
10.5444871248
 20
10.09325054
 30
0.0
 10
10.5553715577
 20
10.1093092509
 30
0.0
 10
10.564882042
 20
10.1262763662
 30
0.0
 10
10.5729577392
 20
10.1440421205
 30
0.0
 10
10.5773423731
 20
10.1563196338
 30
0.0
 10
10.579280489
 20
10.1625479811
 30
0.0
  0
SPLINE
  5
388
100
AcDbEntity
  8
0
100
AcDbSpline
 62
7
  6
CONTINUOUS
 70
0
 71
3
 72
15
 73
11
 74
0
 42
0.0000001
 43
0.0000001
 44
0.0000000001
 40
0.0
 40
0.0
 40
0.0
 40
0.0
 40
0.1275072286
 40
0.2541329592
 40
0.379922642
 40
0.50495043
 40
0.6293249996
 40
0.7531828108
 40
0.876682875
 40
1.0
 40
1.0
 40
1.0
 40
1.0
 10
10.3470181586
 20
10.0382545094
 30
0.0
 10
10.3544039397
 20
10.0377423037
 30
0.0
 10
10.3691863609
 20
10.0374539738
 30
0.0
 10
10.3912086314
 20
10.0392591931
 30
0.0
 10
10.4127914776
 20
10.0432854191
 30
0.0
 10
10.433714573
 20
10.0494934918
 30
0.0
 10
10.4537671472
 20
10.0578213624
 30
0.0
 10
10.4727469669
 20
10.068186247
 30
0.0
 10
10.4904597124
 20
10.0804817048
 30
0.0
 10
10.5013124923
 20
10.0898910163
 30
0.0
 10
10.5064624986
 20
10.0948655822
 30
0.0
  0
SPLINE
  5
389
100
AcDbEntity
  8
0
100
AcDbSpline
 62
7
  6
CONTINUOUS
 70
0
 71
3
 72
39
 73
35
 74
0
 42
0.0000001
 43
0.0000001
 44
0.0000000001
 40
0.0
 40
0.0
 40
0.0
 40
0.0
 40
0.0311159584
 40
0.0620233352
 40
0.0927351385
 40
0.1232711775
 40
0.1536587332
 40
0.1839312107
 40
0.2141268395
 40
0.244287099
 40
0.2744549757
 40
0.3046731314
 40
0.3349820893
 40
0.3654185446
 40
0.396013864
 40
0.426792882
 40
0.4577729977
 40
0.4889636199
 40
0.5203659696
 40
0.5519731789
 40
0.5837707176
 40
0.6157370646
 40
0.6478445906
 40
0.68006064
 40
0.7123487314
 40
0.7446698626
 40
0.7769838842
 40
0.8092508939
 40
0.8414326248
 40
0.8734937998
 40
0.9054034138
 40
0.9371358961
 40
0.9686718081
 40
1.0
 40
1.0
 40
1.0
 40
1.0
 10
11.3850794944
 20
5.7743589562
 30
0.0
 10
11.3850794944
 20
5.7835272658
 30
0.0
 10
11.3859745756
 20
5.8018156896
 30
0.0
 10
11.3900225217
 20
5.8288826838
 30
0.0
 10
11.3967331675
 20
5.8552426153
 30
0.0
 10
11.4060429913
 20
5.8806375758
 30
0.0
 10
11.4178628402
 20
5.9048229054
 30
0.0
 10
11.4320793452
 20
5.927564231
 30
0.0
 10
11.4485554904
 20
5.9486413854
 30
0.0
 10
11.4671321169
 20
5.9678502396
 30
0.0
 10
11.4876296046
 20
5.9850047409
 30
0.0
 10
11.5098493833
 20
5.999939126
 30
0.0
 10
11.533576285
 20
6.0125092626
 30
0.0
 10
11.5585805951
 20
6.0225941733
 30
0.0
 10
11.584620369
 20
6.0300973587
 30
0.0
 10
11.6114440062
 20
6.0349472394
 30
0.0
 10
11.6387925998
 20
6.037098158
 30
0.0
 10
11.6664025516
 20
6.0365305348
 30
0.0
 10
11.6940080551
 20
6.033250773
 30
0.0
 10
11.7213436553
 20
6.0272915454
 30
0.0
 10
11.7481467199
 20
6.0187109716
 30
0.0
 10
11.7741598868
 20
6.0075922044
 30
0.0
 10
11.7991335774
 20
5.9940427502
 30
0.0
 10
11.8228281498
 20
5.9781930567
 30
0.0
 10
11.8450163249
 20
5.9601956398
 30
0.0
 10
11.8654852647
 20
5.9402234593
 30
0.0
 10
11.8840384251
 20
5.9184681849
 30
0.0
 10
11.9004977197
 20
5.8951386683
 30
0.0
 10
11.9147048943
 20
5.8704587135
 30
0.0
 10
11.9265231346
 20
5.8446650023
 30
0.0
 10
11.9358385568
 20
5.8180053284
 30
0.0
 10
11.9425608469
 20
5.7907346605
 30
0.0
 10
11.9466247965
 20
5.7631183643
 30
0.0
 10
11.9475381363
 20
5.744583161
 30
0.0
 10
11.9475381363
 20
5.7353523169
 30
0.0
  0
SPLINE
  5
38A
100
AcDbEntity
  8
0
100
AcDbSpline
 62
7
  6
CONTINUOUS
 70
0
 71
3
 72
39
 73
35
 74
0
 42
0.0000001
 43
0.0000001
 44
0.0000000001
 40
0.0
 40
0.0
 40
0.0
 40
0.0
 40
0.0507370276
 40
0.0997924958
 40
0.1471454749
 40
0.1927851478
 40
0.2367051194
 40
0.2789023724
 40
0.3193787048
 40
0.3581424847
 40
0.3952085152
 40
0.430599381
 40
0.4643463073
 40
0.4964908721
 40
0.5270863088
 40
0.5561994952
 40
0.5839128601
 40
0.6103265222
 40
0.6355603448
 40
0.659755505
 40
0.6830754741
 40
0.7057054101
 40
0.727850043
 40
0.7497291758
 40
0.7715714813
 40
0.793606884
 40
0.8160587697
 40
0.8391372914
 40
0.8630341418
 40
0.8879199277
 40
0.9139427983
 40
0.9412293982
 40
0.9698857967
 40
1.0
 40
1.0
 40
1.0
 40
1.0
 10
11.5081446884
 20
11.4006079806
 30
0.0
 10
11.513249582
 20
11.3987210515
 30
0.0
 10
11.5232557041
 20
11.3949154792
 30
0.0
 10
11.5378925944
 20
11.3890051441
 30
0.0
 10
11.5518948647
 20
11.3829926857
 30
0.0
 10
11.5652515984
 20
11.376882917
 30
0.0
 10
11.5779529419
 20
11.3706803062
 30
0.0
 10
11.5899894667
 20
11.3643895734
 30
0.0
 10
11.6013520827
 20
11.358015331
 30
0.0
 10
11.6120323394
 20
11.3515624178
 30
0.0
 10
11.6220222796
 20
11.3450354979
 30
0.0
 10
11.6313145366
 20
11.3384393859
 30
0.0
 10
11.6399021994
 20
11.3317787419
 30
0.0
 10
11.6477789411
 20
11.3250582926
 30
0.0
 10
11.6549388726
 20
11.3182826061
 30
0.0
 10
11.6613765902
 20
11.3114562212
 30
0.0
 10
11.6670870525
 20
11.3045835546
 30
0.0
 10
11.6720655126
 20
11.2976689606
 30
0.0
 10
11.6763074656
 20
11.2907168294
 30
0.0
 10
11.6798084636
 20
11.2837316626
 30
0.0
 10
11.6825643063
 20
11.2767184024
 30
0.0
 10
11.6845708829
 20
11.2696825478
 30
0.0
 10
11.6858248612
 20
11.2626304931
 30
0.0
 10
11.6863236271
 20
11.2555694054
 30
0.0
 10
11.6860662911
 20
11.2485070566
 30
0.0
 10
11.6850532184
 20
11.2414513053
 30
0.0
 10
11.6832866637
 20
11.2344095345
 30
0.0
 10
11.680769613
 20
11.2273884371
 30
0.0
 10
11.6775061442
 20
11.2203937201
 30
0.0
 10
11.6735002723
 20
11.2134305591
 30
0.0
 10
11.668756556
 20
11.2065034783
 30
0.0
 10
11.6632792545
 20
11.1996169487
 30
0.0
 10
11.657073422
 20
11.1927754177
 30
0.0
 10
11.6525684506
 20
11.188359919
 30
0.0
 10
11.6502037093
 20
11.1861592825
 30
0.0
  0
SPLINE
  5
38B
100
AcDbEntity
  8
0
100
AcDbSpline
 62
7
  6
CONTINUOUS
 70
0
 71
3
 72
13
 73
9
 74
0
 42
0.0000001
 43
0.0000001
 44
0.0000000001
 40
0.0
 40
0.0
 40
0.0
 40
0.0
 40
0.2526481541
 40
0.5034093844
 40
0.6281642217
 40
0.7524952362
 40
0.876429976
 40
1.0
 40
1.0
 40
1.0
 40
1.0
 10
10.4579556978
 20
10.1454119499
 30
0.0
 10
10.4659540123
 20
10.144857265
 30
0.0
 10
10.4819636601
 20
10.1446108301
 30
0.0
 10
10.5018512406
 20
10.1464960649
 30
0.0
 10
10.5174690693
 20
10.1493094055
 30
0.0
 10
10.528989372
 20
10.1520594438
 30
0.0
 10
10.5402993999
 20
10.1554446004
 30
0.0
 10
10.5476885324
 20
10.1581223176
 30
0.0
 10
10.5513355543
 20
10.1595632684
 30
0.0
  0
SPLINE
  5
38C
100
AcDbEntity
  8
0
100
AcDbSpline
 62
7
  6
CONTINUOUS
 70
0
 71
3
 72
15
 73
11
 74
0
 42
0.0000001
 43
0.0000001
 44
0.0000000001
 40
0.0
 40
0.0
 40
0.0
 40
0.0
 40
0.1273482888
 40
0.2538606703
 40
0.3795878487
 40
0.5046051206
 40
0.6290174369
 40
0.7529533749
 40
0.8765605786
 40
1.0
 40
1.0
 40
1.0
 40
1.0
 10
8.7073105925
 20
7.2176145483
 30
0.0
 10
8.7073105925
 20
7.2256251088
 30
0.0
 10
8.7080754478
 20
7.2416047229
 30
0.0
 10
8.7115343805
 20
7.2652667968
 30
0.0
 10
8.7172698909
 20
7.2883343348
 30
0.0
 10
8.7252301685
 20
7.3105915967
 30
0.0
 10
8.7353422047
 20
7.3318333238
 30
0.0
 10
8.7475137517
 20
7.351863392
 30
0.0
 10
8.7616304011
 20
7.3704941147
 30
0.0
 10
8.7722595288
 20
7.3818748193
 30
0.0
 10
8.7778443301
 20
7.3872692867
 30
0.0
  0
SPLINE
  5
38D
100
AcDbEntity
  8
0
100
AcDbSpline
 62
7
  6
CONTINUOUS
 70
0
 71
3
 72
39
 73
35
 74
0
 42
0.0000001
 43
0.0000001
 44
0.0000000001
 40
0.0
 40
0.0
 40
0.0
 40
0.0
 40
0.0311159584
 40
0.0620233352
 40
0.0927351385
 40
0.1232711775
 40
0.1536587332
 40
0.1839312107
 40
0.2141268395
 40
0.244287099
 40
0.2744549757
 40
0.3046731314
 40
0.3349820893
 40
0.3654185446
 40
0.396013864
 40
0.426792882
 40
0.4577729977
 40
0.4889636199
 40
0.5203659696
 40
0.5519731789
 40
0.5837707176
 40
0.6157370646
 40
0.6478445906
 40
0.68006064
 40
0.7123487314
 40
0.7446698626
 40
0.7769838842
 40
0.8092508939
 40
0.8414326248
 40
0.8734937998
 40
0.9054034138
 40
0.9371358961
 40
0.9686718081
 40
1.0
 40
1.0
 40
1.0
 40
1.0
 10
9.231740911
 20
7.1729253672
 30
0.0
 10
9.231740911
 20
7.1637570575
 30
0.0
 10
9.2308458298
 20
7.1454686337
 30
0.0
 10
9.2267978837
 20
7.1184016395
 30
0.0
 10
9.2200872379
 20
7.092041708
 30
0.0
 10
9.2107774141
 20
7.0666467475
 30
0.0
 10
9.1989575652
 20
7.0424614179
 30
0.0
 10
9.1847410602
 20
7.0197200923
 30
0.0
 10
9.168264915
 20
6.9986429379
 30
0.0
 10
9.1496882885
 20
6.9794340837
 30
0.0
 10
9.1291908008
 20
6.9622795824
 30
0.0
 10
9.1069710221
 20
6.9473451974
 30
0.0
 10
9.0832441204
 20
6.9347750607
 30
0.0
 10
9.0582398103
 20
6.92469015
 30
0.0
 10
9.0322000364
 20
6.9171869646
 30
0.0
 10
9.0053763992
 20
6.9123370839
 30
0.0
 10
8.9780278056
 20
6.9101861653
 30
0.0
 10
8.9504178538
 20
6.9107537885
 30
0.0
 10
8.9228123503
 20
6.9140335503
 30
0.0
 10
8.8954767501
 20
6.9199927779
 30
0.0
 10
8.8686736855
 20
6.9285733517
 30
0.0
 10
8.8426605186
 20
6.9396921189
 30
0.0
 10
8.817686828
 20
6.9532415731
 30
0.0
 10
8.7939922556
 20
6.9690912666
 30
0.0
 10
8.7718040805
 20
6.9870886835
 30
0.0
 10
8.7513351407
 20
7.0070608641
 30
0.0
 10
8.7327819803
 20
7.0288161384
 30
0.0
 10
8.7163226857
 20
7.052145655
 30
0.0
 10
8.7021155111
 20
7.0768256098
 30
0.0
 10
8.6902972708
 20
7.1026193211
 30
0.0
 10
8.6809818486
 20
7.1292789949
 30
0.0
 10
8.6742595585
 20
7.1565496628
 30
0.0
 10
8.6701956089
 20
7.184165959
 30
0.0
 10
8.6692822691
 20
7.2027011623
 30
0.0
 10
8.6692822691
 20
7.2119320065
 30
0.0
  0
SPLINE
  5
38E
100
AcDbEntity
  8
0
100
AcDbSpline
 62
7
  6
CONTINUOUS
 70
0
 71
3
 72
39
 73
35
 74
0
 42
0.0000001
 43
0.0000001
 44
0.0000000001
 40
0.0
 40
0.0
 40
0.0
 40
0.0
 40
0.0311159584
 40
0.0620233352
 40
0.0927351385
 40
0.1232711775
 40
0.1536587332
 40
0.1839312107
 40
0.2141268395
 40
0.244287099
 40
0.2744549757
 40
0.3046731314
 40
0.3349820893
 40
0.3654185446
 40
0.396013864
 40
0.426792882
 40
0.4577729977
 40
0.4889636199
 40
0.5203659696
 40
0.5519731789
 40
0.5837707176
 40
0.6157370646
 40
0.6478445906
 40
0.68006064
 40
0.7123487314
 40
0.7446698626
 40
0.7769838842
 40
0.8092508939
 40
0.8414326248
 40
0.8734937998
 40
0.9054034138
 40
0.9371358961
 40
0.9686718081
 40
1.0
 40
1.0
 40
1.0
 40
1.0
 10
11.9475381363
 20
5.7353523169
 30
0.0
 10
11.9475381363
 20
5.7261840072
 30
0.0
 10
11.9466430551
 20
5.7078955834
 30
0.0
 10
11.942595109
 20
5.6808285892
 30
0.0
 10
11.9358844632
 20
5.6544686577
 30
0.0
 10
11.9265746394
 20
5.6290736972
 30
0.0
 10
11.9147547905
 20
5.6048883676
 30
0.0
 10
11.9005382855
 20
5.582147042
 30
0.0
 10
11.8840621403
 20
5.5610698876
 30
0.0
 10
11.8654855138
 20
5.5418610334
 30
0.0
 10
11.8449880261
 20
5.5247065321
 30
0.0
 10
11.8227682474
 20
5.5097721471
 30
0.0
 10
11.7990413457
 20
5.4972020104
 30
0.0
 10
11.7740370356
 20
5.4871170997
 30
0.0
 10
11.7479972617
 20
5.4796139143
 30
0.0
 10
11.7211736245
 20
5.4747640336
 30
0.0
 10
11.6938250309
 20
5.472613115
 30
0.0
 10
11.6662150791
 20
5.4731807382
 30
0.0
 10
11.6386095756
 20
5.4764605
 30
0.0
 10
11.6112739754
 20
5.4824197276
 30
0.0
 10
11.5844709108
 20
5.4910003014
 30
0.0
 10
11.5584577439
 20
5.5021190686
 30
0.0
 10
11.5334840533
 20
5.5156685228
 30
0.0
 10
11.5097894809
 20
5.5315182163
 30
0.0
 10
11.4876013058
 20
5.5495156332
 30
0.0
 10
11.467132366
 20
5.5694878138
 30
0.0
 10
11.4485792056
 20
5.5912430881
 30
0.0
 10
11.432119911
 20
5.6145726047
 30
0.0
 10
11.4179127364
 20
5.6392525595
 30
0.0
 10
11.4060944961
 20
5.6650462708
 30
0.0
 10
11.3967790739
 20
5.6917059446
 30
0.0
 10
11.3900567838
 20
5.7189766125
 30
0.0
 10
11.3859928342
 20
5.7465929087
 30
0.0
 10
11.3850794944
 20
5.765128112
 30
0.0
 10
11.3850794944
 20
5.7743589562
 30
0.0
  0
SPLINE
  5
38F
100
AcDbEntity
  8
0
100
AcDbSpline
 62
7
  6
CONTINUOUS
 70
0
 71
3
 72
39
 73
35
 74
0
 42
0.0000001
 43
0.0000001
 44
0.0000000001
 40
0.0
 40
0.0
 40
0.0
 40
0.0
 40
0.0311159584
 40
0.0620233352
 40
0.0927351385
 40
0.1232711775
 40
0.1536587332
 40
0.1839312107
 40
0.2141268395
 40
0.244287099
 40
0.2744549757
 40
0.3046731314
 40
0.3349820893
 40
0.3654185446
 40
0.396013864
 40
0.426792882
 40
0.4577729977
 40
0.4889636199
 40
0.5203659696
 40
0.5519731789
 40
0.5837707176
 40
0.6157370646
 40
0.6478445906
 40
0.68006064
 40
0.7123487314
 40
0.7446698626
 40
0.7769838842
 40
0.8092508939
 40
0.8414326248
 40
0.8734937998
 40
0.9054034138
 40
0.9371358961
 40
0.9686718081
 40
1.0
 40
1.0
 40
1.0
 40
1.0
 10
11.3850794944
 20
7.0235908292
 30
0.0
 10
11.3850794944
 20
7.0327591388
 30
0.0
 10
11.3859745756
 20
7.0510475626
 30
0.0
 10
11.3900225217
 20
7.0781145568
 30
0.0
 10
11.3967331675
 20
7.1044744883
 30
0.0
 10
11.4060429913
 20
7.1298694489
 30
0.0
 10
11.4178628402
 20
7.1540547784
 30
0.0
 10
11.4320793452
 20
7.1767961041
 30
0.0
 10
11.4485554904
 20
7.1978732584
 30
0.0
 10
11.4671321169
 20
7.2170821127
 30
0.0
 10
11.4876296046
 20
7.2342366139
 30
0.0
 10
11.5098493833
 20
7.249170999
 30
0.0
 10
11.533576285
 20
7.2617411357
 30
0.0
 10
11.5585805951
 20
7.2718260463
 30
0.0
 10
11.584620369
 20
7.2793292318
 30
0.0
 10
11.6114440062
 20
7.2841791125
 30
0.0
 10
11.6387925998
 20
7.286330031
 30
0.0
 10
11.6664025516
 20
7.2857624078
 30
0.0
 10
11.6940080551
 20
7.2824826461
 30
0.0
 10
11.7213436553
 20
7.2765234184
 30
0.0
 10
11.7481467199
 20
7.2679428447
 30
0.0
 10
11.7741598868
 20
7.2568240774
 30
0.0
 10
11.7991335774
 20
7.2432746232
 30
0.0
 10
11.8228281498
 20
7.2274249298
 30
0.0
 10
11.8450163249
 20
7.2094275129
 30
0.0
 10
11.8654852647
 20
7.1894553323
 30
0.0
 10
11.8840384251
 20
7.167700058
 30
0.0
 10
11.9004977197
 20
7.1443705413
 30
0.0
 10
11.9147048943
 20
7.1196905866
 30
0.0
 10
11.9265231346
 20
7.0938968753
 30
0.0
 10
11.9358385568
 20
7.0672372014
 30
0.0
 10
11.9425608469
 20
7.0399665335
 30
0.0
 10
11.9466247965
 20
7.0123502373
 30
0.0
 10
11.9475381363
 20
6.9938150341
 30
0.0
 10
11.9475381363
 20
6.9845841899
 30
0.0
  0
SPLINE
  5
390
100
AcDbEntity
  8
0
100
AcDbSpline
 62
7
  6
CONTINUOUS
 70
0
 71
3
 72
39
 73
35
 74
0
 42
0.0000001
 43
0.0000001
 44
0.0000000001
 40
0.0
 40
0.0
 40
0.0
 40
0.0
 40
0.0311159584
 40
0.0620233352
 40
0.0927351385
 40
0.1232711775
 40
0.1536587332
 40
0.1839312107
 40
0.2141268395
 40
0.244287099
 40
0.2744549757
 40
0.3046731314
 40
0.3349820893
 40
0.3654185446
 40
0.396013864
 40
0.426792882
 40
0.4577729977
 40
0.4889636199
 40
0.5203659696
 40
0.5519731789
 40
0.5837707176
 40
0.6157370646
 40
0.6478445906
 40
0.68006064
 40
0.7123487314
 40
0.7446698626
 40
0.7769838842
 40
0.8092508939
 40
0.8414326248
 40
0.8734937998
 40
0.9054034138
 40
0.9371358961
 40
0.9686718081
 40
1.0
 40
1.0
 40
1.0
 40
1.0
 10
11.9475381363
 20
6.9845841899
 30
0.0
 10
11.9475381363
 20
6.9754158803
 30
0.0
 10
11.9466430551
 20
6.9571274565
 30
0.0
 10
11.942595109
 20
6.9300604622
 30
0.0
 10
11.9358844632
 20
6.9037005308
 30
0.0
 10
11.9265746394
 20
6.8783055702
 30
0.0
 10
11.9147547905
 20
6.8541202406
 30
0.0
 10
11.9005382855
 20
6.831378915
 30
0.0
 10
11.8840621403
 20
6.8103017607
 30
0.0
 10
11.8654855138
 20
6.7910929064
 30
0.0
 10
11.8449880261
 20
6.7739384051
 30
0.0
 10
11.8227682474
 20
6.7590040201
 30
0.0
 10
11.7990413457
 20
6.7464338834
 30
0.0
 10
11.7740370356
 20
6.7363489728
 30
0.0
 10
11.7479972617
 20
6.7288457873
 30
0.0
 10
11.7211736245
 20
6.7239959066
 30
0.0
 10
11.6938250309
 20
6.721844988
 30
0.0
 10
11.6662150791
 20
6.7224126113
 30
0.0
 10
11.6386095756
 20
6.725692373
 30
0.0
 10
11.6112739754
 20
6.7316516007
 30
0.0
 10
11.5844709108
 20
6.7402321744
 30
0.0
 10
11.5584577439
 20
6.7513509417
 30
0.0
 10
11.5334840533
 20
6.7649003959
 30
0.0
 10
11.5097894809
 20
6.7807500893
 30
0.0
 10
11.4876013058
 20
6.7987475062
 30
0.0
 10
11.467132366
 20
6.8187196868
 30
0.0
 10
11.4485792056
 20
6.8404749611
 30
0.0
 10
11.432119911
 20
6.8638044778
 30
0.0
 10
11.4179127364
 20
6.8884844325
 30
0.0
 10
11.4060944961
 20
6.9142781438
 30
0.0
 10
11.3967790739
 20
6.9409378176
 30
0.0
 10
11.3900567838
 20
6.9682084856
 30
0.0
 10
11.3859928342
 20
6.9958247817
 30
0.0
 10
11.3850794944
 20
7.014359985
 30
0.0
 10
11.3850794944
 20
7.0235908292
 30
0.0
  0
SPLINE
  5
391
100
AcDbEntity
  8
0
100
AcDbSpline
 62
4
  6
CONTINUOUS
 70
0
 71
3
 72
281
 73
277
 74
0
 42
0.0000001
 43
0.0000001
 44
0.0000000001
 40
0.0
 40
0.0
 40
0.0
 40
0.0
 40
0.015625
 40
0.03125
 40
0.0390625
 40
0.046875
 40
0.05078125
 40
0.0546875
 40
0.05859375
 40
0.060546875
 40
0.0615234375
 40
0.0625
 40
0.0634765625
 40
0.064453125
 40
0.06640625
 40
0.0703125
 40
0.07421875
 40
0.078125
 40
0.0859375
 40
0.09375
 40
0.1015625
 40
0.109375
 40
0.11328125
 40
0.1171875
 40
0.119140625
 40
0.12109375
 40
0.123046875
 40
0.1240234375
 40
0.125
 40
0.1259765625
 40
0.126953125
 40
0.12890625
 40
0.130859375
 40
0.1328125
 40
0.13671875
 40
0.140625
 40
0.1484375
 40
0.15625
 40
0.1640625
 40
0.171875
 40
0.17578125
 40
0.1796875
 40
0.181640625
 40
0.18359375
 40
0.185546875
 40
0.1865234375
 40
0.1870117188
 40
0.1875
 40
0.1879882812
 40
0.1884765625
 40
0.189453125
 40
0.19140625
 40
0.193359375
 40
0.1953125
 40
0.19921875
 40
0.203125
 40
0.2109375
 40
0.21875
 40
0.2265625
 40
0.234375
 40
0.23828125
 40
0.2421875
 40
0.244140625
 40
0.24609375
 40
0.248046875
 40
0.2490234375
 40
0.2495117188
 40
0.25
 40
0.2504882812
 40
0.2509765625
 40
0.251953125
 40
0.25390625
 40
0.255859375
 40
0.2578125
 40
0.26171875
 40
0.265625
 40
0.2734375
 40
0.28125
 40
0.2890625
 40
0.296875
 40
0.30078125
 40
0.3046875
 40
0.306640625
 40
0.30859375
 40
0.310546875
 40
0.3115234375
 40
0.3120117188
 40
0.3125
 40
0.3129882812
 40
0.3134765625
 40
0.314453125
 40
0.31640625
 40
0.318359375
 40
0.3203125
 40
0.32421875
 40
0.328125
 40
0.3359375
 40
0.34375
 40
0.3515625
 40
0.359375
 40
0.36328125
 40
0.3671875
 40
0.369140625
 40
0.37109375
 40
0.373046875
 40
0.3740234375
 40
0.3745117188
 40
0.375
 40
0.3754882812
 40
0.3759765625
 40
0.376953125
 40
0.37890625
 40
0.380859375
 40
0.3828125
 40
0.38671875
 40
0.390625
 40
0.3984375
 40
0.40625
 40
0.4140625
 40
0.421875
 40
0.42578125
 40
0.4296875
 40
0.431640625
 40
0.43359375
 40
0.435546875
 40
0.4365234375
 40
0.4370117188
 40
0.4375
 40
0.4379882812
 40
0.4384765625
 40
0.439453125
 40
0.44140625
 40
0.443359375
 40
0.4453125
 40
0.44921875
 40
0.453125
 40
0.4609375
 40
0.46875
 40
0.4765625
 40
0.484375
 40
0.48828125
 40
0.4921875
 40
0.494140625
 40
0.49609375
 40
0.498046875
 40
0.4990234375
 40
0.4995117188
 40
0.5
 40
0.5004882812
 40
0.5009765625
 40
0.501953125
 40
0.50390625
 40
0.505859375
 40
0.5078125
 40
0.51171875
 40
0.515625
 40
0.5234375
 40
0.53125
 40
0.5390625
 40
0.546875
 40
0.55078125
 40
0.5546875
 40
0.556640625
 40
0.55859375
 40
0.560546875
 40
0.5615234375
 40
0.5620117188
 40
0.5625
 40
0.5629882812
 40
0.5634765625
 40
0.564453125
 40
0.56640625
 40
0.568359375
 40
0.5703125
 40
0.57421875
 40
0.578125
 40
0.5859375
 40
0.59375
 40
0.6015625
 40
0.609375
 40
0.61328125
 40
0.6171875
 40
0.619140625
 40
0.62109375
 40
0.623046875
 40
0.6240234375
 40
0.6245117188
 40
0.625
 40
0.6254882812
 40
0.6259765625
 40
0.626953125
 40
0.62890625
 40
0.630859375
 40
0.6328125
 40
0.63671875
 40
0.640625
 40
0.6484375
 40
0.65625
 40
0.6640625
 40
0.671875
 40
0.67578125
 40
0.6796875
 40
0.681640625
 40
0.68359375
 40
0.685546875
 40
0.6865234375
 40
0.6870117188
 40
0.6875
 40
0.6879882812
 40
0.6884765625
 40
0.689453125
 40
0.69140625
 40
0.693359375
 40
0.6953125
 40
0.69921875
 40
0.703125
 40
0.7109375
 40
0.71875
 40
0.7265625
 40
0.734375
 40
0.73828125
 40
0.7421875
 40
0.74609375
 40
0.748046875
 40
0.7490234375
 40
0.75
 40
0.7509765625
 40
0.751953125
 40
0.75390625
 40
0.7578125
 40
0.76171875
 40
0.765625
 40
0.7734375
 40
0.78125
 40
0.7890625
 40
0.796875
 40
0.80078125
 40
0.8046875
 40
0.80859375
 40
0.810546875
 40
0.8115234375
 40
0.8125
 40
0.8134765625
 40
0.814453125
 40
0.81640625
 40
0.8203125
 40
0.82421875
 40
0.828125
 40
0.8359375
 40
0.84375
 40
0.8515625
 40
0.859375
 40
0.8671875
 40
0.87109375
 40
0.873046875
 40
0.875
 40
0.876953125
 40
0.87890625
 40
0.8828125
 40
0.890625
 40
0.8984375
 40
0.90625
 40
0.9140625
 40
0.921875
 40
0.9296875
 40
0.93359375
 40
0.935546875
 40
0.9375
 40
0.939453125
 40
0.94140625
 40
0.9453125
 40
0.953125
 40
0.9609375
 40
0.96875
 40
0.984375
 40
1.0
 40
1.0
 40
1.0
 40
1.0
 10
12.75721151
 20
9.0416693755
 30
0.0
 10
12.7573102904
 20
9.0380049658
 30
0.0
 10
12.7575078553
 20
9.0306761532
 30
0.0
 10
12.7577547914
 20
9.0215151033
 30
0.0
 10
12.7579523824
 20
9.0141863352
 30
0.0
 10
12.7580757815
 20
9.0096056926
 30
0.0
 10
12.758174719
 20
9.0059415506
 30
0.0
 10
12.7582483246
 20
9.0031924255
 30
0.0
 10
12.7583115632
 20
9.0009047281
 30
0.0
 10
12.7583521005
 20
8.9992969813
 30
0.0
 10
12.7583810882
 20
8.9983881973
 30
0.0
 10
12.758386424
 20
8.9976786405
 30
0.0
 10
12.7584544681
 20
8.9970759947
 30
0.0
 10
12.7585233202
 20
8.9962351751
 30
0.0
 10
12.7586540026
 20
8.9947811159
 30
0.0
 10
12.7588353636
 20
8.9926948046
 30
0.0
 10
12.7590552774
 20
8.9901951191
 30
0.0
 10
12.7593476992
 20
8.9868608472
 30
0.0
 10
12.7597134994
 20
8.9826934721
 30
0.0
 10
12.7601523446
 20
8.9776924277
 30
0.0
 10
12.7605912132
 20
8.9726914169
 30
0.0
 10
12.7609569547
 20
8.9685239578
 30
0.0
 10
12.7612494938
 20
8.9651898538
 30
0.0
 10
12.7614324573
 20
8.9631063558
 30
0.0
 10
12.7615785379
 20
8.9614388309
 30
0.0
 10
12.7616888928
 20
8.9601901765
 30
0.0
 10
12.7617783281
 20
8.9591433028
 30
0.0
 10
12.7618555442
 20
8.9583199972
 30
0.0
 10
12.761897969
 20
8.9576637352
 30
0.0
 10
12.7619995089
 20
8.9571555074
 30
0.0
 10
12.7621142458
 20
8.9564261601
 30
0.0
 10
12.7622647517
 20
8.9555322175
 30
0.0
 10
12.7624423262
 20
8.9544518924
 30
0.0
 10
12.7626801515
 20
8.9530141114
 30
0.0
 10
12.7629770704
 20
8.9512159769
 30
0.0
 10
12.7634523434
 20
8.9483394692
 30
0.0
 10
12.7640463652
 20
8.944743661
 30
0.0
 10
12.7647592204
 20
8.9404287635
 30
0.0
 10
12.7654720703
 20
8.9361138542
 30
0.0
 10
12.7660661052
 20
8.9325180754
 30
0.0
 10
12.7665413519
 20
8.9296415088
 30
0.0
 10
12.7668383376
 20
8.9278435242
 30
0.0
 10
12.7670760259
 20
8.9264054356
 30
0.0
 10
12.7672540188
 20
8.9253260501
 30
0.0
 10
12.7674032158
 20
8.9244291679
 30
0.0
 10
12.7675059472
 20
8.9237962365
 30
0.0
 10
12.7675673153
 20
8.9234425464
 30
0.0
 10
12.7676058358
 20
8.9231547852
 30
0.0
 10
12.7676730464
 20
8.9229530057
 30
0.0
 10
12.7677526532
 20
8.922653975
 30
0.0
 10
12.7678966276
 20
8.9221446448
 30
0.0
 10
12.7680998677
 20
8.9214097247
 30
0.0
 10
12.7683447992
 20
8.9205309475
 30
0.0
 10
12.7686710102
 20
8.9193581525
 30
0.0
 10
12.7690788986
 20
8.9178925327
 30
0.0
 10
12.7697314504
 20
8.9155473319
 30
0.0
 10
12.7705471642
 20
8.9126159033
 30
0.0
 10
12.7715260099
 20
8.9090981552
 30
0.0
 10
12.7725048604
 20
8.9055804263
 30
0.0
 10
12.7733205622
 20
8.9026489497
 30
0.0
 10
12.7739731378
 20
8.9003038448
 30
0.0
 10
12.7743809657
 20
8.8988379814
 30
0.0
 10
12.774707301
 20
8.8976656863
 30
0.0
 10
12.7749518526
 20
8.8967853817
 30
0.0
 10
12.7751562814
 20
8.8960552406
 30
0.0
 10
12.7752981339
 20
8.8955373791
 30
0.0
 10
12.7753811405
 20
8.8952520177
 30
0.0
 10
12.7754379079
 20
8.8950082505
 30
0.0
 10
12.7755156513
 20
8.8948781881
 30
0.0
 10
12.7756119925
 20
8.89466511
 30
0.0
 10
12.7757839986
 20
8.8943107025
 30
0.0
 10
12.7760279393
 20
8.893794745
 30
0.0
 10
12.776321431
 20
8.8931797311
 30
0.0
 10
12.7767124868
 20
8.8923582684
 30
0.0
 10
12.7772013979
 20
8.8913319345
 30
0.0
 10
12.7779836045
 20
8.8896895237
 30
0.0
 10
12.7789613804
 20
8.8876366058
 30
0.0
 10
12.7801347034
 20
8.8851730606
 30
0.0
 10
12.7813080302
 20
8.8827095374
 30
0.0
 10
12.7822857968
 20
8.8806565643
 30
0.0
 10
12.783068022
 20
8.8790142639
 30
0.0
 10
12.7835568858
 20
8.8779876495
 30
0.0
 10
12.7839480386
 20
8.8771667626
 30
0.0
 10
12.7842412339
 20
8.8765499894
 30
0.0
 10
12.7844861021
 20
8.8760395364
 30
0.0
 10
12.7846564524
 20
8.8756753023
 30
0.0
 10
12.7847554466
 20
8.875477969
 30
0.0
 10
12.7848250407
 20
8.8752995437
 30
0.0
 10
12.7849124156
 20
8.8752374193
 30
0.0
 10
12.7850227133
 20
8.8751140196
 30
0.0
 10
12.785218624
 20
8.8749169712
 30
0.0
 10
12.7854969856
 20
8.8746255918
 30
0.0
 10
12.7858316662
 20
8.8742801662
 30
0.0
 10
12.7862776812
 20
8.8738181214
 30
0.0
 10
12.7868352772
 20
8.8732410713
 30
0.0
 10
12.7877273876
 20
8.8723175082
 30
0.0
 10
12.7888425406
 20
8.8711631521
 30
0.0
 10
12.7901807174
 20
8.8697778799
 30
0.0
 10
12.7915188971
 20
8.8683926307
 30
0.0
 10
12.7926340429
 20
8.8672382174
 30
0.0
 10
12.7935261677
 20
8.8663147687
 30
0.0
 10
12.7940837271
 20
8.8657374278
 30
0.0
 10
12.7945298173
 20
8.8652759797
 30
0.0
 10
12.7948642679
 20
8.8649287313
 30
0.0
 10
12.7951433491
 20
8.8646430549
 30
0.0
 10
12.7953379753
 20
8.8644358257
 30
0.0
 10
12.795450331
 20
8.8643287381
 30
0.0
 10
12.7955313844
 20
8.8642165083
 30
0.0
 10
12.795624721
 20
8.8642262704
 30
0.0
 10
12.7957448852
 20
8.8641967343
 30
0.0
 10
12.7959571689
 20
8.864164872
 30
0.0
 10
12.7962593877
 20
8.8641089892
 30
0.0
 10
12.7966224969
 20
8.8640463665
 30
0.0
 10
12.7971064865
 20
8.86396132
 30
0.0
 10
12.7977115269
 20
8.8638555424
 30
0.0
 10
12.7986795617
 20
8.8636860017
 30
0.0
 10
12.7998896155
 20
8.8634741782
 30
0.0
 10
12.8013416754
 20
8.8632199431
 30
0.0
 10
12.8027937374
 20
8.8629657318
 30
0.0
 10
12.804003786
 20
8.8627538489
 30
0.0
 10
12.8049718311
 20
8.8625844271
 30
0.0
 10
12.8055768453
 20
8.8624783472
 30
0.0
 10
12.8060608887
 20
8.8623939212
 30
0.0
 10
12.8064238333
 20
8.8623294027
 30
0.0
 10
12.8067265673
 20
8.8622794513
 30
0.0
 10
12.8069379311
 20
8.8622370005
 30
0.0
 10
12.8070595692
 20
8.8622244299
 30
0.0
 10
12.8071483787
 20
8.8621820794
 30
0.0
 10
12.8072464351
 20
8.8622655755
 30
0.0
 10
12.8073739515
 20
8.8623330069
 30
0.0
 10
12.8075986079
 20
8.8624714641
 30
0.0
 10
12.8079187601
 20
8.8626585675
 30
0.0
 10
12.808303279
 20
8.8628876683
 30
0.0
 10
12.8088158534
 20
8.8631915375
 30
0.0
 10
12.8094566116
 20
8.8635719214
 30
0.0
 10
12.8104818023
 20
8.8641802296
 30
0.0
 10
12.8117632984
 20
8.8649407205
 30
0.0
 10
12.8133010904
 20
8.8658532614
 30
0.0
 10
12.814838883
 20
8.8667658258
 30
0.0
 10
12.8161203776
 20
8.867526258
 30
0.0
 10
12.8171455713
 20
8.8681346836
 30
0.0
 10
12.8177863218
 20
8.8685147692
 30
0.0
 10
12.8182989121
 20
8.8688192506
 30
0.0
 10
12.8186833823
 20
8.8690464812
 30
0.0
 10
12.819003687
 20
8.869239436
 30
0.0
 10
12.8192280711
 20
8.8693674473
 30
0.0
 10
12.8193560239
 20
8.8694516158
 30
0.0
 10
12.8194527399
 20
8.869483701
 30
0.0
 10
12.8195465835
 20
8.869634441
 30
0.0
 10
12.8196727103
 20
8.8697940396
 30
0.0
 10
12.8198929653
 20
8.8700926205
 30
0.0
 10
12.8202078593
 20
8.8705090831
 30
0.0
 10
12.8205856277
 20
8.8710131534
 30
0.0
 10
12.8210893554
 20
8.87168374
 30
0.0
 10
12.8217190025
 20
8.8725224894
 30
0.0
 10
12.8227264449
 20
8.8738641997
 30
0.0
 10
12.8239857455
 20
8.8755414373
 30
0.0
 10
12.8254969073
 20
8.8775540771
 30
0.0
 10
12.8270080683
 20
8.8795667389
 30
0.0
 10
12.828267371
 20
8.8812439214
 30
0.0
 10
12.829274809
 20
8.882585742
 30
0.0
 10
12.8299044672
 20
8.8834242112
 30
0.0
 10
12.8304081721
 20
8.8840953728
 30
0.0
 10
12.83078601
 20
8.8845976863
 30
0.0
 10
12.8311006867
 20
8.8850196456
 30
0.0
 10
12.8313213297
 20
8.8853084141
 30
0.0
 10
12.8314468348
 20
8.8854837346
 30
0.0
 10
12.8315425878
 20
8.8855861816
 30
0.0
 10
12.8316321325
 20
8.8857996473
 30
0.0
 10
12.831753691
 20
8.8860455436
 30
0.0
 10
12.8319654094
 20
8.8864939047
 30
0.0
 10
12.8322683917
 20
8.8871249877
 30
0.0
 10
12.8326317446
 20
8.8878863248
 30
0.0
 10
12.8331162941
 20
8.8889000308
 30
0.0
 10
12.833721954
 20
8.8901676461
 30
0.0
 10
12.8346910248
 20
8.8921955606
 30
0.0
 10
12.8359023581
 20
8.894730547
 30
0.0
 10
12.8373559607
 20
8.8977724883
 30
0.0
 10
12.8388095615
 20
8.9008144498
 30
0.0
 10
12.8400208992
 20
8.9033493858
 30
0.0
 10
12.8409899612
 20
8.9053774009
 30
0.0
 10
12.8415956435
 20
8.9066447606
 30
0.0
 10
12.842080147
 20
8.9076589912
 30
0.0
 10
12.8424436406
 20
8.9084187255
 30
0.0
 10
12.8427461828
 20
8.9090548233
 30
0.0
 10
12.8429586868
 20
8.9094942321
 30
0.0
 10
12.8430789865
 20
8.9097544723
 30
0.0
 10
12.8431723977
 20
8.9099238783
 30
0.0
 10
12.8432536288
 20
8.9101918058
 30
0.0
 10
12.8433661855
 20
8.9105146771
 30
0.0
 10
12.8435611802
 20
8.9110957134
 30
0.0
 10
12.843840779
 20
8.9119173941
 30
0.0
 10
12.8441758545
 20
8.9129069941
 30
0.0
 10
12.8446227766
 20
8.9142252093
 30
0.0
 10
12.8451813763
 20
8.9158734067
 30
0.0
 10
12.8460751654
 20
8.9185102831
 30
0.0
 10
12.8471923916
 20
8.9218064613
 30
0.0
 10
12.8485330677
 20
8.9257618374
 30
0.0
 10
12.8498737412
 20
8.9297172318
 30
0.0
 10
12.850990974
 20
8.9330133643
 30
0.0
 10
12.8518847498
 20
8.9356503321
 30
0.0
 10
12.8524433834
 20
8.9372982972
 30
0.0
 10
12.8528902359
 20
8.9386169893
 30
0.0
 10
12.8532255241
 20
8.939605132
 30
0.0
 10
12.8535044577
 20
8.9404313723
 30
0.0
 10
12.8537006399
 20
8.9410042691
 30
0.0
 10
12.853811294
 20
8.9413401817
 30
0.0
 10
12.8538983691
 20
8.9415680503
 30
0.0
 10
12.8539698311
 20
8.9418879111
 30
0.0
 10
12.8540705598
 20
8.9422823042
 30
0.0
 10
12.8542442976
 20
8.9429874425
 30
0.0
 10
12.854493821
 20
8.9439869667
 30
0.0
 10
12.8547926813
 20
8.9451897413
 30
0.0
 10
12.8551913601
 20
8.9467922723
 30
0.0
 10
12.8556896406
 20
8.9487958362
 30
0.0
 10
12.8564869275
 20
8.9520013144
 30
0.0
 10
12.8574835217
 20
8.956008242
 30
0.0
 10
12.8586794471
 20
8.9608165075
 30
0.0
 10
12.8598753459
 20
8.965624836
 30
0.0
 10
12.8608720066
 20
8.9696316059
 30
0.0
 10
12.8616691605
 20
8.9728373996
 30
0.0
 10
12.862267503
 20
8.9752407139
 30
0.0
 10
12.8627646041
 20
8.977246755
 30
0.0
 10
12.8631155533
 20
8.9786445486
 30
0.0
 10
12.8633114452
 20
8.9794533357
 30
0.0
 10
12.8634714645
 20
8.9800316209
 30
0.0
 10
12.8635814075
 20
8.9807181027
 30
0.0
 10
12.8637454655
 20
8.9815956717
 30
0.0
 10
12.8640244285
 20
8.9831490012
 30
0.0
 10
12.864427202
 20
8.9853588504
 30
0.0
 10
12.8649087089
 20
8.9880146044
 30
0.0
 10
12.8655513546
 20
8.9915542348
 30
0.0
 10
12.8663544417
 20
8.995979247
 30
0.0
 10
12.8673182472
 20
9.0012890482
 30
0.0
 10
12.868282001
 20
9.0065989444
 30
0.0
 10
12.8690852175
 20
9.0110237188
 30
0.0
 10
12.8697276043
 20
9.0145638248
 30
0.0
 10
12.8702099007
 20
9.0172181283
 30
0.0
 10
12.8706102044
 20
9.0194325152
 30
0.0
 10
12.8708935765
 20
9.0209777442
 30
0.0
 10
12.8710505701
 20
9.0218682922
 30
0.0
 10
12.8711822123
 20
9.0225149066
 30
0.0
 10
12.8712607333
 20
9.0232429276
 30
0.0
 10
12.8713839571
 20
9.0241852267
 30
0.0
 10
12.8715909657
 20
9.0258474802
 30
0.0
 10
12.8718912059
 20
9.0282152111
 30
0.0
 10
12.8722495616
 20
9.0310594492
 30
0.0
 10
12.8727280467
 20
9.0348507309
 30
0.0
 10
12.8733259031
 20
9.0395901988
 30
0.0
 10
12.8740435147
 20
9.0452773583
 30
0.0
 10
12.8747607904
 20
9.0509647403
 30
0.0
 10
12.8754792257
 20
9.0566514343
 30
0.0
 10
12.8760743365
 20
9.061392454
 30
0.0
 10
12.8764979358
 20
9.0647070418
 30
0.0
 10
12.8767290309
 20
9.0666075328
 30
0.0
 10
12.8769332309
 20
9.0680147574
 30
0.0
 10
12.8770193971
 20
9.0694913361
 30
0.0
 10
12.8771754569
 20
9.0714359162
 30
0.0
 10
12.8774293781
 20
9.0748502029
 30
0.0
 10
12.8778021586
 20
9.0797218609
 30
0.0
 10
12.8782451707
 20
9.0855703805
 30
0.0
 10
12.8786894231
 20
9.0914182111
 30
0.0
 10
12.879133039
 20
9.0972662676
 30
0.0
 10
12.8795779609
 20
9.1031141094
 30
0.0
 10
12.8799449059
 20
9.1079878383
 30
0.0
 10
12.880209225
 20
9.111398435
 30
0.0
 10
12.8803486269
 20
9.1133489266
 30
0.0
 10
12.8804859603
 20
9.1148073475
 30
0.0
 10
12.8804979849
 20
9.1162827698
 30
0.0
 10
12.8805577268
 20
9.1182440694
 30
0.0
 10
12.8806419102
 20
9.1216791066
 30
0.0
 10
12.8807728193
 20
9.126584858
 30
0.0
 10
12.8809253528
 20
9.132472378
 30
0.0
 10
12.8811303232
 20
9.1403221887
 30
0.0
 10
12.8813859863
 20
9.1501345267
 30
0.0
 10
12.8815906843
 20
9.1579843743
 30
0.0
 10
12.8816930124
 20
9.161909301
 30
0.0
  0
SPLINE
  5
392
100
AcDbEntity
  8
0
100
AcDbSpline
 62
4
  6
CONTINUOUS
 70
0
 71
3
 72
281
 73
277
 74
0
 42
0.0000001
 43
0.0000001
 44
0.0000000001
 40
0.0
 40
0.0
 40
0.0
 40
0.0
 40
0.015625
 40
0.03125
 40
0.0390625
 40
0.046875
 40
0.05078125
 40
0.0546875
 40
0.05859375
 40
0.060546875
 40
0.0615234375
 40
0.0625
 40
0.0634765625
 40
0.064453125
 40
0.06640625
 40
0.0703125
 40
0.07421875
 40
0.078125
 40
0.0859375
 40
0.09375
 40
0.1015625
 40
0.109375
 40
0.11328125
 40
0.1171875
 40
0.119140625
 40
0.12109375
 40
0.123046875
 40
0.1240234375
 40
0.125
 40
0.1259765625
 40
0.126953125
 40
0.12890625
 40
0.130859375
 40
0.1328125
 40
0.13671875
 40
0.140625
 40
0.1484375
 40
0.15625
 40
0.1640625
 40
0.171875
 40
0.17578125
 40
0.1796875
 40
0.181640625
 40
0.18359375
 40
0.185546875
 40
0.1865234375
 40
0.1870117188
 40
0.1875
 40
0.1879882812
 40
0.1884765625
 40
0.189453125
 40
0.19140625
 40
0.193359375
 40
0.1953125
 40
0.19921875
 40
0.203125
 40
0.2109375
 40
0.21875
 40
0.2265625
 40
0.234375
 40
0.23828125
 40
0.2421875
 40
0.244140625
 40
0.24609375
 40
0.248046875
 40
0.2490234375
 40
0.2495117188
 40
0.25
 40
0.2504882812
 40
0.2509765625
 40
0.251953125
 40
0.25390625
 40
0.255859375
 40
0.2578125
 40
0.26171875
 40
0.265625
 40
0.2734375
 40
0.28125
 40
0.2890625
 40
0.296875
 40
0.30078125
 40
0.3046875
 40
0.306640625
 40
0.30859375
 40
0.310546875
 40
0.3115234375
 40
0.3120117188
 40
0.3125
 40
0.3129882812
 40
0.3134765625
 40
0.314453125
 40
0.31640625
 40
0.318359375
 40
0.3203125
 40
0.32421875
 40
0.328125
 40
0.3359375
 40
0.34375
 40
0.3515625
 40
0.359375
 40
0.36328125
 40
0.3671875
 40
0.369140625
 40
0.37109375
 40
0.373046875
 40
0.3740234375
 40
0.3745117188
 40
0.375
 40
0.3754882812
 40
0.3759765625
 40
0.376953125
 40
0.37890625
 40
0.380859375
 40
0.3828125
 40
0.38671875
 40
0.390625
 40
0.3984375
 40
0.40625
 40
0.4140625
 40
0.421875
 40
0.42578125
 40
0.4296875
 40
0.431640625
 40
0.43359375
 40
0.435546875
 40
0.4365234375
 40
0.4370117188
 40
0.4375
 40
0.4379882812
 40
0.4384765625
 40
0.439453125
 40
0.44140625
 40
0.443359375
 40
0.4453125
 40
0.44921875
 40
0.453125
 40
0.4609375
 40
0.46875
 40
0.4765625
 40
0.484375
 40
0.48828125
 40
0.4921875
 40
0.494140625
 40
0.49609375
 40
0.498046875
 40
0.4990234375
 40
0.4995117188
 40
0.5
 40
0.5004882812
 40
0.5009765625
 40
0.501953125
 40
0.50390625
 40
0.505859375
 40
0.5078125
 40
0.51171875
 40
0.515625
 40
0.5234375
 40
0.53125
 40
0.5390625
 40
0.546875
 40
0.55078125
 40
0.5546875
 40
0.556640625
 40
0.55859375
 40
0.560546875
 40
0.5615234375
 40
0.5620117188
 40
0.5625
 40
0.5629882812
 40
0.5634765625
 40
0.564453125
 40
0.56640625
 40
0.568359375
 40
0.5703125
 40
0.57421875
 40
0.578125
 40
0.5859375
 40
0.59375
 40
0.6015625
 40
0.609375
 40
0.61328125
 40
0.6171875
 40
0.619140625
 40
0.62109375
 40
0.623046875
 40
0.6240234375
 40
0.6245117188
 40
0.625
 40
0.6254882812
 40
0.6259765625
 40
0.626953125
 40
0.62890625
 40
0.630859375
 40
0.6328125
 40
0.63671875
 40
0.640625
 40
0.6484375
 40
0.65625
 40
0.6640625
 40
0.671875
 40
0.67578125
 40
0.6796875
 40
0.681640625
 40
0.68359375
 40
0.685546875
 40
0.6865234375
 40
0.6870117188
 40
0.6875
 40
0.6879882812
 40
0.6884765625
 40
0.689453125
 40
0.69140625
 40
0.693359375
 40
0.6953125
 40
0.69921875
 40
0.703125
 40
0.7109375
 40
0.71875
 40
0.7265625
 40
0.734375
 40
0.73828125
 40
0.7421875
 40
0.74609375
 40
0.748046875
 40
0.7490234375
 40
0.75
 40
0.7509765625
 40
0.751953125
 40
0.75390625
 40
0.7578125
 40
0.76171875
 40
0.765625
 40
0.7734375
 40
0.78125
 40
0.7890625
 40
0.796875
 40
0.80078125
 40
0.8046875
 40
0.80859375
 40
0.810546875
 40
0.8115234375
 40
0.8125
 40
0.8134765625
 40
0.814453125
 40
0.81640625
 40
0.8203125
 40
0.82421875
 40
0.828125
 40
0.8359375
 40
0.84375
 40
0.8515625
 40
0.859375
 40
0.8671875
 40
0.87109375
 40
0.873046875
 40
0.875
 40
0.876953125
 40
0.87890625
 40
0.8828125
 40
0.890625
 40
0.8984375
 40
0.90625
 40
0.9140625
 40
0.921875
 40
0.9296875
 40
0.93359375
 40
0.935546875
 40
0.9375
 40
0.939453125
 40
0.94140625
 40
0.9453125
 40
0.953125
 40
0.9609375
 40
0.96875
 40
0.984375
 40
1.0
 40
1.0
 40
1.0
 40
1.0
 10
12.8816930124
 20
9.1619092807
 30
0.0
 10
12.8815942319
 20
9.1655736904
 30
0.0
 10
12.881396667
 20
9.172902503
 30
0.0
 10
12.8811497309
 20
9.1820635529
 30
0.0
 10
12.8809521399
 20
9.189392321
 30
0.0
 10
12.8808287409
 20
9.1939729635
 30
0.0
 10
12.8807298034
 20
9.1976371056
 30
0.0
 10
12.8806561977
 20
9.2003862306
 30
0.0
 10
12.8805929592
 20
9.202673928
 30
0.0
 10
12.8805524219
 20
9.2042816749
 30
0.0
 10
12.8805234341
 20
9.2051904589
 30
0.0
 10
12.8805180983
 20
9.2059000156
 30
0.0
 10
12.8804500542
 20
9.2065026615
 30
0.0
 10
12.8803812022
 20
9.207343481
 30
0.0
 10
12.8802505198
 20
9.2087975403
 30
0.0
 10
12.8800691588
 20
9.2108838516
 30
0.0
 10
12.879849245
 20
9.213383537
 30
0.0
 10
12.8795568232
 20
9.216717809
 30
0.0
 10
12.879191023
 20
9.220885184
 30
0.0
 10
12.8787521778
 20
9.2258862285
 30
0.0
 10
12.8783133092
 20
9.2308872393
 30
0.0
 10
12.8779475676
 20
9.2350546983
 30
0.0
 10
12.8776550285
 20
9.2383888023
 30
0.0
 10
12.8774720651
 20
9.2404723004
 30
0.0
 10
12.8773259844
 20
9.2421398253
 30
0.0
 10
12.8772156296
 20
9.2433884797
 30
0.0
 10
12.8771261942
 20
9.2444353533
 30
0.0
 10
12.8770489782
 20
9.245258659
 30
0.0
 10
12.8770065534
 20
9.2459149209
 30
0.0
 10
12.8769050134
 20
9.2464231487
 30
0.0
 10
12.8767902766
 20
9.247152496
 30
0.0
 10
12.8766397707
 20
9.2480464387
 30
0.0
 10
12.8764621961
 20
9.2491267638
 30
0.0
 10
12.8762243709
 20
9.2505645448
 30
0.0
 10
12.8759274519
 20
9.2523626793
 30
0.0
 10
12.875452179
 20
9.2552391869
 30
0.0
 10
12.8748581572
 20
9.2588349952
 30
0.0
 10
12.874145302
 20
9.2631498927
 30
0.0
 10
12.873432452
 20
9.2674648019
 30
0.0
 10
12.8728384171
 20
9.2710605807
 30
0.0
 10
12.8723631704
 20
9.2739371473
 30
0.0
 10
12.8720661848
 20
9.275735132
 30
0.0
 10
12.8718284965
 20
9.2771732205
 30
0.0
 10
12.8716505035
 20
9.2782526061
 30
0.0
 10
12.8715013066
 20
9.2791494883
 30
0.0
 10
12.8713985751
 20
9.2797824196
 30
0.0
 10
12.8713372071
 20
9.2801361098
 30
0.0
 10
12.8712986866
 20
9.280423871
 30
0.0
 10
12.8712314759
 20
9.2806256505
 30
0.0
 10
12.8711518692
 20
9.2809246812
 30
0.0
 10
12.8710078948
 20
9.2814340114
 30
0.0
 10
12.8708046546
 20
9.2821689315
 30
0.0
 10
12.8705597231
 20
9.2830477086
 30
0.0
 10
12.8702335122
 20
9.2842205037
 30
0.0
 10
12.8698256237
 20
9.2856861235
 30
0.0
 10
12.8691730719
 20
9.2880313243
 30
0.0
 10
12.8683573582
 20
9.2909627529
 30
0.0
 10
12.8673785125
 20
9.294480501
 30
0.0
 10
12.866399662
 20
9.2979982299
 30
0.0
 10
12.8655839601
 20
9.3009297064
 30
0.0
 10
12.8649313845
 20
9.3032748114
 30
0.0
 10
12.8645235566
 20
9.3047406748
 30
0.0
 10
12.8641972214
 20
9.3059129699
 30
0.0
 10
12.8639526697
 20
9.3067932744
 30
0.0
 10
12.863748241
 20
9.3075234155
 30
0.0
 10
12.8636063884
 20
9.3080412771
 30
0.0
 10
12.8635233819
 20
9.3083266385
 30
0.0
 10
12.8634666144
 20
9.3085704057
 30
0.0
 10
12.863388871
 20
9.3087004681
 30
0.0
 10
12.8632925298
 20
9.3089135461
 30
0.0
 10
12.8631205238
 20
9.3092679537
 30
0.0
 10
12.8628765831
 20
9.3097839112
 30
0.0
 10
12.8625830913
 20
9.310398925
 30
0.0
 10
12.8621920355
 20
9.3112203878
 30
0.0
 10
12.8617031245
 20
9.3122467217
 30
0.0
 10
12.8609209179
 20
9.3138891324
 30
0.0
 10
12.859943142
 20
9.3159420504
 30
0.0
 10
12.8587698189
 20
9.3184055956
 30
0.0
 10
12.8575964921
 20
9.3208691187
 30
0.0
 10
12.8566187255
 20
9.3229220919
 30
0.0
 10
12.8558365003
 20
9.3245643922
 30
0.0
 10
12.8553476366
 20
9.3255910067
 30
0.0
 10
12.8549564837
 20
9.3264118936
 30
0.0
 10
12.8546632885
 20
9.3270286668
 30
0.0
 10
12.8544184202
 20
9.3275391197
 30
0.0
 10
12.85424807
 20
9.3279033539
 30
0.0
 10
12.8541490757
 20
9.3281006872
 30
0.0
 10
12.8540794817
 20
9.3282791124
 30
0.0
 10
12.8539921068
 20
9.3283412369
 30
0.0
 10
12.8538818091
 20
9.3284646365
 30
0.0
 10
12.8536858984
 20
9.328661685
 30
0.0
 10
12.8534075367
 20
9.3289530643
 30
0.0
 10
12.8530728561
 20
9.3292984899
 30
0.0
 10
12.8526268412
 20
9.3297605347
 30
0.0
 10
12.8520692451
 20
9.3303375849
 30
0.0
 10
12.8511771347
 20
9.331261148
 30
0.0
 10
12.8500619818
 20
9.3324155041
 30
0.0
 10
12.8487238049
 20
9.3338007762
 30
0.0
 10
12.8473856252
 20
9.3351860255
 30
0.0
 10
12.8462704795
 20
9.3363404388
 30
0.0
 10
12.8453783547
 20
9.3372638875
 30
0.0
 10
12.8448207953
 20
9.3378412283
 30
0.0
 10
12.8443747051
 20
9.3383026765
 30
0.0
 10
12.8440402544
 20
9.3386499249
 30
0.0
 10
12.8437611733
 20
9.3389356013
 30
0.0
 10
12.843566547
 20
9.3391428304
 30
0.0
 10
12.8434541913
 20
9.339249918
 30
0.0
 10
12.8433731379
 20
9.3393621478
 30
0.0
 10
12.8432798014
 20
9.3393523858
 30
0.0
 10
12.8431596371
 20
9.3393819219
 30
0.0
 10
12.8429473534
 20
9.3394137842
 30
0.0
 10
12.8426451347
 20
9.3394696669
 30
0.0
 10
12.8422820255
 20
9.3395322896
 30
0.0
 10
12.8417980359
 20
9.3396173362
 30
0.0
 10
12.8411929955
 20
9.3397231137
 30
0.0
 10
12.8402249607
 20
9.3398926545
 30
0.0
 10
12.8390149069
 20
9.3401044779
 30
0.0
 10
12.837562847
 20
9.340358713
 30
0.0
 10
12.836110785
 20
9.3406129243
 30
0.0
 10
12.8349007364
 20
9.3408248073
 30
0.0
 10
12.8339326913
 20
9.3409942291
 30
0.0
 10
12.8333276771
 20
9.341100309
 30
0.0
 10
12.8328436336
 20
9.341184735
 30
0.0
 10
12.8324806891
 20
9.3412492534
 30
0.0
 10
12.8321779551
 20
9.3412992048
 30
0.0
 10
12.8319665912
 20
9.3413416556
 30
0.0
 10
12.8318449532
 20
9.3413542263
 30
0.0
 10
12.8317561437
 20
9.3413965767
 30
0.0
 10
12.8316580873
 20
9.3413130807
 30
0.0
 10
12.8315305709
 20
9.3412456493
 30
0.0
 10
12.8313059144
 20
9.341107192
 30
0.0
 10
12.8309857622
 20
9.3409200887
 30
0.0
 10
12.8306012433
 20
9.3406909878
 30
0.0
 10
12.8300886689
 20
9.3403871186
 30
0.0
 10
12.8294479107
 20
9.3400067347
 30
0.0
 10
12.82842272
 20
9.3393984266
 30
0.0
 10
12.827141224
 20
9.3386379357
 30
0.0
 10
12.825603432
 20
9.3377253947
 30
0.0
 10
12.8240656393
 20
9.3368128303
 30
0.0
 10
12.8227841448
 20
9.3360523981
 30
0.0
 10
12.8217589511
 20
9.3354439726
 30
0.0
 10
12.8211182006
 20
9.335063887
 30
0.0
 10
12.8206056102
 20
9.3347594056
 30
0.0
 10
12.8202211401
 20
9.334532175
 30
0.0
 10
12.8199008354
 20
9.3343392201
 30
0.0
 10
12.8196764512
 20
9.3342112088
 30
0.0
 10
12.8195484985
 20
9.3341270404
 30
0.0
 10
12.8194517824
 20
9.3340949551
 30
0.0
 10
12.8193579388
 20
9.3339442152
 30
0.0
 10
12.8192318121
 20
9.3337846166
 30
0.0
 10
12.8190115571
 20
9.3334860357
 30
0.0
 10
12.818696663
 20
9.3330695731
 30
0.0
 10
12.8183188946
 20
9.3325655027
 30
0.0
 10
12.8178151669
 20
9.3318949161
 30
0.0
 10
12.8171855198
 20
9.3310561668
 30
0.0
 10
12.8161780774
 20
9.3297144564
 30
0.0
 10
12.8149187769
 20
9.3280372188
 30
0.0
 10
12.8134076151
 20
9.3260245791
 30
0.0
 10
12.8118964541
 20
9.3240119173
 30
0.0
 10
12.8106371514
 20
9.3223347348
 30
0.0
 10
12.8096297134
 20
9.3209929142
 30
0.0
 10
12.8090000552
 20
9.320154445
 30
0.0
 10
12.8084963502
 20
9.3194832834
 30
0.0
 10
12.8081185124
 20
9.3189809698
 30
0.0
 10
12.8078038356
 20
9.3185590106
 30
0.0
 10
12.8075831927
 20
9.3182702421
 30
0.0
 10
12.8074576875
 20
9.3180949215
 30
0.0
 10
12.8073619345
 20
9.3179924745
 30
0.0
 10
12.8072723898
 20
9.3177790089
 30
0.0
 10
12.8071508314
 20
9.3175331125
 30
0.0
 10
12.806939113
 20
9.3170847515
 30
0.0
 10
12.8066361307
 20
9.3164536685
 30
0.0
 10
12.8062727777
 20
9.3156923313
 30
0.0
 10
12.8057882283
 20
9.3146786254
 30
0.0
 10
12.8051825684
 20
9.3134110101
 30
0.0
 10
12.8042134975
 20
9.3113830955
 30
0.0
 10
12.8030021642
 20
9.3088481092
 30
0.0
 10
12.8015485617
 20
9.3058061678
 30
0.0
 10
12.8000949609
 20
9.3027642064
 30
0.0
 10
12.7988836232
 20
9.3002292703
 30
0.0
 10
12.7979145611
 20
9.2982012552
 30
0.0
 10
12.7973088788
 20
9.2969338955
 30
0.0
 10
12.7968243754
 20
9.2959196649
 30
0.0
 10
12.7964608818
 20
9.2951599306
 30
0.0
 10
12.7961583396
 20
9.2945238328
 30
0.0
 10
12.7959458356
 20
9.294084424
 30
0.0
 10
12.7958255359
 20
9.2938241839
 30
0.0
 10
12.7957321247
 20
9.2936547778
 30
0.0
 10
12.7956508936
 20
9.2933868503
 30
0.0
 10
12.7955383369
 20
9.293063979
 30
0.0
 10
12.7953433422
 20
9.2924829428
 30
0.0
 10
12.7950637434
 20
9.291661262
 30
0.0
 10
12.7947286679
 20
9.290671662
 30
0.0
 10
12.7942817457
 20
9.2893534469
 30
0.0
 10
12.793723146
 20
9.2877052494
 30
0.0
 10
12.7928293569
 20
9.2850683731
 30
0.0
 10
12.7917121308
 20
9.2817721949
 30
0.0
 10
12.7903714546
 20
9.2778168187
 30
0.0
 10
12.7890307811
 20
9.2738614243
 30
0.0
 10
12.7879135483
 20
9.2705652919
 30
0.0
 10
12.7870197725
 20
9.2679283241
 30
0.0
 10
12.786461139
 20
9.266280359
 30
0.0
 10
12.7860142864
 20
9.2649616668
 30
0.0
 10
12.7856789983
 20
9.2639735241
 30
0.0
 10
12.7854000646
 20
9.2631472839
 30
0.0
 10
12.7852038825
 20
9.2625743871
 30
0.0
 10
12.7850932284
 20
9.2622384744
 30
0.0
 10
12.7850061533
 20
9.2620106058
 30
0.0
 10
12.7849346913
 20
9.2616907451
 30
0.0
 10
12.7848339626
 20
9.261296352
 30
0.0
 10
12.7846602248
 20
9.2605912137
 30
0.0
 10
12.7844107013
 20
9.2595916895
 30
0.0
 10
12.784111841
 20
9.2583889148
 30
0.0
 10
12.7837131623
 20
9.2567863838
 30
0.0
 10
12.7832148818
 20
9.2547828199
 30
0.0
 10
12.7824175949
 20
9.2515773418
 30
0.0
 10
12.7814210007
 20
9.2475704141
 30
0.0
 10
12.7802250753
 20
9.2427621487
 30
0.0
 10
12.7790291764
 20
9.2379538201
 30
0.0
 10
12.7780325157
 20
9.2339470502
 30
0.0
 10
12.7772353619
 20
9.2307412566
 30
0.0
 10
12.7766370193
 20
9.2283379423
 30
0.0
 10
12.7761399182
 20
9.2263319012
 30
0.0
 10
12.7757889691
 20
9.2249341076
 30
0.0
 10
12.7755930772
 20
9.2241253205
 30
0.0
 10
12.7754330579
 20
9.2235470353
 30
0.0
 10
12.7753231148
 20
9.2228605534
 30
0.0
 10
12.7751590569
 20
9.2219829845
 30
0.0
 10
12.7748800938
 20
9.2204296549
 30
0.0
 10
12.7744773203
 20
9.2182198058
 30
0.0
 10
12.7739958134
 20
9.2155640518
 30
0.0
 10
12.7733531678
 20
9.2120244213
 30
0.0
 10
12.7725500806
 20
9.2075994092
 30
0.0
 10
12.7715862751
 20
9.202289608
 30
0.0
 10
12.7706225214
 20
9.1969797117
 30
0.0
 10
12.7698193048
 20
9.1925549373
 30
0.0
 10
12.769176918
 20
9.1890148313
 30
0.0
 10
12.7686946216
 20
9.1863605278
 30
0.0
 10
12.7682943179
 20
9.184146141
 30
0.0
 10
12.7680109459
 20
9.1826009119
 30
0.0
 10
12.7678539522
 20
9.1817103639
 30
0.0
 10
12.76772231
 20
9.1810637496
 30
0.0
 10
12.7676437891
 20
9.1803357286
 30
0.0
 10
12.7675205653
 20
9.1793934294
 30
0.0
 10
12.7673135567
 20
9.177731176
 30
0.0
 10
12.7670133165
 20
9.175363445
 30
0.0
 10
12.7666549608
 20
9.1725192069
 30
0.0
 10
12.7661764757
 20
9.1687279252
 30
0.0
 10
12.7655786193
 20
9.1639884574
 30
0.0
 10
12.7648610077
 20
9.1583012978
 30
0.0
 10
12.7641437319
 20
9.1526139158
 30
0.0
 10
12.7634252967
 20
9.1469272219
 30
0.0
 10
12.7628301858
 20
9.1421862021
 30
0.0
 10
12.7624065865
 20
9.1388716144
 30
0.0
 10
12.7621754914
 20
9.1369711234
 30
0.0
 10
12.7619712914
 20
9.1355638988
 30
0.0
 10
12.7618851253
 20
9.13408732
 30
0.0
 10
12.7617290655
 20
9.1321427399
 30
0.0
 10
12.7614751443
 20
9.1287284532
 30
0.0
 10
12.7611023638
 20
9.1238567953
 30
0.0
 10
12.7606593516
 20
9.1180082757
 30
0.0
 10
12.7602150992
 20
9.1121604451
 30
0.0
 10
12.7597714834
 20
9.1063123886
 30
0.0
 10
12.7593265614
 20
9.1004645467
 30
0.0
 10
12.7589596165
 20
9.0955908179
 30
0.0
 10
12.7586952974
 20
9.0921802211
 30
0.0
 10
12.7585558954
 20
9.0902297296
 30
0.0
 10
12.7584185621
 20
9.0887713087
 30
0.0
 10
12.7584065375
 20
9.0872958863
 30
0.0
 10
12.7583467956
 20
9.0853345868
 30
0.0
 10
12.7582626122
 20
9.0818995496
 30
0.0
 10
12.7581317031
 20
9.0769937982
 30
0.0
 10
12.7579791696
 20
9.0711062781
 30
0.0
 10
12.7577741991
 20
9.0632564674
 30
0.0
 10
12.7575185361
 20
9.0534441295
 30
0.0
 10
12.757313838
 20
9.0455942818
 30
0.0
 10
12.75721151
 20
9.0416693552
 30
0.0
  0
ENDSEC
  0
SECTION
  2
OBJECTS
  0
DICTIONARY
  5
C
100
AcDbDictionary
280
0
281
1
  3
ACAD_GROUP
350
D
  3
ACAD_MLINESTYLE
350
17
  3
ACAD_LAYOUT
350
1A
  3
ACAD_PLOTSETTINGS
350
19
  3
ACAD_PLOTSTYLENAME
350
E
  3
ACAD_IMAGE_DICT
350
       394
  3
ACAD_IMAGE_VARS
350
       395
  3
ACAD_TABLESTYLE
350
       396
  0
IMAGEDEF_REACTOR
  5
393
100
AcDbRasterImageDefReactor
 90
2
330
285
  0
DICTIONARY
  5
D
102
{ACAD_REACTORS
330
C
102
}
100
AcDbDictionary
280
0
281
1
  0
ACDBDICTIONARYWDFLT
  5
E
102
{ACAD_REACTORS
330
C
102
}
100
AcDbDictionary
281
1
  3
Normal
350
F
100
AcDbDictionaryWithDefault
340
F
  0
DICTIONARY
  5
394
330
C
100
AcDbDictionary
281
1
  3
K26_assy_2_img_1
350
       399
  0
RASTERVARIABLES
  5
395
330
C
100
AcDbRasterVariables
 90
0
 70
0
 71
1
 72
5
  0
DICTIONARY
  5
17
102
{ACAD_REACTORS
330
C
102
}
100
AcDbDictionary
280
0
281
1
  3
Standard
350
18
  0
DICTIONARY
  5
396
330
C
100
AcDbDictionary
281
1
  3
Standard
350
       39A
  3
Standard1
350
       39B
  0
DICTIONARY
  5
19
102
{ACAD_REACTORS
330
C
102
}
100
AcDbDictionary
281
1
  0
DICTIONARY
  5
1A
102
{ACAD_REACTORS
330
C
102
}
100
AcDbDictionary
281
1
  3
Model
350
397
  3
Layout1
350
398
  0
ACDBPLACEHOLDER
  5
F
102
{ACAD_REACTORS
330
E
102
}
  0
MLINESTYLE
  5
18
102
{ACAD_REACTORS
330
17
102
}
100
AcDbMlineStyle
  2
STANDARD
 70
0
  3

 62
256
 51
90.0
 52
90.0
 71
2
 49
0.5
 62
256
  6
BYLAYER
 49
-0.5
 62
256
  6
BYLAYER
  0
LAYOUT
  5
397
102
{ACAD_REACTORS
330
1A
102
}
100
AcDbPlotSettings
  1

  2
none_device
  4
ANSI_C_(22.00_x_17.00_Inches)
  6

 40
0.0
 41
0.0
 42
0.0
 43
0.0
 44
558.8
 45
431.8
 46
0.0
 47
0.0
 48
0.0
 49
0.0
140
0.0
141
0.0
142
1.0
143
1.0
 70
1024
 72
0
 73
0
 74
0
  7

 75
0
147
1.0
148
0.0
149
0.0
100
AcDbLayout
  1
Model
 70
0
 71
0
 10
0.0
 20
0.0
 11
22.0
 21
17.0
 12
0.0
 22
0.0
 32
0.0
 14
0.0
 24
0.0
 34
0.0
 15
0.0
 25
0.0
 35
0.0
146
0.0
 13
0.0
 23
0.0
 33
0.0
 16
1.0
 26
0.0
 36
0.0
 17
0.0
 27
1.0
 37
0.0
 76
0
330
20C
345
0
346
0
  0
LAYOUT
  5
398
102
{ACAD_REACTORS
330
1A
102
}
100
AcDbPlotSettings
  1

  2
none_device
  4
ANSI_C_(22.00_x_17.00_Inches)
  6

 40
0.0
 41
0.0
 42
0.0
 43
0.0
 44
558.8
 45
431.8
 46
0.0
 47
0.0
 48
0.0
 49
0.0
140
0.0
141
0.0
142
1.0
143
1.0
 70
0
 72
0
 73
0
 74
0
  7

 75
0
147
1.0
148
0.0
149
0.0
100
AcDbLayout
  1
Layout1
 70
0
 71
1
 10
0.0
 20
0.0
 11
22.0
 21
17.0
 12
0.0
 22
0.0
 32
0.0
 14
0.0
 24
0.0
 34
0.0
 15
0.0
 25
0.0
 35
0.0
146
0.0
 13
0.0
 23
0.0
 33
0.0
 16
1.0
 26
0.0
 36
0.0
 17
0.0
 27
1.0
 37
0.0
 76
0
330
20D
345
0
346
0
  0
IMAGEDEF
  5
399
102
{ACAD_REACTORS
330
394
330
393
102
}
100
AcDbRasterImageDef
 90
0
  1
K26_assy_2_img_1.png
 10
369.0
 20
92.0
 11
0.0066666667
 21
0.0066666667
280
1
281
0
  0
TABLESTYLE
  5
39A
102
{ACAD_REACTORS
330
396
330
288
330
289
102
}
330
396
100
AcDbTableStyle
  3
Standard
 70
0
 71
0
 40
0.06
 41
0.06
280
1
281
1
  7
Standard
140
0.18
170
1
 62
0
 63
7
283
0
  7
Standard
140
0.18
170
1
 62
0
 63
7
283
0
  7
Standard
140
0.18
170
1
 62
0
 63
7
283
0
  0
TABLESTYLE
  5
39B
102
{ACAD_REACTORS
330
396
330
287
102
}
330
396
100
AcDbTableStyle
  3
Standard1
 70
1
 71
0
 40
0.06
 41
0.06
280
1
281
1
  7
Standard
140
0.18
170
1
 62
0
 63
7
283
0
  7
Standard
140
0.18
170
1
 62
0
 63
7
283
0
  7
Standard
140
0.18
170
1
 62
0
 63
7
283
0
  0
ENDSEC
  0
EOF
