999
DXF file: J6U_assy_2.dxf
999
Pro/ENGINEER 2014200 by Parametric Technology Corporation
  0
SECTION
  2
HEADER
  9
$ACADVER
  1
AC1021
  9
$DWGCODEPAGE
  3
ANSI_1252
  9
$EXTMAX
 10
22.0
 20
17.0
 30
0.0
  9
$EXTMIN
 10
0.0
 20
0.0
 30
0.0
  9
$LIMMIN
 10
0.0
 20
0.0
  9
$LIMMAX
 10
22.0
 20
17.0
  9
$VIEWCTR
 10
11.0
 20
8.5
  9
$VIEWSIZE
 40
17.0
  9
$CLAYER
  8
0
  9
$LTSCALE
 40
1.21
  9
$CELTYPE
  6
BYLAYER
  9
$DIMSCALE
 40
1.0
  9
$DIMASZ
 40
0.1875
  9
$DIMEXO
 40
0.0625
  9
$DIMDLI
 40
0.836
  9
$DIMEXE
 40
0.125
  9
$DIMCEN
 40
0.198
  9
$DIMLFAC
 40
1.0
  9
$DIMBLK
  1
_FILLED
  9
$DIMTXT
 40
0.1
  9
$DIMTOL
 70
0
  9
$DIMLIM
 70
0
  9
$DIMTFAC
 40
1.0
  9
$DIMGAP
 40
0.09
  9
$DIMDSEP
 70
46
  9
$AUNITS
 70
0
  9
$PDMODE
 70
3
  9
$PDSIZE
 40
0.3125
  9
$HANDSEED
  5
3CA
  9
$TILEMODE
 70
1
  9
$MEASUREMENT
 70
0
  9
$INSUNITS
 70
1
  0
ENDSEC
  0
SECTION
  2
CLASSES
  0
CLASS
  1
ACDBDICTIONARYWDFLT
  2
AcDbDictionaryWithDefault
  3
AutoCAD 2000
 90
0
 91
1
280
0
281
0
  0
CLASS
  1
ACDBPLACEHOLDER
  2
AcDbPlaceHolder
  3
AutoCAD 2000
 90
0
 91
1
280
0
281
0
  0
CLASS
  1
LAYOUT
  2
AcDbLayout
  3
AutoCAD 2000
 90
0
 91
0
280
0
281
0
  0
CLASS
  1
RASTERVARIABLES
  2
AcDbRasterVariables
  3
ISM
 90
0
 91
1
280
0
281
0
  0
CLASS
  1
IMAGEDEF
  2
AcDbRasterImageDef
  3
ISM
 90
0
 91
1
280
0
281
0
  0
CLASS
  1
IMAGEDEF_REACTOR
  2
AcDbRasterImageDefReactor
  3
ISM
 90
0
 91
1
280
0
281
0
  0
CLASS
  1
IMAGE
  2
AcDbRasterImage
  3
ISM
 90
127
 91
1
280
0
281
1
  0
CLASS
  1
TABLESTYLE
  2
AcDbTableStyle
  3
ObjectDBX Classes
 90
2047
 91
1
280
0
281
0
  0
CLASS
  1
ACAD_TABLE
  2
AcDbTable
  3
ObjectDBX Classes
 90
1025
 91
3
280
0
281
1
  0
ENDSEC
  0
SECTION
  2
TABLES
  0
TABLE
  2
VPORT
  5
8
100
AcDbSymbolTable
 70
2
  0
VPORT
  5
1F4
100
AcDbSymbolTableRecord
100
AcDbViewportTableRecord
  2
*ACTIVE
 70
0
 10
0.0
 20
0.0
 11
1.0
 21
1.0
 12
11.0
 22
8.5
 13
0.0
 23
0.0
 14
1.0
 24
1.0
 15
0.0
 25
0.0
 16
0.0
 26
0.0
 36
1.0
 17
0.0
 27
0.0
 37
0.0
 40
17.0
 41
1.2941176471
 42
50.0
 43
0.0
 44
0.0
 50
0.0
 51
0.0
 71
0
 72
100
 73
1
 74
1
 75
0
 76
0
 77
0
 78
0
  0
ENDTAB
  0
TABLE
  2
LTYPE
  5
5
100
AcDbSymbolTable
 70
6
  0
LTYPE
  5
14
100
AcDbSymbolTableRecord
100
AcDbLinetypeTableRecord
  2
BYBLOCK
 70
0
  3

 72
65
 73
0
 40
0.0
  0
LTYPE
  5
15
100
AcDbSymbolTableRecord
100
AcDbLinetypeTableRecord
  2
BYLAYER
 70
0
  3

 72
65
 73
0
 40
0.0
  0
LTYPE
  5
16
100
AcDbSymbolTableRecord
100
AcDbLinetypeTableRecord
  2
CONTINUOUS
 70
64
  3
Solid line
 72
65
 73
0
 40
0.0
  0
LTYPE
  5
1F5
100
AcDbSymbolTableRecord
100
AcDbLinetypeTableRecord
  2
CENTER
 70
64
  3
____ _ ____ _ ____ _ ____ _ ____ _ ____ _ ____
 72
65
 73
4
 40
0.6
 49
0.375
 74
0
 49
-0.075
 74
0
 49
0.075
 74
0
 49
-0.075
 74
0
  0
LTYPE
  5
1F6
100
AcDbSymbolTableRecord
100
AcDbLinetypeTableRecord
  2
HIDDEN
 70
64
  3
- - - - - - - - - - - - - - - - - - - -
 72
65
 73
2
 40
0.2
 49
0.1
 74
0
 49
-0.1
 74
0
  0
LTYPE
  5
1F7
100
AcDbSymbolTableRecord
100
AcDbLinetypeTableRecord
  2
PHANTOM
 70
64
  3
_____ _ _ _____ _ _ _____ _ _ _____
 72
65
 73
6
 40
0.8
 49
0.45
 74
0
 49
-0.05
 74
0
 49
0.1
 74
0
 49
-0.05
 74
0
 49
0.1
 74
0
 49
-0.05
 74
0
  0
LTYPE
  5
1F8
100
AcDbSymbolTableRecord
100
AcDbLinetypeTableRecord
  2
DOT
 70
64
  3
. . . . . . . . . . . . . . . . . . . .
 72
65
 73
2
 40
0.2
 49
0.1
 74
0
 49
-0.1
 74
0
  0
LTYPE
  5
1F9
100
AcDbSymbolTableRecord
100
AcDbLinetypeTableRecord
  2
DASHED
 70
64
  3
- - - - - - - - - - - - - - - - - - - -
 72
65
 73
2
 40
0.2
 49
0.1
 74
0
 49
-0.1
 74
0
  0
ENDTAB
  0
TABLE
  2
LAYER
  5
2
100
AcDbSymbolTable
 70
36
  0
LAYER
  5
10
100
AcDbSymbolTableRecord
100
AcDbLayerTableRecord
  2
0
 70
0
 62
7
  6
CONTINUOUS
370
-3
390
F
  0
LAYER
  5
1FA
100
AcDbSymbolTableRecord
100
AcDbLayerTableRecord
  2
DEFAULT_1
 70
0
 62
7
  6
CENTER
370
-3
390
F
  0
LAYER
  5
1FB
100
AcDbSymbolTableRecord
100
AcDbLayerTableRecord
  2
DEFAULT_2
 70
0
 62
8
  6
HIDDEN
370
-3
390
F
  0
LAYER
  5
1FC
100
AcDbSymbolTableRecord
100
AcDbLayerTableRecord
  2
DEFAULT_3
 70
0
 62
7
  6
PHANTOM
370
-3
390
F
  0
LAYER
  5
1FD
100
AcDbSymbolTableRecord
100
AcDbLayerTableRecord
  2
DATUM_PLANES
 70
0
 62
7
  6
CONTINUOUS
370
-3
390
F
  0
LAYER
  5
1FE
100
AcDbSymbolTableRecord
100
AcDbLayerTableRecord
  2
PORT_AREAS
 70
0
 62
7
  6
CONTINUOUS
370
-3
390
F
  0
LAYER
  5
1FF
100
AcDbSymbolTableRecord
100
AcDbLayerTableRecord
  2
SUNNBOMCOSMETIC
 70
0
 62
7
  6
CONTINUOUS
370
-3
390
F
  0
LAYER
  5
200
100
AcDbSymbolTableRecord
100
AcDbLayerTableRecord
  2
SUNNBOMSTAMPING
 70
0
 62
7
  6
CONTINUOUS
370
-3
390
F
  0
LAYER
  5
201
100
AcDbSymbolTableRecord
100
AcDbLayerTableRecord
  2
THREADS
 70
0
 62
7
  6
CONTINUOUS
370
-3
390
F
  0
ENDTAB
  0
TABLE
  2
STYLE
  5
3
100
AcDbSymbolTable
 70
1
  0
STYLE
  5
11
100
AcDbSymbolTableRecord
100
AcDbTextStyleTableRecord
  2
STANDARD
 70
0
 40
0.0
 41
0.8
 50
0.0
 71
0
 42
0.2
  3
txt
  4

  0
STYLE
  5
202
100
AcDbSymbolTableRecord
100
AcDbTextStyleTableRecord
  2
TEXTSTYLE_1
 70
0
 40
0.0
 41
0.8
 50
0.0
 71
0
 42
0.2
  3
gdt
  4

  0
ENDTAB
  0
TABLE
  2
VIEW
  5
6
100
AcDbSymbolTable
 70
0
  0
ENDTAB
  0
TABLE
  2
UCS
  5
7
100
AcDbSymbolTable
 70
0
  0
ENDTAB
  0
TABLE
  2
APPID
  5
9
100
AcDbSymbolTable
 70
1
  0
APPID
  5
203
100
AcDbSymbolTableRecord
100
AcDbRegAppTableRecord
  2
ACAD
 70
0
  0
ENDTAB
  0
TABLE
  2
BLOCK_RECORD
  5
1
100
AcDbSymbolTable
 70
0
  0
BLOCK_RECORD
  5
204
100
AcDbSymbolTableRecord
100
AcDbBlockTableRecord
  2
*Model_Space
  0
BLOCK_RECORD
  5
205
100
AcDbSymbolTableRecord
100
AcDbBlockTableRecord
  2
*Paper_Space
  0
BLOCK_RECORD
  5
206
100
AcDbSymbolTableRecord
100
AcDbBlockTableRecord
  2
SUN_FIRST_THIRD_ANGLE_BL0
  0
BLOCK_RECORD
  5
207
100
AcDbSymbolTableRecord
100
AcDbBlockTableRecord
  2
*T1
  0
BLOCK_RECORD
  5
208
100
AcDbSymbolTableRecord
100
AcDbBlockTableRecord
  2
*T2
  0
BLOCK_RECORD
  5
209
100
AcDbSymbolTableRecord
100
AcDbBlockTableRecord
  2
*T3
  0
ENDTAB
  0
TABLE
  2
DIMSTYLE
  5
A
100
AcDbSymbolTable
 70
1
100
AcDbDimStyleTable
 71
0
  0
DIMSTYLE
105
20A
100
AcDbSymbolTableRecord
100
AcDbDimStyleTableRecord
  2
STANDARD
 70
0
  3

  4

 40
1.0
 41
0.1875
 42
0.0625
 43
0.38
 44
0.125
 45
0.0
 46
0.0
 47
0.001
 48
0.001
140
0.1
141
0.09
142
0.0
143
25.4
144
1.0
145
0.0
146
1.0
147
0.09
 71
0.0
 72
0.0
 73
1
 74
1
 75
0
 76
0
 77
0
 78
4
170
0
171
2
172
0
173
0
174
0
175
0
176
0
177
0
178
0
270
2
271
3
272
3
273
2
274
2
275
0
280
0
281
0
282
0
283
1
284
4
285
0
286
0
287
3
288
0
340
11
278
46
  0
ENDTAB
  0
ENDSEC
  0
SECTION
  2
BLOCKS
  0
BLOCK
  5
20
100
AcDbEntity
  8
0
100
AcDbBlockBegin
  2
*Model_Space
 70
0
 10
0.0
 20
0.0
 30
0.0
  3
*Model_Space
  1

  0
ENDBLK
  5
21
100
AcDbEntity
  8
0
100
AcDbBlockEnd
  0
BLOCK
  5
1C
100
AcDbEntity
  8
0
100
AcDbBlockBegin
  2
*Paper_Space
 70
0
 10
0.0
 20
0.0
 30
0.0
  3
*Paper_Space
  1

  0
ENDBLK
  5
1D
100
AcDbEntity
  8
0
100
AcDbBlockEnd
  0
BLOCK
  5
20B
100
AcDbEntity
  8
0
100
AcDbBlockBegin
 62
2
  6
CONTINUOUS
  2
SUN_FIRST_THIRD_ANGLE_BL0
 70
64
 10
20.4816717061
 20
1.2289683772
  3
SUN_FIRST_THIRD_ANGLE_BL0
  1

  0
TEXT
  5
20C
100
AcDbEntity
  8
0
100
AcDbText
 62
2
  6
CONTINUOUS
 10
19.4750896608
 20
1.4136269581
  7
STANDARD
 40
0.08
  1
FIRST ANGLE
 41
0.8
 72
0
100
AcDbText
  0
TEXT
  5
20D
100
AcDbEntity
  8
0
100
AcDbText
 62
2
  6
CONTINUOUS
 10
20.7842537513
 20
1.4047600029
  7
STANDARD
 40
0.08
  1
THIRD ANGLE
 41
0.8
 72
0
100
AcDbText
  0
LINE
  5
20E
100
AcDbEntity
  8
0
100
AcDbLine
 62
7
  6
CONTINUOUS
 10
19.4767170086
 20
1.1727031207
 11
19.6334271527
 21
1.1717972817
  0
LINE
  5
20F
100
AcDbEntity
  8
0
100
AcDbLine
 62
7
  6
CONTINUOUS
 10
19.6596964832
 20
1.1717972817
 11
19.6950230232
 21
1.171593082
  0
LINE
  5
210
100
AcDbEntity
  8
0
100
AcDbLine
 62
7
  6
CONTINUOUS
 10
19.7194818561
 20
1.1708914427
 11
19.8852396156
 21
1.1699333054
  0
LINE
  5
211
100
AcDbEntity
  8
0
100
AcDbLine
 62
7
  6
CONTINUOUS
 10
19.4758111696
 20
1.2723454088
 11
19.88525039
 21
1.3511534004
  0
LINE
  5
212
100
AcDbEntity
  8
0
100
AcDbLine
 62
7
  6
CONTINUOUS
 10
19.88525039
 20
1.3511534004
 11
19.8831348489
 21
0.9851647912
  0
LINE
  5
213
100
AcDbEntity
  8
0
100
AcDbLine
 62
7
  6
CONTINUOUS
 10
19.8831348489
 20
0.9851647912
 11
19.4767170086
 21
1.0658141206
  0
LINE
  5
214
100
AcDbEntity
  8
0
100
AcDbLine
 62
7
  6
CONTINUOUS
 10
19.4767170086
 20
1.0658141206
 11
19.4779056764
 21
1.2714536432
  0
CIRCLE
  5
215
100
AcDbEntity
  8
0
100
AcDbCircle
 62
7
  6
CONTINUOUS
 10
20.2068232291
 20
1.1717972817
 40
0.175742101
  0
CIRCLE
  5
216
100
AcDbEntity
  8
0
100
AcDbCircle
 62
7
  6
CONTINUOUS
 10
20.2068232291
 20
1.1717972817
 40
0.1005522074
  0
LINE
  5
217
100
AcDbEntity
  8
0
100
AcDbLine
 62
7
  6
CONTINUOUS
 10
20.2077290681
 20
1.3756110529
 11
20.2071171714
 21
1.2379342989
  0
LINE
  5
218
100
AcDbEntity
  8
0
100
AcDbLine
 62
7
  6
CONTINUOUS
 10
20.2077290681
 20
1.2016899681
 11
20.2074674401
 21
1.1428236749
  0
LINE
  5
219
100
AcDbEntity
  8
0
100
AcDbLine
 62
7
  6
CONTINUOUS
 10
20.208634907
 20
1.101141841
 11
20.2080230104
 21
0.963465087
  0
LINE
  5
21A
100
AcDbEntity
  8
0
100
AcDbLine
 62
7
  6
CONTINUOUS
 10
20.0066328138
 20
1.1745147986
 11
20.1443095678
 21
1.1739029019
  0
LINE
  5
21B
100
AcDbEntity
  8
0
100
AcDbLine
 62
7
  6
CONTINUOUS
 10
20.1832714155
 20
1.1727031207
 11
20.238153505
 21
1.172335442
  0
LINE
  5
21C
100
AcDbEntity
  8
0
100
AcDbLine
 62
7
  6
CONTINUOUS
 10
20.2756669918
 20
1.1717972817
 11
20.407916871
 21
1.1712095044
  0
CIRCLE
  5
21D
100
AcDbEntity
  8
0
100
AcDbCircle
 62
7
  6
CONTINUOUS
 10
20.7509457401
 20
1.1693297793
 40
0.1722024983
  0
CIRCLE
  5
21E
100
AcDbEntity
  8
0
100
AcDbCircle
 62
7
  6
CONTINUOUS
 10
20.7509457401
 20
1.1693297793
 40
0.0985164967
  0
LINE
  5
21F
100
AcDbEntity
  8
0
100
AcDbLine
 62
7
  6
CONTINUOUS
 10
20.7169767782
 20
1.170462078
 11
20.7825395137
 21
1.1682766535
  0
LINE
  5
220
100
AcDbEntity
  8
0
100
AcDbLine
 62
7
  6
CONTINUOUS
 10
20.8177513651
 20
1.1693297793
 11
20.947965719
 21
1.1693297793
  0
LINE
  5
221
100
AcDbEntity
  8
0
100
AcDbLine
 62
7
  6
CONTINUOUS
 10
20.6875370113
 20
1.170462078
 11
20.5573226574
 21
1.170462078
  0
LINE
  5
222
100
AcDbEntity
  8
0
100
AcDbLine
 62
7
  6
CONTINUOUS
 10
20.7486811426
 20
1.1987695462
 11
20.7486811426
 21
1.1432869085
  0
LINE
  5
223
100
AcDbEntity
  8
0
100
AcDbLine
 62
7
  6
CONTINUOUS
 10
20.7498134414
 20
1.1059210505
 11
20.7498134414
 21
0.9757066966
  0
LINE
  5
224
100
AcDbEntity
  8
0
100
AcDbLine
 62
7
  6
CONTINUOUS
 10
20.7486811426
 20
1.2338708068
 11
20.7486811426
 21
1.3640851607
  0
LINE
  5
225
100
AcDbEntity
  8
0
100
AcDbLine
 62
7
  6
CONTINUOUS
 10
21.0702539817
 20
1.2701043662
 11
21.4790138229
 21
1.3448360823
  0
LINE
  5
226
100
AcDbEntity
  8
0
100
AcDbLine
 62
7
  6
CONTINUOUS
 10
21.4790138229
 20
1.3448360823
 11
21.4790138229
 21
0.9779712941
  0
LINE
  5
227
100
AcDbEntity
  8
0
100
AcDbLine
 62
7
  6
CONTINUOUS
 10
21.4790138229
 20
0.9779712941
 11
21.069121683
 21
1.0617614
  0
LINE
  5
228
100
AcDbEntity
  8
0
100
AcDbLine
 62
7
  6
CONTINUOUS
 10
21.0702539817
 20
1.2701043662
 11
21.069121683
 21
1.0617614
  0
LINE
  5
229
100
AcDbEntity
  8
0
100
AcDbLine
 62
7
  6
CONTINUOUS
 10
21.4790138229
 20
1.1693297793
 11
21.3159628059
 21
1.1693297793
  0
LINE
  5
22A
100
AcDbEntity
  8
0
100
AcDbLine
 62
7
  6
CONTINUOUS
 10
21.2876553377
 20
1.1693297793
 11
21.2502894796
 21
1.1693297793
  0
LINE
  5
22B
100
AcDbEntity
  8
0
100
AcDbLine
 62
7
  6
CONTINUOUS
 10
21.2208497126
 20
1.1659328831
 11
21.0713862804
 21
1.1659328831
  0
LINE
  5
22C
100
AcDbEntity
  8
0
100
AcDbLine
 62
7
  6
CONTINUOUS
 10
20.4796138713
 20
1.5284908897
 11
20.4766766948
 21
0.9294458646
  0
ENDBLK
  5
22D
100
AcDbEntity
  8
0
  6
BYBLOCK
 62
0
100
AcDbBlockEnd
  0
BLOCK
  5
22E
100
AcDbEntity
  8
0
100
AcDbBlockBegin
  2
*T1
 70
1
 10
0.0
 20
0.0
  3
*T1
  1

  0
LINE
  5
22F
100
AcDbEntity
  8
0
100
AcDbLine
 62
2
  6
CONTINUOUS
 10
9.275
 20
0.0
 11
-0.0
 21
0.0
  0
LINE
  5
230
100
AcDbEntity
  8
0
100
AcDbLine
 62
2
  6
CONTINUOUS
 10
9.275
 20
0.0
 11
9.275
 21
1.25
  0
LINE
  5
231
100
AcDbEntity
  8
0
100
AcDbLine
 62
2
  6
CONTINUOUS
 10
9.275
 20
0.625
 11
-0.0
 21
0.625
  0
LINE
  5
232
100
AcDbEntity
  8
0
100
AcDbLine
 62
2
  6
CONTINUOUS
 10
9.275
 20
1.25
 11
-0.0
 21
1.25
  0
LINE
  5
233
100
AcDbEntity
  8
0
100
AcDbLine
 62
2
  6
CONTINUOUS
 10
6.8
 20
0.0
 11
6.8
 21
1.25
  0
LINE
  5
234
100
AcDbEntity
  8
0
100
AcDbLine
 62
2
  6
CONTINUOUS
 10
6.4
 20
0.0
 11
6.4
 21
0.625
  0
LINE
  5
235
100
AcDbEntity
  8
0
100
AcDbLine
 62
2
  6
CONTINUOUS
 10
5.9
 20
0.0
 11
5.9
 21
0.625
  0
LINE
  5
236
100
AcDbEntity
  8
0
100
AcDbLine
 62
2
  6
CONTINUOUS
 10
5.2
 20
0.0
 11
5.2
 21
0.625
  0
LINE
  5
237
100
AcDbEntity
  8
0
100
AcDbLine
 62
2
  6
CONTINUOUS
 10
4.1
 20
0.0
 11
4.1
 21
1.25
  0
LINE
  5
238
100
AcDbEntity
  8
0
100
AcDbLine
 62
2
  6
CONTINUOUS
 10
-0.0
 20
0.0
 11
-0.0
 21
1.25
  0
MTEXT
  5
239
100
AcDbEntity
  8
0
100
AcDbMText
 62
2
  6
CONTINUOUS
  7
STANDARD
 71
2
 72
1
 10
6.6
 20
0.325
 30
0.0
 11
1.0
 21
0.0
 31
0.0
 44
0.9
  1
2
 40
0.125
 41
0.2
  0
MTEXT
  5
23A
100
AcDbEntity
  8
0
100
AcDbMText
 62
2
  6
CONTINUOUS
  7
STANDARD
 71
2
 72
1
 10
6.15
 20
0.325
 30
0.0
 11
1.0
 21
0.0
 31
0.0
 44
0.9
  1
C
 40
0.125
 41
0.2
  0
MTEXT
  5
23B
100
AcDbEntity
  8
0
100
AcDbMText
 62
2
  6
CONTINUOUS
  7
STANDARD
 71
2
 72
1
 10
5.55
 20
0.325
 30
0.0
 11
1.0
 21
0.0
 31
0.0
 44
0.9
  1
1.000
 40
0.125
 41
1.0
  0
MTEXT
  5
23C
100
AcDbEntity
  8
0
100
AcDbMText
 62
2
  6
CONTINUOUS
  7
STANDARD
 71
2
 72
1
 10
4.65
 20
0.325
 30
0.0
 11
1.0
 21
0.0
 31
0.0
 44
0.9
  1
May-22-20
 40
0.125
 41
1.8
  0
MTEXT
  5
23D
100
AcDbEntity
  8
0
100
AcDbMText
 62
2
  6
CONTINUOUS
  7
STANDARD
 71
2
 72
1
 10
2.05
 20
0.4625
 30
0.0
 11
1.0
 21
0.0
 31
0.0
 44
0.9
  1
T-163A Line mount\P(See Technical Data for Body Features)
 40
0.125
 41
7.6
  0
MTEXT
  5
23E
100
AcDbEntity
  8
0
100
AcDbMText
 62
2
  6
CONTINUOUS
  7
STANDARD
 71
1
 72
1
 10
6.45
 20
0.5625
 30
0.0
 11
1.0
 21
0.0
 31
0.0
 44
0.9
  1
SHEET
 40
0.06
 41
0.48
  0
MTEXT
  5
23F
100
AcDbEntity
  8
0
100
AcDbMText
 62
2
  6
CONTINUOUS
  7
STANDARD
 71
1
 72
1
 10
5.95
 20
0.5625
 30
0.0
 11
1.0
 21
0.0
 31
0.0
 44
0.9
  1
DWG SIZE
 40
0.06
 41
0.768
  0
MTEXT
  5
240
100
AcDbEntity
  8
0
100
AcDbMText
 62
2
  6
CONTINUOUS
  7
STANDARD
 71
1
 72
1
 10
5.25
 20
0.5625
 30
0.0
 11
1.0
 21
0.0
 31
0.0
 44
0.9
  1
SCALE
 40
0.06
 41
0.48
  0
MTEXT
  5
241
100
AcDbEntity
  8
0
100
AcDbMText
 62
2
  6
CONTINUOUS
  7
STANDARD
 71
1
 72
1
 10
4.15
 20
0.5625
 30
0.0
 11
1.0
 21
0.0
 31
0.0
 44
0.9
  1
DATE
 40
0.06
 41
0.384
  0
MTEXT
  5
242
100
AcDbEntity
  8
0
100
AcDbMText
 62
2
  6
CONTINUOUS
  7
STANDARD
 71
1
 72
1
 10
0.05
 20
0.5625
 30
0.0
 11
1.0
 21
0.0
 31
0.0
 44
0.9
  1
DESCRIPTION
 40
0.06
 41
1.056
  0
MTEXT
  5
243
100
AcDbEntity
  8
0
100
AcDbMText
 62
2
  6
CONTINUOUS
  7
STANDARD
 71
2
 72
1
 10
5.45
 20
1.0375
 30
0.0
 11
1.0
 21
0.0
 31
0.0
 44
0.9
  1
ALL DIMENSIONS IN INCH\PVIEWS ARE THIRD ANGLE
 40
0.12
 41
4.224
  0
MTEXT
  5
244
100
AcDbEntity
  8
0
100
AcDbMText
 62
2
  6
CONTINUOUS
  7
STANDARD
 71
2
 72
1
 10
2.05
 20
0.95
 30
0.0
 11
1.0
 21
0.0
 31
0.0
 44
0.9
  1
J6U
 40
0.125
 41
0.6
  0
MTEXT
  5
245
100
AcDbEntity
  8
0
100
AcDbMText
 62
2
  6
CONTINUOUS
  7
STANDARD
 71
1
 72
1
 10
0.05
 20
1.1875
 30
0.0
 11
1.0
 21
0.0
 31
0.0
 44
0.9
  1
MODEL
 40
0.06
 41
0.48
  0
ENDBLK
  5
246
100
AcDbEntity
  8
0
  6
BYBLOCK
 62
0
100
AcDbBlockEnd
  0
BLOCK
  5
247
100
AcDbEntity
  8
0
100
AcDbBlockBegin
  2
*T2
 70
1
 10
0.0
 20
0.0
  3
*T2
  1

  0
LINE
  5
248
100
AcDbEntity
  8
0
100
AcDbLine
 62
2
  6
CONTINUOUS
 10
0.0
 20
0.0
 11
9.055
 21
0.0
  0
LINE
  5
249
100
AcDbEntity
  8
0
100
AcDbLine
 62
2
  6
CONTINUOUS
 10
0.0
 20
0.0
 11
0.0
 21
-2.594
  0
LINE
  5
24A
100
AcDbEntity
  8
0
100
AcDbLine
 62
2
  6
CONTINUOUS
 10
0.0
 20
-0.344
 11
9.055
 21
-0.344
  0
LINE
  5
24B
100
AcDbEntity
  8
0
100
AcDbLine
 62
2
  6
CONTINUOUS
 10
0.0
 20
-0.594
 11
9.055
 21
-0.594
  0
LINE
  5
24C
100
AcDbEntity
  8
0
100
AcDbLine
 62
2
  6
CONTINUOUS
 10
0.0
 20
-0.844
 11
9.055
 21
-0.844
  0
LINE
  5
24D
100
AcDbEntity
  8
0
100
AcDbLine
 62
2
  6
CONTINUOUS
 10
0.0
 20
-1.094
 11
9.055
 21
-1.094
  0
LINE
  5
24E
100
AcDbEntity
  8
0
100
AcDbLine
 62
2
  6
CONTINUOUS
 10
0.0
 20
-1.344
 11
9.055
 21
-1.344
  0
LINE
  5
24F
100
AcDbEntity
  8
0
100
AcDbLine
 62
2
  6
CONTINUOUS
 10
0.0
 20
-1.594
 11
9.055
 21
-1.594
  0
LINE
  5
250
100
AcDbEntity
  8
0
100
AcDbLine
 62
2
  6
CONTINUOUS
 10
0.0
 20
-1.844
 11
9.055
 21
-1.844
  0
LINE
  5
251
100
AcDbEntity
  8
0
100
AcDbLine
 62
2
  6
CONTINUOUS
 10
0.0
 20
-2.094
 11
9.055
 21
-2.094
  0
LINE
  5
252
100
AcDbEntity
  8
0
100
AcDbLine
 62
2
  6
CONTINUOUS
 10
0.0
 20
-2.344
 11
9.055
 21
-2.344
  0
LINE
  5
253
100
AcDbEntity
  8
0
100
AcDbLine
 62
2
  6
CONTINUOUS
 10
0.0
 20
-2.594
 11
9.055
 21
-2.594
  0
LINE
  5
254
100
AcDbEntity
  8
0
100
AcDbLine
 62
2
  6
CONTINUOUS
 10
3.055
 20
0.0
 11
3.055
 21
-2.594
  0
LINE
  5
255
100
AcDbEntity
  8
0
100
AcDbLine
 62
2
  6
CONTINUOUS
 10
9.055
 20
0.0
 11
9.055
 21
-2.594
  0
MTEXT
  5
256
100
AcDbEntity
  8
0
100
AcDbMText
 62
2
  6
CONTINUOUS
  7
STANDARD
 71
2
 72
1
 10
1.5275
 20
-0.0995
 30
0.0
 11
1.0
 21
0.0
 31
0.0
 44
0.9
  1
Technical Data
 40
0.145
 41
3.248
  0
MTEXT
  5
257
100
AcDbEntity
  8
0
100
AcDbMText
 62
2
  6
CONTINUOUS
  7
STANDARD
 71
2
 72
1
 10
4.555
 20
-0.0995
 30
0.0
 11
1.0
 21
0.0
 31
0.0
 44
0.9
  1
U.S. Units
 40
0.145
 41
2.32
  0
MTEXT
  5
258
100
AcDbEntity
  8
0
100
AcDbMText
 62
2
  6
CONTINUOUS
  7
STANDARD
 71
2
 72
1
 10
7.555
 20
-0.0995
 30
0.0
 11
1.0
 21
0.0
 31
0.0
 44
0.9
  1
Metric Units
 40
0.145
 41
2.784
  0
MTEXT
  5
259
100
AcDbEntity
  8
0
100
AcDbMText
 62
2
  6
CONTINUOUS
  7
STANDARD
 71
2
 72
1
 10
1.5275
 20
-0.4065
 30
0.0
 11
1.0
 21
0.0
 31
0.0
 44
0.9
  1
Cavity
 40
0.125
 41
1.2
  0
MTEXT
  5
25A
100
AcDbEntity
  8
0
100
AcDbMText
 62
2
  6
CONTINUOUS
  7
STANDARD
 71
2
 72
1
 10
6.055
 20
-0.4065
 30
0.0
 11
1.0
 21
0.0
 31
0.0
 44
0.9
  1
T-163A
 40
0.125
 41
1.2
  0
MTEXT
  5
25B
100
AcDbEntity
  8
0
100
AcDbMText
 62
2
  6
CONTINUOUS
  7
STANDARD
 71
2
 72
1
 10
1.5275
 20
-0.6565
 30
0.0
 11
1.0
 21
0.0
 31
0.0
 44
0.9
  1
Body Features
 40
0.125
 41
2.6
  0
MTEXT
  5
25C
100
AcDbEntity
  8
0
100
AcDbMText
 62
2
  6
CONTINUOUS
  7
STANDARD
 71
2
 72
1
 10
6.055
 20
-0.6565
 30
0.0
 11
1.0
 21
0.0
 31
0.0
 44
0.9
  1
Ninety degree with reverse flow check - sequence
 40
0.125
 41
9.6
  0
MTEXT
  5
25D
100
AcDbEntity
  8
0
100
AcDbMText
 62
2
  6
CONTINUOUS
  7
STANDARD
 71
2
 72
1
 10
1.5275
 20
-0.9065
 30
0.0
 11
1.0
 21
0.0
 31
0.0
 44
0.9
  1
Body Type
 40
0.125
 41
1.8
  0
MTEXT
  5
25E
100
AcDbEntity
  8
0
100
AcDbMText
 62
2
  6
CONTINUOUS
  7
STANDARD
 71
2
 72
1
 10
6.055
 20
-0.9065
 30
0.0
 11
1.0
 21
0.0
 31
0.0
 44
0.9
  1
Line mount
 40
0.125
 41
2.0
  0
MTEXT
  5
25F
100
AcDbEntity
  8
0
100
AcDbMText
 62
2
  6
CONTINUOUS
  7
STANDARD
 71
2
 72
1
 10
1.5275
 20
-1.1565
 30
0.0
 11
1.0
 21
0.0
 31
0.0
 44
0.9
  1
Interface
 40
0.125
 41
1.8
  0
MTEXT
  5
260
100
AcDbEntity
  8
0
100
AcDbMText
 62
2
  6
CONTINUOUS
  7
STANDARD
 71
2
 72
1
 10
6.055
 20
-1.1565
 30
0.0
 11
1.0
 21
0.0
 31
0.0
 44
0.9
  1
None
 40
0.125
 41
0.8
  0
MTEXT
  5
261
100
AcDbEntity
  8
0
100
AcDbMText
 62
2
  6
CONTINUOUS
  7
STANDARD
 71
2
 72
1
 10
1.5275
 20
-1.4065
 30
0.0
 11
1.0
 21
0.0
 31
0.0
 44
0.9
  1
Open Cavity Quantity
 40
0.125
 41
4.0
  0
MTEXT
  5
262
100
AcDbEntity
  8
0
100
AcDbMText
 62
2
  6
CONTINUOUS
  7
STANDARD
 71
2
 72
1
 10
6.055
 20
-1.4065
 30
0.0
 11
1.0
 21
0.0
 31
0.0
 44
0.9
  1
1
 40
0.125
 41
0.2
  0
MTEXT
  5
263
100
AcDbEntity
  8
0
100
AcDbMText
 62
2
  6
CONTINUOUS
  7
STANDARD
 71
2
 72
1
 10
1.5275
 20
-1.6565
 30
0.0
 11
1.0
 21
0.0
 31
0.0
 44
0.9
  1
Weight
 40
0.125
 41
1.2
  0
MTEXT
  5
264
100
AcDbEntity
  8
0
100
AcDbMText
 62
2
  6
CONTINUOUS
  7
STANDARD
 71
2
 72
1
 10
4.555
 20
-1.6565
 30
0.0
 11
1.0
 21
0.0
 31
0.0
 44
0.9
  1
0.835 lb.
 40
0.125
 41
1.8
  0
MTEXT
  5
265
100
AcDbEntity
  8
0
100
AcDbMText
 62
2
  6
CONTINUOUS
  7
STANDARD
 71
2
 72
1
 10
7.555
 20
-1.6565
 30
0.0
 11
1.0
 21
0.0
 31
0.0
 44
0.9
  1
0,379 kg.
 40
0.125
 41
1.8
  0
MTEXT
  5
266
100
AcDbEntity
  8
0
100
AcDbMText
 62
2
  6
CONTINUOUS
  7
STANDARD
 71
2
 72
1
 10
1.5275
 20
-1.9065
 30
0.0
 11
1.0
 21
0.0
 31
0.0
 44
0.9
  1
Mounting Hole Diameter
 40
0.125
 41
4.4
  0
MTEXT
  5
267
100
AcDbEntity
  8
0
100
AcDbMText
 62
2
  6
CONTINUOUS
  7
STANDARD
 71
2
 72
1
 10
4.555
 20
-1.9065
 30
0.0
 11
1.0
 21
0.0
 31
0.0
 44
0.9
  1
.27 in.
 40
0.125
 41
1.4
  0
MTEXT
  5
268
100
AcDbEntity
  8
0
100
AcDbMText
 62
2
  6
CONTINUOUS
  7
STANDARD
 71
2
 72
1
 10
7.555
 20
-1.9065
 30
0.0
 11
1.0
 21
0.0
 31
0.0
 44
0.9
  1
8,7 mm
 40
0.125
 41
1.2
  0
MTEXT
  5
269
100
AcDbEntity
  8
0
100
AcDbMText
 62
2
  6
CONTINUOUS
  7
STANDARD
 71
2
 72
1
 10
1.5275
 20
-2.1565
 30
0.0
 11
1.0
 21
0.0
 31
0.0
 44
0.9
  1
Mounting Hole Depth
 40
0.125
 41
3.8
  0
MTEXT
  5
26A
100
AcDbEntity
  8
0
100
AcDbMText
 62
2
  6
CONTINUOUS
  7
STANDARD
 71
2
 72
1
 10
6.055
 20
-2.1565
 30
0.0
 11
1.0
 21
0.0
 31
0.0
 44
0.9
  1
Through
 40
0.125
 41
1.4
  0
MTEXT
  5
26B
100
AcDbEntity
  8
0
100
AcDbMText
 62
2
  6
CONTINUOUS
  7
STANDARD
 71
2
 72
1
 10
1.5275
 20
-2.4065
 30
0.0
 11
1.0
 21
0.0
 31
0.0
 44
0.9
  1
Mounting Hole Quantity
 40
0.125
 41
4.4
  0
MTEXT
  5
26C
100
AcDbEntity
  8
0
100
AcDbMText
 62
2
  6
CONTINUOUS
  7
STANDARD
 71
2
 72
1
 10
6.055
 20
-2.4065
 30
0.0
 11
1.0
 21
0.0
 31
0.0
 44
0.9
  1
2
 40
0.125
 41
0.2
  0
ENDBLK
  5
26D
100
AcDbEntity
  8
0
  6
BYBLOCK
 62
0
100
AcDbBlockEnd
  0
BLOCK
  5
26E
100
AcDbEntity
  8
0
100
AcDbBlockBegin
  2
*T3
 70
1
 10
0.0
 20
0.0
  3
*T3
  1

  0
LINE
  5
26F
100
AcDbEntity
  8
0
100
AcDbLine
 62
2
  6
CONTINUOUS
 10
0.0
 20
0.0
 11
4.6
 21
0.0
  0
LINE
  5
270
100
AcDbEntity
  8
0
100
AcDbLine
 62
2
  6
CONTINUOUS
 10
0.0
 20
0.0
 11
0.0
 21
-1.43775
  0
LINE
  5
271
100
AcDbEntity
  8
0
100
AcDbLine
 62
2
  6
CONTINUOUS
 10
0.0
 20
-0.34375
 11
4.6
 21
-0.34375
  0
LINE
  5
272
100
AcDbEntity
  8
0
100
AcDbLine
 62
2
  6
CONTINUOUS
 10
0.0
 20
-0.68775
 11
4.6
 21
-0.68775
  0
LINE
  5
273
100
AcDbEntity
  8
0
100
AcDbLine
 62
2
  6
CONTINUOUS
 10
0.0
 20
-0.93775
 11
4.6
 21
-0.93775
  0
LINE
  5
274
100
AcDbEntity
  8
0
100
AcDbLine
 62
2
  6
CONTINUOUS
 10
0.0
 20
-1.18775
 11
4.6
 21
-1.18775
  0
LINE
  5
275
100
AcDbEntity
  8
0
100
AcDbLine
 62
2
  6
CONTINUOUS
 10
0.0
 20
-1.43775
 11
4.6
 21
-1.43775
  0
LINE
  5
276
100
AcDbEntity
  8
0
100
AcDbLine
 62
2
  6
CONTINUOUS
 10
1.3
 20
-0.34375
 11
1.3
 21
-1.43775
  0
LINE
  5
277
100
AcDbEntity
  8
0
100
AcDbLine
 62
2
  6
CONTINUOUS
 10
3.3
 20
-0.34375
 11
3.3
 21
-1.43775
  0
LINE
  5
278
100
AcDbEntity
  8
0
100
AcDbLine
 62
2
  6
CONTINUOUS
 10
4.6
 20
0.0
 11
4.6
 21
-1.43775
  0
MTEXT
  5
279
100
AcDbEntity
  8
0
100
AcDbMText
 62
2
  6
CONTINUOUS
  7
STANDARD
 71
2
 72
1
 10
2.3
 20
-0.099375
 30
0.0
 11
1.0
 21
0.0
 31
0.0
 44
0.9
  1
Port Headings
 40
0.145
 41
3.016
  0
MTEXT
  5
27A
100
AcDbEntity
  8
0
100
AcDbMText
 62
2
  6
CONTINUOUS
  7
STANDARD
 71
2
 72
1
 10
0.65
 20
-0.44325
 30
0.0
 11
1.0
 21
0.0
 31
0.0
 44
0.9
  1
Product
 40
0.145
 41
1.624
  0
MTEXT
  5
27B
100
AcDbEntity
  8
0
100
AcDbMText
 62
2
  6
CONTINUOUS
  7
STANDARD
 71
2
 72
1
 10
2.3
 20
-0.44325
 30
0.0
 11
1.0
 21
0.0
 31
0.0
 44
0.9
  1
Port
 40
0.145
 41
0.928
  0
MTEXT
  5
27C
100
AcDbEntity
  8
0
100
AcDbMText
 62
2
  6
CONTINUOUS
  7
STANDARD
 71
2
 72
1
 10
3.95
 20
-0.44325
 30
0.0
 11
1.0
 21
0.0
 31
0.0
 44
0.9
  1
Size
 40
0.145
 41
0.928
  0
MTEXT
  5
27D
100
AcDbEntity
  8
0
100
AcDbMText
 62
2
  6
CONTINUOUS
  7
STANDARD
 71
2
 72
1
 10
0.65
 20
-0.75025
 30
0.0
 11
1.0
 21
0.0
 31
0.0
 44
0.9
  1
J6U
 40
0.125
 41
0.6
  0
MTEXT
  5
27E
100
AcDbEntity
  8
0
100
AcDbMText
 62
2
  6
CONTINUOUS
  7
STANDARD
 71
2
 72
1
 10
2.3
 20
-0.75025
 30
0.0
 11
1.0
 21
0.0
 31
0.0
 44
0.9
  1
Ports 1 &  2
 40
0.125
 41
2.4
  0
MTEXT
  5
27F
100
AcDbEntity
  8
0
100
AcDbMText
 62
2
  6
CONTINUOUS
  7
STANDARD
 71
2
 72
1
 10
3.95
 20
-0.75025
 30
0.0
 11
1.0
 21
0.0
 31
0.0
 44
0.9
  1
3/8" BSPP
 40
0.125
 41
1.8
  0
MTEXT
  5
280
100
AcDbEntity
  8
0
100
AcDbMText
 62
2
  6
CONTINUOUS
  7
STANDARD
 71
2
 72
1
 10
0.65
 20
-1.00025
 30
0.0
 11
1.0
 21
0.0
 31
0.0
 44
0.9
  1
J6U
 40
0.125
 41
0.6
  0
MTEXT
  5
281
100
AcDbEntity
  8
0
100
AcDbMText
 62
2
  6
CONTINUOUS
  7
STANDARD
 71
2
 72
1
 10
2.3
 20
-1.00025
 30
0.0
 11
1.0
 21
0.0
 31
0.0
 44
0.9
  1
Port 3
 40
0.125
 41
1.2
  0
MTEXT
  5
282
100
AcDbEntity
  8
0
100
AcDbMText
 62
2
  6
CONTINUOUS
  7
STANDARD
 71
2
 72
1
 10
3.95
 20
-1.00025
 30
0.0
 11
1.0
 21
0.0
 31
0.0
 44
0.9
  1
1/4" BSPP
 40
0.125
 41
1.8
  0
MTEXT
  5
283
100
AcDbEntity
  8
0
100
AcDbMText
 62
2
  6
CONTINUOUS
  7
STANDARD
 71
2
 72
1
 10
0.65
 20
-1.25025
 30
0.0
 11
1.0
 21
0.0
 31
0.0
 44
0.9
  1
J6U
 40
0.125
 41
0.6
  0
MTEXT
  5
284
100
AcDbEntity
  8
0
100
AcDbMText
 62
2
  6
CONTINUOUS
  7
STANDARD
 71
2
 72
1
 10
2.3
 20
-1.25025
 30
0.0
 11
1.0
 21
0.0
 31
0.0
 44
0.9
  1
Gage Port
 40
0.125
 41
1.8
  0
MTEXT
  5
285
100
AcDbEntity
  8
0
100
AcDbMText
 62
2
  6
CONTINUOUS
  7
STANDARD
 71
2
 72
1
 10
3.95
 20
-1.25025
 30
0.0
 11
1.0
 21
0.0
 31
0.0
 44
0.9
  1
1/4" BSPP
 40
0.125
 41
1.8
  0
ENDBLK
  5
286
100
AcDbEntity
  8
0
  6
BYBLOCK
 62
0
100
AcDbBlockEnd
  0
ENDSEC
  0
SECTION
  2
ENTITIES
  0
IMAGE
  5
287
100
AcDbEntity
  8
0
100
AcDbRasterImage
 62
7
  6
CONTINUOUS
 10
19.2297077316
 20
0.3094318264
 30
0.0
 11
0.0066666667
 21
0.0
 31
0.0
 12
0.0
 22
0.0066666667
 32
0.0
 13
369.0
 23
92.0
340
       3C7
 70
9
280
0
281
50
282
50
283
0
360
       3C1
 71
1
 91
2
 14
-0.5
 24
-0.5
 14
368.5
 24
91.5
  0
INSERT
  5
288
100
AcDbEntity
  8
0
100
AcDbBlockReference
 62
2
  6
CONTINUOUS
  2
SUN_FIRST_THIRD_ANGLE_BL0
 10
20.4816717061
 20
1.2289683772
  0
ACAD_TABLE
  5
289
100
AcDbEntity
  8
0
 62
2
  6
CONTINUOUS
100
AcDbBlockReference
  2
*T1
 10
12.42375
 20
0.30125
 30
0.0
100
AcDbTable
342
       3C9
343
207
 11
1.0
 21
0.0
 31
0.0
 90
6
 91
4
 92
6
 93
20
 94
0
 95
0
 96
0
 70
1
 41
0.0
141
0.525
141
0.1
141
0.525
141
0.1
142
4.1
142
1.1
142
0.7
142
0.5
142
0.4
142
2.475
171
1
172
0
173
0
174
0
175
1
176
1
 91
33
178
0
145
0.0
301
CELL_VALUE
 90
4
  1
T-163A Line mount\P(See Technical Data for Body Features)
304
ACVALUE_END
170
2
140
0.125
171
1
172
0
173
0
174
0
175
1
176
1
 91
33
178
0
145
0.0
301
CELL_VALUE
 90
4
  1
May-22-20
304
ACVALUE_END
170
5
140
0.125
171
1
172
0
173
0
174
0
175
1
176
1
 91
33
178
0
145
0.0
301
CELL_VALUE
 90
4
  1
1.000
304
ACVALUE_END
170
5
140
0.125
171
1
172
0
173
0
174
0
175
1
176
1
 91
33
178
0
145
0.0
301
CELL_VALUE
 90
4
  1
C
304
ACVALUE_END
170
5
140
0.125
171
1
172
0
173
0
174
0
175
1
176
1
 91
33
178
0
145
0.0
301
CELL_VALUE
 90
4
  1
2
304
ACVALUE_END
170
5
140
0.125
171
1
172
0
173
0
174
0
175
1
176
1
 91
33
178
0
145
0.0
301
CELL_VALUE
 90
4
  1
 
304
ACVALUE_END
170
1
140
0.125
171
1
172
0
173
0
174
0
175
1
176
1
 91
33
178
0
145
0.0
301
CELL_VALUE
 90
4
  1
DESCRIPTION
304
ACVALUE_END
170
1
140
0.06
171
1
172
0
173
0
174
0
175
1
176
1
 91
33
178
0
145
0.0
301
CELL_VALUE
 90
4
  1
DATE
304
ACVALUE_END
170
1
140
0.06
171
1
172
0
173
0
174
0
175
1
176
1
 91
33
178
0
145
0.0
301
CELL_VALUE
 90
4
  1
SCALE
304
ACVALUE_END
170
1
140
0.06
171
1
172
0
173
0
174
0
175
1
176
1
 91
33
178
0
145
0.0
301
CELL_VALUE
 90
4
  1
DWG SIZE
304
ACVALUE_END
170
1
140
0.06
171
1
172
0
173
0
174
0
175
1
176
1
 91
33
178
0
145
0.0
301
CELL_VALUE
 90
4
  1
SHEET
304
ACVALUE_END
170
1
140
0.06
171
1
172
0
173
0
174
0
175
1
176
1
 91
33
178
0
145
0.0
301
CELL_VALUE
 90
4
  1
 
304
ACVALUE_END
170
1
140
0.125
171
1
172
0
173
0
174
0
175
1
176
1
 91
33
178
0
145
0.0
301
CELL_VALUE
 90
4
  1
J6U
304
ACVALUE_END
170
5
140
0.125
171
1
172
0
173
0
174
0
175
4
176
1
 91
33
178
0
145
0.0
301
CELL_VALUE
 90
4
  1
ALL DIMENSIONS IN INCH\PVIEWS ARE THIRD ANGLE
304
ACVALUE_END
170
5
140
0.12
171
1
172
0
173
1
174
0
175
1
176
1
 91
1
178
0
145
0.0
170
1
171
1
172
0
173
1
174
0
175
1
176
1
 91
1
178
0
145
0.0
170
1
171
1
172
0
173
1
174
0
175
1
176
1
 91
1
178
0
145
0.0
170
5
171
1
172
0
173
0
174
0
175
1
176
1
 91
33
178
0
145
0.0
301
CELL_VALUE
 90
4
  1
 
304
ACVALUE_END
170
1
140
0.125
171
1
172
0
173
0
174
0
175
1
176
1
 91
33
178
0
145
0.0
301
CELL_VALUE
 90
4
  1
MODEL
304
ACVALUE_END
170
1
140
0.06
171
1
172
0
173
0
174
0
175
1
176
1
 91
33
178
0
145
0.0
301
CELL_VALUE
 90
4
  1
 
304
ACVALUE_END
170
1
140
0.125
171
1
172
0
173
0
174
0
175
1
176
1
 91
33
178
0
145
0.0
301
CELL_VALUE
 90
4
  1
 
304
ACVALUE_END
170
1
140
0.125
171
1
172
0
173
0
174
0
175
1
176
1
 91
33
178
0
145
0.0
301
CELL_VALUE
 90
4
  1
 
304
ACVALUE_END
170
1
140
0.125
171
1
172
0
173
0
174
0
175
1
176
1
 91
33
178
0
145
0.0
301
CELL_VALUE
 90
4
  1
 
304
ACVALUE_END
170
1
140
0.125
171
1
172
0
173
0
174
0
175
1
176
1
 91
33
178
0
145
0.0
301
CELL_VALUE
 90
4
  1
 
304
ACVALUE_END
170
1
140
0.125
  0
ACAD_TABLE
  5
28A
100
AcDbEntity
  8
0
 62
2
  6
CONTINUOUS
100
AcDbBlockReference
  2
*T2
 10
12.4237499994
 20
16.47875
 30
0.0
100
AcDbTable
342
       3C8
343
208
 11
1.0
 21
0.0
 31
0.0
 90
22
 91
10
 92
3
 93
16
 94
0
 95
0
 96
0
 41
0.028
141
0.344
141
0.25
141
0.25
141
0.25
141
0.25
141
0.25
141
0.25
141
0.25
141
0.25
141
0.25
142
3.055
142
3.0
142
3.0
171
1
172
0
173
0
174
0
175
1
176
1
 91
33
178
0
145
0.0
301
CELL_VALUE
 90
4
  1
Technical Data
304
ACVALUE_END
170
5
140
0.145
171
1
172
0
173
0
174
0
175
1
176
1
 91
33
178
0
145
0.0
301
CELL_VALUE
 90
4
  1
U.S. Units
304
ACVALUE_END
170
5
140
0.145
171
1
172
0
173
0
174
0
175
1
176
1
 91
33
178
0
145
0.0
301
CELL_VALUE
 90
4
  1
Metric Units
304
ACVALUE_END
170
5
140
0.145
171
1
172
0
173
0
174
0
175
1
176
1
 91
33
178
0
145
0.0
301
CELL_VALUE
 90
4
  1
Cavity
304
ACVALUE_END
170
5
140
0.125
171
1
172
0
173
0
174
0
175
2
176
1
 91
33
178
0
145
0.0
301
CELL_VALUE
 90
4
  1
T-163A
304
ACVALUE_END
170
5
140
0.125
171
1
172
0
173
1
174
0
175
1
176
1
 91
1
178
0
145
0.0
170
1
171
1
172
0
173
0
174
0
175
1
176
1
 91
33
178
0
145
0.0
301
CELL_VALUE
 90
4
  1
Body Features
304
ACVALUE_END
170
5
140
0.125
171
1
172
0
173
0
174
0
175
2
176
1
 91
33
178
0
145
0.0
301
CELL_VALUE
 90
4
  1
Ninety degree with reverse flow check - sequence
304
ACVALUE_END
170
5
140
0.125
171
1
172
0
173
1
174
0
175
1
176
1
 91
1
178
0
145
0.0
170
1
171
1
172
0
173
0
174
0
175
1
176
1
 91
33
178
0
145
0.0
301
CELL_VALUE
 90
4
  1
Body Type
304
ACVALUE_END
170
5
140
0.125
171
1
172
0
173
0
174
0
175
2
176
1
 91
33
178
0
145
0.0
301
CELL_VALUE
 90
4
  1
Line mount
304
ACVALUE_END
170
5
140
0.125
171
1
172
0
173
1
174
0
175
1
176
1
 91
1
178
0
145
0.0
170
1
171
1
172
0
173
0
174
0
175
1
176
1
 91
33
178
0
145
0.0
301
CELL_VALUE
 90
4
  1
Interface
304
ACVALUE_END
170
5
140
0.125
171
1
172
0
173
0
174
0
175
2
176
1
 91
33
178
0
145
0.0
301
CELL_VALUE
 90
4
  1
None
304
ACVALUE_END
170
5
140
0.125
171
1
172
0
173
1
174
0
175
1
176
1
 91
1
178
0
145
0.0
170
1
171
1
172
0
173
0
174
0
175
1
176
1
 91
33
178
0
145
0.0
301
CELL_VALUE
 90
4
  1
Open Cavity Quantity
304
ACVALUE_END
170
5
140
0.125
171
1
172
0
173
0
174
0
175
2
176
1
 91
33
178
0
145
0.0
301
CELL_VALUE
 90
4
  1
1
304
ACVALUE_END
170
5
140
0.125
171
1
172
0
173
1
174
0
175
1
176
1
 91
1
178
0
145
0.0
170
1
171
1
172
0
173
0
174
0
175
1
176
1
 91
33
178
0
145
0.0
301
CELL_VALUE
 90
4
  1
Weight
304
ACVALUE_END
170
5
140
0.125
171
1
172
0
173
0
174
0
175
1
176
1
 91
33
178
0
145
0.0
301
CELL_VALUE
 90
4
  1
0.835 lb.
304
ACVALUE_END
170
5
140
0.125
171
1
172
0
173
0
174
0
175
1
176
1
 91
33
178
0
145
0.0
301
CELL_VALUE
 90
4
  1
0,379 kg.
304
ACVALUE_END
170
5
140
0.125
171
1
172
0
173
0
174
0
175
1
176
1
 91
33
178
0
145
0.0
301
CELL_VALUE
 90
4
  1
Mounting Hole Diameter
304
ACVALUE_END
170
5
140
0.125
171
1
172
0
173
0
174
0
175
1
176
1
 91
33
178
0
145
0.0
301
CELL_VALUE
 90
4
  1
.27 in.
304
ACVALUE_END
170
5
140
0.125
171
1
172
0
173
0
174
0
175
1
176
1
 91
33
178
0
145
0.0
301
CELL_VALUE
 90
4
  1
8,7 mm
304
ACVALUE_END
170
5
140
0.125
171
1
172
0
173
0
174
0
175
1
176
1
 91
33
178
0
145
0.0
301
CELL_VALUE
 90
4
  1
Mounting Hole Depth
304
ACVALUE_END
170
5
140
0.125
171
1
172
0
173
0
174
0
175
2
176
1
 91
33
178
0
145
0.0
301
CELL_VALUE
 90
4
  1
Through
304
ACVALUE_END
170
5
140
0.125
171
1
172
0
173
1
174
0
175
1
176
1
 91
1
178
0
145
0.0
170
1
171
1
172
0
173
0
174
0
175
1
176
1
 91
33
178
0
145
0.0
301
CELL_VALUE
 90
4
  1
Mounting Hole Quantity
304
ACVALUE_END
170
5
140
0.125
171
1
172
0
173
0
174
0
175
2
176
1
 91
33
178
0
145
0.0
301
CELL_VALUE
 90
4
  1
2
304
ACVALUE_END
170
5
140
0.125
171
1
172
0
173
1
174
0
175
1
176
1
 91
1
178
0
145
0.0
170
1
  0
ACAD_TABLE
  5
28B
100
AcDbEntity
  8
0
 62
2
  6
CONTINUOUS
100
AcDbBlockReference
  2
*T3
 10
0.52125
 20
1.959
 30
0.0
100
AcDbTable
342
       3C8
343
209
 11
1.0
 21
0.0
 31
0.0
 90
22
 91
5
 92
3
 93
16
 94
0
 95
0
 96
0
 41
0.05
141
0.34375
141
0.344
141
0.25
141
0.25
141
0.25
142
1.3
142
2.0
142
1.3
171
1
172
0
173
0
174
0
175
3
176
1
 91
33
178
0
145
0.0
301
CELL_VALUE
 90
4
  1
Port Headings
304
ACVALUE_END
170
5
140
0.145
171
1
172
0
173
1
174
0
175
1
176
1
 91
1
178
0
145
0.0
170
1
171
1
172
0
173
1
174
0
175
1
176
1
 91
1
178
0
145
0.0
170
1
171
1
172
0
173
0
174
0
175
1
176
1
 91
33
178
0
145
0.0
301
CELL_VALUE
 90
4
  1
Product
304
ACVALUE_END
170
5
140
0.145
171
1
172
0
173
0
174
0
175
1
176
1
 91
33
178
0
145
0.0
301
CELL_VALUE
 90
4
  1
Port
304
ACVALUE_END
170
5
140
0.145
171
1
172
0
173
0
174
0
175
1
176
1
 91
33
178
0
145
0.0
301
CELL_VALUE
 90
4
  1
Size
304
ACVALUE_END
170
5
140
0.145
171
1
172
0
173
0
174
0
175
1
176
1
 91
33
178
0
145
0.0
301
CELL_VALUE
 90
4
  1
J6U
304
ACVALUE_END
170
5
140
0.125
171
1
172
0
173
0
174
0
175
1
176
1
 91
33
178
0
145
0.0
301
CELL_VALUE
 90
4
  1
Ports 1 &  2
304
ACVALUE_END
170
5
140
0.125
171
1
172
0
173
0
174
0
175
1
176
1
 91
33
178
0
145
0.0
301
CELL_VALUE
 90
4
  1
3/8" BSPP
304
ACVALUE_END
170
5
140
0.125
171
1
172
0
173
0
174
0
175
1
176
1
 91
33
178
0
145
0.0
301
CELL_VALUE
 90
4
  1
J6U
304
ACVALUE_END
170
5
140
0.125
171
1
172
0
173
0
174
0
175
1
176
1
 91
33
178
0
145
0.0
301
CELL_VALUE
 90
4
  1
Port 3
304
ACVALUE_END
170
5
140
0.125
171
1
172
0
173
0
174
0
175
1
176
1
 91
33
178
0
145
0.0
301
CELL_VALUE
 90
4
  1
1/4" BSPP
304
ACVALUE_END
170
5
140
0.125
171
1
172
0
173
0
174
0
175
1
176
1
 91
33
178
0
145
0.0
301
CELL_VALUE
 90
4
  1
J6U
304
ACVALUE_END
170
5
140
0.125
171
1
172
0
173
0
174
0
175
1
176
1
 91
33
178
0
145
0.0
301
CELL_VALUE
 90
4
  1
Gage Port
304
ACVALUE_END
170
5
140
0.125
171
1
172
0
173
0
174
0
175
1
176
1
 91
33
178
0
145
0.0
301
CELL_VALUE
 90
4
  1
1/4" BSPP
304
ACVALUE_END
170
5
140
0.125
  0
MTEXT
  5
28C
100
AcDbEntity
  8
0
100
AcDbMText
 62
2
  6
CONTINUOUS
  7
STANDARD
 71
1
 72
1
 10
0.52125
 20
5.75995
 30
0.0
 11
1.0
 21
0.0
 31
0.0
 44
0.6
  3
Notes\P \P1. Important: Carefully consider\P   the maximum system pressure. The\P   pressure rating of the manifold is\P   dependent on the manifold material,\P   with the port type/size a secondary\P   consideration. Manifolds\P   constructed of alu
  1
minum are not\P   rated for pressures higher than\P   3000 psi (210 bar), regardless of\P   the port type/size specified.
 40
0.1
 41
3.04
  0
LINE
  5
28D
100
AcDbEntity
  8
0
100
AcDbLine
 62
7
  6
CONTINUOUS
 10
0.30125
 20
0.30125
 11
0.30125
 21
16.69875
  0
LINE
  5
28E
100
AcDbEntity
  8
0
100
AcDbLine
 62
7
  6
CONTINUOUS
 10
0.30125
 20
0.30125
 11
21.69875
 21
0.30125
  0
LINE
  5
28F
100
AcDbEntity
  8
0
100
AcDbLine
 62
7
  6
CONTINUOUS
 10
0.30125
 20
16.69875
 11
21.69875
 21
16.69875
  0
LINE
  5
290
100
AcDbEntity
  8
0
100
AcDbLine
 62
7
  6
CONTINUOUS
 10
21.69875
 20
0.30125
 11
21.69875
 21
16.69875
  0
LINE
  5
291
100
AcDbEntity
  8
0
100
AcDbLine
 62
7
  6
CONTINUOUS
 10
9.6805205905
 20
10.4915715469
 11
9.558785035
 21
10.3739840229
  0
LINE
  5
292
100
AcDbEntity
  8
0
100
AcDbLine
 62
7
  6
CONTINUOUS
 10
9.5434373144
 20
10.3591592623
 11
9.421701759
 21
10.2415717384
  0
LINE
  5
293
100
AcDbEntity
  8
0
100
AcDbLine
 62
7
  6
CONTINUOUS
 10
9.5588921293
 20
10.3580874673
 11
9.5742398499
 21
10.3729122279
  0
LINE
  5
294
100
AcDbEntity
  8
0
100
AcDbLine
 62
4
  6
CONTINUOUS
 10
9.6728424903
 20
9.8281254553
 11
9.6655980463
 21
9.8189686029
  0
LINE
  5
295
100
AcDbEntity
  8
0
100
AcDbLine
 62
4
  6
CONTINUOUS
 10
9.6221313825
 20
9.8509608021
 11
9.6366202704
 21
9.8596152507
  0
LINE
  5
296
100
AcDbEntity
  8
0
100
AcDbLine
 62
4
  6
CONTINUOUS
 10
9.6800869342
 20
9.7696674997
 11
9.6655980463
 21
9.7513537905
  0
LINE
  5
297
100
AcDbEntity
  8
0
100
AcDbLine
 62
4
  6
CONTINUOUS
 10
9.6655980463
 20
9.8189686029
 11
9.6511091584
 21
9.8103141475
  0
LINE
  5
298
100
AcDbEntity
  8
0
100
AcDbLine
 62
4
  6
CONTINUOUS
 10
9.6655980463
 20
9.7513537905
 11
9.6511091584
 21
9.7426993394
  0
LINE
  5
299
100
AcDbEntity
  8
0
100
AcDbLine
 62
7
  6
CONTINUOUS
 10
9.421701759
 20
7.3437940878
 11
9.421701759
 21
10.2415717384
  0
LINE
  5
29A
100
AcDbEntity
  8
0
100
AcDbLine
 62
4
  6
CONTINUOUS
 10
11.2827531604
 20
10.2592094298
 11
11.2982358403
 21
10.2641645536
  0
LINE
  5
29B
100
AcDbEntity
  8
0
100
AcDbLine
 62
7
  6
CONTINUOUS
 10
11.1348208184
 20
6.5693779753
 11
11.1538948616
 21
6.5599557632
  0
LINE
  5
29C
100
AcDbEntity
  8
0
100
AcDbLine
 62
4
  6
CONTINUOUS
 10
9.6728424903
 20
9.8377847116
 11
9.6728424903
 21
9.8281254553
  0
LINE
  5
29D
100
AcDbEntity
  8
0
100
AcDbLine
 62
4
  6
CONTINUOUS
 10
9.6728424903
 20
8.0701403236
 11
9.6728424903
 21
7.9542292202
  0
LINE
  5
29E
100
AcDbEntity
  8
0
100
AcDbLine
 62
4
  6
CONTINUOUS
 10
9.6800869342
 20
9.7793267595
 11
9.6800869342
 21
9.7696674997
  0
LINE
  5
29F
100
AcDbEntity
  8
0
100
AcDbLine
 62
7
  6
CONTINUOUS
 10
11.1197748496
 20
10.2577844473
 11
11.1187618977
 21
10.2568243228
  0
LINE
  5
2A0
100
AcDbEntity
  8
0
100
AcDbLine
 62
7
  6
CONTINUOUS
 10
9.421701759
 20
7.3437940878
 11
12.3194794095
 21
7.1428325252
  0
LINE
  5
2A1
100
AcDbEntity
  8
0
100
AcDbLine
 62
4
  6
CONTINUOUS
 10
11.1315763818
 20
10.1631838676
 11
11.1509877937
 21
10.1819338528
  0
LINE
  5
2A2
100
AcDbEntity
  8
0
100
AcDbLine
 62
4
  6
CONTINUOUS
 10
11.2635739829
 20
10.2906837671
 11
11.2674562653
 21
10.2944337641
  0
LINE
  5
2A3
100
AcDbEntity
  8
0
100
AcDbLine
 62
4
  6
CONTINUOUS
 10
11.3118702783
 20
10.2873344076
 11
11.3157525607
 21
10.2910844046
  0
LINE
  5
2A4
100
AcDbEntity
  8
0
100
AcDbLine
 62
4
  6
CONTINUOUS
 10
11.2244724749
 20
10.1929146098
 11
11.2361193221
 21
10.2041646009
  0
LINE
  5
2A5
100
AcDbEntity
  8
0
100
AcDbLine
 62
4
  6
CONTINUOUS
 10
11.3680240274
 20
10.3115747716
 11
11.3796708745
 21
10.3228247627
  0
LINE
  5
2A6
100
AcDbEntity
  8
0
100
AcDbLine
 62
4
  6
CONTINUOUS
 10
11.3833673687
 20
10.2863953018
 11
11.3794850863
 21
10.2826453047
  0
LINE
  5
2A7
100
AcDbEntity
  8
0
100
AcDbLine
 62
4
  6
CONTINUOUS
 10
10.328292219
 20
9.0126889457
 11
10.3448509488
 21
9.0280993219
  0
LINE
  5
2A8
100
AcDbEntity
  8
0
100
AcDbLine
 62
4
  6
CONTINUOUS
 10
10.328292219
 20
8.9961302176
 11
10.328292219
 21
9.0126889457
  0
LINE
  5
2A9
100
AcDbEntity
  8
0
100
AcDbLine
 62
4
  6
CONTINUOUS
 10
10.3696890427
 20
8.9104656908
 11
10.3862477708
 21
8.9258760689
  0
LINE
  5
2AA
100
AcDbEntity
  8
0
100
AcDbLine
 62
4
  6
CONTINUOUS
 10
10.4607620575
 20
8.9041497558
 11
10.4773207786
 21
8.9195601344
  0
LINE
  5
2AB
100
AcDbEntity
  8
0
100
AcDbLine
 62
4
  6
CONTINUOUS
 10
10.3862477708
 20
8.9258760689
 11
10.3862477708
 21
8.9424347987
  0
LINE
  5
2AC
100
AcDbEntity
  8
0
100
AcDbLine
 62
4
  6
CONTINUOUS
 10
10.4193652269
 20
9.0229317392
 11
10.4193652269
 21
8.9235793656
  0
LINE
  5
2AD
100
AcDbEntity
  8
0
100
AcDbLine
 62
4
  6
CONTINUOUS
 10
10.4552424874
 20
8.3133859118
 11
10.4552424874
 21
8.4292970152
  0
LINE
  5
2AE
100
AcDbEntity
  8
0
100
AcDbLine
 62
4
  6
CONTINUOUS
 10
10.4773207786
 20
8.9195601344
 11
10.4773207786
 21
9.018912508
  0
LINE
  5
2AF
100
AcDbEntity
  8
0
100
AcDbLine
 62
4
  6
CONTINUOUS
 10
10.5104382348
 20
8.9007047012
 11
10.5104382348
 21
9.0166158046
  0
LINE
  5
2B0
100
AcDbEntity
  8
0
100
AcDbLine
 62
4
  6
CONTINUOUS
 10
10.5131980322
 20
8.4087190565
 11
10.5131980322
 21
8.3259254109
  0
LINE
  5
2B1
100
AcDbEntity
  8
0
100
AcDbLine
 62
4
  6
CONTINUOUS
 10
12.1093905472
 20
7.7852540385
 11
12.0949016592
 21
7.7862588463
  0
LINE
  5
2B2
100
AcDbEntity
  8
0
100
AcDbLine
 62
4
  6
CONTINUOUS
 10
12.1021461032
 20
7.8437119941
 11
12.131123879
 21
7.8417023786
  0
LINE
  5
2B3
100
AcDbEntity
  8
0
100
AcDbLine
 62
4
  6
CONTINUOUS
 10
12.0949016592
 20
7.9021699498
 11
12.1093905472
 21
7.901165142
  0
LINE
  5
2B4
100
AcDbEntity
  8
0
100
AcDbLine
 62
4
  6
CONTINUOUS
 10
10.5683937865
 20
8.89668547
 11
10.5683937865
 21
9.0125965735
  0
LINE
  5
2B5
100
AcDbEntity
  8
0
100
AcDbLine
 62
4
  6
CONTINUOUS
 10
10.5601144319
 20
8.3061130177
 11
10.593231888
 21
8.4197274178
  0
LINE
  5
2B6
100
AcDbEntity
  8
0
100
AcDbLine
 62
4
  6
CONTINUOUS
 10
10.8471324068
 20
8.9518691609
 11
10.863691128
 21
8.9590001771
  0
LINE
  5
2B7
100
AcDbEntity
  8
0
100
AcDbLine
 62
4
  6
CONTINUOUS
 10
11.0044403408
 20
8.8995629984
 11
11.020999062
 21
8.9066940112
  0
LINE
  5
2B8
100
AcDbEntity
  8
0
100
AcDbLine
 62
4
  6
CONTINUOUS
 10
10.3890075682
 20
8.3676555067
 11
10.4331641798
 21
8.3425149295
  0
LINE
  5
2B9
100
AcDbEntity
  8
0
100
AcDbLine
 62
4
  6
CONTINUOUS
 10
10.4966393041
 20
8.4264261362
 11
10.5131980322
 21
8.4087190565
  0
LINE
  5
2BA
100
AcDbEntity
  8
0
100
AcDbLine
 62
4
  6
CONTINUOUS
 10
9.6221313825
 20
9.7543682139
 11
9.6148869385
 21
9.7645298767
  0
LINE
  5
2BB
100
AcDbEntity
  8
0
100
AcDbLine
 62
4
  6
CONTINUOUS
 10
9.6655980463
 20
9.7996500834
 11
9.6800869342
 21
9.7793267595
  0
LINE
  5
2BC
100
AcDbEntity
  8
0
100
AcDbLine
 62
4
  6
CONTINUOUS
 10
10.593231888
 20
8.4197274178
 11
10.626349358
 21
8.30151961
  0
LINE
  5
2BD
100
AcDbEntity
  8
0
100
AcDbLine
 62
4
  6
CONTINUOUS
 10
10.6925842505
 20
8.8880728321
 11
10.6925842505
 21
9.0039839355
  0
LINE
  5
2BE
100
AcDbEntity
  8
0
100
AcDbLine
 62
4
  6
CONTINUOUS
 10
10.6925842703
 20
8.2969262032
 11
10.6925842703
 21
8.4128373067
  0
LINE
  5
2BF
100
AcDbEntity
  8
0
100
AcDbLine
 62
4
  6
CONTINUOUS
 10
10.7422604416
 20
8.9591420564
 11
10.7422604416
 21
8.8846277766
  0
LINE
  5
2C0
100
AcDbEntity
  8
0
100
AcDbLine
 62
4
  6
CONTINUOUS
 10
10.7588191826
 20
8.2923327965
 11
10.7588191826
 21
8.4082438999
  0
LINE
  5
2C1
100
AcDbEntity
  8
0
100
AcDbLine
 62
4
  6
CONTINUOUS
 10
10.8002159592
 20
8.5610250776
 11
10.8002159592
 21
8.6603774512
  0
LINE
  5
2C2
100
AcDbEntity
  8
0
100
AcDbLine
 62
4
  6
CONTINUOUS
 10
10.8333334154
 20
8.6001251961
 11
10.8333334154
 21
8.5587283742
  0
LINE
  5
2C3
100
AcDbEntity
  8
0
100
AcDbLine
 62
4
  6
CONTINUOUS
 10
10.8471324068
 20
8.885634246
 11
10.8471324068
 21
8.9518691609
  0
LINE
  5
2C4
100
AcDbEntity
  8
0
100
AcDbLine
 62
4
  6
CONTINUOUS
 10
10.7919366328
 20
8.8535848392
 11
10.8250540751
 21
8.9616796659
  0
LINE
  5
2C5
100
AcDbEntity
  8
0
100
AcDbLine
 62
4
  6
CONTINUOUS
 10
10.8498921434
 20
8.6320943006
 11
10.8333334154
 21
8.6001251961
  0
LINE
  5
2C6
100
AcDbEntity
  8
0
100
AcDbLine
 62
7
  6
CONTINUOUS
 10
12.3194794095
 20
10.0406101758
 11
12.578298241
 21
10.2906099842
  0
LINE
  5
2C7
100
AcDbEntity
  8
0
100
AcDbLine
 62
4
  6
CONTINUOUS
 10
10.5131980322
 20
8.3259254109
 11
10.4966393041
 21
8.3105150328
  0
LINE
  5
2C8
100
AcDbEntity
  8
0
100
AcDbLine
 62
4
  6
CONTINUOUS
 10
10.874730239
 20
8.6552098684
 11
10.8498921434
 21
8.6320943006
  0
LINE
  5
2C9
100
AcDbEntity
  8
0
100
AcDbLine
 62
4
  6
CONTINUOUS
 10
10.7836572294
 20
8.5456146996
 11
10.8002159592
 21
8.5610250776
  0
LINE
  5
2CA
100
AcDbEntity
  8
0
100
AcDbLine
 62
4
  6
CONTINUOUS
 10
11.1617482393
 20
8.2643895715
 11
11.1203514088
 21
8.2672604514
  0
LINE
  5
2CB
100
AcDbEntity
  8
0
100
AcDbLine
 62
4
  6
CONTINUOUS
 10
11.0706752453
 20
8.2707055051
 11
11.0458371359
 21
8.2724280338
  0
LINE
  5
2CC
100
AcDbEntity
  8
0
100
AcDbLine
 62
4
  6
CONTINUOUS
 10
10.9823620289
 20
8.2768300474
 11
10.9492445865
 21
8.2791267499
  0
LINE
  5
2CD
100
AcDbEntity
  8
0
100
AcDbLine
 62
4
  6
CONTINUOUS
 10
10.4966393041
 20
8.3105150328
 11
10.4552424874
 21
8.3133859118
  0
LINE
  5
2CE
100
AcDbEntity
  8
0
100
AcDbLine
 62
4
  6
CONTINUOUS
 10
10.7588191826
 20
8.2923327965
 11
10.8084953737
 21
8.2888877409
  0
LINE
  5
2CF
100
AcDbEntity
  8
0
100
AcDbLine
 62
4
  6
CONTINUOUS
 10
11.2252234016
 20
8.259987554
 11
11.2748995651
 21
8.2565425004
  0
LINE
  5
2D0
100
AcDbEntity
  8
0
100
AcDbLine
 62
4
  6
CONTINUOUS
 10
10.5711535839
 20
8.3384649095
 11
10.6153101921
 21
8.3354026384
  0
LINE
  5
2D1
100
AcDbEntity
  8
0
100
AcDbLine
 62
4
  6
CONTINUOUS
 10
11.2583408439
 20
8.3239257708
 11
11.2252234016
 21
8.3262224732
  0
LINE
  5
2D2
100
AcDbEntity
  8
0
100
AcDbLine
 62
4
  6
CONTINUOUS
 10
10.7919366526
 20
8.3562710113
 11
10.7588191826
 21
8.3585677157
  0
LINE
  5
2D3
100
AcDbEntity
  8
0
100
AcDbLine
 62
4
  6
CONTINUOUS
 10
10.328292219
 20
8.9216159352
 11
10.3365715839
 21
8.9127623944
  0
LINE
  5
2D4
100
AcDbEntity
  8
0
100
AcDbLine
 62
4
  6
CONTINUOUS
 10
10.9492445865
 20
8.2791267499
 11
10.9326858654
 21
8.2968338309
  0
LINE
  5
2D5
100
AcDbEntity
  8
0
100
AcDbLine
 62
4
  6
CONTINUOUS
 10
9.6655980463
 20
9.8479463788
 11
9.6728424903
 21
9.8377847116
  0
LINE
  5
2D6
100
AcDbEntity
  8
0
100
AcDbLine
 62
4
  6
CONTINUOUS
 10
10.5104382348
 20
9.0166158046
 11
10.5683937865
 21
8.89668547
  0
LINE
  5
2D7
100
AcDbEntity
  8
0
100
AcDbLine
 62
4
  6
CONTINUOUS
 10
10.891288974
 20
8.5547091426
 11
10.891288974
 21
8.5878266005
  0
LINE
  5
2D8
100
AcDbEntity
  8
0
100
AcDbLine
 62
4
  6
CONTINUOUS
 10
10.8968085703
 20
8.9898209309
 11
10.8968085703
 21
8.8739098274
  0
LINE
  5
2D9
100
AcDbEntity
  8
0
100
AcDbLine
 62
4
  6
CONTINUOUS
 10
10.9244064301
 20
8.6517648128
 11
10.9244064301
 21
8.5524124392
  0
LINE
  5
2DA
100
AcDbEntity
  8
0
100
AcDbLine
 62
4
  6
CONTINUOUS
 10
10.9299260679
 20
8.8716131212
 11
10.9299260679
 21
8.9544067685
  0
LINE
  5
2DB
100
AcDbEntity
  8
0
100
AcDbLine
 62
4
  6
CONTINUOUS
 10
10.9326858654
 20
8.2968338309
 11
10.9326858654
 21
8.3796274764
  0
LINE
  5
2DC
100
AcDbEntity
  8
0
100
AcDbLine
 62
4
  6
CONTINUOUS
 10
10.9685630656
 20
8.9434479161
 11
10.9685630656
 21
8.926889188
  0
LINE
  5
2DD
100
AcDbEntity
  8
0
100
AcDbLine
 62
4
  6
CONTINUOUS
 10
10.9823619819
 20
8.548393208
 11
10.9823619819
 21
8.6477455817
  0
LINE
  5
2DE
100
AcDbEntity
  8
0
100
AcDbLine
 62
4
  6
CONTINUOUS
 10
11.0044403408
 20
8.8747249037
 11
11.0044403408
 21
8.8995629984
  0
LINE
  5
2DF
100
AcDbEntity
  8
0
100
AcDbLine
 62
4
  6
CONTINUOUS
 10
10.874730239
 20
8.539298765
 11
10.891288974
 21
8.5547091426
  0
LINE
  5
2E0
100
AcDbEntity
  8
0
100
AcDbLine
 62
4
  6
CONTINUOUS
 10
11.2886984888
 20
8.9212464491
 11
11.2969778218
 21
8.9289516429
  0
LINE
  5
2E1
100
AcDbEntity
  8
0
100
AcDbLine
 62
4
  6
CONTINUOUS
 10
11.363212817
 20
8.9160788629
 11
11.3714921499
 21
8.9237840567
  0
LINE
  5
2E2
100
AcDbEntity
  8
0
100
AcDbLine
 62
4
  6
CONTINUOUS
 10
10.9658032469
 20
8.5329828304
 11
10.9823619819
 21
8.548393208
  0
LINE
  5
2E3
100
AcDbEntity
  8
0
100
AcDbLine
 62
4
  6
CONTINUOUS
 10
10.4331641798
 20
8.3866715429
 11
10.3890075682
 21
8.3676555067
  0
LINE
  5
2E4
100
AcDbEntity
  8
0
100
AcDbLine
 62
4
  6
CONTINUOUS
 10
10.4552424874
 20
8.4292970152
 11
10.4966393041
 21
8.4264261362
  0
LINE
  5
2E5
100
AcDbEntity
  8
0
100
AcDbLine
 62
4
  6
CONTINUOUS
 10
10.6594668003
 20
8.415134011
 11
10.7257017126
 21
8.4105406042
  0
LINE
  5
2E6
100
AcDbEntity
  8
0
100
AcDbLine
 62
4
  6
CONTINUOUS
 10
10.7588191826
 20
8.4082438999
 11
10.8084953737
 21
8.4047988443
  0
LINE
  5
2E7
100
AcDbEntity
  8
0
100
AcDbLine
 62
4
  6
CONTINUOUS
 10
10.9492445865
 20
8.3950378533
 11
10.9823620289
 21
8.3927411509
  0
LINE
  5
2E8
100
AcDbEntity
  8
0
100
AcDbLine
 62
4
  6
CONTINUOUS
 10
11.0458371359
 20
8.3883391372
 11
11.0706752453
 21
8.3866166085
  0
LINE
  5
2E9
100
AcDbEntity
  8
0
100
AcDbLine
 62
4
  6
CONTINUOUS
 10
11.1203514088
 20
8.3831715549
 11
11.1617482393
 21
8.3803006749
  0
LINE
  5
2EA
100
AcDbEntity
  8
0
100
AcDbLine
 62
4
  6
CONTINUOUS
 10
11.2252234016
 20
8.3758986575
 11
11.2748995651
 21
8.3724536038
  0
LINE
  5
2EB
100
AcDbEntity
  8
0
100
AcDbLine
 62
4
  6
CONTINUOUS
 10
11.3080170074
 20
8.3260002932
 11
11.3521736156
 21
8.3008597145
  0
LINE
  5
2EC
100
AcDbEntity
  8
0
100
AcDbLine
 62
4
  6
CONTINUOUS
 10
10.3862477708
 20
8.9424347987
 11
10.328292219
 21
8.9961302176
  0
LINE
  5
2ED
100
AcDbEntity
  8
0
100
AcDbLine
 62
4
  6
CONTINUOUS
 10
10.4193652269
 20
8.9235793656
 11
10.435923955
 21
8.9058722841
  0
LINE
  5
2EE
100
AcDbEntity
  8
0
100
AcDbLine
 62
4
  6
CONTINUOUS
 10
11.0458371359
 20
8.2724280338
 11
11.0292784147
 21
8.2901351148
  0
LINE
  5
2EF
100
AcDbEntity
  8
0
100
AcDbLine
 62
4
  6
CONTINUOUS
 10
10.3779684067
 20
9.0258026184
 11
10.3862477708
 21
9.0169490751
  0
LINE
  5
2F0
100
AcDbEntity
  8
0
100
AcDbLine
 62
4
  6
CONTINUOUS
 10
10.8333334154
 20
8.5587283742
 11
10.8498921434
 21
8.5410212927
  0
LINE
  5
2F1
100
AcDbEntity
  8
0
100
AcDbLine
 62
4
  6
CONTINUOUS
 10
11.0706752453
 20
8.3866166085
 11
11.0872339664
 21
8.3689095292
  0
LINE
  5
2F2
100
AcDbEntity
  8
0
100
AcDbLine
 62
4
  6
CONTINUOUS
 10
10.9244064301
 20
8.5524124392
 11
10.9409651513
 21
8.5347053582
  0
LINE
  5
2F3
100
AcDbEntity
  8
0
100
AcDbLine
 62
4
  6
CONTINUOUS
 10
10.891288974
 20
8.5878266005
 11
10.874730239
 21
8.6055336842
  0
LINE
  5
2F4
100
AcDbEntity
  8
0
100
AcDbLine
 62
4
  6
CONTINUOUS
 10
10.7753779116
 20
8.9651247195
 11
10.800216021
 21
8.8806085435
  0
LINE
  5
2F5
100
AcDbEntity
  8
0
100
AcDbLine
 62
4
  6
CONTINUOUS
 10
11.0292784147
 20
8.2901351148
 11
11.0292784147
 21
8.3729287604
  0
LINE
  5
2F6
100
AcDbEntity
  8
0
100
AcDbLine
 62
4
  6
CONTINUOUS
 10
11.0541165043
 20
8.8630004852
 11
11.0541165043
 21
8.9292354044
  0
LINE
  5
2F7
100
AcDbEntity
  8
0
100
AcDbLine
 62
7
  6
CONTINUOUS
 10
11.0695344883
 20
7.0731162782
 11
11.0695344883
 21
6.6095054771
  0
LINE
  5
2F8
100
AcDbEntity
  8
0
100
AcDbLine
 62
7
  6
CONTINUOUS
 10
11.0778784916
 20
7.0650566038
 11
11.0778784916
 21
6.6014458026
  0
LINE
  5
2F9
100
AcDbEntity
  8
0
100
AcDbLine
 62
4
  6
CONTINUOUS
 10
11.0872339466
 20
8.94349743
 11
11.0872339466
 21
8.8689831476
  0
LINE
  5
2FA
100
AcDbEntity
  8
0
100
AcDbLine
 62
4
  6
CONTINUOUS
 10
11.0872339664
 20
8.3689095292
 11
11.0872339664
 21
8.2861158837
  0
LINE
  5
2FB
100
AcDbEntity
  8
0
100
AcDbLine
 62
4
  6
CONTINUOUS
 10
11.1203514088
 20
8.2672604514
 11
11.1203514088
 21
8.3831715549
  0
LINE
  5
2FC
100
AcDbEntity
  8
0
100
AcDbLine
 62
7
  6
CONTINUOUS
 10
11.1329629418
 20
7.2251177217
 11
11.1329629418
 21
7.1387366626
  0
LINE
  5
2FD
100
AcDbEntity
  8
0
100
AcDbLine
 62
4
  6
CONTINUOUS
 10
11.1369101654
 20
8.8572587253
 11
11.1369101654
 21
8.9400523725
  0
LINE
  5
2FE
100
AcDbEntity
  8
0
100
AcDbLine
 62
4
  6
CONTINUOUS
 10
11.1700276077
 20
8.8632413877
 11
11.1700276077
 21
8.9708731263
  0
LINE
  5
2FF
100
AcDbEntity
  8
0
100
AcDbLine
 62
4
  6
CONTINUOUS
 10
11.1783069605
 20
8.3625935956
 11
11.1783069605
 21
8.2797999501
  0
LINE
  5
300
100
AcDbEntity
  8
0
100
AcDbLine
 62
4
  6
CONTINUOUS
 10
11.2473016583
 20
8.9655141527
 11
11.2445418806
 21
8.9574261764
  0
LINE
  5
301
100
AcDbEntity
  8
0
100
AcDbLine
 62
4
  6
CONTINUOUS
 10
11.4046095923
 20
8.838693707
 11
11.4128889252
 21
8.8463988982
  0
LINE
  5
302
100
AcDbEntity
  8
0
100
AcDbLine
 62
4
  6
CONTINUOUS
 10
10.9326858654
 20
8.3796274764
 11
10.9492445865
 21
8.3950378533
  0
LINE
  5
303
100
AcDbEntity
  8
0
100
AcDbLine
 62
4
  6
CONTINUOUS
 10
11.0292784147
 20
8.3729287604
 11
11.0458371359
 21
8.3883391372
  0
LINE
  5
304
100
AcDbEntity
  8
0
100
AcDbLine
 62
4
  6
CONTINUOUS
 10
10.7588191356
 20
8.5473372273
 11
10.7836572294
 21
8.5456146996
  0
LINE
  5
305
100
AcDbEntity
  8
0
100
AcDbLine
 62
4
  6
CONTINUOUS
 10
10.8498921434
 20
8.5410212927
 11
10.874730239
 21
8.539298765
  0
LINE
  5
306
100
AcDbEntity
  8
0
100
AcDbLine
 62
4
  6
CONTINUOUS
 10
10.9409651513
 20
8.5347053582
 11
10.9658032469
 21
8.5329828304
  0
LINE
  5
307
100
AcDbEntity
  8
0
100
AcDbLine
 62
4
  6
CONTINUOUS
 10
10.874730239
 20
8.6055336842
 11
10.8388529914
 21
8.6080217797
  0
LINE
  5
308
100
AcDbEntity
  8
0
100
AcDbLine
 62
4
  6
CONTINUOUS
 10
12.0949016592
 20
7.7862588463
 11
12.0804127713
 21
7.796922913
  0
LINE
  5
309
100
AcDbEntity
  8
0
100
AcDbLine
 62
4
  6
CONTINUOUS
 10
12.1093905472
 20
7.901165142
 11
12.1238794351
 21
7.8905010779
  0
LINE
  5
30A
100
AcDbEntity
  8
0
100
AcDbLine
 62
4
  6
CONTINUOUS
 10
11.1617482393
 20
8.3803006749
 11
11.1783069605
 21
8.3625935956
  0
LINE
  5
30B
100
AcDbEntity
  8
0
100
AcDbLine
 62
4
  6
CONTINUOUS
 10
10.7339810811
 20
8.9679955995
 11
10.7422604416
 21
8.9591420564
  0
LINE
  5
30C
100
AcDbEntity
  8
0
100
AcDbLine
 62
4
  6
CONTINUOUS
 10
11.2252234016
 20
8.259987554
 11
11.2252234016
 21
8.3758986575
  0
LINE
  5
30D
100
AcDbEntity
  8
0
100
AcDbLine
 62
4
  6
CONTINUOUS
 10
11.2445418806
 20
8.8497944405
 11
11.2445418806
 21
8.9325880877
  0
LINE
  5
30E
100
AcDbEntity
  8
0
100
AcDbLine
 62
4
  6
CONTINUOUS
 10
11.2445418806
 20
8.9574261764
 11
11.2445418806
 21
8.9657055439
  0
LINE
  5
30F
100
AcDbEntity
  8
0
100
AcDbLine
 62
4
  6
CONTINUOUS
 10
11.2886984888
 20
8.8550115342
 11
11.2886984888
 21
8.9212464491
  0
LINE
  5
310
100
AcDbEntity
  8
0
100
AcDbLine
 62
7
  6
CONTINUOUS
 10
11.3577329799
 20
6.9926250241
 11
11.3577329799
 21
6.529014223
  0
LINE
  5
311
100
AcDbEntity
  8
0
100
AcDbLine
 62
4
  6
CONTINUOUS
 10
11.0872339664
 20
8.2861158837
 11
11.0706752453
 21
8.2707055051
  0
LINE
  5
312
100
AcDbEntity
  8
0
100
AcDbLine
 62
4
  6
CONTINUOUS
 10
11.1783069605
 20
8.2797999501
 11
11.1617482393
 21
8.2643895715
  0
LINE
  5
313
100
AcDbEntity
  8
0
100
AcDbLine
 62
4
  6
CONTINUOUS
 10
12.0659238834
 20
8.9087425558
 11
12.0804127713
 21
8.9173970043
  0
LINE
  5
314
100
AcDbEntity
  8
0
100
AcDbLine
 62
4
  6
CONTINUOUS
 10
12.1093905472
 20
8.8670910934
 11
12.0804127713
 21
8.8497821928
  0
LINE
  5
315
100
AcDbEntity
  8
0
100
AcDbLine
 62
4
  6
CONTINUOUS
 10
11.3521736156
 20
8.3008597145
 11
11.3080170074
 21
8.2818436798
  0
LINE
  5
316
100
AcDbEntity
  8
0
100
AcDbLine
 62
4
  6
CONTINUOUS
 10
10.7753779116
 20
8.8547331904
 11
10.7919366328
 21
8.8535848392
  0
LINE
  5
317
100
AcDbEntity
  8
0
100
AcDbLine
 62
4
  6
CONTINUOUS
 10
10.863691128
 20
8.8762065299
 11
10.8471324068
 21
8.885634246
  0
LINE
  5
318
100
AcDbEntity
  8
0
100
AcDbLine
 62
4
  6
CONTINUOUS
 10
11.020999062
 20
8.8652971876
 11
11.0044403408
 21
8.8747249037
  0
LINE
  5
319
100
AcDbEntity
  8
0
100
AcDbLine
 62
4
  6
CONTINUOUS
 10
9.6366202704
 20
9.7437041472
 11
9.6221313825
 21
9.7543682139
  0
LINE
  5
31A
100
AcDbEntity
  8
0
100
AcDbLine
 62
4
  6
CONTINUOUS
 10
9.6511091584
 20
9.8103141475
 11
9.6655980463
 21
9.7996500834
  0
LINE
  5
31B
100
AcDbEntity
  8
0
100
AcDbLine
 62
4
  6
CONTINUOUS
 10
9.6511091584
 20
9.8586104429
 11
9.6655980463
 21
9.8479463788
  0
LINE
  5
31C
100
AcDbEntity
  8
0
100
AcDbLine
 62
4
  6
CONTINUOUS
 10
11.0872339466
 20
8.8689831476
 11
11.0955133349
 21
8.8601296052
  0
LINE
  5
31D
100
AcDbEntity
  8
0
100
AcDbLine
 62
4
  6
CONTINUOUS
 10
10.9630435103
 20
8.952110066
 11
10.9685630656
 21
8.9434479161
  0
LINE
  5
31E
100
AcDbEntity
  8
0
100
AcDbLine
 62
4
  6
CONTINUOUS
 10
11.0541165043
 20
8.9292354044
 11
11.0458371714
 21
8.9463683061
  0
LINE
  5
31F
100
AcDbEntity
  8
0
100
AcDbLine
 62
4
  6
CONTINUOUS
 10
11.363212817
 20
8.8912407707
 11
11.363212817
 21
8.9160788629
  0
LINE
  5
320
100
AcDbEntity
  8
0
100
AcDbLine
 62
7
  6
CONTINUOUS
 10
11.3888732001
 20
6.9904654425
 11
11.3888732001
 21
6.5268546414
  0
LINE
  5
321
100
AcDbEntity
  8
0
100
AcDbLine
 62
4
  6
CONTINUOUS
 10
11.4128889252
 20
8.8463988982
 11
11.4128889252
 21
8.8712369929
  0
LINE
  5
322
100
AcDbEntity
  8
0
100
AcDbLine
 62
4
  6
CONTINUOUS
 10
11.3300953747
 20
8.8438612855
 11
11.2969778218
 21
8.8461579956
  0
LINE
  5
323
100
AcDbEntity
  8
0
100
AcDbLine
 62
4
  6
CONTINUOUS
 10
11.1948657171
 20
8.8532394941
 11
11.178306996
 21
8.8543878453
  0
LINE
  5
324
100
AcDbEntity
  8
0
100
AcDbLine
 62
4
  6
CONTINUOUS
 10
11.0541165043
 20
8.8630004852
 11
11.020999062
 21
8.8652971876
  0
LINE
  5
325
100
AcDbEntity
  8
0
100
AcDbLine
 62
4
  6
CONTINUOUS
 10
10.8968085703
 20
8.8739098274
 11
10.863691128
 21
8.8762065299
  0
LINE
  5
326
100
AcDbEntity
  8
0
100
AcDbLine
 62
4
  6
CONTINUOUS
 10
10.3365715839
 20
8.9127623944
 11
10.3696890427
 21
8.9104656908
  0
LINE
  5
327
100
AcDbEntity
  8
0
100
AcDbLine
 62
4
  6
CONTINUOUS
 10
10.435923955
 20
8.9058722841
 11
10.4607620575
 21
8.9041497558
  0
LINE
  5
328
100
AcDbEntity
  8
0
100
AcDbLine
 62
4
  6
CONTINUOUS
 10
11.0955133349
 20
8.8601296052
 11
11.1369101654
 21
8.8572587253
  0
LINE
  5
329
100
AcDbEntity
  8
0
100
AcDbLine
 62
4
  6
CONTINUOUS
 10
11.3714921499
 20
8.8409904094
 11
11.4046095923
 21
8.838693707
  0
LINE
  5
32A
100
AcDbEntity
  8
0
100
AcDbLine
 62
4
  6
CONTINUOUS
 10
12.0586794394
 20
8.8029931126
 11
12.1166349911
 21
8.7989738814
  0
LINE
  5
32B
100
AcDbEntity
  8
0
100
AcDbLine
 62
4
  6
CONTINUOUS
 10
11.020999062
 20
8.9066940112
 11
11.0541165043
 21
8.9043973088
  0
LINE
  5
32C
100
AcDbEntity
  8
0
100
AcDbLine
 62
4
  6
CONTINUOUS
 10
11.0458371714
 20
8.9463683061
 11
11.0044403408
 21
8.9492391861
  0
LINE
  5
32D
100
AcDbEntity
  8
0
100
AcDbLine
 62
4
  6
CONTINUOUS
 10
10.6925842505
 20
8.9708664794
 11
10.7339810811
 21
8.9679955995
  0
LINE
  5
32E
100
AcDbEntity
  8
0
100
AcDbLine
 62
4
  6
CONTINUOUS
 10
10.863691128
 20
8.9590001771
 11
10.8968085703
 21
8.9567034747
  0
LINE
  5
32F
100
AcDbEntity
  8
0
100
AcDbLine
 62
4
  6
CONTINUOUS
 10
10.9299260679
 20
8.9544067685
 11
10.9630435103
 21
8.952110066
  0
LINE
  5
330
100
AcDbEntity
  8
0
100
AcDbLine
 62
4
  6
CONTINUOUS
 10
11.2969778218
 20
8.9289516429
 11
11.3300953747
 21
8.9266549328
  0
LINE
  5
331
100
AcDbEntity
  8
0
100
AcDbLine
 62
4
  6
CONTINUOUS
 10
11.3714921499
 20
8.9237840567
 11
11.4046095923
 21
8.9214873542
  0
LINE
  5
332
100
AcDbEntity
  8
0
100
AcDbLine
 62
4
  6
CONTINUOUS
 10
10.3448509488
 20
9.0280993219
 11
10.3779684067
 21
9.0258026184
  0
LINE
  5
333
100
AcDbEntity
  8
0
100
AcDbLine
 62
4
  6
CONTINUOUS
 10
11.2445418806
 20
8.9657055439
 11
11.2473016583
 21
8.9655141527
  0
LINE
  5
334
100
AcDbEntity
  8
0
100
AcDbLine
 62
4
  6
CONTINUOUS
 10
12.0804127713
 20
8.9173970043
 11
12.0949016592
 21
8.9163921965
  0
LINE
  5
335
100
AcDbEntity
  8
0
100
AcDbLine
 62
4
  6
CONTINUOUS
 10
11.4046095923
 20
8.8773307426
 11
11.3714921499
 21
8.885147021
  0
LINE
  5
336
100
AcDbEntity
  8
0
100
AcDbLine
 62
4
  6
CONTINUOUS
 10
11.3714921499
 20
8.885147021
 11
11.363212817
 21
8.8912407707
  0
LINE
  5
337
100
AcDbEntity
  8
0
100
AcDbLine
 62
4
  6
CONTINUOUS
 10
11.178306996
 20
8.8543878453
 11
11.1700276077
 21
8.8632413877
  0
LINE
  5
338
100
AcDbEntity
  8
0
100
AcDbLine
 62
4
  6
CONTINUOUS
 10
11.2969778218
 20
8.8461579956
 11
11.2886984888
 21
8.8550115342
  0
LINE
  5
339
100
AcDbEntity
  8
0
100
AcDbLine
 62
4
  6
CONTINUOUS
 10
11.363212817
 20
8.849843948
 11
11.3714921499
 21
8.8409904094
  0
LINE
  5
33A
100
AcDbEntity
  8
0
100
AcDbLine
 62
4
  6
CONTINUOUS
 10
12.0804127713
 20
7.796922913
 11
12.0659238834
 21
7.8172462378
  0
LINE
  5
33B
100
AcDbEntity
  8
0
100
AcDbLine
 62
4
  6
CONTINUOUS
 10
12.0586794394
 20
8.8995856965
 11
12.0659238834
 21
8.9087425558
  0
LINE
  5
33C
100
AcDbEntity
  8
0
100
AcDbLine
 62
4
  6
CONTINUOUS
 10
12.0804127713
 20
8.8497821928
 11
12.0659238834
 21
8.8314684846
  0
LINE
  5
33D
100
AcDbEntity
  8
0
100
AcDbLine
 62
4
  6
CONTINUOUS
 10
12.1166349911
 20
8.8762479527
 11
12.1093905472
 21
8.8670910934
  0
LINE
  5
33E
100
AcDbEntity
  8
0
100
AcDbLine
 62
4
  6
CONTINUOUS
 10
11.4128889252
 20
8.8712369929
 11
11.4046095923
 21
8.8773307426
  0
LINE
  5
33F
100
AcDbEntity
  8
0
100
AcDbLine
 62
4
  6
CONTINUOUS
 10
11.4046095923
 20
8.9214873542
 11
11.4128889252
 21
8.9126338131
  0
LINE
  5
340
100
AcDbEntity
  8
0
100
AcDbLine
 62
4
  6
CONTINUOUS
 10
12.1238794351
 20
7.8905010779
 11
12.131123879
 21
7.8803394107
  0
LINE
  5
341
100
AcDbEntity
  8
0
100
AcDbLine
 62
7
  6
CONTINUOUS
 10
11.7711614333
 20
7.0169772684
 11
11.7711614333
 21
6.5533664673
  0
LINE
  5
342
100
AcDbEntity
  8
0
100
AcDbLine
 62
7
  6
CONTINUOUS
 10
11.7939576503
 20
7.0228773613
 11
11.7939576503
 21
6.5592665602
  0
LINE
  5
343
100
AcDbEntity
  8
0
100
AcDbLine
 62
7
  6
CONTINUOUS
 10
11.8329629418
 20
7.1765725568
 11
11.8329629418
 21
7.1387366626
  0
LINE
  5
344
100
AcDbEntity
  8
0
100
AcDbLine
 62
7
  6
CONTINUOUS
 10
11.8963913952
 20
7.1218207668
 11
11.8963913952
 21
6.6582099657
  0
LINE
  5
345
100
AcDbEntity
  8
0
100
AcDbLine
 62
4
  6
CONTINUOUS
 10
12.0659238834
 20
8.8314684846
 11
12.0586794394
 21
8.8029931126
  0
LINE
  5
346
100
AcDbEntity
  8
0
100
AcDbLine
 62
4
  6
CONTINUOUS
 10
12.0949016592
 20
8.9163921965
 11
12.1093905472
 21
8.9057281324
  0
LINE
  5
347
100
AcDbEntity
  8
0
100
AcDbLine
 62
4
  6
CONTINUOUS
 10
12.0659238834
 20
7.8172462378
 11
12.0586794394
 21
7.8467264175
  0
LINE
  5
348
100
AcDbEntity
  8
0
100
AcDbLine
 62
4
  6
CONTINUOUS
 10
12.1166349911
 20
8.8955664653
 11
12.1166349911
 21
8.8762479527
  0
LINE
  5
349
100
AcDbEntity
  8
0
100
AcDbLine
 62
4
  6
CONTINUOUS
 10
12.131123879
 20
7.8417023786
 11
12.131123879
 21
7.8030653447
  0
LINE
  5
34A
100
AcDbEntity
  8
0
100
AcDbLine
 62
4
  6
CONTINUOUS
 10
12.0586794394
 20
7.8467264175
 11
12.0659238834
 21
7.8752017895
  0
LINE
  5
34B
100
AcDbEntity
  8
0
100
AcDbLine
 62
4
  6
CONTINUOUS
 10
12.0804127713
 20
7.8935155012
 11
12.0949016592
 21
7.9021699498
  0
LINE
  5
34C
100
AcDbEntity
  8
0
100
AcDbLine
 62
4
  6
CONTINUOUS
 10
12.1238794351
 20
7.7939084897
 11
12.1093905472
 21
7.7852540385
  0
LINE
  5
34D
100
AcDbEntity
  8
0
100
AcDbLine
 62
4
  6
CONTINUOUS
 10
9.6511091584
 20
9.7426993394
 11
9.6366202704
 21
9.7437041472
  0
LINE
  5
34E
100
AcDbEntity
  8
0
100
AcDbLine
 62
4
  6
CONTINUOUS
 10
12.1093905472
 20
8.9057281324
 11
12.1166349911
 21
8.8955664653
  0
LINE
  5
34F
100
AcDbEntity
  8
0
100
AcDbLine
 62
4
  6
CONTINUOUS
 10
11.2865889931
 20
10.2529145625
 11
11.2827531604
 21
10.2592094298
  0
LINE
  5
350
100
AcDbEntity
  8
0
100
AcDbLine
 62
7
  6
CONTINUOUS
 10
12.3194794095
 20
7.1428325252
 11
12.3194794095
 21
10.0406101758
  0
LINE
  5
351
100
AcDbEntity
  8
0
100
AcDbLine
 62
4
  6
CONTINUOUS
 10
12.0659238834
 20
7.8752017895
 11
12.0804127713
 21
7.8935155012
  0
LINE
  5
352
100
AcDbEntity
  8
0
100
AcDbLine
 62
4
  6
CONTINUOUS
 10
12.131123879
 20
7.8030653447
 11
12.1238794351
 21
7.7939084897
  0
LINE
  5
353
100
AcDbEntity
  8
0
100
AcDbLine
 62
4
  6
CONTINUOUS
 10
9.6366202704
 20
9.8113189553
 11
9.6511091584
 21
9.8103141475
  0
LINE
  5
354
100
AcDbEntity
  8
0
100
AcDbLine
 62
4
  6
CONTINUOUS
 10
9.6366202704
 20
9.8596152507
 11
9.6511091584
 21
9.8586104429
  0
LINE
  5
355
100
AcDbEntity
  8
0
100
AcDbLine
 62
4
  6
CONTINUOUS
 10
11.2402338389
 20
10.2581389205
 11
11.234456865
 21
10.2625587892
  0
LINE
  5
356
100
AcDbEntity
  8
0
100
AcDbLine
 62
7
  6
CONTINUOUS
 10
12.578298241
 20
7.3928323337
 11
12.578298241
 21
10.2906099842
  0
LINE
  5
357
100
AcDbEntity
  8
0
100
AcDbLine
 62
4
  6
CONTINUOUS
 10
11.3503679684
 20
10.2545203269
 11
11.3368264271
 21
10.2514402017
  0
LINE
  5
358
100
AcDbEntity
  8
0
100
AcDbLine
 62
4
  6
CONTINUOUS
 10
11.3794850863
 20
10.2826453047
 11
11.365943545
 21
10.2795651796
  0
LINE
  5
359
100
AcDbEntity
  8
0
100
AcDbLine
 62
4
  6
CONTINUOUS
 10
11.234456865
 20
10.2625587892
 11
11.2479984037
 21
10.2656389146
  0
LINE
  5
35A
100
AcDbEntity
  8
0
100
AcDbLine
 62
4
  6
CONTINUOUS
 10
11.3157525607
 20
10.2910844046
 11
11.3292940994
 21
10.29416453
  0
LINE
  5
35B
100
AcDbEntity
  8
0
100
AcDbLine
 62
4
  6
CONTINUOUS
 10
11.2674562653
 20
10.2944337641
 11
11.280997804
 21
10.2975138894
  0
LINE
  5
35C
100
AcDbEntity
  8
0
100
AcDbLine
 62
4
  6
CONTINUOUS
 10
11.3368264271
 20
10.2514402017
 11
11.325226027
 21
10.2502350751
  0
LINE
  5
35D
100
AcDbEntity
  8
0
100
AcDbLine
 62
7
  6
CONTINUOUS
 10
9.421701759
 20
10.2415717384
 11
12.3194794095
 21
10.0406101758
  0
LINE
  5
35E
100
AcDbEntity
  8
0
100
AcDbLine
 62
4
  6
CONTINUOUS
 10
11.1412820877
 20
10.1725588602
 11
11.2571931911
 21
10.1645203979
  0
LINE
  5
35F
100
AcDbEntity
  8
0
100
AcDbLine
 62
4
  6
CONTINUOUS
 10
11.2693509568
 20
10.2862638983
 11
11.2635739829
 21
10.2906837671
  0
LINE
  5
360
100
AcDbEntity
  8
0
100
AcDbLine
 62
4
  6
CONTINUOUS
 10
11.3445909919
 20
10.2589401958
 11
11.3503679684
 21
10.2545203269
  0
LINE
  5
361
100
AcDbEntity
  8
0
100
AcDbLine
 62
4
  6
CONTINUOUS
 10
11.3099755798
 20
10.2955042739
 11
11.3157525607
 21
10.2910844046
  0
LINE
  5
362
100
AcDbEntity
  8
0
100
AcDbLine
 62
4
  6
CONTINUOUS
 10
11.3775903922
 20
10.2908151707
 11
11.3833673687
 21
10.2863953018
  0
LINE
  5
363
100
AcDbEntity
  8
0
100
AcDbLine
 62
4
  6
CONTINUOUS
 10
11.2479984037
 20
10.2656389146
 11
11.2595988081
 21
10.2668440409
  0
LINE
  5
364
100
AcDbEntity
  8
0
100
AcDbLine
 62
4
  6
CONTINUOUS
 10
11.365943545
 20
10.2795651796
 11
11.3543431449
 21
10.2783600529
  0
LINE
  5
365
100
AcDbEntity
  8
0
100
AcDbLine
 62
4
  6
CONTINUOUS
 10
11.3292940994
 20
10.29416453
 11
11.3524948978
 21
10.2965747834
  0
LINE
  5
366
100
AcDbEntity
  8
0
100
AcDbLine
 62
4
  6
CONTINUOUS
 10
11.280997804
 20
10.2975138894
 11
11.2925982084
 21
10.2987190158
  0
LINE
  5
367
100
AcDbEntity
  8
0
100
AcDbLine
 62
4
  6
CONTINUOUS
 10
11.325226027
 20
10.2502350751
 11
11.303966368
 21
10.2496998203
  0
LINE
  5
368
100
AcDbEntity
  8
0
100
AcDbLine
 62
4
  6
CONTINUOUS
 10
11.2982358403
 20
10.2641645536
 11
11.3194954976
 21
10.2646998085
  0
LINE
  5
369
100
AcDbEntity
  8
0
100
AcDbLine
 62
4
  6
CONTINUOUS
 10
11.2965733831
 20
10.3225587419
 11
11.4221901925
 21
10.3238952722
  0
LINE
  5
36A
100
AcDbEntity
  8
0
100
AcDbLine
 62
4
  6
CONTINUOUS
 10
11.2033986059
 20
10.2325588129
 11
11.3193097093
 21
10.2245203506
  0
LINE
  5
36B
100
AcDbEntity
  8
0
100
AcDbLine
 62
7
  6
CONTINUOUS
 10
9.5434373144
 20
10.3591592623
 11
9.5588921293
 21
10.3580874673
  0
LINE
  5
36C
100
AcDbEntity
  8
0
100
AcDbLine
 62
4
  6
CONTINUOUS
 10
11.303966368
 20
10.2496998203
 11
11.2653293324
 21
10.2523793079
  0
LINE
  5
36D
100
AcDbEntity
  8
0
100
AcDbLine
 62
7
  6
CONTINUOUS
 10
9.558785035
 20
10.3739840229
 11
9.5742398499
 21
10.3729122279
  0
LINE
  5
36E
100
AcDbEntity
  8
0
100
AcDbLine
 62
4
  6
CONTINUOUS
 10
11.2925982084
 20
10.2987190158
 11
11.3022574647
 21
10.2980491441
  0
LINE
  5
36F
100
AcDbEntity
  8
0
100
AcDbLine
 62
4
  6
CONTINUOUS
 10
11.3524948978
 20
10.2965747834
 11
11.3621541576
 21
10.2959049114
  0
LINE
  5
370
100
AcDbEntity
  8
0
100
AcDbLine
 62
4
  6
CONTINUOUS
 10
11.4027787806
 20
10.305145287
 11
11.2965733831
 21
10.3225587419
  0
LINE
  5
371
100
AcDbEntity
  8
0
100
AcDbLine
 62
4
  6
CONTINUOUS
 10
11.2653293324
 20
10.2523793079
 11
11.2479519609
 21
10.2555940498
  0
LINE
  5
372
100
AcDbEntity
  8
0
100
AcDbLine
 62
4
  6
CONTINUOUS
 10
11.303966368
 20
10.2496998203
 11
11.2865889931
 21
10.2529145625
  0
LINE
  5
373
100
AcDbEntity
  8
0
100
AcDbLine
 62
4
  6
CONTINUOUS
 10
11.3194954976
 20
10.2646998085
 11
11.3368728742
 21
10.2614850662
  0
LINE
  5
374
100
AcDbEntity
  8
0
100
AcDbLine
 62
4
  6
CONTINUOUS
 10
11.2479519609
 20
10.2555940498
 11
11.2402338389
 21
10.2581389205
  0
LINE
  5
375
100
AcDbEntity
  8
0
100
AcDbLine
 62
4
  6
CONTINUOUS
 10
11.3368728742
 20
10.2614850662
 11
11.3445909919
 21
10.2589401958
  0
LINE
  5
376
100
AcDbEntity
  8
0
100
AcDbLine
 62
4
  6
CONTINUOUS
 10
11.3022574647
 20
10.2980491441
 11
11.3099755798
 21
10.2955042739
  0
LINE
  5
377
100
AcDbEntity
  8
0
100
AcDbLine
 62
4
  6
CONTINUOUS
 10
11.3621541576
 20
10.2959049114
 11
11.3775903922
 21
10.2908151707
  0
LINE
  5
378
100
AcDbEntity
  8
0
100
AcDbLine
 62
7
  6
CONTINUOUS
 10
12.3194794095
 20
7.1428325252
 11
12.578298241
 21
7.3928323337
  0
LINE
  5
379
100
AcDbEntity
  8
0
100
AcDbLine
 62
7
  6
CONTINUOUS
 10
12.578298241
 20
10.2906099842
 11
9.6805205905
 21
10.4915715469
  0
LINE
  5
37A
100
AcDbEntity
  8
0
100
AcDbLine
 62
7
  6
CONTINUOUS
 10
11.8234049214
 20
6.5655742518
 11
11.8120310219
 21
6.5599557632
  0
ARC
  5
37B
100
AcDbEntity
  8
0
100
AcDbCircle
 62
7
  6
CONTINUOUS
 10
11.4776840488
 20
8.0348834684
 40
1.5106416881
100
AcDbArc
 50
266.0348545945
 51
266.6296292363
  0
ARC
  5
37C
100
AcDbEntity
  8
0
100
AcDbCircle
 62
7
  6
CONTINUOUS
 10
11.4772620868
 20
8.4919116084
 40
1.5040456058
100
AcDbArc
 50
266.0335503727
 51
266.630933458
  0
ARC
  5
37D
100
AcDbEntity
  8
0
100
AcDbCircle
 62
7
  6
CONTINUOUS
 10
11.4748279617
 20
7.9932235436
 40
1.4688839877
100
AcDbArc
 50
265.4277026068
 51
266.0336252202
  0
ARC
  5
37E
100
AcDbEntity
  8
0
100
AcDbCircle
 62
7
  6
CONTINUOUS
 10
11.4748279617
 20
8.4568343446
 40
1.4688839875
100
AcDbArc
 50
265.4277026067
 51
266.0336252202
  0
ARC
  5
37F
100
AcDbEntity
  8
0
100
AcDbCircle
 62
7
  6
CONTINUOUS
 10
11.6227269747
 20
7.1738623683
 40
0.6380030969
100
AcDbArc
 50
283.4534192375
 51
285.5682075142
  0
ARC
  5
380
100
AcDbEntity
  8
0
100
AcDbCircle
 62
7
  6
CONTINUOUS
 10
11.6227269747
 20
7.6374731694
 40
0.6380030969
100
AcDbArc
 50
283.4534192375
 51
285.5682075142
  0
ARC
  5
381
100
AcDbEntity
  8
0
100
AcDbCircle
 62
7
  6
CONTINUOUS
 10
11.3572714022
 20
7.0186485275
 40
0.5013264328
100
AcDbArc
 50
243.6710035101
 51
246.0922753355
  0
ARC
  5
382
100
AcDbEntity
  8
0
100
AcDbCircle
 62
7
  6
CONTINUOUS
 10
12.3801990949
 20
8.6648991526
 40
0.0190283222
100
AcDbArc
 50
255.1678983019
 51
265.9989104819
  0
ARC
  5
383
100
AcDbEntity
  8
0
100
AcDbCircle
 62
7
  6
CONTINUOUS
 10
12.4190766523
 20
9.225500594
 40
0.0190237651
100
AcDbArc
 50
86.0659941814
 51
96.8170645915
  0
ARC
  5
384
100
AcDbEntity
  8
0
100
AcDbCircle
 62
7
  6
CONTINUOUS
 10
12.4196953791
 20
8.107870824
 40
0.0147418348
100
AcDbArc
 50
86.0359543455
 51
92.1792431364
  0
ARC
  5
385
100
AcDbEntity
  8
0
100
AcDbCircle
 62
7
  6
CONTINUOUS
 10
12.3892184549
 20
7.6684097862
 40
0.0147415838
100
AcDbArc
 50
259.6511165695
 51
266.0305639099
  0
SPLINE
  5
386
100
AcDbEntity
  8
0
100
AcDbSpline
 62
7
  6
CONTINUOUS
 70
0
 71
3
 72
23
 73
19
 74
0
 42
0.0000001
 43
0.0000001
 44
0.0000000001
 40
0.0
 40
0.0
 40
0.0
 40
0.0
 40
0.0771641805
 40
0.1531533535
 40
0.2277610683
 40
0.3008132187
 40
0.3721367195
 40
0.4415592829
 40
0.5089183753
 40
0.5740587726
 40
0.6368335493
 40
0.6971053623
 40
0.7547470648
 40
0.809644211
 40
0.861694765
 40
0.9108129453
 40
0.9569305143
 40
1.0
 40
1.0
 40
1.0
 40
1.0
 10
11.3868117459
 20
6.5117047202
 30
0.0
 10
11.3806765942
 20
6.5121301944
 30
0.0
 10
11.3685054982
 20
6.513060885
 30
0.0
 10
11.3504276317
 20
6.5147097703
 30
0.0
 10
11.3327026363
 20
6.5165977511
 30
0.0
 10
11.3153786443
 20
6.5187195765
 30
0.0
 10
11.2985011962
 20
6.5210694905
 30
0.0
 10
11.2821152108
 20
6.523641377
 30
0.0
 10
11.2662644305
 20
6.5264281497
 30
0.0
 10
11.2509909973
 20
6.5294224283
 30
0.0
 10
11.2363354945
 20
6.5326161209
 30
0.0
 10
11.2223368547
 20
6.5360005984
 30
0.0
 10
11.2090322187
 20
6.539566887
 30
0.0
 10
11.1964567729
 20
6.5433052249
 30
0.0
 10
11.1846437696
 20
6.54720574
 30
0.0
 10
11.1736241422
 20
6.5512579285
 30
0.0
 10
11.1634270572
 20
6.5554508451
 30
0.0
 10
11.1569725573
 20
6.5584354701
 30
0.0
 10
11.1538949881
 20
6.5599557319
 30
0.0
  0
SPLINE
  5
387
100
AcDbEntity
  8
0
100
AcDbSpline
 62
7
  6
CONTINUOUS
 70
0
 71
3
 72
9
 73
5
 74
0
 42
0.0000001
 43
0.0000001
 44
0.0000000001
 40
0.0
 40
0.0
 40
0.0
 40
0.0
 40
0.4828977682
 40
1.0
 40
1.0
 40
1.0
 40
1.0
 10
11.8963913952
 20
7.1218207668
 30
0.0
 10
11.8951574188
 20
7.1232240973
 30
0.0
 10
11.8924707702
 20
7.1260161442
 30
0.0
 10
11.8895817234
 20
7.1285958891
 30
0.0
 10
11.8880473919
 20
7.1298804413
 30
0.0
  0
SPLINE
  5
388
100
AcDbEntity
  8
0
100
AcDbSpline
 62
7
  6
CONTINUOUS
 70
0
 71
3
 72
9
 73
5
 74
0
 42
0.0000001
 43
0.0000001
 44
0.0000000001
 40
0.0
 40
0.0
 40
0.0
 40
0.0
 40
0.5171022318
 40
1.0
 40
1.0
 40
1.0
 40
1.0
 10
11.0778784916
 20
6.6014458026
 30
0.0
 10
11.0763441601
 20
6.6027303549
 30
0.0
 10
11.0734551133
 20
6.6053100998
 30
0.0
 10
11.0707684647
 20
6.6081021466
 30
0.0
 10
11.0695344883
 20
6.6095054771
 30
0.0
  0
SPLINE
  5
389
100
AcDbEntity
  8
0
100
AcDbSpline
 62
7
  6
CONTINUOUS
 70
0
 71
3
 72
23
 73
19
 74
0
 42
0.0000001
 43
0.0000001
 44
0.0000000001
 40
0.0
 40
0.0
 40
0.0
 40
0.0
 40
0.0811809151
 40
0.1603329432
 40
0.2373091998
 40
0.3119664373
 40
0.3841669194
 40
0.4537827545
 40
0.5207035621
 40
0.584842903
 40
0.6461438893
 40
0.7045889888
 40
0.7602023505
 40
0.8130558481
 40
0.8632719642
 40
0.9110191608
 40
0.9565116907
 40
1.0
 40
1.0
 40
1.0
 40
1.0
 10
11.8963913952
 20
6.6582099657
 30
0.0
 10
11.8949255956
 20
6.6553200585
 30
0.0
 10
11.8919912395
 20
6.6496323142
 30
0.0
 10
11.8875165419
 20
6.6412830279
 30
0.0
 10
11.8830220342
 20
6.633241287
 30
0.0
 10
11.8785081953
 20
6.6255301173
 30
0.0
 10
11.8739759499
 20
6.6181725059
 30
0.0
 10
11.8694264177
 20
6.6111911793
 30
0.0
 10
11.8648612274
 20
6.6046077971
 30
0.0
 10
11.8602823953
 20
6.5984423472
 30
0.0
 10
11.8556920197
 20
6.5927126175
 30
0.0
 10
11.8510928937
 20
6.5874330985
 30
0.0
 10
11.8464876929
 20
6.5826149164
 30
0.0
 10
11.8418793009
 20
6.5782651233
 30
0.0
 10
11.8372710117
 20
6.5743861809
 30
0.0
 10
11.832665538
 20
6.5709765944
 30
0.0
 10
11.8280664959
 20
6.5680304283
 30
0.0
 10
11.8249419769
 20
6.5663334637
 30
0.0
 10
11.8233856177
 20
6.5655647156
 30
0.0
  0
SPLINE
  5
38A
100
AcDbEntity
  8
0
100
AcDbSpline
 62
7
  6
CONTINUOUS
 70
0
 71
3
 72
21
 73
17
 74
0
 42
0.0000001
 43
0.0000001
 44
0.0000000001
 40
0.0
 40
0.0
 40
0.0
 40
0.0
 40
0.1542362095
 40
0.2287364247
 40
0.301349518
 40
0.3719738946
 40
0.4405116309
 40
0.5068732164
 40
0.5709805885
 40
0.632771482
 40
0.692201821
 40
0.7492521017
 40
0.8039267218
 40
0.8562621191
 40
0.9063219163
 40
1.0
 40
1.0
 40
1.0
 40
1.0
 10
11.0695344883
 20
7.0731162782
 30
0.0
 10
11.0720600544
 20
7.0780955752
 30
0.0
 10
11.0758930429
 20
7.0854364911
 30
0.0
 10
11.0811587957
 20
7.0949903113
 30
0.0
 10
11.0850773446
 20
7.1018295545
 30
0.0
 10
11.0890102474
 20
7.1084103984
 30
0.0
 10
11.0929568522
 20
7.1147177304
 30
0.0
 10
11.0969162661
 20
7.1207367001
 30
0.0
 10
11.1008873873
 20
7.1264531289
 30
0.0
 10
11.1048688132
 20
7.1318538639
 30
0.0
 10
11.10885915
 20
7.1369269546
 30
0.0
 10
11.1128564666
 20
7.1416624094
 30
0.0
 10
11.1168591202
 20
7.1460517062
 30
0.0
 10
11.1208651516
 20
7.1500895448
 30
0.0
 10
11.12609236
 20
7.1548927392
 30
0.0
 10
11.1301831749
 20
7.1581296646
 30
0.0
 10
11.1329652578
 20
7.1600685252
 30
0.0
  0
SPLINE
  5
38B
100
AcDbEntity
  8
0
100
AcDbSpline
 62
7
  6
CONTINUOUS
 70
0
 71
3
 72
29
 73
25
 74
0
 42
0.0000001
 43
0.0000001
 44
0.0000000001
 40
0.0
 40
0.0
 40
0.0
 40
0.0
 40
0.0193647403
 40
0.0398586827
 40
0.0614691481
 40
0.084178659
 40
0.1079641822
 40
0.1327991616
 40
0.1586526589
 40
0.1854909836
 40
0.213276858
 40
0.2419707281
 40
0.2715301348
 40
0.3019106752
 40
0.3649446731
 40
0.4306792605
 40
0.4986935568
 40
0.5685458891
 40
0.6397782262
 40
0.7119205034
 40
0.7844948754
 40
0.8570194438
 40
0.9290137082
 40
1.0
 40
1.0
 40
1.0
 40
1.0
 10
11.8120305082
 20
6.5599555408
 30
0.0
 10
11.8095330266
 20
6.5587218382
 30
0.0
 10
11.8043389793
 20
6.5562897096
 30
0.0
 10
11.7961995753
 20
6.5528309846
 30
0.0
 10
11.7875039971
 20
6.5494635512
 30
0.0
 10
11.7782676107
 20
6.546193753
 30
0.0
 10
11.7685066506
 20
6.543027112
 30
0.0
 10
11.758238313
 20
6.5399695455
 30
0.0
 10
11.7474807651
 20
6.5370262769
 30
0.0
 10
11.7362530295
 20
6.5342027887
 30
0.0
 10
11.724575015
 20
6.5315039328
 30
0.0
 10
11.7124674329
 20
6.5289347239
 30
0.0
 10
11.6999517575
 20
6.5264995692
 30
0.0
 10
11.6825353524
 20
6.5233994371
 30
0.0
 10
11.6599065652
 20
6.5199062736
 30
0.0
 10
11.6318194883
 20
6.5163606972
 30
0.0
 10
11.6026750956
 20
6.5134373751
 30
0.0
 10
11.5726804237
 20
6.5111573912
 30
0.0
 10
11.5420483792
 20
6.5095372485
 30
0.0
 10
11.510996543
 20
6.5085886344
 30
0.0
 10
11.47974556
 20
6.5083184161
 30
0.0
 10
11.4485173398
 20
6.5087285171
 30
0.0
 10
11.4175340716
 20
6.5098160081
 30
0.0
 10
11.3969985052
 20
6.510998266
 30
0.0
 10
11.3868117459
 20
6.5117047202
 30
0.0
  0
SPLINE
  5
38C
100
AcDbEntity
  8
0
100
AcDbSpline
 62
7
  6
CONTINUOUS
 70
0
 71
3
 72
10
 73
6
 74
0
 42
0.0000001
 43
0.0000001
 44
0.0000000001
 40
0.0
 40
0.0
 40
0.0
 40
0.0
 40
0.4954619866
 40
0.7466751917
 40
1.0
 40
1.0
 40
1.0
 40
1.0
 10
11.1349206805
 20
6.569328654
 30
0.0
 10
11.125224618
 20
6.574119714
 30
0.0
 10
11.1108273057
 20
6.5817827151
 30
0.0
 10
11.0919560852
 20
6.5927552949
 30
0.0
 10
11.0825636431
 20
6.5985086586
 30
0.0
 10
11.0778784916
 20
6.6014458026
 30
0.0
  0
SPLINE
  5
38D
100
AcDbEntity
  8
0
100
AcDbSpline
 62
7
  6
CONTINUOUS
 70
0
 71
3
 72
9
 73
5
 74
0
 42
0.0000001
 43
0.0000001
 44
0.0000000001
 40
0.0
 40
0.0
 40
0.0
 40
0.0
 40
0.4956537702
 40
1.0
 40
1.0
 40
1.0
 40
1.0
 10
11.8329672256
 20
7.1610231393
 30
0.0
 10
11.8423234717
 20
7.1563526648
 30
0.0
 10
11.8609307592
 20
7.1463842252
 30
0.0
 10
11.8790319296
 20
7.135532278
 30
0.0
 10
11.8880473919
 20
7.1298804413
 30
0.0
  0
SPLINE
  5
38E
100
AcDbEntity
  8
0
100
AcDbSpline
 62
7
  6
CONTINUOUS
 70
0
 71
3
 72
23
 73
19
 74
0
 42
0.0000001
 43
0.0000001
 44
0.0000000001
 40
0.0
 40
0.0
 40
0.0
 40
0.0
 40
0.041849833
 40
0.0842417778
 40
0.1277008324
 40
0.1728332119
 40
0.2202864273
 40
0.2706980735
 40
0.3246409433
 40
0.3825765426
 40
0.444824595
 40
0.5115518581
 40
0.5827792232
 40
0.6584023685
 40
0.738220306
 40
0.8219653573
 40
0.9093325328
 40
1.0
 40
1.0
 40
1.0
 40
1.0
 10
11.8963913952
 20
7.1218207668
 30
0.0
 10
11.8942985591
 20
7.121903863
 30
0.0
 10
11.8900743107
 20
7.1218676842
 30
0.0
 10
11.8837122922
 20
7.1211437379
 30
0.0
 10
11.8773068548
 20
7.1196857862
 30
0.0
 10
11.8708663725
 20
7.117433512
 30
0.0
 10
11.8644000781
 20
7.1143344198
 30
0.0
 10
11.8579178546
 20
7.1103471378
 30
0.0
 10
11.8514288475
 20
7.1054437164
 30
0.0
 10
11.8449413298
 20
7.0996112962
 30
0.0
 10
11.8384628501
 20
7.0928531136
 30
0.0
 10
11.8320003748
 20
7.0851885495
 30
0.0
 10
11.8255602556
 20
7.0766518626
 30
0.0
 10
11.8191480181
 20
7.0672897109
 30
0.0
 10
11.8127681584
 20
7.0571578591
 30
0.0
 10
11.8064239522
 20
7.0463175348
 30
0.0
 10
11.8001175404
 20
7.0348322362
 30
0.0
 10
11.7960102877
 20
7.0269242526
 30
0.0
 10
11.7939576503
 20
7.0228773613
 30
0.0
  0
SPLINE
  5
38F
100
AcDbEntity
  8
0
100
AcDbSpline
 62
7
  6
CONTINUOUS
 70
0
 71
3
 72
22
 73
18
 74
0
 42
0.0000001
 43
0.0000001
 44
0.0000000001
 40
0.0
 40
0.0
 40
0.0
 40
0.0
 40
0.0635276349
 40
0.1269574788
 40
0.190276228
 40
0.2534714934
 40
0.3165305489
 40
0.3794420572
 40
0.4421966558
 40
0.5047879221
 40
0.5672130021
 40
0.6294729348
 40
0.6915725324
 40
0.7535198026
 40
0.8153252236
 40
0.8770005154
 40
1.0
 40
1.0
 40
1.0
 40
1.0
 10
11.7711614333
 20
6.5533664673
 30
0.0
 10
11.7633760565
 20
6.5507287182
 30
0.0
 10
11.7477556785
 20
6.5456366616
 30
0.0
 10
11.7241576104
 20
6.5386050722
 30
0.0
 10
11.7004126056
 20
6.5322485334
 30
0.0
 10
11.6765308257
 20
6.5266304405
 30
0.0
 10
11.6525282569
 20
6.5218110883
 30
0.0
 10
11.6284274258
 20
6.5178440766
 30
0.0
 10
11.6042567968
 20
6.5147723434
 30
0.0
 10
11.5800495474
 20
6.5126245174
 30
0.0
 10
11.555841491
 20
6.5114122545
 30
0.0
 10
11.5316685474
 20
6.5111290886
 30
0.0
 10
11.5075641298
 20
6.5117511861
 30
0.0
 10
11.4835571636
 20
6.5132396602
 30
0.0
 10
11.4596702037
 20
6.5155441514
 30
0.0
 10
11.4280350783
 20
6.5196230738
 30
0.0
 10
11.4044791899
 20
6.5237317668
 30
0.0
 10
11.3888732001
 20
6.5268546414
 30
0.0
  0
SPLINE
  5
390
100
AcDbEntity
  8
0
100
AcDbSpline
 62
7
  6
CONTINUOUS
 70
0
 71
3
 72
22
 73
18
 74
0
 42
0.0000001
 43
0.0000001
 44
0.0000000001
 40
0.0
 40
0.0
 40
0.0
 40
0.0
 40
0.1229994846
 40
0.1846747764
 40
0.2464801975
 40
0.3084274676
 40
0.3705270652
 40
0.4327869979
 40
0.4952120779
 40
0.5578033443
 40
0.6205579428
 40
0.6834694511
 40
0.7465285066
 40
0.809723772
 40
0.8730425212
 40
0.9364723651
 40
1.0
 40
1.0
 40
1.0
 40
1.0
 10
11.7711614333
 20
7.0169772684
 30
0.0
 10
11.7555554436
 20
7.020100143
 30
0.0
 10
11.7319995552
 20
7.0242088361
 30
0.0
 10
11.7003644298
 20
7.0282877584
 30
0.0
 10
11.6764774698
 20
7.0305922497
 30
0.0
 10
11.6524705036
 20
7.0320807237
 30
0.0
 10
11.6283660861
 20
7.0327028212
 30
0.0
 10
11.6041931425
 20
7.0324196553
 30
0.0
 10
11.579985086
 20
7.0312073924
 30
0.0
 10
11.5557778367
 20
7.0290595665
 30
0.0
 10
11.5316072077
 20
7.0259878332
 30
0.0
 10
11.5075063765
 20
7.0220208215
 30
0.0
 10
11.4835038077
 20
7.0172014694
 30
0.0
 10
11.4596220278
 20
7.0115833764
 30
0.0
 10
11.4358770231
 20
7.0052268376
 30
0.0
 10
11.412278955
 20
6.9981952482
 30
0.0
 10
11.3966585769
 20
6.9931031917
 30
0.0
 10
11.3888732001
 20
6.9904654425
 30
0.0
  0
SPLINE
  5
391
100
AcDbEntity
  8
0
100
AcDbSpline
 62
7
  6
CONTINUOUS
 70
0
 71
3
 72
21
 73
17
 74
0
 42
0.0000001
 43
0.0000001
 44
0.0000000001
 40
0.0
 40
0.0
 40
0.0
 40
0.0
 40
0.1199600383
 40
0.1802007836
 40
0.2406631193
 40
0.3013906862
 40
0.3624308694
 40
0.4238332883
 40
0.4856486582
 40
0.5479273438
 40
0.6107163491
 40
0.6740582744
 40
0.7379891567
 40
0.8025364138
 40
0.8677187842
 40
1.0
 40
1.0
 40
1.0
 40
1.0
 10
11.3577329799
 20
6.529014223
 30
0.0
 10
11.349440844
 20
6.5281081631
 30
0.0
 10
11.3369461146
 20
6.5270620447
 30
0.0
 10
11.3202233738
 20
6.5263838264
 30
0.0
 10
11.3076059754
 20
6.5262556826
 30
0.0
 10
11.2949352874
 20
6.526531944
 30
0.0
 10
11.2822153738
 20
6.5272347056
 30
0.0
 10
11.2694519001
 20
6.528384021
 30
0.0
 10
11.2566517414
 20
6.5299969469
 30
0.0
 10
11.2438230946
 20
6.5320876389
 30
0.0
 10
11.2309750695
 20
6.5346654122
 30
0.0
 10
11.2181174714
 20
6.5377350908
 30
0.0
 10
11.2052606535
 20
6.5412969306
 30
0.0
 10
11.1924143845
 20
6.5453454973
 30
0.0
 10
11.1752310335
 20
6.5514084182
 30
0.0
 10
11.1625112013
 20
6.5566101897
 30
0.0
 10
11.1541014238
 20
6.5603362408
 30
0.0
  0
SPLINE
  5
392
100
AcDbEntity
  8
0
100
AcDbSpline
 62
7
  6
CONTINUOUS
 70
0
 71
3
 72
23
 73
19
 74
0
 42
0.0000001
 43
0.0000001
 44
0.0000000001
 40
0.0
 40
0.0
 40
0.0
 40
0.0
 40
0.0680604958
 40
0.1354215705
 40
0.2020263854
 40
0.2678263745
 40
0.332783987
 40
0.3968786253
 40
0.4601106017
 40
0.5225038541
 40
0.5841059549
 40
0.6449852447
 40
0.7052253922
 40
0.7649184558
 40
0.8241579875
 40
0.8830328422
 40
0.9416238846
 40
1.0
 40
1.0
 40
1.0
 40
1.0
 10
11.3577329799
 20
6.9926250241
 30
0.0
 10
11.3520572143
 20
6.9961831889
 30
0.0
 10
11.3406744119
 20
7.0031215361
 30
0.0
 10
11.3234064281
 20
7.0129868288
 30
0.0
 10
11.3060302241
 20
7.022195893
 30
0.0
 10
11.2885526484
 20
7.0306843434
 30
0.0
 10
11.2709847071
 20
7.0383900987
 30
0.0
 10
11.2533422444
 20
7.0452567847
 30
0.0
 10
11.2356456372
 20
7.0512377389
 30
0.0
 10
11.2179190549
 20
7.0562998208
 30
0.0
 10
11.2001890251
 20
7.0604264249
 30
0.0
 10
11.1824825508
 20
7.0636190798
 30
0.0
 10
11.1648250733
 20
7.0658971547
 30
0.0
 10
11.1472386953
 20
7.0672958471
 30
0.0
 10
11.1297410519
 20
7.0678628645
 30
0.0
 10
11.1123446501
 20
7.0676545333
 30
0.0
 10
11.095057584
 20
7.0667319348
 30
0.0
 10
11.083590178
 20
7.0656807047
 30
0.0
 10
11.0778784916
 20
7.0650566038
 30
0.0
  0
SPLINE
  5
393
100
AcDbEntity
  8
0
100
AcDbSpline
 62
7
  6
CONTINUOUS
 70
0
 71
3
 72
9
 73
5
 74
0
 42
0.0000001
 43
0.0000001
 44
0.0000000001
 40
0.0
 40
0.0
 40
0.0
 40
0.0
 40
0.5107087613
 40
1.0
 40
1.0
 40
1.0
 40
1.0
 10
11.8233856177
 20
6.5655647156
 30
0.0
 10
11.8214700908
 20
6.5646185603
 30
0.0
 10
11.8176280851
 20
6.5629438493
 30
0.0
 10
11.8136349668
 20
6.5616691907
 30
0.0
 10
11.8116551957
 20
6.5611494321
 30
0.0
  0
SPLINE
  5
394
100
AcDbEntity
  8
0
100
AcDbSpline
 62
7
  6
CONTINUOUS
 70
0
 71
3
 72
11
 73
7
 74
0
 42
0.0000001
 43
0.0000001
 44
0.0000000001
 40
0.0
 40
0.0
 40
0.0
 40
0.0
 40
0.2554031413
 40
0.5061795364
 40
0.7539172017
 40
1.0
 40
1.0
 40
1.0
 40
1.0
 10
11.8116551957
 20
6.5611494321
 30
0.0
 10
11.810184584
 20
6.5607633456
 30
0.0
 10
11.8072390077
 20
6.5601109144
 30
0.0
 10
11.8027909559
 20
6.5594815873
 30
0.0
 10
11.7983639411
 20
6.5591908217
 30
0.0
 10
11.7954214595
 20
6.5592084395
 30
0.0
 10
11.7939576503
 20
6.5592665602
 30
0.0
  0
SPLINE
  5
395
100
AcDbEntity
  8
0
100
AcDbSpline
 62
7
  6
CONTINUOUS
 70
0
 71
3
 72
9
 73
5
 74
0
 42
0.0000001
 43
0.0000001
 44
0.0000000001
 40
0.0
 40
0.0
 40
0.0
 40
0.0
 40
0.5171022318
 40
1.0
 40
1.0
 40
1.0
 40
1.0
 10
11.0778784916
 20
7.0650566038
 30
0.0
 10
11.0763441601
 20
7.066341156
 30
0.0
 10
11.0734551133
 20
7.0689209009
 30
0.0
 10
11.0707684647
 20
7.0717129477
 30
0.0
 10
11.0695344883
 20
7.0731162782
 30
0.0
  0
SPLINE
  5
396
100
AcDbEntity
  8
0
100
AcDbSpline
 62
7
  6
CONTINUOUS
 70
0
 71
3
 72
37
 73
33
 74
0
 42
0.0000001
 43
0.0000001
 44
0.0000000001
 40
0.0
 40
0.0
 40
0.0
 40
0.0
 40
0.0958309547
 40
0.189102859
 40
0.2792425856
 40
0.3657120142
 40
0.4074105961
 40
0.448003525
 40
0.4874337107
 40
0.5256461444
 40
0.562590019
 40
0.5982170419
 40
0.6324836114
 40
0.6653495267
 40
0.6967798798
 40
0.7267447088
 40
0.7552200218
 40
0.7821889185
 40
0.8076418668
 40
0.8315795516
 40
0.8540128283
 40
0.8749672738
 40
0.8944840146
 40
0.9126258626
 40
0.929480339
 40
0.9451668365
 40
0.9598415721
 40
0.9737025693
 40
0.9804060954
 40
0.9869995786
 40
0.9935185772
 40
1.0
 40
1.0
 40
1.0
 40
1.0
 10
11.3923763507
 20
7.0512367296
 30
0.0
 10
11.3832603809
 20
7.0518689243
 30
0.0
 10
11.3652850273
 20
7.0533169526
 30
0.0
 10
11.3387994217
 20
7.0560809296
 30
0.0
 10
11.3132764286
 20
7.0593933796
 30
0.0
 10
11.2927098953
 20
7.0626296825
 30
0.0
 10
11.276873204
 20
7.0654880449
 30
0.0
 10
11.26548426
 20
7.0677281826
 30
0.0
 10
11.2544589118
 20
7.0700866162
 30
0.0
 10
11.2438155616
 20
7.072559628
 30
0.0
 10
11.2335719573
 20
7.0751428223
 30
0.0
 10
11.223745176
 20
7.0778320773
 30
0.0
 10
11.2143515633
 20
7.0806226769
 30
0.0
 10
11.2054067497
 20
7.0835100839
 30
0.0
 10
11.1969255708
 20
7.086489361
 30
0.0
 10
11.1889220583
 20
7.0895555444
 30
0.0
 10
11.1814094299
 20
7.0927035705
 30
0.0
 10
11.1743999815
 20
7.0959280827
 30
0.0
 10
11.1679052205
 20
7.0992239872
 30
0.0
 10
11.1619355596
 20
7.1025856625
 30
0.0
 10
11.1565007048
 20
7.1060081008
 30
0.0
 10
11.1516091094
 20
7.109485702
 30
0.0
 10
11.1472686729
 20
7.113013741
 30
0.0
 10
11.1434860814
 20
7.1165871594
 30
0.0
 10
11.1402678019
 20
7.1202017774
 30
0.0
 10
11.1376197285
 20
7.1238536774
 30
0.0
 10
11.1355483139
 20
7.1275383553
 30
0.0
 10
11.1342946149
 20
7.1306687528
 30
0.0
 10
11.1336008785
 20
7.1331658732
 30
0.0
 10
11.133232954
 20
7.1350211969
 30
0.0
 10
11.1330121529
 20
7.1368782697
 30
0.0
 10
11.1329630075
 20
7.1381184663
 30
0.0
 10
11.1329629973
 20
7.1387364959
 30
0.0
  0
SPLINE
  5
397
100
AcDbEntity
  8
0
100
AcDbSpline
 62
7
  6
CONTINUOUS
 70
0
 71
3
 72
50
 73
46
 74
0
 42
0.0000001
 43
0.0000001
 44
0.0000000001
 40
0.0
 40
0.0
 40
0.0
 40
0.0
 40
0.0417956958
 40
0.0840622602
 40
0.1266603176
 40
0.1694646154
 40
0.2123445128
 40
0.2551678737
 40
0.2978040563
 40
0.3401229578
 40
0.3819954739
 40
0.4232944982
 40
0.4638952413
 40
0.5036755263
 40
0.5425168626
 40
0.5803046046
 40
0.61692847
 40
0.652283716
 40
0.6862711694
 40
0.7187982737
 40
0.749780216
 40
0.7791402539
 40
0.8068116519
 40
0.8199969475
 40
0.8327403432
 40
0.8450368442
 40
0.8568828427
 40
0.8682755994
 40
0.8792134359
 40
0.8896964731
 40
0.8997262352
 40
0.9093058063
 40
0.9184407278
 40
0.9271388469
 40
0.9354105058
 40
0.9432695832
 40
0.9507337057
 40
0.9578245485
 40
0.9645689562
 40
0.9709994031
 40
0.9771541866
 40
0.9830780497
 40
0.9888220116
 40
0.9944424541
 40
1.0
 40
1.0
 40
1.0
 40
1.0
 10
11.3923763507
 20
7.0512367296
 30
0.0
 10
11.3988722593
 20
7.0507862369
 30
0.0
 10
11.4119446809
 20
7.0499840827
 30
0.0
 10
11.4316575129
 20
7.049078618
 30
0.0
 10
11.4515388705
 20
7.048466286
 30
0.0
 10
11.4715226656
 20
7.0481490562
 30
0.0
 10
11.4915440684
 20
7.0481278549
 30
0.0
 10
11.5115374019
 20
7.0484028765
 30
0.0
 10
11.5314370657
 20
7.0489731926
 30
0.0
 10
11.5511778985
 20
7.0498368409
 30
0.0
 10
11.5706952177
 20
7.0509910749
 30
0.0
 10
11.5899250788
 20
7.0524320339
 30
0.0
 10
11.6088044889
 20
7.0541549156
 30
0.0
 10
11.6272716094
 20
7.0561541336
 30
0.0
 10
11.6452659769
 20
7.0584229884
 30
0.0
 10
11.6627286857
 20
7.0609539874
 30
0.0
 10
11.6796025911
 20
7.0637388406
 30
0.0
 10
11.6958325223
 20
7.0667682163
 30
0.0
 10
11.7113654498
 20
7.0700321504
 30
0.0
 10
11.7261506616
 20
7.0735198677
 30
0.0
 10
11.7401400594
 20
7.0772196948
 30
0.0
 10
11.7532879687
 20
7.0811195298
 30
0.0
 10
11.7636687165
 20
7.0845786474
 30
0.0
 10
11.7715122051
 20
7.0874456184
 30
0.0
 10
11.7770633942
 20
7.0896030696
 30
0.0
 10
11.7823736816
 20
7.0918007334
 30
0.0
 10
11.7874388077
 20
7.0940367348
 30
0.0
 10
11.7922546661
 20
7.0963092448
 30
0.0
 10
11.7968173007
 20
7.0986165335
 30
0.0
 10
11.8011230812
 20
7.1009566341
 30
0.0
 10
11.8051685656
 20
7.1033276413
 30
0.0
 10
11.8089504276
 20
7.1057277973
 30
0.0
 10
11.8124656958
 20
7.1081551313
 30
0.0
 10
11.8157116218
 20
7.1106077121
 30
0.0
 10
11.8186855151
 20
7.1130838143
 30
0.0
 10
11.821385031
 20
7.1155815525
 30
0.0
 10
11.8238080692
 20
7.1180990581
 30
0.0
 10
11.8259524698
 20
7.1206347063
 30
0.0
 10
11.8278163189
 20
7.1231867614
 30
0.0
 10
11.8293979339
 20
7.125753417
 30
0.0
 10
11.8306953871
 20
7.1283330047
 30
0.0
 10
11.8317068651
 20
7.1309235489
 30
0.0
 10
11.8324309297
 20
7.1335228714
 30
0.0
 10
11.8328660323
 20
7.1361280248
 30
0.0
 10
11.8329629005
 20
7.1378709981
 30
0.0
 10
11.8329628862
 20
7.1387368294
 30
0.0
  0
SPLINE
  5
398
100
AcDbEntity
  8
0
100
AcDbSpline
 62
7
  6
CONTINUOUS
 70
0
 71
3
 72
42
 73
38
 74
0
 42
0.0000001
 43
0.0000001
 44
0.0000000001
 40
0.0
 40
0.0
 40
0.0
 40
0.0
 40
0.0311443913
 40
0.046777235
 40
0.0624471551
 40
0.0938918204
 40
0.1254739599
 40
0.1571813338
 40
0.1889991892
 40
0.2209105811
 40
0.2528967256
 40
0.2849373804
 40
0.3170112458
 40
0.3490963805
 40
0.3811706262
 40
0.413212034
 40
0.44519929
 40
0.47711213
 40
0.508931742
 40
0.5406411461
 40
0.5722255491
 40
0.6036726649
 40
0.634972994
 40
0.6661200568
 40
0.6971105715
 40
0.727944571
 40
0.7586254529
 40
0.7891599555
 40
0.8195580589
 40
0.8498328057
 40
0.8649315687
 40
0.8800056542
 40
0.9100837089
 40
0.940092975
 40
0.9550815001
 40
0.9700611853
 40
1.0
 40
1.0
 40
1.0
 40
1.0
 10
9.6631832298
 20
8.9053701846
 30
0.0
 10
9.6663438754
 20
8.9051509931
 30
0.0
 10
9.6710812809
 20
8.904648382
 30
0.0
 10
9.6773540252
 20
8.9036383441
 30
0.0
 10
9.6836168124
 20
8.9023983272
 30
0.0
 10
9.6913825528
 20
8.9004234837
 30
0.0
 10
9.7005386699
 20
8.8973922621
 30
0.0
 10
9.7094953037
 20
8.893712871
 30
0.0
 10
9.718204428
 20
8.8894050495
 30
0.0
 10
9.7266197145
 20
8.8844918031
 30
0.0
 10
9.7346963038
 20
8.8789993692
 30
0.0
 10
9.7423911687
 20
8.8729570542
 30
0.0
 10
9.7496633065
 20
8.8663970844
 30
0.0
 10
9.7564739642
 20
8.8593544343
 30
0.0
 10
9.7627868405
 20
8.8518666417
 30
0.0
 10
9.7685682779
 20
8.8439736099
 30
0.0
 10
9.7737874407
 20
8.8357173971
 30
0.0
 10
9.7784164775
 20
8.8271419947
 30
0.0
 10
9.7824306696
 20
8.818293096
 30
0.0
 10
9.7858085615
 20
8.8092178551
 30
0.0
 10
9.7885320761
 20
8.7999646395
 30
0.0
 10
9.7905866113
 20
8.7905827752
 30
0.0
 10
9.7919611198
 20
8.7811222878
 30
0.0
 10
9.79264817
 20
8.7716336388
 30
0.0
 10
9.7926439899
 20
8.7621674617
 30
0.0
 10
9.7919484871
 20
8.7527742855
 30
0.0
 10
9.7905652719
 20
8.7435043036
 30
0.0
 10
9.7885015789
 20
8.7344069697
 30
0.0
 10
9.7857684747
 20
8.7255312421
 30
0.0
 10
9.7829420074
 20
8.7183512889
 30
0.0
 10
9.7803626638
 20
8.7127677849
 30
0.0
 10
9.7775791207
 20
8.7073056536
 30
0.0
 10
9.773714265
 20
8.7006989501
 30
0.0
 10
9.769352363
 20
8.6944198497
 30
0.0
 10
9.765583
 20
8.6896202895
 30
0.0
 10
9.761633874
 20
8.6849773488
 30
0.0
 10
9.7584699063
 20
8.6816719915
 30
0.0
 10
9.7562793477
 20
8.6795560725
 30
0.0
  0
SPLINE
  5
399
100
AcDbEntity
  8
0
100
AcDbSpline
 62
7
  6
CONTINUOUS
 70
0
 71
3
 72
42
 73
38
 74
0
 42
0.0000001
 43
0.0000001
 44
0.0000000001
 40
0.0
 40
0.0
 40
0.0
 40
0.0
 40
0.0311443913
 40
0.046777235
 40
0.0624471551
 40
0.0938918204
 40
0.1254739599
 40
0.1571813338
 40
0.1889991892
 40
0.2209105811
 40
0.2528967256
 40
0.2849373804
 40
0.3170112458
 40
0.3490963805
 40
0.3811706262
 40
0.413212034
 40
0.44519929
 40
0.47711213
 40
0.508931742
 40
0.5406411461
 40
0.5722255491
 40
0.6036726649
 40
0.634972994
 40
0.6661200568
 40
0.6971105715
 40
0.727944571
 40
0.7586254529
 40
0.7891599555
 40
0.8195580589
 40
0.8498328057
 40
0.8649315687
 40
0.8800056542
 40
0.9100837089
 40
0.940092975
 40
0.9550815001
 40
0.9700611853
 40
1.0
 40
1.0
 40
1.0
 40
1.0
 10
12.0779979387
 20
9.9453095701
 30
0.0
 10
12.0811585843
 20
9.9450903786
 30
0.0
 10
12.0858959897
 20
9.9445877676
 30
0.0
 10
12.092168734
 20
9.9435777297
 30
0.0
 10
12.0984315212
 20
9.9423377128
 30
0.0
 10
12.1061972616
 20
9.9403628692
 30
0.0
 10
12.1153533787
 20
9.9373316477
 30
0.0
 10
12.1243100125
 20
9.9336522566
 30
0.0
 10
12.1330191368
 20
9.9293444351
 30
0.0
 10
12.1414344233
 20
9.9244311887
 30
0.0
 10
12.1495110126
 20
9.9189387547
 30
0.0
 10
12.1572058775
 20
9.9128964397
 30
0.0
 10
12.1644780153
 20
9.90633647
 30
0.0
 10
12.171288673
 20
9.8992938199
 30
0.0
 10
12.1776015493
 20
9.8918060273
 30
0.0
 10
12.1833829867
 20
9.8839129955
 30
0.0
 10
12.1886021495
 20
9.8756567826
 30
0.0
 10
12.1932311864
 20
9.8670813803
 30
0.0
 10
12.1972453784
 20
9.8582324816
 30
0.0
 10
12.2006232703
 20
9.8491572407
 30
0.0
 10
12.2033467849
 20
9.839904025
 30
0.0
 10
12.2054013201
 20
9.8305221607
 30
0.0
 10
12.2067758286
 20
9.8210616734
 30
0.0
 10
12.2074628788
 20
9.8115730243
 30
0.0
 10
12.2074586987
 20
9.8021068472
 30
0.0
 10
12.2067631959
 20
9.792713671
 30
0.0
 10
12.2053799807
 20
9.7834436892
 30
0.0
 10
12.2033162877
 20
9.7743463553
 30
0.0
 10
12.2005831835
 20
9.7654706277
 30
0.0
 10
12.1977567162
 20
9.7582906745
 30
0.0
 10
12.1951773726
 20
9.7527071705
 30
0.0
 10
12.1923938296
 20
9.7472450391
 30
0.0
 10
12.1885289738
 20
9.7406383356
 30
0.0
 10
12.1841670718
 20
9.7343592352
 30
0.0
 10
12.1803977088
 20
9.7295596751
 30
0.0
 10
12.1764485828
 20
9.7249167344
 30
0.0
 10
12.1732846151
 20
9.721611377
 30
0.0
 10
12.1710940565
 20
9.719495458
 30
0.0
  0
SPLINE
  5
39A
100
AcDbEntity
  8
0
100
AcDbSpline
 62
7
  6
CONTINUOUS
 70
0
 71
3
 72
53
 73
49
 74
0
 42
0.0000001
 43
0.0000001
 44
0.0000000001
 40
0.0
 40
0.0
 40
0.0
 40
0.0
 40
0.0417740747
 40
0.0840370059
 40
0.1266586015
 40
0.1695066206
 40
0.2124482643
 40
0.2553502464
 40
0.2980794728
 40
0.3405035203
 40
0.3824911749
 40
0.4239129577
 40
0.4646416591
 40
0.5045528794
 40
0.5435255803
 40
0.5814426526
 40
0.6181915072
 40
0.6536646981
 40
0.6877605949
 40
0.7203841254
 40
0.7361164043
 40
0.7514483531
 40
0.7663703757
 40
0.7808733967
 40
0.7949490545
 40
0.8085896209
 40
0.8217881625
 40
0.8345385373
 40
0.8468355031
 40
0.8586748197
 40
0.8700533035
 40
0.880969049
 40
0.8914214554
 40
0.9014115674
 40
0.9109421276
 40
0.9200180273
 40
0.9286464653
 40
0.9368374971
 40
0.9446043876
 40
0.9519642556
 40
0.9589386637
 40
0.9655543233
 40
0.9718438245
 40
0.977846199
 40
0.9836073748
 40
0.9891800477
 40
0.9946230782
 40
1.0
 40
1.0
 40
1.0
 40
1.0
 10
12.3259498803
 20
8.8230321152
 30
0.0
 10
12.3259498803
 20
8.8318936691
 30
0.0
 10
12.3260881296
 20
8.8497207567
 30
0.0
 10
12.3266993081
 20
8.8765828851
 30
0.0
 10
12.3277137106
 20
8.9036608302
 30
0.0
 10
12.3291280161
 20
8.9308649729
 30
0.0
 10
12.3309375482
 20
8.9581052959
 30
0.0
 10
12.3331363266
 20
8.9852916853
 30
0.0
 10
12.3357170671
 20
9.0123341954
 30
0.0
 10
12.3386712148
 20
9.0391433636
 30
0.0
 10
12.3419889684
 20
9.0656305033
 30
0.0
 10
12.3456593137
 20
9.0917080009
 30
0.0
 10
12.3496700587
 20
9.1172896086
 30
0.0
 10
12.3540078739
 20
9.1422907328
 30
0.0
 10
12.3586583351
 20
9.1666287174
 30
0.0
 10
12.3636059695
 20
9.190223128
 30
0.0
 10
12.3688343077
 20
9.2129960078
 30
0.0
 10
12.3743259317
 20
9.2348722063
 30
0.0
 10
12.380062554
 20
9.2557794252
 30
0.0
 10
12.385090161
 20
9.2725338811
 30
0.0
 10
12.3892285909
 20
9.2853949127
 30
0.0
 10
12.3923441072
 20
9.2946394634
 30
0.0
 10
12.39550625
 20
9.303592094
 30
0.0
 10
12.398712457
 20
9.3122454182
 30
0.0
 10
12.401960031
 20
9.3205923007
 30
0.0
 10
12.4052463102
 20
9.3286258564
 30
0.0
 10
12.4085685538
 20
9.3363394718
 30
0.0
 10
12.4119240217
 20
9.3437267981
 30
0.0
 10
12.4153099432
 20
9.3507817642
 30
0.0
 10
12.4187235103
 20
9.3574985861
 30
0.0
 10
12.4221619387
 20
9.3638717556
 30
0.0
 10
12.4256223704
 20
9.36989608
 30
0.0
 10
12.4291020245
 20
9.3755666346
 30
0.0
 10
12.4325980236
 20
9.3808788392
 30
0.0
 10
12.4361076093
 20
9.3858283721
 30
0.0
 10
12.4396279344
 20
9.3904112755
 30
0.0
 10
12.4431562918
 20
9.3946238414
 30
0.0
 10
12.4466899327
 20
9.3984627177
 30
0.0
 10
12.4502262477
 20
9.4019247908
 30
0.0
 10
12.4537626613
 20
9.4050072401
 30
0.0
 10
12.457296707
 20
9.4077074513
 30
0.0
 10
12.4608260044
 20
9.4100229551
 30
0.0
 10
12.4643481672
 20
9.4119514249
 30
0.0
 10
12.4678608122
 20
9.4134904759
 30
0.0
 10
12.4713612088
 20
9.4146378757
 30
0.0
 10
12.4748464926
 20
9.4153913182
 30
0.0
 10
12.4783124164
 20
9.4157490846
 30
0.0
 10
12.4806134992
 20
9.415722779
 30
0.0
 10
12.4817513749
 20
9.4156438648
 30
0.0
  0
SPLINE
  5
39B
100
AcDbEntity
  8
0
100
AcDbSpline
 62
7
  6
CONTINUOUS
 70
0
 71
3
 72
53
 73
49
 74
0
 42
0.0000001
 43
0.0000001
 44
0.0000000001
 40
0.0
 40
0.0
 40
0.0
 40
0.0
 40
0.0417740478
 40
0.0840369835
 40
0.1266585592
 40
0.1695065657
 40
0.2124481957
 40
0.2553501644
 40
0.2980793779
 40
0.3405034127
 40
0.3824910553
 40
0.4239128269
 40
0.4646415185
 40
0.5045527309
 40
0.5435254266
 40
0.5814424966
 40
0.6181913512
 40
0.6536645436
 40
0.6877604426
 40
0.7203839756
 40
0.7361162401
 40
0.7514482063
 40
0.7663702194
 40
0.7808732533
 40
0.7949489098
 40
0.808589482
 40
0.8217880323
 40
0.8345384043
 40
0.8468353889
 40
0.8586746951
 40
0.8700532057
 40
0.8809689358
 40
0.8914213732
 40
0.9014114696
 40
0.9109420597
 40
0.9200179488
 40
0.9286464106
 40
0.9368374402
 40
0.9446043453
 40
0.9519642202
 40
0.9589386335
 40
0.9655543067
 40
0.9718438059
 40
0.9778461959
 40
0.9836073668
 40
0.9891800504
 40
0.9946230772
 40
1.0
 40
1.0
 40
1.0
 40
1.0
 10
12.3350085394
 20
7.7750591519
 30
0.0
 10
12.3350085394
 20
7.7832677425
 30
0.0
 10
12.3351366019
 20
7.799781248
 30
0.0
 10
12.335702745
 20
7.8246640493
 30
0.0
 10
12.3366424015
 20
7.8497467677
 30
0.0
 10
12.3379524935
 20
7.8749463814
 30
0.0
 10
12.3396286901
 20
7.9001795108
 30
0.0
 10
12.3416654515
 20
7.9253626805
 30
0.0
 10
12.3440560302
 20
7.9504125729
 30
0.0
 10
12.3467925017
 20
7.9752463173
 30
0.0
 10
12.3498657868
 20
7.999781762
 30
0.0
 10
12.3532656827
 20
8.0239377496
 30
0.0
 10
12.356980896
 20
8.0476343874
 30
0.0
 10
12.3609990791
 20
8.0707933156
 30
0.0
 10
12.3653068705
 20
8.0933379688
 30
0.0
 10
12.3698899376
 20
8.1151938396
 30
0.0
 10
12.3747330252
 20
8.1362887149
 30
0.0
 10
12.3798199978
 20
8.1565529816
 30
0.0
 10
12.3851339196
 20
8.1759196668
 30
0.0
 10
12.3897910598
 20
8.1914395826
 30
0.0
 10
12.3936245636
 20
8.2033529546
 30
0.0
 10
12.3965105003
 20
8.2119163301
 30
0.0
 10
12.3994396527
 20
8.2202092926
 30
0.0
 10
12.4024096016
 20
8.2282250065
 30
0.0
 10
12.4054178839
 20
8.2359568566
 30
0.0
 10
12.4084620127
 20
8.2433984687
 30
0.0
 10
12.411539454
 20
8.2505437159
 30
0.0
 10
12.4146476827
 20
8.2573867142
 30
0.0
 10
12.4177841005
 20
8.2639218478
 30
0.0
 10
12.4209461567
 20
8.2701437445
 30
0.0
 10
12.4241312041
 20
8.2760473237
 30
0.0
 10
12.4273366789
 20
8.2816277459
 30
0.0
 10
12.4305599093
 20
8.2868804864
 30
0.0
 10
12.4337983333
 20
8.2918012584
 30
0.0
 10
12.4370492903
 20
8.2963861083
 30
0.0
 10
12.4403102445
 20
8.3006313171
 30
0.0
 10
12.4435785966
 20
8.3045335026
 30
0.0
 10
12.4468518766
 20
8.3080895116
 30
0.0
 10
12.4501276108
 20
8.3112964987
 30
0.0
 10
12.4534034474
 20
8.3141518269
 30
0.0
 10
12.4566770919
 20
8.3166530783
 30
0.0
 10
12.4599463255
 20
8.3187979883
 30
0.0
 10
12.4632089718
 20
8.3205843472
 30
0.0
 10
12.4664627745
 20
8.3220100359
 30
0.0
 10
12.4697052599
 20
8.32307286
 30
0.0
 10
12.4729337213
 20
8.3237708442
 30
0.0
 10
12.4761442664
 20
8.3241022069
 30
0.0
 10
12.4782757942
 20
8.3240778856
 30
0.0
 10
12.4793298266
 20
8.324004788
 30
0.0
  0
SPLINE
  5
39C
100
AcDbEntity
  8
0
100
AcDbSpline
 62
7
  6
CONTINUOUS
 70
0
 71
3
 72
63
 73
59
 74
0
 42
0.0000001
 43
0.0000001
 44
0.0000000001
 40
0.0
 40
0.0
 40
0.0
 40
0.0
 40
0.0077404951
 40
0.0160540231
 40
0.0249601625
 40
0.0344715779
 40
0.0445947918
 40
0.0553316038
 40
0.0666797818
 40
0.0786337195
 40
0.0911849323
 40
0.1043223985
 40
0.1180328871
 40
0.1323012211
 40
0.1471104705
 40
0.1624420942
 40
0.1782761125
 40
0.1945912411
 40
0.2113649863
 40
0.2285737288
 40
0.2461928417
 40
0.2641967748
 40
0.2825591168
 40
0.3012526675
 40
0.3202495285
 40
0.3395211688
 40
0.3787712063
 40
0.4187649048
 40
0.4592577009
 40
0.5000010365
 40
0.5407443622
 40
0.5812371306
 40
0.6212307843
 40
0.6604807551
 40
0.6797523556
 40
0.6987491799
 40
0.7174426839
 40
0.7358049676
 40
0.7538088469
 40
0.7714279092
 40
0.7886365862
 40
0.8054102566
 40
0.8217253206
 40
0.837559275
 40
0.8528908158
 40
0.8676999784
 40
0.88196824
 40
0.8956786521
 40
0.908816022
 40
0.9213671416
 40
0.9333210024
 40
0.9446690929
 40
0.9554058035
 40
0.9655289264
 40
0.9750402472
 40
0.9839463523
 40
0.9922597067
 40
1.0
 40
1.0
 40
1.0
 40
1.0
 10
11.1187619885
 20
10.2568243162
 30
0.0
 10
11.1172348517
 20
10.2554032101
 30
0.0
 10
11.11394742
 20
10.2525832923
 30
0.0
 10
11.1085544678
 20
10.2485558425
 30
0.0
 10
11.1025364375
 20
10.2445891137
 30
0.0
 10
11.0959031786
 20
10.2406893669
 30
0.0
 10
11.0886649446
 20
10.2368625407
 30
0.0
 10
11.0808333135
 20
10.233114738
 30
0.0
 10
11.0724208381
 20
10.2294519874
 30
0.0
 10
11.0634411033
 20
10.2258802667
 30
0.0
 10
11.0539086781
 20
10.2224054462
 30
0.0
 10
11.0438390967
 20
10.2190332469
 30
0.0
 10
11.0332488164
 20
10.2157692364
 30
0.0
 10
11.0221551739
 20
10.2126188184
 30
0.0
 10
11.0105763581
 20
10.2095872195
 30
0.0
 10
10.9985313837
 20
10.2066794551
 30
0.0
 10
10.9860400475
 20
10.2039003423
 30
0.0
 10
10.9731228879
 20
10.2012544911
 30
0.0
 10
10.9598011561
 20
10.1987462923
 30
0.0
 10
10.9460967834
 20
10.1963798941
 30
0.0
 10
10.9320323355
 20
10.1941592165
 30
0.0
 10
10.9176309736
 20
10.1920879436
 30
0.0
 10
10.9029164186
 20
10.1901695072
 30
0.0
 10
10.8879129215
 20
10.1884070822
 30
0.0
 10
10.8726451833
 20
10.186803568
 30
0.0
 10
10.8518431924
 20
10.1848693259
 30
0.0
 10
10.8253658016
 20
10.1828737511
 30
0.0
 10
10.7931396567
 20
10.1811619588
 30
0.0
 10
10.7604819161
 20
10.1801303169
 30
0.0
 10
10.7276077367
 20
10.1797856807
 30
0.0
 10
10.6947335653
 20
10.1801303666
 30
0.0
 10
10.6620758487
 20
10.1811620625
 30
0.0
 10
10.6298497437
 20
10.1828738997
 30
0.0
 10
10.6033723972
 20
10.1848695196
 30
0.0
 10
10.5825704483
 20
10.1868037965
 30
0.0
 10
10.5673027453
 20
10.1884073281
 30
0.0
 10
10.5522992894
 20
10.1901697769
 30
0.0
 10
10.5375847813
 20
10.192088242
 30
0.0
 10
10.5231834667
 20
10.194159536
 30
0.0
 10
10.5091190677
 20
10.1963802295
 30
0.0
 10
10.4954147512
 20
10.1987466513
 30
0.0
 10
10.4820930806
 20
10.2012548766
 30
0.0
 10
10.4691759804
 20
10.2039007444
 30
0.0
 10
10.4566847056
 20
10.206679871
 30
0.0
 10
10.4446398015
 20
10.2095876586
 30
0.0
 10
10.4330610592
 20
10.2126192805
 30
0.0
 10
10.4219674861
 20
10.2157697102
 30
0.0
 10
10.4113772786
 20
10.2190337327
 30
0.0
 10
10.4013077801
 20
10.222405954
 30
0.0
 10
10.3917754381
 20
10.2258807929
 30
0.0
 10
10.3827957807
 20
10.2294525203
 30
0.0
 10
10.3743833875
 20
10.2331152809
 30
0.0
 10
10.3665518497
 20
10.2368631043
 30
0.0
 10
10.3593137107
 20
10.2406899439
 30
0.0
 10
10.3526805194
 20
10.244589689
 30
0.0
 10
10.3466625971
 20
10.2485564352
 30
0.0
 10
10.3412697772
 20
10.2525838752
 30
0.0
 10
10.3379824329
 20
10.2554037409
 30
0.0
 10
10.3364553604
 20
10.2568248364
 30
0.0
  0
SPLINE
  5
39D
100
AcDbEntity
  8
0
100
AcDbSpline
 62
7
  6
CONTINUOUS
 70
0
 71
3
 72
21
 73
17
 74
0
 42
0.0000001
 43
0.0000001
 44
0.0000000001
 40
0.0
 40
0.0
 40
0.0
 40
0.0
 40
0.0616532317
 40
0.1233294843
 40
0.1850515407
 40
0.2468416642
 40
0.3087213449
 40
0.3707111025
 40
0.432830246
 40
0.4950966374
 40
0.5575265756
 40
0.6201345674
 40
0.6829331401
 40
0.7459332076
 40
0.8725262003
 40
1.0
 40
1.0
 40
1.0
 40
1.0
 10
9.570087112
 20
8.8723161599
 30
0.0
 10
9.571590869
 20
8.873768679
 30
0.0
 10
9.5746777363
 20
8.8765939433
 30
0.0
 10
9.5795300413
 20
8.8805776785
 30
0.0
 10
9.5845930428
 20
8.8842981097
 30
0.0
 10
9.5898538346
 20
8.887745666
 30
0.0
 10
9.595299188
 20
8.8909117322
 30
0.0
 10
9.6009153584
 20
8.8937883476
 30
0.0
 10
9.6066882149
 20
8.8963682451
 30
0.0
 10
9.6126032016
 20
8.8986449442
 30
0.0
 10
9.6186454188
 20
8.9006127535
 30
0.0
 10
9.6247996073
 20
8.9022667025
 30
0.0
 10
9.6310504473
 20
8.9036026454
 30
0.0
 10
9.639504651
 20
8.9049574763
 30
0.0
 10
9.6502401455
 20
8.905837687
 30
0.0
 10
9.6588708358
 20
8.9056692501
 30
0.0
 10
9.6631832298
 20
8.9053701846
 30
0.0
  0
SPLINE
  5
39E
100
AcDbEntity
  8
0
100
AcDbSpline
 62
7
  6
CONTINUOUS
 70
0
 71
3
 72
21
 73
17
 74
0
 42
0.0000001
 43
0.0000001
 44
0.0000000001
 40
0.0
 40
0.0
 40
0.0
 40
0.0
 40
0.0616532317
 40
0.1233294843
 40
0.1850515407
 40
0.2468416642
 40
0.3087213449
 40
0.3707111025
 40
0.432830246
 40
0.4950966374
 40
0.5575265756
 40
0.6201345674
 40
0.6829331401
 40
0.7459332076
 40
0.8725262003
 40
1.0
 40
1.0
 40
1.0
 40
1.0
 10
11.9849018208
 20
9.9122555455
 30
0.0
 10
11.9864055778
 20
9.9137080645
 30
0.0
 10
11.9894924451
 20
9.9165333288
 30
0.0
 10
11.9943447501
 20
9.9205170641
 30
0.0
 10
11.9994077516
 20
9.9242374952
 30
0.0
 10
12.0046685434
 20
9.9276850516
 30
0.0
 10
12.0101138968
 20
9.9308511177
 30
0.0
 10
12.0157300672
 20
9.9337277331
 30
0.0
 10
12.0215029237
 20
9.9363076307
 30
0.0
 10
12.0274179104
 20
9.9385843298
 30
0.0
 10
12.0334601276
 20
9.940552139
 30
0.0
 10
12.0396143161
 20
9.9422060881
 30
0.0
 10
12.0458651561
 20
9.9435420309
 30
0.0
 10
12.0543193598
 20
9.9448968618
 30
0.0
 10
12.0650548543
 20
9.9457770725
 30
0.0
 10
12.0736855446
 20
9.9456086357
 30
0.0
 10
12.0779979387
 20
9.9453095701
 30
0.0
  0
SPLINE
  5
39F
100
AcDbEntity
  8
0
100
AcDbSpline
 62
7
  6
CONTINUOUS
 70
0
 71
3
 72
49
 73
45
 74
0
 42
0.0000001
 43
0.0000001
 44
0.0000000001
 40
0.0
 40
0.0
 40
0.0
 40
0.0
 40
0.0063158739
 40
0.0126706599
 40
0.0191024896
 40
0.0256480301
 40
0.0323419112
 40
0.039216248
 40
0.0536140773
 40
0.06119479
 40
0.0690565573
 40
0.0772176635
 40
0.0856940531
 40
0.0944994572
 40
0.1036455587
 40
0.1131423452
 40
0.122998104
 40
0.1332197191
 40
0.1438128355
 40
0.1547818436
 40
0.1661302067
 40
0.1778604088
 40
0.1899740704
 40
0.2024721524
 40
0.215354813
 40
0.2422706486
 40
0.2707129033
 40
0.3006638566
 40
0.3320991037
 40
0.3649883645
 40
0.3992962141
 40
0.4349826582
 40
0.4720035847
 40
0.5103111049
 40
0.5498539072
 40
0.5905775763
 40
0.6324248432
 40
0.6753357844
 40
0.7192480525
 40
0.764097054
 40
0.809816243
 40
0.856337252
 40
0.9035893524
 40
1.0
 40
1.0
 40
1.0
 40
1.0
 10
12.4160262756
 20
8.4679201838
 30
0.0
 10
12.4152234375
 20
8.4679758624
 30
0.0
 10
12.4136166077
 20
8.4681532701
 30
0.0
 10
12.411224376
 20
8.468615723
 30
0.0
 10
12.4088481299
 20
8.4692744454
 30
0.0
 10
12.4064892642
 20
8.4701289453
 30
0.0
 10
12.4041487126
 20
8.4711787383
 30
0.0
 10
12.401005961
 20
8.4728634081
 30
0.0
 10
12.3979485786
 20
8.4749257364
 30
0.0
 10
12.3949897856
 20
8.477315616
 30
0.0
 10
12.3927549236
 20
8.4793305943
 30
0.0
 10
12.3905439025
 20
8.4815359635
 30
0.0
 10
12.3883573116
 20
8.4839309754
 30
0.0
 10
12.3861960425
 20
8.4865145892
 30
0.0
 10
12.3840608584
 20
8.4892857351
 30
0.0
 10
12.3819526261
 20
8.4922433099
 30
0.0
 10
12.379872133
 20
8.4953860938
 30
0.0
 10
12.3778201974
 20
8.4987128156
 30
0.0
 10
12.3757976612
 20
8.5022221397
 30
0.0
 10
12.3738052931
 20
8.5059126225
 30
0.0
 10
12.3718439269
 20
8.509782778
 30
0.0
 10
12.3699143486
 20
8.5138310265
 30
0.0
 10
12.3680173279
 20
8.5180557091
 30
0.0
 10
12.3661536566
 20
8.5224551199
 30
0.0
 10
12.3636780156
 20
8.5286421972
 30
0.0
 10
12.3606802756
 20
8.5368065222
 30
0.0
 10
12.3572784173
 20
8.5471323884
 30
0.0
 10
12.3540269968
 20
8.5581084425
 30
0.0
 10
12.3509314007
 20
8.5697166804
 30
0.0
 10
12.3479967585
 20
8.5819381786
 30
0.0
 10
12.3452279475
 20
8.5947529077
 30
0.0
 10
12.3426295777
 20
8.608139849
 30
0.0
 10
12.3402059838
 20
8.6220770118
 30
0.0
 10
12.3379612014
 20
8.6365414738
 30
0.0
 10
12.335898967
 20
8.6515094245
 30
0.0
 10
12.3340227178
 20
8.6669562144
 30
0.0
 10
12.3323355859
 20
8.6828563964
 30
0.0
 10
12.3308403829
 20
8.6991837655
 30
0.0
 10
12.3295395973
 20
8.7159113977
 30
0.0
 10
12.3284353947
 20
8.7330117147
 30
0.0
 10
12.3275296252
 20
8.7504565146
 30
0.0
 10
12.3268237931
 20
8.7682170114
 30
0.0
 10
12.3261463811
 20
8.7924410804
 30
0.0
 10
12.3259498803
 20
8.8107475019
 30
0.0
 10
12.3259498803
 20
8.8230321152
 30
0.0
  0
SPLINE
  5
3A0
100
AcDbEntity
  8
0
100
AcDbSpline
 62
7
  6
CONTINUOUS
 70
0
 71
3
 72
32
 73
28
 74
0
 42
0.0000001
 43
0.0000001
 44
0.0000000001
 40
0.0
 40
0.0
 40
0.0
 40
0.0
 40
0.0162143759
 40
0.0334274997
 40
0.051671892
 40
0.0709710677
 40
0.0913406249
 40
0.1127897736
 40
0.1353221186
 40
0.1589365092
 40
0.1836277576
 40
0.2093869357
 40
0.2362021308
 40
0.2640583681
 40
0.2929383657
 40
0.322822303
 40
0.3536884524
 40
0.3855130039
 40
0.4182704582
 40
0.4519336358
 40
0.5218593368
 40
0.5950455271
 40
0.6712259325
 40
0.7501167607
 40
0.8314193771
 40
0.9148211196
 40
1.0
 40
1.0
 40
1.0
 40
1.0
 10
12.3894709557
 20
8.6214845337
 30
0.0
 10
12.3886372687
 20
8.6225095944
 30
0.0
 10
12.386988707
 20
8.6246805901
 30
0.0
 10
12.3846376973
 20
8.6281760552
 30
0.0
 10
12.3823383409
 20
8.632002064
 30
0.0
 10
12.3800930565
 20
8.6361545911
 30
0.0
 10
12.3779039728
 20
8.6406294662
 30
0.0
 10
12.3757733406
 20
8.6454221159
 30
0.0
 10
12.3737033337
 20
8.650527619
 30
0.0
 10
12.371696091
 20
8.6559407014
 30
0.0
 10
12.3697537338
 20
8.6616557537
 30
0.0
 10
12.3678782653
 20
8.6676668232
 30
0.0
 10
12.366071707
 20
8.673967643
 30
0.0
 10
12.3643359184
 20
8.6805516195
 30
0.0
 10
12.362672784
 20
8.6874118604
 30
0.0
 10
12.3610840224
 20
8.6945411685
 30
0.0
 10
12.3595713506
 20
8.701932061
 30
0.0
 10
12.3581363538
 20
8.7095767699
 30
0.0
 10
12.3567805457
 20
8.7174672688
 30
0.0
 10
12.3550585309
 20
8.7284439653
 30
0.0
 10
12.3531238827
 20
8.7427204095
 30
0.0
 10
12.3511668857
 20
8.7604843099
 30
0.0
 10
12.349554608
 20
8.7790161338
 30
0.0
 10
12.3482939739
 20
8.7982378806
 30
0.0
 10
12.3473904632
 20
8.8180687112
 30
0.0
 10
12.3468479783
 20
8.8384251325
 30
0.0
 10
12.3467297019
 20
8.8521628061
 30
0.0
 10
12.3467297019
 20
8.8591038835
 30
0.0
  0
SPLINE
  5
3A1
100
AcDbEntity
  8
0
100
AcDbSpline
 62
7
  6
CONTINUOUS
 70
0
 71
3
 72
42
 73
38
 74
0
 42
0.0000001
 43
0.0000001
 44
0.0000000001
 40
0.0
 40
0.0
 40
0.0
 40
0.0
 40
0.0070629007
 40
0.0144559472
 40
0.0221883663
 40
0.0302673904
 40
0.0386986702
 40
0.0474862486
 40
0.056632984
 40
0.0661405239
 40
0.0760095045
 40
0.0862397216
 40
0.0968300492
 40
0.1077787607
 40
0.1307398761
 40
0.1550975647
 40
0.1808170306
 40
0.2078564306
 40
0.2361677872
 40
0.2656977098
 40
0.2963879802
 40
0.3281760476
 40
0.3609954525
 40
0.3947761983
 40
0.4294451129
 40
0.4649261737
 40
0.5011408096
 40
0.5380081891
 40
0.5754454971
 40
0.6133682034
 40
0.6516903404
 40
0.6903247693
 40
0.7291834374
 40
0.7681776426
 40
0.8462146119
 40
0.9237241385
 40
1.0
 40
1.0
 40
1.0
 40
1.0
 10
12.4342527005
 20
9.2672153505
 30
0.0
 10
12.4335225019
 20
9.2665357622
 30
0.0
 10
12.4320628592
 20
9.265106959
 30
0.0
 10
12.4299236233
 20
9.262815779
 30
0.0
 10
12.4277867115
 20
9.2603299231
 30
0.0
 10
12.4256533945
 20
9.2576509662
 30
0.0
 10
12.4235249411
 20
9.2547804527
 30
0.0
 10
12.4214025599
 20
9.2517201312
 30
0.0
 10
12.4192875476
 20
9.2484718088
 30
0.0
 10
12.4171811532
 20
9.2450374432
 30
0.0
 10
12.4150846326
 20
9.2414190997
 30
0.0
 10
12.4129992868
 20
9.2376189471
 30
0.0
 10
12.4109263138
 20
9.2336392902
 30
0.0
 10
12.4081362615
 20
9.2280072604
 30
0.0
 10
12.4046965709
 20
9.2205291865
 30
0.0
 10
12.4007009307
 20
9.211017317
 30
0.0
 10
12.3967841609
 20
9.2008530119
 30
0.0
 10
12.392955847
 20
9.1900609061
 30
0.0
 10
12.3892253616
 20
9.1786670496
 30
0.0
 10
12.3856018483
 20
9.166699058
 30
0.0
 10
12.3820941894
 20
9.1541859665
 30
0.0
 10
12.3787109834
 20
9.1411581704
 30
0.0
 10
12.3754605229
 20
9.1276473419
 30
0.0
 10
12.3723507685
 20
9.1136863505
 30
0.0
 10
12.3693893347
 20
9.0993091768
 30
0.0
 10
12.3665834709
 20
9.0845508243
 30
0.0
 10
12.3639400436
 20
9.0694472327
 30
0.0
 10
12.3614655206
 20
9.0540351892
 30
0.0
 10
12.3591659554
 20
9.0383522388
 30
0.0
 10
12.3570469681
 20
9.0224365934
 30
0.0
 10
12.3551137343
 20
9.0063270321
 30
0.0
 10
12.3533709826
 20
8.9900628197
 30
0.0
 10
12.3518229461
 20
8.9736835565
 30
0.0
 10
12.3500233022
 20
8.9517400462
 30
0.0
 10
12.348283942
 20
8.9243165706
 30
0.0
 10
12.3470195118
 20
8.8915969955
 30
0.0
 10
12.3467297019
 20
8.8698765236
 30
0.0
 10
12.3467297019
 20
8.8591038835
 30
0.0
  0
SPLINE
  5
3A2
100
AcDbEntity
  8
0
100
AcDbSpline
 62
7
  6
CONTINUOUS
 70
0
 71
3
 72
47
 73
43
 74
0
 42
0.0000001
 43
0.0000001
 44
0.0000000001
 40
0.0
 40
0.0
 40
0.0
 40
0.0
 40
0.0063158953
 40
0.0126706964
 40
0.0191025413
 40
0.0256481068
 40
0.0323419887
 40
0.0392163511
 40
0.0536141938
 40
0.0611949453
 40
0.0690567093
 40
0.0772178306
 40
0.0856942536
 40
0.094499648
 40
0.1036457893
 40
0.1131425899
 40
0.1229983503
 40
0.1332200167
 40
0.1438131323
 40
0.1547821683
 40
0.1661305713
 40
0.1899729423
 40
0.2153524409
 40
0.2422683478
 40
0.2707106917
 40
0.3006617255
 40
0.3320970385
 40
0.3649863926
 40
0.3992943516
 40
0.4349809011
 40
0.4720019229
 40
0.5103095575
 40
0.5498524869
 40
0.5905762826
 40
0.6324236706
 40
0.6753347453
 40
0.7192471563
 40
0.7640962954
 40
0.8098156376
 40
0.856336788
 40
0.9035890146
 40
1.0
 40
1.0
 40
1.0
 40
1.0
 10
12.418447824
 20
7.4461133472
 30
0.0
 10
12.4177041415
 20
7.446164922
 30
0.0
 10
12.4162157119
 20
7.4463292786
 30
0.0
 10
12.4139997445
 20
7.4467576242
 30
0.0
 10
12.4117985851
 20
7.447367799
 30
0.0
 10
12.4096135394
 20
7.4481593542
 30
0.0
 10
12.4074454318
 20
7.449131755
 30
0.0
 10
12.4045342672
 20
7.4506923135
 30
0.0
 10
12.4017021378
 20
7.4526026393
 30
0.0
 10
12.3989613824
 20
7.4548164447
 30
0.0
 10
12.3968911775
 20
7.4566829293
 30
0.0
 10
12.3948430726
 20
7.4587257947
 30
0.0
 10
12.3928176095
 20
7.460944337
 30
0.0
 10
12.3908155699
 20
7.4633375603
 30
0.0
 10
12.3888377292
 20
7.4659045239
 30
0.0
 10
12.3868848343
 20
7.4686441648
 30
0.0
 10
12.3849576279
 20
7.4715553657
 30
0.0
 10
12.383056903
 20
7.4746369674
 30
0.0
 10
12.3811833824
 20
7.4778876979
 30
0.0
 10
12.3793378072
 20
7.4813062542
 30
0.0
 10
12.3768747231
 20
7.4861665447
 30
0.0
 10
12.3738794506
 20
7.4926610112
 30
0.0
 10
12.3704652692
 20
7.5009762351
 30
0.0
 10
12.3671798933
 20
7.5099236899
 30
0.0
 10
12.3640286977
 20
7.5194887747
 30
0.0
 10
12.3610168527
 20
7.5296560467
 30
0.0
 10
12.3581493441
 20
7.5404089441
 30
0.0
 10
12.3554309367
 20
7.5517299108
 30
0.0
 10
12.3528661424
 20
7.5636004025
 30
0.0
 10
12.3504592293
 20
7.5760009415
 30
0.0
 10
12.3482142093
 20
7.5889111581
 30
0.0
 10
12.3461348297
 20
7.6023098225
 30
0.0
 10
12.3442245486
 20
7.6161748793
 30
0.0
 10
12.342486548
 20
7.6304834921
 30
0.0
 10
12.3409237265
 20
7.6452120885
 30
0.0
 10
12.3395386946
 20
7.6603363963
 30
0.0
 10
12.338333756
 20
7.6758314754
 30
0.0
 10
12.3373109144
 20
7.6916717796
 30
0.0
 10
12.336471884
 20
7.7078311829
 30
0.0
 10
12.3358180596
 20
7.7242830191
 30
0.0
 10
12.3351905616
 20
7.746722171
 30
0.0
 10
12.3350085394
 20
7.7636797098
 30
0.0
 10
12.3350085394
 20
7.7750591519
 30
0.0
  0
SPLINE
  5
3A3
100
AcDbEntity
  8
0
100
AcDbSpline
 62
7
  6
CONTINUOUS
 70
0
 71
3
 72
31
 73
27
 74
0
 42
0.0000001
 43
0.0000001
 44
0.0000000001
 40
0.0
 40
0.0
 40
0.0
 40
0.0
 40
0.0162143915
 40
0.0334275491
 40
0.0516719541
 40
0.0709711783
 40
0.0913407392
 40
0.1127899566
 40
0.135322295
 40
0.158936774
 40
0.1836280092
 40
0.209387288
 40
0.2362024717
 40
0.2640588099
 40
0.29293881
 40
0.3228228363
 40
0.3536890128
 40
0.3855136356
 40
0.451932613
 40
0.5218584336
 40
0.5950447551
 40
0.6712252994
 40
0.7501162943
 40
0.8314190027
 40
0.9148210884
 40
1.0
 40
1.0
 40
1.0
 40
1.0
 10
12.398657281
 20
7.6319133516
 30
0.0
 10
12.3979977975
 20
7.6327242198
 30
0.0
 10
12.396693708
 20
7.6344415717
 30
0.0
 10
12.3948339583
 20
7.6372066421
 30
0.0
 10
12.3930150571
 20
7.6402331823
 30
0.0
 10
12.3912389446
 20
7.6435180193
 30
0.0
 10
12.3895072693
 20
7.6470578415
 30
0.0
 10
12.3878218569
 20
7.650849045
 30
0.0
 10
12.3861843722
 20
7.6548877225
 30
0.0
 10
12.3845965704
 20
7.6591697161
 30
0.0
 10
12.3830600594
 20
7.6636905754
 30
0.0
 10
12.3815764983
 20
7.6684456029
 30
0.0
 10
12.3801474107
 20
7.6734298318
 30
0.0
 10
12.3787743407
 20
7.6786380533
 30
0.0
 10
12.377458711
 20
7.6840648109
 30
0.0
 10
12.3762019433
 20
7.6897044121
 30
0.0
 10
12.375005332
 20
7.6955509445
 30
0.0
 10
12.3734699232
 20
7.7037309116
 30
0.0
 10
12.3717191405
 20
7.7144306522
 30
0.0
 10
12.3699050861
 20
7.727816292
 30
0.0
 10
12.3683570369
 20
7.741868412
 30
0.0
 10
12.3670816452
 20
7.7565278963
 30
0.0
 10
12.3660844299
 20
7.7717331655
 30
0.0
 10
12.3653697101
 20
7.7874202516
 30
0.0
 10
12.3649405828
 20
7.8035230964
 30
0.0
 10
12.3648470201
 20
7.8143902175
 30
0.0
 10
12.3648470201
 20
7.8198809134
 30
0.0
  0
SPLINE
  5
3A4
100
AcDbEntity
  8
0
100
AcDbSpline
 62
7
  6
CONTINUOUS
 70
0
 71
3
 72
39
 73
35
 74
0
 42
0.0000001
 43
0.0000001
 44
0.0000000001
 40
0.0
 40
0.0
 40
0.0
 40
0.0
 40
0.0070630052
 40
0.0144561596
 40
0.0221886456
 40
0.0302678075
 40
0.038699155
 40
0.047486846
 40
0.0566336872
 40
0.0661412992
 40
0.0760104122
 40
0.0862406994
 40
0.1077788368
 40
0.1307401431
 40
0.1550980032
 40
0.1808176349
 40
0.2078572072
 40
0.236168727
 40
0.2656987991
 40
0.2963892126
 40
0.3281774279
 40
0.3609969708
 40
0.3947778373
 40
0.4294468621
 40
0.4649280347
 40
0.5011427892
 40
0.5380102774
 40
0.5754476775
 40
0.6133704692
 40
0.6903256613
 40
0.7681771986
 40
0.8462143221
 40
0.9237238908
 40
1.0
 40
1.0
 40
1.0
 40
1.0
 10
12.4340812073
 20
8.1427149672
 30
0.0
 10
12.4335035857
 20
8.1421773741
 30
0.0
 10
12.4323489529
 20
8.1410470957
 30
0.0
 10
12.430656734
 20
8.1392346361
 30
0.0
 10
12.4289663303
 20
8.1372681958
 30
0.0
 10
12.4272788115
 20
8.1351489782
 30
0.0
 10
12.4255950978
 20
8.1328782589
 30
0.0
 10
12.4239162165
 20
8.1304573776
 30
0.0
 10
12.422243157
 20
8.1278877852
 30
0.0
 10
12.420576903
 20
8.1251710326
 30
0.0
 10
12.418918475
 20
8.1223087318
 30
0.0
 10
12.4166804814
 20
8.1182302953
 30
0.0
 10
12.4139165046
 20
8.1127741266
 30
0.0
 10
12.4107011048
 20
8.1057838698
 30
0.0
 10
12.4075403846
 20
8.0982594449
 30
0.0
 10
12.4044420628
 20
8.0902190379
 30
0.0
 10
12.4014137144
 20
8.0816819814
 30
0.0
 10
12.3984627523
 20
8.0726689285
 30
0.0
 10
12.3955964085
 20
8.0632017129
 30
0.0
 10
12.39282171
 20
8.0533033044
 30
0.0
 10
12.3901454622
 20
8.0429977443
 30
0.0
 10
12.387574221
 20
8.0323100893
 30
0.0
 10
12.3851142822
 20
8.0212663424
 30
0.0
 10
12.3827716698
 20
8.0098933818
 30
0.0
 10
12.3805521205
 20
7.9982188941
 30
0.0
 10
12.3784610683
 20
7.9862713067
 30
0.0
 10
12.37650363
 20
7.9740797284
 30
0.0
 10
12.37468457
 20
7.9616738394
 30
0.0
 10
12.3724388039
 20
7.9448054932
 30
0.0
 10
12.3700125995
 20
7.9234081921
 30
0.0
 10
12.3677272487
 20
7.8974927291
 30
0.0
 10
12.3660764714
 20
7.8714669253
 30
0.0
 10
12.365076275
 20
7.8455843149
 30
0.0
 10
12.3648470201
 20
7.8284025317
 30
0.0
 10
12.3648470201
 20
7.8198809134
 30
0.0
  0
SPLINE
  5
3A5
100
AcDbEntity
  8
0
100
AcDbSpline
 62
7
  6
CONTINUOUS
 70
0
 71
3
 72
19
 73
15
 74
0
 42
0.0000001
 43
0.0000001
 44
0.0000000001
 40
0.0
 40
0.0
 40
0.0
 40
0.0
 40
0.1496627649
 40
0.2896711955
 40
0.4209836499
 40
0.5448409398
 40
0.6044657355
 40
0.6628177373
 40
0.7201285014
 40
0.7766439894
 40
0.8326215323
 40
0.8883268014
 40
0.9440296577
 40
1.0
 40
1.0
 40
1.0
 40
1.0
 10
10.3814618166
 20
10.2629678705
 30
0.0
 10
10.3803446432
 20
10.2618887639
 30
0.0
 10
10.378256277
 20
10.2597211472
 30
0.0
 10
10.3754999244
 20
10.2563236589
 30
0.0
 10
10.3732336022
 20
10.2528969608
 30
0.0
 10
10.3717386859
 20
10.2499827358
 30
0.0
 10
10.3708059561
 20
10.2476510885
 30
0.0
 10
10.3702400148
 20
10.2459207629
 30
0.0
 10
10.3697992725
 20
10.244187641
 30
0.0
 10
10.3694839155
 20
10.242452347
 30
0.0
 10
10.3692941807
 20
10.2407155916
 30
0.0
 10
10.3692301845
 20
10.238978069
 30
0.0
 10
10.3692919161
 20
10.2372406283
 30
0.0
 10
10.3694164285
 20
10.2360871908
 30
0.0
 10
10.3694991264
 20
10.2355122334
 30
0.0
  0
SPLINE
  5
3A6
100
AcDbEntity
  8
0
100
AcDbSpline
 62
7
  6
CONTINUOUS
 70
0
 71
3
 72
14
 73
10
 74
0
 42
0.0000001
 43
0.0000001
 44
0.0000000001
 40
0.0
 40
0.0
 40
0.0
 40
0.0
 40
0.1426701207
 40
0.2795731878
 40
0.5371651323
 40
0.6587201797
 40
0.7760154779
 40
0.8895793406
 40
1.0
 40
1.0
 40
1.0
 40
1.0
 10
10.3871200794
 20
10.2489152138
 30
0.0
 10
10.3864349543
 20
10.2482534337
 30
0.0
 10
10.3851212196
 20
10.2469260739
 30
0.0
 10
10.3827280277
 20
10.2442538367
 30
0.0
 10
10.3806346309
 20
10.2415051732
 30
0.0
 10
10.3788901196
 20
10.23868442
 30
0.0
 10
10.3777914449
 20
10.2366014231
 30
0.0
 10
10.376878122
 20
10.2345116719
 30
0.0
 10
10.3763872237
 20
10.2330970698
 30
0.0
 10
10.3761746574
 20
10.2323911466
 30
0.0
  0
SPLINE
  5
3A7
100
AcDbEntity
  8
0
100
AcDbSpline
 62
7
  6
CONTINUOUS
 70
0
 71
3
 72
21
 73
17
 74
0
 42
0.0000001
 43
0.0000001
 44
0.0000000001
 40
0.0
 40
0.0
 40
0.0
 40
0.0
 40
0.0616532317
 40
0.1233294843
 40
0.1850515407
 40
0.2468416642
 40
0.3087213449
 40
0.3707111025
 40
0.432830246
 40
0.4950966374
 40
0.5575265756
 40
0.6201345674
 40
0.6829331401
 40
0.7459332076
 40
0.8725262003
 40
1.0
 40
1.0
 40
1.0
 40
1.0
 10
9.7562793477
 20
8.6795560725
 30
0.0
 10
9.7547755907
 20
8.6781035534
 30
0.0
 10
9.7516887234
 20
8.6752782891
 30
0.0
 10
9.7468364184
 20
8.6712945539
 30
0.0
 10
9.7417734169
 20
8.6675741227
 30
0.0
 10
9.7365126251
 20
8.6641265664
 30
0.0
 10
9.7310672717
 20
8.6609605002
 30
0.0
 10
9.7254511013
 20
8.6580838848
 30
0.0
 10
9.7196782448
 20
8.6555039873
 30
0.0
 10
9.7137632581
 20
8.6532272882
 30
0.0
 10
9.7077210409
 20
8.6512594789
 30
0.0
 10
9.7015668524
 20
8.6496055299
 30
0.0
 10
9.6953160124
 20
8.6482695871
 30
0.0
 10
9.6868618087
 20
8.6469147561
 30
0.0
 10
9.6761263142
 20
8.6460345454
 30
0.0
 10
9.6674956239
 20
8.6462029823
 30
0.0
 10
9.6631832298
 20
8.6465020478
 30
0.0
  0
SPLINE
  5
3A8
100
AcDbEntity
  8
0
100
AcDbSpline
 62
7
  6
CONTINUOUS
 70
0
 71
3
 72
21
 73
17
 74
0
 42
0.0000001
 43
0.0000001
 44
0.0000000001
 40
0.0
 40
0.0
 40
0.0
 40
0.0
 40
0.0616532317
 40
0.1233294843
 40
0.1850515407
 40
0.2468416642
 40
0.3087213449
 40
0.3707111025
 40
0.432830246
 40
0.4950966374
 40
0.5575265756
 40
0.6201345674
 40
0.6829331401
 40
0.7459332076
 40
0.8725262003
 40
1.0
 40
1.0
 40
1.0
 40
1.0
 10
12.1710940565
 20
9.719495458
 30
0.0
 10
12.1695902995
 20
9.718042939
 30
0.0
 10
12.1665034322
 20
9.7152176747
 30
0.0
 10
12.1616511272
 20
9.7112339394
 30
0.0
 10
12.1565881257
 20
9.7075135083
 30
0.0
 10
12.1513273339
 20
9.7040659519
 30
0.0
 10
12.1458819805
 20
9.7008998858
 30
0.0
 10
12.1402658101
 20
9.6980232704
 30
0.0
 10
12.1344929536
 20
9.6954433728
 30
0.0
 10
12.1285779669
 20
9.6931666737
 30
0.0
 10
12.1225357497
 20
9.6911988645
 30
0.0
 10
12.1163815612
 20
9.6895449154
 30
0.0
 10
12.1101307212
 20
9.6882089726
 30
0.0
 10
12.1016765175
 20
9.6868541417
 30
0.0
 10
12.090941023
 20
9.685973931
 30
0.0
 10
12.0823103327
 20
9.6861423678
 30
0.0
 10
12.0779979387
 20
9.6864414334
 30
0.0
  0
SPLINE
  5
3A9
100
AcDbEntity
  8
0
100
AcDbSpline
 62
7
  6
CONTINUOUS
 70
0
 71
3
 72
53
 73
49
 74
0
 42
0.0000001
 43
0.0000001
 44
0.0000000001
 40
0.0
 40
0.0
 40
0.0
 40
0.0
 40
0.0417740747
 40
0.0840370059
 40
0.1266586015
 40
0.1695066206
 40
0.2124482643
 40
0.2553502464
 40
0.2980794728
 40
0.3405035203
 40
0.3824911749
 40
0.4239129577
 40
0.4646416591
 40
0.5045528794
 40
0.5435255803
 40
0.5814426526
 40
0.6181915072
 40
0.6536646981
 40
0.6877605949
 40
0.7203841254
 40
0.7361164043
 40
0.7514483531
 40
0.7663703757
 40
0.7808733967
 40
0.7949490545
 40
0.8085896209
 40
0.8217881625
 40
0.8345385373
 40
0.8468355031
 40
0.8586748197
 40
0.8700533035
 40
0.880969049
 40
0.8914214554
 40
0.9014115674
 40
0.9109421276
 40
0.9200180273
 40
0.9286464653
 40
0.9368374971
 40
0.9446043876
 40
0.9519642556
 40
0.9589386637
 40
0.9655543233
 40
0.9718438245
 40
0.977846199
 40
0.9836073748
 40
0.9891800477
 40
0.9946230782
 40
1.0
 40
1.0
 40
1.0
 40
1.0
 10
12.5718277702
 20
9.0605319333
 30
0.0
 10
12.5718277702
 20
9.0516703795
 30
0.0
 10
12.571689521
 20
9.0338432919
 30
0.0
 10
12.5710783425
 20
9.0069811634
 30
0.0
 10
12.5700639399
 20
8.9799032183
 30
0.0
 10
12.5686496344
 20
8.9526990756
 30
0.0
 10
12.5668401024
 20
8.9254587526
 30
0.0
 10
12.564641324
 20
8.8982723632
 30
0.0
 10
12.5620605835
 20
8.8712298531
 30
0.0
 10
12.5591064358
 20
8.8444206849
 30
0.0
 10
12.5557886821
 20
8.8179335453
 30
0.0
 10
12.5521183369
 20
8.7918560476
 30
0.0
 10
12.5481075918
 20
8.7662744399
 30
0.0
 10
12.5437697766
 20
8.7412733158
 30
0.0
 10
12.5391193154
 20
8.7169353311
 30
0.0
 10
12.5341716811
 20
8.6933409205
 30
0.0
 10
12.5289433429
 20
8.6705680407
 30
0.0
 10
12.5234517189
 20
8.6486918422
 30
0.0
 10
12.5177150966
 20
8.6277846233
 30
0.0
 10
12.5126874895
 20
8.6110301675
 30
0.0
 10
12.5085490597
 20
8.5981691359
 30
0.0
 10
12.5054335434
 20
8.5889245851
 30
0.0
 10
12.5022714005
 20
8.5799719546
 30
0.0
 10
12.4990651936
 20
8.5713186304
 30
0.0
 10
12.4958176195
 20
8.5629717478
 30
0.0
 10
12.4925313404
 20
8.5549381921
 30
0.0
 10
12.4892090968
 20
8.5472245768
 30
0.0
 10
12.4858536289
 20
8.5398372504
 30
0.0
 10
12.4824677074
 20
8.5327822844
 30
0.0
 10
12.4790541403
 20
8.5260654625
 30
0.0
 10
12.4756157118
 20
8.5196922929
 30
0.0
 10
12.4721552801
 20
8.5136679686
 30
0.0
 10
12.4686756261
 20
8.5079974139
 30
0.0
 10
12.465179627
 20
8.5026852093
 30
0.0
 10
12.4616700413
 20
8.4977356764
 30
0.0
 10
12.4581497162
 20
8.493152773
 30
0.0
 10
12.4546213588
 20
8.4889402072
 30
0.0
 10
12.4510877179
 20
8.4851013308
 30
0.0
 10
12.4475514029
 20
8.4816392577
 30
0.0
 10
12.4440149893
 20
8.4785568084
 30
0.0
 10
12.4404809436
 20
8.4758565973
 30
0.0
 10
12.4369516462
 20
8.4735410935
 30
0.0
 10
12.4334294833
 20
8.4716126236
 30
0.0
 10
12.4299168384
 20
8.4700735727
 30
0.0
 10
12.4264164418
 20
8.4689261728
 30
0.0
 10
12.422931158
 20
8.4681727303
 30
0.0
 10
12.4194652342
 20
8.4678149639
 30
0.0
 10
12.4171641514
 20
8.4678412695
 30
0.0
 10
12.4160262756
 20
8.4679201838
 30
0.0
  0
SPLINE
  5
3AA
100
AcDbEntity
  8
0
100
AcDbSpline
 62
7
  6
CONTINUOUS
 70
0
 71
3
 72
42
 73
38
 74
0
 42
0.0000001
 43
0.0000001
 44
0.0000000001
 40
0.0
 40
0.0
 40
0.0
 40
0.0
 40
0.0311443913
 40
0.046777235
 40
0.0624471551
 40
0.0938918204
 40
0.1254739599
 40
0.1571813338
 40
0.1889991892
 40
0.2209105811
 40
0.2528967256
 40
0.2849373804
 40
0.3170112458
 40
0.3490963805
 40
0.3811706262
 40
0.413212034
 40
0.44519929
 40
0.47711213
 40
0.508931742
 40
0.5406411461
 40
0.5722255491
 40
0.6036726649
 40
0.634972994
 40
0.6661200568
 40
0.6971105715
 40
0.727944571
 40
0.7586254529
 40
0.7891599555
 40
0.8195580589
 40
0.8498328057
 40
0.8649315687
 40
0.8800056542
 40
0.9100837089
 40
0.940092975
 40
0.9550815001
 40
0.9700611853
 40
1.0
 40
1.0
 40
1.0
 40
1.0
 10
12.0779979387
 20
9.6864414334
 30
0.0
 10
12.074837293
 20
9.6866606249
 30
0.0
 10
12.0700998876
 20
9.6871632359
 30
0.0
 10
12.0638271433
 20
9.6881732738
 30
0.0
 10
12.0575643561
 20
9.6894132907
 30
0.0
 10
12.0497986157
 20
9.6913881343
 30
0.0
 10
12.0406424986
 20
9.6944193558
 30
0.0
 10
12.0316858648
 20
9.6980987469
 30
0.0
 10
12.0229767405
 20
9.7024065684
 30
0.0
 10
12.014561454
 20
9.7073198149
 30
0.0
 10
12.0064848647
 20
9.7128122488
 30
0.0
 10
11.9987899998
 20
9.7188545638
 30
0.0
 10
11.991517862
 20
9.7254145335
 30
0.0
 10
11.9847072043
 20
9.7324571836
 30
0.0
 10
11.978394328
 20
9.7399449762
 30
0.0
 10
11.9726128906
 20
9.747838008
 30
0.0
 10
11.9673937278
 20
9.7560942209
 30
0.0
 10
11.9627646909
 20
9.7646696232
 30
0.0
 10
11.9587504989
 20
9.773518522
 30
0.0
 10
11.955372607
 20
9.7825937628
 30
0.0
 10
11.9526490924
 20
9.7918469785
 30
0.0
 10
11.9505945572
 20
9.8012288428
 30
0.0
 10
11.9492200487
 20
9.8106893301
 30
0.0
 10
11.9485329985
 20
9.8201779792
 30
0.0
 10
11.9485371786
 20
9.8296441563
 30
0.0
 10
11.9492326814
 20
9.8390373325
 30
0.0
 10
11.9506158966
 20
9.8483073143
 30
0.0
 10
11.9526795896
 20
9.8574046482
 30
0.0
 10
11.9554126938
 20
9.8662803759
 30
0.0
 10
11.9582391611
 20
9.873460329
 30
0.0
 10
11.9608185047
 20
9.879043833
 30
0.0
 10
11.9636020477
 20
9.8845059644
 30
0.0
 10
11.9674669035
 20
9.8911126679
 30
0.0
 10
11.9718288055
 20
9.8973917683
 30
0.0
 10
11.9755981685
 20
9.9021913284
 30
0.0
 10
11.9795472945
 20
9.9068342691
 30
0.0
 10
11.9827112622
 20
9.9101396265
 30
0.0
 10
11.9849018208
 20
9.9122555455
 30
0.0
  0
SPLINE
  5
3AB
100
AcDbEntity
  8
0
100
AcDbSpline
 62
7
  6
CONTINUOUS
 70
0
 71
3
 72
83
 73
79
 74
0
 42
0.0000001
 43
0.0000001
 44
0.0000000001
 40
0.0
 40
0.0
 40
0.0
 40
0.0
 40
0.0040142996
 40
0.0081959991
 40
0.0125493765
 40
0.0170780492
 40
0.0217850819
 40
0.0266729152
 40
0.0317432411
 40
0.036997223
 40
0.0424355608
 40
0.0480584958
 40
0.0538659434
 40
0.0598574028
 40
0.0723883694
 40
0.0856421632
 40
0.0996049452
 40
0.1142594201
 40
0.1295852564
 40
0.1455594508
 40
0.1621566257
 40
0.1793492677
 40
0.1971079236
 40
0.2154013703
 40
0.2341967943
 40
0.2534599397
 40
0.2731552414
 40
0.2932459409
 40
0.3136942134
 40
0.3344612946
 40
0.3555075923
 40
0.3767927934
 40
0.4199148982
 40
0.4634956432
 40
0.5071976222
 40
0.5506822167
 40
0.5936129776
 40
0.6147673825
 40
0.6356598951
 40
0.6562505932
 40
0.6765003346
 40
0.6963708815
 40
0.7158250086
 40
0.7348266173
 40
0.7533408593
 40
0.7713342791
 40
0.7887749623
 40
0.8056326759
 40
0.8218790356
 40
0.8374877012
 40
0.8524346214
 40
0.8666982877
 40
0.8802600446
 40
0.8931044839
 40
0.9052199568
 40
0.916599236
 40
0.9220123506
 40
0.927241164
 40
0.9322864622
 40
0.9371494938
 40
0.941832036
 40
0.9463365321
 40
0.9506660528
 40
0.9548244924
 40
0.9588166118
 40
0.9626481289
 40
0.966325923
 40
0.9698580553
 40
0.9732539776
 40
0.9765246247
 40
0.9796824768
 40
0.9827416837
 40
0.9857179836
 40
0.9886286513
 40
0.9914922951
 40
0.9943285357
 40
0.9971576308
 40
1.0
 40
1.0
 40
1.0
 40
1.0
 10
10.3814618166
 20
10.2629678705
 30
0.0
 10
10.382181017
 20
10.2636625648
 30
0.0
 10
10.383682517
 20
10.265046973
 30
0.0
 10
10.3860680137
 20
10.2670683057
 30
0.0
 10
10.3886306804
 20
10.2690749438
 30
0.0
 10
10.3913690745
 20
10.2710657477
 30
0.0
 10
10.3942817964
 20
10.2730397878
 30
0.0
 10
10.3973674068
 20
10.274996059
 30
0.0
 10
10.400624322
 20
10.2769336196
 30
0.0
 10
10.4040508775
 20
10.2788514587
 30
0.0
 10
10.4076453158
 20
10.2807485749
 30
0.0
 10
10.411405774
 20
10.2826240263
 30
0.0
 10
10.4153303405
 20
10.2844768274
 30
0.0
 10
10.4208621814
 20
10.2869528532
 30
0.0
 10
10.4281788387
 20
10.2899771413
 30
0.0
 10
10.4374526514
 20
10.2934488687
 30
0.0
 10
10.4473280674
 20
10.2968081929
 30
0.0
 10
10.4577846906
 20
10.3000481085
 30
0.0
 10
10.4688010283
 20
10.3031618605
 30
0.0
 10
10.4803543339
 20
10.3061429457
 30
0.0
 10
10.4924207323
 20
10.3089851321
 30
0.0
 10
10.5049752581
 20
10.3116824739
 30
0.0
 10
10.5179919114
 20
10.3142293273
 30
0.0
 10
10.5314437126
 20
10.316620373
 30
0.0
 10
10.5453027673
 20
10.3188506139
 30
0.0
 10
10.5595403296
 20
10.3209153889
 30
0.0
 10
10.5741268611
 20
10.3228103797
 30
0.0
 10
10.5890320889
 20
10.3245316282
 30
0.0
 10
10.6042250737
 20
10.3260755452
 30
0.0
 10
10.6196742676
 20
10.3274389021
 30
0.0
 10
10.6353476234
 20
10.3286188714
 30
0.0
 10
10.65659212
 20
10.3299499781
 30
0.0
 10
10.6834677227
 20
10.3311347994
 30
0.0
 10
10.7159466574
 20
10.331791106
 30
0.0
 10
10.7485224527
 20
10.3316822982
 30
0.0
 10
10.7809246653
 20
10.3308093202
 30
0.0
 10
10.8076874542
 20
10.3294446882
 30
0.0
 10
10.8288037048
 20
10.3279709002
 30
0.0
 10
10.8443536371
 20
10.3266863712
 30
0.0
 10
10.8596611161
 20
10.3252200256
 30
0.0
 10
10.8746943871
 20
10.3235748998
 30
0.0
 10
10.8894222378
 20
10.3217544391
 30
0.0
 10
10.9038141047
 20
10.3197624459
 30
0.0
 10
10.9178401223
 20
10.317603082
 30
0.0
 10
10.9314711902
 20
10.3152808554
 30
0.0
 10
10.9446790387
 20
10.3128006187
 30
0.0
 10
10.9574362918
 20
10.3101675616
 30
0.0
 10
10.9697165223
 20
10.3073871901
 30
0.0
 10
10.9814943059
 20
10.3044653174
 30
0.0
 10
10.9927452833
 20
10.3014080469
 30
0.0
 10
11.0034462213
 20
10.2982217717
 30
0.0
 10
11.0135750744
 20
10.2949131472
 30
0.0
 10
11.0231110085
 20
10.291489072
 30
0.0
 10
11.0320345447
 20
10.2879566487
 30
0.0
 10
11.0403273212
 20
10.284323199
 30
0.0
 10
11.0468022037
 20
10.2811668854
 30
0.0
 10
11.0516453293
 20
10.2785905331
 30
0.0
 10
11.0550487987
 20
10.2766699261
 30
0.0
 10
11.0582823981
 20
10.2747297555
 30
0.0
 10
11.06134448
 20
10.2727709846
 30
0.0
 10
11.0642334619
 20
10.2707945809
 30
0.0
 10
11.0669478955
 20
10.2688015783
 30
0.0
 10
11.0694863725
 20
10.2667929257
 30
0.0
 10
11.0718476076
 20
10.2647696286
 30
0.0
 10
11.0740304026
 20
10.2627326785
 30
0.0
 10
11.0760335949
 20
10.2606830086
 30
0.0
 10
11.0778561751
 20
10.2586216296
 30
0.0
 10
11.079497127
 20
10.2565494609
 30
0.0
 10
11.0809555314
 20
10.2544674644
 30
0.0
 10
11.0822305477
 20
10.2523766176
 30
0.0
 10
11.0833212871
 20
10.2502778628
 30
0.0
 10
11.0842270312
 20
10.2481722601
 30
0.0
 10
11.0849470141
 20
10.2460608763
 30
0.0
 10
11.0854805742
 20
10.2439448887
 30
0.0
 10
11.0858272323
 20
10.2418256002
 30
0.0
 10
11.0859865157
 20
10.2397043149
 30
0.0
 10
11.0859583421
 20
10.2375826847
 30
0.0
 10
11.0858151993
 20
10.236175115
 30
0.0
 10
11.0857133201
 20
10.2354744756
 30
0.0
  0
SPLINE
  5
3AC
100
AcDbEntity
  8
0
100
AcDbSpline
 62
7
  6
CONTINUOUS
 70
0
 71
3
 72
96
 73
92
 74
0
 42
0.0000001
 43
0.0000001
 44
0.0000000001
 40
0.0
 40
0.0
 40
0.0
 40
0.0
 40
0.0041939212
 40
0.0085762269
 40
0.0131520052
 40
0.0179255503
 40
0.0229003895
 40
0.0280791136
 40
0.0334634798
 40
0.039054619
 40
0.0448530484
 40
0.0508588136
 40
0.0570714162
 40
0.0634899855
 40
0.0701132151
 40
0.0769394762
 40
0.0911924427
 40
0.1062302232
 40
0.1220294549
 40
0.1385631627
 40
0.1558011854
 40
0.173710526
 40
0.1922556446
 40
0.2113987132
 40
0.2310998404
 40
0.2513172756
 40
0.2720075971
 40
0.2931258893
 40
0.3146259101
 40
0.3364602548
 40
0.358580515
 40
0.380937433
 40
0.4034810543
 40
0.4261608786
 40
0.4489260088
 40
0.4717253002
 40
0.4945075089
 40
0.5172214402
 40
0.5398160978
 40
0.5622408322
 40
0.5844454903
 40
0.6063805658
 40
0.6279973504
 40
0.649248088
 40
0.6700861315
 40
0.6904661036
 40
0.7103440641
 40
0.7296776851
 40
0.7484264339
 40
0.7665517712
 40
0.7840173684
 40
0.8007893512
 40
0.8168365781
 40
0.8321309695
 40
0.8466479033
 40
0.8536084389
 40
0.8603672363
 40
0.8669224108
 40
0.8732724521
 40
0.8794161948
 40
0.8853528766
 40
0.891082198
 40
0.8966043145
 40
0.9019199826
 40
0.9070305141
 40
0.9119379754
 40
0.9166451634
 40
0.9211558052
 40
0.925474617
 40
0.9296074706
 40
0.9335615598
 40
0.9373455271
 40
0.9409697129
 40
0.9444462457
 40
0.9477892864
 40
0.9510150553
 40
0.9541419228
 40
0.9571902809
 40
0.9601823275
 40
0.9631416685
 40
0.9660927703
 40
0.969060322
 40
0.9720685748
 40
0.9751407156
 40
0.9782983924
 40
0.981561316
 40
0.9849471178
 40
0.9884713701
 40
0.9921476423
 40
0.9959874147
 40
1.0
 40
1.0
 40
1.0
 40
1.0
 10
10.3354430571
 20
10.3121780418
 30
0.0
 10
10.3363218753
 20
10.3130269151
 30
0.0
 10
10.3381626868
 20
10.3147180011
 30
0.0
 10
10.3410985699
 20
10.3171818782
 30
0.0
 10
10.3442668744
 20
10.3196261713
 30
0.0
 10
10.3476655417
 20
10.3220493678
 30
0.0
 10
10.3512926183
 20
10.3244501138
 30
0.0
 10
10.3551459789
 20
10.3268270395
 30
0.0
 10
10.3592233439
 20
10.3291787625
 30
0.0
 10
10.3635222993
 20
10.3315038523
 30
0.0
 10
10.3680402729
 20
10.3338009744
 30
0.0
 10
10.3727745936
 20
10.3360687135
 30
0.0
 10
10.3777224241
 20
10.3383057656
 30
0.0
 10
10.3828808195
 20
10.3405107398
 30
0.0
 10
10.3882466922
 20
10.3426823671
 30
0.0
 10
10.395782331
 20
10.3455732751
 30
0.0
 10
10.4057033886
 20
10.3490851804
 30
0.0
 10
10.4182169867
 20
10.3530878232
 30
0.0
 10
10.4314746255
 20
10.3569275413
 30
0.0
 10
10.4454444952
 20
10.3605950304
 30
0.0
 10
10.4600931946
 20
10.3640813918
 30
0.0
 10
10.47538559
 20
10.3673781642
 30
0.0
 10
10.4912849786
 20
10.3704773462
 30
0.0
 10
10.5077531655
 20
10.373371417
 30
0.0
 10
10.5247505665
 20
10.3760533554
 30
0.0
 10
10.5422363067
 20
10.3785166565
 30
0.0
 10
10.5601683229
 20
10.3807553474
 30
0.0
 10
10.5785034662
 20
10.382764001
 30
0.0
 10
10.5971976087
 20
10.3845377499
 30
0.0
 10
10.6162057515
 20
10.3860722971
 30
0.0
 10
10.6354821347
 20
10.387363926
 30
0.0
 10
10.6549803488
 20
10.3884095084
 30
0.0
 10
10.6746534476
 20
10.3892065125
 30
0.0
 10
10.6944540614
 20
10.3897530084
 30
0.0
 10
10.714334512
 20
10.3900476728
 30
0.0
 10
10.7342469277
 20
10.390089792
 30
0.0
 10
10.7541433592
 20
10.3898792633
 30
0.0
 10
10.7739758958
 20
10.3894165965
 30
0.0
 10
10.7936967818
 20
10.3887029124
 30
0.0
 10
10.8132585317
 20
10.3877399392
 30
0.0
 10
10.8326140453
 20
10.3865300091
 30
0.0
 10
10.8517167222
 20
10.3850760522
 30
0.0
 10
10.8705205738
 20
10.3833815902
 30
0.0
 10
10.8889803356
 20
10.3814507279
 30
0.0
 10
10.9070515773
 20
10.3792881436
 30
0.0
 10
10.9246908111
 20
10.3768990785
 30
0.0
 10
10.9418555994
 20
10.3742893244
 30
0.0
 10
10.9585046594
 20
10.371465211
 30
0.0
 10
10.974597966
 20
10.3684335893
 30
0.0
 10
10.9900968501
 20
10.3652018158
 30
0.0
 10
11.0049641026
 20
10.3617777341
 30
0.0
 10
11.0191640525
 20
10.3581696544
 30
0.0
 10
11.0326627264
 20
10.3543863342
 30
0.0
 10
11.0454277199
 20
10.3504369401
 30
0.0
 10
11.0555657982
 20
10.3469685196
 30
0.0
 10
11.0632801836
 20
10.3441109497
 30
0.0
 10
11.0687826023
 20
10.3419623146
 30
0.0
 10
11.0740796653
 20
10.3397794325
 30
0.0
 10
11.0791682131
 20
10.3375636156
 30
0.0
 10
11.0840452012
 20
10.3353161917
 30
0.0
 10
11.0887077145
 20
10.3330384956
 30
0.0
 10
11.093152983
 20
10.3307319134
 30
0.0
 10
11.0973783473
 20
10.3283977776
 30
0.0
 10
11.1013813182
 20
10.3260375205
 30
0.0
 10
11.1051595013
 20
10.3236524775
 30
0.0
 10
11.1087106872
 20
10.3212440947
 30
0.0
 10
11.1120327593
 20
10.3188137225
 30
0.0
 10
11.1151237739
 20
10.3163627802
 30
0.0
 10
11.1179819012
 20
10.3138926378
 30
0.0
 10
11.1206054366
 20
10.3114046557
 30
0.0
 10
11.1229928283
 20
10.3089002132
 30
0.0
 10
11.1251425688
 20
10.3063806031
 30
0.0
 10
11.1270533403
 20
10.3038472001
 30
0.0
 10
11.1287237813
 20
10.3013012696
 30
0.0
 10
11.1301527256
 20
10.298744204
 30
0.0
 10
11.1313389317
 20
10.29617736
 30
0.0
 10
11.1322813274
 20
10.2936022609
 30
0.0
 10
11.1329788737
 20
10.2910205356
 30
0.0
 10
11.1334307014
 20
10.2884340024
 30
0.0
 10
11.1336362347
 20
10.2858446502
 30
0.0
 10
11.1335951032
 20
10.2832545837
 30
0.0
 10
11.1333074614
 20
10.280665939
 30
0.0
 10
11.1327736207
 20
10.2780808019
 30
0.0
 10
11.1319943809
 20
10.2755010826
 30
0.0
 10
11.1309705781
 20
10.2729285647
 30
0.0
 10
11.1297033417
 20
10.2703648242
 30
0.0
 10
11.1281937911
 20
10.2678113243
 30
0.0
 10
11.1264430974
 20
10.2652694222
 30
0.0
 10
11.1244524789
 20
10.2627404047
 30
0.0
 10
11.1222233783
 20
10.2602257652
 30
0.0
 10
11.1206156697
 20
10.2585966171
 30
0.0
 10
11.1197748496
 20
10.2577844473
 30
0.0
  0
SPLINE
  5
3AD
100
AcDbEntity
  8
0
100
AcDbSpline
 62
7
  6
CONTINUOUS
 70
0
 71
3
 72
49
 73
45
 74
0
 42
0.0000001
 43
0.0000001
 44
0.0000000001
 40
0.0
 40
0.0
 40
0.0
 40
0.0
 40
0.0063158739
 40
0.0126706599
 40
0.0191024896
 40
0.0256480301
 40
0.0323419112
 40
0.039216248
 40
0.0536140773
 40
0.06119479
 40
0.0690565573
 40
0.0772176635
 40
0.0856940531
 40
0.0944994572
 40
0.1036455587
 40
0.1131423452
 40
0.122998104
 40
0.1332197191
 40
0.1438128355
 40
0.1547818436
 40
0.1661302067
 40
0.1778604088
 40
0.1899740704
 40
0.2024721524
 40
0.215354813
 40
0.2422706486
 40
0.2707129033
 40
0.3006638566
 40
0.3320991037
 40
0.3649883645
 40
0.3992962141
 40
0.4349826582
 40
0.4720035847
 40
0.5103111049
 40
0.5498539072
 40
0.5905775763
 40
0.6324248432
 40
0.6753357844
 40
0.7192480525
 40
0.764097054
 40
0.809816243
 40
0.856337252
 40
0.9035893524
 40
1.0
 40
1.0
 40
1.0
 40
1.0
 10
12.4817513749
 20
9.4156438648
 30
0.0
 10
12.4825542131
 20
9.4155881861
 30
0.0
 10
12.4841610428
 20
9.4154107784
 30
0.0
 10
12.4865532746
 20
9.4149483256
 30
0.0
 10
12.4889295207
 20
9.4142896031
 30
0.0
 10
12.4912883863
 20
9.4134351032
 30
0.0
 10
12.493628938
 20
9.4123853102
 30
0.0
 10
12.4967716896
 20
9.4107006404
 30
0.0
 10
12.499829072
 20
9.4086383122
 30
0.0
 10
12.502787865
 20
9.4062484325
 30
0.0
 10
12.5050227269
 20
9.4042334542
 30
0.0
 10
12.5072337481
 20
9.402028085
 30
0.0
 10
12.509420339
 20
9.3996330731
 30
0.0
 10
12.5115816081
 20
9.3970494594
 30
0.0
 10
12.5137167922
 20
9.3942783134
 30
0.0
 10
12.5158250245
 20
9.3913207387
 30
0.0
 10
12.5179055176
 20
9.3881779547
 30
0.0
 10
12.5199574532
 20
9.3848512329
 30
0.0
 10
12.5219799893
 20
9.3813419088
 30
0.0
 10
12.5239723575
 20
9.3776514261
 30
0.0
 10
12.5259337236
 20
9.3737812705
 30
0.0
 10
12.5278633019
 20
9.369733022
 30
0.0
 10
12.5297603227
 20
9.3655083394
 30
0.0
 10
12.531623994
 20
9.3611089286
 30
0.0
 10
12.534099635
 20
9.3549218513
 30
0.0
 10
12.537097375
 20
9.3467575263
 30
0.0
 10
12.5404992333
 20
9.3364316602
 30
0.0
 10
12.5437506538
 20
9.325455606
 30
0.0
 10
12.5468462498
 20
9.3138473681
 30
0.0
 10
12.549780892
 20
9.3016258699
 30
0.0
 10
12.552549703
 20
9.2888111408
 30
0.0
 10
12.5551480729
 20
9.2754241995
 30
0.0
 10
12.5575716668
 20
9.2614870368
 30
0.0
 10
12.5598164492
 20
9.2470225748
 30
0.0
 10
12.5618786836
 20
9.2320546241
 30
0.0
 10
12.5637549327
 20
9.2166078341
 30
0.0
 10
12.5654420647
 20
9.2007076521
 30
0.0
 10
12.5669372677
 20
9.1843802831
 30
0.0
 10
12.5682380532
 20
9.1676526508
 30
0.0
 10
12.5693422559
 20
9.1505523338
 30
0.0
 10
12.5702480253
 20
9.1331075339
 30
0.0
 10
12.5709538575
 20
9.1153470372
 30
0.0
 10
12.5716312695
 20
9.0911229681
 30
0.0
 10
12.5718277702
 20
9.0728165466
 30
0.0
 10
12.5718277702
 20
9.0605319333
 30
0.0
  0
SPLINE
  5
3AE
100
AcDbEntity
  8
0
100
AcDbSpline
 62
7
  6
CONTINUOUS
 70
0
 71
3
 72
78
 73
74
 74
0
 42
0.0000001
 43
0.0000001
 44
0.0000000001
 40
0.0
 40
0.0
 40
0.0
 40
0.0
 40
0.0039089943
 40
0.0079745074
 40
0.0122004264
 40
0.0165900509
 40
0.0211462103
 40
0.0258712084
 40
0.0307667061
 40
0.0358338493
 40
0.0410734028
 40
0.0464857013
 40
0.0578277861
 40
0.0698572393
 40
0.0825662463
 40
0.0959433832
 40
0.1099740741
 40
0.124641015
 40
0.1399244998
 40
0.1558026687
 40
0.1722516955
 40
0.1892459968
 40
0.2067584014
 40
0.2247602842
 40
0.2432216722
 40
0.2621113828
 40
0.281397143
 40
0.3010456865
 40
0.3210228373
 40
0.3412936219
 40
0.3618223694
 40
0.4035073627
 40
0.4457825436
 40
0.4883463861
 40
0.5308946879
 40
0.5731233913
 40
0.6147313992
 40
0.6352104329
 40
0.6554241671
 40
0.6753370695
 40
0.6949143273
 40
0.7141219375
 40
0.7329268211
 40
0.7512969253
 40
0.7692013124
 40
0.7866102685
 40
0.8034954448
 40
0.8198299904
 40
0.8355886756
 40
0.850748053
 40
0.8652866715
 40
0.8791853023
 40
0.8924271807
 40
0.9049983321
 40
0.9168880102
 40
0.9280892266
 40
0.9334310001
 40
0.9386001116
 40
0.9435970705
 40
0.9484228256
 40
0.9530787143
 40
0.957566623
 40
0.961888985
 40
0.9660488254
 40
0.9700499298
 40
0.9738968243
 40
0.9775949276
 40
0.9811506698
 40
0.9845715221
 40
0.9878661922
 40
0.9941148889
 40
0.9970964139
 40
1.0
 40
1.0
 40
1.0
 40
1.0
 10
10.3871200794
 20
10.2489152138
 30
0.0
 10
10.3877990014
 20
10.2495710021
 30
0.0
 10
10.3892139987
 20
10.2508780985
 30
0.0
 10
10.3914575378
 20
10.2527886231
 30
0.0
 10
10.3938619582
 20
10.2546859086
 30
0.0
 10
10.3964260098
 20
10.2565689394
 30
0.0
 10
10.3991484696
 20
10.2584369046
 30
0.0
 10
10.4020280988
 20
10.2602889296
 30
0.0
 10
10.4050635421
 20
10.2621241835
 30
0.0
 10
10.4082533576
 20
10.2639418028
 30
0.0
 10
10.4115960497
 20
10.2657409072
 30
0.0
 10
10.4163288157
 20
10.2681516183
 30
0.0
 10
10.422622682
 20
10.271105684
 30
0.0
 10
10.4306444139
 20
10.2745101604
 30
0.0
 10
10.4392339551
 20
10.2778209788
 30
0.0
 10
10.4483749737
 20
10.2810317932
 30
0.0
 10
10.4580502046
 20
10.284136457
 30
0.0
 10
10.4682412609
 20
10.2871290006
 30
0.0
 10
10.4789287553
 20
10.2900036598
 30
0.0
 10
10.4900923185
 20
10.2927548865
 30
0.0
 10
10.5017106415
 20
10.2953773833
 30
0.0
 10
10.5137615268
 20
10.2978660966
 30
0.0
 10
10.5262219407
 20
10.3002162269
 30
0.0
 10
10.5390680548
 20
10.302423237
 30
0.0
 10
10.5522752881
 20
10.3044828788
 30
0.0
 10
10.5658183603
 20
10.3063911869
 30
0.0
 10
10.5796713462
 20
10.3081444836
 30
0.0
 10
10.5938077248
 20
10.3097393863
 30
0.0
 10
10.6082004175
 20
10.3111728237
 30
0.0
 10
10.6228218799
 20
10.3124420574
 30
0.0
 10
10.6426853722
 20
10.3139195649
 30
0.0
 10
10.6678797259
 20
10.315334374
 30
0.0
 10
10.6984181941
 20
10.3163390206
 30
0.0
 10
10.7291801096
 20
10.3166510648
 30
0.0
 10
10.7599300037
 20
10.3162681505
 30
0.0
 10
10.7904324987
 20
10.3151931862
 30
0.0
 10
10.8155816399
 20
10.3137201257
 30
0.0
 10
10.8353971501
 20
10.3121965014
 30
0.0
 10
10.8499741896
 20
10.3108935431
 30
0.0
 10
10.8643167962
 20
10.309426919
 30
0.0
 10
10.8783975238
 20
10.3077994342
 30
0.0
 10
10.8921893998
 20
10.3060142214
 30
0.0
 10
10.905666019
 20
10.304074719
 30
0.0
 10
10.9188015859
 20
10.301984669
 30
0.0
 10
10.9315709613
 20
10.2997480988
 30
0.0
 10
10.9439497116
 20
10.2973693127
 30
0.0
 10
10.9559141635
 20
10.2948528966
 30
0.0
 10
10.967441453
 20
10.2922037079
 30
0.0
 10
10.9785095637
 20
10.2894268546
 30
0.0
 10
10.9890973722
 20
10.2865276836
 30
0.0
 10
10.9991847003
 20
10.2835117813
 30
0.0
 10
11.0087523683
 20
10.2803849606
 30
0.0
 10
11.0177822076
 20
10.2771532343
 30
0.0
 10
11.0262571766
 20
10.2738227844
 30
0.0
 10
11.0341611664
 20
10.2703999834
 30
0.0
 10
11.040354164
 20
10.2674309467
 30
0.0
 10
11.0450045509
 20
10.2650088905
 30
0.0
 10
11.0482850331
 20
10.2632021243
 30
0.0
 10
11.0514120161
 20
10.2613772028
 30
0.0
 10
11.0543840428
 20
10.2595349996
 30
0.0
 10
11.0571996899
 20
10.2576763463
 30
0.0
 10
11.0598576386
 20
10.255802126
 30
0.0
 10
11.0623566456
 20
10.2539132166
 30
0.0
 10
11.0646955077
 20
10.2520104469
 30
0.0
 10
11.0668731498
 20
10.2500947175
 30
0.0
 10
11.0688885234
 20
10.2481668703
 30
0.0
 10
11.0707406618
 20
10.2462277263
 30
0.0
 10
11.0724286619
 20
10.2442782345
 30
0.0
 10
11.073951769
 20
10.2423189489
 30
0.0
 10
11.0757298449
 20
10.239741105
 30
0.0
 10
11.0772201802
 20
10.2370971892
 30
0.0
 10
11.0783788562
 20
10.2344037745
 30
0.0
 10
11.0788423821
 20
10.2330585915
 30
0.0
 10
11.0790444382
 20
10.2323871934
 30
0.0
  0
SPLINE
  5
3AF
100
AcDbEntity
  8
0
100
AcDbSpline
 62
7
  6
CONTINUOUS
 70
0
 71
3
 72
53
 73
49
 74
0
 42
0.0000001
 43
0.0000001
 44
0.0000000001
 40
0.0
 40
0.0
 40
0.0
 40
0.0
 40
0.0417740478
 40
0.0840369835
 40
0.1266585592
 40
0.1695065657
 40
0.2124481957
 40
0.2553501644
 40
0.2980793779
 40
0.3405034127
 40
0.3824910553
 40
0.4239128269
 40
0.4646415185
 40
0.5045527309
 40
0.5435254266
 40
0.5814424966
 40
0.6181913512
 40
0.6536645436
 40
0.6877604426
 40
0.7203839756
 40
0.7361162401
 40
0.7514482063
 40
0.7663702194
 40
0.7808732533
 40
0.7949489098
 40
0.808589482
 40
0.8217880323
 40
0.8345384043
 40
0.8468353889
 40
0.8586746951
 40
0.8700532057
 40
0.8809689358
 40
0.8914213732
 40
0.9014114696
 40
0.9109420597
 40
0.9200179488
 40
0.9286464106
 40
0.9368374402
 40
0.9446043453
 40
0.9519642202
 40
0.9589386335
 40
0.9655543067
 40
0.9718438059
 40
0.9778461959
 40
0.9836073668
 40
0.9891800504
 40
0.9946230772
 40
1.0
 40
1.0
 40
1.0
 40
1.0
 10
12.5627691111
 20
7.9950589834
 30
0.0
 10
12.5627691111
 20
7.9868503928
 30
0.0
 10
12.5626410486
 20
7.9703368872
 30
0.0
 10
12.5620749056
 20
7.9454540859
 30
0.0
 10
12.561135249
 20
7.9203713675
 30
0.0
 10
12.559825157
 20
7.8951717538
 30
0.0
 10
12.5581489604
 20
7.8699386245
 30
0.0
 10
12.556112199
 20
7.8447554547
 30
0.0
 10
12.5537216203
 20
7.8197055623
 30
0.0
 10
12.5509851489
 20
7.7948718179
 30
0.0
 10
12.5479118638
 20
7.7703363732
 30
0.0
 10
12.5445119679
 20
7.7461803856
 30
0.0
 10
12.5407967546
 20
7.7224837478
 30
0.0
 10
12.5367785715
 20
7.6993248197
 30
0.0
 10
12.5324707801
 20
7.6767801664
 30
0.0
 10
12.527887713
 20
7.6549242957
 30
0.0
 10
12.5230446253
 20
7.6338294204
 30
0.0
 10
12.5179576528
 20
7.6135651537
 30
0.0
 10
12.512643731
 20
7.5941984685
 30
0.0
 10
12.5079865908
 20
7.5786785526
 30
0.0
 10
12.504153087
 20
7.5667651806
 30
0.0
 10
12.5012671502
 20
7.5582018051
 30
0.0
 10
12.4983379979
 20
7.5499088426
 30
0.0
 10
12.495368049
 20
7.5418931288
 30
0.0
 10
12.4923597666
 20
7.5341612787
 30
0.0
 10
12.4893156379
 20
7.5267196665
 30
0.0
 10
12.4862381966
 20
7.5195744193
 30
0.0
 10
12.4831299678
 20
7.5127314211
 30
0.0
 10
12.4799935501
 20
7.5061962875
 30
0.0
 10
12.4768314939
 20
7.4999743907
 30
0.0
 10
12.4736464464
 20
7.4940708115
 30
0.0
 10
12.4704409717
 20
7.4884903893
 30
0.0
 10
12.4672177413
 20
7.4832376488
 30
0.0
 10
12.4639793173
 20
7.4783168768
 30
0.0
 10
12.4607283602
 20
7.473732027
 30
0.0
 10
12.4574674061
 20
7.4694868181
 30
0.0
 10
12.454199054
 20
7.4655846326
 30
0.0
 10
12.450925774
 20
7.4620286236
 30
0.0
 10
12.4476500397
 20
7.4588216365
 30
0.0
 10
12.4443742032
 20
7.4559663083
 30
0.0
 10
12.4411005587
 20
7.4534650569
 30
0.0
 10
12.4378313251
 20
7.451320147
 30
0.0
 10
12.4345686787
 20
7.449533788
 30
0.0
 10
12.431314876
 20
7.4481080993
 30
0.0
 10
12.4280723907
 20
7.4470452753
 30
0.0
 10
12.4248439293
 20
7.446347291
 30
0.0
 10
12.4216333842
 20
7.4460159283
 30
0.0
 10
12.4195018564
 20
7.4460402496
 30
0.0
 10
12.418447824
 20
7.4461133472
 30
0.0
  0
SPLINE
  5
3B0
100
AcDbEntity
  8
0
100
AcDbSpline
 62
7
  6
CONTINUOUS
 70
0
 71
3
 72
44
 73
40
 74
0
 42
0.0000001
 43
0.0000001
 44
0.0000000001
 40
0.0
 40
0.0
 40
0.0
 40
0.0
 40
0.0935169075
 40
0.1394065303
 40
0.1846333294
 40
0.2291353511
 40
0.2728523752
 40
0.3157258685
 40
0.3576987631
 40
0.3987158672
 40
0.4387239175
 40
0.4776717054
 40
0.5155103345
 40
0.5521934034
 40
0.5876771493
 40
0.621920714
 40
0.6548864966
 40
0.6865403816
 40
0.716852093
 40
0.7457957414
 40
0.7733503528
 40
0.7995004785
 40
0.8242371019
 40
0.8475588157
 40
0.8586917862
 40
0.8694747109
 40
0.8799102018
 40
0.8900017778
 40
0.8997537644
 40
0.9091715249
 40
0.9182615915
 40
0.9270316413
 40
0.9354908005
 40
0.9436497327
 40
0.9591134491
 40
0.9735481091
 40
0.9871098452
 40
0.9936261422
 40
1.0
 40
1.0
 40
1.0
 40
1.0
 10
12.5563729554
 20
9.0616037283
 30
0.0
 10
12.5563729554
 20
9.0732728911
 30
0.0
 10
12.5561955329
 20
9.0906690376
 30
0.0
 10
12.5555850701
 20
9.1137000659
 30
0.0
 10
12.5549486462
 20
9.1306111275
 30
0.0
 10
12.554131781
 20
9.1472429975
 30
0.0
 10
12.5531356948
 20
9.1635709411
 30
0.0
 10
12.55196189
 20
9.1795706736
 30
0.0
 10
12.550612115
 20
9.1952184266
 30
0.0
 10
12.5490884065
 20
9.210490945
 30
0.0
 10
12.5473930536
 20
9.2253655409
 30
0.0
 10
12.54552859
 20
9.2398201187
 30
0.0
 10
12.5434978149
 20
9.2538332168
 30
0.0
 10
12.541303784
 20
9.2673840415
 30
0.0
 10
12.5389497852
 20
9.2804524909
 30
0.0
 10
12.5364393396
 20
9.2930191917
 30
0.0
 10
12.5337762237
 20
9.3050655392
 30
0.0
 10
12.5309644313
 20
9.31657372
 30
0.0
 10
12.5280081594
 20
9.3275267366
 30
0.0
 10
12.5249118277
 20
9.3379084594
 30
0.0
 10
12.5216800606
 20
9.3477036337
 30
0.0
 10
12.5183176355
 20
9.3568979791
 30
0.0
 10
12.5148295106
 20
9.3654779461
 30
0.0
 10
12.511776726
 20
9.3722062191
 30
0.0
 10
12.5092694032
 20
9.377264116
 30
0.0
 10
12.5073898799
 20
9.3808372045
 30
0.0
 10
12.5054828398
 20
9.3842475745
 30
0.0
 10
12.5035489882
 20
9.3874940004
 30
0.0
 10
12.5015890041
 20
9.3905752816
 30
0.0
 10
12.4996035826
 20
9.3934902827
 30
0.0
 10
12.4975934521
 20
9.3962379663
 30
0.0
 10
12.4955593079
 20
9.3988172711
 30
0.0
 10
12.4935017828
 20
9.4012273678
 30
0.0
 10
12.4907770353
 20
9.404161357
 30
0.0
 10
12.4873170613
 20
9.4074255768
 30
0.0
 10
12.4830014848
 20
9.4107267731
 30
0.0
 10
12.479284977
 20
9.4129276526
 30
0.0
 10
12.4762879307
 20
9.4143156103
 30
0.0
 10
12.4747833544
 20
9.4148889236
 30
0.0
 10
12.4740302802
 20
9.4151447405
 30
0.0
  0
SPLINE
  5
3B1
100
AcDbEntity
  8
0
100
AcDbSpline
 62
7
  6
CONTINUOUS
 70
0
 71
3
 72
47
 73
43
 74
0
 42
0.0000001
 43
0.0000001
 44
0.0000000001
 40
0.0
 40
0.0
 40
0.0
 40
0.0
 40
0.0063158953
 40
0.0126706964
 40
0.0191025413
 40
0.0256481068
 40
0.0323419887
 40
0.0392163511
 40
0.0536141938
 40
0.0611949453
 40
0.0690567093
 40
0.0772178306
 40
0.0856942536
 40
0.094499648
 40
0.1036457893
 40
0.1131425899
 40
0.1229983503
 40
0.1332200167
 40
0.1438131323
 40
0.1547821683
 40
0.1661305713
 40
0.1899729423
 40
0.2153524409
 40
0.2422683478
 40
0.2707106917
 40
0.3006617255
 40
0.3320970385
 40
0.3649863926
 40
0.3992943516
 40
0.4349809011
 40
0.4720019229
 40
0.5103095575
 40
0.5498524869
 40
0.5905762826
 40
0.6324236706
 40
0.6753347453
 40
0.7192471563
 40
0.7640962954
 40
0.8098156376
 40
0.856336788
 40
0.9035890146
 40
1.0
 40
1.0
 40
1.0
 40
1.0
 10
12.4793298266
 20
8.324004788
 30
0.0
 10
12.480073509
 20
8.3239532133
 30
0.0
 10
12.4815619387
 20
8.3237888567
 30
0.0
 10
12.483777906
 20
8.323360511
 30
0.0
 10
12.4859790655
 20
8.3227503363
 30
0.0
 10
12.4881641111
 20
8.3219587811
 30
0.0
 10
12.4903322187
 20
8.3209863802
 30
0.0
 10
12.4932433833
 20
8.3194258217
 30
0.0
 10
12.4960755127
 20
8.317515496
 30
0.0
 10
12.4988162682
 20
8.3153016906
 30
0.0
 10
12.5008864731
 20
8.313435206
 30
0.0
 10
12.502934578
 20
8.3113923405
 30
0.0
 10
12.504960041
 20
8.3091737983
 30
0.0
 10
12.5069620806
 20
8.3067805749
 30
0.0
 10
12.5089399213
 20
8.3042136114
 30
0.0
 10
12.5108928163
 20
8.3014739705
 30
0.0
 10
12.5128200226
 20
8.2985627695
 30
0.0
 10
12.5147207476
 20
8.2954811679
 30
0.0
 10
12.5165942682
 20
8.2922304374
 30
0.0
 10
12.5184398434
 20
8.2888118811
 30
0.0
 10
12.5209029275
 20
8.2839515906
 30
0.0
 10
12.5238981999
 20
8.2774571241
 30
0.0
 10
12.5273123814
 20
8.2691419001
 30
0.0
 10
12.5305977573
 20
8.2601944454
 30
0.0
 10
12.5337489528
 20
8.2506293606
 30
0.0
 10
12.5367607978
 20
8.2404620885
 30
0.0
 10
12.5396283065
 20
8.2297091912
 30
0.0
 10
12.5423467139
 20
8.2183882244
 30
0.0
 10
12.5449115082
 20
8.2065177327
 30
0.0
 10
12.5473184212
 20
8.1941171937
 30
0.0
 10
12.5495634413
 20
8.1812069772
 30
0.0
 10
12.5516428208
 20
8.1678083127
 30
0.0
 10
12.5535531019
 20
8.1539432559
 30
0.0
 10
12.5552911026
 20
8.1396346432
 30
0.0
 10
12.5568539241
 20
8.1249060467
 30
0.0
 10
12.558238956
 20
8.1097817389
 30
0.0
 10
12.5594438945
 20
8.0942866599
 30
0.0
 10
12.5604667362
 20
8.0784463556
 30
0.0
 10
12.5613057666
 20
8.0622869523
 30
0.0
 10
12.561959591
 20
8.0458351161
 30
0.0
 10
12.562587089
 20
8.0233959643
 30
0.0
 10
12.5627691111
 20
8.0064384255
 30
0.0
 10
12.5627691111
 20
7.9950589834
 30
0.0
  0
SPLINE
  5
3B2
100
AcDbEntity
  8
0
100
AcDbSpline
 62
7
  6
CONTINUOUS
 70
0
 71
3
 72
52
 73
48
 74
0
 42
0.0000001
 43
0.0000001
 44
0.0000000001
 40
0.0
 40
0.0
 40
0.0
 40
0.0
 40
0.0407882213
 40
0.0820414361
 40
0.1236412041
 40
0.165467563
 40
0.2073998575
 40
0.2493169889
 40
0.2910979331
 40
0.3326221592
 40
0.3737700816
 40
0.4144235044
 40
0.4544660717
 40
0.4937837228
 40
0.532265154
 40
0.569802293
 40
0.6062907878
 40
0.6416305201
 40
0.6757261499
 40
0.708487709
 40
0.7398312597
 40
0.7549472316
 40
0.7696803509
 40
0.7840222287
 40
0.7979649324
 40
0.8115012083
 40
0.8246243423
 40
0.8373283982
 40
0.8496080927
 40
0.8614590482
 40
0.8728776968
 40
0.8838615493
 40
0.8944091459
 40
0.9045203492
 40
0.9141963632
 40
0.9234400663
 40
0.9322561266
 40
0.9406513984
 40
0.9486351695
 40
0.9562196483
 40
0.9634203733
 40
0.9702568024
 40
0.9767528654
 40
0.9829375834
 40
0.988845596
 40
0.9945175204
 40
1.0
 40
1.0
 40
1.0
 40
1.0
 10
12.5563729554
 20
9.0616037283
 30
0.0
 10
12.5563729554
 20
9.0530574632
 30
0.0
 10
12.5562443786
 20
9.0358672531
 30
0.0
 10
12.5556756026
 20
9.0099663925
 30
0.0
 10
12.5547313636
 20
8.9838588002
 30
0.0
 10
12.5534145451
 20
8.9576249107
 30
0.0
 10
12.5517291938
 20
8.9313454854
 30
0.0
 10
12.5496804936
 20
8.9051014318
 30
0.0
 10
12.5472747577
 20
8.8789735494
 30
0.0
 10
12.5445194052
 20
8.8530422765
 30
0.0
 10
12.5414229403
 20
8.8273874429
 30
0.0
 10
12.537994925
 20
8.8020880216
 30
0.0
 10
12.5342459512
 20
8.7772218836
 30
0.0
 10
12.530187608
 20
8.7528655562
 30
0.0
 10
12.5258324468
 20
8.7290939835
 30
0.0
 10
12.5211939435
 20
8.7059802936
 30
0.0
 10
12.5162864579
 20
8.6835955631
 30
0.0
 10
12.5111251891
 20
8.662008609
 30
0.0
 10
12.5057261336
 20
8.6412857098
 30
0.0
 10
12.5001060193
 20
8.621490593
 30
0.0
 10
12.4951954993
 20
8.6056325624
 30
0.0
 10
12.4911619504
 20
8.5934616386
 30
0.0
 10
12.4881289822
 20
8.5847129048
 30
0.0
 10
12.485054049
 20
8.5762398816
 30
0.0
 10
12.4819394559
 20
8.5680490751
 30
0.0
 10
12.4787876577
 20
8.5601467662
 30
0.0
 10
12.4756010338
 20
8.552539025
 30
0.0
 10
12.4723820881
 20
8.545231672
 30
0.0
 10
12.4691332492
 20
8.538230313
 30
0.0
 10
12.4658570631
 20
8.5315402889
 30
0.0
 10
12.4625559962
 20
8.5251667208
 30
0.0
 10
12.4592326231
 20
8.5191144506
 30
0.0
 10
12.4558894345
 20
8.5133880955
 30
0.0
 10
12.4525290147
 20
8.5079919801
 30
0.0
 10
12.4491538602
 20
8.5029302005
 30
0.0
 10
12.445766539
 20
8.4982065506
 30
0.0
 10
12.4423695252
 20
8.4938245946
 30
0.0
 10
12.4389653324
 20
8.4897875931
 30
0.0
 10
12.4355563718
 20
8.4860985847
 30
0.0
 10
12.432145053
 20
8.4827603233
 30
0.0
 10
12.4287336746
 20
8.4797753686
 30
0.0
 10
12.4253245023
 20
8.4771460562
 30
0.0
 10
12.421919698
 20
8.4748745904
 30
0.0
 10
12.4185214619
 20
8.4729630718
 30
0.0
 10
12.4151318395
 20
8.471413525
 30
0.0
 10
12.4117536965
 20
8.4702280559
 30
0.0
 10
12.4094782575
 20
8.4696738676
 30
0.0
 10
12.408349318
 20
8.4694615468
 30
0.0
  0
SPLINE
  5
3B3
100
AcDbEntity
  8
0
100
AcDbSpline
 62
7
  6
CONTINUOUS
 70
0
 71
3
 72
28
 73
24
 74
0
 42
0.0000001
 43
0.0000001
 44
0.0000000001
 40
0.0
 40
0.0
 40
0.0
 40
0.0
 40
0.0749525414
 40
0.1455492598
 40
0.2121319828
 40
0.2751267504
 40
0.3350537751
 40
0.3925311517
 40
0.4205831712
 40
0.4482964194
 40
0.4757713564
 40
0.5031112904
 40
0.5304212607
 40
0.5578066529
 40
0.585371914
 40
0.6132193169
 40
0.6414476915
 40
0.6701515776
 40
0.7293157133
 40
0.7913812221
 40
0.8568968201
 40
0.9263175734
 40
1.0
 40
1.0
 40
1.0
 40
1.0
 10
10.3364553604
 20
10.2568248364
 30
0.0
 10
10.3352829707
 20
10.2579158636
 30
0.0
 10
10.3330713165
 20
10.2601062587
 30
0.0
 10
10.3300871065
 20
10.2635235908
 30
0.0
 10
10.3275423705
 20
10.2669679688
 30
0.0
 10
10.3254408665
 20
10.2704365083
 30
0.0
 10
10.3237861939
 20
10.2739257477
 30
0.0
 10
10.3227744066
 20
10.2768726288
 30
0.0
 10
10.3221998734
 20
10.2792244257
 30
0.0
 10
10.3218851448
 20
10.28097617
 30
0.0
 10
10.3216833923
 20
10.2827291585
 30
0.0
 10
10.3215947067
 20
10.284482892
 30
0.0
 10
10.3216191346
 20
10.2862367833
 30
0.0
 10
10.3217566307
 20
10.2879902667
 30
0.0
 10
10.3220071544
 20
10.2897427796
 30
0.0
 10
10.3223706066
 20
10.2914937498
 30
0.0
 10
10.3228468246
 20
10.2932426926
 30
0.0
 10
10.323639667
 20
10.2955945077
 30
0.0
 10
10.3249251704
 20
10.2985367169
 30
0.0
 10
10.3269000008
 20
10.302011241
 30
0.0
 10
10.3293192002
 20
10.3054629005
 30
0.0
 10
10.332178898
 20
10.3088881124
 30
0.0
 10
10.3343106823
 20
10.3110842518
 30
0.0
 10
10.3354430571
 20
10.3121780418
 30
0.0
  0
SPLINE
  5
3B4
100
AcDbEntity
  8
0
100
AcDbSpline
 62
7
  6
CONTINUOUS
 70
0
 71
3
 72
56
 73
52
 74
0
 42
0.0000001
 43
0.0000001
 44
0.0000000001
 40
0.0
 40
0.0
 40
0.0
 40
0.0
 40
0.045211094
 40
0.0910028914
 40
0.1371914718
 40
0.1835898594
 40
0.2300105205
 40
0.2762656347
 40
0.3221682796
 40
0.3675333364
 40
0.4121784765
 40
0.4559251396
 40
0.4985995345
 40
0.5400336616
 40
0.5800663739
 40
0.6185444995
 40
0.6553240556
 40
0.6730351632
 40
0.6902725212
 40
0.7070213708
 40
0.7232678219
 40
0.7389988944
 40
0.7542026969
 40
0.7688683543
 40
0.7829863267
 40
0.7965482981
 40
0.8095475604
 40
0.8219789918
 40
0.8338394244
 40
0.8451278411
 40
0.855845703
 40
0.8659974544
 40
0.8755908812
 40
0.8846379673
 40
0.8931554512
 40
0.9011660221
 40
0.9086992543
 40
0.9157930177
 40
0.9224946822
 40
0.9288622031
 40
0.9349646412
 40
0.9408815128
 40
0.9467008114
 40
0.9525153656
 40
0.9584182501
 40
0.9644981308
 40
0.9708355081
 40
0.9775005384
 40
0.9845523083
 40
0.992039197
 40
1.0
 40
1.0
 40
1.0
 40
1.0
 10
12.520138319
 20
9.0266037552
 30
0.0
 10
12.520138319
 20
9.0194612993
 30
0.0
 10
12.5200109376
 20
9.0050843588
 30
0.0
 10
12.5194492507
 20
8.9834171359
 30
0.0
 10
12.5185178689
 20
8.961574869
 30
0.0
 10
12.5172207667
 20
8.9396517766
 30
0.0
 10
12.5155635395
 20
8.9177424179
 30
0.0
 10
12.5135533343
 20
8.8959412611
 30
0.0
 10
12.5111988424
 20
8.874342317
 30
0.0
 10
12.5085102528
 20
8.8530387131
 30
0.0
 10
12.5054992119
 20
8.8321222925
 30
0.0
 10
12.5021787733
 20
8.8116832128
 30
0.0
 10
12.4985633451
 20
8.7918095458
 30
0.0
 10
12.4946686257
 20
8.7725869057
 30
0.0
 10
12.4905115469
 20
8.754098011
 30
0.0
 10
12.486110169
 20
8.7364225177
 30
0.0
 10
12.4822073133
 20
8.7222614076
 30
0.0
 10
12.478969599
 20
8.7114018524
 30
0.0
 10
12.4765228753
 20
8.7036094875
 30
0.0
 10
12.474029831
 20
8.6960751497
 30
0.0
 10
12.4714931469
 20
8.6888069374
 30
0.0
 10
12.4689155535
 20
8.6818126713
 30
0.0
 10
12.4662998666
 20
8.6750998611
 30
0.0
 10
12.4636488726
 20
8.6686757201
 30
0.0
 10
12.4609654792
 20
8.6625471252
 30
0.0
 10
12.4582525337
 20
8.6567206463
 30
0.0
 10
12.4555129956
 20
8.6512024954
 30
0.0
 10
12.4527497742
 20
8.6459985584
 30
0.0
 10
12.4499658364
 20
8.6411143552
 30
0.0
 10
12.4471641395
 20
8.6365550469
 30
0.0
 10
12.4443476097
 20
8.6323254388
 30
0.0
 10
12.4415192083
 20
8.6284299341
 30
0.0
 10
12.4386817647
 20
8.6248726127
 30
0.0
 10
12.4358381531
 20
8.6216571204
 30
0.0
 10
12.4329910337
 20
8.6187868376
 30
0.0
 10
12.4301430598
 20
8.6162647503
 30
0.0
 10
12.4272966526
 20
8.614093682
 30
0.0
 10
12.4244541766
 20
8.6122762592
 30
0.0
 10
12.4216179328
 20
8.6108151092
 30
0.0
 10
12.4187903748
 20
8.6097129705
 30
0.0
 10
12.4159744485
 20
8.608972548
 30
0.0
 10
12.4131738449
 20
8.6085964829
 30
0.0
 10
12.4103931897
 20
8.6085864819
 30
0.0
 10
12.4076376929
 20
8.608943155
 30
0.0
 10
12.4049124848
 20
8.6096653371
 30
0.0
 10
12.4022219973
 20
8.6107507727
 30
0.0
 10
12.399569634
 20
8.6121964061
 30
0.0
 10
12.3969579896
 20
8.6139991006
 30
0.0
 10
12.3943891431
 20
8.6161558646
 30
0.0
 10
12.3918651103
 20
8.6186635896
 30
0.0
 10
12.3902644929
 20
8.6205088393
 30
0.0
 10
12.3894709557
 20
8.6214845337
 30
0.0
  0
SPLINE
  5
3B5
100
AcDbEntity
  8
0
100
AcDbSpline
 62
7
  6
CONTINUOUS
 70
0
 71
3
 72
51
 73
47
 74
0
 42
0.0000001
 43
0.0000001
 44
0.0000000001
 40
0.0
 40
0.0
 40
0.0
 40
0.0
 40
0.0417744116
 40
0.0840381267
 40
0.1266601198
 40
0.1695087108
 40
0.2124508655
 40
0.2553533788
 40
0.298083128
 40
0.3405076964
 40
0.3824958663
 40
0.4239181581
 40
0.464647361
 40
0.5045590746
 40
0.5435322599
 40
0.5814498068
 40
0.6181991245
 40
0.6536727653
 40
0.687769097
 40
0.7203930456
 40
0.751456939
 40
0.7663791295
 40
0.7808823621
 40
0.7949581782
 40
0.8085989447
 40
0.8217976378
 40
0.8345481972
 40
0.8468453101
 40
0.8586847937
 40
0.8700634213
 40
0.8809793156
 40
0.8914318621
 40
0.901422106
 40
0.9109528006
 40
0.9200288179
 40
0.9286573817
 40
0.9368485191
 40
0.9446155247
 40
0.9519754882
 40
0.9589499995
 40
0.9655657455
 40
0.9778459087
 40
0.9836071654
 40
0.9891799096
 40
0.9946230118
 40
1.0
 40
1.0
 40
1.0
 40
1.0
 10
12.4772722539
 20
9.0201983134
 30
0.0
 10
12.4772722539
 20
9.0146015691
 30
0.0
 10
12.4771849364
 20
9.00334235
 30
0.0
 10
12.4767989352
 20
8.986376809
 30
0.0
 10
12.4761582549
 20
8.9692749334
 30
0.0
 10
12.4752650139
 20
8.9520933914
 30
0.0
 10
12.4741221508
 20
8.9348889816
 30
0.0
 10
12.4727334508
 20
8.9177186412
 30
0.0
 10
12.4711035104
 20
8.9006391698
 30
0.0
 10
12.4692377346
 20
8.8837070728
 30
0.0
 10
12.467142313
 20
8.8669783618
 30
0.0
 10
12.4648242022
 20
8.8505083717
 30
0.0
 10
12.4622911024
 20
8.8343515746
 30
0.0
 10
12.4595514323
 20
8.8185613978
 30
0.0
 10
12.4566143021
 20
8.803190044
 30
0.0
 10
12.4534894837
 20
8.7882883164
 30
0.0
 10
12.4501873797
 20
8.7739054418
 30
0.0
 10
12.4467189873
 20
8.7600889157
 30
0.0
 10
12.4430958687
 20
8.7468842882
 30
0.0
 10
12.4393300889
 20
8.7343351715
 30
0.0
 10
12.4360410343
 20
8.7243285594
 30
0.0
 10
12.433341958
 20
8.7166868711
 30
0.0
 10
12.4313169924
 20
8.711221607
 30
0.0
 10
12.4292658815
 20
8.7059498937
 30
0.0
 10
12.427190353
 20
8.7008760641
 30
0.0
 10
12.4250920818
 20
8.6960043081
 30
0.0
 10
12.4229728527
 20
8.691338623
 30
0.0
 10
12.4208343675
 20
8.6868828551
 30
0.0
 10
12.4186784396
 20
8.6826406467
 30
0.0
 10
12.4165067972
 20
8.6786154854
 30
0.0
 10
12.4143212651
 20
8.6748106448
 30
0.0
 10
12.4121235906
 20
8.6712292377
 30
0.0
 10
12.4099155902
 20
8.6678741583
 30
0.0
 10
12.4076990154
 20
8.6647481303
 30
0.0
 10
12.4054756485
 20
8.661853664
 30
0.0
 10
12.4032472179
 20
8.659193085
 30
0.0
 10
12.401015447
 20
8.6567685353
 30
0.0
 10
12.3987819653
 20
8.6545819368
 30
0.0
 10
12.3965485321
 20
8.6526351751
 30
0.0
 10
12.3943161767
 20
8.6509296003
 30
0.0
 10
12.3914169485
 20
8.6490272304
 30
0.0
 10
12.3884444753
 20
8.6475394765
 30
0.0
 10
12.3854336712
 20
8.6465526253
 30
0.0
 10
12.3832323418
 20
8.6460767211
 30
0.0
 10
12.3810433648
 20
8.6458507567
 30
0.0
 10
12.3795900434
 20
8.645867368
 30
0.0
 10
12.3788713853
 20
8.6459172077
 30
0.0
  0
SPLINE
  5
3B6
100
AcDbEntity
  8
0
100
AcDbSpline
 62
7
  6
CONTINUOUS
 70
0
 71
3
 72
55
 73
51
 74
0
 42
0.0000001
 43
0.0000001
 44
0.0000000001
 40
0.0
 40
0.0
 40
0.0
 40
0.0
 40
0.0532130211
 40
0.1056337553
 40
0.1571445283
 40
0.2076348771
 40
0.2569948287
 40
0.3051188115
 40
0.3519048742
 40
0.3972554228
 40
0.4410776366
 40
0.4832839572
 40
0.5237926699
 40
0.5625285538
 40
0.5994236841
 40
0.6344183559
 40
0.6674622251
 40
0.6832404918
 40
0.6985172543
 40
0.7132895779
 40
0.7275555663
 40
0.7413142206
 40
0.7545659014
 40
0.7673121251
 40
0.7795559584
 40
0.7913021514
 40
0.80255723
 40
0.8133300402
 40
0.823631714
 40
0.8334763173
 40
0.8428810832
 40
0.8518668508
 40
0.860458696
 40
0.86868615
 40
0.87658389
 40
0.8841918552
 40
0.8915554424
 40
0.8987253358
 40
0.9057568277
 40
0.9127089027
 40
0.9196427324
 40
0.9266200242
 40
0.9337012346
 40
0.940944011
 40
0.9484018286
 40
0.9641402347
 40
0.972513003
 40
0.9812628655
 40
0.9904174186
 40
1.0
 40
1.0
 40
1.0
 40
1.0
 10
12.520138319
 20
9.0266037552
 30
0.0
 10
12.520138319
 20
9.0318313246
 30
0.0
 10
12.5200709815
 20
9.0422087692
 30
0.0
 10
12.5197636002
 20
9.0576438144
 30
0.0
 10
12.5192512391
 20
9.0728058469
 30
0.0
 10
12.5185351865
 20
9.0876586206
 30
0.0
 10
12.5176171448
 20
9.1021669543
 30
0.0
 10
12.516499345
 20
9.1162962984
 30
0.0
 10
12.5151844798
 20
9.1300130895
 30
0.0
 10
12.5136757268
 20
9.1432847384
 30
0.0
 10
12.5119767281
 20
9.1560797348
 30
0.0
 10
12.5100915833
 20
9.1683677185
 30
0.0
 10
12.5080248411
 20
9.1801195618
 30
0.0
 10
12.5057814831
 20
9.1913074315
 30
0.0
 10
12.5033669227
 20
9.2019049308
 30
0.0
 10
12.5007869625
 20
9.2118869624
 30
0.0
 10
12.4984700825
 20
9.2197902064
 30
0.0
 10
12.4965318224
 20
9.2257818087
 30
0.0
 10
12.4950630624
 20
9.2300378216
 30
0.0
 10
12.4935576952
 20
9.2341230717
 30
0.0
 10
12.4920166279
 20
9.238035164
 30
0.0
 10
12.4904407288
 20
9.2417717817
 30
0.0
 10
12.4888309695
 20
9.2453307422
 30
0.0
 10
12.4871882627
 20
9.2487099515
 30
0.0
 10
12.4855135683
 20
9.251907434
 30
0.0
 10
12.4838078755
 20
9.2549213367
 30
0.0
 10
12.4820721109
 20
9.257749886
 30
0.0
 10
12.4803073057
 20
9.2603914678
 30
0.0
 10
12.4785143877
 20
9.2628445263
 30
0.0
 10
12.4766943524
 20
9.2651076475
 30
0.0
 10
12.4748481656
 20
9.2671795108
 30
0.0
 10
12.4729767427
 20
9.2690588459
 30
0.0
 10
12.4710810762
 20
9.2707445366
 30
0.0
 10
12.4691620487
 20
9.2722354212
 30
0.0
 10
12.4672206567
 20
9.2735304785
 30
0.0
 10
12.4652578833
 20
9.2746286596
 30
0.0
 10
12.4632748098
 20
9.2755289382
 30
0.0
 10
12.4612726836
 20
9.2762304369
 30
0.0
 10
12.4592528635
 20
9.2767322414
 30
0.0
 10
12.457216934
 20
9.277033805
 30
0.0
 10
12.4551665706
 20
9.2771347032
 30
0.0
 10
12.4531035115
 20
9.2770348883
 30
0.0
 10
12.4510294735
 20
9.2767346681
 30
0.0
 10
12.4489459291
 20
9.2762344132
 30
0.0
 10
12.4461070615
 20
9.275285119
 30
0.0
 10
12.4432980835
 20
9.2739373799
 30
0.0
 10
12.4405446869
 20
9.2722495737
 30
0.0
 10
12.4384330192
 20
9.2707615428
 30
0.0
 10
12.4363194061
 20
9.269078959
 30
0.0
 10
12.4349418085
 20
9.2678566962
 30
0.0
 10
12.4342527005
 20
9.2672153505
 30
0.0
  0
SPLINE
  5
3B7
100
AcDbEntity
  8
0
100
AcDbSpline
 62
7
  6
CONTINUOUS
 70
0
 71
3
 72
40
 73
36
 74
0
 42
0.0000001
 43
0.0000001
 44
0.0000000001
 40
0.0
 40
0.0
 40
0.0
 40
0.0
 40
0.0964133286
 40
0.1901869513
 40
0.2359074377
 40
0.2807575964
 40
0.3246709722
 40
0.3675830138
 40
0.4094313741
 40
0.4501560851
 40
0.489699895
 40
0.5280084083
 40
0.5650302636
 40
0.6007176174
 40
0.6350263689
 40
0.6679164427
 40
0.6993524622
 40
0.7293042075
 40
0.7577471752
 40
0.7846636601
 40
0.8100437677
 40
0.8338866789
 40
0.8562027075
 40
0.8770156456
 40
0.8963657571
 40
0.9143140619
 40
0.9309474378
 40
0.9463845965
 40
0.9607827559
 40
0.9676572815
 40
0.9743513203
 40
0.9808970203
 40
0.9873290188
 40
0.9936839634
 40
1.0
 40
1.0
 40
1.0
 40
1.0
 10
12.4772722539
 20
9.0201983134
 30
0.0
 10
12.4772722539
 20
9.0279570374
 30
0.0
 10
12.477107878
 20
9.0432626051
 30
0.0
 10
12.4764716438
 20
9.0622381133
 30
0.0
 10
12.4757024592
 20
9.077053334
 30
0.0
 10
12.4750050619
 20
9.0878535558
 30
0.0
 10
12.4741835104
 20
9.0984183787
 30
0.0
 10
12.4732391669
 20
9.1087304068
 30
0.0
 10
12.4721736136
 20
9.1187726339
 30
0.0
 10
12.4709886105
 20
9.128528507
 30
0.0
 10
12.4696861429
 20
9.1379819541
 30
0.0
 10
12.4682683875
 20
9.1471174076
 30
0.0
 10
12.4667376904
 20
9.1559198286
 30
0.0
 10
12.4650966115
 20
9.1643747423
 30
0.0
 10
12.4633478929
 20
9.17246826
 30
0.0
 10
12.4614944279
 20
9.1801870988
 30
0.0
 10
12.4595393063
 20
9.1875186204
 30
0.0
 10
12.4574857837
 20
9.1944508529
 30
0.0
 10
12.4553372364
 20
9.2009725062
 30
0.0
 10
12.4530972033
 20
9.2070730164
 30
0.0
 10
12.4507693482
 20
9.2127425704
 30
0.0
 10
12.4483573861
 20
9.2179721127
 30
0.0
 10
12.4458650996
 20
9.2227533921
 30
0.0
 10
12.4432962715
 20
9.2270789727
 30
0.0
 10
12.4406545172
 20
9.2309421944
 30
0.0
 10
12.4379433144
 20
9.2343371018
 30
0.0
 10
12.4351656144
 20
9.2372584005
 30
0.0
 10
12.4323246154
 20
9.2397006714
 30
0.0
 10
12.4298683951
 20
9.2413574854
 30
0.0
 10
12.4278834457
 20
9.2424215447
 30
0.0
 10
12.4264052075
 20
9.2430845495
 30
0.0
 10
12.4249153913
 20
9.2436242227
 30
0.0
 10
12.4234146081
 20
9.2440402696
 30
0.0
 10
12.4219037198
 20
9.2443323263
 30
0.0
 10
12.4208888797
 20
9.2444443692
 30
0.0
 10
12.4203818237
 20
9.2444795341
 30
0.0
  0
SPLINE
  5
3B8
100
AcDbEntity
  8
0
100
AcDbSpline
 62
7
  6
CONTINUOUS
 70
0
 71
3
 72
39
 73
35
 74
0
 42
0.0000001
 43
0.0000001
 44
0.0000000001
 40
0.0
 40
0.0
 40
0.0
 40
0.0
 40
0.0933200487
 40
0.1842537751
 40
0.2286724785
 40
0.2723117536
 40
0.3151135933
 40
0.3570214395
 40
0.3979805676
 40
0.4379381348
 40
0.4768433339
 40
0.5146476688
 40
0.5513050453
 40
0.5867719562
 40
0.6210078297
 40
0.6539752348
 40
0.6856401239
 40
0.7159722956
 40
0.744945849
 40
0.772539608
 40
0.7987378391
 40
0.82353118
 40
0.8469175687
 40
0.8689036034
 40
0.8895064303
 40
0.9087559082
 40
0.9266974672
 40
0.9433958849
 40
0.9589397025
 40
0.9663165465
 40
0.9734515161
 40
0.9870714009
 40
0.9936097569
 40
1.0
 40
1.0
 40
1.0
 40
1.0
 10
12.5473142963
 20
7.9961307784
 30
0.0
 10
12.5473142963
 20
8.0069014808
 30
0.0
 10
12.5470980712
 20
8.0281681393
 30
0.0
 10
12.5462626613
 20
8.0545498509
 30
0.0
 10
12.5452531784
 20
8.0751842331
 30
0.0
 10
12.544337078
 20
8.0902602222
 30
0.0
 10
12.5432575191
 20
8.1050348439
 30
0.0
 10
12.5420160848
 20
8.1194863248
 30
0.0
 10
12.5406146412
 20
8.1335933394
 30
0.0
 10
12.5390552718
 20
8.1473350803
 30
0.0
 10
12.5373402886
 20
8.1606912825
 30
0.0
 10
12.5354722582
 20
8.1736422605
 30
0.0
 10
12.533453965
 20
8.1861689318
 30
0.0
 10
12.5312884014
 20
8.1982528455
 30
0.0
 10
12.5289788
 20
8.2098762206
 30
0.0
 10
12.526528607
 20
8.2210219711
 30
0.0
 10
12.5239414563
 20
8.2316737264
 30
0.0
 10
12.5212211914
 20
8.2418158701
 30
0.0
 10
12.5183718613
 20
8.2514335723
 30
0.0
 10
12.5153976749
 20
8.2605128032
 30
0.0
 10
12.5123029979
 20
8.2690403683
 30
0.0
 10
12.5090923689
 20
8.2770039528
 30
0.0
 10
12.5057704246
 20
8.2843921328
 30
0.0
 10
12.5023418574
 20
8.2911943893
 30
0.0
 10
12.4988113963
 20
8.2974011698
 30
0.0
 10
12.4951837382
 20
8.3030038184
 30
0.0
 10
12.4914632459
 20
8.3079946774
 30
0.0
 10
12.4876544487
 20
8.3123664205
 30
0.0
 10
12.4843539479
 20
8.3155422426
 30
0.0
 10
12.4816743788
 20
8.3177478318
 30
0.0
 10
12.4790581813
 20
8.3196725699
 30
0.0
 10
12.4763617738
 20
8.3213198338
 30
0.0
 10
12.4735997224
 20
8.3226507015
 30
0.0
 10
12.4722127628
 20
8.3232051844
 30
0.0
 10
12.4715184695
 20
8.3234540302
 30
0.0
  0
SPLINE
  5
3B9
100
AcDbEntity
  8
0
100
AcDbSpline
 62
7
  6
CONTINUOUS
 70
0
 71
3
 72
52
 73
48
 74
0
 42
0.0000001
 43
0.0000001
 44
0.0000000001
 40
0.0
 40
0.0
 40
0.0
 40
0.0
 40
0.0406912602
 40
0.0818452362
 40
0.1233445023
 40
0.1650703294
 40
0.2069031852
 40
0.2487231387
 40
0.2904103091
 40
0.3318452977
 40
0.3729096262
 40
0.4134861756
 40
0.4534596282
 40
0.4927169151
 40
0.5311476701
 40
0.5686446956
 40
0.6051044425
 40
0.6404275137
 40
0.674519198
 40
0.70729005
 40
0.7386565337
 40
0.7537891464
 40
0.7685424445
 40
0.7829079582
 40
0.7968778373
 40
0.8104447181
 40
0.8236019418
 40
0.836343428
 40
0.8486639114
 40
0.8605588291
 40
0.8720245801
 40
0.8830584367
 40
0.8936588358
 40
0.9038253286
 40
0.9135589183
 40
0.9228620685
 40
0.9317391075
 40
0.9401963257
 40
0.9482424726
 40
0.9558889776
 40
0.9631505636
 40
0.9700456114
 40
0.9765968768
 40
0.9828319435
 40
0.9887838976
 40
0.9944916187
 40
1.0
 40
1.0
 40
1.0
 40
1.0
 10
12.5473142963
 20
7.9961307784
 30
0.0
 10
12.5473142963
 20
7.9882429207
 30
0.0
 10
12.5471960555
 20
7.9723772795
 30
0.0
 10
12.5466729724
 20
7.9484723349
 30
0.0
 10
12.5458045678
 20
7.9243767292
 30
0.0
 10
12.5445934785
 20
7.900164179
 30
0.0
 10
12.5430433968
 20
7.8759086763
 30
0.0
 10
12.5411590576
 20
7.851684366
 30
0.0
 10
12.5389462251
 20
7.8275652918
 30
0.0
 10
12.5364116746
 20
7.8036251751
 30
0.0
 10
12.533563172
 20
7.7799371864
 30
0.0
 10
12.5304094504
 20
7.7565737209
 30
0.0
 10
12.5269601836
 20
7.7336061747
 30
0.0
 10
12.5232259572
 20
7.711104725
 30
0.0
 10
12.5192182367
 20
7.6891381121
 30
0.0
 10
12.514949333
 20
7.6677734273
 30
0.0
 10
12.5104323663
 20
7.6470758991
 30
0.0
 10
12.5056812241
 20
7.6271087028
 30
0.0
 10
12.5007105266
 20
7.6079327068
 30
0.0
 10
12.4955355576
 20
7.5896064629
 30
0.0
 10
12.4910138215
 20
7.5749188165
 30
0.0
 10
12.4872992486
 20
7.5636409362
 30
0.0
 10
12.4845055724
 20
7.5555303235
 30
0.0
 10
12.4816729497
 20
7.5476723988
 30
0.0
 10
12.4788035718
 20
7.540073141
 30
0.0
 10
12.4758995979
 20
7.5327383505
 30
0.0
 10
12.4729632926
 20
7.5256736055
 30
0.0
 10
12.4699968577
 20
7.5188842914
 30
0.0
 10
12.4670026055
 20
7.5123755598
 30
0.0
 10
12.4639827757
 20
7.5061523647
 30
0.0
 10
12.4609397171
 20
7.5002194113
 30
0.0
 10
12.4578756959
 20
7.494581205
 30
0.0
 10
12.4547930846
 20
7.4892419866
 30
0.0
 10
12.4516941608
 20
7.484205797
 30
0.0
 10
12.4485813028
 20
7.479476396
 30
0.0
 10
12.4454567784
 20
7.4750573476
 30
0.0
 10
12.4423229453
 20
7.4709519195
 30
0.0
 10
12.4391820303
 20
7.4671631956
 30
0.0
 10
12.4360363324
 20
7.4636939544
 30
0.0
 10
12.4328879959
 20
7.4605468202
 30
0.0
 10
12.4297392138
 20
7.45772412
 30
0.0
 10
12.4265920118
 20
7.4552280901
 30
0.0
 10
12.4234484446
 20
7.4530607099
 30
0.0
 10
12.4203104799
 20
7.451223985
 30
0.0
 10
12.4171800267
 20
7.4497197017
 30
0.0
 10
12.4140596236
 20
7.4485498779
 30
0.0
 10
12.4119554739
 20
7.4479855566
 30
0.0
 10
12.4109111072
 20
7.447763176
 30
0.0
  0
SPLINE
  5
3BA
100
AcDbEntity
  8
0
100
AcDbSpline
 62
7
  6
CONTINUOUS
 70
0
 71
3
 72
55
 73
51
 74
0
 42
0.0000001
 43
0.0000001
 44
0.0000000001
 40
0.0
 40
0.0
 40
0.0
 40
0.0
 40
0.0452110711
 40
0.0910029905
 40
0.1371915847
 40
0.1835900178
 40
0.230010719
 40
0.2762658725
 40
0.3221685558
 40
0.3675336494
 40
0.412178826
 40
0.4559255271
 40
0.4985999616
 40
0.5400341288
 40
0.5800668806
 40
0.6185450438
 40
0.6553246347
 40
0.6902722135
 40
0.7070210811
 40
0.7232675443
 40
0.7389986377
 40
0.7542024492
 40
0.7688681269
 40
0.7829861118
 40
0.796548096
 40
0.8095473804
 40
0.8219788114
 40
0.8338392782
 40
0.8451276804
 40
0.8558455861
 40
0.8659973138
 40
0.8755907874
 40
0.8846378505
 40
0.8931553742
 40
0.9011659319
 40
0.9086991893
 40
0.9157929525
 40
0.9224946273
 40
0.9288621576
 40
0.9349645978
 40
0.9408814796
 40
0.9467007815
 40
0.9525153391
 40
0.9584182322
 40
0.9644981095
 40
0.970835498
 40
0.9775005236
 40
0.9845523031
 40
0.9920391897
 40
1.0
 40
1.0
 40
1.0
 40
1.0
 10
12.5020210008
 20
7.9523808119
 30
0.0
 10
12.5020210008
 20
7.9467308179
 30
0.0
 10
12.5019202358
 20
7.9353580131
 30
0.0
 10
12.5014759188
 20
7.9182182724
 30
0.0
 10
12.5007391532
 20
7.9009400556
 30
0.0
 10
12.4997130881
 20
7.8835979125
 30
0.0
 10
12.4984021471
 20
7.8662666303
 30
0.0
 10
12.4968119844
 20
7.8490209415
 30
0.0
 10
12.4949494755
 20
7.8319352123
 30
0.0
 10
12.4928226802
 20
7.8150831105
 30
0.0
 10
12.490440812
 20
7.798537288
 30
0.0
 10
12.4878141972
 20
7.7823690621
 30
0.0
 10
12.4849542326
 20
7.7666481042
 30
0.0
 10
12.4818733375
 20
7.7514421288
 30
0.0
 10
12.4785848995
 20
7.7368166081
 30
0.0
 10
12.4751032271
 20
7.7228344205
 30
0.0
 10
12.4714434545
 20
7.7095557635
 30
0.0
 10
12.4682144764
 20
7.6989791692
 30
0.0
 10
12.4655471408
 20
7.6909179121
 30
0.0
 10
12.4635404957
 20
7.6851684277
 30
0.0
 10
12.4615015107
 20
7.6796356502
 30
0.0
 10
12.4594323812
 20
7.674325517
 30
0.0
 10
12.4573353299
 20
7.6692437328
 30
0.0
 10
12.4552126446
 20
7.6643957396
 30
0.0
 10
12.4530665821
 20
7.6597867335
 30
0.0
 10
12.4508994905
 20
7.6554216266
 30
0.0
 10
12.4487136493
 20
7.651305082
 30
0.0
 10
12.4465114447
 20
7.647441452
 30
0.0
 10
12.4442951581
 20
7.6438348425
 30
0.0
 10
12.4420671807
 20
7.6404890208
 30
0.0
 10
12.4398297622
 20
7.637407516
 30
0.0
 10
12.4375852457
 20
7.6345934969
 30
0.0
 10
12.4353357942
 20
7.632049917
 30
0.0
 10
12.4330836209
 20
7.629779373
 30
0.0
 10
12.4308307253
 20
7.627784307
 30
0.0
 10
12.4285791054
 20
7.6260668769
 30
0.0
 10
12.4263305706
 20
7.6246292237
 30
0.0
 10
12.4240869786
 20
7.6234733832
 30
0.0
 10
12.4218502545
 20
7.6226015361
 30
0.0
 10
12.4196227282
 20
7.6220158407
 30
0.0
 10
12.4174073278
 20
7.6217183332
 30
0.0
 10
12.4152077055
 20
7.6217104467
 30
0.0
 10
12.4130279805
 20
7.6219925602
 30
0.0
 10
12.4108722262
 20
7.6225638636
 30
0.0
 10
12.4087439205
 20
7.6234224658
 30
0.0
 10
12.4066457928
 20
7.6245660429
 30
0.0
 10
12.4045798555
 20
7.6259920391
 30
0.0
 10
12.4025477909
 20
7.6276981429
 30
0.0
 10
12.4005511617
 20
7.6296818576
 30
0.0
 10
12.3992850046
 20
7.6311415339
 30
0.0
 10
12.398657281
 20
7.6319133516
 30
0.0
  0
SPLINE
  5
3BB
100
AcDbEntity
  8
0
100
AcDbSpline
 62
7
  6
CONTINUOUS
 70
0
 71
3
 72
50
 73
46
 74
0
 42
0.0000001
 43
0.0000001
 44
0.0000000001
 40
0.0
 40
0.0
 40
0.0
 40
0.0
 40
0.0417738367
 40
0.0840373826
 40
0.1266588193
 40
0.1695070323
 40
0.2124487401
 40
0.255350829
 40
0.298080151
 40
0.3405042986
 40
0.3824920528
 40
0.4239139339
 40
0.4646427302
 40
0.5045540425
 40
0.5435268344
 40
0.5814439985
 40
0.6181929465
 40
0.6536662328
 40
0.6877622263
 40
0.7203858531
 40
0.7514494395
 40
0.7808737042
 40
0.8085889706
 40
0.8217875397
 40
0.834537957
 40
0.8468349689
 40
0.8586743072
 40
0.8700528541
 40
0.8809686049
 40
0.8914210826
 40
0.9014111943
 40
0.9109418199
 40
0.9200177276
 40
0.9286462143
 40
0.9368372702
 40
0.9446041888
 40
0.9519640963
 40
0.9589385154
 40
0.9655542214
 40
0.9718437255
 40
0.9778461407
 40
0.9836073222
 40
0.9891800219
 40
0.9946230638
 40
1.0
 40
1.0
 40
1.0
 40
1.0
 10
12.4652786593
 20
7.9468904333
 30
0.0
 10
12.4652786593
 20
7.9425063335
 30
0.0
 10
12.4652102586
 20
7.933686602
 30
0.0
 10
12.4649078947
 20
7.9203969319
 30
0.0
 10
12.4644060233
 20
7.9070004449
 30
0.0
 10
12.4637063206
 20
7.8935415807
 30
0.0
 10
12.4628110765
 20
7.8800647893
 30
0.0
 10
12.4617232627
 20
7.8666146909
 30
0.0
 10
12.4604464767
 20
7.853235771
 30
0.0
 10
12.4589849534
 20
7.8399722943
 30
0.0
 10
12.4573435406
 20
7.8268681363
 30
0.0
 10
12.4555276874
 20
7.8139666434
 30
0.0
 10
12.4535434253
 20
7.8013104858
 30
0.0
 10
12.4513973496
 20
7.7889415149
 30
0.0
 10
12.4490965968
 20
7.7769006226
 30
0.0
 10
12.4466488219
 20
7.7652276037
 30
0.0
 10
12.4440621735
 20
7.7539610205
 30
0.0
 10
12.4413452667
 20
7.7431380716
 30
0.0
 10
12.4385071557
 20
7.7327944582
 30
0.0
 10
12.4355573014
 20
7.7229642735
 30
0.0
 10
12.4325055426
 20
7.7136798184
 30
0.0
 10
12.4293620436
 20
7.7049716827
 30
0.0
 10
12.4266321134
 20
7.698111379
 30
0.0
 10
12.4244042046
 20
7.6929384644
 30
0.0
 10
12.4227441204
 20
7.6892836783
 30
0.0
 10
12.4210689892
 20
7.6857933236
 30
0.0
 10
12.4193801626
 20
7.6824702651
 30
0.0
 10
12.4176790612
 20
7.6793172155
 30
0.0
 10
12.4159670412
 20
7.6763367645
 30
0.0
 10
12.4142455498
 20
7.6735313203
 30
0.0
 10
12.4125159306
 20
7.6709031835
 30
0.0
 10
12.4107796294
 20
7.6684544539
 30
0.0
 10
12.4090379805
 20
7.6661871277
 30
0.0
 10
12.4072923836
 20
7.6641030059
 30
0.0
 10
12.4055441579
 20
7.6622037704
 30
0.0
 10
12.4037946115
 20
7.6604909532
 30
0.0
 10
12.4020450265
 20
7.6589659381
 30
0.0
 10
12.4002965919
 20
7.6576300546
 30
0.0
 10
12.3985505353
 20
7.6564844617
 30
0.0
 10
12.3968079757
 20
7.655530399
 30
0.0
 10
12.3950701567
 20
7.6547689371
 30
0.0
 10
12.3933383706
 20
7.6542013014
 30
0.0
 10
12.3916140804
 20
7.653828512
 30
0.0
 10
12.3898993572
 20
7.6536515254
 30
0.0
 10
12.3887609282
 20
7.6536645295
 30
0.0
 10
12.3881979788
 20
7.6537035657
 30
0.0
  0
SPLINE
  5
3BC
100
AcDbEntity
  8
0
100
AcDbSpline
 62
7
  6
CONTINUOUS
 70
0
 71
3
 72
54
 73
50
 74
0
 42
0.0000001
 43
0.0000001
 44
0.0000000001
 40
0.0
 40
0.0
 40
0.0
 40
0.0
 40
0.0532128765
 40
0.1056341964
 40
0.1571449529
 40
0.2076354589
 40
0.2569955515
 40
0.3051196132
 40
0.351905789
 40
0.3972564476
 40
0.4410787524
 40
0.4832851135
 40
0.5237938475
 40
0.5625297723
 40
0.5994249528
 40
0.6344196323
 40
0.6674634611
 40
0.6985169713
 40
0.7132893112
 40
0.7275552465
 40
0.7413138804
 40
0.7545655453
 40
0.7673117086
 40
0.7795555243
 40
0.7913016652
 40
0.8025567013
 40
0.8133294757
 40
0.8236310954
 40
0.833475654
 40
0.8428803788
 40
0.8518660949
 40
0.860457898
 40
0.8686853185
 40
0.8765830128
 40
0.8841909613
 40
0.8915545207
 40
0.8987243999
 40
0.9057558956
 40
0.9127079777
 40
0.91964183
 40
0.9266191607
 40
0.9337004254
 40
0.9409432506
 40
0.948401168
 40
0.9641397486
 40
0.9725126414
 40
0.9812625886
 40
0.9904173188
 40
1.0
 40
1.0
 40
1.0
 40
1.0
 10
12.5020210008
 20
7.9523808119
 30
0.0
 10
12.5020210008
 20
7.9565160463
 30
0.0
 10
12.5019677307
 20
7.9647251119
 30
0.0
 10
12.5017245805
 20
7.976934969
 30
0.0
 10
12.5013192739
 20
7.9889288838
 30
0.0
 10
12.500752843
 20
8.0006781263
 30
0.0
 10
12.5000266242
 20
8.0121549082
 30
0.0
 10
12.4991423837
 20
8.0233318883
 30
0.0
 10
12.4981022598
 20
8.034182518
 30
0.0
 10
12.4969087621
 20
8.044681021
 30
0.0
 10
12.4955647702
 20
8.0548024639
 30
0.0
 10
12.4940735215
 20
8.0645228294
 30
0.0
 10
12.4924386199
 20
8.0738190765
 30
0.0
 10
12.4906640117
 20
8.0826692049
 30
0.0
 10
12.488753975
 20
8.0910522916
 30
0.0
 10
12.4867131037
 20
8.0989486153
 30
0.0
 10
12.4845462917
 20
8.106339515
 30
0.0
 10
12.4826090927
 20
8.1121561934
 30
0.0
 10
12.4809943945
 20
8.1165382936
 30
0.0
 10
12.4797753126
 20
8.1196329285
 30
0.0
 10
12.4785287022
 20
8.1225887528
 30
0.0
 10
12.4772553069
 20
8.125404044
 30
0.0
 10
12.4759558337
 20
8.1280771358
 30
0.0
 10
12.4746310755
 20
8.1306064794
 30
0.0
 10
12.4732817819
 20
8.1329905967
 30
0.0
 10
12.4719087057
 20
8.1352280915
 30
0.0
 10
12.4705126598
 20
8.1373176877
 30
0.0
 10
12.4690943689
 20
8.1392581478
 30
0.0
 10
12.4676546309
 20
8.14104836
 30
0.0
 10
12.4661942073
 20
8.1426872789
 30
0.0
 10
12.4647138163
 20
8.1441738939
 30
0.0
 10
12.4632142495
 20
8.1455073275
 30
0.0
 10
12.4616962079
 20
8.1466866661
 30
0.0
 10
12.4601604631
 20
8.1477110788
 30
0.0
 10
12.45860782
 20
8.1485797754
 30
0.0
 10
12.4570391064
 20
8.1492919011
 30
0.0
 10
12.4554553248
 20
8.149846782
 30
0.0
 10
12.4538575517
 20
8.1502437215
 30
0.0
 10
12.4522470274
 20
8.1504822121
 30
0.0
 10
12.4506250915
 20
8.1505620205
 30
0.0
 10
12.4489931096
 20
8.1504830149
 30
0.0
 10
12.4473524478
 20
8.1502454826
 30
0.0
 10
12.445704255
 20
8.1498497474
 30
0.0
 10
12.4434585845
 20
8.1490987233
 30
0.0
 10
12.4412365331
 20
8.148032578
 30
0.0
 10
12.4390584781
 20
8.1466973772
 30
0.0
 10
12.4373880288
 20
8.1455202589
 30
0.0
 10
12.4357160815
 20
8.1441891913
 30
0.0
 10
12.4346263257
 20
8.1432223095
 30
0.0
 10
12.4340812073
 20
8.1427149672
 30
0.0
  0
SPLINE
  5
3BD
100
AcDbEntity
  8
0
100
AcDbSpline
 62
7
  6
CONTINUOUS
 70
0
 71
3
 72
38
 73
34
 74
0
 42
0.0000001
 43
0.0000001
 44
0.0000000001
 40
0.0
 40
0.0
 40
0.0
 40
0.0
 40
0.0964143705
 40
0.1901888246
 40
0.280758669
 40
0.3246724652
 40
0.3675849797
 40
0.4094337339
 40
0.4501588662
 40
0.4897031149
 40
0.528011967
 40
0.565034225
 40
0.600721968
 40
0.6350310144
 40
0.6679214645
 40
0.6993578104
 40
0.7293098167
 40
0.7577531215
 40
0.7846698684
 40
0.81005021
 40
0.8338934
 40
0.8562096384
 40
0.8770227852
 40
0.8963731045
 40
0.9143215844
 40
0.9309551394
 40
0.9463924437
 40
0.9607907557
 40
0.9743510637
 40
0.9808968266
 40
0.9873288844
 40
0.9936838997
 40
1.0
 40
1.0
 40
1.0
 40
1.0
 10
12.4652786593
 20
7.9468904333
 30
0.0
 10
12.4652786593
 20
7.952968104
 30
0.0
 10
12.4651499214
 20
7.9649575176
 30
0.0
 10
12.464556691
 20
7.9826472433
 30
0.0
 10
12.4637260946
 20
7.9970136609
 30
0.0
 10
12.4628591481
 20
8.0081628119
 30
0.0
 10
12.4621194105
 20
8.016240574
 30
0.0
 10
12.4612847213
 20
8.0241069829
 30
0.0
 10
12.4603564698
 20
8.0317490845
 30
0.0
 10
12.4593362113
 20
8.039154285
 30
0.0
 10
12.458225625
 20
8.046310389
 30
0.0
 10
12.4570265843
 20
8.0532056194
 30
0.0
 10
12.4557410778
 20
8.0598286359
 30
0.0
 10
12.4543712364
 20
8.0661685561
 30
0.0
 10
12.4529193644
 20
8.0722149813
 30
0.0
 10
12.4513878536
 20
8.0779580072
 30
0.0
 10
12.4497792507
 20
8.0833882533
 30
0.0
 10
12.4480962331
 20
8.0884968845
 30
0.0
 10
12.4463415371
 20
8.0932756171
 30
0.0
 10
12.4445180447
 20
8.0977167649
 30
0.0
 10
12.4426286837
 20
8.1018132436
 30
0.0
 10
12.4406763875
 20
8.1055585769
 30
0.0
 10
12.4386641361
 20
8.1089469483
 30
0.0
 10
12.4365947742
 20
8.1119731377
 30
0.0
 10
12.4344709649
 20
8.1146324902
 30
0.0
 10
12.4322952029
 20
8.1169208076
 30
0.0
 10
12.4300694212
 20
8.1188340394
 30
0.0
 10
12.4277960797
 20
8.1203678213
 30
0.0
 10
12.4258400216
 20
8.1213372058
 30
0.0
 10
12.4242658054
 20
8.1219073791
 30
0.0
 10
12.423090162
 20
8.1222332924
 30
0.0
 10
12.4219066437
 20
8.1224620811
 30
0.0
 10
12.4211116831
 20
8.1225498485
 30
0.0
 10
12.420714489
 20
8.1225773909
 30
0.0
  0
SPLINE
  5
3BE
100
AcDbEntity
  8
0
100
AcDbSpline
 62
7
  6
CONTINUOUS
 70
0
 71
3
 72
42
 73
38
 74
0
 42
0.0000001
 43
0.0000001
 44
0.0000000001
 40
0.0
 40
0.0
 40
0.0
 40
0.0
 40
0.0311443913
 40
0.046777235
 40
0.0624471551
 40
0.0938918204
 40
0.1254739599
 40
0.1571813338
 40
0.1889991892
 40
0.2209105811
 40
0.2528967256
 40
0.2849373804
 40
0.3170112458
 40
0.3490963805
 40
0.3811706262
 40
0.413212034
 40
0.44519929
 40
0.47711213
 40
0.508931742
 40
0.5406411461
 40
0.5722255491
 40
0.6036726649
 40
0.634972994
 40
0.6661200568
 40
0.6971105715
 40
0.727944571
 40
0.7586254529
 40
0.7891599555
 40
0.8195580589
 40
0.8498328057
 40
0.8649315687
 40
0.8800056542
 40
0.9100837089
 40
0.940092975
 40
0.9550815001
 40
0.9700611853
 40
1.0
 40
1.0
 40
1.0
 40
1.0
 10
9.6631832298
 20
8.6465020478
 30
0.0
 10
9.6600225842
 20
8.6467212393
 30
0.0
 10
9.6552851788
 20
8.6472238504
 30
0.0
 10
9.6490124345
 20
8.6482338883
 30
0.0
 10
9.6427496473
 20
8.6494739052
 30
0.0
 10
9.6349839069
 20
8.6514487487
 30
0.0
 10
9.6258277898
 20
8.6544799703
 30
0.0
 10
9.616871156
 20
8.6581593614
 30
0.0
 10
9.6081620317
 20
8.6624671829
 30
0.0
 10
9.5997467452
 20
8.6673804293
 30
0.0
 10
9.5916701559
 20
8.6728728632
 30
0.0
 10
9.583975291
 20
8.6789151782
 30
0.0
 10
9.5767031532
 20
8.685475148
 30
0.0
 10
9.5698924955
 20
8.6925177981
 30
0.0
 10
9.5635796192
 20
8.7000055907
 30
0.0
 10
9.5577981818
 20
8.7078986225
 30
0.0
 10
9.552579019
 20
8.7161548353
 30
0.0
 10
9.5479499821
 20
8.7247302377
 30
0.0
 10
9.5439357901
 20
8.7335791364
 30
0.0
 10
9.5405578982
 20
8.7426543773
 30
0.0
 10
9.5378343836
 20
8.7519075929
 30
0.0
 10
9.5357798484
 20
8.7612894573
 30
0.0
 10
9.5344053399
 20
8.7707499446
 30
0.0
 10
9.5337182897
 20
8.7802385937
 30
0.0
 10
9.5337224698
 20
8.7897047707
 30
0.0
 10
9.5344179726
 20
8.7990979469
 30
0.0
 10
9.5358011878
 20
8.8083679288
 30
0.0
 10
9.5378648808
 20
8.8174652627
 30
0.0
 10
9.540597985
 20
8.8263409903
 30
0.0
 10
9.5434244523
 20
8.8335209435
 30
0.0
 10
9.5460037959
 20
8.8391044475
 30
0.0
 10
9.5487873389
 20
8.8445665788
 30
0.0
 10
9.5526521947
 20
8.8511732823
 30
0.0
 10
9.5570140967
 20
8.8574523827
 30
0.0
 10
9.5607834597
 20
8.8622519429
 30
0.0
 10
9.5647325856
 20
8.8668948836
 30
0.0
 10
9.5678965534
 20
8.8702002409
 30
0.0
 10
9.570087112
 20
8.8723161599
 30
0.0
  0
SPLINE
  5
3BF
100
AcDbEntity
  8
0
100
AcDbSpline
 62
4
  6
CONTINUOUS
 70
0
 71
3
 72
403
 73
399
 74
0
 42
0.0000001
 43
0.0000001
 44
0.0000000001
 40
0.0
 40
0.0
 40
0.0
 40
0.0
 40
0.015625
 40
0.0234375
 40
0.03125
 40
0.0390625
 40
0.04296875
 40
0.046875
 40
0.05078125
 40
0.0546875
 40
0.056640625
 40
0.05859375
 40
0.0595703125
 40
0.060546875
 40
0.0615234375
 40
0.0620117188
 40
0.0622558594
 40
0.0625
 40
0.0627441406
 40
0.0629882812
 40
0.0634765625
 40
0.064453125
 40
0.0654296875
 40
0.06640625
 40
0.068359375
 40
0.0703125
 40
0.07421875
 40
0.078125
 40
0.08203125
 40
0.0859375
 40
0.09375
 40
0.1015625
 40
0.10546875
 40
0.109375
 40
0.11328125
 40
0.1171875
 40
0.119140625
 40
0.12109375
 40
0.1220703125
 40
0.123046875
 40
0.1240234375
 40
0.1245117188
 40
0.1247558594
 40
0.125
 40
0.1252441406
 40
0.1254882812
 40
0.1259765625
 40
0.126953125
 40
0.1279296875
 40
0.12890625
 40
0.130859375
 40
0.1328125
 40
0.13671875
 40
0.140625
 40
0.14453125
 40
0.1484375
 40
0.15625
 40
0.1640625
 40
0.16796875
 40
0.171875
 40
0.17578125
 40
0.1796875
 40
0.181640625
 40
0.18359375
 40
0.1845703125
 40
0.185546875
 40
0.1865234375
 40
0.1870117188
 40
0.1872558594
 40
0.1875
 40
0.1877441406
 40
0.1879882812
 40
0.1884765625
 40
0.189453125
 40
0.1904296875
 40
0.19140625
 40
0.193359375
 40
0.1953125
 40
0.19921875
 40
0.203125
 40
0.20703125
 40
0.2109375
 40
0.21875
 40
0.2265625
 40
0.23046875
 40
0.234375
 40
0.23828125
 40
0.2421875
 40
0.244140625
 40
0.24609375
 40
0.2470703125
 40
0.248046875
 40
0.2490234375
 40
0.2495117188
 40
0.2497558594
 40
0.25
 40
0.2502441406
 40
0.2504882812
 40
0.2509765625
 40
0.251953125
 40
0.2529296875
 40
0.25390625
 40
0.255859375
 40
0.2578125
 40
0.26171875
 40
0.265625
 40
0.26953125
 40
0.2734375
 40
0.28125
 40
0.2890625
 40
0.29296875
 40
0.296875
 40
0.30078125
 40
0.3046875
 40
0.306640625
 40
0.30859375
 40
0.3095703125
 40
0.310546875
 40
0.3115234375
 40
0.3120117188
 40
0.3122558594
 40
0.3125
 40
0.3127441406
 40
0.3129882812
 40
0.3134765625
 40
0.314453125
 40
0.3154296875
 40
0.31640625
 40
0.318359375
 40
0.3203125
 40
0.32421875
 40
0.328125
 40
0.33203125
 40
0.3359375
 40
0.34375
 40
0.3515625
 40
0.35546875
 40
0.359375
 40
0.36328125
 40
0.3671875
 40
0.369140625
 40
0.37109375
 40
0.3720703125
 40
0.373046875
 40
0.3740234375
 40
0.3745117188
 40
0.3747558594
 40
0.375
 40
0.3752441406
 40
0.3754882812
 40
0.3759765625
 40
0.376953125
 40
0.3779296875
 40
0.37890625
 40
0.380859375
 40
0.3828125
 40
0.38671875
 40
0.390625
 40
0.39453125
 40
0.3984375
 40
0.40625
 40
0.4140625
 40
0.41796875
 40
0.421875
 40
0.42578125
 40
0.4296875
 40
0.431640625
 40
0.43359375
 40
0.4345703125
 40
0.435546875
 40
0.4365234375
 40
0.4370117188
 40
0.4372558594
 40
0.4375
 40
0.4377441406
 40
0.4379882812
 40
0.4384765625
 40
0.439453125
 40
0.4404296875
 40
0.44140625
 40
0.443359375
 40
0.4453125
 40
0.44921875
 40
0.453125
 40
0.45703125
 40
0.4609375
 40
0.46875
 40
0.4765625
 40
0.48046875
 40
0.484375
 40
0.48828125
 40
0.4921875
 40
0.494140625
 40
0.49609375
 40
0.4970703125
 40
0.498046875
 40
0.4990234375
 40
0.4995117188
 40
0.4997558594
 40
0.5
 40
0.5002441406
 40
0.5004882812
 40
0.5009765625
 40
0.501953125
 40
0.5029296875
 40
0.50390625
 40
0.505859375
 40
0.5078125
 40
0.51171875
 40
0.515625
 40
0.51953125
 40
0.5234375
 40
0.53125
 40
0.5390625
 40
0.54296875
 40
0.546875
 40
0.55078125
 40
0.5546875
 40
0.556640625
 40
0.55859375
 40
0.5595703125
 40
0.560546875
 40
0.5615234375
 40
0.5620117188
 40
0.5622558594
 40
0.5625
 40
0.5627441406
 40
0.5629882812
 40
0.5634765625
 40
0.564453125
 40
0.5654296875
 40
0.56640625
 40
0.568359375
 40
0.5703125
 40
0.57421875
 40
0.578125
 40
0.58203125
 40
0.5859375
 40
0.59375
 40
0.6015625
 40
0.60546875
 40
0.609375
 40
0.61328125
 40
0.6171875
 40
0.619140625
 40
0.62109375
 40
0.6220703125
 40
0.623046875
 40
0.6240234375
 40
0.6245117188
 40
0.6247558594
 40
0.625
 40
0.6252441406
 40
0.6254882812
 40
0.6259765625
 40
0.626953125
 40
0.6279296875
 40
0.62890625
 40
0.630859375
 40
0.6328125
 40
0.63671875
 40
0.640625
 40
0.64453125
 40
0.6484375
 40
0.65625
 40
0.6640625
 40
0.66796875
 40
0.671875
 40
0.67578125
 40
0.6796875
 40
0.681640625
 40
0.68359375
 40
0.6845703125
 40
0.685546875
 40
0.6865234375
 40
0.6870117188
 40
0.6872558594
 40
0.6875
 40
0.6877441406
 40
0.6879882812
 40
0.6884765625
 40
0.689453125
 40
0.6904296875
 40
0.69140625
 40
0.693359375
 40
0.6953125
 40
0.69921875
 40
0.703125
 40
0.70703125
 40
0.7109375
 40
0.71875
 40
0.7265625
 40
0.73046875
 40
0.734375
 40
0.73828125
 40
0.7421875
 40
0.744140625
 40
0.74609375
 40
0.7470703125
 40
0.748046875
 40
0.7490234375
 40
0.7495117188
 40
0.7497558594
 40
0.75
 40
0.7502441406
 40
0.7504882812
 40
0.7509765625
 40
0.751953125
 40
0.7529296875
 40
0.75390625
 40
0.755859375
 40
0.7578125
 40
0.76171875
 40
0.765625
 40
0.76953125
 40
0.7734375
 40
0.78125
 40
0.7890625
 40
0.79296875
 40
0.796875
 40
0.80078125
 40
0.8046875
 40
0.806640625
 40
0.80859375
 40
0.8095703125
 40
0.810546875
 40
0.8115234375
 40
0.8120117188
 40
0.8122558594
 40
0.8125
 40
0.8127441406
 40
0.8129882812
 40
0.8134765625
 40
0.814453125
 40
0.8154296875
 40
0.81640625
 40
0.818359375
 40
0.8203125
 40
0.82421875
 40
0.828125
 40
0.83203125
 40
0.8359375
 40
0.84375
 40
0.8515625
 40
0.85546875
 40
0.859375
 40
0.86328125
 40
0.8671875
 40
0.869140625
 40
0.87109375
 40
0.8720703125
 40
0.873046875
 40
0.8740234375
 40
0.8745117188
 40
0.8747558594
 40
0.875
 40
0.8752441406
 40
0.8754882812
 40
0.8759765625
 40
0.876953125
 40
0.8779296875
 40
0.87890625
 40
0.880859375
 40
0.8828125
 40
0.88671875
 40
0.890625
 40
0.89453125
 40
0.8984375
 40
0.90625
 40
0.9140625
 40
0.91796875
 40
0.921875
 40
0.92578125
 40
0.9296875
 40
0.931640625
 40
0.93359375
 40
0.9345703125
 40
0.935546875
 40
0.9365234375
 40
0.9370117188
 40
0.9372558594
 40
0.9375
 40
0.9377441406
 40
0.9379882812
 40
0.9384765625
 40
0.939453125
 40
0.9404296875
 40
0.94140625
 40
0.943359375
 40
0.9453125
 40
0.94921875
 40
0.953125
 40
0.95703125
 40
0.9609375
 40
0.96875
 40
0.9765625
 40
0.984375
 40
1.0
 40
1.0
 40
1.0
 40
1.0
 10
10.2516252919
 20
8.9766089915
 30
0.0
 10
10.2519325036
 20
8.9734544994
 30
0.0
 10
10.2523933211
 20
8.9687227612
 30
0.0
 10
10.2530077444
 20
8.9624137769
 30
0.0
 10
10.2534685619
 20
8.9576820388
 30
0.0
 10
10.2538525764
 20
8.9537389236
 30
0.0
 10
10.2541597883
 20
8.9505844315
 30
0.0
 10
10.2543901961
 20
8.9482185623
 30
0.0
 10
10.2546206085
 20
8.9458526937
 30
0.0
 10
10.2548126044
 20
8.9438811346
 30
0.0
 10
10.2549662336
 20
8.9423038916
 30
0.0
 10
10.2550621777
 20
8.9413181051
 30
0.0
 10
10.2551391027
 20
8.9405294978
 30
0.0
 10
10.255196332
 20
8.9399379826
 30
0.0
 10
10.2552455007
 20
8.9394452433
 30
0.0
 10
10.2552770189
 20
8.9390999527
 30
0.0
 10
10.2552995572
 20
8.9389032264
 30
0.0
 10
10.2553037058
 20
8.9387540406
 30
0.0
 10
10.2553566109
 20
8.9386111276
 30
0.0
 10
10.2554101441
 20
8.9384183889
 30
0.0
 10
10.2555117511
 20
8.9380821156
 30
0.0
 10
10.2556527614
 20
8.9376011922
 30
0.0
 10
10.2558237468
 20
8.9370243123
 30
0.0
 10
10.2560511081
 20
8.9362550593
 30
0.0
 10
10.2563355218
 20
8.9352935204
 30
0.0
 10
10.2567904651
 20
8.933755043
 30
0.0
 10
10.2573591849
 20
8.9318319514
 30
0.0
 10
10.2580416313
 20
8.9295242393
 30
0.0
 10
10.2587240823
 20
8.9272165277
 30
0.0
 10
10.2596340154
 20
8.9241395788
 30
0.0
 10
10.2607714323
 20
8.9202933927
 30
0.0
 10
10.2619088489
 20
8.9164472065
 30
0.0
 10
10.2628187826
 20
8.9133702577
 30
0.0
 10
10.2635012317
 20
8.9110625457
 30
0.0
 10
10.2641836852
 20
8.9087548352
 30
0.0
 10
10.2647523828
 20
8.9068317385
 30
0.0
 10
10.2652073715
 20
8.9052932716
 30
0.0
 10
10.2654916696
 20
8.9043317058
 30
0.0
 10
10.265719268
 20
8.903562508
 30
0.0
 10
10.265889529
 20
8.9029854596
 30
0.0
 10
10.2660328059
 20
8.9025050634
 30
0.0
 10
10.2661303666
 20
8.9021678491
 30
0.0
 10
10.2661903831
 20
8.9019766181
 30
0.0
 10
10.2662233738
 20
8.9018290737
 30
0.0
 10
10.2663023173
 20
8.9016972828
 30
0.0
 10
10.2663915464
 20
8.9015160665
 30
0.0
 10
10.2665551655
 20
8.9012014983
 30
0.0
 10
10.2667850026
 20
8.9007507767
 30
0.0
 10
10.2670624783
 20
8.9002104836
 30
0.0
 10
10.2674318623
 20
8.8994898928
 30
0.0
 10
10.2678937921
 20
8.8985892227
 30
0.0
 10
10.2686327681
 20
8.8971481123
 30
0.0
 10
10.2695565264
 20
8.8953467375
 30
0.0
 10
10.27066502
 20
8.8931850821
 30
0.0
 10
10.271773518
 20
8.8910234282
 30
0.0
 10
10.2732515137
 20
8.8881412224
 30
0.0
 10
10.2750990089
 20
8.8845384654
 30
0.0
 10
10.2769465038
 20
8.8809357083
 30
0.0
 10
10.2784245001
 20
8.8780535028
 30
0.0
 10
10.2795329963
 20
8.8758918481
 30
0.0
 10
10.2806414967
 20
8.8737301955
 30
0.0
 10
10.2815652337
 20
8.871928812
 30
0.0
 10
10.2823042531
 20
8.8704877193
 30
0.0
 10
10.2827660725
 20
8.8695870042
 30
0.0
 10
10.2831356832
 20
8.8688665058
 30
0.0
 10
10.2834124662
 20
8.8683259302
 30
0.0
 10
10.2836444708
 20
8.8678760926
 30
0.0
 10
10.2838042205
 20
8.8675599463
 30
0.0
 10
10.2838996493
 20
8.8673812586
 30
0.0
 10
10.2839595495
 20
8.8672417007
 30
0.0
 10
10.2840640635
 20
8.8671233276
 30
0.0
 10
10.2841878538
 20
8.8669581074
 30
0.0
 10
10.2844117373
 20
8.8666724148
 30
0.0
 10
10.2847277803
 20
8.8662624826
 30
0.0
 10
10.2851086543
 20
8.8657713344
 30
0.0
 10
10.2856159197
 20
8.865116201
 30
0.0
 10
10.2862501955
 20
8.8642973763
 30
0.0
 10
10.2872649282
 20
8.8629872055
 30
0.0
 10
10.2885333813
 20
8.8613495096
 30
0.0
 10
10.2900555092
 20
8.8593842669
 30
0.0
 10
10.2915776412
 20
8.8574190263
 30
0.0
 10
10.2936071492
 20
8.8547987047
 30
0.0
 10
10.2961440347
 20
8.851523303
 30
0.0
 10
10.2986809199
 20
8.8482479011
 30
0.0
 10
10.3007104283
 20
8.8456275799
 30
0.0
 10
10.3022325589
 20
8.8436623381
 30
0.0
 10
10.3037546925
 20
8.8416970998
 30
0.0
 10
10.3050231275
 20
8.8400593903
 30
0.0
 10
10.3060378973
 20
8.8387492472
 30
0.0
 10
10.3066720788
 20
8.837930352
 30
0.0
 10
10.3071795375
 20
8.8372753635
 30
0.0
 10
10.3075598208
 20
8.8367837727
 30
0.0
 10
10.3078777121
 20
8.8363752251
 30
0.0
 10
10.308098296
 20
8.8360870607
 30
0.0
 10
10.3082273731
 20
8.835925801
 30
0.0
 10
10.3083156478
 20
8.8357952623
 30
0.0
 10
10.3084365405
 20
8.8357013964
 30
0.0
 10
10.3085863533
 20
8.83556345
 30
0.0
 10
10.3088538266
 20
8.8353280037
 30
0.0
 10
10.3092331599
 20
8.8349885359
 30
0.0
 10
10.3096895461
 20
8.8345825083
 30
0.0
 10
10.3102976467
 20
8.8340406723
 30
0.0
 10
10.3110579144
 20
8.8333635369
 30
0.0
 10
10.3122742633
 20
8.832280031
 30
0.0
 10
10.3137947267
 20
8.8309256792
 30
0.0
 10
10.3156192711
 20
8.829300444
 30
0.0
 10
10.3174438187
 20
8.8276752123
 30
0.0
 10
10.3198765476
 20
8.8255082354
 30
0.0
 10
10.3229174592
 20
8.8227995148
 30
0.0
 10
10.3259583705
 20
8.8200907939
 30
0.0
 10
10.3283910999
 20
8.8179238176
 30
0.0
 10
10.3302156462
 20
8.8162985843
 30
0.0
 10
10.3320401952
 20
8.8146733549
 30
0.0
 10
10.3335606444
 20
8.8133189852
 30
0.0
 10
10.3347770222
 20
8.8122355158
 30
0.0
 10
10.3355372164
 20
8.8115582876
 30
0.0
 10
10.3361454679
 20
8.811016642
 30
0.0
 10
10.3366013931
 20
8.8106100326
 30
0.0
 10
10.3369821688
 20
8.8102723851
 30
0.0
 10
10.3372470672
 20
8.8100336894
 30
0.0
 10
10.3374010055
 20
8.8099009494
 30
0.0
 10
10.3375092259
 20
8.809791091
 30
0.0
 10
10.3376450958
 20
8.8097206175
 30
0.0
 10
10.3378166112
 20
8.8096129149
 30
0.0
 10
10.3381212567
 20
8.8094308362
 30
0.0
 10
10.3385541154
 20
8.8091673773
 30
0.0
 10
10.3390745513
 20
8.808852659
 30
0.0
 10
10.3397681146
 20
8.8084325343
 30
0.0
 10
10.340635189
 20
8.8079075497
 30
0.0
 10
10.3420224408
 20
8.8070674787
 30
0.0
 10
10.3437565287
 20
8.8060174227
 30
0.0
 10
10.3458374242
 20
8.8047573415
 30
0.0
 10
10.3479183224
 20
8.803497264
 30
0.0
 10
10.3506928524
 20
8.8018171594
 30
0.0
 10
10.3541610152
 20
8.7997170291
 30
0.0
 10
10.3576291778
 20
8.7976168985
 30
0.0
 10
10.3604037081
 20
8.7959367945
 30
0.0
 10
10.3624846054
 20
8.7946767153
 30
0.0
 10
10.3645655044
 20
8.7934166404
 30
0.0
 10
10.3662995813
 20
8.7923665647
 30
0.0
 10
10.3676868555
 20
8.7915265339
 30
0.0
 10
10.3685538729
 20
8.791001447
 30
0.0
 10
10.3692475533
 20
8.7905815325
 30
0.0
 10
10.3697676316
 20
8.790266172
 30
0.0
 10
10.3702016091
 20
8.7900047222
 30
0.0
 10
10.3705042572
 20
8.789819057
 30
0.0
 10
10.3706789729
 20
8.7897171008
 30
0.0
 10
10.3708050127
 20
8.7896289761
 30
0.0
 10
10.3709501532
 20
8.7895854129
 30
0.0
 10
10.3711370113
 20
8.7895117852
 30
0.0
 10
10.3714671173
 20
8.7893901787
 30
0.0
 10
10.3719370742
 20
8.7892126689
 30
0.0
 10
10.3725017172
 20
8.7890012777
 30
0.0
 10
10.373254332
 20
8.7887188568
 30
0.0
 10
10.3741951834
 20
8.7883660244
 30
0.0
 10
10.3757004994
 20
8.7878013844
 30
0.0
 10
10.3775821602
 20
8.7870956214
 30
0.0
 10
10.3798401464
 20
8.78624869
 30
0.0
 10
10.3820981344
 20
8.7854017628
 30
0.0
 10
10.3851087845
 20
8.7842725251
 30
0.0
 10
10.3888720973
 20
8.7828609785
 30
0.0
 10
10.39263541
 20
8.7814494315
 30
0.0
 10
10.3956460602
 20
8.7803201944
 30
0.0
 10
10.3979040476
 20
8.7794732654
 30
0.0
 10
10.4001620363
 20
8.7786263409
 30
0.0
 10
10.4020436893
 20
8.7779205563
 30
0.0
 10
10.4035490213
 20
8.7773559604
 30
0.0
 10
10.4044898319
 20
8.7770030155
 30
0.0
 10
10.4052425304
 20
8.7767208257
 30
0.0
 10
10.4058069174
 20
8.7765087286
 30
0.0
 10
10.4062776756
 20
8.7763334273
 30
0.0
 10
10.4066063511
 20
8.7762078783
 30
0.0
 10
10.4067955011
 20
8.7761405674
 30
0.0
 10
10.4069336018
 20
8.776077601
 30
0.0
 10
10.4070860817
 20
8.7760623518
 30
0.0
 10
10.4072843726
 20
8.7760253753
 30
0.0
 10
10.4076337185
 20
8.7759684213
 30
0.0
 10
10.4081315623
 20
8.7758830041
 30
0.0
 10
10.4087294979
 20
8.7757822388
 30
0.0
 10
10.4095265626
 20
8.775647279
 30
0.0
 10
10.4105229561
 20
8.7754787867
 30
0.0
 10
10.4121171507
 20
8.7752090831
 30
0.0
 10
10.414109906
 20
8.7748719935
 30
0.0
 10
10.4165012072
 20
8.7744674688
 30
0.0
 10
10.4188925097
 20
8.7740629487
 30
0.0
 10
10.4220809127
 20
8.7735235869
 30
0.0
 10
10.4260664165
 20
8.7728493853
 30
0.0
 10
10.4300519203
 20
8.7721751833
 30
0.0
 10
10.4332403233
 20
8.7716358222
 30
0.0
 10
10.4356316256
 20
8.7712313001
 30
0.0
 10
10.4380229276
 20
8.7708267829
 30
0.0
 10
10.4400156805
 20
8.7704896701
 30
0.0
 10
10.4416098799
 20
8.7702200137
 30
0.0
 10
10.4426062613
 20
8.7700514012
 30
0.0
 10
10.4434033509
 20
8.7699166883
 30
0.0
 10
10.4440012106
 20
8.7698151686
 30
0.0
 10
10.4444992917
 20
8.7697321117
 30
0.0
 10
10.4448482141
 20
8.7696709442
 30
0.0
 10
10.4450471835
 20
8.7696407188
 30
0.0
 10
10.4451975791
 20
8.7696047324
 30
0.0
 10
10.445343508
 20
8.7696196514
 30
0.0
 10
10.445539638
 20
8.769621787
 30
0.0
 10
10.4458821395
 20
8.7696337974
 30
0.0
 10
10.4463718068
 20
8.7696466298
 30
0.0
 10
10.4469592452
 20
8.76966388
 30
0.0
 10
10.4477425531
 20
8.7696862336
 30
0.0
 10
10.4487216686
 20
8.7697143971
 30
0.0
 10
10.4502882642
 20
8.7697593349
 30
0.0
 10
10.452246505
 20
8.7698155496
 30
0.0
 10
10.4545963955
 20
8.7698829891
 30
0.0
 10
10.4569462856
 20
8.7699504334
 30
0.0
 10
10.4600794725
 20
8.7700403575
 30
0.0
 10
10.4639959561
 20
8.7701527632
 30
0.0
 10
10.4679124398
 20
8.7702651685
 30
0.0
 10
10.4710456267
 20
8.7703550933
 30
0.0
 10
10.4733955171
 20
8.7704225356
 30
0.0
 10
10.4757454065
 20
8.7704899826
 30
0.0
 10
10.4777036506
 20
8.7705461738
 30
0.0
 10
10.4792702395
 20
8.7705911597
 30
0.0
 10
10.4802493721
 20
8.7706192008
 30
0.0
 10
10.4810326447
 20
8.7706418056
 30
0.0
 10
10.4816201911
 20
8.7706582884
 30
0.0
 10
10.4821095205
 20
8.7706735219
 30
0.0
 10
10.4824526253
 20
8.7706812458
 30
0.0
 10
10.4826477886
 20
8.7706902494
 30
0.0
 10
10.4827966867
 20
8.770684072
 30
0.0
 10
10.4829359307
 20
8.7707273204
 30
0.0
 10
10.4831249569
 20
8.7707677447
 30
0.0
 10
10.4834541837
 20
8.7708465197
 30
0.0
 10
10.483925328
 20
8.770954856
 30
0.0
 10
10.48449035
 20
8.771086657
 30
0.0
 10
10.4852438354
 20
8.7712617639
 30
0.0
 10
10.4861856501
 20
8.7714808625
 30
0.0
 10
10.4876925772
 20
8.7718313001
 30
0.0
 10
10.4895762279
 20
8.7722693883
 30
0.0
 10
10.4918366122
 20
8.7727950765
 30
0.0
 10
10.4940969956
 20
8.7733207694
 30
0.0
 10
10.4971108405
 20
8.7740216916
 30
0.0
 10
10.5008781465
 20
8.774897845
 30
0.0
 10
10.5046454525
 20
8.775773998
 30
0.0
 10
10.5076592972
 20
8.7764749208
 30
0.0
 10
10.5099196812
 20
8.7770006118
 30
0.0
 10
10.5121800634
 20
8.7775263073
 30
0.0
 10
10.5140637208
 20
8.7779643727
 30
0.0
 10
10.5155706341
 20
8.7783148567
 30
0.0
 10
10.5165124837
 20
8.7785338373
 30
0.0
 10
10.5172658975
 20
8.7787091863
 30
0.0
 10
10.5178311383
 20
8.7788402477
 30
0.0
 10
10.5183015983
 20
8.7789508981
 30
0.0
 10
10.5186320467
 20
8.7790255421
 30
0.0
 10
10.5188191155
 20
8.7790725853
 30
0.0
 10
10.518964372
 20
8.7790955025
 30
0.0
 10
10.5190906882
 20
8.7791656859
 30
0.0
 10
10.5192657164
 20
8.7792427767
 30
0.0
 10
10.5195689376
 20
8.7793853673
 30
0.0
 10
10.5200037199
 20
8.7795850522
 30
0.0
 10
10.52052477
 20
8.779826393
 30
0.0
 10
10.521219744
 20
8.7801475804
 30
0.0
 10
10.5220883791
 20
8.7805492701
 30
0.0
 10
10.5234782413
 20
8.7811918589
 30
0.0
 10
10.5252155533
 20
8.7819951342
 30
0.0
 10
10.5273003344
 20
8.7829590477
 30
0.0
 10
10.5293851137
 20
8.7839229657
 30
0.0
 10
10.5321648201
 20
8.7852081882
 30
0.0
 10
10.5356394529
 20
8.7868147168
 30
0.0
 10
10.5391140858
 20
8.788421245
 30
0.0
 10
10.5418937919
 20
8.7897064681
 30
0.0
 10
10.5439785721
 20
8.7906703843
 30
0.0
 10
10.54606335
 20
8.7916343048
 30
0.0
 10
10.5478006721
 20
8.7924375582
 30
0.0
 10
10.5491905136
 20
8.7930801917
 30
0.0
 10
10.5500592015
 20
8.7934817674
 30
0.0
 10
10.5507540672
 20
8.793803189
 30
0.0
 10
10.5512754479
 20
8.7940438141
 30
0.0
 10
10.5517091959
 20
8.7942457382
 30
0.0
 10
10.5520142636
 20
8.7943843314
 30
0.0
 10
10.5521863333
 20
8.7944678271
 30
0.0
 10
10.552321737
 20
8.794518337
 30
0.0
 10
10.552432862
 20
8.7946151445
 30
0.0
 10
10.5525894974
 20
8.7947280721
 30
0.0
 10
10.5528596636
 20
8.7949332195
 30
0.0
 10
10.5532476782
 20
8.7952223536
 30
0.0
 10
10.5537124127
 20
8.7955709982
 30
0.0
 10
10.5543323671
 20
8.7960352696
 30
0.0
 10
10.5551072046
 20
8.7966158102
 30
0.0
 10
10.5563470035
 20
8.7975445625
 30
0.0
 10
10.5578967319
 20
8.7987055417
 30
0.0
 10
10.5597564146
 20
8.8000987
 30
0.0
 10
10.561616095
 20
8.8014918629
 30
0.0
 10
10.5640956697
 20
8.8033494117
 30
0.0
 10
10.5671951378
 20
8.8056713484
 30
0.0
 10
10.5702946062
 20
8.8079932847
 30
0.0
 10
10.5727741804
 20
8.8098508341
 30
0.0
 10
10.5746338621
 20
8.8112439953
 30
0.0
 10
10.5764935401
 20
8.8126371598
 30
0.0
 10
10.5780432834
 20
8.8137981197
 30
0.0
 10
10.579283052
 20
8.8147269113
 30
0.0
 10
10.5800579665
 20
8.8153073523
 30
0.0
 10
10.5806777627
 20
8.815771828
 30
0.0
 10
10.5811429807
 20
8.8161198483
 30
0.0
 10
10.5815294824
 20
8.8164109356
 30
0.0
 10
10.5818023493
 20
8.8166125962
 30
0.0
 10
10.5819546575
 20
8.8167311107
 30
0.0
 10
10.5820790743
 20
8.816810757
 30
0.0
 10
10.5821645563
 20
8.8169257215
 30
0.0
 10
10.5822921132
 20
8.8170666881
 30
0.0
 10
10.5825090101
 20
8.8173191196
 30
0.0
 10
10.582822171
 20
8.8176767351
 30
0.0
 10
10.5831965481
 20
8.8181071582
 30
0.0
 10
10.5836962122
 20
8.818680607
 30
0.0
 10
10.5843206229
 20
8.8193975716
 30
0.0
 10
10.5853197747
 20
8.8205446292
 30
0.0
 10
10.5865686819
 20
8.8219784805
 30
0.0
 10
10.5880673846
 20
8.8236990896
 30
0.0
 10
10.5895660835
 20
8.825419702
 30
0.0
 10
10.59156435
 20
8.8277138507
 30
0.0
 10
10.5940621827
 20
8.830581537
 30
0.0
 10
10.5965600157
 20
8.833449223
 30
0.0
 10
10.5985582817
 20
8.8357433722
 30
0.0
 10
10.6000569822
 20
8.8374639832
 30
0.0
 10
10.6015556788
 20
8.8391845972
 30
0.0
 10
10.6028046049
 20
8.8406184331
 30
0.0
 10
10.6038037183
 20
8.8417655222
 30
0.0
 10
10.6044282268
 20
8.8424824066
 30
0.0
 10
10.60492769
 20
8.8430560202
 30
0.0
 10
10.6053026809
 20
8.8434859397
 30
0.0
 10
10.6056139215
 20
8.8438451308
 30
0.0
 10
10.6058342464
 20
8.8440947496
 30
0.0
 10
10.6059563108
 20
8.8442402227
 30
0.0
 10
10.6060586641
 20
8.8443413449
 30
0.0
 10
10.606119715
 20
8.8444729809
 30
0.0
 10
10.6062155229
 20
8.844637852
 30
0.0
 10
10.6063764744
 20
8.8449313355
 30
0.0
 10
10.6066099145
 20
8.845348005
 30
0.0
 10
10.6068885404
 20
8.8458491181
 30
0.0
 10
10.6072605663
 20
8.8465168814
 30
0.0
 10
10.6077254191
 20
8.8473517181
 30
0.0
 10
10.6084692839
 20
8.8486873827
 30
0.0
 10
10.6093990804
 20
8.850356989
 30
0.0
 10
10.6105148511
 20
8.8523605056
 30
0.0
 10
10.6116306178
 20
8.8543640251
 30
0.0
 10
10.6131183081
 20
8.8570353834
 30
0.0
 10
10.6149779204
 20
8.8603745817
 30
0.0
 10
10.6168375331
 20
8.8637137797
 30
0.0
 10
10.6183252229
 20
8.8663851384
 30
0.0
 10
10.6194409913
 20
8.8683886568
 30
0.0
 10
10.6205567554
 20
8.8703921774
 30
0.0
 10
10.6214865724
 20
8.8720617712
 30
0.0
 10
10.6222303954
 20
8.8733974611
 30
0.0
 10
10.6226953545
 20
8.8742322335
 30
0.0
 10
10.6230671621
 20
8.8749001289
 30
0.0
 10
10.623346455
 20
8.8754008382
 30
0.0
 10
10.6235778084
 20
8.8758187712
 30
0.0
 10
10.6237424849
 20
8.8761099991
 30
0.0
 10
10.6238323245
 20
8.8762784843
 30
0.0
 10
10.6239117084
 20
8.8763990189
 30
0.0
 10
10.6239452059
 20
8.8765418363
 30
0.0
 10
10.624005875
 20
8.876724487
 30
0.0
 10
10.6241045886
 20
8.8770477471
 30
0.0
 10
10.6242495068
 20
8.877507654
 30
0.0
 10
10.6244217399
 20
8.8780603526
 30
0.0
 10
10.6246519668
 20
8.878797001
 30
0.0
 10
10.6249395508
 20
8.8797179085
 30
0.0
 10
10.6253997969
 20
8.8811913062
 30
0.0
 10
10.6259750662
 20
8.883033072
 30
0.0
 10
10.6266654058
 20
8.885243183
 30
0.0
 10
10.6273557409
 20
8.8874532961
 30
0.0
 10
10.6282761894
 20
8.8904001129
 30
0.0
 10
10.6294267494
 20
8.8940836341
 30
0.0
 10
10.6305773097
 20
8.8977671551
 30
0.0
 10
10.6314977575
 20
8.9007139721
 30
0.0
 10
10.6321880946
 20
8.9029240844
 30
0.0
 10
10.632878427
 20
8.9051341984
 30
0.0
 10
10.6334537186
 20
8.9069759548
 30
0.0
 10
10.6339139193
 20
8.9084493717
 30
0.0
 10
10.6342016187
 20
8.9093702303
 30
0.0
 10
10.6344316088
 20
8.910106979
 30
0.0
 10
10.6346045654
 20
8.9106593714
 30
0.0
 10
10.6347472196
 20
8.9111202365
 30
0.0
 10
10.6348499749
 20
8.9114417859
 30
0.0
 10
10.6349041682
 20
8.9116271775
 30
0.0
 10
10.6349575573
 20
8.9117615757
 30
0.0
 10
10.6349622319
 20
8.9119137315
 30
0.0
 10
10.6349854569
 20
8.9121104118
 30
0.0
 10
10.6350181837
 20
8.9124574883
 30
0.0
 10
10.6350690753
 20
8.912951803
 30
0.0
 10
10.6351283736
 20
8.9135456264
 30
0.0
 10
10.6352080568
 20
8.9143371655
 30
0.0
 10
10.635307449
 20
8.9153266666
 30
0.0
 10
10.6354665948
 20
8.9169098251
 30
0.0
 10
10.6356654864
 20
8.9188887881
 30
0.0
 10
10.6359041738
 20
8.9212635373
 30
0.0
 10
10.6361428565
 20
8.9236382882
 30
0.0
 10
10.6364611018
 20
8.9268046221
 30
0.0
 10
10.6368589078
 20
8.9307625398
 30
0.0
 10
10.6373362752
 20
8.9355120409
 30
0.0
 10
10.6379727651
 20
8.941844709
 30
0.0
 10
10.6384501325
 20
8.9465942102
 30
0.0
 10
10.6387683774
 20
8.9497605442
 30
0.0
  0
SPLINE
  5
3C0
100
AcDbEntity
  8
0
100
AcDbSpline
 62
4
  6
CONTINUOUS
 70
0
 71
3
 72
403
 73
399
 74
0
 42
0.0000001
 43
0.0000001
 44
0.0000000001
 40
0.0
 40
0.0
 40
0.0
 40
0.0
 40
0.015625
 40
0.0234375
 40
0.03125
 40
0.0390625
 40
0.04296875
 40
0.046875
 40
0.05078125
 40
0.0546875
 40
0.056640625
 40
0.05859375
 40
0.0595703125
 40
0.060546875
 40
0.0615234375
 40
0.0620117188
 40
0.0622558594
 40
0.0625
 40
0.0627441406
 40
0.0629882812
 40
0.0634765625
 40
0.064453125
 40
0.0654296875
 40
0.06640625
 40
0.068359375
 40
0.0703125
 40
0.07421875
 40
0.078125
 40
0.08203125
 40
0.0859375
 40
0.09375
 40
0.1015625
 40
0.10546875
 40
0.109375
 40
0.11328125
 40
0.1171875
 40
0.119140625
 40
0.12109375
 40
0.1220703125
 40
0.123046875
 40
0.1240234375
 40
0.1245117188
 40
0.1247558594
 40
0.125
 40
0.1252441406
 40
0.1254882812
 40
0.1259765625
 40
0.126953125
 40
0.1279296875
 40
0.12890625
 40
0.130859375
 40
0.1328125
 40
0.13671875
 40
0.140625
 40
0.14453125
 40
0.1484375
 40
0.15625
 40
0.1640625
 40
0.16796875
 40
0.171875
 40
0.17578125
 40
0.1796875
 40
0.181640625
 40
0.18359375
 40
0.1845703125
 40
0.185546875
 40
0.1865234375
 40
0.1870117188
 40
0.1872558594
 40
0.1875
 40
0.1877441406
 40
0.1879882812
 40
0.1884765625
 40
0.189453125
 40
0.1904296875
 40
0.19140625
 40
0.193359375
 40
0.1953125
 40
0.19921875
 40
0.203125
 40
0.20703125
 40
0.2109375
 40
0.21875
 40
0.2265625
 40
0.23046875
 40
0.234375
 40
0.23828125
 40
0.2421875
 40
0.244140625
 40
0.24609375
 40
0.2470703125
 40
0.248046875
 40
0.2490234375
 40
0.2495117188
 40
0.2497558594
 40
0.25
 40
0.2502441406
 40
0.2504882812
 40
0.2509765625
 40
0.251953125
 40
0.2529296875
 40
0.25390625
 40
0.255859375
 40
0.2578125
 40
0.26171875
 40
0.265625
 40
0.26953125
 40
0.2734375
 40
0.28125
 40
0.2890625
 40
0.29296875
 40
0.296875
 40
0.30078125
 40
0.3046875
 40
0.306640625
 40
0.30859375
 40
0.3095703125
 40
0.310546875
 40
0.3115234375
 40
0.3120117188
 40
0.3122558594
 40
0.3125
 40
0.3127441406
 40
0.3129882812
 40
0.3134765625
 40
0.314453125
 40
0.3154296875
 40
0.31640625
 40
0.318359375
 40
0.3203125
 40
0.32421875
 40
0.328125
 40
0.33203125
 40
0.3359375
 40
0.34375
 40
0.3515625
 40
0.35546875
 40
0.359375
 40
0.36328125
 40
0.3671875
 40
0.369140625
 40
0.37109375
 40
0.3720703125
 40
0.373046875
 40
0.3740234375
 40
0.3745117188
 40
0.3747558594
 40
0.375
 40
0.3752441406
 40
0.3754882812
 40
0.3759765625
 40
0.376953125
 40
0.3779296875
 40
0.37890625
 40
0.380859375
 40
0.3828125
 40
0.38671875
 40
0.390625
 40
0.39453125
 40
0.3984375
 40
0.40625
 40
0.4140625
 40
0.41796875
 40
0.421875
 40
0.42578125
 40
0.4296875
 40
0.431640625
 40
0.43359375
 40
0.4345703125
 40
0.435546875
 40
0.4365234375
 40
0.4370117188
 40
0.4372558594
 40
0.4375
 40
0.4377441406
 40
0.4379882812
 40
0.4384765625
 40
0.439453125
 40
0.4404296875
 40
0.44140625
 40
0.443359375
 40
0.4453125
 40
0.44921875
 40
0.453125
 40
0.45703125
 40
0.4609375
 40
0.46875
 40
0.4765625
 40
0.48046875
 40
0.484375
 40
0.48828125
 40
0.4921875
 40
0.494140625
 40
0.49609375
 40
0.4970703125
 40
0.498046875
 40
0.4990234375
 40
0.4995117188
 40
0.4997558594
 40
0.5
 40
0.5002441406
 40
0.5004882812
 40
0.5009765625
 40
0.501953125
 40
0.5029296875
 40
0.50390625
 40
0.505859375
 40
0.5078125
 40
0.51171875
 40
0.515625
 40
0.51953125
 40
0.5234375
 40
0.53125
 40
0.5390625
 40
0.54296875
 40
0.546875
 40
0.55078125
 40
0.5546875
 40
0.556640625
 40
0.55859375
 40
0.5595703125
 40
0.560546875
 40
0.5615234375
 40
0.5620117188
 40
0.5622558594
 40
0.5625
 40
0.5627441406
 40
0.5629882812
 40
0.5634765625
 40
0.564453125
 40
0.5654296875
 40
0.56640625
 40
0.568359375
 40
0.5703125
 40
0.57421875
 40
0.578125
 40
0.58203125
 40
0.5859375
 40
0.59375
 40
0.6015625
 40
0.60546875
 40
0.609375
 40
0.61328125
 40
0.6171875
 40
0.619140625
 40
0.62109375
 40
0.6220703125
 40
0.623046875
 40
0.6240234375
 40
0.6245117188
 40
0.6247558594
 40
0.625
 40
0.6252441406
 40
0.6254882812
 40
0.6259765625
 40
0.626953125
 40
0.6279296875
 40
0.62890625
 40
0.630859375
 40
0.6328125
 40
0.63671875
 40
0.640625
 40
0.64453125
 40
0.6484375
 40
0.65625
 40
0.6640625
 40
0.66796875
 40
0.671875
 40
0.67578125
 40
0.6796875
 40
0.681640625
 40
0.68359375
 40
0.6845703125
 40
0.685546875
 40
0.6865234375
 40
0.6870117188
 40
0.6872558594
 40
0.6875
 40
0.6877441406
 40
0.6879882812
 40
0.6884765625
 40
0.689453125
 40
0.6904296875
 40
0.69140625
 40
0.693359375
 40
0.6953125
 40
0.69921875
 40
0.703125
 40
0.70703125
 40
0.7109375
 40
0.71875
 40
0.7265625
 40
0.73046875
 40
0.734375
 40
0.73828125
 40
0.7421875
 40
0.744140625
 40
0.74609375
 40
0.7470703125
 40
0.748046875
 40
0.7490234375
 40
0.7495117188
 40
0.7497558594
 40
0.75
 40
0.7502441406
 40
0.7504882812
 40
0.7509765625
 40
0.751953125
 40
0.7529296875
 40
0.75390625
 40
0.755859375
 40
0.7578125
 40
0.76171875
 40
0.765625
 40
0.76953125
 40
0.7734375
 40
0.78125
 40
0.7890625
 40
0.79296875
 40
0.796875
 40
0.80078125
 40
0.8046875
 40
0.806640625
 40
0.80859375
 40
0.8095703125
 40
0.810546875
 40
0.8115234375
 40
0.8120117188
 40
0.8122558594
 40
0.8125
 40
0.8127441406
 40
0.8129882812
 40
0.8134765625
 40
0.814453125
 40
0.8154296875
 40
0.81640625
 40
0.818359375
 40
0.8203125
 40
0.82421875
 40
0.828125
 40
0.83203125
 40
0.8359375
 40
0.84375
 40
0.8515625
 40
0.85546875
 40
0.859375
 40
0.86328125
 40
0.8671875
 40
0.869140625
 40
0.87109375
 40
0.8720703125
 40
0.873046875
 40
0.8740234375
 40
0.8745117188
 40
0.8747558594
 40
0.875
 40
0.8752441406
 40
0.8754882812
 40
0.8759765625
 40
0.876953125
 40
0.8779296875
 40
0.87890625
 40
0.880859375
 40
0.8828125
 40
0.88671875
 40
0.890625
 40
0.89453125
 40
0.8984375
 40
0.90625
 40
0.9140625
 40
0.91796875
 40
0.921875
 40
0.92578125
 40
0.9296875
 40
0.931640625
 40
0.93359375
 40
0.9345703125
 40
0.935546875
 40
0.9365234375
 40
0.9370117188
 40
0.9372558594
 40
0.9375
 40
0.9377441406
 40
0.9379882812
 40
0.9384765625
 40
0.939453125
 40
0.9404296875
 40
0.94140625
 40
0.943359375
 40
0.9453125
 40
0.94921875
 40
0.953125
 40
0.95703125
 40
0.9609375
 40
0.96875
 40
0.9765625
 40
0.984375
 40
1.0
 40
1.0
 40
1.0
 40
1.0
 10
10.6387683774
 20
8.9497605273
 30
0.0
 10
10.6384611657
 20
8.9529150194
 30
0.0
 10
10.6380003482
 20
8.9576467576
 30
0.0
 10
10.6373859249
 20
8.9639557418
 30
0.0
 10
10.6369251074
 20
8.96868748
 30
0.0
 10
10.6365410929
 20
8.9726305952
 30
0.0
 10
10.636233881
 20
8.9757850873
 30
0.0
 10
10.6360034732
 20
8.9781509565
 30
0.0
 10
10.6357730608
 20
8.9805168251
 30
0.0
 10
10.6355810649
 20
8.9824883841
 30
0.0
 10
10.6354274357
 20
8.9840656272
 30
0.0
 10
10.6353314916
 20
8.9850514136
 30
0.0
 10
10.6352545666
 20
8.985840021
 30
0.0
 10
10.6351973373
 20
8.9864315362
 30
0.0
 10
10.6351481686
 20
8.9869242755
 30
0.0
 10
10.6351166504
 20
8.9872695661
 30
0.0
 10
10.6350941121
 20
8.9874662924
 30
0.0
 10
10.6350899635
 20
8.9876154782
 30
0.0
 10
10.6350370584
 20
8.9877583912
 30
0.0
 10
10.6349835252
 20
8.9879511299
 30
0.0
 10
10.6348819182
 20
8.9882874032
 30
0.0
 10
10.6347409079
 20
8.9887683266
 30
0.0
 10
10.6345699225
 20
8.9893452065
 30
0.0
 10
10.6343425612
 20
8.9901144595
 30
0.0
 10
10.6340581475
 20
8.9910759983
 30
0.0
 10
10.6336032042
 20
8.9926144758
 30
0.0
 10
10.6330344844
 20
8.9945375674
 30
0.0
 10
10.632352038
 20
8.9968452795
 30
0.0
 10
10.631669587
 20
8.9991529911
 30
0.0
 10
10.6307596539
 20
9.00222994
 30
0.0
 10
10.629622237
 20
9.0060761261
 30
0.0
 10
10.6284848204
 20
9.0099223123
 30
0.0
 10
10.6275748867
 20
9.0129992611
 30
0.0
 10
10.6268924376
 20
9.0153069731
 30
0.0
 10
10.6262099841
 20
9.0176146835
 30
0.0
 10
10.6256412865
 20
9.0195377803
 30
0.0
 10
10.6251862978
 20
9.0210762472
 30
0.0
 10
10.6249019997
 20
9.022037813
 30
0.0
 10
10.6246744013
 20
9.0228070107
 30
0.0
 10
10.6245041403
 20
9.0233840592
 30
0.0
 10
10.6243608634
 20
9.0238644554
 30
0.0
 10
10.6242633027
 20
9.0242016697
 30
0.0
 10
10.6242032862
 20
9.0243929007
 30
0.0
 10
10.6241702955
 20
9.0245404451
 30
0.0
 10
10.624091352
 20
9.024672236
 30
0.0
 10
10.6240021229
 20
9.0248534523
 30
0.0
 10
10.6238385038
 20
9.0251680205
 30
0.0
 10
10.6236086667
 20
9.0256187421
 30
0.0
 10
10.623331191
 20
9.0261590352
 30
0.0
 10
10.622961807
 20
9.026879626
 30
0.0
 10
10.6224998772
 20
9.0277802961
 30
0.0
 10
10.6217609012
 20
9.0292214064
 30
0.0
 10
10.6208371429
 20
9.0310227813
 30
0.0
 10
10.6197286493
 20
9.0331844367
 30
0.0
 10
10.6186201514
 20
9.0353460906
 30
0.0
 10
10.6171421556
 20
9.0382282964
 30
0.0
 10
10.6152946604
 20
9.0418310534
 30
0.0
 10
10.6134471655
 20
9.0454338105
 30
0.0
 10
10.6119691692
 20
9.048316016
 30
0.0
 10
10.610860673
 20
9.0504776707
 30
0.0
 10
10.6097521726
 20
9.0526393233
 30
0.0
 10
10.6088284356
 20
9.0544407068
 30
0.0
 10
10.6080894162
 20
9.0558817995
 30
0.0
 10
10.6076275968
 20
9.0567825146
 30
0.0
 10
10.6072579861
 20
9.057503013
 30
0.0
 10
10.6069812031
 20
9.0580435886
 30
0.0
 10
10.6067491985
 20
9.0584934262
 30
0.0
 10
10.6065894488
 20
9.0588095725
 30
0.0
 10
10.60649402
 20
9.0589882602
 30
0.0
 10
10.6064341198
 20
9.0591278181
 30
0.0
 10
10.6063296058
 20
9.0592461912
 30
0.0
 10
10.6062058155
 20
9.0594114114
 30
0.0
 10
10.605981932
 20
9.059697104
 30
0.0
 10
10.605665889
 20
9.0601070362
 30
0.0
 10
10.605285015
 20
9.0605981844
 30
0.0
 10
10.6047777496
 20
9.0612533178
 30
0.0
 10
10.6041434739
 20
9.0620721424
 30
0.0
 10
10.6031287411
 20
9.0633823133
 30
0.0
 10
10.601860288
 20
9.0650200092
 30
0.0
 10
10.6003381601
 20
9.0669852519
 30
0.0
 10
10.5988160281
 20
9.0689504925
 30
0.0
 10
10.5967865201
 20
9.0715708141
 30
0.0
 10
10.5942496346
 20
9.0748462158
 30
0.0
 10
10.5917127494
 20
9.0781216177
 30
0.0
 10
10.589683241
 20
9.0807419389
 30
0.0
 10
10.5881611104
 20
9.0827071807
 30
0.0
 10
10.5866389768
 20
9.084672419
 30
0.0
 10
10.5853705418
 20
9.0863101285
 30
0.0
 10
10.584355772
 20
9.0876202716
 30
0.0
 10
10.5837215905
 20
9.0884391668
 30
0.0
 10
10.5832141318
 20
9.0890941553
 30
0.0
 10
10.5828338485
 20
9.0895857461
 30
0.0
 10
10.5825159572
 20
9.0899942937
 30
0.0
 10
10.5822953733
 20
9.0902824581
 30
0.0
 10
10.5821662962
 20
9.0904437178
 30
0.0
 10
10.5820780215
 20
9.0905742565
 30
0.0
 10
10.5819571288
 20
9.0906681224
 30
0.0
 10
10.581807316
 20
9.0908060688
 30
0.0
 10
10.5815398427
 20
9.0910415151
 30
0.0
 10
10.5811605094
 20
9.0913809829
 30
0.0
 10
10.5807041232
 20
9.0917870105
 30
0.0
 10
10.5800960226
 20
9.0923288464
 30
0.0
 10
10.5793357549
 20
9.0930059819
 30
0.0
 10
10.578119406
 20
9.0940894878
 30
0.0
 10
10.5765989426
 20
9.0954438395
 30
0.0
 10
10.5747743982
 20
9.0970690748
 30
0.0
 10
10.5729498506
 20
9.0986943065
 30
0.0
 10
10.5705171217
 20
9.1008612833
 30
0.0
 10
10.5674762101
 20
9.1035700039
 30
0.0
 10
10.5644352988
 20
9.1062787249
 30
0.0
 10
10.5620025694
 20
9.1084457012
 30
0.0
 10
10.5601780231
 20
9.1100709345
 30
0.0
 10
10.5583534741
 20
9.1116961639
 30
0.0
 10
10.5568330249
 20
9.1130505336
 30
0.0
 10
10.5556166471
 20
9.114134003
 30
0.0
 10
10.5548564529
 20
9.1148112312
 30
0.0
 10
10.5542482014
 20
9.1153528768
 30
0.0
 10
10.5537922762
 20
9.1157594861
 30
0.0
 10
10.5534115005
 20
9.1160971337
 30
0.0
 10
10.5531466021
 20
9.1163358294
 30
0.0
 10
10.5529926638
 20
9.1164685694
 30
0.0
 10
10.5528844434
 20
9.1165784278
 30
0.0
 10
10.5527485735
 20
9.1166489013
 30
0.0
 10
10.5525770581
 20
9.1167566039
 30
0.0
 10
10.5522724126
 20
9.1169386826
 30
0.0
 10
10.5518395539
 20
9.1172021415
 30
0.0
 10
10.551319118
 20
9.1175168598
 30
0.0
 10
10.5506255547
 20
9.1179369845
 30
0.0
 10
10.5497584803
 20
9.1184619691
 30
0.0
 10
10.5483712285
 20
9.1193020401
 30
0.0
 10
10.5466371406
 20
9.1203520961
 30
0.0
 10
10.5445562451
 20
9.1216121773
 30
0.0
 10
10.5424753469
 20
9.1228722548
 30
0.0
 10
10.5397008169
 20
9.1245523594
 30
0.0
 10
10.5362326541
 20
9.1266524896
 30
0.0
 10
10.5327644915
 20
9.1287526203
 30
0.0
 10
10.5299899612
 20
9.1304327243
 30
0.0
 10
10.5279090639
 20
9.1316928035
 30
0.0
 10
10.5258281649
 20
9.1329528784
 30
0.0
 10
10.524094088
 20
9.134002954
 30
0.0
 10
10.5227068138
 20
9.1348429849
 30
0.0
 10
10.5218397964
 20
9.1353680718
 30
0.0
 10
10.521146116
 20
9.1357879863
 30
0.0
 10
10.5206260377
 20
9.1361033468
 30
0.0
 10
10.5201920602
 20
9.1363647966
 30
0.0
 10
10.5198894121
 20
9.1365504618
 30
0.0
 10
10.5197146964
 20
9.1366524179
 30
0.0
 10
10.5195886566
 20
9.1367405427
 30
0.0
 10
10.5194435161
 20
9.1367841058
 30
0.0
 10
10.519256658
 20
9.1368577336
 30
0.0
 10
10.518926552
 20
9.1369793401
 30
0.0
 10
10.5184565951
 20
9.1371568499
 30
0.0
 10
10.5178919521
 20
9.1373682411
 30
0.0
 10
10.5171393373
 20
9.137650662
 30
0.0
 10
10.5161984859
 20
9.1380034944
 30
0.0
 10
10.5146931699
 20
9.1385681344
 30
0.0
 10
10.5128115091
 20
9.1392738973
 30
0.0
 10
10.5105535229
 20
9.1401208288
 30
0.0
 10
10.5082955349
 20
9.140967756
 30
0.0
 10
10.5052848848
 20
9.1420969937
 30
0.0
 10
10.501521572
 20
9.1435085403
 30
0.0
 10
10.4977582594
 20
9.1449200873
 30
0.0
 10
10.4947476091
 20
9.1460493244
 30
0.0
 10
10.4924896217
 20
9.1468962534
 30
0.0
 10
10.490231633
 20
9.1477431779
 30
0.0
 10
10.48834998
 20
9.1484489625
 30
0.0
 10
10.486844648
 20
9.1490135583
 30
0.0
 10
10.4859038374
 20
9.1493665032
 30
0.0
 10
10.4851511389
 20
9.1496486931
 30
0.0
 10
10.4845867519
 20
9.1498607901
 30
0.0
 10
10.4841159937
 20
9.1500360915
 30
0.0
 10
10.4837873182
 20
9.1501616405
 30
0.0
 10
10.4835981682
 20
9.1502289514
 30
0.0
 10
10.4834600675
 20
9.1502919178
 30
0.0
 10
10.4833075876
 20
9.150307167
 30
0.0
 10
10.4831092967
 20
9.1503441435
 30
0.0
 10
10.4827599508
 20
9.1504010975
 30
0.0
 10
10.482262107
 20
9.1504865147
 30
0.0
 10
10.4816641714
 20
9.15058728
 30
0.0
 10
10.4808671067
 20
9.1507222398
 30
0.0
 10
10.4798707132
 20
9.1508907321
 30
0.0
 10
10.4782765186
 20
9.1511604356
 30
0.0
 10
10.4762837633
 20
9.1514975253
 30
0.0
 10
10.4738924621
 20
9.15190205
 30
0.0
 10
10.4715011596
 20
9.1523065701
 30
0.0
 10
10.4683127566
 20
9.1528459319
 30
0.0
 10
10.4643272528
 20
9.1535201335
 30
0.0
 10
10.460341749
 20
9.1541943355
 30
0.0
 10
10.457153346
 20
9.1547336965
 30
0.0
 10
10.4547620437
 20
9.1551382186
 30
0.0
 10
10.4523707417
 20
9.1555427359
 30
0.0
 10
10.4503779888
 20
9.1558798487
 30
0.0
 10
10.4487837894
 20
9.156149505
 30
0.0
 10
10.447787408
 20
9.1563181176
 30
0.0
 10
10.4469903184
 20
9.1564528305
 30
0.0
 10
10.4463924587
 20
9.1565543501
 30
0.0
 10
10.4458943776
 20
9.1566374071
 30
0.0
 10
10.4455454552
 20
9.1566985746
 30
0.0
 10
10.4453464858
 20
9.1567288
 30
0.0
 10
10.4451960902
 20
9.1567647863
 30
0.0
 10
10.4450501613
 20
9.1567498674
 30
0.0
 10
10.4448540313
 20
9.1567477318
 30
0.0
 10
10.4445115298
 20
9.1567357214
 30
0.0
 10
10.4440218625
 20
9.156722889
 30
0.0
 10
10.4434344241
 20
9.1567056388
 30
0.0
 10
10.4426511162
 20
9.1566832852
 30
0.0
 10
10.4416720007
 20
9.1566551217
 30
0.0
 10
10.4401054051
 20
9.1566101839
 30
0.0
 10
10.4381471644
 20
9.1565539692
 30
0.0
 10
10.4357972738
 20
9.1564865297
 30
0.0
 10
10.4334473837
 20
9.1564190854
 30
0.0
 10
10.4303141968
 20
9.1563291613
 30
0.0
 10
10.4263977132
 20
9.1562167556
 30
0.0
 10
10.4224812295
 20
9.1561043503
 30
0.0
 10
10.4193480426
 20
9.1560144255
 30
0.0
 10
10.4169981522
 20
9.1559469832
 30
0.0
 10
10.4146482628
 20
9.1558795362
 30
0.0
 10
10.4126900187
 20
9.155823345
 30
0.0
 10
10.4111234299
 20
9.1557783591
 30
0.0
 10
10.4101442972
 20
9.155750318
 30
0.0
 10
10.4093610246
 20
9.1557277132
 30
0.0
 10
10.4087734782
 20
9.1557112304
 30
0.0
 10
10.4082841488
 20
9.1556959968
 30
0.0
 10
10.407941044
 20
9.155688273
 30
0.0
 10
10.4077458807
 20
9.1556792693
 30
0.0
 10
10.4075969826
 20
9.1556854468
 30
0.0
 10
10.4074577386
 20
9.1556421984
 30
0.0
 10
10.4072687124
 20
9.1556017741
 30
0.0
 10
10.4069394856
 20
9.1555229991
 30
0.0
 10
10.4064683413
 20
9.1554146628
 30
0.0
 10
10.4059033193
 20
9.1552828618
 30
0.0
 10
10.4051498339
 20
9.1551077549
 30
0.0
 10
10.4042080192
 20
9.1548886563
 30
0.0
 10
10.4027010921
 20
9.1545382187
 30
0.0
 10
10.4008174414
 20
9.1541001305
 30
0.0
 10
10.3985570571
 20
9.1535744423
 30
0.0
 10
10.3962966737
 20
9.1530487494
 30
0.0
 10
10.3932828288
 20
9.1523478272
 30
0.0
 10
10.3895155228
 20
9.1514716738
 30
0.0
 10
10.3857482168
 20
9.1505955208
 30
0.0
 10
10.3827343721
 20
9.149894598
 30
0.0
 10
10.3804739881
 20
9.149368907
 30
0.0
 10
10.3782136059
 20
9.1488432115
 30
0.0
 10
10.3763299485
 20
9.148405146
 30
0.0
 10
10.3748230352
 20
9.1480546621
 30
0.0
 10
10.3738811856
 20
9.1478356815
 30
0.0
 10
10.3731277718
 20
9.1476603325
 30
0.0
 10
10.372562531
 20
9.1475292711
 30
0.0
 10
10.372092071
 20
9.1474186207
 30
0.0
 10
10.3717616226
 20
9.1473439767
 30
0.0
 10
10.3715745538
 20
9.1472969335
 30
0.0
 10
10.3714292973
 20
9.1472740163
 30
0.0
 10
10.3713029811
 20
9.1472038329
 30
0.0
 10
10.3711279529
 20
9.1471267421
 30
0.0
 10
10.3708247318
 20
9.1469841514
 30
0.0
 10
10.3703899494
 20
9.1467844666
 30
0.0
 10
10.3698688993
 20
9.1465431258
 30
0.0
 10
10.3691739253
 20
9.1462219384
 30
0.0
 10
10.3683052902
 20
9.1458202487
 30
0.0
 10
10.366915428
 20
9.1451776599
 30
0.0
 10
10.365178116
 20
9.1443743846
 30
0.0
 10
10.3630933349
 20
9.1434104711
 30
0.0
 10
10.3610085556
 20
9.1424465531
 30
0.0
 10
10.3582288492
 20
9.1411613306
 30
0.0
 10
10.3547542164
 20
9.139554802
 30
0.0
 10
10.3512795835
 20
9.1379482737
 30
0.0
 10
10.3484998774
 20
9.1366630507
 30
0.0
 10
10.3464150972
 20
9.1356991345
 30
0.0
 10
10.3443303193
 20
9.134735214
 30
0.0
 10
10.3425929972
 20
9.1339319606
 30
0.0
 10
10.3412031557
 20
9.1332893271
 30
0.0
 10
10.3403344678
 20
9.1328877514
 30
0.0
 10
10.3396396021
 20
9.1325663298
 30
0.0
 10
10.3391182214
 20
9.1323257047
 30
0.0
 10
10.3386844734
 20
9.1321237806
 30
0.0
 10
10.3383794057
 20
9.1319851874
 30
0.0
 10
10.3382073361
 20
9.1319016917
 30
0.0
 10
10.3380719323
 20
9.1318511818
 30
0.0
 10
10.3379608073
 20
9.1317543743
 30
0.0
 10
10.3378041719
 20
9.1316414467
 30
0.0
 10
10.3375340057
 20
9.1314362992
 30
0.0
 10
10.3371459911
 20
9.1311471652
 30
0.0
 10
10.3366812566
 20
9.1307985206
 30
0.0
 10
10.3360613022
 20
9.1303342492
 30
0.0
 10
10.3352864647
 20
9.1297537086
 30
0.0
 10
10.3340466658
 20
9.1288249562
 30
0.0
 10
10.3324969374
 20
9.1276639771
 30
0.0
 10
10.3306372547
 20
9.1262708187
 30
0.0
 10
10.3287775743
 20
9.1248776559
 30
0.0
 10
10.3262979996
 20
9.1230201071
 30
0.0
 10
10.3231985315
 20
9.1206981704
 30
0.0
 10
10.3200990632
 20
9.1183762341
 30
0.0
 10
10.3176194889
 20
9.1165186847
 30
0.0
 10
10.3157598072
 20
9.1151255235
 30
0.0
 10
10.3139001292
 20
9.113732359
 30
0.0
 10
10.312350386
 20
9.112571399
 30
0.0
 10
10.3111106173
 20
9.1116426075
 30
0.0
 10
10.3103357028
 20
9.1110621665
 30
0.0
 10
10.3097159066
 20
9.1105976908
 30
0.0
 10
10.3092506886
 20
9.1102496705
 30
0.0
 10
10.3088641869
 20
9.1099585831
 30
0.0
 10
10.30859132
 20
9.1097569226
 30
0.0
 10
10.3084390118
 20
9.1096384081
 30
0.0
 10
10.308314595
 20
9.1095587618
 30
0.0
 10
10.308229113
 20
9.1094437973
 30
0.0
 10
10.3081015561
 20
9.1093028306
 30
0.0
 10
10.3078846592
 20
9.1090503992
 30
0.0
 10
10.3075714983
 20
9.1086927837
 30
0.0
 10
10.3071971212
 20
9.1082623606
 30
0.0
 10
10.3066974571
 20
9.1076889118
 30
0.0
 10
10.3060730464
 20
9.1069719472
 30
0.0
 10
10.3050738946
 20
9.1058248896
 30
0.0
 10
10.3038249874
 20
9.1043910382
 30
0.0
 10
10.3023262847
 20
9.1026704292
 30
0.0
 10
10.3008275858
 20
9.1009498168
 30
0.0
 10
10.2988293193
 20
9.0986556681
 30
0.0
 10
10.2963314866
 20
9.0957879818
 30
0.0
 10
10.2938336536
 20
9.0929202958
 30
0.0
 10
10.2918353876
 20
9.0906261466
 30
0.0
 10
10.2903366871
 20
9.0889055356
 30
0.0
 10
10.2888379905
 20
9.0871849215
 30
0.0
 10
10.2875890644
 20
9.0857510856
 30
0.0
 10
10.286589951
 20
9.0846039965
 30
0.0
 10
10.2859654425
 20
9.0838871122
 30
0.0
 10
10.2854659793
 20
9.0833134986
 30
0.0
 10
10.2850909885
 20
9.0828835791
 30
0.0
 10
10.2847797478
 20
9.082524388
 30
0.0
 10
10.2845594229
 20
9.0822747692
 30
0.0
 10
10.2844373585
 20
9.0821292961
 30
0.0
 10
10.2843350052
 20
9.0820281739
 30
0.0
 10
10.2842739543
 20
9.0818965379
 30
0.0
 10
10.2841781464
 20
9.0817316668
 30
0.0
 10
10.2840171949
 20
9.0814381833
 30
0.0
 10
10.2837837548
 20
9.0810215138
 30
0.0
 10
10.2835051289
 20
9.0805204007
 30
0.0
 10
10.283133103
 20
9.0798526374
 30
0.0
 10
10.2826682502
 20
9.0790178007
 30
0.0
 10
10.2819243854
 20
9.077682136
 30
0.0
 10
10.2809945889
 20
9.0760125298
 30
0.0
 10
10.2798788182
 20
9.0740090132
 30
0.0
 10
10.2787630515
 20
9.0720054937
 30
0.0
 10
10.2772753612
 20
9.0693341354
 30
0.0
 10
10.2754157489
 20
9.0659949371
 30
0.0
 10
10.2735561362
 20
9.0626557391
 30
0.0
 10
10.2720684464
 20
9.0599843804
 30
0.0
 10
10.270952678
 20
9.057980862
 30
0.0
 10
10.2698369139
 20
9.0559773414
 30
0.0
 10
10.2689070969
 20
9.0543077476
 30
0.0
 10
10.2681632739
 20
9.0529720576
 30
0.0
 10
10.2676983148
 20
9.0521372853
 30
0.0
 10
10.2673265072
 20
9.0514693899
 30
0.0
 10
10.2670472143
 20
9.0509686806
 30
0.0
 10
10.2668158609
 20
9.0505507475
 30
0.0
 10
10.2666511844
 20
9.0502595197
 30
0.0
 10
10.2665613448
 20
9.0500910344
 30
0.0
 10
10.2664819609
 20
9.0499704999
 30
0.0
 10
10.2664484634
 20
9.0498276825
 30
0.0
 10
10.2663877943
 20
9.0496450318
 30
0.0
 10
10.2662890807
 20
9.0493217717
 30
0.0
 10
10.2661441625
 20
9.0488618648
 30
0.0
 10
10.2659719294
 20
9.0483091662
 30
0.0
 10
10.2657417025
 20
9.0475725178
 30
0.0
 10
10.2654541185
 20
9.0466516103
 30
0.0
 10
10.2649938724
 20
9.0451782126
 30
0.0
 10
10.2644186031
 20
9.0433364468
 30
0.0
 10
10.2637282635
 20
9.0411263358
 30
0.0
 10
10.2630379284
 20
9.0389162227
 30
0.0
 10
10.2621174799
 20
9.0359694059
 30
0.0
 10
10.26096692
 20
9.0322858847
 30
0.0
 10
10.2598163596
 20
9.0286023637
 30
0.0
 10
10.2588959118
 20
9.0256555467
 30
0.0
 10
10.2582055747
 20
9.0234454344
 30
0.0
 10
10.2575152423
 20
9.0212353204
 30
0.0
 10
10.2569399508
 20
9.019393564
 30
0.0
 10
10.25647975
 20
9.0179201471
 30
0.0
 10
10.2561920506
 20
9.0169992884
 30
0.0
 10
10.2559620605
 20
9.0162625398
 30
0.0
 10
10.2557891039
 20
9.0157101474
 30
0.0
 10
10.2556464497
 20
9.0152492823
 30
0.0
 10
10.2555436944
 20
9.0149277329
 30
0.0
 10
10.2554895011
 20
9.0147423412
 30
0.0
 10
10.255436112
 20
9.014607943
 30
0.0
 10
10.2554314374
 20
9.0144557873
 30
0.0
 10
10.2554082124
 20
9.014259107
 30
0.0
 10
10.2553754856
 20
9.0139120305
 30
0.0
 10
10.255324594
 20
9.0134177158
 30
0.0
 10
10.2552652957
 20
9.0128238923
 30
0.0
 10
10.2551856125
 20
9.0120323533
 30
0.0
 10
10.2550862203
 20
9.0110428522
 30
0.0
 10
10.2549270745
 20
9.0094596937
 30
0.0
 10
10.2547281829
 20
9.0074807307
 30
0.0
 10
10.2544894955
 20
9.0051059815
 30
0.0
 10
10.2542508128
 20
9.0027312306
 30
0.0
 10
10.2539325675
 20
8.9995648966
 30
0.0
 10
10.2535347615
 20
8.995606979
 30
0.0
 10
10.2530573941
 20
8.9908574779
 30
0.0
 10
10.2524209043
 20
8.9845248097
 30
0.0
 10
10.2519435369
 20
8.9797753086
 30
0.0
 10
10.2516252919
 20
8.9766089746
 30
0.0
  0
ENDSEC
  0
SECTION
  2
OBJECTS
  0
DICTIONARY
  5
C
100
AcDbDictionary
280
0
281
1
  3
ACAD_GROUP
350
D
  3
ACAD_MLINESTYLE
350
17
  3
ACAD_LAYOUT
350
1A
  3
ACAD_PLOTSETTINGS
350
19
  3
ACAD_PLOTSTYLENAME
350
E
  3
ACAD_IMAGE_DICT
350
       3C2
  3
ACAD_IMAGE_VARS
350
       3C3
  3
ACAD_TABLESTYLE
350
       3C4
  0
IMAGEDEF_REACTOR
  5
3C1
100
AcDbRasterImageDefReactor
 90
2
330
287
  0
DICTIONARY
  5
D
102
{ACAD_REACTORS
330
C
102
}
100
AcDbDictionary
280
0
281
1
  0
ACDBDICTIONARYWDFLT
  5
E
102
{ACAD_REACTORS
330
C
102
}
100
AcDbDictionary
281
1
  3
Normal
350
F
100
AcDbDictionaryWithDefault
340
F
  0
DICTIONARY
  5
3C2
330
C
100
AcDbDictionary
281
1
  3
J6U_assy_2_img_1
350
       3C7
  0
RASTERVARIABLES
  5
3C3
330
C
100
AcDbRasterVariables
 90
0
 70
0
 71
1
 72
5
  0
DICTIONARY
  5
17
102
{ACAD_REACTORS
330
C
102
}
100
AcDbDictionary
280
0
281
1
  3
Standard
350
18
  0
DICTIONARY
  5
3C4
330
C
100
AcDbDictionary
281
1
  3
Standard
350
       3C8
  3
Standard1
350
       3C9
  0
DICTIONARY
  5
19
102
{ACAD_REACTORS
330
C
102
}
100
AcDbDictionary
281
1
  0
DICTIONARY
  5
1A
102
{ACAD_REACTORS
330
C
102
}
100
AcDbDictionary
281
1
  3
Model
350
3C5
  3
Layout1
350
3C6
  0
ACDBPLACEHOLDER
  5
F
102
{ACAD_REACTORS
330
E
102
}
  0
MLINESTYLE
  5
18
102
{ACAD_REACTORS
330
17
102
}
100
AcDbMlineStyle
  2
STANDARD
 70
0
  3

 62
256
 51
90.0
 52
90.0
 71
2
 49
0.5
 62
256
  6
BYLAYER
 49
-0.5
 62
256
  6
BYLAYER
  0
LAYOUT
  5
3C5
102
{ACAD_REACTORS
330
1A
102
}
100
AcDbPlotSettings
  1

  2
none_device
  4
ANSI_C_(22.00_x_17.00_Inches)
  6

 40
0.0
 41
0.0
 42
0.0
 43
0.0
 44
558.8
 45
431.8
 46
0.0
 47
0.0
 48
0.0
 49
0.0
140
0.0
141
0.0
142
1.0
143
1.0
 70
1024
 72
0
 73
0
 74
0
  7

 75
0
147
1.0
148
0.0
149
0.0
100
AcDbLayout
  1
Model
 70
0
 71
0
 10
0.0
 20
0.0
 11
22.0
 21
17.0
 12
0.0
 22
0.0
 32
0.0
 14
0.0
 24
0.0
 34
0.0
 15
0.0
 25
0.0
 35
0.0
146
0.0
 13
0.0
 23
0.0
 33
0.0
 16
1.0
 26
0.0
 36
0.0
 17
0.0
 27
1.0
 37
0.0
 76
0
330
204
345
0
346
0
  0
LAYOUT
  5
3C6
102
{ACAD_REACTORS
330
1A
102
}
100
AcDbPlotSettings
  1

  2
none_device
  4
ANSI_C_(22.00_x_17.00_Inches)
  6

 40
0.0
 41
0.0
 42
0.0
 43
0.0
 44
558.8
 45
431.8
 46
0.0
 47
0.0
 48
0.0
 49
0.0
140
0.0
141
0.0
142
1.0
143
1.0
 70
0
 72
0
 73
0
 74
0
  7

 75
0
147
1.0
148
0.0
149
0.0
100
AcDbLayout
  1
Layout1
 70
0
 71
1
 10
0.0
 20
0.0
 11
22.0
 21
17.0
 12
0.0
 22
0.0
 32
0.0
 14
0.0
 24
0.0
 34
0.0
 15
0.0
 25
0.0
 35
0.0
146
0.0
 13
0.0
 23
0.0
 33
0.0
 16
1.0
 26
0.0
 36
0.0
 17
0.0
 27
1.0
 37
0.0
 76
0
330
205
345
0
346
0
  0
IMAGEDEF
  5
3C7
102
{ACAD_REACTORS
330
3C2
330
3C1
102
}
100
AcDbRasterImageDef
 90
0
  1
J6U_assy_2_img_1.png
 10
369.0
 20
92.0
 11
0.0066666667
 21
0.0066666667
280
1
281
0
  0
TABLESTYLE
  5
3C8
102
{ACAD_REACTORS
330
3C4
330
28A
330
28B
102
}
330
3C4
100
AcDbTableStyle
  3
Standard
 70
0
 71
0
 40
0.06
 41
0.06
280
1
281
1
  7
Standard
140
0.18
170
1
 62
0
 63
7
283
0
  7
Standard
140
0.18
170
1
 62
0
 63
7
283
0
  7
Standard
140
0.18
170
1
 62
0
 63
7
283
0
  0
TABLESTYLE
  5
3C9
102
{ACAD_REACTORS
330
3C4
330
289
102
}
330
3C4
100
AcDbTableStyle
  3
Standard1
 70
1
 71
0
 40
0.06
 41
0.06
280
1
281
1
  7
Standard
140
0.18
170
1
 62
0
 63
7
283
0
  7
Standard
140
0.18
170
1
 62
0
 63
7
283
0
  7
Standard
140
0.18
170
1
 62
0
 63
7
283
0
  0
ENDSEC
  0
EOF
