999
DXF file: J6I_assy_2.dxf
999
Pro/ENGINEER 2014200 by Parametric Technology Corporation
  0
SECTION
  2
HEADER
  9
$ACADVER
  1
AC1021
  9
$DWGCODEPAGE
  3
ANSI_1252
  9
$EXTMAX
 10
22.0
 20
17.0
 30
0.0
  9
$EXTMIN
 10
0.0
 20
0.0
 30
0.0
  9
$LIMMIN
 10
0.0
 20
0.0
  9
$LIMMAX
 10
22.0
 20
17.0
  9
$VIEWCTR
 10
11.0
 20
8.5
  9
$VIEWSIZE
 40
17.0
  9
$CLAYER
  8
0
  9
$LTSCALE
 40
1.21
  9
$CELTYPE
  6
BYLAYER
  9
$DIMSCALE
 40
1.0
  9
$DIMASZ
 40
0.1875
  9
$DIMEXO
 40
0.0625
  9
$DIMDLI
 40
0.836
  9
$DIMEXE
 40
0.125
  9
$DIMCEN
 40
0.198
  9
$DIMLFAC
 40
1.0
  9
$DIMBLK
  1
_FILLED
  9
$DIMTXT
 40
0.1
  9
$DIMTOL
 70
0
  9
$DIMLIM
 70
0
  9
$DIMTFAC
 40
1.0
  9
$DIMGAP
 40
0.09
  9
$DIMDSEP
 70
46
  9
$AUNITS
 70
0
  9
$PDMODE
 70
3
  9
$PDSIZE
 40
0.3125
  9
$HANDSEED
  5
3BA
  9
$TILEMODE
 70
1
  9
$MEASUREMENT
 70
0
  9
$INSUNITS
 70
1
  0
ENDSEC
  0
SECTION
  2
CLASSES
  0
CLASS
  1
ACDBDICTIONARYWDFLT
  2
AcDbDictionaryWithDefault
  3
AutoCAD 2000
 90
0
 91
1
280
0
281
0
  0
CLASS
  1
ACDBPLACEHOLDER
  2
AcDbPlaceHolder
  3
AutoCAD 2000
 90
0
 91
1
280
0
281
0
  0
CLASS
  1
LAYOUT
  2
AcDbLayout
  3
AutoCAD 2000
 90
0
 91
0
280
0
281
0
  0
CLASS
  1
RASTERVARIABLES
  2
AcDbRasterVariables
  3
ISM
 90
0
 91
1
280
0
281
0
  0
CLASS
  1
IMAGEDEF
  2
AcDbRasterImageDef
  3
ISM
 90
0
 91
1
280
0
281
0
  0
CLASS
  1
IMAGEDEF_REACTOR
  2
AcDbRasterImageDefReactor
  3
ISM
 90
0
 91
1
280
0
281
0
  0
CLASS
  1
IMAGE
  2
AcDbRasterImage
  3
ISM
 90
127
 91
1
280
0
281
1
  0
CLASS
  1
TABLESTYLE
  2
AcDbTableStyle
  3
ObjectDBX Classes
 90
2047
 91
1
280
0
281
0
  0
CLASS
  1
ACAD_TABLE
  2
AcDbTable
  3
ObjectDBX Classes
 90
1025
 91
3
280
0
281
1
  0
ENDSEC
  0
SECTION
  2
TABLES
  0
TABLE
  2
VPORT
  5
8
100
AcDbSymbolTable
 70
2
  0
VPORT
  5
1F4
100
AcDbSymbolTableRecord
100
AcDbViewportTableRecord
  2
*ACTIVE
 70
0
 10
0.0
 20
0.0
 11
1.0
 21
1.0
 12
11.0
 22
8.5
 13
0.0
 23
0.0
 14
1.0
 24
1.0
 15
0.0
 25
0.0
 16
0.0
 26
0.0
 36
1.0
 17
0.0
 27
0.0
 37
0.0
 40
17.0
 41
1.2941176471
 42
50.0
 43
0.0
 44
0.0
 50
0.0
 51
0.0
 71
0
 72
100
 73
1
 74
1
 75
0
 76
0
 77
0
 78
0
  0
ENDTAB
  0
TABLE
  2
LTYPE
  5
5
100
AcDbSymbolTable
 70
6
  0
LTYPE
  5
14
100
AcDbSymbolTableRecord
100
AcDbLinetypeTableRecord
  2
BYBLOCK
 70
0
  3

 72
65
 73
0
 40
0.0
  0
LTYPE
  5
15
100
AcDbSymbolTableRecord
100
AcDbLinetypeTableRecord
  2
BYLAYER
 70
0
  3

 72
65
 73
0
 40
0.0
  0
LTYPE
  5
16
100
AcDbSymbolTableRecord
100
AcDbLinetypeTableRecord
  2
CONTINUOUS
 70
64
  3
Solid line
 72
65
 73
0
 40
0.0
  0
LTYPE
  5
1F5
100
AcDbSymbolTableRecord
100
AcDbLinetypeTableRecord
  2
CENTER
 70
64
  3
____ _ ____ _ ____ _ ____ _ ____ _ ____ _ ____
 72
65
 73
4
 40
0.6
 49
0.375
 74
0
 49
-0.075
 74
0
 49
0.075
 74
0
 49
-0.075
 74
0
  0
LTYPE
  5
1F6
100
AcDbSymbolTableRecord
100
AcDbLinetypeTableRecord
  2
HIDDEN
 70
64
  3
- - - - - - - - - - - - - - - - - - - -
 72
65
 73
2
 40
0.2
 49
0.1
 74
0
 49
-0.1
 74
0
  0
LTYPE
  5
1F7
100
AcDbSymbolTableRecord
100
AcDbLinetypeTableRecord
  2
PHANTOM
 70
64
  3
_____ _ _ _____ _ _ _____ _ _ _____
 72
65
 73
6
 40
0.8
 49
0.45
 74
0
 49
-0.05
 74
0
 49
0.1
 74
0
 49
-0.05
 74
0
 49
0.1
 74
0
 49
-0.05
 74
0
  0
LTYPE
  5
1F8
100
AcDbSymbolTableRecord
100
AcDbLinetypeTableRecord
  2
DOT
 70
64
  3
. . . . . . . . . . . . . . . . . . . .
 72
65
 73
2
 40
0.2
 49
0.1
 74
0
 49
-0.1
 74
0
  0
LTYPE
  5
1F9
100
AcDbSymbolTableRecord
100
AcDbLinetypeTableRecord
  2
DASHED
 70
64
  3
- - - - - - - - - - - - - - - - - - - -
 72
65
 73
2
 40
0.2
 49
0.1
 74
0
 49
-0.1
 74
0
  0
ENDTAB
  0
TABLE
  2
LAYER
  5
2
100
AcDbSymbolTable
 70
36
  0
LAYER
  5
10
100
AcDbSymbolTableRecord
100
AcDbLayerTableRecord
  2
0
 70
0
 62
7
  6
CONTINUOUS
370
-3
390
F
  0
LAYER
  5
1FA
100
AcDbSymbolTableRecord
100
AcDbLayerTableRecord
  2
DEFAULT_1
 70
0
 62
7
  6
CENTER
370
-3
390
F
  0
LAYER
  5
1FB
100
AcDbSymbolTableRecord
100
AcDbLayerTableRecord
  2
DEFAULT_2
 70
0
 62
8
  6
HIDDEN
370
-3
390
F
  0
LAYER
  5
1FC
100
AcDbSymbolTableRecord
100
AcDbLayerTableRecord
  2
DEFAULT_3
 70
0
 62
7
  6
PHANTOM
370
-3
390
F
  0
LAYER
  5
1FD
100
AcDbSymbolTableRecord
100
AcDbLayerTableRecord
  2
DATUM_PLANES
 70
0
 62
7
  6
CONTINUOUS
370
-3
390
F
  0
LAYER
  5
1FE
100
AcDbSymbolTableRecord
100
AcDbLayerTableRecord
  2
PORT_AREAS
 70
0
 62
7
  6
CONTINUOUS
370
-3
390
F
  0
LAYER
  5
1FF
100
AcDbSymbolTableRecord
100
AcDbLayerTableRecord
  2
SUNNBOMCOSMETIC
 70
0
 62
7
  6
CONTINUOUS
370
-3
390
F
  0
LAYER
  5
200
100
AcDbSymbolTableRecord
100
AcDbLayerTableRecord
  2
SUNNBOMSTAMPING
 70
0
 62
7
  6
CONTINUOUS
370
-3
390
F
  0
LAYER
  5
201
100
AcDbSymbolTableRecord
100
AcDbLayerTableRecord
  2
THREADS
 70
0
 62
7
  6
CONTINUOUS
370
-3
390
F
  0
ENDTAB
  0
TABLE
  2
STYLE
  5
3
100
AcDbSymbolTable
 70
1
  0
STYLE
  5
11
100
AcDbSymbolTableRecord
100
AcDbTextStyleTableRecord
  2
STANDARD
 70
0
 40
0.0
 41
0.8
 50
0.0
 71
0
 42
0.2
  3
txt
  4

  0
STYLE
  5
202
100
AcDbSymbolTableRecord
100
AcDbTextStyleTableRecord
  2
TEXTSTYLE_1
 70
0
 40
0.0
 41
0.8
 50
0.0
 71
0
 42
0.2
  3
gdt
  4

  0
ENDTAB
  0
TABLE
  2
VIEW
  5
6
100
AcDbSymbolTable
 70
0
  0
ENDTAB
  0
TABLE
  2
UCS
  5
7
100
AcDbSymbolTable
 70
0
  0
ENDTAB
  0
TABLE
  2
APPID
  5
9
100
AcDbSymbolTable
 70
1
  0
APPID
  5
203
100
AcDbSymbolTableRecord
100
AcDbRegAppTableRecord
  2
ACAD
 70
0
  0
ENDTAB
  0
TABLE
  2
BLOCK_RECORD
  5
1
100
AcDbSymbolTable
 70
0
  0
BLOCK_RECORD
  5
204
100
AcDbSymbolTableRecord
100
AcDbBlockTableRecord
  2
*Model_Space
  0
BLOCK_RECORD
  5
205
100
AcDbSymbolTableRecord
100
AcDbBlockTableRecord
  2
*Paper_Space
  0
BLOCK_RECORD
  5
206
100
AcDbSymbolTableRecord
100
AcDbBlockTableRecord
  2
SUN_FIRST_THIRD_ANGLE_BL0
  0
BLOCK_RECORD
  5
207
100
AcDbSymbolTableRecord
100
AcDbBlockTableRecord
  2
*T1
  0
BLOCK_RECORD
  5
208
100
AcDbSymbolTableRecord
100
AcDbBlockTableRecord
  2
*T2
  0
BLOCK_RECORD
  5
209
100
AcDbSymbolTableRecord
100
AcDbBlockTableRecord
  2
*T3
  0
ENDTAB
  0
TABLE
  2
DIMSTYLE
  5
A
100
AcDbSymbolTable
 70
1
100
AcDbDimStyleTable
 71
0
  0
DIMSTYLE
105
20A
100
AcDbSymbolTableRecord
100
AcDbDimStyleTableRecord
  2
STANDARD
 70
0
  3

  4

 40
1.0
 41
0.1875
 42
0.0625
 43
0.38
 44
0.125
 45
0.0
 46
0.0
 47
0.001
 48
0.001
140
0.1
141
0.09
142
0.0
143
25.4
144
1.0
145
0.0
146
1.0
147
0.09
 71
0.0
 72
0.0
 73
1
 74
1
 75
0
 76
0
 77
0
 78
4
170
0
171
2
172
0
173
0
174
0
175
0
176
0
177
0
178
0
270
2
271
3
272
3
273
2
274
2
275
0
280
0
281
0
282
0
283
1
284
4
285
0
286
0
287
3
288
0
340
11
278
46
  0
ENDTAB
  0
ENDSEC
  0
SECTION
  2
BLOCKS
  0
BLOCK
  5
20
100
AcDbEntity
  8
0
100
AcDbBlockBegin
  2
*Model_Space
 70
0
 10
0.0
 20
0.0
 30
0.0
  3
*Model_Space
  1

  0
ENDBLK
  5
21
100
AcDbEntity
  8
0
100
AcDbBlockEnd
  0
BLOCK
  5
1C
100
AcDbEntity
  8
0
100
AcDbBlockBegin
  2
*Paper_Space
 70
0
 10
0.0
 20
0.0
 30
0.0
  3
*Paper_Space
  1

  0
ENDBLK
  5
1D
100
AcDbEntity
  8
0
100
AcDbBlockEnd
  0
BLOCK
  5
20B
100
AcDbEntity
  8
0
100
AcDbBlockBegin
 62
2
  6
CONTINUOUS
  2
SUN_FIRST_THIRD_ANGLE_BL0
 70
64
 10
20.4816717061
 20
1.2289683772
  3
SUN_FIRST_THIRD_ANGLE_BL0
  1

  0
TEXT
  5
20C
100
AcDbEntity
  8
0
100
AcDbText
 62
2
  6
CONTINUOUS
 10
19.4750896608
 20
1.4136269581
  7
STANDARD
 40
0.08
  1
FIRST ANGLE
 41
0.8
 72
0
100
AcDbText
  0
TEXT
  5
20D
100
AcDbEntity
  8
0
100
AcDbText
 62
2
  6
CONTINUOUS
 10
20.7842537513
 20
1.4047600029
  7
STANDARD
 40
0.08
  1
THIRD ANGLE
 41
0.8
 72
0
100
AcDbText
  0
LINE
  5
20E
100
AcDbEntity
  8
0
100
AcDbLine
 62
7
  6
CONTINUOUS
 10
19.4767170086
 20
1.1727031207
 11
19.6334271527
 21
1.1717972817
  0
LINE
  5
20F
100
AcDbEntity
  8
0
100
AcDbLine
 62
7
  6
CONTINUOUS
 10
19.6596964832
 20
1.1717972817
 11
19.6950230232
 21
1.171593082
  0
LINE
  5
210
100
AcDbEntity
  8
0
100
AcDbLine
 62
7
  6
CONTINUOUS
 10
19.7194818561
 20
1.1708914427
 11
19.8852396156
 21
1.1699333054
  0
LINE
  5
211
100
AcDbEntity
  8
0
100
AcDbLine
 62
7
  6
CONTINUOUS
 10
19.4758111696
 20
1.2723454088
 11
19.88525039
 21
1.3511534004
  0
LINE
  5
212
100
AcDbEntity
  8
0
100
AcDbLine
 62
7
  6
CONTINUOUS
 10
19.88525039
 20
1.3511534004
 11
19.8831348489
 21
0.9851647912
  0
LINE
  5
213
100
AcDbEntity
  8
0
100
AcDbLine
 62
7
  6
CONTINUOUS
 10
19.8831348489
 20
0.9851647912
 11
19.4767170086
 21
1.0658141206
  0
LINE
  5
214
100
AcDbEntity
  8
0
100
AcDbLine
 62
7
  6
CONTINUOUS
 10
19.4767170086
 20
1.0658141206
 11
19.4779056764
 21
1.2714536432
  0
CIRCLE
  5
215
100
AcDbEntity
  8
0
100
AcDbCircle
 62
7
  6
CONTINUOUS
 10
20.2068232291
 20
1.1717972817
 40
0.175742101
  0
CIRCLE
  5
216
100
AcDbEntity
  8
0
100
AcDbCircle
 62
7
  6
CONTINUOUS
 10
20.2068232291
 20
1.1717972817
 40
0.1005522074
  0
LINE
  5
217
100
AcDbEntity
  8
0
100
AcDbLine
 62
7
  6
CONTINUOUS
 10
20.2077290681
 20
1.3756110529
 11
20.2071171714
 21
1.2379342989
  0
LINE
  5
218
100
AcDbEntity
  8
0
100
AcDbLine
 62
7
  6
CONTINUOUS
 10
20.2077290681
 20
1.2016899681
 11
20.2074674401
 21
1.1428236749
  0
LINE
  5
219
100
AcDbEntity
  8
0
100
AcDbLine
 62
7
  6
CONTINUOUS
 10
20.208634907
 20
1.101141841
 11
20.2080230104
 21
0.963465087
  0
LINE
  5
21A
100
AcDbEntity
  8
0
100
AcDbLine
 62
7
  6
CONTINUOUS
 10
20.0066328138
 20
1.1745147986
 11
20.1443095678
 21
1.1739029019
  0
LINE
  5
21B
100
AcDbEntity
  8
0
100
AcDbLine
 62
7
  6
CONTINUOUS
 10
20.1832714155
 20
1.1727031207
 11
20.238153505
 21
1.172335442
  0
LINE
  5
21C
100
AcDbEntity
  8
0
100
AcDbLine
 62
7
  6
CONTINUOUS
 10
20.2756669918
 20
1.1717972817
 11
20.407916871
 21
1.1712095044
  0
CIRCLE
  5
21D
100
AcDbEntity
  8
0
100
AcDbCircle
 62
7
  6
CONTINUOUS
 10
20.7509457401
 20
1.1693297793
 40
0.1722024983
  0
CIRCLE
  5
21E
100
AcDbEntity
  8
0
100
AcDbCircle
 62
7
  6
CONTINUOUS
 10
20.7509457401
 20
1.1693297793
 40
0.0985164967
  0
LINE
  5
21F
100
AcDbEntity
  8
0
100
AcDbLine
 62
7
  6
CONTINUOUS
 10
20.7169767782
 20
1.170462078
 11
20.7825395137
 21
1.1682766535
  0
LINE
  5
220
100
AcDbEntity
  8
0
100
AcDbLine
 62
7
  6
CONTINUOUS
 10
20.8177513651
 20
1.1693297793
 11
20.947965719
 21
1.1693297793
  0
LINE
  5
221
100
AcDbEntity
  8
0
100
AcDbLine
 62
7
  6
CONTINUOUS
 10
20.6875370113
 20
1.170462078
 11
20.5573226574
 21
1.170462078
  0
LINE
  5
222
100
AcDbEntity
  8
0
100
AcDbLine
 62
7
  6
CONTINUOUS
 10
20.7486811426
 20
1.1987695462
 11
20.7486811426
 21
1.1432869085
  0
LINE
  5
223
100
AcDbEntity
  8
0
100
AcDbLine
 62
7
  6
CONTINUOUS
 10
20.7498134414
 20
1.1059210505
 11
20.7498134414
 21
0.9757066966
  0
LINE
  5
224
100
AcDbEntity
  8
0
100
AcDbLine
 62
7
  6
CONTINUOUS
 10
20.7486811426
 20
1.2338708068
 11
20.7486811426
 21
1.3640851607
  0
LINE
  5
225
100
AcDbEntity
  8
0
100
AcDbLine
 62
7
  6
CONTINUOUS
 10
21.0702539817
 20
1.2701043662
 11
21.4790138229
 21
1.3448360823
  0
LINE
  5
226
100
AcDbEntity
  8
0
100
AcDbLine
 62
7
  6
CONTINUOUS
 10
21.4790138229
 20
1.3448360823
 11
21.4790138229
 21
0.9779712941
  0
LINE
  5
227
100
AcDbEntity
  8
0
100
AcDbLine
 62
7
  6
CONTINUOUS
 10
21.4790138229
 20
0.9779712941
 11
21.069121683
 21
1.0617614
  0
LINE
  5
228
100
AcDbEntity
  8
0
100
AcDbLine
 62
7
  6
CONTINUOUS
 10
21.0702539817
 20
1.2701043662
 11
21.069121683
 21
1.0617614
  0
LINE
  5
229
100
AcDbEntity
  8
0
100
AcDbLine
 62
7
  6
CONTINUOUS
 10
21.4790138229
 20
1.1693297793
 11
21.3159628059
 21
1.1693297793
  0
LINE
  5
22A
100
AcDbEntity
  8
0
100
AcDbLine
 62
7
  6
CONTINUOUS
 10
21.2876553377
 20
1.1693297793
 11
21.2502894796
 21
1.1693297793
  0
LINE
  5
22B
100
AcDbEntity
  8
0
100
AcDbLine
 62
7
  6
CONTINUOUS
 10
21.2208497126
 20
1.1659328831
 11
21.0713862804
 21
1.1659328831
  0
LINE
  5
22C
100
AcDbEntity
  8
0
100
AcDbLine
 62
7
  6
CONTINUOUS
 10
20.4796138713
 20
1.5284908897
 11
20.4766766948
 21
0.9294458646
  0
ENDBLK
  5
22D
100
AcDbEntity
  8
0
  6
BYBLOCK
 62
0
100
AcDbBlockEnd
  0
BLOCK
  5
22E
100
AcDbEntity
  8
0
100
AcDbBlockBegin
  2
*T1
 70
1
 10
0.0
 20
0.0
  3
*T1
  1

  0
LINE
  5
22F
100
AcDbEntity
  8
0
100
AcDbLine
 62
2
  6
CONTINUOUS
 10
9.275
 20
0.0
 11
-0.0
 21
0.0
  0
LINE
  5
230
100
AcDbEntity
  8
0
100
AcDbLine
 62
2
  6
CONTINUOUS
 10
9.275
 20
0.0
 11
9.275
 21
1.25
  0
LINE
  5
231
100
AcDbEntity
  8
0
100
AcDbLine
 62
2
  6
CONTINUOUS
 10
9.275
 20
0.625
 11
-0.0
 21
0.625
  0
LINE
  5
232
100
AcDbEntity
  8
0
100
AcDbLine
 62
2
  6
CONTINUOUS
 10
9.275
 20
1.25
 11
-0.0
 21
1.25
  0
LINE
  5
233
100
AcDbEntity
  8
0
100
AcDbLine
 62
2
  6
CONTINUOUS
 10
6.8
 20
0.0
 11
6.8
 21
1.25
  0
LINE
  5
234
100
AcDbEntity
  8
0
100
AcDbLine
 62
2
  6
CONTINUOUS
 10
6.4
 20
0.0
 11
6.4
 21
0.625
  0
LINE
  5
235
100
AcDbEntity
  8
0
100
AcDbLine
 62
2
  6
CONTINUOUS
 10
5.9
 20
0.0
 11
5.9
 21
0.625
  0
LINE
  5
236
100
AcDbEntity
  8
0
100
AcDbLine
 62
2
  6
CONTINUOUS
 10
5.2
 20
0.0
 11
5.2
 21
0.625
  0
LINE
  5
237
100
AcDbEntity
  8
0
100
AcDbLine
 62
2
  6
CONTINUOUS
 10
4.1
 20
0.0
 11
4.1
 21
1.25
  0
LINE
  5
238
100
AcDbEntity
  8
0
100
AcDbLine
 62
2
  6
CONTINUOUS
 10
-0.0
 20
0.0
 11
-0.0
 21
1.25
  0
MTEXT
  5
239
100
AcDbEntity
  8
0
100
AcDbMText
 62
2
  6
CONTINUOUS
  7
STANDARD
 71
2
 72
1
 10
6.6
 20
0.325
 30
0.0
 11
1.0
 21
0.0
 31
0.0
 44
0.9
  1
2
 40
0.125
 41
0.2
  0
MTEXT
  5
23A
100
AcDbEntity
  8
0
100
AcDbMText
 62
2
  6
CONTINUOUS
  7
STANDARD
 71
2
 72
1
 10
6.15
 20
0.325
 30
0.0
 11
1.0
 21
0.0
 31
0.0
 44
0.9
  1
C
 40
0.125
 41
0.2
  0
MTEXT
  5
23B
100
AcDbEntity
  8
0
100
AcDbMText
 62
2
  6
CONTINUOUS
  7
STANDARD
 71
2
 72
1
 10
5.55
 20
0.325
 30
0.0
 11
1.0
 21
0.0
 31
0.0
 44
0.9
  1
1.000
 40
0.125
 41
1.0
  0
MTEXT
  5
23C
100
AcDbEntity
  8
0
100
AcDbMText
 62
2
  6
CONTINUOUS
  7
STANDARD
 71
2
 72
1
 10
4.65
 20
0.325
 30
0.0
 11
1.0
 21
0.0
 31
0.0
 44
0.9
  1
Aug-05-20
 40
0.125
 41
1.8
  0
MTEXT
  5
23D
100
AcDbEntity
  8
0
100
AcDbMText
 62
2
  6
CONTINUOUS
  7
STANDARD
 71
2
 72
1
 10
2.05
 20
0.4625
 30
0.0
 11
1.0
 21
0.0
 31
0.0
 44
0.9
  1
T-163A Line mount\P(See Technical Data for Body Features)
 40
0.125
 41
7.6
  0
MTEXT
  5
23E
100
AcDbEntity
  8
0
100
AcDbMText
 62
2
  6
CONTINUOUS
  7
STANDARD
 71
1
 72
1
 10
6.45
 20
0.5625
 30
0.0
 11
1.0
 21
0.0
 31
0.0
 44
0.9
  1
SHEET
 40
0.06
 41
0.48
  0
MTEXT
  5
23F
100
AcDbEntity
  8
0
100
AcDbMText
 62
2
  6
CONTINUOUS
  7
STANDARD
 71
1
 72
1
 10
5.95
 20
0.5625
 30
0.0
 11
1.0
 21
0.0
 31
0.0
 44
0.9
  1
DWG SIZE
 40
0.06
 41
0.768
  0
MTEXT
  5
240
100
AcDbEntity
  8
0
100
AcDbMText
 62
2
  6
CONTINUOUS
  7
STANDARD
 71
1
 72
1
 10
5.25
 20
0.5625
 30
0.0
 11
1.0
 21
0.0
 31
0.0
 44
0.9
  1
SCALE
 40
0.06
 41
0.48
  0
MTEXT
  5
241
100
AcDbEntity
  8
0
100
AcDbMText
 62
2
  6
CONTINUOUS
  7
STANDARD
 71
1
 72
1
 10
4.15
 20
0.5625
 30
0.0
 11
1.0
 21
0.0
 31
0.0
 44
0.9
  1
DATE
 40
0.06
 41
0.384
  0
MTEXT
  5
242
100
AcDbEntity
  8
0
100
AcDbMText
 62
2
  6
CONTINUOUS
  7
STANDARD
 71
1
 72
1
 10
0.05
 20
0.5625
 30
0.0
 11
1.0
 21
0.0
 31
0.0
 44
0.9
  1
DESCRIPTION
 40
0.06
 41
1.056
  0
MTEXT
  5
243
100
AcDbEntity
  8
0
100
AcDbMText
 62
2
  6
CONTINUOUS
  7
STANDARD
 71
2
 72
1
 10
5.45
 20
1.0375
 30
0.0
 11
1.0
 21
0.0
 31
0.0
 44
0.9
  1
ALL DIMENSIONS IN INCH\PVIEWS ARE THIRD ANGLE
 40
0.12
 41
4.224
  0
MTEXT
  5
244
100
AcDbEntity
  8
0
100
AcDbMText
 62
2
  6
CONTINUOUS
  7
STANDARD
 71
2
 72
1
 10
2.05
 20
0.95
 30
0.0
 11
1.0
 21
0.0
 31
0.0
 44
0.9
  1
J6I
 40
0.125
 41
0.6
  0
MTEXT
  5
245
100
AcDbEntity
  8
0
100
AcDbMText
 62
2
  6
CONTINUOUS
  7
STANDARD
 71
1
 72
1
 10
0.05
 20
1.1875
 30
0.0
 11
1.0
 21
0.0
 31
0.0
 44
0.9
  1
MODEL
 40
0.06
 41
0.48
  0
ENDBLK
  5
246
100
AcDbEntity
  8
0
  6
BYBLOCK
 62
0
100
AcDbBlockEnd
  0
BLOCK
  5
247
100
AcDbEntity
  8
0
100
AcDbBlockBegin
  2
*T2
 70
1
 10
0.0
 20
0.0
  3
*T2
  1

  0
LINE
  5
248
100
AcDbEntity
  8
0
100
AcDbLine
 62
2
  6
CONTINUOUS
 10
0.0
 20
0.0
 11
9.055
 21
0.0
  0
LINE
  5
249
100
AcDbEntity
  8
0
100
AcDbLine
 62
2
  6
CONTINUOUS
 10
0.0
 20
0.0
 11
0.0
 21
-2.594
  0
LINE
  5
24A
100
AcDbEntity
  8
0
100
AcDbLine
 62
2
  6
CONTINUOUS
 10
0.0
 20
-0.344
 11
9.055
 21
-0.344
  0
LINE
  5
24B
100
AcDbEntity
  8
0
100
AcDbLine
 62
2
  6
CONTINUOUS
 10
0.0
 20
-0.594
 11
9.055
 21
-0.594
  0
LINE
  5
24C
100
AcDbEntity
  8
0
100
AcDbLine
 62
2
  6
CONTINUOUS
 10
0.0
 20
-0.844
 11
9.055
 21
-0.844
  0
LINE
  5
24D
100
AcDbEntity
  8
0
100
AcDbLine
 62
2
  6
CONTINUOUS
 10
0.0
 20
-1.094
 11
9.055
 21
-1.094
  0
LINE
  5
24E
100
AcDbEntity
  8
0
100
AcDbLine
 62
2
  6
CONTINUOUS
 10
0.0
 20
-1.344
 11
9.055
 21
-1.344
  0
LINE
  5
24F
100
AcDbEntity
  8
0
100
AcDbLine
 62
2
  6
CONTINUOUS
 10
0.0
 20
-1.594
 11
9.055
 21
-1.594
  0
LINE
  5
250
100
AcDbEntity
  8
0
100
AcDbLine
 62
2
  6
CONTINUOUS
 10
0.0
 20
-1.844
 11
9.055
 21
-1.844
  0
LINE
  5
251
100
AcDbEntity
  8
0
100
AcDbLine
 62
2
  6
CONTINUOUS
 10
0.0
 20
-2.094
 11
9.055
 21
-2.094
  0
LINE
  5
252
100
AcDbEntity
  8
0
100
AcDbLine
 62
2
  6
CONTINUOUS
 10
0.0
 20
-2.344
 11
9.055
 21
-2.344
  0
LINE
  5
253
100
AcDbEntity
  8
0
100
AcDbLine
 62
2
  6
CONTINUOUS
 10
0.0
 20
-2.594
 11
9.055
 21
-2.594
  0
LINE
  5
254
100
AcDbEntity
  8
0
100
AcDbLine
 62
2
  6
CONTINUOUS
 10
3.055
 20
0.0
 11
3.055
 21
-2.594
  0
LINE
  5
255
100
AcDbEntity
  8
0
100
AcDbLine
 62
2
  6
CONTINUOUS
 10
9.055
 20
0.0
 11
9.055
 21
-2.594
  0
MTEXT
  5
256
100
AcDbEntity
  8
0
100
AcDbMText
 62
2
  6
CONTINUOUS
  7
STANDARD
 71
2
 72
1
 10
1.5275
 20
-0.0995
 30
0.0
 11
1.0
 21
0.0
 31
0.0
 44
0.9
  1
Technical Data
 40
0.145
 41
3.248
  0
MTEXT
  5
257
100
AcDbEntity
  8
0
100
AcDbMText
 62
2
  6
CONTINUOUS
  7
STANDARD
 71
2
 72
1
 10
4.555
 20
-0.0995
 30
0.0
 11
1.0
 21
0.0
 31
0.0
 44
0.9
  1
U.S. Units
 40
0.145
 41
2.32
  0
MTEXT
  5
258
100
AcDbEntity
  8
0
100
AcDbMText
 62
2
  6
CONTINUOUS
  7
STANDARD
 71
2
 72
1
 10
7.555
 20
-0.0995
 30
0.0
 11
1.0
 21
0.0
 31
0.0
 44
0.9
  1
Metric Units
 40
0.145
 41
2.784
  0
MTEXT
  5
259
100
AcDbEntity
  8
0
100
AcDbMText
 62
2
  6
CONTINUOUS
  7
STANDARD
 71
2
 72
1
 10
1.5275
 20
-0.4065
 30
0.0
 11
1.0
 21
0.0
 31
0.0
 44
0.9
  1
Cavity
 40
0.125
 41
1.2
  0
MTEXT
  5
25A
100
AcDbEntity
  8
0
100
AcDbMText
 62
2
  6
CONTINUOUS
  7
STANDARD
 71
2
 72
1
 10
6.055
 20
-0.4065
 30
0.0
 11
1.0
 21
0.0
 31
0.0
 44
0.9
  1
T-163A
 40
0.125
 41
1.2
  0
MTEXT
  5
25B
100
AcDbEntity
  8
0
100
AcDbMText
 62
2
  6
CONTINUOUS
  7
STANDARD
 71
2
 72
1
 10
1.5275
 20
-0.6565
 30
0.0
 11
1.0
 21
0.0
 31
0.0
 44
0.9
  1
Body Features
 40
0.125
 41
2.6
  0
MTEXT
  5
25C
100
AcDbEntity
  8
0
100
AcDbMText
 62
2
  6
CONTINUOUS
  7
STANDARD
 71
2
 72
1
 10
6.055
 20
-0.6565
 30
0.0
 11
1.0
 21
0.0
 31
0.0
 44
0.9
  1
Ninety degree with reverse flow check - sequence
 40
0.125
 41
9.6
  0
MTEXT
  5
25D
100
AcDbEntity
  8
0
100
AcDbMText
 62
2
  6
CONTINUOUS
  7
STANDARD
 71
2
 72
1
 10
1.5275
 20
-0.9065
 30
0.0
 11
1.0
 21
0.0
 31
0.0
 44
0.9
  1
Body Type
 40
0.125
 41
1.8
  0
MTEXT
  5
25E
100
AcDbEntity
  8
0
100
AcDbMText
 62
2
  6
CONTINUOUS
  7
STANDARD
 71
2
 72
1
 10
6.055
 20
-0.9065
 30
0.0
 11
1.0
 21
0.0
 31
0.0
 44
0.9
  1
Line mount
 40
0.125
 41
2.0
  0
MTEXT
  5
25F
100
AcDbEntity
  8
0
100
AcDbMText
 62
2
  6
CONTINUOUS
  7
STANDARD
 71
2
 72
1
 10
1.5275
 20
-1.1565
 30
0.0
 11
1.0
 21
0.0
 31
0.0
 44
0.9
  1
Interface
 40
0.125
 41
1.8
  0
MTEXT
  5
260
100
AcDbEntity
  8
0
100
AcDbMText
 62
2
  6
CONTINUOUS
  7
STANDARD
 71
2
 72
1
 10
6.055
 20
-1.1565
 30
0.0
 11
1.0
 21
0.0
 31
0.0
 44
0.9
  1
None
 40
0.125
 41
0.8
  0
MTEXT
  5
261
100
AcDbEntity
  8
0
100
AcDbMText
 62
2
  6
CONTINUOUS
  7
STANDARD
 71
2
 72
1
 10
1.5275
 20
-1.4065
 30
0.0
 11
1.0
 21
0.0
 31
0.0
 44
0.9
  1
Open Cavity Quantity
 40
0.125
 41
4.0
  0
MTEXT
  5
262
100
AcDbEntity
  8
0
100
AcDbMText
 62
2
  6
CONTINUOUS
  7
STANDARD
 71
2
 72
1
 10
6.055
 20
-1.4065
 30
0.0
 11
1.0
 21
0.0
 31
0.0
 44
0.9
  1
1
 40
0.125
 41
0.2
  0
MTEXT
  5
263
100
AcDbEntity
  8
0
100
AcDbMText
 62
2
  6
CONTINUOUS
  7
STANDARD
 71
2
 72
1
 10
1.5275
 20
-1.6565
 30
0.0
 11
1.0
 21
0.0
 31
0.0
 44
0.9
  1
Weight
 40
0.125
 41
1.2
  0
MTEXT
  5
264
100
AcDbEntity
  8
0
100
AcDbMText
 62
2
  6
CONTINUOUS
  7
STANDARD
 71
2
 72
1
 10
4.555
 20
-1.6565
 30
0.0
 11
1.0
 21
0.0
 31
0.0
 44
0.9
  1
0.854 lb.
 40
0.125
 41
1.8
  0
MTEXT
  5
265
100
AcDbEntity
  8
0
100
AcDbMText
 62
2
  6
CONTINUOUS
  7
STANDARD
 71
2
 72
1
 10
7.555
 20
-1.6565
 30
0.0
 11
1.0
 21
0.0
 31
0.0
 44
0.9
  1
0,387 kg.
 40
0.125
 41
1.8
  0
MTEXT
  5
266
100
AcDbEntity
  8
0
100
AcDbMText
 62
2
  6
CONTINUOUS
  7
STANDARD
 71
2
 72
1
 10
1.5275
 20
-1.9065
 30
0.0
 11
1.0
 21
0.0
 31
0.0
 44
0.9
  1
Mounting Hole Diameter
 40
0.125
 41
4.4
  0
MTEXT
  5
267
100
AcDbEntity
  8
0
100
AcDbMText
 62
2
  6
CONTINUOUS
  7
STANDARD
 71
2
 72
1
 10
4.555
 20
-1.9065
 30
0.0
 11
1.0
 21
0.0
 31
0.0
 44
0.9
  1
.28 in.
 40
0.125
 41
1.4
  0
MTEXT
  5
268
100
AcDbEntity
  8
0
100
AcDbMText
 62
2
  6
CONTINUOUS
  7
STANDARD
 71
2
 72
1
 10
7.555
 20
-1.9065
 30
0.0
 11
1.0
 21
0.0
 31
0.0
 44
0.9
  1
7,1 mm
 40
0.125
 41
1.2
  0
MTEXT
  5
269
100
AcDbEntity
  8
0
100
AcDbMText
 62
2
  6
CONTINUOUS
  7
STANDARD
 71
2
 72
1
 10
1.5275
 20
-2.1565
 30
0.0
 11
1.0
 21
0.0
 31
0.0
 44
0.9
  1
Mounting Hole Depth
 40
0.125
 41
3.8
  0
MTEXT
  5
26A
100
AcDbEntity
  8
0
100
AcDbMText
 62
2
  6
CONTINUOUS
  7
STANDARD
 71
2
 72
1
 10
6.055
 20
-2.1565
 30
0.0
 11
1.0
 21
0.0
 31
0.0
 44
0.9
  1
Through
 40
0.125
 41
1.4
  0
MTEXT
  5
26B
100
AcDbEntity
  8
0
100
AcDbMText
 62
2
  6
CONTINUOUS
  7
STANDARD
 71
2
 72
1
 10
1.5275
 20
-2.4065
 30
0.0
 11
1.0
 21
0.0
 31
0.0
 44
0.9
  1
Mounting Hole Quantity
 40
0.125
 41
4.4
  0
MTEXT
  5
26C
100
AcDbEntity
  8
0
100
AcDbMText
 62
2
  6
CONTINUOUS
  7
STANDARD
 71
2
 72
1
 10
6.055
 20
-2.4065
 30
0.0
 11
1.0
 21
0.0
 31
0.0
 44
0.9
  1
2
 40
0.125
 41
0.2
  0
ENDBLK
  5
26D
100
AcDbEntity
  8
0
  6
BYBLOCK
 62
0
100
AcDbBlockEnd
  0
BLOCK
  5
26E
100
AcDbEntity
  8
0
100
AcDbBlockBegin
  2
*T3
 70
1
 10
0.0
 20
0.0
  3
*T3
  1

  0
LINE
  5
26F
100
AcDbEntity
  8
0
100
AcDbLine
 62
2
  6
CONTINUOUS
 10
0.0
 20
0.0
 11
4.6
 21
0.0
  0
LINE
  5
270
100
AcDbEntity
  8
0
100
AcDbLine
 62
2
  6
CONTINUOUS
 10
0.0
 20
0.0
 11
0.0
 21
-1.43775
  0
LINE
  5
271
100
AcDbEntity
  8
0
100
AcDbLine
 62
2
  6
CONTINUOUS
 10
0.0
 20
-0.34375
 11
4.6
 21
-0.34375
  0
LINE
  5
272
100
AcDbEntity
  8
0
100
AcDbLine
 62
2
  6
CONTINUOUS
 10
0.0
 20
-0.68775
 11
4.6
 21
-0.68775
  0
LINE
  5
273
100
AcDbEntity
  8
0
100
AcDbLine
 62
2
  6
CONTINUOUS
 10
0.0
 20
-0.93775
 11
4.6
 21
-0.93775
  0
LINE
  5
274
100
AcDbEntity
  8
0
100
AcDbLine
 62
2
  6
CONTINUOUS
 10
0.0
 20
-1.18775
 11
4.6
 21
-1.18775
  0
LINE
  5
275
100
AcDbEntity
  8
0
100
AcDbLine
 62
2
  6
CONTINUOUS
 10
0.0
 20
-1.43775
 11
4.6
 21
-1.43775
  0
LINE
  5
276
100
AcDbEntity
  8
0
100
AcDbLine
 62
2
  6
CONTINUOUS
 10
1.3
 20
-0.34375
 11
1.3
 21
-1.43775
  0
LINE
  5
277
100
AcDbEntity
  8
0
100
AcDbLine
 62
2
  6
CONTINUOUS
 10
3.3
 20
-0.34375
 11
3.3
 21
-1.43775
  0
LINE
  5
278
100
AcDbEntity
  8
0
100
AcDbLine
 62
2
  6
CONTINUOUS
 10
4.6
 20
0.0
 11
4.6
 21
-1.43775
  0
MTEXT
  5
279
100
AcDbEntity
  8
0
100
AcDbMText
 62
2
  6
CONTINUOUS
  7
STANDARD
 71
2
 72
1
 10
2.3
 20
-0.099375
 30
0.0
 11
1.0
 21
0.0
 31
0.0
 44
0.9
  1
Port Headings
 40
0.145
 41
3.016
  0
MTEXT
  5
27A
100
AcDbEntity
  8
0
100
AcDbMText
 62
2
  6
CONTINUOUS
  7
STANDARD
 71
2
 72
1
 10
0.65
 20
-0.44325
 30
0.0
 11
1.0
 21
0.0
 31
0.0
 44
0.9
  1
Product
 40
0.145
 41
1.624
  0
MTEXT
  5
27B
100
AcDbEntity
  8
0
100
AcDbMText
 62
2
  6
CONTINUOUS
  7
STANDARD
 71
2
 72
1
 10
2.3
 20
-0.44325
 30
0.0
 11
1.0
 21
0.0
 31
0.0
 44
0.9
  1
Port
 40
0.145
 41
0.928
  0
MTEXT
  5
27C
100
AcDbEntity
  8
0
100
AcDbMText
 62
2
  6
CONTINUOUS
  7
STANDARD
 71
2
 72
1
 10
3.95
 20
-0.44325
 30
0.0
 11
1.0
 21
0.0
 31
0.0
 44
0.9
  1
Size
 40
0.145
 41
0.928
  0
MTEXT
  5
27D
100
AcDbEntity
  8
0
100
AcDbMText
 62
2
  6
CONTINUOUS
  7
STANDARD
 71
2
 72
1
 10
0.65
 20
-0.75025
 30
0.0
 11
1.0
 21
0.0
 31
0.0
 44
0.9
  1
J6I
 40
0.125
 41
0.6
  0
MTEXT
  5
27E
100
AcDbEntity
  8
0
100
AcDbMText
 62
2
  6
CONTINUOUS
  7
STANDARD
 71
2
 72
1
 10
2.3
 20
-0.75025
 30
0.0
 11
1.0
 21
0.0
 31
0.0
 44
0.9
  1
Ports 1 &  2
 40
0.125
 41
2.4
  0
MTEXT
  5
27F
100
AcDbEntity
  8
0
100
AcDbMText
 62
2
  6
CONTINUOUS
  7
STANDARD
 71
2
 72
1
 10
3.95
 20
-0.75025
 30
0.0
 11
1.0
 21
0.0
 31
0.0
 44
0.9
  1
SAE 6
 40
0.125
 41
1.0
  0
MTEXT
  5
280
100
AcDbEntity
  8
0
100
AcDbMText
 62
2
  6
CONTINUOUS
  7
STANDARD
 71
2
 72
1
 10
0.65
 20
-1.00025
 30
0.0
 11
1.0
 21
0.0
 31
0.0
 44
0.9
  1
J6I
 40
0.125
 41
0.6
  0
MTEXT
  5
281
100
AcDbEntity
  8
0
100
AcDbMText
 62
2
  6
CONTINUOUS
  7
STANDARD
 71
2
 72
1
 10
2.3
 20
-1.00025
 30
0.0
 11
1.0
 21
0.0
 31
0.0
 44
0.9
  1
Port 3
 40
0.125
 41
1.2
  0
MTEXT
  5
282
100
AcDbEntity
  8
0
100
AcDbMText
 62
2
  6
CONTINUOUS
  7
STANDARD
 71
2
 72
1
 10
3.95
 20
-1.00025
 30
0.0
 11
1.0
 21
0.0
 31
0.0
 44
0.9
  1
SAE 4
 40
0.125
 41
1.0
  0
MTEXT
  5
283
100
AcDbEntity
  8
0
100
AcDbMText
 62
2
  6
CONTINUOUS
  7
STANDARD
 71
2
 72
1
 10
0.65
 20
-1.25025
 30
0.0
 11
1.0
 21
0.0
 31
0.0
 44
0.9
  1
J6I
 40
0.125
 41
0.6
  0
MTEXT
  5
284
100
AcDbEntity
  8
0
100
AcDbMText
 62
2
  6
CONTINUOUS
  7
STANDARD
 71
2
 72
1
 10
2.3
 20
-1.25025
 30
0.0
 11
1.0
 21
0.0
 31
0.0
 44
0.9
  1
Gage Port
 40
0.125
 41
1.8
  0
MTEXT
  5
285
100
AcDbEntity
  8
0
100
AcDbMText
 62
2
  6
CONTINUOUS
  7
STANDARD
 71
2
 72
1
 10
3.95
 20
-1.25025
 30
0.0
 11
1.0
 21
0.0
 31
0.0
 44
0.9
  1
1/4" NPTF
 40
0.125
 41
1.8
  0
ENDBLK
  5
286
100
AcDbEntity
  8
0
  6
BYBLOCK
 62
0
100
AcDbBlockEnd
  0
ENDSEC
  0
SECTION
  2
ENTITIES
  0
IMAGE
  5
287
100
AcDbEntity
  8
0
100
AcDbRasterImage
 62
7
  6
CONTINUOUS
 10
19.2297077316
 20
0.3094318264
 30
0.0
 11
0.0066666667
 21
0.0
 31
0.0
 12
0.0
 22
0.0066666667
 32
0.0
 13
369.0
 23
92.0
340
       3B7
 70
9
280
0
281
50
282
50
283
0
360
       3B1
 71
1
 91
2
 14
-0.5
 24
-0.5
 14
368.5
 24
91.5
  0
INSERT
  5
288
100
AcDbEntity
  8
0
100
AcDbBlockReference
 62
2
  6
CONTINUOUS
  2
SUN_FIRST_THIRD_ANGLE_BL0
 10
20.4816717061
 20
1.2289683772
  0
ACAD_TABLE
  5
289
100
AcDbEntity
  8
0
 62
2
  6
CONTINUOUS
100
AcDbBlockReference
  2
*T1
 10
12.42375
 20
0.30125
 30
0.0
100
AcDbTable
342
       3B9
343
207
 11
1.0
 21
0.0
 31
0.0
 90
6
 91
4
 92
6
 93
20
 94
0
 95
0
 96
0
 70
1
 41
0.0
141
0.525
141
0.1
141
0.525
141
0.1
142
4.1
142
1.1
142
0.7
142
0.5
142
0.4
142
2.475
171
1
172
0
173
0
174
0
175
1
176
1
 91
33
178
0
145
0.0
301
CELL_VALUE
 90
4
  1
T-163A Line mount\P(See Technical Data for Body Features)
304
ACVALUE_END
170
2
140
0.125
171
1
172
0
173
0
174
0
175
1
176
1
 91
33
178
0
145
0.0
301
CELL_VALUE
 90
4
  1
Aug-05-20
304
ACVALUE_END
170
5
140
0.125
171
1
172
0
173
0
174
0
175
1
176
1
 91
33
178
0
145
0.0
301
CELL_VALUE
 90
4
  1
1.000
304
ACVALUE_END
170
5
140
0.125
171
1
172
0
173
0
174
0
175
1
176
1
 91
33
178
0
145
0.0
301
CELL_VALUE
 90
4
  1
C
304
ACVALUE_END
170
5
140
0.125
171
1
172
0
173
0
174
0
175
1
176
1
 91
33
178
0
145
0.0
301
CELL_VALUE
 90
4
  1
2
304
ACVALUE_END
170
5
140
0.125
171
1
172
0
173
0
174
0
175
1
176
1
 91
33
178
0
145
0.0
301
CELL_VALUE
 90
4
  1
 
304
ACVALUE_END
170
1
140
0.125
171
1
172
0
173
0
174
0
175
1
176
1
 91
33
178
0
145
0.0
301
CELL_VALUE
 90
4
  1
DESCRIPTION
304
ACVALUE_END
170
1
140
0.06
171
1
172
0
173
0
174
0
175
1
176
1
 91
33
178
0
145
0.0
301
CELL_VALUE
 90
4
  1
DATE
304
ACVALUE_END
170
1
140
0.06
171
1
172
0
173
0
174
0
175
1
176
1
 91
33
178
0
145
0.0
301
CELL_VALUE
 90
4
  1
SCALE
304
ACVALUE_END
170
1
140
0.06
171
1
172
0
173
0
174
0
175
1
176
1
 91
33
178
0
145
0.0
301
CELL_VALUE
 90
4
  1
DWG SIZE
304
ACVALUE_END
170
1
140
0.06
171
1
172
0
173
0
174
0
175
1
176
1
 91
33
178
0
145
0.0
301
CELL_VALUE
 90
4
  1
SHEET
304
ACVALUE_END
170
1
140
0.06
171
1
172
0
173
0
174
0
175
1
176
1
 91
33
178
0
145
0.0
301
CELL_VALUE
 90
4
  1
 
304
ACVALUE_END
170
1
140
0.125
171
1
172
0
173
0
174
0
175
1
176
1
 91
33
178
0
145
0.0
301
CELL_VALUE
 90
4
  1
J6I
304
ACVALUE_END
170
5
140
0.125
171
1
172
0
173
0
174
0
175
4
176
1
 91
33
178
0
145
0.0
301
CELL_VALUE
 90
4
  1
ALL DIMENSIONS IN INCH\PVIEWS ARE THIRD ANGLE
304
ACVALUE_END
170
5
140
0.12
171
1
172
0
173
1
174
0
175
1
176
1
 91
1
178
0
145
0.0
170
1
171
1
172
0
173
1
174
0
175
1
176
1
 91
1
178
0
145
0.0
170
1
171
1
172
0
173
1
174
0
175
1
176
1
 91
1
178
0
145
0.0
170
5
171
1
172
0
173
0
174
0
175
1
176
1
 91
33
178
0
145
0.0
301
CELL_VALUE
 90
4
  1
 
304
ACVALUE_END
170
1
140
0.125
171
1
172
0
173
0
174
0
175
1
176
1
 91
33
178
0
145
0.0
301
CELL_VALUE
 90
4
  1
MODEL
304
ACVALUE_END
170
1
140
0.06
171
1
172
0
173
0
174
0
175
1
176
1
 91
33
178
0
145
0.0
301
CELL_VALUE
 90
4
  1
 
304
ACVALUE_END
170
1
140
0.125
171
1
172
0
173
0
174
0
175
1
176
1
 91
33
178
0
145
0.0
301
CELL_VALUE
 90
4
  1
 
304
ACVALUE_END
170
1
140
0.125
171
1
172
0
173
0
174
0
175
1
176
1
 91
33
178
0
145
0.0
301
CELL_VALUE
 90
4
  1
 
304
ACVALUE_END
170
1
140
0.125
171
1
172
0
173
0
174
0
175
1
176
1
 91
33
178
0
145
0.0
301
CELL_VALUE
 90
4
  1
 
304
ACVALUE_END
170
1
140
0.125
171
1
172
0
173
0
174
0
175
1
176
1
 91
33
178
0
145
0.0
301
CELL_VALUE
 90
4
  1
 
304
ACVALUE_END
170
1
140
0.125
  0
ACAD_TABLE
  5
28A
100
AcDbEntity
  8
0
 62
2
  6
CONTINUOUS
100
AcDbBlockReference
  2
*T2
 10
12.4237499994
 20
16.47875
 30
0.0
100
AcDbTable
342
       3B8
343
208
 11
1.0
 21
0.0
 31
0.0
 90
22
 91
10
 92
3
 93
16
 94
0
 95
0
 96
0
 41
0.028
141
0.344
141
0.25
141
0.25
141
0.25
141
0.25
141
0.25
141
0.25
141
0.25
141
0.25
141
0.25
142
3.055
142
3.0
142
3.0
171
1
172
0
173
0
174
0
175
1
176
1
 91
33
178
0
145
0.0
301
CELL_VALUE
 90
4
  1
Technical Data
304
ACVALUE_END
170
5
140
0.145
171
1
172
0
173
0
174
0
175
1
176
1
 91
33
178
0
145
0.0
301
CELL_VALUE
 90
4
  1
U.S. Units
304
ACVALUE_END
170
5
140
0.145
171
1
172
0
173
0
174
0
175
1
176
1
 91
33
178
0
145
0.0
301
CELL_VALUE
 90
4
  1
Metric Units
304
ACVALUE_END
170
5
140
0.145
171
1
172
0
173
0
174
0
175
1
176
1
 91
33
178
0
145
0.0
301
CELL_VALUE
 90
4
  1
Cavity
304
ACVALUE_END
170
5
140
0.125
171
1
172
0
173
0
174
0
175
2
176
1
 91
33
178
0
145
0.0
301
CELL_VALUE
 90
4
  1
T-163A
304
ACVALUE_END
170
5
140
0.125
171
1
172
0
173
1
174
0
175
1
176
1
 91
1
178
0
145
0.0
170
1
171
1
172
0
173
0
174
0
175
1
176
1
 91
33
178
0
145
0.0
301
CELL_VALUE
 90
4
  1
Body Features
304
ACVALUE_END
170
5
140
0.125
171
1
172
0
173
0
174
0
175
2
176
1
 91
33
178
0
145
0.0
301
CELL_VALUE
 90
4
  1
Ninety degree with reverse flow check - sequence
304
ACVALUE_END
170
5
140
0.125
171
1
172
0
173
1
174
0
175
1
176
1
 91
1
178
0
145
0.0
170
1
171
1
172
0
173
0
174
0
175
1
176
1
 91
33
178
0
145
0.0
301
CELL_VALUE
 90
4
  1
Body Type
304
ACVALUE_END
170
5
140
0.125
171
1
172
0
173
0
174
0
175
2
176
1
 91
33
178
0
145
0.0
301
CELL_VALUE
 90
4
  1
Line mount
304
ACVALUE_END
170
5
140
0.125
171
1
172
0
173
1
174
0
175
1
176
1
 91
1
178
0
145
0.0
170
1
171
1
172
0
173
0
174
0
175
1
176
1
 91
33
178
0
145
0.0
301
CELL_VALUE
 90
4
  1
Interface
304
ACVALUE_END
170
5
140
0.125
171
1
172
0
173
0
174
0
175
2
176
1
 91
33
178
0
145
0.0
301
CELL_VALUE
 90
4
  1
None
304
ACVALUE_END
170
5
140
0.125
171
1
172
0
173
1
174
0
175
1
176
1
 91
1
178
0
145
0.0
170
1
171
1
172
0
173
0
174
0
175
1
176
1
 91
33
178
0
145
0.0
301
CELL_VALUE
 90
4
  1
Open Cavity Quantity
304
ACVALUE_END
170
5
140
0.125
171
1
172
0
173
0
174
0
175
2
176
1
 91
33
178
0
145
0.0
301
CELL_VALUE
 90
4
  1
1
304
ACVALUE_END
170
5
140
0.125
171
1
172
0
173
1
174
0
175
1
176
1
 91
1
178
0
145
0.0
170
1
171
1
172
0
173
0
174
0
175
1
176
1
 91
33
178
0
145
0.0
301
CELL_VALUE
 90
4
  1
Weight
304
ACVALUE_END
170
5
140
0.125
171
1
172
0
173
0
174
0
175
1
176
1
 91
33
178
0
145
0.0
301
CELL_VALUE
 90
4
  1
0.854 lb.
304
ACVALUE_END
170
5
140
0.125
171
1
172
0
173
0
174
0
175
1
176
1
 91
33
178
0
145
0.0
301
CELL_VALUE
 90
4
  1
0,387 kg.
304
ACVALUE_END
170
5
140
0.125
171
1
172
0
173
0
174
0
175
1
176
1
 91
33
178
0
145
0.0
301
CELL_VALUE
 90
4
  1
Mounting Hole Diameter
304
ACVALUE_END
170
5
140
0.125
171
1
172
0
173
0
174
0
175
1
176
1
 91
33
178
0
145
0.0
301
CELL_VALUE
 90
4
  1
.28 in.
304
ACVALUE_END
170
5
140
0.125
171
1
172
0
173
0
174
0
175
1
176
1
 91
33
178
0
145
0.0
301
CELL_VALUE
 90
4
  1
7,1 mm
304
ACVALUE_END
170
5
140
0.125
171
1
172
0
173
0
174
0
175
1
176
1
 91
33
178
0
145
0.0
301
CELL_VALUE
 90
4
  1
Mounting Hole Depth
304
ACVALUE_END
170
5
140
0.125
171
1
172
0
173
0
174
0
175
2
176
1
 91
33
178
0
145
0.0
301
CELL_VALUE
 90
4
  1
Through
304
ACVALUE_END
170
5
140
0.125
171
1
172
0
173
1
174
0
175
1
176
1
 91
1
178
0
145
0.0
170
1
171
1
172
0
173
0
174
0
175
1
176
1
 91
33
178
0
145
0.0
301
CELL_VALUE
 90
4
  1
Mounting Hole Quantity
304
ACVALUE_END
170
5
140
0.125
171
1
172
0
173
0
174
0
175
2
176
1
 91
33
178
0
145
0.0
301
CELL_VALUE
 90
4
  1
2
304
ACVALUE_END
170
5
140
0.125
171
1
172
0
173
1
174
0
175
1
176
1
 91
1
178
0
145
0.0
170
1
  0
ACAD_TABLE
  5
28B
100
AcDbEntity
  8
0
 62
2
  6
CONTINUOUS
100
AcDbBlockReference
  2
*T3
 10
0.52125
 20
1.959
 30
0.0
100
AcDbTable
342
       3B8
343
209
 11
1.0
 21
0.0
 31
0.0
 90
22
 91
5
 92
3
 93
16
 94
0
 95
0
 96
0
 41
0.05
141
0.34375
141
0.344
141
0.25
141
0.25
141
0.25
142
1.3
142
2.0
142
1.3
171
1
172
0
173
0
174
0
175
3
176
1
 91
33
178
0
145
0.0
301
CELL_VALUE
 90
4
  1
Port Headings
304
ACVALUE_END
170
5
140
0.145
171
1
172
0
173
1
174
0
175
1
176
1
 91
1
178
0
145
0.0
170
1
171
1
172
0
173
1
174
0
175
1
176
1
 91
1
178
0
145
0.0
170
1
171
1
172
0
173
0
174
0
175
1
176
1
 91
33
178
0
145
0.0
301
CELL_VALUE
 90
4
  1
Product
304
ACVALUE_END
170
5
140
0.145
171
1
172
0
173
0
174
0
175
1
176
1
 91
33
178
0
145
0.0
301
CELL_VALUE
 90
4
  1
Port
304
ACVALUE_END
170
5
140
0.145
171
1
172
0
173
0
174
0
175
1
176
1
 91
33
178
0
145
0.0
301
CELL_VALUE
 90
4
  1
Size
304
ACVALUE_END
170
5
140
0.145
171
1
172
0
173
0
174
0
175
1
176
1
 91
33
178
0
145
0.0
301
CELL_VALUE
 90
4
  1
J6I
304
ACVALUE_END
170
5
140
0.125
171
1
172
0
173
0
174
0
175
1
176
1
 91
33
178
0
145
0.0
301
CELL_VALUE
 90
4
  1
Ports 1 &  2
304
ACVALUE_END
170
5
140
0.125
171
1
172
0
173
0
174
0
175
1
176
1
 91
33
178
0
145
0.0
301
CELL_VALUE
 90
4
  1
SAE 6
304
ACVALUE_END
170
5
140
0.125
171
1
172
0
173
0
174
0
175
1
176
1
 91
33
178
0
145
0.0
301
CELL_VALUE
 90
4
  1
J6I
304
ACVALUE_END
170
5
140
0.125
171
1
172
0
173
0
174
0
175
1
176
1
 91
33
178
0
145
0.0
301
CELL_VALUE
 90
4
  1
Port 3
304
ACVALUE_END
170
5
140
0.125
171
1
172
0
173
0
174
0
175
1
176
1
 91
33
178
0
145
0.0
301
CELL_VALUE
 90
4
  1
SAE 4
304
ACVALUE_END
170
5
140
0.125
171
1
172
0
173
0
174
0
175
1
176
1
 91
33
178
0
145
0.0
301
CELL_VALUE
 90
4
  1
J6I
304
ACVALUE_END
170
5
140
0.125
171
1
172
0
173
0
174
0
175
1
176
1
 91
33
178
0
145
0.0
301
CELL_VALUE
 90
4
  1
Gage Port
304
ACVALUE_END
170
5
140
0.125
171
1
172
0
173
0
174
0
175
1
176
1
 91
33
178
0
145
0.0
301
CELL_VALUE
 90
4
  1
1/4" NPTF
304
ACVALUE_END
170
5
140
0.125
  0
MTEXT
  5
28C
100
AcDbEntity
  8
0
100
AcDbMText
 62
2
  6
CONTINUOUS
  7
STANDARD
 71
1
 72
1
 10
0.52125
 20
5.75995
 30
0.0
 11
1.0
 21
0.0
 31
0.0
 44
0.6
  3
Notes\P \P1. Important: Carefully consider\P   the maximum system pressure. The\P   pressure rating of the manifold is\P   dependent on the manifold material,\P   with the port type/size a secondary\P   consideration. Manifolds\P   constructed of alu
  1
minum are not\P   rated for pressures higher than\P   3000 psi (210 bar), regardless of\P   the port type/size specified.
 40
0.1
 41
3.04
  0
LINE
  5
28D
100
AcDbEntity
  8
0
100
AcDbLine
 62
7
  6
CONTINUOUS
 10
0.30125
 20
0.30125
 11
0.30125
 21
16.69875
  0
LINE
  5
28E
100
AcDbEntity
  8
0
100
AcDbLine
 62
7
  6
CONTINUOUS
 10
0.30125
 20
0.30125
 11
21.69875
 21
0.30125
  0
LINE
  5
28F
100
AcDbEntity
  8
0
100
AcDbLine
 62
7
  6
CONTINUOUS
 10
0.30125
 20
16.69875
 11
21.69875
 21
16.69875
  0
LINE
  5
290
100
AcDbEntity
  8
0
100
AcDbLine
 62
7
  6
CONTINUOUS
 10
21.69875
 20
0.30125
 11
21.69875
 21
16.69875
  0
LINE
  5
291
100
AcDbEntity
  8
0
100
AcDbLine
 62
7
  6
CONTINUOUS
 10
9.6805205905
 20
10.4915715469
 11
9.421701759
 21
10.2415717384
  0
LINE
  5
292
100
AcDbEntity
  8
0
100
AcDbLine
 62
4
  6
CONTINUOUS
 10
9.6342054486
 20
9.8308049433
 11
9.6269610046
 21
9.8216480908
  0
LINE
  5
293
100
AcDbEntity
  8
0
100
AcDbLine
 62
4
  6
CONTINUOUS
 10
9.6414498926
 20
9.7723469876
 11
9.6269610046
 21
9.7540332785
  0
LINE
  5
294
100
AcDbEntity
  8
0
100
AcDbLine
 62
4
  6
CONTINUOUS
 10
9.5834943408
 20
9.8536402901
 11
9.5979832288
 21
9.8622947386
  0
LINE
  5
295
100
AcDbEntity
  8
0
100
AcDbLine
 62
4
  6
CONTINUOUS
 10
9.6269610046
 20
9.8216480908
 11
9.6124721167
 21
9.8129936354
  0
LINE
  5
296
100
AcDbEntity
  8
0
100
AcDbLine
 62
4
  6
CONTINUOUS
 10
9.6269610046
 20
9.7540332785
 11
9.6124721167
 21
9.7453788274
  0
LINE
  5
297
100
AcDbEntity
  8
0
100
AcDbLine
 62
7
  6
CONTINUOUS
 10
9.421701759
 20
7.3437940878
 11
9.421701759
 21
10.2415717384
  0
LINE
  5
298
100
AcDbEntity
  8
0
100
AcDbLine
 62
4
  6
CONTINUOUS
 10
11.2827531604
 20
10.2592094298
 11
11.2982358403
 21
10.2641645536
  0
LINE
  5
299
100
AcDbEntity
  8
0
100
AcDbLine
 62
7
  6
CONTINUOUS
 10
11.1348208184
 20
6.5693779753
 11
11.1538948616
 21
6.5599557632
  0
LINE
  5
29A
100
AcDbEntity
  8
0
100
AcDbLine
 62
4
  6
CONTINUOUS
 10
9.6342054486
 20
9.8404641996
 11
9.6342054486
 21
9.8308049433
  0
LINE
  5
29B
100
AcDbEntity
  8
0
100
AcDbLine
 62
4
  6
CONTINUOUS
 10
9.6342054486
 20
8.0728198116
 11
9.6342054486
 21
7.9569087081
  0
LINE
  5
29C
100
AcDbEntity
  8
0
100
AcDbLine
 62
4
  6
CONTINUOUS
 10
9.6414498926
 20
9.7820062474
 11
9.6414498926
 21
9.7723469876
  0
LINE
  5
29D
100
AcDbEntity
  8
0
100
AcDbLine
 62
7
  6
CONTINUOUS
 10
11.1197748496
 20
10.2577844473
 11
11.1187618977
 21
10.2568243228
  0
LINE
  5
29E
100
AcDbEntity
  8
0
100
AcDbLine
 62
7
  6
CONTINUOUS
 10
9.421701759
 20
7.3437940878
 11
12.3194794095
 21
7.1428325252
  0
LINE
  5
29F
100
AcDbEntity
  8
0
100
AcDbLine
 62
4
  6
CONTINUOUS
 10
11.1315763818
 20
10.1631838676
 11
11.1509877937
 21
10.1819338528
  0
LINE
  5
2A0
100
AcDbEntity
  8
0
100
AcDbLine
 62
4
  6
CONTINUOUS
 10
11.2635739829
 20
10.2906837671
 11
11.2674562653
 21
10.2944337641
  0
LINE
  5
2A1
100
AcDbEntity
  8
0
100
AcDbLine
 62
4
  6
CONTINUOUS
 10
11.3118702783
 20
10.2873344076
 11
11.3157525607
 21
10.2910844046
  0
LINE
  5
2A2
100
AcDbEntity
  8
0
100
AcDbLine
 62
4
  6
CONTINUOUS
 10
11.2244724749
 20
10.1929146098
 11
11.2361193221
 21
10.2041646009
  0
LINE
  5
2A3
100
AcDbEntity
  8
0
100
AcDbLine
 62
4
  6
CONTINUOUS
 10
11.3680240274
 20
10.3115747716
 11
11.3796708745
 21
10.3228247627
  0
LINE
  5
2A4
100
AcDbEntity
  8
0
100
AcDbLine
 62
4
  6
CONTINUOUS
 10
11.3833673687
 20
10.2863953018
 11
11.3794850863
 21
10.2826453047
  0
LINE
  5
2A5
100
AcDbEntity
  8
0
100
AcDbLine
 62
4
  6
CONTINUOUS
 10
10.328292219
 20
9.0126889457
 11
10.3448509488
 21
9.0280993219
  0
LINE
  5
2A6
100
AcDbEntity
  8
0
100
AcDbLine
 62
4
  6
CONTINUOUS
 10
10.328292219
 20
8.9961302176
 11
10.328292219
 21
9.0126889457
  0
LINE
  5
2A7
100
AcDbEntity
  8
0
100
AcDbLine
 62
4
  6
CONTINUOUS
 10
10.3696890427
 20
8.9104656908
 11
10.3862477708
 21
8.9258760689
  0
LINE
  5
2A8
100
AcDbEntity
  8
0
100
AcDbLine
 62
4
  6
CONTINUOUS
 10
10.4607620575
 20
8.9041497558
 11
10.4773207786
 21
8.9195601344
  0
LINE
  5
2A9
100
AcDbEntity
  8
0
100
AcDbLine
 62
4
  6
CONTINUOUS
 10
10.3862477708
 20
8.9258760689
 11
10.3862477708
 21
8.9424347987
  0
LINE
  5
2AA
100
AcDbEntity
  8
0
100
AcDbLine
 62
4
  6
CONTINUOUS
 10
10.4193652269
 20
9.0229317392
 11
10.4193652269
 21
8.9235793656
  0
LINE
  5
2AB
100
AcDbEntity
  8
0
100
AcDbLine
 62
4
  6
CONTINUOUS
 10
10.4552424874
 20
8.3133859118
 11
10.4552424874
 21
8.4292970152
  0
LINE
  5
2AC
100
AcDbEntity
  8
0
100
AcDbLine
 62
4
  6
CONTINUOUS
 10
10.4773207786
 20
8.9195601344
 11
10.4773207786
 21
9.018912508
  0
LINE
  5
2AD
100
AcDbEntity
  8
0
100
AcDbLine
 62
4
  6
CONTINUOUS
 10
10.5104382348
 20
8.9007047012
 11
10.5104382348
 21
9.0166158046
  0
LINE
  5
2AE
100
AcDbEntity
  8
0
100
AcDbLine
 62
4
  6
CONTINUOUS
 10
10.5131980322
 20
8.4087190565
 11
10.5131980322
 21
8.3259254109
  0
LINE
  5
2AF
100
AcDbEntity
  8
0
100
AcDbLine
 62
4
  6
CONTINUOUS
 10
12.0900720479
 20
7.786593781
 11
12.07558316
 21
7.7875985888
  0
LINE
  5
2B0
100
AcDbEntity
  8
0
100
AcDbLine
 62
4
  6
CONTINUOUS
 10
12.0828276039
 20
7.8450517366
 11
12.1118053798
 21
7.843042121
  0
LINE
  5
2B1
100
AcDbEntity
  8
0
100
AcDbLine
 62
4
  6
CONTINUOUS
 10
12.07558316
 20
7.9035096922
 11
12.0900720479
 21
7.9025048844
  0
LINE
  5
2B2
100
AcDbEntity
  8
0
100
AcDbLine
 62
4
  6
CONTINUOUS
 10
10.5683937865
 20
8.89668547
 11
10.5683937865
 21
9.0125965735
  0
LINE
  5
2B3
100
AcDbEntity
  8
0
100
AcDbLine
 62
4
  6
CONTINUOUS
 10
10.5601144319
 20
8.3061130177
 11
10.593231888
 21
8.4197274178
  0
LINE
  5
2B4
100
AcDbEntity
  8
0
100
AcDbLine
 62
4
  6
CONTINUOUS
 10
10.8471324068
 20
8.9518691609
 11
10.863691128
 21
8.9590001771
  0
LINE
  5
2B5
100
AcDbEntity
  8
0
100
AcDbLine
 62
4
  6
CONTINUOUS
 10
11.0044403408
 20
8.8995629984
 11
11.020999062
 21
8.9066940112
  0
LINE
  5
2B6
100
AcDbEntity
  8
0
100
AcDbLine
 62
4
  6
CONTINUOUS
 10
10.3890075682
 20
8.3676555067
 11
10.4331641798
 21
8.3425149295
  0
LINE
  5
2B7
100
AcDbEntity
  8
0
100
AcDbLine
 62
4
  6
CONTINUOUS
 10
10.4966393041
 20
8.4264261362
 11
10.5131980322
 21
8.4087190565
  0
LINE
  5
2B8
100
AcDbEntity
  8
0
100
AcDbLine
 62
4
  6
CONTINUOUS
 10
9.5834943408
 20
9.7570477019
 11
9.5762498969
 21
9.7672093647
  0
LINE
  5
2B9
100
AcDbEntity
  8
0
100
AcDbLine
 62
4
  6
CONTINUOUS
 10
9.6269610046
 20
9.8023295713
 11
9.6414498926
 21
9.7820062474
  0
LINE
  5
2BA
100
AcDbEntity
  8
0
100
AcDbLine
 62
4
  6
CONTINUOUS
 10
9.6269610046
 20
9.8506258667
 11
9.6342054486
 21
9.8404641996
  0
LINE
  5
2BB
100
AcDbEntity
  8
0
100
AcDbLine
 62
4
  6
CONTINUOUS
 10
10.593231888
 20
8.4197274178
 11
10.626349358
 21
8.30151961
  0
LINE
  5
2BC
100
AcDbEntity
  8
0
100
AcDbLine
 62
4
  6
CONTINUOUS
 10
10.6925842505
 20
8.8880728321
 11
10.6925842505
 21
9.0039839355
  0
LINE
  5
2BD
100
AcDbEntity
  8
0
100
AcDbLine
 62
4
  6
CONTINUOUS
 10
10.6925842703
 20
8.2969262032
 11
10.6925842703
 21
8.4128373067
  0
LINE
  5
2BE
100
AcDbEntity
  8
0
100
AcDbLine
 62
4
  6
CONTINUOUS
 10
10.7422604416
 20
8.9591420564
 11
10.7422604416
 21
8.8846277766
  0
LINE
  5
2BF
100
AcDbEntity
  8
0
100
AcDbLine
 62
4
  6
CONTINUOUS
 10
10.7588191826
 20
8.2923327965
 11
10.7588191826
 21
8.4082438999
  0
LINE
  5
2C0
100
AcDbEntity
  8
0
100
AcDbLine
 62
4
  6
CONTINUOUS
 10
10.8181545903
 20
8.5597810293
 11
10.8181545903
 21
8.659133403
  0
LINE
  5
2C1
100
AcDbEntity
  8
0
100
AcDbLine
 62
4
  6
CONTINUOUS
 10
10.8471324068
 20
8.885634246
 11
10.8471324068
 21
8.9518691609
  0
LINE
  5
2C2
100
AcDbEntity
  8
0
100
AcDbLine
 62
4
  6
CONTINUOUS
 10
10.8512720465
 20
8.5988811479
 11
10.8512720465
 21
8.5574843259
  0
LINE
  5
2C3
100
AcDbEntity
  8
0
100
AcDbLine
 62
4
  6
CONTINUOUS
 10
10.7919366328
 20
8.8535848392
 11
10.8250540751
 21
8.9616796659
  0
LINE
  5
2C4
100
AcDbEntity
  8
0
100
AcDbLine
 62
4
  6
CONTINUOUS
 10
10.8678307746
 20
8.6308502523
 11
10.8512720465
 21
8.5988811479
  0
LINE
  5
2C5
100
AcDbEntity
  8
0
100
AcDbLine
 62
7
  6
CONTINUOUS
 10
12.3194794095
 20
10.0406101758
 11
12.578298241
 21
10.2906099842
  0
LINE
  5
2C6
100
AcDbEntity
  8
0
100
AcDbLine
 62
4
  6
CONTINUOUS
 10
10.5131980322
 20
8.3259254109
 11
10.4966393041
 21
8.3105150328
  0
LINE
  5
2C7
100
AcDbEntity
  8
0
100
AcDbLine
 62
4
  6
CONTINUOUS
 10
10.8926688701
 20
8.6539658201
 11
10.8678307746
 21
8.6308502523
  0
LINE
  5
2C8
100
AcDbEntity
  8
0
100
AcDbLine
 62
4
  6
CONTINUOUS
 10
10.8015958605
 20
8.5443706513
 11
10.8181545903
 21
8.5597810293
  0
LINE
  5
2C9
100
AcDbEntity
  8
0
100
AcDbLine
 62
4
  6
CONTINUOUS
 10
11.1617482393
 20
8.2643895715
 11
11.1203514088
 21
8.2672604514
  0
LINE
  5
2CA
100
AcDbEntity
  8
0
100
AcDbLine
 62
4
  6
CONTINUOUS
 10
11.0706752453
 20
8.2707055051
 11
11.0458371359
 21
8.2724280338
  0
LINE
  5
2CB
100
AcDbEntity
  8
0
100
AcDbLine
 62
4
  6
CONTINUOUS
 10
10.9823620289
 20
8.2768300474
 11
10.9492445865
 21
8.2791267499
  0
LINE
  5
2CC
100
AcDbEntity
  8
0
100
AcDbLine
 62
4
  6
CONTINUOUS
 10
10.4966393041
 20
8.3105150328
 11
10.4552424874
 21
8.3133859118
  0
LINE
  5
2CD
100
AcDbEntity
  8
0
100
AcDbLine
 62
4
  6
CONTINUOUS
 10
10.7588191826
 20
8.2923327965
 11
10.8084953737
 21
8.2888877409
  0
LINE
  5
2CE
100
AcDbEntity
  8
0
100
AcDbLine
 62
4
  6
CONTINUOUS
 10
11.2252234016
 20
8.259987554
 11
11.2748995651
 21
8.2565425004
  0
LINE
  5
2CF
100
AcDbEntity
  8
0
100
AcDbLine
 62
4
  6
CONTINUOUS
 10
10.5711535839
 20
8.3384649095
 11
10.6153101921
 21
8.3354026384
  0
LINE
  5
2D0
100
AcDbEntity
  8
0
100
AcDbLine
 62
4
  6
CONTINUOUS
 10
11.2583408439
 20
8.3239257708
 11
11.2252234016
 21
8.3262224732
  0
LINE
  5
2D1
100
AcDbEntity
  8
0
100
AcDbLine
 62
4
  6
CONTINUOUS
 10
10.7919366526
 20
8.3562710113
 11
10.7588191826
 21
8.3585677157
  0
LINE
  5
2D2
100
AcDbEntity
  8
0
100
AcDbLine
 62
4
  6
CONTINUOUS
 10
10.328292219
 20
8.9216159352
 11
10.3365715839
 21
8.9127623944
  0
LINE
  5
2D3
100
AcDbEntity
  8
0
100
AcDbLine
 62
4
  6
CONTINUOUS
 10
10.9492445865
 20
8.2791267499
 11
10.9326858654
 21
8.2968338309
  0
LINE
  5
2D4
100
AcDbEntity
  8
0
100
AcDbLine
 62
4
  6
CONTINUOUS
 10
10.5104382348
 20
9.0166158046
 11
10.5683937865
 21
8.89668547
  0
LINE
  5
2D5
100
AcDbEntity
  8
0
100
AcDbLine
 62
4
  6
CONTINUOUS
 10
10.8968085703
 20
8.9898209309
 11
10.8968085703
 21
8.8739098274
  0
LINE
  5
2D6
100
AcDbEntity
  8
0
100
AcDbLine
 62
4
  6
CONTINUOUS
 10
10.9092276051
 20
8.5534650943
 11
10.9092276051
 21
8.5865825522
  0
LINE
  5
2D7
100
AcDbEntity
  8
0
100
AcDbLine
 62
4
  6
CONTINUOUS
 10
10.9299260679
 20
8.8716131212
 11
10.9299260679
 21
8.9544067685
  0
LINE
  5
2D8
100
AcDbEntity
  8
0
100
AcDbLine
 62
4
  6
CONTINUOUS
 10
10.9326858654
 20
8.2968338309
 11
10.9326858654
 21
8.3796274764
  0
LINE
  5
2D9
100
AcDbEntity
  8
0
100
AcDbLine
 62
4
  6
CONTINUOUS
 10
10.9644233654
 20
8.5330785255
 11
10.9644233654
 21
8.648989629
  0
LINE
  5
2DA
100
AcDbEntity
  8
0
100
AcDbLine
 62
4
  6
CONTINUOUS
 10
10.9685630656
 20
8.9434479161
 11
10.9685630656
 21
8.926889188
  0
LINE
  5
2DB
100
AcDbEntity
  8
0
100
AcDbLine
 62
4
  6
CONTINUOUS
 10
11.0044403408
 20
8.8747249037
 11
11.0044403408
 21
8.8995629984
  0
LINE
  5
2DC
100
AcDbEntity
  8
0
100
AcDbLine
 62
4
  6
CONTINUOUS
 10
11.2886984888
 20
8.9212464491
 11
11.2969778218
 21
8.9289516429
  0
LINE
  5
2DD
100
AcDbEntity
  8
0
100
AcDbLine
 62
4
  6
CONTINUOUS
 10
10.8926688701
 20
8.5380547167
 11
10.9092276051
 21
8.5534650943
  0
LINE
  5
2DE
100
AcDbEntity
  8
0
100
AcDbLine
 62
4
  6
CONTINUOUS
 10
11.363212817
 20
8.9160788629
 11
11.3714921499
 21
8.9237840567
  0
LINE
  5
2DF
100
AcDbEntity
  8
0
100
AcDbLine
 62
4
  6
CONTINUOUS
 10
10.4331641798
 20
8.3866715429
 11
10.3890075682
 21
8.3676555067
  0
LINE
  5
2E0
100
AcDbEntity
  8
0
100
AcDbLine
 62
4
  6
CONTINUOUS
 10
10.4552424874
 20
8.4292970152
 11
10.4966393041
 21
8.4264261362
  0
LINE
  5
2E1
100
AcDbEntity
  8
0
100
AcDbLine
 62
4
  6
CONTINUOUS
 10
10.6594668003
 20
8.415134011
 11
10.7257017126
 21
8.4105406042
  0
LINE
  5
2E2
100
AcDbEntity
  8
0
100
AcDbLine
 62
4
  6
CONTINUOUS
 10
10.7588191826
 20
8.4082438999
 11
10.8084953737
 21
8.4047988443
  0
LINE
  5
2E3
100
AcDbEntity
  8
0
100
AcDbLine
 62
4
  6
CONTINUOUS
 10
10.9492445865
 20
8.3950378533
 11
10.9823620289
 21
8.3927411509
  0
LINE
  5
2E4
100
AcDbEntity
  8
0
100
AcDbLine
 62
4
  6
CONTINUOUS
 10
11.0458371359
 20
8.3883391372
 11
11.0706752453
 21
8.3866166085
  0
LINE
  5
2E5
100
AcDbEntity
  8
0
100
AcDbLine
 62
4
  6
CONTINUOUS
 10
11.1203514088
 20
8.3831715549
 11
11.1617482393
 21
8.3803006749
  0
LINE
  5
2E6
100
AcDbEntity
  8
0
100
AcDbLine
 62
4
  6
CONTINUOUS
 10
11.2252234016
 20
8.3758986575
 11
11.2748995651
 21
8.3724536038
  0
LINE
  5
2E7
100
AcDbEntity
  8
0
100
AcDbLine
 62
4
  6
CONTINUOUS
 10
11.3080170074
 20
8.3260002932
 11
11.3521736156
 21
8.3008597145
  0
LINE
  5
2E8
100
AcDbEntity
  8
0
100
AcDbLine
 62
4
  6
CONTINUOUS
 10
10.3862477708
 20
8.9424347987
 11
10.328292219
 21
8.9961302176
  0
LINE
  5
2E9
100
AcDbEntity
  8
0
100
AcDbLine
 62
4
  6
CONTINUOUS
 10
10.4193652269
 20
8.9235793656
 11
10.435923955
 21
8.9058722841
  0
LINE
  5
2EA
100
AcDbEntity
  8
0
100
AcDbLine
 62
4
  6
CONTINUOUS
 10
11.0458371359
 20
8.2724280338
 11
11.0292784147
 21
8.2901351148
  0
LINE
  5
2EB
100
AcDbEntity
  8
0
100
AcDbLine
 62
4
  6
CONTINUOUS
 10
10.3779684067
 20
9.0258026184
 11
10.3862477708
 21
9.0169490751
  0
LINE
  5
2EC
100
AcDbEntity
  8
0
100
AcDbLine
 62
4
  6
CONTINUOUS
 10
10.8512720465
 20
8.5574843259
 11
10.8678307746
 21
8.5397772444
  0
LINE
  5
2ED
100
AcDbEntity
  8
0
100
AcDbLine
 62
4
  6
CONTINUOUS
 10
11.0706752453
 20
8.3866166085
 11
11.0872339664
 21
8.3689095292
  0
LINE
  5
2EE
100
AcDbEntity
  8
0
100
AcDbLine
 62
4
  6
CONTINUOUS
 10
10.9092276051
 20
8.5865825522
 11
10.8926688701
 21
8.6042896359
  0
LINE
  5
2EF
100
AcDbEntity
  8
0
100
AcDbLine
 62
4
  6
CONTINUOUS
 10
10.7753779116
 20
8.9651247195
 11
10.800216021
 21
8.8806085435
  0
LINE
  5
2F0
100
AcDbEntity
  8
0
100
AcDbLine
 62
4
  6
CONTINUOUS
 10
11.0292784147
 20
8.2901351148
 11
11.0292784147
 21
8.3729287604
  0
LINE
  5
2F1
100
AcDbEntity
  8
0
100
AcDbLine
 62
4
  6
CONTINUOUS
 10
11.0541165043
 20
8.8630004852
 11
11.0541165043
 21
8.9292354044
  0
LINE
  5
2F2
100
AcDbEntity
  8
0
100
AcDbLine
 62
7
  6
CONTINUOUS
 10
11.0695344883
 20
7.0731162782
 11
11.0695344883
 21
6.6095054771
  0
LINE
  5
2F3
100
AcDbEntity
  8
0
100
AcDbLine
 62
7
  6
CONTINUOUS
 10
11.0778784916
 20
7.0650566038
 11
11.0778784916
 21
6.6014458026
  0
LINE
  5
2F4
100
AcDbEntity
  8
0
100
AcDbLine
 62
4
  6
CONTINUOUS
 10
11.0872339466
 20
8.94349743
 11
11.0872339466
 21
8.8689831476
  0
LINE
  5
2F5
100
AcDbEntity
  8
0
100
AcDbLine
 62
4
  6
CONTINUOUS
 10
11.0872339664
 20
8.3689095292
 11
11.0872339664
 21
8.2861158837
  0
LINE
  5
2F6
100
AcDbEntity
  8
0
100
AcDbLine
 62
4
  6
CONTINUOUS
 10
11.1203514088
 20
8.2672604514
 11
11.1203514088
 21
8.3831715549
  0
LINE
  5
2F7
100
AcDbEntity
  8
0
100
AcDbLine
 62
7
  6
CONTINUOUS
 10
11.1329629418
 20
7.2251177217
 11
11.1329629418
 21
7.1387366626
  0
LINE
  5
2F8
100
AcDbEntity
  8
0
100
AcDbLine
 62
4
  6
CONTINUOUS
 10
11.1369101654
 20
8.8572587253
 11
11.1369101654
 21
8.9400523725
  0
LINE
  5
2F9
100
AcDbEntity
  8
0
100
AcDbLine
 62
4
  6
CONTINUOUS
 10
11.1700276077
 20
8.8632413877
 11
11.1700276077
 21
8.9708731263
  0
LINE
  5
2FA
100
AcDbEntity
  8
0
100
AcDbLine
 62
4
  6
CONTINUOUS
 10
11.1783069605
 20
8.3625935956
 11
11.1783069605
 21
8.2797999501
  0
LINE
  5
2FB
100
AcDbEntity
  8
0
100
AcDbLine
 62
4
  6
CONTINUOUS
 10
11.2473016583
 20
8.9655141527
 11
11.2445418806
 21
8.9574261764
  0
LINE
  5
2FC
100
AcDbEntity
  8
0
100
AcDbLine
 62
4
  6
CONTINUOUS
 10
11.4046095923
 20
8.838693707
 11
11.4128889252
 21
8.8463988982
  0
LINE
  5
2FD
100
AcDbEntity
  8
0
100
AcDbLine
 62
4
  6
CONTINUOUS
 10
10.9326858654
 20
8.3796274764
 11
10.9492445865
 21
8.3950378533
  0
LINE
  5
2FE
100
AcDbEntity
  8
0
100
AcDbLine
 62
4
  6
CONTINUOUS
 10
11.0292784147
 20
8.3729287604
 11
11.0458371359
 21
8.3883391372
  0
LINE
  5
2FF
100
AcDbEntity
  8
0
100
AcDbLine
 62
4
  6
CONTINUOUS
 10
12.0466053841
 20
8.9100822983
 11
12.0610942721
 21
8.9187367468
  0
LINE
  5
300
100
AcDbEntity
  8
0
100
AcDbLine
 62
4
  6
CONTINUOUS
 10
10.7767577667
 20
8.546093179
 11
10.8015958605
 21
8.5443706513
  0
LINE
  5
301
100
AcDbEntity
  8
0
100
AcDbLine
 62
4
  6
CONTINUOUS
 10
10.8678307746
 20
8.5397772444
 11
10.8926688701
 21
8.5380547167
  0
LINE
  5
302
100
AcDbEntity
  8
0
100
AcDbLine
 62
4
  6
CONTINUOUS
 10
10.8926688701
 20
8.6042896359
 11
10.8567916225
 21
8.6067777314
  0
LINE
  5
303
100
AcDbEntity
  8
0
100
AcDbLine
 62
4
  6
CONTINUOUS
 10
12.07558316
 20
7.7875985888
 11
12.0610942721
 21
7.7982626555
  0
LINE
  5
304
100
AcDbEntity
  8
0
100
AcDbLine
 62
4
  6
CONTINUOUS
 10
12.0900720479
 20
7.9025048844
 11
12.1045609358
 21
7.8918408203
  0
LINE
  5
305
100
AcDbEntity
  8
0
100
AcDbLine
 62
4
  6
CONTINUOUS
 10
9.5979832288
 20
9.7463836352
 11
9.5834943408
 21
9.7570477019
  0
LINE
  5
306
100
AcDbEntity
  8
0
100
AcDbLine
 62
4
  6
CONTINUOUS
 10
11.1617482393
 20
8.3803006749
 11
11.1783069605
 21
8.3625935956
  0
LINE
  5
307
100
AcDbEntity
  8
0
100
AcDbLine
 62
4
  6
CONTINUOUS
 10
10.7339810811
 20
8.9679955995
 11
10.7422604416
 21
8.9591420564
  0
LINE
  5
308
100
AcDbEntity
  8
0
100
AcDbLine
 62
4
  6
CONTINUOUS
 10
11.2252234016
 20
8.259987554
 11
11.2252234016
 21
8.3758986575
  0
LINE
  5
309
100
AcDbEntity
  8
0
100
AcDbLine
 62
4
  6
CONTINUOUS
 10
11.2445418806
 20
8.8497944405
 11
11.2445418806
 21
8.9325880877
  0
LINE
  5
30A
100
AcDbEntity
  8
0
100
AcDbLine
 62
4
  6
CONTINUOUS
 10
11.2445418806
 20
8.9574261764
 11
11.2445418806
 21
8.9657055439
  0
LINE
  5
30B
100
AcDbEntity
  8
0
100
AcDbLine
 62
4
  6
CONTINUOUS
 10
11.2886984888
 20
8.8550115342
 11
11.2886984888
 21
8.9212464491
  0
LINE
  5
30C
100
AcDbEntity
  8
0
100
AcDbLine
 62
7
  6
CONTINUOUS
 10
11.3577329799
 20
6.9926250241
 11
11.3577329799
 21
6.529014223
  0
LINE
  5
30D
100
AcDbEntity
  8
0
100
AcDbLine
 62
4
  6
CONTINUOUS
 10
11.0872339664
 20
8.2861158837
 11
11.0706752453
 21
8.2707055051
  0
LINE
  5
30E
100
AcDbEntity
  8
0
100
AcDbLine
 62
4
  6
CONTINUOUS
 10
11.1783069605
 20
8.2797999501
 11
11.1617482393
 21
8.2643895715
  0
LINE
  5
30F
100
AcDbEntity
  8
0
100
AcDbLine
 62
4
  6
CONTINUOUS
 10
12.0900720479
 20
8.8684308358
 11
12.0610942721
 21
8.8511219353
  0
LINE
  5
310
100
AcDbEntity
  8
0
100
AcDbLine
 62
4
  6
CONTINUOUS
 10
11.3521736156
 20
8.3008597145
 11
11.3080170074
 21
8.2818436798
  0
LINE
  5
311
100
AcDbEntity
  8
0
100
AcDbLine
 62
4
  6
CONTINUOUS
 10
10.7753779116
 20
8.8547331904
 11
10.7919366328
 21
8.8535848392
  0
LINE
  5
312
100
AcDbEntity
  8
0
100
AcDbLine
 62
4
  6
CONTINUOUS
 10
10.863691128
 20
8.8762065299
 11
10.8471324068
 21
8.885634246
  0
LINE
  5
313
100
AcDbEntity
  8
0
100
AcDbLine
 62
4
  6
CONTINUOUS
 10
11.020999062
 20
8.8652971876
 11
11.0044403408
 21
8.8747249037
  0
LINE
  5
314
100
AcDbEntity
  8
0
100
AcDbLine
 62
4
  6
CONTINUOUS
 10
9.6124721167
 20
9.8129936354
 11
9.6269610046
 21
9.8023295713
  0
LINE
  5
315
100
AcDbEntity
  8
0
100
AcDbLine
 62
4
  6
CONTINUOUS
 10
9.6124721167
 20
9.8612899308
 11
9.6269610046
 21
9.8506258667
  0
LINE
  5
316
100
AcDbEntity
  8
0
100
AcDbLine
 62
4
  6
CONTINUOUS
 10
11.0872339466
 20
8.8689831476
 11
11.0955133349
 21
8.8601296052
  0
LINE
  5
317
100
AcDbEntity
  8
0
100
AcDbLine
 62
4
  6
CONTINUOUS
 10
10.9630435103
 20
8.952110066
 11
10.9685630656
 21
8.9434479161
  0
LINE
  5
318
100
AcDbEntity
  8
0
100
AcDbLine
 62
4
  6
CONTINUOUS
 10
11.0541165043
 20
8.9292354044
 11
11.0458371714
 21
8.9463683061
  0
LINE
  5
319
100
AcDbEntity
  8
0
100
AcDbLine
 62
4
  6
CONTINUOUS
 10
11.363212817
 20
8.8912407707
 11
11.363212817
 21
8.9160788629
  0
LINE
  5
31A
100
AcDbEntity
  8
0
100
AcDbLine
 62
7
  6
CONTINUOUS
 10
11.3888732001
 20
6.9904654425
 11
11.3888732001
 21
6.5268546414
  0
LINE
  5
31B
100
AcDbEntity
  8
0
100
AcDbLine
 62
4
  6
CONTINUOUS
 10
11.4128889252
 20
8.8463988982
 11
11.4128889252
 21
8.8712369929
  0
LINE
  5
31C
100
AcDbEntity
  8
0
100
AcDbLine
 62
4
  6
CONTINUOUS
 10
11.3300953747
 20
8.8438612855
 11
11.2969778218
 21
8.8461579956
  0
LINE
  5
31D
100
AcDbEntity
  8
0
100
AcDbLine
 62
4
  6
CONTINUOUS
 10
11.1948657171
 20
8.8532394941
 11
11.178306996
 21
8.8543878453
  0
LINE
  5
31E
100
AcDbEntity
  8
0
100
AcDbLine
 62
4
  6
CONTINUOUS
 10
11.0541165043
 20
8.8630004852
 11
11.020999062
 21
8.8652971876
  0
LINE
  5
31F
100
AcDbEntity
  8
0
100
AcDbLine
 62
4
  6
CONTINUOUS
 10
10.8968085703
 20
8.8739098274
 11
10.863691128
 21
8.8762065299
  0
LINE
  5
320
100
AcDbEntity
  8
0
100
AcDbLine
 62
4
  6
CONTINUOUS
 10
10.3365715839
 20
8.9127623944
 11
10.3696890427
 21
8.9104656908
  0
LINE
  5
321
100
AcDbEntity
  8
0
100
AcDbLine
 62
4
  6
CONTINUOUS
 10
10.435923955
 20
8.9058722841
 11
10.4607620575
 21
8.9041497558
  0
LINE
  5
322
100
AcDbEntity
  8
0
100
AcDbLine
 62
4
  6
CONTINUOUS
 10
11.0955133349
 20
8.8601296052
 11
11.1369101654
 21
8.8572587253
  0
LINE
  5
323
100
AcDbEntity
  8
0
100
AcDbLine
 62
4
  6
CONTINUOUS
 10
11.3714921499
 20
8.8409904094
 11
11.4046095923
 21
8.838693707
  0
LINE
  5
324
100
AcDbEntity
  8
0
100
AcDbLine
 62
4
  6
CONTINUOUS
 10
12.0393609402
 20
8.8043328551
 11
12.0973164919
 21
8.8003136239
  0
LINE
  5
325
100
AcDbEntity
  8
0
100
AcDbLine
 62
4
  6
CONTINUOUS
 10
11.020999062
 20
8.9066940112
 11
11.0541165043
 21
8.9043973088
  0
LINE
  5
326
100
AcDbEntity
  8
0
100
AcDbLine
 62
4
  6
CONTINUOUS
 10
11.0458371714
 20
8.9463683061
 11
11.0044403408
 21
8.9492391861
  0
LINE
  5
327
100
AcDbEntity
  8
0
100
AcDbLine
 62
4
  6
CONTINUOUS
 10
10.6925842505
 20
8.9708664794
 11
10.7339810811
 21
8.9679955995
  0
LINE
  5
328
100
AcDbEntity
  8
0
100
AcDbLine
 62
4
  6
CONTINUOUS
 10
10.863691128
 20
8.9590001771
 11
10.8968085703
 21
8.9567034747
  0
LINE
  5
329
100
AcDbEntity
  8
0
100
AcDbLine
 62
4
  6
CONTINUOUS
 10
10.9299260679
 20
8.9544067685
 11
10.9630435103
 21
8.952110066
  0
LINE
  5
32A
100
AcDbEntity
  8
0
100
AcDbLine
 62
4
  6
CONTINUOUS
 10
11.2969778218
 20
8.9289516429
 11
11.3300953747
 21
8.9266549328
  0
LINE
  5
32B
100
AcDbEntity
  8
0
100
AcDbLine
 62
4
  6
CONTINUOUS
 10
11.3714921499
 20
8.9237840567
 11
11.4046095923
 21
8.9214873542
  0
LINE
  5
32C
100
AcDbEntity
  8
0
100
AcDbLine
 62
4
  6
CONTINUOUS
 10
10.3448509488
 20
9.0280993219
 11
10.3779684067
 21
9.0258026184
  0
LINE
  5
32D
100
AcDbEntity
  8
0
100
AcDbLine
 62
4
  6
CONTINUOUS
 10
11.2445418806
 20
8.9657055439
 11
11.2473016583
 21
8.9655141527
  0
LINE
  5
32E
100
AcDbEntity
  8
0
100
AcDbLine
 62
4
  6
CONTINUOUS
 10
12.0610942721
 20
8.9187367468
 11
12.07558316
 21
8.917731939
  0
LINE
  5
32F
100
AcDbEntity
  8
0
100
AcDbLine
 62
4
  6
CONTINUOUS
 10
11.4046095923
 20
8.8773307426
 11
11.3714921499
 21
8.885147021
  0
LINE
  5
330
100
AcDbEntity
  8
0
100
AcDbLine
 62
4
  6
CONTINUOUS
 10
11.3714921499
 20
8.885147021
 11
11.363212817
 21
8.8912407707
  0
LINE
  5
331
100
AcDbEntity
  8
0
100
AcDbLine
 62
4
  6
CONTINUOUS
 10
11.178306996
 20
8.8543878453
 11
11.1700276077
 21
8.8632413877
  0
LINE
  5
332
100
AcDbEntity
  8
0
100
AcDbLine
 62
4
  6
CONTINUOUS
 10
11.2969778218
 20
8.8461579956
 11
11.2886984888
 21
8.8550115342
  0
LINE
  5
333
100
AcDbEntity
  8
0
100
AcDbLine
 62
4
  6
CONTINUOUS
 10
11.363212817
 20
8.849843948
 11
11.3714921499
 21
8.8409904094
  0
LINE
  5
334
100
AcDbEntity
  8
0
100
AcDbLine
 62
4
  6
CONTINUOUS
 10
12.0610942721
 20
7.7982626555
 11
12.0466053841
 21
7.8185859802
  0
LINE
  5
335
100
AcDbEntity
  8
0
100
AcDbLine
 62
4
  6
CONTINUOUS
 10
12.0393609402
 20
8.900925439
 11
12.0466053841
 21
8.9100822983
  0
LINE
  5
336
100
AcDbEntity
  8
0
100
AcDbLine
 62
4
  6
CONTINUOUS
 10
12.0610942721
 20
8.8511219353
 11
12.0466053841
 21
8.832808227
  0
LINE
  5
337
100
AcDbEntity
  8
0
100
AcDbLine
 62
4
  6
CONTINUOUS
 10
12.0973164919
 20
8.8775876952
 11
12.0900720479
 21
8.8684308358
  0
LINE
  5
338
100
AcDbEntity
  8
0
100
AcDbLine
 62
4
  6
CONTINUOUS
 10
11.4128889252
 20
8.8712369929
 11
11.4046095923
 21
8.8773307426
  0
LINE
  5
339
100
AcDbEntity
  8
0
100
AcDbLine
 62
4
  6
CONTINUOUS
 10
11.4046095923
 20
8.9214873542
 11
11.4128889252
 21
8.9126338131
  0
LINE
  5
33A
100
AcDbEntity
  8
0
100
AcDbLine
 62
4
  6
CONTINUOUS
 10
12.1045609358
 20
7.8918408203
 11
12.1118053798
 21
7.8816791532
  0
LINE
  5
33B
100
AcDbEntity
  8
0
100
AcDbLine
 62
7
  6
CONTINUOUS
 10
11.7711614333
 20
7.0169772684
 11
11.7711614333
 21
6.5533664673
  0
LINE
  5
33C
100
AcDbEntity
  8
0
100
AcDbLine
 62
7
  6
CONTINUOUS
 10
11.7939576503
 20
7.0228773613
 11
11.7939576503
 21
6.5592665602
  0
LINE
  5
33D
100
AcDbEntity
  8
0
100
AcDbLine
 62
7
  6
CONTINUOUS
 10
11.8329629418
 20
7.1765725568
 11
11.8329629418
 21
7.1387366626
  0
LINE
  5
33E
100
AcDbEntity
  8
0
100
AcDbLine
 62
4
  6
CONTINUOUS
 10
12.0466053841
 20
7.8185859802
 11
12.0393609402
 21
7.84806616
  0
LINE
  5
33F
100
AcDbEntity
  8
0
100
AcDbLine
 62
7
  6
CONTINUOUS
 10
11.8963913952
 20
7.1218207668
 11
11.8963913952
 21
6.6582099657
  0
LINE
  5
340
100
AcDbEntity
  8
0
100
AcDbLine
 62
4
  6
CONTINUOUS
 10
12.0466053841
 20
8.832808227
 11
12.0393609402
 21
8.8043328551
  0
LINE
  5
341
100
AcDbEntity
  8
0
100
AcDbLine
 62
4
  6
CONTINUOUS
 10
12.07558316
 20
8.917731939
 11
12.0900720479
 21
8.9070678749
  0
LINE
  5
342
100
AcDbEntity
  8
0
100
AcDbLine
 62
4
  6
CONTINUOUS
 10
12.0973164919
 20
8.8969062078
 11
12.0973164919
 21
8.8775876952
  0
LINE
  5
343
100
AcDbEntity
  8
0
100
AcDbLine
 62
4
  6
CONTINUOUS
 10
12.1118053798
 20
7.843042121
 11
12.1118053798
 21
7.8044050871
  0
LINE
  5
344
100
AcDbEntity
  8
0
100
AcDbLine
 62
4
  6
CONTINUOUS
 10
12.0393609402
 20
7.84806616
 11
12.0466053841
 21
7.876541532
  0
LINE
  5
345
100
AcDbEntity
  8
0
100
AcDbLine
 62
4
  6
CONTINUOUS
 10
12.0466053841
 20
7.876541532
 11
12.0610942721
 21
7.8948552437
  0
LINE
  5
346
100
AcDbEntity
  8
0
100
AcDbLine
 62
4
  6
CONTINUOUS
 10
12.0610942721
 20
7.8948552437
 11
12.07558316
 21
7.9035096922
  0
LINE
  5
347
100
AcDbEntity
  8
0
100
AcDbLine
 62
4
  6
CONTINUOUS
 10
12.1045609358
 20
7.7952482321
 11
12.0900720479
 21
7.786593781
  0
LINE
  5
348
100
AcDbEntity
  8
0
100
AcDbLine
 62
4
  6
CONTINUOUS
 10
9.6124721167
 20
9.7453788274
 11
9.5979832288
 21
9.7463836352
  0
LINE
  5
349
100
AcDbEntity
  8
0
100
AcDbLine
 62
4
  6
CONTINUOUS
 10
12.0900720479
 20
8.9070678749
 11
12.0973164919
 21
8.8969062078
  0
LINE
  5
34A
100
AcDbEntity
  8
0
100
AcDbLine
 62
4
  6
CONTINUOUS
 10
11.2865889931
 20
10.2529145625
 11
11.2827531604
 21
10.2592094298
  0
LINE
  5
34B
100
AcDbEntity
  8
0
100
AcDbLine
 62
7
  6
CONTINUOUS
 10
12.3194794095
 20
7.1428325252
 11
12.3194794095
 21
10.0406101758
  0
LINE
  5
34C
100
AcDbEntity
  8
0
100
AcDbLine
 62
4
  6
CONTINUOUS
 10
12.1118053798
 20
7.8044050871
 11
12.1045609358
 21
7.7952482321
  0
LINE
  5
34D
100
AcDbEntity
  8
0
100
AcDbLine
 62
4
  6
CONTINUOUS
 10
9.5979832288
 20
9.8139984432
 11
9.6124721167
 21
9.8129936354
  0
LINE
  5
34E
100
AcDbEntity
  8
0
100
AcDbLine
 62
4
  6
CONTINUOUS
 10
9.5979832288
 20
9.8622947386
 11
9.6124721167
 21
9.8612899308
  0
LINE
  5
34F
100
AcDbEntity
  8
0
100
AcDbLine
 62
4
  6
CONTINUOUS
 10
11.2402338389
 20
10.2581389205
 11
11.234456865
 21
10.2625587892
  0
LINE
  5
350
100
AcDbEntity
  8
0
100
AcDbLine
 62
7
  6
CONTINUOUS
 10
12.578298241
 20
7.3928323337
 11
12.578298241
 21
10.2906099842
  0
LINE
  5
351
100
AcDbEntity
  8
0
100
AcDbLine
 62
4
  6
CONTINUOUS
 10
11.3503679684
 20
10.2545203269
 11
11.3368264271
 21
10.2514402017
  0
LINE
  5
352
100
AcDbEntity
  8
0
100
AcDbLine
 62
4
  6
CONTINUOUS
 10
11.3794850863
 20
10.2826453047
 11
11.365943545
 21
10.2795651796
  0
LINE
  5
353
100
AcDbEntity
  8
0
100
AcDbLine
 62
4
  6
CONTINUOUS
 10
11.234456865
 20
10.2625587892
 11
11.2479984037
 21
10.2656389146
  0
LINE
  5
354
100
AcDbEntity
  8
0
100
AcDbLine
 62
4
  6
CONTINUOUS
 10
11.3157525607
 20
10.2910844046
 11
11.3292940994
 21
10.29416453
  0
LINE
  5
355
100
AcDbEntity
  8
0
100
AcDbLine
 62
4
  6
CONTINUOUS
 10
11.2674562653
 20
10.2944337641
 11
11.280997804
 21
10.2975138894
  0
LINE
  5
356
100
AcDbEntity
  8
0
100
AcDbLine
 62
4
  6
CONTINUOUS
 10
11.3368264271
 20
10.2514402017
 11
11.325226027
 21
10.2502350751
  0
LINE
  5
357
100
AcDbEntity
  8
0
100
AcDbLine
 62
7
  6
CONTINUOUS
 10
9.421701759
 20
10.2415717384
 11
12.3194794095
 21
10.0406101758
  0
LINE
  5
358
100
AcDbEntity
  8
0
100
AcDbLine
 62
4
  6
CONTINUOUS
 10
11.1412820877
 20
10.1725588602
 11
11.2571931911
 21
10.1645203979
  0
LINE
  5
359
100
AcDbEntity
  8
0
100
AcDbLine
 62
4
  6
CONTINUOUS
 10
11.2693509568
 20
10.2862638983
 11
11.2635739829
 21
10.2906837671
  0
LINE
  5
35A
100
AcDbEntity
  8
0
100
AcDbLine
 62
4
  6
CONTINUOUS
 10
11.3445909919
 20
10.2589401958
 11
11.3503679684
 21
10.2545203269
  0
LINE
  5
35B
100
AcDbEntity
  8
0
100
AcDbLine
 62
4
  6
CONTINUOUS
 10
11.3099755798
 20
10.2955042739
 11
11.3157525607
 21
10.2910844046
  0
LINE
  5
35C
100
AcDbEntity
  8
0
100
AcDbLine
 62
4
  6
CONTINUOUS
 10
11.3775903922
 20
10.2908151707
 11
11.3833673687
 21
10.2863953018
  0
LINE
  5
35D
100
AcDbEntity
  8
0
100
AcDbLine
 62
4
  6
CONTINUOUS
 10
11.2479984037
 20
10.2656389146
 11
11.2595988081
 21
10.2668440409
  0
LINE
  5
35E
100
AcDbEntity
  8
0
100
AcDbLine
 62
4
  6
CONTINUOUS
 10
11.365943545
 20
10.2795651796
 11
11.3543431449
 21
10.2783600529
  0
LINE
  5
35F
100
AcDbEntity
  8
0
100
AcDbLine
 62
4
  6
CONTINUOUS
 10
11.3292940994
 20
10.29416453
 11
11.3524948978
 21
10.2965747834
  0
LINE
  5
360
100
AcDbEntity
  8
0
100
AcDbLine
 62
4
  6
CONTINUOUS
 10
11.280997804
 20
10.2975138894
 11
11.2925982084
 21
10.2987190158
  0
LINE
  5
361
100
AcDbEntity
  8
0
100
AcDbLine
 62
4
  6
CONTINUOUS
 10
11.325226027
 20
10.2502350751
 11
11.303966368
 21
10.2496998203
  0
LINE
  5
362
100
AcDbEntity
  8
0
100
AcDbLine
 62
4
  6
CONTINUOUS
 10
11.2982358403
 20
10.2641645536
 11
11.3194954976
 21
10.2646998085
  0
LINE
  5
363
100
AcDbEntity
  8
0
100
AcDbLine
 62
4
  6
CONTINUOUS
 10
11.2965733831
 20
10.3225587419
 11
11.4221901925
 21
10.3238952722
  0
LINE
  5
364
100
AcDbEntity
  8
0
100
AcDbLine
 62
4
  6
CONTINUOUS
 10
11.2033986059
 20
10.2325588129
 11
11.3193097093
 21
10.2245203506
  0
LINE
  5
365
100
AcDbEntity
  8
0
100
AcDbLine
 62
4
  6
CONTINUOUS
 10
11.303966368
 20
10.2496998203
 11
11.2653293324
 21
10.2523793079
  0
LINE
  5
366
100
AcDbEntity
  8
0
100
AcDbLine
 62
4
  6
CONTINUOUS
 10
11.2925982084
 20
10.2987190158
 11
11.3022574647
 21
10.2980491441
  0
LINE
  5
367
100
AcDbEntity
  8
0
100
AcDbLine
 62
4
  6
CONTINUOUS
 10
11.3524948978
 20
10.2965747834
 11
11.3621541576
 21
10.2959049114
  0
LINE
  5
368
100
AcDbEntity
  8
0
100
AcDbLine
 62
4
  6
CONTINUOUS
 10
11.4027787806
 20
10.305145287
 11
11.2965733831
 21
10.3225587419
  0
LINE
  5
369
100
AcDbEntity
  8
0
100
AcDbLine
 62
4
  6
CONTINUOUS
 10
11.2653293324
 20
10.2523793079
 11
11.2479519609
 21
10.2555940498
  0
LINE
  5
36A
100
AcDbEntity
  8
0
100
AcDbLine
 62
4
  6
CONTINUOUS
 10
11.303966368
 20
10.2496998203
 11
11.2865889931
 21
10.2529145625
  0
LINE
  5
36B
100
AcDbEntity
  8
0
100
AcDbLine
 62
4
  6
CONTINUOUS
 10
11.3194954976
 20
10.2646998085
 11
11.3368728742
 21
10.2614850662
  0
LINE
  5
36C
100
AcDbEntity
  8
0
100
AcDbLine
 62
4
  6
CONTINUOUS
 10
11.2479519609
 20
10.2555940498
 11
11.2402338389
 21
10.2581389205
  0
LINE
  5
36D
100
AcDbEntity
  8
0
100
AcDbLine
 62
4
  6
CONTINUOUS
 10
11.3368728742
 20
10.2614850662
 11
11.3445909919
 21
10.2589401958
  0
LINE
  5
36E
100
AcDbEntity
  8
0
100
AcDbLine
 62
4
  6
CONTINUOUS
 10
11.3022574647
 20
10.2980491441
 11
11.3099755798
 21
10.2955042739
  0
LINE
  5
36F
100
AcDbEntity
  8
0
100
AcDbLine
 62
4
  6
CONTINUOUS
 10
11.3621541576
 20
10.2959049114
 11
11.3775903922
 21
10.2908151707
  0
LINE
  5
370
100
AcDbEntity
  8
0
100
AcDbLine
 62
7
  6
CONTINUOUS
 10
12.3194794095
 20
7.1428325252
 11
12.578298241
 21
7.3928323337
  0
LINE
  5
371
100
AcDbEntity
  8
0
100
AcDbLine
 62
7
  6
CONTINUOUS
 10
12.578298241
 20
10.2906099842
 11
9.6805205905
 21
10.4915715469
  0
LINE
  5
372
100
AcDbEntity
  8
0
100
AcDbLine
 62
7
  6
CONTINUOUS
 10
11.8234049214
 20
6.5655742518
 11
11.8120310219
 21
6.5599557632
  0
ARC
  5
373
100
AcDbEntity
  8
0
100
AcDbCircle
 62
7
  6
CONTINUOUS
 10
11.4776840488
 20
8.0348834684
 40
1.5106416881
100
AcDbArc
 50
266.0348545945
 51
266.6296292363
  0
ARC
  5
374
100
AcDbEntity
  8
0
100
AcDbCircle
 62
7
  6
CONTINUOUS
 10
11.4772620868
 20
8.4919116084
 40
1.5040456058
100
AcDbArc
 50
266.0335503727
 51
266.630933458
  0
ARC
  5
375
100
AcDbEntity
  8
0
100
AcDbCircle
 62
7
  6
CONTINUOUS
 10
11.4748279617
 20
7.9932235436
 40
1.4688839877
100
AcDbArc
 50
265.4277026068
 51
266.0336252202
  0
ARC
  5
376
100
AcDbEntity
  8
0
100
AcDbCircle
 62
7
  6
CONTINUOUS
 10
11.4748279617
 20
8.4568343446
 40
1.4688839875
100
AcDbArc
 50
265.4277026067
 51
266.0336252202
  0
ARC
  5
377
100
AcDbEntity
  8
0
100
AcDbCircle
 62
7
  6
CONTINUOUS
 10
11.4601155445
 20
9.0168544036
 40
0.890465214
100
AcDbArc
 50
359.9960311256
 51
1.3273015967
  0
ARC
  5
378
100
AcDbEntity
  8
0
100
AcDbCircle
 62
7
  6
CONTINUOUS
 10
11.6227269747
 20
7.1738623683
 40
0.6380030969
100
AcDbArc
 50
283.4534192375
 51
285.5682075142
  0
ARC
  5
379
100
AcDbEntity
  8
0
100
AcDbCircle
 62
7
  6
CONTINUOUS
 10
11.6227269747
 20
7.6374731694
 40
0.6380030969
100
AcDbArc
 50
283.4534192375
 51
285.5682075142
  0
ARC
  5
37A
100
AcDbEntity
  8
0
100
AcDbCircle
 62
7
  6
CONTINUOUS
 10
11.3572714022
 20
7.0186485275
 40
0.5013264328
100
AcDbArc
 50
243.6710035101
 51
246.0922753355
  0
SPLINE
  5
37B
100
AcDbEntity
  8
0
100
AcDbSpline
 62
7
  6
CONTINUOUS
 70
0
 71
3
 72
23
 73
19
 74
0
 42
0.0000001
 43
0.0000001
 44
0.0000000001
 40
0.0
 40
0.0
 40
0.0
 40
0.0
 40
0.0771641805
 40
0.1531533535
 40
0.2277610683
 40
0.3008132187
 40
0.3721367195
 40
0.4415592829
 40
0.5089183753
 40
0.5740587726
 40
0.6368335493
 40
0.6971053623
 40
0.7547470648
 40
0.809644211
 40
0.861694765
 40
0.9108129453
 40
0.9569305143
 40
1.0
 40
1.0
 40
1.0
 40
1.0
 10
11.3868117459
 20
6.5117047202
 30
0.0
 10
11.3806765942
 20
6.5121301944
 30
0.0
 10
11.3685054982
 20
6.513060885
 30
0.0
 10
11.3504276317
 20
6.5147097703
 30
0.0
 10
11.3327026363
 20
6.5165977511
 30
0.0
 10
11.3153786443
 20
6.5187195765
 30
0.0
 10
11.2985011962
 20
6.5210694905
 30
0.0
 10
11.2821152108
 20
6.523641377
 30
0.0
 10
11.2662644305
 20
6.5264281497
 30
0.0
 10
11.2509909973
 20
6.5294224283
 30
0.0
 10
11.2363354945
 20
6.5326161209
 30
0.0
 10
11.2223368547
 20
6.5360005984
 30
0.0
 10
11.2090322187
 20
6.539566887
 30
0.0
 10
11.1964567729
 20
6.5433052249
 30
0.0
 10
11.1846437696
 20
6.54720574
 30
0.0
 10
11.1736241422
 20
6.5512579285
 30
0.0
 10
11.1634270572
 20
6.5554508451
 30
0.0
 10
11.1569725573
 20
6.5584354701
 30
0.0
 10
11.1538949881
 20
6.5599557319
 30
0.0
  0
SPLINE
  5
37C
100
AcDbEntity
  8
0
100
AcDbSpline
 62
7
  6
CONTINUOUS
 70
0
 71
3
 72
9
 73
5
 74
0
 42
0.0000001
 43
0.0000001
 44
0.0000000001
 40
0.0
 40
0.0
 40
0.0
 40
0.0
 40
0.4828977682
 40
1.0
 40
1.0
 40
1.0
 40
1.0
 10
11.8963913952
 20
7.1218207668
 30
0.0
 10
11.8951574188
 20
7.1232240973
 30
0.0
 10
11.8924707702
 20
7.1260161442
 30
0.0
 10
11.8895817234
 20
7.1285958891
 30
0.0
 10
11.8880473919
 20
7.1298804413
 30
0.0
  0
SPLINE
  5
37D
100
AcDbEntity
  8
0
100
AcDbSpline
 62
7
  6
CONTINUOUS
 70
0
 71
3
 72
9
 73
5
 74
0
 42
0.0000001
 43
0.0000001
 44
0.0000000001
 40
0.0
 40
0.0
 40
0.0
 40
0.0
 40
0.5171022318
 40
1.0
 40
1.0
 40
1.0
 40
1.0
 10
11.0778784916
 20
6.6014458026
 30
0.0
 10
11.0763441601
 20
6.6027303549
 30
0.0
 10
11.0734551133
 20
6.6053100998
 30
0.0
 10
11.0707684647
 20
6.6081021466
 30
0.0
 10
11.0695344883
 20
6.6095054771
 30
0.0
  0
SPLINE
  5
37E
100
AcDbEntity
  8
0
100
AcDbSpline
 62
7
  6
CONTINUOUS
 70
0
 71
3
 72
23
 73
19
 74
0
 42
0.0000001
 43
0.0000001
 44
0.0000000001
 40
0.0
 40
0.0
 40
0.0
 40
0.0
 40
0.0811809151
 40
0.1603329432
 40
0.2373091998
 40
0.3119664373
 40
0.3841669194
 40
0.4537827545
 40
0.5207035621
 40
0.584842903
 40
0.6461438893
 40
0.7045889888
 40
0.7602023505
 40
0.8130558481
 40
0.8632719642
 40
0.9110191608
 40
0.9565116907
 40
1.0
 40
1.0
 40
1.0
 40
1.0
 10
11.8963913952
 20
6.6582099657
 30
0.0
 10
11.8949255956
 20
6.6553200585
 30
0.0
 10
11.8919912395
 20
6.6496323142
 30
0.0
 10
11.8875165419
 20
6.6412830279
 30
0.0
 10
11.8830220342
 20
6.633241287
 30
0.0
 10
11.8785081953
 20
6.6255301173
 30
0.0
 10
11.8739759499
 20
6.6181725059
 30
0.0
 10
11.8694264177
 20
6.6111911793
 30
0.0
 10
11.8648612274
 20
6.6046077971
 30
0.0
 10
11.8602823953
 20
6.5984423472
 30
0.0
 10
11.8556920197
 20
6.5927126175
 30
0.0
 10
11.8510928937
 20
6.5874330985
 30
0.0
 10
11.8464876929
 20
6.5826149164
 30
0.0
 10
11.8418793009
 20
6.5782651233
 30
0.0
 10
11.8372710117
 20
6.5743861809
 30
0.0
 10
11.832665538
 20
6.5709765944
 30
0.0
 10
11.8280664959
 20
6.5680304283
 30
0.0
 10
11.8249419769
 20
6.5663334637
 30
0.0
 10
11.8233856177
 20
6.5655647156
 30
0.0
  0
SPLINE
  5
37F
100
AcDbEntity
  8
0
100
AcDbSpline
 62
7
  6
CONTINUOUS
 70
0
 71
3
 72
21
 73
17
 74
0
 42
0.0000001
 43
0.0000001
 44
0.0000000001
 40
0.0
 40
0.0
 40
0.0
 40
0.0
 40
0.1542362095
 40
0.2287364247
 40
0.301349518
 40
0.3719738946
 40
0.4405116309
 40
0.5068732164
 40
0.5709805885
 40
0.632771482
 40
0.692201821
 40
0.7492521017
 40
0.8039267218
 40
0.8562621191
 40
0.9063219163
 40
1.0
 40
1.0
 40
1.0
 40
1.0
 10
11.0695344883
 20
7.0731162782
 30
0.0
 10
11.0720600544
 20
7.0780955752
 30
0.0
 10
11.0758930429
 20
7.0854364911
 30
0.0
 10
11.0811587957
 20
7.0949903113
 30
0.0
 10
11.0850773446
 20
7.1018295545
 30
0.0
 10
11.0890102474
 20
7.1084103984
 30
0.0
 10
11.0929568522
 20
7.1147177304
 30
0.0
 10
11.0969162661
 20
7.1207367001
 30
0.0
 10
11.1008873873
 20
7.1264531289
 30
0.0
 10
11.1048688132
 20
7.1318538639
 30
0.0
 10
11.10885915
 20
7.1369269546
 30
0.0
 10
11.1128564666
 20
7.1416624094
 30
0.0
 10
11.1168591202
 20
7.1460517062
 30
0.0
 10
11.1208651516
 20
7.1500895448
 30
0.0
 10
11.12609236
 20
7.1548927392
 30
0.0
 10
11.1301831749
 20
7.1581296646
 30
0.0
 10
11.1329652578
 20
7.1600685252
 30
0.0
  0
SPLINE
  5
380
100
AcDbEntity
  8
0
100
AcDbSpline
 62
7
  6
CONTINUOUS
 70
0
 71
3
 72
29
 73
25
 74
0
 42
0.0000001
 43
0.0000001
 44
0.0000000001
 40
0.0
 40
0.0
 40
0.0
 40
0.0
 40
0.0193647403
 40
0.0398586827
 40
0.0614691481
 40
0.084178659
 40
0.1079641822
 40
0.1327991616
 40
0.1586526589
 40
0.1854909836
 40
0.213276858
 40
0.2419707281
 40
0.2715301348
 40
0.3019106752
 40
0.3649446731
 40
0.4306792605
 40
0.4986935568
 40
0.5685458891
 40
0.6397782262
 40
0.7119205034
 40
0.7844948754
 40
0.8570194438
 40
0.9290137082
 40
1.0
 40
1.0
 40
1.0
 40
1.0
 10
11.8120305082
 20
6.5599555408
 30
0.0
 10
11.8095330266
 20
6.5587218382
 30
0.0
 10
11.8043389793
 20
6.5562897096
 30
0.0
 10
11.7961995753
 20
6.5528309846
 30
0.0
 10
11.7875039971
 20
6.5494635512
 30
0.0
 10
11.7782676107
 20
6.546193753
 30
0.0
 10
11.7685066506
 20
6.543027112
 30
0.0
 10
11.758238313
 20
6.5399695455
 30
0.0
 10
11.7474807651
 20
6.5370262769
 30
0.0
 10
11.7362530295
 20
6.5342027887
 30
0.0
 10
11.724575015
 20
6.5315039328
 30
0.0
 10
11.7124674329
 20
6.5289347239
 30
0.0
 10
11.6999517575
 20
6.5264995692
 30
0.0
 10
11.6825353524
 20
6.5233994371
 30
0.0
 10
11.6599065652
 20
6.5199062736
 30
0.0
 10
11.6318194883
 20
6.5163606972
 30
0.0
 10
11.6026750956
 20
6.5134373751
 30
0.0
 10
11.5726804237
 20
6.5111573912
 30
0.0
 10
11.5420483792
 20
6.5095372485
 30
0.0
 10
11.510996543
 20
6.5085886344
 30
0.0
 10
11.47974556
 20
6.5083184161
 30
0.0
 10
11.4485173398
 20
6.5087285171
 30
0.0
 10
11.4175340716
 20
6.5098160081
 30
0.0
 10
11.3969985052
 20
6.510998266
 30
0.0
 10
11.3868117459
 20
6.5117047202
 30
0.0
  0
SPLINE
  5
381
100
AcDbEntity
  8
0
100
AcDbSpline
 62
7
  6
CONTINUOUS
 70
0
 71
3
 72
10
 73
6
 74
0
 42
0.0000001
 43
0.0000001
 44
0.0000000001
 40
0.0
 40
0.0
 40
0.0
 40
0.0
 40
0.4954619866
 40
0.7466751917
 40
1.0
 40
1.0
 40
1.0
 40
1.0
 10
11.1349206805
 20
6.569328654
 30
0.0
 10
11.125224618
 20
6.574119714
 30
0.0
 10
11.1108273057
 20
6.5817827151
 30
0.0
 10
11.0919560852
 20
6.5927552949
 30
0.0
 10
11.0825636431
 20
6.5985086586
 30
0.0
 10
11.0778784916
 20
6.6014458026
 30
0.0
  0
SPLINE
  5
382
100
AcDbEntity
  8
0
100
AcDbSpline
 62
7
  6
CONTINUOUS
 70
0
 71
3
 72
9
 73
5
 74
0
 42
0.0000001
 43
0.0000001
 44
0.0000000001
 40
0.0
 40
0.0
 40
0.0
 40
0.0
 40
0.4956537702
 40
1.0
 40
1.0
 40
1.0
 40
1.0
 10
11.8329672256
 20
7.1610231393
 30
0.0
 10
11.8423234717
 20
7.1563526648
 30
0.0
 10
11.8609307592
 20
7.1463842252
 30
0.0
 10
11.8790319296
 20
7.135532278
 30
0.0
 10
11.8880473919
 20
7.1298804413
 30
0.0
  0
SPLINE
  5
383
100
AcDbEntity
  8
0
100
AcDbSpline
 62
7
  6
CONTINUOUS
 70
0
 71
3
 72
23
 73
19
 74
0
 42
0.0000001
 43
0.0000001
 44
0.0000000001
 40
0.0
 40
0.0
 40
0.0
 40
0.0
 40
0.041849833
 40
0.0842417778
 40
0.1277008324
 40
0.1728332119
 40
0.2202864273
 40
0.2706980735
 40
0.3246409433
 40
0.3825765426
 40
0.444824595
 40
0.5115518581
 40
0.5827792232
 40
0.6584023685
 40
0.738220306
 40
0.8219653573
 40
0.9093325328
 40
1.0
 40
1.0
 40
1.0
 40
1.0
 10
11.8963913952
 20
7.1218207668
 30
0.0
 10
11.8942985591
 20
7.121903863
 30
0.0
 10
11.8900743107
 20
7.1218676842
 30
0.0
 10
11.8837122922
 20
7.1211437379
 30
0.0
 10
11.8773068548
 20
7.1196857862
 30
0.0
 10
11.8708663725
 20
7.117433512
 30
0.0
 10
11.8644000781
 20
7.1143344198
 30
0.0
 10
11.8579178546
 20
7.1103471378
 30
0.0
 10
11.8514288475
 20
7.1054437164
 30
0.0
 10
11.8449413298
 20
7.0996112962
 30
0.0
 10
11.8384628501
 20
7.0928531136
 30
0.0
 10
11.8320003748
 20
7.0851885495
 30
0.0
 10
11.8255602556
 20
7.0766518626
 30
0.0
 10
11.8191480181
 20
7.0672897109
 30
0.0
 10
11.8127681584
 20
7.0571578591
 30
0.0
 10
11.8064239522
 20
7.0463175348
 30
0.0
 10
11.8001175404
 20
7.0348322362
 30
0.0
 10
11.7960102877
 20
7.0269242526
 30
0.0
 10
11.7939576503
 20
7.0228773613
 30
0.0
  0
SPLINE
  5
384
100
AcDbEntity
  8
0
100
AcDbSpline
 62
7
  6
CONTINUOUS
 70
0
 71
3
 72
22
 73
18
 74
0
 42
0.0000001
 43
0.0000001
 44
0.0000000001
 40
0.0
 40
0.0
 40
0.0
 40
0.0
 40
0.0635276349
 40
0.1269574788
 40
0.190276228
 40
0.2534714934
 40
0.3165305489
 40
0.3794420572
 40
0.4421966558
 40
0.5047879221
 40
0.5672130021
 40
0.6294729348
 40
0.6915725324
 40
0.7535198026
 40
0.8153252236
 40
0.8770005154
 40
1.0
 40
1.0
 40
1.0
 40
1.0
 10
11.7711614333
 20
6.5533664673
 30
0.0
 10
11.7633760565
 20
6.5507287182
 30
0.0
 10
11.7477556785
 20
6.5456366616
 30
0.0
 10
11.7241576104
 20
6.5386050722
 30
0.0
 10
11.7004126056
 20
6.5322485334
 30
0.0
 10
11.6765308257
 20
6.5266304405
 30
0.0
 10
11.6525282569
 20
6.5218110883
 30
0.0
 10
11.6284274258
 20
6.5178440766
 30
0.0
 10
11.6042567968
 20
6.5147723434
 30
0.0
 10
11.5800495474
 20
6.5126245174
 30
0.0
 10
11.555841491
 20
6.5114122545
 30
0.0
 10
11.5316685474
 20
6.5111290886
 30
0.0
 10
11.5075641298
 20
6.5117511861
 30
0.0
 10
11.4835571636
 20
6.5132396602
 30
0.0
 10
11.4596702037
 20
6.5155441514
 30
0.0
 10
11.4280350783
 20
6.5196230738
 30
0.0
 10
11.4044791899
 20
6.5237317668
 30
0.0
 10
11.3888732001
 20
6.5268546414
 30
0.0
  0
SPLINE
  5
385
100
AcDbEntity
  8
0
100
AcDbSpline
 62
7
  6
CONTINUOUS
 70
0
 71
3
 72
22
 73
18
 74
0
 42
0.0000001
 43
0.0000001
 44
0.0000000001
 40
0.0
 40
0.0
 40
0.0
 40
0.0
 40
0.1229994846
 40
0.1846747764
 40
0.2464801975
 40
0.3084274676
 40
0.3705270652
 40
0.4327869979
 40
0.4952120779
 40
0.5578033443
 40
0.6205579428
 40
0.6834694511
 40
0.7465285066
 40
0.809723772
 40
0.8730425212
 40
0.9364723651
 40
1.0
 40
1.0
 40
1.0
 40
1.0
 10
11.7711614333
 20
7.0169772684
 30
0.0
 10
11.7555554436
 20
7.020100143
 30
0.0
 10
11.7319995552
 20
7.0242088361
 30
0.0
 10
11.7003644298
 20
7.0282877584
 30
0.0
 10
11.6764774698
 20
7.0305922497
 30
0.0
 10
11.6524705036
 20
7.0320807237
 30
0.0
 10
11.6283660861
 20
7.0327028212
 30
0.0
 10
11.6041931425
 20
7.0324196553
 30
0.0
 10
11.579985086
 20
7.0312073924
 30
0.0
 10
11.5557778367
 20
7.0290595665
 30
0.0
 10
11.5316072077
 20
7.0259878332
 30
0.0
 10
11.5075063765
 20
7.0220208215
 30
0.0
 10
11.4835038077
 20
7.0172014694
 30
0.0
 10
11.4596220278
 20
7.0115833764
 30
0.0
 10
11.4358770231
 20
7.0052268376
 30
0.0
 10
11.412278955
 20
6.9981952482
 30
0.0
 10
11.3966585769
 20
6.9931031917
 30
0.0
 10
11.3888732001
 20
6.9904654425
 30
0.0
  0
SPLINE
  5
386
100
AcDbEntity
  8
0
100
AcDbSpline
 62
7
  6
CONTINUOUS
 70
0
 71
3
 72
21
 73
17
 74
0
 42
0.0000001
 43
0.0000001
 44
0.0000000001
 40
0.0
 40
0.0
 40
0.0
 40
0.0
 40
0.1199600383
 40
0.1802007836
 40
0.2406631193
 40
0.3013906862
 40
0.3624308694
 40
0.4238332883
 40
0.4856486582
 40
0.5479273438
 40
0.6107163491
 40
0.6740582744
 40
0.7379891567
 40
0.8025364138
 40
0.8677187842
 40
1.0
 40
1.0
 40
1.0
 40
1.0
 10
11.3577329799
 20
6.529014223
 30
0.0
 10
11.349440844
 20
6.5281081631
 30
0.0
 10
11.3369461146
 20
6.5270620447
 30
0.0
 10
11.3202233738
 20
6.5263838264
 30
0.0
 10
11.3076059754
 20
6.5262556826
 30
0.0
 10
11.2949352874
 20
6.526531944
 30
0.0
 10
11.2822153738
 20
6.5272347056
 30
0.0
 10
11.2694519001
 20
6.528384021
 30
0.0
 10
11.2566517414
 20
6.5299969469
 30
0.0
 10
11.2438230946
 20
6.5320876389
 30
0.0
 10
11.2309750695
 20
6.5346654122
 30
0.0
 10
11.2181174714
 20
6.5377350908
 30
0.0
 10
11.2052606535
 20
6.5412969306
 30
0.0
 10
11.1924143845
 20
6.5453454973
 30
0.0
 10
11.1752310335
 20
6.5514084182
 30
0.0
 10
11.1625112013
 20
6.5566101897
 30
0.0
 10
11.1541014238
 20
6.5603362408
 30
0.0
  0
SPLINE
  5
387
100
AcDbEntity
  8
0
100
AcDbSpline
 62
7
  6
CONTINUOUS
 70
0
 71
3
 72
23
 73
19
 74
0
 42
0.0000001
 43
0.0000001
 44
0.0000000001
 40
0.0
 40
0.0
 40
0.0
 40
0.0
 40
0.0680604958
 40
0.1354215705
 40
0.2020263854
 40
0.2678263745
 40
0.332783987
 40
0.3968786253
 40
0.4601106017
 40
0.5225038541
 40
0.5841059549
 40
0.6449852447
 40
0.7052253922
 40
0.7649184558
 40
0.8241579875
 40
0.8830328422
 40
0.9416238846
 40
1.0
 40
1.0
 40
1.0
 40
1.0
 10
11.3577329799
 20
6.9926250241
 30
0.0
 10
11.3520572143
 20
6.9961831889
 30
0.0
 10
11.3406744119
 20
7.0031215361
 30
0.0
 10
11.3234064281
 20
7.0129868288
 30
0.0
 10
11.3060302241
 20
7.022195893
 30
0.0
 10
11.2885526484
 20
7.0306843434
 30
0.0
 10
11.2709847071
 20
7.0383900987
 30
0.0
 10
11.2533422444
 20
7.0452567847
 30
0.0
 10
11.2356456372
 20
7.0512377389
 30
0.0
 10
11.2179190549
 20
7.0562998208
 30
0.0
 10
11.2001890251
 20
7.0604264249
 30
0.0
 10
11.1824825508
 20
7.0636190798
 30
0.0
 10
11.1648250733
 20
7.0658971547
 30
0.0
 10
11.1472386953
 20
7.0672958471
 30
0.0
 10
11.1297410519
 20
7.0678628645
 30
0.0
 10
11.1123446501
 20
7.0676545333
 30
0.0
 10
11.095057584
 20
7.0667319348
 30
0.0
 10
11.083590178
 20
7.0656807047
 30
0.0
 10
11.0778784916
 20
7.0650566038
 30
0.0
  0
SPLINE
  5
388
100
AcDbEntity
  8
0
100
AcDbSpline
 62
7
  6
CONTINUOUS
 70
0
 71
3
 72
9
 73
5
 74
0
 42
0.0000001
 43
0.0000001
 44
0.0000000001
 40
0.0
 40
0.0
 40
0.0
 40
0.0
 40
0.5107087613
 40
1.0
 40
1.0
 40
1.0
 40
1.0
 10
11.8233856177
 20
6.5655647156
 30
0.0
 10
11.8214700908
 20
6.5646185603
 30
0.0
 10
11.8176280851
 20
6.5629438493
 30
0.0
 10
11.8136349668
 20
6.5616691907
 30
0.0
 10
11.8116551957
 20
6.5611494321
 30
0.0
  0
SPLINE
  5
389
100
AcDbEntity
  8
0
100
AcDbSpline
 62
7
  6
CONTINUOUS
 70
0
 71
3
 72
11
 73
7
 74
0
 42
0.0000001
 43
0.0000001
 44
0.0000000001
 40
0.0
 40
0.0
 40
0.0
 40
0.0
 40
0.2554031413
 40
0.5061795364
 40
0.7539172017
 40
1.0
 40
1.0
 40
1.0
 40
1.0
 10
11.8116551957
 20
6.5611494321
 30
0.0
 10
11.810184584
 20
6.5607633456
 30
0.0
 10
11.8072390077
 20
6.5601109144
 30
0.0
 10
11.8027909559
 20
6.5594815873
 30
0.0
 10
11.7983639411
 20
6.5591908217
 30
0.0
 10
11.7954214595
 20
6.5592084395
 30
0.0
 10
11.7939576503
 20
6.5592665602
 30
0.0
  0
SPLINE
  5
38A
100
AcDbEntity
  8
0
100
AcDbSpline
 62
7
  6
CONTINUOUS
 70
0
 71
3
 72
9
 73
5
 74
0
 42
0.0000001
 43
0.0000001
 44
0.0000000001
 40
0.0
 40
0.0
 40
0.0
 40
0.0
 40
0.5171022318
 40
1.0
 40
1.0
 40
1.0
 40
1.0
 10
11.0778784916
 20
7.0650566038
 30
0.0
 10
11.0763441601
 20
7.066341156
 30
0.0
 10
11.0734551133
 20
7.0689209009
 30
0.0
 10
11.0707684647
 20
7.0717129477
 30
0.0
 10
11.0695344883
 20
7.0731162782
 30
0.0
  0
SPLINE
  5
38B
100
AcDbEntity
  8
0
100
AcDbSpline
 62
7
  6
CONTINUOUS
 70
0
 71
3
 72
37
 73
33
 74
0
 42
0.0000001
 43
0.0000001
 44
0.0000000001
 40
0.0
 40
0.0
 40
0.0
 40
0.0
 40
0.0958309547
 40
0.189102859
 40
0.2792425856
 40
0.3657120142
 40
0.4074105961
 40
0.448003525
 40
0.4874337107
 40
0.5256461444
 40
0.562590019
 40
0.5982170419
 40
0.6324836114
 40
0.6653495267
 40
0.6967798798
 40
0.7267447088
 40
0.7552200218
 40
0.7821889185
 40
0.8076418668
 40
0.8315795516
 40
0.8540128283
 40
0.8749672738
 40
0.8944840146
 40
0.9126258626
 40
0.929480339
 40
0.9451668365
 40
0.9598415721
 40
0.9737025693
 40
0.9804060954
 40
0.9869995786
 40
0.9935185772
 40
1.0
 40
1.0
 40
1.0
 40
1.0
 10
11.3923763507
 20
7.0512367296
 30
0.0
 10
11.3832603809
 20
7.0518689243
 30
0.0
 10
11.3652850273
 20
7.0533169526
 30
0.0
 10
11.3387994217
 20
7.0560809296
 30
0.0
 10
11.3132764286
 20
7.0593933796
 30
0.0
 10
11.2927098953
 20
7.0626296825
 30
0.0
 10
11.276873204
 20
7.0654880449
 30
0.0
 10
11.26548426
 20
7.0677281826
 30
0.0
 10
11.2544589118
 20
7.0700866162
 30
0.0
 10
11.2438155616
 20
7.072559628
 30
0.0
 10
11.2335719573
 20
7.0751428223
 30
0.0
 10
11.223745176
 20
7.0778320773
 30
0.0
 10
11.2143515633
 20
7.0806226769
 30
0.0
 10
11.2054067497
 20
7.0835100839
 30
0.0
 10
11.1969255708
 20
7.086489361
 30
0.0
 10
11.1889220583
 20
7.0895555444
 30
0.0
 10
11.1814094299
 20
7.0927035705
 30
0.0
 10
11.1743999815
 20
7.0959280827
 30
0.0
 10
11.1679052205
 20
7.0992239872
 30
0.0
 10
11.1619355596
 20
7.1025856625
 30
0.0
 10
11.1565007048
 20
7.1060081008
 30
0.0
 10
11.1516091094
 20
7.109485702
 30
0.0
 10
11.1472686729
 20
7.113013741
 30
0.0
 10
11.1434860814
 20
7.1165871594
 30
0.0
 10
11.1402678019
 20
7.1202017774
 30
0.0
 10
11.1376197285
 20
7.1238536774
 30
0.0
 10
11.1355483139
 20
7.1275383553
 30
0.0
 10
11.1342946149
 20
7.1306687528
 30
0.0
 10
11.1336008785
 20
7.1331658732
 30
0.0
 10
11.133232954
 20
7.1350211969
 30
0.0
 10
11.1330121529
 20
7.1368782697
 30
0.0
 10
11.1329630075
 20
7.1381184663
 30
0.0
 10
11.1329629973
 20
7.1387364959
 30
0.0
  0
SPLINE
  5
38C
100
AcDbEntity
  8
0
100
AcDbSpline
 62
7
  6
CONTINUOUS
 70
0
 71
3
 72
50
 73
46
 74
0
 42
0.0000001
 43
0.0000001
 44
0.0000000001
 40
0.0
 40
0.0
 40
0.0
 40
0.0
 40
0.0417956958
 40
0.0840622602
 40
0.1266603176
 40
0.1694646154
 40
0.2123445128
 40
0.2551678737
 40
0.2978040563
 40
0.3401229578
 40
0.3819954739
 40
0.4232944982
 40
0.4638952413
 40
0.5036755263
 40
0.5425168626
 40
0.5803046046
 40
0.61692847
 40
0.652283716
 40
0.6862711694
 40
0.7187982737
 40
0.749780216
 40
0.7791402539
 40
0.8068116519
 40
0.8199969475
 40
0.8327403432
 40
0.8450368442
 40
0.8568828427
 40
0.8682755994
 40
0.8792134359
 40
0.8896964731
 40
0.8997262352
 40
0.9093058063
 40
0.9184407278
 40
0.9271388469
 40
0.9354105058
 40
0.9432695832
 40
0.9507337057
 40
0.9578245485
 40
0.9645689562
 40
0.9709994031
 40
0.9771541866
 40
0.9830780497
 40
0.9888220116
 40
0.9944424541
 40
1.0
 40
1.0
 40
1.0
 40
1.0
 10
11.3923763507
 20
7.0512367296
 30
0.0
 10
11.3988722593
 20
7.0507862369
 30
0.0
 10
11.4119446809
 20
7.0499840827
 30
0.0
 10
11.4316575129
 20
7.049078618
 30
0.0
 10
11.4515388705
 20
7.048466286
 30
0.0
 10
11.4715226656
 20
7.0481490562
 30
0.0
 10
11.4915440684
 20
7.0481278549
 30
0.0
 10
11.5115374019
 20
7.0484028765
 30
0.0
 10
11.5314370657
 20
7.0489731926
 30
0.0
 10
11.5511778985
 20
7.0498368409
 30
0.0
 10
11.5706952177
 20
7.0509910749
 30
0.0
 10
11.5899250788
 20
7.0524320339
 30
0.0
 10
11.6088044889
 20
7.0541549156
 30
0.0
 10
11.6272716094
 20
7.0561541336
 30
0.0
 10
11.6452659769
 20
7.0584229884
 30
0.0
 10
11.6627286857
 20
7.0609539874
 30
0.0
 10
11.6796025911
 20
7.0637388406
 30
0.0
 10
11.6958325223
 20
7.0667682163
 30
0.0
 10
11.7113654498
 20
7.0700321504
 30
0.0
 10
11.7261506616
 20
7.0735198677
 30
0.0
 10
11.7401400594
 20
7.0772196948
 30
0.0
 10
11.7532879687
 20
7.0811195298
 30
0.0
 10
11.7636687165
 20
7.0845786474
 30
0.0
 10
11.7715122051
 20
7.0874456184
 30
0.0
 10
11.7770633942
 20
7.0896030696
 30
0.0
 10
11.7823736816
 20
7.0918007334
 30
0.0
 10
11.7874388077
 20
7.0940367348
 30
0.0
 10
11.7922546661
 20
7.0963092448
 30
0.0
 10
11.7968173007
 20
7.0986165335
 30
0.0
 10
11.8011230812
 20
7.1009566341
 30
0.0
 10
11.8051685656
 20
7.1033276413
 30
0.0
 10
11.8089504276
 20
7.1057277973
 30
0.0
 10
11.8124656958
 20
7.1081551313
 30
0.0
 10
11.8157116218
 20
7.1106077121
 30
0.0
 10
11.8186855151
 20
7.1130838143
 30
0.0
 10
11.821385031
 20
7.1155815525
 30
0.0
 10
11.8238080692
 20
7.1180990581
 30
0.0
 10
11.8259524698
 20
7.1206347063
 30
0.0
 10
11.8278163189
 20
7.1231867614
 30
0.0
 10
11.8293979339
 20
7.125753417
 30
0.0
 10
11.8306953871
 20
7.1283330047
 30
0.0
 10
11.8317068651
 20
7.1309235489
 30
0.0
 10
11.8324309297
 20
7.1335228714
 30
0.0
 10
11.8328660323
 20
7.1361280248
 30
0.0
 10
11.8329629005
 20
7.1378709981
 30
0.0
 10
11.8329628862
 20
7.1387368294
 30
0.0
  0
SPLINE
  5
38D
100
AcDbEntity
  8
0
100
AcDbSpline
 62
7
  6
CONTINUOUS
 70
0
 71
3
 72
42
 73
38
 74
0
 42
0.0000001
 43
0.0000001
 44
0.0000000001
 40
0.0
 40
0.0
 40
0.0
 40
0.0
 40
0.0311444347
 40
0.0467772112
 40
0.0624471461
 40
0.093891844
 40
0.1254739796
 40
0.1571813629
 40
0.1889992234
 40
0.2209106216
 40
0.2528967716
 40
0.2849374315
 40
0.3170113014
 40
0.34909644
 40
0.3811706886
 40
0.4132120984
 40
0.4451993552
 40
0.4771121951
 40
0.5089318057
 40
0.5406412074
 40
0.572225607
 40
0.6036727182
 40
0.6349730419
 40
0.6661200987
 40
0.6971106068
 40
0.7279445994
 40
0.7586254742
 40
0.7891599701
 40
0.8195580671
 40
0.8498328085
 40
0.864931571
 40
0.8800056544
 40
0.910083706
 40
0.9400929707
 40
0.9550814956
 40
0.9700611828
 40
1.0
 40
1.0
 40
1.0
 40
1.0
 10
9.6631832298
 20
8.9116487028
 30
0.0
 10
9.6664972037
 20
8.911418878
 30
0.0
 10
9.6714644194
 20
8.9108918862
 30
0.0
 10
9.6780414545
 20
8.909832848
 30
0.0
 10
9.6846080481
 20
8.9085326741
 30
0.0
 10
9.6927505106
 20
8.9064620283
 30
0.0
 10
9.7023507939
 20
8.9032837508
 30
0.0
 10
9.711741914
 20
8.8994258636
 30
0.0
 10
9.7208735166
 20
8.894909057
 30
0.0
 10
9.7296970255
 20
8.8897574556
 30
0.0
 10
9.7381654049
 20
8.8839985686
 30
0.0
 10
9.7462335401
 20
8.8776631249
 30
0.0
 10
9.7538584392
 20
8.8707849142
 30
0.0
 10
9.7609994691
 20
8.863400608
 30
0.0
 10
9.7676185674
 20
8.8555495652
 30
0.0
 10
9.7736804439
 20
8.8472736252
 30
0.0
 10
9.7791527668
 20
8.8386168869
 30
0.0
 10
9.7840063338
 20
8.8296254761
 30
0.0
 10
9.7882152268
 20
8.8203473028
 30
0.0
 10
9.7917569498
 20
8.8108318091
 30
0.0
 10
9.7946125488
 20
8.8011297089
 30
0.0
 10
9.7967667134
 20
8.7912927216
 30
0.0
 10
9.7982078605
 20
8.7813732998
 30
0.0
 10
9.7989281982
 20
8.7714243531
 30
0.0
 10
9.7989237718
 20
8.7614989717
 30
0.0
 10
9.7981944845
 20
8.7516501359
 30
0.0
 10
9.7967441225
 20
8.7419304741
 30
0.0
 10
9.7945802693
 20
8.7323918403
 30
0.0
 10
9.791714538
 20
8.7230855636
 30
0.0
 10
9.7887508979
 20
8.7155573357
 30
0.0
 10
9.786046433
 20
8.7097029737
 30
0.0
 10
9.7831277891
 20
8.7039759095
 30
0.0
 10
9.7790754275
 20
8.697048727
 30
0.0
 10
9.7745018699
 20
8.6904650675
 30
0.0
 10
9.770549646
 20
8.6854326861
 30
0.0
 10
9.7664088918
 20
8.6805645609
 30
0.0
 10
9.7630914151
 20
8.6770988841
 30
0.0
 10
9.7607945841
 20
8.6748803293
 30
0.0
  0
SPLINE
  5
38E
100
AcDbEntity
  8
0
100
AcDbSpline
 62
7
  6
CONTINUOUS
 70
0
 71
3
 72
42
 73
38
 74
0
 42
0.0000001
 43
0.0000001
 44
0.0000000001
 40
0.0
 40
0.0
 40
0.0
 40
0.0
 40
0.0311444347
 40
0.0467772112
 40
0.0624471461
 40
0.093891844
 40
0.1254739796
 40
0.1571813629
 40
0.1889992234
 40
0.2209106216
 40
0.2528967716
 40
0.2849374315
 40
0.3170113014
 40
0.34909644
 40
0.3811706886
 40
0.4132120984
 40
0.4451993552
 40
0.4771121951
 40
0.5089318057
 40
0.5406412074
 40
0.572225607
 40
0.6036727182
 40
0.6349730419
 40
0.6661200987
 40
0.6971106068
 40
0.7279445994
 40
0.7586254742
 40
0.7891599701
 40
0.8195580671
 40
0.8498328085
 40
0.864931571
 40
0.8800056544
 40
0.910083706
 40
0.9400929707
 40
0.9550814956
 40
0.9700611828
 40
1.0
 40
1.0
 40
1.0
 40
1.0
 10
12.0779979387
 20
9.9515880884
 30
0.0
 10
12.0813119125
 20
9.9513582635
 30
0.0
 10
12.0862791282
 20
9.9508312717
 30
0.0
 10
12.0928561633
 20
9.9497722335
 30
0.0
 10
12.0994227569
 20
9.9484720597
 30
0.0
 10
12.1075652194
 20
9.9464014139
 30
0.0
 10
12.1171655027
 20
9.9432231364
 30
0.0
 10
12.1265566228
 20
9.9393652492
 30
0.0
 10
12.1356882254
 20
9.9348484425
 30
0.0
 10
12.1445117343
 20
9.9296968411
 30
0.0
 10
12.1529801137
 20
9.9239379542
 30
0.0
 10
12.1610482489
 20
9.9176025104
 30
0.0
 10
12.168673148
 20
9.9107242998
 30
0.0
 10
12.1758141779
 20
9.9033399935
 30
0.0
 10
12.1824332762
 20
9.8954889507
 30
0.0
 10
12.1884951527
 20
9.8872130108
 30
0.0
 10
12.1939674756
 20
9.8785562725
 30
0.0
 10
12.1988210426
 20
9.8695648616
 30
0.0
 10
12.2030299356
 20
9.8602866883
 30
0.0
 10
12.2065716586
 20
9.8507711946
 30
0.0
 10
12.2094272576
 20
9.8410690945
 30
0.0
 10
12.2115814222
 20
9.8312321071
 30
0.0
 10
12.2130225693
 20
9.8213126854
 30
0.0
 10
12.213742907
 20
9.8113637387
 30
0.0
 10
12.2137384806
 20
9.8014383572
 30
0.0
 10
12.2130091933
 20
9.7915895214
 30
0.0
 10
12.2115588313
 20
9.7818698596
 30
0.0
 10
12.2093949781
 20
9.7723312259
 30
0.0
 10
12.2065292468
 20
9.7630249492
 30
0.0
 10
12.2035656067
 20
9.7554967213
 30
0.0
 10
12.2008611419
 20
9.7496423592
 30
0.0
 10
12.1979424979
 20
9.7439152951
 30
0.0
 10
12.1938901363
 20
9.7369881126
 30
0.0
 10
12.1893165787
 20
9.7304044531
 30
0.0
 10
12.1853643548
 20
9.7253720716
 30
0.0
 10
12.1812236006
 20
9.7205039464
 30
0.0
 10
12.1779061239
 20
9.7170382697
 30
0.0
 10
12.1756092929
 20
9.7148197148
 30
0.0
  0
SPLINE
  5
38F
100
AcDbEntity
  8
0
100
AcDbSpline
 62
7
  6
CONTINUOUS
 70
0
 71
3
 72
54
 73
50
 74
0
 42
0.0000001
 43
0.0000001
 44
0.0000000001
 40
0.0
 40
0.0
 40
0.0
 40
0.0
 40
0.0417740106
 40
0.0840368515
 40
0.1266583734
 40
0.1695063147
 40
0.2124478814
 40
0.2553497884
 40
0.2980789417
 40
0.340502919
 40
0.3824905067
 40
0.4239122259
 40
0.4646408671
 40
0.5045520317
 40
0.5435246831
 40
0.5814417135
 40
0.6181905344
 40
0.6536637003
 40
0.6877595809
 40
0.704261357
 40
0.7203837372
 40
0.736116
 40
0.7514479644
 40
0.7663699709
 40
0.7808730136
 40
0.7949486603
 40
0.8085892482
 40
0.8217877894
 40
0.8345381805
 40
0.8468351604
 40
0.8586744859
 40
0.8700529987
 40
0.8809687469
 40
0.891421194
 40
0.9014113064
 40
0.910941912
 40
0.9200178165
 40
0.9286462958
 40
0.9368373422
 40
0.9446042644
 40
0.9519641574
 40
0.9589385856
 40
0.9655542762
 40
0.9718437871
 40
0.9778461898
 40
0.9836073681
 40
0.9891800557
 40
0.994623083
 40
1.0
 40
1.0
 40
1.0
 40
1.0
 10
12.3215499602
 20
8.8187821185
 30
0.0
 10
12.3215499602
 20
8.8279608089
 30
0.0
 10
12.3216931567
 20
8.8464258852
 30
0.0
 10
12.3223262073
 20
8.874249346
 30
0.0
 10
12.3233769109
 20
8.9022963444
 30
0.0
 10
12.3248418286
 20
8.9304740599
 30
0.0
 10
12.3267161162
 20
8.9586892505
 30
0.0
 10
12.3289935795
 20
8.9868485784
 30
0.0
 10
12.3316666739
 20
9.0148588794
 30
0.0
 10
12.3347265382
 20
9.0426274892
 30
0.0
 10
12.3381630208
 20
9.0700625476
 30
0.0
 10
12.3419647134
 20
9.0970733055
 30
0.0
 10
12.3461189881
 20
9.1235704286
 30
0.0
 10
12.350612038
 20
9.1494662956
 30
0.0
 10
12.3554289217
 20
9.1746752967
 30
0.0
 10
12.3605536142
 20
9.1991141075
 30
0.0
 10
12.3659690519
 20
9.222702025
 30
0.0
 10
12.3716572117
 20
9.2453610563
 30
0.0
 10
12.3766617063
 20
9.2636004689
 30
0.0
 10
12.3807948708
 20
9.277665983
 30
0.0
 10
12.3839172161
 20
9.2878221514
 30
0.0
 10
12.3870931933
 20
9.2976920109
 30
0.0
 10
12.3903201739
 20
9.3072674189
 30
0.0
 10
12.3935955009
 20
9.3165404628
 30
0.0
 10
12.3969164278
 20
9.3255034938
 30
0.0
 10
12.4002802398
 20
9.3341491115
 30
0.0
 10
12.4036841094
 20
9.3424701962
 30
0.0
 10
12.4071252565
 20
9.3504598862
 30
0.0
 10
12.4106008008
 20
9.3581116149
 30
0.0
 10
12.4141078935
 20
9.3654190888
 30
0.0
 10
12.4176436293
 20
9.3723763157
 30
0.0
 10
12.4212050953
 20
9.3789776001
 30
0.0
 10
12.4247893858
 20
9.3852175435
 30
0.0
 10
12.4283935425
 20
9.3910910759
 30
0.0
 10
12.4320146813
 20
9.3965934113
 30
0.0
 10
12.4356498375
 20
9.4017201247
 30
0.0
 10
12.4392961724
 20
9.4064670586
 30
0.0
 10
12.4429507786
 20
9.410830432
 30
0.0
 10
12.4466108961
 20
9.4148067177
 30
0.0
 10
12.4502737586
 20
9.4183927341
 30
0.0
 10
12.4539367331
 20
9.4215855358
 30
0.0
 10
12.4575972612
 20
9.4243824112
 30
0.0
 10
12.4612528513
 20
9.4267808412
 30
0.0
 10
12.4649010823
 20
9.4287783374
 30
0.0
 10
12.4685394191
 20
9.4303725498
 30
0.0
 10
12.472165105
 20
9.4315610072
 30
0.0
 10
12.4757751085
 20
9.4323415102
 30
0.0
 10
12.4793650782
 20
9.4327120698
 30
0.0
 10
12.4817485139
 20
9.4326848957
 30
0.0
 10
12.4829271132
 20
9.4326031648
 30
0.0
  0
SPLINE
  5
390
100
AcDbEntity
  8
0
100
AcDbSpline
 62
7
  6
CONTINUOUS
 70
0
 71
3
 72
40
 73
36
 74
0
 42
0.0000001
 43
0.0000001
 44
0.0000000001
 40
0.0
 40
0.0
 40
0.0
 40
0.0
 40
0.0762759659
 40
0.1537855326
 40
0.2318225774
 40
0.3096740349
 40
0.3866291487
 40
0.4245519099
 40
0.4619892723
 40
0.4988567136
 40
0.5350714223
 40
0.5705525658
 40
0.6052215682
 40
0.6390023979
 40
0.6718218876
 40
0.7036100572
 40
0.7343004482
 40
0.7638305023
 40
0.7921419885
 40
0.8191815074
 40
0.8449010996
 40
0.86925894
 40
0.8922202271
 40
0.9031690008
 40
0.9137594417
 40
0.9239897052
 40
0.9338587998
 40
0.9433664088
 40
0.9525132246
 40
0.9613009117
 40
0.9697322429
 40
0.9778113888
 40
0.9855438673
 40
0.9929370071
 40
1.0
 40
1.0
 40
1.0
 40
1.0
 10
12.3764195525
 20
7.8150591212
 30
0.0
 10
12.3764195525
 20
7.8240630893
 30
0.0
 10
12.3766617833
 20
7.842217431
 30
0.0
 10
12.3777185976
 20
7.8695651014
 30
0.0
 10
12.3794628111
 20
7.8970640786
 30
0.0
 10
12.3818775267
 20
7.9244464595
 30
0.0
 10
12.3844410655
 20
7.9470549336
 30
0.0
 10
12.3868139464
 20
7.9648780969
 30
0.0
 10
12.3887359739
 20
7.9779862083
 30
0.0
 10
12.3908042144
 20
7.9908678757
 30
0.0
 10
12.3930136312
 20
8.0034917421
 30
0.0
 10
12.3953588136
 20
8.015827054
 30
0.0
 10
12.3978340244
 20
8.0278437721
 30
0.0
 10
12.4004332065
 20
8.0395126377
 30
0.0
 10
12.4031499945
 20
8.0508052512
 30
0.0
 10
12.4059777309
 20
8.0616941432
 30
0.0
 10
12.4089094861
 20
8.0721528427
 30
0.0
 10
12.4119380744
 20
8.0821559423
 30
0.0
 10
12.415056073
 20
8.0916791699
 30
0.0
 10
12.4182558423
 20
8.1006994423
 30
0.0
 10
12.4215295436
 20
8.1091949921
 30
0.0
 10
12.4248691675
 20
8.1171452316
 30
0.0
 10
12.4277441063
 20
8.1233955892
 30
0.0
 10
12.4300760932
 20
8.1281029742
 30
0.0
 10
12.4318087009
 20
8.1314292782
 30
0.0
 10
12.4335516884
 20
8.1346055362
 30
0.0
 10
12.4353039792
 20
8.13762985
 30
0.0
 10
12.4370645473
 20
8.1405003831
 30
0.0
 10
12.4388323149
 20
8.1432154193
 30
0.0
 10
12.4406062226
 20
8.145773333
 30
0.0
 10
12.4423852432
 20
8.148172581
 30
0.0
 10
12.4441682838
 20
8.1504117513
 30
0.0
 10
12.4459543686
 20
8.1524894998
 30
0.0
 10
12.4477423755
 20
8.1544045484
 30
0.0
 10
12.4489623651
 20
8.1555988029
 30
0.0
 10
12.4495726821
 20
8.1561668253
 30
0.0
  0
SPLINE
  5
391
100
AcDbEntity
  8
0
100
AcDbSpline
 62
7
  6
CONTINUOUS
 70
0
 71
3
 72
63
 73
59
 74
0
 42
0.0000001
 43
0.0000001
 44
0.0000000001
 40
0.0
 40
0.0
 40
0.0
 40
0.0
 40
0.0077404951
 40
0.0160540231
 40
0.0249601625
 40
0.0344715779
 40
0.0445947918
 40
0.0553316038
 40
0.0666797818
 40
0.0786337195
 40
0.0911849323
 40
0.1043223985
 40
0.1180328871
 40
0.1323012211
 40
0.1471104705
 40
0.1624420942
 40
0.1782761125
 40
0.1945912411
 40
0.2113649863
 40
0.2285737288
 40
0.2461928417
 40
0.2641967748
 40
0.2825591168
 40
0.3012526675
 40
0.3202495285
 40
0.3395211688
 40
0.3787712063
 40
0.4187649048
 40
0.4592577009
 40
0.5000010365
 40
0.5407443622
 40
0.5812371306
 40
0.6212307843
 40
0.6604807551
 40
0.6797523556
 40
0.6987491799
 40
0.7174426839
 40
0.7358049676
 40
0.7538088469
 40
0.7714279092
 40
0.7886365862
 40
0.8054102566
 40
0.8217253206
 40
0.837559275
 40
0.8528908158
 40
0.8676999784
 40
0.88196824
 40
0.8956786521
 40
0.908816022
 40
0.9213671416
 40
0.9333210024
 40
0.9446690929
 40
0.9554058035
 40
0.9655289264
 40
0.9750402472
 40
0.9839463523
 40
0.9922597067
 40
1.0
 40
1.0
 40
1.0
 40
1.0
 10
11.1187619885
 20
10.2568243162
 30
0.0
 10
11.1172348517
 20
10.2554032101
 30
0.0
 10
11.11394742
 20
10.2525832923
 30
0.0
 10
11.1085544678
 20
10.2485558425
 30
0.0
 10
11.1025364375
 20
10.2445891137
 30
0.0
 10
11.0959031786
 20
10.2406893669
 30
0.0
 10
11.0886649446
 20
10.2368625407
 30
0.0
 10
11.0808333135
 20
10.233114738
 30
0.0
 10
11.0724208381
 20
10.2294519874
 30
0.0
 10
11.0634411033
 20
10.2258802667
 30
0.0
 10
11.0539086781
 20
10.2224054462
 30
0.0
 10
11.0438390967
 20
10.2190332469
 30
0.0
 10
11.0332488164
 20
10.2157692364
 30
0.0
 10
11.0221551739
 20
10.2126188184
 30
0.0
 10
11.0105763581
 20
10.2095872195
 30
0.0
 10
10.9985313837
 20
10.2066794551
 30
0.0
 10
10.9860400475
 20
10.2039003423
 30
0.0
 10
10.9731228879
 20
10.2012544911
 30
0.0
 10
10.9598011561
 20
10.1987462923
 30
0.0
 10
10.9460967834
 20
10.1963798941
 30
0.0
 10
10.9320323355
 20
10.1941592165
 30
0.0
 10
10.9176309736
 20
10.1920879436
 30
0.0
 10
10.9029164186
 20
10.1901695072
 30
0.0
 10
10.8879129215
 20
10.1884070822
 30
0.0
 10
10.8726451833
 20
10.186803568
 30
0.0
 10
10.8518431924
 20
10.1848693259
 30
0.0
 10
10.8253658016
 20
10.1828737511
 30
0.0
 10
10.7931396567
 20
10.1811619588
 30
0.0
 10
10.7604819161
 20
10.1801303169
 30
0.0
 10
10.7276077367
 20
10.1797856807
 30
0.0
 10
10.6947335653
 20
10.1801303666
 30
0.0
 10
10.6620758487
 20
10.1811620625
 30
0.0
 10
10.6298497437
 20
10.1828738997
 30
0.0
 10
10.6033723972
 20
10.1848695196
 30
0.0
 10
10.5825704483
 20
10.1868037965
 30
0.0
 10
10.5673027453
 20
10.1884073281
 30
0.0
 10
10.5522992894
 20
10.1901697769
 30
0.0
 10
10.5375847813
 20
10.192088242
 30
0.0
 10
10.5231834667
 20
10.194159536
 30
0.0
 10
10.5091190677
 20
10.1963802295
 30
0.0
 10
10.4954147512
 20
10.1987466513
 30
0.0
 10
10.4820930806
 20
10.2012548766
 30
0.0
 10
10.4691759804
 20
10.2039007444
 30
0.0
 10
10.4566847056
 20
10.206679871
 30
0.0
 10
10.4446398015
 20
10.2095876586
 30
0.0
 10
10.4330610592
 20
10.2126192805
 30
0.0
 10
10.4219674861
 20
10.2157697102
 30
0.0
 10
10.4113772786
 20
10.2190337327
 30
0.0
 10
10.4013077801
 20
10.222405954
 30
0.0
 10
10.3917754381
 20
10.2258807929
 30
0.0
 10
10.3827957807
 20
10.2294525203
 30
0.0
 10
10.3743833875
 20
10.2331152809
 30
0.0
 10
10.3665518497
 20
10.2368631043
 30
0.0
 10
10.3593137107
 20
10.2406899439
 30
0.0
 10
10.3526805194
 20
10.244589689
 30
0.0
 10
10.3466625971
 20
10.2485564352
 30
0.0
 10
10.3412697772
 20
10.2525838752
 30
0.0
 10
10.3379824329
 20
10.2554037409
 30
0.0
 10
10.3364553604
 20
10.2568248364
 30
0.0
  0
SPLINE
  5
392
100
AcDbEntity
  8
0
100
AcDbSpline
 62
7
  6
CONTINUOUS
 70
0
 71
3
 72
21
 73
17
 74
0
 42
0.0000001
 43
0.0000001
 44
0.0000000001
 40
0.0
 40
0.0
 40
0.0
 40
0.0
 40
0.06165322
 40
0.1233294719
 40
0.1850515326
 40
0.2468416528
 40
0.308721334
 40
0.3707110997
 40
0.4328302469
 40
0.4950966389
 40
0.5575265783
 40
0.620134583
 40
0.6829331586
 40
0.745933179
 40
0.8725262751
 40
1.0
 40
1.0
 40
1.0
 40
1.0
 10
9.5655718756
 20
8.8769919032
 30
0.0
 10
9.5671485684
 20
8.8785148622
 30
0.0
 10
9.5703851729
 20
8.8814771189
 30
0.0
 10
9.5754728229
 20
8.8856540451
 30
0.0
 10
9.5807814082
 20
8.8895548694
 30
0.0
 10
9.5862973641
 20
8.8931695963
 30
0.0
 10
9.5920068219
 20
8.8964891968
 30
0.0
 10
9.5978953874
 20
8.8995052954
 30
0.0
 10
9.6039482374
 20
8.9022102814
 30
0.0
 10
9.6101501003
 20
8.9045973853
 30
0.0
 10
9.6164853659
 20
8.9066606135
 30
0.0
 10
9.6229380348
 20
8.9083947492
 30
0.0
 10
9.6294920352
 20
8.9097954746
 30
0.0
 10
9.6383562638
 20
8.9112160016
 30
0.0
 10
9.6496124205
 20
8.9121388797
 30
0.0
 10
9.6586616915
 20
8.9119622726
 30
0.0
 10
9.6631832298
 20
8.9116487028
 30
0.0
  0
SPLINE
  5
393
100
AcDbEntity
  8
0
100
AcDbSpline
 62
7
  6
CONTINUOUS
 70
0
 71
3
 72
21
 73
17
 74
0
 42
0.0000001
 43
0.0000001
 44
0.0000000001
 40
0.0
 40
0.0
 40
0.0
 40
0.0
 40
0.06165322
 40
0.1233294719
 40
0.1850515326
 40
0.2468416528
 40
0.308721334
 40
0.3707110997
 40
0.4328302469
 40
0.4950966389
 40
0.5575265783
 40
0.620134583
 40
0.6829331586
 40
0.745933179
 40
0.8725262751
 40
1.0
 40
1.0
 40
1.0
 40
1.0
 10
11.9803865844
 20
9.9169312887
 30
0.0
 10
11.9819632772
 20
9.9184542477
 30
0.0
 10
11.9851998817
 20
9.9214165044
 30
0.0
 10
11.9902875317
 20
9.9255934307
 30
0.0
 10
11.995596117
 20
9.929494255
 30
0.0
 10
12.0011120729
 20
9.9331089819
 30
0.0
 10
12.0068215307
 20
9.9364285824
 30
0.0
 10
12.0127100962
 20
9.9394446809
 30
0.0
 10
12.0187629462
 20
9.9421496669
 30
0.0
 10
12.0249648091
 20
9.9445367708
 30
0.0
 10
12.0313000747
 20
9.946599999
 30
0.0
 10
12.0377527436
 20
9.9483341347
 30
0.0
 10
12.044306744
 20
9.9497348601
 30
0.0
 10
12.0531709726
 20
9.9511553871
 30
0.0
 10
12.0644271293
 20
9.9520782653
 30
0.0
 10
12.0734764003
 20
9.9519016581
 30
0.0
 10
12.0779979387
 20
9.9515880884
 30
0.0
  0
SPLINE
  5
394
100
AcDbEntity
  8
0
100
AcDbSpline
 62
7
  6
CONTINUOUS
 70
0
 71
3
 72
48
 73
44
 74
0
 42
0.0000001
 43
0.0000001
 44
0.0000000001
 40
0.0
 40
0.0
 40
0.0
 40
0.0
 40
0.0063158899
 40
0.0126706797
 40
0.0191025165
 40
0.025648058
 40
0.0323419221
 40
0.0392162652
 40
0.0536140552
 40
0.0611947659
 40
0.0690564915
 40
0.0772175997
 40
0.0856939645
 40
0.0944993396
 40
0.103645447
 40
0.1131421893
 40
0.122997946
 40
0.1332195527
 40
0.1438126331
 40
0.1547816545
 40
0.1661299881
 40
0.1778601838
 40
0.1899738557
 40
0.215353302
 40
0.2422691224
 40
0.2707113841
 40
0.3006623731
 40
0.332097648
 40
0.3649869327
 40
0.3992948208
 40
0.434981328
 40
0.4720023222
 40
0.5103099054
 40
0.5498527799
 40
0.590576537
 40
0.632423903
 40
0.6753349407
 40
0.7192473098
 40
0.7640964278
 40
0.8098157282
 40
0.8563368617
 40
0.9035891153
 40
1.0
 40
1.0
 40
1.0
 40
1.0
 10
12.4148505374
 20
8.4509608837
 30
0.0
 10
12.4140189638
 20
8.4510185498
 30
0.0
 10
12.4123546254
 20
8.4512023083
 30
0.0
 10
12.4098767609
 20
8.4516812429
 30
0.0
 10
12.4074154657
 20
8.4523635329
 30
0.0
 10
12.4049721729
 20
8.4532485922
 30
0.0
 10
12.4025478318
 20
8.4543359043
 30
0.0
 10
12.3992926128
 20
8.4560808699
 30
0.0
 10
12.3961257716
 20
8.4582169421
 30
0.0
 10
12.3930610952
 20
8.4606923482
 30
0.0
 10
12.3907462167
 20
8.4627793962
 30
0.0
 10
12.3884560747
 20
8.4650636924
 30
0.0
 10
12.386191211
 20
8.4675443946
 30
0.0
 10
12.3839525741
 20
8.4702204515
 30
0.0
 10
12.3817409832
 20
8.4730907704
 30
0.0
 10
12.3795572686
 20
8.476154166
 30
0.0
 10
12.3774023185
 20
8.4794094209
 30
0.0
 10
12.3752769396
 20
8.4828551919
 30
0.0
 10
12.3731819946
 20
8.4864900933
 30
0.0
 10
12.3711183293
 20
8.4903126527
 30
0.0
 10
12.3690867485
 20
8.4943213019
 30
0.0
 10
12.3670880916
 20
8.4985144319
 30
0.0
 10
12.364426788
 20
8.5044413132
 30
0.0
 10
12.3611971586
 20
8.5123073556
 30
0.0
 10
12.3575235082
 20
8.52231208
 30
0.0
 10
12.3539998781
 20
8.5330076181
 30
0.0
 10
12.3506320826
 20
8.5443764682
 30
0.0
 10
12.3474256812
 20
8.556400173
 30
0.0
 10
12.3443859932
 20
8.5690590738
 30
0.0
 10
12.3415180729
 20
8.582332446
 30
0.0
 10
12.3388266989
 20
8.5961985155
 30
0.0
 10
12.3363163556
 20
8.610634502
 30
0.0
 10
12.3339912205
 20
8.6256166602
 30
0.0
 10
12.3318551683
 20
8.6411203297
 30
0.0
 10
12.3299117604
 20
8.657119981
 30
0.0
 10
12.3281642406
 20
8.6735892545
 30
0.0
 10
12.3266155164
 20
8.6905010051
 30
0.0
 10
12.3252681688
 20
8.7078273466
 30
0.0
 10
12.3241244419
 20
8.7255397131
 30
0.0
 10
12.3231862518
 20
8.7436088946
 30
0.0
 10
12.3224551542
 20
8.7620050762
 30
0.0
 10
12.3217534945
 20
8.7870961727
 30
0.0
 10
12.3215499602
 20
8.8060578176
 30
0.0
 10
12.3215499602
 20
8.8187821185
 30
0.0
  0
SPLINE
  5
395
100
AcDbEntity
  8
0
100
AcDbSpline
 62
7
  6
CONTINUOUS
 70
0
 71
3
 72
37
 73
33
 74
0
 42
0.0000001
 43
0.0000001
 44
0.0000000001
 40
0.0
 40
0.0
 40
0.0
 40
0.0
 40
0.0063398436
 40
0.0128074085
 40
0.0262345872
 40
0.0404983052
 40
0.0557682835
 40
0.0721776403
 40
0.0898274268
 40
0.1087922354
 40
0.1291250433
 40
0.1508612246
 40
0.1740221495
 40
0.1986175498
 40
0.2246475106
 40
0.2521042458
 40
0.2809730062
 40
0.3112331466
 40
0.3428589962
 40
0.3758201632
 40
0.4100822489
 40
0.4456072559
 40
0.4823536978
 40
0.5202771536
 40
0.5593304187
 40
0.5994636044
 40
0.6406245806
 40
0.6827589951
 40
0.7258103779
 40
0.8144282064
 40
0.90599351
 40
1.0
 40
1.0
 40
1.0
 40
1.0
 10
12.3924042294
 20
8.6364238769
 30
0.0
 10
12.3919086912
 20
8.636569408
 30
0.0
 10
12.3909183041
 20
8.6369011708
 30
0.0
 10
12.3889445024
 20
8.6377245169
 30
0.0
 10
12.38649451
 20
8.6390625547
 30
0.0
 10
12.38364697
 20
8.6411099876
 30
0.0
 10
12.3808568139
 20
8.6436141019
 30
0.0
 10
12.3781270513
 20
8.6465700106
 30
0.0
 10
12.3754601095
 20
8.6499730636
 30
0.0
 10
12.3728589889
 20
8.6538183293
 30
0.0
 10
12.3703268799
 20
8.6581003701
 30
0.0
 10
12.3678671067
 20
8.6628130873
 30
0.0
 10
12.3654831251
 20
8.6679497305
 30
0.0
 10
12.3631783711
 20
8.6735028373
 30
0.0
 10
12.3609562174
 20
8.6794642564
 30
0.0
 10
12.3588200126
 20
8.6858251842
 30
0.0
 10
12.356772962
 20
8.6925761566
 30
0.0
 10
12.3548181566
 20
8.6997070883
 30
0.0
 10
12.3529585949
 20
8.707207298
 30
0.0
 10
12.3511970894
 20
8.7150655144
 30
0.0
 10
12.3495363272
 20
8.7232699115
 30
0.0
 10
12.3479788634
 20
8.7318081276
 30
0.0
 10
12.346527054
 20
8.7406672799
 30
0.0
 10
12.3451831246
 20
8.7498339941
 30
0.0
 10
12.3439491399
 20
8.7592944236
 30
0.0
 10
12.3428269627
 20
8.7690342705
 30
0.0
 10
12.341818326
 20
8.7790388071
 30
0.0
 10
12.3409247562
 20
8.7892929171
 30
0.0
 10
12.3398785532
 20
8.8034132025
 30
0.0
 10
12.3388760271
 20
8.8215729776
 30
0.0
 10
12.3381597654
 20
8.8438996722
 30
0.0
 10
12.3380041773
 20
8.8590175694
 30
0.0
 10
12.3380041773
 20
8.8666756735
 30
0.0
  0
SPLINE
  5
396
100
AcDbEntity
  8
0
100
AcDbSpline
 62
7
  6
CONTINUOUS
 70
0
 71
3
 72
50
 73
46
 74
0
 42
0.0000001
 43
0.0000001
 44
0.0000000001
 40
0.0
 40
0.0
 40
0.0
 40
0.0
 40
0.0054464999
 40
0.0110657923
 40
0.0169073219
 40
0.0230145274
 40
0.0294246487
 40
0.0361690469
 40
0.0432737047
 40
0.0507597799
 40
0.0586443259
 40
0.0669406986
 40
0.0756592844
 40
0.0848076791
 40
0.0943913461
 40
0.1044136326
 40
0.1148763118
 40
0.1257795433
 40
0.1371222611
 40
0.1489021686
 40
0.1611159515
 40
0.1737593617
 40
0.1868272572
 40
0.20031379
 40
0.2285147349
 40
0.2583027247
 40
0.2896081617
 40
0.3223534961
 40
0.3564541613
 40
0.3918193618
 40
0.4283527584
 40
0.4659530818
 40
0.5045146956
 40
0.5439281249
 40
0.5840805618
 40
0.6248563528
 40
0.6661374744
 40
0.7078040014
 40
0.7497345644
 40
0.7918068251
 40
0.8338978789
 40
0.8758848737
 40
0.9176450098
 40
0.959057109
 40
1.0
 40
1.0
 40
1.0
 40
1.0
 10
12.4350954922
 20
9.2520139501
 30
0.0
 10
12.4343596904
 20
9.2519048706
 30
0.0
 10
12.4328757304
 20
9.2516019909
 30
0.0
 10
12.4306684627
 20
9.2509120976
 30
0.0
 10
12.4284530503
 20
9.2499822041
 30
0.0
 10
12.4262314781
 20
9.2488136308
 30
0.0
 10
12.424005108
 20
9.2474077494
 30
0.0
 10
12.4217753945
 20
9.2457659324
 30
0.0
 10
12.4195437719
 20
9.2438895999
 30
0.0
 10
12.4173116867
 20
9.2417802923
 30
0.0
 10
12.4150806935
 20
9.2394396168
 30
0.0
 10
12.4128523064
 20
9.2368693944
 30
0.0
 10
12.4106281856
 20
9.2340715315
 30
0.0
 10
12.4084099024
 20
9.2310481825
 30
0.0
 10
12.4061991746
 20
9.2278016051
 30
0.0
 10
12.4039976135
 20
9.2243342991
 30
0.0
 10
12.4018069488
 20
9.2206488882
 30
0.0
 10
12.3996288194
 20
9.2167482137
 30
0.0
 10
12.3974649356
 20
9.2126352605
 30
0.0
 10
12.3953169535
 20
9.2083132036
 30
0.0
 10
12.3931865445
 20
9.2037853757
 30
0.0
 10
12.3910753754
 20
9.1990552778
 30
0.0
 10
12.3889850528
 20
9.1941265698
 30
0.0
 10
12.3861862411
 20
9.1871916402
 30
0.0
 10
12.3827598697
 20
9.1780492649
 30
0.0
 10
12.3788154889
 20
9.1665080123
 30
0.0
 10
12.3749918854
 20
9.154274444
 30
0.0
 10
12.3713010478
 20
9.1413865417
 30
0.0
 10
12.3677545569
 20
9.1278842246
 30
0.0
 10
12.3643635348
 20
9.1138094164
 30
0.0
 10
12.3611386121
 20
9.0992058443
 30
0.0
 10
12.3580898934
 20
9.0841189119
 30
0.0
 10
12.3552269266
 20
9.0685955468
 30
0.0
 10
12.3525586731
 20
9.0526840515
 30
0.0
 10
12.3500934807
 20
9.0364339484
 30
0.0
 10
12.3478390582
 20
9.0198958237
 30
0.0
 10
12.3458024516
 20
9.003121167
 30
0.0
 10
12.3439900234
 20
8.9861622099
 30
0.0
 10
12.3424074312
 20
8.9690717604
 30
0.0
 10
12.341059614
 20
8.951903043
 30
0.0
 10
12.3399507686
 20
8.9347095139
 30
0.0
 10
12.3390843549
 20
8.9175447453
 30
0.0
 10
12.3384630489
 20
8.9004621255
 30
0.0
 10
12.3380887935
 20
8.8835149642
 30
0.0
 10
12.3380041773
 20
8.8722673548
 30
0.0
 10
12.3380041773
 20
8.8666756735
 30
0.0
  0
SPLINE
  5
397
100
AcDbEntity
  8
0
100
AcDbSpline
 62
7
  6
CONTINUOUS
 70
0
 71
3
 72
31
 73
27
 74
0
 42
0.0000001
 43
0.0000001
 44
0.0000000001
 40
0.0
 40
0.0
 40
0.0
 40
0.0
 40
0.0162145343
 40
0.0334277252
 40
0.051672285
 40
0.0709715222
 40
0.091341237
 40
0.1127904537
 40
0.135322931
 40
0.1589374045
 40
0.183628751
 40
0.2093880264
 40
0.2362032861
 40
0.2640596266
 40
0.2929396643
 40
0.322823699
 40
0.3536898762
 40
0.385514511
 40
0.4519334682
 40
0.521859237
 40
0.5950454769
 40
0.6712259174
 40
0.7501167678
 40
0.8314193803
 40
0.914821165
 40
1.0
 40
1.0
 40
1.0
 40
1.0
 10
12.4121433332
 20
7.6164522081
 30
0.0
 10
12.4114465194
 20
7.6173089833
 30
0.0
 10
12.4100686456
 20
7.6191235771
 30
0.0
 10
12.4081036088
 20
7.6220451668
 30
0.0
 10
12.4061817961
 20
7.6252430551
 30
0.0
 10
12.4043051297
 20
7.6287138311
 30
0.0
 10
12.40247548
 20
7.632454046
 30
0.0
 10
12.4006946491
 20
7.6364598496
 30
0.0
 10
12.3989645172
 20
7.6407271478
 30
0.0
 10
12.3972868271
 20
7.6452515206
 30
0.0
 10
12.3956633772
 20
7.6500282856
 30
0.0
 10
12.3940958353
 20
7.6550524654
 30
0.0
 10
12.3925858805
 20
7.6603188213
 30
0.0
 10
12.3911350915
 20
7.6658218443
 30
0.0
 10
12.3897450079
 20
7.6715557717
 30
0.0
 10
12.3884171112
 20
7.6775145879
 30
0.0
 10
12.3871527754
 20
7.6836920461
 30
0.0
 10
12.3855304733
 20
7.6923350144
 30
0.0
 10
12.3836806029
 20
7.7036403749
 30
0.0
 10
12.3817638823
 20
7.7177836545
 30
0.0
 10
12.3801282205
 20
7.7326311318
 30
0.0
 10
12.378780648
 20
7.7481203446
 30
0.0
 10
12.3777269939
 20
7.7641862333
 30
0.0
 10
12.3769718257
 20
7.780761197
 30
0.0
 10
12.3765184098
 20
7.7977754564
 30
0.0
 10
12.3764195525
 20
7.8092576483
 30
0.0
 10
12.3764195525
 20
7.8150591212
 30
0.0
  0
SPLINE
  5
398
100
AcDbEntity
  8
0
100
AcDbSpline
 62
7
  6
CONTINUOUS
 70
0
 71
3
 72
55
 73
51
 74
0
 42
0.0000001
 43
0.0000001
 44
0.0000000001
 40
0.0
 40
0.0
 40
0.0
 40
0.0
 40
0.045211162
 40
0.0910030644
 40
0.1371917269
 40
0.1835902005
 40
0.2300109467
 40
0.2762661423
 40
0.3221688651
 40
0.3675339951
 40
0.4121792041
 40
0.4559259321
 40
0.4986003863
 40
0.5400345638
 40
0.580067315
 40
0.618545467
 40
0.6553250365
 40
0.6902725846
 40
0.7070214501
 40
0.723267876
 40
0.7389989698
 40
0.7542027338
 40
0.768868409
 40
0.7829863417
 40
0.7965483166
 40
0.8095475488
 40
0.8219789609
 40
0.8338393781
 40
0.8451277516
 40
0.8558456112
 40
0.865997302
 40
0.8755907316
 40
0.8846377541
 40
0.8931552338
 40
0.9011657535
 40
0.9086989676
 40
0.9157927002
 40
0.9224943372
 40
0.9288618476
 40
0.9349642641
 40
0.9408811393
 40
0.94670044
 40
0.9525150069
 40
0.9584179242
 40
0.964497831
 40
0.9708352625
 40
0.9775003418
 40
0.9845521726
 40
0.9920391383
 40
1.0
 40
1.0
 40
1.0
 40
1.0
 10
12.5213580981
 20
7.955059014
 30
0.0
 10
12.5213580981
 20
7.9490891907
 30
0.0
 10
12.5212516296
 20
7.9370726196
 30
0.0
 10
12.5207821587
 20
7.9189626669
 30
0.0
 10
12.5200036872
 20
7.9007064064
 30
0.0
 10
12.5189195379
 20
7.882382593
 30
0.0
 10
12.5175343873
 20
7.8640702587
 30
0.0
 10
12.515854209
 20
7.8458483632
 30
0.0
 10
12.5138862678
 20
7.8277954829
 30
0.0
 10
12.5116390799
 20
7.8099894559
 30
0.0
 10
12.50912238
 20
7.792507047
 30
0.0
 10
12.506347079
 20
7.7754236108
 30
0.0
 10
12.5033252187
 20
7.7588127635
 30
0.0
 10
12.5000699213
 20
7.7427460532
 30
0.0
 10
12.4965953324
 20
7.7272926587
 30
0.0
 10
12.4929165702
 20
7.7125190179
 30
0.0
 10
12.4890496285
 20
7.6984887346
 30
0.0
 10
12.4856378606
 20
7.6873134651
 30
0.0
 10
12.4828195437
 20
7.6787959101
 30
0.0
 10
12.4806992974
 20
7.6727209875
 30
0.0
 10
12.4785449047
 20
7.6668750363
 30
0.0
 10
12.4763586332
 20
7.6612643381
 30
0.0
 10
12.4741428896
 20
7.65589491
 30
0.0
 10
12.4719000305
 20
7.6507725144
 30
0.0
 10
12.4696325008
 20
7.6459026277
 30
0.0
 10
12.467342724
 20
7.6412904547
 30
0.0
 10
12.4650331612
 20
7.6369409074
 30
0.0
 10
12.462706288
 20
7.6328585993
 30
0.0
 10
12.4603645526
 20
7.6290478549
 30
0.0
 10
12.4580104522
 20
7.6255126667
 30
0.0
 10
12.4556463854
 20
7.622256754
 30
0.0
 10
12.4532748129
 20
7.6192834723
 30
0.0
 10
12.4508980308
 20
7.6165959365
 30
0.0
 10
12.4485183685
 20
7.6141968964
 30
0.0
 10
12.4461379491
 20
7.6120889233
 30
0.0
 10
12.4437588698
 20
7.6102743117
 30
0.0
 10
12.4413830607
 20
7.6087553009
 30
0.0
 10
12.4390124624
 20
7.607534076
 30
0.0
 10
12.4366491334
 20
7.6066128939
 30
0.0
 10
12.4342955121
 20
7.6059940959
 30
0.0
 10
12.4319547114
 20
7.6056797611
 30
0.0
 10
12.4296305791
 20
7.6056714832
 30
0.0
 10
12.4273274692
 20
7.6059695828
 30
0.0
 10
12.4250496929
 20
7.6065732753
 30
0.0
 10
12.4228009135
 20
7.6074805076
 30
0.0
 10
12.4205840232
 20
7.6086888563
 30
0.0
 10
12.4184011503
 20
7.6101956136
 30
0.0
 10
12.4162540539
 20
7.611998321
 30
0.0
 10
12.4141444225
 20
7.6140943747
 30
0.0
 10
12.4128065898
 20
7.6156366936
 30
0.0
 10
12.4121433332
 20
7.6164522081
 30
0.0
  0
SPLINE
  5
399
100
AcDbEntity
  8
0
100
AcDbSpline
 62
7
  6
CONTINUOUS
 70
0
 71
3
 72
19
 73
15
 74
0
 42
0.0000001
 43
0.0000001
 44
0.0000000001
 40
0.0
 40
0.0
 40
0.0
 40
0.0
 40
0.1496627649
 40
0.2896711955
 40
0.4209836499
 40
0.5448409398
 40
0.6044657355
 40
0.6628177373
 40
0.7201285014
 40
0.7766439894
 40
0.8326215323
 40
0.8883268014
 40
0.9440296577
 40
1.0
 40
1.0
 40
1.0
 40
1.0
 10
10.3814618166
 20
10.2629678705
 30
0.0
 10
10.3803446432
 20
10.2618887639
 30
0.0
 10
10.378256277
 20
10.2597211472
 30
0.0
 10
10.3754999244
 20
10.2563236589
 30
0.0
 10
10.3732336022
 20
10.2528969608
 30
0.0
 10
10.3717386859
 20
10.2499827358
 30
0.0
 10
10.3708059561
 20
10.2476510885
 30
0.0
 10
10.3702400148
 20
10.2459207629
 30
0.0
 10
10.3697992725
 20
10.244187641
 30
0.0
 10
10.3694839155
 20
10.242452347
 30
0.0
 10
10.3692941807
 20
10.2407155916
 30
0.0
 10
10.3692301845
 20
10.238978069
 30
0.0
 10
10.3692919161
 20
10.2372406283
 30
0.0
 10
10.3694164285
 20
10.2360871908
 30
0.0
 10
10.3694991264
 20
10.2355122334
 30
0.0
  0
SPLINE
  5
39A
100
AcDbEntity
  8
0
100
AcDbSpline
 62
7
  6
CONTINUOUS
 70
0
 71
3
 72
42
 73
38
 74
0
 42
0.0000001
 43
0.0000001
 44
0.0000000001
 40
0.0
 40
0.0
 40
0.0
 40
0.0
 40
0.0311444347
 40
0.0467772112
 40
0.0624471461
 40
0.093891844
 40
0.1254739796
 40
0.1571813629
 40
0.1889992234
 40
0.2209106216
 40
0.2528967716
 40
0.2849374315
 40
0.3170113014
 40
0.34909644
 40
0.3811706886
 40
0.4132120984
 40
0.4451993552
 40
0.4771121951
 40
0.5089318057
 40
0.5406412074
 40
0.572225607
 40
0.6036727182
 40
0.6349730419
 40
0.6661200987
 40
0.6971106068
 40
0.7279445994
 40
0.7586254742
 40
0.7891599701
 40
0.8195580671
 40
0.8498328085
 40
0.864931571
 40
0.8800056544
 40
0.910083706
 40
0.9400929707
 40
0.9550814956
 40
0.9700611828
 40
1.0
 40
1.0
 40
1.0
 40
1.0
 10
12.0779979387
 20
9.6801629151
 30
0.0
 10
12.0746839648
 20
9.68039274
 30
0.0
 10
12.0697167491
 20
9.6809197318
 30
0.0
 10
12.063139714
 20
9.68197877
 30
0.0
 10
12.0565731204
 20
9.6832789438
 30
0.0
 10
12.0484306579
 20
9.6853495897
 30
0.0
 10
12.0388303746
 20
9.6885278671
 30
0.0
 10
12.0294392545
 20
9.6923857543
 30
0.0
 10
12.0203076519
 20
9.696902561
 30
0.0
 10
12.011484143
 20
9.7020541624
 30
0.0
 10
12.0030157636
 20
9.7078130494
 30
0.0
 10
11.9949476284
 20
9.7141484931
 30
0.0
 10
11.9873227293
 20
9.7210267037
 30
0.0
 10
11.9801816994
 20
9.72841101
 30
0.0
 10
11.9735626011
 20
9.7362620528
 30
0.0
 10
11.9675007246
 20
9.7445379927
 30
0.0
 10
11.9620284017
 20
9.753194731
 30
0.0
 10
11.9571748347
 20
9.7621861419
 30
0.0
 10
11.9529659417
 20
9.7714643152
 30
0.0
 10
11.9494242187
 20
9.7809798089
 30
0.0
 10
11.9465686197
 20
9.7906819091
 30
0.0
 10
11.9444144551
 20
9.8005188964
 30
0.0
 10
11.942973308
 20
9.8104383181
 30
0.0
 10
11.9422529703
 20
9.8203872648
 30
0.0
 10
11.9422573967
 20
9.8303126463
 30
0.0
 10
11.942986684
 20
9.8401614821
 30
0.0
 10
11.944437046
 20
9.8498811439
 30
0.0
 10
11.9466008992
 20
9.8594197776
 30
0.0
 10
11.9494666305
 20
9.8687260544
 30
0.0
 10
11.9524302706
 20
9.8762542822
 30
0.0
 10
11.9551347355
 20
9.8821086443
 30
0.0
 10
11.9580533794
 20
9.8878357084
 30
0.0
 10
11.962105741
 20
9.8947628909
 30
0.0
 10
11.9666792986
 20
9.9013465504
 30
0.0
 10
11.9706315225
 20
9.9063789319
 30
0.0
 10
11.9747722767
 20
9.9112470571
 30
0.0
 10
11.9780897534
 20
9.9147127338
 30
0.0
 10
11.9803865844
 20
9.9169312887
 30
0.0
  0
SPLINE
  5
39B
100
AcDbEntity
  8
0
100
AcDbSpline
 62
7
  6
CONTINUOUS
 70
0
 71
3
 72
14
 73
10
 74
0
 42
0.0000001
 43
0.0000001
 44
0.0000000001
 40
0.0
 40
0.0
 40
0.0
 40
0.0
 40
0.1426701207
 40
0.2795731878
 40
0.5371651323
 40
0.6587201797
 40
0.7760154779
 40
0.8895793406
 40
1.0
 40
1.0
 40
1.0
 40
1.0
 10
10.3871200794
 20
10.2489152138
 30
0.0
 10
10.3864349543
 20
10.2482534337
 30
0.0
 10
10.3851212196
 20
10.2469260739
 30
0.0
 10
10.3827280277
 20
10.2442538367
 30
0.0
 10
10.3806346309
 20
10.2415051732
 30
0.0
 10
10.3788901196
 20
10.23868442
 30
0.0
 10
10.3777914449
 20
10.2366014231
 30
0.0
 10
10.376878122
 20
10.2345116719
 30
0.0
 10
10.3763872237
 20
10.2330970698
 30
0.0
 10
10.3761746574
 20
10.2323911466
 30
0.0
  0
SPLINE
  5
39C
100
AcDbEntity
  8
0
100
AcDbSpline
 62
7
  6
CONTINUOUS
 70
0
 71
3
 72
21
 73
17
 74
0
 42
0.0000001
 43
0.0000001
 44
0.0000000001
 40
0.0
 40
0.0
 40
0.0
 40
0.0
 40
0.06165322
 40
0.1233294719
 40
0.1850515326
 40
0.2468416528
 40
0.308721334
 40
0.3707110997
 40
0.4328302469
 40
0.4950966389
 40
0.5575265783
 40
0.620134583
 40
0.6829331586
 40
0.745933179
 40
0.8725262751
 40
1.0
 40
1.0
 40
1.0
 40
1.0
 10
9.7607945841
 20
8.6748803293
 30
0.0
 10
9.7592178913
 20
8.6733573702
 30
0.0
 10
9.7559812868
 20
8.6703951135
 30
0.0
 10
9.7508936368
 20
8.6662181873
 30
0.0
 10
9.7455850515
 20
8.662317363
 30
0.0
 10
9.7400690956
 20
8.6587026361
 30
0.0
 10
9.7343596378
 20
8.6553830356
 30
0.0
 10
9.7284710723
 20
8.652366937
 30
0.0
 10
9.7224182223
 20
8.649661951
 30
0.0
 10
9.7162163594
 20
8.6472748472
 30
0.0
 10
9.7098810938
 20
8.6452116189
 30
0.0
 10
9.7034284249
 20
8.6434774832
 30
0.0
 10
9.6968744245
 20
8.6420767578
 30
0.0
 10
9.6880101959
 20
8.6406562308
 30
0.0
 10
9.6767540392
 20
8.6397333527
 30
0.0
 10
9.6677047682
 20
8.6399099598
 30
0.0
 10
9.6631832298
 20
8.6402235296
 30
0.0
  0
SPLINE
  5
39D
100
AcDbEntity
  8
0
100
AcDbSpline
 62
7
  6
CONTINUOUS
 70
0
 71
3
 72
21
 73
17
 74
0
 42
0.0000001
 43
0.0000001
 44
0.0000000001
 40
0.0
 40
0.0
 40
0.0
 40
0.0
 40
0.06165322
 40
0.1233294719
 40
0.1850515326
 40
0.2468416528
 40
0.308721334
 40
0.3707110997
 40
0.4328302469
 40
0.4950966389
 40
0.5575265783
 40
0.620134583
 40
0.6829331586
 40
0.745933179
 40
0.8725262751
 40
1.0
 40
1.0
 40
1.0
 40
1.0
 10
12.1756092929
 20
9.7148197148
 30
0.0
 10
12.1740326001
 20
9.7132967558
 30
0.0
 10
12.1707959956
 20
9.7103344991
 30
0.0
 10
12.1657083456
 20
9.7061575728
 30
0.0
 10
12.1603997603
 20
9.7022567486
 30
0.0
 10
12.1548838044
 20
9.6986420216
 30
0.0
 10
12.1491743466
 20
9.6953224211
 30
0.0
 10
12.1432857811
 20
9.6923063226
 30
0.0
 10
12.1372329311
 20
9.6896013366
 30
0.0
 10
12.1310310682
 20
9.6872142327
 30
0.0
 10
12.1246958026
 20
9.6851510045
 30
0.0
 10
12.1182431337
 20
9.6834168688
 30
0.0
 10
12.1116891333
 20
9.6820161434
 30
0.0
 10
12.1028249047
 20
9.6805956164
 30
0.0
 10
12.091568748
 20
9.6796727382
 30
0.0
 10
12.082519477
 20
9.6798493454
 30
0.0
 10
12.0779979387
 20
9.6801629151
 30
0.0
  0
SPLINE
  5
39E
100
AcDbEntity
  8
0
100
AcDbSpline
 62
7
  6
CONTINUOUS
 70
0
 71
3
 72
83
 73
79
 74
0
 42
0.0000001
 43
0.0000001
 44
0.0000000001
 40
0.0
 40
0.0
 40
0.0
 40
0.0
 40
0.0040142996
 40
0.0081959991
 40
0.0125493765
 40
0.0170780492
 40
0.0217850819
 40
0.0266729152
 40
0.0317432411
 40
0.036997223
 40
0.0424355608
 40
0.0480584958
 40
0.0538659434
 40
0.0598574028
 40
0.0723883694
 40
0.0856421632
 40
0.0996049452
 40
0.1142594201
 40
0.1295852564
 40
0.1455594508
 40
0.1621566257
 40
0.1793492677
 40
0.1971079236
 40
0.2154013703
 40
0.2341967943
 40
0.2534599397
 40
0.2731552414
 40
0.2932459409
 40
0.3136942134
 40
0.3344612946
 40
0.3555075923
 40
0.3767927934
 40
0.4199148982
 40
0.4634956432
 40
0.5071976222
 40
0.5506822167
 40
0.5936129776
 40
0.6147673825
 40
0.6356598951
 40
0.6562505932
 40
0.6765003346
 40
0.6963708815
 40
0.7158250086
 40
0.7348266173
 40
0.7533408593
 40
0.7713342791
 40
0.7887749623
 40
0.8056326759
 40
0.8218790356
 40
0.8374877012
 40
0.8524346214
 40
0.8666982877
 40
0.8802600446
 40
0.8931044839
 40
0.9052199568
 40
0.916599236
 40
0.9220123506
 40
0.927241164
 40
0.9322864622
 40
0.9371494938
 40
0.941832036
 40
0.9463365321
 40
0.9506660528
 40
0.9548244924
 40
0.9588166118
 40
0.9626481289
 40
0.966325923
 40
0.9698580553
 40
0.9732539776
 40
0.9765246247
 40
0.9796824768
 40
0.9827416837
 40
0.9857179836
 40
0.9886286513
 40
0.9914922951
 40
0.9943285357
 40
0.9971576308
 40
1.0
 40
1.0
 40
1.0
 40
1.0
 10
10.3814618166
 20
10.2629678705
 30
0.0
 10
10.382181017
 20
10.2636625648
 30
0.0
 10
10.383682517
 20
10.265046973
 30
0.0
 10
10.3860680137
 20
10.2670683057
 30
0.0
 10
10.3886306804
 20
10.2690749438
 30
0.0
 10
10.3913690745
 20
10.2710657477
 30
0.0
 10
10.3942817964
 20
10.2730397878
 30
0.0
 10
10.3973674068
 20
10.274996059
 30
0.0
 10
10.400624322
 20
10.2769336196
 30
0.0
 10
10.4040508775
 20
10.2788514587
 30
0.0
 10
10.4076453158
 20
10.2807485749
 30
0.0
 10
10.411405774
 20
10.2826240263
 30
0.0
 10
10.4153303405
 20
10.2844768274
 30
0.0
 10
10.4208621814
 20
10.2869528532
 30
0.0
 10
10.4281788387
 20
10.2899771413
 30
0.0
 10
10.4374526514
 20
10.2934488687
 30
0.0
 10
10.4473280674
 20
10.2968081929
 30
0.0
 10
10.4577846906
 20
10.3000481085
 30
0.0
 10
10.4688010283
 20
10.3031618605
 30
0.0
 10
10.4803543339
 20
10.3061429457
 30
0.0
 10
10.4924207323
 20
10.3089851321
 30
0.0
 10
10.5049752581
 20
10.3116824739
 30
0.0
 10
10.5179919114
 20
10.3142293273
 30
0.0
 10
10.5314437126
 20
10.316620373
 30
0.0
 10
10.5453027673
 20
10.3188506139
 30
0.0
 10
10.5595403296
 20
10.3209153889
 30
0.0
 10
10.5741268611
 20
10.3228103797
 30
0.0
 10
10.5890320889
 20
10.3245316282
 30
0.0
 10
10.6042250737
 20
10.3260755452
 30
0.0
 10
10.6196742676
 20
10.3274389021
 30
0.0
 10
10.6353476234
 20
10.3286188714
 30
0.0
 10
10.65659212
 20
10.3299499781
 30
0.0
 10
10.6834677227
 20
10.3311347994
 30
0.0
 10
10.7159466574
 20
10.331791106
 30
0.0
 10
10.7485224527
 20
10.3316822982
 30
0.0
 10
10.7809246653
 20
10.3308093202
 30
0.0
 10
10.8076874542
 20
10.3294446882
 30
0.0
 10
10.8288037048
 20
10.3279709002
 30
0.0
 10
10.8443536371
 20
10.3266863712
 30
0.0
 10
10.8596611161
 20
10.3252200256
 30
0.0
 10
10.8746943871
 20
10.3235748998
 30
0.0
 10
10.8894222378
 20
10.3217544391
 30
0.0
 10
10.9038141047
 20
10.3197624459
 30
0.0
 10
10.9178401223
 20
10.317603082
 30
0.0
 10
10.9314711902
 20
10.3152808554
 30
0.0
 10
10.9446790387
 20
10.3128006187
 30
0.0
 10
10.9574362918
 20
10.3101675616
 30
0.0
 10
10.9697165223
 20
10.3073871901
 30
0.0
 10
10.9814943059
 20
10.3044653174
 30
0.0
 10
10.9927452833
 20
10.3014080469
 30
0.0
 10
11.0034462213
 20
10.2982217717
 30
0.0
 10
11.0135750744
 20
10.2949131472
 30
0.0
 10
11.0231110085
 20
10.291489072
 30
0.0
 10
11.0320345447
 20
10.2879566487
 30
0.0
 10
11.0403273212
 20
10.284323199
 30
0.0
 10
11.0468022037
 20
10.2811668854
 30
0.0
 10
11.0516453293
 20
10.2785905331
 30
0.0
 10
11.0550487987
 20
10.2766699261
 30
0.0
 10
11.0582823981
 20
10.2747297555
 30
0.0
 10
11.06134448
 20
10.2727709846
 30
0.0
 10
11.0642334619
 20
10.2707945809
 30
0.0
 10
11.0669478955
 20
10.2688015783
 30
0.0
 10
11.0694863725
 20
10.2667929257
 30
0.0
 10
11.0718476076
 20
10.2647696286
 30
0.0
 10
11.0740304026
 20
10.2627326785
 30
0.0
 10
11.0760335949
 20
10.2606830086
 30
0.0
 10
11.0778561751
 20
10.2586216296
 30
0.0
 10
11.079497127
 20
10.2565494609
 30
0.0
 10
11.0809555314
 20
10.2544674644
 30
0.0
 10
11.0822305477
 20
10.2523766176
 30
0.0
 10
11.0833212871
 20
10.2502778628
 30
0.0
 10
11.0842270312
 20
10.2481722601
 30
0.0
 10
11.0849470141
 20
10.2460608763
 30
0.0
 10
11.0854805742
 20
10.2439448887
 30
0.0
 10
11.0858272323
 20
10.2418256002
 30
0.0
 10
11.0859865157
 20
10.2397043149
 30
0.0
 10
11.0859583421
 20
10.2375826847
 30
0.0
 10
11.0858151993
 20
10.236175115
 30
0.0
 10
11.0857133201
 20
10.2354744756
 30
0.0
  0
SPLINE
  5
39F
100
AcDbEntity
  8
0
100
AcDbSpline
 62
7
  6
CONTINUOUS
 70
0
 71
3
 72
42
 73
38
 74
0
 42
0.0000001
 43
0.0000001
 44
0.0000000001
 40
0.0
 40
0.0
 40
0.0
 40
0.0
 40
0.0311444347
 40
0.0467772112
 40
0.0624471461
 40
0.093891844
 40
0.1254739796
 40
0.1571813629
 40
0.1889992234
 40
0.2209106216
 40
0.2528967716
 40
0.2849374315
 40
0.3170113014
 40
0.34909644
 40
0.3811706886
 40
0.4132120984
 40
0.4451993552
 40
0.4771121951
 40
0.5089318057
 40
0.5406412074
 40
0.572225607
 40
0.6036727182
 40
0.6349730419
 40
0.6661200987
 40
0.6971106068
 40
0.7279445994
 40
0.7586254742
 40
0.7891599701
 40
0.8195580671
 40
0.8498328085
 40
0.864931571
 40
0.8800056544
 40
0.910083706
 40
0.9400929707
 40
0.9550814956
 40
0.9700611828
 40
1.0
 40
1.0
 40
1.0
 40
1.0
 10
9.6631832298
 20
8.6402235296
 30
0.0
 10
9.659869256
 20
8.6404533544
 30
0.0
 10
9.6549020403
 20
8.6409803462
 30
0.0
 10
9.6483250052
 20
8.6420393844
 30
0.0
 10
9.6417584116
 20
8.6433395583
 30
0.0
 10
9.6336159491
 20
8.6454102041
 30
0.0
 10
9.6240156658
 20
8.6485884816
 30
0.0
 10
9.6146245457
 20
8.6524463688
 30
0.0
 10
9.6054929431
 20
8.6569631754
 30
0.0
 10
9.5966694342
 20
8.6621147769
 30
0.0
 10
9.5882010548
 20
8.6678736638
 30
0.0
 10
9.5801329196
 20
8.6742091075
 30
0.0
 10
9.5725080205
 20
8.6810873182
 30
0.0
 10
9.5653669906
 20
8.6884716245
 30
0.0
 10
9.5587478923
 20
8.6963226672
 30
0.0
 10
9.5526860158
 20
8.7045986072
 30
0.0
 10
9.5472136929
 20
8.7132553455
 30
0.0
 10
9.5423601259
 20
8.7222467563
 30
0.0
 10
9.5381512329
 20
8.7315249296
 30
0.0
 10
9.5346095098
 20
8.7410404234
 30
0.0
 10
9.5317539109
 20
8.7507425235
 30
0.0
 10
9.5295997463
 20
8.7605795108
 30
0.0
 10
9.5281585992
 20
8.7704989326
 30
0.0
 10
9.5274382615
 20
8.7804478793
 30
0.0
 10
9.5274426879
 20
8.7903732608
 30
0.0
 10
9.5281719752
 20
8.8002220965
 30
0.0
 10
9.5296223372
 20
8.8099417583
 30
0.0
 10
9.5317861904
 20
8.8194803921
 30
0.0
 10
9.5346519217
 20
8.8287866688
 30
0.0
 10
9.5376155618
 20
8.8363148967
 30
0.0
 10
9.5403200266
 20
8.8421692587
 30
0.0
 10
9.5432386706
 20
8.8478963229
 30
0.0
 10
9.5472910322
 20
8.8548235054
 30
0.0
 10
9.5518645898
 20
8.8614071649
 30
0.0
 10
9.5558168136
 20
8.8664395463
 30
0.0
 10
9.5599575679
 20
8.8713076715
 30
0.0
 10
9.5632750446
 20
8.8747733483
 30
0.0
 10
9.5655718756
 20
8.8769919032
 30
0.0
  0
SPLINE
  5
3A0
100
AcDbEntity
  8
0
100
AcDbSpline
 62
7
  6
CONTINUOUS
 70
0
 71
3
 72
48
 73
44
 74
0
 42
0.0000001
 43
0.0000001
 44
0.0000000001
 40
0.0
 40
0.0
 40
0.0
 40
0.0
 40
0.0063158899
 40
0.0126706797
 40
0.0191025165
 40
0.025648058
 40
0.0323419221
 40
0.0392162652
 40
0.0536140552
 40
0.0611947659
 40
0.0690564915
 40
0.0772175997
 40
0.0856939645
 40
0.0944993396
 40
0.103645447
 40
0.1131421893
 40
0.122997946
 40
0.1332195527
 40
0.1438126331
 40
0.1547816545
 40
0.1661299881
 40
0.1778601838
 40
0.1899738557
 40
0.215353302
 40
0.2422691224
 40
0.2707113841
 40
0.3006623731
 40
0.332097648
 40
0.3649869327
 40
0.3992948208
 40
0.434981328
 40
0.4720023222
 40
0.5103099054
 40
0.5498527799
 40
0.590576537
 40
0.632423903
 40
0.6753349407
 40
0.7192473098
 40
0.7640964278
 40
0.8098157282
 40
0.8563368617
 40
0.9035891153
 40
1.0
 40
1.0
 40
1.0
 40
1.0
 10
12.4829271132
 20
9.4326031648
 30
0.0
 10
12.4837586868
 20
9.4325454987
 30
0.0
 10
12.4854230251
 20
9.4323617402
 30
0.0
 10
12.4879008897
 20
9.4318828056
 30
0.0
 10
12.4903621848
 20
9.4312005156
 30
0.0
 10
12.4928054777
 20
9.4303154563
 30
0.0
 10
12.4952298187
 20
9.4292281442
 30
0.0
 10
12.4984850378
 20
9.4274831786
 30
0.0
 10
12.5016518789
 20
9.4253471064
 30
0.0
 10
12.5047165554
 20
9.4228717003
 30
0.0
 10
12.5070314339
 20
9.4207846523
 30
0.0
 10
12.5093215759
 20
9.4185003561
 30
0.0
 10
12.5115864396
 20
9.4160196539
 30
0.0
 10
12.5138250764
 20
9.4133435971
 30
0.0
 10
12.5160366674
 20
9.4104732781
 30
0.0
 10
12.518220382
 20
9.4074098826
 30
0.0
 10
12.520375332
 20
9.4041546277
 30
0.0
 10
12.522500711
 20
9.4007088567
 30
0.0
 10
12.5245956559
 20
9.3970739553
 30
0.0
 10
12.5266593213
 20
9.3932513958
 30
0.0
 10
12.5286909021
 20
9.3892427467
 30
0.0
 10
12.530689559
 20
9.3850496166
 30
0.0
 10
12.5333508626
 20
9.3791227353
 30
0.0
 10
12.5365804919
 20
9.371256693
 30
0.0
 10
12.5402541424
 20
9.3612519686
 30
0.0
 10
12.5437777724
 20
9.3505564304
 30
0.0
 10
12.5471455679
 20
9.3391875803
 30
0.0
 10
12.5503519694
 20
9.3271638755
 30
0.0
 10
12.5533916574
 20
9.3145049747
 30
0.0
 10
12.5562595777
 20
9.3012316025
 30
0.0
 10
12.5589509516
 20
9.287365533
 30
0.0
 10
12.561461295
 20
9.2729295465
 30
0.0
 10
12.5637864301
 20
9.2579473883
 30
0.0
 10
12.5659224823
 20
9.2424437188
 30
0.0
 10
12.5678658902
 20
9.2264440675
 30
0.0
 10
12.56961341
 20
9.2099747941
 30
0.0
 10
12.5711621342
 20
9.1930630434
 30
0.0
 10
12.5725094818
 20
9.1757367019
 30
0.0
 10
12.5736532086
 20
9.1580243354
 30
0.0
 10
12.5745913988
 20
9.139955154
 30
0.0
 10
12.5753224963
 20
9.1215589724
 30
0.0
 10
12.5760241561
 20
9.0964678758
 30
0.0
 10
12.5762276904
 20
9.0775062309
 30
0.0
 10
12.5762276904
 20
9.06478193
 30
0.0
  0
SPLINE
  5
3A1
100
AcDbEntity
  8
0
100
AcDbSpline
 62
7
  6
CONTINUOUS
 70
0
 71
3
 72
78
 73
74
 74
0
 42
0.0000001
 43
0.0000001
 44
0.0000000001
 40
0.0
 40
0.0
 40
0.0
 40
0.0
 40
0.0039089943
 40
0.0079745074
 40
0.0122004264
 40
0.0165900509
 40
0.0211462103
 40
0.0258712084
 40
0.0307667061
 40
0.0358338493
 40
0.0410734028
 40
0.0464857013
 40
0.0578277861
 40
0.0698572393
 40
0.0825662463
 40
0.0959433832
 40
0.1099740741
 40
0.124641015
 40
0.1399244998
 40
0.1558026687
 40
0.1722516955
 40
0.1892459968
 40
0.2067584014
 40
0.2247602842
 40
0.2432216722
 40
0.2621113828
 40
0.281397143
 40
0.3010456865
 40
0.3210228373
 40
0.3412936219
 40
0.3618223694
 40
0.4035073627
 40
0.4457825436
 40
0.4883463861
 40
0.5308946879
 40
0.5731233913
 40
0.6147313992
 40
0.6352104329
 40
0.6554241671
 40
0.6753370695
 40
0.6949143273
 40
0.7141219375
 40
0.7329268211
 40
0.7512969253
 40
0.7692013124
 40
0.7866102685
 40
0.8034954448
 40
0.8198299904
 40
0.8355886756
 40
0.850748053
 40
0.8652866715
 40
0.8791853023
 40
0.8924271807
 40
0.9049983321
 40
0.9168880102
 40
0.9280892266
 40
0.9334310001
 40
0.9386001116
 40
0.9435970705
 40
0.9484228256
 40
0.9530787143
 40
0.957566623
 40
0.961888985
 40
0.9660488254
 40
0.9700499298
 40
0.9738968243
 40
0.9775949276
 40
0.9811506698
 40
0.9845715221
 40
0.9878661922
 40
0.9941148889
 40
0.9970964139
 40
1.0
 40
1.0
 40
1.0
 40
1.0
 10
10.3871200794
 20
10.2489152138
 30
0.0
 10
10.3877990014
 20
10.2495710021
 30
0.0
 10
10.3892139987
 20
10.2508780985
 30
0.0
 10
10.3914575378
 20
10.2527886231
 30
0.0
 10
10.3938619582
 20
10.2546859086
 30
0.0
 10
10.3964260098
 20
10.2565689394
 30
0.0
 10
10.3991484696
 20
10.2584369046
 30
0.0
 10
10.4020280988
 20
10.2602889296
 30
0.0
 10
10.4050635421
 20
10.2621241835
 30
0.0
 10
10.4082533576
 20
10.2639418028
 30
0.0
 10
10.4115960497
 20
10.2657409072
 30
0.0
 10
10.4163288157
 20
10.2681516183
 30
0.0
 10
10.422622682
 20
10.271105684
 30
0.0
 10
10.4306444139
 20
10.2745101604
 30
0.0
 10
10.4392339551
 20
10.2778209788
 30
0.0
 10
10.4483749737
 20
10.2810317932
 30
0.0
 10
10.4580502046
 20
10.284136457
 30
0.0
 10
10.4682412609
 20
10.2871290006
 30
0.0
 10
10.4789287553
 20
10.2900036598
 30
0.0
 10
10.4900923185
 20
10.2927548865
 30
0.0
 10
10.5017106415
 20
10.2953773833
 30
0.0
 10
10.5137615268
 20
10.2978660966
 30
0.0
 10
10.5262219407
 20
10.3002162269
 30
0.0
 10
10.5390680548
 20
10.302423237
 30
0.0
 10
10.5522752881
 20
10.3044828788
 30
0.0
 10
10.5658183603
 20
10.3063911869
 30
0.0
 10
10.5796713462
 20
10.3081444836
 30
0.0
 10
10.5938077248
 20
10.3097393863
 30
0.0
 10
10.6082004175
 20
10.3111728237
 30
0.0
 10
10.6228218799
 20
10.3124420574
 30
0.0
 10
10.6426853722
 20
10.3139195649
 30
0.0
 10
10.6678797259
 20
10.315334374
 30
0.0
 10
10.6984181941
 20
10.3163390206
 30
0.0
 10
10.7291801096
 20
10.3166510648
 30
0.0
 10
10.7599300037
 20
10.3162681505
 30
0.0
 10
10.7904324987
 20
10.3151931862
 30
0.0
 10
10.8155816399
 20
10.3137201257
 30
0.0
 10
10.8353971501
 20
10.3121965014
 30
0.0
 10
10.8499741896
 20
10.3108935431
 30
0.0
 10
10.8643167962
 20
10.309426919
 30
0.0
 10
10.8783975238
 20
10.3077994342
 30
0.0
 10
10.8921893998
 20
10.3060142214
 30
0.0
 10
10.905666019
 20
10.304074719
 30
0.0
 10
10.9188015859
 20
10.301984669
 30
0.0
 10
10.9315709613
 20
10.2997480988
 30
0.0
 10
10.9439497116
 20
10.2973693127
 30
0.0
 10
10.9559141635
 20
10.2948528966
 30
0.0
 10
10.967441453
 20
10.2922037079
 30
0.0
 10
10.9785095637
 20
10.2894268546
 30
0.0
 10
10.9890973722
 20
10.2865276836
 30
0.0
 10
10.9991847003
 20
10.2835117813
 30
0.0
 10
11.0087523683
 20
10.2803849606
 30
0.0
 10
11.0177822076
 20
10.2771532343
 30
0.0
 10
11.0262571766
 20
10.2738227844
 30
0.0
 10
11.0341611664
 20
10.2703999834
 30
0.0
 10
11.040354164
 20
10.2674309467
 30
0.0
 10
11.0450045509
 20
10.2650088905
 30
0.0
 10
11.0482850331
 20
10.2632021243
 30
0.0
 10
11.0514120161
 20
10.2613772028
 30
0.0
 10
11.0543840428
 20
10.2595349996
 30
0.0
 10
11.0571996899
 20
10.2576763463
 30
0.0
 10
11.0598576386
 20
10.255802126
 30
0.0
 10
11.0623566456
 20
10.2539132166
 30
0.0
 10
11.0646955077
 20
10.2520104469
 30
0.0
 10
11.0668731498
 20
10.2500947175
 30
0.0
 10
11.0688885234
 20
10.2481668703
 30
0.0
 10
11.0707406618
 20
10.2462277263
 30
0.0
 10
11.0724286619
 20
10.2442782345
 30
0.0
 10
11.073951769
 20
10.2423189489
 30
0.0
 10
11.0757298449
 20
10.239741105
 30
0.0
 10
11.0772201802
 20
10.2370971892
 30
0.0
 10
11.0783788562
 20
10.2344037745
 30
0.0
 10
11.0788423821
 20
10.2330585915
 30
0.0
 10
11.0790444382
 20
10.2323871934
 30
0.0
  0
SPLINE
  5
3A2
100
AcDbEntity
  8
0
100
AcDbSpline
 62
7
  6
CONTINUOUS
 70
0
 71
3
 72
54
 73
50
 74
0
 42
0.0000001
 43
0.0000001
 44
0.0000000001
 40
0.0
 40
0.0
 40
0.0
 40
0.0
 40
0.0417740106
 40
0.0840368515
 40
0.1266583734
 40
0.1695063147
 40
0.2124478814
 40
0.2553497884
 40
0.2980789417
 40
0.340502919
 40
0.3824905067
 40
0.4239122259
 40
0.4646408671
 40
0.5045520317
 40
0.5435246831
 40
0.5814417135
 40
0.6181905344
 40
0.6536637003
 40
0.6877595809
 40
0.704261357
 40
0.7203837372
 40
0.736116
 40
0.7514479644
 40
0.7663699709
 40
0.7808730136
 40
0.7949486603
 40
0.8085892482
 40
0.8217877894
 40
0.8345381805
 40
0.8468351604
 40
0.8586744859
 40
0.8700529987
 40
0.8809687469
 40
0.891421194
 40
0.9014113064
 40
0.910941912
 40
0.9200178165
 40
0.9286462958
 40
0.9368373422
 40
0.9446042644
 40
0.9519641574
 40
0.9589385856
 40
0.9655542762
 40
0.9718437871
 40
0.9778461898
 40
0.9836073681
 40
0.9891800557
 40
0.994623083
 40
1.0
 40
1.0
 40
1.0
 40
1.0
 10
12.5762276904
 20
9.06478193
 30
0.0
 10
12.5762276904
 20
9.0556032396
 30
0.0
 10
12.5760844939
 20
9.0371381633
 30
0.0
 10
12.5754514433
 20
9.0093147026
 30
0.0
 10
12.5744007396
 20
8.9812677042
 30
0.0
 10
12.5729358219
 20
8.9530899886
 30
0.0
 10
12.5710615344
 20
8.924874798
 30
0.0
 10
12.5687840711
 20
8.8967154701
 30
0.0
 10
12.5661109767
 20
8.8687051692
 30
0.0
 10
12.5630511123
 20
8.8409365593
 30
0.0
 10
12.5596146297
 20
8.813501501
 30
0.0
 10
12.5558129372
 20
8.7864907431
 30
0.0
 10
12.5516586625
 20
8.75999362
 30
0.0
 10
12.5471656126
 20
8.734097753
 30
0.0
 10
12.5423487288
 20
8.7088887519
 30
0.0
 10
12.5372240363
 20
8.684449941
 30
0.0
 10
12.5318085987
 20
8.6608620236
 30
0.0
 10
12.5261204389
 20
8.6382029922
 30
0.0
 10
12.5211159443
 20
8.6199635796
 30
0.0
 10
12.5169827797
 20
8.6058980655
 30
0.0
 10
12.5138604345
 20
8.5957418971
 30
0.0
 10
12.5106844573
 20
8.5858720376
 30
0.0
 10
12.5074574767
 20
8.5762966296
 30
0.0
 10
12.5041821497
 20
8.5670235858
 30
0.0
 10
12.5008612228
 20
8.5580605547
 30
0.0
 10
12.4974974108
 20
8.549414937
 30
0.0
 10
12.4940935412
 20
8.5410938523
 30
0.0
 10
12.4906523941
 20
8.5331041623
 30
0.0
 10
12.4871768498
 20
8.5254524337
 30
0.0
 10
12.483669757
 20
8.5181449597
 30
0.0
 10
12.4801340213
 20
8.5111877328
 30
0.0
 10
12.4765725552
 20
8.5045864484
 30
0.0
 10
12.4729882648
 20
8.498346505
 30
0.0
 10
12.4693841081
 20
8.4924729726
 30
0.0
 10
12.4657629693
 20
8.4869706372
 30
0.0
 10
12.462127813
 20
8.4818439238
 30
0.0
 10
12.4584814782
 20
8.47709699
 30
0.0
 10
12.454826872
 20
8.4727336166
 30
0.0
 10
12.4511667545
 20
8.4687573309
 30
0.0
 10
12.447503892
 20
8.4651713144
 30
0.0
 10
12.4438409175
 20
8.4619785128
 30
0.0
 10
12.4401803894
 20
8.4591816373
 30
0.0
 10
12.4365247993
 20
8.4567832073
 30
0.0
 10
12.4328765682
 20
8.4547857111
 30
0.0
 10
12.4292382315
 20
8.4531914987
 30
0.0
 10
12.4256125456
 20
8.4520030414
 30
0.0
 10
12.4220025421
 20
8.4512225384
 30
0.0
 10
12.4184125724
 20
8.4508519787
 30
0.0
 10
12.4160291366
 20
8.4508791529
 30
0.0
 10
12.4148505374
 20
8.4509608837
 30
0.0
  0
SPLINE
  5
3A3
100
AcDbEntity
  8
0
100
AcDbSpline
 62
7
  6
CONTINUOUS
 70
0
 71
3
 72
28
 73
24
 74
0
 42
0.0000001
 43
0.0000001
 44
0.0000000001
 40
0.0
 40
0.0
 40
0.0
 40
0.0
 40
0.0749525414
 40
0.1455492598
 40
0.2121319828
 40
0.2751267504
 40
0.3350537751
 40
0.3925311517
 40
0.4205831712
 40
0.4482964194
 40
0.4757713564
 40
0.5031112904
 40
0.5304212607
 40
0.5578066529
 40
0.585371914
 40
0.6132193169
 40
0.6414476915
 40
0.6701515776
 40
0.7293157133
 40
0.7913812221
 40
0.8568968201
 40
0.9263175734
 40
1.0
 40
1.0
 40
1.0
 40
1.0
 10
10.3364553604
 20
10.2568248364
 30
0.0
 10
10.3352829707
 20
10.2579158636
 30
0.0
 10
10.3330713165
 20
10.2601062587
 30
0.0
 10
10.3300871065
 20
10.2635235908
 30
0.0
 10
10.3275423705
 20
10.2669679688
 30
0.0
 10
10.3254408665
 20
10.2704365083
 30
0.0
 10
10.3237861939
 20
10.2739257477
 30
0.0
 10
10.3227744066
 20
10.2768726288
 30
0.0
 10
10.3221998734
 20
10.2792244257
 30
0.0
 10
10.3218851448
 20
10.28097617
 30
0.0
 10
10.3216833923
 20
10.2827291585
 30
0.0
 10
10.3215947067
 20
10.284482892
 30
0.0
 10
10.3216191346
 20
10.2862367833
 30
0.0
 10
10.3217566307
 20
10.2879902667
 30
0.0
 10
10.3220071544
 20
10.2897427796
 30
0.0
 10
10.3223706066
 20
10.2914937498
 30
0.0
 10
10.3228468246
 20
10.2932426926
 30
0.0
 10
10.323639667
 20
10.2955945077
 30
0.0
 10
10.3249251704
 20
10.2985367169
 30
0.0
 10
10.3269000008
 20
10.302011241
 30
0.0
 10
10.3293192002
 20
10.3054629005
 30
0.0
 10
10.332178898
 20
10.3088881124
 30
0.0
 10
10.3343106823
 20
10.3110842518
 30
0.0
 10
10.3354430571
 20
10.3121780418
 30
0.0
  0
SPLINE
  5
3A4
100
AcDbEntity
  8
0
100
AcDbSpline
 62
7
  6
CONTINUOUS
 70
0
 71
3
 72
96
 73
92
 74
0
 42
0.0000001
 43
0.0000001
 44
0.0000000001
 40
0.0
 40
0.0
 40
0.0
 40
0.0
 40
0.0041939212
 40
0.0085762269
 40
0.0131520052
 40
0.0179255503
 40
0.0229003895
 40
0.0280791136
 40
0.0334634798
 40
0.039054619
 40
0.0448530484
 40
0.0508588136
 40
0.0570714162
 40
0.0634899855
 40
0.0701132151
 40
0.0769394762
 40
0.0911924427
 40
0.1062302232
 40
0.1220294549
 40
0.1385631627
 40
0.1558011854
 40
0.173710526
 40
0.1922556446
 40
0.2113987132
 40
0.2310998404
 40
0.2513172756
 40
0.2720075971
 40
0.2931258893
 40
0.3146259101
 40
0.3364602548
 40
0.358580515
 40
0.380937433
 40
0.4034810543
 40
0.4261608786
 40
0.4489260088
 40
0.4717253002
 40
0.4945075089
 40
0.5172214402
 40
0.5398160978
 40
0.5622408322
 40
0.5844454903
 40
0.6063805658
 40
0.6279973504
 40
0.649248088
 40
0.6700861315
 40
0.6904661036
 40
0.7103440641
 40
0.7296776851
 40
0.7484264339
 40
0.7665517712
 40
0.7840173684
 40
0.8007893512
 40
0.8168365781
 40
0.8321309695
 40
0.8466479033
 40
0.8536084389
 40
0.8603672363
 40
0.8669224108
 40
0.8732724521
 40
0.8794161948
 40
0.8853528766
 40
0.891082198
 40
0.8966043145
 40
0.9019199826
 40
0.9070305141
 40
0.9119379754
 40
0.9166451634
 40
0.9211558052
 40
0.925474617
 40
0.9296074706
 40
0.9335615598
 40
0.9373455271
 40
0.9409697129
 40
0.9444462457
 40
0.9477892864
 40
0.9510150553
 40
0.9541419228
 40
0.9571902809
 40
0.9601823275
 40
0.9631416685
 40
0.9660927703
 40
0.969060322
 40
0.9720685748
 40
0.9751407156
 40
0.9782983924
 40
0.981561316
 40
0.9849471178
 40
0.9884713701
 40
0.9921476423
 40
0.9959874147
 40
1.0
 40
1.0
 40
1.0
 40
1.0
 10
10.3354430571
 20
10.3121780418
 30
0.0
 10
10.3363218753
 20
10.3130269151
 30
0.0
 10
10.3381626868
 20
10.3147180011
 30
0.0
 10
10.3410985699
 20
10.3171818782
 30
0.0
 10
10.3442668744
 20
10.3196261713
 30
0.0
 10
10.3476655417
 20
10.3220493678
 30
0.0
 10
10.3512926183
 20
10.3244501138
 30
0.0
 10
10.3551459789
 20
10.3268270395
 30
0.0
 10
10.3592233439
 20
10.3291787625
 30
0.0
 10
10.3635222993
 20
10.3315038523
 30
0.0
 10
10.3680402729
 20
10.3338009744
 30
0.0
 10
10.3727745936
 20
10.3360687135
 30
0.0
 10
10.3777224241
 20
10.3383057656
 30
0.0
 10
10.3828808195
 20
10.3405107398
 30
0.0
 10
10.3882466922
 20
10.3426823671
 30
0.0
 10
10.395782331
 20
10.3455732751
 30
0.0
 10
10.4057033886
 20
10.3490851804
 30
0.0
 10
10.4182169867
 20
10.3530878232
 30
0.0
 10
10.4314746255
 20
10.3569275413
 30
0.0
 10
10.4454444952
 20
10.3605950304
 30
0.0
 10
10.4600931946
 20
10.3640813918
 30
0.0
 10
10.47538559
 20
10.3673781642
 30
0.0
 10
10.4912849786
 20
10.3704773462
 30
0.0
 10
10.5077531655
 20
10.373371417
 30
0.0
 10
10.5247505665
 20
10.3760533554
 30
0.0
 10
10.5422363067
 20
10.3785166565
 30
0.0
 10
10.5601683229
 20
10.3807553474
 30
0.0
 10
10.5785034662
 20
10.382764001
 30
0.0
 10
10.5971976087
 20
10.3845377499
 30
0.0
 10
10.6162057515
 20
10.3860722971
 30
0.0
 10
10.6354821347
 20
10.387363926
 30
0.0
 10
10.6549803488
 20
10.3884095084
 30
0.0
 10
10.6746534476
 20
10.3892065125
 30
0.0
 10
10.6944540614
 20
10.3897530084
 30
0.0
 10
10.714334512
 20
10.3900476728
 30
0.0
 10
10.7342469277
 20
10.390089792
 30
0.0
 10
10.7541433592
 20
10.3898792633
 30
0.0
 10
10.7739758958
 20
10.3894165965
 30
0.0
 10
10.7936967818
 20
10.3887029124
 30
0.0
 10
10.8132585317
 20
10.3877399392
 30
0.0
 10
10.8326140453
 20
10.3865300091
 30
0.0
 10
10.8517167222
 20
10.3850760522
 30
0.0
 10
10.8705205738
 20
10.3833815902
 30
0.0
 10
10.8889803356
 20
10.3814507279
 30
0.0
 10
10.9070515773
 20
10.3792881436
 30
0.0
 10
10.9246908111
 20
10.3768990785
 30
0.0
 10
10.9418555994
 20
10.3742893244
 30
0.0
 10
10.9585046594
 20
10.371465211
 30
0.0
 10
10.974597966
 20
10.3684335893
 30
0.0
 10
10.9900968501
 20
10.3652018158
 30
0.0
 10
11.0049641026
 20
10.3617777341
 30
0.0
 10
11.0191640525
 20
10.3581696544
 30
0.0
 10
11.0326627264
 20
10.3543863342
 30
0.0
 10
11.0454277199
 20
10.3504369401
 30
0.0
 10
11.0555657982
 20
10.3469685196
 30
0.0
 10
11.0632801836
 20
10.3441109497
 30
0.0
 10
11.0687826023
 20
10.3419623146
 30
0.0
 10
11.0740796653
 20
10.3397794325
 30
0.0
 10
11.0791682131
 20
10.3375636156
 30
0.0
 10
11.0840452012
 20
10.3353161917
 30
0.0
 10
11.0887077145
 20
10.3330384956
 30
0.0
 10
11.093152983
 20
10.3307319134
 30
0.0
 10
11.0973783473
 20
10.3283977776
 30
0.0
 10
11.1013813182
 20
10.3260375205
 30
0.0
 10
11.1051595013
 20
10.3236524775
 30
0.0
 10
11.1087106872
 20
10.3212440947
 30
0.0
 10
11.1120327593
 20
10.3188137225
 30
0.0
 10
11.1151237739
 20
10.3163627802
 30
0.0
 10
11.1179819012
 20
10.3138926378
 30
0.0
 10
11.1206054366
 20
10.3114046557
 30
0.0
 10
11.1229928283
 20
10.3089002132
 30
0.0
 10
11.1251425688
 20
10.3063806031
 30
0.0
 10
11.1270533403
 20
10.3038472001
 30
0.0
 10
11.1287237813
 20
10.3013012696
 30
0.0
 10
11.1301527256
 20
10.298744204
 30
0.0
 10
11.1313389317
 20
10.29617736
 30
0.0
 10
11.1322813274
 20
10.2936022609
 30
0.0
 10
11.1329788737
 20
10.2910205356
 30
0.0
 10
11.1334307014
 20
10.2884340024
 30
0.0
 10
11.1336362347
 20
10.2858446502
 30
0.0
 10
11.1335951032
 20
10.2832545837
 30
0.0
 10
11.1333074614
 20
10.280665939
 30
0.0
 10
11.1327736207
 20
10.2780808019
 30
0.0
 10
11.1319943809
 20
10.2755010826
 30
0.0
 10
11.1309705781
 20
10.2729285647
 30
0.0
 10
11.1297033417
 20
10.2703648242
 30
0.0
 10
11.1281937911
 20
10.2678113243
 30
0.0
 10
11.1264430974
 20
10.2652694222
 30
0.0
 10
11.1244524789
 20
10.2627404047
 30
0.0
 10
11.1222233783
 20
10.2602257652
 30
0.0
 10
11.1206156697
 20
10.2585966171
 30
0.0
 10
11.1197748496
 20
10.2577844473
 30
0.0
  0
SPLINE
  5
3A5
100
AcDbEntity
  8
0
100
AcDbSpline
 62
7
  6
CONTINUOUS
 70
0
 71
3
 72
54
 73
50
 74
0
 42
0.0000001
 43
0.0000001
 44
0.0000000001
 40
0.0
 40
0.0
 40
0.0
 40
0.0
 40
0.009582678
 40
0.0187373983
 40
0.0274873379
 40
0.0358602314
 40
0.0515988006
 40
0.0590567143
 40
0.0662995315
 40
0.0733807997
 40
0.0803581248
 40
0.0872919769
 40
0.0942440579
 40
0.1012755603
 40
0.1084454294
 40
0.1158090052
 40
0.1234169479
 40
0.1313146346
 40
0.1395420856
 40
0.1481338581
 40
0.1571196065
 40
0.1665243261
 40
0.1763688652
 40
0.1866705349
 40
0.1974432638
 40
0.2086983361
 40
0.2204444782
 40
0.2326882631
 40
0.2454344869
 40
0.2586861002
 40
0.2724447659
 40
0.2867107113
 40
0.301483012
 40
0.3325365352
 40
0.3655804053
 40
0.4005750959
 40
0.4374702496
 40
0.4762061552
 40
0.5167149036
 40
0.5589212912
 40
0.6027435898
 40
0.6480942306
 40
0.6948803933
 40
0.7430044767
 40
0.7923645548
 40
0.8428550464
 40
0.894365905
 40
0.9467869177
 40
1.0
 40
1.0
 40
1.0
 40
1.0
 10
12.4495726821
 20
8.1561668253
 30
0.0
 10
12.4501486561
 20
8.1567028846
 30
0.0
 10
12.4513000951
 20
8.1577244949
 30
0.0
 10
12.4530666814
 20
8.1591309023
 30
0.0
 10
12.454831685
 20
8.160374646
 30
0.0
 10
12.4571330229
 20
8.1617854262
 30
0.0
 10
12.4594808526
 20
8.1629119113
 30
0.0
 10
12.4618536341
 20
8.1637054479
 30
0.0
 10
12.4635951229
 20
8.1641235688
 30
0.0
 10
12.4653286491
 20
8.1643745632
 30
0.0
 10
12.4670530083
 20
8.1644580177
 30
0.0
 10
12.4687667506
 20
8.1643737017
 30
0.0
 10
12.4704684387
 20
8.1641217155
 30
0.0
 10
12.4721566447
 20
8.1637022853
 30
0.0
 10
12.4738300839
 20
8.1631160208
 30
0.0
 10
12.4754875815
 20
8.1623635605
 30
0.0
 10
12.477128114
 20
8.1614457017
 30
0.0
 10
12.4787507942
 20
8.160363309
 30
0.0
 10
12.4803547446
 20
8.1591171945
 30
0.0
 10
12.4819392134
 20
8.1577083038
 30
0.0
 10
12.4835033823
 20
8.156137523
 30
0.0
 10
12.4850464758
 20
8.1544058396
 30
0.0
 10
12.486567719
 20
8.1525143001
 30
0.0
 10
12.4880662671
 20
8.1504639878
 30
0.0
 10
12.4895413585
 20
8.1482561253
 30
0.0
 10
12.4909921389
 20
8.14589197
 30
0.0
 10
12.4924178089
 20
8.1433729039
 30
0.0
 10
12.4938175668
 20
8.1407003941
 30
0.0
 10
12.4951905709
 20
8.137875986
 30
0.0
 10
12.4965360677
 20
8.1349013459
 30
0.0
 10
12.497853227
 20
8.131778206
 30
0.0
 10
12.499141313
 20
8.1285084034
 30
0.0
 10
12.5008474194
 20
8.1238782656
 30
0.0
 10
12.5028942646
 20
8.1177323384
 30
0.0
 10
12.5051837213
 20
8.1099230801
 30
0.0
 10
12.5073401112
 20
8.1015797932
 30
0.0
 10
12.5093582668
 20
8.0927221973
 30
0.0
 10
12.5112333264
 20
8.0833711225
 30
0.0
 10
12.5129607671
 20
8.0735486719
 30
0.0
 10
12.5145364208
 20
8.0632780948
 30
0.0
 10
12.5159564886
 20
8.0525837414
 30
0.0
 10
12.5172175444
 20
8.0414909884
 30
0.0
 10
12.5183165444
 20
8.0300261745
 30
0.0
 10
12.5192508333
 20
8.018216537
 30
0.0
 10
12.5200181571
 20
8.0060901281
 30
0.0
 10
12.5206166521
 20
7.9936758299
 30
0.0
 10
12.5210448985
 20
7.981003034
 30
0.0
 10
12.5213018148
 20
7.9681020548
 30
0.0
 10
12.5213580981
 20
7.9594283345
 30
0.0
 10
12.5213580981
 20
7.955059014
 30
0.0
  0
SPLINE
  5
3A6
100
AcDbEntity
  8
0
100
AcDbSpline
 62
7
  6
CONTINUOUS
 70
0
 71
3
 72
37
 73
33
 74
0
 42
0.0000001
 43
0.0000001
 44
0.0000000001
 40
0.0
 40
0.0
 40
0.0
 40
0.0
 40
0.0908198883
 40
0.1794470143
 40
0.2228023136
 40
0.2654470419
 40
0.3073295194
 40
0.3483992608
 40
0.3886072699
 40
0.4279060862
 40
0.4662499356
 40
0.5035949165
 40
0.5398990508
 40
0.57512247
 40
0.609227675
 40
0.6421796272
 40
0.6739459727
 40
0.7044974185
 40
0.7338079433
 40
0.7618551286
 40
0.7886207273
 40
0.814091151
 40
0.8382580766
 40
0.8611194107
 40
0.8826803683
 40
0.9029547495
 40
0.9219667815
 40
0.9397534108
 40
0.9563669916
 40
0.9718787437
 40
0.9863827672
 40
1.0
 40
1.0
 40
1.0
 40
1.0
 10
12.5453180614
 20
9.0669255201
 30
0.0
 10
12.5453180614
 20
9.0784202373
 30
0.0
 10
12.5450976244
 20
9.1011327963
 30
0.0
 10
12.5442471636
 20
9.1293213894
 30
0.0
 10
12.543219902
 20
9.1513997703
 30
0.0
 10
12.5422870107
 20
9.1675588099
 30
0.0
 10
12.5411873675
 20
9.1834174086
 30
0.0
 10
12.539922444
 20
9.1989542998
 30
0.0
 10
12.5384939681
 20
9.2141486175
 30
0.0
 10
12.5369038655
 20
9.2289799642
 30
0.0
 10
12.5351542855
 20
9.2434284344
 30
0.0
 10
12.5332476101
 20
9.2574746442
 30
0.0
 10
12.5311864168
 20
9.2710997516
 30
0.0
 10
12.5289734867
 20
9.2842854862
 30
0.0
 10
12.5266118303
 20
9.2970141818
 30
0.0
 10
12.5241046454
 20
9.3092687925
 30
0.0
 10
12.5214553102
 20
9.3210329179
 30
0.0
 10
12.5186674213
 20
9.3322908396
 30
0.0
 10
12.515744751
 20
9.3430275373
 30
0.0
 10
12.5126912251
 20
9.3532287066
 30
0.0
 10
12.5095109593
 20
9.3628808008
 30
0.0
 10
12.5062082247
 20
9.3719710505
 30
0.0
 10
12.5027874008
 20
9.3804874735
 30
0.0
 10
12.4992529934
 20
9.3884189176
 30
0.0
 10
12.495609604
 20
9.3957550863
 30
0.0
 10
12.4918618355
 20
9.4024865306
 30
0.0
 10
12.4880142688
 20
9.4086046566
 30
0.0
 10
12.4840713699
 20
9.4141017455
 30
0.0
 10
12.4800374721
 20
9.4189707566
 30
0.0
 10
12.4759162243
 20
9.423205414
 30
0.0
 10
12.4717122345
 20
9.4267990897
 30
0.0
 10
12.4687724207
 20
9.4288210921
 30
0.0
 10
12.4672957155
 20
9.4297097564
 30
0.0
  0
SPLINE
  5
3A7
100
AcDbEntity
  8
0
100
AcDbSpline
 62
7
  6
CONTINUOUS
 70
0
 71
3
 72
51
 73
47
 74
0
 42
0.0000001
 43
0.0000001
 44
0.0000000001
 40
0.0
 40
0.0
 40
0.0
 40
0.0
 40
0.0398601651
 40
0.0801629884
 40
0.1208005673
 40
0.1616637852
 40
0.2026427896
 40
0.2436273182
 40
0.2845070946
 40
0.3251721985
 40
0.3655134449
 40
0.4054227612
 40
0.4447935691
 40
0.4835211683
 40
0.5215031266
 40
0.5586396777
 40
0.5948341301
 40
0.6299932921
 40
0.6640279192
 40
0.6968531942
 40
0.728389251
 40
0.7585617627
 40
0.7731154551
 40
0.7873032867
 40
0.8011178232
 40
0.8145521841
 40
0.8275999702
 40
0.8402554136
 40
0.852513317
 40
0.8643692148
 40
0.8758193314
 40
0.8868607581
 40
0.897491439
 40
0.9077103721
 40
0.9175176354
 40
0.926914625
 40
0.9359041392
 40
0.9444906724
 40
0.9526805804
 40
0.9604824541
 40
0.9679073922
 40
0.9749694738
 40
0.9816861509
 40
0.9880788038
 40
0.9941731985
 40
1.0
 40
1.0
 40
1.0
 40
1.0
 10
12.5453180614
 20
9.0669255201
 30
0.0
 10
12.5453180614
 20
9.0583823712
 30
0.0
 10
12.545194028
 20
9.0412009653
 30
0.0
 10
12.5446450208
 20
9.0153150614
 30
0.0
 10
12.5437334124
 20
8.989224239
 30
0.0
 10
12.5424618004
 20
8.9630034157
 30
0.0
 10
12.5408338232
 20
8.9367278024
 30
0.0
 10
12.5388541475
 20
8.9104727868
 30
0.0
 10
12.536528456
 20
8.8843136928
 30
0.0
 10
12.5338634306
 20
8.8583255685
 30
0.0
 10
12.5308667334
 20
8.8325829686
 30
0.0
 10
12.5275469849
 20
8.8071597388
 30
0.0
 10
12.5239137397
 20
8.7821288032
 30
0.0
 10
12.519977459
 20
8.7575619525
 30
0.0
 10
12.515749482
 20
8.733529636
 30
0.0
 10
12.5112419929
 20
8.7101007565
 30
0.0
 10
12.5064679874
 20
8.6873424702
 30
0.0
 10
12.5014412357
 20
8.6653199848
 30
0.0
 10
12.4961762425
 20
8.6440963823
 30
0.0
 10
12.4906882109
 20
8.6237323733
 30
0.0
 10
12.4849929774
 20
8.6042863123
 30
0.0
 10
12.4800302586
 20
8.5887108376
 30
0.0
 10
12.4759613651
 20
8.5767571106
 30
0.0
 10
12.4729049048
 20
8.5681631922
 30
0.0
 10
12.4698091382
 20
8.5598388333
 30
0.0
 10
12.4666762993
 20
8.5517899784
 30
0.0
 10
12.4635086136
 20
8.5440223912
 30
0.0
 10
12.4603083845
 20
8.5365416168
 30
0.0
 10
12.4570778786
 20
8.5293530039
 30
0.0
 10
12.4538194419
 20
8.5224616736
 30
0.0
 10
12.4505353777
 20
8.5158725441
 30
0.0
 10
12.4472280636
 20
8.5095902943
 30
0.0
 10
12.4438998285
 20
8.5036193953
 30
0.0
 10
12.4405530686
 20
8.4979640677
 30
0.0
 10
12.4371901238
 20
8.4926283204
 30
0.0
 10
12.4338133906
 20
8.4876159012
 30
0.0
 10
12.4304251991
 20
8.4829303455
 30
0.0
 10
12.4270279206
 20
8.4785749198
 30
0.0
 10
12.4236238455
 20
8.474552684
 30
0.0
 10
12.4202152833
 20
8.4708664291
 30
0.0
 10
12.4168044475
 20
8.4675187609
 30
0.0
 10
12.4133935365
 20
8.4645120321
 30
0.0
 10
12.4099846796
 20
8.4618484735
 30
0.0
 10
12.4065798583
 20
8.4595300644
 30
0.0
 10
12.4031814622
 20
8.4575589285
 30
0.0
 10
12.4008734871
 20
8.4564546569
 30
0.0
 10
12.3997242678
 20
8.4559658698
 30
0.0
  0
SPLINE
  5
3A8
100
AcDbEntity
  8
0
100
AcDbSpline
 62
7
  6
CONTINUOUS
 70
0
 71
3
 72
52
 73
48
 74
0
 42
0.0000001
 43
0.0000001
 44
0.0000000001
 40
0.0
 40
0.0
 40
0.0
 40
0.0
 40
0.0425884831
 40
0.0856863561
 40
0.1291522207
 40
0.1728434201
 40
0.2166161839
 40
0.2603264737
 40
0.3038304852
 40
0.3469852854
 40
0.3896494046
 40
0.4316834478
 40
0.4729507063
 40
0.5133177819
 40
0.5526552232
 40
0.5908381847
 40
0.6277471161
 40
0.6632684977
 40
0.6972956429
 40
0.7297295982
 40
0.7604801863
 40
0.775199245
 40
0.7894682964
 40
0.8032792031
 40
0.816624576
 40
0.8294980622
 40
0.8418942132
 40
0.8538088326
 40
0.8652388545
 40
0.8761827636
 40
0.8866405101
 40
0.8966140218
 40
0.9061071944
 40
0.9151265246
 40
0.9236812302
 40
0.9317840419
 40
0.939451511
 40
0.9467049812
 40
0.9535710969
 40
0.9600828657
 40
0.9662801856
 40
0.9722105914
 40
0.977929188
 40
0.983498215
 40
0.9889854999
 40
0.994462222
 40
1.0
 40
1.0
 40
1.0
 40
1.0
 10
12.4979542152
 20
9.0211755551
 30
0.0
 10
12.4979542152
 20
9.0152378862
 30
0.0
 10
12.4978587931
 20
9.0032913319
 30
0.0
 10
12.4974371864
 20
8.9852892568
 30
0.0
 10
12.4967375471
 20
8.9671419565
 30
0.0
 10
12.4957623193
 20
8.9489131733
 30
0.0
 10
12.4945149128
 20
8.9306668339
 30
0.0
 10
12.4929997055
 20
8.9124669651
 30
0.0
 10
12.4912220196
 20
8.8943774163
 30
0.0
 10
12.4891881072
 20
8.8764616515
 30
0.0
 10
12.4869051266
 20
8.8587825192
 30
0.0
 10
12.4843811181
 20
8.8414020316
 30
0.0
 10
12.4816249764
 20
8.8243811445
 30
0.0
 10
12.4786464199
 20
8.8077795403
 30
0.0
 10
12.4754559574
 20
8.7916554149
 30
0.0
 10
12.4720648517
 20
8.7760652698
 30
0.0
 10
12.4684850817
 20
8.7610637027
 30
0.0
 10
12.4647292987
 20
8.7467032246
 30
0.0
 10
12.4608107878
 20
8.7330340019
 30
0.0
 10
12.456743399
 20
8.7201038779
 30
0.0
 10
12.453192
 20
8.7098376887
 30
0.0
 10
12.4502800965
 20
8.7020342086
 30
0.0
 10
12.4480998118
 20
8.6964794456
 30
0.0
 10
12.4458932321
 20
8.6911417263
 30
0.0
 10
12.4436622366
 20
8.6860257133
 30
0.0
 10
12.4414088287
 20
8.6811358598
 30
0.0
 10
12.4391349369
 20
8.6764764346
 30
0.0
 10
12.4368425973
 20
8.6720514736
 30
0.0
 10
12.4345337575
 20
8.6678648301
 30
0.0
 10
12.4322104765
 20
8.6639201048
 30
0.0
 10
12.429874704
 20
8.6602207199
 30
0.0
 10
12.4275285013
 20
8.6567698242
 30
0.0
 10
12.4251737954
 20
8.6535703981
 30
0.0
 10
12.4228126186
 20
8.6506251289
 30
0.0
 10
12.4204468384
 20
8.6479365588
 30
0.0
 10
12.4180784112
 20
8.6455069254
 30
0.0
 10
12.4157090982
 20
8.6433383716
 30
0.0
 10
12.413340729
 20
8.6414327519
 30
0.0
 10
12.4109749339
 20
8.6397919242
 30
0.0
 10
12.4086134304
 20
8.6384175202
 30
0.0
 10
12.4062578384
 20
8.6373113135
 30
0.0
 10
12.4039100186
 20
8.6364748986
 30
0.0
 10
12.4015720155
 20
8.6359100256
 30
0.0
 10
12.3992463897
 20
8.635618037
 30
0.0
 10
12.3969359746
 20
8.6356000719
 30
0.0
 10
12.3946443825
 20
8.6358562334
 30
0.0
 10
12.3931450184
 20
8.6362063198
 30
0.0
 10
12.3924042294
 20
8.6364238769
 30
0.0
  0
SPLINE
  5
3A9
100
AcDbEntity
  8
0
100
AcDbSpline
 62
7
  6
CONTINUOUS
 70
0
 71
3
 72
26
 73
22
 74
0
 42
0.0000001
 43
0.0000001
 44
0.0000000001
 40
0.0
 40
0.0
 40
0.0
 40
0.0
 40
0.0665046654
 40
0.1339004882
 40
0.2018797708
 40
0.2701296013
 40
0.3383363766
 40
0.4061864731
 40
0.4733684155
 40
0.5395746353
 40
0.6045033448
 40
0.6678604148
 40
0.7293612915
 40
0.7887329822
 40
0.8457161479
 40
0.8732358859
 40
0.9000686596
 40
0.9261868855
 40
0.9515644559
 40
0.9761765363
 40
1.0
 40
1.0
 40
1.0
 40
1.0
 10
12.3897346256
 20
9.0226434525
 30
0.0
 10
12.3897346256
 20
9.0161284587
 30
0.0
 10
12.3896106742
 20
9.003010873
 30
0.0
 10
12.3890648631
 20
8.9832406638
 30
0.0
 10
12.388160293
 20
8.9633124328
 30
0.0
 10
12.3869013519
 20
8.943323878
 30
0.0
 10
12.3852942155
 20
8.9233729911
 30
0.0
 10
12.383346767
 20
8.9035575435
 30
0.0
 10
12.3810685841
 20
8.8839746491
 30
0.0
 10
12.3784708817
 20
8.8647202683
 30
0.0
 10
12.3755664646
 20
8.845888731
 30
0.0
 10
12.3723696617
 20
8.827572279
 30
0.0
 10
12.3688962667
 20
8.8098605561
 30
0.0
 10
12.3651634265
 20
8.7928403308
 30
0.0
 10
12.3618142805
 20
8.7791479526
 30
0.0
 10
12.3590124675
 20
8.7686068994
 30
0.0
 10
12.356882396
 20
8.761016698
 30
0.0
 10
12.3547018344
 20
8.7536594581
 30
0.0
 10
12.3524734794
 20
8.7465441636
 30
0.0
 10
12.3502000484
 20
8.7396795597
 30
0.0
 10
12.3486302166
 20
8.7352015584
 30
0.0
 10
12.3478373526
 20
8.7330065486
 30
0.0
  0
SPLINE
  5
3AA
100
AcDbEntity
  8
0
100
AcDbSpline
 62
7
  6
CONTINUOUS
 70
0
 71
3
 72
15
 73
11
 74
0
 42
0.0000001
 43
0.0000001
 44
0.0000000001
 40
0.0
 40
0.0
 40
0.0
 40
0.0
 40
0.1238445972
 40
0.249467722
 40
0.3761514299
 40
0.5031661641
 40
0.6297815008
 40
0.7552696461
 40
0.8789111013
 40
1.0
 40
1.0
 40
1.0
 40
1.0
 10
12.3505807564
 20
9.0167927212
 30
0.0
 10
12.3505807564
 20
9.0103129387
 30
0.0
 10
12.3504427209
 20
8.9972599516
 30
0.0
 10
12.3498365007
 20
8.9775871015
 30
0.0
 10
12.3488329125
 20
8.9577643753
 30
0.0
 10
12.3474380539
 20
8.9379133241
 30
0.0
 10
12.3456604835
 20
8.9181556723
 30
0.0
 10
12.3435111304
 20
8.8986124922
 30
0.0
 10
12.3410032582
 20
8.8794036902
 30
0.0
 10
12.3390789377
 20
8.8667431663
 30
0.0
 10
12.3380569951
 20
8.8604905309
 30
0.0
  0
SPLINE
  5
3AB
100
AcDbEntity
  8
0
100
AcDbSpline
 62
7
  6
CONTINUOUS
 70
0
 71
3
 72
43
 73
39
 74
0
 42
0.0000001
 43
0.0000001
 44
0.0000000001
 40
0.0
 40
0.0
 40
0.0
 40
0.0
 40
0.0987342996
 40
0.1470751437
 40
0.1946256961
 40
0.2413076651
 40
0.2870450831
 40
0.3317644836
 40
0.3753945936
 40
0.4178668973
 40
0.4591157329
 40
0.499078535
 40
0.5376962849
 40
0.5749137187
 40
0.6106796434
 40
0.6449475174
 40
0.677675934
 40
0.7088291208
 40
0.7383778028
 40
0.7663002667
 40
0.7925834309
 40
0.8172244755
 40
0.8402331399
 40
0.8616343828
 40
0.8814720469
 40
0.8998138931
 40
0.9167577656
 40
0.9247490932
 40
0.9324454099
 40
0.9470443573
 40
0.9540130532
 40
0.9608026428
 40
0.9674501564
 40
0.9739952568
 40
0.9804796681
 40
0.9869464208
 40
0.9934389123
 40
1.0
 40
1.0
 40
1.0
 40
1.0
 10
12.4979542152
 20
9.0211755551
 30
0.0
 10
12.4979542152
 20
9.029500033
 30
0.0
 10
12.4978155882
 20
9.0419009318
 30
0.0
 10
12.4973369242
 20
9.058303501
 30
0.0
 10
12.4968384001
 20
9.0703141289
 30
0.0
 10
12.4961987848
 20
9.0820982424
 30
0.0
 10
12.4954192297
 20
9.0936347216
 30
0.0
 10
12.4945011515
 20
9.1049028853
 30
0.0
 10
12.4934462043
 20
9.1158825646
 30
0.0
 10
12.4922563121
 20
9.1265540993
 30
0.0
 10
12.4909336296
 20
9.1368983887
 30
0.0
 10
12.4894805406
 20
9.146896924
 30
0.0
 10
12.4878996886
 20
9.1565318295
 30
0.0
 10
12.4861939417
 20
9.1657858925
 30
0.0
 10
12.4843663766
 20
9.1746425915
 30
0.0
 10
12.4824203046
 20
9.1830861406
 30
0.0
 10
12.4803592552
 20
9.1911015225
 30
0.0
 10
12.4781869409
 20
9.1986745103
 30
0.0
 10
12.47590726
 20
9.2057917095
 30
0.0
 10
12.4735243062
 20
9.2124406037
 30
0.0
 10
12.4710423014
 20
9.2186095748
 30
0.0
 10
12.4684655602
 20
9.2242879295
 30
0.0
 10
12.4657984733
 20
9.2294659719
 30
0.0
 10
12.46304543
 20
9.2341349536
 30
0.0
 10
12.4602105333
 20
9.238287206
 30
0.0
 10
12.4572979835
 20
9.2419155128
 30
0.0
 10
12.4547610558
 20
9.2445471474
 30
0.0
 10
12.452695838
 20
9.2463670656
 30
0.0
 10
12.4506853943
 20
9.2479429049
 30
0.0
 10
12.4486053542
 20
9.2492860879
 30
0.0
 10
12.4464671645
 20
9.2503598836
 30
0.0
 10
12.4448745274
 20
9.2510152459
 30
0.0
 10
12.4432692418
 20
9.2515324026
 30
0.0
 10
12.4416520541
 20
9.2519109974
 30
0.0
 10
12.4400238819
 20
9.2521506495
 30
0.0
 10
12.4383856418
 20
9.2522512271
 30
0.0
 10
12.4367384357
 20
9.2522126746
 30
0.0
 10
12.4356426899
 20
9.2520950698
 30
0.0
 10
12.4350954922
 20
9.2520139501
 30
0.0
  0
SPLINE
  5
3AC
100
AcDbEntity
  8
0
100
AcDbSpline
 62
7
  6
CONTINUOUS
 70
0
 71
3
 72
18
 73
14
 74
0
 42
0.0000001
 43
0.0000001
 44
0.0000000001
 40
0.0
 40
0.0
 40
0.0
 40
0.0
 40
0.1411258274
 40
0.2788920875
 40
0.412638027
 40
0.54172533
 40
0.6655494179
 40
0.7253100698
 40
0.7835454482
 40
0.8401912892
 40
0.895186769
 40
0.9484742998
 40
1.0
 40
1.0
 40
1.0
 40
1.0
 10
12.3897346256
 20
9.0226434525
 30
0.0
 10
12.3897346256
 20
9.0292590278
 30
0.0
 10
12.3896092099
 20
9.0423330944
 30
0.0
 10
12.3890327498
 20
9.0616691138
 30
0.0
 10
12.388073132
 20
9.0804250866
 30
0.0
 10
12.3867355048
 20
9.0985026649
 30
0.0
 10
12.3852954745
 20
9.1130907298
 30
0.0
 10
12.3839520457
 20
9.1243469947
 30
0.0
 10
12.3828668418
 20
9.1324617617
 30
0.0
 10
12.3816935399
 20
9.1403384973
 30
0.0
 10
12.3804336964
 20
9.1479669062
 30
0.0
 10
12.379088977
 20
9.1553369611
 30
0.0
 10
12.3781204951
 20
9.1601542541
 30
0.0
 10
12.3776212958
 20
9.1625174825
 30
0.0
  0
SPLINE
  5
3AD
100
AcDbEntity
  8
0
100
AcDbSpline
 62
7
  6
CONTINUOUS
 70
0
 71
3
 72
32
 73
28
 74
0
 42
0.0000001
 43
0.0000001
 44
0.0000000001
 40
0.0
 40
0.0
 40
0.0
 40
0.0
 40
0.0742040619
 40
0.1495809031
 40
0.2255113736
 40
0.301368507
 40
0.3765266773
 40
0.4503675739
 40
0.5222868899
 40
0.5573433798
 40
0.5917026659
 40
0.6252961595
 40
0.6580574398
 40
0.6899225822
 40
0.7208303081
 40
0.7507222446
 40
0.7795433668
 40
0.8072422518
 40
0.8337713922
 40
0.8590877743
 40
0.8831534411
 40
0.9059360273
 40
0.9274096693
 40
0.9475562396
 40
0.9663666292
 40
0.9838426786
 40
1.0
 40
1.0
 40
1.0
 40
1.0
 10
12.4368507128
 20
7.9424311432
 30
0.0
 10
12.4368507128
 20
7.9359862942
 30
0.0
 10
12.4366860122
 20
7.922994226
 30
0.0
 10
12.4359663029
 20
7.9034193632
 30
0.0
 10
12.4347775275
 20
7.883723448
 30
0.0
 10
12.4331300886
 20
7.8640796804
 30
0.0
 10
12.4310385408
 20
7.8446606659
 30
0.0
 10
12.4285213441
 20
7.8256371565
 30
0.0
 10
12.4260672809
 20
7.8101235976
 30
0.0
 10
12.4239022157
 20
7.7980403151
 30
0.0
 10
12.4222007397
 20
7.7892566067
 30
0.0
 10
12.4204115924
 20
7.7806938797
 30
0.0
 10
12.4185387012
 20
7.7723709512
 30
0.0
 10
12.4165862227
 20
7.7643061164
 30
0.0
 10
12.4145584734
 20
7.7565170954
 30
0.0
 10
12.4124599268
 20
7.7490209991
 30
0.0
 10
12.4102952339
 20
7.7418342751
 30
0.0
 10
12.4080691902
 20
7.7349726773
 30
0.0
 10
12.40578671
 20
7.7284512351
 30
0.0
 10
12.4034528394
 20
7.7222842032
 30
0.0
 10
12.4010727444
 20
7.7164850194
 30
0.0
 10
12.398651667
 20
7.7110662872
 30
0.0
 10
12.3961949028
 20
7.7060397195
 30
0.0
 10
12.3937078361
 20
7.7014161195
 30
0.0
 10
12.3911957579
 20
7.6972052289
 30
0.0
 10
12.3886641366
 20
7.6934161558
 30
0.0
 10
12.3868982487
 20
7.6910860852
 30
0.0
 10
12.3860104861
 20
7.6899992715
 30
0.0
  0
SPLINE
  5
3AE
100
AcDbEntity
  8
0
100
AcDbSpline
 62
7
  6
CONTINUOUS
 70
0
 71
3
 72
29
 73
25
 74
0
 42
0.0000001
 43
0.0000001
 44
0.0000000001
 40
0.0
 40
0.0
 40
0.0
 40
0.0
 40
0.0821603228
 40
0.1627612255
 40
0.2415329686
 40
0.3182186406
 40
0.3925681979
 40
0.4643438043
 40
0.533319805
 40
0.5992849553
 40
0.6620441662
 40
0.7214207894
 40
0.7497921189
 40
0.7772615252
 40
0.8038132955
 40
0.8294338251
 40
0.8541113041
 40
0.8778362028
 40
0.9006014913
 40
0.9224027151
 40
0.9432388177
 40
0.9631119249
 40
0.9820286652
 40
1.0
 40
1.0
 40
1.0
 40
1.0
 10
12.4368507128
 20
7.9424311432
 30
0.0
 10
12.4368507128
 20
7.9464753248
 30
0.0
 10
12.4367868864
 20
7.9544870941
 30
0.0
 10
12.4364945799
 20
7.9663730343
 30
0.0
 10
12.4360075842
 20
7.9779829517
 30
0.0
 10
12.4353277302
 20
7.9892749634
 30
0.0
 10
12.4344575028
 20
8.0002085397
 30
0.0
 10
12.4334001183
 20
8.0107443533
 30
0.0
 10
12.4321594582
 20
8.0208445701
 30
0.0
 10
12.4307400954
 20
8.0304729793
 30
0.0
 10
12.4291472211
 20
8.0395949982
 30
0.0
 10
12.4276584772
 20
8.0468536726
 30
0.0
 10
12.426379267
 20
8.052379125
 30
0.0
 10
12.4253947746
 20
8.0563136675
 30
0.0
 10
12.4243715034
 20
8.0600982264
 30
0.0
 10
12.4233103891
 20
8.0637294198
 30
0.0
 10
12.4222123784
 20
8.0672039983
 30
0.0
 10
12.4210784574
 20
8.0705188595
 30
0.0
 10
12.4199096626
 20
8.0736710541
 30
0.0
 10
12.4187070036
 20
8.0766577759
 30
0.0
 10
12.4174716009
 20
8.0794763872
 30
0.0
 10
12.4162044741
 20
8.0821244062
 30
0.0
 10
12.4149068293
 20
8.0845994601
 30
0.0
 10
12.4139990097
 20
8.0861727342
 30
0.0
 10
12.4135393555
 20
8.0869285398
 30
0.0
  0
SPLINE
  5
3AF
100
AcDbEntity
  8
0
100
AcDbSpline
 62
4
  6
CONTINUOUS
 70
0
 71
3
 72
403
 73
399
 74
0
 42
0.0000001
 43
0.0000001
 44
0.0000000001
 40
0.0
 40
0.0
 40
0.0
 40
0.0
 40
0.015625
 40
0.0234375
 40
0.03125
 40
0.0390625
 40
0.04296875
 40
0.046875
 40
0.05078125
 40
0.0546875
 40
0.056640625
 40
0.05859375
 40
0.0595703125
 40
0.060546875
 40
0.0615234375
 40
0.0620117188
 40
0.0622558594
 40
0.0625
 40
0.0627441406
 40
0.0629882812
 40
0.0634765625
 40
0.064453125
 40
0.0654296875
 40
0.06640625
 40
0.068359375
 40
0.0703125
 40
0.07421875
 40
0.078125
 40
0.08203125
 40
0.0859375
 40
0.09375
 40
0.1015625
 40
0.10546875
 40
0.109375
 40
0.11328125
 40
0.1171875
 40
0.119140625
 40
0.12109375
 40
0.1220703125
 40
0.123046875
 40
0.1240234375
 40
0.1245117188
 40
0.1247558594
 40
0.125
 40
0.1252441406
 40
0.1254882812
 40
0.1259765625
 40
0.126953125
 40
0.1279296875
 40
0.12890625
 40
0.130859375
 40
0.1328125
 40
0.13671875
 40
0.140625
 40
0.14453125
 40
0.1484375
 40
0.15625
 40
0.1640625
 40
0.16796875
 40
0.171875
 40
0.17578125
 40
0.1796875
 40
0.181640625
 40
0.18359375
 40
0.1845703125
 40
0.185546875
 40
0.1865234375
 40
0.1870117188
 40
0.1872558594
 40
0.1875
 40
0.1877441406
 40
0.1879882812
 40
0.1884765625
 40
0.189453125
 40
0.1904296875
 40
0.19140625
 40
0.193359375
 40
0.1953125
 40
0.19921875
 40
0.203125
 40
0.20703125
 40
0.2109375
 40
0.21875
 40
0.2265625
 40
0.23046875
 40
0.234375
 40
0.23828125
 40
0.2421875
 40
0.244140625
 40
0.24609375
 40
0.2470703125
 40
0.248046875
 40
0.2490234375
 40
0.2495117188
 40
0.2497558594
 40
0.25
 40
0.2502441406
 40
0.2504882812
 40
0.2509765625
 40
0.251953125
 40
0.2529296875
 40
0.25390625
 40
0.255859375
 40
0.2578125
 40
0.26171875
 40
0.265625
 40
0.26953125
 40
0.2734375
 40
0.28125
 40
0.2890625
 40
0.29296875
 40
0.296875
 40
0.30078125
 40
0.3046875
 40
0.306640625
 40
0.30859375
 40
0.3095703125
 40
0.310546875
 40
0.3115234375
 40
0.3120117188
 40
0.3122558594
 40
0.3125
 40
0.3127441406
 40
0.3129882812
 40
0.3134765625
 40
0.314453125
 40
0.3154296875
 40
0.31640625
 40
0.318359375
 40
0.3203125
 40
0.32421875
 40
0.328125
 40
0.33203125
 40
0.3359375
 40
0.34375
 40
0.3515625
 40
0.35546875
 40
0.359375
 40
0.36328125
 40
0.3671875
 40
0.369140625
 40
0.37109375
 40
0.3720703125
 40
0.373046875
 40
0.3740234375
 40
0.3745117188
 40
0.3747558594
 40
0.375
 40
0.3752441406
 40
0.3754882812
 40
0.3759765625
 40
0.376953125
 40
0.3779296875
 40
0.37890625
 40
0.380859375
 40
0.3828125
 40
0.38671875
 40
0.390625
 40
0.39453125
 40
0.3984375
 40
0.40625
 40
0.4140625
 40
0.41796875
 40
0.421875
 40
0.42578125
 40
0.4296875
 40
0.431640625
 40
0.43359375
 40
0.4345703125
 40
0.435546875
 40
0.4365234375
 40
0.4370117188
 40
0.4372558594
 40
0.4375
 40
0.4377441406
 40
0.4379882812
 40
0.4384765625
 40
0.439453125
 40
0.4404296875
 40
0.44140625
 40
0.443359375
 40
0.4453125
 40
0.44921875
 40
0.453125
 40
0.45703125
 40
0.4609375
 40
0.46875
 40
0.4765625
 40
0.48046875
 40
0.484375
 40
0.48828125
 40
0.4921875
 40
0.494140625
 40
0.49609375
 40
0.4970703125
 40
0.498046875
 40
0.4990234375
 40
0.4995117188
 40
0.4997558594
 40
0.5
 40
0.5002441406
 40
0.5004882812
 40
0.5009765625
 40
0.501953125
 40
0.5029296875
 40
0.50390625
 40
0.505859375
 40
0.5078125
 40
0.51171875
 40
0.515625
 40
0.51953125
 40
0.5234375
 40
0.53125
 40
0.5390625
 40
0.54296875
 40
0.546875
 40
0.55078125
 40
0.5546875
 40
0.556640625
 40
0.55859375
 40
0.5595703125
 40
0.560546875
 40
0.5615234375
 40
0.5620117188
 40
0.5622558594
 40
0.5625
 40
0.5627441406
 40
0.5629882812
 40
0.5634765625
 40
0.564453125
 40
0.5654296875
 40
0.56640625
 40
0.568359375
 40
0.5703125
 40
0.57421875
 40
0.578125
 40
0.58203125
 40
0.5859375
 40
0.59375
 40
0.6015625
 40
0.60546875
 40
0.609375
 40
0.61328125
 40
0.6171875
 40
0.619140625
 40
0.62109375
 40
0.6220703125
 40
0.623046875
 40
0.6240234375
 40
0.6245117188
 40
0.6247558594
 40
0.625
 40
0.6252441406
 40
0.6254882812
 40
0.6259765625
 40
0.626953125
 40
0.6279296875
 40
0.62890625
 40
0.630859375
 40
0.6328125
 40
0.63671875
 40
0.640625
 40
0.64453125
 40
0.6484375
 40
0.65625
 40
0.6640625
 40
0.66796875
 40
0.671875
 40
0.67578125
 40
0.6796875
 40
0.681640625
 40
0.68359375
 40
0.6845703125
 40
0.685546875
 40
0.6865234375
 40
0.6870117188
 40
0.6872558594
 40
0.6875
 40
0.6877441406
 40
0.6879882812
 40
0.6884765625
 40
0.689453125
 40
0.6904296875
 40
0.69140625
 40
0.693359375
 40
0.6953125
 40
0.69921875
 40
0.703125
 40
0.70703125
 40
0.7109375
 40
0.71875
 40
0.7265625
 40
0.73046875
 40
0.734375
 40
0.73828125
 40
0.7421875
 40
0.744140625
 40
0.74609375
 40
0.7470703125
 40
0.748046875
 40
0.7490234375
 40
0.7495117188
 40
0.7497558594
 40
0.75
 40
0.7502441406
 40
0.7504882812
 40
0.7509765625
 40
0.751953125
 40
0.7529296875
 40
0.75390625
 40
0.755859375
 40
0.7578125
 40
0.76171875
 40
0.765625
 40
0.76953125
 40
0.7734375
 40
0.78125
 40
0.7890625
 40
0.79296875
 40
0.796875
 40
0.80078125
 40
0.8046875
 40
0.806640625
 40
0.80859375
 40
0.8095703125
 40
0.810546875
 40
0.8115234375
 40
0.8120117188
 40
0.8122558594
 40
0.8125
 40
0.8127441406
 40
0.8129882812
 40
0.8134765625
 40
0.814453125
 40
0.8154296875
 40
0.81640625
 40
0.818359375
 40
0.8203125
 40
0.82421875
 40
0.828125
 40
0.83203125
 40
0.8359375
 40
0.84375
 40
0.8515625
 40
0.85546875
 40
0.859375
 40
0.86328125
 40
0.8671875
 40
0.869140625
 40
0.87109375
 40
0.8720703125
 40
0.873046875
 40
0.8740234375
 40
0.8745117188
 40
0.8747558594
 40
0.875
 40
0.8752441406
 40
0.8754882812
 40
0.8759765625
 40
0.876953125
 40
0.8779296875
 40
0.87890625
 40
0.880859375
 40
0.8828125
 40
0.88671875
 40
0.890625
 40
0.89453125
 40
0.8984375
 40
0.90625
 40
0.9140625
 40
0.91796875
 40
0.921875
 40
0.92578125
 40
0.9296875
 40
0.931640625
 40
0.93359375
 40
0.9345703125
 40
0.935546875
 40
0.9365234375
 40
0.9370117188
 40
0.9372558594
 40
0.9375
 40
0.9377441406
 40
0.9379882812
 40
0.9384765625
 40
0.939453125
 40
0.9404296875
 40
0.94140625
 40
0.943359375
 40
0.9453125
 40
0.94921875
 40
0.953125
 40
0.95703125
 40
0.9609375
 40
0.96875
 40
0.9765625
 40
0.984375
 40
1.0
 40
1.0
 40
1.0
 40
1.0
 10
10.2516252919
 20
8.9766089915
 30
0.0
 10
10.2519325036
 20
8.9734544994
 30
0.0
 10
10.2523933211
 20
8.9687227612
 30
0.0
 10
10.2530077444
 20
8.9624137769
 30
0.0
 10
10.2534685619
 20
8.9576820388
 30
0.0
 10
10.2538525764
 20
8.9537389236
 30
0.0
 10
10.2541597883
 20
8.9505844315
 30
0.0
 10
10.2543901961
 20
8.9482185623
 30
0.0
 10
10.2546206085
 20
8.9458526937
 30
0.0
 10
10.2548126044
 20
8.9438811346
 30
0.0
 10
10.2549662336
 20
8.9423038916
 30
0.0
 10
10.2550621777
 20
8.9413181051
 30
0.0
 10
10.2551391027
 20
8.9405294978
 30
0.0
 10
10.255196332
 20
8.9399379826
 30
0.0
 10
10.2552455007
 20
8.9394452433
 30
0.0
 10
10.2552770189
 20
8.9390999527
 30
0.0
 10
10.2552995572
 20
8.9389032264
 30
0.0
 10
10.2553037058
 20
8.9387540406
 30
0.0
 10
10.2553566109
 20
8.9386111276
 30
0.0
 10
10.2554101441
 20
8.9384183889
 30
0.0
 10
10.2555117511
 20
8.9380821156
 30
0.0
 10
10.2556527614
 20
8.9376011922
 30
0.0
 10
10.2558237468
 20
8.9370243123
 30
0.0
 10
10.2560511081
 20
8.9362550593
 30
0.0
 10
10.2563355218
 20
8.9352935204
 30
0.0
 10
10.2567904651
 20
8.933755043
 30
0.0
 10
10.2573591849
 20
8.9318319514
 30
0.0
 10
10.2580416313
 20
8.9295242393
 30
0.0
 10
10.2587240823
 20
8.9272165277
 30
0.0
 10
10.2596340154
 20
8.9241395788
 30
0.0
 10
10.2607714323
 20
8.9202933927
 30
0.0
 10
10.2619088489
 20
8.9164472065
 30
0.0
 10
10.2628187826
 20
8.9133702577
 30
0.0
 10
10.2635012317
 20
8.9110625457
 30
0.0
 10
10.2641836852
 20
8.9087548352
 30
0.0
 10
10.2647523828
 20
8.9068317385
 30
0.0
 10
10.2652073715
 20
8.9052932716
 30
0.0
 10
10.2654916696
 20
8.9043317058
 30
0.0
 10
10.265719268
 20
8.903562508
 30
0.0
 10
10.265889529
 20
8.9029854596
 30
0.0
 10
10.2660328059
 20
8.9025050634
 30
0.0
 10
10.2661303666
 20
8.9021678491
 30
0.0
 10
10.2661903831
 20
8.9019766181
 30
0.0
 10
10.2662233738
 20
8.9018290737
 30
0.0
 10
10.2663023173
 20
8.9016972828
 30
0.0
 10
10.2663915464
 20
8.9015160665
 30
0.0
 10
10.2665551655
 20
8.9012014983
 30
0.0
 10
10.2667850026
 20
8.9007507767
 30
0.0
 10
10.2670624783
 20
8.9002104836
 30
0.0
 10
10.2674318623
 20
8.8994898928
 30
0.0
 10
10.2678937921
 20
8.8985892227
 30
0.0
 10
10.2686327681
 20
8.8971481123
 30
0.0
 10
10.2695565264
 20
8.8953467375
 30
0.0
 10
10.27066502
 20
8.8931850821
 30
0.0
 10
10.271773518
 20
8.8910234282
 30
0.0
 10
10.2732515137
 20
8.8881412224
 30
0.0
 10
10.2750990089
 20
8.8845384654
 30
0.0
 10
10.2769465038
 20
8.8809357083
 30
0.0
 10
10.2784245001
 20
8.8780535028
 30
0.0
 10
10.2795329963
 20
8.8758918481
 30
0.0
 10
10.2806414967
 20
8.8737301955
 30
0.0
 10
10.2815652337
 20
8.871928812
 30
0.0
 10
10.2823042531
 20
8.8704877193
 30
0.0
 10
10.2827660725
 20
8.8695870042
 30
0.0
 10
10.2831356832
 20
8.8688665058
 30
0.0
 10
10.2834124662
 20
8.8683259302
 30
0.0
 10
10.2836444708
 20
8.8678760926
 30
0.0
 10
10.2838042205
 20
8.8675599463
 30
0.0
 10
10.2838996493
 20
8.8673812586
 30
0.0
 10
10.2839595495
 20
8.8672417007
 30
0.0
 10
10.2840640635
 20
8.8671233276
 30
0.0
 10
10.2841878538
 20
8.8669581074
 30
0.0
 10
10.2844117373
 20
8.8666724148
 30
0.0
 10
10.2847277803
 20
8.8662624826
 30
0.0
 10
10.2851086543
 20
8.8657713344
 30
0.0
 10
10.2856159197
 20
8.865116201
 30
0.0
 10
10.2862501955
 20
8.8642973763
 30
0.0
 10
10.2872649282
 20
8.8629872055
 30
0.0
 10
10.2885333813
 20
8.8613495096
 30
0.0
 10
10.2900555092
 20
8.8593842669
 30
0.0
 10
10.2915776412
 20
8.8574190263
 30
0.0
 10
10.2936071492
 20
8.8547987047
 30
0.0
 10
10.2961440347
 20
8.851523303
 30
0.0
 10
10.2986809199
 20
8.8482479011
 30
0.0
 10
10.3007104283
 20
8.8456275799
 30
0.0
 10
10.3022325589
 20
8.8436623381
 30
0.0
 10
10.3037546925
 20
8.8416970998
 30
0.0
 10
10.3050231275
 20
8.8400593903
 30
0.0
 10
10.3060378973
 20
8.8387492472
 30
0.0
 10
10.3066720788
 20
8.837930352
 30
0.0
 10
10.3071795375
 20
8.8372753635
 30
0.0
 10
10.3075598208
 20
8.8367837727
 30
0.0
 10
10.3078777121
 20
8.8363752251
 30
0.0
 10
10.308098296
 20
8.8360870607
 30
0.0
 10
10.3082273731
 20
8.835925801
 30
0.0
 10
10.3083156478
 20
8.8357952623
 30
0.0
 10
10.3084365405
 20
8.8357013964
 30
0.0
 10
10.3085863533
 20
8.83556345
 30
0.0
 10
10.3088538266
 20
8.8353280037
 30
0.0
 10
10.3092331599
 20
8.8349885359
 30
0.0
 10
10.3096895461
 20
8.8345825083
 30
0.0
 10
10.3102976467
 20
8.8340406723
 30
0.0
 10
10.3110579144
 20
8.8333635369
 30
0.0
 10
10.3122742633
 20
8.832280031
 30
0.0
 10
10.3137947267
 20
8.8309256792
 30
0.0
 10
10.3156192711
 20
8.829300444
 30
0.0
 10
10.3174438187
 20
8.8276752123
 30
0.0
 10
10.3198765476
 20
8.8255082354
 30
0.0
 10
10.3229174592
 20
8.8227995148
 30
0.0
 10
10.3259583705
 20
8.8200907939
 30
0.0
 10
10.3283910999
 20
8.8179238176
 30
0.0
 10
10.3302156462
 20
8.8162985843
 30
0.0
 10
10.3320401952
 20
8.8146733549
 30
0.0
 10
10.3335606444
 20
8.8133189852
 30
0.0
 10
10.3347770222
 20
8.8122355158
 30
0.0
 10
10.3355372164
 20
8.8115582876
 30
0.0
 10
10.3361454679
 20
8.811016642
 30
0.0
 10
10.3366013931
 20
8.8106100326
 30
0.0
 10
10.3369821688
 20
8.8102723851
 30
0.0
 10
10.3372470672
 20
8.8100336894
 30
0.0
 10
10.3374010055
 20
8.8099009494
 30
0.0
 10
10.3375092259
 20
8.809791091
 30
0.0
 10
10.3376450958
 20
8.8097206175
 30
0.0
 10
10.3378166112
 20
8.8096129149
 30
0.0
 10
10.3381212567
 20
8.8094308362
 30
0.0
 10
10.3385541154
 20
8.8091673773
 30
0.0
 10
10.3390745513
 20
8.808852659
 30
0.0
 10
10.3397681146
 20
8.8084325343
 30
0.0
 10
10.340635189
 20
8.8079075497
 30
0.0
 10
10.3420224408
 20
8.8070674787
 30
0.0
 10
10.3437565287
 20
8.8060174227
 30
0.0
 10
10.3458374242
 20
8.8047573415
 30
0.0
 10
10.3479183224
 20
8.803497264
 30
0.0
 10
10.3506928524
 20
8.8018171594
 30
0.0
 10
10.3541610152
 20
8.7997170291
 30
0.0
 10
10.3576291778
 20
8.7976168985
 30
0.0
 10
10.3604037081
 20
8.7959367945
 30
0.0
 10
10.3624846054
 20
8.7946767153
 30
0.0
 10
10.3645655044
 20
8.7934166404
 30
0.0
 10
10.3662995813
 20
8.7923665647
 30
0.0
 10
10.3676868555
 20
8.7915265339
 30
0.0
 10
10.3685538729
 20
8.791001447
 30
0.0
 10
10.3692475533
 20
8.7905815325
 30
0.0
 10
10.3697676316
 20
8.790266172
 30
0.0
 10
10.3702016091
 20
8.7900047222
 30
0.0
 10
10.3705042572
 20
8.789819057
 30
0.0
 10
10.3706789729
 20
8.7897171008
 30
0.0
 10
10.3708050127
 20
8.7896289761
 30
0.0
 10
10.3709501532
 20
8.7895854129
 30
0.0
 10
10.3711370113
 20
8.7895117852
 30
0.0
 10
10.3714671173
 20
8.7893901787
 30
0.0
 10
10.3719370742
 20
8.7892126689
 30
0.0
 10
10.3725017172
 20
8.7890012777
 30
0.0
 10
10.373254332
 20
8.7887188568
 30
0.0
 10
10.3741951834
 20
8.7883660244
 30
0.0
 10
10.3757004994
 20
8.7878013844
 30
0.0
 10
10.3775821602
 20
8.7870956214
 30
0.0
 10
10.3798401464
 20
8.78624869
 30
0.0
 10
10.3820981344
 20
8.7854017628
 30
0.0
 10
10.3851087845
 20
8.7842725251
 30
0.0
 10
10.3888720973
 20
8.7828609785
 30
0.0
 10
10.39263541
 20
8.7814494315
 30
0.0
 10
10.3956460602
 20
8.7803201944
 30
0.0
 10
10.3979040476
 20
8.7794732654
 30
0.0
 10
10.4001620363
 20
8.7786263409
 30
0.0
 10
10.4020436893
 20
8.7779205563
 30
0.0
 10
10.4035490213
 20
8.7773559604
 30
0.0
 10
10.4044898319
 20
8.7770030155
 30
0.0
 10
10.4052425304
 20
8.7767208257
 30
0.0
 10
10.4058069174
 20
8.7765087286
 30
0.0
 10
10.4062776756
 20
8.7763334273
 30
0.0
 10
10.4066063511
 20
8.7762078783
 30
0.0
 10
10.4067955011
 20
8.7761405674
 30
0.0
 10
10.4069336018
 20
8.776077601
 30
0.0
 10
10.4070860817
 20
8.7760623518
 30
0.0
 10
10.4072843726
 20
8.7760253753
 30
0.0
 10
10.4076337185
 20
8.7759684213
 30
0.0
 10
10.4081315623
 20
8.7758830041
 30
0.0
 10
10.4087294979
 20
8.7757822388
 30
0.0
 10
10.4095265626
 20
8.775647279
 30
0.0
 10
10.4105229561
 20
8.7754787867
 30
0.0
 10
10.4121171507
 20
8.7752090831
 30
0.0
 10
10.414109906
 20
8.7748719935
 30
0.0
 10
10.4165012072
 20
8.7744674688
 30
0.0
 10
10.4188925097
 20
8.7740629487
 30
0.0
 10
10.4220809127
 20
8.7735235869
 30
0.0
 10
10.4260664165
 20
8.7728493853
 30
0.0
 10
10.4300519203
 20
8.7721751833
 30
0.0
 10
10.4332403233
 20
8.7716358222
 30
0.0
 10
10.4356316256
 20
8.7712313001
 30
0.0
 10
10.4380229276
 20
8.7708267829
 30
0.0
 10
10.4400156805
 20
8.7704896701
 30
0.0
 10
10.4416098799
 20
8.7702200137
 30
0.0
 10
10.4426062613
 20
8.7700514012
 30
0.0
 10
10.4434033509
 20
8.7699166883
 30
0.0
 10
10.4440012106
 20
8.7698151686
 30
0.0
 10
10.4444992917
 20
8.7697321117
 30
0.0
 10
10.4448482141
 20
8.7696709442
 30
0.0
 10
10.4450471835
 20
8.7696407188
 30
0.0
 10
10.4451975791
 20
8.7696047324
 30
0.0
 10
10.445343508
 20
8.7696196514
 30
0.0
 10
10.445539638
 20
8.769621787
 30
0.0
 10
10.4458821395
 20
8.7696337974
 30
0.0
 10
10.4463718068
 20
8.7696466298
 30
0.0
 10
10.4469592452
 20
8.76966388
 30
0.0
 10
10.4477425531
 20
8.7696862336
 30
0.0
 10
10.4487216686
 20
8.7697143971
 30
0.0
 10
10.4502882642
 20
8.7697593349
 30
0.0
 10
10.452246505
 20
8.7698155496
 30
0.0
 10
10.4545963955
 20
8.7698829891
 30
0.0
 10
10.4569462856
 20
8.7699504334
 30
0.0
 10
10.4600794725
 20
8.7700403575
 30
0.0
 10
10.4639959561
 20
8.7701527632
 30
0.0
 10
10.4679124398
 20
8.7702651685
 30
0.0
 10
10.4710456267
 20
8.7703550933
 30
0.0
 10
10.4733955171
 20
8.7704225356
 30
0.0
 10
10.4757454065
 20
8.7704899826
 30
0.0
 10
10.4777036506
 20
8.7705461738
 30
0.0
 10
10.4792702395
 20
8.7705911597
 30
0.0
 10
10.4802493721
 20
8.7706192008
 30
0.0
 10
10.4810326447
 20
8.7706418056
 30
0.0
 10
10.4816201911
 20
8.7706582884
 30
0.0
 10
10.4821095205
 20
8.7706735219
 30
0.0
 10
10.4824526253
 20
8.7706812458
 30
0.0
 10
10.4826477886
 20
8.7706902494
 30
0.0
 10
10.4827966867
 20
8.770684072
 30
0.0
 10
10.4829359307
 20
8.7707273204
 30
0.0
 10
10.4831249569
 20
8.7707677447
 30
0.0
 10
10.4834541837
 20
8.7708465197
 30
0.0
 10
10.483925328
 20
8.770954856
 30
0.0
 10
10.48449035
 20
8.771086657
 30
0.0
 10
10.4852438354
 20
8.7712617639
 30
0.0
 10
10.4861856501
 20
8.7714808625
 30
0.0
 10
10.4876925772
 20
8.7718313001
 30
0.0
 10
10.4895762279
 20
8.7722693883
 30
0.0
 10
10.4918366122
 20
8.7727950765
 30
0.0
 10
10.4940969956
 20
8.7733207694
 30
0.0
 10
10.4971108405
 20
8.7740216916
 30
0.0
 10
10.5008781465
 20
8.774897845
 30
0.0
 10
10.5046454525
 20
8.775773998
 30
0.0
 10
10.5076592972
 20
8.7764749208
 30
0.0
 10
10.5099196812
 20
8.7770006118
 30
0.0
 10
10.5121800634
 20
8.7775263073
 30
0.0
 10
10.5140637208
 20
8.7779643727
 30
0.0
 10
10.5155706341
 20
8.7783148567
 30
0.0
 10
10.5165124837
 20
8.7785338373
 30
0.0
 10
10.5172658975
 20
8.7787091863
 30
0.0
 10
10.5178311383
 20
8.7788402477
 30
0.0
 10
10.5183015983
 20
8.7789508981
 30
0.0
 10
10.5186320467
 20
8.7790255421
 30
0.0
 10
10.5188191155
 20
8.7790725853
 30
0.0
 10
10.518964372
 20
8.7790955025
 30
0.0
 10
10.5190906882
 20
8.7791656859
 30
0.0
 10
10.5192657164
 20
8.7792427767
 30
0.0
 10
10.5195689376
 20
8.7793853673
 30
0.0
 10
10.5200037199
 20
8.7795850522
 30
0.0
 10
10.52052477
 20
8.779826393
 30
0.0
 10
10.521219744
 20
8.7801475804
 30
0.0
 10
10.5220883791
 20
8.7805492701
 30
0.0
 10
10.5234782413
 20
8.7811918589
 30
0.0
 10
10.5252155533
 20
8.7819951342
 30
0.0
 10
10.5273003344
 20
8.7829590477
 30
0.0
 10
10.5293851137
 20
8.7839229657
 30
0.0
 10
10.5321648201
 20
8.7852081882
 30
0.0
 10
10.5356394529
 20
8.7868147168
 30
0.0
 10
10.5391140858
 20
8.788421245
 30
0.0
 10
10.5418937919
 20
8.7897064681
 30
0.0
 10
10.5439785721
 20
8.7906703843
 30
0.0
 10
10.54606335
 20
8.7916343048
 30
0.0
 10
10.5478006721
 20
8.7924375582
 30
0.0
 10
10.5491905136
 20
8.7930801917
 30
0.0
 10
10.5500592015
 20
8.7934817674
 30
0.0
 10
10.5507540672
 20
8.793803189
 30
0.0
 10
10.5512754479
 20
8.7940438141
 30
0.0
 10
10.5517091959
 20
8.7942457382
 30
0.0
 10
10.5520142636
 20
8.7943843314
 30
0.0
 10
10.5521863333
 20
8.7944678271
 30
0.0
 10
10.552321737
 20
8.794518337
 30
0.0
 10
10.552432862
 20
8.7946151445
 30
0.0
 10
10.5525894974
 20
8.7947280721
 30
0.0
 10
10.5528596636
 20
8.7949332195
 30
0.0
 10
10.5532476782
 20
8.7952223536
 30
0.0
 10
10.5537124127
 20
8.7955709982
 30
0.0
 10
10.5543323671
 20
8.7960352696
 30
0.0
 10
10.5551072046
 20
8.7966158102
 30
0.0
 10
10.5563470035
 20
8.7975445625
 30
0.0
 10
10.5578967319
 20
8.7987055417
 30
0.0
 10
10.5597564146
 20
8.8000987
 30
0.0
 10
10.561616095
 20
8.8014918629
 30
0.0
 10
10.5640956697
 20
8.8033494117
 30
0.0
 10
10.5671951378
 20
8.8056713484
 30
0.0
 10
10.5702946062
 20
8.8079932847
 30
0.0
 10
10.5727741804
 20
8.8098508341
 30
0.0
 10
10.5746338621
 20
8.8112439953
 30
0.0
 10
10.5764935401
 20
8.8126371598
 30
0.0
 10
10.5780432834
 20
8.8137981197
 30
0.0
 10
10.579283052
 20
8.8147269113
 30
0.0
 10
10.5800579665
 20
8.8153073523
 30
0.0
 10
10.5806777627
 20
8.815771828
 30
0.0
 10
10.5811429807
 20
8.8161198483
 30
0.0
 10
10.5815294824
 20
8.8164109356
 30
0.0
 10
10.5818023493
 20
8.8166125962
 30
0.0
 10
10.5819546575
 20
8.8167311107
 30
0.0
 10
10.5820790743
 20
8.816810757
 30
0.0
 10
10.5821645563
 20
8.8169257215
 30
0.0
 10
10.5822921132
 20
8.8170666881
 30
0.0
 10
10.5825090101
 20
8.8173191196
 30
0.0
 10
10.582822171
 20
8.8176767351
 30
0.0
 10
10.5831965481
 20
8.8181071582
 30
0.0
 10
10.5836962122
 20
8.818680607
 30
0.0
 10
10.5843206229
 20
8.8193975716
 30
0.0
 10
10.5853197747
 20
8.8205446292
 30
0.0
 10
10.5865686819
 20
8.8219784805
 30
0.0
 10
10.5880673846
 20
8.8236990896
 30
0.0
 10
10.5895660835
 20
8.825419702
 30
0.0
 10
10.59156435
 20
8.8277138507
 30
0.0
 10
10.5940621827
 20
8.830581537
 30
0.0
 10
10.5965600157
 20
8.833449223
 30
0.0
 10
10.5985582817
 20
8.8357433722
 30
0.0
 10
10.6000569822
 20
8.8374639832
 30
0.0
 10
10.6015556788
 20
8.8391845972
 30
0.0
 10
10.6028046049
 20
8.8406184331
 30
0.0
 10
10.6038037183
 20
8.8417655222
 30
0.0
 10
10.6044282268
 20
8.8424824066
 30
0.0
 10
10.60492769
 20
8.8430560202
 30
0.0
 10
10.6053026809
 20
8.8434859397
 30
0.0
 10
10.6056139215
 20
8.8438451308
 30
0.0
 10
10.6058342464
 20
8.8440947496
 30
0.0
 10
10.6059563108
 20
8.8442402227
 30
0.0
 10
10.6060586641
 20
8.8443413449
 30
0.0
 10
10.606119715
 20
8.8444729809
 30
0.0
 10
10.6062155229
 20
8.844637852
 30
0.0
 10
10.6063764744
 20
8.8449313355
 30
0.0
 10
10.6066099145
 20
8.845348005
 30
0.0
 10
10.6068885404
 20
8.8458491181
 30
0.0
 10
10.6072605663
 20
8.8465168814
 30
0.0
 10
10.6077254191
 20
8.8473517181
 30
0.0
 10
10.6084692839
 20
8.8486873827
 30
0.0
 10
10.6093990804
 20
8.850356989
 30
0.0
 10
10.6105148511
 20
8.8523605056
 30
0.0
 10
10.6116306178
 20
8.8543640251
 30
0.0
 10
10.6131183081
 20
8.8570353834
 30
0.0
 10
10.6149779204
 20
8.8603745817
 30
0.0
 10
10.6168375331
 20
8.8637137797
 30
0.0
 10
10.6183252229
 20
8.8663851384
 30
0.0
 10
10.6194409913
 20
8.8683886568
 30
0.0
 10
10.6205567554
 20
8.8703921774
 30
0.0
 10
10.6214865724
 20
8.8720617712
 30
0.0
 10
10.6222303954
 20
8.8733974611
 30
0.0
 10
10.6226953545
 20
8.8742322335
 30
0.0
 10
10.6230671621
 20
8.8749001289
 30
0.0
 10
10.623346455
 20
8.8754008382
 30
0.0
 10
10.6235778084
 20
8.8758187712
 30
0.0
 10
10.6237424849
 20
8.8761099991
 30
0.0
 10
10.6238323245
 20
8.8762784843
 30
0.0
 10
10.6239117084
 20
8.8763990189
 30
0.0
 10
10.6239452059
 20
8.8765418363
 30
0.0
 10
10.624005875
 20
8.876724487
 30
0.0
 10
10.6241045886
 20
8.8770477471
 30
0.0
 10
10.6242495068
 20
8.877507654
 30
0.0
 10
10.6244217399
 20
8.8780603526
 30
0.0
 10
10.6246519668
 20
8.878797001
 30
0.0
 10
10.6249395508
 20
8.8797179085
 30
0.0
 10
10.6253997969
 20
8.8811913062
 30
0.0
 10
10.6259750662
 20
8.883033072
 30
0.0
 10
10.6266654058
 20
8.885243183
 30
0.0
 10
10.6273557409
 20
8.8874532961
 30
0.0
 10
10.6282761894
 20
8.8904001129
 30
0.0
 10
10.6294267494
 20
8.8940836341
 30
0.0
 10
10.6305773097
 20
8.8977671551
 30
0.0
 10
10.6314977575
 20
8.9007139721
 30
0.0
 10
10.6321880946
 20
8.9029240844
 30
0.0
 10
10.632878427
 20
8.9051341984
 30
0.0
 10
10.6334537186
 20
8.9069759548
 30
0.0
 10
10.6339139193
 20
8.9084493717
 30
0.0
 10
10.6342016187
 20
8.9093702303
 30
0.0
 10
10.6344316088
 20
8.910106979
 30
0.0
 10
10.6346045654
 20
8.9106593714
 30
0.0
 10
10.6347472196
 20
8.9111202365
 30
0.0
 10
10.6348499749
 20
8.9114417859
 30
0.0
 10
10.6349041682
 20
8.9116271775
 30
0.0
 10
10.6349575573
 20
8.9117615757
 30
0.0
 10
10.6349622319
 20
8.9119137315
 30
0.0
 10
10.6349854569
 20
8.9121104118
 30
0.0
 10
10.6350181837
 20
8.9124574883
 30
0.0
 10
10.6350690753
 20
8.912951803
 30
0.0
 10
10.6351283736
 20
8.9135456264
 30
0.0
 10
10.6352080568
 20
8.9143371655
 30
0.0
 10
10.635307449
 20
8.9153266666
 30
0.0
 10
10.6354665948
 20
8.9169098251
 30
0.0
 10
10.6356654864
 20
8.9188887881
 30
0.0
 10
10.6359041738
 20
8.9212635373
 30
0.0
 10
10.6361428565
 20
8.9236382882
 30
0.0
 10
10.6364611018
 20
8.9268046221
 30
0.0
 10
10.6368589078
 20
8.9307625398
 30
0.0
 10
10.6373362752
 20
8.9355120409
 30
0.0
 10
10.6379727651
 20
8.941844709
 30
0.0
 10
10.6384501325
 20
8.9465942102
 30
0.0
 10
10.6387683774
 20
8.9497605442
 30
0.0
  0
SPLINE
  5
3B0
100
AcDbEntity
  8
0
100
AcDbSpline
 62
4
  6
CONTINUOUS
 70
0
 71
3
 72
403
 73
399
 74
0
 42
0.0000001
 43
0.0000001
 44
0.0000000001
 40
0.0
 40
0.0
 40
0.0
 40
0.0
 40
0.015625
 40
0.0234375
 40
0.03125
 40
0.0390625
 40
0.04296875
 40
0.046875
 40
0.05078125
 40
0.0546875
 40
0.056640625
 40
0.05859375
 40
0.0595703125
 40
0.060546875
 40
0.0615234375
 40
0.0620117188
 40
0.0622558594
 40
0.0625
 40
0.0627441406
 40
0.0629882812
 40
0.0634765625
 40
0.064453125
 40
0.0654296875
 40
0.06640625
 40
0.068359375
 40
0.0703125
 40
0.07421875
 40
0.078125
 40
0.08203125
 40
0.0859375
 40
0.09375
 40
0.1015625
 40
0.10546875
 40
0.109375
 40
0.11328125
 40
0.1171875
 40
0.119140625
 40
0.12109375
 40
0.1220703125
 40
0.123046875
 40
0.1240234375
 40
0.1245117188
 40
0.1247558594
 40
0.125
 40
0.1252441406
 40
0.1254882812
 40
0.1259765625
 40
0.126953125
 40
0.1279296875
 40
0.12890625
 40
0.130859375
 40
0.1328125
 40
0.13671875
 40
0.140625
 40
0.14453125
 40
0.1484375
 40
0.15625
 40
0.1640625
 40
0.16796875
 40
0.171875
 40
0.17578125
 40
0.1796875
 40
0.181640625
 40
0.18359375
 40
0.1845703125
 40
0.185546875
 40
0.1865234375
 40
0.1870117188
 40
0.1872558594
 40
0.1875
 40
0.1877441406
 40
0.1879882812
 40
0.1884765625
 40
0.189453125
 40
0.1904296875
 40
0.19140625
 40
0.193359375
 40
0.1953125
 40
0.19921875
 40
0.203125
 40
0.20703125
 40
0.2109375
 40
0.21875
 40
0.2265625
 40
0.23046875
 40
0.234375
 40
0.23828125
 40
0.2421875
 40
0.244140625
 40
0.24609375
 40
0.2470703125
 40
0.248046875
 40
0.2490234375
 40
0.2495117188
 40
0.2497558594
 40
0.25
 40
0.2502441406
 40
0.2504882812
 40
0.2509765625
 40
0.251953125
 40
0.2529296875
 40
0.25390625
 40
0.255859375
 40
0.2578125
 40
0.26171875
 40
0.265625
 40
0.26953125
 40
0.2734375
 40
0.28125
 40
0.2890625
 40
0.29296875
 40
0.296875
 40
0.30078125
 40
0.3046875
 40
0.306640625
 40
0.30859375
 40
0.3095703125
 40
0.310546875
 40
0.3115234375
 40
0.3120117188
 40
0.3122558594
 40
0.3125
 40
0.3127441406
 40
0.3129882812
 40
0.3134765625
 40
0.314453125
 40
0.3154296875
 40
0.31640625
 40
0.318359375
 40
0.3203125
 40
0.32421875
 40
0.328125
 40
0.33203125
 40
0.3359375
 40
0.34375
 40
0.3515625
 40
0.35546875
 40
0.359375
 40
0.36328125
 40
0.3671875
 40
0.369140625
 40
0.37109375
 40
0.3720703125
 40
0.373046875
 40
0.3740234375
 40
0.3745117188
 40
0.3747558594
 40
0.375
 40
0.3752441406
 40
0.3754882812
 40
0.3759765625
 40
0.376953125
 40
0.3779296875
 40
0.37890625
 40
0.380859375
 40
0.3828125
 40
0.38671875
 40
0.390625
 40
0.39453125
 40
0.3984375
 40
0.40625
 40
0.4140625
 40
0.41796875
 40
0.421875
 40
0.42578125
 40
0.4296875
 40
0.431640625
 40
0.43359375
 40
0.4345703125
 40
0.435546875
 40
0.4365234375
 40
0.4370117188
 40
0.4372558594
 40
0.4375
 40
0.4377441406
 40
0.4379882812
 40
0.4384765625
 40
0.439453125
 40
0.4404296875
 40
0.44140625
 40
0.443359375
 40
0.4453125
 40
0.44921875
 40
0.453125
 40
0.45703125
 40
0.4609375
 40
0.46875
 40
0.4765625
 40
0.48046875
 40
0.484375
 40
0.48828125
 40
0.4921875
 40
0.494140625
 40
0.49609375
 40
0.4970703125
 40
0.498046875
 40
0.4990234375
 40
0.4995117188
 40
0.4997558594
 40
0.5
 40
0.5002441406
 40
0.5004882812
 40
0.5009765625
 40
0.501953125
 40
0.5029296875
 40
0.50390625
 40
0.505859375
 40
0.5078125
 40
0.51171875
 40
0.515625
 40
0.51953125
 40
0.5234375
 40
0.53125
 40
0.5390625
 40
0.54296875
 40
0.546875
 40
0.55078125
 40
0.5546875
 40
0.556640625
 40
0.55859375
 40
0.5595703125
 40
0.560546875
 40
0.5615234375
 40
0.5620117188
 40
0.5622558594
 40
0.5625
 40
0.5627441406
 40
0.5629882812
 40
0.5634765625
 40
0.564453125
 40
0.5654296875
 40
0.56640625
 40
0.568359375
 40
0.5703125
 40
0.57421875
 40
0.578125
 40
0.58203125
 40
0.5859375
 40
0.59375
 40
0.6015625
 40
0.60546875
 40
0.609375
 40
0.61328125
 40
0.6171875
 40
0.619140625
 40
0.62109375
 40
0.6220703125
 40
0.623046875
 40
0.6240234375
 40
0.6245117188
 40
0.6247558594
 40
0.625
 40
0.6252441406
 40
0.6254882812
 40
0.6259765625
 40
0.626953125
 40
0.6279296875
 40
0.62890625
 40
0.630859375
 40
0.6328125
 40
0.63671875
 40
0.640625
 40
0.64453125
 40
0.6484375
 40
0.65625
 40
0.6640625
 40
0.66796875
 40
0.671875
 40
0.67578125
 40
0.6796875
 40
0.681640625
 40
0.68359375
 40
0.6845703125
 40
0.685546875
 40
0.6865234375
 40
0.6870117188
 40
0.6872558594
 40
0.6875
 40
0.6877441406
 40
0.6879882812
 40
0.6884765625
 40
0.689453125
 40
0.6904296875
 40
0.69140625
 40
0.693359375
 40
0.6953125
 40
0.69921875
 40
0.703125
 40
0.70703125
 40
0.7109375
 40
0.71875
 40
0.7265625
 40
0.73046875
 40
0.734375
 40
0.73828125
 40
0.7421875
 40
0.744140625
 40
0.74609375
 40
0.7470703125
 40
0.748046875
 40
0.7490234375
 40
0.7495117188
 40
0.7497558594
 40
0.75
 40
0.7502441406
 40
0.7504882812
 40
0.7509765625
 40
0.751953125
 40
0.7529296875
 40
0.75390625
 40
0.755859375
 40
0.7578125
 40
0.76171875
 40
0.765625
 40
0.76953125
 40
0.7734375
 40
0.78125
 40
0.7890625
 40
0.79296875
 40
0.796875
 40
0.80078125
 40
0.8046875
 40
0.806640625
 40
0.80859375
 40
0.8095703125
 40
0.810546875
 40
0.8115234375
 40
0.8120117188
 40
0.8122558594
 40
0.8125
 40
0.8127441406
 40
0.8129882812
 40
0.8134765625
 40
0.814453125
 40
0.8154296875
 40
0.81640625
 40
0.818359375
 40
0.8203125
 40
0.82421875
 40
0.828125
 40
0.83203125
 40
0.8359375
 40
0.84375
 40
0.8515625
 40
0.85546875
 40
0.859375
 40
0.86328125
 40
0.8671875
 40
0.869140625
 40
0.87109375
 40
0.8720703125
 40
0.873046875
 40
0.8740234375
 40
0.8745117188
 40
0.8747558594
 40
0.875
 40
0.8752441406
 40
0.8754882812
 40
0.8759765625
 40
0.876953125
 40
0.8779296875
 40
0.87890625
 40
0.880859375
 40
0.8828125
 40
0.88671875
 40
0.890625
 40
0.89453125
 40
0.8984375
 40
0.90625
 40
0.9140625
 40
0.91796875
 40
0.921875
 40
0.92578125
 40
0.9296875
 40
0.931640625
 40
0.93359375
 40
0.9345703125
 40
0.935546875
 40
0.9365234375
 40
0.9370117188
 40
0.9372558594
 40
0.9375
 40
0.9377441406
 40
0.9379882812
 40
0.9384765625
 40
0.939453125
 40
0.9404296875
 40
0.94140625
 40
0.943359375
 40
0.9453125
 40
0.94921875
 40
0.953125
 40
0.95703125
 40
0.9609375
 40
0.96875
 40
0.9765625
 40
0.984375
 40
1.0
 40
1.0
 40
1.0
 40
1.0
 10
10.6387683774
 20
8.9497605273
 30
0.0
 10
10.6384611657
 20
8.9529150194
 30
0.0
 10
10.6380003482
 20
8.9576467576
 30
0.0
 10
10.6373859249
 20
8.9639557418
 30
0.0
 10
10.6369251074
 20
8.96868748
 30
0.0
 10
10.6365410929
 20
8.9726305952
 30
0.0
 10
10.636233881
 20
8.9757850873
 30
0.0
 10
10.6360034732
 20
8.9781509565
 30
0.0
 10
10.6357730608
 20
8.9805168251
 30
0.0
 10
10.6355810649
 20
8.9824883841
 30
0.0
 10
10.6354274357
 20
8.9840656272
 30
0.0
 10
10.6353314916
 20
8.9850514136
 30
0.0
 10
10.6352545666
 20
8.985840021
 30
0.0
 10
10.6351973373
 20
8.9864315362
 30
0.0
 10
10.6351481686
 20
8.9869242755
 30
0.0
 10
10.6351166504
 20
8.9872695661
 30
0.0
 10
10.6350941121
 20
8.9874662924
 30
0.0
 10
10.6350899635
 20
8.9876154782
 30
0.0
 10
10.6350370584
 20
8.9877583912
 30
0.0
 10
10.6349835252
 20
8.9879511299
 30
0.0
 10
10.6348819182
 20
8.9882874032
 30
0.0
 10
10.6347409079
 20
8.9887683266
 30
0.0
 10
10.6345699225
 20
8.9893452065
 30
0.0
 10
10.6343425612
 20
8.9901144595
 30
0.0
 10
10.6340581475
 20
8.9910759983
 30
0.0
 10
10.6336032042
 20
8.9926144758
 30
0.0
 10
10.6330344844
 20
8.9945375674
 30
0.0
 10
10.632352038
 20
8.9968452795
 30
0.0
 10
10.631669587
 20
8.9991529911
 30
0.0
 10
10.6307596539
 20
9.00222994
 30
0.0
 10
10.629622237
 20
9.0060761261
 30
0.0
 10
10.6284848204
 20
9.0099223123
 30
0.0
 10
10.6275748867
 20
9.0129992611
 30
0.0
 10
10.6268924376
 20
9.0153069731
 30
0.0
 10
10.6262099841
 20
9.0176146835
 30
0.0
 10
10.6256412865
 20
9.0195377803
 30
0.0
 10
10.6251862978
 20
9.0210762472
 30
0.0
 10
10.6249019997
 20
9.022037813
 30
0.0
 10
10.6246744013
 20
9.0228070107
 30
0.0
 10
10.6245041403
 20
9.0233840592
 30
0.0
 10
10.6243608634
 20
9.0238644554
 30
0.0
 10
10.6242633027
 20
9.0242016697
 30
0.0
 10
10.6242032862
 20
9.0243929007
 30
0.0
 10
10.6241702955
 20
9.0245404451
 30
0.0
 10
10.624091352
 20
9.024672236
 30
0.0
 10
10.6240021229
 20
9.0248534523
 30
0.0
 10
10.6238385038
 20
9.0251680205
 30
0.0
 10
10.6236086667
 20
9.0256187421
 30
0.0
 10
10.623331191
 20
9.0261590352
 30
0.0
 10
10.622961807
 20
9.026879626
 30
0.0
 10
10.6224998772
 20
9.0277802961
 30
0.0
 10
10.6217609012
 20
9.0292214064
 30
0.0
 10
10.6208371429
 20
9.0310227813
 30
0.0
 10
10.6197286493
 20
9.0331844367
 30
0.0
 10
10.6186201514
 20
9.0353460906
 30
0.0
 10
10.6171421556
 20
9.0382282964
 30
0.0
 10
10.6152946604
 20
9.0418310534
 30
0.0
 10
10.6134471655
 20
9.0454338105
 30
0.0
 10
10.6119691692
 20
9.048316016
 30
0.0
 10
10.610860673
 20
9.0504776707
 30
0.0
 10
10.6097521726
 20
9.0526393233
 30
0.0
 10
10.6088284356
 20
9.0544407068
 30
0.0
 10
10.6080894162
 20
9.0558817995
 30
0.0
 10
10.6076275968
 20
9.0567825146
 30
0.0
 10
10.6072579861
 20
9.057503013
 30
0.0
 10
10.6069812031
 20
9.0580435886
 30
0.0
 10
10.6067491985
 20
9.0584934262
 30
0.0
 10
10.6065894488
 20
9.0588095725
 30
0.0
 10
10.60649402
 20
9.0589882602
 30
0.0
 10
10.6064341198
 20
9.0591278181
 30
0.0
 10
10.6063296058
 20
9.0592461912
 30
0.0
 10
10.6062058155
 20
9.0594114114
 30
0.0
 10
10.605981932
 20
9.059697104
 30
0.0
 10
10.605665889
 20
9.0601070362
 30
0.0
 10
10.605285015
 20
9.0605981844
 30
0.0
 10
10.6047777496
 20
9.0612533178
 30
0.0
 10
10.6041434739
 20
9.0620721424
 30
0.0
 10
10.6031287411
 20
9.0633823133
 30
0.0
 10
10.601860288
 20
9.0650200092
 30
0.0
 10
10.6003381601
 20
9.0669852519
 30
0.0
 10
10.5988160281
 20
9.0689504925
 30
0.0
 10
10.5967865201
 20
9.0715708141
 30
0.0
 10
10.5942496346
 20
9.0748462158
 30
0.0
 10
10.5917127494
 20
9.0781216177
 30
0.0
 10
10.589683241
 20
9.0807419389
 30
0.0
 10
10.5881611104
 20
9.0827071807
 30
0.0
 10
10.5866389768
 20
9.084672419
 30
0.0
 10
10.5853705418
 20
9.0863101285
 30
0.0
 10
10.584355772
 20
9.0876202716
 30
0.0
 10
10.5837215905
 20
9.0884391668
 30
0.0
 10
10.5832141318
 20
9.0890941553
 30
0.0
 10
10.5828338485
 20
9.0895857461
 30
0.0
 10
10.5825159572
 20
9.0899942937
 30
0.0
 10
10.5822953733
 20
9.0902824581
 30
0.0
 10
10.5821662962
 20
9.0904437178
 30
0.0
 10
10.5820780215
 20
9.0905742565
 30
0.0
 10
10.5819571288
 20
9.0906681224
 30
0.0
 10
10.581807316
 20
9.0908060688
 30
0.0
 10
10.5815398427
 20
9.0910415151
 30
0.0
 10
10.5811605094
 20
9.0913809829
 30
0.0
 10
10.5807041232
 20
9.0917870105
 30
0.0
 10
10.5800960226
 20
9.0923288464
 30
0.0
 10
10.5793357549
 20
9.0930059819
 30
0.0
 10
10.578119406
 20
9.0940894878
 30
0.0
 10
10.5765989426
 20
9.0954438395
 30
0.0
 10
10.5747743982
 20
9.0970690748
 30
0.0
 10
10.5729498506
 20
9.0986943065
 30
0.0
 10
10.5705171217
 20
9.1008612833
 30
0.0
 10
10.5674762101
 20
9.1035700039
 30
0.0
 10
10.5644352988
 20
9.1062787249
 30
0.0
 10
10.5620025694
 20
9.1084457012
 30
0.0
 10
10.5601780231
 20
9.1100709345
 30
0.0
 10
10.5583534741
 20
9.1116961639
 30
0.0
 10
10.5568330249
 20
9.1130505336
 30
0.0
 10
10.5556166471
 20
9.114134003
 30
0.0
 10
10.5548564529
 20
9.1148112312
 30
0.0
 10
10.5542482014
 20
9.1153528768
 30
0.0
 10
10.5537922762
 20
9.1157594861
 30
0.0
 10
10.5534115005
 20
9.1160971337
 30
0.0
 10
10.5531466021
 20
9.1163358294
 30
0.0
 10
10.5529926638
 20
9.1164685694
 30
0.0
 10
10.5528844434
 20
9.1165784278
 30
0.0
 10
10.5527485735
 20
9.1166489013
 30
0.0
 10
10.5525770581
 20
9.1167566039
 30
0.0
 10
10.5522724126
 20
9.1169386826
 30
0.0
 10
10.5518395539
 20
9.1172021415
 30
0.0
 10
10.551319118
 20
9.1175168598
 30
0.0
 10
10.5506255547
 20
9.1179369845
 30
0.0
 10
10.5497584803
 20
9.1184619691
 30
0.0
 10
10.5483712285
 20
9.1193020401
 30
0.0
 10
10.5466371406
 20
9.1203520961
 30
0.0
 10
10.5445562451
 20
9.1216121773
 30
0.0
 10
10.5424753469
 20
9.1228722548
 30
0.0
 10
10.5397008169
 20
9.1245523594
 30
0.0
 10
10.5362326541
 20
9.1266524896
 30
0.0
 10
10.5327644915
 20
9.1287526203
 30
0.0
 10
10.5299899612
 20
9.1304327243
 30
0.0
 10
10.5279090639
 20
9.1316928035
 30
0.0
 10
10.5258281649
 20
9.1329528784
 30
0.0
 10
10.524094088
 20
9.134002954
 30
0.0
 10
10.5227068138
 20
9.1348429849
 30
0.0
 10
10.5218397964
 20
9.1353680718
 30
0.0
 10
10.521146116
 20
9.1357879863
 30
0.0
 10
10.5206260377
 20
9.1361033468
 30
0.0
 10
10.5201920602
 20
9.1363647966
 30
0.0
 10
10.5198894121
 20
9.1365504618
 30
0.0
 10
10.5197146964
 20
9.1366524179
 30
0.0
 10
10.5195886566
 20
9.1367405427
 30
0.0
 10
10.5194435161
 20
9.1367841058
 30
0.0
 10
10.519256658
 20
9.1368577336
 30
0.0
 10
10.518926552
 20
9.1369793401
 30
0.0
 10
10.5184565951
 20
9.1371568499
 30
0.0
 10
10.5178919521
 20
9.1373682411
 30
0.0
 10
10.5171393373
 20
9.137650662
 30
0.0
 10
10.5161984859
 20
9.1380034944
 30
0.0
 10
10.5146931699
 20
9.1385681344
 30
0.0
 10
10.5128115091
 20
9.1392738973
 30
0.0
 10
10.5105535229
 20
9.1401208288
 30
0.0
 10
10.5082955349
 20
9.140967756
 30
0.0
 10
10.5052848848
 20
9.1420969937
 30
0.0
 10
10.501521572
 20
9.1435085403
 30
0.0
 10
10.4977582594
 20
9.1449200873
 30
0.0
 10
10.4947476091
 20
9.1460493244
 30
0.0
 10
10.4924896217
 20
9.1468962534
 30
0.0
 10
10.490231633
 20
9.1477431779
 30
0.0
 10
10.48834998
 20
9.1484489625
 30
0.0
 10
10.486844648
 20
9.1490135583
 30
0.0
 10
10.4859038374
 20
9.1493665032
 30
0.0
 10
10.4851511389
 20
9.1496486931
 30
0.0
 10
10.4845867519
 20
9.1498607901
 30
0.0
 10
10.4841159937
 20
9.1500360915
 30
0.0
 10
10.4837873182
 20
9.1501616405
 30
0.0
 10
10.4835981682
 20
9.1502289514
 30
0.0
 10
10.4834600675
 20
9.1502919178
 30
0.0
 10
10.4833075876
 20
9.150307167
 30
0.0
 10
10.4831092967
 20
9.1503441435
 30
0.0
 10
10.4827599508
 20
9.1504010975
 30
0.0
 10
10.482262107
 20
9.1504865147
 30
0.0
 10
10.4816641714
 20
9.15058728
 30
0.0
 10
10.4808671067
 20
9.1507222398
 30
0.0
 10
10.4798707132
 20
9.1508907321
 30
0.0
 10
10.4782765186
 20
9.1511604356
 30
0.0
 10
10.4762837633
 20
9.1514975253
 30
0.0
 10
10.4738924621
 20
9.15190205
 30
0.0
 10
10.4715011596
 20
9.1523065701
 30
0.0
 10
10.4683127566
 20
9.1528459319
 30
0.0
 10
10.4643272528
 20
9.1535201335
 30
0.0
 10
10.460341749
 20
9.1541943355
 30
0.0
 10
10.457153346
 20
9.1547336965
 30
0.0
 10
10.4547620437
 20
9.1551382186
 30
0.0
 10
10.4523707417
 20
9.1555427359
 30
0.0
 10
10.4503779888
 20
9.1558798487
 30
0.0
 10
10.4487837894
 20
9.156149505
 30
0.0
 10
10.447787408
 20
9.1563181176
 30
0.0
 10
10.4469903184
 20
9.1564528305
 30
0.0
 10
10.4463924587
 20
9.1565543501
 30
0.0
 10
10.4458943776
 20
9.1566374071
 30
0.0
 10
10.4455454552
 20
9.1566985746
 30
0.0
 10
10.4453464858
 20
9.1567288
 30
0.0
 10
10.4451960902
 20
9.1567647863
 30
0.0
 10
10.4450501613
 20
9.1567498674
 30
0.0
 10
10.4448540313
 20
9.1567477318
 30
0.0
 10
10.4445115298
 20
9.1567357214
 30
0.0
 10
10.4440218625
 20
9.156722889
 30
0.0
 10
10.4434344241
 20
9.1567056388
 30
0.0
 10
10.4426511162
 20
9.1566832852
 30
0.0
 10
10.4416720007
 20
9.1566551217
 30
0.0
 10
10.4401054051
 20
9.1566101839
 30
0.0
 10
10.4381471644
 20
9.1565539692
 30
0.0
 10
10.4357972738
 20
9.1564865297
 30
0.0
 10
10.4334473837
 20
9.1564190854
 30
0.0
 10
10.4303141968
 20
9.1563291613
 30
0.0
 10
10.4263977132
 20
9.1562167556
 30
0.0
 10
10.4224812295
 20
9.1561043503
 30
0.0
 10
10.4193480426
 20
9.1560144255
 30
0.0
 10
10.4169981522
 20
9.1559469832
 30
0.0
 10
10.4146482628
 20
9.1558795362
 30
0.0
 10
10.4126900187
 20
9.155823345
 30
0.0
 10
10.4111234299
 20
9.1557783591
 30
0.0
 10
10.4101442972
 20
9.155750318
 30
0.0
 10
10.4093610246
 20
9.1557277132
 30
0.0
 10
10.4087734782
 20
9.1557112304
 30
0.0
 10
10.4082841488
 20
9.1556959968
 30
0.0
 10
10.407941044
 20
9.155688273
 30
0.0
 10
10.4077458807
 20
9.1556792693
 30
0.0
 10
10.4075969826
 20
9.1556854468
 30
0.0
 10
10.4074577386
 20
9.1556421984
 30
0.0
 10
10.4072687124
 20
9.1556017741
 30
0.0
 10
10.4069394856
 20
9.1555229991
 30
0.0
 10
10.4064683413
 20
9.1554146628
 30
0.0
 10
10.4059033193
 20
9.1552828618
 30
0.0
 10
10.4051498339
 20
9.1551077549
 30
0.0
 10
10.4042080192
 20
9.1548886563
 30
0.0
 10
10.4027010921
 20
9.1545382187
 30
0.0
 10
10.4008174414
 20
9.1541001305
 30
0.0
 10
10.3985570571
 20
9.1535744423
 30
0.0
 10
10.3962966737
 20
9.1530487494
 30
0.0
 10
10.3932828288
 20
9.1523478272
 30
0.0
 10
10.3895155228
 20
9.1514716738
 30
0.0
 10
10.3857482168
 20
9.1505955208
 30
0.0
 10
10.3827343721
 20
9.149894598
 30
0.0
 10
10.3804739881
 20
9.149368907
 30
0.0
 10
10.3782136059
 20
9.1488432115
 30
0.0
 10
10.3763299485
 20
9.148405146
 30
0.0
 10
10.3748230352
 20
9.1480546621
 30
0.0
 10
10.3738811856
 20
9.1478356815
 30
0.0
 10
10.3731277718
 20
9.1476603325
 30
0.0
 10
10.372562531
 20
9.1475292711
 30
0.0
 10
10.372092071
 20
9.1474186207
 30
0.0
 10
10.3717616226
 20
9.1473439767
 30
0.0
 10
10.3715745538
 20
9.1472969335
 30
0.0
 10
10.3714292973
 20
9.1472740163
 30
0.0
 10
10.3713029811
 20
9.1472038329
 30
0.0
 10
10.3711279529
 20
9.1471267421
 30
0.0
 10
10.3708247318
 20
9.1469841514
 30
0.0
 10
10.3703899494
 20
9.1467844666
 30
0.0
 10
10.3698688993
 20
9.1465431258
 30
0.0
 10
10.3691739253
 20
9.1462219384
 30
0.0
 10
10.3683052902
 20
9.1458202487
 30
0.0
 10
10.366915428
 20
9.1451776599
 30
0.0
 10
10.365178116
 20
9.1443743846
 30
0.0
 10
10.3630933349
 20
9.1434104711
 30
0.0
 10
10.3610085556
 20
9.1424465531
 30
0.0
 10
10.3582288492
 20
9.1411613306
 30
0.0
 10
10.3547542164
 20
9.139554802
 30
0.0
 10
10.3512795835
 20
9.1379482737
 30
0.0
 10
10.3484998774
 20
9.1366630507
 30
0.0
 10
10.3464150972
 20
9.1356991345
 30
0.0
 10
10.3443303193
 20
9.134735214
 30
0.0
 10
10.3425929972
 20
9.1339319606
 30
0.0
 10
10.3412031557
 20
9.1332893271
 30
0.0
 10
10.3403344678
 20
9.1328877514
 30
0.0
 10
10.3396396021
 20
9.1325663298
 30
0.0
 10
10.3391182214
 20
9.1323257047
 30
0.0
 10
10.3386844734
 20
9.1321237806
 30
0.0
 10
10.3383794057
 20
9.1319851874
 30
0.0
 10
10.3382073361
 20
9.1319016917
 30
0.0
 10
10.3380719323
 20
9.1318511818
 30
0.0
 10
10.3379608073
 20
9.1317543743
 30
0.0
 10
10.3378041719
 20
9.1316414467
 30
0.0
 10
10.3375340057
 20
9.1314362992
 30
0.0
 10
10.3371459911
 20
9.1311471652
 30
0.0
 10
10.3366812566
 20
9.1307985206
 30
0.0
 10
10.3360613022
 20
9.1303342492
 30
0.0
 10
10.3352864647
 20
9.1297537086
 30
0.0
 10
10.3340466658
 20
9.1288249562
 30
0.0
 10
10.3324969374
 20
9.1276639771
 30
0.0
 10
10.3306372547
 20
9.1262708187
 30
0.0
 10
10.3287775743
 20
9.1248776559
 30
0.0
 10
10.3262979996
 20
9.1230201071
 30
0.0
 10
10.3231985315
 20
9.1206981704
 30
0.0
 10
10.3200990632
 20
9.1183762341
 30
0.0
 10
10.3176194889
 20
9.1165186847
 30
0.0
 10
10.3157598072
 20
9.1151255235
 30
0.0
 10
10.3139001292
 20
9.113732359
 30
0.0
 10
10.312350386
 20
9.112571399
 30
0.0
 10
10.3111106173
 20
9.1116426075
 30
0.0
 10
10.3103357028
 20
9.1110621665
 30
0.0
 10
10.3097159066
 20
9.1105976908
 30
0.0
 10
10.3092506886
 20
9.1102496705
 30
0.0
 10
10.3088641869
 20
9.1099585831
 30
0.0
 10
10.30859132
 20
9.1097569226
 30
0.0
 10
10.3084390118
 20
9.1096384081
 30
0.0
 10
10.308314595
 20
9.1095587618
 30
0.0
 10
10.308229113
 20
9.1094437973
 30
0.0
 10
10.3081015561
 20
9.1093028306
 30
0.0
 10
10.3078846592
 20
9.1090503992
 30
0.0
 10
10.3075714983
 20
9.1086927837
 30
0.0
 10
10.3071971212
 20
9.1082623606
 30
0.0
 10
10.3066974571
 20
9.1076889118
 30
0.0
 10
10.3060730464
 20
9.1069719472
 30
0.0
 10
10.3050738946
 20
9.1058248896
 30
0.0
 10
10.3038249874
 20
9.1043910382
 30
0.0
 10
10.3023262847
 20
9.1026704292
 30
0.0
 10
10.3008275858
 20
9.1009498168
 30
0.0
 10
10.2988293193
 20
9.0986556681
 30
0.0
 10
10.2963314866
 20
9.0957879818
 30
0.0
 10
10.2938336536
 20
9.0929202958
 30
0.0
 10
10.2918353876
 20
9.0906261466
 30
0.0
 10
10.2903366871
 20
9.0889055356
 30
0.0
 10
10.2888379905
 20
9.0871849215
 30
0.0
 10
10.2875890644
 20
9.0857510856
 30
0.0
 10
10.286589951
 20
9.0846039965
 30
0.0
 10
10.2859654425
 20
9.0838871122
 30
0.0
 10
10.2854659793
 20
9.0833134986
 30
0.0
 10
10.2850909885
 20
9.0828835791
 30
0.0
 10
10.2847797478
 20
9.082524388
 30
0.0
 10
10.2845594229
 20
9.0822747692
 30
0.0
 10
10.2844373585
 20
9.0821292961
 30
0.0
 10
10.2843350052
 20
9.0820281739
 30
0.0
 10
10.2842739543
 20
9.0818965379
 30
0.0
 10
10.2841781464
 20
9.0817316668
 30
0.0
 10
10.2840171949
 20
9.0814381833
 30
0.0
 10
10.2837837548
 20
9.0810215138
 30
0.0
 10
10.2835051289
 20
9.0805204007
 30
0.0
 10
10.283133103
 20
9.0798526374
 30
0.0
 10
10.2826682502
 20
9.0790178007
 30
0.0
 10
10.2819243854
 20
9.077682136
 30
0.0
 10
10.2809945889
 20
9.0760125298
 30
0.0
 10
10.2798788182
 20
9.0740090132
 30
0.0
 10
10.2787630515
 20
9.0720054937
 30
0.0
 10
10.2772753612
 20
9.0693341354
 30
0.0
 10
10.2754157489
 20
9.0659949371
 30
0.0
 10
10.2735561362
 20
9.0626557391
 30
0.0
 10
10.2720684464
 20
9.0599843804
 30
0.0
 10
10.270952678
 20
9.057980862
 30
0.0
 10
10.2698369139
 20
9.0559773414
 30
0.0
 10
10.2689070969
 20
9.0543077476
 30
0.0
 10
10.2681632739
 20
9.0529720576
 30
0.0
 10
10.2676983148
 20
9.0521372853
 30
0.0
 10
10.2673265072
 20
9.0514693899
 30
0.0
 10
10.2670472143
 20
9.0509686806
 30
0.0
 10
10.2668158609
 20
9.0505507475
 30
0.0
 10
10.2666511844
 20
9.0502595197
 30
0.0
 10
10.2665613448
 20
9.0500910344
 30
0.0
 10
10.2664819609
 20
9.0499704999
 30
0.0
 10
10.2664484634
 20
9.0498276825
 30
0.0
 10
10.2663877943
 20
9.0496450318
 30
0.0
 10
10.2662890807
 20
9.0493217717
 30
0.0
 10
10.2661441625
 20
9.0488618648
 30
0.0
 10
10.2659719294
 20
9.0483091662
 30
0.0
 10
10.2657417025
 20
9.0475725178
 30
0.0
 10
10.2654541185
 20
9.0466516103
 30
0.0
 10
10.2649938724
 20
9.0451782126
 30
0.0
 10
10.2644186031
 20
9.0433364468
 30
0.0
 10
10.2637282635
 20
9.0411263358
 30
0.0
 10
10.2630379284
 20
9.0389162227
 30
0.0
 10
10.2621174799
 20
9.0359694059
 30
0.0
 10
10.26096692
 20
9.0322858847
 30
0.0
 10
10.2598163596
 20
9.0286023637
 30
0.0
 10
10.2588959118
 20
9.0256555467
 30
0.0
 10
10.2582055747
 20
9.0234454344
 30
0.0
 10
10.2575152423
 20
9.0212353204
 30
0.0
 10
10.2569399508
 20
9.019393564
 30
0.0
 10
10.25647975
 20
9.0179201471
 30
0.0
 10
10.2561920506
 20
9.0169992884
 30
0.0
 10
10.2559620605
 20
9.0162625398
 30
0.0
 10
10.2557891039
 20
9.0157101474
 30
0.0
 10
10.2556464497
 20
9.0152492823
 30
0.0
 10
10.2555436944
 20
9.0149277329
 30
0.0
 10
10.2554895011
 20
9.0147423412
 30
0.0
 10
10.255436112
 20
9.014607943
 30
0.0
 10
10.2554314374
 20
9.0144557873
 30
0.0
 10
10.2554082124
 20
9.014259107
 30
0.0
 10
10.2553754856
 20
9.0139120305
 30
0.0
 10
10.255324594
 20
9.0134177158
 30
0.0
 10
10.2552652957
 20
9.0128238923
 30
0.0
 10
10.2551856125
 20
9.0120323533
 30
0.0
 10
10.2550862203
 20
9.0110428522
 30
0.0
 10
10.2549270745
 20
9.0094596937
 30
0.0
 10
10.2547281829
 20
9.0074807307
 30
0.0
 10
10.2544894955
 20
9.0051059815
 30
0.0
 10
10.2542508128
 20
9.0027312306
 30
0.0
 10
10.2539325675
 20
8.9995648966
 30
0.0
 10
10.2535347615
 20
8.995606979
 30
0.0
 10
10.2530573941
 20
8.9908574779
 30
0.0
 10
10.2524209043
 20
8.9845248097
 30
0.0
 10
10.2519435369
 20
8.9797753086
 30
0.0
 10
10.2516252919
 20
8.9766089746
 30
0.0
  0
ENDSEC
  0
SECTION
  2
OBJECTS
  0
DICTIONARY
  5
C
100
AcDbDictionary
280
0
281
1
  3
ACAD_GROUP
350
D
  3
ACAD_MLINESTYLE
350
17
  3
ACAD_LAYOUT
350
1A
  3
ACAD_PLOTSETTINGS
350
19
  3
ACAD_PLOTSTYLENAME
350
E
  3
ACAD_IMAGE_DICT
350
       3B2
  3
ACAD_IMAGE_VARS
350
       3B3
  3
ACAD_TABLESTYLE
350
       3B4
  0
IMAGEDEF_REACTOR
  5
3B1
100
AcDbRasterImageDefReactor
 90
2
330
287
  0
DICTIONARY
  5
D
102
{ACAD_REACTORS
330
C
102
}
100
AcDbDictionary
280
0
281
1
  0
ACDBDICTIONARYWDFLT
  5
E
102
{ACAD_REACTORS
330
C
102
}
100
AcDbDictionary
281
1
  3
Normal
350
F
100
AcDbDictionaryWithDefault
340
F
  0
DICTIONARY
  5
3B2
330
C
100
AcDbDictionary
281
1
  3
J6I_assy_2_img_1
350
       3B7
  0
RASTERVARIABLES
  5
3B3
330
C
100
AcDbRasterVariables
 90
0
 70
0
 71
1
 72
5
  0
DICTIONARY
  5
17
102
{ACAD_REACTORS
330
C
102
}
100
AcDbDictionary
280
0
281
1
  3
Standard
350
18
  0
DICTIONARY
  5
3B4
330
C
100
AcDbDictionary
281
1
  3
Standard
350
       3B8
  3
Standard1
350
       3B9
  0
DICTIONARY
  5
19
102
{ACAD_REACTORS
330
C
102
}
100
AcDbDictionary
281
1
  0
DICTIONARY
  5
1A
102
{ACAD_REACTORS
330
C
102
}
100
AcDbDictionary
281
1
  3
Model
350
3B5
  3
Layout1
350
3B6
  0
ACDBPLACEHOLDER
  5
F
102
{ACAD_REACTORS
330
E
102
}
  0
MLINESTYLE
  5
18
102
{ACAD_REACTORS
330
17
102
}
100
AcDbMlineStyle
  2
STANDARD
 70
0
  3

 62
256
 51
90.0
 52
90.0
 71
2
 49
0.5
 62
256
  6
BYLAYER
 49
-0.5
 62
256
  6
BYLAYER
  0
LAYOUT
  5
3B5
102
{ACAD_REACTORS
330
1A
102
}
100
AcDbPlotSettings
  1

  2
none_device
  4
ANSI_C_(22.00_x_17.00_Inches)
  6

 40
0.0
 41
0.0
 42
0.0
 43
0.0
 44
558.8
 45
431.8
 46
0.0
 47
0.0
 48
0.0
 49
0.0
140
0.0
141
0.0
142
1.0
143
1.0
 70
1024
 72
0
 73
0
 74
0
  7

 75
0
147
1.0
148
0.0
149
0.0
100
AcDbLayout
  1
Model
 70
0
 71
0
 10
0.0
 20
0.0
 11
22.0
 21
17.0
 12
0.0
 22
0.0
 32
0.0
 14
0.0
 24
0.0
 34
0.0
 15
0.0
 25
0.0
 35
0.0
146
0.0
 13
0.0
 23
0.0
 33
0.0
 16
1.0
 26
0.0
 36
0.0
 17
0.0
 27
1.0
 37
0.0
 76
0
330
204
345
0
346
0
  0
LAYOUT
  5
3B6
102
{ACAD_REACTORS
330
1A
102
}
100
AcDbPlotSettings
  1

  2
none_device
  4
ANSI_C_(22.00_x_17.00_Inches)
  6

 40
0.0
 41
0.0
 42
0.0
 43
0.0
 44
558.8
 45
431.8
 46
0.0
 47
0.0
 48
0.0
 49
0.0
140
0.0
141
0.0
142
1.0
143
1.0
 70
0
 72
0
 73
0
 74
0
  7

 75
0
147
1.0
148
0.0
149
0.0
100
AcDbLayout
  1
Layout1
 70
0
 71
1
 10
0.0
 20
0.0
 11
22.0
 21
17.0
 12
0.0
 22
0.0
 32
0.0
 14
0.0
 24
0.0
 34
0.0
 15
0.0
 25
0.0
 35
0.0
146
0.0
 13
0.0
 23
0.0
 33
0.0
 16
1.0
 26
0.0
 36
0.0
 17
0.0
 27
1.0
 37
0.0
 76
0
330
205
345
0
346
0
  0
IMAGEDEF
  5
3B7
102
{ACAD_REACTORS
330
3B2
330
3B1
102
}
100
AcDbRasterImageDef
 90
0
  1
J6I_assy_2_img_1.png
 10
369.0
 20
92.0
 11
0.0066666667
 21
0.0066666667
280
1
281
0
  0
TABLESTYLE
  5
3B8
102
{ACAD_REACTORS
330
3B4
330
28A
330
28B
102
}
330
3B4
100
AcDbTableStyle
  3
Standard
 70
0
 71
0
 40
0.06
 41
0.06
280
1
281
1
  7
Standard
140
0.18
170
1
 62
0
 63
7
283
0
  7
Standard
140
0.18
170
1
 62
0
 63
7
283
0
  7
Standard
140
0.18
170
1
 62
0
 63
7
283
0
  0
TABLESTYLE
  5
3B9
102
{ACAD_REACTORS
330
3B4
330
289
102
}
330
3B4
100
AcDbTableStyle
  3
Standard1
 70
1
 71
0
 40
0.06
 41
0.06
280
1
281
1
  7
Standard
140
0.18
170
1
 62
0
 63
7
283
0
  7
Standard
140
0.18
170
1
 62
0
 63
7
283
0
  7
Standard
140
0.18
170
1
 62
0
 63
7
283
0
  0
ENDSEC
  0
EOF
