999
DXF file: J2T_assy_2.dxf
999
Pro/ENGINEER 2014200 by Parametric Technology Corporation
  0
SECTION
  2
HEADER
  9
$ACADVER
  1
AC1021
  9
$DWGCODEPAGE
  3
ANSI_1252
  9
$EXTMAX
 10
22.0
 20
17.0
 30
0.0
  9
$EXTMIN
 10
0.0
 20
0.0
 30
0.0
  9
$LIMMIN
 10
0.0
 20
0.0
  9
$LIMMAX
 10
22.0
 20
17.0
  9
$VIEWCTR
 10
11.0
 20
8.5
  9
$VIEWSIZE
 40
17.0
  9
$CLAYER
  8
0
  9
$LTSCALE
 40
1.21
  9
$CELTYPE
  6
BYLAYER
  9
$DIMSCALE
 40
1.0
  9
$DIMASZ
 40
0.1875
  9
$DIMEXO
 40
0.0625
  9
$DIMDLI
 40
0.836
  9
$DIMEXE
 40
0.125
  9
$DIMCEN
 40
0.198
  9
$DIMLFAC
 40
1.0
  9
$DIMBLK
  1
_FILLED
  9
$DIMTXT
 40
0.1
  9
$DIMTOL
 70
0
  9
$DIMLIM
 70
0
  9
$DIMTFAC
 40
1.0
  9
$DIMGAP
 40
0.09
  9
$DIMDSEP
 70
46
  9
$AUNITS
 70
0
  9
$PDMODE
 70
3
  9
$PDSIZE
 40
0.3125
  9
$HANDSEED
  5
3CB
  9
$TILEMODE
 70
1
  9
$MEASUREMENT
 70
0
  9
$INSUNITS
 70
1
  0
ENDSEC
  0
SECTION
  2
CLASSES
  0
CLASS
  1
ACDBDICTIONARYWDFLT
  2
AcDbDictionaryWithDefault
  3
AutoCAD 2000
 90
0
 91
1
280
0
281
0
  0
CLASS
  1
ACDBPLACEHOLDER
  2
AcDbPlaceHolder
  3
AutoCAD 2000
 90
0
 91
1
280
0
281
0
  0
CLASS
  1
LAYOUT
  2
AcDbLayout
  3
AutoCAD 2000
 90
0
 91
0
280
0
281
0
  0
CLASS
  1
RASTERVARIABLES
  2
AcDbRasterVariables
  3
ISM
 90
0
 91
1
280
0
281
0
  0
CLASS
  1
IMAGEDEF
  2
AcDbRasterImageDef
  3
ISM
 90
0
 91
1
280
0
281
0
  0
CLASS
  1
IMAGEDEF_REACTOR
  2
AcDbRasterImageDefReactor
  3
ISM
 90
0
 91
1
280
0
281
0
  0
CLASS
  1
IMAGE
  2
AcDbRasterImage
  3
ISM
 90
127
 91
1
280
0
281
1
  0
CLASS
  1
TABLESTYLE
  2
AcDbTableStyle
  3
ObjectDBX Classes
 90
2047
 91
1
280
0
281
0
  0
CLASS
  1
ACAD_TABLE
  2
AcDbTable
  3
ObjectDBX Classes
 90
1025
 91
3
280
0
281
1
  0
ENDSEC
  0
SECTION
  2
TABLES
  0
TABLE
  2
VPORT
  5
8
100
AcDbSymbolTable
 70
2
  0
VPORT
  5
1F4
100
AcDbSymbolTableRecord
100
AcDbViewportTableRecord
  2
*ACTIVE
 70
0
 10
0.0
 20
0.0
 11
1.0
 21
1.0
 12
11.0
 22
8.5
 13
0.0
 23
0.0
 14
1.0
 24
1.0
 15
0.0
 25
0.0
 16
0.0
 26
0.0
 36
1.0
 17
0.0
 27
0.0
 37
0.0
 40
17.0
 41
1.2941176471
 42
50.0
 43
0.0
 44
0.0
 50
0.0
 51
0.0
 71
0
 72
100
 73
1
 74
1
 75
0
 76
0
 77
0
 78
0
  0
ENDTAB
  0
TABLE
  2
LTYPE
  5
5
100
AcDbSymbolTable
 70
6
  0
LTYPE
  5
14
100
AcDbSymbolTableRecord
100
AcDbLinetypeTableRecord
  2
BYBLOCK
 70
0
  3

 72
65
 73
0
 40
0.0
  0
LTYPE
  5
15
100
AcDbSymbolTableRecord
100
AcDbLinetypeTableRecord
  2
BYLAYER
 70
0
  3

 72
65
 73
0
 40
0.0
  0
LTYPE
  5
16
100
AcDbSymbolTableRecord
100
AcDbLinetypeTableRecord
  2
CONTINUOUS
 70
64
  3
Solid line
 72
65
 73
0
 40
0.0
  0
LTYPE
  5
1F5
100
AcDbSymbolTableRecord
100
AcDbLinetypeTableRecord
  2
CENTER
 70
64
  3
____ _ ____ _ ____ _ ____ _ ____ _ ____ _ ____
 72
65
 73
4
 40
0.6
 49
0.375
 74
0
 49
-0.075
 74
0
 49
0.075
 74
0
 49
-0.075
 74
0
  0
LTYPE
  5
1F6
100
AcDbSymbolTableRecord
100
AcDbLinetypeTableRecord
  2
HIDDEN
 70
64
  3
- - - - - - - - - - - - - - - - - - - -
 72
65
 73
2
 40
0.2
 49
0.1
 74
0
 49
-0.1
 74
0
  0
LTYPE
  5
1F7
100
AcDbSymbolTableRecord
100
AcDbLinetypeTableRecord
  2
PHANTOM
 70
64
  3
_____ _ _ _____ _ _ _____ _ _ _____
 72
65
 73
6
 40
0.8
 49
0.45
 74
0
 49
-0.05
 74
0
 49
0.1
 74
0
 49
-0.05
 74
0
 49
0.1
 74
0
 49
-0.05
 74
0
  0
LTYPE
  5
1F8
100
AcDbSymbolTableRecord
100
AcDbLinetypeTableRecord
  2
DOT
 70
64
  3
. . . . . . . . . . . . . . . . . . . .
 72
65
 73
2
 40
0.2
 49
0.1
 74
0
 49
-0.1
 74
0
  0
LTYPE
  5
1F9
100
AcDbSymbolTableRecord
100
AcDbLinetypeTableRecord
  2
DASHED
 70
64
  3
- - - - - - - - - - - - - - - - - - - -
 72
65
 73
2
 40
0.2
 49
0.1
 74
0
 49
-0.1
 74
0
  0
ENDTAB
  0
TABLE
  2
LAYER
  5
2
100
AcDbSymbolTable
 70
36
  0
LAYER
  5
10
100
AcDbSymbolTableRecord
100
AcDbLayerTableRecord
  2
0
 70
0
 62
7
  6
CONTINUOUS
370
-3
390
F
  0
LAYER
  5
1FA
100
AcDbSymbolTableRecord
100
AcDbLayerTableRecord
  2
DEFAULT_1
 70
0
 62
7
  6
CENTER
370
-3
390
F
  0
LAYER
  5
1FB
100
AcDbSymbolTableRecord
100
AcDbLayerTableRecord
  2
DEFAULT_2
 70
0
 62
8
  6
HIDDEN
370
-3
390
F
  0
LAYER
  5
1FC
100
AcDbSymbolTableRecord
100
AcDbLayerTableRecord
  2
DEFAULT_3
 70
0
 62
7
  6
PHANTOM
370
-3
390
F
  0
LAYER
  5
1FD
100
AcDbSymbolTableRecord
100
AcDbLayerTableRecord
  2
01___PRT_ALL_DTM_PLN
 70
0
 62
7
  6
CONTINUOUS
370
-3
390
F
  0
LAYER
  5
1FE
100
AcDbSymbolTableRecord
100
AcDbLayerTableRecord
  2
01___PRT_DEF_DTM_PLN
 70
0
 62
7
  6
CONTINUOUS
370
-3
390
F
  0
LAYER
  5
1FF
100
AcDbSymbolTableRecord
100
AcDbLayerTableRecord
  2
02___PRT_ALL_AXES
 70
0
 62
7
  6
CONTINUOUS
370
-3
390
F
  0
LAYER
  5
200
100
AcDbSymbolTableRecord
100
AcDbLayerTableRecord
  2
03___PRT_ALL_CURVES
 70
0
 62
7
  6
CONTINUOUS
370
-3
390
F
  0
LAYER
  5
201
100
AcDbSymbolTableRecord
100
AcDbLayerTableRecord
  2
04___PRT_ALL_DTM_PNT
 70
0
 62
7
  6
CONTINUOUS
370
-3
390
F
  0
LAYER
  5
202
100
AcDbSymbolTableRecord
100
AcDbLayerTableRecord
  2
05___PRT_ALL_DTM_CSYS
 70
0
 62
7
  6
CONTINUOUS
370
-3
390
F
  0
LAYER
  5
203
100
AcDbSymbolTableRecord
100
AcDbLayerTableRecord
  2
05___PRT_DEF_DTM_CSYS
 70
0
 62
7
  6
CONTINUOUS
370
-3
390
F
  0
LAYER
  5
204
100
AcDbSymbolTableRecord
100
AcDbLayerTableRecord
  2
06___PRT_ALL_SURFS
 70
0
 62
7
  6
CONTINUOUS
370
-3
390
F
  0
LAYER
  5
205
100
AcDbSymbolTableRecord
100
AcDbLayerTableRecord
  2
DATUM_PLANES
 70
0
 62
7
  6
CONTINUOUS
370
-3
390
F
  0
LAYER
  5
206
100
AcDbSymbolTableRecord
100
AcDbLayerTableRecord
  2
PORT_AREAS
 70
0
 62
7
  6
CONTINUOUS
370
-3
390
F
  0
LAYER
  5
207
100
AcDbSymbolTableRecord
100
AcDbLayerTableRecord
  2
SUNNBOMCOSMETIC
 70
0
 62
7
  6
CONTINUOUS
370
-3
390
F
  0
LAYER
  5
208
100
AcDbSymbolTableRecord
100
AcDbLayerTableRecord
  2
SUNNBOMSTAMPING
 70
0
 62
7
  6
CONTINUOUS
370
-3
390
F
  0
LAYER
  5
209
100
AcDbSymbolTableRecord
100
AcDbLayerTableRecord
  2
THREADS
 70
0
 62
7
  6
CONTINUOUS
370
-3
390
F
  0
ENDTAB
  0
TABLE
  2
STYLE
  5
3
100
AcDbSymbolTable
 70
1
  0
STYLE
  5
11
100
AcDbSymbolTableRecord
100
AcDbTextStyleTableRecord
  2
STANDARD
 70
0
 40
0.0
 41
0.8
 50
0.0
 71
0
 42
0.2
  3
txt
  4

  0
STYLE
  5
20A
100
AcDbSymbolTableRecord
100
AcDbTextStyleTableRecord
  2
TEXTSTYLE_1
 70
0
 40
0.0
 41
0.8
 50
0.0
 71
0
 42
0.2
  3
gdt
  4

  0
ENDTAB
  0
TABLE
  2
VIEW
  5
6
100
AcDbSymbolTable
 70
0
  0
ENDTAB
  0
TABLE
  2
UCS
  5
7
100
AcDbSymbolTable
 70
0
  0
ENDTAB
  0
TABLE
  2
APPID
  5
9
100
AcDbSymbolTable
 70
1
  0
APPID
  5
20B
100
AcDbSymbolTableRecord
100
AcDbRegAppTableRecord
  2
ACAD
 70
0
  0
ENDTAB
  0
TABLE
  2
BLOCK_RECORD
  5
1
100
AcDbSymbolTable
 70
0
  0
BLOCK_RECORD
  5
20C
100
AcDbSymbolTableRecord
100
AcDbBlockTableRecord
  2
*Model_Space
  0
BLOCK_RECORD
  5
20D
100
AcDbSymbolTableRecord
100
AcDbBlockTableRecord
  2
*Paper_Space
  0
BLOCK_RECORD
  5
20E
100
AcDbSymbolTableRecord
100
AcDbBlockTableRecord
  2
SUN_FIRST_THIRD_ANGLE_BL0
  0
BLOCK_RECORD
  5
20F
100
AcDbSymbolTableRecord
100
AcDbBlockTableRecord
  2
*T1
  0
BLOCK_RECORD
  5
210
100
AcDbSymbolTableRecord
100
AcDbBlockTableRecord
  2
*T2
  0
BLOCK_RECORD
  5
211
100
AcDbSymbolTableRecord
100
AcDbBlockTableRecord
  2
*T3
  0
ENDTAB
  0
TABLE
  2
DIMSTYLE
  5
A
100
AcDbSymbolTable
 70
1
100
AcDbDimStyleTable
 71
0
  0
DIMSTYLE
105
212
100
AcDbSymbolTableRecord
100
AcDbDimStyleTableRecord
  2
STANDARD
 70
0
  3

  4

 40
1.0
 41
0.1875
 42
0.0625
 43
0.38
 44
0.125
 45
0.0
 46
0.0
 47
0.001
 48
0.001
140
0.1
141
0.09
142
0.0
143
25.4
144
1.0
145
0.0
146
1.0
147
0.09
 71
0.0
 72
0.0
 73
1
 74
1
 75
0
 76
0
 77
0
 78
4
170
0
171
2
172
0
173
0
174
0
175
0
176
0
177
0
178
0
270
2
271
3
272
3
273
2
274
2
275
0
280
0
281
0
282
0
283
1
284
4
285
0
286
0
287
3
288
0
340
11
278
46
  0
ENDTAB
  0
ENDSEC
  0
SECTION
  2
BLOCKS
  0
BLOCK
  5
20
100
AcDbEntity
  8
0
100
AcDbBlockBegin
  2
*Model_Space
 70
0
 10
0.0
 20
0.0
 30
0.0
  3
*Model_Space
  1

  0
ENDBLK
  5
21
100
AcDbEntity
  8
0
100
AcDbBlockEnd
  0
BLOCK
  5
1C
100
AcDbEntity
  8
0
100
AcDbBlockBegin
  2
*Paper_Space
 70
0
 10
0.0
 20
0.0
 30
0.0
  3
*Paper_Space
  1

  0
ENDBLK
  5
1D
100
AcDbEntity
  8
0
100
AcDbBlockEnd
  0
BLOCK
  5
213
100
AcDbEntity
  8
0
100
AcDbBlockBegin
 62
2
  6
CONTINUOUS
  2
SUN_FIRST_THIRD_ANGLE_BL0
 70
64
 10
20.4816717061
 20
1.2289683772
  3
SUN_FIRST_THIRD_ANGLE_BL0
  1

  0
TEXT
  5
214
100
AcDbEntity
  8
0
100
AcDbText
 62
2
  6
CONTINUOUS
 10
19.4750896608
 20
1.4136269581
  7
STANDARD
 40
0.08
  1
FIRST ANGLE
 41
0.8
 72
0
100
AcDbText
  0
TEXT
  5
215
100
AcDbEntity
  8
0
100
AcDbText
 62
2
  6
CONTINUOUS
 10
20.7842537513
 20
1.4047600029
  7
STANDARD
 40
0.08
  1
THIRD ANGLE
 41
0.8
 72
0
100
AcDbText
  0
LINE
  5
216
100
AcDbEntity
  8
0
100
AcDbLine
 62
7
  6
CONTINUOUS
 10
19.4767170086
 20
1.1727031207
 11
19.6334271527
 21
1.1717972817
  0
LINE
  5
217
100
AcDbEntity
  8
0
100
AcDbLine
 62
7
  6
CONTINUOUS
 10
19.6596964832
 20
1.1717972817
 11
19.6950230232
 21
1.171593082
  0
LINE
  5
218
100
AcDbEntity
  8
0
100
AcDbLine
 62
7
  6
CONTINUOUS
 10
19.7194818561
 20
1.1708914427
 11
19.8852396156
 21
1.1699333054
  0
LINE
  5
219
100
AcDbEntity
  8
0
100
AcDbLine
 62
7
  6
CONTINUOUS
 10
19.4758111696
 20
1.2723454088
 11
19.88525039
 21
1.3511534004
  0
LINE
  5
21A
100
AcDbEntity
  8
0
100
AcDbLine
 62
7
  6
CONTINUOUS
 10
19.88525039
 20
1.3511534004
 11
19.8831348489
 21
0.9851647912
  0
LINE
  5
21B
100
AcDbEntity
  8
0
100
AcDbLine
 62
7
  6
CONTINUOUS
 10
19.8831348489
 20
0.9851647912
 11
19.4767170086
 21
1.0658141206
  0
LINE
  5
21C
100
AcDbEntity
  8
0
100
AcDbLine
 62
7
  6
CONTINUOUS
 10
19.4767170086
 20
1.0658141206
 11
19.4779056764
 21
1.2714536432
  0
CIRCLE
  5
21D
100
AcDbEntity
  8
0
100
AcDbCircle
 62
7
  6
CONTINUOUS
 10
20.2068232291
 20
1.1717972817
 40
0.175742101
  0
CIRCLE
  5
21E
100
AcDbEntity
  8
0
100
AcDbCircle
 62
7
  6
CONTINUOUS
 10
20.2068232291
 20
1.1717972817
 40
0.1005522074
  0
LINE
  5
21F
100
AcDbEntity
  8
0
100
AcDbLine
 62
7
  6
CONTINUOUS
 10
20.2077290681
 20
1.3756110529
 11
20.2071171714
 21
1.2379342989
  0
LINE
  5
220
100
AcDbEntity
  8
0
100
AcDbLine
 62
7
  6
CONTINUOUS
 10
20.2077290681
 20
1.2016899681
 11
20.2074674401
 21
1.1428236749
  0
LINE
  5
221
100
AcDbEntity
  8
0
100
AcDbLine
 62
7
  6
CONTINUOUS
 10
20.208634907
 20
1.101141841
 11
20.2080230104
 21
0.963465087
  0
LINE
  5
222
100
AcDbEntity
  8
0
100
AcDbLine
 62
7
  6
CONTINUOUS
 10
20.0066328138
 20
1.1745147986
 11
20.1443095678
 21
1.1739029019
  0
LINE
  5
223
100
AcDbEntity
  8
0
100
AcDbLine
 62
7
  6
CONTINUOUS
 10
20.1832714155
 20
1.1727031207
 11
20.238153505
 21
1.172335442
  0
LINE
  5
224
100
AcDbEntity
  8
0
100
AcDbLine
 62
7
  6
CONTINUOUS
 10
20.2756669918
 20
1.1717972817
 11
20.407916871
 21
1.1712095044
  0
CIRCLE
  5
225
100
AcDbEntity
  8
0
100
AcDbCircle
 62
7
  6
CONTINUOUS
 10
20.7509457401
 20
1.1693297793
 40
0.1722024983
  0
CIRCLE
  5
226
100
AcDbEntity
  8
0
100
AcDbCircle
 62
7
  6
CONTINUOUS
 10
20.7509457401
 20
1.1693297793
 40
0.0985164967
  0
LINE
  5
227
100
AcDbEntity
  8
0
100
AcDbLine
 62
7
  6
CONTINUOUS
 10
20.7169767782
 20
1.170462078
 11
20.7825395137
 21
1.1682766535
  0
LINE
  5
228
100
AcDbEntity
  8
0
100
AcDbLine
 62
7
  6
CONTINUOUS
 10
20.8177513651
 20
1.1693297793
 11
20.947965719
 21
1.1693297793
  0
LINE
  5
229
100
AcDbEntity
  8
0
100
AcDbLine
 62
7
  6
CONTINUOUS
 10
20.6875370113
 20
1.170462078
 11
20.5573226574
 21
1.170462078
  0
LINE
  5
22A
100
AcDbEntity
  8
0
100
AcDbLine
 62
7
  6
CONTINUOUS
 10
20.7486811426
 20
1.1987695462
 11
20.7486811426
 21
1.1432869085
  0
LINE
  5
22B
100
AcDbEntity
  8
0
100
AcDbLine
 62
7
  6
CONTINUOUS
 10
20.7498134414
 20
1.1059210505
 11
20.7498134414
 21
0.9757066966
  0
LINE
  5
22C
100
AcDbEntity
  8
0
100
AcDbLine
 62
7
  6
CONTINUOUS
 10
20.7486811426
 20
1.2338708068
 11
20.7486811426
 21
1.3640851607
  0
LINE
  5
22D
100
AcDbEntity
  8
0
100
AcDbLine
 62
7
  6
CONTINUOUS
 10
21.0702539817
 20
1.2701043662
 11
21.4790138229
 21
1.3448360823
  0
LINE
  5
22E
100
AcDbEntity
  8
0
100
AcDbLine
 62
7
  6
CONTINUOUS
 10
21.4790138229
 20
1.3448360823
 11
21.4790138229
 21
0.9779712941
  0
LINE
  5
22F
100
AcDbEntity
  8
0
100
AcDbLine
 62
7
  6
CONTINUOUS
 10
21.4790138229
 20
0.9779712941
 11
21.069121683
 21
1.0617614
  0
LINE
  5
230
100
AcDbEntity
  8
0
100
AcDbLine
 62
7
  6
CONTINUOUS
 10
21.0702539817
 20
1.2701043662
 11
21.069121683
 21
1.0617614
  0
LINE
  5
231
100
AcDbEntity
  8
0
100
AcDbLine
 62
7
  6
CONTINUOUS
 10
21.4790138229
 20
1.1693297793
 11
21.3159628059
 21
1.1693297793
  0
LINE
  5
232
100
AcDbEntity
  8
0
100
AcDbLine
 62
7
  6
CONTINUOUS
 10
21.2876553377
 20
1.1693297793
 11
21.2502894796
 21
1.1693297793
  0
LINE
  5
233
100
AcDbEntity
  8
0
100
AcDbLine
 62
7
  6
CONTINUOUS
 10
21.2208497126
 20
1.1659328831
 11
21.0713862804
 21
1.1659328831
  0
LINE
  5
234
100
AcDbEntity
  8
0
100
AcDbLine
 62
7
  6
CONTINUOUS
 10
20.4796138713
 20
1.5284908897
 11
20.4766766948
 21
0.9294458646
  0
ENDBLK
  5
235
100
AcDbEntity
  8
0
  6
BYBLOCK
 62
0
100
AcDbBlockEnd
  0
BLOCK
  5
236
100
AcDbEntity
  8
0
100
AcDbBlockBegin
  2
*T1
 70
1
 10
0.0
 20
0.0
  3
*T1
  1

  0
LINE
  5
237
100
AcDbEntity
  8
0
100
AcDbLine
 62
2
  6
CONTINUOUS
 10
9.275
 20
0.0
 11
-0.0
 21
0.0
  0
LINE
  5
238
100
AcDbEntity
  8
0
100
AcDbLine
 62
2
  6
CONTINUOUS
 10
9.275
 20
0.0
 11
9.275
 21
1.25
  0
LINE
  5
239
100
AcDbEntity
  8
0
100
AcDbLine
 62
2
  6
CONTINUOUS
 10
9.275
 20
0.625
 11
-0.0
 21
0.625
  0
LINE
  5
23A
100
AcDbEntity
  8
0
100
AcDbLine
 62
2
  6
CONTINUOUS
 10
9.275
 20
1.25
 11
-0.0
 21
1.25
  0
LINE
  5
23B
100
AcDbEntity
  8
0
100
AcDbLine
 62
2
  6
CONTINUOUS
 10
6.8
 20
0.0
 11
6.8
 21
1.25
  0
LINE
  5
23C
100
AcDbEntity
  8
0
100
AcDbLine
 62
2
  6
CONTINUOUS
 10
6.4
 20
0.0
 11
6.4
 21
0.625
  0
LINE
  5
23D
100
AcDbEntity
  8
0
100
AcDbLine
 62
2
  6
CONTINUOUS
 10
5.9
 20
0.0
 11
5.9
 21
0.625
  0
LINE
  5
23E
100
AcDbEntity
  8
0
100
AcDbLine
 62
2
  6
CONTINUOUS
 10
5.2
 20
0.0
 11
5.2
 21
0.625
  0
LINE
  5
23F
100
AcDbEntity
  8
0
100
AcDbLine
 62
2
  6
CONTINUOUS
 10
4.1
 20
0.0
 11
4.1
 21
1.25
  0
LINE
  5
240
100
AcDbEntity
  8
0
100
AcDbLine
 62
2
  6
CONTINUOUS
 10
-0.0
 20
0.0
 11
-0.0
 21
1.25
  0
MTEXT
  5
241
100
AcDbEntity
  8
0
100
AcDbMText
 62
2
  6
CONTINUOUS
  7
STANDARD
 71
2
 72
1
 10
6.6
 20
0.325
 30
0.0
 11
1.0
 21
0.0
 31
0.0
 44
0.9
  1
2
 40
0.125
 41
0.2
  0
MTEXT
  5
242
100
AcDbEntity
  8
0
100
AcDbMText
 62
2
  6
CONTINUOUS
  7
STANDARD
 71
2
 72
1
 10
6.15
 20
0.325
 30
0.0
 11
1.0
 21
0.0
 31
0.0
 44
0.9
  1
C
 40
0.125
 41
0.2
  0
MTEXT
  5
243
100
AcDbEntity
  8
0
100
AcDbMText
 62
2
  6
CONTINUOUS
  7
STANDARD
 71
2
 72
1
 10
5.55
 20
0.325
 30
0.0
 11
1.0
 21
0.0
 31
0.0
 44
0.9
  1
1.000
 40
0.125
 41
1.0
  0
MTEXT
  5
244
100
AcDbEntity
  8
0
100
AcDbMText
 62
2
  6
CONTINUOUS
  7
STANDARD
 71
2
 72
1
 10
4.65
 20
0.325
 30
0.0
 11
1.0
 21
0.0
 31
0.0
 44
0.9
  1
Jul-30-19
 40
0.125
 41
1.8
  0
MTEXT
  5
245
100
AcDbEntity
  8
0
100
AcDbMText
 62
2
  6
CONTINUOUS
  7
STANDARD
 71
2
 72
1
 10
2.05
 20
0.4625
 30
0.0
 11
1.0
 21
0.0
 31
0.0
 44
0.9
  1
T-163A Line mount\P(See Technical Data for Body Features)
 40
0.125
 41
7.6
  0
MTEXT
  5
246
100
AcDbEntity
  8
0
100
AcDbMText
 62
2
  6
CONTINUOUS
  7
STANDARD
 71
1
 72
1
 10
6.45
 20
0.5625
 30
0.0
 11
1.0
 21
0.0
 31
0.0
 44
0.9
  1
SHEET
 40
0.06
 41
0.48
  0
MTEXT
  5
247
100
AcDbEntity
  8
0
100
AcDbMText
 62
2
  6
CONTINUOUS
  7
STANDARD
 71
1
 72
1
 10
5.95
 20
0.5625
 30
0.0
 11
1.0
 21
0.0
 31
0.0
 44
0.9
  1
DWG SIZE
 40
0.06
 41
0.768
  0
MTEXT
  5
248
100
AcDbEntity
  8
0
100
AcDbMText
 62
2
  6
CONTINUOUS
  7
STANDARD
 71
1
 72
1
 10
5.25
 20
0.5625
 30
0.0
 11
1.0
 21
0.0
 31
0.0
 44
0.9
  1
SCALE
 40
0.06
 41
0.48
  0
MTEXT
  5
249
100
AcDbEntity
  8
0
100
AcDbMText
 62
2
  6
CONTINUOUS
  7
STANDARD
 71
1
 72
1
 10
4.15
 20
0.5625
 30
0.0
 11
1.0
 21
0.0
 31
0.0
 44
0.9
  1
DATE
 40
0.06
 41
0.384
  0
MTEXT
  5
24A
100
AcDbEntity
  8
0
100
AcDbMText
 62
2
  6
CONTINUOUS
  7
STANDARD
 71
1
 72
1
 10
0.05
 20
0.5625
 30
0.0
 11
1.0
 21
0.0
 31
0.0
 44
0.9
  1
DESCRIPTION
 40
0.06
 41
1.056
  0
MTEXT
  5
24B
100
AcDbEntity
  8
0
100
AcDbMText
 62
2
  6
CONTINUOUS
  7
STANDARD
 71
2
 72
1
 10
5.45
 20
1.0375
 30
0.0
 11
1.0
 21
0.0
 31
0.0
 44
0.9
  1
ALL DIMENSIONS IN INCH\PVIEWS ARE THIRD ANGLE
 40
0.12
 41
4.224
  0
MTEXT
  5
24C
100
AcDbEntity
  8
0
100
AcDbMText
 62
2
  6
CONTINUOUS
  7
STANDARD
 71
2
 72
1
 10
2.05
 20
0.95
 30
0.0
 11
1.0
 21
0.0
 31
0.0
 44
0.9
  1
J2T
 40
0.125
 41
0.6
  0
MTEXT
  5
24D
100
AcDbEntity
  8
0
100
AcDbMText
 62
2
  6
CONTINUOUS
  7
STANDARD
 71
1
 72
1
 10
0.05
 20
1.1875
 30
0.0
 11
1.0
 21
0.0
 31
0.0
 44
0.9
  1
MODEL
 40
0.06
 41
0.48
  0
ENDBLK
  5
24E
100
AcDbEntity
  8
0
  6
BYBLOCK
 62
0
100
AcDbBlockEnd
  0
BLOCK
  5
24F
100
AcDbEntity
  8
0
100
AcDbBlockBegin
  2
*T2
 70
1
 10
0.0
 20
0.0
  3
*T2
  1

  0
LINE
  5
250
100
AcDbEntity
  8
0
100
AcDbLine
 62
2
  6
CONTINUOUS
 10
0.0
 20
0.0
 11
9.055
 21
0.0
  0
LINE
  5
251
100
AcDbEntity
  8
0
100
AcDbLine
 62
2
  6
CONTINUOUS
 10
0.0
 20
0.0
 11
0.0
 21
-2.594
  0
LINE
  5
252
100
AcDbEntity
  8
0
100
AcDbLine
 62
2
  6
CONTINUOUS
 10
0.0
 20
-0.344
 11
9.055
 21
-0.344
  0
LINE
  5
253
100
AcDbEntity
  8
0
100
AcDbLine
 62
2
  6
CONTINUOUS
 10
0.0
 20
-0.594
 11
9.055
 21
-0.594
  0
LINE
  5
254
100
AcDbEntity
  8
0
100
AcDbLine
 62
2
  6
CONTINUOUS
 10
0.0
 20
-0.844
 11
9.055
 21
-0.844
  0
LINE
  5
255
100
AcDbEntity
  8
0
100
AcDbLine
 62
2
  6
CONTINUOUS
 10
0.0
 20
-1.094
 11
9.055
 21
-1.094
  0
LINE
  5
256
100
AcDbEntity
  8
0
100
AcDbLine
 62
2
  6
CONTINUOUS
 10
0.0
 20
-1.344
 11
9.055
 21
-1.344
  0
LINE
  5
257
100
AcDbEntity
  8
0
100
AcDbLine
 62
2
  6
CONTINUOUS
 10
0.0
 20
-1.594
 11
9.055
 21
-1.594
  0
LINE
  5
258
100
AcDbEntity
  8
0
100
AcDbLine
 62
2
  6
CONTINUOUS
 10
0.0
 20
-1.844
 11
9.055
 21
-1.844
  0
LINE
  5
259
100
AcDbEntity
  8
0
100
AcDbLine
 62
2
  6
CONTINUOUS
 10
0.0
 20
-2.094
 11
9.055
 21
-2.094
  0
LINE
  5
25A
100
AcDbEntity
  8
0
100
AcDbLine
 62
2
  6
CONTINUOUS
 10
0.0
 20
-2.344
 11
9.055
 21
-2.344
  0
LINE
  5
25B
100
AcDbEntity
  8
0
100
AcDbLine
 62
2
  6
CONTINUOUS
 10
0.0
 20
-2.594
 11
9.055
 21
-2.594
  0
LINE
  5
25C
100
AcDbEntity
  8
0
100
AcDbLine
 62
2
  6
CONTINUOUS
 10
3.055
 20
0.0
 11
3.055
 21
-2.594
  0
LINE
  5
25D
100
AcDbEntity
  8
0
100
AcDbLine
 62
2
  6
CONTINUOUS
 10
9.055
 20
0.0
 11
9.055
 21
-2.594
  0
MTEXT
  5
25E
100
AcDbEntity
  8
0
100
AcDbMText
 62
2
  6
CONTINUOUS
  7
STANDARD
 71
2
 72
1
 10
1.5275
 20
-0.0995
 30
0.0
 11
1.0
 21
0.0
 31
0.0
 44
0.9
  1
Technical Data
 40
0.145
 41
3.248
  0
MTEXT
  5
25F
100
AcDbEntity
  8
0
100
AcDbMText
 62
2
  6
CONTINUOUS
  7
STANDARD
 71
2
 72
1
 10
4.555
 20
-0.0995
 30
0.0
 11
1.0
 21
0.0
 31
0.0
 44
0.9
  1
U.S. Units
 40
0.145
 41
2.32
  0
MTEXT
  5
260
100
AcDbEntity
  8
0
100
AcDbMText
 62
2
  6
CONTINUOUS
  7
STANDARD
 71
2
 72
1
 10
7.555
 20
-0.0995
 30
0.0
 11
1.0
 21
0.0
 31
0.0
 44
0.9
  1
Metric Units
 40
0.145
 41
2.784
  0
MTEXT
  5
261
100
AcDbEntity
  8
0
100
AcDbMText
 62
2
  6
CONTINUOUS
  7
STANDARD
 71
2
 72
1
 10
1.5275
 20
-0.4065
 30
0.0
 11
1.0
 21
0.0
 31
0.0
 44
0.9
  1
Cavity
 40
0.125
 41
1.2
  0
MTEXT
  5
262
100
AcDbEntity
  8
0
100
AcDbMText
 62
2
  6
CONTINUOUS
  7
STANDARD
 71
2
 72
1
 10
6.055
 20
-0.4065
 30
0.0
 11
1.0
 21
0.0
 31
0.0
 44
0.9
  1
T-163A
 40
0.125
 41
1.2
  0
MTEXT
  5
263
100
AcDbEntity
  8
0
100
AcDbMText
 62
2
  6
CONTINUOUS
  7
STANDARD
 71
2
 72
1
 10
1.5275
 20
-0.6565
 30
0.0
 11
1.0
 21
0.0
 31
0.0
 44
0.9
  1
Body Features
 40
0.125
 41
2.6
  0
MTEXT
  5
264
100
AcDbEntity
  8
0
100
AcDbMText
 62
2
  6
CONTINUOUS
  7
STANDARD
 71
2
 72
1
 10
6.055
 20
-0.6565
 30
0.0
 11
1.0
 21
0.0
 31
0.0
 44
0.9
  1
Ninety degree with reverse flow check - reducing
 40
0.125
 41
9.6
  0
MTEXT
  5
265
100
AcDbEntity
  8
0
100
AcDbMText
 62
2
  6
CONTINUOUS
  7
STANDARD
 71
2
 72
1
 10
1.5275
 20
-0.9065
 30
0.0
 11
1.0
 21
0.0
 31
0.0
 44
0.9
  1
Body Type
 40
0.125
 41
1.8
  0
MTEXT
  5
266
100
AcDbEntity
  8
0
100
AcDbMText
 62
2
  6
CONTINUOUS
  7
STANDARD
 71
2
 72
1
 10
6.055
 20
-0.9065
 30
0.0
 11
1.0
 21
0.0
 31
0.0
 44
0.9
  1
Line mount
 40
0.125
 41
2.0
  0
MTEXT
  5
267
100
AcDbEntity
  8
0
100
AcDbMText
 62
2
  6
CONTINUOUS
  7
STANDARD
 71
2
 72
1
 10
1.5275
 20
-1.1565
 30
0.0
 11
1.0
 21
0.0
 31
0.0
 44
0.9
  1
Interface
 40
0.125
 41
1.8
  0
MTEXT
  5
268
100
AcDbEntity
  8
0
100
AcDbMText
 62
2
  6
CONTINUOUS
  7
STANDARD
 71
2
 72
1
 10
6.055
 20
-1.1565
 30
0.0
 11
1.0
 21
0.0
 31
0.0
 44
0.9
  1
None
 40
0.125
 41
0.8
  0
MTEXT
  5
269
100
AcDbEntity
  8
0
100
AcDbMText
 62
2
  6
CONTINUOUS
  7
STANDARD
 71
2
 72
1
 10
1.5275
 20
-1.4065
 30
0.0
 11
1.0
 21
0.0
 31
0.0
 44
0.9
  1
Open Cavity Quantity
 40
0.125
 41
4.0
  0
MTEXT
  5
26A
100
AcDbEntity
  8
0
100
AcDbMText
 62
2
  6
CONTINUOUS
  7
STANDARD
 71
2
 72
1
 10
6.055
 20
-1.4065
 30
0.0
 11
1.0
 21
0.0
 31
0.0
 44
0.9
  1
1
 40
0.125
 41
0.2
  0
MTEXT
  5
26B
100
AcDbEntity
  8
0
100
AcDbMText
 62
2
  6
CONTINUOUS
  7
STANDARD
 71
2
 72
1
 10
1.5275
 20
-1.6565
 30
0.0
 11
1.0
 21
0.0
 31
0.0
 44
0.9
  1
Weight
 40
0.125
 41
1.2
  0
MTEXT
  5
26C
100
AcDbEntity
  8
0
100
AcDbMText
 62
2
  6
CONTINUOUS
  7
STANDARD
 71
2
 72
1
 10
4.555
 20
-1.6565
 30
0.0
 11
1.0
 21
0.0
 31
0.0
 44
0.9
  1
0.864 lb.
 40
0.125
 41
1.8
  0
MTEXT
  5
26D
100
AcDbEntity
  8
0
100
AcDbMText
 62
2
  6
CONTINUOUS
  7
STANDARD
 71
2
 72
1
 10
7.555
 20
-1.6565
 30
0.0
 11
1.0
 21
0.0
 31
0.0
 44
0.9
  1
0,392 kg.
 40
0.125
 41
1.8
  0
MTEXT
  5
26E
100
AcDbEntity
  8
0
100
AcDbMText
 62
2
  6
CONTINUOUS
  7
STANDARD
 71
2
 72
1
 10
1.5275
 20
-1.9065
 30
0.0
 11
1.0
 21
0.0
 31
0.0
 44
0.9
  1
Mounting Hole Diameter
 40
0.125
 41
4.4
  0
MTEXT
  5
26F
100
AcDbEntity
  8
0
100
AcDbMText
 62
2
  6
CONTINUOUS
  7
STANDARD
 71
2
 72
1
 10
4.555
 20
-1.9065
 30
0.0
 11
1.0
 21
0.0
 31
0.0
 44
0.9
  1
.27 in.
 40
0.125
 41
1.4
  0
MTEXT
  5
270
100
AcDbEntity
  8
0
100
AcDbMText
 62
2
  6
CONTINUOUS
  7
STANDARD
 71
2
 72
1
 10
7.555
 20
-1.9065
 30
0.0
 11
1.0
 21
0.0
 31
0.0
 44
0.9
  1
8,7 mm
 40
0.125
 41
1.2
  0
MTEXT
  5
271
100
AcDbEntity
  8
0
100
AcDbMText
 62
2
  6
CONTINUOUS
  7
STANDARD
 71
2
 72
1
 10
1.5275
 20
-2.1565
 30
0.0
 11
1.0
 21
0.0
 31
0.0
 44
0.9
  1
Mounting Hole Depth
 40
0.125
 41
3.8
  0
MTEXT
  5
272
100
AcDbEntity
  8
0
100
AcDbMText
 62
2
  6
CONTINUOUS
  7
STANDARD
 71
2
 72
1
 10
6.055
 20
-2.1565
 30
0.0
 11
1.0
 21
0.0
 31
0.0
 44
0.9
  1
Through
 40
0.125
 41
1.4
  0
MTEXT
  5
273
100
AcDbEntity
  8
0
100
AcDbMText
 62
2
  6
CONTINUOUS
  7
STANDARD
 71
2
 72
1
 10
1.5275
 20
-2.4065
 30
0.0
 11
1.0
 21
0.0
 31
0.0
 44
0.9
  1
Mounting Hole Quantity
 40
0.125
 41
4.4
  0
MTEXT
  5
274
100
AcDbEntity
  8
0
100
AcDbMText
 62
2
  6
CONTINUOUS
  7
STANDARD
 71
2
 72
1
 10
6.055
 20
-2.4065
 30
0.0
 11
1.0
 21
0.0
 31
0.0
 44
0.9
  1
2
 40
0.125
 41
0.2
  0
ENDBLK
  5
275
100
AcDbEntity
  8
0
  6
BYBLOCK
 62
0
100
AcDbBlockEnd
  0
BLOCK
  5
276
100
AcDbEntity
  8
0
100
AcDbBlockBegin
  2
*T3
 70
1
 10
0.0
 20
0.0
  3
*T3
  1

  0
LINE
  5
277
100
AcDbEntity
  8
0
100
AcDbLine
 62
2
  6
CONTINUOUS
 10
0.0
 20
0.0
 11
4.6
 21
0.0
  0
LINE
  5
278
100
AcDbEntity
  8
0
100
AcDbLine
 62
2
  6
CONTINUOUS
 10
0.0
 20
0.0
 11
0.0
 21
-1.43775
  0
LINE
  5
279
100
AcDbEntity
  8
0
100
AcDbLine
 62
2
  6
CONTINUOUS
 10
0.0
 20
-0.34375
 11
4.6
 21
-0.34375
  0
LINE
  5
27A
100
AcDbEntity
  8
0
100
AcDbLine
 62
2
  6
CONTINUOUS
 10
0.0
 20
-0.68775
 11
4.6
 21
-0.68775
  0
LINE
  5
27B
100
AcDbEntity
  8
0
100
AcDbLine
 62
2
  6
CONTINUOUS
 10
0.0
 20
-0.93775
 11
4.6
 21
-0.93775
  0
LINE
  5
27C
100
AcDbEntity
  8
0
100
AcDbLine
 62
2
  6
CONTINUOUS
 10
0.0
 20
-1.18775
 11
4.6
 21
-1.18775
  0
LINE
  5
27D
100
AcDbEntity
  8
0
100
AcDbLine
 62
2
  6
CONTINUOUS
 10
0.0
 20
-1.43775
 11
4.6
 21
-1.43775
  0
LINE
  5
27E
100
AcDbEntity
  8
0
100
AcDbLine
 62
2
  6
CONTINUOUS
 10
1.3
 20
-0.34375
 11
1.3
 21
-1.43775
  0
LINE
  5
27F
100
AcDbEntity
  8
0
100
AcDbLine
 62
2
  6
CONTINUOUS
 10
3.3
 20
-0.34375
 11
3.3
 21
-1.43775
  0
LINE
  5
280
100
AcDbEntity
  8
0
100
AcDbLine
 62
2
  6
CONTINUOUS
 10
4.6
 20
0.0
 11
4.6
 21
-1.43775
  0
MTEXT
  5
281
100
AcDbEntity
  8
0
100
AcDbMText
 62
2
  6
CONTINUOUS
  7
STANDARD
 71
2
 72
1
 10
2.3
 20
-0.099375
 30
0.0
 11
1.0
 21
0.0
 31
0.0
 44
0.9
  1
Port Headings
 40
0.145
 41
3.016
  0
MTEXT
  5
282
100
AcDbEntity
  8
0
100
AcDbMText
 62
2
  6
CONTINUOUS
  7
STANDARD
 71
2
 72
1
 10
0.65
 20
-0.44325
 30
0.0
 11
1.0
 21
0.0
 31
0.0
 44
0.9
  1
Product
 40
0.145
 41
1.624
  0
MTEXT
  5
283
100
AcDbEntity
  8
0
100
AcDbMText
 62
2
  6
CONTINUOUS
  7
STANDARD
 71
2
 72
1
 10
2.3
 20
-0.44325
 30
0.0
 11
1.0
 21
0.0
 31
0.0
 44
0.9
  1
Port
 40
0.145
 41
0.928
  0
MTEXT
  5
284
100
AcDbEntity
  8
0
100
AcDbMText
 62
2
  6
CONTINUOUS
  7
STANDARD
 71
2
 72
1
 10
3.95
 20
-0.44325
 30
0.0
 11
1.0
 21
0.0
 31
0.0
 44
0.9
  1
Size
 40
0.145
 41
0.928
  0
MTEXT
  5
285
100
AcDbEntity
  8
0
100
AcDbMText
 62
2
  6
CONTINUOUS
  7
STANDARD
 71
2
 72
1
 10
0.65
 20
-0.75025
 30
0.0
 11
1.0
 21
0.0
 31
0.0
 44
0.9
  1
J2T
 40
0.125
 41
0.6
  0
MTEXT
  5
286
100
AcDbEntity
  8
0
100
AcDbMText
 62
2
  6
CONTINUOUS
  7
STANDARD
 71
2
 72
1
 10
2.3
 20
-0.75025
 30
0.0
 11
1.0
 21
0.0
 31
0.0
 44
0.9
  1
Ports 1 &  2
 40
0.125
 41
2.4
  0
MTEXT
  5
287
100
AcDbEntity
  8
0
100
AcDbMText
 62
2
  6
CONTINUOUS
  7
STANDARD
 71
2
 72
1
 10
3.95
 20
-0.75025
 30
0.0
 11
1.0
 21
0.0
 31
0.0
 44
0.9
  1
1/4" BSPP
 40
0.125
 41
1.8
  0
MTEXT
  5
288
100
AcDbEntity
  8
0
100
AcDbMText
 62
2
  6
CONTINUOUS
  7
STANDARD
 71
2
 72
1
 10
0.65
 20
-1.00025
 30
0.0
 11
1.0
 21
0.0
 31
0.0
 44
0.9
  1
J2T
 40
0.125
 41
0.6
  0
MTEXT
  5
289
100
AcDbEntity
  8
0
100
AcDbMText
 62
2
  6
CONTINUOUS
  7
STANDARD
 71
2
 72
1
 10
2.3
 20
-1.00025
 30
0.0
 11
1.0
 21
0.0
 31
0.0
 44
0.9
  1
Port 3
 40
0.125
 41
1.2
  0
MTEXT
  5
28A
100
AcDbEntity
  8
0
100
AcDbMText
 62
2
  6
CONTINUOUS
  7
STANDARD
 71
2
 72
1
 10
3.95
 20
-1.00025
 30
0.0
 11
1.0
 21
0.0
 31
0.0
 44
0.9
  1
1/4" BSPP
 40
0.125
 41
1.8
  0
MTEXT
  5
28B
100
AcDbEntity
  8
0
100
AcDbMText
 62
2
  6
CONTINUOUS
  7
STANDARD
 71
2
 72
1
 10
0.65
 20
-1.25025
 30
0.0
 11
1.0
 21
0.0
 31
0.0
 44
0.9
  1
J2T
 40
0.125
 41
0.6
  0
MTEXT
  5
28C
100
AcDbEntity
  8
0
100
AcDbMText
 62
2
  6
CONTINUOUS
  7
STANDARD
 71
2
 72
1
 10
2.3
 20
-1.25025
 30
0.0
 11
1.0
 21
0.0
 31
0.0
 44
0.9
  1
Gage Port
 40
0.125
 41
1.8
  0
MTEXT
  5
28D
100
AcDbEntity
  8
0
100
AcDbMText
 62
2
  6
CONTINUOUS
  7
STANDARD
 71
2
 72
1
 10
3.95
 20
-1.25025
 30
0.0
 11
1.0
 21
0.0
 31
0.0
 44
0.9
  1
1/4" BSPP
 40
0.125
 41
1.8
  0
ENDBLK
  5
28E
100
AcDbEntity
  8
0
  6
BYBLOCK
 62
0
100
AcDbBlockEnd
  0
ENDSEC
  0
SECTION
  2
ENTITIES
  0
IMAGE
  5
28F
100
AcDbEntity
  8
0
100
AcDbRasterImage
 62
7
  6
CONTINUOUS
 10
19.2297077316
 20
0.3094318264
 30
0.0
 11
0.0066666667
 21
0.0
 31
0.0
 12
0.0
 22
0.0066666667
 32
0.0
 13
369.0
 23
92.0
340
       3C8
 70
9
280
0
281
50
282
50
283
0
360
       3C2
 71
1
 91
2
 14
-0.5
 24
-0.5
 14
368.5
 24
91.5
  0
INSERT
  5
290
100
AcDbEntity
  8
0
100
AcDbBlockReference
 62
2
  6
CONTINUOUS
  2
SUN_FIRST_THIRD_ANGLE_BL0
 10
20.4816717061
 20
1.2289683772
  0
ACAD_TABLE
  5
291
100
AcDbEntity
  8
0
 62
2
  6
CONTINUOUS
100
AcDbBlockReference
  2
*T1
 10
12.42375
 20
0.30125
 30
0.0
100
AcDbTable
342
       3CA
343
20F
 11
1.0
 21
0.0
 31
0.0
 90
6
 91
4
 92
6
 93
20
 94
0
 95
0
 96
0
 70
1
 41
0.0
141
0.525
141
0.1
141
0.525
141
0.1
142
4.1
142
1.1
142
0.7
142
0.5
142
0.4
142
2.475
171
1
172
0
173
0
174
0
175
1
176
1
 91
33
178
0
145
0.0
301
CELL_VALUE
 90
4
  1
T-163A Line mount\P(See Technical Data for Body Features)
304
ACVALUE_END
170
2
140
0.125
171
1
172
0
173
0
174
0
175
1
176
1
 91
33
178
0
145
0.0
301
CELL_VALUE
 90
4
  1
Jul-30-19
304
ACVALUE_END
170
5
140
0.125
171
1
172
0
173
0
174
0
175
1
176
1
 91
33
178
0
145
0.0
301
CELL_VALUE
 90
4
  1
1.000
304
ACVALUE_END
170
5
140
0.125
171
1
172
0
173
0
174
0
175
1
176
1
 91
33
178
0
145
0.0
301
CELL_VALUE
 90
4
  1
C
304
ACVALUE_END
170
5
140
0.125
171
1
172
0
173
0
174
0
175
1
176
1
 91
33
178
0
145
0.0
301
CELL_VALUE
 90
4
  1
2
304
ACVALUE_END
170
5
140
0.125
171
1
172
0
173
0
174
0
175
1
176
1
 91
33
178
0
145
0.0
301
CELL_VALUE
 90
4
  1
 
304
ACVALUE_END
170
1
140
0.125
171
1
172
0
173
0
174
0
175
1
176
1
 91
33
178
0
145
0.0
301
CELL_VALUE
 90
4
  1
DESCRIPTION
304
ACVALUE_END
170
1
140
0.06
171
1
172
0
173
0
174
0
175
1
176
1
 91
33
178
0
145
0.0
301
CELL_VALUE
 90
4
  1
DATE
304
ACVALUE_END
170
1
140
0.06
171
1
172
0
173
0
174
0
175
1
176
1
 91
33
178
0
145
0.0
301
CELL_VALUE
 90
4
  1
SCALE
304
ACVALUE_END
170
1
140
0.06
171
1
172
0
173
0
174
0
175
1
176
1
 91
33
178
0
145
0.0
301
CELL_VALUE
 90
4
  1
DWG SIZE
304
ACVALUE_END
170
1
140
0.06
171
1
172
0
173
0
174
0
175
1
176
1
 91
33
178
0
145
0.0
301
CELL_VALUE
 90
4
  1
SHEET
304
ACVALUE_END
170
1
140
0.06
171
1
172
0
173
0
174
0
175
1
176
1
 91
33
178
0
145
0.0
301
CELL_VALUE
 90
4
  1
 
304
ACVALUE_END
170
1
140
0.125
171
1
172
0
173
0
174
0
175
1
176
1
 91
33
178
0
145
0.0
301
CELL_VALUE
 90
4
  1
J2T
304
ACVALUE_END
170
5
140
0.125
171
1
172
0
173
0
174
0
175
4
176
1
 91
33
178
0
145
0.0
301
CELL_VALUE
 90
4
  1
ALL DIMENSIONS IN INCH\PVIEWS ARE THIRD ANGLE
304
ACVALUE_END
170
5
140
0.12
171
1
172
0
173
1
174
0
175
1
176
1
 91
1
178
0
145
0.0
170
1
171
1
172
0
173
1
174
0
175
1
176
1
 91
1
178
0
145
0.0
170
1
171
1
172
0
173
1
174
0
175
1
176
1
 91
1
178
0
145
0.0
170
5
171
1
172
0
173
0
174
0
175
1
176
1
 91
33
178
0
145
0.0
301
CELL_VALUE
 90
4
  1
 
304
ACVALUE_END
170
1
140
0.125
171
1
172
0
173
0
174
0
175
1
176
1
 91
33
178
0
145
0.0
301
CELL_VALUE
 90
4
  1
MODEL
304
ACVALUE_END
170
1
140
0.06
171
1
172
0
173
0
174
0
175
1
176
1
 91
33
178
0
145
0.0
301
CELL_VALUE
 90
4
  1
 
304
ACVALUE_END
170
1
140
0.125
171
1
172
0
173
0
174
0
175
1
176
1
 91
33
178
0
145
0.0
301
CELL_VALUE
 90
4
  1
 
304
ACVALUE_END
170
1
140
0.125
171
1
172
0
173
0
174
0
175
1
176
1
 91
33
178
0
145
0.0
301
CELL_VALUE
 90
4
  1
 
304
ACVALUE_END
170
1
140
0.125
171
1
172
0
173
0
174
0
175
1
176
1
 91
33
178
0
145
0.0
301
CELL_VALUE
 90
4
  1
 
304
ACVALUE_END
170
1
140
0.125
171
1
172
0
173
0
174
0
175
1
176
1
 91
33
178
0
145
0.0
301
CELL_VALUE
 90
4
  1
 
304
ACVALUE_END
170
1
140
0.125
  0
ACAD_TABLE
  5
292
100
AcDbEntity
  8
0
 62
2
  6
CONTINUOUS
100
AcDbBlockReference
  2
*T2
 10
12.4237499994
 20
16.47875
 30
0.0
100
AcDbTable
342
       3C9
343
210
 11
1.0
 21
0.0
 31
0.0
 90
22
 91
10
 92
3
 93
16
 94
0
 95
0
 96
0
 41
0.028
141
0.344
141
0.25
141
0.25
141
0.25
141
0.25
141
0.25
141
0.25
141
0.25
141
0.25
141
0.25
142
3.055
142
3.0
142
3.0
171
1
172
0
173
0
174
0
175
1
176
1
 91
33
178
0
145
0.0
301
CELL_VALUE
 90
4
  1
Technical Data
304
ACVALUE_END
170
5
140
0.145
171
1
172
0
173
0
174
0
175
1
176
1
 91
33
178
0
145
0.0
301
CELL_VALUE
 90
4
  1
U.S. Units
304
ACVALUE_END
170
5
140
0.145
171
1
172
0
173
0
174
0
175
1
176
1
 91
33
178
0
145
0.0
301
CELL_VALUE
 90
4
  1
Metric Units
304
ACVALUE_END
170
5
140
0.145
171
1
172
0
173
0
174
0
175
1
176
1
 91
33
178
0
145
0.0
301
CELL_VALUE
 90
4
  1
Cavity
304
ACVALUE_END
170
5
140
0.125
171
1
172
0
173
0
174
0
175
2
176
1
 91
33
178
0
145
0.0
301
CELL_VALUE
 90
4
  1
T-163A
304
ACVALUE_END
170
5
140
0.125
171
1
172
0
173
1
174
0
175
1
176
1
 91
1
178
0
145
0.0
170
1
171
1
172
0
173
0
174
0
175
1
176
1
 91
33
178
0
145
0.0
301
CELL_VALUE
 90
4
  1
Body Features
304
ACVALUE_END
170
5
140
0.125
171
1
172
0
173
0
174
0
175
2
176
1
 91
33
178
0
145
0.0
301
CELL_VALUE
 90
4
  1
Ninety degree with reverse flow check - reducing
304
ACVALUE_END
170
5
140
0.125
171
1
172
0
173
1
174
0
175
1
176
1
 91
1
178
0
145
0.0
170
1
171
1
172
0
173
0
174
0
175
1
176
1
 91
33
178
0
145
0.0
301
CELL_VALUE
 90
4
  1
Body Type
304
ACVALUE_END
170
5
140
0.125
171
1
172
0
173
0
174
0
175
2
176
1
 91
33
178
0
145
0.0
301
CELL_VALUE
 90
4
  1
Line mount
304
ACVALUE_END
170
5
140
0.125
171
1
172
0
173
1
174
0
175
1
176
1
 91
1
178
0
145
0.0
170
1
171
1
172
0
173
0
174
0
175
1
176
1
 91
33
178
0
145
0.0
301
CELL_VALUE
 90
4
  1
Interface
304
ACVALUE_END
170
5
140
0.125
171
1
172
0
173
0
174
0
175
2
176
1
 91
33
178
0
145
0.0
301
CELL_VALUE
 90
4
  1
None
304
ACVALUE_END
170
5
140
0.125
171
1
172
0
173
1
174
0
175
1
176
1
 91
1
178
0
145
0.0
170
1
171
1
172
0
173
0
174
0
175
1
176
1
 91
33
178
0
145
0.0
301
CELL_VALUE
 90
4
  1
Open Cavity Quantity
304
ACVALUE_END
170
5
140
0.125
171
1
172
0
173
0
174
0
175
2
176
1
 91
33
178
0
145
0.0
301
CELL_VALUE
 90
4
  1
1
304
ACVALUE_END
170
5
140
0.125
171
1
172
0
173
1
174
0
175
1
176
1
 91
1
178
0
145
0.0
170
1
171
1
172
0
173
0
174
0
175
1
176
1
 91
33
178
0
145
0.0
301
CELL_VALUE
 90
4
  1
Weight
304
ACVALUE_END
170
5
140
0.125
171
1
172
0
173
0
174
0
175
1
176
1
 91
33
178
0
145
0.0
301
CELL_VALUE
 90
4
  1
0.864 lb.
304
ACVALUE_END
170
5
140
0.125
171
1
172
0
173
0
174
0
175
1
176
1
 91
33
178
0
145
0.0
301
CELL_VALUE
 90
4
  1
0,392 kg.
304
ACVALUE_END
170
5
140
0.125
171
1
172
0
173
0
174
0
175
1
176
1
 91
33
178
0
145
0.0
301
CELL_VALUE
 90
4
  1
Mounting Hole Diameter
304
ACVALUE_END
170
5
140
0.125
171
1
172
0
173
0
174
0
175
1
176
1
 91
33
178
0
145
0.0
301
CELL_VALUE
 90
4
  1
.27 in.
304
ACVALUE_END
170
5
140
0.125
171
1
172
0
173
0
174
0
175
1
176
1
 91
33
178
0
145
0.0
301
CELL_VALUE
 90
4
  1
8,7 mm
304
ACVALUE_END
170
5
140
0.125
171
1
172
0
173
0
174
0
175
1
176
1
 91
33
178
0
145
0.0
301
CELL_VALUE
 90
4
  1
Mounting Hole Depth
304
ACVALUE_END
170
5
140
0.125
171
1
172
0
173
0
174
0
175
2
176
1
 91
33
178
0
145
0.0
301
CELL_VALUE
 90
4
  1
Through
304
ACVALUE_END
170
5
140
0.125
171
1
172
0
173
1
174
0
175
1
176
1
 91
1
178
0
145
0.0
170
1
171
1
172
0
173
0
174
0
175
1
176
1
 91
33
178
0
145
0.0
301
CELL_VALUE
 90
4
  1
Mounting Hole Quantity
304
ACVALUE_END
170
5
140
0.125
171
1
172
0
173
0
174
0
175
2
176
1
 91
33
178
0
145
0.0
301
CELL_VALUE
 90
4
  1
2
304
ACVALUE_END
170
5
140
0.125
171
1
172
0
173
1
174
0
175
1
176
1
 91
1
178
0
145
0.0
170
1
  0
ACAD_TABLE
  5
293
100
AcDbEntity
  8
0
 62
2
  6
CONTINUOUS
100
AcDbBlockReference
  2
*T3
 10
0.52125
 20
1.959
 30
0.0
100
AcDbTable
342
       3C9
343
211
 11
1.0
 21
0.0
 31
0.0
 90
22
 91
5
 92
3
 93
16
 94
0
 95
0
 96
0
 41
0.05
141
0.34375
141
0.344
141
0.25
141
0.25
141
0.25
142
1.3
142
2.0
142
1.3
171
1
172
0
173
0
174
0
175
3
176
1
 91
33
178
0
145
0.0
301
CELL_VALUE
 90
4
  1
Port Headings
304
ACVALUE_END
170
5
140
0.145
171
1
172
0
173
1
174
0
175
1
176
1
 91
1
178
0
145
0.0
170
1
171
1
172
0
173
1
174
0
175
1
176
1
 91
1
178
0
145
0.0
170
1
171
1
172
0
173
0
174
0
175
1
176
1
 91
33
178
0
145
0.0
301
CELL_VALUE
 90
4
  1
Product
304
ACVALUE_END
170
5
140
0.145
171
1
172
0
173
0
174
0
175
1
176
1
 91
33
178
0
145
0.0
301
CELL_VALUE
 90
4
  1
Port
304
ACVALUE_END
170
5
140
0.145
171
1
172
0
173
0
174
0
175
1
176
1
 91
33
178
0
145
0.0
301
CELL_VALUE
 90
4
  1
Size
304
ACVALUE_END
170
5
140
0.145
171
1
172
0
173
0
174
0
175
1
176
1
 91
33
178
0
145
0.0
301
CELL_VALUE
 90
4
  1
J2T
304
ACVALUE_END
170
5
140
0.125
171
1
172
0
173
0
174
0
175
1
176
1
 91
33
178
0
145
0.0
301
CELL_VALUE
 90
4
  1
Ports 1 &  2
304
ACVALUE_END
170
5
140
0.125
171
1
172
0
173
0
174
0
175
1
176
1
 91
33
178
0
145
0.0
301
CELL_VALUE
 90
4
  1
1/4" BSPP
304
ACVALUE_END
170
5
140
0.125
171
1
172
0
173
0
174
0
175
1
176
1
 91
33
178
0
145
0.0
301
CELL_VALUE
 90
4
  1
J2T
304
ACVALUE_END
170
5
140
0.125
171
1
172
0
173
0
174
0
175
1
176
1
 91
33
178
0
145
0.0
301
CELL_VALUE
 90
4
  1
Port 3
304
ACVALUE_END
170
5
140
0.125
171
1
172
0
173
0
174
0
175
1
176
1
 91
33
178
0
145
0.0
301
CELL_VALUE
 90
4
  1
1/4" BSPP
304
ACVALUE_END
170
5
140
0.125
171
1
172
0
173
0
174
0
175
1
176
1
 91
33
178
0
145
0.0
301
CELL_VALUE
 90
4
  1
J2T
304
ACVALUE_END
170
5
140
0.125
171
1
172
0
173
0
174
0
175
1
176
1
 91
33
178
0
145
0.0
301
CELL_VALUE
 90
4
  1
Gage Port
304
ACVALUE_END
170
5
140
0.125
171
1
172
0
173
0
174
0
175
1
176
1
 91
33
178
0
145
0.0
301
CELL_VALUE
 90
4
  1
1/4" BSPP
304
ACVALUE_END
170
5
140
0.125
  0
MTEXT
  5
294
100
AcDbEntity
  8
0
100
AcDbMText
 62
2
  6
CONTINUOUS
  7
STANDARD
 71
1
 72
1
 10
0.52125
 20
5.75995
 30
0.0
 11
1.0
 21
0.0
 31
0.0
 44
0.6
  3
Notes\P \P1. Important: Carefully consider\P   the maximum system pressure. The\P   pressure rating of the manifold is\P   dependent on the manifold material,\P   with the port type/size a secondary\P   consideration. Manifolds\P   constructed of alu
  1
minum are not\P   rated for pressures higher than\P   3000 psi (210 bar), regardless of\P   the port type/size specified.
 40
0.1
 41
3.04
  0
LINE
  5
295
100
AcDbEntity
  8
0
100
AcDbLine
 62
7
  6
CONTINUOUS
 10
0.30125
 20
0.30125
 11
0.30125
 21
16.69875
  0
LINE
  5
296
100
AcDbEntity
  8
0
100
AcDbLine
 62
7
  6
CONTINUOUS
 10
0.30125
 20
0.30125
 11
21.69875
 21
0.30125
  0
LINE
  5
297
100
AcDbEntity
  8
0
100
AcDbLine
 62
7
  6
CONTINUOUS
 10
0.30125
 20
16.69875
 11
21.69875
 21
16.69875
  0
LINE
  5
298
100
AcDbEntity
  8
0
100
AcDbLine
 62
7
  6
CONTINUOUS
 10
21.69875
 20
0.30125
 11
21.69875
 21
16.69875
  0
LINE
  5
299
100
AcDbEntity
  8
0
100
AcDbLine
 62
7
  6
CONTINUOUS
 10
9.6805205905
 20
10.4915658346
 11
9.558785035
 21
10.3739783107
  0
LINE
  5
29A
100
AcDbEntity
  8
0
100
AcDbLine
 62
7
  6
CONTINUOUS
 10
9.5434373144
 20
10.3591535501
 11
9.421701759
 21
10.2415660261
  0
LINE
  5
29B
100
AcDbEntity
  8
0
100
AcDbLine
 62
7
  6
CONTINUOUS
 10
9.5743469434
 20
10.35700996
 11
9.589694664
 21
10.3718347206
  0
LINE
  5
29C
100
AcDbEntity
  8
0
100
AcDbLine
 62
4
  6
CONTINUOUS
 10
9.6728424903
 20
9.8281197431
 11
9.6655980463
 21
9.8189628907
  0
LINE
  5
29D
100
AcDbEntity
  8
0
100
AcDbLine
 62
4
  6
CONTINUOUS
 10
9.6221313825
 20
9.8509550899
 11
9.6366202704
 21
9.8596095384
  0
LINE
  5
29E
100
AcDbEntity
  8
0
100
AcDbLine
 62
4
  6
CONTINUOUS
 10
9.6800869342
 20
9.7696617875
 11
9.6655980463
 21
9.7513480783
  0
LINE
  5
29F
100
AcDbEntity
  8
0
100
AcDbLine
 62
4
  6
CONTINUOUS
 10
9.6655980463
 20
9.8189628907
 11
9.6511091584
 21
9.8103084352
  0
LINE
  5
2A0
100
AcDbEntity
  8
0
100
AcDbLine
 62
4
  6
CONTINUOUS
 10
9.6655980463
 20
9.7513480783
 11
9.6511091584
 21
9.7426936272
  0
LINE
  5
2A1
100
AcDbEntity
  8
0
100
AcDbLine
 62
7
  6
CONTINUOUS
 10
9.421701759
 20
7.3437883756
 11
9.421701759
 21
10.2415660261
  0
LINE
  5
2A2
100
AcDbEntity
  8
0
100
AcDbLine
 62
4
  6
CONTINUOUS
 10
11.2827531604
 20
10.2592037175
 11
11.2982358403
 21
10.2641588414
  0
LINE
  5
2A3
100
AcDbEntity
  8
0
100
AcDbLine
 62
7
  6
CONTINUOUS
 10
11.1423062656
 20
6.5656745955
 11
11.1538948616
 21
6.5599500509
  0
LINE
  5
2A4
100
AcDbEntity
  8
0
100
AcDbLine
 62
4
  6
CONTINUOUS
 10
9.6728424903
 20
9.8377789994
 11
9.6728424903
 21
9.8281197431
  0
LINE
  5
2A5
100
AcDbEntity
  8
0
100
AcDbLine
 62
4
  6
CONTINUOUS
 10
9.6728424903
 20
8.0701346114
 11
9.6728424903
 21
7.954223508
  0
LINE
  5
2A6
100
AcDbEntity
  8
0
100
AcDbLine
 62
4
  6
CONTINUOUS
 10
9.6800869342
 20
9.7793210472
 11
9.6800869342
 21
9.7696617875
  0
LINE
  5
2A7
100
AcDbEntity
  8
0
100
AcDbLine
 62
7
  6
CONTINUOUS
 10
11.1197748496
 20
10.257778735
 11
11.1187618977
 21
10.2568186105
  0
LINE
  5
2A8
100
AcDbEntity
  8
0
100
AcDbLine
 62
7
  6
CONTINUOUS
 10
9.421701759
 20
7.3437883756
 11
12.3194794095
 21
7.1428268129
  0
LINE
  5
2A9
100
AcDbEntity
  8
0
100
AcDbLine
 62
4
  6
CONTINUOUS
 10
11.1315763818
 20
10.1631781553
 11
11.1509877937
 21
10.1819281406
  0
LINE
  5
2AA
100
AcDbEntity
  8
0
100
AcDbLine
 62
4
  6
CONTINUOUS
 10
11.2635739829
 20
10.2906780548
 11
11.2674562653
 21
10.2944280519
  0
LINE
  5
2AB
100
AcDbEntity
  8
0
100
AcDbLine
 62
4
  6
CONTINUOUS
 10
11.3118702783
 20
10.2873286954
 11
11.3157525607
 21
10.2910786924
  0
LINE
  5
2AC
100
AcDbEntity
  8
0
100
AcDbLine
 62
4
  6
CONTINUOUS
 10
11.2244724749
 20
10.1929088976
 11
11.2361193221
 21
10.2041588887
  0
LINE
  5
2AD
100
AcDbEntity
  8
0
100
AcDbLine
 62
4
  6
CONTINUOUS
 10
11.3680240274
 20
10.3115690593
 11
11.3796708745
 21
10.3228190505
  0
LINE
  5
2AE
100
AcDbEntity
  8
0
100
AcDbLine
 62
4
  6
CONTINUOUS
 10
11.3833673687
 20
10.2863895895
 11
11.3794850863
 21
10.2826395925
  0
LINE
  5
2AF
100
AcDbEntity
  8
0
100
AcDbLine
 62
4
  6
CONTINUOUS
 10
10.328292219
 20
9.0126832334
 11
10.3448509488
 21
9.0280936097
  0
LINE
  5
2B0
100
AcDbEntity
  8
0
100
AcDbLine
 62
4
  6
CONTINUOUS
 10
10.328292219
 20
8.9961245053
 11
10.328292219
 21
9.0126832334
  0
LINE
  5
2B1
100
AcDbEntity
  8
0
100
AcDbLine
 62
4
  6
CONTINUOUS
 10
10.3696890427
 20
8.9104599786
 11
10.3862477708
 21
8.9258703567
  0
LINE
  5
2B2
100
AcDbEntity
  8
0
100
AcDbLine
 62
4
  6
CONTINUOUS
 10
10.4607620575
 20
8.9041440436
 11
10.4773207786
 21
8.9195544222
  0
LINE
  5
2B3
100
AcDbEntity
  8
0
100
AcDbLine
 62
4
  6
CONTINUOUS
 10
10.3862477708
 20
8.9258703567
 11
10.3862477708
 21
8.9424290865
  0
LINE
  5
2B4
100
AcDbEntity
  8
0
100
AcDbLine
 62
4
  6
CONTINUOUS
 10
10.4193652269
 20
9.022926027
 11
10.4193652269
 21
8.9235736533
  0
LINE
  5
2B5
100
AcDbEntity
  8
0
100
AcDbLine
 62
4
  6
CONTINUOUS
 10
10.4552424874
 20
8.3133801996
 11
10.4552424874
 21
8.429291303
  0
LINE
  5
2B6
100
AcDbEntity
  8
0
100
AcDbLine
 62
4
  6
CONTINUOUS
 10
10.4773207786
 20
8.9195544222
 11
10.4773207786
 21
9.0189067958
  0
LINE
  5
2B7
100
AcDbEntity
  8
0
100
AcDbLine
 62
4
  6
CONTINUOUS
 10
10.5104382348
 20
8.900698989
 11
10.5104382348
 21
9.0166100924
  0
LINE
  5
2B8
100
AcDbEntity
  8
0
100
AcDbLine
 62
4
  6
CONTINUOUS
 10
10.5131980322
 20
8.4087133442
 11
10.5131980322
 21
8.3259196987
  0
LINE
  5
2B9
100
AcDbEntity
  8
0
100
AcDbLine
 62
4
  6
CONTINUOUS
 10
12.007968311
 20
7.7922819823
 11
11.993479423
 21
7.7932867901
  0
LINE
  5
2BA
100
AcDbEntity
  8
0
100
AcDbLine
 62
4
  6
CONTINUOUS
 10
12.000723867
 20
7.8507399379
 11
12.0297016429
 21
7.8487303223
  0
LINE
  5
2BB
100
AcDbEntity
  8
0
100
AcDbLine
 62
4
  6
CONTINUOUS
 10
11.993479423
 20
7.9091978935
 11
12.007968311
 21
7.9081930857
  0
LINE
  5
2BC
100
AcDbEntity
  8
0
100
AcDbLine
 62
4
  6
CONTINUOUS
 10
10.5683937865
 20
8.8966797578
 11
10.5683937865
 21
9.0125908612
  0
LINE
  5
2BD
100
AcDbEntity
  8
0
100
AcDbLine
 62
4
  6
CONTINUOUS
 10
10.5601144319
 20
8.3061073055
 11
10.593231888
 21
8.4197217055
  0
LINE
  5
2BE
100
AcDbEntity
  8
0
100
AcDbLine
 62
4
  6
CONTINUOUS
 10
10.8471324068
 20
8.9518634486
 11
10.863691128
 21
8.9589944649
  0
LINE
  5
2BF
100
AcDbEntity
  8
0
100
AcDbLine
 62
4
  6
CONTINUOUS
 10
11.0044403408
 20
8.8995572862
 11
11.020999062
 21
8.906688299
  0
LINE
  5
2C0
100
AcDbEntity
  8
0
100
AcDbLine
 62
4
  6
CONTINUOUS
 10
10.3890075682
 20
8.3676497945
 11
10.4331641798
 21
8.3425092172
  0
LINE
  5
2C1
100
AcDbEntity
  8
0
100
AcDbLine
 62
4
  6
CONTINUOUS
 10
10.4966393041
 20
8.426420424
 11
10.5131980322
 21
8.4087133442
  0
LINE
  5
2C2
100
AcDbEntity
  8
0
100
AcDbLine
 62
4
  6
CONTINUOUS
 10
9.6221313825
 20
9.7543625017
 11
9.6148869385
 21
9.7645241645
  0
LINE
  5
2C3
100
AcDbEntity
  8
0
100
AcDbLine
 62
4
  6
CONTINUOUS
 10
9.6655980463
 20
9.7996443711
 11
9.6800869342
 21
9.7793210472
  0
LINE
  5
2C4
100
AcDbEntity
  8
0
100
AcDbLine
 62
4
  6
CONTINUOUS
 10
10.593231888
 20
8.4197217055
 11
10.626349358
 21
8.3015138978
  0
LINE
  5
2C5
100
AcDbEntity
  8
0
100
AcDbLine
 62
4
  6
CONTINUOUS
 10
10.6925842505
 20
8.8880671199
 11
10.6925842505
 21
9.0039782233
  0
LINE
  5
2C6
100
AcDbEntity
  8
0
100
AcDbLine
 62
4
  6
CONTINUOUS
 10
10.6925842703
 20
8.296920491
 11
10.6925842703
 21
8.4128315944
  0
LINE
  5
2C7
100
AcDbEntity
  8
0
100
AcDbLine
 62
4
  6
CONTINUOUS
 10
10.7422604416
 20
8.9591363441
 11
10.7422604416
 21
8.8846220643
  0
LINE
  5
2C8
100
AcDbEntity
  8
0
100
AcDbLine
 62
4
  6
CONTINUOUS
 10
10.7588191826
 20
8.2923270842
 11
10.7588191826
 21
8.4082381877
  0
LINE
  5
2C9
100
AcDbEntity
  8
0
100
AcDbLine
 62
4
  6
CONTINUOUS
 10
10.7960762973
 20
8.5613064519
 11
10.7960762973
 21
8.6606588255
  0
LINE
  5
2CA
100
AcDbEntity
  8
0
100
AcDbLine
 62
4
  6
CONTINUOUS
 10
10.8471324068
 20
8.8856285337
 11
10.8471324068
 21
8.9518634486
  0
LINE
  5
2CB
100
AcDbEntity
  8
0
100
AcDbLine
 62
4
  6
CONTINUOUS
 10
10.7919366328
 20
8.8535791269
 11
10.8250540751
 21
8.9616739536
  0
LINE
  5
2CC
100
AcDbEntity
  8
0
100
AcDbLine
 62
4
  6
CONTINUOUS
 10
10.8457524815
 20
8.6572137705
 11
10.8291937534
 21
8.6335240266
  0
LINE
  5
2CD
100
AcDbEntity
  8
0
100
AcDbLine
 62
4
  6
CONTINUOUS
 10
10.8291937534
 20
8.5424510187
 11
10.887149312
 21
8.6212254344
  0
LINE
  5
2CE
100
AcDbEntity
  8
0
100
AcDbLine
 62
7
  6
CONTINUOUS
 10
12.3194794095
 20
10.0406044635
 11
12.578298241
 21
10.290604272
  0
LINE
  5
2CF
100
AcDbEntity
  8
0
100
AcDbLine
 62
4
  6
CONTINUOUS
 10
10.5131980322
 20
8.3259196987
 11
10.4966393041
 21
8.3105093206
  0
LINE
  5
2D0
100
AcDbEntity
  8
0
100
AcDbLine
 62
4
  6
CONTINUOUS
 10
10.7795175675
 20
8.5458960739
 11
10.7960762973
 21
8.5613064519
  0
LINE
  5
2D1
100
AcDbEntity
  8
0
100
AcDbLine
 62
4
  6
CONTINUOUS
 10
11.1617482393
 20
8.2643838592
 11
11.1203514088
 21
8.2672547392
  0
LINE
  5
2D2
100
AcDbEntity
  8
0
100
AcDbLine
 62
4
  6
CONTINUOUS
 10
11.0706752453
 20
8.2706997928
 11
11.0458371359
 21
8.2724223216
  0
LINE
  5
2D3
100
AcDbEntity
  8
0
100
AcDbLine
 62
4
  6
CONTINUOUS
 10
10.9823620289
 20
8.2768243352
 11
10.9492445865
 21
8.2791210376
  0
LINE
  5
2D4
100
AcDbEntity
  8
0
100
AcDbLine
 62
4
  6
CONTINUOUS
 10
10.4966393041
 20
8.3105093206
 11
10.4552424874
 21
8.3133801996
  0
LINE
  5
2D5
100
AcDbEntity
  8
0
100
AcDbLine
 62
4
  6
CONTINUOUS
 10
10.7588191826
 20
8.2923270842
 11
10.8084953737
 21
8.2888820287
  0
LINE
  5
2D6
100
AcDbEntity
  8
0
100
AcDbLine
 62
4
  6
CONTINUOUS
 10
11.2252234016
 20
8.2599818418
 11
11.2748995651
 21
8.2565367881
  0
LINE
  5
2D7
100
AcDbEntity
  8
0
100
AcDbLine
 62
4
  6
CONTINUOUS
 10
10.5711535839
 20
8.3384591973
 11
10.6153101921
 21
8.3353969261
  0
LINE
  5
2D8
100
AcDbEntity
  8
0
100
AcDbLine
 62
4
  6
CONTINUOUS
 10
11.2583408439
 20
8.3239200586
 11
11.2252234016
 21
8.326216761
  0
LINE
  5
2D9
100
AcDbEntity
  8
0
100
AcDbLine
 62
4
  6
CONTINUOUS
 10
10.7919366526
 20
8.3562652991
 11
10.7588191826
 21
8.3585620034
  0
LINE
  5
2DA
100
AcDbEntity
  8
0
100
AcDbLine
 62
4
  6
CONTINUOUS
 10
10.328292219
 20
8.921610223
 11
10.3365715839
 21
8.9127566822
  0
LINE
  5
2DB
100
AcDbEntity
  8
0
100
AcDbLine
 62
4
  6
CONTINUOUS
 10
10.9492445865
 20
8.2791210376
 11
10.9326858654
 21
8.2968281186
  0
LINE
  5
2DC
100
AcDbEntity
  8
0
100
AcDbLine
 62
4
  6
CONTINUOUS
 10
9.6655980463
 20
9.8479406665
 11
9.6728424903
 21
9.8377789994
  0
LINE
  5
2DD
100
AcDbEntity
  8
0
100
AcDbLine
 62
4
  6
CONTINUOUS
 10
10.5104382348
 20
9.0166100924
 11
10.5683937865
 21
8.8966797578
  0
LINE
  5
2DE
100
AcDbEntity
  8
0
100
AcDbLine
 62
4
  6
CONTINUOUS
 10
10.887149312
 20
8.6212254344
 11
10.887149312
 21
8.6377841624
  0
LINE
  5
2DF
100
AcDbEntity
  8
0
100
AcDbLine
 62
4
  6
CONTINUOUS
 10
10.8968085703
 20
8.9898152186
 11
10.8968085703
 21
8.8739041152
  0
LINE
  5
2E0
100
AcDbEntity
  8
0
100
AcDbLine
 62
4
  6
CONTINUOUS
 10
10.9299260679
 20
8.8716074089
 11
10.9299260679
 21
8.9544010562
  0
LINE
  5
2E1
100
AcDbEntity
  8
0
100
AcDbLine
 62
4
  6
CONTINUOUS
 10
10.9326858654
 20
8.2968281186
 11
10.9326858654
 21
8.3796217642
  0
LINE
  5
2E2
100
AcDbEntity
  8
0
100
AcDbLine
 62
4
  6
CONTINUOUS
 10
10.9533842243
 20
8.5338383803
 11
10.9533842243
 21
8.6497494837
  0
LINE
  5
2E3
100
AcDbEntity
  8
0
100
AcDbLine
 62
4
  6
CONTINUOUS
 10
10.9685630656
 20
8.9434422038
 11
10.9685630656
 21
8.9268834758
  0
LINE
  5
2E4
100
AcDbEntity
  8
0
100
AcDbLine
 62
4
  6
CONTINUOUS
 10
11.0044403408
 20
8.8747191915
 11
11.0044403408
 21
8.8995572862
  0
LINE
  5
2E5
100
AcDbEntity
  8
0
100
AcDbLine
 62
4
  6
CONTINUOUS
 10
11.2886984888
 20
8.9212407368
 11
11.2969778218
 21
8.9289459306
  0
LINE
  5
2E6
100
AcDbEntity
  8
0
100
AcDbLine
 62
4
  6
CONTINUOUS
 10
11.363212817
 20
8.9160731506
 11
11.3714921499
 21
8.9237783444
  0
LINE
  5
2E7
100
AcDbEntity
  8
0
100
AcDbLine
 62
4
  6
CONTINUOUS
 10
10.4331641798
 20
8.3866658306
 11
10.3890075682
 21
8.3676497945
  0
LINE
  5
2E8
100
AcDbEntity
  8
0
100
AcDbLine
 62
4
  6
CONTINUOUS
 10
10.4552424874
 20
8.429291303
 11
10.4966393041
 21
8.426420424
  0
LINE
  5
2E9
100
AcDbEntity
  8
0
100
AcDbLine
 62
4
  6
CONTINUOUS
 10
10.6594668003
 20
8.4151282988
 11
10.7257017126
 21
8.410534892
  0
LINE
  5
2EA
100
AcDbEntity
  8
0
100
AcDbLine
 62
4
  6
CONTINUOUS
 10
10.7588191826
 20
8.4082381877
 11
10.8084953737
 21
8.4047931321
  0
LINE
  5
2EB
100
AcDbEntity
  8
0
100
AcDbLine
 62
4
  6
CONTINUOUS
 10
10.9492445865
 20
8.395032141
 11
10.9823620289
 21
8.3927354386
  0
LINE
  5
2EC
100
AcDbEntity
  8
0
100
AcDbLine
 62
4
  6
CONTINUOUS
 10
11.0458371359
 20
8.388333425
 11
11.0706752453
 21
8.3866108963
  0
LINE
  5
2ED
100
AcDbEntity
  8
0
100
AcDbLine
 62
4
  6
CONTINUOUS
 10
11.1203514088
 20
8.3831658426
 11
11.1617482393
 21
8.3802949627
  0
LINE
  5
2EE
100
AcDbEntity
  8
0
100
AcDbLine
 62
4
  6
CONTINUOUS
 10
11.2252234016
 20
8.3758929452
 11
11.2748995651
 21
8.3724478916
  0
LINE
  5
2EF
100
AcDbEntity
  8
0
100
AcDbLine
 62
4
  6
CONTINUOUS
 10
11.3080170074
 20
8.325994581
 11
11.3521736156
 21
8.3008540022
  0
LINE
  5
2F0
100
AcDbEntity
  8
0
100
AcDbLine
 62
4
  6
CONTINUOUS
 10
11.993479423
 20
7.7932867901
 11
11.9789905351
 21
7.8039508568
  0
LINE
  5
2F1
100
AcDbEntity
  8
0
100
AcDbLine
 62
4
  6
CONTINUOUS
 10
10.3862477708
 20
8.9424290865
 11
10.328292219
 21
8.9961245053
  0
LINE
  5
2F2
100
AcDbEntity
  8
0
100
AcDbLine
 62
4
  6
CONTINUOUS
 10
10.4193652269
 20
8.9235736533
 11
10.435923955
 21
8.9058665718
  0
LINE
  5
2F3
100
AcDbEntity
  8
0
100
AcDbLine
 62
4
  6
CONTINUOUS
 10
11.0458371359
 20
8.2724223216
 11
11.0292784147
 21
8.2901294026
  0
LINE
  5
2F4
100
AcDbEntity
  8
0
100
AcDbLine
 62
4
  6
CONTINUOUS
 10
10.3779684067
 20
9.0257969062
 11
10.3862477708
 21
9.0169433628
  0
LINE
  5
2F5
100
AcDbEntity
  8
0
100
AcDbLine
 62
4
  6
CONTINUOUS
 10
11.0706752453
 20
8.3866108963
 11
11.0872339664
 21
8.368903817
  0
LINE
  5
2F6
100
AcDbEntity
  8
0
100
AcDbLine
 62
4
  6
CONTINUOUS
 10
10.887149312
 20
8.6377841624
 11
10.8705905771
 21
8.6554912427
  0
LINE
  5
2F7
100
AcDbEntity
  8
0
100
AcDbLine
 62
4
  6
CONTINUOUS
 10
10.7753779116
 20
8.9651190073
 11
10.800216021
 21
8.8806028312
  0
LINE
  5
2F8
100
AcDbEntity
  8
0
100
AcDbLine
 62
4
  6
CONTINUOUS
 10
11.0292784147
 20
8.2901294026
 11
11.0292784147
 21
8.3729230481
  0
LINE
  5
2F9
100
AcDbEntity
  8
0
100
AcDbLine
 62
4
  6
CONTINUOUS
 10
11.0541165043
 20
8.8629947729
 11
11.0541165043
 21
8.9292296921
  0
LINE
  5
2FA
100
AcDbEntity
  8
0
100
AcDbLine
 62
7
  6
CONTINUOUS
 10
11.0695344467
 20
7.1220938461
 11
11.0695344467
 21
6.6582042061
  0
LINE
  5
2FB
100
AcDbEntity
  8
0
100
AcDbLine
 62
4
  6
CONTINUOUS
 10
11.0872339466
 20
8.9434917178
 11
11.0872339466
 21
8.8689774354
  0
LINE
  5
2FC
100
AcDbEntity
  8
0
100
AcDbLine
 62
4
  6
CONTINUOUS
 10
11.0872339664
 20
8.368903817
 11
11.0872339664
 21
8.2861101714
  0
LINE
  5
2FD
100
AcDbEntity
  8
0
100
AcDbLine
 62
4
  6
CONTINUOUS
 10
11.1203514088
 20
8.2672547392
 11
11.1203514088
 21
8.3831658426
  0
LINE
  5
2FE
100
AcDbEntity
  8
0
100
AcDbLine
 62
7
  6
CONTINUOUS
 10
11.1324629418
 20
7.2251466846
 11
11.1324629418
 21
7.1387309504
  0
LINE
  5
2FF
100
AcDbEntity
  8
0
100
AcDbLine
 62
4
  6
CONTINUOUS
 10
11.1369101654
 20
8.857253013
 11
11.1369101654
 21
8.9400466603
  0
LINE
  5
300
100
AcDbEntity
  8
0
100
AcDbLine
 62
4
  6
CONTINUOUS
 10
11.1700276077
 20
8.8632356755
 11
11.1700276077
 21
8.970867414
  0
LINE
  5
301
100
AcDbEntity
  8
0
100
AcDbLine
 62
7
  6
CONTINUOUS
 10
11.1719683607
 20
7.0231504522
 11
11.1719683607
 21
6.5592608123
  0
LINE
  5
302
100
AcDbEntity
  8
0
100
AcDbLine
 62
4
  6
CONTINUOUS
 10
11.1783069605
 20
8.3625878834
 11
11.1783069605
 21
8.2797942378
  0
LINE
  5
303
100
AcDbEntity
  8
0
100
AcDbLine
 62
4
  6
CONTINUOUS
 10
11.2473016583
 20
8.9655084404
 11
11.2445418806
 21
8.9574204642
  0
LINE
  5
304
100
AcDbEntity
  8
0
100
AcDbLine
 62
4
  6
CONTINUOUS
 10
11.4046095923
 20
8.8386879947
 11
11.4128889252
 21
8.8463931859
  0
LINE
  5
305
100
AcDbEntity
  8
0
100
AcDbLine
 62
4
  6
CONTINUOUS
 10
10.9326858654
 20
8.3796217642
 11
10.9492445865
 21
8.395032141
  0
LINE
  5
306
100
AcDbEntity
  8
0
100
AcDbLine
 62
4
  6
CONTINUOUS
 10
11.0292784147
 20
8.3729230481
 11
11.0458371359
 21
8.388333425
  0
LINE
  5
307
100
AcDbEntity
  8
0
100
AcDbLine
 62
4
  6
CONTINUOUS
 10
11.9645016472
 20
8.9157704995
 11
11.9789905351
 21
8.9244249481
  0
LINE
  5
308
100
AcDbEntity
  8
0
100
AcDbLine
 62
4
  6
CONTINUOUS
 10
10.887149312
 20
8.5384317871
 11
10.8291937534
 21
8.5424510187
  0
LINE
  5
309
100
AcDbEntity
  8
0
100
AcDbLine
 62
4
  6
CONTINUOUS
 10
10.7546794736
 20
8.5476186016
 11
10.7795175675
 21
8.5458960739
  0
LINE
  5
30A
100
AcDbEntity
  8
0
100
AcDbLine
 62
4
  6
CONTINUOUS
 10
10.8705905771
 20
8.6554912427
 11
10.8457524815
 21
8.6572137705
  0
LINE
  5
30B
100
AcDbEntity
  8
0
100
AcDbLine
 62
4
  6
CONTINUOUS
 10
10.9202667682
 20
8.6520461871
 11
10.9865016805
 21
8.6474527804
  0
LINE
  5
30C
100
AcDbEntity
  8
0
100
AcDbLine
 62
4
  6
CONTINUOUS
 10
12.007968311
 20
7.9081930857
 11
12.0224571989
 21
7.8975290216
  0
LINE
  5
30D
100
AcDbEntity
  8
0
100
AcDbLine
 62
4
  6
CONTINUOUS
 10
11.1617482393
 20
8.3802949627
 11
11.1783069605
 21
8.3625878834
  0
LINE
  5
30E
100
AcDbEntity
  8
0
100
AcDbLine
 62
4
  6
CONTINUOUS
 10
10.7339810811
 20
8.9679898872
 11
10.7422604416
 21
8.9591363441
  0
LINE
  5
30F
100
AcDbEntity
  8
0
100
AcDbLine
 62
7
  6
CONTINUOUS
 10
11.1947645877
 20
7.017250362
 11
11.1947645877
 21
6.5533607221
  0
LINE
  5
310
100
AcDbEntity
  8
0
100
AcDbLine
 62
4
  6
CONTINUOUS
 10
11.2252234016
 20
8.2599818418
 11
11.2252234016
 21
8.3758929452
  0
LINE
  5
311
100
AcDbEntity
  8
0
100
AcDbLine
 62
4
  6
CONTINUOUS
 10
11.2445418806
 20
8.8497887282
 11
11.2445418806
 21
8.9325823755
  0
LINE
  5
312
100
AcDbEntity
  8
0
100
AcDbLine
 62
4
  6
CONTINUOUS
 10
11.2445418806
 20
8.9574204642
 11
11.2445418806
 21
8.9656998316
  0
LINE
  5
313
100
AcDbEntity
  8
0
100
AcDbLine
 62
4
  6
CONTINUOUS
 10
11.2886984888
 20
8.8550058219
 11
11.2886984888
 21
8.9212407368
  0
LINE
  5
314
100
AcDbEntity
  8
0
100
AcDbLine
 62
4
  6
CONTINUOUS
 10
11.0872339664
 20
8.2861101714
 11
11.0706752453
 21
8.2706997928
  0
LINE
  5
315
100
AcDbEntity
  8
0
100
AcDbLine
 62
4
  6
CONTINUOUS
 10
11.1783069605
 20
8.2797942378
 11
11.1617482393
 21
8.2643838592
  0
LINE
  5
316
100
AcDbEntity
  8
0
100
AcDbLine
 62
4
  6
CONTINUOUS
 10
12.007968311
 20
8.8741190371
 11
11.9789905351
 21
8.8568101366
  0
LINE
  5
317
100
AcDbEntity
  8
0
100
AcDbLine
 62
4
  6
CONTINUOUS
 10
11.3521736156
 20
8.3008540022
 11
11.3080170074
 21
8.2818379676
  0
LINE
  5
318
100
AcDbEntity
  8
0
100
AcDbLine
 62
4
  6
CONTINUOUS
 10
10.7753779116
 20
8.8547274781
 11
10.7919366328
 21
8.8535791269
  0
LINE
  5
319
100
AcDbEntity
  8
0
100
AcDbLine
 62
4
  6
CONTINUOUS
 10
10.863691128
 20
8.8762008176
 11
10.8471324068
 21
8.8856285337
  0
LINE
  5
31A
100
AcDbEntity
  8
0
100
AcDbLine
 62
4
  6
CONTINUOUS
 10
11.020999062
 20
8.8652914753
 11
11.0044403408
 21
8.8747191915
  0
LINE
  5
31B
100
AcDbEntity
  8
0
100
AcDbLine
 62
4
  6
CONTINUOUS
 10
9.6366202704
 20
9.743698435
 11
9.6221313825
 21
9.7543625017
  0
LINE
  5
31C
100
AcDbEntity
  8
0
100
AcDbLine
 62
4
  6
CONTINUOUS
 10
9.6511091584
 20
9.8103084352
 11
9.6655980463
 21
9.7996443711
  0
LINE
  5
31D
100
AcDbEntity
  8
0
100
AcDbLine
 62
4
  6
CONTINUOUS
 10
9.6511091584
 20
9.8586047306
 11
9.6655980463
 21
9.8479406665
  0
LINE
  5
31E
100
AcDbEntity
  8
0
100
AcDbLine
 62
4
  6
CONTINUOUS
 10
11.0872339466
 20
8.8689774354
 11
11.0955133349
 21
8.860123893
  0
LINE
  5
31F
100
AcDbEntity
  8
0
100
AcDbLine
 62
4
  6
CONTINUOUS
 10
10.9630435103
 20
8.9521043538
 11
10.9685630656
 21
8.9434422038
  0
LINE
  5
320
100
AcDbEntity
  8
0
100
AcDbLine
 62
4
  6
CONTINUOUS
 10
11.0541165043
 20
8.9292296921
 11
11.0458371714
 21
8.9463625939
  0
LINE
  5
321
100
AcDbEntity
  8
0
100
AcDbLine
 62
4
  6
CONTINUOUS
 10
11.363212817
 20
8.8912350585
 11
11.363212817
 21
8.9160731506
  0
LINE
  5
322
100
AcDbEntity
  8
0
100
AcDbLine
 62
4
  6
CONTINUOUS
 10
11.4128889252
 20
8.8463931859
 11
11.4128889252
 21
8.8712312806
  0
LINE
  5
323
100
AcDbEntity
  8
0
100
AcDbLine
 62
4
  6
CONTINUOUS
 10
11.9572572032
 20
8.9066136402
 11
11.9645016472
 21
8.9157704995
  0
LINE
  5
324
100
AcDbEntity
  8
0
100
AcDbLine
 62
4
  6
CONTINUOUS
 10
11.3300953747
 20
8.8438555733
 11
11.2969778218
 21
8.8461522833
  0
LINE
  5
325
100
AcDbEntity
  8
0
100
AcDbLine
 62
4
  6
CONTINUOUS
 10
11.1948657171
 20
8.8532337819
 11
11.178306996
 21
8.8543821331
  0
LINE
  5
326
100
AcDbEntity
  8
0
100
AcDbLine
 62
4
  6
CONTINUOUS
 10
11.0541165043
 20
8.8629947729
 11
11.020999062
 21
8.8652914753
  0
LINE
  5
327
100
AcDbEntity
  8
0
100
AcDbLine
 62
4
  6
CONTINUOUS
 10
10.8968085703
 20
8.8739041152
 11
10.863691128
 21
8.8762008176
  0
LINE
  5
328
100
AcDbEntity
  8
0
100
AcDbLine
 62
4
  6
CONTINUOUS
 10
10.3365715839
 20
8.9127566822
 11
10.3696890427
 21
8.9104599786
  0
LINE
  5
329
100
AcDbEntity
  8
0
100
AcDbLine
 62
4
  6
CONTINUOUS
 10
10.435923955
 20
8.9058665718
 11
10.4607620575
 21
8.9041440436
  0
LINE
  5
32A
100
AcDbEntity
  8
0
100
AcDbLine
 62
4
  6
CONTINUOUS
 10
11.0955133349
 20
8.860123893
 11
11.1369101654
 21
8.857253013
  0
LINE
  5
32B
100
AcDbEntity
  8
0
100
AcDbLine
 62
4
  6
CONTINUOUS
 10
11.3714921499
 20
8.8409846971
 11
11.4046095923
 21
8.8386879947
  0
LINE
  5
32C
100
AcDbEntity
  8
0
100
AcDbLine
 62
4
  6
CONTINUOUS
 10
11.9572572032
 20
8.8100210563
 11
12.0152127549
 21
8.8060018252
  0
LINE
  5
32D
100
AcDbEntity
  8
0
100
AcDbLine
 62
4
  6
CONTINUOUS
 10
11.020999062
 20
8.906688299
 11
11.0541165043
 21
8.9043915966
  0
LINE
  5
32E
100
AcDbEntity
  8
0
100
AcDbLine
 62
4
  6
CONTINUOUS
 10
11.0458371714
 20
8.9463625939
 11
11.0044403408
 21
8.9492334738
  0
LINE
  5
32F
100
AcDbEntity
  8
0
100
AcDbLine
 62
4
  6
CONTINUOUS
 10
10.6925842505
 20
8.9708607672
 11
10.7339810811
 21
8.9679898872
  0
LINE
  5
330
100
AcDbEntity
  8
0
100
AcDbLine
 62
4
  6
CONTINUOUS
 10
10.863691128
 20
8.9589944649
 11
10.8968085703
 21
8.9566977625
  0
LINE
  5
331
100
AcDbEntity
  8
0
100
AcDbLine
 62
4
  6
CONTINUOUS
 10
10.9299260679
 20
8.9544010562
 11
10.9630435103
 21
8.9521043538
  0
LINE
  5
332
100
AcDbEntity
  8
0
100
AcDbLine
 62
4
  6
CONTINUOUS
 10
11.2969778218
 20
8.9289459306
 11
11.3300953747
 21
8.9266492205
  0
LINE
  5
333
100
AcDbEntity
  8
0
100
AcDbLine
 62
4
  6
CONTINUOUS
 10
11.3714921499
 20
8.9237783444
 11
11.4046095923
 21
8.921481642
  0
LINE
  5
334
100
AcDbEntity
  8
0
100
AcDbLine
 62
4
  6
CONTINUOUS
 10
10.3448509488
 20
9.0280936097
 11
10.3779684067
 21
9.0257969062
  0
LINE
  5
335
100
AcDbEntity
  8
0
100
AcDbLine
 62
4
  6
CONTINUOUS
 10
11.2445418806
 20
8.9656998316
 11
11.2473016583
 21
8.9655084404
  0
LINE
  5
336
100
AcDbEntity
  8
0
100
AcDbLine
 62
4
  6
CONTINUOUS
 10
11.9789905351
 20
8.9244249481
 11
11.993479423
 21
8.9234201403
  0
LINE
  5
337
100
AcDbEntity
  8
0
100
AcDbLine
 62
4
  6
CONTINUOUS
 10
11.4046095923
 20
8.8773250303
 11
11.3714921499
 21
8.8851413088
  0
LINE
  5
338
100
AcDbEntity
  8
0
100
AcDbLine
 62
4
  6
CONTINUOUS
 10
11.3714921499
 20
8.8851413088
 11
11.363212817
 21
8.8912350585
  0
LINE
  5
339
100
AcDbEntity
  8
0
100
AcDbLine
 62
4
  6
CONTINUOUS
 10
11.178306996
 20
8.8543821331
 11
11.1700276077
 21
8.8632356755
  0
LINE
  5
33A
100
AcDbEntity
  8
0
100
AcDbLine
 62
4
  6
CONTINUOUS
 10
11.2969778218
 20
8.8461522833
 11
11.2886984888
 21
8.8550058219
  0
LINE
  5
33B
100
AcDbEntity
  8
0
100
AcDbLine
 62
4
  6
CONTINUOUS
 10
11.363212817
 20
8.8498382357
 11
11.3714921499
 21
8.8409846971
  0
LINE
  5
33C
100
AcDbEntity
  8
0
100
AcDbLine
 62
4
  6
CONTINUOUS
 10
11.9789905351
 20
7.8039508568
 11
11.9645016472
 21
7.8242741815
  0
LINE
  5
33D
100
AcDbEntity
  8
0
100
AcDbLine
 62
4
  6
CONTINUOUS
 10
12.0224571989
 20
7.8975290216
 11
12.0297016429
 21
7.8873673545
  0
LINE
  5
33E
100
AcDbEntity
  8
0
100
AcDbLine
 62
7
  6
CONTINUOUS
 10
11.5770528663
 20
6.9907385798
 11
11.5770528663
 21
6.5268489399
  0
LINE
  5
33F
100
AcDbEntity
  8
0
100
AcDbLine
 62
7
  6
CONTINUOUS
 10
11.6081930828
 20
6.992898165
 11
11.6081930828
 21
6.5290085251
  0
LINE
  5
340
100
AcDbEntity
  8
0
100
AcDbLine
 62
4
  6
CONTINUOUS
 10
11.9789905351
 20
8.8568101366
 11
11.9645016472
 21
8.8384964283
  0
LINE
  5
341
100
AcDbEntity
  8
0
100
AcDbLine
 62
4
  6
CONTINUOUS
 10
12.0152127549
 20
8.8832758964
 11
12.007968311
 21
8.8741190371
  0
LINE
  5
342
100
AcDbEntity
  8
0
100
AcDbLine
 62
4
  6
CONTINUOUS
 10
11.4128889252
 20
8.8712312806
 11
11.4046095923
 21
8.8773250303
  0
LINE
  5
343
100
AcDbEntity
  8
0
100
AcDbLine
 62
4
  6
CONTINUOUS
 10
11.4046095923
 20
8.921481642
 11
11.4128889252
 21
8.9126281008
  0
LINE
  5
344
100
AcDbEntity
  8
0
100
AcDbLine
 62
7
  6
CONTINUOUS
 10
11.8334629418
 20
7.1765321695
 11
11.8334629418
 21
7.1387309504
  0
LINE
  5
345
100
AcDbEntity
  8
0
100
AcDbLine
 62
4
  6
CONTINUOUS
 10
11.9645016472
 20
8.8384964283
 11
11.9572572032
 21
8.8100210563
  0
LINE
  5
346
100
AcDbEntity
  8
0
100
AcDbLine
 62
4
  6
CONTINUOUS
 10
11.9645016472
 20
7.8242741815
 11
11.9572572032
 21
7.8537543612
  0
LINE
  5
347
100
AcDbEntity
  8
0
100
AcDbLine
 62
7
  6
CONTINUOUS
 10
11.8880474473
 20
7.0653297767
 11
11.8880474473
 21
6.6014401368
  0
LINE
  5
348
100
AcDbEntity
  8
0
100
AcDbLine
 62
7
  6
CONTINUOUS
 10
11.8963914368
 20
7.0733894521
 11
11.8963914368
 21
6.6094998122
  0
LINE
  5
349
100
AcDbEntity
  8
0
100
AcDbLine
 62
4
  6
CONTINUOUS
 10
12.0152127549
 20
8.902594409
 11
12.0152127549
 21
8.8832758964
  0
LINE
  5
34A
100
AcDbEntity
  8
0
100
AcDbLine
 62
4
  6
CONTINUOUS
 10
12.0297016429
 20
7.8487303223
 11
12.0297016429
 21
7.8100932884
  0
LINE
  5
34B
100
AcDbEntity
  8
0
100
AcDbLine
 62
4
  6
CONTINUOUS
 10
11.9789905351
 20
7.900543445
 11
11.993479423
 21
7.9091978935
  0
LINE
  5
34C
100
AcDbEntity
  8
0
100
AcDbLine
 62
4
  6
CONTINUOUS
 10
11.993479423
 20
8.9234201403
 11
12.007968311
 21
8.9127560762
  0
LINE
  5
34D
100
AcDbEntity
  8
0
100
AcDbLine
 62
4
  6
CONTINUOUS
 10
11.9572572032
 20
7.8537543612
 11
11.9645016472
 21
7.8822297332
  0
LINE
  5
34E
100
AcDbEntity
  8
0
100
AcDbLine
 62
4
  6
CONTINUOUS
 10
11.9645016472
 20
7.8822297332
 11
11.9789905351
 21
7.900543445
  0
LINE
  5
34F
100
AcDbEntity
  8
0
100
AcDbLine
 62
4
  6
CONTINUOUS
 10
12.0224571989
 20
7.8009364334
 11
12.007968311
 21
7.7922819823
  0
LINE
  5
350
100
AcDbEntity
  8
0
100
AcDbLine
 62
4
  6
CONTINUOUS
 10
9.6511091584
 20
9.7426936272
 11
9.6366202704
 21
9.743698435
  0
LINE
  5
351
100
AcDbEntity
  8
0
100
AcDbLine
 62
4
  6
CONTINUOUS
 10
12.007968311
 20
8.9127560762
 11
12.0152127549
 21
8.902594409
  0
LINE
  5
352
100
AcDbEntity
  8
0
100
AcDbLine
 62
4
  6
CONTINUOUS
 10
11.2865889931
 20
10.2529088503
 11
11.2827531604
 21
10.2592037175
  0
LINE
  5
353
100
AcDbEntity
  8
0
100
AcDbLine
 62
7
  6
CONTINUOUS
 10
12.3194794095
 20
7.1428268129
 11
12.3194794095
 21
10.0406044635
  0
LINE
  5
354
100
AcDbEntity
  8
0
100
AcDbLine
 62
4
  6
CONTINUOUS
 10
12.0297016429
 20
7.8100932884
 11
12.0224571989
 21
7.8009364334
  0
LINE
  5
355
100
AcDbEntity
  8
0
100
AcDbLine
 62
4
  6
CONTINUOUS
 10
9.6366202704
 20
9.811313243
 11
9.6511091584
 21
9.8103084352
  0
LINE
  5
356
100
AcDbEntity
  8
0
100
AcDbLine
 62
4
  6
CONTINUOUS
 10
9.6366202704
 20
9.8596095384
 11
9.6511091584
 21
9.8586047306
  0
LINE
  5
357
100
AcDbEntity
  8
0
100
AcDbLine
 62
4
  6
CONTINUOUS
 10
11.2402338389
 20
10.2581332083
 11
11.234456865
 21
10.262553077
  0
LINE
  5
358
100
AcDbEntity
  8
0
100
AcDbLine
 62
7
  6
CONTINUOUS
 10
12.578298241
 20
7.3928266214
 11
12.578298241
 21
10.290604272
  0
LINE
  5
359
100
AcDbEntity
  8
0
100
AcDbLine
 62
4
  6
CONTINUOUS
 10
11.3503679684
 20
10.2545146147
 11
11.3368264271
 21
10.2514344895
  0
LINE
  5
35A
100
AcDbEntity
  8
0
100
AcDbLine
 62
4
  6
CONTINUOUS
 10
11.3794850863
 20
10.2826395925
 11
11.365943545
 21
10.2795594673
  0
LINE
  5
35B
100
AcDbEntity
  8
0
100
AcDbLine
 62
4
  6
CONTINUOUS
 10
11.234456865
 20
10.262553077
 11
11.2479984037
 21
10.2656332023
  0
LINE
  5
35C
100
AcDbEntity
  8
0
100
AcDbLine
 62
4
  6
CONTINUOUS
 10
11.3157525607
 20
10.2910786924
 11
11.3292940994
 21
10.2941588177
  0
LINE
  5
35D
100
AcDbEntity
  8
0
100
AcDbLine
 62
4
  6
CONTINUOUS
 10
11.2674562653
 20
10.2944280519
 11
11.280997804
 21
10.2975081772
  0
LINE
  5
35E
100
AcDbEntity
  8
0
100
AcDbLine
 62
4
  6
CONTINUOUS
 10
11.3368264271
 20
10.2514344895
 11
11.325226027
 21
10.2502293629
  0
LINE
  5
35F
100
AcDbEntity
  8
0
100
AcDbLine
 62
7
  6
CONTINUOUS
 10
9.421701759
 20
10.2415660261
 11
12.3194794095
 21
10.0406044635
  0
LINE
  5
360
100
AcDbEntity
  8
0
100
AcDbLine
 62
4
  6
CONTINUOUS
 10
11.1412820877
 20
10.172553148
 11
11.2571931911
 21
10.1645146856
  0
LINE
  5
361
100
AcDbEntity
  8
0
100
AcDbLine
 62
4
  6
CONTINUOUS
 10
11.2693509568
 20
10.2862581861
 11
11.2635739829
 21
10.2906780548
  0
LINE
  5
362
100
AcDbEntity
  8
0
100
AcDbLine
 62
4
  6
CONTINUOUS
 10
11.3445909919
 20
10.2589344836
 11
11.3503679684
 21
10.2545146147
  0
LINE
  5
363
100
AcDbEntity
  8
0
100
AcDbLine
 62
4
  6
CONTINUOUS
 10
11.3099755798
 20
10.2954985616
 11
11.3157525607
 21
10.2910786924
  0
LINE
  5
364
100
AcDbEntity
  8
0
100
AcDbLine
 62
4
  6
CONTINUOUS
 10
11.3775903922
 20
10.2908094585
 11
11.3833673687
 21
10.2863895895
  0
LINE
  5
365
100
AcDbEntity
  8
0
100
AcDbLine
 62
4
  6
CONTINUOUS
 10
11.2479984037
 20
10.2656332023
 11
11.2595988081
 21
10.2668383287
  0
LINE
  5
366
100
AcDbEntity
  8
0
100
AcDbLine
 62
4
  6
CONTINUOUS
 10
11.365943545
 20
10.2795594673
 11
11.3543431449
 21
10.2783543407
  0
LINE
  5
367
100
AcDbEntity
  8
0
100
AcDbLine
 62
4
  6
CONTINUOUS
 10
11.3292940994
 20
10.2941588177
 11
11.3524948978
 21
10.2965690712
  0
LINE
  5
368
100
AcDbEntity
  8
0
100
AcDbLine
 62
4
  6
CONTINUOUS
 10
11.280997804
 20
10.2975081772
 11
11.2925982084
 21
10.2987133036
  0
LINE
  5
369
100
AcDbEntity
  8
0
100
AcDbLine
 62
4
  6
CONTINUOUS
 10
11.325226027
 20
10.2502293629
 11
11.303966368
 21
10.2496941081
  0
LINE
  5
36A
100
AcDbEntity
  8
0
100
AcDbLine
 62
4
  6
CONTINUOUS
 10
11.2982358403
 20
10.2641588414
 11
11.3194954976
 21
10.2646940963
  0
LINE
  5
36B
100
AcDbEntity
  8
0
100
AcDbLine
 62
4
  6
CONTINUOUS
 10
11.2965733831
 20
10.3225530297
 11
11.4221901925
 21
10.32388956
  0
LINE
  5
36C
100
AcDbEntity
  8
0
100
AcDbLine
 62
4
  6
CONTINUOUS
 10
11.2033986059
 20
10.2325531006
 11
11.3193097093
 21
10.2245146383
  0
LINE
  5
36D
100
AcDbEntity
  8
0
100
AcDbLine
 62
7
  6
CONTINUOUS
 10
9.5434373144
 20
10.3591535501
 11
9.5743469434
 21
10.35700996
  0
LINE
  5
36E
100
AcDbEntity
  8
0
100
AcDbLine
 62
4
  6
CONTINUOUS
 10
11.303966368
 20
10.2496941081
 11
11.2653293324
 21
10.2523735956
  0
LINE
  5
36F
100
AcDbEntity
  8
0
100
AcDbLine
 62
7
  6
CONTINUOUS
 10
9.558785035
 20
10.3739783107
 11
9.589694664
 21
10.3718347206
  0
LINE
  5
370
100
AcDbEntity
  8
0
100
AcDbLine
 62
4
  6
CONTINUOUS
 10
11.2925982084
 20
10.2987133036
 11
11.3022574647
 21
10.2980434319
  0
LINE
  5
371
100
AcDbEntity
  8
0
100
AcDbLine
 62
4
  6
CONTINUOUS
 10
11.3524948978
 20
10.2965690712
 11
11.3621541576
 21
10.2958991992
  0
LINE
  5
372
100
AcDbEntity
  8
0
100
AcDbLine
 62
4
  6
CONTINUOUS
 10
11.4027787806
 20
10.3051395748
 11
11.2965733831
 21
10.3225530297
  0
LINE
  5
373
100
AcDbEntity
  8
0
100
AcDbLine
 62
4
  6
CONTINUOUS
 10
11.2653293324
 20
10.2523735956
 11
11.2479519609
 21
10.2555883376
  0
LINE
  5
374
100
AcDbEntity
  8
0
100
AcDbLine
 62
4
  6
CONTINUOUS
 10
11.303966368
 20
10.2496941081
 11
11.2865889931
 21
10.2529088503
  0
LINE
  5
375
100
AcDbEntity
  8
0
100
AcDbLine
 62
4
  6
CONTINUOUS
 10
11.3194954976
 20
10.2646940963
 11
11.3368728742
 21
10.261479354
  0
LINE
  5
376
100
AcDbEntity
  8
0
100
AcDbLine
 62
4
  6
CONTINUOUS
 10
11.2479519609
 20
10.2555883376
 11
11.2402338389
 21
10.2581332083
  0
LINE
  5
377
100
AcDbEntity
  8
0
100
AcDbLine
 62
4
  6
CONTINUOUS
 10
11.3368728742
 20
10.261479354
 11
11.3445909919
 21
10.2589344836
  0
LINE
  5
378
100
AcDbEntity
  8
0
100
AcDbLine
 62
4
  6
CONTINUOUS
 10
11.3022574647
 20
10.2980434319
 11
11.3099755798
 21
10.2954985616
  0
LINE
  5
379
100
AcDbEntity
  8
0
100
AcDbLine
 62
4
  6
CONTINUOUS
 10
11.3621541576
 20
10.2958991992
 11
11.3775903922
 21
10.2908094585
  0
LINE
  5
37A
100
AcDbEntity
  8
0
100
AcDbLine
 62
7
  6
CONTINUOUS
 10
12.3194794095
 20
7.1428268129
 11
12.578298241
 21
7.3928266214
  0
LINE
  5
37B
100
AcDbEntity
  8
0
100
AcDbLine
 62
7
  6
CONTINUOUS
 10
12.578298241
 20
10.290604272
 11
9.6805205905
 21
10.4915658346
  0
LINE
  5
37C
100
AcDbEntity
  8
0
100
AcDbLine
 62
7
  6
CONTINUOUS
 10
11.8312213267
 20
6.5694296941
 11
11.8120310219
 21
6.5599500509
  0
ARC
  5
37D
100
AcDbEntity
  8
0
100
AcDbCircle
 62
7
  6
CONTINUOUS
 10
11.4893056222
 20
8.4816066727
 40
1.4934481072
100
AcDbArc
 50
273.3683419248
 51
274.5659201455
  0
ARC
  5
37E
100
AcDbEntity
  8
0
100
AcDbCircle
 62
7
  6
CONTINUOUS
 10
11.4902789342
 20
8.0036823249
 40
1.4793804657
100
AcDbArc
 50
273.3626477428
 51
274.5716143275
  0
ARC
  5
37F
100
AcDbEntity
  8
0
100
AcDbCircle
 62
7
  6
CONTINUOUS
 10
11.3431990944
 20
7.6377470127
 40
0.6380038373
100
AcDbArc
 50
254.4318055974
 51
256.5465922376
  0
ARC
  5
380
100
AcDbEntity
  8
0
100
AcDbCircle
 62
7
  6
CONTINUOUS
 10
11.3431990944
 20
7.1738573728
 40
0.6380038373
100
AcDbArc
 50
254.4318055974
 51
256.5465922376
  0
ARC
  5
381
100
AcDbEntity
  8
0
100
AcDbCircle
 62
7
  6
CONTINUOUS
 10
11.6046475881
 20
7.0271912012
 40
0.5107652123
100
AcDbArc
 50
293.9288192694
 51
296.3113000085
  0
ARC
  5
382
100
AcDbEntity
  8
0
100
AcDbCircle
 62
7
  6
CONTINUOUS
 10
12.404240565
 20
9.1656598634
 40
0.0147418348
100
AcDbArc
 50
86.0359543455
 51
92.1792431364
  0
ARC
  5
383
100
AcDbEntity
  8
0
100
AcDbCircle
 62
7
  6
CONTINUOUS
 10
12.404240565
 20
8.1089369068
 40
0.0147418348
100
AcDbArc
 50
86.0359543453
 51
92.1792431365
  0
ARC
  5
384
100
AcDbEntity
  8
0
100
AcDbCircle
 62
7
  6
CONTINUOUS
 10
12.3737636408
 20
8.7261988256
 40
0.0147415838
100
AcDbArc
 50
259.6511165695
 51
266.03056391
  0
ARC
  5
385
100
AcDbEntity
  8
0
100
AcDbCircle
 62
7
  6
CONTINUOUS
 10
12.3737636408
 20
7.669475869
 40
0.0147415838
100
AcDbArc
 50
259.6511165696
 51
266.0305639099
  0
LINE
  5
386
100
AcDbEntity
  8
0
100
AcDbLine
 62
7
  6
CONTINUOUS
 10
11.0734103671
 20
7.1261442166
 11
11.0778784362
 21
7.1301535215
  0
LINE
  5
387
100
AcDbEntity
  8
0
100
AcDbLine
 62
7
  6
CONTINUOUS
 10
11.0734103671
 20
7.1261442166
 11
11.0695344467
 21
7.1220938461
  0
LINE
  5
388
100
AcDbEntity
  8
0
100
AcDbLine
 62
7
  6
CONTINUOUS
 10
11.8963914368
 20
6.6094998122
 11
11.8925155164
 21
6.6054494416
  0
LINE
  5
389
100
AcDbEntity
  8
0
100
AcDbLine
 62
7
  6
CONTINUOUS
 10
11.8925155164
 20
6.6054494416
 11
11.8880474473
 21
6.6014401368
  0
SPLINE
  5
38A
100
AcDbEntity
  8
0
100
AcDbSpline
 62
7
  6
CONTINUOUS
 70
0
 71
3
 72
9
 73
5
 74
0
 42
0.0000001
 43
0.0000001
 44
0.0000000001
 40
0.0
 40
0.0
 40
0.0
 40
0.0
 40
0.5043014331
 40
1.0
 40
1.0
 40
1.0
 40
1.0
 10
11.0778784362
 20
7.1301535215
 30
0.0
 10
11.086813569
 20
7.1357550027
 30
0.0
 10
11.1047530429
 20
7.1465143044
 30
0.0
 10
11.1231891835
 20
7.1564073027
 30
0.0
 10
11.1324589778
 20
7.1610464946
 30
0.0
  0
SPLINE
  5
38B
100
AcDbEntity
  8
0
100
AcDbSpline
 62
7
  6
CONTINUOUS
 70
0
 71
3
 72
9
 73
5
 74
0
 42
0.0000001
 43
0.0000001
 44
0.0000000001
 40
0.0
 40
0.0
 40
0.0
 40
0.0
 40
0.5045178058
 40
1.0
 40
1.0
 40
1.0
 40
1.0
 10
11.8880474473
 20
6.6014401368
 30
0.0
 10
11.8787229181
 20
6.5955945409
 30
0.0
 10
11.8599995128
 20
6.5843867687
 30
0.0
 10
11.8407327259
 20
6.5741305267
 30
0.0
 10
11.8310432415
 20
6.5693417606
 30
0.0
  0
SPLINE
  5
38C
100
AcDbEntity
  8
0
100
AcDbSpline
 62
7
  6
CONTINUOUS
 70
0
 71
3
 72
23
 73
19
 74
0
 42
0.0000001
 43
0.0000001
 44
0.0000000001
 40
0.0
 40
0.0
 40
0.0
 40
0.0
 40
0.0434832551
 40
0.0889703513
 40
0.136712798
 40
0.1869229566
 40
0.2397727271
 40
0.2953821218
 40
0.3538243822
 40
0.4151244888
 40
0.4792631359
 40
0.5461854753
 40
0.6158036935
 40
0.6880079523
 40
0.7626699313
 40
0.8396523641
 40
0.9188114473
 40
1.0
 40
1.0
 40
1.0
 40
1.0
 10
11.1425642148
 20
6.5655472155
 30
0.0
 10
11.1410073718
 20
6.5663154007
 30
0.0
 10
11.1378819016
 20
6.5680114009
 30
0.0
 10
11.1332813036
 20
6.5709562799
 30
0.0
 10
11.1286744835
 20
6.5743651129
 30
0.0
 10
11.1240644748
 20
6.578243204
 30
0.0
 10
11.1194547296
 20
6.5825928388
 30
0.0
 10
11.114847924
 20
6.5874109534
 30
0.0
 10
11.1102472128
 20
6.5926907618
 30
0.0
 10
11.1056554264
 20
6.5984212306
 30
0.0
 10
11.1010749245
 20
6.6045875693
 30
0.0
 10
11.0965083064
 20
6.6111722922
 30
0.0
 10
11.0919572157
 20
6.6181551835
 30
0.0
 10
11.0874234799
 20
6.6255146494
 30
0.0
 10
11.082908152
 20
6.6332279326
 30
0.0
 10
11.078412166
 20
6.6412720195
 30
0.0
 10
11.0739360043
 20
6.6496238595
 30
0.0
 10
11.0710007126
 20
6.6553133846
 30
0.0
 10
11.0695344467
 20
6.6582042061
 30
0.0
  0
SPLINE
  5
38D
100
AcDbEntity
  8
0
100
AcDbSpline
 62
7
  6
CONTINUOUS
 70
0
 71
3
 72
47
 73
43
 74
0
 42
0.0000001
 43
0.0000001
 44
0.0000000001
 40
0.0
 40
0.0
 40
0.0
 40
0.0
 40
0.009987502
 40
0.0204478069
 40
0.0313774032
 40
0.0427709469
 40
0.0546220901
 40
0.0669229446
 40
0.0928355628
 40
0.1204263986
 40
0.1495978131
 40
0.1802400805
 40
0.2122331782
 40
0.245448317
 40
0.2797490522
 40
0.3149921726
 40
0.3510289747
 40
0.3877062334
 40
0.424867022
 40
0.4623516256
 40
0.4999986044
 40
0.5376456133
 40
0.5751302243
 40
0.6122909956
 40
0.6489683039
 40
0.6850051667
 40
0.7202482776
 40
0.7545490217
 40
0.7877642856
 40
0.8197574352
 40
0.8503996861
 40
0.8795711674
 40
0.8935710465
 40
0.9071630903
 40
0.9203352799
 40
0.9330768602
 40
0.9453777467
 40
0.9572288588
 40
0.968622571
 40
0.9795521239
 40
0.9900124072
 40
1.0
 40
1.0
 40
1.0
 40
1.0
 10
11.8120323303
 20
6.5599507514
 30
0.0
 10
11.8100305611
 20
6.5589619054
 30
0.0
 10
11.8058980904
 20
6.5570060091
 30
0.0
 10
11.7994706224
 20
6.5541950827
 30
0.0
 10
11.7926777014
 20
6.551442227
 30
0.0
 10
11.7855272467
 20
6.5487504758
 30
0.0
 10
11.7780273501
 20
6.5461230532
 30
0.0
 10
11.7673875348
 20
6.5426491741
 30
0.0
 10
11.7532683102
 20
6.5385071975
 30
0.0
 10
11.7353613515
 20
6.5339210002
 30
0.0
 10
11.7162900131
 20
6.529658189
 30
0.0
 10
11.6961420977
 20
6.5257386659
 30
0.0
 10
11.6750101958
 20
6.5221807912
 30
0.0
 10
11.6529916418
 20
6.5190012462
 30
0.0
 10
11.6301879284
 20
6.5162149672
 30
0.0
 10
11.6067042778
 20
6.5138349383
 30
0.0
 10
11.5826490971
 20
6.5118722718
 30
0.0
 10
11.558133444
 20
6.5103361611
 30
0.0
 10
11.5332705384
 20
6.5092338173
 30
0.0
 10
11.5081752323
 20
6.5085703344
 30
0.0
 10
11.4829634532
 20
6.5083488036
 30
0.0
 10
11.4577516719
 20
6.5085702929
 30
0.0
 10
11.4326563613
 20
6.5092337841
 30
0.0
 10
11.4077934473
 20
6.5103361332
 30
0.0
 10
11.3832777702
 20
6.5118721907
 30
0.0
 10
11.3592225642
 20
6.5138348297
 30
0.0
 10
11.3357389018
 20
6.5162148713
 30
0.0
 10
11.3129351586
 20
6.5190011499
 30
0.0
 10
11.2909165619
 20
6.5221806369
 30
0.0
 10
11.2697845933
 20
6.52573849
 30
0.0
 10
11.249636755
 20
6.5296580637
 30
0.0
 10
11.233530616
 20
6.5332579259
 30
0.0
 10
11.2212147223
 20
6.5363157916
 30
0.0
 10
11.2124072312
 20
6.5386563702
 30
0.0
 10
11.2039123653
 20
6.5410730133
 30
0.0
 10
11.1957398661
 20
6.5435627844
 30
0.0
 10
11.1878991461
 20
6.546122836
 30
0.0
 10
11.1803992439
 20
6.5487503085
 30
0.0
 10
11.1732487284
 20
6.551441969
 30
0.0
 10
11.1664558032
 20
6.5541948758
 30
0.0
 10
11.1600283268
 20
6.5570057939
 30
0.0
 10
11.1558958055
 20
6.5589616202
 30
0.0
 10
11.1538940158
 20
6.5599504705
 30
0.0
  0
SPLINE
  5
38E
100
AcDbEntity
  8
0
100
AcDbSpline
 62
7
  6
CONTINUOUS
 70
0
 71
3
 72
21
 73
17
 74
0
 42
0.0000001
 43
0.0000001
 44
0.0000000001
 40
0.0
 40
0.0
 40
0.0
 40
0.0
 40
0.0939546242
 40
0.1441412745
 40
0.1965865465
 40
0.2513541962
 40
0.3084732992
 40
0.3679494757
 40
0.4297588492
 40
0.4938589598
 40
0.560186105
 40
0.6286639314
 40
0.6992033348
 40
0.7717085205
 40
0.846079549
 40
1.0
 40
1.0
 40
1.0
 40
1.0
 10
11.8334628564
 20
7.1599889631
 30
0.0
 10
11.8362232288
 20
7.1580351986
 30
0.0
 10
11.84028162
 20
7.1547821693
 30
0.0
 10
11.845468291
 20
7.149967024
 30
0.0
 10
11.84944291
 20
7.145926724
 30
0.0
 10
11.8534135395
 20
7.1415405118
 30
0.0
 10
11.8573792381
 20
7.136814486
 30
0.0
 10
11.8613375246
 20
7.1317565382
 30
0.0
 10
11.8652872608
 20
7.126377029
 30
0.0
 10
11.8692265176
 20
7.1206873907
 30
0.0
 10
11.8731543614
 20
7.1147007716
 30
0.0
 10
11.8770694236
 20
7.1084309132
 30
0.0
 10
11.8809710445
 20
7.1018924391
 30
0.0
 10
11.8848584643
 20
7.0951000462
 30
0.0
 10
11.8900820116
 20
7.0856160552
 30
0.0
 10
11.8938852744
 20
7.0783304852
 30
0.0
 10
11.8963914368
 20
7.0733894521
 30
0.0
  0
SPLINE
  5
38F
100
AcDbEntity
  8
0
100
AcDbSpline
 62
7
  6
CONTINUOUS
 70
0
 71
3
 72
22
 73
18
 74
0
 42
0.0000001
 43
0.0000001
 44
0.0000000001
 40
0.0
 40
0.0
 40
0.0
 40
0.0
 40
0.0635273379
 40
0.1269572064
 40
0.1902757748
 40
0.2534709912
 40
0.3165301003
 40
0.379441755
 40
0.4421965093
 40
0.5047878955
 40
0.5672131085
 40
0.6294732209
 40
0.6915729736
 40
0.7535202865
 40
0.8153256527
 40
0.8770007717
 40
1.0
 40
1.0
 40
1.0
 40
1.0
 10
11.5770528663
 20
6.9907385798
 30
0.0
 10
11.5692675247
 20
6.9933763158
 30
0.0
 10
11.5536471812
 20
6.9984683695
 30
0.0
 10
11.5300491624
 20
7.005499928
 30
0.0
 10
11.5063041789
 20
7.0118564514
 30
0.0
 10
11.4824224255
 20
7.0174745654
 30
0.0
 10
11.4584198445
 20
7.0222939694
 30
0.0
 10
11.4343189591
 20
7.0262609559
 30
0.0
 10
11.4101482626
 20
7.0293326107
 30
0.0
 10
11.3859409549
 20
7.0314803925
 30
0.0
 10
11.3617328435
 20
7.0326927011
 30
0.0
 10
11.3375598379
 20
7.032975949
 30
0.0
 10
11.3134553674
 20
7.0323538786
 30
0.0
 10
11.2894483834
 20
7.0308653486
 30
0.0
 10
11.2655614488
 20
7.0285608255
 30
0.0
 10
11.2339263816
 20
7.0244819201
 30
0.0
 10
11.2103705462
 20
7.0203732317
 30
0.0
 10
11.1947645877
 20
7.017250362
 30
0.0
  0
SPLINE
  5
390
100
AcDbEntity
  8
0
100
AcDbSpline
 62
7
  6
CONTINUOUS
 70
0
 71
3
 72
15
 73
11
 74
0
 42
0.0000001
 43
0.0000001
 44
0.0000000001
 40
0.0
 40
0.0
 40
0.0
 40
0.0
 40
0.1194602858
 40
0.2394958904
 40
0.3605470642
 40
0.48311116
 40
0.6077388008
 40
0.735017645
 40
0.8655629633
 40
1.0
 40
1.0
 40
1.0
 40
1.0
 10
11.1719683607
 20
6.5592608123
 30
0.0
 10
11.1707592881
 20
6.559212806
 30
0.0
 10
11.1683320358
 20
6.5591840084
 30
0.0
 10
11.164681909
 20
6.5593544669
 30
0.0
 10
11.161017411
 20
6.5597505741
 30
0.0
 10
11.1573391289
 20
6.5603843908
 30
0.0
 10
11.1536477224
 20
6.561268002
 30
0.0
 10
11.1499439762
 20
6.5624128068
 30
0.0
 10
11.1462291847
 20
6.5638297818
 30
0.0
 10
11.1437853746
 20
6.5649446648
 30
0.0
 10
11.1425642148
 20
6.5655472155
 30
0.0
  0
SPLINE
  5
391
100
AcDbEntity
  8
0
100
AcDbSpline
 62
7
  6
CONTINUOUS
 70
0
 71
3
 72
23
 73
19
 74
0
 42
0.0000001
 43
0.0000001
 44
0.0000000001
 40
0.0
 40
0.0
 40
0.0
 40
0.0
 40
0.0906670359
 40
0.1780341793
 40
0.2617789563
 40
0.3415969466
 40
0.4172203086
 40
0.4884477007
 40
0.5551747958
 40
0.6174227973
 40
0.6753586861
 40
0.7293019982
 40
0.7797138811
 40
0.8271670494
 40
0.8722993512
 40
0.9157583196
 40
0.9581503273
 40
1.0
 40
1.0
 40
1.0
 40
1.0
 10
11.1719683607
 20
7.0231504522
 30
0.0
 10
11.1699157287
 20
7.0271973259
 30
0.0
 10
11.1658084826
 20
7.0351052941
 30
0.0
 10
11.1595020705
 20
7.0465905616
 30
0.0
 10
11.1531578548
 20
7.0574308762
 30
0.0
 10
11.1467779956
 20
7.067562738
 30
0.0
 10
11.1403657627
 20
7.0769249212
 30
0.0
 10
11.1339256164
 20
7.0854616036
 30
0.0
 10
11.1274630949
 20
7.0931261262
 30
0.0
 10
11.1209845771
 20
7.0998842852
 30
0.0
 10
11.1144970454
 20
7.1057167479
 30
0.0
 10
11.1080080315
 20
7.1106202503
 30
0.0
 10
11.1015257873
 20
7.1146075746
 30
0.0
 10
11.0950594597
 20
7.1177066258
 30
0.0
 10
11.0886189722
 20
7.119958864
 30
0.0
 10
11.0822135367
 20
7.1214168177
 30
0.0
 10
11.0758515232
 20
7.1221407747
 30
0.0
 10
11.0716272763
 20
7.1221769421
 30
0.0
 10
11.0695344467
 20
7.1220938461
 30
0.0
  0
SPLINE
  5
392
100
AcDbEntity
  8
0
100
AcDbSpline
 62
7
  6
CONTINUOUS
 70
0
 71
3
 72
23
 73
19
 74
0
 42
0.0000001
 43
0.0000001
 44
0.0000000001
 40
0.0
 40
0.0
 40
0.0
 40
0.0
 40
0.0583758378
 40
0.1169669042
 40
0.1758415893
 40
0.2350810538
 40
0.2947741399
 40
0.3550144473
 40
0.4158939499
 40
0.4774962044
 40
0.5398895504
 40
0.6031216332
 40
0.6672164029
 40
0.7321741044
 40
0.7979740729
 40
0.8645787036
 40
0.9319398071
 40
1.0
 40
1.0
 40
1.0
 40
1.0
 10
11.8880474473
 20
7.0653297767
 30
0.0
 10
11.8823357903
 20
7.065953874
 30
0.0
 10
11.8708684145
 20
7.0670051114
 30
0.0
 10
11.8535813958
 20
7.067927693
 30
0.0
 10
11.8361850221
 20
7.0681360157
 30
0.0
 10
11.8186874064
 20
7.0675690282
 30
0.0
 10
11.8011010195
 20
7.0661703848
 30
0.0
 10
11.7834435133
 20
7.0638922712
 30
0.0
 10
11.7657370101
 20
7.0606995235
 30
0.0
 10
11.7480069553
 20
7.0565728645
 30
0.0
 10
11.7302803363
 20
7.051510815
 30
0.0
 10
11.712583681
 20
7.0455299238
 30
0.0
 10
11.6949411857
 20
7.0386632499
 30
0.0
 10
11.6773732545
 20
7.0309574406
 30
0.0
 10
11.6598957105
 20
7.0224689695
 30
0.0
 10
11.6425195287
 20
7.0132599176
 30
0.0
 10
11.625251588
 20
7.0033946556
 30
0.0
 10
11.6138688199
 20
6.9964563141
 30
0.0
 10
11.6081930828
 20
6.992898165
 30
0.0
  0
SPLINE
  5
393
100
AcDbEntity
  8
0
100
AcDbSpline
 62
7
  6
CONTINUOUS
 70
0
 71
3
 72
21
 73
17
 74
0
 42
0.0000001
 43
0.0000001
 44
0.0000000001
 40
0.0
 40
0.0
 40
0.0
 40
0.0
 40
0.1322807973
 40
0.1974630074
 40
0.2620103588
 40
0.3259410588
 40
0.3892831828
 40
0.4520722499
 40
0.5143508918
 40
0.5761665783
 40
0.6375689141
 40
0.6986092661
 40
0.7593369091
 40
0.8197991391
 40
0.880040055
 40
1.0
 40
1.0
 40
1.0
 40
1.0
 10
11.8118146718
 20
6.5603262298
 30
0.0
 10
11.8034052622
 20
6.556600604
 30
0.0
 10
11.7906860332
 20
6.5513993545
 30
0.0
 10
11.7735034651
 20
6.5453371815
 30
0.0
 10
11.7606578614
 20
6.5412888851
 30
0.0
 10
11.7478015405
 20
6.5377278335
 30
0.0
 10
11.734944631
 20
6.5346582292
 30
0.0
 10
11.7220971841
 20
6.5320809425
 30
0.0
 10
11.7092691433
 20
6.5299906342
 30
0.0
 10
11.6964696425
 20
6.5283777473
 30
0.0
 10
11.6837067751
 20
6.5272288313
 30
0.0
 10
11.6709875157
 20
6.5265261046
 30
0.0
 10
11.6583174743
 20
6.5262499968
 30
0.0
 10
11.6457007256
 20
6.5263781899
 30
0.0
 10
11.628978861
 20
6.5270564343
 30
0.0
 10
11.61648478
 20
6.5281025137
 30
0.0
 10
11.6081930828
 20
6.5290085251
 30
0.0
  0
SPLINE
  5
394
100
AcDbEntity
  8
0
100
AcDbSpline
 62
7
  6
CONTINUOUS
 70
0
 71
3
 72
63
 73
59
 74
0
 42
0.0000001
 43
0.0000001
 44
0.0000000001
 40
0.0
 40
0.0
 40
0.0
 40
0.0
 40
0.0028080891
 40
0.005635861
 40
0.0085025563
 40
0.0114265532
 40
0.0144250857
 40
0.0175140421
 40
0.024015442
 40
0.0310307815
 40
0.0386330795
 40
0.0468752351
 40
0.0557945867
 40
0.0654152368
 40
0.0757518105
 40
0.0868103284
 40
0.0985909326
 40
0.1110879014
 40
0.1242915782
 40
0.1381880808
 40
0.1527606178
 40
0.1679892836
 40
0.1838518204
 40
0.2003236172
 40
0.2173780101
 40
0.2349865843
 40
0.2531190923
 40
0.2717439838
 40
0.2908280564
 40
0.3103371435
 40
0.330235625
 40
0.3710533868
 40
0.4129802271
 40
0.4557028008
 40
0.4988999706
 40
0.5422458968
 40
0.5854133071
 40
0.6280766967
 40
0.6699154469
 40
0.7106171615
 40
0.7498808869
 40
0.7874205697
 40
0.805460169
 40
0.8229700755
 40
0.839920616
 40
0.8562834646
 40
0.8720324963
 40
0.8871434047
 40
0.9015943675
 40
0.9153660295
 40
0.9284420105
 40
0.9408093994
 40
0.9524588963
 40
0.9633859076
 40
0.9735912468
 40
0.9830834907
 40
0.991878313
 40
1.0
 40
1.0
 40
1.0
 40
1.0
 10
11.1324630043
 20
7.138730649
 30
0.0
 10
11.132462989
 20
7.1380497382
 30
0.0
 10
11.132522576
 20
7.1366824041
 30
0.0
 10
11.1327905672
 20
7.1346357525
 30
0.0
 10
11.133236843
 20
7.1325916191
 30
0.0
 10
11.1338608838
 20
7.1305514375
 30
0.0
 10
11.1346621819
 20
7.128516214
 30
0.0
 10
11.1359885997
 20
7.1257642427
 30
0.0
 10
11.1381171373
 20
7.122331383
 30
0.0
 10
11.1413234927
 20
7.1183257028
 30
0.0
 10
11.1452166741
 20
7.1143683165
 30
0.0
 10
11.1497878066
 20
7.1104647097
 30
0.0
 10
11.1550285091
 20
7.1066208782
 30
0.0
 10
11.1609286268
 20
7.1028428692
 30
0.0
 10
11.1674772199
 20
7.09913795
 30
0.0
 10
11.1746615183
 20
7.0955126944
 30
0.0
 10
11.1824676883
 20
7.0919745969
 30
0.0
 10
11.1908802703
 20
7.0885303051
 30
0.0
 10
11.199882676
 20
7.0851870662
 30
0.0
 10
11.2094569056
 20
7.0819513607
 30
0.0
 10
11.2195838379
 20
7.0788299724
 30
0.0
 10
11.2302431262
 20
7.0758290885
 30
0.0
 10
11.2414133513
 20
7.0729549185
 30
0.0
 10
11.2530720053
 20
7.070213269
 30
0.0
 10
11.2651955819
 20
7.0676097199
 30
0.0
 10
11.2777596081
 20
7.0651496302
 30
0.0
 10
11.2907387154
 20
7.0628379118
 30
0.0
 10
11.3041066788
 20
7.0606794075
 30
0.0
 10
11.3178364803
 20
7.0586783496
 30
0.0
 10
11.3319003762
 20
7.0568389758
 30
0.0
 10
11.3512234126
 20
7.054587856
 30
0.0
 10
11.3760022362
 20
7.0522142654
 30
0.0
 10
11.4063540627
 20
7.0500834393
 30
0.0
 10
11.4373250304
 20
7.0486642971
 30
0.0
 10
11.4686647402
 20
7.0479684523
 30
0.0
 10
11.5001200035
 20
7.0480016478
 30
0.0
 10
11.5314366147
 20
7.0487636056
 30
0.0
 10
11.5623615296
 20
7.0502480564
 30
0.0
 10
11.5926448995
 20
7.0524427836
 30
0.0
 10
11.6220422501
 20
7.0553296864
 30
0.0
 10
11.6503160826
 20
7.0588850275
 30
0.0
 10
11.67304378
 20
7.0624255651
 30
0.0
 10
11.6904832343
 20
7.0655861454
 30
0.0
 10
11.7029690236
 20
7.0680728115
 30
0.0
 10
11.7150098205
 20
7.0707018163
 30
0.0
 10
11.7265813496
 20
7.0734680383
 30
0.0
 10
11.7376602807
 20
7.0763656747
 30
0.0
 10
11.7482243033
 20
7.0793889466
 30
0.0
 10
11.7582521755
 20
7.0825316278
 30
0.0
 10
11.7677237874
 20
7.0857873371
 30
0.0
 10
11.7766201947
 20
7.0891495282
 30
0.0
 10
11.7849237132
 20
7.0926113271
 30
0.0
 10
11.7926178169
 20
7.0961659397
 30
0.0
 10
11.7996874925
 20
7.0998060158
 30
0.0
 10
11.8061189674
 20
7.1035248315
 30
0.0
 10
11.8119003052
 20
7.1073154196
 30
0.0
 10
11.817019448
 20
7.111170602
 30
0.0
 10
11.8201034912
 20
7.1138837335
 30
0.0
 10
11.8215199639
 20
7.1152519411
 30
0.0
  0
SPLINE
  5
395
100
AcDbEntity
  8
0
100
AcDbSpline
 62
7
  6
CONTINUOUS
 70
0
 71
3
 72
16
 73
12
 74
0
 42
0.0000001
 43
0.0000001
 44
0.0000000001
 40
0.0
 40
0.0
 40
0.0
 40
0.0
 40
0.1098876618
 40
0.2213923997
 40
0.3360585213
 40
0.4552981886
 40
0.5170476077
 40
0.5803910153
 40
0.7123199569
 40
0.8519658754
 40
1.0
 40
1.0
 40
1.0
 40
1.0
 10
11.8334628792
 20
7.1387312518
 30
0.0
 10
11.833462857
 20
7.1377398753
 30
0.0
 10
11.8333355201
 20
7.1357403044
 30
0.0
 10
11.8327648753
 20
7.1327552459
 30
0.0
 10
11.831815774
 20
7.1297797513
 30
0.0
 10
11.8307244207
 20
7.1273399818
 30
0.0
 10
11.8296742427
 20
7.1254011181
 30
0.0
 10
11.8284716206
 20
7.1234176154
 30
0.0
 10
11.8267252338
 20
7.1209466182
 30
0.0
 10
11.824290931
 20
7.118042903
 30
0.0
 10
11.8224805453
 20
7.1161797916
 30
0.0
 10
11.8215199639
 20
7.1152519411
 30
0.0
  0
LINE
  5
396
100
AcDbEntity
  8
0
100
AcDbLine
 62
7
  6
CONTINUOUS
 10
11.8963914368
 20
7.0733894521
 11
11.8925155164
 21
7.0693390815
  0
LINE
  5
397
100
AcDbEntity
  8
0
100
AcDbLine
 62
7
  6
CONTINUOUS
 10
11.8880474473
 20
7.0653297767
 11
11.8925155164
 21
7.0693390815
  0
SPLINE
  5
398
100
AcDbEntity
  8
0
100
AcDbSpline
 62
7
  6
CONTINUOUS
 70
0
 71
3
 72
22
 73
18
 74
0
 42
0.0000001
 43
0.0000001
 44
0.0000000001
 40
0.0
 40
0.0
 40
0.0
 40
0.0
 40
0.1229992283
 40
0.1846743473
 40
0.2464797135
 40
0.3084270265
 40
0.3705267792
 40
0.4327868915
 40
0.4952121045
 40
0.5578034907
 40
0.620558245
 40
0.6834698997
 40
0.7465290089
 40
0.8097242252
 40
0.8730427936
 40
0.9364726621
 40
1.0
 40
1.0
 40
1.0
 40
1.0
 10
11.5770528663
 20
6.5268489399
 30
0.0
 10
11.5614469078
 20
6.5237260702
 30
0.0
 10
11.5378910724
 20
6.5196173818
 30
0.0
 10
11.5062560051
 20
6.5155384764
 30
0.0
 10
11.4823690706
 20
6.5132339533
 30
0.0
 10
11.4583620866
 20
6.5117454233
 30
0.0
 10
11.4342576161
 20
6.5111233529
 30
0.0
 10
11.4100846105
 20
6.5114066008
 30
0.0
 10
11.3858764991
 20
6.5126189094
 30
0.0
 10
11.3616691914
 20
6.5147666912
 30
0.0
 10
11.3374984949
 20
6.517838346
 30
0.0
 10
11.3133976095
 20
6.5218053325
 30
0.0
 10
11.2893950285
 20
6.5266247365
 30
0.0
 10
11.2655132751
 20
6.5322428505
 30
0.0
 10
11.2417682915
 20
6.5385993739
 30
0.0
 10
11.2181702728
 20
6.5456309324
 30
0.0
 10
11.2025499293
 20
6.5507229861
 30
0.0
 10
11.1947645877
 20
6.5533607221
 30
0.0
  0
SPLINE
  5
399
100
AcDbEntity
  8
0
100
AcDbSpline
 62
7
  6
CONTINUOUS
 70
0
 71
3
 72
42
 73
38
 74
0
 42
0.0000001
 43
0.0000001
 44
0.0000000001
 40
0.0
 40
0.0
 40
0.0
 40
0.0
 40
0.0311443913
 40
0.046777235
 40
0.0624471551
 40
0.0938918204
 40
0.1254739599
 40
0.1571813338
 40
0.1889991892
 40
0.2209105811
 40
0.2528967256
 40
0.2849373804
 40
0.3170112458
 40
0.3490963805
 40
0.3811706262
 40
0.413212034
 40
0.44519929
 40
0.47711213
 40
0.508931742
 40
0.5406411461
 40
0.5722255491
 40
0.6036726649
 40
0.634972994
 40
0.6661200568
 40
0.6971105715
 40
0.727944571
 40
0.7586254529
 40
0.7891599555
 40
0.8195580589
 40
0.8498328057
 40
0.8649315687
 40
0.8800056542
 40
0.9100837089
 40
0.940092975
 40
0.9550815001
 40
0.9700611853
 40
1.0
 40
1.0
 40
1.0
 40
1.0
 10
9.6631832298
 20
8.9053644724
 30
0.0
 10
9.6663438754
 20
8.9051452808
 30
0.0
 10
9.6710812809
 20
8.9046426698
 30
0.0
 10
9.6773540252
 20
8.9036326319
 30
0.0
 10
9.6836168124
 20
8.902392615
 30
0.0
 10
9.6913825528
 20
8.9004177714
 30
0.0
 10
9.7005386699
 20
8.8973865499
 30
0.0
 10
9.7094953037
 20
8.8937071588
 30
0.0
 10
9.718204428
 20
8.8893993373
 30
0.0
 10
9.7266197145
 20
8.8844860909
 30
0.0
 10
9.7346963038
 20
8.878993657
 30
0.0
 10
9.7423911687
 20
8.8729513419
 30
0.0
 10
9.7496633065
 20
8.8663913722
 30
0.0
 10
9.7564739642
 20
8.8593487221
 30
0.0
 10
9.7627868405
 20
8.8518609295
 30
0.0
 10
9.7685682779
 20
8.8439678977
 30
0.0
 10
9.7737874407
 20
8.8357116848
 30
0.0
 10
9.7784164775
 20
8.8271362825
 30
0.0
 10
9.7824306696
 20
8.8182873838
 30
0.0
 10
9.7858085615
 20
8.8092121429
 30
0.0
 10
9.7885320761
 20
8.7999589272
 30
0.0
 10
9.7905866113
 20
8.7905770629
 30
0.0
 10
9.7919611198
 20
8.7811165756
 30
0.0
 10
9.79264817
 20
8.7716279265
 30
0.0
 10
9.7926439899
 20
8.7621617494
 30
0.0
 10
9.7919484871
 20
8.7527685732
 30
0.0
 10
9.7905652719
 20
8.7434985914
 30
0.0
 10
9.7885015789
 20
8.7344012575
 30
0.0
 10
9.7857684747
 20
8.7255255299
 30
0.0
 10
9.7829420074
 20
8.7183455767
 30
0.0
 10
9.7803626638
 20
8.7127620727
 30
0.0
 10
9.7775791207
 20
8.7072999413
 30
0.0
 10
9.773714265
 20
8.7006932378
 30
0.0
 10
9.769352363
 20
8.6944141374
 30
0.0
 10
9.765583
 20
8.6896145773
 30
0.0
 10
9.761633874
 20
8.6849716366
 30
0.0
 10
9.7584699063
 20
8.6816662793
 30
0.0
 10
9.7562793477
 20
8.6795503602
 30
0.0
  0
SPLINE
  5
39A
100
AcDbEntity
  8
0
100
AcDbSpline
 62
7
  6
CONTINUOUS
 70
0
 71
3
 72
42
 73
38
 74
0
 42
0.0000001
 43
0.0000001
 44
0.0000000001
 40
0.0
 40
0.0
 40
0.0
 40
0.0
 40
0.0311443913
 40
0.046777235
 40
0.0624471551
 40
0.0938918204
 40
0.1254739599
 40
0.1571813338
 40
0.1889991892
 40
0.2209105811
 40
0.2528967256
 40
0.2849373804
 40
0.3170112458
 40
0.3490963805
 40
0.3811706262
 40
0.413212034
 40
0.44519929
 40
0.47711213
 40
0.508931742
 40
0.5406411461
 40
0.5722255491
 40
0.6036726649
 40
0.634972994
 40
0.6661200568
 40
0.6971105715
 40
0.727944571
 40
0.7586254529
 40
0.7891599555
 40
0.8195580589
 40
0.8498328057
 40
0.8649315687
 40
0.8800056542
 40
0.9100837089
 40
0.940092975
 40
0.9550815001
 40
0.9700611853
 40
1.0
 40
1.0
 40
1.0
 40
1.0
 10
12.0779979387
 20
9.9453038579
 30
0.0
 10
12.0811585843
 20
9.9450846664
 30
0.0
 10
12.0858959897
 20
9.9445820554
 30
0.0
 10
12.092168734
 20
9.9435720174
 30
0.0
 10
12.0984315212
 20
9.9423320005
 30
0.0
 10
12.1061972616
 20
9.940357157
 30
0.0
 10
12.1153533787
 20
9.9373259355
 30
0.0
 10
12.1243100125
 20
9.9336465443
 30
0.0
 10
12.1330191368
 20
9.9293387228
 30
0.0
 10
12.1414344233
 20
9.9244254764
 30
0.0
 10
12.1495110126
 20
9.9189330425
 30
0.0
 10
12.1572058775
 20
9.9128907275
 30
0.0
 10
12.1644780153
 20
9.9063307578
 30
0.0
 10
12.171288673
 20
9.8992881076
 30
0.0
 10
12.1776015493
 20
9.891800315
 30
0.0
 10
12.1833829867
 20
9.8839072832
 30
0.0
 10
12.1886021495
 20
9.8756510704
 30
0.0
 10
12.1932311864
 20
9.8670756681
 30
0.0
 10
12.1972453784
 20
9.8582267693
 30
0.0
 10
12.2006232703
 20
9.8491515284
 30
0.0
 10
12.2033467849
 20
9.8398983128
 30
0.0
 10
12.2054013201
 20
9.8305164485
 30
0.0
 10
12.2067758286
 20
9.8210559611
 30
0.0
 10
12.2074628788
 20
9.8115673121
 30
0.0
 10
12.2074586987
 20
9.802101135
 30
0.0
 10
12.2067631959
 20
9.7927079588
 30
0.0
 10
12.2053799807
 20
9.7834379769
 30
0.0
 10
12.2033162877
 20
9.774340643
 30
0.0
 10
12.2005831835
 20
9.7654649154
 30
0.0
 10
12.1977567162
 20
9.7582849622
 30
0.0
 10
12.1951773726
 20
9.7527014582
 30
0.0
 10
12.1923938296
 20
9.7472393269
 30
0.0
 10
12.1885289738
 20
9.7406326234
 30
0.0
 10
12.1841670718
 20
9.734353523
 30
0.0
 10
12.1803977088
 20
9.7295539629
 30
0.0
 10
12.1764485828
 20
9.7249110222
 30
0.0
 10
12.1732846151
 20
9.7216056648
 30
0.0
 10
12.1710940565
 20
9.7194897458
 30
0.0
  0
SPLINE
  5
39B
100
AcDbEntity
  8
0
100
AcDbSpline
 62
7
  6
CONTINUOUS
 70
0
 71
3
 72
53
 73
49
 74
0
 42
0.0000001
 43
0.0000001
 44
0.0000000001
 40
0.0
 40
0.0
 40
0.0
 40
0.0
 40
0.0417740478
 40
0.0840369835
 40
0.1266585592
 40
0.1695065657
 40
0.2124481957
 40
0.2553501644
 40
0.2980793779
 40
0.3405034127
 40
0.3824910553
 40
0.4239128269
 40
0.4646415185
 40
0.5045527309
 40
0.5435254266
 40
0.5814424966
 40
0.6181913512
 40
0.6536645436
 40
0.6877604426
 40
0.7203839756
 40
0.7361162401
 40
0.7514482063
 40
0.7663702194
 40
0.7808732533
 40
0.7949489098
 40
0.808589482
 40
0.8217880323
 40
0.8345384043
 40
0.8468353889
 40
0.8586746951
 40
0.8700532057
 40
0.8809689358
 40
0.8914213732
 40
0.9014114696
 40
0.9109420597
 40
0.9200179488
 40
0.9286464106
 40
0.9368374402
 40
0.9446043453
 40
0.9519642202
 40
0.9589386335
 40
0.9655543067
 40
0.9718438059
 40
0.9778461959
 40
0.9836073668
 40
0.9891800504
 40
0.9946230772
 40
1.0
 40
1.0
 40
1.0
 40
1.0
 10
12.3350085394
 20
8.8317763963
 30
0.0
 10
12.3350085394
 20
8.8399849869
 30
0.0
 10
12.3351366019
 20
8.8564984924
 30
0.0
 10
12.335702745
 20
8.8813812937
 30
0.0
 10
12.3366424015
 20
8.9064640121
 30
0.0
 10
12.3379524935
 20
8.9316636258
 30
0.0
 10
12.3396286901
 20
8.9568967552
 30
0.0
 10
12.3416654515
 20
8.9820799249
 30
0.0
 10
12.3440560302
 20
9.0071298173
 30
0.0
 10
12.3467925017
 20
9.0319635617
 30
0.0
 10
12.3498657868
 20
9.0564990064
 30
0.0
 10
12.3532656827
 20
9.080654994
 30
0.0
 10
12.356980896
 20
9.1043516318
 30
0.0
 10
12.3609990791
 20
9.12751056
 30
0.0
 10
12.3653068705
 20
9.1500552132
 30
0.0
 10
12.3698899376
 20
9.171911084
 30
0.0
 10
12.3747330252
 20
9.1930059593
 30
0.0
 10
12.3798199978
 20
9.213270226
 30
0.0
 10
12.3851339196
 20
9.2326369112
 30
0.0
 10
12.3897910598
 20
9.248156827
 30
0.0
 10
12.3936245636
 20
9.260070199
 30
0.0
 10
12.3965105003
 20
9.2686335745
 30
0.0
 10
12.3994396527
 20
9.276926537
 30
0.0
 10
12.4024096016
 20
9.2849422509
 30
0.0
 10
12.4054178839
 20
9.292674101
 30
0.0
 10
12.4084620127
 20
9.3001157131
 30
0.0
 10
12.411539454
 20
9.3072609604
 30
0.0
 10
12.4146476827
 20
9.3141039586
 30
0.0
 10
12.4177841005
 20
9.3206390922
 30
0.0
 10
12.4209461567
 20
9.3268609889
 30
0.0
 10
12.4241312041
 20
9.3327645681
 30
0.0
 10
12.4273366789
 20
9.3383449903
 30
0.0
 10
12.4305599093
 20
9.3435977308
 30
0.0
 10
12.4337983333
 20
9.3485185028
 30
0.0
 10
12.4370492903
 20
9.3531033527
 30
0.0
 10
12.4403102445
 20
9.3573485615
 30
0.0
 10
12.4435785966
 20
9.361250747
 30
0.0
 10
12.4468518766
 20
9.364806756
 30
0.0
 10
12.4501276108
 20
9.3680137432
 30
0.0
 10
12.4534034474
 20
9.3708690713
 30
0.0
 10
12.4566770919
 20
9.3733703227
 30
0.0
 10
12.4599463255
 20
9.3755152327
 30
0.0
 10
12.4632089718
 20
9.3773015916
 30
0.0
 10
12.4664627745
 20
9.3787272803
 30
0.0
 10
12.4697052599
 20
9.3797901044
 30
0.0
 10
12.4729337213
 20
9.3804880886
 30
0.0
 10
12.4761442664
 20
9.3808194513
 30
0.0
 10
12.4782757942
 20
9.38079513
 30
0.0
 10
12.4793298266
 20
9.3807220324
 30
0.0
  0
SPLINE
  5
39C
100
AcDbEntity
  8
0
100
AcDbSpline
 62
7
  6
CONTINUOUS
 70
0
 71
3
 72
53
 73
49
 74
0
 42
0.0000001
 43
0.0000001
 44
0.0000000001
 40
0.0
 40
0.0
 40
0.0
 40
0.0
 40
0.0417740478
 40
0.0840369835
 40
0.1266585592
 40
0.1695065657
 40
0.2124481957
 40
0.2553501644
 40
0.2980793779
 40
0.3405034127
 40
0.3824910553
 40
0.4239128269
 40
0.4646415185
 40
0.5045527309
 40
0.5435254266
 40
0.5814424966
 40
0.6181913512
 40
0.6536645436
 40
0.6877604426
 40
0.7203839756
 40
0.7361162401
 40
0.7514482063
 40
0.7663702194
 40
0.7808732533
 40
0.7949489098
 40
0.808589482
 40
0.8217880323
 40
0.8345384043
 40
0.8468353889
 40
0.8586746951
 40
0.8700532057
 40
0.8809689358
 40
0.8914213732
 40
0.9014114696
 40
0.9109420597
 40
0.9200179488
 40
0.9286464106
 40
0.9368374402
 40
0.9446043453
 40
0.9519642202
 40
0.9589386335
 40
0.9655543067
 40
0.9718438059
 40
0.9778461959
 40
0.9836073668
 40
0.9891800504
 40
0.9946230772
 40
1.0
 40
1.0
 40
1.0
 40
1.0
 10
12.3350085394
 20
7.7750534396
 30
0.0
 10
12.3350085394
 20
7.7832620302
 30
0.0
 10
12.3351366019
 20
7.7997755358
 30
0.0
 10
12.335702745
 20
7.8246583371
 30
0.0
 10
12.3366424015
 20
7.8497410555
 30
0.0
 10
12.3379524935
 20
7.8749406692
 30
0.0
 10
12.3396286901
 20
7.9001737985
 30
0.0
 10
12.3416654515
 20
7.9253569683
 30
0.0
 10
12.3440560302
 20
7.9504068607
 30
0.0
 10
12.3467925017
 20
7.9752406051
 30
0.0
 10
12.3498657868
 20
7.9997760498
 30
0.0
 10
12.3532656827
 20
8.0239320374
 30
0.0
 10
12.356980896
 20
8.0476286752
 30
0.0
 10
12.3609990791
 20
8.0707876033
 30
0.0
 10
12.3653068705
 20
8.0933322566
 30
0.0
 10
12.3698899376
 20
8.1151881273
 30
0.0
 10
12.3747330252
 20
8.1362830026
 30
0.0
 10
12.3798199978
 20
8.1565472693
 30
0.0
 10
12.3851339196
 20
8.1759139545
 30
0.0
 10
12.3897910598
 20
8.1914338704
 30
0.0
 10
12.3936245636
 20
8.2033472424
 30
0.0
 10
12.3965105003
 20
8.2119106179
 30
0.0
 10
12.3994396527
 20
8.2202035804
 30
0.0
 10
12.4024096016
 20
8.2282192942
 30
0.0
 10
12.4054178839
 20
8.2359511443
 30
0.0
 10
12.4084620127
 20
8.2433927565
 30
0.0
 10
12.411539454
 20
8.2505380037
 30
0.0
 10
12.4146476827
 20
8.2573810019
 30
0.0
 10
12.4177841005
 20
8.2639161355
 30
0.0
 10
12.4209461567
 20
8.2701380323
 30
0.0
 10
12.4241312041
 20
8.2760416115
 30
0.0
 10
12.4273366789
 20
8.2816220337
 30
0.0
 10
12.4305599093
 20
8.2868747742
 30
0.0
 10
12.4337983333
 20
8.2917955462
 30
0.0
 10
12.4370492903
 20
8.296380396
 30
0.0
 10
12.4403102445
 20
8.3006256049
 30
0.0
 10
12.4435785966
 20
8.3045277904
 30
0.0
 10
12.4468518766
 20
8.3080837994
 30
0.0
 10
12.4501276108
 20
8.3112907865
 30
0.0
 10
12.4534034474
 20
8.3141461147
 30
0.0
 10
12.4566770919
 20
8.3166473661
 30
0.0
 10
12.4599463255
 20
8.318792276
 30
0.0
 10
12.4632089718
 20
8.320578635
 30
0.0
 10
12.4664627745
 20
8.3220043237
 30
0.0
 10
12.4697052599
 20
8.3230671477
 30
0.0
 10
12.4729337213
 20
8.323765132
 30
0.0
 10
12.4761442664
 20
8.3240964947
 30
0.0
 10
12.4782757942
 20
8.3240721734
 30
0.0
 10
12.4793298266
 20
8.3239990758
 30
0.0
  0
SPLINE
  5
39D
100
AcDbEntity
  8
0
100
AcDbSpline
 62
7
  6
CONTINUOUS
 70
0
 71
3
 72
63
 73
59
 74
0
 42
0.0000001
 43
0.0000001
 44
0.0000000001
 40
0.0
 40
0.0
 40
0.0
 40
0.0
 40
0.0077404951
 40
0.0160540231
 40
0.0249601625
 40
0.0344715779
 40
0.0445947918
 40
0.0553316038
 40
0.0666797818
 40
0.0786337195
 40
0.0911849323
 40
0.1043223985
 40
0.1180328871
 40
0.1323012211
 40
0.1471104705
 40
0.1624420942
 40
0.1782761125
 40
0.1945912411
 40
0.2113649863
 40
0.2285737288
 40
0.2461928417
 40
0.2641967748
 40
0.2825591168
 40
0.3012526675
 40
0.3202495285
 40
0.3395211688
 40
0.3787712063
 40
0.4187649048
 40
0.4592577009
 40
0.5000010365
 40
0.5407443622
 40
0.5812371306
 40
0.6212307843
 40
0.6604807551
 40
0.6797523556
 40
0.6987491799
 40
0.7174426839
 40
0.7358049676
 40
0.7538088469
 40
0.7714279092
 40
0.7886365862
 40
0.8054102566
 40
0.8217253206
 40
0.837559275
 40
0.8528908158
 40
0.8676999784
 40
0.88196824
 40
0.8956786521
 40
0.908816022
 40
0.9213671416
 40
0.9333210024
 40
0.9446690929
 40
0.9554058035
 40
0.9655289264
 40
0.9750402472
 40
0.9839463523
 40
0.9922597067
 40
1.0
 40
1.0
 40
1.0
 40
1.0
 10
11.1187619885
 20
10.256818604
 30
0.0
 10
11.1172348517
 20
10.2553974979
 30
0.0
 10
11.11394742
 20
10.2525775801
 30
0.0
 10
11.1085544678
 20
10.2485501303
 30
0.0
 10
11.1025364375
 20
10.2445834014
 30
0.0
 10
11.0959031786
 20
10.2406836547
 30
0.0
 10
11.0886649446
 20
10.2368568284
 30
0.0
 10
11.0808333135
 20
10.2331090258
 30
0.0
 10
11.0724208381
 20
10.2294462751
 30
0.0
 10
11.0634411033
 20
10.2258745545
 30
0.0
 10
11.0539086781
 20
10.2223997339
 30
0.0
 10
11.0438390967
 20
10.2190275347
 30
0.0
 10
11.0332488164
 20
10.2157635241
 30
0.0
 10
11.0221551739
 20
10.2126131062
 30
0.0
 10
11.0105763581
 20
10.2095815073
 30
0.0
 10
10.9985313837
 20
10.2066737428
 30
0.0
 10
10.9860400475
 20
10.2038946301
 30
0.0
 10
10.9731228879
 20
10.2012487789
 30
0.0
 10
10.9598011561
 20
10.1987405801
 30
0.0
 10
10.9460967834
 20
10.1963741819
 30
0.0
 10
10.9320323355
 20
10.1941535042
 30
0.0
 10
10.9176309736
 20
10.1920822313
 30
0.0
 10
10.9029164186
 20
10.190163795
 30
0.0
 10
10.8879129215
 20
10.1884013699
 30
0.0
 10
10.8726451833
 20
10.1867978558
 30
0.0
 10
10.8518431924
 20
10.1848636137
 30
0.0
 10
10.8253658016
 20
10.1828680388
 30
0.0
 10
10.7931396567
 20
10.1811562465
 30
0.0
 10
10.7604819161
 20
10.1801246046
 30
0.0
 10
10.7276077367
 20
10.1797799685
 30
0.0
 10
10.6947335653
 20
10.1801246544
 30
0.0
 10
10.6620758487
 20
10.1811563503
 30
0.0
 10
10.6298497437
 20
10.1828681875
 30
0.0
 10
10.6033723972
 20
10.1848638074
 30
0.0
 10
10.5825704483
 20
10.1867980842
 30
0.0
 10
10.5673027453
 20
10.1884016159
 30
0.0
 10
10.5522992894
 20
10.1901640647
 30
0.0
 10
10.5375847813
 20
10.1920825298
 30
0.0
 10
10.5231834667
 20
10.1941538237
 30
0.0
 10
10.5091190677
 20
10.1963745173
 30
0.0
 10
10.4954147512
 20
10.1987409391
 30
0.0
 10
10.4820930806
 20
10.2012491644
 30
0.0
 10
10.4691759804
 20
10.2038950322
 30
0.0
 10
10.4566847056
 20
10.2066741588
 30
0.0
 10
10.4446398015
 20
10.2095819463
 30
0.0
 10
10.4330610592
 20
10.2126135683
 30
0.0
 10
10.4219674861
 20
10.215763998
 30
0.0
 10
10.4113772786
 20
10.2190280205
 30
0.0
 10
10.4013077801
 20
10.2224002417
 30
0.0
 10
10.3917754381
 20
10.2258750806
 30
0.0
 10
10.3827957807
 20
10.229446808
 30
0.0
 10
10.3743833875
 20
10.2331095686
 30
0.0
 10
10.3665518497
 20
10.236857392
 30
0.0
 10
10.3593137107
 20
10.2406842317
 30
0.0
 10
10.3526805194
 20
10.2445839768
 30
0.0
 10
10.3466625971
 20
10.2485507229
 30
0.0
 10
10.3412697772
 20
10.252578163
 30
0.0
 10
10.3379824329
 20
10.2553980287
 30
0.0
 10
10.3364553604
 20
10.2568191241
 30
0.0
  0
SPLINE
  5
39E
100
AcDbEntity
  8
0
100
AcDbSpline
 62
7
  6
CONTINUOUS
 70
0
 71
3
 72
21
 73
17
 74
0
 42
0.0000001
 43
0.0000001
 44
0.0000000001
 40
0.0
 40
0.0
 40
0.0
 40
0.0
 40
0.0616532317
 40
0.1233294843
 40
0.1850515407
 40
0.2468416642
 40
0.3087213449
 40
0.3707111025
 40
0.432830246
 40
0.4950966374
 40
0.5575265756
 40
0.6201345674
 40
0.6829331401
 40
0.7459332076
 40
0.8725262003
 40
1.0
 40
1.0
 40
1.0
 40
1.0
 10
9.570087112
 20
8.8723104477
 30
0.0
 10
9.571590869
 20
8.8737629668
 30
0.0
 10
9.5746777363
 20
8.876588231
 30
0.0
 10
9.5795300413
 20
8.8805719663
 30
0.0
 10
9.5845930428
 20
8.8842923974
 30
0.0
 10
9.5898538346
 20
8.8877399538
 30
0.0
 10
9.595299188
 20
8.89090602
 30
0.0
 10
9.6009153584
 20
8.8937826354
 30
0.0
 10
9.6066882149
 20
8.8963625329
 30
0.0
 10
9.6126032016
 20
8.898639232
 30
0.0
 10
9.6186454188
 20
8.9006070413
 30
0.0
 10
9.6247996073
 20
8.9022609903
 30
0.0
 10
9.6310504473
 20
8.9035969331
 30
0.0
 10
9.639504651
 20
8.9049517641
 30
0.0
 10
9.6502401455
 20
8.9058319748
 30
0.0
 10
9.6588708358
 20
8.9056635379
 30
0.0
 10
9.6631832298
 20
8.9053644724
 30
0.0
  0
SPLINE
  5
39F
100
AcDbEntity
  8
0
100
AcDbSpline
 62
7
  6
CONTINUOUS
 70
0
 71
3
 72
21
 73
17
 74
0
 42
0.0000001
 43
0.0000001
 44
0.0000000001
 40
0.0
 40
0.0
 40
0.0
 40
0.0
 40
0.0616532317
 40
0.1233294843
 40
0.1850515407
 40
0.2468416642
 40
0.3087213449
 40
0.3707111025
 40
0.432830246
 40
0.4950966374
 40
0.5575265756
 40
0.6201345674
 40
0.6829331401
 40
0.7459332076
 40
0.8725262003
 40
1.0
 40
1.0
 40
1.0
 40
1.0
 10
11.9849018208
 20
9.9122498332
 30
0.0
 10
11.9864055778
 20
9.9137023523
 30
0.0
 10
11.9894924451
 20
9.9165276166
 30
0.0
 10
11.9943447501
 20
9.9205113518
 30
0.0
 10
11.9994077516
 20
9.924231783
 30
0.0
 10
12.0046685434
 20
9.9276793394
 30
0.0
 10
12.0101138968
 20
9.9308454055
 30
0.0
 10
12.0157300672
 20
9.9337220209
 30
0.0
 10
12.0215029237
 20
9.9363019184
 30
0.0
 10
12.0274179104
 20
9.9385786175
 30
0.0
 10
12.0334601276
 20
9.9405464268
 30
0.0
 10
12.0396143161
 20
9.9422003758
 30
0.0
 10
12.0458651561
 20
9.9435363187
 30
0.0
 10
12.0543193598
 20
9.9448911496
 30
0.0
 10
12.0650548543
 20
9.9457713603
 30
0.0
 10
12.0736855446
 20
9.9456029235
 30
0.0
 10
12.0779979387
 20
9.9453038579
 30
0.0
  0
SPLINE
  5
3A0
100
AcDbEntity
  8
0
100
AcDbSpline
 62
7
  6
CONTINUOUS
 70
0
 71
3
 72
47
 73
43
 74
0
 42
0.0000001
 43
0.0000001
 44
0.0000000001
 40
0.0
 40
0.0
 40
0.0
 40
0.0
 40
0.0063158953
 40
0.0126706964
 40
0.0191025413
 40
0.0256481068
 40
0.0323419887
 40
0.0392163511
 40
0.0536141938
 40
0.0611949453
 40
0.0690567093
 40
0.0772178306
 40
0.0856942536
 40
0.094499648
 40
0.1036457893
 40
0.1131425899
 40
0.1229983503
 40
0.1332200167
 40
0.1438131323
 40
0.1547821683
 40
0.1661305713
 40
0.1899729423
 40
0.2153524409
 40
0.2422683478
 40
0.2707106917
 40
0.3006617255
 40
0.3320970385
 40
0.3649863926
 40
0.3992943516
 40
0.4349809011
 40
0.4720019229
 40
0.5103095575
 40
0.5498524869
 40
0.5905762826
 40
0.6324236706
 40
0.6753347453
 40
0.7192471563
 40
0.7640962954
 40
0.8098156376
 40
0.856336788
 40
0.9035890146
 40
1.0
 40
1.0
 40
1.0
 40
1.0
 10
12.418447824
 20
8.5028305916
 30
0.0
 10
12.4177041415
 20
8.5028821664
 30
0.0
 10
12.4162157119
 20
8.503046523
 30
0.0
 10
12.4139997445
 20
8.5034748686
 30
0.0
 10
12.4117985851
 20
8.5040850434
 30
0.0
 10
12.4096135394
 20
8.5048765986
 30
0.0
 10
12.4074454318
 20
8.5058489994
 30
0.0
 10
12.4045342672
 20
8.5074095579
 30
0.0
 10
12.4017021378
 20
8.5093198837
 30
0.0
 10
12.3989613824
 20
8.5115336891
 30
0.0
 10
12.3968911775
 20
8.5134001737
 30
0.0
 10
12.3948430726
 20
8.5154430391
 30
0.0
 10
12.3928176095
 20
8.5176615814
 30
0.0
 10
12.3908155699
 20
8.5200548047
 30
0.0
 10
12.3888377292
 20
8.5226217683
 30
0.0
 10
12.3868848343
 20
8.5253614092
 30
0.0
 10
12.3849576279
 20
8.5282726101
 30
0.0
 10
12.383056903
 20
8.5313542118
 30
0.0
 10
12.3811833824
 20
8.5346049423
 30
0.0
 10
12.3793378072
 20
8.5380234986
 30
0.0
 10
12.3768747231
 20
8.5428837891
 30
0.0
 10
12.3738794506
 20
8.5493782556
 30
0.0
 10
12.3704652692
 20
8.5576934795
 30
0.0
 10
12.3671798933
 20
8.5666409343
 30
0.0
 10
12.3640286977
 20
8.5762060191
 30
0.0
 10
12.3610168527
 20
8.5863732911
 30
0.0
 10
12.3581493441
 20
8.5971261885
 30
0.0
 10
12.3554309367
 20
8.6084471552
 30
0.0
 10
12.3528661424
 20
8.6203176469
 30
0.0
 10
12.3504592293
 20
8.6327181859
 30
0.0
 10
12.3482142093
 20
8.6456284025
 30
0.0
 10
12.3461348297
 20
8.6590270669
 30
0.0
 10
12.3442245486
 20
8.6728921237
 30
0.0
 10
12.342486548
 20
8.6872007365
 30
0.0
 10
12.3409237265
 20
8.7019293329
 30
0.0
 10
12.3395386946
 20
8.7170536407
 30
0.0
 10
12.338333756
 20
8.7325487198
 30
0.0
 10
12.3373109144
 20
8.7483890241
 30
0.0
 10
12.336471884
 20
8.7645484273
 30
0.0
 10
12.3358180596
 20
8.7810002635
 30
0.0
 10
12.3351905616
 20
8.8034394154
 30
0.0
 10
12.3350085394
 20
8.8203969542
 30
0.0
 10
12.3350085394
 20
8.8317763963
 30
0.0
  0
SPLINE
  5
3A1
100
AcDbEntity
  8
0
100
AcDbSpline
 62
7
  6
CONTINUOUS
 70
0
 71
3
 72
31
 73
27
 74
0
 42
0.0000001
 43
0.0000001
 44
0.0000000001
 40
0.0
 40
0.0
 40
0.0
 40
0.0
 40
0.0162143915
 40
0.0334275491
 40
0.0516719541
 40
0.0709711783
 40
0.0913407392
 40
0.1127899566
 40
0.135322295
 40
0.158936774
 40
0.1836280092
 40
0.209387288
 40
0.2362024717
 40
0.2640588099
 40
0.29293881
 40
0.3228228363
 40
0.3536890128
 40
0.3855136356
 40
0.451932613
 40
0.5218584336
 40
0.5950447551
 40
0.6712252994
 40
0.7501162943
 40
0.8314190027
 40
0.9148210884
 40
1.0
 40
1.0
 40
1.0
 40
1.0
 10
12.3832024669
 20
8.689702391
 30
0.0
 10
12.3825429834
 20
8.6905132592
 30
0.0
 10
12.3812388939
 20
8.6922306111
 30
0.0
 10
12.3793791442
 20
8.6949956815
 30
0.0
 10
12.3775602429
 20
8.6980222217
 30
0.0
 10
12.3757841305
 20
8.7013070587
 30
0.0
 10
12.3740524552
 20
8.7048468809
 30
0.0
 10
12.3723670428
 20
8.7086380844
 30
0.0
 10
12.370729558
 20
8.7126767619
 30
0.0
 10
12.3691417563
 20
8.7169587555
 30
0.0
 10
12.3676052453
 20
8.7214796148
 30
0.0
 10
12.3661216842
 20
8.7262346423
 30
0.0
 10
12.3646925966
 20
8.7312188712
 30
0.0
 10
12.3633195266
 20
8.7364270927
 30
0.0
 10
12.3620038969
 20
8.7418538503
 30
0.0
 10
12.3607471291
 20
8.7474934515
 30
0.0
 10
12.3595505179
 20
8.7533399839
 30
0.0
 10
12.3580151091
 20
8.761519951
 30
0.0
 10
12.3562643263
 20
8.7722196916
 30
0.0
 10
12.354450272
 20
8.7856053315
 30
0.0
 10
12.3529022227
 20
8.7996574515
 30
0.0
 10
12.3516268311
 20
8.8143169357
 30
0.0
 10
12.3506296157
 20
8.8295222049
 30
0.0
 10
12.349914896
 20
8.845209291
 30
0.0
 10
12.3494857687
 20
8.8613121358
 30
0.0
 10
12.3493922059
 20
8.8721792569
 30
0.0
 10
12.3493922059
 20
8.8776699528
 30
0.0
  0
SPLINE
  5
3A2
100
AcDbEntity
  8
0
100
AcDbSpline
 62
7
  6
CONTINUOUS
 70
0
 71
3
 72
39
 73
35
 74
0
 42
0.0000001
 43
0.0000001
 44
0.0000000001
 40
0.0
 40
0.0
 40
0.0
 40
0.0
 40
0.0070630052
 40
0.0144561596
 40
0.0221886456
 40
0.0302678075
 40
0.038699155
 40
0.047486846
 40
0.0566336872
 40
0.0661412992
 40
0.0760104122
 40
0.0862406994
 40
0.1077788368
 40
0.1307401431
 40
0.1550980032
 40
0.1808176349
 40
0.2078572072
 40
0.236168727
 40
0.2656987991
 40
0.2963892126
 40
0.3281774279
 40
0.3609969708
 40
0.3947778373
 40
0.4294468621
 40
0.4649280347
 40
0.5011427892
 40
0.5380102774
 40
0.5754476775
 40
0.6133704692
 40
0.6903256613
 40
0.7681771986
 40
0.8462143221
 40
0.9237238908
 40
1.0
 40
1.0
 40
1.0
 40
1.0
 10
12.4186263932
 20
9.2005040066
 30
0.0
 10
12.4180487716
 20
9.1999664135
 30
0.0
 10
12.4168941388
 20
9.1988361351
 30
0.0
 10
12.4152019199
 20
9.1970236755
 30
0.0
 10
12.4135115162
 20
9.1950572352
 30
0.0
 10
12.4118239974
 20
9.1929380176
 30
0.0
 10
12.4101402837
 20
9.1906672983
 30
0.0
 10
12.4084614024
 20
9.188246417
 30
0.0
 10
12.4067883429
 20
9.1856768246
 30
0.0
 10
12.4051220888
 20
9.182960072
 30
0.0
 10
12.4034636608
 20
9.1800977712
 30
0.0
 10
12.4012256672
 20
9.1760193347
 30
0.0
 10
12.3984616905
 20
9.170563166
 30
0.0
 10
12.3952462907
 20
9.1635729092
 30
0.0
 10
12.3920855704
 20
9.1560484843
 30
0.0
 10
12.3889872487
 20
9.1480080773
 30
0.0
 10
12.3859589003
 20
9.1394710208
 30
0.0
 10
12.3830079381
 20
9.1304579679
 30
0.0
 10
12.3801415944
 20
9.1209907523
 30
0.0
 10
12.3773668958
 20
9.1110923438
 30
0.0
 10
12.3746906481
 20
9.1007867838
 30
0.0
 10
12.3721194068
 20
9.0900991288
 30
0.0
 10
12.3696594681
 20
9.0790553818
 30
0.0
 10
12.3673168556
 20
9.0676824212
 30
0.0
 10
12.3650973063
 20
9.0560079335
 30
0.0
 10
12.3630062542
 20
9.0440603461
 30
0.0
 10
12.3610488159
 20
9.0318687678
 30
0.0
 10
12.3592297558
 20
9.0194628788
 30
0.0
 10
12.3569839898
 20
9.0025945326
 30
0.0
 10
12.3545577854
 20
8.9811972315
 30
0.0
 10
12.3522724346
 20
8.9552817685
 30
0.0
 10
12.3506216573
 20
8.9292559647
 30
0.0
 10
12.3496214608
 20
8.9033733543
 30
0.0
 10
12.3493922059
 20
8.8861915711
 30
0.0
 10
12.3493922059
 20
8.8776699528
 30
0.0
  0
SPLINE
  5
3A3
100
AcDbEntity
  8
0
100
AcDbSpline
 62
7
  6
CONTINUOUS
 70
0
 71
3
 72
47
 73
43
 74
0
 42
0.0000001
 43
0.0000001
 44
0.0000000001
 40
0.0
 40
0.0
 40
0.0
 40
0.0
 40
0.0063158953
 40
0.0126706964
 40
0.0191025413
 40
0.0256481068
 40
0.0323419887
 40
0.0392163511
 40
0.0536141938
 40
0.0611949453
 40
0.0690567093
 40
0.0772178306
 40
0.0856942536
 40
0.094499648
 40
0.1036457893
 40
0.1131425899
 40
0.1229983503
 40
0.1332200167
 40
0.1438131323
 40
0.1547821683
 40
0.1661305713
 40
0.1899729423
 40
0.2153524409
 40
0.2422683478
 40
0.2707106917
 40
0.3006617255
 40
0.3320970385
 40
0.3649863926
 40
0.3992943516
 40
0.4349809011
 40
0.4720019229
 40
0.5103095575
 40
0.5498524869
 40
0.5905762826
 40
0.6324236706
 40
0.6753347453
 40
0.7192471563
 40
0.7640962954
 40
0.8098156376
 40
0.856336788
 40
0.9035890146
 40
1.0
 40
1.0
 40
1.0
 40
1.0
 10
12.418447824
 20
7.446107635
 30
0.0
 10
12.4177041415
 20
7.4461592097
 30
0.0
 10
12.4162157119
 20
7.4463235663
 30
0.0
 10
12.4139997445
 20
7.446751912
 30
0.0
 10
12.4117985851
 20
7.4473620867
 30
0.0
 10
12.4096135394
 20
7.4481536419
 30
0.0
 10
12.4074454318
 20
7.4491260428
 30
0.0
 10
12.4045342672
 20
7.4506866012
 30
0.0
 10
12.4017021378
 20
7.452596927
 30
0.0
 10
12.3989613824
 20
7.4548107324
 30
0.0
 10
12.3968911775
 20
7.456677217
 30
0.0
 10
12.3948430726
 20
7.4587200825
 30
0.0
 10
12.3928176095
 20
7.4609386247
 30
0.0
 10
12.3908155699
 20
7.4633318481
 30
0.0
 10
12.3888377292
 20
7.4658988116
 30
0.0
 10
12.3868848343
 20
7.4686384525
 30
0.0
 10
12.3849576279
 20
7.4715496535
 30
0.0
 10
12.383056903
 20
7.4746312551
 30
0.0
 10
12.3811833824
 20
7.4778819856
 30
0.0
 10
12.3793378072
 20
7.4813005419
 30
0.0
 10
12.3768747231
 20
7.4861608324
 30
0.0
 10
12.3738794506
 20
7.4926552989
 30
0.0
 10
12.3704652692
 20
7.5009705229
 30
0.0
 10
12.3671798933
 20
7.5099179776
 30
0.0
 10
12.3640286977
 20
7.5194830624
 30
0.0
 10
12.3610168527
 20
7.5296503345
 30
0.0
 10
12.3581493441
 20
7.5404032318
 30
0.0
 10
12.3554309367
 20
7.5517241986
 30
0.0
 10
12.3528661424
 20
7.5635946903
 30
0.0
 10
12.3504592293
 20
7.5759952293
 30
0.0
 10
12.3482142093
 20
7.5889054458
 30
0.0
 10
12.3461348297
 20
7.6023041103
 30
0.0
 10
12.3442245486
 20
7.6161691671
 30
0.0
 10
12.342486548
 20
7.6304777798
 30
0.0
 10
12.3409237265
 20
7.6452063763
 30
0.0
 10
12.3395386946
 20
7.6603306841
 30
0.0
 10
12.338333756
 20
7.6758257631
 30
0.0
 10
12.3373109144
 20
7.6916660674
 30
0.0
 10
12.336471884
 20
7.7078254707
 30
0.0
 10
12.3358180596
 20
7.7242773069
 30
0.0
 10
12.3351905616
 20
7.7467164587
 30
0.0
 10
12.3350085394
 20
7.7636739975
 30
0.0
 10
12.3350085394
 20
7.7750534396
 30
0.0
  0
SPLINE
  5
3A4
100
AcDbEntity
  8
0
100
AcDbSpline
 62
7
  6
CONTINUOUS
 70
0
 71
3
 72
31
 73
27
 74
0
 42
0.0000001
 43
0.0000001
 44
0.0000000001
 40
0.0
 40
0.0
 40
0.0
 40
0.0
 40
0.0162143915
 40
0.0334275491
 40
0.0516719541
 40
0.0709711783
 40
0.0913407392
 40
0.1127899566
 40
0.135322295
 40
0.158936774
 40
0.1836280092
 40
0.209387288
 40
0.2362024717
 40
0.2640588099
 40
0.29293881
 40
0.3228228363
 40
0.3536890128
 40
0.3855136356
 40
0.451932613
 40
0.5218584336
 40
0.5950447551
 40
0.6712252994
 40
0.7501162943
 40
0.8314190027
 40
0.9148210884
 40
1.0
 40
1.0
 40
1.0
 40
1.0
 10
12.3832024669
 20
7.6329794344
 30
0.0
 10
12.3825429834
 20
7.6337903026
 30
0.0
 10
12.3812388939
 20
7.6355076545
 30
0.0
 10
12.3793791442
 20
7.6382727249
 30
0.0
 10
12.3775602429
 20
7.6412992651
 30
0.0
 10
12.3757841305
 20
7.644584102
 30
0.0
 10
12.3740524552
 20
7.6481239243
 30
0.0
 10
12.3723670428
 20
7.6519151277
 30
0.0
 10
12.370729558
 20
7.6559538053
 30
0.0
 10
12.3691417563
 20
7.6602357988
 30
0.0
 10
12.3676052453
 20
7.6647566582
 30
0.0
 10
12.3661216842
 20
7.6695116856
 30
0.0
 10
12.3646925966
 20
7.6744959145
 30
0.0
 10
12.3633195266
 20
7.6797041361
 30
0.0
 10
12.3620038969
 20
7.6851308937
 30
0.0
 10
12.3607471291
 20
7.6907704949
 30
0.0
 10
12.3595505179
 20
7.6966170272
 30
0.0
 10
12.3580151091
 20
7.7047969944
 30
0.0
 10
12.3562643263
 20
7.715496735
 30
0.0
 10
12.354450272
 20
7.7288823748
 30
0.0
 10
12.3529022227
 20
7.7429344948
 30
0.0
 10
12.3516268311
 20
7.7575939791
 30
0.0
 10
12.3506296157
 20
7.7727992482
 30
0.0
 10
12.349914896
 20
7.7884863343
 30
0.0
 10
12.3494857687
 20
7.8045891792
 30
0.0
 10
12.3493922059
 20
7.8154563002
 30
0.0
 10
12.3493922059
 20
7.8209469962
 30
0.0
  0
SPLINE
  5
3A5
100
AcDbEntity
  8
0
100
AcDbSpline
 62
7
  6
CONTINUOUS
 70
0
 71
3
 72
39
 73
35
 74
0
 42
0.0000001
 43
0.0000001
 44
0.0000000001
 40
0.0
 40
0.0
 40
0.0
 40
0.0
 40
0.0070630052
 40
0.0144561596
 40
0.0221886456
 40
0.0302678075
 40
0.038699155
 40
0.047486846
 40
0.0566336872
 40
0.0661412992
 40
0.0760104122
 40
0.0862406994
 40
0.1077788368
 40
0.1307401431
 40
0.1550980032
 40
0.1808176349
 40
0.2078572072
 40
0.236168727
 40
0.2656987991
 40
0.2963892126
 40
0.3281774279
 40
0.3609969708
 40
0.3947778373
 40
0.4294468621
 40
0.4649280347
 40
0.5011427892
 40
0.5380102774
 40
0.5754476775
 40
0.6133704692
 40
0.6903256613
 40
0.7681771986
 40
0.8462143221
 40
0.9237238908
 40
1.0
 40
1.0
 40
1.0
 40
1.0
 10
12.4186263932
 20
8.1437810499
 30
0.0
 10
12.4180487716
 20
8.1432434568
 30
0.0
 10
12.4168941388
 20
8.1421131785
 30
0.0
 10
12.4152019199
 20
8.1403007189
 30
0.0
 10
12.4135115162
 20
8.1383342786
 30
0.0
 10
12.4118239974
 20
8.1362150609
 30
0.0
 10
12.4101402837
 20
8.1339443417
 30
0.0
 10
12.4084614024
 20
8.1315234603
 30
0.0
 10
12.4067883429
 20
8.128953868
 30
0.0
 10
12.4051220888
 20
8.1262371154
 30
0.0
 10
12.4034636608
 20
8.1233748146
 30
0.0
 10
12.4012256672
 20
8.1192963781
 30
0.0
 10
12.3984616905
 20
8.1138402094
 30
0.0
 10
12.3952462907
 20
8.1068499525
 30
0.0
 10
12.3920855704
 20
8.0993255277
 30
0.0
 10
12.3889872487
 20
8.0912851207
 30
0.0
 10
12.3859589003
 20
8.0827480642
 30
0.0
 10
12.3830079381
 20
8.0737350112
 30
0.0
 10
12.3801415944
 20
8.0642677956
 30
0.0
 10
12.3773668958
 20
8.0543693871
 30
0.0
 10
12.3746906481
 20
8.0440638271
 30
0.0
 10
12.3721194068
 20
8.0333761721
 30
0.0
 10
12.3696594681
 20
8.0223324252
 30
0.0
 10
12.3673168556
 20
8.0109594646
 30
0.0
 10
12.3650973063
 20
7.9992849768
 30
0.0
 10
12.3630062542
 20
7.9873373895
 30
0.0
 10
12.3610488159
 20
7.9751458112
 30
0.0
 10
12.3592297558
 20
7.9627399222
 30
0.0
 10
12.3569839898
 20
7.945871576
 30
0.0
 10
12.3545577854
 20
7.9244742748
 30
0.0
 10
12.3522724346
 20
7.8985588118
 30
0.0
 10
12.3506216573
 20
7.8725330081
 30
0.0
 10
12.3496214608
 20
7.8466503976
 30
0.0
 10
12.3493922059
 20
7.8294686145
 30
0.0
 10
12.3493922059
 20
7.8209469962
 30
0.0
  0
SPLINE
  5
3A6
100
AcDbEntity
  8
0
100
AcDbSpline
 62
7
  6
CONTINUOUS
 70
0
 71
3
 72
42
 73
38
 74
0
 42
0.0000001
 43
0.0000001
 44
0.0000000001
 40
0.0
 40
0.0
 40
0.0
 40
0.0
 40
0.0311443913
 40
0.046777235
 40
0.0624471551
 40
0.0938918204
 40
0.1254739599
 40
0.1571813338
 40
0.1889991892
 40
0.2209105811
 40
0.2528967256
 40
0.2849373804
 40
0.3170112458
 40
0.3490963805
 40
0.3811706262
 40
0.413212034
 40
0.44519929
 40
0.47711213
 40
0.508931742
 40
0.5406411461
 40
0.5722255491
 40
0.6036726649
 40
0.634972994
 40
0.6661200568
 40
0.6971105715
 40
0.727944571
 40
0.7586254529
 40
0.7891599555
 40
0.8195580589
 40
0.8498328057
 40
0.8649315687
 40
0.8800056542
 40
0.9100837089
 40
0.940092975
 40
0.9550815001
 40
0.9700611853
 40
1.0
 40
1.0
 40
1.0
 40
1.0
 10
9.6631832298
 20
8.6464963356
 30
0.0
 10
9.6600225842
 20
8.6467155271
 30
0.0
 10
9.6552851788
 20
8.6472181381
 30
0.0
 10
9.6490124345
 20
8.648228176
 30
0.0
 10
9.6427496473
 20
8.6494681929
 30
0.0
 10
9.6349839069
 20
8.6514430365
 30
0.0
 10
9.6258277898
 20
8.654474258
 30
0.0
 10
9.616871156
 20
8.6581536491
 30
0.0
 10
9.6081620317
 20
8.6624614706
 30
0.0
 10
9.5997467452
 20
8.6673747171
 30
0.0
 10
9.5916701559
 20
8.672867151
 30
0.0
 10
9.583975291
 20
8.678909466
 30
0.0
 10
9.5767031532
 20
8.6854694357
 30
0.0
 10
9.5698924955
 20
8.6925120858
 30
0.0
 10
9.5635796192
 20
8.6999998784
 30
0.0
 10
9.5577981818
 20
8.7078929103
 30
0.0
 10
9.552579019
 20
8.7161491231
 30
0.0
 10
9.5479499821
 20
8.7247245254
 30
0.0
 10
9.5439357901
 20
8.7335734242
 30
0.0
 10
9.5405578982
 20
8.742648665
 30
0.0
 10
9.5378343836
 20
8.7519018807
 30
0.0
 10
9.5357798484
 20
8.761283745
 30
0.0
 10
9.5344053399
 20
8.7707442323
 30
0.0
 10
9.5337182897
 20
8.7802328814
 30
0.0
 10
9.5337224698
 20
8.7896990585
 30
0.0
 10
9.5344179726
 20
8.7990922347
 30
0.0
 10
9.5358011878
 20
8.8083622166
 30
0.0
 10
9.5378648808
 20
8.8174595505
 30
0.0
 10
9.540597985
 20
8.8263352781
 30
0.0
 10
9.5434244523
 20
8.8335152312
 30
0.0
 10
9.5460037959
 20
8.8390987353
 30
0.0
 10
9.5487873389
 20
8.8445608666
 30
0.0
 10
9.5526521947
 20
8.8511675701
 30
0.0
 10
9.5570140967
 20
8.8574466705
 30
0.0
 10
9.5607834597
 20
8.8622462306
 30
0.0
 10
9.5647325856
 20
8.8668891713
 30
0.0
 10
9.5678965534
 20
8.8701945287
 30
0.0
 10
9.570087112
 20
8.8723104477
 30
0.0
  0
SPLINE
  5
3A7
100
AcDbEntity
  8
0
100
AcDbSpline
 62
7
  6
CONTINUOUS
 70
0
 71
3
 72
19
 73
15
 74
0
 42
0.0000001
 43
0.0000001
 44
0.0000000001
 40
0.0
 40
0.0
 40
0.0
 40
0.0
 40
0.1496627649
 40
0.2896711955
 40
0.4209836499
 40
0.5448409398
 40
0.6044657355
 40
0.6628177373
 40
0.7201285014
 40
0.7766439894
 40
0.8326215323
 40
0.8883268014
 40
0.9440296577
 40
1.0
 40
1.0
 40
1.0
 40
1.0
 10
10.3814618166
 20
10.2629621583
 30
0.0
 10
10.3803446432
 20
10.2618830516
 30
0.0
 10
10.378256277
 20
10.2597154349
 30
0.0
 10
10.3754999244
 20
10.2563179467
 30
0.0
 10
10.3732336022
 20
10.2528912485
 30
0.0
 10
10.3717386859
 20
10.2499770236
 30
0.0
 10
10.3708059561
 20
10.2476453763
 30
0.0
 10
10.3702400148
 20
10.2459150506
 30
0.0
 10
10.3697992725
 20
10.2441819288
 30
0.0
 10
10.3694839155
 20
10.2424466348
 30
0.0
 10
10.3692941807
 20
10.2407098793
 30
0.0
 10
10.3692301845
 20
10.2389723568
 30
0.0
 10
10.3692919161
 20
10.2372349161
 30
0.0
 10
10.3694164285
 20
10.2360814786
 30
0.0
 10
10.3694991264
 20
10.2355065212
 30
0.0
  0
SPLINE
  5
3A8
100
AcDbEntity
  8
0
100
AcDbSpline
 62
7
  6
CONTINUOUS
 70
0
 71
3
 72
14
 73
10
 74
0
 42
0.0000001
 43
0.0000001
 44
0.0000000001
 40
0.0
 40
0.0
 40
0.0
 40
0.0
 40
0.1426701207
 40
0.2795731878
 40
0.5371651323
 40
0.6587201797
 40
0.7760154779
 40
0.8895793406
 40
1.0
 40
1.0
 40
1.0
 40
1.0
 10
10.3871200794
 20
10.2489095016
 30
0.0
 10
10.3864349543
 20
10.2482477215
 30
0.0
 10
10.3851212196
 20
10.2469203617
 30
0.0
 10
10.3827280277
 20
10.2442481244
 30
0.0
 10
10.3806346309
 20
10.241499461
 30
0.0
 10
10.3788901196
 20
10.2386787078
 30
0.0
 10
10.3777914449
 20
10.2365957109
 30
0.0
 10
10.376878122
 20
10.2345059597
 30
0.0
 10
10.3763872237
 20
10.2330913575
 30
0.0
 10
10.3761746574
 20
10.2323854343
 30
0.0
  0
SPLINE
  5
3A9
100
AcDbEntity
  8
0
100
AcDbSpline
 62
7
  6
CONTINUOUS
 70
0
 71
3
 72
21
 73
17
 74
0
 42
0.0000001
 43
0.0000001
 44
0.0000000001
 40
0.0
 40
0.0
 40
0.0
 40
0.0
 40
0.0616532317
 40
0.1233294843
 40
0.1850515407
 40
0.2468416642
 40
0.3087213449
 40
0.3707111025
 40
0.432830246
 40
0.4950966374
 40
0.5575265756
 40
0.6201345674
 40
0.6829331401
 40
0.7459332076
 40
0.8725262003
 40
1.0
 40
1.0
 40
1.0
 40
1.0
 10
9.7562793477
 20
8.6795503602
 30
0.0
 10
9.7547755907
 20
8.6780978412
 30
0.0
 10
9.7516887234
 20
8.6752725769
 30
0.0
 10
9.7468364184
 20
8.6712888416
 30
0.0
 10
9.7417734169
 20
8.6675684105
 30
0.0
 10
9.7365126251
 20
8.6641208541
 30
0.0
 10
9.7310672717
 20
8.660954788
 30
0.0
 10
9.7254511013
 20
8.6580781726
 30
0.0
 10
9.7196782448
 20
8.6554982751
 30
0.0
 10
9.7137632581
 20
8.6532215759
 30
0.0
 10
9.7077210409
 20
8.6512537667
 30
0.0
 10
9.7015668524
 20
8.6495998176
 30
0.0
 10
9.6953160124
 20
8.6482638748
 30
0.0
 10
9.6868618087
 20
8.6469090439
 30
0.0
 10
9.6761263142
 20
8.6460288332
 30
0.0
 10
9.6674956239
 20
8.64619727
 30
0.0
 10
9.6631832298
 20
8.6464963356
 30
0.0
  0
SPLINE
  5
3AA
100
AcDbEntity
  8
0
100
AcDbSpline
 62
7
  6
CONTINUOUS
 70
0
 71
3
 72
21
 73
17
 74
0
 42
0.0000001
 43
0.0000001
 44
0.0000000001
 40
0.0
 40
0.0
 40
0.0
 40
0.0
 40
0.0616532317
 40
0.1233294843
 40
0.1850515407
 40
0.2468416642
 40
0.3087213449
 40
0.3707111025
 40
0.432830246
 40
0.4950966374
 40
0.5575265756
 40
0.6201345674
 40
0.6829331401
 40
0.7459332076
 40
0.8725262003
 40
1.0
 40
1.0
 40
1.0
 40
1.0
 10
12.1710940565
 20
9.7194897458
 30
0.0
 10
12.1695902995
 20
9.7180372267
 30
0.0
 10
12.1665034322
 20
9.7152119624
 30
0.0
 10
12.1616511272
 20
9.7112282272
 30
0.0
 10
12.1565881257
 20
9.707507796
 30
0.0
 10
12.1513273339
 20
9.7040602397
 30
0.0
 10
12.1458819805
 20
9.7008941735
 30
0.0
 10
12.1402658101
 20
9.6980175581
 30
0.0
 10
12.1344929536
 20
9.6954376606
 30
0.0
 10
12.1285779669
 20
9.6931609615
 30
0.0
 10
12.1225357497
 20
9.6911931522
 30
0.0
 10
12.1163815612
 20
9.6895392032
 30
0.0
 10
12.1101307212
 20
9.6882032604
 30
0.0
 10
12.1016765175
 20
9.6868484294
 30
0.0
 10
12.090941023
 20
9.6859682187
 30
0.0
 10
12.0823103327
 20
9.6861366556
 30
0.0
 10
12.0779979387
 20
9.6864357211
 30
0.0
  0
SPLINE
  5
3AB
100
AcDbEntity
  8
0
100
AcDbSpline
 62
7
  6
CONTINUOUS
 70
0
 71
3
 72
53
 73
49
 74
0
 42
0.0000001
 43
0.0000001
 44
0.0000000001
 40
0.0
 40
0.0
 40
0.0
 40
0.0
 40
0.0417740478
 40
0.0840369835
 40
0.1266585592
 40
0.1695065657
 40
0.2124481957
 40
0.2553501644
 40
0.2980793779
 40
0.3405034127
 40
0.3824910553
 40
0.4239128269
 40
0.4646415185
 40
0.5045527309
 40
0.5435254266
 40
0.5814424966
 40
0.6181913512
 40
0.6536645436
 40
0.6877604426
 40
0.7203839756
 40
0.7361162401
 40
0.7514482063
 40
0.7663702194
 40
0.7808732533
 40
0.7949489098
 40
0.808589482
 40
0.8217880323
 40
0.8345384043
 40
0.8468353889
 40
0.8586746951
 40
0.8700532057
 40
0.8809689358
 40
0.8914213732
 40
0.9014114696
 40
0.9109420597
 40
0.9200179488
 40
0.9286464106
 40
0.9368374402
 40
0.9446043453
 40
0.9519642202
 40
0.9589386335
 40
0.9655543067
 40
0.9718438059
 40
0.9778461959
 40
0.9836073668
 40
0.9891800504
 40
0.9946230772
 40
1.0
 40
1.0
 40
1.0
 40
1.0
 10
12.5627691111
 20
9.0517762278
 30
0.0
 10
12.5627691111
 20
9.0435676372
 30
0.0
 10
12.5626410486
 20
9.0270541316
 30
0.0
 10
12.5620749056
 20
9.0021713303
 30
0.0
 10
12.561135249
 20
8.9770886119
 30
0.0
 10
12.559825157
 20
8.9518889982
 30
0.0
 10
12.5581489604
 20
8.9266558689
 30
0.0
 10
12.556112199
 20
8.9014726991
 30
0.0
 10
12.5537216203
 20
8.8764228067
 30
0.0
 10
12.5509851489
 20
8.8515890623
 30
0.0
 10
12.5479118638
 20
8.8270536176
 30
0.0
 10
12.5445119679
 20
8.80289763
 30
0.0
 10
12.5407967546
 20
8.7792009922
 30
0.0
 10
12.5367785715
 20
8.7560420641
 30
0.0
 10
12.5324707801
 20
8.7334974108
 30
0.0
 10
12.527887713
 20
8.7116415401
 30
0.0
 10
12.5230446253
 20
8.6905466648
 30
0.0
 10
12.5179576528
 20
8.6702823981
 30
0.0
 10
12.512643731
 20
8.6509157129
 30
0.0
 10
12.5079865908
 20
8.635395797
 30
0.0
 10
12.504153087
 20
8.623482425
 30
0.0
 10
12.5012671502
 20
8.6149190495
 30
0.0
 10
12.4983379979
 20
8.606626087
 30
0.0
 10
12.495368049
 20
8.5986103732
 30
0.0
 10
12.4923597666
 20
8.5908785231
 30
0.0
 10
12.4893156379
 20
8.5834369109
 30
0.0
 10
12.4862381966
 20
8.5762916637
 30
0.0
 10
12.4831299678
 20
8.5694486655
 30
0.0
 10
12.4799935501
 20
8.5629135319
 30
0.0
 10
12.4768314939
 20
8.5566916351
 30
0.0
 10
12.4736464464
 20
8.5507880559
 30
0.0
 10
12.4704409717
 20
8.5452076337
 30
0.0
 10
12.4672177413
 20
8.5399548933
 30
0.0
 10
12.4639793173
 20
8.5350341212
 30
0.0
 10
12.4607283602
 20
8.5304492714
 30
0.0
 10
12.4574674061
 20
8.5262040625
 30
0.0
 10
12.454199054
 20
8.522301877
 30
0.0
 10
12.450925774
 20
8.518745868
 30
0.0
 10
12.4476500397
 20
8.5155388809
 30
0.0
 10
12.4443742032
 20
8.5126835527
 30
0.0
 10
12.4411005587
 20
8.5101823013
 30
0.0
 10
12.4378313251
 20
8.5080373914
 30
0.0
 10
12.4345686787
 20
8.5062510324
 30
0.0
 10
12.431314876
 20
8.5048253437
 30
0.0
 10
12.4280723907
 20
8.5037625197
 30
0.0
 10
12.4248439293
 20
8.5030645354
 30
0.0
 10
12.4216333842
 20
8.5027331727
 30
0.0
 10
12.4195018564
 20
8.502757494
 30
0.0
 10
12.418447824
 20
8.5028305916
 30
0.0
  0
SPLINE
  5
3AC
100
AcDbEntity
  8
0
100
AcDbSpline
 62
7
  6
CONTINUOUS
 70
0
 71
3
 72
42
 73
38
 74
0
 42
0.0000001
 43
0.0000001
 44
0.0000000001
 40
0.0
 40
0.0
 40
0.0
 40
0.0
 40
0.0311443913
 40
0.046777235
 40
0.0624471551
 40
0.0938918204
 40
0.1254739599
 40
0.1571813338
 40
0.1889991892
 40
0.2209105811
 40
0.2528967256
 40
0.2849373804
 40
0.3170112458
 40
0.3490963805
 40
0.3811706262
 40
0.413212034
 40
0.44519929
 40
0.47711213
 40
0.508931742
 40
0.5406411461
 40
0.5722255491
 40
0.6036726649
 40
0.634972994
 40
0.6661200568
 40
0.6971105715
 40
0.727944571
 40
0.7586254529
 40
0.7891599555
 40
0.8195580589
 40
0.8498328057
 40
0.8649315687
 40
0.8800056542
 40
0.9100837089
 40
0.940092975
 40
0.9550815001
 40
0.9700611853
 40
1.0
 40
1.0
 40
1.0
 40
1.0
 10
12.0779979387
 20
9.6864357211
 30
0.0
 10
12.074837293
 20
9.6866549126
 30
0.0
 10
12.0700998876
 20
9.6871575237
 30
0.0
 10
12.0638271433
 20
9.6881675616
 30
0.0
 10
12.0575643561
 20
9.6894075785
 30
0.0
 10
12.0497986157
 20
9.6913824221
 30
0.0
 10
12.0406424986
 20
9.6944136436
 30
0.0
 10
12.0316858648
 20
9.6980930347
 30
0.0
 10
12.0229767405
 20
9.7024008562
 30
0.0
 10
12.014561454
 20
9.7073141026
 30
0.0
 10
12.0064848647
 20
9.7128065365
 30
0.0
 10
11.9987899998
 20
9.7188488515
 30
0.0
 10
11.991517862
 20
9.7254088213
 30
0.0
 10
11.9847072043
 20
9.7324514714
 30
0.0
 10
11.978394328
 20
9.739939264
 30
0.0
 10
11.9726128906
 20
9.7478322958
 30
0.0
 10
11.9673937278
 20
9.7560885086
 30
0.0
 10
11.9627646909
 20
9.764663911
 30
0.0
 10
11.9587504989
 20
9.7735128097
 30
0.0
 10
11.955372607
 20
9.7825880506
 30
0.0
 10
11.9526490924
 20
9.7918412662
 30
0.0
 10
11.9505945572
 20
9.8012231306
 30
0.0
 10
11.9492200487
 20
9.8106836179
 30
0.0
 10
11.9485329985
 20
9.820172267
 30
0.0
 10
11.9485371786
 20
9.829638444
 30
0.0
 10
11.9492326814
 20
9.8390316202
 30
0.0
 10
11.9506158966
 20
9.8483016021
 30
0.0
 10
11.9526795896
 20
9.857398936
 30
0.0
 10
11.9554126938
 20
9.8662746636
 30
0.0
 10
11.9582391611
 20
9.8734546168
 30
0.0
 10
11.9608185047
 20
9.8790381208
 30
0.0
 10
11.9636020477
 20
9.8845002522
 30
0.0
 10
11.9674669035
 20
9.8911069556
 30
0.0
 10
11.9718288055
 20
9.897386056
 30
0.0
 10
11.9755981685
 20
9.9021856162
 30
0.0
 10
11.9795472945
 20
9.9068285569
 30
0.0
 10
11.9827112622
 20
9.9101339142
 30
0.0
 10
11.9849018208
 20
9.9122498332
 30
0.0
  0
SPLINE
  5
3AD
100
AcDbEntity
  8
0
100
AcDbSpline
 62
7
  6
CONTINUOUS
 70
0
 71
3
 72
83
 73
79
 74
0
 42
0.0000001
 43
0.0000001
 44
0.0000000001
 40
0.0
 40
0.0
 40
0.0
 40
0.0
 40
0.0040142996
 40
0.0081959991
 40
0.0125493765
 40
0.0170780492
 40
0.0217850819
 40
0.0266729152
 40
0.0317432411
 40
0.036997223
 40
0.0424355608
 40
0.0480584958
 40
0.0538659434
 40
0.0598574028
 40
0.0723883694
 40
0.0856421632
 40
0.0996049452
 40
0.1142594201
 40
0.1295852564
 40
0.1455594508
 40
0.1621566257
 40
0.1793492677
 40
0.1971079236
 40
0.2154013703
 40
0.2341967943
 40
0.2534599397
 40
0.2731552414
 40
0.2932459409
 40
0.3136942134
 40
0.3344612946
 40
0.3555075923
 40
0.3767927934
 40
0.4199148982
 40
0.4634956432
 40
0.5071976222
 40
0.5506822167
 40
0.5936129776
 40
0.6147673825
 40
0.6356598951
 40
0.6562505932
 40
0.6765003346
 40
0.6963708815
 40
0.7158250086
 40
0.7348266173
 40
0.7533408593
 40
0.7713342791
 40
0.7887749623
 40
0.8056326759
 40
0.8218790356
 40
0.8374877012
 40
0.8524346214
 40
0.8666982877
 40
0.8802600446
 40
0.8931044839
 40
0.9052199568
 40
0.916599236
 40
0.9220123506
 40
0.927241164
 40
0.9322864622
 40
0.9371494938
 40
0.941832036
 40
0.9463365321
 40
0.9506660528
 40
0.9548244924
 40
0.9588166118
 40
0.9626481289
 40
0.966325923
 40
0.9698580553
 40
0.9732539776
 40
0.9765246247
 40
0.9796824768
 40
0.9827416837
 40
0.9857179836
 40
0.9886286513
 40
0.9914922951
 40
0.9943285357
 40
0.9971576308
 40
1.0
 40
1.0
 40
1.0
 40
1.0
 10
10.3814618166
 20
10.2629621583
 30
0.0
 10
10.382181017
 20
10.2636568525
 30
0.0
 10
10.383682517
 20
10.2650412608
 30
0.0
 10
10.3860680137
 20
10.2670625935
 30
0.0
 10
10.3886306804
 20
10.2690692316
 30
0.0
 10
10.3913690745
 20
10.2710600354
 30
0.0
 10
10.3942817964
 20
10.2730340756
 30
0.0
 10
10.3973674068
 20
10.2749903467
 30
0.0
 10
10.400624322
 20
10.2769279074
 30
0.0
 10
10.4040508775
 20
10.2788457465
 30
0.0
 10
10.4076453158
 20
10.2807428626
 30
0.0
 10
10.411405774
 20
10.2826183141
 30
0.0
 10
10.4153303405
 20
10.2844711152
 30
0.0
 10
10.4208621814
 20
10.286947141
 30
0.0
 10
10.4281788387
 20
10.2899714291
 30
0.0
 10
10.4374526514
 20
10.2934431565
 30
0.0
 10
10.4473280674
 20
10.2968024806
 30
0.0
 10
10.4577846906
 20
10.3000423962
 30
0.0
 10
10.4688010283
 20
10.3031561482
 30
0.0
 10
10.4803543339
 20
10.3061372335
 30
0.0
 10
10.4924207323
 20
10.3089794199
 30
0.0
 10
10.5049752581
 20
10.3116767617
 30
0.0
 10
10.5179919114
 20
10.3142236151
 30
0.0
 10
10.5314437126
 20
10.3166146607
 30
0.0
 10
10.5453027673
 20
10.3188449016
 30
0.0
 10
10.5595403296
 20
10.3209096766
 30
0.0
 10
10.5741268611
 20
10.3228046675
 30
0.0
 10
10.5890320889
 20
10.3245259159
 30
0.0
 10
10.6042250737
 20
10.326069833
 30
0.0
 10
10.6196742676
 20
10.3274331899
 30
0.0
 10
10.6353476234
 20
10.3286131592
 30
0.0
 10
10.65659212
 20
10.3299442658
 30
0.0
 10
10.6834677227
 20
10.3311290871
 30
0.0
 10
10.7159466574
 20
10.3317853937
 30
0.0
 10
10.7485224527
 20
10.331676586
 30
0.0
 10
10.7809246653
 20
10.3308036079
 30
0.0
 10
10.8076874542
 20
10.329438976
 30
0.0
 10
10.8288037048
 20
10.327965188
 30
0.0
 10
10.8443536371
 20
10.326680659
 30
0.0
 10
10.8596611161
 20
10.3252143134
 30
0.0
 10
10.8746943871
 20
10.3235691876
 30
0.0
 10
10.8894222378
 20
10.3217487269
 30
0.0
 10
10.9038141047
 20
10.3197567337
 30
0.0
 10
10.9178401223
 20
10.3175973698
 30
0.0
 10
10.9314711902
 20
10.3152751432
 30
0.0
 10
10.9446790387
 20
10.3127949065
 30
0.0
 10
10.9574362918
 20
10.3101618494
 30
0.0
 10
10.9697165223
 20
10.3073814778
 30
0.0
 10
10.9814943059
 20
10.3044596051
 30
0.0
 10
10.9927452833
 20
10.3014023346
 30
0.0
 10
11.0034462213
 20
10.2982160594
 30
0.0
 10
11.0135750744
 20
10.2949074349
 30
0.0
 10
11.0231110085
 20
10.2914833597
 30
0.0
 10
11.0320345447
 20
10.2879509364
 30
0.0
 10
11.0403273212
 20
10.2843174867
 30
0.0
 10
11.0468022037
 20
10.2811611732
 30
0.0
 10
11.0516453293
 20
10.2785848208
 30
0.0
 10
11.0550487987
 20
10.2766642139
 30
0.0
 10
11.0582823981
 20
10.2747240432
 30
0.0
 10
11.06134448
 20
10.2727652724
 30
0.0
 10
11.0642334619
 20
10.2707888687
 30
0.0
 10
11.0669478955
 20
10.2687958661
 30
0.0
 10
11.0694863725
 20
10.2667872135
 30
0.0
 10
11.0718476076
 20
10.2647639164
 30
0.0
 10
11.0740304026
 20
10.2627269662
 30
0.0
 10
11.0760335949
 20
10.2606772964
 30
0.0
 10
11.0778561751
 20
10.2586159173
 30
0.0
 10
11.079497127
 20
10.2565437486
 30
0.0
 10
11.0809555314
 20
10.2544617521
 30
0.0
 10
11.0822305477
 20
10.2523709053
 30
0.0
 10
11.0833212871
 20
10.2502721506
 30
0.0
 10
11.0842270312
 20
10.2481665479
 30
0.0
 10
11.0849470141
 20
10.2460551641
 30
0.0
 10
11.0854805742
 20
10.2439391765
 30
0.0
 10
11.0858272323
 20
10.2418198879
 30
0.0
 10
11.0859865157
 20
10.2396986027
 30
0.0
 10
11.0859583421
 20
10.2375769725
 30
0.0
 10
11.0858151993
 20
10.2361694028
 30
0.0
 10
11.0857133201
 20
10.2354687634
 30
0.0
  0
SPLINE
  5
3AE
100
AcDbEntity
  8
0
100
AcDbSpline
 62
7
  6
CONTINUOUS
 70
0
 71
3
 72
96
 73
92
 74
0
 42
0.0000001
 43
0.0000001
 44
0.0000000001
 40
0.0
 40
0.0
 40
0.0
 40
0.0
 40
0.0041939212
 40
0.0085762269
 40
0.0131520052
 40
0.0179255503
 40
0.0229003895
 40
0.0280791136
 40
0.0334634798
 40
0.039054619
 40
0.0448530484
 40
0.0508588136
 40
0.0570714162
 40
0.0634899855
 40
0.0701132151
 40
0.0769394762
 40
0.0911924427
 40
0.1062302232
 40
0.1220294549
 40
0.1385631627
 40
0.1558011854
 40
0.173710526
 40
0.1922556446
 40
0.2113987132
 40
0.2310998404
 40
0.2513172756
 40
0.2720075971
 40
0.2931258893
 40
0.3146259101
 40
0.3364602548
 40
0.358580515
 40
0.380937433
 40
0.4034810543
 40
0.4261608786
 40
0.4489260088
 40
0.4717253002
 40
0.4945075089
 40
0.5172214402
 40
0.5398160978
 40
0.5622408322
 40
0.5844454903
 40
0.6063805658
 40
0.6279973504
 40
0.649248088
 40
0.6700861315
 40
0.6904661036
 40
0.7103440641
 40
0.7296776851
 40
0.7484264339
 40
0.7665517712
 40
0.7840173684
 40
0.8007893512
 40
0.8168365781
 40
0.8321309695
 40
0.8466479033
 40
0.8536084389
 40
0.8603672363
 40
0.8669224108
 40
0.8732724521
 40
0.8794161948
 40
0.8853528766
 40
0.891082198
 40
0.8966043145
 40
0.9019199826
 40
0.9070305141
 40
0.9119379754
 40
0.9166451634
 40
0.9211558052
 40
0.925474617
 40
0.9296074706
 40
0.9335615598
 40
0.9373455271
 40
0.9409697129
 40
0.9444462457
 40
0.9477892864
 40
0.9510150553
 40
0.9541419228
 40
0.9571902809
 40
0.9601823275
 40
0.9631416685
 40
0.9660927703
 40
0.969060322
 40
0.9720685748
 40
0.9751407156
 40
0.9782983924
 40
0.981561316
 40
0.9849471178
 40
0.9884713701
 40
0.9921476423
 40
0.9959874147
 40
1.0
 40
1.0
 40
1.0
 40
1.0
 10
10.3354430571
 20
10.3121723296
 30
0.0
 10
10.3363218753
 20
10.3130212028
 30
0.0
 10
10.3381626868
 20
10.3147122889
 30
0.0
 10
10.3410985699
 20
10.3171761659
 30
0.0
 10
10.3442668744
 20
10.319620459
 30
0.0
 10
10.3476655417
 20
10.3220436556
 30
0.0
 10
10.3512926183
 20
10.3244444015
 30
0.0
 10
10.3551459789
 20
10.3268213273
 30
0.0
 10
10.3592233439
 20
10.3291730503
 30
0.0
 10
10.3635222993
 20
10.3314981401
 30
0.0
 10
10.3680402729
 20
10.3337952622
 30
0.0
 10
10.3727745936
 20
10.3360630013
 30
0.0
 10
10.3777224241
 20
10.3383000534
 30
0.0
 10
10.3828808195
 20
10.3405050275
 30
0.0
 10
10.3882466922
 20
10.3426766549
 30
0.0
 10
10.395782331
 20
10.3455675629
 30
0.0
 10
10.4057033886
 20
10.3490794682
 30
0.0
 10
10.4182169867
 20
10.353082111
 30
0.0
 10
10.4314746255
 20
10.3569218291
 30
0.0
 10
10.4454444952
 20
10.3605893182
 30
0.0
 10
10.4600931946
 20
10.3640756796
 30
0.0
 10
10.47538559
 20
10.367372452
 30
0.0
 10
10.4912849786
 20
10.3704716339
 30
0.0
 10
10.5077531655
 20
10.3733657047
 30
0.0
 10
10.5247505665
 20
10.3760476431
 30
0.0
 10
10.5422363067
 20
10.3785109443
 30
0.0
 10
10.5601683229
 20
10.3807496352
 30
0.0
 10
10.5785034662
 20
10.3827582888
 30
0.0
 10
10.5971976087
 20
10.3845320376
 30
0.0
 10
10.6162057515
 20
10.3860665849
 30
0.0
 10
10.6354821347
 20
10.3873582137
 30
0.0
 10
10.6549803488
 20
10.3884037961
 30
0.0
 10
10.6746534476
 20
10.3892008002
 30
0.0
 10
10.6944540614
 20
10.3897472962
 30
0.0
 10
10.714334512
 20
10.3900419606
 30
0.0
 10
10.7342469277
 20
10.3900840797
 30
0.0
 10
10.7541433592
 20
10.389873551
 30
0.0
 10
10.7739758958
 20
10.3894108842
 30
0.0
 10
10.7936967818
 20
10.3886972001
 30
0.0
 10
10.8132585317
 20
10.387734227
 30
0.0
 10
10.8326140453
 20
10.3865242969
 30
0.0
 10
10.8517167222
 20
10.38507034
 30
0.0
 10
10.8705205738
 20
10.383375878
 30
0.0
 10
10.8889803356
 20
10.3814450156
 30
0.0
 10
10.9070515773
 20
10.3792824314
 30
0.0
 10
10.9246908111
 20
10.3768933662
 30
0.0
 10
10.9418555994
 20
10.3742836121
 30
0.0
 10
10.9585046594
 20
10.3714594987
 30
0.0
 10
10.974597966
 20
10.3684278771
 30
0.0
 10
10.9900968501
 20
10.3651961036
 30
0.0
 10
11.0049641026
 20
10.3617720219
 30
0.0
 10
11.0191640525
 20
10.3581639421
 30
0.0
 10
11.0326627264
 20
10.354380622
 30
0.0
 10
11.0454277199
 20
10.3504312279
 30
0.0
 10
11.0555657982
 20
10.3469628073
 30
0.0
 10
11.0632801836
 20
10.3441052374
 30
0.0
 10
11.0687826023
 20
10.3419566023
 30
0.0
 10
11.0740796653
 20
10.3397737203
 30
0.0
 10
11.0791682131
 20
10.3375579033
 30
0.0
 10
11.0840452012
 20
10.3353104795
 30
0.0
 10
11.0887077145
 20
10.3330327834
 30
0.0
 10
11.093152983
 20
10.3307262012
 30
0.0
 10
11.0973783473
 20
10.3283920653
 30
0.0
 10
11.1013813182
 20
10.3260318082
 30
0.0
 10
11.1051595013
 20
10.3236467653
 30
0.0
 10
11.1087106872
 20
10.3212383825
 30
0.0
 10
11.1120327593
 20
10.3188080103
 30
0.0
 10
11.1151237739
 20
10.3163570679
 30
0.0
 10
11.1179819012
 20
10.3138869255
 30
0.0
 10
11.1206054366
 20
10.3113989435
 30
0.0
 10
11.1229928283
 20
10.3088945009
 30
0.0
 10
11.1251425688
 20
10.3063748908
 30
0.0
 10
11.1270533403
 20
10.3038414878
 30
0.0
 10
11.1287237813
 20
10.3012955573
 30
0.0
 10
11.1301527256
 20
10.2987384918
 30
0.0
 10
11.1313389317
 20
10.2961716478
 30
0.0
 10
11.1322813274
 20
10.2935965487
 30
0.0
 10
11.1329788737
 20
10.2910148234
 30
0.0
 10
11.1334307014
 20
10.2884282902
 30
0.0
 10
11.1336362347
 20
10.2858389379
 30
0.0
 10
11.1335951032
 20
10.2832488714
 30
0.0
 10
11.1333074614
 20
10.2806602268
 30
0.0
 10
11.1327736207
 20
10.2780750897
 30
0.0
 10
11.1319943809
 20
10.2754953703
 30
0.0
 10
11.1309705781
 20
10.2729228524
 30
0.0
 10
11.1297033417
 20
10.2703591119
 30
0.0
 10
11.1281937911
 20
10.267805612
 30
0.0
 10
11.1264430974
 20
10.26526371
 30
0.0
 10
11.1244524789
 20
10.2627346924
 30
0.0
 10
11.1222233783
 20
10.2602200529
 30
0.0
 10
11.1206156697
 20
10.2585909049
 30
0.0
 10
11.1197748496
 20
10.257778735
 30
0.0
  0
SPLINE
  5
3AF
100
AcDbEntity
  8
0
100
AcDbSpline
 62
7
  6
CONTINUOUS
 70
0
 71
3
 72
47
 73
43
 74
0
 42
0.0000001
 43
0.0000001
 44
0.0000000001
 40
0.0
 40
0.0
 40
0.0
 40
0.0
 40
0.0063158953
 40
0.0126706964
 40
0.0191025413
 40
0.0256481068
 40
0.0323419887
 40
0.0392163511
 40
0.0536141938
 40
0.0611949453
 40
0.0690567093
 40
0.0772178306
 40
0.0856942536
 40
0.094499648
 40
0.1036457893
 40
0.1131425899
 40
0.1229983503
 40
0.1332200167
 40
0.1438131323
 40
0.1547821683
 40
0.1661305713
 40
0.1899729423
 40
0.2153524409
 40
0.2422683478
 40
0.2707106917
 40
0.3006617255
 40
0.3320970385
 40
0.3649863926
 40
0.3992943516
 40
0.4349809011
 40
0.4720019229
 40
0.5103095575
 40
0.5498524869
 40
0.5905762826
 40
0.6324236706
 40
0.6753347453
 40
0.7192471563
 40
0.7640962954
 40
0.8098156376
 40
0.856336788
 40
0.9035890146
 40
1.0
 40
1.0
 40
1.0
 40
1.0
 10
12.4793298266
 20
9.3807220324
 30
0.0
 10
12.480073509
 20
9.3806704577
 30
0.0
 10
12.4815619387
 20
9.3805061011
 30
0.0
 10
12.483777906
 20
9.3800777555
 30
0.0
 10
12.4859790655
 20
9.3794675807
 30
0.0
 10
12.4881641111
 20
9.3786760255
 30
0.0
 10
12.4903322187
 20
9.3777036246
 30
0.0
 10
12.4932433833
 20
9.3761430662
 30
0.0
 10
12.4960755127
 20
9.3742327404
 30
0.0
 10
12.4988162682
 20
9.372018935
 30
0.0
 10
12.5008864731
 20
9.3701524504
 30
0.0
 10
12.502934578
 20
9.3681095849
 30
0.0
 10
12.504960041
 20
9.3658910427
 30
0.0
 10
12.5069620806
 20
9.3634978193
 30
0.0
 10
12.5089399213
 20
9.3609308558
 30
0.0
 10
12.5108928163
 20
9.3581912149
 30
0.0
 10
12.5128200226
 20
9.3552800139
 30
0.0
 10
12.5147207476
 20
9.3521984123
 30
0.0
 10
12.5165942682
 20
9.3489476818
 30
0.0
 10
12.5184398434
 20
9.3455291255
 30
0.0
 10
12.5209029275
 20
9.340668835
 30
0.0
 10
12.5238981999
 20
9.3341743685
 30
0.0
 10
12.5273123814
 20
9.3258591445
 30
0.0
 10
12.5305977573
 20
9.3169116898
 30
0.0
 10
12.5337489528
 20
9.307346605
 30
0.0
 10
12.5367607978
 20
9.2971793329
 30
0.0
 10
12.5396283065
 20
9.2864264356
 30
0.0
 10
12.5423467139
 20
9.2751054689
 30
0.0
 10
12.5449115082
 20
9.2632349771
 30
0.0
 10
12.5473184212
 20
9.2508344381
 30
0.0
 10
12.5495634413
 20
9.2379242216
 30
0.0
 10
12.5516428208
 20
9.2245255571
 30
0.0
 10
12.5535531019
 20
9.2106605004
 30
0.0
 10
12.5552911026
 20
9.1963518876
 30
0.0
 10
12.5568539241
 20
9.1816232912
 30
0.0
 10
12.558238956
 20
9.1664989833
 30
0.0
 10
12.5594438945
 20
9.1510039043
 30
0.0
 10
12.5604667362
 20
9.1351636
 30
0.0
 10
12.5613057666
 20
9.1190041967
 30
0.0
 10
12.561959591
 20
9.1025523605
 30
0.0
 10
12.562587089
 20
9.0801132087
 30
0.0
 10
12.5627691111
 20
9.0631556699
 30
0.0
 10
12.5627691111
 20
9.0517762278
 30
0.0
  0
SPLINE
  5
3B0
100
AcDbEntity
  8
0
100
AcDbSpline
 62
7
  6
CONTINUOUS
 70
0
 71
3
 72
78
 73
74
 74
0
 42
0.0000001
 43
0.0000001
 44
0.0000000001
 40
0.0
 40
0.0
 40
0.0
 40
0.0
 40
0.0039089943
 40
0.0079745074
 40
0.0122004264
 40
0.0165900509
 40
0.0211462103
 40
0.0258712084
 40
0.0307667061
 40
0.0358338493
 40
0.0410734028
 40
0.0464857013
 40
0.0578277861
 40
0.0698572393
 40
0.0825662463
 40
0.0959433832
 40
0.1099740741
 40
0.124641015
 40
0.1399244998
 40
0.1558026687
 40
0.1722516955
 40
0.1892459968
 40
0.2067584014
 40
0.2247602842
 40
0.2432216722
 40
0.2621113828
 40
0.281397143
 40
0.3010456865
 40
0.3210228373
 40
0.3412936219
 40
0.3618223694
 40
0.4035073627
 40
0.4457825436
 40
0.4883463861
 40
0.5308946879
 40
0.5731233913
 40
0.6147313992
 40
0.6352104329
 40
0.6554241671
 40
0.6753370695
 40
0.6949143273
 40
0.7141219375
 40
0.7329268211
 40
0.7512969253
 40
0.7692013124
 40
0.7866102685
 40
0.8034954448
 40
0.8198299904
 40
0.8355886756
 40
0.850748053
 40
0.8652866715
 40
0.8791853023
 40
0.8924271807
 40
0.9049983321
 40
0.9168880102
 40
0.9280892266
 40
0.9334310001
 40
0.9386001116
 40
0.9435970705
 40
0.9484228256
 40
0.9530787143
 40
0.957566623
 40
0.961888985
 40
0.9660488254
 40
0.9700499298
 40
0.9738968243
 40
0.9775949276
 40
0.9811506698
 40
0.9845715221
 40
0.9878661922
 40
0.9941148889
 40
0.9970964139
 40
1.0
 40
1.0
 40
1.0
 40
1.0
 10
10.3871200794
 20
10.2489095016
 30
0.0
 10
10.3877990014
 20
10.2495652899
 30
0.0
 10
10.3892139987
 20
10.2508723863
 30
0.0
 10
10.3914575378
 20
10.2527829109
 30
0.0
 10
10.3938619582
 20
10.2546801963
 30
0.0
 10
10.3964260098
 20
10.2565632272
 30
0.0
 10
10.3991484696
 20
10.2584311924
 30
0.0
 10
10.4020280988
 20
10.2602832174
 30
0.0
 10
10.4050635421
 20
10.2621184712
 30
0.0
 10
10.4082533576
 20
10.2639360906
 30
0.0
 10
10.4115960497
 20
10.265735195
 30
0.0
 10
10.4163288157
 20
10.2681459061
 30
0.0
 10
10.422622682
 20
10.2710999717
 30
0.0
 10
10.4306444139
 20
10.2745044481
 30
0.0
 10
10.4392339551
 20
10.2778152666
 30
0.0
 10
10.4483749737
 20
10.281026081
 30
0.0
 10
10.4580502046
 20
10.2841307448
 30
0.0
 10
10.4682412609
 20
10.2871232883
 30
0.0
 10
10.4789287553
 20
10.2899979476
 30
0.0
 10
10.4900923185
 20
10.2927491743
 30
0.0
 10
10.5017106415
 20
10.2953716711
 30
0.0
 10
10.5137615268
 20
10.2978603843
 30
0.0
 10
10.5262219407
 20
10.3002105147
 30
0.0
 10
10.5390680548
 20
10.3024175247
 30
0.0
 10
10.5522752881
 20
10.3044771666
 30
0.0
 10
10.5658183603
 20
10.3063854746
 30
0.0
 10
10.5796713462
 20
10.3081387713
 30
0.0
 10
10.5938077248
 20
10.3097336741
 30
0.0
 10
10.6082004175
 20
10.3111671115
 30
0.0
 10
10.6228218799
 20
10.3124363451
 30
0.0
 10
10.6426853722
 20
10.3139138526
 30
0.0
 10
10.6678797259
 20
10.3153286618
 30
0.0
 10
10.6984181941
 20
10.3163333083
 30
0.0
 10
10.7291801096
 20
10.3166453525
 30
0.0
 10
10.7599300037
 20
10.3162624383
 30
0.0
 10
10.7904324987
 20
10.315187474
 30
0.0
 10
10.8155816399
 20
10.3137144135
 30
0.0
 10
10.8353971501
 20
10.3121907892
 30
0.0
 10
10.8499741896
 20
10.3108878309
 30
0.0
 10
10.8643167962
 20
10.3094212068
 30
0.0
 10
10.8783975238
 20
10.3077937219
 30
0.0
 10
10.8921893998
 20
10.3060085091
 30
0.0
 10
10.905666019
 20
10.3040690067
 30
0.0
 10
10.9188015859
 20
10.3019789567
 30
0.0
 10
10.9315709613
 20
10.2997423865
 30
0.0
 10
10.9439497116
 20
10.2973636004
 30
0.0
 10
10.9559141635
 20
10.2948471843
 30
0.0
 10
10.967441453
 20
10.2921979956
 30
0.0
 10
10.9785095637
 20
10.2894211424
 30
0.0
 10
10.9890973722
 20
10.2865219714
 30
0.0
 10
10.9991847003
 20
10.2835060691
 30
0.0
 10
11.0087523683
 20
10.2803792483
 30
0.0
 10
11.0177822076
 20
10.2771475221
 30
0.0
 10
11.0262571766
 20
10.2738170722
 30
0.0
 10
11.0341611664
 20
10.2703942712
 30
0.0
 10
11.040354164
 20
10.2674252345
 30
0.0
 10
11.0450045509
 20
10.2650031782
 30
0.0
 10
11.0482850331
 20
10.2631964121
 30
0.0
 10
11.0514120161
 20
10.2613714905
 30
0.0
 10
11.0543840428
 20
10.2595292873
 30
0.0
 10
11.0571996899
 20
10.257670634
 30
0.0
 10
11.0598576386
 20
10.2557964137
 30
0.0
 10
11.0623566456
 20
10.2539075044
 30
0.0
 10
11.0646955077
 20
10.2520047347
 30
0.0
 10
11.0668731498
 20
10.2500890053
 30
0.0
 10
11.0688885234
 20
10.2481611581
 30
0.0
 10
11.0707406618
 20
10.2462220141
 30
0.0
 10
11.0724286619
 20
10.2442725222
 30
0.0
 10
11.073951769
 20
10.2423132366
 30
0.0
 10
11.0757298449
 20
10.2397353927
 30
0.0
 10
11.0772201802
 20
10.237091477
 30
0.0
 10
11.0783788562
 20
10.2343980623
 30
0.0
 10
11.0788423821
 20
10.2330528793
 30
0.0
 10
11.0790444382
 20
10.2323814811
 30
0.0
  0
SPLINE
  5
3B1
100
AcDbEntity
  8
0
100
AcDbSpline
 62
7
  6
CONTINUOUS
 70
0
 71
3
 72
53
 73
49
 74
0
 42
0.0000001
 43
0.0000001
 44
0.0000000001
 40
0.0
 40
0.0
 40
0.0
 40
0.0
 40
0.0417740478
 40
0.0840369835
 40
0.1266585592
 40
0.1695065657
 40
0.2124481957
 40
0.2553501644
 40
0.2980793779
 40
0.3405034127
 40
0.3824910553
 40
0.4239128269
 40
0.4646415185
 40
0.5045527309
 40
0.5435254266
 40
0.5814424966
 40
0.6181913512
 40
0.6536645436
 40
0.6877604426
 40
0.7203839756
 40
0.7361162401
 40
0.7514482063
 40
0.7663702194
 40
0.7808732533
 40
0.7949489098
 40
0.808589482
 40
0.8217880323
 40
0.8345384043
 40
0.8468353889
 40
0.8586746951
 40
0.8700532057
 40
0.8809689358
 40
0.8914213732
 40
0.9014114696
 40
0.9109420597
 40
0.9200179488
 40
0.9286464106
 40
0.9368374402
 40
0.9446043453
 40
0.9519642202
 40
0.9589386335
 40
0.9655543067
 40
0.9718438059
 40
0.9778461959
 40
0.9836073668
 40
0.9891800504
 40
0.9946230772
 40
1.0
 40
1.0
 40
1.0
 40
1.0
 10
12.5627691111
 20
7.9950532711
 30
0.0
 10
12.5627691111
 20
7.9868446805
 30
0.0
 10
12.5626410486
 20
7.970331175
 30
0.0
 10
12.5620749056
 20
7.9454483737
 30
0.0
 10
12.561135249
 20
7.9203656553
 30
0.0
 10
12.559825157
 20
7.8951660416
 30
0.0
 10
12.5581489604
 20
7.8699329122
 30
0.0
 10
12.556112199
 20
7.8447497425
 30
0.0
 10
12.5537216203
 20
7.8196998501
 30
0.0
 10
12.5509851489
 20
7.7948661057
 30
0.0
 10
12.5479118638
 20
7.770330661
 30
0.0
 10
12.5445119679
 20
7.7461746734
 30
0.0
 10
12.5407967546
 20
7.7224780356
 30
0.0
 10
12.5367785715
 20
7.6993191074
 30
0.0
 10
12.5324707801
 20
7.6767744542
 30
0.0
 10
12.527887713
 20
7.6549185834
 30
0.0
 10
12.5230446253
 20
7.6338237081
 30
0.0
 10
12.5179576528
 20
7.6135594414
 30
0.0
 10
12.512643731
 20
7.5941927562
 30
0.0
 10
12.5079865908
 20
7.5786728404
 30
0.0
 10
12.504153087
 20
7.5667594684
 30
0.0
 10
12.5012671502
 20
7.5581960929
 30
0.0
 10
12.4983379979
 20
7.5499031304
 30
0.0
 10
12.495368049
 20
7.5418874165
 30
0.0
 10
12.4923597666
 20
7.5341555664
 30
0.0
 10
12.4893156379
 20
7.5267139543
 30
0.0
 10
12.4862381966
 20
7.5195687071
 30
0.0
 10
12.4831299678
 20
7.5127257088
 30
0.0
 10
12.4799935501
 20
7.5061905752
 30
0.0
 10
12.4768314939
 20
7.4999686785
 30
0.0
 10
12.4736464464
 20
7.4940650993
 30
0.0
 10
12.4704409717
 20
7.4884846771
 30
0.0
 10
12.4672177413
 20
7.4832319366
 30
0.0
 10
12.4639793173
 20
7.4783111646
 30
0.0
 10
12.4607283602
 20
7.4737263147
 30
0.0
 10
12.4574674061
 20
7.4694811059
 30
0.0
 10
12.454199054
 20
7.4655789204
 30
0.0
 10
12.450925774
 20
7.4620229114
 30
0.0
 10
12.4476500397
 20
7.4588159243
 30
0.0
 10
12.4443742032
 20
7.4559605961
 30
0.0
 10
12.4411005587
 20
7.4534593447
 30
0.0
 10
12.4378313251
 20
7.4513144347
 30
0.0
 10
12.4345686787
 20
7.4495280758
 30
0.0
 10
12.431314876
 20
7.4481023871
 30
0.0
 10
12.4280723907
 20
7.447039563
 30
0.0
 10
12.4248439293
 20
7.4463415788
 30
0.0
 10
12.4216333842
 20
7.4460102161
 30
0.0
 10
12.4195018564
 20
7.4460345374
 30
0.0
 10
12.418447824
 20
7.446107635
 30
0.0
  0
SPLINE
  5
3B2
100
AcDbEntity
  8
0
100
AcDbSpline
 62
7
  6
CONTINUOUS
 70
0
 71
3
 72
36
 73
32
 74
0
 42
0.0000001
 43
0.0000001
 44
0.0000000001
 40
0.0
 40
0.0
 40
0.0
 40
0.0
 40
0.0901447291
 40
0.1781476154
 40
0.2635875481
 40
0.3052193325
 40
0.3460597188
 40
0.3860611567
 40
0.4251775997
 40
0.4633646591
 40
0.5005795968
 40
0.5367815381
 40
0.5719316797
 40
0.6059932993
 40
0.6389320474
 40
0.6707161869
 40
0.7013166767
 40
0.7307075946
 40
0.7588664637
 40
0.7857745061
 40
0.8114173037
 40
0.8357853529
 40
0.8588746926
 40
0.880688047
 40
0.9012359387
 40
0.9205381303
 40
0.9386257675
 40
0.9555437002
 40
0.9713534417
 40
0.9861368831
 40
1.0
 40
1.0
 40
1.0
 40
1.0
 10
12.5318594821
 20
9.0539198178
 30
0.0
 10
12.5318594821
 20
9.0640656097
 30
0.0
 10
12.5316674303
 20
9.0841167605
 30
0.0
 10
12.530784678
 20
9.1137723612
 30
0.0
 10
12.5295497738
 20
9.137949679
 30
0.0
 10
12.5282614433
 20
9.1568045886
 30
0.0
 10
12.5271594254
 20
9.1705452208
 30
0.0
 10
12.5259148086
 20
9.1839893899
 30
0.0
 10
12.5245292073
 20
9.1971195362
 30
0.0
 10
12.5230044707
 20
9.2099184958
 30
0.0
 10
12.5213425982
 20
9.2223695443
 30
0.0
 10
12.5195457744
 20
9.2344564155
 30
0.0
 10
12.5176163866
 20
9.2461633282
 30
0.0
 10
12.5155569652
 20
9.257475001
 30
0.0
 10
12.5133702216
 20
9.2683766786
 30
0.0
 10
12.5110590561
 20
9.2788541556
 30
0.0
 10
12.5086264957
 20
9.2888937877
 30
0.0
 10
12.5060757423
 20
9.2984825216
 30
0.0
 10
12.5034101661
 20
9.3076079168
 30
0.0
 10
12.5006332404
 20
9.3162581531
 30
0.0
 10
12.4977485978
 20
9.3244220667
 30
0.0
 10
12.4947600031
 20
9.3320891701
 30
0.0
 10
12.4916712785
 20
9.3392496526
 30
0.0
 10
12.4884863619
 20
9.3458944263
 30
0.0
 10
12.4852092365
 20
9.3520151357
 30
0.0
 10
12.4818438423
 20
9.3576041284
 30
0.0
 10
12.478394077
 20
9.3626545106
 30
0.0
 10
12.4748637719
 20
9.3671600115
 30
0.0
 10
12.4712562029
 20
9.3711150613
 30
0.0
 10
12.4675754006
 20
9.374513901
 30
0.0
 10
12.4649982935
 20
9.3764630897
 30
0.0
 10
12.4637021411
 20
9.3773317133
 30
0.0
  0
SPLINE
  5
3B3
100
AcDbEntity
  8
0
100
AcDbSpline
 62
7
  6
CONTINUOUS
 70
0
 71
3
 72
47
 73
43
 74
0
 42
0.0000001
 43
0.0000001
 44
0.0000000001
 40
0.0
 40
0.0
 40
0.0
 40
0.0
 40
0.0063158953
 40
0.0126706964
 40
0.0191025413
 40
0.0256481068
 40
0.0323419887
 40
0.0392163511
 40
0.0536141938
 40
0.0611949453
 40
0.0690567093
 40
0.0772178306
 40
0.0856942536
 40
0.094499648
 40
0.1036457893
 40
0.1131425899
 40
0.1229983503
 40
0.1332200167
 40
0.1438131323
 40
0.1547821683
 40
0.1661305713
 40
0.1899729423
 40
0.2153524409
 40
0.2422683478
 40
0.2707106917
 40
0.3006617255
 40
0.3320970385
 40
0.3649863926
 40
0.3992943516
 40
0.4349809011
 40
0.4720019229
 40
0.5103095575
 40
0.5498524869
 40
0.5905762826
 40
0.6324236706
 40
0.6753347453
 40
0.7192471563
 40
0.7640962954
 40
0.8098156376
 40
0.856336788
 40
0.9035890146
 40
1.0
 40
1.0
 40
1.0
 40
1.0
 10
12.4793298266
 20
8.3239990758
 30
0.0
 10
12.480073509
 20
8.323947501
 30
0.0
 10
12.4815619387
 20
8.3237831444
 30
0.0
 10
12.483777906
 20
8.3233547988
 30
0.0
 10
12.4859790655
 20
8.322744624
 30
0.0
 10
12.4881641111
 20
8.3219530688
 30
0.0
 10
12.4903322187
 20
8.320980668
 30
0.0
 10
12.4932433833
 20
8.3194201095
 30
0.0
 10
12.4960755127
 20
8.3175097837
 30
0.0
 10
12.4988162682
 20
8.3152959783
 30
0.0
 10
12.5008864731
 20
8.3134294937
 30
0.0
 10
12.502934578
 20
8.3113866283
 30
0.0
 10
12.504960041
 20
8.309168086
 30
0.0
 10
12.5069620806
 20
8.3067748627
 30
0.0
 10
12.5089399213
 20
8.3042078991
 30
0.0
 10
12.5108928163
 20
8.3014682582
 30
0.0
 10
12.5128200226
 20
8.2985570573
 30
0.0
 10
12.5147207476
 20
8.2954754556
 30
0.0
 10
12.5165942682
 20
8.2922247251
 30
0.0
 10
12.5184398434
 20
8.2888061688
 30
0.0
 10
12.5209029275
 20
8.2839458783
 30
0.0
 10
12.5238981999
 20
8.2774514118
 30
0.0
 10
12.5273123814
 20
8.2691361879
 30
0.0
 10
12.5305977573
 20
8.2601887331
 30
0.0
 10
12.5337489528
 20
8.2506236483
 30
0.0
 10
12.5367607978
 20
8.2404563763
 30
0.0
 10
12.5396283065
 20
8.2297034789
 30
0.0
 10
12.5423467139
 20
8.2183825122
 30
0.0
 10
12.5449115082
 20
8.2065120205
 30
0.0
 10
12.5473184212
 20
8.1941114815
 30
0.0
 10
12.5495634413
 20
8.1812012649
 30
0.0
 10
12.5516428208
 20
8.1678026005
 30
0.0
 10
12.5535531019
 20
8.1539375437
 30
0.0
 10
12.5552911026
 20
8.1396289309
 30
0.0
 10
12.5568539241
 20
8.1249003345
 30
0.0
 10
12.558238956
 20
8.1097760267
 30
0.0
 10
12.5594438945
 20
8.0942809476
 30
0.0
 10
12.5604667362
 20
8.0784406434
 30
0.0
 10
12.5613057666
 20
8.0622812401
 30
0.0
 10
12.561959591
 20
8.0458294039
 30
0.0
 10
12.562587089
 20
8.023390252
 30
0.0
 10
12.5627691111
 20
8.0064327132
 30
0.0
 10
12.5627691111
 20
7.9950532711
 30
0.0
  0
SPLINE
  5
3B4
100
AcDbEntity
  8
0
100
AcDbSpline
 62
7
  6
CONTINUOUS
 70
0
 71
3
 72
49
 73
45
 74
0
 42
0.0000001
 43
0.0000001
 44
0.0000000001
 40
0.0
 40
0.0
 40
0.0
 40
0.0
 40
0.0396361277
 40
0.07970966
 40
0.120114895
 40
0.1607454582
 40
0.2014939489
 40
0.2422526853
 40
0.2829139087
 40
0.323370202
 40
0.3635148323
 40
0.4032421199
 40
0.4424478021
 40
0.481029402
 40
0.5188866023
 40
0.5559216258
 40
0.592039627
 40
0.6271490975
 40
0.6611622927
 40
0.6939956869
 40
0.7255704697
 40
0.755813099
 40
0.7846559356
 40
0.7985334431
 40
0.812038733
 40
0.8251653637
 40
0.8379074641
 40
0.8502597095
 40
0.8622174607
 40
0.8737767091
 40
0.8849342763
 40
0.8956877388
 40
0.90603569
 40
0.9159776631
 40
0.9255144574
 40
0.9346480849
 40
0.9433821665
 40
0.951721935
 40
0.9596747096
 40
0.9672499952
 40
0.97446004
 40
0.9813200639
 40
0.9878488848
 40
1.0
 40
1.0
 40
1.0
 40
1.0
 10
12.5318594821
 20
9.0539198178
 30
0.0
 10
12.5318594821
 20
9.0463473434
 30
0.0
 10
12.5317505172
 20
9.0311186245
 30
0.0
 10
12.531268143
 20
9.0081750854
 30
0.0
 10
12.53046713
 20
8.9850503271
 30
0.0
 10
12.5293497308
 20
8.9618096204
 30
0.0
 10
12.5279190788
 20
8.9385184305
 30
0.0
 10
12.5261792074
 20
8.9152424239
 30
0.0
 10
12.5241350209
 20
8.8920472022
 30
0.0
 10
12.52179229
 20
8.8689981454
 30
0.0
 10
12.5191576312
 20
8.8461602168
 30
0.0
 10
12.5162384901
 20
8.8235977816
 30
0.0
 10
12.5130431202
 20
8.8013744238
 30
0.0
 10
12.5095805599
 20
8.7795527652
 30
0.0
 10
12.5058606074
 20
8.758194287
 30
0.0
 10
12.5018937938
 20
8.7373591545
 30
0.0
 10
12.4976913539
 20
8.7171060441
 30
0.0
 10
12.4932651946
 20
8.6974919752
 30
0.0
 10
12.4886278628
 20
8.6785721405
 30
0.0
 10
12.4837925082
 20
8.6603997594
 30
0.0
 10
12.4787728508
 20
8.6430258624
 30
0.0
 10
12.4735831244
 20
8.6264993372
 30
0.0
 10
12.4690728797
 20
8.6133076824
 30
0.0
 10
12.4653835367
 20
8.6032188758
 30
0.0
 10
12.4626188171
 20
8.5959899023
 30
0.0
 10
12.4598227309
 20
8.5890061229
 30
0.0
 10
12.4569972484
 20
8.5822724328
 30
0.0
 10
12.4541443441
 20
8.5757935652
 30
0.0
 10
12.4512660556
 20
8.5695740559
 30
0.0
 10
12.4483643752
 20
8.5636182708
 30
0.0
 10
12.445441382
 20
8.5579303645
 30
0.0
 10
12.4424990818
 20
8.5525143239
 30
0.0
 10
12.4395395828
 20
8.5473739068
 30
0.0
 10
12.4365648944
 20
8.5425127087
 30
0.0
 10
12.4335771381
 20
8.5379340768
 30
0.0
 10
12.4305783121
 20
8.5336412056
 30
0.0
 10
12.4275705299
 20
8.5296370227
 30
0.0
 10
12.424555755
 20
8.5259243147
 30
0.0
 10
12.4215360732
 20
8.522505599
 30
0.0
 10
12.4185133426
 20
8.5193832365
 30
0.0
 10
12.4154897314
 20
8.5165594579
 30
0.0
 10
12.4124664465
 20
8.5140359021
 30
0.0
 10
12.4085344368
 20
8.5111442865
 30
0.0
 10
12.4054490099
 20
8.5093165479
 30
0.0
 10
12.4033584291
 20
8.508307248
 30
0.0
  0
SPLINE
  5
3B5
100
AcDbEntity
  8
0
100
AcDbSpline
 62
7
  6
CONTINUOUS
 70
0
 71
3
 72
28
 73
24
 74
0
 42
0.0000001
 43
0.0000001
 44
0.0000000001
 40
0.0
 40
0.0
 40
0.0
 40
0.0
 40
0.0749525414
 40
0.1455492598
 40
0.2121319828
 40
0.2751267504
 40
0.3350537751
 40
0.3925311517
 40
0.4205831712
 40
0.4482964194
 40
0.4757713564
 40
0.5031112904
 40
0.5304212607
 40
0.5578066529
 40
0.585371914
 40
0.6132193169
 40
0.6414476915
 40
0.6701515776
 40
0.7293157133
 40
0.7913812221
 40
0.8568968201
 40
0.9263175734
 40
1.0
 40
1.0
 40
1.0
 40
1.0
 10
10.3364553604
 20
10.2568191241
 30
0.0
 10
10.3352829707
 20
10.2579101514
 30
0.0
 10
10.3330713165
 20
10.2601005465
 30
0.0
 10
10.3300871065
 20
10.2635178786
 30
0.0
 10
10.3275423705
 20
10.2669622565
 30
0.0
 10
10.3254408665
 20
10.270430796
 30
0.0
 10
10.3237861939
 20
10.2739200355
 30
0.0
 10
10.3227744066
 20
10.2768669166
 30
0.0
 10
10.3221998734
 20
10.2792187134
 30
0.0
 10
10.3218851448
 20
10.2809704578
 30
0.0
 10
10.3216833923
 20
10.2827234463
 30
0.0
 10
10.3215947067
 20
10.2844771797
 30
0.0
 10
10.3216191346
 20
10.2862310711
 30
0.0
 10
10.3217566307
 20
10.2879845544
 30
0.0
 10
10.3220071544
 20
10.2897370674
 30
0.0
 10
10.3223706066
 20
10.2914880376
 30
0.0
 10
10.3228468246
 20
10.2932369804
 30
0.0
 10
10.323639667
 20
10.2955887955
 30
0.0
 10
10.3249251704
 20
10.2985310046
 30
0.0
 10
10.3269000008
 20
10.3020055288
 30
0.0
 10
10.3293192002
 20
10.3054571883
 30
0.0
 10
10.332178898
 20
10.3088824002
 30
0.0
 10
10.3343106823
 20
10.3110785395
 30
0.0
 10
10.3354430571
 20
10.3121723296
 30
0.0
  0
SPLINE
  5
3B6
100
AcDbEntity
  8
0
100
AcDbSpline
 62
7
  6
CONTINUOUS
 70
0
 71
3
 72
55
 73
51
 74
0
 42
0.0000001
 43
0.0000001
 44
0.0000000001
 40
0.0
 40
0.0
 40
0.0
 40
0.0
 40
0.0452110711
 40
0.0910029905
 40
0.1371915847
 40
0.1835900178
 40
0.230010719
 40
0.2762658725
 40
0.3221685558
 40
0.3675336494
 40
0.412178826
 40
0.4559255271
 40
0.4985999616
 40
0.5400341288
 40
0.5800668806
 40
0.6185450438
 40
0.6553246347
 40
0.6902722135
 40
0.7070210811
 40
0.7232675443
 40
0.7389986377
 40
0.7542024492
 40
0.7688681269
 40
0.7829861118
 40
0.796548096
 40
0.8095473804
 40
0.8219788114
 40
0.8338392782
 40
0.8451276804
 40
0.8558455861
 40
0.8659973138
 40
0.8755907874
 40
0.8846378505
 40
0.8931553742
 40
0.9011659319
 40
0.9086991893
 40
0.9157929525
 40
0.9224946273
 40
0.9288621576
 40
0.9349645978
 40
0.9408814796
 40
0.9467007815
 40
0.9525153391
 40
0.9584182322
 40
0.9644981095
 40
0.970835498
 40
0.9775005236
 40
0.9845523031
 40
0.9920391897
 40
1.0
 40
1.0
 40
1.0
 40
1.0
 10
12.4865661866
 20
9.0101698513
 30
0.0
 10
12.4865661866
 20
9.0045198574
 30
0.0
 10
12.4864654217
 20
8.9931470525
 30
0.0
 10
12.4860211046
 20
8.9760073118
 30
0.0
 10
12.485284339
 20
8.958729095
 30
0.0
 10
12.484258274
 20
8.9413869519
 30
0.0
 10
12.482947333
 20
8.9240556697
 30
0.0
 10
12.4813571703
 20
8.9068099809
 30
0.0
 10
12.4794946613
 20
8.8897242517
 30
0.0
 10
12.4773678661
 20
8.8728721499
 30
0.0
 10
12.4749859978
 20
8.8563263274
 30
0.0
 10
12.4723593831
 20
8.8401581015
 30
0.0
 10
12.4694994184
 20
8.8244371436
 30
0.0
 10
12.4664185234
 20
8.8092311682
 30
0.0
 10
12.4631300854
 20
8.7946056476
 30
0.0
 10
12.4596484129
 20
8.7806234599
 30
0.0
 10
12.4559886403
 20
8.7673448029
 30
0.0
 10
12.4527596623
 20
8.7567682086
 30
0.0
 10
12.4500923267
 20
8.7487069515
 30
0.0
 10
12.4480856816
 20
8.7429574671
 30
0.0
 10
12.4460466965
 20
8.7374246896
 30
0.0
 10
12.4439775671
 20
8.7321145564
 30
0.0
 10
12.4418805157
 20
8.7270327722
 30
0.0
 10
12.4397578305
 20
8.722184779
 30
0.0
 10
12.437611768
 20
8.7175757729
 30
0.0
 10
12.4354446763
 20
8.713210666
 30
0.0
 10
12.4332588351
 20
8.7090941214
 30
0.0
 10
12.4310566306
 20
8.7052304914
 30
0.0
 10
12.4288403439
 20
8.7016238819
 30
0.0
 10
12.4266123666
 20
8.6982780602
 30
0.0
 10
12.4243749481
 20
8.6951965554
 30
0.0
 10
12.4221304316
 20
8.6923825363
 30
0.0
 10
12.4198809801
 20
8.6898389564
 30
0.0
 10
12.4176288067
 20
8.6875684124
 30
0.0
 10
12.4153759112
 20
8.6855733464
 30
0.0
 10
12.4131242912
 20
8.6838559163
 30
0.0
 10
12.4108757565
 20
8.6824182631
 30
0.0
 10
12.4086321644
 20
8.6812624227
 30
0.0
 10
12.4063954404
 20
8.6803905755
 30
0.0
 10
12.4041679141
 20
8.6798048801
 30
0.0
 10
12.4019525137
 20
8.6795073726
 30
0.0
 10
12.3997528914
 20
8.6794994861
 30
0.0
 10
12.3975731663
 20
8.6797815996
 30
0.0
 10
12.3954174121
 20
8.680352903
 30
0.0
 10
12.3932891064
 20
8.6812115052
 30
0.0
 10
12.3911909786
 20
8.6823550823
 30
0.0
 10
12.3891250414
 20
8.6837810785
 30
0.0
 10
12.3870929767
 20
8.6854871823
 30
0.0
 10
12.3850963476
 20
8.687470897
 30
0.0
 10
12.3838301905
 20
8.6889305733
 30
0.0
 10
12.3832024669
 20
8.689702391
 30
0.0
  0
SPLINE
  5
3B7
100
AcDbEntity
  8
0
100
AcDbSpline
 62
7
  6
CONTINUOUS
 70
0
 71
3
 72
50
 73
46
 74
0
 42
0.0000001
 43
0.0000001
 44
0.0000000001
 40
0.0
 40
0.0
 40
0.0
 40
0.0
 40
0.0417738367
 40
0.0840373826
 40
0.1266588193
 40
0.1695070323
 40
0.2124487401
 40
0.255350829
 40
0.298080151
 40
0.3405042986
 40
0.3824920528
 40
0.4239139339
 40
0.4646427302
 40
0.5045540425
 40
0.5435268344
 40
0.5814439985
 40
0.6181929465
 40
0.6536662328
 40
0.6877622263
 40
0.7203858531
 40
0.7514494395
 40
0.7808737042
 40
0.8085889706
 40
0.8217875397
 40
0.834537957
 40
0.8468349689
 40
0.8586743072
 40
0.8700528541
 40
0.8809686049
 40
0.8914210826
 40
0.9014111943
 40
0.9109418199
 40
0.9200177276
 40
0.9286462143
 40
0.9368372702
 40
0.9446041888
 40
0.9519640963
 40
0.9589385154
 40
0.9655542214
 40
0.9718437255
 40
0.9778461407
 40
0.9836073222
 40
0.9891800219
 40
0.9946230638
 40
1.0
 40
1.0
 40
1.0
 40
1.0
 10
12.4498238452
 20
9.0046794727
 30
0.0
 10
12.4498238452
 20
9.0002953729
 30
0.0
 10
12.4497554445
 20
8.9914756414
 30
0.0
 10
12.4494530806
 20
8.9781859713
 30
0.0
 10
12.4489512092
 20
8.9647894843
 30
0.0
 10
12.4482515065
 20
8.9513306201
 30
0.0
 10
12.4473562624
 20
8.9378538287
 30
0.0
 10
12.4462684485
 20
8.9244037303
 30
0.0
 10
12.4449916626
 20
8.9110248104
 30
0.0
 10
12.4435301393
 20
8.8977613337
 30
0.0
 10
12.4418887265
 20
8.8846571757
 30
0.0
 10
12.4400728733
 20
8.8717556828
 30
0.0
 10
12.4380886111
 20
8.8590995252
 30
0.0
 10
12.4359425354
 20
8.8467305543
 30
0.0
 10
12.4336417827
 20
8.834689662
 30
0.0
 10
12.4311940078
 20
8.8230166431
 30
0.0
 10
12.4286073593
 20
8.8117500599
 30
0.0
 10
12.4258904526
 20
8.800927111
 30
0.0
 10
12.4230523415
 20
8.7905834976
 30
0.0
 10
12.4201024873
 20
8.7807533129
 30
0.0
 10
12.4170507285
 20
8.7714688578
 30
0.0
 10
12.4139072294
 20
8.7627607221
 30
0.0
 10
12.4111772993
 20
8.7559004184
 30
0.0
 10
12.4089493905
 20
8.7507275038
 30
0.0
 10
12.4072893063
 20
8.7470727178
 30
0.0
 10
12.405614175
 20
8.743582363
 30
0.0
 10
12.4039253485
 20
8.7402593045
 30
0.0
 10
12.4022242471
 20
8.7371062549
 30
0.0
 10
12.400512227
 20
8.7341258039
 30
0.0
 10
12.3987907357
 20
8.7313203597
 30
0.0
 10
12.3970611164
 20
8.7286922229
 30
0.0
 10
12.3953248153
 20
8.7262434933
 30
0.0
 10
12.3935831664
 20
8.7239761672
 30
0.0
 10
12.3918375694
 20
8.7218920453
 30
0.0
 10
12.3900893438
 20
8.7199928098
 30
0.0
 10
12.3883397974
 20
8.7182799926
 30
0.0
 10
12.3865902124
 20
8.7167549775
 30
0.0
 10
12.3848417777
 20
8.715419094
 30
0.0
 10
12.3830957212
 20
8.7142735011
 30
0.0
 10
12.3813531616
 20
8.7133194384
 30
0.0
 10
12.3796153426
 20
8.7125579765
 30
0.0
 10
12.3778835565
 20
8.7119903408
 30
0.0
 10
12.3761592663
 20
8.7116175514
 30
0.0
 10
12.3744445431
 20
8.7114405648
 30
0.0
 10
12.373306114
 20
8.7114535689
 30
0.0
 10
12.3727431647
 20
8.7114926051
 30
0.0
  0
SPLINE
  5
3B8
100
AcDbEntity
  8
0
100
AcDbSpline
 62
7
  6
CONTINUOUS
 70
0
 71
3
 72
54
 73
50
 74
0
 42
0.0000001
 43
0.0000001
 44
0.0000000001
 40
0.0
 40
0.0
 40
0.0
 40
0.0
 40
0.0532128765
 40
0.1056341964
 40
0.1571449529
 40
0.2076354589
 40
0.2569955515
 40
0.3051196132
 40
0.351905789
 40
0.3972564476
 40
0.4410787524
 40
0.4832851135
 40
0.5237938475
 40
0.5625297723
 40
0.5994249528
 40
0.6344196323
 40
0.6674634611
 40
0.6985169713
 40
0.7132893112
 40
0.7275552465
 40
0.7413138804
 40
0.7545655453
 40
0.7673117086
 40
0.7795555243
 40
0.7913016652
 40
0.8025567013
 40
0.8133294757
 40
0.8236310954
 40
0.833475654
 40
0.8428803788
 40
0.8518660949
 40
0.860457898
 40
0.8686853185
 40
0.8765830128
 40
0.8841909613
 40
0.8915545207
 40
0.8987243999
 40
0.9057558956
 40
0.9127079777
 40
0.91964183
 40
0.9266191607
 40
0.9337004254
 40
0.9409432506
 40
0.948401168
 40
0.9641397486
 40
0.9725126414
 40
0.9812625886
 40
0.9904173188
 40
1.0
 40
1.0
 40
1.0
 40
1.0
 10
12.4865661866
 20
9.0101698513
 30
0.0
 10
12.4865661866
 20
9.0143050857
 30
0.0
 10
12.4865129166
 20
9.0225141514
 30
0.0
 10
12.4862697664
 20
9.0347240084
 30
0.0
 10
12.4858644598
 20
9.0467179232
 30
0.0
 10
12.4852980289
 20
9.0584671657
 30
0.0
 10
12.48457181
 20
9.0699439476
 30
0.0
 10
12.4836875695
 20
9.0811209277
 30
0.0
 10
12.4826474456
 20
9.0919715574
 30
0.0
 10
12.481453948
 20
9.1024700604
 30
0.0
 10
12.4801099561
 20
9.1125915033
 30
0.0
 10
12.4786187073
 20
9.1223118688
 30
0.0
 10
12.4769838058
 20
9.1316081159
 30
0.0
 10
12.4752091976
 20
9.1404582443
 30
0.0
 10
12.4732991609
 20
9.148841331
 30
0.0
 10
12.4712582896
 20
9.1567376547
 30
0.0
 10
12.4690914776
 20
9.1641285544
 30
0.0
 10
12.4671542786
 20
9.1699452328
 30
0.0
 10
12.4655395804
 20
9.174327333
 30
0.0
 10
12.4643204984
 20
9.1774219679
 30
0.0
 10
12.4630738881
 20
9.1803777922
 30
0.0
 10
12.4618004927
 20
9.1831930834
 30
0.0
 10
12.4605010196
 20
9.1858661752
 30
0.0
 10
12.4591762613
 20
9.1883955188
 30
0.0
 10
12.4578269678
 20
9.1907796361
 30
0.0
 10
12.4564538915
 20
9.1930171309
 30
0.0
 10
12.4550578457
 20
9.1951067271
 30
0.0
 10
12.4536395547
 20
9.1970471872
 30
0.0
 10
12.4521998168
 20
9.1988373994
 30
0.0
 10
12.4507393932
 20
9.2004763183
 30
0.0
 10
12.4492590021
 20
9.2019629333
 30
0.0
 10
12.4477594354
 20
9.2032963669
 30
0.0
 10
12.4462413938
 20
9.2044757055
 30
0.0
 10
12.444705649
 20
9.2055001182
 30
0.0
 10
12.4431530058
 20
9.2063688148
 30
0.0
 10
12.4415842922
 20
9.2070809405
 30
0.0
 10
12.4400005106
 20
9.2076358214
 30
0.0
 10
12.4384027376
 20
9.208032761
 30
0.0
 10
12.4367922133
 20
9.2082712515
 30
0.0
 10
12.4351702773
 20
9.2083510599
 30
0.0
 10
12.4335382955
 20
9.2082720543
 30
0.0
 10
12.4318976337
 20
9.208034522
 30
0.0
 10
12.4302494408
 20
9.2076387868
 30
0.0
 10
12.4280037703
 20
9.2068877627
 30
0.0
 10
12.4257817189
 20
9.2058216174
 30
0.0
 10
12.423603664
 20
9.2044864166
 30
0.0
 10
12.4219332146
 20
9.2033092983
 30
0.0
 10
12.4202612673
 20
9.2019782307
 30
0.0
 10
12.4191715115
 20
9.2010113489
 30
0.0
 10
12.4186263932
 20
9.2005040066
 30
0.0
  0
SPLINE
  5
3B9
100
AcDbEntity
  8
0
100
AcDbSpline
 62
7
  6
CONTINUOUS
 70
0
 71
3
 72
38
 73
34
 74
0
 42
0.0000001
 43
0.0000001
 44
0.0000000001
 40
0.0
 40
0.0
 40
0.0
 40
0.0
 40
0.0964143705
 40
0.1901888246
 40
0.280758669
 40
0.3246724652
 40
0.3675849797
 40
0.4094337339
 40
0.4501588662
 40
0.4897031149
 40
0.528011967
 40
0.565034225
 40
0.600721968
 40
0.6350310144
 40
0.6679214645
 40
0.6993578104
 40
0.7293098167
 40
0.7577531215
 40
0.7846698684
 40
0.81005021
 40
0.8338934
 40
0.8562096384
 40
0.8770227852
 40
0.8963731045
 40
0.9143215844
 40
0.9309551394
 40
0.9463924437
 40
0.9607907557
 40
0.9743510637
 40
0.9808968266
 40
0.9873288844
 40
0.9936838997
 40
1.0
 40
1.0
 40
1.0
 40
1.0
 10
12.4498238452
 20
9.0046794727
 30
0.0
 10
12.4498238452
 20
9.0107571434
 30
0.0
 10
12.4496951073
 20
9.022746557
 30
0.0
 10
12.4491018768
 20
9.0404362827
 30
0.0
 10
12.4482712804
 20
9.0548027003
 30
0.0
 10
12.447404334
 20
9.0659518513
 30
0.0
 10
12.4466645963
 20
9.0740296134
 30
0.0
 10
12.4458299071
 20
9.0818960223
 30
0.0
 10
12.4449016557
 20
9.0895381239
 30
0.0
 10
12.4438813972
 20
9.0969433244
 30
0.0
 10
12.4427708109
 20
9.1040994284
 30
0.0
 10
12.4415717702
 20
9.1109946588
 30
0.0
 10
12.4402862636
 20
9.1176176753
 30
0.0
 10
12.4389164222
 20
9.1239575955
 30
0.0
 10
12.4374645502
 20
9.1300040207
 30
0.0
 10
12.4359330395
 20
9.1357470466
 30
0.0
 10
12.4343244366
 20
9.1411772927
 30
0.0
 10
12.4326414189
 20
9.1462859239
 30
0.0
 10
12.430886723
 20
9.1510646565
 30
0.0
 10
12.4290632305
 20
9.1555058043
 30
0.0
 10
12.4271738696
 20
9.159602283
 30
0.0
 10
12.4252215733
 20
9.1633476163
 30
0.0
 10
12.423209322
 20
9.1667359877
 30
0.0
 10
12.4211399601
 20
9.1697621771
 30
0.0
 10
12.4190161508
 20
9.1724215297
 30
0.0
 10
12.4168403888
 20
9.174709847
 30
0.0
 10
12.4146146071
 20
9.1766230788
 30
0.0
 10
12.4123412655
 20
9.1781568607
 30
0.0
 10
12.4103852075
 20
9.1791262452
 30
0.0
 10
12.4088109913
 20
9.1796964185
 30
0.0
 10
12.4076353479
 20
9.1800223318
 30
0.0
 10
12.4064518296
 20
9.1802511206
 30
0.0
 10
12.405656869
 20
9.1803388879
 30
0.0
 10
12.4052596749
 20
9.1803664303
 30
0.0
  0
SPLINE
  5
3BA
100
AcDbEntity
  8
0
100
AcDbSpline
 62
7
  6
CONTINUOUS
 70
0
 71
3
 72
36
 73
32
 74
0
 42
0.0000001
 43
0.0000001
 44
0.0000000001
 40
0.0
 40
0.0
 40
0.0
 40
0.0
 40
0.0901447291
 40
0.1781476154
 40
0.2635875481
 40
0.3052193325
 40
0.3460597188
 40
0.3860611567
 40
0.4251775997
 40
0.4633646591
 40
0.5005795968
 40
0.5367815381
 40
0.5719316797
 40
0.6059932993
 40
0.6389320474
 40
0.6707161869
 40
0.7013166767
 40
0.7307075946
 40
0.7588664637
 40
0.7857745061
 40
0.8114173037
 40
0.8357853529
 40
0.8588746926
 40
0.880688047
 40
0.9012359387
 40
0.9205381303
 40
0.9386257675
 40
0.9555437002
 40
0.9713534417
 40
0.9861368831
 40
1.0
 40
1.0
 40
1.0
 40
1.0
 10
12.5318594821
 20
7.9971968612
 30
0.0
 10
12.5318594821
 20
8.0073426531
 30
0.0
 10
12.5316674303
 20
8.0273938039
 30
0.0
 10
12.530784678
 20
8.0570494045
 30
0.0
 10
12.5295497738
 20
8.0812267224
 30
0.0
 10
12.5282614433
 20
8.100081632
 30
0.0
 10
12.5271594254
 20
8.1138222642
 30
0.0
 10
12.5259148086
 20
8.1272664333
 30
0.0
 10
12.5245292073
 20
8.1403965796
 30
0.0
 10
12.5230044707
 20
8.1531955392
 30
0.0
 10
12.5213425982
 20
8.1656465876
 30
0.0
 10
12.5195457744
 20
8.1777334588
 30
0.0
 10
12.5176163866
 20
8.1894403715
 30
0.0
 10
12.5155569652
 20
8.2007520443
 30
0.0
 10
12.5133702216
 20
8.211653722
 30
0.0
 10
12.5110590561
 20
8.2221311989
 30
0.0
 10
12.5086264957
 20
8.2321708311
 30
0.0
 10
12.5060757423
 20
8.2417595649
 30
0.0
 10
12.5034101661
 20
8.2508849602
 30
0.0
 10
12.5006332404
 20
8.2595351965
 30
0.0
 10
12.4977485978
 20
8.26769911
 30
0.0
 10
12.4947600031
 20
8.2753662134
 30
0.0
 10
12.4916712785
 20
8.282526696
 30
0.0
 10
12.4884863619
 20
8.2891714697
 30
0.0
 10
12.4852092365
 20
8.295292179
 30
0.0
 10
12.4818438423
 20
8.3008811717
 30
0.0
 10
12.478394077
 20
8.305931554
 30
0.0
 10
12.4748637719
 20
8.3104370549
 30
0.0
 10
12.4712562029
 20
8.3143921047
 30
0.0
 10
12.4675754006
 20
8.3177909444
 30
0.0
 10
12.4649982935
 20
8.319740133
 30
0.0
 10
12.4637021411
 20
8.3206087567
 30
0.0
  0
SPLINE
  5
3BB
100
AcDbEntity
  8
0
100
AcDbSpline
 62
7
  6
CONTINUOUS
 70
0
 71
3
 72
49
 73
45
 74
0
 42
0.0000001
 43
0.0000001
 44
0.0000000001
 40
0.0
 40
0.0
 40
0.0
 40
0.0
 40
0.0396361277
 40
0.07970966
 40
0.120114895
 40
0.1607454582
 40
0.2014939489
 40
0.2422526853
 40
0.2829139087
 40
0.323370202
 40
0.3635148323
 40
0.4032421199
 40
0.4424478021
 40
0.481029402
 40
0.5188866023
 40
0.5559216258
 40
0.592039627
 40
0.6271490975
 40
0.6611622927
 40
0.6939956869
 40
0.7255704697
 40
0.755813099
 40
0.7846559356
 40
0.7985334431
 40
0.812038733
 40
0.8251653637
 40
0.8379074641
 40
0.8502597095
 40
0.8622174607
 40
0.8737767091
 40
0.8849342763
 40
0.8956877388
 40
0.90603569
 40
0.9159776631
 40
0.9255144574
 40
0.9346480849
 40
0.9433821665
 40
0.951721935
 40
0.9596747096
 40
0.9672499952
 40
0.97446004
 40
0.9813200639
 40
0.9878488848
 40
1.0
 40
1.0
 40
1.0
 40
1.0
 10
12.5318594821
 20
7.9971968612
 30
0.0
 10
12.5318594821
 20
7.9896243868
 30
0.0
 10
12.5317505172
 20
7.9743956678
 30
0.0
 10
12.531268143
 20
7.9514521288
 30
0.0
 10
12.53046713
 20
7.9283273704
 30
0.0
 10
12.5293497308
 20
7.9050866637
 30
0.0
 10
12.5279190788
 20
7.8817954738
 30
0.0
 10
12.5261792074
 20
7.8585194673
 30
0.0
 10
12.5241350209
 20
7.8353242456
 30
0.0
 10
12.52179229
 20
7.8122751888
 30
0.0
 10
12.5191576312
 20
7.7894372601
 30
0.0
 10
12.5162384901
 20
7.7668748249
 30
0.0
 10
12.5130431202
 20
7.7446514672
 30
0.0
 10
12.5095805599
 20
7.7228298085
 30
0.0
 10
12.5058606074
 20
7.7014713304
 30
0.0
 10
12.5018937938
 20
7.6806361979
 30
0.0
 10
12.4976913539
 20
7.6603830874
 30
0.0
 10
12.4932651946
 20
7.6407690186
 30
0.0
 10
12.4886278628
 20
7.6218491838
 30
0.0
 10
12.4837925082
 20
7.6036768027
 30
0.0
 10
12.4787728508
 20
7.5863029058
 30
0.0
 10
12.4735831244
 20
7.5697763806
 30
0.0
 10
12.4690728797
 20
7.5565847257
 30
0.0
 10
12.4653835367
 20
7.5464959192
 30
0.0
 10
12.4626188171
 20
7.5392669456
 30
0.0
 10
12.4598227309
 20
7.5322831663
 30
0.0
 10
12.4569972484
 20
7.5255494761
 30
0.0
 10
12.4541443441
 20
7.5190706085
 30
0.0
 10
12.4512660556
 20
7.5128510992
 30
0.0
 10
12.4483643752
 20
7.5068953141
 30
0.0
 10
12.445441382
 20
7.5012074079
 30
0.0
 10
12.4424990818
 20
7.4957913673
 30
0.0
 10
12.4395395828
 20
7.4906509501
 30
0.0
 10
12.4365648944
 20
7.485789752
 30
0.0
 10
12.4335771381
 20
7.4812111202
 30
0.0
 10
12.4305783121
 20
7.476918249
 30
0.0
 10
12.4275705299
 20
7.4729140661
 30
0.0
 10
12.424555755
 20
7.469201358
 30
0.0
 10
12.4215360732
 20
7.4657826424
 30
0.0
 10
12.4185133426
 20
7.4626602799
 30
0.0
 10
12.4154897314
 20
7.4598365013
 30
0.0
 10
12.4124664465
 20
7.4573129454
 30
0.0
 10
12.4085344368
 20
7.4544213299
 30
0.0
 10
12.4054490099
 20
7.4525935912
 30
0.0
 10
12.4033584291
 20
7.4515842913
 30
0.0
  0
SPLINE
  5
3BC
100
AcDbEntity
  8
0
100
AcDbSpline
 62
7
  6
CONTINUOUS
 70
0
 71
3
 72
55
 73
51
 74
0
 42
0.0000001
 43
0.0000001
 44
0.0000000001
 40
0.0
 40
0.0
 40
0.0
 40
0.0
 40
0.0452110711
 40
0.0910029905
 40
0.1371915847
 40
0.1835900178
 40
0.230010719
 40
0.2762658725
 40
0.3221685558
 40
0.3675336494
 40
0.412178826
 40
0.4559255271
 40
0.4985999616
 40
0.5400341288
 40
0.5800668806
 40
0.6185450438
 40
0.6553246347
 40
0.6902722135
 40
0.7070210811
 40
0.7232675443
 40
0.7389986377
 40
0.7542024492
 40
0.7688681269
 40
0.7829861118
 40
0.796548096
 40
0.8095473804
 40
0.8219788114
 40
0.8338392782
 40
0.8451276804
 40
0.8558455861
 40
0.8659973138
 40
0.8755907874
 40
0.8846378505
 40
0.8931553742
 40
0.9011659319
 40
0.9086991893
 40
0.9157929525
 40
0.9224946273
 40
0.9288621576
 40
0.9349645978
 40
0.9408814796
 40
0.9467007815
 40
0.9525153391
 40
0.9584182322
 40
0.9644981095
 40
0.970835498
 40
0.9775005236
 40
0.9845523031
 40
0.9920391897
 40
1.0
 40
1.0
 40
1.0
 40
1.0
 10
12.4865661866
 20
7.9534468947
 30
0.0
 10
12.4865661866
 20
7.9477969007
 30
0.0
 10
12.4864654217
 20
7.9364240959
 30
0.0
 10
12.4860211046
 20
7.9192843551
 30
0.0
 10
12.485284339
 20
7.9020061383
 30
0.0
 10
12.484258274
 20
7.8846639953
 30
0.0
 10
12.482947333
 20
7.867332713
 30
0.0
 10
12.4813571703
 20
7.8500870243
 30
0.0
 10
12.4794946613
 20
7.833001295
 30
0.0
 10
12.4773678661
 20
7.8161491933
 30
0.0
 10
12.4749859978
 20
7.7996033708
 30
0.0
 10
12.4723593831
 20
7.7834351448
 30
0.0
 10
12.4694994184
 20
7.767714187
 30
0.0
 10
12.4664185234
 20
7.7525082116
 30
0.0
 10
12.4631300854
 20
7.7378826909
 30
0.0
 10
12.4596484129
 20
7.7239005033
 30
0.0
 10
12.4559886403
 20
7.7106218463
 30
0.0
 10
12.4527596623
 20
7.700045252
 30
0.0
 10
12.4500923267
 20
7.6919839949
 30
0.0
 10
12.4480856816
 20
7.6862345105
 30
0.0
 10
12.4460466965
 20
7.680701733
 30
0.0
 10
12.4439775671
 20
7.6753915998
 30
0.0
 10
12.4418805157
 20
7.6703098155
 30
0.0
 10
12.4397578305
 20
7.6654618223
 30
0.0
 10
12.437611768
 20
7.6608528163
 30
0.0
 10
12.4354446763
 20
7.6564877094
 30
0.0
 10
12.4332588351
 20
7.6523711647
 30
0.0
 10
12.4310566306
 20
7.6485075348
 30
0.0
 10
12.4288403439
 20
7.6449009253
 30
0.0
 10
12.4266123666
 20
7.6415551035
 30
0.0
 10
12.4243749481
 20
7.6384735988
 30
0.0
 10
12.4221304316
 20
7.6356595796
 30
0.0
 10
12.4198809801
 20
7.6331159998
 30
0.0
 10
12.4176288067
 20
7.6308454558
 30
0.0
 10
12.4153759112
 20
7.6288503897
 30
0.0
 10
12.4131242912
 20
7.6271329597
 30
0.0
 10
12.4108757565
 20
7.6256953065
 30
0.0
 10
12.4086321644
 20
7.624539466
 30
0.0
 10
12.4063954404
 20
7.6236676188
 30
0.0
 10
12.4041679141
 20
7.6230819234
 30
0.0
 10
12.4019525137
 20
7.622784416
 30
0.0
 10
12.3997528914
 20
7.6227765295
 30
0.0
 10
12.3975731663
 20
7.623058643
 30
0.0
 10
12.3954174121
 20
7.6236299463
 30
0.0
 10
12.3932891064
 20
7.6244885486
 30
0.0
 10
12.3911909786
 20
7.6256321257
 30
0.0
 10
12.3891250414
 20
7.6270581219
 30
0.0
 10
12.3870929767
 20
7.6287642257
 30
0.0
 10
12.3850963476
 20
7.6307479403
 30
0.0
 10
12.3838301905
 20
7.6322076166
 30
0.0
 10
12.3832024669
 20
7.6329794344
 30
0.0
  0
SPLINE
  5
3BD
100
AcDbEntity
  8
0
100
AcDbSpline
 62
7
  6
CONTINUOUS
 70
0
 71
3
 72
50
 73
46
 74
0
 42
0.0000001
 43
0.0000001
 44
0.0000000001
 40
0.0
 40
0.0
 40
0.0
 40
0.0
 40
0.0417738367
 40
0.0840373826
 40
0.1266588193
 40
0.1695070323
 40
0.2124487401
 40
0.255350829
 40
0.298080151
 40
0.3405042986
 40
0.3824920528
 40
0.4239139339
 40
0.4646427302
 40
0.5045540425
 40
0.5435268344
 40
0.5814439985
 40
0.6181929465
 40
0.6536662328
 40
0.6877622263
 40
0.7203858531
 40
0.7514494395
 40
0.7808737042
 40
0.8085889706
 40
0.8217875397
 40
0.834537957
 40
0.8468349689
 40
0.8586743072
 40
0.8700528541
 40
0.8809686049
 40
0.8914210826
 40
0.9014111943
 40
0.9109418199
 40
0.9200177276
 40
0.9286462143
 40
0.9368372702
 40
0.9446041888
 40
0.9519640963
 40
0.9589385154
 40
0.9655542214
 40
0.9718437255
 40
0.9778461407
 40
0.9836073222
 40
0.9891800219
 40
0.9946230638
 40
1.0
 40
1.0
 40
1.0
 40
1.0
 10
12.4498238452
 20
7.9479565161
 30
0.0
 10
12.4498238452
 20
7.9435724163
 30
0.0
 10
12.4497554445
 20
7.9347526847
 30
0.0
 10
12.4494530806
 20
7.9214630146
 30
0.0
 10
12.4489512092
 20
7.9080665276
 30
0.0
 10
12.4482515065
 20
7.8946076634
 30
0.0
 10
12.4473562624
 20
7.8811308721
 30
0.0
 10
12.4462684485
 20
7.8676807737
 30
0.0
 10
12.4449916626
 20
7.8543018537
 30
0.0
 10
12.4435301393
 20
7.8410383771
 30
0.0
 10
12.4418887265
 20
7.8279342191
 30
0.0
 10
12.4400728733
 20
7.8150327262
 30
0.0
 10
12.4380886111
 20
7.8023765686
 30
0.0
 10
12.4359425354
 20
7.7900075976
 30
0.0
 10
12.4336417827
 20
7.7779667053
 30
0.0
 10
12.4311940078
 20
7.7662936864
 30
0.0
 10
12.4286073593
 20
7.7550271032
 30
0.0
 10
12.4258904526
 20
7.7442041544
 30
0.0
 10
12.4230523415
 20
7.733860541
 30
0.0
 10
12.4201024873
 20
7.7240303562
 30
0.0
 10
12.4170507285
 20
7.7147459012
 30
0.0
 10
12.4139072294
 20
7.7060377654
 30
0.0
 10
12.4111772993
 20
7.6991774618
 30
0.0
 10
12.4089493905
 20
7.6940045472
 30
0.0
 10
12.4072893063
 20
7.6903497611
 30
0.0
 10
12.405614175
 20
7.6868594064
 30
0.0
 10
12.4039253485
 20
7.6835363478
 30
0.0
 10
12.4022242471
 20
7.6803832982
 30
0.0
 10
12.400512227
 20
7.6774028472
 30
0.0
 10
12.3987907357
 20
7.6745974031
 30
0.0
 10
12.3970611164
 20
7.6719692663
 30
0.0
 10
12.3953248153
 20
7.6695205367
 30
0.0
 10
12.3935831664
 20
7.6672532105
 30
0.0
 10
12.3918375694
 20
7.6651690886
 30
0.0
 10
12.3900893438
 20
7.6632698532
 30
0.0
 10
12.3883397974
 20
7.661557036
 30
0.0
 10
12.3865902124
 20
7.6600320209
 30
0.0
 10
12.3848417777
 20
7.6586961374
 30
0.0
 10
12.3830957212
 20
7.6575505445
 30
0.0
 10
12.3813531616
 20
7.6565964817
 30
0.0
 10
12.3796153426
 20
7.6558350199
 30
0.0
 10
12.3778835565
 20
7.6552673841
 30
0.0
 10
12.3761592663
 20
7.6548945948
 30
0.0
 10
12.3744445431
 20
7.6547176082
 30
0.0
 10
12.373306114
 20
7.6547306122
 30
0.0
 10
12.3727431647
 20
7.6547696485
 30
0.0
  0
SPLINE
  5
3BE
100
AcDbEntity
  8
0
100
AcDbSpline
 62
7
  6
CONTINUOUS
 70
0
 71
3
 72
54
 73
50
 74
0
 42
0.0000001
 43
0.0000001
 44
0.0000000001
 40
0.0
 40
0.0
 40
0.0
 40
0.0
 40
0.0532128765
 40
0.1056341964
 40
0.1571449529
 40
0.2076354589
 40
0.2569955515
 40
0.3051196132
 40
0.351905789
 40
0.3972564476
 40
0.4410787524
 40
0.4832851135
 40
0.5237938475
 40
0.5625297723
 40
0.5994249528
 40
0.6344196323
 40
0.6674634611
 40
0.6985169713
 40
0.7132893112
 40
0.7275552465
 40
0.7413138804
 40
0.7545655453
 40
0.7673117086
 40
0.7795555243
 40
0.7913016652
 40
0.8025567013
 40
0.8133294757
 40
0.8236310954
 40
0.833475654
 40
0.8428803788
 40
0.8518660949
 40
0.860457898
 40
0.8686853185
 40
0.8765830128
 40
0.8841909613
 40
0.8915545207
 40
0.8987243999
 40
0.9057558956
 40
0.9127079777
 40
0.91964183
 40
0.9266191607
 40
0.9337004254
 40
0.9409432506
 40
0.948401168
 40
0.9641397486
 40
0.9725126414
 40
0.9812625886
 40
0.9904173188
 40
1.0
 40
1.0
 40
1.0
 40
1.0
 10
12.4865661866
 20
7.9534468947
 30
0.0
 10
12.4865661866
 20
7.957582129
 30
0.0
 10
12.4865129166
 20
7.9657911947
 30
0.0
 10
12.4862697664
 20
7.9780010517
 30
0.0
 10
12.4858644598
 20
7.9899949665
 30
0.0
 10
12.4852980289
 20
8.001744209
 30
0.0
 10
12.48457181
 20
8.013220991
 30
0.0
 10
12.4836875695
 20
8.0243979711
 30
0.0
 10
12.4826474456
 20
8.0352486008
 30
0.0
 10
12.481453948
 20
8.0457471037
 30
0.0
 10
12.4801099561
 20
8.0558685467
 30
0.0
 10
12.4786187073
 20
8.0655889122
 30
0.0
 10
12.4769838058
 20
8.0748851592
 30
0.0
 10
12.4752091976
 20
8.0837352876
 30
0.0
 10
12.4732991609
 20
8.0921183743
 30
0.0
 10
12.4712582896
 20
8.100014698
 30
0.0
 10
12.4690914776
 20
8.1074055977
 30
0.0
 10
12.4671542786
 20
8.1132222761
 30
0.0
 10
12.4655395804
 20
8.1176043763
 30
0.0
 10
12.4643204984
 20
8.1206990113
 30
0.0
 10
12.4630738881
 20
8.1236548356
 30
0.0
 10
12.4618004927
 20
8.1264701267
 30
0.0
 10
12.4605010196
 20
8.1291432186
 30
0.0
 10
12.4591762613
 20
8.1316725622
 30
0.0
 10
12.4578269678
 20
8.1340566794
 30
0.0
 10
12.4564538915
 20
8.1362941743
 30
0.0
 10
12.4550578457
 20
8.1383837705
 30
0.0
 10
12.4536395547
 20
8.1403242305
 30
0.0
 10
12.4521998168
 20
8.1421144427
 30
0.0
 10
12.4507393932
 20
8.1437533616
 30
0.0
 10
12.4492590021
 20
8.1452399767
 30
0.0
 10
12.4477594354
 20
8.1465734103
 30
0.0
 10
12.4462413938
 20
8.1477527488
 30
0.0
 10
12.444705649
 20
8.1487771615
 30
0.0
 10
12.4431530058
 20
8.1496458582
 30
0.0
 10
12.4415842922
 20
8.1503579839
 30
0.0
 10
12.4400005106
 20
8.1509128647
 30
0.0
 10
12.4384027376
 20
8.1513098043
 30
0.0
 10
12.4367922133
 20
8.1515482948
 30
0.0
 10
12.4351702773
 20
8.1516281032
 30
0.0
 10
12.4335382955
 20
8.1515490976
 30
0.0
 10
12.4318976337
 20
8.1513115653
 30
0.0
 10
12.4302494408
 20
8.1509158302
 30
0.0
 10
12.4280037703
 20
8.1501648061
 30
0.0
 10
12.4257817189
 20
8.1490986608
 30
0.0
 10
12.423603664
 20
8.14776346
 30
0.0
 10
12.4219332146
 20
8.1465863417
 30
0.0
 10
12.4202612673
 20
8.1452552741
 30
0.0
 10
12.4191715115
 20
8.1442883922
 30
0.0
 10
12.4186263932
 20
8.1437810499
 30
0.0
  0
SPLINE
  5
3BF
100
AcDbEntity
  8
0
100
AcDbSpline
 62
7
  6
CONTINUOUS
 70
0
 71
3
 72
38
 73
34
 74
0
 42
0.0000001
 43
0.0000001
 44
0.0000000001
 40
0.0
 40
0.0
 40
0.0
 40
0.0
 40
0.0964143705
 40
0.1901888246
 40
0.280758669
 40
0.3246724652
 40
0.3675849797
 40
0.4094337339
 40
0.4501588662
 40
0.4897031149
 40
0.528011967
 40
0.565034225
 40
0.600721968
 40
0.6350310144
 40
0.6679214645
 40
0.6993578104
 40
0.7293098167
 40
0.7577531215
 40
0.7846698684
 40
0.81005021
 40
0.8338934
 40
0.8562096384
 40
0.8770227852
 40
0.8963731045
 40
0.9143215844
 40
0.9309551394
 40
0.9463924437
 40
0.9607907557
 40
0.9743510637
 40
0.9808968266
 40
0.9873288844
 40
0.9936838997
 40
1.0
 40
1.0
 40
1.0
 40
1.0
 10
12.4498238452
 20
7.9479565161
 30
0.0
 10
12.4498238452
 20
7.9540341868
 30
0.0
 10
12.4496951073
 20
7.9660236003
 30
0.0
 10
12.4491018768
 20
7.9837133261
 30
0.0
 10
12.4482712804
 20
7.9980797436
 30
0.0
 10
12.447404334
 20
8.0092288947
 30
0.0
 10
12.4466645963
 20
8.0173066568
 30
0.0
 10
12.4458299071
 20
8.0251730657
 30
0.0
 10
12.4449016557
 20
8.0328151673
 30
0.0
 10
12.4438813972
 20
8.0402203677
 30
0.0
 10
12.4427708109
 20
8.0473764718
 30
0.0
 10
12.4415717702
 20
8.0542717022
 30
0.0
 10
12.4402862636
 20
8.0608947187
 30
0.0
 10
12.4389164222
 20
8.0672346389
 30
0.0
 10
12.4374645502
 20
8.0732810641
 30
0.0
 10
12.4359330395
 20
8.0790240899
 30
0.0
 10
12.4343244366
 20
8.0844543361
 30
0.0
 10
12.4326414189
 20
8.0895629673
 30
0.0
 10
12.430886723
 20
8.0943416999
 30
0.0
 10
12.4290632305
 20
8.0987828476
 30
0.0
 10
12.4271738696
 20
8.1028793264
 30
0.0
 10
12.4252215733
 20
8.1066246597
 30
0.0
 10
12.423209322
 20
8.110013031
 30
0.0
 10
12.4211399601
 20
8.1130392205
 30
0.0
 10
12.4190161508
 20
8.115698573
 30
0.0
 10
12.4168403888
 20
8.1179868903
 30
0.0
 10
12.4146146071
 20
8.1199001222
 30
0.0
 10
12.4123412655
 20
8.1214339041
 30
0.0
 10
12.4103852075
 20
8.1224032885
 30
0.0
 10
12.4088109913
 20
8.1229734619
 30
0.0
 10
12.4076353479
 20
8.1232993752
 30
0.0
 10
12.4064518296
 20
8.1235281639
 30
0.0
 10
12.405656869
 20
8.1236159313
 30
0.0
 10
12.4052596749
 20
8.1236434736
 30
0.0
  0
SPLINE
  5
3C0
100
AcDbEntity
  8
0
100
AcDbSpline
 62
4
  6
CONTINUOUS
 70
0
 71
3
 72
403
 73
399
 74
0
 42
0.0000001
 43
0.0000001
 44
0.0000000001
 40
0.0
 40
0.0
 40
0.0
 40
0.0
 40
0.015625
 40
0.0234375
 40
0.03125
 40
0.0390625
 40
0.04296875
 40
0.046875
 40
0.05078125
 40
0.0546875
 40
0.056640625
 40
0.05859375
 40
0.0595703125
 40
0.060546875
 40
0.0615234375
 40
0.0620117188
 40
0.0622558594
 40
0.0625
 40
0.0627441406
 40
0.0629882812
 40
0.0634765625
 40
0.064453125
 40
0.0654296875
 40
0.06640625
 40
0.068359375
 40
0.0703125
 40
0.07421875
 40
0.078125
 40
0.08203125
 40
0.0859375
 40
0.09375
 40
0.1015625
 40
0.10546875
 40
0.109375
 40
0.11328125
 40
0.1171875
 40
0.119140625
 40
0.12109375
 40
0.1220703125
 40
0.123046875
 40
0.1240234375
 40
0.1245117188
 40
0.1247558594
 40
0.125
 40
0.1252441406
 40
0.1254882812
 40
0.1259765625
 40
0.126953125
 40
0.1279296875
 40
0.12890625
 40
0.130859375
 40
0.1328125
 40
0.13671875
 40
0.140625
 40
0.14453125
 40
0.1484375
 40
0.15625
 40
0.1640625
 40
0.16796875
 40
0.171875
 40
0.17578125
 40
0.1796875
 40
0.181640625
 40
0.18359375
 40
0.1845703125
 40
0.185546875
 40
0.1865234375
 40
0.1870117188
 40
0.1872558594
 40
0.1875
 40
0.1877441406
 40
0.1879882812
 40
0.1884765625
 40
0.189453125
 40
0.1904296875
 40
0.19140625
 40
0.193359375
 40
0.1953125
 40
0.19921875
 40
0.203125
 40
0.20703125
 40
0.2109375
 40
0.21875
 40
0.2265625
 40
0.23046875
 40
0.234375
 40
0.23828125
 40
0.2421875
 40
0.244140625
 40
0.24609375
 40
0.2470703125
 40
0.248046875
 40
0.2490234375
 40
0.2495117188
 40
0.2497558594
 40
0.25
 40
0.2502441406
 40
0.2504882812
 40
0.2509765625
 40
0.251953125
 40
0.2529296875
 40
0.25390625
 40
0.255859375
 40
0.2578125
 40
0.26171875
 40
0.265625
 40
0.26953125
 40
0.2734375
 40
0.28125
 40
0.2890625
 40
0.29296875
 40
0.296875
 40
0.30078125
 40
0.3046875
 40
0.306640625
 40
0.30859375
 40
0.3095703125
 40
0.310546875
 40
0.3115234375
 40
0.3120117188
 40
0.3122558594
 40
0.3125
 40
0.3127441406
 40
0.3129882812
 40
0.3134765625
 40
0.314453125
 40
0.3154296875
 40
0.31640625
 40
0.318359375
 40
0.3203125
 40
0.32421875
 40
0.328125
 40
0.33203125
 40
0.3359375
 40
0.34375
 40
0.3515625
 40
0.35546875
 40
0.359375
 40
0.36328125
 40
0.3671875
 40
0.369140625
 40
0.37109375
 40
0.3720703125
 40
0.373046875
 40
0.3740234375
 40
0.3745117188
 40
0.3747558594
 40
0.375
 40
0.3752441406
 40
0.3754882812
 40
0.3759765625
 40
0.376953125
 40
0.3779296875
 40
0.37890625
 40
0.380859375
 40
0.3828125
 40
0.38671875
 40
0.390625
 40
0.39453125
 40
0.3984375
 40
0.40625
 40
0.4140625
 40
0.41796875
 40
0.421875
 40
0.42578125
 40
0.4296875
 40
0.431640625
 40
0.43359375
 40
0.4345703125
 40
0.435546875
 40
0.4365234375
 40
0.4370117188
 40
0.4372558594
 40
0.4375
 40
0.4377441406
 40
0.4379882812
 40
0.4384765625
 40
0.439453125
 40
0.4404296875
 40
0.44140625
 40
0.443359375
 40
0.4453125
 40
0.44921875
 40
0.453125
 40
0.45703125
 40
0.4609375
 40
0.46875
 40
0.4765625
 40
0.48046875
 40
0.484375
 40
0.48828125
 40
0.4921875
 40
0.494140625
 40
0.49609375
 40
0.4970703125
 40
0.498046875
 40
0.4990234375
 40
0.4995117188
 40
0.4997558594
 40
0.5
 40
0.5002441406
 40
0.5004882812
 40
0.5009765625
 40
0.501953125
 40
0.5029296875
 40
0.50390625
 40
0.505859375
 40
0.5078125
 40
0.51171875
 40
0.515625
 40
0.51953125
 40
0.5234375
 40
0.53125
 40
0.5390625
 40
0.54296875
 40
0.546875
 40
0.55078125
 40
0.5546875
 40
0.556640625
 40
0.55859375
 40
0.5595703125
 40
0.560546875
 40
0.5615234375
 40
0.5620117188
 40
0.5622558594
 40
0.5625
 40
0.5627441406
 40
0.5629882812
 40
0.5634765625
 40
0.564453125
 40
0.5654296875
 40
0.56640625
 40
0.568359375
 40
0.5703125
 40
0.57421875
 40
0.578125
 40
0.58203125
 40
0.5859375
 40
0.59375
 40
0.6015625
 40
0.60546875
 40
0.609375
 40
0.61328125
 40
0.6171875
 40
0.619140625
 40
0.62109375
 40
0.6220703125
 40
0.623046875
 40
0.6240234375
 40
0.6245117188
 40
0.6247558594
 40
0.625
 40
0.6252441406
 40
0.6254882812
 40
0.6259765625
 40
0.626953125
 40
0.6279296875
 40
0.62890625
 40
0.630859375
 40
0.6328125
 40
0.63671875
 40
0.640625
 40
0.64453125
 40
0.6484375
 40
0.65625
 40
0.6640625
 40
0.66796875
 40
0.671875
 40
0.67578125
 40
0.6796875
 40
0.681640625
 40
0.68359375
 40
0.6845703125
 40
0.685546875
 40
0.6865234375
 40
0.6870117188
 40
0.6872558594
 40
0.6875
 40
0.6877441406
 40
0.6879882812
 40
0.6884765625
 40
0.689453125
 40
0.6904296875
 40
0.69140625
 40
0.693359375
 40
0.6953125
 40
0.69921875
 40
0.703125
 40
0.70703125
 40
0.7109375
 40
0.71875
 40
0.7265625
 40
0.73046875
 40
0.734375
 40
0.73828125
 40
0.7421875
 40
0.744140625
 40
0.74609375
 40
0.7470703125
 40
0.748046875
 40
0.7490234375
 40
0.7495117188
 40
0.7497558594
 40
0.75
 40
0.7502441406
 40
0.7504882812
 40
0.7509765625
 40
0.751953125
 40
0.7529296875
 40
0.75390625
 40
0.755859375
 40
0.7578125
 40
0.76171875
 40
0.765625
 40
0.76953125
 40
0.7734375
 40
0.78125
 40
0.7890625
 40
0.79296875
 40
0.796875
 40
0.80078125
 40
0.8046875
 40
0.806640625
 40
0.80859375
 40
0.8095703125
 40
0.810546875
 40
0.8115234375
 40
0.8120117188
 40
0.8122558594
 40
0.8125
 40
0.8127441406
 40
0.8129882812
 40
0.8134765625
 40
0.814453125
 40
0.8154296875
 40
0.81640625
 40
0.818359375
 40
0.8203125
 40
0.82421875
 40
0.828125
 40
0.83203125
 40
0.8359375
 40
0.84375
 40
0.8515625
 40
0.85546875
 40
0.859375
 40
0.86328125
 40
0.8671875
 40
0.869140625
 40
0.87109375
 40
0.8720703125
 40
0.873046875
 40
0.8740234375
 40
0.8745117188
 40
0.8747558594
 40
0.875
 40
0.8752441406
 40
0.8754882812
 40
0.8759765625
 40
0.876953125
 40
0.8779296875
 40
0.87890625
 40
0.880859375
 40
0.8828125
 40
0.88671875
 40
0.890625
 40
0.89453125
 40
0.8984375
 40
0.90625
 40
0.9140625
 40
0.91796875
 40
0.921875
 40
0.92578125
 40
0.9296875
 40
0.931640625
 40
0.93359375
 40
0.9345703125
 40
0.935546875
 40
0.9365234375
 40
0.9370117188
 40
0.9372558594
 40
0.9375
 40
0.9377441406
 40
0.9379882812
 40
0.9384765625
 40
0.939453125
 40
0.9404296875
 40
0.94140625
 40
0.943359375
 40
0.9453125
 40
0.94921875
 40
0.953125
 40
0.95703125
 40
0.9609375
 40
0.96875
 40
0.9765625
 40
0.984375
 40
1.0
 40
1.0
 40
1.0
 40
1.0
 10
10.2516252919
 20
8.9766032792
 30
0.0
 10
10.2519325036
 20
8.9734487871
 30
0.0
 10
10.2523933211
 20
8.9687170489
 30
0.0
 10
10.2530077444
 20
8.9624080647
 30
0.0
 10
10.2534685619
 20
8.9576763265
 30
0.0
 10
10.2538525764
 20
8.9537332114
 30
0.0
 10
10.2541597883
 20
8.9505787193
 30
0.0
 10
10.2543901961
 20
8.9482128501
 30
0.0
 10
10.2546206085
 20
8.9458469814
 30
0.0
 10
10.2548126044
 20
8.9438754224
 30
0.0
 10
10.2549662336
 20
8.9422981793
 30
0.0
 10
10.2550621777
 20
8.9413123929
 30
0.0
 10
10.2551391027
 20
8.9405237856
 30
0.0
 10
10.255196332
 20
8.9399322703
 30
0.0
 10
10.2552455007
 20
8.9394395311
 30
0.0
 10
10.2552770189
 20
8.9390942405
 30
0.0
 10
10.2552995572
 20
8.9388975141
 30
0.0
 10
10.2553037058
 20
8.9387483283
 30
0.0
 10
10.2553566109
 20
8.9386054153
 30
0.0
 10
10.2554101441
 20
8.9384126766
 30
0.0
 10
10.2555117511
 20
8.9380764033
 30
0.0
 10
10.2556527614
 20
8.9375954799
 30
0.0
 10
10.2558237468
 20
8.9370186
 30
0.0
 10
10.2560511081
 20
8.9362493471
 30
0.0
 10
10.2563355218
 20
8.9352878082
 30
0.0
 10
10.2567904651
 20
8.9337493307
 30
0.0
 10
10.2573591849
 20
8.9318262392
 30
0.0
 10
10.2580416313
 20
8.929518527
 30
0.0
 10
10.2587240823
 20
8.9272108155
 30
0.0
 10
10.2596340154
 20
8.9241338665
 30
0.0
 10
10.2607714323
 20
8.9202876804
 30
0.0
 10
10.2619088489
 20
8.9164414943
 30
0.0
 10
10.2628187826
 20
8.9133645455
 30
0.0
 10
10.2635012317
 20
8.9110568335
 30
0.0
 10
10.2641836852
 20
8.908749123
 30
0.0
 10
10.2647523828
 20
8.9068260262
 30
0.0
 10
10.2652073715
 20
8.9052875593
 30
0.0
 10
10.2654916696
 20
8.9043259936
 30
0.0
 10
10.265719268
 20
8.9035567958
 30
0.0
 10
10.265889529
 20
8.9029797474
 30
0.0
 10
10.2660328059
 20
8.9024993511
 30
0.0
 10
10.2661303666
 20
8.9021621368
 30
0.0
 10
10.2661903831
 20
8.9019709059
 30
0.0
 10
10.2662233738
 20
8.9018233615
 30
0.0
 10
10.2663023173
 20
8.9016915705
 30
0.0
 10
10.2663915464
 20
8.9015103543
 30
0.0
 10
10.2665551655
 20
8.9011957861
 30
0.0
 10
10.2667850026
 20
8.9007450644
 30
0.0
 10
10.2670624783
 20
8.9002047714
 30
0.0
 10
10.2674318623
 20
8.8994841805
 30
0.0
 10
10.2678937921
 20
8.8985835105
 30
0.0
 10
10.2686327681
 20
8.8971424001
 30
0.0
 10
10.2695565264
 20
8.8953410253
 30
0.0
 10
10.27066502
 20
8.8931793698
 30
0.0
 10
10.271773518
 20
8.8910177159
 30
0.0
 10
10.2732515137
 20
8.8881355102
 30
0.0
 10
10.2750990089
 20
8.8845327532
 30
0.0
 10
10.2769465038
 20
8.880929996
 30
0.0
 10
10.2784245001
 20
8.8780477905
 30
0.0
 10
10.2795329963
 20
8.8758861359
 30
0.0
 10
10.2806414967
 20
8.8737244832
 30
0.0
 10
10.2815652337
 20
8.8719230997
 30
0.0
 10
10.2823042531
 20
8.8704820071
 30
0.0
 10
10.2827660725
 20
8.869581292
 30
0.0
 10
10.2831356832
 20
8.8688607936
 30
0.0
 10
10.2834124662
 20
8.868320218
 30
0.0
 10
10.2836444708
 20
8.8678703804
 30
0.0
 10
10.2838042205
 20
8.867554234
 30
0.0
 10
10.2838996493
 20
8.8673755464
 30
0.0
 10
10.2839595495
 20
8.8672359885
 30
0.0
 10
10.2840640635
 20
8.8671176154
 30
0.0
 10
10.2841878538
 20
8.8669523951
 30
0.0
 10
10.2844117373
 20
8.8666667026
 30
0.0
 10
10.2847277803
 20
8.8662567703
 30
0.0
 10
10.2851086543
 20
8.8657656221
 30
0.0
 10
10.2856159197
 20
8.8651104887
 30
0.0
 10
10.2862501955
 20
8.8642916641
 30
0.0
 10
10.2872649282
 20
8.8629814932
 30
0.0
 10
10.2885333813
 20
8.8613437973
 30
0.0
 10
10.2900555092
 20
8.8593785547
 30
0.0
 10
10.2915776412
 20
8.857413314
 30
0.0
 10
10.2936071492
 20
8.8547929925
 30
0.0
 10
10.2961440347
 20
8.8515175908
 30
0.0
 10
10.2986809199
 20
8.8482421889
 30
0.0
 10
10.3007104283
 20
8.8456218677
 30
0.0
 10
10.3022325589
 20
8.8436566259
 30
0.0
 10
10.3037546925
 20
8.8416913876
 30
0.0
 10
10.3050231275
 20
8.8400536781
 30
0.0
 10
10.3060378973
 20
8.8387435349
 30
0.0
 10
10.3066720788
 20
8.8379246398
 30
0.0
 10
10.3071795375
 20
8.8372696512
 30
0.0
 10
10.3075598208
 20
8.8367780604
 30
0.0
 10
10.3078777121
 20
8.8363695129
 30
0.0
 10
10.308098296
 20
8.8360813484
 30
0.0
 10
10.3082273731
 20
8.8359200887
 30
0.0
 10
10.3083156478
 20
8.8357895501
 30
0.0
 10
10.3084365405
 20
8.8356956841
 30
0.0
 10
10.3085863533
 20
8.8355577377
 30
0.0
 10
10.3088538266
 20
8.8353222914
 30
0.0
 10
10.3092331599
 20
8.8349828237
 30
0.0
 10
10.3096895461
 20
8.8345767961
 30
0.0
 10
10.3102976467
 20
8.8340349601
 30
0.0
 10
10.3110579144
 20
8.8333578246
 30
0.0
 10
10.3122742633
 20
8.8322743188
 30
0.0
 10
10.3137947267
 20
8.830919967
 30
0.0
 10
10.3156192711
 20
8.8292947318
 30
0.0
 10
10.3174438187
 20
8.8276695001
 30
0.0
 10
10.3198765476
 20
8.8255025232
 30
0.0
 10
10.3229174592
 20
8.8227938026
 30
0.0
 10
10.3259583705
 20
8.8200850817
 30
0.0
 10
10.3283910999
 20
8.8179181053
 30
0.0
 10
10.3302156462
 20
8.8162928721
 30
0.0
 10
10.3320401952
 20
8.8146676426
 30
0.0
 10
10.3335606444
 20
8.813313273
 30
0.0
 10
10.3347770222
 20
8.8122298036
 30
0.0
 10
10.3355372164
 20
8.8115525753
 30
0.0
 10
10.3361454679
 20
8.8110109298
 30
0.0
 10
10.3366013931
 20
8.8106043204
 30
0.0
 10
10.3369821688
 20
8.8102666729
 30
0.0
 10
10.3372470672
 20
8.8100279772
 30
0.0
 10
10.3374010055
 20
8.8098952372
 30
0.0
 10
10.3375092259
 20
8.8097853787
 30
0.0
 10
10.3376450958
 20
8.8097149052
 30
0.0
 10
10.3378166112
 20
8.8096072027
 30
0.0
 10
10.3381212567
 20
8.8094251239
 30
0.0
 10
10.3385541154
 20
8.809161665
 30
0.0
 10
10.3390745513
 20
8.8088469467
 30
0.0
 10
10.3397681146
 20
8.808426822
 30
0.0
 10
10.340635189
 20
8.8079018375
 30
0.0
 10
10.3420224408
 20
8.8070617664
 30
0.0
 10
10.3437565287
 20
8.8060117105
 30
0.0
 10
10.3458374242
 20
8.8047516292
 30
0.0
 10
10.3479183224
 20
8.8034915518
 30
0.0
 10
10.3506928524
 20
8.8018114472
 30
0.0
 10
10.3541610152
 20
8.7997113169
 30
0.0
 10
10.3576291778
 20
8.7976111863
 30
0.0
 10
10.3604037081
 20
8.7959310822
 30
0.0
 10
10.3624846054
 20
8.7946710031
 30
0.0
 10
10.3645655044
 20
8.7934109282
 30
0.0
 10
10.3662995813
 20
8.7923608525
 30
0.0
 10
10.3676868555
 20
8.7915208217
 30
0.0
 10
10.3685538729
 20
8.7909957347
 30
0.0
 10
10.3692475533
 20
8.7905758202
 30
0.0
 10
10.3697676316
 20
8.7902604598
 30
0.0
 10
10.3702016091
 20
8.78999901
 30
0.0
 10
10.3705042572
 20
8.7898133447
 30
0.0
 10
10.3706789729
 20
8.7897113886
 30
0.0
 10
10.3708050127
 20
8.7896232638
 30
0.0
 10
10.3709501532
 20
8.7895797007
 30
0.0
 10
10.3711370113
 20
8.789506073
 30
0.0
 10
10.3714671173
 20
8.7893844664
 30
0.0
 10
10.3719370742
 20
8.7892069566
 30
0.0
 10
10.3725017172
 20
8.7889955655
 30
0.0
 10
10.373254332
 20
8.7887131445
 30
0.0
 10
10.3741951834
 20
8.7883603122
 30
0.0
 10
10.3757004994
 20
8.7877956721
 30
0.0
 10
10.3775821602
 20
8.7870899092
 30
0.0
 10
10.3798401464
 20
8.7862429778
 30
0.0
 10
10.3820981344
 20
8.7853960506
 30
0.0
 10
10.3851087845
 20
8.7842668129
 30
0.0
 10
10.3888720973
 20
8.7828552663
 30
0.0
 10
10.39263541
 20
8.7814437193
 30
0.0
 10
10.3956460602
 20
8.7803144822
 30
0.0
 10
10.3979040476
 20
8.7794675531
 30
0.0
 10
10.4001620363
 20
8.7786206287
 30
0.0
 10
10.4020436893
 20
8.7779148441
 30
0.0
 10
10.4035490213
 20
8.7773502482
 30
0.0
 10
10.4044898319
 20
8.7769973033
 30
0.0
 10
10.4052425304
 20
8.7767151134
 30
0.0
 10
10.4058069174
 20
8.7765030164
 30
0.0
 10
10.4062776756
 20
8.776327715
 30
0.0
 10
10.4066063511
 20
8.7762021661
 30
0.0
 10
10.4067955011
 20
8.7761348551
 30
0.0
 10
10.4069336018
 20
8.7760718887
 30
0.0
 10
10.4070860817
 20
8.7760566396
 30
0.0
 10
10.4072843726
 20
8.7760196631
 30
0.0
 10
10.4076337185
 20
8.775962709
 30
0.0
 10
10.4081315623
 20
8.7758772918
 30
0.0
 10
10.4087294979
 20
8.7757765266
 30
0.0
 10
10.4095265626
 20
8.7756415667
 30
0.0
 10
10.4105229561
 20
8.7754730745
 30
0.0
 10
10.4121171507
 20
8.7752033709
 30
0.0
 10
10.414109906
 20
8.7748662812
 30
0.0
 10
10.4165012072
 20
8.7744617565
 30
0.0
 10
10.4188925097
 20
8.7740572364
 30
0.0
 10
10.4220809127
 20
8.7735178747
 30
0.0
 10
10.4260664165
 20
8.7728436731
 30
0.0
 10
10.4300519203
 20
8.7721694711
 30
0.0
 10
10.4332403233
 20
8.77163011
 30
0.0
 10
10.4356316256
 20
8.7712255879
 30
0.0
 10
10.4380229276
 20
8.7708210707
 30
0.0
 10
10.4400156805
 20
8.7704839578
 30
0.0
 10
10.4416098799
 20
8.7702143015
 30
0.0
 10
10.4426062613
 20
8.770045689
 30
0.0
 10
10.4434033509
 20
8.7699109761
 30
0.0
 10
10.4440012106
 20
8.7698094564
 30
0.0
 10
10.4444992917
 20
8.7697263995
 30
0.0
 10
10.4448482141
 20
8.769665232
 30
0.0
 10
10.4450471835
 20
8.7696350065
 30
0.0
 10
10.4451975791
 20
8.7695990202
 30
0.0
 10
10.445343508
 20
8.7696139392
 30
0.0
 10
10.445539638
 20
8.7696160748
 30
0.0
 10
10.4458821395
 20
8.7696280851
 30
0.0
 10
10.4463718068
 20
8.7696409175
 30
0.0
 10
10.4469592452
 20
8.7696581677
 30
0.0
 10
10.4477425531
 20
8.7696805214
 30
0.0
 10
10.4487216686
 20
8.7697086849
 30
0.0
 10
10.4502882642
 20
8.7697536227
 30
0.0
 10
10.452246505
 20
8.7698098374
 30
0.0
 10
10.4545963955
 20
8.7698772768
 30
0.0
 10
10.4569462856
 20
8.7699447212
 30
0.0
 10
10.4600794725
 20
8.7700346453
 30
0.0
 10
10.4639959561
 20
8.770147051
 30
0.0
 10
10.4679124398
 20
8.7702594563
 30
0.0
 10
10.4710456267
 20
8.770349381
 30
0.0
 10
10.4733955171
 20
8.7704168233
 30
0.0
 10
10.4757454065
 20
8.7704842704
 30
0.0
 10
10.4777036506
 20
8.7705404615
 30
0.0
 10
10.4792702395
 20
8.7705854474
 30
0.0
 10
10.4802493721
 20
8.7706134885
 30
0.0
 10
10.4810326447
 20
8.7706360934
 30
0.0
 10
10.4816201911
 20
8.7706525761
 30
0.0
 10
10.4821095205
 20
8.7706678097
 30
0.0
 10
10.4824526253
 20
8.7706755335
 30
0.0
 10
10.4826477886
 20
8.7706845372
 30
0.0
 10
10.4827966867
 20
8.7706783597
 30
0.0
 10
10.4829359307
 20
8.7707216082
 30
0.0
 10
10.4831249569
 20
8.7707620324
 30
0.0
 10
10.4834541837
 20
8.7708408075
 30
0.0
 10
10.483925328
 20
8.7709491437
 30
0.0
 10
10.48449035
 20
8.7710809448
 30
0.0
 10
10.4852438354
 20
8.7712560517
 30
0.0
 10
10.4861856501
 20
8.7714751503
 30
0.0
 10
10.4876925772
 20
8.7718255878
 30
0.0
 10
10.4895762279
 20
8.772263676
 30
0.0
 10
10.4918366122
 20
8.7727893642
 30
0.0
 10
10.4940969956
 20
8.7733150571
 30
0.0
 10
10.4971108405
 20
8.7740159793
 30
0.0
 10
10.5008781465
 20
8.7748921327
 30
0.0
 10
10.5046454525
 20
8.7757682857
 30
0.0
 10
10.5076592972
 20
8.7764692086
 30
0.0
 10
10.5099196812
 20
8.7769948995
 30
0.0
 10
10.5121800634
 20
8.777520595
 30
0.0
 10
10.5140637208
 20
8.7779586605
 30
0.0
 10
10.5155706341
 20
8.7783091444
 30
0.0
 10
10.5165124837
 20
8.7785281251
 30
0.0
 10
10.5172658975
 20
8.778703474
 30
0.0
 10
10.5178311383
 20
8.7788345355
 30
0.0
 10
10.5183015983
 20
8.7789451858
 30
0.0
 10
10.5186320467
 20
8.7790198298
 30
0.0
 10
10.5188191155
 20
8.7790668731
 30
0.0
 10
10.518964372
 20
8.7790897902
 30
0.0
 10
10.5190906882
 20
8.7791599736
 30
0.0
 10
10.5192657164
 20
8.7792370645
 30
0.0
 10
10.5195689376
 20
8.7793796551
 30
0.0
 10
10.5200037199
 20
8.77957934
 30
0.0
 10
10.52052477
 20
8.7798206808
 30
0.0
 10
10.521219744
 20
8.7801418681
 30
0.0
 10
10.5220883791
 20
8.7805435579
 30
0.0
 10
10.5234782413
 20
8.7811861466
 30
0.0
 10
10.5252155533
 20
8.781989422
 30
0.0
 10
10.5273003344
 20
8.7829533355
 30
0.0
 10
10.5293851137
 20
8.7839172535
 30
0.0
 10
10.5321648201
 20
8.7852024759
 30
0.0
 10
10.5356394529
 20
8.7868090046
 30
0.0
 10
10.5391140858
 20
8.7884155328
 30
0.0
 10
10.5418937919
 20
8.7897007559
 30
0.0
 10
10.5439785721
 20
8.790664672
 30
0.0
 10
10.54606335
 20
8.7916285926
 30
0.0
 10
10.5478006721
 20
8.7924318459
 30
0.0
 10
10.5491905136
 20
8.7930744795
 30
0.0
 10
10.5500592015
 20
8.7934760551
 30
0.0
 10
10.5507540672
 20
8.7937974767
 30
0.0
 10
10.5512754479
 20
8.7940381019
 30
0.0
 10
10.5517091959
 20
8.7942400259
 30
0.0
 10
10.5520142636
 20
8.7943786192
 30
0.0
 10
10.5521863333
 20
8.7944621149
 30
0.0
 10
10.552321737
 20
8.7945126248
 30
0.0
 10
10.552432862
 20
8.7946094323
 30
0.0
 10
10.5525894974
 20
8.7947223599
 30
0.0
 10
10.5528596636
 20
8.7949275073
 30
0.0
 10
10.5532476782
 20
8.7952166413
 30
0.0
 10
10.5537124127
 20
8.7955652859
 30
0.0
 10
10.5543323671
 20
8.7960295573
 30
0.0
 10
10.5551072046
 20
8.7966100979
 30
0.0
 10
10.5563470035
 20
8.7975388503
 30
0.0
 10
10.5578967319
 20
8.7986998294
 30
0.0
 10
10.5597564146
 20
8.8000929878
 30
0.0
 10
10.561616095
 20
8.8014861506
 30
0.0
 10
10.5640956697
 20
8.8033436995
 30
0.0
 10
10.5671951378
 20
8.8056656361
 30
0.0
 10
10.5702946062
 20
8.8079875724
 30
0.0
 10
10.5727741804
 20
8.8098451219
 30
0.0
 10
10.5746338621
 20
8.811238283
 30
0.0
 10
10.5764935401
 20
8.8126314476
 30
0.0
 10
10.5780432834
 20
8.8137924075
 30
0.0
 10
10.579283052
 20
8.814721199
 30
0.0
 10
10.5800579665
 20
8.8153016401
 30
0.0
 10
10.5806777627
 20
8.8157661158
 30
0.0
 10
10.5811429807
 20
8.8161141361
 30
0.0
 10
10.5815294824
 20
8.8164052234
 30
0.0
 10
10.5818023493
 20
8.8166068839
 30
0.0
 10
10.5819546575
 20
8.8167253984
 30
0.0
 10
10.5820790743
 20
8.8168050447
 30
0.0
 10
10.5821645563
 20
8.8169200093
 30
0.0
 10
10.5822921132
 20
8.8170609759
 30
0.0
 10
10.5825090101
 20
8.8173134074
 30
0.0
 10
10.582822171
 20
8.8176710229
 30
0.0
 10
10.5831965481
 20
8.818101446
 30
0.0
 10
10.5836962122
 20
8.8186748948
 30
0.0
 10
10.5843206229
 20
8.8193918594
 30
0.0
 10
10.5853197747
 20
8.8205389169
 30
0.0
 10
10.5865686819
 20
8.8219727683
 30
0.0
 10
10.5880673846
 20
8.8236933773
 30
0.0
 10
10.5895660835
 20
8.8254139897
 30
0.0
 10
10.59156435
 20
8.8277081384
 30
0.0
 10
10.5940621827
 20
8.8305758247
 30
0.0
 10
10.5965600157
 20
8.8334435108
 30
0.0
 10
10.5985582817
 20
8.8357376599
 30
0.0
 10
10.6000569822
 20
8.837458271
 30
0.0
 10
10.6015556788
 20
8.839178885
 30
0.0
 10
10.6028046049
 20
8.8406127209
 30
0.0
 10
10.6038037183
 20
8.84175981
 30
0.0
 10
10.6044282268
 20
8.8424766943
 30
0.0
 10
10.60492769
 20
8.843050308
 30
0.0
 10
10.6053026809
 20
8.8434802275
 30
0.0
 10
10.6056139215
 20
8.8438394185
 30
0.0
 10
10.6058342464
 20
8.8440890374
 30
0.0
 10
10.6059563108
 20
8.8442345105
 30
0.0
 10
10.6060586641
 20
8.8443356326
 30
0.0
 10
10.606119715
 20
8.8444672687
 30
0.0
 10
10.6062155229
 20
8.8446321398
 30
0.0
 10
10.6063764744
 20
8.8449256233
 30
0.0
 10
10.6066099145
 20
8.8453422928
 30
0.0
 10
10.6068885404
 20
8.8458434059
 30
0.0
 10
10.6072605663
 20
8.8465111691
 30
0.0
 10
10.6077254191
 20
8.8473460059
 30
0.0
 10
10.6084692839
 20
8.8486816705
 30
0.0
 10
10.6093990804
 20
8.8503512768
 30
0.0
 10
10.6105148511
 20
8.8523547933
 30
0.0
 10
10.6116306178
 20
8.8543583128
 30
0.0
 10
10.6131183081
 20
8.8570296711
 30
0.0
 10
10.6149779204
 20
8.8603688694
 30
0.0
 10
10.6168375331
 20
8.8637080675
 30
0.0
 10
10.6183252229
 20
8.8663794261
 30
0.0
 10
10.6194409913
 20
8.8683829446
 30
0.0
 10
10.6205567554
 20
8.8703864651
 30
0.0
 10
10.6214865724
 20
8.872056059
 30
0.0
 10
10.6222303954
 20
8.8733917489
 30
0.0
 10
10.6226953545
 20
8.8742265213
 30
0.0
 10
10.6230671621
 20
8.8748944167
 30
0.0
 10
10.623346455
 20
8.875395126
 30
0.0
 10
10.6235778084
 20
8.875813059
 30
0.0
 10
10.6237424849
 20
8.8761042868
 30
0.0
 10
10.6238323245
 20
8.8762727721
 30
0.0
 10
10.6239117084
 20
8.8763933067
 30
0.0
 10
10.6239452059
 20
8.8765361241
 30
0.0
 10
10.624005875
 20
8.8767187748
 30
0.0
 10
10.6241045886
 20
8.8770420349
 30
0.0
 10
10.6242495068
 20
8.8775019417
 30
0.0
 10
10.6244217399
 20
8.8780546403
 30
0.0
 10
10.6246519668
 20
8.8787912888
 30
0.0
 10
10.6249395508
 20
8.8797121962
 30
0.0
 10
10.6253997969
 20
8.881185594
 30
0.0
 10
10.6259750662
 20
8.8830273598
 30
0.0
 10
10.6266654058
 20
8.8852374708
 30
0.0
 10
10.6273557409
 20
8.8874475839
 30
0.0
 10
10.6282761894
 20
8.8903944006
 30
0.0
 10
10.6294267494
 20
8.8940779218
 30
0.0
 10
10.6305773097
 20
8.8977614428
 30
0.0
 10
10.6314977575
 20
8.9007082598
 30
0.0
 10
10.6321880946
 20
8.9029183722
 30
0.0
 10
10.632878427
 20
8.9051284862
 30
0.0
 10
10.6334537186
 20
8.9069702425
 30
0.0
 10
10.6339139193
 20
8.9084436595
 30
0.0
 10
10.6342016187
 20
8.9093645181
 30
0.0
 10
10.6344316088
 20
8.9101012668
 30
0.0
 10
10.6346045654
 20
8.9106536591
 30
0.0
 10
10.6347472196
 20
8.9111145242
 30
0.0
 10
10.6348499749
 20
8.9114360737
 30
0.0
 10
10.6349041682
 20
8.9116214653
 30
0.0
 10
10.6349575573
 20
8.9117558635
 30
0.0
 10
10.6349622319
 20
8.9119080193
 30
0.0
 10
10.6349854569
 20
8.9121046996
 30
0.0
 10
10.6350181837
 20
8.912451776
 30
0.0
 10
10.6350690753
 20
8.9129460907
 30
0.0
 10
10.6351283736
 20
8.9135399142
 30
0.0
 10
10.6352080568
 20
8.9143314533
 30
0.0
 10
10.635307449
 20
8.9153209543
 30
0.0
 10
10.6354665948
 20
8.9169041128
 30
0.0
 10
10.6356654864
 20
8.9188830758
 30
0.0
 10
10.6359041738
 20
8.921257825
 30
0.0
 10
10.6361428565
 20
8.9236325759
 30
0.0
 10
10.6364611018
 20
8.9267989099
 30
0.0
 10
10.6368589078
 20
8.9307568276
 30
0.0
 10
10.6373362752
 20
8.9355063287
 30
0.0
 10
10.6379727651
 20
8.9418389968
 30
0.0
 10
10.6384501325
 20
8.9465884979
 30
0.0
 10
10.6387683774
 20
8.949754832
 30
0.0
  0
SPLINE
  5
3C1
100
AcDbEntity
  8
0
100
AcDbSpline
 62
4
  6
CONTINUOUS
 70
0
 71
3
 72
403
 73
399
 74
0
 42
0.0000001
 43
0.0000001
 44
0.0000000001
 40
0.0
 40
0.0
 40
0.0
 40
0.0
 40
0.015625
 40
0.0234375
 40
0.03125
 40
0.0390625
 40
0.04296875
 40
0.046875
 40
0.05078125
 40
0.0546875
 40
0.056640625
 40
0.05859375
 40
0.0595703125
 40
0.060546875
 40
0.0615234375
 40
0.0620117188
 40
0.0622558594
 40
0.0625
 40
0.0627441406
 40
0.0629882812
 40
0.0634765625
 40
0.064453125
 40
0.0654296875
 40
0.06640625
 40
0.068359375
 40
0.0703125
 40
0.07421875
 40
0.078125
 40
0.08203125
 40
0.0859375
 40
0.09375
 40
0.1015625
 40
0.10546875
 40
0.109375
 40
0.11328125
 40
0.1171875
 40
0.119140625
 40
0.12109375
 40
0.1220703125
 40
0.123046875
 40
0.1240234375
 40
0.1245117188
 40
0.1247558594
 40
0.125
 40
0.1252441406
 40
0.1254882812
 40
0.1259765625
 40
0.126953125
 40
0.1279296875
 40
0.12890625
 40
0.130859375
 40
0.1328125
 40
0.13671875
 40
0.140625
 40
0.14453125
 40
0.1484375
 40
0.15625
 40
0.1640625
 40
0.16796875
 40
0.171875
 40
0.17578125
 40
0.1796875
 40
0.181640625
 40
0.18359375
 40
0.1845703125
 40
0.185546875
 40
0.1865234375
 40
0.1870117188
 40
0.1872558594
 40
0.1875
 40
0.1877441406
 40
0.1879882812
 40
0.1884765625
 40
0.189453125
 40
0.1904296875
 40
0.19140625
 40
0.193359375
 40
0.1953125
 40
0.19921875
 40
0.203125
 40
0.20703125
 40
0.2109375
 40
0.21875
 40
0.2265625
 40
0.23046875
 40
0.234375
 40
0.23828125
 40
0.2421875
 40
0.244140625
 40
0.24609375
 40
0.2470703125
 40
0.248046875
 40
0.2490234375
 40
0.2495117188
 40
0.2497558594
 40
0.25
 40
0.2502441406
 40
0.2504882812
 40
0.2509765625
 40
0.251953125
 40
0.2529296875
 40
0.25390625
 40
0.255859375
 40
0.2578125
 40
0.26171875
 40
0.265625
 40
0.26953125
 40
0.2734375
 40
0.28125
 40
0.2890625
 40
0.29296875
 40
0.296875
 40
0.30078125
 40
0.3046875
 40
0.306640625
 40
0.30859375
 40
0.3095703125
 40
0.310546875
 40
0.3115234375
 40
0.3120117188
 40
0.3122558594
 40
0.3125
 40
0.3127441406
 40
0.3129882812
 40
0.3134765625
 40
0.314453125
 40
0.3154296875
 40
0.31640625
 40
0.318359375
 40
0.3203125
 40
0.32421875
 40
0.328125
 40
0.33203125
 40
0.3359375
 40
0.34375
 40
0.3515625
 40
0.35546875
 40
0.359375
 40
0.36328125
 40
0.3671875
 40
0.369140625
 40
0.37109375
 40
0.3720703125
 40
0.373046875
 40
0.3740234375
 40
0.3745117188
 40
0.3747558594
 40
0.375
 40
0.3752441406
 40
0.3754882812
 40
0.3759765625
 40
0.376953125
 40
0.3779296875
 40
0.37890625
 40
0.380859375
 40
0.3828125
 40
0.38671875
 40
0.390625
 40
0.39453125
 40
0.3984375
 40
0.40625
 40
0.4140625
 40
0.41796875
 40
0.421875
 40
0.42578125
 40
0.4296875
 40
0.431640625
 40
0.43359375
 40
0.4345703125
 40
0.435546875
 40
0.4365234375
 40
0.4370117188
 40
0.4372558594
 40
0.4375
 40
0.4377441406
 40
0.4379882812
 40
0.4384765625
 40
0.439453125
 40
0.4404296875
 40
0.44140625
 40
0.443359375
 40
0.4453125
 40
0.44921875
 40
0.453125
 40
0.45703125
 40
0.4609375
 40
0.46875
 40
0.4765625
 40
0.48046875
 40
0.484375
 40
0.48828125
 40
0.4921875
 40
0.494140625
 40
0.49609375
 40
0.4970703125
 40
0.498046875
 40
0.4990234375
 40
0.4995117188
 40
0.4997558594
 40
0.5
 40
0.5002441406
 40
0.5004882812
 40
0.5009765625
 40
0.501953125
 40
0.5029296875
 40
0.50390625
 40
0.505859375
 40
0.5078125
 40
0.51171875
 40
0.515625
 40
0.51953125
 40
0.5234375
 40
0.53125
 40
0.5390625
 40
0.54296875
 40
0.546875
 40
0.55078125
 40
0.5546875
 40
0.556640625
 40
0.55859375
 40
0.5595703125
 40
0.560546875
 40
0.5615234375
 40
0.5620117188
 40
0.5622558594
 40
0.5625
 40
0.5627441406
 40
0.5629882812
 40
0.5634765625
 40
0.564453125
 40
0.5654296875
 40
0.56640625
 40
0.568359375
 40
0.5703125
 40
0.57421875
 40
0.578125
 40
0.58203125
 40
0.5859375
 40
0.59375
 40
0.6015625
 40
0.60546875
 40
0.609375
 40
0.61328125
 40
0.6171875
 40
0.619140625
 40
0.62109375
 40
0.6220703125
 40
0.623046875
 40
0.6240234375
 40
0.6245117188
 40
0.6247558594
 40
0.625
 40
0.6252441406
 40
0.6254882812
 40
0.6259765625
 40
0.626953125
 40
0.6279296875
 40
0.62890625
 40
0.630859375
 40
0.6328125
 40
0.63671875
 40
0.640625
 40
0.64453125
 40
0.6484375
 40
0.65625
 40
0.6640625
 40
0.66796875
 40
0.671875
 40
0.67578125
 40
0.6796875
 40
0.681640625
 40
0.68359375
 40
0.6845703125
 40
0.685546875
 40
0.6865234375
 40
0.6870117188
 40
0.6872558594
 40
0.6875
 40
0.6877441406
 40
0.6879882812
 40
0.6884765625
 40
0.689453125
 40
0.6904296875
 40
0.69140625
 40
0.693359375
 40
0.6953125
 40
0.69921875
 40
0.703125
 40
0.70703125
 40
0.7109375
 40
0.71875
 40
0.7265625
 40
0.73046875
 40
0.734375
 40
0.73828125
 40
0.7421875
 40
0.744140625
 40
0.74609375
 40
0.7470703125
 40
0.748046875
 40
0.7490234375
 40
0.7495117188
 40
0.7497558594
 40
0.75
 40
0.7502441406
 40
0.7504882812
 40
0.7509765625
 40
0.751953125
 40
0.7529296875
 40
0.75390625
 40
0.755859375
 40
0.7578125
 40
0.76171875
 40
0.765625
 40
0.76953125
 40
0.7734375
 40
0.78125
 40
0.7890625
 40
0.79296875
 40
0.796875
 40
0.80078125
 40
0.8046875
 40
0.806640625
 40
0.80859375
 40
0.8095703125
 40
0.810546875
 40
0.8115234375
 40
0.8120117188
 40
0.8122558594
 40
0.8125
 40
0.8127441406
 40
0.8129882812
 40
0.8134765625
 40
0.814453125
 40
0.8154296875
 40
0.81640625
 40
0.818359375
 40
0.8203125
 40
0.82421875
 40
0.828125
 40
0.83203125
 40
0.8359375
 40
0.84375
 40
0.8515625
 40
0.85546875
 40
0.859375
 40
0.86328125
 40
0.8671875
 40
0.869140625
 40
0.87109375
 40
0.8720703125
 40
0.873046875
 40
0.8740234375
 40
0.8745117188
 40
0.8747558594
 40
0.875
 40
0.8752441406
 40
0.8754882812
 40
0.8759765625
 40
0.876953125
 40
0.8779296875
 40
0.87890625
 40
0.880859375
 40
0.8828125
 40
0.88671875
 40
0.890625
 40
0.89453125
 40
0.8984375
 40
0.90625
 40
0.9140625
 40
0.91796875
 40
0.921875
 40
0.92578125
 40
0.9296875
 40
0.931640625
 40
0.93359375
 40
0.9345703125
 40
0.935546875
 40
0.9365234375
 40
0.9370117188
 40
0.9372558594
 40
0.9375
 40
0.9377441406
 40
0.9379882812
 40
0.9384765625
 40
0.939453125
 40
0.9404296875
 40
0.94140625
 40
0.943359375
 40
0.9453125
 40
0.94921875
 40
0.953125
 40
0.95703125
 40
0.9609375
 40
0.96875
 40
0.9765625
 40
0.984375
 40
1.0
 40
1.0
 40
1.0
 40
1.0
 10
10.6387683774
 20
8.9497548151
 30
0.0
 10
10.6384611657
 20
8.9529093072
 30
0.0
 10
10.6380003482
 20
8.9576410454
 30
0.0
 10
10.6373859249
 20
8.9639500296
 30
0.0
 10
10.6369251074
 20
8.9686817678
 30
0.0
 10
10.6365410929
 20
8.972624883
 30
0.0
 10
10.636233881
 20
8.975779375
 30
0.0
 10
10.6360034732
 20
8.9781452442
 30
0.0
 10
10.6357730608
 20
8.9805111129
 30
0.0
 10
10.6355810649
 20
8.9824826719
 30
0.0
 10
10.6354274357
 20
8.984059915
 30
0.0
 10
10.6353314916
 20
8.9850457014
 30
0.0
 10
10.6352545666
 20
8.9858343087
 30
0.0
 10
10.6351973373
 20
8.986425824
 30
0.0
 10
10.6351481686
 20
8.9869185633
 30
0.0
 10
10.6351166504
 20
8.9872638538
 30
0.0
 10
10.6350941121
 20
8.9874605802
 30
0.0
 10
10.6350899635
 20
8.987609766
 30
0.0
 10
10.6350370584
 20
8.987752679
 30
0.0
 10
10.6349835252
 20
8.9879454177
 30
0.0
 10
10.6348819182
 20
8.988281691
 30
0.0
 10
10.6347409079
 20
8.9887626144
 30
0.0
 10
10.6345699225
 20
8.9893394943
 30
0.0
 10
10.6343425612
 20
8.9901087472
 30
0.0
 10
10.6340581475
 20
8.9910702861
 30
0.0
 10
10.6336032042
 20
8.9926087636
 30
0.0
 10
10.6330344844
 20
8.9945318551
 30
0.0
 10
10.632352038
 20
8.9968395673
 30
0.0
 10
10.631669587
 20
8.9991472788
 30
0.0
 10
10.6307596539
 20
9.0022242278
 30
0.0
 10
10.629622237
 20
9.0060704139
 30
0.0
 10
10.6284848204
 20
9.0099166
 30
0.0
 10
10.6275748867
 20
9.0129935488
 30
0.0
 10
10.6268924376
 20
9.0153012608
 30
0.0
 10
10.6262099841
 20
9.0176089713
 30
0.0
 10
10.6256412865
 20
9.0195320681
 30
0.0
 10
10.6251862978
 20
9.021070535
 30
0.0
 10
10.6249019997
 20
9.0220321007
 30
0.0
 10
10.6246744013
 20
9.0228012985
 30
0.0
 10
10.6245041403
 20
9.0233783469
 30
0.0
 10
10.6243608634
 20
9.0238587432
 30
0.0
 10
10.6242633027
 20
9.0241959575
 30
0.0
 10
10.6242032862
 20
9.0243871884
 30
0.0
 10
10.6241702955
 20
9.0245347329
 30
0.0
 10
10.624091352
 20
9.0246665238
 30
0.0
 10
10.6240021229
 20
9.02484774
 30
0.0
 10
10.6238385038
 20
9.0251623082
 30
0.0
 10
10.6236086667
 20
9.0256130299
 30
0.0
 10
10.623331191
 20
9.0261533229
 30
0.0
 10
10.622961807
 20
9.0268739138
 30
0.0
 10
10.6224998772
 20
9.0277745838
 30
0.0
 10
10.6217609012
 20
9.0292156942
 30
0.0
 10
10.6208371429
 20
9.031017069
 30
0.0
 10
10.6197286493
 20
9.0331787245
 30
0.0
 10
10.6186201514
 20
9.0353403784
 30
0.0
 10
10.6171421556
 20
9.0382225841
 30
0.0
 10
10.6152946604
 20
9.0418253411
 30
0.0
 10
10.6134471655
 20
9.0454280983
 30
0.0
 10
10.6119691692
 20
9.0483103038
 30
0.0
 10
10.610860673
 20
9.0504719584
 30
0.0
 10
10.6097521726
 20
9.0526336111
 30
0.0
 10
10.6088284356
 20
9.0544349946
 30
0.0
 10
10.6080894162
 20
9.0558760872
 30
0.0
 10
10.6076275968
 20
9.0567768023
 30
0.0
 10
10.6072579861
 20
9.0574973007
 30
0.0
 10
10.6069812031
 20
9.0580378763
 30
0.0
 10
10.6067491985
 20
9.058487714
 30
0.0
 10
10.6065894488
 20
9.0588038603
 30
0.0
 10
10.60649402
 20
9.058982548
 30
0.0
 10
10.6064341198
 20
9.0591221058
 30
0.0
 10
10.6063296058
 20
9.0592404789
 30
0.0
 10
10.6062058155
 20
9.0594056992
 30
0.0
 10
10.605981932
 20
9.0596913917
 30
0.0
 10
10.605665889
 20
9.060101324
 30
0.0
 10
10.605285015
 20
9.0605924722
 30
0.0
 10
10.6047777496
 20
9.0612476056
 30
0.0
 10
10.6041434739
 20
9.0620664302
 30
0.0
 10
10.6031287411
 20
9.0633766011
 30
0.0
 10
10.601860288
 20
9.065014297
 30
0.0
 10
10.6003381601
 20
9.0669795396
 30
0.0
 10
10.5988160281
 20
9.0689447803
 30
0.0
 10
10.5967865201
 20
9.0715651019
 30
0.0
 10
10.5942496346
 20
9.0748405035
 30
0.0
 10
10.5917127494
 20
9.0781159055
 30
0.0
 10
10.589683241
 20
9.0807362266
 30
0.0
 10
10.5881611104
 20
9.0827014684
 30
0.0
 10
10.5866389768
 20
9.0846667067
 30
0.0
 10
10.5853705418
 20
9.0863044162
 30
0.0
 10
10.584355772
 20
9.0876145594
 30
0.0
 10
10.5837215905
 20
9.0884334546
 30
0.0
 10
10.5832141318
 20
9.0890884431
 30
0.0
 10
10.5828338485
 20
9.0895800339
 30
0.0
 10
10.5825159572
 20
9.0899885814
 30
0.0
 10
10.5822953733
 20
9.0902767459
 30
0.0
 10
10.5821662962
 20
9.0904380056
 30
0.0
 10
10.5820780215
 20
9.0905685443
 30
0.0
 10
10.5819571288
 20
9.0906624102
 30
0.0
 10
10.581807316
 20
9.0908003566
 30
0.0
 10
10.5815398427
 20
9.0910358029
 30
0.0
 10
10.5811605094
 20
9.0913752706
 30
0.0
 10
10.5807041232
 20
9.0917812982
 30
0.0
 10
10.5800960226
 20
9.0923231342
 30
0.0
 10
10.5793357549
 20
9.0930002697
 30
0.0
 10
10.578119406
 20
9.0940837755
 30
0.0
 10
10.5765989426
 20
9.0954381273
 30
0.0
 10
10.5747743982
 20
9.0970633625
 30
0.0
 10
10.5729498506
 20
9.0986885942
 30
0.0
 10
10.5705171217
 20
9.1008555711
 30
0.0
 10
10.5674762101
 20
9.1035642917
 30
0.0
 10
10.5644352988
 20
9.1062730126
 30
0.0
 10
10.5620025694
 20
9.108439989
 30
0.0
 10
10.5601780231
 20
9.1100652222
 30
0.0
 10
10.5583534741
 20
9.1116904517
 30
0.0
 10
10.5568330249
 20
9.1130448213
 30
0.0
 10
10.5556166471
 20
9.1141282908
 30
0.0
 10
10.5548564529
 20
9.114805519
 30
0.0
 10
10.5542482014
 20
9.1153471645
 30
0.0
 10
10.5537922762
 20
9.1157537739
 30
0.0
 10
10.5534115005
 20
9.1160914214
 30
0.0
 10
10.5531466021
 20
9.1163301172
 30
0.0
 10
10.5529926638
 20
9.1164628571
 30
0.0
 10
10.5528844434
 20
9.1165727156
 30
0.0
 10
10.5527485735
 20
9.1166431891
 30
0.0
 10
10.5525770581
 20
9.1167508916
 30
0.0
 10
10.5522724126
 20
9.1169329704
 30
0.0
 10
10.5518395539
 20
9.1171964293
 30
0.0
 10
10.551319118
 20
9.1175111476
 30
0.0
 10
10.5506255547
 20
9.1179312723
 30
0.0
 10
10.5497584803
 20
9.1184562568
 30
0.0
 10
10.5483712285
 20
9.1192963279
 30
0.0
 10
10.5466371406
 20
9.1203463838
 30
0.0
 10
10.5445562451
 20
9.1216064651
 30
0.0
 10
10.5424753469
 20
9.1228665425
 30
0.0
 10
10.5397008169
 20
9.1245466471
 30
0.0
 10
10.5362326541
 20
9.1266467774
 30
0.0
 10
10.5327644915
 20
9.128746908
 30
0.0
 10
10.5299899612
 20
9.1304270121
 30
0.0
 10
10.5279090639
 20
9.1316870912
 30
0.0
 10
10.5258281649
 20
9.1329471661
 30
0.0
 10
10.524094088
 20
9.1339972418
 30
0.0
 10
10.5227068138
 20
9.1348372726
 30
0.0
 10
10.5218397964
 20
9.1353623596
 30
0.0
 10
10.521146116
 20
9.1357822741
 30
0.0
 10
10.5206260377
 20
9.1360976345
 30
0.0
 10
10.5201920602
 20
9.1363590844
 30
0.0
 10
10.5198894121
 20
9.1365447496
 30
0.0
 10
10.5197146964
 20
9.1366467057
 30
0.0
 10
10.5195886566
 20
9.1367348305
 30
0.0
 10
10.5194435161
 20
9.1367783936
 30
0.0
 10
10.519256658
 20
9.1368520214
 30
0.0
 10
10.518926552
 20
9.1369736279
 30
0.0
 10
10.5184565951
 20
9.1371511377
 30
0.0
 10
10.5178919521
 20
9.1373625288
 30
0.0
 10
10.5171393373
 20
9.1376449498
 30
0.0
 10
10.5161984859
 20
9.1379977821
 30
0.0
 10
10.5146931699
 20
9.1385624222
 30
0.0
 10
10.5128115091
 20
9.1392681851
 30
0.0
 10
10.5105535229
 20
9.1401151165
 30
0.0
 10
10.5082955349
 20
9.1409620437
 30
0.0
 10
10.5052848848
 20
9.1420912815
 30
0.0
 10
10.501521572
 20
9.1435028281
 30
0.0
 10
10.4977582594
 20
9.144914375
 30
0.0
 10
10.4947476091
 20
9.1460436121
 30
0.0
 10
10.4924896217
 20
9.1468905412
 30
0.0
 10
10.490231633
 20
9.1477374656
 30
0.0
 10
10.48834998
 20
9.1484432503
 30
0.0
 10
10.486844648
 20
9.1490078461
 30
0.0
 10
10.4859038374
 20
9.149360791
 30
0.0
 10
10.4851511389
 20
9.1496429809
 30
0.0
 10
10.4845867519
 20
9.1498550779
 30
0.0
 10
10.4841159937
 20
9.1500303793
 30
0.0
 10
10.4837873182
 20
9.1501559283
 30
0.0
 10
10.4835981682
 20
9.1502232392
 30
0.0
 10
10.4834600675
 20
9.1502862056
 30
0.0
 10
10.4833075876
 20
9.1503014547
 30
0.0
 10
10.4831092967
 20
9.1503384313
 30
0.0
 10
10.4827599508
 20
9.1503953853
 30
0.0
 10
10.482262107
 20
9.1504808025
 30
0.0
 10
10.4816641714
 20
9.1505815677
 30
0.0
 10
10.4808671067
 20
9.1507165276
 30
0.0
 10
10.4798707132
 20
9.1508850198
 30
0.0
 10
10.4782765186
 20
9.1511547234
 30
0.0
 10
10.4762837633
 20
9.1514918131
 30
0.0
 10
10.4738924621
 20
9.1518963378
 30
0.0
 10
10.4715011596
 20
9.1523008579
 30
0.0
 10
10.4683127566
 20
9.1528402196
 30
0.0
 10
10.4643272528
 20
9.1535144212
 30
0.0
 10
10.460341749
 20
9.1541886232
 30
0.0
 10
10.457153346
 20
9.1547279843
 30
0.0
 10
10.4547620437
 20
9.1551325064
 30
0.0
 10
10.4523707417
 20
9.1555370236
 30
0.0
 10
10.4503779888
 20
9.1558741365
 30
0.0
 10
10.4487837894
 20
9.1561437928
 30
0.0
 10
10.447787408
 20
9.1563124053
 30
0.0
 10
10.4469903184
 20
9.1564471183
 30
0.0
 10
10.4463924587
 20
9.1565486379
 30
0.0
 10
10.4458943776
 20
9.1566316948
 30
0.0
 10
10.4455454552
 20
9.1566928623
 30
0.0
 10
10.4453464858
 20
9.1567230878
 30
0.0
 10
10.4451960902
 20
9.1567590741
 30
0.0
 10
10.4450501613
 20
9.1567441551
 30
0.0
 10
10.4448540313
 20
9.1567420195
 30
0.0
 10
10.4445115298
 20
9.1567300092
 30
0.0
 10
10.4440218625
 20
9.1567171768
 30
0.0
 10
10.4434344241
 20
9.1566999266
 30
0.0
 10
10.4426511162
 20
9.1566775729
 30
0.0
 10
10.4416720007
 20
9.1566494095
 30
0.0
 10
10.4401054051
 20
9.1566044716
 30
0.0
 10
10.4381471644
 20
9.1565482569
 30
0.0
 10
10.4357972738
 20
9.1564808175
 30
0.0
 10
10.4334473837
 20
9.1564133731
 30
0.0
 10
10.4303141968
 20
9.1563234491
 30
0.0
 10
10.4263977132
 20
9.1562110433
 30
0.0
 10
10.4224812295
 20
9.156098638
 30
0.0
 10
10.4193480426
 20
9.1560087133
 30
0.0
 10
10.4169981522
 20
9.155941271
 30
0.0
 10
10.4146482628
 20
9.1558738239
 30
0.0
 10
10.4126900187
 20
9.1558176328
 30
0.0
 10
10.4111234299
 20
9.1557726469
 30
0.0
 10
10.4101442972
 20
9.1557446058
 30
0.0
 10
10.4093610246
 20
9.1557220009
 30
0.0
 10
10.4087734782
 20
9.1557055182
 30
0.0
 10
10.4082841488
 20
9.1556902846
 30
0.0
 10
10.407941044
 20
9.1556825608
 30
0.0
 10
10.4077458807
 20
9.1556735571
 30
0.0
 10
10.4075969826
 20
9.1556797346
 30
0.0
 10
10.4074577386
 20
9.1556364862
 30
0.0
 10
10.4072687124
 20
9.1555960619
 30
0.0
 10
10.4069394856
 20
9.1555172868
 30
0.0
 10
10.4064683413
 20
9.1554089506
 30
0.0
 10
10.4059033193
 20
9.1552771495
 30
0.0
 10
10.4051498339
 20
9.1551020426
 30
0.0
 10
10.4042080192
 20
9.1548829441
 30
0.0
 10
10.4027010921
 20
9.1545325065
 30
0.0
 10
10.4008174414
 20
9.1540944183
 30
0.0
 10
10.3985570571
 20
9.1535687301
 30
0.0
 10
10.3962966737
 20
9.1530430372
 30
0.0
 10
10.3932828288
 20
9.152342115
 30
0.0
 10
10.3895155228
 20
9.1514659616
 30
0.0
 10
10.3857482168
 20
9.1505898086
 30
0.0
 10
10.3827343721
 20
9.1498888857
 30
0.0
 10
10.3804739881
 20
9.1493631948
 30
0.0
 10
10.3782136059
 20
9.1488374993
 30
0.0
 10
10.3763299485
 20
9.1483994338
 30
0.0
 10
10.3748230352
 20
9.1480489499
 30
0.0
 10
10.3738811856
 20
9.1478299692
 30
0.0
 10
10.3731277718
 20
9.1476546203
 30
0.0
 10
10.372562531
 20
9.1475235588
 30
0.0
 10
10.372092071
 20
9.1474129085
 30
0.0
 10
10.3717616226
 20
9.1473382645
 30
0.0
 10
10.3715745538
 20
9.1472912212
 30
0.0
 10
10.3714292973
 20
9.1472683041
 30
0.0
 10
10.3713029811
 20
9.1471981207
 30
0.0
 10
10.3711279529
 20
9.1471210298
 30
0.0
 10
10.3708247318
 20
9.1469784392
 30
0.0
 10
10.3703899494
 20
9.1467787543
 30
0.0
 10
10.3698688993
 20
9.1465374135
 30
0.0
 10
10.3691739253
 20
9.1462162262
 30
0.0
 10
10.3683052902
 20
9.1458145364
 30
0.0
 10
10.366915428
 20
9.1451719477
 30
0.0
 10
10.365178116
 20
9.1443686724
 30
0.0
 10
10.3630933349
 20
9.1434047589
 30
0.0
 10
10.3610085556
 20
9.1424408408
 30
0.0
 10
10.3582288492
 20
9.1411556184
 30
0.0
 10
10.3547542164
 20
9.1395490898
 30
0.0
 10
10.3512795835
 20
9.1379425615
 30
0.0
 10
10.3484998774
 20
9.1366573384
 30
0.0
 10
10.3464150972
 20
9.1356934223
 30
0.0
 10
10.3443303193
 20
9.1347295017
 30
0.0
 10
10.3425929972
 20
9.1339262484
 30
0.0
 10
10.3412031557
 20
9.1332836148
 30
0.0
 10
10.3403344678
 20
9.1328820392
 30
0.0
 10
10.3396396021
 20
9.1325606176
 30
0.0
 10
10.3391182214
 20
9.1323199924
 30
0.0
 10
10.3386844734
 20
9.1321180684
 30
0.0
 10
10.3383794057
 20
9.1319794751
 30
0.0
 10
10.3382073361
 20
9.1318959795
 30
0.0
 10
10.3380719323
 20
9.1318454696
 30
0.0
 10
10.3379608073
 20
9.131748662
 30
0.0
 10
10.3378041719
 20
9.1316357344
 30
0.0
 10
10.3375340057
 20
9.131430587
 30
0.0
 10
10.3371459911
 20
9.131141453
 30
0.0
 10
10.3366812566
 20
9.1307928084
 30
0.0
 10
10.3360613022
 20
9.130328537
 30
0.0
 10
10.3352864647
 20
9.1297479964
 30
0.0
 10
10.3340466658
 20
9.128819244
 30
0.0
 10
10.3324969374
 20
9.1276582649
 30
0.0
 10
10.3306372547
 20
9.1262651065
 30
0.0
 10
10.3287775743
 20
9.1248719437
 30
0.0
 10
10.3262979996
 20
9.1230143948
 30
0.0
 10
10.3231985315
 20
9.1206924582
 30
0.0
 10
10.3200990632
 20
9.1183705219
 30
0.0
 10
10.3176194889
 20
9.1165129725
 30
0.0
 10
10.3157598072
 20
9.1151198113
 30
0.0
 10
10.3139001292
 20
9.1137266467
 30
0.0
 10
10.312350386
 20
9.1125656868
 30
0.0
 10
10.3111106173
 20
9.1116368953
 30
0.0
 10
10.3103357028
 20
9.1110564543
 30
0.0
 10
10.3097159066
 20
9.1105919785
 30
0.0
 10
10.3092506886
 20
9.1102439582
 30
0.0
 10
10.3088641869
 20
9.1099528709
 30
0.0
 10
10.30859132
 20
9.1097512104
 30
0.0
 10
10.3084390118
 20
9.1096326959
 30
0.0
 10
10.308314595
 20
9.1095530496
 30
0.0
 10
10.308229113
 20
9.109438085
 30
0.0
 10
10.3081015561
 20
9.1092971184
 30
0.0
 10
10.3078846592
 20
9.1090446869
 30
0.0
 10
10.3075714983
 20
9.1086870714
 30
0.0
 10
10.3071971212
 20
9.1082566483
 30
0.0
 10
10.3066974571
 20
9.1076831995
 30
0.0
 10
10.3060730464
 20
9.1069662349
 30
0.0
 10
10.3050738946
 20
9.1058191774
 30
0.0
 10
10.3038249874
 20
9.104385326
 30
0.0
 10
10.3023262847
 20
9.102664717
 30
0.0
 10
10.3008275858
 20
9.1009441046
 30
0.0
 10
10.2988293193
 20
9.0986499559
 30
0.0
 10
10.2963314866
 20
9.0957822696
 30
0.0
 10
10.2938336536
 20
9.0929145835
 30
0.0
 10
10.2918353876
 20
9.0906204344
 30
0.0
 10
10.2903366871
 20
9.0888998233
 30
0.0
 10
10.2888379905
 20
9.0871792093
 30
0.0
 10
10.2875890644
 20
9.0857453734
 30
0.0
 10
10.286589951
 20
9.0845982843
 30
0.0
 10
10.2859654425
 20
9.0838814
 30
0.0
 10
10.2854659793
 20
9.0833077864
 30
0.0
 10
10.2850909885
 20
9.0828778668
 30
0.0
 10
10.2847797478
 20
9.0825186758
 30
0.0
 10
10.2845594229
 20
9.0822690569
 30
0.0
 10
10.2844373585
 20
9.0821235838
 30
0.0
 10
10.2843350052
 20
9.0820224617
 30
0.0
 10
10.2842739543
 20
9.0818908257
 30
0.0
 10
10.2841781464
 20
9.0817259545
 30
0.0
 10
10.2840171949
 20
9.081432471
 30
0.0
 10
10.2837837548
 20
9.0810158015
 30
0.0
 10
10.2835051289
 20
9.0805146884
 30
0.0
 10
10.283133103
 20
9.0798469252
 30
0.0
 10
10.2826682502
 20
9.0790120884
 30
0.0
 10
10.2819243854
 20
9.0776764238
 30
0.0
 10
10.2809945889
 20
9.0760068176
 30
0.0
 10
10.2798788182
 20
9.074003301
 30
0.0
 10
10.2787630515
 20
9.0719997815
 30
0.0
 10
10.2772753612
 20
9.0693284232
 30
0.0
 10
10.2754157489
 20
9.0659892249
 30
0.0
 10
10.2735561362
 20
9.0626500269
 30
0.0
 10
10.2720684464
 20
9.0599786682
 30
0.0
 10
10.270952678
 20
9.0579751497
 30
0.0
 10
10.2698369139
 20
9.0559716292
 30
0.0
 10
10.2689070969
 20
9.0543020353
 30
0.0
 10
10.2681632739
 20
9.0529663454
 30
0.0
 10
10.2676983148
 20
9.052131573
 30
0.0
 10
10.2673265072
 20
9.0514636776
 30
0.0
 10
10.2670472143
 20
9.0509629684
 30
0.0
 10
10.2668158609
 20
9.0505450353
 30
0.0
 10
10.2666511844
 20
9.0502538075
 30
0.0
 10
10.2665613448
 20
9.0500853222
 30
0.0
 10
10.2664819609
 20
9.0499647877
 30
0.0
 10
10.2664484634
 20
9.0498219702
 30
0.0
 10
10.2663877943
 20
9.0496393195
 30
0.0
 10
10.2662890807
 20
9.0493160594
 30
0.0
 10
10.2661441625
 20
9.0488561526
 30
0.0
 10
10.2659719294
 20
9.048303454
 30
0.0
 10
10.2657417025
 20
9.0475668055
 30
0.0
 10
10.2654541185
 20
9.0466458981
 30
0.0
 10
10.2649938724
 20
9.0451725003
 30
0.0
 10
10.2644186031
 20
9.0433307345
 30
0.0
 10
10.2637282635
 20
9.0411206235
 30
0.0
 10
10.2630379284
 20
9.0389105104
 30
0.0
 10
10.2621174799
 20
9.0359636937
 30
0.0
 10
10.26096692
 20
9.0322801725
 30
0.0
 10
10.2598163596
 20
9.0285966515
 30
0.0
 10
10.2588959118
 20
9.0256498345
 30
0.0
 10
10.2582055747
 20
9.0234397222
 30
0.0
 10
10.2575152423
 20
9.0212296082
 30
0.0
 10
10.2569399508
 20
9.0193878518
 30
0.0
 10
10.25647975
 20
9.0179144348
 30
0.0
 10
10.2561920506
 20
9.0169935762
 30
0.0
 10
10.2559620605
 20
9.0162568275
 30
0.0
 10
10.2557891039
 20
9.0157044352
 30
0.0
 10
10.2556464497
 20
9.0152435701
 30
0.0
 10
10.2555436944
 20
9.0149220206
 30
0.0
 10
10.2554895011
 20
9.014736629
 30
0.0
 10
10.255436112
 20
9.0146022308
 30
0.0
 10
10.2554314374
 20
9.0144500751
 30
0.0
 10
10.2554082124
 20
9.0142533947
 30
0.0
 10
10.2553754856
 20
9.0139063183
 30
0.0
 10
10.255324594
 20
9.0134120036
 30
0.0
 10
10.2552652957
 20
9.0128181801
 30
0.0
 10
10.2551856125
 20
9.012026641
 30
0.0
 10
10.2550862203
 20
9.01103714
 30
0.0
 10
10.2549270745
 20
9.0094539815
 30
0.0
 10
10.2547281829
 20
9.0074750185
 30
0.0
 10
10.2544894955
 20
9.0051002693
 30
0.0
 10
10.2542508128
 20
9.0027255184
 30
0.0
 10
10.2539325675
 20
8.9995591844
 30
0.0
 10
10.2535347615
 20
8.9956012668
 30
0.0
 10
10.2530573941
 20
8.9908517657
 30
0.0
 10
10.2524209043
 20
8.9845190975
 30
0.0
 10
10.2519435369
 20
8.9797695964
 30
0.0
 10
10.2516252919
 20
8.9766032623
 30
0.0
  0
ENDSEC
  0
SECTION
  2
OBJECTS
  0
DICTIONARY
  5
C
100
AcDbDictionary
280
0
281
1
  3
ACAD_GROUP
350
D
  3
ACAD_MLINESTYLE
350
17
  3
ACAD_LAYOUT
350
1A
  3
ACAD_PLOTSETTINGS
350
19
  3
ACAD_PLOTSTYLENAME
350
E
  3
ACAD_IMAGE_DICT
350
       3C3
  3
ACAD_IMAGE_VARS
350
       3C4
  3
ACAD_TABLESTYLE
350
       3C5
  0
IMAGEDEF_REACTOR
  5
3C2
100
AcDbRasterImageDefReactor
 90
2
330
28F
  0
DICTIONARY
  5
D
102
{ACAD_REACTORS
330
C
102
}
100
AcDbDictionary
280
0
281
1
  0
ACDBDICTIONARYWDFLT
  5
E
102
{ACAD_REACTORS
330
C
102
}
100
AcDbDictionary
281
1
  3
Normal
350
F
100
AcDbDictionaryWithDefault
340
F
  0
DICTIONARY
  5
3C3
330
C
100
AcDbDictionary
281
1
  3
J2T_assy_2_img_1
350
       3C8
  0
RASTERVARIABLES
  5
3C4
330
C
100
AcDbRasterVariables
 90
0
 70
0
 71
1
 72
5
  0
DICTIONARY
  5
17
102
{ACAD_REACTORS
330
C
102
}
100
AcDbDictionary
280
0
281
1
  3
Standard
350
18
  0
DICTIONARY
  5
3C5
330
C
100
AcDbDictionary
281
1
  3
Standard
350
       3C9
  3
Standard1
350
       3CA
  0
DICTIONARY
  5
19
102
{ACAD_REACTORS
330
C
102
}
100
AcDbDictionary
281
1
  0
DICTIONARY
  5
1A
102
{ACAD_REACTORS
330
C
102
}
100
AcDbDictionary
281
1
  3
Model
350
3C6
  3
Layout1
350
3C7
  0
ACDBPLACEHOLDER
  5
F
102
{ACAD_REACTORS
330
E
102
}
  0
MLINESTYLE
  5
18
102
{ACAD_REACTORS
330
17
102
}
100
AcDbMlineStyle
  2
STANDARD
 70
0
  3

 62
256
 51
90.0
 52
90.0
 71
2
 49
0.5
 62
256
  6
BYLAYER
 49
-0.5
 62
256
  6
BYLAYER
  0
LAYOUT
  5
3C6
102
{ACAD_REACTORS
330
1A
102
}
100
AcDbPlotSettings
  1

  2
none_device
  4
ANSI_C_(22.00_x_17.00_Inches)
  6

 40
0.0
 41
0.0
 42
0.0
 43
0.0
 44
558.8
 45
431.8
 46
0.0
 47
0.0
 48
0.0
 49
0.0
140
0.0
141
0.0
142
1.0
143
1.0
 70
1024
 72
0
 73
0
 74
0
  7

 75
0
147
1.0
148
0.0
149
0.0
100
AcDbLayout
  1
Model
 70
0
 71
0
 10
0.0
 20
0.0
 11
22.0
 21
17.0
 12
0.0
 22
0.0
 32
0.0
 14
0.0
 24
0.0
 34
0.0
 15
0.0
 25
0.0
 35
0.0
146
0.0
 13
0.0
 23
0.0
 33
0.0
 16
1.0
 26
0.0
 36
0.0
 17
0.0
 27
1.0
 37
0.0
 76
0
330
20C
345
0
346
0
  0
LAYOUT
  5
3C7
102
{ACAD_REACTORS
330
1A
102
}
100
AcDbPlotSettings
  1

  2
none_device
  4
ANSI_C_(22.00_x_17.00_Inches)
  6

 40
0.0
 41
0.0
 42
0.0
 43
0.0
 44
558.8
 45
431.8
 46
0.0
 47
0.0
 48
0.0
 49
0.0
140
0.0
141
0.0
142
1.0
143
1.0
 70
0
 72
0
 73
0
 74
0
  7

 75
0
147
1.0
148
0.0
149
0.0
100
AcDbLayout
  1
Layout1
 70
0
 71
1
 10
0.0
 20
0.0
 11
22.0
 21
17.0
 12
0.0
 22
0.0
 32
0.0
 14
0.0
 24
0.0
 34
0.0
 15
0.0
 25
0.0
 35
0.0
146
0.0
 13
0.0
 23
0.0
 33
0.0
 16
1.0
 26
0.0
 36
0.0
 17
0.0
 27
1.0
 37
0.0
 76
0
330
20D
345
0
346
0
  0
IMAGEDEF
  5
3C8
102
{ACAD_REACTORS
330
3C3
330
3C2
102
}
100
AcDbRasterImageDef
 90
0
  1
J2T_assy_2_img_1.png
 10
369.0
 20
92.0
 11
0.0066666667
 21
0.0066666667
280
1
281
0
  0
TABLESTYLE
  5
3C9
102
{ACAD_REACTORS
330
3C5
330
292
330
293
102
}
330
3C5
100
AcDbTableStyle
  3
Standard
 70
0
 71
0
 40
0.06
 41
0.06
280
1
281
1
  7
Standard
140
0.18
170
1
 62
0
 63
7
283
0
  7
Standard
140
0.18
170
1
 62
0
 63
7
283
0
  7
Standard
140
0.18
170
1
 62
0
 63
7
283
0
  0
TABLESTYLE
  5
3CA
102
{ACAD_REACTORS
330
3C5
330
291
102
}
330
3C5
100
AcDbTableStyle
  3
Standard1
 70
1
 71
0
 40
0.06
 41
0.06
280
1
281
1
  7
Standard
140
0.18
170
1
 62
0
 63
7
283
0
  7
Standard
140
0.18
170
1
 62
0
 63
7
283
0
  7
Standard
140
0.18
170
1
 62
0
 63
7
283
0
  0
ENDSEC
  0
EOF
