999
DXF file: J2I_assy_2.dxf
999
Pro/ENGINEER 2014200 by Parametric Technology Corporation
  0
SECTION
  2
HEADER
  9
$ACADVER
  1
AC1021
  9
$DWGCODEPAGE
  3
ANSI_1252
  9
$EXTMAX
 10
22.0
 20
17.0
 30
0.0
  9
$EXTMIN
 10
0.0
 20
0.0
 30
0.0
  9
$LIMMIN
 10
0.0
 20
0.0
  9
$LIMMAX
 10
22.0
 20
17.0
  9
$VIEWCTR
 10
11.0
 20
8.5
  9
$VIEWSIZE
 40
17.0
  9
$CLAYER
  8
0
  9
$LTSCALE
 40
1.21
  9
$CELTYPE
  6
BYLAYER
  9
$DIMSCALE
 40
1.0
  9
$DIMASZ
 40
0.1875
  9
$DIMEXO
 40
0.0625
  9
$DIMDLI
 40
0.836
  9
$DIMEXE
 40
0.125
  9
$DIMCEN
 40
0.198
  9
$DIMLFAC
 40
1.0
  9
$DIMBLK
  1
_FILLED
  9
$DIMTXT
 40
0.1
  9
$DIMTOL
 70
0
  9
$DIMLIM
 70
0
  9
$DIMTFAC
 40
1.0
  9
$DIMGAP
 40
0.09
  9
$DIMDSEP
 70
46
  9
$AUNITS
 70
0
  9
$PDMODE
 70
3
  9
$PDSIZE
 40
0.3125
  9
$HANDSEED
  5
3BE
  9
$TILEMODE
 70
1
  9
$MEASUREMENT
 70
0
  9
$INSUNITS
 70
1
  0
ENDSEC
  0
SECTION
  2
CLASSES
  0
CLASS
  1
ACDBDICTIONARYWDFLT
  2
AcDbDictionaryWithDefault
  3
AutoCAD 2000
 90
0
 91
1
280
0
281
0
  0
CLASS
  1
ACDBPLACEHOLDER
  2
AcDbPlaceHolder
  3
AutoCAD 2000
 90
0
 91
1
280
0
281
0
  0
CLASS
  1
LAYOUT
  2
AcDbLayout
  3
AutoCAD 2000
 90
0
 91
0
280
0
281
0
  0
CLASS
  1
RASTERVARIABLES
  2
AcDbRasterVariables
  3
ISM
 90
0
 91
1
280
0
281
0
  0
CLASS
  1
IMAGEDEF
  2
AcDbRasterImageDef
  3
ISM
 90
0
 91
1
280
0
281
0
  0
CLASS
  1
IMAGEDEF_REACTOR
  2
AcDbRasterImageDefReactor
  3
ISM
 90
0
 91
1
280
0
281
0
  0
CLASS
  1
IMAGE
  2
AcDbRasterImage
  3
ISM
 90
127
 91
1
280
0
281
1
  0
CLASS
  1
TABLESTYLE
  2
AcDbTableStyle
  3
ObjectDBX Classes
 90
2047
 91
1
280
0
281
0
  0
CLASS
  1
ACAD_TABLE
  2
AcDbTable
  3
ObjectDBX Classes
 90
1025
 91
3
280
0
281
1
  0
ENDSEC
  0
SECTION
  2
TABLES
  0
TABLE
  2
VPORT
  5
8
100
AcDbSymbolTable
 70
2
  0
VPORT
  5
1F4
100
AcDbSymbolTableRecord
100
AcDbViewportTableRecord
  2
*ACTIVE
 70
0
 10
0.0
 20
0.0
 11
1.0
 21
1.0
 12
11.0
 22
8.5
 13
0.0
 23
0.0
 14
1.0
 24
1.0
 15
0.0
 25
0.0
 16
0.0
 26
0.0
 36
1.0
 17
0.0
 27
0.0
 37
0.0
 40
17.0
 41
1.2941176471
 42
50.0
 43
0.0
 44
0.0
 50
0.0
 51
0.0
 71
0
 72
100
 73
1
 74
1
 75
0
 76
0
 77
0
 78
0
  0
ENDTAB
  0
TABLE
  2
LTYPE
  5
5
100
AcDbSymbolTable
 70
6
  0
LTYPE
  5
14
100
AcDbSymbolTableRecord
100
AcDbLinetypeTableRecord
  2
BYBLOCK
 70
0
  3

 72
65
 73
0
 40
0.0
  0
LTYPE
  5
15
100
AcDbSymbolTableRecord
100
AcDbLinetypeTableRecord
  2
BYLAYER
 70
0
  3

 72
65
 73
0
 40
0.0
  0
LTYPE
  5
16
100
AcDbSymbolTableRecord
100
AcDbLinetypeTableRecord
  2
CONTINUOUS
 70
64
  3
Solid line
 72
65
 73
0
 40
0.0
  0
LTYPE
  5
1F5
100
AcDbSymbolTableRecord
100
AcDbLinetypeTableRecord
  2
CENTER
 70
64
  3
____ _ ____ _ ____ _ ____ _ ____ _ ____ _ ____
 72
65
 73
4
 40
0.6
 49
0.375
 74
0
 49
-0.075
 74
0
 49
0.075
 74
0
 49
-0.075
 74
0
  0
LTYPE
  5
1F6
100
AcDbSymbolTableRecord
100
AcDbLinetypeTableRecord
  2
HIDDEN
 70
64
  3
- - - - - - - - - - - - - - - - - - - -
 72
65
 73
2
 40
0.2
 49
0.1
 74
0
 49
-0.1
 74
0
  0
LTYPE
  5
1F7
100
AcDbSymbolTableRecord
100
AcDbLinetypeTableRecord
  2
PHANTOM
 70
64
  3
_____ _ _ _____ _ _ _____ _ _ _____
 72
65
 73
6
 40
0.8
 49
0.45
 74
0
 49
-0.05
 74
0
 49
0.1
 74
0
 49
-0.05
 74
0
 49
0.1
 74
0
 49
-0.05
 74
0
  0
LTYPE
  5
1F8
100
AcDbSymbolTableRecord
100
AcDbLinetypeTableRecord
  2
DOT
 70
64
  3
. . . . . . . . . . . . . . . . . . . .
 72
65
 73
2
 40
0.2
 49
0.1
 74
0
 49
-0.1
 74
0
  0
LTYPE
  5
1F9
100
AcDbSymbolTableRecord
100
AcDbLinetypeTableRecord
  2
DASHED
 70
64
  3
- - - - - - - - - - - - - - - - - - - -
 72
65
 73
2
 40
0.2
 49
0.1
 74
0
 49
-0.1
 74
0
  0
ENDTAB
  0
TABLE
  2
LAYER
  5
2
100
AcDbSymbolTable
 70
36
  0
LAYER
  5
10
100
AcDbSymbolTableRecord
100
AcDbLayerTableRecord
  2
0
 70
0
 62
7
  6
CONTINUOUS
370
-3
390
F
  0
LAYER
  5
1FA
100
AcDbSymbolTableRecord
100
AcDbLayerTableRecord
  2
DEFAULT_1
 70
0
 62
7
  6
CENTER
370
-3
390
F
  0
LAYER
  5
1FB
100
AcDbSymbolTableRecord
100
AcDbLayerTableRecord
  2
DEFAULT_2
 70
0
 62
8
  6
HIDDEN
370
-3
390
F
  0
LAYER
  5
1FC
100
AcDbSymbolTableRecord
100
AcDbLayerTableRecord
  2
DEFAULT_3
 70
0
 62
7
  6
PHANTOM
370
-3
390
F
  0
LAYER
  5
1FD
100
AcDbSymbolTableRecord
100
AcDbLayerTableRecord
  2
01___PRT_ALL_DTM_PLN
 70
0
 62
7
  6
CONTINUOUS
370
-3
390
F
  0
LAYER
  5
1FE
100
AcDbSymbolTableRecord
100
AcDbLayerTableRecord
  2
01___PRT_DEF_DTM_PLN
 70
0
 62
7
  6
CONTINUOUS
370
-3
390
F
  0
LAYER
  5
1FF
100
AcDbSymbolTableRecord
100
AcDbLayerTableRecord
  2
02___PRT_ALL_AXES
 70
0
 62
7
  6
CONTINUOUS
370
-3
390
F
  0
LAYER
  5
200
100
AcDbSymbolTableRecord
100
AcDbLayerTableRecord
  2
03___PRT_ALL_CURVES
 70
0
 62
7
  6
CONTINUOUS
370
-3
390
F
  0
LAYER
  5
201
100
AcDbSymbolTableRecord
100
AcDbLayerTableRecord
  2
04___PRT_ALL_DTM_PNT
 70
0
 62
7
  6
CONTINUOUS
370
-3
390
F
  0
LAYER
  5
202
100
AcDbSymbolTableRecord
100
AcDbLayerTableRecord
  2
05___PRT_ALL_DTM_CSYS
 70
0
 62
7
  6
CONTINUOUS
370
-3
390
F
  0
LAYER
  5
203
100
AcDbSymbolTableRecord
100
AcDbLayerTableRecord
  2
05___PRT_DEF_DTM_CSYS
 70
0
 62
7
  6
CONTINUOUS
370
-3
390
F
  0
LAYER
  5
204
100
AcDbSymbolTableRecord
100
AcDbLayerTableRecord
  2
06___PRT_ALL_SURFS
 70
0
 62
7
  6
CONTINUOUS
370
-3
390
F
  0
LAYER
  5
205
100
AcDbSymbolTableRecord
100
AcDbLayerTableRecord
  2
DATUM_PLANES
 70
0
 62
7
  6
CONTINUOUS
370
-3
390
F
  0
LAYER
  5
206
100
AcDbSymbolTableRecord
100
AcDbLayerTableRecord
  2
PORT_AREAS
 70
0
 62
7
  6
CONTINUOUS
370
-3
390
F
  0
LAYER
  5
207
100
AcDbSymbolTableRecord
100
AcDbLayerTableRecord
  2
SUNNBOMCOSMETIC
 70
0
 62
7
  6
CONTINUOUS
370
-3
390
F
  0
LAYER
  5
208
100
AcDbSymbolTableRecord
100
AcDbLayerTableRecord
  2
SUNNBOMSTAMPING
 70
0
 62
7
  6
CONTINUOUS
370
-3
390
F
  0
LAYER
  5
209
100
AcDbSymbolTableRecord
100
AcDbLayerTableRecord
  2
THREADS
 70
0
 62
7
  6
CONTINUOUS
370
-3
390
F
  0
ENDTAB
  0
TABLE
  2
STYLE
  5
3
100
AcDbSymbolTable
 70
1
  0
STYLE
  5
11
100
AcDbSymbolTableRecord
100
AcDbTextStyleTableRecord
  2
STANDARD
 70
0
 40
0.0
 41
0.8
 50
0.0
 71
0
 42
0.2
  3
txt
  4

  0
STYLE
  5
20A
100
AcDbSymbolTableRecord
100
AcDbTextStyleTableRecord
  2
TEXTSTYLE_1
 70
0
 40
0.0
 41
0.8
 50
0.0
 71
0
 42
0.2
  3
gdt
  4

  0
ENDTAB
  0
TABLE
  2
VIEW
  5
6
100
AcDbSymbolTable
 70
0
  0
ENDTAB
  0
TABLE
  2
UCS
  5
7
100
AcDbSymbolTable
 70
0
  0
ENDTAB
  0
TABLE
  2
APPID
  5
9
100
AcDbSymbolTable
 70
1
  0
APPID
  5
20B
100
AcDbSymbolTableRecord
100
AcDbRegAppTableRecord
  2
ACAD
 70
0
  0
ENDTAB
  0
TABLE
  2
BLOCK_RECORD
  5
1
100
AcDbSymbolTable
 70
0
  0
BLOCK_RECORD
  5
20C
100
AcDbSymbolTableRecord
100
AcDbBlockTableRecord
  2
*Model_Space
  0
BLOCK_RECORD
  5
20D
100
AcDbSymbolTableRecord
100
AcDbBlockTableRecord
  2
*Paper_Space
  0
BLOCK_RECORD
  5
20E
100
AcDbSymbolTableRecord
100
AcDbBlockTableRecord
  2
SUN_FIRST_THIRD_ANGLE_BL0
  0
BLOCK_RECORD
  5
20F
100
AcDbSymbolTableRecord
100
AcDbBlockTableRecord
  2
*T1
  0
BLOCK_RECORD
  5
210
100
AcDbSymbolTableRecord
100
AcDbBlockTableRecord
  2
*T2
  0
BLOCK_RECORD
  5
211
100
AcDbSymbolTableRecord
100
AcDbBlockTableRecord
  2
*T3
  0
ENDTAB
  0
TABLE
  2
DIMSTYLE
  5
A
100
AcDbSymbolTable
 70
1
100
AcDbDimStyleTable
 71
0
  0
DIMSTYLE
105
212
100
AcDbSymbolTableRecord
100
AcDbDimStyleTableRecord
  2
STANDARD
 70
0
  3

  4

 40
1.0
 41
0.1875
 42
0.0625
 43
0.38
 44
0.125
 45
0.0
 46
0.0
 47
0.001
 48
0.001
140
0.1
141
0.09
142
0.0
143
25.4
144
1.0
145
0.0
146
1.0
147
0.09
 71
0.0
 72
0.0
 73
1
 74
1
 75
0
 76
0
 77
0
 78
4
170
0
171
2
172
0
173
0
174
0
175
0
176
0
177
0
178
0
270
2
271
3
272
3
273
2
274
2
275
0
280
0
281
0
282
0
283
1
284
4
285
0
286
0
287
3
288
0
340
11
278
46
  0
ENDTAB
  0
ENDSEC
  0
SECTION
  2
BLOCKS
  0
BLOCK
  5
20
100
AcDbEntity
  8
0
100
AcDbBlockBegin
  2
*Model_Space
 70
0
 10
0.0
 20
0.0
 30
0.0
  3
*Model_Space
  1

  0
ENDBLK
  5
21
100
AcDbEntity
  8
0
100
AcDbBlockEnd
  0
BLOCK
  5
1C
100
AcDbEntity
  8
0
100
AcDbBlockBegin
  2
*Paper_Space
 70
0
 10
0.0
 20
0.0
 30
0.0
  3
*Paper_Space
  1

  0
ENDBLK
  5
1D
100
AcDbEntity
  8
0
100
AcDbBlockEnd
  0
BLOCK
  5
213
100
AcDbEntity
  8
0
100
AcDbBlockBegin
 62
2
  6
CONTINUOUS
  2
SUN_FIRST_THIRD_ANGLE_BL0
 70
64
 10
20.4816717061
 20
1.2289683772
  3
SUN_FIRST_THIRD_ANGLE_BL0
  1

  0
TEXT
  5
214
100
AcDbEntity
  8
0
100
AcDbText
 62
2
  6
CONTINUOUS
 10
19.4750896608
 20
1.4136269581
  7
STANDARD
 40
0.08
  1
FIRST ANGLE
 41
0.8
 72
0
100
AcDbText
  0
TEXT
  5
215
100
AcDbEntity
  8
0
100
AcDbText
 62
2
  6
CONTINUOUS
 10
20.7842537513
 20
1.4047600029
  7
STANDARD
 40
0.08
  1
THIRD ANGLE
 41
0.8
 72
0
100
AcDbText
  0
LINE
  5
216
100
AcDbEntity
  8
0
100
AcDbLine
 62
7
  6
CONTINUOUS
 10
19.4767170086
 20
1.1727031207
 11
19.6334271527
 21
1.1717972817
  0
LINE
  5
217
100
AcDbEntity
  8
0
100
AcDbLine
 62
7
  6
CONTINUOUS
 10
19.6596964832
 20
1.1717972817
 11
19.6950230232
 21
1.171593082
  0
LINE
  5
218
100
AcDbEntity
  8
0
100
AcDbLine
 62
7
  6
CONTINUOUS
 10
19.7194818561
 20
1.1708914427
 11
19.8852396156
 21
1.1699333054
  0
LINE
  5
219
100
AcDbEntity
  8
0
100
AcDbLine
 62
7
  6
CONTINUOUS
 10
19.4758111696
 20
1.2723454088
 11
19.88525039
 21
1.3511534004
  0
LINE
  5
21A
100
AcDbEntity
  8
0
100
AcDbLine
 62
7
  6
CONTINUOUS
 10
19.88525039
 20
1.3511534004
 11
19.8831348489
 21
0.9851647912
  0
LINE
  5
21B
100
AcDbEntity
  8
0
100
AcDbLine
 62
7
  6
CONTINUOUS
 10
19.8831348489
 20
0.9851647912
 11
19.4767170086
 21
1.0658141206
  0
LINE
  5
21C
100
AcDbEntity
  8
0
100
AcDbLine
 62
7
  6
CONTINUOUS
 10
19.4767170086
 20
1.0658141206
 11
19.4779056764
 21
1.2714536432
  0
CIRCLE
  5
21D
100
AcDbEntity
  8
0
100
AcDbCircle
 62
7
  6
CONTINUOUS
 10
20.2068232291
 20
1.1717972817
 40
0.175742101
  0
CIRCLE
  5
21E
100
AcDbEntity
  8
0
100
AcDbCircle
 62
7
  6
CONTINUOUS
 10
20.2068232291
 20
1.1717972817
 40
0.1005522074
  0
LINE
  5
21F
100
AcDbEntity
  8
0
100
AcDbLine
 62
7
  6
CONTINUOUS
 10
20.2077290681
 20
1.3756110529
 11
20.2071171714
 21
1.2379342989
  0
LINE
  5
220
100
AcDbEntity
  8
0
100
AcDbLine
 62
7
  6
CONTINUOUS
 10
20.2077290681
 20
1.2016899681
 11
20.2074674401
 21
1.1428236749
  0
LINE
  5
221
100
AcDbEntity
  8
0
100
AcDbLine
 62
7
  6
CONTINUOUS
 10
20.208634907
 20
1.101141841
 11
20.2080230104
 21
0.963465087
  0
LINE
  5
222
100
AcDbEntity
  8
0
100
AcDbLine
 62
7
  6
CONTINUOUS
 10
20.0066328138
 20
1.1745147986
 11
20.1443095678
 21
1.1739029019
  0
LINE
  5
223
100
AcDbEntity
  8
0
100
AcDbLine
 62
7
  6
CONTINUOUS
 10
20.1832714155
 20
1.1727031207
 11
20.238153505
 21
1.172335442
  0
LINE
  5
224
100
AcDbEntity
  8
0
100
AcDbLine
 62
7
  6
CONTINUOUS
 10
20.2756669918
 20
1.1717972817
 11
20.407916871
 21
1.1712095044
  0
CIRCLE
  5
225
100
AcDbEntity
  8
0
100
AcDbCircle
 62
7
  6
CONTINUOUS
 10
20.7509457401
 20
1.1693297793
 40
0.1722024983
  0
CIRCLE
  5
226
100
AcDbEntity
  8
0
100
AcDbCircle
 62
7
  6
CONTINUOUS
 10
20.7509457401
 20
1.1693297793
 40
0.0985164967
  0
LINE
  5
227
100
AcDbEntity
  8
0
100
AcDbLine
 62
7
  6
CONTINUOUS
 10
20.7169767782
 20
1.170462078
 11
20.7825395137
 21
1.1682766535
  0
LINE
  5
228
100
AcDbEntity
  8
0
100
AcDbLine
 62
7
  6
CONTINUOUS
 10
20.8177513651
 20
1.1693297793
 11
20.947965719
 21
1.1693297793
  0
LINE
  5
229
100
AcDbEntity
  8
0
100
AcDbLine
 62
7
  6
CONTINUOUS
 10
20.6875370113
 20
1.170462078
 11
20.5573226574
 21
1.170462078
  0
LINE
  5
22A
100
AcDbEntity
  8
0
100
AcDbLine
 62
7
  6
CONTINUOUS
 10
20.7486811426
 20
1.1987695462
 11
20.7486811426
 21
1.1432869085
  0
LINE
  5
22B
100
AcDbEntity
  8
0
100
AcDbLine
 62
7
  6
CONTINUOUS
 10
20.7498134414
 20
1.1059210505
 11
20.7498134414
 21
0.9757066966
  0
LINE
  5
22C
100
AcDbEntity
  8
0
100
AcDbLine
 62
7
  6
CONTINUOUS
 10
20.7486811426
 20
1.2338708068
 11
20.7486811426
 21
1.3640851607
  0
LINE
  5
22D
100
AcDbEntity
  8
0
100
AcDbLine
 62
7
  6
CONTINUOUS
 10
21.0702539817
 20
1.2701043662
 11
21.4790138229
 21
1.3448360823
  0
LINE
  5
22E
100
AcDbEntity
  8
0
100
AcDbLine
 62
7
  6
CONTINUOUS
 10
21.4790138229
 20
1.3448360823
 11
21.4790138229
 21
0.9779712941
  0
LINE
  5
22F
100
AcDbEntity
  8
0
100
AcDbLine
 62
7
  6
CONTINUOUS
 10
21.4790138229
 20
0.9779712941
 11
21.069121683
 21
1.0617614
  0
LINE
  5
230
100
AcDbEntity
  8
0
100
AcDbLine
 62
7
  6
CONTINUOUS
 10
21.0702539817
 20
1.2701043662
 11
21.069121683
 21
1.0617614
  0
LINE
  5
231
100
AcDbEntity
  8
0
100
AcDbLine
 62
7
  6
CONTINUOUS
 10
21.4790138229
 20
1.1693297793
 11
21.3159628059
 21
1.1693297793
  0
LINE
  5
232
100
AcDbEntity
  8
0
100
AcDbLine
 62
7
  6
CONTINUOUS
 10
21.2876553377
 20
1.1693297793
 11
21.2502894796
 21
1.1693297793
  0
LINE
  5
233
100
AcDbEntity
  8
0
100
AcDbLine
 62
7
  6
CONTINUOUS
 10
21.2208497126
 20
1.1659328831
 11
21.0713862804
 21
1.1659328831
  0
LINE
  5
234
100
AcDbEntity
  8
0
100
AcDbLine
 62
7
  6
CONTINUOUS
 10
20.4796138713
 20
1.5284908897
 11
20.4766766948
 21
0.9294458646
  0
ENDBLK
  5
235
100
AcDbEntity
  8
0
  6
BYBLOCK
 62
0
100
AcDbBlockEnd
  0
BLOCK
  5
236
100
AcDbEntity
  8
0
100
AcDbBlockBegin
  2
*T1
 70
1
 10
0.0
 20
0.0
  3
*T1
  1

  0
LINE
  5
237
100
AcDbEntity
  8
0
100
AcDbLine
 62
2
  6
CONTINUOUS
 10
9.275
 20
0.0
 11
-0.0
 21
0.0
  0
LINE
  5
238
100
AcDbEntity
  8
0
100
AcDbLine
 62
2
  6
CONTINUOUS
 10
9.275
 20
0.0
 11
9.275
 21
1.25
  0
LINE
  5
239
100
AcDbEntity
  8
0
100
AcDbLine
 62
2
  6
CONTINUOUS
 10
9.275
 20
0.625
 11
-0.0
 21
0.625
  0
LINE
  5
23A
100
AcDbEntity
  8
0
100
AcDbLine
 62
2
  6
CONTINUOUS
 10
9.275
 20
1.25
 11
-0.0
 21
1.25
  0
LINE
  5
23B
100
AcDbEntity
  8
0
100
AcDbLine
 62
2
  6
CONTINUOUS
 10
6.8
 20
0.0
 11
6.8
 21
1.25
  0
LINE
  5
23C
100
AcDbEntity
  8
0
100
AcDbLine
 62
2
  6
CONTINUOUS
 10
6.4
 20
0.0
 11
6.4
 21
0.625
  0
LINE
  5
23D
100
AcDbEntity
  8
0
100
AcDbLine
 62
2
  6
CONTINUOUS
 10
5.9
 20
0.0
 11
5.9
 21
0.625
  0
LINE
  5
23E
100
AcDbEntity
  8
0
100
AcDbLine
 62
2
  6
CONTINUOUS
 10
5.2
 20
0.0
 11
5.2
 21
0.625
  0
LINE
  5
23F
100
AcDbEntity
  8
0
100
AcDbLine
 62
2
  6
CONTINUOUS
 10
4.1
 20
0.0
 11
4.1
 21
1.25
  0
LINE
  5
240
100
AcDbEntity
  8
0
100
AcDbLine
 62
2
  6
CONTINUOUS
 10
-0.0
 20
0.0
 11
-0.0
 21
1.25
  0
MTEXT
  5
241
100
AcDbEntity
  8
0
100
AcDbMText
 62
2
  6
CONTINUOUS
  7
STANDARD
 71
2
 72
1
 10
6.6
 20
0.325
 30
0.0
 11
1.0
 21
0.0
 31
0.0
 44
0.9
  1
2
 40
0.125
 41
0.2
  0
MTEXT
  5
242
100
AcDbEntity
  8
0
100
AcDbMText
 62
2
  6
CONTINUOUS
  7
STANDARD
 71
2
 72
1
 10
6.15
 20
0.325
 30
0.0
 11
1.0
 21
0.0
 31
0.0
 44
0.9
  1
C
 40
0.125
 41
0.2
  0
MTEXT
  5
243
100
AcDbEntity
  8
0
100
AcDbMText
 62
2
  6
CONTINUOUS
  7
STANDARD
 71
2
 72
1
 10
5.55
 20
0.325
 30
0.0
 11
1.0
 21
0.0
 31
0.0
 44
0.9
  1
1.000
 40
0.125
 41
1.0
  0
MTEXT
  5
244
100
AcDbEntity
  8
0
100
AcDbMText
 62
2
  6
CONTINUOUS
  7
STANDARD
 71
2
 72
1
 10
4.65
 20
0.325
 30
0.0
 11
1.0
 21
0.0
 31
0.0
 44
0.9
  1
Oct-29-19
 40
0.125
 41
1.8
  0
MTEXT
  5
245
100
AcDbEntity
  8
0
100
AcDbMText
 62
2
  6
CONTINUOUS
  7
STANDARD
 71
2
 72
1
 10
2.05
 20
0.4625
 30
0.0
 11
1.0
 21
0.0
 31
0.0
 44
0.9
  1
T-163A Line mount\P(See Technical Data for Body Features)
 40
0.125
 41
7.6
  0
MTEXT
  5
246
100
AcDbEntity
  8
0
100
AcDbMText
 62
2
  6
CONTINUOUS
  7
STANDARD
 71
1
 72
1
 10
6.45
 20
0.5625
 30
0.0
 11
1.0
 21
0.0
 31
0.0
 44
0.9
  1
SHEET
 40
0.06
 41
0.48
  0
MTEXT
  5
247
100
AcDbEntity
  8
0
100
AcDbMText
 62
2
  6
CONTINUOUS
  7
STANDARD
 71
1
 72
1
 10
5.95
 20
0.5625
 30
0.0
 11
1.0
 21
0.0
 31
0.0
 44
0.9
  1
DWG SIZE
 40
0.06
 41
0.768
  0
MTEXT
  5
248
100
AcDbEntity
  8
0
100
AcDbMText
 62
2
  6
CONTINUOUS
  7
STANDARD
 71
1
 72
1
 10
5.25
 20
0.5625
 30
0.0
 11
1.0
 21
0.0
 31
0.0
 44
0.9
  1
SCALE
 40
0.06
 41
0.48
  0
MTEXT
  5
249
100
AcDbEntity
  8
0
100
AcDbMText
 62
2
  6
CONTINUOUS
  7
STANDARD
 71
1
 72
1
 10
4.15
 20
0.5625
 30
0.0
 11
1.0
 21
0.0
 31
0.0
 44
0.9
  1
DATE
 40
0.06
 41
0.384
  0
MTEXT
  5
24A
100
AcDbEntity
  8
0
100
AcDbMText
 62
2
  6
CONTINUOUS
  7
STANDARD
 71
1
 72
1
 10
0.05
 20
0.5625
 30
0.0
 11
1.0
 21
0.0
 31
0.0
 44
0.9
  1
DESCRIPTION
 40
0.06
 41
1.056
  0
MTEXT
  5
24B
100
AcDbEntity
  8
0
100
AcDbMText
 62
2
  6
CONTINUOUS
  7
STANDARD
 71
2
 72
1
 10
5.45
 20
1.0375
 30
0.0
 11
1.0
 21
0.0
 31
0.0
 44
0.9
  1
ALL DIMENSIONS IN INCH\PVIEWS ARE THIRD ANGLE
 40
0.12
 41
4.224
  0
MTEXT
  5
24C
100
AcDbEntity
  8
0
100
AcDbMText
 62
2
  6
CONTINUOUS
  7
STANDARD
 71
2
 72
1
 10
2.05
 20
0.95
 30
0.0
 11
1.0
 21
0.0
 31
0.0
 44
0.9
  1
J2I
 40
0.125
 41
0.6
  0
MTEXT
  5
24D
100
AcDbEntity
  8
0
100
AcDbMText
 62
2
  6
CONTINUOUS
  7
STANDARD
 71
1
 72
1
 10
0.05
 20
1.1875
 30
0.0
 11
1.0
 21
0.0
 31
0.0
 44
0.9
  1
MODEL
 40
0.06
 41
0.48
  0
ENDBLK
  5
24E
100
AcDbEntity
  8
0
  6
BYBLOCK
 62
0
100
AcDbBlockEnd
  0
BLOCK
  5
24F
100
AcDbEntity
  8
0
100
AcDbBlockBegin
  2
*T2
 70
1
 10
0.0
 20
0.0
  3
*T2
  1

  0
LINE
  5
250
100
AcDbEntity
  8
0
100
AcDbLine
 62
2
  6
CONTINUOUS
 10
0.0
 20
0.0
 11
9.055
 21
0.0
  0
LINE
  5
251
100
AcDbEntity
  8
0
100
AcDbLine
 62
2
  6
CONTINUOUS
 10
0.0
 20
0.0
 11
0.0
 21
-2.594
  0
LINE
  5
252
100
AcDbEntity
  8
0
100
AcDbLine
 62
2
  6
CONTINUOUS
 10
0.0
 20
-0.344
 11
9.055
 21
-0.344
  0
LINE
  5
253
100
AcDbEntity
  8
0
100
AcDbLine
 62
2
  6
CONTINUOUS
 10
0.0
 20
-0.594
 11
9.055
 21
-0.594
  0
LINE
  5
254
100
AcDbEntity
  8
0
100
AcDbLine
 62
2
  6
CONTINUOUS
 10
0.0
 20
-0.844
 11
9.055
 21
-0.844
  0
LINE
  5
255
100
AcDbEntity
  8
0
100
AcDbLine
 62
2
  6
CONTINUOUS
 10
0.0
 20
-1.094
 11
9.055
 21
-1.094
  0
LINE
  5
256
100
AcDbEntity
  8
0
100
AcDbLine
 62
2
  6
CONTINUOUS
 10
0.0
 20
-1.344
 11
9.055
 21
-1.344
  0
LINE
  5
257
100
AcDbEntity
  8
0
100
AcDbLine
 62
2
  6
CONTINUOUS
 10
0.0
 20
-1.594
 11
9.055
 21
-1.594
  0
LINE
  5
258
100
AcDbEntity
  8
0
100
AcDbLine
 62
2
  6
CONTINUOUS
 10
0.0
 20
-1.844
 11
9.055
 21
-1.844
  0
LINE
  5
259
100
AcDbEntity
  8
0
100
AcDbLine
 62
2
  6
CONTINUOUS
 10
0.0
 20
-2.094
 11
9.055
 21
-2.094
  0
LINE
  5
25A
100
AcDbEntity
  8
0
100
AcDbLine
 62
2
  6
CONTINUOUS
 10
0.0
 20
-2.344
 11
9.055
 21
-2.344
  0
LINE
  5
25B
100
AcDbEntity
  8
0
100
AcDbLine
 62
2
  6
CONTINUOUS
 10
0.0
 20
-2.594
 11
9.055
 21
-2.594
  0
LINE
  5
25C
100
AcDbEntity
  8
0
100
AcDbLine
 62
2
  6
CONTINUOUS
 10
3.055
 20
0.0
 11
3.055
 21
-2.594
  0
LINE
  5
25D
100
AcDbEntity
  8
0
100
AcDbLine
 62
2
  6
CONTINUOUS
 10
9.055
 20
0.0
 11
9.055
 21
-2.594
  0
MTEXT
  5
25E
100
AcDbEntity
  8
0
100
AcDbMText
 62
2
  6
CONTINUOUS
  7
STANDARD
 71
2
 72
1
 10
1.5275
 20
-0.0995
 30
0.0
 11
1.0
 21
0.0
 31
0.0
 44
0.9
  1
Technical Data
 40
0.145
 41
3.248
  0
MTEXT
  5
25F
100
AcDbEntity
  8
0
100
AcDbMText
 62
2
  6
CONTINUOUS
  7
STANDARD
 71
2
 72
1
 10
4.555
 20
-0.0995
 30
0.0
 11
1.0
 21
0.0
 31
0.0
 44
0.9
  1
U.S. Units
 40
0.145
 41
2.32
  0
MTEXT
  5
260
100
AcDbEntity
  8
0
100
AcDbMText
 62
2
  6
CONTINUOUS
  7
STANDARD
 71
2
 72
1
 10
7.555
 20
-0.0995
 30
0.0
 11
1.0
 21
0.0
 31
0.0
 44
0.9
  1
Metric Units
 40
0.145
 41
2.784
  0
MTEXT
  5
261
100
AcDbEntity
  8
0
100
AcDbMText
 62
2
  6
CONTINUOUS
  7
STANDARD
 71
2
 72
1
 10
1.5275
 20
-0.4065
 30
0.0
 11
1.0
 21
0.0
 31
0.0
 44
0.9
  1
Cavity
 40
0.125
 41
1.2
  0
MTEXT
  5
262
100
AcDbEntity
  8
0
100
AcDbMText
 62
2
  6
CONTINUOUS
  7
STANDARD
 71
2
 72
1
 10
6.055
 20
-0.4065
 30
0.0
 11
1.0
 21
0.0
 31
0.0
 44
0.9
  1
T-163A
 40
0.125
 41
1.2
  0
MTEXT
  5
263
100
AcDbEntity
  8
0
100
AcDbMText
 62
2
  6
CONTINUOUS
  7
STANDARD
 71
2
 72
1
 10
1.5275
 20
-0.6565
 30
0.0
 11
1.0
 21
0.0
 31
0.0
 44
0.9
  1
Body Features
 40
0.125
 41
2.6
  0
MTEXT
  5
264
100
AcDbEntity
  8
0
100
AcDbMText
 62
2
  6
CONTINUOUS
  7
STANDARD
 71
2
 72
1
 10
6.055
 20
-0.6565
 30
0.0
 11
1.0
 21
0.0
 31
0.0
 44
0.9
  1
Ninety degree with reverse flow check - reducing
 40
0.125
 41
9.6
  0
MTEXT
  5
265
100
AcDbEntity
  8
0
100
AcDbMText
 62
2
  6
CONTINUOUS
  7
STANDARD
 71
2
 72
1
 10
1.5275
 20
-0.9065
 30
0.0
 11
1.0
 21
0.0
 31
0.0
 44
0.9
  1
Body Type
 40
0.125
 41
1.8
  0
MTEXT
  5
266
100
AcDbEntity
  8
0
100
AcDbMText
 62
2
  6
CONTINUOUS
  7
STANDARD
 71
2
 72
1
 10
6.055
 20
-0.9065
 30
0.0
 11
1.0
 21
0.0
 31
0.0
 44
0.9
  1
Line mount
 40
0.125
 41
2.0
  0
MTEXT
  5
267
100
AcDbEntity
  8
0
100
AcDbMText
 62
2
  6
CONTINUOUS
  7
STANDARD
 71
2
 72
1
 10
1.5275
 20
-1.1565
 30
0.0
 11
1.0
 21
0.0
 31
0.0
 44
0.9
  1
Interface
 40
0.125
 41
1.8
  0
MTEXT
  5
268
100
AcDbEntity
  8
0
100
AcDbMText
 62
2
  6
CONTINUOUS
  7
STANDARD
 71
2
 72
1
 10
6.055
 20
-1.1565
 30
0.0
 11
1.0
 21
0.0
 31
0.0
 44
0.9
  1
None
 40
0.125
 41
0.8
  0
MTEXT
  5
269
100
AcDbEntity
  8
0
100
AcDbMText
 62
2
  6
CONTINUOUS
  7
STANDARD
 71
2
 72
1
 10
1.5275
 20
-1.4065
 30
0.0
 11
1.0
 21
0.0
 31
0.0
 44
0.9
  1
Open Cavity Quantity
 40
0.125
 41
4.0
  0
MTEXT
  5
26A
100
AcDbEntity
  8
0
100
AcDbMText
 62
2
  6
CONTINUOUS
  7
STANDARD
 71
2
 72
1
 10
6.055
 20
-1.4065
 30
0.0
 11
1.0
 21
0.0
 31
0.0
 44
0.9
  1
1
 40
0.125
 41
0.2
  0
MTEXT
  5
26B
100
AcDbEntity
  8
0
100
AcDbMText
 62
2
  6
CONTINUOUS
  7
STANDARD
 71
2
 72
1
 10
1.5275
 20
-1.6565
 30
0.0
 11
1.0
 21
0.0
 31
0.0
 44
0.9
  1
Weight
 40
0.125
 41
1.2
  0
MTEXT
  5
26C
100
AcDbEntity
  8
0
100
AcDbMText
 62
2
  6
CONTINUOUS
  7
STANDARD
 71
2
 72
1
 10
4.555
 20
-1.6565
 30
0.0
 11
1.0
 21
0.0
 31
0.0
 44
0.9
  1
0.853 lb.
 40
0.125
 41
1.8
  0
MTEXT
  5
26D
100
AcDbEntity
  8
0
100
AcDbMText
 62
2
  6
CONTINUOUS
  7
STANDARD
 71
2
 72
1
 10
7.555
 20
-1.6565
 30
0.0
 11
1.0
 21
0.0
 31
0.0
 44
0.9
  1
0,387 kg.
 40
0.125
 41
1.8
  0
MTEXT
  5
26E
100
AcDbEntity
  8
0
100
AcDbMText
 62
2
  6
CONTINUOUS
  7
STANDARD
 71
2
 72
1
 10
1.5275
 20
-1.9065
 30
0.0
 11
1.0
 21
0.0
 31
0.0
 44
0.9
  1
Mounting Hole Diameter
 40
0.125
 41
4.4
  0
MTEXT
  5
26F
100
AcDbEntity
  8
0
100
AcDbMText
 62
2
  6
CONTINUOUS
  7
STANDARD
 71
2
 72
1
 10
4.555
 20
-1.9065
 30
0.0
 11
1.0
 21
0.0
 31
0.0
 44
0.9
  1
.28 in.
 40
0.125
 41
1.4
  0
MTEXT
  5
270
100
AcDbEntity
  8
0
100
AcDbMText
 62
2
  6
CONTINUOUS
  7
STANDARD
 71
2
 72
1
 10
7.555
 20
-1.9065
 30
0.0
 11
1.0
 21
0.0
 31
0.0
 44
0.9
  1
7,1 mm
 40
0.125
 41
1.2
  0
MTEXT
  5
271
100
AcDbEntity
  8
0
100
AcDbMText
 62
2
  6
CONTINUOUS
  7
STANDARD
 71
2
 72
1
 10
1.5275
 20
-2.1565
 30
0.0
 11
1.0
 21
0.0
 31
0.0
 44
0.9
  1
Mounting Hole Depth
 40
0.125
 41
3.8
  0
MTEXT
  5
272
100
AcDbEntity
  8
0
100
AcDbMText
 62
2
  6
CONTINUOUS
  7
STANDARD
 71
2
 72
1
 10
6.055
 20
-2.1565
 30
0.0
 11
1.0
 21
0.0
 31
0.0
 44
0.9
  1
Through
 40
0.125
 41
1.4
  0
MTEXT
  5
273
100
AcDbEntity
  8
0
100
AcDbMText
 62
2
  6
CONTINUOUS
  7
STANDARD
 71
2
 72
1
 10
1.5275
 20
-2.4065
 30
0.0
 11
1.0
 21
0.0
 31
0.0
 44
0.9
  1
Mounting Hole Quantity
 40
0.125
 41
4.4
  0
MTEXT
  5
274
100
AcDbEntity
  8
0
100
AcDbMText
 62
2
  6
CONTINUOUS
  7
STANDARD
 71
2
 72
1
 10
6.055
 20
-2.4065
 30
0.0
 11
1.0
 21
0.0
 31
0.0
 44
0.9
  1
2
 40
0.125
 41
0.2
  0
ENDBLK
  5
275
100
AcDbEntity
  8
0
  6
BYBLOCK
 62
0
100
AcDbBlockEnd
  0
BLOCK
  5
276
100
AcDbEntity
  8
0
100
AcDbBlockBegin
  2
*T3
 70
1
 10
0.0
 20
0.0
  3
*T3
  1

  0
LINE
  5
277
100
AcDbEntity
  8
0
100
AcDbLine
 62
2
  6
CONTINUOUS
 10
0.0
 20
0.0
 11
4.6
 21
0.0
  0
LINE
  5
278
100
AcDbEntity
  8
0
100
AcDbLine
 62
2
  6
CONTINUOUS
 10
0.0
 20
0.0
 11
0.0
 21
-1.43775
  0
LINE
  5
279
100
AcDbEntity
  8
0
100
AcDbLine
 62
2
  6
CONTINUOUS
 10
0.0
 20
-0.34375
 11
4.6
 21
-0.34375
  0
LINE
  5
27A
100
AcDbEntity
  8
0
100
AcDbLine
 62
2
  6
CONTINUOUS
 10
0.0
 20
-0.68775
 11
4.6
 21
-0.68775
  0
LINE
  5
27B
100
AcDbEntity
  8
0
100
AcDbLine
 62
2
  6
CONTINUOUS
 10
0.0
 20
-0.93775
 11
4.6
 21
-0.93775
  0
LINE
  5
27C
100
AcDbEntity
  8
0
100
AcDbLine
 62
2
  6
CONTINUOUS
 10
0.0
 20
-1.18775
 11
4.6
 21
-1.18775
  0
LINE
  5
27D
100
AcDbEntity
  8
0
100
AcDbLine
 62
2
  6
CONTINUOUS
 10
0.0
 20
-1.43775
 11
4.6
 21
-1.43775
  0
LINE
  5
27E
100
AcDbEntity
  8
0
100
AcDbLine
 62
2
  6
CONTINUOUS
 10
1.3
 20
-0.34375
 11
1.3
 21
-1.43775
  0
LINE
  5
27F
100
AcDbEntity
  8
0
100
AcDbLine
 62
2
  6
CONTINUOUS
 10
3.3
 20
-0.34375
 11
3.3
 21
-1.43775
  0
LINE
  5
280
100
AcDbEntity
  8
0
100
AcDbLine
 62
2
  6
CONTINUOUS
 10
4.6
 20
0.0
 11
4.6
 21
-1.43775
  0
MTEXT
  5
281
100
AcDbEntity
  8
0
100
AcDbMText
 62
2
  6
CONTINUOUS
  7
STANDARD
 71
2
 72
1
 10
2.3
 20
-0.099375
 30
0.0
 11
1.0
 21
0.0
 31
0.0
 44
0.9
  1
Port Headings
 40
0.145
 41
3.016
  0
MTEXT
  5
282
100
AcDbEntity
  8
0
100
AcDbMText
 62
2
  6
CONTINUOUS
  7
STANDARD
 71
2
 72
1
 10
0.65
 20
-0.44325
 30
0.0
 11
1.0
 21
0.0
 31
0.0
 44
0.9
  1
Product
 40
0.145
 41
1.624
  0
MTEXT
  5
283
100
AcDbEntity
  8
0
100
AcDbMText
 62
2
  6
CONTINUOUS
  7
STANDARD
 71
2
 72
1
 10
2.3
 20
-0.44325
 30
0.0
 11
1.0
 21
0.0
 31
0.0
 44
0.9
  1
Port
 40
0.145
 41
0.928
  0
MTEXT
  5
284
100
AcDbEntity
  8
0
100
AcDbMText
 62
2
  6
CONTINUOUS
  7
STANDARD
 71
2
 72
1
 10
3.95
 20
-0.44325
 30
0.0
 11
1.0
 21
0.0
 31
0.0
 44
0.9
  1
Size
 40
0.145
 41
0.928
  0
MTEXT
  5
285
100
AcDbEntity
  8
0
100
AcDbMText
 62
2
  6
CONTINUOUS
  7
STANDARD
 71
2
 72
1
 10
0.65
 20
-0.75025
 30
0.0
 11
1.0
 21
0.0
 31
0.0
 44
0.9
  1
J2I
 40
0.125
 41
0.6
  0
MTEXT
  5
286
100
AcDbEntity
  8
0
100
AcDbMText
 62
2
  6
CONTINUOUS
  7
STANDARD
 71
2
 72
1
 10
2.3
 20
-0.75025
 30
0.0
 11
1.0
 21
0.0
 31
0.0
 44
0.9
  1
Ports 1 &  2
 40
0.125
 41
2.4
  0
MTEXT
  5
287
100
AcDbEntity
  8
0
100
AcDbMText
 62
2
  6
CONTINUOUS
  7
STANDARD
 71
2
 72
1
 10
3.95
 20
-0.75025
 30
0.0
 11
1.0
 21
0.0
 31
0.0
 44
0.9
  1
SAE 6
 40
0.125
 41
1.0
  0
MTEXT
  5
288
100
AcDbEntity
  8
0
100
AcDbMText
 62
2
  6
CONTINUOUS
  7
STANDARD
 71
2
 72
1
 10
0.65
 20
-1.00025
 30
0.0
 11
1.0
 21
0.0
 31
0.0
 44
0.9
  1
J2I
 40
0.125
 41
0.6
  0
MTEXT
  5
289
100
AcDbEntity
  8
0
100
AcDbMText
 62
2
  6
CONTINUOUS
  7
STANDARD
 71
2
 72
1
 10
2.3
 20
-1.00025
 30
0.0
 11
1.0
 21
0.0
 31
0.0
 44
0.9
  1
Port 3
 40
0.125
 41
1.2
  0
MTEXT
  5
28A
100
AcDbEntity
  8
0
100
AcDbMText
 62
2
  6
CONTINUOUS
  7
STANDARD
 71
2
 72
1
 10
3.95
 20
-1.00025
 30
0.0
 11
1.0
 21
0.0
 31
0.0
 44
0.9
  1
SAE 4
 40
0.125
 41
1.0
  0
MTEXT
  5
28B
100
AcDbEntity
  8
0
100
AcDbMText
 62
2
  6
CONTINUOUS
  7
STANDARD
 71
2
 72
1
 10
0.65
 20
-1.25025
 30
0.0
 11
1.0
 21
0.0
 31
0.0
 44
0.9
  1
J2I
 40
0.125
 41
0.6
  0
MTEXT
  5
28C
100
AcDbEntity
  8
0
100
AcDbMText
 62
2
  6
CONTINUOUS
  7
STANDARD
 71
2
 72
1
 10
2.3
 20
-1.25025
 30
0.0
 11
1.0
 21
0.0
 31
0.0
 44
0.9
  1
Gage Port
 40
0.125
 41
1.8
  0
MTEXT
  5
28D
100
AcDbEntity
  8
0
100
AcDbMText
 62
2
  6
CONTINUOUS
  7
STANDARD
 71
2
 72
1
 10
3.95
 20
-1.25025
 30
0.0
 11
1.0
 21
0.0
 31
0.0
 44
0.9
  1
1/4" NPTF
 40
0.125
 41
1.8
  0
ENDBLK
  5
28E
100
AcDbEntity
  8
0
  6
BYBLOCK
 62
0
100
AcDbBlockEnd
  0
ENDSEC
  0
SECTION
  2
ENTITIES
  0
IMAGE
  5
28F
100
AcDbEntity
  8
0
100
AcDbRasterImage
 62
7
  6
CONTINUOUS
 10
19.2297077316
 20
0.3094318264
 30
0.0
 11
0.0066666667
 21
0.0
 31
0.0
 12
0.0
 22
0.0066666667
 32
0.0
 13
369.0
 23
92.0
340
       3BB
 70
9
280
0
281
50
282
50
283
0
360
       3B5
 71
1
 91
2
 14
-0.5
 24
-0.5
 14
368.5
 24
91.5
  0
INSERT
  5
290
100
AcDbEntity
  8
0
100
AcDbBlockReference
 62
2
  6
CONTINUOUS
  2
SUN_FIRST_THIRD_ANGLE_BL0
 10
20.4816717061
 20
1.2289683772
  0
ACAD_TABLE
  5
291
100
AcDbEntity
  8
0
 62
2
  6
CONTINUOUS
100
AcDbBlockReference
  2
*T1
 10
12.42375
 20
0.30125
 30
0.0
100
AcDbTable
342
       3BD
343
20F
 11
1.0
 21
0.0
 31
0.0
 90
6
 91
4
 92
6
 93
20
 94
0
 95
0
 96
0
 70
1
 41
0.0
141
0.525
141
0.1
141
0.525
141
0.1
142
4.1
142
1.1
142
0.7
142
0.5
142
0.4
142
2.475
171
1
172
0
173
0
174
0
175
1
176
1
 91
33
178
0
145
0.0
301
CELL_VALUE
 90
4
  1
T-163A Line mount\P(See Technical Data for Body Features)
304
ACVALUE_END
170
2
140
0.125
171
1
172
0
173
0
174
0
175
1
176
1
 91
33
178
0
145
0.0
301
CELL_VALUE
 90
4
  1
Oct-29-19
304
ACVALUE_END
170
5
140
0.125
171
1
172
0
173
0
174
0
175
1
176
1
 91
33
178
0
145
0.0
301
CELL_VALUE
 90
4
  1
1.000
304
ACVALUE_END
170
5
140
0.125
171
1
172
0
173
0
174
0
175
1
176
1
 91
33
178
0
145
0.0
301
CELL_VALUE
 90
4
  1
C
304
ACVALUE_END
170
5
140
0.125
171
1
172
0
173
0
174
0
175
1
176
1
 91
33
178
0
145
0.0
301
CELL_VALUE
 90
4
  1
2
304
ACVALUE_END
170
5
140
0.125
171
1
172
0
173
0
174
0
175
1
176
1
 91
33
178
0
145
0.0
301
CELL_VALUE
 90
4
  1
 
304
ACVALUE_END
170
1
140
0.125
171
1
172
0
173
0
174
0
175
1
176
1
 91
33
178
0
145
0.0
301
CELL_VALUE
 90
4
  1
DESCRIPTION
304
ACVALUE_END
170
1
140
0.06
171
1
172
0
173
0
174
0
175
1
176
1
 91
33
178
0
145
0.0
301
CELL_VALUE
 90
4
  1
DATE
304
ACVALUE_END
170
1
140
0.06
171
1
172
0
173
0
174
0
175
1
176
1
 91
33
178
0
145
0.0
301
CELL_VALUE
 90
4
  1
SCALE
304
ACVALUE_END
170
1
140
0.06
171
1
172
0
173
0
174
0
175
1
176
1
 91
33
178
0
145
0.0
301
CELL_VALUE
 90
4
  1
DWG SIZE
304
ACVALUE_END
170
1
140
0.06
171
1
172
0
173
0
174
0
175
1
176
1
 91
33
178
0
145
0.0
301
CELL_VALUE
 90
4
  1
SHEET
304
ACVALUE_END
170
1
140
0.06
171
1
172
0
173
0
174
0
175
1
176
1
 91
33
178
0
145
0.0
301
CELL_VALUE
 90
4
  1
 
304
ACVALUE_END
170
1
140
0.125
171
1
172
0
173
0
174
0
175
1
176
1
 91
33
178
0
145
0.0
301
CELL_VALUE
 90
4
  1
J2I
304
ACVALUE_END
170
5
140
0.125
171
1
172
0
173
0
174
0
175
4
176
1
 91
33
178
0
145
0.0
301
CELL_VALUE
 90
4
  1
ALL DIMENSIONS IN INCH\PVIEWS ARE THIRD ANGLE
304
ACVALUE_END
170
5
140
0.12
171
1
172
0
173
1
174
0
175
1
176
1
 91
1
178
0
145
0.0
170
1
171
1
172
0
173
1
174
0
175
1
176
1
 91
1
178
0
145
0.0
170
1
171
1
172
0
173
1
174
0
175
1
176
1
 91
1
178
0
145
0.0
170
5
171
1
172
0
173
0
174
0
175
1
176
1
 91
33
178
0
145
0.0
301
CELL_VALUE
 90
4
  1
 
304
ACVALUE_END
170
1
140
0.125
171
1
172
0
173
0
174
0
175
1
176
1
 91
33
178
0
145
0.0
301
CELL_VALUE
 90
4
  1
MODEL
304
ACVALUE_END
170
1
140
0.06
171
1
172
0
173
0
174
0
175
1
176
1
 91
33
178
0
145
0.0
301
CELL_VALUE
 90
4
  1
 
304
ACVALUE_END
170
1
140
0.125
171
1
172
0
173
0
174
0
175
1
176
1
 91
33
178
0
145
0.0
301
CELL_VALUE
 90
4
  1
 
304
ACVALUE_END
170
1
140
0.125
171
1
172
0
173
0
174
0
175
1
176
1
 91
33
178
0
145
0.0
301
CELL_VALUE
 90
4
  1
 
304
ACVALUE_END
170
1
140
0.125
171
1
172
0
173
0
174
0
175
1
176
1
 91
33
178
0
145
0.0
301
CELL_VALUE
 90
4
  1
 
304
ACVALUE_END
170
1
140
0.125
171
1
172
0
173
0
174
0
175
1
176
1
 91
33
178
0
145
0.0
301
CELL_VALUE
 90
4
  1
 
304
ACVALUE_END
170
1
140
0.125
  0
ACAD_TABLE
  5
292
100
AcDbEntity
  8
0
 62
2
  6
CONTINUOUS
100
AcDbBlockReference
  2
*T2
 10
12.4237499994
 20
16.47875
 30
0.0
100
AcDbTable
342
       3BC
343
210
 11
1.0
 21
0.0
 31
0.0
 90
22
 91
10
 92
3
 93
16
 94
0
 95
0
 96
0
 41
0.028
141
0.344
141
0.25
141
0.25
141
0.25
141
0.25
141
0.25
141
0.25
141
0.25
141
0.25
141
0.25
142
3.055
142
3.0
142
3.0
171
1
172
0
173
0
174
0
175
1
176
1
 91
33
178
0
145
0.0
301
CELL_VALUE
 90
4
  1
Technical Data
304
ACVALUE_END
170
5
140
0.145
171
1
172
0
173
0
174
0
175
1
176
1
 91
33
178
0
145
0.0
301
CELL_VALUE
 90
4
  1
U.S. Units
304
ACVALUE_END
170
5
140
0.145
171
1
172
0
173
0
174
0
175
1
176
1
 91
33
178
0
145
0.0
301
CELL_VALUE
 90
4
  1
Metric Units
304
ACVALUE_END
170
5
140
0.145
171
1
172
0
173
0
174
0
175
1
176
1
 91
33
178
0
145
0.0
301
CELL_VALUE
 90
4
  1
Cavity
304
ACVALUE_END
170
5
140
0.125
171
1
172
0
173
0
174
0
175
2
176
1
 91
33
178
0
145
0.0
301
CELL_VALUE
 90
4
  1
T-163A
304
ACVALUE_END
170
5
140
0.125
171
1
172
0
173
1
174
0
175
1
176
1
 91
1
178
0
145
0.0
170
1
171
1
172
0
173
0
174
0
175
1
176
1
 91
33
178
0
145
0.0
301
CELL_VALUE
 90
4
  1
Body Features
304
ACVALUE_END
170
5
140
0.125
171
1
172
0
173
0
174
0
175
2
176
1
 91
33
178
0
145
0.0
301
CELL_VALUE
 90
4
  1
Ninety degree with reverse flow check - reducing
304
ACVALUE_END
170
5
140
0.125
171
1
172
0
173
1
174
0
175
1
176
1
 91
1
178
0
145
0.0
170
1
171
1
172
0
173
0
174
0
175
1
176
1
 91
33
178
0
145
0.0
301
CELL_VALUE
 90
4
  1
Body Type
304
ACVALUE_END
170
5
140
0.125
171
1
172
0
173
0
174
0
175
2
176
1
 91
33
178
0
145
0.0
301
CELL_VALUE
 90
4
  1
Line mount
304
ACVALUE_END
170
5
140
0.125
171
1
172
0
173
1
174
0
175
1
176
1
 91
1
178
0
145
0.0
170
1
171
1
172
0
173
0
174
0
175
1
176
1
 91
33
178
0
145
0.0
301
CELL_VALUE
 90
4
  1
Interface
304
ACVALUE_END
170
5
140
0.125
171
1
172
0
173
0
174
0
175
2
176
1
 91
33
178
0
145
0.0
301
CELL_VALUE
 90
4
  1
None
304
ACVALUE_END
170
5
140
0.125
171
1
172
0
173
1
174
0
175
1
176
1
 91
1
178
0
145
0.0
170
1
171
1
172
0
173
0
174
0
175
1
176
1
 91
33
178
0
145
0.0
301
CELL_VALUE
 90
4
  1
Open Cavity Quantity
304
ACVALUE_END
170
5
140
0.125
171
1
172
0
173
0
174
0
175
2
176
1
 91
33
178
0
145
0.0
301
CELL_VALUE
 90
4
  1
1
304
ACVALUE_END
170
5
140
0.125
171
1
172
0
173
1
174
0
175
1
176
1
 91
1
178
0
145
0.0
170
1
171
1
172
0
173
0
174
0
175
1
176
1
 91
33
178
0
145
0.0
301
CELL_VALUE
 90
4
  1
Weight
304
ACVALUE_END
170
5
140
0.125
171
1
172
0
173
0
174
0
175
1
176
1
 91
33
178
0
145
0.0
301
CELL_VALUE
 90
4
  1
0.853 lb.
304
ACVALUE_END
170
5
140
0.125
171
1
172
0
173
0
174
0
175
1
176
1
 91
33
178
0
145
0.0
301
CELL_VALUE
 90
4
  1
0,387 kg.
304
ACVALUE_END
170
5
140
0.125
171
1
172
0
173
0
174
0
175
1
176
1
 91
33
178
0
145
0.0
301
CELL_VALUE
 90
4
  1
Mounting Hole Diameter
304
ACVALUE_END
170
5
140
0.125
171
1
172
0
173
0
174
0
175
1
176
1
 91
33
178
0
145
0.0
301
CELL_VALUE
 90
4
  1
.28 in.
304
ACVALUE_END
170
5
140
0.125
171
1
172
0
173
0
174
0
175
1
176
1
 91
33
178
0
145
0.0
301
CELL_VALUE
 90
4
  1
7,1 mm
304
ACVALUE_END
170
5
140
0.125
171
1
172
0
173
0
174
0
175
1
176
1
 91
33
178
0
145
0.0
301
CELL_VALUE
 90
4
  1
Mounting Hole Depth
304
ACVALUE_END
170
5
140
0.125
171
1
172
0
173
0
174
0
175
2
176
1
 91
33
178
0
145
0.0
301
CELL_VALUE
 90
4
  1
Through
304
ACVALUE_END
170
5
140
0.125
171
1
172
0
173
1
174
0
175
1
176
1
 91
1
178
0
145
0.0
170
1
171
1
172
0
173
0
174
0
175
1
176
1
 91
33
178
0
145
0.0
301
CELL_VALUE
 90
4
  1
Mounting Hole Quantity
304
ACVALUE_END
170
5
140
0.125
171
1
172
0
173
0
174
0
175
2
176
1
 91
33
178
0
145
0.0
301
CELL_VALUE
 90
4
  1
2
304
ACVALUE_END
170
5
140
0.125
171
1
172
0
173
1
174
0
175
1
176
1
 91
1
178
0
145
0.0
170
1
  0
ACAD_TABLE
  5
293
100
AcDbEntity
  8
0
 62
2
  6
CONTINUOUS
100
AcDbBlockReference
  2
*T3
 10
0.52125
 20
1.959
 30
0.0
100
AcDbTable
342
       3BC
343
211
 11
1.0
 21
0.0
 31
0.0
 90
22
 91
5
 92
3
 93
16
 94
0
 95
0
 96
0
 41
0.05
141
0.34375
141
0.344
141
0.25
141
0.25
141
0.25
142
1.3
142
2.0
142
1.3
171
1
172
0
173
0
174
0
175
3
176
1
 91
33
178
0
145
0.0
301
CELL_VALUE
 90
4
  1
Port Headings
304
ACVALUE_END
170
5
140
0.145
171
1
172
0
173
1
174
0
175
1
176
1
 91
1
178
0
145
0.0
170
1
171
1
172
0
173
1
174
0
175
1
176
1
 91
1
178
0
145
0.0
170
1
171
1
172
0
173
0
174
0
175
1
176
1
 91
33
178
0
145
0.0
301
CELL_VALUE
 90
4
  1
Product
304
ACVALUE_END
170
5
140
0.145
171
1
172
0
173
0
174
0
175
1
176
1
 91
33
178
0
145
0.0
301
CELL_VALUE
 90
4
  1
Port
304
ACVALUE_END
170
5
140
0.145
171
1
172
0
173
0
174
0
175
1
176
1
 91
33
178
0
145
0.0
301
CELL_VALUE
 90
4
  1
Size
304
ACVALUE_END
170
5
140
0.145
171
1
172
0
173
0
174
0
175
1
176
1
 91
33
178
0
145
0.0
301
CELL_VALUE
 90
4
  1
J2I
304
ACVALUE_END
170
5
140
0.125
171
1
172
0
173
0
174
0
175
1
176
1
 91
33
178
0
145
0.0
301
CELL_VALUE
 90
4
  1
Ports 1 &  2
304
ACVALUE_END
170
5
140
0.125
171
1
172
0
173
0
174
0
175
1
176
1
 91
33
178
0
145
0.0
301
CELL_VALUE
 90
4
  1
SAE 6
304
ACVALUE_END
170
5
140
0.125
171
1
172
0
173
0
174
0
175
1
176
1
 91
33
178
0
145
0.0
301
CELL_VALUE
 90
4
  1
J2I
304
ACVALUE_END
170
5
140
0.125
171
1
172
0
173
0
174
0
175
1
176
1
 91
33
178
0
145
0.0
301
CELL_VALUE
 90
4
  1
Port 3
304
ACVALUE_END
170
5
140
0.125
171
1
172
0
173
0
174
0
175
1
176
1
 91
33
178
0
145
0.0
301
CELL_VALUE
 90
4
  1
SAE 4
304
ACVALUE_END
170
5
140
0.125
171
1
172
0
173
0
174
0
175
1
176
1
 91
33
178
0
145
0.0
301
CELL_VALUE
 90
4
  1
J2I
304
ACVALUE_END
170
5
140
0.125
171
1
172
0
173
0
174
0
175
1
176
1
 91
33
178
0
145
0.0
301
CELL_VALUE
 90
4
  1
Gage Port
304
ACVALUE_END
170
5
140
0.125
171
1
172
0
173
0
174
0
175
1
176
1
 91
33
178
0
145
0.0
301
CELL_VALUE
 90
4
  1
1/4" NPTF
304
ACVALUE_END
170
5
140
0.125
  0
MTEXT
  5
294
100
AcDbEntity
  8
0
100
AcDbMText
 62
2
  6
CONTINUOUS
  7
STANDARD
 71
1
 72
1
 10
0.52125
 20
5.75995
 30
0.0
 11
1.0
 21
0.0
 31
0.0
 44
0.6
  3
Notes\P \P1. Important: Carefully consider\P   the maximum system pressure. The\P   pressure rating of the manifold is\P   dependent on the manifold material,\P   with the port type/size a secondary\P   consideration. Manifolds\P   constructed of alu
  1
minum are not\P   rated for pressures higher than\P   3000 psi (210 bar), regardless of\P   the port type/size specified.
 40
0.1
 41
3.04
  0
LINE
  5
295
100
AcDbEntity
  8
0
100
AcDbLine
 62
7
  6
CONTINUOUS
 10
0.30125
 20
0.30125
 11
0.30125
 21
16.69875
  0
LINE
  5
296
100
AcDbEntity
  8
0
100
AcDbLine
 62
7
  6
CONTINUOUS
 10
0.30125
 20
0.30125
 11
21.69875
 21
0.30125
  0
LINE
  5
297
100
AcDbEntity
  8
0
100
AcDbLine
 62
7
  6
CONTINUOUS
 10
0.30125
 20
16.69875
 11
21.69875
 21
16.69875
  0
LINE
  5
298
100
AcDbEntity
  8
0
100
AcDbLine
 62
7
  6
CONTINUOUS
 10
21.69875
 20
0.30125
 11
21.69875
 21
16.69875
  0
LINE
  5
299
100
AcDbEntity
  8
0
100
AcDbLine
 62
7
  6
CONTINUOUS
 10
9.6805205905
 20
10.4915658346
 11
9.421701759
 21
10.2415660261
  0
LINE
  5
29A
100
AcDbEntity
  8
0
100
AcDbLine
 62
4
  6
CONTINUOUS
 10
9.6342054486
 20
9.830799231
 11
9.6269610046
 21
9.8216423786
  0
LINE
  5
29B
100
AcDbEntity
  8
0
100
AcDbLine
 62
4
  6
CONTINUOUS
 10
9.6414498926
 20
9.7723412754
 11
9.6269610046
 21
9.7540275662
  0
LINE
  5
29C
100
AcDbEntity
  8
0
100
AcDbLine
 62
4
  6
CONTINUOUS
 10
9.5834943408
 20
9.8536345778
 11
9.5979832288
 21
9.8622890264
  0
LINE
  5
29D
100
AcDbEntity
  8
0
100
AcDbLine
 62
4
  6
CONTINUOUS
 10
9.6269610046
 20
9.8216423786
 11
9.6124721167
 21
9.8129879232
  0
LINE
  5
29E
100
AcDbEntity
  8
0
100
AcDbLine
 62
4
  6
CONTINUOUS
 10
9.6269610046
 20
9.7540275662
 11
9.6124721167
 21
9.7453731151
  0
LINE
  5
29F
100
AcDbEntity
  8
0
100
AcDbLine
 62
7
  6
CONTINUOUS
 10
9.421701759
 20
7.3437883756
 11
9.421701759
 21
10.2415660261
  0
LINE
  5
2A0
100
AcDbEntity
  8
0
100
AcDbLine
 62
4
  6
CONTINUOUS
 10
11.2827531604
 20
10.2592037175
 11
11.2982358403
 21
10.2641588414
  0
LINE
  5
2A1
100
AcDbEntity
  8
0
100
AcDbLine
 62
7
  6
CONTINUOUS
 10
11.1423062656
 20
6.5656745955
 11
11.1538948616
 21
6.5599500509
  0
LINE
  5
2A2
100
AcDbEntity
  8
0
100
AcDbLine
 62
4
  6
CONTINUOUS
 10
9.6342054486
 20
9.8404584873
 11
9.6342054486
 21
9.830799231
  0
LINE
  5
2A3
100
AcDbEntity
  8
0
100
AcDbLine
 62
4
  6
CONTINUOUS
 10
9.6342054486
 20
8.0728140993
 11
9.6342054486
 21
7.9569029959
  0
LINE
  5
2A4
100
AcDbEntity
  8
0
100
AcDbLine
 62
4
  6
CONTINUOUS
 10
9.6414498926
 20
9.7820005352
 11
9.6414498926
 21
9.7723412754
  0
LINE
  5
2A5
100
AcDbEntity
  8
0
100
AcDbLine
 62
7
  6
CONTINUOUS
 10
11.1197748496
 20
10.257778735
 11
11.1187618977
 21
10.2568186105
  0
LINE
  5
2A6
100
AcDbEntity
  8
0
100
AcDbLine
 62
7
  6
CONTINUOUS
 10
9.421701759
 20
7.3437883756
 11
12.3194794095
 21
7.1428268129
  0
LINE
  5
2A7
100
AcDbEntity
  8
0
100
AcDbLine
 62
4
  6
CONTINUOUS
 10
11.1315763818
 20
10.1631781553
 11
11.1509877937
 21
10.1819281406
  0
LINE
  5
2A8
100
AcDbEntity
  8
0
100
AcDbLine
 62
4
  6
CONTINUOUS
 10
11.2635739829
 20
10.2906780548
 11
11.2674562653
 21
10.2944280519
  0
LINE
  5
2A9
100
AcDbEntity
  8
0
100
AcDbLine
 62
4
  6
CONTINUOUS
 10
11.3118702783
 20
10.2873286954
 11
11.3157525607
 21
10.2910786924
  0
LINE
  5
2AA
100
AcDbEntity
  8
0
100
AcDbLine
 62
4
  6
CONTINUOUS
 10
11.2244724749
 20
10.1929088976
 11
11.2361193221
 21
10.2041588887
  0
LINE
  5
2AB
100
AcDbEntity
  8
0
100
AcDbLine
 62
4
  6
CONTINUOUS
 10
11.3680240274
 20
10.3115690593
 11
11.3796708745
 21
10.3228190505
  0
LINE
  5
2AC
100
AcDbEntity
  8
0
100
AcDbLine
 62
4
  6
CONTINUOUS
 10
11.3833673687
 20
10.2863895895
 11
11.3794850863
 21
10.2826395925
  0
LINE
  5
2AD
100
AcDbEntity
  8
0
100
AcDbLine
 62
4
  6
CONTINUOUS
 10
10.328292219
 20
9.0126832334
 11
10.3448509488
 21
9.0280936097
  0
LINE
  5
2AE
100
AcDbEntity
  8
0
100
AcDbLine
 62
4
  6
CONTINUOUS
 10
10.328292219
 20
8.9961245053
 11
10.328292219
 21
9.0126832334
  0
LINE
  5
2AF
100
AcDbEntity
  8
0
100
AcDbLine
 62
4
  6
CONTINUOUS
 10
10.3696890427
 20
8.9104599786
 11
10.3862477708
 21
8.9258703567
  0
LINE
  5
2B0
100
AcDbEntity
  8
0
100
AcDbLine
 62
4
  6
CONTINUOUS
 10
10.4607620575
 20
8.9041440436
 11
10.4773207786
 21
8.9195544222
  0
LINE
  5
2B1
100
AcDbEntity
  8
0
100
AcDbLine
 62
4
  6
CONTINUOUS
 10
10.3862477708
 20
8.9258703567
 11
10.3862477708
 21
8.9424290865
  0
LINE
  5
2B2
100
AcDbEntity
  8
0
100
AcDbLine
 62
4
  6
CONTINUOUS
 10
10.4193652269
 20
9.022926027
 11
10.4193652269
 21
8.9235736533
  0
LINE
  5
2B3
100
AcDbEntity
  8
0
100
AcDbLine
 62
4
  6
CONTINUOUS
 10
10.4552424874
 20
8.3133801996
 11
10.4552424874
 21
8.429291303
  0
LINE
  5
2B4
100
AcDbEntity
  8
0
100
AcDbLine
 62
4
  6
CONTINUOUS
 10
10.4773207786
 20
8.9195544222
 11
10.4773207786
 21
9.0189067958
  0
LINE
  5
2B5
100
AcDbEntity
  8
0
100
AcDbLine
 62
4
  6
CONTINUOUS
 10
10.5104382348
 20
8.900698989
 11
10.5104382348
 21
9.0166100924
  0
LINE
  5
2B6
100
AcDbEntity
  8
0
100
AcDbLine
 62
4
  6
CONTINUOUS
 10
10.5131980322
 20
8.4087133442
 11
10.5131980322
 21
8.3259196987
  0
LINE
  5
2B7
100
AcDbEntity
  8
0
100
AcDbLine
 62
4
  6
CONTINUOUS
 10
12.0804127983
 20
7.78725794
 11
12.0659239104
 21
7.7882627478
  0
LINE
  5
2B8
100
AcDbEntity
  8
0
100
AcDbLine
 62
4
  6
CONTINUOUS
 10
12.0731683543
 20
7.8457158956
 11
12.1021461302
 21
7.84370628
  0
LINE
  5
2B9
100
AcDbEntity
  8
0
100
AcDbLine
 62
4
  6
CONTINUOUS
 10
12.0659239104
 20
7.9041738512
 11
12.0804127983
 21
7.9031690434
  0
LINE
  5
2BA
100
AcDbEntity
  8
0
100
AcDbLine
 62
4
  6
CONTINUOUS
 10
10.5683937865
 20
8.8966797578
 11
10.5683937865
 21
9.0125908612
  0
LINE
  5
2BB
100
AcDbEntity
  8
0
100
AcDbLine
 62
4
  6
CONTINUOUS
 10
10.5601144319
 20
8.3061073055
 11
10.593231888
 21
8.4197217055
  0
LINE
  5
2BC
100
AcDbEntity
  8
0
100
AcDbLine
 62
4
  6
CONTINUOUS
 10
10.8471324068
 20
8.9518634486
 11
10.863691128
 21
8.9589944649
  0
LINE
  5
2BD
100
AcDbEntity
  8
0
100
AcDbLine
 62
4
  6
CONTINUOUS
 10
11.0044403408
 20
8.8995572862
 11
11.020999062
 21
8.906688299
  0
LINE
  5
2BE
100
AcDbEntity
  8
0
100
AcDbLine
 62
4
  6
CONTINUOUS
 10
10.3890075682
 20
8.3676497945
 11
10.4331641798
 21
8.3425092172
  0
LINE
  5
2BF
100
AcDbEntity
  8
0
100
AcDbLine
 62
4
  6
CONTINUOUS
 10
10.4966393041
 20
8.426420424
 11
10.5131980322
 21
8.4087133442
  0
LINE
  5
2C0
100
AcDbEntity
  8
0
100
AcDbLine
 62
4
  6
CONTINUOUS
 10
9.5834943408
 20
9.7570419896
 11
9.5762498969
 21
9.7672036524
  0
LINE
  5
2C1
100
AcDbEntity
  8
0
100
AcDbLine
 62
4
  6
CONTINUOUS
 10
9.6269610046
 20
9.8023238591
 11
9.6414498926
 21
9.7820005352
  0
LINE
  5
2C2
100
AcDbEntity
  8
0
100
AcDbLine
 62
4
  6
CONTINUOUS
 10
9.6269610046
 20
9.8506201545
 11
9.6342054486
 21
9.8404584873
  0
LINE
  5
2C3
100
AcDbEntity
  8
0
100
AcDbLine
 62
4
  6
CONTINUOUS
 10
10.593231888
 20
8.4197217055
 11
10.626349358
 21
8.3015138978
  0
LINE
  5
2C4
100
AcDbEntity
  8
0
100
AcDbLine
 62
4
  6
CONTINUOUS
 10
10.6925842505
 20
8.8880671199
 11
10.6925842505
 21
9.0039782233
  0
LINE
  5
2C5
100
AcDbEntity
  8
0
100
AcDbLine
 62
4
  6
CONTINUOUS
 10
10.6925842703
 20
8.296920491
 11
10.6925842703
 21
8.4128315944
  0
LINE
  5
2C6
100
AcDbEntity
  8
0
100
AcDbLine
 62
4
  6
CONTINUOUS
 10
10.7422604416
 20
8.9591363441
 11
10.7422604416
 21
8.8846220643
  0
LINE
  5
2C7
100
AcDbEntity
  8
0
100
AcDbLine
 62
4
  6
CONTINUOUS
 10
10.7588191826
 20
8.2923270842
 11
10.7588191826
 21
8.4082381877
  0
LINE
  5
2C8
100
AcDbEntity
  8
0
100
AcDbLine
 62
4
  6
CONTINUOUS
 10
10.8181545903
 20
8.5597753171
 11
10.8181545903
 21
8.6591276907
  0
LINE
  5
2C9
100
AcDbEntity
  8
0
100
AcDbLine
 62
4
  6
CONTINUOUS
 10
10.8471324068
 20
8.8856285337
 11
10.8471324068
 21
8.9518634486
  0
LINE
  5
2CA
100
AcDbEntity
  8
0
100
AcDbLine
 62
4
  6
CONTINUOUS
 10
10.7919366328
 20
8.8535791269
 11
10.8250540751
 21
8.9616739536
  0
LINE
  5
2CB
100
AcDbEntity
  8
0
100
AcDbLine
 62
4
  6
CONTINUOUS
 10
10.8678307746
 20
8.6556826356
 11
10.8512720465
 21
8.6319928918
  0
LINE
  5
2CC
100
AcDbEntity
  8
0
100
AcDbLine
 62
7
  6
CONTINUOUS
 10
12.3194794095
 20
10.0406044635
 11
12.578298241
 21
10.290604272
  0
LINE
  5
2CD
100
AcDbEntity
  8
0
100
AcDbLine
 62
4
  6
CONTINUOUS
 10
10.5131980322
 20
8.3259196987
 11
10.4966393041
 21
8.3105093206
  0
LINE
  5
2CE
100
AcDbEntity
  8
0
100
AcDbLine
 62
4
  6
CONTINUOUS
 10
10.8015958605
 20
8.5443649391
 11
10.8181545903
 21
8.5597753171
  0
LINE
  5
2CF
100
AcDbEntity
  8
0
100
AcDbLine
 62
4
  6
CONTINUOUS
 10
11.1617482393
 20
8.2643838592
 11
11.1203514088
 21
8.2672547392
  0
LINE
  5
2D0
100
AcDbEntity
  8
0
100
AcDbLine
 62
4
  6
CONTINUOUS
 10
11.0706752453
 20
8.2706997928
 11
11.0458371359
 21
8.2724223216
  0
LINE
  5
2D1
100
AcDbEntity
  8
0
100
AcDbLine
 62
4
  6
CONTINUOUS
 10
10.9823620289
 20
8.2768243352
 11
10.9492445865
 21
8.2791210376
  0
LINE
  5
2D2
100
AcDbEntity
  8
0
100
AcDbLine
 62
4
  6
CONTINUOUS
 10
10.4966393041
 20
8.3105093206
 11
10.4552424874
 21
8.3133801996
  0
LINE
  5
2D3
100
AcDbEntity
  8
0
100
AcDbLine
 62
4
  6
CONTINUOUS
 10
10.7588191826
 20
8.2923270842
 11
10.8084953737
 21
8.2888820287
  0
LINE
  5
2D4
100
AcDbEntity
  8
0
100
AcDbLine
 62
4
  6
CONTINUOUS
 10
11.2252234016
 20
8.2599818418
 11
11.2748995651
 21
8.2565367881
  0
LINE
  5
2D5
100
AcDbEntity
  8
0
100
AcDbLine
 62
4
  6
CONTINUOUS
 10
10.5711535839
 20
8.3384591973
 11
10.6153101921
 21
8.3353969261
  0
LINE
  5
2D6
100
AcDbEntity
  8
0
100
AcDbLine
 62
4
  6
CONTINUOUS
 10
11.2583408439
 20
8.3239200586
 11
11.2252234016
 21
8.326216761
  0
LINE
  5
2D7
100
AcDbEntity
  8
0
100
AcDbLine
 62
4
  6
CONTINUOUS
 10
10.7919366526
 20
8.3562652991
 11
10.7588191826
 21
8.3585620034
  0
LINE
  5
2D8
100
AcDbEntity
  8
0
100
AcDbLine
 62
4
  6
CONTINUOUS
 10
10.328292219
 20
8.921610223
 11
10.3365715839
 21
8.9127566822
  0
LINE
  5
2D9
100
AcDbEntity
  8
0
100
AcDbLine
 62
4
  6
CONTINUOUS
 10
10.9492445865
 20
8.2791210376
 11
10.9326858654
 21
8.2968281186
  0
LINE
  5
2DA
100
AcDbEntity
  8
0
100
AcDbLine
 62
4
  6
CONTINUOUS
 10
10.5104382348
 20
9.0166100924
 11
10.5683937865
 21
8.8966797578
  0
LINE
  5
2DB
100
AcDbEntity
  8
0
100
AcDbLine
 62
4
  6
CONTINUOUS
 10
10.8968085703
 20
8.9898152186
 11
10.8968085703
 21
8.8739041152
  0
LINE
  5
2DC
100
AcDbEntity
  8
0
100
AcDbLine
 62
4
  6
CONTINUOUS
 10
10.9092276051
 20
8.6196942995
 11
10.9092276051
 21
8.6362530276
  0
LINE
  5
2DD
100
AcDbEntity
  8
0
100
AcDbLine
 62
4
  6
CONTINUOUS
 10
10.9299260679
 20
8.8716074089
 11
10.9299260679
 21
8.9544010562
  0
LINE
  5
2DE
100
AcDbEntity
  8
0
100
AcDbLine
 62
4
  6
CONTINUOUS
 10
10.9326858654
 20
8.2968281186
 11
10.9326858654
 21
8.3796217642
  0
LINE
  5
2DF
100
AcDbEntity
  8
0
100
AcDbLine
 62
4
  6
CONTINUOUS
 10
10.9644233654
 20
8.5330728133
 11
10.9644233654
 21
8.6489839167
  0
LINE
  5
2E0
100
AcDbEntity
  8
0
100
AcDbLine
 62
4
  6
CONTINUOUS
 10
10.9685630656
 20
8.9434422038
 11
10.9685630656
 21
8.9268834758
  0
LINE
  5
2E1
100
AcDbEntity
  8
0
100
AcDbLine
 62
4
  6
CONTINUOUS
 10
11.0044403408
 20
8.8747191915
 11
11.0044403408
 21
8.8995572862
  0
LINE
  5
2E2
100
AcDbEntity
  8
0
100
AcDbLine
 62
4
  6
CONTINUOUS
 10
10.8512720465
 20
8.5409198839
 11
10.9092276051
 21
8.6196942995
  0
LINE
  5
2E3
100
AcDbEntity
  8
0
100
AcDbLine
 62
4
  6
CONTINUOUS
 10
11.2886984888
 20
8.9212407368
 11
11.2969778218
 21
8.9289459306
  0
LINE
  5
2E4
100
AcDbEntity
  8
0
100
AcDbLine
 62
4
  6
CONTINUOUS
 10
11.363212817
 20
8.9160731506
 11
11.3714921499
 21
8.9237783444
  0
LINE
  5
2E5
100
AcDbEntity
  8
0
100
AcDbLine
 62
4
  6
CONTINUOUS
 10
10.4331641798
 20
8.3866658306
 11
10.3890075682
 21
8.3676497945
  0
LINE
  5
2E6
100
AcDbEntity
  8
0
100
AcDbLine
 62
4
  6
CONTINUOUS
 10
10.4552424874
 20
8.429291303
 11
10.4966393041
 21
8.426420424
  0
LINE
  5
2E7
100
AcDbEntity
  8
0
100
AcDbLine
 62
4
  6
CONTINUOUS
 10
10.6594668003
 20
8.4151282988
 11
10.7257017126
 21
8.410534892
  0
LINE
  5
2E8
100
AcDbEntity
  8
0
100
AcDbLine
 62
4
  6
CONTINUOUS
 10
10.7588191826
 20
8.4082381877
 11
10.8084953737
 21
8.4047931321
  0
LINE
  5
2E9
100
AcDbEntity
  8
0
100
AcDbLine
 62
4
  6
CONTINUOUS
 10
10.9492445865
 20
8.395032141
 11
10.9823620289
 21
8.3927354386
  0
LINE
  5
2EA
100
AcDbEntity
  8
0
100
AcDbLine
 62
4
  6
CONTINUOUS
 10
11.0458371359
 20
8.388333425
 11
11.0706752453
 21
8.3866108963
  0
LINE
  5
2EB
100
AcDbEntity
  8
0
100
AcDbLine
 62
4
  6
CONTINUOUS
 10
11.1203514088
 20
8.3831658426
 11
11.1617482393
 21
8.3802949627
  0
LINE
  5
2EC
100
AcDbEntity
  8
0
100
AcDbLine
 62
4
  6
CONTINUOUS
 10
11.2252234016
 20
8.3758929452
 11
11.2748995651
 21
8.3724478916
  0
LINE
  5
2ED
100
AcDbEntity
  8
0
100
AcDbLine
 62
4
  6
CONTINUOUS
 10
11.3080170074
 20
8.325994581
 11
11.3521736156
 21
8.3008540022
  0
LINE
  5
2EE
100
AcDbEntity
  8
0
100
AcDbLine
 62
4
  6
CONTINUOUS
 10
10.3862477708
 20
8.9424290865
 11
10.328292219
 21
8.9961245053
  0
LINE
  5
2EF
100
AcDbEntity
  8
0
100
AcDbLine
 62
4
  6
CONTINUOUS
 10
10.4193652269
 20
8.9235736533
 11
10.435923955
 21
8.9058665718
  0
LINE
  5
2F0
100
AcDbEntity
  8
0
100
AcDbLine
 62
4
  6
CONTINUOUS
 10
11.0458371359
 20
8.2724223216
 11
11.0292784147
 21
8.2901294026
  0
LINE
  5
2F1
100
AcDbEntity
  8
0
100
AcDbLine
 62
4
  6
CONTINUOUS
 10
10.3779684067
 20
9.0257969062
 11
10.3862477708
 21
9.0169433628
  0
LINE
  5
2F2
100
AcDbEntity
  8
0
100
AcDbLine
 62
4
  6
CONTINUOUS
 10
11.0706752453
 20
8.3866108963
 11
11.0872339664
 21
8.368903817
  0
LINE
  5
2F3
100
AcDbEntity
  8
0
100
AcDbLine
 62
4
  6
CONTINUOUS
 10
10.7753779116
 20
8.9651190073
 11
10.800216021
 21
8.8806028312
  0
LINE
  5
2F4
100
AcDbEntity
  8
0
100
AcDbLine
 62
4
  6
CONTINUOUS
 10
11.0292784147
 20
8.2901294026
 11
11.0292784147
 21
8.3729230481
  0
LINE
  5
2F5
100
AcDbEntity
  8
0
100
AcDbLine
 62
4
  6
CONTINUOUS
 10
11.0541165043
 20
8.8629947729
 11
11.0541165043
 21
8.9292296921
  0
LINE
  5
2F6
100
AcDbEntity
  8
0
100
AcDbLine
 62
7
  6
CONTINUOUS
 10
11.0695344467
 20
7.1220938461
 11
11.0695344467
 21
6.6582042061
  0
LINE
  5
2F7
100
AcDbEntity
  8
0
100
AcDbLine
 62
4
  6
CONTINUOUS
 10
11.0872339466
 20
8.9434917178
 11
11.0872339466
 21
8.8689774354
  0
LINE
  5
2F8
100
AcDbEntity
  8
0
100
AcDbLine
 62
4
  6
CONTINUOUS
 10
11.0872339664
 20
8.368903817
 11
11.0872339664
 21
8.2861101714
  0
LINE
  5
2F9
100
AcDbEntity
  8
0
100
AcDbLine
 62
4
  6
CONTINUOUS
 10
11.1203514088
 20
8.2672547392
 11
11.1203514088
 21
8.3831658426
  0
LINE
  5
2FA
100
AcDbEntity
  8
0
100
AcDbLine
 62
7
  6
CONTINUOUS
 10
11.1324629418
 20
7.2251466846
 11
11.1324629418
 21
7.1387309504
  0
LINE
  5
2FB
100
AcDbEntity
  8
0
100
AcDbLine
 62
4
  6
CONTINUOUS
 10
11.1369101654
 20
8.857253013
 11
11.1369101654
 21
8.9400466603
  0
LINE
  5
2FC
100
AcDbEntity
  8
0
100
AcDbLine
 62
4
  6
CONTINUOUS
 10
11.1700276077
 20
8.8632356755
 11
11.1700276077
 21
8.970867414
  0
LINE
  5
2FD
100
AcDbEntity
  8
0
100
AcDbLine
 62
7
  6
CONTINUOUS
 10
11.1719683607
 20
7.0231504522
 11
11.1719683607
 21
6.5592608123
  0
LINE
  5
2FE
100
AcDbEntity
  8
0
100
AcDbLine
 62
4
  6
CONTINUOUS
 10
11.1783069605
 20
8.3625878834
 11
11.1783069605
 21
8.2797942378
  0
LINE
  5
2FF
100
AcDbEntity
  8
0
100
AcDbLine
 62
4
  6
CONTINUOUS
 10
11.2473016583
 20
8.9655084404
 11
11.2445418806
 21
8.9574204642
  0
LINE
  5
300
100
AcDbEntity
  8
0
100
AcDbLine
 62
4
  6
CONTINUOUS
 10
11.4046095923
 20
8.8386879947
 11
11.4128889252
 21
8.8463931859
  0
LINE
  5
301
100
AcDbEntity
  8
0
100
AcDbLine
 62
4
  6
CONTINUOUS
 10
10.9326858654
 20
8.3796217642
 11
10.9492445865
 21
8.395032141
  0
LINE
  5
302
100
AcDbEntity
  8
0
100
AcDbLine
 62
4
  6
CONTINUOUS
 10
11.0292784147
 20
8.3729230481
 11
11.0458371359
 21
8.388333425
  0
LINE
  5
303
100
AcDbEntity
  8
0
100
AcDbLine
 62
4
  6
CONTINUOUS
 10
12.0369461345
 20
8.9107464573
 11
12.0514350224
 21
8.9194009058
  0
LINE
  5
304
100
AcDbEntity
  8
0
100
AcDbLine
 62
4
  6
CONTINUOUS
 10
10.9092276051
 20
8.5369006523
 11
10.8512720465
 21
8.5409198839
  0
LINE
  5
305
100
AcDbEntity
  8
0
100
AcDbLine
 62
4
  6
CONTINUOUS
 10
10.7767577667
 20
8.5460874668
 11
10.8015958605
 21
8.5443649391
  0
LINE
  5
306
100
AcDbEntity
  8
0
100
AcDbLine
 62
4
  6
CONTINUOUS
 10
10.8926688701
 20
8.6539601079
 11
10.8678307746
 21
8.6556826356
  0
LINE
  5
307
100
AcDbEntity
  8
0
100
AcDbLine
 62
4
  6
CONTINUOUS
 10
12.0659239104
 20
7.7882627478
 11
12.0514350224
 21
7.7989268145
  0
LINE
  5
308
100
AcDbEntity
  8
0
100
AcDbLine
 62
4
  6
CONTINUOUS
 10
12.0804127983
 20
7.9031690434
 11
12.0949016862
 21
7.8925049793
  0
LINE
  5
309
100
AcDbEntity
  8
0
100
AcDbLine
 62
4
  6
CONTINUOUS
 10
9.5979832288
 20
9.7463779229
 11
9.5834943408
 21
9.7570419896
  0
LINE
  5
30A
100
AcDbEntity
  8
0
100
AcDbLine
 62
4
  6
CONTINUOUS
 10
10.9092276051
 20
8.6362530276
 11
10.8926688701
 21
8.6539601079
  0
LINE
  5
30B
100
AcDbEntity
  8
0
100
AcDbLine
 62
4
  6
CONTINUOUS
 10
11.1617482393
 20
8.3802949627
 11
11.1783069605
 21
8.3625878834
  0
LINE
  5
30C
100
AcDbEntity
  8
0
100
AcDbLine
 62
4
  6
CONTINUOUS
 10
10.7339810811
 20
8.9679898872
 11
10.7422604416
 21
8.9591363441
  0
LINE
  5
30D
100
AcDbEntity
  8
0
100
AcDbLine
 62
7
  6
CONTINUOUS
 10
11.1947645877
 20
7.017250362
 11
11.1947645877
 21
6.5533607221
  0
LINE
  5
30E
100
AcDbEntity
  8
0
100
AcDbLine
 62
4
  6
CONTINUOUS
 10
11.2252234016
 20
8.2599818418
 11
11.2252234016
 21
8.3758929452
  0
LINE
  5
30F
100
AcDbEntity
  8
0
100
AcDbLine
 62
4
  6
CONTINUOUS
 10
11.2445418806
 20
8.8497887282
 11
11.2445418806
 21
8.9325823755
  0
LINE
  5
310
100
AcDbEntity
  8
0
100
AcDbLine
 62
4
  6
CONTINUOUS
 10
11.2445418806
 20
8.9574204642
 11
11.2445418806
 21
8.9656998316
  0
LINE
  5
311
100
AcDbEntity
  8
0
100
AcDbLine
 62
4
  6
CONTINUOUS
 10
11.2886984888
 20
8.8550058219
 11
11.2886984888
 21
8.9212407368
  0
LINE
  5
312
100
AcDbEntity
  8
0
100
AcDbLine
 62
4
  6
CONTINUOUS
 10
11.0872339664
 20
8.2861101714
 11
11.0706752453
 21
8.2706997928
  0
LINE
  5
313
100
AcDbEntity
  8
0
100
AcDbLine
 62
4
  6
CONTINUOUS
 10
11.1783069605
 20
8.2797942378
 11
11.1617482393
 21
8.2643838592
  0
LINE
  5
314
100
AcDbEntity
  8
0
100
AcDbLine
 62
4
  6
CONTINUOUS
 10
12.0804127983
 20
8.8690949948
 11
12.0514350224
 21
8.8517860943
  0
LINE
  5
315
100
AcDbEntity
  8
0
100
AcDbLine
 62
4
  6
CONTINUOUS
 10
11.3521736156
 20
8.3008540022
 11
11.3080170074
 21
8.2818379676
  0
LINE
  5
316
100
AcDbEntity
  8
0
100
AcDbLine
 62
4
  6
CONTINUOUS
 10
10.7753779116
 20
8.8547274781
 11
10.7919366328
 21
8.8535791269
  0
LINE
  5
317
100
AcDbEntity
  8
0
100
AcDbLine
 62
4
  6
CONTINUOUS
 10
10.863691128
 20
8.8762008176
 11
10.8471324068
 21
8.8856285337
  0
LINE
  5
318
100
AcDbEntity
  8
0
100
AcDbLine
 62
4
  6
CONTINUOUS
 10
11.020999062
 20
8.8652914753
 11
11.0044403408
 21
8.8747191915
  0
LINE
  5
319
100
AcDbEntity
  8
0
100
AcDbLine
 62
4
  6
CONTINUOUS
 10
9.6124721167
 20
9.8129879232
 11
9.6269610046
 21
9.8023238591
  0
LINE
  5
31A
100
AcDbEntity
  8
0
100
AcDbLine
 62
4
  6
CONTINUOUS
 10
9.6124721167
 20
9.8612842186
 11
9.6269610046
 21
9.8506201545
  0
LINE
  5
31B
100
AcDbEntity
  8
0
100
AcDbLine
 62
4
  6
CONTINUOUS
 10
11.0872339466
 20
8.8689774354
 11
11.0955133349
 21
8.860123893
  0
LINE
  5
31C
100
AcDbEntity
  8
0
100
AcDbLine
 62
4
  6
CONTINUOUS
 10
10.9630435103
 20
8.9521043538
 11
10.9685630656
 21
8.9434422038
  0
LINE
  5
31D
100
AcDbEntity
  8
0
100
AcDbLine
 62
4
  6
CONTINUOUS
 10
11.0541165043
 20
8.9292296921
 11
11.0458371714
 21
8.9463625939
  0
LINE
  5
31E
100
AcDbEntity
  8
0
100
AcDbLine
 62
4
  6
CONTINUOUS
 10
11.363212817
 20
8.8912350585
 11
11.363212817
 21
8.9160731506
  0
LINE
  5
31F
100
AcDbEntity
  8
0
100
AcDbLine
 62
4
  6
CONTINUOUS
 10
11.4128889252
 20
8.8463931859
 11
11.4128889252
 21
8.8712312806
  0
LINE
  5
320
100
AcDbEntity
  8
0
100
AcDbLine
 62
4
  6
CONTINUOUS
 10
11.3300953747
 20
8.8438555733
 11
11.2969778218
 21
8.8461522833
  0
LINE
  5
321
100
AcDbEntity
  8
0
100
AcDbLine
 62
4
  6
CONTINUOUS
 10
11.1948657171
 20
8.8532337819
 11
11.178306996
 21
8.8543821331
  0
LINE
  5
322
100
AcDbEntity
  8
0
100
AcDbLine
 62
4
  6
CONTINUOUS
 10
11.0541165043
 20
8.8629947729
 11
11.020999062
 21
8.8652914753
  0
LINE
  5
323
100
AcDbEntity
  8
0
100
AcDbLine
 62
4
  6
CONTINUOUS
 10
10.8968085703
 20
8.8739041152
 11
10.863691128
 21
8.8762008176
  0
LINE
  5
324
100
AcDbEntity
  8
0
100
AcDbLine
 62
4
  6
CONTINUOUS
 10
10.3365715839
 20
8.9127566822
 11
10.3696890427
 21
8.9104599786
  0
LINE
  5
325
100
AcDbEntity
  8
0
100
AcDbLine
 62
4
  6
CONTINUOUS
 10
10.435923955
 20
8.9058665718
 11
10.4607620575
 21
8.9041440436
  0
LINE
  5
326
100
AcDbEntity
  8
0
100
AcDbLine
 62
4
  6
CONTINUOUS
 10
11.0955133349
 20
8.860123893
 11
11.1369101654
 21
8.857253013
  0
LINE
  5
327
100
AcDbEntity
  8
0
100
AcDbLine
 62
4
  6
CONTINUOUS
 10
11.3714921499
 20
8.8409846971
 11
11.4046095923
 21
8.8386879947
  0
LINE
  5
328
100
AcDbEntity
  8
0
100
AcDbLine
 62
4
  6
CONTINUOUS
 10
12.0297016905
 20
8.8049970141
 11
12.0876572422
 21
8.8009777829
  0
LINE
  5
329
100
AcDbEntity
  8
0
100
AcDbLine
 62
4
  6
CONTINUOUS
 10
11.020999062
 20
8.906688299
 11
11.0541165043
 21
8.9043915966
  0
LINE
  5
32A
100
AcDbEntity
  8
0
100
AcDbLine
 62
4
  6
CONTINUOUS
 10
11.0458371714
 20
8.9463625939
 11
11.0044403408
 21
8.9492334738
  0
LINE
  5
32B
100
AcDbEntity
  8
0
100
AcDbLine
 62
4
  6
CONTINUOUS
 10
10.6925842505
 20
8.9708607672
 11
10.7339810811
 21
8.9679898872
  0
LINE
  5
32C
100
AcDbEntity
  8
0
100
AcDbLine
 62
4
  6
CONTINUOUS
 10
10.863691128
 20
8.9589944649
 11
10.8968085703
 21
8.9566977625
  0
LINE
  5
32D
100
AcDbEntity
  8
0
100
AcDbLine
 62
4
  6
CONTINUOUS
 10
10.9299260679
 20
8.9544010562
 11
10.9630435103
 21
8.9521043538
  0
LINE
  5
32E
100
AcDbEntity
  8
0
100
AcDbLine
 62
4
  6
CONTINUOUS
 10
11.2969778218
 20
8.9289459306
 11
11.3300953747
 21
8.9266492205
  0
LINE
  5
32F
100
AcDbEntity
  8
0
100
AcDbLine
 62
4
  6
CONTINUOUS
 10
11.3714921499
 20
8.9237783444
 11
11.4046095923
 21
8.921481642
  0
LINE
  5
330
100
AcDbEntity
  8
0
100
AcDbLine
 62
4
  6
CONTINUOUS
 10
10.3448509488
 20
9.0280936097
 11
10.3779684067
 21
9.0257969062
  0
LINE
  5
331
100
AcDbEntity
  8
0
100
AcDbLine
 62
4
  6
CONTINUOUS
 10
11.2445418806
 20
8.9656998316
 11
11.2473016583
 21
8.9655084404
  0
LINE
  5
332
100
AcDbEntity
  8
0
100
AcDbLine
 62
4
  6
CONTINUOUS
 10
12.0514350224
 20
8.9194009058
 11
12.0659239104
 21
8.918396098
  0
LINE
  5
333
100
AcDbEntity
  8
0
100
AcDbLine
 62
4
  6
CONTINUOUS
 10
11.4046095923
 20
8.8773250303
 11
11.3714921499
 21
8.8851413088
  0
LINE
  5
334
100
AcDbEntity
  8
0
100
AcDbLine
 62
4
  6
CONTINUOUS
 10
11.3714921499
 20
8.8851413088
 11
11.363212817
 21
8.8912350585
  0
LINE
  5
335
100
AcDbEntity
  8
0
100
AcDbLine
 62
4
  6
CONTINUOUS
 10
11.178306996
 20
8.8543821331
 11
11.1700276077
 21
8.8632356755
  0
LINE
  5
336
100
AcDbEntity
  8
0
100
AcDbLine
 62
4
  6
CONTINUOUS
 10
11.2969778218
 20
8.8461522833
 11
11.2886984888
 21
8.8550058219
  0
LINE
  5
337
100
AcDbEntity
  8
0
100
AcDbLine
 62
4
  6
CONTINUOUS
 10
11.363212817
 20
8.8498382357
 11
11.3714921499
 21
8.8409846971
  0
LINE
  5
338
100
AcDbEntity
  8
0
100
AcDbLine
 62
4
  6
CONTINUOUS
 10
12.0514350224
 20
7.7989268145
 11
12.0369461345
 21
7.8192501392
  0
LINE
  5
339
100
AcDbEntity
  8
0
100
AcDbLine
 62
7
  6
CONTINUOUS
 10
11.5770528663
 20
6.9907385798
 11
11.5770528663
 21
6.5268489399
  0
LINE
  5
33A
100
AcDbEntity
  8
0
100
AcDbLine
 62
7
  6
CONTINUOUS
 10
11.6081930828
 20
6.992898165
 11
11.6081930828
 21
6.5290085251
  0
LINE
  5
33B
100
AcDbEntity
  8
0
100
AcDbLine
 62
4
  6
CONTINUOUS
 10
12.0297016905
 20
8.9015895979
 11
12.0369461345
 21
8.9107464573
  0
LINE
  5
33C
100
AcDbEntity
  8
0
100
AcDbLine
 62
4
  6
CONTINUOUS
 10
12.0514350224
 20
8.8517860943
 11
12.0369461345
 21
8.833472386
  0
LINE
  5
33D
100
AcDbEntity
  8
0
100
AcDbLine
 62
4
  6
CONTINUOUS
 10
12.0876572422
 20
8.8782518542
 11
12.0804127983
 21
8.8690949948
  0
LINE
  5
33E
100
AcDbEntity
  8
0
100
AcDbLine
 62
4
  6
CONTINUOUS
 10
11.4128889252
 20
8.8712312806
 11
11.4046095923
 21
8.8773250303
  0
LINE
  5
33F
100
AcDbEntity
  8
0
100
AcDbLine
 62
4
  6
CONTINUOUS
 10
11.4046095923
 20
8.921481642
 11
11.4128889252
 21
8.9126281008
  0
LINE
  5
340
100
AcDbEntity
  8
0
100
AcDbLine
 62
4
  6
CONTINUOUS
 10
12.0949016862
 20
7.8925049793
 11
12.1021461302
 21
7.8823433122
  0
LINE
  5
341
100
AcDbEntity
  8
0
100
AcDbLine
 62
7
  6
CONTINUOUS
 10
11.8334629418
 20
7.1765321695
 11
11.8334629418
 21
7.1387309504
  0
LINE
  5
342
100
AcDbEntity
  8
0
100
AcDbLine
 62
4
  6
CONTINUOUS
 10
12.0369461345
 20
7.8192501392
 11
12.0297016905
 21
7.848730319
  0
LINE
  5
343
100
AcDbEntity
  8
0
100
AcDbLine
 62
7
  6
CONTINUOUS
 10
11.8880474473
 20
7.0653297767
 11
11.8880474473
 21
6.6014401368
  0
LINE
  5
344
100
AcDbEntity
  8
0
100
AcDbLine
 62
7
  6
CONTINUOUS
 10
11.8963914368
 20
7.0733894521
 11
11.8963914368
 21
6.6094998122
  0
LINE
  5
345
100
AcDbEntity
  8
0
100
AcDbLine
 62
4
  6
CONTINUOUS
 10
12.0369461345
 20
8.833472386
 11
12.0297016905
 21
8.8049970141
  0
LINE
  5
346
100
AcDbEntity
  8
0
100
AcDbLine
 62
4
  6
CONTINUOUS
 10
12.0659239104
 20
8.918396098
 11
12.0804127983
 21
8.9077320339
  0
LINE
  5
347
100
AcDbEntity
  8
0
100
AcDbLine
 62
4
  6
CONTINUOUS
 10
12.0876572422
 20
8.8975703668
 11
12.0876572422
 21
8.8782518542
  0
LINE
  5
348
100
AcDbEntity
  8
0
100
AcDbLine
 62
4
  6
CONTINUOUS
 10
12.1021461302
 20
7.84370628
 11
12.1021461302
 21
7.8050692461
  0
LINE
  5
349
100
AcDbEntity
  8
0
100
AcDbLine
 62
4
  6
CONTINUOUS
 10
12.0297016905
 20
7.848730319
 11
12.0369461345
 21
7.877205691
  0
LINE
  5
34A
100
AcDbEntity
  8
0
100
AcDbLine
 62
4
  6
CONTINUOUS
 10
12.0369461345
 20
7.877205691
 11
12.0514350224
 21
7.8955194027
  0
LINE
  5
34B
100
AcDbEntity
  8
0
100
AcDbLine
 62
4
  6
CONTINUOUS
 10
12.0514350224
 20
7.8955194027
 11
12.0659239104
 21
7.9041738512
  0
LINE
  5
34C
100
AcDbEntity
  8
0
100
AcDbLine
 62
4
  6
CONTINUOUS
 10
12.0949016862
 20
7.7959123911
 11
12.0804127983
 21
7.78725794
  0
LINE
  5
34D
100
AcDbEntity
  8
0
100
AcDbLine
 62
4
  6
CONTINUOUS
 10
9.6124721167
 20
9.7453731151
 11
9.5979832288
 21
9.7463779229
  0
LINE
  5
34E
100
AcDbEntity
  8
0
100
AcDbLine
 62
4
  6
CONTINUOUS
 10
12.0804127983
 20
8.9077320339
 11
12.0876572422
 21
8.8975703668
  0
LINE
  5
34F
100
AcDbEntity
  8
0
100
AcDbLine
 62
4
  6
CONTINUOUS
 10
11.2865889931
 20
10.2529088503
 11
11.2827531604
 21
10.2592037175
  0
LINE
  5
350
100
AcDbEntity
  8
0
100
AcDbLine
 62
7
  6
CONTINUOUS
 10
12.3194794095
 20
7.1428268129
 11
12.3194794095
 21
10.0406044635
  0
LINE
  5
351
100
AcDbEntity
  8
0
100
AcDbLine
 62
4
  6
CONTINUOUS
 10
12.1021461302
 20
7.8050692461
 11
12.0949016862
 21
7.7959123911
  0
LINE
  5
352
100
AcDbEntity
  8
0
100
AcDbLine
 62
4
  6
CONTINUOUS
 10
9.5979832288
 20
9.813992731
 11
9.6124721167
 21
9.8129879232
  0
LINE
  5
353
100
AcDbEntity
  8
0
100
AcDbLine
 62
4
  6
CONTINUOUS
 10
9.5979832288
 20
9.8622890264
 11
9.6124721167
 21
9.8612842186
  0
LINE
  5
354
100
AcDbEntity
  8
0
100
AcDbLine
 62
4
  6
CONTINUOUS
 10
11.2402338389
 20
10.2581332083
 11
11.234456865
 21
10.262553077
  0
LINE
  5
355
100
AcDbEntity
  8
0
100
AcDbLine
 62
7
  6
CONTINUOUS
 10
12.578298241
 20
7.3928266214
 11
12.578298241
 21
10.290604272
  0
LINE
  5
356
100
AcDbEntity
  8
0
100
AcDbLine
 62
4
  6
CONTINUOUS
 10
11.3503679684
 20
10.2545146147
 11
11.3368264271
 21
10.2514344895
  0
LINE
  5
357
100
AcDbEntity
  8
0
100
AcDbLine
 62
4
  6
CONTINUOUS
 10
11.3794850863
 20
10.2826395925
 11
11.365943545
 21
10.2795594673
  0
LINE
  5
358
100
AcDbEntity
  8
0
100
AcDbLine
 62
4
  6
CONTINUOUS
 10
11.234456865
 20
10.262553077
 11
11.2479984037
 21
10.2656332023
  0
LINE
  5
359
100
AcDbEntity
  8
0
100
AcDbLine
 62
4
  6
CONTINUOUS
 10
11.3157525607
 20
10.2910786924
 11
11.3292940994
 21
10.2941588177
  0
LINE
  5
35A
100
AcDbEntity
  8
0
100
AcDbLine
 62
4
  6
CONTINUOUS
 10
11.2674562653
 20
10.2944280519
 11
11.280997804
 21
10.2975081772
  0
LINE
  5
35B
100
AcDbEntity
  8
0
100
AcDbLine
 62
4
  6
CONTINUOUS
 10
11.3368264271
 20
10.2514344895
 11
11.325226027
 21
10.2502293629
  0
LINE
  5
35C
100
AcDbEntity
  8
0
100
AcDbLine
 62
7
  6
CONTINUOUS
 10
9.421701759
 20
10.2415660261
 11
12.3194794095
 21
10.0406044635
  0
LINE
  5
35D
100
AcDbEntity
  8
0
100
AcDbLine
 62
4
  6
CONTINUOUS
 10
11.1412820877
 20
10.172553148
 11
11.2571931911
 21
10.1645146856
  0
LINE
  5
35E
100
AcDbEntity
  8
0
100
AcDbLine
 62
4
  6
CONTINUOUS
 10
11.2693509568
 20
10.2862581861
 11
11.2635739829
 21
10.2906780548
  0
LINE
  5
35F
100
AcDbEntity
  8
0
100
AcDbLine
 62
4
  6
CONTINUOUS
 10
11.3445909919
 20
10.2589344836
 11
11.3503679684
 21
10.2545146147
  0
LINE
  5
360
100
AcDbEntity
  8
0
100
AcDbLine
 62
4
  6
CONTINUOUS
 10
11.3099755798
 20
10.2954985616
 11
11.3157525607
 21
10.2910786924
  0
LINE
  5
361
100
AcDbEntity
  8
0
100
AcDbLine
 62
4
  6
CONTINUOUS
 10
11.3775903922
 20
10.2908094585
 11
11.3833673687
 21
10.2863895895
  0
LINE
  5
362
100
AcDbEntity
  8
0
100
AcDbLine
 62
4
  6
CONTINUOUS
 10
11.2479984037
 20
10.2656332023
 11
11.2595988081
 21
10.2668383287
  0
LINE
  5
363
100
AcDbEntity
  8
0
100
AcDbLine
 62
4
  6
CONTINUOUS
 10
11.365943545
 20
10.2795594673
 11
11.3543431449
 21
10.2783543407
  0
LINE
  5
364
100
AcDbEntity
  8
0
100
AcDbLine
 62
4
  6
CONTINUOUS
 10
11.3292940994
 20
10.2941588177
 11
11.3524948978
 21
10.2965690712
  0
LINE
  5
365
100
AcDbEntity
  8
0
100
AcDbLine
 62
4
  6
CONTINUOUS
 10
11.280997804
 20
10.2975081772
 11
11.2925982084
 21
10.2987133036
  0
LINE
  5
366
100
AcDbEntity
  8
0
100
AcDbLine
 62
4
  6
CONTINUOUS
 10
11.325226027
 20
10.2502293629
 11
11.303966368
 21
10.2496941081
  0
LINE
  5
367
100
AcDbEntity
  8
0
100
AcDbLine
 62
4
  6
CONTINUOUS
 10
11.2982358403
 20
10.2641588414
 11
11.3194954976
 21
10.2646940963
  0
LINE
  5
368
100
AcDbEntity
  8
0
100
AcDbLine
 62
4
  6
CONTINUOUS
 10
11.2965733831
 20
10.3225530297
 11
11.4221901925
 21
10.32388956
  0
LINE
  5
369
100
AcDbEntity
  8
0
100
AcDbLine
 62
4
  6
CONTINUOUS
 10
11.2033986059
 20
10.2325531006
 11
11.3193097093
 21
10.2245146383
  0
LINE
  5
36A
100
AcDbEntity
  8
0
100
AcDbLine
 62
4
  6
CONTINUOUS
 10
11.303966368
 20
10.2496941081
 11
11.2653293324
 21
10.2523735956
  0
LINE
  5
36B
100
AcDbEntity
  8
0
100
AcDbLine
 62
4
  6
CONTINUOUS
 10
11.2925982084
 20
10.2987133036
 11
11.3022574647
 21
10.2980434319
  0
LINE
  5
36C
100
AcDbEntity
  8
0
100
AcDbLine
 62
4
  6
CONTINUOUS
 10
11.3524948978
 20
10.2965690712
 11
11.3621541576
 21
10.2958991992
  0
LINE
  5
36D
100
AcDbEntity
  8
0
100
AcDbLine
 62
4
  6
CONTINUOUS
 10
11.4027787806
 20
10.3051395748
 11
11.2965733831
 21
10.3225530297
  0
LINE
  5
36E
100
AcDbEntity
  8
0
100
AcDbLine
 62
4
  6
CONTINUOUS
 10
11.2653293324
 20
10.2523735956
 11
11.2479519609
 21
10.2555883376
  0
LINE
  5
36F
100
AcDbEntity
  8
0
100
AcDbLine
 62
4
  6
CONTINUOUS
 10
11.303966368
 20
10.2496941081
 11
11.2865889931
 21
10.2529088503
  0
LINE
  5
370
100
AcDbEntity
  8
0
100
AcDbLine
 62
4
  6
CONTINUOUS
 10
11.3194954976
 20
10.2646940963
 11
11.3368728742
 21
10.261479354
  0
LINE
  5
371
100
AcDbEntity
  8
0
100
AcDbLine
 62
4
  6
CONTINUOUS
 10
11.2479519609
 20
10.2555883376
 11
11.2402338389
 21
10.2581332083
  0
LINE
  5
372
100
AcDbEntity
  8
0
100
AcDbLine
 62
4
  6
CONTINUOUS
 10
11.3368728742
 20
10.261479354
 11
11.3445909919
 21
10.2589344836
  0
LINE
  5
373
100
AcDbEntity
  8
0
100
AcDbLine
 62
4
  6
CONTINUOUS
 10
11.3022574647
 20
10.2980434319
 11
11.3099755798
 21
10.2954985616
  0
LINE
  5
374
100
AcDbEntity
  8
0
100
AcDbLine
 62
4
  6
CONTINUOUS
 10
11.3621541576
 20
10.2958991992
 11
11.3775903922
 21
10.2908094585
  0
LINE
  5
375
100
AcDbEntity
  8
0
100
AcDbLine
 62
7
  6
CONTINUOUS
 10
12.3194794095
 20
7.1428268129
 11
12.578298241
 21
7.3928266214
  0
LINE
  5
376
100
AcDbEntity
  8
0
100
AcDbLine
 62
7
  6
CONTINUOUS
 10
12.578298241
 20
10.290604272
 11
9.6805205905
 21
10.4915658346
  0
LINE
  5
377
100
AcDbEntity
  8
0
100
AcDbLine
 62
7
  6
CONTINUOUS
 10
11.8312213267
 20
6.5694296941
 11
11.8120310219
 21
6.5599500509
  0
ARC
  5
378
100
AcDbEntity
  8
0
100
AcDbCircle
 62
7
  6
CONTINUOUS
 10
11.4893056222
 20
8.4816066727
 40
1.4934481072
100
AcDbArc
 50
273.3683419248
 51
274.5659201455
  0
ARC
  5
379
100
AcDbEntity
  8
0
100
AcDbCircle
 62
7
  6
CONTINUOUS
 10
11.4902789342
 20
8.0036823249
 40
1.4793804657
100
AcDbArc
 50
273.3626477428
 51
274.5716143275
  0
ARC
  5
37A
100
AcDbEntity
  8
0
100
AcDbCircle
 62
7
  6
CONTINUOUS
 10
11.4601155445
 20
9.0168486914
 40
0.890465214
100
AcDbArc
 50
359.9960311257
 51
1.3273015966
  0
ARC
  5
37B
100
AcDbEntity
  8
0
100
AcDbCircle
 62
7
  6
CONTINUOUS
 10
11.3431990944
 20
7.6377470127
 40
0.6380038373
100
AcDbArc
 50
254.4318055974
 51
256.5465922376
  0
ARC
  5
37C
100
AcDbEntity
  8
0
100
AcDbCircle
 62
7
  6
CONTINUOUS
 10
11.3431990944
 20
7.1738573728
 40
0.6380038373
100
AcDbArc
 50
254.4318055974
 51
256.5465922376
  0
ARC
  5
37D
100
AcDbEntity
  8
0
100
AcDbCircle
 62
7
  6
CONTINUOUS
 10
11.6046475881
 20
7.0271912012
 40
0.5107652123
100
AcDbArc
 50
293.9288192694
 51
296.3113000085
  0
LINE
  5
37E
100
AcDbEntity
  8
0
100
AcDbLine
 62
7
  6
CONTINUOUS
 10
11.0734103671
 20
7.1261442166
 11
11.0778784362
 21
7.1301535215
  0
LINE
  5
37F
100
AcDbEntity
  8
0
100
AcDbLine
 62
7
  6
CONTINUOUS
 10
11.0734103671
 20
7.1261442166
 11
11.0695344467
 21
7.1220938461
  0
LINE
  5
380
100
AcDbEntity
  8
0
100
AcDbLine
 62
7
  6
CONTINUOUS
 10
11.8963914368
 20
6.6094998122
 11
11.8925155164
 21
6.6054494416
  0
LINE
  5
381
100
AcDbEntity
  8
0
100
AcDbLine
 62
7
  6
CONTINUOUS
 10
11.8925155164
 20
6.6054494416
 11
11.8880474473
 21
6.6014401368
  0
SPLINE
  5
382
100
AcDbEntity
  8
0
100
AcDbSpline
 62
7
  6
CONTINUOUS
 70
0
 71
3
 72
9
 73
5
 74
0
 42
0.0000001
 43
0.0000001
 44
0.0000000001
 40
0.0
 40
0.0
 40
0.0
 40
0.0
 40
0.5043014331
 40
1.0
 40
1.0
 40
1.0
 40
1.0
 10
11.0778784362
 20
7.1301535215
 30
0.0
 10
11.086813569
 20
7.1357550027
 30
0.0
 10
11.1047530429
 20
7.1465143044
 30
0.0
 10
11.1231891835
 20
7.1564073027
 30
0.0
 10
11.1324589778
 20
7.1610464946
 30
0.0
  0
SPLINE
  5
383
100
AcDbEntity
  8
0
100
AcDbSpline
 62
7
  6
CONTINUOUS
 70
0
 71
3
 72
9
 73
5
 74
0
 42
0.0000001
 43
0.0000001
 44
0.0000000001
 40
0.0
 40
0.0
 40
0.0
 40
0.0
 40
0.5045178058
 40
1.0
 40
1.0
 40
1.0
 40
1.0
 10
11.8880474473
 20
6.6014401368
 30
0.0
 10
11.8787229181
 20
6.5955945409
 30
0.0
 10
11.8599995128
 20
6.5843867687
 30
0.0
 10
11.8407327259
 20
6.5741305267
 30
0.0
 10
11.8310432415
 20
6.5693417606
 30
0.0
  0
SPLINE
  5
384
100
AcDbEntity
  8
0
100
AcDbSpline
 62
7
  6
CONTINUOUS
 70
0
 71
3
 72
23
 73
19
 74
0
 42
0.0000001
 43
0.0000001
 44
0.0000000001
 40
0.0
 40
0.0
 40
0.0
 40
0.0
 40
0.0434832551
 40
0.0889703513
 40
0.136712798
 40
0.1869229566
 40
0.2397727271
 40
0.2953821218
 40
0.3538243822
 40
0.4151244888
 40
0.4792631359
 40
0.5461854753
 40
0.6158036935
 40
0.6880079523
 40
0.7626699313
 40
0.8396523641
 40
0.9188114473
 40
1.0
 40
1.0
 40
1.0
 40
1.0
 10
11.1425642148
 20
6.5655472155
 30
0.0
 10
11.1410073718
 20
6.5663154007
 30
0.0
 10
11.1378819016
 20
6.5680114009
 30
0.0
 10
11.1332813036
 20
6.5709562799
 30
0.0
 10
11.1286744835
 20
6.5743651129
 30
0.0
 10
11.1240644748
 20
6.578243204
 30
0.0
 10
11.1194547296
 20
6.5825928388
 30
0.0
 10
11.114847924
 20
6.5874109534
 30
0.0
 10
11.1102472128
 20
6.5926907618
 30
0.0
 10
11.1056554264
 20
6.5984212306
 30
0.0
 10
11.1010749245
 20
6.6045875693
 30
0.0
 10
11.0965083064
 20
6.6111722922
 30
0.0
 10
11.0919572157
 20
6.6181551835
 30
0.0
 10
11.0874234799
 20
6.6255146494
 30
0.0
 10
11.082908152
 20
6.6332279326
 30
0.0
 10
11.078412166
 20
6.6412720195
 30
0.0
 10
11.0739360043
 20
6.6496238595
 30
0.0
 10
11.0710007126
 20
6.6553133846
 30
0.0
 10
11.0695344467
 20
6.6582042061
 30
0.0
  0
SPLINE
  5
385
100
AcDbEntity
  8
0
100
AcDbSpline
 62
7
  6
CONTINUOUS
 70
0
 71
3
 72
47
 73
43
 74
0
 42
0.0000001
 43
0.0000001
 44
0.0000000001
 40
0.0
 40
0.0
 40
0.0
 40
0.0
 40
0.009987502
 40
0.0204478069
 40
0.0313774032
 40
0.0427709469
 40
0.0546220901
 40
0.0669229446
 40
0.0928355628
 40
0.1204263986
 40
0.1495978131
 40
0.1802400805
 40
0.2122331782
 40
0.245448317
 40
0.2797490522
 40
0.3149921726
 40
0.3510289747
 40
0.3877062334
 40
0.424867022
 40
0.4623516256
 40
0.4999986044
 40
0.5376456133
 40
0.5751302243
 40
0.6122909956
 40
0.6489683039
 40
0.6850051667
 40
0.7202482776
 40
0.7545490217
 40
0.7877642856
 40
0.8197574352
 40
0.8503996861
 40
0.8795711674
 40
0.8935710465
 40
0.9071630903
 40
0.9203352799
 40
0.9330768602
 40
0.9453777467
 40
0.9572288588
 40
0.968622571
 40
0.9795521239
 40
0.9900124072
 40
1.0
 40
1.0
 40
1.0
 40
1.0
 10
11.8120323303
 20
6.5599507514
 30
0.0
 10
11.8100305611
 20
6.5589619054
 30
0.0
 10
11.8058980904
 20
6.5570060091
 30
0.0
 10
11.7994706224
 20
6.5541950827
 30
0.0
 10
11.7926777014
 20
6.551442227
 30
0.0
 10
11.7855272467
 20
6.5487504758
 30
0.0
 10
11.7780273501
 20
6.5461230532
 30
0.0
 10
11.7673875348
 20
6.5426491741
 30
0.0
 10
11.7532683102
 20
6.5385071975
 30
0.0
 10
11.7353613515
 20
6.5339210002
 30
0.0
 10
11.7162900131
 20
6.529658189
 30
0.0
 10
11.6961420977
 20
6.5257386659
 30
0.0
 10
11.6750101958
 20
6.5221807912
 30
0.0
 10
11.6529916418
 20
6.5190012462
 30
0.0
 10
11.6301879284
 20
6.5162149672
 30
0.0
 10
11.6067042778
 20
6.5138349383
 30
0.0
 10
11.5826490971
 20
6.5118722718
 30
0.0
 10
11.558133444
 20
6.5103361611
 30
0.0
 10
11.5332705384
 20
6.5092338173
 30
0.0
 10
11.5081752323
 20
6.5085703344
 30
0.0
 10
11.4829634532
 20
6.5083488036
 30
0.0
 10
11.4577516719
 20
6.5085702929
 30
0.0
 10
11.4326563613
 20
6.5092337841
 30
0.0
 10
11.4077934473
 20
6.5103361332
 30
0.0
 10
11.3832777702
 20
6.5118721907
 30
0.0
 10
11.3592225642
 20
6.5138348297
 30
0.0
 10
11.3357389018
 20
6.5162148713
 30
0.0
 10
11.3129351586
 20
6.5190011499
 30
0.0
 10
11.2909165619
 20
6.5221806369
 30
0.0
 10
11.2697845933
 20
6.52573849
 30
0.0
 10
11.249636755
 20
6.5296580637
 30
0.0
 10
11.233530616
 20
6.5332579259
 30
0.0
 10
11.2212147223
 20
6.5363157916
 30
0.0
 10
11.2124072312
 20
6.5386563702
 30
0.0
 10
11.2039123653
 20
6.5410730133
 30
0.0
 10
11.1957398661
 20
6.5435627844
 30
0.0
 10
11.1878991461
 20
6.546122836
 30
0.0
 10
11.1803992439
 20
6.5487503085
 30
0.0
 10
11.1732487284
 20
6.551441969
 30
0.0
 10
11.1664558032
 20
6.5541948758
 30
0.0
 10
11.1600283268
 20
6.5570057939
 30
0.0
 10
11.1558958055
 20
6.5589616202
 30
0.0
 10
11.1538940158
 20
6.5599504705
 30
0.0
  0
SPLINE
  5
386
100
AcDbEntity
  8
0
100
AcDbSpline
 62
7
  6
CONTINUOUS
 70
0
 71
3
 72
21
 73
17
 74
0
 42
0.0000001
 43
0.0000001
 44
0.0000000001
 40
0.0
 40
0.0
 40
0.0
 40
0.0
 40
0.0939546242
 40
0.1441412745
 40
0.1965865465
 40
0.2513541962
 40
0.3084732992
 40
0.3679494757
 40
0.4297588492
 40
0.4938589598
 40
0.560186105
 40
0.6286639314
 40
0.6992033348
 40
0.7717085205
 40
0.846079549
 40
1.0
 40
1.0
 40
1.0
 40
1.0
 10
11.8334628564
 20
7.1599889631
 30
0.0
 10
11.8362232288
 20
7.1580351986
 30
0.0
 10
11.84028162
 20
7.1547821693
 30
0.0
 10
11.845468291
 20
7.149967024
 30
0.0
 10
11.84944291
 20
7.145926724
 30
0.0
 10
11.8534135395
 20
7.1415405118
 30
0.0
 10
11.8573792381
 20
7.136814486
 30
0.0
 10
11.8613375246
 20
7.1317565382
 30
0.0
 10
11.8652872608
 20
7.126377029
 30
0.0
 10
11.8692265176
 20
7.1206873907
 30
0.0
 10
11.8731543614
 20
7.1147007716
 30
0.0
 10
11.8770694236
 20
7.1084309132
 30
0.0
 10
11.8809710445
 20
7.1018924391
 30
0.0
 10
11.8848584643
 20
7.0951000462
 30
0.0
 10
11.8900820116
 20
7.0856160552
 30
0.0
 10
11.8938852744
 20
7.0783304852
 30
0.0
 10
11.8963914368
 20
7.0733894521
 30
0.0
  0
SPLINE
  5
387
100
AcDbEntity
  8
0
100
AcDbSpline
 62
7
  6
CONTINUOUS
 70
0
 71
3
 72
22
 73
18
 74
0
 42
0.0000001
 43
0.0000001
 44
0.0000000001
 40
0.0
 40
0.0
 40
0.0
 40
0.0
 40
0.0635273379
 40
0.1269572064
 40
0.1902757748
 40
0.2534709912
 40
0.3165301003
 40
0.379441755
 40
0.4421965093
 40
0.5047878955
 40
0.5672131085
 40
0.6294732209
 40
0.6915729736
 40
0.7535202865
 40
0.8153256527
 40
0.8770007717
 40
1.0
 40
1.0
 40
1.0
 40
1.0
 10
11.5770528663
 20
6.9907385798
 30
0.0
 10
11.5692675247
 20
6.9933763158
 30
0.0
 10
11.5536471812
 20
6.9984683695
 30
0.0
 10
11.5300491624
 20
7.005499928
 30
0.0
 10
11.5063041789
 20
7.0118564514
 30
0.0
 10
11.4824224255
 20
7.0174745654
 30
0.0
 10
11.4584198445
 20
7.0222939694
 30
0.0
 10
11.4343189591
 20
7.0262609559
 30
0.0
 10
11.4101482626
 20
7.0293326107
 30
0.0
 10
11.3859409549
 20
7.0314803925
 30
0.0
 10
11.3617328435
 20
7.0326927011
 30
0.0
 10
11.3375598379
 20
7.032975949
 30
0.0
 10
11.3134553674
 20
7.0323538786
 30
0.0
 10
11.2894483834
 20
7.0308653486
 30
0.0
 10
11.2655614488
 20
7.0285608255
 30
0.0
 10
11.2339263816
 20
7.0244819201
 30
0.0
 10
11.2103705462
 20
7.0203732317
 30
0.0
 10
11.1947645877
 20
7.017250362
 30
0.0
  0
SPLINE
  5
388
100
AcDbEntity
  8
0
100
AcDbSpline
 62
7
  6
CONTINUOUS
 70
0
 71
3
 72
15
 73
11
 74
0
 42
0.0000001
 43
0.0000001
 44
0.0000000001
 40
0.0
 40
0.0
 40
0.0
 40
0.0
 40
0.1194602858
 40
0.2394958904
 40
0.3605470642
 40
0.48311116
 40
0.6077388008
 40
0.735017645
 40
0.8655629633
 40
1.0
 40
1.0
 40
1.0
 40
1.0
 10
11.1719683607
 20
6.5592608123
 30
0.0
 10
11.1707592881
 20
6.559212806
 30
0.0
 10
11.1683320358
 20
6.5591840084
 30
0.0
 10
11.164681909
 20
6.5593544669
 30
0.0
 10
11.161017411
 20
6.5597505741
 30
0.0
 10
11.1573391289
 20
6.5603843908
 30
0.0
 10
11.1536477224
 20
6.561268002
 30
0.0
 10
11.1499439762
 20
6.5624128068
 30
0.0
 10
11.1462291847
 20
6.5638297818
 30
0.0
 10
11.1437853746
 20
6.5649446648
 30
0.0
 10
11.1425642148
 20
6.5655472155
 30
0.0
  0
SPLINE
  5
389
100
AcDbEntity
  8
0
100
AcDbSpline
 62
7
  6
CONTINUOUS
 70
0
 71
3
 72
23
 73
19
 74
0
 42
0.0000001
 43
0.0000001
 44
0.0000000001
 40
0.0
 40
0.0
 40
0.0
 40
0.0
 40
0.0906670359
 40
0.1780341793
 40
0.2617789563
 40
0.3415969466
 40
0.4172203086
 40
0.4884477007
 40
0.5551747958
 40
0.6174227973
 40
0.6753586861
 40
0.7293019982
 40
0.7797138811
 40
0.8271670494
 40
0.8722993512
 40
0.9157583196
 40
0.9581503273
 40
1.0
 40
1.0
 40
1.0
 40
1.0
 10
11.1719683607
 20
7.0231504522
 30
0.0
 10
11.1699157287
 20
7.0271973259
 30
0.0
 10
11.1658084826
 20
7.0351052941
 30
0.0
 10
11.1595020705
 20
7.0465905616
 30
0.0
 10
11.1531578548
 20
7.0574308762
 30
0.0
 10
11.1467779956
 20
7.067562738
 30
0.0
 10
11.1403657627
 20
7.0769249212
 30
0.0
 10
11.1339256164
 20
7.0854616036
 30
0.0
 10
11.1274630949
 20
7.0931261262
 30
0.0
 10
11.1209845771
 20
7.0998842852
 30
0.0
 10
11.1144970454
 20
7.1057167479
 30
0.0
 10
11.1080080315
 20
7.1106202503
 30
0.0
 10
11.1015257873
 20
7.1146075746
 30
0.0
 10
11.0950594597
 20
7.1177066258
 30
0.0
 10
11.0886189722
 20
7.119958864
 30
0.0
 10
11.0822135367
 20
7.1214168177
 30
0.0
 10
11.0758515232
 20
7.1221407747
 30
0.0
 10
11.0716272763
 20
7.1221769421
 30
0.0
 10
11.0695344467
 20
7.1220938461
 30
0.0
  0
SPLINE
  5
38A
100
AcDbEntity
  8
0
100
AcDbSpline
 62
7
  6
CONTINUOUS
 70
0
 71
3
 72
23
 73
19
 74
0
 42
0.0000001
 43
0.0000001
 44
0.0000000001
 40
0.0
 40
0.0
 40
0.0
 40
0.0
 40
0.0583758378
 40
0.1169669042
 40
0.1758415893
 40
0.2350810538
 40
0.2947741399
 40
0.3550144473
 40
0.4158939499
 40
0.4774962044
 40
0.5398895504
 40
0.6031216332
 40
0.6672164029
 40
0.7321741044
 40
0.7979740729
 40
0.8645787036
 40
0.9319398071
 40
1.0
 40
1.0
 40
1.0
 40
1.0
 10
11.8880474473
 20
7.0653297767
 30
0.0
 10
11.8823357903
 20
7.065953874
 30
0.0
 10
11.8708684145
 20
7.0670051114
 30
0.0
 10
11.8535813958
 20
7.067927693
 30
0.0
 10
11.8361850221
 20
7.0681360157
 30
0.0
 10
11.8186874064
 20
7.0675690282
 30
0.0
 10
11.8011010195
 20
7.0661703848
 30
0.0
 10
11.7834435133
 20
7.0638922712
 30
0.0
 10
11.7657370101
 20
7.0606995235
 30
0.0
 10
11.7480069553
 20
7.0565728645
 30
0.0
 10
11.7302803363
 20
7.051510815
 30
0.0
 10
11.712583681
 20
7.0455299238
 30
0.0
 10
11.6949411857
 20
7.0386632499
 30
0.0
 10
11.6773732545
 20
7.0309574406
 30
0.0
 10
11.6598957105
 20
7.0224689695
 30
0.0
 10
11.6425195287
 20
7.0132599176
 30
0.0
 10
11.625251588
 20
7.0033946556
 30
0.0
 10
11.6138688199
 20
6.9964563141
 30
0.0
 10
11.6081930828
 20
6.992898165
 30
0.0
  0
SPLINE
  5
38B
100
AcDbEntity
  8
0
100
AcDbSpline
 62
7
  6
CONTINUOUS
 70
0
 71
3
 72
21
 73
17
 74
0
 42
0.0000001
 43
0.0000001
 44
0.0000000001
 40
0.0
 40
0.0
 40
0.0
 40
0.0
 40
0.1322807973
 40
0.1974630074
 40
0.2620103588
 40
0.3259410588
 40
0.3892831828
 40
0.4520722499
 40
0.5143508918
 40
0.5761665783
 40
0.6375689141
 40
0.6986092661
 40
0.7593369091
 40
0.8197991391
 40
0.880040055
 40
1.0
 40
1.0
 40
1.0
 40
1.0
 10
11.8118146718
 20
6.5603262298
 30
0.0
 10
11.8034052622
 20
6.556600604
 30
0.0
 10
11.7906860332
 20
6.5513993545
 30
0.0
 10
11.7735034651
 20
6.5453371815
 30
0.0
 10
11.7606578614
 20
6.5412888851
 30
0.0
 10
11.7478015405
 20
6.5377278335
 30
0.0
 10
11.734944631
 20
6.5346582292
 30
0.0
 10
11.7220971841
 20
6.5320809425
 30
0.0
 10
11.7092691433
 20
6.5299906342
 30
0.0
 10
11.6964696425
 20
6.5283777473
 30
0.0
 10
11.6837067751
 20
6.5272288313
 30
0.0
 10
11.6709875157
 20
6.5265261046
 30
0.0
 10
11.6583174743
 20
6.5262499968
 30
0.0
 10
11.6457007256
 20
6.5263781899
 30
0.0
 10
11.628978861
 20
6.5270564343
 30
0.0
 10
11.61648478
 20
6.5281025137
 30
0.0
 10
11.6081930828
 20
6.5290085251
 30
0.0
  0
SPLINE
  5
38C
100
AcDbEntity
  8
0
100
AcDbSpline
 62
7
  6
CONTINUOUS
 70
0
 71
3
 72
63
 73
59
 74
0
 42
0.0000001
 43
0.0000001
 44
0.0000000001
 40
0.0
 40
0.0
 40
0.0
 40
0.0
 40
0.0028080891
 40
0.005635861
 40
0.0085025563
 40
0.0114265532
 40
0.0144250857
 40
0.0175140421
 40
0.024015442
 40
0.0310307815
 40
0.0386330795
 40
0.0468752351
 40
0.0557945867
 40
0.0654152368
 40
0.0757518105
 40
0.0868103284
 40
0.0985909326
 40
0.1110879014
 40
0.1242915782
 40
0.1381880808
 40
0.1527606178
 40
0.1679892836
 40
0.1838518204
 40
0.2003236172
 40
0.2173780101
 40
0.2349865843
 40
0.2531190923
 40
0.2717439838
 40
0.2908280564
 40
0.3103371435
 40
0.330235625
 40
0.3710533868
 40
0.4129802271
 40
0.4557028008
 40
0.4988999706
 40
0.5422458968
 40
0.5854133071
 40
0.6280766967
 40
0.6699154469
 40
0.7106171615
 40
0.7498808869
 40
0.7874205697
 40
0.805460169
 40
0.8229700755
 40
0.839920616
 40
0.8562834646
 40
0.8720324963
 40
0.8871434047
 40
0.9015943675
 40
0.9153660295
 40
0.9284420105
 40
0.9408093994
 40
0.9524588963
 40
0.9633859076
 40
0.9735912468
 40
0.9830834907
 40
0.991878313
 40
1.0
 40
1.0
 40
1.0
 40
1.0
 10
11.1324630043
 20
7.138730649
 30
0.0
 10
11.132462989
 20
7.1380497382
 30
0.0
 10
11.132522576
 20
7.1366824041
 30
0.0
 10
11.1327905672
 20
7.1346357525
 30
0.0
 10
11.133236843
 20
7.1325916191
 30
0.0
 10
11.1338608838
 20
7.1305514375
 30
0.0
 10
11.1346621819
 20
7.128516214
 30
0.0
 10
11.1359885997
 20
7.1257642427
 30
0.0
 10
11.1381171373
 20
7.122331383
 30
0.0
 10
11.1413234927
 20
7.1183257028
 30
0.0
 10
11.1452166741
 20
7.1143683165
 30
0.0
 10
11.1497878066
 20
7.1104647097
 30
0.0
 10
11.1550285091
 20
7.1066208782
 30
0.0
 10
11.1609286268
 20
7.1028428692
 30
0.0
 10
11.1674772199
 20
7.09913795
 30
0.0
 10
11.1746615183
 20
7.0955126944
 30
0.0
 10
11.1824676883
 20
7.0919745969
 30
0.0
 10
11.1908802703
 20
7.0885303051
 30
0.0
 10
11.199882676
 20
7.0851870662
 30
0.0
 10
11.2094569056
 20
7.0819513607
 30
0.0
 10
11.2195838379
 20
7.0788299724
 30
0.0
 10
11.2302431262
 20
7.0758290885
 30
0.0
 10
11.2414133513
 20
7.0729549185
 30
0.0
 10
11.2530720053
 20
7.070213269
 30
0.0
 10
11.2651955819
 20
7.0676097199
 30
0.0
 10
11.2777596081
 20
7.0651496302
 30
0.0
 10
11.2907387154
 20
7.0628379118
 30
0.0
 10
11.3041066788
 20
7.0606794075
 30
0.0
 10
11.3178364803
 20
7.0586783496
 30
0.0
 10
11.3319003762
 20
7.0568389758
 30
0.0
 10
11.3512234126
 20
7.054587856
 30
0.0
 10
11.3760022362
 20
7.0522142654
 30
0.0
 10
11.4063540627
 20
7.0500834393
 30
0.0
 10
11.4373250304
 20
7.0486642971
 30
0.0
 10
11.4686647402
 20
7.0479684523
 30
0.0
 10
11.5001200035
 20
7.0480016478
 30
0.0
 10
11.5314366147
 20
7.0487636056
 30
0.0
 10
11.5623615296
 20
7.0502480564
 30
0.0
 10
11.5926448995
 20
7.0524427836
 30
0.0
 10
11.6220422501
 20
7.0553296864
 30
0.0
 10
11.6503160826
 20
7.0588850275
 30
0.0
 10
11.67304378
 20
7.0624255651
 30
0.0
 10
11.6904832343
 20
7.0655861454
 30
0.0
 10
11.7029690236
 20
7.0680728115
 30
0.0
 10
11.7150098205
 20
7.0707018163
 30
0.0
 10
11.7265813496
 20
7.0734680383
 30
0.0
 10
11.7376602807
 20
7.0763656747
 30
0.0
 10
11.7482243033
 20
7.0793889466
 30
0.0
 10
11.7582521755
 20
7.0825316278
 30
0.0
 10
11.7677237874
 20
7.0857873371
 30
0.0
 10
11.7766201947
 20
7.0891495282
 30
0.0
 10
11.7849237132
 20
7.0926113271
 30
0.0
 10
11.7926178169
 20
7.0961659397
 30
0.0
 10
11.7996874925
 20
7.0998060158
 30
0.0
 10
11.8061189674
 20
7.1035248315
 30
0.0
 10
11.8119003052
 20
7.1073154196
 30
0.0
 10
11.817019448
 20
7.111170602
 30
0.0
 10
11.8201034912
 20
7.1138837335
 30
0.0
 10
11.8215199639
 20
7.1152519411
 30
0.0
  0
SPLINE
  5
38D
100
AcDbEntity
  8
0
100
AcDbSpline
 62
7
  6
CONTINUOUS
 70
0
 71
3
 72
16
 73
12
 74
0
 42
0.0000001
 43
0.0000001
 44
0.0000000001
 40
0.0
 40
0.0
 40
0.0
 40
0.0
 40
0.1098876618
 40
0.2213923997
 40
0.3360585213
 40
0.4552981886
 40
0.5170476077
 40
0.5803910153
 40
0.7123199569
 40
0.8519658754
 40
1.0
 40
1.0
 40
1.0
 40
1.0
 10
11.8334628792
 20
7.1387312518
 30
0.0
 10
11.833462857
 20
7.1377398753
 30
0.0
 10
11.8333355201
 20
7.1357403044
 30
0.0
 10
11.8327648753
 20
7.1327552459
 30
0.0
 10
11.831815774
 20
7.1297797513
 30
0.0
 10
11.8307244207
 20
7.1273399818
 30
0.0
 10
11.8296742427
 20
7.1254011181
 30
0.0
 10
11.8284716206
 20
7.1234176154
 30
0.0
 10
11.8267252338
 20
7.1209466182
 30
0.0
 10
11.824290931
 20
7.118042903
 30
0.0
 10
11.8224805453
 20
7.1161797916
 30
0.0
 10
11.8215199639
 20
7.1152519411
 30
0.0
  0
LINE
  5
38E
100
AcDbEntity
  8
0
100
AcDbLine
 62
7
  6
CONTINUOUS
 10
11.8963914368
 20
7.0733894521
 11
11.8925155164
 21
7.0693390815
  0
LINE
  5
38F
100
AcDbEntity
  8
0
100
AcDbLine
 62
7
  6
CONTINUOUS
 10
11.8880474473
 20
7.0653297767
 11
11.8925155164
 21
7.0693390815
  0
SPLINE
  5
390
100
AcDbEntity
  8
0
100
AcDbSpline
 62
7
  6
CONTINUOUS
 70
0
 71
3
 72
22
 73
18
 74
0
 42
0.0000001
 43
0.0000001
 44
0.0000000001
 40
0.0
 40
0.0
 40
0.0
 40
0.0
 40
0.1229992283
 40
0.1846743473
 40
0.2464797135
 40
0.3084270265
 40
0.3705267792
 40
0.4327868915
 40
0.4952121045
 40
0.5578034907
 40
0.620558245
 40
0.6834698997
 40
0.7465290089
 40
0.8097242252
 40
0.8730427936
 40
0.9364726621
 40
1.0
 40
1.0
 40
1.0
 40
1.0
 10
11.5770528663
 20
6.5268489399
 30
0.0
 10
11.5614469078
 20
6.5237260702
 30
0.0
 10
11.5378910724
 20
6.5196173818
 30
0.0
 10
11.5062560051
 20
6.5155384764
 30
0.0
 10
11.4823690706
 20
6.5132339533
 30
0.0
 10
11.4583620866
 20
6.5117454233
 30
0.0
 10
11.4342576161
 20
6.5111233529
 30
0.0
 10
11.4100846105
 20
6.5114066008
 30
0.0
 10
11.3858764991
 20
6.5126189094
 30
0.0
 10
11.3616691914
 20
6.5147666912
 30
0.0
 10
11.3374984949
 20
6.517838346
 30
0.0
 10
11.3133976095
 20
6.5218053325
 30
0.0
 10
11.2893950285
 20
6.5266247365
 30
0.0
 10
11.2655132751
 20
6.5322428505
 30
0.0
 10
11.2417682915
 20
6.5385993739
 30
0.0
 10
11.2181702728
 20
6.5456309324
 30
0.0
 10
11.2025499293
 20
6.5507229861
 30
0.0
 10
11.1947645877
 20
6.5533607221
 30
0.0
  0
SPLINE
  5
391
100
AcDbEntity
  8
0
100
AcDbSpline
 62
7
  6
CONTINUOUS
 70
0
 71
3
 72
42
 73
38
 74
0
 42
0.0000001
 43
0.0000001
 44
0.0000000001
 40
0.0
 40
0.0
 40
0.0
 40
0.0
 40
0.0311444347
 40
0.0467772112
 40
0.0624471461
 40
0.093891844
 40
0.1254739796
 40
0.1571813629
 40
0.1889992234
 40
0.2209106216
 40
0.2528967716
 40
0.2849374315
 40
0.3170113014
 40
0.34909644
 40
0.3811706886
 40
0.4132120984
 40
0.4451993552
 40
0.4771121951
 40
0.5089318057
 40
0.5406412074
 40
0.572225607
 40
0.6036727182
 40
0.6349730419
 40
0.6661200987
 40
0.6971106068
 40
0.7279445994
 40
0.7586254742
 40
0.7891599701
 40
0.8195580671
 40
0.8498328085
 40
0.864931571
 40
0.8800056544
 40
0.910083706
 40
0.9400929707
 40
0.9550814956
 40
0.9700611828
 40
1.0
 40
1.0
 40
1.0
 40
1.0
 10
9.6631832298
 20
8.9116429906
 30
0.0
 10
9.6664972037
 20
8.9114131657
 30
0.0
 10
9.6714644194
 20
8.910886174
 30
0.0
 10
9.6780414545
 20
8.9098271357
 30
0.0
 10
9.6846080481
 20
8.9085269619
 30
0.0
 10
9.6927505106
 20
8.9064563161
 30
0.0
 10
9.7023507939
 20
8.9032780386
 30
0.0
 10
9.711741914
 20
8.8994201514
 30
0.0
 10
9.7208735166
 20
8.8949033447
 30
0.0
 10
9.7296970255
 20
8.8897517433
 30
0.0
 10
9.7381654049
 20
8.8839928564
 30
0.0
 10
9.7462335401
 20
8.8776574127
 30
0.0
 10
9.7538584392
 20
8.870779202
 30
0.0
 10
9.7609994691
 20
8.8633948957
 30
0.0
 10
9.7676185674
 20
8.8555438529
 30
0.0
 10
9.7736804439
 20
8.847267913
 30
0.0
 10
9.7791527668
 20
8.8386111747
 30
0.0
 10
9.7840063338
 20
8.8296197639
 30
0.0
 10
9.7882152268
 20
8.8203415905
 30
0.0
 10
9.7917569498
 20
8.8108260968
 30
0.0
 10
9.7946125488
 20
8.8011239967
 30
0.0
 10
9.7967667134
 20
8.7912870094
 30
0.0
 10
9.7982078605
 20
8.7813675876
 30
0.0
 10
9.7989281982
 20
8.7714186409
 30
0.0
 10
9.7989237718
 20
8.7614932594
 30
0.0
 10
9.7981944845
 20
8.7516444237
 30
0.0
 10
9.7967441225
 20
8.7419247618
 30
0.0
 10
9.7945802693
 20
8.7323861281
 30
0.0
 10
9.791714538
 20
8.7230798514
 30
0.0
 10
9.7887508979
 20
8.7155516235
 30
0.0
 10
9.786046433
 20
8.7096972614
 30
0.0
 10
9.7831277891
 20
8.7039701973
 30
0.0
 10
9.7790754275
 20
8.6970430148
 30
0.0
 10
9.7745018699
 20
8.6904593553
 30
0.0
 10
9.770549646
 20
8.6854269738
 30
0.0
 10
9.7664088918
 20
8.6805588486
 30
0.0
 10
9.7630914151
 20
8.6770931719
 30
0.0
 10
9.7607945841
 20
8.674874617
 30
0.0
  0
SPLINE
  5
392
100
AcDbEntity
  8
0
100
AcDbSpline
 62
7
  6
CONTINUOUS
 70
0
 71
3
 72
42
 73
38
 74
0
 42
0.0000001
 43
0.0000001
 44
0.0000000001
 40
0.0
 40
0.0
 40
0.0
 40
0.0
 40
0.0311444347
 40
0.0467772112
 40
0.0624471461
 40
0.093891844
 40
0.1254739796
 40
0.1571813629
 40
0.1889992234
 40
0.2209106216
 40
0.2528967716
 40
0.2849374315
 40
0.3170113014
 40
0.34909644
 40
0.3811706886
 40
0.4132120984
 40
0.4451993552
 40
0.4771121951
 40
0.5089318057
 40
0.5406412074
 40
0.572225607
 40
0.6036727182
 40
0.6349730419
 40
0.6661200987
 40
0.6971106068
 40
0.7279445994
 40
0.7586254742
 40
0.7891599701
 40
0.8195580671
 40
0.8498328085
 40
0.864931571
 40
0.8800056544
 40
0.910083706
 40
0.9400929707
 40
0.9550814956
 40
0.9700611828
 40
1.0
 40
1.0
 40
1.0
 40
1.0
 10
12.0779979387
 20
9.9515823762
 30
0.0
 10
12.0813119125
 20
9.9513525513
 30
0.0
 10
12.0862791282
 20
9.9508255595
 30
0.0
 10
12.0928561633
 20
9.9497665213
 30
0.0
 10
12.0994227569
 20
9.9484663474
 30
0.0
 10
12.1075652194
 20
9.9463957016
 30
0.0
 10
12.1171655027
 20
9.9432174242
 30
0.0
 10
12.1265566228
 20
9.9393595369
 30
0.0
 10
12.1356882254
 20
9.9348427303
 30
0.0
 10
12.1445117343
 20
9.9296911289
 30
0.0
 10
12.1529801137
 20
9.9239322419
 30
0.0
 10
12.1610482489
 20
9.9175967982
 30
0.0
 10
12.168673148
 20
9.9107185876
 30
0.0
 10
12.1758141779
 20
9.9033342813
 30
0.0
 10
12.1824332762
 20
9.8954832385
 30
0.0
 10
12.1884951527
 20
9.8872072986
 30
0.0
 10
12.1939674756
 20
9.8785505602
 30
0.0
 10
12.1988210426
 20
9.8695591494
 30
0.0
 10
12.2030299356
 20
9.8602809761
 30
0.0
 10
12.2065716586
 20
9.8507654824
 30
0.0
 10
12.2094272576
 20
9.8410633822
 30
0.0
 10
12.2115814222
 20
9.8312263949
 30
0.0
 10
12.2130225693
 20
9.8213069732
 30
0.0
 10
12.213742907
 20
9.8113580264
 30
0.0
 10
12.2137384806
 20
9.801432645
 30
0.0
 10
12.2130091933
 20
9.7915838092
 30
0.0
 10
12.2115588313
 20
9.7818641474
 30
0.0
 10
12.2093949781
 20
9.7723255136
 30
0.0
 10
12.2065292468
 20
9.7630192369
 30
0.0
 10
12.2035656067
 20
9.755491009
 30
0.0
 10
12.2008611419
 20
9.749636647
 30
0.0
 10
12.1979424979
 20
9.7439095828
 30
0.0
 10
12.1938901363
 20
9.7369824003
 30
0.0
 10
12.1893165787
 20
9.7303987409
 30
0.0
 10
12.1853643548
 20
9.7253663594
 30
0.0
 10
12.1812236006
 20
9.7204982342
 30
0.0
 10
12.1779061239
 20
9.7170325575
 30
0.0
 10
12.1756092929
 20
9.7148140026
 30
0.0
  0
SPLINE
  5
393
100
AcDbEntity
  8
0
100
AcDbSpline
 62
7
  6
CONTINUOUS
 70
0
 71
3
 72
54
 73
50
 74
0
 42
0.0000001
 43
0.0000001
 44
0.0000000001
 40
0.0
 40
0.0
 40
0.0
 40
0.0
 40
0.0417740106
 40
0.0840368515
 40
0.1266583734
 40
0.1695063147
 40
0.2124478814
 40
0.2553497884
 40
0.2980789417
 40
0.340502919
 40
0.3824905067
 40
0.4239122259
 40
0.4646408671
 40
0.5045520317
 40
0.5435246831
 40
0.5814417135
 40
0.6181905344
 40
0.6536637003
 40
0.6877595809
 40
0.704261357
 40
0.7203837372
 40
0.736116
 40
0.7514479644
 40
0.7663699709
 40
0.7808730136
 40
0.7949486603
 40
0.8085892482
 40
0.8217877894
 40
0.8345381805
 40
0.8468351604
 40
0.8586744859
 40
0.8700529987
 40
0.8809687469
 40
0.891421194
 40
0.9014113064
 40
0.910941912
 40
0.9200178165
 40
0.9286462958
 40
0.9368373422
 40
0.9446042644
 40
0.9519641574
 40
0.9589385856
 40
0.9655542762
 40
0.9718437871
 40
0.9778461898
 40
0.9836073681
 40
0.9891800557
 40
0.994623083
 40
1.0
 40
1.0
 40
1.0
 40
1.0
 10
12.3215499602
 20
8.8187764062
 30
0.0
 10
12.3215499602
 20
8.8279550967
 30
0.0
 10
12.3216931567
 20
8.846420173
 30
0.0
 10
12.3223262073
 20
8.8742436337
 30
0.0
 10
12.3233769109
 20
8.9022906321
 30
0.0
 10
12.3248418286
 20
8.9304683477
 30
0.0
 10
12.3267161162
 20
8.9586835383
 30
0.0
 10
12.3289935795
 20
8.9868428662
 30
0.0
 10
12.3316666739
 20
9.0148531671
 30
0.0
 10
12.3347265382
 20
9.042621777
 30
0.0
 10
12.3381630208
 20
9.0700568353
 30
0.0
 10
12.3419647134
 20
9.0970675932
 30
0.0
 10
12.3461189881
 20
9.1235647163
 30
0.0
 10
12.350612038
 20
9.1494605833
 30
0.0
 10
12.3554289217
 20
9.1746695844
 30
0.0
 10
12.3605536142
 20
9.1991083952
 30
0.0
 10
12.3659690519
 20
9.2226963127
 30
0.0
 10
12.3716572117
 20
9.2453553441
 30
0.0
 10
12.3766617063
 20
9.2635947567
 30
0.0
 10
12.3807948708
 20
9.2776602708
 30
0.0
 10
12.3839172161
 20
9.2878164391
 30
0.0
 10
12.3870931933
 20
9.2976862987
 30
0.0
 10
12.3903201739
 20
9.3072617067
 30
0.0
 10
12.3935955009
 20
9.3165347505
 30
0.0
 10
12.3969164278
 20
9.3254977816
 30
0.0
 10
12.4002802398
 20
9.3341433993
 30
0.0
 10
12.4036841094
 20
9.342464484
 30
0.0
 10
12.4071252565
 20
9.350454174
 30
0.0
 10
12.4106008008
 20
9.3581059026
 30
0.0
 10
12.4141078935
 20
9.3654133766
 30
0.0
 10
12.4176436293
 20
9.3723706035
 30
0.0
 10
12.4212050953
 20
9.3789718879
 30
0.0
 10
12.4247893858
 20
9.3852118313
 30
0.0
 10
12.4283935425
 20
9.3910853637
 30
0.0
 10
12.4320146813
 20
9.3965876991
 30
0.0
 10
12.4356498375
 20
9.4017144125
 30
0.0
 10
12.4392961724
 20
9.4064613463
 30
0.0
 10
12.4429507786
 20
9.4108247197
 30
0.0
 10
12.4466108961
 20
9.4148010054
 30
0.0
 10
12.4502737586
 20
9.4183870219
 30
0.0
 10
12.4539367331
 20
9.4215798235
 30
0.0
 10
12.4575972612
 20
9.424376699
 30
0.0
 10
12.4612528513
 20
9.426775129
 30
0.0
 10
12.4649010823
 20
9.4287726251
 30
0.0
 10
12.4685394191
 20
9.4303668376
 30
0.0
 10
12.472165105
 20
9.4315552949
 30
0.0
 10
12.4757751085
 20
9.4323357979
 30
0.0
 10
12.4793650782
 20
9.4327063575
 30
0.0
 10
12.4817485139
 20
9.4326791834
 30
0.0
 10
12.4829271132
 20
9.4325974526
 30
0.0
  0
SPLINE
  5
394
100
AcDbEntity
  8
0
100
AcDbSpline
 62
7
  6
CONTINUOUS
 70
0
 71
3
 72
40
 73
36
 74
0
 42
0.0000001
 43
0.0000001
 44
0.0000000001
 40
0.0
 40
0.0
 40
0.0
 40
0.0
 40
0.0762759659
 40
0.1537855326
 40
0.2318225774
 40
0.3096740349
 40
0.3866291487
 40
0.4245519099
 40
0.4619892723
 40
0.4988567136
 40
0.5350714223
 40
0.5705525658
 40
0.6052215682
 40
0.6390023979
 40
0.6718218876
 40
0.7036100572
 40
0.7343004482
 40
0.7638305023
 40
0.7921419885
 40
0.8191815074
 40
0.8449010996
 40
0.86925894
 40
0.8922202271
 40
0.9031690008
 40
0.9137594417
 40
0.9239897052
 40
0.9338587998
 40
0.9433664088
 40
0.9525132246
 40
0.9613009117
 40
0.9697322429
 40
0.9778113888
 40
0.9855438673
 40
0.9929370071
 40
1.0
 40
1.0
 40
1.0
 40
1.0
 10
12.3764195525
 20
7.815053409
 30
0.0
 10
12.3764195525
 20
7.824057377
 30
0.0
 10
12.3766617833
 20
7.8422117188
 30
0.0
 10
12.3777185976
 20
7.8695593892
 30
0.0
 10
12.3794628111
 20
7.8970583663
 30
0.0
 10
12.3818775267
 20
7.9244407473
 30
0.0
 10
12.3844410655
 20
7.9470492214
 30
0.0
 10
12.3868139464
 20
7.9648723847
 30
0.0
 10
12.3887359739
 20
7.977980496
 30
0.0
 10
12.3908042144
 20
7.9908621634
 30
0.0
 10
12.3930136312
 20
8.0034860299
 30
0.0
 10
12.3953588136
 20
8.0158213418
 30
0.0
 10
12.3978340244
 20
8.0278380599
 30
0.0
 10
12.4004332065
 20
8.0395069255
 30
0.0
 10
12.4031499945
 20
8.0507995389
 30
0.0
 10
12.4059777309
 20
8.061688431
 30
0.0
 10
12.4089094861
 20
8.0721471305
 30
0.0
 10
12.4119380744
 20
8.08215023
 30
0.0
 10
12.415056073
 20
8.0916734576
 30
0.0
 10
12.4182558423
 20
8.1006937301
 30
0.0
 10
12.4215295436
 20
8.1091892798
 30
0.0
 10
12.4248691675
 20
8.1171395194
 30
0.0
 10
12.4277441063
 20
8.123389877
 30
0.0
 10
12.4300760932
 20
8.128097262
 30
0.0
 10
12.4318087009
 20
8.131423566
 30
0.0
 10
12.4335516884
 20
8.134599824
 30
0.0
 10
12.4353039792
 20
8.1376241377
 30
0.0
 10
12.4370645473
 20
8.1404946709
 30
0.0
 10
12.4388323149
 20
8.143209707
 30
0.0
 10
12.4406062226
 20
8.1457676208
 30
0.0
 10
12.4423852432
 20
8.1481668687
 30
0.0
 10
12.4441682838
 20
8.150406039
 30
0.0
 10
12.4459543686
 20
8.1524837876
 30
0.0
 10
12.4477423755
 20
8.1543988362
 30
0.0
 10
12.4489623651
 20
8.1555930906
 30
0.0
 10
12.4495726821
 20
8.156161113
 30
0.0
  0
SPLINE
  5
395
100
AcDbEntity
  8
0
100
AcDbSpline
 62
7
  6
CONTINUOUS
 70
0
 71
3
 72
63
 73
59
 74
0
 42
0.0000001
 43
0.0000001
 44
0.0000000001
 40
0.0
 40
0.0
 40
0.0
 40
0.0
 40
0.0077404951
 40
0.0160540231
 40
0.0249601625
 40
0.0344715779
 40
0.0445947918
 40
0.0553316038
 40
0.0666797818
 40
0.0786337195
 40
0.0911849323
 40
0.1043223985
 40
0.1180328871
 40
0.1323012211
 40
0.1471104705
 40
0.1624420942
 40
0.1782761125
 40
0.1945912411
 40
0.2113649863
 40
0.2285737288
 40
0.2461928417
 40
0.2641967748
 40
0.2825591168
 40
0.3012526675
 40
0.3202495285
 40
0.3395211688
 40
0.3787712063
 40
0.4187649048
 40
0.4592577009
 40
0.5000010365
 40
0.5407443622
 40
0.5812371306
 40
0.6212307843
 40
0.6604807551
 40
0.6797523556
 40
0.6987491799
 40
0.7174426839
 40
0.7358049676
 40
0.7538088469
 40
0.7714279092
 40
0.7886365862
 40
0.8054102566
 40
0.8217253206
 40
0.837559275
 40
0.8528908158
 40
0.8676999784
 40
0.88196824
 40
0.8956786521
 40
0.908816022
 40
0.9213671416
 40
0.9333210024
 40
0.9446690929
 40
0.9554058035
 40
0.9655289264
 40
0.9750402472
 40
0.9839463523
 40
0.9922597067
 40
1.0
 40
1.0
 40
1.0
 40
1.0
 10
11.1187619885
 20
10.256818604
 30
0.0
 10
11.1172348517
 20
10.2553974979
 30
0.0
 10
11.11394742
 20
10.2525775801
 30
0.0
 10
11.1085544678
 20
10.2485501303
 30
0.0
 10
11.1025364375
 20
10.2445834014
 30
0.0
 10
11.0959031786
 20
10.2406836547
 30
0.0
 10
11.0886649446
 20
10.2368568284
 30
0.0
 10
11.0808333135
 20
10.2331090258
 30
0.0
 10
11.0724208381
 20
10.2294462751
 30
0.0
 10
11.0634411033
 20
10.2258745545
 30
0.0
 10
11.0539086781
 20
10.2223997339
 30
0.0
 10
11.0438390967
 20
10.2190275347
 30
0.0
 10
11.0332488164
 20
10.2157635241
 30
0.0
 10
11.0221551739
 20
10.2126131062
 30
0.0
 10
11.0105763581
 20
10.2095815073
 30
0.0
 10
10.9985313837
 20
10.2066737428
 30
0.0
 10
10.9860400475
 20
10.2038946301
 30
0.0
 10
10.9731228879
 20
10.2012487789
 30
0.0
 10
10.9598011561
 20
10.1987405801
 30
0.0
 10
10.9460967834
 20
10.1963741819
 30
0.0
 10
10.9320323355
 20
10.1941535042
 30
0.0
 10
10.9176309736
 20
10.1920822313
 30
0.0
 10
10.9029164186
 20
10.190163795
 30
0.0
 10
10.8879129215
 20
10.1884013699
 30
0.0
 10
10.8726451833
 20
10.1867978558
 30
0.0
 10
10.8518431924
 20
10.1848636137
 30
0.0
 10
10.8253658016
 20
10.1828680388
 30
0.0
 10
10.7931396567
 20
10.1811562465
 30
0.0
 10
10.7604819161
 20
10.1801246046
 30
0.0
 10
10.7276077367
 20
10.1797799685
 30
0.0
 10
10.6947335653
 20
10.1801246544
 30
0.0
 10
10.6620758487
 20
10.1811563503
 30
0.0
 10
10.6298497437
 20
10.1828681875
 30
0.0
 10
10.6033723972
 20
10.1848638074
 30
0.0
 10
10.5825704483
 20
10.1867980842
 30
0.0
 10
10.5673027453
 20
10.1884016159
 30
0.0
 10
10.5522992894
 20
10.1901640647
 30
0.0
 10
10.5375847813
 20
10.1920825298
 30
0.0
 10
10.5231834667
 20
10.1941538237
 30
0.0
 10
10.5091190677
 20
10.1963745173
 30
0.0
 10
10.4954147512
 20
10.1987409391
 30
0.0
 10
10.4820930806
 20
10.2012491644
 30
0.0
 10
10.4691759804
 20
10.2038950322
 30
0.0
 10
10.4566847056
 20
10.2066741588
 30
0.0
 10
10.4446398015
 20
10.2095819463
 30
0.0
 10
10.4330610592
 20
10.2126135683
 30
0.0
 10
10.4219674861
 20
10.215763998
 30
0.0
 10
10.4113772786
 20
10.2190280205
 30
0.0
 10
10.4013077801
 20
10.2224002417
 30
0.0
 10
10.3917754381
 20
10.2258750806
 30
0.0
 10
10.3827957807
 20
10.229446808
 30
0.0
 10
10.3743833875
 20
10.2331095686
 30
0.0
 10
10.3665518497
 20
10.236857392
 30
0.0
 10
10.3593137107
 20
10.2406842317
 30
0.0
 10
10.3526805194
 20
10.2445839768
 30
0.0
 10
10.3466625971
 20
10.2485507229
 30
0.0
 10
10.3412697772
 20
10.252578163
 30
0.0
 10
10.3379824329
 20
10.2553980287
 30
0.0
 10
10.3364553604
 20
10.2568191241
 30
0.0
  0
SPLINE
  5
396
100
AcDbEntity
  8
0
100
AcDbSpline
 62
7
  6
CONTINUOUS
 70
0
 71
3
 72
21
 73
17
 74
0
 42
0.0000001
 43
0.0000001
 44
0.0000000001
 40
0.0
 40
0.0
 40
0.0
 40
0.0
 40
0.06165322
 40
0.1233294719
 40
0.1850515326
 40
0.2468416528
 40
0.308721334
 40
0.3707110997
 40
0.4328302469
 40
0.4950966389
 40
0.5575265783
 40
0.620134583
 40
0.6829331586
 40
0.745933179
 40
0.8725262751
 40
1.0
 40
1.0
 40
1.0
 40
1.0
 10
9.5655718756
 20
8.8769861909
 30
0.0
 10
9.5671485684
 20
8.87850915
 30
0.0
 10
9.5703851729
 20
8.8814714066
 30
0.0
 10
9.5754728229
 20
8.8856483329
 30
0.0
 10
9.5807814082
 20
8.8895491572
 30
0.0
 10
9.5862973641
 20
8.8931638841
 30
0.0
 10
9.5920068219
 20
8.8964834846
 30
0.0
 10
9.5978953874
 20
8.8994995831
 30
0.0
 10
9.6039482374
 20
8.9022045691
 30
0.0
 10
9.6101501003
 20
8.904591673
 30
0.0
 10
9.6164853659
 20
8.9066549013
 30
0.0
 10
9.6229380348
 20
8.9083890369
 30
0.0
 10
9.6294920352
 20
8.9097897623
 30
0.0
 10
9.6383562638
 20
8.9112102894
 30
0.0
 10
9.6496124205
 20
8.9121331675
 30
0.0
 10
9.6586616915
 20
8.9119565604
 30
0.0
 10
9.6631832298
 20
8.9116429906
 30
0.0
  0
SPLINE
  5
397
100
AcDbEntity
  8
0
100
AcDbSpline
 62
7
  6
CONTINUOUS
 70
0
 71
3
 72
21
 73
17
 74
0
 42
0.0000001
 43
0.0000001
 44
0.0000000001
 40
0.0
 40
0.0
 40
0.0
 40
0.0
 40
0.06165322
 40
0.1233294719
 40
0.1850515326
 40
0.2468416528
 40
0.308721334
 40
0.3707110997
 40
0.4328302469
 40
0.4950966389
 40
0.5575265783
 40
0.620134583
 40
0.6829331586
 40
0.745933179
 40
0.8725262751
 40
1.0
 40
1.0
 40
1.0
 40
1.0
 10
11.9803865844
 20
9.9169255765
 30
0.0
 10
11.9819632772
 20
9.9184485355
 30
0.0
 10
11.9851998817
 20
9.9214107922
 30
0.0
 10
11.9902875317
 20
9.9255877184
 30
0.0
 10
11.995596117
 20
9.9294885427
 30
0.0
 10
12.0011120729
 20
9.9331032697
 30
0.0
 10
12.0068215307
 20
9.9364228702
 30
0.0
 10
12.0127100962
 20
9.9394389687
 30
0.0
 10
12.0187629462
 20
9.9421439547
 30
0.0
 10
12.0249648091
 20
9.9445310586
 30
0.0
 10
12.0313000747
 20
9.9465942868
 30
0.0
 10
12.0377527436
 20
9.9483284225
 30
0.0
 10
12.044306744
 20
9.9497291479
 30
0.0
 10
12.0531709726
 20
9.9511496749
 30
0.0
 10
12.0644271293
 20
9.952072553
 30
0.0
 10
12.0734764003
 20
9.9518959459
 30
0.0
 10
12.0779979387
 20
9.9515823762
 30
0.0
  0
SPLINE
  5
398
100
AcDbEntity
  8
0
100
AcDbSpline
 62
7
  6
CONTINUOUS
 70
0
 71
3
 72
48
 73
44
 74
0
 42
0.0000001
 43
0.0000001
 44
0.0000000001
 40
0.0
 40
0.0
 40
0.0
 40
0.0
 40
0.0063158899
 40
0.0126706797
 40
0.0191025165
 40
0.025648058
 40
0.0323419221
 40
0.0392162652
 40
0.0536140552
 40
0.0611947659
 40
0.0690564915
 40
0.0772175997
 40
0.0856939645
 40
0.0944993396
 40
0.103645447
 40
0.1131421893
 40
0.122997946
 40
0.1332195527
 40
0.1438126331
 40
0.1547816545
 40
0.1661299881
 40
0.1778601838
 40
0.1899738557
 40
0.215353302
 40
0.2422691224
 40
0.2707113841
 40
0.3006623731
 40
0.332097648
 40
0.3649869327
 40
0.3992948208
 40
0.434981328
 40
0.4720023222
 40
0.5103099054
 40
0.5498527799
 40
0.590576537
 40
0.632423903
 40
0.6753349407
 40
0.7192473098
 40
0.7640964278
 40
0.8098157282
 40
0.8563368617
 40
0.9035891153
 40
1.0
 40
1.0
 40
1.0
 40
1.0
 10
12.4148505374
 20
8.4509551715
 30
0.0
 10
12.4140189638
 20
8.4510128376
 30
0.0
 10
12.4123546254
 20
8.4511965961
 30
0.0
 10
12.4098767609
 20
8.4516755307
 30
0.0
 10
12.4074154657
 20
8.4523578207
 30
0.0
 10
12.4049721729
 20
8.45324288
 30
0.0
 10
12.4025478318
 20
8.4543301921
 30
0.0
 10
12.3992926128
 20
8.4560751577
 30
0.0
 10
12.3961257716
 20
8.4582112299
 30
0.0
 10
12.3930610952
 20
8.460686636
 30
0.0
 10
12.3907462167
 20
8.4627736839
 30
0.0
 10
12.3884560747
 20
8.4650579802
 30
0.0
 10
12.386191211
 20
8.4675386824
 30
0.0
 10
12.3839525741
 20
8.4702147392
 30
0.0
 10
12.3817409832
 20
8.4730850582
 30
0.0
 10
12.3795572686
 20
8.4761484537
 30
0.0
 10
12.3774023185
 20
8.4794037086
 30
0.0
 10
12.3752769396
 20
8.4828494796
 30
0.0
 10
12.3731819946
 20
8.486484381
 30
0.0
 10
12.3711183293
 20
8.4903069405
 30
0.0
 10
12.3690867485
 20
8.4943155896
 30
0.0
 10
12.3670880916
 20
8.4985087197
 30
0.0
 10
12.364426788
 20
8.5044356009
 30
0.0
 10
12.3611971586
 20
8.5123016433
 30
0.0
 10
12.3575235082
 20
8.5223063677
 30
0.0
 10
12.3539998781
 20
8.5330019058
 30
0.0
 10
12.3506320826
 20
8.544370756
 30
0.0
 10
12.3474256812
 20
8.5563944608
 30
0.0
 10
12.3443859932
 20
8.5690533616
 30
0.0
 10
12.3415180729
 20
8.5823267338
 30
0.0
 10
12.3388266989
 20
8.5961928033
 30
0.0
 10
12.3363163556
 20
8.6106287898
 30
0.0
 10
12.3339912205
 20
8.625610948
 30
0.0
 10
12.3318551683
 20
8.6411146175
 30
0.0
 10
12.3299117604
 20
8.6571142688
 30
0.0
 10
12.3281642406
 20
8.6735835422
 30
0.0
 10
12.3266155164
 20
8.6904952929
 30
0.0
 10
12.3252681688
 20
8.7078216344
 30
0.0
 10
12.3241244419
 20
8.7255340009
 30
0.0
 10
12.3231862518
 20
8.7436031823
 30
0.0
 10
12.3224551542
 20
8.7619993639
 30
0.0
 10
12.3217534945
 20
8.7870904605
 30
0.0
 10
12.3215499602
 20
8.8060521054
 30
0.0
 10
12.3215499602
 20
8.8187764062
 30
0.0
  0
SPLINE
  5
399
100
AcDbEntity
  8
0
100
AcDbSpline
 62
7
  6
CONTINUOUS
 70
0
 71
3
 72
37
 73
33
 74
0
 42
0.0000001
 43
0.0000001
 44
0.0000000001
 40
0.0
 40
0.0
 40
0.0
 40
0.0
 40
0.0063398436
 40
0.0128074085
 40
0.0262345872
 40
0.0404983052
 40
0.0557682835
 40
0.0721776403
 40
0.0898274268
 40
0.1087922354
 40
0.1291250433
 40
0.1508612246
 40
0.1740221495
 40
0.1986175498
 40
0.2246475106
 40
0.2521042458
 40
0.2809730062
 40
0.3112331466
 40
0.3428589962
 40
0.3758201632
 40
0.4100822489
 40
0.4456072559
 40
0.4823536978
 40
0.5202771536
 40
0.5593304187
 40
0.5994636044
 40
0.6406245806
 40
0.6827589951
 40
0.7258103779
 40
0.8144282064
 40
0.90599351
 40
1.0
 40
1.0
 40
1.0
 40
1.0
 10
12.3924042294
 20
8.6364181647
 30
0.0
 10
12.3919086912
 20
8.6365636958
 30
0.0
 10
12.3909183041
 20
8.6368954585
 30
0.0
 10
12.3889445024
 20
8.6377188047
 30
0.0
 10
12.38649451
 20
8.6390568424
 30
0.0
 10
12.38364697
 20
8.6411042754
 30
0.0
 10
12.3808568139
 20
8.6436083896
 30
0.0
 10
12.3781270513
 20
8.6465642983
 30
0.0
 10
12.3754601095
 20
8.6499673514
 30
0.0
 10
12.3728589889
 20
8.653812617
 30
0.0
 10
12.3703268799
 20
8.6580946579
 30
0.0
 10
12.3678671067
 20
8.6628073751
 30
0.0
 10
12.3654831251
 20
8.6679440182
 30
0.0
 10
12.3631783711
 20
8.6734971251
 30
0.0
 10
12.3609562174
 20
8.6794585442
 30
0.0
 10
12.3588200126
 20
8.6858194719
 30
0.0
 10
12.356772962
 20
8.6925704444
 30
0.0
 10
12.3548181566
 20
8.699701376
 30
0.0
 10
12.3529585949
 20
8.7072015858
 30
0.0
 10
12.3511970894
 20
8.7150598022
 30
0.0
 10
12.3495363272
 20
8.7232641992
 30
0.0
 10
12.3479788634
 20
8.7318024154
 30
0.0
 10
12.346527054
 20
8.7406615676
 30
0.0
 10
12.3451831246
 20
8.7498282819
 30
0.0
 10
12.3439491399
 20
8.7592887114
 30
0.0
 10
12.3428269627
 20
8.7690285583
 30
0.0
 10
12.341818326
 20
8.7790330948
 30
0.0
 10
12.3409247562
 20
8.7892872049
 30
0.0
 10
12.3398785532
 20
8.8034074902
 30
0.0
 10
12.3388760271
 20
8.8215672653
 30
0.0
 10
12.3381597654
 20
8.84389396
 30
0.0
 10
12.3380041773
 20
8.8590118572
 30
0.0
 10
12.3380041773
 20
8.8666699613
 30
0.0
  0
SPLINE
  5
39A
100
AcDbEntity
  8
0
100
AcDbSpline
 62
7
  6
CONTINUOUS
 70
0
 71
3
 72
50
 73
46
 74
0
 42
0.0000001
 43
0.0000001
 44
0.0000000001
 40
0.0
 40
0.0
 40
0.0
 40
0.0
 40
0.0054464999
 40
0.0110657923
 40
0.0169073219
 40
0.0230145274
 40
0.0294246487
 40
0.0361690469
 40
0.0432737047
 40
0.0507597799
 40
0.0586443259
 40
0.0669406986
 40
0.0756592844
 40
0.0848076791
 40
0.0943913461
 40
0.1044136326
 40
0.1148763118
 40
0.1257795433
 40
0.1371222611
 40
0.1489021686
 40
0.1611159515
 40
0.1737593617
 40
0.1868272572
 40
0.20031379
 40
0.2285147349
 40
0.2583027247
 40
0.2896081617
 40
0.3223534961
 40
0.3564541613
 40
0.3918193618
 40
0.4283527584
 40
0.4659530818
 40
0.5045146956
 40
0.5439281249
 40
0.5840805618
 40
0.6248563528
 40
0.6661374744
 40
0.7078040014
 40
0.7497345644
 40
0.7918068251
 40
0.8338978789
 40
0.8758848737
 40
0.9176450098
 40
0.959057109
 40
1.0
 40
1.0
 40
1.0
 40
1.0
 10
12.4350954922
 20
9.2520082379
 30
0.0
 10
12.4343596904
 20
9.2518991584
 30
0.0
 10
12.4328757304
 20
9.2515962787
 30
0.0
 10
12.4306684627
 20
9.2509063854
 30
0.0
 10
12.4284530503
 20
9.2499764918
 30
0.0
 10
12.4262314781
 20
9.2488079186
 30
0.0
 10
12.424005108
 20
9.2474020372
 30
0.0
 10
12.4217753945
 20
9.2457602202
 30
0.0
 10
12.4195437719
 20
9.2438838877
 30
0.0
 10
12.4173116867
 20
9.24177458
 30
0.0
 10
12.4150806935
 20
9.2394339046
 30
0.0
 10
12.4128523064
 20
9.2368636822
 30
0.0
 10
12.4106281856
 20
9.2340658193
 30
0.0
 10
12.4084099024
 20
9.2310424703
 30
0.0
 10
12.4061991746
 20
9.2277958928
 30
0.0
 10
12.4039976135
 20
9.2243285868
 30
0.0
 10
12.4018069488
 20
9.2206431759
 30
0.0
 10
12.3996288194
 20
9.2167425014
 30
0.0
 10
12.3974649356
 20
9.2126295482
 30
0.0
 10
12.3953169535
 20
9.2083074914
 30
0.0
 10
12.3931865445
 20
9.2037796635
 30
0.0
 10
12.3910753754
 20
9.1990495655
 30
0.0
 10
12.3889850528
 20
9.1941208576
 30
0.0
 10
12.3861862411
 20
9.187185928
 30
0.0
 10
12.3827598697
 20
9.1780435526
 30
0.0
 10
12.3788154889
 20
9.1665023001
 30
0.0
 10
12.3749918854
 20
9.1542687317
 30
0.0
 10
12.3713010478
 20
9.1413808295
 30
0.0
 10
12.3677545569
 20
9.1278785124
 30
0.0
 10
12.3643635348
 20
9.1138037041
 30
0.0
 10
12.3611386121
 20
9.099200132
 30
0.0
 10
12.3580898934
 20
9.0841131997
 30
0.0
 10
12.3552269266
 20
9.0685898346
 30
0.0
 10
12.3525586731
 20
9.0526783392
 30
0.0
 10
12.3500934807
 20
9.0364282362
 30
0.0
 10
12.3478390582
 20
9.0198901115
 30
0.0
 10
12.3458024516
 20
9.0031154548
 30
0.0
 10
12.3439900234
 20
8.9861564976
 30
0.0
 10
12.3424074312
 20
8.9690660481
 30
0.0
 10
12.341059614
 20
8.9518973308
 30
0.0
 10
12.3399507686
 20
8.9347038017
 30
0.0
 10
12.3390843549
 20
8.917539033
 30
0.0
 10
12.3384630489
 20
8.9004564133
 30
0.0
 10
12.3380887935
 20
8.883509252
 30
0.0
 10
12.3380041773
 20
8.8722616425
 30
0.0
 10
12.3380041773
 20
8.8666699613
 30
0.0
  0
SPLINE
  5
39B
100
AcDbEntity
  8
0
100
AcDbSpline
 62
7
  6
CONTINUOUS
 70
0
 71
3
 72
31
 73
27
 74
0
 42
0.0000001
 43
0.0000001
 44
0.0000000001
 40
0.0
 40
0.0
 40
0.0
 40
0.0
 40
0.0162145343
 40
0.0334277252
 40
0.051672285
 40
0.0709715222
 40
0.091341237
 40
0.1127904537
 40
0.135322931
 40
0.1589374045
 40
0.183628751
 40
0.2093880264
 40
0.2362032861
 40
0.2640596266
 40
0.2929396643
 40
0.322823699
 40
0.3536898762
 40
0.385514511
 40
0.4519334682
 40
0.521859237
 40
0.5950454769
 40
0.6712259174
 40
0.7501167678
 40
0.8314193803
 40
0.914821165
 40
1.0
 40
1.0
 40
1.0
 40
1.0
 10
12.4121433332
 20
7.6164464959
 30
0.0
 10
12.4114465194
 20
7.6173032711
 30
0.0
 10
12.4100686456
 20
7.6191178649
 30
0.0
 10
12.4081036088
 20
7.6220394545
 30
0.0
 10
12.4061817961
 20
7.6252373429
 30
0.0
 10
12.4043051297
 20
7.6287081189
 30
0.0
 10
12.40247548
 20
7.6324483338
 30
0.0
 10
12.4006946491
 20
7.6364541373
 30
0.0
 10
12.3989645172
 20
7.6407214356
 30
0.0
 10
12.3972868271
 20
7.6452458084
 30
0.0
 10
12.3956633772
 20
7.6500225734
 30
0.0
 10
12.3940958353
 20
7.6550467532
 30
0.0
 10
12.3925858805
 20
7.6603131091
 30
0.0
 10
12.3911350915
 20
7.665816132
 30
0.0
 10
12.3897450079
 20
7.6715500595
 30
0.0
 10
12.3884171112
 20
7.6775088757
 30
0.0
 10
12.3871527754
 20
7.6836863338
 30
0.0
 10
12.3855304733
 20
7.6923293022
 30
0.0
 10
12.3836806029
 20
7.7036346626
 30
0.0
 10
12.3817638823
 20
7.7177779423
 30
0.0
 10
12.3801282205
 20
7.7326254196
 30
0.0
 10
12.378780648
 20
7.7481146324
 30
0.0
 10
12.3777269939
 20
7.7641805211
 30
0.0
 10
12.3769718257
 20
7.7807554847
 30
0.0
 10
12.3765184098
 20
7.7977697442
 30
0.0
 10
12.3764195525
 20
7.8092519361
 30
0.0
 10
12.3764195525
 20
7.815053409
 30
0.0
  0
SPLINE
  5
39C
100
AcDbEntity
  8
0
100
AcDbSpline
 62
7
  6
CONTINUOUS
 70
0
 71
3
 72
29
 73
25
 74
0
 42
0.0000001
 43
0.0000001
 44
0.0000000001
 40
0.0
 40
0.0
 40
0.0
 40
0.0
 40
0.0821603228
 40
0.1627612255
 40
0.2415329686
 40
0.3182186406
 40
0.3925681979
 40
0.4643438043
 40
0.533319805
 40
0.5992849553
 40
0.6620441662
 40
0.7214207894
 40
0.7497921189
 40
0.7772615252
 40
0.8038132955
 40
0.8294338251
 40
0.8541113041
 40
0.8778362028
 40
0.9006014913
 40
0.9224027151
 40
0.9432388177
 40
0.9631119249
 40
0.9820286652
 40
1.0
 40
1.0
 40
1.0
 40
1.0
 10
12.4368507128
 20
7.9424254309
 30
0.0
 10
12.4368507128
 20
7.9464696126
 30
0.0
 10
12.4367868864
 20
7.9544813818
 30
0.0
 10
12.4364945799
 20
7.9663673221
 30
0.0
 10
12.4360075842
 20
7.9779772394
 30
0.0
 10
12.4353277302
 20
7.9892692512
 30
0.0
 10
12.4344575028
 20
8.0002028275
 30
0.0
 10
12.4334001183
 20
8.0107386411
 30
0.0
 10
12.4321594582
 20
8.0208388579
 30
0.0
 10
12.4307400954
 20
8.0304672671
 30
0.0
 10
12.4291472211
 20
8.039589286
 30
0.0
 10
12.4276584772
 20
8.0468479603
 30
0.0
 10
12.426379267
 20
8.0523734127
 30
0.0
 10
12.4253947746
 20
8.0563079553
 30
0.0
 10
12.4243715034
 20
8.0600925142
 30
0.0
 10
12.4233103891
 20
8.0637237075
 30
0.0
 10
12.4222123784
 20
8.067198286
 30
0.0
 10
12.4210784574
 20
8.0705131472
 30
0.0
 10
12.4199096626
 20
8.0736653419
 30
0.0
 10
12.4187070036
 20
8.0766520637
 30
0.0
 10
12.4174716009
 20
8.0794706749
 30
0.0
 10
12.4162044741
 20
8.082118694
 30
0.0
 10
12.4149068293
 20
8.0845937479
 30
0.0
 10
12.4139990097
 20
8.086167022
 30
0.0
 10
12.4135393555
 20
8.0869228275
 30
0.0
  0
SPLINE
  5
39D
100
AcDbEntity
  8
0
100
AcDbSpline
 62
7
  6
CONTINUOUS
 70
0
 71
3
 72
55
 73
51
 74
0
 42
0.0000001
 43
0.0000001
 44
0.0000000001
 40
0.0
 40
0.0
 40
0.0
 40
0.0
 40
0.045211162
 40
0.0910030644
 40
0.1371917269
 40
0.1835902005
 40
0.2300109467
 40
0.2762661423
 40
0.3221688651
 40
0.3675339951
 40
0.4121792041
 40
0.4559259321
 40
0.4986003863
 40
0.5400345638
 40
0.580067315
 40
0.618545467
 40
0.6553250365
 40
0.6902725846
 40
0.7070214501
 40
0.723267876
 40
0.7389989698
 40
0.7542027338
 40
0.768868409
 40
0.7829863417
 40
0.7965483166
 40
0.8095475488
 40
0.8219789609
 40
0.8338393781
 40
0.8451277516
 40
0.8558456112
 40
0.865997302
 40
0.8755907316
 40
0.8846377541
 40
0.8931552338
 40
0.9011657535
 40
0.9086989676
 40
0.9157927002
 40
0.9224943372
 40
0.9288618476
 40
0.9349642641
 40
0.9408811393
 40
0.94670044
 40
0.9525150069
 40
0.9584179242
 40
0.964497831
 40
0.9708352625
 40
0.9775003418
 40
0.9845521726
 40
0.9920391383
 40
1.0
 40
1.0
 40
1.0
 40
1.0
 10
12.5213580981
 20
7.9550533018
 30
0.0
 10
12.5213580981
 20
7.9490834785
 30
0.0
 10
12.5212516296
 20
7.9370669074
 30
0.0
 10
12.5207821587
 20
7.9189569547
 30
0.0
 10
12.5200036872
 20
7.9007006942
 30
0.0
 10
12.5189195379
 20
7.8823768808
 30
0.0
 10
12.5175343873
 20
7.8640645465
 30
0.0
 10
12.515854209
 20
7.8458426509
 30
0.0
 10
12.5138862678
 20
7.8277897706
 30
0.0
 10
12.5116390799
 20
7.8099837437
 30
0.0
 10
12.50912238
 20
7.7925013347
 30
0.0
 10
12.506347079
 20
7.7754178986
 30
0.0
 10
12.5033252187
 20
7.7588070513
 30
0.0
 10
12.5000699213
 20
7.742740341
 30
0.0
 10
12.4965953324
 20
7.7272869465
 30
0.0
 10
12.4929165702
 20
7.7125133056
 30
0.0
 10
12.4890496285
 20
7.6984830223
 30
0.0
 10
12.4856378606
 20
7.6873077529
 30
0.0
 10
12.4828195437
 20
7.6787901979
 30
0.0
 10
12.4806992974
 20
7.6727152753
 30
0.0
 10
12.4785449047
 20
7.6668693241
 30
0.0
 10
12.4763586332
 20
7.6612586259
 30
0.0
 10
12.4741428896
 20
7.6558891977
 30
0.0
 10
12.4719000305
 20
7.6507668021
 30
0.0
 10
12.4696325008
 20
7.6458969154
 30
0.0
 10
12.467342724
 20
7.6412847425
 30
0.0
 10
12.4650331612
 20
7.6369351952
 30
0.0
 10
12.462706288
 20
7.6328528871
 30
0.0
 10
12.4603645526
 20
7.6290421427
 30
0.0
 10
12.4580104522
 20
7.6255069544
 30
0.0
 10
12.4556463854
 20
7.6222510418
 30
0.0
 10
12.4532748129
 20
7.6192777601
 30
0.0
 10
12.4508980308
 20
7.6165902243
 30
0.0
 10
12.4485183685
 20
7.6141911842
 30
0.0
 10
12.4461379491
 20
7.612083211
 30
0.0
 10
12.4437588698
 20
7.6102685995
 30
0.0
 10
12.4413830607
 20
7.6087495887
 30
0.0
 10
12.4390124624
 20
7.6075283638
 30
0.0
 10
12.4366491334
 20
7.6066071816
 30
0.0
 10
12.4342955121
 20
7.6059883837
 30
0.0
 10
12.4319547114
 20
7.6056740489
 30
0.0
 10
12.4296305791
 20
7.605665771
 30
0.0
 10
12.4273274692
 20
7.6059638706
 30
0.0
 10
12.4250496929
 20
7.6065675631
 30
0.0
 10
12.4228009135
 20
7.6074747954
 30
0.0
 10
12.4205840232
 20
7.6086831441
 30
0.0
 10
12.4184011503
 20
7.6101899014
 30
0.0
 10
12.4162540539
 20
7.6119926088
 30
0.0
 10
12.4141444225
 20
7.6140886624
 30
0.0
 10
12.4128065898
 20
7.6156309814
 30
0.0
 10
12.4121433332
 20
7.6164464959
 30
0.0
  0
SPLINE
  5
39E
100
AcDbEntity
  8
0
100
AcDbSpline
 62
7
  6
CONTINUOUS
 70
0
 71
3
 72
19
 73
15
 74
0
 42
0.0000001
 43
0.0000001
 44
0.0000000001
 40
0.0
 40
0.0
 40
0.0
 40
0.0
 40
0.1496627649
 40
0.2896711955
 40
0.4209836499
 40
0.5448409398
 40
0.6044657355
 40
0.6628177373
 40
0.7201285014
 40
0.7766439894
 40
0.8326215323
 40
0.8883268014
 40
0.9440296577
 40
1.0
 40
1.0
 40
1.0
 40
1.0
 10
10.3814618166
 20
10.2629621583
 30
0.0
 10
10.3803446432
 20
10.2618830516
 30
0.0
 10
10.378256277
 20
10.2597154349
 30
0.0
 10
10.3754999244
 20
10.2563179467
 30
0.0
 10
10.3732336022
 20
10.2528912485
 30
0.0
 10
10.3717386859
 20
10.2499770236
 30
0.0
 10
10.3708059561
 20
10.2476453763
 30
0.0
 10
10.3702400148
 20
10.2459150506
 30
0.0
 10
10.3697992725
 20
10.2441819288
 30
0.0
 10
10.3694839155
 20
10.2424466348
 30
0.0
 10
10.3692941807
 20
10.2407098793
 30
0.0
 10
10.3692301845
 20
10.2389723568
 30
0.0
 10
10.3692919161
 20
10.2372349161
 30
0.0
 10
10.3694164285
 20
10.2360814786
 30
0.0
 10
10.3694991264
 20
10.2355065212
 30
0.0
  0
SPLINE
  5
39F
100
AcDbEntity
  8
0
100
AcDbSpline
 62
7
  6
CONTINUOUS
 70
0
 71
3
 72
42
 73
38
 74
0
 42
0.0000001
 43
0.0000001
 44
0.0000000001
 40
0.0
 40
0.0
 40
0.0
 40
0.0
 40
0.0311444347
 40
0.0467772112
 40
0.0624471461
 40
0.093891844
 40
0.1254739796
 40
0.1571813629
 40
0.1889992234
 40
0.2209106216
 40
0.2528967716
 40
0.2849374315
 40
0.3170113014
 40
0.34909644
 40
0.3811706886
 40
0.4132120984
 40
0.4451993552
 40
0.4771121951
 40
0.5089318057
 40
0.5406412074
 40
0.572225607
 40
0.6036727182
 40
0.6349730419
 40
0.6661200987
 40
0.6971106068
 40
0.7279445994
 40
0.7586254742
 40
0.7891599701
 40
0.8195580671
 40
0.8498328085
 40
0.864931571
 40
0.8800056544
 40
0.910083706
 40
0.9400929707
 40
0.9550814956
 40
0.9700611828
 40
1.0
 40
1.0
 40
1.0
 40
1.0
 10
12.0779979387
 20
9.6801572029
 30
0.0
 10
12.0746839648
 20
9.6803870277
 30
0.0
 10
12.0697167491
 20
9.6809140195
 30
0.0
 10
12.063139714
 20
9.6819730577
 30
0.0
 10
12.0565731204
 20
9.6832732316
 30
0.0
 10
12.0484306579
 20
9.6853438774
 30
0.0
 10
12.0388303746
 20
9.6885221549
 30
0.0
 10
12.0294392545
 20
9.6923800421
 30
0.0
 10
12.0203076519
 20
9.6968968487
 30
0.0
 10
12.011484143
 20
9.7020484502
 30
0.0
 10
12.0030157636
 20
9.7078073371
 30
0.0
 10
11.9949476284
 20
9.7141427808
 30
0.0
 10
11.9873227293
 20
9.7210209915
 30
0.0
 10
11.9801816994
 20
9.7284052978
 30
0.0
 10
11.9735626011
 20
9.7362563405
 30
0.0
 10
11.9675007246
 20
9.7445322805
 30
0.0
 10
11.9620284017
 20
9.7531890188
 30
0.0
 10
11.9571748347
 20
9.7621804296
 30
0.0
 10
11.9529659417
 20
9.7714586029
 30
0.0
 10
11.9494242187
 20
9.7809740967
 30
0.0
 10
11.9465686197
 20
9.7906761968
 30
0.0
 10
11.9444144551
 20
9.8005131841
 30
0.0
 10
11.942973308
 20
9.8104326059
 30
0.0
 10
11.9422529703
 20
9.8203815526
 30
0.0
 10
11.9422573967
 20
9.8303069341
 30
0.0
 10
11.942986684
 20
9.8401557698
 30
0.0
 10
11.944437046
 20
9.8498754316
 30
0.0
 10
11.9466008992
 20
9.8594140654
 30
0.0
 10
11.9494666305
 20
9.8687203421
 30
0.0
 10
11.9524302706
 20
9.87624857
 30
0.0
 10
11.9551347355
 20
9.882102932
 30
0.0
 10
11.9580533794
 20
9.8878299962
 30
0.0
 10
11.962105741
 20
9.8947571787
 30
0.0
 10
11.9666792986
 20
9.9013408382
 30
0.0
 10
11.9706315225
 20
9.9063732197
 30
0.0
 10
11.9747722767
 20
9.9112413449
 30
0.0
 10
11.9780897534
 20
9.9147070216
 30
0.0
 10
11.9803865844
 20
9.9169255765
 30
0.0
  0
SPLINE
  5
3A0
100
AcDbEntity
  8
0
100
AcDbSpline
 62
7
  6
CONTINUOUS
 70
0
 71
3
 72
14
 73
10
 74
0
 42
0.0000001
 43
0.0000001
 44
0.0000000001
 40
0.0
 40
0.0
 40
0.0
 40
0.0
 40
0.1426701207
 40
0.2795731878
 40
0.5371651323
 40
0.6587201797
 40
0.7760154779
 40
0.8895793406
 40
1.0
 40
1.0
 40
1.0
 40
1.0
 10
10.3871200794
 20
10.2489095016
 30
0.0
 10
10.3864349543
 20
10.2482477215
 30
0.0
 10
10.3851212196
 20
10.2469203617
 30
0.0
 10
10.3827280277
 20
10.2442481244
 30
0.0
 10
10.3806346309
 20
10.241499461
 30
0.0
 10
10.3788901196
 20
10.2386787078
 30
0.0
 10
10.3777914449
 20
10.2365957109
 30
0.0
 10
10.376878122
 20
10.2345059597
 30
0.0
 10
10.3763872237
 20
10.2330913575
 30
0.0
 10
10.3761746574
 20
10.2323854343
 30
0.0
  0
SPLINE
  5
3A1
100
AcDbEntity
  8
0
100
AcDbSpline
 62
7
  6
CONTINUOUS
 70
0
 71
3
 72
21
 73
17
 74
0
 42
0.0000001
 43
0.0000001
 44
0.0000000001
 40
0.0
 40
0.0
 40
0.0
 40
0.0
 40
0.06165322
 40
0.1233294719
 40
0.1850515326
 40
0.2468416528
 40
0.308721334
 40
0.3707110997
 40
0.4328302469
 40
0.4950966389
 40
0.5575265783
 40
0.620134583
 40
0.6829331586
 40
0.745933179
 40
0.8725262751
 40
1.0
 40
1.0
 40
1.0
 40
1.0
 10
9.7607945841
 20
8.674874617
 30
0.0
 10
9.7592178913
 20
8.673351658
 30
0.0
 10
9.7559812868
 20
8.6703894013
 30
0.0
 10
9.7508936368
 20
8.666212475
 30
0.0
 10
9.7455850515
 20
8.6623116508
 30
0.0
 10
9.7400690956
 20
8.6586969238
 30
0.0
 10
9.7343596378
 20
8.6553773233
 30
0.0
 10
9.7284710723
 20
8.6523612248
 30
0.0
 10
9.7224182223
 20
8.6496562388
 30
0.0
 10
9.7162163594
 20
8.6472691349
 30
0.0
 10
9.7098810938
 20
8.6452059067
 30
0.0
 10
9.7034284249
 20
8.643471771
 30
0.0
 10
9.6968744245
 20
8.6420710456
 30
0.0
 10
9.6880101959
 20
8.6406505186
 30
0.0
 10
9.6767540392
 20
8.6397276405
 30
0.0
 10
9.6677047682
 20
8.6399042476
 30
0.0
 10
9.6631832298
 20
8.6402178173
 30
0.0
  0
SPLINE
  5
3A2
100
AcDbEntity
  8
0
100
AcDbSpline
 62
7
  6
CONTINUOUS
 70
0
 71
3
 72
21
 73
17
 74
0
 42
0.0000001
 43
0.0000001
 44
0.0000000001
 40
0.0
 40
0.0
 40
0.0
 40
0.0
 40
0.06165322
 40
0.1233294719
 40
0.1850515326
 40
0.2468416528
 40
0.308721334
 40
0.3707110997
 40
0.4328302469
 40
0.4950966389
 40
0.5575265783
 40
0.620134583
 40
0.6829331586
 40
0.745933179
 40
0.8725262751
 40
1.0
 40
1.0
 40
1.0
 40
1.0
 10
12.1756092929
 20
9.7148140026
 30
0.0
 10
12.1740326001
 20
9.7132910435
 30
0.0
 10
12.1707959956
 20
9.7103287868
 30
0.0
 10
12.1657083456
 20
9.7061518606
 30
0.0
 10
12.1603997603
 20
9.7022510363
 30
0.0
 10
12.1548838044
 20
9.6986363094
 30
0.0
 10
12.1491743466
 20
9.6953167089
 30
0.0
 10
12.1432857811
 20
9.6923006104
 30
0.0
 10
12.1372329311
 20
9.6895956243
 30
0.0
 10
12.1310310682
 20
9.6872085205
 30
0.0
 10
12.1246958026
 20
9.6851452922
 30
0.0
 10
12.1182431337
 20
9.6834111566
 30
0.0
 10
12.1116891333
 20
9.6820104311
 30
0.0
 10
12.1028249047
 20
9.6805899041
 30
0.0
 10
12.091568748
 20
9.679667026
 30
0.0
 10
12.082519477
 20
9.6798436331
 30
0.0
 10
12.0779979387
 20
9.6801572029
 30
0.0
  0
SPLINE
  5
3A3
100
AcDbEntity
  8
0
100
AcDbSpline
 62
7
  6
CONTINUOUS
 70
0
 71
3
 72
83
 73
79
 74
0
 42
0.0000001
 43
0.0000001
 44
0.0000000001
 40
0.0
 40
0.0
 40
0.0
 40
0.0
 40
0.0040142996
 40
0.0081959991
 40
0.0125493765
 40
0.0170780492
 40
0.0217850819
 40
0.0266729152
 40
0.0317432411
 40
0.036997223
 40
0.0424355608
 40
0.0480584958
 40
0.0538659434
 40
0.0598574028
 40
0.0723883694
 40
0.0856421632
 40
0.0996049452
 40
0.1142594201
 40
0.1295852564
 40
0.1455594508
 40
0.1621566257
 40
0.1793492677
 40
0.1971079236
 40
0.2154013703
 40
0.2341967943
 40
0.2534599397
 40
0.2731552414
 40
0.2932459409
 40
0.3136942134
 40
0.3344612946
 40
0.3555075923
 40
0.3767927934
 40
0.4199148982
 40
0.4634956432
 40
0.5071976222
 40
0.5506822167
 40
0.5936129776
 40
0.6147673825
 40
0.6356598951
 40
0.6562505932
 40
0.6765003346
 40
0.6963708815
 40
0.7158250086
 40
0.7348266173
 40
0.7533408593
 40
0.7713342791
 40
0.7887749623
 40
0.8056326759
 40
0.8218790356
 40
0.8374877012
 40
0.8524346214
 40
0.8666982877
 40
0.8802600446
 40
0.8931044839
 40
0.9052199568
 40
0.916599236
 40
0.9220123506
 40
0.927241164
 40
0.9322864622
 40
0.9371494938
 40
0.941832036
 40
0.9463365321
 40
0.9506660528
 40
0.9548244924
 40
0.9588166118
 40
0.9626481289
 40
0.966325923
 40
0.9698580553
 40
0.9732539776
 40
0.9765246247
 40
0.9796824768
 40
0.9827416837
 40
0.9857179836
 40
0.9886286513
 40
0.9914922951
 40
0.9943285357
 40
0.9971576308
 40
1.0
 40
1.0
 40
1.0
 40
1.0
 10
10.3814618166
 20
10.2629621583
 30
0.0
 10
10.382181017
 20
10.2636568525
 30
0.0
 10
10.383682517
 20
10.2650412608
 30
0.0
 10
10.3860680137
 20
10.2670625935
 30
0.0
 10
10.3886306804
 20
10.2690692316
 30
0.0
 10
10.3913690745
 20
10.2710600354
 30
0.0
 10
10.3942817964
 20
10.2730340756
 30
0.0
 10
10.3973674068
 20
10.2749903467
 30
0.0
 10
10.400624322
 20
10.2769279074
 30
0.0
 10
10.4040508775
 20
10.2788457465
 30
0.0
 10
10.4076453158
 20
10.2807428626
 30
0.0
 10
10.411405774
 20
10.2826183141
 30
0.0
 10
10.4153303405
 20
10.2844711152
 30
0.0
 10
10.4208621814
 20
10.286947141
 30
0.0
 10
10.4281788387
 20
10.2899714291
 30
0.0
 10
10.4374526514
 20
10.2934431565
 30
0.0
 10
10.4473280674
 20
10.2968024806
 30
0.0
 10
10.4577846906
 20
10.3000423962
 30
0.0
 10
10.4688010283
 20
10.3031561482
 30
0.0
 10
10.4803543339
 20
10.3061372335
 30
0.0
 10
10.4924207323
 20
10.3089794199
 30
0.0
 10
10.5049752581
 20
10.3116767617
 30
0.0
 10
10.5179919114
 20
10.3142236151
 30
0.0
 10
10.5314437126
 20
10.3166146607
 30
0.0
 10
10.5453027673
 20
10.3188449016
 30
0.0
 10
10.5595403296
 20
10.3209096766
 30
0.0
 10
10.5741268611
 20
10.3228046675
 30
0.0
 10
10.5890320889
 20
10.3245259159
 30
0.0
 10
10.6042250737
 20
10.326069833
 30
0.0
 10
10.6196742676
 20
10.3274331899
 30
0.0
 10
10.6353476234
 20
10.3286131592
 30
0.0
 10
10.65659212
 20
10.3299442658
 30
0.0
 10
10.6834677227
 20
10.3311290871
 30
0.0
 10
10.7159466574
 20
10.3317853937
 30
0.0
 10
10.7485224527
 20
10.331676586
 30
0.0
 10
10.7809246653
 20
10.3308036079
 30
0.0
 10
10.8076874542
 20
10.329438976
 30
0.0
 10
10.8288037048
 20
10.327965188
 30
0.0
 10
10.8443536371
 20
10.326680659
 30
0.0
 10
10.8596611161
 20
10.3252143134
 30
0.0
 10
10.8746943871
 20
10.3235691876
 30
0.0
 10
10.8894222378
 20
10.3217487269
 30
0.0
 10
10.9038141047
 20
10.3197567337
 30
0.0
 10
10.9178401223
 20
10.3175973698
 30
0.0
 10
10.9314711902
 20
10.3152751432
 30
0.0
 10
10.9446790387
 20
10.3127949065
 30
0.0
 10
10.9574362918
 20
10.3101618494
 30
0.0
 10
10.9697165223
 20
10.3073814778
 30
0.0
 10
10.9814943059
 20
10.3044596051
 30
0.0
 10
10.9927452833
 20
10.3014023346
 30
0.0
 10
11.0034462213
 20
10.2982160594
 30
0.0
 10
11.0135750744
 20
10.2949074349
 30
0.0
 10
11.0231110085
 20
10.2914833597
 30
0.0
 10
11.0320345447
 20
10.2879509364
 30
0.0
 10
11.0403273212
 20
10.2843174867
 30
0.0
 10
11.0468022037
 20
10.2811611732
 30
0.0
 10
11.0516453293
 20
10.2785848208
 30
0.0
 10
11.0550487987
 20
10.2766642139
 30
0.0
 10
11.0582823981
 20
10.2747240432
 30
0.0
 10
11.06134448
 20
10.2727652724
 30
0.0
 10
11.0642334619
 20
10.2707888687
 30
0.0
 10
11.0669478955
 20
10.2687958661
 30
0.0
 10
11.0694863725
 20
10.2667872135
 30
0.0
 10
11.0718476076
 20
10.2647639164
 30
0.0
 10
11.0740304026
 20
10.2627269662
 30
0.0
 10
11.0760335949
 20
10.2606772964
 30
0.0
 10
11.0778561751
 20
10.2586159173
 30
0.0
 10
11.079497127
 20
10.2565437486
 30
0.0
 10
11.0809555314
 20
10.2544617521
 30
0.0
 10
11.0822305477
 20
10.2523709053
 30
0.0
 10
11.0833212871
 20
10.2502721506
 30
0.0
 10
11.0842270312
 20
10.2481665479
 30
0.0
 10
11.0849470141
 20
10.2460551641
 30
0.0
 10
11.0854805742
 20
10.2439391765
 30
0.0
 10
11.0858272323
 20
10.2418198879
 30
0.0
 10
11.0859865157
 20
10.2396986027
 30
0.0
 10
11.0859583421
 20
10.2375769725
 30
0.0
 10
11.0858151993
 20
10.2361694028
 30
0.0
 10
11.0857133201
 20
10.2354687634
 30
0.0
  0
SPLINE
  5
3A4
100
AcDbEntity
  8
0
100
AcDbSpline
 62
7
  6
CONTINUOUS
 70
0
 71
3
 72
42
 73
38
 74
0
 42
0.0000001
 43
0.0000001
 44
0.0000000001
 40
0.0
 40
0.0
 40
0.0
 40
0.0
 40
0.0311444347
 40
0.0467772112
 40
0.0624471461
 40
0.093891844
 40
0.1254739796
 40
0.1571813629
 40
0.1889992234
 40
0.2209106216
 40
0.2528967716
 40
0.2849374315
 40
0.3170113014
 40
0.34909644
 40
0.3811706886
 40
0.4132120984
 40
0.4451993552
 40
0.4771121951
 40
0.5089318057
 40
0.5406412074
 40
0.572225607
 40
0.6036727182
 40
0.6349730419
 40
0.6661200987
 40
0.6971106068
 40
0.7279445994
 40
0.7586254742
 40
0.7891599701
 40
0.8195580671
 40
0.8498328085
 40
0.864931571
 40
0.8800056544
 40
0.910083706
 40
0.9400929707
 40
0.9550814956
 40
0.9700611828
 40
1.0
 40
1.0
 40
1.0
 40
1.0
 10
9.6631832298
 20
8.6402178173
 30
0.0
 10
9.659869256
 20
8.6404476422
 30
0.0
 10
9.6549020403
 20
8.640974634
 30
0.0
 10
9.6483250052
 20
8.6420336722
 30
0.0
 10
9.6417584116
 20
8.643333846
 30
0.0
 10
9.6336159491
 20
8.6454044919
 30
0.0
 10
9.6240156658
 20
8.6485827693
 30
0.0
 10
9.6146245457
 20
8.6524406565
 30
0.0
 10
9.6054929431
 20
8.6569574632
 30
0.0
 10
9.5966694342
 20
8.6621090646
 30
0.0
 10
9.5882010548
 20
8.6678679516
 30
0.0
 10
9.5801329196
 20
8.6742033953
 30
0.0
 10
9.5725080205
 20
8.6810816059
 30
0.0
 10
9.5653669906
 20
8.6884659122
 30
0.0
 10
9.5587478923
 20
8.696316955
 30
0.0
 10
9.5526860158
 20
8.7045928949
 30
0.0
 10
9.5472136929
 20
8.7132496332
 30
0.0
 10
9.5423601259
 20
8.7222410441
 30
0.0
 10
9.5381512329
 20
8.7315192174
 30
0.0
 10
9.5346095098
 20
8.7410347111
 30
0.0
 10
9.5317539109
 20
8.7507368113
 30
0.0
 10
9.5295997463
 20
8.7605737986
 30
0.0
 10
9.5281585992
 20
8.7704932203
 30
0.0
 10
9.5274382615
 20
8.7804421671
 30
0.0
 10
9.5274426879
 20
8.7903675485
 30
0.0
 10
9.5281719752
 20
8.8002163843
 30
0.0
 10
9.5296223372
 20
8.8099360461
 30
0.0
 10
9.5317861904
 20
8.8194746799
 30
0.0
 10
9.5346519217
 20
8.8287809566
 30
0.0
 10
9.5376155618
 20
8.8363091845
 30
0.0
 10
9.5403200266
 20
8.8421635465
 30
0.0
 10
9.5432386706
 20
8.8478906106
 30
0.0
 10
9.5472910322
 20
8.8548177931
 30
0.0
 10
9.5518645898
 20
8.8614014526
 30
0.0
 10
9.5558168136
 20
8.8664338341
 30
0.0
 10
9.5599575679
 20
8.8713019593
 30
0.0
 10
9.5632750446
 20
8.874767636
 30
0.0
 10
9.5655718756
 20
8.8769861909
 30
0.0
  0
SPLINE
  5
3A5
100
AcDbEntity
  8
0
100
AcDbSpline
 62
7
  6
CONTINUOUS
 70
0
 71
3
 72
48
 73
44
 74
0
 42
0.0000001
 43
0.0000001
 44
0.0000000001
 40
0.0
 40
0.0
 40
0.0
 40
0.0
 40
0.0063158899
 40
0.0126706797
 40
0.0191025165
 40
0.025648058
 40
0.0323419221
 40
0.0392162652
 40
0.0536140552
 40
0.0611947659
 40
0.0690564915
 40
0.0772175997
 40
0.0856939645
 40
0.0944993396
 40
0.103645447
 40
0.1131421893
 40
0.122997946
 40
0.1332195527
 40
0.1438126331
 40
0.1547816545
 40
0.1661299881
 40
0.1778601838
 40
0.1899738557
 40
0.215353302
 40
0.2422691224
 40
0.2707113841
 40
0.3006623731
 40
0.332097648
 40
0.3649869327
 40
0.3992948208
 40
0.434981328
 40
0.4720023222
 40
0.5103099054
 40
0.5498527799
 40
0.590576537
 40
0.632423903
 40
0.6753349407
 40
0.7192473098
 40
0.7640964278
 40
0.8098157282
 40
0.8563368617
 40
0.9035891153
 40
1.0
 40
1.0
 40
1.0
 40
1.0
 10
12.4829271132
 20
9.4325974526
 30
0.0
 10
12.4837586868
 20
9.4325397864
 30
0.0
 10
12.4854230251
 20
9.432356028
 30
0.0
 10
12.4879008897
 20
9.4318770934
 30
0.0
 10
12.4903621848
 20
9.4311948033
 30
0.0
 10
12.4928054777
 20
9.4303097441
 30
0.0
 10
12.4952298187
 20
9.429222432
 30
0.0
 10
12.4984850378
 20
9.4274774664
 30
0.0
 10
12.5016518789
 20
9.4253413942
 30
0.0
 10
12.5047165554
 20
9.422865988
 30
0.0
 10
12.5070314339
 20
9.4207789401
 30
0.0
 10
12.5093215759
 20
9.4184946438
 30
0.0
 10
12.5115864396
 20
9.4160139417
 30
0.0
 10
12.5138250764
 20
9.4133378848
 30
0.0
 10
12.5160366674
 20
9.4104675659
 30
0.0
 10
12.518220382
 20
9.4074041703
 30
0.0
 10
12.520375332
 20
9.4041489154
 30
0.0
 10
12.522500711
 20
9.4007031444
 30
0.0
 10
12.5245956559
 20
9.397068243
 30
0.0
 10
12.5266593213
 20
9.3932456835
 30
0.0
 10
12.5286909021
 20
9.3892370344
 30
0.0
 10
12.530689559
 20
9.3850439044
 30
0.0
 10
12.5333508626
 20
9.3791170231
 30
0.0
 10
12.5365804919
 20
9.3712509807
 30
0.0
 10
12.5402541424
 20
9.3612462563
 30
0.0
 10
12.5437777724
 20
9.3505507182
 30
0.0
 10
12.5471455679
 20
9.3391818681
 30
0.0
 10
12.5503519694
 20
9.3271581633
 30
0.0
 10
12.5533916574
 20
9.3144992625
 30
0.0
 10
12.5562595777
 20
9.3012258903
 30
0.0
 10
12.5589509516
 20
9.2873598208
 30
0.0
 10
12.561461295
 20
9.2729238343
 30
0.0
 10
12.5637864301
 20
9.2579416761
 30
0.0
 10
12.5659224823
 20
9.2424380066
 30
0.0
 10
12.5678658902
 20
9.2264383553
 30
0.0
 10
12.56961341
 20
9.2099690818
 30
0.0
 10
12.5711621342
 20
9.1930573311
 30
0.0
 10
12.5725094818
 20
9.1757309897
 30
0.0
 10
12.5736532086
 20
9.1580186232
 30
0.0
 10
12.5745913988
 20
9.1399494417
 30
0.0
 10
12.5753224963
 20
9.1215532601
 30
0.0
 10
12.5760241561
 20
9.0964621636
 30
0.0
 10
12.5762276904
 20
9.0775005187
 30
0.0
 10
12.5762276904
 20
9.0647762178
 30
0.0
  0
SPLINE
  5
3A6
100
AcDbEntity
  8
0
100
AcDbSpline
 62
7
  6
CONTINUOUS
 70
0
 71
3
 72
78
 73
74
 74
0
 42
0.0000001
 43
0.0000001
 44
0.0000000001
 40
0.0
 40
0.0
 40
0.0
 40
0.0
 40
0.0039089943
 40
0.0079745074
 40
0.0122004264
 40
0.0165900509
 40
0.0211462103
 40
0.0258712084
 40
0.0307667061
 40
0.0358338493
 40
0.0410734028
 40
0.0464857013
 40
0.0578277861
 40
0.0698572393
 40
0.0825662463
 40
0.0959433832
 40
0.1099740741
 40
0.124641015
 40
0.1399244998
 40
0.1558026687
 40
0.1722516955
 40
0.1892459968
 40
0.2067584014
 40
0.2247602842
 40
0.2432216722
 40
0.2621113828
 40
0.281397143
 40
0.3010456865
 40
0.3210228373
 40
0.3412936219
 40
0.3618223694
 40
0.4035073627
 40
0.4457825436
 40
0.4883463861
 40
0.5308946879
 40
0.5731233913
 40
0.6147313992
 40
0.6352104329
 40
0.6554241671
 40
0.6753370695
 40
0.6949143273
 40
0.7141219375
 40
0.7329268211
 40
0.7512969253
 40
0.7692013124
 40
0.7866102685
 40
0.8034954448
 40
0.8198299904
 40
0.8355886756
 40
0.850748053
 40
0.8652866715
 40
0.8791853023
 40
0.8924271807
 40
0.9049983321
 40
0.9168880102
 40
0.9280892266
 40
0.9334310001
 40
0.9386001116
 40
0.9435970705
 40
0.9484228256
 40
0.9530787143
 40
0.957566623
 40
0.961888985
 40
0.9660488254
 40
0.9700499298
 40
0.9738968243
 40
0.9775949276
 40
0.9811506698
 40
0.9845715221
 40
0.9878661922
 40
0.9941148889
 40
0.9970964139
 40
1.0
 40
1.0
 40
1.0
 40
1.0
 10
10.3871200794
 20
10.2489095016
 30
0.0
 10
10.3877990014
 20
10.2495652899
 30
0.0
 10
10.3892139987
 20
10.2508723863
 30
0.0
 10
10.3914575378
 20
10.2527829109
 30
0.0
 10
10.3938619582
 20
10.2546801963
 30
0.0
 10
10.3964260098
 20
10.2565632272
 30
0.0
 10
10.3991484696
 20
10.2584311924
 30
0.0
 10
10.4020280988
 20
10.2602832174
 30
0.0
 10
10.4050635421
 20
10.2621184712
 30
0.0
 10
10.4082533576
 20
10.2639360906
 30
0.0
 10
10.4115960497
 20
10.265735195
 30
0.0
 10
10.4163288157
 20
10.2681459061
 30
0.0
 10
10.422622682
 20
10.2710999717
 30
0.0
 10
10.4306444139
 20
10.2745044481
 30
0.0
 10
10.4392339551
 20
10.2778152666
 30
0.0
 10
10.4483749737
 20
10.281026081
 30
0.0
 10
10.4580502046
 20
10.2841307448
 30
0.0
 10
10.4682412609
 20
10.2871232883
 30
0.0
 10
10.4789287553
 20
10.2899979476
 30
0.0
 10
10.4900923185
 20
10.2927491743
 30
0.0
 10
10.5017106415
 20
10.2953716711
 30
0.0
 10
10.5137615268
 20
10.2978603843
 30
0.0
 10
10.5262219407
 20
10.3002105147
 30
0.0
 10
10.5390680548
 20
10.3024175247
 30
0.0
 10
10.5522752881
 20
10.3044771666
 30
0.0
 10
10.5658183603
 20
10.3063854746
 30
0.0
 10
10.5796713462
 20
10.3081387713
 30
0.0
 10
10.5938077248
 20
10.3097336741
 30
0.0
 10
10.6082004175
 20
10.3111671115
 30
0.0
 10
10.6228218799
 20
10.3124363451
 30
0.0
 10
10.6426853722
 20
10.3139138526
 30
0.0
 10
10.6678797259
 20
10.3153286618
 30
0.0
 10
10.6984181941
 20
10.3163333083
 30
0.0
 10
10.7291801096
 20
10.3166453525
 30
0.0
 10
10.7599300037
 20
10.3162624383
 30
0.0
 10
10.7904324987
 20
10.315187474
 30
0.0
 10
10.8155816399
 20
10.3137144135
 30
0.0
 10
10.8353971501
 20
10.3121907892
 30
0.0
 10
10.8499741896
 20
10.3108878309
 30
0.0
 10
10.8643167962
 20
10.3094212068
 30
0.0
 10
10.8783975238
 20
10.3077937219
 30
0.0
 10
10.8921893998
 20
10.3060085091
 30
0.0
 10
10.905666019
 20
10.3040690067
 30
0.0
 10
10.9188015859
 20
10.3019789567
 30
0.0
 10
10.9315709613
 20
10.2997423865
 30
0.0
 10
10.9439497116
 20
10.2973636004
 30
0.0
 10
10.9559141635
 20
10.2948471843
 30
0.0
 10
10.967441453
 20
10.2921979956
 30
0.0
 10
10.9785095637
 20
10.2894211424
 30
0.0
 10
10.9890973722
 20
10.2865219714
 30
0.0
 10
10.9991847003
 20
10.2835060691
 30
0.0
 10
11.0087523683
 20
10.2803792483
 30
0.0
 10
11.0177822076
 20
10.2771475221
 30
0.0
 10
11.0262571766
 20
10.2738170722
 30
0.0
 10
11.0341611664
 20
10.2703942712
 30
0.0
 10
11.040354164
 20
10.2674252345
 30
0.0
 10
11.0450045509
 20
10.2650031782
 30
0.0
 10
11.0482850331
 20
10.2631964121
 30
0.0
 10
11.0514120161
 20
10.2613714905
 30
0.0
 10
11.0543840428
 20
10.2595292873
 30
0.0
 10
11.0571996899
 20
10.257670634
 30
0.0
 10
11.0598576386
 20
10.2557964137
 30
0.0
 10
11.0623566456
 20
10.2539075044
 30
0.0
 10
11.0646955077
 20
10.2520047347
 30
0.0
 10
11.0668731498
 20
10.2500890053
 30
0.0
 10
11.0688885234
 20
10.2481611581
 30
0.0
 10
11.0707406618
 20
10.2462220141
 30
0.0
 10
11.0724286619
 20
10.2442725222
 30
0.0
 10
11.073951769
 20
10.2423132366
 30
0.0
 10
11.0757298449
 20
10.2397353927
 30
0.0
 10
11.0772201802
 20
10.237091477
 30
0.0
 10
11.0783788562
 20
10.2343980623
 30
0.0
 10
11.0788423821
 20
10.2330528793
 30
0.0
 10
11.0790444382
 20
10.2323814811
 30
0.0
  0
SPLINE
  5
3A7
100
AcDbEntity
  8
0
100
AcDbSpline
 62
7
  6
CONTINUOUS
 70
0
 71
3
 72
54
 73
50
 74
0
 42
0.0000001
 43
0.0000001
 44
0.0000000001
 40
0.0
 40
0.0
 40
0.0
 40
0.0
 40
0.0417740106
 40
0.0840368515
 40
0.1266583734
 40
0.1695063147
 40
0.2124478814
 40
0.2553497884
 40
0.2980789417
 40
0.340502919
 40
0.3824905067
 40
0.4239122259
 40
0.4646408671
 40
0.5045520317
 40
0.5435246831
 40
0.5814417135
 40
0.6181905344
 40
0.6536637003
 40
0.6877595809
 40
0.704261357
 40
0.7203837372
 40
0.736116
 40
0.7514479644
 40
0.7663699709
 40
0.7808730136
 40
0.7949486603
 40
0.8085892482
 40
0.8217877894
 40
0.8345381805
 40
0.8468351604
 40
0.8586744859
 40
0.8700529987
 40
0.8809687469
 40
0.891421194
 40
0.9014113064
 40
0.910941912
 40
0.9200178165
 40
0.9286462958
 40
0.9368373422
 40
0.9446042644
 40
0.9519641574
 40
0.9589385856
 40
0.9655542762
 40
0.9718437871
 40
0.9778461898
 40
0.9836073681
 40
0.9891800557
 40
0.994623083
 40
1.0
 40
1.0
 40
1.0
 40
1.0
 10
12.5762276904
 20
9.0647762178
 30
0.0
 10
12.5762276904
 20
9.0555975274
 30
0.0
 10
12.5760844939
 20
9.037132451
 30
0.0
 10
12.5754514433
 20
9.0093089903
 30
0.0
 10
12.5744007396
 20
8.9812619919
 30
0.0
 10
12.5729358219
 20
8.9530842764
 30
0.0
 10
12.5710615344
 20
8.9248690858
 30
0.0
 10
12.5687840711
 20
8.8967097579
 30
0.0
 10
12.5661109767
 20
8.8686994569
 30
0.0
 10
12.5630511123
 20
8.8409308471
 30
0.0
 10
12.5596146297
 20
8.8134957887
 30
0.0
 10
12.5558129372
 20
8.7864850308
 30
0.0
 10
12.5516586625
 20
8.7599879077
 30
0.0
 10
12.5471656126
 20
8.7340920407
 30
0.0
 10
12.5423487288
 20
8.7088830396
 30
0.0
 10
12.5372240363
 20
8.6844442288
 30
0.0
 10
12.5318085987
 20
8.6608563113
 30
0.0
 10
12.5261204389
 20
8.63819728
 30
0.0
 10
12.5211159443
 20
8.6199578674
 30
0.0
 10
12.5169827797
 20
8.6058923533
 30
0.0
 10
12.5138604345
 20
8.5957361849
 30
0.0
 10
12.5106844573
 20
8.5858663254
 30
0.0
 10
12.5074574767
 20
8.5762909174
 30
0.0
 10
12.5041821497
 20
8.5670178735
 30
0.0
 10
12.5008612228
 20
8.5580548425
 30
0.0
 10
12.4974974108
 20
8.5494092248
 30
0.0
 10
12.4940935412
 20
8.5410881401
 30
0.0
 10
12.4906523941
 20
8.5330984501
 30
0.0
 10
12.4871768498
 20
8.5254467214
 30
0.0
 10
12.483669757
 20
8.5181392474
 30
0.0
 10
12.4801340213
 20
8.5111820206
 30
0.0
 10
12.4765725552
 20
8.5045807361
 30
0.0
 10
12.4729882648
 20
8.4983407928
 30
0.0
 10
12.4693841081
 20
8.4924672603
 30
0.0
 10
12.4657629693
 20
8.486964925
 30
0.0
 10
12.462127813
 20
8.4818382116
 30
0.0
 10
12.4584814782
 20
8.4770912777
 30
0.0
 10
12.454826872
 20
8.4727279043
 30
0.0
 10
12.4511667545
 20
8.4687516186
 30
0.0
 10
12.447503892
 20
8.4651656022
 30
0.0
 10
12.4438409175
 20
8.4619728005
 30
0.0
 10
12.4401803894
 20
8.4591759251
 30
0.0
 10
12.4365247993
 20
8.4567774951
 30
0.0
 10
12.4328765682
 20
8.4547799989
 30
0.0
 10
12.4292382315
 20
8.4531857865
 30
0.0
 10
12.4256125456
 20
8.4519973291
 30
0.0
 10
12.4220025421
 20
8.4512168261
 30
0.0
 10
12.4184125724
 20
8.4508462665
 30
0.0
 10
12.4160291366
 20
8.4508734406
 30
0.0
 10
12.4148505374
 20
8.4509551715
 30
0.0
  0
SPLINE
  5
3A8
100
AcDbEntity
  8
0
100
AcDbSpline
 62
7
  6
CONTINUOUS
 70
0
 71
3
 72
28
 73
24
 74
0
 42
0.0000001
 43
0.0000001
 44
0.0000000001
 40
0.0
 40
0.0
 40
0.0
 40
0.0
 40
0.0749525414
 40
0.1455492598
 40
0.2121319828
 40
0.2751267504
 40
0.3350537751
 40
0.3925311517
 40
0.4205831712
 40
0.4482964194
 40
0.4757713564
 40
0.5031112904
 40
0.5304212607
 40
0.5578066529
 40
0.585371914
 40
0.6132193169
 40
0.6414476915
 40
0.6701515776
 40
0.7293157133
 40
0.7913812221
 40
0.8568968201
 40
0.9263175734
 40
1.0
 40
1.0
 40
1.0
 40
1.0
 10
10.3364553604
 20
10.2568191241
 30
0.0
 10
10.3352829707
 20
10.2579101514
 30
0.0
 10
10.3330713165
 20
10.2601005465
 30
0.0
 10
10.3300871065
 20
10.2635178786
 30
0.0
 10
10.3275423705
 20
10.2669622565
 30
0.0
 10
10.3254408665
 20
10.270430796
 30
0.0
 10
10.3237861939
 20
10.2739200355
 30
0.0
 10
10.3227744066
 20
10.2768669166
 30
0.0
 10
10.3221998734
 20
10.2792187134
 30
0.0
 10
10.3218851448
 20
10.2809704578
 30
0.0
 10
10.3216833923
 20
10.2827234463
 30
0.0
 10
10.3215947067
 20
10.2844771797
 30
0.0
 10
10.3216191346
 20
10.2862310711
 30
0.0
 10
10.3217566307
 20
10.2879845544
 30
0.0
 10
10.3220071544
 20
10.2897370674
 30
0.0
 10
10.3223706066
 20
10.2914880376
 30
0.0
 10
10.3228468246
 20
10.2932369804
 30
0.0
 10
10.323639667
 20
10.2955887955
 30
0.0
 10
10.3249251704
 20
10.2985310046
 30
0.0
 10
10.3269000008
 20
10.3020055288
 30
0.0
 10
10.3293192002
 20
10.3054571883
 30
0.0
 10
10.332178898
 20
10.3088824002
 30
0.0
 10
10.3343106823
 20
10.3110785395
 30
0.0
 10
10.3354430571
 20
10.3121723296
 30
0.0
  0
SPLINE
  5
3A9
100
AcDbEntity
  8
0
100
AcDbSpline
 62
7
  6
CONTINUOUS
 70
0
 71
3
 72
96
 73
92
 74
0
 42
0.0000001
 43
0.0000001
 44
0.0000000001
 40
0.0
 40
0.0
 40
0.0
 40
0.0
 40
0.0041939212
 40
0.0085762269
 40
0.0131520052
 40
0.0179255503
 40
0.0229003895
 40
0.0280791136
 40
0.0334634798
 40
0.039054619
 40
0.0448530484
 40
0.0508588136
 40
0.0570714162
 40
0.0634899855
 40
0.0701132151
 40
0.0769394762
 40
0.0911924427
 40
0.1062302232
 40
0.1220294549
 40
0.1385631627
 40
0.1558011854
 40
0.173710526
 40
0.1922556446
 40
0.2113987132
 40
0.2310998404
 40
0.2513172756
 40
0.2720075971
 40
0.2931258893
 40
0.3146259101
 40
0.3364602548
 40
0.358580515
 40
0.380937433
 40
0.4034810543
 40
0.4261608786
 40
0.4489260088
 40
0.4717253002
 40
0.4945075089
 40
0.5172214402
 40
0.5398160978
 40
0.5622408322
 40
0.5844454903
 40
0.6063805658
 40
0.6279973504
 40
0.649248088
 40
0.6700861315
 40
0.6904661036
 40
0.7103440641
 40
0.7296776851
 40
0.7484264339
 40
0.7665517712
 40
0.7840173684
 40
0.8007893512
 40
0.8168365781
 40
0.8321309695
 40
0.8466479033
 40
0.8536084389
 40
0.8603672363
 40
0.8669224108
 40
0.8732724521
 40
0.8794161948
 40
0.8853528766
 40
0.891082198
 40
0.8966043145
 40
0.9019199826
 40
0.9070305141
 40
0.9119379754
 40
0.9166451634
 40
0.9211558052
 40
0.925474617
 40
0.9296074706
 40
0.9335615598
 40
0.9373455271
 40
0.9409697129
 40
0.9444462457
 40
0.9477892864
 40
0.9510150553
 40
0.9541419228
 40
0.9571902809
 40
0.9601823275
 40
0.9631416685
 40
0.9660927703
 40
0.969060322
 40
0.9720685748
 40
0.9751407156
 40
0.9782983924
 40
0.981561316
 40
0.9849471178
 40
0.9884713701
 40
0.9921476423
 40
0.9959874147
 40
1.0
 40
1.0
 40
1.0
 40
1.0
 10
10.3354430571
 20
10.3121723296
 30
0.0
 10
10.3363218753
 20
10.3130212028
 30
0.0
 10
10.3381626868
 20
10.3147122889
 30
0.0
 10
10.3410985699
 20
10.3171761659
 30
0.0
 10
10.3442668744
 20
10.319620459
 30
0.0
 10
10.3476655417
 20
10.3220436556
 30
0.0
 10
10.3512926183
 20
10.3244444015
 30
0.0
 10
10.3551459789
 20
10.3268213273
 30
0.0
 10
10.3592233439
 20
10.3291730503
 30
0.0
 10
10.3635222993
 20
10.3314981401
 30
0.0
 10
10.3680402729
 20
10.3337952622
 30
0.0
 10
10.3727745936
 20
10.3360630013
 30
0.0
 10
10.3777224241
 20
10.3383000534
 30
0.0
 10
10.3828808195
 20
10.3405050275
 30
0.0
 10
10.3882466922
 20
10.3426766549
 30
0.0
 10
10.395782331
 20
10.3455675629
 30
0.0
 10
10.4057033886
 20
10.3490794682
 30
0.0
 10
10.4182169867
 20
10.353082111
 30
0.0
 10
10.4314746255
 20
10.3569218291
 30
0.0
 10
10.4454444952
 20
10.3605893182
 30
0.0
 10
10.4600931946
 20
10.3640756796
 30
0.0
 10
10.47538559
 20
10.367372452
 30
0.0
 10
10.4912849786
 20
10.3704716339
 30
0.0
 10
10.5077531655
 20
10.3733657047
 30
0.0
 10
10.5247505665
 20
10.3760476431
 30
0.0
 10
10.5422363067
 20
10.3785109443
 30
0.0
 10
10.5601683229
 20
10.3807496352
 30
0.0
 10
10.5785034662
 20
10.3827582888
 30
0.0
 10
10.5971976087
 20
10.3845320376
 30
0.0
 10
10.6162057515
 20
10.3860665849
 30
0.0
 10
10.6354821347
 20
10.3873582137
 30
0.0
 10
10.6549803488
 20
10.3884037961
 30
0.0
 10
10.6746534476
 20
10.3892008002
 30
0.0
 10
10.6944540614
 20
10.3897472962
 30
0.0
 10
10.714334512
 20
10.3900419606
 30
0.0
 10
10.7342469277
 20
10.3900840797
 30
0.0
 10
10.7541433592
 20
10.389873551
 30
0.0
 10
10.7739758958
 20
10.3894108842
 30
0.0
 10
10.7936967818
 20
10.3886972001
 30
0.0
 10
10.8132585317
 20
10.387734227
 30
0.0
 10
10.8326140453
 20
10.3865242969
 30
0.0
 10
10.8517167222
 20
10.38507034
 30
0.0
 10
10.8705205738
 20
10.383375878
 30
0.0
 10
10.8889803356
 20
10.3814450156
 30
0.0
 10
10.9070515773
 20
10.3792824314
 30
0.0
 10
10.9246908111
 20
10.3768933662
 30
0.0
 10
10.9418555994
 20
10.3742836121
 30
0.0
 10
10.9585046594
 20
10.3714594987
 30
0.0
 10
10.974597966
 20
10.3684278771
 30
0.0
 10
10.9900968501
 20
10.3651961036
 30
0.0
 10
11.0049641026
 20
10.3617720219
 30
0.0
 10
11.0191640525
 20
10.3581639421
 30
0.0
 10
11.0326627264
 20
10.354380622
 30
0.0
 10
11.0454277199
 20
10.3504312279
 30
0.0
 10
11.0555657982
 20
10.3469628073
 30
0.0
 10
11.0632801836
 20
10.3441052374
 30
0.0
 10
11.0687826023
 20
10.3419566023
 30
0.0
 10
11.0740796653
 20
10.3397737203
 30
0.0
 10
11.0791682131
 20
10.3375579033
 30
0.0
 10
11.0840452012
 20
10.3353104795
 30
0.0
 10
11.0887077145
 20
10.3330327834
 30
0.0
 10
11.093152983
 20
10.3307262012
 30
0.0
 10
11.0973783473
 20
10.3283920653
 30
0.0
 10
11.1013813182
 20
10.3260318082
 30
0.0
 10
11.1051595013
 20
10.3236467653
 30
0.0
 10
11.1087106872
 20
10.3212383825
 30
0.0
 10
11.1120327593
 20
10.3188080103
 30
0.0
 10
11.1151237739
 20
10.3163570679
 30
0.0
 10
11.1179819012
 20
10.3138869255
 30
0.0
 10
11.1206054366
 20
10.3113989435
 30
0.0
 10
11.1229928283
 20
10.3088945009
 30
0.0
 10
11.1251425688
 20
10.3063748908
 30
0.0
 10
11.1270533403
 20
10.3038414878
 30
0.0
 10
11.1287237813
 20
10.3012955573
 30
0.0
 10
11.1301527256
 20
10.2987384918
 30
0.0
 10
11.1313389317
 20
10.2961716478
 30
0.0
 10
11.1322813274
 20
10.2935965487
 30
0.0
 10
11.1329788737
 20
10.2910148234
 30
0.0
 10
11.1334307014
 20
10.2884282902
 30
0.0
 10
11.1336362347
 20
10.2858389379
 30
0.0
 10
11.1335951032
 20
10.2832488714
 30
0.0
 10
11.1333074614
 20
10.2806602268
 30
0.0
 10
11.1327736207
 20
10.2780750897
 30
0.0
 10
11.1319943809
 20
10.2754953703
 30
0.0
 10
11.1309705781
 20
10.2729228524
 30
0.0
 10
11.1297033417
 20
10.2703591119
 30
0.0
 10
11.1281937911
 20
10.267805612
 30
0.0
 10
11.1264430974
 20
10.26526371
 30
0.0
 10
11.1244524789
 20
10.2627346924
 30
0.0
 10
11.1222233783
 20
10.2602200529
 30
0.0
 10
11.1206156697
 20
10.2585909049
 30
0.0
 10
11.1197748496
 20
10.257778735
 30
0.0
  0
SPLINE
  5
3AA
100
AcDbEntity
  8
0
100
AcDbSpline
 62
7
  6
CONTINUOUS
 70
0
 71
3
 72
54
 73
50
 74
0
 42
0.0000001
 43
0.0000001
 44
0.0000000001
 40
0.0
 40
0.0
 40
0.0
 40
0.0
 40
0.009582678
 40
0.0187373983
 40
0.0274873379
 40
0.0358602314
 40
0.0515988006
 40
0.0590567143
 40
0.0662995315
 40
0.0733807997
 40
0.0803581248
 40
0.0872919769
 40
0.0942440579
 40
0.1012755603
 40
0.1084454294
 40
0.1158090052
 40
0.1234169479
 40
0.1313146346
 40
0.1395420856
 40
0.1481338581
 40
0.1571196065
 40
0.1665243261
 40
0.1763688652
 40
0.1866705349
 40
0.1974432638
 40
0.2086983361
 40
0.2204444782
 40
0.2326882631
 40
0.2454344869
 40
0.2586861002
 40
0.2724447659
 40
0.2867107113
 40
0.301483012
 40
0.3325365352
 40
0.3655804053
 40
0.4005750959
 40
0.4374702496
 40
0.4762061552
 40
0.5167149036
 40
0.5589212912
 40
0.6027435898
 40
0.6480942306
 40
0.6948803933
 40
0.7430044767
 40
0.7923645548
 40
0.8428550464
 40
0.894365905
 40
0.9467869177
 40
1.0
 40
1.0
 40
1.0
 40
1.0
 10
12.4495726821
 20
8.156161113
 30
0.0
 10
12.4501486561
 20
8.1566971724
 30
0.0
 10
12.4513000951
 20
8.1577187827
 30
0.0
 10
12.4530666814
 20
8.1591251901
 30
0.0
 10
12.454831685
 20
8.1603689338
 30
0.0
 10
12.4571330229
 20
8.161779714
 30
0.0
 10
12.4594808526
 20
8.1629061991
 30
0.0
 10
12.4618536341
 20
8.1636997357
 30
0.0
 10
12.4635951229
 20
8.1641178566
 30
0.0
 10
12.4653286491
 20
8.1643688509
 30
0.0
 10
12.4670530083
 20
8.1644523055
 30
0.0
 10
12.4687667506
 20
8.1643679895
 30
0.0
 10
12.4704684387
 20
8.1641160032
 30
0.0
 10
12.4721566447
 20
8.1636965731
 30
0.0
 10
12.4738300839
 20
8.1631103086
 30
0.0
 10
12.4754875815
 20
8.1623578482
 30
0.0
 10
12.477128114
 20
8.1614399895
 30
0.0
 10
12.4787507942
 20
8.1603575968
 30
0.0
 10
12.4803547446
 20
8.1591114823
 30
0.0
 10
12.4819392134
 20
8.1577025916
 30
0.0
 10
12.4835033823
 20
8.1561318107
 30
0.0
 10
12.4850464758
 20
8.1544001274
 30
0.0
 10
12.486567719
 20
8.1525085879
 30
0.0
 10
12.4880662671
 20
8.1504582755
 30
0.0
 10
12.4895413585
 20
8.1482504131
 30
0.0
 10
12.4909921389
 20
8.1458862578
 30
0.0
 10
12.4924178089
 20
8.1433671917
 30
0.0
 10
12.4938175668
 20
8.1406946818
 30
0.0
 10
12.4951905709
 20
8.1378702738
 30
0.0
 10
12.4965360677
 20
8.1348956336
 30
0.0
 10
12.497853227
 20
8.1317724938
 30
0.0
 10
12.499141313
 20
8.1285026911
 30
0.0
 10
12.5008474194
 20
8.1238725533
 30
0.0
 10
12.5028942646
 20
8.1177266262
 30
0.0
 10
12.5051837213
 20
8.1099173679
 30
0.0
 10
12.5073401112
 20
8.101574081
 30
0.0
 10
12.5093582668
 20
8.092716485
 30
0.0
 10
12.5112333264
 20
8.0833654103
 30
0.0
 10
12.5129607671
 20
8.0735429597
 30
0.0
 10
12.5145364208
 20
8.0632723825
 30
0.0
 10
12.5159564886
 20
8.0525780291
 30
0.0
 10
12.5172175444
 20
8.0414852761
 30
0.0
 10
12.5183165444
 20
8.0300204623
 30
0.0
 10
12.5192508333
 20
8.0182108248
 30
0.0
 10
12.5200181571
 20
8.0060844159
 30
0.0
 10
12.5206166521
 20
7.9936701177
 30
0.0
 10
12.5210448985
 20
7.9809973218
 30
0.0
 10
12.5213018148
 20
7.9680963425
 30
0.0
 10
12.5213580981
 20
7.9594226223
 30
0.0
 10
12.5213580981
 20
7.9550533018
 30
0.0
  0
SPLINE
  5
3AB
100
AcDbEntity
  8
0
100
AcDbSpline
 62
7
  6
CONTINUOUS
 70
0
 71
3
 72
37
 73
33
 74
0
 42
0.0000001
 43
0.0000001
 44
0.0000000001
 40
0.0
 40
0.0
 40
0.0
 40
0.0
 40
0.0908198883
 40
0.1794470143
 40
0.2228023136
 40
0.2654470419
 40
0.3073295194
 40
0.3483992608
 40
0.3886072699
 40
0.4279060862
 40
0.4662499356
 40
0.5035949165
 40
0.5398990508
 40
0.57512247
 40
0.609227675
 40
0.6421796272
 40
0.6739459727
 40
0.7044974185
 40
0.7338079433
 40
0.7618551286
 40
0.7886207273
 40
0.814091151
 40
0.8382580766
 40
0.8611194107
 40
0.8826803683
 40
0.9029547495
 40
0.9219667815
 40
0.9397534108
 40
0.9563669916
 40
0.9718787437
 40
0.9863827672
 40
1.0
 40
1.0
 40
1.0
 40
1.0
 10
12.5453180614
 20
9.0669198079
 30
0.0
 10
12.5453180614
 20
9.0784145251
 30
0.0
 10
12.5450976244
 20
9.101127084
 30
0.0
 10
12.5442471636
 20
9.1293156772
 30
0.0
 10
12.543219902
 20
9.1513940581
 30
0.0
 10
12.5422870107
 20
9.1675530976
 30
0.0
 10
12.5411873675
 20
9.1834116964
 30
0.0
 10
12.539922444
 20
9.1989485876
 30
0.0
 10
12.5384939681
 20
9.2141429053
 30
0.0
 10
12.5369038655
 20
9.228974252
 30
0.0
 10
12.5351542855
 20
9.2434227222
 30
0.0
 10
12.5332476101
 20
9.257468932
 30
0.0
 10
12.5311864168
 20
9.2710940393
 30
0.0
 10
12.5289734867
 20
9.284279774
 30
0.0
 10
12.5266118303
 20
9.2970084695
 30
0.0
 10
12.5241046454
 20
9.3092630802
 30
0.0
 10
12.5214553102
 20
9.3210272056
 30
0.0
 10
12.5186674213
 20
9.3322851274
 30
0.0
 10
12.515744751
 20
9.343021825
 30
0.0
 10
12.5126912251
 20
9.3532229943
 30
0.0
 10
12.5095109593
 20
9.3628750886
 30
0.0
 10
12.5062082247
 20
9.3719653382
 30
0.0
 10
12.5027874008
 20
9.3804817613
 30
0.0
 10
12.4992529934
 20
9.3884132054
 30
0.0
 10
12.495609604
 20
9.395749374
 30
0.0
 10
12.4918618355
 20
9.4024808183
 30
0.0
 10
12.4880142688
 20
9.4085989443
 30
0.0
 10
12.4840713699
 20
9.4140960332
 30
0.0
 10
12.4800374721
 20
9.4189650444
 30
0.0
 10
12.4759162243
 20
9.4231997017
 30
0.0
 10
12.4717122345
 20
9.4267933774
 30
0.0
 10
12.4687724207
 20
9.4288153798
 30
0.0
 10
12.4672957155
 20
9.4297040442
 30
0.0
  0
SPLINE
  5
3AC
100
AcDbEntity
  8
0
100
AcDbSpline
 62
7
  6
CONTINUOUS
 70
0
 71
3
 72
51
 73
47
 74
0
 42
0.0000001
 43
0.0000001
 44
0.0000000001
 40
0.0
 40
0.0
 40
0.0
 40
0.0
 40
0.0398601651
 40
0.0801629884
 40
0.1208005673
 40
0.1616637852
 40
0.2026427896
 40
0.2436273182
 40
0.2845070946
 40
0.3251721985
 40
0.3655134449
 40
0.4054227612
 40
0.4447935691
 40
0.4835211683
 40
0.5215031266
 40
0.5586396777
 40
0.5948341301
 40
0.6299932921
 40
0.6640279192
 40
0.6968531942
 40
0.728389251
 40
0.7585617627
 40
0.7731154551
 40
0.7873032867
 40
0.8011178232
 40
0.8145521841
 40
0.8275999702
 40
0.8402554136
 40
0.852513317
 40
0.8643692148
 40
0.8758193314
 40
0.8868607581
 40
0.897491439
 40
0.9077103721
 40
0.9175176354
 40
0.926914625
 40
0.9359041392
 40
0.9444906724
 40
0.9526805804
 40
0.9604824541
 40
0.9679073922
 40
0.9749694738
 40
0.9816861509
 40
0.9880788038
 40
0.9941731985
 40
1.0
 40
1.0
 40
1.0
 40
1.0
 10
12.5453180614
 20
9.0669198079
 30
0.0
 10
12.5453180614
 20
9.058376659
 30
0.0
 10
12.545194028
 20
9.041195253
 30
0.0
 10
12.5446450208
 20
9.0153093491
 30
0.0
 10
12.5437334124
 20
8.9892185267
 30
0.0
 10
12.5424618004
 20
8.9629977034
 30
0.0
 10
12.5408338232
 20
8.9367220901
 30
0.0
 10
12.5388541475
 20
8.9104670745
 30
0.0
 10
12.536528456
 20
8.8843079805
 30
0.0
 10
12.5338634306
 20
8.8583198563
 30
0.0
 10
12.5308667334
 20
8.8325772563
 30
0.0
 10
12.5275469849
 20
8.8071540266
 30
0.0
 10
12.5239137397
 20
8.782123091
 30
0.0
 10
12.519977459
 20
8.7575562402
 30
0.0
 10
12.515749482
 20
8.7335239237
 30
0.0
 10
12.5112419929
 20
8.7100950442
 30
0.0
 10
12.5064679874
 20
8.6873367579
 30
0.0
 10
12.5014412357
 20
8.6653142725
 30
0.0
 10
12.4961762425
 20
8.64409067
 30
0.0
 10
12.4906882109
 20
8.6237266611
 30
0.0
 10
12.4849929774
 20
8.6042806001
 30
0.0
 10
12.4800302586
 20
8.5887051253
 30
0.0
 10
12.4759613651
 20
8.5767513983
 30
0.0
 10
12.4729049048
 20
8.5681574799
 30
0.0
 10
12.4698091382
 20
8.5598331211
 30
0.0
 10
12.4666762993
 20
8.5517842661
 30
0.0
 10
12.4635086136
 20
8.544016679
 30
0.0
 10
12.4603083845
 20
8.5365359045
 30
0.0
 10
12.4570778786
 20
8.5293472917
 30
0.0
 10
12.4538194419
 20
8.5224559614
 30
0.0
 10
12.4505353777
 20
8.5158668319
 30
0.0
 10
12.4472280636
 20
8.509584582
 30
0.0
 10
12.4438998285
 20
8.5036136831
 30
0.0
 10
12.4405530686
 20
8.4979583554
 30
0.0
 10
12.4371901238
 20
8.4926226082
 30
0.0
 10
12.4338133906
 20
8.4876101889
 30
0.0
 10
12.4304251991
 20
8.4829246333
 30
0.0
 10
12.4270279206
 20
8.4785692076
 30
0.0
 10
12.4236238455
 20
8.4745469718
 30
0.0
 10
12.4202152833
 20
8.4708607168
 30
0.0
 10
12.4168044475
 20
8.4675130487
 30
0.0
 10
12.4133935365
 20
8.4645063199
 30
0.0
 10
12.4099846796
 20
8.4618427613
 30
0.0
 10
12.4065798583
 20
8.4595243522
 30
0.0
 10
12.4031814622
 20
8.4575532163
 30
0.0
 10
12.4008734871
 20
8.4564489447
 30
0.0
 10
12.3997242678
 20
8.4559601575
 30
0.0
  0
SPLINE
  5
3AD
100
AcDbEntity
  8
0
100
AcDbSpline
 62
7
  6
CONTINUOUS
 70
0
 71
3
 72
52
 73
48
 74
0
 42
0.0000001
 43
0.0000001
 44
0.0000000001
 40
0.0
 40
0.0
 40
0.0
 40
0.0
 40
0.0425884831
 40
0.0856863561
 40
0.1291522207
 40
0.1728434201
 40
0.2166161839
 40
0.2603264737
 40
0.3038304852
 40
0.3469852854
 40
0.3896494046
 40
0.4316834478
 40
0.4729507063
 40
0.5133177819
 40
0.5526552232
 40
0.5908381847
 40
0.6277471161
 40
0.6632684977
 40
0.6972956429
 40
0.7297295982
 40
0.7604801863
 40
0.775199245
 40
0.7894682964
 40
0.8032792031
 40
0.816624576
 40
0.8294980622
 40
0.8418942132
 40
0.8538088326
 40
0.8652388545
 40
0.8761827636
 40
0.8866405101
 40
0.8966140218
 40
0.9061071944
 40
0.9151265246
 40
0.9236812302
 40
0.9317840419
 40
0.939451511
 40
0.9467049812
 40
0.9535710969
 40
0.9600828657
 40
0.9662801856
 40
0.9722105914
 40
0.977929188
 40
0.983498215
 40
0.9889854999
 40
0.994462222
 40
1.0
 40
1.0
 40
1.0
 40
1.0
 10
12.4979542152
 20
9.0211698429
 30
0.0
 10
12.4979542152
 20
9.0152321739
 30
0.0
 10
12.4978587931
 20
9.0032856197
 30
0.0
 10
12.4974371864
 20
8.9852835445
 30
0.0
 10
12.4967375471
 20
8.9671362443
 30
0.0
 10
12.4957623193
 20
8.9489074611
 30
0.0
 10
12.4945149128
 20
8.9306611217
 30
0.0
 10
12.4929997055
 20
8.9124612528
 30
0.0
 10
12.4912220196
 20
8.894371704
 30
0.0
 10
12.4891881072
 20
8.8764559392
 30
0.0
 10
12.4869051266
 20
8.8587768069
 30
0.0
 10
12.4843811181
 20
8.8413963194
 30
0.0
 10
12.4816249764
 20
8.8243754323
 30
0.0
 10
12.4786464199
 20
8.8077738281
 30
0.0
 10
12.4754559574
 20
8.7916497026
 30
0.0
 10
12.4720648517
 20
8.7760595576
 30
0.0
 10
12.4684850817
 20
8.7610579905
 30
0.0
 10
12.4647292987
 20
8.7466975123
 30
0.0
 10
12.4608107878
 20
8.7330282896
 30
0.0
 10
12.456743399
 20
8.7200981656
 30
0.0
 10
12.453192
 20
8.7098319765
 30
0.0
 10
12.4502800965
 20
8.7020284964
 30
0.0
 10
12.4480998118
 20
8.6964737334
 30
0.0
 10
12.4458932321
 20
8.6911360141
 30
0.0
 10
12.4436622366
 20
8.6860200011
 30
0.0
 10
12.4414088287
 20
8.6811301475
 30
0.0
 10
12.4391349369
 20
8.6764707223
 30
0.0
 10
12.4368425973
 20
8.6720457614
 30
0.0
 10
12.4345337575
 20
8.6678591179
 30
0.0
 10
12.4322104765
 20
8.6639143926
 30
0.0
 10
12.429874704
 20
8.6602150077
 30
0.0
 10
12.4275285013
 20
8.6567641119
 30
0.0
 10
12.4251737954
 20
8.6535646859
 30
0.0
 10
12.4228126186
 20
8.6506194167
 30
0.0
 10
12.4204468384
 20
8.6479308465
 30
0.0
 10
12.4180784112
 20
8.6455012132
 30
0.0
 10
12.4157090982
 20
8.6433326594
 30
0.0
 10
12.413340729
 20
8.6414270396
 30
0.0
 10
12.4109749339
 20
8.639786212
 30
0.0
 10
12.4086134304
 20
8.638411808
 30
0.0
 10
12.4062578384
 20
8.6373056013
 30
0.0
 10
12.4039100186
 20
8.6364691864
 30
0.0
 10
12.4015720155
 20
8.6359043133
 30
0.0
 10
12.3992463897
 20
8.6356123248
 30
0.0
 10
12.3969359746
 20
8.6355943596
 30
0.0
 10
12.3946443825
 20
8.6358505212
 30
0.0
 10
12.3931450184
 20
8.6362006076
 30
0.0
 10
12.3924042294
 20
8.6364181647
 30
0.0
  0
SPLINE
  5
3AE
100
AcDbEntity
  8
0
100
AcDbSpline
 62
7
  6
CONTINUOUS
 70
0
 71
3
 72
26
 73
22
 74
0
 42
0.0000001
 43
0.0000001
 44
0.0000000001
 40
0.0
 40
0.0
 40
0.0
 40
0.0
 40
0.0665046654
 40
0.1339004882
 40
0.2018797708
 40
0.2701296013
 40
0.3383363766
 40
0.4061864731
 40
0.4733684155
 40
0.5395746353
 40
0.6045033448
 40
0.6678604148
 40
0.7293612915
 40
0.7887329822
 40
0.8457161479
 40
0.8732358859
 40
0.9000686596
 40
0.9261868855
 40
0.9515644559
 40
0.9761765363
 40
1.0
 40
1.0
 40
1.0
 40
1.0
 10
12.3897346256
 20
9.0226377402
 30
0.0
 10
12.3897346256
 20
9.0161227465
 30
0.0
 10
12.3896106742
 20
9.0030051607
 30
0.0
 10
12.3890648631
 20
8.9832349516
 30
0.0
 10
12.388160293
 20
8.9633067206
 30
0.0
 10
12.3869013519
 20
8.9433181658
 30
0.0
 10
12.3852942155
 20
8.9233672788
 30
0.0
 10
12.383346767
 20
8.9035518313
 30
0.0
 10
12.3810685841
 20
8.8839689369
 30
0.0
 10
12.3784708817
 20
8.8647145561
 30
0.0
 10
12.3755664646
 20
8.8458830187
 30
0.0
 10
12.3723696617
 20
8.8275665668
 30
0.0
 10
12.3688962667
 20
8.8098548439
 30
0.0
 10
12.3651634265
 20
8.7928346185
 30
0.0
 10
12.3618142805
 20
8.7791422403
 30
0.0
 10
12.3590124675
 20
8.7686011871
 30
0.0
 10
12.356882396
 20
8.7610109858
 30
0.0
 10
12.3547018344
 20
8.7536537458
 30
0.0
 10
12.3524734794
 20
8.7465384514
 30
0.0
 10
12.3502000484
 20
8.7396738475
 30
0.0
 10
12.3486302166
 20
8.7351958462
 30
0.0
 10
12.3478373526
 20
8.7330008363
 30
0.0
  0
SPLINE
  5
3AF
100
AcDbEntity
  8
0
100
AcDbSpline
 62
7
  6
CONTINUOUS
 70
0
 71
3
 72
15
 73
11
 74
0
 42
0.0000001
 43
0.0000001
 44
0.0000000001
 40
0.0
 40
0.0
 40
0.0
 40
0.0
 40
0.1238445972
 40
0.249467722
 40
0.3761514299
 40
0.5031661641
 40
0.6297815008
 40
0.7552696461
 40
0.8789111013
 40
1.0
 40
1.0
 40
1.0
 40
1.0
 10
12.3505807564
 20
9.0167870089
 30
0.0
 10
12.3505807564
 20
9.0103072264
 30
0.0
 10
12.3504427209
 20
8.9972542394
 30
0.0
 10
12.3498365007
 20
8.9775813892
 30
0.0
 10
12.3488329125
 20
8.9577586631
 30
0.0
 10
12.3474380539
 20
8.9379076119
 30
0.0
 10
12.3456604835
 20
8.91814996
 30
0.0
 10
12.3435111304
 20
8.89860678
 30
0.0
 10
12.3410032582
 20
8.879397978
 30
0.0
 10
12.3390789377
 20
8.8667374541
 30
0.0
 10
12.3380569951
 20
8.8604848187
 30
0.0
  0
SPLINE
  5
3B0
100
AcDbEntity
  8
0
100
AcDbSpline
 62
7
  6
CONTINUOUS
 70
0
 71
3
 72
43
 73
39
 74
0
 42
0.0000001
 43
0.0000001
 44
0.0000000001
 40
0.0
 40
0.0
 40
0.0
 40
0.0
 40
0.0987342996
 40
0.1470751437
 40
0.1946256961
 40
0.2413076651
 40
0.2870450831
 40
0.3317644836
 40
0.3753945936
 40
0.4178668973
 40
0.4591157329
 40
0.499078535
 40
0.5376962849
 40
0.5749137187
 40
0.6106796434
 40
0.6449475174
 40
0.677675934
 40
0.7088291208
 40
0.7383778028
 40
0.7663002667
 40
0.7925834309
 40
0.8172244755
 40
0.8402331399
 40
0.8616343828
 40
0.8814720469
 40
0.8998138931
 40
0.9167577656
 40
0.9247490932
 40
0.9324454099
 40
0.9470443573
 40
0.9540130532
 40
0.9608026428
 40
0.9674501564
 40
0.9739952568
 40
0.9804796681
 40
0.9869464208
 40
0.9934389123
 40
1.0
 40
1.0
 40
1.0
 40
1.0
 10
12.4979542152
 20
9.0211698429
 30
0.0
 10
12.4979542152
 20
9.0294943207
 30
0.0
 10
12.4978155882
 20
9.0418952195
 30
0.0
 10
12.4973369242
 20
9.0582977888
 30
0.0
 10
12.4968384001
 20
9.0703084166
 30
0.0
 10
12.4961987848
 20
9.0820925302
 30
0.0
 10
12.4954192297
 20
9.0936290094
 30
0.0
 10
12.4945011515
 20
9.104897173
 30
0.0
 10
12.4934462043
 20
9.1158768523
 30
0.0
 10
12.4922563121
 20
9.1265483871
 30
0.0
 10
12.4909336296
 20
9.1368926765
 30
0.0
 10
12.4894805406
 20
9.1468912118
 30
0.0
 10
12.4878996886
 20
9.1565261173
 30
0.0
 10
12.4861939417
 20
9.1657801803
 30
0.0
 10
12.4843663766
 20
9.1746368792
 30
0.0
 10
12.4824203046
 20
9.1830804283
 30
0.0
 10
12.4803592552
 20
9.1910958103
 30
0.0
 10
12.4781869409
 20
9.1986687981
 30
0.0
 10
12.47590726
 20
9.2057859972
 30
0.0
 10
12.4735243062
 20
9.2124348915
 30
0.0
 10
12.4710423014
 20
9.2186038625
 30
0.0
 10
12.4684655602
 20
9.2242822172
 30
0.0
 10
12.4657984733
 20
9.2294602596
 30
0.0
 10
12.46304543
 20
9.2341292414
 30
0.0
 10
12.4602105333
 20
9.2382814938
 30
0.0
 10
12.4572979835
 20
9.2419098006
 30
0.0
 10
12.4547610558
 20
9.2445414352
 30
0.0
 10
12.452695838
 20
9.2463613533
 30
0.0
 10
12.4506853943
 20
9.2479371927
 30
0.0
 10
12.4486053542
 20
9.2492803756
 30
0.0
 10
12.4464671645
 20
9.2503541713
 30
0.0
 10
12.4448745274
 20
9.2510095337
 30
0.0
 10
12.4432692418
 20
9.2515266904
 30
0.0
 10
12.4416520541
 20
9.2519052851
 30
0.0
 10
12.4400238819
 20
9.2521449372
 30
0.0
 10
12.4383856418
 20
9.2522455148
 30
0.0
 10
12.4367384357
 20
9.2522069624
 30
0.0
 10
12.4356426899
 20
9.2520893576
 30
0.0
 10
12.4350954922
 20
9.2520082379
 30
0.0
  0
SPLINE
  5
3B1
100
AcDbEntity
  8
0
100
AcDbSpline
 62
7
  6
CONTINUOUS
 70
0
 71
3
 72
18
 73
14
 74
0
 42
0.0000001
 43
0.0000001
 44
0.0000000001
 40
0.0
 40
0.0
 40
0.0
 40
0.0
 40
0.1411258274
 40
0.2788920875
 40
0.412638027
 40
0.54172533
 40
0.6655494179
 40
0.7253100698
 40
0.7835454482
 40
0.8401912892
 40
0.895186769
 40
0.9484742998
 40
1.0
 40
1.0
 40
1.0
 40
1.0
 10
12.3897346256
 20
9.0226377402
 30
0.0
 10
12.3897346256
 20
9.0292533155
 30
0.0
 10
12.3896092099
 20
9.0423273822
 30
0.0
 10
12.3890327498
 20
9.0616634016
 30
0.0
 10
12.388073132
 20
9.0804193744
 30
0.0
 10
12.3867355048
 20
9.0984969526
 30
0.0
 10
12.3852954745
 20
9.1130850175
 30
0.0
 10
12.3839520457
 20
9.1243412825
 30
0.0
 10
12.3828668418
 20
9.1324560495
 30
0.0
 10
12.3816935399
 20
9.1403327851
 30
0.0
 10
12.3804336964
 20
9.147961194
 30
0.0
 10
12.379088977
 20
9.1553312488
 30
0.0
 10
12.3781204951
 20
9.1601485419
 30
0.0
 10
12.3776212958
 20
9.1625117703
 30
0.0
  0
SPLINE
  5
3B2
100
AcDbEntity
  8
0
100
AcDbSpline
 62
7
  6
CONTINUOUS
 70
0
 71
3
 72
32
 73
28
 74
0
 42
0.0000001
 43
0.0000001
 44
0.0000000001
 40
0.0
 40
0.0
 40
0.0
 40
0.0
 40
0.0742040619
 40
0.1495809031
 40
0.2255113736
 40
0.301368507
 40
0.3765266773
 40
0.4503675739
 40
0.5222868899
 40
0.5573433798
 40
0.5917026659
 40
0.6252961595
 40
0.6580574398
 40
0.6899225822
 40
0.7208303081
 40
0.7507222446
 40
0.7795433668
 40
0.8072422518
 40
0.8337713922
 40
0.8590877743
 40
0.8831534411
 40
0.9059360273
 40
0.9274096693
 40
0.9475562396
 40
0.9663666292
 40
0.9838426786
 40
1.0
 40
1.0
 40
1.0
 40
1.0
 10
12.4368507128
 20
7.9424254309
 30
0.0
 10
12.4368507128
 20
7.9359805819
 30
0.0
 10
12.4366860122
 20
7.9229885137
 30
0.0
 10
12.4359663029
 20
7.903413651
 30
0.0
 10
12.4347775275
 20
7.8837177358
 30
0.0
 10
12.4331300886
 20
7.8640739682
 30
0.0
 10
12.4310385408
 20
7.8446549536
 30
0.0
 10
12.4285213441
 20
7.8256314443
 30
0.0
 10
12.4260672809
 20
7.8101178854
 30
0.0
 10
12.4239022157
 20
7.7980346029
 30
0.0
 10
12.4222007397
 20
7.7892508944
 30
0.0
 10
12.4204115924
 20
7.7806881675
 30
0.0
 10
12.4185387012
 20
7.772365239
 30
0.0
 10
12.4165862227
 20
7.7643004041
 30
0.0
 10
12.4145584734
 20
7.7565113832
 30
0.0
 10
12.4124599268
 20
7.7490152868
 30
0.0
 10
12.4102952339
 20
7.7418285629
 30
0.0
 10
12.4080691902
 20
7.734966965
 30
0.0
 10
12.40578671
 20
7.7284455229
 30
0.0
 10
12.4034528394
 20
7.722278491
 30
0.0
 10
12.4010727444
 20
7.7164793072
 30
0.0
 10
12.398651667
 20
7.711060575
 30
0.0
 10
12.3961949028
 20
7.7060340073
 30
0.0
 10
12.3937078361
 20
7.7014104073
 30
0.0
 10
12.3911957579
 20
7.6971995166
 30
0.0
 10
12.3886641366
 20
7.6934104435
 30
0.0
 10
12.3868982487
 20
7.6910803729
 30
0.0
 10
12.3860104861
 20
7.6899935592
 30
0.0
  0
SPLINE
  5
3B3
100
AcDbEntity
  8
0
100
AcDbSpline
 62
4
  6
CONTINUOUS
 70
0
 71
3
 72
403
 73
399
 74
0
 42
0.0000001
 43
0.0000001
 44
0.0000000001
 40
0.0
 40
0.0
 40
0.0
 40
0.0
 40
0.015625
 40
0.0234375
 40
0.03125
 40
0.0390625
 40
0.04296875
 40
0.046875
 40
0.05078125
 40
0.0546875
 40
0.056640625
 40
0.05859375
 40
0.0595703125
 40
0.060546875
 40
0.0615234375
 40
0.0620117188
 40
0.0622558594
 40
0.0625
 40
0.0627441406
 40
0.0629882812
 40
0.0634765625
 40
0.064453125
 40
0.0654296875
 40
0.06640625
 40
0.068359375
 40
0.0703125
 40
0.07421875
 40
0.078125
 40
0.08203125
 40
0.0859375
 40
0.09375
 40
0.1015625
 40
0.10546875
 40
0.109375
 40
0.11328125
 40
0.1171875
 40
0.119140625
 40
0.12109375
 40
0.1220703125
 40
0.123046875
 40
0.1240234375
 40
0.1245117188
 40
0.1247558594
 40
0.125
 40
0.1252441406
 40
0.1254882812
 40
0.1259765625
 40
0.126953125
 40
0.1279296875
 40
0.12890625
 40
0.130859375
 40
0.1328125
 40
0.13671875
 40
0.140625
 40
0.14453125
 40
0.1484375
 40
0.15625
 40
0.1640625
 40
0.16796875
 40
0.171875
 40
0.17578125
 40
0.1796875
 40
0.181640625
 40
0.18359375
 40
0.1845703125
 40
0.185546875
 40
0.1865234375
 40
0.1870117188
 40
0.1872558594
 40
0.1875
 40
0.1877441406
 40
0.1879882812
 40
0.1884765625
 40
0.189453125
 40
0.1904296875
 40
0.19140625
 40
0.193359375
 40
0.1953125
 40
0.19921875
 40
0.203125
 40
0.20703125
 40
0.2109375
 40
0.21875
 40
0.2265625
 40
0.23046875
 40
0.234375
 40
0.23828125
 40
0.2421875
 40
0.244140625
 40
0.24609375
 40
0.2470703125
 40
0.248046875
 40
0.2490234375
 40
0.2495117188
 40
0.2497558594
 40
0.25
 40
0.2502441406
 40
0.2504882812
 40
0.2509765625
 40
0.251953125
 40
0.2529296875
 40
0.25390625
 40
0.255859375
 40
0.2578125
 40
0.26171875
 40
0.265625
 40
0.26953125
 40
0.2734375
 40
0.28125
 40
0.2890625
 40
0.29296875
 40
0.296875
 40
0.30078125
 40
0.3046875
 40
0.306640625
 40
0.30859375
 40
0.3095703125
 40
0.310546875
 40
0.3115234375
 40
0.3120117188
 40
0.3122558594
 40
0.3125
 40
0.3127441406
 40
0.3129882812
 40
0.3134765625
 40
0.314453125
 40
0.3154296875
 40
0.31640625
 40
0.318359375
 40
0.3203125
 40
0.32421875
 40
0.328125
 40
0.33203125
 40
0.3359375
 40
0.34375
 40
0.3515625
 40
0.35546875
 40
0.359375
 40
0.36328125
 40
0.3671875
 40
0.369140625
 40
0.37109375
 40
0.3720703125
 40
0.373046875
 40
0.3740234375
 40
0.3745117188
 40
0.3747558594
 40
0.375
 40
0.3752441406
 40
0.3754882812
 40
0.3759765625
 40
0.376953125
 40
0.3779296875
 40
0.37890625
 40
0.380859375
 40
0.3828125
 40
0.38671875
 40
0.390625
 40
0.39453125
 40
0.3984375
 40
0.40625
 40
0.4140625
 40
0.41796875
 40
0.421875
 40
0.42578125
 40
0.4296875
 40
0.431640625
 40
0.43359375
 40
0.4345703125
 40
0.435546875
 40
0.4365234375
 40
0.4370117188
 40
0.4372558594
 40
0.4375
 40
0.4377441406
 40
0.4379882812
 40
0.4384765625
 40
0.439453125
 40
0.4404296875
 40
0.44140625
 40
0.443359375
 40
0.4453125
 40
0.44921875
 40
0.453125
 40
0.45703125
 40
0.4609375
 40
0.46875
 40
0.4765625
 40
0.48046875
 40
0.484375
 40
0.48828125
 40
0.4921875
 40
0.494140625
 40
0.49609375
 40
0.4970703125
 40
0.498046875
 40
0.4990234375
 40
0.4995117188
 40
0.4997558594
 40
0.5
 40
0.5002441406
 40
0.5004882812
 40
0.5009765625
 40
0.501953125
 40
0.5029296875
 40
0.50390625
 40
0.505859375
 40
0.5078125
 40
0.51171875
 40
0.515625
 40
0.51953125
 40
0.5234375
 40
0.53125
 40
0.5390625
 40
0.54296875
 40
0.546875
 40
0.55078125
 40
0.5546875
 40
0.556640625
 40
0.55859375
 40
0.5595703125
 40
0.560546875
 40
0.5615234375
 40
0.5620117188
 40
0.5622558594
 40
0.5625
 40
0.5627441406
 40
0.5629882812
 40
0.5634765625
 40
0.564453125
 40
0.5654296875
 40
0.56640625
 40
0.568359375
 40
0.5703125
 40
0.57421875
 40
0.578125
 40
0.58203125
 40
0.5859375
 40
0.59375
 40
0.6015625
 40
0.60546875
 40
0.609375
 40
0.61328125
 40
0.6171875
 40
0.619140625
 40
0.62109375
 40
0.6220703125
 40
0.623046875
 40
0.6240234375
 40
0.6245117188
 40
0.6247558594
 40
0.625
 40
0.6252441406
 40
0.6254882812
 40
0.6259765625
 40
0.626953125
 40
0.6279296875
 40
0.62890625
 40
0.630859375
 40
0.6328125
 40
0.63671875
 40
0.640625
 40
0.64453125
 40
0.6484375
 40
0.65625
 40
0.6640625
 40
0.66796875
 40
0.671875
 40
0.67578125
 40
0.6796875
 40
0.681640625
 40
0.68359375
 40
0.6845703125
 40
0.685546875
 40
0.6865234375
 40
0.6870117188
 40
0.6872558594
 40
0.6875
 40
0.6877441406
 40
0.6879882812
 40
0.6884765625
 40
0.689453125
 40
0.6904296875
 40
0.69140625
 40
0.693359375
 40
0.6953125
 40
0.69921875
 40
0.703125
 40
0.70703125
 40
0.7109375
 40
0.71875
 40
0.7265625
 40
0.73046875
 40
0.734375
 40
0.73828125
 40
0.7421875
 40
0.744140625
 40
0.74609375
 40
0.7470703125
 40
0.748046875
 40
0.7490234375
 40
0.7495117188
 40
0.7497558594
 40
0.75
 40
0.7502441406
 40
0.7504882812
 40
0.7509765625
 40
0.751953125
 40
0.7529296875
 40
0.75390625
 40
0.755859375
 40
0.7578125
 40
0.76171875
 40
0.765625
 40
0.76953125
 40
0.7734375
 40
0.78125
 40
0.7890625
 40
0.79296875
 40
0.796875
 40
0.80078125
 40
0.8046875
 40
0.806640625
 40
0.80859375
 40
0.8095703125
 40
0.810546875
 40
0.8115234375
 40
0.8120117188
 40
0.8122558594
 40
0.8125
 40
0.8127441406
 40
0.8129882812
 40
0.8134765625
 40
0.814453125
 40
0.8154296875
 40
0.81640625
 40
0.818359375
 40
0.8203125
 40
0.82421875
 40
0.828125
 40
0.83203125
 40
0.8359375
 40
0.84375
 40
0.8515625
 40
0.85546875
 40
0.859375
 40
0.86328125
 40
0.8671875
 40
0.869140625
 40
0.87109375
 40
0.8720703125
 40
0.873046875
 40
0.8740234375
 40
0.8745117188
 40
0.8747558594
 40
0.875
 40
0.8752441406
 40
0.8754882812
 40
0.8759765625
 40
0.876953125
 40
0.8779296875
 40
0.87890625
 40
0.880859375
 40
0.8828125
 40
0.88671875
 40
0.890625
 40
0.89453125
 40
0.8984375
 40
0.90625
 40
0.9140625
 40
0.91796875
 40
0.921875
 40
0.92578125
 40
0.9296875
 40
0.931640625
 40
0.93359375
 40
0.9345703125
 40
0.935546875
 40
0.9365234375
 40
0.9370117188
 40
0.9372558594
 40
0.9375
 40
0.9377441406
 40
0.9379882812
 40
0.9384765625
 40
0.939453125
 40
0.9404296875
 40
0.94140625
 40
0.943359375
 40
0.9453125
 40
0.94921875
 40
0.953125
 40
0.95703125
 40
0.9609375
 40
0.96875
 40
0.9765625
 40
0.984375
 40
1.0
 40
1.0
 40
1.0
 40
1.0
 10
10.2516252919
 20
8.9766032792
 30
0.0
 10
10.2519325036
 20
8.9734487871
 30
0.0
 10
10.2523933211
 20
8.9687170489
 30
0.0
 10
10.2530077444
 20
8.9624080647
 30
0.0
 10
10.2534685619
 20
8.9576763265
 30
0.0
 10
10.2538525764
 20
8.9537332114
 30
0.0
 10
10.2541597883
 20
8.9505787193
 30
0.0
 10
10.2543901961
 20
8.9482128501
 30
0.0
 10
10.2546206085
 20
8.9458469814
 30
0.0
 10
10.2548126044
 20
8.9438754224
 30
0.0
 10
10.2549662336
 20
8.9422981793
 30
0.0
 10
10.2550621777
 20
8.9413123929
 30
0.0
 10
10.2551391027
 20
8.9405237856
 30
0.0
 10
10.255196332
 20
8.9399322703
 30
0.0
 10
10.2552455007
 20
8.9394395311
 30
0.0
 10
10.2552770189
 20
8.9390942405
 30
0.0
 10
10.2552995572
 20
8.9388975141
 30
0.0
 10
10.2553037058
 20
8.9387483283
 30
0.0
 10
10.2553566109
 20
8.9386054153
 30
0.0
 10
10.2554101441
 20
8.9384126766
 30
0.0
 10
10.2555117511
 20
8.9380764033
 30
0.0
 10
10.2556527614
 20
8.9375954799
 30
0.0
 10
10.2558237468
 20
8.9370186
 30
0.0
 10
10.2560511081
 20
8.9362493471
 30
0.0
 10
10.2563355218
 20
8.9352878082
 30
0.0
 10
10.2567904651
 20
8.9337493307
 30
0.0
 10
10.2573591849
 20
8.9318262392
 30
0.0
 10
10.2580416313
 20
8.929518527
 30
0.0
 10
10.2587240823
 20
8.9272108155
 30
0.0
 10
10.2596340154
 20
8.9241338665
 30
0.0
 10
10.2607714323
 20
8.9202876804
 30
0.0
 10
10.2619088489
 20
8.9164414943
 30
0.0
 10
10.2628187826
 20
8.9133645455
 30
0.0
 10
10.2635012317
 20
8.9110568335
 30
0.0
 10
10.2641836852
 20
8.908749123
 30
0.0
 10
10.2647523828
 20
8.9068260262
 30
0.0
 10
10.2652073715
 20
8.9052875593
 30
0.0
 10
10.2654916696
 20
8.9043259936
 30
0.0
 10
10.265719268
 20
8.9035567958
 30
0.0
 10
10.265889529
 20
8.9029797474
 30
0.0
 10
10.2660328059
 20
8.9024993511
 30
0.0
 10
10.2661303666
 20
8.9021621368
 30
0.0
 10
10.2661903831
 20
8.9019709059
 30
0.0
 10
10.2662233738
 20
8.9018233615
 30
0.0
 10
10.2663023173
 20
8.9016915705
 30
0.0
 10
10.2663915464
 20
8.9015103543
 30
0.0
 10
10.2665551655
 20
8.9011957861
 30
0.0
 10
10.2667850026
 20
8.9007450644
 30
0.0
 10
10.2670624783
 20
8.9002047714
 30
0.0
 10
10.2674318623
 20
8.8994841805
 30
0.0
 10
10.2678937921
 20
8.8985835105
 30
0.0
 10
10.2686327681
 20
8.8971424001
 30
0.0
 10
10.2695565264
 20
8.8953410253
 30
0.0
 10
10.27066502
 20
8.8931793698
 30
0.0
 10
10.271773518
 20
8.8910177159
 30
0.0
 10
10.2732515137
 20
8.8881355102
 30
0.0
 10
10.2750990089
 20
8.8845327532
 30
0.0
 10
10.2769465038
 20
8.880929996
 30
0.0
 10
10.2784245001
 20
8.8780477905
 30
0.0
 10
10.2795329963
 20
8.8758861359
 30
0.0
 10
10.2806414967
 20
8.8737244832
 30
0.0
 10
10.2815652337
 20
8.8719230997
 30
0.0
 10
10.2823042531
 20
8.8704820071
 30
0.0
 10
10.2827660725
 20
8.869581292
 30
0.0
 10
10.2831356832
 20
8.8688607936
 30
0.0
 10
10.2834124662
 20
8.868320218
 30
0.0
 10
10.2836444708
 20
8.8678703804
 30
0.0
 10
10.2838042205
 20
8.867554234
 30
0.0
 10
10.2838996493
 20
8.8673755464
 30
0.0
 10
10.2839595495
 20
8.8672359885
 30
0.0
 10
10.2840640635
 20
8.8671176154
 30
0.0
 10
10.2841878538
 20
8.8669523951
 30
0.0
 10
10.2844117373
 20
8.8666667026
 30
0.0
 10
10.2847277803
 20
8.8662567703
 30
0.0
 10
10.2851086543
 20
8.8657656221
 30
0.0
 10
10.2856159197
 20
8.8651104887
 30
0.0
 10
10.2862501955
 20
8.8642916641
 30
0.0
 10
10.2872649282
 20
8.8629814932
 30
0.0
 10
10.2885333813
 20
8.8613437973
 30
0.0
 10
10.2900555092
 20
8.8593785547
 30
0.0
 10
10.2915776412
 20
8.857413314
 30
0.0
 10
10.2936071492
 20
8.8547929925
 30
0.0
 10
10.2961440347
 20
8.8515175908
 30
0.0
 10
10.2986809199
 20
8.8482421889
 30
0.0
 10
10.3007104283
 20
8.8456218677
 30
0.0
 10
10.3022325589
 20
8.8436566259
 30
0.0
 10
10.3037546925
 20
8.8416913876
 30
0.0
 10
10.3050231275
 20
8.8400536781
 30
0.0
 10
10.3060378973
 20
8.8387435349
 30
0.0
 10
10.3066720788
 20
8.8379246398
 30
0.0
 10
10.3071795375
 20
8.8372696512
 30
0.0
 10
10.3075598208
 20
8.8367780604
 30
0.0
 10
10.3078777121
 20
8.8363695129
 30
0.0
 10
10.308098296
 20
8.8360813484
 30
0.0
 10
10.3082273731
 20
8.8359200887
 30
0.0
 10
10.3083156478
 20
8.8357895501
 30
0.0
 10
10.3084365405
 20
8.8356956841
 30
0.0
 10
10.3085863533
 20
8.8355577377
 30
0.0
 10
10.3088538266
 20
8.8353222914
 30
0.0
 10
10.3092331599
 20
8.8349828237
 30
0.0
 10
10.3096895461
 20
8.8345767961
 30
0.0
 10
10.3102976467
 20
8.8340349601
 30
0.0
 10
10.3110579144
 20
8.8333578246
 30
0.0
 10
10.3122742633
 20
8.8322743188
 30
0.0
 10
10.3137947267
 20
8.830919967
 30
0.0
 10
10.3156192711
 20
8.8292947318
 30
0.0
 10
10.3174438187
 20
8.8276695001
 30
0.0
 10
10.3198765476
 20
8.8255025232
 30
0.0
 10
10.3229174592
 20
8.8227938026
 30
0.0
 10
10.3259583705
 20
8.8200850817
 30
0.0
 10
10.3283910999
 20
8.8179181053
 30
0.0
 10
10.3302156462
 20
8.8162928721
 30
0.0
 10
10.3320401952
 20
8.8146676426
 30
0.0
 10
10.3335606444
 20
8.813313273
 30
0.0
 10
10.3347770222
 20
8.8122298036
 30
0.0
 10
10.3355372164
 20
8.8115525753
 30
0.0
 10
10.3361454679
 20
8.8110109298
 30
0.0
 10
10.3366013931
 20
8.8106043204
 30
0.0
 10
10.3369821688
 20
8.8102666729
 30
0.0
 10
10.3372470672
 20
8.8100279772
 30
0.0
 10
10.3374010055
 20
8.8098952372
 30
0.0
 10
10.3375092259
 20
8.8097853787
 30
0.0
 10
10.3376450958
 20
8.8097149052
 30
0.0
 10
10.3378166112
 20
8.8096072027
 30
0.0
 10
10.3381212567
 20
8.8094251239
 30
0.0
 10
10.3385541154
 20
8.809161665
 30
0.0
 10
10.3390745513
 20
8.8088469467
 30
0.0
 10
10.3397681146
 20
8.808426822
 30
0.0
 10
10.340635189
 20
8.8079018375
 30
0.0
 10
10.3420224408
 20
8.8070617664
 30
0.0
 10
10.3437565287
 20
8.8060117105
 30
0.0
 10
10.3458374242
 20
8.8047516292
 30
0.0
 10
10.3479183224
 20
8.8034915518
 30
0.0
 10
10.3506928524
 20
8.8018114472
 30
0.0
 10
10.3541610152
 20
8.7997113169
 30
0.0
 10
10.3576291778
 20
8.7976111863
 30
0.0
 10
10.3604037081
 20
8.7959310822
 30
0.0
 10
10.3624846054
 20
8.7946710031
 30
0.0
 10
10.3645655044
 20
8.7934109282
 30
0.0
 10
10.3662995813
 20
8.7923608525
 30
0.0
 10
10.3676868555
 20
8.7915208217
 30
0.0
 10
10.3685538729
 20
8.7909957347
 30
0.0
 10
10.3692475533
 20
8.7905758202
 30
0.0
 10
10.3697676316
 20
8.7902604598
 30
0.0
 10
10.3702016091
 20
8.78999901
 30
0.0
 10
10.3705042572
 20
8.7898133447
 30
0.0
 10
10.3706789729
 20
8.7897113886
 30
0.0
 10
10.3708050127
 20
8.7896232638
 30
0.0
 10
10.3709501532
 20
8.7895797007
 30
0.0
 10
10.3711370113
 20
8.789506073
 30
0.0
 10
10.3714671173
 20
8.7893844664
 30
0.0
 10
10.3719370742
 20
8.7892069566
 30
0.0
 10
10.3725017172
 20
8.7889955655
 30
0.0
 10
10.373254332
 20
8.7887131445
 30
0.0
 10
10.3741951834
 20
8.7883603122
 30
0.0
 10
10.3757004994
 20
8.7877956721
 30
0.0
 10
10.3775821602
 20
8.7870899092
 30
0.0
 10
10.3798401464
 20
8.7862429778
 30
0.0
 10
10.3820981344
 20
8.7853960506
 30
0.0
 10
10.3851087845
 20
8.7842668129
 30
0.0
 10
10.3888720973
 20
8.7828552663
 30
0.0
 10
10.39263541
 20
8.7814437193
 30
0.0
 10
10.3956460602
 20
8.7803144822
 30
0.0
 10
10.3979040476
 20
8.7794675531
 30
0.0
 10
10.4001620363
 20
8.7786206287
 30
0.0
 10
10.4020436893
 20
8.7779148441
 30
0.0
 10
10.4035490213
 20
8.7773502482
 30
0.0
 10
10.4044898319
 20
8.7769973033
 30
0.0
 10
10.4052425304
 20
8.7767151134
 30
0.0
 10
10.4058069174
 20
8.7765030164
 30
0.0
 10
10.4062776756
 20
8.776327715
 30
0.0
 10
10.4066063511
 20
8.7762021661
 30
0.0
 10
10.4067955011
 20
8.7761348551
 30
0.0
 10
10.4069336018
 20
8.7760718887
 30
0.0
 10
10.4070860817
 20
8.7760566396
 30
0.0
 10
10.4072843726
 20
8.7760196631
 30
0.0
 10
10.4076337185
 20
8.775962709
 30
0.0
 10
10.4081315623
 20
8.7758772918
 30
0.0
 10
10.4087294979
 20
8.7757765266
 30
0.0
 10
10.4095265626
 20
8.7756415667
 30
0.0
 10
10.4105229561
 20
8.7754730745
 30
0.0
 10
10.4121171507
 20
8.7752033709
 30
0.0
 10
10.414109906
 20
8.7748662812
 30
0.0
 10
10.4165012072
 20
8.7744617565
 30
0.0
 10
10.4188925097
 20
8.7740572364
 30
0.0
 10
10.4220809127
 20
8.7735178747
 30
0.0
 10
10.4260664165
 20
8.7728436731
 30
0.0
 10
10.4300519203
 20
8.7721694711
 30
0.0
 10
10.4332403233
 20
8.77163011
 30
0.0
 10
10.4356316256
 20
8.7712255879
 30
0.0
 10
10.4380229276
 20
8.7708210707
 30
0.0
 10
10.4400156805
 20
8.7704839578
 30
0.0
 10
10.4416098799
 20
8.7702143015
 30
0.0
 10
10.4426062613
 20
8.770045689
 30
0.0
 10
10.4434033509
 20
8.7699109761
 30
0.0
 10
10.4440012106
 20
8.7698094564
 30
0.0
 10
10.4444992917
 20
8.7697263995
 30
0.0
 10
10.4448482141
 20
8.769665232
 30
0.0
 10
10.4450471835
 20
8.7696350065
 30
0.0
 10
10.4451975791
 20
8.7695990202
 30
0.0
 10
10.445343508
 20
8.7696139392
 30
0.0
 10
10.445539638
 20
8.7696160748
 30
0.0
 10
10.4458821395
 20
8.7696280851
 30
0.0
 10
10.4463718068
 20
8.7696409175
 30
0.0
 10
10.4469592452
 20
8.7696581677
 30
0.0
 10
10.4477425531
 20
8.7696805214
 30
0.0
 10
10.4487216686
 20
8.7697086849
 30
0.0
 10
10.4502882642
 20
8.7697536227
 30
0.0
 10
10.452246505
 20
8.7698098374
 30
0.0
 10
10.4545963955
 20
8.7698772768
 30
0.0
 10
10.4569462856
 20
8.7699447212
 30
0.0
 10
10.4600794725
 20
8.7700346453
 30
0.0
 10
10.4639959561
 20
8.770147051
 30
0.0
 10
10.4679124398
 20
8.7702594563
 30
0.0
 10
10.4710456267
 20
8.770349381
 30
0.0
 10
10.4733955171
 20
8.7704168233
 30
0.0
 10
10.4757454065
 20
8.7704842704
 30
0.0
 10
10.4777036506
 20
8.7705404615
 30
0.0
 10
10.4792702395
 20
8.7705854474
 30
0.0
 10
10.4802493721
 20
8.7706134885
 30
0.0
 10
10.4810326447
 20
8.7706360934
 30
0.0
 10
10.4816201911
 20
8.7706525761
 30
0.0
 10
10.4821095205
 20
8.7706678097
 30
0.0
 10
10.4824526253
 20
8.7706755335
 30
0.0
 10
10.4826477886
 20
8.7706845372
 30
0.0
 10
10.4827966867
 20
8.7706783597
 30
0.0
 10
10.4829359307
 20
8.7707216082
 30
0.0
 10
10.4831249569
 20
8.7707620324
 30
0.0
 10
10.4834541837
 20
8.7708408075
 30
0.0
 10
10.483925328
 20
8.7709491437
 30
0.0
 10
10.48449035
 20
8.7710809448
 30
0.0
 10
10.4852438354
 20
8.7712560517
 30
0.0
 10
10.4861856501
 20
8.7714751503
 30
0.0
 10
10.4876925772
 20
8.7718255878
 30
0.0
 10
10.4895762279
 20
8.772263676
 30
0.0
 10
10.4918366122
 20
8.7727893642
 30
0.0
 10
10.4940969956
 20
8.7733150571
 30
0.0
 10
10.4971108405
 20
8.7740159793
 30
0.0
 10
10.5008781465
 20
8.7748921327
 30
0.0
 10
10.5046454525
 20
8.7757682857
 30
0.0
 10
10.5076592972
 20
8.7764692086
 30
0.0
 10
10.5099196812
 20
8.7769948995
 30
0.0
 10
10.5121800634
 20
8.777520595
 30
0.0
 10
10.5140637208
 20
8.7779586605
 30
0.0
 10
10.5155706341
 20
8.7783091444
 30
0.0
 10
10.5165124837
 20
8.7785281251
 30
0.0
 10
10.5172658975
 20
8.778703474
 30
0.0
 10
10.5178311383
 20
8.7788345355
 30
0.0
 10
10.5183015983
 20
8.7789451858
 30
0.0
 10
10.5186320467
 20
8.7790198298
 30
0.0
 10
10.5188191155
 20
8.7790668731
 30
0.0
 10
10.518964372
 20
8.7790897902
 30
0.0
 10
10.5190906882
 20
8.7791599736
 30
0.0
 10
10.5192657164
 20
8.7792370645
 30
0.0
 10
10.5195689376
 20
8.7793796551
 30
0.0
 10
10.5200037199
 20
8.77957934
 30
0.0
 10
10.52052477
 20
8.7798206808
 30
0.0
 10
10.521219744
 20
8.7801418681
 30
0.0
 10
10.5220883791
 20
8.7805435579
 30
0.0
 10
10.5234782413
 20
8.7811861466
 30
0.0
 10
10.5252155533
 20
8.781989422
 30
0.0
 10
10.5273003344
 20
8.7829533355
 30
0.0
 10
10.5293851137
 20
8.7839172535
 30
0.0
 10
10.5321648201
 20
8.7852024759
 30
0.0
 10
10.5356394529
 20
8.7868090046
 30
0.0
 10
10.5391140858
 20
8.7884155328
 30
0.0
 10
10.5418937919
 20
8.7897007559
 30
0.0
 10
10.5439785721
 20
8.790664672
 30
0.0
 10
10.54606335
 20
8.7916285926
 30
0.0
 10
10.5478006721
 20
8.7924318459
 30
0.0
 10
10.5491905136
 20
8.7930744795
 30
0.0
 10
10.5500592015
 20
8.7934760551
 30
0.0
 10
10.5507540672
 20
8.7937974767
 30
0.0
 10
10.5512754479
 20
8.7940381019
 30
0.0
 10
10.5517091959
 20
8.7942400259
 30
0.0
 10
10.5520142636
 20
8.7943786192
 30
0.0
 10
10.5521863333
 20
8.7944621149
 30
0.0
 10
10.552321737
 20
8.7945126248
 30
0.0
 10
10.552432862
 20
8.7946094323
 30
0.0
 10
10.5525894974
 20
8.7947223599
 30
0.0
 10
10.5528596636
 20
8.7949275073
 30
0.0
 10
10.5532476782
 20
8.7952166413
 30
0.0
 10
10.5537124127
 20
8.7955652859
 30
0.0
 10
10.5543323671
 20
8.7960295573
 30
0.0
 10
10.5551072046
 20
8.7966100979
 30
0.0
 10
10.5563470035
 20
8.7975388503
 30
0.0
 10
10.5578967319
 20
8.7986998294
 30
0.0
 10
10.5597564146
 20
8.8000929878
 30
0.0
 10
10.561616095
 20
8.8014861506
 30
0.0
 10
10.5640956697
 20
8.8033436995
 30
0.0
 10
10.5671951378
 20
8.8056656361
 30
0.0
 10
10.5702946062
 20
8.8079875724
 30
0.0
 10
10.5727741804
 20
8.8098451219
 30
0.0
 10
10.5746338621
 20
8.811238283
 30
0.0
 10
10.5764935401
 20
8.8126314476
 30
0.0
 10
10.5780432834
 20
8.8137924075
 30
0.0
 10
10.579283052
 20
8.814721199
 30
0.0
 10
10.5800579665
 20
8.8153016401
 30
0.0
 10
10.5806777627
 20
8.8157661158
 30
0.0
 10
10.5811429807
 20
8.8161141361
 30
0.0
 10
10.5815294824
 20
8.8164052234
 30
0.0
 10
10.5818023493
 20
8.8166068839
 30
0.0
 10
10.5819546575
 20
8.8167253984
 30
0.0
 10
10.5820790743
 20
8.8168050447
 30
0.0
 10
10.5821645563
 20
8.8169200093
 30
0.0
 10
10.5822921132
 20
8.8170609759
 30
0.0
 10
10.5825090101
 20
8.8173134074
 30
0.0
 10
10.582822171
 20
8.8176710229
 30
0.0
 10
10.5831965481
 20
8.818101446
 30
0.0
 10
10.5836962122
 20
8.8186748948
 30
0.0
 10
10.5843206229
 20
8.8193918594
 30
0.0
 10
10.5853197747
 20
8.8205389169
 30
0.0
 10
10.5865686819
 20
8.8219727683
 30
0.0
 10
10.5880673846
 20
8.8236933773
 30
0.0
 10
10.5895660835
 20
8.8254139897
 30
0.0
 10
10.59156435
 20
8.8277081384
 30
0.0
 10
10.5940621827
 20
8.8305758247
 30
0.0
 10
10.5965600157
 20
8.8334435108
 30
0.0
 10
10.5985582817
 20
8.8357376599
 30
0.0
 10
10.6000569822
 20
8.837458271
 30
0.0
 10
10.6015556788
 20
8.839178885
 30
0.0
 10
10.6028046049
 20
8.8406127209
 30
0.0
 10
10.6038037183
 20
8.84175981
 30
0.0
 10
10.6044282268
 20
8.8424766943
 30
0.0
 10
10.60492769
 20
8.843050308
 30
0.0
 10
10.6053026809
 20
8.8434802275
 30
0.0
 10
10.6056139215
 20
8.8438394185
 30
0.0
 10
10.6058342464
 20
8.8440890374
 30
0.0
 10
10.6059563108
 20
8.8442345105
 30
0.0
 10
10.6060586641
 20
8.8443356326
 30
0.0
 10
10.606119715
 20
8.8444672687
 30
0.0
 10
10.6062155229
 20
8.8446321398
 30
0.0
 10
10.6063764744
 20
8.8449256233
 30
0.0
 10
10.6066099145
 20
8.8453422928
 30
0.0
 10
10.6068885404
 20
8.8458434059
 30
0.0
 10
10.6072605663
 20
8.8465111691
 30
0.0
 10
10.6077254191
 20
8.8473460059
 30
0.0
 10
10.6084692839
 20
8.8486816705
 30
0.0
 10
10.6093990804
 20
8.8503512768
 30
0.0
 10
10.6105148511
 20
8.8523547933
 30
0.0
 10
10.6116306178
 20
8.8543583128
 30
0.0
 10
10.6131183081
 20
8.8570296711
 30
0.0
 10
10.6149779204
 20
8.8603688694
 30
0.0
 10
10.6168375331
 20
8.8637080675
 30
0.0
 10
10.6183252229
 20
8.8663794261
 30
0.0
 10
10.6194409913
 20
8.8683829446
 30
0.0
 10
10.6205567554
 20
8.8703864651
 30
0.0
 10
10.6214865724
 20
8.872056059
 30
0.0
 10
10.6222303954
 20
8.8733917489
 30
0.0
 10
10.6226953545
 20
8.8742265213
 30
0.0
 10
10.6230671621
 20
8.8748944167
 30
0.0
 10
10.623346455
 20
8.875395126
 30
0.0
 10
10.6235778084
 20
8.875813059
 30
0.0
 10
10.6237424849
 20
8.8761042868
 30
0.0
 10
10.6238323245
 20
8.8762727721
 30
0.0
 10
10.6239117084
 20
8.8763933067
 30
0.0
 10
10.6239452059
 20
8.8765361241
 30
0.0
 10
10.624005875
 20
8.8767187748
 30
0.0
 10
10.6241045886
 20
8.8770420349
 30
0.0
 10
10.6242495068
 20
8.8775019417
 30
0.0
 10
10.6244217399
 20
8.8780546403
 30
0.0
 10
10.6246519668
 20
8.8787912888
 30
0.0
 10
10.6249395508
 20
8.8797121962
 30
0.0
 10
10.6253997969
 20
8.881185594
 30
0.0
 10
10.6259750662
 20
8.8830273598
 30
0.0
 10
10.6266654058
 20
8.8852374708
 30
0.0
 10
10.6273557409
 20
8.8874475839
 30
0.0
 10
10.6282761894
 20
8.8903944006
 30
0.0
 10
10.6294267494
 20
8.8940779218
 30
0.0
 10
10.6305773097
 20
8.8977614428
 30
0.0
 10
10.6314977575
 20
8.9007082598
 30
0.0
 10
10.6321880946
 20
8.9029183722
 30
0.0
 10
10.632878427
 20
8.9051284862
 30
0.0
 10
10.6334537186
 20
8.9069702425
 30
0.0
 10
10.6339139193
 20
8.9084436595
 30
0.0
 10
10.6342016187
 20
8.9093645181
 30
0.0
 10
10.6344316088
 20
8.9101012668
 30
0.0
 10
10.6346045654
 20
8.9106536591
 30
0.0
 10
10.6347472196
 20
8.9111145242
 30
0.0
 10
10.6348499749
 20
8.9114360737
 30
0.0
 10
10.6349041682
 20
8.9116214653
 30
0.0
 10
10.6349575573
 20
8.9117558635
 30
0.0
 10
10.6349622319
 20
8.9119080193
 30
0.0
 10
10.6349854569
 20
8.9121046996
 30
0.0
 10
10.6350181837
 20
8.912451776
 30
0.0
 10
10.6350690753
 20
8.9129460907
 30
0.0
 10
10.6351283736
 20
8.9135399142
 30
0.0
 10
10.6352080568
 20
8.9143314533
 30
0.0
 10
10.635307449
 20
8.9153209543
 30
0.0
 10
10.6354665948
 20
8.9169041128
 30
0.0
 10
10.6356654864
 20
8.9188830758
 30
0.0
 10
10.6359041738
 20
8.921257825
 30
0.0
 10
10.6361428565
 20
8.9236325759
 30
0.0
 10
10.6364611018
 20
8.9267989099
 30
0.0
 10
10.6368589078
 20
8.9307568276
 30
0.0
 10
10.6373362752
 20
8.9355063287
 30
0.0
 10
10.6379727651
 20
8.9418389968
 30
0.0
 10
10.6384501325
 20
8.9465884979
 30
0.0
 10
10.6387683774
 20
8.949754832
 30
0.0
  0
SPLINE
  5
3B4
100
AcDbEntity
  8
0
100
AcDbSpline
 62
4
  6
CONTINUOUS
 70
0
 71
3
 72
403
 73
399
 74
0
 42
0.0000001
 43
0.0000001
 44
0.0000000001
 40
0.0
 40
0.0
 40
0.0
 40
0.0
 40
0.015625
 40
0.0234375
 40
0.03125
 40
0.0390625
 40
0.04296875
 40
0.046875
 40
0.05078125
 40
0.0546875
 40
0.056640625
 40
0.05859375
 40
0.0595703125
 40
0.060546875
 40
0.0615234375
 40
0.0620117188
 40
0.0622558594
 40
0.0625
 40
0.0627441406
 40
0.0629882812
 40
0.0634765625
 40
0.064453125
 40
0.0654296875
 40
0.06640625
 40
0.068359375
 40
0.0703125
 40
0.07421875
 40
0.078125
 40
0.08203125
 40
0.0859375
 40
0.09375
 40
0.1015625
 40
0.10546875
 40
0.109375
 40
0.11328125
 40
0.1171875
 40
0.119140625
 40
0.12109375
 40
0.1220703125
 40
0.123046875
 40
0.1240234375
 40
0.1245117188
 40
0.1247558594
 40
0.125
 40
0.1252441406
 40
0.1254882812
 40
0.1259765625
 40
0.126953125
 40
0.1279296875
 40
0.12890625
 40
0.130859375
 40
0.1328125
 40
0.13671875
 40
0.140625
 40
0.14453125
 40
0.1484375
 40
0.15625
 40
0.1640625
 40
0.16796875
 40
0.171875
 40
0.17578125
 40
0.1796875
 40
0.181640625
 40
0.18359375
 40
0.1845703125
 40
0.185546875
 40
0.1865234375
 40
0.1870117188
 40
0.1872558594
 40
0.1875
 40
0.1877441406
 40
0.1879882812
 40
0.1884765625
 40
0.189453125
 40
0.1904296875
 40
0.19140625
 40
0.193359375
 40
0.1953125
 40
0.19921875
 40
0.203125
 40
0.20703125
 40
0.2109375
 40
0.21875
 40
0.2265625
 40
0.23046875
 40
0.234375
 40
0.23828125
 40
0.2421875
 40
0.244140625
 40
0.24609375
 40
0.2470703125
 40
0.248046875
 40
0.2490234375
 40
0.2495117188
 40
0.2497558594
 40
0.25
 40
0.2502441406
 40
0.2504882812
 40
0.2509765625
 40
0.251953125
 40
0.2529296875
 40
0.25390625
 40
0.255859375
 40
0.2578125
 40
0.26171875
 40
0.265625
 40
0.26953125
 40
0.2734375
 40
0.28125
 40
0.2890625
 40
0.29296875
 40
0.296875
 40
0.30078125
 40
0.3046875
 40
0.306640625
 40
0.30859375
 40
0.3095703125
 40
0.310546875
 40
0.3115234375
 40
0.3120117188
 40
0.3122558594
 40
0.3125
 40
0.3127441406
 40
0.3129882812
 40
0.3134765625
 40
0.314453125
 40
0.3154296875
 40
0.31640625
 40
0.318359375
 40
0.3203125
 40
0.32421875
 40
0.328125
 40
0.33203125
 40
0.3359375
 40
0.34375
 40
0.3515625
 40
0.35546875
 40
0.359375
 40
0.36328125
 40
0.3671875
 40
0.369140625
 40
0.37109375
 40
0.3720703125
 40
0.373046875
 40
0.3740234375
 40
0.3745117188
 40
0.3747558594
 40
0.375
 40
0.3752441406
 40
0.3754882812
 40
0.3759765625
 40
0.376953125
 40
0.3779296875
 40
0.37890625
 40
0.380859375
 40
0.3828125
 40
0.38671875
 40
0.390625
 40
0.39453125
 40
0.3984375
 40
0.40625
 40
0.4140625
 40
0.41796875
 40
0.421875
 40
0.42578125
 40
0.4296875
 40
0.431640625
 40
0.43359375
 40
0.4345703125
 40
0.435546875
 40
0.4365234375
 40
0.4370117188
 40
0.4372558594
 40
0.4375
 40
0.4377441406
 40
0.4379882812
 40
0.4384765625
 40
0.439453125
 40
0.4404296875
 40
0.44140625
 40
0.443359375
 40
0.4453125
 40
0.44921875
 40
0.453125
 40
0.45703125
 40
0.4609375
 40
0.46875
 40
0.4765625
 40
0.48046875
 40
0.484375
 40
0.48828125
 40
0.4921875
 40
0.494140625
 40
0.49609375
 40
0.4970703125
 40
0.498046875
 40
0.4990234375
 40
0.4995117188
 40
0.4997558594
 40
0.5
 40
0.5002441406
 40
0.5004882812
 40
0.5009765625
 40
0.501953125
 40
0.5029296875
 40
0.50390625
 40
0.505859375
 40
0.5078125
 40
0.51171875
 40
0.515625
 40
0.51953125
 40
0.5234375
 40
0.53125
 40
0.5390625
 40
0.54296875
 40
0.546875
 40
0.55078125
 40
0.5546875
 40
0.556640625
 40
0.55859375
 40
0.5595703125
 40
0.560546875
 40
0.5615234375
 40
0.5620117188
 40
0.5622558594
 40
0.5625
 40
0.5627441406
 40
0.5629882812
 40
0.5634765625
 40
0.564453125
 40
0.5654296875
 40
0.56640625
 40
0.568359375
 40
0.5703125
 40
0.57421875
 40
0.578125
 40
0.58203125
 40
0.5859375
 40
0.59375
 40
0.6015625
 40
0.60546875
 40
0.609375
 40
0.61328125
 40
0.6171875
 40
0.619140625
 40
0.62109375
 40
0.6220703125
 40
0.623046875
 40
0.6240234375
 40
0.6245117188
 40
0.6247558594
 40
0.625
 40
0.6252441406
 40
0.6254882812
 40
0.6259765625
 40
0.626953125
 40
0.6279296875
 40
0.62890625
 40
0.630859375
 40
0.6328125
 40
0.63671875
 40
0.640625
 40
0.64453125
 40
0.6484375
 40
0.65625
 40
0.6640625
 40
0.66796875
 40
0.671875
 40
0.67578125
 40
0.6796875
 40
0.681640625
 40
0.68359375
 40
0.6845703125
 40
0.685546875
 40
0.6865234375
 40
0.6870117188
 40
0.6872558594
 40
0.6875
 40
0.6877441406
 40
0.6879882812
 40
0.6884765625
 40
0.689453125
 40
0.6904296875
 40
0.69140625
 40
0.693359375
 40
0.6953125
 40
0.69921875
 40
0.703125
 40
0.70703125
 40
0.7109375
 40
0.71875
 40
0.7265625
 40
0.73046875
 40
0.734375
 40
0.73828125
 40
0.7421875
 40
0.744140625
 40
0.74609375
 40
0.7470703125
 40
0.748046875
 40
0.7490234375
 40
0.7495117188
 40
0.7497558594
 40
0.75
 40
0.7502441406
 40
0.7504882812
 40
0.7509765625
 40
0.751953125
 40
0.7529296875
 40
0.75390625
 40
0.755859375
 40
0.7578125
 40
0.76171875
 40
0.765625
 40
0.76953125
 40
0.7734375
 40
0.78125
 40
0.7890625
 40
0.79296875
 40
0.796875
 40
0.80078125
 40
0.8046875
 40
0.806640625
 40
0.80859375
 40
0.8095703125
 40
0.810546875
 40
0.8115234375
 40
0.8120117188
 40
0.8122558594
 40
0.8125
 40
0.8127441406
 40
0.8129882812
 40
0.8134765625
 40
0.814453125
 40
0.8154296875
 40
0.81640625
 40
0.818359375
 40
0.8203125
 40
0.82421875
 40
0.828125
 40
0.83203125
 40
0.8359375
 40
0.84375
 40
0.8515625
 40
0.85546875
 40
0.859375
 40
0.86328125
 40
0.8671875
 40
0.869140625
 40
0.87109375
 40
0.8720703125
 40
0.873046875
 40
0.8740234375
 40
0.8745117188
 40
0.8747558594
 40
0.875
 40
0.8752441406
 40
0.8754882812
 40
0.8759765625
 40
0.876953125
 40
0.8779296875
 40
0.87890625
 40
0.880859375
 40
0.8828125
 40
0.88671875
 40
0.890625
 40
0.89453125
 40
0.8984375
 40
0.90625
 40
0.9140625
 40
0.91796875
 40
0.921875
 40
0.92578125
 40
0.9296875
 40
0.931640625
 40
0.93359375
 40
0.9345703125
 40
0.935546875
 40
0.9365234375
 40
0.9370117188
 40
0.9372558594
 40
0.9375
 40
0.9377441406
 40
0.9379882812
 40
0.9384765625
 40
0.939453125
 40
0.9404296875
 40
0.94140625
 40
0.943359375
 40
0.9453125
 40
0.94921875
 40
0.953125
 40
0.95703125
 40
0.9609375
 40
0.96875
 40
0.9765625
 40
0.984375
 40
1.0
 40
1.0
 40
1.0
 40
1.0
 10
10.6387683774
 20
8.9497548151
 30
0.0
 10
10.6384611657
 20
8.9529093072
 30
0.0
 10
10.6380003482
 20
8.9576410454
 30
0.0
 10
10.6373859249
 20
8.9639500296
 30
0.0
 10
10.6369251074
 20
8.9686817678
 30
0.0
 10
10.6365410929
 20
8.972624883
 30
0.0
 10
10.636233881
 20
8.975779375
 30
0.0
 10
10.6360034732
 20
8.9781452442
 30
0.0
 10
10.6357730608
 20
8.9805111129
 30
0.0
 10
10.6355810649
 20
8.9824826719
 30
0.0
 10
10.6354274357
 20
8.984059915
 30
0.0
 10
10.6353314916
 20
8.9850457014
 30
0.0
 10
10.6352545666
 20
8.9858343087
 30
0.0
 10
10.6351973373
 20
8.986425824
 30
0.0
 10
10.6351481686
 20
8.9869185633
 30
0.0
 10
10.6351166504
 20
8.9872638538
 30
0.0
 10
10.6350941121
 20
8.9874605802
 30
0.0
 10
10.6350899635
 20
8.987609766
 30
0.0
 10
10.6350370584
 20
8.987752679
 30
0.0
 10
10.6349835252
 20
8.9879454177
 30
0.0
 10
10.6348819182
 20
8.988281691
 30
0.0
 10
10.6347409079
 20
8.9887626144
 30
0.0
 10
10.6345699225
 20
8.9893394943
 30
0.0
 10
10.6343425612
 20
8.9901087472
 30
0.0
 10
10.6340581475
 20
8.9910702861
 30
0.0
 10
10.6336032042
 20
8.9926087636
 30
0.0
 10
10.6330344844
 20
8.9945318551
 30
0.0
 10
10.632352038
 20
8.9968395673
 30
0.0
 10
10.631669587
 20
8.9991472788
 30
0.0
 10
10.6307596539
 20
9.0022242278
 30
0.0
 10
10.629622237
 20
9.0060704139
 30
0.0
 10
10.6284848204
 20
9.0099166
 30
0.0
 10
10.6275748867
 20
9.0129935488
 30
0.0
 10
10.6268924376
 20
9.0153012608
 30
0.0
 10
10.6262099841
 20
9.0176089713
 30
0.0
 10
10.6256412865
 20
9.0195320681
 30
0.0
 10
10.6251862978
 20
9.021070535
 30
0.0
 10
10.6249019997
 20
9.0220321007
 30
0.0
 10
10.6246744013
 20
9.0228012985
 30
0.0
 10
10.6245041403
 20
9.0233783469
 30
0.0
 10
10.6243608634
 20
9.0238587432
 30
0.0
 10
10.6242633027
 20
9.0241959575
 30
0.0
 10
10.6242032862
 20
9.0243871884
 30
0.0
 10
10.6241702955
 20
9.0245347329
 30
0.0
 10
10.624091352
 20
9.0246665238
 30
0.0
 10
10.6240021229
 20
9.02484774
 30
0.0
 10
10.6238385038
 20
9.0251623082
 30
0.0
 10
10.6236086667
 20
9.0256130299
 30
0.0
 10
10.623331191
 20
9.0261533229
 30
0.0
 10
10.622961807
 20
9.0268739138
 30
0.0
 10
10.6224998772
 20
9.0277745838
 30
0.0
 10
10.6217609012
 20
9.0292156942
 30
0.0
 10
10.6208371429
 20
9.031017069
 30
0.0
 10
10.6197286493
 20
9.0331787245
 30
0.0
 10
10.6186201514
 20
9.0353403784
 30
0.0
 10
10.6171421556
 20
9.0382225841
 30
0.0
 10
10.6152946604
 20
9.0418253411
 30
0.0
 10
10.6134471655
 20
9.0454280983
 30
0.0
 10
10.6119691692
 20
9.0483103038
 30
0.0
 10
10.610860673
 20
9.0504719584
 30
0.0
 10
10.6097521726
 20
9.0526336111
 30
0.0
 10
10.6088284356
 20
9.0544349946
 30
0.0
 10
10.6080894162
 20
9.0558760872
 30
0.0
 10
10.6076275968
 20
9.0567768023
 30
0.0
 10
10.6072579861
 20
9.0574973007
 30
0.0
 10
10.6069812031
 20
9.0580378763
 30
0.0
 10
10.6067491985
 20
9.058487714
 30
0.0
 10
10.6065894488
 20
9.0588038603
 30
0.0
 10
10.60649402
 20
9.058982548
 30
0.0
 10
10.6064341198
 20
9.0591221058
 30
0.0
 10
10.6063296058
 20
9.0592404789
 30
0.0
 10
10.6062058155
 20
9.0594056992
 30
0.0
 10
10.605981932
 20
9.0596913917
 30
0.0
 10
10.605665889
 20
9.060101324
 30
0.0
 10
10.605285015
 20
9.0605924722
 30
0.0
 10
10.6047777496
 20
9.0612476056
 30
0.0
 10
10.6041434739
 20
9.0620664302
 30
0.0
 10
10.6031287411
 20
9.0633766011
 30
0.0
 10
10.601860288
 20
9.065014297
 30
0.0
 10
10.6003381601
 20
9.0669795396
 30
0.0
 10
10.5988160281
 20
9.0689447803
 30
0.0
 10
10.5967865201
 20
9.0715651019
 30
0.0
 10
10.5942496346
 20
9.0748405035
 30
0.0
 10
10.5917127494
 20
9.0781159055
 30
0.0
 10
10.589683241
 20
9.0807362266
 30
0.0
 10
10.5881611104
 20
9.0827014684
 30
0.0
 10
10.5866389768
 20
9.0846667067
 30
0.0
 10
10.5853705418
 20
9.0863044162
 30
0.0
 10
10.584355772
 20
9.0876145594
 30
0.0
 10
10.5837215905
 20
9.0884334546
 30
0.0
 10
10.5832141318
 20
9.0890884431
 30
0.0
 10
10.5828338485
 20
9.0895800339
 30
0.0
 10
10.5825159572
 20
9.0899885814
 30
0.0
 10
10.5822953733
 20
9.0902767459
 30
0.0
 10
10.5821662962
 20
9.0904380056
 30
0.0
 10
10.5820780215
 20
9.0905685443
 30
0.0
 10
10.5819571288
 20
9.0906624102
 30
0.0
 10
10.581807316
 20
9.0908003566
 30
0.0
 10
10.5815398427
 20
9.0910358029
 30
0.0
 10
10.5811605094
 20
9.0913752706
 30
0.0
 10
10.5807041232
 20
9.0917812982
 30
0.0
 10
10.5800960226
 20
9.0923231342
 30
0.0
 10
10.5793357549
 20
9.0930002697
 30
0.0
 10
10.578119406
 20
9.0940837755
 30
0.0
 10
10.5765989426
 20
9.0954381273
 30
0.0
 10
10.5747743982
 20
9.0970633625
 30
0.0
 10
10.5729498506
 20
9.0986885942
 30
0.0
 10
10.5705171217
 20
9.1008555711
 30
0.0
 10
10.5674762101
 20
9.1035642917
 30
0.0
 10
10.5644352988
 20
9.1062730126
 30
0.0
 10
10.5620025694
 20
9.108439989
 30
0.0
 10
10.5601780231
 20
9.1100652222
 30
0.0
 10
10.5583534741
 20
9.1116904517
 30
0.0
 10
10.5568330249
 20
9.1130448213
 30
0.0
 10
10.5556166471
 20
9.1141282908
 30
0.0
 10
10.5548564529
 20
9.114805519
 30
0.0
 10
10.5542482014
 20
9.1153471645
 30
0.0
 10
10.5537922762
 20
9.1157537739
 30
0.0
 10
10.5534115005
 20
9.1160914214
 30
0.0
 10
10.5531466021
 20
9.1163301172
 30
0.0
 10
10.5529926638
 20
9.1164628571
 30
0.0
 10
10.5528844434
 20
9.1165727156
 30
0.0
 10
10.5527485735
 20
9.1166431891
 30
0.0
 10
10.5525770581
 20
9.1167508916
 30
0.0
 10
10.5522724126
 20
9.1169329704
 30
0.0
 10
10.5518395539
 20
9.1171964293
 30
0.0
 10
10.551319118
 20
9.1175111476
 30
0.0
 10
10.5506255547
 20
9.1179312723
 30
0.0
 10
10.5497584803
 20
9.1184562568
 30
0.0
 10
10.5483712285
 20
9.1192963279
 30
0.0
 10
10.5466371406
 20
9.1203463838
 30
0.0
 10
10.5445562451
 20
9.1216064651
 30
0.0
 10
10.5424753469
 20
9.1228665425
 30
0.0
 10
10.5397008169
 20
9.1245466471
 30
0.0
 10
10.5362326541
 20
9.1266467774
 30
0.0
 10
10.5327644915
 20
9.128746908
 30
0.0
 10
10.5299899612
 20
9.1304270121
 30
0.0
 10
10.5279090639
 20
9.1316870912
 30
0.0
 10
10.5258281649
 20
9.1329471661
 30
0.0
 10
10.524094088
 20
9.1339972418
 30
0.0
 10
10.5227068138
 20
9.1348372726
 30
0.0
 10
10.5218397964
 20
9.1353623596
 30
0.0
 10
10.521146116
 20
9.1357822741
 30
0.0
 10
10.5206260377
 20
9.1360976345
 30
0.0
 10
10.5201920602
 20
9.1363590844
 30
0.0
 10
10.5198894121
 20
9.1365447496
 30
0.0
 10
10.5197146964
 20
9.1366467057
 30
0.0
 10
10.5195886566
 20
9.1367348305
 30
0.0
 10
10.5194435161
 20
9.1367783936
 30
0.0
 10
10.519256658
 20
9.1368520214
 30
0.0
 10
10.518926552
 20
9.1369736279
 30
0.0
 10
10.5184565951
 20
9.1371511377
 30
0.0
 10
10.5178919521
 20
9.1373625288
 30
0.0
 10
10.5171393373
 20
9.1376449498
 30
0.0
 10
10.5161984859
 20
9.1379977821
 30
0.0
 10
10.5146931699
 20
9.1385624222
 30
0.0
 10
10.5128115091
 20
9.1392681851
 30
0.0
 10
10.5105535229
 20
9.1401151165
 30
0.0
 10
10.5082955349
 20
9.1409620437
 30
0.0
 10
10.5052848848
 20
9.1420912815
 30
0.0
 10
10.501521572
 20
9.1435028281
 30
0.0
 10
10.4977582594
 20
9.144914375
 30
0.0
 10
10.4947476091
 20
9.1460436121
 30
0.0
 10
10.4924896217
 20
9.1468905412
 30
0.0
 10
10.490231633
 20
9.1477374656
 30
0.0
 10
10.48834998
 20
9.1484432503
 30
0.0
 10
10.486844648
 20
9.1490078461
 30
0.0
 10
10.4859038374
 20
9.149360791
 30
0.0
 10
10.4851511389
 20
9.1496429809
 30
0.0
 10
10.4845867519
 20
9.1498550779
 30
0.0
 10
10.4841159937
 20
9.1500303793
 30
0.0
 10
10.4837873182
 20
9.1501559283
 30
0.0
 10
10.4835981682
 20
9.1502232392
 30
0.0
 10
10.4834600675
 20
9.1502862056
 30
0.0
 10
10.4833075876
 20
9.1503014547
 30
0.0
 10
10.4831092967
 20
9.1503384313
 30
0.0
 10
10.4827599508
 20
9.1503953853
 30
0.0
 10
10.482262107
 20
9.1504808025
 30
0.0
 10
10.4816641714
 20
9.1505815677
 30
0.0
 10
10.4808671067
 20
9.1507165276
 30
0.0
 10
10.4798707132
 20
9.1508850198
 30
0.0
 10
10.4782765186
 20
9.1511547234
 30
0.0
 10
10.4762837633
 20
9.1514918131
 30
0.0
 10
10.4738924621
 20
9.1518963378
 30
0.0
 10
10.4715011596
 20
9.1523008579
 30
0.0
 10
10.4683127566
 20
9.1528402196
 30
0.0
 10
10.4643272528
 20
9.1535144212
 30
0.0
 10
10.460341749
 20
9.1541886232
 30
0.0
 10
10.457153346
 20
9.1547279843
 30
0.0
 10
10.4547620437
 20
9.1551325064
 30
0.0
 10
10.4523707417
 20
9.1555370236
 30
0.0
 10
10.4503779888
 20
9.1558741365
 30
0.0
 10
10.4487837894
 20
9.1561437928
 30
0.0
 10
10.447787408
 20
9.1563124053
 30
0.0
 10
10.4469903184
 20
9.1564471183
 30
0.0
 10
10.4463924587
 20
9.1565486379
 30
0.0
 10
10.4458943776
 20
9.1566316948
 30
0.0
 10
10.4455454552
 20
9.1566928623
 30
0.0
 10
10.4453464858
 20
9.1567230878
 30
0.0
 10
10.4451960902
 20
9.1567590741
 30
0.0
 10
10.4450501613
 20
9.1567441551
 30
0.0
 10
10.4448540313
 20
9.1567420195
 30
0.0
 10
10.4445115298
 20
9.1567300092
 30
0.0
 10
10.4440218625
 20
9.1567171768
 30
0.0
 10
10.4434344241
 20
9.1566999266
 30
0.0
 10
10.4426511162
 20
9.1566775729
 30
0.0
 10
10.4416720007
 20
9.1566494095
 30
0.0
 10
10.4401054051
 20
9.1566044716
 30
0.0
 10
10.4381471644
 20
9.1565482569
 30
0.0
 10
10.4357972738
 20
9.1564808175
 30
0.0
 10
10.4334473837
 20
9.1564133731
 30
0.0
 10
10.4303141968
 20
9.1563234491
 30
0.0
 10
10.4263977132
 20
9.1562110433
 30
0.0
 10
10.4224812295
 20
9.156098638
 30
0.0
 10
10.4193480426
 20
9.1560087133
 30
0.0
 10
10.4169981522
 20
9.155941271
 30
0.0
 10
10.4146482628
 20
9.1558738239
 30
0.0
 10
10.4126900187
 20
9.1558176328
 30
0.0
 10
10.4111234299
 20
9.1557726469
 30
0.0
 10
10.4101442972
 20
9.1557446058
 30
0.0
 10
10.4093610246
 20
9.1557220009
 30
0.0
 10
10.4087734782
 20
9.1557055182
 30
0.0
 10
10.4082841488
 20
9.1556902846
 30
0.0
 10
10.407941044
 20
9.1556825608
 30
0.0
 10
10.4077458807
 20
9.1556735571
 30
0.0
 10
10.4075969826
 20
9.1556797346
 30
0.0
 10
10.4074577386
 20
9.1556364862
 30
0.0
 10
10.4072687124
 20
9.1555960619
 30
0.0
 10
10.4069394856
 20
9.1555172868
 30
0.0
 10
10.4064683413
 20
9.1554089506
 30
0.0
 10
10.4059033193
 20
9.1552771495
 30
0.0
 10
10.4051498339
 20
9.1551020426
 30
0.0
 10
10.4042080192
 20
9.1548829441
 30
0.0
 10
10.4027010921
 20
9.1545325065
 30
0.0
 10
10.4008174414
 20
9.1540944183
 30
0.0
 10
10.3985570571
 20
9.1535687301
 30
0.0
 10
10.3962966737
 20
9.1530430372
 30
0.0
 10
10.3932828288
 20
9.152342115
 30
0.0
 10
10.3895155228
 20
9.1514659616
 30
0.0
 10
10.3857482168
 20
9.1505898086
 30
0.0
 10
10.3827343721
 20
9.1498888857
 30
0.0
 10
10.3804739881
 20
9.1493631948
 30
0.0
 10
10.3782136059
 20
9.1488374993
 30
0.0
 10
10.3763299485
 20
9.1483994338
 30
0.0
 10
10.3748230352
 20
9.1480489499
 30
0.0
 10
10.3738811856
 20
9.1478299692
 30
0.0
 10
10.3731277718
 20
9.1476546203
 30
0.0
 10
10.372562531
 20
9.1475235588
 30
0.0
 10
10.372092071
 20
9.1474129085
 30
0.0
 10
10.3717616226
 20
9.1473382645
 30
0.0
 10
10.3715745538
 20
9.1472912212
 30
0.0
 10
10.3714292973
 20
9.1472683041
 30
0.0
 10
10.3713029811
 20
9.1471981207
 30
0.0
 10
10.3711279529
 20
9.1471210298
 30
0.0
 10
10.3708247318
 20
9.1469784392
 30
0.0
 10
10.3703899494
 20
9.1467787543
 30
0.0
 10
10.3698688993
 20
9.1465374135
 30
0.0
 10
10.3691739253
 20
9.1462162262
 30
0.0
 10
10.3683052902
 20
9.1458145364
 30
0.0
 10
10.366915428
 20
9.1451719477
 30
0.0
 10
10.365178116
 20
9.1443686724
 30
0.0
 10
10.3630933349
 20
9.1434047589
 30
0.0
 10
10.3610085556
 20
9.1424408408
 30
0.0
 10
10.3582288492
 20
9.1411556184
 30
0.0
 10
10.3547542164
 20
9.1395490898
 30
0.0
 10
10.3512795835
 20
9.1379425615
 30
0.0
 10
10.3484998774
 20
9.1366573384
 30
0.0
 10
10.3464150972
 20
9.1356934223
 30
0.0
 10
10.3443303193
 20
9.1347295017
 30
0.0
 10
10.3425929972
 20
9.1339262484
 30
0.0
 10
10.3412031557
 20
9.1332836148
 30
0.0
 10
10.3403344678
 20
9.1328820392
 30
0.0
 10
10.3396396021
 20
9.1325606176
 30
0.0
 10
10.3391182214
 20
9.1323199924
 30
0.0
 10
10.3386844734
 20
9.1321180684
 30
0.0
 10
10.3383794057
 20
9.1319794751
 30
0.0
 10
10.3382073361
 20
9.1318959795
 30
0.0
 10
10.3380719323
 20
9.1318454696
 30
0.0
 10
10.3379608073
 20
9.131748662
 30
0.0
 10
10.3378041719
 20
9.1316357344
 30
0.0
 10
10.3375340057
 20
9.131430587
 30
0.0
 10
10.3371459911
 20
9.131141453
 30
0.0
 10
10.3366812566
 20
9.1307928084
 30
0.0
 10
10.3360613022
 20
9.130328537
 30
0.0
 10
10.3352864647
 20
9.1297479964
 30
0.0
 10
10.3340466658
 20
9.128819244
 30
0.0
 10
10.3324969374
 20
9.1276582649
 30
0.0
 10
10.3306372547
 20
9.1262651065
 30
0.0
 10
10.3287775743
 20
9.1248719437
 30
0.0
 10
10.3262979996
 20
9.1230143948
 30
0.0
 10
10.3231985315
 20
9.1206924582
 30
0.0
 10
10.3200990632
 20
9.1183705219
 30
0.0
 10
10.3176194889
 20
9.1165129725
 30
0.0
 10
10.3157598072
 20
9.1151198113
 30
0.0
 10
10.3139001292
 20
9.1137266467
 30
0.0
 10
10.312350386
 20
9.1125656868
 30
0.0
 10
10.3111106173
 20
9.1116368953
 30
0.0
 10
10.3103357028
 20
9.1110564543
 30
0.0
 10
10.3097159066
 20
9.1105919785
 30
0.0
 10
10.3092506886
 20
9.1102439582
 30
0.0
 10
10.3088641869
 20
9.1099528709
 30
0.0
 10
10.30859132
 20
9.1097512104
 30
0.0
 10
10.3084390118
 20
9.1096326959
 30
0.0
 10
10.308314595
 20
9.1095530496
 30
0.0
 10
10.308229113
 20
9.109438085
 30
0.0
 10
10.3081015561
 20
9.1092971184
 30
0.0
 10
10.3078846592
 20
9.1090446869
 30
0.0
 10
10.3075714983
 20
9.1086870714
 30
0.0
 10
10.3071971212
 20
9.1082566483
 30
0.0
 10
10.3066974571
 20
9.1076831995
 30
0.0
 10
10.3060730464
 20
9.1069662349
 30
0.0
 10
10.3050738946
 20
9.1058191774
 30
0.0
 10
10.3038249874
 20
9.104385326
 30
0.0
 10
10.3023262847
 20
9.102664717
 30
0.0
 10
10.3008275858
 20
9.1009441046
 30
0.0
 10
10.2988293193
 20
9.0986499559
 30
0.0
 10
10.2963314866
 20
9.0957822696
 30
0.0
 10
10.2938336536
 20
9.0929145835
 30
0.0
 10
10.2918353876
 20
9.0906204344
 30
0.0
 10
10.2903366871
 20
9.0888998233
 30
0.0
 10
10.2888379905
 20
9.0871792093
 30
0.0
 10
10.2875890644
 20
9.0857453734
 30
0.0
 10
10.286589951
 20
9.0845982843
 30
0.0
 10
10.2859654425
 20
9.0838814
 30
0.0
 10
10.2854659793
 20
9.0833077864
 30
0.0
 10
10.2850909885
 20
9.0828778668
 30
0.0
 10
10.2847797478
 20
9.0825186758
 30
0.0
 10
10.2845594229
 20
9.0822690569
 30
0.0
 10
10.2844373585
 20
9.0821235838
 30
0.0
 10
10.2843350052
 20
9.0820224617
 30
0.0
 10
10.2842739543
 20
9.0818908257
 30
0.0
 10
10.2841781464
 20
9.0817259545
 30
0.0
 10
10.2840171949
 20
9.081432471
 30
0.0
 10
10.2837837548
 20
9.0810158015
 30
0.0
 10
10.2835051289
 20
9.0805146884
 30
0.0
 10
10.283133103
 20
9.0798469252
 30
0.0
 10
10.2826682502
 20
9.0790120884
 30
0.0
 10
10.2819243854
 20
9.0776764238
 30
0.0
 10
10.2809945889
 20
9.0760068176
 30
0.0
 10
10.2798788182
 20
9.074003301
 30
0.0
 10
10.2787630515
 20
9.0719997815
 30
0.0
 10
10.2772753612
 20
9.0693284232
 30
0.0
 10
10.2754157489
 20
9.0659892249
 30
0.0
 10
10.2735561362
 20
9.0626500269
 30
0.0
 10
10.2720684464
 20
9.0599786682
 30
0.0
 10
10.270952678
 20
9.0579751497
 30
0.0
 10
10.2698369139
 20
9.0559716292
 30
0.0
 10
10.2689070969
 20
9.0543020353
 30
0.0
 10
10.2681632739
 20
9.0529663454
 30
0.0
 10
10.2676983148
 20
9.052131573
 30
0.0
 10
10.2673265072
 20
9.0514636776
 30
0.0
 10
10.2670472143
 20
9.0509629684
 30
0.0
 10
10.2668158609
 20
9.0505450353
 30
0.0
 10
10.2666511844
 20
9.0502538075
 30
0.0
 10
10.2665613448
 20
9.0500853222
 30
0.0
 10
10.2664819609
 20
9.0499647877
 30
0.0
 10
10.2664484634
 20
9.0498219702
 30
0.0
 10
10.2663877943
 20
9.0496393195
 30
0.0
 10
10.2662890807
 20
9.0493160594
 30
0.0
 10
10.2661441625
 20
9.0488561526
 30
0.0
 10
10.2659719294
 20
9.048303454
 30
0.0
 10
10.2657417025
 20
9.0475668055
 30
0.0
 10
10.2654541185
 20
9.0466458981
 30
0.0
 10
10.2649938724
 20
9.0451725003
 30
0.0
 10
10.2644186031
 20
9.0433307345
 30
0.0
 10
10.2637282635
 20
9.0411206235
 30
0.0
 10
10.2630379284
 20
9.0389105104
 30
0.0
 10
10.2621174799
 20
9.0359636937
 30
0.0
 10
10.26096692
 20
9.0322801725
 30
0.0
 10
10.2598163596
 20
9.0285966515
 30
0.0
 10
10.2588959118
 20
9.0256498345
 30
0.0
 10
10.2582055747
 20
9.0234397222
 30
0.0
 10
10.2575152423
 20
9.0212296082
 30
0.0
 10
10.2569399508
 20
9.0193878518
 30
0.0
 10
10.25647975
 20
9.0179144348
 30
0.0
 10
10.2561920506
 20
9.0169935762
 30
0.0
 10
10.2559620605
 20
9.0162568275
 30
0.0
 10
10.2557891039
 20
9.0157044352
 30
0.0
 10
10.2556464497
 20
9.0152435701
 30
0.0
 10
10.2555436944
 20
9.0149220206
 30
0.0
 10
10.2554895011
 20
9.014736629
 30
0.0
 10
10.255436112
 20
9.0146022308
 30
0.0
 10
10.2554314374
 20
9.0144500751
 30
0.0
 10
10.2554082124
 20
9.0142533947
 30
0.0
 10
10.2553754856
 20
9.0139063183
 30
0.0
 10
10.255324594
 20
9.0134120036
 30
0.0
 10
10.2552652957
 20
9.0128181801
 30
0.0
 10
10.2551856125
 20
9.012026641
 30
0.0
 10
10.2550862203
 20
9.01103714
 30
0.0
 10
10.2549270745
 20
9.0094539815
 30
0.0
 10
10.2547281829
 20
9.0074750185
 30
0.0
 10
10.2544894955
 20
9.0051002693
 30
0.0
 10
10.2542508128
 20
9.0027255184
 30
0.0
 10
10.2539325675
 20
8.9995591844
 30
0.0
 10
10.2535347615
 20
8.9956012668
 30
0.0
 10
10.2530573941
 20
8.9908517657
 30
0.0
 10
10.2524209043
 20
8.9845190975
 30
0.0
 10
10.2519435369
 20
8.9797695964
 30
0.0
 10
10.2516252919
 20
8.9766032623
 30
0.0
  0
ENDSEC
  0
SECTION
  2
OBJECTS
  0
DICTIONARY
  5
C
100
AcDbDictionary
280
0
281
1
  3
ACAD_GROUP
350
D
  3
ACAD_MLINESTYLE
350
17
  3
ACAD_LAYOUT
350
1A
  3
ACAD_PLOTSETTINGS
350
19
  3
ACAD_PLOTSTYLENAME
350
E
  3
ACAD_IMAGE_DICT
350
       3B6
  3
ACAD_IMAGE_VARS
350
       3B7
  3
ACAD_TABLESTYLE
350
       3B8
  0
IMAGEDEF_REACTOR
  5
3B5
100
AcDbRasterImageDefReactor
 90
2
330
28F
  0
DICTIONARY
  5
D
102
{ACAD_REACTORS
330
C
102
}
100
AcDbDictionary
280
0
281
1
  0
ACDBDICTIONARYWDFLT
  5
E
102
{ACAD_REACTORS
330
C
102
}
100
AcDbDictionary
281
1
  3
Normal
350
F
100
AcDbDictionaryWithDefault
340
F
  0
DICTIONARY
  5
3B6
330
C
100
AcDbDictionary
281
1
  3
J2I_assy_2_img_1
350
       3BB
  0
RASTERVARIABLES
  5
3B7
330
C
100
AcDbRasterVariables
 90
0
 70
0
 71
1
 72
5
  0
DICTIONARY
  5
17
102
{ACAD_REACTORS
330
C
102
}
100
AcDbDictionary
280
0
281
1
  3
Standard
350
18
  0
DICTIONARY
  5
3B8
330
C
100
AcDbDictionary
281
1
  3
Standard
350
       3BC
  3
Standard1
350
       3BD
  0
DICTIONARY
  5
19
102
{ACAD_REACTORS
330
C
102
}
100
AcDbDictionary
281
1
  0
DICTIONARY
  5
1A
102
{ACAD_REACTORS
330
C
102
}
100
AcDbDictionary
281
1
  3
Model
350
3B9
  3
Layout1
350
3BA
  0
ACDBPLACEHOLDER
  5
F
102
{ACAD_REACTORS
330
E
102
}
  0
MLINESTYLE
  5
18
102
{ACAD_REACTORS
330
17
102
}
100
AcDbMlineStyle
  2
STANDARD
 70
0
  3

 62
256
 51
90.0
 52
90.0
 71
2
 49
0.5
 62
256
  6
BYLAYER
 49
-0.5
 62
256
  6
BYLAYER
  0
LAYOUT
  5
3B9
102
{ACAD_REACTORS
330
1A
102
}
100
AcDbPlotSettings
  1

  2
none_device
  4
ANSI_C_(22.00_x_17.00_Inches)
  6

 40
0.0
 41
0.0
 42
0.0
 43
0.0
 44
558.8
 45
431.8
 46
0.0
 47
0.0
 48
0.0
 49
0.0
140
0.0
141
0.0
142
1.0
143
1.0
 70
1024
 72
0
 73
0
 74
0
  7

 75
0
147
1.0
148
0.0
149
0.0
100
AcDbLayout
  1
Model
 70
0
 71
0
 10
0.0
 20
0.0
 11
22.0
 21
17.0
 12
0.0
 22
0.0
 32
0.0
 14
0.0
 24
0.0
 34
0.0
 15
0.0
 25
0.0
 35
0.0
146
0.0
 13
0.0
 23
0.0
 33
0.0
 16
1.0
 26
0.0
 36
0.0
 17
0.0
 27
1.0
 37
0.0
 76
0
330
20C
345
0
346
0
  0
LAYOUT
  5
3BA
102
{ACAD_REACTORS
330
1A
102
}
100
AcDbPlotSettings
  1

  2
none_device
  4
ANSI_C_(22.00_x_17.00_Inches)
  6

 40
0.0
 41
0.0
 42
0.0
 43
0.0
 44
558.8
 45
431.8
 46
0.0
 47
0.0
 48
0.0
 49
0.0
140
0.0
141
0.0
142
1.0
143
1.0
 70
0
 72
0
 73
0
 74
0
  7

 75
0
147
1.0
148
0.0
149
0.0
100
AcDbLayout
  1
Layout1
 70
0
 71
1
 10
0.0
 20
0.0
 11
22.0
 21
17.0
 12
0.0
 22
0.0
 32
0.0
 14
0.0
 24
0.0
 34
0.0
 15
0.0
 25
0.0
 35
0.0
146
0.0
 13
0.0
 23
0.0
 33
0.0
 16
1.0
 26
0.0
 36
0.0
 17
0.0
 27
1.0
 37
0.0
 76
0
330
20D
345
0
346
0
  0
IMAGEDEF
  5
3BB
102
{ACAD_REACTORS
330
3B6
330
3B5
102
}
100
AcDbRasterImageDef
 90
0
  1
J2I_assy_2_img_1.png
 10
369.0
 20
92.0
 11
0.0066666667
 21
0.0066666667
280
1
281
0
  0
TABLESTYLE
  5
3BC
102
{ACAD_REACTORS
330
3B8
330
292
330
293
102
}
330
3B8
100
AcDbTableStyle
  3
Standard
 70
0
 71
0
 40
0.06
 41
0.06
280
1
281
1
  7
Standard
140
0.18
170
1
 62
0
 63
7
283
0
  7
Standard
140
0.18
170
1
 62
0
 63
7
283
0
  7
Standard
140
0.18
170
1
 62
0
 63
7
283
0
  0
TABLESTYLE
  5
3BD
102
{ACAD_REACTORS
330
3B8
330
291
102
}
330
3B8
100
AcDbTableStyle
  3
Standard1
 70
1
 71
0
 40
0.06
 41
0.06
280
1
281
1
  7
Standard
140
0.18
170
1
 62
0
 63
7
283
0
  7
Standard
140
0.18
170
1
 62
0
 63
7
283
0
  7
Standard
140
0.18
170
1
 62
0
 63
7
283
0
  0
ENDSEC
  0
EOF
