999
DXF file: INX_assy_2.dxf
999
Pro/ENGINEER 2014200 by Parametric Technology Corporation
  0
SECTION
  2
HEADER
  9
$ACADVER
  1
AC1021
  9
$DWGCODEPAGE
  3
ANSI_1252
  9
$EXTMAX
 10
22.0
 20
17.0
 30
0.0
  9
$EXTMIN
 10
0.0
 20
0.0
 30
0.0
  9
$LIMMIN
 10
0.0
 20
0.0
  9
$LIMMAX
 10
22.0
 20
17.0
  9
$VIEWCTR
 10
11.0
 20
8.5
  9
$VIEWSIZE
 40
17.0
  9
$CLAYER
  8
0
  9
$LTSCALE
 40
1.21
  9
$CELTYPE
  6
BYLAYER
  9
$DIMSCALE
 40
1.0
  9
$DIMASZ
 40
0.1875
  9
$DIMEXO
 40
0.0625
  9
$DIMDLI
 40
0.836
  9
$DIMEXE
 40
0.125
  9
$DIMCEN
 40
0.198
  9
$DIMLFAC
 40
1.0
  9
$DIMBLK
  1
_FILLED
  9
$DIMTXT
 40
0.1
  9
$DIMTOL
 70
0
  9
$DIMLIM
 70
0
  9
$DIMTFAC
 40
1.0
  9
$DIMGAP
 40
0.09
  9
$DIMDSEP
 70
46
  9
$AUNITS
 70
0
  9
$PDMODE
 70
3
  9
$PDSIZE
 40
0.3125
  9
$HANDSEED
  5
39C
  9
$TILEMODE
 70
1
  9
$MEASUREMENT
 70
0
  9
$INSUNITS
 70
1
  0
ENDSEC
  0
SECTION
  2
CLASSES
  0
CLASS
  1
ACDBDICTIONARYWDFLT
  2
AcDbDictionaryWithDefault
  3
AutoCAD 2000
 90
0
 91
1
280
0
281
0
  0
CLASS
  1
ACDBPLACEHOLDER
  2
AcDbPlaceHolder
  3
AutoCAD 2000
 90
0
 91
1
280
0
281
0
  0
CLASS
  1
LAYOUT
  2
AcDbLayout
  3
AutoCAD 2000
 90
0
 91
0
280
0
281
0
  0
CLASS
  1
RASTERVARIABLES
  2
AcDbRasterVariables
  3
ISM
 90
0
 91
1
280
0
281
0
  0
CLASS
  1
IMAGEDEF
  2
AcDbRasterImageDef
  3
ISM
 90
0
 91
1
280
0
281
0
  0
CLASS
  1
IMAGEDEF_REACTOR
  2
AcDbRasterImageDefReactor
  3
ISM
 90
0
 91
1
280
0
281
0
  0
CLASS
  1
IMAGE
  2
AcDbRasterImage
  3
ISM
 90
127
 91
1
280
0
281
1
  0
CLASS
  1
TABLESTYLE
  2
AcDbTableStyle
  3
ObjectDBX Classes
 90
2047
 91
1
280
0
281
0
  0
CLASS
  1
ACAD_TABLE
  2
AcDbTable
  3
ObjectDBX Classes
 90
1025
 91
3
280
0
281
1
  0
ENDSEC
  0
SECTION
  2
TABLES
  0
TABLE
  2
VPORT
  5
8
100
AcDbSymbolTable
 70
2
  0
VPORT
  5
1F4
100
AcDbSymbolTableRecord
100
AcDbViewportTableRecord
  2
*ACTIVE
 70
0
 10
0.0
 20
0.0
 11
1.0
 21
1.0
 12
11.0
 22
8.5
 13
0.0
 23
0.0
 14
1.0
 24
1.0
 15
0.0
 25
0.0
 16
0.0
 26
0.0
 36
1.0
 17
0.0
 27
0.0
 37
0.0
 40
17.0
 41
1.2941176471
 42
50.0
 43
0.0
 44
0.0
 50
0.0
 51
0.0
 71
0
 72
100
 73
1
 74
1
 75
0
 76
0
 77
0
 78
0
  0
ENDTAB
  0
TABLE
  2
LTYPE
  5
5
100
AcDbSymbolTable
 70
6
  0
LTYPE
  5
14
100
AcDbSymbolTableRecord
100
AcDbLinetypeTableRecord
  2
BYBLOCK
 70
0
  3

 72
65
 73
0
 40
0.0
  0
LTYPE
  5
15
100
AcDbSymbolTableRecord
100
AcDbLinetypeTableRecord
  2
BYLAYER
 70
0
  3

 72
65
 73
0
 40
0.0
  0
LTYPE
  5
16
100
AcDbSymbolTableRecord
100
AcDbLinetypeTableRecord
  2
CONTINUOUS
 70
64
  3
Solid line
 72
65
 73
0
 40
0.0
  0
LTYPE
  5
1F5
100
AcDbSymbolTableRecord
100
AcDbLinetypeTableRecord
  2
CENTER
 70
64
  3
____ _ ____ _ ____ _ ____ _ ____ _ ____ _ ____
 72
65
 73
4
 40
0.6
 49
0.375
 74
0
 49
-0.075
 74
0
 49
0.075
 74
0
 49
-0.075
 74
0
  0
LTYPE
  5
1F6
100
AcDbSymbolTableRecord
100
AcDbLinetypeTableRecord
  2
HIDDEN
 70
64
  3
- - - - - - - - - - - - - - - - - - - -
 72
65
 73
2
 40
0.2
 49
0.1
 74
0
 49
-0.1
 74
0
  0
LTYPE
  5
1F7
100
AcDbSymbolTableRecord
100
AcDbLinetypeTableRecord
  2
PHANTOM
 70
64
  3
_____ _ _ _____ _ _ _____ _ _ _____
 72
65
 73
6
 40
0.8
 49
0.45
 74
0
 49
-0.05
 74
0
 49
0.1
 74
0
 49
-0.05
 74
0
 49
0.1
 74
0
 49
-0.05
 74
0
  0
LTYPE
  5
1F8
100
AcDbSymbolTableRecord
100
AcDbLinetypeTableRecord
  2
DOT
 70
64
  3
. . . . . . . . . . . . . . . . . . . .
 72
65
 73
2
 40
0.2
 49
0.1
 74
0
 49
-0.1
 74
0
  0
LTYPE
  5
1F9
100
AcDbSymbolTableRecord
100
AcDbLinetypeTableRecord
  2
DASHED
 70
64
  3
- - - - - - - - - - - - - - - - - - - -
 72
65
 73
2
 40
0.2
 49
0.1
 74
0
 49
-0.1
 74
0
  0
ENDTAB
  0
TABLE
  2
LAYER
  5
2
100
AcDbSymbolTable
 70
36
  0
LAYER
  5
10
100
AcDbSymbolTableRecord
100
AcDbLayerTableRecord
  2
0
 70
0
 62
7
  6
CONTINUOUS
370
-3
390
F
  0
LAYER
  5
1FA
100
AcDbSymbolTableRecord
100
AcDbLayerTableRecord
  2
DEFAULT_1
 70
0
 62
7
  6
CENTER
370
-3
390
F
  0
LAYER
  5
1FB
100
AcDbSymbolTableRecord
100
AcDbLayerTableRecord
  2
DEFAULT_2
 70
0
 62
8
  6
HIDDEN
370
-3
390
F
  0
LAYER
  5
1FC
100
AcDbSymbolTableRecord
100
AcDbLayerTableRecord
  2
DEFAULT_3
 70
0
 62
7
  6
PHANTOM
370
-3
390
F
  0
LAYER
  5
1FD
100
AcDbSymbolTableRecord
100
AcDbLayerTableRecord
  2
01___PRT_ALL_DTM_PLN
 70
0
 62
7
  6
CONTINUOUS
370
-3
390
F
  0
LAYER
  5
1FE
100
AcDbSymbolTableRecord
100
AcDbLayerTableRecord
  2
01___PRT_DEF_DTM_PLN
 70
0
 62
7
  6
CONTINUOUS
370
-3
390
F
  0
LAYER
  5
1FF
100
AcDbSymbolTableRecord
100
AcDbLayerTableRecord
  2
02___PRT_ALL_AXES
 70
0
 62
7
  6
CONTINUOUS
370
-3
390
F
  0
LAYER
  5
200
100
AcDbSymbolTableRecord
100
AcDbLayerTableRecord
  2
03___PRT_ALL_CURVES
 70
0
 62
7
  6
CONTINUOUS
370
-3
390
F
  0
LAYER
  5
201
100
AcDbSymbolTableRecord
100
AcDbLayerTableRecord
  2
04___PRT_ALL_DTM_PNT
 70
0
 62
7
  6
CONTINUOUS
370
-3
390
F
  0
LAYER
  5
202
100
AcDbSymbolTableRecord
100
AcDbLayerTableRecord
  2
05___PRT_ALL_DTM_CSYS
 70
0
 62
7
  6
CONTINUOUS
370
-3
390
F
  0
LAYER
  5
203
100
AcDbSymbolTableRecord
100
AcDbLayerTableRecord
  2
05___PRT_DEF_DTM_CSYS
 70
0
 62
7
  6
CONTINUOUS
370
-3
390
F
  0
LAYER
  5
204
100
AcDbSymbolTableRecord
100
AcDbLayerTableRecord
  2
06___PRT_ALL_SURFS
 70
0
 62
7
  6
CONTINUOUS
370
-3
390
F
  0
LAYER
  5
205
100
AcDbSymbolTableRecord
100
AcDbLayerTableRecord
  2
DATUM_PLANES
 70
0
 62
7
  6
CONTINUOUS
370
-3
390
F
  0
LAYER
  5
206
100
AcDbSymbolTableRecord
100
AcDbLayerTableRecord
  2
PORT_AREAS
 70
0
 62
7
  6
CONTINUOUS
370
-3
390
F
  0
LAYER
  5
207
100
AcDbSymbolTableRecord
100
AcDbLayerTableRecord
  2
SUNNBOMCOSMETIC
 70
0
 62
7
  6
CONTINUOUS
370
-3
390
F
  0
LAYER
  5
208
100
AcDbSymbolTableRecord
100
AcDbLayerTableRecord
  2
SUNNBOMSTAMPING
 70
0
 62
7
  6
CONTINUOUS
370
-3
390
F
  0
LAYER
  5
209
100
AcDbSymbolTableRecord
100
AcDbLayerTableRecord
  2
THREADS
 70
0
 62
7
  6
CONTINUOUS
370
-3
390
F
  0
ENDTAB
  0
TABLE
  2
STYLE
  5
3
100
AcDbSymbolTable
 70
1
  0
STYLE
  5
11
100
AcDbSymbolTableRecord
100
AcDbTextStyleTableRecord
  2
STANDARD
 70
0
 40
0.0
 41
0.8
 50
0.0
 71
0
 42
0.2
  3
txt
  4

  0
STYLE
  5
20A
100
AcDbSymbolTableRecord
100
AcDbTextStyleTableRecord
  2
TEXTSTYLE_1
 70
0
 40
0.0
 41
0.8
 50
0.0
 71
0
 42
0.2
  3
gdt
  4

  0
ENDTAB
  0
TABLE
  2
VIEW
  5
6
100
AcDbSymbolTable
 70
0
  0
ENDTAB
  0
TABLE
  2
UCS
  5
7
100
AcDbSymbolTable
 70
0
  0
ENDTAB
  0
TABLE
  2
APPID
  5
9
100
AcDbSymbolTable
 70
1
  0
APPID
  5
20B
100
AcDbSymbolTableRecord
100
AcDbRegAppTableRecord
  2
ACAD
 70
0
  0
ENDTAB
  0
TABLE
  2
BLOCK_RECORD
  5
1
100
AcDbSymbolTable
 70
0
  0
BLOCK_RECORD
  5
20C
100
AcDbSymbolTableRecord
100
AcDbBlockTableRecord
  2
*Model_Space
  0
BLOCK_RECORD
  5
20D
100
AcDbSymbolTableRecord
100
AcDbBlockTableRecord
  2
*Paper_Space
  0
BLOCK_RECORD
  5
20E
100
AcDbSymbolTableRecord
100
AcDbBlockTableRecord
  2
SUN_FIRST_THIRD_ANGLE_BL0
  0
BLOCK_RECORD
  5
20F
100
AcDbSymbolTableRecord
100
AcDbBlockTableRecord
  2
*T1
  0
BLOCK_RECORD
  5
210
100
AcDbSymbolTableRecord
100
AcDbBlockTableRecord
  2
*T2
  0
BLOCK_RECORD
  5
211
100
AcDbSymbolTableRecord
100
AcDbBlockTableRecord
  2
*T3
  0
ENDTAB
  0
TABLE
  2
DIMSTYLE
  5
A
100
AcDbSymbolTable
 70
1
100
AcDbDimStyleTable
 71
0
  0
DIMSTYLE
105
212
100
AcDbSymbolTableRecord
100
AcDbDimStyleTableRecord
  2
STANDARD
 70
0
  3

  4

 40
1.0
 41
0.1875
 42
0.0625
 43
0.38
 44
0.125
 45
0.0
 46
0.0
 47
0.001
 48
0.001
140
0.1
141
0.09
142
0.0
143
25.4
144
1.0
145
0.0
146
1.0
147
0.09
 71
0.0
 72
0.0
 73
1
 74
1
 75
0
 76
0
 77
0
 78
4
170
0
171
2
172
0
173
0
174
0
175
0
176
0
177
0
178
0
270
2
271
3
272
3
273
2
274
2
275
0
280
0
281
0
282
0
283
1
284
4
285
0
286
0
287
3
288
0
340
11
278
46
  0
ENDTAB
  0
ENDSEC
  0
SECTION
  2
BLOCKS
  0
BLOCK
  5
20
100
AcDbEntity
  8
0
100
AcDbBlockBegin
  2
*Model_Space
 70
0
 10
0.0
 20
0.0
 30
0.0
  3
*Model_Space
  1

  0
ENDBLK
  5
21
100
AcDbEntity
  8
0
100
AcDbBlockEnd
  0
BLOCK
  5
1C
100
AcDbEntity
  8
0
100
AcDbBlockBegin
  2
*Paper_Space
 70
0
 10
0.0
 20
0.0
 30
0.0
  3
*Paper_Space
  1

  0
ENDBLK
  5
1D
100
AcDbEntity
  8
0
100
AcDbBlockEnd
  0
BLOCK
  5
213
100
AcDbEntity
  8
0
100
AcDbBlockBegin
 62
2
  6
CONTINUOUS
  2
SUN_FIRST_THIRD_ANGLE_BL0
 70
64
 10
20.4816717061
 20
1.2289683772
  3
SUN_FIRST_THIRD_ANGLE_BL0
  1

  0
TEXT
  5
214
100
AcDbEntity
  8
0
100
AcDbText
 62
2
  6
CONTINUOUS
 10
19.4750896608
 20
1.4136269581
  7
STANDARD
 40
0.08
  1
FIRST ANGLE
 41
0.8
 72
0
100
AcDbText
  0
TEXT
  5
215
100
AcDbEntity
  8
0
100
AcDbText
 62
2
  6
CONTINUOUS
 10
20.7842537513
 20
1.4047600029
  7
STANDARD
 40
0.08
  1
THIRD ANGLE
 41
0.8
 72
0
100
AcDbText
  0
LINE
  5
216
100
AcDbEntity
  8
0
100
AcDbLine
 62
7
  6
CONTINUOUS
 10
19.4767170086
 20
1.1727031207
 11
19.6334271527
 21
1.1717972817
  0
LINE
  5
217
100
AcDbEntity
  8
0
100
AcDbLine
 62
7
  6
CONTINUOUS
 10
19.6596964832
 20
1.1717972817
 11
19.6950230232
 21
1.171593082
  0
LINE
  5
218
100
AcDbEntity
  8
0
100
AcDbLine
 62
7
  6
CONTINUOUS
 10
19.7194818561
 20
1.1708914427
 11
19.8852396156
 21
1.1699333054
  0
LINE
  5
219
100
AcDbEntity
  8
0
100
AcDbLine
 62
7
  6
CONTINUOUS
 10
19.4758111696
 20
1.2723454088
 11
19.88525039
 21
1.3511534004
  0
LINE
  5
21A
100
AcDbEntity
  8
0
100
AcDbLine
 62
7
  6
CONTINUOUS
 10
19.88525039
 20
1.3511534004
 11
19.8831348489
 21
0.9851647912
  0
LINE
  5
21B
100
AcDbEntity
  8
0
100
AcDbLine
 62
7
  6
CONTINUOUS
 10
19.8831348489
 20
0.9851647912
 11
19.4767170086
 21
1.0658141206
  0
LINE
  5
21C
100
AcDbEntity
  8
0
100
AcDbLine
 62
7
  6
CONTINUOUS
 10
19.4767170086
 20
1.0658141206
 11
19.4779056764
 21
1.2714536432
  0
CIRCLE
  5
21D
100
AcDbEntity
  8
0
100
AcDbCircle
 62
7
  6
CONTINUOUS
 10
20.2068232291
 20
1.1717972817
 40
0.175742101
  0
CIRCLE
  5
21E
100
AcDbEntity
  8
0
100
AcDbCircle
 62
7
  6
CONTINUOUS
 10
20.2068232291
 20
1.1717972817
 40
0.1005522074
  0
LINE
  5
21F
100
AcDbEntity
  8
0
100
AcDbLine
 62
7
  6
CONTINUOUS
 10
20.2077290681
 20
1.3756110529
 11
20.2071171714
 21
1.2379342989
  0
LINE
  5
220
100
AcDbEntity
  8
0
100
AcDbLine
 62
7
  6
CONTINUOUS
 10
20.2077290681
 20
1.2016899681
 11
20.2074674401
 21
1.1428236749
  0
LINE
  5
221
100
AcDbEntity
  8
0
100
AcDbLine
 62
7
  6
CONTINUOUS
 10
20.208634907
 20
1.101141841
 11
20.2080230104
 21
0.963465087
  0
LINE
  5
222
100
AcDbEntity
  8
0
100
AcDbLine
 62
7
  6
CONTINUOUS
 10
20.0066328138
 20
1.1745147986
 11
20.1443095678
 21
1.1739029019
  0
LINE
  5
223
100
AcDbEntity
  8
0
100
AcDbLine
 62
7
  6
CONTINUOUS
 10
20.1832714155
 20
1.1727031207
 11
20.238153505
 21
1.172335442
  0
LINE
  5
224
100
AcDbEntity
  8
0
100
AcDbLine
 62
7
  6
CONTINUOUS
 10
20.2756669918
 20
1.1717972817
 11
20.407916871
 21
1.1712095044
  0
CIRCLE
  5
225
100
AcDbEntity
  8
0
100
AcDbCircle
 62
7
  6
CONTINUOUS
 10
20.7509457401
 20
1.1693297793
 40
0.1722024983
  0
CIRCLE
  5
226
100
AcDbEntity
  8
0
100
AcDbCircle
 62
7
  6
CONTINUOUS
 10
20.7509457401
 20
1.1693297793
 40
0.0985164967
  0
LINE
  5
227
100
AcDbEntity
  8
0
100
AcDbLine
 62
7
  6
CONTINUOUS
 10
20.7169767782
 20
1.170462078
 11
20.7825395137
 21
1.1682766535
  0
LINE
  5
228
100
AcDbEntity
  8
0
100
AcDbLine
 62
7
  6
CONTINUOUS
 10
20.8177513651
 20
1.1693297793
 11
20.947965719
 21
1.1693297793
  0
LINE
  5
229
100
AcDbEntity
  8
0
100
AcDbLine
 62
7
  6
CONTINUOUS
 10
20.6875370113
 20
1.170462078
 11
20.5573226574
 21
1.170462078
  0
LINE
  5
22A
100
AcDbEntity
  8
0
100
AcDbLine
 62
7
  6
CONTINUOUS
 10
20.7486811426
 20
1.1987695462
 11
20.7486811426
 21
1.1432869085
  0
LINE
  5
22B
100
AcDbEntity
  8
0
100
AcDbLine
 62
7
  6
CONTINUOUS
 10
20.7498134414
 20
1.1059210505
 11
20.7498134414
 21
0.9757066966
  0
LINE
  5
22C
100
AcDbEntity
  8
0
100
AcDbLine
 62
7
  6
CONTINUOUS
 10
20.7486811426
 20
1.2338708068
 11
20.7486811426
 21
1.3640851607
  0
LINE
  5
22D
100
AcDbEntity
  8
0
100
AcDbLine
 62
7
  6
CONTINUOUS
 10
21.0702539817
 20
1.2701043662
 11
21.4790138229
 21
1.3448360823
  0
LINE
  5
22E
100
AcDbEntity
  8
0
100
AcDbLine
 62
7
  6
CONTINUOUS
 10
21.4790138229
 20
1.3448360823
 11
21.4790138229
 21
0.9779712941
  0
LINE
  5
22F
100
AcDbEntity
  8
0
100
AcDbLine
 62
7
  6
CONTINUOUS
 10
21.4790138229
 20
0.9779712941
 11
21.069121683
 21
1.0617614
  0
LINE
  5
230
100
AcDbEntity
  8
0
100
AcDbLine
 62
7
  6
CONTINUOUS
 10
21.0702539817
 20
1.2701043662
 11
21.069121683
 21
1.0617614
  0
LINE
  5
231
100
AcDbEntity
  8
0
100
AcDbLine
 62
7
  6
CONTINUOUS
 10
21.4790138229
 20
1.1693297793
 11
21.3159628059
 21
1.1693297793
  0
LINE
  5
232
100
AcDbEntity
  8
0
100
AcDbLine
 62
7
  6
CONTINUOUS
 10
21.2876553377
 20
1.1693297793
 11
21.2502894796
 21
1.1693297793
  0
LINE
  5
233
100
AcDbEntity
  8
0
100
AcDbLine
 62
7
  6
CONTINUOUS
 10
21.2208497126
 20
1.1659328831
 11
21.0713862804
 21
1.1659328831
  0
LINE
  5
234
100
AcDbEntity
  8
0
100
AcDbLine
 62
7
  6
CONTINUOUS
 10
20.4796138713
 20
1.5284908897
 11
20.4766766948
 21
0.9294458646
  0
ENDBLK
  5
235
100
AcDbEntity
  8
0
  6
BYBLOCK
 62
0
100
AcDbBlockEnd
  0
BLOCK
  5
236
100
AcDbEntity
  8
0
100
AcDbBlockBegin
  2
*T1
 70
1
 10
0.0
 20
0.0
  3
*T1
  1

  0
LINE
  5
237
100
AcDbEntity
  8
0
100
AcDbLine
 62
2
  6
CONTINUOUS
 10
9.275
 20
0.0
 11
-0.0
 21
0.0
  0
LINE
  5
238
100
AcDbEntity
  8
0
100
AcDbLine
 62
2
  6
CONTINUOUS
 10
9.275
 20
0.0
 11
9.275
 21
1.25
  0
LINE
  5
239
100
AcDbEntity
  8
0
100
AcDbLine
 62
2
  6
CONTINUOUS
 10
9.275
 20
0.625
 11
-0.0
 21
0.625
  0
LINE
  5
23A
100
AcDbEntity
  8
0
100
AcDbLine
 62
2
  6
CONTINUOUS
 10
9.275
 20
1.25
 11
-0.0
 21
1.25
  0
LINE
  5
23B
100
AcDbEntity
  8
0
100
AcDbLine
 62
2
  6
CONTINUOUS
 10
6.8
 20
0.0
 11
6.8
 21
1.25
  0
LINE
  5
23C
100
AcDbEntity
  8
0
100
AcDbLine
 62
2
  6
CONTINUOUS
 10
6.4
 20
0.0
 11
6.4
 21
0.625
  0
LINE
  5
23D
100
AcDbEntity
  8
0
100
AcDbLine
 62
2
  6
CONTINUOUS
 10
5.9
 20
0.0
 11
5.9
 21
0.625
  0
LINE
  5
23E
100
AcDbEntity
  8
0
100
AcDbLine
 62
2
  6
CONTINUOUS
 10
5.2
 20
0.0
 11
5.2
 21
0.625
  0
LINE
  5
23F
100
AcDbEntity
  8
0
100
AcDbLine
 62
2
  6
CONTINUOUS
 10
4.1
 20
0.0
 11
4.1
 21
1.25
  0
LINE
  5
240
100
AcDbEntity
  8
0
100
AcDbLine
 62
2
  6
CONTINUOUS
 10
-0.0
 20
0.0
 11
-0.0
 21
1.25
  0
MTEXT
  5
241
100
AcDbEntity
  8
0
100
AcDbMText
 62
2
  6
CONTINUOUS
  7
STANDARD
 71
2
 72
1
 10
6.6
 20
0.325
 30
0.0
 11
1.0
 21
0.0
 31
0.0
 44
0.9
  1
2
 40
0.125
 41
0.2
  0
MTEXT
  5
242
100
AcDbEntity
  8
0
100
AcDbMText
 62
2
  6
CONTINUOUS
  7
STANDARD
 71
2
 72
1
 10
6.15
 20
0.325
 30
0.0
 11
1.0
 21
0.0
 31
0.0
 44
0.9
  1
C
 40
0.125
 41
0.2
  0
MTEXT
  5
243
100
AcDbEntity
  8
0
100
AcDbMText
 62
2
  6
CONTINUOUS
  7
STANDARD
 71
2
 72
1
 10
5.55
 20
0.325
 30
0.0
 11
1.0
 21
0.0
 31
0.0
 44
0.9
  1
1.000
 40
0.125
 41
1.0
  0
MTEXT
  5
244
100
AcDbEntity
  8
0
100
AcDbMText
 62
2
  6
CONTINUOUS
  7
STANDARD
 71
2
 72
1
 10
4.65
 20
0.325
 30
0.0
 11
1.0
 21
0.0
 31
0.0
 44
0.9
  1
Nov-30-20
 40
0.125
 41
1.8
  0
MTEXT
  5
245
100
AcDbEntity
  8
0
100
AcDbMText
 62
2
  6
CONTINUOUS
  7
STANDARD
 71
2
 72
1
 10
2.05
 20
0.4625
 30
0.0
 11
1.0
 21
0.0
 31
0.0
 44
0.9
  1
T-16A Line mount\PNinety degree with reverse flow check
 40
0.125
 41
7.4
  0
MTEXT
  5
246
100
AcDbEntity
  8
0
100
AcDbMText
 62
2
  6
CONTINUOUS
  7
STANDARD
 71
1
 72
1
 10
6.45
 20
0.5625
 30
0.0
 11
1.0
 21
0.0
 31
0.0
 44
0.9
  1
SHEET
 40
0.06
 41
0.48
  0
MTEXT
  5
247
100
AcDbEntity
  8
0
100
AcDbMText
 62
2
  6
CONTINUOUS
  7
STANDARD
 71
1
 72
1
 10
5.95
 20
0.5625
 30
0.0
 11
1.0
 21
0.0
 31
0.0
 44
0.9
  1
DWG SIZE
 40
0.06
 41
0.768
  0
MTEXT
  5
248
100
AcDbEntity
  8
0
100
AcDbMText
 62
2
  6
CONTINUOUS
  7
STANDARD
 71
1
 72
1
 10
5.25
 20
0.5625
 30
0.0
 11
1.0
 21
0.0
 31
0.0
 44
0.9
  1
SCALE
 40
0.06
 41
0.48
  0
MTEXT
  5
249
100
AcDbEntity
  8
0
100
AcDbMText
 62
2
  6
CONTINUOUS
  7
STANDARD
 71
1
 72
1
 10
4.15
 20
0.5625
 30
0.0
 11
1.0
 21
0.0
 31
0.0
 44
0.9
  1
DATE
 40
0.06
 41
0.384
  0
MTEXT
  5
24A
100
AcDbEntity
  8
0
100
AcDbMText
 62
2
  6
CONTINUOUS
  7
STANDARD
 71
1
 72
1
 10
0.05
 20
0.5625
 30
0.0
 11
1.0
 21
0.0
 31
0.0
 44
0.9
  1
DESCRIPTION
 40
0.06
 41
1.056
  0
MTEXT
  5
24B
100
AcDbEntity
  8
0
100
AcDbMText
 62
2
  6
CONTINUOUS
  7
STANDARD
 71
2
 72
1
 10
5.45
 20
1.0375
 30
0.0
 11
1.0
 21
0.0
 31
0.0
 44
0.9
  1
ALL DIMENSIONS IN INCH\PVIEWS ARE THIRD ANGLE
 40
0.12
 41
4.224
  0
MTEXT
  5
24C
100
AcDbEntity
  8
0
100
AcDbMText
 62
2
  6
CONTINUOUS
  7
STANDARD
 71
2
 72
1
 10
2.05
 20
0.95
 30
0.0
 11
1.0
 21
0.0
 31
0.0
 44
0.9
  1
INX
 40
0.125
 41
0.6
  0
MTEXT
  5
24D
100
AcDbEntity
  8
0
100
AcDbMText
 62
2
  6
CONTINUOUS
  7
STANDARD
 71
1
 72
1
 10
0.05
 20
1.1875
 30
0.0
 11
1.0
 21
0.0
 31
0.0
 44
0.9
  1
MODEL
 40
0.06
 41
0.48
  0
ENDBLK
  5
24E
100
AcDbEntity
  8
0
  6
BYBLOCK
 62
0
100
AcDbBlockEnd
  0
BLOCK
  5
24F
100
AcDbEntity
  8
0
100
AcDbBlockBegin
  2
*T2
 70
1
 10
0.0
 20
0.0
  3
*T2
  1

  0
LINE
  5
250
100
AcDbEntity
  8
0
100
AcDbLine
 62
2
  6
CONTINUOUS
 10
0.0
 20
0.0
 11
9.055
 21
0.0
  0
LINE
  5
251
100
AcDbEntity
  8
0
100
AcDbLine
 62
2
  6
CONTINUOUS
 10
0.0
 20
0.0
 11
0.0
 21
-2.594
  0
LINE
  5
252
100
AcDbEntity
  8
0
100
AcDbLine
 62
2
  6
CONTINUOUS
 10
0.0
 20
-0.344
 11
9.055
 21
-0.344
  0
LINE
  5
253
100
AcDbEntity
  8
0
100
AcDbLine
 62
2
  6
CONTINUOUS
 10
0.0
 20
-0.594
 11
9.055
 21
-0.594
  0
LINE
  5
254
100
AcDbEntity
  8
0
100
AcDbLine
 62
2
  6
CONTINUOUS
 10
0.0
 20
-0.844
 11
9.055
 21
-0.844
  0
LINE
  5
255
100
AcDbEntity
  8
0
100
AcDbLine
 62
2
  6
CONTINUOUS
 10
0.0
 20
-1.094
 11
9.055
 21
-1.094
  0
LINE
  5
256
100
AcDbEntity
  8
0
100
AcDbLine
 62
2
  6
CONTINUOUS
 10
0.0
 20
-1.344
 11
9.055
 21
-1.344
  0
LINE
  5
257
100
AcDbEntity
  8
0
100
AcDbLine
 62
2
  6
CONTINUOUS
 10
0.0
 20
-1.594
 11
9.055
 21
-1.594
  0
LINE
  5
258
100
AcDbEntity
  8
0
100
AcDbLine
 62
2
  6
CONTINUOUS
 10
0.0
 20
-1.844
 11
9.055
 21
-1.844
  0
LINE
  5
259
100
AcDbEntity
  8
0
100
AcDbLine
 62
2
  6
CONTINUOUS
 10
0.0
 20
-2.094
 11
9.055
 21
-2.094
  0
LINE
  5
25A
100
AcDbEntity
  8
0
100
AcDbLine
 62
2
  6
CONTINUOUS
 10
0.0
 20
-2.344
 11
9.055
 21
-2.344
  0
LINE
  5
25B
100
AcDbEntity
  8
0
100
AcDbLine
 62
2
  6
CONTINUOUS
 10
0.0
 20
-2.594
 11
9.055
 21
-2.594
  0
LINE
  5
25C
100
AcDbEntity
  8
0
100
AcDbLine
 62
2
  6
CONTINUOUS
 10
3.055
 20
0.0
 11
3.055
 21
-2.594
  0
LINE
  5
25D
100
AcDbEntity
  8
0
100
AcDbLine
 62
2
  6
CONTINUOUS
 10
9.055
 20
0.0
 11
9.055
 21
-2.594
  0
MTEXT
  5
25E
100
AcDbEntity
  8
0
100
AcDbMText
 62
2
  6
CONTINUOUS
  7
STANDARD
 71
2
 72
1
 10
1.5275
 20
-0.0995
 30
0.0
 11
1.0
 21
0.0
 31
0.0
 44
0.9
  1
Technical Data
 40
0.145
 41
3.248
  0
MTEXT
  5
25F
100
AcDbEntity
  8
0
100
AcDbMText
 62
2
  6
CONTINUOUS
  7
STANDARD
 71
2
 72
1
 10
4.555
 20
-0.0995
 30
0.0
 11
1.0
 21
0.0
 31
0.0
 44
0.9
  1
U.S. Units
 40
0.145
 41
2.32
  0
MTEXT
  5
260
100
AcDbEntity
  8
0
100
AcDbMText
 62
2
  6
CONTINUOUS
  7
STANDARD
 71
2
 72
1
 10
7.555
 20
-0.0995
 30
0.0
 11
1.0
 21
0.0
 31
0.0
 44
0.9
  1
Metric Units
 40
0.145
 41
2.784
  0
MTEXT
  5
261
100
AcDbEntity
  8
0
100
AcDbMText
 62
2
  6
CONTINUOUS
  7
STANDARD
 71
2
 72
1
 10
1.5275
 20
-0.4065
 30
0.0
 11
1.0
 21
0.0
 31
0.0
 44
0.9
  1
Cavity
 40
0.125
 41
1.2
  0
MTEXT
  5
262
100
AcDbEntity
  8
0
100
AcDbMText
 62
2
  6
CONTINUOUS
  7
STANDARD
 71
2
 72
1
 10
6.055
 20
-0.4065
 30
0.0
 11
1.0
 21
0.0
 31
0.0
 44
0.9
  1
T-16A
 40
0.125
 41
1.0
  0
MTEXT
  5
263
100
AcDbEntity
  8
0
100
AcDbMText
 62
2
  6
CONTINUOUS
  7
STANDARD
 71
2
 72
1
 10
1.5275
 20
-0.6565
 30
0.0
 11
1.0
 21
0.0
 31
0.0
 44
0.9
  1
Body Features
 40
0.125
 41
2.6
  0
MTEXT
  5
264
100
AcDbEntity
  8
0
100
AcDbMText
 62
2
  6
CONTINUOUS
  7
STANDARD
 71
2
 72
1
 10
6.055
 20
-0.6565
 30
0.0
 11
1.0
 21
0.0
 31
0.0
 44
0.9
  1
Ninety degree with reverse flow check
 40
0.125
 41
7.4
  0
MTEXT
  5
265
100
AcDbEntity
  8
0
100
AcDbMText
 62
2
  6
CONTINUOUS
  7
STANDARD
 71
2
 72
1
 10
1.5275
 20
-0.9065
 30
0.0
 11
1.0
 21
0.0
 31
0.0
 44
0.9
  1
Body Type
 40
0.125
 41
1.8
  0
MTEXT
  5
266
100
AcDbEntity
  8
0
100
AcDbMText
 62
2
  6
CONTINUOUS
  7
STANDARD
 71
2
 72
1
 10
6.055
 20
-0.9065
 30
0.0
 11
1.0
 21
0.0
 31
0.0
 44
0.9
  1
Line mount
 40
0.125
 41
2.0
  0
MTEXT
  5
267
100
AcDbEntity
  8
0
100
AcDbMText
 62
2
  6
CONTINUOUS
  7
STANDARD
 71
2
 72
1
 10
1.5275
 20
-1.1565
 30
0.0
 11
1.0
 21
0.0
 31
0.0
 44
0.9
  1
Interface
 40
0.125
 41
1.8
  0
MTEXT
  5
268
100
AcDbEntity
  8
0
100
AcDbMText
 62
2
  6
CONTINUOUS
  7
STANDARD
 71
2
 72
1
 10
6.055
 20
-1.1565
 30
0.0
 11
1.0
 21
0.0
 31
0.0
 44
0.9
  1
None
 40
0.125
 41
0.8
  0
MTEXT
  5
269
100
AcDbEntity
  8
0
100
AcDbMText
 62
2
  6
CONTINUOUS
  7
STANDARD
 71
2
 72
1
 10
1.5275
 20
-1.4065
 30
0.0
 11
1.0
 21
0.0
 31
0.0
 44
0.9
  1
Open Cavity Quantity
 40
0.125
 41
4.0
  0
MTEXT
  5
26A
100
AcDbEntity
  8
0
100
AcDbMText
 62
2
  6
CONTINUOUS
  7
STANDARD
 71
2
 72
1
 10
6.055
 20
-1.4065
 30
0.0
 11
1.0
 21
0.0
 31
0.0
 44
0.9
  1
1
 40
0.125
 41
0.2
  0
MTEXT
  5
26B
100
AcDbEntity
  8
0
100
AcDbMText
 62
2
  6
CONTINUOUS
  7
STANDARD
 71
2
 72
1
 10
1.5275
 20
-1.6565
 30
0.0
 11
1.0
 21
0.0
 31
0.0
 44
0.9
  1
Weight
 40
0.125
 41
1.2
  0
MTEXT
  5
26C
100
AcDbEntity
  8
0
100
AcDbMText
 62
2
  6
CONTINUOUS
  7
STANDARD
 71
2
 72
1
 10
4.555
 20
-1.6565
 30
0.0
 11
1.0
 21
0.0
 31
0.0
 44
0.9
  1
3.902 lb.
 40
0.125
 41
1.8
  0
MTEXT
  5
26D
100
AcDbEntity
  8
0
100
AcDbMText
 62
2
  6
CONTINUOUS
  7
STANDARD
 71
2
 72
1
 10
7.555
 20
-1.6565
 30
0.0
 11
1.0
 21
0.0
 31
0.0
 44
0.9
  1
1,770 kg.
 40
0.125
 41
1.8
  0
MTEXT
  5
26E
100
AcDbEntity
  8
0
100
AcDbMText
 62
2
  6
CONTINUOUS
  7
STANDARD
 71
2
 72
1
 10
1.5275
 20
-1.9065
 30
0.0
 11
1.0
 21
0.0
 31
0.0
 44
0.9
  1
Mounting Hole Diameter
 40
0.125
 41
4.4
  0
MTEXT
  5
26F
100
AcDbEntity
  8
0
100
AcDbMText
 62
2
  6
CONTINUOUS
  7
STANDARD
 71
2
 72
1
 10
4.555
 20
-1.9065
 30
0.0
 11
1.0
 21
0.0
 31
0.0
 44
0.9
  1
.28 in.
 40
0.125
 41
1.4
  0
MTEXT
  5
270
100
AcDbEntity
  8
0
100
AcDbMText
 62
2
  6
CONTINUOUS
  7
STANDARD
 71
2
 72
1
 10
7.555
 20
-1.9065
 30
0.0
 11
1.0
 21
0.0
 31
0.0
 44
0.9
  1
7,1 mm
 40
0.125
 41
1.2
  0
MTEXT
  5
271
100
AcDbEntity
  8
0
100
AcDbMText
 62
2
  6
CONTINUOUS
  7
STANDARD
 71
2
 72
1
 10
1.5275
 20
-2.1565
 30
0.0
 11
1.0
 21
0.0
 31
0.0
 44
0.9
  1
Mounting Hole Depth
 40
0.125
 41
3.8
  0
MTEXT
  5
272
100
AcDbEntity
  8
0
100
AcDbMText
 62
2
  6
CONTINUOUS
  7
STANDARD
 71
2
 72
1
 10
6.055
 20
-2.1565
 30
0.0
 11
1.0
 21
0.0
 31
0.0
 44
0.9
  1
Through
 40
0.125
 41
1.4
  0
MTEXT
  5
273
100
AcDbEntity
  8
0
100
AcDbMText
 62
2
  6
CONTINUOUS
  7
STANDARD
 71
2
 72
1
 10
1.5275
 20
-2.4065
 30
0.0
 11
1.0
 21
0.0
 31
0.0
 44
0.9
  1
Mounting Hole Quantity
 40
0.125
 41
4.4
  0
MTEXT
  5
274
100
AcDbEntity
  8
0
100
AcDbMText
 62
2
  6
CONTINUOUS
  7
STANDARD
 71
2
 72
1
 10
6.055
 20
-2.4065
 30
0.0
 11
1.0
 21
0.0
 31
0.0
 44
0.9
  1
2
 40
0.125
 41
0.2
  0
ENDBLK
  5
275
100
AcDbEntity
  8
0
  6
BYBLOCK
 62
0
100
AcDbBlockEnd
  0
BLOCK
  5
276
100
AcDbEntity
  8
0
100
AcDbBlockBegin
  2
*T3
 70
1
 10
0.0
 20
0.0
  3
*T3
  1

  0
LINE
  5
277
100
AcDbEntity
  8
0
100
AcDbLine
 62
2
  6
CONTINUOUS
 10
0.0
 20
0.0
 11
4.6
 21
0.0
  0
LINE
  5
278
100
AcDbEntity
  8
0
100
AcDbLine
 62
2
  6
CONTINUOUS
 10
0.0
 20
0.0
 11
0.0
 21
-1.18775
  0
LINE
  5
279
100
AcDbEntity
  8
0
100
AcDbLine
 62
2
  6
CONTINUOUS
 10
0.0
 20
-0.34375
 11
4.6
 21
-0.34375
  0
LINE
  5
27A
100
AcDbEntity
  8
0
100
AcDbLine
 62
2
  6
CONTINUOUS
 10
0.0
 20
-0.68775
 11
4.6
 21
-0.68775
  0
LINE
  5
27B
100
AcDbEntity
  8
0
100
AcDbLine
 62
2
  6
CONTINUOUS
 10
0.0
 20
-0.93775
 11
4.6
 21
-0.93775
  0
LINE
  5
27C
100
AcDbEntity
  8
0
100
AcDbLine
 62
2
  6
CONTINUOUS
 10
0.0
 20
-1.18775
 11
4.6
 21
-1.18775
  0
LINE
  5
27D
100
AcDbEntity
  8
0
100
AcDbLine
 62
2
  6
CONTINUOUS
 10
1.3
 20
-0.34375
 11
1.3
 21
-1.18775
  0
LINE
  5
27E
100
AcDbEntity
  8
0
100
AcDbLine
 62
2
  6
CONTINUOUS
 10
3.3
 20
-0.34375
 11
3.3
 21
-1.18775
  0
LINE
  5
27F
100
AcDbEntity
  8
0
100
AcDbLine
 62
2
  6
CONTINUOUS
 10
4.6
 20
0.0
 11
4.6
 21
-1.18775
  0
MTEXT
  5
280
100
AcDbEntity
  8
0
100
AcDbMText
 62
2
  6
CONTINUOUS
  7
STANDARD
 71
2
 72
1
 10
2.3
 20
-0.099375
 30
0.0
 11
1.0
 21
0.0
 31
0.0
 44
0.9
  1
Port Headings
 40
0.145
 41
3.016
  0
MTEXT
  5
281
100
AcDbEntity
  8
0
100
AcDbMText
 62
2
  6
CONTINUOUS
  7
STANDARD
 71
2
 72
1
 10
0.65
 20
-0.44325
 30
0.0
 11
1.0
 21
0.0
 31
0.0
 44
0.9
  1
Product
 40
0.145
 41
1.624
  0
MTEXT
  5
282
100
AcDbEntity
  8
0
100
AcDbMText
 62
2
  6
CONTINUOUS
  7
STANDARD
 71
2
 72
1
 10
2.3
 20
-0.44325
 30
0.0
 11
1.0
 21
0.0
 31
0.0
 44
0.9
  1
Port
 40
0.145
 41
0.928
  0
MTEXT
  5
283
100
AcDbEntity
  8
0
100
AcDbMText
 62
2
  6
CONTINUOUS
  7
STANDARD
 71
2
 72
1
 10
3.95
 20
-0.44325
 30
0.0
 11
1.0
 21
0.0
 31
0.0
 44
0.9
  1
Size
 40
0.145
 41
0.928
  0
MTEXT
  5
284
100
AcDbEntity
  8
0
100
AcDbMText
 62
2
  6
CONTINUOUS
  7
STANDARD
 71
2
 72
1
 10
0.65
 20
-0.75025
 30
0.0
 11
1.0
 21
0.0
 31
0.0
 44
0.9
  1
INX
 40
0.125
 41
0.6
  0
MTEXT
  5
285
100
AcDbEntity
  8
0
100
AcDbMText
 62
2
  6
CONTINUOUS
  7
STANDARD
 71
2
 72
1
 10
2.3
 20
-0.75025
 30
0.0
 11
1.0
 21
0.0
 31
0.0
 44
0.9
  1
Ports 1 &  2
 40
0.125
 41
2.4
  0
MTEXT
  5
286
100
AcDbEntity
  8
0
100
AcDbMText
 62
2
  6
CONTINUOUS
  7
STANDARD
 71
2
 72
1
 10
3.95
 20
-0.75025
 30
0.0
 11
1.0
 21
0.0
 31
0.0
 44
0.9
  1
1" BSPP
 40
0.125
 41
1.4
  0
MTEXT
  5
287
100
AcDbEntity
  8
0
100
AcDbMText
 62
2
  6
CONTINUOUS
  7
STANDARD
 71
2
 72
1
 10
0.65
 20
-1.00025
 30
0.0
 11
1.0
 21
0.0
 31
0.0
 44
0.9
  1
INX
 40
0.125
 41
0.6
  0
MTEXT
  5
288
100
AcDbEntity
  8
0
100
AcDbMText
 62
2
  6
CONTINUOUS
  7
STANDARD
 71
2
 72
1
 10
2.3
 20
-1.00025
 30
0.0
 11
1.0
 21
0.0
 31
0.0
 44
0.9
  1
Gage Port
 40
0.125
 41
1.8
  0
MTEXT
  5
289
100
AcDbEntity
  8
0
100
AcDbMText
 62
2
  6
CONTINUOUS
  7
STANDARD
 71
2
 72
1
 10
3.95
 20
-1.00025
 30
0.0
 11
1.0
 21
0.0
 31
0.0
 44
0.9
  1
1/4" BSPP
 40
0.125
 41
1.8
  0
ENDBLK
  5
28A
100
AcDbEntity
  8
0
  6
BYBLOCK
 62
0
100
AcDbBlockEnd
  0
ENDSEC
  0
SECTION
  2
ENTITIES
  0
IMAGE
  5
28B
100
AcDbEntity
  8
0
100
AcDbRasterImage
 62
7
  6
CONTINUOUS
 10
19.2297077316
 20
0.3094318264
 30
0.0
 11
0.0066666667
 21
0.0
 31
0.0
 12
0.0
 22
0.0066666667
 32
0.0
 13
369.0
 23
92.0
340
       399
 70
9
280
0
281
50
282
50
283
0
360
       393
 71
1
 91
2
 14
-0.5
 24
-0.5
 14
368.5
 24
91.5
  0
INSERT
  5
28C
100
AcDbEntity
  8
0
100
AcDbBlockReference
 62
2
  6
CONTINUOUS
  2
SUN_FIRST_THIRD_ANGLE_BL0
 10
20.4816717061
 20
1.2289683772
  0
ACAD_TABLE
  5
28D
100
AcDbEntity
  8
0
 62
2
  6
CONTINUOUS
100
AcDbBlockReference
  2
*T1
 10
12.42375
 20
0.30125
 30
0.0
100
AcDbTable
342
       39B
343
20F
 11
1.0
 21
0.0
 31
0.0
 90
6
 91
4
 92
6
 93
20
 94
0
 95
0
 96
0
 70
1
 41
0.0
141
0.525
141
0.1
141
0.525
141
0.1
142
4.1
142
1.1
142
0.7
142
0.5
142
0.4
142
2.475
171
1
172
0
173
0
174
0
175
1
176
1
 91
33
178
0
145
0.0
301
CELL_VALUE
 90
4
  1
T-16A Line mount\PNinety degree with reverse flow check
304
ACVALUE_END
170
2
140
0.125
171
1
172
0
173
0
174
0
175
1
176
1
 91
33
178
0
145
0.0
301
CELL_VALUE
 90
4
  1
Nov-30-20
304
ACVALUE_END
170
5
140
0.125
171
1
172
0
173
0
174
0
175
1
176
1
 91
33
178
0
145
0.0
301
CELL_VALUE
 90
4
  1
1.000
304
ACVALUE_END
170
5
140
0.125
171
1
172
0
173
0
174
0
175
1
176
1
 91
33
178
0
145
0.0
301
CELL_VALUE
 90
4
  1
C
304
ACVALUE_END
170
5
140
0.125
171
1
172
0
173
0
174
0
175
1
176
1
 91
33
178
0
145
0.0
301
CELL_VALUE
 90
4
  1
2
304
ACVALUE_END
170
5
140
0.125
171
1
172
0
173
0
174
0
175
1
176
1
 91
33
178
0
145
0.0
301
CELL_VALUE
 90
4
  1
 
304
ACVALUE_END
170
1
140
0.125
171
1
172
0
173
0
174
0
175
1
176
1
 91
33
178
0
145
0.0
301
CELL_VALUE
 90
4
  1
DESCRIPTION
304
ACVALUE_END
170
1
140
0.06
171
1
172
0
173
0
174
0
175
1
176
1
 91
33
178
0
145
0.0
301
CELL_VALUE
 90
4
  1
DATE
304
ACVALUE_END
170
1
140
0.06
171
1
172
0
173
0
174
0
175
1
176
1
 91
33
178
0
145
0.0
301
CELL_VALUE
 90
4
  1
SCALE
304
ACVALUE_END
170
1
140
0.06
171
1
172
0
173
0
174
0
175
1
176
1
 91
33
178
0
145
0.0
301
CELL_VALUE
 90
4
  1
DWG SIZE
304
ACVALUE_END
170
1
140
0.06
171
1
172
0
173
0
174
0
175
1
176
1
 91
33
178
0
145
0.0
301
CELL_VALUE
 90
4
  1
SHEET
304
ACVALUE_END
170
1
140
0.06
171
1
172
0
173
0
174
0
175
1
176
1
 91
33
178
0
145
0.0
301
CELL_VALUE
 90
4
  1
 
304
ACVALUE_END
170
1
140
0.125
171
1
172
0
173
0
174
0
175
1
176
1
 91
33
178
0
145
0.0
301
CELL_VALUE
 90
4
  1
INX
304
ACVALUE_END
170
5
140
0.125
171
1
172
0
173
0
174
0
175
4
176
1
 91
33
178
0
145
0.0
301
CELL_VALUE
 90
4
  1
ALL DIMENSIONS IN INCH\PVIEWS ARE THIRD ANGLE
304
ACVALUE_END
170
5
140
0.12
171
1
172
0
173
1
174
0
175
1
176
1
 91
1
178
0
145
0.0
170
1
171
1
172
0
173
1
174
0
175
1
176
1
 91
1
178
0
145
0.0
170
1
171
1
172
0
173
1
174
0
175
1
176
1
 91
1
178
0
145
0.0
170
5
171
1
172
0
173
0
174
0
175
1
176
1
 91
33
178
0
145
0.0
301
CELL_VALUE
 90
4
  1
 
304
ACVALUE_END
170
1
140
0.125
171
1
172
0
173
0
174
0
175
1
176
1
 91
33
178
0
145
0.0
301
CELL_VALUE
 90
4
  1
MODEL
304
ACVALUE_END
170
1
140
0.06
171
1
172
0
173
0
174
0
175
1
176
1
 91
33
178
0
145
0.0
301
CELL_VALUE
 90
4
  1
 
304
ACVALUE_END
170
1
140
0.125
171
1
172
0
173
0
174
0
175
1
176
1
 91
33
178
0
145
0.0
301
CELL_VALUE
 90
4
  1
 
304
ACVALUE_END
170
1
140
0.125
171
1
172
0
173
0
174
0
175
1
176
1
 91
33
178
0
145
0.0
301
CELL_VALUE
 90
4
  1
 
304
ACVALUE_END
170
1
140
0.125
171
1
172
0
173
0
174
0
175
1
176
1
 91
33
178
0
145
0.0
301
CELL_VALUE
 90
4
  1
 
304
ACVALUE_END
170
1
140
0.125
171
1
172
0
173
0
174
0
175
1
176
1
 91
33
178
0
145
0.0
301
CELL_VALUE
 90
4
  1
 
304
ACVALUE_END
170
1
140
0.125
  0
ACAD_TABLE
  5
28E
100
AcDbEntity
  8
0
 62
2
  6
CONTINUOUS
100
AcDbBlockReference
  2
*T2
 10
12.4237499994
 20
16.47875
 30
0.0
100
AcDbTable
342
       39A
343
210
 11
1.0
 21
0.0
 31
0.0
 90
22
 91
10
 92
3
 93
16
 94
0
 95
0
 96
0
 41
0.028
141
0.344
141
0.25
141
0.25
141
0.25
141
0.25
141
0.25
141
0.25
141
0.25
141
0.25
141
0.25
142
3.055
142
3.0
142
3.0
171
1
172
0
173
0
174
0
175
1
176
1
 91
33
178
0
145
0.0
301
CELL_VALUE
 90
4
  1
Technical Data
304
ACVALUE_END
170
5
140
0.145
171
1
172
0
173
0
174
0
175
1
176
1
 91
33
178
0
145
0.0
301
CELL_VALUE
 90
4
  1
U.S. Units
304
ACVALUE_END
170
5
140
0.145
171
1
172
0
173
0
174
0
175
1
176
1
 91
33
178
0
145
0.0
301
CELL_VALUE
 90
4
  1
Metric Units
304
ACVALUE_END
170
5
140
0.145
171
1
172
0
173
0
174
0
175
1
176
1
 91
33
178
0
145
0.0
301
CELL_VALUE
 90
4
  1
Cavity
304
ACVALUE_END
170
5
140
0.125
171
1
172
0
173
0
174
0
175
2
176
1
 91
33
178
0
145
0.0
301
CELL_VALUE
 90
4
  1
T-16A
304
ACVALUE_END
170
5
140
0.125
171
1
172
0
173
1
174
0
175
1
176
1
 91
1
178
0
145
0.0
170
1
171
1
172
0
173
0
174
0
175
1
176
1
 91
33
178
0
145
0.0
301
CELL_VALUE
 90
4
  1
Body Features
304
ACVALUE_END
170
5
140
0.125
171
1
172
0
173
0
174
0
175
2
176
1
 91
33
178
0
145
0.0
301
CELL_VALUE
 90
4
  1
Ninety degree with reverse flow check
304
ACVALUE_END
170
5
140
0.125
171
1
172
0
173
1
174
0
175
1
176
1
 91
1
178
0
145
0.0
170
1
171
1
172
0
173
0
174
0
175
1
176
1
 91
33
178
0
145
0.0
301
CELL_VALUE
 90
4
  1
Body Type
304
ACVALUE_END
170
5
140
0.125
171
1
172
0
173
0
174
0
175
2
176
1
 91
33
178
0
145
0.0
301
CELL_VALUE
 90
4
  1
Line mount
304
ACVALUE_END
170
5
140
0.125
171
1
172
0
173
1
174
0
175
1
176
1
 91
1
178
0
145
0.0
170
1
171
1
172
0
173
0
174
0
175
1
176
1
 91
33
178
0
145
0.0
301
CELL_VALUE
 90
4
  1
Interface
304
ACVALUE_END
170
5
140
0.125
171
1
172
0
173
0
174
0
175
2
176
1
 91
33
178
0
145
0.0
301
CELL_VALUE
 90
4
  1
None
304
ACVALUE_END
170
5
140
0.125
171
1
172
0
173
1
174
0
175
1
176
1
 91
1
178
0
145
0.0
170
1
171
1
172
0
173
0
174
0
175
1
176
1
 91
33
178
0
145
0.0
301
CELL_VALUE
 90
4
  1
Open Cavity Quantity
304
ACVALUE_END
170
5
140
0.125
171
1
172
0
173
0
174
0
175
2
176
1
 91
33
178
0
145
0.0
301
CELL_VALUE
 90
4
  1
1
304
ACVALUE_END
170
5
140
0.125
171
1
172
0
173
1
174
0
175
1
176
1
 91
1
178
0
145
0.0
170
1
171
1
172
0
173
0
174
0
175
1
176
1
 91
33
178
0
145
0.0
301
CELL_VALUE
 90
4
  1
Weight
304
ACVALUE_END
170
5
140
0.125
171
1
172
0
173
0
174
0
175
1
176
1
 91
33
178
0
145
0.0
301
CELL_VALUE
 90
4
  1
3.902 lb.
304
ACVALUE_END
170
5
140
0.125
171
1
172
0
173
0
174
0
175
1
176
1
 91
33
178
0
145
0.0
301
CELL_VALUE
 90
4
  1
1,770 kg.
304
ACVALUE_END
170
5
140
0.125
171
1
172
0
173
0
174
0
175
1
176
1
 91
33
178
0
145
0.0
301
CELL_VALUE
 90
4
  1
Mounting Hole Diameter
304
ACVALUE_END
170
5
140
0.125
171
1
172
0
173
0
174
0
175
1
176
1
 91
33
178
0
145
0.0
301
CELL_VALUE
 90
4
  1
.28 in.
304
ACVALUE_END
170
5
140
0.125
171
1
172
0
173
0
174
0
175
1
176
1
 91
33
178
0
145
0.0
301
CELL_VALUE
 90
4
  1
7,1 mm
304
ACVALUE_END
170
5
140
0.125
171
1
172
0
173
0
174
0
175
1
176
1
 91
33
178
0
145
0.0
301
CELL_VALUE
 90
4
  1
Mounting Hole Depth
304
ACVALUE_END
170
5
140
0.125
171
1
172
0
173
0
174
0
175
2
176
1
 91
33
178
0
145
0.0
301
CELL_VALUE
 90
4
  1
Through
304
ACVALUE_END
170
5
140
0.125
171
1
172
0
173
1
174
0
175
1
176
1
 91
1
178
0
145
0.0
170
1
171
1
172
0
173
0
174
0
175
1
176
1
 91
33
178
0
145
0.0
301
CELL_VALUE
 90
4
  1
Mounting Hole Quantity
304
ACVALUE_END
170
5
140
0.125
171
1
172
0
173
0
174
0
175
2
176
1
 91
33
178
0
145
0.0
301
CELL_VALUE
 90
4
  1
2
304
ACVALUE_END
170
5
140
0.125
171
1
172
0
173
1
174
0
175
1
176
1
 91
1
178
0
145
0.0
170
1
  0
ACAD_TABLE
  5
28F
100
AcDbEntity
  8
0
 62
2
  6
CONTINUOUS
100
AcDbBlockReference
  2
*T3
 10
0.52125
 20
1.709
 30
0.0
100
AcDbTable
342
       39A
343
211
 11
1.0
 21
0.0
 31
0.0
 90
22
 91
4
 92
3
 93
16
 94
0
 95
0
 96
0
 41
0.05
141
0.34375
141
0.344
141
0.25
141
0.25
142
1.3
142
2.0
142
1.3
171
1
172
0
173
0
174
0
175
3
176
1
 91
33
178
0
145
0.0
301
CELL_VALUE
 90
4
  1
Port Headings
304
ACVALUE_END
170
5
140
0.145
171
1
172
0
173
1
174
0
175
1
176
1
 91
1
178
0
145
0.0
170
1
171
1
172
0
173
1
174
0
175
1
176
1
 91
1
178
0
145
0.0
170
1
171
1
172
0
173
0
174
0
175
1
176
1
 91
33
178
0
145
0.0
301
CELL_VALUE
 90
4
  1
Product
304
ACVALUE_END
170
5
140
0.145
171
1
172
0
173
0
174
0
175
1
176
1
 91
33
178
0
145
0.0
301
CELL_VALUE
 90
4
  1
Port
304
ACVALUE_END
170
5
140
0.145
171
1
172
0
173
0
174
0
175
1
176
1
 91
33
178
0
145
0.0
301
CELL_VALUE
 90
4
  1
Size
304
ACVALUE_END
170
5
140
0.145
171
1
172
0
173
0
174
0
175
1
176
1
 91
33
178
0
145
0.0
301
CELL_VALUE
 90
4
  1
INX
304
ACVALUE_END
170
5
140
0.125
171
1
172
0
173
0
174
0
175
1
176
1
 91
33
178
0
145
0.0
301
CELL_VALUE
 90
4
  1
Ports 1 &  2
304
ACVALUE_END
170
5
140
0.125
171
1
172
0
173
0
174
0
175
1
176
1
 91
33
178
0
145
0.0
301
CELL_VALUE
 90
4
  1
1" BSPP
304
ACVALUE_END
170
5
140
0.125
171
1
172
0
173
0
174
0
175
1
176
1
 91
33
178
0
145
0.0
301
CELL_VALUE
 90
4
  1
INX
304
ACVALUE_END
170
5
140
0.125
171
1
172
0
173
0
174
0
175
1
176
1
 91
33
178
0
145
0.0
301
CELL_VALUE
 90
4
  1
Gage Port
304
ACVALUE_END
170
5
140
0.125
171
1
172
0
173
0
174
0
175
1
176
1
 91
33
178
0
145
0.0
301
CELL_VALUE
 90
4
  1
1/4" BSPP
304
ACVALUE_END
170
5
140
0.125
  0
MTEXT
  5
290
100
AcDbEntity
  8
0
100
AcDbMText
 62
2
  6
CONTINUOUS
  7
STANDARD
 71
1
 72
1
 10
0.52125
 20
5.75995
 30
0.0
 11
1.0
 21
0.0
 31
0.0
 44
0.6
  3
Notes\P \P1. Important: Carefully consider\P   the maximum system pressure. The\P   pressure rating of the manifold is\P   dependent on the manifold material,\P   with the port type/size a secondary\P   consideration. Manifolds\P   constructed of alu
  1
minum are not\P   rated for pressures higher than\P   3000 psi (210 bar), regardless of\P   the port type/size specified.
 40
0.1
 41
3.04
  0
LINE
  5
291
100
AcDbEntity
  8
0
100
AcDbLine
 62
7
  6
CONTINUOUS
 10
0.30125
 20
0.30125
 11
0.30125
 21
16.69875
  0
LINE
  5
292
100
AcDbEntity
  8
0
100
AcDbLine
 62
7
  6
CONTINUOUS
 10
0.30125
 20
0.30125
 11
21.69875
 21
0.30125
  0
LINE
  5
293
100
AcDbEntity
  8
0
100
AcDbLine
 62
7
  6
CONTINUOUS
 10
0.30125
 20
16.69875
 11
21.69875
 21
16.69875
  0
LINE
  5
294
100
AcDbEntity
  8
0
100
AcDbLine
 62
7
  6
CONTINUOUS
 10
21.69875
 20
0.30125
 11
21.69875
 21
16.69875
  0
LINE
  5
295
100
AcDbEntity
  8
0
100
AcDbLine
 62
7
  6
CONTINUOUS
 10
9.3593194184
 20
11.6096412614
 11
8.7769770475
 21
11.0471416922
  0
LINE
  5
296
100
AcDbEntity
  8
0
100
AcDbLine
 62
7
  6
CONTINUOUS
 10
11.2774336431
 20
5.4855181342
 11
11.296000196
 21
5.4763466126
  0
LINE
  5
297
100
AcDbEntity
  8
0
100
AcDbLine
 62
7
  6
CONTINUOUS
 10
8.7769770475
 20
6.3382530101
 11
12.6406805816
 21
6.0703042599
  0
LINE
  5
298
100
AcDbEntity
  8
0
100
AcDbLine
 62
7
  6
CONTINUOUS
 10
8.7769770475
 20
6.3382530101
 11
8.7769770475
 21
11.0471416922
  0
LINE
  5
299
100
AcDbEntity
  8
0
100
AcDbLine
 62
4
  6
CONTINUOUS
 10
11.324606601
 20
6.3064631887
 11
11.3101177131
 21
6.3074679965
  0
LINE
  5
29A
100
AcDbEntity
  8
0
100
AcDbLine
 62
4
  6
CONTINUOUS
 10
11.6433621355
 20
6.322994453
 11
11.6868287992
 21
6.3199800296
  0
LINE
  5
29B
100
AcDbEntity
  8
0
100
AcDbLine
 62
4
  6
CONTINUOUS
 10
11.5202065881
 20
6.3508538353
 11
11.5781621398
 21
6.3468346041
  0
LINE
  5
29C
100
AcDbEntity
  8
0
100
AcDbLine
 62
4
  6
CONTINUOUS
 10
11.3101177131
 20
6.4233791
 11
11.324606601
 21
6.4223742922
  0
LINE
  5
29D
100
AcDbEntity
  8
0
100
AcDbLine
 62
4
  6
CONTINUOUS
 10
9.0764140701
 20
7.824331413
 11
9.0764140701
 21
7.7084203096
  0
LINE
  5
29E
100
AcDbEntity
  8
0
100
AcDbLine
 62
4
  6
CONTINUOUS
 10
10.1665304494
 20
9.9055060412
 11
10.1830891792
 21
9.9209164175
  0
LINE
  5
29F
100
AcDbEntity
  8
0
100
AcDbLine
 62
4
  6
CONTINUOUS
 10
11.3101177131
 20
6.3074679965
 11
11.2956288252
 21
6.3181320632
  0
LINE
  5
2A0
100
AcDbEntity
  8
0
100
AcDbLine
 62
4
  6
CONTINUOUS
 10
10.207927273
 20
9.8032827864
 11
10.2244860011
 21
9.8186931645
  0
LINE
  5
2A1
100
AcDbEntity
  8
0
100
AcDbLine
 62
4
  6
CONTINUOUS
 10
10.2990002878
 20
9.7969668513
 11
10.3155590089
 21
9.8123772299
  0
LINE
  5
2A2
100
AcDbEntity
  8
0
100
AcDbLine
 62
4
  6
CONTINUOUS
 10
10.6853706371
 20
9.8446862564
 11
10.7019293583
 21
9.8518172727
  0
LINE
  5
2A3
100
AcDbEntity
  8
0
100
AcDbLine
 62
4
  6
CONTINUOUS
 10
10.8426785711
 20
9.7923800939
 11
10.8592372923
 21
9.7995111068
  0
LINE
  5
2A4
100
AcDbEntity
  8
0
100
AcDbLine
 62
4
  6
CONTINUOUS
 10
11.324606601
 20
6.4223742922
 11
11.3390954889
 21
6.4117102281
  0
LINE
  5
2A5
100
AcDbEntity
  8
0
100
AcDbLine
 62
4
  6
CONTINUOUS
 10
10.2714024102
 20
9.2794886384
 11
10.2272457985
 21
9.2604726023
  0
LINE
  5
2A6
100
AcDbEntity
  8
0
100
AcDbLine
 62
4
  6
CONTINUOUS
 10
11.2956288252
 20
6.3181320632
 11
11.2811399372
 21
6.338455388
  0
LINE
  5
2A7
100
AcDbEntity
  8
0
100
AcDbLine
 62
4
  6
CONTINUOUS
 10
10.1665304494
 20
9.8889473131
 11
10.1665304494
 21
9.9055060412
  0
LINE
  5
2A8
100
AcDbEntity
  8
0
100
AcDbLine
 62
4
  6
CONTINUOUS
 10
10.2244860011
 20
9.8186931645
 11
10.2244860011
 21
9.8352518943
  0
LINE
  5
2A9
100
AcDbEntity
  8
0
100
AcDbLine
 62
4
  6
CONTINUOUS
 10
10.2576034572
 20
9.9157488347
 11
10.2576034572
 21
9.8163964611
  0
LINE
  5
2AA
100
AcDbEntity
  8
0
100
AcDbLine
 62
4
  6
CONTINUOUS
 10
10.3983526622
 20
9.1989301133
 11
10.4314701183
 21
9.3125445133
  0
LINE
  5
2AB
100
AcDbEntity
  8
0
100
AcDbLine
 62
4
  6
CONTINUOUS
 10
10.3514362625
 20
9.2187425064
 11
10.3348775344
 21
9.2033321283
  0
LINE
  5
2AC
100
AcDbEntity
  8
0
100
AcDbLine
 62
4
  6
CONTINUOUS
 10
11.1269367191
 20
9.8140635446
 11
11.1352160521
 21
9.8217687384
  0
LINE
  5
2AD
100
AcDbEntity
  8
0
100
AcDbLine
 62
4
  6
CONTINUOUS
 10
11.2014510473
 20
9.8088959584
 11
11.2097303802
 21
9.8166011522
  0
LINE
  5
2AE
100
AcDbEntity
  8
0
100
AcDbLine
 62
4
  6
CONTINUOUS
 10
11.2428478226
 20
9.7315108025
 11
11.2511271555
 21
9.7392159937
  0
LINE
  5
2AF
100
AcDbEntity
  8
0
100
AcDbLine
 62
4
  6
CONTINUOUS
 10
11.3390954889
 20
6.4117102281
 11
11.3463399329
 21
6.4015485609
  0
LINE
  5
2B0
100
AcDbEntity
  8
0
100
AcDbLine
 62
4
  6
CONTINUOUS
 10
10.2934807177
 20
9.2062030073
 11
10.2934807177
 21
9.3221141108
  0
LINE
  5
2B1
100
AcDbEntity
  8
0
100
AcDbLine
 62
4
  6
CONTINUOUS
 10
10.3155590089
 20
9.8123772299
 11
10.3155590089
 21
9.9117296036
  0
LINE
  5
2B2
100
AcDbEntity
  8
0
100
AcDbLine
 62
4
  6
CONTINUOUS
 10
10.3486764651
 20
9.7935217967
 11
10.3486764651
 21
9.9094329002
  0
LINE
  5
2B3
100
AcDbEntity
  8
0
100
AcDbLine
 62
4
  6
CONTINUOUS
 10
10.3514362625
 20
9.301536152
 11
10.3514362625
 21
9.2187425064
  0
LINE
  5
2B4
100
AcDbEntity
  8
0
100
AcDbLine
 62
4
  6
CONTINUOUS
 10
10.3688229864
 20
8.64074094
 11
10.3688229864
 21
8.6021039061
  0
LINE
  5
2B5
100
AcDbEntity
  8
0
100
AcDbLine
 62
4
  6
CONTINUOUS
 10
10.4066320168
 20
9.7895025656
 11
10.4066320168
 21
9.905413669
  0
LINE
  5
2B6
100
AcDbEntity
  8
0
100
AcDbLine
 62
4
  6
CONTINUOUS
 10
10.2963785467
 20
8.645764979
 11
10.3036229907
 21
8.6742403509
  0
LINE
  5
2B7
100
AcDbEntity
  8
0
100
AcDbLine
 62
4
  6
CONTINUOUS
 10
10.6301748631
 20
9.7464019347
 11
10.6632923054
 21
9.8544967614
  0
LINE
  5
2B8
100
AcDbEntity
  8
0
100
AcDbLine
 62
4
  6
CONTINUOUS
 10
10.7474658681
 20
9.4297234578
 11
10.8137007804
 21
9.5410411544
  0
LINE
  5
2B9
100
AcDbEntity
  8
0
100
AcDbLine
 62
4
  6
CONTINUOUS
 10
10.3036229907
 20
8.6742403509
 11
10.3181118786
 21
8.6925540627
  0
LINE
  5
2BA
100
AcDbEntity
  8
0
100
AcDbLine
 62
4
  6
CONTINUOUS
 10
10.3688229864
 20
8.6021039061
 11
10.3615785424
 21
8.5929470511
  0
LINE
  5
2BB
100
AcDbEntity
  8
0
100
AcDbLine
 62
7
  6
CONTINUOUS
 10
12.6406805816
 20
10.7791929421
 11
13.2230229525
 21
11.3416925112
  0
LINE
  5
2BC
100
AcDbEntity
  8
0
100
AcDbLine
 62
4
  6
CONTINUOUS
 10
10.7709240957
 20
9.272444572
 11
10.7874828168
 21
9.2878549488
  0
LINE
  5
2BD
100
AcDbEntity
  8
0
100
AcDbLine
 62
4
  6
CONTINUOUS
 10
10.867516645
 20
9.2657458559
 11
10.8840753662
 21
9.2811562328
  0
LINE
  5
2BE
100
AcDbEntity
  8
0
100
AcDbLine
 62
4
  6
CONTINUOUS
 10
10.9254721967
 20
9.1789329792
 11
10.9089134756
 21
9.1635226006
  0
LINE
  5
2BF
100
AcDbEntity
  8
0
100
AcDbLine
 62
4
  6
CONTINUOUS
 10
11.0165451908
 20
9.1726170456
 11
10.9999864696
 21
9.157206667
  0
LINE
  5
2C0
100
AcDbEntity
  8
0
100
AcDbLine
 62
4
  6
CONTINUOUS
 10
10.3181118786
 20
8.6925540627
 11
10.3326007665
 21
8.7012085112
  0
LINE
  5
2C1
100
AcDbEntity
  8
0
100
AcDbLine
 62
4
  6
CONTINUOUS
 10
11.1904118459
 20
9.19367681
 11
11.1462552377
 21
9.1746607753
  0
LINE
  5
2C2
100
AcDbEntity
  8
0
100
AcDbLine
 62
4
  6
CONTINUOUS
 10
10.3181118786
 20
8.5959614745
 11
10.3036229907
 21
8.6162847992
  0
LINE
  5
2C3
100
AcDbEntity
  8
0
100
AcDbLine
 62
4
  6
CONTINUOUS
 10
11.4042954846
 20
6.4168478493
 11
11.4622510363
 21
6.2969175147
  0
LINE
  5
2C4
100
AcDbEntity
  8
0
100
AcDbLine
 62
4
  6
CONTINUOUS
 10
10.3036229907
 20
8.6162847992
 11
10.2963785467
 21
8.645764979
  0
LINE
  5
2C5
100
AcDbEntity
  8
0
100
AcDbLine
 62
4
  6
CONTINUOUS
 10
10.5308225006
 20
9.1897432988
 11
10.5308225006
 21
9.3056544022
  0
LINE
  5
2C6
100
AcDbEntity
  8
0
100
AcDbLine
 62
4
  6
CONTINUOUS
 10
10.5308224808
 20
9.7808899277
 11
10.5308224808
 21
9.8968010311
  0
LINE
  5
2C7
100
AcDbEntity
  8
0
100
AcDbLine
 62
4
  6
CONTINUOUS
 10
10.5804986719
 20
9.8519591519
 11
10.5804986719
 21
9.7774448721
  0
LINE
  5
2C8
100
AcDbEntity
  8
0
100
AcDbLine
 62
4
  6
CONTINUOUS
 10
10.5970574129
 20
9.185149892
 11
10.5970574129
 21
9.3010609954
  0
LINE
  5
2C9
100
AcDbEntity
  8
0
100
AcDbLine
 62
4
  6
CONTINUOUS
 10
10.6039568794
 20
9.4396758399
 11
10.6039568794
 21
9.5555869434
  0
LINE
  5
2CA
100
AcDbEntity
  8
0
100
AcDbLine
 62
4
  6
CONTINUOUS
 10
10.6563928534
 20
9.4360393928
 11
10.6563928534
 21
9.5519504962
  0
LINE
  5
2CB
100
AcDbEntity
  8
0
100
AcDbLine
 62
4
  6
CONTINUOUS
 10
10.6853706371
 20
9.7784513415
 11
10.6853706371
 21
9.8446862564
  0
LINE
  5
2CC
100
AcDbEntity
  8
0
100
AcDbLine
 62
4
  6
CONTINUOUS
 10
10.714348412
 20
9.4320201611
 11
10.714348412
 21
9.5479312646
  0
LINE
  5
2CD
100
AcDbEntity
  8
0
100
AcDbLine
 62
4
  6
CONTINUOUS
 10
10.7350468006
 20
9.8826380264
 11
10.7350468006
 21
9.766726923
  0
LINE
  5
2CE
100
AcDbEntity
  8
0
100
AcDbLine
 62
4
  6
CONTINUOUS
 10
10.7681642982
 20
9.7644302167
 11
10.7681642982
 21
9.847223864
  0
LINE
  5
2CF
100
AcDbEntity
  8
0
100
AcDbLine
 62
4
  6
CONTINUOUS
 10
10.7709240957
 20
9.1896509264
 11
10.7709240957
 21
9.272444572
  0
LINE
  5
2D0
100
AcDbEntity
  8
0
100
AcDbLine
 62
4
  6
CONTINUOUS
 10
11.0855398886
 20
9.8583312482
 11
11.0827801109
 21
9.8502432719
  0
LINE
  5
2D1
100
AcDbEntity
  8
0
100
AcDbLine
 62
4
  6
CONTINUOUS
 10
10.3615785424
 20
8.5929470511
 11
10.3470896545
 21
8.5842926
  0
LINE
  5
2D2
100
AcDbEntity
  8
0
100
AcDbLine
 62
4
  6
CONTINUOUS
 10
10.3326007665
 20
8.5852974078
 11
10.3181118786
 21
8.5959614745
  0
LINE
  5
2D3
100
AcDbEntity
  8
0
100
AcDbLine
 62
4
  6
CONTINUOUS
 10
10.3470896545
 20
8.7002037034
 11
10.3615785424
 21
8.6895396393
  0
LINE
  5
2D4
100
AcDbEntity
  8
0
100
AcDbLine
 62
4
  6
CONTINUOUS
 10
10.3615785424
 20
8.6895396393
 11
10.3688229864
 21
8.6793779722
  0
LINE
  5
2D5
100
AcDbEntity
  8
0
100
AcDbLine
 62
4
  6
CONTINUOUS
 10
10.4314701183
 20
9.3125445133
 11
10.4645875883
 21
9.1943367055
  0
LINE
  5
2D6
100
AcDbEntity
  8
0
100
AcDbLine
 62
4
  6
CONTINUOUS
 10
11.2811399372
 20
6.338455388
 11
11.2738954933
 21
6.3679355677
  0
LINE
  5
2D7
100
AcDbEntity
  8
0
100
AcDbLine
 62
4
  6
CONTINUOUS
 10
10.8068012959
 20
9.8362650116
 11
10.8068012959
 21
9.8197062835
  0
LINE
  5
2D8
100
AcDbEntity
  8
0
100
AcDbLine
 62
4
  6
CONTINUOUS
 10
10.8426785711
 20
9.7675419992
 11
10.8426785711
 21
9.7923800939
  0
LINE
  5
2D9
100
AcDbEntity
  8
0
100
AcDbLine
 62
4
  6
CONTINUOUS
 10
10.867516645
 20
9.1829522104
 11
10.867516645
 21
9.2657458559
  0
LINE
  5
2DA
100
AcDbEntity
  8
0
100
AcDbLine
 62
4
  6
CONTINUOUS
 10
10.8923547346
 20
9.7558175807
 11
10.8923547346
 21
9.8220524999
  0
LINE
  5
2DB
100
AcDbEntity
  8
0
100
AcDbLine
 62
4
  6
CONTINUOUS
 10
10.925472177
 20
9.8363145255
 11
10.925472177
 21
9.7618002432
  0
LINE
  5
2DC
100
AcDbEntity
  8
0
100
AcDbLine
 62
4
  6
CONTINUOUS
 10
10.9254721967
 20
9.2617266248
 11
10.9254721967
 21
9.1789329792
  0
LINE
  5
2DD
100
AcDbEntity
  8
0
100
AcDbLine
 62
4
  6
CONTINUOUS
 10
10.9585896391
 20
9.160077547
 11
10.9585896391
 21
9.2759886504
  0
LINE
  5
2DE
100
AcDbEntity
  8
0
100
AcDbLine
 62
4
  6
CONTINUOUS
 10
10.9751483957
 20
9.7500758208
 11
10.9751483957
 21
9.8328694681
  0
LINE
  5
2DF
100
AcDbEntity
  8
0
100
AcDbLine
 62
4
  6
CONTINUOUS
 10
11.0082658381
 20
9.7560584833
 11
11.0082658381
 21
9.8636902218
  0
LINE
  5
2E0
100
AcDbEntity
  8
0
100
AcDbLine
 62
4
  6
CONTINUOUS
 10
11.0165451908
 20
9.2554106912
 11
11.0165451908
 21
9.1726170456
  0
LINE
  5
2E1
100
AcDbEntity
  8
0
100
AcDbLine
 62
7
  6
CONTINUOUS
 10
12.9180107054
 20
10.3125202344
 11
12.9163969522
 21
10.3109900752
  0
LINE
  5
2E2
100
AcDbEntity
  8
0
100
AcDbLine
 62
4
  6
CONTINUOUS
 10
12.4006479876
 20
9.5159875185
 11
12.4151368756
 21
9.5246419671
  0
LINE
  5
2E3
100
AcDbEntity
  8
0
100
AcDbLine
 62
4
  6
CONTINUOUS
 10
12.4441146514
 20
9.4743360561
 11
12.4151368756
 21
9.4570271556
  0
LINE
  5
2E4
100
AcDbEntity
  8
0
100
AcDbLine
 62
4
  6
CONTINUOUS
 10
10.3486764651
 20
9.9094329002
 11
10.4066320168
 21
9.7895025656
  0
LINE
  5
2E5
100
AcDbEntity
  8
0
100
AcDbLine
 62
4
  6
CONTINUOUS
 10
11.6650954673
 20
6.3987613091
 11
11.7013176872
 21
6.2803381862
  0
LINE
  5
2E6
100
AcDbEntity
  8
0
100
AcDbLine
 62
4
  6
CONTINUOUS
 10
10.6136161419
 20
9.857941815
 11
10.6384542513
 21
9.773425639
  0
LINE
  5
2E7
100
AcDbEntity
  8
0
100
AcDbLine
 62
4
  6
CONTINUOUS
 10
11.0634616319
 20
9.1528046496
 11
11.0634616319
 21
9.268715753
  0
LINE
  5
2E8
100
AcDbEntity
  8
0
100
AcDbLine
 62
4
  6
CONTINUOUS
 10
11.0827801109
 20
9.742611536
 11
11.0827801109
 21
9.8254051833
  0
LINE
  5
2E9
100
AcDbEntity
  8
0
100
AcDbLine
 62
4
  6
CONTINUOUS
 10
11.0827801109
 20
9.8502432719
 11
11.0827801109
 21
9.8585226394
  0
LINE
  5
2EA
100
AcDbEntity
  8
0
100
AcDbLine
 62
4
  6
CONTINUOUS
 10
11.1269367191
 20
9.7478286297
 11
11.1269367191
 21
9.8140635446
  0
LINE
  5
2EB
100
AcDbEntity
  8
0
100
AcDbLine
 62
7
  6
CONTINUOUS
 10
11.1548373152
 20
6.1733478404
 11
11.1548373152
 21
5.6422673162
  0
LINE
  5
2EC
100
AcDbEntity
  8
0
100
AcDbLine
 62
4
  6
CONTINUOUS
 10
11.2014510473
 20
9.7840578663
 11
11.2014510473
 21
9.8088959584
  0
LINE
  5
2ED
100
AcDbEntity
  8
0
100
AcDbLine
 62
4
  6
CONTINUOUS
 10
11.2511271555
 20
9.7392159937
 11
11.2511271555
 21
9.7640540884
  0
LINE
  5
2EE
100
AcDbEntity
  8
0
100
AcDbLine
 62
4
  6
CONTINUOUS
 10
10.3470896545
 20
8.5842926
 11
10.3326007665
 21
8.5852974078
  0
LINE
  5
2EF
100
AcDbEntity
  8
0
100
AcDbLine
 62
4
  6
CONTINUOUS
 10
10.3398452105
 20
8.6427505556
 11
10.3688229864
 21
8.64074094
  0
LINE
  5
2F0
100
AcDbEntity
  8
0
100
AcDbLine
 62
4
  6
CONTINUOUS
 10
10.3326007665
 20
8.7012085112
 11
10.3470896545
 21
8.7002037034
  0
LINE
  5
2F1
100
AcDbEntity
  8
0
100
AcDbLine
 62
4
  6
CONTINUOUS
 10
10.2272457985
 20
9.2604726023
 11
10.2714024102
 21
9.235332025
  0
LINE
  5
2F2
100
AcDbEntity
  8
0
100
AcDbLine
 62
4
  6
CONTINUOUS
 10
10.3348775344
 20
9.3192432318
 11
10.3514362625
 21
9.301536152
  0
LINE
  5
2F3
100
AcDbEntity
  8
0
100
AcDbLine
 62
4
  6
CONTINUOUS
 10
10.1665304494
 20
9.8144330307
 11
10.1748098143
 21
9.8055794899
  0
LINE
  5
2F4
100
AcDbEntity
  8
0
100
AcDbLine
 62
4
  6
CONTINUOUS
 10
10.7474658681
 20
9.5456345612
 11
10.8137007804
 21
9.425130051
  0
LINE
  5
2F5
100
AcDbEntity
  8
0
100
AcDbLine
 62
4
  6
CONTINUOUS
 10
10.6563928534
 20
9.5519504962
 11
10.714348412
 21
9.4320201611
  0
LINE
  5
2F6
100
AcDbEntity
  8
0
100
AcDbLine
 62
7
  6
CONTINUOUS
 10
11.3281054197
 20
6.1451716375
 11
11.3281054197
 21
5.4749034653
  0
LINE
  5
2F7
100
AcDbEntity
  8
0
100
AcDbLine
 62
7
  6
CONTINUOUS
 10
11.360098215
 20
6.1368913033
 11
11.360098215
 21
5.4666231311
  0
LINE
  5
2F8
100
AcDbEntity
  8
0
100
AcDbLine
 62
4
  6
CONTINUOUS
 10
11.5202065881
 20
6.408809387
 11
11.5202065881
 21
6.2928982836
  0
LINE
  5
2F9
100
AcDbEntity
  8
0
100
AcDbLine
 62
4
  6
CONTINUOUS
 10
12.3934035437
 20
9.5068306592
 11
12.4006479876
 21
9.5159875185
  0
LINE
  5
2FA
100
AcDbEntity
  8
0
100
AcDbLine
 62
4
  6
CONTINUOUS
 10
12.4151368756
 20
9.4570271556
 11
12.4006479876
 21
9.4387134473
  0
LINE
  5
2FB
100
AcDbEntity
  8
0
100
AcDbLine
 62
4
  6
CONTINUOUS
 10
12.4513590954
 20
9.4834929154
 11
12.4441146514
 21
9.4743360561
  0
LINE
  5
2FC
100
AcDbEntity
  8
0
100
AcDbLine
 62
4
  6
CONTINUOUS
 10
10.2244860011
 20
9.8352518943
 11
10.1665304494
 21
9.8889473131
  0
LINE
  5
2FD
100
AcDbEntity
  8
0
100
AcDbLine
 62
4
  6
CONTINUOUS
 10
10.7874828168
 20
9.1719438454
 11
10.7709240957
 21
9.1896509264
  0
LINE
  5
2FE
100
AcDbEntity
  8
0
100
AcDbLine
 62
4
  6
CONTINUOUS
 10
10.2576034572
 20
9.8163964611
 11
10.2741621853
 21
9.7986893796
  0
LINE
  5
2FF
100
AcDbEntity
  8
0
100
AcDbLine
 62
4
  6
CONTINUOUS
 10
10.8840753662
 20
9.1652451293
 11
10.867516645
 21
9.1829522104
  0
LINE
  5
300
100
AcDbEntity
  8
0
100
AcDbLine
 62
4
  6
CONTINUOUS
 10
10.216206637
 20
9.918619714
 11
10.2244860011
 21
9.9097661706
  0
LINE
  5
301
100
AcDbEntity
  8
0
100
AcDbLine
 62
4
  6
CONTINUOUS
 10
10.9089134756
 20
9.279433704
 11
10.9254721967
 21
9.2617266248
  0
LINE
  5
302
100
AcDbEntity
  8
0
100
AcDbLine
 62
4
  6
CONTINUOUS
 10
10.9999864696
 20
9.2731177704
 11
11.0165451908
 21
9.2554106912
  0
LINE
  5
303
100
AcDbEntity
  8
0
100
AcDbLine
 62
4
  6
CONTINUOUS
 10
10.8923547346
 20
9.8220524999
 11
10.8840754017
 21
9.8391854017
  0
LINE
  5
304
100
AcDbEntity
  8
0
100
AcDbLine
 62
4
  6
CONTINUOUS
 10
11.5781621398
 20
6.4047901558
 11
11.5781621398
 21
6.2888790524
  0
LINE
  5
305
100
AcDbEntity
  8
0
100
AcDbLine
 62
4
  6
CONTINUOUS
 10
11.2738954933
 20
6.3679355677
 11
11.2811399372
 21
6.3964109397
  0
LINE
  5
306
100
AcDbEntity
  8
0
100
AcDbLine
 62
4
  6
CONTINUOUS
 10
10.9999864696
 20
9.157206667
 11
10.9585896391
 21
9.160077547
  0
LINE
  5
307
100
AcDbEntity
  8
0
100
AcDbLine
 62
4
  6
CONTINUOUS
 10
10.9089134756
 20
9.1635226006
 11
10.8840753662
 21
9.1652451293
  0
LINE
  5
308
100
AcDbEntity
  8
0
100
AcDbLine
 62
4
  6
CONTINUOUS
 10
10.8206002592
 20
9.169647143
 11
10.7874828168
 21
9.1719438454
  0
LINE
  5
309
100
AcDbEntity
  8
0
100
AcDbLine
 62
4
  6
CONTINUOUS
 10
10.3348775344
 20
9.2033321283
 11
10.2934807177
 21
9.2062030073
  0
LINE
  5
30A
100
AcDbEntity
  8
0
100
AcDbLine
 62
4
  6
CONTINUOUS
 10
10.5970574129
 20
9.185149892
 11
10.646733604
 21
9.1817048365
  0
LINE
  5
30B
100
AcDbEntity
  8
0
100
AcDbLine
 62
4
  6
CONTINUOUS
 10
11.0634616319
 20
9.1528046496
 11
11.1131377954
 21
9.1493595959
  0
LINE
  5
30C
100
AcDbEntity
  8
0
100
AcDbLine
 62
4
  6
CONTINUOUS
 10
10.4093918142
 20
9.2312820051
 11
10.4535484224
 21
9.2282197339
  0
LINE
  5
30D
100
AcDbEntity
  8
0
100
AcDbLine
 62
4
  6
CONTINUOUS
 10
11.0965790742
 20
9.2167428663
 11
11.0634616319
 21
9.2190395688
  0
LINE
  5
30E
100
AcDbEntity
  8
0
100
AcDbLine
 62
4
  6
CONTINUOUS
 10
10.6301748829
 20
9.2490881069
 11
10.5970574129
 21
9.2513848112
  0
LINE
  5
30F
100
AcDbEntity
  8
0
100
AcDbLine
 62
4
  6
CONTINUOUS
 10
10.2934807177
 20
9.3221141108
 11
10.3348775344
 21
9.3192432318
  0
LINE
  5
310
100
AcDbEntity
  8
0
100
AcDbLine
 62
4
  6
CONTINUOUS
 10
10.4977050306
 20
9.3079511066
 11
10.5639399429
 21
9.3033576998
  0
LINE
  5
311
100
AcDbEntity
  8
0
100
AcDbLine
 62
4
  6
CONTINUOUS
 10
10.5970574129
 20
9.3010609954
 11
10.646733604
 21
9.2976159399
  0
LINE
  5
312
100
AcDbEntity
  8
0
100
AcDbLine
 62
4
  6
CONTINUOUS
 10
10.7874828168
 20
9.2878549488
 11
10.8206002592
 21
9.2855582464
  0
LINE
  5
313
100
AcDbEntity
  8
0
100
AcDbLine
 62
4
  6
CONTINUOUS
 10
10.8840753662
 20
9.2811562328
 11
10.9089134756
 21
9.279433704
  0
LINE
  5
314
100
AcDbEntity
  8
0
100
AcDbLine
 62
4
  6
CONTINUOUS
 10
10.9585896391
 20
9.2759886504
 11
10.9999864696
 21
9.2731177704
  0
LINE
  5
315
100
AcDbEntity
  8
0
100
AcDbLine
 62
4
  6
CONTINUOUS
 10
11.0634616319
 20
9.268715753
 11
11.1131377954
 21
9.2652706994
  0
LINE
  5
316
100
AcDbEntity
  8
0
100
AcDbLine
 62
4
  6
CONTINUOUS
 10
11.1462552377
 20
9.2188173887
 11
11.1904118459
 21
9.19367681
  0
LINE
  5
317
100
AcDbEntity
  8
0
100
AcDbLine
 62
4
  6
CONTINUOUS
 10
10.5722193114
 20
9.860812695
 11
10.5804986719
 21
9.8519591519
  0
LINE
  5
318
100
AcDbEntity
  8
0
100
AcDbLine
 62
4
  6
CONTINUOUS
 10
10.8012817406
 20
9.8449271616
 11
10.8068012959
 21
9.8362650116
  0
LINE
  5
319
100
AcDbEntity
  8
0
100
AcDbLine
 62
7
  6
CONTINUOUS
 10
12.006743089
 20
6.092046329
 11
12.006743089
 21
5.4217781568
  0
LINE
  5
31A
100
AcDbEntity
  8
0
100
AcDbLine
 62
7
  6
CONTINUOUS
 10
12.0504460479
 20
6.0950771448
 11
12.0504460479
 21
5.4248089726
  0
LINE
  5
31B
100
AcDbEntity
  8
0
100
AcDbLine
 62
4
  6
CONTINUOUS
 10
12.3934035437
 20
9.4102380753
 11
12.4513590954
 21
9.4062188442
  0
LINE
  5
31C
100
AcDbEntity
  8
0
100
AcDbLine
 62
4
  6
CONTINUOUS
 10
10.7019293583
 20
9.7690236254
 11
10.6853706371
 21
9.7784513415
  0
LINE
  5
31D
100
AcDbEntity
  8
0
100
AcDbLine
 62
4
  6
CONTINUOUS
 10
10.8592372923
 20
9.7581142831
 11
10.8426785711
 21
9.7675419992
  0
LINE
  5
31E
100
AcDbEntity
  8
0
100
AcDbLine
 62
4
  6
CONTINUOUS
 10
10.925472177
 20
9.7618002432
 11
10.9337515652
 21
9.7529467007
  0
LINE
  5
31F
100
AcDbEntity
  8
0
100
AcDbLine
 62
4
  6
CONTINUOUS
 10
11.0165452263
 20
9.7472049408
 11
11.0082658381
 21
9.7560584833
  0
LINE
  5
320
100
AcDbEntity
  8
0
100
AcDbLine
 62
4
  6
CONTINUOUS
 10
11.1352160521
 20
9.7389750911
 11
11.1269367191
 21
9.7478286297
  0
LINE
  5
321
100
AcDbEntity
  8
0
100
AcDbLine
 62
4
  6
CONTINUOUS
 10
11.2014510473
 20
9.7426610435
 11
11.2097303802
 21
9.7338075049
  0
LINE
  5
322
100
AcDbEntity
  8
0
100
AcDbLine
 62
4
  6
CONTINUOUS
 10
12.4006479876
 20
9.4387134473
 11
12.3934035437
 21
9.4102380753
  0
LINE
  5
323
100
AcDbEntity
  8
0
100
AcDbLine
 62
4
  6
CONTINUOUS
 10
11.6288732475
 20
6.2853622251
 11
11.6650954673
 21
6.3987613091
  0
LINE
  5
324
100
AcDbEntity
  8
0
100
AcDbLine
 62
4
  6
CONTINUOUS
 10
12.4151368756
 20
9.5246419671
 11
12.4296257635
 21
9.5236371593
  0
LINE
  5
325
100
AcDbEntity
  8
0
100
AcDbLine
 62
4
  6
CONTINUOUS
 10
10.6136161419
 20
9.7475502859
 11
10.6301748631
 21
9.7464019347
  0
LINE
  5
326
100
AcDbEntity
  8
0
100
AcDbLine
 62
4
  6
CONTINUOUS
 10
11.168333605
 20
9.736678381
 11
11.1352160521
 21
9.7389750911
  0
LINE
  5
327
100
AcDbEntity
  8
0
100
AcDbLine
 62
4
  6
CONTINUOUS
 10
11.0331039474
 20
9.7460565896
 11
11.0165452263
 21
9.7472049408
  0
LINE
  5
328
100
AcDbEntity
  8
0
100
AcDbLine
 62
4
  6
CONTINUOUS
 10
10.8923547346
 20
9.7558175807
 11
10.8592372923
 21
9.7581142831
  0
LINE
  5
329
100
AcDbEntity
  8
0
100
AcDbLine
 62
4
  6
CONTINUOUS
 10
10.7350468006
 20
9.766726923
 11
10.7019293583
 21
9.7690236254
  0
LINE
  5
32A
100
AcDbEntity
  8
0
100
AcDbLine
 62
4
  6
CONTINUOUS
 10
10.1748098143
 20
9.8055794899
 11
10.207927273
 21
9.8032827864
  0
LINE
  5
32B
100
AcDbEntity
  8
0
100
AcDbLine
 62
4
  6
CONTINUOUS
 10
10.2741621853
 20
9.7986893796
 11
10.2990002878
 21
9.7969668513
  0
LINE
  5
32C
100
AcDbEntity
  8
0
100
AcDbLine
 62
4
  6
CONTINUOUS
 10
10.9337515652
 20
9.7529467007
 11
10.9751483957
 21
9.7500758208
  0
LINE
  5
32D
100
AcDbEntity
  8
0
100
AcDbLine
 62
4
  6
CONTINUOUS
 10
11.2097303802
 20
9.7338075049
 11
11.2428478226
 21
9.7315108025
  0
LINE
  5
32E
100
AcDbEntity
  8
0
100
AcDbLine
 62
4
  6
CONTINUOUS
 10
10.8592372923
 20
9.7995111068
 11
10.8923547346
 21
9.7972144043
  0
LINE
  5
32F
100
AcDbEntity
  8
0
100
AcDbLine
 62
4
  6
CONTINUOUS
 10
11.2428478226
 20
9.7701478381
 11
11.2097303802
 21
9.7779641166
  0
LINE
  5
330
100
AcDbEntity
  8
0
100
AcDbLine
 62
4
  6
CONTINUOUS
 10
11.2097303802
 20
9.7779641166
 11
11.2014510473
 21
9.7840578663
  0
LINE
  5
331
100
AcDbEntity
  8
0
100
AcDbLine
 62
4
  6
CONTINUOUS
 10
11.2511271555
 20
9.7640540884
 11
11.2428478226
 21
9.7701478381
  0
LINE
  5
332
100
AcDbEntity
  8
0
100
AcDbLine
 62
4
  6
CONTINUOUS
 10
11.2428478226
 20
9.8143044498
 11
11.2511271555
 21
9.8054509086
  0
LINE
  5
333
100
AcDbEntity
  8
0
100
AcDbLine
 62
4
  6
CONTINUOUS
 10
12.4513590954
 20
9.502811428
 11
12.4513590954
 21
9.4834929154
  0
LINE
  5
334
100
AcDbEntity
  8
0
100
AcDbLine
 62
7
  6
CONTINUOUS
 10
12.5238228174
 20
6.0784083734
 11
12.5238228174
 21
5.5473278492
  0
LINE
  5
335
100
AcDbEntity
  8
0
100
AcDbLine
 62
7
  6
CONTINUOUS
 10
12.535532981
 20
6.0775962708
 11
12.535532981
 21
5.5586389992
  0
LINE
  5
336
100
AcDbEntity
  8
0
100
AcDbLine
 62
4
  6
CONTINUOUS
 10
11.4042954846
 20
6.3009367459
 11
11.4622510363
 21
6.4128286182
  0
LINE
  5
337
100
AcDbEntity
  8
0
100
AcDbLine
 62
4
  6
CONTINUOUS
 10
11.2811399372
 20
6.3964109397
 11
11.2956288252
 21
6.4147246514
  0
LINE
  5
338
100
AcDbEntity
  8
0
100
AcDbLine
 62
4
  6
CONTINUOUS
 10
10.8840754017
 20
9.8391854017
 11
10.8426785711
 21
9.8420562816
  0
LINE
  5
339
100
AcDbEntity
  8
0
100
AcDbLine
 62
4
  6
CONTINUOUS
 10
10.5308224808
 20
9.8636835749
 11
10.5722193114
 21
9.860812695
  0
LINE
  5
33A
100
AcDbEntity
  8
0
100
AcDbLine
 62
4
  6
CONTINUOUS
 10
10.7019293583
 20
9.8518172727
 11
10.7350468006
 21
9.8495205703
  0
LINE
  5
33B
100
AcDbEntity
  8
0
100
AcDbLine
 62
4
  6
CONTINUOUS
 10
10.7681642982
 20
9.847223864
 11
10.8012817406
 21
9.8449271616
  0
LINE
  5
33C
100
AcDbEntity
  8
0
100
AcDbLine
 62
4
  6
CONTINUOUS
 10
11.1352160521
 20
9.8217687384
 11
11.168333605
 21
9.8194720283
  0
LINE
  5
33D
100
AcDbEntity
  8
0
100
AcDbLine
 62
4
  6
CONTINUOUS
 10
11.2097303802
 20
9.8166011522
 11
11.2428478226
 21
9.8143044498
  0
LINE
  5
33E
100
AcDbEntity
  8
0
100
AcDbLine
 62
4
  6
CONTINUOUS
 10
10.1830891792
 20
9.9209164175
 11
10.216206637
 21
9.918619714
  0
LINE
  5
33F
100
AcDbEntity
  8
0
100
AcDbLine
 62
4
  6
CONTINUOUS
 10
11.0827801109
 20
9.8585226394
 11
11.0855398886
 21
9.8583312482
  0
LINE
  5
340
100
AcDbEntity
  8
0
100
AcDbLine
 62
7
  6
CONTINUOUS
 10
12.6406805816
 20
6.0703042599
 11
12.6406805816
 21
10.7791929421
  0
LINE
  5
341
100
AcDbEntity
  8
0
100
AcDbLine
 62
4
  6
CONTINUOUS
 10
11.3463399329
 20
6.3242744949
 11
11.3390954889
 21
6.3151176399
  0
LINE
  5
342
100
AcDbEntity
  8
0
100
AcDbLine
 62
4
  6
CONTINUOUS
 10
12.4296257635
 20
9.5236371593
 11
12.4441146514
 21
9.5129730952
  0
LINE
  5
343
100
AcDbEntity
  8
0
100
AcDbLine
 62
4
  6
CONTINUOUS
 10
12.4441146514
 20
9.5129730952
 11
12.4513590954
 21
9.502811428
  0
LINE
  5
344
100
AcDbEntity
  8
0
100
AcDbLine
 62
4
  6
CONTINUOUS
 10
11.2956288252
 20
6.4147246514
 11
11.3101177131
 21
6.4233791
  0
LINE
  5
345
100
AcDbEntity
  8
0
100
AcDbLine
 62
4
  6
CONTINUOUS
 10
11.3390954889
 20
6.3151176399
 11
11.324606601
 21
6.3064631887
  0
LINE
  5
346
100
AcDbEntity
  8
0
100
AcDbLine
 62
7
  6
CONTINUOUS
 10
13.2230229525
 20
6.632803829
 11
13.2230229525
 21
11.3416925112
  0
LINE
  5
347
100
AcDbEntity
  8
0
100
AcDbLine
 62
7
  6
CONTINUOUS
 10
8.7769770475
 20
11.0471416922
 11
12.6406805816
 21
10.7791929421
  0
LINE
  5
348
100
AcDbEntity
  8
0
100
AcDbLine
 62
7
  6
CONTINUOUS
 10
12.6406805816
 20
6.0703042599
 11
13.2230229525
 21
6.632803829
  0
LINE
  5
349
100
AcDbEntity
  8
0
100
AcDbLine
 62
7
  6
CONTINUOUS
 10
13.2230229525
 20
11.3416925112
 11
9.3593194184
 21
11.6096412614
  0
LINE
  5
34A
100
AcDbEntity
  8
0
100
AcDbLine
 62
7
  6
CONTINUOUS
 10
12.4256921191
 20
5.4918190902
 11
12.3943701002
 21
5.4763466126
  0
ARC
  5
34B
100
AcDbEntity
  8
0
100
AcDbCircle
 62
7
  6
CONTINUOUS
 10
11.8573024354
 20
8.5635148481
 40
2.4759824616
100
AcDbArc
 50
273.460253038
 51
274.4740090323
  0
ARC
  5
34C
100
AcDbEntity
  8
0
100
AcDbCircle
 62
7
  6
CONTINUOUS
 10
11.8573024354
 20
7.8932466759
 40
2.4759824616
100
AcDbArc
 50
273.460253038
 51
274.4740090323
  0
ARC
  5
34D
100
AcDbEntity
  8
0
100
AcDbCircle
 62
7
  6
CONTINUOUS
 10
11.8750377591
 20
8.3502263162
 40
2.2619606214
100
AcDbArc
 50
274.447581771
 51
276.8642058763
  0
ARC
  5
34E
100
AcDbEntity
  8
0
100
AcDbCircle
 62
7
  6
CONTINUOUS
 10
11.6151590737
 20
7.1883176153
 40
1.0819211298
100
AcDbArc
 50
254.6141230724
 51
256.3642747627
  0
ARC
  5
34F
100
AcDbEntity
  8
0
100
AcDbCircle
 62
7
  6
CONTINUOUS
 10
11.6151590737
 20
6.518049443
 40
1.0819211298
100
AcDbArc
 50
254.6141230724
 51
256.3642747627
  0
ARC
  5
350
100
AcDbEntity
  8
0
100
AcDbCircle
 62
7
  6
CONTINUOUS
 10
12.0472825527
 20
6.2562632949
 40
0.8529760664
100
AcDbArc
 50
293.9893580621
 51
296.3103566126
  0
ARC
  5
351
100
AcDbEntity
  8
0
100
AcDbCircle
 62
7
  6
CONTINUOUS
 10
12.4347981966
 20
5.6516340374
 40
0.137131922
100
AcDbArc
 50
310.4805308012
 51
313.9817446454
  0
LINE
  5
352
100
AcDbEntity
  8
0
100
AcDbLine
 62
7
  6
CONTINUOUS
 10
12.535532981
 20
5.5586389992
 11
12.5300265995
 21
5.5529592418
  0
SPLINE
  5
353
100
AcDbEntity
  8
0
100
AcDbSpline
 62
7
  6
CONTINUOUS
 70
0
 71
3
 72
9
 73
5
 74
0
 42
0.0000001
 43
0.0000001
 44
0.0000000001
 40
0.0
 40
0.0
 40
0.0
 40
0.0
 40
0.518682247
 40
1.0
 40
1.0
 40
1.0
 40
1.0
 10
11.3281054197
 20
6.1451716375
 30
0.0
 10
11.316897754
 20
6.1482637037
 30
0.0
 10
11.2953928397
 20
6.154608199
 30
0.0
 10
11.274170842
 20
6.1618525079
 30
0.0
 10
11.2640534415
 20
6.1655991536
 30
0.0
  0
SPLINE
  5
354
100
AcDbEntity
  8
0
100
AcDbSpline
 62
7
  6
CONTINUOUS
 70
0
 71
3
 72
9
 73
5
 74
0
 42
0.0000001
 43
0.0000001
 44
0.0000000001
 40
0.0
 40
0.0
 40
0.0
 40
0.0
 40
0.5046586347
 40
1.0
 40
1.0
 40
1.0
 40
1.0
 10
12.5238228174
 20
5.5473278492
 30
0.0
 10
12.5077250751
 20
5.5371675546
 30
0.0
 10
12.4753982731
 20
5.5177021675
 30
0.0
 10
12.4421004152
 20
5.4999285462
 30
0.0
 10
12.4253498896
 20
5.4916501517
 30
0.0
  0
SPLINE
  5
355
100
AcDbEntity
  8
0
100
AcDbSpline
 62
7
  6
CONTINUOUS
 70
0
 71
3
 72
21
 73
17
 74
0
 42
0.0000001
 43
0.0000001
 44
0.0000000001
 40
0.0
 40
0.0
 40
0.0
 40
0.0
 40
0.0657553467
 40
0.1321662899
 40
0.2659621551
 40
0.3995159223
 40
0.465614643
 40
0.5309502794
 40
0.5952940513
 40
0.6584222057
 40
0.7201168181
 40
0.7801667949
 40
0.8383677172
 40
0.8945262406
 40
0.948465955
 40
1.0
 40
1.0
 40
1.0
 40
1.0
 10
12.006743089
 20
6.092046329
 30
0.0
 10
11.9925150291
 20
6.091184538
 30
0.0
 10
11.9639019011
 20
6.0896926901
 30
0.0
 10
11.9062827894
 20
6.0876298354
 30
0.0
 10
11.833923633
 20
6.0867838953
 30
0.0
 10
11.7616415279
 20
6.088224131
 30
0.0
 10
11.7042526072
 20
6.0907629935
 30
0.0
 10
11.6618888712
 20
6.0933378173
 30
0.0
 10
11.6202168415
 20
6.0965799806
 30
0.0
 10
11.5793935923
 20
6.1004768902
 30
0.0
 10
11.5395730307
 20
6.1050138074
 30
0.0
 10
11.5009054963
 20
6.1101736511
 30
0.0
 10
11.4635367868
 20
6.1159362115
 30
0.0
 10
11.4276062614
 20
6.1222801022
 30
0.0
 10
11.3932513766
 20
6.129181046
 30
0.0
 10
11.3709541049
 20
6.1342554382
 30
0.0
 10
11.360098215
 20
6.1368913033
 30
0.0
  0
SPLINE
  5
356
100
AcDbEntity
  8
0
100
AcDbSpline
 62
7
  6
CONTINUOUS
 70
0
 71
3
 72
22
 73
18
 74
0
 42
0.0000001
 43
0.0000001
 44
0.0000000001
 40
0.0
 40
0.0
 40
0.0
 40
0.0
 40
0.0433496817
 40
0.0887204749
 40
0.1363684807
 40
0.186508223
 40
0.2393133424
 40
0.294902398
 40
0.3533490798
 40
0.4146723839
 40
0.4788530316
 40
0.5458283755
 40
0.6155092985
 40
0.6877791091
 40
0.7625074527
 40
0.8395533511
 40
1.0
 40
1.0
 40
1.0
 40
1.0
 10
11.277818628
 20
5.485328053
 30
0.0
 10
11.2751956526
 20
5.4866227645
 30
0.0
 10
11.2699293586
 20
5.4894837655
 30
0.0
 10
11.2621794105
 20
5.4944580601
 30
0.0
 10
11.2544190961
 20
5.500222416
 30
0.0
 10
11.2466535602
 20
5.5067857615
 30
0.0
 10
11.2388889604
 20
5.5141518307
 30
0.0
 10
11.2311293648
 20
5.5223146128
 30
0.0
 10
11.223381119
 20
5.53126265
 30
0.0
 10
11.2156476919
 20
5.5409755686
 30
0.0
 10
11.2079347328
 20
5.5514285078
 30
0.0
 10
11.2002449535
 20
5.5625899582
 30
0.0
 10
11.1925826586
 20
5.5744256432
 30
0.0
 10
11.1849496855
 20
5.5868975249
 30
0.0
 10
11.1773485409
 20
5.5999668361
 30
0.0
 10
11.167119204
 20
5.6183856802
 30
0.0
 10
11.159711821
 20
5.6326002687
 30
0.0
 10
11.1548373152
 20
5.6422673162
 30
0.0
  0
SPLINE
  5
357
100
AcDbEntity
  8
0
100
AcDbSpline
 62
7
  6
CONTINUOUS
 70
0
 71
3
 72
45
 73
41
 74
0
 42
0.0000001
 43
0.0000001
 44
0.0000000001
 40
0.0
 40
0.0
 40
0.0
 40
0.0
 40
0.0099874845
 40
0.0204477797
 40
0.0313772346
 40
0.0427709417
 40
0.0546220642
 40
0.0669226974
 40
0.0928353048
 40
0.1204259654
 40
0.1495972168
 40
0.1802393364
 40
0.2122321962
 40
0.2454472552
 40
0.2797477509
 40
0.3149906372
 40
0.3510273529
 40
0.3877044296
 40
0.4248650626
 40
0.4623495452
 40
0.4999964221
 40
0.5376433582
 40
0.575127933
 40
0.6122887496
 40
0.6489660315
 40
0.6850029789
 40
0.7202462826
 40
0.7545471433
 40
0.7877626678
 40
0.8197560782
 40
0.8503986535
 40
0.8795706031
 40
0.9071618935
 40
0.9330751181
 40
0.9453761802
 40
0.9572277353
 40
0.9686216429
 40
0.9795514157
 40
0.9900121412
 40
1.0
 40
1.0
 40
1.0
 40
1.0
 10
12.3943722805
 20
5.4763477026
 30
0.0
 10
12.3910315331
 20
5.4746974486
 30
0.0
 10
12.3841348072
 20
5.4714334293
 30
0.0
 10
12.3734080948
 20
5.4667423333
 30
0.0
 10
12.3620715277
 20
5.4621478388
 30
0.0
 10
12.350138103
 20
5.4576557666
 30
0.0
 10
12.3376216063
 20
5.453270857
 30
0.0
 10
12.3198650248
 20
5.4474731613
 30
0.0
 10
12.2963016138
 20
5.4405608753
 30
0.0
 10
12.2664169583
 20
5.4329068662
 30
0.0
 10
12.2345890896
 20
5.4257926738
 30
0.0
 10
12.2009645463
 20
5.4192514336
 30
0.0
 10
12.1656978318
 20
5.4133135524
 30
0.0
 10
12.1289513813
 20
5.4080073196
 30
0.0
 10
12.0908946084
 20
5.4033572171
 30
0.0
 10
12.0517030974
 20
5.3993850177
 30
0.0
 10
12.0115577181
 20
5.3961096013
 30
0.0
 10
11.9706438457
 20
5.3935458441
 30
0.0
 10
11.9291504531
 20
5.3917059991
 30
0.0
 10
11.8872691745
 20
5.3905986803
 30
0.0
 10
11.8451934843
 20
5.3902287535
 30
0.0
 10
11.8031177557
 20
5.3905983448
 30
0.0
 10
11.7612363476
 20
5.3917054803
 30
0.0
 10
11.7197427582
 20
5.3935449239
 30
0.0
 10
11.6788286374
 20
5.3961084383
 30
0.0
 10
11.6386829222
 20
5.399383641
 30
0.0
 10
11.5994909898
 20
5.4033554386
 30
0.0
 10
11.5614337282
 20
5.4080053863
 30
0.0
 10
11.5246867192
 20
5.4133113435
 30
0.0
 10
11.4894193915
 20
5.4192488989
 30
0.0
 10
11.4557941834
 20
5.4257900471
 30
0.0
 10
11.4239655563
 20
5.4329038913
 30
0.0
 10
11.3940801039
 20
5.4405577208
 30
0.0
 10
11.3705160145
 20
5.4474699123
 30
0.0
 10
11.3527588096
 20
5.4532674714
 30
0.0
 10
11.3402418259
 20
5.4576521924
 30
0.0
 10
11.3283080329
 20
5.4621442941
 30
0.0
 10
11.3169710197
 20
5.4667386238
 30
0.0
 10
11.3062437584
 20
5.4714295125
 30
0.0
 10
11.2993467137
 20
5.4746935644
 30
0.0
 10
11.2960058288
 20
5.4763438553
 30
0.0
  0
SPLINE
  5
358
100
AcDbEntity
  8
0
100
AcDbSpline
 62
7
  6
CONTINUOUS
 70
0
 71
3
 72
21
 73
17
 74
0
 42
0.0000001
 43
0.0000001
 44
0.0000000001
 40
0.0
 40
0.0
 40
0.0
 40
0.0
 40
0.1229777811
 40
0.1846429776
 40
0.2464399426
 40
0.3083804861
 40
0.3704752478
 40
0.4327329846
 40
0.4951582956
 40
0.5577522644
 40
0.6205120304
 40
0.6834304833
 40
0.7464981609
 40
0.8097030992
 40
0.8730318006
 40
1.0
 40
1.0
 40
1.0
 40
1.0
 10
12.006743089
 20
5.4217781568
 30
0.0
 10
11.9803576264
 20
5.4164159913
 30
0.0
 10
11.9405269503
 20
5.4093489723
 30
0.0
 10
11.8870254734
 20
5.4023099815
 30
0.0
 10
11.8466219316
 20
5.3983193637
 30
0.0
 10
11.8060099859
 20
5.3957249491
 30
0.0
 10
11.7652284738
 20
5.3946146801
 30
0.0
 10
11.7243275115
 20
5.3950583841
 30
0.0
 10
11.683365307
 20
5.3970980495
 30
0.0
 10
11.6424044749
 20
5.4007440714
 30
0.0
 10
11.6015075997
 20
5.4059769908
 30
0.0
 10
11.5607324385
 20
5.4127464518
 30
0.0
 10
11.5201282822
 20
5.4209756042
 30
0.0
 10
11.4797334657
 20
5.4305710418
 30
0.0
 10
11.4261486918
 20
5.4450567009
 30
0.0
 10
11.3864015852
 20
5.457629359
 30
0.0
 10
11.360098215
 20
5.4666231311
 30
0.0
  0
SPLINE
  5
359
100
AcDbEntity
  8
0
100
AcDbSpline
 62
7
  6
CONTINUOUS
 70
0
 71
3
 72
11
 73
7
 74
0
 42
0.0000001
 43
0.0000001
 44
0.0000000001
 40
0.0
 40
0.0
 40
0.0
 40
0.0
 40
0.2458763181
 40
0.4934036376
 40
0.7441674805
 40
1.0
 40
1.0
 40
1.0
 40
1.0
 10
11.3281054197
 20
5.4749034653
 30
0.0
 10
11.3254837261
 20
5.4747688759
 30
0.0
 10
11.3202108198
 20
5.4746872525
 30
0.0
 10
11.3122724283
 20
5.475173207
 30
0.0
 10
11.3042930335
 20
5.4763119738
 30
0.0
 10
11.2990134211
 20
5.4775211189
 30
0.0
 10
11.296378658
 20
5.4782414083
 30
0.0
  0
SPLINE
  5
35A
100
AcDbEntity
  8
0
100
AcDbSpline
 62
7
  6
CONTINUOUS
 70
0
 71
3
 72
9
 73
5
 74
0
 42
0.0000001
 43
0.0000001
 44
0.0000000001
 40
0.0
 40
0.0
 40
0.0
 40
0.0
 40
0.489721828
 40
1.0
 40
1.0
 40
1.0
 40
1.0
 10
11.296378658
 20
5.4782414083
 30
0.0
 10
11.2932467476
 20
5.4790976074
 30
0.0
 10
11.2869347784
 20
5.4811645841
 30
0.0
 10
11.2808523066
 20
5.4838306167
 30
0.0
 10
11.277818628
 20
5.485328053
 30
0.0
  0
LINE
  5
35B
100
AcDbEntity
  8
0
100
AcDbLine
 62
7
  6
CONTINUOUS
 10
12.3940744364
 20
5.4769664584
 11
12.3932010958
 21
5.4765790578
  0
SPLINE
  5
35C
100
AcDbEntity
  8
0
100
AcDbSpline
 62
7
  6
CONTINUOUS
 70
0
 71
3
 72
15
 73
11
 74
0
 42
0.0000001
 43
0.0000001
 44
0.0000000001
 40
0.0
 40
0.0
 40
0.0
 40
0.0
 40
0.1323376899
 40
0.2620788828
 40
0.389339691
 40
0.5143818274
 40
0.6375722641
 40
0.7593203908
 40
0.880018331
 40
1.0
 40
1.0
 40
1.0
 40
1.0
 10
12.3932010958
 20
5.4765790578
 30
0.0
 10
12.3790430667
 20
5.4703089294
 30
0.0
 10
12.3506334324
 20
5.4587050835
 30
0.0
 10
12.3073861914
 20
5.4442792692
 30
0.0
 10
12.2640455032
 20
5.433171639
 30
0.0
 10
12.2207587336
 20
5.4254216549
 30
0.0
 10
12.1776650519
 20
5.4209279006
 30
0.0
 10
12.1348755802
 20
5.4194710574
 30
0.0
 10
12.0924633568
 20
5.420755029
 30
0.0
 10
12.064395043
 20
5.4232254156
 30
0.0
 10
12.0504460479
 20
5.4248089726
 30
0.0
  0
SPLINE
  5
35D
100
AcDbEntity
  8
0
100
AcDbSpline
 62
7
  6
CONTINUOUS
 70
0
 71
3
 72
21
 73
17
 74
0
 42
0.0000001
 43
0.0000001
 44
0.0000000001
 40
0.0
 40
0.0
 40
0.0
 40
0.0
 40
0.132148599
 40
0.2658325108
 40
0.3326809035
 40
0.3992270385
 40
0.4652432816
 40
0.530504688
 40
0.5947891673
 40
0.6578796301
 40
0.7195639398
 40
0.7796368012
 40
0.8379006822
 40
0.8941662584
 40
0.9482553592
 40
1.0
 40
1.0
 40
1.0
 40
1.0
 10
12.0175486692
 20
6.1132823831
 30
0.0
 10
11.986517974
 20
6.1114614637
 30
0.0
 10
11.9240315946
 20
6.1088307765
 30
0.0
 10
11.8457693671
 20
6.1080014786
 30
0.0
 10
11.7829499973
 20
6.1088087474
 30
0.0
 10
11.7360616272
 20
6.1101505705
 30
0.0
 10
11.6895736045
 20
6.1122236255
 30
0.0
 10
11.643656337
 20
6.1150198778
 30
0.0
 10
11.5984782432
 20
6.1185295733
 30
0.0
 10
11.5542049811
 20
6.1227391084
 30
0.0
 10
11.5109988657
 20
6.1276333593
 30
0.0
 10
11.4690182106
 20
6.1331940078
 30
0.0
 10
11.4284168543
 20
6.1394002986
 30
0.0
 10
11.3893433371
 20
6.1462297125
 30
0.0
 10
11.3519409907
 20
6.15365611
 30
0.0
 10
11.327648795
 20
6.1591136079
 30
0.0
 10
11.3158120114
 20
6.1619479856
 30
0.0
  0
SPLINE
  5
35E
100
AcDbEntity
  8
0
100
AcDbSpline
 62
7
  6
CONTINUOUS
 70
0
 71
3
 72
90
 73
86
 74
0
 42
0.0000001
 43
0.0000001
 44
0.0000000001
 40
0.0
 40
0.0
 40
0.0
 40
0.0
 40
0.0039801841
 40
0.0081241159
 40
0.0124359656
 40
0.0169193153
 40
0.0215771898
 40
0.0264119289
 40
0.0314251936
 40
0.0366181713
 40
0.0419915567
 40
0.0475456772
 40
0.0532804457
 40
0.0591954437
 40
0.0652899501
 40
0.0715629317
 40
0.0846386004
 40
0.098409911
 40
0.1128604817
 40
0.1279710074
 40
0.1437195982
 40
0.1600820565
 40
0.1770321086
 40
0.194541602
 40
0.2125806763
 40
0.2311179203
 40
0.2501205135
 40
0.2695543567
 40
0.2893841934
 40
0.3095737255
 40
0.3300857245
 40
0.3508821382
 40
0.3719241976
 40
0.3931725218
 40
0.4145872201
 40
0.4361279928
 40
0.4577542316
 40
0.4794251191
 40
0.5010997291
 40
0.5227371263
 40
0.5442964667
 40
0.5657370967
 40
0.5870186529
 40
0.608101162
 40
0.6289451422
 40
0.6495117057
 40
0.6697626638
 40
0.6896606308
 40
0.7091691309
 40
0.728252709
 40
0.7468770455
 40
0.7650090769
 40
0.7826171262
 40
0.7996710429
 40
0.8161423523
 40
0.8320044245
 40
0.8472326669
 40
0.8618047498
 40
0.8757008734
 40
0.8889040964
 40
0.8952416854
 40
0.9014012239
 40
0.9073816029
 40
0.9131819719
 40
0.9188018178
 40
0.9242409106
 40
0.9294994338
 40
0.9345779311
 40
0.9394774185
 40
0.9441994036
 40
0.9487459354
 40
0.9531197203
 40
0.9573241226
 40
0.9613633439
 40
0.9652424353
 40
0.9689674716
 40
0.9725456352
 40
0.9759853336
 40
0.9824864943
 40
0.9855753483
 40
0.9885738142
 40
0.9914977336
 40
0.9943643342
 40
0.9971920087
 40
1.0
 40
1.0
 40
1.0
 40
1.0
 10
10.9101688928
 20
11.2006469102
 30
0.0
 10
10.9086200902
 20
11.1991508816
 30
0.0
 10
10.9053884313
 20
11.1961694055
 30
0.0
 10
10.9002575507
 20
11.1918147351
 30
0.0
 10
10.8947498906
 20
11.1874913012
 30
0.0
 10
10.8888684723
 20
11.1832013996
 30
0.0
 10
10.8826161632
 20
11.1789470335
 30
0.0
 10
10.8759960268
 20
11.174730273
 30
0.0
 10
10.8690113742
 20
11.1705531396
 30
0.0
 10
10.8616656708
 20
11.1664178011
 30
0.0
 10
10.8539626261
 20
11.1623262424
 30
0.0
 10
10.8459060693
 20
11.158280569
 30
0.0
 10
10.8375000511
 20
11.1542827684
 30
0.0
 10
10.8287487902
 20
11.1503348696
 30
0.0
 10
10.8196566696
 20
11.1464388511
 30
0.0
 10
10.8069087195
 20
11.1412440206
 30
0.0
 10
10.7901440936
 20
11.1349084204
 30
0.0
 10
10.7690120904
 20
11.1276445676
 30
0.0
 10
10.7466388293
 20
11.1206329266
 30
0.0
 10
10.7230694223
 20
11.1138877493
 30
0.0
 10
10.6983511869
 20
11.1074227635
 30
0.0
 10
10.6725339158
 20
11.101251136
 30
0.0
 10
10.6456696521
 20
11.0953854396
 30
0.0
 10
10.617812606
 20
11.0898376259
 30
0.0
 10
10.5890190297
 20
11.0846189937
 30
0.0
 10
10.5593470973
 20
11.0797401695
 30
0.0
 10
10.5288567795
 20
11.0752110861
 30
0.0
 10
10.4976097176
 20
11.0710409627
 30
0.0
 10
10.4656690964
 20
11.0672382864
 30
0.0
 10
10.4330995141
 20
11.0638107954
 30
0.0
 10
10.3999668511
 20
11.0607654645
 30
0.0
 10
10.3663381354
 20
11.0581084868
 30
0.0
 10
10.3322814051
 20
11.0558452642
 30
0.0
 10
10.297865568
 20
11.0539803979
 30
0.0
 10
10.263160261
 20
11.0525176793
 30
0.0
 10
10.2282357093
 20
11.0514600826
 30
0.0
 10
10.1931625835
 20
11.0508097584
 30
0.0
 10
10.158011857
 20
11.0505680309
 30
0.0
 10
10.1228546612
 20
11.0507353911
 30
0.0
 10
10.0877621404
 20
11.051311497
 30
0.0
 10
10.0528053069
 20
11.0522951767
 30
0.0
 10
10.0180548969
 20
11.0536844301
 30
0.0
 10
9.9835812275
 20
11.0554764332
 30
0.0
 10
9.9494540541
 20
11.0576675435
 30
0.0
 10
9.9157424283
 20
11.0602533074
 30
0.0
 10
9.8825145561
 20
11.0632284668
 30
0.0
 10
9.8498376577
 20
11.0665869684
 30
0.0
 10
9.8177778314
 20
11.0703219795
 30
0.0
 10
9.786399919
 20
11.0744259004
 30
0.0
 10
9.7557673731
 20
11.0788903796
 30
0.0
 10
9.725942127
 20
11.0837063303
 30
0.0
 10
9.6969844657
 20
11.0888639491
 30
0.0
 10
9.6689528979
 20
11.0943527336
 30
0.0
 10
9.6419040311
 20
11.100161502
 30
0.0
 10
9.6158924546
 20
11.1062784205
 30
0.0
 10
9.5909706142
 20
11.1126910279
 30
0.0
 10
9.5671887258
 20
11.1193862635
 30
0.0
 10
9.5445945551
 20
11.1263505001
 30
0.0
 10
9.5232336701
 20
11.1335695761
 30
0.0
 10
9.5062723148
 20
11.1398685858
 30
0.0
 10
9.4933629747
 20
11.1450353228
 30
0.0
 10
9.4841480352
 20
11.1489119984
 30
0.0
 10
9.4752723036
 20
11.1528412393
 30
0.0
 10
9.4667402438
 20
11.1568211402
 30
0.0
 10
9.4585561243
 20
11.1608496253
 30
0.0
 10
9.450724074
 20
11.1649247475
 30
0.0
 10
9.4432479916
 20
11.1690443951
 30
0.0
 10
9.436131634
 20
11.1732065632
 30
0.0
 10
9.4293785466
 20
11.1774091613
 30
0.0
 10
9.4229920871
 20
11.1816501004
 30
0.0
 10
9.4169754593
 20
11.1859273451
 30
0.0
 10
9.4113316136
 20
11.1902387414
 30
0.0
 10
9.4060634071
 20
11.1945823013
 30
0.0
 10
9.4011734199
 20
11.1989558647
 30
0.0
 10
9.3966641179
 20
11.2033574833
 30
0.0
 10
9.392537866
 20
11.2077849403
 30
0.0
 10
9.3887964455
 20
11.2122367441
 30
0.0
 10
9.384407406
 20
11.2180903527
 30
0.0
 10
9.3806803968
 20
11.2241017404
 30
0.0
 10
9.3777213136
 20
11.2302414863
 30
0.0
 10
9.3759334487
 20
11.2347822865
 30
0.0
 10
9.3745411732
 20
11.2393341354
 30
0.0
 10
9.3735456286
 20
11.2438948217
 30
0.0
 10
9.3729479152
 20
11.2484610942
 30
0.0
 10
9.3728148517
 20
11.251511722
 30
0.0
 10
9.3728148519
 20
11.2530308908
 30
0.0
  0
SPLINE
  5
35F
100
AcDbEntity
  8
0
100
AcDbSpline
 62
7
  6
CONTINUOUS
 70
0
 71
3
 72
18
 73
14
 74
0
 42
0.0000001
 43
0.0000001
 44
0.0000000001
 40
0.0
 40
0.0
 40
0.0
 40
0.0
 40
0.1504678859
 40
0.2917100145
 40
0.4244359174
 40
0.549562529
 40
0.668213991
 40
0.7255497453
 40
0.7817912733
 40
0.8371402265
 40
0.8918093735
 40
0.9460201098
 40
1.0
 40
1.0
 40
1.0
 40
1.0
 10
12.931851767
 20
10.5175923451
 30
0.0
 10
12.9343254804
 20
10.5199817688
 30
0.0
 10
12.9392693838
 20
10.5244649368
 30
0.0
 10
12.9469249854
 20
10.5304395146
 30
0.0
 10
12.9545715897
 20
10.5354363471
 30
0.0
 10
12.9622012849
 20
10.5394472461
 30
0.0
 10
12.9686139683
 20
10.5419905887
 30
0.0
 10
12.973705347
 20
10.5435017025
 30
0.0
 10
12.977469652
 20
10.5443726779
 30
0.0
 10
12.9812214683
 20
10.5449934384
 30
0.0
 10
12.9849597433
 20
10.5453637833
 30
0.0
 10
12.9886829933
 20
10.5454834905
 30
0.0
 10
12.9911566121
 20
10.5453959891
 30
0.0
 10
12.9923874848
 20
10.5453106316
 30
0.0
  0
SPLINE
  5
360
100
AcDbEntity
  8
0
100
AcDbSpline
 62
7
  6
CONTINUOUS
 70
0
 71
3
 72
19
 73
15
 74
0
 42
0.0000001
 43
0.0000001
 44
0.0000000001
 40
0.0
 40
0.0
 40
0.0
 40
0.0
 40
0.12732766
 40
0.2538196711
 40
0.3795264658
 40
0.5045235362
 40
0.5668075958
 40
0.6289556124
 40
0.6909843715
 40
0.7529118454
 40
0.8147570127
 40
0.8765397119
 40
0.9382804145
 40
1.0
 40
1.0
 40
1.0
 40
1.0
 10
10.4219488272
 20
6.586396036
 30
0.0
 10
10.4219488272
 20
6.5801440401
 30
0.0
 10
10.4213518992
 20
6.5676724799
 30
0.0
 10
10.418652219
 20
6.5492047629
 30
0.0
 10
10.4141761725
 20
6.5312019437
 30
0.0
 10
10.4089910369
 20
6.5167050004
 30
0.0
 10
10.4040043558
 20
6.5055140711
 30
0.0
 10
10.399857584
 20
6.4973468626
 30
0.0
 10
10.3953098851
 20
6.4894163359
 30
0.0
 10
10.3903716096
 20
6.4817405204
 30
0.0
 10
10.385054151
 20
6.4743372369
 30
0.0
 10
10.3793697636
 20
6.4672234398
 30
0.0
 10
10.3733317365
 20
6.4604157992
 30
0.0
 10
10.3690790927
 20
6.4560911639
 30
0.0
 10
10.3668993679
 20
6.4539857123
 30
0.0
  0
SPLINE
  5
361
100
AcDbEntity
  8
0
100
AcDbSpline
 62
7
  6
CONTINUOUS
 70
0
 71
3
 72
19
 73
15
 74
0
 42
0.0000001
 43
0.0000001
 44
0.0000000001
 40
0.0
 40
0.0
 40
0.0
 40
0.0
 40
0.12732766
 40
0.2538196711
 40
0.3795264658
 40
0.5045235362
 40
0.5668075958
 40
0.6289556124
 40
0.6909843715
 40
0.7529118454
 40
0.8147570127
 40
0.8765397119
 40
0.9382804145
 40
1.0
 40
1.0
 40
1.0
 40
1.0
 10
11.3878747107
 20
10.503853118
 30
0.0
 10
11.3878747107
 20
10.4976011221
 30
0.0
 10
11.3872777827
 20
10.4851295619
 30
0.0
 10
11.3845781025
 20
10.4666618449
 30
0.0
 10
11.380102056
 20
10.4486590256
 30
0.0
 10
11.3749169204
 20
10.4341620824
 30
0.0
 10
11.3699302393
 20
10.4229711531
 30
0.0
 10
11.3657834675
 20
10.4148039446
 30
0.0
 10
11.3612357686
 20
10.4068734179
 30
0.0
 10
11.3562974931
 20
10.3991976024
 30
0.0
 10
11.3509800345
 20
10.3917943189
 30
0.0
 10
11.3452956471
 20
10.3846805218
 30
0.0
 10
11.33925762
 20
10.3778728812
 30
0.0
 10
11.3350049762
 20
10.3735482459
 30
0.0
 10
11.3328252515
 20
10.3714427943
 30
0.0
  0
SPLINE
  5
362
100
AcDbEntity
  8
0
100
AcDbSpline
 62
7
  6
CONTINUOUS
 70
0
 71
3
 72
23
 73
19
 74
0
 42
0.0000001
 43
0.0000001
 44
0.0000000001
 40
0.0
 40
0.0
 40
0.0
 40
0.0
 40
0.0637771735
 40
0.1273448473
 40
0.1907019822
 40
0.253856143
 40
0.3168131975
 40
0.3795820985
 40
0.4421733906
 40
0.5045993374
 40
0.5668738654
 40
0.62901238
 40
0.6910316489
 40
0.7529496402
 40
0.814785347
 40
0.8765585971
 40
0.938289852
 40
1.0
 40
1.0
 40
1.0
 40
1.0
 10
10.2886510552
 20
8.1652698286
 30
0.0
 10
10.2886510552
 20
8.1584811406
 30
0.0
 10
10.2883261206
 20
8.144923764
 30
0.0
 10
10.2868595249
 20
8.1246701657
 30
0.0
 10
10.2844176389
 20
8.1045771288
 30
0.0
 10
10.2810062864
 20
8.084691792
 30
0.0
 10
10.2766331137
 20
8.0650596457
 30
0.0
 10
10.2713082075
 20
8.0457260684
 30
0.0
 10
10.2650438031
 20
8.0267356016
 30
0.0
 10
10.257854307
 20
8.0081320391
 30
0.0
 10
10.2497562595
 20
7.9899582851
 30
0.0
 10
10.2407682816
 20
7.9722562643
 30
0.0
 10
10.2309110639
 20
7.9550668216
 30
0.0
 10
10.220207323
 20
7.938429594
 30
0.0
 10
10.2086817644
 20
7.922382995
 30
0.0
 10
10.1963608182
 20
7.9069639222
 30
0.0
 10
10.1832733805
 20
7.8922084276
 30
0.0
 10
10.1740557728
 20
7.8828348209
 30
0.0
 10
10.169331222
 20
7.8782712707
 30
0.0
  0
SPLINE
  5
363
100
AcDbEntity
  8
0
100
AcDbSpline
 62
7
  6
CONTINUOUS
 70
0
 71
3
 72
35
 73
31
 74
0
 42
0.0000001
 43
0.0000001
 44
0.0000000001
 40
0.0
 40
0.0
 40
0.0
 40
0.0
 40
0.0623453511
 40
0.0939212713
 40
0.1256766544
 40
0.1894660818
 40
0.253309634
 40
0.3168973952
 40
0.3800470039
 40
0.4114446931
 40
0.4427162214
 40
0.4738676782
 40
0.5049094242
 40
0.5358552904
 40
0.5667218297
 40
0.5975275964
 40
0.6282923338
 40
0.6590361491
 40
0.6897787764
 40
0.720538771
 40
0.7513328275
 40
0.7821752282
 40
0.8130773404
 40
0.844047458
 40
0.875090681
 40
0.9062090046
 40
0.9374016979
 40
0.9530270982
 40
0.9686697633
 40
1.0
 40
1.0
 40
1.0
 40
1.0
 10
9.8336681797
 20
8.3767900926
 30
0.0
 10
9.8336681797
 20
8.3683923359
 30
0.0
 10
9.8343524549
 20
8.3557293935
 30
0.0
 10
9.8365602584
 20
8.3389406956
 30
0.0
 10
9.8396522433
 20
8.3220925421
 30
0.0
 10
9.8451186274
 20
8.30129079
 30
0.0
 10
9.8541343934
 20
8.2771176695
 30
0.0
 10
9.8655143332
 20
8.2540578429
 30
0.0
 10
9.87690669
 20
8.2360075436
 30
0.0
 10
9.8870983555
 20
8.2224579256
 30
0.0
 10
9.8952506702
 20
8.2127925092
 30
0.0
 10
9.9039090926
 20
8.203643657
 30
0.0
 10
9.9130569981
 20
8.1950475507
 30
0.0
 10
9.9226754219
 20
8.1870407286
 30
0.0
 10
9.9327428528
 20
8.1796593717
 30
0.0
 10
9.94323458
 20
8.1729391607
 30
0.0
 10
9.9541222112
 20
8.166914751
 30
0.0
 10
9.9653732733
 20
8.1616191527
 30
0.0
 10
9.9769509686
 20
8.1570829539
 30
0.0
 10
9.9888141348
 20
8.1533334644
 30
0.0
 10
10.0009174425
 20
8.1503938557
 30
0.0
 10
10.0132118279
 20
8.1482823786
 30
0.0
 10
10.0256451678
 20
8.1470116975
 30
0.0
 10
10.0381630843
 20
8.1465884645
 30
0.0
 10
10.050710032
 20
8.1470131348
 30
0.0
 10
10.0632297895
 20
8.1482799905
 30
0.0
 10
10.0735895058
 20
8.1500272359
 30
0.0
 10
10.0818084556
 20
8.1518313102
 30
0.0
 10
10.0899823426
 20
8.1539052802
 30
0.0
 10
10.096038224
 20
8.1557574882
 30
0.0
 10
10.1000326952
 20
8.157118905
 30
0.0
  0
SPLINE
  5
364
100
AcDbEntity
  8
0
100
AcDbSpline
 62
7
  6
CONTINUOUS
 70
0
 71
3
 72
21
 73
17
 74
0
 42
0.0000001
 43
0.0000001
 44
0.0000000001
 40
0.0
 40
0.0
 40
0.0
 40
0.0
 40
0.1273176899
 40
0.2537999351
 40
0.3167619508
 40
0.3795355113
 40
0.4421314924
 40
0.5045621415
 40
0.5668413449
 40
0.6289845255
 40
0.6910084484
 40
0.7529310939
 40
0.814771448
 40
0.8765493308
 40
0.9382852181
 40
1.0
 40
1.0
 40
1.0
 40
1.0
 10
10.1025419155
 20
8.1905021934
 30
0.0
 10
10.1025419155
 20
8.1832646678
 30
0.0
 10
10.1018510505
 20
8.1688277921
 30
0.0
 10
10.0992418477
 20
8.1509806945
 30
0.0
 10
10.0961232968
 20
8.1369812057
 30
0.0
 10
10.093279341
 20
8.1266551736
 30
0.0
 10
10.0899335969
 20
8.1165126274
 30
0.0
 10
10.086093778
 20
8.1065766593
 30
0.0
 10
10.081768737
 20
8.0968702493
 30
0.0
 10
10.0769683595
 20
8.087415799
 30
0.0
 10
10.0717037501
 20
8.0782351019
 30
0.0
 10
10.0659870498
 20
8.0693493158
 30
0.0
 10
10.0598313869
 20
8.0607790019
 30
0.0
 10
10.0532509189
 20
8.0525438427
 30
0.0
 10
10.0462611131
 20
8.0446630586
 30
0.0
 10
10.0413380983
 20
8.039656716
 30
0.0
 10
10.0388147807
 20
8.0372193633
 30
0.0
  0
SPLINE
  5
365
100
AcDbEntity
  8
0
100
AcDbSpline
 62
7
  6
CONTINUOUS
 70
0
 71
3
 72
42
 73
38
 74
0
 42
0.0000001
 43
0.0000001
 44
0.0000000001
 40
0.0
 40
0.0
 40
0.0
 40
0.0
 40
0.0310747399
 40
0.0466742052
 40
0.0623120863
 40
0.09369676
 40
0.1252253837
 40
0.1568866085
 40
0.1886662314
 40
0.2205476536
 40
0.2525121981
 40
0.2845395162
 40
0.3166080022
 40
0.3486952307
 40
0.3807784038
 40
0.4128348044
 40
0.4448422473
 40
0.476779524
 40
0.5086268332
 40
0.5403661909
 40
0.5719818139
 40
0.6034604675
 40
0.6347917735
 40
0.6659684668
 40
0.6969865958
 40
0.7278456582
 40
0.7585486651
 40
0.789102127
 40
0.819515959
 40
0.8498033003
 40
0.8649073404
 40
0.8799860241
 40
0.9100712959
 40
0.9400857958
 40
0.9550764676
 40
0.9700580345
 40
1.0
 40
1.0
 40
1.0
 40
1.0
 10
10.1025419155
 20
8.1905021934
 30
0.0
 10
10.1025419155
 20
8.1961275505
 30
0.0
 10
10.1022274695
 20
8.2045810733
 30
0.0
 10
10.1011889754
 20
8.215815091
 30
0.0
 10
10.0997338404
 20
8.227059869
 30
0.0
 10
10.0971398798
 20
8.2410548252
 30
0.0
 10
10.0928131668
 20
8.257634396
 30
0.0
 10
10.0872923756
 20
8.2739312412
 30
0.0
 10
10.0806080049
 20
8.2898553691
 30
0.0
 10
10.0727968569
 20
8.3053195372
 30
0.0
 10
10.0639019043
 20
8.3202388504
 30
0.0
 10
10.0539720411
 20
8.334531458
 30
0.0
 10
10.0430618176
 20
8.3481189323
 30
0.0
 10
10.0312311432
 20
8.3609267118
 30
0.0
 10
10.0185449601
 20
8.3728845014
 30
0.0
 10
10.0050728908
 20
8.383926655
 30
0.0
 10
9.9908888595
 20
8.3939925323
 30
0.0
 10
9.9760706915
 20
8.4030268291
 30
0.0
 10
9.9606996908
 20
8.4109798785
 30
0.0
 10
9.9448602001
 20
8.4178079223
 30
0.0
 10
9.9286391439
 20
8.4234733511
 30
0.0
 10
9.9121255579
 20
8.4279449117
 30
0.0
 10
9.8954101082
 20
8.4311978809
 30
0.0
 10
9.8785845983
 20
8.4332142052
 30
0.0
 10
9.8617414775
 20
8.4339826073
 30
0.0
 10
9.8449733199
 20
8.4334986487
 30
0.0
 10
9.828372389
 20
8.4317647923
 30
0.0
 10
9.8120298778
 20
8.4287902912
 30
0.0
 10
9.7960363545
 20
8.4245915555
 30
0.0
 10
9.7830582749
 20
8.4200863699
 30
0.0
 10
9.7729425047
 20
8.415896609
 30
0.0
 10
9.76303147
 20
8.41132986
 30
0.0
 10
9.751014325
 20
8.404910494
 30
0.0
 10
9.7395543778
 20
8.3975716581
 30
0.0
 10
9.7307717075
 20
8.3911807527
 30
0.0
 10
9.7222600928
 20
8.384455175
 30
0.0
 10
9.7161824452
 20
8.379034745
 30
0.0
 10
9.7122838851
 20
8.3752690017
 30
0.0
  0
SPLINE
  5
366
100
AcDbEntity
  8
0
100
AcDbSpline
 62
7
  6
CONTINUOUS
 70
0
 71
3
 72
18
 73
14
 74
0
 42
0.0000001
 43
0.0000001
 44
0.0000000001
 40
0.0
 40
0.0
 40
0.0
 40
0.0
 40
0.0548620589
 40
0.1099280789
 40
0.165399508
 40
0.2214731255
 40
0.2783387361
 40
0.3361775086
 40
0.4554063416
 40
0.5804417492
 40
0.7123343341
 40
0.8519577333
 40
1.0
 40
1.0
 40
1.0
 40
1.0
 10
10.9368148519
 20
11.2530308908
 30
0.0
 10
10.9368148517
 20
11.2519264886
 30
0.0
 10
10.936744743
 20
11.2497129442
 30
0.0
 10
10.9364295594
 20
11.2463962289
 30
0.0
 10
10.9359044327
 20
11.2430814249
 30
0.0
 10
10.9351695362
 20
11.2397697428
 30
0.0
 10
10.9342251547
 20
11.2364620188
 30
0.0
 10
10.9326718586
 20
11.2320140166
 30
0.0
 10
10.9301835046
 20
11.2264507569
 30
0.0
 10
10.9263960747
 20
11.2198805259
 30
0.0
 10
10.9217831902
 20
11.2133528223
 30
0.0
 10
10.9163518695
 20
11.2068741977
 30
0.0
 10
10.912312393
 20
11.2027173724
 30
0.0
 10
10.9101688928
 20
11.2006469102
 30
0.0
  0
SPLINE
  5
367
100
AcDbEntity
  8
0
100
AcDbSpline
 62
7
  6
CONTINUOUS
 70
0
 71
3
 72
42
 73
38
 74
0
 42
0.0000001
 43
0.0000001
 44
0.0000000001
 40
0.0
 40
0.0
 40
0.0
 40
0.0
 40
0.0299419644
 40
0.0449235317
 40
0.0599142035
 40
0.0899287023
 40
0.1200139727
 40
0.1350926544
 40
0.1501966973
 40
0.1804840373
 40
0.210897868
 40
0.2414513286
 40
0.2721543342
 40
0.3030133956
 40
0.3340315238
 40
0.3652082165
 40
0.3965395222
 40
0.4280181758
 40
0.459633799
 40
0.4913731572
 40
0.5232204671
 40
0.5551577446
 40
0.5871651885
 40
0.6192215901
 40
0.6513047644
 40
0.683391994
 40
0.715460481
 40
0.7474877999
 40
0.7794523452
 40
0.8113337678
 40
0.8431133918
 40
0.8747746145
 40
0.906303246
 40
0.9376878974
 40
0.9533257627
 40
0.9689252947
 40
1.0
 40
1.0
 40
1.0
 40
1.0
 10
10.0848323777
 20
6.7460031579
 30
0.0
 10
10.08820008
 20
6.7492561073
 30
0.0
 10
10.0934501359
 20
6.753938428
 30
0.0
 10
10.1008026938
 20
6.7597482168
 30
0.0
 10
10.1083894585
 20
6.7652688239
 30
0.0
 10
10.1182888844
 20
6.7716083516
 30
0.0
 10
10.1286696701
 20
6.7771535497
 30
0.0
 10
10.1372310898
 20
6.7810984994
 30
0.0
 10
10.1459694189
 20
6.7847176749
 30
0.0
 10
10.1571802575
 20
6.7886094134
 30
0.0
 10
10.1709959415
 20
6.7922363917
 30
0.0
 10
10.185113086
 20
6.7948058529
 30
0.0
 10
10.1994534621
 20
6.7963036057
 30
0.0
 10
10.2139382932
 20
6.7967216613
 30
0.0
 10
10.2284878796
 20
6.7960578907
 30
0.0
 10
10.2430222532
 20
6.7943161283
 30
0.0
 10
10.2574615537
 20
6.7915061156
 30
0.0
 10
10.2717264783
 20
6.7876434477
 30
0.0
 10
10.285738707
 20
6.782749481
 30
0.0
 10
10.2994213282
 20
6.776851213
 30
0.0
 10
10.3126992537
 20
6.7699811318
 30
0.0
 10
10.325499626
 20
6.762177037
 30
0.0
 10
10.337752212
 20
6.7534818322
 30
0.0
 10
10.3493897841
 20
6.743943291
 30
0.0
 10
10.3603484841
 20
6.7336137962
 30
0.0
 10
10.3705681701
 20
6.7225500549
 30
0.0
 10
10.3799927432
 20
6.7108127902
 30
0.0
 10
10.3885704518
 20
6.6984664106
 30
0.0
 10
10.3962541736
 20
6.6855786642
 30
0.0
 10
10.4030016732
 20
6.6722202563
 30
0.0
 10
10.4087758282
 20
6.6584645218
 30
0.0
 10
10.4135448511
 20
6.6443868227
 30
0.0
 10
10.4172823886
 20
6.6300648994
 30
0.0
 10
10.4195231313
 20
6.6179756468
 30
0.0
 10
10.4207801173
 20
6.6082620694
 30
0.0
 10
10.4216771979
 20
6.5985577892
 30
0.0
 10
10.4219488272
 20
6.5912553807
 30
0.0
 10
10.4219488272
 20
6.586396036
 30
0.0
  0
SPLINE
  5
368
100
AcDbEntity
  8
0
100
AcDbSpline
 62
7
  6
CONTINUOUS
 70
0
 71
3
 72
42
 73
38
 74
0
 42
0.0000001
 43
0.0000001
 44
0.0000000001
 40
0.0
 40
0.0
 40
0.0
 40
0.0
 40
0.0299419644
 40
0.0449235317
 40
0.0599142035
 40
0.0899287023
 40
0.1200139727
 40
0.1350926544
 40
0.1501966973
 40
0.1804840373
 40
0.210897868
 40
0.2414513286
 40
0.2721543342
 40
0.3030133956
 40
0.3340315238
 40
0.3652082165
 40
0.3965395222
 40
0.4280181758
 40
0.459633799
 40
0.4913731572
 40
0.5232204671
 40
0.5551577446
 40
0.5871651885
 40
0.6192215901
 40
0.6513047644
 40
0.683391994
 40
0.715460481
 40
0.7474877999
 40
0.7794523452
 40
0.8113337678
 40
0.8431133918
 40
0.8747746145
 40
0.906303246
 40
0.9376878974
 40
0.9533257627
 40
0.9689252947
 40
1.0
 40
1.0
 40
1.0
 40
1.0
 10
11.0507582612
 20
10.6634602399
 30
0.0
 10
11.0541259636
 20
10.6667131893
 30
0.0
 10
11.0593760195
 20
10.67139551
 30
0.0
 10
11.0667285774
 20
10.6772052988
 30
0.0
 10
11.074315342
 20
10.6827259059
 30
0.0
 10
11.084214768
 20
10.6890654336
 30
0.0
 10
11.0945955536
 20
10.6946106317
 30
0.0
 10
11.1031569733
 20
10.6985555814
 30
0.0
 10
11.1118953024
 20
10.7021747569
 30
0.0
 10
11.123106141
 20
10.7060664954
 30
0.0
 10
11.136921825
 20
10.7096934737
 30
0.0
 10
11.1510389695
 20
10.7122629349
 30
0.0
 10
11.1653793457
 20
10.7137606877
 30
0.0
 10
11.1798641767
 20
10.7141787433
 30
0.0
 10
11.1944137632
 20
10.7135149726
 30
0.0
 10
11.2089481368
 20
10.7117732103
 30
0.0
 10
11.2233874372
 20
10.7089631976
 30
0.0
 10
11.2376523618
 20
10.7051005297
 30
0.0
 10
11.2516645906
 20
10.700206563
 30
0.0
 10
11.2653472117
 20
10.694308295
 30
0.0
 10
11.2786251373
 20
10.6874382138
 30
0.0
 10
11.2914255095
 20
10.679634119
 30
0.0
 10
11.3036780956
 20
10.6709389142
 30
0.0
 10
11.3153156676
 20
10.661400373
 30
0.0
 10
11.3262743676
 20
10.6510708782
 30
0.0
 10
11.3364940537
 20
10.6400071369
 30
0.0
 10
11.3459186267
 20
10.6282698722
 30
0.0
 10
11.3544963353
 20
10.6159234926
 30
0.0
 10
11.3621800572
 20
10.6030357462
 30
0.0
 10
11.3689275567
 20
10.5896773383
 30
0.0
 10
11.3747017117
 20
10.5759216038
 30
0.0
 10
11.3794707346
 20
10.5618439046
 30
0.0
 10
11.3832082722
 20
10.5475219814
 30
0.0
 10
11.3854490148
 20
10.5354327288
 30
0.0
 10
11.3867060008
 20
10.5257191513
 30
0.0
 10
11.3876030814
 20
10.5160148712
 30
0.0
 10
11.3878747107
 20
10.5087124627
 30
0.0
 10
11.3878747107
 20
10.503853118
 30
0.0
  0
SPLINE
  5
369
100
AcDbEntity
  8
0
100
AcDbSpline
 62
7
  6
CONTINUOUS
 70
0
 71
3
 72
39
 73
35
 74
0
 42
0.0000001
 43
0.0000001
 44
0.0000000001
 40
0.0
 40
0.0
 40
0.0
 40
0.0
 40
0.0299424698
 40
0.0599093171
 40
0.0899243244
 40
0.1200101049
 40
0.1501875654
 40
0.1804754197
 40
0.2108897678
 40
0.2414437479
 40
0.2721472748
 40
0.3030068601
 40
0.3340255156
 40
0.3652027379
 40
0.3965345747
 40
0.4280137612
 40
0.4596299196
 40
0.491369815
 40
0.5232176628
 40
0.555155479
 40
0.5871634623
 40
0.619220404
 40
0.6513041182
 40
0.6833918873
 40
0.7154609133
 40
0.74748877
 40
0.7794538516
 40
0.811335809
 40
0.8431159677
 40
0.8747777197
 40
0.9063068786
 40
0.9376920899
 40
0.9689246486
 40
1.0
 40
1.0
 40
1.0
 40
1.0
 10
9.5579561109
 20
8.5112171116
 30
0.0
 10
9.5652555669
 20
8.5182678208
 30
0.0
 10
9.5804284807
 20
8.5318001823
 30
0.0
 10
9.6047378242
 20
8.5502356333
 30
0.0
 10
9.6304729113
 20
8.566715704
 30
0.0
 10
9.6574899277
 20
8.5811479717
 30
0.0
 10
9.6856403411
 20
8.5934535876
 30
0.0
 10
9.7147688017
 20
8.6035648893
 30
0.0
 10
9.744714795
 20
8.6114265434
 30
0.0
 10
9.7753133319
 20
8.6169956558
 30
0.0
 10
9.8063959443
 20
8.6202419789
 30
0.0
 10
9.8377915942
 20
8.6211480511
 30
0.0
 10
9.8693276128
 20
8.6197092684
 30
0.0
 10
9.9008306476
 20
8.6159339573
 30
0.0
 10
9.9321276113
 20
8.6098432459
 30
0.0
 10
9.9630466171
 20
8.6014709331
 30
0.0
 10
9.993417902
 20
8.5908632842
 30
0.0
 10
10.0230747598
 20
8.578078821
 30
0.0
 10
10.0518544476
 20
8.5631879817
 30
0.0
 10
10.0795990503
 20
8.5462726962
 30
0.0
 10
10.1061563329
 20
8.5274259442
 30
0.0
 10
10.1313805681
 20
8.5067512604
 30
0.0
 10
10.1551333612
 20
8.4843622059
 30
0.0
 10
10.1772843616
 20
8.4603816955
 30
0.0
 10
10.1977119733
 20
8.4349413403
 30
0.0
 10
10.2163040035
 20
8.4081807294
 30
0.0
 10
10.2329583284
 20
8.3802467123
 30
0.0
 10
10.2475834163
 20
8.3512925655
 30
0.0
 10
10.2600988129
 20
8.3214771764
 30
0.0
 10
10.2704355689
 20
8.2909641148
 30
0.0
 10
10.2785366855
 20
8.2599210122
 30
0.0
 10
10.2843573334
 20
8.228517758
 30
0.0
 10
10.2878653474
 20
8.196929015
 30
0.0
 10
10.2886510552
 20
8.1758024279
 30
0.0
 10
10.2886510552
 20
8.1652698286
 30
0.0
  0
SPLINE
  5
36A
100
AcDbEntity
  8
0
100
AcDbSpline
 62
7
  6
CONTINUOUS
 70
0
 71
3
 72
11
 73
7
 74
0
 42
0.0000001
 43
0.0000001
 44
0.0000000001
 40
0.0
 40
0.0
 40
0.0
 40
0.0
 40
0.2433354515
 40
0.4912591401
 40
0.7436013955
 40
1.0
 40
1.0
 40
1.0
 40
1.0
 10
9.8410027989
 20
8.4329708061
 30
0.0
 10
9.8397794045
 20
8.4285276171
 30
0.0
 10
9.837634017
 20
8.419464964
 30
0.0
 10
9.8353456727
 20
8.4055584608
 30
0.0
 10
9.8339695398
 20
8.3912840735
 30
0.0
 10
9.8336681797
 20
8.381646034
 30
0.0
 10
9.8336681797
 20
8.3767900926
 30
0.0
  0
SPLINE
  5
36B
100
AcDbEntity
  8
0
100
AcDbSpline
 62
7
  6
CONTINUOUS
 70
0
 71
3
 72
93
 73
89
 74
0
 42
0.0000001
 43
0.0000001
 44
0.0000000001
 40
0.0
 40
0.0
 40
0.0
 40
0.0
 40
0.0027164122
 40
0.0054531986
 40
0.0082302464
 40
0.0110665143
 40
0.0139796987
 40
0.0169859749
 40
0.0200999116
 40
0.0233343924
 40
0.0267007144
 40
0.0302086301
 40
0.0338665055
 40
0.0376814345
 40
0.0416593638
 40
0.0458052537
 40
0.0501231341
 40
0.0546162866
 40
0.0592872492
 40
0.0641379798
 40
0.0691698571
 40
0.0743837847
 40
0.0797802281
 40
0.0853592419
 40
0.0911205549
 40
0.097063532
 40
0.1031872889
 40
0.1094906267
 40
0.1159721353
 40
0.1226301497
 40
0.136467702
 40
0.1509863985
 40
0.166166177
 40
0.1819844989
 40
0.1984166092
 40
0.2154357535
 40
0.2330133648
 40
0.2511192265
 40
0.2697216198
 40
0.2887874599
 40
0.3082824199
 40
0.3281710492
 40
0.3484168852
 40
0.3689825618
 40
0.3898299142
 40
0.4109200821
 40
0.4322136103
 40
0.45367055
 40
0.4752505584
 40
0.496912997
 40
0.5186170297
 40
0.5403217213
 40
0.5619861345
 40
0.5835694282
 40
0.6050309555
 40
0.6263303623
 40
0.6474276864
 40
0.6682834561
 40
0.6888587905
 40
0.7091155008
 40
0.729016193
 40
0.7485243728
 40
0.7676045542
 40
0.7862223725
 40
0.8043447018
 40
0.8219397795
 40
0.8389773394
 40
0.8554287585
 40
0.8712672205
 40
0.8864679016
 40
0.901008187
 40
0.914867929
 40
0.921537231
 40
0.9280301459
 40
0.9343449921
 40
0.9404803324
 40
0.9464349771
 40
0.9522079882
 40
0.9577987496
 40
0.9632069274
 40
0.9684325931
 40
0.9734761642
 40
0.9783385117
 40
0.9830209603
 40
0.9875254509
 40
0.9918545996
 40
0.9960115539
 40
1.0
 40
1.0
 40
1.0
 40
1.0
 10
12.8713160493
 20
8.7995037624
 30
0.0
 10
12.8696829691
 20
8.7996170117
 30
0.0
 10
12.8664129196
 20
8.7999921469
 30
0.0
 10
12.8615494755
 20
8.8009960619
 30
0.0
 10
12.8567227962
 20
8.8024410156
 30
0.0
 10
12.851936291
 20
8.8043255496
 30
0.0
 10
12.8471924878
 20
8.8066480963
 30
0.0
 10
12.8424937435
 20
8.8094067053
 30
0.0
 10
12.83784231
 20
8.8125995471
 30
0.0
 10
12.833240168
 20
8.8162244793
 30
0.0
 10
12.8286893809
 20
8.820279476
 30
0.0
 10
12.8241918577
 20
8.824762262
 30
0.0
 10
12.8197495866
 20
8.8296705267
 30
0.0
 10
12.8153645453
 20
8.8350017805
 30
0.0
 10
12.8110386822
 20
8.8407533444
 30
0.0
 10
12.8067740592
 20
8.8469224132
 30
0.0
 10
12.8025725958
 20
8.8535059052
 30
0.0
 10
12.7984363851
 20
8.860500625
 30
0.0
 10
12.7943673364
 20
8.8679030876
 30
0.0
 10
12.7903675017
 20
8.8757096681
 30
0.0
 10
12.7864387991
 20
8.8839164865
 30
0.0
 10
12.7825831866
 20
8.8925194816
 30
0.0
 10
12.7788025901
 20
8.9015143811
 30
0.0
 10
12.7750988557
 20
8.9108967005
 30
0.0
 10
12.7714738927
 20
8.920661775
 30
0.0
 10
12.7679294471
 20
8.9308047167
 30
0.0
 10
12.7644673688
 20
8.9413204704
 30
0.0
 10
12.7610893389
 20
8.9522037613
 30
0.0
 10
12.7577970789
 20
8.9634491621
 30
0.0
 10
12.7534683155
 20
8.9791201178
 30
0.0
 10
12.748298212
 20
8.9995807848
 30
0.0
 10
12.7425384014
 20
9.0251797013
 30
0.0
 10
12.7371576534
 20
9.0520792068
 30
0.0
 10
12.7321668891
 20
9.0802253164
 30
0.0
 10
12.727576272
 20
9.1095617214
 30
0.0
 10
12.723395145
 20
9.1400295938
 30
0.0
 10
12.7196320207
 20
9.1715678084
 30
0.0
 10
12.7162945591
 20
9.2041130476
 30
0.0
 10
12.7133895536
 20
9.2375999434
 30
0.0
 10
12.7109229188
 20
9.2719612137
 30
0.0
 10
12.7088996793
 20
9.3071278026
 30
0.0
 10
12.7073239601
 20
9.3430290221
 30
0.0
 10
12.7061989788
 20
9.3795926969
 30
0.0
 10
12.7055270402
 20
9.4167453112
 30
0.0
 10
12.7053095319
 20
9.4544121579
 30
0.0
 10
12.7055469222
 20
9.4925174897
 30
0.0
 10
12.706238757
 20
9.5309846729
 30
0.0
 10
12.7073836638
 20
9.5697363425
 30
0.0
 10
12.7089793539
 20
9.6086945597
 30
0.0
 10
12.7110226284
 20
9.6477809688
 30
0.0
 10
12.7135093836
 20
9.6869169556
 30
0.0
 10
12.7164346205
 20
9.7260238057
 30
0.0
 10
12.7197924539
 20
9.7650228635
 30
0.0
 10
12.7235761249
 20
9.8038356903
 30
0.0
 10
12.7277780142
 20
9.8423842237
 30
0.0
 10
12.7323896551
 20
9.8805909352
 30
0.0
 10
12.7374017532
 20
9.9183789875
 30
0.0
 10
12.7428042041
 20
9.9556723892
 30
0.0
 10
12.7485861144
 20
9.9923961485
 30
0.0
 10
12.7547358224
 20
10.0284764252
 30
0.0
 10
12.7612409219
 20
10.0638406798
 30
0.0
 10
12.7680882862
 20
10.0984178215
 30
0.0
 10
12.7752640952
 20
10.1321383533
 30
0.0
 10
12.7827538609
 20
10.1649345156
 30
0.0
 10
12.7905424564
 20
10.1967404263
 30
0.0
 10
12.7986141481
 20
10.2274922167
 30
0.0
 10
12.8069526267
 20
10.2571281632
 30
0.0
 10
12.8155410414
 20
10.2855888248
 30
0.0
 10
12.8243620348
 20
10.3128171453
 30
0.0
 10
12.8333977821
 20
10.3387586719
 30
0.0
 10
12.8426300298
 20
10.3633613548
 30
0.0
 10
12.8505701642
 20
10.3829502361
 30
0.0
 10
12.8570170978
 20
10.3979046411
 30
0.0
 10
12.8618277868
 20
10.4086115862
 30
0.0
 10
12.8666735846
 20
10.4189483913
 30
0.0
 10
12.871552081
 20
10.4289098927
 30
0.0
 10
12.8764608042
 20
10.4384911114
 30
0.0
 10
12.8813973341
 20
10.4476872461
 30
0.0
 10
12.886359139
 20
10.4564937272
 30
0.0
 10
12.8913438126
 20
10.4649061401
 30
0.0
 10
12.8963488019
 20
10.4729203315
 30
0.0
 10
12.9013716909
 20
10.4805322855
 30
0.0
 10
12.9064099236
 20
10.487738237
 30
0.0
 10
12.9114610444
 20
10.494534615
 30
0.0
 10
12.9165226224
 20
10.5009180909
 30
0.0
 10
12.9215922708
 20
10.5068855881
 30
0.0
 10
12.926667337
 20
10.512433871
 30
0.0
 10
12.9301229862
 20
10.5159224709
 30
0.0
 10
12.931851767
 20
10.5175923451
 30
0.0
  0
SPLINE
  5
36C
100
AcDbEntity
  8
0
100
AcDbSpline
 62
7
  6
CONTINUOUS
 70
0
 71
3
 72
71
 73
67
 74
0
 42
0.0000001
 43
0.0000001
 44
0.0000000001
 40
0.0
 40
0.0
 40
0.0
 40
0.0
 40
0.0036899152
 40
0.0075220691
 40
0.011499926
 40
0.015626386
 40
0.0199038143
 40
0.0243340627
 40
0.0289186019
 40
0.033658485
 40
0.0436062375
 40
0.0541801253
 40
0.0653780955
 40
0.0771945817
 40
0.0896210345
 40
0.1026463466
 40
0.1162571635
 40
0.1304381093
 40
0.1451720183
 40
0.1604401227
 40
0.1762221892
 40
0.1924966226
 40
0.2092406043
 40
0.2264301995
 40
0.244040435
 40
0.2620453706
 40
0.2804182021
 40
0.2991313375
 40
0.3181564555
 40
0.3374645722
 40
0.376810439
 40
0.4169272457
 40
0.4575664206
 40
0.4984752342
 40
0.5393988184
 40
0.5800821866
 40
0.6202722586
 40
0.6597198794
 40
0.6790893053
 40
0.6981825172
 40
0.716970402
 40
0.7354244834
 40
0.7535169836
 40
0.771220903
 40
0.7885101112
 40
0.8053594049
 40
0.8217445858
 40
0.8376425662
 40
0.8530314785
 40
0.86789076
 40
0.8822012723
 40
0.8959454692
 40
0.9091075644
 40
0.9216737059
 40
0.9336322201
 40
0.944973947
 40
0.9556926008
 40
0.9657852602
 40
0.9705973117
 40
0.9752536502
 40
0.9797551385
 40
0.9841030552
 40
0.9882991649
 40
0.9923456239
 40
0.9962449249
 40
1.0
 40
1.0
 40
1.0
 40
1.0
 10
12.8297828203
 20
9.0403339584
 30
0.0
 10
12.8287629377
 20
9.0415879621
 30
0.0
 10
12.8267367209
 20
9.0441876903
 30
0.0
 10
12.8237915052
 20
9.0482758936
 30
0.0
 10
12.8208848863
 20
9.0526236073
 30
0.0
 10
12.8180181139
 20
9.0572289862
 30
0.0
 10
12.8151923281
 20
9.0620901838
 30
0.0
 10
12.812408628
 20
9.0672051782
 30
0.0
 10
12.8096681596
 20
9.0725719139
 30
0.0
 10
12.8060143838
 20
9.0801833135
 30
0.0
 10
12.8015756705
 20
9.0903241766
 30
0.0
 10
12.7965216777
 20
9.103270745
 30
0.0
 10
12.791665966
 20
9.1171629474
 30
0.0
 10
12.7870165654
 20
9.1319779179
 30
0.0
 10
12.7825811794
 20
9.1476914975
 30
0.0
 10
12.7783672151
 20
9.1642778614
 30
0.0
 10
12.7743817376
 20
9.1817097011
 30
0.0
 10
12.7706314156
 20
9.1999582306
 30
0.0
 10
12.7671225344
 20
9.218993268
 30
0.0
 10
12.7638609871
 20
9.2387833018
 30
0.0
 10
12.7608522609
 20
9.2592955407
 30
0.0
 10
12.7581013941
 20
9.2804959642
 30
0.0
 10
12.7556130017
 20
9.3023493931
 30
0.0
 10
12.7533912667
 20
9.3248195582
 30
0.0
 10
12.7514399283
 20
9.3478691527
 30
0.0
 10
12.7497622512
 20
9.3714598922
 30
0.0
 10
12.7483610503
 20
9.3955525907
 30
0.0
 10
12.7472386952
 20
9.4201072164
 30
0.0
 10
12.7463970523
 20
9.445083006
 30
0.0
 10
12.7456464644
 20
9.4791029645
 30
0.0
 10
12.7454292727
 20
9.5223731827
 30
0.0
 10
12.7462992592
 20
9.574980841
 30
0.0
 10
12.7482929999
 20
9.6282430541
 30
0.0
 10
12.7513973899
 20
9.6818059814
 30
0.0
 10
12.7555918759
 20
9.7353139994
 30
0.0
 10
12.7608485601
 20
9.7884118545
 30
0.0
 10
12.7671324061
 20
9.8407468133
 30
0.0
 10
12.7732261644
 20
9.8836908721
 30
0.0
 10
12.7785926829
 20
9.917395806
 30
0.0
 10
12.7828219233
 20
9.9421160271
 30
0.0
 10
12.7872727282
 20
9.9663897737
 30
0.0
 10
12.7919377083
 20
9.9901767491
 30
0.0
 10
12.7968090841
 20
10.0134374256
 30
0.0
 10
12.8018787427
 20
10.0361331669
 30
0.0
 10
12.8071382177
 20
10.0582262882
 30
0.0
 10
12.8125787347
 20
10.079680112
 30
0.0
 10
12.8181912248
 20
10.1004590254
 30
0.0
 10
12.8239663273
 20
10.120528554
 30
0.0
 10
12.8298943937
 20
10.1398554268
 30
0.0
 10
12.83596553
 20
10.1584076203
 30
0.0
 10
12.8421696164
 20
10.1761544133
 30
0.0
 10
12.8484963038
 20
10.1930664615
 30
0.0
 10
12.8549350359
 20
10.2091158528
 30
0.0
 10
12.8614750942
 20
10.2242761545
 30
0.0
 10
12.8681056239
 20
10.2385224338
 30
0.0
 10
12.8748156646
 20
10.2518314563
 30
0.0
 10
12.8815941054
 20
10.2641813248
 30
0.0
 10
12.8873790143
 20
10.2738044622
 30
0.0
 10
12.8920408587
 20
10.2809949375
 30
0.0
 10
12.8954916787
 20
10.2860494936
 30
0.0
 10
12.8989511817
 20
10.2908496764
 30
0.0
 10
12.9024180356
 20
10.295393536
 30
0.0
 10
12.9058908273
 20
10.2996792765
 30
0.0
 10
12.9093682358
 20
10.303705113
 30
0.0
 10
12.9128486353
 20
10.307469234
 30
0.0
 10
12.9152138331
 20
10.3098472698
 30
0.0
 10
12.9163969522
 20
10.3109900752
 30
0.0
  0
SPLINE
  5
36D
100
AcDbEntity
  8
0
100
AcDbSpline
 62
7
  6
CONTINUOUS
 70
0
 71
3
 72
11
 73
7
 74
0
 42
0.0000001
 43
0.0000001
 44
0.0000000001
 40
0.0
 40
0.0
 40
0.0
 40
0.0
 40
0.2450457461
 40
0.4921042399
 40
0.7431352358
 40
1.0
 40
1.0
 40
1.0
 40
1.0
 10
12.8214146689
 20
9.0736129263
 30
0.0
 10
12.8202326262
 20
9.0736948944
 30
0.0
 10
12.8178651204
 20
9.0739716009
 30
0.0
 10
12.8143458026
 20
9.074721075
 30
0.0
 10
12.8108548902
 20
9.0758046301
 30
0.0
 10
12.8085789334
 20
9.0767364981
 30
0.0
 10
12.8074497377
 20
9.0772537566
 30
0.0
  0
SPLINE
  5
36E
100
AcDbEntity
  8
0
100
AcDbSpline
 62
7
  6
CONTINUOUS
 70
0
 71
3
 72
11
 73
7
 74
0
 42
0.0000001
 43
0.0000001
 44
0.0000000001
 40
0.0
 40
0.0
 40
0.0
 40
0.0
 40
0.2450764335
 40
0.492152727
 40
0.7431774107
 40
1.0
 40
1.0
 40
1.0
 40
1.0
 10
12.9051273883
 20
10.2807136484
 30
0.0
 10
12.9039491544
 20
10.2807953524
 30
0.0
 10
12.9015738954
 20
10.2808482861
 30
0.0
 10
12.8979965327
 20
10.2805942821
 30
0.0
 10
12.8944012973
 20
10.2800075321
 30
0.0
 10
12.8920261203
 20
10.2794031906
 30
0.0
 10
12.8908401306
 20
10.2790492762
 30
0.0
  0
SPLINE
  5
36F
100
AcDbEntity
  8
0
100
AcDbSpline
 62
7
  6
CONTINUOUS
 70
0
 71
3
 72
19
 73
15
 74
0
 42
0.0000001
 43
0.0000001
 44
0.0000000001
 40
0.0
 40
0.0
 40
0.0
 40
0.0
 40
0.12732766
 40
0.2538196711
 40
0.3795264658
 40
0.5045235362
 40
0.5668075958
 40
0.6289556124
 40
0.6909843715
 40
0.7529118454
 40
0.8147570127
 40
0.8765397119
 40
0.9382804145
 40
1.0
 40
1.0
 40
1.0
 40
1.0
 10
10.995708802
 20
10.5310499161
 30
0.0
 10
10.995708802
 20
10.5373019121
 30
0.0
 10
10.9963057299
 20
10.5497734723
 30
0.0
 10
10.9990054101
 20
10.5682411892
 30
0.0
 10
11.0034814566
 20
10.5862440085
 30
0.0
 10
11.0086665923
 20
10.6007409518
 30
0.0
 10
11.0136532733
 20
10.611931881
 30
0.0
 10
11.0178000451
 20
10.6200990896
 30
0.0
 10
11.022347744
 20
10.6280296163
 30
0.0
 10
11.0272860195
 20
10.6357054317
 30
0.0
 10
11.0326034781
 20
10.6431087153
 30
0.0
 10
11.0382878655
 20
10.6502225124
 30
0.0
 10
11.0443258926
 20
10.6570301529
 30
0.0
 10
11.0485785364
 20
10.6613547883
 30
0.0
 10
11.0507582612
 20
10.6634602399
 30
0.0
  0
SPLINE
  5
370
100
AcDbEntity
  8
0
100
AcDbSpline
 62
7
  6
CONTINUOUS
 70
0
 71
3
 72
81
 73
77
 74
0
 42
0.0000001
 43
0.0000001
 44
0.0000000001
 40
0.0
 40
0.0
 40
0.0
 40
0.0
 40
0.00641291
 40
0.0098000347
 40
0.0133176797
 40
0.0169727105
 40
0.0207710222
 40
0.024717635
 40
0.0288167354
 40
0.0330718392
 40
0.0374857856
 40
0.0420608577
 40
0.0467988416
 40
0.0517010264
 40
0.0567683374
 40
0.0620012876
 40
0.0674000705
 40
0.0729645874
 40
0.0786944222
 40
0.0906468457
 40
0.1032499351
 40
0.1164925499
 40
0.1303607555
 40
0.1448381617
 40
0.1599061891
 40
0.1755442936
 40
0.1917301676
 40
0.208439902
 40
0.2256481279
 40
0.2433281362
 40
0.2614519913
 40
0.2799906458
 40
0.2989140393
 40
0.3181911903
 40
0.3377902815
 40
0.3576787453
 40
0.377823355
 40
0.398190306
 40
0.4187452956
 40
0.4394536006
 40
0.4811889929
 40
0.5231139882
 40
0.5649437553
 40
0.6063943007
 40
0.6268898024
 40
0.6471856573
 40
0.6672477212
 40
0.6870423766
 40
0.7065366115
 40
0.7256981015
 40
0.7444952967
 40
0.7628975162
 40
0.7808750321
 40
0.7983991633
 40
0.8154423746
 40
0.8319783893
 40
0.8479823158
 40
0.8634307708
 40
0.878302025
 40
0.8925761728
 40
0.9062353378
 40
0.9192639241
 40
0.9316489
 40
0.9433801625
 40
0.9489986592
 40
0.9544515408
 40
0.9597385745
 40
0.9648598794
 40
0.969815862
 40
0.9746072898
 40
0.9792353297
 40
0.9837015683
 40
0.9880082045
 40
0.9921579607
 40
0.9961540014
 40
1.0
 40
1.0
 40
1.0
 40
1.0
 10
10.9282507937
 20
11.2230152908
 30
0.0
 10
10.9265513996
 20
11.2259627776
 30
0.0
 10
10.9236572638
 20
11.2303011441
 30
0.0
 10
10.9192736001
 20
11.2358444102
 30
0.0
 10
10.9155776337
 20
11.2400581672
 30
0.0
 10
10.9115360857
 20
11.2442494102
 30
0.0
 10
10.9071504616
 20
11.2484168895
 30
0.0
 10
10.9024228228
 20
11.252558663
 30
0.0
 10
10.8973553245
 20
11.256673075
 30
0.0
 10
10.8919501975
 20
11.2607582627
 30
0.0
 10
10.8862098964
 20
11.2648124967
 30
0.0
 10
10.8801369875
 20
11.2688339869
 30
0.0
 10
10.8737341769
 20
11.2728209128
 30
0.0
 10
10.8670043715
 20
11.2767715642
 30
0.0
 10
10.8599505667
 20
11.280684102
 30
0.0
 10
10.8525759607
 20
11.284556816
 30
0.0
 10
10.8448838779
 20
11.288387944
 30
0.0
 10
10.8368777707
 20
11.2921757547
 30
0.0
 10
10.825630345
 20
11.2972375035
 30
0.0
 10
10.8108007114
 20
11.3034309554
 30
0.0
 10
10.792055172
 20
11.3105626405
 30
0.0
 10
10.772151041
 20
11.3174817869
 30
0.0
 10
10.7511243924
 20
11.3241757647
 30
0.0
 10
10.7290131224
 20
11.3306323377
 30
0.0
 10
10.7058572603
 20
11.3368396887
 30
0.0
 10
10.6816987699
 20
11.3427864575
 30
0.0
 10
10.6565814856
 20
11.3484617516
 30
0.0
 10
10.6305510119
 20
11.3538551743
 30
0.0
 10
10.60365464
 20
11.3589568416
 30
0.0
 10
10.575941263
 20
11.3637574081
 30
0.0
 10
10.5474612823
 20
11.3682480893
 30
0.0
 10
10.5182665069
 20
11.3724206644
 30
0.0
 10
10.4884100537
 20
11.3762674953
 30
0.0
 10
10.4579462517
 20
11.3797815377
 30
0.0
 10
10.4269305463
 20
11.3829563594
 30
0.0
 10
10.3954193972
 20
11.3857861576
 30
0.0
 10
10.363470166
 20
11.3882657592
 30
0.0
 10
10.3311410291
 20
11.3903906206
 30
0.0
 10
10.2984907954
 20
11.3921568818
 30
0.0
 10
10.254496041
 20
11.394034102
 30
0.0
 10
10.1991377703
 20
11.3954596578
 30
0.0
 10
10.1325555608
 20
11.3957027702
 30
0.0
 10
10.0661352472
 20
11.3944805986
 30
0.0
 10
10.0111186317
 20
11.392240566
 30
0.0
 10
9.9675584904
 20
11.3897146716
 30
0.0
 10
9.9353507635
 20
11.3874698106
 30
0.0
 10
9.9035426698
 20
11.3848716961
 30
0.0
 10
9.8721920658
 20
11.3819250491
 30
0.0
 10
9.8413560336
 20
11.3786352684
 30
0.0
 10
9.8110906999
 20
11.3750083673
 30
0.0
 10
9.7814511496
 20
11.3710509789
 30
0.0
 10
9.7524913148
 20
11.366770352
 30
0.0
 10
9.7242638797
 20
11.3621743242
 30
0.0
 10
9.6968201868
 20
11.3572713105
 30
0.0
 10
9.6702101416
 20
11.3520702866
 30
0.0
 10
9.6444821123
 20
11.3465807737
 30
0.0
 10
9.6196828331
 20
11.3408128335
 30
0.0
 10
9.5958573173
 20
11.334777034
 30
0.0
 10
9.5730487773
 20
11.3284844303
 30
0.0
 10
9.5512985278
 20
11.3219465405
 30
0.0
 10
9.5306459262
 20
11.3151753197
 30
0.0
 10
9.5111281597
 20
11.3081831371
 30
0.0
 10
9.492780578
 20
11.30098275
 30
0.0
 10
9.4782919135
 20
11.2947331246
 30
0.0
 10
9.4673232281
 20
11.2896284419
 30
0.0
 10
9.4595283042
 20
11.2858112566
 30
0.0
 10
9.4520497665
 20
11.2819519113
 30
0.0
 10
9.4448909517
 20
11.2780521718
 30
0.0
 10
9.4380551018
 20
11.2741137626
 30
0.0
 10
9.4315453062
 20
11.2701384517
 30
0.0
 10
9.4253644776
 20
11.266128079
 30
0.0
 10
9.4195154062
 20
11.2620843418
 30
0.0
 10
9.4140006387
 20
11.2580090422
 30
0.0
 10
9.4088226364
 20
11.2539038663
 30
0.0
 10
9.403983963
 20
11.2497708432
 30
0.0
 10
9.4009284144
 20
11.2469450638
 30
0.0
 10
9.399460811
 20
11.2455274677
 30
0.0
  0
SPLINE
  5
371
100
AcDbEntity
  8
0
100
AcDbSpline
 62
7
  6
CONTINUOUS
 70
0
 71
3
 72
92
 73
88
 74
0
 42
0.0000001
 43
0.0000001
 44
0.0000000001
 40
0.0
 40
0.0
 40
0.0
 40
0.0
 40
0.0028693881
 40
0.0057128619
 40
0.0085509659
 40
0.0114043754
 40
0.0142934012
 40
0.0172375552
 40
0.0202551521
 40
0.0233630773
 40
0.0265766011
 40
0.0299093323
 40
0.0333732543
 40
0.0369787533
 40
0.0407348012
 40
0.0446489982
 40
0.048727778
 40
0.052976491
 40
0.0573995245
 40
0.0620004548
 40
0.0667820602
 40
0.0717465079
 40
0.0768953287
 40
0.0822295524
 40
0.0877497357
 40
0.0934559857
 40
0.0993480711
 40
0.1054253567
 40
0.111686942
 40
0.1181315987
 40
0.1315635444
 40
0.1457069525
 40
0.1605436637
 40
0.1760525236
 40
0.1922097256
 40
0.20898909
 40
0.2263623001
 40
0.2442991114
 40
0.2627675318
 40
0.2817339815
 40
0.30116344
 40
0.3210195822
 40
0.3412649043
 40
0.3618608515
 40
0.3827679376
 40
0.4039458611
 40
0.4253536177
 40
0.4469496115
 40
0.4686917646
 40
0.4905376273
 40
0.5124444883
 40
0.5343694831
 40
0.5562697016
 40
0.5781022952
 40
0.5998245854
 40
0.6213941735
 40
0.6427690501
 40
0.663907704
 40
0.6847692316
 40
0.7053134492
 40
0.7255010059
 40
0.7452935023
 40
0.7646536121
 40
0.7835452036
 40
0.8019334694
 40
0.8197850641
 40
0.8370682533
 40
0.8537530779
 40
0.8698115425
 40
0.8852178204
 40
0.8999484944
 40
0.9139828478
 40
0.9273032188
 40
0.9336913188
 40
0.9398959527
 40
0.9459159654
 40
0.9517505492
 40
0.9573991894
 40
0.9628617425
 40
0.9681384827
 40
0.973230076
 40
0.9781377085
 40
0.9828630618
 40
0.9874085489
 40
0.9917772905
 40
0.9959729933
 40
1.0
 40
1.0
 40
1.0
 40
1.0
 10
10.888831062
 20
11.1833042859
 30
0.0
 10
10.889119223
 20
11.1847442946
 30
0.0
 10
10.8895714858
 20
11.1876373225
 30
0.0
 10
10.8898663379
 20
11.1920092306
 30
0.0
 10
10.889772905
 20
11.196382253
 30
0.0
 10
10.8892911622
 20
11.2007529365
 30
0.0
 10
10.8884218065
 20
11.2051184569
 30
0.0
 10
10.8871656223
 20
11.209475964
 30
0.0
 10
10.885523986
 20
11.2138229304
 30
0.0
 10
10.8834982282
 20
11.2181569473
 30
0.0
 10
10.8810899697
 20
11.222475829
 30
0.0
 10
10.8783008957
 20
11.2267775094
 30
0.0
 10
10.87513271
 20
11.231059925
 30
0.0
 10
10.8715873618
 20
11.2353211691
 30
0.0
 10
10.8676667345
 20
11.2395591747
 30
0.0
 10
10.8633730126
 20
11.2437720261
 30
0.0
 10
10.8587084103
 20
11.2479576663
 30
0.0
 10
10.8536753618
 20
11.2521140736
 30
0.0
 10
10.8482764844
 20
11.2562392386
 30
0.0
 10
10.8425145188
 20
11.2603310385
 30
0.0
 10
10.8363924787
 20
11.2643874975
 30
0.0
 10
10.8299134767
 20
11.2684064728
 30
0.0
 10
10.8230808879
 20
11.2723859679
 30
0.0
 10
10.8158982324
 20
11.2763239082
 30
0.0
 10
10.8083692286
 20
11.2802182445
 30
0.0
 10
10.8004977983
 20
11.2840670021
 30
0.0
 10
10.7922880096
 20
11.2878681101
 30
0.0
 10
10.7837441605
 20
11.2916196526
 30
0.0
 10
10.7748706725
 20
11.2953196376
 30
0.0
 10
10.7624340625
 20
11.3002497052
 30
0.0
 10
10.7460878621
 20
11.3062558971
 30
0.0
 10
10.7254961848
 20
11.3131318493
 30
0.0
 10
10.703709349
 20
11.3197577098
 30
0.0
 10
10.68077288
 20
11.3261195133
 30
0.0
 10
10.656734514
 20
11.3322038333
 30
0.0
 10
10.6316444454
 20
11.3379978241
 30
0.0
 10
10.6055551036
 20
11.3434892551
 30
0.0
 10
10.5785210581
 20
11.3486665324
 30
0.0
 10
10.5505988854
 20
11.353518727
 30
0.0
 10
10.5218470469
 20
11.3580355975
 30
0.0
 10
10.4923257617
 20
11.3622076116
 30
0.0
 10
10.4620968794
 20
11.3660259653
 30
0.0
 10
10.4312237479
 20
11.3694826075
 30
0.0
 10
10.3997710768
 20
11.3725702513
 30
0.0
 10
10.3678047973
 20
11.3752823879
 30
0.0
 10
10.3353919227
 20
11.3776133002
 30
0.0
 10
10.3026004071
 20
11.379558075
 30
0.0
 10
10.2694990032
 20
11.3811126113
 30
0.0
 10
10.2361571179
 20
11.3822736331
 30
0.0
 10
10.2026446653
 20
11.3830386968
 30
0.0
 10
10.1690319176
 20
11.3834061917
 30
0.0
 10
10.1353893577
 20
11.3833753439
 30
0.0
 10
10.1017875312
 20
11.3829462178
 30
0.0
 10
10.0682968989
 20
11.382119716
 30
0.0
 10
10.0349876877
 20
11.3808975771
 30
0.0
 10
10.001929742
 20
11.3792823783
 30
0.0
 10
9.969192376
 20
11.3772775249
 30
0.0
 10
9.9368442277
 20
11.3748872426
 30
0.0
 10
9.904953116
 20
11.3721165688
 30
0.0
 10
9.8735858972
 20
11.3689713433
 30
0.0
 10
9.8428083236
 20
11.3654581943
 30
0.0
 10
9.8126849016
 20
11.3615845298
 30
0.0
 10
9.7832787533
 20
11.3573585226
 30
0.0
 10
9.7546514833
 20
11.3527890891
 30
0.0
 10
9.7268630484
 20
11.3478858718
 30
0.0
 10
9.6999716289
 20
11.342659219
 30
0.0
 10
9.6740335006
 20
11.3371201637
 30
0.0
 10
9.6491029103
 20
11.3312803978
 30
0.0
 10
9.6252319414
 20
11.3251522546
 30
0.0
 10
9.6024704258
 20
11.3187486721
 30
0.0
 10
9.5808657199
 20
11.3120831619
 30
0.0
 10
9.560462964
 20
11.305169766
 30
0.0
 10
9.5442792748
 20
11.2991329823
 30
0.0
 10
9.5319760809
 20
11.2941794297
 30
0.0
 10
9.5232041844
 20
11.2904632769
 30
0.0
 10
9.514763325
 20
11.2866961664
 30
0.0
 10
9.5066578743
 20
11.2828800871
 30
0.0
 10
9.4988920571
 20
11.2790170134
 30
0.0
 10
9.4914699094
 20
11.2751089385
 30
0.0
 10
9.4843952606
 20
11.27115793
 30
0.0
 10
9.4776718117
 20
11.2671659588
 30
0.0
 10
9.4713030153
 20
11.2631351799
 30
0.0
 10
9.4652921751
 20
11.2590675783
 30
0.0
 10
9.4596423311
 20
11.2549652149
 30
0.0
 10
9.4543563454
 20
11.2508300627
 30
0.0
 10
9.4494372219
 20
11.2466644092
 30
0.0
 10
9.446341732
 20
11.2438109627
 30
0.0
 10
9.4448593275
 20
11.2423790699
 30
0.0
  0
SPLINE
  5
372
100
AcDbEntity
  8
0
100
AcDbSpline
 62
7
  6
CONTINUOUS
 70
0
 71
3
 72
86
 73
82
 74
0
 42
0.0000001
 43
0.0000001
 44
0.0000000001
 40
0.0
 40
0.0
 40
0.0
 40
0.0
 40
0.002820388
 40
0.0056858264
 40
0.0086138082
 40
0.0116206105
 40
0.014721137
 40
0.0179287816
 40
0.0212554727
 40
0.0247116618
 40
0.0283064343
 40
0.0320476237
 40
0.0359418722
 40
0.0399948279
 40
0.0442111647
 40
0.0485947516
 40
0.0531487212
 40
0.0578755206
 40
0.0627770597
 40
0.0678546725
 40
0.0731092663
 40
0.0785413118
 40
0.0841508867
 40
0.0899377644
 40
0.1020403157
 40
0.1148417311
 40
0.1283302856
 40
0.1424909051
 40
0.1573055958
 40
0.172753794
 40
0.1888126452
 40
0.2054572357
 40
0.2226607875
 40
0.2403948241
 40
0.258629329
 40
0.277332887
 40
0.29647281
 40
0.3160152546
 40
0.3359253309
 40
0.3561672095
 40
0.3767042305
 40
0.3974990049
 40
0.4185135127
 40
0.4397091995
 40
0.4610470719
 40
0.5039910707
 40
0.5470291872
 40
0.5898434573
 40
0.6110681603
 40
0.6321188103
 40
0.6529567646
 40
0.6735438947
 40
0.6938426862
 40
0.7138163409
 40
0.7334288735
 40
0.7526452147
 40
0.7714313167
 40
0.7897542652
 40
0.8075824034
 40
0.8248854543
 40
0.8416346529
 40
0.8578028945
 40
0.873364902
 40
0.8882974225
 40
0.9025794585
 40
0.916192529
 40
0.929120997
 40
0.9353247239
 40
0.9413529669
 40
0.9472047547
 40
0.9528794402
 40
0.958376626
 40
0.9636962944
 40
0.9688387774
 40
0.9738047901
 40
0.9785955157
 40
0.983212598
 40
0.9876583693
 40
0.9919357813
 40
0.9960483063
 40
1.0
 40
1.0
 40
1.0
 40
1.0
 10
10.8744671805
 20
11.1738382823
 30
0.0
 10
10.8743002871
 20
11.1752277397
 30
0.0
 10
10.8738438793
 20
11.1780158097
 30
0.0
 10
10.872805275
 20
11.1821663906
 30
0.0
 10
10.871409574
 20
11.1863086348
 30
0.0
 10
10.8696580526
 20
11.1904399597
 30
0.0
 10
10.8675519325
 20
11.1945583803
 30
0.0
 10
10.8650927696
 20
11.1986620026
 30
0.0
 10
10.8622819901
 20
11.2027489278
 30
0.0
 10
10.8591212577
 20
11.20681738
 30
0.0
 10
10.8556122737
 20
11.2108655734
 30
0.0
 10
10.8517568112
 20
11.2148916659
 30
0.0
 10
10.847556874
 20
11.2188939253
 30
0.0
 10
10.8430144719
 20
11.2228704492
 30
0.0
 10
10.8381318792
 20
11.2268194638
 30
0.0
 10
10.8329114559
 20
11.2307390982
 30
0.0
 10
10.8273557341
 20
11.2346274783
 30
0.0
 10
10.8214674473
 20
11.2384828046
 30
0.0
 10
10.815249426
 20
11.2423031448
 30
0.0
 10
10.8087047401
 20
11.2460867199
 30
0.0
 10
10.8018365668
 20
11.2498316447
 30
0.0
 10
10.7946482769
 20
11.2535360858
 30
0.0
 10
10.7871433933
 20
11.2571982937
 30
0.0
 10
10.7765610594
 20
11.2620956803
 30
0.0
 10
10.76255571
 20
11.2680848757
 30
0.0
 10
10.7447908098
 20
11.2749717968
 30
0.0
 10
10.7258596252
 20
11.2816483702
 30
0.0
 10
10.7057994302
 20
11.2881013358
 30
0.0
 10
10.6846495085
 20
11.2943178787
 30
0.0
 10
10.6624514744
 20
11.3002856216
 30
0.0
 10
10.6392490471
 20
11.3059926754
 30
0.0
 10
10.6150879878
 20
11.311427664
 30
0.0
 10
10.5900159934
 20
11.3165797502
 30
0.0
 10
10.5640825999
 20
11.3214386696
 30
0.0
 10
10.5373390743
 20
11.3259947421
 30
0.0
 10
10.5098383032
 20
11.3302388912
 30
0.0
 10
10.481634685
 20
11.3341626628
 30
0.0
 10
10.4527840213
 20
11.3377582398
 30
0.0
 10
10.4233434075
 20
11.3410184617
 30
0.0
 10
10.3933711174
 20
11.343936843
 30
0.0
 10
10.3629264848
 20
11.3465075764
 30
0.0
 10
10.3320697768
 20
11.3487255484
 30
0.0
 10
10.3008620977
 20
11.3505863362
 30
0.0
 10
10.2693651828
 20
11.3520862658
 30
0.0
 10
10.2269785518
 20
11.3536040604
 30
0.0
 10
10.1737312671
 20
11.3545783747
 30
0.0
 10
10.1098193368
 20
11.3542788487
 30
0.0
 10
10.0567040448
 20
11.3528051644
 30
0.0
 10
10.0145262384
 20
11.3508886541
 30
0.0
 10
9.9832608136
 20
11.3490937952
 30
0.0
 10
9.9523351246
 20
11.3469410532
 30
0.0
 10
9.9218103494
 20
11.3444346741
 30
0.0
 10
9.8917469335
 20
11.3415796536
 30
0.0
 10
9.8622043843
 20
11.3383816753
 30
0.0
 10
9.8332411752
 20
11.3348471066
 30
0.0
 10
9.8049146257
 20
11.330982984
 30
0.0
 10
9.7772807885
 20
11.326797001
 30
0.0
 10
9.7503943327
 20
11.3222974904
 30
0.0
 10
9.7243084295
 20
11.317493419
 30
0.0
 10
9.6990746441
 20
11.3123943621
 30
0.0
 10
9.6747428324
 20
11.3070104824
 30
0.0
 10
9.6513610414
 20
11.3013525105
 30
0.0
 10
9.6289753975
 20
11.2954317202
 30
0.0
 10
9.6076300282
 20
11.2892599057
 30
0.0
 10
9.5873668593
 20
11.2828493601
 30
0.0
 10
9.5682258649
 20
11.2762128337
 30
0.0
 10
9.5530393182
 20
11.2704283007
 30
0.0
 10
9.5414895848
 20
11.2656874335
 30
0.0
 10
9.5332503125
 20
11.2621324909
 30
0.0
 10
9.5253186736
 20
11.2585310199
 30
0.0
 10
9.5176985386
 20
11.2548848353
 30
0.0
 10
9.5103936721
 20
11.2511956774
 30
0.0
 10
9.5034076422
 20
11.2474653901
 30
0.0
 10
9.4967438689
 20
11.2436957947
 30
0.0
 10
9.4904056382
 20
11.2398886973
 30
0.0
 10
9.4843960259
 20
11.2360460326
 30
0.0
 10
9.4787179811
 20
11.232169572
 30
0.0
 10
9.4733742016
 20
11.2282611858
 30
0.0
 10
9.4683672624
 20
11.2243226373
 30
0.0
 10
9.4636998548
 20
11.2203560145
 30
0.0
 10
9.46075852
 20
11.2176410208
 30
0.0
 10
9.4593482158
 20
11.2162787714
 30
0.0
  0
SPLINE
  5
373
100
AcDbEntity
  8
0
100
AcDbSpline
 62
7
  6
CONTINUOUS
 70
0
 71
3
 72
47
 73
43
 74
0
 42
0.0000001
 43
0.0000001
 44
0.0000000001
 40
0.0
 40
0.0
 40
0.0
 40
0.0
 40
0.0112998339
 40
0.0229780526
 40
0.0350282287
 40
0.0474432799
 40
0.0602154439
 40
0.073336433
 40
0.0867973491
 40
0.1005888505
 40
0.1291231755
 40
0.1588560611
 40
0.1896972619
 40
0.2215509985
 40
0.2543166231
 40
0.2878892345
 40
0.3221602586
 40
0.3570180027
 40
0.3923481934
 40
0.4280345026
 40
0.4639590669
 40
0.5000030011
 40
0.5360469097
 40
0.5719713971
 40
0.6076575778
 40
0.6429875884
 40
0.6778451016
 40
0.7121158452
 40
0.7456881286
 40
0.77845338
 40
0.810306701
 40
0.8411474458
 40
0.8708798355
 40
0.8994136253
 40
0.9132048305
 40
0.9266654697
 40
0.9397861477
 40
0.9525580159
 40
0.9649727484
 40
0.977022607
 40
0.9887005044
 40
1.0
 40
1.0
 40
1.0
 40
1.0
 10
10.741964131
 20
11.1194044522
 30
0.0
 10
10.737753644
 20
11.1209398858
 30
0.0
 10
10.7291592606
 20
11.1239738958
 30
0.0
 10
10.715972757
 20
11.1283495946
 30
0.0
 10
10.7022883128
 20
11.1326219066
 30
0.0
 10
10.6881180993
 20
11.1367869609
 30
0.0
 10
10.6734746414
 20
11.1408411152
 30
0.0
 10
10.6583709111
 20
11.1447806879
 30
0.0
 10
10.6428202739
 20
11.1486022673
 30
0.0
 10
10.6212637336
 20
11.1535923071
 30
0.0
 10
10.5932968035
 20
11.1594945668
 30
0.0
 10
10.5585515805
 20
11.1659775257
 30
0.0
 10
10.5223743847
 20
11.1719152831
 30
0.0
 10
10.4848935147
 20
11.177286574
 30
0.0
 10
10.4462417153
 20
11.182072133
 30
0.0
 10
10.4065560184
 20
11.1862548164
 30
0.0
 10
10.3659771478
 20
11.1898196437
 30
0.0
 10
10.3246490352
 20
11.1927538527
 30
0.0
 10
10.2827182936
 20
11.1950469422
 30
0.0
 10
10.2403336927
 20
11.1966907074
 30
0.0
 10
10.1976456254
 20
11.1976792677
 30
0.0
 10
10.1548055694
 20
11.1980090868
 30
0.0
 10
10.1119655461
 20
11.1976789845
 30
0.0
 10
10.069277577
 20
11.1966901408
 30
0.0
 10
10.0268931401
 20
11.1950460926
 30
0.0
 10
9.9849626281
 20
11.192752722
 30
0.0
 10
9.9436348101
 20
11.1898182355
 30
0.0
 10
9.9030562976
 20
11.1862531359
 30
0.0
 10
9.8633710202
 20
11.1820701866
 30
0.0
 10
9.824719699
 20
11.1772843697
 30
0.0
 10
9.7872393633
 20
11.1719128301
 30
0.0
 10
9.7510627558
 20
11.1659748354
 30
0.0
 10
9.7163181765
 20
11.1594916429
 30
0.0
 10
9.6883518205
 20
11.1535892098
 30
0.0
 10
9.6667957716
 20
11.1485989969
 30
0.0
 10
9.6512455148
 20
11.1447773389
 30
0.0
 10
9.6361421792
 20
11.1408376413
 30
0.0
 10
9.621499124
 20
11.1367834088
 30
0.0
 10
9.607329327
 20
11.1326182477
 30
0.0
 10
9.5936453078
 20
11.1283458488
 30
0.0
 10
9.5804592407
 20
11.1239700648
 30
0.0
 10
9.5718651556
 20
11.1209359952
 30
0.0
 10
9.5676548234
 20
11.1194005287
 30
0.0
  0
SPLINE
  5
374
100
AcDbEntity
  8
0
100
AcDbSpline
 62
7
  6
CONTINUOUS
 70
0
 71
3
 72
39
 73
35
 74
0
 42
0.0000001
 43
0.0000001
 44
0.0000000001
 40
0.0
 40
0.0
 40
0.0
 40
0.0
 40
0.0258558397
 40
0.0527111353
 40
0.0805144354
 40
0.1092109617
 40
0.138742936
 40
0.1690498724
 40
0.200068846
 40
0.2317347452
 40
0.2639805115
 40
0.2967373703
 40
0.3299350547
 40
0.363502024
 40
0.3973656829
 40
0.4314525945
 40
0.4656886926
 40
0.4999994913
 40
0.5343102949
 40
0.5685464071
 40
0.6026333405
 40
0.6364970275
 40
0.6700640318
 40
0.7032617597
 40
0.7360186727
 40
0.7682645041
 40
0.7999304777
 40
0.830949532
 40
0.861256552
 40
0.8907886128
 40
0.9194852307
 40
0.9472886306
 40
0.9741440379
 40
1.0
 40
1.0
 40
1.0
 40
1.0
 10
10.6251098952
 20
11.0914116075
 30
0.0
 10
10.6171881242
 20
11.0934116819
 30
0.0
 10
10.6009903046
 20
11.097300714
 30
0.0
 10
10.576129451
 20
11.1027165984
 30
0.0
 10
10.5502862751
 20
11.1078163772
 30
0.0
 10
10.5235210956
 20
11.1125880225
 30
0.0
 10
10.4958961839
 20
11.1170203357
 30
0.0
 10
10.4674759063
 20
11.1211029024
 30
0.0
 10
10.4383264852
 20
11.1248261364
 30
0.0
 10
10.408515864
 20
11.1281812964
 30
0.0
 10
10.3781135395
 20
11.1311605069
 30
0.0
 10
10.3471903992
 20
11.133756776
 30
0.0
 10
10.3158185544
 20
11.1359640114
 30
0.0
 10
10.2840711702
 20
11.1377770368
 30
0.0
 10
10.2520222923
 20
11.139191601
 30
0.0
 10
10.2197466729
 20
11.1402043871
 30
0.0
 10
10.1873195949
 20
11.1408130203
 30
0.0
 10
10.1548166962
 20
11.1410160733
 30
0.0
 10
10.1223137928
 20
11.1408130694
 30
0.0
 10
10.089886701
 20
11.1402044838
 30
0.0
 10
10.0576110599
 20
11.139191742
 30
0.0
 10
10.0255621533
 20
11.1377772201
 30
0.0
 10
9.9938147329
 20
11.1359642366
 30
0.0
 10
9.9624428431
 20
11.133757044
 30
0.0
 10
9.9315196474
 20
11.13116082
 30
0.0
 10
9.9011172568
 20
11.1281816554
 30
0.0
 10
9.8713065606
 20
11.1248265407
 30
0.0
 10
9.8421570579
 20
11.1211033498
 30
0.0
 10
9.8137366947
 20
11.1170208221
 30
0.0
 10
9.7861116934
 20
11.1125885454
 30
0.0
 10
9.7593464185
 20
11.1078169345
 30
0.0
 10
9.7335031377
 20
11.1027171923
 30
0.0
 10
9.7086421701
 20
11.0973013372
 30
0.0
 10
9.6924442641
 20
11.0934123472
 30
0.0
 10
9.6845224529
 20
11.0914122743
 30
0.0
  0
SPLINE
  5
375
100
AcDbEntity
  8
0
100
AcDbSpline
 62
7
  6
CONTINUOUS
 70
0
 71
3
 72
95
 73
91
 74
0
 42
0.0000001
 43
0.0000001
 44
0.0000000001
 40
0.0
 40
0.0
 40
0.0
 40
0.0
 40
0.0042067637
 40
0.0086075354
 40
0.0132067974
 40
0.0180082889
 40
0.0230150354
 40
0.0282291778
 40
0.0336520634
 40
0.0392844556
 40
0.0451265367
 40
0.0511780526
 40
0.057438232
 40
0.0639059556
 40
0.0705796937
 40
0.0774576093
 40
0.0918166331
 40
0.1069629964
 40
0.1228722166
 40
0.1395163631
 40
0.1568644542
 40
0.1748827838
 40
0.1935351975
 40
0.2127833322
 40
0.2325868303
 40
0.2529035348
 40
0.2736896701
 40
0.2949000124
 40
0.3164880529
 40
0.3384061573
 40
0.3606057208
 40
0.3830373185
 40
0.4056508557
 40
0.4283957148
 40
0.451220903
 40
0.4740751981
 40
0.4969072945
 40
0.5196659502
 40
0.5423001327
 40
0.5647591655
 40
0.5869928748
 40
0.608951737
 40
0.6305870282
 40
0.6518509746
 40
0.6726969069
 40
0.693079418
 40
0.7129545276
 40
0.7322798502
 40
0.7510147751
 40
0.7691206589
 40
0.7865610363
 40
0.8033018566
 40
0.8193117539
 40
0.8345623651
 40
0.849028716
 40
0.8559612685
 40
0.8626902004
 40
0.869213577
 40
0.8755297864
 40
0.8816376004
 40
0.8875361406
 40
0.8932250203
 40
0.898704273
 40
0.9039745323
 40
0.909036988
 40
0.9138935488
 40
0.9185468861
 40
0.9230005507
 40
0.9272591311
 40
0.9313283318
 40
0.9352152324
 40
0.9389283651
 40
0.9424780144
 40
0.9458763257
 40
0.9491375491
 40
0.9522781383
 40
0.955316809
 40
0.9582744799
 40
0.9611740072
 40
0.9640397971
 40
0.9668971915
 40
0.9697717765
 40
0.9726886469
 40
0.9756717331
 40
0.9787432714
 40
0.9852254382
 40
0.9886743534
 40
0.9922790809
 40
0.99605119
 40
1.0
 40
1.0
 40
1.0
 40
1.0
 10
12.9163969522
 20
9.0359679089
 30
0.0
 10
12.9178222377
 20
9.0373446291
 30
0.0
 10
12.9206709038
 20
9.0402322547
 30
0.0
 10
12.9248463862
 20
9.0448461537
 30
0.0
 10
12.9290165454
 20
9.0498358139
 30
0.0
 10
12.9331788047
 20
9.0551980273
 30
0.0
 10
12.9373308355
 20
9.060929729
 30
0.0
 10
12.941470267
 20
9.0670275838
 30
0.0
 10
12.9455946975
 20
9.0734880038
 30
0.0
 10
12.9497016294
 20
9.0803071897
 30
0.0
 10
12.9537887055
 20
9.0874810807
 30
0.0
 10
12.9578534282
 20
9.0950054625
 30
0.0
 10
12.9618934574
 20
9.1028758486
 30
0.0
 10
12.9659063098
 20
9.1110875836
 30
0.0
 10
12.9698896689
 20
9.1196357766
 30
0.0
 10
12.9752350765
 20
9.1316481278
 30
0.0
 10
12.9818124306
 20
9.1474775943
 30
0.0
 10
12.989441282
 20
9.1674666553
 30
0.0
 10
12.9968969298
 20
9.1886653547
 30
0.0
 10
13.0041614377
 20
9.2110231285
 30
0.0
 10
13.0112173209
 20
9.2344868226
 30
0.0
 10
13.0180475938
 20
9.2590004895
 30
0.0
 10
13.0246358156
 20
9.2845056395
 30
0.0
 10
13.0309661318
 20
9.3109413634
 30
0.0
 10
13.0370233131
 20
9.3382444954
 30
0.0
 10
13.042792792
 20
9.3663497683
 30
0.0
 10
13.0482606972
 20
9.3951899754
 30
0.0
 10
13.053413887
 20
9.4246961342
 30
0.0
 10
13.0582399817
 20
9.4547976548
 30
0.0
 10
13.0627273909
 20
9.4854225127
 30
0.0
 10
13.066865341
 20
9.5164974231
 30
0.0
 10
13.0706439007
 20
9.5479480185
 30
0.0
 10
13.0740540044
 20
9.5796990277
 30
0.0
 10
13.0770874734
 20
9.6116744568
 30
0.0
 10
13.0797370357
 20
9.6437977718
 30
0.0
 10
13.0819963429
 20
9.6759920827
 30
0.0
 10
13.0838599862
 20
9.7081803284
 30
0.0
 10
13.0853235105
 20
9.7402854622
 30
0.0
 10
13.0863834236
 20
9.7722306379
 30
0.0
 10
13.0870372046
 20
9.8039393941
 30
0.0
 10
13.0872833102
 20
9.8353358381
 30
0.0
 10
13.0871211789
 20
9.8663448287
 30
0.0
 10
13.0865512329
 20
9.8968921565
 30
0.0
 10
13.0855748773
 20
9.9269047234
 30
0.0
 10
13.0841944977
 20
9.9563107193
 30
0.0
 10
13.082413456
 20
9.9850397976
 30
0.0
 10
13.080236084
 20
10.0130232465
 30
0.0
 10
13.0776676724
 20
10.0401941574
 30
0.0
 10
13.0747144591
 20
10.0664875898
 30
0.0
 10
13.0713836146
 20
10.0918407303
 30
0.0
 10
13.0676832269
 20
10.1161930597
 30
0.0
 10
13.0636222772
 20
10.1394864814
 30
0.0
 10
13.0592106306
 20
10.1616655733
 30
0.0
 10
13.0544589591
 20
10.1826774016
 30
0.0
 10
13.0501668549
 20
10.1994023505
 30
0.0
 10
13.0465598901
 20
10.2121522437
 30
0.0
 10
13.0438153082
 20
10.221256207
 30
0.0
 10
13.0409946082
 20
10.2300324289
 30
0.0
 10
13.0380994232
 20
10.2384756952
 30
0.0
 10
13.0351315375
 20
10.2465809939
 30
0.0
 10
13.0320926509
 20
10.2543435023
 30
0.0
 10
13.0289846501
 20
10.2617586398
 30
0.0
 10
13.0258092921
 20
10.2688220022
 30
0.0
 10
13.0225685234
 20
10.2755294444
 30
0.0
 10
13.0192641832
 20
10.2818770044
 30
0.0
 10
13.0158982218
 20
10.2878609686
 30
0.0
 10
13.0124725701
 20
10.2934778395
 30
0.0
 10
13.0089891369
 20
10.2987243215
 30
0.0
 10
13.0054499217
 20
10.3035973894
 30
0.0
 10
13.0018567678
 20
10.3080941411
 30
0.0
 10
12.9982116837
 20
10.3122119906
 30
0.0
 10
12.9945164578
 20
10.3159483894
 30
0.0
 10
12.9907730441
 20
10.3193010845
 30
0.0
 10
12.9869832412
 20
10.3222678123
 30
0.0
 10
12.9831489754
 20
10.3248464802
 30
0.0
 10
12.9792722241
 20
10.3270350314
 30
0.0
 10
12.975355119
 20
10.3288314177
 30
0.0
 10
12.9714001164
 20
10.3302338512
 30
0.0
 10
12.9674099218
 20
10.3312405401
 30
0.0
 10
12.9633876662
 20
10.3318503586
 30
0.0
 10
12.9593366837
 20
10.332062393
 30
0.0
 10
12.9552604325
 20
10.3318766518
 30
0.0
 10
12.9511623533
 20
10.3312935505
 30
0.0
 10
12.9470453456
 20
10.330314027
 30
0.0
 10
12.9414357021
 20
10.328448572
 30
0.0
 10
12.9358848282
 20
10.3257930514
 30
0.0
 10
12.9304441864
 20
10.3224632733
 30
0.0
 10
12.9262712357
 20
10.3195257121
 30
0.0
 10
12.9220945218
 20
10.3162023898
 30
0.0
 10
12.9193723614
 20
10.3137876172
 30
0.0
 10
12.9180107058
 20
10.3125203827
 30
0.0
  0
SPLINE
  5
376
100
AcDbEntity
  8
0
100
AcDbSpline
 62
7
  6
CONTINUOUS
 70
0
 71
3
 72
83
 73
79
 74
0
 42
0.0000001
 43
0.0000001
 44
0.0000000001
 40
0.0
 40
0.0
 40
0.0
 40
0.0
 40
0.0039884097
 40
0.0081453951
 40
0.0124746186
 40
0.0169791614
 40
0.0216616097
 40
0.0265239718
 40
0.0315675691
 40
0.0367932644
 40
0.042201484
 40
0.0477922575
 40
0.0535653099
 40
0.0595199779
 40
0.0719697837
 40
0.0851316862
 40
0.098991495
 40
0.1135318501
 40
0.1287326108
 40
0.1445711562
 40
0.1610226585
 40
0.1780603021
 40
0.1956554688
 40
0.2137778955
 40
0.232395813
 40
0.2514760916
 40
0.2709843678
 40
0.29088516
 40
0.3111419767
 40
0.3317174197
 40
0.3525732979
 40
0.3736707312
 40
0.4164311769
 40
0.4596784221
 40
0.5030866968
 40
0.5463286871
 40
0.589078675
 40
0.6101689609
 40
0.6310164291
 40
0.6515822205
 40
0.6718281726
 40
0.6917169195
 40
0.7112119951
 40
0.730277944
 40
0.7488804433
 40
0.7669864122
 40
0.7845641338
 40
0.8015833871
 40
0.8180155988
 40
0.8338340188
 40
0.8490138961
 40
0.8635326921
 40
0.8773703389
 40
0.8905095606
 40
0.9029362808
 40
0.9146401102
 40
0.9202191733
 40
0.9256156542
 40
0.9308296162
 40
0.9358615409
 40
0.9407122971
 40
0.9453833039
 40
0.9498764865
 40
0.9541944013
 40
0.9583403271
 40
0.9623182846
 40
0.9661332455
 40
0.9697911516
 40
0.9732990923
 40
0.9766654451
 40
0.9798999492
 40
0.9830139088
 40
0.9860202118
 40
0.9889334125
 40
0.991769705
 40
0.9945467681
 40
0.997283572
 40
1.0
 40
1.0
 40
1.0
 40
1.0
 10
12.8632710286
 20
9.0927781278
 30
0.0
 10
12.8644663391
 20
9.0939327092
 30
0.0
 10
12.8668556539
 20
9.0963448152
 30
0.0
 10
12.8703646966
 20
9.1001810566
 30
0.0
 10
12.8738700337
 20
9.1043071676
 30
0.0
 10
12.8773697557
 20
9.1087209083
 30
0.0
 10
12.8808622534
 20
9.1134201035
 30
0.0
 10
12.884345805
 20
9.1184024998
 30
0.0
 10
12.8878187716
 20
9.123665614
 30
0.0
 10
12.8912793791
 20
9.1292068481
 30
0.0
 10
12.8947259037
 20
9.1350234381
 30
0.0
 10
12.8981566582
 20
9.1411124735
 30
0.0
 10
12.9015699052
 20
9.1474709517
 30
0.0
 10
12.9061636157
 20
9.1564374213
 30
0.0
 10
12.9118387337
 20
9.1683061979
 30
0.0
 10
12.9184550265
 20
9.1833661499
 30
0.0
 10
12.9249614544
 20
9.1994177083
 30
0.0
 10
12.9313448945
 20
9.2164287601
 30
0.0
 10
12.9375924636
 20
9.2343654378
 30
0.0
 10
12.9436915465
 20
9.2531918686
 30
0.0
 10
12.9496298201
 20
9.2728703643
 30
0.0
 10
12.9553952828
 20
9.293361485
 30
0.0
 10
12.9609762813
 20
9.3146241335
 30
0.0
 10
12.9663615341
 20
9.336615635
 30
0.0
 10
12.9715401684
 20
9.3592918242
 30
0.0
 10
12.9765017273
 20
9.3826071442
 30
0.0
 10
12.9812361935
 20
9.4065147454
 30
0.0
 10
12.9857340079
 20
9.4309665795
 30
0.0
 10
12.9899860917
 20
9.4559134972
 30
0.0
 10
12.993983863
 20
9.4813053305
 30
0.0
 10
12.997719294
 20
9.5070910593
 30
0.0
 10
13.0023605041
 20
9.5420834816
 30
0.0
 10
13.0074461202
 20
9.586425276
 30
0.0
 10
13.0123716047
 20
9.640128804
 30
0.0
 10
13.0161068365
 20
9.6941295184
 30
0.0
 10
13.0186217528
 20
9.747993222
 30
0.0
 10
13.0196888806
 20
9.792603418
 30
0.0
 10
13.0199088172
 20
9.8278907667
 30
0.0
 10
13.019758412
 20
9.8539347186
 30
0.0
 10
13.0192938242
 20
9.8796230835
 30
0.0
 10
13.0185159866
 20
9.9049042509
 30
0.0
 10
13.0174264998
 20
9.9297273785
 30
0.0
 10
13.0160275837
 20
9.9540425622
 30
0.0
 10
13.0143220861
 20
9.9778009236
 30
0.0
 10
13.0123134867
 20
10.0009547175
 30
0.0
 10
13.0100058777
 20
10.0234574277
 30
0.0
 10
13.007403957
 20
10.045263858
 30
0.0
 10
13.0045130183
 20
10.0663302259
 30
0.0
 10
13.0013389409
 20
10.0866142609
 30
0.0
 10
12.9978881915
 20
10.1060753012
 30
0.0
 10
12.994167795
 20
10.1246743769
 30
0.0
 10
12.9901853189
 20
10.1423743026
 30
0.0
 10
12.9859488525
 20
10.1591397318
 30
0.0
 10
12.9814669795
 20
10.1749373724
 30
0.0
 10
12.9767487624
 20
10.1897356766
 30
0.0
 10
12.972563747
 20
10.2013897379
 30
0.0
 10
12.9690937742
 20
10.2101802299
 30
0.0
 10
12.9664797418
 20
10.2163995796
 30
0.0
 10
12.9638138602
 20
10.2223479436
 30
0.0
 10
12.961097468
 20
10.2280223941
 30
0.0
 10
12.9583318471
 20
10.2334200905
 30
0.0
 10
12.9555184159
 20
10.2385383866
 30
0.0
 10
12.9526585141
 20
10.2433747456
 30
0.0
 10
12.9497535083
 20
10.2479267754
 30
0.0
 10
12.9468048366
 20
10.2521922659
 30
0.0
 10
12.9438138079
 20
10.2561690724
 30
0.0
 10
12.940781872
 20
10.2598552715
 30
0.0
 10
12.9377103674
 20
10.2632490069
 30
0.0
 10
12.9346006454
 20
10.2663485414
 30
0.0
 10
12.9314541163
 20
10.2691523106
 30
0.0
 10
12.9282720626
 20
10.2716587052
 30
0.0
 10
12.925055927
 20
10.2738663357
 30
0.0
 10
12.9218071005
 20
10.275773763
 30
0.0
 10
12.9185270822
 20
10.2773796161
 30
0.0
 10
12.9152175799
 20
10.2786827045
 30
0.0
 10
12.9118802659
 20
10.2796817696
 30
0.0
 10
12.9085175505
 20
10.2803759366
 30
0.0
 10
12.9062565467
 20
10.2806353476
 30
0.0
 10
12.9051273883
 20
10.2807136484
 30
0.0
  0
SPLINE
  5
377
100
AcDbEntity
  8
0
100
AcDbSpline
 62
7
  6
CONTINUOUS
 70
0
 71
3
 72
42
 73
38
 74
0
 42
0.0000001
 43
0.0000001
 44
0.0000000001
 40
0.0
 40
0.0
 40
0.0
 40
0.0
 40
0.0299419644
 40
0.0449235317
 40
0.0599142035
 40
0.0899287023
 40
0.1200139727
 40
0.1350926544
 40
0.1501966973
 40
0.1804840373
 40
0.210897868
 40
0.2414513286
 40
0.2721543342
 40
0.3030133956
 40
0.3340315238
 40
0.3652082165
 40
0.3965395222
 40
0.4280181758
 40
0.459633799
 40
0.4913731572
 40
0.5232204671
 40
0.5551577446
 40
0.5871651885
 40
0.6192215901
 40
0.6513047644
 40
0.683391994
 40
0.715460481
 40
0.7474877999
 40
0.7794523452
 40
0.8113337678
 40
0.8431133918
 40
0.8747746145
 40
0.906303246
 40
0.9376878974
 40
0.9533257627
 40
0.9689252947
 40
1.0
 40
1.0
 40
1.0
 40
1.0
 10
10.3668993679
 20
6.4539857123
 30
0.0
 10
10.3635316655
 20
6.4507327628
 30
0.0
 10
10.3582816096
 20
6.4460504421
 30
0.0
 10
10.3509290518
 20
6.4402406533
 30
0.0
 10
10.3433422871
 20
6.4347200462
 30
0.0
 10
10.3334428611
 20
6.4283805186
 30
0.0
 10
10.3230620755
 20
6.4228353204
 30
0.0
 10
10.3145006558
 20
6.4188903708
 30
0.0
 10
10.3057623267
 20
6.4152711952
 30
0.0
 10
10.2945514881
 20
6.4113794567
 30
0.0
 10
10.2807358041
 20
6.4077524784
 30
0.0
 10
10.2666186596
 20
6.4051830173
 30
0.0
 10
10.2522782835
 20
6.4036852644
 30
0.0
 10
10.2377934524
 20
6.4032672089
 30
0.0
 10
10.2232438659
 20
6.4039309795
 30
0.0
 10
10.2087094923
 20
6.4056727418
 30
0.0
 10
10.1942701919
 20
6.4084827546
 30
0.0
 10
10.1800052673
 20
6.4123454225
 30
0.0
 10
10.1659930386
 20
6.4172393892
 30
0.0
 10
10.1523104174
 20
6.4231376571
 30
0.0
 10
10.1390324918
 20
6.4300077383
 30
0.0
 10
10.1262321196
 20
6.4378118331
 30
0.0
 10
10.1139795336
 20
6.4465070379
 30
0.0
 10
10.1023419615
 20
6.4560455791
 30
0.0
 10
10.0913832615
 20
6.4663750739
 30
0.0
 10
10.0811635755
 20
6.4774388153
 30
0.0
 10
10.0717390024
 20
6.4891760799
 30
0.0
 10
10.0631612938
 20
6.5015224595
 30
0.0
 10
10.055477572
 20
6.514410206
 30
0.0
 10
10.0487300724
 20
6.5277686138
 30
0.0
 10
10.0429559174
 20
6.5415243484
 30
0.0
 10
10.0381868945
 20
6.5556020475
 30
0.0
 10
10.034449357
 20
6.5699239707
 30
0.0
 10
10.0322086143
 20
6.5820132234
 30
0.0
 10
10.0309516283
 20
6.5917268008
 30
0.0
 10
10.0300545477
 20
6.6014310809
 30
0.0
 10
10.0297829184
 20
6.6087334894
 30
0.0
 10
10.0297829184
 20
6.6135928341
 30
0.0
  0
SPLINE
  5
378
100
AcDbEntity
  8
0
100
AcDbSpline
 62
7
  6
CONTINUOUS
 70
0
 71
3
 72
42
 73
38
 74
0
 42
0.0000001
 43
0.0000001
 44
0.0000000001
 40
0.0
 40
0.0
 40
0.0
 40
0.0
 40
0.0299419644
 40
0.0449235317
 40
0.0599142035
 40
0.0899287023
 40
0.1200139727
 40
0.1350926544
 40
0.1501966973
 40
0.1804840373
 40
0.210897868
 40
0.2414513286
 40
0.2721543342
 40
0.3030133956
 40
0.3340315238
 40
0.3652082165
 40
0.3965395222
 40
0.4280181758
 40
0.459633799
 40
0.4913731572
 40
0.5232204671
 40
0.5551577446
 40
0.5871651885
 40
0.6192215901
 40
0.6513047644
 40
0.683391994
 40
0.715460481
 40
0.7474877999
 40
0.7794523452
 40
0.8113337678
 40
0.8431133918
 40
0.8747746145
 40
0.906303246
 40
0.9376878974
 40
0.9533257627
 40
0.9689252947
 40
1.0
 40
1.0
 40
1.0
 40
1.0
 10
11.3328252515
 20
10.3714427943
 30
0.0
 10
11.3294575491
 20
10.3681898448
 30
0.0
 10
11.3242074932
 20
10.3635075241
 30
0.0
 10
11.3168549353
 20
10.3576977353
 30
0.0
 10
11.3092681707
 20
10.3521771282
 30
0.0
 10
11.2993687447
 20
10.3458376006
 30
0.0
 10
11.288987959
 20
10.3402924024
 30
0.0
 10
11.2804265394
 20
10.3363474527
 30
0.0
 10
11.2716882102
 20
10.3327282772
 30
0.0
 10
11.2604773716
 20
10.3288365387
 30
0.0
 10
11.2466616876
 20
10.3252095604
 30
0.0
 10
11.2325445431
 20
10.3226400993
 30
0.0
 10
11.218204167
 20
10.3211423464
 30
0.0
 10
11.2037193359
 20
10.3207242908
 30
0.0
 10
11.1891697495
 20
10.3213880615
 30
0.0
 10
11.1746353759
 20
10.3231298238
 30
0.0
 10
11.1601960754
 20
10.3259398365
 30
0.0
 10
11.1459311508
 20
10.3298025045
 30
0.0
 10
11.1319189221
 20
10.3346964712
 30
0.0
 10
11.1182363009
 20
10.3405947391
 30
0.0
 10
11.1049583754
 20
10.3474648203
 30
0.0
 10
11.0921580031
 20
10.3552689151
 30
0.0
 10
11.0799054171
 20
10.3639641199
 30
0.0
 10
11.068267845
 20
10.3735026611
 30
0.0
 10
11.0573091451
 20
10.3838321559
 30
0.0
 10
11.047089459
 20
10.3948958972
 30
0.0
 10
11.0376648859
 20
10.4066331619
 30
0.0
 10
11.0290871773
 20
10.4189795415
 30
0.0
 10
11.0214034555
 20
10.4318672879
 30
0.0
 10
11.014655956
 20
10.4452256958
 30
0.0
 10
11.008881801
 20
10.4589814304
 30
0.0
 10
11.004112778
 20
10.4730591295
 30
0.0
 10
11.0003752405
 20
10.4873810527
 30
0.0
 10
10.9981344978
 20
10.4994703054
 30
0.0
 10
10.9968775118
 20
10.5091838828
 30
0.0
 10
10.9959804312
 20
10.5188881629
 30
0.0
 10
10.995708802
 20
10.5261905714
 30
0.0
 10
10.995708802
 20
10.5310499161
 30
0.0
  0
SPLINE
  5
379
100
AcDbEntity
  8
0
100
AcDbSpline
 62
7
  6
CONTINUOUS
 70
0
 71
3
 72
39
 73
35
 74
0
 42
0.0000001
 43
0.0000001
 44
0.0000000001
 40
0.0
 40
0.0
 40
0.0
 40
0.0
 40
0.0299424698
 40
0.0599093171
 40
0.0899243244
 40
0.1200101049
 40
0.1501875654
 40
0.1804754197
 40
0.2108897678
 40
0.2414437479
 40
0.2721472748
 40
0.3030068601
 40
0.3340255156
 40
0.3652027379
 40
0.3965345747
 40
0.4280137612
 40
0.4596299196
 40
0.491369815
 40
0.5232176628
 40
0.555155479
 40
0.5871634623
 40
0.619220404
 40
0.6513041182
 40
0.6833918873
 40
0.7154609133
 40
0.74748877
 40
0.7794538516
 40
0.811335809
 40
0.8431159677
 40
0.8747777197
 40
0.9063068786
 40
0.9376920899
 40
0.9689246486
 40
1.0
 40
1.0
 40
1.0
 40
1.0
 10
10.169331222
 20
7.8782712707
 30
0.0
 10
10.1620317661
 20
7.8712205615
 30
0.0
 10
10.1468588522
 20
7.8576881999
 30
0.0
 10
10.1225495088
 20
7.839252749
 30
0.0
 10
10.0968144216
 20
7.8227726782
 30
0.0
 10
10.0697974053
 20
7.8083404106
 30
0.0
 10
10.0416469918
 20
7.7960347947
 30
0.0
 10
10.0125185312
 20
7.785923493
 30
0.0
 10
9.9825725379
 20
7.7780618389
 30
0.0
 10
9.951974001
 20
7.7724927265
 30
0.0
 10
9.9208913886
 20
7.7692464034
 30
0.0
 10
9.8894957387
 20
7.7683403312
 30
0.0
 10
9.8579597202
 20
7.7697791139
 30
0.0
 10
9.8264566854
 20
7.7735544249
 30
0.0
 10
9.7951597216
 20
7.7796451364
 30
0.0
 10
9.7642407158
 20
7.7880174491
 30
0.0
 10
9.7338694309
 20
7.798625098
 30
0.0
 10
9.7042125732
 20
7.8114095613
 30
0.0
 10
9.6754328853
 20
7.8263004005
 30
0.0
 10
9.6476882826
 20
7.8432156861
 30
0.0
 10
9.621131
 20
7.862062438
 30
0.0
 10
9.5959067649
 20
7.8827371219
 30
0.0
 10
9.5721539717
 20
7.9051261764
 30
0.0
 10
9.5500029713
 20
7.9291066868
 30
0.0
 10
9.5295753597
 20
7.9545470419
 30
0.0
 10
9.5109833294
 20
7.9813076529
 30
0.0
 10
9.4943290045
 20
8.00924167
 30
0.0
 10
9.4797039167
 20
8.0381958168
 30
0.0
 10
9.46718852
 20
8.0680112059
 30
0.0
 10
9.456851764
 20
8.0985242674
 30
0.0
 10
9.4487506474
 20
8.1295673701
 30
0.0
 10
9.4429299995
 20
8.1609706242
 30
0.0
 10
9.4394219856
 20
8.1925593673
 30
0.0
 10
9.4386362777
 20
8.2136859543
 30
0.0
 10
9.4386362777
 20
8.2242185536
 30
0.0
  0
SPLINE
  5
37A
100
AcDbEntity
  8
0
100
AcDbSpline
 62
7
  6
CONTINUOUS
 70
0
 71
3
 72
39
 73
35
 74
0
 42
0.0000001
 43
0.0000001
 44
0.0000000001
 40
0.0
 40
0.0
 40
0.0
 40
0.0
 40
0.0299377057
 40
0.0599040294
 40
0.0899223012
 40
0.1200146061
 40
0.1502012668
 40
0.1805003788
 40
0.2109274118
 40
0.2414948823
 40
0.2722121075
 40
0.3030850434
 40
0.3341162028
 40
0.3653046519
 40
0.396646082
 40
0.4281329482
 40
0.4597546745
 40
0.4914979103
 40
0.5233468343
 40
0.5552834975
 40
0.5872882
 40
0.6193398949
 40
0.6514166094
 40
0.6834958792
 40
0.7155551894
 40
0.7475724172
 40
0.7795262687
 40
0.8113967036
 40
0.8431653425
 40
0.8748158507
 40
0.9063342754
 40
0.9377094735
 40
0.9689328666
 40
1.0
 40
1.0
 40
1.0
 40
1.0
 10
10.1693018825
 20
7.8783031049
 30
0.0
 10
10.1619403502
 20
7.8714032551
 30
0.0
 10
10.1466574176
 20
7.858173517
 30
0.0
 10
10.1222268061
 20
7.8401905192
 30
0.0
 10
10.0964115655
 20
7.8241565503
 30
0.0
 10
10.0693542637
 20
7.8101604621
 30
0.0
 10
10.0412018903
 20
7.7982777936
 30
0.0
 10
10.0121079693
 20
7.7885730791
 30
0.0
 10
9.9822309147
 20
7.7810987897
 30
0.0
 10
9.951733374
 20
7.7758952382
 30
0.0
 10
9.9207812721
 20
7.7729903139
 30
0.0
 10
9.8895429113
 20
7.7723994089
 30
0.0
 10
9.8581880572
 20
7.7741253436
 30
0.0
 10
9.8268870258
 20
7.7781583794
 30
0.0
 10
9.7958097684
 20
7.7844762665
 30
0.0
 10
9.7651249498
 20
7.7930443572
 30
0.0
 10
9.734999052
 20
7.8038158493
 30
0.0
 10
9.7055954844
 20
7.8167320366
 30
0.0
 10
9.6770737147
 20
7.8317226367
 30
0.0
 10
9.6495884121
 20
7.8487061582
 30
0.0
 10
9.6232886005
 20
7.8675903194
 30
0.0
 10
9.5983168823
 20
7.8882725872
 30
0.0
 10
9.5748086735
 20
7.9106407218
 30
0.0
 10
9.552891481
 20
7.9345733815
 30
0.0
 10
9.5326842145
 20
7.9599407662
 30
0.0
 10
9.514296517
 20
7.9866052944
 30
0.0
 10
9.4978282098
 20
8.0144223718
 30
0.0
 10
9.4833687536
 20
8.0432411656
 30
0.0
 10
9.4709967659
 20
8.0729053924
 30
0.0
 10
9.4607796048
 20
8.1032542187
 30
0.0
 10
9.4527729151
 20
8.1341228694
 30
0.0
 10
9.4470205088
 20
8.1653443987
 30
0.0
 10
9.4435537907
 20
8.1967471972
 30
0.0
 10
9.4427773792
 20
8.2177483084
 30
0.0
 10
9.4427773792
 20
8.2282185508
 30
0.0
  0
SPLINE
  5
37B
100
AcDbEntity
  8
0
100
AcDbSpline
 62
7
  6
CONTINUOUS
 70
0
 71
3
 72
42
 73
38
 74
0
 42
0.0000001
 43
0.0000001
 44
0.0000000001
 40
0.0
 40
0.0
 40
0.0
 40
0.0
 40
0.0299419655
 40
0.0449235324
 40
0.0599142042
 40
0.0899287041
 40
0.1200139759
 40
0.1350926596
 40
0.1501966997
 40
0.180484041
 40
0.210897873
 40
0.2414513349
 40
0.2721543418
 40
0.3030134042
 40
0.3340315332
 40
0.3652082265
 40
0.3965395325
 40
0.4280181861
 40
0.4596338091
 40
0.4913731668
 40
0.523220476
 40
0.5551577527
 40
0.5871651956
 40
0.6192215962
 40
0.6513047693
 40
0.6833919978
 40
0.7154604838
 40
0.7474878019
 40
0.7794523464
 40
0.8113337686
 40
0.8431133915
 40
0.8747746163
 40
0.90630324
 40
0.9376879137
 40
0.9533257948
 40
0.9689252601
 40
1.0
 40
1.0
 40
1.0
 40
1.0
 10
10.0388147807
 20
8.0372193633
 30
0.0
 10
10.0349162206
 20
8.03345362
 30
0.0
 10
10.028838573
 20
8.02803319
 30
0.0
 10
10.0203269583
 20
8.0213076123
 30
0.0
 10
10.011544288
 20
8.0149167069
 30
0.0
 10
10.0000843409
 20
8.007577871
 30
0.0
 10
9.9880671958
 20
8.001158505
 30
0.0
 10
9.9781561611
 20
7.9965917561
 30
0.0
 10
9.9680403909
 20
7.9924019952
 30
0.0
 10
9.9550623114
 20
7.9878968096
 30
0.0
 10
9.9390687881
 20
7.9836980738
 30
0.0
 10
9.9227262768
 20
7.9807235727
 30
0.0
 10
9.906125346
 20
7.9789897163
 30
0.0
 10
9.8893571883
 20
7.9785057577
 30
0.0
 10
9.8725140675
 20
7.9792741599
 30
0.0
 10
9.8556885577
 20
7.9812904841
 30
0.0
 10
9.8389731079
 20
7.9845434533
 30
0.0
 10
9.822459522
 20
7.9890150139
 30
0.0
 10
9.8062384657
 20
7.9946804428
 30
0.0
 10
9.7903989751
 20
8.0015084865
 30
0.0
 10
9.7750279744
 20
8.0094615359
 30
0.0
 10
9.7602098063
 20
8.0184958327
 30
0.0
 10
9.7460257751
 20
8.02856171
 30
0.0
 10
9.7325537057
 20
8.0396038636
 30
0.0
 10
9.7198675227
 20
8.0515616532
 30
0.0
 10
9.7080368482
 20
8.0643694328
 30
0.0
 10
9.6971266247
 20
8.077956907
 30
0.0
 10
9.6871967615
 20
8.0922495146
 30
0.0
 10
9.6783018089
 20
8.1071688279
 30
0.0
 10
9.670490661
 20
8.1226329959
 30
0.0
 10
9.6638062902
 20
8.1385571238
 30
0.0
 10
9.658285499
 20
8.154853969
 30
0.0
 10
9.6539587861
 20
8.1714335398
 30
0.0
 10
9.6513648254
 20
8.185428496
 30
0.0
 10
9.6499096904
 20
8.196673274
 30
0.0
 10
9.6488711963
 20
8.2079072917
 30
0.0
 10
9.6485567503
 20
8.2163608146
 30
0.0
 10
9.6485567503
 20
8.2219861716
 30
0.0
  0
SPLINE
  5
37C
100
AcDbEntity
  8
0
100
AcDbSpline
 62
7
  6
CONTINUOUS
 70
0
 71
3
 72
39
 73
35
 74
0
 42
0.0000001
 43
0.0000001
 44
0.0000000001
 40
0.0
 40
0.0
 40
0.0
 40
0.0
 40
0.0301479635
 40
0.0604070245
 40
0.0907840873
 40
0.1212842858
 40
0.1519109274
 40
0.1826654666
 40
0.2135475054
 40
0.2445548206
 40
0.2756834184
 40
0.3069276137
 40
0.3382801269
 40
0.3697321989
 40
0.4012737234
 40
0.4328933924
 40
0.4645788567
 40
0.4963168991
 40
0.5280936126
 40
0.5598945843
 40
0.5917050837
 40
0.6235102542
 40
0.6552953081
 40
0.6870457214
 40
0.7187474249
 40
0.7503869901
 40
0.7819518057
 40
0.8134302543
 40
0.8448118768
 40
0.8760874761
 40
0.9072495157
 40
0.9382912967
 40
0.9692096816
 40
1.0
 40
1.0
 40
1.0
 40
1.0
 10
10.0910076149
 20
8.1202488587
 30
0.0
 10
10.0867330542
 20
8.1189747591
 30
0.0
 10
10.0780856807
 20
8.1166899909
 30
0.0
 10
10.0649035618
 20
8.1140712862
 30
0.0
 10
10.0515329306
 20
8.1122636582
 30
0.0
 10
10.0380227433
 20
8.1112737625
 30
0.0
 10
10.0244216038
 20
8.1111050407
 30
0.0
 10
10.0107786568
 20
8.1117580447
 30
0.0
 10
9.9971431251
 20
8.1132303492
 30
0.0
 10
9.9835642108
 20
8.1155165781
 30
0.0
 10
9.9700908938
 20
8.1186084061
 30
0.0
 10
9.9567717641
 20
8.1224946151
 30
0.0
 10
9.9436548471
 20
8.127161132
 30
0.0
 10
9.9307874342
 20
8.1325910805
 30
0.0
 10
9.9182159142
 20
8.1387648423
 30
0.0
 10
9.9059856098
 20
8.1456601274
 30
0.0
 10
9.8941406029
 20
8.1532520352
 30
0.0
 10
9.8827235855
 20
8.1615131634
 30
0.0
 10
9.8717757083
 20
8.170413708
 30
0.0
 10
9.861336435
 20
8.1799215691
 30
0.0
 10
9.8514434009
 20
8.1900024648
 30
0.0
 10
9.8421322819
 20
8.2006200556
 30
0.0
 10
9.8334366518
 20
8.211736061
 30
0.0
 10
9.8253878647
 20
8.2233104041
 30
0.0
 10
9.8180149528
 20
8.2353013624
 30
0.0
 10
9.811344521
 20
8.2476657144
 30
0.0
 10
9.8054006514
 20
8.2603588929
 30
0.0
 10
9.8002048181
 20
8.2733351462
 30
0.0
 10
9.7957758131
 20
8.2865476879
 30
0.0
 10
9.792129616
 20
8.2999489037
 30
0.0
 10
9.789279504
 20
8.3134903751
 30
0.0
 10
9.787235665
 20
8.3271235607
 30
0.0
 10
9.7860057539
 20
8.3407984895
 30
0.0
 10
9.785730731
 20
8.3499306301
 30
0.0
 10
9.785730731
 20
8.3544860701
 30
0.0
  0
SPLINE
  5
37D
100
AcDbEntity
  8
0
100
AcDbSpline
 62
7
  6
CONTINUOUS
 70
0
 71
3
 72
23
 73
19
 74
0
 42
0.0000001
 43
0.0000001
 44
0.0000000001
 40
0.0
 40
0.0
 40
0.0
 40
0.0
 40
0.0616994034
 40
0.1234251673
 40
0.1851973362
 40
0.2470354946
 40
0.3089585763
 40
0.3709846882
 40
0.43313094
 40
0.4954132771
 40
0.5578463272
 40
0.6204433026
 40
0.6832158003
 40
0.7461738781
 40
0.8093259429
 40
0.872677448
 40
0.9362361637
 40
1.0
 40
1.0
 40
1.0
 40
1.0
 10
9.5579867112
 20
8.5111865494
 30
0.0
 10
9.5534159622
 20
8.5066368332
 30
0.0
 10
9.5445008428
 20
8.4973027093
 30
0.0
 10
9.5318490211
 20
8.4826411942
 30
0.0
 10
9.5199431168
 20
8.467348742
 30
0.0
 10
9.5088100624
 20
8.4514598052
 30
0.0
 10
9.4984744549
 20
8.4350096026
 30
0.0
 10
9.4889592631
 20
8.4180347558
 30
0.0
 10
9.4802856031
 20
8.400572995
 30
0.0
 10
9.4724727533
 20
8.3826631308
 30
0.0
 10
9.4655380413
 20
8.3643449792
 30
0.0
 10
9.4594968211
 20
8.3456592684
 30
0.0
 10
9.4543624673
 20
8.326647528
 30
0.0
 10
9.4501463633
 20
8.3073519703
 30
0.0
 10
9.446857907
 20
8.287815586
 30
0.0
 10
9.4445041662
 20
8.2680814117
 30
0.0
 10
9.4430905923
 20
8.2481941235
 30
0.0
 10
9.4427773792
 20
8.2348834965
 30
0.0
 10
9.4427773792
 20
8.2282185508
 30
0.0
  0
SPLINE
  5
37E
100
AcDbEntity
  8
0
100
AcDbSpline
 62
7
  6
CONTINUOUS
 70
0
 71
3
 72
21
 73
17
 74
0
 42
0.0000001
 43
0.0000001
 44
0.0000000001
 40
0.0
 40
0.0
 40
0.0
 40
0.0
 40
0.0617147819
 40
0.1234506692
 40
0.185228552
 40
0.2470689061
 40
0.3089915516
 40
0.3710154745
 40
0.4331586551
 40
0.4954378585
 40
0.5578685076
 40
0.6204644887
 40
0.6832380492
 40
0.7462000649
 40
0.8726823101
 40
1.0
 40
1.0
 40
1.0
 40
1.0
 10
9.7122838851
 20
8.3752690017
 30
0.0
 10
9.7097605676
 20
8.372831649
 30
0.0
 10
9.7048375528
 20
8.3678253064
 30
0.0
 10
9.6978477469
 20
8.3599445223
 30
0.0
 10
9.6912672789
 20
8.3517093631
 30
0.0
 10
9.685111616
 20
8.3431390492
 30
0.0
 10
9.6793949158
 20
8.3342532631
 30
0.0
 10
9.6741303064
 20
8.325072566
 30
0.0
 10
9.6693299288
 20
8.3156181157
 30
0.0
 10
9.6650048879
 20
8.3059117057
 30
0.0
 10
9.661165069
 20
8.2959757376
 30
0.0
 10
9.6578193248
 20
8.2858331914
 30
0.0
 10
9.654975369
 20
8.2755071594
 30
0.0
 10
9.6518568182
 20
8.2615076705
 30
0.0
 10
9.6492476154
 20
8.2436605729
 30
0.0
 10
9.6485567503
 20
8.2292236972
 30
0.0
 10
9.6485567503
 20
8.2219861716
 30
0.0
  0
SPLINE
  5
37F
100
AcDbEntity
  8
0
100
AcDbSpline
 62
7
  6
CONTINUOUS
 70
0
 71
3
 72
11
 73
7
 74
0
 42
0.0000001
 43
0.0000001
 44
0.0000000001
 40
0.0
 40
0.0
 40
0.0
 40
0.0
 40
0.2480682406
 40
0.4973723412
 40
0.7479968034
 40
1.0
 40
1.0
 40
1.0
 40
1.0
 10
9.7971413168
 20
8.4247582915
 30
0.0
 10
9.7952517723
 20
8.4191571246
 30
0.0
 10
9.7919289695
 20
8.4077638106
 30
0.0
 10
9.788357156
 20
8.3902815679
 30
0.0
 10
9.7862064766
 20
8.3724740259
 30
0.0
 10
9.785730731
 20
8.3604911359
 30
0.0
 10
9.785730731
 20
8.3544860701
 30
0.0
  0
SPLINE
  5
380
100
AcDbEntity
  8
0
100
AcDbSpline
 62
7
  6
CONTINUOUS
 70
0
 71
3
 72
39
 73
35
 74
0
 42
0.0000001
 43
0.0000001
 44
0.0000000001
 40
0.0
 40
0.0
 40
0.0
 40
0.0
 40
0.0300777634
 40
0.0602612195
 40
0.0905595946
 40
0.1209802505
 40
0.151528589
 40
0.1822079906
 40
0.2130197866
 40
0.2439632644
 40
0.275035704
 40
0.3062324432
 40
0.3375469703
 40
0.3689710427
 40
0.4004948252
 40
0.4321070465
 40
0.4637951727
 40
0.4955455933
 40
0.5273438198
 40
0.5591746925
 40
0.5910225963
 40
0.6228716798
 40
0.6547060759
 40
0.6865101225
 40
0.7182685803
 40
0.7499668483
 40
0.7815911711
 40
0.8131288386
 40
0.8445683907
 40
0.8758997232
 40
0.9071145067
 40
0.9382055073
 40
0.9691688511
 40
1.0
 40
1.0
 40
1.0
 40
1.0
 10
10.0987649584
 20
8.150103784
 30
0.0
 10
10.0949009063
 20
8.1486623519
 30
0.0
 10
10.0870625778
 20
8.1460264041
 30
0.0
 10
10.0750536487
 20
8.1428364392
 30
0.0
 10
10.0628180519
 20
8.1404152603
 30
0.0
 10
10.0504036551
 20
8.1387723819
 30
0.0
 10
10.0378581786
 20
8.1379139897
 30
0.0
 10
10.0252300525
 20
8.1378433306
 30
0.0
 10
10.0125679509
 20
8.1385605932
 30
0.0
 10
9.9999206806
 20
8.1400629393
 30
0.0
 10
9.9873369747
 20
8.1423445095
 30
0.0
 10
9.9748653125
 20
8.1453964488
 30
0.0
 10
9.9625537292
 20
8.1492069312
 30
0.0
 10
9.9504496349
 20
8.1537612186
 30
0.0
 10
9.938599634
 20
8.1590417182
 30
0.0
 10
9.9270493479
 20
8.1650280499
 30
0.0
 10
9.9158432416
 20
8.1716971258
 30
0.0
 10
9.9050244545
 20
8.1790232378
 30
0.0
 10
9.8946346367
 20
8.1869781574
 30
0.0
 10
9.8847137873
 20
8.1955312388
 30
0.0
 10
9.8753000971
 20
8.2046495342
 30
0.0
 10
9.8664298094
 20
8.2142979284
 30
0.0
 10
9.8581370803
 20
8.2244392711
 30
0.0
 10
9.8504538492
 20
8.2350345192
 30
0.0
 10
9.8434097165
 20
8.2460428851
 30
0.0
 10
9.8370318302
 20
8.2574219923
 30
0.0
 10
9.8313447848
 20
8.269128037
 30
0.0
 10
9.8263705116
 20
8.2811159525
 30
0.0
 10
9.8221282165
 20
8.293339577
 30
0.0
 10
9.8186342577
 20
8.3057518661
 30
0.0
 10
9.8159022129
 20
8.318304939
 30
0.0
 10
9.8139425509
 20
8.3309507061
 30
0.0
 10
9.812763057
 20
8.3436397009
 30
0.0
 10
9.8124992511
 20
8.3521150237
 30
0.0
 10
9.8124992511
 20
8.3563424765
 30
0.0
  0
SPLINE
  5
381
100
AcDbEntity
  8
0
100
AcDbSpline
 62
7
  6
CONTINUOUS
 70
0
 71
3
 72
39
 73
35
 74
0
 42
0.0000001
 43
0.0000001
 44
0.0000000001
 40
0.0
 40
0.0
 40
0.0
 40
0.0
 40
0.0311159435
 40
0.0620233446
 40
0.0927351373
 40
0.1232711777
 40
0.1536587331
 40
0.1839312108
 40
0.2141268399
 40
0.2442870988
 40
0.274454976
 40
0.3046731308
 40
0.3349820902
 40
0.3654185441
 40
0.3960138642
 40
0.4267928828
 40
0.4577729963
 40
0.4889636214
 40
0.5203659689
 40
0.5519731787
 40
0.5837707188
 40
0.6157370636
 40
0.647844591
 40
0.6800606403
 40
0.712348731
 40
0.744669863
 40
0.7769838843
 40
0.8092508935
 40
0.8414326252
 40
0.8734938001
 40
0.9054034144
 40
0.9371358873
 40
0.968671823
 40
1.0
 40
1.0
 40
1.0
 40
1.0
 10
10.1237551271
 20
8.1809925836
 30
0.0
 10
10.1237551271
 20
8.1726477411
 30
0.0
 10
10.1229404344
 20
8.156001913
 30
0.0
 10
10.1192560762
 20
8.1313659717
 30
0.0
 10
10.1131481318
 20
8.107373592
 30
0.0
 10
10.1046744985
 20
8.0842595089
 30
0.0
 10
10.0939162647
 20
8.0622464122
 30
0.0
 10
10.0809766126
 20
8.0415476415
 30
0.0
 10
10.0659803268
 20
8.0223635305
 30
0.0
 10
10.049072148
 20
8.0048799759
 30
0.0
 10
10.0304156861
 20
7.9892662102
 30
0.0
 10
10.010191611
 20
7.9756731592
 30
0.0
 10
9.9885957473
 20
7.9642320737
 30
0.0
 10
9.9658372556
 20
7.9550528891
 30
0.0
 10
9.9421362596
 20
7.9482236614
 30
0.0
 10
9.9177218266
 20
7.943809368
 30
0.0
 10
9.8928295803
 20
7.9418515989
 30
0.0
 10
9.8676994537
 20
7.9423683113
 30
0.0
 10
9.8425733655
 20
7.9453534266
 30
0.0
 10
9.8176929514
 20
7.9507774567
 30
0.0
 10
9.7932972437
 20
7.9585873642
 30
0.0
 10
9.7696204601
 20
7.9687074407
 30
0.0
 10
9.7468898434
 20
7.9810399901
 30
0.0
 10
9.7253234014
 20
7.9954660802
 30
0.0
 10
9.7051280931
 20
8.0118470512
 30
0.0
 10
9.6864976145
 20
8.0300254207
 30
0.0
 10
9.6696107949
 20
8.0498266896
 30
0.0
 10
9.6546298452
 20
8.0710608608
 30
0.0
 10
9.6416986863
 20
8.093524142
 30
0.0
 10
9.6309419164
 20
8.1170011611
 30
0.0
 10
9.6224631871
 20
8.1412663655
 30
0.0
 10
9.6163446448
 20
8.1660876829
 30
0.0
 10
9.6126457201
 20
8.1912235899
 30
0.0
 10
9.6118144088
 20
8.2080940325
 30
0.0
 10
9.6118144088
 20
8.216495793
 30
0.0
  0
SPLINE
  5
382
100
AcDbEntity
  8
0
100
AcDbSpline
 62
7
  6
CONTINUOUS
 70
0
 71
3
 72
93
 73
89
 74
0
 42
0.0000001
 43
0.0000001
 44
0.0000000001
 40
0.0
 40
0.0
 40
0.0
 40
0.0
 40
0.0027164122
 40
0.0054531986
 40
0.0082302464
 40
0.0110665143
 40
0.0139796987
 40
0.0169859749
 40
0.0200999116
 40
0.0233343924
 40
0.0267007144
 40
0.0302086301
 40
0.0338665055
 40
0.0376814345
 40
0.0416593638
 40
0.0458052537
 40
0.0501231341
 40
0.0546162866
 40
0.0592872492
 40
0.0641379798
 40
0.0691698571
 40
0.0743837847
 40
0.0797802281
 40
0.0853592419
 40
0.0911205549
 40
0.097063532
 40
0.1031872889
 40
0.1094906267
 40
0.1159721353
 40
0.1226301497
 40
0.136467702
 40
0.1509863985
 40
0.166166177
 40
0.1819844989
 40
0.1984166092
 40
0.2154357535
 40
0.2330133648
 40
0.2511192265
 40
0.2697216198
 40
0.2887874599
 40
0.3082824199
 40
0.3281710492
 40
0.3484168852
 40
0.3689825618
 40
0.3898299142
 40
0.4109200821
 40
0.4322136103
 40
0.45367055
 40
0.4752505584
 40
0.496912997
 40
0.5186170297
 40
0.5403217213
 40
0.5619861345
 40
0.5835694282
 40
0.6050309555
 40
0.6263303623
 40
0.6474276864
 40
0.6682834561
 40
0.6888587905
 40
0.7091155008
 40
0.729016193
 40
0.7485243728
 40
0.7676045542
 40
0.7862223725
 40
0.8043447018
 40
0.8219397795
 40
0.8389773394
 40
0.8554287585
 40
0.8712672205
 40
0.8864679016
 40
0.901008187
 40
0.914867929
 40
0.921537231
 40
0.9280301459
 40
0.9343449921
 40
0.9404803324
 40
0.9464349771
 40
0.9522079882
 40
0.9577987496
 40
0.9632069274
 40
0.9684325931
 40
0.9734761642
 40
0.9783385117
 40
0.9830209603
 40
0.9875254509
 40
0.9918545996
 40
0.9960115539
 40
1.0
 40
1.0
 40
1.0
 40
1.0
 10
12.9923874848
 20
10.5453106316
 30
0.0
 10
12.994020565
 20
10.5451973823
 30
0.0
 10
12.9972906145
 20
10.5448222471
 30
0.0
 10
13.0021540586
 20
10.5438183322
 30
0.0
 10
13.0069807379
 20
10.5423733784
 30
0.0
 10
13.0117672431
 20
10.5404888444
 30
0.0
 10
13.0165110463
 20
10.5381662977
 30
0.0
 10
13.0212097906
 20
10.5354076887
 30
0.0
 10
13.0258612241
 20
10.5322148469
 30
0.0
 10
13.0304633661
 20
10.5285899147
 30
0.0
 10
13.0350141532
 20
10.5245349181
 30
0.0
 10
13.0395116764
 20
10.520052132
 30
0.0
 10
13.0439539475
 20
10.5151438673
 30
0.0
 10
13.0483389888
 20
10.5098126135
 30
0.0
 10
13.0526648519
 20
10.5040610496
 30
0.0
 10
13.0569294749
 20
10.4978919808
 30
0.0
 10
13.0611309383
 20
10.4913084888
 30
0.0
 10
13.065267149
 20
10.484313769
 30
0.0
 10
13.0693361976
 20
10.4769113064
 30
0.0
 10
13.0733360323
 20
10.4691047259
 30
0.0
 10
13.077264735
 20
10.4608979075
 30
0.0
 10
13.0811203474
 20
10.4522949124
 30
0.0
 10
13.084900944
 20
10.4433000129
 30
0.0
 10
13.0886046784
 20
10.4339176935
 30
0.0
 10
13.0922296414
 20
10.424152619
 30
0.0
 10
13.095774087
 20
10.4140096773
 30
0.0
 10
13.0992361653
 20
10.4034939236
 30
0.0
 10
13.1026141951
 20
10.3926106328
 30
0.0
 10
13.1059064552
 20
10.3813652319
 30
0.0
 10
13.1102352186
 20
10.3656942762
 30
0.0
 10
13.1154053221
 20
10.3452336092
 30
0.0
 10
13.1211651327
 20
10.3196346927
 30
0.0
 10
13.1265458806
 20
10.2927351872
 30
0.0
 10
13.131536645
 20
10.2645890776
 30
0.0
 10
13.136127262
 20
10.2352526726
 30
0.0
 10
13.1403083891
 20
10.2047848002
 30
0.0
 10
13.1440715134
 20
10.1732465856
 30
0.0
 10
13.147408975
 20
10.1407013464
 30
0.0
 10
13.1503139805
 20
10.1072144506
 30
0.0
 10
13.1527806153
 20
10.0728531803
 30
0.0
 10
13.1548038548
 20
10.0376865914
 30
0.0
 10
13.156379574
 20
10.0017853719
 30
0.0
 10
13.1575045553
 20
9.9652216971
 30
0.0
 10
13.1581764938
 20
9.9280690828
 30
0.0
 10
13.1583940022
 20
9.8904022362
 30
0.0
 10
13.1581566119
 20
9.8522969043
 30
0.0
 10
13.157464777
 20
9.8138297211
 30
0.0
 10
13.1563198703
 20
9.7750780515
 30
0.0
 10
13.1547241801
 20
9.7361198343
 30
0.0
 10
13.1526809057
 20
9.6970334252
 30
0.0
 10
13.1501941505
 20
9.6578974384
 30
0.0
 10
13.1472689136
 20
9.6187905883
 30
0.0
 10
13.1439110802
 20
9.5797915305
 30
0.0
 10
13.1401274091
 20
9.5409787037
 30
0.0
 10
13.1359255199
 20
9.5024301703
 30
0.0
 10
13.1313138789
 20
9.4642234588
 30
0.0
 10
13.1263017809
 20
9.4264354065
 30
0.0
 10
13.12089933
 20
9.3891420049
 30
0.0
 10
13.1151174197
 20
9.3524182455
 30
0.0
 10
13.1089677117
 20
9.3163379688
 30
0.0
 10
13.1024626122
 20
9.2809737142
 30
0.0
 10
13.0956152479
 20
9.2463965725
 30
0.0
 10
13.0884394389
 20
9.2126760407
 30
0.0
 10
13.0809496732
 20
9.1798798784
 30
0.0
 10
13.0731610777
 20
9.1480739677
 30
0.0
 10
13.065089386
 20
9.1173221773
 30
0.0
 10
13.0567509074
 20
9.0876862308
 30
0.0
 10
13.0481624927
 20
9.0592255692
 30
0.0
 10
13.0393414993
 20
9.0319972487
 30
0.0
 10
13.0303057519
 20
9.0060557221
 30
0.0
 10
13.0210735043
 20
8.9814530392
 30
0.0
 10
13.0131333699
 20
8.9618641579
 30
0.0
 10
13.0066864363
 20
8.9469097529
 30
0.0
 10
13.0018757473
 20
8.9362028078
 30
0.0
 10
12.9970299495
 20
8.9258660027
 30
0.0
 10
12.9921514531
 20
8.9159045013
 30
0.0
 10
12.9872427299
 20
8.9063232826
 30
0.0
 10
12.9823062
 20
8.8971271479
 30
0.0
 10
12.9773443951
 20
8.8883206668
 30
0.0
 10
12.9723597214
 20
8.8799082539
 30
0.0
 10
12.9673547322
 20
8.8718940625
 30
0.0
 10
12.9623318432
 20
8.8642821085
 30
0.0
 10
12.9572936105
 20
8.857076157
 30
0.0
 10
12.9522424897
 20
8.850279779
 30
0.0
 10
12.9471809117
 20
8.8438963031
 30
0.0
 10
12.9421112633
 20
8.8379288059
 30
0.0
 10
12.9370361971
 20
8.832380523
 30
0.0
 10
12.9335805479
 20
8.8288919231
 30
0.0
 10
12.931851767
 20
8.8272220489
 30
0.0
  0
SPLINE
  5
383
100
AcDbEntity
  8
0
100
AcDbSpline
 62
7
  6
CONTINUOUS
 70
0
 71
3
 72
90
 73
86
 74
0
 42
0.0000001
 43
0.0000001
 44
0.0000000001
 40
0.0
 40
0.0
 40
0.0
 40
0.0
 40
0.0039801841
 40
0.0081241159
 40
0.0124359656
 40
0.0169193153
 40
0.0215771898
 40
0.0264119289
 40
0.0314251936
 40
0.0366181713
 40
0.0419915567
 40
0.0475456772
 40
0.0532804457
 40
0.0591954437
 40
0.0652899501
 40
0.0715629317
 40
0.0846386004
 40
0.098409911
 40
0.1128604817
 40
0.1279710074
 40
0.1437195982
 40
0.1600820565
 40
0.1770321086
 40
0.194541602
 40
0.2125806763
 40
0.2311179203
 40
0.2501205135
 40
0.2695543567
 40
0.2893841934
 40
0.3095737255
 40
0.3300857245
 40
0.3508821382
 40
0.3719241976
 40
0.3931725218
 40
0.4145872201
 40
0.4361279928
 40
0.4577542316
 40
0.4794251191
 40
0.5010997291
 40
0.5227371263
 40
0.5442964667
 40
0.5657370967
 40
0.5870186529
 40
0.608101162
 40
0.6289451422
 40
0.6495117057
 40
0.6697626638
 40
0.6896606308
 40
0.7091691309
 40
0.728252709
 40
0.7468770455
 40
0.7650090769
 40
0.7826171262
 40
0.7996710429
 40
0.8161423523
 40
0.8320044245
 40
0.8472326669
 40
0.8618047498
 40
0.8757008734
 40
0.8889040964
 40
0.8952416854
 40
0.9014012239
 40
0.9073816029
 40
0.9131819719
 40
0.9188018178
 40
0.9242409106
 40
0.9294994338
 40
0.9345779311
 40
0.9394774185
 40
0.9441994036
 40
0.9487459354
 40
0.9531197203
 40
0.9573241226
 40
0.9613633439
 40
0.9652424353
 40
0.9689674716
 40
0.9725456352
 40
0.9759853336
 40
0.9824864943
 40
0.9855753483
 40
0.9885738142
 40
0.9914977336
 40
0.9943643342
 40
0.9971920087
 40
1.0
 40
1.0
 40
1.0
 40
1.0
 10
9.399460811
 20
11.3054148715
 30
0.0
 10
9.4010096136
 20
11.3069109
 30
0.0
 10
9.4042412726
 20
11.3098923762
 30
0.0
 10
9.4093721531
 20
11.3142470465
 30
0.0
 10
9.4148798132
 20
11.3185704804
 30
0.0
 10
9.4207612315
 20
11.322860382
 30
0.0
 10
9.4270135407
 20
11.3271147481
 30
0.0
 10
9.433633677
 20
11.3313315087
 30
0.0
 10
9.4406183297
 20
11.3355086421
 30
0.0
 10
9.447964033
 20
11.3396439805
 30
0.0
 10
9.4556670778
 20
11.3437355392
 30
0.0
 10
9.4637236345
 20
11.3477812126
 30
0.0
 10
9.4721296528
 20
11.3517790132
 30
0.0
 10
9.4808809137
 20
11.355726912
 30
0.0
 10
9.4899730343
 20
11.3596229305
 30
0.0
 10
9.5027209844
 20
11.364817761
 30
0.0
 10
9.5194856103
 20
11.3711533612
 30
0.0
 10
9.5406176134
 20
11.3784172141
 30
0.0
 10
9.5629908745
 20
11.385428855
 30
0.0
 10
9.5865602815
 20
11.3921740323
 30
0.0
 10
9.6112785169
 20
11.3986390181
 30
0.0
 10
9.637095788
 20
11.4048106457
 30
0.0
 10
9.6639600518
 20
11.410676342
 30
0.0
 10
9.6918170978
 20
11.4162241557
 30
0.0
 10
9.7206106741
 20
11.4214427879
 30
0.0
 10
9.7502826065
 20
11.4263216122
 30
0.0
 10
9.7807729244
 20
11.4308506956
 30
0.0
 10
9.8120199862
 20
11.435020819
 30
0.0
 10
9.8439606074
 20
11.4388234952
 30
0.0
 10
9.8765301897
 20
11.4422509862
 30
0.0
 10
9.9096628527
 20
11.4452963172
 30
0.0
 10
9.9432915684
 20
11.4479532948
 30
0.0
 10
9.9773482987
 20
11.4502165174
 30
0.0
 10
10.0117641358
 20
11.4520813837
 30
0.0
 10
10.0464694428
 20
11.4535441023
 30
0.0
 10
10.0813939946
 20
11.454601699
 30
0.0
 10
10.1164671204
 20
11.4552520232
 30
0.0
 10
10.1516178469
 20
11.4554937507
 30
0.0
 10
10.1867750426
 20
11.4553263905
 30
0.0
 10
10.2218675634
 20
11.4547502846
 30
0.0
 10
10.2568243969
 20
11.453766605
 30
0.0
 10
10.2915748069
 20
11.4523773516
 30
0.0
 10
10.3260484763
 20
11.4505853484
 30
0.0
 10
10.3601756497
 20
11.4483942381
 30
0.0
 10
10.3938872755
 20
11.4458084742
 30
0.0
 10
10.4271151478
 20
11.4428333148
 30
0.0
 10
10.4597920462
 20
11.4394748132
 30
0.0
 10
10.4918518724
 20
11.4357398021
 30
0.0
 10
10.5232297849
 20
11.4316358812
 30
0.0
 10
10.5538623308
 20
11.427171402
 30
0.0
 10
10.5836875768
 20
11.4223554513
 30
0.0
 10
10.6126452382
 20
11.4171978325
 30
0.0
 10
10.640676806
 20
11.411709048
 30
0.0
 10
10.6677256728
 20
11.4059002796
 30
0.0
 10
10.6937372492
 20
11.3997833611
 30
0.0
 10
10.7186590896
 20
11.3933707537
 30
0.0
 10
10.7424409781
 20
11.3866755181
 30
0.0
 10
10.7650351487
 20
11.3797112815
 30
0.0
 10
10.7863960338
 20
11.3724922056
 30
0.0
 10
10.803357389
 20
11.3661931958
 30
0.0
 10
10.8162667291
 20
11.3610264588
 30
0.0
 10
10.8254816686
 20
11.3571497832
 30
0.0
 10
10.8343574002
 20
11.3532205423
 30
0.0
 10
10.84288946
 20
11.3492406414
 30
0.0
 10
10.8510735795
 20
11.3452121563
 30
0.0
 10
10.8589056298
 20
11.3411370342
 30
0.0
 10
10.8663817122
 20
11.3370173866
 30
0.0
 10
10.8734980698
 20
11.3328552184
 30
0.0
 10
10.8802511572
 20
11.3286526203
 30
0.0
 10
10.8866376168
 20
11.3244116813
 30
0.0
 10
10.8926542446
 20
11.3201344366
 30
0.0
 10
10.8982980902
 20
11.3158230402
 30
0.0
 10
10.9035662968
 20
11.3114794803
 30
0.0
 10
10.9084562839
 20
11.3071059169
 30
0.0
 10
10.9129655859
 20
11.3027042984
 30
0.0
 10
10.9170918379
 20
11.2982768413
 30
0.0
 10
10.9208332583
 20
11.2938250375
 30
0.0
 10
10.9252222978
 20
11.2879714289
 30
0.0
 10
10.928949307
 20
11.2819600412
 30
0.0
 10
10.9319083903
 20
11.2758202954
 30
0.0
 10
10.9336962551
 20
11.2712794951
 30
0.0
 10
10.9350885306
 20
11.2667276462
 30
0.0
 10
10.9360840752
 20
11.2621669599
 30
0.0
 10
10.9366817887
 20
11.2576006874
 30
0.0
 10
10.9368148522
 20
11.2545500597
 30
0.0
 10
10.9368148519
 20
11.2530308908
 30
0.0
  0
SPLINE
  5
384
100
AcDbEntity
  8
0
100
AcDbSpline
 62
7
  6
CONTINUOUS
 70
0
 71
3
 72
18
 73
14
 74
0
 42
0.0000001
 43
0.0000001
 44
0.0000000001
 40
0.0
 40
0.0
 40
0.0
 40
0.0
 40
0.0548620589
 40
0.1099280789
 40
0.165399508
 40
0.2214731255
 40
0.2783387361
 40
0.3361775086
 40
0.4554063416
 40
0.5804417492
 40
0.7123343341
 40
0.8519577333
 40
1.0
 40
1.0
 40
1.0
 40
1.0
 10
9.3728148519
 20
11.2530308908
 30
0.0
 10
9.3728148521
 20
11.254135293
 30
0.0
 10
9.3728849609
 20
11.2563488374
 30
0.0
 10
9.3732001445
 20
11.2596655527
 30
0.0
 10
9.3737252711
 20
11.2629803567
 30
0.0
 10
9.3744601676
 20
11.2662920388
 30
0.0
 10
9.3754045491
 20
11.2695997628
 30
0.0
 10
9.3769578452
 20
11.274047765
 30
0.0
 10
9.3794461992
 20
11.2796110247
 30
0.0
 10
9.3832336292
 20
11.2861812557
 30
0.0
 10
9.3878465136
 20
11.2927089594
 30
0.0
 10
9.3932778343
 20
11.2991875839
 30
0.0
 10
9.3973173109
 20
11.3033444092
 30
0.0
 10
9.399460811
 20
11.3054148715
 30
0.0
  0
SPLINE
  5
385
100
AcDbEntity
  8
0
100
AcDbSpline
 62
7
  6
CONTINUOUS
 70
0
 71
3
 72
10
 73
6
 74
0
 42
0.0000001
 43
0.0000001
 44
0.0000000001
 40
0.0
 40
0.0
 40
0.0
 40
0.0
 40
0.4750853033
 40
0.7308906867
 40
1.0
 40
1.0
 40
1.0
 40
1.0
 10
9.381436592
 20
11.2231151725
 30
0.0
 10
9.3837234395
 20
11.2270680618
 30
0.0
 10
9.3877784499
 20
11.2328491218
 30
0.0
 10
9.3940659587
 20
11.2401232784
 30
0.0
 10
9.3976002457
 20
11.2437302995
 30
0.0
 10
9.399460811
 20
11.2455274677
 30
0.0
  0
SPLINE
  5
386
100
AcDbEntity
  8
0
100
AcDbSpline
 62
7
  6
CONTINUOUS
 70
0
 71
3
 72
19
 73
15
 74
0
 42
0.0000001
 43
0.0000001
 44
0.0000000001
 40
0.0
 40
0.0
 40
0.0
 40
0.0
 40
0.0566184208
 40
0.1127459492
 40
0.1686783261
 40
0.224714752
 40
0.2811525386
 40
0.338282276
 40
0.3963829848
 40
0.45571873
 40
0.578999426
 40
0.7099205328
 40
0.8498912396
 40
1.0
 40
1.0
 40
1.0
 40
1.0
 10
9.4208093066
 20
11.1832511577
 30
0.0
 10
9.4205609796
 20
11.1844854751
 30
0.0
 10
9.4201556439
 20
11.1869624104
 30
0.0
 10
9.4198280622
 20
11.1907024626
 30
0.0
 10
9.4197847399
 20
11.1944438833
 30
0.0
 10
9.4200256853
 20
11.1981846242
 30
0.0
 10
9.4205506951
 20
11.2019230034
 30
0.0
 10
9.4213594705
 20
11.2056572332
 30
0.0
 10
9.4224514448
 20
11.2093858118
 30
0.0
 10
9.4243072475
 20
11.2144106002
 30
0.0
 10
9.4273728231
 20
11.2206952483
 30
0.0
 10
9.4321248709
 20
11.2280811646
 30
0.0
 10
9.4379846875
 20
11.2354006886
 30
0.0
 10
9.4424584293
 20
11.2400599801
 30
0.0
 10
9.4448593275
 20
11.2423790699
 30
0.0
  0
SPLINE
  5
387
100
AcDbEntity
  8
0
100
AcDbSpline
 62
7
  6
CONTINUOUS
 70
0
 71
3
 72
23
 73
19
 74
0
 42
0.0000001
 43
0.0000001
 44
0.0000000001
 40
0.0
 40
0.0
 40
0.0
 40
0.0
 40
0.0637771735
 40
0.1273448473
 40
0.1907019822
 40
0.253856143
 40
0.3168131975
 40
0.3795820985
 40
0.4421733906
 40
0.5045993374
 40
0.5668738654
 40
0.62901238
 40
0.6910316489
 40
0.7529496402
 40
0.814785347
 40
0.8765585971
 40
0.938289852
 40
1.0
 40
1.0
 40
1.0
 40
1.0
 10
9.4386362777
 20
8.2242185536
 30
0.0
 10
9.4386362777
 20
8.2310072417
 30
0.0
 10
9.4389612123
 20
8.2445646182
 30
0.0
 10
9.440427808
 20
8.2648182165
 30
0.0
 10
9.4428696941
 20
8.2849112535
 30
0.0
 10
9.4462810466
 20
8.3047965903
 30
0.0
 10
9.4506542192
 20
8.3244287366
 30
0.0
 10
9.4559791255
 20
8.3437623139
 30
0.0
 10
9.4622435298
 20
8.3627527807
 30
0.0
 10
9.4694330259
 20
8.3813563431
 30
0.0
 10
9.4775310735
 20
8.3995300971
 30
0.0
 10
9.4865190513
 20
8.417232118
 30
0.0
 10
9.4963762691
 20
8.4344215606
 30
0.0
 10
9.5070800099
 20
8.4510587883
 30
0.0
 10
9.5186055685
 20
8.4671053873
 30
0.0
 10
9.5309265147
 20
8.4825244601
 30
0.0
 10
9.5440139525
 20
8.4972799546
 30
0.0
 10
9.5532315601
 20
8.5066535614
 30
0.0
 10
9.5579561109
 20
8.5112171116
 30
0.0
  0
SPLINE
  5
388
100
AcDbEntity
  8
0
100
AcDbSpline
 62
7
  6
CONTINUOUS
 70
0
 71
3
 72
15
 73
11
 74
0
 42
0.0000001
 43
0.0000001
 44
0.0000000001
 40
0.0
 40
0.0
 40
0.0
 40
0.0
 40
0.1094613731
 40
0.2214548581
 40
0.3370807688
 40
0.4573270642
 40
0.5830585706
 40
0.7150191158
 40
0.8538340111
 40
1.0
 40
1.0
 40
1.0
 40
1.0
 10
9.4351694071
 20
11.1738953502
 30
0.0
 10
9.4353879409
 20
11.17569707
 30
0.0
 10
9.4360329305
 20
11.1793204744
 30
0.0
 10
9.4375936935
 20
11.1846969425
 30
0.0
 10
9.4397527169
 20
11.1900553182
 30
0.0
 10
9.4425062758
 20
11.1953901633
 30
0.0
 10
9.4458507662
 20
11.2006977025
 30
0.0
 10
9.449782479
 20
11.2059743346
 30
0.0
 10
9.4542973401
 20
11.2112160901
 30
0.0
 10
9.4576050983
 20
11.2145950491
 30
0.0
 10
9.4593482158
 20
11.2162787714
 30
0.0
  0
SPLINE
  5
389
100
AcDbEntity
  8
0
100
AcDbSpline
 62
7
  6
CONTINUOUS
 70
0
 71
3
 72
39
 73
35
 74
0
 42
0.0000001
 43
0.0000001
 44
0.0000000001
 40
0.0
 40
0.0
 40
0.0
 40
0.0
 40
0.031328177
 40
0.0628641127
 40
0.0945965856
 40
0.1265061999
 40
0.1585673748
 40
0.1907491065
 40
0.2230161157
 40
0.255330137
 40
0.287651269
 40
0.3199393597
 40
0.352155409
 40
0.3842629364
 40
0.4162292812
 40
0.4480268213
 40
0.4796340311
 40
0.5110363786
 40
0.5422270037
 40
0.5732071172
 40
0.6039861358
 40
0.6345814559
 40
0.6650179098
 40
0.6953268692
 40
0.725545024
 40
0.7557129012
 40
0.7858731601
 40
0.8160687892
 40
0.8463412669
 40
0.8767288223
 40
0.9072648627
 40
0.9379766554
 40
0.9688840565
 40
1.0
 40
1.0
 40
1.0
 40
1.0
 10
10.1237551271
 20
8.1809925836
 30
0.0
 10
10.1237551271
 20
8.189394344
 30
0.0
 10
10.1229238159
 20
8.2062647866
 30
0.0
 10
10.1192248911
 20
8.2314006936
 30
0.0
 10
10.1131063489
 20
8.2562220111
 30
0.0
 10
10.1046276196
 20
8.2804872154
 30
0.0
 10
10.0938708497
 20
8.3039642345
 30
0.0
 10
10.0809396908
 20
8.3264275158
 30
0.0
 10
10.0659587411
 20
8.3476616869
 30
0.0
 10
10.0490719214
 20
8.3674629559
 30
0.0
 10
10.0304414428
 20
8.3856413253
 30
0.0
 10
10.0102461346
 20
8.4020222963
 30
0.0
 10
9.9886796926
 20
8.4164483865
 30
0.0
 10
9.9659490758
 20
8.4287809358
 30
0.0
 10
9.9422722922
 20
8.4389010123
 30
0.0
 10
9.9178765846
 20
8.4467109198
 30
0.0
 10
9.8929961705
 20
8.4521349499
 30
0.0
 10
9.8678700822
 20
8.4551200653
 30
0.0
 10
9.8427399556
 20
8.4556367776
 30
0.0
 10
9.8178477093
 20
8.4536790085
 30
0.0
 10
9.7934332764
 20
8.4492647151
 30
0.0
 10
9.7697322803
 20
8.4424354874
 30
0.0
 10
9.7469737887
 20
8.4332563028
 30
0.0
 10
9.7253779249
 20
8.4218152173
 30
0.0
 10
9.7051538499
 20
8.4082221663
 30
0.0
 10
9.686497388
 20
8.3926084006
 30
0.0
 10
9.6695892092
 20
8.375124846
 30
0.0
 10
9.6545929234
 20
8.355940735
 30
0.0
 10
9.6416532713
 20
8.3352419643
 30
0.0
 10
9.6308950374
 20
8.3132288676
 30
0.0
 10
9.6224214042
 20
8.2901147845
 30
0.0
 10
9.6163134597
 20
8.2661224048
 30
0.0
 10
9.6126291016
 20
8.2414864635
 30
0.0
 10
9.6118144088
 20
8.2248406354
 30
0.0
 10
9.6118144088
 20
8.216495793
 30
0.0
  0
SPLINE
  5
38A
100
AcDbEntity
  8
0
100
AcDbSpline
 62
7
  6
CONTINUOUS
 70
0
 71
3
 72
19
 73
15
 74
0
 42
0.0000001
 43
0.0000001
 44
0.0000000001
 40
0.0
 40
0.0
 40
0.0
 40
0.0
 40
0.12732766
 40
0.2538196711
 40
0.3795264658
 40
0.5045235362
 40
0.5668075958
 40
0.6289556124
 40
0.6909843715
 40
0.7529118454
 40
0.8147570127
 40
0.8765397119
 40
0.9382804145
 40
1.0
 40
1.0
 40
1.0
 40
1.0
 10
10.0297829184
 20
6.6135928341
 30
0.0
 10
10.0297829184
 20
6.6198448301
 30
0.0
 10
10.0303798464
 20
6.6323163903
 30
0.0
 10
10.0330795266
 20
6.6507841072
 30
0.0
 10
10.0375555731
 20
6.6687869265
 30
0.0
 10
10.0427407087
 20
6.6832838698
 30
0.0
 10
10.0477273898
 20
6.694474799
 30
0.0
 10
10.0518741616
 20
6.7026420076
 30
0.0
 10
10.0564218605
 20
6.7105725343
 30
0.0
 10
10.061360136
 20
6.7182483497
 30
0.0
 10
10.0666775946
 20
6.7256516333
 30
0.0
 10
10.072361982
 20
6.7327654304
 30
0.0
 10
10.0784000091
 20
6.7395730709
 30
0.0
 10
10.0826526529
 20
6.7438977063
 30
0.0
 10
10.0848323777
 20
6.7460031579
 30
0.0
  0
SPLINE
  5
38B
100
AcDbEntity
  8
0
100
AcDbSpline
 62
7
  6
CONTINUOUS
 70
0
 71
3
 72
11
 73
7
 74
0
 42
0.0000001
 43
0.0000001
 44
0.0000000001
 40
0.0
 40
0.0
 40
0.0
 40
0.0
 40
0.2523655608
 40
0.5030800213
 40
0.7522419629
 40
1.0
 40
1.0
 40
1.0
 40
1.0
 10
9.8124992511
 20
8.3563424765
 30
0.0
 10
9.8124992511
 20
8.3628208728
 30
0.0
 10
9.8131158819
 20
8.3757440902
 30
0.0
 10
9.815904762
 20
8.3948822104
 30
0.0
 10
9.8205285297
 20
8.4135402066
 30
0.0
 10
9.8248199349
 20
8.4255796222
 30
0.0
 10
9.8272542407
 20
8.4314554418
 30
0.0
  0
SPLINE
  5
38C
100
AcDbEntity
  8
0
100
AcDbSpline
 62
7
  6
CONTINUOUS
 70
0
 71
3
 72
91
 73
87
 74
0
 42
0.0000001
 43
0.0000001
 44
0.0000000001
 40
0.0
 40
0.0
 40
0.0
 40
0.0
 40
0.003951903
 40
0.0080685089
 40
0.0123533809
 40
0.0168095602
 40
0.0214395938
 40
0.0262454078
 40
0.0312283104
 40
0.0363891848
 40
0.0417284681
 40
0.0472462685
 40
0.0529423175
 40
0.0588160468
 40
0.0648666145
 40
0.0710928939
 40
0.0774935604
 40
0.0840670218
 40
0.0977247686
 40
0.1120500915
 40
0.1270238871
 40
0.1426246686
 40
0.1588288145
 40
0.1756107767
 40
0.1929432587
 40
0.2107973695
 40
0.2291427664
 40
0.2479477848
 40
0.2671795561
 40
0.2868041196
 40
0.3067865283
 40
0.3270909508
 40
0.3476807695
 40
0.3685186791
 40
0.3895667831
 40
0.4107866879
 40
0.4321395959
 40
0.4535863978
 40
0.4750877649
 40
0.4966042409
 40
0.5180963348
 40
0.5395246126
 40
0.5608497892
 40
0.5820328203
 40
0.6030349939
 40
0.6238180238
 40
0.6443441437
 40
0.6645762028
 40
0.6844777606
 40
0.7040131843
 40
0.7231477481
 40
0.741847737
 40
0.760080553
 40
0.7778148313
 40
0.7950205612
 40
0.8116692151
 40
0.8277338917
 40
0.8431894767
 40
0.8580128282
 40
0.8721829931
 40
0.8856814689
 40
0.8984925241
 40
0.9046364311
 40
0.9106040542
 40
0.9163944243
 40
0.9220067961
 40
0.9274407664
 40
0.9326962167
 40
0.9377734089
 40
0.9426729974
 40
0.9473960599
 40
0.9519442011
 40
0.9563195341
 40
0.9605248406
 40
0.9645635662
 40
0.9684399729
 40
0.972159213
 40
0.9757274338
 40
0.9791519399
 40
0.9824412542
 40
0.9856053125
 40
0.9886555028
 40
0.9916047863
 40
0.9944676965
 40
0.9972602867
 40
1.0
 40
1.0
 40
1.0
 40
1.0
 10
12.9163969522
 20
8.828293844
 30
0.0
 10
12.9181017923
 20
8.8299405931
 30
0.0
 10
12.9215096475
 20
8.8333788501
 30
0.0
 10
12.9265159864
 20
8.8388432323
 30
0.0
 10
12.9315171406
 20
8.8447156289
 30
0.0
 10
12.9365105352
 20
8.8509929375
 30
0.0
 10
12.9414938941
 20
8.8576721964
 30
0.0
 10
12.9464648632
 20
8.864750242
 30
0.0
 10
12.9514211201
 20
8.872223648
 30
0.0
 10
12.9563601826
 20
8.8800888298
 30
0.0
 10
12.9612797391
 20
8.8883419422
 30
0.0
 10
12.9661773474
 20
8.8969790178
 30
0.0
 10
12.9710506673
 20
8.9059958536
 30
0.0
 10
12.9758973166
 20
8.9153880744
 30
0.0
 10
12.9807149087
 20
8.9251511196
 30
0.0
 10
12.9855011325
 20
8.9352802213
 30
0.0
 10
12.9902536155
 20
8.9457704735
 30
0.0
 10
12.9966235127
 20
8.9604193394
 30
0.0
 10
13.004471898
 20
8.9796054951
 30
0.0
 10
13.0136030267
 20
9.0037007257
 30
0.0
 10
13.0225453606
 20
9.0291054306
 30
0.0
 10
13.0312813254
 20
9.0557700115
 30
0.0
 10
13.039793746
 20
9.0836425878
 30
0.0
 10
13.0480658836
 20
9.1126687937
 30
0.0
 10
13.0560814709
 20
9.1427919842
 30
0.0
 10
13.0638247514
 20
9.1739533265
 30
0.0
 10
13.0712805069
 20
9.2060919311
 30
0.0
 10
13.0784340871
 20
9.239144976
 30
0.0
 10
13.0852714388
 20
9.2730478349
 30
0.0
 10
13.0917791328
 20
9.3077342061
 30
0.0
 10
13.0979443902
 20
9.3431362443
 30
0.0
 10
13.1037551062
 20
9.3791846936
 30
0.0
 10
13.1091998775
 20
9.4158090243
 30
0.0
 10
13.1142680225
 20
9.4529375732
 30
0.0
 10
13.1189496002
 20
9.4904976862
 30
0.0
 10
13.1232354296
 20
9.528415862
 30
0.0
 10
13.127117108
 20
9.5666178959
 30
0.0
 10
13.1305870268
 20
9.6050290253
 30
0.0
 10
13.1336383859
 20
9.643574076
 30
0.0
 10
13.1362652103
 20
9.6821776104
 30
0.0
 10
13.1384623614
 20
9.7207640758
 30
0.0
 10
13.1402255441
 20
9.7592579538
 30
0.0
 10
13.1415513159
 20
9.7975839084
 30
0.0
 10
13.1424370939
 20
9.8356669327
 30
0.0
 10
13.1428811599
 20
9.8734324969
 30
0.0
 10
13.1428826634
 20
9.9108066939
 30
0.0
 10
13.1424416266
 20
9.947716387
 30
0.0
 10
13.1415589452
 20
9.9840893535
 30
0.0
 10
13.1402363834
 20
10.0198544276
 30
0.0
 10
13.1384765718
 20
10.0549416396
 30
0.0
 10
13.1362830025
 20
10.0892823538
 30
0.0
 10
13.1336600231
 20
10.1228094046
 30
0.0
 10
13.1306128282
 20
10.1554572311
 30
0.0
 10
13.1271474521
 20
10.1871620109
 30
0.0
 10
13.1232707594
 20
10.2178617899
 30
0.0
 10
13.1189904272
 20
10.2474966078
 30
0.0
 10
13.1143149314
 20
10.276008619
 30
0.0
 10
13.1092535292
 20
10.3033422225
 30
0.0
 10
13.1038162374
 20
10.3294441509
 30
0.0
 10
13.0980138133
 20
10.354263704
 30
0.0
 10
13.0918577067
 20
10.3777524787
 30
0.0
 10
13.0863692486
 20
10.396431394
 30
0.0
 10
13.0817977628
 20
10.4106640336
 30
0.0
 10
13.0783361336
 20
10.4208286196
 30
0.0
 10
13.07479542
 20
10.4306276399
 30
0.0
 10
13.0711772404
 20
10.4400563314
 30
0.0
 10
13.0674834344
 20
10.4491101275
 30
0.0
 10
13.0637157454
 20
10.4577846298
 30
0.0
 10
13.0598760161
 20
10.4660756429
 30
0.0
 10
13.0559661152
 20
10.4739791689
 30
0.0
 10
13.0519878665
 20
10.4814913779
 30
0.0
 10
13.0479432424
 20
10.4886086863
 30
0.0
 10
13.0438340651
 20
10.4953276389
 30
0.0
 10
13.0396623391
 20
10.501645053
 30
0.0
 10
13.0354299302
 20
10.5075578732
 30
0.0
 10
13.0311387889
 20
10.513063273
 30
0.0
 10
13.0267908481
 20
10.518158611
 30
0.0
 10
13.0223879621
 20
10.5228413589
 30
0.0
 10
13.0179321077
 20
10.5271092547
 30
0.0
 10
13.0134250801
 20
10.5309600159
 30
0.0
 10
13.0088688677
 20
10.5343916453
 30
0.0
 10
13.0042653319
 20
10.5374020843
 30
0.0
 10
12.9996165577
 20
10.5399894427
 30
0.0
 10
12.9949245633
 20
10.5421519431
 30
0.0
 10
12.9901921578
 20
10.543887701
 30
0.0
 10
12.9869873935
 20
10.5447661385
 30
0.0
 10
12.9853851676
 20
10.5451309612
 30
0.0
  0
SPLINE
  5
38D
100
AcDbEntity
  8
0
100
AcDbSpline
 62
7
  6
CONTINUOUS
 70
0
 71
3
 72
16
 73
12
 74
0
 42
0.0000001
 43
0.0000001
 44
0.0000000001
 40
0.0
 40
0.0
 40
0.0
 40
0.0
 40
0.1483073381
 40
0.2885838721
 40
0.4213385456
 40
0.5472222751
 40
0.6670211283
 40
0.7816654
 40
0.8922369608
 40
0.9463938106
 40
1.0
 40
1.0
 40
1.0
 40
1.0
 10
12.9163969522
 20
8.828293844
 30
0.0
 10
12.9142128
 20
8.8261841149
 30
0.0
 10
12.909847002
 20
8.8221959812
 30
0.0
 10
12.9031131609
 20
8.8167929224
 30
0.0
 10
12.8963864983
 20
8.8121456622
 30
0.0
 10
12.889672255
 20
8.8082594042
 30
0.0
 10
12.8829749184
 20
8.8051387867
 30
0.0
 10
12.8763003356
 20
8.8027888263
 30
0.0
 10
12.8707216939
 20
8.8014674034
 30
0.0
 10
12.8662977201
 20
8.80081034
 30
0.0
 10
12.8640985826
 20
8.8006122062
 30
0.0
 10
12.8630029643
 20
8.8005459242
 30
0.0
  0
SPLINE
  5
38E
100
AcDbEntity
  8
0
100
AcDbSpline
 62
7
  6
CONTINUOUS
 70
0
 71
3
 72
29
 73
25
 74
0
 42
0.0000001
 43
0.0000001
 44
0.0000000001
 40
0.0
 40
0.0
 40
0.0
 40
0.0
 40
0.075584778
 40
0.1466145866
 40
0.2134285235
 40
0.2764669505
 40
0.3362692172
 40
0.3651662051
 40
0.3935049689
 40
0.4213821613
 40
0.4488997384
 40
0.4761641868
 40
0.5032852123
 40
0.5303743926
 40
0.557543775
 40
0.5849042952
 40
0.612564409
 40
0.6406288341
 40
0.669197271
 40
0.7281930258
 40
0.7902533667
 40
0.8559468649
 40
0.9257384182
 40
1.0
 40
1.0
 40
1.0
 40
1.0
 10
12.9163969522
 20
9.0359679089
 30
0.0
 10
12.9145625983
 20
9.0341960591
 30
0.0
 10
12.9108963841
 20
9.0308680066
 30
0.0
 10
12.9052225641
 20
9.0264220174
 30
0.0
 10
12.8995553044
 20
9.0226879528
 30
0.0
 10
12.8939003579
 20
9.0196716577
 30
0.0
 10
12.8891471931
 20
9.0177386243
 30
0.0
 10
12.8853719583
 20
9.0165731772
 30
0.0
 10
12.8825805186
 20
9.015890656
 30
0.0
 10
12.8797980121
 20
9.01539021
 30
0.0
 10
12.8770252053
 20
9.0150720999
 30
0.0
 10
12.8742630024
 20
9.0149364796
 30
0.0
 10
12.8715122938
 20
9.014983405
 30
0.0
 10
12.8687739868
 20
9.0152129318
 30
0.0
 10
12.8660489946
 20
9.0156249881
 30
0.0
 10
12.8633381933
 20
9.0162193523
 30
0.0
 10
12.8606424642
 20
9.0169957812
 30
0.0
 10
12.8579625829
 20
9.0179540532
 30
0.0
 10
12.8543737782
 20
9.0194896607
 30
0.0
 10
12.8499166182
 20
9.0218856809
 30
0.0
 10
12.8447080687
 20
9.0254503659
 30
0.0
 10
12.8395853331
 20
9.0297292874
 30
0.0
 10
12.8345531447
 20
9.0347158594
 30
0.0
 10
12.8313638386
 20
9.0383900063
 30
0.0
 10
12.8297828203
 20
9.0403339584
 30
0.0
  0
SPLINE
  5
38F
100
AcDbEntity
  8
0
100
AcDbSpline
 62
7
  6
CONTINUOUS
 70
0
 71
3
 72
18
 73
14
 74
0
 42
0.0000001
 43
0.0000001
 44
0.0000000001
 40
0.0
 40
0.0
 40
0.0
 40
0.0
 40
0.1504678859
 40
0.2917100145
 40
0.4244359174
 40
0.549562529
 40
0.668213991
 40
0.7255497453
 40
0.7817912733
 40
0.8371402265
 40
0.8918093735
 40
0.9460201098
 40
1.0
 40
1.0
 40
1.0
 40
1.0
 10
12.931851767
 20
8.8272220489
 30
0.0
 10
12.9293780537
 20
8.8248326252
 30
0.0
 10
12.9244341503
 20
8.8203494572
 30
0.0
 10
12.9167785487
 20
8.8143748794
 30
0.0
 10
12.9091319444
 20
8.8093780469
 30
0.0
 10
12.9015022492
 20
8.8053671479
 30
0.0
 10
12.8950895658
 20
8.8028238053
 30
0.0
 10
12.8899981871
 20
8.8013126915
 30
0.0
 10
12.8862338821
 20
8.8004417161
 30
0.0
 10
12.8824820658
 20
8.7998209556
 30
0.0
 10
12.8787437908
 20
8.7994506107
 30
0.0
 10
12.8750205408
 20
8.7993309035
 30
0.0
 10
12.872546922
 20
8.7994184049
 30
0.0
 10
12.8713160493
 20
8.7995037624
 30
0.0
  0
SPLINE
  5
390
100
AcDbEntity
  8
0
100
AcDbSpline
 62
7
  6
CONTINUOUS
 70
0
 71
3
 72
18
 73
14
 74
0
 42
0.0000001
 43
0.0000001
 44
0.0000000001
 40
0.0
 40
0.0
 40
0.0
 40
0.0
 40
0.1504682264
 40
0.2917142046
 40
0.4244422282
 40
0.4879096675
 40
0.549609302
 40
0.6682625578
 40
0.7817883308
 40
0.8371380724
 40
0.8918078923
 40
0.9460193294
 40
1.0
 40
1.0
 40
1.0
 40
1.0
 10
12.8632710286
 20
9.0927781278
 30
0.0
 10
12.8615606432
 20
9.0911260223
 30
0.0
 10
12.8581422018
 20
9.0880261934
 30
0.0
 10
12.8528491041
 20
9.0838952974
 30
0.0
 10
12.8483781899
 20
9.0809737013
 30
0.0
 10
12.8448130238
 20
9.0789952859
 30
0.0
 10
12.8413527428
 20
9.0772967454
 30
0.0
 10
12.8370262943
 20
9.0755804257
 30
0.0
 10
12.8326228858
 20
9.0744091902
 30
0.0
 10
12.8291352553
 20
9.0738322097
 30
0.0
 10
12.8265504375
 20
9.0735761387
 30
0.0
 10
12.8239760772
 20
9.0734934216
 30
0.0
 10
12.8222657347
 20
9.0735539096
 30
0.0
 10
12.8214146689
 20
9.0736129263
 30
0.0
  0
SPLINE
  5
391
100
AcDbEntity
  8
0
100
AcDbSpline
 62
4
  6
CONTINUOUS
 70
0
 71
3
 72
313
 73
309
 74
0
 42
0.0000001
 43
0.0000001
 44
0.0000000001
 40
0.0
 40
0.0
 40
0.0
 40
0.0
 40
0.015625
 40
0.0234375
 40
0.03125
 40
0.0390625
 40
0.046875
 40
0.05078125
 40
0.0546875
 40
0.056640625
 40
0.05859375
 40
0.060546875
 40
0.0615234375
 40
0.0620117188
 40
0.0625
 40
0.0629882812
 40
0.0634765625
 40
0.064453125
 40
0.06640625
 40
0.068359375
 40
0.0703125
 40
0.07421875
 40
0.078125
 40
0.0859375
 40
0.09375
 40
0.1015625
 40
0.109375
 40
0.11328125
 40
0.1171875
 40
0.119140625
 40
0.12109375
 40
0.123046875
 40
0.1240234375
 40
0.1245117188
 40
0.125
 40
0.1254882812
 40
0.1259765625
 40
0.126953125
 40
0.12890625
 40
0.130859375
 40
0.1328125
 40
0.13671875
 40
0.140625
 40
0.1484375
 40
0.15625
 40
0.1640625
 40
0.171875
 40
0.17578125
 40
0.1796875
 40
0.181640625
 40
0.18359375
 40
0.185546875
 40
0.1865234375
 40
0.1870117188
 40
0.1875
 40
0.1879882812
 40
0.1884765625
 40
0.189453125
 40
0.19140625
 40
0.193359375
 40
0.1953125
 40
0.19921875
 40
0.203125
 40
0.2109375
 40
0.21875
 40
0.2265625
 40
0.234375
 40
0.23828125
 40
0.2421875
 40
0.244140625
 40
0.24609375
 40
0.248046875
 40
0.2490234375
 40
0.2495117188
 40
0.25
 40
0.2504882812
 40
0.2509765625
 40
0.251953125
 40
0.25390625
 40
0.255859375
 40
0.2578125
 40
0.26171875
 40
0.265625
 40
0.2734375
 40
0.28125
 40
0.2890625
 40
0.296875
 40
0.30078125
 40
0.3046875
 40
0.306640625
 40
0.30859375
 40
0.310546875
 40
0.3115234375
 40
0.3120117188
 40
0.3125
 40
0.3129882812
 40
0.3134765625
 40
0.314453125
 40
0.31640625
 40
0.318359375
 40
0.3203125
 40
0.32421875
 40
0.328125
 40
0.3359375
 40
0.34375
 40
0.3515625
 40
0.359375
 40
0.36328125
 40
0.3671875
 40
0.369140625
 40
0.37109375
 40
0.373046875
 40
0.3740234375
 40
0.3745117188
 40
0.375
 40
0.3754882812
 40
0.3759765625
 40
0.376953125
 40
0.37890625
 40
0.380859375
 40
0.3828125
 40
0.38671875
 40
0.390625
 40
0.3984375
 40
0.40625
 40
0.4140625
 40
0.421875
 40
0.42578125
 40
0.4296875
 40
0.431640625
 40
0.43359375
 40
0.435546875
 40
0.4365234375
 40
0.4370117188
 40
0.4375
 40
0.4379882812
 40
0.4384765625
 40
0.439453125
 40
0.44140625
 40
0.443359375
 40
0.4453125
 40
0.44921875
 40
0.453125
 40
0.4609375
 40
0.46875
 40
0.4765625
 40
0.484375
 40
0.48828125
 40
0.4921875
 40
0.494140625
 40
0.49609375
 40
0.498046875
 40
0.4990234375
 40
0.4995117188
 40
0.5
 40
0.5004882812
 40
0.5009765625
 40
0.501953125
 40
0.50390625
 40
0.505859375
 40
0.5078125
 40
0.51171875
 40
0.515625
 40
0.5234375
 40
0.53125
 40
0.5390625
 40
0.546875
 40
0.55078125
 40
0.5546875
 40
0.556640625
 40
0.55859375
 40
0.560546875
 40
0.5615234375
 40
0.5620117188
 40
0.5625
 40
0.5629882812
 40
0.5634765625
 40
0.564453125
 40
0.56640625
 40
0.568359375
 40
0.5703125
 40
0.57421875
 40
0.578125
 40
0.5859375
 40
0.59375
 40
0.6015625
 40
0.609375
 40
0.61328125
 40
0.6171875
 40
0.619140625
 40
0.62109375
 40
0.623046875
 40
0.6240234375
 40
0.6245117188
 40
0.625
 40
0.6254882812
 40
0.6259765625
 40
0.626953125
 40
0.62890625
 40
0.630859375
 40
0.6328125
 40
0.63671875
 40
0.640625
 40
0.6484375
 40
0.65625
 40
0.6640625
 40
0.671875
 40
0.67578125
 40
0.6796875
 40
0.681640625
 40
0.68359375
 40
0.685546875
 40
0.6865234375
 40
0.6870117188
 40
0.6875
 40
0.6879882812
 40
0.6884765625
 40
0.689453125
 40
0.69140625
 40
0.693359375
 40
0.6953125
 40
0.69921875
 40
0.703125
 40
0.7109375
 40
0.71875
 40
0.7265625
 40
0.734375
 40
0.73828125
 40
0.7421875
 40
0.744140625
 40
0.74609375
 40
0.748046875
 40
0.7490234375
 40
0.7495117188
 40
0.75
 40
0.7504882812
 40
0.7509765625
 40
0.751953125
 40
0.75390625
 40
0.755859375
 40
0.7578125
 40
0.76171875
 40
0.765625
 40
0.7734375
 40
0.78125
 40
0.7890625
 40
0.796875
 40
0.80078125
 40
0.8046875
 40
0.806640625
 40
0.80859375
 40
0.810546875
 40
0.8115234375
 40
0.8120117188
 40
0.8125
 40
0.8129882812
 40
0.8134765625
 40
0.814453125
 40
0.81640625
 40
0.818359375
 40
0.8203125
 40
0.82421875
 40
0.828125
 40
0.8359375
 40
0.84375
 40
0.8515625
 40
0.859375
 40
0.86328125
 40
0.8671875
 40
0.869140625
 40
0.87109375
 40
0.873046875
 40
0.8740234375
 40
0.8745117188
 40
0.875
 40
0.8754882812
 40
0.8759765625
 40
0.876953125
 40
0.87890625
 40
0.880859375
 40
0.8828125
 40
0.88671875
 40
0.890625
 40
0.8984375
 40
0.90625
 40
0.9140625
 40
0.921875
 40
0.92578125
 40
0.9296875
 40
0.931640625
 40
0.93359375
 40
0.935546875
 40
0.9365234375
 40
0.9370117188
 40
0.9375
 40
0.9379882812
 40
0.9384765625
 40
0.939453125
 40
0.94140625
 40
0.943359375
 40
0.9453125
 40
0.94921875
 40
0.953125
 40
0.9609375
 40
0.96875
 40
0.9765625
 40
0.984375
 40
1.0
 40
1.0
 40
1.0
 40
1.0
 10
10.283435065
 20
9.6624303122
 30
0.0
 10
10.2865682519
 20
9.6625202366
 30
0.0
 10
10.2912680323
 20
9.662655123
 30
0.0
 10
10.297534406
 20
9.6628349725
 30
0.0
 10
10.3022341868
 20
9.6629698571
 30
0.0
 10
10.3069339657
 20
9.6631047512
 30
0.0
 10
10.3108504539
 20
9.6632171335
 30
0.0
 10
10.3139836315
 20
9.6633071053
 30
0.0
 10
10.3159418969
 20
9.6633631874
 30
0.0
 10
10.317508442
 20
9.6634083971
 30
0.0
 10
10.3186835348
 20
9.6634413627
 30
0.0
 10
10.3196621936
 20
9.6634718298
 30
0.0
 10
10.3203484032
 20
9.6634872775
 30
0.0
 10
10.3207387298
 20
9.6635052848
 30
0.0
 10
10.321036526
 20
9.6634929298
 30
0.0
 10
10.3213150141
 20
9.6635794267
 30
0.0
 10
10.3216930664
 20
9.6636602753
 30
0.0
 10
10.32235152
 20
9.6638178254
 30
0.0
 10
10.3232938086
 20
9.6640344979
 30
0.0
 10
10.3244238527
 20
9.6642981
 30
0.0
 10
10.3259308235
 20
9.6646483137
 30
0.0
 10
10.3278144529
 20
9.6650865109
 30
0.0
 10
10.330828307
 20
9.665787386
 30
0.0
 10
10.3345956083
 20
9.6666635629
 30
0.0
 10
10.3391163777
 20
9.6677149373
 30
0.0
 10
10.3436371417
 20
9.6687663303
 30
0.0
 10
10.3474044567
 20
9.6696424608
 30
0.0
 10
10.3504182833
 20
9.6703434287
 30
0.0
 10
10.3523019825
 20
9.67078139
 30
0.0
 10
10.3538088101
 20
9.6711320879
 30
0.0
 10
10.3549392916
 20
9.6713942108
 30
0.0
 10
10.3558802115
 20
9.6716155115
 30
0.0
 10
10.3565411085
 20
9.6717647995
 30
0.0
 10
10.356915246
 20
9.671858886
 30
0.0
 10
10.357205759
 20
9.6719047203
 30
0.0
 10
10.3574583914
 20
9.6720450871
 30
0.0
 10
10.3578084478
 20
9.6721992688
 30
0.0
 10
10.3584148901
 20
9.6724844501
 30
0.0
 10
10.3592844549
 20
9.6728838198
 30
0.0
 10
10.360326555
 20
9.6733665014
 30
0.0
 10
10.361716503
 20
9.6740088761
 30
0.0
 10
10.3634537732
 20
9.6748122556
 30
0.0
 10
10.3662334977
 20
9.676097433
 30
0.0
 10
10.3697081214
 20
9.6777039842
 30
0.0
 10
10.3738776846
 20
9.6796318093
 30
0.0
 10
10.3780472396
 20
9.6815596523
 30
0.0
 10
10.381521884
 20
9.6831661585
 30
0.0
 10
10.384301567
 20
9.6844514257
 30
0.0
 10
10.3860389427
 20
9.685254577
 30
0.0
 10
10.3874286742
 20
9.6858974202
 30
0.0
 10
10.3884714355
 20
9.6863786705
 30
0.0
 10
10.3893389316
 20
9.6867825186
 30
0.0
 10
10.3899490669
 20
9.6870597051
 30
0.0
 10
10.3902932062
 20
9.6872266965
 30
0.0
 10
10.3905640138
 20
9.6873277163
 30
0.0
 10
10.3907862638
 20
9.6875213313
 30
0.0
 10
10.3910995346
 20
9.6877471865
 30
0.0
 10
10.391639867
 20
9.6881574813
 30
0.0
 10
10.3924158961
 20
9.6887357494
 30
0.0
 10
10.3933453651
 20
9.6894330386
 30
0.0
 10
10.394585274
 20
9.6903615814
 30
0.0
 10
10.3961349489
 20
9.6915226626
 30
0.0
 10
10.3986145467
 20
9.6933801673
 30
0.0
 10
10.4017140031
 20
9.6957021259
 30
0.0
 10
10.4054333702
 20
9.6984884412
 30
0.0
 10
10.4091527251
 20
9.7012747722
 30
0.0
 10
10.4122522119
 20
9.7035966916
 30
0.0
 10
10.4147317491
 20
9.7054542747
 30
0.0
 10
10.4162815782
 20
9.7066151568
 30
0.0
 10
10.4175211705
 20
9.7075441082
 30
0.0
 10
10.4184516066
 20
9.7082401488
 30
0.0
 10
10.41922461
 20
9.7088223235
 30
0.0
 10
10.4197703438
 20
9.7092256445
 30
0.0
 10
10.4200749601
 20
9.7094626735
 30
0.0
 10
10.4203237937
 20
9.7096219662
 30
0.0
 10
10.4204947577
 20
9.7098518952
 30
0.0
 10
10.4207498715
 20
9.7101338285
 30
0.0
 10
10.4211836653
 20
9.7106386914
 30
0.0
 10
10.4218099872
 20
9.7113539224
 30
0.0
 10
10.4225587414
 20
9.7122147686
 30
0.0
 10
10.4235580695
 20
9.7133616662
 30
0.0
 10
10.4248068909
 20
9.7147955954
 30
0.0
 10
10.4268051945
 20
9.7170897105
 30
0.0
 10
10.4293030087
 20
9.7199574135
 30
0.0
 10
10.4323004156
 20
9.7233986304
 30
0.0
 10
10.4352978072
 20
9.7268398598
 30
0.0
 10
10.4377956598
 20
9.7297075313
 30
0.0
 10
10.4397938865
 20
9.7320017095
 30
0.0
 10
10.4410429036
 20
9.7334354781
 30
0.0
 10
10.44204183
 20
9.7345827054
 30
0.0
 10
10.4427918117
 20
9.7354425444
 30
0.0
 10
10.4434142929
 20
9.7361609265
 30
0.0
 10
10.4438549428
 20
9.7366601643
 30
0.0
 10
10.4440990715
 20
9.7369511105
 30
0.0
 10
10.4443037781
 20
9.7371533548
 30
0.0
 10
10.4444258799
 20
9.7374166268
 30
0.0
 10
10.4446174958
 20
9.737746369
 30
0.0
 10
10.4449393988
 20
9.738333336
 30
0.0
 10
10.4454062789
 20
9.739166675
 30
0.0
 10
10.4459635308
 20
9.7401689013
 30
0.0
 10
10.4467075826
 20
9.7415044277
 30
0.0
 10
10.4476372881
 20
9.7431741013
 30
0.0
 10
10.4491250178
 20
9.7458454305
 30
0.0
 10
10.4509846104
 20
9.7491846432
 30
0.0
 10
10.4532161536
 20
9.7531916755
 30
0.0
 10
10.45544768
 20
9.7571987178
 30
0.0
 10
10.4573073145
 20
9.7605379052
 30
0.0
 10
10.4587949605
 20
9.7632092851
 30
0.0
 10
10.4597248787
 20
9.7648788298
 30
0.0
 10
10.460468494
 20
9.7662146207
 30
0.0
 10
10.4610270797
 20
9.7672160392
 30
0.0
 10
10.4614897865
 20
9.7680519053
 30
0.0
 10
10.4618191395
 20
9.768634361
 30
0.0
 10
10.4619988186
 20
9.7689713315
 30
0.0
 10
10.4621575864
 20
9.7692124006
 30
0.0
 10
10.4622245816
 20
9.7694980355
 30
0.0
 10
10.4623459198
 20
9.7698633369
 30
0.0
 10
10.4625433469
 20
9.7705098571
 30
0.0
 10
10.4628331833
 20
9.7714296708
 30
0.0
 10
10.4631776494
 20
9.772535068
 30
0.0
 10
10.4636381032
 20
9.7740083649
 30
0.0
 10
10.4642132714
 20
9.7758501798
 30
0.0
 10
10.4651337635
 20
9.7787969753
 30
0.0
 10
10.4662843016
 20
9.782480507
 30
0.0
 10
10.4676649828
 20
9.7869007283
 30
0.0
 10
10.4690456457
 20
9.7913209572
 30
0.0
 10
10.4701962292
 20
9.7950044697
 30
0.0
 10
10.4711166306
 20
9.7979513037
 30
0.0
 10
10.4716920296
 20
9.7997930209
 30
0.0
 10
10.4721520097
 20
9.8012665183
 30
0.0
 10
10.472497923
 20
9.8023713029
 30
0.0
 10
10.4727832313
 20
9.8032930332
 30
0.0
 10
10.4729887418
 20
9.803936132
 30
0.0
 10
10.4730971285
 20
9.8043069153
 30
0.0
 10
10.4732039067
 20
9.8045757117
 30
0.0
 10
10.473213256
 20
9.8048800231
 30
0.0
 10
10.4732597059
 20
9.8052733835
 30
0.0
 10
10.4733251595
 20
9.8059675361
 30
0.0
 10
10.4734269428
 20
9.8069561651
 30
0.0
 10
10.4735455394
 20
9.8081438115
 30
0.0
 10
10.4737049058
 20
9.8097268889
 30
0.0
 10
10.47390369
 20
9.8117058902
 30
0.0
 10
10.4742219817
 20
9.8148722058
 30
0.0
 10
10.4746197645
 20
9.81883013
 30
0.0
 10
10.4750971413
 20
9.8235796263
 30
0.0
 10
10.475574499
 20
9.8283291259
 30
0.0
 10
10.4759723295
 20
9.832287042
 30
0.0
 10
10.4762905258
 20
9.8354533738
 30
0.0
 10
10.4764895524
 20
9.837432334
 30
0.0
 10
10.4766484215
 20
9.8390154956
 30
0.0
 10
10.4767685374
 20
9.840202885
 30
0.0
 10
10.4768655671
 20
9.8411923181
 30
0.0
 10
10.4769395065
 20
9.8418850352
 30
0.0
 10
10.4769723602
 20
9.8422806956
 30
0.0
 10
10.4770234729
 20
9.8425779421
 30
0.0
 10
10.4769733945
 20
9.842873273
 30
0.0
 10
10.47694192
 20
9.8432677156
 30
0.0
 10
10.4768703942
 20
9.8439576789
 30
0.0
 10
10.4767768123
 20
9.8449435035
 30
0.0
 10
10.4766608339
 20
9.8461264234
 30
0.0
 10
10.4765074814
 20
9.8477036743
 30
0.0
 10
10.4763153507
 20
9.8496752295
 30
0.0
 10
10.4760081876
 20
9.8528297226
 30
0.0
 10
10.4756241487
 20
9.8567728372
 30
0.0
 10
10.4751633409
 20
9.8615045758
 30
0.0
 10
10.474702514
 20
9.866236313
 30
0.0
 10
10.4743185228
 20
9.8701794311
 30
0.0
 10
10.4740112643
 20
9.8733339172
 30
0.0
 10
10.473819376
 20
9.8753054901
 30
0.0
 10
10.473665526
 20
9.8768827047
 30
0.0
 10
10.4735510675
 20
9.8780657352
 30
0.0
 10
10.4734527302
 20
9.8790512138
 30
0.0
 10
10.4733896937
 20
9.8797417949
 30
0.0
 10
10.4733446171
 20
9.8801352476
 30
0.0
 10
10.4733363199
 20
9.8804336192
 30
0.0
 10
10.4732305098
 20
9.8807194452
 30
0.0
 10
10.4731234432
 20
9.8811049226
 30
0.0
 10
10.4729202292
 20
9.8817774692
 30
0.0
 10
10.4726382087
 20
9.882739316
 30
0.0
 10
10.4722962378
 20
9.8838930759
 30
0.0
 10
10.4718415153
 20
9.8854315817
 30
0.0
 10
10.471272688
 20
9.8873546595
 30
0.0
 10
10.4703628014
 20
9.8904316144
 30
0.0
 10
10.4692253612
 20
9.8942777974
 30
0.0
 10
10.4678604704
 20
9.8988932224
 30
0.0
 10
10.4664955614
 20
9.9035086431
 30
0.0
 10
10.4653581667
 20
9.9073548367
 30
0.0
 10
10.4644481892
 20
9.9104317704
 30
0.0
 10
10.463879593
 20
9.9123549019
 30
0.0
 10
10.4634243962
 20
9.9138932975
 30
0.0
 10
10.4630838741
 20
9.9150473943
 30
0.0
 10
10.4627973204
 20
9.9160081868
 30
0.0
 10
10.462602199
 20
9.9166826155
 30
0.0
 10
10.4624821661
 20
9.9170650773
 30
0.0
 10
10.4624161846
 20
9.9173601662
 30
0.0
 10
10.4622582977
 20
9.9176237481
 30
0.0
 10
10.4620798394
 20
9.9179861806
 30
0.0
 10
10.4617526013
 20
9.9186153169
 30
0.0
 10
10.4612929271
 20
9.9195167603
 30
0.0
 10
10.4607379755
 20
9.9205973464
 30
0.0
 10
10.4599992076
 20
9.9220385281
 30
0.0
 10
10.459075348
 20
9.9238398682
 30
0.0
 10
10.457597396
 20
9.9267220889
 30
0.0
 10
10.455749879
 20
9.9303248384
 30
0.0
 10
10.4535328937
 20
9.9346481501
 30
0.0
 10
10.451315891
 20
9.9389714547
 30
0.0
 10
10.4494684173
 20
9.9425742219
 30
0.0
 10
10.4479903785
 20
9.9454564072
 30
0.0
 10
10.4470667398
 20
9.9472578374
 30
0.0
 10
10.4463275184
 20
9.9486988342
 30
0.0
 10
10.4457739524
 20
9.9497799854
 30
0.0
 10
10.4453099432
 20
9.9506796606
 30
0.0
 10
10.4449904437
 20
9.9513119533
 30
0.0
 10
10.4447995862
 20
9.9516693287
 30
0.0
 10
10.4446797858
 20
9.9519484444
 30
0.0
 10
10.4444707576
 20
9.9521851906
 30
0.0
 10
10.4442231771
 20
9.9525156311
 30
0.0
 10
10.44377541
 20
9.9530870162
 30
0.0
 10
10.4431433242
 20
9.9539068807
 30
0.0
 10
10.442381576
 20
9.9548891771
 30
0.0
 10
10.4413670453
 20
9.9561994439
 30
0.0
 10
10.4400984938
 20
9.9578370931
 30
0.0
 10
10.4380690284
 20
9.9604574349
 30
0.0
 10
10.4355321218
 20
9.9637328264
 30
0.0
 10
10.4324878675
 20
9.9676633132
 30
0.0
 10
10.4294435983
 20
9.9715937889
 30
0.0
 10
10.4269067288
 20
9.9748692082
 30
0.0
 10
10.4248771892
 20
9.9774894944
 30
0.0
 10
10.4236088261
 20
9.9791272848
 30
0.0
 10
10.4225939087
 20
9.9804372618
 30
0.0
 10
10.4218333421
 20
9.9814204434
 30
0.0
 10
10.4211975595
 20
9.9822375385
 30
0.0
 10
10.4207563917
 20
9.9828138674
 30
0.0
 10
10.4204982375
 20
9.9831363868
 30
0.0
 10
10.4203216882
 20
9.9833974642
 30
0.0
 10
10.4200799027
 20
9.983585196
 30
0.0
 10
10.4197802772
 20
9.9838610888
 30
0.0
 10
10.4192453306
 20
9.9843319814
 30
0.0
 10
10.418486664
 20
9.9850109169
 30
0.0
 10
10.4175738916
 20
9.9858229721
 30
0.0
 10
10.4163576903
 20
9.9869066441
 30
0.0
 10
10.414837155
 20
9.988260915
 30
0.0
 10
10.4124044572
 20
9.9904279268
 30
0.0
 10
10.4093635301
 20
9.9931366299
 30
0.0
 10
10.4057144424
 20
9.996387102
 30
0.0
 10
10.4020653431
 20
9.9996375594
 30
0.0
 10
10.399024445
 20
10.0023462991
 30
0.0
 10
10.3965916893
 20
10.0045132379
 30
0.0
 10
10.395071301
 20
10.0058676943
 30
0.0
 10
10.393854798
 20
10.0069509854
 30
0.0
 10
10.3929429475
 20
10.0077642042
 30
0.0
 10
10.3921813962
 20
10.0084394992
 30
0.0
 10
10.3916515993
 20
10.0089168907
 30
0.0
 10
10.3913437227
 20
10.0091823707
 30
0.0
 10
10.391127282
 20
10.0094020875
 30
0.0
 10
10.3908555421
 20
10.0095430345
 30
0.0
 10
10.3905125113
 20
10.0097584396
 30
0.0
 10
10.3899032203
 20
10.0101225971
 30
0.0
 10
10.389037503
 20
10.0106495149
 30
0.0
 10
10.3879966312
 20
10.0112789515
 30
0.0
 10
10.3866095046
 20
10.0121192009
 30
0.0
 10
10.3848753558
 20
10.01316917
 30
0.0
 10
10.3821008521
 20
10.0148493122
 30
0.0
 10
10.3786326762
 20
10.0169494236
 30
0.0
 10
10.3744708859
 20
10.0194695879
 30
0.0
 10
10.3703090867
 20
10.0219897361
 30
0.0
 10
10.3668409332
 20
10.0240898879
 30
0.0
 10
10.3640663847
 20
10.0257699495
 30
0.0
 10
10.3623323499
 20
10.0268201234
 30
0.0
 10
10.3609449892
 20
10.0276599524
 30
0.0
 10
10.3599048326
 20
10.0282906733
 30
0.0
 10
10.3590368777
 20
10.0288135729
 30
0.0
 10
10.3584315813
 20
10.0291849034
 30
0.0
 10
10.35808215
 20
10.0293888156
 30
0.0
 10
10.3578300703
 20
10.0295650652
 30
0.0
 10
10.3575397894
 20
10.0296521914
 30
0.0
 10
10.3571660731
 20
10.0297994469
 30
0.0
 10
10.3565058613
 20
10.03004266
 30
0.0
 10
10.3555659474
 20
10.0303976796
 30
0.0
 10
10.3544366613
 20
10.0308204619
 30
0.0
 10
10.3529314319
 20
10.0313853038
 30
0.0
 10
10.3510497289
 20
10.0320909684
 30
0.0
 10
10.3480390971
 20
10.0332202487
 30
0.0
 10
10.3442757752
 20
10.034631774
 30
0.0
 10
10.3397598034
 20
10.0363256389
 30
0.0
 10
10.3352438252
 20
10.038019486
 30
0.0
 10
10.3314805194
 20
10.0394310556
 30
0.0
 10
10.3284698554
 20
10.0405602473
 30
0.0
 10
10.3265882342
 20
10.0412661371
 30
0.0
 10
10.3250828371
 20
10.0418305168
 30
0.0
 10
10.3239540632
 20
10.0422547109
 30
0.0
 10
10.3230125468
 20
10.0426053136
 30
0.0
 10
10.3223551957
 20
10.0428564116
 30
0.0
 10
10.3219768958
 20
10.0429910334
 30
0.0
 10
10.3217006943
 20
10.0431169662
 30
0.0
 10
10.3213957344
 20
10.0431474645
 30
0.0
 10
10.3209991525
 20
10.0432214176
 30
0.0
 10
10.3203004604
 20
10.0433353256
 30
0.0
 10
10.3193047723
 20
10.0435061601
 30
0.0
 10
10.3181089006
 20
10.0437076907
 30
0.0
 10
10.3165147704
 20
10.0439776104
 30
0.0
 10
10.3145219826
 20
10.0443145949
 30
0.0
 10
10.3113335919
 20
10.0448540022
 30
0.0
 10
10.3073480796
 20
10.0455281817
 30
0.0
 10
10.3025654751
 20
10.0463372312
 30
0.0
 10
10.2977828679
 20
10.0471462716
 30
0.0
 10
10.2914060592
 20
10.0482249953
 30
0.0
 10
10.2866234525
 20
10.0490340373
 30
0.0
 10
10.283435048
 20
10.0495733988
 30
0.0
  0
SPLINE
  5
392
100
AcDbEntity
  8
0
100
AcDbSpline
 62
4
  6
CONTINUOUS
 70
0
 71
3
 72
313
 73
309
 74
0
 42
0.0000001
 43
0.0000001
 44
0.0000000001
 40
0.0
 40
0.0
 40
0.0
 40
0.0
 40
0.015625
 40
0.0234375
 40
0.03125
 40
0.0390625
 40
0.046875
 40
0.05078125
 40
0.0546875
 40
0.056640625
 40
0.05859375
 40
0.060546875
 40
0.0615234375
 40
0.0620117188
 40
0.0625
 40
0.0629882812
 40
0.0634765625
 40
0.064453125
 40
0.06640625
 40
0.068359375
 40
0.0703125
 40
0.07421875
 40
0.078125
 40
0.0859375
 40
0.09375
 40
0.1015625
 40
0.109375
 40
0.11328125
 40
0.1171875
 40
0.119140625
 40
0.12109375
 40
0.123046875
 40
0.1240234375
 40
0.1245117188
 40
0.125
 40
0.1254882812
 40
0.1259765625
 40
0.126953125
 40
0.12890625
 40
0.130859375
 40
0.1328125
 40
0.13671875
 40
0.140625
 40
0.1484375
 40
0.15625
 40
0.1640625
 40
0.171875
 40
0.17578125
 40
0.1796875
 40
0.181640625
 40
0.18359375
 40
0.185546875
 40
0.1865234375
 40
0.1870117188
 40
0.1875
 40
0.1879882812
 40
0.1884765625
 40
0.189453125
 40
0.19140625
 40
0.193359375
 40
0.1953125
 40
0.19921875
 40
0.203125
 40
0.2109375
 40
0.21875
 40
0.2265625
 40
0.234375
 40
0.23828125
 40
0.2421875
 40
0.244140625
 40
0.24609375
 40
0.248046875
 40
0.2490234375
 40
0.2495117188
 40
0.25
 40
0.2504882812
 40
0.2509765625
 40
0.251953125
 40
0.25390625
 40
0.255859375
 40
0.2578125
 40
0.26171875
 40
0.265625
 40
0.2734375
 40
0.28125
 40
0.2890625
 40
0.296875
 40
0.30078125
 40
0.3046875
 40
0.306640625
 40
0.30859375
 40
0.310546875
 40
0.3115234375
 40
0.3120117188
 40
0.3125
 40
0.3129882812
 40
0.3134765625
 40
0.314453125
 40
0.31640625
 40
0.318359375
 40
0.3203125
 40
0.32421875
 40
0.328125
 40
0.3359375
 40
0.34375
 40
0.3515625
 40
0.359375
 40
0.36328125
 40
0.3671875
 40
0.369140625
 40
0.37109375
 40
0.373046875
 40
0.3740234375
 40
0.3745117188
 40
0.375
 40
0.3754882812
 40
0.3759765625
 40
0.376953125
 40
0.37890625
 40
0.380859375
 40
0.3828125
 40
0.38671875
 40
0.390625
 40
0.3984375
 40
0.40625
 40
0.4140625
 40
0.421875
 40
0.42578125
 40
0.4296875
 40
0.431640625
 40
0.43359375
 40
0.435546875
 40
0.4365234375
 40
0.4370117188
 40
0.4375
 40
0.4379882812
 40
0.4384765625
 40
0.439453125
 40
0.44140625
 40
0.443359375
 40
0.4453125
 40
0.44921875
 40
0.453125
 40
0.4609375
 40
0.46875
 40
0.4765625
 40
0.484375
 40
0.48828125
 40
0.4921875
 40
0.494140625
 40
0.49609375
 40
0.498046875
 40
0.4990234375
 40
0.4995117188
 40
0.5
 40
0.5004882812
 40
0.5009765625
 40
0.501953125
 40
0.50390625
 40
0.505859375
 40
0.5078125
 40
0.51171875
 40
0.515625
 40
0.5234375
 40
0.53125
 40
0.5390625
 40
0.546875
 40
0.55078125
 40
0.5546875
 40
0.556640625
 40
0.55859375
 40
0.560546875
 40
0.5615234375
 40
0.5620117188
 40
0.5625
 40
0.5629882812
 40
0.5634765625
 40
0.564453125
 40
0.56640625
 40
0.568359375
 40
0.5703125
 40
0.57421875
 40
0.578125
 40
0.5859375
 40
0.59375
 40
0.6015625
 40
0.609375
 40
0.61328125
 40
0.6171875
 40
0.619140625
 40
0.62109375
 40
0.623046875
 40
0.6240234375
 40
0.6245117188
 40
0.625
 40
0.6254882812
 40
0.6259765625
 40
0.626953125
 40
0.62890625
 40
0.630859375
 40
0.6328125
 40
0.63671875
 40
0.640625
 40
0.6484375
 40
0.65625
 40
0.6640625
 40
0.671875
 40
0.67578125
 40
0.6796875
 40
0.681640625
 40
0.68359375
 40
0.685546875
 40
0.6865234375
 40
0.6870117188
 40
0.6875
 40
0.6879882812
 40
0.6884765625
 40
0.689453125
 40
0.69140625
 40
0.693359375
 40
0.6953125
 40
0.69921875
 40
0.703125
 40
0.7109375
 40
0.71875
 40
0.7265625
 40
0.734375
 40
0.73828125
 40
0.7421875
 40
0.744140625
 40
0.74609375
 40
0.748046875
 40
0.7490234375
 40
0.7495117188
 40
0.75
 40
0.7504882812
 40
0.7509765625
 40
0.751953125
 40
0.75390625
 40
0.755859375
 40
0.7578125
 40
0.76171875
 40
0.765625
 40
0.7734375
 40
0.78125
 40
0.7890625
 40
0.796875
 40
0.80078125
 40
0.8046875
 40
0.806640625
 40
0.80859375
 40
0.810546875
 40
0.8115234375
 40
0.8120117188
 40
0.8125
 40
0.8129882812
 40
0.8134765625
 40
0.814453125
 40
0.81640625
 40
0.818359375
 40
0.8203125
 40
0.82421875
 40
0.828125
 40
0.8359375
 40
0.84375
 40
0.8515625
 40
0.859375
 40
0.86328125
 40
0.8671875
 40
0.869140625
 40
0.87109375
 40
0.873046875
 40
0.8740234375
 40
0.8745117188
 40
0.875
 40
0.8754882812
 40
0.8759765625
 40
0.876953125
 40
0.87890625
 40
0.880859375
 40
0.8828125
 40
0.88671875
 40
0.890625
 40
0.8984375
 40
0.90625
 40
0.9140625
 40
0.921875
 40
0.92578125
 40
0.9296875
 40
0.931640625
 40
0.93359375
 40
0.935546875
 40
0.9365234375
 40
0.9370117188
 40
0.9375
 40
0.9379882812
 40
0.9384765625
 40
0.939453125
 40
0.94140625
 40
0.943359375
 40
0.9453125
 40
0.94921875
 40
0.953125
 40
0.9609375
 40
0.96875
 40
0.9765625
 40
0.984375
 40
1.0
 40
1.0
 40
1.0
 40
1.0
 10
10.283435065
 20
10.0495733977
 30
0.0
 10
10.280301878
 20
10.0494834732
 30
0.0
 10
10.2756020976
 20
10.0493485869
 30
0.0
 10
10.2693357239
 20
10.0491687374
 30
0.0
 10
10.2646359431
 20
10.0490338528
 30
0.0
 10
10.2599361642
 20
10.0488989587
 30
0.0
 10
10.256019676
 20
10.0487865764
 30
0.0
 10
10.2528864984
 20
10.0486966046
 30
0.0
 10
10.250928233
 20
10.0486405224
 30
0.0
 10
10.2493616879
 20
10.0485953127
 30
0.0
 10
10.2481865951
 20
10.0485623472
 30
0.0
 10
10.2472079363
 20
10.04853188
 30
0.0
 10
10.2465217267
 20
10.0485164324
 30
0.0
 10
10.2461314001
 20
10.048498425
 30
0.0
 10
10.2458336039
 20
10.04851078
 30
0.0
 10
10.2455551159
 20
10.0484242831
 30
0.0
 10
10.2451770635
 20
10.0483434346
 30
0.0
 10
10.2445186099
 20
10.0481858845
 30
0.0
 10
10.2435763213
 20
10.047969212
 30
0.0
 10
10.2424462772
 20
10.0477056099
 30
0.0
 10
10.2409393065
 20
10.0473553961
 30
0.0
 10
10.239055677
 20
10.0469171989
 30
0.0
 10
10.2360418229
 20
10.0462163238
 30
0.0
 10
10.2322745217
 20
10.0453401469
 30
0.0
 10
10.2277537522
 20
10.0442887725
 30
0.0
 10
10.2232329883
 20
10.0432373795
 30
0.0
 10
10.2194656733
 20
10.0423612491
 30
0.0
 10
10.2164518466
 20
10.0416602811
 30
0.0
 10
10.2145681474
 20
10.0412223199
 30
0.0
 10
10.2130613199
 20
10.0408716219
 30
0.0
 10
10.2119308383
 20
10.0406094991
 30
0.0
 10
10.2109899184
 20
10.0403881984
 30
0.0
 10
10.2103290214
 20
10.0402389103
 30
0.0
 10
10.2099548839
 20
10.0401448239
 30
0.0
 10
10.2096643709
 20
10.0400989896
 30
0.0
 10
10.2094117385
 20
10.0399586228
 30
0.0
 10
10.2090616822
 20
10.039804441
 30
0.0
 10
10.2084552398
 20
10.0395192598
 30
0.0
 10
10.207585675
 20
10.0391198901
 30
0.0
 10
10.2065435749
 20
10.0386372084
 30
0.0
 10
10.2051536269
 20
10.0379948338
 30
0.0
 10
10.2034163567
 20
10.0371914542
 30
0.0
 10
10.2006366323
 20
10.0359062768
 30
0.0
 10
10.1971620086
 20
10.0342997257
 30
0.0
 10
10.1929924453
 20
10.0323719006
 30
0.0
 10
10.1888228903
 20
10.0304440575
 30
0.0
 10
10.1853482459
 20
10.0288375513
 30
0.0
 10
10.1825685629
 20
10.0275522841
 30
0.0
 10
10.1808311873
 20
10.0267491328
 30
0.0
 10
10.1794414557
 20
10.0261062896
 30
0.0
 10
10.1783986944
 20
10.0256250394
 30
0.0
 10
10.1775311983
 20
10.0252211912
 30
0.0
 10
10.176921063
 20
10.0249440047
 30
0.0
 10
10.1765769237
 20
10.0247770134
 30
0.0
 10
10.1763061161
 20
10.0246759936
 30
0.0
 10
10.1760838661
 20
10.0244823785
 30
0.0
 10
10.1757705953
 20
10.0242565234
 30
0.0
 10
10.175230263
 20
10.0238462285
 30
0.0
 10
10.1744542338
 20
10.0232679604
 30
0.0
 10
10.1735247648
 20
10.0225706712
 30
0.0
 10
10.1722848559
 20
10.0216421285
 30
0.0
 10
10.1707351811
 20
10.0204810473
 30
0.0
 10
10.1682555832
 20
10.0186235425
 30
0.0
 10
10.1651561268
 20
10.0163015839
 30
0.0
 10
10.1614367597
 20
10.0135152686
 30
0.0
 10
10.1577174048
 20
10.0107289376
 30
0.0
 10
10.154617918
 20
10.0084070182
 30
0.0
 10
10.1521383809
 20
10.0065494351
 30
0.0
 10
10.1505885518
 20
10.0053885531
 30
0.0
 10
10.1493489595
 20
10.0044596016
 30
0.0
 10
10.1484185234
 20
10.003763561
 30
0.0
 10
10.1476455199
 20
10.0031813864
 30
0.0
 10
10.1470997861
 20
10.0027780653
 30
0.0
 10
10.1467951698
 20
10.0025410364
 30
0.0
 10
10.1465463362
 20
10.0023817437
 30
0.0
 10
10.1463753722
 20
10.0021518147
 30
0.0
 10
10.1461202585
 20
10.0018698814
 30
0.0
 10
10.1456864646
 20
10.0013650185
 30
0.0
 10
10.1450601428
 20
10.0006497874
 30
0.0
 10
10.1443113885
 20
9.9997889413
 30
0.0
 10
10.1433120604
 20
9.9986420437
 30
0.0
 10
10.142063239
 20
9.9972081144
 30
0.0
 10
10.1400649354
 20
9.9949139994
 30
0.0
 10
10.1375671213
 20
9.9920462963
 30
0.0
 10
10.1345697143
 20
9.9886050795
 30
0.0
 10
10.1315723227
 20
9.98516385
 30
0.0
 10
10.1290744701
 20
9.9822961786
 30
0.0
 10
10.1270762435
 20
9.9800020004
 30
0.0
 10
10.1258272263
 20
9.9785682317
 30
0.0
 10
10.1248283
 20
9.9774210045
 30
0.0
 10
10.1240783183
 20
9.9765611654
 30
0.0
 10
10.123455837
 20
9.9758427833
 30
0.0
 10
10.1230151871
 20
9.9753435456
 30
0.0
 10
10.1227710584
 20
9.9750525994
 30
0.0
 10
10.1225663518
 20
9.9748503551
 30
0.0
 10
10.12244425
 20
9.9745870831
 30
0.0
 10
10.1222526341
 20
9.9742573408
 30
0.0
 10
10.1219307311
 20
9.9736703738
 30
0.0
 10
10.121463851
 20
9.9728370348
 30
0.0
 10
10.1209065991
 20
9.9718348086
 30
0.0
 10
10.1201625473
 20
9.9704992821
 30
0.0
 10
10.1192328418
 20
9.9688296086
 30
0.0
 10
10.1177451121
 20
9.9661582794
 30
0.0
 10
10.1158855195
 20
9.9628190667
 30
0.0
 10
10.1136539763
 20
9.9588120344
 30
0.0
 10
10.1114224499
 20
9.954804992
 30
0.0
 10
10.1095628154
 20
9.9514658046
 30
0.0
 10
10.1080751694
 20
9.9487944247
 30
0.0
 10
10.1071452512
 20
9.94712488
 30
0.0
 10
10.106401636
 20
9.9457890892
 30
0.0
 10
10.1058430502
 20
9.9447876706
 30
0.0
 10
10.1053803434
 20
9.9439518045
 30
0.0
 10
10.1050509904
 20
9.9433693489
 30
0.0
 10
10.1048713113
 20
9.9430323784
 30
0.0
 10
10.1047125435
 20
9.9427913092
 30
0.0
 10
10.1046455484
 20
9.9425056744
 30
0.0
 10
10.1045242102
 20
9.942140373
 30
0.0
 10
10.104326783
 20
9.9414938528
 30
0.0
 10
10.1040369466
 20
9.9405740391
 30
0.0
 10
10.1036924805
 20
9.9394686419
 30
0.0
 10
10.1032320267
 20
9.937995345
 30
0.0
 10
10.1026568586
 20
9.9361535301
 30
0.0
 10
10.1017363664
 20
9.9332067346
 30
0.0
 10
10.1005858283
 20
9.9295232028
 30
0.0
 10
10.0992051472
 20
9.9251029816
 30
0.0
 10
10.0978244842
 20
9.9206827527
 30
0.0
 10
10.0966739007
 20
9.9169992401
 30
0.0
 10
10.0957534993
 20
9.9140524062
 30
0.0
 10
10.0951781004
 20
9.912210689
 30
0.0
 10
10.0947181202
 20
9.9107371916
 30
0.0
 10
10.0943722069
 20
9.9096324069
 30
0.0
 10
10.0940868986
 20
9.9087106767
 30
0.0
 10
10.0938813881
 20
9.9080675778
 30
0.0
 10
10.0937730014
 20
9.9076967946
 30
0.0
 10
10.0936662232
 20
9.9074279981
 30
0.0
 10
10.093656874
 20
9.9071236868
 30
0.0
 10
10.093610424
 20
9.9067303264
 30
0.0
 10
10.0935449704
 20
9.9060361738
 30
0.0
 10
10.0934431871
 20
9.9050475448
 30
0.0
 10
10.0933245905
 20
9.9038598984
 30
0.0
 10
10.0931652241
 20
9.9022768209
 30
0.0
 10
10.0929664399
 20
9.9002978197
 30
0.0
 10
10.0926481482
 20
9.8971315041
 30
0.0
 10
10.0922503655
 20
9.8931735799
 30
0.0
 10
10.0917729886
 20
9.8884240835
 30
0.0
 10
10.0912956309
 20
9.883674584
 30
0.0
 10
10.0908978004
 20
9.8797166679
 30
0.0
 10
10.0905796041
 20
9.8765503361
 30
0.0
 10
10.0903805776
 20
9.8745713758
 30
0.0
 10
10.0902217085
 20
9.8729882143
 30
0.0
 10
10.0901015926
 20
9.8718008249
 30
0.0
 10
10.0900045628
 20
9.8708113918
 30
0.0
 10
10.0899306235
 20
9.8701186747
 30
0.0
 10
10.0898977698
 20
9.8697230142
 30
0.0
 10
10.0898466571
 20
9.8694257677
 30
0.0
 10
10.0898967354
 20
9.8691304369
 30
0.0
 10
10.0899282099
 20
9.8687359943
 30
0.0
 10
10.0899997357
 20
9.8680460309
 30
0.0
 10
10.0900933176
 20
9.8670602063
 30
0.0
 10
10.090209296
 20
9.8658772864
 30
0.0
 10
10.0903626485
 20
9.8643000356
 30
0.0
 10
10.0905547792
 20
9.8623284803
 30
0.0
 10
10.0908619423
 20
9.8591739873
 30
0.0
 10
10.0912459812
 20
9.8552308726
 30
0.0
 10
10.091706789
 20
9.8504991341
 30
0.0
 10
10.092167616
 20
9.8457673969
 30
0.0
 10
10.0925516071
 20
9.8418242788
 30
0.0
 10
10.0928588656
 20
9.8386697927
 30
0.0
 10
10.0930507539
 20
9.8366982198
 30
0.0
 10
10.0932046039
 20
9.8351210051
 30
0.0
 10
10.0933190624
 20
9.8339379746
 30
0.0
 10
10.0934173998
 20
9.8329524961
 30
0.0
 10
10.0934804362
 20
9.8322619149
 30
0.0
 10
10.0935255128
 20
9.8318684622
 30
0.0
 10
10.0935338101
 20
9.8315700907
 30
0.0
 10
10.0936396201
 20
9.8312842646
 30
0.0
 10
10.0937466867
 20
9.8308987872
 30
0.0
 10
10.0939499007
 20
9.8302262406
 30
0.0
 10
10.0942319212
 20
9.8292643939
 30
0.0
 10
10.0945738921
 20
9.828110634
 30
0.0
 10
10.0950286146
 20
9.8265721281
 30
0.0
 10
10.095597442
 20
9.8246490504
 30
0.0
 10
10.0965073286
 20
9.8215720954
 30
0.0
 10
10.0976447687
 20
9.8177259124
 30
0.0
 10
10.0990096595
 20
9.8131104875
 30
0.0
 10
10.1003745685
 20
9.8084950668
 30
0.0
 10
10.1015119632
 20
9.8046488732
 30
0.0
 10
10.1024219407
 20
9.8015719394
 30
0.0
 10
10.102990537
 20
9.7996488079
 30
0.0
 10
10.1034457338
 20
9.7981104124
 30
0.0
 10
10.1037862558
 20
9.7969563155
 30
0.0
 10
10.1040728095
 20
9.795995523
 30
0.0
 10
10.1042679309
 20
9.7953210944
 30
0.0
 10
10.1043879639
 20
9.7949386325
 30
0.0
 10
10.1044539453
 20
9.7946435436
 30
0.0
 10
10.1046118322
 20
9.7943799618
 30
0.0
 10
10.1047902905
 20
9.7940175293
 30
0.0
 10
10.1051175286
 20
9.7933883929
 30
0.0
 10
10.1055772029
 20
9.7924869496
 30
0.0
 10
10.1061321544
 20
9.7914063635
 30
0.0
 10
10.1068709223
 20
9.7899651818
 30
0.0
 10
10.1077947819
 20
9.7881638417
 30
0.0
 10
10.1092727339
 20
9.7852816209
 30
0.0
 10
10.111120251
 20
9.7816788715
 30
0.0
 10
10.1133372363
 20
9.7773555598
 30
0.0
 10
10.115554239
 20
9.7730322551
 30
0.0
 10
10.1174017126
 20
9.769429488
 30
0.0
 10
10.1188797515
 20
9.7665473026
 30
0.0
 10
10.1198033901
 20
9.7647458724
 30
0.0
 10
10.1205426116
 20
9.7633048757
 30
0.0
 10
10.1210961776
 20
9.7622237245
 30
0.0
 10
10.1215601868
 20
9.7613240492
 30
0.0
 10
10.1218796863
 20
9.7606917566
 30
0.0
 10
10.1220705438
 20
9.7603343812
 30
0.0
 10
10.1221903441
 20
9.7600552655
 30
0.0
 10
10.1223993723
 20
9.7598185193
 30
0.0
 10
10.1226469528
 20
9.7594880788
 30
0.0
 10
10.1230947199
 20
9.7589166936
 30
0.0
 10
10.1237268058
 20
9.7580968292
 30
0.0
 10
10.1244885539
 20
9.7571145327
 30
0.0
 10
10.1255030846
 20
9.7558042659
 30
0.0
 10
10.1267716361
 20
9.7541666167
 30
0.0
 10
10.1288011016
 20
9.7515462749
 30
0.0
 10
10.1313380082
 20
9.7482708835
 30
0.0
 10
10.1343822625
 20
9.7443403967
 30
0.0
 10
10.1374265316
 20
9.7404099209
 30
0.0
 10
10.1399634011
 20
9.7371345017
 30
0.0
 10
10.1419929407
 20
9.7345142155
 30
0.0
 10
10.1432613038
 20
9.7328764251
 30
0.0
 10
10.1442762213
 20
9.731566448
 30
0.0
 10
10.1450367878
 20
9.7305832665
 30
0.0
 10
10.1456725704
 20
9.7297661713
 30
0.0
 10
10.1461137382
 20
9.7291898425
 30
0.0
 10
10.1463718924
 20
9.7288673231
 30
0.0
 10
10.1465484418
 20
9.7286062457
 30
0.0
 10
10.1467902272
 20
9.7284185139
 30
0.0
 10
10.1470898527
 20
9.728142621
 30
0.0
 10
10.1476247993
 20
9.7276717285
 30
0.0
 10
10.1483834659
 20
9.7269927929
 30
0.0
 10
10.1492962383
 20
9.7261807377
 30
0.0
 10
10.1505124396
 20
9.7250970658
 30
0.0
 10
10.1520329749
 20
9.7237427949
 30
0.0
 10
10.1544656728
 20
9.7215757831
 30
0.0
 10
10.1575065998
 20
9.7188670799
 30
0.0
 10
10.1611556875
 20
9.7156166079
 30
0.0
 10
10.1648047868
 20
9.7123661504
 30
0.0
 10
10.1678456849
 20
9.7096574108
 30
0.0
 10
10.1702784406
 20
9.707490472
 30
0.0
 10
10.1717988289
 20
9.7061360155
 30
0.0
 10
10.1730153319
 20
9.7050527244
 30
0.0
 10
10.1739271824
 20
9.7042395057
 30
0.0
 10
10.1746887337
 20
9.7035642106
 30
0.0
 10
10.1752185306
 20
9.7030868192
 30
0.0
 10
10.1755264072
 20
9.7028213392
 30
0.0
 10
10.1757428479
 20
9.7026016224
 30
0.0
 10
10.1760145878
 20
9.7024606754
 30
0.0
 10
10.1763576186
 20
9.7022452702
 30
0.0
 10
10.1769669097
 20
9.7018811127
 30
0.0
 10
10.1778326269
 20
9.701354195
 30
0.0
 10
10.1788734987
 20
9.7007247584
 30
0.0
 10
10.1802606253
 20
9.699884509
 30
0.0
 10
10.1819947741
 20
9.6988345398
 30
0.0
 10
10.1847692778
 20
9.6971543977
 30
0.0
 10
10.1882374537
 20
9.6950542862
 30
0.0
 10
10.192399244
 20
9.6925341219
 30
0.0
 10
10.1965610432
 20
9.6900139737
 30
0.0
 10
10.2000291967
 20
9.687913822
 30
0.0
 10
10.2028037452
 20
9.6862337604
 30
0.0
 10
10.20453778
 20
9.6851835865
 30
0.0
 10
10.2059251407
 20
9.6843437574
 30
0.0
 10
10.2069652973
 20
9.6837130366
 30
0.0
 10
10.2078332522
 20
9.6831901369
 30
0.0
 10
10.2084385486
 20
9.6828188064
 30
0.0
 10
10.2087879799
 20
9.6826148942
 30
0.0
 10
10.2090400596
 20
9.6824386446
 30
0.0
 10
10.2093303406
 20
9.6823515184
 30
0.0
 10
10.2097040568
 20
9.6822042629
 30
0.0
 10
10.2103642686
 20
9.6819610499
 30
0.0
 10
10.2113041826
 20
9.6816060303
 30
0.0
 10
10.2124334686
 20
9.6811832479
 30
0.0
 10
10.213938698
 20
9.6806184061
 30
0.0
 10
10.215820401
 20
9.6799127414
 30
0.0
 10
10.2188310329
 20
9.6787834612
 30
0.0
 10
10.2225943547
 20
9.6773719358
 30
0.0
 10
10.2271103265
 20
9.675678071
 30
0.0
 10
10.2316263047
 20
9.6739842239
 30
0.0
 10
10.2353896105
 20
9.6725726542
 30
0.0
 10
10.2384002745
 20
9.6714434626
 30
0.0
 10
10.2402818958
 20
9.6707375728
 30
0.0
 10
10.2417872929
 20
9.670173193
 30
0.0
 10
10.2429160667
 20
9.669748999
 30
0.0
 10
10.2438575831
 20
9.6693983963
 30
0.0
 10
10.2445149342
 20
9.6691472983
 30
0.0
 10
10.2448932341
 20
9.6690126765
 30
0.0
 10
10.2451694356
 20
9.6688867436
 30
0.0
 10
10.2454743955
 20
9.6688562453
 30
0.0
 10
10.2458709774
 20
9.6687822923
 30
0.0
 10
10.2465696695
 20
9.6686683842
 30
0.0
 10
10.2475653577
 20
9.6684975498
 30
0.0
 10
10.2487612293
 20
9.6682960192
 30
0.0
 10
10.2503553595
 20
9.6680260995
 30
0.0
 10
10.2523481474
 20
9.6676891149
 30
0.0
 10
10.255536538
 20
9.6671497077
 30
0.0
 10
10.2595220503
 20
9.6664755282
 30
0.0
 10
10.2643046548
 20
9.6656664787
 30
0.0
 10
10.269087262
 20
9.6648574383
 30
0.0
 10
10.2754640707
 20
9.6637787146
 30
0.0
 10
10.2802466774
 20
9.6629696726
 30
0.0
 10
10.2834350819
 20
9.662430311
 30
0.0
  0
ENDSEC
  0
SECTION
  2
OBJECTS
  0
DICTIONARY
  5
C
100
AcDbDictionary
280
0
281
1
  3
ACAD_GROUP
350
D
  3
ACAD_MLINESTYLE
350
17
  3
ACAD_LAYOUT
350
1A
  3
ACAD_PLOTSETTINGS
350
19
  3
ACAD_PLOTSTYLENAME
350
E
  3
ACAD_IMAGE_DICT
350
       394
  3
ACAD_IMAGE_VARS
350
       395
  3
ACAD_TABLESTYLE
350
       396
  0
IMAGEDEF_REACTOR
  5
393
100
AcDbRasterImageDefReactor
 90
2
330
28B
  0
DICTIONARY
  5
D
102
{ACAD_REACTORS
330
C
102
}
100
AcDbDictionary
280
0
281
1
  0
ACDBDICTIONARYWDFLT
  5
E
102
{ACAD_REACTORS
330
C
102
}
100
AcDbDictionary
281
1
  3
Normal
350
F
100
AcDbDictionaryWithDefault
340
F
  0
DICTIONARY
  5
394
330
C
100
AcDbDictionary
281
1
  3
INX_assy_2_img_1
350
       399
  0
RASTERVARIABLES
  5
395
330
C
100
AcDbRasterVariables
 90
0
 70
0
 71
1
 72
5
  0
DICTIONARY
  5
17
102
{ACAD_REACTORS
330
C
102
}
100
AcDbDictionary
280
0
281
1
  3
Standard
350
18
  0
DICTIONARY
  5
396
330
C
100
AcDbDictionary
281
1
  3
Standard
350
       39A
  3
Standard1
350
       39B
  0
DICTIONARY
  5
19
102
{ACAD_REACTORS
330
C
102
}
100
AcDbDictionary
281
1
  0
DICTIONARY
  5
1A
102
{ACAD_REACTORS
330
C
102
}
100
AcDbDictionary
281
1
  3
Model
350
397
  3
Layout1
350
398
  0
ACDBPLACEHOLDER
  5
F
102
{ACAD_REACTORS
330
E
102
}
  0
MLINESTYLE
  5
18
102
{ACAD_REACTORS
330
17
102
}
100
AcDbMlineStyle
  2
STANDARD
 70
0
  3

 62
256
 51
90.0
 52
90.0
 71
2
 49
0.5
 62
256
  6
BYLAYER
 49
-0.5
 62
256
  6
BYLAYER
  0
LAYOUT
  5
397
102
{ACAD_REACTORS
330
1A
102
}
100
AcDbPlotSettings
  1

  2
none_device
  4
ANSI_C_(22.00_x_17.00_Inches)
  6

 40
0.0
 41
0.0
 42
0.0
 43
0.0
 44
558.8
 45
431.8
 46
0.0
 47
0.0
 48
0.0
 49
0.0
140
0.0
141
0.0
142
1.0
143
1.0
 70
1024
 72
0
 73
0
 74
0
  7

 75
0
147
1.0
148
0.0
149
0.0
100
AcDbLayout
  1
Model
 70
0
 71
0
 10
0.0
 20
0.0
 11
22.0
 21
17.0
 12
0.0
 22
0.0
 32
0.0
 14
0.0
 24
0.0
 34
0.0
 15
0.0
 25
0.0
 35
0.0
146
0.0
 13
0.0
 23
0.0
 33
0.0
 16
1.0
 26
0.0
 36
0.0
 17
0.0
 27
1.0
 37
0.0
 76
0
330
20C
345
0
346
0
  0
LAYOUT
  5
398
102
{ACAD_REACTORS
330
1A
102
}
100
AcDbPlotSettings
  1

  2
none_device
  4
ANSI_C_(22.00_x_17.00_Inches)
  6

 40
0.0
 41
0.0
 42
0.0
 43
0.0
 44
558.8
 45
431.8
 46
0.0
 47
0.0
 48
0.0
 49
0.0
140
0.0
141
0.0
142
1.0
143
1.0
 70
0
 72
0
 73
0
 74
0
  7

 75
0
147
1.0
148
0.0
149
0.0
100
AcDbLayout
  1
Layout1
 70
0
 71
1
 10
0.0
 20
0.0
 11
22.0
 21
17.0
 12
0.0
 22
0.0
 32
0.0
 14
0.0
 24
0.0
 34
0.0
 15
0.0
 25
0.0
 35
0.0
146
0.0
 13
0.0
 23
0.0
 33
0.0
 16
1.0
 26
0.0
 36
0.0
 17
0.0
 27
1.0
 37
0.0
 76
0
330
20D
345
0
346
0
  0
IMAGEDEF
  5
399
102
{ACAD_REACTORS
330
394
330
393
102
}
100
AcDbRasterImageDef
 90
0
  1
INX_assy_2_img_1.png
 10
369.0
 20
92.0
 11
0.0066666667
 21
0.0066666667
280
1
281
0
  0
TABLESTYLE
  5
39A
102
{ACAD_REACTORS
330
396
330
28E
330
28F
102
}
330
396
100
AcDbTableStyle
  3
Standard
 70
0
 71
0
 40
0.06
 41
0.06
280
1
281
1
  7
Standard
140
0.18
170
1
 62
0
 63
7
283
0
  7
Standard
140
0.18
170
1
 62
0
 63
7
283
0
  7
Standard
140
0.18
170
1
 62
0
 63
7
283
0
  0
TABLESTYLE
  5
39B
102
{ACAD_REACTORS
330
396
330
28D
102
}
330
396
100
AcDbTableStyle
  3
Standard1
 70
1
 71
0
 40
0.06
 41
0.06
280
1
281
1
  7
Standard
140
0.18
170
1
 62
0
 63
7
283
0
  7
Standard
140
0.18
170
1
 62
0
 63
7
283
0
  7
Standard
140
0.18
170
1
 62
0
 63
7
283
0
  0
ENDSEC
  0
EOF
