999
DXF file: INQ_assy_2.dxf
999
Pro/ENGINEER 2014200 by Parametric Technology Corporation
  0
SECTION
  2
HEADER
  9
$ACADVER
  1
AC1021
  9
$DWGCODEPAGE
  3
ANSI_1252
  9
$EXTMAX
 10
22.0
 20
17.0
 30
0.0
  9
$EXTMIN
 10
0.0
 20
0.0
 30
0.0
  9
$LIMMIN
 10
0.0
 20
0.0
  9
$LIMMAX
 10
22.0
 20
17.0
  9
$VIEWCTR
 10
11.0
 20
8.5
  9
$VIEWSIZE
 40
17.0
  9
$CLAYER
  8
0
  9
$LTSCALE
 40
1.21
  9
$CELTYPE
  6
BYLAYER
  9
$DIMSCALE
 40
1.0
  9
$DIMASZ
 40
0.1875
  9
$DIMEXO
 40
0.0625
  9
$DIMDLI
 40
0.836
  9
$DIMEXE
 40
0.125
  9
$DIMCEN
 40
0.198
  9
$DIMLFAC
 40
1.0
  9
$DIMBLK
  1
_FILLED
  9
$DIMTXT
 40
0.1
  9
$DIMTOL
 70
0
  9
$DIMLIM
 70
0
  9
$DIMTFAC
 40
1.0
  9
$DIMGAP
 40
0.09
  9
$DIMDSEP
 70
46
  9
$AUNITS
 70
0
  9
$PDMODE
 70
3
  9
$PDSIZE
 40
0.3125
  9
$HANDSEED
  5
318
  9
$TILEMODE
 70
1
  9
$MEASUREMENT
 70
0
  9
$INSUNITS
 70
1
  0
ENDSEC
  0
SECTION
  2
CLASSES
  0
CLASS
  1
ACDBDICTIONARYWDFLT
  2
AcDbDictionaryWithDefault
  3
AutoCAD 2000
 90
0
 91
1
280
0
281
0
  0
CLASS
  1
ACDBPLACEHOLDER
  2
AcDbPlaceHolder
  3
AutoCAD 2000
 90
0
 91
1
280
0
281
0
  0
CLASS
  1
LAYOUT
  2
AcDbLayout
  3
AutoCAD 2000
 90
0
 91
0
280
0
281
0
  0
CLASS
  1
RASTERVARIABLES
  2
AcDbRasterVariables
  3
ISM
 90
0
 91
1
280
0
281
0
  0
CLASS
  1
IMAGEDEF
  2
AcDbRasterImageDef
  3
ISM
 90
0
 91
1
280
0
281
0
  0
CLASS
  1
IMAGEDEF_REACTOR
  2
AcDbRasterImageDefReactor
  3
ISM
 90
0
 91
1
280
0
281
0
  0
CLASS
  1
IMAGE
  2
AcDbRasterImage
  3
ISM
 90
127
 91
1
280
0
281
1
  0
CLASS
  1
TABLESTYLE
  2
AcDbTableStyle
  3
ObjectDBX Classes
 90
2047
 91
1
280
0
281
0
  0
CLASS
  1
ACAD_TABLE
  2
AcDbTable
  3
ObjectDBX Classes
 90
1025
 91
3
280
0
281
1
  0
ENDSEC
  0
SECTION
  2
TABLES
  0
TABLE
  2
VPORT
  5
8
100
AcDbSymbolTable
 70
2
  0
VPORT
  5
1F4
100
AcDbSymbolTableRecord
100
AcDbViewportTableRecord
  2
*ACTIVE
 70
0
 10
0.0
 20
0.0
 11
1.0
 21
1.0
 12
11.0
 22
8.5
 13
0.0
 23
0.0
 14
1.0
 24
1.0
 15
0.0
 25
0.0
 16
0.0
 26
0.0
 36
1.0
 17
0.0
 27
0.0
 37
0.0
 40
17.0
 41
1.2941176471
 42
50.0
 43
0.0
 44
0.0
 50
0.0
 51
0.0
 71
0
 72
100
 73
1
 74
1
 75
0
 76
0
 77
0
 78
0
  0
ENDTAB
  0
TABLE
  2
LTYPE
  5
5
100
AcDbSymbolTable
 70
6
  0
LTYPE
  5
14
100
AcDbSymbolTableRecord
100
AcDbLinetypeTableRecord
  2
BYBLOCK
 70
0
  3

 72
65
 73
0
 40
0.0
  0
LTYPE
  5
15
100
AcDbSymbolTableRecord
100
AcDbLinetypeTableRecord
  2
BYLAYER
 70
0
  3

 72
65
 73
0
 40
0.0
  0
LTYPE
  5
16
100
AcDbSymbolTableRecord
100
AcDbLinetypeTableRecord
  2
CONTINUOUS
 70
64
  3
Solid line
 72
65
 73
0
 40
0.0
  0
LTYPE
  5
1F5
100
AcDbSymbolTableRecord
100
AcDbLinetypeTableRecord
  2
CENTER
 70
64
  3
____ _ ____ _ ____ _ ____ _ ____ _ ____ _ ____
 72
65
 73
4
 40
0.6
 49
0.375
 74
0
 49
-0.075
 74
0
 49
0.075
 74
0
 49
-0.075
 74
0
  0
LTYPE
  5
1F6
100
AcDbSymbolTableRecord
100
AcDbLinetypeTableRecord
  2
HIDDEN
 70
64
  3
- - - - - - - - - - - - - - - - - - - -
 72
65
 73
2
 40
0.2
 49
0.1
 74
0
 49
-0.1
 74
0
  0
LTYPE
  5
1F7
100
AcDbSymbolTableRecord
100
AcDbLinetypeTableRecord
  2
PHANTOM
 70
64
  3
_____ _ _ _____ _ _ _____ _ _ _____
 72
65
 73
6
 40
0.8
 49
0.45
 74
0
 49
-0.05
 74
0
 49
0.1
 74
0
 49
-0.05
 74
0
 49
0.1
 74
0
 49
-0.05
 74
0
  0
LTYPE
  5
1F8
100
AcDbSymbolTableRecord
100
AcDbLinetypeTableRecord
  2
DOT
 70
64
  3
. . . . . . . . . . . . . . . . . . . .
 72
65
 73
2
 40
0.2
 49
0.1
 74
0
 49
-0.1
 74
0
  0
LTYPE
  5
1F9
100
AcDbSymbolTableRecord
100
AcDbLinetypeTableRecord
  2
DASHED
 70
64
  3
- - - - - - - - - - - - - - - - - - - -
 72
65
 73
2
 40
0.2
 49
0.1
 74
0
 49
-0.1
 74
0
  0
ENDTAB
  0
TABLE
  2
LAYER
  5
2
100
AcDbSymbolTable
 70
36
  0
LAYER
  5
10
100
AcDbSymbolTableRecord
100
AcDbLayerTableRecord
  2
0
 70
0
 62
7
  6
CONTINUOUS
370
-3
390
F
  0
LAYER
  5
1FA
100
AcDbSymbolTableRecord
100
AcDbLayerTableRecord
  2
DEFAULT_1
 70
0
 62
7
  6
CENTER
370
-3
390
F
  0
LAYER
  5
1FB
100
AcDbSymbolTableRecord
100
AcDbLayerTableRecord
  2
DEFAULT_2
 70
0
 62
8
  6
HIDDEN
370
-3
390
F
  0
LAYER
  5
1FC
100
AcDbSymbolTableRecord
100
AcDbLayerTableRecord
  2
DEFAULT_3
 70
0
 62
7
  6
PHANTOM
370
-3
390
F
  0
LAYER
  5
1FD
100
AcDbSymbolTableRecord
100
AcDbLayerTableRecord
  2
01___PRT_ALL_DTM_PLN
 70
0
 62
7
  6
CONTINUOUS
370
-3
390
F
  0
LAYER
  5
1FE
100
AcDbSymbolTableRecord
100
AcDbLayerTableRecord
  2
01___PRT_DEF_DTM_PLN
 70
0
 62
7
  6
CONTINUOUS
370
-3
390
F
  0
LAYER
  5
1FF
100
AcDbSymbolTableRecord
100
AcDbLayerTableRecord
  2
02___PRT_ALL_AXES
 70
0
 62
7
  6
CONTINUOUS
370
-3
390
F
  0
LAYER
  5
200
100
AcDbSymbolTableRecord
100
AcDbLayerTableRecord
  2
03___PRT_ALL_CURVES
 70
0
 62
7
  6
CONTINUOUS
370
-3
390
F
  0
LAYER
  5
201
100
AcDbSymbolTableRecord
100
AcDbLayerTableRecord
  2
04___PRT_ALL_DTM_PNT
 70
0
 62
7
  6
CONTINUOUS
370
-3
390
F
  0
LAYER
  5
202
100
AcDbSymbolTableRecord
100
AcDbLayerTableRecord
  2
05___PRT_ALL_DTM_CSYS
 70
0
 62
7
  6
CONTINUOUS
370
-3
390
F
  0
LAYER
  5
203
100
AcDbSymbolTableRecord
100
AcDbLayerTableRecord
  2
05___PRT_DEF_DTM_CSYS
 70
0
 62
7
  6
CONTINUOUS
370
-3
390
F
  0
LAYER
  5
204
100
AcDbSymbolTableRecord
100
AcDbLayerTableRecord
  2
06___PRT_ALL_SURFS
 70
0
 62
7
  6
CONTINUOUS
370
-3
390
F
  0
LAYER
  5
205
100
AcDbSymbolTableRecord
100
AcDbLayerTableRecord
  2
DATUM_PLANES
 70
0
 62
7
  6
CONTINUOUS
370
-3
390
F
  0
LAYER
  5
206
100
AcDbSymbolTableRecord
100
AcDbLayerTableRecord
  2
PORT_AREAS
 70
0
 62
7
  6
CONTINUOUS
370
-3
390
F
  0
LAYER
  5
207
100
AcDbSymbolTableRecord
100
AcDbLayerTableRecord
  2
SUNNBOMCOSMETIC
 70
0
 62
7
  6
CONTINUOUS
370
-3
390
F
  0
LAYER
  5
208
100
AcDbSymbolTableRecord
100
AcDbLayerTableRecord
  2
SUNNBOMSTAMPING
 70
0
 62
7
  6
CONTINUOUS
370
-3
390
F
  0
LAYER
  5
209
100
AcDbSymbolTableRecord
100
AcDbLayerTableRecord
  2
THREADS
 70
0
 62
7
  6
CONTINUOUS
370
-3
390
F
  0
ENDTAB
  0
TABLE
  2
STYLE
  5
3
100
AcDbSymbolTable
 70
1
  0
STYLE
  5
11
100
AcDbSymbolTableRecord
100
AcDbTextStyleTableRecord
  2
STANDARD
 70
0
 40
0.0
 41
0.8
 50
0.0
 71
0
 42
0.2
  3
txt
  4

  0
STYLE
  5
20A
100
AcDbSymbolTableRecord
100
AcDbTextStyleTableRecord
  2
TEXTSTYLE_1
 70
0
 40
0.0
 41
0.8
 50
0.0
 71
0
 42
0.2
  3
gdt
  4

  0
ENDTAB
  0
TABLE
  2
VIEW
  5
6
100
AcDbSymbolTable
 70
0
  0
ENDTAB
  0
TABLE
  2
UCS
  5
7
100
AcDbSymbolTable
 70
0
  0
ENDTAB
  0
TABLE
  2
APPID
  5
9
100
AcDbSymbolTable
 70
1
  0
APPID
  5
20B
100
AcDbSymbolTableRecord
100
AcDbRegAppTableRecord
  2
ACAD
 70
0
  0
ENDTAB
  0
TABLE
  2
BLOCK_RECORD
  5
1
100
AcDbSymbolTable
 70
0
  0
BLOCK_RECORD
  5
20C
100
AcDbSymbolTableRecord
100
AcDbBlockTableRecord
  2
*Model_Space
  0
BLOCK_RECORD
  5
20D
100
AcDbSymbolTableRecord
100
AcDbBlockTableRecord
  2
*Paper_Space
  0
BLOCK_RECORD
  5
20E
100
AcDbSymbolTableRecord
100
AcDbBlockTableRecord
  2
SUN_FIRST_THIRD_ANGLE_BL0
  0
BLOCK_RECORD
  5
20F
100
AcDbSymbolTableRecord
100
AcDbBlockTableRecord
  2
*T1
  0
BLOCK_RECORD
  5
210
100
AcDbSymbolTableRecord
100
AcDbBlockTableRecord
  2
*T2
  0
BLOCK_RECORD
  5
211
100
AcDbSymbolTableRecord
100
AcDbBlockTableRecord
  2
*T3
  0
ENDTAB
  0
TABLE
  2
DIMSTYLE
  5
A
100
AcDbSymbolTable
 70
1
100
AcDbDimStyleTable
 71
0
  0
DIMSTYLE
105
212
100
AcDbSymbolTableRecord
100
AcDbDimStyleTableRecord
  2
STANDARD
 70
0
  3

  4

 40
1.0
 41
0.1875
 42
0.0625
 43
0.38
 44
0.125
 45
0.0
 46
0.0
 47
0.001
 48
0.001
140
0.1
141
0.09
142
0.0
143
25.4
144
1.0
145
0.0
146
1.0
147
0.09
 71
0.0
 72
0.0
 73
1
 74
1
 75
0
 76
0
 77
0
 78
4
170
0
171
2
172
0
173
0
174
0
175
0
176
0
177
0
178
0
270
2
271
3
272
3
273
2
274
2
275
0
280
0
281
0
282
0
283
1
284
4
285
0
286
0
287
3
288
0
340
11
278
46
  0
ENDTAB
  0
ENDSEC
  0
SECTION
  2
BLOCKS
  0
BLOCK
  5
20
100
AcDbEntity
  8
0
100
AcDbBlockBegin
  2
*Model_Space
 70
0
 10
0.0
 20
0.0
 30
0.0
  3
*Model_Space
  1

  0
ENDBLK
  5
21
100
AcDbEntity
  8
0
100
AcDbBlockEnd
  0
BLOCK
  5
1C
100
AcDbEntity
  8
0
100
AcDbBlockBegin
  2
*Paper_Space
 70
0
 10
0.0
 20
0.0
 30
0.0
  3
*Paper_Space
  1

  0
ENDBLK
  5
1D
100
AcDbEntity
  8
0
100
AcDbBlockEnd
  0
BLOCK
  5
213
100
AcDbEntity
  8
0
100
AcDbBlockBegin
 62
2
  6
CONTINUOUS
  2
SUN_FIRST_THIRD_ANGLE_BL0
 70
64
 10
20.4816717061
 20
1.2289683772
  3
SUN_FIRST_THIRD_ANGLE_BL0
  1

  0
TEXT
  5
214
100
AcDbEntity
  8
0
100
AcDbText
 62
2
  6
CONTINUOUS
 10
19.4750896608
 20
1.4136269581
  7
STANDARD
 40
0.08
  1
FIRST ANGLE
 41
0.8
 72
0
100
AcDbText
  0
TEXT
  5
215
100
AcDbEntity
  8
0
100
AcDbText
 62
2
  6
CONTINUOUS
 10
20.7842537513
 20
1.4047600029
  7
STANDARD
 40
0.08
  1
THIRD ANGLE
 41
0.8
 72
0
100
AcDbText
  0
LINE
  5
216
100
AcDbEntity
  8
0
100
AcDbLine
 62
7
  6
CONTINUOUS
 10
19.4767170086
 20
1.1727031207
 11
19.6334271527
 21
1.1717972817
  0
LINE
  5
217
100
AcDbEntity
  8
0
100
AcDbLine
 62
7
  6
CONTINUOUS
 10
19.6596964832
 20
1.1717972817
 11
19.6950230232
 21
1.171593082
  0
LINE
  5
218
100
AcDbEntity
  8
0
100
AcDbLine
 62
7
  6
CONTINUOUS
 10
19.7194818561
 20
1.1708914427
 11
19.8852396156
 21
1.1699333054
  0
LINE
  5
219
100
AcDbEntity
  8
0
100
AcDbLine
 62
7
  6
CONTINUOUS
 10
19.4758111696
 20
1.2723454088
 11
19.88525039
 21
1.3511534004
  0
LINE
  5
21A
100
AcDbEntity
  8
0
100
AcDbLine
 62
7
  6
CONTINUOUS
 10
19.88525039
 20
1.3511534004
 11
19.8831348489
 21
0.9851647912
  0
LINE
  5
21B
100
AcDbEntity
  8
0
100
AcDbLine
 62
7
  6
CONTINUOUS
 10
19.8831348489
 20
0.9851647912
 11
19.4767170086
 21
1.0658141206
  0
LINE
  5
21C
100
AcDbEntity
  8
0
100
AcDbLine
 62
7
  6
CONTINUOUS
 10
19.4767170086
 20
1.0658141206
 11
19.4779056764
 21
1.2714536432
  0
CIRCLE
  5
21D
100
AcDbEntity
  8
0
100
AcDbCircle
 62
7
  6
CONTINUOUS
 10
20.2068232291
 20
1.1717972817
 40
0.175742101
  0
CIRCLE
  5
21E
100
AcDbEntity
  8
0
100
AcDbCircle
 62
7
  6
CONTINUOUS
 10
20.2068232291
 20
1.1717972817
 40
0.1005522074
  0
LINE
  5
21F
100
AcDbEntity
  8
0
100
AcDbLine
 62
7
  6
CONTINUOUS
 10
20.2077290681
 20
1.3756110529
 11
20.2071171714
 21
1.2379342989
  0
LINE
  5
220
100
AcDbEntity
  8
0
100
AcDbLine
 62
7
  6
CONTINUOUS
 10
20.2077290681
 20
1.2016899681
 11
20.2074674401
 21
1.1428236749
  0
LINE
  5
221
100
AcDbEntity
  8
0
100
AcDbLine
 62
7
  6
CONTINUOUS
 10
20.208634907
 20
1.101141841
 11
20.2080230104
 21
0.963465087
  0
LINE
  5
222
100
AcDbEntity
  8
0
100
AcDbLine
 62
7
  6
CONTINUOUS
 10
20.0066328138
 20
1.1745147986
 11
20.1443095678
 21
1.1739029019
  0
LINE
  5
223
100
AcDbEntity
  8
0
100
AcDbLine
 62
7
  6
CONTINUOUS
 10
20.1832714155
 20
1.1727031207
 11
20.238153505
 21
1.172335442
  0
LINE
  5
224
100
AcDbEntity
  8
0
100
AcDbLine
 62
7
  6
CONTINUOUS
 10
20.2756669918
 20
1.1717972817
 11
20.407916871
 21
1.1712095044
  0
CIRCLE
  5
225
100
AcDbEntity
  8
0
100
AcDbCircle
 62
7
  6
CONTINUOUS
 10
20.7509457401
 20
1.1693297793
 40
0.1722024983
  0
CIRCLE
  5
226
100
AcDbEntity
  8
0
100
AcDbCircle
 62
7
  6
CONTINUOUS
 10
20.7509457401
 20
1.1693297793
 40
0.0985164967
  0
LINE
  5
227
100
AcDbEntity
  8
0
100
AcDbLine
 62
7
  6
CONTINUOUS
 10
20.7169767782
 20
1.170462078
 11
20.7825395137
 21
1.1682766535
  0
LINE
  5
228
100
AcDbEntity
  8
0
100
AcDbLine
 62
7
  6
CONTINUOUS
 10
20.8177513651
 20
1.1693297793
 11
20.947965719
 21
1.1693297793
  0
LINE
  5
229
100
AcDbEntity
  8
0
100
AcDbLine
 62
7
  6
CONTINUOUS
 10
20.6875370113
 20
1.170462078
 11
20.5573226574
 21
1.170462078
  0
LINE
  5
22A
100
AcDbEntity
  8
0
100
AcDbLine
 62
7
  6
CONTINUOUS
 10
20.7486811426
 20
1.1987695462
 11
20.7486811426
 21
1.1432869085
  0
LINE
  5
22B
100
AcDbEntity
  8
0
100
AcDbLine
 62
7
  6
CONTINUOUS
 10
20.7498134414
 20
1.1059210505
 11
20.7498134414
 21
0.9757066966
  0
LINE
  5
22C
100
AcDbEntity
  8
0
100
AcDbLine
 62
7
  6
CONTINUOUS
 10
20.7486811426
 20
1.2338708068
 11
20.7486811426
 21
1.3640851607
  0
LINE
  5
22D
100
AcDbEntity
  8
0
100
AcDbLine
 62
7
  6
CONTINUOUS
 10
21.0702539817
 20
1.2701043662
 11
21.4790138229
 21
1.3448360823
  0
LINE
  5
22E
100
AcDbEntity
  8
0
100
AcDbLine
 62
7
  6
CONTINUOUS
 10
21.4790138229
 20
1.3448360823
 11
21.4790138229
 21
0.9779712941
  0
LINE
  5
22F
100
AcDbEntity
  8
0
100
AcDbLine
 62
7
  6
CONTINUOUS
 10
21.4790138229
 20
0.9779712941
 11
21.069121683
 21
1.0617614
  0
LINE
  5
230
100
AcDbEntity
  8
0
100
AcDbLine
 62
7
  6
CONTINUOUS
 10
21.0702539817
 20
1.2701043662
 11
21.069121683
 21
1.0617614
  0
LINE
  5
231
100
AcDbEntity
  8
0
100
AcDbLine
 62
7
  6
CONTINUOUS
 10
21.4790138229
 20
1.1693297793
 11
21.3159628059
 21
1.1693297793
  0
LINE
  5
232
100
AcDbEntity
  8
0
100
AcDbLine
 62
7
  6
CONTINUOUS
 10
21.2876553377
 20
1.1693297793
 11
21.2502894796
 21
1.1693297793
  0
LINE
  5
233
100
AcDbEntity
  8
0
100
AcDbLine
 62
7
  6
CONTINUOUS
 10
21.2208497126
 20
1.1659328831
 11
21.0713862804
 21
1.1659328831
  0
LINE
  5
234
100
AcDbEntity
  8
0
100
AcDbLine
 62
7
  6
CONTINUOUS
 10
20.4796138713
 20
1.5284908897
 11
20.4766766948
 21
0.9294458646
  0
ENDBLK
  5
235
100
AcDbEntity
  8
0
  6
BYBLOCK
 62
0
100
AcDbBlockEnd
  0
BLOCK
  5
236
100
AcDbEntity
  8
0
100
AcDbBlockBegin
  2
*T1
 70
1
 10
0.0
 20
0.0
  3
*T1
  1

  0
LINE
  5
237
100
AcDbEntity
  8
0
100
AcDbLine
 62
2
  6
CONTINUOUS
 10
9.275
 20
0.0
 11
-0.0
 21
0.0
  0
LINE
  5
238
100
AcDbEntity
  8
0
100
AcDbLine
 62
2
  6
CONTINUOUS
 10
9.275
 20
0.0
 11
9.275
 21
1.25
  0
LINE
  5
239
100
AcDbEntity
  8
0
100
AcDbLine
 62
2
  6
CONTINUOUS
 10
9.275
 20
0.625
 11
-0.0
 21
0.625
  0
LINE
  5
23A
100
AcDbEntity
  8
0
100
AcDbLine
 62
2
  6
CONTINUOUS
 10
9.275
 20
1.25
 11
-0.0
 21
1.25
  0
LINE
  5
23B
100
AcDbEntity
  8
0
100
AcDbLine
 62
2
  6
CONTINUOUS
 10
6.8
 20
0.0
 11
6.8
 21
1.25
  0
LINE
  5
23C
100
AcDbEntity
  8
0
100
AcDbLine
 62
2
  6
CONTINUOUS
 10
6.4
 20
0.0
 11
6.4
 21
0.625
  0
LINE
  5
23D
100
AcDbEntity
  8
0
100
AcDbLine
 62
2
  6
CONTINUOUS
 10
5.9
 20
0.0
 11
5.9
 21
0.625
  0
LINE
  5
23E
100
AcDbEntity
  8
0
100
AcDbLine
 62
2
  6
CONTINUOUS
 10
5.2
 20
0.0
 11
5.2
 21
0.625
  0
LINE
  5
23F
100
AcDbEntity
  8
0
100
AcDbLine
 62
2
  6
CONTINUOUS
 10
4.1
 20
0.0
 11
4.1
 21
1.25
  0
LINE
  5
240
100
AcDbEntity
  8
0
100
AcDbLine
 62
2
  6
CONTINUOUS
 10
-0.0
 20
0.0
 11
-0.0
 21
1.25
  0
MTEXT
  5
241
100
AcDbEntity
  8
0
100
AcDbMText
 62
2
  6
CONTINUOUS
  7
STANDARD
 71
2
 72
1
 10
6.6
 20
0.325
 30
0.0
 11
1.0
 21
0.0
 31
0.0
 44
0.9
  1
2
 40
0.125
 41
0.2
  0
MTEXT
  5
242
100
AcDbEntity
  8
0
100
AcDbMText
 62
2
  6
CONTINUOUS
  7
STANDARD
 71
2
 72
1
 10
6.15
 20
0.325
 30
0.0
 11
1.0
 21
0.0
 31
0.0
 44
0.9
  1
C
 40
0.125
 41
0.2
  0
MTEXT
  5
243
100
AcDbEntity
  8
0
100
AcDbMText
 62
2
  6
CONTINUOUS
  7
STANDARD
 71
2
 72
1
 10
5.55
 20
0.325
 30
0.0
 11
1.0
 21
0.0
 31
0.0
 44
0.9
  1
1.000
 40
0.125
 41
1.0
  0
MTEXT
  5
244
100
AcDbEntity
  8
0
100
AcDbMText
 62
2
  6
CONTINUOUS
  7
STANDARD
 71
2
 72
1
 10
4.65
 20
0.325
 30
0.0
 11
1.0
 21
0.0
 31
0.0
 44
0.9
  1
Mar-02-22
 40
0.125
 41
1.8
  0
MTEXT
  5
245
100
AcDbEntity
  8
0
100
AcDbMText
 62
2
  6
CONTINUOUS
  7
STANDARD
 71
2
 72
1
 10
2.05
 20
0.4625
 30
0.0
 11
1.0
 21
0.0
 31
0.0
 44
0.9
  1
T-16A Line mount\PNinety degree with reverse flow check
 40
0.125
 41
7.4
  0
MTEXT
  5
246
100
AcDbEntity
  8
0
100
AcDbMText
 62
2
  6
CONTINUOUS
  7
STANDARD
 71
1
 72
1
 10
6.45
 20
0.5625
 30
0.0
 11
1.0
 21
0.0
 31
0.0
 44
0.9
  1
SHEET
 40
0.06
 41
0.48
  0
MTEXT
  5
247
100
AcDbEntity
  8
0
100
AcDbMText
 62
2
  6
CONTINUOUS
  7
STANDARD
 71
1
 72
1
 10
5.95
 20
0.5625
 30
0.0
 11
1.0
 21
0.0
 31
0.0
 44
0.9
  1
DWG SIZE
 40
0.06
 41
0.768
  0
MTEXT
  5
248
100
AcDbEntity
  8
0
100
AcDbMText
 62
2
  6
CONTINUOUS
  7
STANDARD
 71
1
 72
1
 10
5.25
 20
0.5625
 30
0.0
 11
1.0
 21
0.0
 31
0.0
 44
0.9
  1
SCALE
 40
0.06
 41
0.48
  0
MTEXT
  5
249
100
AcDbEntity
  8
0
100
AcDbMText
 62
2
  6
CONTINUOUS
  7
STANDARD
 71
1
 72
1
 10
4.15
 20
0.5625
 30
0.0
 11
1.0
 21
0.0
 31
0.0
 44
0.9
  1
DATE
 40
0.06
 41
0.384
  0
MTEXT
  5
24A
100
AcDbEntity
  8
0
100
AcDbMText
 62
2
  6
CONTINUOUS
  7
STANDARD
 71
1
 72
1
 10
0.05
 20
0.5625
 30
0.0
 11
1.0
 21
0.0
 31
0.0
 44
0.9
  1
DESCRIPTION
 40
0.06
 41
1.056
  0
MTEXT
  5
24B
100
AcDbEntity
  8
0
100
AcDbMText
 62
2
  6
CONTINUOUS
  7
STANDARD
 71
2
 72
1
 10
5.45
 20
1.0375
 30
0.0
 11
1.0
 21
0.0
 31
0.0
 44
0.9
  1
ALL DIMENSIONS IN INCH\PVIEWS ARE THIRD ANGLE
 40
0.12
 41
4.224
  0
MTEXT
  5
24C
100
AcDbEntity
  8
0
100
AcDbMText
 62
2
  6
CONTINUOUS
  7
STANDARD
 71
2
 72
1
 10
2.05
 20
0.95
 30
0.0
 11
1.0
 21
0.0
 31
0.0
 44
0.9
  1
INQ
 40
0.125
 41
0.6
  0
MTEXT
  5
24D
100
AcDbEntity
  8
0
100
AcDbMText
 62
2
  6
CONTINUOUS
  7
STANDARD
 71
1
 72
1
 10
0.05
 20
1.1875
 30
0.0
 11
1.0
 21
0.0
 31
0.0
 44
0.9
  1
MODEL
 40
0.06
 41
0.48
  0
ENDBLK
  5
24E
100
AcDbEntity
  8
0
  6
BYBLOCK
 62
0
100
AcDbBlockEnd
  0
BLOCK
  5
24F
100
AcDbEntity
  8
0
100
AcDbBlockBegin
  2
*T2
 70
1
 10
0.0
 20
0.0
  3
*T2
  1

  0
LINE
  5
250
100
AcDbEntity
  8
0
100
AcDbLine
 62
2
  6
CONTINUOUS
 10
0.0
 20
0.0
 11
9.055
 21
0.0
  0
LINE
  5
251
100
AcDbEntity
  8
0
100
AcDbLine
 62
2
  6
CONTINUOUS
 10
0.0
 20
0.0
 11
0.0
 21
-2.844
  0
LINE
  5
252
100
AcDbEntity
  8
0
100
AcDbLine
 62
2
  6
CONTINUOUS
 10
0.0
 20
-0.344
 11
9.055
 21
-0.344
  0
LINE
  5
253
100
AcDbEntity
  8
0
100
AcDbLine
 62
2
  6
CONTINUOUS
 10
0.0
 20
-0.594
 11
9.055
 21
-0.594
  0
LINE
  5
254
100
AcDbEntity
  8
0
100
AcDbLine
 62
2
  6
CONTINUOUS
 10
0.0
 20
-0.844
 11
9.055
 21
-0.844
  0
LINE
  5
255
100
AcDbEntity
  8
0
100
AcDbLine
 62
2
  6
CONTINUOUS
 10
0.0
 20
-1.094
 11
9.055
 21
-1.094
  0
LINE
  5
256
100
AcDbEntity
  8
0
100
AcDbLine
 62
2
  6
CONTINUOUS
 10
0.0
 20
-1.344
 11
9.055
 21
-1.344
  0
LINE
  5
257
100
AcDbEntity
  8
0
100
AcDbLine
 62
2
  6
CONTINUOUS
 10
0.0
 20
-1.594
 11
9.055
 21
-1.594
  0
LINE
  5
258
100
AcDbEntity
  8
0
100
AcDbLine
 62
2
  6
CONTINUOUS
 10
0.0
 20
-1.844
 11
9.055
 21
-1.844
  0
LINE
  5
259
100
AcDbEntity
  8
0
100
AcDbLine
 62
2
  6
CONTINUOUS
 10
0.0
 20
-2.094
 11
9.055
 21
-2.094
  0
LINE
  5
25A
100
AcDbEntity
  8
0
100
AcDbLine
 62
2
  6
CONTINUOUS
 10
0.0
 20
-2.344
 11
9.055
 21
-2.344
  0
LINE
  5
25B
100
AcDbEntity
  8
0
100
AcDbLine
 62
2
  6
CONTINUOUS
 10
0.0
 20
-2.594
 11
9.055
 21
-2.594
  0
LINE
  5
25C
100
AcDbEntity
  8
0
100
AcDbLine
 62
2
  6
CONTINUOUS
 10
0.0
 20
-2.844
 11
9.055
 21
-2.844
  0
LINE
  5
25D
100
AcDbEntity
  8
0
100
AcDbLine
 62
2
  6
CONTINUOUS
 10
3.055
 20
0.0
 11
3.055
 21
-2.844
  0
LINE
  5
25E
100
AcDbEntity
  8
0
100
AcDbLine
 62
2
  6
CONTINUOUS
 10
9.055
 20
0.0
 11
9.055
 21
-2.844
  0
MTEXT
  5
25F
100
AcDbEntity
  8
0
100
AcDbMText
 62
2
  6
CONTINUOUS
  7
STANDARD
 71
2
 72
1
 10
1.5275
 20
-0.0995
 30
0.0
 11
1.0
 21
0.0
 31
0.0
 44
0.9
  1
Technical Data
 40
0.145
 41
3.248
  0
MTEXT
  5
260
100
AcDbEntity
  8
0
100
AcDbMText
 62
2
  6
CONTINUOUS
  7
STANDARD
 71
2
 72
1
 10
4.555
 20
-0.0995
 30
0.0
 11
1.0
 21
0.0
 31
0.0
 44
0.9
  1
U.S. Units
 40
0.145
 41
2.32
  0
MTEXT
  5
261
100
AcDbEntity
  8
0
100
AcDbMText
 62
2
  6
CONTINUOUS
  7
STANDARD
 71
2
 72
1
 10
7.555
 20
-0.0995
 30
0.0
 11
1.0
 21
0.0
 31
0.0
 44
0.9
  1
Metric Units
 40
0.145
 41
2.784
  0
MTEXT
  5
262
100
AcDbEntity
  8
0
100
AcDbMText
 62
2
  6
CONTINUOUS
  7
STANDARD
 71
2
 72
1
 10
1.5275
 20
-0.4065
 30
0.0
 11
1.0
 21
0.0
 31
0.0
 44
0.9
  1
Cavity
 40
0.125
 41
1.2
  0
MTEXT
  5
263
100
AcDbEntity
  8
0
100
AcDbMText
 62
2
  6
CONTINUOUS
  7
STANDARD
 71
2
 72
1
 10
6.055
 20
-0.4065
 30
0.0
 11
1.0
 21
0.0
 31
0.0
 44
0.9
  1
T-16A
 40
0.125
 41
1.0
  0
MTEXT
  5
264
100
AcDbEntity
  8
0
100
AcDbMText
 62
2
  6
CONTINUOUS
  7
STANDARD
 71
2
 72
1
 10
1.5275
 20
-0.6565
 30
0.0
 11
1.0
 21
0.0
 31
0.0
 44
0.9
  1
Body Features
 40
0.125
 41
2.6
  0
MTEXT
  5
265
100
AcDbEntity
  8
0
100
AcDbMText
 62
2
  6
CONTINUOUS
  7
STANDARD
 71
2
 72
1
 10
6.055
 20
-0.6565
 30
0.0
 11
1.0
 21
0.0
 31
0.0
 44
0.9
  1
Ninety degree with reverse flow check
 40
0.125
 41
7.4
  0
MTEXT
  5
266
100
AcDbEntity
  8
0
100
AcDbMText
 62
2
  6
CONTINUOUS
  7
STANDARD
 71
2
 72
1
 10
1.5275
 20
-0.9065
 30
0.0
 11
1.0
 21
0.0
 31
0.0
 44
0.9
  1
Body Type
 40
0.125
 41
1.8
  0
MTEXT
  5
267
100
AcDbEntity
  8
0
100
AcDbMText
 62
2
  6
CONTINUOUS
  7
STANDARD
 71
2
 72
1
 10
6.055
 20
-0.9065
 30
0.0
 11
1.0
 21
0.0
 31
0.0
 44
0.9
  1
Line mount
 40
0.125
 41
2.0
  0
MTEXT
  5
268
100
AcDbEntity
  8
0
100
AcDbMText
 62
2
  6
CONTINUOUS
  7
STANDARD
 71
2
 72
1
 10
1.5275
 20
-1.1565
 30
0.0
 11
1.0
 21
0.0
 31
0.0
 44
0.9
  1
Interface
 40
0.125
 41
1.8
  0
MTEXT
  5
269
100
AcDbEntity
  8
0
100
AcDbMText
 62
2
  6
CONTINUOUS
  7
STANDARD
 71
2
 72
1
 10
6.055
 20
-1.1565
 30
0.0
 11
1.0
 21
0.0
 31
0.0
 44
0.9
  1
None
 40
0.125
 41
0.8
  0
MTEXT
  5
26A
100
AcDbEntity
  8
0
100
AcDbMText
 62
2
  6
CONTINUOUS
  7
STANDARD
 71
2
 72
1
 10
1.5275
 20
-1.4065
 30
0.0
 11
1.0
 21
0.0
 31
0.0
 44
0.9
  1
Open Cavity Quantity
 40
0.125
 41
4.0
  0
MTEXT
  5
26B
100
AcDbEntity
  8
0
100
AcDbMText
 62
2
  6
CONTINUOUS
  7
STANDARD
 71
2
 72
1
 10
6.055
 20
-1.4065
 30
0.0
 11
1.0
 21
0.0
 31
0.0
 44
0.9
  1
1
 40
0.125
 41
0.2
  0
MTEXT
  5
26C
100
AcDbEntity
  8
0
100
AcDbMText
 62
2
  6
CONTINUOUS
  7
STANDARD
 71
2
 72
1
 10
1.5275
 20
-1.6565
 30
0.0
 11
1.0
 21
0.0
 31
0.0
 44
0.9
  1
Weight
 40
0.125
 41
1.2
  0
MTEXT
  5
26D
100
AcDbEntity
  8
0
100
AcDbMText
 62
2
  6
CONTINUOUS
  7
STANDARD
 71
2
 72
1
 10
4.555
 20
-1.6565
 30
0.0
 11
1.0
 21
0.0
 31
0.0
 44
0.9
  1
6.790 lb.
 40
0.125
 41
1.8
  0
MTEXT
  5
26E
100
AcDbEntity
  8
0
100
AcDbMText
 62
2
  6
CONTINUOUS
  7
STANDARD
 71
2
 72
1
 10
7.555
 20
-1.6565
 30
0.0
 11
1.0
 21
0.0
 31
0.0
 44
0.9
  1
3,080 kg.
 40
0.125
 41
1.8
  0
MTEXT
  5
26F
100
AcDbEntity
  8
0
100
AcDbMText
 62
2
  6
CONTINUOUS
  7
STANDARD
 71
2
 72
1
 10
1.5275
 20
-1.9065
 30
0.0
 11
1.0
 21
0.0
 31
0.0
 44
0.9
  1
Mounting Hole Thread
 40
0.125
 41
4.0
  0
MTEXT
  5
270
100
AcDbEntity
  8
0
100
AcDbMText
 62
2
  6
CONTINUOUS
  7
STANDARD
 71
2
 72
1
 10
4.555
 20
-1.9065
 30
0.0
 11
1.0
 21
0.0
 31
0.0
 44
0.9
  1
.375-16 UNC - 2B in.
 40
0.125
 41
4.0
  0
MTEXT
  5
271
100
AcDbEntity
  8
0
100
AcDbMText
 62
2
  6
CONTINUOUS
  7
STANDARD
 71
2
 72
1
 10
1.5275
 20
-2.1565
 30
0.0
 11
1.0
 21
0.0
 31
0.0
 44
0.9
  1
Mounting Hole Depth
 40
0.125
 41
3.8
  0
MTEXT
  5
272
100
AcDbEntity
  8
0
100
AcDbMText
 62
2
  6
CONTINUOUS
  7
STANDARD
 71
2
 72
1
 10
4.555
 20
-2.1565
 30
0.0
 11
1.0
 21
0.0
 31
0.0
 44
0.9
  1
.62 in.
 40
0.125
 41
1.4
  0
MTEXT
  5
273
100
AcDbEntity
  8
0
100
AcDbMText
 62
2
  6
CONTINUOUS
  7
STANDARD
 71
2
 72
1
 10
7.555
 20
-2.1565
 30
0.0
 11
1.0
 21
0.0
 31
0.0
 44
0.9
  1
15,7 mm
 40
0.125
 41
1.4
  0
MTEXT
  5
274
100
AcDbEntity
  8
0
100
AcDbMText
 62
2
  6
CONTINUOUS
  7
STANDARD
 71
2
 72
1
 10
1.5275
 20
-2.4065
 30
0.0
 11
1.0
 21
0.0
 31
0.0
 44
0.9
  1
Mounting Hole Quantity
 40
0.125
 41
4.4
  0
MTEXT
  5
275
100
AcDbEntity
  8
0
100
AcDbMText
 62
2
  6
CONTINUOUS
  7
STANDARD
 71
2
 72
1
 10
6.055
 20
-2.4065
 30
0.0
 11
1.0
 21
0.0
 31
0.0
 44
0.9
  1
2
 40
0.125
 41
0.2
  0
MTEXT
  5
276
100
AcDbEntity
  8
0
100
AcDbMText
 62
2
  6
CONTINUOUS
  7
STANDARD
 71
2
 72
1
 10
1.5275
 20
-2.6565
 30
0.0
 11
1.0
 21
0.0
 31
0.0
 44
0.9
  1
Includes integral cartridge(s)
 40
0.125
 41
6.0
  0
MTEXT
  5
277
100
AcDbEntity
  8
0
100
AcDbMText
 62
2
  6
CONTINUOUS
  7
STANDARD
 71
2
 72
1
 10
6.055
 20
-2.6565
 30
0.0
 11
1.0
 21
0.0
 31
0.0
 44
0.9
  1
Yes (see Included Components)
 40
0.125
 41
5.8
  0
ENDBLK
  5
278
100
AcDbEntity
  8
0
  6
BYBLOCK
 62
0
100
AcDbBlockEnd
  0
BLOCK
  5
279
100
AcDbEntity
  8
0
100
AcDbBlockBegin
  2
*T3
 70
1
 10
0.0
 20
0.0
  3
*T3
  1

  0
LINE
  5
27A
100
AcDbEntity
  8
0
100
AcDbLine
 62
2
  6
CONTINUOUS
 10
0.0
 20
0.0
 11
4.6
 21
0.0
  0
LINE
  5
27B
100
AcDbEntity
  8
0
100
AcDbLine
 62
2
  6
CONTINUOUS
 10
0.0
 20
0.0
 11
0.0
 21
-1.18775
  0
LINE
  5
27C
100
AcDbEntity
  8
0
100
AcDbLine
 62
2
  6
CONTINUOUS
 10
0.0
 20
-0.34375
 11
4.6
 21
-0.34375
  0
LINE
  5
27D
100
AcDbEntity
  8
0
100
AcDbLine
 62
2
  6
CONTINUOUS
 10
0.0
 20
-0.68775
 11
4.6
 21
-0.68775
  0
LINE
  5
27E
100
AcDbEntity
  8
0
100
AcDbLine
 62
2
  6
CONTINUOUS
 10
0.0
 20
-0.93775
 11
4.6
 21
-0.93775
  0
LINE
  5
27F
100
AcDbEntity
  8
0
100
AcDbLine
 62
2
  6
CONTINUOUS
 10
0.0
 20
-1.18775
 11
4.6
 21
-1.18775
  0
LINE
  5
280
100
AcDbEntity
  8
0
100
AcDbLine
 62
2
  6
CONTINUOUS
 10
1.3
 20
-0.34375
 11
1.3
 21
-1.18775
  0
LINE
  5
281
100
AcDbEntity
  8
0
100
AcDbLine
 62
2
  6
CONTINUOUS
 10
3.3
 20
-0.34375
 11
3.3
 21
-1.18775
  0
LINE
  5
282
100
AcDbEntity
  8
0
100
AcDbLine
 62
2
  6
CONTINUOUS
 10
4.6
 20
0.0
 11
4.6
 21
-1.18775
  0
MTEXT
  5
283
100
AcDbEntity
  8
0
100
AcDbMText
 62
2
  6
CONTINUOUS
  7
STANDARD
 71
2
 72
1
 10
2.3
 20
-0.099375
 30
0.0
 11
1.0
 21
0.0
 31
0.0
 44
0.9
  1
Port Headings
 40
0.145
 41
3.016
  0
MTEXT
  5
284
100
AcDbEntity
  8
0
100
AcDbMText
 62
2
  6
CONTINUOUS
  7
STANDARD
 71
2
 72
1
 10
0.65
 20
-0.44325
 30
0.0
 11
1.0
 21
0.0
 31
0.0
 44
0.9
  1
Product
 40
0.145
 41
1.624
  0
MTEXT
  5
285
100
AcDbEntity
  8
0
100
AcDbMText
 62
2
  6
CONTINUOUS
  7
STANDARD
 71
2
 72
1
 10
2.3
 20
-0.44325
 30
0.0
 11
1.0
 21
0.0
 31
0.0
 44
0.9
  1
Port
 40
0.145
 41
0.928
  0
MTEXT
  5
286
100
AcDbEntity
  8
0
100
AcDbMText
 62
2
  6
CONTINUOUS
  7
STANDARD
 71
2
 72
1
 10
3.95
 20
-0.44325
 30
0.0
 11
1.0
 21
0.0
 31
0.0
 44
0.9
  1
Size
 40
0.145
 41
0.928
  0
MTEXT
  5
287
100
AcDbEntity
  8
0
100
AcDbMText
 62
2
  6
CONTINUOUS
  7
STANDARD
 71
2
 72
1
 10
0.65
 20
-0.75025
 30
0.0
 11
1.0
 21
0.0
 31
0.0
 44
0.9
  1
INQ
 40
0.125
 41
0.6
  0
MTEXT
  5
288
100
AcDbEntity
  8
0
100
AcDbMText
 62
2
  6
CONTINUOUS
  7
STANDARD
 71
2
 72
1
 10
2.3
 20
-0.75025
 30
0.0
 11
1.0
 21
0.0
 31
0.0
 44
0.9
  1
Ports 1 &  2
 40
0.125
 41
2.4
  0
MTEXT
  5
289
100
AcDbEntity
  8
0
100
AcDbMText
 62
2
  6
CONTINUOUS
  7
STANDARD
 71
2
 72
1
 10
3.95
 20
-0.75025
 30
0.0
 11
1.0
 21
0.0
 31
0.0
 44
0.9
  1
1 1/4" Code 61
 40
0.125
 41
2.8
  0
MTEXT
  5
28A
100
AcDbEntity
  8
0
100
AcDbMText
 62
2
  6
CONTINUOUS
  7
STANDARD
 71
2
 72
1
 10
0.65
 20
-1.00025
 30
0.0
 11
1.0
 21
0.0
 31
0.0
 44
0.9
  1
INQ
 40
0.125
 41
0.6
  0
MTEXT
  5
28B
100
AcDbEntity
  8
0
100
AcDbMText
 62
2
  6
CONTINUOUS
  7
STANDARD
 71
2
 72
1
 10
2.3
 20
-1.00025
 30
0.0
 11
1.0
 21
0.0
 31
0.0
 44
0.9
  1
Gage Port
 40
0.125
 41
1.8
  0
MTEXT
  5
28C
100
AcDbEntity
  8
0
100
AcDbMText
 62
2
  6
CONTINUOUS
  7
STANDARD
 71
2
 72
1
 10
3.95
 20
-1.00025
 30
0.0
 11
1.0
 21
0.0
 31
0.0
 44
0.9
  1
1/4" NPTF
 40
0.125
 41
1.8
  0
ENDBLK
  5
28D
100
AcDbEntity
  8
0
  6
BYBLOCK
 62
0
100
AcDbBlockEnd
  0
ENDSEC
  0
SECTION
  2
ENTITIES
  0
IMAGE
  5
28E
100
AcDbEntity
  8
0
100
AcDbRasterImage
 62
7
  6
CONTINUOUS
 10
19.2297077316
 20
0.3094318264
 30
0.0
 11
0.0066666667
 21
0.0
 31
0.0
 12
0.0
 22
0.0066666667
 32
0.0
 13
369.0
 23
92.0
340
       315
 70
9
280
0
281
50
282
50
283
0
360
       30F
 71
1
 91
2
 14
-0.5
 24
-0.5
 14
368.5
 24
91.5
  0
INSERT
  5
28F
100
AcDbEntity
  8
0
100
AcDbBlockReference
 62
2
  6
CONTINUOUS
  2
SUN_FIRST_THIRD_ANGLE_BL0
 10
20.4816717061
 20
1.2289683772
  0
ACAD_TABLE
  5
290
100
AcDbEntity
  8
0
 62
2
  6
CONTINUOUS
100
AcDbBlockReference
  2
*T1
 10
12.42375
 20
0.30125
 30
0.0
100
AcDbTable
342
       317
343
20F
 11
1.0
 21
0.0
 31
0.0
 90
6
 91
4
 92
6
 93
20
 94
0
 95
0
 96
0
 70
1
 41
0.0
141
0.525
141
0.1
141
0.525
141
0.1
142
4.1
142
1.1
142
0.7
142
0.5
142
0.4
142
2.475
171
1
172
0
173
0
174
0
175
1
176
1
 91
33
178
0
145
0.0
301
CELL_VALUE
 90
4
  1
T-16A Line mount\PNinety degree with reverse flow check
304
ACVALUE_END
170
2
140
0.125
171
1
172
0
173
0
174
0
175
1
176
1
 91
33
178
0
145
0.0
301
CELL_VALUE
 90
4
  1
Mar-02-22
304
ACVALUE_END
170
5
140
0.125
171
1
172
0
173
0
174
0
175
1
176
1
 91
33
178
0
145
0.0
301
CELL_VALUE
 90
4
  1
1.000
304
ACVALUE_END
170
5
140
0.125
171
1
172
0
173
0
174
0
175
1
176
1
 91
33
178
0
145
0.0
301
CELL_VALUE
 90
4
  1
C
304
ACVALUE_END
170
5
140
0.125
171
1
172
0
173
0
174
0
175
1
176
1
 91
33
178
0
145
0.0
301
CELL_VALUE
 90
4
  1
2
304
ACVALUE_END
170
5
140
0.125
171
1
172
0
173
0
174
0
175
1
176
1
 91
33
178
0
145
0.0
301
CELL_VALUE
 90
4
  1
 
304
ACVALUE_END
170
1
140
0.125
171
1
172
0
173
0
174
0
175
1
176
1
 91
33
178
0
145
0.0
301
CELL_VALUE
 90
4
  1
DESCRIPTION
304
ACVALUE_END
170
1
140
0.06
171
1
172
0
173
0
174
0
175
1
176
1
 91
33
178
0
145
0.0
301
CELL_VALUE
 90
4
  1
DATE
304
ACVALUE_END
170
1
140
0.06
171
1
172
0
173
0
174
0
175
1
176
1
 91
33
178
0
145
0.0
301
CELL_VALUE
 90
4
  1
SCALE
304
ACVALUE_END
170
1
140
0.06
171
1
172
0
173
0
174
0
175
1
176
1
 91
33
178
0
145
0.0
301
CELL_VALUE
 90
4
  1
DWG SIZE
304
ACVALUE_END
170
1
140
0.06
171
1
172
0
173
0
174
0
175
1
176
1
 91
33
178
0
145
0.0
301
CELL_VALUE
 90
4
  1
SHEET
304
ACVALUE_END
170
1
140
0.06
171
1
172
0
173
0
174
0
175
1
176
1
 91
33
178
0
145
0.0
301
CELL_VALUE
 90
4
  1
 
304
ACVALUE_END
170
1
140
0.125
171
1
172
0
173
0
174
0
175
1
176
1
 91
33
178
0
145
0.0
301
CELL_VALUE
 90
4
  1
INQ
304
ACVALUE_END
170
5
140
0.125
171
1
172
0
173
0
174
0
175
4
176
1
 91
33
178
0
145
0.0
301
CELL_VALUE
 90
4
  1
ALL DIMENSIONS IN INCH\PVIEWS ARE THIRD ANGLE
304
ACVALUE_END
170
5
140
0.12
171
1
172
0
173
1
174
0
175
1
176
1
 91
1
178
0
145
0.0
170
1
171
1
172
0
173
1
174
0
175
1
176
1
 91
1
178
0
145
0.0
170
1
171
1
172
0
173
1
174
0
175
1
176
1
 91
1
178
0
145
0.0
170
5
171
1
172
0
173
0
174
0
175
1
176
1
 91
33
178
0
145
0.0
301
CELL_VALUE
 90
4
  1
 
304
ACVALUE_END
170
1
140
0.125
171
1
172
0
173
0
174
0
175
1
176
1
 91
33
178
0
145
0.0
301
CELL_VALUE
 90
4
  1
MODEL
304
ACVALUE_END
170
1
140
0.06
171
1
172
0
173
0
174
0
175
1
176
1
 91
33
178
0
145
0.0
301
CELL_VALUE
 90
4
  1
 
304
ACVALUE_END
170
1
140
0.125
171
1
172
0
173
0
174
0
175
1
176
1
 91
33
178
0
145
0.0
301
CELL_VALUE
 90
4
  1
 
304
ACVALUE_END
170
1
140
0.125
171
1
172
0
173
0
174
0
175
1
176
1
 91
33
178
0
145
0.0
301
CELL_VALUE
 90
4
  1
 
304
ACVALUE_END
170
1
140
0.125
171
1
172
0
173
0
174
0
175
1
176
1
 91
33
178
0
145
0.0
301
CELL_VALUE
 90
4
  1
 
304
ACVALUE_END
170
1
140
0.125
171
1
172
0
173
0
174
0
175
1
176
1
 91
33
178
0
145
0.0
301
CELL_VALUE
 90
4
  1
 
304
ACVALUE_END
170
1
140
0.125
  0
ACAD_TABLE
  5
291
100
AcDbEntity
  8
0
 62
2
  6
CONTINUOUS
100
AcDbBlockReference
  2
*T2
 10
12.4237499994
 20
16.47875
 30
0.0
100
AcDbTable
342
       316
343
210
 11
1.0
 21
0.0
 31
0.0
 90
22
 91
11
 92
3
 93
16
 94
0
 95
0
 96
0
 41
0.028
141
0.344
141
0.25
141
0.25
141
0.25
141
0.25
141
0.25
141
0.25
141
0.25
141
0.25
141
0.25
141
0.25
142
3.055
142
3.0
142
3.0
171
1
172
0
173
0
174
0
175
1
176
1
 91
33
178
0
145
0.0
301
CELL_VALUE
 90
4
  1
Technical Data
304
ACVALUE_END
170
5
140
0.145
171
1
172
0
173
0
174
0
175
1
176
1
 91
33
178
0
145
0.0
301
CELL_VALUE
 90
4
  1
U.S. Units
304
ACVALUE_END
170
5
140
0.145
171
1
172
0
173
0
174
0
175
1
176
1
 91
33
178
0
145
0.0
301
CELL_VALUE
 90
4
  1
Metric Units
304
ACVALUE_END
170
5
140
0.145
171
1
172
0
173
0
174
0
175
1
176
1
 91
33
178
0
145
0.0
301
CELL_VALUE
 90
4
  1
Cavity
304
ACVALUE_END
170
5
140
0.125
171
1
172
0
173
0
174
0
175
2
176
1
 91
33
178
0
145
0.0
301
CELL_VALUE
 90
4
  1
T-16A
304
ACVALUE_END
170
5
140
0.125
171
1
172
0
173
1
174
0
175
1
176
1
 91
1
178
0
145
0.0
170
1
171
1
172
0
173
0
174
0
175
1
176
1
 91
33
178
0
145
0.0
301
CELL_VALUE
 90
4
  1
Body Features
304
ACVALUE_END
170
5
140
0.125
171
1
172
0
173
0
174
0
175
2
176
1
 91
33
178
0
145
0.0
301
CELL_VALUE
 90
4
  1
Ninety degree with reverse flow check
304
ACVALUE_END
170
5
140
0.125
171
1
172
0
173
1
174
0
175
1
176
1
 91
1
178
0
145
0.0
170
1
171
1
172
0
173
0
174
0
175
1
176
1
 91
33
178
0
145
0.0
301
CELL_VALUE
 90
4
  1
Body Type
304
ACVALUE_END
170
5
140
0.125
171
1
172
0
173
0
174
0
175
2
176
1
 91
33
178
0
145
0.0
301
CELL_VALUE
 90
4
  1
Line mount
304
ACVALUE_END
170
5
140
0.125
171
1
172
0
173
1
174
0
175
1
176
1
 91
1
178
0
145
0.0
170
1
171
1
172
0
173
0
174
0
175
1
176
1
 91
33
178
0
145
0.0
301
CELL_VALUE
 90
4
  1
Interface
304
ACVALUE_END
170
5
140
0.125
171
1
172
0
173
0
174
0
175
2
176
1
 91
33
178
0
145
0.0
301
CELL_VALUE
 90
4
  1
None
304
ACVALUE_END
170
5
140
0.125
171
1
172
0
173
1
174
0
175
1
176
1
 91
1
178
0
145
0.0
170
1
171
1
172
0
173
0
174
0
175
1
176
1
 91
33
178
0
145
0.0
301
CELL_VALUE
 90
4
  1
Open Cavity Quantity
304
ACVALUE_END
170
5
140
0.125
171
1
172
0
173
0
174
0
175
2
176
1
 91
33
178
0
145
0.0
301
CELL_VALUE
 90
4
  1
1
304
ACVALUE_END
170
5
140
0.125
171
1
172
0
173
1
174
0
175
1
176
1
 91
1
178
0
145
0.0
170
1
171
1
172
0
173
0
174
0
175
1
176
1
 91
33
178
0
145
0.0
301
CELL_VALUE
 90
4
  1
Weight
304
ACVALUE_END
170
5
140
0.125
171
1
172
0
173
0
174
0
175
1
176
1
 91
33
178
0
145
0.0
301
CELL_VALUE
 90
4
  1
6.790 lb.
304
ACVALUE_END
170
5
140
0.125
171
1
172
0
173
0
174
0
175
1
176
1
 91
33
178
0
145
0.0
301
CELL_VALUE
 90
4
  1
3,080 kg.
304
ACVALUE_END
170
5
140
0.125
171
1
172
0
173
0
174
0
175
1
176
1
 91
33
178
0
145
0.0
301
CELL_VALUE
 90
4
  1
Mounting Hole Thread
304
ACVALUE_END
170
5
140
0.125
171
1
172
0
173
0
174
0
175
1
176
1
 91
33
178
0
145
0.0
301
CELL_VALUE
 90
4
  1
.375-16 UNC - 2B in.
304
ACVALUE_END
170
5
140
0.125
171
1
172
0
173
0
174
0
175
1
176
1
 91
33
178
0
145
0.0
301
CELL_VALUE
 90
4
  1
 
304
ACVALUE_END
170
5
140
0.125
171
1
172
0
173
0
174
0
175
1
176
1
 91
33
178
0
145
0.0
301
CELL_VALUE
 90
4
  1
Mounting Hole Depth
304
ACVALUE_END
170
5
140
0.125
171
1
172
0
173
0
174
0
175
1
176
1
 91
33
178
0
145
0.0
301
CELL_VALUE
 90
4
  1
.62 in.
304
ACVALUE_END
170
5
140
0.125
171
1
172
0
173
0
174
0
175
1
176
1
 91
33
178
0
145
0.0
301
CELL_VALUE
 90
4
  1
15,7 mm
304
ACVALUE_END
170
5
140
0.125
171
1
172
0
173
0
174
0
175
1
176
1
 91
33
178
0
145
0.0
301
CELL_VALUE
 90
4
  1
Mounting Hole Quantity
304
ACVALUE_END
170
5
140
0.125
171
1
172
0
173
0
174
0
175
2
176
1
 91
33
178
0
145
0.0
301
CELL_VALUE
 90
4
  1
2
304
ACVALUE_END
170
5
140
0.125
171
1
172
0
173
1
174
0
175
1
176
1
 91
1
178
0
145
0.0
170
1
171
1
172
0
173
0
174
0
175
1
176
1
 91
33
178
0
145
0.0
301
CELL_VALUE
 90
4
  1
Includes integral cartridge(s)
304
ACVALUE_END
170
5
140
0.125
171
1
172
0
173
0
174
0
175
2
176
1
 91
33
178
0
145
0.0
301
CELL_VALUE
 90
4
  1
Yes (see Included Components)
304
ACVALUE_END
170
5
140
0.125
171
1
172
0
173
1
174
0
175
1
176
1
 91
1
178
0
145
0.0
170
1
  0
ACAD_TABLE
  5
292
100
AcDbEntity
  8
0
 62
2
  6
CONTINUOUS
100
AcDbBlockReference
  2
*T3
 10
0.52125
 20
1.709
 30
0.0
100
AcDbTable
342
       316
343
211
 11
1.0
 21
0.0
 31
0.0
 90
22
 91
4
 92
3
 93
16
 94
0
 95
0
 96
0
 41
0.05
141
0.34375
141
0.344
141
0.25
141
0.25
142
1.3
142
2.0
142
1.3
171
1
172
0
173
0
174
0
175
3
176
1
 91
33
178
0
145
0.0
301
CELL_VALUE
 90
4
  1
Port Headings
304
ACVALUE_END
170
5
140
0.145
171
1
172
0
173
1
174
0
175
1
176
1
 91
1
178
0
145
0.0
170
1
171
1
172
0
173
1
174
0
175
1
176
1
 91
1
178
0
145
0.0
170
1
171
1
172
0
173
0
174
0
175
1
176
1
 91
33
178
0
145
0.0
301
CELL_VALUE
 90
4
  1
Product
304
ACVALUE_END
170
5
140
0.145
171
1
172
0
173
0
174
0
175
1
176
1
 91
33
178
0
145
0.0
301
CELL_VALUE
 90
4
  1
Port
304
ACVALUE_END
170
5
140
0.145
171
1
172
0
173
0
174
0
175
1
176
1
 91
33
178
0
145
0.0
301
CELL_VALUE
 90
4
  1
Size
304
ACVALUE_END
170
5
140
0.145
171
1
172
0
173
0
174
0
175
1
176
1
 91
33
178
0
145
0.0
301
CELL_VALUE
 90
4
  1
INQ
304
ACVALUE_END
170
5
140
0.125
171
1
172
0
173
0
174
0
175
1
176
1
 91
33
178
0
145
0.0
301
CELL_VALUE
 90
4
  1
Ports 1 &  2
304
ACVALUE_END
170
5
140
0.125
171
1
172
0
173
0
174
0
175
1
176
1
 91
33
178
0
145
0.0
301
CELL_VALUE
 90
4
  1
1 1/4" Code 61
304
ACVALUE_END
170
5
140
0.125
171
1
172
0
173
0
174
0
175
1
176
1
 91
33
178
0
145
0.0
301
CELL_VALUE
 90
4
  1
INQ
304
ACVALUE_END
170
5
140
0.125
171
1
172
0
173
0
174
0
175
1
176
1
 91
33
178
0
145
0.0
301
CELL_VALUE
 90
4
  1
Gage Port
304
ACVALUE_END
170
5
140
0.125
171
1
172
0
173
0
174
0
175
1
176
1
 91
33
178
0
145
0.0
301
CELL_VALUE
 90
4
  1
1/4" NPTF
304
ACVALUE_END
170
5
140
0.125
  0
MTEXT
  5
293
100
AcDbEntity
  8
0
100
AcDbMText
 62
2
  6
CONTINUOUS
  7
STANDARD
 71
1
 72
1
 10
0.52125
 20
5.75995
 30
0.0
 11
1.0
 21
0.0
 31
0.0
 44
0.6
  3
Notes\P \P1. Important: Carefully consider\P   the maximum system pressure. The\P   pressure rating of the manifold is\P   dependent on the manifold material,\P   with the port type/size a secondary\P   consideration. Manifolds\P   constructed of alu
  1
minum are not\P   rated for pressures higher than\P   3000 psi (210 bar), regardless of\P   the port type/size specified.
 40
0.1
 41
3.04
  0
LINE
  5
294
100
AcDbEntity
  8
0
100
AcDbLine
 62
7
  6
CONTINUOUS
 10
0.30125
 20
0.30125
 11
0.30125
 21
16.69875
  0
LINE
  5
295
100
AcDbEntity
  8
0
100
AcDbLine
 62
7
  6
CONTINUOUS
 10
0.30125
 20
0.30125
 11
21.69875
 21
0.30125
  0
LINE
  5
296
100
AcDbEntity
  8
0
100
AcDbLine
 62
7
  6
CONTINUOUS
 10
0.30125
 20
16.69875
 11
21.69875
 21
16.69875
  0
LINE
  5
297
100
AcDbEntity
  8
0
100
AcDbLine
 62
7
  6
CONTINUOUS
 10
21.69875
 20
0.30125
 11
21.69875
 21
16.69875
  0
LINE
  5
298
100
AcDbEntity
  8
0
100
AcDbLine
 62
7
  6
CONTINUOUS
 10
10.2057819866
 20
5.2770735882
 11
10.2243485395
 21
5.2679020666
  0
LINE
  5
299
100
AcDbEntity
  8
0
100
AcDbLine
 62
7
  6
CONTINUOUS
 10
9.8839487171
 20
11.8180858074
 11
8.7353106906
 21
10.7085866067
  0
LINE
  5
29A
100
AcDbEntity
  8
0
100
AcDbLine
 62
7
  6
CONTINUOUS
 10
8.7353106906
 20
5.9996979245
 11
12.1160512829
 21
5.7652427682
  0
LINE
  5
29B
100
AcDbEntity
  8
0
100
AcDbLine
 62
7
  6
CONTINUOUS
 10
8.7353106906
 20
5.9996979245
 11
8.7353106906
 21
10.7085866067
  0
LINE
  5
29C
100
AcDbEntity
  8
0
100
AcDbLine
 62
4
  6
CONTINUOUS
 10
9.8305730219
 20
10.4387994286
 11
9.1410499187
 21
10.159668525
  0
LINE
  5
29D
100
AcDbEntity
  8
0
100
AcDbLine
 62
4
  6
CONTINUOUS
 10
8.9169047567
 20
8.6733442154
 11
8.9169047567
 21
9.820864165
  0
LINE
  5
29E
100
AcDbEntity
  8
0
100
AcDbLine
 62
4
  6
CONTINUOUS
 10
9.1410499187
 20
8.3034508158
 11
9.8305730219
 21
7.928682733
  0
LINE
  5
29F
100
AcDbEntity
  8
0
100
AcDbLine
 62
7
  6
CONTINUOUS
 10
10.0831856587
 20
5.906222478
 11
10.0831856587
 21
5.4338227702
  0
LINE
  5
2A0
100
AcDbEntity
  8
0
100
AcDbLine
 62
7
  6
CONTINUOUS
 10
10.2564537632
 20
5.8942062942
 11
10.2564537632
 21
5.2664589193
  0
LINE
  5
2A1
100
AcDbEntity
  8
0
100
AcDbLine
 62
7
  6
CONTINUOUS
 10
10.2884465585
 20
5.8919875863
 11
10.2884465585
 21
5.2581785851
  0
LINE
  5
2A2
100
AcDbEntity
  8
0
100
AcDbLine
 62
7
  6
CONTINUOUS
 10
12.1160512829
 20
10.4741314503
 11
13.2646893094
 21
11.583630651
  0
LINE
  5
2A3
100
AcDbEntity
  8
0
100
AcDbLine
 62
7
  6
CONTINUOUS
 10
10.9350914325
 20
5.8471426119
 11
10.9350914325
 21
5.2133336108
  0
LINE
  5
2A4
100
AcDbEntity
  8
0
100
AcDbLine
 62
7
  6
CONTINUOUS
 10
10.9787943914
 20
5.8441118015
 11
10.9787943914
 21
5.2163644266
  0
LINE
  5
2A5
100
AcDbEntity
  8
0
100
AcDbLine
 62
7
  6
CONTINUOUS
 10
11.4521711609
 20
5.811283011
 11
11.4521711609
 21
5.3388833031
  0
LINE
  5
2A6
100
AcDbEntity
  8
0
100
AcDbLine
 62
7
  6
CONTINUOUS
 10
11.4638813245
 20
5.8104709084
 11
11.4638813245
 21
5.3501944532
  0
LINE
  5
2A7
100
AcDbEntity
  8
0
100
AcDbLine
 62
4
  6
CONTINUOUS
 10
11.0207889516
 20
7.8461409779
 11
11.7103120548
 21
8.1252718814
  0
LINE
  5
2A8
100
AcDbEntity
  8
0
100
AcDbLine
 62
4
  6
CONTINUOUS
 10
11.9344572168
 20
9.6115961911
 11
11.9344572168
 21
8.4640762415
  0
LINE
  5
2A9
100
AcDbEntity
  8
0
100
AcDbLine
 62
7
  6
CONTINUOUS
 10
12.1160512829
 20
5.7652427682
 11
12.1160512829
 21
10.4741314503
  0
LINE
  5
2AA
100
AcDbEntity
  8
0
100
AcDbLine
 62
4
  6
CONTINUOUS
 10
11.7103120548
 20
9.9814895907
 11
11.0207889516
 21
10.3562576735
  0
LINE
  5
2AB
100
AcDbEntity
  8
0
100
AcDbLine
 62
7
  6
CONTINUOUS
 10
8.7353106906
 20
10.7085866067
 11
12.1160512829
 21
10.4741314503
  0
LINE
  5
2AC
100
AcDbEntity
  8
0
100
AcDbLine
 62
7
  6
CONTINUOUS
 10
13.2646893094
 20
6.8747419688
 11
13.2646893094
 21
11.583630651
  0
LINE
  5
2AD
100
AcDbEntity
  8
0
100
AcDbLine
 62
7
  6
CONTINUOUS
 10
12.1160512829
 20
5.7652427682
 11
13.2646893094
 21
6.8747419688
  0
LINE
  5
2AE
100
AcDbEntity
  8
0
100
AcDbLine
 62
7
  6
CONTINUOUS
 10
11.3540404626
 20
5.2833745442
 11
11.3227184437
 21
5.2679020666
  0
LINE
  5
2AF
100
AcDbEntity
  8
0
100
AcDbLine
 62
7
  6
CONTINUOUS
 10
13.2646893094
 20
11.583630651
 11
9.8839487171
 21
11.8180858074
  0
ARC
  5
2B0
100
AcDbEntity
  8
0
100
AcDbCircle
 62
7
  6
CONTINUOUS
 10
14.9376966936
 20
9.8641398454
 40
4.3652378952
100
AcDbArc
 50
181.933792499
 51
182.9236609597
  0
ARC
  5
2B1
100
AcDbEntity
  8
0
100
AcDbCircle
 62
7
  6
CONTINUOUS
 10
10.7856507789
 20
7.6848021299
 40
2.4759824616
100
AcDbArc
 50
273.460253038
 51
274.4740090323
  0
ARC
  5
2B2
100
AcDbEntity
  8
0
100
AcDbCircle
 62
7
  6
CONTINUOUS
 10
10.5435074172
 20
6.309604897
 40
1.0819211298
100
AcDbArc
 50
254.6141230724
 51
256.3642747627
  0
ARC
  5
2B3
100
AcDbEntity
  8
0
100
AcDbCircle
 62
7
  6
CONTINUOUS
 10
10.9756308962
 20
6.0478187489
 40
0.8529760664
100
AcDbArc
 50
293.9893580621
 51
296.3103566126
  0
ARC
  5
2B4
100
AcDbEntity
  8
0
100
AcDbCircle
 62
7
  6
CONTINUOUS
 10
11.1746930985
 20
9.8774284405
 40
0.64151545
100
AcDbArc
 50
193.8542311817
 51
201.5790198553
  0
ARC
  5
2B5
100
AcDbEntity
  8
0
100
AcDbCircle
 62
7
  6
CONTINUOUS
 10
11.0962016076
 20
9.7721699904
 40
0.6295575639
100
AcDbArc
 50
262.8878748939
 51
263.7289889816
  0
ARC
  5
2B6
100
AcDbEntity
  8
0
100
AcDbCircle
 62
7
  6
CONTINUOUS
 10
11.3631465401
 20
5.4431894914
 40
0.137131922
100
AcDbArc
 50
310.4805308012
 51
313.9817446454
  0
ARC
  5
2B7
100
AcDbEntity
  8
0
100
AcDbCircle
 62
7
  6
CONTINUOUS
 10
12.677990471
 20
10.7711433893
 40
0.0108785645
100
AcDbArc
 50
86.03264322
 51
86.7780271256
  0
ARC
  5
2B8
100
AcDbEntity
  8
0
100
AcDbCircle
 62
7
  6
CONTINUOUS
 10
12.677990471
 20
6.9074396537
 40
0.0108785645
100
AcDbArc
 50
86.03264322
 51
86.7780271256
  0
LINE
  5
2B9
100
AcDbEntity
  8
0
100
AcDbLine
 62
7
  6
CONTINUOUS
 10
11.4638813245
 20
5.3501944532
 11
11.458374943
 21
5.3445146957
  0
SPLINE
  5
2BA
100
AcDbEntity
  8
0
100
AcDbSpline
 62
7
  6
CONTINUOUS
 70
0
 71
3
 72
9
 73
5
 74
0
 42
0.0000001
 43
0.0000001
 44
0.0000000001
 40
0.0
 40
0.0
 40
0.0
 40
0.0
 40
0.5046586347
 40
1.0
 40
1.0
 40
1.0
 40
1.0
 10
11.4521711609
 20
5.3388833031
 30
0.0
 10
11.4360734186
 20
5.3287230086
 30
0.0
 10
11.4037466166
 20
5.3092576215
 30
0.0
 10
11.3704487587
 20
5.2914840002
 30
0.0
 10
11.3536982331
 20
5.2832056057
 30
0.0
  0
SPLINE
  5
2BB
100
AcDbEntity
  8
0
100
AcDbSpline
 62
7
  6
CONTINUOUS
 70
0
 71
3
 72
22
 73
18
 74
0
 42
0.0000001
 43
0.0000001
 44
0.0000000001
 40
0.0
 40
0.0
 40
0.0
 40
0.0
 40
0.0433496817
 40
0.0887204749
 40
0.1363684807
 40
0.186508223
 40
0.2393133424
 40
0.294902398
 40
0.3533490798
 40
0.4146723839
 40
0.4788530316
 40
0.5458283755
 40
0.6155092985
 40
0.6877791091
 40
0.7625074527
 40
0.8395533511
 40
1.0
 40
1.0
 40
1.0
 40
1.0
 10
10.2061669715
 20
5.276883507
 30
0.0
 10
10.2035439961
 20
5.2781782185
 30
0.0
 10
10.1982777021
 20
5.2810392195
 30
0.0
 10
10.190527754
 20
5.2860135141
 30
0.0
 10
10.1827674396
 20
5.2917778699
 30
0.0
 10
10.1750019037
 20
5.2983412155
 30
0.0
 10
10.1672373039
 20
5.3057072847
 30
0.0
 10
10.1594777083
 20
5.3138700667
 30
0.0
 10
10.1517294625
 20
5.322818104
 30
0.0
 10
10.1439960354
 20
5.3325310226
 30
0.0
 10
10.1362830763
 20
5.3429839617
 30
0.0
 10
10.128593297
 20
5.3541454122
 30
0.0
 10
10.1209310021
 20
5.3659810972
 30
0.0
 10
10.113298029
 20
5.3784529789
 30
0.0
 10
10.1056968844
 20
5.3915222901
 30
0.0
 10
10.0954675475
 20
5.4099411342
 30
0.0
 10
10.0880601645
 20
5.4241557226
 30
0.0
 10
10.0831856587
 20
5.4338227702
 30
0.0
  0
SPLINE
  5
2BC
100
AcDbEntity
  8
0
100
AcDbSpline
 62
7
  6
CONTINUOUS
 70
0
 71
3
 72
45
 73
41
 74
0
 42
0.0000001
 43
0.0000001
 44
0.0000000001
 40
0.0
 40
0.0
 40
0.0
 40
0.0
 40
0.0099874845
 40
0.0204477797
 40
0.0313772346
 40
0.0427709417
 40
0.0546220642
 40
0.0669226974
 40
0.0928353048
 40
0.1204259654
 40
0.1495972168
 40
0.1802393364
 40
0.2122321962
 40
0.2454472552
 40
0.2797477509
 40
0.3149906372
 40
0.3510273529
 40
0.3877044296
 40
0.4248650626
 40
0.4623495452
 40
0.4999964221
 40
0.5376433582
 40
0.575127933
 40
0.6122887496
 40
0.6489660315
 40
0.6850029789
 40
0.7202462826
 40
0.7545471433
 40
0.7877626678
 40
0.8197560782
 40
0.8503986535
 40
0.8795706031
 40
0.9071618935
 40
0.9330751181
 40
0.9453761802
 40
0.9572277353
 40
0.9686216429
 40
0.9795514157
 40
0.9900121412
 40
1.0
 40
1.0
 40
1.0
 40
1.0
 10
11.322720624
 20
5.2679031566
 30
0.0
 10
11.3193798766
 20
5.2662529026
 30
0.0
 10
11.3124831507
 20
5.2629888833
 30
0.0
 10
11.3017564383
 20
5.2582977873
 30
0.0
 10
11.2904198712
 20
5.2537032928
 30
0.0
 10
11.2784864465
 20
5.2492112206
 30
0.0
 10
11.2659699498
 20
5.244826311
 30
0.0
 10
11.2482133683
 20
5.2390286153
 30
0.0
 10
11.2246499573
 20
5.2321163293
 30
0.0
 10
11.1947653018
 20
5.2244623202
 30
0.0
 10
11.1629374331
 20
5.2173481278
 30
0.0
 10
11.1293128898
 20
5.2108068876
 30
0.0
 10
11.0940461753
 20
5.2048690064
 30
0.0
 10
11.0572997248
 20
5.1995627736
 30
0.0
 10
11.0192429519
 20
5.1949126711
 30
0.0
 10
10.9800514409
 20
5.1909404716
 30
0.0
 10
10.9399060616
 20
5.1876650553
 30
0.0
 10
10.8989921892
 20
5.1851012981
 30
0.0
 10
10.8574987966
 20
5.1832614531
 30
0.0
 10
10.815617518
 20
5.1821541343
 30
0.0
 10
10.7735418278
 20
5.1817842075
 30
0.0
 10
10.7314660992
 20
5.1821537988
 30
0.0
 10
10.6895846911
 20
5.1832609343
 30
0.0
 10
10.6480911017
 20
5.1851003779
 30
0.0
 10
10.6071769809
 20
5.1876638923
 30
0.0
 10
10.5670312657
 20
5.190939095
 30
0.0
 10
10.5278393333
 20
5.1949108926
 30
0.0
 10
10.4897820717
 20
5.1995608403
 30
0.0
 10
10.4530350627
 20
5.2048667975
 30
0.0
 10
10.417767735
 20
5.2108043529
 30
0.0
 10
10.3841425269
 20
5.2173455011
 30
0.0
 10
10.3523138998
 20
5.2244593453
 30
0.0
 10
10.3224284474
 20
5.2321131748
 30
0.0
 10
10.298864358
 20
5.2390253663
 30
0.0
 10
10.2811071531
 20
5.2448229254
 30
0.0
 10
10.2685901694
 20
5.2492076464
 30
0.0
 10
10.2566563764
 20
5.2536997481
 30
0.0
 10
10.2453193632
 20
5.2582940778
 30
0.0
 10
10.2345921019
 20
5.2629849665
 30
0.0
 10
10.2276950572
 20
5.2662490184
 30
0.0
 10
10.2243541723
 20
5.2678993093
 30
0.0
  0
SPLINE
  5
2BD
100
AcDbEntity
  8
0
100
AcDbSpline
 62
7
  6
CONTINUOUS
 70
0
 71
3
 72
21
 73
17
 74
0
 42
0.0000001
 43
0.0000001
 44
0.0000000001
 40
0.0
 40
0.0
 40
0.0
 40
0.0
 40
0.1229777811
 40
0.1846429776
 40
0.2464399426
 40
0.3083804861
 40
0.3704752478
 40
0.4327329846
 40
0.4951582956
 40
0.5577522644
 40
0.6205120304
 40
0.6834304833
 40
0.7464981609
 40
0.8097030992
 40
0.8730318006
 40
1.0
 40
1.0
 40
1.0
 40
1.0
 10
10.9350914325
 20
5.2133336108
 30
0.0
 10
10.9087059699
 20
5.2079714453
 30
0.0
 10
10.8688752938
 20
5.2009044263
 30
0.0
 10
10.8153738169
 20
5.1938654355
 30
0.0
 10
10.774970275
 20
5.1898748177
 30
0.0
 10
10.7343583294
 20
5.1872804031
 30
0.0
 10
10.6935768173
 20
5.1861701341
 30
0.0
 10
10.652675855
 20
5.1866138381
 30
0.0
 10
10.6117136505
 20
5.1886535035
 30
0.0
 10
10.5707528184
 20
5.1922995254
 30
0.0
 10
10.5298559432
 20
5.1975324448
 30
0.0
 10
10.489080782
 20
5.2043019058
 30
0.0
 10
10.4484766257
 20
5.2125310582
 30
0.0
 10
10.4080818092
 20
5.2221264958
 30
0.0
 10
10.3544970353
 20
5.2366121549
 30
0.0
 10
10.3147499287
 20
5.249184813
 30
0.0
 10
10.2884465585
 20
5.2581785851
 30
0.0
  0
SPLINE
  5
2BE
100
AcDbEntity
  8
0
100
AcDbSpline
 62
7
  6
CONTINUOUS
 70
0
 71
3
 72
11
 73
7
 74
0
 42
0.0000001
 43
0.0000001
 44
0.0000000001
 40
0.0
 40
0.0
 40
0.0
 40
0.0
 40
0.2458763181
 40
0.4934036376
 40
0.7441674805
 40
1.0
 40
1.0
 40
1.0
 40
1.0
 10
10.2564537632
 20
5.2664589193
 30
0.0
 10
10.2538320696
 20
5.2663243299
 30
0.0
 10
10.2485591633
 20
5.2662427065
 30
0.0
 10
10.2406207718
 20
5.266728661
 30
0.0
 10
10.232641377
 20
5.2678674278
 30
0.0
 10
10.2273617646
 20
5.2690765729
 30
0.0
 10
10.2247270015
 20
5.2697968623
 30
0.0
  0
SPLINE
  5
2BF
100
AcDbEntity
  8
0
100
AcDbSpline
 62
7
  6
CONTINUOUS
 70
0
 71
3
 72
9
 73
5
 74
0
 42
0.0000001
 43
0.0000001
 44
0.0000000001
 40
0.0
 40
0.0
 40
0.0
 40
0.0
 40
0.489721828
 40
1.0
 40
1.0
 40
1.0
 40
1.0
 10
10.2247270015
 20
5.2697968623
 30
0.0
 10
10.2215950911
 20
5.2706530614
 30
0.0
 10
10.2152831219
 20
5.2727200381
 30
0.0
 10
10.2092006501
 20
5.2753860707
 30
0.0
 10
10.2061669715
 20
5.276883507
 30
0.0
  0
LINE
  5
2C0
100
AcDbEntity
  8
0
100
AcDbLine
 62
7
  6
CONTINUOUS
 10
11.3224227799
 20
5.2685219124
 11
11.3215494393
 21
5.2681345118
  0
SPLINE
  5
2C1
100
AcDbEntity
  8
0
100
AcDbSpline
 62
7
  6
CONTINUOUS
 70
0
 71
3
 72
15
 73
11
 74
0
 42
0.0000001
 43
0.0000001
 44
0.0000000001
 40
0.0
 40
0.0
 40
0.0
 40
0.0
 40
0.1323376899
 40
0.2620788828
 40
0.389339691
 40
0.5143818274
 40
0.6375722641
 40
0.7593203908
 40
0.880018331
 40
1.0
 40
1.0
 40
1.0
 40
1.0
 10
11.3215494393
 20
5.2681345118
 30
0.0
 10
11.3073914102
 20
5.2618643834
 30
0.0
 10
11.2789817759
 20
5.2502605375
 30
0.0
 10
11.2357345349
 20
5.2358347231
 30
0.0
 10
11.1923938467
 20
5.224727093
 30
0.0
 10
11.1491070771
 20
5.2169771089
 30
0.0
 10
11.1060133954
 20
5.2124833546
 30
0.0
 10
11.0632239237
 20
5.2110265114
 30
0.0
 10
11.0208117003
 20
5.212310483
 30
0.0
 10
10.9927433865
 20
5.2147808696
 30
0.0
 10
10.9787943914
 20
5.2163644266
 30
0.0
  0
SPLINE
  5
2C2
100
AcDbEntity
  8
0
100
AcDbSpline
 62
7
  6
CONTINUOUS
 70
0
 71
3
 72
88
 73
84
 74
0
 42
0.0000001
 43
0.0000001
 44
0.0000000001
 40
0.0
 40
0.0
 40
0.0
 40
0.0
 40
0.0039801792
 40
0.0081241172
 40
0.01243598
 40
0.0169193385
 40
0.0215772134
 40
0.0264119561
 40
0.0314252255
 40
0.0366182092
 40
0.0419916017
 40
0.0475457243
 40
0.053280501
 40
0.0591955014
 40
0.0652900157
 40
0.0715630029
 40
0.0846386851
 40
0.0984100077
 40
0.1128605893
 40
0.1279711259
 40
0.1437197291
 40
0.1600822028
 40
0.1770322731
 40
0.1945417833
 40
0.2125808723
 40
0.2311181302
 40
0.2501207382
 40
0.2695545985
 40
0.2893844555
 40
0.3095740089
 40
0.3300860277
 40
0.35088246
 40
0.3719245384
 40
0.3931728831
 40
0.414587604
 40
0.4361284004
 40
0.4577546627
 40
0.5010994726
 40
0.5442955201
 40
0.5657361769
 40
0.587017759
 40
0.608100294
 40
0.6289443019
 40
0.6495108962
 40
0.669761887
 40
0.689659886
 40
0.7091684153
 40
0.7282520213
 40
0.7468763866
 40
0.7650084505
 40
0.7826165366
 40
0.799670491
 40
0.8161418345
 40
0.8320039374
 40
0.8472322097
 40
0.8618043242
 40
0.8757004836
 40
0.8889037463
 40
0.8952413481
 40
0.9014009118
 40
0.907381298
 40
0.9131816928
 40
0.9188015488
 40
0.924240662
 40
0.9294992036
 40
0.9345777127
 40
0.9394772236
 40
0.9441992168
 40
0.9487457712
 40
0.9531195672
 40
0.9573239867
 40
0.961363225
 40
0.9652423269
 40
0.9689673822
 40
0.972545554
 40
0.9759852689
 40
0.9824864512
 40
0.9855753166
 40
0.9885737897
 40
0.9914977186
 40
0.9943643246
 40
0.9971920049
 40
1.0
 40
1.0
 40
1.0
 40
1.0
 10
11.9818205185
 20
11.3124744806
 30
0.0
 10
11.9802717203
 20
11.3109784564
 30
0.0
 10
11.9770400654
 20
11.3079969857
 30
0.0
 10
11.9719091875
 20
11.3036423177
 30
0.0
 10
11.9664015275
 20
11.2993188781
 30
0.0
 10
11.9605201079
 20
11.2950289786
 30
0.0
 10
11.9542678059
 20
11.2907746122
 30
0.0
 10
11.9476476742
 20
11.28655786
 30
0.0
 10
11.9406630282
 20
11.2823807272
 30
0.0
 10
11.9333173301
 20
11.2782453884
 30
0.0
 10
11.9256142892
 20
11.2741538363
 30
0.0
 10
11.9175577415
 20
11.2701081576
 30
0.0
 10
11.9091517277
 20
11.2661103681
 30
0.0
 10
11.9004004766
 20
11.2621624625
 30
0.0
 10
11.8913083613
 20
11.2582664517
 30
0.0
 10
11.8785604209
 20
11.25307162
 30
0.0
 10
11.8617958067
 20
11.2467360262
 30
0.0
 10
11.8406638218
 20
11.2394721752
 30
0.0
 10
11.8182905822
 20
11.2324605361
 30
0.0
 10
11.7947211985
 20
11.2257153596
 30
0.0
 10
11.7700029856
 20
11.2192503743
 30
0.0
 10
11.7441857343
 20
11.2130787483
 30
0.0
 10
11.7173214888
 20
11.2072130564
 30
0.0
 10
11.6894644637
 20
11.2016652443
 30
0.0
 10
11.6606709125
 20
11.1964466113
 30
0.0
 10
11.6309990079
 20
11.1915677846
 30
0.0
 10
11.6005087177
 20
11.1870386981
 30
0.0
 10
11.5692616811
 20
11.182868572
 30
0.0
 10
11.5373210821
 20
11.179065896
 30
0.0
 10
11.5047515215
 20
11.1756384066
 30
0.0
 10
11.4716188824
 20
11.1725930739
 30
0.0
 10
11.4379901926
 20
11.169936091
 30
0.0
 10
11.4039334893
 20
11.1676728618
 30
0.0
 10
11.3695176744
 20
11.1658079869
 30
0.0
 10
11.3348123989
 20
11.1643452685
 30
0.0
 10
11.299887834
 20
11.16328765
 30
0.0
 10
11.2530907365
 20
11.1624200344
 30
0.0
 10
11.1945650894
 20
11.1623584603
 30
0.0
 10
11.1361541211
 20
11.1636552046
 30
0.0
 10
11.0897071826
 20
11.1655119511
 30
0.0
 10
11.0552334958
 20
11.1673039715
 30
0.0
 10
11.0211063451
 20
11.1694950705
 30
0.0
 10
10.9873947275
 20
11.1720808269
 30
0.0
 10
10.9541668613
 20
11.1750559731
 30
0.0
 10
10.9214899648
 20
11.1784144611
 30
0.0
 10
10.8894301406
 20
11.1821494606
 30
0.0
 10
10.858052232
 20
11.1862533737
 30
0.0
 10
10.8274196906
 20
11.1907178458
 30
0.0
 10
10.7975944457
 20
11.1955337884
 30
0.0
 10
10.7686367787
 20
11.200691396
 30
0.0
 10
10.7406051979
 20
11.206180166
 30
0.0
 10
10.7135563153
 20
11.2119889197
 30
0.0
 10
10.6875447254
 20
11.2181058275
 30
0.0
 10
10.6626228745
 20
11.2245184263
 30
0.0
 10
10.6388409751
 20
11.2312136537
 30
0.0
 10
10.6162467877
 20
11.23817788
 30
0.0
 10
10.594885879
 20
11.2453969481
 30
0.0
 10
10.577924496
 20
11.251695934
 30
0.0
 10
10.5650151402
 20
11.2568626819
 30
0.0
 10
10.5558001808
 20
11.2607393301
 30
0.0
 10
10.5469244421
 20
11.2646685925
 30
0.0
 10
10.5383923599
 20
11.2686484632
 30
0.0
 10
10.5302082301
 20
11.2726769621
 30
0.0
 10
10.5223761601
 20
11.2767520709
 30
0.0
 10
10.5149000573
 20
11.280871709
 30
0.0
 10
10.5077836887
 20
11.2850338879
 30
0.0
 10
10.5010305717
 20
11.2892364581
 30
0.0
 10
10.4946441066
 20
11.2934774185
 30
0.0
 10
10.488627447
 20
11.2977546357
 30
0.0
 10
10.4829835897
 20
11.3020660431
 30
0.0
 10
10.4777153591
 20
11.3064095936
 30
0.0
 10
10.4728253436
 20
11.3107831459
 30
0.0
 10
10.4683160331
 20
11.3151847758
 30
0.0
 10
10.4641897398
 20
11.3196122088
 30
0.0
 10
10.4604483169
 20
11.3240640285
 30
0.0
 10
10.4560592247
 20
11.3299176136
 30
0.0
 10
10.4523322018
 20
11.33592901
 30
0.0
 10
10.4493730665
 20
11.3420687426
 30
0.0
 10
10.4475851959
 20
11.3466095477
 30
0.0
 10
10.4461928701
 20
11.3511613854
 30
0.0
 10
10.4451973215
 20
11.3557220746
 30
0.0
 10
10.4445995645
 20
11.3602883409
 30
0.0
 10
10.4444664837
 20
11.3633389687
 30
0.0
 10
10.4444664793
 20
11.3648581371
 30
0.0
  0
SPLINE
  5
2C3
100
AcDbEntity
  8
0
100
AcDbSpline
 62
7
  6
CONTINUOUS
 70
0
 71
3
 72
31
 73
27
 74
0
 42
0.0000001
 43
0.0000001
 44
0.0000000001
 40
0.0
 40
0.0
 40
0.0
 40
0.0
 40
0.076277662
 40
0.1537880851
 40
0.2318266316
 40
0.3096794495
 40
0.3866359079
 40
0.4619957237
 40
0.5350773586
 40
0.6052266956
 40
0.6390081512
 40
0.671828261
 40
0.7036169917
 40
0.7343079699
 40
0.7638385787
 40
0.7921505611
 40
0.8191906299
 40
0.844910735
 40
0.8692690202
 40
0.8922307876
 40
0.9137693187
 40
0.9338676935
 40
0.9525208479
 40
0.9697380628
 40
0.9855471934
 40
1.0
 40
1.0
 40
1.0
 40
1.0
 10
12.6389947581
 20
10.5571466728
 30
0.0
 10
12.6389947581
 20
10.5635298636
 30
0.0
 10
12.6391664795
 20
10.5763999631
 30
0.0
 10
12.6399156937
 20
10.5957874825
 30
0.0
 10
12.6411522044
 20
10.6152822166
 30
0.0
 10
12.6428640492
 20
10.6346944134
 30
0.0
 10
12.6450344724
 20
10.6538351839
 30
0.0
 10
12.6476421538
 20
10.6725184062
 30
0.0
 10
12.6506614989
 20
10.6905622947
 30
0.0
 10
12.6535305841
 20
10.7050974365
 30
0.0
 10
12.6560186607
 20
10.7162679621
 30
0.0
 10
12.6579446789
 20
10.7242736233
 30
0.0
 10
12.6599493394
 20
10.7319930635
 30
0.0
 10
12.6620277352
 20
10.7394075336
 30
0.0
 10
12.6641747806
 20
10.7464990152
 30
0.0
 10
12.666385223
 20
10.7532502996
 30
0.0
 10
12.6686536178
 20
10.7596450387
 30
0.0
 10
12.6709744298
 20
10.7656677689
 30
0.0
 10
12.6733419897
 20
10.7713039742
 30
0.0
 10
12.675750498
 20
10.7765401473
 30
0.0
 10
12.6781941396
 20
10.7813637961
 30
0.0
 10
12.6806670685
 20
10.7857635407
 30
0.0
 10
12.6831633954
 20
10.7897291125
 30
0.0
 10
12.6856775982
 20
10.793251544
 30
0.0
 10
12.6882038614
 20
10.7963225255
 30
0.0
 10
12.6899696333
 20
10.798143559
 30
0.0
 10
12.6908549775
 20
10.7989675533
 30
0.0
  0
SPLINE
  5
2C4
100
AcDbEntity
  8
0
100
AcDbSpline
 62
7
  6
CONTINUOUS
 70
0
 71
3
 72
31
 73
27
 74
0
 42
0.0000001
 43
0.0000001
 44
0.0000000001
 40
0.0
 40
0.0
 40
0.0
 40
0.0
 40
0.076277662
 40
0.1537880851
 40
0.2318266316
 40
0.3096794495
 40
0.3866359079
 40
0.4619957237
 40
0.5350773586
 40
0.6052266956
 40
0.6390081512
 40
0.671828261
 40
0.7036169917
 40
0.7343079699
 40
0.7638385787
 40
0.7921505611
 40
0.8191906299
 40
0.844910735
 40
0.8692690202
 40
0.8922307876
 40
0.9137693187
 40
0.9338676935
 40
0.9525208479
 40
0.9697380628
 40
0.9855471934
 40
1.0
 40
1.0
 40
1.0
 40
1.0
 10
12.6389947581
 20
6.6934429373
 30
0.0
 10
12.6389947581
 20
6.699826128
 30
0.0
 10
12.6391664795
 20
6.7126962275
 30
0.0
 10
12.6399156937
 20
6.7320837469
 30
0.0
 10
12.6411522044
 20
6.751578481
 30
0.0
 10
12.6428640492
 20
6.7709906778
 30
0.0
 10
12.6450344724
 20
6.7901314483
 30
0.0
 10
12.6476421538
 20
6.8088146706
 30
0.0
 10
12.6506614989
 20
6.8268585591
 30
0.0
 10
12.6535305841
 20
6.8413937009
 30
0.0
 10
12.6560186607
 20
6.8525642265
 30
0.0
 10
12.6579446789
 20
6.8605698877
 30
0.0
 10
12.6599493394
 20
6.8682893279
 30
0.0
 10
12.6620277352
 20
6.875703798
 30
0.0
 10
12.6641747806
 20
6.8827952796
 30
0.0
 10
12.666385223
 20
6.889546564
 30
0.0
 10
12.6686536178
 20
6.8959413032
 30
0.0
 10
12.6709744298
 20
6.9019640333
 30
0.0
 10
12.6733419897
 20
6.9076002386
 30
0.0
 10
12.675750498
 20
6.9128364117
 30
0.0
 10
12.6781941396
 20
6.9176600605
 30
0.0
 10
12.6806670685
 20
6.9220598052
 30
0.0
 10
12.6831633954
 20
6.9260253769
 30
0.0
 10
12.6856775982
 20
6.9295478084
 30
0.0
 10
12.6882038614
 20
6.9326187899
 30
0.0
 10
12.6899696333
 20
6.9344398234
 30
0.0
 10
12.6908549775
 20
6.9352638177
 30
0.0
  0
SPLINE
  5
2C5
100
AcDbEntity
  8
0
100
AcDbSpline
 62
7
  6
CONTINUOUS
 70
0
 71
3
 72
23
 73
19
 74
0
 42
0.0000001
 43
0.0000001
 44
0.0000000001
 40
0.0
 40
0.0
 40
0.0
 40
0.0
 40
0.0637775561
 40
0.1273446565
 40
0.1907020307
 40
0.2538561431
 40
0.3168131834
 40
0.3795821015
 40
0.4421733894
 40
0.5045993415
 40
0.5668738676
 40
0.6290123791
 40
0.6910316472
 40
0.7529496401
 40
0.8147853492
 40
0.8765585998
 40
0.9382898533
 40
1.0
 40
1.0
 40
1.0
 40
1.0
 10
11.0293846639
 20
9.100603211
 30
0.0
 10
11.0293846639
 20
9.0909601404
 30
0.0
 10
11.0289231337
 20
9.0717025508
 30
0.0
 10
11.026839868
 20
9.04293326
 30
0.0
 10
11.0233713201
 20
9.0143920977
 30
0.0
 10
11.0185256277
 20
8.9861458865
 30
0.0
 10
11.0123137441
 20
8.958259351
 30
0.0
 10
11.0047499987
 20
8.9307969024
 30
0.0
 10
10.9958517268
 20
8.9038218252
 30
0.0
 10
10.9856393888
 20
8.8773963359
 30
0.0
 10
10.9741364814
 20
8.8515813755
 30
0.0
 10
10.9613694831
 20
8.8264364857
 30
0.0
 10
10.9473677971
 20
8.8020196728
 30
0.0
 10
10.9321636628
 20
8.778387253
 30
0.0
 10
10.9157921645
 20
8.7555937988
 30
0.0
 10
10.8982908445
 20
8.7336917237
 30
0.0
 10
10.8797007602
 20
8.7127322311
 30
0.0
 10
10.8666076036
 20
8.6994174405
 30
0.0
 10
10.8598966038
 20
8.6929351288
 30
0.0
  0
SPLINE
  5
2C6
100
AcDbEntity
  8
0
100
AcDbSpline
 62
7
  6
CONTINUOUS
 70
0
 71
3
 72
34
 73
30
 74
0
 42
0.0000001
 43
0.0000001
 44
0.0000000001
 40
0.0
 40
0.0
 40
0.0
 40
0.0
 40
0.0638368324
 40
0.0953861242
 40
0.1267243265
 40
0.1888611832
 40
0.2504336506
 40
0.2810630925
 40
0.3116114509
 40
0.3725293143
 40
0.4333404812
 40
0.463756953
 40
0.4942018904
 40
0.5246940812
 40
0.5552527058
 40
0.5858969376
 40
0.6166462327
 40
0.6475201483
 40
0.6785378938
 40
0.7097182022
 40
0.7410790619
 40
0.7726372486
 40
0.8044077885
 40
0.8364035363
 40
0.8686346768
 40
0.9011083869
 40
0.933827886
 40
0.9667934884
 40
1.0
 40
1.0
 40
1.0
 40
1.0
 10
10.5781406834
 20
9.6414892778
 30
0.0
 10
10.580886035
 20
9.6266573601
 30
0.0
 10
10.5854985801
 20
9.6045839831
 30
0.0
 10
10.5927281914
 20
9.5755238069
 30
0.0
 10
10.6006053277
 20
9.5470485619
 30
0.0
 10
10.6117962551
 20
9.5121430243
 30
0.0
 10
10.6249249081
 20
9.4780947276
 30
0.0
 10
10.6366029131
 20
9.4515404642
 30
0.0
 10
10.6490525983
 20
9.4255106069
 30
0.0
 10
10.6661690546
 20
9.3938286601
 30
0.0
 10
10.6854444807
 20
9.3634428016
 30
0.0
 10
10.7021778034
 20
9.3400573312
 30
0.0
 10
10.7154058243
 20
9.3229925516
 30
0.0
 10
10.7293189607
 20
9.3064375669
 30
0.0
 10
10.7439254634
 20
9.2904266306
 30
0.0
 10
10.7592315813
 20
9.2749969541
 30
0.0
 10
10.7752412939
 20
9.2601881121
 30
0.0
 10
10.7919558641
 20
9.2460420897
 30
0.0
 10
10.8093732371
 20
9.2326029877
 30
0.0
 10
10.8274874355
 20
9.2199166679
 30
0.0
 10
10.8462880341
 20
9.2080303201
 30
0.0
 10
10.8657595569
 20
9.1969918933
 30
0.0
 10
10.8858808957
 20
9.1868493438
 30
0.0
 10
10.9066248356
 20
9.1776497534
 30
0.0
 10
10.9279578032
 20
9.1694383256
 30
0.0
 10
10.9498395712
 20
9.1622574395
 30
0.0
 10
10.9722238041
 20
9.1561452122
 30
0.0
 10
10.9950569103
 20
9.1511350048
 30
0.0
 10
11.0104863444
 20
9.1485563043
 30
0.0
 10
11.0182551575
 20
9.1474563943
 30
0.0
  0
SPLINE
  5
2C7
100
AcDbEntity
  8
0
100
AcDbSpline
 62
7
  6
CONTINUOUS
 70
0
 71
3
 72
39
 73
35
 74
0
 42
0.0000001
 43
0.0000001
 44
0.0000000001
 40
0.0
 40
0.0
 40
0.0
 40
0.0
 40
0.0381658944
 40
0.0759747405
 40
0.113396326
 40
0.1504081267
 40
0.1869916759
 40
0.2231344638
 40
0.2588288089
 40
0.2940715729
 40
0.3288634358
 40
0.3632080508
 40
0.3971111448
 40
0.4305796378
 40
0.4636209783
 40
0.496242376
 40
0.5284498468
 40
0.5602476363
 40
0.6226050714
 40
0.6833064393
 40
0.7130171341
 40
0.7422733113
 40
0.7710493693
 40
0.7993130006
 40
0.8270236103
 40
0.8541311183
 40
0.8805761701
 40
0.9062875161
 40
0.9311826365
 40
0.9551682997
 40
0.9667894117
 40
0.9781440993
 40
0.9892186531
 40
1.0
 40
1.0
 40
1.0
 40
1.0
 10
10.6441111349
 20
8.7497538599
 30
0.0
 10
10.6371051339
 20
8.7502397277
 30
0.0
 10
10.6231789237
 20
8.7515326443
 30
0.0
 10
10.6025102052
 20
8.7544489018
 30
0.0
 10
10.5822139637
 20
8.758317443
 30
0.0
 10
10.5623488521
 20
8.7631143435
 30
0.0
 10
10.542967501
 20
8.7688094251
 30
0.0
 10
10.5241171892
 20
8.7753666471
 30
0.0
 10
10.505838998
 20
8.7827454496
 30
0.0
 10
10.4881678364
 20
8.7909016775
 30
0.0
 10
10.471132508
 20
8.7997886052
 30
0.0
 10
10.4547560914
 20
8.8093579062
 30
0.0
 10
10.439056455
 20
8.8195604585
 30
0.0
 10
10.4240468491
 20
8.8303469916
 30
0.0
 10
10.4097364464
 20
8.8416685594
 30
0.0
 10
10.3961311539
 20
8.8534767871
 30
0.0
 10
10.3832339231
 20
8.8657246088
 30
0.0
 10
10.3670906396
 20
8.8824675651
 30
0.0
 10
10.3486542526
 20
8.9042430214
 30
0.0
 10
10.3323399482
 20
8.9271778027
 30
0.0
 10
10.320715901
 20
8.9458857472
 30
0.0
 10
10.3127627878
 20
8.9599418643
 30
0.0
 10
10.3055145263
 20
8.9740751444
 30
0.0
 10
10.2989738716
 20
8.9882368821
 30
0.0
 10
10.2931460042
 20
9.0023750369
 30
0.0
 10
10.2880385649
 20
9.016433733
 30
0.0
 10
10.2836619691
 20
9.0303518517
 30
0.0
 10
10.2800299255
 20
9.0440622803
 30
0.0
 10
10.2771596485
 20
9.0574899748
 30
0.0
 10
10.2754010716
 20
9.0684892691
 30
0.0
 10
10.2744081381
 20
9.0770744112
 30
0.0
 10
10.2738772103
 20
9.0833184822
 30
0.0
 10
10.2735557318
 20
9.0894220822
 30
0.0
 10
10.2734824527
 20
9.0934440958
 30
0.0
 10
10.2734835155
 20
9.0954279491
 30
0.0
  0
SPLINE
  5
2C8
100
AcDbEntity
  8
0
100
AcDbSpline
 62
7
  6
CONTINUOUS
 70
0
 71
3
 72
15
 73
11
 74
0
 42
0.0000001
 43
0.0000001
 44
0.0000000001
 40
0.0
 40
0.0
 40
0.0
 40
0.0
 40
0.1273482888
 40
0.2538606703
 40
0.3795878487
 40
0.5046051206
 40
0.6290174369
 40
0.7529533749
 40
0.8765605786
 40
1.0
 40
1.0
 40
1.0
 40
1.0
 10
9.5114347188
 20
9.7871360405
 30
0.0
 10
9.5114347188
 20
9.780914844
 30
0.0
 10
9.5108407135
 20
9.7685046861
 30
0.0
 10
9.508154422
 20
9.7501281428
 30
0.0
 10
9.5037000848
 20
9.7322133305
 30
0.0
 10
9.4975179393
 20
9.7149277984
 30
0.0
 10
9.4896646855
 20
9.6984309553
 30
0.0
 10
9.4802119653
 20
9.6828751162
 30
0.0
 10
9.4692486313
 20
9.6684060428
 30
0.0
 10
9.4609937917
 20
9.6595675102
 30
0.0
 10
9.4566564988
 20
9.6553780353
 30
0.0
  0
SPLINE
  5
2C9
100
AcDbEntity
  8
0
100
AcDbSpline
 62
7
  6
CONTINUOUS
 70
0
 71
3
 72
23
 73
19
 74
0
 42
0.0000001
 43
0.0000001
 44
0.0000000001
 40
0.0
 40
0.0
 40
0.0
 40
0.0
 40
0.0614488463
 40
0.1232975066
 40
0.1855192794
 40
0.248071275
 40
0.3108995332
 40
0.3739401515
 40
0.4371217402
 40
0.5003679843
 40
0.5636003164
 40
0.6267406523
 40
0.6897141155
 40
0.7524516761
 40
0.8148926497
 40
0.8769870681
 40
0.9386966966
 40
1.0
 40
1.0
 40
1.0
 40
1.0
 10
9.3163176903
 20
9.9957844808
 30
0.0
 10
9.3227218825
 20
9.9953403486
 30
0.0
 10
9.3355366702
 20
9.9938180681
 30
0.0
 10
9.3545005965
 20
9.9896835884
 30
0.0
 10
9.373096945
 20
9.983730407
 30
0.0
 10
9.3911447941
 20
9.9760162067
 30
0.0
 10
9.4084715638
 20
9.9666155576
 30
0.0
 10
9.4249108776
 20
9.9556190619
 30
0.0
 10
9.44030505
 20
9.943132448
 30
0.0
 10
9.4545063779
 20
9.9292757102
 30
0.0
 10
9.4673786011
 20
9.9141819202
 30
0.0
 10
9.4787980646
 20
9.8979958868
 30
0.0
 10
9.4886549794
 20
9.880872908
 30
0.0
 10
9.4968545108
 20
9.8629772357
 30
0.0
 10
9.5033175514
 20
9.8444807346
 30
0.0
 10
9.5079814563
 20
9.8255603342
 30
0.0
 10
9.5108010499
 20
9.8064001386
 30
0.0
 10
9.5114347188
 20
9.7935404096
 30
0.0
 10
9.5114347188
 20
9.7871360405
 30
0.0
  0
SPLINE
  5
2CA
100
AcDbEntity
  8
0
100
AcDbSpline
 62
7
  6
CONTINUOUS
 70
0
 71
3
 72
15
 73
11
 74
0
 42
0.0000001
 43
0.0000001
 44
0.0000000001
 40
0.0
 40
0.0
 40
0.0
 40
0.0
 40
0.1273482888
 40
0.2538606703
 40
0.3795878487
 40
0.5046051206
 40
0.6290174369
 40
0.7529533749
 40
0.8765605786
 40
1.0
 40
1.0
 40
1.0
 40
1.0
 10
11.7446552813
 20
9.6322616684
 30
0.0
 10
11.7446552813
 20
9.6260404719
 30
0.0
 10
11.744061276
 20
9.6136303141
 30
0.0
 10
11.7413749846
 20
9.5952537708
 30
0.0
 10
11.7369206474
 20
9.5773389584
 30
0.0
 10
11.7307385018
 20
9.5600534263
 30
0.0
 10
11.722885248
 20
9.5435565833
 30
0.0
 10
11.7134325279
 20
9.5280007441
 30
0.0
 10
11.7024691939
 20
9.5135316707
 30
0.0
 10
11.6942143542
 20
9.5046931381
 30
0.0
 10
11.6898770614
 20
9.5005036633
 30
0.0
  0
SPLINE
  5
2CB
100
AcDbEntity
  8
0
100
AcDbSpline
 62
7
  6
CONTINUOUS
 70
0
 71
3
 72
23
 73
19
 74
0
 42
0.0000001
 43
0.0000001
 44
0.0000000001
 40
0.0
 40
0.0
 40
0.0
 40
0.0
 40
0.0614488463
 40
0.1232975066
 40
0.1855192794
 40
0.248071275
 40
0.3108995332
 40
0.3739401515
 40
0.4371217402
 40
0.5003679843
 40
0.5636003164
 40
0.6267406523
 40
0.6897141155
 40
0.7524516761
 40
0.8148926497
 40
0.8769870681
 40
0.9386966966
 40
1.0
 40
1.0
 40
1.0
 40
1.0
 10
11.5495382529
 20
9.8409101088
 30
0.0
 10
11.5559424451
 20
9.8404659766
 30
0.0
 10
11.5687572327
 20
9.838943696
 30
0.0
 10
11.5877211591
 20
9.8348092164
 30
0.0
 10
11.6063175076
 20
9.828856035
 30
0.0
 10
11.6243653566
 20
9.8211418346
 30
0.0
 10
11.6416921264
 20
9.8117411856
 30
0.0
 10
11.6581314402
 20
9.8007446899
 30
0.0
 10
11.6735256126
 20
9.788258076
 30
0.0
 10
11.6877269405
 20
9.7744013382
 30
0.0
 10
11.7005991636
 20
9.7593075481
 30
0.0
 10
11.7120186272
 20
9.7431215148
 30
0.0
 10
11.721875542
 20
9.725998536
 30
0.0
 10
11.7300750733
 20
9.7081028637
 30
0.0
 10
11.736538114
 20
9.6896063626
 30
0.0
 10
11.7412020188
 20
9.6706859622
 30
0.0
 10
11.7440216125
 20
9.6515257666
 30
0.0
 10
11.7446552813
 20
9.6386660376
 30
0.0
 10
11.7446552813
 20
9.6322616684
 30
0.0
  0
SPLINE
  5
2CC
100
AcDbEntity
  8
0
100
AcDbSpline
 62
7
  6
CONTINUOUS
 70
0
 71
3
 72
15
 73
11
 74
0
 42
0.0000001
 43
0.0000001
 44
0.0000000001
 40
0.0
 40
0.0
 40
0.0
 40
0.0
 40
0.1273482888
 40
0.2538606703
 40
0.3795878487
 40
0.5046051206
 40
0.6290174369
 40
0.7529533749
 40
0.8765605786
 40
1.0
 40
1.0
 40
1.0
 40
1.0
 10
11.7446552813
 20
8.4847415235
 30
0.0
 10
11.7446552813
 20
8.478520327
 30
0.0
 10
11.744061276
 20
8.4661101692
 30
0.0
 10
11.7413749846
 20
8.4477336258
 30
0.0
 10
11.7369206474
 20
8.4298188135
 30
0.0
 10
11.7307385018
 20
8.4125332814
 30
0.0
 10
11.722885248
 20
8.3960364384
 30
0.0
 10
11.7134325279
 20
8.3804805992
 30
0.0
 10
11.7024691939
 20
8.3660115258
 30
0.0
 10
11.6942143542
 20
8.3571729932
 30
0.0
 10
11.6898770614
 20
8.3529835183
 30
0.0
  0
SPLINE
  5
2CD
100
AcDbEntity
  8
0
100
AcDbSpline
 62
7
  6
CONTINUOUS
 70
0
 71
3
 72
23
 73
19
 74
0
 42
0.0000001
 43
0.0000001
 44
0.0000000001
 40
0.0
 40
0.0
 40
0.0
 40
0.0
 40
0.0614488463
 40
0.1232975066
 40
0.1855192794
 40
0.248071275
 40
0.3108995332
 40
0.3739401515
 40
0.4371217402
 40
0.5003679843
 40
0.5636003164
 40
0.6267406523
 40
0.6897141155
 40
0.7524516761
 40
0.8148926497
 40
0.8769870681
 40
0.9386966966
 40
1.0
 40
1.0
 40
1.0
 40
1.0
 10
11.5495382529
 20
8.6933899639
 30
0.0
 10
11.5559424451
 20
8.6929458316
 30
0.0
 10
11.5687572327
 20
8.6914235511
 30
0.0
 10
11.5877211591
 20
8.6872890714
 30
0.0
 10
11.6063175076
 20
8.68133589
 30
0.0
 10
11.6243653566
 20
8.6736216897
 30
0.0
 10
11.6416921264
 20
8.6642210407
 30
0.0
 10
11.6581314402
 20
8.653224545
 30
0.0
 10
11.6735256126
 20
8.6407379311
 30
0.0
 10
11.6877269405
 20
8.6268811932
 30
0.0
 10
11.7005991636
 20
8.6117874032
 30
0.0
 10
11.7120186272
 20
8.5956013699
 30
0.0
 10
11.721875542
 20
8.5784783911
 30
0.0
 10
11.7300750733
 20
8.5605827187
 30
0.0
 10
11.736538114
 20
8.5420862177
 30
0.0
 10
11.7412020188
 20
8.5231658173
 30
0.0
 10
11.7440216125
 20
8.5040056217
 30
0.0
 10
11.7446552813
 20
8.4911458927
 30
0.0
 10
11.7446552813
 20
8.4847415235
 30
0.0
  0
SPLINE
  5
2CE
100
AcDbEntity
  8
0
100
AcDbSpline
 62
7
  6
CONTINUOUS
 70
0
 71
3
 72
15
 73
11
 74
0
 42
0.0000001
 43
0.0000001
 44
0.0000000001
 40
0.0
 40
0.0
 40
0.0
 40
0.0
 40
0.1273482888
 40
0.2538606703
 40
0.3795878487
 40
0.5046051206
 40
0.6290174369
 40
0.7529533749
 40
0.8765605786
 40
1.0
 40
1.0
 40
1.0
 40
1.0
 10
9.5114347188
 20
8.6396158956
 30
0.0
 10
9.5114347188
 20
8.6333946991
 30
0.0
 10
9.5108407135
 20
8.6209845412
 30
0.0
 10
9.508154422
 20
8.6026079979
 30
0.0
 10
9.5037000848
 20
8.5846931856
 30
0.0
 10
9.4975179393
 20
8.5674076535
 30
0.0
 10
9.4896646855
 20
8.5509108104
 30
0.0
 10
9.4802119653
 20
8.5353549713
 30
0.0
 10
9.4692486313
 20
8.5208858979
 30
0.0
 10
9.4609937917
 20
8.5120473652
 30
0.0
 10
9.4566564988
 20
8.5078578904
 30
0.0
  0
SPLINE
  5
2CF
100
AcDbEntity
  8
0
100
AcDbSpline
 62
7
  6
CONTINUOUS
 70
0
 71
3
 72
23
 73
19
 74
0
 42
0.0000001
 43
0.0000001
 44
0.0000000001
 40
0.0
 40
0.0
 40
0.0
 40
0.0
 40
0.0614488463
 40
0.1232975066
 40
0.1855192794
 40
0.248071275
 40
0.3108995332
 40
0.3739401515
 40
0.4371217402
 40
0.5003679843
 40
0.5636003164
 40
0.6267406523
 40
0.6897141155
 40
0.7524516761
 40
0.8148926497
 40
0.8769870681
 40
0.9386966966
 40
1.0
 40
1.0
 40
1.0
 40
1.0
 10
9.3163176903
 20
8.8482643359
 30
0.0
 10
9.3227218825
 20
8.8478202037
 30
0.0
 10
9.3355366702
 20
8.8462979232
 30
0.0
 10
9.3545005965
 20
8.8421634435
 30
0.0
 10
9.373096945
 20
8.8362102621
 30
0.0
 10
9.3911447941
 20
8.8284960617
 30
0.0
 10
9.4084715638
 20
8.8190954127
 30
0.0
 10
9.4249108776
 20
8.808098917
 30
0.0
 10
9.44030505
 20
8.7956123031
 30
0.0
 10
9.4545063779
 20
8.7817555653
 30
0.0
 10
9.4673786011
 20
8.7666617753
 30
0.0
 10
9.4787980646
 20
8.7504757419
 30
0.0
 10
9.4886549794
 20
8.7333527631
 30
0.0
 10
9.4968545108
 20
8.7154570908
 30
0.0
 10
9.5033175514
 20
8.6969605897
 30
0.0
 10
9.5079814563
 20
8.6780401893
 30
0.0
 10
9.5108010499
 20
8.6588799937
 30
0.0
 10
9.5114347188
 20
8.6460202647
 30
0.0
 10
9.5114347188
 20
8.6396158956
 30
0.0
  0
SPLINE
  5
2D0
100
AcDbEntity
  8
0
100
AcDbSpline
 62
7
  6
CONTINUOUS
 70
0
 71
3
 72
15
 73
11
 74
0
 42
0.0000001
 43
0.0000001
 44
0.0000000001
 40
0.0
 40
0.0
 40
0.0
 40
0.0
 40
0.1274480326
 40
0.2552068777
 40
0.3827676738
 40
0.5096222937
 40
0.6352662917
 40
0.7592014844
 40
0.8809386065
 40
1.0
 40
1.0
 40
1.0
 40
1.0
 10
10.8260929504
 20
8.7716495025
 30
0.0
 10
10.8152301731
 20
8.7719466643
 30
0.0
 10
10.7934725901
 20
8.7723555043
 30
0.0
 10
10.7608345339
 20
8.7724166496
 30
0.0
 10
10.7282505907
 20
8.7719269818
 30
0.0
 10
10.6958599283
 20
8.7708886072
 30
0.0
 10
10.6638007587
 20
8.7693060022
 30
0.0
 10
10.6322098464
 20
8.7671859851
 30
0.0
 10
10.60122214
 20
8.7645377098
 30
0.0
 10
10.5808004034
 20
8.7624011227
 30
0.0
 10
10.5707149429
 20
8.7612428382
 30
0.0
  0
SPLINE
  5
2D1
100
AcDbEntity
  8
0
100
AcDbSpline
 62
7
  6
CONTINUOUS
 70
0
 71
3
 72
18
 73
14
 74
0
 42
0.0000001
 43
0.0000001
 44
0.0000000001
 40
0.0
 40
0.0
 40
0.0
 40
0.0
 40
0.0548620934
 40
0.1099281175
 40
0.1653995415
 40
0.2214731583
 40
0.2783387419
 40
0.3361775034
 40
0.4554063124
 40
0.5804415574
 40
0.7123342032
 40
0.8519579354
 40
1.0
 40
1.0
 40
1.0
 40
1.0
 10
12.0084664759
 20
11.3648587855
 30
0.0
 10
12.0084664791
 20
11.3637543767
 30
0.0
 10
12.0083963832
 20
11.3615408195
 30
0.0
 10
12.0080812248
 20
11.3582240831
 30
0.0
 10
12.007556111
 20
11.3549092586
 30
0.0
 10
12.0068212188
 20
11.3515975577
 30
0.0
 10
12.005876853
 20
11.3482898109
 30
0.0
 10
12.0043235647
 20
11.3438417804
 30
0.0
 10
12.0018352115
 20
11.3382784888
 30
0.0
 10
11.9980477789
 20
11.3317082154
 30
0.0
 10
11.9934348764
 20
11.3251804659
 30
0.0
 10
11.9880035237
 20
11.3187018039
 30
0.0
 10
11.9839640272
 20
11.3145449511
 30
0.0
 10
11.9818205185
 20
11.3124744806
 30
0.0
  0
SPLINE
  5
2D2
100
AcDbEntity
  8
0
100
AcDbSpline
 62
7
  6
CONTINUOUS
 70
0
 71
3
 72
19
 73
15
 74
0
 42
0.0000001
 43
0.0000001
 44
0.0000000001
 40
0.0
 40
0.0
 40
0.0
 40
0.0
 40
0.1235735602
 40
0.2483846815
 40
0.311150522
 40
0.3740874166
 40
0.50024291
 40
0.6264128029
 40
0.6893606879
 40
0.7521225744
 40
0.8146323643
 40
0.8768234023
 40
0.9386338097
 40
1.0
 40
1.0
 40
1.0
 40
1.0
 10
10.9632687421
 20
8.8307191573
 30
0.0
 10
10.9512997338
 20
8.8239386421
 30
0.0
 10
10.9268637434
 20
8.8109643222
 30
0.0
 10
10.8953488337
 20
8.7965375713
 30
0.0
 10
10.8694653138
 20
8.7861458543
 30
0.0
 10
10.84311294
 20
8.7765614428
 30
0.0
 10
10.8095308972
 20
8.7662636164
 30
0.0
 10
10.7752781683
 20
8.7584500843
 30
0.0
 10
10.7476163049
 20
8.7538270174
 30
0.0
 10
10.7268220505
 20
8.7512074423
 30
0.0
 10
10.7060210923
 20
8.749458431
 30
0.0
 10
10.68526997
 20
8.7485991815
 30
0.0
 10
10.6646286255
 20
8.7486430661
 30
0.0
 10
10.6509260376
 20
8.7492812448
 30
0.0
 10
10.6441111349
 20
8.7497538599
 30
0.0
  0
SPLINE
  5
2D3
100
AcDbEntity
  8
0
100
AcDbSpline
 62
7
  6
CONTINUOUS
 70
0
 71
3
 72
39
 73
35
 74
0
 42
0.0000001
 43
0.0000001
 44
0.0000000001
 40
0.0
 40
0.0
 40
0.0
 40
0.0
 40
0.0299424701
 40
0.0599093174
 40
0.0899243244
 40
0.1200101043
 40
0.1501875649
 40
0.1804754189
 40
0.2108897652
 40
0.2414437446
 40
0.2721472716
 40
0.303006856
 40
0.3340255105
 40
0.3652027321
 40
0.396534568
 40
0.4280137546
 40
0.459629913
 40
0.4913698074
 40
0.5232176551
 40
0.555155472
 40
0.5871634555
 40
0.6192203971
 40
0.6513041118
 40
0.6833918814
 40
0.7154609078
 40
0.747488765
 40
0.7794538478
 40
0.811335806
 40
0.8431159644
 40
0.874777716
 40
0.9063068848
 40
0.9376920706
 40
0.9689246614
 40
1.0
 40
1.0
 40
1.0
 40
1.0
 10
9.9914653696
 20
9.5920052777
 30
0.0
 10
10.0018339141
 20
9.6020204974
 30
0.0
 10
10.0233863327
 20
9.6212426342
 30
0.0
 10
10.0579166516
 20
9.6474293764
 30
0.0
 10
10.0944721556
 20
9.6708386187
 30
0.0
 10
10.1328485859
 20
9.6913390562
 30
0.0
 10
10.1728349857
 20
9.7088186224
 30
0.0
 10
10.2142106444
 20
9.7231812893
 30
0.0
 10
10.2567475605
 20
9.7343484878
 30
0.0
 10
10.3002114029
 20
9.7422591777
 30
0.0
 10
10.3443628536
 20
9.7468704388
 30
0.0
 10
10.3889589597
 20
9.7481575068
 30
0.0
 10
10.4337544557
 20
9.7461138078
 30
0.0
 10
10.4785031005
 20
9.7407511712
 30
0.0
 10
10.5229590369
 20
9.7320996293
 30
0.0
 10
10.5668780927
 20
9.7202071297
 30
0.0
 10
10.6100191367
 20
9.7051394471
 30
0.0
 10
10.6521453909
 20
9.6869797454
 30
0.0
 10
10.6930256521
 20
9.6658279935
 30
0.0
 10
10.7324356024
 20
9.641800575
 30
0.0
 10
10.7701590393
 20
9.6150296295
 30
0.0
 10
10.8059889545
 20
9.5856621989
 30
0.0
 10
10.8397287289
 20
9.5538595534
 30
0.0
 10
10.8711932416
 20
9.5197963287
 30
0.0
 10
10.9002097469
 20
9.4836594487
 30
0.0
 10
10.9266188862
 20
9.445647202
 30
0.0
 10
10.9502756354
 20
9.4059682045
 30
0.0
 10
10.9710499345
 20
9.364840149
 30
0.0
 10
10.9888274581
 20
9.3224887154
 30
0.0
 10
11.0035103658
 20
9.2791462847
 30
0.0
 10
11.0150176684
 20
9.2350509697
 30
0.0
 10
11.0232856382
 20
9.190444051
 30
0.0
 10
11.0282685918
 20
9.1455736635
 30
0.0
 10
11.0293846639
 20
9.1155642884
 30
0.0
 10
11.0293846639
 20
9.100603211
 30
0.0
  0
SPLINE
  5
2D4
100
AcDbEntity
  8
0
100
AcDbSpline
 62
7
  6
CONTINUOUS
 70
0
 71
3
 72
21
 73
17
 74
0
 42
0.0000001
 43
0.0000001
 44
0.0000000001
 40
0.0
 40
0.0
 40
0.0
 40
0.0
 40
0.0616532317
 40
0.1233294898
 40
0.1850515414
 40
0.246841662
 40
0.3087213493
 40
0.3707111057
 40
0.4328302438
 40
0.4950966409
 40
0.5575265847
 40
0.6201345602
 40
0.6829331384
 40
0.745933256
 40
0.8725261412
 40
1.0
 40
1.0
 40
1.0
 40
1.0
 10
9.1759788818
 20
9.9459568694
 30
0.0
 10
9.1782457455
 20
9.9481464769
 30
0.0
 10
9.1828990508
 20
9.9524054831
 30
0.0
 10
9.1902137377
 20
9.9584107809
 30
0.0
 10
9.1978460265
 20
9.9640191699
 30
0.0
 10
9.2057764517
 20
9.9692162494
 30
0.0
 10
9.2139851221
 20
9.9739889533
 30
0.0
 10
9.2224512896
 20
9.9783253212
 30
0.0
 10
9.2311536382
 20
9.9822144356
 30
0.0
 10
9.240070257
 20
9.9856464588
 30
0.0
 10
9.2491786694
 20
9.9886128389
 30
0.0
 10
9.2584558656
 20
9.9911061172
 30
0.0
 10
9.2678787684
 20
9.9931199918
 30
0.0
 10
9.2806231517
 20
9.9951623322
 30
0.0
 10
9.296806492
 20
9.996489228
 30
0.0
 10
9.3098169206
 20
9.9962353107
 30
0.0
 10
9.3163176903
 20
9.9957844808
 30
0.0
  0
SPLINE
  5
2D5
100
AcDbEntity
  8
0
100
AcDbSpline
 62
7
  6
CONTINUOUS
 70
0
 71
3
 72
21
 73
17
 74
0
 42
0.0000001
 43
0.0000001
 44
0.0000000001
 40
0.0
 40
0.0
 40
0.0
 40
0.0
 40
0.0616532317
 40
0.1233294898
 40
0.1850515414
 40
0.246841662
 40
0.3087213493
 40
0.3707111057
 40
0.4328302438
 40
0.4950966409
 40
0.5575265847
 40
0.6201345602
 40
0.6829331384
 40
0.745933256
 40
0.8725261412
 40
1.0
 40
1.0
 40
1.0
 40
1.0
 10
11.4091994443
 20
9.7910824974
 30
0.0
 10
11.4114663081
 20
9.7932721048
 30
0.0
 10
11.4161196133
 20
9.797531111
 30
0.0
 10
11.4234343003
 20
9.8035364089
 30
0.0
 10
11.431066589
 20
9.8091447978
 30
0.0
 10
11.4389970142
 20
9.8143418774
 30
0.0
 10
11.4472056847
 20
9.8191145813
 30
0.0
 10
11.4556718521
 20
9.8234509492
 30
0.0
 10
11.4643742008
 20
9.8273400635
 30
0.0
 10
11.4732908196
 20
9.8307720867
 30
0.0
 10
11.4823992319
 20
9.8337384669
 30
0.0
 10
11.4916764282
 20
9.8362317452
 30
0.0
 10
11.501099331
 20
9.8382456198
 30
0.0
 10
11.5138437143
 20
9.8402879601
 30
0.0
 10
11.5300270545
 20
9.841614856
 30
0.0
 10
11.5430374831
 20
9.8413609387
 30
0.0
 10
11.5495382529
 20
9.8409101088
 30
0.0
  0
SPLINE
  5
2D6
100
AcDbEntity
  8
0
100
AcDbSpline
 62
7
  6
CONTINUOUS
 70
0
 71
3
 72
21
 73
17
 74
0
 42
0.0000001
 43
0.0000001
 44
0.0000000001
 40
0.0
 40
0.0
 40
0.0
 40
0.0
 40
0.0616532317
 40
0.1233294898
 40
0.1850515414
 40
0.246841662
 40
0.3087213493
 40
0.3707111057
 40
0.4328302438
 40
0.4950966409
 40
0.5575265847
 40
0.6201345602
 40
0.6829331384
 40
0.745933256
 40
0.8725261412
 40
1.0
 40
1.0
 40
1.0
 40
1.0
 10
11.4091994443
 20
8.6435623525
 30
0.0
 10
11.4114663081
 20
8.6457519599
 30
0.0
 10
11.4161196133
 20
8.6500109661
 30
0.0
 10
11.4234343003
 20
8.6560162639
 30
0.0
 10
11.431066589
 20
8.6616246529
 30
0.0
 10
11.4389970142
 20
8.6668217325
 30
0.0
 10
11.4472056847
 20
8.6715944364
 30
0.0
 10
11.4556718521
 20
8.6759308043
 30
0.0
 10
11.4643742008
 20
8.6798199186
 30
0.0
 10
11.4732908196
 20
8.6832519418
 30
0.0
 10
11.4823992319
 20
8.686218322
 30
0.0
 10
11.4916764282
 20
8.6887116003
 30
0.0
 10
11.501099331
 20
8.6907254749
 30
0.0
 10
11.5138437143
 20
8.6927678152
 30
0.0
 10
11.5300270545
 20
8.694094711
 30
0.0
 10
11.5430374831
 20
8.6938407938
 30
0.0
 10
11.5495382529
 20
8.6933899639
 30
0.0
  0
SPLINE
  5
2D7
100
AcDbEntity
  8
0
100
AcDbSpline
 62
7
  6
CONTINUOUS
 70
0
 71
3
 72
21
 73
17
 74
0
 42
0.0000001
 43
0.0000001
 44
0.0000000001
 40
0.0
 40
0.0
 40
0.0
 40
0.0
 40
0.0616532317
 40
0.1233294898
 40
0.1850515414
 40
0.246841662
 40
0.3087213493
 40
0.3707111057
 40
0.4328302438
 40
0.4950966409
 40
0.5575265847
 40
0.6201345602
 40
0.6829331384
 40
0.745933256
 40
0.8725261412
 40
1.0
 40
1.0
 40
1.0
 40
1.0
 10
9.1759788818
 20
8.7984367245
 30
0.0
 10
9.1782457455
 20
8.8006263319
 30
0.0
 10
9.1828990508
 20
8.8048853382
 30
0.0
 10
9.1902137377
 20
8.810890636
 30
0.0
 10
9.1978460265
 20
8.816499025
 30
0.0
 10
9.2057764517
 20
8.8216961045
 30
0.0
 10
9.2139851221
 20
8.8264688084
 30
0.0
 10
9.2224512896
 20
8.8308051763
 30
0.0
 10
9.2311536382
 20
8.8346942907
 30
0.0
 10
9.240070257
 20
8.8381263138
 30
0.0
 10
9.2491786694
 20
8.841092694
 30
0.0
 10
9.2584558656
 20
8.8435859723
 30
0.0
 10
9.2678787684
 20
8.8455998469
 30
0.0
 10
9.2806231517
 20
8.8476421873
 30
0.0
 10
9.296806492
 20
8.8489690831
 30
0.0
 10
9.3098169206
 20
8.8487151658
 30
0.0
 10
9.3163176903
 20
8.8482643359
 30
0.0
  0
LINE
  5
2D8
100
AcDbEntity
  8
0
100
AcDbLine
 62
7
  6
CONTINUOUS
 10
12.6546670857
 20
10.4348297571
 11
12.6545649574
 21
10.4348373234
  0
SPLINE
  5
2D9
100
AcDbEntity
  8
0
100
AcDbSpline
 62
7
  6
CONTINUOUS
 70
0
 71
3
 72
28
 73
24
 74
0
 42
0.0000001
 43
0.0000001
 44
0.0000000001
 40
0.0
 40
0.0
 40
0.0
 40
0.0
 40
0.0162145189
 40
0.0334275962
 40
0.0516721625
 40
0.070971352
 40
0.0913410552
 40
0.112790325
 40
0.1353227667
 40
0.1589373889
 40
0.1836287124
 40
0.209388193
 40
0.2640568884
 40
0.3228187597
 40
0.3855079255
 40
0.4519274553
 40
0.5218538976
 40
0.5950409226
 40
0.6712220742
 40
0.750114128
 40
0.8314167504
 40
0.9148213264
 40
1.0
 40
1.0
 40
1.0
 40
1.0
 10
12.6643207577
 20
10.4163480769
 30
0.0
 10
12.6638267633
 20
10.4169554622
 30
0.0
 10
12.6628499389
 20
10.4182418562
 30
0.0
 10
12.6614568338
 20
10.420313014
 30
0.0
 10
12.6600944003
 20
10.4225800658
 30
0.0
 10
12.6587639514
 20
10.4250405693
 30
0.0
 10
12.6574668406
 20
10.4276920933
 30
0.0
 10
12.6562043501
 20
10.4305319059
 30
0.0
 10
12.6549777733
 20
10.4335570976
 30
0.0
 10
12.6537884201
 20
10.4367645475
 30
0.0
 10
12.6526374497
 20
10.4401509249
 30
0.0
 10
12.6511256792
 20
10.4449966673
 30
0.0
 10
12.6493514824
 20
10.4514813806
 30
0.0
 10
12.6474334383
 20
10.4597679689
 30
0.0
 10
12.6456945875
 20
10.468672637
 30
0.0
 10
12.6441423955
 20
10.4781581166
 30
0.0
 10
12.6427835724
 20
10.4881848075
 30
0.0
 10
12.6416239855
 20
10.4987106584
 30
0.0
 10
12.6406686337
 20
10.5096914985
 30
0.0
 10
12.6399216669
 20
10.5210811172
 30
0.0
 10
12.6393862788
 20
10.5328317336
 30
0.0
 10
12.6390648497
 20
10.5448937133
 30
0.0
 10
12.6389947581
 20
10.5530338653
 30
0.0
 10
12.6389947581
 20
10.5571466728
 30
0.0
  0
LINE
  5
2DA
100
AcDbEntity
  8
0
100
AcDbLine
 62
7
  6
CONTINUOUS
 10
12.6546670857
 20
6.5711260215
 11
12.6545649574
 21
6.5711335878
  0
SPLINE
  5
2DB
100
AcDbEntity
  8
0
100
AcDbSpline
 62
7
  6
CONTINUOUS
 70
0
 71
3
 72
28
 73
24
 74
0
 42
0.0000001
 43
0.0000001
 44
0.0000000001
 40
0.0
 40
0.0
 40
0.0
 40
0.0
 40
0.0162145189
 40
0.0334275962
 40
0.0516721625
 40
0.070971352
 40
0.0913410552
 40
0.112790325
 40
0.1353227667
 40
0.1589373889
 40
0.1836287124
 40
0.209388193
 40
0.2640568884
 40
0.3228187597
 40
0.3855079255
 40
0.4519274553
 40
0.5218538976
 40
0.5950409226
 40
0.6712220742
 40
0.750114128
 40
0.8314167504
 40
0.9148213264
 40
1.0
 40
1.0
 40
1.0
 40
1.0
 10
12.6643207577
 20
6.5526443413
 30
0.0
 10
12.6638267633
 20
6.5532517266
 30
0.0
 10
12.6628499389
 20
6.5545381206
 30
0.0
 10
12.6614568338
 20
6.5566092784
 30
0.0
 10
12.6600944003
 20
6.5588763302
 30
0.0
 10
12.6587639514
 20
6.5613368337
 30
0.0
 10
12.6574668406
 20
6.5639883577
 30
0.0
 10
12.6562043501
 20
6.5668281704
 30
0.0
 10
12.6549777733
 20
6.569853362
 30
0.0
 10
12.6537884201
 20
6.5730608119
 30
0.0
 10
12.6526374497
 20
6.5764471893
 30
0.0
 10
12.6511256792
 20
6.5812929317
 30
0.0
 10
12.6493514824
 20
6.587777645
 30
0.0
 10
12.6474334383
 20
6.5960642333
 30
0.0
 10
12.6456945875
 20
6.6049689014
 30
0.0
 10
12.6441423955
 20
6.614454381
 30
0.0
 10
12.6427835724
 20
6.6244810719
 30
0.0
 10
12.6416239855
 20
6.6350069228
 30
0.0
 10
12.6406686337
 20
6.6459877629
 30
0.0
 10
12.6399216669
 20
6.6573773816
 30
0.0
 10
12.6393862788
 20
6.669127998
 30
0.0
 10
12.6390648497
 20
6.6811899777
 30
0.0
 10
12.6389947581
 20
6.6893301297
 30
0.0
 10
12.6389947581
 20
6.6934429373
 30
0.0
  0
SPLINE
  5
2DC
100
AcDbEntity
  8
0
100
AcDbSpline
 62
7
  6
CONTINUOUS
 70
0
 71
3
 72
18
 73
14
 74
0
 42
0.0000001
 43
0.0000001
 44
0.0000000001
 40
0.0
 40
0.0
 40
0.0
 40
0.0
 40
0.0548620934
 40
0.1099281175
 40
0.1653995415
 40
0.2214731583
 40
0.2783387419
 40
0.3361775034
 40
0.4554063124
 40
0.5804415574
 40
0.7123342032
 40
0.8519579354
 40
1.0
 40
1.0
 40
1.0
 40
1.0
 10
10.4444664793
 20
11.3648581371
 30
0.0
 10
10.4444664761
 20
11.3659625459
 30
0.0
 10
10.4445365719
 20
11.3681761031
 30
0.0
 10
10.4448517303
 20
11.3714928395
 30
0.0
 10
10.4453768442
 20
11.374807664
 30
0.0
 10
10.4461117363
 20
11.3781193648
 30
0.0
 10
10.4470561022
 20
11.3814271116
 30
0.0
 10
10.4486093904
 20
11.3858751422
 30
0.0
 10
10.4510977436
 20
11.3914384338
 30
0.0
 10
10.4548851762
 20
11.3980087071
 30
0.0
 10
10.4594980788
 20
11.4045364567
 30
0.0
 10
10.4649294314
 20
11.4110151187
 30
0.0
 10
10.468968928
 20
11.4151719714
 30
0.0
 10
10.4711124367
 20
11.4172424419
 30
0.0
  0
SPLINE
  5
2DD
100
AcDbEntity
  8
0
100
AcDbSpline
 62
7
  6
CONTINUOUS
 70
0
 71
3
 72
10
 73
6
 74
0
 42
0.0000001
 43
0.0000001
 44
0.0000000001
 40
0.0
 40
0.0
 40
0.0
 40
0.0
 40
0.4751966148
 40
0.7309796719
 40
1.0
 40
1.0
 40
1.0
 40
1.0
 10
10.453150757
 20
11.3350506492
 30
0.0
 10
10.4554345419
 20
11.3389837629
 30
0.0
 10
10.4594781609
 20
11.3447360973
 30
0.0
 10
10.4657418038
 20
11.3519760049
 30
0.0
 10
10.4692605144
 20
11.3555662185
 30
0.0
 10
10.4711124367
 20
11.3573550381
 30
0.0
  0
SPLINE
  5
2DE
100
AcDbEntity
  8
0
100
AcDbSpline
 62
7
  6
CONTINUOUS
 70
0
 71
3
 72
19
 73
15
 74
0
 42
0.0000001
 43
0.0000001
 44
0.0000000001
 40
0.0
 40
0.0
 40
0.0
 40
0.0
 40
0.0566175503
 40
0.1127444831
 40
0.1686765262
 40
0.2247128321
 40
0.2811506911
 40
0.3382806466
 40
0.3963816663
 40
0.4557178352
 40
0.5789992117
 40
0.7099208338
 40
0.8498919919
 40
1.0
 40
1.0
 40
1.0
 40
1.0
 10
10.4924602249
 20
11.2950822724
 30
0.0
 10
10.4922120004
 20
11.2963165212
 30
0.0
 10
10.491806852
 20
11.2987933162
 30
0.0
 10
10.4914795367
 20
11.3025331478
 30
0.0
 10
10.4914364565
 20
11.3062743446
 30
0.0
 10
10.4916775832
 20
11.3100148615
 30
0.0
 10
10.4922027646
 20
11.3137530141
 30
0.0
 10
10.4930116694
 20
11.3174870169
 30
0.0
 10
10.4941037296
 20
11.3212153732
 30
0.0
 10
10.4959596273
 20
11.3262398504
 30
0.0
 10
10.499025198
 20
11.3325241153
 30
0.0
 10
10.5037771307
 20
11.3399095823
 30
0.0
 10
10.5096366954
 20
11.3472286608
 30
0.0
 10
10.5141101969
 20
11.3518876877
 30
0.0
 10
10.5165109532
 20
11.3542066403
 30
0.0
  0
SPLINE
  5
2DF
100
AcDbEntity
  8
0
100
AcDbSpline
 62
7
  6
CONTINUOUS
 70
0
 71
3
 72
15
 73
11
 74
0
 42
0.0000001
 43
0.0000001
 44
0.0000000001
 40
0.0
 40
0.0
 40
0.0
 40
0.0
 40
0.1273482888
 40
0.2538606703
 40
0.3795878487
 40
0.5046051206
 40
0.6290174369
 40
0.7529533749
 40
0.8765605786
 40
1.0
 40
1.0
 40
1.0
 40
1.0
 10
11.3544212244
 20
8.5118043473
 30
0.0
 10
11.3544212244
 20
8.5180255438
 30
0.0
 10
11.3550152297
 20
8.5304357016
 30
0.0
 10
11.3577015211
 20
8.548812245
 30
0.0
 10
11.3621558583
 20
8.5667270573
 30
0.0
 10
11.3683380039
 20
8.5840125894
 30
0.0
 10
11.3761912577
 20
8.6005094324
 30
0.0
 10
11.3856439778
 20
8.6160652716
 30
0.0
 10
11.3966073118
 20
8.630534345
 30
0.0
 10
11.4048621515
 20
8.6393728776
 30
0.0
 10
11.4091994443
 20
8.6435623525
 30
0.0
  0
SPLINE
  5
2E0
100
AcDbEntity
  8
0
100
AcDbSpline
 62
7
  6
CONTINUOUS
 70
0
 71
3
 72
15
 73
11
 74
0
 42
0.0000001
 43
0.0000001
 44
0.0000000001
 40
0.0
 40
0.0
 40
0.0
 40
0.0
 40
0.1094616448
 40
0.221461385
 40
0.337096149
 40
0.4573504066
 40
0.5830864784
 40
0.7150460869
 40
0.853852377
 40
1.0
 40
1.0
 40
1.0
 40
1.0
 10
10.5068270984
 20
11.2857727443
 30
0.0
 10
10.5070472466
 20
11.2875724293
 30
0.0
 10
10.5076950301
 20
11.2911916515
 30
0.0
 10
10.5092584493
 20
11.2965617054
 30
0.0
 10
10.5114187407
 20
11.3019136726
 30
0.0
 10
10.5141721352
 20
11.3072421625
 30
0.0
 10
10.5175150926
 20
11.3125433963
 30
0.0
 10
10.5214438949
 20
11.3178138014
 30
0.0
 10
10.5259544898
 20
11.3230494012
 30
0.0
 10
10.5292586995
 20
11.3264245278
 30
0.0
 10
10.5309998414
 20
11.3281063419
 30
0.0
  0
SPLINE
  5
2E1
100
AcDbEntity
  8
0
100
AcDbSpline
 62
7
  6
CONTINUOUS
 70
0
 71
3
 72
23
 73
19
 74
0
 42
0.0000001
 43
0.0000001
 44
0.0000000001
 40
0.0
 40
0.0
 40
0.0
 40
0.0
 40
0.0614488463
 40
0.1232975066
 40
0.1855192794
 40
0.248071275
 40
0.3108995332
 40
0.3739401515
 40
0.4371217402
 40
0.5003679843
 40
0.5636003164
 40
0.6267406523
 40
0.6897141155
 40
0.7524516761
 40
0.8148926497
 40
0.8769870681
 40
0.9386966966
 40
1.0
 40
1.0
 40
1.0
 40
1.0
 10
11.5495382529
 20
8.3031559069
 30
0.0
 10
11.5431340607
 20
8.3036000392
 30
0.0
 10
11.530319273
 20
8.3051223197
 30
0.0
 10
11.5113553466
 20
8.3092567994
 30
0.0
 10
11.4927589981
 20
8.3152099808
 30
0.0
 10
11.4747111491
 20
8.3229241811
 30
0.0
 10
11.4573843794
 20
8.3323248302
 30
0.0
 10
11.4409450655
 20
8.3433213258
 30
0.0
 10
11.4255508932
 20
8.3558079397
 30
0.0
 10
11.4113495653
 20
8.3696646776
 30
0.0
 10
11.3984773421
 20
8.3847584676
 30
0.0
 10
11.3870578785
 20
8.4009445009
 30
0.0
 10
11.3772009637
 20
8.4180674797
 30
0.0
 10
11.3690014324
 20
8.4359631521
 30
0.0
 10
11.3625383918
 20
8.4544596532
 30
0.0
 10
11.3578744869
 20
8.4733800535
 30
0.0
 10
11.3550548932
 20
8.4925402491
 30
0.0
 10
11.3544212244
 20
8.5053999781
 30
0.0
 10
11.3544212244
 20
8.5118043473
 30
0.0
  0
SPLINE
  5
2E2
100
AcDbEntity
  8
0
100
AcDbSpline
 62
7
  6
CONTINUOUS
 70
0
 71
3
 72
88
 73
84
 74
0
 42
0.0000001
 43
0.0000001
 44
0.0000000001
 40
0.0
 40
0.0
 40
0.0
 40
0.0
 40
0.0039801792
 40
0.0081241172
 40
0.01243598
 40
0.0169193385
 40
0.0215772134
 40
0.0264119561
 40
0.0314252255
 40
0.0366182092
 40
0.0419916017
 40
0.0475457243
 40
0.053280501
 40
0.0591955014
 40
0.0652900157
 40
0.0715630029
 40
0.0846386851
 40
0.0984100077
 40
0.1128605893
 40
0.1279711259
 40
0.1437197291
 40
0.1600822028
 40
0.1770322731
 40
0.1945417833
 40
0.2125808723
 40
0.2311181302
 40
0.2501207382
 40
0.2695545985
 40
0.2893844555
 40
0.3095740089
 40
0.3300860277
 40
0.35088246
 40
0.3719245384
 40
0.3931728831
 40
0.414587604
 40
0.4361284004
 40
0.4577546627
 40
0.5010994726
 40
0.5442955201
 40
0.5657361769
 40
0.587017759
 40
0.608100294
 40
0.6289443019
 40
0.6495108962
 40
0.669761887
 40
0.689659886
 40
0.7091684153
 40
0.7282520213
 40
0.7468763866
 40
0.7650084505
 40
0.7826165366
 40
0.799670491
 40
0.8161418345
 40
0.8320039374
 40
0.8472322097
 40
0.8618043242
 40
0.8757004836
 40
0.8889037463
 40
0.8952413481
 40
0.9014009118
 40
0.907381298
 40
0.9131816928
 40
0.9188015488
 40
0.924240662
 40
0.9294992036
 40
0.9345777127
 40
0.9394772236
 40
0.9441992168
 40
0.9487457712
 40
0.9531195672
 40
0.9573239867
 40
0.961363225
 40
0.9652423269
 40
0.9689673822
 40
0.972545554
 40
0.9759852689
 40
0.9824864512
 40
0.9855753166
 40
0.9885737897
 40
0.9914977186
 40
0.9943643246
 40
0.9971920049
 40
1.0
 40
1.0
 40
1.0
 40
1.0
 10
10.4711124367
 20
11.4172424419
 30
0.0
 10
10.4726612348
 20
11.4187384661
 30
0.0
 10
10.4758928897
 20
11.4217199369
 30
0.0
 10
10.4810237676
 20
11.4260746048
 30
0.0
 10
10.4865314277
 20
11.4303980444
 30
0.0
 10
10.4924128473
 20
11.4346879439
 30
0.0
 10
10.4986651492
 20
11.4389423104
 30
0.0
 10
10.5052852809
 20
11.4431590625
 30
0.0
 10
10.5122699269
 20
11.4473361953
 30
0.0
 10
10.519615625
 20
11.4514715341
 30
0.0
 10
10.5273186659
 20
11.4555630863
 30
0.0
 10
10.5353752136
 20
11.459608765
 30
0.0
 10
10.5437812275
 20
11.4636065544
 30
0.0
 10
10.5525324785
 20
11.4675544601
 30
0.0
 10
10.5616245938
 20
11.4714504708
 30
0.0
 10
10.5743725343
 20
11.4766453025
 30
0.0
 10
10.5911371485
 20
11.4829808963
 30
0.0
 10
10.6122691333
 20
11.4902447473
 30
0.0
 10
10.634642373
 20
11.4972563864
 30
0.0
 10
10.6582117566
 20
11.504001563
 30
0.0
 10
10.6829299695
 20
11.5104665483
 30
0.0
 10
10.7087472208
 20
11.5166381742
 30
0.0
 10
10.7356114663
 20
11.5225038662
 30
0.0
 10
10.7634684915
 20
11.5280516782
 30
0.0
 10
10.7922620427
 20
11.5332703112
 30
0.0
 10
10.8219339473
 20
11.5381491379
 30
0.0
 10
10.8524242374
 20
11.5426782245
 30
0.0
 10
10.8836712741
 20
11.5468483506
 30
0.0
 10
10.915611873
 20
11.5506510265
 30
0.0
 10
10.9481814336
 20
11.554078516
 30
0.0
 10
10.9813140728
 20
11.5571238487
 30
0.0
 10
11.0149427625
 20
11.5597808316
 30
0.0
 10
11.0489994658
 20
11.5620440607
 30
0.0
 10
11.0834152807
 20
11.5639089356
 30
0.0
 10
11.1181205562
 20
11.5653716541
 30
0.0
 10
11.1530451212
 20
11.5664292726
 30
0.0
 10
11.1998422186
 20
11.5672968882
 30
0.0
 10
11.2583678657
 20
11.5673584622
 30
0.0
 10
11.3167788341
 20
11.566061718
 30
0.0
 10
11.3632257725
 20
11.5642049714
 30
0.0
 10
11.3976994593
 20
11.5624129511
 30
0.0
 10
11.43182661
 20
11.560221852
 30
0.0
 10
11.4655382277
 20
11.5576360956
 30
0.0
 10
11.4987660938
 20
11.5546609494
 30
0.0
 10
11.5314429903
 20
11.5513024614
 30
0.0
 10
11.5635028146
 20
11.547567462
 30
0.0
 10
11.5948807231
 20
11.5434635488
 30
0.0
 10
11.6255132645
 20
11.5389990767
 30
0.0
 10
11.6553385094
 20
11.5341831341
 30
0.0
 10
11.6842961765
 20
11.5290255265
 30
0.0
 10
11.7123277572
 20
11.5235367565
 30
0.0
 10
11.7393766398
 20
11.5177280028
 30
0.0
 10
11.7653882297
 20
11.511611095
 30
0.0
 10
11.7903100807
 20
11.5051984962
 30
0.0
 10
11.81409198
 20
11.4985032688
 30
0.0
 10
11.8366861674
 20
11.4915390425
 30
0.0
 10
11.8580470761
 20
11.4843199745
 30
0.0
 10
11.8750084591
 20
11.4780209885
 30
0.0
 10
11.8879178149
 20
11.4728542406
 30
0.0
 10
11.8971327744
 20
11.4689775925
 30
0.0
 10
11.906008513
 20
11.46504833
 30
0.0
 10
11.9145405952
 20
11.4610684593
 30
0.0
 10
11.922724725
 20
11.4570399605
 30
0.0
 10
11.930556795
 20
11.4529648516
 30
0.0
 10
11.9380328978
 20
11.4488452136
 30
0.0
 10
11.9451492665
 20
11.4446830346
 30
0.0
 10
11.9519023834
 20
11.4404804645
 30
0.0
 10
11.9582888485
 20
11.4362395041
 30
0.0
 10
11.9643055082
 20
11.4319622868
 30
0.0
 10
11.9699493655
 20
11.4276508794
 30
0.0
 10
11.975217596
 20
11.423307329
 30
0.0
 10
11.9801076115
 20
11.4189337767
 30
0.0
 10
11.9846169221
 20
11.4145321467
 30
0.0
 10
11.9887432153
 20
11.4101047138
 30
0.0
 10
11.9924846382
 20
11.4056528941
 30
0.0
 10
11.9968737304
 20
11.399799309
 30
0.0
 10
12.0006007533
 20
11.3937879125
 30
0.0
 10
12.0035598887
 20
11.38764818
 30
0.0
 10
12.0053477593
 20
11.3831073749
 30
0.0
 10
12.0067400851
 20
11.3785555371
 30
0.0
 10
12.0077356336
 20
11.373994848
 30
0.0
 10
12.0083333906
 20
11.3694285816
 30
0.0
 10
12.0084664715
 20
11.3663779538
 30
0.0
 10
12.0084664759
 20
11.3648587855
 30
0.0
  0
SPLINE
  5
2E3
100
AcDbEntity
  8
0
100
AcDbSpline
 62
7
  6
CONTINUOUS
 70
0
 71
3
 72
52
 73
48
 74
0
 42
0.0000001
 43
0.0000001
 44
0.0000000001
 40
0.0
 40
0.0
 40
0.0
 40
0.0
 40
0.0452106793
 40
0.0910035741
 40
0.1371918869
 40
0.1835906187
 40
0.230011408
 40
0.2762667211
 40
0.3221695517
 40
0.367534801
 40
0.4121801311
 40
0.4559269821
 40
0.498601566
 40
0.5400358865
 40
0.5800687993
 40
0.618547133
 40
0.6553269024
 40
0.6902746615
 40
0.7232690715
 40
0.7542028117
 40
0.7829849871
 40
0.7965470957
 40
0.8095464186
 40
0.8219779976
 40
0.8338384889
 40
0.845127035
 40
0.8558449785
 40
0.8659968239
 40
0.8755903645
 40
0.8846375113
 40
0.8931551272
 40
0.9011657414
 40
0.9086990941
 40
0.9157929042
 40
0.9224946525
 40
0.9288622307
 40
0.9349647151
 40
0.9408816352
 40
0.9467009595
 40
0.9525155267
 40
0.9584184295
 40
0.9644982871
 40
0.9708356665
 40
0.9775006651
 40
0.9845524004
 40
0.992039274
 40
1.0
 40
1.0
 40
1.0
 40
1.0
 10
12.7417458342
 20
10.6563965968
 30
0.0
 10
12.7417458342
 20
10.6521644904
 30
0.0
 10
12.7416703494
 20
10.6436456059
 30
0.0
 10
12.7413375453
 20
10.6308070084
 30
0.0
 10
12.7407856524
 20
10.6178646215
 30
0.0
 10
12.7400170843
 20
10.6048744324
 30
0.0
 10
12.7390351153
 20
10.591892338
 30
0.0
 10
12.737844002
 20
10.5789743712
 30
0.0
 10
12.7364488842
 20
10.5661762164
 30
0.0
 10
12.7348558024
 20
10.5535530613
 30
0.0
 10
12.7330716551
 20
10.5411593255
 30
0.0
 10
12.7311041785
 20
10.5290484303
 30
0.0
 10
12.7289619104
 20
10.5172725619
 30
0.0
 10
12.7266541537
 20
10.5058824431
 30
0.0
 10
12.7241909377
 20
10.4949271072
 30
0.0
 10
12.7215829756
 20
10.4844536804
 30
0.0
 10
12.7188416193
 20
10.474507158
 30
0.0
 10
12.715978807
 20
10.46513022
 30
0.0
 10
12.7130070125
 20
10.4563629223
 30
0.0
 10
12.7099391596
 20
10.4482428111
 30
0.0
 10
12.7072632332
 20
10.4419242969
 30
0.0
 10
12.705076365
 20
10.437227354
 30
0.0
 10
12.7034530522
 20
10.4339576402
 30
0.0
 10
12.7018157721
 20
10.4308740955
 30
0.0
 10
12.7001661688
 20
10.4279800191
 30
0.0
 10
12.6985060785
 20
10.4252784406
 30
0.0
 10
12.6968371771
 20
10.4227722293
 30
0.0
 10
12.6951612457
 20
10.4204639851
 30
0.0
 10
12.6934799709
 20
10.4183561148
 30
0.0
 10
12.6917950087
 20
10.4164508139
 30
0.0
 10
12.6901080146
 20
10.414750023
 30
0.0
 10
12.6884204595
 20
10.4132555999
 30
0.0
 10
12.6867338866
 20
10.4119691112
 30
0.0
 10
12.6850495972
 20
10.4108922245
 30
0.0
 10
12.6833690317
 20
10.4100263999
 30
0.0
 10
12.6816935979
 20
10.4093733199
 30
0.0
 10
12.6800250576
 20
10.4089345825
 30
0.0
 10
12.6783656007
 20
10.40871169
 30
0.0
 10
12.6767179621
 20
10.4087057837
 30
0.0
 10
12.6750852213
 20
10.408917042
 30
0.0
 10
12.6734704492
 20
10.4093449859
 30
0.0
 10
12.6718762186
 20
10.409988073
 30
0.0
 10
12.6703046099
 20
10.4108446638
 30
0.0
 10
12.6687571058
 20
10.4119127827
 30
0.0
 10
12.6672349648
 20
10.4131907128
 30
0.0
 10
12.6657393972
 20
10.4146766129
 30
0.0
 10
12.6647909534
 20
10.415769953
 30
0.0
 10
12.6643207577
 20
10.4163480769
 30
0.0
  0
SPLINE
  5
2E4
100
AcDbEntity
  8
0
100
AcDbSpline
 62
7
  6
CONTINUOUS
 70
0
 71
3
 72
15
 73
11
 74
0
 42
0.0000001
 43
0.0000001
 44
0.0000000001
 40
0.0
 40
0.0
 40
0.0
 40
0.0
 40
0.1273482888
 40
0.2538606703
 40
0.3795878487
 40
0.5046051206
 40
0.6290174369
 40
0.7529533749
 40
0.8765605786
 40
1.0
 40
1.0
 40
1.0
 40
1.0
 10
9.1212006618
 20
8.6666787193
 30
0.0
 10
9.1212006618
 20
8.6728999158
 30
0.0
 10
9.1217946671
 20
8.6853100737
 30
0.0
 10
9.1244809586
 20
8.703686617
 30
0.0
 10
9.1289352958
 20
8.7216014293
 30
0.0
 10
9.1351174413
 20
8.7388869614
 30
0.0
 10
9.1429706951
 20
8.7553838045
 30
0.0
 10
9.1524234153
 20
8.7709396436
 30
0.0
 10
9.1633867493
 20
8.785408717
 30
0.0
 10
9.1716415889
 20
8.7942472496
 30
0.0
 10
9.1759788818
 20
8.7984367245
 30
0.0
  0
SPLINE
  5
2E5
100
AcDbEntity
  8
0
100
AcDbSpline
 62
7
  6
CONTINUOUS
 70
0
 71
3
 72
23
 73
19
 74
0
 42
0.0000001
 43
0.0000001
 44
0.0000000001
 40
0.0
 40
0.0
 40
0.0
 40
0.0
 40
0.0614488463
 40
0.1232975066
 40
0.1855192794
 40
0.248071275
 40
0.3108995332
 40
0.3739401515
 40
0.4371217402
 40
0.5003679843
 40
0.5636003164
 40
0.6267406523
 40
0.6897141155
 40
0.7524516761
 40
0.8148926497
 40
0.8769870681
 40
0.9386966966
 40
1.0
 40
1.0
 40
1.0
 40
1.0
 10
9.3163176903
 20
8.458030279
 30
0.0
 10
9.3099134981
 20
8.4584744112
 30
0.0
 10
9.2970987104
 20
8.4599966917
 30
0.0
 10
9.2781347841
 20
8.4641311714
 30
0.0
 10
9.2595384356
 20
8.4700843528
 30
0.0
 10
9.2414905865
 20
8.4777985531
 30
0.0
 10
9.2241638168
 20
8.4871992022
 30
0.0
 10
9.207724503
 20
8.4981956979
 30
0.0
 10
9.1923303306
 20
8.5106823118
 30
0.0
 10
9.1781290027
 20
8.5245390496
 30
0.0
 10
9.1652567795
 20
8.5396328396
 30
0.0
 10
9.153837316
 20
8.555818873
 30
0.0
 10
9.1439804012
 20
8.5729418518
 30
0.0
 10
9.1357808698
 20
8.5908375241
 30
0.0
 10
9.1293178292
 20
8.6093340252
 30
0.0
 10
9.1246539243
 20
8.6282544256
 30
0.0
 10
9.1218343307
 20
8.6474146212
 30
0.0
 10
9.1212006618
 20
8.6602743502
 30
0.0
 10
9.1212006618
 20
8.6666787193
 30
0.0
  0
SPLINE
  5
2E6
100
AcDbEntity
  8
0
100
AcDbSpline
 62
7
  6
CONTINUOUS
 70
0
 71
3
 72
23
 73
19
 74
0
 42
0.0000001
 43
0.0000001
 44
0.0000000001
 40
0.0
 40
0.0
 40
0.0
 40
0.0
 40
0.0637775561
 40
0.1273446565
 40
0.1907020307
 40
0.2538561431
 40
0.3168131834
 40
0.3795821015
 40
0.4421733894
 40
0.5045993415
 40
0.5668738676
 40
0.6290123791
 40
0.6910316472
 40
0.7529496401
 40
0.8147853492
 40
0.8765585998
 40
0.9382898533
 40
1.0
 40
1.0
 40
1.0
 40
1.0
 10
9.8219773095
 20
9.1843371955
 30
0.0
 10
9.8219773095
 20
9.1939802661
 30
0.0
 10
9.8224388397
 20
9.2132378557
 30
0.0
 10
9.8245221054
 20
9.2420071464
 30
0.0
 10
9.8279906534
 20
9.2705483088
 30
0.0
 10
9.8328363458
 20
9.29879452
 30
0.0
 10
9.8390482294
 20
9.3266810555
 30
0.0
 10
9.8466119748
 20
9.3541435041
 30
0.0
 10
9.8555102466
 20
9.3811185813
 30
0.0
 10
9.8657225847
 20
9.4075440706
 30
0.0
 10
9.8772254921
 20
9.4333590309
 30
0.0
 10
9.8899924904
 20
9.4585039208
 30
0.0
 10
9.9039941763
 20
9.4829207337
 30
0.0
 10
9.9191983107
 20
9.5065531535
 30
0.0
 10
9.935569809
 20
9.5293466077
 30
0.0
 10
9.9530711289
 20
9.5512486828
 30
0.0
 10
9.9716612133
 20
9.5722081754
 30
0.0
 10
9.9847543698
 20
9.5855229659
 30
0.0
 10
9.9914653696
 20
9.5920052777
 30
0.0
  0
SPLINE
  5
2E7
100
AcDbEntity
  8
0
100
AcDbSpline
 62
7
  6
CONTINUOUS
 70
0
 71
3
 72
52
 73
48
 74
0
 42
0.0000001
 43
0.0000001
 44
0.0000000001
 40
0.0
 40
0.0
 40
0.0
 40
0.0
 40
0.0452106793
 40
0.0910035741
 40
0.1371918869
 40
0.1835906187
 40
0.230011408
 40
0.2762667211
 40
0.3221695517
 40
0.367534801
 40
0.4121801311
 40
0.4559269821
 40
0.498601566
 40
0.5400358865
 40
0.5800687993
 40
0.618547133
 40
0.6553269024
 40
0.6902746615
 40
0.7232690715
 40
0.7542028117
 40
0.7829849871
 40
0.7965470957
 40
0.8095464186
 40
0.8219779976
 40
0.8338384889
 40
0.845127035
 40
0.8558449785
 40
0.8659968239
 40
0.8755903645
 40
0.8846375113
 40
0.8931551272
 40
0.9011657414
 40
0.9086990941
 40
0.9157929042
 40
0.9224946525
 40
0.9288622307
 40
0.9349647151
 40
0.9408816352
 40
0.9467009595
 40
0.9525155267
 40
0.9584184295
 40
0.9644982871
 40
0.9708356665
 40
0.9775006651
 40
0.9845524004
 40
0.992039274
 40
1.0
 40
1.0
 40
1.0
 40
1.0
 10
12.7417458342
 20
6.7926928612
 30
0.0
 10
12.7417458342
 20
6.7884607548
 30
0.0
 10
12.7416703494
 20
6.7799418703
 30
0.0
 10
12.7413375453
 20
6.7671032728
 30
0.0
 10
12.7407856524
 20
6.7541608859
 30
0.0
 10
12.7400170843
 20
6.7411706968
 30
0.0
 10
12.7390351153
 20
6.7281886024
 30
0.0
 10
12.737844002
 20
6.7152706357
 30
0.0
 10
12.7364488842
 20
6.7024724808
 30
0.0
 10
12.7348558024
 20
6.6898493257
 30
0.0
 10
12.7330716551
 20
6.6774555899
 30
0.0
 10
12.7311041785
 20
6.6653446947
 30
0.0
 10
12.7289619104
 20
6.6535688264
 30
0.0
 10
12.7266541537
 20
6.6421787075
 30
0.0
 10
12.7241909377
 20
6.6312233716
 30
0.0
 10
12.7215829756
 20
6.6207499448
 30
0.0
 10
12.7188416193
 20
6.6108034224
 30
0.0
 10
12.715978807
 20
6.6014264844
 30
0.0
 10
12.7130070125
 20
6.5926591867
 30
0.0
 10
12.7099391596
 20
6.5845390755
 30
0.0
 10
12.7072632332
 20
6.5782205613
 30
0.0
 10
12.705076365
 20
6.5735236184
 30
0.0
 10
12.7034530522
 20
6.5702539046
 30
0.0
 10
12.7018157721
 20
6.5671703599
 30
0.0
 10
12.7001661688
 20
6.5642762835
 30
0.0
 10
12.6985060785
 20
6.561574705
 30
0.0
 10
12.6968371771
 20
6.5590684937
 30
0.0
 10
12.6951612457
 20
6.5567602495
 30
0.0
 10
12.6934799709
 20
6.5546523792
 30
0.0
 10
12.6917950087
 20
6.5527470783
 30
0.0
 10
12.6901080146
 20
6.5510462874
 30
0.0
 10
12.6884204595
 20
6.5495518643
 30
0.0
 10
12.6867338866
 20
6.5482653756
 30
0.0
 10
12.6850495972
 20
6.5471884889
 30
0.0
 10
12.6833690317
 20
6.5463226643
 30
0.0
 10
12.6816935979
 20
6.5456695843
 30
0.0
 10
12.6800250576
 20
6.5452308469
 30
0.0
 10
12.6783656007
 20
6.5450079544
 30
0.0
 10
12.6767179621
 20
6.5450020481
 30
0.0
 10
12.6750852213
 20
6.5452133064
 30
0.0
 10
12.6734704492
 20
6.5456412503
 30
0.0
 10
12.6718762186
 20
6.5462843374
 30
0.0
 10
12.6703046099
 20
6.5471409282
 30
0.0
 10
12.6687571058
 20
6.5482090471
 30
0.0
 10
12.6672349648
 20
6.5494869772
 30
0.0
 10
12.6657393972
 20
6.5509728773
 30
0.0
 10
12.6647909534
 20
6.5520662174
 30
0.0
 10
12.6643207577
 20
6.5526443413
 30
0.0
  0
SPLINE
  5
2E8
100
AcDbEntity
  8
0
100
AcDbSpline
 62
7
  6
CONTINUOUS
 70
0
 71
3
 72
79
 73
75
 74
0
 42
0.0000001
 43
0.0000001
 44
0.0000000001
 40
0.0
 40
0.0
 40
0.0
 40
0.0
 40
0.0064098747
 40
0.009795318
 40
0.0133111847
 40
0.0169643792
 40
0.0207607929
 40
0.0247054704
 40
0.0288026152
 40
0.0330557338
 40
0.0374677044
 40
0.0420407937
 40
0.0467768054
 40
0.0516770442
 40
0.0567424143
 40
0.061973469
 40
0.0673703787
 40
0.0786605924
 40
0.090609552
 40
0.1032093656
 40
0.1164489164
 40
0.1303142863
 40
0.1447890827
 40
0.1598547271
 40
0.1754906874
 40
0.1916746662
 40
0.2083827569
 40
0.225589579
 40
0.243268419
 40
0.2613913459
 40
0.279929315
 40
0.2988522591
 40
0.318129183
 40
0.3377282626
 40
0.3576169295
 40
0.3777619526
 40
0.3981295153
 40
0.4393939103
 40
0.4811317537
 40
0.5230597911
 40
0.5648931046
 40
0.6063476009
 40
0.6268452016
 40
0.6471432242
 40
0.6672075081
 40
0.6870044206
 40
0.7065009403
 40
0.7256647346
 40
0.7444642429
 40
0.762868764
 40
0.7808485581
 40
0.7983749367
 40
0.8154203578
 40
0.831958533
 40
0.8479645514
 40
0.8634150218
 40
0.8782882094
 40
0.8925642027
 40
0.9062251147
 40
0.919255335
 40
0.9316418281
 40
0.9433744882
 40
0.9489936398
 40
0.9544471399
 40
0.9597347604
 40
0.9648566229
 40
0.9698131259
 40
0.9746050425
 40
0.9792335339
 40
0.9837001925
 40
0.9880072243
 40
0.9921573466
 40
0.9961537145
 40
1.0
 40
1.0
 40
1.0
 40
1.0
 10
11.9999408122
 20
11.3347761862
 30
0.0
 10
11.998245048
 20
11.3377240901
 30
0.0
 10
11.9953561263
 20
11.342063257
 30
0.0
 10
11.9909788541
 20
11.3476076107
 30
0.0
 10
11.9872877216
 20
11.3518222262
 30
0.0
 10
11.9832508563
 20
11.3560143071
 30
0.0
 10
11.9788698295
 20
11.3601826742
 30
0.0
 10
11.9741466661
 20
11.3643253489
 30
0.0
 10
11.9690835156
 20
11.3684406603
 30
0.0
 10
11.9636826471
 20
11.3725268086
 30
0.0
 10
11.957946458
 20
11.3765819754
 30
0.0
 10
11.9518775601
 20
11.3806044466
 30
0.0
 10
11.9454786366
 20
11.3845923668
 30
0.0
 10
11.9387525863
 20
11.3885440047
 30
0.0
 10
11.9317024362
 20
11.392457583
 30
0.0
 10
11.9243313334
 20
11.3963313347
 30
0.0
 10
11.9139227633
 20
11.4015190514
 30
0.0
 10
11.9001194967
 20
11.4078774955
 30
0.0
 10
11.8825719219
 20
11.4152109377
 30
0.0
 10
11.863831584
 20
11.4223448494
 30
0.0
 10
11.8439323873
 20
11.4292662364
 30
0.0
 10
11.8229100859
 20
11.4359624734
 30
0.0
 10
11.8008026798
 20
11.4424213251
 30
0.0
 10
11.7776501809
 20
11.4486309729
 30
0.0
 10
11.7534945573
 20
11.4545800426
 30
0.0
 10
11.7283796369
 20
11.4602576302
 30
0.0
 10
11.7023510319
 20
11.4656533274
 30
0.0
 10
11.6754560516
 20
11.4707572566
 30
0.0
 10
11.6477436023
 20
11.4755600692
 30
0.0
 10
11.619264089
 20
11.4800529677
 30
0.0
 10
11.5900693255
 20
11.4842277178
 30
0.0
 10
11.5602124436
 20
11.4880766759
 30
0.0
 10
11.5297477947
 20
11.4915928026
 30
0.0
 10
11.4987308375
 20
11.4947696654
 30
0.0
 10
11.4672180539
 20
11.4976014402
 30
0.0
 10
11.4352667742
 20
11.5000829732
 30
0.0
 10
11.3919716126
 20
11.5029307457
 30
0.0
 10
11.3371859562
 20
11.5055758064
 30
0.0
 10
11.2709192569
 20
11.507285421
 30
0.0
 10
11.2043289314
 20
11.5075312756
 30
0.0
 10
11.1378998978
 20
11.5063115737
 30
0.0
 10
11.0828755058
 20
11.5040732533
 30
0.0
 10
11.0393088693
 20
11.5015485531
 30
0.0
 10
11.0070961111
 20
11.499304488
 30
0.0
 10
10.9752829144
 20
11.4967070652
 30
0.0
 10
10.943927161
 20
11.4937610049
 30
0.0
 10
10.9130859536
 20
11.4904717126
 30
0.0
 10
10.8828154373
 20
11.4868452057
 30
0.0
 10
10.8531707208
 20
11.4828881208
 30
0.0
 10
10.8242057646
 20
11.478607694
 30
0.0
 10
10.7959732769
 20
11.4740117685
 30
0.0
 10
10.7685246171
 20
11.469108765
 30
0.0
 10
10.741909707
 20
11.4639076646
 30
0.0
 10
10.7161769379
 20
11.458417992
 30
0.0
 10
10.6913730709
 20
11.4526497995
 30
0.0
 10
10.6675431385
 20
11.4466136642
 30
0.0
 10
10.6447303665
 20
11.4403206466
 30
0.0
 10
10.6229760835
 20
11.4337822709
 30
0.0
 10
10.602319667
 20
11.4270104954
 30
0.0
 10
10.5827983266
 20
11.4200176842
 30
0.0
 10
10.5644474245
 20
11.4128166071
 30
0.0
 10
10.5499561639
 20
11.4065663395
 30
0.0
 10
10.5389855357
 20
11.4014611207
 30
0.0
 10
10.5311892589
 20
11.3976435237
 30
0.0
 10
10.5237094411
 20
11.3937837542
 30
0.0
 10
10.5165494165
 20
11.3898835854
 30
0.0
 10
10.5097124385
 20
11.3859447238
 30
0.0
 10
10.5032015884
 20
11.3819689627
 30
0.0
 10
10.4970197859
 20
11.3779581266
 30
0.0
 10
10.4911698185
 20
11.3739139133
 30
0.0
 10
10.4856542277
 20
11.3698381283
 30
0.0
 10
10.4804754865
 20
11.3657324525
 30
0.0
 10
10.4756361593
 20
11.3615989319
 30
0.0
 10
10.4725802187
 20
11.3587728068
 30
0.0
 10
10.4711124367
 20
11.3573550381
 30
0.0
  0
SPLINE
  5
2E9
100
AcDbEntity
  8
0
100
AcDbSpline
 62
7
  6
CONTINUOUS
 70
0
 71
3
 72
89
 73
85
 74
0
 42
0.0000001
 43
0.0000001
 44
0.0000000001
 40
0.0
 40
0.0
 40
0.0
 40
0.0
 40
0.0028697566
 40
0.0057134498
 40
0.0085516258
 40
0.0114049637
 40
0.0142937811
 40
0.0172375987
 40
0.0202547476
 40
0.0233621178
 40
0.026575005
 40
0.0299070193
 40
0.0333701648
 40
0.0369748394
 40
0.0407300144
 40
0.0446433197
 40
0.0487211722
 40
0.0529689545
 40
0.0573910436
 40
0.0619910232
 40
0.0667716903
 40
0.0717351886
 40
0.0768830881
 40
0.0822163881
 40
0.0877356718
 40
0.093441042
 40
0.0993322552
 40
0.1054087094
 40
0.1181128413
 40
0.1315432745
 40
0.1456852846
 40
0.1605207224
 40
0.1760284363
 40
0.1921846151
 40
0.2089630782
 40
0.2263355134
 40
0.2442716805
 40
0.2627395896
 40
0.2817056579
 40
0.3011348573
 40
0.3209908573
 40
0.3412361535
 40
0.3618321908
 40
0.3827394809
 40
0.4039177161
 40
0.4253258842
 40
0.4469223832
 40
0.4686651308
 40
0.4905116735
 40
0.5343443494
 40
0.5780782355
 40
0.5998015337
 40
0.6213721766
 40
0.6427481455
 40
0.6638879207
 40
0.6847505928
 40
0.705295973
 40
0.7254847056
 40
0.7452783839
 40
0.7646396701
 40
0.7835324246
 40
0.8019218355
 40
0.8197745533
 40
0.8370588397
 40
0.8537447298
 40
0.8698042167
 40
0.8852114674
 40
0.899943062
 40
0.9139782813
 40
0.9272994602
 40
0.9336879429
 40
0.939892941
 40
0.9459132987
 40
0.9517482154
 40
0.9573971643
 40
0.9628600154
 40
0.9681370333
 40
0.9732288863
 40
0.9781367586
 40
0.9828623314
 40
0.9874080302
 40
0.9917769704
 40
0.9959728474
 40
1.0
 40
1.0
 40
1.0
 40
1.0
 10
11.9604763752
 20
11.2951003774
 30
0.0
 10
11.9607654687
 20
11.2965404198
 30
0.0
 10
11.9612196078
 20
11.299433514
 30
0.0
 10
11.961517232
 20
11.3038056557
 30
0.0
 10
11.9614265692
 20
11.3081789321
 30
0.0
 10
11.9609475178
 20
11.3125498906
 30
0.0
 10
11.9600808138
 20
11.3169157038
 30
0.0
 10
11.9588272459
 20
11.3212735287
 30
0.0
 10
11.957188136
 20
11.3256208126
 30
0.0
 10
11.9551649007
 20
11.3299551848
 30
0.0
 10
11.9527590603
 20
11.3342744072
 30
0.0
 10
11.9499723868
 20
11.3385764624
 30
0.0
 10
11.9468065296
 20
11.3428592542
 30
0.0
 10
11.9432634477
 20
11.3471208749
 30
0.0
 10
11.9393450589
 20
11.3513592976
 30
0.0
 10
11.9350534821
 20
11.3555725327
 30
0.0
 10
11.9303910055
 20
11.3597586134
 30
0.0
 10
11.9253599949
 20
11.3639154322
 30
0.0
 10
11.9199631113
 20
11.3680410365
 30
0.0
 10
11.9142030829
 20
11.3721332922
 30
0.0
 10
11.9080829054
 20
11.3761901842
 30
0.0
 10
11.9016057294
 20
11.3802096499
 30
0.0
 10
11.8947748812
 20
11.3841895898
 30
0.0
 10
11.8875939238
 20
11.3881280269
 30
0.0
 10
11.8800665442
 20
11.3920228442
 30
0.0
 10
11.8721966789
 20
11.3958720801
 30
0.0
 10
11.863988392
 20
11.3996737293
 30
0.0
 10
11.8524264443
 20
11.4047518977
 30
0.0
 10
11.8371464573
 20
11.4109514995
 30
0.0
 10
11.8177949274
 20
11.4180641138
 30
0.0
 10
11.797205249
 20
11.4249411234
 30
0.0
 10
11.7754203793
 20
11.4315680455
 30
0.0
 10
11.7524855526
 20
11.4379309138
 30
0.0
 10
11.7284485997
 20
11.4440163042
 30
0.0
 10
11.7033596968
 20
11.4498113691
 30
0.0
 10
11.6772712801
 20
11.4553038712
 30
0.0
 10
11.650237915
 20
11.4604822114
 30
0.0
 10
11.6223161799
 20
11.4653354533
 30
0.0
 10
11.5935645436
 20
11.4698533521
 30
0.0
 10
11.5640432378
 20
11.4740263775
 30
0.0
 10
11.5338141221
 20
11.4778457262
 30
0.0
 10
11.5029405501
 20
11.481303342
 30
0.0
 10
11.471487235
 20
11.484391932
 30
0.0
 10
11.4395201142
 20
11.4871049806
 30
0.0
 10
11.4071062128
 20
11.4894367679
 30
0.0
 10
11.3743134942
 20
11.4913823848
 30
0.0
 10
11.3412107371
 20
11.4929377233
 30
0.0
 10
11.3078673043
 20
11.4940995382
 30
0.0
 10
11.2631345323
 20
11.4951215815
 30
0.0
 10
11.2071307924
 20
11.4954019974
 30
0.0
 10
11.1511990803
 20
11.494359501
 30
0.0
 10
11.1066862567
 20
11.4927271762
 30
0.0
 10
11.0736260145
 20
11.491112412
 30
0.0
 10
11.0408863367
 20
11.4891079668
 30
0.0
 10
11.0085358236
 20
11.4867180325
 30
0.0
 10
10.9766423192
 20
11.4839476587
 30
0.0
 10
10.945272686
 20
11.4808026844
 30
0.0
 10
10.9144926874
 20
11.4772897413
 30
0.0
 10
10.8843668436
 20
11.4734162363
 30
0.0
 10
10.8549582931
 20
11.469190336
 30
0.0
 10
10.8263286545
 20
11.464620959
 30
0.0
 10
10.7985378942
 20
11.4597177512
 30
0.0
 10
10.7716442004
 20
11.4544910634
 30
0.0
 10
10.7457038575
 20
11.4489519307
 30
0.0
 10
10.7207711242
 20
11.4431120486
 30
0.0
 10
10.6968980995
 20
11.4369837445
 30
0.0
 10
10.6741346271
 20
11.4305799597
 30
0.0
 10
10.6525280709
 20
11.4239142099
 30
0.0
 10
10.6321235765
 20
11.4170005402
 30
0.0
 10
10.6159385137
 20
11.4109634951
 30
0.0
 10
10.6036342821
 20
11.4060097193
 30
0.0
 10
10.5948616563
 20
11.4022933946
 30
0.0
 10
10.5864201049
 20
11.3985260982
 30
0.0
 10
10.5783139932
 20
11.3947098408
 30
0.0
 10
10.5705475565
 20
11.390846565
 30
0.0
 10
10.5631248201
 20
11.3869382972
 30
0.0
 10
10.5560496238
 20
11.3829870784
 30
0.0
 10
10.5493256656
 20
11.3789948971
 30
0.0
 10
10.5429563982
 20
11.3749639081
 30
0.0
 10
10.536945129
 20
11.3708960832
 30
0.0
 10
10.5312948874
 20
11.3667934944
 30
0.0
 10
10.526008547
 20
11.3626581043
 30
0.0
 10
10.521089113
 20
11.3584922184
 30
0.0
 10
10.5179934393
 20
11.355638612
 30
0.0
 10
10.5165109532
 20
11.3542066403
 30
0.0
  0
SPLINE
  5
2EA
100
AcDbEntity
  8
0
100
AcDbSpline
 62
7
  6
CONTINUOUS
 70
0
 71
3
 72
84
 73
80
 74
0
 42
0.0000001
 43
0.0000001
 44
0.0000000001
 40
0.0
 40
0.0
 40
0.0
 40
0.0
 40
0.0028205251
 40
0.0056862037
 40
0.0086145258
 40
0.0116217532
 40
0.014722781
 40
0.0179309967
 40
0.021258307
 40
0.0247151707
 40
0.0283106484
 40
0.0320525752
 40
0.0359475883
 40
0.0400013133
 40
0.0442184449
 40
0.0486028201
 40
0.0531575873
 40
0.0578851852
 40
0.0627875051
 40
0.0678659087
 40
0.0731212657
 40
0.0785540746
 40
0.0841643976
 40
0.0899519967
 40
0.1020559539
 40
0.1148587042
 40
0.1283485048
 40
0.1425102715
 40
0.1573260113
 40
0.1727751635
 40
0.188834876
 40
0.2054802267
 40
0.2226844292
 40
0.2404190096
 40
0.2586539585
 40
0.2773578664
 40
0.2964980435
 40
0.3160406417
 40
0.3359507726
 40
0.3561926146
 40
0.3767295147
 40
0.3975240863
 40
0.4185383088
 40
0.4610703249
 40
0.5040132527
 40
0.5470500614
 40
0.589862832
 40
0.6110867243
 40
0.6321365288
 40
0.6529736098
 40
0.673559847
 40
0.693857732
 40
0.713830466
 40
0.7334420684
 40
0.7526574777
 40
0.7714426548
 40
0.7897646929
 40
0.8075919337
 40
0.8248941017
 40
0.8416424398
 40
0.8578098511
 40
0.8733710655
 40
0.8883028312
 40
0.9025841482
 40
0.9161965422
 40
0.9291243815
 40
0.9413552889
 40
0.9472068095
 40
0.9528812405
 40
0.9583781816
 40
0.9636976254
 40
0.9688398934
 40
0.9738057063
 40
0.9785962425
 40
0.9832131487
 40
0.9876587671
 40
0.9919360427
 40
0.9960484365
 40
1.0
 40
1.0
 40
1.0
 40
1.0
 10
11.9461157622
 20
11.2856911571
 30
0.0
 10
11.9459481415
 20
11.2870805696
 30
0.0
 10
11.9454902742
 20
11.2898685355
 30
0.0
 10
11.9444495864
 20
11.2940188786
 30
0.0
 10
11.9430518001
 20
11.2981608595
 30
0.0
 10
11.9412982615
 20
11.3022919182
 30
0.0
 10
11.939190164
 20
11.3064100643
 30
0.0
 10
11.9367290443
 20
11.3105133863
 30
0.0
 10
11.9339163899
 20
11.3146000316
 30
0.0
 10
11.9307537834
 20
11.3186681616
 30
0.0
 10
11.9272429993
 20
11.3227160512
 30
0.0
 10
11.9233857679
 20
11.3267418228
 30
0.0
 10
11.9191840967
 20
11.330743739
 30
0.0
 10
11.9146400319
 20
11.3347199475
 30
0.0
 10
11.9097557901
 20
11.3386685942
 30
0.0
 10
11.9045337894
 20
11.3425878933
 30
0.0
 10
11.8989765211
 20
11.3464759093
 30
0.0
 10
11.8930867338
 20
11.3503308589
 30
0.0
 10
11.8868672743
 20
11.3541508481
 30
0.0
 10
11.8803211773
 20
11.3579340188
 30
0.0
 10
11.8734516607
 20
11.3616785805
 30
0.0
 10
11.8662620612
 20
11.3653826201
 30
0.0
 10
11.858755921
 20
11.3690444286
 30
0.0
 10
11.8481719987
 20
11.3739412696
 30
0.0
 10
11.8341647832
 20
11.379929755
 30
0.0
 10
11.8163978158
 20
11.3868158449
 30
0.0
 10
11.7974647644
 20
11.3934915755
 30
0.0
 10
11.7774029101
 20
11.3999436945
 30
0.0
 10
11.756251531
 20
11.4061593847
 30
0.0
 10
11.7340522319
 20
11.4121262699
 30
0.0
 10
11.7108487275
 20
11.4178324576
 30
0.0
 10
11.686686784
 20
11.4232665802
 30
0.0
 10
11.6616141034
 20
11.4284178113
 30
0.0
 10
11.6356802173
 20
11.4332758857
 30
0.0
 10
11.608936381
 20
11.4378311227
 30
0.0
 10
11.5814354725
 20
11.4420744425
 30
0.0
 10
11.5532318884
 20
11.445997395
 30
0.0
 10
11.5243814315
 20
11.4495921737
 30
0.0
 10
11.4949411937
 20
11.4528516224
 30
0.0
 10
11.4649694351
 20
11.4557692551
 30
0.0
 10
11.4345254902
 20
11.4583392516
 30
0.0
 10
11.4036695743
 20
11.4605565328
 30
0.0
 10
11.3618946693
 20
11.4630464644
 30
0.0
 10
11.3090971218
 20
11.4652404971
 30
0.0
 10
11.2453373255
 20
11.4664062733
 30
0.0
 10
11.1814283009
 20
11.4661056864
 30
0.0
 10
11.128315847
 20
11.4646313111
 30
0.0
 10
11.0861403999
 20
11.4627142955
 30
0.0
 10
11.0548768284
 20
11.4609190975
 30
0.0
 10
11.023953029
 20
11.4587660558
 30
0.0
 10
10.9934301692
 20
11.4562594209
 30
0.0
 10
10.9633686857
 20
11.4534041874
 30
0.0
 10
10.9338280803
 20
11.450206029
 30
0.0
 10
10.9048668191
 20
11.446671315
 30
0.0
 10
10.8765422092
 20
11.4428070857
 30
0.0
 10
10.8489102893
 20
11.4386210355
 30
0.0
 10
10.8220257194
 20
11.4341215003
 30
0.0
 10
10.7959416669
 20
11.4293174377
 30
0.0
 10
10.770709692
 20
11.4242184201
 30
0.0
 10
10.7463796405
 20
11.4188346138
 30
0.0
 10
10.7229995446
 20
11.413176749
 30
0.0
 10
10.7006155271
 20
11.4072561009
 30
0.0
 10
10.6792716887
 20
11.4010844602
 30
0.0
 10
10.6590100342
 20
11.3946741131
 30
0.0
 10
10.6398702488
 20
11.3880378076
 30
0.0
 10
10.6218900261
 20
11.3811887183
 30
0.0
 10
10.6076998534
 20
11.3752304905
 30
0.0
 10
10.5969662191
 20
11.3703567002
 30
0.0
 10
10.589346597
 20
11.3667106488
 30
0.0
 10
10.5820422268
 20
11.3630216468
 30
0.0
 10
10.5750566565
 20
11.3592915261
 30
0.0
 10
10.5683933194
 20
11.3555220897
 30
0.0
 10
10.5620554925
 20
11.3517151659
 30
0.0
 10
10.5560462548
 20
11.3478726789
 30
0.0
 10
10.5503685545
 20
11.3439963938
 30
0.0
 10
10.5450250801
 20
11.3400881874
 30
0.0
 10
10.5400184172
 20
11.3361498144
 30
0.0
 10
10.5353512565
 20
11.3321833795
 30
0.0
 10
10.5324100733
 20
11.3294685213
 30
0.0
 10
10.5309998414
 20
11.3281063419
 30
0.0
  0
SPLINE
  5
2EB
100
AcDbEntity
  8
0
100
AcDbSpline
 62
7
  6
CONTINUOUS
 70
0
 71
3
 72
47
 73
43
 74
0
 42
0.0000001
 43
0.0000001
 44
0.0000000001
 40
0.0
 40
0.0
 40
0.0
 40
0.0
 40
0.0113012656
 40
0.0229807921
 40
0.0350322008
 40
0.0474483515
 40
0.0602215414
 40
0.0733434253
 40
0.0868051567
 40
0.1005973552
 40
0.1291327942
 40
0.1588664098
 40
0.1897079759
 40
0.2215617364
 40
0.2543270712
 40
0.2878991108
 40
0.3221693147
 40
0.3570260253
 40
0.3923550056
 40
0.4280399651
 40
0.4639630784
 40
0.5000054992
 40
0.5360478724
 40
0.5719708427
 40
0.6076555654
 40
0.6429842165
 40
0.6778405073
 40
0.7121102026
 40
0.7456816469
 40
0.7784463018
 40
0.8102992998
 40
0.8411400236
 40
0.8708727209
 40
0.899407171
 40
0.9131988527
 40
0.9266600473
 40
0.9397813933
 40
0.9525540099
 40
0.9649696037
 40
0.9770204087
 40
0.9886993596
 40
1.0
 40
1.0
 40
1.0
 40
1.0
 10
11.8135529227
 20
11.231254936
 30
0.0
 10
11.8093421859
 20
11.2327899762
 30
0.0
 10
11.800747372
 20
11.2358231699
 30
0.0
 10
11.7875603717
 20
11.2401977656
 30
0.0
 10
11.7738756246
 20
11.2444689273
 30
0.0
 10
11.7597053144
 20
11.2486329051
 30
0.0
 10
11.7450619505
 20
11.2526859408
 30
0.0
 10
11.7299585103
 20
11.2566244661
 30
0.0
 10
11.7144083488
 20
11.2604449749
 30
0.0
 10
11.6928527883
 20
11.2654336205
 30
0.0
 10
11.6648875218
 20
11.271334184
 30
0.0
 10
11.6301448152
 20
11.2778152791
 30
0.0
 10
11.5939707634
 20
11.2837512923
 30
0.0
 10
11.5564936179
 20
11.2891209763
 30
0.0
 10
11.5178460708
 20
11.2939050764
 30
0.0
 10
11.4781650975
 20
11.2980864587
 30
0.0
 10
11.4375913628
 20
11.3016501508
 30
0.0
 10
11.3962687373
 20
11.3045833981
 30
0.0
 10
11.3543437715
 20
11.3068757052
 30
0.0
 10
11.3119651716
 20
11.308518872
 30
0.0
 10
11.2692832658
 20
11.3095070226
 30
0.0
 10
11.2264494661
 20
11.3098366236
 30
0.0
 10
11.1836157271
 20
11.3095064968
 30
0.0
 10
11.140934003
 20
11.3085178229
 30
0.0
 10
11.0985557046
 20
11.3068741373
 30
0.0
 10
11.0566311583
 20
11.3045813184
 30
0.0
 10
11.0153090684
 20
11.3016475678
 30
0.0
 10
10.9747359835
 20
11.298083382
 30
0.0
 10
10.9350557723
 20
11.2939015171
 30
0.0
 10
10.8964090976
 20
11.2891169467
 30
0.0
 10
10.8589329326
 20
11.2837468061
 30
0.0
 10
10.8227599671
 20
11.277810351
 30
0.0
 10
10.7880184485
 20
11.2713288315
 30
0.0
 10
10.7600542381
 20
11.2654279178
 30
0.0
 10
10.7384995704
 20
11.2604390068
 30
0.0
 10
10.7229501077
 20
11.2566182992
 30
0.0
 10
10.7078473865
 20
11.252679606
 30
0.0
 10
10.6932047654
 20
11.2486263666
 30
0.0
 10
10.6790352132
 20
11.2444622474
 30
0.0
 10
10.6653512514
 20
11.240190881
 30
0.0
 10
10.6521650444
 20
11.2358161659
 30
0.0
 10
10.6435707842
 20
11.2327828337
 30
0.0
 10
10.6393603289
 20
11.2312477453
 30
0.0
  0
SPLINE
  5
2EC
100
AcDbEntity
  8
0
100
AcDbSpline
 62
7
  6
CONTINUOUS
 70
0
 71
3
 72
39
 73
35
 74
0
 42
0.0000001
 43
0.0000001
 44
0.0000000001
 40
0.0
 40
0.0
 40
0.0
 40
0.0
 40
0.0258566016
 40
0.0527125683
 40
0.0805164471
 40
0.1092134645
 40
0.1387458481
 40
0.1690531179
 40
0.2000723542
 40
0.2317384467
 40
0.2639843368
 40
0.2967412524
 40
0.3299389315
 40
0.3635058412
 40
0.3973693933
 40
0.431456157
 40
0.4656920701
 40
0.5000026506
 40
0.5343132084
 40
0.5685490541
 40
0.6026357079
 40
0.636499109
 40
0.6700658253
 40
0.7032632661
 40
0.7360198988
 40
0.7682654635
 40
0.7999311911
 40
0.8309500279
 40
0.8612568655
 40
0.8907887809
 40
0.9194852897
 40
0.9472886214
 40
0.9741440072
 40
1.0
 40
1.0
 40
1.0
 40
1.0
 10
11.6967399804
 20
11.2032446181
 30
0.0
 10
11.6888181663
 20
11.2052445345
 30
0.0
 10
11.6726202955
 20
11.2091332179
 30
0.0
 10
11.6477594491
 20
11.2145486435
 30
0.0
 10
11.6219164042
 20
11.2196479701
 30
0.0
 10
11.5951514756
 20
11.2244191812
 30
0.0
 10
11.567526926
 20
11.2288510759
 30
0.0
 10
11.5391071134
 20
11.232933241
 30
0.0
 10
11.5099582531
 20
11.2366560894
 30
0.0
 10
11.4801482841
 20
11.2400108819
 30
0.0
 10
11.4497466996
 20
11.2429897473
 30
0.0
 10
11.4188243825
 20
11.2455856964
 30
0.0
 10
11.3874534365
 20
11.2477926399
 30
0.0
 10
11.3557070177
 20
11.2496054009
 30
0.0
 10
11.3236591625
 20
11.2510197271
 30
0.0
 10
11.2913846148
 20
11.2520323001
 30
0.0
 10
11.2589586507
 20
11.252640745
 30
0.0
 10
11.2264569013
 20
11.2528436376
 30
0.0
 10
11.1939551747
 20
11.252640503
 30
0.0
 10
11.1615292783
 20
11.252031818
 30
0.0
 10
11.1292548418
 20
11.2510190095
 30
0.0
 10
11.0972071405
 20
11.2496044517
 30
0.0
 10
11.0654609193
 20
11.2477914599
 30
0.0
 10
11.034090216
 20
11.2455842846
 30
0.0
 10
11.0031681866
 20
11.2429881053
 30
0.0
 10
10.9727669332
 20
11.2400090134
 30
0.0
 10
10.9429573356
 20
11.2366539998
 30
0.0
 10
10.9138088837
 20
11.2329309381
 30
0.0
 10
10.8853895155
 20
11.228848568
 30
0.0
 10
10.8577654488
 20
11.2244164735
 30
0.0
 10
10.8310010444
 20
11.2196450655
 30
0.0
 10
10.8051585645
 20
11.2145455462
 30
0.0
 10
10.7802983196
 20
11.2091299372
 30
0.0
 10
10.7641008662
 20
11.2052411253
 30
0.0
 10
10.7561792649
 20
11.2032411517
 30
0.0
  0
SPLINE
  5
2ED
100
AcDbEntity
  8
0
100
AcDbSpline
 62
7
  6
CONTINUOUS
 70
0
 71
3
 72
20
 73
16
 74
0
 42
0.0000001
 43
0.0000001
 44
0.0000000001
 40
0.0
 40
0.0
 40
0.0
 40
0.0
 40
0.1463164749
 40
0.2874604102
 40
0.4229252337
 40
0.4883801594
 40
0.5522409306
 40
0.6144543318
 40
0.6749701727
 40
0.7337409197
 40
0.7907224899
 40
0.845874085
 40
0.8991586912
 40
0.9505435073
 40
1.0
 40
1.0
 40
1.0
 40
1.0
 10
10.9111083612
 20
9.4672565986
 30
0.0
 10
10.8985664815
 20
9.4655364379
 30
0.0
 10
10.8739598111
 20
9.4619039173
 30
0.0
 10
10.8378858365
 20
9.4557538535
 30
0.0
 10
10.8088361031
 20
9.4500789908
 30
0.0
 10
10.7864437615
 20
9.4452392032
 30
0.0
 10
10.7702960301
 20
9.4415148759
 30
0.0
 10
10.7546190508
 20
9.4376584024
 30
0.0
 10
10.7394289486
 20
9.433673802
 30
0.0
 10
10.7247413757
 20
9.4295651516
 30
0.0
 10
10.7105714391
 20
9.4253367481
 30
0.0
 10
10.6969337213
 20
9.4209929504
 30
0.0
 10
10.6838422069
 20
9.4165382326
 30
0.0
 10
10.6713104292
 20
9.411977277
 30
0.0
 10
10.6631806865
 20
9.4088077232
 30
0.0
 10
10.6592137554
 20
9.4072036452
 30
0.0
  0
SPLINE
  5
2EE
100
AcDbEntity
  8
0
100
AcDbSpline
 62
7
  6
CONTINUOUS
 70
0
 71
3
 72
20
 73
16
 74
0
 42
0.0000001
 43
0.0000001
 44
0.0000000001
 40
0.0
 40
0.0
 40
0.0
 40
0.0
 40
0.1466585264
 40
0.2881739898
 40
0.4239706765
 40
0.4895561481
 40
0.5535132492
 40
0.6157814208
 40
0.6763032688
 40
0.7350245244
 40
0.7918948125
 40
0.8468674229
 40
0.8999000504
 40
0.9509551145
 40
1.0
 40
1.0
 40
1.0
 40
1.0
 10
10.9524795769
 20
9.4006251201
 30
0.0
 10
10.9399065769
 20
9.3990410758
 30
0.0
 10
10.9152332601
 20
9.3956681318
 30
0.0
 10
10.879056371
 20
9.3898775574
 30
0.0
 10
10.8499205826
 20
9.3844741154
 30
0.0
 10
10.8274673029
 20
9.3798329744
 30
0.0
 10
10.8112851701
 20
9.3762479918
 30
0.0
 10
10.7955840676
 20
9.3725227648
 30
0.0
 10
10.780382131
 20
9.3686616185
 30
0.0
 10
10.7656969462
 20
9.3646690047
 30
0.0
 10
10.7515454687
 20
9.3605496183
 30
0.0
 10
10.7379440494
 20
9.3563082139
 30
0.0
 10
10.7249083417
 20
9.3519497169
 30
0.0
 10
10.7124534694
 20
9.3474792578
 30
0.0
 10
10.7043832434
 20
9.3443645255
 30
0.0
 10
10.7004500581
 20
9.3427867488
 30
0.0
  0
SPLINE
  5
2EF
100
AcDbEntity
  8
0
100
AcDbSpline
 62
7
  6
CONTINUOUS
 70
0
 71
3
 72
41
 73
37
 74
0
 42
0.0000001
 43
0.0000001
 44
0.0000000001
 40
0.0
 40
0.0
 40
0.0
 40
0.0
 40
0.0840371085
 40
0.1695055815
 40
0.2553488075
 40
0.3405016335
 40
0.4239104072
 40
0.4646399927
 40
0.504552057
 40
0.543525572
 40
0.5814434683
 40
0.6181931372
 40
0.65366707
 40
0.687763687
 40
0.7203879513
 40
0.7514521366
 40
0.7808769208
 40
0.80859271
 40
0.834540974
 40
0.8586762203
 40
0.8809689184
 40
0.901409326
 40
0.9109401132
 40
0.9200162463
 40
0.9286448396
 40
0.9368360779
 40
0.9446031578
 40
0.9519631586
 40
0.9589377613
 40
0.965553559
 40
0.9718431863
 40
0.9778457302
 40
0.9836070087
 40
0.9891798126
 40
0.9946229658
 40
1.0
 40
1.0
 40
1.0
 40
1.0
 10
12.7117395887
 20
10.6519127876
 30
0.0
 10
12.7117395887
 20
10.6453826803
 30
0.0
 10
12.7115346689
 20
10.6322104852
 30
0.0
 10
12.7106454036
 20
10.6123859351
 30
0.0
 10
12.7091818971
 20
10.5925083562
 30
0.0
 10
12.7071634831
 20
10.5728404309
 30
0.0
 10
12.7050249908
 20
10.5567158645
 30
0.0
 10
12.703050538
 20
10.5441216889
 30
0.0
 10
12.7014615084
 20
10.5349633751
 30
0.0
 10
12.6997579738
 20
10.5260479955
 30
0.0
 10
12.6979455802
 20
10.5174049912
 30
0.0
 10
12.6960303649
 20
10.5090629235
 30
0.0
 10
12.6940186925
 20
10.5010493387
 30
0.0
 10
12.6919172798
 20
10.4933906677
 30
0.0
 10
12.6897331366
 20
10.4861121419
 30
0.0
 10
12.6874735381
 20
10.4792377097
 30
0.0
 10
12.6851460089
 20
10.4727899347
 30
0.0
 10
12.6827583114
 20
10.4667898794
 30
0.0
 10
12.6803183774
 20
10.4612570708
 30
0.0
 10
12.6778342208
 20
10.4562092733
 30
0.0
 10
12.6753139721
 20
10.4516628142
 30
0.0
 10
12.6731424208
 20
10.4482273462
 30
0.0
 10
12.6713871225
 20
10.4457516877
 30
0.0
 10
12.6700975623
 20
10.4440728898
 30
0.0
 10
12.6688050615
 20
10.4425297673
 30
0.0
 10
12.667510639
 20
10.4411235188
 30
0.0
 10
12.6662152383
 20
10.4398552964
 30
0.0
 10
12.6649197795
 20
10.4387261596
 30
0.0
 10
12.6636252183
 20
10.4377370089
 30
0.0
 10
12.6623323769
 20
10.4368888035
 30
0.0
 10
12.6610421453
 20
10.4361823883
 30
0.0
 10
12.6597554243
 20
10.4356185696
 30
0.0
 10
12.658473161
 20
10.4351982893
 30
0.0
 10
12.657196453
 20
10.4349222732
 30
0.0
 10
12.65592683
 20
10.4347912006
 30
0.0
 10
12.6550839071
 20
10.4348008486
 30
0.0
 10
12.6546670857
 20
10.4348297571
 30
0.0
  0
SPLINE
  5
2F0
100
AcDbEntity
  8
0
100
AcDbSpline
 62
7
  6
CONTINUOUS
 70
0
 71
3
 72
41
 73
37
 74
0
 42
0.0000001
 43
0.0000001
 44
0.0000000001
 40
0.0
 40
0.0
 40
0.0
 40
0.0
 40
0.0840371085
 40
0.1695055815
 40
0.2553488075
 40
0.3405016335
 40
0.4239104072
 40
0.4646399927
 40
0.504552057
 40
0.543525572
 40
0.5814434683
 40
0.6181931372
 40
0.65366707
 40
0.687763687
 40
0.7203879513
 40
0.7514521366
 40
0.7808769208
 40
0.80859271
 40
0.834540974
 40
0.8586762203
 40
0.8809689184
 40
0.901409326
 40
0.9109401132
 40
0.9200162463
 40
0.9286448396
 40
0.9368360779
 40
0.9446031578
 40
0.9519631586
 40
0.9589377613
 40
0.965553559
 40
0.9718431863
 40
0.9778457302
 40
0.9836070087
 40
0.9891798126
 40
0.9946229658
 40
1.0
 40
1.0
 40
1.0
 40
1.0
 10
12.7117395887
 20
6.788209052
 30
0.0
 10
12.7117395887
 20
6.7816789447
 30
0.0
 10
12.7115346689
 20
6.7685067496
 30
0.0
 10
12.7106454036
 20
6.7486821995
 30
0.0
 10
12.7091818971
 20
6.7288046206
 30
0.0
 10
12.7071634831
 20
6.7091366953
 30
0.0
 10
12.7050249908
 20
6.6930121289
 30
0.0
 10
12.703050538
 20
6.6804179533
 30
0.0
 10
12.7014615084
 20
6.6712596395
 30
0.0
 10
12.6997579738
 20
6.6623442599
 30
0.0
 10
12.6979455802
 20
6.6537012556
 30
0.0
 10
12.6960303649
 20
6.6453591879
 30
0.0
 10
12.6940186925
 20
6.6373456031
 30
0.0
 10
12.6919172798
 20
6.6296869321
 30
0.0
 10
12.6897331366
 20
6.6224084063
 30
0.0
 10
12.6874735381
 20
6.6155339741
 30
0.0
 10
12.6851460089
 20
6.6090861991
 30
0.0
 10
12.6827583114
 20
6.6030861438
 30
0.0
 10
12.6803183774
 20
6.5975533352
 30
0.0
 10
12.6778342208
 20
6.5925055377
 30
0.0
 10
12.6753139721
 20
6.5879590786
 30
0.0
 10
12.6731424208
 20
6.5845236106
 30
0.0
 10
12.6713871225
 20
6.5820479521
 30
0.0
 10
12.6700975623
 20
6.5803691542
 30
0.0
 10
12.6688050615
 20
6.5788260317
 30
0.0
 10
12.667510639
 20
6.5774197832
 30
0.0
 10
12.6662152383
 20
6.5761515608
 30
0.0
 10
12.6649197795
 20
6.575022424
 30
0.0
 10
12.6636252183
 20
6.5740332733
 30
0.0
 10
12.6623323769
 20
6.5731850679
 30
0.0
 10
12.6610421453
 20
6.5724786527
 30
0.0
 10
12.6597554243
 20
6.571914834
 30
0.0
 10
12.658473161
 20
6.5714945537
 30
0.0
 10
12.657196453
 20
6.5712185376
 30
0.0
 10
12.65592683
 20
6.571087465
 30
0.0
 10
12.6550839071
 20
6.571097113
 30
0.0
 10
12.6546670857
 20
6.5711260215
 30
0.0
  0
SPLINE
  5
2F1
100
AcDbEntity
  8
0
100
AcDbSpline
 62
7
  6
CONTINUOUS
 70
0
 71
3
 72
39
 73
35
 74
0
 42
0.0000001
 43
0.0000001
 44
0.0000000001
 40
0.0
 40
0.0
 40
0.0
 40
0.0
 40
0.0299424701
 40
0.0599093174
 40
0.0899243244
 40
0.1200101043
 40
0.1501875649
 40
0.1804754189
 40
0.2108897652
 40
0.2414437446
 40
0.2721472716
 40
0.303006856
 40
0.3340255105
 40
0.3652027321
 40
0.396534568
 40
0.4280137546
 40
0.459629913
 40
0.4913698074
 40
0.5232176551
 40
0.555155472
 40
0.5871634555
 40
0.6192203971
 40
0.6513041118
 40
0.6833918814
 40
0.7154609078
 40
0.747488765
 40
0.7794538478
 40
0.811335806
 40
0.8431159644
 40
0.874777716
 40
0.9063068848
 40
0.9376920706
 40
0.9689246614
 40
1.0
 40
1.0
 40
1.0
 40
1.0
 10
10.8598966038
 20
8.6929351288
 30
0.0
 10
10.8495280593
 20
8.6829199091
 30
0.0
 10
10.8279756408
 20
8.6636977723
 30
0.0
 10
10.7934453219
 20
8.6375110301
 30
0.0
 10
10.7568898178
 20
8.6141017878
 30
0.0
 10
10.7185133875
 20
8.5936013503
 30
0.0
 10
10.6785269878
 20
8.5761217841
 30
0.0
 10
10.637151329
 20
8.5617591172
 30
0.0
 10
10.594614413
 20
8.5505919187
 30
0.0
 10
10.5511505705
 20
8.5426812288
 30
0.0
 10
10.5069991198
 20
8.5380699677
 30
0.0
 10
10.4624030137
 20
8.5367828997
 30
0.0
 10
10.4176075177
 20
8.5388265987
 30
0.0
 10
10.372858873
 20
8.5441892352
 30
0.0
 10
10.3284029365
 20
8.5528407772
 30
0.0
 10
10.2844838808
 20
8.5647332768
 30
0.0
 10
10.2413428368
 20
8.5798009594
 30
0.0
 10
10.1992165825
 20
8.5979606611
 30
0.0
 10
10.1583363213
 20
8.619112413
 30
0.0
 10
10.1189263711
 20
8.6431398314
 30
0.0
 10
10.0812029341
 20
8.669910777
 30
0.0
 10
10.045373019
 20
8.6992782075
 30
0.0
 10
10.0116332446
 20
8.731080853
 30
0.0
 10
9.9801687319
 20
8.7651440778
 30
0.0
 10
9.9511522265
 20
8.8012809578
 30
0.0
 10
9.9247430873
 20
8.8392932045
 30
0.0
 10
9.9010863381
 20
8.878972202
 30
0.0
 10
9.880312039
 20
8.9201002574
 30
0.0
 10
9.8625345154
 20
8.962451691
 30
0.0
 10
9.8478516077
 20
9.0057941218
 30
0.0
 10
9.8363443051
 20
9.0498894368
 30
0.0
 10
9.8280763353
 20
9.0944963554
 30
0.0
 10
9.8230933817
 20
9.139366743
 30
0.0
 10
9.8219773095
 20
9.1693761181
 30
0.0
 10
9.8219773095
 20
9.1843371955
 30
0.0
  0
SPLINE
  5
2F2
100
AcDbEntity
  8
0
100
AcDbSpline
 62
7
  6
CONTINUOUS
 70
0
 71
3
 72
39
 73
35
 74
0
 42
0.0000001
 43
0.0000001
 44
0.0000000001
 40
0.0
 40
0.0
 40
0.0
 40
0.0
 40
0.0314025836
 40
0.0630095222
 40
0.0948070985
 40
0.1267734472
 40
0.1588809725
 40
0.1910970216
 40
0.2233851128
 40
0.2557062446
 40
0.2880202662
 40
0.3202872749
 40
0.3524690068
 40
0.3845301831
 40
0.4164397919
 40
0.4481722502
 40
0.4797084082
 40
0.5110363786
 40
0.5421521204
 40
0.573059742
 40
0.6037715186
 40
0.6343075563
 40
0.6646951112
 40
0.6949675893
 40
0.7251632183
 40
0.7553234774
 40
0.7854913545
 40
0.8157095095
 40
0.8460184685
 40
0.8764549221
 40
0.9070502429
 40
0.9378292995
 40
0.9688091439
 40
1.0
 40
1.0
 40
1.0
 40
1.0
 10
9.309070763
 20
9.5715045045
 30
0.0
 10
9.3017788639
 20
9.5720101994
 30
0.0
 10
9.2871877672
 20
9.5737434931
 30
0.0
 10
9.2655951756
 20
9.5784510564
 30
0.0
 10
9.2444211145
 20
9.5852294406
 30
0.0
 10
9.22387159
 20
9.5940129434
 30
0.0
 10
9.2041430799
 20
9.6047166353
 30
0.0
 10
9.1854250513
 20
9.6172374031
 30
0.0
 10
9.1678970483
 20
9.631454852
 30
0.0
 10
9.1517271973
 20
9.6472323021
 30
0.0
 10
9.1370707083
 20
9.6644183062
 30
0.0
 10
9.1240683775
 20
9.6828479646
 30
0.0
 10
9.1128451219
 20
9.7023444133
 30
0.0
 10
9.1035090224
 20
9.7227206436
 30
0.0
 10
9.0961501681
 20
9.7437811469
 30
0.0
 10
9.0908396926
 20
9.7653237442
 30
0.0
 10
9.0876293294
 20
9.7871415571
 30
0.0
 10
9.0865506946
 20
9.809024871
 30
0.0
 10
9.0876148995
 20
9.8307631424
 30
0.0
 10
9.0908126273
 20
9.852146982
 30
0.0
 10
9.096113904
 20
9.8729701427
 30
0.0
 10
9.1034683342
 20
9.8930315535
 30
0.0
 10
9.1128057056
 20
9.9121372109
 30
0.0
 10
9.1240363321
 20
9.9301021972
 30
0.0
 10
9.1370519735
 20
9.946752559
 30
0.0
 10
9.1517270006
 20
9.9619269615
 30
0.0
 10
9.1679194032
 20
9.9754785287
 30
0.0
 10
9.1854723732
 20
9.9872762737
 30
0.0
 10
9.2042159398
 20
9.997206285
 30
0.0
 10
9.2239686372
 20
10.0051730867
 30
0.0
 10
9.2445391891
 20
10.0111004004
 30
0.0
 10
9.2657294763
 20
10.0149315904
 30
0.0
 10
9.2873323819
 20
10.0166309311
 30
0.0
 10
9.3018280285
 20
10.0163326963
 30
0.0
 10
9.309070763
 20
10.0158304109
 30
0.0
  0
SPLINE
  5
2F3
100
AcDbEntity
  8
0
100
AcDbSpline
 62
7
  6
CONTINUOUS
 70
0
 71
3
 72
39
 73
35
 74
0
 42
0.0000001
 43
0.0000001
 44
0.0000000001
 40
0.0
 40
0.0
 40
0.0
 40
0.0
 40
0.0314025836
 40
0.0630095222
 40
0.0948070985
 40
0.1267734472
 40
0.1588809725
 40
0.1910970216
 40
0.2233851128
 40
0.2557062446
 40
0.2880202662
 40
0.3202872749
 40
0.3524690068
 40
0.3845301831
 40
0.4164397919
 40
0.4481722502
 40
0.4797084082
 40
0.5110363786
 40
0.5421521204
 40
0.573059742
 40
0.6037715186
 40
0.6343075563
 40
0.6646951112
 40
0.6949675893
 40
0.7251632183
 40
0.7553234774
 40
0.7854913545
 40
0.8157095095
 40
0.8460184685
 40
0.8764549221
 40
0.9070502429
 40
0.9378292995
 40
0.9688091439
 40
1.0
 40
1.0
 40
1.0
 40
1.0
 10
9.309070763
 20
10.0158304109
 30
0.0
 10
9.3163626622
 20
10.015324716
 30
0.0
 10
9.3309537588
 20
10.0135914224
 30
0.0
 10
9.3525463504
 20
10.008883859
 30
0.0
 10
9.3737204116
 20
10.0021054749
 30
0.0
 10
9.3942699361
 20
9.9933219721
 30
0.0
 10
9.4139984461
 20
9.9826182801
 30
0.0
 10
9.4327164748
 20
9.9700975124
 30
0.0
 10
9.4502444777
 20
9.9558800634
 30
0.0
 10
9.4664143288
 20
9.9401026134
 30
0.0
 10
9.4810708177
 20
9.9229166092
 30
0.0
 10
9.4940731485
 20
9.9044869509
 30
0.0
 10
9.5052964042
 20
9.8849905022
 30
0.0
 10
9.5146325037
 20
9.8646142718
 30
0.0
 10
9.521991358
 20
9.8435537685
 30
0.0
 10
9.5273018334
 20
9.8220111712
 30
0.0
 10
9.5305121967
 20
9.8001933583
 30
0.0
 10
9.5315908314
 20
9.7783100444
 30
0.0
 10
9.5305266265
 20
9.7565717731
 30
0.0
 10
9.5273288987
 20
9.7351879334
 30
0.0
 10
9.522027622
 20
9.7143647727
 30
0.0
 10
9.5146731918
 20
9.6943033619
 30
0.0
 10
9.5053358205
 20
9.6751977045
 30
0.0
 10
9.4941051939
 20
9.6572327182
 30
0.0
 10
9.4810895525
 20
9.6405823565
 30
0.0
 10
9.4664145254
 20
9.625407954
 30
0.0
 10
9.4502221228
 20
9.6118563867
 30
0.0
 10
9.4326691529
 20
9.6000586418
 30
0.0
 10
9.4139255862
 20
9.5901286305
 30
0.0
 10
9.3941728889
 20
9.5821618288
 30
0.0
 10
9.373602337
 20
9.576234515
 30
0.0
 10
9.3524120497
 20
9.572403325
 30
0.0
 10
9.3308091441
 20
9.5707039844
 30
0.0
 10
9.3163134976
 20
9.5710022192
 30
0.0
 10
9.309070763
 20
9.5715045045
 30
0.0
  0
SPLINE
  5
2F4
100
AcDbEntity
  8
0
100
AcDbSpline
 62
7
  6
CONTINUOUS
 70
0
 71
3
 72
39
 73
35
 74
0
 42
0.0000001
 43
0.0000001
 44
0.0000000001
 40
0.0
 40
0.0
 40
0.0
 40
0.0
 40
0.0314025836
 40
0.0630095222
 40
0.0948070985
 40
0.1267734472
 40
0.1588809725
 40
0.1910970216
 40
0.2233851128
 40
0.2557062446
 40
0.2880202662
 40
0.3202872749
 40
0.3524690068
 40
0.3845301831
 40
0.4164397919
 40
0.4481722502
 40
0.4797084082
 40
0.5110363786
 40
0.5421521204
 40
0.573059742
 40
0.6037715186
 40
0.6343075563
 40
0.6646951112
 40
0.6949675893
 40
0.7251632183
 40
0.7553234774
 40
0.7854913545
 40
0.8157095095
 40
0.8460184685
 40
0.8764549221
 40
0.9070502429
 40
0.9378292995
 40
0.9688091439
 40
1.0
 40
1.0
 40
1.0
 40
1.0
 10
11.5422913256
 20
9.4166301325
 30
0.0
 10
11.5349994264
 20
9.4171358274
 30
0.0
 10
11.5204083298
 20
9.418869121
 30
0.0
 10
11.4988157382
 20
9.4235766844
 30
0.0
 10
11.477641677
 20
9.4303550685
 30
0.0
 10
11.4570921525
 20
9.4391385713
 30
0.0
 10
11.4373636425
 20
9.4498422633
 30
0.0
 10
11.4186456138
 20
9.462363031
 30
0.0
 10
11.4011176109
 20
9.47658048
 30
0.0
 10
11.3849477598
 20
9.49235793
 30
0.0
 10
11.3702912709
 20
9.5095439342
 30
0.0
 10
11.3572889401
 20
9.5279735925
 30
0.0
 10
11.3460656844
 20
9.5474700412
 30
0.0
 10
11.3367295849
 20
9.5678462716
 30
0.0
 10
11.3293707306
 20
9.5889067749
 30
0.0
 10
11.3240602552
 20
9.6104493722
 30
0.0
 10
11.3208498919
 20
9.6322671851
 30
0.0
 10
11.3197712572
 20
9.654150499
 30
0.0
 10
11.3208354621
 20
9.6758887703
 30
0.0
 10
11.3240331899
 20
9.69727261
 30
0.0
 10
11.3293344666
 20
9.7180957707
 30
0.0
 10
11.3366888968
 20
9.7381571815
 30
0.0
 10
11.3460262681
 20
9.7572628389
 30
0.0
 10
11.3572568947
 20
9.7752278252
 30
0.0
 10
11.3702725361
 20
9.7918781869
 30
0.0
 10
11.3849475632
 20
9.8070525894
 30
0.0
 10
11.4011399658
 20
9.8206041567
 30
0.0
 10
11.4186929357
 20
9.8324019016
 30
0.0
 10
11.4374365024
 20
9.842331913
 30
0.0
 10
11.4571891998
 20
9.8502987146
 30
0.0
 10
11.4777597516
 20
9.8562260284
 30
0.0
 10
11.4989500389
 20
9.8600572184
 30
0.0
 10
11.5205529445
 20
9.861756559
 30
0.0
 10
11.535048591
 20
9.8614583242
 30
0.0
 10
11.5422913256
 20
9.8609560389
 30
0.0
  0
SPLINE
  5
2F5
100
AcDbEntity
  8
0
100
AcDbSpline
 62
7
  6
CONTINUOUS
 70
0
 71
3
 72
21
 73
17
 74
0
 42
0.0000001
 43
0.0000001
 44
0.0000000001
 40
0.0
 40
0.0
 40
0.0
 40
0.0
 40
0.0616532317
 40
0.1233294898
 40
0.1850515414
 40
0.246841662
 40
0.3087213493
 40
0.3707111057
 40
0.4328302438
 40
0.4950966409
 40
0.5575265847
 40
0.6201345602
 40
0.6829331384
 40
0.745933256
 40
0.8725261412
 40
1.0
 40
1.0
 40
1.0
 40
1.0
 10
9.4566564988
 20
9.6553780353
 30
0.0
 10
9.4543896351
 20
9.6531884279
 30
0.0
 10
9.4497363299
 20
9.6489294216
 30
0.0
 10
9.4424216429
 20
9.6429241238
 30
0.0
 10
9.4347893541
 20
9.6373157348
 30
0.0
 10
9.4268589289
 20
9.6321186553
 30
0.0
 10
9.4186502585
 20
9.6273459514
 30
0.0
 10
9.410184091
 20
9.6230095835
 30
0.0
 10
9.4014817424
 20
9.6191204691
 30
0.0
 10
9.3925651236
 20
9.615688446
 30
0.0
 10
9.3834567112
 20
9.6127220658
 30
0.0
 10
9.374179515
 20
9.6102287875
 30
0.0
 10
9.3647566122
 20
9.6082149129
 30
0.0
 10
9.3520122289
 20
9.6061725725
 30
0.0
 10
9.3358288886
 20
9.6048456767
 30
0.0
 10
9.32281846
 20
9.605099594
 30
0.0
 10
9.3163176903
 20
9.6055504239
 30
0.0
  0
SPLINE
  5
2F6
100
AcDbEntity
  8
0
100
AcDbSpline
 62
7
  6
CONTINUOUS
 70
0
 71
3
 72
39
 73
35
 74
0
 42
0.0000001
 43
0.0000001
 44
0.0000000001
 40
0.0
 40
0.0
 40
0.0
 40
0.0
 40
0.0314025836
 40
0.0630095222
 40
0.0948070985
 40
0.1267734472
 40
0.1588809725
 40
0.1910970216
 40
0.2233851128
 40
0.2557062446
 40
0.2880202662
 40
0.3202872749
 40
0.3524690068
 40
0.3845301831
 40
0.4164397919
 40
0.4481722502
 40
0.4797084082
 40
0.5110363786
 40
0.5421521204
 40
0.573059742
 40
0.6037715186
 40
0.6343075563
 40
0.6646951112
 40
0.6949675893
 40
0.7251632183
 40
0.7553234774
 40
0.7854913545
 40
0.8157095095
 40
0.8460184685
 40
0.8764549221
 40
0.9070502429
 40
0.9378292995
 40
0.9688091439
 40
1.0
 40
1.0
 40
1.0
 40
1.0
 10
11.5422913256
 20
9.8609560389
 30
0.0
 10
11.5495832247
 20
9.860450344
 30
0.0
 10
11.5641743214
 20
9.8587170503
 30
0.0
 10
11.585766913
 20
9.854009487
 30
0.0
 10
11.6069409741
 20
9.8472311028
 30
0.0
 10
11.6274904986
 20
9.8384476
 30
0.0
 10
11.6472190087
 20
9.8277439081
 30
0.0
 10
11.6659370373
 20
9.8152231403
 30
0.0
 10
11.6834650403
 20
9.8010056914
 30
0.0
 10
11.6996348913
 20
9.7852282413
 30
0.0
 10
11.7142913803
 20
9.7680422372
 30
0.0
 10
11.7272937111
 20
9.7496125788
 30
0.0
 10
11.7385169667
 20
9.7301161302
 30
0.0
 10
11.7478530662
 20
9.7097398998
 30
0.0
 10
11.7552119205
 20
9.6886793965
 30
0.0
 10
11.760522396
 20
9.6671367992
 30
0.0
 10
11.7637327592
 20
9.6453189863
 30
0.0
 10
11.764811394
 20
9.6234356724
 30
0.0
 10
11.7637471891
 20
9.601697401
 30
0.0
 10
11.7605494613
 20
9.5803135614
 30
0.0
 10
11.7552481846
 20
9.5594904007
 30
0.0
 10
11.7478937544
 20
9.5394289899
 30
0.0
 10
11.738556383
 20
9.5203233325
 30
0.0
 10
11.7273257565
 20
9.5023583462
 30
0.0
 10
11.7143101151
 20
9.4857079844
 30
0.0
 10
11.699635088
 20
9.4705335819
 30
0.0
 10
11.6834426854
 20
9.4569820147
 30
0.0
 10
11.6658897154
 20
9.4451842697
 30
0.0
 10
11.6471461488
 20
9.4352542584
 30
0.0
 10
11.6273934514
 20
9.4272874567
 30
0.0
 10
11.6068228995
 20
9.421360143
 30
0.0
 10
11.5856326123
 20
9.417528953
 30
0.0
 10
11.5640297067
 20
9.4158296123
 30
0.0
 10
11.5495340601
 20
9.4161278471
 30
0.0
 10
11.5422913256
 20
9.4166301325
 30
0.0
  0
SPLINE
  5
2F7
100
AcDbEntity
  8
0
100
AcDbSpline
 62
7
  6
CONTINUOUS
 70
0
 71
3
 72
39
 73
35
 74
0
 42
0.0000001
 43
0.0000001
 44
0.0000000001
 40
0.0
 40
0.0
 40
0.0
 40
0.0
 40
0.0314025836
 40
0.0630095222
 40
0.0948070985
 40
0.1267734472
 40
0.1588809725
 40
0.1910970216
 40
0.2233851128
 40
0.2557062446
 40
0.2880202662
 40
0.3202872749
 40
0.3524690068
 40
0.3845301831
 40
0.4164397919
 40
0.4481722502
 40
0.4797084082
 40
0.5110363786
 40
0.5421521204
 40
0.573059742
 40
0.6037715186
 40
0.6343075563
 40
0.6646951112
 40
0.6949675893
 40
0.7251632183
 40
0.7553234774
 40
0.7854913545
 40
0.8157095095
 40
0.8460184685
 40
0.8764549221
 40
0.9070502429
 40
0.9378292995
 40
0.9688091439
 40
1.0
 40
1.0
 40
1.0
 40
1.0
 10
11.5422913256
 20
8.2691099876
 30
0.0
 10
11.5349994264
 20
8.2696156825
 30
0.0
 10
11.5204083298
 20
8.2713489761
 30
0.0
 10
11.4988157382
 20
8.2760565395
 30
0.0
 10
11.477641677
 20
8.2828349236
 30
0.0
 10
11.4570921525
 20
8.2916184264
 30
0.0
 10
11.4373636425
 20
8.3023221184
 30
0.0
 10
11.4186456138
 20
8.3148428861
 30
0.0
 10
11.4011176109
 20
8.3290603351
 30
0.0
 10
11.3849477598
 20
8.3448377851
 30
0.0
 10
11.3702912709
 20
8.3620237893
 30
0.0
 10
11.3572889401
 20
8.3804534476
 30
0.0
 10
11.3460656844
 20
8.3999498963
 30
0.0
 10
11.3367295849
 20
8.4203261267
 30
0.0
 10
11.3293707306
 20
8.44138663
 30
0.0
 10
11.3240602552
 20
8.4629292272
 30
0.0
 10
11.3208498919
 20
8.4847470402
 30
0.0
 10
11.3197712572
 20
8.5066303541
 30
0.0
 10
11.3208354621
 20
8.5283686254
 30
0.0
 10
11.3240331899
 20
8.5497524651
 30
0.0
 10
11.3293344666
 20
8.5705756258
 30
0.0
 10
11.3366888968
 20
8.5906370366
 30
0.0
 10
11.3460262681
 20
8.609742694
 30
0.0
 10
11.3572568947
 20
8.6277076803
 30
0.0
 10
11.3702725361
 20
8.644358042
 30
0.0
 10
11.3849475632
 20
8.6595324445
 30
0.0
 10
11.4011399658
 20
8.6730840118
 30
0.0
 10
11.4186929357
 20
8.6848817567
 30
0.0
 10
11.4374365024
 20
8.694811768
 30
0.0
 10
11.4571891998
 20
8.7027785697
 30
0.0
 10
11.4777597516
 20
8.7087058834
 30
0.0
 10
11.4989500389
 20
8.7125370735
 30
0.0
 10
11.5205529445
 20
8.7142364141
 30
0.0
 10
11.535048591
 20
8.7139381793
 30
0.0
 10
11.5422913256
 20
8.713435894
 30
0.0
  0
SPLINE
  5
2F8
100
AcDbEntity
  8
0
100
AcDbSpline
 62
7
  6
CONTINUOUS
 70
0
 71
3
 72
21
 73
17
 74
0
 42
0.0000001
 43
0.0000001
 44
0.0000000001
 40
0.0
 40
0.0
 40
0.0
 40
0.0
 40
0.0616532317
 40
0.1233294898
 40
0.1850515414
 40
0.246841662
 40
0.3087213493
 40
0.3707111057
 40
0.4328302438
 40
0.4950966409
 40
0.5575265847
 40
0.6201345602
 40
0.6829331384
 40
0.745933256
 40
0.8725261412
 40
1.0
 40
1.0
 40
1.0
 40
1.0
 10
11.6898770614
 20
9.5005036633
 30
0.0
 10
11.6876101977
 20
9.4983140558
 30
0.0
 10
11.6829568924
 20
9.4940550496
 30
0.0
 10
11.6756422055
 20
9.4880497518
 30
0.0
 10
11.6680099167
 20
9.4824413628
 30
0.0
 10
11.6600794915
 20
9.4772442833
 30
0.0
 10
11.6518708211
 20
9.4724715794
 30
0.0
 10
11.6434046536
 20
9.4681352115
 30
0.0
 10
11.6347023049
 20
9.4642460971
 30
0.0
 10
11.6257856861
 20
9.4608140739
 30
0.0
 10
11.6166772738
 20
9.4578476937
 30
0.0
 10
11.6074000776
 20
9.4553544155
 30
0.0
 10
11.5979771747
 20
9.4533405409
 30
0.0
 10
11.5852327914
 20
9.4512982005
 30
0.0
 10
11.5690494512
 20
9.4499713047
 30
0.0
 10
11.5560390226
 20
9.4502252219
 30
0.0
 10
11.5495382529
 20
9.4506760518
 30
0.0
  0
SPLINE
  5
2F9
100
AcDbEntity
  8
0
100
AcDbSpline
 62
7
  6
CONTINUOUS
 70
0
 71
3
 72
39
 73
35
 74
0
 42
0.0000001
 43
0.0000001
 44
0.0000000001
 40
0.0
 40
0.0
 40
0.0
 40
0.0
 40
0.0314025836
 40
0.0630095222
 40
0.0948070985
 40
0.1267734472
 40
0.1588809725
 40
0.1910970216
 40
0.2233851128
 40
0.2557062446
 40
0.2880202662
 40
0.3202872749
 40
0.3524690068
 40
0.3845301831
 40
0.4164397919
 40
0.4481722502
 40
0.4797084082
 40
0.5110363786
 40
0.5421521204
 40
0.573059742
 40
0.6037715186
 40
0.6343075563
 40
0.6646951112
 40
0.6949675893
 40
0.7251632183
 40
0.7553234774
 40
0.7854913545
 40
0.8157095095
 40
0.8460184685
 40
0.8764549221
 40
0.9070502429
 40
0.9378292995
 40
0.9688091439
 40
1.0
 40
1.0
 40
1.0
 40
1.0
 10
11.5422913256
 20
8.713435894
 30
0.0
 10
11.5495832247
 20
8.7129301991
 30
0.0
 10
11.5641743214
 20
8.7111969054
 30
0.0
 10
11.585766913
 20
8.7064893421
 30
0.0
 10
11.6069409741
 20
8.6997109579
 30
0.0
 10
11.6274904986
 20
8.6909274551
 30
0.0
 10
11.6472190087
 20
8.6802237631
 30
0.0
 10
11.6659370373
 20
8.6677029954
 30
0.0
 10
11.6834650403
 20
8.6534855464
 30
0.0
 10
11.6996348913
 20
8.6377080964
 30
0.0
 10
11.7142913803
 20
8.6205220923
 30
0.0
 10
11.7272937111
 20
8.6020924339
 30
0.0
 10
11.7385169667
 20
8.5825959852
 30
0.0
 10
11.7478530662
 20
8.5622197549
 30
0.0
 10
11.7552119205
 20
8.5411592516
 30
0.0
 10
11.760522396
 20
8.5196166543
 30
0.0
 10
11.7637327592
 20
8.4977988414
 30
0.0
 10
11.764811394
 20
8.4759155275
 30
0.0
 10
11.7637471891
 20
8.4541772561
 30
0.0
 10
11.7605494613
 20
8.4327934165
 30
0.0
 10
11.7552481846
 20
8.4119702558
 30
0.0
 10
11.7478937544
 20
8.391908845
 30
0.0
 10
11.738556383
 20
8.3728031876
 30
0.0
 10
11.7273257565
 20
8.3548382013
 30
0.0
 10
11.7143101151
 20
8.3381878395
 30
0.0
 10
11.699635088
 20
8.323013437
 30
0.0
 10
11.6834426854
 20
8.3094618698
 30
0.0
 10
11.6658897154
 20
8.2976641248
 30
0.0
 10
11.6471461488
 20
8.2877341135
 30
0.0
 10
11.6273934514
 20
8.2797673118
 30
0.0
 10
11.6068228995
 20
8.2738399981
 30
0.0
 10
11.5856326123
 20
8.270008808
 30
0.0
 10
11.5640297067
 20
8.2683094674
 30
0.0
 10
11.5495340601
 20
8.2686077022
 30
0.0
 10
11.5422913256
 20
8.2691099876
 30
0.0
  0
SPLINE
  5
2FA
100
AcDbEntity
  8
0
100
AcDbSpline
 62
7
  6
CONTINUOUS
 70
0
 71
3
 72
21
 73
17
 74
0
 42
0.0000001
 43
0.0000001
 44
0.0000000001
 40
0.0
 40
0.0
 40
0.0
 40
0.0
 40
0.0616532317
 40
0.1233294898
 40
0.1850515414
 40
0.246841662
 40
0.3087213493
 40
0.3707111057
 40
0.4328302438
 40
0.4950966409
 40
0.5575265847
 40
0.6201345602
 40
0.6829331384
 40
0.745933256
 40
0.8725261412
 40
1.0
 40
1.0
 40
1.0
 40
1.0
 10
11.6898770614
 20
8.3529835183
 30
0.0
 10
11.6876101977
 20
8.3507939109
 30
0.0
 10
11.6829568924
 20
8.3465349047
 30
0.0
 10
11.6756422055
 20
8.3405296069
 30
0.0
 10
11.6680099167
 20
8.3349212179
 30
0.0
 10
11.6600794915
 20
8.3297241383
 30
0.0
 10
11.6518708211
 20
8.3249514345
 30
0.0
 10
11.6434046536
 20
8.3206150666
 30
0.0
 10
11.6347023049
 20
8.3167259522
 30
0.0
 10
11.6257856861
 20
8.313293929
 30
0.0
 10
11.6166772738
 20
8.3103275488
 30
0.0
 10
11.6074000776
 20
8.3078342706
 30
0.0
 10
11.5979771747
 20
8.305820396
 30
0.0
 10
11.5852327914
 20
8.3037780556
 30
0.0
 10
11.5690494512
 20
8.3024511598
 30
0.0
 10
11.5560390226
 20
8.302705077
 30
0.0
 10
11.5495382529
 20
8.3031559069
 30
0.0
  0
SPLINE
  5
2FB
100
AcDbEntity
  8
0
100
AcDbSpline
 62
7
  6
CONTINUOUS
 70
0
 71
3
 72
21
 73
17
 74
0
 42
0.0000001
 43
0.0000001
 44
0.0000000001
 40
0.0
 40
0.0
 40
0.0
 40
0.0
 40
0.0616532317
 40
0.1233294898
 40
0.1850515414
 40
0.246841662
 40
0.3087213493
 40
0.3707111057
 40
0.4328302438
 40
0.4950966409
 40
0.5575265847
 40
0.6201345602
 40
0.6829331384
 40
0.745933256
 40
0.8725261412
 40
1.0
 40
1.0
 40
1.0
 40
1.0
 10
9.4566564988
 20
8.5078578904
 30
0.0
 10
9.4543896351
 20
8.505668283
 30
0.0
 10
9.4497363299
 20
8.5014092767
 30
0.0
 10
9.4424216429
 20
8.4954039789
 30
0.0
 10
9.4347893541
 20
8.4897955899
 30
0.0
 10
9.4268589289
 20
8.4845985104
 30
0.0
 10
9.4186502585
 20
8.4798258065
 30
0.0
 10
9.410184091
 20
8.4754894386
 30
0.0
 10
9.4014817424
 20
8.4716003242
 30
0.0
 10
9.3925651236
 20
8.468168301
 30
0.0
 10
9.3834567112
 20
8.4652019209
 30
0.0
 10
9.374179515
 20
8.4627086426
 30
0.0
 10
9.3647566122
 20
8.460694768
 30
0.0
 10
9.3520122289
 20
8.4586524276
 30
0.0
 10
9.3358288886
 20
8.4573255318
 30
0.0
 10
9.32281846
 20
8.4575794491
 30
0.0
 10
9.3163176903
 20
8.458030279
 30
0.0
  0
SPLINE
  5
2FC
100
AcDbEntity
  8
0
100
AcDbSpline
 62
7
  6
CONTINUOUS
 70
0
 71
3
 72
39
 73
35
 74
0
 42
0.0000001
 43
0.0000001
 44
0.0000000001
 40
0.0
 40
0.0
 40
0.0
 40
0.0
 40
0.0314025836
 40
0.0630095222
 40
0.0948070985
 40
0.1267734472
 40
0.1588809725
 40
0.1910970216
 40
0.2233851128
 40
0.2557062446
 40
0.2880202662
 40
0.3202872749
 40
0.3524690068
 40
0.3845301831
 40
0.4164397919
 40
0.4481722502
 40
0.4797084082
 40
0.5110363786
 40
0.5421521204
 40
0.573059742
 40
0.6037715186
 40
0.6343075563
 40
0.6646951112
 40
0.6949675893
 40
0.7251632183
 40
0.7553234774
 40
0.7854913545
 40
0.8157095095
 40
0.8460184685
 40
0.8764549221
 40
0.9070502429
 40
0.9378292995
 40
0.9688091439
 40
1.0
 40
1.0
 40
1.0
 40
1.0
 10
9.309070763
 20
8.4239843596
 30
0.0
 10
9.3017788639
 20
8.4244900545
 30
0.0
 10
9.2871877672
 20
8.4262233481
 30
0.0
 10
9.2655951756
 20
8.4309309115
 30
0.0
 10
9.2444211145
 20
8.4377092957
 30
0.0
 10
9.22387159
 20
8.4464927985
 30
0.0
 10
9.2041430799
 20
8.4571964904
 30
0.0
 10
9.1854250513
 20
8.4697172582
 30
0.0
 10
9.1678970483
 20
8.4839347071
 30
0.0
 10
9.1517271973
 20
8.4997121572
 30
0.0
 10
9.1370707083
 20
8.5168981613
 30
0.0
 10
9.1240683775
 20
8.5353278196
 30
0.0
 10
9.1128451219
 20
8.5548242683
 30
0.0
 10
9.1035090224
 20
8.5752004987
 30
0.0
 10
9.0961501681
 20
8.596261002
 30
0.0
 10
9.0908396926
 20
8.6178035993
 30
0.0
 10
9.0876293294
 20
8.6396214122
 30
0.0
 10
9.0865506946
 20
8.6615047261
 30
0.0
 10
9.0876148995
 20
8.6832429975
 30
0.0
 10
9.0908126273
 20
8.7046268371
 30
0.0
 10
9.096113904
 20
8.7254499978
 30
0.0
 10
9.1034683342
 20
8.7455114086
 30
0.0
 10
9.1128057056
 20
8.764617066
 30
0.0
 10
9.1240363321
 20
8.7825820523
 30
0.0
 10
9.1370519735
 20
8.7992324141
 30
0.0
 10
9.1517270006
 20
8.8144068165
 30
0.0
 10
9.1679194032
 20
8.8279583838
 30
0.0
 10
9.1854723732
 20
8.8397561287
 30
0.0
 10
9.2042159398
 20
8.8496861401
 30
0.0
 10
9.2239686372
 20
8.8576529418
 30
0.0
 10
9.2445391891
 20
8.8635802555
 30
0.0
 10
9.2657294763
 20
8.8674114455
 30
0.0
 10
9.2873323819
 20
8.8691107862
 30
0.0
 10
9.3018280285
 20
8.8688125514
 30
0.0
 10
9.309070763
 20
8.868310266
 30
0.0
  0
SPLINE
  5
2FD
100
AcDbEntity
  8
0
100
AcDbSpline
 62
7
  6
CONTINUOUS
 70
0
 71
3
 72
33
 73
29
 74
0
 42
0.0000001
 43
0.0000001
 44
0.0000000001
 40
0.0
 40
0.0
 40
0.0
 40
0.0
 40
0.0126611288
 40
0.0256297364
 40
0.0391903529
 40
0.0535891217
 40
0.0690267912
 40
0.0856608444
 40
0.1036097629
 40
0.1229606788
 40
0.1437742981
 40
0.166091251
 40
0.189934997
 40
0.2153160863
 40
0.2422335461
 40
0.2706776285
 40
0.3006304368
 40
0.3320676693
 40
0.3649589713
 40
0.399268986
 40
0.4349576904
 40
0.4719809326
 40
0.5498333002
 40
0.6324070883
 40
0.7192336636
 40
0.809805944
 40
0.9035833385
 40
1.0
 40
1.0
 40
1.0
 40
1.0
 10
12.6787431384
 20
10.7819958848
 30
0.0
 10
12.6793326541
 20
10.7819549991
 30
0.0
 10
12.6805213595
 20
10.7817738074
 30
0.0
 10
12.6822690932
 20
10.7812110869
 30
0.0
 10
12.6839864065
 20
10.7803599273
 30
0.0
 10
12.6856697966
 20
10.7792241926
 30
0.0
 10
12.6873177938
 20
10.7778076268
 30
0.0
 10
12.6889287785
 20
10.7761132767
 30
0.0
 10
12.6905013171
 20
10.7741442389
 30
0.0
 10
12.6920335025
 20
10.7719035576
 30
0.0
 10
12.6935234528
 20
10.769394734
 30
0.0
 10
12.6949689535
 20
10.7666215819
 30
0.0
 10
12.6963679091
 20
10.7635884528
 30
0.0
 10
12.6977180536
 20
10.7603001094
 30
0.0
 10
12.6990172825
 20
10.7567618148
 30
0.0
 10
12.7002634286
 20
10.7529792541
 30
0.0
 10
12.7014544829
 20
10.7489585613
 30
0.0
 10
12.7025884461
 20
10.744706278
 30
0.0
 10
12.7036634577
 20
10.7402293509
 30
0.0
 10
12.7046777133
 20
10.7355351131
 30
0.0
 10
12.7056295528
 20
10.7306312575
 30
0.0
 10
12.7068334756
 20
10.7237075004
 30
0.0
 10
12.7081606404
 20
10.7145860044
 30
0.0
 10
12.7094572533
 20
10.703117397
 30
0.0
 10
12.710474363
 20
10.6910248851
 30
0.0
 10
12.7112050441
 20
10.6783880683
 30
0.0
 10
12.7116442628
 20
10.6652900937
 30
0.0
 10
12.7117395887
 20
10.6564128346
 30
0.0
 10
12.7117395887
 20
10.6519127876
 30
0.0
  0
SPLINE
  5
2FE
100
AcDbEntity
  8
0
100
AcDbSpline
 62
7
  6
CONTINUOUS
 70
0
 71
3
 72
41
 73
37
 74
0
 42
0.0000001
 43
0.0000001
 44
0.0000000001
 40
0.0
 40
0.0
 40
0.0
 40
0.0
 40
0.0187319668
 40
0.035847177
 40
0.0515868562
 40
0.0590452286
 40
0.0662885459
 40
0.0733702853
 40
0.0803480554
 40
0.0872823544
 40
0.0942348749
 40
0.101266826
 40
0.1084371444
 40
0.1158011528
 40
0.1234095854
 40
0.1395251574
 40
0.1570956931
 40
0.1763399564
 40
0.1974108929
 40
0.220409949
 40
0.2453986527
 40
0.2724083546
 40
0.301446689
 40
0.3325021144
 40
0.3655480286
 40
0.4005449666
 40
0.4374424127
 40
0.476180788
 40
0.516692145
 40
0.5589011524
 40
0.6027262466
 40
0.6480798251
 40
0.6948689152
 40
0.7923565207
 40
0.8943610393
 40
1.0
 40
1.0
 40
1.0
 40
1.0
 10
12.6908549775
 20
10.7989675533
 30
0.0
 10
12.6916531076
 20
10.799710377
 30
0.0
 10
12.6932480347
 20
10.8010628583
 30
0.0
 10
12.6957544399
 20
10.8027298235
 30
0.0
 10
12.697879099
 20
10.8037494095
 30
0.0
 10
12.6995613272
 20
10.8043119642
 30
0.0
 10
12.7007958989
 20
10.8046084095
 30
0.0
 10
12.7020248523
 20
10.8047863687
 30
0.0
 10
12.7032473022
 20
10.8048455141
 30
0.0
 10
12.7044622254
 20
10.8047857669
 30
0.0
 10
12.7056686046
 20
10.8046071405
 30
0.0
 10
12.7068654245
 20
10.8043097919
 30
0.0
 10
12.7080517661
 20
10.8038941811
 30
0.0
 10
12.7092268522
 20
10.8033607523
 30
0.0
 10
12.7108075984
 20
10.80247634
 30
0.0
 10
12.7127580625
 20
10.8010556531
 30
0.0
 10
12.7149920483
 20
10.7989238129
 30
0.0
 10
12.7171626189
 20
10.796339303
 30
0.0
 10
12.7192665111
 20
10.7933083986
 30
0.0
 10
12.7213004945
 20
10.789837501
 30
0.0
 10
12.7232606526
 20
10.7859341266
 30
0.0
 10
12.7251428163
 20
10.7816068342
 30
0.0
 10
12.7269427301
 20
10.7768653496
 30
0.0
 10
12.7286562592
 20
10.7717205275
 30
0.0
 10
12.7302793252
 20
10.7661842664
 30
0.0
 10
12.7318080475
 20
10.7602694864
 30
0.0
 10
12.7332387878
 20
10.7539900766
 30
0.0
 10
12.7345680728
 20
10.747360828
 30
0.0
 10
12.7357927005
 20
10.7403974056
 30
0.0
 10
12.7369097415
 20
10.7331162955
 30
0.0
 10
12.7379164639
 20
10.7255347579
 30
0.0
 10
12.738810479
 20
10.7176707685
 30
0.0
 10
12.739863666
 20
10.7066829588
 30
0.0
 10
12.740871693
 20
10.6923806255
 30
0.0
 10
12.7415905425
 20
10.674632369
 30
0.0
 10
12.7417458342
 20
10.6625454611
 30
0.0
 10
12.7417458342
 20
10.6563965968
 30
0.0
  0
SPLINE
  5
2FF
100
AcDbEntity
  8
0
100
AcDbSpline
 62
7
  6
CONTINUOUS
 70
0
 71
3
 72
39
 73
35
 74
0
 42
0.0000001
 43
0.0000001
 44
0.0000000001
 40
0.0
 40
0.0
 40
0.0
 40
0.0
 40
0.0314025836
 40
0.0630095222
 40
0.0948070985
 40
0.1267734472
 40
0.1588809725
 40
0.1910970216
 40
0.2233851128
 40
0.2557062446
 40
0.2880202662
 40
0.3202872749
 40
0.3524690068
 40
0.3845301831
 40
0.4164397919
 40
0.4481722502
 40
0.4797084082
 40
0.5110363786
 40
0.5421521204
 40
0.573059742
 40
0.6037715186
 40
0.6343075563
 40
0.6646951112
 40
0.6949675893
 40
0.7251632183
 40
0.7553234774
 40
0.7854913545
 40
0.8157095095
 40
0.8460184685
 40
0.8764549221
 40
0.9070502429
 40
0.9378292995
 40
0.9688091439
 40
1.0
 40
1.0
 40
1.0
 40
1.0
 10
9.309070763
 20
8.868310266
 30
0.0
 10
9.3163626622
 20
8.8678045711
 30
0.0
 10
9.3309537588
 20
8.8660712775
 30
0.0
 10
9.3525463504
 20
8.8613637141
 30
0.0
 10
9.3737204116
 20
8.8545853299
 30
0.0
 10
9.3942699361
 20
8.8458018272
 30
0.0
 10
9.4139984461
 20
8.8350981352
 30
0.0
 10
9.4327164748
 20
8.8225773674
 30
0.0
 10
9.4502444777
 20
8.8083599185
 30
0.0
 10
9.4664143288
 20
8.7925824684
 30
0.0
 10
9.4810708177
 20
8.7753964643
 30
0.0
 10
9.4940731485
 20
8.756966806
 30
0.0
 10
9.5052964042
 20
8.7374703573
 30
0.0
 10
9.5146325037
 20
8.7170941269
 30
0.0
 10
9.521991358
 20
8.6960336236
 30
0.0
 10
9.5273018334
 20
8.6744910263
 30
0.0
 10
9.5305121967
 20
8.6526732134
 30
0.0
 10
9.5315908314
 20
8.6307898995
 30
0.0
 10
9.5305266265
 20
8.6090516281
 30
0.0
 10
9.5273288987
 20
8.5876677885
 30
0.0
 10
9.522027622
 20
8.5668446278
 30
0.0
 10
9.5146731918
 20
8.546783217
 30
0.0
 10
9.5053358205
 20
8.5276775596
 30
0.0
 10
9.4941051939
 20
8.5097125733
 30
0.0
 10
9.4810895525
 20
8.4930622116
 30
0.0
 10
9.4664145254
 20
8.4778878091
 30
0.0
 10
9.4502221228
 20
8.4643362418
 30
0.0
 10
9.4326691529
 20
8.4525384969
 30
0.0
 10
9.4139255862
 20
8.4426084855
 30
0.0
 10
9.3941728889
 20
8.4346416839
 30
0.0
 10
9.373602337
 20
8.4287143701
 30
0.0
 10
9.3524120497
 20
8.4248831801
 30
0.0
 10
9.3308091441
 20
8.4231838394
 30
0.0
 10
9.3163134976
 20
8.4234820743
 30
0.0
 10
9.309070763
 20
8.4239843596
 30
0.0
  0
SPLINE
  5
300
100
AcDbEntity
  8
0
100
AcDbSpline
 62
7
  6
CONTINUOUS
 70
0
 71
3
 72
33
 73
29
 74
0
 42
0.0000001
 43
0.0000001
 44
0.0000000001
 40
0.0
 40
0.0
 40
0.0
 40
0.0
 40
0.0126611288
 40
0.0256297364
 40
0.0391903529
 40
0.0535891217
 40
0.0690267912
 40
0.0856608444
 40
0.1036097629
 40
0.1229606788
 40
0.1437742981
 40
0.166091251
 40
0.189934997
 40
0.2153160863
 40
0.2422335461
 40
0.2706776285
 40
0.3006304368
 40
0.3320676693
 40
0.3649589713
 40
0.399268986
 40
0.4349576904
 40
0.4719809326
 40
0.5498333002
 40
0.6324070883
 40
0.7192336636
 40
0.809805944
 40
0.9035833385
 40
1.0
 40
1.0
 40
1.0
 40
1.0
 10
12.6787431384
 20
6.9182921492
 30
0.0
 10
12.6793326541
 20
6.9182512635
 30
0.0
 10
12.6805213595
 20
6.9180700718
 30
0.0
 10
12.6822690932
 20
6.9175073513
 30
0.0
 10
12.6839864065
 20
6.9166561917
 30
0.0
 10
12.6856697966
 20
6.915520457
 30
0.0
 10
12.6873177938
 20
6.9141038912
 30
0.0
 10
12.6889287785
 20
6.9124095411
 30
0.0
 10
12.6905013171
 20
6.9104405033
 30
0.0
 10
12.6920335025
 20
6.9081998221
 30
0.0
 10
12.6935234528
 20
6.9056909984
 30
0.0
 10
12.6949689535
 20
6.9029178463
 30
0.0
 10
12.6963679091
 20
6.8998847172
 30
0.0
 10
12.6977180536
 20
6.8965963738
 30
0.0
 10
12.6990172825
 20
6.8930580792
 30
0.0
 10
12.7002634286
 20
6.8892755185
 30
0.0
 10
12.7014544829
 20
6.8852548257
 30
0.0
 10
12.7025884461
 20
6.8810025424
 30
0.0
 10
12.7036634577
 20
6.8765256153
 30
0.0
 10
12.7046777133
 20
6.8718313775
 30
0.0
 10
12.7056295528
 20
6.8669275219
 30
0.0
 10
12.7068334756
 20
6.8600037648
 30
0.0
 10
12.7081606404
 20
6.8508822688
 30
0.0
 10
12.7094572533
 20
6.8394136614
 30
0.0
 10
12.710474363
 20
6.8273211495
 30
0.0
 10
12.7112050441
 20
6.8146843327
 30
0.0
 10
12.7116442628
 20
6.8015863581
 30
0.0
 10
12.7117395887
 20
6.792709099
 30
0.0
 10
12.7117395887
 20
6.788209052
 30
0.0
  0
SPLINE
  5
301
100
AcDbEntity
  8
0
100
AcDbSpline
 62
7
  6
CONTINUOUS
 70
0
 71
3
 72
41
 73
37
 74
0
 42
0.0000001
 43
0.0000001
 44
0.0000000001
 40
0.0
 40
0.0
 40
0.0
 40
0.0
 40
0.0187319668
 40
0.035847177
 40
0.0515868562
 40
0.0590452286
 40
0.0662885459
 40
0.0733702853
 40
0.0803480554
 40
0.0872823544
 40
0.0942348749
 40
0.101266826
 40
0.1084371444
 40
0.1158011528
 40
0.1234095854
 40
0.1395251574
 40
0.1570956931
 40
0.1763399564
 40
0.1974108929
 40
0.220409949
 40
0.2453986527
 40
0.2724083546
 40
0.301446689
 40
0.3325021144
 40
0.3655480286
 40
0.4005449666
 40
0.4374424127
 40
0.476180788
 40
0.516692145
 40
0.5589011524
 40
0.6027262466
 40
0.6480798251
 40
0.6948689152
 40
0.7923565207
 40
0.8943610393
 40
1.0
 40
1.0
 40
1.0
 40
1.0
 10
12.6908549775
 20
6.9352638177
 30
0.0
 10
12.6916531076
 20
6.9360066414
 30
0.0
 10
12.6932480347
 20
6.9373591227
 30
0.0
 10
12.6957544399
 20
6.9390260879
 30
0.0
 10
12.697879099
 20
6.9400456739
 30
0.0
 10
12.6995613272
 20
6.9406082286
 30
0.0
 10
12.7007958989
 20
6.9409046739
 30
0.0
 10
12.7020248523
 20
6.9410826331
 30
0.0
 10
12.7032473022
 20
6.9411417785
 30
0.0
 10
12.7044622254
 20
6.9410820313
 30
0.0
 10
12.7056686046
 20
6.9409034049
 30
0.0
 10
12.7068654245
 20
6.9406060563
 30
0.0
 10
12.7080517661
 20
6.9401904455
 30
0.0
 10
12.7092268522
 20
6.9396570167
 30
0.0
 10
12.7108075984
 20
6.9387726044
 30
0.0
 10
12.7127580625
 20
6.9373519175
 30
0.0
 10
12.7149920483
 20
6.9352200773
 30
0.0
 10
12.7171626189
 20
6.9326355674
 30
0.0
 10
12.7192665111
 20
6.929604663
 30
0.0
 10
12.7213004945
 20
6.9261337654
 30
0.0
 10
12.7232606526
 20
6.922230391
 30
0.0
 10
12.7251428163
 20
6.9179030986
 30
0.0
 10
12.7269427301
 20
6.913161614
 30
0.0
 10
12.7286562592
 20
6.9080167919
 30
0.0
 10
12.7302793252
 20
6.9024805308
 30
0.0
 10
12.7318080475
 20
6.8965657509
 30
0.0
 10
12.7332387878
 20
6.890286341
 30
0.0
 10
12.7345680728
 20
6.8836570924
 30
0.0
 10
12.7357927005
 20
6.87669367
 30
0.0
 10
12.7369097415
 20
6.8694125599
 30
0.0
 10
12.7379164639
 20
6.8618310223
 30
0.0
 10
12.738810479
 20
6.8539670329
 30
0.0
 10
12.739863666
 20
6.8429792232
 30
0.0
 10
12.740871693
 20
6.8286768899
 30
0.0
 10
12.7415905425
 20
6.8109286334
 30
0.0
 10
12.7417458342
 20
6.7988417255
 30
0.0
 10
12.7417458342
 20
6.7926928612
 30
0.0
  0
SPLINE
  5
302
100
AcDbEntity
  8
0
100
AcDbSpline
 62
7
  6
CONTINUOUS
 70
0
 71
3
 72
15
 73
11
 74
0
 42
0.0000001
 43
0.0000001
 44
0.0000000001
 40
0.0
 40
0.0
 40
0.0
 40
0.0
 40
0.1273482888
 40
0.2538606703
 40
0.3795878487
 40
0.5046051206
 40
0.6290174369
 40
0.7529533749
 40
0.8765605786
 40
1.0
 40
1.0
 40
1.0
 40
1.0
 10
9.1212006618
 20
9.8141988642
 30
0.0
 10
9.1212006618
 20
9.8204200607
 30
0.0
 10
9.1217946671
 20
9.8328302186
 30
0.0
 10
9.1244809586
 20
9.8512067619
 30
0.0
 10
9.1289352958
 20
9.8691215742
 30
0.0
 10
9.1351174413
 20
9.8864071063
 30
0.0
 10
9.1429706951
 20
9.9029039494
 30
0.0
 10
9.1524234153
 20
9.9184597885
 30
0.0
 10
9.1633867493
 20
9.932928862
 30
0.0
 10
9.1716415889
 20
9.9417673946
 30
0.0
 10
9.1759788818
 20
9.9459568694
 30
0.0
  0
SPLINE
  5
303
100
AcDbEntity
  8
0
100
AcDbSpline
 62
7
  6
CONTINUOUS
 70
0
 71
3
 72
23
 73
19
 74
0
 42
0.0000001
 43
0.0000001
 44
0.0000000001
 40
0.0
 40
0.0
 40
0.0
 40
0.0
 40
0.0614488463
 40
0.1232975066
 40
0.1855192794
 40
0.248071275
 40
0.3108995332
 40
0.3739401515
 40
0.4371217402
 40
0.5003679843
 40
0.5636003164
 40
0.6267406523
 40
0.6897141155
 40
0.7524516761
 40
0.8148926497
 40
0.8769870681
 40
0.9386966966
 40
1.0
 40
1.0
 40
1.0
 40
1.0
 10
9.3163176903
 20
9.6055504239
 30
0.0
 10
9.3099134981
 20
9.6059945561
 30
0.0
 10
9.2970987104
 20
9.6075168366
 30
0.0
 10
9.2781347841
 20
9.6116513163
 30
0.0
 10
9.2595384356
 20
9.6176044977
 30
0.0
 10
9.2414905865
 20
9.6253186981
 30
0.0
 10
9.2241638168
 20
9.6347193471
 30
0.0
 10
9.207724503
 20
9.6457158428
 30
0.0
 10
9.1923303306
 20
9.6582024567
 30
0.0
 10
9.1781290027
 20
9.6720591945
 30
0.0
 10
9.1652567795
 20
9.6871529846
 30
0.0
 10
9.153837316
 20
9.7033390179
 30
0.0
 10
9.1439804012
 20
9.7204619967
 30
0.0
 10
9.1357808698
 20
9.738357669
 30
0.0
 10
9.1293178292
 20
9.7568541701
 30
0.0
 10
9.1246539243
 20
9.7757745705
 30
0.0
 10
9.1218343307
 20
9.7949347661
 30
0.0
 10
9.1212006618
 20
9.8077944951
 30
0.0
 10
9.1212006618
 20
9.8141988642
 30
0.0
  0
SPLINE
  5
304
100
AcDbEntity
  8
0
100
AcDbSpline
 62
7
  6
CONTINUOUS
 70
0
 71
3
 72
15
 73
11
 74
0
 42
0.0000001
 43
0.0000001
 44
0.0000000001
 40
0.0
 40
0.0
 40
0.0
 40
0.0
 40
0.1273482888
 40
0.2538606703
 40
0.3795878487
 40
0.5046051206
 40
0.6290174369
 40
0.7529533749
 40
0.8765605786
 40
1.0
 40
1.0
 40
1.0
 40
1.0
 10
11.3544212244
 20
9.6593244922
 30
0.0
 10
11.3544212244
 20
9.6655456887
 30
0.0
 10
11.3550152297
 20
9.6779558465
 30
0.0
 10
11.3577015211
 20
9.6963323899
 30
0.0
 10
11.3621558583
 20
9.7142472022
 30
0.0
 10
11.3683380039
 20
9.7315327343
 30
0.0
 10
11.3761912577
 20
9.7480295773
 30
0.0
 10
11.3856439778
 20
9.7635854165
 30
0.0
 10
11.3966073118
 20
9.7780544899
 30
0.0
 10
11.4048621515
 20
9.7868930225
 30
0.0
 10
11.4091994443
 20
9.7910824974
 30
0.0
  0
SPLINE
  5
305
100
AcDbEntity
  8
0
100
AcDbSpline
 62
7
  6
CONTINUOUS
 70
0
 71
3
 72
23
 73
19
 74
0
 42
0.0000001
 43
0.0000001
 44
0.0000000001
 40
0.0
 40
0.0
 40
0.0
 40
0.0
 40
0.0614488463
 40
0.1232975066
 40
0.1855192794
 40
0.248071275
 40
0.3108995332
 40
0.3739401515
 40
0.4371217402
 40
0.5003679843
 40
0.5636003164
 40
0.6267406523
 40
0.6897141155
 40
0.7524516761
 40
0.8148926497
 40
0.8769870681
 40
0.9386966966
 40
1.0
 40
1.0
 40
1.0
 40
1.0
 10
11.5495382529
 20
9.4506760518
 30
0.0
 10
11.5431340607
 20
9.4511201841
 30
0.0
 10
11.530319273
 20
9.4526424646
 30
0.0
 10
11.5113553466
 20
9.4567769443
 30
0.0
 10
11.4927589981
 20
9.4627301257
 30
0.0
 10
11.4747111491
 20
9.470444326
 30
0.0
 10
11.4573843794
 20
9.4798449751
 30
0.0
 10
11.4409450655
 20
9.4908414708
 30
0.0
 10
11.4255508932
 20
9.5033280847
 30
0.0
 10
11.4113495653
 20
9.5171848225
 30
0.0
 10
11.3984773421
 20
9.5322786125
 30
0.0
 10
11.3870578785
 20
9.5484646459
 30
0.0
 10
11.3772009637
 20
9.5655876246
 30
0.0
 10
11.3690014324
 20
9.583483297
 30
0.0
 10
11.3625383918
 20
9.6019797981
 30
0.0
 10
11.3578744869
 20
9.6209001984
 30
0.0
 10
11.3550548932
 20
9.6400603941
 30
0.0
 10
11.3544212244
 20
9.652920123
 30
0.0
 10
11.3544212244
 20
9.6593244922
 30
0.0
  0
SPLINE
  5
306
100
AcDbEntity
  8
0
100
AcDbSpline
 62
7
  6
CONTINUOUS
 70
0
 71
3
 72
11
 73
7
 74
0
 42
0.0000001
 43
0.0000001
 44
0.0000000001
 40
0.0
 40
0.0
 40
0.0
 40
0.0
 40
0.2610973796
 40
0.5156093065
 40
0.7622684585
 40
1.0
 40
1.0
 40
1.0
 40
1.0
 10
10.9029558483
 20
8.9997786684
 30
0.0
 10
10.9131976416
 20
8.9990683976
 30
0.0
 10
10.933447923
 20
8.9980001032
 30
0.0
 10
10.9634216418
 20
8.997459842
 30
0.0
 10
10.9924769469
 20
8.9979800471
 30
0.0
 10
11.0114997815
 20
8.9990281431
 30
0.0
 10
11.0208214262
 20
8.9997248398
 30
0.0
  0
SPLINE
  5
307
100
AcDbEntity
  8
0
100
AcDbSpline
 62
7
  6
CONTINUOUS
 70
0
 71
3
 72
21
 73
17
 74
0
 42
0.0000001
 43
0.0000001
 44
0.0000000001
 40
0.0
 40
0.0
 40
0.0
 40
0.0
 40
0.1475313559
 40
0.2896768831
 40
0.3585477612
 40
0.4258566757
 40
0.4915369551
 40
0.5555249854
 40
0.617759979
 40
0.6781846941
 40
0.7367453758
 40
0.793392086
 40
0.848079345
 40
0.9007660121
 40
0.9514163082
 40
1.0
 40
1.0
 40
1.0
 40
1.0
 10
10.9398504874
 20
9.4227998721
 30
0.0
 10
10.9271163741
 20
9.421133032
 30
0.0
 10
10.9021472392
 20
9.4175914039
 30
0.0
 10
10.8713522995
 20
9.4124863605
 30
0.0
 10
10.8475299804
 20
9.4080653189
 30
0.0
 10
10.8302964304
 20
9.4046297465
 30
0.0
 10
10.8135279929
 20
9.401043575
 30
0.0
 10
10.7972443103
 20
9.397311046
 30
0.0
 10
10.7814644774
 20
9.3934365184
 30
0.0
 10
10.7662069772
 20
9.3894245918
 30
0.0
 10
10.7514896765
 20
9.3852799921
 30
0.0
 10
10.737329798
 20
9.3810075723
 30
0.0
 10
10.723743898
 20
9.3766124219
 30
0.0
 10
10.7107478154
 20
9.3720996411
 30
0.0
 10
10.6983568218
 20
9.3674746288
 30
0.0
 10
10.6903406401
 20
9.3642523285
 30
0.0
 10
10.686438849
 20
9.3626205727
 30
0.0
  0
SPLINE
  5
308
100
AcDbEntity
  8
0
100
AcDbSpline
 62
7
  6
CONTINUOUS
 70
0
 71
3
 72
60
 73
56
 74
0
 42
0.0000001
 43
0.0000001
 44
0.0000000001
 40
0.0
 40
0.0
 40
0.0
 40
0.0
 40
0.0113557001
 40
0.0222271696
 40
0.032596741
 40
0.0424564605
 40
0.0518119474
 40
0.0563086863
 40
0.0606902569
 40
0.0691331447
 40
0.0772170702
 40
0.0811569537
 40
0.0850466753
 40
0.0889021304
 40
0.0927398471
 40
0.0965769867
 40
0.1004304886
 40
0.1043168368
 40
0.1082517887
 40
0.1122498207
 40
0.1163241004
 40
0.1247435332
 40
0.1335880179
 40
0.1429080816
 40
0.152734069
 40
0.1630801682
 40
0.1739488762
 40
0.1853344477
 40
0.1972255104
 40
0.2096077535
 40
0.2224645919
 40
0.2357793267
 40
0.2495346727
 40
0.2637143614
 40
0.2783024824
 40
0.293284198
 40
0.3086457083
 40
0.3243738562
 40
0.3404568403
 40
0.3568832086
 40
0.3736426411
 40
0.390725201
 40
0.4258227392
 40
0.4621053713
 40
0.4995056087
 40
0.537955236
 40
0.5773816778
 40
0.6177043173
 40
0.6588309842
 40
0.7430448924
 40
0.8289463881
 40
0.8721091465
 40
0.915148192
 40
0.9578504591
 40
1.0
 40
1.0
 40
1.0
 40
1.0
 10
10.2734835155
 20
9.0954279491
 30
0.0
 10
10.2734849328
 20
9.0980734628
 30
0.0
 10
10.2736170434
 20
9.1032529104
 30
0.0
 10
10.2742415859
 20
9.1108255781
 30
0.0
 10
10.2752980654
 20
9.1179993765
 30
0.0
 10
10.2767952283
 20
9.1247338331
 30
0.0
 10
10.2784386177
 20
9.1300162961
 30
0.0
 10
10.2799893979
 20
9.1339727557
 30
0.0
 10
10.2816508815
 20
9.1376516828
 30
0.0
 10
10.2840079592
 20
9.1419268078
 30
0.0
 10
10.2868051386
 20
9.1458054443
 30
0.0
 10
10.2892643472
 20
9.1485830063
 30
0.0
 10
10.2912048536
 20
9.150495362
 30
0.0
 10
10.2932554447
 20
9.1522527835
 30
0.0
 10
10.2954149745
 20
9.1538540565
 30
0.0
 10
10.2976813358
 20
9.1552992537
 30
0.0
 10
10.3000526714
 20
9.1565886364
 30
0.0
 10
10.3025269952
 20
9.1577228517
 30
0.0
 10
10.3051018549
 20
9.1587038941
 30
0.0
 10
10.3077751852
 20
9.15953357
 30
0.0
 10
10.3115080229
 20
9.1604512416
 30
0.0
 10
10.3164291563
 20
9.1612237734
 30
0.0
 10
10.3226199818
 20
9.1615825388
 30
0.0
 10
10.3291451914
 20
9.1614180665
 30
0.0
 10
10.3359895012
 20
9.1607657716
 30
0.0
 10
10.3431396165
 20
9.1596615279
 30
0.0
 10
10.350583195
 20
9.158141167
 30
0.0
 10
10.3583090171
 20
9.1562392017
 30
0.0
 10
10.3663072084
 20
9.1539893983
 30
0.0
 10
10.3745688123
 20
9.1514232033
 30
0.0
 10
10.3830863954
 20
9.1485711895
 30
0.0
 10
10.3918531286
 20
9.1454610259
 30
0.0
 10
10.4008636558
 20
9.1421196291
 30
0.0
 10
10.4101129939
 20
9.1385710706
 30
0.0
 10
10.4195972828
 20
9.1348385335
 30
0.0
 10
10.4293130957
 20
9.1309431647
 30
0.0
 10
10.4392575039
 20
9.1269046268
 30
0.0
 10
10.4494282737
 20
9.1227417691
 30
0.0
 10
10.4598230634
 20
9.1184713702
 30
0.0
 10
10.4704403189
 20
9.1141102406
 30
0.0
 10
10.4812781463
 20
9.1096732104
 30
0.0
 10
10.4961549314
 20
9.1036211333
 30
0.0
 10
10.5152817305
 20
9.0959461961
 30
0.0
 10
10.5388903412
 20
9.0867324447
 30
0.0
 10
10.563340089
 20
9.0775305171
 30
0.0
 10
10.5886090008
 20
9.0684328725
 30
0.0
 10
10.6146676928
 20
9.0595290823
 30
0.0
 10
10.6414773587
 20
9.0509071381
 30
0.0
 10
10.6784458743
 20
9.0398163163
 30
0.0
 10
10.7260280873
 20
9.0271865363
 30
0.0
 10
10.7746288582
 20
9.0167433177
 30
0.0
 10
10.8141360498
 20
9.0098806418
 30
0.0
 10
10.8438589767
 20
9.0055639682
 30
0.0
 10
10.8734598829
 20
9.002137662
 30
0.0
 10
10.8931598848
 20
9.0004580207
 30
0.0
 10
10.9029558483
 20
8.9997786684
 30
0.0
  0
SPLINE
  5
309
100
AcDbEntity
  8
0
100
AcDbSpline
 62
4
  6
CONTINUOUS
 70
0
 71
3
 72
167
 73
163
 74
0
 42
0.0000001
 43
0.0000001
 44
0.0000000001
 40
0.0
 40
0.0
 40
0.0
 40
0.0
 40
0.03125
 40
0.0625
 40
0.078125
 40
0.09375
 40
0.109375
 40
0.125
 40
0.1328125
 40
0.140625
 40
0.1484375
 40
0.15234375
 40
0.15625
 40
0.16015625
 40
0.162109375
 40
0.1640625
 40
0.1650390625
 40
0.166015625
 40
0.1665039062
 40
0.1667480469
 40
0.1669921875
 40
0.1674804688
 40
0.16796875
 40
0.169921875
 40
0.171875
 40
0.173828125
 40
0.17578125
 40
0.1796875
 40
0.1875
 40
0.1953125
 40
0.203125
 40
0.2109375
 40
0.21875
 40
0.234375
 40
0.25
 40
0.265625
 40
0.28125
 40
0.2890625
 40
0.296875
 40
0.3046875
 40
0.3125
 40
0.3203125
 40
0.32421875
 40
0.326171875
 40
0.328125
 40
0.330078125
 40
0.33203125
 40
0.3325195312
 40
0.3330078125
 40
0.3332519531
 40
0.3334960938
 40
0.333984375
 40
0.3349609375
 40
0.3359375
 40
0.337890625
 40
0.33984375
 40
0.34375
 40
0.34765625
 40
0.3515625
 40
0.359375
 40
0.3671875
 40
0.375
 40
0.390625
 40
0.40625
 40
0.421875
 40
0.4375
 40
0.453125
 40
0.4609375
 40
0.46875
 40
0.4765625
 40
0.48046875
 40
0.484375
 40
0.48828125
 40
0.4921875
 40
0.494140625
 40
0.49609375
 40
0.4970703125
 40
0.498046875
 40
0.4990234375
 40
0.4995117188
 40
0.4997558594
 40
0.5
 40
0.5002441406
 40
0.5004882812
 40
0.5009765625
 40
0.501953125
 40
0.5029296875
 40
0.50390625
 40
0.505859375
 40
0.5078125
 40
0.51171875
 40
0.515625
 40
0.51953125
 40
0.5234375
 40
0.53125
 40
0.5390625
 40
0.546875
 40
0.5625
 40
0.578125
 40
0.59375
 40
0.609375
 40
0.625
 40
0.6328125
 40
0.640625
 40
0.6484375
 40
0.65234375
 40
0.65625
 40
0.66015625
 40
0.662109375
 40
0.6640625
 40
0.6650390625
 40
0.666015625
 40
0.6665039062
 40
0.6667480469
 40
0.6669921875
 40
0.6674804688
 40
0.66796875
 40
0.669921875
 40
0.671875
 40
0.673828125
 40
0.67578125
 40
0.6796875
 40
0.6875
 40
0.6953125
 40
0.703125
 40
0.7109375
 40
0.71875
 40
0.734375
 40
0.75
 40
0.765625
 40
0.78125
 40
0.7890625
 40
0.796875
 40
0.8046875
 40
0.8125
 40
0.8203125
 40
0.82421875
 40
0.826171875
 40
0.828125
 40
0.830078125
 40
0.83203125
 40
0.8325195312
 40
0.8330078125
 40
0.8332519531
 40
0.8334960938
 40
0.833984375
 40
0.8349609375
 40
0.8359375
 40
0.837890625
 40
0.83984375
 40
0.84375
 40
0.84765625
 40
0.8515625
 40
0.859375
 40
0.8671875
 40
0.875
 40
0.890625
 40
0.90625
 40
0.921875
 40
0.9375
 40
0.96875
 40
1.0
 40
1.0
 40
1.0
 40
1.0
 10
11.0207889516
 20
10.3562576735
 30
0.0
 10
11.0089310238
 20
10.3616719814
 30
0.0
 10
10.9852151682
 20
10.3725005973
 30
0.0
 10
10.9555703488
 20
10.3860363672
 30
0.0
 10
10.9318544932
 20
10.3968649831
 30
0.0
 10
10.9140676015
 20
10.404986445
 30
0.0
 10
10.8962807099
 20
10.413107907
 30
0.0
 10
10.8814583
 20
10.4198757916
 30
0.0
 10
10.8696003725
 20
10.4252901002
 30
0.0
 10
10.8607069259
 20
10.429350829
 30
0.0
 10
10.8532957233
 20
10.4327347784
 30
0.0
 10
10.8473667549
 20
10.4354419181
 30
0.0
 10
10.8429200456
 20
10.4374723273
 30
0.0
 10
10.8392144006
 20
10.4391641618
 30
0.0
 10
10.8362500056
 20
10.4405180177
 30
0.0
 10
10.8343969831
 20
10.4413632935
 30
0.0
 10
10.8329151963
 20
10.442041539
 30
0.0
 10
10.8319876393
 20
10.4424608223
 30
0.0
 10
10.8313412359
 20
10.44276358
 30
0.0
 10
10.8309673463
 20
10.4429220972
 30
0.0
 10
10.8305764468
 20
10.4430260482
 30
0.0
 10
10.8300936365
 20
10.4431746379
 30
0.0
 10
10.8289301065
 20
10.4435159027
 30
0.0
 10
10.8271868213
 20
10.4440342472
 30
0.0
 10
10.8248612923
 20
10.4447216881
 30
0.0
 10
10.8225360706
 20
10.4454101149
 30
0.0
 10
10.8194356678
 20
10.4463276733
 30
0.0
 10
10.8140100129
 20
10.4479335608
 30
0.0
 10
10.8062590512
 20
10.450227602
 30
0.0
 10
10.7969579083
 20
10.4529804873
 30
0.0
 10
10.7876567624
 20
10.455733363
 30
0.0
 10
10.7783556173
 20
10.4584862413
 30
0.0
 10
10.7659540903
 20
10.4621567449
 30
0.0
 10
10.7504521816
 20
10.4667448745
 30
0.0
 10
10.7318498911
 20
10.47225063
 30
0.0
 10
10.7132476006
 20
10.4777563856
 30
0.0
 10
10.6977456918
 20
10.4823445151
 30
0.0
 10
10.6853441648
 20
10.486015019
 30
0.0
 10
10.6760430195
 20
10.4887678961
 30
0.0
 10
10.6667418746
 20
10.491520776
 30
0.0
 10
10.6574407281
 20
10.4942736459
 30
0.0
 10
10.6496897775
 20
10.4965677353
 30
0.0
 10
10.6442641028
 20
10.4981735367
 30
0.0
 10
10.6411637317
 20
10.4990912331
 30
0.0
 10
10.6388384125
 20
10.4997792359
 30
0.0
 10
10.63651325
 20
10.500468269
 30
0.0
 10
10.6347689384
 20
10.5009821552
 30
0.0
 10
10.633606748
 20
10.5013292384
 30
0.0
 10
10.6331214841
 20
10.5014671714
 30
0.0
 10
10.6327356475
 20
10.5015931125
 30
0.0
 10
10.632341127
 20
10.5016620231
 30
0.0
 10
10.6316466812
 20
10.5017561191
 30
0.0
 10
10.630656721
 20
10.501904367
 30
0.0
 10
10.6290716082
 20
10.5021338376
 30
0.0
 10
10.62709062
 20
10.5024233213
 30
0.0
 10
10.6239208138
 20
10.5028850167
 30
0.0
 10
10.6199586333
 20
10.5034626432
 30
0.0
 10
10.6152039836
 20
10.5041555779
 30
0.0
 10
10.6088644622
 20
10.5050795666
 30
0.0
 10
10.6009400566
 20
10.5062345265
 30
0.0
 10
10.5914307714
 20
10.5076204894
 30
0.0
 10
10.578751724
 20
10.5094684362
 30
0.0
 10
10.562902915
 20
10.511778371
 30
0.0
 10
10.543884344
 20
10.5145502922
 30
0.0
 10
10.524865773
 20
10.5173222135
 30
0.0
 10
10.5058472021
 20
10.5200941348
 30
0.0
 10
10.489998393
 20
10.5224040692
 30
0.0
 10
10.4773193457
 20
10.5242520168
 30
0.0
 10
10.4678100602
 20
10.5256379773
 30
0.0
 10
10.4598856557
 20
10.5267929448
 30
0.0
 10
10.4535461319
 20
10.5277169181
 30
0.0
 10
10.4487914894
 20
10.5284098999
 30
0.0
 10
10.4440368458
 20
10.5291028745
 30
0.0
 10
10.4400746464
 20
10.529680376
 30
0.0
 10
10.4369048786
 20
10.5301423263
 30
0.0
 10
10.4349237926
 20
10.5304311612
 30
0.0
 10
10.4333388807
 20
10.5306619637
 30
0.0
 10
10.4321503145
 20
10.530835792
 30
0.0
 10
10.4311594684
 20
10.530978338
 30
0.0
 10
10.4304666106
 20
10.5310826555
 30
0.0
 10
10.430069545
 20
10.5311351839
 30
0.0
 10
10.4297749765
 20
10.5311945292
 30
0.0
 10
10.4294680587
 20
10.5311776193
 30
0.0
 10
10.4290631425
 20
10.5311816714
 30
0.0
 10
10.4283525322
 20
10.5311763697
 30
0.0
 10
10.4273384239
 20
10.5311752751
 30
0.0
 10
10.4261210448
 20
10.5311711882
 30
0.0
 10
10.4244980295
 20
10.5311667077
 30
0.0
 10
10.4224692067
 20
10.5311607755
 30
0.0
 10
10.4192231203
 20
10.5311514692
 30
0.0
 10
10.4151655019
 20
10.5311397727
 30
0.0
 10
10.4102963643
 20
10.5311257642
 30
0.0
 10
10.4054272255
 20
10.5311117484
 30
0.0
 10
10.3989350409
 20
10.5310930633
 30
0.0
 10
10.3908198099
 20
10.5310697059
 30
0.0
 10
10.3810815328
 20
10.5310416775
 30
0.0
 10
10.3680971634
 20
10.5310043062
 30
0.0
 10
10.3518667016
 20
10.530957592
 30
0.0
 10
10.3323901474
 20
10.530901535
 30
0.0
 10
10.3129135932
 20
10.530845478
 30
0.0
 10
10.293437039
 20
10.5307894211
 30
0.0
 10
10.2772065773
 20
10.5307427066
 30
0.0
 10
10.2642222076
 20
10.5307053361
 30
0.0
 10
10.2544839312
 20
10.5306773051
 30
0.0
 10
10.246368698
 20
10.5306539556
 30
0.0
 10
10.239876518
 20
10.5306352545
 30
0.0
 10
10.235007365
 20
10.5306212875
 30
0.0
 10
10.2309497947
 20
10.5306094613
 30
0.0
 10
10.2277036102
 20
10.5306004196
 30
0.0
 10
10.225675037
 20
10.5305938139
 30
0.0
 10
10.2240515094
 20
10.5305907157
 30
0.0
 10
10.2230383312
 20
10.5305837909
 30
0.0
 10
10.2223260472
 20
10.5305889409
 30
0.0
 10
10.2219238141
 20
10.5305762419
 30
0.0
 10
10.221539609
 20
10.530504628
 30
0.0
 10
10.2210531906
 20
10.5304352479
 30
0.0
 10
10.2198908581
 20
10.5302521619
 30
0.0
 10
10.2181452291
 20
10.529984494
 30
0.0
 10
10.2158189414
 20
10.5296236248
 30
0.0
 10
10.2134923279
 20
10.5292638198
 30
0.0
 10
10.2103902902
 20
10.5287837087
 30
0.0
 10
10.2049616714
 20
10.5279436871
 30
0.0
 10
10.1972065293
 20
10.5267435658
 30
0.0
 10
10.1879003469
 20
10.5253034591
 30
0.0
 10
10.1785941677
 20
10.523863342
 30
0.0
 10
10.1692879876
 20
10.5224232277
 30
0.0
 10
10.1568797478
 20
10.5205030743
 30
0.0
 10
10.141369448
 20
10.5181028829
 30
0.0
 10
10.1227570882
 20
10.515222653
 30
0.0
 10
10.1041447284
 20
10.5123424232
 30
0.0
 10
10.0886344286
 20
10.5099422316
 30
0.0
 10
10.0762261887
 20
10.5080220786
 30
0.0
 10
10.0669200089
 20
10.5065819631
 30
0.0
 10
10.0576138287
 20
10.5051418504
 30
0.0
 10
10.0483076503
 20
10.5037017272
 30
0.0
 10
10.0405524956
 20
10.5025016571
 30
0.0
 10
10.0351238992
 20
10.5016615443
 30
0.0
 10
10.0320218256
 20
10.5011815794
 30
0.0
 10
10.0296953224
 20
10.5008213253
 30
0.0
 10
10.0273686208
 20
10.5004621431
 30
0.0
 10
10.0256241506
 20
10.500189751
 30
0.0
 10
10.0244603057
 20
10.5000128303
 30
0.0
 10
10.0239766573
 20
10.4999321582
 30
0.0
 10
10.0235867364
 20
10.4998838454
 30
0.0
 10
10.0232077943
 20
10.4997761972
 30
0.0
 10
10.0225497466
 20
10.499560244
 30
0.0
 10
10.0216070171
 20
10.4992661235
 30
0.0
 10
10.0201001372
 20
10.4987874922
 30
0.0
 10
10.018216028
 20
10.4981919555
 30
0.0
 10
10.0152017379
 20
10.4972375584
 30
0.0
 10
10.0114337776
 20
10.4960450898
 30
0.0
 10
10.0069122671
 20
10.4946139016
 30
0.0
 10
10.0008835719
 20
10.4927057296
 30
0.0
 10
9.9933477078
 20
10.4903204875
 30
0.0
 10
9.9843046687
 20
10.4874582086
 30
0.0
 10
9.9722472841
 20
10.4836418326
 30
0.0
 10
9.9571755531
 20
10.4788713641
 30
0.0
 10
9.9390894759
 20
10.4731468012
 30
0.0
 10
9.9210033987
 20
10.4674222385
 30
0.0
 10
9.8968886292
 20
10.4597894882
 30
0.0
 10
9.8667451672
 20
10.4502485504
 30
0.0
 10
9.8426303976
 20
10.4426158001
 30
0.0
 10
9.8305730128
 20
10.4387994249
 30
0.0
  0
SPLINE
  5
30A
100
AcDbEntity
  8
0
100
AcDbSpline
 62
4
  6
CONTINUOUS
 70
0
 71
3
 72
135
 73
131
 74
0
 42
0.0000001
 43
0.0000001
 44
0.0000000001
 40
0.0
 40
0.0
 40
0.0
 40
0.0
 40
0.03125
 40
0.0625
 40
0.078125
 40
0.09375
 40
0.109375
 40
0.125
 40
0.140625
 40
0.1484375
 40
0.15234375
 40
0.15625
 40
0.16015625
 40
0.1640625
 40
0.1650390625
 40
0.166015625
 40
0.1665039062
 40
0.1669921875
 40
0.16796875
 40
0.169921875
 40
0.171875
 40
0.17578125
 40
0.1796875
 40
0.1875
 40
0.1953125
 40
0.203125
 40
0.21875
 40
0.234375
 40
0.25
 40
0.265625
 40
0.28125
 40
0.296875
 40
0.3046875
 40
0.3125
 40
0.3203125
 40
0.32421875
 40
0.328125
 40
0.330078125
 40
0.33203125
 40
0.3330078125
 40
0.3334960938
 40
0.333984375
 40
0.3349609375
 40
0.3359375
 40
0.33984375
 40
0.34375
 40
0.34765625
 40
0.3515625
 40
0.359375
 40
0.375
 40
0.390625
 40
0.40625
 40
0.421875
 40
0.4375
 40
0.453125
 40
0.4609375
 40
0.46875
 40
0.4765625
 40
0.484375
 40
0.48828125
 40
0.4921875
 40
0.494140625
 40
0.49609375
 40
0.498046875
 40
0.4990234375
 40
0.4995117188
 40
0.5
 40
0.5004882812
 40
0.5009765625
 40
0.501953125
 40
0.50390625
 40
0.505859375
 40
0.5078125
 40
0.51171875
 40
0.515625
 40
0.5234375
 40
0.53125
 40
0.5390625
 40
0.546875
 40
0.5625
 40
0.578125
 40
0.59375
 40
0.609375
 40
0.625
 40
0.640625
 40
0.6484375
 40
0.65234375
 40
0.65625
 40
0.66015625
 40
0.6640625
 40
0.6650390625
 40
0.666015625
 40
0.6665039062
 40
0.6669921875
 40
0.66796875
 40
0.669921875
 40
0.671875
 40
0.67578125
 40
0.6796875
 40
0.6875
 40
0.6953125
 40
0.703125
 40
0.71875
 40
0.75
 40
0.78125
 40
0.796875
 40
0.8046875
 40
0.8125
 40
0.8203125
 40
0.82421875
 40
0.828125
 40
0.830078125
 40
0.83203125
 40
0.8330078125
 40
0.8334960938
 40
0.833984375
 40
0.8349609375
 40
0.8359375
 40
0.83984375
 40
0.84375
 40
0.84765625
 40
0.8515625
 40
0.859375
 40
0.875
 40
0.890625
 40
0.90625
 40
0.921875
 40
0.9375
 40
0.96875
 40
1.0
 40
1.0
 40
1.0
 40
1.0
 10
11.9344572168
 20
9.6115961911
 30
0.0
 10
11.9340389559
 20
9.6161339131
 30
0.0
 10
11.9332024341
 20
9.6252093572
 30
0.0
 10
11.9321567818
 20
9.6365536623
 30
0.0
 10
11.9313202602
 20
9.6456291063
 30
0.0
 10
11.9306928683
 20
9.6524356893
 30
0.0
 10
11.930065479
 20
9.6592422724
 30
0.0
 10
11.9294380802
 20
9.6660488553
 30
0.0
 10
11.9289152772
 20
9.6717210083
 30
0.0
 10
11.9285492577
 20
9.6756915143
 30
0.0
 10
11.9283401933
 20
9.6779603765
 30
0.0
 10
11.9281831426
 20
9.6796620187
 30
0.0
 10
11.9280270566
 20
9.6813636778
 30
0.0
 10
11.9279072873
 20
9.6826398747
 30
0.0
 10
11.9278316477
 20
9.6834907465
 30
0.0
 10
11.9277938714
 20
9.6838451664
 30
0.0
 10
11.9277782533
 20
9.6841289589
 30
0.0
 10
11.9277092315
 20
9.6844118134
 30
0.0
 10
11.9275636309
 20
9.6849063729
 30
0.0
 10
11.927368576
 20
9.6856131138
 30
0.0
 10
11.9270492534
 20
9.6867437723
 30
0.0
 10
11.9266525773
 20
9.6881571389
 30
0.0
 10
11.9260165111
 20
9.6904185011
 30
0.0
 10
11.9252219033
 20
9.6932452122
 30
0.0
 10
11.9242681707
 20
9.6966372619
 30
0.0
 10
11.9229965982
 20
9.7011599962
 30
0.0
 10
11.9214071081
 20
9.7068134136
 30
0.0
 10
11.9194997306
 20
9.7135975147
 30
0.0
 10
11.9175923501
 20
9.7203816157
 30
0.0
 10
11.915684971
 20
9.7271657169
 30
0.0
 10
11.9137775891
 20
9.7339498172
 30
0.0
 10
11.9121881125
 20
9.7396032369
 30
0.0
 10
11.9109165127
 20
9.7441259666
 30
0.0
 10
11.9099628633
 20
9.7475180302
 30
0.0
 10
11.909167995
 20
9.7503446981
 30
0.0
 10
11.9085324603
 20
9.7526061485
 30
0.0
 10
11.9081344314
 20
9.7540192906
 30
0.0
 10
11.9078178857
 20
9.7551504098
 30
0.0
 10
11.9076157608
 20
9.7558559776
 30
0.0
 10
11.9074828588
 20
9.7563526443
 30
0.0
 10
11.9073934822
 20
9.7566321211
 30
0.0
 10
11.9072535118
 20
9.7568952792
 30
0.0
 10
11.9070958419
 20
9.7572298047
 30
0.0
 10
11.9067032013
 20
9.7580280749
 30
0.0
 10
11.9061202183
 20
9.7592274085
 30
0.0
 10
11.905339491
 20
9.7608254178
 30
0.0
 10
11.9045596776
 20
9.762423722
 30
0.0
 10
11.9035196075
 20
9.7645546914
 30
0.0
 10
11.9016996336
 20
9.7682839357
 30
0.0
 10
11.8990995931
 20
9.7736114025
 30
0.0
 10
11.8959795778
 20
9.7800043734
 30
0.0
 10
11.8928595536
 20
9.7863973415
 30
0.0
 10
11.8897395318
 20
9.7927903103
 30
0.0
 10
11.8866195092
 20
9.7991832789
 30
0.0
 10
11.8840194909
 20
9.8045107529
 30
0.0
 10
11.8819394756
 20
9.8087727318
 30
0.0
 10
11.8803794656
 20
9.8119692168
 30
0.0
 10
11.87881945
 20
9.8151656986
 30
0.0
 10
11.8775194546
 20
9.8178294434
 30
0.0
 10
11.8764794187
 20
9.8199604169
 30
0.0
 10
11.8758294865
 20
9.821292326
 30
0.0
 10
11.875309334
 20
9.8223577374
 30
0.0
 10
11.8749197859
 20
9.8231571133
 30
0.0
 10
11.8745933611
 20
9.8238222504
 30
0.0
 10
11.8743683988
 20
9.8242898274
 30
0.0
 10
11.8742343292
 20
9.8245539211
 30
0.0
 10
11.874149326
 20
9.8247607047
 30
0.0
 10
11.8740048868
 20
9.8249341814
 30
0.0
 10
11.873833033
 20
9.8251771015
 30
0.0
 10
11.8735226296
 20
9.8255967986
 30
0.0
 10
11.8730842461
 20
9.826199196
 30
0.0
 10
11.8725560244
 20
9.8269208615
 30
0.0
 10
11.8718524838
 20
9.8278835052
 30
0.0
 10
11.8709727996
 20
9.8290866651
 30
0.0
 10
11.8695654492
 20
9.8310118018
 30
0.0
 10
11.8678062117
 20
9.8334181949
 30
0.0
 10
11.8656951479
 20
9.8363058785
 30
0.0
 10
11.8635840785
 20
9.8391935589
 30
0.0
 10
11.8607693212
 20
9.8430438006
 30
0.0
 10
11.8572508738
 20
9.8478566023
 30
0.0
 10
11.8530287375
 20
9.8536319646
 30
0.0
 10
11.8488066005
 20
9.8594073264
 30
0.0
 10
11.8445844655
 20
9.8651826899
 30
0.0
 10
11.8403623234
 20
9.8709580473
 30
0.0
 10
11.8368438935
 20
9.8757708639
 30
0.0
 10
11.8343809499
 20
9.8791397987
 30
0.0
 10
11.8329736202
 20
9.8810649619
 30
0.0
 10
11.8319179351
 20
9.8825086721
 30
0.0
 10
11.8308629679
 20
9.8839530021
 30
0.0
 10
11.8300697296
 20
9.885034512
 30
0.0
 10
11.8295440346
 20
9.8857582208
 30
0.0
 10
11.8293203366
 20
9.8860557452
 30
0.0
 10
11.8291522454
 20
9.8863031448
 30
0.0
 10
11.8289444122
 20
9.8865162406
 30
0.0
 10
11.8285622392
 20
9.88687322
 30
0.0
 10
11.8280259118
 20
9.8873915062
 30
0.0
 10
11.8271624041
 20
9.888216117
 30
0.0
 10
11.8260848628
 20
9.8892484717
 30
0.0
 10
11.8243597666
 20
9.8908993499
 30
0.0
 10
11.8222037497
 20
9.8929632528
 30
0.0
 10
11.8196163782
 20
9.8954398057
 30
0.0
 10
11.8161666022
 20
9.8987419217
 30
0.0
 10
11.8101294697
 20
9.9045206034
 30
0.0
 10
11.8015050085
 20
9.9127758753
 30
0.0
 10
11.7928805387
 20
9.9210311384
 30
0.0
 10
11.7868434181
 20
9.9268098326
 30
0.0
 10
11.7833936233
 20
9.9301119289
 30
0.0
 10
11.7808063098
 20
9.9325885422
 30
0.0
 10
11.7786501111
 20
9.9346522559
 30
0.0
 10
11.7769253859
 20
9.9363035201
 30
0.0
 10
11.7758469003
 20
9.9373348924
 30
0.0
 10
11.7749853309
 20
9.9381615197
 30
0.0
 10
11.7744440687
 20
9.9386746721
 30
0.0
 10
11.7740707592
 20
9.9390408725
 30
0.0
 10
11.7738487183
 20
9.9392391875
 30
0.0
 10
11.7735938288
 20
9.9393962885
 30
0.0
 10
11.7732864447
 20
9.9396067518
 30
0.0
 10
11.772539482
 20
9.9401002694
 30
0.0
 10
11.7714229191
 20
9.9408454155
 30
0.0
 10
11.7699319503
 20
9.9418361604
 30
0.0
 10
11.7684415748
 20
9.9428276498
 30
0.0
 10
11.7664542006
 20
9.944149376
 30
0.0
 10
11.7629763921
 20
9.9464625178
 30
0.0
 10
11.7580080438
 20
9.9497669428
 30
0.0
 10
11.7520460475
 20
9.9537322799
 30
0.0
 10
11.7460840455
 20
9.9576976098
 30
0.0
 10
11.7401220449
 20
9.9616629416
 30
0.0
 10
11.7321727103
 20
9.96695005
 30
0.0
 10
11.7222360423
 20
9.9735589357
 30
0.0
 10
11.7142867078
 20
9.9788460442
 30
0.0
 10
11.7103120405
 20
9.9814895985
 30
0.0
  0
SPLINE
  5
30B
100
AcDbEntity
  8
0
100
AcDbSpline
 62
4
  6
CONTINUOUS
 70
0
 71
3
 72
137
 73
133
 74
0
 42
0.0000001
 43
0.0000001
 44
0.0000000001
 40
0.0
 40
0.0
 40
0.0
 40
0.0
 40
0.03125
 40
0.0625
 40
0.078125
 40
0.09375
 40
0.109375
 40
0.125
 40
0.140625
 40
0.1484375
 40
0.15234375
 40
0.15625
 40
0.16015625
 40
0.1640625
 40
0.1650390625
 40
0.166015625
 40
0.1665039062
 40
0.1669921875
 40
0.16796875
 40
0.169921875
 40
0.171875
 40
0.17578125
 40
0.1796875
 40
0.1875
 40
0.1953125
 40
0.203125
 40
0.21875
 40
0.234375
 40
0.25
 40
0.265625
 40
0.28125
 40
0.296875
 40
0.3046875
 40
0.3125
 40
0.3203125
 40
0.32421875
 40
0.328125
 40
0.330078125
 40
0.33203125
 40
0.3330078125
 40
0.3334960938
 40
0.333984375
 40
0.3349609375
 40
0.3359375
 40
0.33984375
 40
0.34375
 40
0.34765625
 40
0.3515625
 40
0.359375
 40
0.375
 40
0.390625
 40
0.40625
 40
0.421875
 40
0.4375
 40
0.453125
 40
0.4609375
 40
0.46875
 40
0.4765625
 40
0.484375
 40
0.48828125
 40
0.4921875
 40
0.494140625
 40
0.49609375
 40
0.498046875
 40
0.4990234375
 40
0.4995117188
 40
0.5
 40
0.5004882812
 40
0.5009765625
 40
0.501953125
 40
0.50390625
 40
0.505859375
 40
0.5078125
 40
0.51171875
 40
0.515625
 40
0.5234375
 40
0.53125
 40
0.5390625
 40
0.546875
 40
0.5625
 40
0.578125
 40
0.59375
 40
0.609375
 40
0.625
 40
0.640625
 40
0.6484375
 40
0.65234375
 40
0.65625
 40
0.66015625
 40
0.6640625
 40
0.6650390625
 40
0.666015625
 40
0.6665039062
 40
0.6669921875
 40
0.66796875
 40
0.669921875
 40
0.671875
 40
0.67578125
 40
0.6796875
 40
0.6875
 40
0.6953125
 40
0.703125
 40
0.71875
 40
0.734375
 40
0.75
 40
0.765625
 40
0.78125
 40
0.796875
 40
0.8046875
 40
0.8125
 40
0.8203125
 40
0.82421875
 40
0.828125
 40
0.830078125
 40
0.83203125
 40
0.8330078125
 40
0.8334960938
 40
0.833984375
 40
0.8349609375
 40
0.8359375
 40
0.83984375
 40
0.84375
 40
0.84765625
 40
0.8515625
 40
0.859375
 40
0.875
 40
0.890625
 40
0.90625
 40
0.921875
 40
0.9375
 40
0.96875
 40
1.0
 40
1.0
 40
1.0
 40
1.0
 10
11.7103120548
 20
8.1252718814
 30
0.0
 10
11.7142067885
 20
8.1273114359
 30
0.0
 10
11.721996256
 20
8.1313905449
 30
0.0
 10
11.7317330902
 20
8.1364894312
 30
0.0
 10
11.7395225578
 20
8.1405685401
 30
0.0
 10
11.7453646581
 20
8.1436278723
 30
0.0
 10
11.7512067597
 20
8.1466872023
 30
0.0
 10
11.7570488565
 20
8.1497465407
 30
0.0
 10
11.7619172854
 20
8.152295963
 30
0.0
 10
11.7653251565
 20
8.1540806103
 30
0.0
 10
11.7672725569
 20
8.1551003281
 30
0.0
 10
11.7687329792
 20
8.1558653439
 30
0.0
 10
11.7701938906
 20
8.15662949
 30
0.0
 10
11.7712882028
 20
8.157205038
 30
0.0
 10
11.772019877
 20
8.1575849444
 30
0.0
 10
11.7723215677
 20
8.1577488819
 30
0.0
 10
11.7725703235
 20
8.1578668675
 30
0.0
 10
11.772792005
 20
8.158032996
 30
0.0
 10
11.7731673683
 20
8.158346089
 30
0.0
 10
11.7737101648
 20
8.158781694
 30
0.0
 10
11.7745749713
 20
8.1594851843
 30
0.0
 10
11.7756572353
 20
8.1603623139
 30
0.0
 10
11.7773881559
 20
8.1617669694
 30
0.0
 10
11.7795520475
 20
8.1635223606
 30
0.0
 10
11.7821486142
 20
8.1656290133
 30
0.0
 10
11.7856107393
 20
8.1684378195
 30
0.0
 10
11.7899383832
 20
8.1719488493
 30
0.0
 10
11.7951315612
 20
8.1761620756
 30
0.0
 10
11.8003247377
 20
8.1803753046
 30
0.0
 10
11.8055179151
 20
8.1845885323
 30
0.0
 10
11.8107110903
 20
8.1888017623
 30
0.0
 10
11.8150387428
 20
8.1923127807
 30
0.0
 10
11.8185008504
 20
8.19512161
 30
0.0
 10
11.8210974705
 20
8.1972281922
 30
0.0
 10
11.823261195
 20
8.1989838041
 30
0.0
 10
11.8249924564
 20
8.2003880093
 30
0.0
 10
11.8260738532
 20
8.2012662851
 30
0.0
 10
11.8269404399
 20
8.2019674226
 30
0.0
 10
11.8274787042
 20
8.2024090175
 30
0.0
 10
11.8278622078
 20
8.2027113521
 30
0.0
 10
11.828070841
 20
8.2028947256
 30
0.0
 10
11.8282398821
 20
8.2031180648
 30
0.0
 10
11.8284647163
 20
8.2033835783
 30
0.0
 10
11.8289931804
 20
8.204032054
 30
0.0
 10
11.8297905545
 20
8.2050000452
 30
0.0
 10
11.8308510462
 20
8.2062933993
 30
0.0
 10
11.8319122531
 20
8.2075860313
 30
0.0
 10
11.8333269462
 20
8.2093097926
 30
0.0
 10
11.8358027754
 20
8.2123262575
 30
0.0
 10
11.8393396134
 20
8.2166355543
 30
0.0
 10
11.8435838451
 20
8.2218066843
 30
0.0
 10
11.8478280698
 20
8.2269778213
 30
0.0
 10
11.8520722964
 20
8.2321489564
 30
0.0
 10
11.8563165224
 20
8.237320092
 30
0.0
 10
11.8598533778
 20
8.2416293714
 30
0.0
 10
11.8626828615
 20
8.2450767954
 30
0.0
 10
11.8648049758
 20
8.2476623623
 30
0.0
 10
11.8669270844
 20
8.2502479332
 30
0.0
 10
11.8686955259
 20
8.2524025632
 30
0.0
 10
11.8701102396
 20
8.254126295
 30
0.0
 10
11.8709945257
 20
8.255203564
 30
0.0
 10
11.8717017483
 20
8.2560655245
 30
0.0
 10
11.87223273
 20
8.2567115968
 30
0.0
 10
11.8726734181
 20
8.2572512567
 30
0.0
 10
11.8729854257
 20
8.2576265337
 30
0.0
 10
11.8731582102
 20
8.2578448576
 30
0.0
 10
11.873303308
 20
8.2579976707
 30
0.0
 10
11.8733891211
 20
8.2581922635
 30
0.0
 10
11.8735242178
 20
8.2584371474
 30
0.0
 10
11.8737510021
 20
8.2588724841
 30
0.0
 10
11.874080017
 20
8.2594908439
 30
0.0
 10
11.8744726787
 20
8.260234395
 30
0.0
 10
11.8749969807
 20
8.2612252659
 30
0.0
 10
11.8756521004
 20
8.2624640361
 30
0.0
 10
11.8767004361
 20
8.264445967
 30
0.0
 10
11.8780108061
 20
8.2669234154
 30
0.0
 10
11.8795832714
 20
8.2698963386
 30
0.0
 10
11.8811557311
 20
8.2728692658
 30
0.0
 10
11.8832523459
 20
8.2768331672
 30
0.0
 10
11.8858731137
 20
8.2817880446
 30
0.0
 10
11.8890180355
 20
8.2877338971
 30
0.0
 10
11.8921629567
 20
8.29367975
 30
0.0
 10
11.8953078802
 20
8.2996256018
 30
0.0
 10
11.8984527948
 20
8.3055714577
 30
0.0
 10
11.9010735847
 20
8.3105263247
 30
0.0
 10
11.9029080833
 20
8.313994757
 30
0.0
 10
11.903956453
 20
8.3159766787
 30
0.0
 10
11.9047424915
 20
8.3174632313
 30
0.0
 10
11.9055294426
 20
8.3189493587
 30
0.0
 10
11.9061170974
 20
8.3200651463
 30
0.0
 10
11.9065128462
 20
8.3208071508
 30
0.0
 10
11.9066718206
 20
8.321119078
 30
0.0
 10
11.9068128126
 20
8.3213621844
 30
0.0
 10
11.9069032913
 20
8.3216288254
 30
0.0
 10
11.9070381593
 20
8.3221063818
 30
0.0
 10
11.9072430732
 20
8.3227829001
 30
0.0
 10
11.9075640921
 20
8.3238685177
 30
0.0
 10
11.907967709
 20
8.325224448
 30
0.0
 10
11.9086121863
 20
8.3273945466
 30
0.0
 10
11.9094182324
 20
8.3301069606
 30
0.0
 10
11.9103852952
 20
8.3333619469
 30
0.0
 10
11.9116747796
 20
8.3377018974
 30
0.0
 10
11.913286612
 20
8.3431268463
 30
0.0
 10
11.9152208208
 20
8.3496367803
 30
0.0
 10
11.9171550268
 20
8.3561467156
 30
0.0
 10
11.9190892342
 20
8.3626566504
 30
0.0
 10
11.9210234387
 20
8.369166586
 30
0.0
 10
11.9226352844
 20
8.3745915299
 30
0.0
 10
11.9239247416
 20
8.3789314905
 30
0.0
 10
11.9248918876
 20
8.3821864462
 30
0.0
 10
11.9256976734
 20
8.384898956
 30
0.0
 10
11.9263426818
 20
8.387068859
 30
0.0
 10
11.9267449472
 20
8.3884252873
 30
0.0
 10
11.9270687401
 20
8.3895098827
 30
0.0
 10
11.9272665916
 20
8.3901890035
 30
0.0
 10
11.9274141445
 20
8.3906618854
 30
0.0
 10
11.9274842902
 20
8.3909360193
 30
0.0
 10
11.927501064
 20
8.3912249016
 30
0.0
 10
11.927540274
 20
8.3915809634
 30
0.0
 10
11.9276193634
 20
8.3924396608
 30
0.0
 10
11.9277443038
 20
8.3937259641
 30
0.0
 10
11.9279072866
 20
8.3954420313
 30
0.0
 10
11.9280712336
 20
8.397157832
 30
0.0
 10
11.9282894932
 20
8.3994456593
 30
0.0
 10
11.9286716043
 20
8.4034493137
 30
0.0
 10
11.9292173954
 20
8.4091688426
 30
0.0
 10
11.9298723797
 20
8.4160322676
 30
0.0
 10
11.9305273547
 20
8.4228956951
 30
0.0
 10
11.9311823322
 20
8.429759122
 30
0.0
 10
11.9320556346
 20
8.4389103581
 30
0.0
 10
11.9331472629
 20
8.4503494031
 30
0.0
 10
11.9340205655
 20
8.4595006392
 30
0.0
 10
11.9344572168
 20
8.4640762572
 30
0.0
  0
SPLINE
  5
30C
100
AcDbEntity
  8
0
100
AcDbSpline
 62
4
  6
CONTINUOUS
 70
0
 71
3
 72
167
 73
163
 74
0
 42
0.0000001
 43
0.0000001
 44
0.0000000001
 40
0.0
 40
0.0
 40
0.0
 40
0.0
 40
0.03125
 40
0.0625
 40
0.078125
 40
0.09375
 40
0.109375
 40
0.125
 40
0.1328125
 40
0.140625
 40
0.1484375
 40
0.15234375
 40
0.15625
 40
0.16015625
 40
0.162109375
 40
0.1640625
 40
0.1650390625
 40
0.166015625
 40
0.1665039062
 40
0.1667480469
 40
0.1669921875
 40
0.1674804688
 40
0.16796875
 40
0.169921875
 40
0.171875
 40
0.173828125
 40
0.17578125
 40
0.1796875
 40
0.1875
 40
0.1953125
 40
0.203125
 40
0.2109375
 40
0.21875
 40
0.234375
 40
0.25
 40
0.265625
 40
0.28125
 40
0.2890625
 40
0.296875
 40
0.3046875
 40
0.3125
 40
0.3203125
 40
0.32421875
 40
0.326171875
 40
0.328125
 40
0.330078125
 40
0.33203125
 40
0.3325195312
 40
0.3330078125
 40
0.3332519531
 40
0.3334960938
 40
0.333984375
 40
0.3349609375
 40
0.3359375
 40
0.337890625
 40
0.33984375
 40
0.34375
 40
0.34765625
 40
0.3515625
 40
0.359375
 40
0.3671875
 40
0.375
 40
0.390625
 40
0.40625
 40
0.421875
 40
0.4375
 40
0.453125
 40
0.4609375
 40
0.46875
 40
0.4765625
 40
0.48046875
 40
0.484375
 40
0.48828125
 40
0.4921875
 40
0.494140625
 40
0.49609375
 40
0.4970703125
 40
0.498046875
 40
0.4990234375
 40
0.4995117188
 40
0.4997558594
 40
0.5
 40
0.5002441406
 40
0.5004882812
 40
0.5009765625
 40
0.501953125
 40
0.5029296875
 40
0.50390625
 40
0.505859375
 40
0.5078125
 40
0.51171875
 40
0.515625
 40
0.51953125
 40
0.5234375
 40
0.53125
 40
0.5390625
 40
0.546875
 40
0.5625
 40
0.578125
 40
0.59375
 40
0.609375
 40
0.625
 40
0.6328125
 40
0.640625
 40
0.6484375
 40
0.65234375
 40
0.65625
 40
0.66015625
 40
0.662109375
 40
0.6640625
 40
0.6650390625
 40
0.666015625
 40
0.6665039062
 40
0.6667480469
 40
0.6669921875
 40
0.6674804688
 40
0.66796875
 40
0.669921875
 40
0.671875
 40
0.673828125
 40
0.67578125
 40
0.6796875
 40
0.6875
 40
0.6953125
 40
0.703125
 40
0.7109375
 40
0.71875
 40
0.734375
 40
0.75
 40
0.765625
 40
0.78125
 40
0.7890625
 40
0.796875
 40
0.8046875
 40
0.8125
 40
0.8203125
 40
0.82421875
 40
0.826171875
 40
0.828125
 40
0.830078125
 40
0.83203125
 40
0.8325195312
 40
0.8330078125
 40
0.8332519531
 40
0.8334960938
 40
0.833984375
 40
0.8349609375
 40
0.8359375
 40
0.837890625
 40
0.83984375
 40
0.84375
 40
0.84765625
 40
0.8515625
 40
0.859375
 40
0.8671875
 40
0.875
 40
0.890625
 40
0.90625
 40
0.921875
 40
0.9375
 40
0.96875
 40
1.0
 40
1.0
 40
1.0
 40
1.0
 10
9.8305730219
 20
7.928682733
 30
0.0
 10
9.8424309496
 20
7.9232684251
 30
0.0
 10
9.8661468052
 20
7.9124398092
 30
0.0
 10
9.8957916247
 20
7.8989040393
 30
0.0
 10
9.9195074803
 20
7.8880754234
 30
0.0
 10
9.9372943719
 20
7.8799539615
 30
0.0
 10
9.9550812636
 20
7.8718324995
 30
0.0
 10
9.9699036734
 20
7.8650646149
 30
0.0
 10
9.981761601
 20
7.8596503062
 30
0.0
 10
9.9906550475
 20
7.8555895775
 30
0.0
 10
9.9980662502
 20
7.852205628
 30
0.0
 10
10.0039952185
 20
7.8494984884
 30
0.0
 10
10.0084419278
 20
7.8474680792
 30
0.0
 10
10.0121475729
 20
7.8457762447
 30
0.0
 10
10.0151119679
 20
7.8444223888
 30
0.0
 10
10.0169649904
 20
7.843577113
 30
0.0
 10
10.0184467772
 20
7.8428988675
 30
0.0
 10
10.0193743341
 20
7.8424795842
 30
0.0
 10
10.0200207376
 20
7.8421768265
 30
0.0
 10
10.0203946271
 20
7.8420183093
 30
0.0
 10
10.0207855266
 20
7.8419143583
 30
0.0
 10
10.021268337
 20
7.8417657686
 30
0.0
 10
10.022431867
 20
7.8414245038
 30
0.0
 10
10.0241751522
 20
7.8409061593
 30
0.0
 10
10.0265006811
 20
7.8402187183
 30
0.0
 10
10.0288259028
 20
7.8395302916
 30
0.0
 10
10.0319263056
 20
7.8386127332
 30
0.0
 10
10.0373519606
 20
7.8370068457
 30
0.0
 10
10.0451029223
 20
7.8347128045
 30
0.0
 10
10.0544040652
 20
7.8319599192
 30
0.0
 10
10.063705211
 20
7.8292070434
 30
0.0
 10
10.0730063561
 20
7.8264541651
 30
0.0
 10
10.0854078832
 20
7.8227836616
 30
0.0
 10
10.1009097919
 20
7.8181955319
 30
0.0
 10
10.1195120824
 20
7.8126897765
 30
0.0
 10
10.1381143729
 20
7.8071840209
 30
0.0
 10
10.1536162816
 20
7.8025958914
 30
0.0
 10
10.1660178086
 20
7.7989253875
 30
0.0
 10
10.1753189539
 20
7.7961725103
 30
0.0
 10
10.1846200989
 20
7.7934196304
 30
0.0
 10
10.1939212453
 20
7.7906667606
 30
0.0
 10
10.2016721959
 20
7.7883726711
 30
0.0
 10
10.2070978707
 20
7.7867668698
 30
0.0
 10
10.2101982417
 20
7.7858491734
 30
0.0
 10
10.212523561
 20
7.7851611705
 30
0.0
 10
10.2148487234
 20
7.7844721375
 30
0.0
 10
10.2165930351
 20
7.7839582513
 30
0.0
 10
10.2177552255
 20
7.7836111681
 30
0.0
 10
10.2182404894
 20
7.783473235
 30
0.0
 10
10.2186263259
 20
7.783347294
 30
0.0
 10
10.2190208465
 20
7.7832783834
 30
0.0
 10
10.2197152922
 20
7.7831842874
 30
0.0
 10
10.2207052524
 20
7.7830360394
 30
0.0
 10
10.2222903652
 20
7.7828065688
 30
0.0
 10
10.2242713534
 20
7.7825170851
 30
0.0
 10
10.2274411596
 20
7.7820553898
 30
0.0
 10
10.2314033401
 20
7.7814777633
 30
0.0
 10
10.2361579898
 20
7.7807848286
 30
0.0
 10
10.2424975112
 20
7.7798608399
 30
0.0
 10
10.2504219169
 20
7.77870588
 30
0.0
 10
10.259931202
 20
7.777319917
 30
0.0
 10
10.2726102494
 20
7.7754719703
 30
0.0
 10
10.2884590585
 20
7.7731620355
 30
0.0
 10
10.3074776295
 20
7.7703901143
 30
0.0
 10
10.3264962004
 20
7.767618193
 30
0.0
 10
10.3455147714
 20
7.7648462717
 30
0.0
 10
10.3613635805
 20
7.7625363373
 30
0.0
 10
10.3740426278
 20
7.7606883897
 30
0.0
 10
10.3835519133
 20
7.7593024291
 30
0.0
 10
10.3914763178
 20
7.7581474617
 30
0.0
 10
10.3978158415
 20
7.7572234884
 30
0.0
 10
10.402570484
 20
7.7565305066
 30
0.0
 10
10.4073251277
 20
7.755837532
 30
0.0
 10
10.4112873271
 20
7.7552600305
 30
0.0
 10
10.4144570948
 20
7.7547980801
 30
0.0
 10
10.4164381809
 20
7.7545092453
 30
0.0
 10
10.4180230927
 20
7.7542784428
 30
0.0
 10
10.4192116589
 20
7.7541046144
 30
0.0
 10
10.4202025051
 20
7.7539620685
 30
0.0
 10
10.4208953629
 20
7.753857751
 30
0.0
 10
10.4212924284
 20
7.7538052226
 30
0.0
 10
10.4215869969
 20
7.7537458773
 30
0.0
 10
10.4218939148
 20
7.7537627872
 30
0.0
 10
10.422298831
 20
7.7537587351
 30
0.0
 10
10.4230094413
 20
7.7537640367
 30
0.0
 10
10.4240235496
 20
7.7537651314
 30
0.0
 10
10.4252409287
 20
7.7537692182
 30
0.0
 10
10.4268639439
 20
7.7537736987
 30
0.0
 10
10.4288927667
 20
7.753779631
 30
0.0
 10
10.4321388532
 20
7.7537889373
 30
0.0
 10
10.4361964715
 20
7.7538006338
 30
0.0
 10
10.4410656092
 20
7.7538146423
 30
0.0
 10
10.4459347479
 20
7.753828658
 30
0.0
 10
10.4524269326
 20
7.7538473432
 30
0.0
 10
10.4605421635
 20
7.7538707005
 30
0.0
 10
10.4702804406
 20
7.7538987289
 30
0.0
 10
10.4832648101
 20
7.7539361003
 30
0.0
 10
10.4994952719
 20
7.7539828144
 30
0.0
 10
10.5189718261
 20
7.7540388714
 30
0.0
 10
10.5384483803
 20
7.7540949285
 30
0.0
 10
10.5579249345
 20
7.7541509853
 30
0.0
 10
10.5741553962
 20
7.7541976999
 30
0.0
 10
10.5871397659
 20
7.7542350704
 30
0.0
 10
10.5968780422
 20
7.7542631013
 30
0.0
 10
10.6049932755
 20
7.7542864508
 30
0.0
 10
10.6114854555
 20
7.754305152
 30
0.0
 10
10.6163546084
 20
7.754319119
 30
0.0
 10
10.6204121787
 20
7.7543309452
 30
0.0
 10
10.6236583632
 20
7.7543399869
 30
0.0
 10
10.6256869364
 20
7.7543465925
 30
0.0
 10
10.627310464
 20
7.7543496908
 30
0.0
 10
10.6283236423
 20
7.7543566156
 30
0.0
 10
10.6290359263
 20
7.7543514656
 30
0.0
 10
10.6294381593
 20
7.7543641646
 30
0.0
 10
10.6298223644
 20
7.7544357785
 30
0.0
 10
10.6303087828
 20
7.7545051585
 30
0.0
 10
10.6314711154
 20
7.7546882446
 30
0.0
 10
10.6332167443
 20
7.7549559125
 30
0.0
 10
10.6355430321
 20
7.7553167817
 30
0.0
 10
10.6378696455
 20
7.7556765867
 30
0.0
 10
10.6409716832
 20
7.7561566978
 30
0.0
 10
10.6464003021
 20
7.7569967194
 30
0.0
 10
10.6541554442
 20
7.7581968406
 30
0.0
 10
10.6634616266
 20
7.7596369473
 30
0.0
 10
10.6727678058
 20
7.7610770644
 30
0.0
 10
10.6820739859
 20
7.7625171788
 30
0.0
 10
10.6944822256
 20
7.7644373322
 30
0.0
 10
10.7099925255
 20
7.7668375236
 30
0.0
 10
10.7286048853
 20
7.7697177535
 30
0.0
 10
10.747217245
 20
7.7725979832
 30
0.0
 10
10.7627275448
 20
7.7749981749
 30
0.0
 10
10.7751357847
 20
7.7769183279
 30
0.0
 10
10.7844419645
 20
7.7783584434
 30
0.0
 10
10.7937481448
 20
7.7797985561
 30
0.0
 10
10.8030543232
 20
7.7812386792
 30
0.0
 10
10.8108094778
 20
7.7824387493
 30
0.0
 10
10.8162380743
 20
7.7832788622
 30
0.0
 10
10.8193401478
 20
7.7837588271
 30
0.0
 10
10.8216666511
 20
7.7841190812
 30
0.0
 10
10.8239933527
 20
7.7844782634
 30
0.0
 10
10.8257378228
 20
7.7847506555
 30
0.0
 10
10.8269016677
 20
7.7849275762
 30
0.0
 10
10.8273853162
 20
7.7850082483
 30
0.0
 10
10.827775237
 20
7.785056561
 30
0.0
 10
10.8281541791
 20
7.7851642093
 30
0.0
 10
10.8288122268
 20
7.7853801624
 30
0.0
 10
10.8297549564
 20
7.785674283
 30
0.0
 10
10.8312618363
 20
7.7861529143
 30
0.0
 10
10.8331459455
 20
7.786748451
 30
0.0
 10
10.8361602356
 20
7.7877028481
 30
0.0
 10
10.8399281958
 20
7.7888953167
 30
0.0
 10
10.8444497063
 20
7.7903265049
 30
0.0
 10
10.8504784016
 20
7.7922346769
 30
0.0
 10
10.8580142657
 20
7.794619919
 30
0.0
 10
10.8670573047
 20
7.7974821979
 30
0.0
 10
10.8791146893
 20
7.8012985738
 30
0.0
 10
10.8941864204
 20
7.8060690424
 30
0.0
 10
10.9122724976
 20
7.8117936052
 30
0.0
 10
10.9303585747
 20
7.8175181679
 30
0.0
 10
10.9544733443
 20
7.8251509182
 30
0.0
 10
10.9846168063
 20
7.8346918561
 30
0.0
 10
11.0087315758
 20
7.8423246064
 30
0.0
 10
11.0207889606
 20
7.8461409816
 30
0.0
  0
SPLINE
  5
30D
100
AcDbEntity
  8
0
100
AcDbSpline
 62
4
  6
CONTINUOUS
 70
0
 71
3
 72
135
 73
131
 74
0
 42
0.0000001
 43
0.0000001
 44
0.0000000001
 40
0.0
 40
0.0
 40
0.0
 40
0.0
 40
0.03125
 40
0.0625
 40
0.078125
 40
0.09375
 40
0.109375
 40
0.125
 40
0.140625
 40
0.1484375
 40
0.15234375
 40
0.15625
 40
0.16015625
 40
0.1640625
 40
0.1650390625
 40
0.166015625
 40
0.1665039062
 40
0.1669921875
 40
0.16796875
 40
0.169921875
 40
0.171875
 40
0.17578125
 40
0.1796875
 40
0.1875
 40
0.1953125
 40
0.203125
 40
0.21875
 40
0.234375
 40
0.25
 40
0.265625
 40
0.28125
 40
0.296875
 40
0.3046875
 40
0.3125
 40
0.3203125
 40
0.32421875
 40
0.328125
 40
0.330078125
 40
0.33203125
 40
0.3330078125
 40
0.3334960938
 40
0.333984375
 40
0.3349609375
 40
0.3359375
 40
0.33984375
 40
0.34375
 40
0.34765625
 40
0.3515625
 40
0.359375
 40
0.375
 40
0.390625
 40
0.40625
 40
0.421875
 40
0.4375
 40
0.453125
 40
0.4609375
 40
0.46875
 40
0.4765625
 40
0.484375
 40
0.48828125
 40
0.4921875
 40
0.494140625
 40
0.49609375
 40
0.498046875
 40
0.4990234375
 40
0.4995117188
 40
0.5
 40
0.5004882812
 40
0.5009765625
 40
0.501953125
 40
0.50390625
 40
0.505859375
 40
0.5078125
 40
0.51171875
 40
0.515625
 40
0.5234375
 40
0.53125
 40
0.5390625
 40
0.546875
 40
0.5625
 40
0.578125
 40
0.59375
 40
0.609375
 40
0.625
 40
0.640625
 40
0.6484375
 40
0.65234375
 40
0.65625
 40
0.66015625
 40
0.6640625
 40
0.6650390625
 40
0.666015625
 40
0.6665039062
 40
0.6669921875
 40
0.66796875
 40
0.669921875
 40
0.671875
 40
0.67578125
 40
0.6796875
 40
0.6875
 40
0.6953125
 40
0.703125
 40
0.71875
 40
0.75
 40
0.78125
 40
0.796875
 40
0.8046875
 40
0.8125
 40
0.8203125
 40
0.82421875
 40
0.828125
 40
0.830078125
 40
0.83203125
 40
0.8330078125
 40
0.8334960938
 40
0.833984375
 40
0.8349609375
 40
0.8359375
 40
0.83984375
 40
0.84375
 40
0.84765625
 40
0.8515625
 40
0.859375
 40
0.875
 40
0.890625
 40
0.90625
 40
0.921875
 40
0.9375
 40
0.96875
 40
1.0
 40
1.0
 40
1.0
 40
1.0
 10
8.9169047567
 20
8.6733442154
 30
0.0
 10
8.9173230176
 20
8.6688064933
 30
0.0
 10
8.9181595393
 20
8.6597310493
 30
0.0
 10
8.9192051916
 20
8.6483867442
 30
0.0
 10
8.9200417133
 20
8.6393113002
 30
0.0
 10
8.9206691051
 20
8.6325047171
 30
0.0
 10
8.9212964945
 20
8.6256981341
 30
0.0
 10
8.9219238933
 20
8.6188915511
 30
0.0
 10
8.9224466963
 20
8.6132193982
 30
0.0
 10
8.9228127158
 20
8.6092488922
 30
0.0
 10
8.9230217802
 20
8.60698003
 30
0.0
 10
8.9231788309
 20
8.6052783878
 30
0.0
 10
8.9233349168
 20
8.6035767286
 30
0.0
 10
8.9234546862
 20
8.6023005318
 30
0.0
 10
8.9235303257
 20
8.60144966
 30
0.0
 10
8.923568102
 20
8.60109524
 30
0.0
 10
8.9235837202
 20
8.6008114476
 30
0.0
 10
8.9236527419
 20
8.6005285931
 30
0.0
 10
8.9237983425
 20
8.6000340336
 30
0.0
 10
8.9239933974
 20
8.5993272927
 30
0.0
 10
8.92431272
 20
8.5981966342
 30
0.0
 10
8.9247093961
 20
8.5967832676
 30
0.0
 10
8.9253454623
 20
8.5945219054
 30
0.0
 10
8.9261400701
 20
8.5916951943
 30
0.0
 10
8.9270938028
 20
8.5883031445
 30
0.0
 10
8.9283653753
 20
8.5837804103
 30
0.0
 10
8.9299548653
 20
8.5781269929
 30
0.0
 10
8.9318622429
 20
8.5713428918
 30
0.0
 10
8.9337696234
 20
8.5645587908
 30
0.0
 10
8.9356770024
 20
8.5577746896
 30
0.0
 10
8.9375843843
 20
8.5509905892
 30
0.0
 10
8.939173861
 20
8.5453371696
 30
0.0
 10
8.9404454608
 20
8.5408144399
 30
0.0
 10
8.9413991101
 20
8.5374223763
 30
0.0
 10
8.9421939785
 20
8.5345957084
 30
0.0
 10
8.9428295131
 20
8.532334258
 30
0.0
 10
8.9432275421
 20
8.5309211159
 30
0.0
 10
8.9435440877
 20
8.5297899966
 30
0.0
 10
8.9437462126
 20
8.5290844288
 30
0.0
 10
8.9438791147
 20
8.5285877622
 30
0.0
 10
8.9439684913
 20
8.5283082853
 30
0.0
 10
8.9441084617
 20
8.5280451272
 30
0.0
 10
8.9442661315
 20
8.5277106018
 30
0.0
 10
8.9446587722
 20
8.5269123316
 30
0.0
 10
8.9452417551
 20
8.525712998
 30
0.0
 10
8.9460224825
 20
8.5241149886
 30
0.0
 10
8.9468022959
 20
8.5225166845
 30
0.0
 10
8.9478423659
 20
8.5203857151
 30
0.0
 10
8.9496623399
 20
8.5166564708
 30
0.0
 10
8.9522623804
 20
8.511329004
 30
0.0
 10
8.9553823957
 20
8.504936033
 30
0.0
 10
8.9585024199
 20
8.498543065
 30
0.0
 10
8.9616224417
 20
8.4921500962
 30
0.0
 10
8.9647424642
 20
8.4857571276
 30
0.0
 10
8.9673424826
 20
8.4804296536
 30
0.0
 10
8.9694224979
 20
8.4761676747
 30
0.0
 10
8.9709825078
 20
8.4729711897
 30
0.0
 10
8.9725425235
 20
8.4697747079
 30
0.0
 10
8.9738425188
 20
8.4671109631
 30
0.0
 10
8.9748825548
 20
8.4649799895
 30
0.0
 10
8.9755324869
 20
8.4636480804
 30
0.0
 10
8.9760526394
 20
8.462582669
 30
0.0
 10
8.9764421876
 20
8.4617832932
 30
0.0
 10
8.9767686124
 20
8.4611181561
 30
0.0
 10
8.9769935747
 20
8.4606505791
 30
0.0
 10
8.9771276442
 20
8.4603864854
 30
0.0
 10
8.9772126474
 20
8.4601797018
 30
0.0
 10
8.9773570867
 20
8.4600062251
 30
0.0
 10
8.9775289404
 20
8.459763305
 30
0.0
 10
8.9778393439
 20
8.4593436078
 30
0.0
 10
8.9782777273
 20
8.4587412105
 30
0.0
 10
8.978805949
 20
8.458019545
 30
0.0
 10
8.9795094896
 20
8.4570569012
 30
0.0
 10
8.9803891739
 20
8.4558537414
 30
0.0
 10
8.9817965242
 20
8.4539286047
 30
0.0
 10
8.9835557618
 20
8.4515222116
 30
0.0
 10
8.9856668255
 20
8.448634528
 30
0.0
 10
8.987777895
 20
8.4457468476
 30
0.0
 10
8.9905926523
 20
8.4418966059
 30
0.0
 10
8.9941110996
 20
8.4370838042
 30
0.0
 10
8.998333236
 20
8.4313084419
 30
0.0
 10
9.0025553729
 20
8.4255330801
 30
0.0
 10
9.006777508
 20
8.4197577166
 30
0.0
 10
9.01099965
 20
8.4139823592
 30
0.0
 10
9.0145180799
 20
8.4091695425
 30
0.0
 10
9.0169810236
 20
8.4058006077
 30
0.0
 10
9.0183883533
 20
8.4038754446
 30
0.0
 10
9.0194440384
 20
8.4024317343
 30
0.0
 10
9.0204990055
 20
8.4009874044
 30
0.0
 10
9.0212922438
 20
8.3999058944
 30
0.0
 10
9.0218179388
 20
8.3991821856
 30
0.0
 10
9.0220416368
 20
8.3988846613
 30
0.0
 10
9.0222097281
 20
8.3986372616
 30
0.0
 10
9.0224175612
 20
8.3984241658
 30
0.0
 10
9.0227997342
 20
8.3980671865
 30
0.0
 10
9.0233360616
 20
8.3975489002
 30
0.0
 10
9.0241995694
 20
8.3967242894
 30
0.0
 10
9.0252771106
 20
8.3956919347
 30
0.0
 10
9.0270022069
 20
8.3940410565
 30
0.0
 10
9.0291582238
 20
8.3919771537
 30
0.0
 10
9.0317455953
 20
8.3895006008
 30
0.0
 10
9.0351953712
 20
8.3861984848
 30
0.0
 10
9.0412325038
 20
8.3804198031
 30
0.0
 10
9.049856965
 20
8.3721645311
 30
0.0
 10
9.0584814348
 20
8.3639092681
 30
0.0
 10
9.0645185553
 20
8.3581305739
 30
0.0
 10
9.0679683502
 20
8.3548284776
 30
0.0
 10
9.0705556636
 20
8.3523518643
 30
0.0
 10
9.0727118623
 20
8.3502881506
 30
0.0
 10
9.0744365876
 20
8.3486368864
 30
0.0
 10
9.0755150731
 20
8.3476055141
 30
0.0
 10
9.0763766426
 20
8.3467788868
 30
0.0
 10
9.0769179048
 20
8.3462657344
 30
0.0
 10
9.0772912142
 20
8.345899534
 30
0.0
 10
9.0775132551
 20
8.3457012189
 30
0.0
 10
9.0777681446
 20
8.345544118
 30
0.0
 10
9.0780755287
 20
8.3453336547
 30
0.0
 10
9.0788224915
 20
8.3448401371
 30
0.0
 10
9.0799390543
 20
8.3440949909
 30
0.0
 10
9.0814300232
 20
8.3431042461
 30
0.0
 10
9.0829203986
 20
8.3421127567
 30
0.0
 10
9.0849077729
 20
8.3407910305
 30
0.0
 10
9.0883855814
 20
8.3384778887
 30
0.0
 10
9.0933539296
 20
8.3351734637
 30
0.0
 10
9.0993159259
 20
8.3312081266
 30
0.0
 10
9.105277928
 20
8.3272427967
 30
0.0
 10
9.1112399285
 20
8.3232774649
 30
0.0
 10
9.1191892631
 20
8.3179903565
 30
0.0
 10
9.1291259312
 20
8.3113814708
 30
0.0
 10
9.1370752657
 20
8.3060943623
 30
0.0
 10
9.1410499329
 20
8.303450808
 30
0.0
  0
SPLINE
  5
30E
100
AcDbEntity
  8
0
100
AcDbSpline
 62
4
  6
CONTINUOUS
 70
0
 71
3
 72
137
 73
133
 74
0
 42
0.0000001
 43
0.0000001
 44
0.0000000001
 40
0.0
 40
0.0
 40
0.0
 40
0.0
 40
0.03125
 40
0.0625
 40
0.078125
 40
0.09375
 40
0.109375
 40
0.125
 40
0.140625
 40
0.1484375
 40
0.15234375
 40
0.15625
 40
0.16015625
 40
0.1640625
 40
0.1650390625
 40
0.166015625
 40
0.1665039062
 40
0.1669921875
 40
0.16796875
 40
0.169921875
 40
0.171875
 40
0.17578125
 40
0.1796875
 40
0.1875
 40
0.1953125
 40
0.203125
 40
0.21875
 40
0.234375
 40
0.25
 40
0.265625
 40
0.28125
 40
0.296875
 40
0.3046875
 40
0.3125
 40
0.3203125
 40
0.32421875
 40
0.328125
 40
0.330078125
 40
0.33203125
 40
0.3330078125
 40
0.3334960938
 40
0.333984375
 40
0.3349609375
 40
0.3359375
 40
0.33984375
 40
0.34375
 40
0.34765625
 40
0.3515625
 40
0.359375
 40
0.375
 40
0.390625
 40
0.40625
 40
0.421875
 40
0.4375
 40
0.453125
 40
0.4609375
 40
0.46875
 40
0.4765625
 40
0.484375
 40
0.48828125
 40
0.4921875
 40
0.494140625
 40
0.49609375
 40
0.498046875
 40
0.4990234375
 40
0.4995117188
 40
0.5
 40
0.5004882812
 40
0.5009765625
 40
0.501953125
 40
0.50390625
 40
0.505859375
 40
0.5078125
 40
0.51171875
 40
0.515625
 40
0.5234375
 40
0.53125
 40
0.5390625
 40
0.546875
 40
0.5625
 40
0.578125
 40
0.59375
 40
0.609375
 40
0.625
 40
0.640625
 40
0.6484375
 40
0.65234375
 40
0.65625
 40
0.66015625
 40
0.6640625
 40
0.6650390625
 40
0.666015625
 40
0.6665039062
 40
0.6669921875
 40
0.66796875
 40
0.669921875
 40
0.671875
 40
0.67578125
 40
0.6796875
 40
0.6875
 40
0.6953125
 40
0.703125
 40
0.71875
 40
0.734375
 40
0.75
 40
0.765625
 40
0.78125
 40
0.796875
 40
0.8046875
 40
0.8125
 40
0.8203125
 40
0.82421875
 40
0.828125
 40
0.830078125
 40
0.83203125
 40
0.8330078125
 40
0.8334960938
 40
0.833984375
 40
0.8349609375
 40
0.8359375
 40
0.83984375
 40
0.84375
 40
0.84765625
 40
0.8515625
 40
0.859375
 40
0.875
 40
0.890625
 40
0.90625
 40
0.921875
 40
0.9375
 40
0.96875
 40
1.0
 40
1.0
 40
1.0
 40
1.0
 10
9.1410499187
 20
10.159668525
 30
0.0
 10
9.137155185
 20
10.1576289705
 30
0.0
 10
9.1293657175
 20
10.1535498616
 30
0.0
 10
9.1196288832
 20
10.1484509752
 30
0.0
 10
9.1118394157
 20
10.1443718664
 30
0.0
 10
9.1059973153
 20
10.1413125342
 30
0.0
 10
9.1001552137
 20
10.1382532042
 30
0.0
 10
9.0943131169
 20
10.1351938658
 30
0.0
 10
9.089444688
 20
10.1326444435
 30
0.0
 10
9.0860368169
 20
10.1308597961
 30
0.0
 10
9.0840894166
 20
10.1298400784
 30
0.0
 10
9.0826289943
 20
10.1290750626
 30
0.0
 10
9.0811680829
 20
10.1283109165
 30
0.0
 10
9.0800737706
 20
10.1277353685
 30
0.0
 10
9.0793420965
 20
10.1273554621
 30
0.0
 10
9.0790404058
 20
10.1271915246
 30
0.0
 10
9.07879165
 20
10.1270735389
 30
0.0
 10
9.0785699685
 20
10.1269074105
 30
0.0
 10
9.0781946052
 20
10.1265943175
 30
0.0
 10
9.0776518087
 20
10.1261587124
 30
0.0
 10
9.0767870022
 20
10.1254552222
 30
0.0
 10
9.0757047381
 20
10.1245780926
 30
0.0
 10
9.0739738175
 20
10.1231734371
 30
0.0
 10
9.071809926
 20
10.1214180459
 30
0.0
 10
9.0692133592
 20
10.1193113932
 30
0.0
 10
9.0657512342
 20
10.1165025869
 30
0.0
 10
9.0614235903
 20
10.1129915572
 30
0.0
 10
9.0562304122
 20
10.1087783309
 30
0.0
 10
9.0510372358
 20
10.1045651019
 30
0.0
 10
9.0458440584
 20
10.1003518742
 30
0.0
 10
9.0406508831
 20
10.0961386442
 30
0.0
 10
9.0363232306
 20
10.0926276258
 30
0.0
 10
9.0328611231
 20
10.0898187964
 30
0.0
 10
9.0302645029
 20
10.0877122143
 30
0.0
 10
9.0281007784
 20
10.0859566024
 30
0.0
 10
9.0263695171
 20
10.0845523972
 30
0.0
 10
9.0252881203
 20
10.0836741214
 30
0.0
 10
9.0244215336
 20
10.0829729839
 30
0.0
 10
9.0238832692
 20
10.082531389
 30
0.0
 10
9.0234997657
 20
10.0822290544
 30
0.0
 10
9.0232911325
 20
10.0820456809
 30
0.0
 10
9.0231220913
 20
10.0818223417
 30
0.0
 10
9.0228972571
 20
10.0815568282
 30
0.0
 10
9.0223687931
 20
10.0809083525
 30
0.0
 10
9.021571419
 20
10.0799403612
 30
0.0
 10
9.0205109273
 20
10.0786470072
 30
0.0
 10
9.0194497203
 20
10.0773543751
 30
0.0
 10
9.0180350272
 20
10.0756306139
 30
0.0
 10
9.0155591981
 20
10.072614149
 30
0.0
 10
9.01202236
 20
10.0683048521
 30
0.0
 10
9.0077781284
 20
10.0631337222
 30
0.0
 10
9.0035339037
 20
10.0579625852
 30
0.0
 10
8.9992896771
 20
10.0527914501
 30
0.0
 10
8.995045451
 20
10.0476203145
 30
0.0
 10
8.9915085957
 20
10.043311035
 30
0.0
 10
8.9886791119
 20
10.0398636111
 30
0.0
 10
8.9865569977
 20
10.0372780442
 30
0.0
 10
8.9844348891
 20
10.0346924733
 30
0.0
 10
8.9826664475
 20
10.0325378433
 30
0.0
 10
8.9812517339
 20
10.0308141114
 30
0.0
 10
8.9803674478
 20
10.0297368425
 30
0.0
 10
8.9796602252
 20
10.028874882
 30
0.0
 10
8.9791292434
 20
10.0282288096
 30
0.0
 10
8.9786885554
 20
10.0276891498
 30
0.0
 10
8.9783765477
 20
10.0273138728
 30
0.0
 10
8.9782037632
 20
10.0270955488
 30
0.0
 10
8.9780586655
 20
10.0269427358
 30
0.0
 10
8.9779728523
 20
10.026748143
 30
0.0
 10
8.9778377557
 20
10.0265032591
 30
0.0
 10
8.9776109713
 20
10.0260679224
 30
0.0
 10
8.9772819565
 20
10.0254495626
 30
0.0
 10
8.9768892948
 20
10.0247060114
 30
0.0
 10
8.9763649927
 20
10.0237151406
 30
0.0
 10
8.975709873
 20
10.0224763703
 30
0.0
 10
8.9746615374
 20
10.0204944395
 30
0.0
 10
8.9733511673
 20
10.0180169911
 30
0.0
 10
8.971778702
 20
10.0150440679
 30
0.0
 10
8.9702062424
 20
10.0120711407
 30
0.0
 10
8.9681096276
 20
10.0081072392
 30
0.0
 10
8.9654888598
 20
10.0031523619
 30
0.0
 10
8.9623439379
 20
9.9972065093
 30
0.0
 10
8.9591990168
 20
9.9912606564
 30
0.0
 10
8.9560540933
 20
9.9853148047
 30
0.0
 10
8.9529091787
 20
9.9793689488
 30
0.0
 10
8.9502883888
 20
9.9744140817
 30
0.0
 10
8.9484538901
 20
9.9709456495
 30
0.0
 10
8.9474055205
 20
9.9689637277
 30
0.0
 10
8.9466194819
 20
9.9674771752
 30
0.0
 10
8.9458325309
 20
9.9659910478
 30
0.0
 10
8.9452448761
 20
9.9648752602
 30
0.0
 10
8.9448491272
 20
9.9641332557
 30
0.0
 10
8.9446901529
 20
9.9638213285
 30
0.0
 10
8.9445491608
 20
9.9635782221
 30
0.0
 10
8.9444586822
 20
9.9633115811
 30
0.0
 10
8.9443238141
 20
9.9628340247
 30
0.0
 10
8.9441189003
 20
9.9621575064
 30
0.0
 10
8.9437978813
 20
9.9610718888
 30
0.0
 10
8.9433942645
 20
9.9597159585
 30
0.0
 10
8.9427497871
 20
9.9575458598
 30
0.0
 10
8.9419437411
 20
9.9548334459
 30
0.0
 10
8.9409766782
 20
9.9515784595
 30
0.0
 10
8.9396871938
 20
9.947238509
 30
0.0
 10
8.9380753614
 20
9.9418135602
 30
0.0
 10
8.9361411526
 20
9.9353036262
 30
0.0
 10
8.9342069467
 20
9.9287936909
 30
0.0
 10
8.9322727392
 20
9.9222837561
 30
0.0
 10
8.9303385348
 20
9.9157738205
 30
0.0
 10
8.928726689
 20
9.9103488765
 30
0.0
 10
8.9274372319
 20
9.906008916
 30
0.0
 10
8.9264700858
 20
9.9027539603
 30
0.0
 10
8.9256643001
 20
9.9000414504
 30
0.0
 10
8.9250192917
 20
9.8978715475
 30
0.0
 10
8.9246170263
 20
9.8965151192
 30
0.0
 10
8.9242932333
 20
9.8954305238
 30
0.0
 10
8.9240953818
 20
9.894751403
 30
0.0
 10
8.923947829
 20
9.894278521
 30
0.0
 10
8.9238776833
 20
9.8940043871
 30
0.0
 10
8.9238609095
 20
9.8937155048
 30
0.0
 10
8.9238216994
 20
9.8933594431
 30
0.0
 10
8.92374261
 20
9.8925007457
 30
0.0
 10
8.9236176696
 20
9.8912144424
 30
0.0
 10
8.9234546868
 20
9.8894983752
 30
0.0
 10
8.9232907399
 20
9.8877825745
 30
0.0
 10
8.9230724802
 20
9.8854947472
 30
0.0
 10
8.9226903691
 20
9.8814910928
 30
0.0
 10
8.9221445781
 20
9.8757715639
 30
0.0
 10
8.9214895937
 20
9.8689081389
 30
0.0
 10
8.9208346188
 20
9.8620447113
 30
0.0
 10
8.9201796413
 20
9.8551812845
 30
0.0
 10
8.9193063389
 20
9.8460300484
 30
0.0
 10
8.9182147105
 20
9.8345910033
 30
0.0
 10
8.917341408
 20
9.8254397673
 30
0.0
 10
8.9169047567
 20
9.8208641493
 30
0.0
  0
ENDSEC
  0
SECTION
  2
OBJECTS
  0
DICTIONARY
  5
C
100
AcDbDictionary
280
0
281
1
  3
ACAD_GROUP
350
D
  3
ACAD_MLINESTYLE
350
17
  3
ACAD_LAYOUT
350
1A
  3
ACAD_PLOTSETTINGS
350
19
  3
ACAD_PLOTSTYLENAME
350
E
  3
ACAD_IMAGE_DICT
350
       310
  3
ACAD_IMAGE_VARS
350
       311
  3
ACAD_TABLESTYLE
350
       312
  0
IMAGEDEF_REACTOR
  5
30F
100
AcDbRasterImageDefReactor
 90
2
330
28E
  0
DICTIONARY
  5
D
102
{ACAD_REACTORS
330
C
102
}
100
AcDbDictionary
280
0
281
1
  0
ACDBDICTIONARYWDFLT
  5
E
102
{ACAD_REACTORS
330
C
102
}
100
AcDbDictionary
281
1
  3
Normal
350
F
100
AcDbDictionaryWithDefault
340
F
  0
DICTIONARY
  5
310
330
C
100
AcDbDictionary
281
1
  3
INQ_assy_2_img_1
350
       315
  0
RASTERVARIABLES
  5
311
330
C
100
AcDbRasterVariables
 90
0
 70
0
 71
1
 72
5
  0
DICTIONARY
  5
17
102
{ACAD_REACTORS
330
C
102
}
100
AcDbDictionary
280
0
281
1
  3
Standard
350
18
  0
DICTIONARY
  5
312
330
C
100
AcDbDictionary
281
1
  3
Standard
350
       316
  3
Standard1
350
       317
  0
DICTIONARY
  5
19
102
{ACAD_REACTORS
330
C
102
}
100
AcDbDictionary
281
1
  0
DICTIONARY
  5
1A
102
{ACAD_REACTORS
330
C
102
}
100
AcDbDictionary
281
1
  3
Model
350
313
  3
Layout1
350
314
  0
ACDBPLACEHOLDER
  5
F
102
{ACAD_REACTORS
330
E
102
}
  0
MLINESTYLE
  5
18
102
{ACAD_REACTORS
330
17
102
}
100
AcDbMlineStyle
  2
STANDARD
 70
0
  3

 62
256
 51
90.0
 52
90.0
 71
2
 49
0.5
 62
256
  6
BYLAYER
 49
-0.5
 62
256
  6
BYLAYER
  0
LAYOUT
  5
313
102
{ACAD_REACTORS
330
1A
102
}
100
AcDbPlotSettings
  1

  2
none_device
  4
ANSI_C_(22.00_x_17.00_Inches)
  6

 40
0.0
 41
0.0
 42
0.0
 43
0.0
 44
558.8
 45
431.8
 46
0.0
 47
0.0
 48
0.0
 49
0.0
140
0.0
141
0.0
142
1.0
143
1.0
 70
1024
 72
0
 73
0
 74
0
  7

 75
0
147
1.0
148
0.0
149
0.0
100
AcDbLayout
  1
Model
 70
0
 71
0
 10
0.0
 20
0.0
 11
22.0
 21
17.0
 12
0.0
 22
0.0
 32
0.0
 14
0.0
 24
0.0
 34
0.0
 15
0.0
 25
0.0
 35
0.0
146
0.0
 13
0.0
 23
0.0
 33
0.0
 16
1.0
 26
0.0
 36
0.0
 17
0.0
 27
1.0
 37
0.0
 76
0
330
20C
345
0
346
0
  0
LAYOUT
  5
314
102
{ACAD_REACTORS
330
1A
102
}
100
AcDbPlotSettings
  1

  2
none_device
  4
ANSI_C_(22.00_x_17.00_Inches)
  6

 40
0.0
 41
0.0
 42
0.0
 43
0.0
 44
558.8
 45
431.8
 46
0.0
 47
0.0
 48
0.0
 49
0.0
140
0.0
141
0.0
142
1.0
143
1.0
 70
0
 72
0
 73
0
 74
0
  7

 75
0
147
1.0
148
0.0
149
0.0
100
AcDbLayout
  1
Layout1
 70
0
 71
1
 10
0.0
 20
0.0
 11
22.0
 21
17.0
 12
0.0
 22
0.0
 32
0.0
 14
0.0
 24
0.0
 34
0.0
 15
0.0
 25
0.0
 35
0.0
146
0.0
 13
0.0
 23
0.0
 33
0.0
 16
1.0
 26
0.0
 36
0.0
 17
0.0
 27
1.0
 37
0.0
 76
0
330
20D
345
0
346
0
  0
IMAGEDEF
  5
315
102
{ACAD_REACTORS
330
310
330
30F
102
}
100
AcDbRasterImageDef
 90
0
  1
INQ_assy_2_img_1.png
 10
369.0
 20
92.0
 11
0.0066666667
 21
0.0066666667
280
1
281
0
  0
TABLESTYLE
  5
316
102
{ACAD_REACTORS
330
312
330
291
330
292
102
}
330
312
100
AcDbTableStyle
  3
Standard
 70
0
 71
0
 40
0.06
 41
0.06
280
1
281
1
  7
Standard
140
0.18
170
1
 62
0
 63
7
283
0
  7
Standard
140
0.18
170
1
 62
0
 63
7
283
0
  7
Standard
140
0.18
170
1
 62
0
 63
7
283
0
  0
TABLESTYLE
  5
317
102
{ACAD_REACTORS
330
312
330
290
102
}
330
312
100
AcDbTableStyle
  3
Standard1
 70
1
 71
0
 40
0.06
 41
0.06
280
1
281
1
  7
Standard
140
0.18
170
1
 62
0
 63
7
283
0
  7
Standard
140
0.18
170
1
 62
0
 63
7
283
0
  7
Standard
140
0.18
170
1
 62
0
 63
7
283
0
  0
ENDSEC
  0
EOF
