999
DXF file: INN_assy_2.dxf
999
Pro/ENGINEER 2014200 by Parametric Technology Corporation
  0
SECTION
  2
HEADER
  9
$ACADVER
  1
AC1021
  9
$DWGCODEPAGE
  3
ANSI_1252
  9
$EXTMAX
 10
22.0
 20
17.0
 30
0.0
  9
$EXTMIN
 10
0.0
 20
0.0
 30
0.0
  9
$LIMMIN
 10
0.0
 20
0.0
  9
$LIMMAX
 10
22.0
 20
17.0
  9
$VIEWCTR
 10
11.0
 20
8.5
  9
$VIEWSIZE
 40
17.0
  9
$CLAYER
  8
0
  9
$LTSCALE
 40
1.21
  9
$CELTYPE
  6
BYLAYER
  9
$DIMSCALE
 40
1.0
  9
$DIMASZ
 40
0.1875
  9
$DIMEXO
 40
0.0625
  9
$DIMDLI
 40
0.836
  9
$DIMEXE
 40
0.125
  9
$DIMCEN
 40
0.198
  9
$DIMLFAC
 40
1.0
  9
$DIMBLK
  1
_FILLED
  9
$DIMTXT
 40
0.1
  9
$DIMTOL
 70
0
  9
$DIMLIM
 70
0
  9
$DIMTFAC
 40
1.0
  9
$DIMGAP
 40
0.09
  9
$DIMDSEP
 70
46
  9
$AUNITS
 70
0
  9
$PDMODE
 70
3
  9
$PDSIZE
 40
0.3125
  9
$HANDSEED
  5
3A2
  9
$TILEMODE
 70
1
  9
$MEASUREMENT
 70
0
  9
$INSUNITS
 70
1
  0
ENDSEC
  0
SECTION
  2
CLASSES
  0
CLASS
  1
ACDBDICTIONARYWDFLT
  2
AcDbDictionaryWithDefault
  3
AutoCAD 2000
 90
0
 91
1
280
0
281
0
  0
CLASS
  1
ACDBPLACEHOLDER
  2
AcDbPlaceHolder
  3
AutoCAD 2000
 90
0
 91
1
280
0
281
0
  0
CLASS
  1
LAYOUT
  2
AcDbLayout
  3
AutoCAD 2000
 90
0
 91
0
280
0
281
0
  0
CLASS
  1
RASTERVARIABLES
  2
AcDbRasterVariables
  3
ISM
 90
0
 91
1
280
0
281
0
  0
CLASS
  1
IMAGEDEF
  2
AcDbRasterImageDef
  3
ISM
 90
0
 91
1
280
0
281
0
  0
CLASS
  1
IMAGEDEF_REACTOR
  2
AcDbRasterImageDefReactor
  3
ISM
 90
0
 91
1
280
0
281
0
  0
CLASS
  1
IMAGE
  2
AcDbRasterImage
  3
ISM
 90
127
 91
1
280
0
281
1
  0
CLASS
  1
TABLESTYLE
  2
AcDbTableStyle
  3
ObjectDBX Classes
 90
2047
 91
1
280
0
281
0
  0
CLASS
  1
ACAD_TABLE
  2
AcDbTable
  3
ObjectDBX Classes
 90
1025
 91
3
280
0
281
1
  0
ENDSEC
  0
SECTION
  2
TABLES
  0
TABLE
  2
VPORT
  5
8
100
AcDbSymbolTable
 70
2
  0
VPORT
  5
1F4
100
AcDbSymbolTableRecord
100
AcDbViewportTableRecord
  2
*ACTIVE
 70
0
 10
0.0
 20
0.0
 11
1.0
 21
1.0
 12
11.0
 22
8.5
 13
0.0
 23
0.0
 14
1.0
 24
1.0
 15
0.0
 25
0.0
 16
0.0
 26
0.0
 36
1.0
 17
0.0
 27
0.0
 37
0.0
 40
17.0
 41
1.2941176471
 42
50.0
 43
0.0
 44
0.0
 50
0.0
 51
0.0
 71
0
 72
100
 73
1
 74
1
 75
0
 76
0
 77
0
 78
0
  0
ENDTAB
  0
TABLE
  2
LTYPE
  5
5
100
AcDbSymbolTable
 70
6
  0
LTYPE
  5
14
100
AcDbSymbolTableRecord
100
AcDbLinetypeTableRecord
  2
BYBLOCK
 70
0
  3

 72
65
 73
0
 40
0.0
  0
LTYPE
  5
15
100
AcDbSymbolTableRecord
100
AcDbLinetypeTableRecord
  2
BYLAYER
 70
0
  3

 72
65
 73
0
 40
0.0
  0
LTYPE
  5
16
100
AcDbSymbolTableRecord
100
AcDbLinetypeTableRecord
  2
CONTINUOUS
 70
64
  3
Solid line
 72
65
 73
0
 40
0.0
  0
LTYPE
  5
1F5
100
AcDbSymbolTableRecord
100
AcDbLinetypeTableRecord
  2
CENTER
 70
64
  3
____ _ ____ _ ____ _ ____ _ ____ _ ____ _ ____
 72
65
 73
4
 40
0.6
 49
0.375
 74
0
 49
-0.075
 74
0
 49
0.075
 74
0
 49
-0.075
 74
0
  0
LTYPE
  5
1F6
100
AcDbSymbolTableRecord
100
AcDbLinetypeTableRecord
  2
HIDDEN
 70
64
  3
- - - - - - - - - - - - - - - - - - - -
 72
65
 73
2
 40
0.2
 49
0.1
 74
0
 49
-0.1
 74
0
  0
LTYPE
  5
1F7
100
AcDbSymbolTableRecord
100
AcDbLinetypeTableRecord
  2
PHANTOM
 70
64
  3
_____ _ _ _____ _ _ _____ _ _ _____
 72
65
 73
6
 40
0.8
 49
0.45
 74
0
 49
-0.05
 74
0
 49
0.1
 74
0
 49
-0.05
 74
0
 49
0.1
 74
0
 49
-0.05
 74
0
  0
LTYPE
  5
1F8
100
AcDbSymbolTableRecord
100
AcDbLinetypeTableRecord
  2
DOT
 70
64
  3
. . . . . . . . . . . . . . . . . . . .
 72
65
 73
2
 40
0.2
 49
0.1
 74
0
 49
-0.1
 74
0
  0
LTYPE
  5
1F9
100
AcDbSymbolTableRecord
100
AcDbLinetypeTableRecord
  2
DASHED
 70
64
  3
- - - - - - - - - - - - - - - - - - - -
 72
65
 73
2
 40
0.2
 49
0.1
 74
0
 49
-0.1
 74
0
  0
ENDTAB
  0
TABLE
  2
LAYER
  5
2
100
AcDbSymbolTable
 70
36
  0
LAYER
  5
10
100
AcDbSymbolTableRecord
100
AcDbLayerTableRecord
  2
0
 70
0
 62
7
  6
CONTINUOUS
370
-3
390
F
  0
LAYER
  5
1FA
100
AcDbSymbolTableRecord
100
AcDbLayerTableRecord
  2
DEFAULT_1
 70
0
 62
7
  6
CENTER
370
-3
390
F
  0
LAYER
  5
1FB
100
AcDbSymbolTableRecord
100
AcDbLayerTableRecord
  2
DEFAULT_2
 70
0
 62
8
  6
HIDDEN
370
-3
390
F
  0
LAYER
  5
1FC
100
AcDbSymbolTableRecord
100
AcDbLayerTableRecord
  2
DEFAULT_3
 70
0
 62
7
  6
PHANTOM
370
-3
390
F
  0
LAYER
  5
1FD
100
AcDbSymbolTableRecord
100
AcDbLayerTableRecord
  2
01___PRT_ALL_DTM_PLN
 70
0
 62
7
  6
CONTINUOUS
370
-3
390
F
  0
LAYER
  5
1FE
100
AcDbSymbolTableRecord
100
AcDbLayerTableRecord
  2
01___PRT_DEF_DTM_PLN
 70
0
 62
7
  6
CONTINUOUS
370
-3
390
F
  0
LAYER
  5
1FF
100
AcDbSymbolTableRecord
100
AcDbLayerTableRecord
  2
02___PRT_ALL_AXES
 70
0
 62
7
  6
CONTINUOUS
370
-3
390
F
  0
LAYER
  5
200
100
AcDbSymbolTableRecord
100
AcDbLayerTableRecord
  2
03___PRT_ALL_CURVES
 70
0
 62
7
  6
CONTINUOUS
370
-3
390
F
  0
LAYER
  5
201
100
AcDbSymbolTableRecord
100
AcDbLayerTableRecord
  2
04___PRT_ALL_DTM_PNT
 70
0
 62
7
  6
CONTINUOUS
370
-3
390
F
  0
LAYER
  5
202
100
AcDbSymbolTableRecord
100
AcDbLayerTableRecord
  2
05___PRT_ALL_DTM_CSYS
 70
0
 62
7
  6
CONTINUOUS
370
-3
390
F
  0
LAYER
  5
203
100
AcDbSymbolTableRecord
100
AcDbLayerTableRecord
  2
05___PRT_DEF_DTM_CSYS
 70
0
 62
7
  6
CONTINUOUS
370
-3
390
F
  0
LAYER
  5
204
100
AcDbSymbolTableRecord
100
AcDbLayerTableRecord
  2
06___PRT_ALL_SURFS
 70
0
 62
7
  6
CONTINUOUS
370
-3
390
F
  0
LAYER
  5
205
100
AcDbSymbolTableRecord
100
AcDbLayerTableRecord
  2
DATUM_PLANES
 70
0
 62
7
  6
CONTINUOUS
370
-3
390
F
  0
LAYER
  5
206
100
AcDbSymbolTableRecord
100
AcDbLayerTableRecord
  2
PORT_AREAS
 70
0
 62
7
  6
CONTINUOUS
370
-3
390
F
  0
LAYER
  5
207
100
AcDbSymbolTableRecord
100
AcDbLayerTableRecord
  2
SUNNBOMCOSMETIC
 70
0
 62
7
  6
CONTINUOUS
370
-3
390
F
  0
LAYER
  5
208
100
AcDbSymbolTableRecord
100
AcDbLayerTableRecord
  2
SUNNBOMSTAMPING
 70
0
 62
7
  6
CONTINUOUS
370
-3
390
F
  0
LAYER
  5
209
100
AcDbSymbolTableRecord
100
AcDbLayerTableRecord
  2
THREADS
 70
0
 62
7
  6
CONTINUOUS
370
-3
390
F
  0
ENDTAB
  0
TABLE
  2
STYLE
  5
3
100
AcDbSymbolTable
 70
1
  0
STYLE
  5
11
100
AcDbSymbolTableRecord
100
AcDbTextStyleTableRecord
  2
STANDARD
 70
0
 40
0.0
 41
0.8
 50
0.0
 71
0
 42
0.2
  3
txt
  4

  0
STYLE
  5
20A
100
AcDbSymbolTableRecord
100
AcDbTextStyleTableRecord
  2
TEXTSTYLE_1
 70
0
 40
0.0
 41
0.8
 50
0.0
 71
0
 42
0.2
  3
gdt
  4

  0
ENDTAB
  0
TABLE
  2
VIEW
  5
6
100
AcDbSymbolTable
 70
0
  0
ENDTAB
  0
TABLE
  2
UCS
  5
7
100
AcDbSymbolTable
 70
0
  0
ENDTAB
  0
TABLE
  2
APPID
  5
9
100
AcDbSymbolTable
 70
1
  0
APPID
  5
20B
100
AcDbSymbolTableRecord
100
AcDbRegAppTableRecord
  2
ACAD
 70
0
  0
ENDTAB
  0
TABLE
  2
BLOCK_RECORD
  5
1
100
AcDbSymbolTable
 70
0
  0
BLOCK_RECORD
  5
20C
100
AcDbSymbolTableRecord
100
AcDbBlockTableRecord
  2
*Model_Space
  0
BLOCK_RECORD
  5
20D
100
AcDbSymbolTableRecord
100
AcDbBlockTableRecord
  2
*Paper_Space
  0
BLOCK_RECORD
  5
20E
100
AcDbSymbolTableRecord
100
AcDbBlockTableRecord
  2
SUN_FIRST_THIRD_ANGLE_BL0
  0
BLOCK_RECORD
  5
20F
100
AcDbSymbolTableRecord
100
AcDbBlockTableRecord
  2
*T1
  0
BLOCK_RECORD
  5
210
100
AcDbSymbolTableRecord
100
AcDbBlockTableRecord
  2
*T2
  0
BLOCK_RECORD
  5
211
100
AcDbSymbolTableRecord
100
AcDbBlockTableRecord
  2
*T3
  0
ENDTAB
  0
TABLE
  2
DIMSTYLE
  5
A
100
AcDbSymbolTable
 70
1
100
AcDbDimStyleTable
 71
0
  0
DIMSTYLE
105
212
100
AcDbSymbolTableRecord
100
AcDbDimStyleTableRecord
  2
STANDARD
 70
0
  3

  4

 40
1.0
 41
0.1875
 42
0.0625
 43
0.38
 44
0.125
 45
0.0
 46
0.0
 47
0.001
 48
0.001
140
0.1
141
0.09
142
0.0
143
25.4
144
1.0
145
0.0
146
1.0
147
0.09
 71
0.0
 72
0.0
 73
1
 74
1
 75
0
 76
0
 77
0
 78
4
170
0
171
2
172
0
173
0
174
0
175
0
176
0
177
0
178
0
270
2
271
3
272
3
273
2
274
2
275
0
280
0
281
0
282
0
283
1
284
4
285
0
286
0
287
3
288
0
340
11
278
46
  0
ENDTAB
  0
ENDSEC
  0
SECTION
  2
BLOCKS
  0
BLOCK
  5
20
100
AcDbEntity
  8
0
100
AcDbBlockBegin
  2
*Model_Space
 70
0
 10
0.0
 20
0.0
 30
0.0
  3
*Model_Space
  1

  0
ENDBLK
  5
21
100
AcDbEntity
  8
0
100
AcDbBlockEnd
  0
BLOCK
  5
1C
100
AcDbEntity
  8
0
100
AcDbBlockBegin
  2
*Paper_Space
 70
0
 10
0.0
 20
0.0
 30
0.0
  3
*Paper_Space
  1

  0
ENDBLK
  5
1D
100
AcDbEntity
  8
0
100
AcDbBlockEnd
  0
BLOCK
  5
213
100
AcDbEntity
  8
0
100
AcDbBlockBegin
 62
2
  6
CONTINUOUS
  2
SUN_FIRST_THIRD_ANGLE_BL0
 70
64
 10
20.4816717061
 20
1.2289683772
  3
SUN_FIRST_THIRD_ANGLE_BL0
  1

  0
TEXT
  5
214
100
AcDbEntity
  8
0
100
AcDbText
 62
2
  6
CONTINUOUS
 10
19.4750896608
 20
1.4136269581
  7
STANDARD
 40
0.08
  1
FIRST ANGLE
 41
0.8
 72
0
100
AcDbText
  0
TEXT
  5
215
100
AcDbEntity
  8
0
100
AcDbText
 62
2
  6
CONTINUOUS
 10
20.7842537513
 20
1.4047600029
  7
STANDARD
 40
0.08
  1
THIRD ANGLE
 41
0.8
 72
0
100
AcDbText
  0
LINE
  5
216
100
AcDbEntity
  8
0
100
AcDbLine
 62
7
  6
CONTINUOUS
 10
19.4767170086
 20
1.1727031207
 11
19.6334271527
 21
1.1717972817
  0
LINE
  5
217
100
AcDbEntity
  8
0
100
AcDbLine
 62
7
  6
CONTINUOUS
 10
19.6596964832
 20
1.1717972817
 11
19.6950230232
 21
1.171593082
  0
LINE
  5
218
100
AcDbEntity
  8
0
100
AcDbLine
 62
7
  6
CONTINUOUS
 10
19.7194818561
 20
1.1708914427
 11
19.8852396156
 21
1.1699333054
  0
LINE
  5
219
100
AcDbEntity
  8
0
100
AcDbLine
 62
7
  6
CONTINUOUS
 10
19.4758111696
 20
1.2723454088
 11
19.88525039
 21
1.3511534004
  0
LINE
  5
21A
100
AcDbEntity
  8
0
100
AcDbLine
 62
7
  6
CONTINUOUS
 10
19.88525039
 20
1.3511534004
 11
19.8831348489
 21
0.9851647912
  0
LINE
  5
21B
100
AcDbEntity
  8
0
100
AcDbLine
 62
7
  6
CONTINUOUS
 10
19.8831348489
 20
0.9851647912
 11
19.4767170086
 21
1.0658141206
  0
LINE
  5
21C
100
AcDbEntity
  8
0
100
AcDbLine
 62
7
  6
CONTINUOUS
 10
19.4767170086
 20
1.0658141206
 11
19.4779056764
 21
1.2714536432
  0
CIRCLE
  5
21D
100
AcDbEntity
  8
0
100
AcDbCircle
 62
7
  6
CONTINUOUS
 10
20.2068232291
 20
1.1717972817
 40
0.175742101
  0
CIRCLE
  5
21E
100
AcDbEntity
  8
0
100
AcDbCircle
 62
7
  6
CONTINUOUS
 10
20.2068232291
 20
1.1717972817
 40
0.1005522074
  0
LINE
  5
21F
100
AcDbEntity
  8
0
100
AcDbLine
 62
7
  6
CONTINUOUS
 10
20.2077290681
 20
1.3756110529
 11
20.2071171714
 21
1.2379342989
  0
LINE
  5
220
100
AcDbEntity
  8
0
100
AcDbLine
 62
7
  6
CONTINUOUS
 10
20.2077290681
 20
1.2016899681
 11
20.2074674401
 21
1.1428236749
  0
LINE
  5
221
100
AcDbEntity
  8
0
100
AcDbLine
 62
7
  6
CONTINUOUS
 10
20.208634907
 20
1.101141841
 11
20.2080230104
 21
0.963465087
  0
LINE
  5
222
100
AcDbEntity
  8
0
100
AcDbLine
 62
7
  6
CONTINUOUS
 10
20.0066328138
 20
1.1745147986
 11
20.1443095678
 21
1.1739029019
  0
LINE
  5
223
100
AcDbEntity
  8
0
100
AcDbLine
 62
7
  6
CONTINUOUS
 10
20.1832714155
 20
1.1727031207
 11
20.238153505
 21
1.172335442
  0
LINE
  5
224
100
AcDbEntity
  8
0
100
AcDbLine
 62
7
  6
CONTINUOUS
 10
20.2756669918
 20
1.1717972817
 11
20.407916871
 21
1.1712095044
  0
CIRCLE
  5
225
100
AcDbEntity
  8
0
100
AcDbCircle
 62
7
  6
CONTINUOUS
 10
20.7509457401
 20
1.1693297793
 40
0.1722024983
  0
CIRCLE
  5
226
100
AcDbEntity
  8
0
100
AcDbCircle
 62
7
  6
CONTINUOUS
 10
20.7509457401
 20
1.1693297793
 40
0.0985164967
  0
LINE
  5
227
100
AcDbEntity
  8
0
100
AcDbLine
 62
7
  6
CONTINUOUS
 10
20.7169767782
 20
1.170462078
 11
20.7825395137
 21
1.1682766535
  0
LINE
  5
228
100
AcDbEntity
  8
0
100
AcDbLine
 62
7
  6
CONTINUOUS
 10
20.8177513651
 20
1.1693297793
 11
20.947965719
 21
1.1693297793
  0
LINE
  5
229
100
AcDbEntity
  8
0
100
AcDbLine
 62
7
  6
CONTINUOUS
 10
20.6875370113
 20
1.170462078
 11
20.5573226574
 21
1.170462078
  0
LINE
  5
22A
100
AcDbEntity
  8
0
100
AcDbLine
 62
7
  6
CONTINUOUS
 10
20.7486811426
 20
1.1987695462
 11
20.7486811426
 21
1.1432869085
  0
LINE
  5
22B
100
AcDbEntity
  8
0
100
AcDbLine
 62
7
  6
CONTINUOUS
 10
20.7498134414
 20
1.1059210505
 11
20.7498134414
 21
0.9757066966
  0
LINE
  5
22C
100
AcDbEntity
  8
0
100
AcDbLine
 62
7
  6
CONTINUOUS
 10
20.7486811426
 20
1.2338708068
 11
20.7486811426
 21
1.3640851607
  0
LINE
  5
22D
100
AcDbEntity
  8
0
100
AcDbLine
 62
7
  6
CONTINUOUS
 10
21.0702539817
 20
1.2701043662
 11
21.4790138229
 21
1.3448360823
  0
LINE
  5
22E
100
AcDbEntity
  8
0
100
AcDbLine
 62
7
  6
CONTINUOUS
 10
21.4790138229
 20
1.3448360823
 11
21.4790138229
 21
0.9779712941
  0
LINE
  5
22F
100
AcDbEntity
  8
0
100
AcDbLine
 62
7
  6
CONTINUOUS
 10
21.4790138229
 20
0.9779712941
 11
21.069121683
 21
1.0617614
  0
LINE
  5
230
100
AcDbEntity
  8
0
100
AcDbLine
 62
7
  6
CONTINUOUS
 10
21.0702539817
 20
1.2701043662
 11
21.069121683
 21
1.0617614
  0
LINE
  5
231
100
AcDbEntity
  8
0
100
AcDbLine
 62
7
  6
CONTINUOUS
 10
21.4790138229
 20
1.1693297793
 11
21.3159628059
 21
1.1693297793
  0
LINE
  5
232
100
AcDbEntity
  8
0
100
AcDbLine
 62
7
  6
CONTINUOUS
 10
21.2876553377
 20
1.1693297793
 11
21.2502894796
 21
1.1693297793
  0
LINE
  5
233
100
AcDbEntity
  8
0
100
AcDbLine
 62
7
  6
CONTINUOUS
 10
21.2208497126
 20
1.1659328831
 11
21.0713862804
 21
1.1659328831
  0
LINE
  5
234
100
AcDbEntity
  8
0
100
AcDbLine
 62
7
  6
CONTINUOUS
 10
20.4796138713
 20
1.5284908897
 11
20.4766766948
 21
0.9294458646
  0
ENDBLK
  5
235
100
AcDbEntity
  8
0
  6
BYBLOCK
 62
0
100
AcDbBlockEnd
  0
BLOCK
  5
236
100
AcDbEntity
  8
0
100
AcDbBlockBegin
  2
*T1
 70
1
 10
0.0
 20
0.0
  3
*T1
  1

  0
LINE
  5
237
100
AcDbEntity
  8
0
100
AcDbLine
 62
2
  6
CONTINUOUS
 10
9.275
 20
0.0
 11
-0.0
 21
0.0
  0
LINE
  5
238
100
AcDbEntity
  8
0
100
AcDbLine
 62
2
  6
CONTINUOUS
 10
9.275
 20
0.0
 11
9.275
 21
1.25
  0
LINE
  5
239
100
AcDbEntity
  8
0
100
AcDbLine
 62
2
  6
CONTINUOUS
 10
9.275
 20
0.625
 11
-0.0
 21
0.625
  0
LINE
  5
23A
100
AcDbEntity
  8
0
100
AcDbLine
 62
2
  6
CONTINUOUS
 10
9.275
 20
1.25
 11
-0.0
 21
1.25
  0
LINE
  5
23B
100
AcDbEntity
  8
0
100
AcDbLine
 62
2
  6
CONTINUOUS
 10
6.8
 20
0.0
 11
6.8
 21
1.25
  0
LINE
  5
23C
100
AcDbEntity
  8
0
100
AcDbLine
 62
2
  6
CONTINUOUS
 10
6.4
 20
0.0
 11
6.4
 21
0.625
  0
LINE
  5
23D
100
AcDbEntity
  8
0
100
AcDbLine
 62
2
  6
CONTINUOUS
 10
5.9
 20
0.0
 11
5.9
 21
0.625
  0
LINE
  5
23E
100
AcDbEntity
  8
0
100
AcDbLine
 62
2
  6
CONTINUOUS
 10
5.2
 20
0.0
 11
5.2
 21
0.625
  0
LINE
  5
23F
100
AcDbEntity
  8
0
100
AcDbLine
 62
2
  6
CONTINUOUS
 10
4.1
 20
0.0
 11
4.1
 21
1.25
  0
LINE
  5
240
100
AcDbEntity
  8
0
100
AcDbLine
 62
2
  6
CONTINUOUS
 10
-0.0
 20
0.0
 11
-0.0
 21
1.25
  0
MTEXT
  5
241
100
AcDbEntity
  8
0
100
AcDbMText
 62
2
  6
CONTINUOUS
  7
STANDARD
 71
2
 72
1
 10
6.6
 20
0.325
 30
0.0
 11
1.0
 21
0.0
 31
0.0
 44
0.9
  1
2
 40
0.125
 41
0.2
  0
MTEXT
  5
242
100
AcDbEntity
  8
0
100
AcDbMText
 62
2
  6
CONTINUOUS
  7
STANDARD
 71
2
 72
1
 10
6.15
 20
0.325
 30
0.0
 11
1.0
 21
0.0
 31
0.0
 44
0.9
  1
C
 40
0.125
 41
0.2
  0
MTEXT
  5
243
100
AcDbEntity
  8
0
100
AcDbMText
 62
2
  6
CONTINUOUS
  7
STANDARD
 71
2
 72
1
 10
5.55
 20
0.325
 30
0.0
 11
1.0
 21
0.0
 31
0.0
 44
0.9
  1
1.000
 40
0.125
 41
1.0
  0
MTEXT
  5
244
100
AcDbEntity
  8
0
100
AcDbMText
 62
2
  6
CONTINUOUS
  7
STANDARD
 71
2
 72
1
 10
4.65
 20
0.325
 30
0.0
 11
1.0
 21
0.0
 31
0.0
 44
0.9
  1
Jun-23-20
 40
0.125
 41
1.8
  0
MTEXT
  5
245
100
AcDbEntity
  8
0
100
AcDbMText
 62
2
  6
CONTINUOUS
  7
STANDARD
 71
2
 72
1
 10
2.05
 20
0.4625
 30
0.0
 11
1.0
 21
0.0
 31
0.0
 44
0.9
  1
T-16A Line mount\PNinety degree with reverse flow check
 40
0.125
 41
7.4
  0
MTEXT
  5
246
100
AcDbEntity
  8
0
100
AcDbMText
 62
2
  6
CONTINUOUS
  7
STANDARD
 71
1
 72
1
 10
6.45
 20
0.5625
 30
0.0
 11
1.0
 21
0.0
 31
0.0
 44
0.9
  1
SHEET
 40
0.06
 41
0.48
  0
MTEXT
  5
247
100
AcDbEntity
  8
0
100
AcDbMText
 62
2
  6
CONTINUOUS
  7
STANDARD
 71
1
 72
1
 10
5.95
 20
0.5625
 30
0.0
 11
1.0
 21
0.0
 31
0.0
 44
0.9
  1
DWG SIZE
 40
0.06
 41
0.768
  0
MTEXT
  5
248
100
AcDbEntity
  8
0
100
AcDbMText
 62
2
  6
CONTINUOUS
  7
STANDARD
 71
1
 72
1
 10
5.25
 20
0.5625
 30
0.0
 11
1.0
 21
0.0
 31
0.0
 44
0.9
  1
SCALE
 40
0.06
 41
0.48
  0
MTEXT
  5
249
100
AcDbEntity
  8
0
100
AcDbMText
 62
2
  6
CONTINUOUS
  7
STANDARD
 71
1
 72
1
 10
4.15
 20
0.5625
 30
0.0
 11
1.0
 21
0.0
 31
0.0
 44
0.9
  1
DATE
 40
0.06
 41
0.384
  0
MTEXT
  5
24A
100
AcDbEntity
  8
0
100
AcDbMText
 62
2
  6
CONTINUOUS
  7
STANDARD
 71
1
 72
1
 10
0.05
 20
0.5625
 30
0.0
 11
1.0
 21
0.0
 31
0.0
 44
0.9
  1
DESCRIPTION
 40
0.06
 41
1.056
  0
MTEXT
  5
24B
100
AcDbEntity
  8
0
100
AcDbMText
 62
2
  6
CONTINUOUS
  7
STANDARD
 71
2
 72
1
 10
5.45
 20
1.0375
 30
0.0
 11
1.0
 21
0.0
 31
0.0
 44
0.9
  1
ALL DIMENSIONS IN INCH\PVIEWS ARE THIRD ANGLE
 40
0.12
 41
4.224
  0
MTEXT
  5
24C
100
AcDbEntity
  8
0
100
AcDbMText
 62
2
  6
CONTINUOUS
  7
STANDARD
 71
2
 72
1
 10
2.05
 20
0.95
 30
0.0
 11
1.0
 21
0.0
 31
0.0
 44
0.9
  1
INN
 40
0.125
 41
0.6
  0
MTEXT
  5
24D
100
AcDbEntity
  8
0
100
AcDbMText
 62
2
  6
CONTINUOUS
  7
STANDARD
 71
1
 72
1
 10
0.05
 20
1.1875
 30
0.0
 11
1.0
 21
0.0
 31
0.0
 44
0.9
  1
MODEL
 40
0.06
 41
0.48
  0
ENDBLK
  5
24E
100
AcDbEntity
  8
0
  6
BYBLOCK
 62
0
100
AcDbBlockEnd
  0
BLOCK
  5
24F
100
AcDbEntity
  8
0
100
AcDbBlockBegin
  2
*T2
 70
1
 10
0.0
 20
0.0
  3
*T2
  1

  0
LINE
  5
250
100
AcDbEntity
  8
0
100
AcDbLine
 62
2
  6
CONTINUOUS
 10
0.0
 20
0.0
 11
9.055
 21
0.0
  0
LINE
  5
251
100
AcDbEntity
  8
0
100
AcDbLine
 62
2
  6
CONTINUOUS
 10
0.0
 20
0.0
 11
0.0
 21
-2.594
  0
LINE
  5
252
100
AcDbEntity
  8
0
100
AcDbLine
 62
2
  6
CONTINUOUS
 10
0.0
 20
-0.344
 11
9.055
 21
-0.344
  0
LINE
  5
253
100
AcDbEntity
  8
0
100
AcDbLine
 62
2
  6
CONTINUOUS
 10
0.0
 20
-0.594
 11
9.055
 21
-0.594
  0
LINE
  5
254
100
AcDbEntity
  8
0
100
AcDbLine
 62
2
  6
CONTINUOUS
 10
0.0
 20
-0.844
 11
9.055
 21
-0.844
  0
LINE
  5
255
100
AcDbEntity
  8
0
100
AcDbLine
 62
2
  6
CONTINUOUS
 10
0.0
 20
-1.094
 11
9.055
 21
-1.094
  0
LINE
  5
256
100
AcDbEntity
  8
0
100
AcDbLine
 62
2
  6
CONTINUOUS
 10
0.0
 20
-1.344
 11
9.055
 21
-1.344
  0
LINE
  5
257
100
AcDbEntity
  8
0
100
AcDbLine
 62
2
  6
CONTINUOUS
 10
0.0
 20
-1.594
 11
9.055
 21
-1.594
  0
LINE
  5
258
100
AcDbEntity
  8
0
100
AcDbLine
 62
2
  6
CONTINUOUS
 10
0.0
 20
-1.844
 11
9.055
 21
-1.844
  0
LINE
  5
259
100
AcDbEntity
  8
0
100
AcDbLine
 62
2
  6
CONTINUOUS
 10
0.0
 20
-2.094
 11
9.055
 21
-2.094
  0
LINE
  5
25A
100
AcDbEntity
  8
0
100
AcDbLine
 62
2
  6
CONTINUOUS
 10
0.0
 20
-2.344
 11
9.055
 21
-2.344
  0
LINE
  5
25B
100
AcDbEntity
  8
0
100
AcDbLine
 62
2
  6
CONTINUOUS
 10
0.0
 20
-2.594
 11
9.055
 21
-2.594
  0
LINE
  5
25C
100
AcDbEntity
  8
0
100
AcDbLine
 62
2
  6
CONTINUOUS
 10
3.055
 20
0.0
 11
3.055
 21
-2.594
  0
LINE
  5
25D
100
AcDbEntity
  8
0
100
AcDbLine
 62
2
  6
CONTINUOUS
 10
9.055
 20
0.0
 11
9.055
 21
-2.594
  0
MTEXT
  5
25E
100
AcDbEntity
  8
0
100
AcDbMText
 62
2
  6
CONTINUOUS
  7
STANDARD
 71
2
 72
1
 10
1.5275
 20
-0.0995
 30
0.0
 11
1.0
 21
0.0
 31
0.0
 44
0.9
  1
Technical Data
 40
0.145
 41
3.248
  0
MTEXT
  5
25F
100
AcDbEntity
  8
0
100
AcDbMText
 62
2
  6
CONTINUOUS
  7
STANDARD
 71
2
 72
1
 10
4.555
 20
-0.0995
 30
0.0
 11
1.0
 21
0.0
 31
0.0
 44
0.9
  1
U.S. Units
 40
0.145
 41
2.32
  0
MTEXT
  5
260
100
AcDbEntity
  8
0
100
AcDbMText
 62
2
  6
CONTINUOUS
  7
STANDARD
 71
2
 72
1
 10
7.555
 20
-0.0995
 30
0.0
 11
1.0
 21
0.0
 31
0.0
 44
0.9
  1
Metric Units
 40
0.145
 41
2.784
  0
MTEXT
  5
261
100
AcDbEntity
  8
0
100
AcDbMText
 62
2
  6
CONTINUOUS
  7
STANDARD
 71
2
 72
1
 10
1.5275
 20
-0.4065
 30
0.0
 11
1.0
 21
0.0
 31
0.0
 44
0.9
  1
Cavity
 40
0.125
 41
1.2
  0
MTEXT
  5
262
100
AcDbEntity
  8
0
100
AcDbMText
 62
2
  6
CONTINUOUS
  7
STANDARD
 71
2
 72
1
 10
6.055
 20
-0.4065
 30
0.0
 11
1.0
 21
0.0
 31
0.0
 44
0.9
  1
T-16A
 40
0.125
 41
1.0
  0
MTEXT
  5
263
100
AcDbEntity
  8
0
100
AcDbMText
 62
2
  6
CONTINUOUS
  7
STANDARD
 71
2
 72
1
 10
1.5275
 20
-0.6565
 30
0.0
 11
1.0
 21
0.0
 31
0.0
 44
0.9
  1
Body Features
 40
0.125
 41
2.6
  0
MTEXT
  5
264
100
AcDbEntity
  8
0
100
AcDbMText
 62
2
  6
CONTINUOUS
  7
STANDARD
 71
2
 72
1
 10
6.055
 20
-0.6565
 30
0.0
 11
1.0
 21
0.0
 31
0.0
 44
0.9
  1
Ninety degree with reverse flow check
 40
0.125
 41
7.4
  0
MTEXT
  5
265
100
AcDbEntity
  8
0
100
AcDbMText
 62
2
  6
CONTINUOUS
  7
STANDARD
 71
2
 72
1
 10
1.5275
 20
-0.9065
 30
0.0
 11
1.0
 21
0.0
 31
0.0
 44
0.9
  1
Body Type
 40
0.125
 41
1.8
  0
MTEXT
  5
266
100
AcDbEntity
  8
0
100
AcDbMText
 62
2
  6
CONTINUOUS
  7
STANDARD
 71
2
 72
1
 10
6.055
 20
-0.9065
 30
0.0
 11
1.0
 21
0.0
 31
0.0
 44
0.9
  1
Line mount
 40
0.125
 41
2.0
  0
MTEXT
  5
267
100
AcDbEntity
  8
0
100
AcDbMText
 62
2
  6
CONTINUOUS
  7
STANDARD
 71
2
 72
1
 10
1.5275
 20
-1.1565
 30
0.0
 11
1.0
 21
0.0
 31
0.0
 44
0.9
  1
Interface
 40
0.125
 41
1.8
  0
MTEXT
  5
268
100
AcDbEntity
  8
0
100
AcDbMText
 62
2
  6
CONTINUOUS
  7
STANDARD
 71
2
 72
1
 10
6.055
 20
-1.1565
 30
0.0
 11
1.0
 21
0.0
 31
0.0
 44
0.9
  1
None
 40
0.125
 41
0.8
  0
MTEXT
  5
269
100
AcDbEntity
  8
0
100
AcDbMText
 62
2
  6
CONTINUOUS
  7
STANDARD
 71
2
 72
1
 10
1.5275
 20
-1.4065
 30
0.0
 11
1.0
 21
0.0
 31
0.0
 44
0.9
  1
Open Cavity Quantity
 40
0.125
 41
4.0
  0
MTEXT
  5
26A
100
AcDbEntity
  8
0
100
AcDbMText
 62
2
  6
CONTINUOUS
  7
STANDARD
 71
2
 72
1
 10
6.055
 20
-1.4065
 30
0.0
 11
1.0
 21
0.0
 31
0.0
 44
0.9
  1
1
 40
0.125
 41
0.2
  0
MTEXT
  5
26B
100
AcDbEntity
  8
0
100
AcDbMText
 62
2
  6
CONTINUOUS
  7
STANDARD
 71
2
 72
1
 10
1.5275
 20
-1.6565
 30
0.0
 11
1.0
 21
0.0
 31
0.0
 44
0.9
  1
Weight
 40
0.125
 41
1.2
  0
MTEXT
  5
26C
100
AcDbEntity
  8
0
100
AcDbMText
 62
2
  6
CONTINUOUS
  7
STANDARD
 71
2
 72
1
 10
4.555
 20
-1.6565
 30
0.0
 11
1.0
 21
0.0
 31
0.0
 44
0.9
  1
3.654 lb.
 40
0.125
 41
1.8
  0
MTEXT
  5
26D
100
AcDbEntity
  8
0
100
AcDbMText
 62
2
  6
CONTINUOUS
  7
STANDARD
 71
2
 72
1
 10
7.555
 20
-1.6565
 30
0.0
 11
1.0
 21
0.0
 31
0.0
 44
0.9
  1
1,657 kg.
 40
0.125
 41
1.8
  0
MTEXT
  5
26E
100
AcDbEntity
  8
0
100
AcDbMText
 62
2
  6
CONTINUOUS
  7
STANDARD
 71
2
 72
1
 10
1.5275
 20
-1.9065
 30
0.0
 11
1.0
 21
0.0
 31
0.0
 44
0.9
  1
Mounting Hole Diameter
 40
0.125
 41
4.4
  0
MTEXT
  5
26F
100
AcDbEntity
  8
0
100
AcDbMText
 62
2
  6
CONTINUOUS
  7
STANDARD
 71
2
 72
1
 10
4.555
 20
-1.9065
 30
0.0
 11
1.0
 21
0.0
 31
0.0
 44
0.9
  1
.28 in.
 40
0.125
 41
1.4
  0
MTEXT
  5
270
100
AcDbEntity
  8
0
100
AcDbMText
 62
2
  6
CONTINUOUS
  7
STANDARD
 71
2
 72
1
 10
7.555
 20
-1.9065
 30
0.0
 11
1.0
 21
0.0
 31
0.0
 44
0.9
  1
7,1 mm
 40
0.125
 41
1.2
  0
MTEXT
  5
271
100
AcDbEntity
  8
0
100
AcDbMText
 62
2
  6
CONTINUOUS
  7
STANDARD
 71
2
 72
1
 10
1.5275
 20
-2.1565
 30
0.0
 11
1.0
 21
0.0
 31
0.0
 44
0.9
  1
Mounting Hole Depth
 40
0.125
 41
3.8
  0
MTEXT
  5
272
100
AcDbEntity
  8
0
100
AcDbMText
 62
2
  6
CONTINUOUS
  7
STANDARD
 71
2
 72
1
 10
6.055
 20
-2.1565
 30
0.0
 11
1.0
 21
0.0
 31
0.0
 44
0.9
  1
Through
 40
0.125
 41
1.4
  0
MTEXT
  5
273
100
AcDbEntity
  8
0
100
AcDbMText
 62
2
  6
CONTINUOUS
  7
STANDARD
 71
2
 72
1
 10
1.5275
 20
-2.4065
 30
0.0
 11
1.0
 21
0.0
 31
0.0
 44
0.9
  1
Mounting Hole Quantity
 40
0.125
 41
4.4
  0
MTEXT
  5
274
100
AcDbEntity
  8
0
100
AcDbMText
 62
2
  6
CONTINUOUS
  7
STANDARD
 71
2
 72
1
 10
6.055
 20
-2.4065
 30
0.0
 11
1.0
 21
0.0
 31
0.0
 44
0.9
  1
2
 40
0.125
 41
0.2
  0
ENDBLK
  5
275
100
AcDbEntity
  8
0
  6
BYBLOCK
 62
0
100
AcDbBlockEnd
  0
BLOCK
  5
276
100
AcDbEntity
  8
0
100
AcDbBlockBegin
  2
*T3
 70
1
 10
0.0
 20
0.0
  3
*T3
  1

  0
LINE
  5
277
100
AcDbEntity
  8
0
100
AcDbLine
 62
2
  6
CONTINUOUS
 10
0.0
 20
0.0
 11
4.6
 21
0.0
  0
LINE
  5
278
100
AcDbEntity
  8
0
100
AcDbLine
 62
2
  6
CONTINUOUS
 10
0.0
 20
0.0
 11
0.0
 21
-1.18775
  0
LINE
  5
279
100
AcDbEntity
  8
0
100
AcDbLine
 62
2
  6
CONTINUOUS
 10
0.0
 20
-0.34375
 11
4.6
 21
-0.34375
  0
LINE
  5
27A
100
AcDbEntity
  8
0
100
AcDbLine
 62
2
  6
CONTINUOUS
 10
0.0
 20
-0.68775
 11
4.6
 21
-0.68775
  0
LINE
  5
27B
100
AcDbEntity
  8
0
100
AcDbLine
 62
2
  6
CONTINUOUS
 10
0.0
 20
-0.93775
 11
4.6
 21
-0.93775
  0
LINE
  5
27C
100
AcDbEntity
  8
0
100
AcDbLine
 62
2
  6
CONTINUOUS
 10
0.0
 20
-1.18775
 11
4.6
 21
-1.18775
  0
LINE
  5
27D
100
AcDbEntity
  8
0
100
AcDbLine
 62
2
  6
CONTINUOUS
 10
1.3
 20
-0.34375
 11
1.3
 21
-1.18775
  0
LINE
  5
27E
100
AcDbEntity
  8
0
100
AcDbLine
 62
2
  6
CONTINUOUS
 10
3.3
 20
-0.34375
 11
3.3
 21
-1.18775
  0
LINE
  5
27F
100
AcDbEntity
  8
0
100
AcDbLine
 62
2
  6
CONTINUOUS
 10
4.6
 20
0.0
 11
4.6
 21
-1.18775
  0
MTEXT
  5
280
100
AcDbEntity
  8
0
100
AcDbMText
 62
2
  6
CONTINUOUS
  7
STANDARD
 71
2
 72
1
 10
2.3
 20
-0.099375
 30
0.0
 11
1.0
 21
0.0
 31
0.0
 44
0.9
  1
Port Headings
 40
0.145
 41
3.016
  0
MTEXT
  5
281
100
AcDbEntity
  8
0
100
AcDbMText
 62
2
  6
CONTINUOUS
  7
STANDARD
 71
2
 72
1
 10
0.65
 20
-0.44325
 30
0.0
 11
1.0
 21
0.0
 31
0.0
 44
0.9
  1
Product
 40
0.145
 41
1.624
  0
MTEXT
  5
282
100
AcDbEntity
  8
0
100
AcDbMText
 62
2
  6
CONTINUOUS
  7
STANDARD
 71
2
 72
1
 10
2.3
 20
-0.44325
 30
0.0
 11
1.0
 21
0.0
 31
0.0
 44
0.9
  1
Port
 40
0.145
 41
0.928
  0
MTEXT
  5
283
100
AcDbEntity
  8
0
100
AcDbMText
 62
2
  6
CONTINUOUS
  7
STANDARD
 71
2
 72
1
 10
3.95
 20
-0.44325
 30
0.0
 11
1.0
 21
0.0
 31
0.0
 44
0.9
  1
Size
 40
0.145
 41
0.928
  0
MTEXT
  5
284
100
AcDbEntity
  8
0
100
AcDbMText
 62
2
  6
CONTINUOUS
  7
STANDARD
 71
2
 72
1
 10
0.65
 20
-0.75025
 30
0.0
 11
1.0
 21
0.0
 31
0.0
 44
0.9
  1
INN
 40
0.125
 41
0.6
  0
MTEXT
  5
285
100
AcDbEntity
  8
0
100
AcDbMText
 62
2
  6
CONTINUOUS
  7
STANDARD
 71
2
 72
1
 10
2.3
 20
-0.75025
 30
0.0
 11
1.0
 21
0.0
 31
0.0
 44
0.9
  1
Ports 1 &  2
 40
0.125
 41
2.4
  0
MTEXT
  5
286
100
AcDbEntity
  8
0
100
AcDbMText
 62
2
  6
CONTINUOUS
  7
STANDARD
 71
2
 72
1
 10
3.95
 20
-0.75025
 30
0.0
 11
1.0
 21
0.0
 31
0.0
 44
0.9
  1
SAE 20
 40
0.125
 41
1.2
  0
MTEXT
  5
287
100
AcDbEntity
  8
0
100
AcDbMText
 62
2
  6
CONTINUOUS
  7
STANDARD
 71
2
 72
1
 10
0.65
 20
-1.00025
 30
0.0
 11
1.0
 21
0.0
 31
0.0
 44
0.9
  1
INN
 40
0.125
 41
0.6
  0
MTEXT
  5
288
100
AcDbEntity
  8
0
100
AcDbMText
 62
2
  6
CONTINUOUS
  7
STANDARD
 71
2
 72
1
 10
2.3
 20
-1.00025
 30
0.0
 11
1.0
 21
0.0
 31
0.0
 44
0.9
  1
Gage Port
 40
0.125
 41
1.8
  0
MTEXT
  5
289
100
AcDbEntity
  8
0
100
AcDbMText
 62
2
  6
CONTINUOUS
  7
STANDARD
 71
2
 72
1
 10
3.95
 20
-1.00025
 30
0.0
 11
1.0
 21
0.0
 31
0.0
 44
0.9
  1
1/4" NPTF
 40
0.125
 41
1.8
  0
ENDBLK
  5
28A
100
AcDbEntity
  8
0
  6
BYBLOCK
 62
0
100
AcDbBlockEnd
  0
ENDSEC
  0
SECTION
  2
ENTITIES
  0
IMAGE
  5
28B
100
AcDbEntity
  8
0
100
AcDbRasterImage
 62
7
  6
CONTINUOUS
 10
19.2297077316
 20
0.3094318264
 30
0.0
 11
0.0066666667
 21
0.0
 31
0.0
 12
0.0
 22
0.0066666667
 32
0.0
 13
369.0
 23
92.0
340
       39F
 70
9
280
0
281
50
282
50
283
0
360
       399
 71
1
 91
2
 14
-0.5
 24
-0.5
 14
368.5
 24
91.5
  0
INSERT
  5
28C
100
AcDbEntity
  8
0
100
AcDbBlockReference
 62
2
  6
CONTINUOUS
  2
SUN_FIRST_THIRD_ANGLE_BL0
 10
20.4816717061
 20
1.2289683772
  0
ACAD_TABLE
  5
28D
100
AcDbEntity
  8
0
 62
2
  6
CONTINUOUS
100
AcDbBlockReference
  2
*T1
 10
12.42375
 20
0.30125
 30
0.0
100
AcDbTable
342
       3A1
343
20F
 11
1.0
 21
0.0
 31
0.0
 90
6
 91
4
 92
6
 93
20
 94
0
 95
0
 96
0
 70
1
 41
0.0
141
0.525
141
0.1
141
0.525
141
0.1
142
4.1
142
1.1
142
0.7
142
0.5
142
0.4
142
2.475
171
1
172
0
173
0
174
0
175
1
176
1
 91
33
178
0
145
0.0
301
CELL_VALUE
 90
4
  1
T-16A Line mount\PNinety degree with reverse flow check
304
ACVALUE_END
170
2
140
0.125
171
1
172
0
173
0
174
0
175
1
176
1
 91
33
178
0
145
0.0
301
CELL_VALUE
 90
4
  1
Jun-23-20
304
ACVALUE_END
170
5
140
0.125
171
1
172
0
173
0
174
0
175
1
176
1
 91
33
178
0
145
0.0
301
CELL_VALUE
 90
4
  1
1.000
304
ACVALUE_END
170
5
140
0.125
171
1
172
0
173
0
174
0
175
1
176
1
 91
33
178
0
145
0.0
301
CELL_VALUE
 90
4
  1
C
304
ACVALUE_END
170
5
140
0.125
171
1
172
0
173
0
174
0
175
1
176
1
 91
33
178
0
145
0.0
301
CELL_VALUE
 90
4
  1
2
304
ACVALUE_END
170
5
140
0.125
171
1
172
0
173
0
174
0
175
1
176
1
 91
33
178
0
145
0.0
301
CELL_VALUE
 90
4
  1
 
304
ACVALUE_END
170
1
140
0.125
171
1
172
0
173
0
174
0
175
1
176
1
 91
33
178
0
145
0.0
301
CELL_VALUE
 90
4
  1
DESCRIPTION
304
ACVALUE_END
170
1
140
0.06
171
1
172
0
173
0
174
0
175
1
176
1
 91
33
178
0
145
0.0
301
CELL_VALUE
 90
4
  1
DATE
304
ACVALUE_END
170
1
140
0.06
171
1
172
0
173
0
174
0
175
1
176
1
 91
33
178
0
145
0.0
301
CELL_VALUE
 90
4
  1
SCALE
304
ACVALUE_END
170
1
140
0.06
171
1
172
0
173
0
174
0
175
1
176
1
 91
33
178
0
145
0.0
301
CELL_VALUE
 90
4
  1
DWG SIZE
304
ACVALUE_END
170
1
140
0.06
171
1
172
0
173
0
174
0
175
1
176
1
 91
33
178
0
145
0.0
301
CELL_VALUE
 90
4
  1
SHEET
304
ACVALUE_END
170
1
140
0.06
171
1
172
0
173
0
174
0
175
1
176
1
 91
33
178
0
145
0.0
301
CELL_VALUE
 90
4
  1
 
304
ACVALUE_END
170
1
140
0.125
171
1
172
0
173
0
174
0
175
1
176
1
 91
33
178
0
145
0.0
301
CELL_VALUE
 90
4
  1
INN
304
ACVALUE_END
170
5
140
0.125
171
1
172
0
173
0
174
0
175
4
176
1
 91
33
178
0
145
0.0
301
CELL_VALUE
 90
4
  1
ALL DIMENSIONS IN INCH\PVIEWS ARE THIRD ANGLE
304
ACVALUE_END
170
5
140
0.12
171
1
172
0
173
1
174
0
175
1
176
1
 91
1
178
0
145
0.0
170
1
171
1
172
0
173
1
174
0
175
1
176
1
 91
1
178
0
145
0.0
170
1
171
1
172
0
173
1
174
0
175
1
176
1
 91
1
178
0
145
0.0
170
5
171
1
172
0
173
0
174
0
175
1
176
1
 91
33
178
0
145
0.0
301
CELL_VALUE
 90
4
  1
 
304
ACVALUE_END
170
1
140
0.125
171
1
172
0
173
0
174
0
175
1
176
1
 91
33
178
0
145
0.0
301
CELL_VALUE
 90
4
  1
MODEL
304
ACVALUE_END
170
1
140
0.06
171
1
172
0
173
0
174
0
175
1
176
1
 91
33
178
0
145
0.0
301
CELL_VALUE
 90
4
  1
 
304
ACVALUE_END
170
1
140
0.125
171
1
172
0
173
0
174
0
175
1
176
1
 91
33
178
0
145
0.0
301
CELL_VALUE
 90
4
  1
 
304
ACVALUE_END
170
1
140
0.125
171
1
172
0
173
0
174
0
175
1
176
1
 91
33
178
0
145
0.0
301
CELL_VALUE
 90
4
  1
 
304
ACVALUE_END
170
1
140
0.125
171
1
172
0
173
0
174
0
175
1
176
1
 91
33
178
0
145
0.0
301
CELL_VALUE
 90
4
  1
 
304
ACVALUE_END
170
1
140
0.125
171
1
172
0
173
0
174
0
175
1
176
1
 91
33
178
0
145
0.0
301
CELL_VALUE
 90
4
  1
 
304
ACVALUE_END
170
1
140
0.125
  0
ACAD_TABLE
  5
28E
100
AcDbEntity
  8
0
 62
2
  6
CONTINUOUS
100
AcDbBlockReference
  2
*T2
 10
12.4237499994
 20
16.47875
 30
0.0
100
AcDbTable
342
       3A0
343
210
 11
1.0
 21
0.0
 31
0.0
 90
22
 91
10
 92
3
 93
16
 94
0
 95
0
 96
0
 41
0.028
141
0.344
141
0.25
141
0.25
141
0.25
141
0.25
141
0.25
141
0.25
141
0.25
141
0.25
141
0.25
142
3.055
142
3.0
142
3.0
171
1
172
0
173
0
174
0
175
1
176
1
 91
33
178
0
145
0.0
301
CELL_VALUE
 90
4
  1
Technical Data
304
ACVALUE_END
170
5
140
0.145
171
1
172
0
173
0
174
0
175
1
176
1
 91
33
178
0
145
0.0
301
CELL_VALUE
 90
4
  1
U.S. Units
304
ACVALUE_END
170
5
140
0.145
171
1
172
0
173
0
174
0
175
1
176
1
 91
33
178
0
145
0.0
301
CELL_VALUE
 90
4
  1
Metric Units
304
ACVALUE_END
170
5
140
0.145
171
1
172
0
173
0
174
0
175
1
176
1
 91
33
178
0
145
0.0
301
CELL_VALUE
 90
4
  1
Cavity
304
ACVALUE_END
170
5
140
0.125
171
1
172
0
173
0
174
0
175
2
176
1
 91
33
178
0
145
0.0
301
CELL_VALUE
 90
4
  1
T-16A
304
ACVALUE_END
170
5
140
0.125
171
1
172
0
173
1
174
0
175
1
176
1
 91
1
178
0
145
0.0
170
1
171
1
172
0
173
0
174
0
175
1
176
1
 91
33
178
0
145
0.0
301
CELL_VALUE
 90
4
  1
Body Features
304
ACVALUE_END
170
5
140
0.125
171
1
172
0
173
0
174
0
175
2
176
1
 91
33
178
0
145
0.0
301
CELL_VALUE
 90
4
  1
Ninety degree with reverse flow check
304
ACVALUE_END
170
5
140
0.125
171
1
172
0
173
1
174
0
175
1
176
1
 91
1
178
0
145
0.0
170
1
171
1
172
0
173
0
174
0
175
1
176
1
 91
33
178
0
145
0.0
301
CELL_VALUE
 90
4
  1
Body Type
304
ACVALUE_END
170
5
140
0.125
171
1
172
0
173
0
174
0
175
2
176
1
 91
33
178
0
145
0.0
301
CELL_VALUE
 90
4
  1
Line mount
304
ACVALUE_END
170
5
140
0.125
171
1
172
0
173
1
174
0
175
1
176
1
 91
1
178
0
145
0.0
170
1
171
1
172
0
173
0
174
0
175
1
176
1
 91
33
178
0
145
0.0
301
CELL_VALUE
 90
4
  1
Interface
304
ACVALUE_END
170
5
140
0.125
171
1
172
0
173
0
174
0
175
2
176
1
 91
33
178
0
145
0.0
301
CELL_VALUE
 90
4
  1
None
304
ACVALUE_END
170
5
140
0.125
171
1
172
0
173
1
174
0
175
1
176
1
 91
1
178
0
145
0.0
170
1
171
1
172
0
173
0
174
0
175
1
176
1
 91
33
178
0
145
0.0
301
CELL_VALUE
 90
4
  1
Open Cavity Quantity
304
ACVALUE_END
170
5
140
0.125
171
1
172
0
173
0
174
0
175
2
176
1
 91
33
178
0
145
0.0
301
CELL_VALUE
 90
4
  1
1
304
ACVALUE_END
170
5
140
0.125
171
1
172
0
173
1
174
0
175
1
176
1
 91
1
178
0
145
0.0
170
1
171
1
172
0
173
0
174
0
175
1
176
1
 91
33
178
0
145
0.0
301
CELL_VALUE
 90
4
  1
Weight
304
ACVALUE_END
170
5
140
0.125
171
1
172
0
173
0
174
0
175
1
176
1
 91
33
178
0
145
0.0
301
CELL_VALUE
 90
4
  1
3.654 lb.
304
ACVALUE_END
170
5
140
0.125
171
1
172
0
173
0
174
0
175
1
176
1
 91
33
178
0
145
0.0
301
CELL_VALUE
 90
4
  1
1,657 kg.
304
ACVALUE_END
170
5
140
0.125
171
1
172
0
173
0
174
0
175
1
176
1
 91
33
178
0
145
0.0
301
CELL_VALUE
 90
4
  1
Mounting Hole Diameter
304
ACVALUE_END
170
5
140
0.125
171
1
172
0
173
0
174
0
175
1
176
1
 91
33
178
0
145
0.0
301
CELL_VALUE
 90
4
  1
.28 in.
304
ACVALUE_END
170
5
140
0.125
171
1
172
0
173
0
174
0
175
1
176
1
 91
33
178
0
145
0.0
301
CELL_VALUE
 90
4
  1
7,1 mm
304
ACVALUE_END
170
5
140
0.125
171
1
172
0
173
0
174
0
175
1
176
1
 91
33
178
0
145
0.0
301
CELL_VALUE
 90
4
  1
Mounting Hole Depth
304
ACVALUE_END
170
5
140
0.125
171
1
172
0
173
0
174
0
175
2
176
1
 91
33
178
0
145
0.0
301
CELL_VALUE
 90
4
  1
Through
304
ACVALUE_END
170
5
140
0.125
171
1
172
0
173
1
174
0
175
1
176
1
 91
1
178
0
145
0.0
170
1
171
1
172
0
173
0
174
0
175
1
176
1
 91
33
178
0
145
0.0
301
CELL_VALUE
 90
4
  1
Mounting Hole Quantity
304
ACVALUE_END
170
5
140
0.125
171
1
172
0
173
0
174
0
175
2
176
1
 91
33
178
0
145
0.0
301
CELL_VALUE
 90
4
  1
2
304
ACVALUE_END
170
5
140
0.125
171
1
172
0
173
1
174
0
175
1
176
1
 91
1
178
0
145
0.0
170
1
  0
ACAD_TABLE
  5
28F
100
AcDbEntity
  8
0
 62
2
  6
CONTINUOUS
100
AcDbBlockReference
  2
*T3
 10
0.52125
 20
1.709
 30
0.0
100
AcDbTable
342
       3A0
343
211
 11
1.0
 21
0.0
 31
0.0
 90
22
 91
4
 92
3
 93
16
 94
0
 95
0
 96
0
 41
0.05
141
0.34375
141
0.344
141
0.25
141
0.25
142
1.3
142
2.0
142
1.3
171
1
172
0
173
0
174
0
175
3
176
1
 91
33
178
0
145
0.0
301
CELL_VALUE
 90
4
  1
Port Headings
304
ACVALUE_END
170
5
140
0.145
171
1
172
0
173
1
174
0
175
1
176
1
 91
1
178
0
145
0.0
170
1
171
1
172
0
173
1
174
0
175
1
176
1
 91
1
178
0
145
0.0
170
1
171
1
172
0
173
0
174
0
175
1
176
1
 91
33
178
0
145
0.0
301
CELL_VALUE
 90
4
  1
Product
304
ACVALUE_END
170
5
140
0.145
171
1
172
0
173
0
174
0
175
1
176
1
 91
33
178
0
145
0.0
301
CELL_VALUE
 90
4
  1
Port
304
ACVALUE_END
170
5
140
0.145
171
1
172
0
173
0
174
0
175
1
176
1
 91
33
178
0
145
0.0
301
CELL_VALUE
 90
4
  1
Size
304
ACVALUE_END
170
5
140
0.145
171
1
172
0
173
0
174
0
175
1
176
1
 91
33
178
0
145
0.0
301
CELL_VALUE
 90
4
  1
INN
304
ACVALUE_END
170
5
140
0.125
171
1
172
0
173
0
174
0
175
1
176
1
 91
33
178
0
145
0.0
301
CELL_VALUE
 90
4
  1
Ports 1 &  2
304
ACVALUE_END
170
5
140
0.125
171
1
172
0
173
0
174
0
175
1
176
1
 91
33
178
0
145
0.0
301
CELL_VALUE
 90
4
  1
SAE 20
304
ACVALUE_END
170
5
140
0.125
171
1
172
0
173
0
174
0
175
1
176
1
 91
33
178
0
145
0.0
301
CELL_VALUE
 90
4
  1
INN
304
ACVALUE_END
170
5
140
0.125
171
1
172
0
173
0
174
0
175
1
176
1
 91
33
178
0
145
0.0
301
CELL_VALUE
 90
4
  1
Gage Port
304
ACVALUE_END
170
5
140
0.125
171
1
172
0
173
0
174
0
175
1
176
1
 91
33
178
0
145
0.0
301
CELL_VALUE
 90
4
  1
1/4" NPTF
304
ACVALUE_END
170
5
140
0.125
  0
MTEXT
  5
290
100
AcDbEntity
  8
0
100
AcDbMText
 62
2
  6
CONTINUOUS
  7
STANDARD
 71
1
 72
1
 10
0.52125
 20
5.75995
 30
0.0
 11
1.0
 21
0.0
 31
0.0
 44
0.6
  3
Notes\P \P1. Important: Carefully consider\P   the maximum system pressure. The\P   pressure rating of the manifold is\P   dependent on the manifold material,\P   with the port type/size a secondary\P   consideration. Manifolds\P   constructed of alu
  1
minum are not\P   rated for pressures higher than\P   3000 psi (210 bar), regardless of\P   the port type/size specified.
 40
0.1
 41
3.04
  0
LINE
  5
291
100
AcDbEntity
  8
0
100
AcDbLine
 62
7
  6
CONTINUOUS
 10
0.30125
 20
0.30125
 11
0.30125
 21
16.69875
  0
LINE
  5
292
100
AcDbEntity
  8
0
100
AcDbLine
 62
7
  6
CONTINUOUS
 10
0.30125
 20
0.30125
 11
21.69875
 21
0.30125
  0
LINE
  5
293
100
AcDbEntity
  8
0
100
AcDbLine
 62
7
  6
CONTINUOUS
 10
0.30125
 20
16.69875
 11
21.69875
 21
16.69875
  0
LINE
  5
294
100
AcDbEntity
  8
0
100
AcDbLine
 62
7
  6
CONTINUOUS
 10
21.69875
 20
0.30125
 11
21.69875
 21
16.69875
  0
LINE
  5
295
100
AcDbEntity
  8
0
100
AcDbLine
 62
7
  6
CONTINUOUS
 10
9.3593194184
 20
11.6096412614
 11
8.7769770475
 21
11.0471416922
  0
LINE
  5
296
100
AcDbEntity
  8
0
100
AcDbLine
 62
7
  6
CONTINUOUS
 10
11.2774336431
 20
5.4855181342
 11
11.296000196
 21
5.4763466126
  0
LINE
  5
297
100
AcDbEntity
  8
0
100
AcDbLine
 62
7
  6
CONTINUOUS
 10
8.7769770475
 20
6.3382530101
 11
12.6406805816
 21
6.0703042599
  0
LINE
  5
298
100
AcDbEntity
  8
0
100
AcDbLine
 62
7
  6
CONTINUOUS
 10
8.7769770475
 20
6.3382530101
 11
8.7769770475
 21
7.5376300807
  0
LINE
  5
299
100
AcDbEntity
  8
0
100
AcDbLine
 62
7
  6
CONTINUOUS
 10
8.7769770475
 20
7.9168787104
 11
8.7769770475
 21
11.0471416922
  0
LINE
  5
29A
100
AcDbEntity
  8
0
100
AcDbLine
 62
7
  6
CONTINUOUS
 10
8.8078866765
 20
7.9147351204
 11
8.8078866765
 21
7.5354864907
  0
LINE
  5
29B
100
AcDbEntity
  8
0
100
AcDbLine
 62
4
  6
CONTINUOUS
 10
11.324606601
 20
6.3064631887
 11
11.3101177131
 21
6.3074679965
  0
LINE
  5
29C
100
AcDbEntity
  8
0
100
AcDbLine
 62
4
  6
CONTINUOUS
 10
11.6433621355
 20
6.322994453
 11
11.6868287992
 21
6.3199800296
  0
LINE
  5
29D
100
AcDbEntity
  8
0
100
AcDbLine
 62
4
  6
CONTINUOUS
 10
11.5202065881
 20
6.3508538353
 11
11.5781621398
 21
6.3468346041
  0
LINE
  5
29E
100
AcDbEntity
  8
0
100
AcDbLine
 62
4
  6
CONTINUOUS
 10
11.3101177131
 20
6.4233791
 11
11.324606601
 21
6.4223742922
  0
LINE
  5
29F
100
AcDbEntity
  8
0
100
AcDbLine
 62
4
  6
CONTINUOUS
 10
9.0764140701
 20
7.824331413
 11
9.0764140701
 21
7.7084203096
  0
LINE
  5
2A0
100
AcDbEntity
  8
0
100
AcDbLine
 62
4
  6
CONTINUOUS
 10
10.1665304494
 20
9.9055060412
 11
10.1830891792
 21
9.9209164175
  0
LINE
  5
2A1
100
AcDbEntity
  8
0
100
AcDbLine
 62
4
  6
CONTINUOUS
 10
11.3101177131
 20
6.3074679965
 11
11.2956288252
 21
6.3181320632
  0
LINE
  5
2A2
100
AcDbEntity
  8
0
100
AcDbLine
 62
4
  6
CONTINUOUS
 10
10.207927273
 20
9.8032827864
 11
10.2244860011
 21
9.8186931645
  0
LINE
  5
2A3
100
AcDbEntity
  8
0
100
AcDbLine
 62
4
  6
CONTINUOUS
 10
10.2990002878
 20
9.7969668513
 11
10.3155590089
 21
9.8123772299
  0
LINE
  5
2A4
100
AcDbEntity
  8
0
100
AcDbLine
 62
4
  6
CONTINUOUS
 10
10.6853706371
 20
9.8446862564
 11
10.7019293583
 21
9.8518172727
  0
LINE
  5
2A5
100
AcDbEntity
  8
0
100
AcDbLine
 62
4
  6
CONTINUOUS
 10
10.8426785711
 20
9.7923800939
 11
10.8592372923
 21
9.7995111068
  0
LINE
  5
2A6
100
AcDbEntity
  8
0
100
AcDbLine
 62
4
  6
CONTINUOUS
 10
11.324606601
 20
6.4223742922
 11
11.3390954889
 21
6.4117102281
  0
LINE
  5
2A7
100
AcDbEntity
  8
0
100
AcDbLine
 62
4
  6
CONTINUOUS
 10
10.2714024102
 20
9.2794886384
 11
10.2272457985
 21
9.2604726023
  0
LINE
  5
2A8
100
AcDbEntity
  8
0
100
AcDbLine
 62
7
  6
CONTINUOUS
 10
8.7769770475
 20
7.5376300807
 11
8.8078866765
 21
7.5354864907
  0
LINE
  5
2A9
100
AcDbEntity
  8
0
100
AcDbLine
 62
4
  6
CONTINUOUS
 10
11.2956288252
 20
6.3181320632
 11
11.2811399372
 21
6.338455388
  0
LINE
  5
2AA
100
AcDbEntity
  8
0
100
AcDbLine
 62
4
  6
CONTINUOUS
 10
10.1665304494
 20
9.8889473131
 11
10.1665304494
 21
9.9055060412
  0
LINE
  5
2AB
100
AcDbEntity
  8
0
100
AcDbLine
 62
4
  6
CONTINUOUS
 10
10.2244860011
 20
9.8186931645
 11
10.2244860011
 21
9.8352518943
  0
LINE
  5
2AC
100
AcDbEntity
  8
0
100
AcDbLine
 62
4
  6
CONTINUOUS
 10
10.2576034572
 20
9.9157488347
 11
10.2576034572
 21
9.8163964611
  0
LINE
  5
2AD
100
AcDbEntity
  8
0
100
AcDbLine
 62
4
  6
CONTINUOUS
 10
10.3983526622
 20
9.1989301133
 11
10.4314701183
 21
9.3125445133
  0
LINE
  5
2AE
100
AcDbEntity
  8
0
100
AcDbLine
 62
4
  6
CONTINUOUS
 10
10.3514362625
 20
9.2187425064
 11
10.3348775344
 21
9.2033321283
  0
LINE
  5
2AF
100
AcDbEntity
  8
0
100
AcDbLine
 62
4
  6
CONTINUOUS
 10
11.1269367191
 20
9.8140635446
 11
11.1352160521
 21
9.8217687384
  0
LINE
  5
2B0
100
AcDbEntity
  8
0
100
AcDbLine
 62
4
  6
CONTINUOUS
 10
11.2014510473
 20
9.8088959584
 11
11.2097303802
 21
9.8166011522
  0
LINE
  5
2B1
100
AcDbEntity
  8
0
100
AcDbLine
 62
4
  6
CONTINUOUS
 10
11.2428478226
 20
9.7315108025
 11
11.2511271555
 21
9.7392159937
  0
LINE
  5
2B2
100
AcDbEntity
  8
0
100
AcDbLine
 62
7
  6
CONTINUOUS
 10
8.7769770475
 20
7.9168787104
 11
8.8078866765
 21
7.9147351204
  0
LINE
  5
2B3
100
AcDbEntity
  8
0
100
AcDbLine
 62
4
  6
CONTINUOUS
 10
11.3390954889
 20
6.4117102281
 11
11.3463399329
 21
6.4015485609
  0
LINE
  5
2B4
100
AcDbEntity
  8
0
100
AcDbLine
 62
4
  6
CONTINUOUS
 10
10.2934807177
 20
9.2062030073
 11
10.2934807177
 21
9.3221141108
  0
LINE
  5
2B5
100
AcDbEntity
  8
0
100
AcDbLine
 62
4
  6
CONTINUOUS
 10
10.3155590089
 20
9.8123772299
 11
10.3155590089
 21
9.9117296036
  0
LINE
  5
2B6
100
AcDbEntity
  8
0
100
AcDbLine
 62
4
  6
CONTINUOUS
 10
10.3486764651
 20
9.7935217967
 11
10.3486764651
 21
9.9094329002
  0
LINE
  5
2B7
100
AcDbEntity
  8
0
100
AcDbLine
 62
4
  6
CONTINUOUS
 10
10.3514362625
 20
9.301536152
 11
10.3514362625
 21
9.2187425064
  0
LINE
  5
2B8
100
AcDbEntity
  8
0
100
AcDbLine
 62
4
  6
CONTINUOUS
 10
10.3688229864
 20
8.4108506608
 11
10.3688229864
 21
8.3722136269
  0
LINE
  5
2B9
100
AcDbEntity
  8
0
100
AcDbLine
 62
4
  6
CONTINUOUS
 10
10.4066320168
 20
9.7895025656
 11
10.4066320168
 21
9.905413669
  0
LINE
  5
2BA
100
AcDbEntity
  8
0
100
AcDbLine
 62
4
  6
CONTINUOUS
 10
10.2963785467
 20
8.4158746997
 11
10.3036229907
 21
8.4443500717
  0
LINE
  5
2BB
100
AcDbEntity
  8
0
100
AcDbLine
 62
4
  6
CONTINUOUS
 10
10.6301748631
 20
9.7464019347
 11
10.6632923054
 21
9.8544967614
  0
LINE
  5
2BC
100
AcDbEntity
  8
0
100
AcDbLine
 62
4
  6
CONTINUOUS
 10
10.3036229907
 20
8.4443500717
 11
10.3181118786
 21
8.4626637834
  0
LINE
  5
2BD
100
AcDbEntity
  8
0
100
AcDbLine
 62
7
  6
CONTINUOUS
 10
12.6406805816
 20
10.7791929421
 11
13.2230229525
 21
11.3416925112
  0
LINE
  5
2BE
100
AcDbEntity
  8
0
100
AcDbLine
 62
4
  6
CONTINUOUS
 10
10.7709240957
 20
9.272444572
 11
10.7874828168
 21
9.2878549488
  0
LINE
  5
2BF
100
AcDbEntity
  8
0
100
AcDbLine
 62
4
  6
CONTINUOUS
 10
10.867516645
 20
9.2657458559
 11
10.8840753662
 21
9.2811562328
  0
LINE
  5
2C0
100
AcDbEntity
  8
0
100
AcDbLine
 62
4
  6
CONTINUOUS
 10
10.9254721967
 20
9.1789329792
 11
10.9089134756
 21
9.1635226006
  0
LINE
  5
2C1
100
AcDbEntity
  8
0
100
AcDbLine
 62
4
  6
CONTINUOUS
 10
11.0165451908
 20
9.1726170456
 11
10.9999864696
 21
9.157206667
  0
LINE
  5
2C2
100
AcDbEntity
  8
0
100
AcDbLine
 62
4
  6
CONTINUOUS
 10
11.1904118459
 20
9.19367681
 11
11.1462552377
 21
9.1746607753
  0
LINE
  5
2C3
100
AcDbEntity
  8
0
100
AcDbLine
 62
4
  6
CONTINUOUS
 10
10.3326007665
 20
8.3554071285
 11
10.3181118786
 21
8.3660711952
  0
LINE
  5
2C4
100
AcDbEntity
  8
0
100
AcDbLine
 62
4
  6
CONTINUOUS
 10
10.3181118786
 20
8.3660711952
 11
10.3036229907
 21
8.38639452
  0
LINE
  5
2C5
100
AcDbEntity
  8
0
100
AcDbLine
 62
4
  6
CONTINUOUS
 10
10.3615785424
 20
8.4596493601
 11
10.3688229864
 21
8.449487693
  0
LINE
  5
2C6
100
AcDbEntity
  8
0
100
AcDbLine
 62
4
  6
CONTINUOUS
 10
11.4042954846
 20
6.4168478493
 11
11.4622510363
 21
6.2969175147
  0
LINE
  5
2C7
100
AcDbEntity
  8
0
100
AcDbLine
 62
4
  6
CONTINUOUS
 10
10.3036229907
 20
8.38639452
 11
10.2963785467
 21
8.4158746997
  0
LINE
  5
2C8
100
AcDbEntity
  8
0
100
AcDbLine
 62
4
  6
CONTINUOUS
 10
10.5308225006
 20
9.1897432988
 11
10.5308225006
 21
9.3056544022
  0
LINE
  5
2C9
100
AcDbEntity
  8
0
100
AcDbLine
 62
4
  6
CONTINUOUS
 10
10.5308224808
 20
9.7808899277
 11
10.5308224808
 21
9.8968010311
  0
LINE
  5
2CA
100
AcDbEntity
  8
0
100
AcDbLine
 62
4
  6
CONTINUOUS
 10
10.5804986719
 20
9.8519591519
 11
10.5804986719
 21
9.7774448721
  0
LINE
  5
2CB
100
AcDbEntity
  8
0
100
AcDbLine
 62
4
  6
CONTINUOUS
 10
10.5970574129
 20
9.185149892
 11
10.5970574129
 21
9.3010609954
  0
LINE
  5
2CC
100
AcDbEntity
  8
0
100
AcDbLine
 62
4
  6
CONTINUOUS
 10
10.6080965414
 20
9.4393887534
 11
10.6080965414
 21
9.5552998568
  0
LINE
  5
2CD
100
AcDbEntity
  8
0
100
AcDbLine
 62
4
  6
CONTINUOUS
 10
10.6605325153
 20
9.4357523063
 11
10.6605325153
 21
9.5516634097
  0
LINE
  5
2CE
100
AcDbEntity
  8
0
100
AcDbLine
 62
4
  6
CONTINUOUS
 10
10.6853706371
 20
9.7784513415
 11
10.6853706371
 21
9.8446862564
  0
LINE
  5
2CF
100
AcDbEntity
  8
0
100
AcDbLine
 62
4
  6
CONTINUOUS
 10
10.718488074
 20
9.4317330746
 11
10.718488074
 21
9.547644178
  0
LINE
  5
2D0
100
AcDbEntity
  8
0
100
AcDbLine
 62
4
  6
CONTINUOUS
 10
10.7350468006
 20
9.8826380264
 11
10.7350468006
 21
9.766726923
  0
LINE
  5
2D1
100
AcDbEntity
  8
0
100
AcDbLine
 62
4
  6
CONTINUOUS
 10
10.7516055301
 20
9.4294363712
 11
10.7516055301
 21
9.5453474747
  0
LINE
  5
2D2
100
AcDbEntity
  8
0
100
AcDbLine
 62
4
  6
CONTINUOUS
 10
10.7681642982
 20
9.7644302167
 11
10.7681642982
 21
9.847223864
  0
LINE
  5
2D3
100
AcDbEntity
  8
0
100
AcDbLine
 62
4
  6
CONTINUOUS
 10
10.7709240957
 20
9.1896509264
 11
10.7709240957
 21
9.272444572
  0
LINE
  5
2D4
100
AcDbEntity
  8
0
100
AcDbLine
 62
4
  6
CONTINUOUS
 10
11.0855398886
 20
9.8583312482
 11
11.0827801109
 21
9.8502432719
  0
LINE
  5
2D5
100
AcDbEntity
  8
0
100
AcDbLine
 62
4
  6
CONTINUOUS
 10
10.3688229864
 20
8.3722136269
 11
10.3615785424
 21
8.3630567719
  0
LINE
  5
2D6
100
AcDbEntity
  8
0
100
AcDbLine
 62
4
  6
CONTINUOUS
 10
10.3181118786
 20
8.4626637834
 11
10.3326007665
 21
8.471318232
  0
LINE
  5
2D7
100
AcDbEntity
  8
0
100
AcDbLine
 62
4
  6
CONTINUOUS
 10
10.3470896545
 20
8.4703134242
 11
10.3615785424
 21
8.4596493601
  0
LINE
  5
2D8
100
AcDbEntity
  8
0
100
AcDbLine
 62
4
  6
CONTINUOUS
 10
10.4314701183
 20
9.3125445133
 11
10.4645875883
 21
9.1943367055
  0
LINE
  5
2D9
100
AcDbEntity
  8
0
100
AcDbLine
 62
4
  6
CONTINUOUS
 10
11.2811399372
 20
6.338455388
 11
11.2738954933
 21
6.3679355677
  0
LINE
  5
2DA
100
AcDbEntity
  8
0
100
AcDbLine
 62
4
  6
CONTINUOUS
 10
10.8068012959
 20
9.8362650116
 11
10.8068012959
 21
9.8197062835
  0
LINE
  5
2DB
100
AcDbEntity
  8
0
100
AcDbLine
 62
4
  6
CONTINUOUS
 10
10.8095610818
 20
9.4254171401
 11
10.8095610818
 21
9.5413282435
  0
LINE
  5
2DC
100
AcDbEntity
  8
0
100
AcDbLine
 62
4
  6
CONTINUOUS
 10
10.8426785711
 20
9.7675419992
 11
10.8426785711
 21
9.7923800939
  0
LINE
  5
2DD
100
AcDbEntity
  8
0
100
AcDbLine
 62
4
  6
CONTINUOUS
 10
10.867516645
 20
9.1829522104
 11
10.867516645
 21
9.2657458559
  0
LINE
  5
2DE
100
AcDbEntity
  8
0
100
AcDbLine
 62
4
  6
CONTINUOUS
 10
10.8923547346
 20
9.7558175807
 11
10.8923547346
 21
9.8220524999
  0
LINE
  5
2DF
100
AcDbEntity
  8
0
100
AcDbLine
 62
4
  6
CONTINUOUS
 10
10.925472177
 20
9.8363145255
 11
10.925472177
 21
9.7618002432
  0
LINE
  5
2E0
100
AcDbEntity
  8
0
100
AcDbLine
 62
4
  6
CONTINUOUS
 10
10.9254721967
 20
9.2617266248
 11
10.9254721967
 21
9.1789329792
  0
LINE
  5
2E1
100
AcDbEntity
  8
0
100
AcDbLine
 62
4
  6
CONTINUOUS
 10
10.9585896391
 20
9.160077547
 11
10.9585896391
 21
9.2759886504
  0
LINE
  5
2E2
100
AcDbEntity
  8
0
100
AcDbLine
 62
4
  6
CONTINUOUS
 10
10.9751483957
 20
9.7500758208
 11
10.9751483957
 21
9.8328694681
  0
LINE
  5
2E3
100
AcDbEntity
  8
0
100
AcDbLine
 62
4
  6
CONTINUOUS
 10
11.0082658381
 20
9.7560584833
 11
11.0082658381
 21
9.8636902218
  0
LINE
  5
2E4
100
AcDbEntity
  8
0
100
AcDbLine
 62
4
  6
CONTINUOUS
 10
11.0165451908
 20
9.2554106912
 11
11.0165451908
 21
9.1726170456
  0
LINE
  5
2E5
100
AcDbEntity
  8
0
100
AcDbLine
 62
4
  6
CONTINUOUS
 10
10.3615785424
 20
8.3630567719
 11
10.3470896545
 21
8.3544023208
  0
LINE
  5
2E6
100
AcDbEntity
  8
0
100
AcDbLine
 62
4
  6
CONTINUOUS
 10
12.4006479876
 20
9.5159875185
 11
12.4151368756
 21
9.5246419671
  0
LINE
  5
2E7
100
AcDbEntity
  8
0
100
AcDbLine
 62
4
  6
CONTINUOUS
 10
12.4441146514
 20
9.4743360561
 11
12.4151368756
 21
9.4570271556
  0
LINE
  5
2E8
100
AcDbEntity
  8
0
100
AcDbLine
 62
4
  6
CONTINUOUS
 10
10.3470896545
 20
8.3544023208
 11
10.3326007665
 21
8.3554071285
  0
LINE
  5
2E9
100
AcDbEntity
  8
0
100
AcDbLine
 62
4
  6
CONTINUOUS
 10
10.3398452105
 20
8.4128602764
 11
10.3688229864
 21
8.4108506608
  0
LINE
  5
2EA
100
AcDbEntity
  8
0
100
AcDbLine
 62
4
  6
CONTINUOUS
 10
10.3326007665
 20
8.471318232
 11
10.3470896545
 21
8.4703134242
  0
LINE
  5
2EB
100
AcDbEntity
  8
0
100
AcDbLine
 62
4
  6
CONTINUOUS
 10
10.3486764651
 20
9.9094329002
 11
10.4066320168
 21
9.7895025656
  0
LINE
  5
2EC
100
AcDbEntity
  8
0
100
AcDbLine
 62
4
  6
CONTINUOUS
 10
11.6650954673
 20
6.3987613091
 11
11.7013176872
 21
6.2803381862
  0
LINE
  5
2ED
100
AcDbEntity
  8
0
100
AcDbLine
 62
4
  6
CONTINUOUS
 10
10.6136161419
 20
9.857941815
 11
10.6384542513
 21
9.773425639
  0
LINE
  5
2EE
100
AcDbEntity
  8
0
100
AcDbLine
 62
4
  6
CONTINUOUS
 10
11.0634616319
 20
9.1528046496
 11
11.0634616319
 21
9.268715753
  0
LINE
  5
2EF
100
AcDbEntity
  8
0
100
AcDbLine
 62
4
  6
CONTINUOUS
 10
11.0827801109
 20
9.742611536
 11
11.0827801109
 21
9.8254051833
  0
LINE
  5
2F0
100
AcDbEntity
  8
0
100
AcDbLine
 62
4
  6
CONTINUOUS
 10
11.0827801109
 20
9.8502432719
 11
11.0827801109
 21
9.8585226394
  0
LINE
  5
2F1
100
AcDbEntity
  8
0
100
AcDbLine
 62
4
  6
CONTINUOUS
 10
11.1269367191
 20
9.7478286297
 11
11.1269367191
 21
9.8140635446
  0
LINE
  5
2F2
100
AcDbEntity
  8
0
100
AcDbLine
 62
7
  6
CONTINUOUS
 10
11.1548373152
 20
6.1733478404
 11
11.1548373152
 21
5.6422673162
  0
LINE
  5
2F3
100
AcDbEntity
  8
0
100
AcDbLine
 62
4
  6
CONTINUOUS
 10
11.2014510473
 20
9.7840578663
 11
11.2014510473
 21
9.8088959584
  0
LINE
  5
2F4
100
AcDbEntity
  8
0
100
AcDbLine
 62
4
  6
CONTINUOUS
 10
11.2511271555
 20
9.7392159937
 11
11.2511271555
 21
9.7640540884
  0
LINE
  5
2F5
100
AcDbEntity
  8
0
100
AcDbLine
 62
4
  6
CONTINUOUS
 10
10.2272457985
 20
9.2604726023
 11
10.2714024102
 21
9.235332025
  0
LINE
  5
2F6
100
AcDbEntity
  8
0
100
AcDbLine
 62
4
  6
CONTINUOUS
 10
10.3348775344
 20
9.3192432318
 11
10.3514362625
 21
9.301536152
  0
LINE
  5
2F7
100
AcDbEntity
  8
0
100
AcDbLine
 62
4
  6
CONTINUOUS
 10
10.1665304494
 20
9.8144330307
 11
10.1748098143
 21
9.8055794899
  0
LINE
  5
2F8
100
AcDbEntity
  8
0
100
AcDbLine
 62
4
  6
CONTINUOUS
 10
10.6605325153
 20
9.5516634097
 11
10.718488074
 21
9.4317330746
  0
LINE
  5
2F9
100
AcDbEntity
  8
0
100
AcDbLine
 62
4
  6
CONTINUOUS
 10
10.7516055301
 20
9.5453474747
 11
10.8095610818
 21
9.4254171401
  0
LINE
  5
2FA
100
AcDbEntity
  8
0
100
AcDbLine
 62
7
  6
CONTINUOUS
 10
11.3281054197
 20
6.1451716375
 11
11.3281054197
 21
5.4749034653
  0
LINE
  5
2FB
100
AcDbEntity
  8
0
100
AcDbLine
 62
7
  6
CONTINUOUS
 10
11.360098215
 20
6.1368913033
 11
11.360098215
 21
5.4666231311
  0
LINE
  5
2FC
100
AcDbEntity
  8
0
100
AcDbLine
 62
4
  6
CONTINUOUS
 10
11.5202065881
 20
6.408809387
 11
11.5202065881
 21
6.2928982836
  0
LINE
  5
2FD
100
AcDbEntity
  8
0
100
AcDbLine
 62
4
  6
CONTINUOUS
 10
12.3934035437
 20
9.5068306592
 11
12.4006479876
 21
9.5159875185
  0
LINE
  5
2FE
100
AcDbEntity
  8
0
100
AcDbLine
 62
4
  6
CONTINUOUS
 10
12.4151368756
 20
9.4570271556
 11
12.4006479876
 21
9.4387134473
  0
LINE
  5
2FF
100
AcDbEntity
  8
0
100
AcDbLine
 62
4
  6
CONTINUOUS
 10
12.4513590954
 20
9.4834929154
 11
12.4441146514
 21
9.4743360561
  0
LINE
  5
300
100
AcDbEntity
  8
0
100
AcDbLine
 62
4
  6
CONTINUOUS
 10
10.2244860011
 20
9.8352518943
 11
10.1665304494
 21
9.8889473131
  0
LINE
  5
301
100
AcDbEntity
  8
0
100
AcDbLine
 62
4
  6
CONTINUOUS
 10
10.7874828168
 20
9.1719438454
 11
10.7709240957
 21
9.1896509264
  0
LINE
  5
302
100
AcDbEntity
  8
0
100
AcDbLine
 62
4
  6
CONTINUOUS
 10
10.2576034572
 20
9.8163964611
 11
10.2741621853
 21
9.7986893796
  0
LINE
  5
303
100
AcDbEntity
  8
0
100
AcDbLine
 62
4
  6
CONTINUOUS
 10
10.8840753662
 20
9.1652451293
 11
10.867516645
 21
9.1829522104
  0
LINE
  5
304
100
AcDbEntity
  8
0
100
AcDbLine
 62
4
  6
CONTINUOUS
 10
10.216206637
 20
9.918619714
 11
10.2244860011
 21
9.9097661706
  0
LINE
  5
305
100
AcDbEntity
  8
0
100
AcDbLine
 62
4
  6
CONTINUOUS
 10
10.9089134756
 20
9.279433704
 11
10.9254721967
 21
9.2617266248
  0
LINE
  5
306
100
AcDbEntity
  8
0
100
AcDbLine
 62
4
  6
CONTINUOUS
 10
10.9999864696
 20
9.2731177704
 11
11.0165451908
 21
9.2554106912
  0
LINE
  5
307
100
AcDbEntity
  8
0
100
AcDbLine
 62
4
  6
CONTINUOUS
 10
10.8923547346
 20
9.8220524999
 11
10.8840754017
 21
9.8391854017
  0
LINE
  5
308
100
AcDbEntity
  8
0
100
AcDbLine
 62
4
  6
CONTINUOUS
 10
11.5781621398
 20
6.4047901558
 11
11.5781621398
 21
6.2888790524
  0
LINE
  5
309
100
AcDbEntity
  8
0
100
AcDbLine
 62
4
  6
CONTINUOUS
 10
11.2738954933
 20
6.3679355677
 11
11.2811399372
 21
6.3964109397
  0
LINE
  5
30A
100
AcDbEntity
  8
0
100
AcDbLine
 62
4
  6
CONTINUOUS
 10
10.9999864696
 20
9.157206667
 11
10.9585896391
 21
9.160077547
  0
LINE
  5
30B
100
AcDbEntity
  8
0
100
AcDbLine
 62
4
  6
CONTINUOUS
 10
10.9089134756
 20
9.1635226006
 11
10.8840753662
 21
9.1652451293
  0
LINE
  5
30C
100
AcDbEntity
  8
0
100
AcDbLine
 62
4
  6
CONTINUOUS
 10
10.8206002592
 20
9.169647143
 11
10.7874828168
 21
9.1719438454
  0
LINE
  5
30D
100
AcDbEntity
  8
0
100
AcDbLine
 62
4
  6
CONTINUOUS
 10
10.3348775344
 20
9.2033321283
 11
10.2934807177
 21
9.2062030073
  0
LINE
  5
30E
100
AcDbEntity
  8
0
100
AcDbLine
 62
4
  6
CONTINUOUS
 10
10.5970574129
 20
9.185149892
 11
10.646733604
 21
9.1817048365
  0
LINE
  5
30F
100
AcDbEntity
  8
0
100
AcDbLine
 62
4
  6
CONTINUOUS
 10
11.0634616319
 20
9.1528046496
 11
11.1131377954
 21
9.1493595959
  0
LINE
  5
310
100
AcDbEntity
  8
0
100
AcDbLine
 62
4
  6
CONTINUOUS
 10
10.4093918142
 20
9.2312820051
 11
10.4535484224
 21
9.2282197339
  0
LINE
  5
311
100
AcDbEntity
  8
0
100
AcDbLine
 62
4
  6
CONTINUOUS
 10
11.0965790742
 20
9.2167428663
 11
11.0634616319
 21
9.2190395688
  0
LINE
  5
312
100
AcDbEntity
  8
0
100
AcDbLine
 62
4
  6
CONTINUOUS
 10
10.6301748829
 20
9.2490881069
 11
10.5970574129
 21
9.2513848112
  0
LINE
  5
313
100
AcDbEntity
  8
0
100
AcDbLine
 62
4
  6
CONTINUOUS
 10
10.2934807177
 20
9.3221141108
 11
10.3348775344
 21
9.3192432318
  0
LINE
  5
314
100
AcDbEntity
  8
0
100
AcDbLine
 62
4
  6
CONTINUOUS
 10
10.4977050306
 20
9.3079511066
 11
10.5639399429
 21
9.3033576998
  0
LINE
  5
315
100
AcDbEntity
  8
0
100
AcDbLine
 62
4
  6
CONTINUOUS
 10
10.5970574129
 20
9.3010609954
 11
10.646733604
 21
9.2976159399
  0
LINE
  5
316
100
AcDbEntity
  8
0
100
AcDbLine
 62
4
  6
CONTINUOUS
 10
10.7874828168
 20
9.2878549488
 11
10.8206002592
 21
9.2855582464
  0
LINE
  5
317
100
AcDbEntity
  8
0
100
AcDbLine
 62
4
  6
CONTINUOUS
 10
10.8840753662
 20
9.2811562328
 11
10.9089134756
 21
9.279433704
  0
LINE
  5
318
100
AcDbEntity
  8
0
100
AcDbLine
 62
4
  6
CONTINUOUS
 10
10.9585896391
 20
9.2759886504
 11
10.9999864696
 21
9.2731177704
  0
LINE
  5
319
100
AcDbEntity
  8
0
100
AcDbLine
 62
4
  6
CONTINUOUS
 10
11.0634616319
 20
9.268715753
 11
11.1131377954
 21
9.2652706994
  0
LINE
  5
31A
100
AcDbEntity
  8
0
100
AcDbLine
 62
4
  6
CONTINUOUS
 10
11.1462552377
 20
9.2188173887
 11
11.1904118459
 21
9.19367681
  0
LINE
  5
31B
100
AcDbEntity
  8
0
100
AcDbLine
 62
4
  6
CONTINUOUS
 10
10.5722193114
 20
9.860812695
 11
10.5804986719
 21
9.8519591519
  0
LINE
  5
31C
100
AcDbEntity
  8
0
100
AcDbLine
 62
4
  6
CONTINUOUS
 10
10.8012817406
 20
9.8449271616
 11
10.8068012959
 21
9.8362650116
  0
LINE
  5
31D
100
AcDbEntity
  8
0
100
AcDbLine
 62
7
  6
CONTINUOUS
 10
12.006743089
 20
6.092046329
 11
12.006743089
 21
5.4217781568
  0
LINE
  5
31E
100
AcDbEntity
  8
0
100
AcDbLine
 62
7
  6
CONTINUOUS
 10
12.0504460479
 20
6.0950771448
 11
12.0504460479
 21
5.4248089726
  0
LINE
  5
31F
100
AcDbEntity
  8
0
100
AcDbLine
 62
7
  6
CONTINUOUS
 10
12.6406805816
 20
9.2015330976
 11
12.6097709526
 21
9.2036766877
  0
LINE
  5
320
100
AcDbEntity
  8
0
100
AcDbLine
 62
4
  6
CONTINUOUS
 10
12.3934035437
 20
9.4102380753
 11
12.4513590954
 21
9.4062188442
  0
LINE
  5
321
100
AcDbEntity
  8
0
100
AcDbLine
 62
4
  6
CONTINUOUS
 10
10.7019293583
 20
9.7690236254
 11
10.6853706371
 21
9.7784513415
  0
LINE
  5
322
100
AcDbEntity
  8
0
100
AcDbLine
 62
4
  6
CONTINUOUS
 10
10.8592372923
 20
9.7581142831
 11
10.8426785711
 21
9.7675419992
  0
LINE
  5
323
100
AcDbEntity
  8
0
100
AcDbLine
 62
4
  6
CONTINUOUS
 10
10.925472177
 20
9.7618002432
 11
10.9337515652
 21
9.7529467007
  0
LINE
  5
324
100
AcDbEntity
  8
0
100
AcDbLine
 62
4
  6
CONTINUOUS
 10
11.0165452263
 20
9.7472049408
 11
11.0082658381
 21
9.7560584833
  0
LINE
  5
325
100
AcDbEntity
  8
0
100
AcDbLine
 62
4
  6
CONTINUOUS
 10
11.1352160521
 20
9.7389750911
 11
11.1269367191
 21
9.7478286297
  0
LINE
  5
326
100
AcDbEntity
  8
0
100
AcDbLine
 62
4
  6
CONTINUOUS
 10
11.2014510473
 20
9.7426610435
 11
11.2097303802
 21
9.7338075049
  0
LINE
  5
327
100
AcDbEntity
  8
0
100
AcDbLine
 62
4
  6
CONTINUOUS
 10
12.4006479876
 20
9.4387134473
 11
12.3934035437
 21
9.4102380753
  0
LINE
  5
328
100
AcDbEntity
  8
0
100
AcDbLine
 62
4
  6
CONTINUOUS
 10
11.6288732475
 20
6.2853622251
 11
11.6650954673
 21
6.3987613091
  0
LINE
  5
329
100
AcDbEntity
  8
0
100
AcDbLine
 62
4
  6
CONTINUOUS
 10
12.4151368756
 20
9.5246419671
 11
12.4296257635
 21
9.5236371593
  0
LINE
  5
32A
100
AcDbEntity
  8
0
100
AcDbLine
 62
7
  6
CONTINUOUS
 10
12.6406805816
 20
9.5807817273
 11
12.6097709526
 21
9.5829253173
  0
LINE
  5
32B
100
AcDbEntity
  8
0
100
AcDbLine
 62
4
  6
CONTINUOUS
 10
10.6136161419
 20
9.7475502859
 11
10.6301748631
 21
9.7464019347
  0
LINE
  5
32C
100
AcDbEntity
  8
0
100
AcDbLine
 62
4
  6
CONTINUOUS
 10
11.168333605
 20
9.736678381
 11
11.1352160521
 21
9.7389750911
  0
LINE
  5
32D
100
AcDbEntity
  8
0
100
AcDbLine
 62
4
  6
CONTINUOUS
 10
11.0331039474
 20
9.7460565896
 11
11.0165452263
 21
9.7472049408
  0
LINE
  5
32E
100
AcDbEntity
  8
0
100
AcDbLine
 62
4
  6
CONTINUOUS
 10
10.8923547346
 20
9.7558175807
 11
10.8592372923
 21
9.7581142831
  0
LINE
  5
32F
100
AcDbEntity
  8
0
100
AcDbLine
 62
4
  6
CONTINUOUS
 10
10.7350468006
 20
9.766726923
 11
10.7019293583
 21
9.7690236254
  0
LINE
  5
330
100
AcDbEntity
  8
0
100
AcDbLine
 62
4
  6
CONTINUOUS
 10
10.1748098143
 20
9.8055794899
 11
10.207927273
 21
9.8032827864
  0
LINE
  5
331
100
AcDbEntity
  8
0
100
AcDbLine
 62
4
  6
CONTINUOUS
 10
10.2741621853
 20
9.7986893796
 11
10.2990002878
 21
9.7969668513
  0
LINE
  5
332
100
AcDbEntity
  8
0
100
AcDbLine
 62
4
  6
CONTINUOUS
 10
10.9337515652
 20
9.7529467007
 11
10.9751483957
 21
9.7500758208
  0
LINE
  5
333
100
AcDbEntity
  8
0
100
AcDbLine
 62
4
  6
CONTINUOUS
 10
11.2097303802
 20
9.7338075049
 11
11.2428478226
 21
9.7315108025
  0
LINE
  5
334
100
AcDbEntity
  8
0
100
AcDbLine
 62
4
  6
CONTINUOUS
 10
10.8592372923
 20
9.7995111068
 11
10.8923547346
 21
9.7972144043
  0
LINE
  5
335
100
AcDbEntity
  8
0
100
AcDbLine
 62
4
  6
CONTINUOUS
 10
11.2428478226
 20
9.7701478381
 11
11.2097303802
 21
9.7779641166
  0
LINE
  5
336
100
AcDbEntity
  8
0
100
AcDbLine
 62
4
  6
CONTINUOUS
 10
11.2097303802
 20
9.7779641166
 11
11.2014510473
 21
9.7840578663
  0
LINE
  5
337
100
AcDbEntity
  8
0
100
AcDbLine
 62
4
  6
CONTINUOUS
 10
11.2511271555
 20
9.7640540884
 11
11.2428478226
 21
9.7701478381
  0
LINE
  5
338
100
AcDbEntity
  8
0
100
AcDbLine
 62
4
  6
CONTINUOUS
 10
11.2428478226
 20
9.8143044498
 11
11.2511271555
 21
9.8054509086
  0
LINE
  5
339
100
AcDbEntity
  8
0
100
AcDbLine
 62
4
  6
CONTINUOUS
 10
12.4513590954
 20
9.502811428
 11
12.4513590954
 21
9.4834929154
  0
LINE
  5
33A
100
AcDbEntity
  8
0
100
AcDbLine
 62
7
  6
CONTINUOUS
 10
12.5238228174
 20
6.0784083734
 11
12.5238228174
 21
5.5473278492
  0
LINE
  5
33B
100
AcDbEntity
  8
0
100
AcDbLine
 62
7
  6
CONTINUOUS
 10
12.535532981
 20
6.0775962708
 11
12.535532981
 21
5.5586389992
  0
LINE
  5
33C
100
AcDbEntity
  8
0
100
AcDbLine
 62
4
  6
CONTINUOUS
 10
11.4042954846
 20
6.3009367459
 11
11.4622510363
 21
6.4128286182
  0
LINE
  5
33D
100
AcDbEntity
  8
0
100
AcDbLine
 62
4
  6
CONTINUOUS
 10
11.2811399372
 20
6.3964109397
 11
11.2956288252
 21
6.4147246514
  0
LINE
  5
33E
100
AcDbEntity
  8
0
100
AcDbLine
 62
4
  6
CONTINUOUS
 10
10.8840754017
 20
9.8391854017
 11
10.8426785711
 21
9.8420562816
  0
LINE
  5
33F
100
AcDbEntity
  8
0
100
AcDbLine
 62
4
  6
CONTINUOUS
 10
10.5308224808
 20
9.8636835749
 11
10.5722193114
 21
9.860812695
  0
LINE
  5
340
100
AcDbEntity
  8
0
100
AcDbLine
 62
4
  6
CONTINUOUS
 10
10.7019293583
 20
9.8518172727
 11
10.7350468006
 21
9.8495205703
  0
LINE
  5
341
100
AcDbEntity
  8
0
100
AcDbLine
 62
4
  6
CONTINUOUS
 10
10.7681642982
 20
9.847223864
 11
10.8012817406
 21
9.8449271616
  0
LINE
  5
342
100
AcDbEntity
  8
0
100
AcDbLine
 62
4
  6
CONTINUOUS
 10
11.1352160521
 20
9.8217687384
 11
11.168333605
 21
9.8194720283
  0
LINE
  5
343
100
AcDbEntity
  8
0
100
AcDbLine
 62
4
  6
CONTINUOUS
 10
11.2097303802
 20
9.8166011522
 11
11.2428478226
 21
9.8143044498
  0
LINE
  5
344
100
AcDbEntity
  8
0
100
AcDbLine
 62
4
  6
CONTINUOUS
 10
10.1830891792
 20
9.9209164175
 11
10.216206637
 21
9.918619714
  0
LINE
  5
345
100
AcDbEntity
  8
0
100
AcDbLine
 62
4
  6
CONTINUOUS
 10
11.0827801109
 20
9.8585226394
 11
11.0855398886
 21
9.8583312482
  0
LINE
  5
346
100
AcDbEntity
  8
0
100
AcDbLine
 62
7
  6
CONTINUOUS
 10
13.2230229525
 20
9.7640326667
 11
13.1921133235
 21
9.7661762568
  0
LINE
  5
347
100
AcDbEntity
  8
0
100
AcDbLine
 62
7
  6
CONTINUOUS
 10
12.6097709526
 20
9.5829253173
 11
12.6097709526
 21
9.2036766877
  0
LINE
  5
348
100
AcDbEntity
  8
0
100
AcDbLine
 62
7
  6
CONTINUOUS
 10
12.6406805816
 20
6.0703042599
 11
12.6406805816
 21
9.2015330976
  0
LINE
  5
349
100
AcDbEntity
  8
0
100
AcDbLine
 62
7
  6
CONTINUOUS
 10
12.6406805816
 20
9.5807817273
 11
12.6406805816
 21
10.7791929421
  0
LINE
  5
34A
100
AcDbEntity
  8
0
100
AcDbLine
 62
4
  6
CONTINUOUS
 10
11.3463399329
 20
6.3242744949
 11
11.3390954889
 21
6.3151176399
  0
LINE
  5
34B
100
AcDbEntity
  8
0
100
AcDbLine
 62
7
  6
CONTINUOUS
 10
13.2230229525
 20
10.1432812964
 11
13.1921133235
 21
10.1454248865
  0
LINE
  5
34C
100
AcDbEntity
  8
0
100
AcDbLine
 62
4
  6
CONTINUOUS
 10
12.4296257635
 20
9.5236371593
 11
12.4441146514
 21
9.5129730952
  0
LINE
  5
34D
100
AcDbEntity
  8
0
100
AcDbLine
 62
4
  6
CONTINUOUS
 10
12.4441146514
 20
9.5129730952
 11
12.4513590954
 21
9.502811428
  0
LINE
  5
34E
100
AcDbEntity
  8
0
100
AcDbLine
 62
4
  6
CONTINUOUS
 10
11.2956288252
 20
6.4147246514
 11
11.3101177131
 21
6.4233791
  0
LINE
  5
34F
100
AcDbEntity
  8
0
100
AcDbLine
 62
4
  6
CONTINUOUS
 10
11.3390954889
 20
6.3151176399
 11
11.324606601
 21
6.3064631887
  0
LINE
  5
350
100
AcDbEntity
  8
0
100
AcDbLine
 62
7
  6
CONTINUOUS
 10
13.1921133235
 20
10.1454248865
 11
13.1921133235
 21
9.7661762568
  0
LINE
  5
351
100
AcDbEntity
  8
0
100
AcDbLine
 62
7
  6
CONTINUOUS
 10
13.2230229525
 20
6.632803829
 11
13.2230229525
 21
9.7640326667
  0
LINE
  5
352
100
AcDbEntity
  8
0
100
AcDbLine
 62
7
  6
CONTINUOUS
 10
13.2230229525
 20
10.1432812964
 11
13.2230229525
 21
11.3416925112
  0
LINE
  5
353
100
AcDbEntity
  8
0
100
AcDbLine
 62
7
  6
CONTINUOUS
 10
8.7769770475
 20
11.0471416922
 11
12.6406805816
 21
10.7791929421
  0
LINE
  5
354
100
AcDbEntity
  8
0
100
AcDbLine
 62
7
  6
CONTINUOUS
 10
12.6406805816
 20
6.0703042599
 11
13.2230229525
 21
6.632803829
  0
LINE
  5
355
100
AcDbEntity
  8
0
100
AcDbLine
 62
7
  6
CONTINUOUS
 10
13.2230229525
 20
11.3416925112
 11
9.3593194184
 21
11.6096412614
  0
LINE
  5
356
100
AcDbEntity
  8
0
100
AcDbLine
 62
7
  6
CONTINUOUS
 10
12.4256921191
 20
5.4918190902
 11
12.3943701002
 21
5.4763466126
  0
ARC
  5
357
100
AcDbEntity
  8
0
100
AcDbCircle
 62
7
  6
CONTINUOUS
 10
11.8573024354
 20
8.5635148481
 40
2.4759824616
100
AcDbArc
 50
273.460253038
 51
274.4740090323
  0
ARC
  5
358
100
AcDbEntity
  8
0
100
AcDbCircle
 62
7
  6
CONTINUOUS
 10
11.8573024354
 20
7.8932466759
 40
2.4759824616
100
AcDbArc
 50
273.460253038
 51
274.4740090323
  0
ARC
  5
359
100
AcDbEntity
  8
0
100
AcDbCircle
 62
7
  6
CONTINUOUS
 10
11.8750377591
 20
8.3502263162
 40
2.2619606214
100
AcDbArc
 50
274.447581771
 51
276.8642058763
  0
ARC
  5
35A
100
AcDbEntity
  8
0
100
AcDbCircle
 62
7
  6
CONTINUOUS
 10
11.6151590737
 20
7.1883176153
 40
1.0819211298
100
AcDbArc
 50
254.6141230724
 51
256.3642747627
  0
ARC
  5
35B
100
AcDbEntity
  8
0
100
AcDbCircle
 62
7
  6
CONTINUOUS
 10
11.6151590737
 20
6.518049443
 40
1.0819211298
100
AcDbArc
 50
254.6141230724
 51
256.3642747627
  0
ARC
  5
35C
100
AcDbEntity
  8
0
100
AcDbCircle
 62
7
  6
CONTINUOUS
 10
12.0472825527
 20
6.2562632949
 40
0.8529760664
100
AcDbArc
 50
293.9893580621
 51
296.3103566126
  0
ARC
  5
35D
100
AcDbEntity
  8
0
100
AcDbCircle
 62
7
  6
CONTINUOUS
 10
12.6645378619
 20
8.9979584363
 40
0.1483973765
100
AcDbArc
 50
312.5707934515
 51
314.0112856919
  0
ARC
  5
35E
100
AcDbEntity
  8
0
100
AcDbCircle
 62
7
  6
CONTINUOUS
 10
12.4347981966
 20
5.6516340374
 40
0.137131922
100
AcDbArc
 50
310.4805308012
 51
313.9817446454
  0
LINE
  5
35F
100
AcDbEntity
  8
0
100
AcDbLine
 62
7
  6
CONTINUOUS
 10
12.535532981
 20
5.5586389992
 11
12.5300265995
 21
5.5529592418
  0
SPLINE
  5
360
100
AcDbEntity
  8
0
100
AcDbSpline
 62
7
  6
CONTINUOUS
 70
0
 71
3
 72
9
 73
5
 74
0
 42
0.0000001
 43
0.0000001
 44
0.0000000001
 40
0.0
 40
0.0
 40
0.0
 40
0.0
 40
0.518682247
 40
1.0
 40
1.0
 40
1.0
 40
1.0
 10
11.3281054197
 20
6.1451716375
 30
0.0
 10
11.316897754
 20
6.1482637037
 30
0.0
 10
11.2953928397
 20
6.154608199
 30
0.0
 10
11.274170842
 20
6.1618525079
 30
0.0
 10
11.2640534415
 20
6.1655991536
 30
0.0
  0
SPLINE
  5
361
100
AcDbEntity
  8
0
100
AcDbSpline
 62
7
  6
CONTINUOUS
 70
0
 71
3
 72
9
 73
5
 74
0
 42
0.0000001
 43
0.0000001
 44
0.0000000001
 40
0.0
 40
0.0
 40
0.0
 40
0.0
 40
0.5046586347
 40
1.0
 40
1.0
 40
1.0
 40
1.0
 10
12.5238228174
 20
5.5473278492
 30
0.0
 10
12.5077250751
 20
5.5371675546
 30
0.0
 10
12.4753982731
 20
5.5177021675
 30
0.0
 10
12.4421004152
 20
5.4999285462
 30
0.0
 10
12.4253498896
 20
5.4916501517
 30
0.0
  0
SPLINE
  5
362
100
AcDbEntity
  8
0
100
AcDbSpline
 62
7
  6
CONTINUOUS
 70
0
 71
3
 72
21
 73
17
 74
0
 42
0.0000001
 43
0.0000001
 44
0.0000000001
 40
0.0
 40
0.0
 40
0.0
 40
0.0
 40
0.0657553467
 40
0.1321662899
 40
0.2659621551
 40
0.3995159223
 40
0.465614643
 40
0.5309502794
 40
0.5952940513
 40
0.6584222057
 40
0.7201168181
 40
0.7801667949
 40
0.8383677172
 40
0.8945262406
 40
0.948465955
 40
1.0
 40
1.0
 40
1.0
 40
1.0
 10
12.006743089
 20
6.092046329
 30
0.0
 10
11.9925150291
 20
6.091184538
 30
0.0
 10
11.9639019011
 20
6.0896926901
 30
0.0
 10
11.9062827894
 20
6.0876298354
 30
0.0
 10
11.833923633
 20
6.0867838953
 30
0.0
 10
11.7616415279
 20
6.088224131
 30
0.0
 10
11.7042526072
 20
6.0907629935
 30
0.0
 10
11.6618888712
 20
6.0933378173
 30
0.0
 10
11.6202168415
 20
6.0965799806
 30
0.0
 10
11.5793935923
 20
6.1004768902
 30
0.0
 10
11.5395730307
 20
6.1050138074
 30
0.0
 10
11.5009054963
 20
6.1101736511
 30
0.0
 10
11.4635367868
 20
6.1159362115
 30
0.0
 10
11.4276062614
 20
6.1222801022
 30
0.0
 10
11.3932513766
 20
6.129181046
 30
0.0
 10
11.3709541049
 20
6.1342554382
 30
0.0
 10
11.360098215
 20
6.1368913033
 30
0.0
  0
SPLINE
  5
363
100
AcDbEntity
  8
0
100
AcDbSpline
 62
7
  6
CONTINUOUS
 70
0
 71
3
 72
22
 73
18
 74
0
 42
0.0000001
 43
0.0000001
 44
0.0000000001
 40
0.0
 40
0.0
 40
0.0
 40
0.0
 40
0.0433496817
 40
0.0887204749
 40
0.1363684807
 40
0.186508223
 40
0.2393133424
 40
0.294902398
 40
0.3533490798
 40
0.4146723839
 40
0.4788530316
 40
0.5458283755
 40
0.6155092985
 40
0.6877791091
 40
0.7625074527
 40
0.8395533511
 40
1.0
 40
1.0
 40
1.0
 40
1.0
 10
11.277818628
 20
5.485328053
 30
0.0
 10
11.2751956526
 20
5.4866227645
 30
0.0
 10
11.2699293586
 20
5.4894837655
 30
0.0
 10
11.2621794105
 20
5.4944580601
 30
0.0
 10
11.2544190961
 20
5.500222416
 30
0.0
 10
11.2466535602
 20
5.5067857615
 30
0.0
 10
11.2388889604
 20
5.5141518307
 30
0.0
 10
11.2311293648
 20
5.5223146128
 30
0.0
 10
11.223381119
 20
5.53126265
 30
0.0
 10
11.2156476919
 20
5.5409755686
 30
0.0
 10
11.2079347328
 20
5.5514285078
 30
0.0
 10
11.2002449535
 20
5.5625899582
 30
0.0
 10
11.1925826586
 20
5.5744256432
 30
0.0
 10
11.1849496855
 20
5.5868975249
 30
0.0
 10
11.1773485409
 20
5.5999668361
 30
0.0
 10
11.167119204
 20
5.6183856802
 30
0.0
 10
11.159711821
 20
5.6326002687
 30
0.0
 10
11.1548373152
 20
5.6422673162
 30
0.0
  0
SPLINE
  5
364
100
AcDbEntity
  8
0
100
AcDbSpline
 62
7
  6
CONTINUOUS
 70
0
 71
3
 72
45
 73
41
 74
0
 42
0.0000001
 43
0.0000001
 44
0.0000000001
 40
0.0
 40
0.0
 40
0.0
 40
0.0
 40
0.0099874845
 40
0.0204477797
 40
0.0313772346
 40
0.0427709417
 40
0.0546220642
 40
0.0669226974
 40
0.0928353048
 40
0.1204259654
 40
0.1495972168
 40
0.1802393364
 40
0.2122321962
 40
0.2454472552
 40
0.2797477509
 40
0.3149906372
 40
0.3510273529
 40
0.3877044296
 40
0.4248650626
 40
0.4623495452
 40
0.4999964221
 40
0.5376433582
 40
0.575127933
 40
0.6122887496
 40
0.6489660315
 40
0.6850029789
 40
0.7202462826
 40
0.7545471433
 40
0.7877626678
 40
0.8197560782
 40
0.8503986535
 40
0.8795706031
 40
0.9071618935
 40
0.9330751181
 40
0.9453761802
 40
0.9572277353
 40
0.9686216429
 40
0.9795514157
 40
0.9900121412
 40
1.0
 40
1.0
 40
1.0
 40
1.0
 10
12.3943722805
 20
5.4763477026
 30
0.0
 10
12.3910315331
 20
5.4746974486
 30
0.0
 10
12.3841348072
 20
5.4714334293
 30
0.0
 10
12.3734080948
 20
5.4667423333
 30
0.0
 10
12.3620715277
 20
5.4621478388
 30
0.0
 10
12.350138103
 20
5.4576557666
 30
0.0
 10
12.3376216063
 20
5.453270857
 30
0.0
 10
12.3198650248
 20
5.4474731613
 30
0.0
 10
12.2963016138
 20
5.4405608753
 30
0.0
 10
12.2664169583
 20
5.4329068662
 30
0.0
 10
12.2345890896
 20
5.4257926738
 30
0.0
 10
12.2009645463
 20
5.4192514336
 30
0.0
 10
12.1656978318
 20
5.4133135524
 30
0.0
 10
12.1289513813
 20
5.4080073196
 30
0.0
 10
12.0908946084
 20
5.4033572171
 30
0.0
 10
12.0517030974
 20
5.3993850177
 30
0.0
 10
12.0115577181
 20
5.3961096013
 30
0.0
 10
11.9706438457
 20
5.3935458441
 30
0.0
 10
11.9291504531
 20
5.3917059991
 30
0.0
 10
11.8872691745
 20
5.3905986803
 30
0.0
 10
11.8451934843
 20
5.3902287535
 30
0.0
 10
11.8031177557
 20
5.3905983448
 30
0.0
 10
11.7612363476
 20
5.3917054803
 30
0.0
 10
11.7197427582
 20
5.3935449239
 30
0.0
 10
11.6788286374
 20
5.3961084383
 30
0.0
 10
11.6386829222
 20
5.399383641
 30
0.0
 10
11.5994909898
 20
5.4033554386
 30
0.0
 10
11.5614337282
 20
5.4080053863
 30
0.0
 10
11.5246867192
 20
5.4133113435
 30
0.0
 10
11.4894193915
 20
5.4192488989
 30
0.0
 10
11.4557941834
 20
5.4257900471
 30
0.0
 10
11.4239655563
 20
5.4329038913
 30
0.0
 10
11.3940801039
 20
5.4405577208
 30
0.0
 10
11.3705160145
 20
5.4474699123
 30
0.0
 10
11.3527588096
 20
5.4532674714
 30
0.0
 10
11.3402418259
 20
5.4576521924
 30
0.0
 10
11.3283080329
 20
5.4621442941
 30
0.0
 10
11.3169710197
 20
5.4667386238
 30
0.0
 10
11.3062437584
 20
5.4714295125
 30
0.0
 10
11.2993467137
 20
5.4746935644
 30
0.0
 10
11.2960058288
 20
5.4763438553
 30
0.0
  0
SPLINE
  5
365
100
AcDbEntity
  8
0
100
AcDbSpline
 62
7
  6
CONTINUOUS
 70
0
 71
3
 72
21
 73
17
 74
0
 42
0.0000001
 43
0.0000001
 44
0.0000000001
 40
0.0
 40
0.0
 40
0.0
 40
0.0
 40
0.1229777811
 40
0.1846429776
 40
0.2464399426
 40
0.3083804861
 40
0.3704752478
 40
0.4327329846
 40
0.4951582956
 40
0.5577522644
 40
0.6205120304
 40
0.6834304833
 40
0.7464981609
 40
0.8097030992
 40
0.8730318006
 40
1.0
 40
1.0
 40
1.0
 40
1.0
 10
12.006743089
 20
5.4217781568
 30
0.0
 10
11.9803576264
 20
5.4164159913
 30
0.0
 10
11.9405269503
 20
5.4093489723
 30
0.0
 10
11.8870254734
 20
5.4023099815
 30
0.0
 10
11.8466219316
 20
5.3983193637
 30
0.0
 10
11.8060099859
 20
5.3957249491
 30
0.0
 10
11.7652284738
 20
5.3946146801
 30
0.0
 10
11.7243275115
 20
5.3950583841
 30
0.0
 10
11.683365307
 20
5.3970980495
 30
0.0
 10
11.6424044749
 20
5.4007440714
 30
0.0
 10
11.6015075997
 20
5.4059769908
 30
0.0
 10
11.5607324385
 20
5.4127464518
 30
0.0
 10
11.5201282822
 20
5.4209756042
 30
0.0
 10
11.4797334657
 20
5.4305710418
 30
0.0
 10
11.4261486918
 20
5.4450567009
 30
0.0
 10
11.3864015852
 20
5.457629359
 30
0.0
 10
11.360098215
 20
5.4666231311
 30
0.0
  0
SPLINE
  5
366
100
AcDbEntity
  8
0
100
AcDbSpline
 62
7
  6
CONTINUOUS
 70
0
 71
3
 72
11
 73
7
 74
0
 42
0.0000001
 43
0.0000001
 44
0.0000000001
 40
0.0
 40
0.0
 40
0.0
 40
0.0
 40
0.2458763181
 40
0.4934036376
 40
0.7441674805
 40
1.0
 40
1.0
 40
1.0
 40
1.0
 10
11.3281054197
 20
5.4749034653
 30
0.0
 10
11.3254837261
 20
5.4747688759
 30
0.0
 10
11.3202108198
 20
5.4746872525
 30
0.0
 10
11.3122724283
 20
5.475173207
 30
0.0
 10
11.3042930335
 20
5.4763119738
 30
0.0
 10
11.2990134211
 20
5.4775211189
 30
0.0
 10
11.296378658
 20
5.4782414083
 30
0.0
  0
SPLINE
  5
367
100
AcDbEntity
  8
0
100
AcDbSpline
 62
7
  6
CONTINUOUS
 70
0
 71
3
 72
9
 73
5
 74
0
 42
0.0000001
 43
0.0000001
 44
0.0000000001
 40
0.0
 40
0.0
 40
0.0
 40
0.0
 40
0.489721828
 40
1.0
 40
1.0
 40
1.0
 40
1.0
 10
11.296378658
 20
5.4782414083
 30
0.0
 10
11.2932467476
 20
5.4790976074
 30
0.0
 10
11.2869347784
 20
5.4811645841
 30
0.0
 10
11.2808523066
 20
5.4838306167
 30
0.0
 10
11.277818628
 20
5.485328053
 30
0.0
  0
LINE
  5
368
100
AcDbEntity
  8
0
100
AcDbLine
 62
7
  6
CONTINUOUS
 10
12.3940744364
 20
5.4769664584
 11
12.3932010958
 21
5.4765790578
  0
SPLINE
  5
369
100
AcDbEntity
  8
0
100
AcDbSpline
 62
7
  6
CONTINUOUS
 70
0
 71
3
 72
15
 73
11
 74
0
 42
0.0000001
 43
0.0000001
 44
0.0000000001
 40
0.0
 40
0.0
 40
0.0
 40
0.0
 40
0.1323376899
 40
0.2620788828
 40
0.389339691
 40
0.5143818274
 40
0.6375722641
 40
0.7593203908
 40
0.880018331
 40
1.0
 40
1.0
 40
1.0
 40
1.0
 10
12.3932010958
 20
5.4765790578
 30
0.0
 10
12.3790430667
 20
5.4703089294
 30
0.0
 10
12.3506334324
 20
5.4587050835
 30
0.0
 10
12.3073861914
 20
5.4442792692
 30
0.0
 10
12.2640455032
 20
5.433171639
 30
0.0
 10
12.2207587336
 20
5.4254216549
 30
0.0
 10
12.1776650519
 20
5.4209279006
 30
0.0
 10
12.1348755802
 20
5.4194710574
 30
0.0
 10
12.0924633568
 20
5.420755029
 30
0.0
 10
12.064395043
 20
5.4232254156
 30
0.0
 10
12.0504460479
 20
5.4248089726
 30
0.0
  0
SPLINE
  5
36A
100
AcDbEntity
  8
0
100
AcDbSpline
 62
7
  6
CONTINUOUS
 70
0
 71
3
 72
21
 73
17
 74
0
 42
0.0000001
 43
0.0000001
 44
0.0000000001
 40
0.0
 40
0.0
 40
0.0
 40
0.0
 40
0.132148599
 40
0.2658325108
 40
0.3326809035
 40
0.3992270385
 40
0.4652432816
 40
0.530504688
 40
0.5947891673
 40
0.6578796301
 40
0.7195639398
 40
0.7796368012
 40
0.8379006822
 40
0.8941662584
 40
0.9482553592
 40
1.0
 40
1.0
 40
1.0
 40
1.0
 10
12.0175486692
 20
6.1132823831
 30
0.0
 10
11.986517974
 20
6.1114614637
 30
0.0
 10
11.9240315946
 20
6.1088307765
 30
0.0
 10
11.8457693671
 20
6.1080014786
 30
0.0
 10
11.7829499973
 20
6.1088087474
 30
0.0
 10
11.7360616272
 20
6.1101505705
 30
0.0
 10
11.6895736045
 20
6.1122236255
 30
0.0
 10
11.643656337
 20
6.1150198778
 30
0.0
 10
11.5984782432
 20
6.1185295733
 30
0.0
 10
11.5542049811
 20
6.1227391084
 30
0.0
 10
11.5109988657
 20
6.1276333593
 30
0.0
 10
11.4690182106
 20
6.1331940078
 30
0.0
 10
11.4284168543
 20
6.1394002986
 30
0.0
 10
11.3893433371
 20
6.1462297125
 30
0.0
 10
11.3519409907
 20
6.15365611
 30
0.0
 10
11.327648795
 20
6.1591136079
 30
0.0
 10
11.3158120114
 20
6.1619479856
 30
0.0
  0
SPLINE
  5
36B
100
AcDbEntity
  8
0
100
AcDbSpline
 62
7
  6
CONTINUOUS
 70
0
 71
3
 72
90
 73
86
 74
0
 42
0.0000001
 43
0.0000001
 44
0.0000000001
 40
0.0
 40
0.0
 40
0.0
 40
0.0
 40
0.0039801841
 40
0.0081241159
 40
0.0124359656
 40
0.0169193153
 40
0.0215771898
 40
0.0264119289
 40
0.0314251936
 40
0.0366181713
 40
0.0419915567
 40
0.0475456772
 40
0.0532804457
 40
0.0591954437
 40
0.0652899501
 40
0.0715629317
 40
0.0846386004
 40
0.098409911
 40
0.1128604817
 40
0.1279710074
 40
0.1437195982
 40
0.1600820565
 40
0.1770321086
 40
0.194541602
 40
0.2125806763
 40
0.2311179203
 40
0.2501205135
 40
0.2695543567
 40
0.2893841934
 40
0.3095737255
 40
0.3300857245
 40
0.3508821382
 40
0.3719241976
 40
0.3931725218
 40
0.4145872201
 40
0.4361279928
 40
0.4577542316
 40
0.4794251191
 40
0.5010997291
 40
0.5227371263
 40
0.5442964667
 40
0.5657370967
 40
0.5870186529
 40
0.608101162
 40
0.6289451422
 40
0.6495117057
 40
0.6697626638
 40
0.6896606308
 40
0.7091691309
 40
0.728252709
 40
0.7468770455
 40
0.7650090769
 40
0.7826171262
 40
0.7996710429
 40
0.8161423523
 40
0.8320044245
 40
0.8472326669
 40
0.8618047498
 40
0.8757008734
 40
0.8889040964
 40
0.8952416854
 40
0.9014012239
 40
0.9073816029
 40
0.9131819719
 40
0.9188018178
 40
0.9242409106
 40
0.9294994338
 40
0.9345779311
 40
0.9394774185
 40
0.9441994036
 40
0.9487459354
 40
0.9531197203
 40
0.9573241226
 40
0.9613633439
 40
0.9652424353
 40
0.9689674716
 40
0.9725456352
 40
0.9759853336
 40
0.9824864943
 40
0.9855753483
 40
0.9885738142
 40
0.9914977336
 40
0.9943643342
 40
0.9971920087
 40
1.0
 40
1.0
 40
1.0
 40
1.0
 10
10.9101688928
 20
11.2006469102
 30
0.0
 10
10.9086200902
 20
11.1991508816
 30
0.0
 10
10.9053884313
 20
11.1961694055
 30
0.0
 10
10.9002575507
 20
11.1918147351
 30
0.0
 10
10.8947498906
 20
11.1874913012
 30
0.0
 10
10.8888684723
 20
11.1832013996
 30
0.0
 10
10.8826161632
 20
11.1789470335
 30
0.0
 10
10.8759960268
 20
11.174730273
 30
0.0
 10
10.8690113742
 20
11.1705531396
 30
0.0
 10
10.8616656708
 20
11.1664178011
 30
0.0
 10
10.8539626261
 20
11.1623262424
 30
0.0
 10
10.8459060693
 20
11.158280569
 30
0.0
 10
10.8375000511
 20
11.1542827684
 30
0.0
 10
10.8287487902
 20
11.1503348696
 30
0.0
 10
10.8196566696
 20
11.1464388511
 30
0.0
 10
10.8069087195
 20
11.1412440206
 30
0.0
 10
10.7901440936
 20
11.1349084204
 30
0.0
 10
10.7690120904
 20
11.1276445676
 30
0.0
 10
10.7466388293
 20
11.1206329266
 30
0.0
 10
10.7230694223
 20
11.1138877493
 30
0.0
 10
10.6983511869
 20
11.1074227635
 30
0.0
 10
10.6725339158
 20
11.101251136
 30
0.0
 10
10.6456696521
 20
11.0953854396
 30
0.0
 10
10.617812606
 20
11.0898376259
 30
0.0
 10
10.5890190297
 20
11.0846189937
 30
0.0
 10
10.5593470973
 20
11.0797401695
 30
0.0
 10
10.5288567795
 20
11.0752110861
 30
0.0
 10
10.4976097176
 20
11.0710409627
 30
0.0
 10
10.4656690964
 20
11.0672382864
 30
0.0
 10
10.4330995141
 20
11.0638107954
 30
0.0
 10
10.3999668511
 20
11.0607654645
 30
0.0
 10
10.3663381354
 20
11.0581084868
 30
0.0
 10
10.3322814051
 20
11.0558452642
 30
0.0
 10
10.297865568
 20
11.0539803979
 30
0.0
 10
10.263160261
 20
11.0525176793
 30
0.0
 10
10.2282357093
 20
11.0514600826
 30
0.0
 10
10.1931625835
 20
11.0508097584
 30
0.0
 10
10.158011857
 20
11.0505680309
 30
0.0
 10
10.1228546612
 20
11.0507353911
 30
0.0
 10
10.0877621404
 20
11.051311497
 30
0.0
 10
10.0528053069
 20
11.0522951767
 30
0.0
 10
10.0180548969
 20
11.0536844301
 30
0.0
 10
9.9835812275
 20
11.0554764332
 30
0.0
 10
9.9494540541
 20
11.0576675435
 30
0.0
 10
9.9157424283
 20
11.0602533074
 30
0.0
 10
9.8825145561
 20
11.0632284668
 30
0.0
 10
9.8498376577
 20
11.0665869684
 30
0.0
 10
9.8177778314
 20
11.0703219795
 30
0.0
 10
9.786399919
 20
11.0744259004
 30
0.0
 10
9.7557673731
 20
11.0788903796
 30
0.0
 10
9.725942127
 20
11.0837063303
 30
0.0
 10
9.6969844657
 20
11.0888639491
 30
0.0
 10
9.6689528979
 20
11.0943527336
 30
0.0
 10
9.6419040311
 20
11.100161502
 30
0.0
 10
9.6158924546
 20
11.1062784205
 30
0.0
 10
9.5909706142
 20
11.1126910279
 30
0.0
 10
9.5671887258
 20
11.1193862635
 30
0.0
 10
9.5445945551
 20
11.1263505001
 30
0.0
 10
9.5232336701
 20
11.1335695761
 30
0.0
 10
9.5062723148
 20
11.1398685858
 30
0.0
 10
9.4933629747
 20
11.1450353228
 30
0.0
 10
9.4841480352
 20
11.1489119984
 30
0.0
 10
9.4752723036
 20
11.1528412393
 30
0.0
 10
9.4667402438
 20
11.1568211402
 30
0.0
 10
9.4585561243
 20
11.1608496253
 30
0.0
 10
9.450724074
 20
11.1649247475
 30
0.0
 10
9.4432479916
 20
11.1690443951
 30
0.0
 10
9.436131634
 20
11.1732065632
 30
0.0
 10
9.4293785466
 20
11.1774091613
 30
0.0
 10
9.4229920871
 20
11.1816501004
 30
0.0
 10
9.4169754593
 20
11.1859273451
 30
0.0
 10
9.4113316136
 20
11.1902387414
 30
0.0
 10
9.4060634071
 20
11.1945823013
 30
0.0
 10
9.4011734199
 20
11.1989558647
 30
0.0
 10
9.3966641179
 20
11.2033574833
 30
0.0
 10
9.392537866
 20
11.2077849403
 30
0.0
 10
9.3887964455
 20
11.2122367441
 30
0.0
 10
9.384407406
 20
11.2180903527
 30
0.0
 10
9.3806803968
 20
11.2241017404
 30
0.0
 10
9.3777213136
 20
11.2302414863
 30
0.0
 10
9.3759334487
 20
11.2347822865
 30
0.0
 10
9.3745411732
 20
11.2393341354
 30
0.0
 10
9.3735456286
 20
11.2438948217
 30
0.0
 10
9.3729479152
 20
11.2484610942
 30
0.0
 10
9.3728148517
 20
11.251511722
 30
0.0
 10
9.3728148519
 20
11.2530308908
 30
0.0
  0
SPLINE
  5
36C
100
AcDbEntity
  8
0
100
AcDbSpline
 62
7
  6
CONTINUOUS
 70
0
 71
3
 72
19
 73
15
 74
0
 42
0.0000001
 43
0.0000001
 44
0.0000000001
 40
0.0
 40
0.0
 40
0.0
 40
0.0
 40
0.12732766
 40
0.2538196711
 40
0.3795264658
 40
0.5045235362
 40
0.5668075958
 40
0.6289556124
 40
0.6909843715
 40
0.7529118454
 40
0.8147570127
 40
0.8765397119
 40
0.9382804145
 40
1.0
 40
1.0
 40
1.0
 40
1.0
 10
10.4219488272
 20
6.586396036
 30
0.0
 10
10.4219488272
 20
6.5801440401
 30
0.0
 10
10.4213518992
 20
6.5676724799
 30
0.0
 10
10.418652219
 20
6.5492047629
 30
0.0
 10
10.4141761725
 20
6.5312019437
 30
0.0
 10
10.4089910369
 20
6.5167050004
 30
0.0
 10
10.4040043558
 20
6.5055140711
 30
0.0
 10
10.399857584
 20
6.4973468626
 30
0.0
 10
10.3953098851
 20
6.4894163359
 30
0.0
 10
10.3903716096
 20
6.4817405204
 30
0.0
 10
10.385054151
 20
6.4743372369
 30
0.0
 10
10.3793697636
 20
6.4672234398
 30
0.0
 10
10.3733317365
 20
6.4604157992
 30
0.0
 10
10.3690790927
 20
6.4560911639
 30
0.0
 10
10.3668993679
 20
6.4539857123
 30
0.0
  0
SPLINE
  5
36D
100
AcDbEntity
  8
0
100
AcDbSpline
 62
7
  6
CONTINUOUS
 70
0
 71
3
 72
19
 73
15
 74
0
 42
0.0000001
 43
0.0000001
 44
0.0000000001
 40
0.0
 40
0.0
 40
0.0
 40
0.0
 40
0.12732766
 40
0.2538196711
 40
0.3795264658
 40
0.5045235362
 40
0.5668075958
 40
0.6289556124
 40
0.6909843715
 40
0.7529118454
 40
0.8147570127
 40
0.8765397119
 40
0.9382804145
 40
1.0
 40
1.0
 40
1.0
 40
1.0
 10
11.3878747107
 20
10.503853118
 30
0.0
 10
11.3878747107
 20
10.4976011221
 30
0.0
 10
11.3872777827
 20
10.4851295619
 30
0.0
 10
11.3845781025
 20
10.4666618449
 30
0.0
 10
11.380102056
 20
10.4486590256
 30
0.0
 10
11.3749169204
 20
10.4341620824
 30
0.0
 10
11.3699302393
 20
10.4229711531
 30
0.0
 10
11.3657834675
 20
10.4148039446
 30
0.0
 10
11.3612357686
 20
10.4068734179
 30
0.0
 10
11.3562974931
 20
10.3991976024
 30
0.0
 10
11.3509800345
 20
10.3917943189
 30
0.0
 10
11.3452956471
 20
10.3846805218
 30
0.0
 10
11.33925762
 20
10.3778728812
 30
0.0
 10
11.3350049762
 20
10.3735482459
 30
0.0
 10
11.3328252515
 20
10.3714427943
 30
0.0
  0
SPLINE
  5
36E
100
AcDbEntity
  8
0
100
AcDbSpline
 62
7
  6
CONTINUOUS
 70
0
 71
3
 72
9
 73
5
 74
0
 42
0.0000001
 43
0.0000001
 44
0.0000000001
 40
0.0
 40
0.0
 40
0.0
 40
0.0
 40
0.4971081108
 40
1.0
 40
1.0
 40
1.0
 40
1.0
 10
9.831825462
 20
8.4130511843
 30
0.0
 10
9.8280821329
 20
8.4041811055
 30
0.0
 10
9.8212840614
 20
8.386018637
 30
0.0
 10
9.816137698
 20
8.3673135139
 30
0.0
 10
9.8140162137
 20
8.3578077499
 30
0.0
  0
SPLINE
  5
36F
100
AcDbEntity
  8
0
100
AcDbSpline
 62
7
  6
CONTINUOUS
 70
0
 71
3
 72
15
 73
11
 74
0
 42
0.0000001
 43
0.0000001
 44
0.0000000001
 40
0.0
 40
0.0
 40
0.0
 40
0.0
 40
0.1225169065
 40
0.245739827
 40
0.3696668077
 40
0.4943068598
 40
0.6196612522
 40
0.7457302571
 40
0.8725118335
 40
1.0
 40
1.0
 40
1.0
 40
1.0
 10
9.8140162137
 20
8.3578077499
 30
0.0
 10
9.8129788941
 20
8.353159818
 30
0.0
 10
9.8111210961
 20
8.3437856741
 30
0.0
 10
9.809035001
 20
8.3295627423
 30
0.0
 10
9.8076895714
 20
8.3151668454
 30
0.0
 10
9.8071342633
 20
8.3006353099
 30
0.0
 10
9.8074191639
 20
8.286011894
 30
0.0
 10
9.8085938328
 20
8.2713483661
 30
0.0
 10
9.8107058326
 20
8.2567062225
 30
0.0
 10
9.8127631629
 20
8.2470299617
 30
0.0
 10
9.8139602378
 20
8.2422212061
 30
0.0
  0
SPLINE
  5
370
100
AcDbEntity
  8
0
100
AcDbSpline
 62
7
  6
CONTINUOUS
 70
0
 71
3
 72
23
 73
19
 74
0
 42
0.0000001
 43
0.0000001
 44
0.0000000001
 40
0.0
 40
0.0
 40
0.0
 40
0.0
 40
0.0591162758
 40
0.1187403273
 40
0.1788581503
 40
0.2394535389
 40
0.300510931
 40
0.3620155229
 40
0.423954695
 40
0.4863187914
 40
0.5491015882
 40
0.6123001602
 40
0.6759137811
 40
0.7399418324
 40
0.8043807816
 40
0.8692203142
 40
0.9344389883
 40
1.0
 40
1.0
 40
1.0
 40
1.0
 10
9.8564476817
 20
8.2265540904
 30
0.0
 10
9.8585824725
 20
8.2218809373
 30
0.0
 10
9.8632517679
 20
8.2126629954
 30
0.0
 10
9.8714200048
 20
8.1994167688
 30
0.0
 10
9.8807829419
 20
8.186822568
 30
0.0
 10
9.8913170011
 20
8.1750212414
 30
0.0
 10
9.9029769697
 20
8.1641515306
 30
0.0
 10
9.9156952995
 20
8.154347556
 30
0.0
 10
9.929383459
 20
8.1457339723
 30
0.0
 10
9.9439341458
 20
8.1384222931
 30
0.0
 10
9.959224251
 20
8.1325076283
 30
0.0
 10
9.9751183515
 20
8.1280664624
 30
0.0
 10
9.9914722331
 20
8.125155036
 30
0.0
 10
10.0081363935
 20
8.1238083205
 30
0.0
 10
10.024959182
 20
8.124039203
 30
0.0
 10
10.0417906626
 20
8.1258385677
 30
0.0
 10
10.0584832073
 20
8.1291745592
 30
0.0
 10
10.0694048075
 20
8.1323813875
 30
0.0
 10
10.0747983626
 20
8.1342182806
 30
0.0
  0
SPLINE
  5
371
100
AcDbEntity
  8
0
100
AcDbSpline
 62
7
  6
CONTINUOUS
 70
0
 71
3
 72
19
 73
15
 74
0
 42
0.0000001
 43
0.0000001
 44
0.0000000001
 40
0.0
 40
0.0
 40
0.0
 40
0.0
 40
0.1273276594
 40
0.2538196703
 40
0.3795264652
 40
0.5045235359
 40
0.5668075957
 40
0.6289556126
 40
0.6909843719
 40
0.7529118459
 40
0.8147570133
 40
0.8765397124
 40
0.9382804148
 40
1.0
 40
1.0
 40
1.0
 40
1.0
 10
10.0853125273
 20
8.1978598813
 30
0.0
 10
10.0853125273
 20
8.1913615049
 30
0.0
 10
10.0846920757
 20
8.1783984615
 30
0.0
 10
10.0818860072
 20
8.1592029629
 30
0.0
 10
10.0772335698
 20
8.1404906823
 30
0.0
 10
10.0718440996
 20
8.1254224379
 30
0.0
 10
10.0666609045
 20
8.1137904918
 30
0.0
 10
10.0623507177
 20
8.1053014262
 30
0.0
 10
10.057623804
 20
8.0970583695
 30
0.0
 10
10.0524909219
 20
8.0890800614
 30
0.0
 10
10.0469639139
 20
8.081385025
 30
0.0
 10
10.0410555171
 20
8.073990883
 30
0.0
 10
10.0347795445
 20
8.0669149623
 30
0.0
 10
10.0303593131
 20
8.0624198985
 30
0.0
 10
10.0280936901
 20
8.0602314736
 30
0.0
  0
SPLINE
  5
372
100
AcDbEntity
  8
0
100
AcDbSpline
 62
7
  6
CONTINUOUS
 70
0
 71
3
 72
42
 73
38
 74
0
 42
0.0000001
 43
0.0000001
 44
0.0000000001
 40
0.0
 40
0.0
 40
0.0
 40
0.0
 40
0.0310747056
 40
0.0466742377
 40
0.0623121031
 40
0.0936967548
 40
0.1252253866
 40
0.1568866096
 40
0.188666234
 40
0.220547657
 40
0.2525122025
 40
0.2845395218
 40
0.3166080091
 40
0.3486952389
 40
0.3807784134
 40
0.4128348152
 40
0.4448422591
 40
0.4767795367
 40
0.5086268466
 40
0.5403662047
 40
0.5719818277
 40
0.6034604811
 40
0.6347917865
 40
0.6659684788
 40
0.6969866066
 40
0.7278456677
 40
0.7585486729
 40
0.7891021331
 40
0.8195159634
 40
0.8498033031
 40
0.8649073458
 40
0.8799860274
 40
0.9100712977
 40
0.9400857963
 40
0.9550764681
 40
0.9700580355
 40
1.0
 40
1.0
 40
1.0
 40
1.0
 10
10.0853125273
 20
8.1978598813
 30
0.0
 10
10.0853125273
 20
8.2029107282
 30
0.0
 10
10.0850301933
 20
8.2105009177
 30
0.0
 10
10.0840977595
 20
8.2205876343
 30
0.0
 10
10.0827912366
 20
8.2306840145
 30
0.0
 10
10.080462188
 20
8.2432496931
 30
0.0
 10
10.076577357
 20
8.2581360296
 30
0.0
 10
10.0716203906
 20
8.2727685172
 30
0.0
 10
10.0656186806
 20
8.2870663518
 30
0.0
 10
10.0586052674
 20
8.3009512013
 30
0.0
 10
10.0506187361
 20
8.3143468409
 30
0.0
 10
10.0417029869
 20
8.3271797787
 30
0.0
 10
10.0319069989
 20
8.3393795967
 30
0.0
 10
10.0212845633
 20
8.3508793482
 30
0.0
 10
10.0098939899
 20
8.3616159169
 30
0.0
 10
9.9977977907
 20
8.3715303611
 30
0.0
 10
9.9850623405
 20
8.3805682335
 30
0.0
 10
9.9717575164
 20
8.3886798779
 30
0.0
 10
9.9579563191
 20
8.3958206998
 30
0.0
 10
9.9437344778
 20
8.4019514099
 30
0.0
 10
9.9291700395
 20
8.4070382399
 30
0.0
 10
9.9143429471
 20
8.4110531284
 30
0.0
 10
9.899334607
 20
8.4139738773
 30
0.0
 10
9.8842274474
 20
8.4157842768
 30
0.0
 10
9.8691044757
 20
8.4164742018
 30
0.0
 10
9.8540488116
 20
8.4160396666
 30
0.0
 10
9.8391432957
 20
8.4144828841
 30
0.0
 10
9.8244698091
 20
8.4118121582
 30
0.0
 10
9.8101096637
 20
8.4080422393
 30
0.0
 10
9.7984570183
 20
8.403997127
 30
0.0
 10
9.7893743215
 20
8.4002353198
 30
0.0
 10
9.7804755061
 20
8.3961349001
 30
0.0
 10
9.769685626
 20
8.3903711668
 30
0.0
 10
9.7593960758
 20
8.3837818003
 30
0.0
 10
9.7515103265
 20
8.378043628
 30
0.0
 10
9.7438680139
 20
8.3720048778
 30
0.0
 10
9.7384110604
 20
8.3671380289
 30
0.0
 10
9.7349106416
 20
8.3637568822
 30
0.0
  0
SPLINE
  5
373
100
AcDbEntity
  8
0
100
AcDbSpline
 62
7
  6
CONTINUOUS
 70
0
 71
3
 72
14
 73
10
 74
0
 42
0.0000001
 43
0.0000001
 44
0.0000000001
 40
0.0
 40
0.0
 40
0.0
 40
0.0
 40
0.0675152758
 40
0.133947464
 40
0.2640516477
 40
0.3911877847
 40
0.5160040059
 40
0.7604175266
 40
1.0
 40
1.0
 40
1.0
 40
1.0
 10
9.8139602378
 20
8.2422212061
 30
0.0
 10
9.8148206328
 20
8.2416627407
 30
0.0
 10
9.8165480341
 20
8.2405858436
 30
0.0
 10
9.8200254238
 20
8.2385842157
 30
0.0
 10
9.8244058399
 20
8.2363417004
 30
0.0
 10
9.8297232315
 20
8.2340066065
 30
0.0
 10
9.8367823728
 20
8.2313452313
 30
0.0
 10
9.8456616791
 20
8.2287083607
 30
0.0
 10
9.8528628385
 20
8.2271850285
 30
0.0
 10
9.8564476817
 20
8.2265540904
 30
0.0
  0
SPLINE
  5
374
100
AcDbEntity
  8
0
100
AcDbSpline
 62
7
  6
CONTINUOUS
 70
0
 71
3
 72
23
 73
19
 74
0
 42
0.0000001
 43
0.0000001
 44
0.0000000001
 40
0.0
 40
0.0
 40
0.0
 40
0.0
 40
0.0673044181
 40
0.1347589678
 40
0.2021899803
 40
0.2694229002
 40
0.3362843184
 40
0.4026018818
 40
0.4682050784
 40
0.5329257585
 40
0.5965987319
 40
0.6590623572
 40
0.7201591478
 40
0.7797363933
 40
0.8376468027
 40
0.8937491836
 40
0.9479091672
 40
1.0
 40
1.0
 40
1.0
 40
1.0
 10
12.6406805816
 20
9.5807817273
 30
0.0
 10
12.6415715565
 20
9.6006976394
 30
0.0
 10
12.6436199303
 20
9.6405625509
 30
0.0
 10
12.6474787195
 20
9.7003292045
 30
0.0
 10
12.6521191786
 20
9.7600191223
 30
0.0
 10
12.6575285399
 20
9.8194678504
 30
0.0
 10
12.6636918621
 20
9.8785115945
 30
0.0
 10
12.6705921407
 20
9.9369877449
 30
0.0
 10
12.6782103151
 20
9.9947352391
 30
0.0
 10
12.6865253374
 20
10.0515950409
 30
0.0
 10
12.6955142227
 20
10.1074105729
 30
0.0
 10
12.7051521147
 20
10.1620281563
 30
0.0
 10
12.7154123493
 20
10.2152974362
 30
0.0
 10
12.7262665313
 20
10.2670718164
 30
0.0
 10
12.7376846005
 20
10.3172088273
 30
0.0
 10
12.749634955
 20
10.3655706874
 30
0.0
 10
12.7620843887
 20
10.4120241412
 30
0.0
 10
12.7708715816
 20
10.4422475967
 30
0.0
 10
12.7753520926
 20
10.457012242
 30
0.0
  0
SPLINE
  5
375
100
AcDbEntity
  8
0
100
AcDbSpline
 62
7
  6
CONTINUOUS
 70
0
 71
3
 72
39
 73
35
 74
0
 42
0.0000001
 43
0.0000001
 44
0.0000000001
 40
0.0
 40
0.0
 40
0.0
 40
0.0
 40
0.0977777158
 40
0.1450171497
 40
0.1911239038
 40
0.2360751567
 40
0.2798496564
 40
0.3224274984
 40
0.3637905866
 40
0.4039224098
 40
0.4428085014
 40
0.4804363495
 40
0.5167957607
 40
0.5518790087
 40
0.5856810653
 40
0.6182000431
 40
0.6494373312
 40
0.6793983321
 40
0.7080926202
 40
0.7355349269
 40
0.7617455058
 40
0.7867512989
 40
0.8105866977
 40
0.8332948449
 40
0.8549288755
 40
0.8755532823
 40
0.8855121066
 40
0.8952487385
 40
0.9141001611
 40
0.932217532
 40
0.949722959
 40
0.9667535301
 40
0.983459277
 40
1.0
 40
1.0
 40
1.0
 40
1.0
 10
12.7753520926
 20
10.457012242
 30
0.0
 10
12.7795872163
 20
10.4709682612
 30
0.0
 10
12.7860974245
 20
10.4915988232
 30
0.0
 10
12.7951842507
 20
10.5186203761
 30
0.0
 10
12.8020125098
 20
10.5380865268
 30
0.0
 10
12.8089275762
 20
10.55697255
 30
0.0
 10
12.8159247978
 20
10.5752658722
 30
0.0
 10
12.8229995302
 20
10.5929542443
 30
0.0
 10
12.8301469672
 20
10.6100258664
 30
0.0
 10
12.837362374
 20
10.62646933
 30
0.0
 10
12.8446408687
 20
10.6422736794
 30
0.0
 10
12.8519776117
 20
10.6574283764
 30
0.0
 10
12.8593676838
 20
10.6719233396
 30
0.0
 10
12.866806147
 20
10.6857489397
 30
0.0
 10
12.8742880758
 20
10.6988959957
 30
0.0
 10
12.8818084573
 20
10.7113558234
 30
0.0
 10
12.8893623855
 20
10.7231201673
 30
0.0
 10
12.8969448191
 20
10.7341813152
 30
0.0
 10
12.904550895
 20
10.7445319613
 30
0.0
 10
12.9121756184
 20
10.7541653722
 30
0.0
 10
12.919814197
 20
10.7630752062
 30
0.0
 10
12.9274617861
 20
10.7712556803
 30
0.0
 10
12.9351136927
 20
10.778701381
 30
0.0
 10
12.9427653881
 20
10.7854074235
 30
0.0
 10
12.9504120831
 20
10.7913690452
 30
0.0
 10
12.9568503452
 20
10.7957635051
 30
0.0
 10
12.9619906426
 20
10.7988877746
 30
0.0
 10
12.9670103559
 20
10.8016935986
 30
0.0
 10
12.973280793
 20
10.8047471054
 30
0.0
 10
12.9808647145
 20
10.8076909867
 30
0.0
 10
12.9884214449
 20
10.8098710481
 30
0.0
 10
12.9959454365
 20
10.8112840232
 30
0.0
 10
13.0034294199
 20
10.8119272385
 30
0.0
 10
13.008398191
 20
10.8118415743
 30
0.0
 10
13.0108594849
 20
10.8116708914
 30
0.0
  0
SPLINE
  5
376
100
AcDbEntity
  8
0
100
AcDbSpline
 62
7
  6
CONTINUOUS
 70
0
 71
3
 72
18
 73
14
 74
0
 42
0.0000001
 43
0.0000001
 44
0.0000000001
 40
0.0
 40
0.0
 40
0.0
 40
0.0
 40
0.0548620589
 40
0.1099280789
 40
0.165399508
 40
0.2214731255
 40
0.2783387361
 40
0.3361775086
 40
0.4554063416
 40
0.5804417492
 40
0.7123343341
 40
0.8519577333
 40
1.0
 40
1.0
 40
1.0
 40
1.0
 10
10.9368148519
 20
11.2530308908
 30
0.0
 10
10.9368148517
 20
11.2519264886
 30
0.0
 10
10.936744743
 20
11.2497129442
 30
0.0
 10
10.9364295594
 20
11.2463962289
 30
0.0
 10
10.9359044327
 20
11.2430814249
 30
0.0
 10
10.9351695362
 20
11.2397697428
 30
0.0
 10
10.9342251547
 20
11.2364620188
 30
0.0
 10
10.9326718586
 20
11.2320140166
 30
0.0
 10
10.9301835046
 20
11.2264507569
 30
0.0
 10
10.9263960747
 20
11.2198805259
 30
0.0
 10
10.9217831902
 20
11.2133528223
 30
0.0
 10
10.9163518695
 20
11.2068741977
 30
0.0
 10
10.912312393
 20
11.2027173724
 30
0.0
 10
10.9101688928
 20
11.2006469102
 30
0.0
  0
SPLINE
  5
377
100
AcDbEntity
  8
0
100
AcDbSpline
 62
7
  6
CONTINUOUS
 70
0
 71
3
 72
42
 73
38
 74
0
 42
0.0000001
 43
0.0000001
 44
0.0000000001
 40
0.0
 40
0.0
 40
0.0
 40
0.0
 40
0.0299419644
 40
0.0449235317
 40
0.0599142035
 40
0.0899287023
 40
0.1200139727
 40
0.1350926544
 40
0.1501966973
 40
0.1804840373
 40
0.210897868
 40
0.2414513286
 40
0.2721543342
 40
0.3030133956
 40
0.3340315238
 40
0.3652082165
 40
0.3965395222
 40
0.4280181758
 40
0.459633799
 40
0.4913731572
 40
0.5232204671
 40
0.5551577446
 40
0.5871651885
 40
0.6192215901
 40
0.6513047644
 40
0.683391994
 40
0.715460481
 40
0.7474877999
 40
0.7794523452
 40
0.8113337678
 40
0.8431133918
 40
0.8747746145
 40
0.906303246
 40
0.9376878974
 40
0.9533257627
 40
0.9689252947
 40
1.0
 40
1.0
 40
1.0
 40
1.0
 10
10.0848323777
 20
6.7460031579
 30
0.0
 10
10.08820008
 20
6.7492561073
 30
0.0
 10
10.0934501359
 20
6.753938428
 30
0.0
 10
10.1008026938
 20
6.7597482168
 30
0.0
 10
10.1083894585
 20
6.7652688239
 30
0.0
 10
10.1182888844
 20
6.7716083516
 30
0.0
 10
10.1286696701
 20
6.7771535497
 30
0.0
 10
10.1372310898
 20
6.7810984994
 30
0.0
 10
10.1459694189
 20
6.7847176749
 30
0.0
 10
10.1571802575
 20
6.7886094134
 30
0.0
 10
10.1709959415
 20
6.7922363917
 30
0.0
 10
10.185113086
 20
6.7948058529
 30
0.0
 10
10.1994534621
 20
6.7963036057
 30
0.0
 10
10.2139382932
 20
6.7967216613
 30
0.0
 10
10.2284878796
 20
6.7960578907
 30
0.0
 10
10.2430222532
 20
6.7943161283
 30
0.0
 10
10.2574615537
 20
6.7915061156
 30
0.0
 10
10.2717264783
 20
6.7876434477
 30
0.0
 10
10.285738707
 20
6.782749481
 30
0.0
 10
10.2994213282
 20
6.776851213
 30
0.0
 10
10.3126992537
 20
6.7699811318
 30
0.0
 10
10.325499626
 20
6.762177037
 30
0.0
 10
10.337752212
 20
6.7534818322
 30
0.0
 10
10.3493897841
 20
6.743943291
 30
0.0
 10
10.3603484841
 20
6.7336137962
 30
0.0
 10
10.3705681701
 20
6.7225500549
 30
0.0
 10
10.3799927432
 20
6.7108127902
 30
0.0
 10
10.3885704518
 20
6.6984664106
 30
0.0
 10
10.3962541736
 20
6.6855786642
 30
0.0
 10
10.4030016732
 20
6.6722202563
 30
0.0
 10
10.4087758282
 20
6.6584645218
 30
0.0
 10
10.4135448511
 20
6.6443868227
 30
0.0
 10
10.4172823886
 20
6.6300648994
 30
0.0
 10
10.4195231313
 20
6.6179756468
 30
0.0
 10
10.4207801173
 20
6.6082620694
 30
0.0
 10
10.4216771979
 20
6.5985577892
 30
0.0
 10
10.4219488272
 20
6.5912553807
 30
0.0
 10
10.4219488272
 20
6.586396036
 30
0.0
  0
SPLINE
  5
378
100
AcDbEntity
  8
0
100
AcDbSpline
 62
7
  6
CONTINUOUS
 70
0
 71
3
 72
42
 73
38
 74
0
 42
0.0000001
 43
0.0000001
 44
0.0000000001
 40
0.0
 40
0.0
 40
0.0
 40
0.0
 40
0.0299419644
 40
0.0449235317
 40
0.0599142035
 40
0.0899287023
 40
0.1200139727
 40
0.1350926544
 40
0.1501966973
 40
0.1804840373
 40
0.210897868
 40
0.2414513286
 40
0.2721543342
 40
0.3030133956
 40
0.3340315238
 40
0.3652082165
 40
0.3965395222
 40
0.4280181758
 40
0.459633799
 40
0.4913731572
 40
0.5232204671
 40
0.5551577446
 40
0.5871651885
 40
0.6192215901
 40
0.6513047644
 40
0.683391994
 40
0.715460481
 40
0.7474877999
 40
0.7794523452
 40
0.8113337678
 40
0.8431133918
 40
0.8747746145
 40
0.906303246
 40
0.9376878974
 40
0.9533257627
 40
0.9689252947
 40
1.0
 40
1.0
 40
1.0
 40
1.0
 10
11.0507582612
 20
10.6634602399
 30
0.0
 10
11.0541259636
 20
10.6667131893
 30
0.0
 10
11.0593760195
 20
10.67139551
 30
0.0
 10
11.0667285774
 20
10.6772052988
 30
0.0
 10
11.074315342
 20
10.6827259059
 30
0.0
 10
11.084214768
 20
10.6890654336
 30
0.0
 10
11.0945955536
 20
10.6946106317
 30
0.0
 10
11.1031569733
 20
10.6985555814
 30
0.0
 10
11.1118953024
 20
10.7021747569
 30
0.0
 10
11.123106141
 20
10.7060664954
 30
0.0
 10
11.136921825
 20
10.7096934737
 30
0.0
 10
11.1510389695
 20
10.7122629349
 30
0.0
 10
11.1653793457
 20
10.7137606877
 30
0.0
 10
11.1798641767
 20
10.7141787433
 30
0.0
 10
11.1944137632
 20
10.7135149726
 30
0.0
 10
11.2089481368
 20
10.7117732103
 30
0.0
 10
11.2233874372
 20
10.7089631976
 30
0.0
 10
11.2376523618
 20
10.7051005297
 30
0.0
 10
11.2516645906
 20
10.700206563
 30
0.0
 10
11.2653472117
 20
10.694308295
 30
0.0
 10
11.2786251373
 20
10.6874382138
 30
0.0
 10
11.2914255095
 20
10.679634119
 30
0.0
 10
11.3036780956
 20
10.6709389142
 30
0.0
 10
11.3153156676
 20
10.661400373
 30
0.0
 10
11.3262743676
 20
10.6510708782
 30
0.0
 10
11.3364940537
 20
10.6400071369
 30
0.0
 10
11.3459186267
 20
10.6282698722
 30
0.0
 10
11.3544963353
 20
10.6159234926
 30
0.0
 10
11.3621800572
 20
10.6030357462
 30
0.0
 10
11.3689275567
 20
10.5896773383
 30
0.0
 10
11.3747017117
 20
10.5759216038
 30
0.0
 10
11.3794707346
 20
10.5618439046
 30
0.0
 10
11.3832082722
 20
10.5475219814
 30
0.0
 10
11.3854490148
 20
10.5354327288
 30
0.0
 10
11.3867060008
 20
10.5257191513
 30
0.0
 10
11.3876030814
 20
10.5160148712
 30
0.0
 10
11.3878747107
 20
10.5087124627
 30
0.0
 10
11.3878747107
 20
10.503853118
 30
0.0
  0
SPLINE
  5
379
100
AcDbEntity
  8
0
100
AcDbSpline
 62
7
  6
CONTINUOUS
 70
0
 71
3
 72
39
 73
35
 74
0
 42
0.0000001
 43
0.0000001
 44
0.0000000001
 40
0.0
 40
0.0
 40
0.0
 40
0.0
 40
0.0165407398
 40
0.0332464872
 40
0.0502770289
 40
0.0677824387
 40
0.0858997403
 40
0.1047511392
 40
0.1144877223
 40
0.1244465062
 40
0.1450708822
 40
0.1667048279
 40
0.1894129311
 40
0.2132482695
 40
0.2382540023
 40
0.2644645547
 40
0.2919067883
 40
0.3206010824
 40
0.350562009
 40
0.3817993241
 40
0.4143182449
 40
0.4481203348
 40
0.4832035596
 40
0.5195629985
 40
0.5571908654
 40
0.5960769749
 40
0.6362088581
 40
0.6775719579
 40
0.7201498925
 40
0.7639244084
 40
0.808875772
 40
0.8549825621
 40
0.9022221095
 40
1.0
 40
1.0
 40
1.0
 40
1.0
 10
12.8528440492
 20
8.5331435026
 30
0.0
 10
12.8503827456
 20
8.5333141861
 30
0.0
 10
12.8454496857
 20
8.533915113
 30
0.0
 10
12.8381261017
 20
8.5355851898
 30
0.0
 10
12.8308691175
 20
8.5380230933
 30
0.0
 10
12.8236856423
 20
8.5412253761
 30
0.0
 10
12.8165806038
 20
8.5451878054
 30
0.0
 10
12.8107916922
 20
8.5490776377
 30
0.0
 10
12.8062072914
 20
8.5525494424
 30
0.0
 10
12.8015474312
 20
8.5563533121
 30
0.0
 10
12.7957773903
 20
8.5615944104
 30
0.0
 10
12.7890267499
 20
8.5685544254
 30
0.0
 10
12.7823739611
 20
8.5762524704
 30
0.0
 10
12.775823041
 20
8.5846831111
 30
0.0
 10
12.7693778195
 20
8.5938409027
 30
0.0
 10
12.763042231
 20
8.6037198489
 30
0.0
 10
12.7568201933
 20
8.614313517
 30
0.0
 10
12.7507157005
 20
8.6256150147
 30
0.0
 10
12.7447326184
 20
8.637616927
 30
0.0
 10
12.7388749211
 20
8.6503114026
 30
0.0
 10
12.7331463721
 20
8.6636900577
 30
0.0
 10
12.7275508411
 20
8.6777440785
 30
0.0
 10
12.722091971
 20
8.6924641429
 30
0.0
 10
12.7167734608
 20
8.707840496
 30
0.0
 10
12.7115988243
 20
8.7238629097
 30
0.0
 10
12.7065715485
 20
8.7405207221
 30
0.0
 10
12.701695005
 20
8.7578028304
 30
0.0
 10
12.6969724489
 20
8.7756977041
 30
0.0
 10
12.6924070906
 20
8.7941933966
 30
0.0
 10
12.6880019472
 20
8.8132775517
 30
0.0
 10
12.6837600499
 20
8.8329374005
 30
0.0
 10
12.6796841531
 20
8.8531598455
 30
0.0
 10
12.6744142753
 20
8.8811771727
 30
0.0
 10
12.6708141457
 20
8.9025089924
 30
0.0
 10
12.6685459878
 20
8.9169160811
 30
0.0
  0
SPLINE
  5
37A
100
AcDbEntity
  8
0
100
AcDbSpline
 62
7
  6
CONTINUOUS
 70
0
 71
3
 72
15
 73
11
 74
0
 42
0.0000001
 43
0.0000001
 44
0.0000000001
 40
0.0
 40
0.0
 40
0.0
 40
0.0
 40
0.1144370625
 40
0.2321830352
 40
0.3531000287
 40
0.4770437582
 40
0.603864199
 40
0.7334042205
 40
0.8655064971
 40
1.0
 40
1.0
 40
1.0
 40
1.0
 10
12.6685459878
 20
8.9169160811
 30
0.0
 10
12.6668486856
 20
8.9276971572
 30
0.0
 10
12.6635860757
 20
8.9495998974
 30
0.0
 10
12.6591371605
 20
8.9829810696
 30
0.0
 10
12.6550678777
 20
9.0173238098
 30
0.0
 10
12.6513839651
 20
9.0525801767
 30
0.0
 10
12.6480906217
 20
9.0887009709
 30
0.0
 10
12.6451924194
 20
9.1256360882
 30
0.0
 10
12.6426935244
 20
9.1633336833
 30
0.0
 10
12.6413079377
 20
9.1887218015
 30
0.0
 10
12.6406805816
 20
9.2015330976
 30
0.0
  0
SPLINE
  5
37B
100
AcDbEntity
  8
0
100
AcDbSpline
 62
7
  6
CONTINUOUS
 70
0
 71
3
 72
88
 73
84
 74
0
 42
0.0000001
 43
0.0000001
 44
0.0000000001
 40
0.0
 40
0.0
 40
0.0
 40
0.0
 40
0.0027966175
 40
0.0056681401
 40
0.0086296516
 40
0.0116947649
 40
0.0148755579
 40
0.0181826392
 40
0.0216252291
 40
0.0252112369
 40
0.0289474362
 40
0.0328395074
 40
0.0368922286
 40
0.0411095203
 40
0.0454945683
 40
0.0500499185
 40
0.0547775009
 40
0.0596787722
 40
0.0647546799
 40
0.070005794
 40
0.0754322915
 40
0.0810340108
 40
0.0868105064
 40
0.0927610144
 40
0.0988845616
 40
0.1051798946
 40
0.1182795988
 40
0.1320465688
 40
0.1464640165
 40
0.1615126658
 40
0.1771710227
 40
0.1934155997
 40
0.2102211013
 40
0.2275605903
 40
0.2454056353
 40
0.2637264405
 40
0.282491965
 40
0.3016700338
 40
0.3212274415
 40
0.3411300511
 40
0.3613428935
 40
0.3818302625
 40
0.4025558061
 40
0.4234826173
 40
0.4445733228
 40
0.4657901713
 40
0.5084492914
 40
0.551154415
 40
0.5724286672
 40
0.5935995544
 40
0.6146291415
 40
0.6354798184
 40
0.656114388
 40
0.6764961544
 40
0.6965890131
 40
0.7163575413
 40
0.7357670914
 40
0.7547838891
 40
0.7733751297
 40
0.7915090791
 40
0.8091551808
 40
0.8262841697
 40
0.8428681957
 40
0.8588809614
 40
0.8742978763
 40
0.8890962264
 40
0.9032553761
 40
0.9167570092
 40
0.9295854225
 40
0.9357432691
 40
0.9417283281
 40
0.9475395317
 40
0.9531761009
 40
0.9586375087
 40
0.9639235327
 40
0.9690343064
 40
0.9739702854
 40
0.9787323581
 40
0.9833218228
 40
0.9877405845
 40
0.9919911388
 40
0.996076453
 40
1.0
 40
1.0
 40
1.0
 40
1.0
 10
12.826962927
 20
8.8221813452
 30
0.0
 10
12.8254189545
 20
8.8227272251
 30
0.0
 10
12.8223341517
 20
8.823963561
 30
0.0
 10
12.8178002443
 20
8.8262054008
 30
0.0
 10
12.8133080165
 20
8.8288542335
 30
0.0
 10
12.8088599529
 20
8.8319082628
 30
0.0
 10
12.8044577811
 20
8.8353656352
 30
0.0
 10
12.8001033673
 20
8.8392244435
 30
0.0
 10
12.7957985391
 20
8.8434827126
 30
0.0
 10
12.7915450303
 20
8.8481382683
 30
0.0
 10
12.7873447354
 20
8.8531889273
 30
0.0
 10
12.7831993827
 20
8.8586322232
 30
0.0
 10
12.7791108674
 20
8.8644656368
 30
0.0
 10
12.7750809839
 20
8.8706864047
 30
0.0
 10
12.7711115569
 20
8.8772916099
 30
0.0
 10
12.7672044525
 20
8.8842781682
 30
0.0
 10
12.7633614118
 20
8.8916427663
 30
0.0
 10
12.7595843129
 20
8.8993819645
 30
0.0
 10
12.7558748561
 20
8.9074920816
 30
0.0
 10
12.7522348464
 20
8.915969298
 30
0.0
 10
12.7486659903
 20
8.9248095887
 30
0.0
 10
12.7451699707
 20
8.9340087551
 30
0.0
 10
12.7417484981
 20
8.9435624345
 30
0.0
 10
12.7384031498
 20
8.953466065
 30
0.0
 10
12.7351355656
 20
8.9637149549
 30
0.0
 10
12.7308273744
 20
8.978024073
 30
0.0
 10
12.7256620723
 20
8.9967465344
 30
0.0
 10
12.7198770166
 20
9.0202218662
 30
0.0
 10
12.7144371916
 20
9.0449492615
 30
0.0
 10
12.709353101
 20
9.070881486
 30
0.0
 10
12.7046345965
 20
9.0979691886
 30
0.0
 10
12.7002908197
 20
9.1261606728
 30
0.0
 10
12.6963301857
 20
9.155402102
 30
0.0
 10
12.6927603661
 20
9.1856375864
 30
0.0
 10
12.689588277
 20
9.2168093082
 30
0.0
 10
12.6868200649
 20
9.2488576362
 30
0.0
 10
12.6844610956
 20
9.2817212451
 30
0.0
 10
12.6825159444
 20
9.3153372343
 30
0.0
 10
12.6809883881
 20
9.3496412501
 30
0.0
 10
12.6798813926
 20
9.3845676098
 30
0.0
 10
12.6791971132
 20
9.4200494317
 30
0.0
 10
12.6789368917
 20
9.4560187645
 30
0.0
 10
12.6791012512
 20
9.4924067243
 30
0.0
 10
12.679689907
 20
9.5291436044
 30
0.0
 10
12.6807017228
 20
9.5661590926
 30
0.0
 10
12.6826159814
 20
9.6158775307
 30
0.0
 10
12.6860505034
 20
9.678199594
 30
0.0
 10
12.690846636
 20
9.740465366
 30
0.0
 10
12.6954953446
 20
9.7901109646
 30
0.0
 10
12.6993706426
 20
9.8270784518
 30
0.0
 10
12.703631406
 20
9.8637537787
 30
0.0
 10
12.7082694916
 20
9.900066748
 30
0.0
 10
12.7132759868
 20
9.9359477987
 30
0.0
 10
12.7186412818
 20
9.9713282165
 30
0.0
 10
12.7243550732
 20
10.0061402454
 30
0.0
 10
12.730406387
 20
10.0403172234
 30
0.0
 10
12.736783599
 20
10.0737937118
 30
0.0
 10
12.7434744516
 20
10.1065056245
 30
0.0
 10
12.7504660822
 20
10.1383903516
 30
0.0
 10
12.7577450478
 20
10.1693868801
 30
0.0
 10
12.7652973498
 20
10.1994359124
 30
0.0
 10
12.773108461
 20
10.2284799833
 30
0.0
 10
12.7811633549
 20
10.2564635761
 30
0.0
 10
12.7894465327
 20
10.2833332359
 30
0.0
 10
12.7979420526
 20
10.3090376901
 30
0.0
 10
12.8066335681
 20
10.3335279243
 30
0.0
 10
12.8155043676
 20
10.3567573919
 30
0.0
 10
12.8245374004
 20
10.3786817538
 30
0.0
 10
12.8322876926
 20
10.3960591513
 30
0.0
 10
12.8385667104
 20
10.4092656391
 30
0.0
 10
12.8432414245
 20
10.4186832813
 30
0.0
 10
12.8479437021
 20
10.4277446586
 30
0.0
 10
12.8526712902
 20
10.4364454798
 30
0.0
 10
12.8574219393
 20
10.4447816036
 30
0.0
 10
12.8621934133
 20
10.4527490667
 30
0.0
 10
12.8669834046
 20
10.4603441157
 30
0.0
 10
12.8717897145
 20
10.4675631159
 30
0.0
 10
12.8766099829
 20
10.4744026801
 30
0.0
 10
12.8814420152
 20
10.4808595641
 30
0.0
 10
12.8862835705
 20
10.4869307808
 30
0.0
 10
12.8911324936
 20
10.4926135196
 30
0.0
 10
12.8959863294
 20
10.4979048402
 30
0.0
 10
12.8992896265
 20
10.5012360285
 30
0.0
 10
12.900942138
 20
10.5028322322
 30
0.0
  0
SPLINE
  5
37C
100
AcDbEntity
  8
0
100
AcDbSpline
 62
7
  6
CONTINUOUS
 70
0
 71
3
 72
15
 73
11
 74
0
 42
0.0000001
 43
0.0000001
 44
0.0000000001
 40
0.0
 40
0.0
 40
0.0
 40
0.0
 40
0.1084409744
 40
0.220319507
 40
0.33639155
 40
0.4573226107
 40
0.5836917926
 40
0.7159966397
 40
0.854655225
 40
1.0
 40
1.0
 40
1.0
 40
1.0
 10
12.9453298602
 20
10.5289725743
 30
0.0
 10
12.9434814659
 20
10.5285952787
 30
0.0
 10
12.9397606681
 20
10.5276491629
 30
0.0
 10
12.9342333144
 20
10.525706252
 30
0.0
 10
12.9286880723
 20
10.5232228576
 30
0.0
 10
12.9231288058
 20
10.520201774
 30
0.0
 10
12.9175584386
 20
10.5166454185
 30
0.0
 10
12.9119798842
 20
10.5125564929
 30
0.0
 10
12.9063965276
 20
10.507938006
 30
0.0
 10
12.9027607806
 20
10.5045889061
 30
0.0
 10
12.900942138
 20
10.5028322322
 30
0.0
  0
SPLINE
  5
37D
100
AcDbEntity
  8
0
100
AcDbSpline
 62
7
  6
CONTINUOUS
 70
0
 71
3
 72
77
 73
73
 74
0
 42
0.0000001
 43
0.0000001
 44
0.0000000001
 40
0.0
 40
0.0
 40
0.0
 40
0.0
 40
0.0037575318
 40
0.0076595222
 40
0.0117089172
 40
0.0159082426
 40
0.0202596765
 40
0.0247649812
 40
0.0294254051
 40
0.0342418298
 40
0.039214821
 40
0.0443446246
 40
0.0496312588
 40
0.0550744527
 40
0.0664279743
 40
0.0783993159
 40
0.0909792672
 40
0.1041561171
 40
0.1179159447
 40
0.1322428772
 40
0.1471192957
 40
0.1625260014
 40
0.1784423481
 40
0.1948463644
 40
0.2117148761
 40
0.2290236045
 40
0.2467472535
 40
0.2648595828
 40
0.2833334972
 40
0.3021411248
 40
0.3212538878
 40
0.340642566
 40
0.3602773644
 40
0.3801279875
 40
0.4203528452
 40
0.4610677677
 40
0.5020188736
 40
0.5429504074
 40
0.5836067709
 40
0.6237345453
 40
0.6435224161
 40
0.663085149
 40
0.6823925942
 40
0.7014151244
 40
0.7201237104
 40
0.7384899824
 40
0.756486298
 40
0.7740858135
 40
0.7912625705
 40
0.8079915756
 40
0.8242488773
 40
0.8400116575
 40
0.8552583363
 40
0.8699686993
 40
0.8841240143
 40
0.8977071764
 40
0.9107028844
 40
0.9230978669
 40
0.9348811433
 40
0.9460443358
 40
0.951391822
 40
0.9565825703
 40
0.9616164491
 40
0.9664936368
 40
0.971214565
 40
0.9757799948
 40
0.9801910602
 40
0.9844492475
 40
0.9885565238
 40
0.9925153195
 40
0.9963286071
 40
1.0
 40
1.0
 40
1.0
 40
1.0
 10
12.7676443661
 20
8.8912306042
 30
0.0
 10
12.7691170002
 20
8.8926530596
 30
0.0
 10
12.7720609604
 20
8.8956131354
 30
0.0
 10
12.7763928984
 20
8.9002987983
 30
0.0
 10
12.7807210732
 20
8.9053105748
 30
0.0
 10
12.7850435025
 20
8.9106462029
 30
0.0
 10
12.7893585334
 20
8.916303485
 30
0.0
 10
12.7936644033
 20
8.9222801759
 30
0.0
 10
12.7979594254
 20
8.9285738106
 30
0.0
 10
12.8022418072
 20
8.9351818018
 30
0.0
 10
12.806509751
 20
8.9421014302
 30
0.0
 10
12.8107615435
 20
8.9493298114
 30
0.0
 10
12.8149954052
 20
8.9568639973
 30
0.0
 10
12.8206945156
 20
8.9674624675
 30
0.0
 10
12.8277492703
 20
8.981464294
 30
0.0
 10
12.8360011005
 20
8.9992061535
 30
0.0
 10
12.8441400965
 20
9.0180868472
 30
0.0
 10
12.8521526683
 20
9.0380750819
 30
0.0
 10
12.8600254621
 20
9.0591379096
 30
0.0
 10
12.8677453236
 20
9.0812404529
 30
0.0
 10
12.8752993457
 20
9.1043460867
 30
0.0
 10
12.882674888
 20
9.1284164757
 30
0.0
 10
12.8898596114
 20
9.153411643
 30
0.0
 10
12.8968415055
 20
9.1792900399
 30
0.0
 10
12.9036088933
 20
9.2060086309
 30
0.0
 10
12.9101504568
 20
9.2335229717
 30
0.0
 10
12.9164552516
 20
9.2617872795
 30
0.0
 10
12.9225127442
 20
9.2907545046
 30
0.0
 10
12.9283128144
 20
9.3203764167
 30
0.0
 10
12.9338457701
 20
9.3506036918
 30
0.0
 10
12.9391023654
 20
9.3813859982
 30
0.0
 10
12.9440738087
 20
9.4126720582
 30
0.0
 10
12.9487518378
 20
9.4444097964
 30
0.0
 10
12.9546130567
 20
9.4874466319
 30
0.0
 10
12.9611424703
 20
9.5419814184
 30
0.0
 10
12.9676632345
 20
9.6080823728
 30
0.0
 10
12.9728596821
 20
9.6746869201
 30
0.0
 10
12.9766971929
 20
9.74135161
 30
0.0
 10
12.9791502636
 20
9.8076325844
 30
0.0
 10
12.9800315942
 20
9.8624308088
 30
0.0
 10
12.9800224054
 20
9.9057385789
 30
0.0
 10
12.9796621201
 20
9.9376994795
 30
0.0
 10
12.9789491314
 20
9.9692373176
 30
0.0
 10
12.9778846155
 20
10.0002996024
 30
0.0
 10
12.9764703861
 20
10.030834588
 30
0.0
 10
12.9747088286
 20
10.060791427
 30
0.0
 10
12.9726029109
 20
10.0901202326
 30
0.0
 10
12.9701561711
 20
10.1187721703
 30
0.0
 10
12.9673727292
 20
10.146699545
 30
0.0
 10
12.9642572758
 20
10.1738558837
 30
0.0
 10
12.9608150539
 20
10.2001960081
 30
0.0
 10
12.9570518529
 20
10.2256761096
 30
0.0
 10
12.9529739974
 20
10.250253833
 30
0.0
 10
12.9485883569
 20
10.2738883597
 30
0.0
 10
12.9439023116
 20
10.296540474
 30
0.0
 10
12.9389237405
 20
10.3181726367
 30
0.0
 10
12.9336609986
 20
10.3387490294
 30
0.0
 10
12.9281229113
 20
10.3582357506
 30
0.0
 10
12.9223187471
 20
10.3766005067
 30
0.0
 10
12.9171975947
 20
10.391145809
 30
0.0
 10
12.9129639209
 20
10.4021875019
 30
0.0
 10
12.9097737551
 20
10.4100506773
 30
0.0
 10
12.906524423
 20
10.4176114752
 30
0.0
 10
12.9032172944
 20
10.4248668055
 30
0.0
 10
12.899853708
 20
10.4318136659
 30
0.0
 10
12.8964350293
 20
10.4384491918
 30
0.0
 10
12.8929627059
 20
10.4447706776
 30
0.0
 10
12.8894380757
 20
10.4507755024
 30
0.0
 10
12.8858626212
 20
10.4564612224
 30
0.0
 10
12.8822377296
 20
10.4618255389
 30
0.0
 10
12.8785648933
 20
10.4668661219
 30
0.0
 10
12.8760382082
 20
10.4700691098
 30
0.0
 10
12.8747664742
 20
10.471613366
 30
0.0
  0
SPLINE
  5
37E
100
AcDbEntity
  8
0
100
AcDbSpline
 62
7
  6
CONTINUOUS
 70
0
 71
3
 72
61
 73
57
 74
0
 42
0.0000001
 43
0.0000001
 44
0.0000000001
 40
0.0
 40
0.0
 40
0.0
 40
0.0
 40
0.0085072509
 40
0.0175736282
 40
0.0272047045
 40
0.0374021549
 40
0.0481643843
 40
0.0594869937
 40
0.0713631608
 40
0.0837839651
 40
0.0967386579
 40
0.1102148434
 40
0.1241986243
 40
0.1386747779
 40
0.153626872
 40
0.1690373359
 40
0.1848875662
 40
0.2011580256
 40
0.2178282987
 40
0.2348771426
 40
0.2522825775
 40
0.2700219438
 40
0.288071936
 40
0.3064086671
 40
0.3438437229
 40
0.3821269908
 40
0.4210517309
 40
0.4604066803
 40
0.4999775897
 40
0.5395487082
 40
0.5789042833
 40
0.6178300593
 40
0.6561147719
 40
0.6935516614
 40
0.7118894574
 40
0.7299406059
 40
0.7476812153
 40
0.7650879879
 40
0.7821382574
 40
0.7988100332
 40
0.8150820774
 40
0.8309339758
 40
0.8463461786
 40
0.8613000749
 40
0.8757781044
 40
0.8897638248
 40
0.9032419976
 40
0.9161987301
 40
0.9286216267
 40
0.9404999212
 40
0.9518246798
 40
0.9625890885
 40
0.9727887377
 40
0.9824219959
 40
0.9914905366
 40
1.0
 40
1.0
 40
1.0
 40
1.0
 10
12.7366405433
 20
8.959030444
 30
0.0
 10
12.7392577967
 20
8.9623365845
 30
0.0
 10
12.7444711119
 20
8.9693205591
 30
0.0
 10
12.7520094057
 20
8.9805060064
 30
0.0
 10
12.7595024937
 20
8.99271614
 30
0.0
 10
12.7669395013
 20
9.0059332789
 30
0.0
 10
12.7743099405
 20
9.0201388447
 30
0.0
 10
12.7816031593
 20
9.0353125724
 30
0.0
 10
12.7888086307
 20
9.0514327335
 30
0.0
 10
12.7959159005
 20
9.0684761477
 30
0.0
 10
12.8029146174
 20
9.0864182605
 30
0.0
 10
12.8097945723
 20
9.1052331629
 30
0.0
 10
12.8165457488
 20
9.124893628
 30
0.0
 10
12.8231582951
 20
9.1453711818
 30
0.0
 10
12.829622545
 20
9.1666361478
 30
0.0
 10
12.835929071
 20
9.1886576748
 30
0.0
 10
12.8420686777
 20
9.2114037936
 30
0.0
 10
12.8480323978
 20
9.2348414802
 30
0.0
 10
12.8538115189
 20
9.2589366941
 30
0.0
 10
12.8593976241
 20
9.2836544195
 30
0.0
 10
12.8647825674
 20
9.3089587364
 30
0.0
 10
12.869958473
 20
9.3348128628
 30
0.0
 10
12.8749178304
 20
9.3611792424
 30
0.0
 10
12.8812754794
 20
9.3972138267
 30
0.0
 10
12.8886166452
 20
9.4432554491
 30
0.0
 10
12.8963969832
 20
9.4995480802
 30
0.0
 10
12.9031620063
 20
9.556930021
 30
0.0
 10
12.9088722597
 20
9.6150676777
 30
0.0
 10
12.9134943773
 20
9.6736232861
 30
0.0
 10
12.9170014993
 20
9.7322565511
 30
0.0
 10
12.9193732516
 20
9.7906267252
 30
0.0
 10
12.9205960184
 20
9.8483946695
 30
0.0
 10
12.9206628534
 20
9.9052245254
 30
0.0
 10
12.9197492565
 20
9.951840936
 30
0.0
 10
12.9184280652
 20
9.9884102195
 30
0.0
 10
12.9171568164
 20
10.0152105415
 30
0.0
 10
12.9156003671
 20
10.0415335542
 30
0.0
 10
12.9137609876
 20
10.0673410239
 30
0.0
 10
12.9116413908
 20
10.0925954293
 30
0.0
 10
12.9092446742
 20
10.1172600634
 30
0.0
 10
12.9065743516
 20
10.1412990837
 30
0.0
 10
12.9036343552
 20
10.1646775715
 30
0.0
 10
12.900428997
 20
10.1873615721
 30
0.0
 10
12.8969629628
 20
10.2093181487
 30
0.0
 10
12.893241351
 20
10.2305154457
 30
0.0
 10
12.8892696281
 20
10.2509227301
 30
0.0
 10
12.8850536073
 20
10.2705104298
 30
0.0
 10
12.8805994619
 20
10.2892501962
 30
0.0
 10
12.8759137323
 20
10.3071149589
 30
0.0
 10
12.8710032691
 20
10.3240789566
 30
0.0
 10
12.865875214
 20
10.3401177787
 30
0.0
 10
12.8605370219
 20
10.3552084607
 30
0.0
 10
12.8549964286
 20
10.3693294467
 30
0.0
 10
12.8492612516
 20
10.3824608727
 30
0.0
 10
12.8433398176
 20
10.3945837575
 30
0.0
 10
12.8391409263
 20
10.4022232354
 30
0.0
 10
12.8370053095
 20
10.4058604007
 30
0.0
  0
SPLINE
  5
37F
100
AcDbEntity
  8
0
100
AcDbSpline
 62
7
  6
CONTINUOUS
 70
0
 71
3
 72
81
 73
77
 74
0
 42
0.0000001
 43
0.0000001
 44
0.0000000001
 40
0.0
 40
0.0
 40
0.0
 40
0.0
 40
0.00641291
 40
0.0098000347
 40
0.0133176797
 40
0.0169727105
 40
0.0207710222
 40
0.024717635
 40
0.0288167354
 40
0.0330718392
 40
0.0374857856
 40
0.0420608577
 40
0.0467988416
 40
0.0517010264
 40
0.0567683374
 40
0.0620012876
 40
0.0674000705
 40
0.0729645874
 40
0.0786944222
 40
0.0906468457
 40
0.1032499351
 40
0.1164925499
 40
0.1303607555
 40
0.1448381617
 40
0.1599061891
 40
0.1755442936
 40
0.1917301676
 40
0.208439902
 40
0.2256481279
 40
0.2433281362
 40
0.2614519913
 40
0.2799906458
 40
0.2989140393
 40
0.3181911903
 40
0.3377902815
 40
0.3576787453
 40
0.377823355
 40
0.398190306
 40
0.4187452956
 40
0.4394536006
 40
0.4811889929
 40
0.5231139882
 40
0.5649437553
 40
0.6063943007
 40
0.6268898024
 40
0.6471856573
 40
0.6672477212
 40
0.6870423766
 40
0.7065366115
 40
0.7256981015
 40
0.7444952967
 40
0.7628975162
 40
0.7808750321
 40
0.7983991633
 40
0.8154423746
 40
0.8319783893
 40
0.8479823158
 40
0.8634307708
 40
0.878302025
 40
0.8925761728
 40
0.9062353378
 40
0.9192639241
 40
0.9316489
 40
0.9433801625
 40
0.9489986592
 40
0.9544515408
 40
0.9597385745
 40
0.9648598794
 40
0.969815862
 40
0.9746072898
 40
0.9792353297
 40
0.9837015683
 40
0.9880082045
 40
0.9921579607
 40
0.9961540014
 40
1.0
 40
1.0
 40
1.0
 40
1.0
 10
10.9282507937
 20
11.2230152908
 30
0.0
 10
10.9265513996
 20
11.2259627776
 30
0.0
 10
10.9236572638
 20
11.2303011441
 30
0.0
 10
10.9192736001
 20
11.2358444102
 30
0.0
 10
10.9155776337
 20
11.2400581672
 30
0.0
 10
10.9115360857
 20
11.2442494102
 30
0.0
 10
10.9071504616
 20
11.2484168895
 30
0.0
 10
10.9024228228
 20
11.252558663
 30
0.0
 10
10.8973553245
 20
11.256673075
 30
0.0
 10
10.8919501975
 20
11.2607582627
 30
0.0
 10
10.8862098964
 20
11.2648124967
 30
0.0
 10
10.8801369875
 20
11.2688339869
 30
0.0
 10
10.8737341769
 20
11.2728209128
 30
0.0
 10
10.8670043715
 20
11.2767715642
 30
0.0
 10
10.8599505667
 20
11.280684102
 30
0.0
 10
10.8525759607
 20
11.284556816
 30
0.0
 10
10.8448838779
 20
11.288387944
 30
0.0
 10
10.8368777707
 20
11.2921757547
 30
0.0
 10
10.825630345
 20
11.2972375035
 30
0.0
 10
10.8108007114
 20
11.3034309554
 30
0.0
 10
10.792055172
 20
11.3105626405
 30
0.0
 10
10.772151041
 20
11.3174817869
 30
0.0
 10
10.7511243924
 20
11.3241757647
 30
0.0
 10
10.7290131224
 20
11.3306323377
 30
0.0
 10
10.7058572603
 20
11.3368396887
 30
0.0
 10
10.6816987699
 20
11.3427864575
 30
0.0
 10
10.6565814856
 20
11.3484617516
 30
0.0
 10
10.6305510119
 20
11.3538551743
 30
0.0
 10
10.60365464
 20
11.3589568416
 30
0.0
 10
10.575941263
 20
11.3637574081
 30
0.0
 10
10.5474612823
 20
11.3682480893
 30
0.0
 10
10.5182665069
 20
11.3724206644
 30
0.0
 10
10.4884100537
 20
11.3762674953
 30
0.0
 10
10.4579462517
 20
11.3797815377
 30
0.0
 10
10.4269305463
 20
11.3829563594
 30
0.0
 10
10.3954193972
 20
11.3857861576
 30
0.0
 10
10.363470166
 20
11.3882657592
 30
0.0
 10
10.3311410291
 20
11.3903906206
 30
0.0
 10
10.2984907954
 20
11.3921568818
 30
0.0
 10
10.254496041
 20
11.394034102
 30
0.0
 10
10.1991377703
 20
11.3954596578
 30
0.0
 10
10.1325555608
 20
11.3957027702
 30
0.0
 10
10.0661352472
 20
11.3944805986
 30
0.0
 10
10.0111186317
 20
11.392240566
 30
0.0
 10
9.9675584904
 20
11.3897146716
 30
0.0
 10
9.9353507635
 20
11.3874698106
 30
0.0
 10
9.9035426698
 20
11.3848716961
 30
0.0
 10
9.8721920658
 20
11.3819250491
 30
0.0
 10
9.8413560336
 20
11.3786352684
 30
0.0
 10
9.8110906999
 20
11.3750083673
 30
0.0
 10
9.7814511496
 20
11.3710509789
 30
0.0
 10
9.7524913148
 20
11.366770352
 30
0.0
 10
9.7242638797
 20
11.3621743242
 30
0.0
 10
9.6968201868
 20
11.3572713105
 30
0.0
 10
9.6702101416
 20
11.3520702866
 30
0.0
 10
9.6444821123
 20
11.3465807737
 30
0.0
 10
9.6196828331
 20
11.3408128335
 30
0.0
 10
9.5958573173
 20
11.334777034
 30
0.0
 10
9.5730487773
 20
11.3284844303
 30
0.0
 10
9.5512985278
 20
11.3219465405
 30
0.0
 10
9.5306459262
 20
11.3151753197
 30
0.0
 10
9.5111281597
 20
11.3081831371
 30
0.0
 10
9.492780578
 20
11.30098275
 30
0.0
 10
9.4782919135
 20
11.2947331246
 30
0.0
 10
9.4673232281
 20
11.2896284419
 30
0.0
 10
9.4595283042
 20
11.2858112566
 30
0.0
 10
9.4520497665
 20
11.2819519113
 30
0.0
 10
9.4448909517
 20
11.2780521718
 30
0.0
 10
9.4380551018
 20
11.2741137626
 30
0.0
 10
9.4315453062
 20
11.2701384517
 30
0.0
 10
9.4253644776
 20
11.266128079
 30
0.0
 10
9.4195154062
 20
11.2620843418
 30
0.0
 10
9.4140006387
 20
11.2580090422
 30
0.0
 10
9.4088226364
 20
11.2539038663
 30
0.0
 10
9.403983963
 20
11.2497708432
 30
0.0
 10
9.4009284144
 20
11.2469450638
 30
0.0
 10
9.399460811
 20
11.2455274677
 30
0.0
  0
SPLINE
  5
380
100
AcDbEntity
  8
0
100
AcDbSpline
 62
7
  6
CONTINUOUS
 70
0
 71
3
 72
92
 73
88
 74
0
 42
0.0000001
 43
0.0000001
 44
0.0000000001
 40
0.0
 40
0.0
 40
0.0
 40
0.0
 40
0.0028693881
 40
0.0057128619
 40
0.0085509659
 40
0.0114043754
 40
0.0142934012
 40
0.0172375552
 40
0.0202551521
 40
0.0233630773
 40
0.0265766011
 40
0.0299093323
 40
0.0333732543
 40
0.0369787533
 40
0.0407348012
 40
0.0446489982
 40
0.048727778
 40
0.052976491
 40
0.0573995245
 40
0.0620004548
 40
0.0667820602
 40
0.0717465079
 40
0.0768953287
 40
0.0822295524
 40
0.0877497357
 40
0.0934559857
 40
0.0993480711
 40
0.1054253567
 40
0.111686942
 40
0.1181315987
 40
0.1315635444
 40
0.1457069525
 40
0.1605436637
 40
0.1760525236
 40
0.1922097256
 40
0.20898909
 40
0.2263623001
 40
0.2442991114
 40
0.2627675318
 40
0.2817339815
 40
0.30116344
 40
0.3210195822
 40
0.3412649043
 40
0.3618608515
 40
0.3827679376
 40
0.4039458611
 40
0.4253536177
 40
0.4469496115
 40
0.4686917646
 40
0.4905376273
 40
0.5124444883
 40
0.5343694831
 40
0.5562697016
 40
0.5781022952
 40
0.5998245854
 40
0.6213941735
 40
0.6427690501
 40
0.663907704
 40
0.6847692316
 40
0.7053134492
 40
0.7255010059
 40
0.7452935023
 40
0.7646536121
 40
0.7835452036
 40
0.8019334694
 40
0.8197850641
 40
0.8370682533
 40
0.8537530779
 40
0.8698115425
 40
0.8852178204
 40
0.8999484944
 40
0.9139828478
 40
0.9273032188
 40
0.9336913188
 40
0.9398959527
 40
0.9459159654
 40
0.9517505492
 40
0.9573991894
 40
0.9628617425
 40
0.9681384827
 40
0.973230076
 40
0.9781377085
 40
0.9828630618
 40
0.9874085489
 40
0.9917772905
 40
0.9959729933
 40
1.0
 40
1.0
 40
1.0
 40
1.0
 10
10.888831062
 20
11.1833042859
 30
0.0
 10
10.889119223
 20
11.1847442946
 30
0.0
 10
10.8895714858
 20
11.1876373225
 30
0.0
 10
10.8898663379
 20
11.1920092306
 30
0.0
 10
10.889772905
 20
11.196382253
 30
0.0
 10
10.8892911622
 20
11.2007529365
 30
0.0
 10
10.8884218065
 20
11.2051184569
 30
0.0
 10
10.8871656223
 20
11.209475964
 30
0.0
 10
10.885523986
 20
11.2138229304
 30
0.0
 10
10.8834982282
 20
11.2181569473
 30
0.0
 10
10.8810899697
 20
11.222475829
 30
0.0
 10
10.8783008957
 20
11.2267775094
 30
0.0
 10
10.87513271
 20
11.231059925
 30
0.0
 10
10.8715873618
 20
11.2353211691
 30
0.0
 10
10.8676667345
 20
11.2395591747
 30
0.0
 10
10.8633730126
 20
11.2437720261
 30
0.0
 10
10.8587084103
 20
11.2479576663
 30
0.0
 10
10.8536753618
 20
11.2521140736
 30
0.0
 10
10.8482764844
 20
11.2562392386
 30
0.0
 10
10.8425145188
 20
11.2603310385
 30
0.0
 10
10.8363924787
 20
11.2643874975
 30
0.0
 10
10.8299134767
 20
11.2684064728
 30
0.0
 10
10.8230808879
 20
11.2723859679
 30
0.0
 10
10.8158982324
 20
11.2763239082
 30
0.0
 10
10.8083692286
 20
11.2802182445
 30
0.0
 10
10.8004977983
 20
11.2840670021
 30
0.0
 10
10.7922880096
 20
11.2878681101
 30
0.0
 10
10.7837441605
 20
11.2916196526
 30
0.0
 10
10.7748706725
 20
11.2953196376
 30
0.0
 10
10.7624340625
 20
11.3002497052
 30
0.0
 10
10.7460878621
 20
11.3062558971
 30
0.0
 10
10.7254961848
 20
11.3131318493
 30
0.0
 10
10.703709349
 20
11.3197577098
 30
0.0
 10
10.68077288
 20
11.3261195133
 30
0.0
 10
10.656734514
 20
11.3322038333
 30
0.0
 10
10.6316444454
 20
11.3379978241
 30
0.0
 10
10.6055551036
 20
11.3434892551
 30
0.0
 10
10.5785210581
 20
11.3486665324
 30
0.0
 10
10.5505988854
 20
11.353518727
 30
0.0
 10
10.5218470469
 20
11.3580355975
 30
0.0
 10
10.4923257617
 20
11.3622076116
 30
0.0
 10
10.4620968794
 20
11.3660259653
 30
0.0
 10
10.4312237479
 20
11.3694826075
 30
0.0
 10
10.3997710768
 20
11.3725702513
 30
0.0
 10
10.3678047973
 20
11.3752823879
 30
0.0
 10
10.3353919227
 20
11.3776133002
 30
0.0
 10
10.3026004071
 20
11.379558075
 30
0.0
 10
10.2694990032
 20
11.3811126113
 30
0.0
 10
10.2361571179
 20
11.3822736331
 30
0.0
 10
10.2026446653
 20
11.3830386968
 30
0.0
 10
10.1690319176
 20
11.3834061917
 30
0.0
 10
10.1353893577
 20
11.3833753439
 30
0.0
 10
10.1017875312
 20
11.3829462178
 30
0.0
 10
10.0682968989
 20
11.382119716
 30
0.0
 10
10.0349876877
 20
11.3808975771
 30
0.0
 10
10.001929742
 20
11.3792823783
 30
0.0
 10
9.969192376
 20
11.3772775249
 30
0.0
 10
9.9368442277
 20
11.3748872426
 30
0.0
 10
9.904953116
 20
11.3721165688
 30
0.0
 10
9.8735858972
 20
11.3689713433
 30
0.0
 10
9.8428083236
 20
11.3654581943
 30
0.0
 10
9.8126849016
 20
11.3615845298
 30
0.0
 10
9.7832787533
 20
11.3573585226
 30
0.0
 10
9.7546514833
 20
11.3527890891
 30
0.0
 10
9.7268630484
 20
11.3478858718
 30
0.0
 10
9.6999716289
 20
11.342659219
 30
0.0
 10
9.6740335006
 20
11.3371201637
 30
0.0
 10
9.6491029103
 20
11.3312803978
 30
0.0
 10
9.6252319414
 20
11.3251522546
 30
0.0
 10
9.6024704258
 20
11.3187486721
 30
0.0
 10
9.5808657199
 20
11.3120831619
 30
0.0
 10
9.560462964
 20
11.305169766
 30
0.0
 10
9.5442792748
 20
11.2991329823
 30
0.0
 10
9.5319760809
 20
11.2941794297
 30
0.0
 10
9.5232041844
 20
11.2904632769
 30
0.0
 10
9.514763325
 20
11.2866961664
 30
0.0
 10
9.5066578743
 20
11.2828800871
 30
0.0
 10
9.4988920571
 20
11.2790170134
 30
0.0
 10
9.4914699094
 20
11.2751089385
 30
0.0
 10
9.4843952606
 20
11.27115793
 30
0.0
 10
9.4776718117
 20
11.2671659588
 30
0.0
 10
9.4713030153
 20
11.2631351799
 30
0.0
 10
9.4652921751
 20
11.2590675783
 30
0.0
 10
9.4596423311
 20
11.2549652149
 30
0.0
 10
9.4543563454
 20
11.2508300627
 30
0.0
 10
9.4494372219
 20
11.2466644092
 30
0.0
 10
9.446341732
 20
11.2438109627
 30
0.0
 10
9.4448593275
 20
11.2423790699
 30
0.0
  0
SPLINE
  5
381
100
AcDbEntity
  8
0
100
AcDbSpline
 62
7
  6
CONTINUOUS
 70
0
 71
3
 72
86
 73
82
 74
0
 42
0.0000001
 43
0.0000001
 44
0.0000000001
 40
0.0
 40
0.0
 40
0.0
 40
0.0
 40
0.002820388
 40
0.0056858264
 40
0.0086138082
 40
0.0116206105
 40
0.014721137
 40
0.0179287816
 40
0.0212554727
 40
0.0247116618
 40
0.0283064343
 40
0.0320476237
 40
0.0359418722
 40
0.0399948279
 40
0.0442111647
 40
0.0485947516
 40
0.0531487212
 40
0.0578755206
 40
0.0627770597
 40
0.0678546725
 40
0.0731092663
 40
0.0785413118
 40
0.0841508867
 40
0.0899377644
 40
0.1020403157
 40
0.1148417311
 40
0.1283302856
 40
0.1424909051
 40
0.1573055958
 40
0.172753794
 40
0.1888126452
 40
0.2054572357
 40
0.2226607875
 40
0.2403948241
 40
0.258629329
 40
0.277332887
 40
0.29647281
 40
0.3160152546
 40
0.3359253309
 40
0.3561672095
 40
0.3767042305
 40
0.3974990049
 40
0.4185135127
 40
0.4397091995
 40
0.4610470719
 40
0.5039910707
 40
0.5470291872
 40
0.5898434573
 40
0.6110681603
 40
0.6321188103
 40
0.6529567646
 40
0.6735438947
 40
0.6938426862
 40
0.7138163409
 40
0.7334288735
 40
0.7526452147
 40
0.7714313167
 40
0.7897542652
 40
0.8075824034
 40
0.8248854543
 40
0.8416346529
 40
0.8578028945
 40
0.873364902
 40
0.8882974225
 40
0.9025794585
 40
0.916192529
 40
0.929120997
 40
0.9353247239
 40
0.9413529669
 40
0.9472047547
 40
0.9528794402
 40
0.958376626
 40
0.9636962944
 40
0.9688387774
 40
0.9738047901
 40
0.9785955157
 40
0.983212598
 40
0.9876583693
 40
0.9919357813
 40
0.9960483063
 40
1.0
 40
1.0
 40
1.0
 40
1.0
 10
10.8744671805
 20
11.1738382823
 30
0.0
 10
10.8743002871
 20
11.1752277397
 30
0.0
 10
10.8738438793
 20
11.1780158097
 30
0.0
 10
10.872805275
 20
11.1821663906
 30
0.0
 10
10.871409574
 20
11.1863086348
 30
0.0
 10
10.8696580526
 20
11.1904399597
 30
0.0
 10
10.8675519325
 20
11.1945583803
 30
0.0
 10
10.8650927696
 20
11.1986620026
 30
0.0
 10
10.8622819901
 20
11.2027489278
 30
0.0
 10
10.8591212577
 20
11.20681738
 30
0.0
 10
10.8556122737
 20
11.2108655734
 30
0.0
 10
10.8517568112
 20
11.2148916659
 30
0.0
 10
10.847556874
 20
11.2188939253
 30
0.0
 10
10.8430144719
 20
11.2228704492
 30
0.0
 10
10.8381318792
 20
11.2268194638
 30
0.0
 10
10.8329114559
 20
11.2307390982
 30
0.0
 10
10.8273557341
 20
11.2346274783
 30
0.0
 10
10.8214674473
 20
11.2384828046
 30
0.0
 10
10.815249426
 20
11.2423031448
 30
0.0
 10
10.8087047401
 20
11.2460867199
 30
0.0
 10
10.8018365668
 20
11.2498316447
 30
0.0
 10
10.7946482769
 20
11.2535360858
 30
0.0
 10
10.7871433933
 20
11.2571982937
 30
0.0
 10
10.7765610594
 20
11.2620956803
 30
0.0
 10
10.76255571
 20
11.2680848757
 30
0.0
 10
10.7447908098
 20
11.2749717968
 30
0.0
 10
10.7258596252
 20
11.2816483702
 30
0.0
 10
10.7057994302
 20
11.2881013358
 30
0.0
 10
10.6846495085
 20
11.2943178787
 30
0.0
 10
10.6624514744
 20
11.3002856216
 30
0.0
 10
10.6392490471
 20
11.3059926754
 30
0.0
 10
10.6150879878
 20
11.311427664
 30
0.0
 10
10.5900159934
 20
11.3165797502
 30
0.0
 10
10.5640825999
 20
11.3214386696
 30
0.0
 10
10.5373390743
 20
11.3259947421
 30
0.0
 10
10.5098383032
 20
11.3302388912
 30
0.0
 10
10.481634685
 20
11.3341626628
 30
0.0
 10
10.4527840213
 20
11.3377582398
 30
0.0
 10
10.4233434075
 20
11.3410184617
 30
0.0
 10
10.3933711174
 20
11.343936843
 30
0.0
 10
10.3629264848
 20
11.3465075764
 30
0.0
 10
10.3320697768
 20
11.3487255484
 30
0.0
 10
10.3008620977
 20
11.3505863362
 30
0.0
 10
10.2693651828
 20
11.3520862658
 30
0.0
 10
10.2269785518
 20
11.3536040604
 30
0.0
 10
10.1737312671
 20
11.3545783747
 30
0.0
 10
10.1098193368
 20
11.3542788487
 30
0.0
 10
10.0567040448
 20
11.3528051644
 30
0.0
 10
10.0145262384
 20
11.3508886541
 30
0.0
 10
9.9832608136
 20
11.3490937952
 30
0.0
 10
9.9523351246
 20
11.3469410532
 30
0.0
 10
9.9218103494
 20
11.3444346741
 30
0.0
 10
9.8917469335
 20
11.3415796536
 30
0.0
 10
9.8622043843
 20
11.3383816753
 30
0.0
 10
9.8332411752
 20
11.3348471066
 30
0.0
 10
9.8049146257
 20
11.330982984
 30
0.0
 10
9.7772807885
 20
11.326797001
 30
0.0
 10
9.7503943327
 20
11.3222974904
 30
0.0
 10
9.7243084295
 20
11.317493419
 30
0.0
 10
9.6990746441
 20
11.3123943621
 30
0.0
 10
9.6747428324
 20
11.3070104824
 30
0.0
 10
9.6513610414
 20
11.3013525105
 30
0.0
 10
9.6289753975
 20
11.2954317202
 30
0.0
 10
9.6076300282
 20
11.2892599057
 30
0.0
 10
9.5873668593
 20
11.2828493601
 30
0.0
 10
9.5682258649
 20
11.2762128337
 30
0.0
 10
9.5530393182
 20
11.2704283007
 30
0.0
 10
9.5414895848
 20
11.2656874335
 30
0.0
 10
9.5332503125
 20
11.2621324909
 30
0.0
 10
9.5253186736
 20
11.2585310199
 30
0.0
 10
9.5176985386
 20
11.2548848353
 30
0.0
 10
9.5103936721
 20
11.2511956774
 30
0.0
 10
9.5034076422
 20
11.2474653901
 30
0.0
 10
9.4967438689
 20
11.2436957947
 30
0.0
 10
9.4904056382
 20
11.2398886973
 30
0.0
 10
9.4843960259
 20
11.2360460326
 30
0.0
 10
9.4787179811
 20
11.232169572
 30
0.0
 10
9.4733742016
 20
11.2282611858
 30
0.0
 10
9.4683672624
 20
11.2243226373
 30
0.0
 10
9.4636998548
 20
11.2203560145
 30
0.0
 10
9.46075852
 20
11.2176410208
 30
0.0
 10
9.4593482158
 20
11.2162787714
 30
0.0
  0
SPLINE
  5
382
100
AcDbEntity
  8
0
100
AcDbSpline
 62
7
  6
CONTINUOUS
 70
0
 71
3
 72
47
 73
43
 74
0
 42
0.0000001
 43
0.0000001
 44
0.0000000001
 40
0.0
 40
0.0
 40
0.0
 40
0.0
 40
0.0112998339
 40
0.0229780526
 40
0.0350282287
 40
0.0474432799
 40
0.0602154439
 40
0.073336433
 40
0.0867973491
 40
0.1005888505
 40
0.1291231755
 40
0.1588560611
 40
0.1896972619
 40
0.2215509985
 40
0.2543166231
 40
0.2878892345
 40
0.3221602586
 40
0.3570180027
 40
0.3923481934
 40
0.4280345026
 40
0.4639590669
 40
0.5000030011
 40
0.5360469097
 40
0.5719713971
 40
0.6076575778
 40
0.6429875884
 40
0.6778451016
 40
0.7121158452
 40
0.7456881286
 40
0.77845338
 40
0.810306701
 40
0.8411474458
 40
0.8708798355
 40
0.8994136253
 40
0.9132048305
 40
0.9266654697
 40
0.9397861477
 40
0.9525580159
 40
0.9649727484
 40
0.977022607
 40
0.9887005044
 40
1.0
 40
1.0
 40
1.0
 40
1.0
 10
10.741964131
 20
11.1194044522
 30
0.0
 10
10.737753644
 20
11.1209398858
 30
0.0
 10
10.7291592606
 20
11.1239738958
 30
0.0
 10
10.715972757
 20
11.1283495946
 30
0.0
 10
10.7022883128
 20
11.1326219066
 30
0.0
 10
10.6881180993
 20
11.1367869609
 30
0.0
 10
10.6734746414
 20
11.1408411152
 30
0.0
 10
10.6583709111
 20
11.1447806879
 30
0.0
 10
10.6428202739
 20
11.1486022673
 30
0.0
 10
10.6212637336
 20
11.1535923071
 30
0.0
 10
10.5932968035
 20
11.1594945668
 30
0.0
 10
10.5585515805
 20
11.1659775257
 30
0.0
 10
10.5223743847
 20
11.1719152831
 30
0.0
 10
10.4848935147
 20
11.177286574
 30
0.0
 10
10.4462417153
 20
11.182072133
 30
0.0
 10
10.4065560184
 20
11.1862548164
 30
0.0
 10
10.3659771478
 20
11.1898196437
 30
0.0
 10
10.3246490352
 20
11.1927538527
 30
0.0
 10
10.2827182936
 20
11.1950469422
 30
0.0
 10
10.2403336927
 20
11.1966907074
 30
0.0
 10
10.1976456254
 20
11.1976792677
 30
0.0
 10
10.1548055694
 20
11.1980090868
 30
0.0
 10
10.1119655461
 20
11.1976789845
 30
0.0
 10
10.069277577
 20
11.1966901408
 30
0.0
 10
10.0268931401
 20
11.1950460926
 30
0.0
 10
9.9849626281
 20
11.192752722
 30
0.0
 10
9.9436348101
 20
11.1898182355
 30
0.0
 10
9.9030562976
 20
11.1862531359
 30
0.0
 10
9.8633710202
 20
11.1820701866
 30
0.0
 10
9.824719699
 20
11.1772843697
 30
0.0
 10
9.7872393633
 20
11.1719128301
 30
0.0
 10
9.7510627558
 20
11.1659748354
 30
0.0
 10
9.7163181765
 20
11.1594916429
 30
0.0
 10
9.6883518205
 20
11.1535892098
 30
0.0
 10
9.6667957716
 20
11.1485989969
 30
0.0
 10
9.6512455148
 20
11.1447773389
 30
0.0
 10
9.6361421792
 20
11.1408376413
 30
0.0
 10
9.621499124
 20
11.1367834088
 30
0.0
 10
9.607329327
 20
11.1326182477
 30
0.0
 10
9.5936453078
 20
11.1283458488
 30
0.0
 10
9.5804592407
 20
11.1239700648
 30
0.0
 10
9.5718651556
 20
11.1209359952
 30
0.0
 10
9.5676548234
 20
11.1194005287
 30
0.0
  0
SPLINE
  5
383
100
AcDbEntity
  8
0
100
AcDbSpline
 62
7
  6
CONTINUOUS
 70
0
 71
3
 72
39
 73
35
 74
0
 42
0.0000001
 43
0.0000001
 44
0.0000000001
 40
0.0
 40
0.0
 40
0.0
 40
0.0
 40
0.0258558397
 40
0.0527111353
 40
0.0805144354
 40
0.1092109617
 40
0.138742936
 40
0.1690498724
 40
0.200068846
 40
0.2317347452
 40
0.2639805115
 40
0.2967373703
 40
0.3299350547
 40
0.363502024
 40
0.3973656829
 40
0.4314525945
 40
0.4656886926
 40
0.4999994913
 40
0.5343102949
 40
0.5685464071
 40
0.6026333405
 40
0.6364970275
 40
0.6700640318
 40
0.7032617597
 40
0.7360186727
 40
0.7682645041
 40
0.7999304777
 40
0.830949532
 40
0.861256552
 40
0.8907886128
 40
0.9194852307
 40
0.9472886306
 40
0.9741440379
 40
1.0
 40
1.0
 40
1.0
 40
1.0
 10
10.6251098952
 20
11.0914116075
 30
0.0
 10
10.6171881242
 20
11.0934116819
 30
0.0
 10
10.6009903046
 20
11.097300714
 30
0.0
 10
10.576129451
 20
11.1027165984
 30
0.0
 10
10.5502862751
 20
11.1078163772
 30
0.0
 10
10.5235210956
 20
11.1125880225
 30
0.0
 10
10.4958961839
 20
11.1170203357
 30
0.0
 10
10.4674759063
 20
11.1211029024
 30
0.0
 10
10.4383264852
 20
11.1248261364
 30
0.0
 10
10.408515864
 20
11.1281812964
 30
0.0
 10
10.3781135395
 20
11.1311605069
 30
0.0
 10
10.3471903992
 20
11.133756776
 30
0.0
 10
10.3158185544
 20
11.1359640114
 30
0.0
 10
10.2840711702
 20
11.1377770368
 30
0.0
 10
10.2520222923
 20
11.139191601
 30
0.0
 10
10.2197466729
 20
11.1402043871
 30
0.0
 10
10.1873195949
 20
11.1408130203
 30
0.0
 10
10.1548166962
 20
11.1410160733
 30
0.0
 10
10.1223137928
 20
11.1408130694
 30
0.0
 10
10.089886701
 20
11.1402044838
 30
0.0
 10
10.0576110599
 20
11.139191742
 30
0.0
 10
10.0255621533
 20
11.1377772201
 30
0.0
 10
9.9938147329
 20
11.1359642366
 30
0.0
 10
9.9624428431
 20
11.133757044
 30
0.0
 10
9.9315196474
 20
11.13116082
 30
0.0
 10
9.9011172568
 20
11.1281816554
 30
0.0
 10
9.8713065606
 20
11.1248265407
 30
0.0
 10
9.8421570579
 20
11.1211033498
 30
0.0
 10
9.8137366947
 20
11.1170208221
 30
0.0
 10
9.7861116934
 20
11.1125885454
 30
0.0
 10
9.7593464185
 20
11.1078169345
 30
0.0
 10
9.7335031377
 20
11.1027171923
 30
0.0
 10
9.7086421701
 20
11.0973013372
 30
0.0
 10
9.6924442641
 20
11.0934123472
 30
0.0
 10
9.6845224529
 20
11.0914122743
 30
0.0
  0
SPLINE
  5
384
100
AcDbEntity
  8
0
100
AcDbSpline
 62
7
  6
CONTINUOUS
 70
0
 71
3
 72
39
 73
35
 74
0
 42
0.0000001
 43
0.0000001
 44
0.0000000001
 40
0.0
 40
0.0
 40
0.0
 40
0.0
 40
0.0311159125
 40
0.0620233593
 40
0.0927351371
 40
0.1232711781
 40
0.1536587327
 40
0.1839312116
 40
0.2141268394
 40
0.2442870994
 40
0.2744549755
 40
0.3046731316
 40
0.3349820894
 40
0.3654185446
 40
0.3960138637
 40
0.4267928829
 40
0.4577729965
 40
0.4889636214
 40
0.5203659689
 40
0.5519731792
 40
0.5837707184
 40
0.6157370645
 40
0.647844591
 40
0.6800606403
 40
0.7123487317
 40
0.7446698625
 40
0.7769838849
 40
0.8092508935
 40
0.8414326248
 40
0.8734938012
 40
0.905403414
 40
0.9371358735
 40
0.9686718543
 40
1.0
 40
1.0
 40
1.0
 40
1.0
 10
9.5931844191
 20
8.2135006036
 30
0.0
 10
9.5931844191
 20
8.222317787
 30
0.0
 10
9.5940452329
 20
8.2399058347
 30
0.0
 10
9.5979381134
 20
8.2659362688
 30
0.0
 10
9.6043918314
 20
8.2912867053
 30
0.0
 10
9.6133450544
 20
8.3157091476
 30
0.0
 10
9.624712302
 20
8.338968241
 30
0.0
 10
9.6383843351
 20
8.3608386715
 30
0.0
 10
9.6542295029
 20
8.3811086509
 30
0.0
 10
9.6720947346
 20
8.3995818499
 30
0.0
 10
9.6918072152
 20
8.4160794277
 30
0.0
 10
9.7131760721
 20
8.4304418584
 30
0.0
 10
9.735994316
 20
8.4425306067
 30
0.0
 10
9.7600410473
 20
8.4522293107
 30
0.0
 10
9.785083594
 20
8.4594451479
 30
0.0
 10
9.8108799834
 20
8.4641092754
 30
0.0
 10
9.8371812227
 20
8.4661778748
 30
0.0
 10
9.8637338099
 20
8.4656319121
 30
0.0
 10
9.8902821304
 20
8.4624778302
 30
0.0
 10
9.9165708661
 20
8.4567467674
 30
0.0
 10
9.9423474739
 20
8.4484948186
 30
0.0
 10
9.9673644326
 20
8.4378018626
 30
0.0
 10
9.9913817162
 20
8.4247712956
 30
0.0
 10
10.0141688691
 20
8.4095285862
 30
0.0
 10
10.0355073331
 20
8.3922204241
 30
0.0
 10
10.0551923587
 20
8.373013078
 30
0.0
 10
10.0730350229
 20
8.3520909743
 30
0.0
 10
10.0888639853
 20
8.3296548909
 30
0.0
 10
10.1025270465
 20
8.3059200751
 30
0.0
 10
10.1138927449
 20
8.2811141932
 30
0.0
 10
10.1228513545
 20
8.2554754731
 30
0.0
 10
10.1293162686
 20
8.2292491773
 30
0.0
 10
10.1332245412
 20
8.2026904777
 30
0.0
 10
10.1341029139
 20
8.1848651016
 30
0.0
 10
10.1341029139
 20
8.1759877786
 30
0.0
  0
SPLINE
  5
385
100
AcDbEntity
  8
0
100
AcDbSpline
 62
7
  6
CONTINUOUS
 70
0
 71
3
 72
19
 73
15
 74
0
 42
0.0000001
 43
0.0000001
 44
0.0000000001
 40
0.0
 40
0.0
 40
0.0
 40
0.0
 40
0.12732766
 40
0.2538196711
 40
0.3795264658
 40
0.5045235362
 40
0.5668075958
 40
0.6289556124
 40
0.6909843715
 40
0.7529118454
 40
0.8147570127
 40
0.8765397119
 40
0.9382804145
 40
1.0
 40
1.0
 40
1.0
 40
1.0
 10
10.995708802
 20
10.5310499161
 30
0.0
 10
10.995708802
 20
10.5373019121
 30
0.0
 10
10.9963057299
 20
10.5497734723
 30
0.0
 10
10.9990054101
 20
10.5682411892
 30
0.0
 10
11.0034814566
 20
10.5862440085
 30
0.0
 10
11.0086665923
 20
10.6007409518
 30
0.0
 10
11.0136532733
 20
10.611931881
 30
0.0
 10
11.0178000451
 20
10.6200990896
 30
0.0
 10
11.022347744
 20
10.6280296163
 30
0.0
 10
11.0272860195
 20
10.6357054317
 30
0.0
 10
11.0326034781
 20
10.6431087153
 30
0.0
 10
11.0382878655
 20
10.6502225124
 30
0.0
 10
11.0443258926
 20
10.6570301529
 30
0.0
 10
11.0485785364
 20
10.6613547883
 30
0.0
 10
11.0507582612
 20
10.6634602399
 30
0.0
  0
SPLINE
  5
386
100
AcDbEntity
  8
0
100
AcDbSpline
 62
7
  6
CONTINUOUS
 70
0
 71
3
 72
90
 73
86
 74
0
 42
0.0000001
 43
0.0000001
 44
0.0000000001
 40
0.0
 40
0.0
 40
0.0
 40
0.0
 40
0.0039801841
 40
0.0081241159
 40
0.0124359656
 40
0.0169193153
 40
0.0215771898
 40
0.0264119289
 40
0.0314251936
 40
0.0366181713
 40
0.0419915567
 40
0.0475456772
 40
0.0532804457
 40
0.0591954437
 40
0.0652899501
 40
0.0715629317
 40
0.0846386004
 40
0.098409911
 40
0.1128604817
 40
0.1279710074
 40
0.1437195982
 40
0.1600820565
 40
0.1770321086
 40
0.194541602
 40
0.2125806763
 40
0.2311179203
 40
0.2501205135
 40
0.2695543567
 40
0.2893841934
 40
0.3095737255
 40
0.3300857245
 40
0.3508821382
 40
0.3719241976
 40
0.3931725218
 40
0.4145872201
 40
0.4361279928
 40
0.4577542316
 40
0.4794251191
 40
0.5010997291
 40
0.5227371263
 40
0.5442964667
 40
0.5657370967
 40
0.5870186529
 40
0.608101162
 40
0.6289451422
 40
0.6495117057
 40
0.6697626638
 40
0.6896606308
 40
0.7091691309
 40
0.728252709
 40
0.7468770455
 40
0.7650090769
 40
0.7826171262
 40
0.7996710429
 40
0.8161423523
 40
0.8320044245
 40
0.8472326669
 40
0.8618047498
 40
0.8757008734
 40
0.8889040964
 40
0.8952416854
 40
0.9014012239
 40
0.9073816029
 40
0.9131819719
 40
0.9188018178
 40
0.9242409106
 40
0.9294994338
 40
0.9345779311
 40
0.9394774185
 40
0.9441994036
 40
0.9487459354
 40
0.9531197203
 40
0.9573241226
 40
0.9613633439
 40
0.9652424353
 40
0.9689674716
 40
0.9725456352
 40
0.9759853336
 40
0.9824864943
 40
0.9855753483
 40
0.9885738142
 40
0.9914977336
 40
0.9943643342
 40
0.9971920087
 40
1.0
 40
1.0
 40
1.0
 40
1.0
 10
9.399460811
 20
11.3054148715
 30
0.0
 10
9.4010096136
 20
11.3069109
 30
0.0
 10
9.4042412726
 20
11.3098923762
 30
0.0
 10
9.4093721531
 20
11.3142470465
 30
0.0
 10
9.4148798132
 20
11.3185704804
 30
0.0
 10
9.4207612315
 20
11.322860382
 30
0.0
 10
9.4270135407
 20
11.3271147481
 30
0.0
 10
9.433633677
 20
11.3313315087
 30
0.0
 10
9.4406183297
 20
11.3355086421
 30
0.0
 10
9.447964033
 20
11.3396439805
 30
0.0
 10
9.4556670778
 20
11.3437355392
 30
0.0
 10
9.4637236345
 20
11.3477812126
 30
0.0
 10
9.4721296528
 20
11.3517790132
 30
0.0
 10
9.4808809137
 20
11.355726912
 30
0.0
 10
9.4899730343
 20
11.3596229305
 30
0.0
 10
9.5027209844
 20
11.364817761
 30
0.0
 10
9.5194856103
 20
11.3711533612
 30
0.0
 10
9.5406176134
 20
11.3784172141
 30
0.0
 10
9.5629908745
 20
11.385428855
 30
0.0
 10
9.5865602815
 20
11.3921740323
 30
0.0
 10
9.6112785169
 20
11.3986390181
 30
0.0
 10
9.637095788
 20
11.4048106457
 30
0.0
 10
9.6639600518
 20
11.410676342
 30
0.0
 10
9.6918170978
 20
11.4162241557
 30
0.0
 10
9.7206106741
 20
11.4214427879
 30
0.0
 10
9.7502826065
 20
11.4263216122
 30
0.0
 10
9.7807729244
 20
11.4308506956
 30
0.0
 10
9.8120199862
 20
11.435020819
 30
0.0
 10
9.8439606074
 20
11.4388234952
 30
0.0
 10
9.8765301897
 20
11.4422509862
 30
0.0
 10
9.9096628527
 20
11.4452963172
 30
0.0
 10
9.9432915684
 20
11.4479532948
 30
0.0
 10
9.9773482987
 20
11.4502165174
 30
0.0
 10
10.0117641358
 20
11.4520813837
 30
0.0
 10
10.0464694428
 20
11.4535441023
 30
0.0
 10
10.0813939946
 20
11.454601699
 30
0.0
 10
10.1164671204
 20
11.4552520232
 30
0.0
 10
10.1516178469
 20
11.4554937507
 30
0.0
 10
10.1867750426
 20
11.4553263905
 30
0.0
 10
10.2218675634
 20
11.4547502846
 30
0.0
 10
10.2568243969
 20
11.453766605
 30
0.0
 10
10.2915748069
 20
11.4523773516
 30
0.0
 10
10.3260484763
 20
11.4505853484
 30
0.0
 10
10.3601756497
 20
11.4483942381
 30
0.0
 10
10.3938872755
 20
11.4458084742
 30
0.0
 10
10.4271151478
 20
11.4428333148
 30
0.0
 10
10.4597920462
 20
11.4394748132
 30
0.0
 10
10.4918518724
 20
11.4357398021
 30
0.0
 10
10.5232297849
 20
11.4316358812
 30
0.0
 10
10.5538623308
 20
11.427171402
 30
0.0
 10
10.5836875768
 20
11.4223554513
 30
0.0
 10
10.6126452382
 20
11.4171978325
 30
0.0
 10
10.640676806
 20
11.411709048
 30
0.0
 10
10.6677256728
 20
11.4059002796
 30
0.0
 10
10.6937372492
 20
11.3997833611
 30
0.0
 10
10.7186590896
 20
11.3933707537
 30
0.0
 10
10.7424409781
 20
11.3866755181
 30
0.0
 10
10.7650351487
 20
11.3797112815
 30
0.0
 10
10.7863960338
 20
11.3724922056
 30
0.0
 10
10.803357389
 20
11.3661931958
 30
0.0
 10
10.8162667291
 20
11.3610264588
 30
0.0
 10
10.8254816686
 20
11.3571497832
 30
0.0
 10
10.8343574002
 20
11.3532205423
 30
0.0
 10
10.84288946
 20
11.3492406414
 30
0.0
 10
10.8510735795
 20
11.3452121563
 30
0.0
 10
10.8589056298
 20
11.3411370342
 30
0.0
 10
10.8663817122
 20
11.3370173866
 30
0.0
 10
10.8734980698
 20
11.3328552184
 30
0.0
 10
10.8802511572
 20
11.3286526203
 30
0.0
 10
10.8866376168
 20
11.3244116813
 30
0.0
 10
10.8926542446
 20
11.3201344366
 30
0.0
 10
10.8982980902
 20
11.3158230402
 30
0.0
 10
10.9035662968
 20
11.3114794803
 30
0.0
 10
10.9084562839
 20
11.3071059169
 30
0.0
 10
10.9129655859
 20
11.3027042984
 30
0.0
 10
10.9170918379
 20
11.2982768413
 30
0.0
 10
10.9208332583
 20
11.2938250375
 30
0.0
 10
10.9252222978
 20
11.2879714289
 30
0.0
 10
10.928949307
 20
11.2819600412
 30
0.0
 10
10.9319083903
 20
11.2758202954
 30
0.0
 10
10.9336962551
 20
11.2712794951
 30
0.0
 10
10.9350885306
 20
11.2667276462
 30
0.0
 10
10.9360840752
 20
11.2621669599
 30
0.0
 10
10.9366817887
 20
11.2576006874
 30
0.0
 10
10.9368148522
 20
11.2545500597
 30
0.0
 10
10.9368148519
 20
11.2530308908
 30
0.0
  0
SPLINE
  5
387
100
AcDbEntity
  8
0
100
AcDbSpline
 62
7
  6
CONTINUOUS
 70
0
 71
3
 72
42
 73
38
 74
0
 42
0.0000001
 43
0.0000001
 44
0.0000000001
 40
0.0
 40
0.0
 40
0.0
 40
0.0
 40
0.0299419644
 40
0.0449235317
 40
0.0599142035
 40
0.0899287023
 40
0.1200139727
 40
0.1350926544
 40
0.1501966973
 40
0.1804840373
 40
0.210897868
 40
0.2414513286
 40
0.2721543342
 40
0.3030133956
 40
0.3340315238
 40
0.3652082165
 40
0.3965395222
 40
0.4280181758
 40
0.459633799
 40
0.4913731572
 40
0.5232204671
 40
0.5551577446
 40
0.5871651885
 40
0.6192215901
 40
0.6513047644
 40
0.683391994
 40
0.715460481
 40
0.7474877999
 40
0.7794523452
 40
0.8113337678
 40
0.8431133918
 40
0.8747746145
 40
0.906303246
 40
0.9376878974
 40
0.9533257627
 40
0.9689252947
 40
1.0
 40
1.0
 40
1.0
 40
1.0
 10
10.3668993679
 20
6.4539857123
 30
0.0
 10
10.3635316655
 20
6.4507327628
 30
0.0
 10
10.3582816096
 20
6.4460504421
 30
0.0
 10
10.3509290518
 20
6.4402406533
 30
0.0
 10
10.3433422871
 20
6.4347200462
 30
0.0
 10
10.3334428611
 20
6.4283805186
 30
0.0
 10
10.3230620755
 20
6.4228353204
 30
0.0
 10
10.3145006558
 20
6.4188903708
 30
0.0
 10
10.3057623267
 20
6.4152711952
 30
0.0
 10
10.2945514881
 20
6.4113794567
 30
0.0
 10
10.2807358041
 20
6.4077524784
 30
0.0
 10
10.2666186596
 20
6.4051830173
 30
0.0
 10
10.2522782835
 20
6.4036852644
 30
0.0
 10
10.2377934524
 20
6.4032672089
 30
0.0
 10
10.2232438659
 20
6.4039309795
 30
0.0
 10
10.2087094923
 20
6.4056727418
 30
0.0
 10
10.1942701919
 20
6.4084827546
 30
0.0
 10
10.1800052673
 20
6.4123454225
 30
0.0
 10
10.1659930386
 20
6.4172393892
 30
0.0
 10
10.1523104174
 20
6.4231376571
 30
0.0
 10
10.1390324918
 20
6.4300077383
 30
0.0
 10
10.1262321196
 20
6.4378118331
 30
0.0
 10
10.1139795336
 20
6.4465070379
 30
0.0
 10
10.1023419615
 20
6.4560455791
 30
0.0
 10
10.0913832615
 20
6.4663750739
 30
0.0
 10
10.0811635755
 20
6.4774388153
 30
0.0
 10
10.0717390024
 20
6.4891760799
 30
0.0
 10
10.0631612938
 20
6.5015224595
 30
0.0
 10
10.055477572
 20
6.514410206
 30
0.0
 10
10.0487300724
 20
6.5277686138
 30
0.0
 10
10.0429559174
 20
6.5415243484
 30
0.0
 10
10.0381868945
 20
6.5556020475
 30
0.0
 10
10.034449357
 20
6.5699239707
 30
0.0
 10
10.0322086143
 20
6.5820132234
 30
0.0
 10
10.0309516283
 20
6.5917268008
 30
0.0
 10
10.0300545477
 20
6.6014310809
 30
0.0
 10
10.0297829184
 20
6.6087334894
 30
0.0
 10
10.0297829184
 20
6.6135928341
 30
0.0
  0
SPLINE
  5
388
100
AcDbEntity
  8
0
100
AcDbSpline
 62
7
  6
CONTINUOUS
 70
0
 71
3
 72
42
 73
38
 74
0
 42
0.0000001
 43
0.0000001
 44
0.0000000001
 40
0.0
 40
0.0
 40
0.0
 40
0.0
 40
0.0299419644
 40
0.0449235317
 40
0.0599142035
 40
0.0899287023
 40
0.1200139727
 40
0.1350926544
 40
0.1501966973
 40
0.1804840373
 40
0.210897868
 40
0.2414513286
 40
0.2721543342
 40
0.3030133956
 40
0.3340315238
 40
0.3652082165
 40
0.3965395222
 40
0.4280181758
 40
0.459633799
 40
0.4913731572
 40
0.5232204671
 40
0.5551577446
 40
0.5871651885
 40
0.6192215901
 40
0.6513047644
 40
0.683391994
 40
0.715460481
 40
0.7474877999
 40
0.7794523452
 40
0.8113337678
 40
0.8431133918
 40
0.8747746145
 40
0.906303246
 40
0.9376878974
 40
0.9533257627
 40
0.9689252947
 40
1.0
 40
1.0
 40
1.0
 40
1.0
 10
11.3328252515
 20
10.3714427943
 30
0.0
 10
11.3294575491
 20
10.3681898448
 30
0.0
 10
11.3242074932
 20
10.3635075241
 30
0.0
 10
11.3168549353
 20
10.3576977353
 30
0.0
 10
11.3092681707
 20
10.3521771282
 30
0.0
 10
11.2993687447
 20
10.3458376006
 30
0.0
 10
11.288987959
 20
10.3402924024
 30
0.0
 10
11.2804265394
 20
10.3363474527
 30
0.0
 10
11.2716882102
 20
10.3327282772
 30
0.0
 10
11.2604773716
 20
10.3288365387
 30
0.0
 10
11.2466616876
 20
10.3252095604
 30
0.0
 10
11.2325445431
 20
10.3226400993
 30
0.0
 10
11.218204167
 20
10.3211423464
 30
0.0
 10
11.2037193359
 20
10.3207242908
 30
0.0
 10
11.1891697495
 20
10.3213880615
 30
0.0
 10
11.1746353759
 20
10.3231298238
 30
0.0
 10
11.1601960754
 20
10.3259398365
 30
0.0
 10
11.1459311508
 20
10.3298025045
 30
0.0
 10
11.1319189221
 20
10.3346964712
 30
0.0
 10
11.1182363009
 20
10.3405947391
 30
0.0
 10
11.1049583754
 20
10.3474648203
 30
0.0
 10
11.0921580031
 20
10.3552689151
 30
0.0
 10
11.0799054171
 20
10.3639641199
 30
0.0
 10
11.068267845
 20
10.3735026611
 30
0.0
 10
11.0573091451
 20
10.3838321559
 30
0.0
 10
11.047089459
 20
10.3948958972
 30
0.0
 10
11.0376648859
 20
10.4066331619
 30
0.0
 10
11.0290871773
 20
10.4189795415
 30
0.0
 10
11.0214034555
 20
10.4318672879
 30
0.0
 10
11.014655956
 20
10.4452256958
 30
0.0
 10
11.008881801
 20
10.4589814304
 30
0.0
 10
11.004112778
 20
10.4730591295
 30
0.0
 10
11.0003752405
 20
10.4873810527
 30
0.0
 10
10.9981344978
 20
10.4994703054
 30
0.0
 10
10.9968775118
 20
10.5091838828
 30
0.0
 10
10.9959804312
 20
10.5188881629
 30
0.0
 10
10.995708802
 20
10.5261905714
 30
0.0
 10
10.995708802
 20
10.5310499161
 30
0.0
  0
SPLINE
  5
389
100
AcDbEntity
  8
0
100
AcDbSpline
 62
7
  6
CONTINUOUS
 70
0
 71
3
 72
42
 73
38
 74
0
 42
0.0000001
 43
0.0000001
 44
0.0000000001
 40
0.0
 40
0.0
 40
0.0
 40
0.0
 40
0.0299419645
 40
0.0449235319
 40
0.0599142037
 40
0.0899287023
 40
0.1200139726
 40
0.1350926542
 40
0.1501966969
 40
0.1804840366
 40
0.2108978669
 40
0.2414513271
 40
0.2721543323
 40
0.3030133934
 40
0.3340315212
 40
0.3652082135
 40
0.3965395189
 40
0.4280181723
 40
0.4596337953
 40
0.4913731534
 40
0.5232204633
 40
0.5551577409
 40
0.5871651848
 40
0.6192215866
 40
0.6513047611
 40
0.6833919909
 40
0.7154604782
 40
0.7474877975
 40
0.779452343
 40
0.811333766
 40
0.8431133904
 40
0.8747746134
 40
0.9063032452
 40
0.9376878969
 40
0.9533257623
 40
0.9689252944
 40
1.0
 40
1.0
 40
1.0
 40
1.0
 10
10.0280936901
 20
8.0602314736
 30
0.0
 10
10.0245932713
 20
8.056850327
 30
0.0
 10
10.0191363178
 20
8.0519834781
 30
0.0
 10
10.0114940052
 20
8.0459447278
 30
0.0
 10
10.0036082559
 20
8.0402065556
 30
0.0
 10
9.9933187057
 20
8.033617189
 30
0.0
 10
9.9825288256
 20
8.0278534557
 30
0.0
 10
9.9736300102
 20
8.023753036
 30
0.0
 10
9.9645473134
 20
8.0199912289
 30
0.0
 10
9.952894668
 20
8.0159461166
 30
0.0
 10
9.9385345226
 20
8.0121761976
 30
0.0
 10
9.923861036
 20
8.0095054717
 30
0.0
 10
9.9089555201
 20
8.0079486892
 30
0.0
 10
9.893899856
 20
8.007514154
 30
0.0
 10
9.8787768843
 20
8.008204079
 30
0.0
 10
9.8636697246
 20
8.0100144785
 30
0.0
 10
9.8486613846
 20
8.0129352274
 30
0.0
 10
9.8338342922
 20
8.0169501159
 30
0.0
 10
9.8192698539
 20
8.0220369459
 30
0.0
 10
9.8050480126
 20
8.0281676561
 30
0.0
 10
9.7912468153
 20
8.0353084779
 30
0.0
 10
9.7779419912
 20
8.0434201223
 30
0.0
 10
9.765206541
 20
8.0524579947
 30
0.0
 10
9.7531103418
 20
8.0623724389
 30
0.0
 10
9.7417197684
 20
8.0731090076
 30
0.0
 10
9.7310973328
 20
8.0846087592
 30
0.0
 10
9.7213013448
 20
8.0968085772
 30
0.0
 10
9.7123855956
 20
8.109641515
 30
0.0
 10
9.7043990643
 20
8.1230371545
 30
0.0
 10
9.6973856511
 20
8.136922004
 30
0.0
 10
9.6913839411
 20
8.1512198387
 30
0.0
 10
9.6864269747
 20
8.1658523263
 30
0.0
 10
9.6825421437
 20
8.1807386628
 30
0.0
 10
9.6802130951
 20
8.1933043413
 30
0.0
 10
9.6789065722
 20
8.2034007216
 30
0.0
 10
9.6779741384
 20
8.2134874381
 30
0.0
 10
9.6776918044
 20
8.2210776276
 30
0.0
 10
9.6776918044
 20
8.2261284745
 30
0.0
  0
SPLINE
  5
38A
100
AcDbEntity
  8
0
100
AcDbSpline
 62
7
  6
CONTINUOUS
 70
0
 71
3
 72
19
 73
15
 74
0
 42
0.0000001
 43
0.0000001
 44
0.0000000001
 40
0.0
 40
0.0
 40
0.0
 40
0.0
 40
0.0617195852
 40
0.1234602876
 40
0.1852429867
 40
0.2470881541
 40
0.3090156281
 40
0.3710443874
 40
0.4331924043
 40
0.4954764641
 40
0.6204735348
 40
0.7461803297
 40
0.8726723406
 40
1.0
 40
1.0
 40
1.0
 40
1.0
 10
9.7349106416
 20
8.3637568822
 30
0.0
 10
9.7326450186
 20
8.3615684573
 30
0.0
 10
9.7282247872
 20
8.3570733935
 30
0.0
 10
9.7219488146
 20
8.3499974728
 30
0.0
 10
9.7160404178
 20
8.3426033308
 30
0.0
 10
9.7105134098
 20
8.3349082944
 30
0.0
 10
9.7053805277
 20
8.3269299864
 30
0.0
 10
9.700653614
 20
8.3186869296
 30
0.0
 10
9.6963434272
 20
8.310197864
 30
0.0
 10
9.6911602321
 20
8.2985659179
 30
0.0
 10
9.6857707619
 20
8.2834976735
 30
0.0
 10
9.6811183245
 20
8.2647853929
 30
0.0
 10
9.678312256
 20
8.2455898943
 30
0.0
 10
9.6776918044
 20
8.232626851
 30
0.0
 10
9.6776918044
 20
8.2261284745
 30
0.0
  0
SPLINE
  5
38B
100
AcDbEntity
  8
0
100
AcDbSpline
 62
7
  6
CONTINUOUS
 70
0
 71
3
 72
19
 73
15
 74
0
 42
0.0000001
 43
0.0000001
 44
0.0000000001
 40
0.0
 40
0.0
 40
0.0
 40
0.0
 40
0.12732766
 40
0.2538196711
 40
0.3795264658
 40
0.5045235362
 40
0.5668075958
 40
0.6289556124
 40
0.6909843715
 40
0.7529118454
 40
0.8147570127
 40
0.8765397119
 40
0.9382804145
 40
1.0
 40
1.0
 40
1.0
 40
1.0
 10
10.0297829184
 20
6.6135928341
 30
0.0
 10
10.0297829184
 20
6.6198448301
 30
0.0
 10
10.0303798464
 20
6.6323163903
 30
0.0
 10
10.0330795266
 20
6.6507841072
 30
0.0
 10
10.0375555731
 20
6.6687869265
 30
0.0
 10
10.0427407087
 20
6.6832838698
 30
0.0
 10
10.0477273898
 20
6.694474799
 30
0.0
 10
10.0518741616
 20
6.7026420076
 30
0.0
 10
10.0564218605
 20
6.7105725343
 30
0.0
 10
10.061360136
 20
6.7182483497
 30
0.0
 10
10.0666775946
 20
6.7256516333
 30
0.0
 10
10.072361982
 20
6.7327654304
 30
0.0
 10
10.0784000091
 20
6.7395730709
 30
0.0
 10
10.0826526529
 20
6.7438977063
 30
0.0
 10
10.0848323777
 20
6.7460031579
 30
0.0
  0
SPLINE
  5
38C
100
AcDbEntity
  8
0
100
AcDbSpline
 62
7
  6
CONTINUOUS
 70
0
 71
3
 72
54
 73
50
 74
0
 42
0.0000001
 43
0.0000001
 44
0.0000000001
 40
0.0
 40
0.0
 40
0.0
 40
0.0
 40
0.0056394981
 40
0.0114381497
 40
0.017438168
 40
0.0236771677
 40
0.030188085
 40
0.0369992355
 40
0.0441346792
 40
0.0516145569
 40
0.0594555571
 40
0.067671307
 40
0.0762727615
 40
0.0852685663
 40
0.094665316
 40
0.1044678777
 40
0.1146795242
 40
0.1253022258
 40
0.1363366884
 40
0.1477826156
 40
0.1596386888
 40
0.1719027931
 40
0.1845719768
 40
0.1976426303
 40
0.2111104536
 40
0.2249705805
 40
0.2392175736
 40
0.2538454904
 40
0.2688479153
 40
0.2842179696
 40
0.299948382
 40
0.3160314511
 40
0.3492225476
 40
0.3837232679
 40
0.4194600161
 40
0.4563546558
 40
0.494324963
 40
0.5332850383
 40
0.5731456906
 40
0.6138147995
 40
0.6551976626
 40
0.6971973316
 40
0.7397149416
 40
0.7826500311
 40
0.8259008716
 40
0.869364747
 40
0.9129383852
 40
0.9565179438
 40
1.0
 40
1.0
 40
1.0
 40
1.0
 10
12.8380850515
 20
8.5359806364
 30
0.0
 10
12.8405374525
 20
8.5363575091
 30
0.0
 10
12.8454770092
 20
8.5373650084
 30
0.0
 10
12.8528312102
 20
8.5395843865
 30
0.0
 10
12.8602116862
 20
8.5425264776
 30
0.0
 10
12.8676130312
 20
8.5461877509
 30
0.0
 10
12.8750312521
 20
8.5505649423
 30
0.0
 10
12.882462283
 20
8.555654415
 30
0.0
 10
12.8899020766
 20
8.5614525428
 30
0.0
 10
12.8973465901
 20
8.5679553659
 30
0.0
 10
12.9047916453
 20
8.5751587062
 30
0.0
 10
12.9122329876
 20
8.5830580185
 30
0.0
 10
12.9196662841
 20
8.5916483751
 30
0.0
 10
12.9270870794
 20
8.6009244712
 30
0.0
 10
12.9344909356
 20
8.6108805324
 30
0.0
 10
12.9418732645
 20
8.6215104135
 30
0.0
 10
12.9492295779
 20
8.6328074675
 30
0.0
 10
12.9565552235
 20
8.6447646844
 30
0.0
 10
12.963845701
 20
8.6573745541
 30
0.0
 10
12.9710963505
 20
8.6706292055
 30
0.0
 10
12.9783026822
 20
8.684520288
 30
0.0
 10
12.9854600738
 20
8.6990390871
 30
0.0
 10
12.99256406
 20
8.7141764389
 30
0.0
 10
12.9996100891
 20
8.7299228107
 30
0.0
 10
13.0065937329
 20
8.7462682521
 30
0.0
 10
13.0135105335
 20
8.7632024417
 30
0.0
 10
13.0203561133
 20
8.78071467
 30
0.0
 10
13.0271261236
 20
8.7987938585
 30
0.0
 10
13.0338162539
 20
8.8174285675
 30
0.0
 10
13.0404222682
 20
8.8366069904
 30
0.0
 10
13.0469399685
 20
8.8563170004
 30
0.0
 10
13.0555978132
 20
8.8835754658
 30
0.0
 10
13.0661531246
 20
8.9188932357
 30
0.0
 10
13.0782738538
 20
8.9627574465
 30
0.0
 10
13.0899471027
 20
9.0084264881
 30
0.0
 10
13.1011431068
 20
9.0557845702
 30
0.0
 10
13.1118333055
 20
9.1047118106
 30
0.0
 10
13.121990445
 20
9.1550842252
 30
0.0
 10
13.1315886383
 20
9.2067741457
 30
0.0
 10
13.1406034323
 20
9.259650525
 30
0.0
 10
13.1490118687
 20
9.3135792841
 30
0.0
 10
13.1567925408
 20
9.3684236545
 30
0.0
 10
13.163925647
 20
9.4240445295
 30
0.0
 10
13.170393042
 20
9.4803008229
 30
0.0
 10
13.1761782768
 20
9.5370498207
 30
0.0
 10
13.1812666535
 20
9.5941475706
 30
0.0
 10
13.1856452336
 20
9.6514491954
 30
0.0
 10
13.189302917
 20
9.7088092667
 30
0.0
 10
13.191258334
 20
9.7470647254
 30
0.0
 10
13.1921133235
 20
9.7661762568
 30
0.0
  0
SPLINE
  5
38D
100
AcDbEntity
  8
0
100
AcDbSpline
 62
7
  6
CONTINUOUS
 70
0
 71
3
 72
39
 73
35
 74
0
 42
0.0000001
 43
0.0000001
 44
0.0000000001
 40
0.0
 40
0.0
 40
0.0
 40
0.0
 40
0.0311159125
 40
0.0620233593
 40
0.0927351371
 40
0.1232711781
 40
0.1536587327
 40
0.1839312116
 40
0.2141268394
 40
0.2442870994
 40
0.2744549755
 40
0.3046731316
 40
0.3349820894
 40
0.3654185446
 40
0.3960138637
 40
0.4267928829
 40
0.4577729965
 40
0.4889636214
 40
0.5203659689
 40
0.5519731792
 40
0.5837707184
 40
0.6157370645
 40
0.647844591
 40
0.6800606403
 40
0.7123487317
 40
0.7446698625
 40
0.7769838849
 40
0.8092508935
 40
0.8414326248
 40
0.8734938012
 40
0.905403414
 40
0.9371358735
 40
0.9686718543
 40
1.0
 40
1.0
 40
1.0
 40
1.0
 10
10.1341029139
 20
8.1759877786
 30
0.0
 10
10.1341029139
 20
8.1671705953
 30
0.0
 10
10.1332421001
 20
8.1495825476
 30
0.0
 10
10.1293492195
 20
8.1235521134
 30
0.0
 10
10.1228955015
 20
8.098201677
 30
0.0
 10
10.1139422786
 20
8.0737792346
 30
0.0
 10
10.1025750309
 20
8.0505201413
 30
0.0
 10
10.0889029979
 20
8.0286497108
 30
0.0
 10
10.0730578301
 20
8.0083797314
 30
0.0
 10
10.0551925983
 20
7.9899065324
 30
0.0
 10
10.0354801178
 20
7.9734089545
 30
0.0
 10
10.0141112609
 20
7.9590465238
 30
0.0
 10
9.991293017
 20
7.9469577756
 30
0.0
 10
9.9672462856
 20
7.9372590715
 30
0.0
 10
9.942203739
 20
7.9300432344
 30
0.0
 10
9.9164073496
 20
7.9253791068
 30
0.0
 10
9.8901061103
 20
7.9233105075
 30
0.0
 10
9.8635535231
 20
7.9238564701
 30
0.0
 10
9.8370052025
 20
7.9270105521
 30
0.0
 10
9.8107164669
 20
7.9327416148
 30
0.0
 10
9.784939859
 20
7.9409935637
 30
0.0
 10
9.7599229004
 20
7.9516865196
 30
0.0
 10
9.7359056167
 20
7.9647170867
 30
0.0
 10
9.7131184638
 20
7.9799597961
 30
0.0
 10
9.6917799999
 20
7.9972679582
 30
0.0
 10
9.6720949743
 20
8.0164753042
 30
0.0
 10
9.65425231
 20
8.0373974079
 30
0.0
 10
9.6384233476
 20
8.0598334913
 30
0.0
 10
9.6247602865
 20
8.0835683072
 30
0.0
 10
9.613394588
 20
8.108374189
 30
0.0
 10
9.6044359785
 20
8.1340129091
 30
0.0
 10
9.5979710644
 20
8.160239205
 30
0.0
 10
9.5940627917
 20
8.1867979045
 30
0.0
 10
9.5931844191
 20
8.2046232807
 30
0.0
 10
9.5931844191
 20
8.2135006036
 30
0.0
  0
SPLINE
  5
38E
100
AcDbEntity
  8
0
100
AcDbSpline
 62
7
  6
CONTINUOUS
 70
0
 71
3
 72
50
 73
46
 74
0
 42
0.0000001
 43
0.0000001
 44
0.0000000001
 40
0.0
 40
0.0
 40
0.0
 40
0.0
 40
0.0068597424
 40
0.0137512923
 40
0.0207059937
 40
0.0277542579
 40
0.034925198
 40
0.0422463307
 40
0.0497433051
 40
0.0574398373
 40
0.0653576006
 40
0.0735162188
 40
0.0906205236
 40
0.0996003777
 40
0.1088809806
 40
0.1184731461
 40
0.1283863582
 40
0.1386288187
 40
0.1492075309
 40
0.1601285276
 40
0.171396825
 40
0.1830165871
 40
0.1949912473
 40
0.2073234381
 40
0.2200152045
 40
0.246481469
 40
0.2743965609
 40
0.3037581617
 40
0.3345576253
 40
0.366780823
 40
0.4004087739
 40
0.4354182099
 40
0.4717820666
 40
0.5094698493
 40
0.5484478997
 40
0.5886796899
 40
0.6301260803
 40
0.6727455148
 40
0.7164941648
 40
0.7613260763
 40
0.8071934625
 40
0.8540467025
 40
0.9018340094
 40
0.9505040496
 40
1.0
 40
1.0
 40
1.0
 40
1.0
 10
13.0108594849
 20
10.8116708914
 30
0.0
 10
13.012532897
 20
10.8115548456
 30
0.0
 10
13.0158804552
 20
10.8112036417
 30
0.0
 10
13.0208704419
 20
10.8103223783
 30
0.0
 10
13.0258322968
 20
10.8090865025
 30
0.0
 10
13.0307639274
 20
10.8074967268
 30
0.0
 10
13.035663736
 20
10.8055537922
 30
0.0
 10
13.0405300612
 20
10.8032585224
 30
0.0
 10
13.0453614404
 20
10.8006119798
 30
0.0
 10
13.0501563545
 20
10.7976151792
 30
0.0
 10
13.0549135311
 20
10.7942691823
 30
0.0
 10
13.0613043346
 20
10.7892654859
 30
0.0
 10
13.0675113821
 20
10.7836246805
 30
0.0
 10
13.0735365771
 20
10.7774192919
 30
0.0
 10
13.0780845883
 20
10.7723468821
 30
0.0
 10
13.0825866585
 20
10.7669338472
 30
0.0
 10
13.0870416729
 20
10.7611815633
 30
0.0
 10
13.09144825
 20
10.7550918702
 30
0.0
 10
13.0958051511
 20
10.7486666417
 30
0.0
 10
13.1001110144
 20
10.7419078165
 30
0.0
 10
13.1043645801
 20
10.7348174833
 30
0.0
 10
13.1085645777
 20
10.7273978168
 30
0.0
 10
13.1127096732
 20
10.7196510728
 30
0.0
 10
13.1167986958
 20
10.7115796387
 30
0.0
 10
13.1222504218
 20
10.7002291881
 30
0.0
 10
13.1289019139
 20
10.6852321194
 30
0.0
 10
13.136532285
 20
10.6662248982
 30
0.0
 10
13.1439095944
 20
10.6459866689
 30
0.0
 10
13.1510247207
 20
10.6245423726
 30
0.0
 10
13.1578688616
 20
10.6019181571
 30
0.0
 10
13.1644335164
 20
10.5781418199
 30
0.0
 10
13.1707105214
 20
10.5532426192
 30
0.0
 10
13.1766920452
 20
10.5272512505
 30
0.0
 10
13.1823706065
 20
10.5001997946
 30
0.0
 10
13.1877391175
 20
10.4721216877
 30
0.0
 10
13.1927908757
 20
10.4430516678
 30
0.0
 10
13.1975195642
 20
10.4130257146
 30
0.0
 10
13.2019192601
 20
10.382081006
 30
0.0
 10
13.2059844688
 20
10.3502558881
 30
0.0
 10
13.2097101181
 20
10.3175897996
 30
0.0
 10
13.2130915449
 20
10.28412322
 30
0.0
 10
13.2161244965
 20
10.2498977356
 30
0.0
 10
13.2188052427
 20
10.214955507
 30
0.0
 10
13.2211303445
 20
10.1793402662
 30
0.0
 10
13.2224309719
 20
10.1553701865
 30
0.0
 10
13.2230229525
 20
10.1432812964
 30
0.0
  0
SPLINE
  5
38F
100
AcDbEntity
  8
0
100
AcDbSpline
 62
7
  6
CONTINUOUS
 70
0
 71
3
 72
18
 73
14
 74
0
 42
0.0000001
 43
0.0000001
 44
0.0000000001
 40
0.0
 40
0.0
 40
0.0
 40
0.0
 40
0.0548620589
 40
0.1099280789
 40
0.165399508
 40
0.2214731255
 40
0.2783387361
 40
0.3361775086
 40
0.4554063416
 40
0.5804417492
 40
0.7123343341
 40
0.8519577333
 40
1.0
 40
1.0
 40
1.0
 40
1.0
 10
9.3728148519
 20
11.2530308908
 30
0.0
 10
9.3728148521
 20
11.254135293
 30
0.0
 10
9.3728849609
 20
11.2563488374
 30
0.0
 10
9.3732001445
 20
11.2596655527
 30
0.0
 10
9.3737252711
 20
11.2629803567
 30
0.0
 10
9.3744601676
 20
11.2662920388
 30
0.0
 10
9.3754045491
 20
11.2695997628
 30
0.0
 10
9.3769578452
 20
11.274047765
 30
0.0
 10
9.3794461992
 20
11.2796110247
 30
0.0
 10
9.3832336292
 20
11.2861812557
 30
0.0
 10
9.3878465136
 20
11.2927089594
 30
0.0
 10
9.3932778343
 20
11.2991875839
 30
0.0
 10
9.3973173109
 20
11.3033444092
 30
0.0
 10
9.399460811
 20
11.3054148715
 30
0.0
  0
SPLINE
  5
390
100
AcDbEntity
  8
0
100
AcDbSpline
 62
7
  6
CONTINUOUS
 70
0
 71
3
 72
10
 73
6
 74
0
 42
0.0000001
 43
0.0000001
 44
0.0000000001
 40
0.0
 40
0.0
 40
0.0
 40
0.0
 40
0.4750853033
 40
0.7308906867
 40
1.0
 40
1.0
 40
1.0
 40
1.0
 10
9.381436592
 20
11.2231151725
 30
0.0
 10
9.3837234395
 20
11.2270680618
 30
0.0
 10
9.3877784499
 20
11.2328491218
 30
0.0
 10
9.3940659587
 20
11.2401232784
 30
0.0
 10
9.3976002457
 20
11.2437302995
 30
0.0
 10
9.399460811
 20
11.2455274677
 30
0.0
  0
SPLINE
  5
391
100
AcDbEntity
  8
0
100
AcDbSpline
 62
7
  6
CONTINUOUS
 70
0
 71
3
 72
19
 73
15
 74
0
 42
0.0000001
 43
0.0000001
 44
0.0000000001
 40
0.0
 40
0.0
 40
0.0
 40
0.0
 40
0.0566184208
 40
0.1127459492
 40
0.1686783261
 40
0.224714752
 40
0.2811525386
 40
0.338282276
 40
0.3963829848
 40
0.45571873
 40
0.578999426
 40
0.7099205328
 40
0.8498912396
 40
1.0
 40
1.0
 40
1.0
 40
1.0
 10
9.4208093066
 20
11.1832511577
 30
0.0
 10
9.4205609796
 20
11.1844854751
 30
0.0
 10
9.4201556439
 20
11.1869624104
 30
0.0
 10
9.4198280622
 20
11.1907024626
 30
0.0
 10
9.4197847399
 20
11.1944438833
 30
0.0
 10
9.4200256853
 20
11.1981846242
 30
0.0
 10
9.4205506951
 20
11.2019230034
 30
0.0
 10
9.4213594705
 20
11.2056572332
 30
0.0
 10
9.4224514448
 20
11.2093858118
 30
0.0
 10
9.4243072475
 20
11.2144106002
 30
0.0
 10
9.4273728231
 20
11.2206952483
 30
0.0
 10
9.4321248709
 20
11.2280811646
 30
0.0
 10
9.4379846875
 20
11.2354006886
 30
0.0
 10
9.4424584293
 20
11.2400599801
 30
0.0
 10
9.4448593275
 20
11.2423790699
 30
0.0
  0
SPLINE
  5
392
100
AcDbEntity
  8
0
100
AcDbSpline
 62
7
  6
CONTINUOUS
 70
0
 71
3
 72
15
 73
11
 74
0
 42
0.0000001
 43
0.0000001
 44
0.0000000001
 40
0.0
 40
0.0
 40
0.0
 40
0.0
 40
0.1094613731
 40
0.2214548581
 40
0.3370807688
 40
0.4573270642
 40
0.5830585706
 40
0.7150191158
 40
0.8538340111
 40
1.0
 40
1.0
 40
1.0
 40
1.0
 10
9.4351694071
 20
11.1738953502
 30
0.0
 10
9.4353879409
 20
11.17569707
 30
0.0
 10
9.4360329305
 20
11.1793204744
 30
0.0
 10
9.4375936935
 20
11.1846969425
 30
0.0
 10
9.4397527169
 20
11.1900553182
 30
0.0
 10
9.4425062758
 20
11.1953901633
 30
0.0
 10
9.4458507662
 20
11.2006977025
 30
0.0
 10
9.449782479
 20
11.2059743346
 30
0.0
 10
9.4542973401
 20
11.2112160901
 30
0.0
 10
9.4576050983
 20
11.2145950491
 30
0.0
 10
9.4593482158
 20
11.2162787714
 30
0.0
  0
SPLINE
  5
393
100
AcDbEntity
  8
0
100
AcDbSpline
 62
7
  6
CONTINUOUS
 70
0
 71
3
 72
56
 73
52
 74
0
 42
0.0000001
 43
0.0000001
 44
0.0000000001
 40
0.0
 40
0.0
 40
0.0
 40
0.0
 40
0.0444572766
 40
0.0890138339
 40
0.1335565039
 40
0.1779715527
 40
0.2221459771
 40
0.2659674464
 40
0.3093248096
 40
0.3521084286
 40
0.3942105627
 40
0.4355257465
 40
0.4759511781
 40
0.5153871188
 40
0.5537373052
 40
0.5909093837
 40
0.6268153731
 40
0.6613721691
 40
0.6781204018
 40
0.6945026817
 40
0.7105102679
 40
0.7261348331
 40
0.7413684991
 40
0.7562038916
 40
0.7706341157
 40
0.78465288
 40
0.7982544313
 40
0.8114337221
 40
0.8241863491
 40
0.8365087219
 40
0.8483980589
 40
0.8598525233
 40
0.8708713172
 40
0.8814547778
 40
0.8916045867
 40
0.9013238523
 40
0.9106174309
 40
0.9194920512
 40
0.9279567244
 40
0.9360229846
 40
0.9437053595
 40
0.9510217721
 40
0.9579940363
 40
0.9613596586
 40
0.9646494857
 40
0.9710169452
 40
0.9771338099
 40
0.9830416663
 40
0.9887872683
 40
0.9944218433
 40
1.0
 40
1.0
 40
1.0
 40
1.0
 10
13.2230229525
 20
9.7640326667
 30
0.0
 10
13.2221380639
 20
9.7442528007
 30
0.0
 10
13.2201054718
 20
9.7046600836
 30
0.0
 10
13.2162809586
 20
9.6453003673
 30
0.0
 10
13.2116852192
 20
9.58601413
 30
0.0
 10
13.2063307268
 20
9.5269624975
 30
0.0
 10
13.2002320695
 20
9.4683059582
 30
0.0
 10
13.193405844
 20
9.4102038612
 30
0.0
 10
13.1858706493
 20
9.3528140655
 30
0.0
 10
13.1776470202
 20
9.296292476
 30
0.0
 10
13.1687573785
 20
9.2407926254
 30
0.0
 10
13.1592259711
 20
9.1864652501
 30
0.0
 10
13.1490788052
 20
9.1334578771
 30
0.0
 10
13.1383435814
 20
9.0819144083
 30
0.0
 10
13.1270496155
 20
9.0319747476
 30
0.0
 10
13.1152277675
 20
8.9837743141
 30
0.0
 10
13.1029103311
 20
8.9374440001
 30
0.0
 10
13.0921519034
 20
8.9001195984
 30
0.0
 10
13.0833089067
 20
8.8712997248
 30
0.0
 10
13.0766430455
 20
8.8504547363
 30
0.0
 10
13.0698790207
 20
8.8301682329
 30
0.0
 10
13.0630213985
 20
8.8104539609
 30
0.0
 10
13.0560748426
 20
8.7913252974
 30
0.0
 10
13.0490441085
 20
8.7727952052
 30
0.0
 10
13.0419339343
 20
8.7548762497
 30
0.0
 10
13.0347492143
 20
8.7375805557
 30
0.0
 10
13.027494768
 20
8.7209198431
 30
0.0
 10
13.0201755893
 20
8.7049053635
 30
0.0
 10
13.0127965878
 20
8.6895479508
 30
0.0
 10
13.0053628116
 20
8.6748579553
 30
0.0
 10
12.9978792641
 20
8.6608452825
 30
0.0
 10
12.9903510045
 20
8.6475193565
 30
0.0
 10
12.9827831175
 20
8.6348891142
 30
0.0
 10
12.9751806363
 20
8.6229630305
 30
0.0
 10
12.9675486889
 20
8.6117490409
 30
0.0
 10
12.9598922503
 20
8.6012546505
 30
0.0
 10
12.9522164207
 20
8.5914867806
 30
0.0
 10
12.9445260865
 20
8.5824519543
 30
0.0
 10
12.9368262106
 20
8.5741561041
 30
0.0
 10
12.9291215674
 20
8.566604805
 30
0.0
 10
12.9214168018
 20
8.5598030559
 30
0.0
 10
12.9137167796
 20
8.5537557627
 30
0.0
 10
12.9072327891
 20
8.5492971724
 30
0.0
 10
12.9020558133
 20
8.5461270023
 30
0.0
 10
12.8970013248
 20
8.543280337
 30
0.0
 10
12.8906874253
 20
8.5401818532
 30
0.0
 10
12.8830499927
 20
8.5371934262
 30
0.0
 10
12.8754399041
 20
8.534979358
 30
0.0
 10
12.8678628104
 20
8.5335430207
 30
0.0
 10
12.8603261383
 20
8.5328871835
 30
0.0
 10
12.8553224047
 20
8.5329716365
 30
0.0
 10
12.8528440492
 20
8.5331435026
 30
0.0
  0
SPLINE
  5
394
100
AcDbEntity
  8
0
100
AcDbSpline
 62
7
  6
CONTINUOUS
 70
0
 71
3
 72
41
 73
37
 74
0
 42
0.0000001
 43
0.0000001
 44
0.0000000001
 40
0.0
 40
0.0
 40
0.0
 40
0.0
 40
0.0482063253
 40
0.0956485221
 40
0.1422755985
 40
0.1880421865
 40
0.2329022771
 40
0.276811523
 40
0.3197272261
 40
0.3616081563
 40
0.4024148777
 40
0.442109787
 40
0.4806572281
 40
0.5180237235
 40
0.5541781214
 40
0.5890917459
 40
0.6227386665
 40
0.6550960122
 40
0.6861442161
 40
0.7158673978
 40
0.7442539098
 40
0.7712968558
 40
0.7969947541
 40
0.8213524707
 40
0.8443823365
 40
0.86610544
 40
0.8865533502
 40
0.9057702982
 40
0.9238156602
 40
0.9407669099
 40
0.9567229186
 40
0.9718070646
 40
0.9790709406
 40
0.9861754893
 40
0.9931436687
 40
1.0
 40
1.0
 40
1.0
 40
1.0
 10
13.1921133235
 20
10.1454248865
 30
0.0
 10
13.1915485893
 20
10.156957375
 30
0.0
 10
13.1903128524
 20
10.179834093
 30
0.0
 10
13.1881189252
 20
10.2138416516
 30
0.0
 10
13.1856012763
 20
10.2472408567
 30
0.0
 10
13.1827628408
 20
10.2799936223
 30
0.0
 10
13.1796068018
 20
10.3120633049
 30
0.0
 10
13.1761367617
 20
10.3434136615
 30
0.0
 10
13.1723566657
 20
10.374009338
 30
0.0
 10
13.1682707899
 20
10.4038158566
 30
0.0
 10
13.163883794
 20
10.4327996244
 30
0.0
 10
13.1592006653
 20
10.46092799
 30
0.0
 10
13.1542267069
 20
10.4881692712
 30
0.0
 10
13.148967576
 20
10.5144928071
 30
0.0
 10
13.1434292571
 20
10.5398689931
 30
0.0
 10
13.1376180283
 20
10.564269303
 30
0.0
 10
13.1315404711
 20
10.5876663373
 30
0.0
 10
13.1252034922
 20
10.6100338704
 30
0.0
 10
13.1186142627
 20
10.6313468676
 30
0.0
 10
13.1117801982
 20
10.6515815182
 30
0.0
 10
13.1047089966
 20
10.6707152971
 30
0.0
 10
13.0974085766
 20
10.6887269883
 30
0.0
 10
13.08988702
 20
10.7055966989
 30
0.0
 10
13.0821525605
 20
10.7213059112
 30
0.0
 10
13.0742135487
 20
10.735837522
 30
0.0
 10
13.0660783141
 20
10.7491758162
 30
0.0
 10
13.0577550738
 20
10.7613064317
 30
0.0
 10
13.049251839
 20
10.772216357
 30
0.0
 10
13.0405763784
 20
10.781893655
 30
0.0
 10
13.0317356053
 20
10.7903273685
 30
0.0
 10
13.0227374749
 20
10.7975062935
 30
0.0
 10
13.0150162616
 20
10.8024964913
 30
0.0
 10
13.0087875941
 20
10.805815504
 30
0.0
 10
13.0041427174
 20
10.8079542981
 30
0.0
 10
12.9994679727
 20
10.8097725105
 30
0.0
 10
12.9963101772
 20
10.8107775982
 30
0.0
 10
12.9947299469
 20
10.8112245354
 30
0.0
  0
SPLINE
  5
395
100
AcDbEntity
  8
0
100
AcDbSpline
 62
7
  6
CONTINUOUS
 70
0
 71
3
 72
23
 73
19
 74
0
 42
0.0000001
 43
0.0000001
 44
0.0000000001
 40
0.0
 40
0.0
 40
0.0
 40
0.0
 40
0.0781380026
 40
0.1532328474
 40
0.2254045344
 40
0.2947994444
 40
0.3615913338
 40
0.4259789067
 40
0.4881875656
 40
0.5484705306
 40
0.6071104459
 40
0.6644173364
 40
0.720725622
 40
0.7763896411
 40
0.8317771154
 40
0.887261876
 40
0.9432156115
 40
1.0
 40
1.0
 40
1.0
 40
1.0
 10
12.900942138
 20
8.8462693419
 30
0.0
 10
12.8994018073
 20
8.8447814966
 30
0.0
 10
12.8963220847
 20
8.8419239619
 30
0.0
 10
12.8916100765
 20
8.8379254859
 30
0.0
 10
12.8869012014
 20
8.8343036615
 30
0.0
 10
12.8821975993
 20
8.8310604354
 30
0.0
 10
12.8775011652
 20
8.8281973203
 30
0.0
 10
12.8728137115
 20
8.8257158532
 30
0.0
 10
12.8681372117
 20
8.8236173516
 30
0.0
 10
12.8634736172
 20
8.8219032833
 30
0.0
 10
12.8588250676
 20
8.8205748396
 30
0.0
 10
12.8541937943
 20
8.8196331185
 30
0.0
 10
12.8495821958
 20
8.8190790958
 30
0.0
 10
12.8449928427
 20
8.8189132891
 30
0.0
 10
12.8404284378
 20
8.8191361297
 30
0.0
 10
12.8358916109
 20
8.8197474371
 30
0.0
 10
12.8313853864
 20
8.8207466639
 30
0.0
 10
12.8284302355
 20
8.8216625702
 30
0.0
 10
12.826962927
 20
8.8221813452
 30
0.0
  0
SPLINE
  5
396
100
AcDbEntity
  8
0
100
AcDbSpline
 62
7
  6
CONTINUOUS
 70
0
 71
3
 72
94
 73
90
 74
0
 42
0.0000001
 43
0.0000001
 44
0.0000000001
 40
0.0
 40
0.0
 40
0.0
 40
0.0
 40
0.0040523381
 40
0.0082800351
 40
0.0126869883
 40
0.0172765078
 40
0.0220513235
 40
0.0270134307
 40
0.0321641706
 40
0.0375043936
 40
0.0430344681
 40
0.0487543893
 40
0.0546637189
 40
0.0607617222
 40
0.0670473139
 40
0.0735191514
 40
0.0801756157
 40
0.0870148419
 40
0.1012327102
 40
0.1161540219
 40
0.1317566911
 40
0.1480160123
 40
0.1649049368
 40
0.1823943038
 40
0.20045304
 40
0.2190483356
 40
0.2381458023
 40
0.257709619
 40
0.2777026673
 40
0.2980866592
 40
0.3188222608
 40
0.3398692121
 40
0.3611864434
 40
0.3827321891
 40
0.4044641
 40
0.4263393545
 40
0.4483147691
 40
0.4703469083
 40
0.4923921937
 40
0.5144070141
 40
0.5363478349
 40
0.5581713077
 40
0.5798343796
 40
0.6012944034
 40
0.6225092481
 40
0.6434374108
 40
0.6640381293
 40
0.6842714972
 40
0.7040985823
 40
0.7234815466
 40
0.7423837712
 40
0.7607699873
 40
0.7786064152
 40
0.7958609148
 40
0.8125031497
 40
0.8285047723
 40
0.8438396344
 40
0.8584840361
 40
0.8724170223
 40
0.8791112302
 40
0.8856211687
 40
0.891945186
 40
0.898081851
 40
0.9040300598
 40
0.909788966
 40
0.9153581052
 40
0.9207373457
 40
0.9259269909
 40
0.9309277905
 40
0.9357409981
 40
0.9403684623
 40
0.9448126432
 40
0.9490767756
 40
0.953164877
 40
0.9570819496
 40
0.960834026
 40
0.964428368
 40
0.9678735771
 40
0.9711797529
 40
0.9743586455
 40
0.9774237314
 40
0.9803903178
 40
0.9832754715
 40
0.9860979369
 40
0.9888778472
 40
0.9916363677
 40
0.9943951977
 40
0.99717603
 40
1.0
 40
1.0
 40
1.0
 40
1.0
 10
12.900942138
 20
8.8462693419
 30
0.0
 10
12.9026780678
 20
8.8479461214
 30
0.0
 10
12.9061479034
 20
8.8514528419
 30
0.0
 10
12.9112411703
 20
8.8570368808
 30
0.0
 10
12.9163287261
 20
8.8630516257
 30
0.0
 10
12.9214077907
 20
8.8694936604
 30
0.0
 10
12.9264758507
 20
8.8763597351
 30
0.0
 10
12.9315303547
 20
8.8836463198
 30
0.0
 10
12.9365687094
 20
8.8913496331
 30
0.0
 10
12.9415882356
 20
8.8994656757
 30
0.0
 10
12.9465863861
 20
8.9079901878
 30
0.0
 10
12.9515604782
 20
8.916918754
 30
0.0
 10
12.9565079836
 20
8.9262466807
 30
0.0
 10
12.9614262322
 20
8.9359691086
 30
0.0
 10
12.9663126941
 20
8.9460809246
 30
0.0
 10
12.9711647549
 20
8.9565768325
 30
0.0
 10
12.9759799016
 20
8.9674513278
 30
0.0
 10
12.9824310026
 20
8.9826448116
 30
0.0
 10
12.9903705067
 20
9.0025511429
 30
0.0
 10
12.9995918788
 20
9.027555167
 30
0.0
 10
13.0086067743
 20
9.0539225668
 30
0.0
 10
13.017396088
 20
9.0815978566
 30
0.0
 10
13.025941187
 20
9.110522979
 30
0.0
 10
13.0342239551
 20
9.1406371102
 30
0.0
 10
13.0422268344
 20
9.1718768962
 30
0.0
 10
13.0499328635
 20
9.2041765681
 30
0.0
 10
13.0573257146
 20
9.2374680956
 30
0.0
 10
13.0643897273
 20
9.2716813343
 30
0.0
 10
13.0711099417
 20
9.3067441773
 30
0.0
 10
13.0774721306
 20
9.3425827106
 30
0.0
 10
13.0834628296
 20
9.3791213716
 30
0.0
 10
13.0890693634
 20
9.4162831121
 30
0.0
 10
13.0942798727
 20
9.4539895624
 30
0.0
 10
13.0990833389
 20
9.4921611986
 30
0.0
 10
13.1034696068
 20
9.5307175106
 30
0.0
 10
13.1074294062
 20
9.5695771734
 30
0.0
 10
13.1109543708
 20
9.6086582192
 30
0.0
 10
13.1140370559
 20
9.6478782108
 30
0.0
 10
13.1166709545
 20
9.6871544162
 30
0.0
 10
13.1188505125
 20
9.7264039845
 30
0.0
 10
13.1205711384
 20
9.7655441212
 30
0.0
 10
13.1218292133
 20
9.8044922642
 30
0.0
 10
13.1226220987
 20
9.843166258
 30
0.0
 10
13.1229481426
 20
9.8814845277
 30
0.0
 10
13.1228066829
 20
9.9193662521
 30
0.0
 10
13.1221980493
 20
9.9567315348
 30
0.0
 10
13.1211235631
 20
9.9935015739
 30
0.0
 10
13.119585535
 20
10.0295988305
 30
0.0
 10
13.1175872628
 20
10.0649471949
 30
0.0
 10
13.1151330232
 20
10.099472149
 30
0.0
 10
13.1122280637
 20
10.1331009262
 30
0.0
 10
13.1088785918
 20
10.165762668
 30
0.0
 10
13.1050917634
 20
10.1973885788
 30
0.0
 10
13.1008756675
 20
10.2279120744
 30
0.0
 10
13.0962393102
 20
10.2572689389
 30
0.0
 10
13.0911925925
 20
10.2853974417
 30
0.0
 10
13.0857462969
 20
10.3122385843
 30
0.0
 10
13.0799120254
 20
10.33773589
 30
0.0
 10
13.0746697704
 20
10.3580818522
 30
0.0
 10
13.07027854
 20
10.3736369547
 30
0.0
 10
13.0669398316
 20
10.3847786944
 30
0.0
 10
13.0635137384
 20
10.3955459374
 30
0.0
 10
13.0600019682
 20
10.4059330378
 30
0.0
 10
13.0564064549
 20
10.4159345584
 30
0.0
 10
13.0527290107
 20
10.4255452489
 30
0.0
 10
13.0489716332
 20
10.4347600964
 30
0.0
 10
13.0451362384
 20
10.4435742791
 30
0.0
 10
13.0412248517
 20
10.4519832085
 30
0.0
 10
13.0372395049
 20
10.4599825139
 30
0.0
 10
13.0331822221
 20
10.4675680318
 30
0.0
 10
13.0290551386
 20
10.4747358595
 30
0.0
 10
13.0248602656
 20
10.4814822588
 30
0.0
 10
13.0205997977
 20
10.4878037958
 30
0.0
 10
13.0162757403
 20
10.4936971599
 30
0.0
 10
13.0118902769
 20
10.4991593542
 30
0.0
 10
13.0074454228
 20
10.5041874916
 30
0.0
 10
13.0029432846
 20
10.5087789364
 30
0.0
 10
12.9983859055
 20
10.5129311895
 30
0.0
 10
12.9937753104
 20
10.5166418583
 30
0.0
 10
12.989113621
 20
10.5199087501
 30
0.0
 10
12.9844029069
 20
10.5227295965
 30
0.0
 10
12.979645518
 20
10.5251024296
 30
0.0
 10
12.9748438607
 20
10.5270251293
 30
0.0
 10
12.9700007579
 20
10.5284960302
 30
0.0
 10
12.9651192299
 20
10.5295135116
 30
0.0
 10
12.9602026905
 20
10.5300765791
 30
0.0
 10
12.9552545479
 20
10.5301846465
 30
0.0
 10
12.950278858
 20
10.5298378307
 30
0.0
 10
12.9469777942
 20
10.5293089519
 30
0.0
 10
12.9453298602
 20
10.5289725743
 30
0.0
  0
SPLINE
  5
397
100
AcDbEntity
  8
0
100
AcDbSpline
 62
4
  6
CONTINUOUS
 70
0
 71
3
 72
313
 73
309
 74
0
 42
0.0000001
 43
0.0000001
 44
0.0000000001
 40
0.0
 40
0.0
 40
0.0
 40
0.0
 40
0.015625
 40
0.0234375
 40
0.03125
 40
0.0390625
 40
0.046875
 40
0.05078125
 40
0.0546875
 40
0.056640625
 40
0.05859375
 40
0.060546875
 40
0.0615234375
 40
0.0620117188
 40
0.0625
 40
0.0629882812
 40
0.0634765625
 40
0.064453125
 40
0.06640625
 40
0.068359375
 40
0.0703125
 40
0.07421875
 40
0.078125
 40
0.0859375
 40
0.09375
 40
0.1015625
 40
0.109375
 40
0.11328125
 40
0.1171875
 40
0.119140625
 40
0.12109375
 40
0.123046875
 40
0.1240234375
 40
0.1245117188
 40
0.125
 40
0.1254882812
 40
0.1259765625
 40
0.126953125
 40
0.12890625
 40
0.130859375
 40
0.1328125
 40
0.13671875
 40
0.140625
 40
0.1484375
 40
0.15625
 40
0.1640625
 40
0.171875
 40
0.17578125
 40
0.1796875
 40
0.181640625
 40
0.18359375
 40
0.185546875
 40
0.1865234375
 40
0.1870117188
 40
0.1875
 40
0.1879882812
 40
0.1884765625
 40
0.189453125
 40
0.19140625
 40
0.193359375
 40
0.1953125
 40
0.19921875
 40
0.203125
 40
0.2109375
 40
0.21875
 40
0.2265625
 40
0.234375
 40
0.23828125
 40
0.2421875
 40
0.244140625
 40
0.24609375
 40
0.248046875
 40
0.2490234375
 40
0.2495117188
 40
0.25
 40
0.2504882812
 40
0.2509765625
 40
0.251953125
 40
0.25390625
 40
0.255859375
 40
0.2578125
 40
0.26171875
 40
0.265625
 40
0.2734375
 40
0.28125
 40
0.2890625
 40
0.296875
 40
0.30078125
 40
0.3046875
 40
0.306640625
 40
0.30859375
 40
0.310546875
 40
0.3115234375
 40
0.3120117188
 40
0.3125
 40
0.3129882812
 40
0.3134765625
 40
0.314453125
 40
0.31640625
 40
0.318359375
 40
0.3203125
 40
0.32421875
 40
0.328125
 40
0.3359375
 40
0.34375
 40
0.3515625
 40
0.359375
 40
0.36328125
 40
0.3671875
 40
0.369140625
 40
0.37109375
 40
0.373046875
 40
0.3740234375
 40
0.3745117188
 40
0.375
 40
0.3754882812
 40
0.3759765625
 40
0.376953125
 40
0.37890625
 40
0.380859375
 40
0.3828125
 40
0.38671875
 40
0.390625
 40
0.3984375
 40
0.40625
 40
0.4140625
 40
0.421875
 40
0.42578125
 40
0.4296875
 40
0.431640625
 40
0.43359375
 40
0.435546875
 40
0.4365234375
 40
0.4370117188
 40
0.4375
 40
0.4379882812
 40
0.4384765625
 40
0.439453125
 40
0.44140625
 40
0.443359375
 40
0.4453125
 40
0.44921875
 40
0.453125
 40
0.4609375
 40
0.46875
 40
0.4765625
 40
0.484375
 40
0.48828125
 40
0.4921875
 40
0.494140625
 40
0.49609375
 40
0.498046875
 40
0.4990234375
 40
0.4995117188
 40
0.5
 40
0.5004882812
 40
0.5009765625
 40
0.501953125
 40
0.50390625
 40
0.505859375
 40
0.5078125
 40
0.51171875
 40
0.515625
 40
0.5234375
 40
0.53125
 40
0.5390625
 40
0.546875
 40
0.55078125
 40
0.5546875
 40
0.556640625
 40
0.55859375
 40
0.560546875
 40
0.5615234375
 40
0.5620117188
 40
0.5625
 40
0.5629882812
 40
0.5634765625
 40
0.564453125
 40
0.56640625
 40
0.568359375
 40
0.5703125
 40
0.57421875
 40
0.578125
 40
0.5859375
 40
0.59375
 40
0.6015625
 40
0.609375
 40
0.61328125
 40
0.6171875
 40
0.619140625
 40
0.62109375
 40
0.623046875
 40
0.6240234375
 40
0.6245117188
 40
0.625
 40
0.6254882812
 40
0.6259765625
 40
0.626953125
 40
0.62890625
 40
0.630859375
 40
0.6328125
 40
0.63671875
 40
0.640625
 40
0.6484375
 40
0.65625
 40
0.6640625
 40
0.671875
 40
0.67578125
 40
0.6796875
 40
0.681640625
 40
0.68359375
 40
0.685546875
 40
0.6865234375
 40
0.6870117188
 40
0.6875
 40
0.6879882812
 40
0.6884765625
 40
0.689453125
 40
0.69140625
 40
0.693359375
 40
0.6953125
 40
0.69921875
 40
0.703125
 40
0.7109375
 40
0.71875
 40
0.7265625
 40
0.734375
 40
0.73828125
 40
0.7421875
 40
0.744140625
 40
0.74609375
 40
0.748046875
 40
0.7490234375
 40
0.7495117188
 40
0.75
 40
0.7504882812
 40
0.7509765625
 40
0.751953125
 40
0.75390625
 40
0.755859375
 40
0.7578125
 40
0.76171875
 40
0.765625
 40
0.7734375
 40
0.78125
 40
0.7890625
 40
0.796875
 40
0.80078125
 40
0.8046875
 40
0.806640625
 40
0.80859375
 40
0.810546875
 40
0.8115234375
 40
0.8120117188
 40
0.8125
 40
0.8129882812
 40
0.8134765625
 40
0.814453125
 40
0.81640625
 40
0.818359375
 40
0.8203125
 40
0.82421875
 40
0.828125
 40
0.8359375
 40
0.84375
 40
0.8515625
 40
0.859375
 40
0.86328125
 40
0.8671875
 40
0.869140625
 40
0.87109375
 40
0.873046875
 40
0.8740234375
 40
0.8745117188
 40
0.875
 40
0.8754882812
 40
0.8759765625
 40
0.876953125
 40
0.87890625
 40
0.880859375
 40
0.8828125
 40
0.88671875
 40
0.890625
 40
0.8984375
 40
0.90625
 40
0.9140625
 40
0.921875
 40
0.92578125
 40
0.9296875
 40
0.931640625
 40
0.93359375
 40
0.935546875
 40
0.9365234375
 40
0.9370117188
 40
0.9375
 40
0.9379882812
 40
0.9384765625
 40
0.939453125
 40
0.94140625
 40
0.943359375
 40
0.9453125
 40
0.94921875
 40
0.953125
 40
0.9609375
 40
0.96875
 40
0.9765625
 40
0.984375
 40
1.0
 40
1.0
 40
1.0
 40
1.0
 10
10.283435065
 20
9.6624303122
 30
0.0
 10
10.2865682519
 20
9.6625202366
 30
0.0
 10
10.2912680323
 20
9.662655123
 30
0.0
 10
10.297534406
 20
9.6628349725
 30
0.0
 10
10.3022341868
 20
9.6629698571
 30
0.0
 10
10.3069339657
 20
9.6631047512
 30
0.0
 10
10.3108504539
 20
9.6632171335
 30
0.0
 10
10.3139836315
 20
9.6633071053
 30
0.0
 10
10.3159418969
 20
9.6633631874
 30
0.0
 10
10.317508442
 20
9.6634083971
 30
0.0
 10
10.3186835348
 20
9.6634413627
 30
0.0
 10
10.3196621936
 20
9.6634718298
 30
0.0
 10
10.3203484032
 20
9.6634872775
 30
0.0
 10
10.3207387298
 20
9.6635052848
 30
0.0
 10
10.321036526
 20
9.6634929298
 30
0.0
 10
10.3213150141
 20
9.6635794267
 30
0.0
 10
10.3216930664
 20
9.6636602753
 30
0.0
 10
10.32235152
 20
9.6638178254
 30
0.0
 10
10.3232938086
 20
9.6640344979
 30
0.0
 10
10.3244238527
 20
9.6642981
 30
0.0
 10
10.3259308235
 20
9.6646483137
 30
0.0
 10
10.3278144529
 20
9.6650865109
 30
0.0
 10
10.330828307
 20
9.665787386
 30
0.0
 10
10.3345956083
 20
9.6666635629
 30
0.0
 10
10.3391163777
 20
9.6677149373
 30
0.0
 10
10.3436371417
 20
9.6687663303
 30
0.0
 10
10.3474044567
 20
9.6696424608
 30
0.0
 10
10.3504182833
 20
9.6703434287
 30
0.0
 10
10.3523019825
 20
9.67078139
 30
0.0
 10
10.3538088101
 20
9.6711320879
 30
0.0
 10
10.3549392916
 20
9.6713942108
 30
0.0
 10
10.3558802115
 20
9.6716155115
 30
0.0
 10
10.3565411085
 20
9.6717647995
 30
0.0
 10
10.356915246
 20
9.671858886
 30
0.0
 10
10.357205759
 20
9.6719047203
 30
0.0
 10
10.3574583914
 20
9.6720450871
 30
0.0
 10
10.3578084478
 20
9.6721992688
 30
0.0
 10
10.3584148901
 20
9.6724844501
 30
0.0
 10
10.3592844549
 20
9.6728838198
 30
0.0
 10
10.360326555
 20
9.6733665014
 30
0.0
 10
10.361716503
 20
9.6740088761
 30
0.0
 10
10.3634537732
 20
9.6748122556
 30
0.0
 10
10.3662334977
 20
9.676097433
 30
0.0
 10
10.3697081214
 20
9.6777039842
 30
0.0
 10
10.3738776846
 20
9.6796318093
 30
0.0
 10
10.3780472396
 20
9.6815596523
 30
0.0
 10
10.381521884
 20
9.6831661585
 30
0.0
 10
10.384301567
 20
9.6844514257
 30
0.0
 10
10.3860389427
 20
9.685254577
 30
0.0
 10
10.3874286742
 20
9.6858974202
 30
0.0
 10
10.3884714355
 20
9.6863786705
 30
0.0
 10
10.3893389316
 20
9.6867825186
 30
0.0
 10
10.3899490669
 20
9.6870597051
 30
0.0
 10
10.3902932062
 20
9.6872266965
 30
0.0
 10
10.3905640138
 20
9.6873277163
 30
0.0
 10
10.3907862638
 20
9.6875213313
 30
0.0
 10
10.3910995346
 20
9.6877471865
 30
0.0
 10
10.391639867
 20
9.6881574813
 30
0.0
 10
10.3924158961
 20
9.6887357494
 30
0.0
 10
10.3933453651
 20
9.6894330386
 30
0.0
 10
10.394585274
 20
9.6903615814
 30
0.0
 10
10.3961349489
 20
9.6915226626
 30
0.0
 10
10.3986145467
 20
9.6933801673
 30
0.0
 10
10.4017140031
 20
9.6957021259
 30
0.0
 10
10.4054333702
 20
9.6984884412
 30
0.0
 10
10.4091527251
 20
9.7012747722
 30
0.0
 10
10.4122522119
 20
9.7035966916
 30
0.0
 10
10.4147317491
 20
9.7054542747
 30
0.0
 10
10.4162815782
 20
9.7066151568
 30
0.0
 10
10.4175211705
 20
9.7075441082
 30
0.0
 10
10.4184516066
 20
9.7082401488
 30
0.0
 10
10.41922461
 20
9.7088223235
 30
0.0
 10
10.4197703438
 20
9.7092256445
 30
0.0
 10
10.4200749601
 20
9.7094626735
 30
0.0
 10
10.4203237937
 20
9.7096219662
 30
0.0
 10
10.4204947577
 20
9.7098518952
 30
0.0
 10
10.4207498715
 20
9.7101338285
 30
0.0
 10
10.4211836653
 20
9.7106386914
 30
0.0
 10
10.4218099872
 20
9.7113539224
 30
0.0
 10
10.4225587414
 20
9.7122147686
 30
0.0
 10
10.4235580695
 20
9.7133616662
 30
0.0
 10
10.4248068909
 20
9.7147955954
 30
0.0
 10
10.4268051945
 20
9.7170897105
 30
0.0
 10
10.4293030087
 20
9.7199574135
 30
0.0
 10
10.4323004156
 20
9.7233986304
 30
0.0
 10
10.4352978072
 20
9.7268398598
 30
0.0
 10
10.4377956598
 20
9.7297075313
 30
0.0
 10
10.4397938865
 20
9.7320017095
 30
0.0
 10
10.4410429036
 20
9.7334354781
 30
0.0
 10
10.44204183
 20
9.7345827054
 30
0.0
 10
10.4427918117
 20
9.7354425444
 30
0.0
 10
10.4434142929
 20
9.7361609265
 30
0.0
 10
10.4438549428
 20
9.7366601643
 30
0.0
 10
10.4440990715
 20
9.7369511105
 30
0.0
 10
10.4443037781
 20
9.7371533548
 30
0.0
 10
10.4444258799
 20
9.7374166268
 30
0.0
 10
10.4446174958
 20
9.737746369
 30
0.0
 10
10.4449393988
 20
9.738333336
 30
0.0
 10
10.4454062789
 20
9.739166675
 30
0.0
 10
10.4459635308
 20
9.7401689013
 30
0.0
 10
10.4467075826
 20
9.7415044277
 30
0.0
 10
10.4476372881
 20
9.7431741013
 30
0.0
 10
10.4491250178
 20
9.7458454305
 30
0.0
 10
10.4509846104
 20
9.7491846432
 30
0.0
 10
10.4532161536
 20
9.7531916755
 30
0.0
 10
10.45544768
 20
9.7571987178
 30
0.0
 10
10.4573073145
 20
9.7605379052
 30
0.0
 10
10.4587949605
 20
9.7632092851
 30
0.0
 10
10.4597248787
 20
9.7648788298
 30
0.0
 10
10.460468494
 20
9.7662146207
 30
0.0
 10
10.4610270797
 20
9.7672160392
 30
0.0
 10
10.4614897865
 20
9.7680519053
 30
0.0
 10
10.4618191395
 20
9.768634361
 30
0.0
 10
10.4619988186
 20
9.7689713315
 30
0.0
 10
10.4621575864
 20
9.7692124006
 30
0.0
 10
10.4622245816
 20
9.7694980355
 30
0.0
 10
10.4623459198
 20
9.7698633369
 30
0.0
 10
10.4625433469
 20
9.7705098571
 30
0.0
 10
10.4628331833
 20
9.7714296708
 30
0.0
 10
10.4631776494
 20
9.772535068
 30
0.0
 10
10.4636381032
 20
9.7740083649
 30
0.0
 10
10.4642132714
 20
9.7758501798
 30
0.0
 10
10.4651337635
 20
9.7787969753
 30
0.0
 10
10.4662843016
 20
9.782480507
 30
0.0
 10
10.4676649828
 20
9.7869007283
 30
0.0
 10
10.4690456457
 20
9.7913209572
 30
0.0
 10
10.4701962292
 20
9.7950044697
 30
0.0
 10
10.4711166306
 20
9.7979513037
 30
0.0
 10
10.4716920296
 20
9.7997930209
 30
0.0
 10
10.4721520097
 20
9.8012665183
 30
0.0
 10
10.472497923
 20
9.8023713029
 30
0.0
 10
10.4727832313
 20
9.8032930332
 30
0.0
 10
10.4729887418
 20
9.803936132
 30
0.0
 10
10.4730971285
 20
9.8043069153
 30
0.0
 10
10.4732039067
 20
9.8045757117
 30
0.0
 10
10.473213256
 20
9.8048800231
 30
0.0
 10
10.4732597059
 20
9.8052733835
 30
0.0
 10
10.4733251595
 20
9.8059675361
 30
0.0
 10
10.4734269428
 20
9.8069561651
 30
0.0
 10
10.4735455394
 20
9.8081438115
 30
0.0
 10
10.4737049058
 20
9.8097268889
 30
0.0
 10
10.47390369
 20
9.8117058902
 30
0.0
 10
10.4742219817
 20
9.8148722058
 30
0.0
 10
10.4746197645
 20
9.81883013
 30
0.0
 10
10.4750971413
 20
9.8235796263
 30
0.0
 10
10.475574499
 20
9.8283291259
 30
0.0
 10
10.4759723295
 20
9.832287042
 30
0.0
 10
10.4762905258
 20
9.8354533738
 30
0.0
 10
10.4764895524
 20
9.837432334
 30
0.0
 10
10.4766484215
 20
9.8390154956
 30
0.0
 10
10.4767685374
 20
9.840202885
 30
0.0
 10
10.4768655671
 20
9.8411923181
 30
0.0
 10
10.4769395065
 20
9.8418850352
 30
0.0
 10
10.4769723602
 20
9.8422806956
 30
0.0
 10
10.4770234729
 20
9.8425779421
 30
0.0
 10
10.4769733945
 20
9.842873273
 30
0.0
 10
10.47694192
 20
9.8432677156
 30
0.0
 10
10.4768703942
 20
9.8439576789
 30
0.0
 10
10.4767768123
 20
9.8449435035
 30
0.0
 10
10.4766608339
 20
9.8461264234
 30
0.0
 10
10.4765074814
 20
9.8477036743
 30
0.0
 10
10.4763153507
 20
9.8496752295
 30
0.0
 10
10.4760081876
 20
9.8528297226
 30
0.0
 10
10.4756241487
 20
9.8567728372
 30
0.0
 10
10.4751633409
 20
9.8615045758
 30
0.0
 10
10.474702514
 20
9.866236313
 30
0.0
 10
10.4743185228
 20
9.8701794311
 30
0.0
 10
10.4740112643
 20
9.8733339172
 30
0.0
 10
10.473819376
 20
9.8753054901
 30
0.0
 10
10.473665526
 20
9.8768827047
 30
0.0
 10
10.4735510675
 20
9.8780657352
 30
0.0
 10
10.4734527302
 20
9.8790512138
 30
0.0
 10
10.4733896937
 20
9.8797417949
 30
0.0
 10
10.4733446171
 20
9.8801352476
 30
0.0
 10
10.4733363199
 20
9.8804336192
 30
0.0
 10
10.4732305098
 20
9.8807194452
 30
0.0
 10
10.4731234432
 20
9.8811049226
 30
0.0
 10
10.4729202292
 20
9.8817774692
 30
0.0
 10
10.4726382087
 20
9.882739316
 30
0.0
 10
10.4722962378
 20
9.8838930759
 30
0.0
 10
10.4718415153
 20
9.8854315817
 30
0.0
 10
10.471272688
 20
9.8873546595
 30
0.0
 10
10.4703628014
 20
9.8904316144
 30
0.0
 10
10.4692253612
 20
9.8942777974
 30
0.0
 10
10.4678604704
 20
9.8988932224
 30
0.0
 10
10.4664955614
 20
9.9035086431
 30
0.0
 10
10.4653581667
 20
9.9073548367
 30
0.0
 10
10.4644481892
 20
9.9104317704
 30
0.0
 10
10.463879593
 20
9.9123549019
 30
0.0
 10
10.4634243962
 20
9.9138932975
 30
0.0
 10
10.4630838741
 20
9.9150473943
 30
0.0
 10
10.4627973204
 20
9.9160081868
 30
0.0
 10
10.462602199
 20
9.9166826155
 30
0.0
 10
10.4624821661
 20
9.9170650773
 30
0.0
 10
10.4624161846
 20
9.9173601662
 30
0.0
 10
10.4622582977
 20
9.9176237481
 30
0.0
 10
10.4620798394
 20
9.9179861806
 30
0.0
 10
10.4617526013
 20
9.9186153169
 30
0.0
 10
10.4612929271
 20
9.9195167603
 30
0.0
 10
10.4607379755
 20
9.9205973464
 30
0.0
 10
10.4599992076
 20
9.9220385281
 30
0.0
 10
10.459075348
 20
9.9238398682
 30
0.0
 10
10.457597396
 20
9.9267220889
 30
0.0
 10
10.455749879
 20
9.9303248384
 30
0.0
 10
10.4535328937
 20
9.9346481501
 30
0.0
 10
10.451315891
 20
9.9389714547
 30
0.0
 10
10.4494684173
 20
9.9425742219
 30
0.0
 10
10.4479903785
 20
9.9454564072
 30
0.0
 10
10.4470667398
 20
9.9472578374
 30
0.0
 10
10.4463275184
 20
9.9486988342
 30
0.0
 10
10.4457739524
 20
9.9497799854
 30
0.0
 10
10.4453099432
 20
9.9506796606
 30
0.0
 10
10.4449904437
 20
9.9513119533
 30
0.0
 10
10.4447995862
 20
9.9516693287
 30
0.0
 10
10.4446797858
 20
9.9519484444
 30
0.0
 10
10.4444707576
 20
9.9521851906
 30
0.0
 10
10.4442231771
 20
9.9525156311
 30
0.0
 10
10.44377541
 20
9.9530870162
 30
0.0
 10
10.4431433242
 20
9.9539068807
 30
0.0
 10
10.442381576
 20
9.9548891771
 30
0.0
 10
10.4413670453
 20
9.9561994439
 30
0.0
 10
10.4400984938
 20
9.9578370931
 30
0.0
 10
10.4380690284
 20
9.9604574349
 30
0.0
 10
10.4355321218
 20
9.9637328264
 30
0.0
 10
10.4324878675
 20
9.9676633132
 30
0.0
 10
10.4294435983
 20
9.9715937889
 30
0.0
 10
10.4269067288
 20
9.9748692082
 30
0.0
 10
10.4248771892
 20
9.9774894944
 30
0.0
 10
10.4236088261
 20
9.9791272848
 30
0.0
 10
10.4225939087
 20
9.9804372618
 30
0.0
 10
10.4218333421
 20
9.9814204434
 30
0.0
 10
10.4211975595
 20
9.9822375385
 30
0.0
 10
10.4207563917
 20
9.9828138674
 30
0.0
 10
10.4204982375
 20
9.9831363868
 30
0.0
 10
10.4203216882
 20
9.9833974642
 30
0.0
 10
10.4200799027
 20
9.983585196
 30
0.0
 10
10.4197802772
 20
9.9838610888
 30
0.0
 10
10.4192453306
 20
9.9843319814
 30
0.0
 10
10.418486664
 20
9.9850109169
 30
0.0
 10
10.4175738916
 20
9.9858229721
 30
0.0
 10
10.4163576903
 20
9.9869066441
 30
0.0
 10
10.414837155
 20
9.988260915
 30
0.0
 10
10.4124044572
 20
9.9904279268
 30
0.0
 10
10.4093635301
 20
9.9931366299
 30
0.0
 10
10.4057144424
 20
9.996387102
 30
0.0
 10
10.4020653431
 20
9.9996375594
 30
0.0
 10
10.399024445
 20
10.0023462991
 30
0.0
 10
10.3965916893
 20
10.0045132379
 30
0.0
 10
10.395071301
 20
10.0058676943
 30
0.0
 10
10.393854798
 20
10.0069509854
 30
0.0
 10
10.3929429475
 20
10.0077642042
 30
0.0
 10
10.3921813962
 20
10.0084394992
 30
0.0
 10
10.3916515993
 20
10.0089168907
 30
0.0
 10
10.3913437227
 20
10.0091823707
 30
0.0
 10
10.391127282
 20
10.0094020875
 30
0.0
 10
10.3908555421
 20
10.0095430345
 30
0.0
 10
10.3905125113
 20
10.0097584396
 30
0.0
 10
10.3899032203
 20
10.0101225971
 30
0.0
 10
10.389037503
 20
10.0106495149
 30
0.0
 10
10.3879966312
 20
10.0112789515
 30
0.0
 10
10.3866095046
 20
10.0121192009
 30
0.0
 10
10.3848753558
 20
10.01316917
 30
0.0
 10
10.3821008521
 20
10.0148493122
 30
0.0
 10
10.3786326762
 20
10.0169494236
 30
0.0
 10
10.3744708859
 20
10.0194695879
 30
0.0
 10
10.3703090867
 20
10.0219897361
 30
0.0
 10
10.3668409332
 20
10.0240898879
 30
0.0
 10
10.3640663847
 20
10.0257699495
 30
0.0
 10
10.3623323499
 20
10.0268201234
 30
0.0
 10
10.3609449892
 20
10.0276599524
 30
0.0
 10
10.3599048326
 20
10.0282906733
 30
0.0
 10
10.3590368777
 20
10.0288135729
 30
0.0
 10
10.3584315813
 20
10.0291849034
 30
0.0
 10
10.35808215
 20
10.0293888156
 30
0.0
 10
10.3578300703
 20
10.0295650652
 30
0.0
 10
10.3575397894
 20
10.0296521914
 30
0.0
 10
10.3571660731
 20
10.0297994469
 30
0.0
 10
10.3565058613
 20
10.03004266
 30
0.0
 10
10.3555659474
 20
10.0303976796
 30
0.0
 10
10.3544366613
 20
10.0308204619
 30
0.0
 10
10.3529314319
 20
10.0313853038
 30
0.0
 10
10.3510497289
 20
10.0320909684
 30
0.0
 10
10.3480390971
 20
10.0332202487
 30
0.0
 10
10.3442757752
 20
10.034631774
 30
0.0
 10
10.3397598034
 20
10.0363256389
 30
0.0
 10
10.3352438252
 20
10.038019486
 30
0.0
 10
10.3314805194
 20
10.0394310556
 30
0.0
 10
10.3284698554
 20
10.0405602473
 30
0.0
 10
10.3265882342
 20
10.0412661371
 30
0.0
 10
10.3250828371
 20
10.0418305168
 30
0.0
 10
10.3239540632
 20
10.0422547109
 30
0.0
 10
10.3230125468
 20
10.0426053136
 30
0.0
 10
10.3223551957
 20
10.0428564116
 30
0.0
 10
10.3219768958
 20
10.0429910334
 30
0.0
 10
10.3217006943
 20
10.0431169662
 30
0.0
 10
10.3213957344
 20
10.0431474645
 30
0.0
 10
10.3209991525
 20
10.0432214176
 30
0.0
 10
10.3203004604
 20
10.0433353256
 30
0.0
 10
10.3193047723
 20
10.0435061601
 30
0.0
 10
10.3181089006
 20
10.0437076907
 30
0.0
 10
10.3165147704
 20
10.0439776104
 30
0.0
 10
10.3145219826
 20
10.0443145949
 30
0.0
 10
10.3113335919
 20
10.0448540022
 30
0.0
 10
10.3073480796
 20
10.0455281817
 30
0.0
 10
10.3025654751
 20
10.0463372312
 30
0.0
 10
10.2977828679
 20
10.0471462716
 30
0.0
 10
10.2914060592
 20
10.0482249953
 30
0.0
 10
10.2866234525
 20
10.0490340373
 30
0.0
 10
10.283435048
 20
10.0495733988
 30
0.0
  0
SPLINE
  5
398
100
AcDbEntity
  8
0
100
AcDbSpline
 62
4
  6
CONTINUOUS
 70
0
 71
3
 72
313
 73
309
 74
0
 42
0.0000001
 43
0.0000001
 44
0.0000000001
 40
0.0
 40
0.0
 40
0.0
 40
0.0
 40
0.015625
 40
0.0234375
 40
0.03125
 40
0.0390625
 40
0.046875
 40
0.05078125
 40
0.0546875
 40
0.056640625
 40
0.05859375
 40
0.060546875
 40
0.0615234375
 40
0.0620117188
 40
0.0625
 40
0.0629882812
 40
0.0634765625
 40
0.064453125
 40
0.06640625
 40
0.068359375
 40
0.0703125
 40
0.07421875
 40
0.078125
 40
0.0859375
 40
0.09375
 40
0.1015625
 40
0.109375
 40
0.11328125
 40
0.1171875
 40
0.119140625
 40
0.12109375
 40
0.123046875
 40
0.1240234375
 40
0.1245117188
 40
0.125
 40
0.1254882812
 40
0.1259765625
 40
0.126953125
 40
0.12890625
 40
0.130859375
 40
0.1328125
 40
0.13671875
 40
0.140625
 40
0.1484375
 40
0.15625
 40
0.1640625
 40
0.171875
 40
0.17578125
 40
0.1796875
 40
0.181640625
 40
0.18359375
 40
0.185546875
 40
0.1865234375
 40
0.1870117188
 40
0.1875
 40
0.1879882812
 40
0.1884765625
 40
0.189453125
 40
0.19140625
 40
0.193359375
 40
0.1953125
 40
0.19921875
 40
0.203125
 40
0.2109375
 40
0.21875
 40
0.2265625
 40
0.234375
 40
0.23828125
 40
0.2421875
 40
0.244140625
 40
0.24609375
 40
0.248046875
 40
0.2490234375
 40
0.2495117188
 40
0.25
 40
0.2504882812
 40
0.2509765625
 40
0.251953125
 40
0.25390625
 40
0.255859375
 40
0.2578125
 40
0.26171875
 40
0.265625
 40
0.2734375
 40
0.28125
 40
0.2890625
 40
0.296875
 40
0.30078125
 40
0.3046875
 40
0.306640625
 40
0.30859375
 40
0.310546875
 40
0.3115234375
 40
0.3120117188
 40
0.3125
 40
0.3129882812
 40
0.3134765625
 40
0.314453125
 40
0.31640625
 40
0.318359375
 40
0.3203125
 40
0.32421875
 40
0.328125
 40
0.3359375
 40
0.34375
 40
0.3515625
 40
0.359375
 40
0.36328125
 40
0.3671875
 40
0.369140625
 40
0.37109375
 40
0.373046875
 40
0.3740234375
 40
0.3745117188
 40
0.375
 40
0.3754882812
 40
0.3759765625
 40
0.376953125
 40
0.37890625
 40
0.380859375
 40
0.3828125
 40
0.38671875
 40
0.390625
 40
0.3984375
 40
0.40625
 40
0.4140625
 40
0.421875
 40
0.42578125
 40
0.4296875
 40
0.431640625
 40
0.43359375
 40
0.435546875
 40
0.4365234375
 40
0.4370117188
 40
0.4375
 40
0.4379882812
 40
0.4384765625
 40
0.439453125
 40
0.44140625
 40
0.443359375
 40
0.4453125
 40
0.44921875
 40
0.453125
 40
0.4609375
 40
0.46875
 40
0.4765625
 40
0.484375
 40
0.48828125
 40
0.4921875
 40
0.494140625
 40
0.49609375
 40
0.498046875
 40
0.4990234375
 40
0.4995117188
 40
0.5
 40
0.5004882812
 40
0.5009765625
 40
0.501953125
 40
0.50390625
 40
0.505859375
 40
0.5078125
 40
0.51171875
 40
0.515625
 40
0.5234375
 40
0.53125
 40
0.5390625
 40
0.546875
 40
0.55078125
 40
0.5546875
 40
0.556640625
 40
0.55859375
 40
0.560546875
 40
0.5615234375
 40
0.5620117188
 40
0.5625
 40
0.5629882812
 40
0.5634765625
 40
0.564453125
 40
0.56640625
 40
0.568359375
 40
0.5703125
 40
0.57421875
 40
0.578125
 40
0.5859375
 40
0.59375
 40
0.6015625
 40
0.609375
 40
0.61328125
 40
0.6171875
 40
0.619140625
 40
0.62109375
 40
0.623046875
 40
0.6240234375
 40
0.6245117188
 40
0.625
 40
0.6254882812
 40
0.6259765625
 40
0.626953125
 40
0.62890625
 40
0.630859375
 40
0.6328125
 40
0.63671875
 40
0.640625
 40
0.6484375
 40
0.65625
 40
0.6640625
 40
0.671875
 40
0.67578125
 40
0.6796875
 40
0.681640625
 40
0.68359375
 40
0.685546875
 40
0.6865234375
 40
0.6870117188
 40
0.6875
 40
0.6879882812
 40
0.6884765625
 40
0.689453125
 40
0.69140625
 40
0.693359375
 40
0.6953125
 40
0.69921875
 40
0.703125
 40
0.7109375
 40
0.71875
 40
0.7265625
 40
0.734375
 40
0.73828125
 40
0.7421875
 40
0.744140625
 40
0.74609375
 40
0.748046875
 40
0.7490234375
 40
0.7495117188
 40
0.75
 40
0.7504882812
 40
0.7509765625
 40
0.751953125
 40
0.75390625
 40
0.755859375
 40
0.7578125
 40
0.76171875
 40
0.765625
 40
0.7734375
 40
0.78125
 40
0.7890625
 40
0.796875
 40
0.80078125
 40
0.8046875
 40
0.806640625
 40
0.80859375
 40
0.810546875
 40
0.8115234375
 40
0.8120117188
 40
0.8125
 40
0.8129882812
 40
0.8134765625
 40
0.814453125
 40
0.81640625
 40
0.818359375
 40
0.8203125
 40
0.82421875
 40
0.828125
 40
0.8359375
 40
0.84375
 40
0.8515625
 40
0.859375
 40
0.86328125
 40
0.8671875
 40
0.869140625
 40
0.87109375
 40
0.873046875
 40
0.8740234375
 40
0.8745117188
 40
0.875
 40
0.8754882812
 40
0.8759765625
 40
0.876953125
 40
0.87890625
 40
0.880859375
 40
0.8828125
 40
0.88671875
 40
0.890625
 40
0.8984375
 40
0.90625
 40
0.9140625
 40
0.921875
 40
0.92578125
 40
0.9296875
 40
0.931640625
 40
0.93359375
 40
0.935546875
 40
0.9365234375
 40
0.9370117188
 40
0.9375
 40
0.9379882812
 40
0.9384765625
 40
0.939453125
 40
0.94140625
 40
0.943359375
 40
0.9453125
 40
0.94921875
 40
0.953125
 40
0.9609375
 40
0.96875
 40
0.9765625
 40
0.984375
 40
1.0
 40
1.0
 40
1.0
 40
1.0
 10
10.283435065
 20
10.0495733977
 30
0.0
 10
10.280301878
 20
10.0494834732
 30
0.0
 10
10.2756020976
 20
10.0493485869
 30
0.0
 10
10.2693357239
 20
10.0491687374
 30
0.0
 10
10.2646359431
 20
10.0490338528
 30
0.0
 10
10.2599361642
 20
10.0488989587
 30
0.0
 10
10.256019676
 20
10.0487865764
 30
0.0
 10
10.2528864984
 20
10.0486966046
 30
0.0
 10
10.250928233
 20
10.0486405224
 30
0.0
 10
10.2493616879
 20
10.0485953127
 30
0.0
 10
10.2481865951
 20
10.0485623472
 30
0.0
 10
10.2472079363
 20
10.04853188
 30
0.0
 10
10.2465217267
 20
10.0485164324
 30
0.0
 10
10.2461314001
 20
10.048498425
 30
0.0
 10
10.2458336039
 20
10.04851078
 30
0.0
 10
10.2455551159
 20
10.0484242831
 30
0.0
 10
10.2451770635
 20
10.0483434346
 30
0.0
 10
10.2445186099
 20
10.0481858845
 30
0.0
 10
10.2435763213
 20
10.047969212
 30
0.0
 10
10.2424462772
 20
10.0477056099
 30
0.0
 10
10.2409393065
 20
10.0473553961
 30
0.0
 10
10.239055677
 20
10.0469171989
 30
0.0
 10
10.2360418229
 20
10.0462163238
 30
0.0
 10
10.2322745217
 20
10.0453401469
 30
0.0
 10
10.2277537522
 20
10.0442887725
 30
0.0
 10
10.2232329883
 20
10.0432373795
 30
0.0
 10
10.2194656733
 20
10.0423612491
 30
0.0
 10
10.2164518466
 20
10.0416602811
 30
0.0
 10
10.2145681474
 20
10.0412223199
 30
0.0
 10
10.2130613199
 20
10.0408716219
 30
0.0
 10
10.2119308383
 20
10.0406094991
 30
0.0
 10
10.2109899184
 20
10.0403881984
 30
0.0
 10
10.2103290214
 20
10.0402389103
 30
0.0
 10
10.2099548839
 20
10.0401448239
 30
0.0
 10
10.2096643709
 20
10.0400989896
 30
0.0
 10
10.2094117385
 20
10.0399586228
 30
0.0
 10
10.2090616822
 20
10.039804441
 30
0.0
 10
10.2084552398
 20
10.0395192598
 30
0.0
 10
10.207585675
 20
10.0391198901
 30
0.0
 10
10.2065435749
 20
10.0386372084
 30
0.0
 10
10.2051536269
 20
10.0379948338
 30
0.0
 10
10.2034163567
 20
10.0371914542
 30
0.0
 10
10.2006366323
 20
10.0359062768
 30
0.0
 10
10.1971620086
 20
10.0342997257
 30
0.0
 10
10.1929924453
 20
10.0323719006
 30
0.0
 10
10.1888228903
 20
10.0304440575
 30
0.0
 10
10.1853482459
 20
10.0288375513
 30
0.0
 10
10.1825685629
 20
10.0275522841
 30
0.0
 10
10.1808311873
 20
10.0267491328
 30
0.0
 10
10.1794414557
 20
10.0261062896
 30
0.0
 10
10.1783986944
 20
10.0256250394
 30
0.0
 10
10.1775311983
 20
10.0252211912
 30
0.0
 10
10.176921063
 20
10.0249440047
 30
0.0
 10
10.1765769237
 20
10.0247770134
 30
0.0
 10
10.1763061161
 20
10.0246759936
 30
0.0
 10
10.1760838661
 20
10.0244823785
 30
0.0
 10
10.1757705953
 20
10.0242565234
 30
0.0
 10
10.175230263
 20
10.0238462285
 30
0.0
 10
10.1744542338
 20
10.0232679604
 30
0.0
 10
10.1735247648
 20
10.0225706712
 30
0.0
 10
10.1722848559
 20
10.0216421285
 30
0.0
 10
10.1707351811
 20
10.0204810473
 30
0.0
 10
10.1682555832
 20
10.0186235425
 30
0.0
 10
10.1651561268
 20
10.0163015839
 30
0.0
 10
10.1614367597
 20
10.0135152686
 30
0.0
 10
10.1577174048
 20
10.0107289376
 30
0.0
 10
10.154617918
 20
10.0084070182
 30
0.0
 10
10.1521383809
 20
10.0065494351
 30
0.0
 10
10.1505885518
 20
10.0053885531
 30
0.0
 10
10.1493489595
 20
10.0044596016
 30
0.0
 10
10.1484185234
 20
10.003763561
 30
0.0
 10
10.1476455199
 20
10.0031813864
 30
0.0
 10
10.1470997861
 20
10.0027780653
 30
0.0
 10
10.1467951698
 20
10.0025410364
 30
0.0
 10
10.1465463362
 20
10.0023817437
 30
0.0
 10
10.1463753722
 20
10.0021518147
 30
0.0
 10
10.1461202585
 20
10.0018698814
 30
0.0
 10
10.1456864646
 20
10.0013650185
 30
0.0
 10
10.1450601428
 20
10.0006497874
 30
0.0
 10
10.1443113885
 20
9.9997889413
 30
0.0
 10
10.1433120604
 20
9.9986420437
 30
0.0
 10
10.142063239
 20
9.9972081144
 30
0.0
 10
10.1400649354
 20
9.9949139994
 30
0.0
 10
10.1375671213
 20
9.9920462963
 30
0.0
 10
10.1345697143
 20
9.9886050795
 30
0.0
 10
10.1315723227
 20
9.98516385
 30
0.0
 10
10.1290744701
 20
9.9822961786
 30
0.0
 10
10.1270762435
 20
9.9800020004
 30
0.0
 10
10.1258272263
 20
9.9785682317
 30
0.0
 10
10.1248283
 20
9.9774210045
 30
0.0
 10
10.1240783183
 20
9.9765611654
 30
0.0
 10
10.123455837
 20
9.9758427833
 30
0.0
 10
10.1230151871
 20
9.9753435456
 30
0.0
 10
10.1227710584
 20
9.9750525994
 30
0.0
 10
10.1225663518
 20
9.9748503551
 30
0.0
 10
10.12244425
 20
9.9745870831
 30
0.0
 10
10.1222526341
 20
9.9742573408
 30
0.0
 10
10.1219307311
 20
9.9736703738
 30
0.0
 10
10.121463851
 20
9.9728370348
 30
0.0
 10
10.1209065991
 20
9.9718348086
 30
0.0
 10
10.1201625473
 20
9.9704992821
 30
0.0
 10
10.1192328418
 20
9.9688296086
 30
0.0
 10
10.1177451121
 20
9.9661582794
 30
0.0
 10
10.1158855195
 20
9.9628190667
 30
0.0
 10
10.1136539763
 20
9.9588120344
 30
0.0
 10
10.1114224499
 20
9.954804992
 30
0.0
 10
10.1095628154
 20
9.9514658046
 30
0.0
 10
10.1080751694
 20
9.9487944247
 30
0.0
 10
10.1071452512
 20
9.94712488
 30
0.0
 10
10.106401636
 20
9.9457890892
 30
0.0
 10
10.1058430502
 20
9.9447876706
 30
0.0
 10
10.1053803434
 20
9.9439518045
 30
0.0
 10
10.1050509904
 20
9.9433693489
 30
0.0
 10
10.1048713113
 20
9.9430323784
 30
0.0
 10
10.1047125435
 20
9.9427913092
 30
0.0
 10
10.1046455484
 20
9.9425056744
 30
0.0
 10
10.1045242102
 20
9.942140373
 30
0.0
 10
10.104326783
 20
9.9414938528
 30
0.0
 10
10.1040369466
 20
9.9405740391
 30
0.0
 10
10.1036924805
 20
9.9394686419
 30
0.0
 10
10.1032320267
 20
9.937995345
 30
0.0
 10
10.1026568586
 20
9.9361535301
 30
0.0
 10
10.1017363664
 20
9.9332067346
 30
0.0
 10
10.1005858283
 20
9.9295232028
 30
0.0
 10
10.0992051472
 20
9.9251029816
 30
0.0
 10
10.0978244842
 20
9.9206827527
 30
0.0
 10
10.0966739007
 20
9.9169992401
 30
0.0
 10
10.0957534993
 20
9.9140524062
 30
0.0
 10
10.0951781004
 20
9.912210689
 30
0.0
 10
10.0947181202
 20
9.9107371916
 30
0.0
 10
10.0943722069
 20
9.9096324069
 30
0.0
 10
10.0940868986
 20
9.9087106767
 30
0.0
 10
10.0938813881
 20
9.9080675778
 30
0.0
 10
10.0937730014
 20
9.9076967946
 30
0.0
 10
10.0936662232
 20
9.9074279981
 30
0.0
 10
10.093656874
 20
9.9071236868
 30
0.0
 10
10.093610424
 20
9.9067303264
 30
0.0
 10
10.0935449704
 20
9.9060361738
 30
0.0
 10
10.0934431871
 20
9.9050475448
 30
0.0
 10
10.0933245905
 20
9.9038598984
 30
0.0
 10
10.0931652241
 20
9.9022768209
 30
0.0
 10
10.0929664399
 20
9.9002978197
 30
0.0
 10
10.0926481482
 20
9.8971315041
 30
0.0
 10
10.0922503655
 20
9.8931735799
 30
0.0
 10
10.0917729886
 20
9.8884240835
 30
0.0
 10
10.0912956309
 20
9.883674584
 30
0.0
 10
10.0908978004
 20
9.8797166679
 30
0.0
 10
10.0905796041
 20
9.8765503361
 30
0.0
 10
10.0903805776
 20
9.8745713758
 30
0.0
 10
10.0902217085
 20
9.8729882143
 30
0.0
 10
10.0901015926
 20
9.8718008249
 30
0.0
 10
10.0900045628
 20
9.8708113918
 30
0.0
 10
10.0899306235
 20
9.8701186747
 30
0.0
 10
10.0898977698
 20
9.8697230142
 30
0.0
 10
10.0898466571
 20
9.8694257677
 30
0.0
 10
10.0898967354
 20
9.8691304369
 30
0.0
 10
10.0899282099
 20
9.8687359943
 30
0.0
 10
10.0899997357
 20
9.8680460309
 30
0.0
 10
10.0900933176
 20
9.8670602063
 30
0.0
 10
10.090209296
 20
9.8658772864
 30
0.0
 10
10.0903626485
 20
9.8643000356
 30
0.0
 10
10.0905547792
 20
9.8623284803
 30
0.0
 10
10.0908619423
 20
9.8591739873
 30
0.0
 10
10.0912459812
 20
9.8552308726
 30
0.0
 10
10.091706789
 20
9.8504991341
 30
0.0
 10
10.092167616
 20
9.8457673969
 30
0.0
 10
10.0925516071
 20
9.8418242788
 30
0.0
 10
10.0928588656
 20
9.8386697927
 30
0.0
 10
10.0930507539
 20
9.8366982198
 30
0.0
 10
10.0932046039
 20
9.8351210051
 30
0.0
 10
10.0933190624
 20
9.8339379746
 30
0.0
 10
10.0934173998
 20
9.8329524961
 30
0.0
 10
10.0934804362
 20
9.8322619149
 30
0.0
 10
10.0935255128
 20
9.8318684622
 30
0.0
 10
10.0935338101
 20
9.8315700907
 30
0.0
 10
10.0936396201
 20
9.8312842646
 30
0.0
 10
10.0937466867
 20
9.8308987872
 30
0.0
 10
10.0939499007
 20
9.8302262406
 30
0.0
 10
10.0942319212
 20
9.8292643939
 30
0.0
 10
10.0945738921
 20
9.828110634
 30
0.0
 10
10.0950286146
 20
9.8265721281
 30
0.0
 10
10.095597442
 20
9.8246490504
 30
0.0
 10
10.0965073286
 20
9.8215720954
 30
0.0
 10
10.0976447687
 20
9.8177259124
 30
0.0
 10
10.0990096595
 20
9.8131104875
 30
0.0
 10
10.1003745685
 20
9.8084950668
 30
0.0
 10
10.1015119632
 20
9.8046488732
 30
0.0
 10
10.1024219407
 20
9.8015719394
 30
0.0
 10
10.102990537
 20
9.7996488079
 30
0.0
 10
10.1034457338
 20
9.7981104124
 30
0.0
 10
10.1037862558
 20
9.7969563155
 30
0.0
 10
10.1040728095
 20
9.795995523
 30
0.0
 10
10.1042679309
 20
9.7953210944
 30
0.0
 10
10.1043879639
 20
9.7949386325
 30
0.0
 10
10.1044539453
 20
9.7946435436
 30
0.0
 10
10.1046118322
 20
9.7943799618
 30
0.0
 10
10.1047902905
 20
9.7940175293
 30
0.0
 10
10.1051175286
 20
9.7933883929
 30
0.0
 10
10.1055772029
 20
9.7924869496
 30
0.0
 10
10.1061321544
 20
9.7914063635
 30
0.0
 10
10.1068709223
 20
9.7899651818
 30
0.0
 10
10.1077947819
 20
9.7881638417
 30
0.0
 10
10.1092727339
 20
9.7852816209
 30
0.0
 10
10.111120251
 20
9.7816788715
 30
0.0
 10
10.1133372363
 20
9.7773555598
 30
0.0
 10
10.115554239
 20
9.7730322551
 30
0.0
 10
10.1174017126
 20
9.769429488
 30
0.0
 10
10.1188797515
 20
9.7665473026
 30
0.0
 10
10.1198033901
 20
9.7647458724
 30
0.0
 10
10.1205426116
 20
9.7633048757
 30
0.0
 10
10.1210961776
 20
9.7622237245
 30
0.0
 10
10.1215601868
 20
9.7613240492
 30
0.0
 10
10.1218796863
 20
9.7606917566
 30
0.0
 10
10.1220705438
 20
9.7603343812
 30
0.0
 10
10.1221903441
 20
9.7600552655
 30
0.0
 10
10.1223993723
 20
9.7598185193
 30
0.0
 10
10.1226469528
 20
9.7594880788
 30
0.0
 10
10.1230947199
 20
9.7589166936
 30
0.0
 10
10.1237268058
 20
9.7580968292
 30
0.0
 10
10.1244885539
 20
9.7571145327
 30
0.0
 10
10.1255030846
 20
9.7558042659
 30
0.0
 10
10.1267716361
 20
9.7541666167
 30
0.0
 10
10.1288011016
 20
9.7515462749
 30
0.0
 10
10.1313380082
 20
9.7482708835
 30
0.0
 10
10.1343822625
 20
9.7443403967
 30
0.0
 10
10.1374265316
 20
9.7404099209
 30
0.0
 10
10.1399634011
 20
9.7371345017
 30
0.0
 10
10.1419929407
 20
9.7345142155
 30
0.0
 10
10.1432613038
 20
9.7328764251
 30
0.0
 10
10.1442762213
 20
9.731566448
 30
0.0
 10
10.1450367878
 20
9.7305832665
 30
0.0
 10
10.1456725704
 20
9.7297661713
 30
0.0
 10
10.1461137382
 20
9.7291898425
 30
0.0
 10
10.1463718924
 20
9.7288673231
 30
0.0
 10
10.1465484418
 20
9.7286062457
 30
0.0
 10
10.1467902272
 20
9.7284185139
 30
0.0
 10
10.1470898527
 20
9.728142621
 30
0.0
 10
10.1476247993
 20
9.7276717285
 30
0.0
 10
10.1483834659
 20
9.7269927929
 30
0.0
 10
10.1492962383
 20
9.7261807377
 30
0.0
 10
10.1505124396
 20
9.7250970658
 30
0.0
 10
10.1520329749
 20
9.7237427949
 30
0.0
 10
10.1544656728
 20
9.7215757831
 30
0.0
 10
10.1575065998
 20
9.7188670799
 30
0.0
 10
10.1611556875
 20
9.7156166079
 30
0.0
 10
10.1648047868
 20
9.7123661504
 30
0.0
 10
10.1678456849
 20
9.7096574108
 30
0.0
 10
10.1702784406
 20
9.707490472
 30
0.0
 10
10.1717988289
 20
9.7061360155
 30
0.0
 10
10.1730153319
 20
9.7050527244
 30
0.0
 10
10.1739271824
 20
9.7042395057
 30
0.0
 10
10.1746887337
 20
9.7035642106
 30
0.0
 10
10.1752185306
 20
9.7030868192
 30
0.0
 10
10.1755264072
 20
9.7028213392
 30
0.0
 10
10.1757428479
 20
9.7026016224
 30
0.0
 10
10.1760145878
 20
9.7024606754
 30
0.0
 10
10.1763576186
 20
9.7022452702
 30
0.0
 10
10.1769669097
 20
9.7018811127
 30
0.0
 10
10.1778326269
 20
9.701354195
 30
0.0
 10
10.1788734987
 20
9.7007247584
 30
0.0
 10
10.1802606253
 20
9.699884509
 30
0.0
 10
10.1819947741
 20
9.6988345398
 30
0.0
 10
10.1847692778
 20
9.6971543977
 30
0.0
 10
10.1882374537
 20
9.6950542862
 30
0.0
 10
10.192399244
 20
9.6925341219
 30
0.0
 10
10.1965610432
 20
9.6900139737
 30
0.0
 10
10.2000291967
 20
9.687913822
 30
0.0
 10
10.2028037452
 20
9.6862337604
 30
0.0
 10
10.20453778
 20
9.6851835865
 30
0.0
 10
10.2059251407
 20
9.6843437574
 30
0.0
 10
10.2069652973
 20
9.6837130366
 30
0.0
 10
10.2078332522
 20
9.6831901369
 30
0.0
 10
10.2084385486
 20
9.6828188064
 30
0.0
 10
10.2087879799
 20
9.6826148942
 30
0.0
 10
10.2090400596
 20
9.6824386446
 30
0.0
 10
10.2093303406
 20
9.6823515184
 30
0.0
 10
10.2097040568
 20
9.6822042629
 30
0.0
 10
10.2103642686
 20
9.6819610499
 30
0.0
 10
10.2113041826
 20
9.6816060303
 30
0.0
 10
10.2124334686
 20
9.6811832479
 30
0.0
 10
10.213938698
 20
9.6806184061
 30
0.0
 10
10.215820401
 20
9.6799127414
 30
0.0
 10
10.2188310329
 20
9.6787834612
 30
0.0
 10
10.2225943547
 20
9.6773719358
 30
0.0
 10
10.2271103265
 20
9.675678071
 30
0.0
 10
10.2316263047
 20
9.6739842239
 30
0.0
 10
10.2353896105
 20
9.6725726542
 30
0.0
 10
10.2384002745
 20
9.6714434626
 30
0.0
 10
10.2402818958
 20
9.6707375728
 30
0.0
 10
10.2417872929
 20
9.670173193
 30
0.0
 10
10.2429160667
 20
9.669748999
 30
0.0
 10
10.2438575831
 20
9.6693983963
 30
0.0
 10
10.2445149342
 20
9.6691472983
 30
0.0
 10
10.2448932341
 20
9.6690126765
 30
0.0
 10
10.2451694356
 20
9.6688867436
 30
0.0
 10
10.2454743955
 20
9.6688562453
 30
0.0
 10
10.2458709774
 20
9.6687822923
 30
0.0
 10
10.2465696695
 20
9.6686683842
 30
0.0
 10
10.2475653577
 20
9.6684975498
 30
0.0
 10
10.2487612293
 20
9.6682960192
 30
0.0
 10
10.2503553595
 20
9.6680260995
 30
0.0
 10
10.2523481474
 20
9.6676891149
 30
0.0
 10
10.255536538
 20
9.6671497077
 30
0.0
 10
10.2595220503
 20
9.6664755282
 30
0.0
 10
10.2643046548
 20
9.6656664787
 30
0.0
 10
10.269087262
 20
9.6648574383
 30
0.0
 10
10.2754640707
 20
9.6637787146
 30
0.0
 10
10.2802466774
 20
9.6629696726
 30
0.0
 10
10.2834350819
 20
9.662430311
 30
0.0
  0
ENDSEC
  0
SECTION
  2
OBJECTS
  0
DICTIONARY
  5
C
100
AcDbDictionary
280
0
281
1
  3
ACAD_GROUP
350
D
  3
ACAD_MLINESTYLE
350
17
  3
ACAD_LAYOUT
350
1A
  3
ACAD_PLOTSETTINGS
350
19
  3
ACAD_PLOTSTYLENAME
350
E
  3
ACAD_IMAGE_DICT
350
       39A
  3
ACAD_IMAGE_VARS
350
       39B
  3
ACAD_TABLESTYLE
350
       39C
  0
IMAGEDEF_REACTOR
  5
399
100
AcDbRasterImageDefReactor
 90
2
330
28B
  0
DICTIONARY
  5
D
102
{ACAD_REACTORS
330
C
102
}
100
AcDbDictionary
280
0
281
1
  0
ACDBDICTIONARYWDFLT
  5
E
102
{ACAD_REACTORS
330
C
102
}
100
AcDbDictionary
281
1
  3
Normal
350
F
100
AcDbDictionaryWithDefault
340
F
  0
DICTIONARY
  5
39A
330
C
100
AcDbDictionary
281
1
  3
INN_assy_2_img_1
350
       39F
  0
RASTERVARIABLES
  5
39B
330
C
100
AcDbRasterVariables
 90
0
 70
0
 71
1
 72
5
  0
DICTIONARY
  5
17
102
{ACAD_REACTORS
330
C
102
}
100
AcDbDictionary
280
0
281
1
  3
Standard
350
18
  0
DICTIONARY
  5
39C
330
C
100
AcDbDictionary
281
1
  3
Standard
350
       3A0
  3
Standard1
350
       3A1
  0
DICTIONARY
  5
19
102
{ACAD_REACTORS
330
C
102
}
100
AcDbDictionary
281
1
  0
DICTIONARY
  5
1A
102
{ACAD_REACTORS
330
C
102
}
100
AcDbDictionary
281
1
  3
Model
350
39D
  3
Layout1
350
39E
  0
ACDBPLACEHOLDER
  5
F
102
{ACAD_REACTORS
330
E
102
}
  0
MLINESTYLE
  5
18
102
{ACAD_REACTORS
330
17
102
}
100
AcDbMlineStyle
  2
STANDARD
 70
0
  3

 62
256
 51
90.0
 52
90.0
 71
2
 49
0.5
 62
256
  6
BYLAYER
 49
-0.5
 62
256
  6
BYLAYER
  0
LAYOUT
  5
39D
102
{ACAD_REACTORS
330
1A
102
}
100
AcDbPlotSettings
  1

  2
none_device
  4
ANSI_C_(22.00_x_17.00_Inches)
  6

 40
0.0
 41
0.0
 42
0.0
 43
0.0
 44
558.8
 45
431.8
 46
0.0
 47
0.0
 48
0.0
 49
0.0
140
0.0
141
0.0
142
1.0
143
1.0
 70
1024
 72
0
 73
0
 74
0
  7

 75
0
147
1.0
148
0.0
149
0.0
100
AcDbLayout
  1
Model
 70
0
 71
0
 10
0.0
 20
0.0
 11
22.0
 21
17.0
 12
0.0
 22
0.0
 32
0.0
 14
0.0
 24
0.0
 34
0.0
 15
0.0
 25
0.0
 35
0.0
146
0.0
 13
0.0
 23
0.0
 33
0.0
 16
1.0
 26
0.0
 36
0.0
 17
0.0
 27
1.0
 37
0.0
 76
0
330
20C
345
0
346
0
  0
LAYOUT
  5
39E
102
{ACAD_REACTORS
330
1A
102
}
100
AcDbPlotSettings
  1

  2
none_device
  4
ANSI_C_(22.00_x_17.00_Inches)
  6

 40
0.0
 41
0.0
 42
0.0
 43
0.0
 44
558.8
 45
431.8
 46
0.0
 47
0.0
 48
0.0
 49
0.0
140
0.0
141
0.0
142
1.0
143
1.0
 70
0
 72
0
 73
0
 74
0
  7

 75
0
147
1.0
148
0.0
149
0.0
100
AcDbLayout
  1
Layout1
 70
0
 71
1
 10
0.0
 20
0.0
 11
22.0
 21
17.0
 12
0.0
 22
0.0
 32
0.0
 14
0.0
 24
0.0
 34
0.0
 15
0.0
 25
0.0
 35
0.0
146
0.0
 13
0.0
 23
0.0
 33
0.0
 16
1.0
 26
0.0
 36
0.0
 17
0.0
 27
1.0
 37
0.0
 76
0
330
20D
345
0
346
0
  0
IMAGEDEF
  5
39F
102
{ACAD_REACTORS
330
39A
330
399
102
}
100
AcDbRasterImageDef
 90
0
  1
INN_assy_2_img_1.png
 10
369.0
 20
92.0
 11
0.0066666667
 21
0.0066666667
280
1
281
0
  0
TABLESTYLE
  5
3A0
102
{ACAD_REACTORS
330
39C
330
28E
330
28F
102
}
330
39C
100
AcDbTableStyle
  3
Standard
 70
0
 71
0
 40
0.06
 41
0.06
280
1
281
1
  7
Standard
140
0.18
170
1
 62
0
 63
7
283
0
  7
Standard
140
0.18
170
1
 62
0
 63
7
283
0
  7
Standard
140
0.18
170
1
 62
0
 63
7
283
0
  0
TABLESTYLE
  5
3A1
102
{ACAD_REACTORS
330
39C
330
28D
102
}
330
39C
100
AcDbTableStyle
  3
Standard1
 70
1
 71
0
 40
0.06
 41
0.06
280
1
281
1
  7
Standard
140
0.18
170
1
 62
0
 63
7
283
0
  7
Standard
140
0.18
170
1
 62
0
 63
7
283
0
  7
Standard
140
0.18
170
1
 62
0
 63
7
283
0
  0
ENDSEC
  0
EOF
