999
DXF file: INL_7.dxf
999
Pro/ENGINEER 2006240 by Parametric Technology Corporation
  0
SECTION
  2
HEADER
  9
$ACADVER
  1
AC1015
  9
$DWGCODEPAGE
  3
ANSI_1252
  9
$EXTMAX
 10
22.0
 20
17.0
 30
0.0
  9
$EXTMIN
 10
0.0
 20
0.0
 30
0.0
  9
$LIMMIN
 10
0.0
 20
0.0
  9
$LIMMAX
 10
22.0
 20
17.0
  9
$VIEWCTR
 10
11.0
 20
8.5
  9
$VIEWSIZE
 40
17.0
  9
$CLAYER
  8
0
  9
$LTSCALE
 40
1.21
  9
$CELTYPE
  6
BYLAYER
  9
$DIMSCALE
 40
1.0
  9
$DIMASZ
 40
0.1875
  9
$DIMEXO
 40
0.1375
  9
$DIMDLI
 40
0.836
  9
$DIMEXE
 40
0.396
  9
$DIMCEN
 40
0.198
  9
$DIMLFAC
 40
1.0
  9
$DIMBLK
  1
_CLOSED
  9
$DIMTXT
 40
0.15625
  9
$DIMTOL
 70
0
  9
$DIMLIM
 70
0
  9
$DIMTFAC
 40
1.0
  9
$PDMODE
 70
3
  9
$PDSIZE
 40
0.3125
  9
$HANDSEED
  5
4E0
  9
$MEASUREMENT
 70
0
  9
$INSUNITS
 70
1
  0
ENDSEC
  0
SECTION
  2
CLASSES
  0
CLASS
  1
ACDBDICTIONARYWDFLT
  2
AcDbDictionaryWithDefault
  3
AutoCAD 2000
 90
0
280
0
281
0
  0
CLASS
  1
ACDBPLACEHOLDER
  2
AcDbPlaceHolder
  3
AutoCAD 2000
 90
0
280
0
281
0
  0
CLASS
  1
LAYOUT
  2
AcDbLayout
  3
AutoCAD 2000
 90
0
280
0
281
0
  0
ENDSEC
  0
SECTION
  2
TABLES
  0
TABLE
  2
VPORT
  5
8
100
AcDbSymbolTable
 70
2
  0
VPORT
  5
1F4
100
AcDbSymbolTableRecord
100
AcDbViewportTableRecord
  2
*ACTIVE
 70
0
 10
0.0
 20
0.0
 11
1.0
 21
1.0
 12
11.0
 22
8.5
 13
0.0
 23
0.0
 14
1.0
 24
1.0
 15
0.0
 25
0.0
 16
0.0
 26
0.0
 36
1.0
 17
0.0
 27
0.0
 37
0.0
 40
17.0
 41
1.2941176471
 42
50.0
 43
0.0
 44
0.0
 50
0.0
 51
0.0
 71
0
 72
100
 73
1
 74
1
 75
0
 76
0
 77
0
 78
0
  0
ENDTAB
  0
TABLE
  2
LTYPE
  5
5
100
AcDbSymbolTable
 70
6
  0
LTYPE
  5
14
100
AcDbSymbolTableRecord
100
AcDbLinetypeTableRecord
  2
BYBLOCK
 70
0
  3

 72
65
 73
0
 40
0.0
  0
LTYPE
  5
15
100
AcDbSymbolTableRecord
100
AcDbLinetypeTableRecord
  2
BYLAYER
 70
0
  3

 72
65
 73
0
 40
0.0
  0
LTYPE
  5
16
100
AcDbSymbolTableRecord
100
AcDbLinetypeTableRecord
  2
CONTINUOUS
 70
64
  3
Solid line
 72
65
 73
0
 40
0.0
  0
LTYPE
  5
1F5
100
AcDbSymbolTableRecord
100
AcDbLinetypeTableRecord
  2
CENTER
 70
64
  3
____ _ ____ _ ____ _ ____ _ ____ _ ____ _ ____
 72
65
 73
4
 40
0.6
 49
0.375
 74
0
 49
-0.075
 74
0
 49
0.075
 74
0
 49
-0.075
 74
0
  0
LTYPE
  5
1F6
100
AcDbSymbolTableRecord
100
AcDbLinetypeTableRecord
  2
HIDDEN
 70
64
  3
- - - - - - - - - - - - - - - - - - - -
 72
65
 73
2
 40
0.2
 49
0.1
 74
0
 49
-0.1
 74
0
  0
LTYPE
  5
1F7
100
AcDbSymbolTableRecord
100
AcDbLinetypeTableRecord
  2
PHANTOM
 70
64
  3
_____ _ _ _____ _ _ _____ _ _ _____
 72
65
 73
6
 40
0.8
 49
0.45
 74
0
 49
-0.05
 74
0
 49
0.1
 74
0
 49
-0.05
 74
0
 49
0.1
 74
0
 49
-0.05
 74
0
  0
LTYPE
  5
1F8
100
AcDbSymbolTableRecord
100
AcDbLinetypeTableRecord
  2
DOT
 70
64
  3
. . . . . . . . . . . . . . . . . . . .
 72
65
 73
2
 40
0.2
 49
0.1
 74
0
 49
-0.1
 74
0
  0
LTYPE
  5
1F9
100
AcDbSymbolTableRecord
100
AcDbLinetypeTableRecord
  2
DASHED
 70
64
  3
- - - - - - - - - - - - - - - - - - - -
 72
65
 73
2
 40
0.2
 49
0.1
 74
0
 49
-0.1
 74
0
  0
ENDTAB
  0
TABLE
  2
LAYER
  5
2
100
AcDbSymbolTable
 70
36
  0
LAYER
  5
10
100
AcDbSymbolTableRecord
100
AcDbLayerTableRecord
  2
0
 70
0
 62
7
  6
CONTINUOUS
370
-3
390
F
  0
LAYER
  5
1FA
100
AcDbSymbolTableRecord
100
AcDbLayerTableRecord
  2
DEFAULT_1
 70
0
 62
7
  6
CENTER
370
-3
390
F
  0
LAYER
  5
1FB
100
AcDbSymbolTableRecord
100
AcDbLayerTableRecord
  2
DEFAULT_2
 70
0
 62
8
  6
HIDDEN
370
-3
390
F
  0
LAYER
  5
1FC
100
AcDbSymbolTableRecord
100
AcDbLayerTableRecord
  2
DEFAULT_3
 70
0
 62
7
  6
PHANTOM
370
-3
390
F
  0
LAYER
  5
1FD
100
AcDbSymbolTableRecord
100
AcDbLayerTableRecord
  2
01_ALL_DTM_PLN
 70
0
 62
7
  6
CONTINUOUS
370
-3
390
F
  0
LAYER
  5
1FE
100
AcDbSymbolTableRecord
100
AcDbLayerTableRecord
  2
01__ASM_ALL_DTM_PLN
 70
0
 62
7
  6
CONTINUOUS
370
-3
390
F
  0
LAYER
  5
1FF
100
AcDbSymbolTableRecord
100
AcDbLayerTableRecord
  2
01__ASM_DEF_DTM_PLN
 70
0
 62
7
  6
CONTINUOUS
370
-3
390
F
  0
LAYER
  5
200
100
AcDbSymbolTableRecord
100
AcDbLayerTableRecord
  2
01___PRT_ALL_DTM_PLN
 70
0
 62
7
  6
CONTINUOUS
370
-3
390
F
  0
LAYER
  5
201
100
AcDbSymbolTableRecord
100
AcDbLayerTableRecord
  2
01___PRT_DEF_DTM_PLN
 70
0
 62
7
  6
CONTINUOUS
370
-3
390
F
  0
LAYER
  5
202
100
AcDbSymbolTableRecord
100
AcDbLayerTableRecord
  2
02_ALL_AXES
 70
0
 62
7
  6
CONTINUOUS
370
-3
390
F
  0
LAYER
  5
203
100
AcDbSymbolTableRecord
100
AcDbLayerTableRecord
  2
02__ASM_ALL_AXES
 70
0
 62
7
  6
CONTINUOUS
370
-3
390
F
  0
LAYER
  5
204
100
AcDbSymbolTableRecord
100
AcDbLayerTableRecord
  2
02___PRT_ALL_AXES
 70
0
 62
7
  6
CONTINUOUS
370
-3
390
F
  0
LAYER
  5
205
100
AcDbSymbolTableRecord
100
AcDbLayerTableRecord
  2
03_ALL_CURVES
 70
0
 62
7
  6
CONTINUOUS
370
-3
390
F
  0
LAYER
  5
206
100
AcDbSymbolTableRecord
100
AcDbLayerTableRecord
  2
03__ASM_ALL_CURVES
 70
0
 62
7
  6
CONTINUOUS
370
-3
390
F
  0
LAYER
  5
207
100
AcDbSymbolTableRecord
100
AcDbLayerTableRecord
  2
03___PRT_ALL_CURVES
 70
0
 62
7
  6
CONTINUOUS
370
-3
390
F
  0
LAYER
  5
208
100
AcDbSymbolTableRecord
100
AcDbLayerTableRecord
  2
04_ALL_DTM_PNT
 70
0
 62
7
  6
CONTINUOUS
370
-3
390
F
  0
LAYER
  5
209
100
AcDbSymbolTableRecord
100
AcDbLayerTableRecord
  2
04__ASM_ALL_DTM_PNT
 70
0
 62
7
  6
CONTINUOUS
370
-3
390
F
  0
LAYER
  5
20A
100
AcDbSymbolTableRecord
100
AcDbLayerTableRecord
  2
04___PRT_ALL_DTM_PNT
 70
0
 62
7
  6
CONTINUOUS
370
-3
390
F
  0
LAYER
  5
20B
100
AcDbSymbolTableRecord
100
AcDbLayerTableRecord
  2
05_ALL_DTM_CSYS
 70
0
 62
7
  6
CONTINUOUS
370
-3
390
F
  0
LAYER
  5
20C
100
AcDbSymbolTableRecord
100
AcDbLayerTableRecord
  2
05__ASM_ALL_DTM_CSYS
 70
0
 62
7
  6
CONTINUOUS
370
-3
390
F
  0
LAYER
  5
20D
100
AcDbSymbolTableRecord
100
AcDbLayerTableRecord
  2
05__ASM_DEF_DTM_CSYS
 70
0
 62
7
  6
CONTINUOUS
370
-3
390
F
  0
LAYER
  5
20E
100
AcDbSymbolTableRecord
100
AcDbLayerTableRecord
  2
05___PRT_ALL_DTM_CSYS
 70
0
 62
7
  6
CONTINUOUS
370
-3
390
F
  0
LAYER
  5
20F
100
AcDbSymbolTableRecord
100
AcDbLayerTableRecord
  2
05___PRT_DEF_DTM_CSYS
 70
0
 62
7
  6
CONTINUOUS
370
-3
390
F
  0
LAYER
  5
210
100
AcDbSymbolTableRecord
100
AcDbLayerTableRecord
  2
06_ALL_SURFS
 70
0
 62
7
  6
CONTINUOUS
370
-3
390
F
  0
LAYER
  5
211
100
AcDbSymbolTableRecord
100
AcDbLayerTableRecord
  2
06__ASM_ALL_SURFS
 70
0
 62
7
  6
CONTINUOUS
370
-3
390
F
  0
LAYER
  5
212
100
AcDbSymbolTableRecord
100
AcDbLayerTableRecord
  2
06___PRT_ALL_SURFS
 70
0
 62
7
  6
CONTINUOUS
370
-3
390
F
  0
LAYER
  5
213
100
AcDbSymbolTableRecord
100
AcDbLayerTableRecord
  2
07__ASM_ALL_SKELETONS
 70
0
 62
7
  6
CONTINUOUS
370
-3
390
F
  0
LAYER
  5
214
100
AcDbSymbolTableRecord
100
AcDbLayerTableRecord
  2
COPY_GEO_FET
 70
0
 62
7
  6
CONTINUOUS
370
-3
390
F
  0
LAYER
  5
215
100
AcDbSymbolTableRecord
100
AcDbLayerTableRecord
  2
COSMETIC
 70
0
 62
7
  6
CONTINUOUS
370
-3
390
F
  0
LAYER
  5
216
100
AcDbSymbolTableRecord
100
AcDbLayerTableRecord
  2
CUT_REF_SURF
 70
0
 62
7
  6
CONTINUOUS
370
-3
390
F
  0
LAYER
  5
217
100
AcDbSymbolTableRecord
100
AcDbLayerTableRecord
  2
DATESTAMP
 70
0
 62
7
  6
CONTINUOUS
370
-3
390
F
  0
LAYER
  5
218
100
AcDbSymbolTableRecord
100
AcDbLayerTableRecord
  2
DATUM
 70
0
 62
7
  6
CONTINUOUS
370
-3
390
F
  0
LAYER
  5
219
100
AcDbSymbolTableRecord
100
AcDbLayerTableRecord
  2
DATUM_B
 70
0
 62
7
  6
CONTINUOUS
370
-3
390
F
  0
LAYER
  5
21A
100
AcDbSymbolTableRecord
100
AcDbLayerTableRecord
  2
DATUM_PLANES
 70
0
 62
7
  6
CONTINUOUS
370
-3
390
F
  0
LAYER
  5
21B
100
AcDbSymbolTableRecord
100
AcDbLayerTableRecord
  2
DIM
 70
0
 62
7
  6
CONTINUOUS
370
-3
390
F
  0
LAYER
  5
21C
100
AcDbSymbolTableRecord
100
AcDbLayerTableRecord
  2
DIM_1
 70
0
 62
7
  6
CONTINUOUS
370
-3
390
F
  0
LAYER
  5
21D
100
AcDbSymbolTableRecord
100
AcDbLayerTableRecord
  2
DIM_2
 70
0
 62
7
  6
CONTINUOUS
370
-3
390
F
  0
LAYER
  5
21E
100
AcDbSymbolTableRecord
100
AcDbLayerTableRecord
  2
DIM_3
 70
0
 62
7
  6
CONTINUOUS
370
-3
390
F
  0
LAYER
  5
21F
100
AcDbSymbolTableRecord
100
AcDbLayerTableRecord
  2
DIM_4
 70
0
 62
7
  6
CONTINUOUS
370
-3
390
F
  0
LAYER
  5
220
100
AcDbSymbolTableRecord
100
AcDbLayerTableRecord
  2
DIM_5
 70
0
 62
7
  6
CONTINUOUS
370
-3
390
F
  0
LAYER
  5
221
100
AcDbSymbolTableRecord
100
AcDbLayerTableRecord
  2
DIM_6
 70
0
 62
7
  6
CONTINUOUS
370
-3
390
F
  0
LAYER
  5
222
100
AcDbSymbolTableRecord
100
AcDbLayerTableRecord
  2
DIM_7
 70
0
 62
7
  6
CONTINUOUS
370
-3
390
F
  0
LAYER
  5
223
100
AcDbSymbolTableRecord
100
AcDbLayerTableRecord
  2
DIM_8
 70
0
 62
7
  6
CONTINUOUS
370
-3
390
F
  0
LAYER
  5
224
100
AcDbSymbolTableRecord
100
AcDbLayerTableRecord
  2
DTM
 70
0
 62
7
  6
CONTINUOUS
370
-3
390
F
  0
LAYER
  5
225
100
AcDbSymbolTableRecord
100
AcDbLayerTableRecord
  2
EXT_COPY_GEO
 70
0
 62
7
  6
CONTINUOUS
370
-3
390
F
  0
LAYER
  5
226
100
AcDbSymbolTableRecord
100
AcDbLayerTableRecord
  2
INL_10
 70
0
 62
7
  6
CONTINUOUS
370
-3
390
F
  0
LAYER
  5
227
100
AcDbSymbolTableRecord
100
AcDbLayerTableRecord
  2
INL_2
 70
0
 62
7
  6
CONTINUOUS
370
-3
390
F
  0
LAYER
  5
228
100
AcDbSymbolTableRecord
100
AcDbLayerTableRecord
  2
INL_5
 70
0
 62
7
  6
CONTINUOUS
370
-3
390
F
  0
LAYER
  5
229
100
AcDbSymbolTableRecord
100
AcDbLayerTableRecord
  2
INL_6
 70
0
 62
7
  6
CONTINUOUS
370
-3
390
F
  0
LAYER
  5
22A
100
AcDbSymbolTableRecord
100
AcDbLayerTableRecord
  2
INL_7
 70
0
 62
7
  6
CONTINUOUS
370
-3
390
F
  0
LAYER
  5
22B
100
AcDbSymbolTableRecord
100
AcDbLayerTableRecord
  2
INL_8
 70
0
 62
7
  6
CONTINUOUS
370
-3
390
F
  0
LAYER
  5
22C
100
AcDbSymbolTableRecord
100
AcDbLayerTableRecord
  2
LS
 70
0
 62
7
  6
CONTINUOUS
370
-3
390
F
  0
LAYER
  5
22D
100
AcDbSymbolTableRecord
100
AcDbLayerTableRecord
  2
ORIGIN
 70
0
 62
7
  6
CONTINUOUS
370
-3
390
F
  0
LAYER
  5
22E
100
AcDbSymbolTableRecord
100
AcDbLayerTableRecord
  2
PARTNUMBER
 70
0
 62
7
  6
CONTINUOUS
370
-3
390
F
  0
LAYER
  5
22F
100
AcDbSymbolTableRecord
100
AcDbLayerTableRecord
  2
PORT_AREAS
 70
0
 62
7
  6
CONTINUOUS
370
-3
390
F
  0
LAYER
  5
230
100
AcDbSymbolTableRecord
100
AcDbLayerTableRecord
  2
TEXT
 70
0
 62
7
  6
CONTINUOUS
370
-3
390
F
  0
LAYER
  5
231
100
AcDbSymbolTableRecord
100
AcDbLayerTableRecord
  2
THREAD
 70
0
 62
7
  6
CONTINUOUS
370
-3
390
F
  0
LAYER
  5
232
100
AcDbSymbolTableRecord
100
AcDbLayerTableRecord
  2
THREADS
 70
0
 62
7
  6
CONTINUOUS
370
-3
390
F
  0
ENDTAB
  0
TABLE
  2
STYLE
  5
3
100
AcDbSymbolTable
 70
1
  0
STYLE
  5
11
100
AcDbSymbolTableRecord
100
AcDbTextStyleTableRecord
  2
STANDARD
 70
0
 40
0.0
 41
0.8
 50
0.0
 71
0
 42
0.2
  3
txt
  4

  0
ENDTAB
  0
TABLE
  2
VIEW
  5
6
100
AcDbSymbolTable
 70
0
  0
ENDTAB
  0
TABLE
  2
UCS
  5
7
100
AcDbSymbolTable
 70
0
  0
ENDTAB
  0
TABLE
  2
APPID
  5
9
100
AcDbSymbolTable
 70
1
  0
APPID
  5
233
100
AcDbSymbolTableRecord
100
AcDbRegAppTableRecord
  2
ACAD
 70
0
  0
ENDTAB
  0
TABLE
  2
BLOCK_RECORD
  5
1
100
AcDbSymbolTable
 70
0
  0
BLOCK_RECORD
  5
1F
100
AcDbSymbolTableRecord
100
AcDbBlockTableRecord
  2
*MODEL_SPACE
  0
BLOCK_RECORD
  5
1B
100
AcDbSymbolTableRecord
100
AcDbBlockTableRecord
  2
*PAPER_SPACE
  0
ENDTAB
  0
TABLE
  2
DIMSTYLE
  5
A
100
AcDbSymbolTable
 70
1
100
AcDbDimStyleTable
 71
0
  0
DIMSTYLE
105
234
100
AcDbSymbolTableRecord
100
AcDbDimStyleTableRecord
  2
STANDARD
 70
0
  3

  4

 40
1.0
 41
0.1875
 42
0.0625
 43
0.38
 44
0.18
 45
0.0
 46
0.0
 47
0.01
 48
0.01
140
0.15625
141
0.09
142
0.0
143
25.4
144
1.0
145
0.0
146
1.0
147
0.09
 71
0.0
 72
0.0
 73
1
 74
1
 75
0
 76
0
 77
0
 78
4
170
0
171
2
172
0
173
0
174
0
175
0
176
0
177
0
178
0
270
2
271
2
272
2
273
2
274
2
275
0
280
0
281
0
282
0
283
1
284
4
285
0
286
0
287
3
288
0
340
11
  0
ENDTAB
  0
ENDSEC
  0
SECTION
  2
BLOCKS
  0
BLOCK
  5
20
100
AcDbEntity
  8
0
100
AcDbBlockBegin
  2
*MODEL_SPACE
 70
0
 10
0.0
 20
0.0
 30
0.0
  3
*MODEL_SPACE
  1

  0
ENDBLK
  5
21
100
AcDbEntity
  8
0
100
AcDbBlockEnd
  0
BLOCK
  5
1C
100
AcDbEntity
  8
0
100
AcDbBlockBegin
  2
*PAPER_SPACE
 70
0
 10
0.0
 20
0.0
 30
0.0
  3
*PAPER_SPACE
  1

  0
ENDBLK
  5
1D
100
AcDbEntity
  8
0
100
AcDbBlockEnd
  0
ENDSEC
  0
SECTION
  2
ENTITIES
  0
LINE
  5
235
100
AcDbEntity
  8
03__ASM_ALL_CURVES
100
AcDbLine
 62
4
  6
CONTINUOUS
 10
7.9701895841
 20
12.807763558
 11
7.9843540841
 21
12.8172065558
  0
LINE
  5
236
100
AcDbEntity
  8
03__ASM_ALL_CURVES
100
AcDbLine
 62
4
  6
CONTINUOUS
 10
7.9701895841
 20
12.7605485558
 11
7.9843540841
 21
12.7699915535
  0
LINE
  5
237
100
AcDbEntity
  8
03__ASM_ALL_CURVES
100
AcDbLine
 62
4
  6
CONTINUOUS
 10
8.0126830841
 20
12.779434558
 11
7.9985185841
 21
12.7699915535
  0
LINE
  5
238
100
AcDbEntity
  8
03__ASM_ALL_CURVES
100
AcDbLine
 62
4
  6
CONTINUOUS
 10
8.0126830841
 20
12.713333556
 11
7.9985185841
 21
12.7038905558
  0
LINE
  5
239
100
AcDbEntity
  8
03__ASM_ALL_CURVES
100
AcDbLine
 62
4
  6
CONTINUOUS
 10
8.4234535841
 20
12.969513558
 11
8.4376180841
 21
12.9789565558
  0
LINE
  5
23A
100
AcDbEntity
  8
03__ASM_ALL_CURVES
100
AcDbLine
 62
4
  6
CONTINUOUS
 10
8.4234535841
 20
12.9222985558
 11
8.4376180841
 21
12.9317415535
  0
LINE
  5
23B
100
AcDbEntity
  8
03__ASM_ALL_CURVES
100
AcDbLine
 62
4
  6
CONTINUOUS
 10
8.4659470841
 20
12.941184558
 11
8.4517825841
 21
12.9317415535
  0
LINE
  5
23C
100
AcDbEntity
  8
03__ASM_ALL_CURVES
100
AcDbLine
 62
4
  6
CONTINUOUS
 10
8.4659470841
 20
12.875083556
 11
8.4517825841
 21
12.8656405558
  0
LINE
  5
23D
100
AcDbEntity
  8
03__ASM_ALL_CURVES
100
AcDbLine
 62
4
  6
CONTINUOUS
 10
7.7860510841
 20
12.8172065558
 11
7.7364753341
 21
12.7322195558
  0
LINE
  5
23E
100
AcDbEntity
  8
03__ASM_ALL_CURVES
100
AcDbLine
 62
4
  6
CONTINUOUS
 10
7.9631073341
 20
12.7983205535
 11
7.9701895841
 21
12.807763558
  0
LINE
  5
23F
100
AcDbEntity
  8
03__ASM_ALL_CURVES
100
AcDbLine
 62
4
  6
CONTINUOUS
 10
7.9560250841
 20
12.7416625569
 11
7.9701895841
 21
12.7605485558
  0
LINE
  5
240
100
AcDbEntity
  8
03__ASM_ALL_CURVES
100
AcDbLine
 62
4
  6
CONTINUOUS
 10
8.0197653341
 20
12.7888775558
 11
8.0126830841
 21
12.779434558
  0
LINE
  5
241
100
AcDbEntity
  8
03__ASM_ALL_CURVES
100
AcDbLine
 62
4
  6
CONTINUOUS
 10
8.0268475841
 20
12.7322195558
 11
8.0126830841
 21
12.713333556
  0
LINE
  5
242
100
AcDbEntity
  8
03__ASM_ALL_CURVES
100
AcDbLine
 62
4
  6
CONTINUOUS
 10
8.5367695841
 20
12.807763558
 11
8.5509340841
 21
12.8172065558
  0
LINE
  5
243
100
AcDbEntity
  8
03__ASM_ALL_CURVES
100
AcDbLine
 62
4
  6
CONTINUOUS
 10
8.5792630841
 20
12.7699915535
 11
8.5509340841
 21
12.7511055546
  0
LINE
  5
244
100
AcDbEntity
  8
03__ASM_ALL_CURVES
100
AcDbLine
 62
4
  6
CONTINUOUS
 10
8.6500855841
 20
12.807763558
 11
8.6642500841
 21
12.8172065558
  0
LINE
  5
245
100
AcDbEntity
  8
03__ASM_ALL_CURVES
100
AcDbLine
 62
4
  6
CONTINUOUS
 10
8.9900335841
 20
12.969513558
 11
9.0041980841
 21
12.9789565558
  0
LINE
  5
246
100
AcDbEntity
  8
03__ASM_ALL_CURVES
100
AcDbLine
 62
4
  6
CONTINUOUS
 10
8.6925790841
 20
12.7699915535
 11
8.6642500841
 21
12.7511055546
  0
LINE
  5
247
100
AcDbEntity
  8
03__ASM_ALL_CURVES
100
AcDbLine
 62
4
  6
CONTINUOUS
 10
9.0325270841
 20
12.9317415535
 11
9.0041980841
 21
12.9128555546
  0
LINE
  5
248
100
AcDbEntity
  8
03__ASM_ALL_CURVES
100
AcDbLine
 62
4
  6
CONTINUOUS
 10
9.1033495841
 20
12.969513558
 11
9.1175140841
 21
12.9789565558
  0
LINE
  5
249
100
AcDbEntity
  8
03__ASM_ALL_CURVES
100
AcDbLine
 62
4
  6
CONTINUOUS
 10
9.1458430841
 20
12.941184558
 11
9.1316785841
 21
12.9317415535
  0
LINE
  5
24A
100
AcDbEntity
  8
03__ASM_ALL_CURVES
100
AcDbLine
 62
4
  6
CONTINUOUS
 10
9.1458430841
 20
12.875083556
 11
9.1316785841
 21
12.8656405558
  0
LINE
  5
24B
100
AcDbEntity
  8
03__ASM_ALL_CURVES
100
AcDbLine
 62
4
  6
CONTINUOUS
 10
9.3299815841
 20
12.9222985558
 11
9.3512283341
 21
12.9317415535
  0
LINE
  5
24C
100
AcDbEntity
  8
03__ASM_ALL_CURVES
100
AcDbLine
 62
4
  6
CONTINUOUS
 10
9.4857910841
 20
12.9222985558
 11
9.4645443341
 21
12.9128555546
  0
LINE
  5
24D
100
AcDbEntity
  8
03__ASM_ALL_CURVES
100
AcDbLine
 62
4
  6
CONTINUOUS
 10
8.2393150841
 20
12.9789565558
 11
8.1897393341
 21
12.8939695558
  0
LINE
  5
24E
100
AcDbEntity
  8
03__ASM_ALL_CURVES
100
AcDbLine
 62
4
  6
CONTINUOUS
 10
8.4163713341
 20
12.9600705535
 11
8.4234535841
 21
12.969513558
  0
LINE
  5
24F
100
AcDbEntity
  8
03__ASM_ALL_CURVES
100
AcDbLine
 62
4
  6
CONTINUOUS
 10
8.3384665841
 20
12.8172065558
 11
8.3243020841
 21
12.7983205535
  0
LINE
  5
250
100
AcDbEntity
  8
03__ASM_ALL_CURVES
100
AcDbLine
 62
4
  6
CONTINUOUS
 10
8.4092890841
 20
12.9034125569
 11
8.4234535841
 21
12.9222985558
  0
LINE
  5
251
100
AcDbEntity
  8
03__ASM_ALL_CURVES
100
AcDbLine
 62
4
  6
CONTINUOUS
 10
8.4730293341
 20
12.9506275558
 11
8.4659470841
 21
12.941184558
  0
LINE
  5
252
100
AcDbEntity
  8
03__ASM_ALL_CURVES
100
AcDbLine
 62
4
  6
CONTINUOUS
 10
8.4801115841
 20
12.8939695558
 11
8.4659470841
 21
12.875083556
  0
LINE
  5
253
100
AcDbEntity
  8
03__ASM_ALL_CURVES
100
AcDbLine
 62
4
  6
CONTINUOUS
 10
8.5296873341
 20
12.7983205535
 11
8.5367695841
 21
12.807763558
  0
LINE
  5
254
100
AcDbEntity
  8
03__ASM_ALL_CURVES
100
AcDbLine
 62
4
  6
CONTINUOUS
 10
8.5509340841
 20
12.7511055546
 11
8.5367695841
 21
12.7322195558
  0
LINE
  5
255
100
AcDbEntity
  8
03__ASM_ALL_CURVES
100
AcDbLine
 62
4
  6
CONTINUOUS
 10
8.5863453341
 20
12.779434558
 11
8.5792630841
 21
12.7699915535
  0
LINE
  5
256
100
AcDbEntity
  8
03__ASM_ALL_CURVES
100
AcDbLine
 62
4
  6
CONTINUOUS
 10
9.3370638341
 20
12.969513558
 11
9.3512283341
 21
12.9789565558
  0
LINE
  5
257
100
AcDbEntity
  8
03__ASM_ALL_CURVES
100
AcDbLine
 62
4
  6
CONTINUOUS
 10
9.4503798341
 20
12.969513558
 11
9.4645443341
 21
12.9789565558
  0
LINE
  5
258
100
AcDbEntity
  8
03__ASM_ALL_CURVES
100
AcDbLine
 62
4
  6
CONTINUOUS
 10
9.3653928341
 20
12.875083556
 11
9.3512283341
 21
12.8656405558
  0
LINE
  5
259
100
AcDbEntity
  8
03__ASM_ALL_CURVES
100
AcDbLine
 62
4
  6
CONTINUOUS
 10
9.4787088341
 20
12.875083556
 11
9.4645443341
 21
12.8656405558
  0
LINE
  5
25A
100
AcDbEntity
  8
03__ASM_ALL_CURVES
100
AcDbLine
 62
4
  6
CONTINUOUS
 10
9.5707780841
 20
12.8172065558
 11
9.5566135841
 21
12.807763558
  0
LINE
  5
25B
100
AcDbEntity
  8
03__ASM_ALL_CURVES
100
AcDbLine
 62
4
  6
CONTINUOUS
 10
12.4605413352
 20
5.7125500558
 11
12.4888703335
 21
5.7196323058
  0
LINE
  5
25C
100
AcDbEntity
  8
03__ASM_ALL_CURVES
100
AcDbLine
 62
4
  6
CONTINUOUS
 10
11.2694403341
 20
5.1601345558
 11
11.3827563341
 21
5.1601345558
  0
LINE
  5
25D
100
AcDbEntity
  8
03__ASM_ALL_CURVES
100
AcDbLine
 62
4
  6
CONTINUOUS
 10
12.4133263363
 20
5.1884635558
 11
12.4322123318
 21
5.1884635558
  0
LINE
  5
25E
100
AcDbEntity
  8
03__ASM_ALL_CURVES
100
AcDbLine
 62
4
  6
CONTINUOUS
 10
12.5077563341
 20
5.2911561808
 11
12.4935918337
 21
5.2911561808
  0
LINE
  5
25F
100
AcDbEntity
  8
03__ASM_ALL_CURVES
100
AcDbLine
 62
4
  6
CONTINUOUS
 10
11.3827563341
 20
5.2911561808
 11
11.3685918337
 21
5.2911561808
  0
LINE
  5
260
100
AcDbEntity
  8
03__ASM_ALL_CURVES
100
AcDbLine
 62
4
  6
CONTINUOUS
 10
8.6430033341
 20
12.7983205535
 11
8.6500855841
 21
12.807763558
  0
LINE
  5
261
100
AcDbEntity
  8
03__ASM_ALL_CURVES
100
AcDbLine
 62
4
  6
CONTINUOUS
 10
8.7917305841
 20
12.9789565558
 11
8.7775660841
 21
12.9600705535
  0
LINE
  5
262
100
AcDbEntity
  8
03__ASM_ALL_CURVES
100
AcDbLine
 62
4
  6
CONTINUOUS
 10
8.6642500841
 20
12.7511055546
 11
8.6500855841
 21
12.7322195558
  0
LINE
  5
263
100
AcDbEntity
  8
03__ASM_ALL_CURVES
100
AcDbLine
 62
4
  6
CONTINUOUS
 10
8.6996613341
 20
12.779434558
 11
8.6925790841
 21
12.7699915535
  0
LINE
  5
264
100
AcDbEntity
  8
03__ASM_ALL_CURVES
100
AcDbLine
 62
4
  6
CONTINUOUS
 10
8.9829513341
 20
12.9600705535
 11
8.9900335841
 21
12.969513558
  0
LINE
  5
265
100
AcDbEntity
  8
03__ASM_ALL_CURVES
100
AcDbLine
 62
4
  6
CONTINUOUS
 10
9.0041980841
 20
12.9128555546
 11
8.9900335841
 21
12.8939695558
  0
LINE
  5
266
100
AcDbEntity
  8
03__ASM_ALL_CURVES
100
AcDbLine
 62
4
  6
CONTINUOUS
 10
9.0396093341
 20
12.941184558
 11
9.0325270841
 21
12.9317415535
  0
LINE
  5
267
100
AcDbEntity
  8
03__ASM_ALL_CURVES
100
AcDbLine
 62
4
  6
CONTINUOUS
 10
9.5991070841
 20
12.713333556
 11
9.5849425841
 21
12.7038905558
  0
LINE
  5
268
100
AcDbEntity
  8
03__ASM_ALL_CURVES
100
AcDbLine
 62
4
  6
CONTINUOUS
 10
11.3355413352
 20
5.7125500558
 11
11.3638703335
 21
5.7196323058
  0
LINE
  5
269
100
AcDbEntity
  8
03__ASM_ALL_CURVES
100
AcDbLine
 62
4
  6
CONTINUOUS
 10
11.2694403341
 20
5.3867665558
 11
11.3827563341
 21
5.3867665558
  0
LINE
  5
26A
100
AcDbEntity
  8
03__ASM_ALL_CURVES
100
AcDbLine
 62
4
  6
CONTINUOUS
 10
12.4133263363
 20
5.4150955558
 11
12.4322123318
 21
5.4150955558
  0
LINE
  5
26B
100
AcDbEntity
  8
03__ASM_ALL_CURVES
100
AcDbLine
 62
4
  6
CONTINUOUS
 10
11.2883263363
 20
5.5284115558
 11
11.3072123318
 21
5.5284115558
  0
LINE
  5
26C
100
AcDbEntity
  8
03__ASM_ALL_CURVES
100
AcDbLine
 62
4
  6
CONTINUOUS
 10
9.1529253341
 20
12.9506275558
 11
9.1458430841
 21
12.941184558
  0
LINE
  5
26D
100
AcDbEntity
  8
03__ASM_ALL_CURVES
100
AcDbLine
 62
4
  6
CONTINUOUS
 10
9.1600075841
 20
12.8939695558
 11
9.1458430841
 21
12.875083556
  0
LINE
  5
26E
100
AcDbEntity
  8
03__ASM_ALL_CURVES
100
AcDbLine
 62
4
  6
CONTINUOUS
 10
9.1316785841
 20
12.7227765563
 11
9.1175140841
 21
12.7038905558
  0
LINE
  5
26F
100
AcDbEntity
  8
03__ASM_ALL_CURVES
100
AcDbLine
 62
4
  6
CONTINUOUS
 10
9.3299815841
 20
12.9600705535
 11
9.3370638341
 21
12.969513558
  0
LINE
  5
270
100
AcDbEntity
  8
03__ASM_ALL_CURVES
100
AcDbLine
 62
4
  6
CONTINUOUS
 10
9.3724750841
 20
12.8845265563
 11
9.3653928341
 21
12.875083556
  0
LINE
  5
271
100
AcDbEntity
  8
03__ASM_ALL_CURVES
100
AcDbLine
 62
4
  6
CONTINUOUS
 10
9.4432975841
 20
12.9600705535
 11
9.4503798341
 21
12.969513558
  0
LINE
  5
272
100
AcDbEntity
  8
03__ASM_ALL_CURVES
100
AcDbLine
 62
4
  6
CONTINUOUS
 10
8.3597133341
 20
11.5136275558
 11
8.3526310841
 21
11.504184558
  0
LINE
  5
273
100
AcDbEntity
  8
03__ASM_ALL_CURVES
100
AcDbLine
 62
4
  6
CONTINUOUS
 10
9.3583105841
 20
12.8172065558
 11
9.3441460841
 21
12.7983205535
  0
LINE
  5
274
100
AcDbEntity
  8
03__ASM_ALL_CURVES
100
AcDbLine
 62
4
  6
CONTINUOUS
 10
8.3667955841
 20
11.4569695558
 11
8.3526310841
 21
11.438083556
  0
LINE
  5
275
100
AcDbEntity
  8
03__ASM_ALL_CURVES
100
AcDbLine
 62
4
  6
CONTINUOUS
 10
9.9744663341
 20
12.8602985558
 11
9.8611503341
 21
12.7605485558
  0
LINE
  5
276
100
AcDbEntity
  8
03__ASM_ALL_CURVES
100
AcDbLine
 62
4
  6
CONTINUOUS
 10
8.3101375841
 20
11.532513558
 11
8.3243020841
 21
11.5419565558
  0
LINE
  5
277
100
AcDbEntity
  8
03__ASM_ALL_CURVES
100
AcDbLine
 62
4
  6
CONTINUOUS
 10
8.3526310841
 20
11.504184558
 11
8.3384665841
 21
11.4947415535
  0
LINE
  5
278
100
AcDbEntity
  8
03__ASM_ALL_CURVES
100
AcDbLine
 62
4
  6
CONTINUOUS
 10
8.3526310841
 20
11.438083556
 11
8.3384665841
 21
11.4286405558
  0
LINE
  5
279
100
AcDbEntity
  8
03__ASM_ALL_CURVES
100
AcDbLine
 62
4
  6
CONTINUOUS
 10
8.6500855841
 20
11.532513558
 11
8.6642500841
 21
11.5419565558
  0
LINE
  5
27A
100
AcDbEntity
  8
03__ASM_ALL_CURVES
100
AcDbLine
 62
4
  6
CONTINUOUS
 10
8.6925790841
 20
11.504184558
 11
8.6784145841
 21
11.4947415535
  0
LINE
  5
27B
100
AcDbEntity
  8
03__ASM_ALL_CURVES
100
AcDbLine
 62
4
  6
CONTINUOUS
 10
8.6925790841
 20
11.438083556
 11
8.6784145841
 21
11.4286405558
  0
LINE
  5
27C
100
AcDbEntity
  8
03__ASM_ALL_CURVES
100
AcDbLine
 62
4
  6
CONTINUOUS
 10
12.4133263363
 20
6.4136928058
 11
12.4416553363
 21
6.4207750558
  0
LINE
  5
27D
100
AcDbEntity
  8
03__ASM_ALL_CURVES
100
AcDbLine
 62
4
  6
CONTINUOUS
 10
11.3166553363
 20
5.7125500558
 11
11.3355413352
 21
5.7125500558
  0
LINE
  5
27E
100
AcDbEntity
  8
03__ASM_ALL_CURVES
100
AcDbLine
 62
4
  6
CONTINUOUS
 10
12.4416553363
 20
5.7125500558
 11
12.4605413352
 21
5.7125500558
  0
LINE
  5
27F
100
AcDbEntity
  8
03__ASM_ALL_CURVES
100
AcDbLine
 62
4
  6
CONTINUOUS
 10
11.2883263363
 20
5.8683595558
 11
11.3072123318
 21
5.8683595558
  0
LINE
  5
280
100
AcDbEntity
  8
03__ASM_ALL_CURVES
100
AcDbLine
 62
4
  6
CONTINUOUS
 10
11.3544273341
 20
5.9179353058
 11
11.344984333
 21
5.9179353058
  0
LINE
  5
281
100
AcDbEntity
  8
03__ASM_ALL_CURVES
100
AcDbLine
 62
4
  6
CONTINUOUS
 10
11.2977693341
 20
5.9250175558
 11
11.2883263363
 21
5.9250175558
  0
LINE
  5
282
100
AcDbEntity
  8
03__ASM_ALL_CURVES
100
AcDbLine
 62
4
  6
CONTINUOUS
 10
11.2883263363
 20
5.9816755558
 11
11.2977693341
 21
5.9816755558
  0
LINE
  5
283
100
AcDbEntity
  8
03__ASM_ALL_CURVES
100
AcDbLine
 62
4
  6
CONTINUOUS
 10
11.344984333
 20
5.9887578058
 11
11.3544273341
 21
5.9887578058
  0
LINE
  5
284
100
AcDbEntity
  8
03__ASM_ALL_CURVES
100
AcDbLine
 62
4
  6
CONTINUOUS
 10
12.3944403341
 20
5.4859180558
 11
12.4416553363
 21
5.4788358058
  0
LINE
  5
285
100
AcDbEntity
  8
03__ASM_ALL_CURVES
100
AcDbLine
 62
4
  6
CONTINUOUS
 10
12.4794273341
 20
5.1388878058
 11
12.5077563341
 21
5.1318055558
  0
LINE
  5
286
100
AcDbEntity
  8
03__ASM_ALL_CURVES
100
AcDbLine
 62
4
  6
CONTINUOUS
 10
11.3544273341
 20
5.4788358058
 11
11.3827563341
 21
5.4717535558
  0
LINE
  5
287
100
AcDbEntity
  8
03__ASM_ALL_CURVES
100
AcDbLine
 62
4
  6
CONTINUOUS
 10
8.3243020841
 20
12.7983205535
 11
8.3172198341
 21
12.7699915535
  0
LINE
  5
288
100
AcDbEntity
  8
03__ASM_ALL_CURVES
100
AcDbLine
 62
4
  6
CONTINUOUS
 10
8.5721808341
 20
12.941184558
 11
8.5863453341
 21
12.9789565558
  0
LINE
  5
289
100
AcDbEntity
  8
03__ASM_ALL_CURVES
100
AcDbLine
 62
4
  6
CONTINUOUS
 10
8.5792630841
 20
11.5419565558
 11
8.5296873341
 21
11.4569695558
  0
LINE
  5
28A
100
AcDbEntity
  8
03__ASM_ALL_CURVES
100
AcDbLine
 62
4
  6
CONTINUOUS
 10
9.4857910841
 20
12.8845265563
 11
9.4787088341
 21
12.875083556
  0
LINE
  5
28B
100
AcDbEntity
  8
03__ASM_ALL_CURVES
100
AcDbLine
 62
4
  6
CONTINUOUS
 10
9.5849425841
 20
12.8845265563
 11
9.5707780841
 21
12.8656405558
  0
LINE
  5
28C
100
AcDbEntity
  8
03__ASM_ALL_CURVES
100
AcDbLine
 62
4
  6
CONTINUOUS
 10
9.5566135841
 20
12.807763558
 11
9.5495313341
 21
12.7983205535
  0
LINE
  5
28D
100
AcDbEntity
  8
03__ASM_ALL_CURVES
100
AcDbLine
 62
4
  6
CONTINUOUS
 10
9.6061893341
 20
12.7227765563
 11
9.5991070841
 21
12.713333556
  0
LINE
  5
28E
100
AcDbEntity
  8
03__ASM_ALL_CURVES
100
AcDbLine
 62
4
  6
CONTINUOUS
 10
8.6996613341
 20
11.5136275558
 11
8.6925790841
 21
11.504184558
  0
LINE
  5
28F
100
AcDbEntity
  8
03__ASM_ALL_CURVES
100
AcDbLine
 62
4
  6
CONTINUOUS
 10
8.7067435841
 20
11.4569695558
 11
8.6925790841
 21
11.438083556
  0
LINE
  5
290
100
AcDbEntity
  8
03__ASM_ALL_CURVES
100
AcDbLine
 62
4
  6
CONTINUOUS
 10
9.6982585841
 20
12.7227765563
 11
9.6840940841
 21
12.7038905558
  0
LINE
  5
291
100
AcDbEntity
  8
03__ASM_ALL_CURVES
100
AcDbLine
 62
4
  6
CONTINUOUS
 10
8.9900335841
 20
11.532513558
 11
9.0041980841
 21
11.5419565558
  0
LINE
  5
292
100
AcDbEntity
  8
03__ASM_ALL_CURVES
100
AcDbLine
 62
4
  6
CONTINUOUS
 10
8.9900335841
 20
11.4852985558
 11
9.0041980841
 21
11.4947415535
  0
LINE
  5
293
100
AcDbEntity
  8
03__ASM_ALL_CURVES
100
AcDbLine
 62
4
  6
CONTINUOUS
 10
9.0325270841
 20
11.504184558
 11
9.0183625841
 21
11.4947415535
  0
LINE
  5
294
100
AcDbEntity
  8
03__ASM_ALL_CURVES
100
AcDbLine
 62
4
  6
CONTINUOUS
 10
9.0325270841
 20
11.438083556
 11
9.0183625841
 21
11.4286405558
  0
LINE
  5
295
100
AcDbEntity
  8
03__ASM_ALL_CURVES
100
AcDbLine
 62
4
  6
CONTINUOUS
 10
9.4432975841
 20
11.532513558
 11
9.4574620841
 21
11.5419565558
  0
LINE
  5
296
100
AcDbEntity
  8
03__ASM_ALL_CURVES
100
AcDbLine
 62
4
  6
CONTINUOUS
 10
11.2883263363
 20
6.4136928058
 11
11.3166553363
 21
6.4207750558
  0
LINE
  5
297
100
AcDbEntity
  8
03__ASM_ALL_CURVES
100
AcDbLine
 62
4
  6
CONTINUOUS
 10
12.5077563341
 20
6.0843681808
 11
12.4935918337
 21
6.0843681808
  0
LINE
  5
298
100
AcDbEntity
  8
03__ASM_ALL_CURVES
100
AcDbLine
 62
4
  6
CONTINUOUS
 10
11.3827563341
 20
6.0843681808
 11
11.3685918337
 21
6.0843681808
  0
LINE
  5
299
100
AcDbEntity
  8
03__ASM_ALL_CURVES
100
AcDbLine
 62
4
  6
CONTINUOUS
 10
12.3944403341
 20
6.1799785558
 11
12.5077563341
 21
6.1799785558
  0
LINE
  5
29A
100
AcDbEntity
  8
03__ASM_ALL_CURVES
100
AcDbLine
 62
4
  6
CONTINUOUS
 10
11.3827563341
 20
6.2012253058
 11
11.2694403341
 21
6.2012253058
  0
LINE
  5
29B
100
AcDbEntity
  8
03__ASM_ALL_CURVES
100
AcDbLine
 62
4
  6
CONTINUOUS
 10
11.3827563341
 20
6.3145413058
 11
11.2694403341
 21
6.3145413058
  0
LINE
  5
29C
100
AcDbEntity
  8
03__ASM_ALL_CURVES
100
AcDbLine
 62
4
  6
CONTINUOUS
 10
12.3944403341
 20
5.8258660558
 11
12.4416553363
 21
5.8187838058
  0
LINE
  5
29D
100
AcDbEntity
  8
03__ASM_ALL_CURVES
100
AcDbLine
 62
4
  6
CONTINUOUS
 10
12.4794273341
 20
5.3655198058
 11
12.5077563341
 21
5.3584375558
  0
LINE
  5
29E
100
AcDbEntity
  8
03__ASM_ALL_CURVES
100
AcDbLine
 62
4
  6
CONTINUOUS
 10
11.2883263363
 20
5.7196323058
 11
11.3166553363
 21
5.7125500558
  0
LINE
  5
29F
100
AcDbEntity
  8
03__ASM_ALL_CURVES
100
AcDbLine
 62
4
  6
CONTINUOUS
 10
11.3544273341
 20
5.8187838058
 11
11.3827563341
 21
5.8117015558
  0
LINE
  5
2A0
100
AcDbEntity
  8
03__ASM_ALL_CURVES
100
AcDbLine
 62
4
  6
CONTINUOUS
 10
7.7860510841
 20
12.7038905558
 11
7.7860510841
 21
12.8172065558
  0
LINE
  5
2A1
100
AcDbEntity
  8
03__ASM_ALL_CURVES
100
AcDbLine
 62
4
  6
CONTINUOUS
 10
8.5650985841
 20
12.9128555546
 11
8.5721808341
 21
12.941184558
  0
LINE
  5
2A2
100
AcDbEntity
  8
03__ASM_ALL_CURVES
100
AcDbLine
 62
4
  6
CONTINUOUS
 10
8.5367695841
 20
12.7322195558
 11
8.5296873341
 21
12.7038905558
  0
LINE
  5
2A3
100
AcDbEntity
  8
03__ASM_ALL_CURVES
100
AcDbLine
 62
4
  6
CONTINUOUS
 10
8.6500855841
 20
12.7322195558
 11
8.6430033341
 21
12.7038905558
  0
LINE
  5
2A4
100
AcDbEntity
  8
03__ASM_ALL_CURVES
100
AcDbLine
 62
4
  6
CONTINUOUS
 10
9.0254448341
 20
12.779434558
 11
9.0396093341
 21
12.8172065558
  0
LINE
  5
2A5
100
AcDbEntity
  8
03__ASM_ALL_CURVES
100
AcDbLine
 62
4
  6
CONTINUOUS
 10
8.9050465841
 20
11.5419565558
 11
8.8908820841
 21
11.5230705535
  0
LINE
  5
2A6
100
AcDbEntity
  8
03__ASM_ALL_CURVES
100
AcDbLine
 62
4
  6
CONTINUOUS
 10
8.9829513341
 20
11.5230705535
 11
8.9900335841
 21
11.532513558
  0
LINE
  5
2A7
100
AcDbEntity
  8
03__ASM_ALL_CURVES
100
AcDbLine
 62
4
  6
CONTINUOUS
 10
8.9758690841
 20
11.4664125569
 11
8.9900335841
 21
11.4852985558
  0
LINE
  5
2A8
100
AcDbEntity
  8
03__ASM_ALL_CURVES
100
AcDbLine
 62
4
  6
CONTINUOUS
 10
9.0396093341
 20
11.5136275558
 11
9.0325270841
 21
11.504184558
  0
LINE
  5
2A9
100
AcDbEntity
  8
03__ASM_ALL_CURVES
100
AcDbLine
 62
4
  6
CONTINUOUS
 10
9.0466915841
 20
11.4569695558
 11
9.0325270841
 21
11.438083556
  0
LINE
  5
2AA
100
AcDbEntity
  8
03__ASM_ALL_CURVES
100
AcDbLine
 62
4
  6
CONTINUOUS
 10
9.4857910841
 20
11.4947415535
 11
9.4574620841
 21
11.4758555546
  0
LINE
  5
2AB
100
AcDbEntity
  8
03__ASM_ALL_CURVES
100
AcDbLine
 62
4
  6
CONTINUOUS
 10
11.3166553363
 20
6.4207750558
 11
11.3355413352
 21
6.4207750558
  0
LINE
  5
2AC
100
AcDbEntity
  8
03__ASM_ALL_CURVES
100
AcDbLine
 62
4
  6
CONTINUOUS
 10
12.4416553363
 20
6.4207750558
 11
12.4605413352
 21
6.4207750558
  0
LINE
  5
2AD
100
AcDbEntity
  8
03__ASM_ALL_CURVES
100
AcDbLine
 62
4
  6
CONTINUOUS
 10
12.5077563341
 20
5.9533465558
 11
12.4605413352
 21
5.9604288058
  0
LINE
  5
2AE
100
AcDbEntity
  8
03__ASM_ALL_CURVES
100
AcDbLine
 62
4
  6
CONTINUOUS
 10
12.4133263363
 20
5.7196323058
 11
12.4416553363
 21
5.7125500558
  0
LINE
  5
2AF
100
AcDbEntity
  8
03__ASM_ALL_CURVES
100
AcDbLine
 62
4
  6
CONTINUOUS
 10
12.4605413352
 20
5.9604288058
 11
12.4322123318
 21
5.9675110558
  0
LINE
  5
2B0
100
AcDbEntity
  8
03__ASM_ALL_CURVES
100
AcDbLine
 62
4
  6
CONTINUOUS
 10
12.469984333
 20
5.5354938058
 11
12.4888703335
 21
5.5284115558
  0
LINE
  5
2B1
100
AcDbEntity
  8
03__ASM_ALL_CURVES
100
AcDbLine
 62
4
  6
CONTINUOUS
 10
8.3313843341
 20
7.0836405558
 11
8.3172198341
 21
7.093083556
  0
LINE
  5
2B2
100
AcDbEntity
  8
03__ASM_ALL_CURVES
100
AcDbLine
 62
4
  6
CONTINUOUS
 10
8.3313843341
 20
7.1969565558
 11
8.3455488341
 21
7.187513558
  0
LINE
  5
2B3
100
AcDbEntity
  8
03__ASM_ALL_CURVES
100
AcDbLine
 62
4
  6
CONTINUOUS
 10
8.5580163341
 20
7.0836405558
 11
8.5438518341
 21
7.093083556
  0
LINE
  5
2B4
100
AcDbEntity
  8
03__ASM_ALL_CURVES
100
AcDbLine
 62
4
  6
CONTINUOUS
 10
8.6713323341
 20
7.0836405558
 11
8.6571678341
 21
7.093083556
  0
LINE
  5
2B5
100
AcDbEntity
  8
03__ASM_ALL_CURVES
100
AcDbLine
 62
4
  6
CONTINUOUS
 10
8.3172198341
 20
7.093083556
 11
8.3101375841
 21
7.1025265563
  0
LINE
  5
2B6
100
AcDbEntity
  8
03__ASM_ALL_CURVES
100
AcDbLine
 62
4
  6
CONTINUOUS
 10
8.3455488341
 20
7.187513558
 11
8.3526310841
 21
7.1780705535
  0
LINE
  5
2B7
100
AcDbEntity
  8
03__ASM_ALL_CURVES
100
AcDbLine
 62
4
  6
CONTINUOUS
 10
8.4624059591
 20
7.0978050562
 11
8.4730293341
 21
7.0836405558
  0
LINE
  5
2B8
100
AcDbEntity
  8
03__ASM_ALL_CURVES
100
AcDbLine
 62
4
  6
CONTINUOUS
 10
8.5438518341
 20
7.093083556
 11
8.5367695841
 21
7.1025265563
  0
LINE
  5
2B9
100
AcDbEntity
  8
03__ASM_ALL_CURVES
100
AcDbLine
 62
4
  6
CONTINUOUS
 10
8.3101375841
 20
7.1025265563
 11
8.3030553341
 21
7.1214125569
  0
LINE
  5
2BA
100
AcDbEntity
  8
03__ASM_ALL_CURVES
100
AcDbLine
 62
4
  6
CONTINUOUS
 10
7.8958259591
 20
12.7038905558
 11
7.8958259591
 21
12.7180550562
  0
LINE
  5
2BB
100
AcDbEntity
  8
03__ASM_ALL_CURVES
100
AcDbLine
 62
4
  6
CONTINUOUS
 10
7.9560250841
 20
12.7322195558
 11
7.9560250841
 21
12.7416625569
  0
LINE
  5
2BC
100
AcDbEntity
  8
03__ASM_ALL_CURVES
100
AcDbLine
 62
4
  6
CONTINUOUS
 10
7.9631073341
 20
12.7888775558
 11
7.9631073341
 21
12.7983205535
  0
LINE
  5
2BD
100
AcDbEntity
  8
03__ASM_ALL_CURVES
100
AcDbLine
 62
4
  6
CONTINUOUS
 10
8.0197653341
 20
12.7983205535
 11
8.0197653341
 21
12.7888775558
  0
LINE
  5
2BE
100
AcDbEntity
  8
03__ASM_ALL_CURVES
100
AcDbLine
 62
4
  6
CONTINUOUS
 10
8.0268475841
 20
12.7416625569
 11
8.0268475841
 21
12.7322195558
  0
LINE
  5
2BF
100
AcDbEntity
  8
03__ASM_ALL_CURVES
100
AcDbLine
 62
4
  6
CONTINUOUS
 10
8.1047523341
 20
12.8172065558
 11
8.1047523341
 21
12.7038905558
  0
LINE
  5
2C0
100
AcDbEntity
  8
03__ASM_ALL_CURVES
100
AcDbLine
 62
4
  6
CONTINUOUS
 10
8.5580163341
 20
12.8656405558
 11
8.5650985841
 21
12.9128555546
  0
LINE
  5
2C1
100
AcDbEntity
  8
03__ASM_ALL_CURVES
100
AcDbLine
 62
4
  6
CONTINUOUS
 10
8.7775660841
 20
12.9600705535
 11
8.7704838341
 21
12.9317415535
  0
LINE
  5
2C2
100
AcDbEntity
  8
03__ASM_ALL_CURVES
100
AcDbLine
 62
4
  6
CONTINUOUS
 10
8.9900335841
 20
12.8939695558
 11
8.9829513341
 21
12.8656405558
  0
LINE
  5
2C3
100
AcDbEntity
  8
03__ASM_ALL_CURVES
100
AcDbLine
 62
4
  6
CONTINUOUS
 10
9.0183625841
 20
12.7511055546
 11
9.0254448341
 21
12.779434558
  0
LINE
  5
2C4
100
AcDbEntity
  8
03__ASM_ALL_CURVES
100
AcDbLine
 62
4
  6
CONTINUOUS
 10
9.3228993341
 20
12.941184558
 11
9.3299815841
 21
12.9600705535
  0
LINE
  5
2C5
100
AcDbEntity
  8
03__ASM_ALL_CURVES
100
AcDbLine
 62
4
  6
CONTINUOUS
 10
9.3228993341
 20
12.9034125569
 11
9.3299815841
 21
12.9222985558
  0
LINE
  5
2C6
100
AcDbEntity
  8
03__ASM_ALL_CURVES
100
AcDbLine
 62
4
  6
CONTINUOUS
 10
9.3795573341
 20
12.9034125569
 11
9.3724750841
 21
12.8845265563
  0
LINE
  5
2C7
100
AcDbEntity
  8
03__ASM_ALL_CURVES
100
AcDbLine
 62
4
  6
CONTINUOUS
 10
9.4362153341
 20
12.941184558
 11
9.4432975841
 21
12.9600705535
  0
LINE
  5
2C8
100
AcDbEntity
  8
03__ASM_ALL_CURVES
100
AcDbLine
 62
4
  6
CONTINUOUS
 10
9.4928733341
 20
12.941184558
 11
9.4857910841
 21
12.9222985558
  0
LINE
  5
2C9
100
AcDbEntity
  8
03__ASM_ALL_CURVES
100
AcDbLine
 62
4
  6
CONTINUOUS
 10
9.4928733341
 20
12.9034125569
 11
9.4857910841
 21
12.8845265563
  0
LINE
  5
2CA
100
AcDbEntity
  8
03__ASM_ALL_CURVES
100
AcDbLine
 62
4
  6
CONTINUOUS
 10
9.4362153341
 20
11.5230705535
 11
9.4432975841
 21
11.532513558
  0
LINE
  5
2CB
100
AcDbEntity
  8
03__ASM_ALL_CURVES
100
AcDbLine
 62
4
  6
CONTINUOUS
 10
9.4574620841
 20
11.4758555546
 11
9.4432975841
 21
11.4569695558
  0
LINE
  5
2CC
100
AcDbEntity
  8
03__ASM_ALL_CURVES
100
AcDbLine
 62
4
  6
CONTINUOUS
 10
9.4928733341
 20
11.504184558
 11
9.4857910841
 21
11.4947415535
  0
LINE
  5
2CD
100
AcDbEntity
  8
03__ASM_ALL_CURVES
100
AcDbLine
 62
4
  6
CONTINUOUS
 10
9.5849425841
 20
11.4475265563
 11
9.5707780841
 21
11.4286405558
  0
LINE
  5
2CE
100
AcDbEntity
  8
03__ASM_ALL_CURVES
100
AcDbLine
 62
4
  6
CONTINUOUS
 10
12.3944403341
 20
6.2791300558
 11
12.4416553363
 21
6.2720478058
  0
LINE
  5
2CF
100
AcDbEntity
  8
03__ASM_ALL_CURVES
100
AcDbLine
 62
4
  6
CONTINUOUS
 10
11.3355413352
 20
6.4207750558
 11
11.3638703335
 21
6.4136928058
  0
LINE
  5
2D0
100
AcDbEntity
  8
03__ASM_ALL_CURVES
100
AcDbLine
 62
4
  6
CONTINUOUS
 10
12.469984333
 20
5.8754418058
 11
12.4888703335
 21
5.8683595558
  0
LINE
  5
2D1
100
AcDbEntity
  8
03__ASM_ALL_CURVES
100
AcDbLine
 62
4
  6
CONTINUOUS
 10
8.5580163341
 20
7.1308555546
 11
8.5367695841
 21
7.1402985558
  0
LINE
  5
2D2
100
AcDbEntity
  8
03__ASM_ALL_CURVES
100
AcDbLine
 62
4
  6
CONTINUOUS
 10
8.5580163341
 20
7.1969565558
 11
8.5721808341
 21
7.187513558
  0
LINE
  5
2D3
100
AcDbEntity
  8
03__ASM_ALL_CURVES
100
AcDbLine
 62
4
  6
CONTINUOUS
 10
8.6713323341
 20
7.1969565558
 11
8.6854968341
 21
7.187513558
  0
LINE
  5
2D4
100
AcDbEntity
  8
03__ASM_ALL_CURVES
100
AcDbLine
 62
4
  6
CONTINUOUS
 10
9.0183625841
 20
7.1969565558
 11
9.0325270841
 21
7.187513558
  0
LINE
  5
2D5
100
AcDbEntity
  8
03__ASM_ALL_CURVES
100
AcDbLine
 62
4
  6
CONTINUOUS
 10
11.2883263363
 20
5.4717535558
 11
11.2788833318
 21
5.4788358058
  0
LINE
  5
2D6
100
AcDbEntity
  8
03__ASM_ALL_CURVES
100
AcDbLine
 62
4
  6
CONTINUOUS
 10
11.3355413352
 20
5.4930003058
 11
11.3544273341
 21
5.4788358058
  0
LINE
  5
2D7
100
AcDbEntity
  8
03__ASM_ALL_CURVES
100
AcDbLine
 62
4
  6
CONTINUOUS
 10
8.5721808341
 20
7.187513558
 11
8.5792630841
 21
7.1780705535
  0
LINE
  5
2D8
100
AcDbEntity
  8
03__ASM_ALL_CURVES
100
AcDbLine
 62
4
  6
CONTINUOUS
 10
8.6571678341
 20
7.093083556
 11
8.6500855841
 21
7.1025265563
  0
LINE
  5
2D9
100
AcDbEntity
  8
03__ASM_ALL_CURVES
100
AcDbLine
 62
4
  6
CONTINUOUS
 10
8.6854968341
 20
7.187513558
 11
8.6925790841
 21
7.1780705535
  0
LINE
  5
2DA
100
AcDbEntity
  8
03__ASM_ALL_CURVES
100
AcDbLine
 62
4
  6
CONTINUOUS
 10
8.8908820841
 20
7.1025265563
 11
8.9050465841
 21
7.0836405558
  0
LINE
  5
2DB
100
AcDbEntity
  8
03__ASM_ALL_CURVES
100
AcDbLine
 62
4
  6
CONTINUOUS
 10
8.3526310841
 20
7.1780705535
 11
8.3597133341
 21
7.159184558
  0
LINE
  5
2DC
100
AcDbEntity
  8
03__ASM_ALL_CURVES
100
AcDbLine
 62
4
  6
CONTINUOUS
 10
8.5367695841
 20
7.1402985558
 11
8.5296873341
 21
7.159184558
  0
LINE
  5
2DD
100
AcDbEntity
  8
03__ASM_ALL_CURVES
100
AcDbLine
 62
4
  6
CONTINUOUS
 10
8.5792630841
 20
7.1780705535
 11
8.5863453341
 21
7.159184558
  0
LINE
  5
2DE
100
AcDbEntity
  8
03__ASM_ALL_CURVES
100
AcDbLine
 62
4
  6
CONTINUOUS
 10
8.6500855841
 20
7.1025265563
 11
8.6430033341
 21
7.1214125569
  0
LINE
  5
2DF
100
AcDbEntity
  8
03__ASM_ALL_CURVES
100
AcDbLine
 62
4
  6
CONTINUOUS
 10
8.2393150841
 20
12.8656405558
 11
8.2393150841
 21
12.9789565558
  0
LINE
  5
2E0
100
AcDbEntity
  8
03__ASM_ALL_CURVES
100
AcDbLine
 62
4
  6
CONTINUOUS
 10
8.3030553341
 20
7.1214125569
 11
8.3030553341
 21
7.159184558
  0
LINE
  5
2E1
100
AcDbEntity
  8
03__ASM_ALL_CURVES
100
AcDbLine
 62
4
  6
CONTINUOUS
 10
8.3172198341
 20
12.7699915535
 11
8.3172198341
 21
12.7511055546
  0
LINE
  5
2E2
100
AcDbEntity
  8
03__ASM_ALL_CURVES
100
AcDbLine
 62
4
  6
CONTINUOUS
 10
8.3490899591
 20
12.8656405558
 11
8.3490899591
 21
12.8798050562
  0
LINE
  5
2E3
100
AcDbEntity
  8
03__ASM_ALL_CURVES
100
AcDbLine
 62
4
  6
CONTINUOUS
 10
8.3597133341
 20
11.5230705535
 11
8.3597133341
 21
11.5136275558
  0
LINE
  5
2E4
100
AcDbEntity
  8
03__ASM_ALL_CURVES
100
AcDbLine
 62
4
  6
CONTINUOUS
 10
8.3597133341
 20
7.159184558
 11
8.3597133341
 21
7.1214125569
  0
LINE
  5
2E5
100
AcDbEntity
  8
03__ASM_ALL_CURVES
100
AcDbLine
 62
4
  6
CONTINUOUS
 10
8.3667955841
 20
11.4664125569
 11
8.3667955841
 21
11.4569695558
  0
LINE
  5
2E6
100
AcDbEntity
  8
03__ASM_ALL_CURVES
100
AcDbLine
 62
4
  6
CONTINUOUS
 10
8.4092890841
 20
12.8939695558
 11
8.4092890841
 21
12.9034125569
  0
LINE
  5
2E7
100
AcDbEntity
  8
03__ASM_ALL_CURVES
100
AcDbLine
 62
4
  6
CONTINUOUS
 10
8.4163713341
 20
12.9506275558
 11
8.4163713341
 21
12.9600705535
  0
LINE
  5
2E8
100
AcDbEntity
  8
03__ASM_ALL_CURVES
100
AcDbLine
 62
4
  6
CONTINUOUS
 10
8.4447003341
 20
12.8172065558
 11
8.4447003341
 21
12.7038905558
  0
LINE
  5
2E9
100
AcDbEntity
  8
03__ASM_ALL_CURVES
100
AcDbLine
 62
4
  6
CONTINUOUS
 10
9.1387608341
 20
12.7511055546
 11
9.1316785841
 21
12.7227765563
  0
LINE
  5
2EA
100
AcDbEntity
  8
03__ASM_ALL_CURVES
100
AcDbLine
 62
4
  6
CONTINUOUS
 10
8.8908820841
 20
11.5230705535
 11
8.8837998341
 21
11.4947415535
  0
LINE
  5
2EB
100
AcDbEntity
  8
03__ASM_ALL_CURVES
100
AcDbLine
 62
4
  6
CONTINUOUS
 10
9.3441460841
 20
12.7983205535
 11
9.3370638341
 21
12.7699915535
  0
LINE
  5
2EC
100
AcDbEntity
  8
03__ASM_ALL_CURVES
100
AcDbLine
 62
4
  6
CONTINUOUS
 10
9.1387608341
 20
11.504184558
 11
9.1529253341
 21
11.5419565558
  0
LINE
  5
2ED
100
AcDbEntity
  8
03__ASM_ALL_CURVES
100
AcDbLine
 62
4
  6
CONTINUOUS
 10
9.3583105841
 20
7.0836405558
 11
9.3441460841
 21
7.0836405558
  0
LINE
  5
2EE
100
AcDbEntity
  8
03__ASM_ALL_CURVES
100
AcDbLine
 62
4
  6
CONTINUOUS
 10
9.2662413341
 20
7.0836405558
 11
9.2556179591
 21
7.0836405558
  0
LINE
  5
2EF
100
AcDbEntity
  8
03__ASM_ALL_CURVES
100
AcDbLine
 62
4
  6
CONTINUOUS
 10
8.4730293341
 20
7.0836405558
 11
8.4624059591
 21
7.0836405558
  0
LINE
  5
2F0
100
AcDbEntity
  8
03__ASM_ALL_CURVES
100
AcDbLine
 62
4
  6
CONTINUOUS
 10
8.9829513341
 20
7.0836405558
 11
9.0396093341
 21
7.0836405558
  0
LINE
  5
2F1
100
AcDbEntity
  8
03__ASM_ALL_CURVES
100
AcDbLine
 62
4
  6
CONTINUOUS
 10
9.0962673341
 20
7.0836405558
 11
9.1529253341
 21
7.0836405558
  0
LINE
  5
2F2
100
AcDbEntity
  8
0
100
AcDbLine
 62
7
  6
CONTINUOUS
 10
11.9460983341
 20
7.1402985558
 11
10.7060983341
 21
7.1402985558
  0
LINE
  5
2F3
100
AcDbEntity
  8
03__ASM_ALL_CURVES
100
AcDbLine
 62
4
  6
CONTINUOUS
 10
10.0877823341
 20
7.1402985558
 11
9.7478343341
 21
7.1402985558
  0
LINE
  5
2F4
100
AcDbEntity
  8
03__ASM_ALL_CURVES
100
AcDbLine
 62
4
  6
CONTINUOUS
 10
9.3441460841
 20
7.1497415535
 11
9.3583105841
 21
7.1497415535
  0
LINE
  5
2F5
100
AcDbEntity
  8
0
100
AcDbLine
 62
7
  6
CONTINUOUS
 10
12.0350983341
 20
7.1916827297
 11
12.034737333
 21
7.1916827297
  0
LINE
  5
2F6
100
AcDbEntity
  8
0
100
AcDbLine
 62
7
  6
CONTINUOUS
 10
11.7000093352
 20
7.1916827297
 11
11.6608263319
 21
7.1916827297
  0
LINE
  5
2F7
100
AcDbEntity
  8
0
100
AcDbLine
 62
7
  6
CONTINUOUS
 10
10.9913703363
 20
7.1916827297
 11
10.952187333
 21
7.1916827297
  0
LINE
  5
2F8
100
AcDbEntity
  8
0
100
AcDbLine
 62
7
  6
CONTINUOUS
 10
10.6174593352
 20
7.1916827297
 11
10.6170983341
 21
7.1916827297
  0
LINE
  5
2F9
100
AcDbEntity
  8
03__ASM_ALL_CURVES
100
AcDbLine
 62
4
  6
CONTINUOUS
 10
9.0041980841
 20
7.1969565558
 11
9.0183625841
 21
7.1969565558
  0
LINE
  5
2FA
100
AcDbEntity
  8
03__ASM_ALL_CURVES
100
AcDbLine
 62
4
  6
CONTINUOUS
 10
9.1175140841
 20
7.1969565558
 11
9.1316785841
 21
7.1969565558
  0
LINE
  5
2FB
100
AcDbEntity
  8
03__ASM_ALL_CURVES
100
AcDbLine
 62
4
  6
CONTINUOUS
 10
9.3441460841
 20
7.1969565558
 11
9.3583105841
 21
7.1969565558
  0
LINE
  5
2FC
100
AcDbEntity
  8
03__ASM_ALL_CURVES
100
AcDbLine
 62
4
  6
CONTINUOUS
 10
10.219984333
 20
7.2824155558
 11
10.1822123318
 21
7.2824155558
  0
LINE
  5
2FD
100
AcDbEntity
  8
03__ASM_ALL_CURVES
100
AcDbLine
 62
4
  6
CONTINUOUS
 10
12.4605413352
 20
6.4207750558
 11
12.4888703335
 21
6.4136928058
  0
LINE
  5
2FE
100
AcDbEntity
  8
03__ASM_ALL_CURVES
100
AcDbLine
 62
4
  6
CONTINUOUS
 10
12.4322123318
 20
5.9675110558
 11
12.3944403341
 21
5.9816755558
  0
LINE
  5
2FF
100
AcDbEntity
  8
03__ASM_ALL_CURVES
100
AcDbLine
 62
4
  6
CONTINUOUS
 10
9.4645443341
 20
7.1497415535
 11
9.4857910841
 21
7.1402985558
  0
LINE
  5
300
100
AcDbEntity
  8
03__ASM_ALL_CURVES
100
AcDbLine
 62
4
  6
CONTINUOUS
 10
11.2694403341
 20
6.2012253058
 11
11.3544273341
 21
6.1516495558
  0
LINE
  5
301
100
AcDbEntity
  8
03__ASM_ALL_CURVES
100
AcDbLine
 62
4
  6
CONTINUOUS
 10
9.1316785841
 20
7.1969565558
 11
9.1458430841
 21
7.187513558
  0
LINE
  5
302
100
AcDbEntity
  8
03__ASM_ALL_CURVES
100
AcDbLine
 62
4
  6
CONTINUOUS
 10
9.3441460841
 20
7.0836405558
 11
9.3299815841
 21
7.093083556
  0
LINE
  5
303
100
AcDbEntity
  8
03__ASM_ALL_CURVES
100
AcDbLine
 62
4
  6
CONTINUOUS
 10
9.3441460841
 20
7.1497415535
 11
9.3299815841
 21
7.159184558
  0
LINE
  5
304
100
AcDbEntity
  8
03__ASM_ALL_CURVES
100
AcDbLine
 62
4
  6
CONTINUOUS
 10
9.3583105841
 20
7.1497415535
 11
9.3724750841
 21
7.1402985558
  0
LINE
  5
305
100
AcDbEntity
  8
03__ASM_ALL_CURVES
100
AcDbLine
 62
4
  6
CONTINUOUS
 10
9.4645443341
 20
7.0836405558
 11
9.4503798341
 21
7.093083556
  0
LINE
  5
306
100
AcDbEntity
  8
03__ASM_ALL_CURVES
100
AcDbLine
 62
4
  6
CONTINUOUS
 10
9.3583105841
 20
7.1969565558
 11
9.3724750841
 21
7.187513558
  0
LINE
  5
307
100
AcDbEntity
  8
03__ASM_ALL_CURVES
100
AcDbLine
 62
4
  6
CONTINUOUS
 10
9.4645443341
 20
7.1969565558
 11
9.4787088341
 21
7.187513558
  0
LINE
  5
308
100
AcDbEntity
  8
03__ASM_ALL_CURVES
100
AcDbLine
 62
4
  6
CONTINUOUS
 10
11.3072123318
 20
5.5284115558
 11
11.3166553363
 21
5.5213293058
  0
LINE
  5
309
100
AcDbEntity
  8
03__ASM_ALL_CURVES
100
AcDbLine
 62
4
  6
CONTINUOUS
 10
11.2694403341
 20
5.7337968058
 11
11.2883263363
 21
5.7196323058
  0
LINE
  5
30A
100
AcDbEntity
  8
03__ASM_ALL_CURVES
100
AcDbLine
 62
4
  6
CONTINUOUS
 10
11.2883263363
 20
5.8117015558
 11
11.2788833318
 21
5.8187838058
  0
LINE
  5
30B
100
AcDbEntity
  8
03__ASM_ALL_CURVES
100
AcDbLine
 62
4
  6
CONTINUOUS
 10
11.3355413352
 20
5.8329483058
 11
11.3544273341
 21
5.8187838058
  0
LINE
  5
30C
100
AcDbEntity
  8
03__ASM_ALL_CURVES
100
AcDbLine
 62
4
  6
CONTINUOUS
 10
11.3072123318
 20
5.8683595558
 11
11.3166553363
 21
5.8612773058
  0
LINE
  5
30D
100
AcDbEntity
  8
03__ASM_ALL_CURVES
100
AcDbLine
 62
4
  6
CONTINUOUS
 10
11.2883263363
 20
5.9250175558
 11
11.2788833318
 21
5.9320998058
  0
LINE
  5
30E
100
AcDbEntity
  8
03__ASM_ALL_CURVES
100
AcDbLine
 62
4
  6
CONTINUOUS
 10
9.0325270841
 20
7.187513558
 11
9.0396093341
 21
7.1780705535
  0
LINE
  5
30F
100
AcDbEntity
  8
03__ASM_ALL_CURVES
100
AcDbLine
 62
4
  6
CONTINUOUS
 10
9.1458430841
 20
7.187513558
 11
9.1529253341
 21
7.1780705535
  0
LINE
  5
310
100
AcDbEntity
  8
03__ASM_ALL_CURVES
100
AcDbLine
 62
4
  6
CONTINUOUS
 10
9.2556179591
 20
7.0978050562
 11
9.2662413341
 21
7.0836405558
  0
LINE
  5
311
100
AcDbEntity
  8
03__ASM_ALL_CURVES
100
AcDbLine
 62
4
  6
CONTINUOUS
 10
9.3299815841
 20
7.093083556
 11
9.3158170841
 21
7.1119695558
  0
LINE
  5
312
100
AcDbEntity
  8
03__ASM_ALL_CURVES
100
AcDbLine
 62
4
  6
CONTINUOUS
 10
9.3299815841
 20
7.159184558
 11
9.3228993341
 21
7.1686275558
  0
LINE
  5
313
100
AcDbEntity
  8
03__ASM_ALL_CURVES
100
AcDbLine
 62
4
  6
CONTINUOUS
 10
8.6925790841
 20
7.1780705535
 11
8.6996613341
 21
7.159184558
  0
LINE
  5
314
100
AcDbEntity
  8
03__ASM_ALL_CURVES
100
AcDbLine
 62
4
  6
CONTINUOUS
 10
8.4624059591
 20
7.0836405558
 11
8.4624059591
 21
7.0978050562
  0
LINE
  5
315
100
AcDbEntity
  8
03__ASM_ALL_CURVES
100
AcDbLine
 62
4
  6
CONTINUOUS
 10
8.4624059591
 20
11.4286405558
 11
8.4624059591
 21
11.4428050562
  0
LINE
  5
316
100
AcDbEntity
  8
03__ASM_ALL_CURVES
100
AcDbLine
 62
4
  6
CONTINUOUS
 10
8.4730293341
 20
12.9600705535
 11
8.4730293341
 21
12.9506275558
  0
LINE
  5
317
100
AcDbEntity
  8
03__ASM_ALL_CURVES
100
AcDbLine
 62
4
  6
CONTINUOUS
 10
8.4801115841
 20
12.9034125569
 11
8.4801115841
 21
12.8939695558
  0
LINE
  5
318
100
AcDbEntity
  8
03__ASM_ALL_CURVES
100
AcDbLine
 62
4
  6
CONTINUOUS
 10
8.5792630841
 20
11.4286405558
 11
8.5792630841
 21
11.5419565558
  0
LINE
  5
319
100
AcDbEntity
  8
03__ASM_ALL_CURVES
100
AcDbLine
 62
4
  6
CONTINUOUS
 10
8.5863453341
 20
12.7983205535
 11
8.5863453341
 21
12.779434558
  0
LINE
  5
31A
100
AcDbEntity
  8
03__ASM_ALL_CURVES
100
AcDbLine
 62
4
  6
CONTINUOUS
 10
8.5863453341
 20
7.159184558
 11
8.5863453341
 21
7.1214125569
  0
LINE
  5
31B
100
AcDbEntity
  8
03__ASM_ALL_CURVES
100
AcDbLine
 62
4
  6
CONTINUOUS
 10
8.6430033341
 20
7.1214125569
 11
8.6430033341
 21
7.159184558
  0
LINE
  5
31C
100
AcDbEntity
  8
03__ASM_ALL_CURVES
100
AcDbLine
 62
4
  6
CONTINUOUS
 10
8.6996613341
 20
12.7983205535
 11
8.6996613341
 21
12.779434558
  0
LINE
  5
31D
100
AcDbEntity
  8
03__ASM_ALL_CURVES
100
AcDbLine
 62
4
  6
CONTINUOUS
 10
8.6996613341
 20
11.5230705535
 11
8.6996613341
 21
11.5136275558
  0
LINE
  5
31E
100
AcDbEntity
  8
03__ASM_ALL_CURVES
100
AcDbLine
 62
4
  6
CONTINUOUS
 10
8.6996613341
 20
7.159184558
 11
8.6996613341
 21
7.1214125569
  0
LINE
  5
31F
100
AcDbEntity
  8
03__ASM_ALL_CURVES
100
AcDbLine
 62
4
  6
CONTINUOUS
 10
8.7067435841
 20
11.4664125569
 11
8.7067435841
 21
11.4569695558
  0
LINE
  5
320
100
AcDbEntity
  8
03__ASM_ALL_CURVES
100
AcDbLine
 62
4
  6
CONTINUOUS
 10
8.7704838341
 20
12.9317415535
 11
8.7704838341
 21
12.9128555546
  0
LINE
  5
321
100
AcDbEntity
  8
03__ASM_ALL_CURVES
100
AcDbLine
 62
4
  6
CONTINUOUS
 10
9.0112803341
 20
12.7038905558
 11
9.0183625841
 21
12.7511055546
  0
LINE
  5
322
100
AcDbEntity
  8
03__ASM_ALL_CURVES
100
AcDbLine
 62
4
  6
CONTINUOUS
 10
9.1245963341
 20
11.4286405558
 11
9.1316785841
 21
11.4758555546
  0
LINE
  5
323
100
AcDbEntity
  8
03__ASM_ALL_CURVES
100
AcDbLine
 62
4
  6
CONTINUOUS
 10
9.1316785841
 20
11.4758555546
 11
9.1387608341
 21
11.504184558
  0
LINE
  5
324
100
AcDbEntity
  8
03__ASM_ALL_CURVES
100
AcDbLine
 62
4
  6
CONTINUOUS
 10
9.5920248341
 20
12.9128555546
 11
9.5849425841
 21
12.8845265563
  0
LINE
  5
325
100
AcDbEntity
  8
03__ASM_ALL_CURVES
100
AcDbLine
 62
4
  6
CONTINUOUS
 10
9.7053408341
 20
12.7511055546
 11
9.6982585841
 21
12.7227765563
  0
LINE
  5
326
100
AcDbEntity
  8
03__ASM_ALL_CURVES
100
AcDbLine
 62
4
  6
CONTINUOUS
 10
10.1822123318
 20
7.3390735558
 11
10.219984333
 21
7.3390735558
  0
LINE
  5
327
100
AcDbEntity
  8
03__ASM_ALL_CURVES
100
AcDbLine
 62
4
  6
CONTINUOUS
 10
12.469984333
 20
6.3287058058
 11
12.4888703335
 21
6.3216235558
  0
LINE
  5
328
100
AcDbEntity
  8
03__ASM_ALL_CURVES
100
AcDbLine
 62
4
  6
CONTINUOUS
 10
10.1822123318
 20
7.2824155558
 11
10.1633263363
 21
7.2894978058
  0
LINE
  5
329
100
AcDbEntity
  8
03__ASM_ALL_CURVES
100
AcDbLine
 62
4
  6
CONTINUOUS
 10
10.219984333
 20
7.3390735558
 11
10.2388703335
 21
7.3319913058
  0
LINE
  5
32A
100
AcDbEntity
  8
03__ASM_ALL_CURVES
100
AcDbLine
 62
4
  6
CONTINUOUS
 10
11.2694403341
 20
6.3145413058
 11
11.3544273341
 21
6.2649655558
  0
LINE
  5
32B
100
AcDbEntity
  8
03__ASM_ALL_CURVES
100
AcDbLine
 62
4
  6
CONTINUOUS
 10
11.344984333
 20
5.9179353058
 11
11.3260983341
 21
5.9320998058
  0
LINE
  5
32C
100
AcDbEntity
  8
03__ASM_ALL_CURVES
100
AcDbLine
 62
4
  6
CONTINUOUS
 10
12.4133263363
 20
5.1318055558
 11
12.4038833318
 21
5.1388878058
  0
LINE
  5
32D
100
AcDbEntity
  8
03__ASM_ALL_CURVES
100
AcDbLine
 62
4
  6
CONTINUOUS
 10
11.2977693341
 20
5.9816755558
 11
11.3072123318
 21
5.9745933058
  0
LINE
  5
32E
100
AcDbEntity
  8
03__ASM_ALL_CURVES
100
AcDbLine
 62
4
  6
CONTINUOUS
 10
12.4605413352
 20
5.1530523058
 11
12.4794273341
 21
5.1388878058
  0
LINE
  5
32F
100
AcDbEntity
  8
03__ASM_ALL_CURVES
100
AcDbLine
 62
4
  6
CONTINUOUS
 10
11.3544273341
 20
5.9887578058
 11
11.3733133338
 21
5.9745933058
  0
LINE
  5
330
100
AcDbEntity
  8
03__ASM_ALL_CURVES
100
AcDbLine
 62
4
  6
CONTINUOUS
 10
12.4322123318
 20
5.1884635558
 11
12.4416553363
 21
5.1813813058
  0
LINE
  5
331
100
AcDbEntity
  8
03__ASM_ALL_CURVES
100
AcDbLine
 62
4
  6
CONTINUOUS
 10
12.4133263363
 20
5.3584375558
 11
12.4038833318
 21
5.3655198058
  0
LINE
  5
332
100
AcDbEntity
  8
03__ASM_ALL_CURVES
100
AcDbLine
 62
4
  6
CONTINUOUS
 10
12.4605413352
 20
5.3796843058
 11
12.4794273341
 21
5.3655198058
  0
LINE
  5
333
100
AcDbEntity
  8
03__ASM_ALL_CURVES
100
AcDbLine
 62
4
  6
CONTINUOUS
 10
12.4322123318
 20
5.4150955558
 11
12.4416553363
 21
5.4080133058
  0
LINE
  5
334
100
AcDbEntity
  8
03__ASM_ALL_CURVES
100
AcDbLine
 62
4
  6
CONTINUOUS
 10
9.3724750841
 20
7.1402985558
 11
9.3866395841
 21
7.1214125569
  0
LINE
  5
335
100
AcDbEntity
  8
03__ASM_ALL_CURVES
100
AcDbLine
 62
4
  6
CONTINUOUS
 10
9.3724750841
 20
7.187513558
 11
9.3795573341
 21
7.1780705535
  0
LINE
  5
336
100
AcDbEntity
  8
03__ASM_ALL_CURVES
100
AcDbLine
 62
4
  6
CONTINUOUS
 10
9.4503798341
 20
7.093083556
 11
9.4432975841
 21
7.1025265563
  0
LINE
  5
337
100
AcDbEntity
  8
03__ASM_ALL_CURVES
100
AcDbLine
 62
4
  6
CONTINUOUS
 10
9.4787088341
 20
7.187513558
 11
9.4857910841
 21
7.1780705535
  0
LINE
  5
338
100
AcDbEntity
  8
03__ASM_ALL_CURVES
100
AcDbLine
 62
4
  6
CONTINUOUS
 10
9.5707780841
 20
7.1969565558
 11
9.5849425841
 21
7.1780705535
  0
LINE
  5
339
100
AcDbEntity
  8
03__ASM_ALL_CURVES
100
AcDbLine
 62
4
  6
CONTINUOUS
 10
8.8837998341
 20
7.1308555546
 11
8.8908820841
 21
7.1025265563
  0
LINE
  5
33A
100
AcDbEntity
  8
03__ASM_ALL_CURVES
100
AcDbLine
 62
4
  6
CONTINUOUS
 10
8.8023539591
 20
12.7038905558
 11
8.8023539591
 21
12.7180550562
  0
LINE
  5
33B
100
AcDbEntity
  8
03__ASM_ALL_CURVES
100
AcDbLine
 62
4
  6
CONTINUOUS
 10
8.8837998341
 20
11.4947415535
 11
8.8837998341
 21
11.4758555546
  0
LINE
  5
33C
100
AcDbEntity
  8
03__ASM_ALL_CURVES
100
AcDbLine
 62
4
  6
CONTINUOUS
 10
8.8837998341
 20
7.1497415535
 11
8.8837998341
 21
7.1308555546
  0
LINE
  5
33D
100
AcDbEntity
  8
03__ASM_ALL_CURVES
100
AcDbLine
 62
4
  6
CONTINUOUS
 10
8.8979643341
 20
12.9789565558
 11
8.8979643341
 21
12.8656405558
  0
LINE
  5
33E
100
AcDbEntity
  8
03__ASM_ALL_CURVES
100
AcDbLine
 62
4
  6
CONTINUOUS
 10
8.8979643341
 20
12.8172065558
 11
8.8979643341
 21
12.7038905558
  0
LINE
  5
33F
100
AcDbEntity
  8
03__ASM_ALL_CURVES
100
AcDbLine
 62
4
  6
CONTINUOUS
 10
8.9758690841
 20
11.4569695558
 11
8.9758690841
 21
11.4664125569
  0
LINE
  5
340
100
AcDbEntity
  8
03__ASM_ALL_CURVES
100
AcDbLine
 62
4
  6
CONTINUOUS
 10
8.9829513341
 20
11.5136275558
 11
8.9829513341
 21
11.5230705535
  0
LINE
  5
341
100
AcDbEntity
  8
03__ASM_ALL_CURVES
100
AcDbLine
 62
4
  6
CONTINUOUS
 10
9.0396093341
 20
12.9600705535
 11
9.0396093341
 21
12.941184558
  0
LINE
  5
342
100
AcDbEntity
  8
03__ASM_ALL_CURVES
100
AcDbLine
 62
4
  6
CONTINUOUS
 10
9.0396093341
 20
11.5230705535
 11
9.0396093341
 21
11.5136275558
  0
LINE
  5
343
100
AcDbEntity
  8
03__ASM_ALL_CURVES
100
AcDbLine
 62
4
  6
CONTINUOUS
 10
9.0396093341
 20
7.1780705535
 11
9.0396093341
 21
7.159184558
  0
LINE
  5
344
100
AcDbEntity
  8
03__ASM_ALL_CURVES
100
AcDbLine
 62
4
  6
CONTINUOUS
 10
9.0466915841
 20
11.4664125569
 11
9.0466915841
 21
11.4569695558
  0
LINE
  5
345
100
AcDbEntity
  8
03__ASM_ALL_CURVES
100
AcDbLine
 62
4
  6
CONTINUOUS
 10
9.4432975841
 20
11.4569695558
 11
9.4362153341
 21
11.4286405558
  0
LINE
  5
346
100
AcDbEntity
  8
03__ASM_ALL_CURVES
100
AcDbLine
 62
4
  6
CONTINUOUS
 10
9.5920248341
 20
11.4758555546
 11
9.5849425841
 21
11.4475265563
  0
LINE
  5
347
100
AcDbEntity
  8
03__ASM_ALL_CURVES
100
AcDbLine
 62
4
  6
CONTINUOUS
 10
8.3030553341
 20
7.159184558
 11
8.3101375841
 21
7.1780705535
  0
LINE
  5
348
100
AcDbEntity
  8
03__ASM_ALL_CURVES
100
AcDbLine
 62
4
  6
CONTINUOUS
 10
8.3597133341
 20
7.1214125569
 11
8.3526310841
 21
7.1025265563
  0
LINE
  5
349
100
AcDbEntity
  8
0
100
AcDbLine
 62
7
  6
CONTINUOUS
 10
10.6170983341
 20
7.8855953618
 11
12.0350983341
 21
7.8855953618
  0
LINE
  5
34A
100
AcDbEntity
  8
0
100
AcDbLine
 62
7
  6
CONTINUOUS
 10
10.5465983341
 20
7.9262985558
 11
12.1055983341
 21
7.9262985558
  0
LINE
  5
34B
100
AcDbEntity
  8
0
100
AcDbLine
 62
7
  6
CONTINUOUS
 10
10.6173690849
 20
7.1915264117
 11
10.7060983341
 21
7.1402985558
  0
LINE
  5
34C
100
AcDbEntity
  8
03__ASM_ALL_CURVES
100
AcDbLine
 62
4
  6
CONTINUOUS
 10
9.4645443341
 20
7.9906405558
 11
9.4503798341
 21
8.000083556
  0
LINE
  5
34D
100
AcDbEntity
  8
03__ASM_ALL_CURVES
100
AcDbLine
 62
4
  6
CONTINUOUS
 10
9.4645443341
 20
8.1039565558
 11
9.4787088341
 21
8.094513558
  0
LINE
  5
34E
100
AcDbEntity
  8
03__ASM_ALL_CURVES
100
AcDbLine
 62
4
  6
CONTINUOUS
 10
12.4888703335
 20
5.5284115558
 11
12.4983133338
 21
5.5213293058
  0
LINE
  5
34F
100
AcDbEntity
  8
03__ASM_ALL_CURVES
100
AcDbLine
 62
4
  6
CONTINUOUS
 10
10.1633263363
 20
7.2894978058
 11
10.1538833318
 21
7.2965800558
  0
LINE
  5
350
100
AcDbEntity
  8
03__ASM_ALL_CURVES
100
AcDbLine
 62
4
  6
CONTINUOUS
 10
11.3638703335
 20
6.4136928058
 11
11.3827563341
 21
6.3995283058
  0
LINE
  5
351
100
AcDbEntity
  8
03__ASM_ALL_CURVES
100
AcDbLine
 62
4
  6
CONTINUOUS
 10
10.2388703335
 20
7.3319913058
 11
10.2483133338
 21
7.3249090558
  0
LINE
  5
352
100
AcDbEntity
  8
03__ASM_ALL_CURVES
100
AcDbLine
 62
4
  6
CONTINUOUS
 10
12.3944403341
 20
5.7337968058
 11
12.4133263363
 21
5.7196323058
  0
LINE
  5
353
100
AcDbEntity
  8
03__ASM_ALL_CURVES
100
AcDbLine
 62
4
  6
CONTINUOUS
 10
9.4503798341
 20
8.000083556
 11
9.4432975841
 21
8.0095265563
  0
LINE
  5
354
100
AcDbEntity
  8
03__ASM_ALL_CURVES
100
AcDbLine
 62
4
  6
CONTINUOUS
 10
9.4432975841
 20
7.1025265563
 11
9.4362153341
 21
7.1214125569
  0
LINE
  5
355
100
AcDbEntity
  8
03__ASM_ALL_CURVES
100
AcDbLine
 62
4
  6
CONTINUOUS
 10
9.4857910841
 20
7.1402985558
 11
9.4928733341
 21
7.1214125569
  0
LINE
  5
356
100
AcDbEntity
  8
03__ASM_ALL_CURVES
100
AcDbLine
 62
4
  6
CONTINUOUS
 10
9.1387608341
 20
12.7699915535
 11
9.1387608341
 21
12.7511055546
  0
LINE
  5
357
100
AcDbEntity
  8
03__ASM_ALL_CURVES
100
AcDbLine
 62
4
  6
CONTINUOUS
 10
9.1529253341
 20
12.9600705535
 11
9.1529253341
 21
12.9506275558
  0
LINE
  5
358
100
AcDbEntity
  8
03__ASM_ALL_CURVES
100
AcDbLine
 62
4
  6
CONTINUOUS
 10
9.1529253341
 20
7.1780705535
 11
9.1529253341
 21
7.159184558
  0
LINE
  5
359
100
AcDbEntity
  8
03__ASM_ALL_CURVES
100
AcDbLine
 62
4
  6
CONTINUOUS
 10
9.1600075841
 20
12.9034125569
 11
9.1600075841
 21
12.8939695558
  0
LINE
  5
35A
100
AcDbEntity
  8
03__ASM_ALL_CURVES
100
AcDbLine
 62
4
  6
CONTINUOUS
 10
9.2556179591
 20
7.0836405558
 11
9.2556179591
 21
7.0978050562
  0
LINE
  5
35B
100
AcDbEntity
  8
03__ASM_ALL_CURVES
100
AcDbLine
 62
4
  6
CONTINUOUS
 10
9.2556179591
 20
11.4286405558
 11
9.2556179591
 21
11.4428050562
  0
LINE
  5
35C
100
AcDbEntity
  8
03__ASM_ALL_CURVES
100
AcDbLine
 62
4
  6
CONTINUOUS
 10
9.2556179591
 20
12.8656405558
 11
9.2556179591
 21
12.8798050562
  0
LINE
  5
35D
100
AcDbEntity
  8
03__ASM_ALL_CURVES
100
AcDbLine
 62
4
  6
CONTINUOUS
 10
9.3158170841
 20
7.1119695558
 11
9.3158170841
 21
7.1214125569
  0
LINE
  5
35E
100
AcDbEntity
  8
03__ASM_ALL_CURVES
100
AcDbLine
 62
4
  6
CONTINUOUS
 10
9.3228993341
 20
7.1686275558
 11
9.3228993341
 21
7.1780705535
  0
LINE
  5
35F
100
AcDbEntity
  8
03__ASM_ALL_CURVES
100
AcDbLine
 62
4
  6
CONTINUOUS
 10
9.3228993341
 20
12.9034125569
 11
9.3228993341
 21
12.941184558
  0
LINE
  5
360
100
AcDbEntity
  8
03__ASM_ALL_CURVES
100
AcDbLine
 62
4
  6
CONTINUOUS
 10
9.3370638341
 20
12.7699915535
 11
9.3370638341
 21
12.7511055546
  0
LINE
  5
361
100
AcDbEntity
  8
03__ASM_ALL_CURVES
100
AcDbLine
 62
4
  6
CONTINUOUS
 10
9.3512283341
 20
11.5419565558
 11
9.3512283341
 21
11.4286405558
  0
LINE
  5
362
100
AcDbEntity
  8
03__ASM_ALL_CURVES
100
AcDbLine
 62
4
  6
CONTINUOUS
 10
9.3795573341
 20
7.1780705535
 11
9.3795573341
 21
7.1686275558
  0
LINE
  5
363
100
AcDbEntity
  8
03__ASM_ALL_CURVES
100
AcDbLine
 62
4
  6
CONTINUOUS
 10
9.3866395841
 20
7.1214125569
 11
9.3866395841
 21
7.1119695558
  0
LINE
  5
364
100
AcDbEntity
  8
03__ASM_ALL_CURVES
100
AcDbLine
 62
4
  6
CONTINUOUS
 10
8.8908820841
 20
7.1780705535
 11
8.8837998341
 21
7.1497415535
  0
LINE
  5
365
100
AcDbEntity
  8
03__ASM_ALL_CURVES
100
AcDbLine
 62
4
  6
CONTINUOUS
 10
8.5296873341
 20
7.159184558
 11
8.5367695841
 21
7.1780705535
  0
LINE
  5
366
100
AcDbEntity
  8
03__ASM_ALL_CURVES
100
AcDbLine
 62
4
  6
CONTINUOUS
 10
8.5863453341
 20
7.159184558
 11
8.5792630841
 21
7.1402985558
  0
LINE
  5
367
100
AcDbEntity
  8
03__ASM_ALL_CURVES
100
AcDbLine
 62
4
  6
CONTINUOUS
 10
8.5863453341
 20
7.1214125569
 11
8.5792630841
 21
7.1025265563
  0
LINE
  5
368
100
AcDbEntity
  8
03__ASM_ALL_CURVES
100
AcDbLine
 62
4
  6
CONTINUOUS
 10
8.6430033341
 20
7.159184558
 11
8.6500855841
 21
7.1780705535
  0
LINE
  5
369
100
AcDbEntity
  8
03__ASM_ALL_CURVES
100
AcDbLine
 62
4
  6
CONTINUOUS
 10
8.6996613341
 20
7.1214125569
 11
8.6925790841
 21
7.1025265563
  0
LINE
  5
36A
100
AcDbEntity
  8
03__ASM_ALL_CURVES
100
AcDbLine
 62
4
  6
CONTINUOUS
 10
10.0877823341
 20
8.0472985558
 11
9.7478343341
 21
8.0472985558
  0
LINE
  5
36B
100
AcDbEntity
  8
0
100
AcDbLine
 62
7
  6
CONTINUOUS
 10
10.2010983341
 20
8.0472985558
 11
12.4510983341
 21
8.0472985558
  0
LINE
  5
36C
100
AcDbEntity
  8
03__ASM_ALL_CURVES
100
AcDbLine
 62
4
  6
CONTINUOUS
 10
12.4888703335
 20
5.8683595558
 11
12.4983133338
 21
5.8612773058
  0
LINE
  5
36D
100
AcDbEntity
  8
03__ASM_ALL_CURVES
100
AcDbLine
 62
4
  6
CONTINUOUS
 10
9.4787088341
 20
8.094513558
 11
9.4857910841
 21
8.0850705535
  0
LINE
  5
36E
100
AcDbEntity
  8
03__ASM_ALL_CURVES
100
AcDbLine
 62
4
  6
CONTINUOUS
 10
11.2788833318
 20
5.4788358058
 11
11.2694403341
 21
5.4930003058
  0
LINE
  5
36F
100
AcDbEntity
  8
03__ASM_ALL_CURVES
100
AcDbLine
 62
4
  6
CONTINUOUS
 10
11.3166553363
 20
5.5213293058
 11
11.3355413352
 21
5.4930003058
  0
LINE
  5
370
100
AcDbEntity
  8
03__ASM_ALL_CURVES
100
AcDbLine
 62
4
  6
CONTINUOUS
 10
10.1538833318
 20
7.2965800558
 11
10.1444403341
 21
7.3107445558
  0
LINE
  5
371
100
AcDbEntity
  8
03__ASM_ALL_CURVES
100
AcDbLine
 62
4
  6
CONTINUOUS
 10
10.2483133338
 20
7.3249090558
 11
10.2577563341
 21
7.3107445558
  0
LINE
  5
372
100
AcDbEntity
  8
03__ASM_ALL_CURVES
100
AcDbLine
 62
4
  6
CONTINUOUS
 10
11.2788833318
 20
5.8187838058
 11
11.2694403341
 21
5.8329483058
  0
LINE
  5
373
100
AcDbEntity
  8
03__ASM_ALL_CURVES
100
AcDbLine
 62
4
  6
CONTINUOUS
 10
9.4432975841
 20
8.0095265563
 11
9.4362153341
 21
8.0284125569
  0
LINE
  5
374
100
AcDbEntity
  8
03__ASM_ALL_CURVES
100
AcDbLine
 62
4
  6
CONTINUOUS
 10
9.4857910841
 20
8.0850705535
 11
9.4928733341
 21
8.066184558
  0
LINE
  5
375
100
AcDbEntity
  8
03__ASM_ALL_CURVES
100
AcDbLine
 62
4
  6
CONTINUOUS
 10
9.5849425841
 20
7.1780705535
 11
9.5920248341
 21
7.1497415535
  0
LINE
  5
376
100
AcDbEntity
  8
03__ASM_ALL_CURVES
100
AcDbLine
 62
4
  6
CONTINUOUS
 10
8.3172198341
 20
12.7511055546
 11
8.3243020841
 21
12.7227765563
  0
LINE
  5
377
100
AcDbEntity
  8
03__ASM_ALL_CURVES
100
AcDbLine
 62
4
  6
CONTINUOUS
 10
9.4362153341
 20
12.8172065558
 11
9.4362153341
 21
12.7038905558
  0
LINE
  5
378
100
AcDbEntity
  8
03__ASM_ALL_CURVES
100
AcDbLine
 62
4
  6
CONTINUOUS
 10
9.4362153341
 20
7.1214125569
 11
9.4362153341
 21
7.159184558
  0
LINE
  5
379
100
AcDbEntity
  8
03__ASM_ALL_CURVES
100
AcDbLine
 62
4
  6
CONTINUOUS
 10
9.4362153341
 20
8.0284125569
 11
9.4362153341
 21
8.066184558
  0
LINE
  5
37A
100
AcDbEntity
  8
03__ASM_ALL_CURVES
100
AcDbLine
 62
4
  6
CONTINUOUS
 10
9.4928733341
 20
12.941184558
 11
9.4928733341
 21
12.9034125569
  0
LINE
  5
37B
100
AcDbEntity
  8
03__ASM_ALL_CURVES
100
AcDbLine
 62
4
  6
CONTINUOUS
 10
9.4928733341
 20
11.5230705535
 11
9.4928733341
 21
11.504184558
  0
LINE
  5
37C
100
AcDbEntity
  8
03__ASM_ALL_CURVES
100
AcDbLine
 62
4
  6
CONTINUOUS
 10
9.4928733341
 20
8.066184558
 11
9.4928733341
 21
8.0284125569
  0
LINE
  5
37D
100
AcDbEntity
  8
03__ASM_ALL_CURVES
100
AcDbLine
 62
4
  6
CONTINUOUS
 10
9.5495313341
 20
12.7983205535
 11
9.5495313341
 21
12.7888775558
  0
LINE
  5
37E
100
AcDbEntity
  8
03__ASM_ALL_CURVES
100
AcDbLine
 62
4
  6
CONTINUOUS
 10
9.5920248341
 20
12.9317415535
 11
9.5920248341
 21
12.9128555546
  0
LINE
  5
37F
100
AcDbEntity
  8
03__ASM_ALL_CURVES
100
AcDbLine
 62
4
  6
CONTINUOUS
 10
9.5920248341
 20
11.4947415535
 11
9.5920248341
 21
11.4758555546
  0
LINE
  5
380
100
AcDbEntity
  8
03__ASM_ALL_CURVES
100
AcDbLine
 62
4
  6
CONTINUOUS
 10
9.5920248341
 20
7.1497415535
 11
9.5920248341
 21
7.1308555546
  0
LINE
  5
381
100
AcDbEntity
  8
03__ASM_ALL_CURVES
100
AcDbLine
 62
4
  6
CONTINUOUS
 10
9.6061893341
 20
12.7416625569
 11
9.6061893341
 21
12.7227765563
  0
LINE
  5
382
100
AcDbEntity
  8
03__ASM_ALL_CURVES
100
AcDbLine
 62
4
  6
CONTINUOUS
 10
9.7053408341
 20
12.7699915535
 11
9.7053408341
 21
12.7511055546
  0
LINE
  5
383
100
AcDbEntity
  8
03__ASM_ALL_CURVES
100
AcDbLine
 62
4
  6
CONTINUOUS
 10
8.9900335841
 20
7.1119695558
 11
8.9829513341
 21
7.0836405558
  0
LINE
  5
384
100
AcDbEntity
  8
03__ASM_ALL_CURVES
100
AcDbLine
 62
4
  6
CONTINUOUS
 10
9.1033495841
 20
7.1119695558
 11
9.0962673341
 21
7.0836405558
  0
LINE
  5
385
100
AcDbEntity
  8
03__ASM_ALL_CURVES
100
AcDbLine
 62
4
  6
CONTINUOUS
 10
8.3101375841
 20
7.1780705535
 11
8.3172198341
 21
7.187513558
  0
LINE
  5
386
100
AcDbEntity
  8
0
100
AcDbLine
 62
7
  6
CONTINUOUS
 10
10.5465983341
 20
7.9262985558
 11
10.6170983341
 21
7.8855953618
  0
LINE
  5
387
100
AcDbEntity
  8
03__ASM_ALL_CURVES
100
AcDbLine
 62
4
  6
CONTINUOUS
 10
12.4888703335
 20
6.3216235558
 11
12.4983133338
 21
6.3145413058
  0
LINE
  5
388
100
AcDbEntity
  8
03__ASM_ALL_CURVES
100
AcDbLine
 62
4
  6
CONTINUOUS
 10
12.4888703335
 20
6.4136928058
 11
12.5077563341
 21
6.3995283058
  0
LINE
  5
389
100
AcDbEntity
  8
03__ASM_ALL_CURVES
100
AcDbLine
 62
4
  6
CONTINUOUS
 10
11.3166553363
 20
5.8612773058
 11
11.3355413352
 21
5.8329483058
  0
LINE
  5
38A
100
AcDbEntity
  8
03__ASM_ALL_CURVES
100
AcDbLine
 62
4
  6
CONTINUOUS
 10
11.2788833318
 20
5.9320998058
 11
11.2694403341
 21
5.9462643058
  0
LINE
  5
38B
100
AcDbEntity
  8
03__ASM_ALL_CURVES
100
AcDbLine
 62
4
  6
CONTINUOUS
 10
11.3260983341
 20
5.9320998058
 11
11.3166553363
 21
5.9462643058
  0
LINE
  5
38C
100
AcDbEntity
  8
03__ASM_ALL_CURVES
100
AcDbLine
 62
4
  6
CONTINUOUS
 10
11.3072123318
 20
5.9745933058
 11
11.3166553363
 21
5.9604288058
  0
LINE
  5
38D
100
AcDbEntity
  8
03__ASM_ALL_CURVES
100
AcDbLine
 62
4
  6
CONTINUOUS
 10
11.3733133338
 20
5.9745933058
 11
11.3827563341
 21
5.9604288058
  0
LINE
  5
38E
100
AcDbEntity
  8
03__ASM_ALL_CURVES
100
AcDbLine
 62
4
  6
CONTINUOUS
 10
8.8837998341
 20
11.4758555546
 11
8.8908820841
 21
11.4475265563
  0
LINE
  5
38F
100
AcDbEntity
  8
03__ASM_ALL_CURVES
100
AcDbLine
 62
4
  6
CONTINUOUS
 10
9.5920248341
 20
7.1308555546
 11
9.5849425841
 21
7.1025265563
  0
LINE
  5
390
100
AcDbEntity
  8
03__ASM_ALL_CURVES
100
AcDbLine
 62
4
  6
CONTINUOUS
 10
9.4362153341
 20
8.066184558
 11
9.4432975841
 21
8.0850705535
  0
LINE
  5
391
100
AcDbEntity
  8
03__ASM_ALL_CURVES
100
AcDbLine
 62
4
  6
CONTINUOUS
 10
9.4928733341
 20
8.0284125569
 11
9.4857910841
 21
8.0095265563
  0
LINE
  5
392
100
AcDbEntity
  8
03__ASM_ALL_CURVES
100
AcDbLine
 62
4
  6
CONTINUOUS
 10
8.3526310841
 20
7.1025265563
 11
8.3455488341
 21
7.093083556
  0
LINE
  5
393
100
AcDbEntity
  8
03__ASM_ALL_CURVES
100
AcDbLine
 62
4
  6
CONTINUOUS
 10
8.5367695841
 20
7.1780705535
 11
8.5438518341
 21
7.187513558
  0
LINE
  5
394
100
AcDbEntity
  8
03__ASM_ALL_CURVES
100
AcDbLine
 62
4
  6
CONTINUOUS
 10
8.5792630841
 20
7.1025265563
 11
8.5721808341
 21
7.093083556
  0
LINE
  5
395
100
AcDbEntity
  8
03__ASM_ALL_CURVES
100
AcDbLine
 62
4
  6
CONTINUOUS
 10
8.6500855841
 20
7.1780705535
 11
8.6571678341
 21
7.187513558
  0
LINE
  5
396
100
AcDbEntity
  8
03__ASM_ALL_CURVES
100
AcDbLine
 62
4
  6
CONTINUOUS
 10
8.6925790841
 20
7.1025265563
 11
8.6854968341
 21
7.093083556
  0
LINE
  5
397
100
AcDbEntity
  8
03__ASM_ALL_CURVES
100
AcDbLine
 62
4
  6
CONTINUOUS
 10
9.4432975841
 20
8.0850705535
 11
9.4503798341
 21
8.094513558
  0
LINE
  5
398
100
AcDbEntity
  8
03__ASM_ALL_CURVES
100
AcDbLine
 62
4
  6
CONTINUOUS
 10
12.4038833318
 20
5.1388878058
 11
12.3944403341
 21
5.1530523058
  0
LINE
  5
399
100
AcDbEntity
  8
03__ASM_ALL_CURVES
100
AcDbLine
 62
4
  6
CONTINUOUS
 10
12.4416553363
 20
5.1813813058
 11
12.4605413352
 21
5.1530523058
  0
LINE
  5
39A
100
AcDbEntity
  8
03__ASM_ALL_CURVES
100
AcDbLine
 62
4
  6
CONTINUOUS
 10
8.7704838341
 20
12.9128555546
 11
8.7775660841
 21
12.8845265563
  0
LINE
  5
39B
100
AcDbEntity
  8
0
100
AcDbLine
 62
7
  6
CONTINUOUS
 10
10.2010983341
 20
12.9222985558
 11
10.2010983341
 21
8.0472985558
  0
LINE
  5
39C
100
AcDbEntity
  8
03__ASM_ALL_CURVES
100
AcDbLine
 62
4
  6
CONTINUOUS
 10
10.2010983341
 20
7.9339825558
 11
10.2010983341
 21
7.5940345558
  0
LINE
  5
39D
100
AcDbEntity
  8
03__ASM_ALL_CURVES
100
AcDbLine
 62
4
  6
CONTINUOUS
 10
9.4362153341
 20
7.159184558
 11
9.4432975841
 21
7.1780705535
  0
LINE
  5
39E
100
AcDbEntity
  8
03__ASM_ALL_CURVES
100
AcDbLine
 62
4
  6
CONTINUOUS
 10
9.4362153341
 20
7.1214125569
 11
9.4432975841
 21
7.1402985558
  0
LINE
  5
39F
100
AcDbEntity
  8
03__ASM_ALL_CURVES
100
AcDbLine
 62
4
  6
CONTINUOUS
 10
9.4928733341
 20
7.1214125569
 11
9.4857910841
 21
7.1025265563
  0
LINE
  5
3A0
100
AcDbEntity
  8
03__ASM_ALL_CURVES
100
AcDbLine
 62
4
  6
CONTINUOUS
 10
9.4857910841
 20
8.0095265563
 11
9.4787088341
 21
8.000083556
  0
LINE
  5
3A1
100
AcDbEntity
  8
03__ASM_ALL_CURVES
100
AcDbLine
 62
4
  6
CONTINUOUS
 10
8.9050465841
 20
7.1969565558
 11
8.8908820841
 21
7.1780705535
  0
LINE
  5
3A2
100
AcDbEntity
  8
03__ASM_ALL_CURVES
100
AcDbLine
 62
4
  6
CONTINUOUS
 10
8.9829513341
 20
7.1780705535
 11
8.9900335841
 21
7.187513558
  0
LINE
  5
3A3
100
AcDbEntity
  8
03__ASM_ALL_CURVES
100
AcDbLine
 62
4
  6
CONTINUOUS
 10
9.0041980841
 20
7.1308555546
 11
8.9900335841
 21
7.1119695558
  0
LINE
  5
3A4
100
AcDbEntity
  8
03__ASM_ALL_CURVES
100
AcDbLine
 62
4
  6
CONTINUOUS
 10
9.0396093341
 20
7.159184558
 11
9.0325270841
 21
7.1497415535
  0
LINE
  5
3A5
100
AcDbEntity
  8
03__ASM_ALL_CURVES
100
AcDbLine
 62
4
  6
CONTINUOUS
 10
9.0962673341
 20
7.1780705535
 11
9.1033495841
 21
7.187513558
  0
LINE
  5
3A6
100
AcDbEntity
  8
03__ASM_ALL_CURVES
100
AcDbLine
 62
4
  6
CONTINUOUS
 10
9.1175140841
 20
7.1308555546
 11
9.1033495841
 21
7.1119695558
  0
LINE
  5
3A7
100
AcDbEntity
  8
03__ASM_ALL_CURVES
100
AcDbLine
 62
4
  6
CONTINUOUS
 10
9.1529253341
 20
7.159184558
 11
9.1458430841
 21
7.1497415535
  0
LINE
  5
3A8
100
AcDbEntity
  8
03__ASM_ALL_CURVES
100
AcDbLine
 62
4
  6
CONTINUOUS
 10
9.4503798341
 20
8.094513558
 11
9.4645443341
 21
8.1039565558
  0
LINE
  5
3A9
100
AcDbEntity
  8
03__ASM_ALL_CURVES
100
AcDbLine
 62
4
  6
CONTINUOUS
 10
8.3101375841
 20
11.438083556
 11
8.3030553341
 21
11.4475265563
  0
LINE
  5
3AA
100
AcDbEntity
  8
03__ASM_ALL_CURVES
100
AcDbLine
 62
4
  6
CONTINUOUS
 10
8.3526310841
 20
11.4852985558
 11
8.3667955841
 21
11.4664125569
  0
LINE
  5
3AB
100
AcDbEntity
  8
03__ASM_ALL_CURVES
100
AcDbLine
 62
4
  6
CONTINUOUS
 10
8.3526310841
 20
11.532513558
 11
8.3597133341
 21
11.5230705535
  0
LINE
  5
3AC
100
AcDbEntity
  8
03__ASM_ALL_CURVES
100
AcDbLine
 62
4
  6
CONTINUOUS
 10
8.4624059591
 20
11.4428050562
 11
8.4730293341
 21
11.4286405558
  0
LINE
  5
3AD
100
AcDbEntity
  8
03__ASM_ALL_CURVES
100
AcDbLine
 62
4
  6
CONTINUOUS
 10
12.4038833318
 20
5.3655198058
 11
12.3944403341
 21
5.3796843058
  0
LINE
  5
3AE
100
AcDbEntity
  8
03__ASM_ALL_CURVES
100
AcDbLine
 62
4
  6
CONTINUOUS
 10
12.4416553363
 20
5.4080133058
 11
12.4605413352
 21
5.3796843058
  0
LINE
  5
3AF
100
AcDbEntity
  8
03__ASM_ALL_CURVES
100
AcDbLine
 62
4
  6
CONTINUOUS
 10
12.4416553363
 20
5.4788358058
 11
12.4322123318
 21
5.4930003058
  0
LINE
  5
3B0
100
AcDbEntity
  8
03__ASM_ALL_CURVES
100
AcDbLine
 62
4
  6
CONTINUOUS
 10
12.4983133338
 20
5.5213293058
 11
12.5077563341
 21
5.5071648058
  0
LINE
  5
3B1
100
AcDbEntity
  8
03__ASM_ALL_CURVES
100
AcDbLine
 62
4
  6
CONTINUOUS
 10
12.4416553363
 20
5.8187838058
 11
12.4322123318
 21
5.8329483058
  0
LINE
  5
3B2
100
AcDbEntity
  8
03__ASM_ALL_CURVES
100
AcDbLine
 62
4
  6
CONTINUOUS
 10
9.1316785841
 20
12.7983205535
 11
9.1387608341
 21
12.7699915535
  0
LINE
  5
3B3
100
AcDbEntity
  8
03__ASM_ALL_CURVES
100
AcDbLine
 62
4
  6
CONTINUOUS
 10
9.5849425841
 20
11.5230705535
 11
9.5920248341
 21
11.4947415535
  0
LINE
  5
3B4
100
AcDbEntity
  8
03__ASM_ALL_CURVES
100
AcDbLine
 62
4
  6
CONTINUOUS
 10
9.3370638341
 20
12.7511055546
 11
9.3441460841
 21
12.7227765563
  0
LINE
  5
3B5
100
AcDbEntity
  8
0
100
AcDbLine
 62
7
  6
CONTINUOUS
 10
10.5465983341
 20
8.0472985558
 11
10.5465983341
 21
7.9262985558
  0
LINE
  5
3B6
100
AcDbEntity
  8
0
100
AcDbLine
 62
7
  6
CONTINUOUS
 10
10.6170983341
 20
7.8855953618
 11
10.6170983341
 21
7.1916827297
  0
LINE
  5
3B7
100
AcDbEntity
  8
0
100
AcDbLine
 62
7
  6
CONTINUOUS
 10
10.6174593352
 20
7.8855953618
 11
10.6174593352
 21
7.1916827297
  0
LINE
  5
3B8
100
AcDbEntity
  8
03__ASM_ALL_CURVES
100
AcDbLine
 62
4
  6
CONTINUOUS
 10
9.3228993341
 20
7.1780705535
 11
9.3299815841
 21
7.187513558
  0
LINE
  5
3B9
100
AcDbEntity
  8
03__ASM_ALL_CURVES
100
AcDbLine
 62
4
  6
CONTINUOUS
 10
9.3158170841
 20
7.1214125569
 11
9.3299815841
 21
7.1402985558
  0
LINE
  5
3BA
100
AcDbEntity
  8
03__ASM_ALL_CURVES
100
AcDbLine
 62
4
  6
CONTINUOUS
 10
9.3795573341
 20
7.1686275558
 11
9.3724750841
 21
7.159184558
  0
LINE
  5
3BB
100
AcDbEntity
  8
03__ASM_ALL_CURVES
100
AcDbLine
 62
4
  6
CONTINUOUS
 10
9.3866395841
 20
7.1119695558
 11
9.3724750841
 21
7.093083556
  0
LINE
  5
3BC
100
AcDbEntity
  8
03__ASM_ALL_CURVES
100
AcDbLine
 62
4
  6
CONTINUOUS
 10
9.4432975841
 20
7.1780705535
 11
9.4503798341
 21
7.187513558
  0
LINE
  5
3BD
100
AcDbEntity
  8
03__ASM_ALL_CURVES
100
AcDbLine
 62
4
  6
CONTINUOUS
 10
9.4857910841
 20
7.1025265563
 11
9.4787088341
 21
7.093083556
  0
LINE
  5
3BE
100
AcDbEntity
  8
03__ASM_ALL_CURVES
100
AcDbLine
 62
4
  6
CONTINUOUS
 10
9.4787088341
 20
8.000083556
 11
9.4645443341
 21
7.9906405558
  0
LINE
  5
3BF
100
AcDbEntity
  8
03__ASM_ALL_CURVES
100
AcDbLine
 62
4
  6
CONTINUOUS
 10
8.3172198341
 20
7.187513558
 11
8.3313843341
 21
7.1969565558
  0
LINE
  5
3C0
100
AcDbEntity
  8
03__ASM_ALL_CURVES
100
AcDbLine
 62
4
  6
CONTINUOUS
 10
8.3455488341
 20
7.093083556
 11
8.3313843341
 21
7.0836405558
  0
LINE
  5
3C1
100
AcDbEntity
  8
03__ASM_ALL_CURVES
100
AcDbLine
 62
4
  6
CONTINUOUS
 10
8.5438518341
 20
7.187513558
 11
8.5580163341
 21
7.1969565558
  0
LINE
  5
3C2
100
AcDbEntity
  8
03__ASM_ALL_CURVES
100
AcDbLine
 62
4
  6
CONTINUOUS
 10
8.6571678341
 20
7.187513558
 11
8.6713323341
 21
7.1969565558
  0
LINE
  5
3C3
100
AcDbEntity
  8
03__ASM_ALL_CURVES
100
AcDbLine
 62
4
  6
CONTINUOUS
 10
8.5721808341
 20
7.093083556
 11
8.5580163341
 21
7.0836405558
  0
LINE
  5
3C4
100
AcDbEntity
  8
03__ASM_ALL_CURVES
100
AcDbLine
 62
4
  6
CONTINUOUS
 10
8.6500855841
 20
11.438083556
 11
8.6430033341
 21
11.4475265563
  0
LINE
  5
3C5
100
AcDbEntity
  8
03__ASM_ALL_CURVES
100
AcDbLine
 62
4
  6
CONTINUOUS
 10
8.6925790841
 20
11.4852985558
 11
8.7067435841
 21
11.4664125569
  0
LINE
  5
3C6
100
AcDbEntity
  8
03__ASM_ALL_CURVES
100
AcDbLine
 62
4
  6
CONTINUOUS
 10
8.6925790841
 20
11.532513558
 11
8.6996613341
 21
11.5230705535
  0
LINE
  5
3C7
100
AcDbEntity
  8
03__ASM_ALL_CURVES
100
AcDbLine
 62
4
  6
CONTINUOUS
 10
7.8958259591
 20
12.7180550562
 11
7.9064493341
 21
12.7038905558
  0
LINE
  5
3C8
100
AcDbEntity
  8
03__ASM_ALL_CURVES
100
AcDbLine
 62
4
  6
CONTINUOUS
 10
8.8908820841
 20
11.4475265563
 11
8.9050465841
 21
11.4286405558
  0
LINE
  5
3C9
100
AcDbEntity
  8
03__ASM_ALL_CURVES
100
AcDbLine
 62
4
  6
CONTINUOUS
 10
7.9701895841
 20
12.713333556
 11
7.9560250841
 21
12.7322195558
  0
LINE
  5
3CA
100
AcDbEntity
  8
03__ASM_ALL_CURVES
100
AcDbLine
 62
4
  6
CONTINUOUS
 10
12.4983133338
 20
5.8612773058
 11
12.5077563341
 21
5.8471128058
  0
LINE
  5
3CB
100
AcDbEntity
  8
03__ASM_ALL_CURVES
100
AcDbLine
 62
4
  6
CONTINUOUS
 10
12.4416553363
 20
6.2720478058
 11
12.4322123318
 21
6.2862123058
  0
LINE
  5
3CC
100
AcDbEntity
  8
03__ASM_ALL_CURVES
100
AcDbLine
 62
4
  6
CONTINUOUS
 10
12.4983133338
 20
6.3145413058
 11
12.5077563341
 21
6.3003768058
  0
LINE
  5
3CD
100
AcDbEntity
  8
03__ASM_ALL_CURVES
100
AcDbLine
 62
4
  6
CONTINUOUS
 10
9.5849425841
 20
12.9600705535
 11
9.5920248341
 21
12.9317415535
  0
LINE
  5
3CE
100
AcDbEntity
  8
03__ASM_ALL_CURVES
100
AcDbLine
 62
4
  6
CONTINUOUS
 10
9.6982585841
 20
12.7983205535
 11
9.7053408341
 21
12.7699915535
  0
LINE
  5
3CF
100
AcDbEntity
  8
0
100
AcDbLine
 62
7
  6
CONTINUOUS
 10
10.952187333
 20
7.8855953618
 11
10.952187333
 21
7.1916827297
  0
LINE
  5
3D0
100
AcDbEntity
  8
0
100
AcDbLine
 62
7
  6
CONTINUOUS
 10
10.9913703363
 20
7.8855953618
 11
10.9913703363
 21
7.1916827297
  0
LINE
  5
3D1
100
AcDbEntity
  8
03__ASM_ALL_CURVES
100
AcDbLine
 62
4
  6
CONTINUOUS
 10
10.1444403341
 20
7.3107445558
 11
10.1538833318
 21
7.3249090558
  0
LINE
  5
3D2
100
AcDbEntity
  8
03__ASM_ALL_CURVES
100
AcDbLine
 62
4
  6
CONTINUOUS
 10
9.5849425841
 20
7.1025265563
 11
9.5707780841
 21
7.0836405558
  0
LINE
  5
3D3
100
AcDbEntity
  8
03__ASM_ALL_CURVES
100
AcDbLine
 62
4
  6
CONTINUOUS
 10
8.6854968341
 20
7.093083556
 11
8.6713323341
 21
7.0836405558
  0
LINE
  5
3D4
100
AcDbEntity
  8
03__ASM_ALL_CURVES
100
AcDbLine
 62
4
  6
CONTINUOUS
 10
8.9900335841
 20
7.187513558
 11
9.0041980841
 21
7.1969565558
  0
LINE
  5
3D5
100
AcDbEntity
  8
03__ASM_ALL_CURVES
100
AcDbLine
 62
4
  6
CONTINUOUS
 10
9.0325270841
 20
7.1497415535
 11
9.0041980841
 21
7.1308555546
  0
LINE
  5
3D6
100
AcDbEntity
  8
03__ASM_ALL_CURVES
100
AcDbLine
 62
4
  6
CONTINUOUS
 10
9.1033495841
 20
7.187513558
 11
9.1175140841
 21
7.1969565558
  0
LINE
  5
3D7
100
AcDbEntity
  8
03__ASM_ALL_CURVES
100
AcDbLine
 62
4
  6
CONTINUOUS
 10
9.1458430841
 20
7.1497415535
 11
9.1175140841
 21
7.1308555546
  0
LINE
  5
3D8
100
AcDbEntity
  8
03__ASM_ALL_CURVES
100
AcDbLine
 62
4
  6
CONTINUOUS
 10
9.3299815841
 20
7.187513558
 11
9.3441460841
 21
7.1969565558
  0
LINE
  5
3D9
100
AcDbEntity
  8
03__ASM_ALL_CURVES
100
AcDbLine
 62
4
  6
CONTINUOUS
 10
8.5792630841
 20
7.1402985558
 11
8.5580163341
 21
7.1308555546
  0
LINE
  5
3DA
100
AcDbEntity
  8
03__ASM_ALL_CURVES
100
AcDbLine
 62
4
  6
CONTINUOUS
 10
7.9701895841
 20
12.779434558
 11
7.9631073341
 21
12.7888775558
  0
LINE
  5
3DB
100
AcDbEntity
  8
03__ASM_ALL_CURVES
100
AcDbLine
 62
4
  6
CONTINUOUS
 10
8.9900335841
 20
11.438083556
 11
8.9758690841
 21
11.4569695558
  0
LINE
  5
3DC
100
AcDbEntity
  8
03__ASM_ALL_CURVES
100
AcDbLine
 62
4
  6
CONTINUOUS
 10
8.0126830841
 20
12.7605485558
 11
8.0268475841
 21
12.7416625569
  0
LINE
  5
3DD
100
AcDbEntity
  8
03__ASM_ALL_CURVES
100
AcDbLine
 62
4
  6
CONTINUOUS
 10
8.9900335841
 20
11.504184558
 11
8.9829513341
 21
11.5136275558
  0
LINE
  5
3DE
100
AcDbEntity
  8
03__ASM_ALL_CURVES
100
AcDbLine
 62
4
  6
CONTINUOUS
 10
8.0126830841
 20
12.807763558
 11
8.0197653341
 21
12.7983205535
  0
LINE
  5
3DF
100
AcDbEntity
  8
03__ASM_ALL_CURVES
100
AcDbLine
 62
4
  6
CONTINUOUS
 10
9.0325270841
 20
11.4852985558
 11
9.0466915841
 21
11.4664125569
  0
LINE
  5
3E0
100
AcDbEntity
  8
03__ASM_ALL_CURVES
100
AcDbLine
 62
4
  6
CONTINUOUS
 10
9.0325270841
 20
11.532513558
 11
9.0396093341
 21
11.5230705535
  0
LINE
  5
3E1
100
AcDbEntity
  8
03__ASM_ALL_CURVES
100
AcDbLine
 62
4
  6
CONTINUOUS
 10
9.2556179591
 20
11.4428050562
 11
9.2662413341
 21
11.4286405558
  0
LINE
  5
3E2
100
AcDbEntity
  8
03__ASM_ALL_CURVES
100
AcDbLine
 62
4
  6
CONTINUOUS
 10
8.3243020841
 20
12.7227765563
 11
8.3384665841
 21
12.7038905558
  0
LINE
  5
3E3
100
AcDbEntity
  8
03__ASM_ALL_CURVES
100
AcDbLine
 62
4
  6
CONTINUOUS
 10
9.3299815841
 20
12.8845265563
 11
9.3228993341
 21
12.9034125569
  0
LINE
  5
3E4
100
AcDbEntity
  8
03__ASM_ALL_CURVES
100
AcDbLine
 62
4
  6
CONTINUOUS
 10
9.3724750841
 20
12.9222985558
 11
9.3795573341
 21
12.9034125569
  0
LINE
  5
3E5
100
AcDbEntity
  8
03__ASM_ALL_CURVES
100
AcDbLine
 62
4
  6
CONTINUOUS
 10
9.4432975841
 20
12.9222985558
 11
9.4362153341
 21
12.941184558
  0
LINE
  5
3E6
100
AcDbEntity
  8
03__ASM_ALL_CURVES
100
AcDbLine
 62
4
  6
CONTINUOUS
 10
9.4857910841
 20
12.9600705535
 11
9.4928733341
 21
12.941184558
  0
LINE
  5
3E7
100
AcDbEntity
  8
03__ASM_ALL_CURVES
100
AcDbLine
 62
4
  6
CONTINUOUS
 10
11.2694403341
 20
5.4930003058
 11
11.2694403341
 21
5.5071648058
  0
LINE
  5
3E8
100
AcDbEntity
  8
03__ASM_ALL_CURVES
100
AcDbLine
 62
4
  6
CONTINUOUS
 10
11.2694403341
 20
5.8329483058
 11
11.2694403341
 21
5.8471128058
  0
LINE
  5
3E9
100
AcDbEntity
  8
03__ASM_ALL_CURVES
100
AcDbLine
 62
4
  6
CONTINUOUS
 10
11.2694403341
 20
5.9462643058
 11
11.2694403341
 21
5.9604288058
  0
LINE
  5
3EA
100
AcDbEntity
  8
03__ASM_ALL_CURVES
100
AcDbLine
 62
4
  6
CONTINUOUS
 10
11.3166553363
 20
5.9462643058
 11
11.3166553363
 21
5.9604288058
  0
LINE
  5
3EB
100
AcDbEntity
  8
03__ASM_ALL_CURVES
100
AcDbLine
 62
4
  6
CONTINUOUS
 10
11.3260983341
 20
7.9339825558
 11
11.3260983341
 21
6.9165325558
  0
LINE
  5
3EC
100
AcDbEntity
  8
03__ASM_ALL_CURVES
100
AcDbLine
 62
4
  6
CONTINUOUS
 10
10.2577563341
 20
7.3107445558
 11
10.2483133338
 21
7.2965800558
  0
LINE
  5
3ED
100
AcDbEntity
  8
03__ASM_ALL_CURVES
100
AcDbLine
 62
4
  6
CONTINUOUS
 10
10.1538833318
 20
7.3249090558
 11
10.1633263363
 21
7.3319913058
  0
LINE
  5
3EE
100
AcDbEntity
  8
03__ASM_ALL_CURVES
100
AcDbLine
 62
4
  6
CONTINUOUS
 10
9.3299815841
 20
7.1402985558
 11
9.3441460841
 21
7.1497415535
  0
LINE
  5
3EF
100
AcDbEntity
  8
03__ASM_ALL_CURVES
100
AcDbLine
 62
4
  6
CONTINUOUS
 10
9.3724750841
 20
7.159184558
 11
9.3583105841
 21
7.1497415535
  0
LINE
  5
3F0
100
AcDbEntity
  8
03__ASM_ALL_CURVES
100
AcDbLine
 62
4
  6
CONTINUOUS
 10
9.4503798341
 20
7.187513558
 11
9.4645443341
 21
7.1969565558
  0
LINE
  5
3F1
100
AcDbEntity
  8
03__ASM_ALL_CURVES
100
AcDbLine
 62
4
  6
CONTINUOUS
 10
9.3724750841
 20
7.093083556
 11
9.3583105841
 21
7.0836405558
  0
LINE
  5
3F2
100
AcDbEntity
  8
03__ASM_ALL_CURVES
100
AcDbLine
 62
4
  6
CONTINUOUS
 10
9.4787088341
 20
7.093083556
 11
9.4645443341
 21
7.0836405558
  0
LINE
  5
3F3
100
AcDbEntity
  8
03__ASM_ALL_CURVES
100
AcDbLine
 62
4
  6
CONTINUOUS
 10
8.3243020841
 20
11.4286405558
 11
8.3101375841
 21
11.438083556
  0
LINE
  5
3F4
100
AcDbEntity
  8
03__ASM_ALL_CURVES
100
AcDbLine
 62
4
  6
CONTINUOUS
 10
8.3384665841
 20
11.4947415535
 11
8.3526310841
 21
11.4852985558
  0
LINE
  5
3F5
100
AcDbEntity
  8
03__ASM_ALL_CURVES
100
AcDbLine
 62
4
  6
CONTINUOUS
 10
8.3384665841
 20
11.5419565558
 11
8.3526310841
 21
11.532513558
  0
LINE
  5
3F6
100
AcDbEntity
  8
03__ASM_ALL_CURVES
100
AcDbLine
 62
4
  6
CONTINUOUS
 10
8.3490899591
 20
12.8798050562
 11
8.3597133341
 21
12.8656405558
  0
LINE
  5
3F7
100
AcDbEntity
  8
03__ASM_ALL_CURVES
100
AcDbLine
 62
4
  6
CONTINUOUS
 10
8.4234535841
 20
12.875083556
 11
8.4092890841
 21
12.8939695558
  0
LINE
  5
3F8
100
AcDbEntity
  8
03__ASM_ALL_CURVES
100
AcDbLine
 62
4
  6
CONTINUOUS
 10
8.4234535841
 20
12.941184558
 11
8.4163713341
 21
12.9506275558
  0
LINE
  5
3F9
100
AcDbEntity
  8
03__ASM_ALL_CURVES
100
AcDbLine
 62
4
  6
CONTINUOUS
 10
9.4857910841
 20
11.532513558
 11
9.4928733341
 21
11.5230705535
  0
LINE
  5
3FA
100
AcDbEntity
  8
03__ASM_ALL_CURVES
100
AcDbLine
 62
4
  6
CONTINUOUS
 10
8.4659470841
 20
12.9222985558
 11
8.4801115841
 21
12.9034125569
  0
LINE
  5
3FB
100
AcDbEntity
  8
03__ASM_ALL_CURVES
100
AcDbLine
 62
4
  6
CONTINUOUS
 10
8.5792630841
 20
12.807763558
 11
8.5863453341
 21
12.7983205535
  0
LINE
  5
3FC
100
AcDbEntity
  8
03__ASM_ALL_CURVES
100
AcDbLine
 62
4
  6
CONTINUOUS
 10
8.4659470841
 20
12.969513558
 11
8.4730293341
 21
12.9600705535
  0
LINE
  5
3FD
100
AcDbEntity
  8
03__ASM_ALL_CURVES
100
AcDbLine
 62
4
  6
CONTINUOUS
 10
9.5707780841
 20
11.5419565558
 11
9.5849425841
 21
11.5230705535
  0
LINE
  5
3FE
100
AcDbEntity
  8
03__ASM_ALL_CURVES
100
AcDbLine
 62
4
  6
CONTINUOUS
 10
8.6925790841
 20
12.807763558
 11
8.6996613341
 21
12.7983205535
  0
LINE
  5
3FF
100
AcDbEntity
  8
03__ASM_ALL_CURVES
100
AcDbLine
 62
4
  6
CONTINUOUS
 10
11.3544273341
 20
6.1516495558
 11
11.3544273341
 21
6.2153898058
  0
LINE
  5
400
100
AcDbEntity
  8
03__ASM_ALL_CURVES
100
AcDbLine
 62
4
  6
CONTINUOUS
 10
11.3544273341
 20
6.2649655558
 11
11.3544273341
 21
6.3287058058
  0
LINE
  5
401
100
AcDbEntity
  8
03__ASM_ALL_CURVES
100
AcDbLine
 62
4
  6
CONTINUOUS
 10
11.3827563341
 20
6.0949915558
 11
11.3827563341
 21
6.0843681808
  0
LINE
  5
402
100
AcDbEntity
  8
03__ASM_ALL_CURVES
100
AcDbLine
 62
4
  6
CONTINUOUS
 10
11.3827563341
 20
5.9604288058
 11
11.3827563341
 21
5.9462643058
  0
LINE
  5
403
100
AcDbEntity
  8
03__ASM_ALL_CURVES
100
AcDbLine
 62
4
  6
CONTINUOUS
 10
11.3827563341
 20
5.3017795558
 11
11.3827563341
 21
5.2911561808
  0
LINE
  5
404
100
AcDbEntity
  8
03__ASM_ALL_CURVES
100
AcDbLine
 62
4
  6
CONTINUOUS
 10
11.3827563341
 20
5.4717535558
 11
11.3827563341
 21
5.5284115558
  0
LINE
  5
405
100
AcDbEntity
  8
03__ASM_ALL_CURVES
100
AcDbLine
 62
4
  6
CONTINUOUS
 10
11.3827563341
 20
5.8117015558
 11
11.3827563341
 21
5.8683595558
  0
LINE
  5
406
100
AcDbEntity
  8
0
100
AcDbLine
 62
7
  6
CONTINUOUS
 10
11.6608263319
 20
7.8855953618
 11
11.6608263319
 21
7.1916827297
  0
LINE
  5
407
100
AcDbEntity
  8
03__ASM_ALL_CURVES
100
AcDbLine
 62
4
  6
CONTINUOUS
 10
10.2483133338
 20
7.2965800558
 11
10.2388703335
 21
7.2894978058
  0
LINE
  5
408
100
AcDbEntity
  8
03__ASM_ALL_CURVES
100
AcDbLine
 62
4
  6
CONTINUOUS
 10
9.4432975841
 20
7.1402985558
 11
9.4645443341
 21
7.1497415535
  0
LINE
  5
409
100
AcDbEntity
  8
03__ASM_ALL_CURVES
100
AcDbLine
 62
4
  6
CONTINUOUS
 10
10.1633263363
 20
7.3319913058
 11
10.1822123318
 21
7.3390735558
  0
LINE
  5
40A
100
AcDbEntity
  8
03__ASM_ALL_CURVES
100
AcDbLine
 62
4
  6
CONTINUOUS
 10
10.2388703335
 20
7.2894978058
 11
10.219984333
 21
7.2824155558
  0
LINE
  5
40B
100
AcDbEntity
  8
03__ASM_ALL_CURVES
100
AcDbLine
 62
4
  6
CONTINUOUS
 10
8.6642500841
 20
11.4286405558
 11
8.6500855841
 21
11.438083556
  0
LINE
  5
40C
100
AcDbEntity
  8
03__ASM_ALL_CURVES
100
AcDbLine
 62
4
  6
CONTINUOUS
 10
8.6784145841
 20
11.4947415535
 11
8.6925790841
 21
11.4852985558
  0
LINE
  5
40D
100
AcDbEntity
  8
03__ASM_ALL_CURVES
100
AcDbLine
 62
4
  6
CONTINUOUS
 10
8.6784145841
 20
11.5419565558
 11
8.6925790841
 21
11.532513558
  0
LINE
  5
40E
100
AcDbEntity
  8
03__ASM_ALL_CURVES
100
AcDbLine
 62
4
  6
CONTINUOUS
 10
9.0041980841
 20
11.4286405558
 11
8.9900335841
 21
11.438083556
  0
LINE
  5
40F
100
AcDbEntity
  8
03__ASM_ALL_CURVES
100
AcDbLine
 62
4
  6
CONTINUOUS
 10
9.0041980841
 20
11.4947415535
 11
8.9900335841
 21
11.504184558
  0
LINE
  5
410
100
AcDbEntity
  8
03__ASM_ALL_CURVES
100
AcDbLine
 62
4
  6
CONTINUOUS
 10
9.0183625841
 20
11.4947415535
 11
9.0325270841
 21
11.4852985558
  0
LINE
  5
411
100
AcDbEntity
  8
03__ASM_ALL_CURVES
100
AcDbLine
 62
4
  6
CONTINUOUS
 10
8.8023539591
 20
12.7180550562
 11
8.8129773341
 21
12.7038905558
  0
LINE
  5
412
100
AcDbEntity
  8
03__ASM_ALL_CURVES
100
AcDbLine
 62
4
  6
CONTINUOUS
 10
8.7775660841
 20
12.8845265563
 11
8.7917305841
 21
12.8656405558
  0
LINE
  5
413
100
AcDbEntity
  8
0
100
AcDbLine
 62
7
  6
CONTINUOUS
 10
11.7000093352
 20
7.8855953618
 11
11.7000093352
 21
7.1916827297
  0
LINE
  5
414
100
AcDbEntity
  8
0
100
AcDbLine
 62
7
  6
CONTINUOUS
 10
12.1055983341
 20
7.9262985558
 11
12.0350983341
 21
7.8855953618
  0
LINE
  5
415
100
AcDbEntity
  8
03__ASM_ALL_CURVES
100
AcDbLine
 62
4
  6
CONTINUOUS
 10
9.0183625841
 20
11.5419565558
 11
9.0325270841
 21
11.532513558
  0
LINE
  5
416
100
AcDbEntity
  8
03__ASM_ALL_CURVES
100
AcDbLine
 62
4
  6
CONTINUOUS
 10
9.4716265841
 20
11.5419565558
 11
9.4857910841
 21
11.532513558
  0
LINE
  5
417
100
AcDbEntity
  8
03__ASM_ALL_CURVES
100
AcDbLine
 62
4
  6
CONTINUOUS
 10
9.1175140841
 20
12.8172065558
 11
9.1316785841
 21
12.7983205535
  0
LINE
  5
418
100
AcDbEntity
  8
03__ASM_ALL_CURVES
100
AcDbLine
 62
4
  6
CONTINUOUS
 10
9.0325270841
 20
12.969513558
 11
9.0396093341
 21
12.9600705535
  0
LINE
  5
419
100
AcDbEntity
  8
03__ASM_ALL_CURVES
100
AcDbLine
 62
4
  6
CONTINUOUS
 10
9.1033495841
 20
12.875083556
 11
9.0962673341
 21
12.8845265563
  0
LINE
  5
41A
100
AcDbEntity
  8
03__ASM_ALL_CURVES
100
AcDbLine
 62
4
  6
CONTINUOUS
 10
9.1458430841
 20
12.9222985558
 11
9.1600075841
 21
12.9034125569
  0
LINE
  5
41B
100
AcDbEntity
  8
03__ASM_ALL_CURVES
100
AcDbLine
 62
4
  6
CONTINUOUS
 10
9.1458430841
 20
12.969513558
 11
9.1529253341
 21
12.9600705535
  0
LINE
  5
41C
100
AcDbEntity
  8
03__ASM_ALL_CURVES
100
AcDbLine
 62
4
  6
CONTINUOUS
 10
9.3441460841
 20
12.7227765563
 11
9.3583105841
 21
12.7038905558
  0
LINE
  5
41D
100
AcDbEntity
  8
03__ASM_ALL_CURVES
100
AcDbLine
 62
4
  6
CONTINUOUS
 10
9.2556179591
 20
12.8798050562
 11
9.2662413341
 21
12.8656405558
  0
LINE
  5
41E
100
AcDbEntity
  8
03__ASM_ALL_CURVES
100
AcDbLine
 62
4
  6
CONTINUOUS
 10
9.3370638341
 20
12.875083556
 11
9.3299815841
 21
12.8845265563
  0
LINE
  5
41F
100
AcDbEntity
  8
03__ASM_ALL_CURVES
100
AcDbLine
 62
4
  6
CONTINUOUS
 10
9.5566135841
 20
12.713333556
 11
9.5424490841
 21
12.7322195558
  0
LINE
  5
420
100
AcDbEntity
  8
03__ASM_ALL_CURVES
100
AcDbLine
 62
4
  6
CONTINUOUS
 10
9.3653928341
 20
12.969513558
 11
9.3724750841
 21
12.9600705535
  0
LINE
  5
421
100
AcDbEntity
  8
03__ASM_ALL_CURVES
100
AcDbLine
 62
4
  6
CONTINUOUS
 10
9.4503798341
 20
12.875083556
 11
9.4432975841
 21
12.8845265563
  0
LINE
  5
422
100
AcDbEntity
  8
0
100
AcDbLine
 62
7
  6
CONTINUOUS
 10
12.034737333
 20
7.8855953618
 11
12.034737333
 21
7.1916827297
  0
LINE
  5
423
100
AcDbEntity
  8
0
100
AcDbLine
 62
7
  6
CONTINUOUS
 10
12.0350983341
 20
7.8855953618
 11
12.0350983341
 21
7.1916827297
  0
LINE
  5
424
100
AcDbEntity
  8
0
100
AcDbLine
 62
7
  6
CONTINUOUS
 10
12.1055983341
 20
8.0472985558
 11
12.1055983341
 21
7.9262985558
  0
LINE
  5
425
100
AcDbEntity
  8
03__ASM_ALL_CURVES
100
AcDbLine
 62
4
  6
CONTINUOUS
 10
7.9843540841
 20
12.7038905558
 11
7.9701895841
 21
12.713333556
  0
LINE
  5
426
100
AcDbEntity
  8
03__ASM_ALL_CURVES
100
AcDbLine
 62
4
  6
CONTINUOUS
 10
7.9843540841
 20
12.7699915535
 11
7.9701895841
 21
12.779434558
  0
LINE
  5
427
100
AcDbEntity
  8
03__ASM_ALL_CURVES
100
AcDbLine
 62
4
  6
CONTINUOUS
 10
7.9985185841
 20
12.7699915535
 11
8.0126830841
 21
12.7605485558
  0
LINE
  5
428
100
AcDbEntity
  8
03__ASM_ALL_CURVES
100
AcDbLine
 62
4
  6
CONTINUOUS
 10
7.9985185841
 20
12.8172065558
 11
8.0126830841
 21
12.807763558
  0
LINE
  5
429
100
AcDbEntity
  8
03__ASM_ALL_CURVES
100
AcDbLine
 62
4
  6
CONTINUOUS
 10
9.5495313341
 20
12.7888775558
 11
9.5566135841
 21
12.779434558
  0
LINE
  5
42A
100
AcDbEntity
  8
03__ASM_ALL_CURVES
100
AcDbLine
 62
4
  6
CONTINUOUS
 10
9.5991070841
 20
12.7511055546
 11
9.6061893341
 21
12.7416625569
  0
LINE
  5
42B
100
AcDbEntity
  8
03__ASM_ALL_CURVES
100
AcDbLine
 62
4
  6
CONTINUOUS
 10
9.6061893341
 20
12.7983205535
 11
9.5991070841
 21
12.807763558
  0
LINE
  5
42C
100
AcDbEntity
  8
03__ASM_ALL_CURVES
100
AcDbLine
 62
4
  6
CONTINUOUS
 10
9.4787088341
 20
12.969513558
 11
9.4857910841
 21
12.9600705535
  0
LINE
  5
42D
100
AcDbEntity
  8
03__ASM_ALL_CURVES
100
AcDbLine
 62
4
  6
CONTINUOUS
 10
9.6840940841
 20
12.8172065558
 11
9.6982585841
 21
12.7983205535
  0
LINE
  5
42E
100
AcDbEntity
  8
03__ASM_ALL_CURVES
100
AcDbLine
 62
4
  6
CONTINUOUS
 10
9.5707780841
 20
12.9789565558
 11
9.5849425841
 21
12.9600705535
  0
LINE
  5
42F
100
AcDbEntity
  8
03__ASM_ALL_CURVES
100
AcDbLine
 62
4
  6
CONTINUOUS
 10
12.3944403341
 20
6.3216235558
 11
12.3944403341
 21
6.2791300558
  0
LINE
  5
430
100
AcDbEntity
  8
03__ASM_ALL_CURVES
100
AcDbLine
 62
4
  6
CONTINUOUS
 10
12.3944403341
 20
5.9816755558
 11
12.3944403341
 21
5.9250175558
  0
LINE
  5
431
100
AcDbEntity
  8
03__ASM_ALL_CURVES
100
AcDbLine
 62
4
  6
CONTINUOUS
 10
12.3944403341
 20
5.8683595558
 11
12.3944403341
 21
5.8258660558
  0
LINE
  5
432
100
AcDbEntity
  8
03__ASM_ALL_CURVES
100
AcDbLine
 62
4
  6
CONTINUOUS
 10
12.3944403341
 20
5.5284115558
 11
12.3944403341
 21
5.4859180558
  0
LINE
  5
433
100
AcDbEntity
  8
03__ASM_ALL_CURVES
100
AcDbLine
 62
4
  6
CONTINUOUS
 10
12.3944403341
 20
5.1530523058
 11
12.3944403341
 21
5.1672168058
  0
LINE
  5
434
100
AcDbEntity
  8
03__ASM_ALL_CURVES
100
AcDbLine
 62
4
  6
CONTINUOUS
 10
12.3944403341
 20
5.3796843058
 11
12.3944403341
 21
5.3938488058
  0
LINE
  5
435
100
AcDbEntity
  8
03__ASM_ALL_CURVES
100
AcDbLine
 62
4
  6
CONTINUOUS
 10
12.4322123318
 20
5.4930003058
 11
12.4322123318
 21
5.5071648058
  0
LINE
  5
436
100
AcDbEntity
  8
03__ASM_ALL_CURVES
100
AcDbLine
 62
4
  6
CONTINUOUS
 10
12.4322123318
 20
5.8329483058
 11
12.4322123318
 21
5.8471128058
  0
LINE
  5
437
100
AcDbEntity
  8
03__ASM_ALL_CURVES
100
AcDbLine
 62
4
  6
CONTINUOUS
 10
12.4322123318
 20
6.2862123058
 11
12.4322123318
 21
6.3003768058
  0
LINE
  5
438
100
AcDbEntity
  8
0
100
AcDbLine
 62
7
  6
CONTINUOUS
 10
12.4510983341
 20
12.9222985558
 11
12.4510983341
 21
8.0472985558
  0
LINE
  5
439
100
AcDbEntity
  8
03__ASM_ALL_CURVES
100
AcDbLine
 62
4
  6
CONTINUOUS
 10
12.4510983341
 20
7.9339825558
 11
12.4510983341
 21
6.9165325558
  0
LINE
  5
43A
100
AcDbEntity
  8
03__ASM_ALL_CURVES
100
AcDbLine
 62
4
  6
CONTINUOUS
 10
12.5077563341
 20
6.3003768058
 11
12.5077563341
 21
6.2862123058
  0
LINE
  5
43B
100
AcDbEntity
  8
03__ASM_ALL_CURVES
100
AcDbLine
 62
4
  6
CONTINUOUS
 10
12.5077563341
 20
6.0949915558
 11
12.5077563341
 21
6.0843681808
  0
LINE
  5
43C
100
AcDbEntity
  8
03__ASM_ALL_CURVES
100
AcDbLine
 62
4
  6
CONTINUOUS
 10
12.5077563341
 20
5.8471128058
 11
12.5077563341
 21
5.8329483058
  0
LINE
  5
43D
100
AcDbEntity
  8
03__ASM_ALL_CURVES
100
AcDbLine
 62
4
  6
CONTINUOUS
 10
12.5077563341
 20
5.5071648058
 11
12.5077563341
 21
5.4930003058
  0
LINE
  5
43E
100
AcDbEntity
  8
03__ASM_ALL_CURVES
100
AcDbLine
 62
4
  6
CONTINUOUS
 10
12.5077563341
 20
5.3017795558
 11
12.5077563341
 21
5.2911561808
  0
LINE
  5
43F
100
AcDbEntity
  8
03__ASM_ALL_CURVES
100
AcDbLine
 62
4
  6
CONTINUOUS
 10
12.5077563341
 20
5.1318055558
 11
12.5077563341
 21
5.1884635558
  0
LINE
  5
440
100
AcDbEntity
  8
03__ASM_ALL_CURVES
100
AcDbLine
 62
4
  6
CONTINUOUS
 10
12.5077563341
 20
5.3584375558
 11
12.5077563341
 21
5.4150955558
  0
LINE
  5
441
100
AcDbEntity
  8
0
100
AcDbLine
 62
7
  6
CONTINUOUS
 10
12.0350983341
 20
7.1916827297
 11
11.9460983341
 21
7.1402985558
  0
LINE
  5
442
100
AcDbEntity
  8
03__ASM_ALL_CURVES
100
AcDbLine
 62
4
  6
CONTINUOUS
 10
9.2662413341
 20
11.4286405558
 11
9.2556179591
 21
11.4286405558
  0
LINE
  5
443
100
AcDbEntity
  8
03__ASM_ALL_CURVES
100
AcDbLine
 62
4
  6
CONTINUOUS
 10
9.0183625841
 20
11.4286405558
 11
9.0041980841
 21
11.4286405558
  0
LINE
  5
444
100
AcDbEntity
  8
03__ASM_ALL_CURVES
100
AcDbLine
 62
4
  6
CONTINUOUS
 10
8.6784145841
 20
11.4286405558
 11
8.6642500841
 21
11.4286405558
  0
LINE
  5
445
100
AcDbEntity
  8
03__ASM_ALL_CURVES
100
AcDbLine
 62
4
  6
CONTINUOUS
 10
8.4730293341
 20
11.4286405558
 11
8.4624059591
 21
11.4286405558
  0
LINE
  5
446
100
AcDbEntity
  8
03__ASM_ALL_CURVES
100
AcDbLine
 62
4
  6
CONTINUOUS
 10
8.3384665841
 20
11.4286405558
 11
8.3243020841
 21
11.4286405558
  0
LINE
  5
447
100
AcDbEntity
  8
03__ASM_ALL_CURVES
100
AcDbLine
 62
4
  6
CONTINUOUS
 10
9.4362153341
 20
11.4286405558
 11
9.4928733341
 21
11.4286405558
  0
LINE
  5
448
100
AcDbEntity
  8
03__ASM_ALL_CURVES
100
AcDbLine
 62
4
  6
CONTINUOUS
 10
8.5296873341
 20
11.4569695558
 11
8.5934275841
 21
11.4569695558
  0
LINE
  5
449
100
AcDbEntity
  8
03__ASM_ALL_CURVES
100
AcDbLine
 62
4
  6
CONTINUOUS
 10
8.4376180841
 20
12.8656405558
 11
8.4234535841
 21
12.875083556
  0
LINE
  5
44A
100
AcDbEntity
  8
03__ASM_ALL_CURVES
100
AcDbLine
 62
4
  6
CONTINUOUS
 10
8.5650985841
 20
12.8172065558
 11
8.5792630841
 21
12.807763558
  0
LINE
  5
44B
100
AcDbEntity
  8
03__ASM_ALL_CURVES
100
AcDbLine
 62
4
  6
CONTINUOUS
 10
8.4376180841
 20
12.9317415535
 11
8.4234535841
 21
12.941184558
  0
LINE
  5
44C
100
AcDbEntity
  8
03__ASM_ALL_CURVES
100
AcDbLine
 62
4
  6
CONTINUOUS
 10
8.4517825841
 20
12.9317415535
 11
8.4659470841
 21
12.9222985558
  0
LINE
  5
44D
100
AcDbEntity
  8
03__ASM_ALL_CURVES
100
AcDbLine
 62
4
  6
CONTINUOUS
 10
8.6784145841
 20
12.8172065558
 11
8.6925790841
 21
12.807763558
  0
LINE
  5
44E
100
AcDbEntity
  8
03__ASM_ALL_CURVES
100
AcDbLine
 62
4
  6
CONTINUOUS
 10
8.4517825841
 20
12.9789565558
 11
8.4659470841
 21
12.969513558
  0
LINE
  5
44F
100
AcDbEntity
  8
03__ASM_ALL_CURVES
100
AcDbLine
 62
4
  6
CONTINUOUS
 10
11.2694403341
 20
5.9604288058
 11
11.2788833318
 21
5.9745933058
  0
LINE
  5
450
100
AcDbEntity
  8
03__ASM_ALL_CURVES
100
AcDbLine
 62
4
  6
CONTINUOUS
 10
11.3166553363
 20
5.9604288058
 11
11.3260983341
 21
5.9745933058
  0
LINE
  5
451
100
AcDbEntity
  8
03__ASM_ALL_CURVES
100
AcDbLine
 62
4
  6
CONTINUOUS
 10
11.3166553363
 20
5.9462643058
 11
11.3072123318
 21
5.9320998058
  0
LINE
  5
452
100
AcDbEntity
  8
03__ASM_ALL_CURVES
100
AcDbLine
 62
4
  6
CONTINUOUS
 10
11.2694403341
 20
5.8471128058
 11
11.2788833318
 21
5.8612773058
  0
LINE
  5
453
100
AcDbEntity
  8
03__ASM_ALL_CURVES
100
AcDbLine
 62
4
  6
CONTINUOUS
 10
11.3827563341
 20
5.9462643058
 11
11.3733133338
 21
5.9320998058
  0
LINE
  5
454
100
AcDbEntity
  8
03__ASM_ALL_CURVES
100
AcDbLine
 62
4
  6
CONTINUOUS
 10
11.2694403341
 20
5.5071648058
 11
11.2788833318
 21
5.5213293058
  0
LINE
  5
455
100
AcDbEntity
  8
03__ASM_ALL_CURVES
100
AcDbLine
 62
4
  6
CONTINUOUS
 10
11.2694403341
 20
6.3995283058
 11
11.2883263363
 21
6.4136928058
  0
LINE
  5
456
100
AcDbEntity
  8
03__ASM_ALL_CURVES
100
AcDbLine
 62
4
  6
CONTINUOUS
 10
10.0877823341
 20
11.4852985558
 11
9.7478343341
 21
11.4852985558
  0
LINE
  5
457
100
AcDbEntity
  8
03__ASM_ALL_CURVES
100
AcDbLine
 62
4
  6
CONTINUOUS
 10
8.3243020841
 20
11.4947415535
 11
8.3384665841
 21
11.4947415535
  0
LINE
  5
458
100
AcDbEntity
  8
03__ASM_ALL_CURVES
100
AcDbLine
 62
4
  6
CONTINUOUS
 10
8.6642500841
 20
11.4947415535
 11
8.6784145841
 21
11.4947415535
  0
LINE
  5
459
100
AcDbEntity
  8
03__ASM_ALL_CURVES
100
AcDbLine
 62
4
  6
CONTINUOUS
 10
9.0041980841
 20
11.4947415535
 11
9.0183625841
 21
11.4947415535
  0
LINE
  5
45A
100
AcDbEntity
  8
03__ASM_ALL_CURVES
100
AcDbLine
 62
4
  6
CONTINUOUS
 10
9.1529253341
 20
11.5419565558
 11
9.0962673341
 21
11.5419565558
  0
LINE
  5
45B
100
AcDbEntity
  8
03__ASM_ALL_CURVES
100
AcDbLine
 62
4
  6
CONTINUOUS
 10
8.3243020841
 20
11.5419565558
 11
8.3384665841
 21
11.5419565558
  0
LINE
  5
45C
100
AcDbEntity
  8
03__ASM_ALL_CURVES
100
AcDbLine
 62
4
  6
CONTINUOUS
 10
8.6642500841
 20
11.5419565558
 11
8.6784145841
 21
11.5419565558
  0
LINE
  5
45D
100
AcDbEntity
  8
03__ASM_ALL_CURVES
100
AcDbLine
 62
4
  6
CONTINUOUS
 10
9.0041980841
 20
11.5419565558
 11
9.0183625841
 21
11.5419565558
  0
LINE
  5
45E
100
AcDbEntity
  8
03__ASM_ALL_CURVES
100
AcDbLine
 62
4
  6
CONTINUOUS
 10
9.4574620841
 20
11.5419565558
 11
9.4716265841
 21
11.5419565558
  0
LINE
  5
45F
100
AcDbEntity
  8
0
100
AcDbLine
 62
7
  6
CONTINUOUS
 10
10.9051595067
 20
11.7352985195
 11
10.9204479304
 21
11.7352985195
  0
LINE
  5
460
100
AcDbEntity
  8
0
100
AcDbLine
 62
7
  6
CONTINUOUS
 10
11.7317487378
 20
11.7352985195
 11
11.7470371615
 21
11.7352985195
  0
LINE
  5
461
100
AcDbEntity
  8
03__ASM_ALL_CURVES
100
AcDbLine
 62
4
  6
CONTINUOUS
 10
9.1175140841
 20
12.8656405558
 11
9.1033495841
 21
12.875083556
  0
LINE
  5
462
100
AcDbEntity
  8
03__ASM_ALL_CURVES
100
AcDbLine
 62
4
  6
CONTINUOUS
 10
9.0183625841
 20
12.9789565558
 11
9.0325270841
 21
12.969513558
  0
LINE
  5
463
100
AcDbEntity
  8
03__ASM_ALL_CURVES
100
AcDbLine
 62
4
  6
CONTINUOUS
 10
9.1316785841
 20
12.9317415535
 11
9.1458430841
 21
12.9222985558
  0
LINE
  5
464
100
AcDbEntity
  8
03__ASM_ALL_CURVES
100
AcDbLine
 62
4
  6
CONTINUOUS
 10
9.1316785841
 20
12.9789565558
 11
9.1458430841
 21
12.969513558
  0
LINE
  5
465
100
AcDbEntity
  8
03__ASM_ALL_CURVES
100
AcDbLine
 62
4
  6
CONTINUOUS
 10
11.3685918337
 20
6.0843681808
 11
11.3827563341
 21
6.0949915558
  0
LINE
  5
466
100
AcDbEntity
  8
03__ASM_ALL_CURVES
100
AcDbLine
 62
4
  6
CONTINUOUS
 10
11.2788833318
 20
5.9745933058
 11
11.2883263363
 21
5.9816755558
  0
LINE
  5
467
100
AcDbEntity
  8
03__ASM_ALL_CURVES
100
AcDbLine
 62
4
  6
CONTINUOUS
 10
11.3260983341
 20
5.9745933058
 11
11.344984333
 21
5.9887578058
  0
LINE
  5
468
100
AcDbEntity
  8
03__ASM_ALL_CURVES
100
AcDbLine
 62
4
  6
CONTINUOUS
 10
11.3072123318
 20
5.9320998058
 11
11.2977693341
 21
5.9250175558
  0
LINE
  5
469
100
AcDbEntity
  8
03__ASM_ALL_CURVES
100
AcDbLine
 62
4
  6
CONTINUOUS
 10
11.3733133338
 20
5.9320998058
 11
11.3544273341
 21
5.9179353058
  0
LINE
  5
46A
100
AcDbEntity
  8
03__ASM_ALL_CURVES
100
AcDbLine
 62
4
  6
CONTINUOUS
 10
11.2788833318
 20
5.8612773058
 11
11.2883263363
 21
5.8683595558
  0
LINE
  5
46B
100
AcDbEntity
  8
03__ASM_ALL_CURVES
100
AcDbLine
 62
4
  6
CONTINUOUS
 10
12.4510983341
 20
6.3216235558
 11
12.469984333
 21
6.3287058058
  0
LINE
  5
46C
100
AcDbEntity
  8
03__ASM_ALL_CURVES
100
AcDbLine
 62
4
  6
CONTINUOUS
 10
9.5707780841
 20
12.7038905558
 11
9.5566135841
 21
12.713333556
  0
LINE
  5
46D
100
AcDbEntity
  8
03__ASM_ALL_CURVES
100
AcDbLine
 62
4
  6
CONTINUOUS
 10
9.3512283341
 20
12.8656405558
 11
9.3370638341
 21
12.875083556
  0
LINE
  5
46E
100
AcDbEntity
  8
03__ASM_ALL_CURVES
100
AcDbLine
 62
4
  6
CONTINUOUS
 10
9.5566135841
 20
12.779434558
 11
9.5991070841
 21
12.7511055546
  0
LINE
  5
46F
100
AcDbEntity
  8
03__ASM_ALL_CURVES
100
AcDbLine
 62
4
  6
CONTINUOUS
 10
9.4645443341
 20
12.8656405558
 11
9.4503798341
 21
12.875083556
  0
LINE
  5
470
100
AcDbEntity
  8
03__ASM_ALL_CURVES
100
AcDbLine
 62
4
  6
CONTINUOUS
 10
9.5991070841
 20
12.807763558
 11
9.5849425841
 21
12.8172065558
  0
LINE
  5
471
100
AcDbEntity
  8
03__ASM_ALL_CURVES
100
AcDbLine
 62
4
  6
CONTINUOUS
 10
9.3512283341
 20
12.9789565558
 11
9.3653928341
 21
12.969513558
  0
LINE
  5
472
100
AcDbEntity
  8
03__ASM_ALL_CURVES
100
AcDbLine
 62
4
  6
CONTINUOUS
 10
9.4645443341
 20
12.9789565558
 11
9.4787088341
 21
12.969513558
  0
LINE
  5
473
100
AcDbEntity
  8
03__ASM_ALL_CURVES
100
AcDbLine
 62
4
  6
CONTINUOUS
 10
12.4322123318
 20
6.3003768058
 11
12.4416553363
 21
6.3145413058
  0
LINE
  5
474
100
AcDbEntity
  8
03__ASM_ALL_CURVES
100
AcDbLine
 62
4
  6
CONTINUOUS
 10
12.5077563341
 20
6.2862123058
 11
12.4983133338
 21
6.2720478058
  0
LINE
  5
475
100
AcDbEntity
  8
03__ASM_ALL_CURVES
100
AcDbLine
 62
4
  6
CONTINUOUS
 10
11.3638703335
 20
5.7196323058
 11
11.3827563341
 21
5.7337968058
  0
LINE
  5
476
100
AcDbEntity
  8
03__ASM_ALL_CURVES
100
AcDbLine
 62
4
  6
CONTINUOUS
 10
12.3944403341
 20
6.3995283058
 11
12.4133263363
 21
6.4136928058
  0
LINE
  5
477
100
AcDbEntity
  8
03__ASM_ALL_CURVES
100
AcDbLine
 62
4
  6
CONTINUOUS
 10
11.2788833318
 20
5.5213293058
 11
11.2883263363
 21
5.5284115558
  0
LINE
  5
478
100
AcDbEntity
  8
03__ASM_ALL_CURVES
100
AcDbLine
 62
4
  6
CONTINUOUS
 10
12.4416553363
 20
6.3145413058
 11
12.4510983341
 21
6.3216235558
  0
LINE
  5
479
100
AcDbEntity
  8
03__ASM_ALL_CURVES
100
AcDbLine
 62
4
  6
CONTINUOUS
 10
12.4983133338
 20
6.2720478058
 11
12.4888703335
 21
6.2649655558
  0
LINE
  5
47A
100
AcDbEntity
  8
03__ASM_ALL_CURVES
100
AcDbLine
 62
4
  6
CONTINUOUS
 10
9.3512283341
 20
12.9317415535
 11
9.3724750841
 21
12.9222985558
  0
LINE
  5
47B
100
AcDbEntity
  8
03__ASM_ALL_CURVES
100
AcDbLine
 62
4
  6
CONTINUOUS
 10
9.4645443341
 20
12.9128555546
 11
9.4432975841
 21
12.9222985558
  0
LINE
  5
47C
100
AcDbEntity
  8
03__ASM_ALL_CURVES
100
AcDbLine
 62
4
  6
CONTINUOUS
 10
12.4322123318
 20
5.8471128058
 11
12.4416553363
 21
5.8612773058
  0
LINE
  5
47D
100
AcDbEntity
  8
03__ASM_ALL_CURVES
100
AcDbLine
 62
4
  6
CONTINUOUS
 10
12.5077563341
 20
5.8329483058
 11
12.4983133338
 21
5.8187838058
  0
LINE
  5
47E
100
AcDbEntity
  8
03__ASM_ALL_CURVES
100
AcDbLine
 62
4
  6
CONTINUOUS
 10
12.4322123318
 20
5.5071648058
 11
12.4416553363
 21
5.5213293058
  0
LINE
  5
47F
100
AcDbEntity
  8
03__ASM_ALL_CURVES
100
AcDbLine
 62
4
  6
CONTINUOUS
 10
12.3944403341
 20
5.3938488058
 11
12.4038833318
 21
5.4080133058
  0
LINE
  5
480
100
AcDbEntity
  8
03__ASM_ALL_CURVES
100
AcDbLine
 62
4
  6
CONTINUOUS
 10
11.3685918337
 20
5.2911561808
 11
11.3827563341
 21
5.3017795558
  0
LINE
  5
481
100
AcDbEntity
  8
03__ASM_ALL_CURVES
100
AcDbLine
 62
4
  6
CONTINUOUS
 10
12.4935918337
 20
6.0843681808
 11
12.5077563341
 21
6.0949915558
  0
LINE
  5
482
100
AcDbEntity
  8
03__ASM_ALL_CURVES
100
AcDbLine
 62
4
  6
CONTINUOUS
 10
12.4416553363
 20
5.8612773058
 11
12.4510983341
 21
5.8683595558
  0
LINE
  5
483
100
AcDbEntity
  8
03__ASM_ALL_CURVES
100
AcDbLine
 62
4
  6
CONTINUOUS
 10
12.4510983341
 20
5.8683595558
 11
12.469984333
 21
5.8754418058
  0
LINE
  5
484
100
AcDbEntity
  8
03__ASM_ALL_CURVES
100
AcDbLine
 62
4
  6
CONTINUOUS
 10
9.5849425841
 20
12.7038905558
 11
9.5707780841
 21
12.7038905558
  0
LINE
  5
485
100
AcDbEntity
  8
03__ASM_ALL_CURVES
100
AcDbLine
 62
4
  6
CONTINUOUS
 10
8.8129773341
 20
12.7038905558
 11
8.8023539591
 21
12.7038905558
  0
LINE
  5
486
100
AcDbEntity
  8
03__ASM_ALL_CURVES
100
AcDbLine
 62
4
  6
CONTINUOUS
 10
7.9985185841
 20
12.7038905558
 11
7.9843540841
 21
12.7038905558
  0
LINE
  5
487
100
AcDbEntity
  8
03__ASM_ALL_CURVES
100
AcDbLine
 62
4
  6
CONTINUOUS
 10
7.9064493341
 20
12.7038905558
 11
7.8958259591
 21
12.7038905558
  0
LINE
  5
488
100
AcDbEntity
  8
03__ASM_ALL_CURVES
100
AcDbLine
 62
4
  6
CONTINUOUS
 10
8.5296873341
 20
12.7038905558
 11
8.5863453341
 21
12.7038905558
  0
LINE
  5
489
100
AcDbEntity
  8
03__ASM_ALL_CURVES
100
AcDbLine
 62
4
  6
CONTINUOUS
 10
8.6430033341
 20
12.7038905558
 11
8.6996613341
 21
12.7038905558
  0
LINE
  5
48A
100
AcDbEntity
  8
03__ASM_ALL_CURVES
100
AcDbLine
 62
4
  6
CONTINUOUS
 10
9.4362153341
 20
12.7038905558
 11
9.4928733341
 21
12.7038905558
  0
LINE
  5
48B
100
AcDbEntity
  8
03__ASM_ALL_CURVES
100
AcDbLine
 62
4
  6
CONTINUOUS
 10
7.7364753341
 20
12.7322195558
 11
7.8002155841
 21
12.7322195558
  0
LINE
  5
48C
100
AcDbEntity
  8
03__ASM_ALL_CURVES
100
AcDbLine
 62
4
  6
CONTINUOUS
 10
9.8611503341
 20
12.7605485558
 11
9.7478343341
 21
12.7605485558
  0
LINE
  5
48D
100
AcDbEntity
  8
03__ASM_ALL_CURVES
100
AcDbLine
 62
4
  6
CONTINUOUS
 10
12.5077563341
 20
5.4930003058
 11
12.4983133338
 21
5.4788358058
  0
LINE
  5
48E
100
AcDbEntity
  8
03__ASM_ALL_CURVES
100
AcDbLine
 62
4
  6
CONTINUOUS
 10
12.3944403341
 20
5.1672168058
 11
12.4038833318
 21
5.1813813058
  0
LINE
  5
48F
100
AcDbEntity
  8
03__ASM_ALL_CURVES
100
AcDbLine
 62
4
  6
CONTINUOUS
 10
12.4983133338
 20
5.8187838058
 11
12.4888703335
 21
5.8117015558
  0
LINE
  5
490
100
AcDbEntity
  8
03__ASM_ALL_CURVES
100
AcDbLine
 62
4
  6
CONTINUOUS
 10
12.4888703335
 20
5.7196323058
 11
12.5077563341
 21
5.7337968058
  0
LINE
  5
491
100
AcDbEntity
  8
03__ASM_ALL_CURVES
100
AcDbLine
 62
4
  6
CONTINUOUS
 10
12.4416553363
 20
5.5213293058
 11
12.4510983341
 21
5.5284115558
  0
LINE
  5
492
100
AcDbEntity
  8
03__ASM_ALL_CURVES
100
AcDbLine
 62
4
  6
CONTINUOUS
 10
12.4983133338
 20
5.4788358058
 11
12.4888703335
 21
5.4717535558
  0
LINE
  5
493
100
AcDbEntity
  8
03__ASM_ALL_CURVES
100
AcDbLine
 62
4
  6
CONTINUOUS
 10
12.4038833318
 20
5.4080133058
 11
12.4133263363
 21
5.4150955558
  0
LINE
  5
494
100
AcDbEntity
  8
03__ASM_ALL_CURVES
100
AcDbLine
 62
4
  6
CONTINUOUS
 10
12.4510983341
 20
5.5284115558
 11
12.469984333
 21
5.5354938058
  0
LINE
  5
495
100
AcDbEntity
  8
03__ASM_ALL_CURVES
100
AcDbLine
 62
4
  6
CONTINUOUS
 10
7.9843540841
 20
12.7699915535
 11
7.9985185841
 21
12.7699915535
  0
LINE
  5
496
100
AcDbEntity
  8
03__ASM_ALL_CURVES
100
AcDbLine
 62
4
  6
CONTINUOUS
 10
9.5849425841
 20
12.8172065558
 11
9.5707780841
 21
12.8172065558
  0
LINE
  5
497
100
AcDbEntity
  8
03__ASM_ALL_CURVES
100
AcDbLine
 62
4
  6
CONTINUOUS
 10
9.0396093341
 20
12.8172065558
 11
8.9829513341
 21
12.8172065558
  0
LINE
  5
498
100
AcDbEntity
  8
03__ASM_ALL_CURVES
100
AcDbLine
 62
4
  6
CONTINUOUS
 10
7.9843540841
 20
12.8172065558
 11
7.9985185841
 21
12.8172065558
  0
LINE
  5
499
100
AcDbEntity
  8
03__ASM_ALL_CURVES
100
AcDbLine
 62
4
  6
CONTINUOUS
 10
8.5509340841
 20
12.8172065558
 11
8.5650985841
 21
12.8172065558
  0
LINE
  5
49A
100
AcDbEntity
  8
03__ASM_ALL_CURVES
100
AcDbLine
 62
4
  6
CONTINUOUS
 10
8.6642500841
 20
12.8172065558
 11
8.6784145841
 21
12.8172065558
  0
LINE
  5
49B
100
AcDbEntity
  8
03__ASM_ALL_CURVES
100
AcDbLine
 62
4
  6
CONTINUOUS
 10
10.0877823341
 20
12.8602985558
 11
9.9744663341
 21
12.8602985558
  0
LINE
  5
49C
100
AcDbEntity
  8
03__ASM_ALL_CURVES
100
AcDbLine
 62
4
  6
CONTINUOUS
 10
9.2662413341
 20
12.8656405558
 11
9.2556179591
 21
12.8656405558
  0
LINE
  5
49D
100
AcDbEntity
  8
03__ASM_ALL_CURVES
100
AcDbLine
 62
4
  6
CONTINUOUS
 10
9.1316785841
 20
12.8656405558
 11
9.1175140841
 21
12.8656405558
  0
LINE
  5
49E
100
AcDbEntity
  8
03__ASM_ALL_CURVES
100
AcDbLine
 62
4
  6
CONTINUOUS
 10
8.4517825841
 20
12.8656405558
 11
8.4376180841
 21
12.8656405558
  0
LINE
  5
49F
100
AcDbEntity
  8
03__ASM_ALL_CURVES
100
AcDbLine
 62
4
  6
CONTINUOUS
 10
8.3597133341
 20
12.8656405558
 11
8.3490899591
 21
12.8656405558
  0
LINE
  5
4A0
100
AcDbEntity
  8
03__ASM_ALL_CURVES
100
AcDbLine
 62
4
  6
CONTINUOUS
 10
8.9829513341
 20
12.8656405558
 11
9.0396093341
 21
12.8656405558
  0
LINE
  5
4A1
100
AcDbEntity
  8
03__ASM_ALL_CURVES
100
AcDbLine
 62
4
  6
CONTINUOUS
 10
8.1897393341
 20
12.8939695558
 11
8.2534795841
 21
12.8939695558
  0
LINE
  5
4A2
100
AcDbEntity
  8
03__ASM_ALL_CURVES
100
AcDbLine
 62
4
  6
CONTINUOUS
 10
10.0877823341
 20
12.9222985558
 11
9.7478343341
 21
12.9222985558
  0
LINE
  5
4A3
100
AcDbEntity
  8
0
100
AcDbLine
 62
7
  6
CONTINUOUS
 10
10.2010983341
 20
12.9222985558
 11
12.4510983341
 21
12.9222985558
  0
LINE
  5
4A4
100
AcDbEntity
  8
03__ASM_ALL_CURVES
100
AcDbLine
 62
4
  6
CONTINUOUS
 10
8.4376180841
 20
12.9317415535
 11
8.4517825841
 21
12.9317415535
  0
LINE
  5
4A5
100
AcDbEntity
  8
03__ASM_ALL_CURVES
100
AcDbLine
 62
4
  6
CONTINUOUS
 10
9.1175140841
 20
12.9317415535
 11
9.1316785841
 21
12.9317415535
  0
LINE
  5
4A6
100
AcDbEntity
  8
03__ASM_ALL_CURVES
100
AcDbLine
 62
4
  6
CONTINUOUS
 10
8.5863453341
 20
12.9789565558
 11
8.5296873341
 21
12.9789565558
  0
LINE
  5
4A7
100
AcDbEntity
  8
03__ASM_ALL_CURVES
100
AcDbLine
 62
4
  6
CONTINUOUS
 10
8.4376180841
 20
12.9789565558
 11
8.4517825841
 21
12.9789565558
  0
LINE
  5
4A8
100
AcDbEntity
  8
03__ASM_ALL_CURVES
100
AcDbLine
 62
4
  6
CONTINUOUS
 10
9.0041980841
 20
12.9789565558
 11
9.0183625841
 21
12.9789565558
  0
LINE
  5
4A9
100
AcDbEntity
  8
03__ASM_ALL_CURVES
100
AcDbLine
 62
4
  6
CONTINUOUS
 10
9.1175140841
 20
12.9789565558
 11
9.1316785841
 21
12.9789565558
  0
LINE
  5
4AA
100
AcDbEntity
  8
03__ASM_ALL_CURVES
100
AcDbLine
 62
4
  6
CONTINUOUS
 10
12.4935918337
 20
5.2911561808
 11
12.5077563341
 21
5.3017795558
  0
LINE
  5
4AB
100
AcDbEntity
  8
03__ASM_ALL_CURVES
100
AcDbLine
 62
4
  6
CONTINUOUS
 10
12.4038833318
 20
5.1813813058
 11
12.4133263363
 21
5.1884635558
  0
CIRCLE
  5
4AC
100
AcDbEntity
  8
0
100
AcDbCircle
 62
7
  6
CONTINUOUS
 10
11.3260983341
 20
11.4852985195
 40
0.7345
  0
CIRCLE
  5
4AD
100
AcDbEntity
  8
0
100
AcDbCircle
 62
7
  6
CONTINUOUS
 10
11.3260983341
 20
11.4852985195
 40
0.575
  0
CIRCLE
  5
4AE
100
AcDbEntity
  8
0
100
AcDbCircle
 62
7
  6
CONTINUOUS
 10
11.3260983341
 20
11.4852985195
 40
0.5380230114
  0
CIRCLE
  5
4AF
100
AcDbEntity
  8
0
100
AcDbCircle
 62
7
  6
CONTINUOUS
 10
11.3260983341
 20
11.4852985195
 40
0.49
  0
CIRCLE
  5
4B0
100
AcDbEntity
  8
0
100
AcDbCircle
 62
7
  6
CONTINUOUS
 10
11.3260983341
 20
11.4852985195
 40
0.4765
  0
SPLINE
  5
4B1
100
AcDbEntity
  8
0
100
AcDbSpline
 62
7
  6
CONTINUOUS
 70
0
 71
3
 72
8
 73
4
 74
2
 42
0.0000001
 43
0.0000001
 44
0.0000000001
 12
0.0001813718
 22
-0.0047103277
 32
0.0
 13
0.0001766304
 23
-0.0047105105
 33
0.0
 40
0.0
 40
0.0
 40
0.0
 40
0.0
 40
1.0
 40
1.0
 40
1.0
 40
1.0
 10
11.7830684933
 20
11.6613709659
 30
0.0
 10
11.7831289505
 20
11.6598008566
 30
0.0
 10
11.7831886182
 20
11.6582307165
 30
0.0
 10
11.783247495
 20
11.6566605464
 30
0.0
 11
11.7830684933
 21
11.6613709659
 31
0.0
 11
11.783247495
 21
11.6566605464
 31
0.0
  0
SPLINE
  5
4B2
100
AcDbEntity
  8
0
100
AcDbSpline
 62
7
  6
CONTINUOUS
 70
0
 71
3
 72
8
 73
4
 74
2
 42
0.0000001
 43
0.0000001
 44
0.0000000001
 12
0.0005784459
 22
-0.0154264245
 32
0.0
 13
0.0005274162
 23
-0.0154282677
 33
0.0
 40
0.0
 40
0.0
 40
0.0
 40
0.0
 40
1.0
 40
1.0
 40
1.0
 40
1.0
 10
11.783247495
 20
11.6566605464
 30
0.0
 10
11.7834403103
 20
11.6515184049
 30
0.0
 10
11.7836246435
 20
11.6463759412
 30
0.0
 10
11.7838004489
 20
11.6412331853
 30
0.0
 11
11.783247495
 21
11.6566605464
 31
0.0
 11
11.7838004489
 21
11.6412331853
 31
0.0
  0
SPLINE
  5
4B3
100
AcDbEntity
  8
0
100
AcDbSpline
 62
7
  6
CONTINUOUS
 70
0
 71
3
 72
9
 73
5
 74
3
 42
0.0000001
 43
0.0000001
 44
0.0000000001
 12
0.000179694
 22
-0.0052565079
 32
0.0
 13
0.0001737492
 23
-0.0052567078
 33
0.0
 40
0.0
 40
0.0
 40
0.0
 40
0.0
 40
0.5012678332
 40
1.0
 40
1.0
 40
1.0
 40
1.0
 10
11.7838004489
 20
11.6412331853
 30
0.0
 10
11.7838304739
 20
11.6403548792
 30
0.0
 10
11.7838898757
 20
11.6386026929
 30
0.0
 10
11.7839482867
 20
11.6368504733
 30
0.0
 10
11.7839771714
 20
11.6359765768
 30
0.0
 11
11.7838004489
 21
11.6412331853
 31
0.0
 11
11.7838897773
 21
11.6385982416
 31
0.0
 11
11.7839771714
 21
11.6359765768
 31
0.0
  0
SPLINE
  5
4B4
100
AcDbEntity
  8
0
100
AcDbSpline
 62
7
  6
CONTINUOUS
 70
0
 71
3
 72
9
 73
5
 74
3
 42
0.0000001
 43
0.0000001
 44
0.0000000001
 12
-0.0001737492
 22
-0.0052567078
 32
0.0
 13
-0.000179694
 23
-0.0052565079
 33
0.0
 40
0.0
 40
0.0
 40
0.0
 40
0.0
 40
0.4987321668
 40
1.0
 40
1.0
 40
1.0
 40
1.0
 10
11.7839771714
 20
11.3346204622
 30
0.0
 10
11.7839482867
 20
11.3337465658
 30
0.0
 10
11.7838898757
 20
11.3319943461
 30
0.0
 10
11.7838304739
 20
11.3302421598
 30
0.0
 10
11.7838004489
 20
11.3293638537
 30
0.0
 11
11.7839771714
 21
11.3346204622
 31
0.0
 11
11.7838897773
 21
11.3319987975
 31
0.0
 11
11.7838004489
 21
11.3293638537
 31
0.0
  0
SPLINE
  5
4B5
100
AcDbEntity
  8
0
100
AcDbSpline
 62
7
  6
CONTINUOUS
 70
0
 71
3
 72
8
 73
4
 74
2
 42
0.0000001
 43
0.0000001
 44
0.0000000001
 12
-0.0005274162
 22
-0.0154282677
 32
0.0
 13
-0.0005784459
 23
-0.0154264245
 33
0.0
 40
0.0
 40
0.0
 40
0.0
 40
0.0
 40
1.0
 40
1.0
 40
1.0
 40
1.0
 10
11.7838004489
 20
11.3293638537
 30
0.0
 10
11.7836246435
 20
11.3242210978
 30
0.0
 10
11.7834403103
 20
11.3190786342
 30
0.0
 10
11.783247495
 20
11.3139364927
 30
0.0
 11
11.7838004489
 21
11.3293638537
 31
0.0
 11
11.783247495
 21
11.3139364927
 31
0.0
  0
SPLINE
  5
4B6
100
AcDbEntity
  8
0
100
AcDbSpline
 62
7
  6
CONTINUOUS
 70
0
 71
3
 72
8
 73
4
 74
2
 42
0.0000001
 43
0.0000001
 44
0.0000000001
 12
-0.0001766304
 22
-0.0047105105
 32
0.0
 13
-0.0001813718
 23
-0.0047103277
 33
0.0
 40
0.0
 40
0.0
 40
0.0
 40
0.0
 40
1.0
 40
1.0
 40
1.0
 40
1.0
 10
11.783247495
 20
11.3139364927
 30
0.0
 10
11.7831886182
 20
11.3123663225
 30
0.0
 10
11.7831289505
 20
11.3107961824
 30
0.0
 10
11.7830684933
 20
11.3092260732
 30
0.0
 11
11.783247495
 21
11.3139364927
 31
0.0
 11
11.7830684933
 21
11.3092260732
 31
0.0
  0
SPLINE
  5
4B7
100
AcDbEntity
  8
0
100
AcDbSpline
 62
7
  6
CONTINUOUS
 70
0
 71
3
 72
8
 73
4
 74
2
 42
0.0000001
 43
0.0000001
 44
0.0000000001
 12
-0.0001813718
 22
0.0047103277
 32
0.0
 13
-0.0001766304
 23
0.0047105105
 33
0.0
 40
0.0
 40
0.0
 40
0.0
 40
0.0
 40
1.0
 40
1.0
 40
1.0
 40
1.0
 10
10.8691281749
 20
11.3092260732
 30
0.0
 10
10.8690677177
 20
11.3107961824
 30
0.0
 10
10.86900805
 20
11.3123663225
 30
0.0
 10
10.8689491732
 20
11.3139364927
 30
0.0
 11
10.8691281749
 21
11.3092260732
 31
0.0
 11
10.8689491732
 21
11.3139364927
 31
0.0
  0
SPLINE
  5
4B8
100
AcDbEntity
  8
0
100
AcDbSpline
 62
7
  6
CONTINUOUS
 70
0
 71
3
 72
8
 73
4
 74
2
 42
0.0000001
 43
0.0000001
 44
0.0000000001
 12
-0.0005784459
 22
0.0154264245
 32
0.0
 13
-0.0005274162
 23
0.0154282677
 33
0.0
 40
0.0
 40
0.0
 40
0.0
 40
0.0
 40
1.0
 40
1.0
 40
1.0
 40
1.0
 10
10.8689491732
 20
11.3139364927
 30
0.0
 10
10.8687563579
 20
11.3190786342
 30
0.0
 10
10.8685720247
 20
11.3242210978
 30
0.0
 10
10.8683962193
 20
11.3293638537
 30
0.0
 11
10.8689491732
 21
11.3139364927
 31
0.0
 11
10.8683962193
 21
11.3293638537
 31
0.0
  0
SPLINE
  5
4B9
100
AcDbEntity
  8
0
100
AcDbSpline
 62
7
  6
CONTINUOUS
 70
0
 71
3
 72
9
 73
5
 74
3
 42
0.0000001
 43
0.0000001
 44
0.0000000001
 12
-0.000179694
 22
0.0052565079
 32
0.0
 13
-0.0001737492
 23
0.0052567078
 33
0.0
 40
0.0
 40
0.0
 40
0.0
 40
0.0
 40
0.5012678331
 40
1.0
 40
1.0
 40
1.0
 40
1.0
 10
10.8683962193
 20
11.3293638537
 30
0.0
 10
10.8683661943
 20
11.3302421598
 30
0.0
 10
10.8683067925
 20
11.3319943461
 30
0.0
 10
10.8682483815
 20
11.3337465658
 30
0.0
 10
10.8682194968
 20
11.3346204622
 30
0.0
 11
10.8683962193
 21
11.3293638537
 31
0.0
 11
10.8683068909
 21
11.3319987975
 31
0.0
 11
10.8682194968
 21
11.3346204622
 31
0.0
  0
SPLINE
  5
4BA
100
AcDbEntity
  8
0
100
AcDbSpline
 62
7
  6
CONTINUOUS
 70
0
 71
3
 72
9
 73
5
 74
3
 42
0.0000001
 43
0.0000001
 44
0.0000000001
 12
0.0001737492
 22
0.0052567078
 32
0.0
 13
0.000179694
 23
0.0052565079
 33
0.0
 40
0.0
 40
0.0
 40
0.0
 40
0.0
 40
0.4987321669
 40
1.0
 40
1.0
 40
1.0
 40
1.0
 10
10.8682194968
 20
11.6359765768
 30
0.0
 10
10.8682483815
 20
11.6368504733
 30
0.0
 10
10.8683067925
 20
11.6386026929
 30
0.0
 10
10.8683661943
 20
11.6403548792
 30
0.0
 10
10.8683962193
 20
11.6412331853
 30
0.0
 11
10.8682194968
 21
11.6359765768
 31
0.0
 11
10.8683068909
 21
11.6385982416
 31
0.0
 11
10.8683962193
 21
11.6412331853
 31
0.0
  0
SPLINE
  5
4BB
100
AcDbEntity
  8
0
100
AcDbSpline
 62
7
  6
CONTINUOUS
 70
0
 71
3
 72
8
 73
4
 74
2
 42
0.0000001
 43
0.0000001
 44
0.0000000001
 12
0.0005274162
 22
0.0154282677
 32
0.0
 13
0.0005784459
 23
0.0154264245
 33
0.0
 40
0.0
 40
0.0
 40
0.0
 40
0.0
 40
1.0
 40
1.0
 40
1.0
 40
1.0
 10
10.8683962193
 20
11.6412331853
 30
0.0
 10
10.8685720247
 20
11.6463759412
 30
0.0
 10
10.8687563579
 20
11.6515184049
 30
0.0
 10
10.8689491732
 20
11.6566605464
 30
0.0
 11
10.8683962193
 21
11.6412331853
 31
0.0
 11
10.8689491732
 21
11.6566605464
 31
0.0
  0
SPLINE
  5
4BC
100
AcDbEntity
  8
0
100
AcDbSpline
 62
7
  6
CONTINUOUS
 70
0
 71
3
 72
8
 73
4
 74
2
 42
0.0000001
 43
0.0000001
 44
0.0000000001
 12
0.0001766304
 22
0.0047105105
 32
0.0
 13
0.0001813718
 23
0.0047103277
 33
0.0
 40
0.0
 40
0.0
 40
0.0
 40
0.0
 40
1.0
 40
1.0
 40
1.0
 40
1.0
 10
10.8689491732
 20
11.6566605464
 30
0.0
 10
10.86900805
 20
11.6582307165
 30
0.0
 10
10.8690677177
 20
11.6598008566
 30
0.0
 10
10.8691281749
 20
11.6613709659
 30
0.0
 11
10.8689491732
 21
11.6566605464
 31
0.0
 11
10.8691281749
 21
11.6613709659
 31
0.0
  0
SPLINE
  5
4BD
100
AcDbEntity
  8
0
100
AcDbSpline
 62
7
  6
CONTINUOUS
 70
0
 71
3
 72
8
 73
4
 74
2
 42
0.0000001
 43
0.0000001
 44
0.0000000001
 12
0.0125103247
 22
-0.0067922407
 32
0.0
 13
0.0124896463
 23
-0.0068302105
 33
0.0
 40
0.0
 40
0.0
 40
0.0
 40
0.0
 40
1.0
 40
1.0
 40
1.0
 40
1.0
 10
11.7017700176
 20
11.778424834
 30
0.0
 10
11.7059401258
 20
11.7761607538
 30
0.0
 10
11.7101066503
 20
11.7738900672
 30
0.0
 10
11.7142698658
 20
11.7716133304
 30
0.0
 11
11.7017700176
 21
11.778424834
 31
0.0
 11
11.7142698658
 21
11.7716133304
 31
0.0
  0
SPLINE
  5
4BE
100
AcDbEntity
  8
0
100
AcDbSpline
 62
7
  6
CONTINUOUS
 70
0
 71
3
 72
9
 73
5
 74
3
 42
0.0000001
 43
0.0000001
 44
0.0000000001
 12
0.0031058942
 22
-0.0016985198
 32
0.0
 13
0.0031046788
 23
-0.0017007398
 33
0.0
 40
0.0
 40
0.0
 40
0.0
 40
0.0
 40
0.4854133946
 40
1.0
 40
1.0
 40
1.0
 40
1.0
 10
11.7142698658
 20
11.7716133304
 30
0.0
 10
11.7147724133
 20
11.7713385023
 30
0.0
 10
11.7158076121
 20
11.7707721474
 30
0.0
 10
11.7168426082
 20
11.7702054226
 30
0.0
 10
11.7173751503
 20
11.7699136966
 30
0.0
 11
11.7142698658
 21
11.7716133304
 31
0.0
 11
11.7157773643
 21
11.7707885827
 31
0.0
 11
11.7173751503
 21
11.7699136966
 31
0.0
  0
SPLINE
  5
4BF
100
AcDbEntity
  8
0
100
AcDbSpline
 62
7
  6
CONTINUOUS
 70
0
 71
3
 72
8
 73
4
 74
2
 42
0.0000001
 43
0.0000001
 44
0.0000000001
 12
0.0071547979
 22
-0.0039193909
 32
0.0
 13
0.0071485461
 23
-0.0039307777
 33
0.0
 40
0.0
 40
0.0
 40
0.0
 40
0.0
 40
1.0
 40
1.0
 40
1.0
 40
1.0
 10
11.7173751503
 20
11.7699136966
 30
0.0
 10
11.7197600829
 20
11.7686072329
 30
0.0
 10
11.7221439501
 20
11.767298825
 30
0.0
 10
11.7245267988
 20
11.7659885658
 30
0.0
 11
11.7173751503
 21
11.7699136966
 31
0.0
 11
11.7245267988
 21
11.7659885658
 31
0.0
  0
SPLINE
  5
4C0
100
AcDbEntity
  8
0
100
AcDbSpline
 62
7
  6
CONTINUOUS
 70
0
 71
3
 72
8
 73
4
 74
2
 42
0.0000001
 43
0.0000001
 44
0.0000000001
 12
0.0039640266
 22
-0.002179703
 32
0.0
 13
0.0039621715
 23
-0.0021830711
 33
0.0
 40
0.0
 40
0.0
 40
0.0
 40
0.0
 40
1.0
 40
1.0
 40
1.0
 40
1.0
 10
11.7245267988
 20
11.7659885658
 30
0.0
 10
11.725848141
 20
11.7652619981
 30
0.0
 10
11.72716917
 20
11.7645348612
 30
0.0
 10
11.7284898939
 20
11.7638071708
 30
0.0
 11
11.7245267988
 21
11.7659885658
 31
0.0
 11
11.7284898939
 21
11.7638071708
 31
0.0
  0
SPLINE
  5
4C1
100
AcDbEntity
  8
0
100
AcDbSpline
 62
7
  6
CONTINUOUS
 70
0
 71
3
 72
8
 73
4
 74
2
 42
0.0000001
 43
0.0000001
 44
0.0000000001
 12
0.0039621715
 22
0.0021830711
 32
0.0
 13
0.0039640266
 23
0.002179703
 33
0.0
 40
0.0
 40
0.0
 40
0.0
 40
0.0
 40
1.0
 40
1.0
 40
1.0
 40
1.0
 10
10.9237067743
 20
11.7638071708
 30
0.0
 10
10.9250274982
 20
11.7645348612
 30
0.0
 10
10.9263485272
 20
11.7652619981
 30
0.0
 10
10.9276698694
 20
11.7659885658
 30
0.0
 11
10.9237067743
 21
11.7638071708
 31
0.0
 11
10.9276698694
 21
11.7659885658
 31
0.0
  0
SPLINE
  5
4C2
100
AcDbEntity
  8
0
100
AcDbSpline
 62
7
  6
CONTINUOUS
 70
0
 71
3
 72
8
 73
4
 74
2
 42
0.0000001
 43
0.0000001
 44
0.0000000001
 12
0.0071485461
 22
0.0039307777
 32
0.0
 13
0.0071547979
 23
0.0039193909
 33
0.0
 40
0.0
 40
0.0
 40
0.0
 40
0.0
 40
1.0
 40
1.0
 40
1.0
 40
1.0
 10
10.9276698694
 20
11.7659885658
 30
0.0
 10
10.9300527181
 20
11.767298825
 30
0.0
 10
10.9324365853
 20
11.7686072329
 30
0.0
 10
10.9348215179
 20
11.7699136966
 30
0.0
 11
10.9276698694
 21
11.7659885658
 31
0.0
 11
10.9348215179
 21
11.7699136966
 31
0.0
  0
SPLINE
  5
4C3
100
AcDbEntity
  8
0
100
AcDbSpline
 62
7
  6
CONTINUOUS
 70
0
 71
3
 72
9
 73
5
 74
3
 42
0.0000001
 43
0.0000001
 44
0.0000000001
 12
0.0031046788
 22
0.0017007398
 32
0.0
 13
0.0031058942
 23
0.0016985198
 33
0.0
 40
0.0
 40
0.0
 40
0.0
 40
0.0
 40
0.5145866055
 40
1.0
 40
1.0
 40
1.0
 40
1.0
 10
10.9348215179
 20
11.7699136966
 30
0.0
 10
10.93535406
 20
11.7702054226
 30
0.0
 10
10.9363890561
 20
11.7707721474
 30
0.0
 10
10.9374242549
 20
11.7713385023
 30
0.0
 10
10.9379268024
 20
11.7716133304
 30
0.0
 11
10.9348215179
 21
11.7699136966
 31
0.0
 11
10.9364193039
 21
11.7707885827
 31
0.0
 11
10.9379268024
 21
11.7716133304
 31
0.0
  0
SPLINE
  5
4C4
100
AcDbEntity
  8
0
100
AcDbSpline
 62
7
  6
CONTINUOUS
 70
0
 71
3
 72
8
 73
4
 74
2
 42
0.0000001
 43
0.0000001
 44
0.0000000001
 12
0.0124896463
 22
0.0068302105
 32
0.0
 13
0.0125103247
 23
0.0067922407
 33
0.0
 40
0.0
 40
0.0
 40
0.0
 40
0.0
 40
1.0
 40
1.0
 40
1.0
 40
1.0
 10
10.9379268024
 20
11.7716133304
 30
0.0
 10
10.9420900178
 20
11.7738900672
 30
0.0
 10
10.9462565424
 20
11.7761607538
 30
0.0
 10
10.9504266506
 20
11.778424834
 30
0.0
 11
10.9379268024
 21
11.7716133304
 31
0.0
 11
10.9504266506
 21
11.778424834
 31
0.0
  0
SPLINE
  5
4C5
100
AcDbEntity
  8
0
100
AcDbSpline
 62
7
  6
CONTINUOUS
 70
0
 71
3
 72
8
 73
4
 74
2
 42
0.0000001
 43
0.0000001
 44
0.0000000001
 12
-0.0001818241
 22
0.0047220743
 32
0.0
 13
-0.000177059
 23
0.0047222571
 33
0.0
 40
0.0
 40
0.0
 40
0.0
 40
0.0
 40
1.0
 40
1.0
 40
1.0
 40
1.0
 10
10.8691281749
 20
11.3092260732
 30
0.0
 10
10.8690675669
 20
11.3108000979
 30
0.0
 10
10.8690077524
 20
11.3123741536
 30
0.0
 10
10.8689487327
 20
11.3139482394
 30
0.0
 11
10.8691281749
 21
11.3092260732
 31
0.0
 11
10.8689487327
 21
11.3139482394
 31
0.0
  0
SPLINE
  5
4C6
100
AcDbEntity
  8
0
100
AcDbSpline
 62
7
  6
CONTINUOUS
 70
0
 71
3
 72
9
 73
5
 74
3
 42
0.0000001
 43
0.0000001
 44
0.0000000001
 12
-0.0005779671
 22
0.0154146866
 32
0.0
 13
-0.0005270143
 23
0.0154165125
 33
0.0
 40
0.0
 40
0.0
 40
0.0
 40
0.0
 40
0.6595619526
 40
1.0
 40
1.0
 40
1.0
 40
1.0
 10
10.8689487327
 20
11.3139482394
 30
0.0
 10
10.8688216643
 20
11.3173372196
 30
0.0
 10
10.8686345947
 20
11.3224756594
 30
0.0
 10
10.8684560245
 20
11.3276143979
 30
0.0
 10
10.8683962193
 20
11.3293638537
 30
0.0
 11
10.8689487327
 21
11.3139482394
 31
0.0
 11
10.8685785937
 21
11.3241155883
 31
0.0
 11
10.8683962193
 21
11.3293638537
 31
0.0
  0
SPLINE
  5
4C7
100
AcDbEntity
  8
0
100
AcDbSpline
 62
7
  6
CONTINUOUS
 70
0
 71
3
 72
8
 73
4
 74
2
 42
0.0000001
 43
0.0000001
 44
0.0000000001
 12
-0.000179694
 22
0.005256508
 32
0.0
 13
-0.0001737494
 23
0.0052567079
 33
0.0
 40
0.0
 40
0.0
 40
0.0
 40
0.0
 40
1.0
 40
1.0
 40
1.0
 40
1.0
 10
10.8683962193
 20
11.3293638537
 30
0.0
 10
10.8683363213
 20
11.3311160231
 30
0.0
 10
10.8682774132
 20
11.3328682262
 30
0.0
 10
10.8682194967
 20
11.3346204622
 30
0.0
 11
10.8683962193
 21
11.3293638537
 31
0.0
 11
10.8682194967
 21
11.3346204622
 31
0.0
  0
SPLINE
  5
4C8
100
AcDbEntity
  8
0
100
AcDbSpline
 62
7
  6
CONTINUOUS
 70
0
 71
3
 72
9
 73
5
 74
3
 42
0.0000001
 43
0.0000001
 44
0.0000000001
 12
-0.0006954238
 22
0.0210397287
 32
0.0
 13
-0.0005997781
 23
0.021042663
 33
0.0
 40
0.0
 40
0.0
 40
0.0
 40
0.0
 40
0.2501999935
 40
1.0
 40
1.0
 40
1.0
 40
1.0
 10
10.8682194967
 20
11.3346204622
 30
0.0
 10
10.8681614984
 20
11.3363751755
 30
0.0
 10
10.8679336651
 20
11.34338855
 30
0.0
 10
10.8677217459
 20
11.3504024353
 30
0.0
 10
10.8675718413
 20
11.3556616982
 30
0.0
 11
10.8682194967
 21
11.3346204622
 31
0.0
 11
10.8680484868
 21
11.3398847
 31
0.0
 11
10.8675718413
 21
11.3556616982
 31
0.0
  0
SPLINE
  5
4C9
100
AcDbEntity
  8
0
100
AcDbSpline
 62
7
  6
CONTINUOUS
 70
0
 71
3
 72
9
 73
5
 74
3
 42
0.0000001
 43
0.0000001
 44
0.0000000001
 12
0.0005997781
 22
0.021042663
 32
0.0
 13
0.0006954238
 23
0.0210397287
 33
0.0
 40
0.0
 40
0.0
 40
0.0
 40
0.0
 40
0.7498000065
 40
1.0
 40
1.0
 40
1.0
 40
1.0
 10
10.8675718413
 20
11.6149353408
 30
0.0
 10
10.8677217459
 20
11.6201946038
 30
0.0
 10
10.8679336651
 20
11.627208489
 30
0.0
 10
10.8681614984
 20
11.6342218635
 30
0.0
 10
10.8682194967
 20
11.6359765769
 30
0.0
 11
10.8675718413
 21
11.6149353408
 31
0.0
 11
10.8680484868
 21
11.630712339
 31
0.0
 11
10.8682194967
 21
11.6359765769
 31
0.0
  0
SPLINE
  5
4CA
100
AcDbEntity
  8
0
100
AcDbSpline
 62
7
  6
CONTINUOUS
 70
0
 71
3
 72
8
 73
4
 74
2
 42
0.0000001
 43
0.0000001
 44
0.0000000001
 12
0.0001737494
 22
0.0052567079
 32
0.0
 13
0.000179694
 23
0.005256508
 33
0.0
 40
0.0
 40
0.0
 40
0.0
 40
0.0
 40
1.0
 40
1.0
 40
1.0
 40
1.0
 10
10.8682194967
 20
11.6359765769
 30
0.0
 10
10.8682774132
 20
11.6377288128
 30
0.0
 10
10.8683363213
 20
11.6394810159
 30
0.0
 10
10.8683962193
 20
11.6412331853
 30
0.0
 11
10.8682194967
 21
11.6359765769
 31
0.0
 11
10.8683962193
 21
11.6412331853
 31
0.0
  0
SPLINE
  5
4CB
100
AcDbEntity
  8
0
100
AcDbSpline
 62
7
  6
CONTINUOUS
 70
0
 71
3
 72
9
 73
5
 74
3
 42
0.0000001
 43
0.0000001
 44
0.0000000001
 12
0.0005270143
 22
0.0154165125
 32
0.0
 13
0.0005779671
 23
0.0154146866
 33
0.0
 40
0.0
 40
0.0
 40
0.0
 40
0.0
 40
0.3404380474
 40
1.0
 40
1.0
 40
1.0
 40
1.0
 10
10.8683962193
 20
11.6412331853
 30
0.0
 10
10.8684560245
 20
11.6429826411
 30
0.0
 10
10.8686345947
 20
11.6481213796
 30
0.0
 10
10.8688216643
 20
11.6532598194
 30
0.0
 10
10.8689487327
 20
11.6566487997
 30
0.0
 11
10.8683962193
 21
11.6412331853
 31
0.0
 11
10.8685785937
 21
11.6464814507
 31
0.0
 11
10.8689487327
 21
11.6566487997
 31
0.0
  0
SPLINE
  5
4CC
100
AcDbEntity
  8
0
100
AcDbSpline
 62
7
  6
CONTINUOUS
 70
0
 71
3
 72
8
 73
4
 74
2
 42
0.0000001
 43
0.0000001
 44
0.0000000001
 12
0.000177059
 22
0.0047222571
 32
0.0
 13
0.0001818241
 23
0.0047220743
 33
0.0
 40
0.0
 40
0.0
 40
0.0
 40
0.0
 40
1.0
 40
1.0
 40
1.0
 40
1.0
 10
10.8689487327
 20
11.6566487997
 30
0.0
 10
10.8690077524
 20
11.6582228854
 30
0.0
 10
10.8690675669
 20
11.6597969411
 30
0.0
 10
10.8691281749
 20
11.6613709659
 30
0.0
 11
10.8689487327
 21
11.6566487997
 31
0.0
 11
10.8691281749
 21
11.6613709659
 31
0.0
  0
SPLINE
  5
4CD
100
AcDbEntity
  8
0
100
AcDbSpline
 62
7
  6
CONTINUOUS
 70
0
 71
3
 72
9
 73
5
 74
3
 42
0.0000001
 43
0.0000001
 44
0.0000000001
 12
-0.0005997781
 22
-0.021042663
 32
0.0
 13
-0.0006954238
 23
-0.0210397287
 33
0.0
 40
0.0
 40
0.0
 40
0.0
 40
0.0
 40
0.7498000065
 40
1.0
 40
1.0
 40
1.0
 40
1.0
 10
11.7846248269
 20
11.3556616982
 30
0.0
 10
11.7844749223
 20
11.3504024353
 30
0.0
 10
11.7842630031
 20
11.34338855
 30
0.0
 10
11.7840351698
 20
11.3363751755
 30
0.0
 10
11.7839771715
 20
11.3346204622
 30
0.0
 11
11.7846248269
 21
11.3556616982
 31
0.0
 11
11.7841481814
 21
11.3398847
 31
0.0
 11
11.7839771715
 21
11.3346204622
 31
0.0
  0
SPLINE
  5
4CE
100
AcDbEntity
  8
0
100
AcDbSpline
 62
7
  6
CONTINUOUS
 70
0
 71
3
 72
8
 73
4
 74
2
 42
0.0000001
 43
0.0000001
 44
0.0000000001
 12
-0.0001737494
 22
-0.0052567079
 32
0.0
 13
-0.000179694
 23
-0.005256508
 33
0.0
 40
0.0
 40
0.0
 40
0.0
 40
0.0
 40
1.0
 40
1.0
 40
1.0
 40
1.0
 10
11.7839771715
 20
11.3346204622
 30
0.0
 10
11.783919255
 20
11.3328682262
 30
0.0
 10
11.7838603469
 20
11.3311160231
 30
0.0
 10
11.7838004489
 20
11.3293638537
 30
0.0
 11
11.7839771715
 21
11.3346204622
 31
0.0
 11
11.7838004489
 21
11.3293638537
 31
0.0
  0
SPLINE
  5
4CF
100
AcDbEntity
  8
0
100
AcDbSpline
 62
7
  6
CONTINUOUS
 70
0
 71
3
 72
9
 73
5
 74
3
 42
0.0000001
 43
0.0000001
 44
0.0000000001
 12
-0.0005270143
 22
-0.0154165125
 32
0.0
 13
-0.0005779671
 23
-0.0154146866
 33
0.0
 40
0.0
 40
0.0
 40
0.0
 40
0.0
 40
0.3404380475
 40
1.0
 40
1.0
 40
1.0
 40
1.0
 10
11.7838004489
 20
11.3293638537
 30
0.0
 10
11.7837406437
 20
11.3276143979
 30
0.0
 10
11.7835620735
 20
11.3224756594
 30
0.0
 10
11.7833750039
 20
11.3173372196
 30
0.0
 10
11.7832479355
 20
11.3139482394
 30
0.0
 11
11.7838004489
 21
11.3293638537
 31
0.0
 11
11.7836180744
 21
11.3241155883
 31
0.0
 11
11.7832479355
 21
11.3139482394
 31
0.0
  0
SPLINE
  5
4D0
100
AcDbEntity
  8
0
100
AcDbSpline
 62
7
  6
CONTINUOUS
 70
0
 71
3
 72
8
 73
4
 74
2
 42
0.0000001
 43
0.0000001
 44
0.0000000001
 12
-0.000177059
 22
-0.0047222571
 32
0.0
 13
-0.0001818241
 23
-0.0047220743
 33
0.0
 40
0.0
 40
0.0
 40
0.0
 40
0.0
 40
1.0
 40
1.0
 40
1.0
 40
1.0
 10
11.7832479355
 20
11.3139482394
 30
0.0
 10
11.7831889158
 20
11.3123741536
 30
0.0
 10
11.7831291013
 20
11.3108000979
 30
0.0
 10
11.7830684933
 20
11.3092260732
 30
0.0
 11
11.7832479355
 21
11.3139482394
 31
0.0
 11
11.7830684933
 21
11.3092260732
 31
0.0
  0
SPLINE
  5
4D1
100
AcDbEntity
  8
0
100
AcDbSpline
 62
7
  6
CONTINUOUS
 70
0
 71
3
 72
8
 73
4
 74
2
 42
0.0000001
 43
0.0000001
 44
0.0000000001
 12
0.0001818241
 22
-0.0047220743
 32
0.0
 13
0.000177059
 23
-0.0047222571
 33
0.0
 40
0.0
 40
0.0
 40
0.0
 40
0.0
 40
1.0
 40
1.0
 40
1.0
 40
1.0
 10
11.7830684933
 20
11.6613709659
 30
0.0
 10
11.7831291013
 20
11.6597969411
 30
0.0
 10
11.7831889158
 20
11.6582228854
 30
0.0
 10
11.7832479355
 20
11.6566487997
 30
0.0
 11
11.7830684933
 21
11.6613709659
 31
0.0
 11
11.7832479355
 21
11.6566487997
 31
0.0
  0
SPLINE
  5
4D2
100
AcDbEntity
  8
0
100
AcDbSpline
 62
7
  6
CONTINUOUS
 70
0
 71
3
 72
9
 73
5
 74
3
 42
0.0000001
 43
0.0000001
 44
0.0000000001
 12
0.0005779671
 22
-0.0154146866
 32
0.0
 13
0.0005270143
 23
-0.0154165125
 33
0.0
 40
0.0
 40
0.0
 40
0.0
 40
0.0
 40
0.6595619525
 40
1.0
 40
1.0
 40
1.0
 40
1.0
 10
11.7832479355
 20
11.6566487997
 30
0.0
 10
11.7833750039
 20
11.6532598194
 30
0.0
 10
11.7835620735
 20
11.6481213796
 30
0.0
 10
11.7837406437
 20
11.6429826411
 30
0.0
 10
11.7838004489
 20
11.6412331853
 30
0.0
 11
11.7832479355
 21
11.6566487997
 31
0.0
 11
11.7836180744
 21
11.6464814507
 31
0.0
 11
11.7838004489
 21
11.6412331853
 31
0.0
  0
SPLINE
  5
4D3
100
AcDbEntity
  8
0
100
AcDbSpline
 62
7
  6
CONTINUOUS
 70
0
 71
3
 72
8
 73
4
 74
2
 42
0.0000001
 43
0.0000001
 44
0.0000000001
 12
0.000179694
 22
-0.005256508
 32
0.0
 13
0.0001737494
 23
-0.0052567079
 33
0.0
 40
0.0
 40
0.0
 40
0.0
 40
0.0
 40
1.0
 40
1.0
 40
1.0
 40
1.0
 10
11.7838004489
 20
11.6412331853
 30
0.0
 10
11.7838603469
 20
11.6394810159
 30
0.0
 10
11.783919255
 20
11.6377288128
 30
0.0
 10
11.7839771715
 20
11.6359765769
 30
0.0
 11
11.7838004489
 21
11.6412331853
 31
0.0
 11
11.7839771715
 21
11.6359765769
 31
0.0
  0
SPLINE
  5
4D4
100
AcDbEntity
  8
0
100
AcDbSpline
 62
7
  6
CONTINUOUS
 70
0
 71
3
 72
9
 73
5
 74
3
 42
0.0000001
 43
0.0000001
 44
0.0000000001
 12
0.0006954238
 22
-0.0210397287
 32
0.0
 13
0.0005997781
 23
-0.021042663
 33
0.0
 40
0.0
 40
0.0
 40
0.0
 40
0.0
 40
0.2501999935
 40
1.0
 40
1.0
 40
1.0
 40
1.0
 10
11.7839771715
 20
11.6359765769
 30
0.0
 10
11.7840351698
 20
11.6342218635
 30
0.0
 10
11.7842630031
 20
11.627208489
 30
0.0
 10
11.7844749223
 20
11.6201946038
 30
0.0
 10
11.7846248269
 20
11.6149353408
 30
0.0
 11
11.7839771715
 21
11.6359765769
 31
0.0
 11
11.7841481814
 21
11.630712339
 31
0.0
 11
11.7846248269
 21
11.6149353408
 31
0.0
  0
SPLINE
  5
4D5
100
AcDbEntity
  8
0
100
AcDbSpline
 62
7
  6
CONTINUOUS
 70
0
 71
3
 72
8
 73
4
 74
2
 42
0.0000001
 43
0.0000001
 44
0.0000000001
 12
0.0039678458
 22
0.002186197
 32
0.0
 13
0.003969706
 23
0.0021828186
 33
0.0
 40
0.0
 40
0.0
 40
0.0
 40
0.0
 40
1.0
 40
1.0
 40
1.0
 40
1.0
 10
10.9237067744
 20
11.7638071707
 30
0.0
 10
10.9250293896
 20
11.7645359031
 30
0.0
 10
10.926352311
 20
11.7652640802
 30
0.0
 10
10.9276755463
 20
11.7659916864
 30
0.0
 11
10.9237067744
 21
11.7638071707
 31
0.0
 11
10.9276755463
 21
11.7659916864
 31
0.0
  0
SPLINE
  5
4D6
100
AcDbEntity
  8
0
100
AcDbSpline
 62
7
  6
CONTINUOUS
 70
0
 71
3
 72
9
 73
5
 74
3
 42
0.0000001
 43
0.0000001
 44
0.0000000001
 12
0.0071428761
 22
0.0039276469
 32
0.0
 13
0.0071491144
 23
0.0039162799
 33
0.0
 40
0.0
 40
0.0
 40
0.0
 40
0.0
 40
0.5727315119
 40
1.0
 40
1.0
 40
1.0
 40
1.0
 10
10.9276755463
 20
11.7659916864
 30
0.0
 10
10.9290391964
 20
11.7667415154
 30
0.0
 10
10.9314207373
 20
11.7680496724
 30
0.0
 10
10.9338033208
 20
11.769355929
 30
0.0
 10
10.9348215179
 20
11.7699136966
 30
0.0
 11
10.9276755463
 21
11.7659916864
 31
0.0
 11
10.9317675054
 21
11.7682393375
 31
0.0
 11
10.9348215179
 21
11.7699136966
 31
0.0
  0
SPLINE
  5
4D7
100
AcDbEntity
  8
0
100
AcDbSpline
 62
7
  6
CONTINUOUS
 70
0
 71
3
 72
8
 73
4
 74
2
 42
0.0000001
 43
0.0000001
 44
0.0000000001
 12
0.0031046785
 22
0.0017007407
 32
0.0
 13
0.0031058947
 23
0.0016985187
 33
0.0
 40
0.0
 40
0.0
 40
0.0
 40
0.0
 40
1.0
 40
1.0
 40
1.0
 40
1.0
 10
10.9348215179
 20
11.7699136966
 30
0.0
 10
10.9358564107
 20
11.7704806102
 30
0.0
 10
10.9368915042
 20
11.7710471575
 30
0.0
 10
10.9379268025
 20
11.7716133304
 30
0.0
 11
10.9348215179
 21
11.7699136966
 31
0.0
 11
10.9379268025
 21
11.7716133304
 31
0.0
  0
SPLINE
  5
4D8
100
AcDbEntity
  8
0
100
AcDbSpline
 62
7
  6
CONTINUOUS
 70
0
 71
3
 72
9
 73
5
 74
3
 42
0.0000001
 43
0.0000001
 44
0.0000000001
 12
0.012489645
 22
0.0068302045
 32
0.0
 13
0.0125103277
 23
0.0067922423
 33
0.0
 40
0.0
 40
0.0
 40
0.0
 40
0.0
 40
0.2527115655
 40
1.0
 40
1.0
 40
1.0
 40
1.0
 10
10.9379268025
 20
11.7716133304
 30
0.0
 10
10.938978895
 20
11.7721886876
 30
0.0
 10
10.9431429467
 20
11.7744638927
 30
0.0
 10
10.9473103762
 20
11.7767329126
 30
0.0
 10
10.9504266506
 20
11.778424834
 30
0.0
 11
10.9379268025
 21
11.7716133304
 31
0.0
 11
10.9410837188
 21
11.7733382339
 31
0.0
 11
10.9504266506
 21
11.778424834
 31
0.0
  0
SPLINE
  5
4D9
100
AcDbEntity
  8
0
100
AcDbSpline
 62
7
  6
CONTINUOUS
 70
0
 71
3
 72
9
 73
5
 74
3
 42
0.0000001
 43
0.0000001
 44
0.0000000001
 12
0.0125103277
 22
-0.0067922423
 32
0.0
 13
0.012489645
 23
-0.0068302045
 33
0.0
 40
0.0
 40
0.0
 40
0.0
 40
0.0
 40
0.7472884346
 40
1.0
 40
1.0
 40
1.0
 40
1.0
 10
11.7017700176
 20
11.778424834
 30
0.0
 10
11.704886292
 20
11.7767329126
 30
0.0
 10
11.7090537215
 20
11.7744638927
 30
0.0
 10
11.7132177732
 20
11.7721886876
 30
0.0
 10
11.7142698657
 20
11.7716133304
 30
0.0
 11
11.7017700176
 21
11.778424834
 31
0.0
 11
11.7111129494
 21
11.7733382339
 31
0.0
 11
11.7142698657
 21
11.7716133304
 31
0.0
  0
SPLINE
  5
4DA
100
AcDbEntity
  8
0
100
AcDbSpline
 62
7
  6
CONTINUOUS
 70
0
 71
3
 72
8
 73
4
 74
2
 42
0.0000001
 43
0.0000001
 44
0.0000000001
 12
0.0031058947
 22
-0.0016985187
 32
0.0
 13
0.0031046785
 23
-0.0017007407
 33
0.0
 40
0.0
 40
0.0
 40
0.0
 40
0.0
 40
1.0
 40
1.0
 40
1.0
 40
1.0
 10
11.7142698657
 20
11.7716133304
 30
0.0
 10
11.715305164
 20
11.7710471575
 30
0.0
 10
11.7163402574
 20
11.7704806102
 30
0.0
 10
11.7173751503
 20
11.7699136966
 30
0.0
 11
11.7142698657
 21
11.7716133304
 31
0.0
 11
11.7173751503
 21
11.7699136966
 31
0.0
  0
SPLINE
  5
4DB
100
AcDbEntity
  8
0
100
AcDbSpline
 62
7
  6
CONTINUOUS
 70
0
 71
3
 72
9
 73
5
 74
3
 42
0.0000001
 43
0.0000001
 44
0.0000000001
 12
0.0071491144
 22
-0.0039162799
 32
0.0
 13
0.0071428761
 23
-0.0039276469
 33
0.0
 40
0.0
 40
0.0
 40
0.0
 40
0.0
 40
0.4272684881
 40
1.0
 40
1.0
 40
1.0
 40
1.0
 10
11.7173751503
 20
11.7699136966
 30
0.0
 10
11.7183933474
 20
11.769355929
 30
0.0
 10
11.7207759309
 20
11.7680496724
 30
0.0
 10
11.7231574718
 20
11.7667415154
 30
0.0
 10
11.7245211219
 20
11.7659916864
 30
0.0
 11
11.7173751503
 21
11.7699136966
 31
0.0
 11
11.7204291628
 21
11.7682393375
 31
0.0
 11
11.7245211219
 21
11.7659916864
 31
0.0
  0
SPLINE
  5
4DC
100
AcDbEntity
  8
0
100
AcDbSpline
 62
7
  6
CONTINUOUS
 70
0
 71
3
 72
8
 73
4
 74
2
 42
0.0000001
 43
0.0000001
 44
0.0000000001
 12
0.003969706
 22
-0.0021828186
 32
0.0
 13
0.0039678458
 23
-0.002186197
 33
0.0
 40
0.0
 40
0.0
 40
0.0
 40
0.0
 40
1.0
 40
1.0
 40
1.0
 40
1.0
 10
11.7245211219
 20
11.7659916864
 30
0.0
 10
11.7258443572
 20
11.7652640802
 30
0.0
 10
11.7271672786
 20
11.7645359031
 30
0.0
 10
11.7284898938
 20
11.7638071707
 30
0.0
 11
11.7245211219
 21
11.7659916864
 31
0.0
 11
11.7284898938
 21
11.7638071707
 31
0.0
  0
SPLINE
  5
4DD
100
AcDbEntity
  8
0
100
AcDbSpline
 62
7
  6
CONTINUOUS
 70
0
 71
3
 72
20
 73
16
 74
14
 42
0.0000001
 43
0.0000001
 44
0.0000000001
 12
-0.6545640906
 22
-0.1784174604
 32
0.0
 13
-0.6545640906
 23
0.1784174604
 33
0.0
 40
0.0
 40
0.0
 40
0.0
 40
0.0
 40
0.0813041834
 40
0.1599097226
 40
0.236730798
 40
0.3124857415
 40
0.3876619713
 40
0.4625776096
 40
0.5374223912
 40
0.6123380295
 40
0.6875142593
 40
0.7632692027
 40
0.8400902779
 40
0.9186958166
 40
1.0
 40
1.0
 40
1.0
 40
1.0
 10
11.6608263319
 20
7.1916827297
 30
0.0
 10
11.6430867323
 20
7.1868473677
 30
0.0
 10
11.6080440312
 20
7.1778828383
 30
0.0
 10
11.5557343093
 20
7.1664354232
 30
0.0
 10
11.5042599815
 20
7.1572071659
 30
0.0
 10
11.4532170476
 20
7.1502036567
 30
0.0
 10
11.4023441731
 20
7.1454771608
 30
0.0
 10
11.3515127534
 20
7.1430924342
 30
0.0
 10
11.3006839142
 20
7.1430924342
 30
0.0
 10
11.2498524946
 20
7.1454771608
 30
0.0
 10
11.1989796201
 20
7.1502036567
 30
0.0
 10
11.1479366863
 20
7.157207166
 30
0.0
 10
11.0964623586
 20
7.1664354233
 30
0.0
 10
11.0441526369
 20
7.1778828383
 30
0.0
 10
11.0091099359
 20
7.1868473677
 30
0.0
 10
10.9913703363
 20
7.1916827297
 30
0.0
 11
11.6608263319
 21
7.1916827297
 31
0.0
 11
11.6073771411
 21
7.1780500084
 31
0.0
 11
11.5552727985
 21
7.166684596
 31
0.0
 11
11.5039661874
 21
7.157519187
 31
0.0
 11
11.4530440845
 21
7.1505593456
 31
0.0
 11
11.4022580942
 21
7.1458605202
 31
0.0
 11
11.351487349
 21
7.1434889901
 31
0.0
 11
11.3007093186
 21
7.1434889901
 31
0.0
 11
11.2499385735
 21
7.1458605202
 31
0.0
 11
11.1991525832
 21
7.1505593457
 31
0.0
 11
11.1482304803
 21
7.1575191871
 31
0.0
 11
11.0969238693
 21
7.1666845961
 31
0.0
 11
11.0448195271
 21
7.1780500084
 31
0.0
 11
10.9913703363
 21
7.1916827297
 31
0.0
  0
SPLINE
  5
4DE
100
AcDbEntity
  8
0
100
AcDbSpline
 62
7
  6
CONTINUOUS
 70
0
 71
3
 72
20
 73
16
 74
14
 42
0.0000001
 43
0.0000001
 44
0.0000000001
 12
-0.3091913484
 22
-0.1685553362
 32
0.0
 13
-0.3091913484
 23
0.1685553362
 33
0.0
 40
0.0
 40
0.0
 40
0.0
 40
0.0
 40
0.0851933816
 40
0.1659070249
 40
0.2432643765
 40
0.3182185173
 40
0.391550966
 40
0.4639515026
 40
0.5360484982
 40
0.6084490348
 40
0.6817814835
 40
0.7567356242
 40
0.8340929757
 40
0.9148066184
 40
1.0
 40
1.0
 40
1.0
 40
1.0
 10
10.952187333
 20
7.1916827297
 30
0.0
 10
10.9434069808
 20
7.18689613
 30
0.0
 10
10.9260640754
 20
7.1780102605
 30
0.0
 10
10.8998948322
 20
7.1665364055
 30
0.0
 10
10.8741304309
 20
7.1572784348
 30
0.0
 10
10.8485649711
 20
7.1502447515
 30
0.0
 10
10.8230658625
 20
7.1454925083
 30
0.0
 10
10.7975723766
 20
7.1430926786
 30
0.0
 10
10.7720742913
 20
7.1430926786
 30
0.0
 10
10.7465808054
 20
7.1454925084
 30
0.0
 10
10.7210816968
 20
7.1502447515
 30
0.0
 10
10.6955162371
 20
7.1572784348
 30
0.0
 10
10.6697518358
 20
7.1665364055
 30
0.0
 10
10.6435825927
 20
7.1780102605
 30
0.0
 10
10.6262396874
 20
7.18689613
 30
0.0
 10
10.6174593352
 20
7.1916827297
 30
0.0
 11
10.952187333
 21
7.1916827297
 31
0.0
 11
10.9254627376
 21
7.1780500084
 31
0.0
 11
10.8994105663
 21
7.166684596
 31
0.0
 11
10.8737572607
 21
7.157519187
 31
0.0
 11
10.8482962093
 21
7.1505593456
 31
0.0
 11
10.8229032141
 21
7.1458605202
 31
0.0
 11
10.7975178416
 21
7.1434889901
 31
0.0
 11
10.7721288264
 21
7.1434889901
 31
0.0
 11
10.7467434538
 21
7.1458605202
 31
0.0
 11
10.7213504587
 21
7.1505593457
 31
0.0
 11
10.6958894072
 21
7.1575191871
 31
0.0
 11
10.6702361017
 21
7.1666845961
 31
0.0
 11
10.6441839306
 21
7.1780500084
 31
0.0
 11
10.6174593352
 21
7.1916827297
 31
0.0
  0
SPLINE
  5
4DF
100
AcDbEntity
  8
0
100
AcDbSpline
 62
7
  6
CONTINUOUS
 70
0
 71
3
 72
20
 73
16
 74
14
 42
0.0000001
 43
0.0000001
 44
0.0000000001
 12
-0.3091913484
 22
-0.1685553362
 32
0.0
 13
-0.3091913484
 23
0.1685553362
 33
0.0
 40
0.0
 40
0.0
 40
0.0
 40
0.0
 40
0.0851933816
 40
0.1659070249
 40
0.2432643765
 40
0.3182185173
 40
0.391550966
 40
0.4639515026
 40
0.5360484982
 40
0.6084490348
 40
0.6817814835
 40
0.7567356242
 40
0.8340929757
 40
0.9148066184
 40
1.0
 40
1.0
 40
1.0
 40
1.0
 10
12.034737333
 20
7.1916827297
 30
0.0
 10
12.0259569808
 20
7.18689613
 30
0.0
 10
12.0086140754
 20
7.1780102605
 30
0.0
 10
11.9824448322
 20
7.1665364055
 30
0.0
 10
11.9566804309
 20
7.1572784348
 30
0.0
 10
11.9311149711
 20
7.1502447515
 30
0.0
 10
11.9056158625
 20
7.1454925083
 30
0.0
 10
11.8801223766
 20
7.1430926786
 30
0.0
 10
11.8546242913
 20
7.1430926786
 30
0.0
 10
11.8291308054
 20
7.1454925084
 30
0.0
 10
11.8036316968
 20
7.1502447515
 30
0.0
 10
11.7780662371
 20
7.1572784348
 30
0.0
 10
11.7523018358
 20
7.1665364055
 30
0.0
 10
11.7261325927
 20
7.1780102605
 30
0.0
 10
11.7087896874
 20
7.18689613
 30
0.0
 10
11.7000093352
 20
7.1916827297
 30
0.0
 11
12.034737333
 21
7.1916827297
 31
0.0
 11
12.0080127376
 21
7.1780500084
 31
0.0
 11
11.9819605663
 21
7.166684596
 31
0.0
 11
11.9563072607
 21
7.157519187
 31
0.0
 11
11.9308462093
 21
7.1505593456
 31
0.0
 11
11.9054532141
 21
7.1458605202
 31
0.0
 11
11.8800678416
 21
7.1434889901
 31
0.0
 11
11.8546788264
 21
7.1434889901
 31
0.0
 11
11.8292934538
 21
7.1458605202
 31
0.0
 11
11.8039004587
 21
7.1505593457
 31
0.0
 11
11.7784394072
 21
7.1575191871
 31
0.0
 11
11.7527861017
 21
7.1666845961
 31
0.0
 11
11.7267339306
 21
7.1780500084
 31
0.0
 11
11.7000093352
 21
7.1916827297
 31
0.0
  0
ENDSEC
  0
SECTION
  2
OBJECTS
  0
DICTIONARY
  5
C
100
AcDbDictionary
280
0
281
1
  3
ACAD_GROUP
350
D
  3
ACAD_MLINESTYLE
350
17
  3
ACAD_LAYOUT
350
1A
  3
ACAD_PLOTSETTINGS
350
19
  3
ACAD_PLOTSTYLENAME
350
E
  0
DICTIONARY
  5
D
102
{ACAD_REACTORS
330
C
102
}
100
AcDbDictionary
280
0
281
1
  0
ACDBDICTIONARYWDFLT
  5
E
102
{ACAD_REACTORS
330
C
102
}
100
AcDbDictionary
281
1
  3
Normal
350
F
100
AcDbDictionaryWithDefault
340
F
  0
DICTIONARY
  5
17
102
{ACAD_REACTORS
330
C
102
}
100
AcDbDictionary
280
0
281
1
  3
Standard
350
18
  0
DICTIONARY
  5
19
102
{ACAD_REACTORS
330
C
102
}
100
AcDbDictionary
281
1
  0
DICTIONARY
  5
1A
102
{ACAD_REACTORS
330
C
102
}
100
AcDbDictionary
281
1
  3
Layout1
350
1E
  3
Model
350
22
  0
ACDBPLACEHOLDER
  5
F
102
{ACAD_REACTORS
330
E
102
}
  0
MLINESTYLE
  5
18
102
{ACAD_REACTORS
330
17
102
}
100
AcDbMlineStyle
  2
STANDARD
 70
0
  3

 62
256
 51
90.0
 52
90.0
 71
2
 49
0.5
 62
256
  6
BYLAYER
 49
-0.5
 62
256
  6
BYLAYER
  0
LAYOUT
  5
1E
102
{ACAD_REACTORS
330
1A
102
}
100
AcDbPlotSettings
  1

  2

  4

  6

 40
0.0
 41
0.0
 42
0.0
 43
0.0
 44
0.0
 45
0.0
 46
0.0
 47
0.0
 48
0.0
 49
0.0
140
0.0
141
0.0
142
1.0
143
1.0
 70
0
 72
0
 73
0
 74
0
  7

 75
0
147
1.0
148
0.0
149
0.0
100
AcDbLayout
  1
Layout1
 70
0
 71
0
 10
0.0
 20
0.0
 11
0.0
 21
0.0
 12
0.0
 22
0.0
 32
0.0
 14
0.0
 24
0.0
 34
0.0
 15
0.0
 25
0.0
 35
0.0
146
0.0
 13
0.0
 23
0.0
 33
0.0
 16
0.0
 26
0.0
 36
0.0
 17
0.0
 27
0.0
 37
0.0
 76
0
330
1B
331
0
345
0
346
0
  0
LAYOUT
  5
22
102
{ACAD_REACTORS
330
1A
102
}
100
AcDbPlotSettings
  1

  2

  4

  6

 40
0.0
 41
0.0
 42
0.0
 43
0.0
 44
0.0
 45
0.0
 46
0.0
 47
0.0
 48
0.0
 49
0.0
140
0.0
141
0.0
142
1.0
143
1.0
 70
0
 72
0
 73
0
 74
0
  7

 75
0
147
1.0
148
0.0
149
0.0
100
AcDbLayout
  1
Model
 70
0
 71
0
 10
0.0
 20
0.0
 11
0.0
 21
0.0
 12
0.0
 22
0.0
 32
0.0
 14
0.0
 24
0.0
 34
0.0
 15
0.0
 25
0.0
 35
0.0
146
0.0
 13
0.0
 23
0.0
 33
0.0
 16
0.0
 26
0.0
 36
0.0
 17
0.0
 27
0.0
 37
0.0
 76
0
330
1F
331
0
345
0
346
0
  0
ENDSEC
  0
EOF
