999
DXF file: INL_6.dxf
999
Pro/ENGINEER 2006240 by Parametric Technology Corporation
  0
SECTION
  2
HEADER
  9
$ACADVER
  1
AC1015
  9
$DWGCODEPAGE
  3
ANSI_1252
  9
$EXTMAX
 10
22.0
 20
17.0
 30
0.0
  9
$EXTMIN
 10
0.0
 20
0.0
 30
0.0
  9
$LIMMIN
 10
0.0
 20
0.0
  9
$LIMMAX
 10
22.0
 20
17.0
  9
$VIEWCTR
 10
11.0
 20
8.5
  9
$VIEWSIZE
 40
17.0
  9
$CLAYER
  8
0
  9
$LTSCALE
 40
1.21
  9
$CELTYPE
  6
BYLAYER
  9
$DIMSCALE
 40
1.0
  9
$DIMASZ
 40
0.1875
  9
$DIMEXO
 40
0.1375
  9
$DIMDLI
 40
0.836
  9
$DIMEXE
 40
0.396
  9
$DIMCEN
 40
0.198
  9
$DIMLFAC
 40
1.0
  9
$DIMBLK
  1
_CLOSED
  9
$DIMTXT
 40
0.15625
  9
$DIMTOL
 70
0
  9
$DIMLIM
 70
0
  9
$DIMTFAC
 40
1.0
  9
$PDMODE
 70
3
  9
$PDSIZE
 40
0.3125
  9
$HANDSEED
  5
6BA
  9
$MEASUREMENT
 70
0
  9
$INSUNITS
 70
1
  0
ENDSEC
  0
SECTION
  2
CLASSES
  0
CLASS
  1
ACDBDICTIONARYWDFLT
  2
AcDbDictionaryWithDefault
  3
AutoCAD 2000
 90
0
280
0
281
0
  0
CLASS
  1
ACDBPLACEHOLDER
  2
AcDbPlaceHolder
  3
AutoCAD 2000
 90
0
280
0
281
0
  0
CLASS
  1
LAYOUT
  2
AcDbLayout
  3
AutoCAD 2000
 90
0
280
0
281
0
  0
ENDSEC
  0
SECTION
  2
TABLES
  0
TABLE
  2
VPORT
  5
8
100
AcDbSymbolTable
 70
2
  0
VPORT
  5
1F4
100
AcDbSymbolTableRecord
100
AcDbViewportTableRecord
  2
*ACTIVE
 70
0
 10
0.0
 20
0.0
 11
1.0
 21
1.0
 12
11.0
 22
8.5
 13
0.0
 23
0.0
 14
1.0
 24
1.0
 15
0.0
 25
0.0
 16
0.0
 26
0.0
 36
1.0
 17
0.0
 27
0.0
 37
0.0
 40
17.0
 41
1.2941176471
 42
50.0
 43
0.0
 44
0.0
 50
0.0
 51
0.0
 71
0
 72
100
 73
1
 74
1
 75
0
 76
0
 77
0
 78
0
  0
ENDTAB
  0
TABLE
  2
LTYPE
  5
5
100
AcDbSymbolTable
 70
6
  0
LTYPE
  5
14
100
AcDbSymbolTableRecord
100
AcDbLinetypeTableRecord
  2
BYBLOCK
 70
0
  3

 72
65
 73
0
 40
0.0
  0
LTYPE
  5
15
100
AcDbSymbolTableRecord
100
AcDbLinetypeTableRecord
  2
BYLAYER
 70
0
  3

 72
65
 73
0
 40
0.0
  0
LTYPE
  5
16
100
AcDbSymbolTableRecord
100
AcDbLinetypeTableRecord
  2
CONTINUOUS
 70
64
  3
Solid line
 72
65
 73
0
 40
0.0
  0
LTYPE
  5
1F5
100
AcDbSymbolTableRecord
100
AcDbLinetypeTableRecord
  2
CENTER
 70
64
  3
____ _ ____ _ ____ _ ____ _ ____ _ ____ _ ____
 72
65
 73
4
 40
0.6
 49
0.375
 74
0
 49
-0.075
 74
0
 49
0.075
 74
0
 49
-0.075
 74
0
  0
LTYPE
  5
1F6
100
AcDbSymbolTableRecord
100
AcDbLinetypeTableRecord
  2
HIDDEN
 70
64
  3
- - - - - - - - - - - - - - - - - - - -
 72
65
 73
2
 40
0.2
 49
0.1
 74
0
 49
-0.1
 74
0
  0
LTYPE
  5
1F7
100
AcDbSymbolTableRecord
100
AcDbLinetypeTableRecord
  2
PHANTOM
 70
64
  3
_____ _ _ _____ _ _ _____ _ _ _____
 72
65
 73
6
 40
0.8
 49
0.45
 74
0
 49
-0.05
 74
0
 49
0.1
 74
0
 49
-0.05
 74
0
 49
0.1
 74
0
 49
-0.05
 74
0
  0
LTYPE
  5
1F8
100
AcDbSymbolTableRecord
100
AcDbLinetypeTableRecord
  2
DOT
 70
64
  3
. . . . . . . . . . . . . . . . . . . .
 72
65
 73
2
 40
0.2
 49
0.1
 74
0
 49
-0.1
 74
0
  0
LTYPE
  5
1F9
100
AcDbSymbolTableRecord
100
AcDbLinetypeTableRecord
  2
DASHED
 70
64
  3
- - - - - - - - - - - - - - - - - - - -
 72
65
 73
2
 40
0.2
 49
0.1
 74
0
 49
-0.1
 74
0
  0
ENDTAB
  0
TABLE
  2
LAYER
  5
2
100
AcDbSymbolTable
 70
36
  0
LAYER
  5
10
100
AcDbSymbolTableRecord
100
AcDbLayerTableRecord
  2
0
 70
0
 62
7
  6
CONTINUOUS
370
-3
390
F
  0
LAYER
  5
1FA
100
AcDbSymbolTableRecord
100
AcDbLayerTableRecord
  2
DEFAULT_1
 70
0
 62
7
  6
CENTER
370
-3
390
F
  0
LAYER
  5
1FB
100
AcDbSymbolTableRecord
100
AcDbLayerTableRecord
  2
DEFAULT_2
 70
0
 62
8
  6
HIDDEN
370
-3
390
F
  0
LAYER
  5
1FC
100
AcDbSymbolTableRecord
100
AcDbLayerTableRecord
  2
DEFAULT_3
 70
0
 62
7
  6
PHANTOM
370
-3
390
F
  0
LAYER
  5
1FD
100
AcDbSymbolTableRecord
100
AcDbLayerTableRecord
  2
01_ALL_DTM_PLN
 70
0
 62
7
  6
CONTINUOUS
370
-3
390
F
  0
LAYER
  5
1FE
100
AcDbSymbolTableRecord
100
AcDbLayerTableRecord
  2
01__ASM_ALL_DTM_PLN
 70
0
 62
7
  6
CONTINUOUS
370
-3
390
F
  0
LAYER
  5
1FF
100
AcDbSymbolTableRecord
100
AcDbLayerTableRecord
  2
01__ASM_DEF_DTM_PLN
 70
0
 62
7
  6
CONTINUOUS
370
-3
390
F
  0
LAYER
  5
200
100
AcDbSymbolTableRecord
100
AcDbLayerTableRecord
  2
01___PRT_ALL_DTM_PLN
 70
0
 62
7
  6
CONTINUOUS
370
-3
390
F
  0
LAYER
  5
201
100
AcDbSymbolTableRecord
100
AcDbLayerTableRecord
  2
01___PRT_DEF_DTM_PLN
 70
0
 62
7
  6
CONTINUOUS
370
-3
390
F
  0
LAYER
  5
202
100
AcDbSymbolTableRecord
100
AcDbLayerTableRecord
  2
02_ALL_AXES
 70
0
 62
7
  6
CONTINUOUS
370
-3
390
F
  0
LAYER
  5
203
100
AcDbSymbolTableRecord
100
AcDbLayerTableRecord
  2
02__ASM_ALL_AXES
 70
0
 62
7
  6
CONTINUOUS
370
-3
390
F
  0
LAYER
  5
204
100
AcDbSymbolTableRecord
100
AcDbLayerTableRecord
  2
02___PRT_ALL_AXES
 70
0
 62
7
  6
CONTINUOUS
370
-3
390
F
  0
LAYER
  5
205
100
AcDbSymbolTableRecord
100
AcDbLayerTableRecord
  2
03_ALL_CURVES
 70
0
 62
7
  6
CONTINUOUS
370
-3
390
F
  0
LAYER
  5
206
100
AcDbSymbolTableRecord
100
AcDbLayerTableRecord
  2
03__ASM_ALL_CURVES
 70
0
 62
7
  6
CONTINUOUS
370
-3
390
F
  0
LAYER
  5
207
100
AcDbSymbolTableRecord
100
AcDbLayerTableRecord
  2
03___PRT_ALL_CURVES
 70
0
 62
7
  6
CONTINUOUS
370
-3
390
F
  0
LAYER
  5
208
100
AcDbSymbolTableRecord
100
AcDbLayerTableRecord
  2
04_ALL_DTM_PNT
 70
0
 62
7
  6
CONTINUOUS
370
-3
390
F
  0
LAYER
  5
209
100
AcDbSymbolTableRecord
100
AcDbLayerTableRecord
  2
04__ASM_ALL_DTM_PNT
 70
0
 62
7
  6
CONTINUOUS
370
-3
390
F
  0
LAYER
  5
20A
100
AcDbSymbolTableRecord
100
AcDbLayerTableRecord
  2
04___PRT_ALL_DTM_PNT
 70
0
 62
7
  6
CONTINUOUS
370
-3
390
F
  0
LAYER
  5
20B
100
AcDbSymbolTableRecord
100
AcDbLayerTableRecord
  2
05_ALL_DTM_CSYS
 70
0
 62
7
  6
CONTINUOUS
370
-3
390
F
  0
LAYER
  5
20C
100
AcDbSymbolTableRecord
100
AcDbLayerTableRecord
  2
05__ASM_ALL_DTM_CSYS
 70
0
 62
7
  6
CONTINUOUS
370
-3
390
F
  0
LAYER
  5
20D
100
AcDbSymbolTableRecord
100
AcDbLayerTableRecord
  2
05__ASM_DEF_DTM_CSYS
 70
0
 62
7
  6
CONTINUOUS
370
-3
390
F
  0
LAYER
  5
20E
100
AcDbSymbolTableRecord
100
AcDbLayerTableRecord
  2
05___PRT_ALL_DTM_CSYS
 70
0
 62
7
  6
CONTINUOUS
370
-3
390
F
  0
LAYER
  5
20F
100
AcDbSymbolTableRecord
100
AcDbLayerTableRecord
  2
05___PRT_DEF_DTM_CSYS
 70
0
 62
7
  6
CONTINUOUS
370
-3
390
F
  0
LAYER
  5
210
100
AcDbSymbolTableRecord
100
AcDbLayerTableRecord
  2
06_ALL_SURFS
 70
0
 62
7
  6
CONTINUOUS
370
-3
390
F
  0
LAYER
  5
211
100
AcDbSymbolTableRecord
100
AcDbLayerTableRecord
  2
06__ASM_ALL_SURFS
 70
0
 62
7
  6
CONTINUOUS
370
-3
390
F
  0
LAYER
  5
212
100
AcDbSymbolTableRecord
100
AcDbLayerTableRecord
  2
06___PRT_ALL_SURFS
 70
0
 62
7
  6
CONTINUOUS
370
-3
390
F
  0
LAYER
  5
213
100
AcDbSymbolTableRecord
100
AcDbLayerTableRecord
  2
07__ASM_ALL_SKELETONS
 70
0
 62
7
  6
CONTINUOUS
370
-3
390
F
  0
LAYER
  5
214
100
AcDbSymbolTableRecord
100
AcDbLayerTableRecord
  2
COPY_GEO_FET
 70
0
 62
7
  6
CONTINUOUS
370
-3
390
F
  0
LAYER
  5
215
100
AcDbSymbolTableRecord
100
AcDbLayerTableRecord
  2
COSMETIC
 70
0
 62
7
  6
CONTINUOUS
370
-3
390
F
  0
LAYER
  5
216
100
AcDbSymbolTableRecord
100
AcDbLayerTableRecord
  2
CUT_REF_SURF
 70
0
 62
7
  6
CONTINUOUS
370
-3
390
F
  0
LAYER
  5
217
100
AcDbSymbolTableRecord
100
AcDbLayerTableRecord
  2
DATESTAMP
 70
0
 62
7
  6
CONTINUOUS
370
-3
390
F
  0
LAYER
  5
218
100
AcDbSymbolTableRecord
100
AcDbLayerTableRecord
  2
DATUM
 70
0
 62
7
  6
CONTINUOUS
370
-3
390
F
  0
LAYER
  5
219
100
AcDbSymbolTableRecord
100
AcDbLayerTableRecord
  2
DATUM_B
 70
0
 62
7
  6
CONTINUOUS
370
-3
390
F
  0
LAYER
  5
21A
100
AcDbSymbolTableRecord
100
AcDbLayerTableRecord
  2
DATUM_PLANES
 70
0
 62
7
  6
CONTINUOUS
370
-3
390
F
  0
LAYER
  5
21B
100
AcDbSymbolTableRecord
100
AcDbLayerTableRecord
  2
DIM
 70
0
 62
7
  6
CONTINUOUS
370
-3
390
F
  0
LAYER
  5
21C
100
AcDbSymbolTableRecord
100
AcDbLayerTableRecord
  2
DIM_1
 70
0
 62
7
  6
CONTINUOUS
370
-3
390
F
  0
LAYER
  5
21D
100
AcDbSymbolTableRecord
100
AcDbLayerTableRecord
  2
DIM_2
 70
0
 62
7
  6
CONTINUOUS
370
-3
390
F
  0
LAYER
  5
21E
100
AcDbSymbolTableRecord
100
AcDbLayerTableRecord
  2
DIM_3
 70
0
 62
7
  6
CONTINUOUS
370
-3
390
F
  0
LAYER
  5
21F
100
AcDbSymbolTableRecord
100
AcDbLayerTableRecord
  2
DIM_4
 70
0
 62
7
  6
CONTINUOUS
370
-3
390
F
  0
LAYER
  5
220
100
AcDbSymbolTableRecord
100
AcDbLayerTableRecord
  2
DIM_5
 70
0
 62
7
  6
CONTINUOUS
370
-3
390
F
  0
LAYER
  5
221
100
AcDbSymbolTableRecord
100
AcDbLayerTableRecord
  2
DIM_6
 70
0
 62
7
  6
CONTINUOUS
370
-3
390
F
  0
LAYER
  5
222
100
AcDbSymbolTableRecord
100
AcDbLayerTableRecord
  2
DIM_7
 70
0
 62
7
  6
CONTINUOUS
370
-3
390
F
  0
LAYER
  5
223
100
AcDbSymbolTableRecord
100
AcDbLayerTableRecord
  2
DIM_8
 70
0
 62
7
  6
CONTINUOUS
370
-3
390
F
  0
LAYER
  5
224
100
AcDbSymbolTableRecord
100
AcDbLayerTableRecord
  2
DTM
 70
0
 62
7
  6
CONTINUOUS
370
-3
390
F
  0
LAYER
  5
225
100
AcDbSymbolTableRecord
100
AcDbLayerTableRecord
  2
EXT_COPY_GEO
 70
0
 62
7
  6
CONTINUOUS
370
-3
390
F
  0
LAYER
  5
226
100
AcDbSymbolTableRecord
100
AcDbLayerTableRecord
  2
INL_10
 70
0
 62
7
  6
CONTINUOUS
370
-3
390
F
  0
LAYER
  5
227
100
AcDbSymbolTableRecord
100
AcDbLayerTableRecord
  2
INL_2
 70
0
 62
7
  6
CONTINUOUS
370
-3
390
F
  0
LAYER
  5
228
100
AcDbSymbolTableRecord
100
AcDbLayerTableRecord
  2
INL_5
 70
0
 62
7
  6
CONTINUOUS
370
-3
390
F
  0
LAYER
  5
229
100
AcDbSymbolTableRecord
100
AcDbLayerTableRecord
  2
INL_6
 70
0
 62
7
  6
CONTINUOUS
370
-3
390
F
  0
LAYER
  5
22A
100
AcDbSymbolTableRecord
100
AcDbLayerTableRecord
  2
INL_7
 70
0
 62
7
  6
CONTINUOUS
370
-3
390
F
  0
LAYER
  5
22B
100
AcDbSymbolTableRecord
100
AcDbLayerTableRecord
  2
INL_8
 70
0
 62
7
  6
CONTINUOUS
370
-3
390
F
  0
LAYER
  5
22C
100
AcDbSymbolTableRecord
100
AcDbLayerTableRecord
  2
LS
 70
0
 62
7
  6
CONTINUOUS
370
-3
390
F
  0
LAYER
  5
22D
100
AcDbSymbolTableRecord
100
AcDbLayerTableRecord
  2
ORIGIN
 70
0
 62
7
  6
CONTINUOUS
370
-3
390
F
  0
LAYER
  5
22E
100
AcDbSymbolTableRecord
100
AcDbLayerTableRecord
  2
PARTNUMBER
 70
0
 62
7
  6
CONTINUOUS
370
-3
390
F
  0
LAYER
  5
22F
100
AcDbSymbolTableRecord
100
AcDbLayerTableRecord
  2
PORT_AREAS
 70
0
 62
7
  6
CONTINUOUS
370
-3
390
F
  0
LAYER
  5
230
100
AcDbSymbolTableRecord
100
AcDbLayerTableRecord
  2
TEXT
 70
0
 62
7
  6
CONTINUOUS
370
-3
390
F
  0
LAYER
  5
231
100
AcDbSymbolTableRecord
100
AcDbLayerTableRecord
  2
THREAD
 70
0
 62
7
  6
CONTINUOUS
370
-3
390
F
  0
LAYER
  5
232
100
AcDbSymbolTableRecord
100
AcDbLayerTableRecord
  2
THREADS
 70
0
 62
7
  6
CONTINUOUS
370
-3
390
F
  0
ENDTAB
  0
TABLE
  2
STYLE
  5
3
100
AcDbSymbolTable
 70
1
  0
STYLE
  5
11
100
AcDbSymbolTableRecord
100
AcDbTextStyleTableRecord
  2
STANDARD
 70
0
 40
0.0
 41
0.8
 50
0.0
 71
0
 42
0.2
  3
txt
  4

  0
ENDTAB
  0
TABLE
  2
VIEW
  5
6
100
AcDbSymbolTable
 70
0
  0
ENDTAB
  0
TABLE
  2
UCS
  5
7
100
AcDbSymbolTable
 70
0
  0
ENDTAB
  0
TABLE
  2
APPID
  5
9
100
AcDbSymbolTable
 70
1
  0
APPID
  5
233
100
AcDbSymbolTableRecord
100
AcDbRegAppTableRecord
  2
ACAD
 70
0
  0
ENDTAB
  0
TABLE
  2
BLOCK_RECORD
  5
1
100
AcDbSymbolTable
 70
0
  0
BLOCK_RECORD
  5
1F
100
AcDbSymbolTableRecord
100
AcDbBlockTableRecord
  2
*MODEL_SPACE
  0
BLOCK_RECORD
  5
1B
100
AcDbSymbolTableRecord
100
AcDbBlockTableRecord
  2
*PAPER_SPACE
  0
ENDTAB
  0
TABLE
  2
DIMSTYLE
  5
A
100
AcDbSymbolTable
 70
1
100
AcDbDimStyleTable
 71
0
  0
DIMSTYLE
105
234
100
AcDbSymbolTableRecord
100
AcDbDimStyleTableRecord
  2
STANDARD
 70
0
  3

  4

 40
1.0
 41
0.1875
 42
0.0625
 43
0.38
 44
0.18
 45
0.0
 46
0.0
 47
0.01
 48
0.01
140
0.15625
141
0.09
142
0.0
143
25.4
144
1.0
145
0.0
146
1.0
147
0.09
 71
0.0
 72
0.0
 73
1
 74
1
 75
0
 76
0
 77
0
 78
4
170
0
171
2
172
0
173
0
174
0
175
0
176
0
177
0
178
0
270
2
271
2
272
2
273
2
274
2
275
0
280
0
281
0
282
0
283
1
284
4
285
0
286
0
287
3
288
0
340
11
  0
ENDTAB
  0
ENDSEC
  0
SECTION
  2
BLOCKS
  0
BLOCK
  5
20
100
AcDbEntity
  8
0
100
AcDbBlockBegin
  2
*MODEL_SPACE
 70
0
 10
0.0
 20
0.0
 30
0.0
  3
*MODEL_SPACE
  1

  0
ENDBLK
  5
21
100
AcDbEntity
  8
0
100
AcDbBlockEnd
  0
BLOCK
  5
1C
100
AcDbEntity
  8
0
100
AcDbBlockBegin
  2
*PAPER_SPACE
 70
0
 10
0.0
 20
0.0
 30
0.0
  3
*PAPER_SPACE
  1

  0
ENDBLK
  5
1D
100
AcDbEntity
  8
0
100
AcDbBlockEnd
  0
ENDSEC
  0
SECTION
  2
ENTITIES
  0
LINE
  5
235
100
AcDbEntity
  8
03__ASM_ALL_CURVES
100
AcDbLine
 62
4
  6
CONTINUOUS
 10
6.6249573885
 20
5.2588920612
 11
6.7283193885
 21
5.1985975612
  0
LINE
  5
236
100
AcDbEntity
  8
03__ASM_ALL_CURVES
100
AcDbLine
 62
4
  6
CONTINUOUS
 10
6.6479267246
 20
5.4828430612
 11
6.6364420524
 21
5.4914565612
  0
LINE
  5
237
100
AcDbEntity
  8
03__ASM_ALL_CURVES
100
AcDbLine
 62
4
  6
CONTINUOUS
 10
6.6708960524
 20
5.4742295612
 11
6.6479267246
 21
5.4828430612
  0
LINE
  5
238
100
AcDbEntity
  8
03__ASM_ALL_CURVES
100
AcDbLine
 62
4
  6
CONTINUOUS
 10
6.7398040545
 20
5.5345240612
 11
6.7512887215
 21
5.5259105612
  0
LINE
  5
239
100
AcDbEntity
  8
03__ASM_ALL_CURVES
100
AcDbLine
 62
4
  6
CONTINUOUS
 10
6.6249573885
 20
5.7929290612
 11
6.6479267246
 21
5.7757020612
  0
LINE
  5
23A
100
AcDbEntity
  8
03__ASM_ALL_CURVES
100
AcDbLine
 62
4
  6
CONTINUOUS
 10
7.7729267246
 20
5.0607815612
 11
7.7614420524
 21
5.0693950612
  0
LINE
  5
23B
100
AcDbEntity
  8
03__ASM_ALL_CURVES
100
AcDbLine
 62
4
  6
CONTINUOUS
 10
7.8303500565
 20
5.0866220612
 11
7.8533193885
 21
5.0693950612
  0
LINE
  5
23C
100
AcDbEntity
  8
03__ASM_ALL_CURVES
100
AcDbLine
 62
4
  6
CONTINUOUS
 10
7.7958960524
 20
5.1296895612
 11
7.8073807246
 21
5.1210760612
  0
LINE
  5
23D
100
AcDbEntity
  8
03__ASM_ALL_CURVES
100
AcDbLine
 62
4
  6
CONTINUOUS
 10
6.6364420524
 20
5.4914565612
 11
6.6249573885
 21
5.5086835612
  0
LINE
  5
23E
100
AcDbEntity
  8
03__ASM_ALL_CURVES
100
AcDbLine
 62
4
  6
CONTINUOUS
 10
6.7512887215
 20
5.5259105612
 11
6.7627733885
 21
5.5086835612
  0
LINE
  5
23F
100
AcDbEntity
  8
03__ASM_ALL_CURVES
100
AcDbLine
 62
4
  6
CONTINUOUS
 10
6.6364420524
 20
6.0427205612
 11
6.6249573885
 21
6.0599475612
  0
LINE
  5
240
100
AcDbEntity
  8
03__ASM_ALL_CURVES
100
AcDbLine
 62
4
  6
CONTINUOUS
 10
7.8533193885
 20
5.0693950612
 11
7.8877733885
 21
5.0607815612
  0
LINE
  5
241
100
AcDbEntity
  8
03__ASM_ALL_CURVES
100
AcDbLine
 62
4
  6
CONTINUOUS
 10
6.7168347204
 20
5.5431375612
 11
6.7398040545
 21
5.5345240612
  0
LINE
  5
242
100
AcDbEntity
  8
03__ASM_ALL_CURVES
100
AcDbLine
 62
4
  6
CONTINUOUS
 10
6.6479267246
 20
6.0341070612
 11
6.6364420524
 21
6.0427205612
  0
LINE
  5
243
100
AcDbEntity
  8
03__ASM_ALL_CURVES
100
AcDbLine
 62
4
  6
CONTINUOUS
 10
6.7398040545
 20
6.0857880612
 11
6.7512887215
 21
6.0771745612
  0
LINE
  5
244
100
AcDbEntity
  8
03__ASM_ALL_CURVES
100
AcDbLine
 62
4
  6
CONTINUOUS
 10
7.7729267246
 20
5.3364135612
 11
7.7614420524
 21
5.3450270612
  0
LINE
  5
245
100
AcDbEntity
  8
03__ASM_ALL_CURVES
100
AcDbLine
 62
4
  6
CONTINUOUS
 10
7.8418347204
 20
5.3278000612
 11
7.8188653885
 21
5.3450270612
  0
LINE
  5
246
100
AcDbEntity
  8
03__ASM_ALL_CURVES
100
AcDbLine
 62
4
  6
CONTINUOUS
 10
7.7844113885
 20
5.4053215612
 11
7.7958960524
 21
5.3967080612
  0
LINE
  5
247
100
AcDbEntity
  8
03__ASM_ALL_CURVES
100
AcDbLine
 62
4
  6
CONTINUOUS
 10
7.8533193885
 20
5.4139350612
 11
7.8762887215
 21
5.3967080612
  0
LINE
  5
248
100
AcDbEntity
  8
03__ASM_ALL_CURVES
100
AcDbLine
 62
4
  6
CONTINUOUS
 10
6.6479267246
 20
6.4475550612
 11
6.6364420524
 21
6.4561685612
  0
LINE
  5
249
100
AcDbEntity
  8
03__ASM_ALL_CURVES
100
AcDbLine
 62
4
  6
CONTINUOUS
 10
8.1479267246
 20
5.3364135612
 11
8.1364420524
 21
5.3450270612
  0
LINE
  5
24A
100
AcDbEntity
  8
03__ASM_ALL_CURVES
100
AcDbLine
 62
4
  6
CONTINUOUS
 10
6.7512887215
 20
6.0771745612
 11
6.7627733885
 21
6.0599475612
  0
LINE
  5
24B
100
AcDbEntity
  8
03__ASM_ALL_CURVES
100
AcDbLine
 62
4
  6
CONTINUOUS
 10
6.6364420524
 20
6.4561685612
 11
6.6249573885
 21
6.4733955612
  0
LINE
  5
24C
100
AcDbEntity
  8
03__ASM_ALL_CURVES
100
AcDbLine
 62
4
  6
CONTINUOUS
 10
6.7512887215
 20
6.4906225612
 11
6.7627733885
 21
6.4733955612
  0
LINE
  5
24D
100
AcDbEntity
  8
03__ASM_ALL_CURVES
100
AcDbLine
 62
4
  6
CONTINUOUS
 10
7.7614420524
 20
5.0693950612
 11
7.7499573885
 21
5.0866220612
  0
LINE
  5
24E
100
AcDbEntity
  8
03__ASM_ALL_CURVES
100
AcDbLine
 62
4
  6
CONTINUOUS
 10
6.6938653885
 20
6.4475550612
 11
6.6823807246
 21
6.4733955612
  0
LINE
  5
24F
100
AcDbEntity
  8
03__ASM_ALL_CURVES
100
AcDbLine
 62
4
  6
CONTINUOUS
 10
7.7729267246
 20
5.1296895612
 11
7.7958960524
 21
5.1296895612
  0
LINE
  5
250
100
AcDbEntity
  8
03__ASM_ALL_CURVES
100
AcDbLine
 62
4
  6
CONTINUOUS
 10
7.8877733885
 20
5.5086835612
 11
7.8303500565
 21
5.5172970612
  0
LINE
  5
251
100
AcDbEntity
  8
03__ASM_ALL_CURVES
100
AcDbLine
 62
4
  6
CONTINUOUS
 10
8.2283193885
 20
5.3450270612
 11
8.2627733885
 21
5.3364135612
  0
LINE
  5
252
100
AcDbEntity
  8
03__ASM_ALL_CURVES
100
AcDbLine
 62
4
  6
CONTINUOUS
 10
6.6479267246
 20
5.7757020612
 11
6.6823807246
 21
5.7670885612
  0
LINE
  5
253
100
AcDbEntity
  8
03__ASM_ALL_CURVES
100
AcDbLine
 62
4
  6
CONTINUOUS
 10
7.8303500565
 20
5.5172970612
 11
7.7958960524
 21
5.5259105612
  0
LINE
  5
254
100
AcDbEntity
  8
03__ASM_ALL_CURVES
100
AcDbLine
 62
4
  6
CONTINUOUS
 10
7.7958960524
 20
5.5259105612
 11
7.7499573885
 21
5.5431375612
  0
LINE
  5
255
100
AcDbEntity
  8
03__ASM_ALL_CURVES
100
AcDbLine
 62
4
  6
CONTINUOUS
 10
6.6708960524
 20
6.0254935612
 11
6.6479267246
 21
6.0341070612
  0
LINE
  5
256
100
AcDbEntity
  8
03__ASM_ALL_CURVES
100
AcDbLine
 62
4
  6
CONTINUOUS
 10
6.7168347204
 20
6.0944015612
 11
6.7398040545
 21
6.0857880612
  0
LINE
  5
257
100
AcDbEntity
  8
03__ASM_ALL_CURVES
100
AcDbLine
 62
4
  6
CONTINUOUS
 10
8.2168347204
 20
5.6895670612
 11
8.2398040545
 21
5.6809535612
  0
LINE
  5
258
100
AcDbEntity
  8
03__ASM_ALL_CURVES
100
AcDbLine
 62
4
  6
CONTINUOUS
 10
8.2053500565
 20
5.3622540612
 11
8.2283193885
 21
5.3450270612
  0
LINE
  5
259
100
AcDbEntity
  8
03__ASM_ALL_CURVES
100
AcDbLine
 62
4
  6
CONTINUOUS
 10
8.1708960524
 20
5.4053215612
 11
8.1823807246
 21
5.3967080612
  0
LINE
  5
25A
100
AcDbEntity
  8
03__ASM_ALL_CURVES
100
AcDbLine
 62
4
  6
CONTINUOUS
 10
6.7398040545
 20
6.4992360612
 11
6.7512887215
 21
6.4906225612
  0
LINE
  5
25B
100
AcDbEntity
  8
03__ASM_ALL_CURVES
100
AcDbLine
 62
4
  6
CONTINUOUS
 10
7.7499573885
 20
5.7929290612
 11
7.7729267246
 21
5.7757020612
  0
LINE
  5
25C
100
AcDbEntity
  8
03__ASM_ALL_CURVES
100
AcDbLine
 62
4
  6
CONTINUOUS
 10
6.7398040545
 20
6.6198250612
 11
6.7627733885
 21
6.6025980612
  0
LINE
  5
25D
100
AcDbEntity
  8
03__ASM_ALL_CURVES
100
AcDbLine
 62
4
  6
CONTINUOUS
 10
7.7729267246
 20
6.0254935612
 11
7.7614420524
 21
6.0341070612
  0
LINE
  5
25E
100
AcDbEntity
  8
03__ASM_ALL_CURVES
100
AcDbLine
 62
4
  6
CONTINUOUS
 10
8.2398040545
 20
5.6809535612
 11
8.2512887215
 21
5.6723400612
  0
LINE
  5
25F
100
AcDbEntity
  8
03__ASM_ALL_CURVES
100
AcDbLine
 62
4
  6
CONTINUOUS
 10
7.8073807246
 20
5.1210760612
 11
7.8303500565
 21
5.0866220612
  0
LINE
  5
260
100
AcDbEntity
  8
03__ASM_ALL_CURVES
100
AcDbLine
 62
4
  6
CONTINUOUS
 10
7.7614420524
 20
5.3450270612
 11
7.7499573885
 21
5.3622540612
  0
LINE
  5
261
100
AcDbEntity
  8
03__ASM_ALL_CURVES
100
AcDbLine
 62
4
  6
CONTINUOUS
 10
7.8188653885
 20
5.3450270612
 11
7.8073807246
 21
5.3622540612
  0
LINE
  5
262
100
AcDbEntity
  8
03__ASM_ALL_CURVES
100
AcDbLine
 62
4
  6
CONTINUOUS
 10
7.7958960524
 20
5.3967080612
 11
7.8073807246
 21
5.3794810612
  0
LINE
  5
263
100
AcDbEntity
  8
03__ASM_ALL_CURVES
100
AcDbLine
 62
4
  6
CONTINUOUS
 10
7.8762887215
 20
5.3967080612
 11
7.8877733885
 21
5.3794810612
  0
LINE
  5
264
100
AcDbEntity
  8
03__ASM_ALL_CURVES
100
AcDbLine
 62
4
  6
CONTINUOUS
 10
9.1249573885
 20
5.2330515612
 11
9.2627733885
 21
5.2330515612
  0
LINE
  5
265
100
AcDbEntity
  8
03__ASM_ALL_CURVES
100
AcDbLine
 62
4
  6
CONTINUOUS
 10
7.8877733885
 20
5.2545853112
 11
7.870546388
 21
5.2545853112
  0
LINE
  5
266
100
AcDbEntity
  8
03__ASM_ALL_CURVES
100
AcDbLine
 62
4
  6
CONTINUOUS
 10
6.7627733885
 20
5.2588920612
 11
6.6249573885
 21
5.2588920612
  0
LINE
  5
267
100
AcDbEntity
  8
03__ASM_ALL_CURVES
100
AcDbLine
 62
4
  6
CONTINUOUS
 10
7.8533193885
 20
5.3278000612
 11
7.8418347204
 21
5.3278000612
  0
LINE
  5
268
100
AcDbEntity
  8
03__ASM_ALL_CURVES
100
AcDbLine
 62
4
  6
CONTINUOUS
 10
7.7844113885
 20
5.3364135612
 11
7.7729267246
 21
5.3364135612
  0
LINE
  5
269
100
AcDbEntity
  8
03__ASM_ALL_CURVES
100
AcDbLine
 62
4
  6
CONTINUOUS
 10
9.2627733885
 20
5.3924013112
 11
9.245546388
 21
5.3924013112
  0
LINE
  5
26A
100
AcDbEntity
  8
03__ASM_ALL_CURVES
100
AcDbLine
 62
4
  6
CONTINUOUS
 10
6.7627733885
 20
5.3924013112
 11
6.745546388
 21
5.3924013112
  0
LINE
  5
26B
100
AcDbEntity
  8
03__ASM_ALL_CURVES
100
AcDbLine
 62
4
  6
CONTINUOUS
 10
7.7729267246
 20
5.4053215612
 11
7.7844113885
 21
5.4053215612
  0
LINE
  5
26C
100
AcDbEntity
  8
03__ASM_ALL_CURVES
100
AcDbLine
 62
4
  6
CONTINUOUS
 10
8.1479267246
 20
5.4053215612
 11
8.1708960524
 21
5.4053215612
  0
LINE
  5
26D
100
AcDbEntity
  8
03__ASM_ALL_CURVES
100
AcDbLine
 62
4
  6
CONTINUOUS
 10
7.8418347204
 20
5.4139350612
 11
7.8533193885
 21
5.4139350612
  0
LINE
  5
26E
100
AcDbEntity
  8
03__ASM_ALL_CURVES
100
AcDbLine
 62
4
  6
CONTINUOUS
 10
6.7168347204
 20
5.4742295612
 11
6.6708960524
 21
5.4742295612
  0
LINE
  5
26F
100
AcDbEntity
  8
03__ASM_ALL_CURVES
100
AcDbLine
 62
4
  6
CONTINUOUS
 10
8.2627733885
 20
5.5302173112
 11
8.245546388
 21
5.5302173112
  0
LINE
  5
270
100
AcDbEntity
  8
03__ASM_ALL_CURVES
100
AcDbLine
 62
4
  6
CONTINUOUS
 10
6.6708960524
 20
5.5431375612
 11
6.7168347204
 21
5.5431375612
  0
LINE
  5
271
100
AcDbEntity
  8
03__ASM_ALL_CURVES
100
AcDbLine
 62
4
  6
CONTINUOUS
 10
8.1249573885
 20
5.6292725612
 11
8.1823807246
 21
5.6206590612
  0
LINE
  5
272
100
AcDbEntity
  8
03__ASM_ALL_CURVES
100
AcDbLine
 62
4
  6
CONTINUOUS
 10
9.1249573885
 20
5.4914565612
 11
9.1823807246
 21
5.4828430612
  0
LINE
  5
273
100
AcDbEntity
  8
03__ASM_ALL_CURVES
100
AcDbLine
 62
4
  6
CONTINUOUS
 10
7.7729267246
 20
5.7757020612
 11
7.8073807246
 21
5.7670885612
  0
LINE
  5
274
100
AcDbEntity
  8
03__ASM_ALL_CURVES
100
AcDbLine
 62
4
  6
CONTINUOUS
 10
7.8303500565
 20
5.9307450612
 11
7.7958960524
 21
5.9393585612
  0
LINE
  5
275
100
AcDbEntity
  8
03__ASM_ALL_CURVES
100
AcDbLine
 62
4
  6
CONTINUOUS
 10
8.1479267246
 20
5.9135180612
 11
8.1823807246
 21
5.9049045612
  0
LINE
  5
276
100
AcDbEntity
  8
03__ASM_ALL_CURVES
100
AcDbLine
 62
4
  6
CONTINUOUS
 10
7.8533193885
 20
6.0341070612
 11
7.8877733885
 21
6.0254935612
  0
LINE
  5
277
100
AcDbEntity
  8
03__ASM_ALL_CURVES
100
AcDbLine
 62
4
  6
CONTINUOUS
 10
7.7958960524
 20
5.9393585612
 11
7.7499573885
 21
5.9565855612
  0
LINE
  5
278
100
AcDbEntity
  8
03__ASM_ALL_CURVES
100
AcDbLine
 62
4
  6
CONTINUOUS
 10
6.6708960524
 20
6.4389415612
 11
6.6479267246
 21
6.4475550612
  0
LINE
  5
279
100
AcDbEntity
  8
03__ASM_ALL_CURVES
100
AcDbLine
 62
4
  6
CONTINUOUS
 10
6.7168347204
 20
6.4389415612
 11
6.6938653885
 21
6.4475550612
  0
LINE
  5
27A
100
AcDbEntity
  8
03__ASM_ALL_CURVES
100
AcDbLine
 62
4
  6
CONTINUOUS
 10
9.2168347204
 20
5.5517510612
 11
9.2398040545
 21
5.5431375612
  0
LINE
  5
27B
100
AcDbEntity
  8
03__ASM_ALL_CURVES
100
AcDbLine
 62
4
  6
CONTINUOUS
 10
6.7168347204
 20
6.5078495612
 11
6.7398040545
 21
6.4992360612
  0
LINE
  5
27C
100
AcDbEntity
  8
03__ASM_ALL_CURVES
100
AcDbLine
 62
4
  6
CONTINUOUS
 10
8.1708960524
 20
6.0254935612
 11
8.1479267246
 21
6.0341070612
  0
LINE
  5
27D
100
AcDbEntity
  8
03__ASM_ALL_CURVES
100
AcDbLine
 62
4
  6
CONTINUOUS
 10
8.2168347204
 20
6.0254935612
 11
8.1938653885
 21
6.0341070612
  0
LINE
  5
27E
100
AcDbEntity
  8
03__ASM_ALL_CURVES
100
AcDbLine
 62
4
  6
CONTINUOUS
 10
7.8303500565
 20
6.0513340612
 11
7.8533193885
 21
6.0341070612
  0
LINE
  5
27F
100
AcDbEntity
  8
03__ASM_ALL_CURVES
100
AcDbLine
 62
4
  6
CONTINUOUS
 10
7.7958960524
 20
6.0944015612
 11
7.8073807246
 21
6.0857880612
  0
LINE
  5
280
100
AcDbEntity
  8
03__ASM_ALL_CURVES
100
AcDbLine
 62
4
  6
CONTINUOUS
 10
8.1249573885
 20
5.9307450612
 11
8.1479267246
 21
5.9135180612
  0
LINE
  5
281
100
AcDbEntity
  8
03__ASM_ALL_CURVES
100
AcDbLine
 62
4
  6
CONTINUOUS
 10
7.7729267246
 20
6.3011255612
 11
7.7614420524
 21
6.3097390612
  0
LINE
  5
282
100
AcDbEntity
  8
03__ASM_ALL_CURVES
100
AcDbLine
 62
4
  6
CONTINUOUS
 10
8.1479267246
 20
6.0341070612
 11
8.1364420524
 21
6.0427205612
  0
LINE
  5
283
100
AcDbEntity
  8
03__ASM_ALL_CURVES
100
AcDbLine
 62
4
  6
CONTINUOUS
 10
7.8418347204
 20
6.2925120612
 11
7.8188653885
 21
6.3097390612
  0
LINE
  5
284
100
AcDbEntity
  8
03__ASM_ALL_CURVES
100
AcDbLine
 62
4
  6
CONTINUOUS
 10
7.7844113885
 20
6.3700335612
 11
7.7958960524
 21
6.3614200612
  0
LINE
  5
285
100
AcDbEntity
  8
03__ASM_ALL_CURVES
100
AcDbLine
 62
4
  6
CONTINUOUS
 10
8.2398040545
 20
6.0857880612
 11
8.2512887215
 21
6.0771745612
  0
LINE
  5
286
100
AcDbEntity
  8
03__ASM_ALL_CURVES
100
AcDbLine
 62
4
  6
CONTINUOUS
 10
7.8533193885
 20
6.3786470612
 11
7.8762887215
 21
6.3614200612
  0
LINE
  5
287
100
AcDbEntity
  8
03__ASM_ALL_CURVES
100
AcDbLine
 62
4
  6
CONTINUOUS
 10
7.7729267246
 20
6.4475550612
 11
7.7614420524
 21
6.4561685612
  0
LINE
  5
288
100
AcDbEntity
  8
03__ASM_ALL_CURVES
100
AcDbLine
 62
4
  6
CONTINUOUS
 10
8.1594113885
 20
6.2322175612
 11
8.1708960524
 21
6.2236040612
  0
LINE
  5
289
100
AcDbEntity
  8
03__ASM_ALL_CURVES
100
AcDbLine
 62
4
  6
CONTINUOUS
 10
8.1364420524
 20
5.3450270612
 11
8.1249573885
 21
5.3622540612
  0
LINE
  5
28A
100
AcDbEntity
  8
03__ASM_ALL_CURVES
100
AcDbLine
 62
4
  6
CONTINUOUS
 10
8.1823807246
 20
5.3967080612
 11
8.2053500565
 21
5.3622540612
  0
LINE
  5
28B
100
AcDbEntity
  8
03__ASM_ALL_CURVES
100
AcDbLine
 62
4
  6
CONTINUOUS
 10
7.7614420524
 20
6.0341070612
 11
7.7499573885
 21
6.0513340612
  0
LINE
  5
28C
100
AcDbEntity
  8
03__ASM_ALL_CURVES
100
AcDbLine
 62
4
  6
CONTINUOUS
 10
7.8073807246
 20
6.0857880612
 11
7.8303500565
 21
6.0513340612
  0
LINE
  5
28D
100
AcDbEntity
  8
03__ASM_ALL_CURVES
100
AcDbLine
 62
4
  6
CONTINUOUS
 10
8.1823807246
 20
5.6206590612
 11
8.1708960524
 21
5.6378860612
  0
LINE
  5
28E
100
AcDbEntity
  8
03__ASM_ALL_CURVES
100
AcDbLine
 62
4
  6
CONTINUOUS
 10
7.7614420524
 20
6.3097390612
 11
7.7499573885
 21
6.3269660612
  0
LINE
  5
28F
100
AcDbEntity
  8
03__ASM_ALL_CURVES
100
AcDbLine
 62
4
  6
CONTINUOUS
 10
7.8188653885
 20
6.3097390612
 11
7.8073807246
 21
6.3269660612
  0
LINE
  5
290
100
AcDbEntity
  8
03__ASM_ALL_CURVES
100
AcDbLine
 62
4
  6
CONTINUOUS
 10
8.2512887215
 20
5.6723400612
 11
8.2627733885
 21
5.6551130612
  0
LINE
  5
291
100
AcDbEntity
  8
03__ASM_ALL_CURVES
100
AcDbLine
 62
4
  6
CONTINUOUS
 10
7.7958960524
 20
6.3614200612
 11
7.8073807246
 21
6.3441930612
  0
LINE
  5
292
100
AcDbEntity
  8
03__ASM_ALL_CURVES
100
AcDbLine
 62
4
  6
CONTINUOUS
 10
6.6938653885
 20
8.2488335612
 11
6.6938653885
 21
7.2313835612
  0
LINE
  5
293
100
AcDbEntity
  8
0
100
AcDbLine
 62
7
  6
CONTINUOUS
 10
6.6938653885
 20
8.3866495612
 11
6.6938653885
 21
13.2616495612
  0
LINE
  5
294
100
AcDbEntity
  8
03__ASM_ALL_CURVES
100
AcDbLine
 62
4
  6
CONTINUOUS
 10
6.7283193885
 20
5.1985975612
 11
6.7283193885
 21
5.2761190612
  0
LINE
  5
295
100
AcDbEntity
  8
03__ASM_ALL_CURVES
100
AcDbLine
 62
4
  6
CONTINUOUS
 10
6.7627733885
 20
6.3700335612
 11
6.7627733885
 21
6.3571133112
  0
LINE
  5
296
100
AcDbEntity
  8
03__ASM_ALL_CURVES
100
AcDbLine
 62
4
  6
CONTINUOUS
 10
6.7627733885
 20
5.4053215612
 11
6.7627733885
 21
5.3924013112
  0
LINE
  5
297
100
AcDbEntity
  8
03__ASM_ALL_CURVES
100
AcDbLine
 62
4
  6
CONTINUOUS
 10
7.0038653885
 20
9.9466495612
 11
7.0038653885
 21
9.8266495612
  0
LINE
  5
298
100
AcDbEntity
  8
03__ASM_ALL_CURVES
100
AcDbLine
 62
4
  6
CONTINUOUS
 10
6.6823807246
 20
5.7670885612
 11
6.7053500565
 21
5.7670885612
  0
LINE
  5
299
100
AcDbEntity
  8
03__ASM_ALL_CURVES
100
AcDbLine
 62
4
  6
CONTINUOUS
 10
7.8073807246
 20
5.7670885612
 11
7.8303500565
 21
5.7670885612
  0
LINE
  5
29A
100
AcDbEntity
  8
03__ASM_ALL_CURVES
100
AcDbLine
 62
4
  6
CONTINUOUS
 10
9.1823807246
 20
5.7670885612
 11
9.2053500565
 21
5.7670885612
  0
LINE
  5
29B
100
AcDbEntity
  8
03__ASM_ALL_CURVES
100
AcDbLine
 62
4
  6
CONTINUOUS
 10
8.1823807246
 20
5.9049045612
 11
8.2053500565
 21
5.9049045612
  0
LINE
  5
29C
100
AcDbEntity
  8
03__ASM_ALL_CURVES
100
AcDbLine
 62
4
  6
CONTINUOUS
 10
6.6249573885
 20
5.9221315612
 11
6.7627733885
 21
5.9221315612
  0
LINE
  5
29D
100
AcDbEntity
  8
03__ASM_ALL_CURVES
100
AcDbLine
 62
4
  6
CONTINUOUS
 10
7.8877733885
 20
5.9221315612
 11
7.8303500565
 21
5.9307450612
  0
LINE
  5
29E
100
AcDbEntity
  8
03__ASM_ALL_CURVES
100
AcDbLine
 62
4
  6
CONTINUOUS
 10
9.1479267246
 20
5.7757020612
 11
9.1823807246
 21
5.7670885612
  0
LINE
  5
29F
100
AcDbEntity
  8
03__ASM_ALL_CURVES
100
AcDbLine
 62
4
  6
CONTINUOUS
 10
6.7053500565
 20
6.6284385612
 11
6.7398040545
 21
6.6198250612
  0
LINE
  5
2A0
100
AcDbEntity
  8
03__ASM_ALL_CURVES
100
AcDbLine
 62
4
  6
CONTINUOUS
 10
8.2168347204
 20
6.0944015612
 11
8.2398040545
 21
6.0857880612
  0
LINE
  5
2A1
100
AcDbEntity
  8
03__ASM_ALL_CURVES
100
AcDbLine
 62
4
  6
CONTINUOUS
 10
7.7958960524
 20
6.4389415612
 11
7.7729267246
 21
6.4475550612
  0
LINE
  5
2A2
100
AcDbEntity
  8
03__ASM_ALL_CURVES
100
AcDbLine
 62
4
  6
CONTINUOUS
 10
7.7958960524
 20
6.5078495612
 11
7.8188653885
 21
6.4992360612
  0
LINE
  5
2A3
100
AcDbEntity
  8
03__ASM_ALL_CURVES
100
AcDbLine
 62
4
  6
CONTINUOUS
 10
7.8418347204
 20
6.5078495612
 11
7.8648040545
 21
6.4992360612
  0
LINE
  5
2A4
100
AcDbEntity
  8
03__ASM_ALL_CURVES
100
AcDbLine
 62
4
  6
CONTINUOUS
 10
7.8648040545
 20
6.4992360612
 11
7.8762887215
 21
6.4906225612
  0
LINE
  5
2A5
100
AcDbEntity
  8
03__ASM_ALL_CURVES
100
AcDbLine
 62
4
  6
CONTINUOUS
 10
8.2283193885
 20
6.2408310612
 11
8.2512887215
 21
6.2236040612
  0
LINE
  5
2A6
100
AcDbEntity
  8
03__ASM_ALL_CURVES
100
AcDbLine
 62
4
  6
CONTINUOUS
 10
9.2398040545
 20
5.5431375612
 11
9.2512887215
 21
5.5345240612
  0
LINE
  5
2A7
100
AcDbEntity
  8
03__ASM_ALL_CURVES
100
AcDbLine
 62
4
  6
CONTINUOUS
 10
7.8648040545
 20
6.6198250612
 11
7.8877733885
 21
6.6025980612
  0
LINE
  5
2A8
100
AcDbEntity
  8
03__ASM_ALL_CURVES
100
AcDbLine
 62
4
  6
CONTINUOUS
 10
9.1249573885
 20
5.7929290612
 11
9.1479267246
 21
5.7757020612
  0
LINE
  5
2A9
100
AcDbEntity
  8
03__ASM_ALL_CURVES
100
AcDbLine
 62
4
  6
CONTINUOUS
 10
8.2398040545
 20
6.5078495612
 11
8.2512887215
 21
6.4992360612
  0
LINE
  5
2AA
100
AcDbEntity
  8
03__ASM_ALL_CURVES
100
AcDbLine
 62
4
  6
CONTINUOUS
 10
8.2398040545
 20
6.6198250612
 11
8.2627733885
 21
6.6025980612
  0
LINE
  5
2AB
100
AcDbEntity
  8
03__ASM_ALL_CURVES
100
AcDbLine
 62
4
  6
CONTINUOUS
 10
9.1594113885
 20
5.9565855612
 11
9.1708960524
 21
5.9479720612
  0
LINE
  5
2AC
100
AcDbEntity
  8
03__ASM_ALL_CURVES
100
AcDbLine
 62
4
  6
CONTINUOUS
 10
7.7614420524
 20
6.4561685612
 11
7.7499573885
 21
6.4733955612
  0
LINE
  5
2AD
100
AcDbEntity
  8
03__ASM_ALL_CURVES
100
AcDbLine
 62
4
  6
CONTINUOUS
 10
7.8762887215
 20
6.3614200612
 11
7.8877733885
 21
6.3441930612
  0
LINE
  5
2AE
100
AcDbEntity
  8
03__ASM_ALL_CURVES
100
AcDbLine
 62
4
  6
CONTINUOUS
 10
8.1364420524
 20
6.0427205612
 11
8.1249573885
 21
6.0599475612
  0
LINE
  5
2AF
100
AcDbEntity
  8
03__ASM_ALL_CURVES
100
AcDbLine
 62
4
  6
CONTINUOUS
 10
7.8762887215
 20
6.4906225612
 11
7.8877733885
 21
6.4733955612
  0
LINE
  5
2B0
100
AcDbEntity
  8
03__ASM_ALL_CURVES
100
AcDbLine
 62
4
  6
CONTINUOUS
 10
8.1364420524
 20
6.1719230612
 11
8.1249573885
 21
6.1891500612
  0
LINE
  5
2B1
100
AcDbEntity
  8
03__ASM_ALL_CURVES
100
AcDbLine
 62
4
  6
CONTINUOUS
 10
8.2512887215
 20
6.0771745612
 11
8.2627733885
 21
6.0599475612
  0
LINE
  5
2B2
100
AcDbEntity
  8
03__ASM_ALL_CURVES
100
AcDbLine
 62
4
  6
CONTINUOUS
 10
8.1708960524
 20
6.2236040612
 11
8.1823807246
 21
6.2063770612
  0
LINE
  5
2B3
100
AcDbEntity
  8
03__ASM_ALL_CURVES
100
AcDbLine
 62
4
  6
CONTINUOUS
 10
8.2512887215
 20
6.2236040612
 11
8.2627733885
 21
6.2063770612
  0
LINE
  5
2B4
100
AcDbEntity
  8
03__ASM_ALL_CURVES
100
AcDbLine
 62
4
  6
CONTINUOUS
 10
8.1823807246
 20
6.4475550612
 11
8.1708960524
 21
6.4647820612
  0
LINE
  5
2B5
100
AcDbEntity
  8
03__ASM_ALL_CURVES
100
AcDbLine
 62
4
  6
CONTINUOUS
 10
7.8188653885
 20
6.4992360612
 11
7.8303500565
 21
6.4733955612
  0
LINE
  5
2B6
100
AcDbEntity
  8
03__ASM_ALL_CURVES
100
AcDbLine
 62
4
  6
CONTINUOUS
 10
8.1613653885
 20
11.4066495612
 11
8.1463653885
 21
11.3866495589
  0
LINE
  5
2B7
100
AcDbEntity
  8
03__ASM_ALL_CURVES
100
AcDbLine
 62
4
  6
CONTINUOUS
 10
9.2053500565
 20
5.7670885612
 11
9.2398040545
 21
5.7757020612
  0
LINE
  5
2B8
100
AcDbEntity
  8
03__ASM_ALL_CURVES
100
AcDbLine
 62
4
  6
CONTINUOUS
 10
9.1479267246
 20
5.9565855612
 11
9.1594113885
 21
5.9565855612
  0
LINE
  5
2B9
100
AcDbEntity
  8
03__ASM_ALL_CURVES
100
AcDbLine
 62
4
  6
CONTINUOUS
 10
9.2168347204
 20
5.9651990612
 11
9.2283193885
 21
5.9651990612
  0
LINE
  5
2BA
100
AcDbEntity
  8
03__ASM_ALL_CURVES
100
AcDbLine
 62
4
  6
CONTINUOUS
 10
9.2283193885
 20
6.0168800612
 11
9.2168347204
 21
6.0168800612
  0
LINE
  5
2BB
100
AcDbEntity
  8
03__ASM_ALL_CURVES
100
AcDbLine
 62
4
  6
CONTINUOUS
 10
9.1594113885
 20
6.0254935612
 11
9.1479267246
 21
6.0254935612
  0
LINE
  5
2BC
100
AcDbEntity
  8
03__ASM_ALL_CURVES
100
AcDbLine
 62
4
  6
CONTINUOUS
 10
8.2168347204
 20
6.0254935612
 11
8.1708960524
 21
6.0254935612
  0
LINE
  5
2BD
100
AcDbEntity
  8
03__ASM_ALL_CURVES
100
AcDbLine
 62
4
  6
CONTINUOUS
 10
6.7168347204
 20
6.0254935612
 11
6.6708960524
 21
6.0254935612
  0
LINE
  5
2BE
100
AcDbEntity
  8
03__ASM_ALL_CURVES
100
AcDbLine
 62
4
  6
CONTINUOUS
 10
6.6708960524
 20
6.0944015612
 11
6.7168347204
 21
6.0944015612
  0
LINE
  5
2BF
100
AcDbEntity
  8
03__ASM_ALL_CURVES
100
AcDbLine
 62
4
  6
CONTINUOUS
 10
7.7729267246
 20
6.0944015612
 11
7.7958960524
 21
6.0944015612
  0
LINE
  5
2C0
100
AcDbEntity
  8
03__ASM_ALL_CURVES
100
AcDbLine
 62
4
  6
CONTINUOUS
 10
9.1479267246
 20
6.0944015612
 11
9.1594113885
 21
6.0944015612
  0
LINE
  5
2C1
100
AcDbEntity
  8
03__ASM_ALL_CURVES
100
AcDbLine
 62
4
  6
CONTINUOUS
 10
9.2168347204
 20
6.1030150612
 11
9.2283193885
 21
6.1030150612
  0
LINE
  5
2C2
100
AcDbEntity
  8
03__ASM_ALL_CURVES
100
AcDbLine
 62
4
  6
CONTINUOUS
 10
6.6249573885
 20
6.1977635612
 11
6.7627733885
 21
6.1977635612
  0
LINE
  5
2C3
100
AcDbEntity
  8
03__ASM_ALL_CURVES
100
AcDbLine
 62
4
  6
CONTINUOUS
 10
9.2627733885
 20
6.2192973112
 11
9.245546388
 21
6.2192973112
  0
LINE
  5
2C4
100
AcDbEntity
  8
03__ASM_ALL_CURVES
100
AcDbLine
 62
4
  6
CONTINUOUS
 10
7.8877733885
 20
6.2192973112
 11
7.870546388
 21
6.2192973112
  0
LINE
  5
2C5
100
AcDbEntity
  8
03__ASM_ALL_CURVES
100
AcDbLine
 62
4
  6
CONTINUOUS
 10
8.1479267246
 20
6.2322175612
 11
8.1594113885
 21
6.2322175612
  0
LINE
  5
2C6
100
AcDbEntity
  8
03__ASM_ALL_CURVES
100
AcDbLine
 62
4
  6
CONTINUOUS
 10
8.2168347204
 20
6.2408310612
 11
8.2283193885
 21
6.2408310612
  0
LINE
  5
2C7
100
AcDbEntity
  8
03__ASM_ALL_CURVES
100
AcDbLine
 62
4
  6
CONTINUOUS
 10
7.8533193885
 20
6.2925120612
 11
7.8418347204
 21
6.2925120612
  0
LINE
  5
2C8
100
AcDbEntity
  8
03__ASM_ALL_CURVES
100
AcDbLine
 62
4
  6
CONTINUOUS
 10
8.1249573885
 20
6.4561685612
 11
8.1823807246
 21
6.4475550612
  0
LINE
  5
2C9
100
AcDbEntity
  8
03__ASM_ALL_CURVES
100
AcDbLine
 62
4
  6
CONTINUOUS
 10
7.8303500565
 20
6.6284385612
 11
7.8648040545
 21
6.6198250612
  0
LINE
  5
2CA
100
AcDbEntity
  8
03__ASM_ALL_CURVES
100
AcDbLine
 62
4
  6
CONTINUOUS
 10
8.2053500565
 20
6.6284385612
 11
8.2398040545
 21
6.6198250612
  0
LINE
  5
2CB
100
AcDbEntity
  8
03__ASM_ALL_CURVES
100
AcDbLine
 62
4
  6
CONTINUOUS
 10
8.2168347204
 20
6.5164630612
 11
8.2398040545
 21
6.5078495612
  0
LINE
  5
2CC
100
AcDbEntity
  8
03__ASM_ALL_CURVES
100
AcDbLine
 62
4
  6
CONTINUOUS
 10
9.1708960524
 20
6.3011255612
 11
9.1479267246
 21
6.3097390612
  0
LINE
  5
2CD
100
AcDbEntity
  8
03__ASM_ALL_CURVES
100
AcDbLine
 62
4
  6
CONTINUOUS
 10
9.2168347204
 20
6.3700335612
 11
9.2398040545
 21
6.3614200612
  0
LINE
  5
2CE
100
AcDbEntity
  8
03__ASM_ALL_CURVES
100
AcDbLine
 62
4
  6
CONTINUOUS
 10
9.1708960524
 20
6.4389415612
 11
9.1479267246
 21
6.4475550612
  0
LINE
  5
2CF
100
AcDbEntity
  8
03__ASM_ALL_CURVES
100
AcDbLine
 62
4
  6
CONTINUOUS
 10
9.1708960524
 20
6.5078495612
 11
9.1938653885
 21
6.4992360612
  0
LINE
  5
2D0
100
AcDbEntity
  8
03__ASM_ALL_CURVES
100
AcDbLine
 62
4
  6
CONTINUOUS
 10
9.1479267246
 20
6.0254935612
 11
9.1364420524
 21
6.0341070612
  0
LINE
  5
2D1
100
AcDbEntity
  8
03__ASM_ALL_CURVES
100
AcDbLine
 62
4
  6
CONTINUOUS
 10
9.2283193885
 20
5.9651990612
 11
9.2512887215
 21
5.9479720612
  0
LINE
  5
2D2
100
AcDbEntity
  8
03__ASM_ALL_CURVES
100
AcDbLine
 62
4
  6
CONTINUOUS
 10
9.2168347204
 20
6.0168800612
 11
9.1938653885
 21
6.0341070612
  0
LINE
  5
2D3
100
AcDbEntity
  8
03__ASM_ALL_CURVES
100
AcDbLine
 62
4
  6
CONTINUOUS
 10
9.1594113885
 20
6.0944015612
 11
9.1708960524
 21
6.0857880612
  0
LINE
  5
2D4
100
AcDbEntity
  8
03__ASM_ALL_CURVES
100
AcDbLine
 62
4
  6
CONTINUOUS
 10
9.2283193885
 20
6.1030150612
 11
9.2512887215
 21
6.0857880612
  0
LINE
  5
2D5
100
AcDbEntity
  8
03__ASM_ALL_CURVES
100
AcDbLine
 62
4
  6
CONTINUOUS
 10
9.1479267246
 20
6.3097390612
 11
9.1364420524
 21
6.3183525612
  0
LINE
  5
2D6
100
AcDbEntity
  8
03__ASM_ALL_CURVES
100
AcDbLine
 62
4
  6
CONTINUOUS
 10
8.2512887215
 20
6.4992360612
 11
8.2627733885
 21
6.4820090612
  0
LINE
  5
2D7
100
AcDbEntity
  8
03__ASM_ALL_CURVES
100
AcDbLine
 62
4
  6
CONTINUOUS
 10
9.1823807246
 20
5.4828430612
 11
9.1708960524
 21
5.5000700612
  0
LINE
  5
2D8
100
AcDbEntity
  8
03__ASM_ALL_CURVES
100
AcDbLine
 62
4
  6
CONTINUOUS
 10
8.1938653885
 20
6.0341070612
 11
8.1823807246
 21
6.0599475612
  0
LINE
  5
2D9
100
AcDbEntity
  8
03__ASM_ALL_CURVES
100
AcDbLine
 62
4
  6
CONTINUOUS
 10
7.7499573885
 20
5.9565855612
 11
7.7499573885
 21
5.8876775612
  0
LINE
  5
2DA
100
AcDbEntity
  8
03__ASM_ALL_CURVES
100
AcDbLine
 62
4
  6
CONTINUOUS
 10
7.7499573885
 20
5.5431375612
 11
7.7499573885
 21
5.4742295612
  0
LINE
  5
2DB
100
AcDbEntity
  8
03__ASM_ALL_CURVES
100
AcDbLine
 62
4
  6
CONTINUOUS
 10
7.7499573885
 20
5.0866220612
 11
7.7499573885
 21
5.1038490612
  0
LINE
  5
2DC
100
AcDbEntity
  8
03__ASM_ALL_CURVES
100
AcDbLine
 62
4
  6
CONTINUOUS
 10
7.7499573885
 20
5.3622540612
 11
7.7499573885
 21
5.3794810612
  0
LINE
  5
2DD
100
AcDbEntity
  8
03__ASM_ALL_CURVES
100
AcDbLine
 62
4
  6
CONTINUOUS
 10
7.7499573885
 20
6.0513340612
 11
7.7499573885
 21
6.0685610612
  0
LINE
  5
2DE
100
AcDbEntity
  8
03__ASM_ALL_CURVES
100
AcDbLine
 62
4
  6
CONTINUOUS
 10
7.7499573885
 20
6.3269660612
 11
7.7499573885
 21
6.3441930612
  0
LINE
  5
2DF
100
AcDbEntity
  8
03__ASM_ALL_CURVES
100
AcDbLine
 62
4
  6
CONTINUOUS
 10
8.1463653885
 20
11.3866495589
 11
8.1388653885
 21
11.3566495589
  0
LINE
  5
2E0
100
AcDbEntity
  8
03__ASM_ALL_CURVES
100
AcDbLine
 62
4
  6
CONTINUOUS
 10
8.3038653885
 20
11.3166495612
 11
8.2888653885
 21
11.2966495615
  0
LINE
  5
2E1
100
AcDbEntity
  8
03__ASM_ALL_CURVES
100
AcDbLine
 62
4
  6
CONTINUOUS
 10
8.7163653885
 20
11.3766495612
 11
8.7313653885
 21
11.3966495636
  0
LINE
  5
2E2
100
AcDbEntity
  8
03__ASM_ALL_CURVES
100
AcDbLine
 62
4
  6
CONTINUOUS
 10
8.2888653885
 20
11.2966495615
 11
8.2738653885
 21
11.2866495612
  0
LINE
  5
2E3
100
AcDbEntity
  8
03__ASM_ALL_CURVES
100
AcDbLine
 62
4
  6
CONTINUOUS
 10
8.7313653885
 20
11.3966495636
 11
8.7463653885
 21
11.4066495612
  0
LINE
  5
2E4
100
AcDbEntity
  8
03__ASM_ALL_CURVES
100
AcDbLine
 62
4
  6
CONTINUOUS
 10
8.8513653885
 20
11.3966495636
 11
8.8663653885
 21
11.4066495612
  0
LINE
  5
2E5
100
AcDbEntity
  8
03__ASM_ALL_CURVES
100
AcDbLine
 62
4
  6
CONTINUOUS
 10
8.7763653885
 20
11.2966495615
 11
8.7613653885
 21
11.2866495612
  0
LINE
  5
2E6
100
AcDbEntity
  8
03__ASM_ALL_CURVES
100
AcDbLine
 62
4
  6
CONTINUOUS
 10
11.8394608885
 20
13.3190728973
 11
11.8566878885
 21
13.3305575612
  0
LINE
  5
2E7
100
AcDbEntity
  8
03__ASM_ALL_CURVES
100
AcDbLine
 62
4
  6
CONTINUOUS
 10
12.9419888885
 20
13.2616495612
 11
12.9678293885
 21
13.2731342252
  0
LINE
  5
2E8
100
AcDbEntity
  8
03__ASM_ALL_CURVES
100
AcDbLine
 62
4
  6
CONTINUOUS
 10
13.1314858885
 20
13.2616495612
 11
13.1056453885
 21
13.2501648932
  0
LINE
  5
2E9
100
AcDbEntity
  8
03__ASM_ALL_CURVES
100
AcDbLine
 62
4
  6
CONTINUOUS
 10
7.8303500565
 20
5.7670885612
 11
7.8648040545
 21
5.7757020612
  0
LINE
  5
2EA
100
AcDbEntity
  8
03__ASM_ALL_CURVES
100
AcDbLine
 62
4
  6
CONTINUOUS
 10
8.2053500565
 20
5.9049045612
 11
8.2398040545
 21
5.9135180612
  0
LINE
  5
2EB
100
AcDbEntity
  8
03__ASM_ALL_CURVES
100
AcDbLine
 62
4
  6
CONTINUOUS
 10
9.2168347204
 20
6.3011255612
 11
9.1708960524
 21
6.3011255612
  0
LINE
  5
2EC
100
AcDbEntity
  8
03__ASM_ALL_CURVES
100
AcDbLine
 62
4
  6
CONTINUOUS
 10
7.7844113885
 20
6.3011255612
 11
7.7729267246
 21
6.3011255612
  0
LINE
  5
2ED
100
AcDbEntity
  8
03__ASM_ALL_CURVES
100
AcDbLine
 62
4
  6
CONTINUOUS
 10
8.2627733885
 20
6.3571133112
 11
8.245546388
 21
6.3571133112
  0
LINE
  5
2EE
100
AcDbEntity
  8
03__ASM_ALL_CURVES
100
AcDbLine
 62
4
  6
CONTINUOUS
 10
6.7627733885
 20
6.3571133112
 11
6.745546388
 21
6.3571133112
  0
LINE
  5
2EF
100
AcDbEntity
  8
03__ASM_ALL_CURVES
100
AcDbLine
 62
4
  6
CONTINUOUS
 10
7.7729267246
 20
6.3700335612
 11
7.7844113885
 21
6.3700335612
  0
LINE
  5
2F0
100
AcDbEntity
  8
03__ASM_ALL_CURVES
100
AcDbLine
 62
4
  6
CONTINUOUS
 10
9.1708960524
 20
6.3700335612
 11
9.2168347204
 21
6.3700335612
  0
LINE
  5
2F1
100
AcDbEntity
  8
03__ASM_ALL_CURVES
100
AcDbLine
 62
4
  6
CONTINUOUS
 10
7.8418347204
 20
6.3786470612
 11
7.8533193885
 21
6.3786470612
  0
LINE
  5
2F2
100
AcDbEntity
  8
03__ASM_ALL_CURVES
100
AcDbLine
 62
4
  6
CONTINUOUS
 10
6.7168347204
 20
6.4389415612
 11
6.6708960524
 21
6.4389415612
  0
LINE
  5
2F3
100
AcDbEntity
  8
03__ASM_ALL_CURVES
100
AcDbLine
 62
4
  6
CONTINUOUS
 10
7.7958960524
 20
6.5078495612
 11
7.8418347204
 21
6.5078495612
  0
LINE
  5
2F4
100
AcDbEntity
  8
03__ASM_ALL_CURVES
100
AcDbLine
 62
4
  6
CONTINUOUS
 10
9.1708960524
 20
6.5078495612
 11
9.2168347204
 21
6.5078495612
  0
LINE
  5
2F5
100
AcDbEntity
  8
03__ASM_ALL_CURVES
100
AcDbLine
 62
4
  6
CONTINUOUS
 10
6.6823807246
 20
6.6284385612
 11
6.7053500565
 21
6.6284385612
  0
LINE
  5
2F6
100
AcDbEntity
  8
03__ASM_ALL_CURVES
100
AcDbLine
 62
4
  6
CONTINUOUS
 10
7.8073807246
 20
6.6284385612
 11
7.8303500565
 21
6.6284385612
  0
LINE
  5
2F7
100
AcDbEntity
  8
03__ASM_ALL_CURVES
100
AcDbLine
 62
4
  6
CONTINUOUS
 10
8.1823807246
 20
6.6284385612
 11
8.2053500565
 21
6.6284385612
  0
LINE
  5
2F8
100
AcDbEntity
  8
03__ASM_ALL_CURVES
100
AcDbLine
 62
4
  6
CONTINUOUS
 10
9.1823807246
 20
6.6284385612
 11
9.2053500565
 21
6.6284385612
  0
LINE
  5
2F9
100
AcDbEntity
  8
03__ASM_ALL_CURVES
100
AcDbLine
 62
4
  6
CONTINUOUS
 10
9.2053500565
 20
6.6284385612
 11
9.2398040545
 21
6.6198250612
  0
LINE
  5
2FA
100
AcDbEntity
  8
03__ASM_ALL_CURVES
100
AcDbLine
 62
4
  6
CONTINUOUS
 10
9.2168347204
 20
6.5078495612
 11
9.2398040545
 21
6.4992360612
  0
LINE
  5
2FB
100
AcDbEntity
  8
03__ASM_ALL_CURVES
100
AcDbLine
 62
4
  6
CONTINUOUS
 10
9.2398040545
 20
6.3614200612
 11
9.2512887215
 21
6.3528065612
  0
LINE
  5
2FC
100
AcDbEntity
  8
03__ASM_ALL_CURVES
100
AcDbLine
 62
4
  6
CONTINUOUS
 10
9.1479267246
 20
6.4475550612
 11
9.1364420524
 21
6.4561685612
  0
LINE
  5
2FD
100
AcDbEntity
  8
03__ASM_ALL_CURVES
100
AcDbLine
 62
4
  6
CONTINUOUS
 10
9.2398040545
 20
6.4992360612
 11
9.2512887215
 21
6.4906225612
  0
LINE
  5
2FE
100
AcDbEntity
  8
03__ASM_ALL_CURVES
100
AcDbLine
 62
4
  6
CONTINUOUS
 10
9.2398040545
 20
6.6198250612
 11
9.2627733885
 21
6.6025980612
  0
LINE
  5
2FF
100
AcDbEntity
  8
03__ASM_ALL_CURVES
100
AcDbLine
 62
4
  6
CONTINUOUS
 10
9.2512887215
 20
5.5345240612
 11
9.2627733885
 21
5.5172970612
  0
LINE
  5
300
100
AcDbEntity
  8
03__ASM_ALL_CURVES
100
AcDbLine
 62
4
  6
CONTINUOUS
 10
9.1364420524
 20
5.8962910612
 11
9.1249573885
 21
5.9135180612
  0
LINE
  5
301
100
AcDbEntity
  8
03__ASM_ALL_CURVES
100
AcDbLine
 62
4
  6
CONTINUOUS
 10
9.1708960524
 20
5.9479720612
 11
9.1823807246
 21
5.9307450612
  0
LINE
  5
302
100
AcDbEntity
  8
03__ASM_ALL_CURVES
100
AcDbLine
 62
4
  6
CONTINUOUS
 10
9.1364420524
 20
6.0341070612
 11
9.1249573885
 21
6.0513340612
  0
LINE
  5
303
100
AcDbEntity
  8
03__ASM_ALL_CURVES
100
AcDbLine
 62
4
  6
CONTINUOUS
 10
9.2512887215
 20
5.9479720612
 11
9.2627733885
 21
5.9307450612
  0
LINE
  5
304
100
AcDbEntity
  8
03__ASM_ALL_CURVES
100
AcDbLine
 62
4
  6
CONTINUOUS
 10
9.1938653885
 20
6.0341070612
 11
9.1823807246
 21
6.0513340612
  0
LINE
  5
305
100
AcDbEntity
  8
03__ASM_ALL_CURVES
100
AcDbLine
 62
4
  6
CONTINUOUS
 10
9.1708960524
 20
6.0857880612
 11
9.1823807246
 21
6.0685610612
  0
LINE
  5
306
100
AcDbEntity
  8
03__ASM_ALL_CURVES
100
AcDbLine
 62
4
  6
CONTINUOUS
 10
9.2512887215
 20
6.0857880612
 11
9.2627733885
 21
6.0685610612
  0
LINE
  5
307
100
AcDbEntity
  8
03__ASM_ALL_CURVES
100
AcDbLine
 62
4
  6
CONTINUOUS
 10
9.1364420524
 20
6.3183525612
 11
9.1249573885
 21
6.3355795612
  0
LINE
  5
308
100
AcDbEntity
  8
03__ASM_ALL_CURVES
100
AcDbLine
 62
4
  6
CONTINUOUS
 10
7.8073807246
 20
5.3622540612
 11
7.8073807246
 21
5.3794810612
  0
LINE
  5
309
100
AcDbEntity
  8
03__ASM_ALL_CURVES
100
AcDbLine
 62
4
  6
CONTINUOUS
 10
7.8073807246
 20
6.3269660612
 11
7.8073807246
 21
6.3441930612
  0
LINE
  5
30A
100
AcDbEntity
  8
03__ASM_ALL_CURVES
100
AcDbLine
 62
4
  6
CONTINUOUS
 10
7.8188653885
 20
8.2488335612
 11
7.8188653885
 21
7.2313835612
  0
LINE
  5
30B
100
AcDbEntity
  8
03__ASM_ALL_CURVES
100
AcDbLine
 62
4
  6
CONTINUOUS
 10
7.8877733885
 20
6.3441930612
 11
7.8877733885
 21
6.3269660612
  0
LINE
  5
30C
100
AcDbEntity
  8
03__ASM_ALL_CURVES
100
AcDbLine
 62
4
  6
CONTINUOUS
 10
7.8877733885
 20
6.2322175612
 11
7.8877733885
 21
6.2192973112
  0
LINE
  5
30D
100
AcDbEntity
  8
03__ASM_ALL_CURVES
100
AcDbLine
 62
4
  6
CONTINUOUS
 10
7.8877733885
 20
5.3794810612
 11
7.8877733885
 21
5.3622540612
  0
LINE
  5
30E
100
AcDbEntity
  8
03__ASM_ALL_CURVES
100
AcDbLine
 62
4
  6
CONTINUOUS
 10
7.8877733885
 20
5.2675055612
 11
7.8877733885
 21
5.2545853112
  0
LINE
  5
30F
100
AcDbEntity
  8
03__ASM_ALL_CURVES
100
AcDbLine
 62
4
  6
CONTINUOUS
 10
7.8877733885
 20
5.0607815612
 11
7.8877733885
 21
5.1296895612
  0
LINE
  5
310
100
AcDbEntity
  8
03__ASM_ALL_CURVES
100
AcDbLine
 62
4
  6
CONTINUOUS
 10
7.8877733885
 20
6.0254935612
 11
7.8877733885
 21
6.0944015612
  0
LINE
  5
311
100
AcDbEntity
  8
0
100
AcDbLine
 62
7
  6
CONTINUOUS
 10
8.0338653885
 20
11.9466495612
 11
8.0338653885
 21
11.8866495612
  0
LINE
  5
312
100
AcDbEntity
  8
0
100
AcDbLine
 62
7
  6
CONTINUOUS
 10
8.0938653885
 20
11.8866495612
 11
8.0938653885
 21
11.8266495612
  0
LINE
  5
313
100
AcDbEntity
  8
0
100
AcDbLine
 62
7
  6
CONTINUOUS
 10
8.1238653885
 20
11.8266495612
 11
8.1238653885
 21
11.9466495612
  0
LINE
  5
314
100
AcDbEntity
  8
03__ASM_ALL_CURVES
100
AcDbLine
 62
4
  6
CONTINUOUS
 10
8.1249573885
 20
6.5078495612
 11
8.1249573885
 21
6.4561685612
  0
LINE
  5
315
100
AcDbEntity
  8
03__ASM_ALL_CURVES
100
AcDbLine
 62
4
  6
CONTINUOUS
 10
8.1249573885
 20
5.6809535612
 11
8.1249573885
 21
5.6292725612
  0
LINE
  5
316
100
AcDbEntity
  8
03__ASM_ALL_CURVES
100
AcDbLine
 62
4
  6
CONTINUOUS
 10
8.1249573885
 20
5.3622540612
 11
8.1249573885
 21
5.3794810612
  0
LINE
  5
317
100
AcDbEntity
  8
03__ASM_ALL_CURVES
100
AcDbLine
 62
4
  6
CONTINUOUS
 10
8.1249573885
 20
6.1891500612
 11
8.1249573885
 21
6.2063770612
  0
LINE
  5
318
100
AcDbEntity
  8
03__ASM_ALL_CURVES
100
AcDbLine
 62
4
  6
CONTINUOUS
 10
8.3113653885
 20
11.3466495612
 11
8.3038653885
 21
11.3166495612
  0
LINE
  5
319
100
AcDbEntity
  8
03__ASM_ALL_CURVES
100
AcDbLine
 62
4
  6
CONTINUOUS
 10
8.2668653885
 20
10.3846495612
 11
8.2743653885
 21
10.4146495612
  0
LINE
  5
31A
100
AcDbEntity
  8
03__ASM_ALL_CURVES
100
AcDbLine
 62
4
  6
CONTINUOUS
 10
8.3563653885
 20
11.2866495612
 11
8.3938653885
 21
11.4066495612
  0
LINE
  5
31B
100
AcDbEntity
  8
03__ASM_ALL_CURVES
100
AcDbLine
 62
4
  6
CONTINUOUS
 10
6.6823807246
 20
6.4733955612
 11
6.6938653885
 21
6.4992360612
  0
LINE
  5
31C
100
AcDbEntity
  8
03__ASM_ALL_CURVES
100
AcDbLine
 62
4
  6
CONTINUOUS
 10
8.7838653885
 20
11.3066495618
 11
8.7763653885
 21
11.2966495615
  0
LINE
  5
31D
100
AcDbEntity
  8
03__ASM_ALL_CURVES
100
AcDbLine
 62
4
  6
CONTINUOUS
 10
8.8363653885
 20
11.3766495612
 11
8.8513653885
 21
11.3966495636
  0
LINE
  5
31E
100
AcDbEntity
  8
03__ASM_ALL_CURVES
100
AcDbLine
 62
4
  6
CONTINUOUS
 10
8.9113653885
 20
11.3166495612
 11
8.8963653885
 21
11.2966495615
  0
LINE
  5
31F
100
AcDbEntity
  8
03__ASM_ALL_CURVES
100
AcDbLine
 62
4
  6
CONTINUOUS
 10
8.2743653885
 20
10.4146495612
 11
8.2893653885
 21
10.4346495636
  0
LINE
  5
320
100
AcDbEntity
  8
03__ASM_ALL_CURVES
100
AcDbLine
 62
4
  6
CONTINUOUS
 10
9.0238653885
 20
11.3166495612
 11
9.0088653885
 21
11.2966495615
  0
LINE
  5
321
100
AcDbEntity
  8
03__ASM_ALL_CURVES
100
AcDbLine
 62
4
  6
CONTINUOUS
 10
8.3418653885
 20
10.3446495618
 11
8.3343653885
 21
10.3346495615
  0
LINE
  5
322
100
AcDbEntity
  8
03__ASM_ALL_CURVES
100
AcDbLine
 62
4
  6
CONTINUOUS
 10
11.8394608885
 20
13.2616495612
 11
11.8566878885
 21
13.2731342252
  0
LINE
  5
323
100
AcDbEntity
  8
03__ASM_ALL_CURVES
100
AcDbLine
 62
4
  6
CONTINUOUS
 10
8.8963653885
 20
11.2966495615
 11
8.8813653885
 21
11.2866495612
  0
LINE
  5
324
100
AcDbEntity
  8
03__ASM_ALL_CURVES
100
AcDbLine
 62
4
  6
CONTINUOUS
 10
11.8911418885
 20
13.2846188973
 11
11.8739148885
 21
13.2731342252
  0
LINE
  5
325
100
AcDbEntity
  8
03__ASM_ALL_CURVES
100
AcDbLine
 62
4
  6
CONTINUOUS
 10
9.0088653885
 20
11.2966495615
 11
8.9938653885
 21
11.2866495612
  0
LINE
  5
326
100
AcDbEntity
  8
03__ASM_ALL_CURVES
100
AcDbLine
 62
4
  6
CONTINUOUS
 10
11.8911418885
 20
13.2042262283
 11
11.8739148885
 21
13.1927415612
  0
LINE
  5
327
100
AcDbEntity
  8
03__ASM_ALL_CURVES
100
AcDbLine
 62
4
  6
CONTINUOUS
 10
11.8394608885
 20
13.1328228973
 11
11.8566878885
 21
13.1443075612
  0
LINE
  5
328
100
AcDbEntity
  8
03__ASM_ALL_CURVES
100
AcDbLine
 62
4
  6
CONTINUOUS
 10
11.8394608885
 20
13.0753995612
 11
11.8566878885
 21
13.0868842252
  0
LINE
  5
329
100
AcDbEntity
  8
03__ASM_ALL_CURVES
100
AcDbLine
 62
4
  6
CONTINUOUS
 10
11.8911418885
 20
13.0983688973
 11
11.8739148885
 21
13.0868842252
  0
LINE
  5
32A
100
AcDbEntity
  8
03__ASM_ALL_CURVES
100
AcDbLine
 62
4
  6
CONTINUOUS
 10
11.8911418885
 20
13.0179762283
 11
11.8739148885
 21
13.0064915612
  0
LINE
  5
32B
100
AcDbEntity
  8
03__ASM_ALL_CURVES
100
AcDbLine
 62
4
  6
CONTINUOUS
 10
11.8394608885
 20
12.8981342252
 11
11.8566878885
 21
12.9096188973
  0
LINE
  5
32C
100
AcDbEntity
  8
03__ASM_ALL_CURVES
100
AcDbLine
 62
4
  6
CONTINUOUS
 10
12.5285408885
 20
13.3190728973
 11
12.5457678885
 21
13.3305575612
  0
LINE
  5
32D
100
AcDbEntity
  8
03__ASM_ALL_CURVES
100
AcDbLine
 62
4
  6
CONTINUOUS
 10
10.4753653885
 20
11.9366495636
 11
10.4903653885
 21
11.9466495612
  0
LINE
  5
32E
100
AcDbEntity
  8
03__ASM_ALL_CURVES
100
AcDbLine
 62
4
  6
CONTINUOUS
 10
6.7053500565
 20
5.7670885612
 11
6.7398040545
 21
5.7757020612
  0
LINE
  5
32F
100
AcDbEntity
  8
03__ASM_ALL_CURVES
100
AcDbLine
 62
4
  6
CONTINUOUS
 10
9.1479267246
 20
6.6198250612
 11
9.1823807246
 21
6.6284385612
  0
LINE
  5
330
100
AcDbEntity
  8
03__ASM_ALL_CURVES
100
AcDbLine
 62
4
  6
CONTINUOUS
 10
9.1364420524
 20
6.4561685612
 11
9.1249573885
 21
6.4733955612
  0
LINE
  5
331
100
AcDbEntity
  8
03__ASM_ALL_CURVES
100
AcDbLine
 62
4
  6
CONTINUOUS
 10
9.2512887215
 20
6.3528065612
 11
9.2627733885
 21
6.3355795612
  0
LINE
  5
332
100
AcDbEntity
  8
03__ASM_ALL_CURVES
100
AcDbLine
 62
4
  6
CONTINUOUS
 10
9.2512887215
 20
6.4906225612
 11
9.2627733885
 21
6.4733955612
  0
LINE
  5
333
100
AcDbEntity
  8
03__ASM_ALL_CURVES
100
AcDbLine
 62
4
  6
CONTINUOUS
 10
8.1388653885
 20
11.3566495589
 11
8.1388653885
 21
11.3366495601
  0
LINE
  5
334
100
AcDbEntity
  8
03__ASM_ALL_CURVES
100
AcDbLine
 62
4
  6
CONTINUOUS
 10
8.1708960524
 20
5.6378860612
 11
8.1708960524
 21
5.6551130612
  0
LINE
  5
335
100
AcDbEntity
  8
03__ASM_ALL_CURVES
100
AcDbLine
 62
4
  6
CONTINUOUS
 10
8.1708960524
 20
6.4647820612
 11
8.1708960524
 21
6.4820090612
  0
LINE
  5
336
100
AcDbEntity
  8
03__ASM_ALL_CURVES
100
AcDbLine
 62
4
  6
CONTINUOUS
 10
8.1823807246
 20
6.1891500612
 11
8.1823807246
 21
6.2063770612
  0
LINE
  5
337
100
AcDbEntity
  8
0
100
AcDbLine
 62
7
  6
CONTINUOUS
 10
8.1838653885
 20
11.9466495612
 11
8.1838653885
 21
11.8266495612
  0
LINE
  5
338
100
AcDbEntity
  8
03__ASM_ALL_CURVES
100
AcDbLine
 62
4
  6
CONTINUOUS
 10
8.1938653885
 20
8.2488335612
 11
8.1938653885
 21
7.2313835612
  0
LINE
  5
339
100
AcDbEntity
  8
0
100
AcDbLine
 62
7
  6
CONTINUOUS
 10
8.2138653885
 20
11.9466495612
 11
8.2138653885
 21
11.8266495612
  0
LINE
  5
33A
100
AcDbEntity
  8
03__ASM_ALL_CURVES
100
AcDbLine
 62
4
  6
CONTINUOUS
 10
8.2438653885
 20
11.2866495612
 11
8.2438653885
 21
11.4066495612
  0
LINE
  5
33B
100
AcDbEntity
  8
03__ASM_ALL_CURVES
100
AcDbLine
 62
4
  6
CONTINUOUS
 10
8.2627733885
 20
6.4820090612
 11
8.2627733885
 21
6.4647820612
  0
LINE
  5
33C
100
AcDbEntity
  8
03__ASM_ALL_CURVES
100
AcDbLine
 62
4
  6
CONTINUOUS
 10
8.2627733885
 20
6.3700335612
 11
8.2627733885
 21
6.3571133112
  0
LINE
  5
33D
100
AcDbEntity
  8
03__ASM_ALL_CURVES
100
AcDbLine
 62
4
  6
CONTINUOUS
 10
8.2627733885
 20
6.2063770612
 11
8.2627733885
 21
6.1891500612
  0
LINE
  5
33E
100
AcDbEntity
  8
03__ASM_ALL_CURVES
100
AcDbLine
 62
4
  6
CONTINUOUS
 10
8.2627733885
 20
5.6551130612
 11
8.2627733885
 21
5.6378860612
  0
LINE
  5
33F
100
AcDbEntity
  8
03__ASM_ALL_CURVES
100
AcDbLine
 62
4
  6
CONTINUOUS
 10
8.2627733885
 20
5.5431375612
 11
8.2627733885
 21
5.5302173112
  0
LINE
  5
340
100
AcDbEntity
  8
03__ASM_ALL_CURVES
100
AcDbLine
 62
4
  6
CONTINUOUS
 10
8.2627733885
 20
5.3364135612
 11
8.2627733885
 21
5.4053215612
  0
LINE
  5
341
100
AcDbEntity
  8
0
100
AcDbLine
 62
7
  6
CONTINUOUS
 10
8.2738653885
 20
11.9466495612
 11
8.2738653885
 21
11.8266495612
  0
LINE
  5
342
100
AcDbEntity
  8
03__ASM_ALL_CURVES
100
AcDbLine
 62
4
  6
CONTINUOUS
 10
8.3418653885
 20
10.3846495612
 11
8.3418653885
 21
10.3446495618
  0
LINE
  5
343
100
AcDbEntity
  8
0
100
AcDbLine
 62
7
  6
CONTINUOUS
 10
8.3938653885
 20
11.8266495612
 11
8.3938653885
 21
11.9466495612
  0
LINE
  5
344
100
AcDbEntity
  8
0
100
AcDbLine
 62
7
  6
CONTINUOUS
 10
8.4538653885
 20
11.8266495612
 11
8.4538653885
 21
11.8866495612
  0
LINE
  5
345
100
AcDbEntity
  8
0
100
AcDbLine
 62
7
  6
CONTINUOUS
 10
8.4938653885
 20
11.8266495612
 11
8.4938653885
 21
11.8866495612
  0
LINE
  5
346
100
AcDbEntity
  8
03__ASM_ALL_CURVES
100
AcDbLine
 62
4
  6
CONTINUOUS
 10
8.7088653885
 20
11.3466495612
 11
8.7163653885
 21
11.3766495612
  0
LINE
  5
347
100
AcDbEntity
  8
03__ASM_ALL_CURVES
100
AcDbLine
 62
4
  6
CONTINUOUS
 10
8.8288653885
 20
11.3466495612
 11
8.8363653885
 21
11.3766495612
  0
LINE
  5
348
100
AcDbEntity
  8
03__ASM_ALL_CURVES
100
AcDbLine
 62
4
  6
CONTINUOUS
 10
8.9188653885
 20
11.3466495612
 11
8.9113653885
 21
11.3166495612
  0
LINE
  5
349
100
AcDbEntity
  8
03__ASM_ALL_CURVES
100
AcDbLine
 62
4
  6
CONTINUOUS
 10
9.2413653885
 20
11.3066495618
 11
9.2263653885
 21
11.2866495612
  0
LINE
  5
34A
100
AcDbEntity
  8
03__ASM_ALL_CURVES
100
AcDbLine
 62
4
  6
CONTINUOUS
 10
8.2893653885
 20
10.4346495636
 11
8.3043653885
 21
10.4446495612
  0
LINE
  5
34B
100
AcDbEntity
  8
03__ASM_ALL_CURVES
100
AcDbLine
 62
4
  6
CONTINUOUS
 10
11.8911418885
 20
12.8292262283
 11
11.8739148885
 21
12.8177415612
  0
LINE
  5
34C
100
AcDbEntity
  8
03__ASM_ALL_CURVES
100
AcDbLine
 62
4
  6
CONTINUOUS
 10
12.5802218885
 20
13.2731342252
 11
12.5457678885
 21
13.2501648932
  0
LINE
  5
34D
100
AcDbEntity
  8
03__ASM_ALL_CURVES
100
AcDbLine
 62
4
  6
CONTINUOUS
 10
10.5203653885
 20
11.8966495589
 11
10.4903653885
 21
11.8766495601
  0
LINE
  5
34E
100
AcDbEntity
  8
03__ASM_ALL_CURVES
100
AcDbLine
 62
4
  6
CONTINUOUS
 10
12.6663568885
 20
13.3190728973
 11
12.6835838885
 21
13.3305575612
  0
LINE
  5
34F
100
AcDbEntity
  8
03__ASM_ALL_CURVES
100
AcDbLine
 62
4
  6
CONTINUOUS
 10
12.7180378885
 20
13.2846188973
 11
12.7008108885
 21
13.2731342252
  0
LINE
  5
350
100
AcDbEntity
  8
03__ASM_ALL_CURVES
100
AcDbLine
 62
4
  6
CONTINUOUS
 10
12.5285408885
 20
13.1328228973
 11
12.5457678885
 21
13.1443075612
  0
LINE
  5
351
100
AcDbEntity
  8
03__ASM_ALL_CURVES
100
AcDbLine
 62
4
  6
CONTINUOUS
 10
8.3343653885
 20
10.3346495615
 11
8.3193653885
 21
10.3246495612
  0
LINE
  5
352
100
AcDbEntity
  8
03__ASM_ALL_CURVES
100
AcDbLine
 62
4
  6
CONTINUOUS
 10
12.7180378885
 20
13.2042262283
 11
12.7008108885
 21
13.1927415612
  0
LINE
  5
353
100
AcDbEntity
  8
03__ASM_ALL_CURVES
100
AcDbLine
 62
4
  6
CONTINUOUS
 10
12.5802218885
 20
13.0868842252
 11
12.5457678885
 21
13.0639148932
  0
LINE
  5
354
100
AcDbEntity
  8
03__ASM_ALL_CURVES
100
AcDbLine
 62
4
  6
CONTINUOUS
 10
12.6663568885
 20
13.1328228973
 11
12.6835838885
 21
13.1443075612
  0
LINE
  5
355
100
AcDbEntity
  8
03__ASM_ALL_CURVES
100
AcDbLine
 62
4
  6
CONTINUOUS
 10
12.9506023885
 20
13.3190728973
 11
12.9678293885
 21
13.3305575612
  0
LINE
  5
356
100
AcDbEntity
  8
03__ASM_ALL_CURVES
100
AcDbLine
 62
4
  6
CONTINUOUS
 10
12.7180378885
 20
13.0868842252
 11
12.6835838885
 21
13.0639148932
  0
LINE
  5
357
100
AcDbEntity
  8
03__ASM_ALL_CURVES
100
AcDbLine
 62
4
  6
CONTINUOUS
 10
13.0884183885
 20
13.3190728973
 11
13.1056453885
 21
13.3305575612
  0
LINE
  5
358
100
AcDbEntity
  8
03__ASM_ALL_CURVES
100
AcDbLine
 62
4
  6
CONTINUOUS
 10
12.9850563885
 20
13.2042262283
 11
12.9678293885
 21
13.1927415612
  0
LINE
  5
359
100
AcDbEntity
  8
03__ASM_ALL_CURVES
100
AcDbLine
 62
4
  6
CONTINUOUS
 10
8.1479267246
 20
6.6198250612
 11
8.1823807246
 21
6.6284385612
  0
LINE
  5
35A
100
AcDbEntity
  8
03__ASM_ALL_CURVES
100
AcDbLine
 62
4
  6
CONTINUOUS
 10
7.7729267246
 20
6.6198250612
 11
7.8073807246
 21
6.6284385612
  0
LINE
  5
35B
100
AcDbEntity
  8
0
100
AcDbLine
 62
7
  6
CONTINUOUS
 10
8.9431361463
 20
7.4829573407
 11
8.9488653885
 21
7.4796495612
  0
LINE
  5
35C
100
AcDbEntity
  8
03__ASM_ALL_CURVES
100
AcDbLine
 62
4
  6
CONTINUOUS
 10
9.1938653885
 20
6.4992360612
 11
9.2053500565
 21
6.4733955612
  0
LINE
  5
35D
100
AcDbEntity
  8
03__ASM_ALL_CURVES
100
AcDbLine
 62
4
  6
CONTINUOUS
 10
8.5138653885
 20
11.4066495612
 11
8.5138653885
 21
11.2866495612
  0
LINE
  5
35E
100
AcDbEntity
  8
0
100
AcDbLine
 62
7
  6
CONTINUOUS
 10
8.5538653885
 20
11.8866495612
 11
8.5538653885
 21
11.7666495612
  0
LINE
  5
35F
100
AcDbEntity
  8
03__ASM_ALL_CURVES
100
AcDbLine
 62
4
  6
CONTINUOUS
 10
8.5738653885
 20
11.6466495612
 11
8.5738653885
 21
11.5266495612
  0
LINE
  5
360
100
AcDbEntity
  8
0
100
AcDbLine
 62
7
  6
CONTINUOUS
 10
8.5938653885
 20
11.8266495612
 11
8.5938653885
 21
11.8866495612
  0
LINE
  5
361
100
AcDbEntity
  8
03__ASM_ALL_CURVES
100
AcDbLine
 62
4
  6
CONTINUOUS
 10
8.6038653885
 20
11.2866495612
 11
8.6038653885
 21
11.4066495612
  0
LINE
  5
362
100
AcDbEntity
  8
0
100
AcDbLine
 62
7
  6
CONTINUOUS
 10
8.6538653885
 20
11.9466495612
 11
8.6538653885
 21
11.8266495612
  0
LINE
  5
363
100
AcDbEntity
  8
03__ASM_ALL_CURVES
100
AcDbLine
 62
4
  6
CONTINUOUS
 10
8.6638653885
 20
11.5266495612
 11
8.6638653885
 21
11.6466495612
  0
LINE
  5
364
100
AcDbEntity
  8
0
100
AcDbLine
 62
7
  6
CONTINUOUS
 10
8.6938653885
 20
11.8866495612
 11
8.6938653885
 21
11.8266495612
  0
LINE
  5
365
100
AcDbEntity
  8
03__ASM_ALL_CURVES
100
AcDbLine
 62
4
  6
CONTINUOUS
 10
8.7238653885
 20
11.5266495612
 11
8.7238653885
 21
11.6466495612
  0
LINE
  5
366
100
AcDbEntity
  8
03__ASM_ALL_CURVES
100
AcDbLine
 62
4
  6
CONTINUOUS
 10
8.7838653885
 20
11.6466495612
 11
8.7838653885
 21
11.5266495612
  0
LINE
  5
367
100
AcDbEntity
  8
0
100
AcDbLine
 62
7
  6
CONTINUOUS
 10
8.7893653885
 20
8.3866495612
 11
8.7893653885
 21
8.2656495612
  0
LINE
  5
368
100
AcDbEntity
  8
0
100
AcDbLine
 62
7
  6
CONTINUOUS
 10
8.7938653885
 20
11.8266495612
 11
8.7938653885
 21
11.8666495612
  0
LINE
  5
369
100
AcDbEntity
  8
0
100
AcDbLine
 62
7
  6
CONTINUOUS
 10
8.8538653885
 20
11.8866495612
 11
8.8538653885
 21
11.8266495612
  0
LINE
  5
36A
100
AcDbEntity
  8
03__ASM_ALL_CURVES
100
AcDbLine
 62
4
  6
CONTINUOUS
 10
9.0313653885
 20
11.3466495612
 11
9.0238653885
 21
11.3166495612
  0
LINE
  5
36B
100
AcDbEntity
  8
03__ASM_ALL_CURVES
100
AcDbLine
 62
4
  6
CONTINUOUS
 10
9.2488653885
 20
11.3366495601
 11
9.2413653885
 21
11.3066495618
  0
LINE
  5
36C
100
AcDbEntity
  8
03__ASM_ALL_CURVES
100
AcDbLine
 62
4
  6
CONTINUOUS
 10
6.6249573885
 20
6.4733955612
 11
6.6364420524
 21
6.4906225612
  0
LINE
  5
36D
100
AcDbEntity
  8
03__ASM_ALL_CURVES
100
AcDbLine
 62
4
  6
CONTINUOUS
 10
10.4678653885
 20
11.9266495589
 11
10.4753653885
 21
11.9366495636
  0
LINE
  5
36E
100
AcDbEntity
  8
03__ASM_ALL_CURVES
100
AcDbLine
 62
4
  6
CONTINUOUS
 10
10.4903653885
 20
11.8766495601
 11
10.4753653885
 21
11.8566495612
  0
LINE
  5
36F
100
AcDbEntity
  8
03__ASM_ALL_CURVES
100
AcDbLine
 62
4
  6
CONTINUOUS
 10
10.5278653885
 20
11.9066495636
 11
10.5203653885
 21
11.8966495589
  0
LINE
  5
370
100
AcDbEntity
  8
03__ASM_ALL_CURVES
100
AcDbLine
 62
4
  6
CONTINUOUS
 10
13.1228723885
 20
13.2042262283
 11
13.1056453885
 21
13.1927415612
  0
LINE
  5
371
100
AcDbEntity
  8
03__ASM_ALL_CURVES
100
AcDbLine
 62
4
  6
CONTINUOUS
 10
12.8041728885
 20
12.9440728973
 11
12.8213998885
 21
12.9555575612
  0
LINE
  5
372
100
AcDbEntity
  8
03__ASM_ALL_CURVES
100
AcDbLine
 62
4
  6
CONTINUOUS
 10
12.8558538885
 20
12.9096188973
 11
12.8386268885
 21
12.8981342252
  0
LINE
  5
373
100
AcDbEntity
  8
03__ASM_ALL_CURVES
100
AcDbLine
 62
4
  6
CONTINUOUS
 10
12.8558538885
 20
12.8292262283
 11
12.8386268885
 21
12.8177415612
  0
LINE
  5
374
100
AcDbEntity
  8
03__ASM_ALL_CURVES
100
AcDbLine
 62
4
  6
CONTINUOUS
 10
6.6479267246
 20
6.6198250612
 11
6.6823807246
 21
6.6284385612
  0
LINE
  5
375
100
AcDbEntity
  8
03__ASM_ALL_CURVES
100
AcDbLine
 62
4
  6
CONTINUOUS
 10
12.8386268885
 20
7.4107415612
 11
12.8213998885
 21
7.4107415612
  0
LINE
  5
376
100
AcDbEntity
  8
03__ASM_ALL_CURVES
100
AcDbLine
 62
4
  6
CONTINUOUS
 10
12.7266513885
 20
7.4107415612
 11
12.7137311385
 21
7.4107415612
  0
LINE
  5
377
100
AcDbEntity
  8
03__ASM_ALL_CURVES
100
AcDbLine
 62
4
  6
CONTINUOUS
 10
11.7619393885
 20
7.4107415612
 11
11.7490191385
 21
7.4107415612
  0
LINE
  5
378
100
AcDbEntity
  8
03__ASM_ALL_CURVES
100
AcDbLine
 62
4
  6
CONTINUOUS
 10
12.3821113885
 20
7.4107415612
 11
12.4510193885
 21
7.4107415612
  0
LINE
  5
379
100
AcDbEntity
  8
03__ASM_ALL_CURVES
100
AcDbLine
 62
4
  6
CONTINUOUS
 10
12.5199273885
 20
7.4107415612
 11
12.5888353885
 21
7.4107415612
  0
LINE
  5
37A
100
AcDbEntity
  8
03__ASM_ALL_CURVES
100
AcDbLine
 62
4
  6
CONTINUOUS
 10
10.7168347204
 20
7.4563915612
 11
10.6708960524
 21
7.4563915612
  0
LINE
  5
37B
100
AcDbEntity
  8
0
100
AcDbLine
 62
7
  6
CONTINUOUS
 10
10.1888637548
 20
7.4796495612
 11
8.9488670221
 21
7.4796495612
  0
LINE
  5
37C
100
AcDbEntity
  8
03__ASM_ALL_CURVES
100
AcDbLine
 62
4
  6
CONTINUOUS
 10
10.8316813885
 20
7.4796495612
 11
11.2451293885
 21
7.4796495612
  0
LINE
  5
37D
100
AcDbEntity
  8
03__ASM_ALL_CURVES
100
AcDbLine
 62
4
  6
CONTINUOUS
 10
12.8213998885
 20
7.4911342252
 11
12.8386268885
 21
7.4911342252
  0
LINE
  5
37E
100
AcDbEntity
  8
03__ASM_ALL_CURVES
100
AcDbLine
 62
4
  6
CONTINUOUS
 10
10.6708960524
 20
7.5252995612
 11
10.7168347204
 21
7.5252995612
  0
LINE
  5
37F
100
AcDbEntity
  8
0
100
AcDbLine
 62
7
  6
CONTINUOUS
 10
10.1938759224
 20
7.5310337352
 11
10.1712536049
 21
7.5310337352
  0
LINE
  5
380
100
AcDbEntity
  8
0
100
AcDbLine
 62
7
  6
CONTINUOUS
 10
9.591487706
 20
7.5310337352
 11
9.546243071
 21
7.5310337352
  0
LINE
  5
381
100
AcDbEntity
  8
0
100
AcDbLine
 62
7
  6
CONTINUOUS
 10
8.9664771721
 20
7.5310337352
 11
8.9438548546
 21
7.5310337352
  0
LINE
  5
382
100
AcDbEntity
  8
03__ASM_ALL_CURVES
100
AcDbLine
 62
4
  6
CONTINUOUS
 10
12.4079518885
 20
7.5485575612
 11
12.4251788885
 21
7.5485575612
  0
LINE
  5
383
100
AcDbEntity
  8
03__ASM_ALL_CURVES
100
AcDbLine
 62
4
  6
CONTINUOUS
 10
12.5457678885
 20
7.5485575612
 11
12.5629948885
 21
7.5485575612
  0
LINE
  5
384
100
AcDbEntity
  8
03__ASM_ALL_CURVES
100
AcDbLine
 62
4
  6
CONTINUOUS
 10
12.8213998885
 20
7.5485575612
 11
12.8386268885
 21
7.5485575612
  0
LINE
  5
385
100
AcDbEntity
  8
03__ASM_ALL_CURVES
100
AcDbLine
 62
4
  6
CONTINUOUS
 10
10.6708960524
 20
7.4563915612
 11
10.6479267246
 21
7.4650050612
  0
LINE
  5
386
100
AcDbEntity
  8
0
100
AcDbLine
 62
7
  6
CONTINUOUS
 10
8.7893653885
 20
8.2656495612
 11
8.8598653885
 21
8.2249463673
  0
LINE
  5
387
100
AcDbEntity
  8
03__ASM_ALL_CURVES
100
AcDbLine
 62
4
  6
CONTINUOUS
 10
8.2743653885
 20
10.3546495612
 11
8.2668653885
 21
10.3846495612
  0
LINE
  5
388
100
AcDbEntity
  8
03__ASM_ALL_CURVES
100
AcDbLine
 62
4
  6
CONTINUOUS
 10
8.1388653885
 20
11.3366495601
 11
8.1463653885
 21
11.3066495618
  0
LINE
  5
389
100
AcDbEntity
  8
0
100
AcDbLine
 62
7
  6
CONTINUOUS
 10
8.8938653885
 20
11.8866495612
 11
8.8938653885
 21
11.8266495612
  0
LINE
  5
38A
100
AcDbEntity
  8
0
100
AcDbLine
 62
7
  6
CONTINUOUS
 10
8.9438548546
 20
8.2249463673
 11
8.9438548546
 21
7.4825444337
  0
LINE
  5
38B
100
AcDbEntity
  8
0
100
AcDbLine
 62
7
  6
CONTINUOUS
 10
8.9538653885
 20
11.8266495612
 11
8.9538653885
 21
11.8866495612
  0
LINE
  5
38C
100
AcDbEntity
  8
03__ASM_ALL_CURVES
100
AcDbLine
 62
4
  6
CONTINUOUS
 10
8.9638653885
 20
11.2866495612
 11
8.9638653885
 21
11.4066495612
  0
LINE
  5
38D
100
AcDbEntity
  8
0
100
AcDbLine
 62
7
  6
CONTINUOUS
 10
8.9664771721
 20
8.2249463673
 11
8.9664771721
 21
7.5310337352
  0
LINE
  5
38E
100
AcDbEntity
  8
0
100
AcDbLine
 62
7
  6
CONTINUOUS
 10
8.9938653885
 20
11.8266495612
 11
8.9938653885
 21
11.9466495612
  0
LINE
  5
38F
100
AcDbEntity
  8
0
100
AcDbLine
 62
7
  6
CONTINUOUS
 10
9.0338653885
 20
11.8266495612
 11
9.0338653885
 21
11.8866495612
  0
LINE
  5
390
100
AcDbEntity
  8
0
100
AcDbLine
 62
7
  6
CONTINUOUS
 10
9.0738653885
 20
11.8866495612
 11
9.0738653885
 21
11.8266495612
  0
LINE
  5
391
100
AcDbEntity
  8
03__ASM_ALL_CURVES
100
AcDbLine
 62
4
  6
CONTINUOUS
 10
9.0838653885
 20
11.2866495612
 11
9.0838653885
 21
11.4066495612
  0
LINE
  5
392
100
AcDbEntity
  8
03__ASM_ALL_CURVES
100
AcDbLine
 62
4
  6
CONTINUOUS
 10
9.1249573885
 20
5.5431375612
 11
9.1249573885
 21
5.4914565612
  0
LINE
  5
393
100
AcDbEntity
  8
03__ASM_ALL_CURVES
100
AcDbLine
 62
4
  6
CONTINUOUS
 10
9.1249573885
 20
5.9135180612
 11
9.1249573885
 21
5.9307450612
  0
LINE
  5
394
100
AcDbEntity
  8
03__ASM_ALL_CURVES
100
AcDbLine
 62
4
  6
CONTINUOUS
 10
9.1249573885
 20
6.0513340612
 11
9.1249573885
 21
6.0685610612
  0
LINE
  5
395
100
AcDbEntity
  8
03__ASM_ALL_CURVES
100
AcDbLine
 62
4
  6
CONTINUOUS
 10
9.1708960524
 20
5.5000700612
 11
9.1708960524
 21
5.5172970612
  0
LINE
  5
396
100
AcDbEntity
  8
0
100
AcDbLine
 62
7
  6
CONTINUOUS
 10
9.1738653885
 20
11.8866495612
 11
9.1738653885
 21
11.8566495612
  0
LINE
  5
397
100
AcDbEntity
  8
03__ASM_ALL_CURVES
100
AcDbLine
 62
4
  6
CONTINUOUS
 10
9.1823807246
 20
5.9135180612
 11
9.1823807246
 21
5.9307450612
  0
LINE
  5
398
100
AcDbEntity
  8
03__ASM_ALL_CURVES
100
AcDbLine
 62
4
  6
CONTINUOUS
 10
9.1823807246
 20
6.0513340612
 11
9.1823807246
 21
6.0685610612
  0
LINE
  5
399
100
AcDbEntity
  8
03__ASM_ALL_CURVES
100
AcDbLine
 62
4
  6
CONTINUOUS
 10
9.1938653885
 20
8.2488335612
 11
9.1938653885
 21
7.2313835612
  0
LINE
  5
39A
100
AcDbEntity
  8
03__ASM_ALL_CURVES
100
AcDbLine
 62
4
  6
CONTINUOUS
 10
7.8303500565
 20
6.4733955612
 11
7.8188653885
 21
6.4475550612
  0
LINE
  5
39B
100
AcDbEntity
  8
03__ASM_ALL_CURVES
100
AcDbLine
 62
4
  6
CONTINUOUS
 10
6.7627733885
 20
6.4733955612
 11
6.7512887215
 21
6.4561685612
  0
LINE
  5
39C
100
AcDbEntity
  8
03__ASM_ALL_CURVES
100
AcDbLine
 62
4
  6
CONTINUOUS
 10
6.6249573885
 20
6.0599475612
 11
6.6364420524
 21
6.0771745612
  0
LINE
  5
39D
100
AcDbEntity
  8
03__ASM_ALL_CURVES
100
AcDbLine
 62
4
  6
CONTINUOUS
 10
6.7627733885
 20
6.0599475612
 11
6.7512887215
 21
6.0427205612
  0
LINE
  5
39E
100
AcDbEntity
  8
03__ASM_ALL_CURVES
100
AcDbLine
 62
4
  6
CONTINUOUS
 10
11.8308473885
 20
13.3075882252
 11
11.8394608885
 21
13.3190728973
  0
LINE
  5
39F
100
AcDbEntity
  8
03__ASM_ALL_CURVES
100
AcDbLine
 62
4
  6
CONTINUOUS
 10
11.8222338885
 20
13.2386802293
 11
11.8394608885
 21
13.2616495612
  0
LINE
  5
3A0
100
AcDbEntity
  8
03__ASM_ALL_CURVES
100
AcDbLine
 62
4
  6
CONTINUOUS
 10
11.8997553885
 20
13.2961035612
 11
11.8911418885
 21
13.2846188973
  0
LINE
  5
3A1
100
AcDbEntity
  8
03__ASM_ALL_CURVES
100
AcDbLine
 62
4
  6
CONTINUOUS
 10
11.9083688885
 20
13.2271955612
 11
11.8911418885
 21
13.2042262283
  0
LINE
  5
3A2
100
AcDbEntity
  8
03__ASM_ALL_CURVES
100
AcDbLine
 62
4
  6
CONTINUOUS
 10
11.8308473885
 20
13.1213382252
 11
11.8394608885
 21
13.1328228973
  0
LINE
  5
3A3
100
AcDbEntity
  8
03__ASM_ALL_CURVES
100
AcDbLine
 62
4
  6
CONTINUOUS
 10
11.8222338885
 20
13.0524302293
 11
11.8394608885
 21
13.0753995612
  0
LINE
  5
3A4
100
AcDbEntity
  8
03__ASM_ALL_CURVES
100
AcDbLine
 62
4
  6
CONTINUOUS
 10
11.8997553885
 20
13.1098535612
 11
11.8911418885
 21
13.0983688973
  0
LINE
  5
3A5
100
AcDbEntity
  8
03__ASM_ALL_CURVES
100
AcDbLine
 62
4
  6
CONTINUOUS
 10
13.7861118885
 20
13.1443075612
 11
13.7688848885
 21
13.1328228973
  0
LINE
  5
3A6
100
AcDbEntity
  8
03__ASM_ALL_CURVES
100
AcDbLine
 62
4
  6
CONTINUOUS
 10
13.8205658885
 20
13.0179762283
 11
13.8033388885
 21
13.0064915612
  0
LINE
  5
3A7
100
AcDbEntity
  8
03__ASM_ALL_CURVES
100
AcDbLine
 62
4
  6
CONTINUOUS
 10
10.7168347204
 20
7.5252995612
 11
10.7398040545
 21
7.5166860612
  0
LINE
  5
3A8
100
AcDbEntity
  8
03__ASM_ALL_CURVES
100
AcDbLine
 62
4
  6
CONTINUOUS
 10
9.3313653885
 20
8.5366495612
 11
9.3163653885
 21
8.5466495615
  0
LINE
  5
3A9
100
AcDbEntity
  8
03__ASM_ALL_CURVES
100
AcDbLine
 62
4
  6
CONTINUOUS
 10
10.6479267246
 20
7.4650050612
 11
10.6364420524
 21
7.4736185612
  0
LINE
  5
3AA
100
AcDbEntity
  8
03__ASM_ALL_CURVES
100
AcDbLine
 62
4
  6
CONTINUOUS
 10
10.7398040545
 20
7.5166860612
 11
10.7512887215
 21
7.5080725612
  0
LINE
  5
3AB
100
AcDbEntity
  8
03__ASM_ALL_CURVES
100
AcDbLine
 62
4
  6
CONTINUOUS
 10
9.3163653885
 20
8.5466495615
 11
9.3013653885
 21
8.5666495612
  0
LINE
  5
3AC
100
AcDbEntity
  8
03__ASM_ALL_CURVES
100
AcDbLine
 62
4
  6
CONTINUOUS
 10
9.3613653885
 20
8.6466495636
 11
9.3688653885
 21
8.6366495589
  0
LINE
  5
3AD
100
AcDbEntity
  8
03__ASM_ALL_CURVES
100
AcDbLine
 62
4
  6
CONTINUOUS
 10
8.3938653885
 20
11.4066495612
 11
8.4313653885
 21
11.2866495612
  0
LINE
  5
3AE
100
AcDbEntity
  8
03__ASM_ALL_CURVES
100
AcDbLine
 62
4
  6
CONTINUOUS
 10
8.3038653885
 20
11.3766495612
 11
8.3113653885
 21
11.3466495612
  0
LINE
  5
3AF
100
AcDbEntity
  8
03__ASM_ALL_CURVES
100
AcDbLine
 62
4
  6
CONTINUOUS
 10
9.3013653885
 20
8.5666495612
 11
9.2938653885
 21
8.5966495612
  0
LINE
  5
3B0
100
AcDbEntity
  8
0
100
AcDbLine
 62
7
  6
CONTINUOUS
 10
9.2338653885
 20
11.8566495612
 11
9.2338653885
 21
11.8266495612
  0
LINE
  5
3B1
100
AcDbEntity
  8
03__ASM_ALL_CURVES
100
AcDbLine
 62
4
  6
CONTINUOUS
 10
9.2488653885
 20
11.3566495589
 11
9.2488653885
 21
11.3366495601
  0
LINE
  5
3B2
100
AcDbEntity
  8
03__ASM_ALL_CURVES
100
AcDbLine
 62
4
  6
CONTINUOUS
 10
9.2627733885
 20
6.2322175612
 11
9.2627733885
 21
6.2192973112
  0
LINE
  5
3B3
100
AcDbEntity
  8
03__ASM_ALL_CURVES
100
AcDbLine
 62
4
  6
CONTINUOUS
 10
9.2627733885
 20
6.0685610612
 11
9.2627733885
 21
6.0513340612
  0
LINE
  5
3B4
100
AcDbEntity
  8
03__ASM_ALL_CURVES
100
AcDbLine
 62
4
  6
CONTINUOUS
 10
9.2627733885
 20
5.9307450612
 11
9.2627733885
 21
5.9135180612
  0
LINE
  5
3B5
100
AcDbEntity
  8
03__ASM_ALL_CURVES
100
AcDbLine
 62
4
  6
CONTINUOUS
 10
9.2627733885
 20
5.5172970612
 11
9.2627733885
 21
5.5000700612
  0
LINE
  5
3B6
100
AcDbEntity
  8
03__ASM_ALL_CURVES
100
AcDbLine
 62
4
  6
CONTINUOUS
 10
9.2627733885
 20
5.4053215612
 11
9.2627733885
 21
5.3924013112
  0
LINE
  5
3B7
100
AcDbEntity
  8
0
100
AcDbLine
 62
7
  6
CONTINUOUS
 10
9.546243071
 20
8.2249463673
 11
9.546243071
 21
7.5310337352
  0
LINE
  5
3B8
100
AcDbEntity
  8
03__ASM_ALL_CURVES
100
AcDbLine
 62
4
  6
CONTINUOUS
 10
9.5488653885
 20
8.6566495612
 11
9.5488653885
 21
8.5366495612
  0
LINE
  5
3B9
100
AcDbEntity
  8
0
100
AcDbLine
 62
7
  6
CONTINUOUS
 10
9.591487706
 20
8.2249463673
 11
9.591487706
 21
7.5310337352
  0
LINE
  5
3BA
100
AcDbEntity
  8
03__ASM_ALL_CURVES
100
AcDbLine
 62
4
  6
CONTINUOUS
 10
9.2938653885
 20
8.5966495612
 11
9.3013653885
 21
8.6266495612
  0
LINE
  5
3BB
100
AcDbEntity
  8
03__ASM_ALL_CURVES
100
AcDbLine
 62
4
  6
CONTINUOUS
 10
11.6155098885
 20
13.3305575612
 11
11.5552153885
 21
13.2271955612
  0
LINE
  5
3BC
100
AcDbEntity
  8
03__ASM_ALL_CURVES
100
AcDbLine
 62
4
  6
CONTINUOUS
 10
11.6155098885
 20
13.1443075612
 11
11.5552153885
 21
13.0409455612
  0
LINE
  5
3BD
100
AcDbEntity
  8
03__ASM_ALL_CURVES
100
AcDbLine
 62
4
  6
CONTINUOUS
 10
11.6155098885
 20
12.9555575612
 11
11.5552153885
 21
12.8521955612
  0
LINE
  5
3BE
100
AcDbEntity
  8
03__ASM_ALL_CURVES
100
AcDbLine
 62
4
  6
CONTINUOUS
 10
6.6249573885
 20
5.5086835612
 11
6.6364420524
 21
5.5259105612
  0
LINE
  5
3BF
100
AcDbEntity
  8
03__ASM_ALL_CURVES
100
AcDbLine
 62
4
  6
CONTINUOUS
 10
6.7627733885
 20
5.5086835612
 11
6.7512887215
 21
5.4914565612
  0
LINE
  5
3C0
100
AcDbEntity
  8
03__ASM_ALL_CURVES
100
AcDbLine
 62
4
  6
CONTINUOUS
 10
11.9083688885
 20
13.0409455612
 11
11.8911418885
 21
13.0179762283
  0
LINE
  5
3C1
100
AcDbEntity
  8
03__ASM_ALL_CURVES
100
AcDbLine
 62
4
  6
CONTINUOUS
 10
11.8997553885
 20
12.8407108953
 11
11.8911418885
 21
12.8292262283
  0
LINE
  5
3C2
100
AcDbEntity
  8
03__ASM_ALL_CURVES
100
AcDbLine
 62
4
  6
CONTINUOUS
 10
12.2873628885
 20
13.3305575612
 11
12.2701358885
 21
13.3075882252
  0
LINE
  5
3C3
100
AcDbEntity
  8
03__ASM_ALL_CURVES
100
AcDbLine
 62
4
  6
CONTINUOUS
 10
12.2873628885
 20
13.1443075612
 11
12.2701358885
 21
13.1213382252
  0
LINE
  5
3C4
100
AcDbEntity
  8
03__ASM_ALL_CURVES
100
AcDbLine
 62
4
  6
CONTINUOUS
 10
12.1495468885
 20
12.9555575612
 11
12.1323198885
 21
12.9325882252
  0
LINE
  5
3C5
100
AcDbEntity
  8
0
100
AcDbLine
 62
7
  6
CONTINUOUS
 10
8.8598653885
 20
8.2249463673
 11
10.2778653885
 21
8.2249463673
  0
LINE
  5
3C6
100
AcDbEntity
  8
0
100
AcDbLine
 62
7
  6
CONTINUOUS
 10
8.7893653885
 20
8.2656495612
 11
10.3483653885
 21
8.2656495612
  0
LINE
  5
3C7
100
AcDbEntity
  8
0
100
AcDbLine
 62
7
  6
CONTINUOUS
 10
10.6938653885
 20
8.3866495612
 11
6.6938653885
 21
8.3866495612
  0
LINE
  5
3C8
100
AcDbEntity
  8
03__ASM_ALL_CURVES
100
AcDbLine
 62
4
  6
CONTINUOUS
 10
10.8316813885
 20
8.3866495612
 11
11.2451293885
 21
8.3866495612
  0
LINE
  5
3C9
100
AcDbEntity
  8
03__ASM_ALL_CURVES
100
AcDbLine
 62
4
  6
CONTINUOUS
 10
11.8653013885
 20
7.4681648932
 11
11.8394608885
 21
7.4796495612
  0
LINE
  5
3CA
100
AcDbEntity
  8
03__ASM_ALL_CURVES
100
AcDbLine
 62
4
  6
CONTINUOUS
 10
9.3463653885
 20
8.6566495612
 11
9.3613653885
 21
8.6466495636
  0
LINE
  5
3CB
100
AcDbEntity
  8
03__ASM_ALL_CURVES
100
AcDbLine
 62
4
  6
CONTINUOUS
 10
11.5896693885
 20
7.4107415612
 11
11.5724423885
 21
7.4222262283
  0
LINE
  5
3CC
100
AcDbEntity
  8
03__ASM_ALL_CURVES
100
AcDbLine
 62
4
  6
CONTINUOUS
 10
8.2893653885
 20
10.3346495615
 11
8.2743653885
 21
10.3546495612
  0
LINE
  5
3CD
100
AcDbEntity
  8
03__ASM_ALL_CURVES
100
AcDbLine
 62
4
  6
CONTINUOUS
 10
8.3343653885
 20
10.4346495636
 11
8.3418653885
 21
10.4246495589
  0
LINE
  5
3CE
100
AcDbEntity
  8
03__ASM_ALL_CURVES
100
AcDbLine
 62
4
  6
CONTINUOUS
 10
9.4288653885
 20
8.6566495612
 11
9.4888653885
 21
8.5366495612
  0
LINE
  5
3CF
100
AcDbEntity
  8
03__ASM_ALL_CURVES
100
AcDbLine
 62
4
  6
CONTINUOUS
 10
9.6988653885
 20
8.6566495612
 11
9.7363653885
 21
8.5366495612
  0
LINE
  5
3D0
100
AcDbEntity
  8
03__ASM_ALL_CURVES
100
AcDbLine
 62
4
  6
CONTINUOUS
 10
8.7163653885
 20
11.3166495612
 11
8.7088653885
 21
11.3466495612
  0
LINE
  5
3D1
100
AcDbEntity
  8
03__ASM_ALL_CURVES
100
AcDbLine
 62
4
  6
CONTINUOUS
 10
8.8363653885
 20
11.3166495612
 11
8.8288653885
 21
11.3466495612
  0
LINE
  5
3D2
100
AcDbEntity
  8
03__ASM_ALL_CURVES
100
AcDbLine
 62
4
  6
CONTINUOUS
 10
8.9113653885
 20
11.3766495612
 11
8.9188653885
 21
11.3466495612
  0
LINE
  5
3D3
100
AcDbEntity
  8
03__ASM_ALL_CURVES
100
AcDbLine
 62
4
  6
CONTINUOUS
 10
9.0238653885
 20
11.3766495612
 11
9.0313653885
 21
11.3466495612
  0
LINE
  5
3D4
100
AcDbEntity
  8
03__ASM_ALL_CURVES
100
AcDbLine
 62
4
  6
CONTINUOUS
 10
9.6088653885
 20
8.6566495612
 11
9.6088653885
 21
8.5366495612
  0
LINE
  5
3D5
100
AcDbEntity
  8
03__ASM_ALL_CURVES
100
AcDbLine
 62
4
  6
CONTINUOUS
 10
10.4753653885
 20
11.8566495612
 11
10.4678653885
 21
11.8266495612
  0
LINE
  5
3D6
100
AcDbEntity
  8
03__ASM_ALL_CURVES
100
AcDbLine
 62
4
  6
CONTINUOUS
 10
9.6613653885
 20
8.5366495612
 11
9.6988653885
 21
8.6566495612
  0
LINE
  5
3D7
100
AcDbEntity
  8
03__ASM_ALL_CURVES
100
AcDbLine
 62
4
  6
CONTINUOUS
 10
8.1823807246
 20
6.0599475612
 11
8.1938653885
 21
6.0857880612
  0
LINE
  5
3D8
100
AcDbEntity
  8
03__ASM_ALL_CURVES
100
AcDbLine
 62
4
  6
CONTINUOUS
 10
9.4288653885
 20
8.5366495612
 11
9.4888653885
 21
8.6566495612
  0
LINE
  5
3D9
100
AcDbEntity
  8
03__ASM_ALL_CURVES
100
AcDbLine
 62
4
  6
CONTINUOUS
 10
7.7499573885
 20
6.4733955612
 11
7.7614420524
 21
6.4906225612
  0
LINE
  5
3DA
100
AcDbEntity
  8
03__ASM_ALL_CURVES
100
AcDbLine
 62
4
  6
CONTINUOUS
 10
7.7499573885
 20
6.3441930612
 11
7.7614420524
 21
6.3614200612
  0
LINE
  5
3DB
100
AcDbEntity
  8
03__ASM_ALL_CURVES
100
AcDbLine
 62
4
  6
CONTINUOUS
 10
7.8877733885
 20
6.4733955612
 11
7.8762887215
 21
6.4561685612
  0
LINE
  5
3DC
100
AcDbEntity
  8
03__ASM_ALL_CURVES
100
AcDbLine
 62
4
  6
CONTINUOUS
 10
7.8073807246
 20
6.3441930612
 11
7.8188653885
 21
6.3614200612
  0
LINE
  5
3DD
100
AcDbEntity
  8
03__ASM_ALL_CURVES
100
AcDbLine
 62
4
  6
CONTINUOUS
 10
7.8073807246
 20
6.3269660612
 11
7.7958960524
 21
6.3097390612
  0
LINE
  5
3DE
100
AcDbEntity
  8
03__ASM_ALL_CURVES
100
AcDbLine
 62
4
  6
CONTINUOUS
 10
7.8877733885
 20
6.3269660612
 11
7.8762887215
 21
6.3097390612
  0
LINE
  5
3DF
100
AcDbEntity
  8
03__ASM_ALL_CURVES
100
AcDbLine
 62
4
  6
CONTINUOUS
 10
7.7499573885
 20
6.0685610612
 11
7.7614420524
 21
6.0857880612
  0
LINE
  5
3E0
100
AcDbEntity
  8
03__ASM_ALL_CURVES
100
AcDbLine
 62
4
  6
CONTINUOUS
 10
12.5199273885
 20
13.3075882252
 11
12.5285408885
 21
13.3190728973
  0
LINE
  5
3E1
100
AcDbEntity
  8
03__ASM_ALL_CURVES
100
AcDbLine
 62
4
  6
CONTINUOUS
 10
12.5457678885
 20
13.2501648932
 11
12.5285408885
 21
13.2271955612
  0
LINE
  5
3E2
100
AcDbEntity
  8
03__ASM_ALL_CURVES
100
AcDbLine
 62
4
  6
CONTINUOUS
 10
12.5888353885
 20
13.2846188973
 11
12.5802218885
 21
13.2731342252
  0
LINE
  5
3E3
100
AcDbEntity
  8
03__ASM_ALL_CURVES
100
AcDbLine
 62
4
  6
CONTINUOUS
 10
12.5199273885
 20
13.1213382252
 11
12.5285408885
 21
13.1328228973
  0
LINE
  5
3E4
100
AcDbEntity
  8
03__ASM_ALL_CURVES
100
AcDbLine
 62
4
  6
CONTINUOUS
 10
12.5457678885
 20
13.0639148932
 11
12.5285408885
 21
13.0409455612
  0
LINE
  5
3E5
100
AcDbEntity
  8
03__ASM_ALL_CURVES
100
AcDbLine
 62
4
  6
CONTINUOUS
 10
12.7266513885
 20
13.2961035612
 11
12.7180378885
 21
13.2846188973
  0
LINE
  5
3E6
100
AcDbEntity
  8
03__ASM_ALL_CURVES
100
AcDbLine
 62
4
  6
CONTINUOUS
 10
12.5888353885
 20
13.0983688973
 11
12.5802218885
 21
13.0868842252
  0
LINE
  5
3E7
100
AcDbEntity
  8
03__ASM_ALL_CURVES
100
AcDbLine
 62
4
  6
CONTINUOUS
 10
12.7352648885
 20
13.2271955612
 11
12.7180378885
 21
13.2042262283
  0
LINE
  5
3E8
100
AcDbEntity
  8
03__ASM_ALL_CURVES
100
AcDbLine
 62
4
  6
CONTINUOUS
 10
12.6577433885
 20
13.1213382252
 11
12.6663568885
 21
13.1328228973
  0
LINE
  5
3E9
100
AcDbEntity
  8
03__ASM_ALL_CURVES
100
AcDbLine
 62
4
  6
CONTINUOUS
 10
9.3013653885
 20
8.6266495612
 11
9.3163653885
 21
8.6466495636
  0
LINE
  5
3EA
100
AcDbEntity
  8
03__ASM_ALL_CURVES
100
AcDbLine
 62
4
  6
CONTINUOUS
 10
12.6835838885
 20
13.0639148932
 11
12.6663568885
 21
13.0409455612
  0
LINE
  5
3EB
100
AcDbEntity
  8
03__ASM_ALL_CURVES
100
AcDbLine
 62
4
  6
CONTINUOUS
 10
12.7266513885
 20
13.0983688973
 11
12.7180378885
 21
13.0868842252
  0
LINE
  5
3EC
100
AcDbEntity
  8
03__ASM_ALL_CURVES
100
AcDbLine
 62
4
  6
CONTINUOUS
 10
9.3688653885
 20
8.5566495618
 11
9.3613653885
 21
8.5466495615
  0
LINE
  5
3ED
100
AcDbEntity
  8
03__ASM_ALL_CURVES
100
AcDbLine
 62
4
  6
CONTINUOUS
 10
12.9419888885
 20
13.3075882252
 11
12.9506023885
 21
13.3190728973
  0
LINE
  5
3EE
100
AcDbEntity
  8
03__ASM_ALL_CURVES
100
AcDbLine
 62
4
  6
CONTINUOUS
 10
11.5638288885
 20
10.4440728973
 11
11.5810558885
 21
10.4555575612
  0
LINE
  5
3EF
100
AcDbEntity
  8
03__ASM_ALL_CURVES
100
AcDbLine
 62
4
  6
CONTINUOUS
 10
9.3463653885
 20
8.5366495612
 11
9.3313653885
 21
8.5366495612
  0
LINE
  5
3F0
100
AcDbEntity
  8
03__ASM_ALL_CURVES
100
AcDbLine
 62
4
  6
CONTINUOUS
 10
9.6763653885
 20
8.5766495624
 11
9.7213653885
 21
8.5766495624
  0
LINE
  5
3F1
100
AcDbEntity
  8
03__ASM_ALL_CURVES
100
AcDbLine
 62
4
  6
CONTINUOUS
 10
9.5488653885
 20
8.5966495612
 11
9.6088653885
 21
8.5966495612
  0
LINE
  5
3F2
100
AcDbEntity
  8
03__ASM_ALL_CURVES
100
AcDbLine
 62
4
  6
CONTINUOUS
 10
9.3313653885
 20
8.6566495612
 11
9.3463653885
 21
8.6566495612
  0
LINE
  5
3F3
100
AcDbEntity
  8
03__ASM_ALL_CURVES
100
AcDbLine
 62
4
  6
CONTINUOUS
 10
12.7008108885
 20
8.6927415612
 11
12.6835838885
 21
8.6927415612
  0
LINE
  5
3F4
100
AcDbEntity
  8
03__ASM_ALL_CURVES
100
AcDbLine
 62
4
  6
CONTINUOUS
 10
12.5888353885
 20
8.6927415612
 11
12.5759151385
 21
8.6927415612
  0
LINE
  5
3F5
100
AcDbEntity
  8
03__ASM_ALL_CURVES
100
AcDbLine
 62
4
  6
CONTINUOUS
 10
11.8739148885
 20
8.6927415612
 11
11.8566878885
 21
8.6927415612
  0
LINE
  5
3F6
100
AcDbEntity
  8
03__ASM_ALL_CURVES
100
AcDbLine
 62
4
  6
CONTINUOUS
 10
11.7619393885
 20
8.6927415612
 11
11.7490191385
 21
8.6927415612
  0
LINE
  5
3F7
100
AcDbEntity
  8
03__ASM_ALL_CURVES
100
AcDbLine
 62
4
  6
CONTINUOUS
 10
10.8316813885
 20
8.7616495612
 11
11.2451293885
 21
8.7616495612
  0
LINE
  5
3F8
100
AcDbEntity
  8
03__ASM_ALL_CURVES
100
AcDbLine
 62
4
  6
CONTINUOUS
 10
11.8566878885
 20
8.7731342252
 11
11.8739148885
 21
8.7731342252
  0
LINE
  5
3F9
100
AcDbEntity
  8
03__ASM_ALL_CURVES
100
AcDbLine
 62
4
  6
CONTINUOUS
 10
12.6835838885
 20
8.7731342252
 11
12.7008108885
 21
8.7731342252
  0
LINE
  5
3FA
100
AcDbEntity
  8
03__ASM_ALL_CURVES
100
AcDbLine
 62
4
  6
CONTINUOUS
 10
12.0375713885
 20
8.8305575612
 11
11.9686633885
 21
8.8305575612
  0
LINE
  5
3FB
100
AcDbEntity
  8
03__ASM_ALL_CURVES
100
AcDbLine
 62
4
  6
CONTINUOUS
 10
11.8566878885
 20
8.8305575612
 11
11.8739148885
 21
8.8305575612
  0
LINE
  5
3FC
100
AcDbEntity
  8
03__ASM_ALL_CURVES
100
AcDbLine
 62
4
  6
CONTINUOUS
 10
12.6835838885
 20
8.8305575612
 11
12.7008108885
 21
8.8305575612
  0
LINE
  5
3FD
100
AcDbEntity
  8
03__ASM_ALL_CURVES
100
AcDbLine
 62
4
  6
CONTINUOUS
 10
12.9678293885
 20
7.4911342252
 11
12.9936698885
 21
7.4796495612
  0
LINE
  5
3FE
100
AcDbEntity
  8
03__ASM_ALL_CURVES
100
AcDbLine
 62
4
  6
CONTINUOUS
 10
11.5896693885
 20
7.5485575612
 11
11.6068963885
 21
7.5370728973
  0
LINE
  5
3FF
100
AcDbEntity
  8
03__ASM_ALL_CURVES
100
AcDbLine
 62
4
  6
CONTINUOUS
 10
11.8653013885
 20
7.4107415612
 11
11.8480743885
 21
7.4222262283
  0
LINE
  5
400
100
AcDbEntity
  8
03__ASM_ALL_CURVES
100
AcDbLine
 62
4
  6
CONTINUOUS
 10
12.0031173885
 20
7.4107415612
 11
11.9858903885
 21
7.4222262283
  0
LINE
  5
401
100
AcDbEntity
  8
03__ASM_ALL_CURVES
100
AcDbLine
 62
4
  6
CONTINUOUS
 10
11.8653013885
 20
7.5485575612
 11
11.8825283885
 21
7.5370728973
  0
LINE
  5
402
100
AcDbEntity
  8
03__ASM_ALL_CURVES
100
AcDbLine
 62
4
  6
CONTINUOUS
 10
12.0031173885
 20
7.5485575612
 11
12.0203443885
 21
7.5370728973
  0
LINE
  5
403
100
AcDbEntity
  8
03__ASM_ALL_CURVES
100
AcDbLine
 62
4
  6
CONTINUOUS
 10
8.1463653885
 20
11.3066495618
 11
8.1613653885
 21
11.2866495612
  0
LINE
  5
404
100
AcDbEntity
  8
03__ASM_ALL_CURVES
100
AcDbLine
 62
4
  6
CONTINUOUS
 10
10.6364420524
 20
7.4736185612
 11
10.6249573885
 21
7.4908455612
  0
LINE
  5
405
100
AcDbEntity
  8
03__ASM_ALL_CURVES
100
AcDbLine
 62
4
  6
CONTINUOUS
 10
10.7512887215
 20
7.5080725612
 11
10.7627733885
 21
7.4908455612
  0
LINE
  5
406
100
AcDbEntity
  8
03__ASM_ALL_CURVES
100
AcDbLine
 62
4
  6
CONTINUOUS
 10
8.6638653885
 20
11.6466495612
 11
8.7238653885
 21
11.5266495612
  0
LINE
  5
407
100
AcDbEntity
  8
03__ASM_ALL_CURVES
100
AcDbLine
 62
4
  6
CONTINUOUS
 10
9.2413653885
 20
11.3866495589
 11
9.2488653885
 21
11.3566495589
  0
LINE
  5
408
100
AcDbEntity
  8
0
100
AcDbLine
 62
7
  6
CONTINUOUS
 10
10.1712536049
 20
8.2249463673
 11
10.1712536049
 21
7.5310337352
  0
LINE
  5
409
100
AcDbEntity
  8
0
100
AcDbLine
 62
7
  6
CONTINUOUS
 10
10.1938759224
 20
7.4825444337
 11
10.1938759224
 21
8.2249463673
  0
LINE
  5
40A
100
AcDbEntity
  8
03__ASM_ALL_CURVES
100
AcDbLine
 62
4
  6
CONTINUOUS
 10
8.1708960524
 20
6.4820090612
 11
8.1823807246
 21
6.4992360612
  0
LINE
  5
40B
100
AcDbEntity
  8
03__ASM_ALL_CURVES
100
AcDbLine
 62
4
  6
CONTINUOUS
 10
8.2627733885
 20
6.4647820612
 11
8.2512887215
 21
6.4475550612
  0
LINE
  5
40C
100
AcDbEntity
  8
03__ASM_ALL_CURVES
100
AcDbLine
 62
4
  6
CONTINUOUS
 10
8.1249573885
 20
6.2063770612
 11
8.1364420524
 21
6.2236040612
  0
LINE
  5
40D
100
AcDbEntity
  8
03__ASM_ALL_CURVES
100
AcDbLine
 62
4
  6
CONTINUOUS
 10
8.1823807246
 20
6.2063770612
 11
8.1938653885
 21
6.2236040612
  0
LINE
  5
40E
100
AcDbEntity
  8
03__ASM_ALL_CURVES
100
AcDbLine
 62
4
  6
CONTINUOUS
 10
8.1249573885
 20
6.0599475612
 11
8.1364420524
 21
6.0771745612
  0
LINE
  5
40F
100
AcDbEntity
  8
03__ASM_ALL_CURVES
100
AcDbLine
 62
4
  6
CONTINUOUS
 10
8.2627733885
 20
6.1891500612
 11
8.2512887215
 21
6.1719230612
  0
LINE
  5
410
100
AcDbEntity
  8
03__ASM_ALL_CURVES
100
AcDbLine
 62
4
  6
CONTINUOUS
 10
7.7499573885
 20
5.3794810612
 11
7.7614420524
 21
5.3967080612
  0
LINE
  5
411
100
AcDbEntity
  8
03__ASM_ALL_CURVES
100
AcDbLine
 62
4
  6
CONTINUOUS
 10
12.9936698885
 20
13.2157108953
 11
12.9850563885
 21
13.2042262283
  0
LINE
  5
412
100
AcDbEntity
  8
03__ASM_ALL_CURVES
100
AcDbLine
 62
4
  6
CONTINUOUS
 10
13.0798048885
 20
13.3075882252
 11
13.0884183885
 21
13.3190728973
  0
LINE
  5
413
100
AcDbEntity
  8
03__ASM_ALL_CURVES
100
AcDbLine
 62
4
  6
CONTINUOUS
 10
12.8644673885
 20
12.9211035612
 11
12.8558538885
 21
12.9096188973
  0
LINE
  5
414
100
AcDbEntity
  8
03__ASM_ALL_CURVES
100
AcDbLine
 62
4
  6
CONTINUOUS
 10
13.1314858885
 20
13.2157108953
 11
13.1228723885
 21
13.2042262283
  0
LINE
  5
415
100
AcDbEntity
  8
03__ASM_ALL_CURVES
100
AcDbLine
 62
4
  6
CONTINUOUS
 10
12.8730808885
 20
12.8521955612
 11
12.8558538885
 21
12.8292262283
  0
LINE
  5
416
100
AcDbEntity
  8
03__ASM_ALL_CURVES
100
AcDbLine
 62
4
  6
CONTINUOUS
 10
13.2520748885
 20
13.2157108953
 11
13.2348478885
 21
13.1927415612
  0
LINE
  5
417
100
AcDbEntity
  8
03__ASM_ALL_CURVES
100
AcDbLine
 62
4
  6
CONTINUOUS
 10
12.9764428885
 20
12.8407108953
 11
12.9592158885
 21
12.8177415612
  0
LINE
  5
418
100
AcDbEntity
  8
03__ASM_ALL_CURVES
100
AcDbLine
 62
4
  6
CONTINUOUS
 10
6.6249573885
 20
6.6025980612
 11
6.6479267246
 21
6.6198250612
  0
LINE
  5
419
100
AcDbEntity
  8
03__ASM_ALL_CURVES
100
AcDbLine
 62
4
  6
CONTINUOUS
 10
6.6364420524
 20
6.4906225612
 11
6.6479267246
 21
6.4992360612
  0
LINE
  5
41A
100
AcDbEntity
  8
03__ASM_ALL_CURVES
100
AcDbLine
 62
4
  6
CONTINUOUS
 10
11.6155098885
 20
10.3981342252
 11
11.5810558885
 21
10.3751648932
  0
LINE
  5
41B
100
AcDbEntity
  8
03__ASM_ALL_CURVES
100
AcDbLine
 62
4
  6
CONTINUOUS
 10
11.8480743885
 20
10.4440728973
 11
11.8653013885
 21
10.4555575612
  0
LINE
  5
41C
100
AcDbEntity
  8
03__ASM_ALL_CURVES
100
AcDbLine
 62
4
  6
CONTINUOUS
 10
9.3163653885
 20
8.6466495636
 11
9.3313653885
 21
8.6566495612
  0
LINE
  5
41D
100
AcDbEntity
  8
03__ASM_ALL_CURVES
100
AcDbLine
 62
4
  6
CONTINUOUS
 10
11.8825283885
 20
10.3292262283
 11
11.8653013885
 21
10.3177415612
  0
LINE
  5
41E
100
AcDbEntity
  8
03__ASM_ALL_CURVES
100
AcDbLine
 62
4
  6
CONTINUOUS
 10
9.3613653885
 20
8.5466495615
 11
9.3463653885
 21
8.5366495612
  0
LINE
  5
41F
100
AcDbEntity
  8
03__ASM_ALL_CURVES
100
AcDbLine
 62
4
  6
CONTINUOUS
 10
12.4251788885
 20
7.5485575612
 11
12.4424058885
 21
7.5370728973
  0
LINE
  5
420
100
AcDbEntity
  8
03__ASM_ALL_CURVES
100
AcDbLine
 62
4
  6
CONTINUOUS
 10
8.3043653885
 20
10.3246495612
 11
8.2893653885
 21
10.3346495615
  0
LINE
  5
421
100
AcDbEntity
  8
03__ASM_ALL_CURVES
100
AcDbLine
 62
4
  6
CONTINUOUS
 10
12.5629948885
 20
7.5485575612
 11
12.5802218885
 21
7.5370728973
  0
LINE
  5
422
100
AcDbEntity
  8
03__ASM_ALL_CURVES
100
AcDbLine
 62
4
  6
CONTINUOUS
 10
12.8213998885
 20
7.4107415612
 11
12.8041728885
 21
7.4222262283
  0
LINE
  5
423
100
AcDbEntity
  8
03__ASM_ALL_CURVES
100
AcDbLine
 62
4
  6
CONTINUOUS
 10
8.3193653885
 20
10.4446495612
 11
8.3343653885
 21
10.4346495636
  0
LINE
  5
424
100
AcDbEntity
  8
03__ASM_ALL_CURVES
100
AcDbLine
 62
4
  6
CONTINUOUS
 10
12.8213998885
 20
7.4911342252
 11
12.8041728885
 21
7.5026188973
  0
LINE
  5
425
100
AcDbEntity
  8
03__ASM_ALL_CURVES
100
AcDbLine
 62
4
  6
CONTINUOUS
 10
11.5896693885
 20
8.3177415612
 11
11.5724423885
 21
8.3292262283
  0
LINE
  5
426
100
AcDbEntity
  8
03__ASM_ALL_CURVES
100
AcDbLine
 62
4
  6
CONTINUOUS
 10
12.8386268885
 20
7.4911342252
 11
12.8558538885
 21
7.4796495612
  0
LINE
  5
427
100
AcDbEntity
  8
03__ASM_ALL_CURVES
100
AcDbLine
 62
4
  6
CONTINUOUS
 10
12.9678293885
 20
7.4107415612
 11
12.9506023885
 21
7.4222262283
  0
LINE
  5
428
100
AcDbEntity
  8
03__ASM_ALL_CURVES
100
AcDbLine
 62
4
  6
CONTINUOUS
 10
12.8386268885
 20
7.5485575612
 11
12.8558538885
 21
7.5370728973
  0
LINE
  5
429
100
AcDbEntity
  8
03__ASM_ALL_CURVES
100
AcDbLine
 62
4
  6
CONTINUOUS
 10
8.2888653885
 20
11.3966495636
 11
8.3038653885
 21
11.3766495612
  0
LINE
  5
42A
100
AcDbEntity
  8
03__ASM_ALL_CURVES
100
AcDbLine
 62
4
  6
CONTINUOUS
 10
11.5724423885
 20
7.4222262283
 11
11.5638288885
 21
7.4337108953
  0
LINE
  5
42B
100
AcDbEntity
  8
03__ASM_ALL_CURVES
100
AcDbLine
 62
4
  6
CONTINUOUS
 10
8.7313653885
 20
11.2966495615
 11
8.7163653885
 21
11.3166495612
  0
LINE
  5
42C
100
AcDbEntity
  8
0
100
AcDbLine
 62
7
  6
CONTINUOUS
 10
10.3483653885
 20
8.3866495612
 11
10.3483653885
 21
8.2656495612
  0
LINE
  5
42D
100
AcDbEntity
  8
03__ASM_ALL_CURVES
100
AcDbLine
 62
4
  6
CONTINUOUS
 10
10.5278653885
 20
11.9266495589
 11
10.5278653885
 21
11.9066495636
  0
LINE
  5
42E
100
AcDbEntity
  8
0
100
AcDbLine
 62
7
  6
CONTINUOUS
 10
10.6938653885
 20
13.2616495612
 11
10.6938653885
 21
8.3866495612
  0
LINE
  5
42F
100
AcDbEntity
  8
03__ASM_ALL_CURVES
100
AcDbLine
 62
4
  6
CONTINUOUS
 10
10.6938653885
 20
8.2488335612
 11
10.6938653885
 21
7.8353855612
  0
LINE
  5
430
100
AcDbEntity
  8
03__ASM_ALL_CURVES
100
AcDbLine
 62
4
  6
CONTINUOUS
 10
12.0203443885
 20
13.2846188973
 11
12.0375713885
 21
13.3305575612
  0
LINE
  5
431
100
AcDbEntity
  8
03__ASM_ALL_CURVES
100
AcDbLine
 62
4
  6
CONTINUOUS
 10
11.9083688885
 20
12.8636802293
 11
11.8997553885
 21
12.8407108953
  0
LINE
  5
432
100
AcDbEntity
  8
03__ASM_ALL_CURVES
100
AcDbLine
 62
4
  6
CONTINUOUS
 10
9.2053500565
 20
6.4733955612
 11
9.1938653885
 21
6.4475550612
  0
LINE
  5
433
100
AcDbEntity
  8
03__ASM_ALL_CURVES
100
AcDbLine
 62
4
  6
CONTINUOUS
 10
12.5802218885
 20
12.9555575612
 11
12.5199273885
 21
12.8521955612
  0
LINE
  5
434
100
AcDbEntity
  8
03__ASM_ALL_CURVES
100
AcDbLine
 62
4
  6
CONTINUOUS
 10
7.8073807246
 20
5.3794810612
 11
7.8188653885
 21
5.3967080612
  0
LINE
  5
435
100
AcDbEntity
  8
03__ASM_ALL_CURVES
100
AcDbLine
 62
4
  6
CONTINUOUS
 10
8.2627733885
 20
6.0599475612
 11
8.2512887215
 21
6.0427205612
  0
LINE
  5
436
100
AcDbEntity
  8
03__ASM_ALL_CURVES
100
AcDbLine
 62
4
  6
CONTINUOUS
 10
7.8073807246
 20
5.3622540612
 11
7.7958960524
 21
5.3450270612
  0
LINE
  5
437
100
AcDbEntity
  8
03__ASM_ALL_CURVES
100
AcDbLine
 62
4
  6
CONTINUOUS
 10
7.8877733885
 20
5.3622540612
 11
7.8762887215
 21
5.3450270612
  0
LINE
  5
438
100
AcDbEntity
  8
03__ASM_ALL_CURVES
100
AcDbLine
 62
4
  6
CONTINUOUS
 10
7.7499573885
 20
5.1038490612
 11
7.7614420524
 21
5.1210760612
  0
LINE
  5
439
100
AcDbEntity
  8
03__ASM_ALL_CURVES
100
AcDbLine
 62
4
  6
CONTINUOUS
 10
8.1708960524
 20
5.6551130612
 11
8.1823807246
 21
5.6723400612
  0
LINE
  5
43A
100
AcDbEntity
  8
03__ASM_ALL_CURVES
100
AcDbLine
 62
4
  6
CONTINUOUS
 10
8.2627733885
 20
5.6378860612
 11
8.2512887215
 21
5.6206590612
  0
LINE
  5
43B
100
AcDbEntity
  8
03__ASM_ALL_CURVES
100
AcDbLine
 62
4
  6
CONTINUOUS
 10
8.1249573885
 20
5.3794810612
 11
8.1364420524
 21
5.3967080612
  0
LINE
  5
43C
100
AcDbEntity
  8
03__ASM_ALL_CURVES
100
AcDbLine
 62
4
  6
CONTINUOUS
 10
13.2520748885
 20
13.0294608953
 11
13.2348478885
 21
13.0064915612
  0
LINE
  5
43D
100
AcDbEntity
  8
03__ASM_ALL_CURVES
100
AcDbLine
 62
4
  6
CONTINUOUS
 10
13.5277068885
 20
13.1443075612
 11
13.5104798885
 21
13.1213382252
  0
LINE
  5
43E
100
AcDbEntity
  8
03__ASM_ALL_CURVES
100
AcDbLine
 62
4
  6
CONTINUOUS
 10
11.5552153885
 20
10.4325882252
 11
11.5638288885
 21
10.4440728973
  0
LINE
  5
43F
100
AcDbEntity
  8
03__ASM_ALL_CURVES
100
AcDbLine
 62
4
  6
CONTINUOUS
 10
11.5810558885
 20
10.3751648932
 11
11.5638288885
 21
10.3521955612
  0
LINE
  5
440
100
AcDbEntity
  8
03__ASM_ALL_CURVES
100
AcDbLine
 62
4
  6
CONTINUOUS
 10
11.6241233885
 20
10.4096188973
 11
11.6155098885
 21
10.3981342252
  0
LINE
  5
441
100
AcDbEntity
  8
03__ASM_ALL_CURVES
100
AcDbLine
 62
4
  6
CONTINUOUS
 10
6.7512887215
 20
6.4561685612
 11
6.7398040545
 21
6.4475550612
  0
LINE
  5
442
100
AcDbEntity
  8
03__ASM_ALL_CURVES
100
AcDbLine
 62
4
  6
CONTINUOUS
 10
6.745546388
 20
6.3571133112
 11
6.7627733885
 21
6.3700335612
  0
LINE
  5
443
100
AcDbEntity
  8
03__ASM_ALL_CURVES
100
AcDbLine
 62
4
  6
CONTINUOUS
 10
6.6364420524
 20
6.0771745612
 11
6.6479267246
 21
6.0857880612
  0
LINE
  5
444
100
AcDbEntity
  8
03__ASM_ALL_CURVES
100
AcDbLine
 62
4
  6
CONTINUOUS
 10
6.7512887215
 20
6.0427205612
 11
6.7398040545
 21
6.0341070612
  0
LINE
  5
445
100
AcDbEntity
  8
03__ASM_ALL_CURVES
100
AcDbLine
 62
4
  6
CONTINUOUS
 10
12.2529088885
 20
10.3981342252
 11
12.2701358885
 21
10.4096188973
  0
LINE
  5
446
100
AcDbEntity
  8
03__ASM_ALL_CURVES
100
AcDbLine
 62
4
  6
CONTINUOUS
 10
12.3993383885
 20
10.4440728973
 11
12.4165653885
 21
10.4555575612
  0
LINE
  5
447
100
AcDbEntity
  8
03__ASM_ALL_CURVES
100
AcDbLine
 62
4
  6
CONTINUOUS
 10
12.3045898885
 20
10.3292262283
 11
12.2873628885
 21
10.3177415612
  0
LINE
  5
448
100
AcDbEntity
  8
03__ASM_ALL_CURVES
100
AcDbLine
 62
4
  6
CONTINUOUS
 10
12.4337923885
 20
10.3292262283
 11
12.4165653885
 21
10.3177415612
  0
LINE
  5
449
100
AcDbEntity
  8
03__ASM_ALL_CURVES
100
AcDbLine
 62
4
  6
CONTINUOUS
 10
12.6663568885
 20
10.4440728973
 11
12.6835838885
 21
10.4555575612
  0
LINE
  5
44A
100
AcDbEntity
  8
03__ASM_ALL_CURVES
100
AcDbLine
 62
4
  6
CONTINUOUS
 10
12.6663568885
 20
10.3866495612
 11
12.6835838885
 21
10.3981342252
  0
LINE
  5
44B
100
AcDbEntity
  8
03__ASM_ALL_CURVES
100
AcDbLine
 62
4
  6
CONTINUOUS
 10
12.7180378885
 20
10.4096188973
 11
12.7008108885
 21
10.3981342252
  0
LINE
  5
44C
100
AcDbEntity
  8
03__ASM_ALL_CURVES
100
AcDbLine
 62
4
  6
CONTINUOUS
 10
12.7180378885
 20
10.3292262283
 11
12.7008108885
 21
10.3177415612
  0
LINE
  5
44D
100
AcDbEntity
  8
03__ASM_ALL_CURVES
100
AcDbLine
 62
4
  6
CONTINUOUS
 10
11.5896693885
 20
8.4555575612
 11
11.6068963885
 21
8.4440728973
  0
LINE
  5
44E
100
AcDbEntity
  8
03__ASM_ALL_CURVES
100
AcDbLine
 62
4
  6
CONTINUOUS
 10
12.9678293885
 20
7.5485575612
 11
12.9850563885
 21
7.5370728973
  0
LINE
  5
44F
100
AcDbEntity
  8
03__ASM_ALL_CURVES
100
AcDbLine
 62
4
  6
CONTINUOUS
 10
11.5896693885
 20
8.6927415612
 11
11.5724423885
 21
8.7042262283
  0
LINE
  5
450
100
AcDbEntity
  8
03__ASM_ALL_CURVES
100
AcDbLine
 62
4
  6
CONTINUOUS
 10
11.6068963885
 20
7.5370728973
 11
11.6155098885
 21
7.5255882252
  0
LINE
  5
451
100
AcDbEntity
  8
03__ASM_ALL_CURVES
100
AcDbLine
 62
4
  6
CONTINUOUS
 10
11.7490191385
 20
7.4279685618
 11
11.7619393885
 21
7.4107415612
  0
LINE
  5
452
100
AcDbEntity
  8
03__ASM_ALL_CURVES
100
AcDbLine
 62
4
  6
CONTINUOUS
 10
8.7763653885
 20
11.3966495636
 11
8.7838653885
 21
11.3866495589
  0
LINE
  5
453
100
AcDbEntity
  8
03__ASM_ALL_CURVES
100
AcDbLine
 62
4
  6
CONTINUOUS
 10
8.8513653885
 20
11.2966495615
 11
8.8363653885
 21
11.3166495612
  0
LINE
  5
454
100
AcDbEntity
  8
03__ASM_ALL_CURVES
100
AcDbLine
 62
4
  6
CONTINUOUS
 10
11.8480743885
 20
7.4222262283
 11
11.8394608885
 21
7.4337108953
  0
LINE
  5
455
100
AcDbEntity
  8
03__ASM_ALL_CURVES
100
AcDbLine
 62
4
  6
CONTINUOUS
 10
8.8963653885
 20
11.3966495636
 11
8.9113653885
 21
11.3766495612
  0
LINE
  5
456
100
AcDbEntity
  8
03__ASM_ALL_CURVES
100
AcDbLine
 62
4
  6
CONTINUOUS
 10
11.8825283885
 20
7.5370728973
 11
11.8911418885
 21
7.5255882252
  0
LINE
  5
457
100
AcDbEntity
  8
03__ASM_ALL_CURVES
100
AcDbLine
 62
4
  6
CONTINUOUS
 10
11.9858903885
 20
7.4222262283
 11
11.9772768885
 21
7.4337108953
  0
LINE
  5
458
100
AcDbEntity
  8
03__ASM_ALL_CURVES
100
AcDbLine
 62
4
  6
CONTINUOUS
 10
9.0088653885
 20
11.3966495636
 11
9.0238653885
 21
11.3766495612
  0
LINE
  5
459
100
AcDbEntity
  8
03__ASM_ALL_CURVES
100
AcDbLine
 62
4
  6
CONTINUOUS
 10
12.0203443885
 20
7.5370728973
 11
12.0289578885
 21
7.5255882252
  0
LINE
  5
45A
100
AcDbEntity
  8
03__ASM_ALL_CURVES
100
AcDbLine
 62
4
  6
CONTINUOUS
 10
12.0117308885
 20
13.2501648932
 11
12.0203443885
 21
13.2846188973
  0
LINE
  5
45B
100
AcDbEntity
  8
03__ASM_ALL_CURVES
100
AcDbLine
 62
4
  6
CONTINUOUS
 10
9.1249573885
 20
6.4733955612
 11
9.1364420524
 21
6.4906225612
  0
LINE
  5
45C
100
AcDbEntity
  8
03__ASM_ALL_CURVES
100
AcDbLine
 62
4
  6
CONTINUOUS
 10
9.1249573885
 20
6.3355795612
 11
9.1364420524
 21
6.3528065612
  0
LINE
  5
45D
100
AcDbEntity
  8
03__ASM_ALL_CURVES
100
AcDbLine
 62
4
  6
CONTINUOUS
 10
9.2627733885
 20
6.4733955612
 11
9.2512887215
 21
6.4561685612
  0
LINE
  5
45E
100
AcDbEntity
  8
03__ASM_ALL_CURVES
100
AcDbLine
 62
4
  6
CONTINUOUS
 10
9.2627733885
 20
6.3355795612
 11
9.2512887215
 21
6.3183525612
  0
LINE
  5
45F
100
AcDbEntity
  8
03__ASM_ALL_CURVES
100
AcDbLine
 62
4
  6
CONTINUOUS
 10
9.1249573885
 20
6.0685610612
 11
9.1364420524
 21
6.0857880612
  0
LINE
  5
460
100
AcDbEntity
  8
03__ASM_ALL_CURVES
100
AcDbLine
 62
4
  6
CONTINUOUS
 10
13.7688848885
 20
13.1328228973
 11
13.7602713885
 21
13.1213382252
  0
LINE
  5
461
100
AcDbEntity
  8
03__ASM_ALL_CURVES
100
AcDbLine
 62
4
  6
CONTINUOUS
 10
11.8394608885
 20
10.4325882252
 11
11.8480743885
 21
10.4440728973
  0
LINE
  5
462
100
AcDbEntity
  8
03__ASM_ALL_CURVES
100
AcDbLine
 62
4
  6
CONTINUOUS
 10
13.8291793885
 20
13.0294608953
 11
13.8205658885
 21
13.0179762283
  0
LINE
  5
463
100
AcDbEntity
  8
03__ASM_ALL_CURVES
100
AcDbLine
 62
4
  6
CONTINUOUS
 10
11.8911418885
 20
10.3407108953
 11
11.8825283885
 21
10.3292262283
  0
LINE
  5
464
100
AcDbEntity
  8
03__ASM_ALL_CURVES
100
AcDbLine
 62
4
  6
CONTINUOUS
 10
13.9411548885
 20
13.0294608953
 11
13.9239278885
 21
13.0064915612
  0
LINE
  5
465
100
AcDbEntity
  8
03__ASM_ALL_CURVES
100
AcDbLine
 62
4
  6
CONTINUOUS
 10
12.1495468885
 20
10.4555575612
 11
12.1323198885
 21
10.4325882252
  0
LINE
  5
466
100
AcDbEntity
  8
03__ASM_ALL_CURVES
100
AcDbLine
 62
4
  6
CONTINUOUS
 10
7.7499573885
 20
6.6025980612
 11
7.7729267246
 21
6.6198250612
  0
LINE
  5
467
100
AcDbEntity
  8
03__ASM_ALL_CURVES
100
AcDbLine
 62
4
  6
CONTINUOUS
 10
6.7398040545
 20
5.7757020612
 11
6.7627733885
 21
5.7929290612
  0
LINE
  5
468
100
AcDbEntity
  8
03__ASM_ALL_CURVES
100
AcDbLine
 62
4
  6
CONTINUOUS
 10
7.7614420524
 20
6.4906225612
 11
7.7729267246
 21
6.4992360612
  0
LINE
  5
469
100
AcDbEntity
  8
03__ASM_ALL_CURVES
100
AcDbLine
 62
4
  6
CONTINUOUS
 10
7.8762887215
 20
6.4561685612
 11
7.8648040545
 21
6.4475550612
  0
LINE
  5
46A
100
AcDbEntity
  8
03__ASM_ALL_CURVES
100
AcDbLine
 62
4
  6
CONTINUOUS
 10
6.6364420524
 20
5.5259105612
 11
6.6479267246
 21
5.5345240612
  0
LINE
  5
46B
100
AcDbEntity
  8
03__ASM_ALL_CURVES
100
AcDbLine
 62
4
  6
CONTINUOUS
 10
7.7614420524
 20
6.3614200612
 11
7.7729267246
 21
6.3700335612
  0
LINE
  5
46C
100
AcDbEntity
  8
03__ASM_ALL_CURVES
100
AcDbLine
 62
4
  6
CONTINUOUS
 10
8.1249573885
 20
6.6025980612
 11
8.1479267246
 21
6.6198250612
  0
LINE
  5
46D
100
AcDbEntity
  8
03__ASM_ALL_CURVES
100
AcDbLine
 62
4
  6
CONTINUOUS
 10
12.4165653885
 20
8.7501648932
 11
12.3907248885
 21
8.7616495612
  0
LINE
  5
46E
100
AcDbEntity
  8
03__ASM_ALL_CURVES
100
AcDbLine
 62
4
  6
CONTINUOUS
 10
12.8300133885
 20
8.7501648932
 11
12.8041728885
 21
8.7616495612
  0
LINE
  5
46F
100
AcDbEntity
  8
03__ASM_ALL_CURVES
100
AcDbLine
 62
4
  6
CONTINUOUS
 10
11.5896693885
 20
8.8305575612
 11
11.6068963885
 21
8.8190728973
  0
LINE
  5
470
100
AcDbEntity
  8
03__ASM_ALL_CURVES
100
AcDbLine
 62
4
  6
CONTINUOUS
 10
11.8566878885
 20
8.6927415612
 11
11.8394608885
 21
8.7042262283
  0
LINE
  5
471
100
AcDbEntity
  8
03__ASM_ALL_CURVES
100
AcDbLine
 62
4
  6
CONTINUOUS
 10
11.8739148885
 20
8.7731342252
 11
11.8911418885
 21
8.7616495612
  0
LINE
  5
472
100
AcDbEntity
  8
03__ASM_ALL_CURVES
100
AcDbLine
 62
4
  6
CONTINUOUS
 10
11.8739148885
 20
8.8305575612
 11
11.8911418885
 21
8.8190728973
  0
LINE
  5
473
100
AcDbEntity
  8
03__ASM_ALL_CURVES
100
AcDbLine
 62
4
  6
CONTINUOUS
 10
8.2738653885
 20
11.4066495612
 11
8.2888653885
 21
11.3966495636
  0
LINE
  5
474
100
AcDbEntity
  8
03__ASM_ALL_CURVES
100
AcDbLine
 62
4
  6
CONTINUOUS
 10
12.4165653885
 20
8.6927415612
 11
12.3993383885
 21
8.7042262283
  0
LINE
  5
475
100
AcDbEntity
  8
03__ASM_ALL_CURVES
100
AcDbLine
 62
4
  6
CONTINUOUS
 10
9.2263653885
 20
11.4066495612
 11
9.2413653885
 21
11.3866495589
  0
LINE
  5
476
100
AcDbEntity
  8
03__ASM_ALL_CURVES
100
AcDbLine
 62
4
  6
CONTINUOUS
 10
11.5724423885
 20
8.3292262283
 11
11.5638288885
 21
8.3407108953
  0
LINE
  5
477
100
AcDbEntity
  8
03__ASM_ALL_CURVES
100
AcDbLine
 62
4
  6
CONTINUOUS
 10
12.2701358885
 20
7.4337108953
 11
12.2873628885
 21
7.4107415612
  0
LINE
  5
478
100
AcDbEntity
  8
03__ASM_ALL_CURVES
100
AcDbLine
 62
4
  6
CONTINUOUS
 10
11.6068963885
 20
8.4440728973
 11
11.6155098885
 21
8.4325882252
  0
LINE
  5
479
100
AcDbEntity
  8
03__ASM_ALL_CURVES
100
AcDbLine
 62
4
  6
CONTINUOUS
 10
12.4424058885
 20
7.5370728973
 11
12.4510193885
 21
7.5255882252
  0
LINE
  5
47A
100
AcDbEntity
  8
03__ASM_ALL_CURVES
100
AcDbLine
 62
4
  6
CONTINUOUS
 10
11.5724423885
 20
8.7042262283
 11
11.5638288885
 21
8.7157108953
  0
LINE
  5
47B
100
AcDbEntity
  8
03__ASM_ALL_CURVES
100
AcDbLine
 62
4
  6
CONTINUOUS
 10
11.5638288885
 20
7.4337108953
 11
11.5552153885
 21
7.4566802293
  0
LINE
  5
47C
100
AcDbEntity
  8
03__ASM_ALL_CURVES
100
AcDbLine
 62
4
  6
CONTINUOUS
 10
11.6155098885
 20
7.5255882252
 11
11.6241233885
 21
7.5026188973
  0
LINE
  5
47D
100
AcDbEntity
  8
03__ASM_ALL_CURVES
100
AcDbLine
 62
4
  6
CONTINUOUS
 10
11.8480743885
 20
12.9555575612
 11
11.8394608885
 21
12.8981342252
  0
LINE
  5
47E
100
AcDbEntity
  8
03__ASM_ALL_CURVES
100
AcDbLine
 62
4
  6
CONTINUOUS
 10
12.0031173885
 20
13.1927415612
 11
12.0117308885
 21
13.2501648932
  0
LINE
  5
47F
100
AcDbEntity
  8
03__ASM_ALL_CURVES
100
AcDbLine
 62
4
  6
CONTINUOUS
 10
12.1323198885
 20
12.9325882252
 11
12.1237063885
 21
12.8981342252
  0
LINE
  5
480
100
AcDbEntity
  8
03__ASM_ALL_CURVES
100
AcDbLine
 62
4
  6
CONTINUOUS
 10
12.2701358885
 20
13.3075882252
 11
12.2615223885
 21
13.2731342252
  0
LINE
  5
481
100
AcDbEntity
  8
03__ASM_ALL_CURVES
100
AcDbLine
 62
4
  6
CONTINUOUS
 10
11.5638288885
 20
10.3521955612
 11
11.5552153885
 21
10.3177415612
  0
LINE
  5
482
100
AcDbEntity
  8
03__ASM_ALL_CURVES
100
AcDbLine
 62
4
  6
CONTINUOUS
 10
12.2701358885
 20
13.1213382252
 11
12.2615223885
 21
13.0868842252
  0
LINE
  5
483
100
AcDbEntity
  8
03__ASM_ALL_CURVES
100
AcDbLine
 62
4
  6
CONTINUOUS
 10
11.8308473885
 20
10.4096188973
 11
11.8394608885
 21
10.4325882252
  0
LINE
  5
484
100
AcDbEntity
  8
03__ASM_ALL_CURVES
100
AcDbLine
 62
4
  6
CONTINUOUS
 10
12.9333753885
 20
13.2846188973
 11
12.9419888885
 21
13.3075882252
  0
LINE
  5
485
100
AcDbEntity
  8
03__ASM_ALL_CURVES
100
AcDbLine
 62
4
  6
CONTINUOUS
 10
12.9333753885
 20
13.2386802293
 11
12.9419888885
 21
13.2616495612
  0
LINE
  5
486
100
AcDbEntity
  8
03__ASM_ALL_CURVES
100
AcDbLine
 62
4
  6
CONTINUOUS
 10
11.8997553885
 20
10.3636802293
 11
11.8911418885
 21
10.3407108953
  0
LINE
  5
487
100
AcDbEntity
  8
03__ASM_ALL_CURVES
100
AcDbLine
 62
4
  6
CONTINUOUS
 10
13.0022833885
 20
13.2386802293
 11
12.9936698885
 21
13.2157108953
  0
LINE
  5
488
100
AcDbEntity
  8
03__ASM_ALL_CURVES
100
AcDbLine
 62
4
  6
CONTINUOUS
 10
9.1823807246
 20
6.0685610612
 11
9.1938653885
 21
6.0857880612
  0
LINE
  5
489
100
AcDbEntity
  8
03__ASM_ALL_CURVES
100
AcDbLine
 62
4
  6
CONTINUOUS
 10
9.1823807246
 20
6.0513340612
 11
9.1708960524
 21
6.0341070612
  0
LINE
  5
48A
100
AcDbEntity
  8
03__ASM_ALL_CURVES
100
AcDbLine
 62
4
  6
CONTINUOUS
 10
9.1249573885
 20
5.9307450612
 11
9.1364420524
 21
5.9479720612
  0
LINE
  5
48B
100
AcDbEntity
  8
03__ASM_ALL_CURVES
100
AcDbLine
 62
4
  6
CONTINUOUS
 10
9.1823807246
 20
5.9307450612
 11
9.1938653885
 21
5.9479720612
  0
LINE
  5
48C
100
AcDbEntity
  8
03__ASM_ALL_CURVES
100
AcDbLine
 62
4
  6
CONTINUOUS
 10
9.2627733885
 20
6.0513340612
 11
9.2512887215
 21
6.0341070612
  0
LINE
  5
48D
100
AcDbEntity
  8
03__ASM_ALL_CURVES
100
AcDbLine
 62
4
  6
CONTINUOUS
 10
9.2627733885
 20
5.9135180612
 11
9.2512887215
 21
5.8962910612
  0
LINE
  5
48E
100
AcDbEntity
  8
03__ASM_ALL_CURVES
100
AcDbLine
 62
4
  6
CONTINUOUS
 10
9.1708960524
 20
5.5172970612
 11
9.1823807246
 21
5.5345240612
  0
LINE
  5
48F
100
AcDbEntity
  8
03__ASM_ALL_CURVES
100
AcDbLine
 62
4
  6
CONTINUOUS
 10
12.3132033885
 20
10.3407108953
 11
12.3045898885
 21
10.3292262283
  0
LINE
  5
490
100
AcDbEntity
  8
03__ASM_ALL_CURVES
100
AcDbLine
 62
4
  6
CONTINUOUS
 10
12.3907248885
 20
10.4325882252
 11
12.3993383885
 21
10.4440728973
  0
LINE
  5
491
100
AcDbEntity
  8
03__ASM_ALL_CURVES
100
AcDbLine
 62
4
  6
CONTINUOUS
 10
12.4424058885
 20
10.3407108953
 11
12.4337923885
 21
10.3292262283
  0
LINE
  5
492
100
AcDbEntity
  8
03__ASM_ALL_CURVES
100
AcDbLine
 62
4
  6
CONTINUOUS
 10
7.8188653885
 20
6.3614200612
 11
7.8418347204
 21
6.3786470612
  0
LINE
  5
493
100
AcDbEntity
  8
03__ASM_ALL_CURVES
100
AcDbLine
 62
4
  6
CONTINUOUS
 10
7.7958960524
 20
6.3097390612
 11
7.7844113885
 21
6.3011255612
  0
LINE
  5
494
100
AcDbEntity
  8
03__ASM_ALL_CURVES
100
AcDbLine
 62
4
  6
CONTINUOUS
 10
6.7512887215
 20
5.4914565612
 11
6.7398040545
 21
5.4828430612
  0
LINE
  5
495
100
AcDbEntity
  8
03__ASM_ALL_CURVES
100
AcDbLine
 62
4
  6
CONTINUOUS
 10
7.8762887215
 20
6.3097390612
 11
7.8533193885
 21
6.2925120612
  0
LINE
  5
496
100
AcDbEntity
  8
03__ASM_ALL_CURVES
100
AcDbLine
 62
4
  6
CONTINUOUS
 10
8.1823807246
 20
6.4992360612
 11
8.1938653885
 21
6.5078495612
  0
LINE
  5
497
100
AcDbEntity
  8
03__ASM_ALL_CURVES
100
AcDbLine
 62
4
  6
CONTINUOUS
 10
6.745546388
 20
5.3924013112
 11
6.7627733885
 21
5.4053215612
  0
LINE
  5
498
100
AcDbEntity
  8
03__ASM_ALL_CURVES
100
AcDbLine
 62
4
  6
CONTINUOUS
 10
7.870546388
 20
6.2192973112
 11
7.8877733885
 21
6.2322175612
  0
LINE
  5
499
100
AcDbEntity
  8
03__ASM_ALL_CURVES
100
AcDbLine
 62
4
  6
CONTINUOUS
 10
7.7614420524
 20
6.0857880612
 11
7.7729267246
 21
6.0944015612
  0
LINE
  5
49A
100
AcDbEntity
  8
03__ASM_ALL_CURVES
100
AcDbLine
 62
4
  6
CONTINUOUS
 10
8.2512887215
 20
6.4475550612
 11
8.2398040545
 21
6.4389415612
  0
LINE
  5
49B
100
AcDbEntity
  8
03__ASM_ALL_CURVES
100
AcDbLine
 62
4
  6
CONTINUOUS
 10
8.245546388
 20
6.3571133112
 11
8.2627733885
 21
6.3700335612
  0
LINE
  5
49C
100
AcDbEntity
  8
03__ASM_ALL_CURVES
100
AcDbLine
 62
4
  6
CONTINUOUS
 10
8.1364420524
 20
6.2236040612
 11
8.1479267246
 21
6.2322175612
  0
LINE
  5
49D
100
AcDbEntity
  8
03__ASM_ALL_CURVES
100
AcDbLine
 62
4
  6
CONTINUOUS
 10
8.1938653885
 20
6.2236040612
 11
8.2168347204
 21
6.2408310612
  0
LINE
  5
49E
100
AcDbEntity
  8
03__ASM_ALL_CURVES
100
AcDbLine
 62
4
  6
CONTINUOUS
 10
11.5724423885
 20
8.8190728973
 11
11.5896693885
 21
8.8305575612
  0
LINE
  5
49F
100
AcDbEntity
  8
03__ASM_ALL_CURVES
100
AcDbLine
 62
4
  6
CONTINUOUS
 10
11.6068963885
 20
8.7042262283
 11
11.5896693885
 21
8.6927415612
  0
LINE
  5
4A0
100
AcDbEntity
  8
0
100
AcDbLine
 62
7
  6
CONTINUOUS
 10
10.3483653885
 20
8.2656495612
 11
10.2778653885
 21
8.2249463673
  0
LINE
  5
4A1
100
AcDbEntity
  8
03__ASM_ALL_CURVES
100
AcDbLine
 62
4
  6
CONTINUOUS
 10
12.7008108885
 20
10.3177415612
 11
12.6835838885
 21
10.3177415612
  0
LINE
  5
4A2
100
AcDbEntity
  8
03__ASM_ALL_CURVES
100
AcDbLine
 62
4
  6
CONTINUOUS
 10
12.5888353885
 20
10.3177415612
 11
12.5759151385
 21
10.3177415612
  0
LINE
  5
4A3
100
AcDbEntity
  8
03__ASM_ALL_CURVES
100
AcDbLine
 62
4
  6
CONTINUOUS
 10
12.2873628885
 20
10.3177415612
 11
12.2701358885
 21
10.3177415612
  0
LINE
  5
4A4
100
AcDbEntity
  8
03__ASM_ALL_CURVES
100
AcDbLine
 62
4
  6
CONTINUOUS
 10
11.7619393885
 20
10.3177415612
 11
11.7490191385
 21
10.3177415612
  0
LINE
  5
4A5
100
AcDbEntity
  8
03__ASM_ALL_CURVES
100
AcDbLine
 62
4
  6
CONTINUOUS
 10
11.5552153885
 20
10.3177415612
 11
11.6241233885
 21
10.3177415612
  0
LINE
  5
4A6
100
AcDbEntity
  8
03__ASM_ALL_CURVES
100
AcDbLine
 62
4
  6
CONTINUOUS
 10
8.3193653885
 20
10.3246495612
 11
8.3043653885
 21
10.3246495612
  0
LINE
  5
4A7
100
AcDbEntity
  8
03__ASM_ALL_CURVES
100
AcDbLine
 62
4
  6
CONTINUOUS
 10
12.4165653885
 20
8.8305575612
 11
12.4337923885
 21
8.8190728973
  0
LINE
  5
4A8
100
AcDbEntity
  8
03__ASM_ALL_CURVES
100
AcDbLine
 62
4
  6
CONTINUOUS
 10
8.7463653885
 20
11.2866495612
 11
8.7313653885
 21
11.2966495615
  0
LINE
  5
4A9
100
AcDbEntity
  8
03__ASM_ALL_CURVES
100
AcDbLine
 62
4
  6
CONTINUOUS
 10
12.6835838885
 20
8.6927415612
 11
12.6663568885
 21
8.7042262283
  0
LINE
  5
4AA
100
AcDbEntity
  8
03__ASM_ALL_CURVES
100
AcDbLine
 62
4
  6
CONTINUOUS
 10
8.8663653885
 20
11.2866495612
 11
8.8513653885
 21
11.2966495615
  0
LINE
  5
4AB
100
AcDbEntity
  8
03__ASM_ALL_CURVES
100
AcDbLine
 62
4
  6
CONTINUOUS
 10
12.7008108885
 20
8.7731342252
 11
12.7180378885
 21
8.7616495612
  0
LINE
  5
4AC
100
AcDbEntity
  8
03__ASM_ALL_CURVES
100
AcDbLine
 62
4
  6
CONTINUOUS
 10
12.8300133885
 20
8.6927415612
 11
12.8127863885
 21
8.7042262283
  0
LINE
  5
4AD
100
AcDbEntity
  8
03__ASM_ALL_CURVES
100
AcDbLine
 62
4
  6
CONTINUOUS
 10
8.7613653885
 20
11.4066495612
 11
8.7763653885
 21
11.3966495636
  0
LINE
  5
4AE
100
AcDbEntity
  8
03__ASM_ALL_CURVES
100
AcDbLine
 62
4
  6
CONTINUOUS
 10
12.7008108885
 20
8.8305575612
 11
12.7180378885
 21
8.8190728973
  0
LINE
  5
4AF
100
AcDbEntity
  8
03__ASM_ALL_CURVES
100
AcDbLine
 62
4
  6
CONTINUOUS
 10
8.8813653885
 20
11.4066495612
 11
8.8963653885
 21
11.3966495636
  0
LINE
  5
4B0
100
AcDbEntity
  8
03__ASM_ALL_CURVES
100
AcDbLine
 62
4
  6
CONTINUOUS
 10
12.8300133885
 20
8.8305575612
 11
12.8472403885
 21
8.8190728973
  0
LINE
  5
4B1
100
AcDbEntity
  8
03__ASM_ALL_CURVES
100
AcDbLine
 62
4
  6
CONTINUOUS
 10
8.9938653885
 20
11.4066495612
 11
9.0088653885
 21
11.3966495636
  0
LINE
  5
4B2
100
AcDbEntity
  8
03__ASM_ALL_CURVES
100
AcDbLine
 62
4
  6
CONTINUOUS
 10
11.6068963885
 20
8.8190728973
 11
11.6155098885
 21
8.8075882252
  0
LINE
  5
4B3
100
AcDbEntity
  8
03__ASM_ALL_CURVES
100
AcDbLine
 62
4
  6
CONTINUOUS
 10
12.5802218885
 20
7.5370728973
 11
12.5888353885
 21
7.5255882252
  0
LINE
  5
4B4
100
AcDbEntity
  8
03__ASM_ALL_CURVES
100
AcDbLine
 62
4
  6
CONTINUOUS
 10
11.7490191385
 20
8.7099685618
 11
11.7619393885
 21
8.6927415612
  0
LINE
  5
4B5
100
AcDbEntity
  8
03__ASM_ALL_CURVES
100
AcDbLine
 62
4
  6
CONTINUOUS
 10
12.7137311385
 20
7.4279685618
 11
12.7266513885
 21
7.4107415612
  0
LINE
  5
4B6
100
AcDbEntity
  8
03__ASM_ALL_CURVES
100
AcDbLine
 62
4
  6
CONTINUOUS
 10
11.8394608885
 20
8.7042262283
 11
11.8308473885
 21
8.7157108953
  0
LINE
  5
4B7
100
AcDbEntity
  8
03__ASM_ALL_CURVES
100
AcDbLine
 62
4
  6
CONTINUOUS
 10
12.8041728885
 20
7.4222262283
 11
12.7869458885
 21
7.4451955612
  0
LINE
  5
4B8
100
AcDbEntity
  8
03__ASM_ALL_CURVES
100
AcDbLine
 62
4
  6
CONTINUOUS
 10
12.8041728885
 20
7.5026188973
 11
12.7955593885
 21
7.5141035612
  0
LINE
  5
4B9
100
AcDbEntity
  8
03__ASM_ALL_CURVES
100
AcDbLine
 62
4
  6
CONTINUOUS
 10
11.8911418885
 20
8.7616495612
 11
11.9083688885
 21
8.7386802293
  0
LINE
  5
4BA
100
AcDbEntity
  8
03__ASM_ALL_CURVES
100
AcDbLine
 62
4
  6
CONTINUOUS
 10
12.8558538885
 20
7.4796495612
 11
12.8730808885
 21
7.4566802293
  0
LINE
  5
4BB
100
AcDbEntity
  8
03__ASM_ALL_CURVES
100
AcDbLine
 62
4
  6
CONTINUOUS
 10
11.8911418885
 20
8.8190728973
 11
11.8997553885
 21
8.8075882252
  0
LINE
  5
4BC
100
AcDbEntity
  8
03__ASM_ALL_CURVES
100
AcDbLine
 62
4
  6
CONTINUOUS
 10
12.8558538885
 20
7.5370728973
 11
12.8644673885
 21
7.5255882252
  0
LINE
  5
4BD
100
AcDbEntity
  8
03__ASM_ALL_CURVES
100
AcDbLine
 62
4
  6
CONTINUOUS
 10
12.9506023885
 20
7.4222262283
 11
12.9419888885
 21
7.4337108953
  0
LINE
  5
4BE
100
AcDbEntity
  8
03__ASM_ALL_CURVES
100
AcDbLine
 62
4
  6
CONTINUOUS
 10
11.8394608885
 20
7.4796495612
 11
11.8308473885
 21
7.5026188973
  0
LINE
  5
4BF
100
AcDbEntity
  8
03__ASM_ALL_CURVES
100
AcDbLine
 62
4
  6
CONTINUOUS
 10
11.5638288885
 20
8.3407108953
 11
11.5552153885
 21
8.3636802293
  0
LINE
  5
4C0
100
AcDbEntity
  8
03__ASM_ALL_CURVES
100
AcDbLine
 62
4
  6
CONTINUOUS
 10
11.8911418885
 20
7.5255882252
 11
11.8997553885
 21
7.5026188973
  0
LINE
  5
4C1
100
AcDbEntity
  8
03__ASM_ALL_CURVES
100
AcDbLine
 62
4
  6
CONTINUOUS
 10
11.9772768885
 20
7.4337108953
 11
11.9686633885
 21
7.4566802293
  0
LINE
  5
4C2
100
AcDbEntity
  8
03__ASM_ALL_CURVES
100
AcDbLine
 62
4
  6
CONTINUOUS
 10
11.6155098885
 20
8.4325882252
 11
11.6241233885
 21
8.4096188973
  0
LINE
  5
4C3
100
AcDbEntity
  8
03__ASM_ALL_CURVES
100
AcDbLine
 62
4
  6
CONTINUOUS
 10
11.5638288885
 20
8.7157108953
 11
11.5552153885
 21
8.7386802293
  0
LINE
  5
4C4
100
AcDbEntity
  8
03__ASM_ALL_CURVES
100
AcDbLine
 62
4
  6
CONTINUOUS
 10
12.0289578885
 20
7.5255882252
 11
12.0375713885
 21
7.5026188973
  0
LINE
  5
4C5
100
AcDbEntity
  8
03__ASM_ALL_CURVES
100
AcDbLine
 62
4
  6
CONTINUOUS
 10
11.6155098885
 20
8.8075882252
 11
11.6241233885
 21
8.7846188973
  0
LINE
  5
4C6
100
AcDbEntity
  8
03__ASM_ALL_CURVES
100
AcDbLine
 62
4
  6
CONTINUOUS
 10
11.5552153885
 20
7.4566802293
 11
11.5552153885
 21
7.5026188973
  0
LINE
  5
4C7
100
AcDbEntity
  8
03__ASM_ALL_CURVES
100
AcDbLine
 62
4
  6
CONTINUOUS
 10
11.5552153885
 20
8.3636802293
 11
11.5552153885
 21
8.4096188973
  0
LINE
  5
4C8
100
AcDbEntity
  8
03__ASM_ALL_CURVES
100
AcDbLine
 62
4
  6
CONTINUOUS
 10
11.5552153885
 20
8.7386802293
 11
11.5552153885
 21
8.7846188973
  0
LINE
  5
4C9
100
AcDbEntity
  8
03__ASM_ALL_CURVES
100
AcDbLine
 62
4
  6
CONTINUOUS
 10
11.6155098885
 20
12.8177415612
 11
11.6155098885
 21
12.9555575612
  0
LINE
  5
4CA
100
AcDbEntity
  8
03__ASM_ALL_CURVES
100
AcDbLine
 62
4
  6
CONTINUOUS
 10
11.6155098885
 20
13.0064915612
 11
11.6155098885
 21
13.1443075612
  0
LINE
  5
4CB
100
AcDbEntity
  8
03__ASM_ALL_CURVES
100
AcDbLine
 62
4
  6
CONTINUOUS
 10
11.6155098885
 20
13.1927415612
 11
11.6155098885
 21
13.3305575612
  0
LINE
  5
4CC
100
AcDbEntity
  8
03__ASM_ALL_CURVES
100
AcDbLine
 62
4
  6
CONTINUOUS
 10
11.6241233885
 20
10.4325882252
 11
11.6241233885
 21
10.4096188973
  0
LINE
  5
4CD
100
AcDbEntity
  8
03__ASM_ALL_CURVES
100
AcDbLine
 62
4
  6
CONTINUOUS
 10
11.6241233885
 20
8.7846188973
 11
11.6241233885
 21
8.7386802293
  0
LINE
  5
4CE
100
AcDbEntity
  8
03__ASM_ALL_CURVES
100
AcDbLine
 62
4
  6
CONTINUOUS
 10
11.6241233885
 20
8.4096188973
 11
11.6241233885
 21
8.3636802293
  0
LINE
  5
4CF
100
AcDbEntity
  8
03__ASM_ALL_CURVES
100
AcDbLine
 62
4
  6
CONTINUOUS
 10
11.6241233885
 20
7.5026188973
 11
11.6241233885
 21
7.4566802293
  0
LINE
  5
4D0
100
AcDbEntity
  8
03__ASM_ALL_CURVES
100
AcDbLine
 62
4
  6
CONTINUOUS
 10
11.7490191385
 20
7.4107415612
 11
11.7490191385
 21
7.4279685618
  0
LINE
  5
4D1
100
AcDbEntity
  8
03__ASM_ALL_CURVES
100
AcDbLine
 62
4
  6
CONTINUOUS
 10
11.7490191385
 20
8.6927415612
 11
11.7490191385
 21
8.7099685618
  0
LINE
  5
4D2
100
AcDbEntity
  8
03__ASM_ALL_CURVES
100
AcDbLine
 62
4
  6
CONTINUOUS
 10
11.7490191385
 20
10.3177415612
 11
11.7490191385
 21
10.3349685618
  0
LINE
  5
4D3
100
AcDbEntity
  8
03__ASM_ALL_CURVES
100
AcDbLine
 62
4
  6
CONTINUOUS
 10
11.7490191385
 20
12.8177415612
 11
11.7490191385
 21
12.8349685618
  0
LINE
  5
4D4
100
AcDbEntity
  8
03__ASM_ALL_CURVES
100
AcDbLine
 62
4
  6
CONTINUOUS
 10
11.7490191385
 20
13.0064915612
 11
11.7490191385
 21
13.0237185618
  0
LINE
  5
4D5
100
AcDbEntity
  8
03__ASM_ALL_CURVES
100
AcDbLine
 62
4
  6
CONTINUOUS
 10
11.7490191385
 20
13.1927415612
 11
11.7490191385
 21
13.2099685618
  0
LINE
  5
4D6
100
AcDbEntity
  8
03__ASM_ALL_CURVES
100
AcDbLine
 62
4
  6
CONTINUOUS
 10
12.5285408885
 20
13.2271955612
 11
12.5199273885
 21
13.1927415612
  0
LINE
  5
4D7
100
AcDbEntity
  8
03__ASM_ALL_CURVES
100
AcDbLine
 62
4
  6
CONTINUOUS
 10
12.5285408885
 20
13.0409455612
 11
12.5199273885
 21
13.0064915612
  0
LINE
  5
4D8
100
AcDbEntity
  8
03__ASM_ALL_CURVES
100
AcDbLine
 62
4
  6
CONTINUOUS
 10
12.6663568885
 20
13.0409455612
 11
12.6577433885
 21
13.0064915612
  0
LINE
  5
4D9
100
AcDbEntity
  8
03__ASM_ALL_CURVES
100
AcDbLine
 62
4
  6
CONTINUOUS
 10
12.1323198885
 20
10.4325882252
 11
12.1237063885
 21
10.3981342252
  0
LINE
  5
4DA
100
AcDbEntity
  8
03__ASM_ALL_CURVES
100
AcDbLine
 62
4
  6
CONTINUOUS
 10
13.0711913885
 20
13.2846188973
 11
13.0798048885
 21
13.3075882252
  0
LINE
  5
4DB
100
AcDbEntity
  8
03__ASM_ALL_CURVES
100
AcDbLine
 62
4
  6
CONTINUOUS
 10
13.1400993885
 20
13.2846188973
 11
13.1314858885
 21
13.2616495612
  0
LINE
  5
4DC
100
AcDbEntity
  8
03__ASM_ALL_CURVES
100
AcDbLine
 62
4
  6
CONTINUOUS
 10
13.1400993885
 20
13.2386802293
 11
13.1314858885
 21
13.2157108953
  0
LINE
  5
4DD
100
AcDbEntity
  8
03__ASM_ALL_CURVES
100
AcDbLine
 62
4
  6
CONTINUOUS
 10
13.1228723885
 20
13.0983688973
 11
13.1400993885
 21
13.1443075612
  0
LINE
  5
4DE
100
AcDbEntity
  8
03__ASM_ALL_CURVES
100
AcDbLine
 62
4
  6
CONTINUOUS
 10
11.5552153885
 20
8.7846188973
 11
11.5638288885
 21
8.8075882252
  0
LINE
  5
4DF
100
AcDbEntity
  8
03__ASM_ALL_CURVES
100
AcDbLine
 62
4
  6
CONTINUOUS
 10
11.6241233885
 20
8.7386802293
 11
11.6155098885
 21
8.7157108953
  0
LINE
  5
4E0
100
AcDbEntity
  8
03__ASM_ALL_CURVES
100
AcDbLine
 62
4
  6
CONTINUOUS
 10
11.5552153885
 20
8.4096188973
 11
11.5638288885
 21
8.4325882252
  0
LINE
  5
4E1
100
AcDbEntity
  8
03__ASM_ALL_CURVES
100
AcDbLine
 62
4
  6
CONTINUOUS
 10
12.3218168885
 20
10.3636802293
 11
12.3132033885
 21
10.3407108953
  0
LINE
  5
4E2
100
AcDbEntity
  8
03__ASM_ALL_CURVES
100
AcDbLine
 62
4
  6
CONTINUOUS
 10
9.2627733885
 20
5.5000700612
 11
9.2512887215
 21
5.4828430612
  0
LINE
  5
4E3
100
AcDbEntity
  8
03__ASM_ALL_CURVES
100
AcDbLine
 62
4
  6
CONTINUOUS
 10
10.6249573885
 20
7.4908455612
 11
10.6364420524
 21
7.5080725612
  0
LINE
  5
4E4
100
AcDbEntity
  8
03__ASM_ALL_CURVES
100
AcDbLine
 62
4
  6
CONTINUOUS
 10
10.7627733885
 20
7.4908455612
 11
10.7512887215
 21
7.4736185612
  0
LINE
  5
4E5
100
AcDbEntity
  8
03__ASM_ALL_CURVES
100
AcDbLine
 62
4
  6
CONTINUOUS
 10
12.6577433885
 20
10.4325882252
 11
12.6663568885
 21
10.4440728973
  0
LINE
  5
4E6
100
AcDbEntity
  8
03__ASM_ALL_CURVES
100
AcDbLine
 62
4
  6
CONTINUOUS
 10
12.6491298885
 20
10.3636802293
 11
12.6663568885
 21
10.3866495612
  0
LINE
  5
4E7
100
AcDbEntity
  8
03__ASM_ALL_CURVES
100
AcDbLine
 62
4
  6
CONTINUOUS
 10
12.7266513885
 20
10.4211035612
 11
12.7180378885
 21
10.4096188973
  0
LINE
  5
4E8
100
AcDbEntity
  8
03__ASM_ALL_CURVES
100
AcDbLine
 62
4
  6
CONTINUOUS
 10
11.5638288885
 20
8.8075882252
 11
11.5724423885
 21
8.8190728973
  0
LINE
  5
4E9
100
AcDbEntity
  8
03__ASM_ALL_CURVES
100
AcDbLine
 62
4
  6
CONTINUOUS
 10
12.7352648885
 20
10.3521955612
 11
12.7180378885
 21
10.3292262283
  0
LINE
  5
4EA
100
AcDbEntity
  8
03__ASM_ALL_CURVES
100
AcDbLine
 62
4
  6
CONTINUOUS
 10
11.6155098885
 20
8.7157108953
 11
11.6068963885
 21
8.7042262283
  0
LINE
  5
4EB
100
AcDbEntity
  8
03__ASM_ALL_CURVES
100
AcDbLine
 62
4
  6
CONTINUOUS
 10
12.8386268885
 20
10.3407108953
 11
12.8213998885
 21
10.3177415612
  0
LINE
  5
4EC
100
AcDbEntity
  8
03__ASM_ALL_CURVES
100
AcDbLine
 62
4
  6
CONTINUOUS
 10
11.5638288885
 20
8.4325882252
 11
11.5724423885
 21
8.4440728973
  0
LINE
  5
4ED
100
AcDbEntity
  8
03__ASM_ALL_CURVES
100
AcDbLine
 62
4
  6
CONTINUOUS
 10
8.2512887215
 20
6.1719230612
 11
8.2398040545
 21
6.1633095612
  0
LINE
  5
4EE
100
AcDbEntity
  8
03__ASM_ALL_CURVES
100
AcDbLine
 62
4
  6
CONTINUOUS
 10
8.1364420524
 20
6.0771745612
 11
8.1479267246
 21
6.0857880612
  0
LINE
  5
4EF
100
AcDbEntity
  8
03__ASM_ALL_CURVES
100
AcDbLine
 62
4
  6
CONTINUOUS
 10
7.8648040545
 20
5.7757020612
 11
7.8877733885
 21
5.7929290612
  0
LINE
  5
4F0
100
AcDbEntity
  8
03__ASM_ALL_CURVES
100
AcDbLine
 62
4
  6
CONTINUOUS
 10
8.2512887215
 20
6.0427205612
 11
8.2398040545
 21
6.0341070612
  0
LINE
  5
4F1
100
AcDbEntity
  8
03__ASM_ALL_CURVES
100
AcDbLine
 62
4
  6
CONTINUOUS
 10
9.1249573885
 20
6.6025980612
 11
9.1479267246
 21
6.6198250612
  0
LINE
  5
4F2
100
AcDbEntity
  8
03__ASM_ALL_CURVES
100
AcDbLine
 62
4
  6
CONTINUOUS
 10
8.2398040545
 20
5.9135180612
 11
8.2627733885
 21
5.9307450612
  0
LINE
  5
4F3
100
AcDbEntity
  8
03__ASM_ALL_CURVES
100
AcDbLine
 62
4
  6
CONTINUOUS
 10
9.1364420524
 20
6.4906225612
 11
9.1479267246
 21
6.4992360612
  0
LINE
  5
4F4
100
AcDbEntity
  8
03__ASM_ALL_CURVES
100
AcDbLine
 62
4
  6
CONTINUOUS
 10
11.8394608885
 20
8.8190728973
 11
11.8566878885
 21
8.8305575612
  0
LINE
  5
4F5
100
AcDbEntity
  8
03__ASM_ALL_CURVES
100
AcDbLine
 62
4
  6
CONTINUOUS
 10
11.8911418885
 20
8.7846188973
 11
11.8739148885
 21
8.7731342252
  0
LINE
  5
4F6
100
AcDbEntity
  8
03__ASM_ALL_CURVES
100
AcDbLine
 62
4
  6
CONTINUOUS
 10
11.8911418885
 20
8.7042262283
 11
11.8739148885
 21
8.6927415612
  0
LINE
  5
4F7
100
AcDbEntity
  8
03__ASM_ALL_CURVES
100
AcDbLine
 62
4
  6
CONTINUOUS
 10
11.5724423885
 20
8.4440728973
 11
11.5896693885
 21
8.4555575612
  0
LINE
  5
4F8
100
AcDbEntity
  8
03__ASM_ALL_CURVES
100
AcDbLine
 62
4
  6
CONTINUOUS
 10
11.6068963885
 20
8.3292262283
 11
11.5896693885
 21
8.3177415612
  0
LINE
  5
4F9
100
AcDbEntity
  8
03__ASM_ALL_CURVES
100
AcDbLine
 62
4
  6
CONTINUOUS
 10
12.3993383885
 20
8.8190728973
 11
12.4165653885
 21
8.8305575612
  0
LINE
  5
4FA
100
AcDbEntity
  8
0
100
AcDbLine
 62
7
  6
CONTINUOUS
 10
10.1945946306
 20
7.4829573407
 11
10.1888653885
 21
7.4796495612
  0
LINE
  5
4FB
100
AcDbEntity
  8
03__ASM_ALL_CURVES
100
AcDbLine
 62
4
  6
CONTINUOUS
 10
12.4424058885
 20
8.7616495612
 11
12.4165653885
 21
8.7501648932
  0
LINE
  5
4FC
100
AcDbEntity
  8
03__ASM_ALL_CURVES
100
AcDbLine
 62
4
  6
CONTINUOUS
 10
12.8558538885
 20
8.7616495612
 11
12.8300133885
 21
8.7501648932
  0
LINE
  5
4FD
100
AcDbEntity
  8
03__ASM_ALL_CURVES
100
AcDbLine
 62
4
  6
CONTINUOUS
 10
6.6938653885
 20
6.4992360612
 11
6.7168347204
 21
6.5078495612
  0
LINE
  5
4FE
100
AcDbEntity
  8
03__ASM_ALL_CURVES
100
AcDbLine
 62
4
  6
CONTINUOUS
 10
6.7398040545
 20
6.4475550612
 11
6.7168347204
 21
6.4389415612
  0
LINE
  5
4FF
100
AcDbEntity
  8
03__ASM_ALL_CURVES
100
AcDbLine
 62
4
  6
CONTINUOUS
 10
8.3118653885
 20
10.3846495612
 11
8.3418653885
 21
10.3846495612
  0
LINE
  5
500
100
AcDbEntity
  8
03__ASM_ALL_CURVES
100
AcDbLine
 62
4
  6
CONTINUOUS
 10
10.8316813885
 20
10.3866495612
 11
11.2451293885
 21
10.3866495612
  0
LINE
  5
501
100
AcDbEntity
  8
03__ASM_ALL_CURVES
100
AcDbLine
 62
4
  6
CONTINUOUS
 10
12.6835838885
 20
10.3981342252
 11
12.7008108885
 21
10.3981342252
  0
LINE
  5
502
100
AcDbEntity
  8
03__ASM_ALL_CURVES
100
AcDbLine
 62
4
  6
CONTINUOUS
 10
12.2701358885
 20
10.4096188973
 11
12.2873628885
 21
10.4096188973
  0
LINE
  5
503
100
AcDbEntity
  8
03__ASM_ALL_CURVES
100
AcDbLine
 62
4
  6
CONTINUOUS
 10
8.3043653885
 20
10.4446495612
 11
8.3193653885
 21
10.4446495612
  0
LINE
  5
504
100
AcDbEntity
  8
03__ASM_ALL_CURVES
100
AcDbLine
 62
4
  6
CONTINUOUS
 10
12.3132033885
 20
10.4555575612
 11
12.2615223885
 21
10.4555575612
  0
LINE
  5
505
100
AcDbEntity
  8
03__ASM_ALL_CURVES
100
AcDbLine
 62
4
  6
CONTINUOUS
 10
11.5810558885
 20
10.4555575612
 11
11.5982828885
 21
10.4555575612
  0
LINE
  5
506
100
AcDbEntity
  8
03__ASM_ALL_CURVES
100
AcDbLine
 62
4
  6
CONTINUOUS
 10
12.6835838885
 20
10.4555575612
 11
12.7008108885
 21
10.4555575612
  0
LINE
  5
507
100
AcDbEntity
  8
03__ASM_ALL_CURVES
100
AcDbLine
 62
4
  6
CONTINUOUS
 10
12.9850563885
 20
7.5370728973
 11
12.9936698885
 21
7.5255882252
  0
LINE
  5
508
100
AcDbEntity
  8
03__ASM_ALL_CURVES
100
AcDbLine
 62
4
  6
CONTINUOUS
 10
13.0970318885
 20
7.5485575612
 11
13.1142588885
 21
7.5255882252
  0
LINE
  5
509
100
AcDbEntity
  8
03__ASM_ALL_CURVES
100
AcDbLine
 62
4
  6
CONTINUOUS
 10
12.2701358885
 20
8.7157108953
 11
12.2873628885
 21
8.6927415612
  0
LINE
  5
50A
100
AcDbEntity
  8
03__ASM_ALL_CURVES
100
AcDbLine
 62
4
  6
CONTINUOUS
 10
12.3993383885
 20
8.7042262283
 11
12.3907248885
 21
8.7157108953
  0
LINE
  5
50B
100
AcDbEntity
  8
03__ASM_ALL_CURVES
100
AcDbLine
 62
4
  6
CONTINUOUS
 10
12.4337923885
 20
8.8190728973
 11
12.4424058885
 21
8.8075882252
  0
LINE
  5
50C
100
AcDbEntity
  8
03__ASM_ALL_CURVES
100
AcDbLine
 62
4
  6
CONTINUOUS
 10
12.2615223885
 20
7.4681648932
 11
12.2701358885
 21
7.4337108953
  0
LINE
  5
50D
100
AcDbEntity
  8
03__ASM_ALL_CURVES
100
AcDbLine
 62
4
  6
CONTINUOUS
 10
11.8222338885
 20
13.0409455612
 11
11.8222338885
 21
13.0524302293
  0
LINE
  5
50E
100
AcDbEntity
  8
03__ASM_ALL_CURVES
100
AcDbLine
 62
4
  6
CONTINUOUS
 10
11.8222338885
 20
13.2271955612
 11
11.8222338885
 21
13.2386802293
  0
LINE
  5
50F
100
AcDbEntity
  8
03__ASM_ALL_CURVES
100
AcDbLine
 62
4
  6
CONTINUOUS
 10
11.8308473885
 20
10.3636802293
 11
11.8308473885
 21
10.4096188973
  0
LINE
  5
510
100
AcDbEntity
  8
03__ASM_ALL_CURVES
100
AcDbLine
 62
4
  6
CONTINUOUS
 10
11.8308473885
 20
13.1098535612
 11
11.8308473885
 21
13.1213382252
  0
LINE
  5
511
100
AcDbEntity
  8
03__ASM_ALL_CURVES
100
AcDbLine
 62
4
  6
CONTINUOUS
 10
11.8308473885
 20
13.2961035612
 11
11.8308473885
 21
13.3075882252
  0
LINE
  5
512
100
AcDbEntity
  8
03__ASM_ALL_CURVES
100
AcDbLine
 62
4
  6
CONTINUOUS
 10
11.8997553885
 20
13.3075882252
 11
11.8997553885
 21
13.2961035612
  0
LINE
  5
513
100
AcDbEntity
  8
03__ASM_ALL_CURVES
100
AcDbLine
 62
4
  6
CONTINUOUS
 10
11.8997553885
 20
13.1213382252
 11
11.8997553885
 21
13.1098535612
  0
LINE
  5
514
100
AcDbEntity
  8
03__ASM_ALL_CURVES
100
AcDbLine
 62
4
  6
CONTINUOUS
 10
11.8997553885
 20
10.4096188973
 11
11.8997553885
 21
10.3636802293
  0
LINE
  5
515
100
AcDbEntity
  8
03__ASM_ALL_CURVES
100
AcDbLine
 62
4
  6
CONTINUOUS
 10
11.8997553885
 20
8.8075882252
 11
11.8997553885
 21
8.7961035612
  0
LINE
  5
516
100
AcDbEntity
  8
03__ASM_ALL_CURVES
100
AcDbLine
 62
4
  6
CONTINUOUS
 10
11.8997553885
 20
7.5026188973
 11
11.8997553885
 21
7.4566802293
  0
LINE
  5
517
100
AcDbEntity
  8
03__ASM_ALL_CURVES
100
AcDbLine
 62
4
  6
CONTINUOUS
 10
11.9083688885
 20
13.2386802293
 11
11.9083688885
 21
13.2271955612
  0
LINE
  5
518
100
AcDbEntity
  8
03__ASM_ALL_CURVES
100
AcDbLine
 62
4
  6
CONTINUOUS
 10
11.9083688885
 20
13.0524302293
 11
11.9083688885
 21
13.0409455612
  0
LINE
  5
519
100
AcDbEntity
  8
03__ASM_ALL_CURVES
100
AcDbLine
 62
4
  6
CONTINUOUS
 10
11.9083688885
 20
8.7386802293
 11
11.9083688885
 21
8.7271955612
  0
LINE
  5
51A
100
AcDbEntity
  8
03__ASM_ALL_CURVES
100
AcDbLine
 62
4
  6
CONTINUOUS
 10
11.9686633885
 20
7.4566802293
 11
11.9686633885
 21
7.5026188973
  0
LINE
  5
51B
100
AcDbEntity
  8
03__ASM_ALL_CURVES
100
AcDbLine
 62
4
  6
CONTINUOUS
 10
12.0031173885
 20
13.1443075612
 11
12.0031173885
 21
13.0064915612
  0
LINE
  5
51C
100
AcDbEntity
  8
03__ASM_ALL_CURVES
100
AcDbLine
 62
4
  6
CONTINUOUS
 10
12.0375713885
 20
7.5026188973
 11
12.0375713885
 21
7.4566802293
  0
LINE
  5
51D
100
AcDbEntity
  8
03__ASM_ALL_CURVES
100
AcDbLine
 62
4
  6
CONTINUOUS
 10
12.1237063885
 20
12.8981342252
 11
12.1237063885
 21
12.8751648932
  0
LINE
  5
51E
100
AcDbEntity
  8
03__ASM_ALL_CURVES
100
AcDbLine
 62
4
  6
CONTINUOUS
 10
12.1237063885
 20
10.3981342252
 11
12.1237063885
 21
10.3751648932
  0
LINE
  5
51F
100
AcDbEntity
  8
03__ASM_ALL_CURVES
100
AcDbLine
 62
4
  6
CONTINUOUS
 10
12.2615223885
 20
10.4555575612
 11
12.2529088885
 21
10.3981342252
  0
LINE
  5
520
100
AcDbEntity
  8
03__ASM_ALL_CURVES
100
AcDbLine
 62
4
  6
CONTINUOUS
 10
12.0031173885
 20
8.6927415612
 11
12.0117308885
 21
8.7501648932
  0
LINE
  5
521
100
AcDbEntity
  8
03__ASM_ALL_CURVES
100
AcDbLine
 62
4
  6
CONTINUOUS
 10
12.9850563885
 20
12.8751648932
 11
12.9764428885
 21
12.8407108953
  0
LINE
  5
522
100
AcDbEntity
  8
03__ASM_ALL_CURVES
100
AcDbLine
 62
4
  6
CONTINUOUS
 10
12.0117308885
 20
8.7501648932
 11
12.0203443885
 21
8.7846188973
  0
LINE
  5
523
100
AcDbEntity
  8
03__ASM_ALL_CURVES
100
AcDbLine
 62
4
  6
CONTINUOUS
 10
13.1142588885
 20
13.0639148932
 11
13.1228723885
 21
13.0983688973
  0
LINE
  5
524
100
AcDbEntity
  8
03__ASM_ALL_CURVES
100
AcDbLine
 62
4
  6
CONTINUOUS
 10
12.3821113885
 20
10.4096188973
 11
12.3907248885
 21
10.4325882252
  0
LINE
  5
525
100
AcDbEntity
  8
03__ASM_ALL_CURVES
100
AcDbLine
 62
4
  6
CONTINUOUS
 10
11.6241233885
 20
8.3636802293
 11
11.6155098885
 21
8.3407108953
  0
LINE
  5
526
100
AcDbEntity
  8
03__ASM_ALL_CURVES
100
AcDbLine
 62
4
  6
CONTINUOUS
 10
12.4510193885
 20
10.3636802293
 11
12.4424058885
 21
10.3407108953
  0
LINE
  5
527
100
AcDbEntity
  8
03__ASM_ALL_CURVES
100
AcDbLine
 62
4
  6
CONTINUOUS
 10
12.0203443885
 20
8.7846188973
 11
12.0375713885
 21
8.8305575612
  0
LINE
  5
528
100
AcDbEntity
  8
03__ASM_ALL_CURVES
100
AcDbLine
 62
4
  6
CONTINUOUS
 10
11.5552153885
 20
7.5026188973
 11
11.5638288885
 21
7.5255882252
  0
LINE
  5
529
100
AcDbEntity
  8
03__ASM_ALL_CURVES
100
AcDbLine
 62
4
  6
CONTINUOUS
 10
11.6241233885
 20
7.4566802293
 11
11.6155098885
 21
7.4337108953
  0
LINE
  5
52A
100
AcDbEntity
  8
03__ASM_ALL_CURVES
100
AcDbLine
 62
4
  6
CONTINUOUS
 10
11.8997553885
 20
8.7961035612
 11
11.8911418885
 21
8.7846188973
  0
LINE
  5
52B
100
AcDbEntity
  8
03__ASM_ALL_CURVES
100
AcDbLine
 62
4
  6
CONTINUOUS
 10
11.6155098885
 20
8.3407108953
 11
11.6068963885
 21
8.3292262283
  0
LINE
  5
52C
100
AcDbEntity
  8
03__ASM_ALL_CURVES
100
AcDbLine
 62
4
  6
CONTINUOUS
 10
11.9083688885
 20
8.7271955612
 11
11.8911418885
 21
8.7042262283
  0
LINE
  5
52D
100
AcDbEntity
  8
03__ASM_ALL_CURVES
100
AcDbLine
 62
4
  6
CONTINUOUS
 10
12.2873628885
 20
8.8305575612
 11
12.2701358885
 21
8.8075882252
  0
LINE
  5
52E
100
AcDbEntity
  8
03__ASM_ALL_CURVES
100
AcDbLine
 62
4
  6
CONTINUOUS
 10
7.7614420524
 20
5.3967080612
 11
7.7729267246
 21
5.4053215612
  0
LINE
  5
52F
100
AcDbEntity
  8
03__ASM_ALL_CURVES
100
AcDbLine
 62
4
  6
CONTINUOUS
 10
8.1823807246
 20
5.6723400612
 11
8.1938653885
 21
5.6809535612
  0
LINE
  5
530
100
AcDbEntity
  8
03__ASM_ALL_CURVES
100
AcDbLine
 62
4
  6
CONTINUOUS
 10
7.8188653885
 20
5.3967080612
 11
7.8418347204
 21
5.4139350612
  0
LINE
  5
531
100
AcDbEntity
  8
03__ASM_ALL_CURVES
100
AcDbLine
 62
4
  6
CONTINUOUS
 10
10.6364420524
 20
7.5080725612
 11
10.6479267246
 21
7.5166860612
  0
LINE
  5
532
100
AcDbEntity
  8
03__ASM_ALL_CURVES
100
AcDbLine
 62
4
  6
CONTINUOUS
 10
9.2512887215
 20
6.4561685612
 11
9.2398040545
 21
6.4475550612
  0
LINE
  5
533
100
AcDbEntity
  8
03__ASM_ALL_CURVES
100
AcDbLine
 62
4
  6
CONTINUOUS
 10
9.1364420524
 20
6.3528065612
 11
9.1479267246
 21
6.3614200612
  0
LINE
  5
534
100
AcDbEntity
  8
03__ASM_ALL_CURVES
100
AcDbLine
 62
4
  6
CONTINUOUS
 10
7.7958960524
 20
5.3450270612
 11
7.7844113885
 21
5.3364135612
  0
LINE
  5
535
100
AcDbEntity
  8
03__ASM_ALL_CURVES
100
AcDbLine
 62
4
  6
CONTINUOUS
 10
7.8762887215
 20
5.3450270612
 11
7.8533193885
 21
5.3278000612
  0
LINE
  5
536
100
AcDbEntity
  8
03__ASM_ALL_CURVES
100
AcDbLine
 62
4
  6
CONTINUOUS
 10
8.2512887215
 20
5.6206590612
 11
8.2398040545
 21
5.6120455612
  0
LINE
  5
537
100
AcDbEntity
  8
03__ASM_ALL_CURVES
100
AcDbLine
 62
4
  6
CONTINUOUS
 10
10.7512887215
 20
7.4736185612
 11
10.7398040545
 21
7.4650050612
  0
LINE
  5
538
100
AcDbEntity
  8
03__ASM_ALL_CURVES
100
AcDbLine
 62
4
  6
CONTINUOUS
 10
9.2512887215
 20
6.3183525612
 11
9.2398040545
 21
6.3097390612
  0
LINE
  5
539
100
AcDbEntity
  8
03__ASM_ALL_CURVES
100
AcDbLine
 62
4
  6
CONTINUOUS
 10
7.870546388
 20
5.2545853112
 11
7.8877733885
 21
5.2675055612
  0
LINE
  5
53A
100
AcDbEntity
  8
03__ASM_ALL_CURVES
100
AcDbLine
 62
4
  6
CONTINUOUS
 10
8.245546388
 20
5.5302173112
 11
8.2627733885
 21
5.5431375612
  0
LINE
  5
53B
100
AcDbEntity
  8
03__ASM_ALL_CURVES
100
AcDbLine
 62
4
  6
CONTINUOUS
 10
7.7614420524
 20
5.1210760612
 11
7.7729267246
 21
5.1296895612
  0
LINE
  5
53C
100
AcDbEntity
  8
03__ASM_ALL_CURVES
100
AcDbLine
 62
4
  6
CONTINUOUS
 10
8.1364420524
 20
5.3967080612
 11
8.1479267246
 21
5.4053215612
  0
LINE
  5
53D
100
AcDbEntity
  8
03__ASM_ALL_CURVES
100
AcDbLine
 62
4
  6
CONTINUOUS
 10
9.245546388
 20
6.2192973112
 11
9.2627733885
 21
6.2322175612
  0
LINE
  5
53E
100
AcDbEntity
  8
03__ASM_ALL_CURVES
100
AcDbLine
 62
4
  6
CONTINUOUS
 10
9.1364420524
 20
6.0857880612
 11
9.1479267246
 21
6.0944015612
  0
LINE
  5
53F
100
AcDbEntity
  8
03__ASM_ALL_CURVES
100
AcDbLine
 62
4
  6
CONTINUOUS
 10
9.1938653885
 20
6.0857880612
 11
9.2168347204
 21
6.1030150612
  0
LINE
  5
540
100
AcDbEntity
  8
03__ASM_ALL_CURVES
100
AcDbLine
 62
4
  6
CONTINUOUS
 10
9.1708960524
 20
6.0341070612
 11
9.1594113885
 21
6.0254935612
  0
LINE
  5
541
100
AcDbEntity
  8
03__ASM_ALL_CURVES
100
AcDbLine
 62
4
  6
CONTINUOUS
 10
12.4337923885
 20
8.7042262283
 11
12.4165653885
 21
8.6927415612
  0
LINE
  5
542
100
AcDbEntity
  8
03__ASM_ALL_CURVES
100
AcDbLine
 62
4
  6
CONTINUOUS
 10
12.6663568885
 20
8.8190728973
 11
12.6835838885
 21
8.8305575612
  0
LINE
  5
543
100
AcDbEntity
  8
03__ASM_ALL_CURVES
100
AcDbLine
 62
4
  6
CONTINUOUS
 10
12.7180378885
 20
8.7846188973
 11
12.7008108885
 21
8.7731342252
  0
LINE
  5
544
100
AcDbEntity
  8
03__ASM_ALL_CURVES
100
AcDbLine
 62
4
  6
CONTINUOUS
 10
12.8127863885
 20
8.8190728973
 11
12.8300133885
 21
8.8305575612
  0
LINE
  5
545
100
AcDbEntity
  8
03__ASM_ALL_CURVES
100
AcDbLine
 62
4
  6
CONTINUOUS
 10
12.7180378885
 20
8.7042262283
 11
12.7008108885
 21
8.6927415612
  0
LINE
  5
546
100
AcDbEntity
  8
03__ASM_ALL_CURVES
100
AcDbLine
 62
4
  6
CONTINUOUS
 10
12.8472403885
 20
8.7042262283
 11
12.8300133885
 21
8.6927415612
  0
LINE
  5
547
100
AcDbEntity
  8
03__ASM_ALL_CURVES
100
AcDbLine
 62
4
  6
CONTINUOUS
 10
6.6479267246
 20
6.0857880612
 11
6.6708960524
 21
6.0944015612
  0
LINE
  5
548
100
AcDbEntity
  8
03__ASM_ALL_CURVES
100
AcDbLine
 62
4
  6
CONTINUOUS
 10
7.7729267246
 20
6.4992360612
 11
7.7958960524
 21
6.5078495612
  0
LINE
  5
549
100
AcDbEntity
  8
03__ASM_ALL_CURVES
100
AcDbLine
 62
4
  6
CONTINUOUS
 10
10.6479267246
 20
7.5166860612
 11
10.6708960524
 21
7.5252995612
  0
LINE
  5
54A
100
AcDbEntity
  8
03__ASM_ALL_CURVES
100
AcDbLine
 62
4
  6
CONTINUOUS
 10
7.8188653885
 20
6.4475550612
 11
7.7958960524
 21
6.4389415612
  0
LINE
  5
54B
100
AcDbEntity
  8
03__ASM_ALL_CURVES
100
AcDbLine
 62
4
  6
CONTINUOUS
 10
6.7398040545
 20
6.0341070612
 11
6.7168347204
 21
6.0254935612
  0
LINE
  5
54C
100
AcDbEntity
  8
03__ASM_ALL_CURVES
100
AcDbLine
 62
4
  6
CONTINUOUS
 10
10.7398040545
 20
7.4650050612
 11
10.7168347204
 21
7.4563915612
  0
LINE
  5
54D
100
AcDbEntity
  8
03__ASM_ALL_CURVES
100
AcDbLine
 62
4
  6
CONTINUOUS
 10
8.1938653885
 20
6.5078495612
 11
8.2168347204
 21
6.5164630612
  0
LINE
  5
54E
100
AcDbEntity
  8
03__ASM_ALL_CURVES
100
AcDbLine
 62
4
  6
CONTINUOUS
 10
11.5982828885
 20
10.4555575612
 11
11.6155098885
 21
10.4440728973
  0
LINE
  5
54F
100
AcDbEntity
  8
03__ASM_ALL_CURVES
100
AcDbLine
 62
4
  6
CONTINUOUS
 10
11.8653013885
 20
10.3177415612
 11
11.8480743885
 21
10.3292262283
  0
LINE
  5
550
100
AcDbEntity
  8
03__ASM_ALL_CURVES
100
AcDbLine
 62
4
  6
CONTINUOUS
 10
12.5759151385
 20
8.7099685618
 11
12.5888353885
 21
8.6927415612
  0
LINE
  5
551
100
AcDbEntity
  8
03__ASM_ALL_CURVES
100
AcDbLine
 62
4
  6
CONTINUOUS
 10
12.6663568885
 20
8.7042262283
 11
12.6577433885
 21
8.7157108953
  0
LINE
  5
552
100
AcDbEntity
  8
03__ASM_ALL_CURVES
100
AcDbLine
 62
4
  6
CONTINUOUS
 10
12.7180378885
 20
8.7616495612
 11
12.7352648885
 21
8.7386802293
  0
LINE
  5
553
100
AcDbEntity
  8
03__ASM_ALL_CURVES
100
AcDbLine
 62
4
  6
CONTINUOUS
 10
12.7180378885
 20
8.8190728973
 11
12.7266513885
 21
8.8075882252
  0
LINE
  5
554
100
AcDbEntity
  8
03__ASM_ALL_CURVES
100
AcDbLine
 62
4
  6
CONTINUOUS
 10
12.8127863885
 20
8.7042262283
 11
12.8041728885
 21
8.7157108953
  0
LINE
  5
555
100
AcDbEntity
  8
03__ASM_ALL_CURVES
100
AcDbLine
 62
4
  6
CONTINUOUS
 10
11.6155098885
 20
10.4440728973
 11
11.6241233885
 21
10.4325882252
  0
LINE
  5
556
100
AcDbEntity
  8
03__ASM_ALL_CURVES
100
AcDbLine
 62
4
  6
CONTINUOUS
 10
12.8472403885
 20
8.8190728973
 11
12.8558538885
 21
8.8075882252
  0
LINE
  5
557
100
AcDbEntity
  8
03__ASM_ALL_CURVES
100
AcDbLine
 62
4
  6
CONTINUOUS
 10
10.5203653885
 20
11.9366495636
 11
10.5278653885
 21
11.9266495589
  0
LINE
  5
558
100
AcDbEntity
  8
03__ASM_ALL_CURVES
100
AcDbLine
 62
4
  6
CONTINUOUS
 10
11.7490191385
 20
10.3349685618
 11
11.7619393885
 21
10.3177415612
  0
LINE
  5
559
100
AcDbEntity
  8
03__ASM_ALL_CURVES
100
AcDbLine
 62
4
  6
CONTINUOUS
 10
12.3907248885
 20
8.7616495612
 11
12.3821113885
 21
8.7846188973
  0
LINE
  5
55A
100
AcDbEntity
  8
03__ASM_ALL_CURVES
100
AcDbLine
 62
4
  6
CONTINUOUS
 10
11.8394608885
 20
10.3407108953
 11
11.8308473885
 21
10.3636802293
  0
LINE
  5
55B
100
AcDbEntity
  8
03__ASM_ALL_CURVES
100
AcDbLine
 62
4
  6
CONTINUOUS
 10
12.9419888885
 20
7.4337108953
 11
12.9333753885
 21
7.4566802293
  0
LINE
  5
55C
100
AcDbEntity
  8
03__ASM_ALL_CURVES
100
AcDbLine
 62
4
  6
CONTINUOUS
 10
12.4424058885
 20
8.8075882252
 11
12.4510193885
 21
8.7846188973
  0
LINE
  5
55D
100
AcDbEntity
  8
03__ASM_ALL_CURVES
100
AcDbLine
 62
4
  6
CONTINUOUS
 10
12.2615223885
 20
8.7501648932
 11
12.2701358885
 21
8.7157108953
  0
LINE
  5
55E
100
AcDbEntity
  8
03__ASM_ALL_CURVES
100
AcDbLine
 62
4
  6
CONTINUOUS
 10
12.2615223885
 20
13.2731342252
 11
12.2615223885
 21
13.2501648932
  0
LINE
  5
55F
100
AcDbEntity
  8
03__ASM_ALL_CURVES
100
AcDbLine
 62
4
  6
CONTINUOUS
 10
12.2615223885
 20
13.0868842252
 11
12.2615223885
 21
13.0639148932
  0
LINE
  5
560
100
AcDbEntity
  8
03__ASM_ALL_CURVES
100
AcDbLine
 62
4
  6
CONTINUOUS
 10
12.2615223885
 20
8.7731342252
 11
12.2615223885
 21
8.7501648932
  0
LINE
  5
561
100
AcDbEntity
  8
03__ASM_ALL_CURVES
100
AcDbLine
 62
4
  6
CONTINUOUS
 10
12.2615223885
 20
7.4911342252
 11
12.2615223885
 21
7.4681648932
  0
LINE
  5
562
100
AcDbEntity
  8
03__ASM_ALL_CURVES
100
AcDbLine
 62
4
  6
CONTINUOUS
 10
12.2787493885
 20
12.9555575612
 11
12.2787493885
 21
12.8177415612
  0
LINE
  5
563
100
AcDbEntity
  8
03__ASM_ALL_CURVES
100
AcDbLine
 62
4
  6
CONTINUOUS
 10
12.3821113885
 20
10.3636802293
 11
12.3821113885
 21
10.4096188973
  0
LINE
  5
564
100
AcDbEntity
  8
03__ASM_ALL_CURVES
100
AcDbLine
 62
4
  6
CONTINUOUS
 10
12.4165653885
 20
13.3305575612
 11
12.4165653885
 21
13.1927415612
  0
LINE
  5
565
100
AcDbEntity
  8
03__ASM_ALL_CURVES
100
AcDbLine
 62
4
  6
CONTINUOUS
 10
12.4165653885
 20
13.1443075612
 11
12.4165653885
 21
13.0064915612
  0
LINE
  5
566
100
AcDbEntity
  8
03__ASM_ALL_CURVES
100
AcDbLine
 62
4
  6
CONTINUOUS
 10
12.4165653885
 20
12.9555575612
 11
12.4165653885
 21
12.8177415612
  0
LINE
  5
567
100
AcDbEntity
  8
03__ASM_ALL_CURVES
100
AcDbLine
 62
4
  6
CONTINUOUS
 10
12.4510193885
 20
10.4096188973
 11
12.4510193885
 21
10.3636802293
  0
LINE
  5
568
100
AcDbEntity
  8
03__ASM_ALL_CURVES
100
AcDbLine
 62
4
  6
CONTINUOUS
 10
12.4510193885
 20
8.7846188973
 11
12.4510193885
 21
8.7386802293
  0
LINE
  5
569
100
AcDbEntity
  8
03__ASM_ALL_CURVES
100
AcDbLine
 62
4
  6
CONTINUOUS
 10
12.4510193885
 20
7.5255882252
 11
12.4510193885
 21
7.5026188973
  0
LINE
  5
56A
100
AcDbEntity
  8
03__ASM_ALL_CURVES
100
AcDbLine
 62
4
  6
CONTINUOUS
 10
13.1056453885
 20
13.0064915612
 11
13.1142588885
 21
13.0639148932
  0
LINE
  5
56B
100
AcDbEntity
  8
03__ASM_ALL_CURVES
100
AcDbLine
 62
4
  6
CONTINUOUS
 10
13.2606883885
 20
13.2501648932
 11
13.2520748885
 21
13.2157108953
  0
LINE
  5
56C
100
AcDbEntity
  8
03__ASM_ALL_CURVES
100
AcDbLine
 62
4
  6
CONTINUOUS
 10
13.2606883885
 20
13.0639148932
 11
13.2520748885
 21
13.0294608953
  0
LINE
  5
56D
100
AcDbEntity
  8
03__ASM_ALL_CURVES
100
AcDbLine
 62
4
  6
CONTINUOUS
 10
12.2701358885
 20
8.8075882252
 11
12.2615223885
 21
8.7731342252
  0
LINE
  5
56E
100
AcDbEntity
  8
03__ASM_ALL_CURVES
100
AcDbLine
 62
4
  6
CONTINUOUS
 10
13.5104798885
 20
13.1213382252
 11
13.5018663885
 21
13.0868842252
  0
LINE
  5
56F
100
AcDbEntity
  8
03__ASM_ALL_CURVES
100
AcDbLine
 62
4
  6
CONTINUOUS
 10
12.8472403885
 20
10.3751648932
 11
12.8386268885
 21
10.3407108953
  0
LINE
  5
570
100
AcDbEntity
  8
03__ASM_ALL_CURVES
100
AcDbLine
 62
4
  6
CONTINUOUS
 10
11.8308473885
 20
7.5026188973
 11
11.8394608885
 21
7.5255882252
  0
LINE
  5
571
100
AcDbEntity
  8
03__ASM_ALL_CURVES
100
AcDbLine
 62
4
  6
CONTINUOUS
 10
11.8997553885
 20
7.5026188973
 11
11.8911418885
 21
7.4796495612
  0
LINE
  5
572
100
AcDbEntity
  8
03__ASM_ALL_CURVES
100
AcDbLine
 62
4
  6
CONTINUOUS
 10
12.3821113885
 20
8.7846188973
 11
12.3907248885
 21
8.8075882252
  0
LINE
  5
573
100
AcDbEntity
  8
03__ASM_ALL_CURVES
100
AcDbLine
 62
4
  6
CONTINUOUS
 10
11.8997553885
 20
7.4566802293
 11
11.8911418885
 21
7.4337108953
  0
LINE
  5
574
100
AcDbEntity
  8
03__ASM_ALL_CURVES
100
AcDbLine
 62
4
  6
CONTINUOUS
 10
11.9686633885
 20
7.5026188973
 11
11.9772768885
 21
7.5255882252
  0
LINE
  5
575
100
AcDbEntity
  8
03__ASM_ALL_CURVES
100
AcDbLine
 62
4
  6
CONTINUOUS
 10
12.4510193885
 20
8.7846188973
 11
12.4424058885
 21
8.7616495612
  0
LINE
  5
576
100
AcDbEntity
  8
03__ASM_ALL_CURVES
100
AcDbLine
 62
4
  6
CONTINUOUS
 10
12.4510193885
 20
8.7386802293
 11
12.4424058885
 21
8.7157108953
  0
LINE
  5
577
100
AcDbEntity
  8
03__ASM_ALL_CURVES
100
AcDbLine
 62
4
  6
CONTINUOUS
 10
12.0375713885
 20
7.4566802293
 11
12.0289578885
 21
7.4337108953
  0
LINE
  5
578
100
AcDbEntity
  8
03__ASM_ALL_CURVES
100
AcDbLine
 62
4
  6
CONTINUOUS
 10
12.3907248885
 20
8.8075882252
 11
12.3993383885
 21
8.8190728973
  0
LINE
  5
579
100
AcDbEntity
  8
03__ASM_ALL_CURVES
100
AcDbLine
 62
4
  6
CONTINUOUS
 10
12.4424058885
 20
8.7157108953
 11
12.4337923885
 21
8.7042262283
  0
LINE
  5
57A
100
AcDbEntity
  8
03__ASM_ALL_CURVES
100
AcDbLine
 62
4
  6
CONTINUOUS
 10
11.5638288885
 20
7.5255882252
 11
11.5724423885
 21
7.5370728973
  0
LINE
  5
57B
100
AcDbEntity
  8
03__ASM_ALL_CURVES
100
AcDbLine
 62
4
  6
CONTINUOUS
 10
11.6155098885
 20
7.4337108953
 11
11.6068963885
 21
7.4222262283
  0
LINE
  5
57C
100
AcDbEntity
  8
03__ASM_ALL_CURVES
100
AcDbLine
 62
4
  6
CONTINUOUS
 10
12.7266513885
 20
8.7961035612
 11
12.7180378885
 21
8.7846188973
  0
LINE
  5
57D
100
AcDbEntity
  8
03__ASM_ALL_CURVES
100
AcDbLine
 62
4
  6
CONTINUOUS
 10
12.7352648885
 20
8.7271955612
 11
12.7180378885
 21
8.7042262283
  0
LINE
  5
57E
100
AcDbEntity
  8
03__ASM_ALL_CURVES
100
AcDbLine
 62
4
  6
CONTINUOUS
 10
11.8394608885
 20
7.5255882252
 11
11.8480743885
 21
7.5370728973
  0
LINE
  5
57F
100
AcDbEntity
  8
03__ASM_ALL_CURVES
100
AcDbLine
 62
4
  6
CONTINUOUS
 10
12.8041728885
 20
8.8075882252
 11
12.8127863885
 21
8.8190728973
  0
LINE
  5
580
100
AcDbEntity
  8
03__ASM_ALL_CURVES
100
AcDbLine
 62
4
  6
CONTINUOUS
 10
9.2512887215
 20
6.0341070612
 11
9.2283193885
 21
6.0168800612
  0
LINE
  5
581
100
AcDbEntity
  8
03__ASM_ALL_CURVES
100
AcDbLine
 62
4
  6
CONTINUOUS
 10
9.1364420524
 20
5.9479720612
 11
9.1479267246
 21
5.9565855612
  0
LINE
  5
582
100
AcDbEntity
  8
03__ASM_ALL_CURVES
100
AcDbLine
 62
4
  6
CONTINUOUS
 10
9.1938653885
 20
5.9479720612
 11
9.2168347204
 21
5.9651990612
  0
LINE
  5
583
100
AcDbEntity
  8
03__ASM_ALL_CURVES
100
AcDbLine
 62
4
  6
CONTINUOUS
 10
9.2512887215
 20
5.8962910612
 11
9.2398040545
 21
5.8876775612
  0
LINE
  5
584
100
AcDbEntity
  8
03__ASM_ALL_CURVES
100
AcDbLine
 62
4
  6
CONTINUOUS
 10
9.2398040545
 20
5.7757020612
 11
9.2627733885
 21
5.7929290612
  0
LINE
  5
585
100
AcDbEntity
  8
03__ASM_ALL_CURVES
100
AcDbLine
 62
4
  6
CONTINUOUS
 10
11.5724423885
 20
7.5370728973
 11
11.5896693885
 21
7.5485575612
  0
LINE
  5
586
100
AcDbEntity
  8
03__ASM_ALL_CURVES
100
AcDbLine
 62
4
  6
CONTINUOUS
 10
11.6068963885
 20
7.4222262283
 11
11.5896693885
 21
7.4107415612
  0
LINE
  5
587
100
AcDbEntity
  8
03__ASM_ALL_CURVES
100
AcDbLine
 62
4
  6
CONTINUOUS
 10
11.8480743885
 20
7.5370728973
 11
11.8653013885
 21
7.5485575612
  0
LINE
  5
588
100
AcDbEntity
  8
03__ASM_ALL_CURVES
100
AcDbLine
 62
4
  6
CONTINUOUS
 10
11.8911418885
 20
7.4796495612
 11
11.8653013885
 21
7.4681648932
  0
LINE
  5
589
100
AcDbEntity
  8
03__ASM_ALL_CURVES
100
AcDbLine
 62
4
  6
CONTINUOUS
 10
9.1479267246
 20
6.4992360612
 11
9.1708960524
 21
6.5078495612
  0
LINE
  5
58A
100
AcDbEntity
  8
03__ASM_ALL_CURVES
100
AcDbLine
 62
4
  6
CONTINUOUS
 10
6.6479267246
 20
5.5345240612
 11
6.6708960524
 21
5.5431375612
  0
LINE
  5
58B
100
AcDbEntity
  8
03__ASM_ALL_CURVES
100
AcDbLine
 62
4
  6
CONTINUOUS
 10
8.1938653885
 20
6.0857880612
 11
8.2168347204
 21
6.0944015612
  0
LINE
  5
58C
100
AcDbEntity
  8
03__ASM_ALL_CURVES
100
AcDbLine
 62
4
  6
CONTINUOUS
 10
9.1938653885
 20
6.4475550612
 11
9.1708960524
 21
6.4389415612
  0
LINE
  5
58D
100
AcDbEntity
  8
03__ASM_ALL_CURVES
100
AcDbLine
 62
4
  6
CONTINUOUS
 10
6.7398040545
 20
5.4828430612
 11
6.7168347204
 21
5.4742295612
  0
LINE
  5
58E
100
AcDbEntity
  8
03__ASM_ALL_CURVES
100
AcDbLine
 62
4
  6
CONTINUOUS
 10
8.2398040545
 20
6.0341070612
 11
8.2168347204
 21
6.0254935612
  0
LINE
  5
58F
100
AcDbEntity
  8
03__ASM_ALL_CURVES
100
AcDbLine
 62
4
  6
CONTINUOUS
 10
9.1479267246
 20
6.3614200612
 11
9.1708960524
 21
6.3700335612
  0
LINE
  5
590
100
AcDbEntity
  8
03__ASM_ALL_CURVES
100
AcDbLine
 62
4
  6
CONTINUOUS
 10
9.1438653885
 20
11.2866495612
 11
9.0838653885
 21
11.2866495612
  0
LINE
  5
591
100
AcDbEntity
  8
03__ASM_ALL_CURVES
100
AcDbLine
 62
4
  6
CONTINUOUS
 10
8.9938653885
 20
11.2866495612
 11
8.9638653885
 21
11.2866495612
  0
LINE
  5
592
100
AcDbEntity
  8
03__ASM_ALL_CURVES
100
AcDbLine
 62
4
  6
CONTINUOUS
 10
8.8813653885
 20
11.2866495612
 11
8.8663653885
 21
11.2866495612
  0
LINE
  5
593
100
AcDbEntity
  8
03__ASM_ALL_CURVES
100
AcDbLine
 62
4
  6
CONTINUOUS
 10
8.7613653885
 20
11.2866495612
 11
8.7463653885
 21
11.2866495612
  0
LINE
  5
594
100
AcDbEntity
  8
03__ASM_ALL_CURVES
100
AcDbLine
 62
4
  6
CONTINUOUS
 10
8.6638653885
 20
11.2866495612
 11
8.6038653885
 21
11.2866495612
  0
LINE
  5
595
100
AcDbEntity
  8
03__ASM_ALL_CURVES
100
AcDbLine
 62
4
  6
CONTINUOUS
 10
8.2738653885
 20
11.2866495612
 11
8.2438653885
 21
11.2866495612
  0
LINE
  5
596
100
AcDbEntity
  8
03__ASM_ALL_CURVES
100
AcDbLine
 62
4
  6
CONTINUOUS
 10
8.3713653885
 20
11.3266495624
 11
8.4163653885
 21
11.3266495624
  0
LINE
  5
597
100
AcDbEntity
  8
03__ASM_ALL_CURVES
100
AcDbLine
 62
4
  6
CONTINUOUS
 10
8.6038653885
 20
11.3466495612
 11
8.6413653885
 21
11.3466495612
  0
LINE
  5
598
100
AcDbEntity
  8
03__ASM_ALL_CURVES
100
AcDbLine
 62
4
  6
CONTINUOUS
 10
9.0838653885
 20
11.3466495612
 11
9.1213653885
 21
11.3466495612
  0
LINE
  5
599
100
AcDbEntity
  8
03__ASM_ALL_CURVES
100
AcDbLine
 62
4
  6
CONTINUOUS
 10
8.2438653885
 20
11.4066495612
 11
8.2738653885
 21
11.4066495612
  0
LINE
  5
59A
100
AcDbEntity
  8
03__ASM_ALL_CURVES
100
AcDbLine
 62
4
  6
CONTINUOUS
 10
8.4763653885
 20
11.4066495612
 11
8.5513653885
 21
11.4066495612
  0
LINE
  5
59B
100
AcDbEntity
  8
03__ASM_ALL_CURVES
100
AcDbLine
 62
4
  6
CONTINUOUS
 10
8.6038653885
 20
11.4066495612
 11
8.6638653885
 21
11.4066495612
  0
LINE
  5
59C
100
AcDbEntity
  8
03__ASM_ALL_CURVES
100
AcDbLine
 62
4
  6
CONTINUOUS
 10
8.7463653885
 20
11.4066495612
 11
8.7613653885
 21
11.4066495612
  0
LINE
  5
59D
100
AcDbEntity
  8
03__ASM_ALL_CURVES
100
AcDbLine
 62
4
  6
CONTINUOUS
 10
8.8663653885
 20
11.4066495612
 11
8.8813653885
 21
11.4066495612
  0
LINE
  5
59E
100
AcDbEntity
  8
03__ASM_ALL_CURVES
100
AcDbLine
 62
4
  6
CONTINUOUS
 10
8.9638653885
 20
11.4066495612
 11
8.9938653885
 21
11.4066495612
  0
LINE
  5
59F
100
AcDbEntity
  8
03__ASM_ALL_CURVES
100
AcDbLine
 62
4
  6
CONTINUOUS
 10
9.0838653885
 20
11.4066495612
 11
9.1438653885
 21
11.4066495612
  0
LINE
  5
5A0
100
AcDbEntity
  8
03__ASM_ALL_CURVES
100
AcDbLine
 62
4
  6
CONTINUOUS
 10
11.8653013885
 20
10.4555575612
 11
11.8825283885
 21
10.4440728973
  0
LINE
  5
5A1
100
AcDbEntity
  8
03__ASM_ALL_CURVES
100
AcDbLine
 62
4
  6
CONTINUOUS
 10
12.2701358885
 20
10.3177415612
 11
12.2529088885
 21
10.3292262283
  0
LINE
  5
5A2
100
AcDbEntity
  8
03__ASM_ALL_CURVES
100
AcDbLine
 62
4
  6
CONTINUOUS
 10
12.4165653885
 20
10.3177415612
 11
12.3993383885
 21
10.3292262283
  0
LINE
  5
5A3
100
AcDbEntity
  8
03__ASM_ALL_CURVES
100
AcDbLine
 62
4
  6
CONTINUOUS
 10
12.2873628885
 20
10.4096188973
 11
12.3045898885
 21
10.3981342252
  0
LINE
  5
5A4
100
AcDbEntity
  8
03__ASM_ALL_CURVES
100
AcDbLine
 62
4
  6
CONTINUOUS
 10
12.4165653885
 20
10.4555575612
 11
12.4337923885
 21
10.4440728973
  0
LINE
  5
5A5
100
AcDbEntity
  8
03__ASM_ALL_CURVES
100
AcDbLine
 62
4
  6
CONTINUOUS
 10
12.9592158885
 20
8.8305575612
 11
12.9764428885
 21
8.8075882252
  0
LINE
  5
5A6
100
AcDbEntity
  8
03__ASM_ALL_CURVES
100
AcDbLine
 62
4
  6
CONTINUOUS
 10
11.8480743885
 20
10.3292262283
 11
11.8394608885
 21
10.3407108953
  0
LINE
  5
5A7
100
AcDbEntity
  8
03__ASM_ALL_CURVES
100
AcDbLine
 62
4
  6
CONTINUOUS
 10
11.8825283885
 20
10.4440728973
 11
11.8911418885
 21
10.4325882252
  0
LINE
  5
5A8
100
AcDbEntity
  8
03__ASM_ALL_CURVES
100
AcDbLine
 62
4
  6
CONTINUOUS
 10
12.1323198885
 20
10.3407108953
 11
12.1495468885
 21
10.3177415612
  0
LINE
  5
5A9
100
AcDbEntity
  8
03__ASM_ALL_CURVES
100
AcDbLine
 62
4
  6
CONTINUOUS
 10
12.2529088885
 20
10.3292262283
 11
12.2442953885
 21
10.3407108953
  0
LINE
  5
5AA
100
AcDbEntity
  8
03__ASM_ALL_CURVES
100
AcDbLine
 62
4
  6
CONTINUOUS
 10
12.9936698885
 20
7.4796495612
 11
13.0022833885
 21
7.4566802293
  0
LINE
  5
5AB
100
AcDbEntity
  8
03__ASM_ALL_CURVES
100
AcDbLine
 62
4
  6
CONTINUOUS
 10
11.8911418885
 20
10.4325882252
 11
11.8997553885
 21
10.4096188973
  0
LINE
  5
5AC
100
AcDbEntity
  8
03__ASM_ALL_CURVES
100
AcDbLine
 62
4
  6
CONTINUOUS
 10
12.8041728885
 20
8.7616495612
 11
12.7955593885
 21
8.7846188973
  0
LINE
  5
5AD
100
AcDbEntity
  8
03__ASM_ALL_CURVES
100
AcDbLine
 62
4
  6
CONTINUOUS
 10
12.1237063885
 20
10.3751648932
 11
12.1323198885
 21
10.3407108953
  0
LINE
  5
5AE
100
AcDbEntity
  8
03__ASM_ALL_CURVES
100
AcDbLine
 62
4
  6
CONTINUOUS
 10
12.5759151385
 20
8.6927415612
 11
12.5759151385
 21
8.7099685618
  0
LINE
  5
5AF
100
AcDbEntity
  8
03__ASM_ALL_CURVES
100
AcDbLine
 62
4
  6
CONTINUOUS
 10
12.5759151385
 20
10.3177415612
 11
12.5759151385
 21
10.3349685618
  0
LINE
  5
5B0
100
AcDbEntity
  8
03__ASM_ALL_CURVES
100
AcDbLine
 62
4
  6
CONTINUOUS
 10
12.5802218885
 20
12.8177415612
 11
12.5802218885
 21
12.9555575612
  0
LINE
  5
5B1
100
AcDbEntity
  8
03__ASM_ALL_CURVES
100
AcDbLine
 62
4
  6
CONTINUOUS
 10
12.5888353885
 20
13.3075882252
 11
12.5888353885
 21
13.2846188973
  0
LINE
  5
5B2
100
AcDbEntity
  8
03__ASM_ALL_CURVES
100
AcDbLine
 62
4
  6
CONTINUOUS
 10
12.5888353885
 20
13.1213382252
 11
12.5888353885
 21
13.0983688973
  0
LINE
  5
5B3
100
AcDbEntity
  8
03__ASM_ALL_CURVES
100
AcDbLine
 62
4
  6
CONTINUOUS
 10
12.5888353885
 20
7.5255882252
 11
12.5888353885
 21
7.5026188973
  0
LINE
  5
5B4
100
AcDbEntity
  8
03__ASM_ALL_CURVES
100
AcDbLine
 62
4
  6
CONTINUOUS
 10
12.6491298885
 20
10.3521955612
 11
12.6491298885
 21
10.3636802293
  0
LINE
  5
5B5
100
AcDbEntity
  8
03__ASM_ALL_CURVES
100
AcDbLine
 62
4
  6
CONTINUOUS
 10
12.6577433885
 20
10.4211035612
 11
12.6577433885
 21
10.4325882252
  0
LINE
  5
5B6
100
AcDbEntity
  8
03__ASM_ALL_CURVES
100
AcDbLine
 62
4
  6
CONTINUOUS
 10
12.7137311385
 20
7.4107415612
 11
12.7137311385
 21
7.4279685618
  0
LINE
  5
5B7
100
AcDbEntity
  8
03__ASM_ALL_CURVES
100
AcDbLine
 62
4
  6
CONTINUOUS
 10
12.7137311385
 20
12.8177415612
 11
12.7137311385
 21
12.8349685618
  0
LINE
  5
5B8
100
AcDbEntity
  8
03__ASM_ALL_CURVES
100
AcDbLine
 62
4
  6
CONTINUOUS
 10
12.7266513885
 20
13.3075882252
 11
12.7266513885
 21
13.2961035612
  0
LINE
  5
5B9
100
AcDbEntity
  8
03__ASM_ALL_CURVES
100
AcDbLine
 62
4
  6
CONTINUOUS
 10
12.7266513885
 20
13.1213382252
 11
12.7266513885
 21
13.0983688973
  0
LINE
  5
5BA
100
AcDbEntity
  8
03__ASM_ALL_CURVES
100
AcDbLine
 62
4
  6
CONTINUOUS
 10
12.7266513885
 20
10.4325882252
 11
12.7266513885
 21
10.4211035612
  0
LINE
  5
5BB
100
AcDbEntity
  8
03__ASM_ALL_CURVES
100
AcDbLine
 62
4
  6
CONTINUOUS
 10
12.7266513885
 20
8.8075882252
 11
12.7266513885
 21
8.7961035612
  0
LINE
  5
5BC
100
AcDbEntity
  8
03__ASM_ALL_CURVES
100
AcDbLine
 62
4
  6
CONTINUOUS
 10
12.7352648885
 20
13.2386802293
 11
12.7352648885
 21
13.2271955612
  0
LINE
  5
5BD
100
AcDbEntity
  8
03__ASM_ALL_CURVES
100
AcDbLine
 62
4
  6
CONTINUOUS
 10
12.7352648885
 20
10.3636802293
 11
12.7352648885
 21
10.3521955612
  0
LINE
  5
5BE
100
AcDbEntity
  8
03__ASM_ALL_CURVES
100
AcDbLine
 62
4
  6
CONTINUOUS
 10
12.7352648885
 20
8.7386802293
 11
12.7352648885
 21
8.7271955612
  0
LINE
  5
5BF
100
AcDbEntity
  8
03__ASM_ALL_CURVES
100
AcDbLine
 62
4
  6
CONTINUOUS
 10
12.7869458885
 20
7.4451955612
 11
12.7869458885
 21
7.4566802293
  0
LINE
  5
5C0
100
AcDbEntity
  8
03__ASM_ALL_CURVES
100
AcDbLine
 62
4
  6
CONTINUOUS
 10
12.7955593885
 20
7.5141035612
 11
12.7955593885
 21
7.5255882252
  0
LINE
  5
5C1
100
AcDbEntity
  8
03__ASM_ALL_CURVES
100
AcDbLine
 62
4
  6
CONTINUOUS
 10
12.8472403885
 20
10.3981342252
 11
12.8472403885
 21
10.3751648932
  0
LINE
  5
5C2
100
AcDbEntity
  8
03__ASM_ALL_CURVES
100
AcDbLine
 62
4
  6
CONTINUOUS
 10
12.8515471385
 20
13.0064915612
 11
12.8515471385
 21
13.0237185618
  0
LINE
  5
5C3
100
AcDbEntity
  8
03__ASM_ALL_CURVES
100
AcDbLine
 62
4
  6
CONTINUOUS
 10
12.8515471385
 20
13.1927415612
 11
12.8515471385
 21
13.2099685618
  0
LINE
  5
5C4
100
AcDbEntity
  8
03__ASM_ALL_CURVES
100
AcDbLine
 62
4
  6
CONTINUOUS
 10
12.8644673885
 20
12.9325882252
 11
12.8644673885
 21
12.9211035612
  0
LINE
  5
5C5
100
AcDbEntity
  8
03__ASM_ALL_CURVES
100
AcDbLine
 62
4
  6
CONTINUOUS
 10
12.8644673885
 20
8.7846188973
 11
12.8644673885
 21
8.7386802293
  0
LINE
  5
5C6
100
AcDbEntity
  8
03__ASM_ALL_CURVES
100
AcDbLine
 62
4
  6
CONTINUOUS
 10
12.8644673885
 20
7.5255882252
 11
12.8644673885
 21
7.5141035612
  0
LINE
  5
5C7
100
AcDbEntity
  8
03__ASM_ALL_CURVES
100
AcDbLine
 62
4
  6
CONTINUOUS
 10
12.8730808885
 20
12.8636802293
 11
12.8730808885
 21
12.8521955612
  0
LINE
  5
5C8
100
AcDbEntity
  8
03__ASM_ALL_CURVES
100
AcDbLine
 62
4
  6
CONTINUOUS
 10
12.8730808885
 20
7.4566802293
 11
12.8730808885
 21
7.4451955612
  0
LINE
  5
5C9
100
AcDbEntity
  8
03__ASM_ALL_CURVES
100
AcDbLine
 62
4
  6
CONTINUOUS
 10
12.2701358885
 20
7.5255882252
 11
12.2615223885
 21
7.4911342252
  0
LINE
  5
5CA
100
AcDbEntity
  8
03__ASM_ALL_CURVES
100
AcDbLine
 62
4
  6
CONTINUOUS
 10
12.3907248885
 20
7.4451955612
 11
12.3821113885
 21
7.4107415612
  0
LINE
  5
5CB
100
AcDbEntity
  8
03__ASM_ALL_CURVES
100
AcDbLine
 62
4
  6
CONTINUOUS
 10
12.5285408885
 20
7.4451955612
 11
12.5199273885
 21
7.4107415612
  0
LINE
  5
5CC
100
AcDbEntity
  8
03__ASM_ALL_CURVES
100
AcDbLine
 62
4
  6
CONTINUOUS
 10
13.9497683885
 20
13.0639148932
 11
13.9411548885
 21
13.0294608953
  0
LINE
  5
5CD
100
AcDbEntity
  8
03__ASM_ALL_CURVES
100
AcDbLine
 62
4
  6
CONTINUOUS
 10
12.7955593885
 20
8.7846188973
 11
12.8041728885
 21
8.8075882252
  0
LINE
  5
5CE
100
AcDbEntity
  8
03__ASM_ALL_CURVES
100
AcDbLine
 62
4
  6
CONTINUOUS
 10
12.8644673885
 20
8.7846188973
 11
12.8558538885
 21
8.7616495612
  0
LINE
  5
5CF
100
AcDbEntity
  8
03__ASM_ALL_CURVES
100
AcDbLine
 62
4
  6
CONTINUOUS
 10
12.8644673885
 20
8.7386802293
 11
12.8558538885
 21
8.7157108953
  0
LINE
  5
5D0
100
AcDbEntity
  8
03__ASM_ALL_CURVES
100
AcDbLine
 62
4
  6
CONTINUOUS
 10
11.8911418885
 20
7.4337108953
 11
11.8825283885
 21
7.4222262283
  0
LINE
  5
5D1
100
AcDbEntity
  8
03__ASM_ALL_CURVES
100
AcDbLine
 62
4
  6
CONTINUOUS
 10
12.8558538885
 20
8.7157108953
 11
12.8472403885
 21
8.7042262283
  0
LINE
  5
5D2
100
AcDbEntity
  8
03__ASM_ALL_CURVES
100
AcDbLine
 62
4
  6
CONTINUOUS
 10
11.9772768885
 20
7.5255882252
 11
11.9858903885
 21
7.5370728973
  0
LINE
  5
5D3
100
AcDbEntity
  8
03__ASM_ALL_CURVES
100
AcDbLine
 62
4
  6
CONTINUOUS
 10
12.9764428885
 20
8.7157108953
 11
12.9592158885
 21
8.6927415612
  0
LINE
  5
5D4
100
AcDbEntity
  8
03__ASM_ALL_CURVES
100
AcDbLine
 62
4
  6
CONTINUOUS
 10
12.0289578885
 20
7.4337108953
 11
12.0203443885
 21
7.4222262283
  0
LINE
  5
5D5
100
AcDbEntity
  8
03__ASM_ALL_CURVES
100
AcDbLine
 62
4
  6
CONTINUOUS
 10
12.2873628885
 20
7.5485575612
 11
12.2701358885
 21
7.5255882252
  0
LINE
  5
5D6
100
AcDbEntity
  8
03__ASM_ALL_CURVES
100
AcDbLine
 62
4
  6
CONTINUOUS
 10
9.1823807246
 20
5.5345240612
 11
9.1938653885
 21
5.5431375612
  0
LINE
  5
5D7
100
AcDbEntity
  8
03__ASM_ALL_CURVES
100
AcDbLine
 62
4
  6
CONTINUOUS
 10
9.2512887215
 20
5.4828430612
 11
9.2398040545
 21
5.4742295612
  0
LINE
  5
5D8
100
AcDbEntity
  8
03__ASM_ALL_CURVES
100
AcDbLine
 62
4
  6
CONTINUOUS
 10
9.245546388
 20
5.3924013112
 11
9.2627733885
 21
5.4053215612
  0
LINE
  5
5D9
100
AcDbEntity
  8
03__ASM_ALL_CURVES
100
AcDbLine
 62
4
  6
CONTINUOUS
 10
11.9858903885
 20
7.5370728973
 11
12.0031173885
 21
7.5485575612
  0
LINE
  5
5DA
100
AcDbEntity
  8
03__ASM_ALL_CURVES
100
AcDbLine
 62
4
  6
CONTINUOUS
 10
11.8825283885
 20
7.4222262283
 11
11.8653013885
 21
7.4107415612
  0
LINE
  5
5DB
100
AcDbEntity
  8
03__ASM_ALL_CURVES
100
AcDbLine
 62
4
  6
CONTINUOUS
 10
12.0203443885
 20
7.4222262283
 11
12.0031173885
 21
7.4107415612
  0
LINE
  5
5DC
100
AcDbEntity
  8
03__ASM_ALL_CURVES
100
AcDbLine
 62
4
  6
CONTINUOUS
 10
12.3907248885
 20
7.5370728973
 11
12.4079518885
 21
7.5485575612
  0
LINE
  5
5DD
100
AcDbEntity
  8
03__ASM_ALL_CURVES
100
AcDbLine
 62
4
  6
CONTINUOUS
 10
12.4424058885
 20
7.4911342252
 11
12.4079518885
 21
7.4681648932
  0
LINE
  5
5DE
100
AcDbEntity
  8
03__ASM_ALL_CURVES
100
AcDbLine
 62
4
  6
CONTINUOUS
 10
12.5285408885
 20
7.5370728973
 11
12.5457678885
 21
7.5485575612
  0
LINE
  5
5DF
100
AcDbEntity
  8
03__ASM_ALL_CURVES
100
AcDbLine
 62
4
  6
CONTINUOUS
 10
9.2398040545
 20
6.3097390612
 11
9.2168347204
 21
6.3011255612
  0
LINE
  5
5E0
100
AcDbEntity
  8
03__ASM_ALL_CURVES
100
AcDbLine
 62
4
  6
CONTINUOUS
 10
8.1938653885
 20
5.6809535612
 11
8.2168347204
 21
5.6895670612
  0
LINE
  5
5E1
100
AcDbEntity
  8
03__ASM_ALL_CURVES
100
AcDbLine
 62
4
  6
CONTINUOUS
 10
8.7838653885
 20
11.5266495612
 11
8.8438653885
 21
11.5266495612
  0
LINE
  5
5E2
100
AcDbEntity
  8
0
100
AcDbLine
 62
7
  6
CONTINUOUS
 10
8.5538653885
 20
11.7666495612
 11
8.5138653885
 21
11.7666495612
  0
LINE
  5
5E3
100
AcDbEntity
  8
03__ASM_ALL_CURVES
100
AcDbLine
 62
4
  6
CONTINUOUS
 10
12.6835838885
 20
10.3177415612
 11
12.6663568885
 21
10.3292262283
  0
LINE
  5
5E4
100
AcDbEntity
  8
03__ASM_ALL_CURVES
100
AcDbLine
 62
4
  6
CONTINUOUS
 10
12.6835838885
 20
10.3981342252
 11
12.6663568885
 21
10.4096188973
  0
LINE
  5
5E5
100
AcDbEntity
  8
03__ASM_ALL_CURVES
100
AcDbLine
 62
4
  6
CONTINUOUS
 10
12.7008108885
 20
10.3981342252
 11
12.7180378885
 21
10.3866495612
  0
LINE
  5
5E6
100
AcDbEntity
  8
03__ASM_ALL_CURVES
100
AcDbLine
 62
4
  6
CONTINUOUS
 10
12.7008108885
 20
10.4555575612
 11
12.7180378885
 21
10.4440728973
  0
LINE
  5
5E7
100
AcDbEntity
  8
03__ASM_ALL_CURVES
100
AcDbLine
 62
4
  6
CONTINUOUS
 10
10.5053653885
 20
11.9466495612
 11
10.5203653885
 21
11.9366495636
  0
LINE
  5
5E8
100
AcDbEntity
  8
03__ASM_ALL_CURVES
100
AcDbLine
 62
4
  6
CONTINUOUS
 10
12.3045898885
 20
10.3981342252
 11
12.3132033885
 21
10.3866495612
  0
LINE
  5
5E9
100
AcDbEntity
  8
03__ASM_ALL_CURVES
100
AcDbLine
 62
4
  6
CONTINUOUS
 10
12.3993383885
 20
10.3292262283
 11
12.3907248885
 21
10.3407108953
  0
LINE
  5
5EA
100
AcDbEntity
  8
03__ASM_ALL_CURVES
100
AcDbLine
 62
4
  6
CONTINUOUS
 10
12.4337923885
 20
10.4440728973
 11
12.4424058885
 21
10.4325882252
  0
LINE
  5
5EB
100
AcDbEntity
  8
03__ASM_ALL_CURVES
100
AcDbLine
 62
4
  6
CONTINUOUS
 10
12.5759151385
 20
10.3349685618
 11
12.5888353885
 21
10.3177415612
  0
LINE
  5
5EC
100
AcDbEntity
  8
03__ASM_ALL_CURVES
100
AcDbLine
 62
4
  6
CONTINUOUS
 10
12.6663568885
 20
10.3292262283
 11
12.6491298885
 21
10.3521955612
  0
LINE
  5
5ED
100
AcDbEntity
  8
03__ASM_ALL_CURVES
100
AcDbLine
 62
4
  6
CONTINUOUS
 10
12.8558538885
 20
8.8075882252
 11
12.8644673885
 21
8.7846188973
  0
LINE
  5
5EE
100
AcDbEntity
  8
03__ASM_ALL_CURVES
100
AcDbLine
 62
4
  6
CONTINUOUS
 10
12.3132033885
 20
10.3866495612
 11
12.3218168885
 21
10.3636802293
  0
LINE
  5
5EF
100
AcDbEntity
  8
03__ASM_ALL_CURVES
100
AcDbLine
 62
4
  6
CONTINUOUS
 10
12.3907248885
 20
10.3407108953
 11
12.3821113885
 21
10.3636802293
  0
LINE
  5
5F0
100
AcDbEntity
  8
03__ASM_ALL_CURVES
100
AcDbLine
 62
4
  6
CONTINUOUS
 10
12.4424058885
 20
10.4325882252
 11
12.4510193885
 21
10.4096188973
  0
LINE
  5
5F1
100
AcDbEntity
  8
03__ASM_ALL_CURVES
100
AcDbLine
 62
4
  6
CONTINUOUS
 10
13.1142588885
 20
7.5255882252
 11
13.1228723885
 21
7.4911342252
  0
LINE
  5
5F2
100
AcDbEntity
  8
03__ASM_ALL_CURVES
100
AcDbLine
 62
4
  6
CONTINUOUS
 10
12.9764428885
 20
8.8075882252
 11
12.9850563885
 21
8.7731342252
  0
LINE
  5
5F3
100
AcDbEntity
  8
03__ASM_ALL_CURVES
100
AcDbLine
 62
4
  6
CONTINUOUS
 10
12.9333753885
 20
7.4566802293
 11
12.9333753885
 21
7.5026188973
  0
LINE
  5
5F4
100
AcDbEntity
  8
03__ASM_ALL_CURVES
100
AcDbLine
 62
4
  6
CONTINUOUS
 10
12.9333753885
 20
13.2386802293
 11
12.9333753885
 21
13.2846188973
  0
LINE
  5
5F5
100
AcDbEntity
  8
03__ASM_ALL_CURVES
100
AcDbLine
 62
4
  6
CONTINUOUS
 10
12.9678293885
 20
13.1443075612
 11
12.9678293885
 21
13.0064915612
  0
LINE
  5
5F6
100
AcDbEntity
  8
03__ASM_ALL_CURVES
100
AcDbLine
 62
4
  6
CONTINUOUS
 10
12.9850563885
 20
12.8981342252
 11
12.9850563885
 21
12.8751648932
  0
LINE
  5
5F7
100
AcDbEntity
  8
03__ASM_ALL_CURVES
100
AcDbLine
 62
4
  6
CONTINUOUS
 10
12.9850563885
 20
8.7731342252
 11
12.9850563885
 21
8.7501648932
  0
LINE
  5
5F8
100
AcDbEntity
  8
03__ASM_ALL_CURVES
100
AcDbLine
 62
4
  6
CONTINUOUS
 10
13.1228723885
 20
7.4911342252
 11
13.1228723885
 21
7.4681648932
  0
LINE
  5
5F9
100
AcDbEntity
  8
03__ASM_ALL_CURVES
100
AcDbLine
 62
4
  6
CONTINUOUS
 10
13.1400993885
 20
13.2846188973
 11
13.1400993885
 21
13.2386802293
  0
LINE
  5
5FA
100
AcDbEntity
  8
03__ASM_ALL_CURVES
100
AcDbLine
 62
4
  6
CONTINUOUS
 10
13.2606883885
 20
13.2731342252
 11
13.2606883885
 21
13.2501648932
  0
LINE
  5
5FB
100
AcDbEntity
  8
03__ASM_ALL_CURVES
100
AcDbLine
 62
4
  6
CONTINUOUS
 10
13.2606883885
 20
13.0868842252
 11
13.2606883885
 21
13.0639148932
  0
LINE
  5
5FC
100
AcDbEntity
  8
03__ASM_ALL_CURVES
100
AcDbLine
 62
4
  6
CONTINUOUS
 10
12.9850563885
 20
8.7501648932
 11
12.9764428885
 21
8.7157108953
  0
LINE
  5
5FD
100
AcDbEntity
  8
03__ASM_ALL_CURVES
100
AcDbLine
 62
4
  6
CONTINUOUS
 10
12.3821113885
 20
7.5255882252
 11
12.3907248885
 21
7.5370728973
  0
LINE
  5
5FE
100
AcDbEntity
  8
03__ASM_ALL_CURVES
100
AcDbLine
 62
4
  6
CONTINUOUS
 10
12.4079518885
 20
7.4681648932
 11
12.3907248885
 21
7.4451955612
  0
LINE
  5
5FF
100
AcDbEntity
  8
03__ASM_ALL_CURVES
100
AcDbLine
 62
4
  6
CONTINUOUS
 10
12.4510193885
 20
7.5026188973
 11
12.4424058885
 21
7.4911342252
  0
LINE
  5
600
100
AcDbEntity
  8
03__ASM_ALL_CURVES
100
AcDbLine
 62
4
  6
CONTINUOUS
 10
12.5199273885
 20
7.5255882252
 11
12.5285408885
 21
7.5370728973
  0
LINE
  5
601
100
AcDbEntity
  8
03__ASM_ALL_CURVES
100
AcDbLine
 62
4
  6
CONTINUOUS
 10
12.5457678885
 20
7.4681648932
 11
12.5285408885
 21
7.4451955612
  0
LINE
  5
602
100
AcDbEntity
  8
03__ASM_ALL_CURVES
100
AcDbLine
 62
4
  6
CONTINUOUS
 10
12.5888353885
 20
7.5026188973
 11
12.5802218885
 21
7.4911342252
  0
LINE
  5
603
100
AcDbEntity
  8
03__ASM_ALL_CURVES
100
AcDbLine
 62
4
  6
CONTINUOUS
 10
12.5802218885
 20
7.4911342252
 11
12.5457678885
 21
7.4681648932
  0
LINE
  5
604
100
AcDbEntity
  8
03__ASM_ALL_CURVES
100
AcDbLine
 62
4
  6
CONTINUOUS
 10
12.8041728885
 20
7.5370728973
 11
12.8213998885
 21
7.5485575612
  0
LINE
  5
605
100
AcDbEntity
  8
03__ASM_ALL_CURVES
100
AcDbLine
 62
4
  6
CONTINUOUS
 10
12.8041728885
 20
7.4796495612
 11
12.8213998885
 21
7.4911342252
  0
LINE
  5
606
100
AcDbEntity
  8
03__ASM_ALL_CURVES
100
AcDbLine
 62
4
  6
CONTINUOUS
 10
12.8558538885
 20
7.5026188973
 11
12.8386268885
 21
7.4911342252
  0
LINE
  5
607
100
AcDbEntity
  8
03__ASM_ALL_CURVES
100
AcDbLine
 62
4
  6
CONTINUOUS
 10
12.9506023885
 20
7.5370728973
 11
12.9678293885
 21
7.5485575612
  0
LINE
  5
608
100
AcDbEntity
  8
03__ASM_ALL_CURVES
100
AcDbLine
 62
4
  6
CONTINUOUS
 10
12.8558538885
 20
7.4222262283
 11
12.8386268885
 21
7.4107415612
  0
LINE
  5
609
100
AcDbEntity
  8
03__ASM_ALL_CURVES
100
AcDbLine
 62
4
  6
CONTINUOUS
 10
12.9850563885
 20
7.4222262283
 11
12.9678293885
 21
7.4107415612
  0
LINE
  5
60A
100
AcDbEntity
  8
03__ASM_ALL_CURVES
100
AcDbLine
 62
4
  6
CONTINUOUS
 10
12.9419888885
 20
7.4796495612
 11
12.9678293885
 21
7.4911342252
  0
LINE
  5
60B
100
AcDbEntity
  8
0
100
AcDbLine
 62
7
  6
CONTINUOUS
 10
9.2338653885
 20
11.8266495612
 11
9.1738653885
 21
11.8266495612
  0
LINE
  5
60C
100
AcDbEntity
  8
0
100
AcDbLine
 62
7
  6
CONTINUOUS
 10
8.8538653885
 20
11.8266495612
 11
8.7938653885
 21
11.8266495612
  0
LINE
  5
60D
100
AcDbEntity
  8
0
100
AcDbLine
 62
7
  6
CONTINUOUS
 10
8.6538653885
 20
11.8266495612
 11
8.5938653885
 21
11.8266495612
  0
LINE
  5
60E
100
AcDbEntity
  8
0
100
AcDbLine
 62
7
  6
CONTINUOUS
 10
8.5538653885
 20
11.8266495612
 11
8.4938653885
 21
11.8266495612
  0
LINE
  5
60F
100
AcDbEntity
  8
0
100
AcDbLine
 62
7
  6
CONTINUOUS
 10
8.1838653885
 20
11.8266495612
 11
8.1238653885
 21
11.8266495612
  0
LINE
  5
610
100
AcDbEntity
  8
0
100
AcDbLine
 62
7
  6
CONTINUOUS
 10
8.0938653885
 20
11.8266495612
 11
8.0338653885
 21
11.8266495612
  0
LINE
  5
611
100
AcDbEntity
  8
0
100
AcDbLine
 62
7
  6
CONTINUOUS
 10
8.8938653885
 20
11.8266495612
 11
8.9538653885
 21
11.8266495612
  0
LINE
  5
612
100
AcDbEntity
  8
0
100
AcDbLine
 62
7
  6
CONTINUOUS
 10
9.0738653885
 20
11.8266495612
 11
9.1338653885
 21
11.8266495612
  0
LINE
  5
613
100
AcDbEntity
  8
03__ASM_ALL_CURVES
100
AcDbLine
 62
4
  6
CONTINUOUS
 10
10.4678653885
 20
11.8266495612
 11
10.5278653885
 21
11.8266495612
  0
LINE
  5
614
100
AcDbEntity
  8
0
100
AcDbLine
 62
7
  6
CONTINUOUS
 10
9.1738653885
 20
11.8566495612
 11
9.2338653885
 21
11.8566495612
  0
LINE
  5
615
100
AcDbEntity
  8
0
100
AcDbLine
 62
7
  6
CONTINUOUS
 10
8.7938653885
 20
11.8666495612
 11
8.8538653885
 21
11.8666495612
  0
LINE
  5
616
100
AcDbEntity
  8
0
100
AcDbLine
 62
7
  6
CONTINUOUS
 10
8.8538653885
 20
11.8866495612
 11
8.8138653885
 21
11.8866495612
  0
LINE
  5
617
100
AcDbEntity
  8
0
100
AcDbLine
 62
7
  6
CONTINUOUS
 10
8.4538653885
 20
11.8866495612
 11
8.3938653885
 21
11.8866495612
  0
LINE
  5
618
100
AcDbEntity
  8
0
100
AcDbLine
 62
7
  6
CONTINUOUS
 10
8.0338653885
 20
11.8866495612
 11
8.0938653885
 21
11.8866495612
  0
LINE
  5
619
100
AcDbEntity
  8
0
100
AcDbLine
 62
7
  6
CONTINUOUS
 10
8.5938653885
 20
11.8866495612
 11
8.6538653885
 21
11.8866495612
  0
LINE
  5
61A
100
AcDbEntity
  8
0
100
AcDbLine
 62
7
  6
CONTINUOUS
 10
8.6938653885
 20
11.8866495612
 11
8.7538653885
 21
11.8866495612
  0
LINE
  5
61B
100
AcDbEntity
  8
0
100
AcDbLine
 62
7
  6
CONTINUOUS
 10
9.0738653885
 20
11.8866495612
 11
9.1338653885
 21
11.8866495612
  0
LINE
  5
61C
100
AcDbEntity
  8
0
100
AcDbLine
 62
7
  6
CONTINUOUS
 10
9.1738653885
 20
11.8866495612
 11
9.2338653885
 21
11.8866495612
  0
LINE
  5
61D
100
AcDbEntity
  8
0
100
AcDbLine
 62
7
  6
CONTINUOUS
 10
9.0263653885
 20
11.9166495612
 11
9.0413653885
 21
11.9166495612
  0
LINE
  5
61E
100
AcDbEntity
  8
0
100
AcDbLine
 62
7
  6
CONTINUOUS
 10
8.0938653885
 20
11.9466495612
 11
8.0338653885
 21
11.9466495612
  0
LINE
  5
61F
100
AcDbEntity
  8
0
100
AcDbLine
 62
7
  6
CONTINUOUS
 10
8.2138653885
 20
11.9466495612
 11
8.2738653885
 21
11.9466495612
  0
LINE
  5
620
100
AcDbEntity
  8
03__ASM_ALL_CURVES
100
AcDbLine
 62
4
  6
CONTINUOUS
 10
10.4903653885
 20
11.9466495612
 11
10.5053653885
 21
11.9466495612
  0
LINE
  5
621
100
AcDbEntity
  8
03__ASM_ALL_CURVES
100
AcDbLine
 62
4
  6
CONTINUOUS
 10
12.6663568885
 20
10.4096188973
 11
12.6577433885
 21
10.4211035612
  0
LINE
  5
622
100
AcDbEntity
  8
03__ASM_ALL_CURVES
100
AcDbLine
 62
4
  6
CONTINUOUS
 10
12.7180378885
 20
10.3866495612
 11
12.7352648885
 21
10.3636802293
  0
LINE
  5
623
100
AcDbEntity
  8
03__ASM_ALL_CURVES
100
AcDbLine
 62
4
  6
CONTINUOUS
 10
12.7180378885
 20
10.4440728973
 11
12.7266513885
 21
10.4325882252
  0
LINE
  5
624
100
AcDbEntity
  8
03__ASM_ALL_CURVES
100
AcDbLine
 62
4
  6
CONTINUOUS
 10
12.8213998885
 20
10.4555575612
 11
12.8386268885
 21
10.4325882252
  0
LINE
  5
625
100
AcDbEntity
  8
03__ASM_ALL_CURVES
100
AcDbLine
 62
4
  6
CONTINUOUS
 10
11.8997553885
 20
12.8866495612
 11
11.9083688885
 21
12.8636802293
  0
LINE
  5
626
100
AcDbEntity
  8
03__ASM_ALL_CURVES
100
AcDbLine
 62
4
  6
CONTINUOUS
 10
12.1237063885
 20
12.8751648932
 11
12.1323198885
 21
12.8407108953
  0
LINE
  5
627
100
AcDbEntity
  8
03__ASM_ALL_CURVES
100
AcDbLine
 62
4
  6
CONTINUOUS
 10
12.8386268885
 20
10.4325882252
 11
12.8472403885
 21
10.3981342252
  0
LINE
  5
628
100
AcDbEntity
  8
03__ASM_ALL_CURVES
100
AcDbLine
 62
4
  6
CONTINUOUS
 10
12.2615223885
 20
13.0639148932
 11
12.2701358885
 21
13.0294608953
  0
LINE
  5
629
100
AcDbEntity
  8
03__ASM_ALL_CURVES
100
AcDbLine
 62
4
  6
CONTINUOUS
 10
12.2615223885
 20
13.2501648932
 11
12.2701358885
 21
13.2157108953
  0
LINE
  5
62A
100
AcDbEntity
  8
03__ASM_ALL_CURVES
100
AcDbLine
 62
4
  6
CONTINUOUS
 10
13.5018663885
 20
13.0868842252
 11
13.5018663885
 21
13.0639148932
  0
LINE
  5
62B
100
AcDbEntity
  8
03__ASM_ALL_CURVES
100
AcDbLine
 62
4
  6
CONTINUOUS
 10
13.6224553885
 20
13.1443075612
 11
13.6224553885
 21
13.0064915612
  0
LINE
  5
62C
100
AcDbEntity
  8
03__ASM_ALL_CURVES
100
AcDbLine
 62
4
  6
CONTINUOUS
 10
13.1228723885
 20
7.4681648932
 11
13.1142588885
 21
7.4337108953
  0
LINE
  5
62D
100
AcDbEntity
  8
03__ASM_ALL_CURVES
100
AcDbLine
 62
4
  6
CONTINUOUS
 10
12.9333753885
 20
7.5026188973
 11
12.9419888885
 21
7.5255882252
  0
LINE
  5
62E
100
AcDbEntity
  8
03__ASM_ALL_CURVES
100
AcDbLine
 62
4
  6
CONTINUOUS
 10
12.9333753885
 20
7.4566802293
 11
12.9419888885
 21
7.4796495612
  0
LINE
  5
62F
100
AcDbEntity
  8
03__ASM_ALL_CURVES
100
AcDbLine
 62
4
  6
CONTINUOUS
 10
13.0022833885
 20
7.4566802293
 11
12.9936698885
 21
7.4337108953
  0
LINE
  5
630
100
AcDbEntity
  8
03__ASM_ALL_CURVES
100
AcDbLine
 62
4
  6
CONTINUOUS
 10
12.7955593885
 20
7.5255882252
 11
12.8041728885
 21
7.5370728973
  0
LINE
  5
631
100
AcDbEntity
  8
03__ASM_ALL_CURVES
100
AcDbLine
 62
4
  6
CONTINUOUS
 10
12.7869458885
 20
7.4566802293
 11
12.8041728885
 21
7.4796495612
  0
LINE
  5
632
100
AcDbEntity
  8
03__ASM_ALL_CURVES
100
AcDbLine
 62
4
  6
CONTINUOUS
 10
12.8644673885
 20
7.5141035612
 11
12.8558538885
 21
7.5026188973
  0
LINE
  5
633
100
AcDbEntity
  8
03__ASM_ALL_CURVES
100
AcDbLine
 62
4
  6
CONTINUOUS
 10
12.8730808885
 20
7.4451955612
 11
12.8558538885
 21
7.4222262283
  0
LINE
  5
634
100
AcDbEntity
  8
03__ASM_ALL_CURVES
100
AcDbLine
 62
4
  6
CONTINUOUS
 10
12.9419888885
 20
7.5255882252
 11
12.9506023885
 21
7.5370728973
  0
LINE
  5
635
100
AcDbEntity
  8
03__ASM_ALL_CURVES
100
AcDbLine
 62
4
  6
CONTINUOUS
 10
12.9936698885
 20
7.4337108953
 11
12.9850563885
 21
7.4222262283
  0
LINE
  5
636
100
AcDbEntity
  8
03__ASM_ALL_CURVES
100
AcDbLine
 62
4
  6
CONTINUOUS
 10
13.1142588885
 20
7.4337108953
 11
13.0970318885
 21
7.4107415612
  0
LINE
  5
637
100
AcDbEntity
  8
03__ASM_ALL_CURVES
100
AcDbLine
 62
4
  6
CONTINUOUS
 10
9.1938653885
 20
5.5431375612
 11
9.2168347204
 21
5.5517510612
  0
LINE
  5
638
100
AcDbEntity
  8
03__ASM_ALL_CURVES
100
AcDbLine
 62
4
  6
CONTINUOUS
 10
11.7490191385
 20
12.8349685618
 11
11.7619393885
 21
12.8177415612
  0
LINE
  5
639
100
AcDbEntity
  8
03__ASM_ALL_CURVES
100
AcDbLine
 62
4
  6
CONTINUOUS
 10
13.7602713885
 20
13.1213382252
 11
13.7602713885
 21
13.1098535612
  0
LINE
  5
63A
100
AcDbEntity
  8
03__ASM_ALL_CURVES
100
AcDbLine
 62
4
  6
CONTINUOUS
 10
13.8291793885
 20
13.0524302293
 11
13.8291793885
 21
13.0294608953
  0
LINE
  5
63B
100
AcDbEntity
  8
03__ASM_ALL_CURVES
100
AcDbLine
 62
4
  6
CONTINUOUS
 10
13.9497683885
 20
13.0868842252
 11
13.9497683885
 21
13.0639148932
  0
LINE
  5
63C
100
AcDbEntity
  8
03__ASM_ALL_CURVES
100
AcDbLine
 62
4
  6
CONTINUOUS
 10
12.8386268885
 20
12.8177415612
 11
12.8213998885
 21
12.8177415612
  0
LINE
  5
63D
100
AcDbEntity
  8
03__ASM_ALL_CURVES
100
AcDbLine
 62
4
  6
CONTINUOUS
 10
12.7266513885
 20
12.8177415612
 11
12.7137311385
 21
12.8177415612
  0
LINE
  5
63E
100
AcDbEntity
  8
03__ASM_ALL_CURVES
100
AcDbLine
 62
4
  6
CONTINUOUS
 10
11.8739148885
 20
12.8177415612
 11
11.8566878885
 21
12.8177415612
  0
LINE
  5
63F
100
AcDbEntity
  8
03__ASM_ALL_CURVES
100
AcDbLine
 62
4
  6
CONTINUOUS
 10
11.7619393885
 20
12.8177415612
 11
11.7490191385
 21
12.8177415612
  0
LINE
  5
640
100
AcDbEntity
  8
03__ASM_ALL_CURVES
100
AcDbLine
 62
4
  6
CONTINUOUS
 10
11.5552153885
 20
12.8521955612
 11
11.6327368885
 21
12.8521955612
  0
LINE
  5
641
100
AcDbEntity
  8
03__ASM_ALL_CURVES
100
AcDbLine
 62
4
  6
CONTINUOUS
 10
12.5199273885
 20
12.8521955612
 11
12.5974488885
 21
12.8521955612
  0
LINE
  5
642
100
AcDbEntity
  8
03__ASM_ALL_CURVES
100
AcDbLine
 62
4
  6
CONTINUOUS
 10
10.8316813885
 20
12.8866495612
 11
11.2451293885
 21
12.8866495612
  0
LINE
  5
643
100
AcDbEntity
  8
03__ASM_ALL_CURVES
100
AcDbLine
 62
4
  6
CONTINUOUS
 10
12.8213998885
 20
12.8981342252
 11
12.8386268885
 21
12.8981342252
  0
LINE
  5
644
100
AcDbEntity
  8
03__ASM_ALL_CURVES
100
AcDbLine
 62
4
  6
CONTINUOUS
 10
11.8566878885
 20
12.9096188973
 11
11.8739148885
 21
12.9096188973
  0
LINE
  5
645
100
AcDbEntity
  8
03__ASM_ALL_CURVES
100
AcDbLine
 62
4
  6
CONTINUOUS
 10
10.9694973885
 20
13.1996495612
 11
11.1073133885
 21
13.0753995612
  0
LINE
  5
646
100
AcDbEntity
  8
03__ASM_ALL_CURVES
100
AcDbLine
 62
4
  6
CONTINUOUS
 10
11.8394608885
 20
12.8292262283
 11
11.8308473885
 21
12.8407108953
  0
LINE
  5
647
100
AcDbEntity
  8
03__ASM_ALL_CURVES
100
AcDbLine
 62
4
  6
CONTINUOUS
 10
11.7490191385
 20
13.0237185618
 11
11.7619393885
 21
13.0064915612
  0
LINE
  5
648
100
AcDbEntity
  8
03__ASM_ALL_CURVES
100
AcDbLine
 62
4
  6
CONTINUOUS
 10
11.8911418885
 20
12.8981342252
 11
11.8997553885
 21
12.8866495612
  0
LINE
  5
649
100
AcDbEntity
  8
03__ASM_ALL_CURVES
100
AcDbLine
 62
4
  6
CONTINUOUS
 10
11.8394608885
 20
13.0179762283
 11
11.8222338885
 21
13.0409455612
  0
LINE
  5
64A
100
AcDbEntity
  8
03__ASM_ALL_CURVES
100
AcDbLine
 62
4
  6
CONTINUOUS
 10
11.7490191385
 20
13.2099685618
 11
11.7619393885
 21
13.1927415612
  0
LINE
  5
64B
100
AcDbEntity
  8
03__ASM_ALL_CURVES
100
AcDbLine
 62
4
  6
CONTINUOUS
 10
11.8394608885
 20
13.0983688973
 11
11.8308473885
 21
13.1098535612
  0
LINE
  5
64C
100
AcDbEntity
  8
03__ASM_ALL_CURVES
100
AcDbLine
 62
4
  6
CONTINUOUS
 10
11.8911418885
 20
13.0753995612
 11
11.9083688885
 21
13.0524302293
  0
LINE
  5
64D
100
AcDbEntity
  8
03__ASM_ALL_CURVES
100
AcDbLine
 62
4
  6
CONTINUOUS
 10
11.8911418885
 20
13.1328228973
 11
11.8997553885
 21
13.1213382252
  0
LINE
  5
64E
100
AcDbEntity
  8
03__ASM_ALL_CURVES
100
AcDbLine
 62
4
  6
CONTINUOUS
 10
11.8394608885
 20
13.2042262283
 11
11.8222338885
 21
13.2271955612
  0
LINE
  5
64F
100
AcDbEntity
  8
03__ASM_ALL_CURVES
100
AcDbLine
 62
4
  6
CONTINUOUS
 10
12.1323198885
 20
12.8407108953
 11
12.1495468885
 21
12.8177415612
  0
LINE
  5
650
100
AcDbEntity
  8
03__ASM_ALL_CURVES
100
AcDbLine
 62
4
  6
CONTINUOUS
 10
11.8394608885
 20
13.2846188973
 11
11.8308473885
 21
13.2961035612
  0
LINE
  5
651
100
AcDbEntity
  8
03__ASM_ALL_CURVES
100
AcDbLine
 62
4
  6
CONTINUOUS
 10
11.8911418885
 20
13.2616495612
 11
11.9083688885
 21
13.2386802293
  0
LINE
  5
652
100
AcDbEntity
  8
03__ASM_ALL_CURVES
100
AcDbLine
 62
4
  6
CONTINUOUS
 10
12.9764428885
 20
12.9325882252
 11
12.9850563885
 21
12.8981342252
  0
LINE
  5
653
100
AcDbEntity
  8
03__ASM_ALL_CURVES
100
AcDbLine
 62
4
  6
CONTINUOUS
 10
11.8997553885
 20
12.9555575612
 11
11.8480743885
 21
12.9555575612
  0
LINE
  5
654
100
AcDbEntity
  8
03__ASM_ALL_CURVES
100
AcDbLine
 62
4
  6
CONTINUOUS
 10
12.8213998885
 20
12.9555575612
 11
12.8386268885
 21
12.9555575612
  0
LINE
  5
655
100
AcDbEntity
  8
03__ASM_ALL_CURVES
100
AcDbLine
 62
4
  6
CONTINUOUS
 10
13.8033388885
 20
13.0064915612
 11
13.7861118885
 21
13.0064915612
  0
LINE
  5
656
100
AcDbEntity
  8
03__ASM_ALL_CURVES
100
AcDbLine
 62
4
  6
CONTINUOUS
 10
12.8644673885
 20
13.0064915612
 11
12.8515471385
 21
13.0064915612
  0
LINE
  5
657
100
AcDbEntity
  8
03__ASM_ALL_CURVES
100
AcDbLine
 62
4
  6
CONTINUOUS
 10
11.8739148885
 20
13.0064915612
 11
11.8566878885
 21
13.0064915612
  0
LINE
  5
658
100
AcDbEntity
  8
03__ASM_ALL_CURVES
100
AcDbLine
 62
4
  6
CONTINUOUS
 10
11.7619393885
 20
13.0064915612
 11
11.7490191385
 21
13.0064915612
  0
LINE
  5
659
100
AcDbEntity
  8
03__ASM_ALL_CURVES
100
AcDbLine
 62
4
  6
CONTINUOUS
 10
12.5199273885
 20
13.0064915612
 11
12.5888353885
 21
13.0064915612
  0
LINE
  5
65A
100
AcDbEntity
  8
03__ASM_ALL_CURVES
100
AcDbLine
 62
4
  6
CONTINUOUS
 10
12.6577433885
 20
13.0064915612
 11
12.7266513885
 21
13.0064915612
  0
LINE
  5
65B
100
AcDbEntity
  8
03__ASM_ALL_CURVES
100
AcDbLine
 62
4
  6
CONTINUOUS
 10
13.6224553885
 20
13.0064915612
 11
13.6913633885
 21
13.0064915612
  0
LINE
  5
65C
100
AcDbEntity
  8
03__ASM_ALL_CURVES
100
AcDbLine
 62
4
  6
CONTINUOUS
 10
11.5552153885
 20
13.0409455612
 11
11.6327368885
 21
13.0409455612
  0
LINE
  5
65D
100
AcDbEntity
  8
03__ASM_ALL_CURVES
100
AcDbLine
 62
4
  6
CONTINUOUS
 10
11.1073133885
 20
13.0753995612
 11
11.2451293885
 21
13.0753995612
  0
LINE
  5
65E
100
AcDbEntity
  8
03__ASM_ALL_CURVES
100
AcDbLine
 62
4
  6
CONTINUOUS
 10
11.8566878885
 20
13.0868842252
 11
11.8739148885
 21
13.0868842252
  0
LINE
  5
65F
100
AcDbEntity
  8
03__ASM_ALL_CURVES
100
AcDbLine
 62
4
  6
CONTINUOUS
 10
13.8033388885
 20
13.1443075612
 11
13.7861118885
 21
13.1443075612
  0
LINE
  5
660
100
AcDbEntity
  8
03__ASM_ALL_CURVES
100
AcDbLine
 62
4
  6
CONTINUOUS
 10
13.1400993885
 20
13.1443075612
 11
13.0711913885
 21
13.1443075612
  0
LINE
  5
661
100
AcDbEntity
  8
03__ASM_ALL_CURVES
100
AcDbLine
 62
4
  6
CONTINUOUS
 10
11.8566878885
 20
13.1443075612
 11
11.8739148885
 21
13.1443075612
  0
LINE
  5
662
100
AcDbEntity
  8
03__ASM_ALL_CURVES
100
AcDbLine
 62
4
  6
CONTINUOUS
 10
12.5457678885
 20
13.1443075612
 11
12.5629948885
 21
13.1443075612
  0
LINE
  5
663
100
AcDbEntity
  8
03__ASM_ALL_CURVES
100
AcDbLine
 62
4
  6
CONTINUOUS
 10
12.6835838885
 20
13.1443075612
 11
12.7008108885
 21
13.1443075612
  0
LINE
  5
664
100
AcDbEntity
  8
03__ASM_ALL_CURVES
100
AcDbLine
 62
4
  6
CONTINUOUS
 10
12.8644673885
 20
13.1927415612
 11
12.8515471385
 21
13.1927415612
  0
LINE
  5
665
100
AcDbEntity
  8
03__ASM_ALL_CURVES
100
AcDbLine
 62
4
  6
CONTINUOUS
 10
12.7008108885
 20
13.1927415612
 11
12.6835838885
 21
13.1927415612
  0
LINE
  5
666
100
AcDbEntity
  8
03__ASM_ALL_CURVES
100
AcDbLine
 62
4
  6
CONTINUOUS
 10
11.8739148885
 20
13.1927415612
 11
11.8566878885
 21
13.1927415612
  0
LINE
  5
667
100
AcDbEntity
  8
03__ASM_ALL_CURVES
100
AcDbLine
 62
4
  6
CONTINUOUS
 10
11.7619393885
 20
13.1927415612
 11
11.7490191385
 21
13.1927415612
  0
LINE
  5
668
100
AcDbEntity
  8
03__ASM_ALL_CURVES
100
AcDbLine
 62
4
  6
CONTINUOUS
 10
12.5199273885
 20
13.1927415612
 11
12.5888353885
 21
13.1927415612
  0
LINE
  5
669
100
AcDbEntity
  8
03__ASM_ALL_CURVES
100
AcDbLine
 62
4
  6
CONTINUOUS
 10
10.8316813885
 20
13.1996495612
 11
10.9694973885
 21
13.1996495612
  0
LINE
  5
66A
100
AcDbEntity
  8
03__ASM_ALL_CURVES
100
AcDbLine
 62
4
  6
CONTINUOUS
 10
11.5552153885
 20
13.2271955612
 11
11.6327368885
 21
13.2271955612
  0
LINE
  5
66B
100
AcDbEntity
  8
0
100
AcDbLine
 62
7
  6
CONTINUOUS
 10
6.6938653885
 20
13.2616495612
 11
10.6938653885
 21
13.2616495612
  0
LINE
  5
66C
100
AcDbEntity
  8
03__ASM_ALL_CURVES
100
AcDbLine
 62
4
  6
CONTINUOUS
 10
10.8316813885
 20
13.2616495612
 11
11.2451293885
 21
13.2616495612
  0
LINE
  5
66D
100
AcDbEntity
  8
03__ASM_ALL_CURVES
100
AcDbLine
 62
4
  6
CONTINUOUS
 10
11.8566878885
 20
13.2731342252
 11
11.8739148885
 21
13.2731342252
  0
LINE
  5
66E
100
AcDbEntity
  8
03__ASM_ALL_CURVES
100
AcDbLine
 62
4
  6
CONTINUOUS
 10
12.6835838885
 20
13.2731342252
 11
12.7008108885
 21
13.2731342252
  0
LINE
  5
66F
100
AcDbEntity
  8
03__ASM_ALL_CURVES
100
AcDbLine
 62
4
  6
CONTINUOUS
 10
11.8566878885
 20
12.8177415612
 11
11.8394608885
 21
12.8292262283
  0
LINE
  5
670
100
AcDbEntity
  8
03__ASM_ALL_CURVES
100
AcDbLine
 62
4
  6
CONTINUOUS
 10
11.8739148885
 20
12.9096188973
 11
11.8911418885
 21
12.8981342252
  0
LINE
  5
671
100
AcDbEntity
  8
03__ASM_ALL_CURVES
100
AcDbLine
 62
4
  6
CONTINUOUS
 10
11.8566878885
 20
13.0064915612
 11
11.8394608885
 21
13.0179762283
  0
LINE
  5
672
100
AcDbEntity
  8
03__ASM_ALL_CURVES
100
AcDbLine
 62
4
  6
CONTINUOUS
 10
11.8911418885
 20
13.3190728973
 11
11.8997553885
 21
13.3075882252
  0
LINE
  5
673
100
AcDbEntity
  8
03__ASM_ALL_CURVES
100
AcDbLine
 62
4
  6
CONTINUOUS
 10
12.2701358885
 20
13.0294608953
 11
12.2873628885
 21
13.0064915612
  0
LINE
  5
674
100
AcDbEntity
  8
03__ASM_ALL_CURVES
100
AcDbLine
 62
4
  6
CONTINUOUS
 10
12.2701358885
 20
13.2157108953
 11
12.2873628885
 21
13.1927415612
  0
LINE
  5
675
100
AcDbEntity
  8
03__ASM_ALL_CURVES
100
AcDbLine
 62
4
  6
CONTINUOUS
 10
12.9419888885
 20
13.2157108953
 11
12.9333753885
 21
13.2386802293
  0
LINE
  5
676
100
AcDbEntity
  8
03__ASM_ALL_CURVES
100
AcDbLine
 62
4
  6
CONTINUOUS
 10
12.9936698885
 20
13.2616495612
 11
13.0022833885
 21
13.2386802293
  0
LINE
  5
677
100
AcDbEntity
  8
03__ASM_ALL_CURVES
100
AcDbLine
 62
4
  6
CONTINUOUS
 10
13.0798048885
 20
13.2616495612
 11
13.0711913885
 21
13.2846188973
  0
LINE
  5
678
100
AcDbEntity
  8
03__ASM_ALL_CURVES
100
AcDbLine
 62
4
  6
CONTINUOUS
 10
13.2520748885
 20
13.1213382252
 11
13.2606883885
 21
13.0868842252
  0
LINE
  5
679
100
AcDbEntity
  8
03__ASM_ALL_CURVES
100
AcDbLine
 62
4
  6
CONTINUOUS
 10
13.2520748885
 20
13.3075882252
 11
13.2606883885
 21
13.2731342252
  0
LINE
  5
67A
100
AcDbEntity
  8
03__ASM_ALL_CURVES
100
AcDbLine
 62
4
  6
CONTINUOUS
 10
13.5018663885
 20
13.0639148932
 11
13.5104798885
 21
13.0294608953
  0
LINE
  5
67B
100
AcDbEntity
  8
03__ASM_ALL_CURVES
100
AcDbLine
 62
4
  6
CONTINUOUS
 10
12.0375713885
 20
13.3305575612
 11
11.9686633885
 21
13.3305575612
  0
LINE
  5
67C
100
AcDbEntity
  8
03__ASM_ALL_CURVES
100
AcDbLine
 62
4
  6
CONTINUOUS
 10
11.8566878885
 20
13.3305575612
 11
11.8739148885
 21
13.3305575612
  0
LINE
  5
67D
100
AcDbEntity
  8
03__ASM_ALL_CURVES
100
AcDbLine
 62
4
  6
CONTINUOUS
 10
12.5457678885
 20
13.3305575612
 11
12.5629948885
 21
13.3305575612
  0
LINE
  5
67E
100
AcDbEntity
  8
03__ASM_ALL_CURVES
100
AcDbLine
 62
4
  6
CONTINUOUS
 10
12.6835838885
 20
13.3305575612
 11
12.7008108885
 21
13.3305575612
  0
LINE
  5
67F
100
AcDbEntity
  8
03__ASM_ALL_CURVES
100
AcDbLine
 62
4
  6
CONTINUOUS
 10
11.8566878885
 20
13.0868842252
 11
11.8394608885
 21
13.0983688973
  0
LINE
  5
680
100
AcDbEntity
  8
03__ASM_ALL_CURVES
100
AcDbLine
 62
4
  6
CONTINUOUS
 10
11.8739148885
 20
13.0868842252
 11
11.8911418885
 21
13.0753995612
  0
LINE
  5
681
100
AcDbEntity
  8
03__ASM_ALL_CURVES
100
AcDbLine
 62
4
  6
CONTINUOUS
 10
11.8739148885
 20
13.1443075612
 11
11.8911418885
 21
13.1328228973
  0
LINE
  5
682
100
AcDbEntity
  8
03__ASM_ALL_CURVES
100
AcDbLine
 62
4
  6
CONTINUOUS
 10
11.8566878885
 20
13.1927415612
 11
11.8394608885
 21
13.2042262283
  0
LINE
  5
683
100
AcDbEntity
  8
03__ASM_ALL_CURVES
100
AcDbLine
 62
4
  6
CONTINUOUS
 10
11.8566878885
 20
13.2731342252
 11
11.8394608885
 21
13.2846188973
  0
LINE
  5
684
100
AcDbEntity
  8
03__ASM_ALL_CURVES
100
AcDbLine
 62
4
  6
CONTINUOUS
 10
11.8739148885
 20
13.2731342252
 11
11.8911418885
 21
13.2616495612
  0
LINE
  5
685
100
AcDbEntity
  8
03__ASM_ALL_CURVES
100
AcDbLine
 62
4
  6
CONTINUOUS
 10
11.8739148885
 20
13.3305575612
 11
11.8911418885
 21
13.3190728973
  0
LINE
  5
686
100
AcDbEntity
  8
03__ASM_ALL_CURVES
100
AcDbLine
 62
4
  6
CONTINUOUS
 10
12.8213998885
 20
12.8177415612
 11
12.8041728885
 21
12.8292262283
  0
LINE
  5
687
100
AcDbEntity
  8
03__ASM_ALL_CURVES
100
AcDbLine
 62
4
  6
CONTINUOUS
 10
12.7137311385
 20
12.8349685618
 11
12.7266513885
 21
12.8177415612
  0
LINE
  5
688
100
AcDbEntity
  8
03__ASM_ALL_CURVES
100
AcDbLine
 62
4
  6
CONTINUOUS
 10
12.8041728885
 20
12.8292262283
 11
12.7955593885
 21
12.8407108953
  0
LINE
  5
689
100
AcDbEntity
  8
03__ASM_ALL_CURVES
100
AcDbLine
 62
4
  6
CONTINUOUS
 10
12.5802218885
 20
13.1328228973
 11
12.5888353885
 21
13.1213382252
  0
LINE
  5
68A
100
AcDbEntity
  8
03__ASM_ALL_CURVES
100
AcDbLine
 62
4
  6
CONTINUOUS
 10
12.8558538885
 20
12.8866495612
 11
12.8730808885
 21
12.8636802293
  0
LINE
  5
68B
100
AcDbEntity
  8
03__ASM_ALL_CURVES
100
AcDbLine
 62
4
  6
CONTINUOUS
 10
12.8558538885
 20
12.9440728973
 11
12.8644673885
 21
12.9325882252
  0
LINE
  5
68C
100
AcDbEntity
  8
03__ASM_ALL_CURVES
100
AcDbLine
 62
4
  6
CONTINUOUS
 10
12.7180378885
 20
13.1328228973
 11
12.7266513885
 21
13.1213382252
  0
LINE
  5
68D
100
AcDbEntity
  8
03__ASM_ALL_CURVES
100
AcDbLine
 62
4
  6
CONTINUOUS
 10
12.5802218885
 20
13.3190728973
 11
12.5888353885
 21
13.3075882252
  0
LINE
  5
68E
100
AcDbEntity
  8
03__ASM_ALL_CURVES
100
AcDbLine
 62
4
  6
CONTINUOUS
 10
12.6663568885
 20
13.2042262283
 11
12.6577433885
 21
13.2157108953
  0
LINE
  5
68F
100
AcDbEntity
  8
03__ASM_ALL_CURVES
100
AcDbLine
 62
4
  6
CONTINUOUS
 10
12.8515471385
 20
13.0237185618
 11
12.8644673885
 21
13.0064915612
  0
LINE
  5
690
100
AcDbEntity
  8
03__ASM_ALL_CURVES
100
AcDbLine
 62
4
  6
CONTINUOUS
 10
12.7180378885
 20
13.2616495612
 11
12.7352648885
 21
13.2386802293
  0
LINE
  5
691
100
AcDbEntity
  8
03__ASM_ALL_CURVES
100
AcDbLine
 62
4
  6
CONTINUOUS
 10
12.9592158885
 20
12.9555575612
 11
12.9764428885
 21
12.9325882252
  0
LINE
  5
692
100
AcDbEntity
  8
03__ASM_ALL_CURVES
100
AcDbLine
 62
4
  6
CONTINUOUS
 10
12.7180378885
 20
13.3190728973
 11
12.7266513885
 21
13.3075882252
  0
LINE
  5
693
100
AcDbEntity
  8
03__ASM_ALL_CURVES
100
AcDbLine
 62
4
  6
CONTINUOUS
 10
12.8515471385
 20
13.2099685618
 11
12.8644673885
 21
13.1927415612
  0
LINE
  5
694
100
AcDbEntity
  8
03__ASM_ALL_CURVES
100
AcDbLine
 62
4
  6
CONTINUOUS
 10
13.1314858885
 20
13.3075882252
 11
13.1400993885
 21
13.2846188973
  0
LINE
  5
695
100
AcDbEntity
  8
03__ASM_ALL_CURVES
100
AcDbLine
 62
4
  6
CONTINUOUS
 10
12.9678293885
 20
13.2731342252
 11
12.9936698885
 21
13.2616495612
  0
LINE
  5
696
100
AcDbEntity
  8
03__ASM_ALL_CURVES
100
AcDbLine
 62
4
  6
CONTINUOUS
 10
12.8386268885
 20
12.8981342252
 11
12.8558538885
 21
12.8866495612
  0
LINE
  5
697
100
AcDbEntity
  8
03__ASM_ALL_CURVES
100
AcDbLine
 62
4
  6
CONTINUOUS
 10
12.8386268885
 20
12.9555575612
 11
12.8558538885
 21
12.9440728973
  0
LINE
  5
698
100
AcDbEntity
  8
03__ASM_ALL_CURVES
100
AcDbLine
 62
4
  6
CONTINUOUS
 10
12.5629948885
 20
13.1443075612
 11
12.5802218885
 21
13.1328228973
  0
LINE
  5
699
100
AcDbEntity
  8
03__ASM_ALL_CURVES
100
AcDbLine
 62
4
  6
CONTINUOUS
 10
12.7008108885
 20
13.1443075612
 11
12.7180378885
 21
13.1328228973
  0
LINE
  5
69A
100
AcDbEntity
  8
03__ASM_ALL_CURVES
100
AcDbLine
 62
4
  6
CONTINUOUS
 10
12.6835838885
 20
13.1927415612
 11
12.6663568885
 21
13.2042262283
  0
LINE
  5
69B
100
AcDbEntity
  8
03__ASM_ALL_CURVES
100
AcDbLine
 62
4
  6
CONTINUOUS
 10
12.5629948885
 20
13.3305575612
 11
12.5802218885
 21
13.3190728973
  0
LINE
  5
69C
100
AcDbEntity
  8
03__ASM_ALL_CURVES
100
AcDbLine
 62
4
  6
CONTINUOUS
 10
12.7008108885
 20
13.2731342252
 11
12.7180378885
 21
13.2616495612
  0
LINE
  5
69D
100
AcDbEntity
  8
03__ASM_ALL_CURVES
100
AcDbLine
 62
4
  6
CONTINUOUS
 10
12.7008108885
 20
13.3305575612
 11
12.7180378885
 21
13.3190728973
  0
LINE
  5
69E
100
AcDbEntity
  8
03__ASM_ALL_CURVES
100
AcDbLine
 62
4
  6
CONTINUOUS
 10
12.9678293885
 20
13.1927415612
 11
12.9506023885
 21
13.2042262283
  0
LINE
  5
69F
100
AcDbEntity
  8
03__ASM_ALL_CURVES
100
AcDbLine
 62
4
  6
CONTINUOUS
 10
12.9506023885
 20
13.2042262283
 11
12.9419888885
 21
13.2157108953
  0
LINE
  5
6A0
100
AcDbEntity
  8
03__ASM_ALL_CURVES
100
AcDbLine
 62
4
  6
CONTINUOUS
 10
12.9850563885
 20
13.3190728973
 11
12.9936698885
 21
13.3075882252
  0
LINE
  5
6A1
100
AcDbEntity
  8
03__ASM_ALL_CURVES
100
AcDbLine
 62
4
  6
CONTINUOUS
 10
13.0884183885
 20
13.2042262283
 11
13.0798048885
 21
13.2157108953
  0
LINE
  5
6A2
100
AcDbEntity
  8
03__ASM_ALL_CURVES
100
AcDbLine
 62
4
  6
CONTINUOUS
 10
13.2348478885
 20
13.1443075612
 11
13.2520748885
 21
13.1213382252
  0
LINE
  5
6A3
100
AcDbEntity
  8
03__ASM_ALL_CURVES
100
AcDbLine
 62
4
  6
CONTINUOUS
 10
13.1228723885
 20
13.3190728973
 11
13.1314858885
 21
13.3075882252
  0
LINE
  5
6A4
100
AcDbEntity
  8
03__ASM_ALL_CURVES
100
AcDbLine
 62
4
  6
CONTINUOUS
 10
13.9411548885
 20
13.1213382252
 11
13.9497683885
 21
13.0868842252
  0
LINE
  5
6A5
100
AcDbEntity
  8
03__ASM_ALL_CURVES
100
AcDbLine
 62
4
  6
CONTINUOUS
 10
13.1056453885
 20
13.2501648932
 11
13.0798048885
 21
13.2616495612
  0
LINE
  5
6A6
100
AcDbEntity
  8
03__ASM_ALL_CURVES
100
AcDbLine
 62
4
  6
CONTINUOUS
 10
13.1056453885
 20
13.1927415612
 11
13.0884183885
 21
13.2042262283
  0
LINE
  5
6A7
100
AcDbEntity
  8
03__ASM_ALL_CURVES
100
AcDbLine
 62
4
  6
CONTINUOUS
 10
12.9678293885
 20
13.3305575612
 11
12.9850563885
 21
13.3190728973
  0
LINE
  5
6A8
100
AcDbEntity
  8
03__ASM_ALL_CURVES
100
AcDbLine
 62
4
  6
CONTINUOUS
 10
13.1056453885
 20
13.3305575612
 11
13.1228723885
 21
13.3190728973
  0
LINE
  5
6A9
100
AcDbEntity
  8
03__ASM_ALL_CURVES
100
AcDbLine
 62
4
  6
CONTINUOUS
 10
13.7861118885
 20
13.0064915612
 11
13.7688848885
 21
13.0179762283
  0
LINE
  5
6AA
100
AcDbEntity
  8
03__ASM_ALL_CURVES
100
AcDbLine
 62
4
  6
CONTINUOUS
 10
13.7688848885
 20
13.0983688973
 11
13.8205658885
 21
13.0639148932
  0
LINE
  5
6AB
100
AcDbEntity
  8
03__ASM_ALL_CURVES
100
AcDbLine
 62
4
  6
CONTINUOUS
 10
13.8205658885
 20
13.1328228973
 11
13.8033388885
 21
13.1443075612
  0
LINE
  5
6AC
100
AcDbEntity
  8
03__ASM_ALL_CURVES
100
AcDbLine
 62
4
  6
CONTINUOUS
 10
13.2348478885
 20
13.3305575612
 11
13.2520748885
 21
13.3075882252
  0
LINE
  5
6AD
100
AcDbEntity
  8
03__ASM_ALL_CURVES
100
AcDbLine
 62
4
  6
CONTINUOUS
 10
13.5104798885
 20
13.0294608953
 11
13.5277068885
 21
13.0064915612
  0
LINE
  5
6AE
100
AcDbEntity
  8
03__ASM_ALL_CURVES
100
AcDbLine
 62
4
  6
CONTINUOUS
 10
13.7688848885
 20
13.0179762283
 11
13.7516578885
 21
13.0409455612
  0
LINE
  5
6AF
100
AcDbEntity
  8
03__ASM_ALL_CURVES
100
AcDbLine
 62
4
  6
CONTINUOUS
 10
13.7602713885
 20
13.1098535612
 11
13.7688848885
 21
13.0983688973
  0
LINE
  5
6B0
100
AcDbEntity
  8
03__ASM_ALL_CURVES
100
AcDbLine
 62
4
  6
CONTINUOUS
 10
13.8205658885
 20
13.0639148932
 11
13.8291793885
 21
13.0524302293
  0
LINE
  5
6B1
100
AcDbEntity
  8
03__ASM_ALL_CURVES
100
AcDbLine
 62
4
  6
CONTINUOUS
 10
13.8291793885
 20
13.1213382252
 11
13.8205658885
 21
13.1328228973
  0
LINE
  5
6B2
100
AcDbEntity
  8
03__ASM_ALL_CURVES
100
AcDbLine
 62
4
  6
CONTINUOUS
 10
13.9239278885
 20
13.1443075612
 11
13.9411548885
 21
13.1213382252
  0
CIRCLE
  5
6B3
100
AcDbEntity
  8
0
100
AcDbCircle
 62
7
  6
CONTINUOUS
 10
7.8188653885
 20
10.3866495612
 40
0.28
  0
CIRCLE
  5
6B4
100
AcDbEntity
  8
0
100
AcDbCircle
 62
7
  6
CONTINUOUS
 10
7.8188653885
 20
10.3866495612
 40
0.211
  0
CIRCLE
  5
6B5
100
AcDbEntity
  8
0
100
AcDbCircle
 62
7
  6
CONTINUOUS
 10
8.1938653885
 20
8.7616495612
 40
0.203
  0
CIRCLE
  5
6B6
100
AcDbEntity
  8
0
100
AcDbCircle
 62
7
  6
CONTINUOUS
 10
9.1938653885
 20
12.8866495612
 40
0.203
  0
CIRCLE
  5
6B7
100
AcDbEntity
  8
0
100
AcDbCircle
 62
7
  6
CONTINUOUS
 10
8.1538653885
 20
11.8866495612
 40
0.18
  0
SPLINE
  5
6B8
100
AcDbEntity
  8
0
100
AcDbSpline
 62
7
  6
CONTINUOUS
 70
0
 71
3
 72
20
 73
16
 74
14
 42
0.0000001
 43
0.0000001
 44
0.0000000001
 12
-0.5628849281
 22
-0.1771634649
 32
0.0
 13
-0.5628849281
 23
0.1771634649
 33
0.0
 40
0.0
 40
0.0
 40
0.0
 40
0.0
 40
0.0817718592
 40
0.1606270316
 40
0.2375084743
 40
0.313165354
 40
0.3881216614
 40
0.4627397576
 40
0.5372602432
 40
0.6118783394
 40
0.6868346467
 40
0.7624915264
 40
0.8393729689
 40
0.9182281408
 40
1.0
 40
1.0
 40
1.0
 40
1.0
 10
10.1712536049
 20
7.5310337352
 30
0.0
 10
10.1559108892
 20
7.5262047399
 30
0.0
 10
10.1256015248
 20
7.5172499403
 30
0.0
 10
10.0802949032
 20
7.5057987389
 30
0.0
 10
10.0357094743
 20
7.4965665663
 30
0.0
 10
9.9914949228
 20
7.4895593611
 30
0.0
 10
9.9474247492
 20
7.4848298819
 30
0.0
 10
9.9033882281
 20
7.482443466
 30
0.0
 10
9.8593530823
 20
7.482443466
 30
0.0
 10
9.8153165612
 20
7.484829882
 30
0.0
 10
9.7712463877
 20
7.4895593612
 30
0.0
 10
9.7270318361
 20
7.4965665663
 30
0.0
 10
9.6824464075
 20
7.5057987389
 30
0.0
 10
9.637139786
 20
7.5172499403
 30
0.0
 10
9.6068304217
 20
7.5262047399
 30
0.0
 10
9.591487706
 20
7.5310337352
 30
0.0
 11
10.1712536049
 21
7.5310337352
 31
0.0
 11
10.1249652479
 21
7.5174010139
 31
0.0
 11
10.0798415635
 21
7.5060356015
 31
0.0
 11
10.0354087349
 21
7.4968701925
 31
0.0
 11
9.9913089002
 21
7.4899103511
 31
0.0
 11
9.9473269424
 21
7.4852115257
 31
0.0
 11
9.9033581873
 21
7.4828399956
 31
0.0
 11
9.8593831231
 21
7.4828399956
 31
0.0
 11
9.815414368
 21
7.4852115257
 31
0.0
 11
9.7714324103
 21
7.4899103512
 31
0.0
 11
9.7273325755
 21
7.4968701926
 31
0.0
 11
9.682899747
 21
7.5060356016
 31
0.0
 11
9.637776063
 21
7.5174010139
 31
0.0
 11
9.591487706
 21
7.5310337352
 31
0.0
  0
SPLINE
  5
6B9
100
AcDbEntity
  8
0
100
AcDbSpline
 62
7
  6
CONTINUOUS
 70
0
 71
3
 72
20
 73
16
 74
14
 42
0.0000001
 43
0.0000001
 44
0.0000000001
 12
-0.5628849281
 22
-0.1771634649
 32
0.0
 13
-0.5628849281
 23
0.1771634649
 33
0.0
 40
0.0
 40
0.0
 40
0.0
 40
0.0
 40
0.0817718592
 40
0.1606270316
 40
0.2375084743
 40
0.313165354
 40
0.3881216614
 40
0.4627397576
 40
0.5372602432
 40
0.6118783394
 40
0.6868346467
 40
0.7624915264
 40
0.8393729689
 40
0.9182281408
 40
1.0
 40
1.0
 40
1.0
 40
1.0
 10
9.546243071
 20
7.5310337352
 30
0.0
 10
9.5309003553
 20
7.5262047399
 30
0.0
 10
9.5005909909
 20
7.5172499403
 30
0.0
 10
9.4552843693
 20
7.5057987389
 30
0.0
 10
9.4106989404
 20
7.4965665663
 30
0.0
 10
9.3664843888
 20
7.4895593611
 30
0.0
 10
9.3224142153
 20
7.4848298819
 30
0.0
 10
9.2783776942
 20
7.482443466
 30
0.0
 10
9.2343425483
 20
7.482443466
 30
0.0
 10
9.1903060273
 20
7.484829882
 30
0.0
 10
9.1462358538
 20
7.4895593612
 30
0.0
 10
9.1020213022
 20
7.4965665663
 30
0.0
 10
9.0574358736
 20
7.5057987389
 30
0.0
 10
9.012129252
 20
7.5172499403
 30
0.0
 10
8.9818198878
 20
7.5262047399
 30
0.0
 10
8.9664771721
 20
7.5310337352
 30
0.0
 11
9.546243071
 21
7.5310337352
 31
0.0
 11
9.4999547139
 21
7.5174010139
 31
0.0
 11
9.4548310296
 21
7.5060356015
 31
0.0
 11
9.410398201
 21
7.4968701925
 31
0.0
 11
9.3662983662
 21
7.4899103511
 31
0.0
 11
9.3223164085
 21
7.4852115257
 31
0.0
 11
9.2783476534
 21
7.4828399956
 31
0.0
 11
9.2343725891
 21
7.4828399956
 31
0.0
 11
9.1904038341
 21
7.4852115257
 31
0.0
 11
9.1464218764
 21
7.4899103512
 31
0.0
 11
9.1023220416
 21
7.4968701926
 31
0.0
 11
9.0578892131
 21
7.5060356016
 31
0.0
 11
9.0127655291
 21
7.5174010139
 31
0.0
 11
8.9664771721
 21
7.5310337352
 31
0.0
  0
ENDSEC
  0
SECTION
  2
OBJECTS
  0
DICTIONARY
  5
C
100
AcDbDictionary
280
0
281
1
  3
ACAD_GROUP
350
D
  3
ACAD_MLINESTYLE
350
17
  3
ACAD_LAYOUT
350
1A
  3
ACAD_PLOTSETTINGS
350
19
  3
ACAD_PLOTSTYLENAME
350
E
  0
DICTIONARY
  5
D
102
{ACAD_REACTORS
330
C
102
}
100
AcDbDictionary
280
0
281
1
  0
ACDBDICTIONARYWDFLT
  5
E
102
{ACAD_REACTORS
330
C
102
}
100
AcDbDictionary
281
1
  3
Normal
350
F
100
AcDbDictionaryWithDefault
340
F
  0
DICTIONARY
  5
17
102
{ACAD_REACTORS
330
C
102
}
100
AcDbDictionary
280
0
281
1
  3
Standard
350
18
  0
DICTIONARY
  5
19
102
{ACAD_REACTORS
330
C
102
}
100
AcDbDictionary
281
1
  0
DICTIONARY
  5
1A
102
{ACAD_REACTORS
330
C
102
}
100
AcDbDictionary
281
1
  3
Layout1
350
1E
  3
Model
350
22
  0
ACDBPLACEHOLDER
  5
F
102
{ACAD_REACTORS
330
E
102
}
  0
MLINESTYLE
  5
18
102
{ACAD_REACTORS
330
17
102
}
100
AcDbMlineStyle
  2
STANDARD
 70
0
  3

 62
256
 51
90.0
 52
90.0
 71
2
 49
0.5
 62
256
  6
BYLAYER
 49
-0.5
 62
256
  6
BYLAYER
  0
LAYOUT
  5
1E
102
{ACAD_REACTORS
330
1A
102
}
100
AcDbPlotSettings
  1

  2

  4

  6

 40
0.0
 41
0.0
 42
0.0
 43
0.0
 44
0.0
 45
0.0
 46
0.0
 47
0.0
 48
0.0
 49
0.0
140
0.0
141
0.0
142
1.0
143
1.0
 70
0
 72
0
 73
0
 74
0
  7

 75
0
147
1.0
148
0.0
149
0.0
100
AcDbLayout
  1
Layout1
 70
0
 71
0
 10
0.0
 20
0.0
 11
0.0
 21
0.0
 12
0.0
 22
0.0
 32
0.0
 14
0.0
 24
0.0
 34
0.0
 15
0.0
 25
0.0
 35
0.0
146
0.0
 13
0.0
 23
0.0
 33
0.0
 16
0.0
 26
0.0
 36
0.0
 17
0.0
 27
0.0
 37
0.0
 76
0
330
1B
331
0
345
0
346
0
  0
LAYOUT
  5
22
102
{ACAD_REACTORS
330
1A
102
}
100
AcDbPlotSettings
  1

  2

  4

  6

 40
0.0
 41
0.0
 42
0.0
 43
0.0
 44
0.0
 45
0.0
 46
0.0
 47
0.0
 48
0.0
 49
0.0
140
0.0
141
0.0
142
1.0
143
1.0
 70
0
 72
0
 73
0
 74
0
  7

 75
0
147
1.0
148
0.0
149
0.0
100
AcDbLayout
  1
Model
 70
0
 71
0
 10
0.0
 20
0.0
 11
0.0
 21
0.0
 12
0.0
 22
0.0
 32
0.0
 14
0.0
 24
0.0
 34
0.0
 15
0.0
 25
0.0
 35
0.0
146
0.0
 13
0.0
 23
0.0
 33
0.0
 16
0.0
 26
0.0
 36
0.0
 17
0.0
 27
0.0
 37
0.0
 76
0
330
1F
331
0
345
0
346
0
  0
ENDSEC
  0
EOF
