999
DXF file: INL_5.dxf
999
Pro/ENGINEER 2006240 by Parametric Technology Corporation
  0
SECTION
  2
HEADER
  9
$ACADVER
  1
AC1015
  9
$DWGCODEPAGE
  3
ANSI_1252
  9
$EXTMAX
 10
22.0
 20
17.0
 30
0.0
  9
$EXTMIN
 10
0.0
 20
0.0
 30
0.0
  9
$LIMMIN
 10
0.0
 20
0.0
  9
$LIMMAX
 10
22.0
 20
17.0
  9
$VIEWCTR
 10
11.0
 20
8.5
  9
$VIEWSIZE
 40
17.0
  9
$CLAYER
  8
0
  9
$LTSCALE
 40
1.21
  9
$CELTYPE
  6
BYLAYER
  9
$DIMSCALE
 40
1.0
  9
$DIMASZ
 40
0.1875
  9
$DIMEXO
 40
0.1375
  9
$DIMDLI
 40
0.836
  9
$DIMEXE
 40
0.396
  9
$DIMCEN
 40
0.198
  9
$DIMLFAC
 40
1.0
  9
$DIMBLK
  1
_CLOSED
  9
$DIMTXT
 40
0.15625
  9
$DIMTOL
 70
0
  9
$DIMLIM
 70
0
  9
$DIMTFAC
 40
1.0
  9
$PDMODE
 70
3
  9
$PDSIZE
 40
0.3125
  9
$HANDSEED
  5
4E7
  9
$MEASUREMENT
 70
0
  9
$INSUNITS
 70
1
  0
ENDSEC
  0
SECTION
  2
CLASSES
  0
CLASS
  1
ACDBDICTIONARYWDFLT
  2
AcDbDictionaryWithDefault
  3
AutoCAD 2000
 90
0
280
0
281
0
  0
CLASS
  1
ACDBPLACEHOLDER
  2
AcDbPlaceHolder
  3
AutoCAD 2000
 90
0
280
0
281
0
  0
CLASS
  1
LAYOUT
  2
AcDbLayout
  3
AutoCAD 2000
 90
0
280
0
281
0
  0
ENDSEC
  0
SECTION
  2
TABLES
  0
TABLE
  2
VPORT
  5
8
100
AcDbSymbolTable
 70
2
  0
VPORT
  5
1F4
100
AcDbSymbolTableRecord
100
AcDbViewportTableRecord
  2
*ACTIVE
 70
0
 10
0.0
 20
0.0
 11
1.0
 21
1.0
 12
11.0
 22
8.5
 13
0.0
 23
0.0
 14
1.0
 24
1.0
 15
0.0
 25
0.0
 16
0.0
 26
0.0
 36
1.0
 17
0.0
 27
0.0
 37
0.0
 40
17.0
 41
1.2941176471
 42
50.0
 43
0.0
 44
0.0
 50
0.0
 51
0.0
 71
0
 72
100
 73
1
 74
1
 75
0
 76
0
 77
0
 78
0
  0
ENDTAB
  0
TABLE
  2
LTYPE
  5
5
100
AcDbSymbolTable
 70
6
  0
LTYPE
  5
14
100
AcDbSymbolTableRecord
100
AcDbLinetypeTableRecord
  2
BYBLOCK
 70
0
  3

 72
65
 73
0
 40
0.0
  0
LTYPE
  5
15
100
AcDbSymbolTableRecord
100
AcDbLinetypeTableRecord
  2
BYLAYER
 70
0
  3

 72
65
 73
0
 40
0.0
  0
LTYPE
  5
16
100
AcDbSymbolTableRecord
100
AcDbLinetypeTableRecord
  2
CONTINUOUS
 70
64
  3
Solid line
 72
65
 73
0
 40
0.0
  0
LTYPE
  5
1F5
100
AcDbSymbolTableRecord
100
AcDbLinetypeTableRecord
  2
CENTER
 70
64
  3
____ _ ____ _ ____ _ ____ _ ____ _ ____ _ ____
 72
65
 73
4
 40
0.6
 49
0.375
 74
0
 49
-0.075
 74
0
 49
0.075
 74
0
 49
-0.075
 74
0
  0
LTYPE
  5
1F6
100
AcDbSymbolTableRecord
100
AcDbLinetypeTableRecord
  2
HIDDEN
 70
64
  3
- - - - - - - - - - - - - - - - - - - -
 72
65
 73
2
 40
0.2
 49
0.1
 74
0
 49
-0.1
 74
0
  0
LTYPE
  5
1F7
100
AcDbSymbolTableRecord
100
AcDbLinetypeTableRecord
  2
PHANTOM
 70
64
  3
_____ _ _ _____ _ _ _____ _ _ _____
 72
65
 73
6
 40
0.8
 49
0.45
 74
0
 49
-0.05
 74
0
 49
0.1
 74
0
 49
-0.05
 74
0
 49
0.1
 74
0
 49
-0.05
 74
0
  0
LTYPE
  5
1F8
100
AcDbSymbolTableRecord
100
AcDbLinetypeTableRecord
  2
DOT
 70
64
  3
. . . . . . . . . . . . . . . . . . . .
 72
65
 73
2
 40
0.2
 49
0.1
 74
0
 49
-0.1
 74
0
  0
LTYPE
  5
1F9
100
AcDbSymbolTableRecord
100
AcDbLinetypeTableRecord
  2
DASHED
 70
64
  3
- - - - - - - - - - - - - - - - - - - -
 72
65
 73
2
 40
0.2
 49
0.1
 74
0
 49
-0.1
 74
0
  0
ENDTAB
  0
TABLE
  2
LAYER
  5
2
100
AcDbSymbolTable
 70
36
  0
LAYER
  5
10
100
AcDbSymbolTableRecord
100
AcDbLayerTableRecord
  2
0
 70
0
 62
7
  6
CONTINUOUS
370
-3
390
F
  0
LAYER
  5
1FA
100
AcDbSymbolTableRecord
100
AcDbLayerTableRecord
  2
DEFAULT_1
 70
0
 62
7
  6
CENTER
370
-3
390
F
  0
LAYER
  5
1FB
100
AcDbSymbolTableRecord
100
AcDbLayerTableRecord
  2
DEFAULT_2
 70
0
 62
8
  6
HIDDEN
370
-3
390
F
  0
LAYER
  5
1FC
100
AcDbSymbolTableRecord
100
AcDbLayerTableRecord
  2
DEFAULT_3
 70
0
 62
7
  6
PHANTOM
370
-3
390
F
  0
LAYER
  5
1FD
100
AcDbSymbolTableRecord
100
AcDbLayerTableRecord
  2
01_ALL_DTM_PLN
 70
0
 62
7
  6
CONTINUOUS
370
-3
390
F
  0
LAYER
  5
1FE
100
AcDbSymbolTableRecord
100
AcDbLayerTableRecord
  2
01__ASM_ALL_DTM_PLN
 70
0
 62
7
  6
CONTINUOUS
370
-3
390
F
  0
LAYER
  5
1FF
100
AcDbSymbolTableRecord
100
AcDbLayerTableRecord
  2
01__ASM_DEF_DTM_PLN
 70
0
 62
7
  6
CONTINUOUS
370
-3
390
F
  0
LAYER
  5
200
100
AcDbSymbolTableRecord
100
AcDbLayerTableRecord
  2
01___PRT_ALL_DTM_PLN
 70
0
 62
7
  6
CONTINUOUS
370
-3
390
F
  0
LAYER
  5
201
100
AcDbSymbolTableRecord
100
AcDbLayerTableRecord
  2
01___PRT_DEF_DTM_PLN
 70
0
 62
7
  6
CONTINUOUS
370
-3
390
F
  0
LAYER
  5
202
100
AcDbSymbolTableRecord
100
AcDbLayerTableRecord
  2
02_ALL_AXES
 70
0
 62
7
  6
CONTINUOUS
370
-3
390
F
  0
LAYER
  5
203
100
AcDbSymbolTableRecord
100
AcDbLayerTableRecord
  2
02__ASM_ALL_AXES
 70
0
 62
7
  6
CONTINUOUS
370
-3
390
F
  0
LAYER
  5
204
100
AcDbSymbolTableRecord
100
AcDbLayerTableRecord
  2
02___PRT_ALL_AXES
 70
0
 62
7
  6
CONTINUOUS
370
-3
390
F
  0
LAYER
  5
205
100
AcDbSymbolTableRecord
100
AcDbLayerTableRecord
  2
03_ALL_CURVES
 70
0
 62
7
  6
CONTINUOUS
370
-3
390
F
  0
LAYER
  5
206
100
AcDbSymbolTableRecord
100
AcDbLayerTableRecord
  2
03__ASM_ALL_CURVES
 70
0
 62
7
  6
CONTINUOUS
370
-3
390
F
  0
LAYER
  5
207
100
AcDbSymbolTableRecord
100
AcDbLayerTableRecord
  2
03___PRT_ALL_CURVES
 70
0
 62
7
  6
CONTINUOUS
370
-3
390
F
  0
LAYER
  5
208
100
AcDbSymbolTableRecord
100
AcDbLayerTableRecord
  2
04_ALL_DTM_PNT
 70
0
 62
7
  6
CONTINUOUS
370
-3
390
F
  0
LAYER
  5
209
100
AcDbSymbolTableRecord
100
AcDbLayerTableRecord
  2
04__ASM_ALL_DTM_PNT
 70
0
 62
7
  6
CONTINUOUS
370
-3
390
F
  0
LAYER
  5
20A
100
AcDbSymbolTableRecord
100
AcDbLayerTableRecord
  2
04___PRT_ALL_DTM_PNT
 70
0
 62
7
  6
CONTINUOUS
370
-3
390
F
  0
LAYER
  5
20B
100
AcDbSymbolTableRecord
100
AcDbLayerTableRecord
  2
05_ALL_DTM_CSYS
 70
0
 62
7
  6
CONTINUOUS
370
-3
390
F
  0
LAYER
  5
20C
100
AcDbSymbolTableRecord
100
AcDbLayerTableRecord
  2
05__ASM_ALL_DTM_CSYS
 70
0
 62
7
  6
CONTINUOUS
370
-3
390
F
  0
LAYER
  5
20D
100
AcDbSymbolTableRecord
100
AcDbLayerTableRecord
  2
05__ASM_DEF_DTM_CSYS
 70
0
 62
7
  6
CONTINUOUS
370
-3
390
F
  0
LAYER
  5
20E
100
AcDbSymbolTableRecord
100
AcDbLayerTableRecord
  2
05___PRT_ALL_DTM_CSYS
 70
0
 62
7
  6
CONTINUOUS
370
-3
390
F
  0
LAYER
  5
20F
100
AcDbSymbolTableRecord
100
AcDbLayerTableRecord
  2
05___PRT_DEF_DTM_CSYS
 70
0
 62
7
  6
CONTINUOUS
370
-3
390
F
  0
LAYER
  5
210
100
AcDbSymbolTableRecord
100
AcDbLayerTableRecord
  2
06_ALL_SURFS
 70
0
 62
7
  6
CONTINUOUS
370
-3
390
F
  0
LAYER
  5
211
100
AcDbSymbolTableRecord
100
AcDbLayerTableRecord
  2
06__ASM_ALL_SURFS
 70
0
 62
7
  6
CONTINUOUS
370
-3
390
F
  0
LAYER
  5
212
100
AcDbSymbolTableRecord
100
AcDbLayerTableRecord
  2
06___PRT_ALL_SURFS
 70
0
 62
7
  6
CONTINUOUS
370
-3
390
F
  0
LAYER
  5
213
100
AcDbSymbolTableRecord
100
AcDbLayerTableRecord
  2
07__ASM_ALL_SKELETONS
 70
0
 62
7
  6
CONTINUOUS
370
-3
390
F
  0
LAYER
  5
214
100
AcDbSymbolTableRecord
100
AcDbLayerTableRecord
  2
COPY_GEO_FET
 70
0
 62
7
  6
CONTINUOUS
370
-3
390
F
  0
LAYER
  5
215
100
AcDbSymbolTableRecord
100
AcDbLayerTableRecord
  2
COSMETIC
 70
0
 62
7
  6
CONTINUOUS
370
-3
390
F
  0
LAYER
  5
216
100
AcDbSymbolTableRecord
100
AcDbLayerTableRecord
  2
CUT_REF_SURF
 70
0
 62
7
  6
CONTINUOUS
370
-3
390
F
  0
LAYER
  5
217
100
AcDbSymbolTableRecord
100
AcDbLayerTableRecord
  2
DATESTAMP
 70
0
 62
7
  6
CONTINUOUS
370
-3
390
F
  0
LAYER
  5
218
100
AcDbSymbolTableRecord
100
AcDbLayerTableRecord
  2
DATUM
 70
0
 62
7
  6
CONTINUOUS
370
-3
390
F
  0
LAYER
  5
219
100
AcDbSymbolTableRecord
100
AcDbLayerTableRecord
  2
DATUM_B
 70
0
 62
7
  6
CONTINUOUS
370
-3
390
F
  0
LAYER
  5
21A
100
AcDbSymbolTableRecord
100
AcDbLayerTableRecord
  2
DATUM_PLANES
 70
0
 62
7
  6
CONTINUOUS
370
-3
390
F
  0
LAYER
  5
21B
100
AcDbSymbolTableRecord
100
AcDbLayerTableRecord
  2
DIM
 70
0
 62
7
  6
CONTINUOUS
370
-3
390
F
  0
LAYER
  5
21C
100
AcDbSymbolTableRecord
100
AcDbLayerTableRecord
  2
DIM_1
 70
0
 62
7
  6
CONTINUOUS
370
-3
390
F
  0
LAYER
  5
21D
100
AcDbSymbolTableRecord
100
AcDbLayerTableRecord
  2
DIM_2
 70
0
 62
7
  6
CONTINUOUS
370
-3
390
F
  0
LAYER
  5
21E
100
AcDbSymbolTableRecord
100
AcDbLayerTableRecord
  2
DIM_3
 70
0
 62
7
  6
CONTINUOUS
370
-3
390
F
  0
LAYER
  5
21F
100
AcDbSymbolTableRecord
100
AcDbLayerTableRecord
  2
DIM_4
 70
0
 62
7
  6
CONTINUOUS
370
-3
390
F
  0
LAYER
  5
220
100
AcDbSymbolTableRecord
100
AcDbLayerTableRecord
  2
DIM_5
 70
0
 62
7
  6
CONTINUOUS
370
-3
390
F
  0
LAYER
  5
221
100
AcDbSymbolTableRecord
100
AcDbLayerTableRecord
  2
DIM_6
 70
0
 62
7
  6
CONTINUOUS
370
-3
390
F
  0
LAYER
  5
222
100
AcDbSymbolTableRecord
100
AcDbLayerTableRecord
  2
DIM_7
 70
0
 62
7
  6
CONTINUOUS
370
-3
390
F
  0
LAYER
  5
223
100
AcDbSymbolTableRecord
100
AcDbLayerTableRecord
  2
DIM_8
 70
0
 62
7
  6
CONTINUOUS
370
-3
390
F
  0
LAYER
  5
224
100
AcDbSymbolTableRecord
100
AcDbLayerTableRecord
  2
DTM
 70
0
 62
7
  6
CONTINUOUS
370
-3
390
F
  0
LAYER
  5
225
100
AcDbSymbolTableRecord
100
AcDbLayerTableRecord
  2
EXT_COPY_GEO
 70
0
 62
7
  6
CONTINUOUS
370
-3
390
F
  0
LAYER
  5
226
100
AcDbSymbolTableRecord
100
AcDbLayerTableRecord
  2
INL_10
 70
0
 62
7
  6
CONTINUOUS
370
-3
390
F
  0
LAYER
  5
227
100
AcDbSymbolTableRecord
100
AcDbLayerTableRecord
  2
INL_2
 70
0
 62
7
  6
CONTINUOUS
370
-3
390
F
  0
LAYER
  5
228
100
AcDbSymbolTableRecord
100
AcDbLayerTableRecord
  2
INL_5
 70
0
 62
7
  6
CONTINUOUS
370
-3
390
F
  0
LAYER
  5
229
100
AcDbSymbolTableRecord
100
AcDbLayerTableRecord
  2
INL_6
 70
0
 62
7
  6
CONTINUOUS
370
-3
390
F
  0
LAYER
  5
22A
100
AcDbSymbolTableRecord
100
AcDbLayerTableRecord
  2
INL_7
 70
0
 62
7
  6
CONTINUOUS
370
-3
390
F
  0
LAYER
  5
22B
100
AcDbSymbolTableRecord
100
AcDbLayerTableRecord
  2
INL_8
 70
0
 62
7
  6
CONTINUOUS
370
-3
390
F
  0
LAYER
  5
22C
100
AcDbSymbolTableRecord
100
AcDbLayerTableRecord
  2
LS
 70
0
 62
7
  6
CONTINUOUS
370
-3
390
F
  0
LAYER
  5
22D
100
AcDbSymbolTableRecord
100
AcDbLayerTableRecord
  2
ORIGIN
 70
0
 62
7
  6
CONTINUOUS
370
-3
390
F
  0
LAYER
  5
22E
100
AcDbSymbolTableRecord
100
AcDbLayerTableRecord
  2
PARTNUMBER
 70
0
 62
7
  6
CONTINUOUS
370
-3
390
F
  0
LAYER
  5
22F
100
AcDbSymbolTableRecord
100
AcDbLayerTableRecord
  2
PORT_AREAS
 70
0
 62
7
  6
CONTINUOUS
370
-3
390
F
  0
LAYER
  5
230
100
AcDbSymbolTableRecord
100
AcDbLayerTableRecord
  2
TEXT
 70
0
 62
7
  6
CONTINUOUS
370
-3
390
F
  0
LAYER
  5
231
100
AcDbSymbolTableRecord
100
AcDbLayerTableRecord
  2
THREAD
 70
0
 62
7
  6
CONTINUOUS
370
-3
390
F
  0
LAYER
  5
232
100
AcDbSymbolTableRecord
100
AcDbLayerTableRecord
  2
THREADS
 70
0
 62
7
  6
CONTINUOUS
370
-3
390
F
  0
ENDTAB
  0
TABLE
  2
STYLE
  5
3
100
AcDbSymbolTable
 70
1
  0
STYLE
  5
11
100
AcDbSymbolTableRecord
100
AcDbTextStyleTableRecord
  2
STANDARD
 70
0
 40
0.0
 41
0.8
 50
0.0
 71
0
 42
0.2
  3
txt
  4

  0
ENDTAB
  0
TABLE
  2
VIEW
  5
6
100
AcDbSymbolTable
 70
0
  0
ENDTAB
  0
TABLE
  2
UCS
  5
7
100
AcDbSymbolTable
 70
0
  0
ENDTAB
  0
TABLE
  2
APPID
  5
9
100
AcDbSymbolTable
 70
1
  0
APPID
  5
233
100
AcDbSymbolTableRecord
100
AcDbRegAppTableRecord
  2
ACAD
 70
0
  0
ENDTAB
  0
TABLE
  2
BLOCK_RECORD
  5
1
100
AcDbSymbolTable
 70
0
  0
BLOCK_RECORD
  5
1F
100
AcDbSymbolTableRecord
100
AcDbBlockTableRecord
  2
*MODEL_SPACE
  0
BLOCK_RECORD
  5
1B
100
AcDbSymbolTableRecord
100
AcDbBlockTableRecord
  2
*PAPER_SPACE
  0
ENDTAB
  0
TABLE
  2
DIMSTYLE
  5
A
100
AcDbSymbolTable
 70
1
100
AcDbDimStyleTable
 71
0
  0
DIMSTYLE
105
234
100
AcDbSymbolTableRecord
100
AcDbDimStyleTableRecord
  2
STANDARD
 70
0
  3

  4

 40
1.0
 41
0.1875
 42
0.0625
 43
0.38
 44
0.18
 45
0.0
 46
0.0
 47
0.01
 48
0.01
140
0.15625
141
0.09
142
0.0
143
25.4
144
1.0
145
0.0
146
1.0
147
0.09
 71
0.0
 72
0.0
 73
1
 74
1
 75
0
 76
0
 77
0
 78
4
170
0
171
2
172
0
173
0
174
0
175
0
176
0
177
0
178
0
270
2
271
2
272
2
273
2
274
2
275
0
280
0
281
0
282
0
283
1
284
4
285
0
286
0
287
3
288
0
340
11
  0
ENDTAB
  0
ENDSEC
  0
SECTION
  2
BLOCKS
  0
BLOCK
  5
20
100
AcDbEntity
  8
0
100
AcDbBlockBegin
  2
*MODEL_SPACE
 70
0
 10
0.0
 20
0.0
 30
0.0
  3
*MODEL_SPACE
  1

  0
ENDBLK
  5
21
100
AcDbEntity
  8
0
100
AcDbBlockEnd
  0
BLOCK
  5
1C
100
AcDbEntity
  8
0
100
AcDbBlockBegin
  2
*PAPER_SPACE
 70
0
 10
0.0
 20
0.0
 30
0.0
  3
*PAPER_SPACE
  1

  0
ENDBLK
  5
1D
100
AcDbEntity
  8
0
100
AcDbBlockEnd
  0
ENDSEC
  0
SECTION
  2
ENTITIES
  0
LINE
  5
235
100
AcDbEntity
  8
03__ASM_ALL_CURVES
100
AcDbLine
 62
4
  6
CONTINUOUS
 10
8.0519203446
 20
5.5050916618
 11
8.0424773401
 21
5.5121739118
  0
LINE
  5
236
100
AcDbEntity
  8
03__ASM_ALL_CURVES
100
AcDbLine
 62
4
  6
CONTINUOUS
 10
8.1180213423
 20
5.5121739118
 11
8.1463503423
 21
5.5050916618
  0
LINE
  5
237
100
AcDbEntity
  8
03__ASM_ALL_CURVES
100
AcDbLine
 62
4
  6
CONTINUOUS
 10
8.0991353434
 20
5.5263384118
 11
8.1180213423
 21
5.5121739118
  0
LINE
  5
238
100
AcDbEntity
  8
03__ASM_ALL_CURVES
100
AcDbLine
 62
4
  6
CONTINUOUS
 10
8.0708063401
 20
5.5617496618
 11
8.0802493446
 21
5.5546674118
  0
LINE
  5
239
100
AcDbEntity
  8
03__ASM_ALL_CURVES
100
AcDbLine
 62
4
  6
CONTINUOUS
 10
8.0519203446
 20
5.7317236618
 11
8.0424773401
 21
5.7388059118
  0
LINE
  5
23A
100
AcDbEntity
  8
03__ASM_ALL_CURVES
100
AcDbLine
 62
4
  6
CONTINUOUS
 10
8.0991353434
 20
5.7529704118
 11
8.1180213423
 21
5.7388059118
  0
LINE
  5
23B
100
AcDbEntity
  8
03__ASM_ALL_CURVES
100
AcDbLine
 62
4
  6
CONTINUOUS
 10
8.0708063401
 20
5.7883816618
 11
8.0802493446
 21
5.7812994118
  0
LINE
  5
23C
100
AcDbEntity
  8
03__ASM_ALL_CURVES
100
AcDbLine
 62
4
  6
CONTINUOUS
 10
8.1180213423
 20
5.7388059118
 11
8.1463503423
 21
5.7317236618
  0
LINE
  5
23D
100
AcDbEntity
  8
03__ASM_ALL_CURVES
100
AcDbLine
 62
4
  6
CONTINUOUS
 10
8.1085783412
 20
5.9087799118
 11
8.1274643418
 21
5.9016976618
  0
LINE
  5
23E
100
AcDbEntity
  8
03__ASM_ALL_CURVES
100
AcDbLine
 62
4
  6
CONTINUOUS
 10
8.1274643418
 20
5.9016976618
 11
8.136907342
 21
5.8946154118
  0
LINE
  5
23F
100
AcDbEntity
  8
03__ASM_ALL_CURVES
100
AcDbLine
 62
4
  6
CONTINUOUS
 10
8.0330343423
 20
6.1070829118
 11
8.0519203446
 21
6.0929184118
  0
LINE
  5
240
100
AcDbEntity
  8
03__ASM_ALL_CURVES
100
AcDbLine
 62
4
  6
CONTINUOUS
 10
8.1274643418
 20
6.2416456618
 11
8.136907342
 21
6.2345634118
  0
LINE
  5
241
100
AcDbEntity
  8
03__ASM_ALL_CURVES
100
AcDbLine
 62
4
  6
CONTINUOUS
 10
8.0424773401
 20
5.5121739118
 11
8.0330343423
 21
5.5263384118
  0
LINE
  5
242
100
AcDbEntity
  8
03__ASM_ALL_CURVES
100
AcDbLine
 62
4
  6
CONTINUOUS
 10
8.0802493446
 20
5.5546674118
 11
8.0991353434
 21
5.5263384118
  0
LINE
  5
243
100
AcDbEntity
  8
03__ASM_ALL_CURVES
100
AcDbLine
 62
4
  6
CONTINUOUS
 10
8.0424773401
 20
5.7388059118
 11
8.0330343423
 21
5.7529704118
  0
LINE
  5
244
100
AcDbEntity
  8
03__ASM_ALL_CURVES
100
AcDbLine
 62
4
  6
CONTINUOUS
 10
8.0802493446
 20
5.7812994118
 11
8.0991353434
 21
5.7529704118
  0
LINE
  5
245
100
AcDbEntity
  8
03__ASM_ALL_CURVES
100
AcDbLine
 62
4
  6
CONTINUOUS
 10
8.0802493446
 20
5.8521219118
 11
8.0708063401
 21
5.8662864118
  0
LINE
  5
246
100
AcDbEntity
  8
03__ASM_ALL_CURVES
100
AcDbLine
 62
4
  6
CONTINUOUS
 10
8.136907342
 20
5.8946154118
 11
8.1463503423
 21
5.8804509118
  0
LINE
  5
247
100
AcDbEntity
  8
03__ASM_ALL_CURVES
100
AcDbLine
 62
4
  6
CONTINUOUS
 10
9.1580343423
 20
5.5334206618
 11
9.2713503423
 21
5.5334206618
  0
LINE
  5
248
100
AcDbEntity
  8
03__ASM_ALL_CURVES
100
AcDbLine
 62
4
  6
CONTINUOUS
 10
8.0519203446
 20
5.5617496618
 11
8.0708063401
 21
5.5617496618
  0
LINE
  5
249
100
AcDbEntity
  8
03__ASM_ALL_CURVES
100
AcDbLine
 62
4
  6
CONTINUOUS
 10
9.2713503423
 20
5.6644422868
 11
9.2571858419
 21
5.6644422868
  0
LINE
  5
24A
100
AcDbEntity
  8
03__ASM_ALL_CURVES
100
AcDbLine
 62
4
  6
CONTINUOUS
 10
8.1463503423
 20
5.6644422868
 11
8.1321858419
 21
5.6644422868
  0
LINE
  5
24B
100
AcDbEntity
  8
03__ASM_ALL_CURVES
100
AcDbLine
 62
4
  6
CONTINUOUS
 10
8.0330343423
 20
5.8592041618
 11
8.0802493446
 21
5.8521219118
  0
LINE
  5
24C
100
AcDbEntity
  8
03__ASM_ALL_CURVES
100
AcDbLine
 62
4
  6
CONTINUOUS
 10
8.0519203446
 20
6.0929184118
 11
8.0802493446
 21
6.0858361618
  0
LINE
  5
24D
100
AcDbEntity
  8
03__ASM_ALL_CURVES
100
AcDbLine
 62
4
  6
CONTINUOUS
 10
9.2430213423
 20
5.8521219118
 11
9.2713503423
 21
5.8450396618
  0
LINE
  5
24E
100
AcDbEntity
  8
03__ASM_ALL_CURVES
100
AcDbLine
 62
4
  6
CONTINUOUS
 10
8.1085783412
 20
6.2487279118
 11
8.1274643418
 21
6.2416456618
  0
LINE
  5
24F
100
AcDbEntity
  8
03__ASM_ALL_CURVES
100
AcDbLine
 62
4
  6
CONTINUOUS
 10
8.0708063401
 20
6.3407971618
 11
8.0330343423
 21
6.3549616618
  0
LINE
  5
250
100
AcDbEntity
  8
03__ASM_ALL_CURVES
100
AcDbLine
 62
4
  6
CONTINUOUS
 10
9.1769203446
 20
5.8450396618
 11
9.1674773401
 21
5.8521219118
  0
LINE
  5
251
100
AcDbEntity
  8
03__ASM_ALL_CURVES
100
AcDbLine
 62
4
  6
CONTINUOUS
 10
8.0802493446
 20
6.1920699118
 11
8.0708063401
 21
6.2062344118
  0
LINE
  5
252
100
AcDbEntity
  8
03__ASM_ALL_CURVES
100
AcDbLine
 62
4
  6
CONTINUOUS
 10
8.136907342
 20
6.2345634118
 11
8.1463503423
 21
6.2203989118
  0
LINE
  5
253
100
AcDbEntity
  8
03__ASM_ALL_CURVES
100
AcDbLine
 62
4
  6
CONTINUOUS
 10
9.1580343423
 20
5.7600526618
 11
9.2713503423
 21
5.7600526618
  0
LINE
  5
254
100
AcDbEntity
  8
03__ASM_ALL_CURVES
100
AcDbLine
 62
4
  6
CONTINUOUS
 10
8.0519203446
 20
5.7883816618
 11
8.0708063401
 21
5.7883816618
  0
LINE
  5
255
100
AcDbEntity
  8
03__ASM_ALL_CURVES
100
AcDbLine
 62
4
  6
CONTINUOUS
 10
9.1769203446
 20
5.9016976618
 11
9.1958063401
 21
5.9016976618
  0
LINE
  5
256
100
AcDbEntity
  8
03__ASM_ALL_CURVES
100
AcDbLine
 62
4
  6
CONTINUOUS
 10
8.0330343423
 20
6.1991521618
 11
8.0802493446
 21
6.1920699118
  0
LINE
  5
257
100
AcDbEntity
  8
03__ASM_ALL_CURVES
100
AcDbLine
 62
4
  6
CONTINUOUS
 10
8.1463503423
 20
6.3266326618
 11
8.0991353434
 21
6.3337149118
  0
LINE
  5
258
100
AcDbEntity
  8
03__ASM_ALL_CURVES
100
AcDbLine
 62
4
  6
CONTINUOUS
 10
8.0991353434
 20
6.3337149118
 11
8.0708063401
 21
6.3407971618
  0
LINE
  5
259
100
AcDbEntity
  8
03__ASM_ALL_CURVES
100
AcDbLine
 62
4
  6
CONTINUOUS
 10
9.1769203446
 20
6.0929184118
 11
9.2052493446
 21
6.0858361618
  0
LINE
  5
25A
100
AcDbEntity
  8
03__ASM_ALL_CURVES
100
AcDbLine
 62
4
  6
CONTINUOUS
 10
9.2430213423
 20
6.1920699118
 11
9.2713503423
 21
6.1849876618
  0
LINE
  5
25B
100
AcDbEntity
  8
03__ASM_ALL_CURVES
100
AcDbLine
 62
4
  6
CONTINUOUS
 10
8.1085783412
 20
6.7019919118
 11
8.1274643418
 21
6.6949096618
  0
LINE
  5
25C
100
AcDbEntity
  8
03__ASM_ALL_CURVES
100
AcDbLine
 62
4
  6
CONTINUOUS
 10
9.2241353434
 20
5.8662864118
 11
9.2430213423
 21
5.8521219118
  0
LINE
  5
25D
100
AcDbEntity
  8
03__ASM_ALL_CURVES
100
AcDbLine
 62
4
  6
CONTINUOUS
 10
8.1274643418
 20
6.6949096618
 11
8.136907342
 21
6.6878274118
  0
LINE
  5
25E
100
AcDbEntity
  8
03__ASM_ALL_CURVES
100
AcDbLine
 62
4
  6
CONTINUOUS
 10
9.1958063401
 20
5.9016976618
 11
9.2052493446
 21
5.8946154118
  0
LINE
  5
25F
100
AcDbEntity
  8
03__ASM_ALL_CURVES
100
AcDbLine
 62
4
  6
CONTINUOUS
 10
8.1274643418
 20
6.7869789118
 11
8.1463503423
 21
6.7728144118
  0
LINE
  5
260
100
AcDbEntity
  8
03__ASM_ALL_CURVES
100
AcDbLine
 62
4
  6
CONTINUOUS
 10
9.1580343423
 20
6.1070829118
 11
9.1769203446
 21
6.0929184118
  0
LINE
  5
261
100
AcDbEntity
  8
03__ASM_ALL_CURVES
100
AcDbLine
 62
4
  6
CONTINUOUS
 10
9.1769203446
 20
6.1849876618
 11
9.1674773401
 21
6.1920699118
  0
LINE
  5
262
100
AcDbEntity
  8
03__ASM_ALL_CURVES
100
AcDbLine
 62
4
  6
CONTINUOUS
 10
9.2241353434
 20
6.2062344118
 11
9.2430213423
 21
6.1920699118
  0
LINE
  5
263
100
AcDbEntity
  8
03__ASM_ALL_CURVES
100
AcDbLine
 62
4
  6
CONTINUOUS
 10
9.1958063401
 20
6.2416456618
 11
9.2052493446
 21
6.2345634118
  0
LINE
  5
264
100
AcDbEntity
  8
03__ASM_ALL_CURVES
100
AcDbLine
 62
4
  6
CONTINUOUS
 10
8.0802493446
 20
6.6453339118
 11
8.0708063401
 21
6.6594984118
  0
LINE
  5
265
100
AcDbEntity
  8
03__ASM_ALL_CURVES
100
AcDbLine
 62
4
  6
CONTINUOUS
 10
8.136907342
 20
6.6878274118
 11
8.1463503423
 21
6.6736629118
  0
LINE
  5
266
100
AcDbEntity
  8
03__ASM_ALL_CURVES
100
AcDbLine
 62
4
  6
CONTINUOUS
 10
11.2816315923
 20
13.342799664
 11
11.2957960923
 21
13.3522426618
  0
LINE
  5
267
100
AcDbEntity
  8
03__ASM_ALL_CURVES
100
AcDbLine
 62
4
  6
CONTINUOUS
 10
11.2816315923
 20
13.2955846618
 11
11.2957960923
 21
13.3050276595
  0
LINE
  5
268
100
AcDbEntity
  8
03__ASM_ALL_CURVES
100
AcDbLine
 62
4
  6
CONTINUOUS
 10
11.3241250923
 20
13.314470664
 11
11.3099605923
 21
13.3050276595
  0
LINE
  5
269
100
AcDbEntity
  8
03__ASM_ALL_CURVES
100
AcDbLine
 62
4
  6
CONTINUOUS
 10
11.3241250923
 20
13.2483696621
 11
11.3099605923
 21
13.2389266618
  0
LINE
  5
26A
100
AcDbEntity
  8
03__ASM_ALL_CURVES
100
AcDbLine
 62
4
  6
CONTINUOUS
 10
11.2816315923
 20
13.181049664
 11
11.2957960923
 21
13.1904926618
  0
LINE
  5
26B
100
AcDbEntity
  8
03__ASM_ALL_CURVES
100
AcDbLine
 62
4
  6
CONTINUOUS
 10
12.1881595923
 20
13.2955846618
 11
12.2094063423
 21
13.3050276595
  0
LINE
  5
26C
100
AcDbEntity
  8
03__ASM_ALL_CURVES
100
AcDbLine
 62
4
  6
CONTINUOUS
 10
12.3439690923
 20
13.2955846618
 11
12.3227223423
 21
13.2861416607
  0
LINE
  5
26D
100
AcDbEntity
  8
03__ASM_ALL_CURVES
100
AcDbLine
 62
4
  6
CONTINUOUS
 10
8.0802493446
 20
6.0858361618
 11
8.0991353434
 21
6.0858361618
  0
LINE
  5
26E
100
AcDbEntity
  8
03__ASM_ALL_CURVES
100
AcDbLine
 62
4
  6
CONTINUOUS
 10
9.2052493446
 20
6.0858361618
 11
9.2241353434
 21
6.0858361618
  0
LINE
  5
26F
100
AcDbEntity
  8
03__ASM_ALL_CURVES
100
AcDbLine
 62
4
  6
CONTINUOUS
 10
9.1769203446
 20
6.2416456618
 11
9.1958063401
 21
6.2416456618
  0
LINE
  5
270
100
AcDbEntity
  8
03__ASM_ALL_CURVES
100
AcDbLine
 62
4
  6
CONTINUOUS
 10
9.2430213423
 20
6.2912214118
 11
9.2335783412
 21
6.2912214118
  0
LINE
  5
271
100
AcDbEntity
  8
03__ASM_ALL_CURVES
100
AcDbLine
 62
4
  6
CONTINUOUS
 10
9.1863633423
 20
6.2983036618
 11
9.1769203446
 21
6.2983036618
  0
LINE
  5
272
100
AcDbEntity
  8
03__ASM_ALL_CURVES
100
AcDbLine
 62
4
  6
CONTINUOUS
 10
9.1769203446
 20
6.3549616618
 11
9.1863633423
 21
6.3549616618
  0
LINE
  5
273
100
AcDbEntity
  8
03__ASM_ALL_CURVES
100
AcDbLine
 62
4
  6
CONTINUOUS
 10
9.2335783412
 20
6.3620439118
 11
9.2430213423
 21
6.3620439118
  0
LINE
  5
274
100
AcDbEntity
  8
03__ASM_ALL_CURVES
100
AcDbLine
 62
4
  6
CONTINUOUS
 10
8.0330343423
 20
6.6524161618
 11
8.0802493446
 21
6.6453339118
  0
LINE
  5
275
100
AcDbEntity
  8
03__ASM_ALL_CURVES
100
AcDbLine
 62
4
  6
CONTINUOUS
 10
8.0991353434
 20
6.7940611618
 11
8.1274643418
 21
6.7869789118
  0
LINE
  5
276
100
AcDbEntity
  8
03__ASM_ALL_CURVES
100
AcDbLine
 62
4
  6
CONTINUOUS
 10
9.1580343423
 20
6.5745114118
 11
9.2430213423
 21
6.5249356618
  0
LINE
  5
277
100
AcDbEntity
  8
03__ASM_ALL_CURVES
100
AcDbLine
 62
4
  6
CONTINUOUS
 10
9.1580343423
 20
6.6878274118
 11
9.2430213423
 21
6.6382516618
  0
LINE
  5
278
100
AcDbEntity
  8
03__ASM_ALL_CURVES
100
AcDbLine
 62
4
  6
CONTINUOUS
 10
9.1769203446
 20
6.2983036618
 11
9.1674773401
 21
6.3053859118
  0
LINE
  5
279
100
AcDbEntity
  8
03__ASM_ALL_CURVES
100
AcDbLine
 62
4
  6
CONTINUOUS
 10
9.2335783412
 20
6.2912214118
 11
9.2146923423
 21
6.3053859118
  0
LINE
  5
27A
100
AcDbEntity
  8
03__ASM_ALL_CURVES
100
AcDbLine
 62
4
  6
CONTINUOUS
 10
9.1863633423
 20
6.3549616618
 11
9.1958063401
 21
6.3478794118
  0
LINE
  5
27B
100
AcDbEntity
  8
03__ASM_ALL_CURVES
100
AcDbLine
 62
4
  6
CONTINUOUS
 10
9.2430213423
 20
6.3620439118
 11
9.261907342
 21
6.3478794118
  0
LINE
  5
27C
100
AcDbEntity
  8
03__ASM_ALL_CURVES
100
AcDbLine
 62
4
  6
CONTINUOUS
 10
9.1674773401
 20
5.8521219118
 11
9.1580343423
 21
5.8662864118
  0
LINE
  5
27D
100
AcDbEntity
  8
03__ASM_ALL_CURVES
100
AcDbLine
 62
4
  6
CONTINUOUS
 10
9.2052493446
 20
5.8946154118
 11
9.2241353434
 21
5.8662864118
  0
LINE
  5
27E
100
AcDbEntity
  8
03__ASM_ALL_CURVES
100
AcDbLine
 62
4
  6
CONTINUOUS
 10
11.2816315923
 20
13.1338346618
 11
11.2957960923
 21
13.1432776595
  0
LINE
  5
27F
100
AcDbEntity
  8
03__ASM_ALL_CURVES
100
AcDbLine
 62
4
  6
CONTINUOUS
 10
11.3241250923
 20
13.152720664
 11
11.3099605923
 21
13.1432776595
  0
LINE
  5
280
100
AcDbEntity
  8
03__ASM_ALL_CURVES
100
AcDbLine
 62
4
  6
CONTINUOUS
 10
11.3241250923
 20
13.0866196621
 11
11.3099605923
 21
13.0771766618
  0
LINE
  5
281
100
AcDbEntity
  8
03__ASM_ALL_CURVES
100
AcDbLine
 62
4
  6
CONTINUOUS
 10
11.8482115923
 20
13.342799664
 11
11.8623760923
 21
13.3522426618
  0
LINE
  5
282
100
AcDbEntity
  8
03__ASM_ALL_CURVES
100
AcDbLine
 62
4
  6
CONTINUOUS
 10
11.8907050923
 20
13.3050276595
 11
11.8623760923
 21
13.2861416607
  0
LINE
  5
283
100
AcDbEntity
  8
03__ASM_ALL_CURVES
100
AcDbLine
 62
4
  6
CONTINUOUS
 10
11.9615275923
 20
13.342799664
 11
11.9756920923
 21
13.3522426618
  0
LINE
  5
284
100
AcDbEntity
  8
03__ASM_ALL_CURVES
100
AcDbLine
 62
4
  6
CONTINUOUS
 10
12.0040210923
 20
13.314470664
 11
11.9898565923
 21
13.3050276595
  0
LINE
  5
285
100
AcDbEntity
  8
03__ASM_ALL_CURVES
100
AcDbLine
 62
4
  6
CONTINUOUS
 10
11.8482115923
 20
13.181049664
 11
11.8623760923
 21
13.1904926618
  0
LINE
  5
286
100
AcDbEntity
  8
03__ASM_ALL_CURVES
100
AcDbLine
 62
4
  6
CONTINUOUS
 10
9.2241353434
 20
6.0858361618
 11
9.2524643418
 21
6.0929184118
  0
LINE
  5
287
100
AcDbEntity
  8
03__ASM_ALL_CURVES
100
AcDbLine
 62
4
  6
CONTINUOUS
 10
9.2713503423
 20
6.4576542868
 11
9.2571858419
 21
6.4576542868
  0
LINE
  5
288
100
AcDbEntity
  8
03__ASM_ALL_CURVES
100
AcDbLine
 62
4
  6
CONTINUOUS
 10
8.1463503423
 20
6.4576542868
 11
8.1321858419
 21
6.4576542868
  0
LINE
  5
289
100
AcDbEntity
  8
03__ASM_ALL_CURVES
100
AcDbLine
 62
4
  6
CONTINUOUS
 10
8.0330343423
 20
6.5532646618
 11
8.1463503423
 21
6.5532646618
  0
LINE
  5
28A
100
AcDbEntity
  8
03__ASM_ALL_CURVES
100
AcDbLine
 62
4
  6
CONTINUOUS
 10
9.2713503423
 20
6.5745114118
 11
9.1580343423
 21
6.5745114118
  0
LINE
  5
28B
100
AcDbEntity
  8
03__ASM_ALL_CURVES
100
AcDbLine
 62
4
  6
CONTINUOUS
 10
9.2713503423
 20
6.6878274118
 11
9.1580343423
 21
6.6878274118
  0
LINE
  5
28C
100
AcDbEntity
  8
03__ASM_ALL_CURVES
100
AcDbLine
 62
4
  6
CONTINUOUS
 10
9.2241353434
 20
6.7940611618
 11
9.2524643418
 21
6.7869789118
  0
LINE
  5
28D
100
AcDbEntity
  8
03__ASM_ALL_CURVES
100
AcDbLine
 62
4
  6
CONTINUOUS
 10
9.2524643418
 20
6.7869789118
 11
9.2713503423
 21
6.7728144118
  0
LINE
  5
28E
100
AcDbEntity
  8
03__ASM_ALL_CURVES
100
AcDbLine
 62
4
  6
CONTINUOUS
 10
9.1674773401
 20
6.1920699118
 11
9.1580343423
 21
6.2062344118
  0
LINE
  5
28F
100
AcDbEntity
  8
03__ASM_ALL_CURVES
100
AcDbLine
 62
4
  6
CONTINUOUS
 10
9.2052493446
 20
6.2345634118
 11
9.2241353434
 21
6.2062344118
  0
LINE
  5
290
100
AcDbEntity
  8
03__ASM_ALL_CURVES
100
AcDbLine
 62
4
  6
CONTINUOUS
 10
9.1674773401
 20
6.3053859118
 11
9.1580343423
 21
6.3195504118
  0
LINE
  5
291
100
AcDbEntity
  8
03__ASM_ALL_CURVES
100
AcDbLine
 62
4
  6
CONTINUOUS
 10
9.2146923423
 20
6.3053859118
 11
9.2052493446
 21
6.3195504118
  0
LINE
  5
292
100
AcDbEntity
  8
03__ASM_ALL_CURVES
100
AcDbLine
 62
4
  6
CONTINUOUS
 10
9.1958063401
 20
6.3478794118
 11
9.2052493446
 21
6.3337149118
  0
LINE
  5
293
100
AcDbEntity
  8
03__ASM_ALL_CURVES
100
AcDbLine
 62
4
  6
CONTINUOUS
 10
9.261907342
 20
6.3478794118
 11
9.2713503423
 21
6.3337149118
  0
LINE
  5
294
100
AcDbEntity
  8
03__ASM_ALL_CURVES
100
AcDbLine
 62
4
  6
CONTINUOUS
 10
8.0330343423
 20
6.6949096618
 11
8.0330343423
 21
6.6524161618
  0
LINE
  5
295
100
AcDbEntity
  8
03__ASM_ALL_CURVES
100
AcDbLine
 62
4
  6
CONTINUOUS
 10
8.0330343423
 20
6.3549616618
 11
8.0330343423
 21
6.2983036618
  0
LINE
  5
296
100
AcDbEntity
  8
03__ASM_ALL_CURVES
100
AcDbLine
 62
4
  6
CONTINUOUS
 10
8.0330343423
 20
6.2416456618
 11
8.0330343423
 21
6.1991521618
  0
LINE
  5
297
100
AcDbEntity
  8
03__ASM_ALL_CURVES
100
AcDbLine
 62
4
  6
CONTINUOUS
 10
8.0330343423
 20
5.9016976618
 11
8.0330343423
 21
5.8592041618
  0
LINE
  5
298
100
AcDbEntity
  8
03__ASM_ALL_CURVES
100
AcDbLine
 62
4
  6
CONTINUOUS
 10
8.0330343423
 20
5.5263384118
 11
8.0330343423
 21
5.5405029118
  0
LINE
  5
299
100
AcDbEntity
  8
03__ASM_ALL_CURVES
100
AcDbLine
 62
4
  6
CONTINUOUS
 10
8.0330343423
 20
5.7529704118
 11
8.0330343423
 21
5.7671349118
  0
LINE
  5
29A
100
AcDbEntity
  8
03__ASM_ALL_CURVES
100
AcDbLine
 62
4
  6
CONTINUOUS
 10
8.0708063401
 20
5.8662864118
 11
8.0708063401
 21
5.8804509118
  0
LINE
  5
29B
100
AcDbEntity
  8
03__ASM_ALL_CURVES
100
AcDbLine
 62
4
  6
CONTINUOUS
 10
8.0708063401
 20
6.2062344118
 11
8.0708063401
 21
6.2203989118
  0
LINE
  5
29C
100
AcDbEntity
  8
03__ASM_ALL_CURVES
100
AcDbLine
 62
4
  6
CONTINUOUS
 10
8.0708063401
 20
6.6594984118
 11
8.0708063401
 21
6.6736629118
  0
LINE
  5
29D
100
AcDbEntity
  8
03__ASM_ALL_CURVES
100
AcDbLine
 62
4
  6
CONTINUOUS
 10
8.0896923423
 20
8.3072686618
 11
8.0896923423
 21
7.2898186618
  0
LINE
  5
29E
100
AcDbEntity
  8
0
100
AcDbLine
 62
7
  6
CONTINUOUS
 10
8.0896923423
 20
8.4205846618
 11
8.0896923423
 21
13.2955846618
  0
LINE
  5
29F
100
AcDbEntity
  8
03__ASM_ALL_CURVES
100
AcDbLine
 62
4
  6
CONTINUOUS
 10
8.1463503423
 20
6.6736629118
 11
8.1463503423
 21
6.6594984118
  0
LINE
  5
2A0
100
AcDbEntity
  8
03__ASM_ALL_CURVES
100
AcDbLine
 62
4
  6
CONTINUOUS
 10
8.1463503423
 20
6.4682776618
 11
8.1463503423
 21
6.4576542868
  0
LINE
  5
2A1
100
AcDbEntity
  8
03__ASM_ALL_CURVES
100
AcDbLine
 62
4
  6
CONTINUOUS
 10
8.1463503423
 20
6.2203989118
 11
8.1463503423
 21
6.2062344118
  0
LINE
  5
2A2
100
AcDbEntity
  8
03__ASM_ALL_CURVES
100
AcDbLine
 62
4
  6
CONTINUOUS
 10
8.1463503423
 20
5.8804509118
 11
8.1463503423
 21
5.8662864118
  0
LINE
  5
2A3
100
AcDbEntity
  8
03__ASM_ALL_CURVES
100
AcDbLine
 62
4
  6
CONTINUOUS
 10
8.1463503423
 20
5.6750656618
 11
8.1463503423
 21
5.6644422868
  0
LINE
  5
2A4
100
AcDbEntity
  8
03__ASM_ALL_CURVES
100
AcDbLine
 62
4
  6
CONTINUOUS
 10
8.1463503423
 20
5.5050916618
 11
8.1463503423
 21
5.5617496618
  0
LINE
  5
2A5
100
AcDbEntity
  8
03__ASM_ALL_CURVES
100
AcDbLine
 62
4
  6
CONTINUOUS
 10
8.1463503423
 20
5.7317236618
 11
8.1463503423
 21
5.7883816618
  0
LINE
  5
2A6
100
AcDbEntity
  8
03__ASM_ALL_CURVES
100
AcDbLine
 62
4
  6
CONTINUOUS
 10
12.0040210923
 20
13.2483696621
 11
11.9898565923
 21
13.2389266618
  0
LINE
  5
2A7
100
AcDbEntity
  8
03__ASM_ALL_CURVES
100
AcDbLine
 62
4
  6
CONTINUOUS
 10
11.8907050923
 20
13.1432776595
 11
11.8623760923
 21
13.1243916607
  0
LINE
  5
2A8
100
AcDbEntity
  8
03__ASM_ALL_CURVES
100
AcDbLine
 62
4
  6
CONTINUOUS
 10
12.1952418423
 20
13.342799664
 11
12.2094063423
 21
13.3522426618
  0
LINE
  5
2A9
100
AcDbEntity
  8
03__ASM_ALL_CURVES
100
AcDbLine
 62
4
  6
CONTINUOUS
 10
11.9615275923
 20
13.181049664
 11
11.9756920923
 21
13.1904926618
  0
LINE
  5
2AA
100
AcDbEntity
  8
03__ASM_ALL_CURVES
100
AcDbLine
 62
4
  6
CONTINUOUS
 10
12.0040210923
 20
13.1432776595
 11
11.9756920923
 21
13.1243916607
  0
LINE
  5
2AB
100
AcDbEntity
  8
03__ASM_ALL_CURVES
100
AcDbLine
 62
4
  6
CONTINUOUS
 10
12.3085578423
 20
13.342799664
 11
12.3227223423
 21
13.3522426618
  0
LINE
  5
2AC
100
AcDbEntity
  8
03__ASM_ALL_CURVES
100
AcDbLine
 62
4
  6
CONTINUOUS
 10
12.2235708423
 20
13.2483696621
 11
12.2094063423
 21
13.2389266618
  0
LINE
  5
2AD
100
AcDbEntity
  8
03__ASM_ALL_CURVES
100
AcDbLine
 62
4
  6
CONTINUOUS
 10
12.3368868423
 20
13.2483696621
 11
12.3227223423
 21
13.2389266618
  0
LINE
  5
2AE
100
AcDbEntity
  8
03__ASM_ALL_CURVES
100
AcDbLine
 62
4
  6
CONTINUOUS
 10
8.0991353434
 20
6.0858361618
 11
8.1274643418
 21
6.0929184118
  0
LINE
  5
2AF
100
AcDbEntity
  8
03__ASM_ALL_CURVES
100
AcDbLine
 62
4
  6
CONTINUOUS
 10
8.0802493446
 20
6.7940611618
 11
8.0991353434
 21
6.7940611618
  0
LINE
  5
2B0
100
AcDbEntity
  8
03__ASM_ALL_CURVES
100
AcDbLine
 62
4
  6
CONTINUOUS
 10
9.2052493446
 20
6.7940611618
 11
9.2241353434
 21
6.7940611618
  0
LINE
  5
2B1
100
AcDbEntity
  8
0
100
AcDbLine
 62
7
  6
CONTINUOUS
 10
8.5059630932
 20
7.5648125177
 11
8.5946923423
 21
7.5135846618
  0
LINE
  5
2B2
100
AcDbEntity
  8
0
100
AcDbLine
 62
7
  6
CONTINUOUS
 10
8.4351923423
 20
8.4205846618
 11
8.4351923423
 21
8.2995846618
  0
LINE
  5
2B3
100
AcDbEntity
  8
0
100
AcDbLine
 62
7
  6
CONTINUOUS
 10
8.5056923423
 20
8.2588814678
 11
8.5056923423
 21
7.5649688357
  0
LINE
  5
2B4
100
AcDbEntity
  8
0
100
AcDbLine
 62
7
  6
CONTINUOUS
 10
8.5060533434
 20
8.2588814678
 11
8.5060533434
 21
7.5649688357
  0
LINE
  5
2B5
100
AcDbEntity
  8
03__ASM_ALL_CURVES
100
AcDbLine
 62
4
  6
CONTINUOUS
 10
12.8822200923
 20
13.1904926618
 11
12.8680555923
 21
13.181049664
  0
LINE
  5
2B6
100
AcDbEntity
  8
03__ASM_ALL_CURVES
100
AcDbLine
 62
4
  6
CONTINUOUS
 10
9.1769203446
 20
6.7869789118
 11
9.2052493446
 21
6.7940611618
  0
LINE
  5
2B7
100
AcDbEntity
  8
0
100
AcDbLine
 62
7
  6
CONTINUOUS
 10
8.8407813412
 20
8.2588814678
 11
8.8407813412
 21
7.5649688357
  0
LINE
  5
2B8
100
AcDbEntity
  8
0
100
AcDbLine
 62
7
  6
CONTINUOUS
 10
8.8799643445
 20
8.2588814678
 11
8.8799643445
 21
7.5649688357
  0
LINE
  5
2B9
100
AcDbEntity
  8
03__ASM_ALL_CURVES
100
AcDbLine
 62
4
  6
CONTINUOUS
 10
11.0974930923
 20
13.3522426618
 11
11.0479173423
 21
13.2672556618
  0
LINE
  5
2BA
100
AcDbEntity
  8
03__ASM_ALL_CURVES
100
AcDbLine
 62
4
  6
CONTINUOUS
 10
11.2745493423
 20
13.3333566595
 11
11.2816315923
 21
13.342799664
  0
LINE
  5
2BB
100
AcDbEntity
  8
03__ASM_ALL_CURVES
100
AcDbLine
 62
4
  6
CONTINUOUS
 10
11.2674670923
 20
13.2766986629
 11
11.2816315923
 21
13.2955846618
  0
LINE
  5
2BC
100
AcDbEntity
  8
03__ASM_ALL_CURVES
100
AcDbLine
 62
4
  6
CONTINUOUS
 10
11.3312073423
 20
13.3239136618
 11
11.3241250923
 21
13.314470664
  0
LINE
  5
2BD
100
AcDbEntity
  8
03__ASM_ALL_CURVES
100
AcDbLine
 62
4
  6
CONTINUOUS
 10
11.3382895923
 20
13.2672556618
 11
11.3241250923
 21
13.2483696621
  0
LINE
  5
2BE
100
AcDbEntity
  8
03__ASM_ALL_CURVES
100
AcDbLine
 62
4
  6
CONTINUOUS
 10
11.2745493423
 20
13.1716066595
 11
11.2816315923
 21
13.181049664
  0
LINE
  5
2BF
100
AcDbEntity
  8
03__ASM_ALL_CURVES
100
AcDbLine
 62
4
  6
CONTINUOUS
 10
11.2674670923
 20
13.1149486629
 11
11.2816315923
 21
13.1338346618
  0
LINE
  5
2C0
100
AcDbEntity
  8
03__ASM_ALL_CURVES
100
AcDbLine
 62
4
  6
CONTINUOUS
 10
11.3312073423
 20
13.1621636618
 11
11.3241250923
 21
13.152720664
  0
LINE
  5
2C1
100
AcDbEntity
  8
03__ASM_ALL_CURVES
100
AcDbLine
 62
4
  6
CONTINUOUS
 10
11.3382895923
 20
13.1055056618
 11
11.3241250923
 21
13.0866196621
  0
LINE
  5
2C2
100
AcDbEntity
  8
03__ASM_ALL_CURVES
100
AcDbLine
 62
4
  6
CONTINUOUS
 10
11.6499085923
 20
13.3522426618
 11
11.6357440923
 21
13.3333566595
  0
LINE
  5
2C3
100
AcDbEntity
  8
03__ASM_ALL_CURVES
100
AcDbLine
 62
4
  6
CONTINUOUS
 10
12.9105490923
 20
13.0866196621
 11
12.8963845923
 21
13.0771766618
  0
LINE
  5
2C4
100
AcDbEntity
  8
03__ASM_ALL_CURVES
100
AcDbLine
 62
4
  6
CONTINUOUS
 10
8.0519203446
 20
6.7869789118
 11
8.0802493446
 21
6.7940611618
  0
LINE
  5
2C5
100
AcDbEntity
  8
03__ASM_ALL_CURVES
100
AcDbLine
 62
4
  6
CONTINUOUS
 10
12.1031725923
 20
7.4569266618
 11
12.0890080923
 21
7.4569266618
  0
LINE
  5
2C6
100
AcDbEntity
  8
03__ASM_ALL_CURVES
100
AcDbLine
 62
4
  6
CONTINUOUS
 10
12.0111033423
 20
7.4569266618
 11
12.0004799673
 21
7.4569266618
  0
LINE
  5
2C7
100
AcDbEntity
  8
03__ASM_ALL_CURVES
100
AcDbLine
 62
4
  6
CONTINUOUS
 10
11.2178913423
 20
7.4569266618
 11
11.2072679673
 21
7.4569266618
  0
LINE
  5
2C8
100
AcDbEntity
  8
03__ASM_ALL_CURVES
100
AcDbLine
 62
4
  6
CONTINUOUS
 10
11.7278133423
 20
7.4569266618
 11
11.7844713423
 21
7.4569266618
  0
LINE
  5
2C9
100
AcDbEntity
  8
03__ASM_ALL_CURVES
100
AcDbLine
 62
4
  6
CONTINUOUS
 10
11.8411293423
 20
7.4569266618
 11
11.8977873423
 21
7.4569266618
  0
LINE
  5
2CA
100
AcDbEntity
  8
0
100
AcDbLine
 62
7
  6
CONTINUOUS
 10
9.8346923423
 20
7.5135846618
 11
8.5946923423
 21
7.5135846618
  0
LINE
  5
2CB
100
AcDbEntity
  8
03__ASM_ALL_CURVES
100
AcDbLine
 62
4
  6
CONTINUOUS
 10
10.4530083423
 20
7.5135846618
 11
10.7929563423
 21
7.5135846618
  0
LINE
  5
2CC
100
AcDbEntity
  8
03__ASM_ALL_CURVES
100
AcDbLine
 62
4
  6
CONTINUOUS
 10
12.0890080923
 20
7.5230276595
 11
12.1031725923
 21
7.5230276595
  0
LINE
  5
2CD
100
AcDbEntity
  8
0
100
AcDbLine
 62
7
  6
CONTINUOUS
 10
9.9236923423
 20
7.5649688357
 11
9.9233313412
 21
7.5649688357
  0
LINE
  5
2CE
100
AcDbEntity
  8
0
100
AcDbLine
 62
7
  6
CONTINUOUS
 10
9.5886033434
 20
7.5649688357
 11
9.5494203401
 21
7.5649688357
  0
LINE
  5
2CF
100
AcDbEntity
  8
0
100
AcDbLine
 62
7
  6
CONTINUOUS
 10
8.8799643445
 20
7.5649688357
 11
8.8407813412
 21
7.5649688357
  0
LINE
  5
2D0
100
AcDbEntity
  8
0
100
AcDbLine
 62
7
  6
CONTINUOUS
 10
8.5060533434
 20
7.5649688357
 11
8.5056923423
 21
7.5649688357
  0
LINE
  5
2D1
100
AcDbEntity
  8
03__ASM_ALL_CURVES
100
AcDbLine
 62
4
  6
CONTINUOUS
 10
11.7490600923
 20
7.5702426618
 11
11.7632245923
 21
7.5702426618
  0
LINE
  5
2D2
100
AcDbEntity
  8
03__ASM_ALL_CURVES
100
AcDbLine
 62
4
  6
CONTINUOUS
 10
11.8623760923
 20
7.5702426618
 11
11.8765405923
 21
7.5702426618
  0
LINE
  5
2D3
100
AcDbEntity
  8
03__ASM_ALL_CURVES
100
AcDbLine
 62
4
  6
CONTINUOUS
 10
12.0890080923
 20
7.5702426618
 11
12.1031725923
 21
7.5702426618
  0
LINE
  5
2D4
100
AcDbEntity
  8
03__ASM_ALL_CURVES
100
AcDbLine
 62
4
  6
CONTINUOUS
 10
10.3585783412
 20
7.6557016618
 11
10.3208063401
 21
7.6557016618
  0
LINE
  5
2D5
100
AcDbEntity
  8
0
100
AcDbLine
 62
7
  6
CONTINUOUS
 10
8.4351923423
 20
8.2995846618
 11
8.5056923423
 21
8.2588814678
  0
LINE
  5
2D6
100
AcDbEntity
  8
03__ASM_ALL_CURVES
100
AcDbLine
 62
4
  6
CONTINUOUS
 10
9.1580343423
 20
5.8662864118
 11
9.1580343423
 21
5.8804509118
  0
LINE
  5
2D7
100
AcDbEntity
  8
03__ASM_ALL_CURVES
100
AcDbLine
 62
4
  6
CONTINUOUS
 10
9.1580343423
 20
6.2062344118
 11
9.1580343423
 21
6.2203989118
  0
LINE
  5
2D8
100
AcDbEntity
  8
03__ASM_ALL_CURVES
100
AcDbLine
 62
4
  6
CONTINUOUS
 10
9.1580343423
 20
6.3195504118
 11
9.1580343423
 21
6.3337149118
  0
LINE
  5
2D9
100
AcDbEntity
  8
03__ASM_ALL_CURVES
100
AcDbLine
 62
4
  6
CONTINUOUS
 10
9.2052493446
 20
6.3195504118
 11
9.2052493446
 21
6.3337149118
  0
LINE
  5
2DA
100
AcDbEntity
  8
03__ASM_ALL_CURVES
100
AcDbLine
 62
4
  6
CONTINUOUS
 10
9.2146923423
 20
8.3072686618
 11
9.2146923423
 21
7.2898186618
  0
LINE
  5
2DB
100
AcDbEntity
  8
03__ASM_ALL_CURVES
100
AcDbLine
 62
4
  6
CONTINUOUS
 10
9.2430213423
 20
6.5249356618
 11
9.2430213423
 21
6.5886759118
  0
LINE
  5
2DC
100
AcDbEntity
  8
03__ASM_ALL_CURVES
100
AcDbLine
 62
4
  6
CONTINUOUS
 10
9.2430213423
 20
6.6382516618
 11
9.2430213423
 21
6.7019919118
  0
LINE
  5
2DD
100
AcDbEntity
  8
03__ASM_ALL_CURVES
100
AcDbLine
 62
4
  6
CONTINUOUS
 10
9.2713503423
 20
6.4682776618
 11
9.2713503423
 21
6.4576542868
  0
LINE
  5
2DE
100
AcDbEntity
  8
03__ASM_ALL_CURVES
100
AcDbLine
 62
4
  6
CONTINUOUS
 10
9.2713503423
 20
6.3337149118
 11
9.2713503423
 21
6.3195504118
  0
LINE
  5
2DF
100
AcDbEntity
  8
03__ASM_ALL_CURVES
100
AcDbLine
 62
4
  6
CONTINUOUS
 10
9.2713503423
 20
5.6750656618
 11
9.2713503423
 21
5.6644422868
  0
LINE
  5
2E0
100
AcDbEntity
  8
03__ASM_ALL_CURVES
100
AcDbLine
 62
4
  6
CONTINUOUS
 10
9.2713503423
 20
5.8450396618
 11
9.2713503423
 21
5.9016976618
  0
LINE
  5
2E1
100
AcDbEntity
  8
03__ASM_ALL_CURVES
100
AcDbLine
 62
4
  6
CONTINUOUS
 10
9.2713503423
 20
6.1849876618
 11
9.2713503423
 21
6.2416456618
  0
LINE
  5
2E2
100
AcDbEntity
  8
03__ASM_ALL_CURVES
100
AcDbLine
 62
4
  6
CONTINUOUS
 10
11.0974930923
 20
13.1904926618
 11
11.0479173423
 21
13.1055056618
  0
LINE
  5
2E3
100
AcDbEntity
  8
03__ASM_ALL_CURVES
100
AcDbLine
 62
4
  6
CONTINUOUS
 10
11.6499085923
 20
13.1904926618
 11
11.6357440923
 21
13.1716066595
  0
LINE
  5
2E4
100
AcDbEntity
  8
03__ASM_ALL_CURVES
100
AcDbLine
 62
4
  6
CONTINUOUS
 10
11.8411293423
 20
13.3333566595
 11
11.8482115923
 21
13.342799664
  0
LINE
  5
2E5
100
AcDbEntity
  8
03__ASM_ALL_CURVES
100
AcDbLine
 62
4
  6
CONTINUOUS
 10
11.8623760923
 20
13.2861416607
 11
11.8482115923
 21
13.2672556618
  0
LINE
  5
2E6
100
AcDbEntity
  8
03__ASM_ALL_CURVES
100
AcDbLine
 62
4
  6
CONTINUOUS
 10
11.8977873423
 20
13.314470664
 11
11.8907050923
 21
13.3050276595
  0
LINE
  5
2E7
100
AcDbEntity
  8
03__ASM_ALL_CURVES
100
AcDbLine
 62
4
  6
CONTINUOUS
 10
11.8411293423
 20
13.1716066595
 11
11.8482115923
 21
13.181049664
  0
LINE
  5
2E8
100
AcDbEntity
  8
03__ASM_ALL_CURVES
100
AcDbLine
 62
4
  6
CONTINUOUS
 10
12.0111033423
 20
13.3239136618
 11
12.0040210923
 21
13.314470664
  0
LINE
  5
2E9
100
AcDbEntity
  8
03__ASM_ALL_CURVES
100
AcDbLine
 62
4
  6
CONTINUOUS
 10
11.8623760923
 20
13.1243916607
 11
11.8482115923
 21
13.1055056618
  0
LINE
  5
2EA
100
AcDbEntity
  8
03__ASM_ALL_CURVES
100
AcDbLine
 62
4
  6
CONTINUOUS
 10
11.8977873423
 20
13.152720664
 11
11.8907050923
 21
13.1432776595
  0
LINE
  5
2EB
100
AcDbEntity
  8
03__ASM_ALL_CURVES
100
AcDbLine
 62
4
  6
CONTINUOUS
 10
10.3208063401
 20
7.7123596618
 11
10.3585783412
 21
7.7123596618
  0
LINE
  5
2EC
100
AcDbEntity
  8
03__ASM_ALL_CURVES
100
AcDbLine
 62
4
  6
CONTINUOUS
 10
10.3208063401
 20
7.6557016618
 11
10.3019203446
 21
7.6627839118
  0
LINE
  5
2ED
100
AcDbEntity
  8
03__ASM_ALL_CURVES
100
AcDbLine
 62
4
  6
CONTINUOUS
 10
10.3585783412
 20
7.7123596618
 11
10.3774643418
 21
7.7052774118
  0
LINE
  5
2EE
100
AcDbEntity
  8
03__ASM_ALL_CURVES
100
AcDbLine
 62
4
  6
CONTINUOUS
 10
11.3028783423
 20
7.5041416607
 11
11.2816315923
 21
7.5135846618
  0
LINE
  5
2EF
100
AcDbEntity
  8
03__ASM_ALL_CURVES
100
AcDbLine
 62
4
  6
CONTINUOUS
 10
10.3019203446
 20
7.6627839118
 11
10.2924773401
 21
7.6698661618
  0
LINE
  5
2F0
100
AcDbEntity
  8
03__ASM_ALL_CURVES
100
AcDbLine
 62
4
  6
CONTINUOUS
 10
10.3774643418
 20
7.7052774118
 11
10.386907342
 21
7.6981951618
  0
LINE
  5
2F1
100
AcDbEntity
  8
0
100
AcDbLine
 62
7
  6
CONTINUOUS
 10
9.5494203401
 20
8.2588814678
 11
9.5494203401
 21
7.5649688357
  0
LINE
  5
2F2
100
AcDbEntity
  8
0
100
AcDbLine
 62
7
  6
CONTINUOUS
 10
9.5886033434
 20
8.2588814678
 11
9.5886033434
 21
7.5649688357
  0
LINE
  5
2F3
100
AcDbEntity
  8
03__ASM_ALL_CURVES
100
AcDbLine
 62
4
  6
CONTINUOUS
 10
12.0181855923
 20
13.2672556618
 11
12.0040210923
 21
13.2483696621
  0
LINE
  5
2F4
100
AcDbEntity
  8
03__ASM_ALL_CURVES
100
AcDbLine
 62
4
  6
CONTINUOUS
 10
11.9544453423
 20
13.1716066595
 11
11.9615275923
 21
13.181049664
  0
LINE
  5
2F5
100
AcDbEntity
  8
03__ASM_ALL_CURVES
100
AcDbLine
 62
4
  6
CONTINUOUS
 10
11.9756920923
 20
13.1243916607
 11
11.9615275923
 21
13.1055056618
  0
LINE
  5
2F6
100
AcDbEntity
  8
03__ASM_ALL_CURVES
100
AcDbLine
 62
4
  6
CONTINUOUS
 10
12.0111033423
 20
13.152720664
 11
12.0040210923
 21
13.1432776595
  0
LINE
  5
2F7
100
AcDbEntity
  8
03__ASM_ALL_CURVES
100
AcDbLine
 62
4
  6
CONTINUOUS
 10
12.1881595923
 20
13.3333566595
 11
12.1952418423
 21
13.342799664
  0
LINE
  5
2F8
100
AcDbEntity
  8
03__ASM_ALL_CURVES
100
AcDbLine
 62
4
  6
CONTINUOUS
 10
12.2306530923
 20
13.2578126624
 11
12.2235708423
 21
13.2483696621
  0
LINE
  5
2F9
100
AcDbEntity
  8
03__ASM_ALL_CURVES
100
AcDbLine
 62
4
  6
CONTINUOUS
 10
12.3014755923
 20
13.3333566595
 11
12.3085578423
 21
13.342799664
  0
LINE
  5
2FA
100
AcDbEntity
  8
03__ASM_ALL_CURVES
100
AcDbLine
 62
4
  6
CONTINUOUS
 10
12.3439690923
 20
13.2578126624
 11
12.3368868423
 21
13.2483696621
  0
LINE
  5
2FB
100
AcDbEntity
  8
0
100
AcDbLine
 62
7
  6
CONTINUOUS
 10
9.9236923423
 20
8.2588814678
 11
8.5056923423
 21
8.2588814678
  0
LINE
  5
2FC
100
AcDbEntity
  8
0
100
AcDbLine
 62
7
  6
CONTINUOUS
 10
9.9941923423
 20
8.2995846618
 11
8.4351923423
 21
8.2995846618
  0
LINE
  5
2FD
100
AcDbEntity
  8
03__ASM_ALL_CURVES
100
AcDbLine
 62
4
  6
CONTINUOUS
 10
11.0762463423
 20
7.4569266618
 11
11.0620818423
 21
7.4663696621
  0
LINE
  5
2FE
100
AcDbEntity
  8
03__ASM_ALL_CURVES
100
AcDbLine
 62
4
  6
CONTINUOUS
 10
11.0762463423
 20
7.5702426618
 11
11.0904108423
 21
7.560799664
  0
LINE
  5
2FF
100
AcDbEntity
  8
03__ASM_ALL_CURVES
100
AcDbLine
 62
4
  6
CONTINUOUS
 10
11.3028783423
 20
7.4569266618
 11
11.2887138423
 21
7.4663696621
  0
LINE
  5
300
100
AcDbEntity
  8
03__ASM_ALL_CURVES
100
AcDbLine
 62
4
  6
CONTINUOUS
 10
11.4161943423
 20
7.4569266618
 11
11.4020298423
 21
7.4663696621
  0
LINE
  5
301
100
AcDbEntity
  8
03__ASM_ALL_CURVES
100
AcDbLine
 62
4
  6
CONTINUOUS
 10
11.3028783423
 20
7.5702426618
 11
11.3170428423
 21
7.560799664
  0
LINE
  5
302
100
AcDbEntity
  8
03__ASM_ALL_CURVES
100
AcDbLine
 62
4
  6
CONTINUOUS
 10
10.2924773401
 20
7.6698661618
 11
10.2830343423
 21
7.6840306618
  0
LINE
  5
303
100
AcDbEntity
  8
03__ASM_ALL_CURVES
100
AcDbLine
 62
4
  6
CONTINUOUS
 10
10.386907342
 20
7.6981951618
 11
10.3963503423
 21
7.6840306618
  0
LINE
  5
304
100
AcDbEntity
  8
0
100
AcDbLine
 62
7
  6
CONTINUOUS
 10
9.9233313412
 20
8.2588814678
 11
9.9233313412
 21
7.5649688357
  0
LINE
  5
305
100
AcDbEntity
  8
0
100
AcDbLine
 62
7
  6
CONTINUOUS
 10
9.9236923423
 20
8.2588814678
 11
9.9236923423
 21
7.5649688357
  0
LINE
  5
306
100
AcDbEntity
  8
03__ASM_ALL_CURVES
100
AcDbLine
 62
4
  6
CONTINUOUS
 10
8.0708063401
 20
6.6736629118
 11
8.0802493446
 21
6.6878274118
  0
LINE
  5
307
100
AcDbEntity
  8
03__ASM_ALL_CURVES
100
AcDbLine
 62
4
  6
CONTINUOUS
 10
12.4431205923
 20
13.2578126624
 11
12.4289560923
 21
13.2389266618
  0
LINE
  5
308
100
AcDbEntity
  8
03__ASM_ALL_CURVES
100
AcDbLine
 62
4
  6
CONTINUOUS
 10
12.4431205923
 20
13.0960626624
 11
12.4289560923
 21
13.0771766618
  0
LINE
  5
309
100
AcDbEntity
  8
03__ASM_ALL_CURVES
100
AcDbLine
 62
4
  6
CONTINUOUS
 10
12.6697525923
 20
13.1904926618
 11
12.6555880923
 21
13.1716066595
  0
LINE
  5
30A
100
AcDbEntity
  8
0
100
AcDbLine
 62
7
  6
CONTINUOUS
 10
10.3396923423
 20
8.4205846618
 11
8.0896923423
 21
8.4205846618
  0
LINE
  5
30B
100
AcDbEntity
  8
03__ASM_ALL_CURVES
100
AcDbLine
 62
4
  6
CONTINUOUS
 10
10.4530083423
 20
8.4205846618
 11
10.7929563423
 21
8.4205846618
  0
LINE
  5
30C
100
AcDbEntity
  8
03__ASM_ALL_CURVES
100
AcDbLine
 62
4
  6
CONTINUOUS
 10
12.2094063423
 20
7.5230276595
 11
12.2306530923
 21
7.5135846618
  0
LINE
  5
30D
100
AcDbEntity
  8
03__ASM_ALL_CURVES
100
AcDbLine
 62
4
  6
CONTINUOUS
 10
11.4161943423
 20
7.5702426618
 11
11.4303588423
 21
7.560799664
  0
LINE
  5
30E
100
AcDbEntity
  8
03__ASM_ALL_CURVES
100
AcDbLine
 62
4
  6
CONTINUOUS
 10
11.7632245923
 20
7.5702426618
 11
11.7773890923
 21
7.560799664
  0
LINE
  5
30F
100
AcDbEntity
  8
03__ASM_ALL_CURVES
100
AcDbLine
 62
4
  6
CONTINUOUS
 10
11.8765405923
 20
7.5702426618
 11
11.8907050923
 21
7.560799664
  0
LINE
  5
310
100
AcDbEntity
  8
03__ASM_ALL_CURVES
100
AcDbLine
 62
4
  6
CONTINUOUS
 10
12.0890080923
 20
7.4569266618
 11
12.0748435923
 21
7.4663696621
  0
LINE
  5
311
100
AcDbEntity
  8
03__ASM_ALL_CURVES
100
AcDbLine
 62
4
  6
CONTINUOUS
 10
11.0620818423
 20
7.4663696621
 11
11.0549995923
 21
7.4758126624
  0
LINE
  5
312
100
AcDbEntity
  8
0
100
AcDbLine
 62
7
  6
CONTINUOUS
 10
9.9941923423
 20
8.4205846618
 11
9.9941923423
 21
8.2995846618
  0
LINE
  5
313
100
AcDbEntity
  8
03__ASM_ALL_CURVES
100
AcDbLine
 62
4
  6
CONTINUOUS
 10
11.4303588423
 20
13.314470664
 11
11.4445233423
 21
13.3522426618
  0
LINE
  5
314
100
AcDbEntity
  8
03__ASM_ALL_CURVES
100
AcDbLine
 62
4
  6
CONTINUOUS
 10
8.1463503423
 20
6.6594984118
 11
8.136907342
 21
6.6453339118
  0
LINE
  5
315
100
AcDbEntity
  8
03__ASM_ALL_CURVES
100
AcDbLine
 62
4
  6
CONTINUOUS
 10
8.0708063401
 20
6.2203989118
 11
8.0802493446
 21
6.2345634118
  0
LINE
  5
316
100
AcDbEntity
  8
03__ASM_ALL_CURVES
100
AcDbLine
 62
4
  6
CONTINUOUS
 10
8.1463503423
 20
6.2062344118
 11
8.136907342
 21
6.1920699118
  0
LINE
  5
317
100
AcDbEntity
  8
03__ASM_ALL_CURVES
100
AcDbLine
 62
4
  6
CONTINUOUS
 10
12.8680555923
 20
13.181049664
 11
12.8609733423
 21
13.1716066595
  0
LINE
  5
318
100
AcDbEntity
  8
03__ASM_ALL_CURVES
100
AcDbLine
 62
4
  6
CONTINUOUS
 10
12.9176313423
 20
13.0960626624
 11
12.9105490923
 21
13.0866196621
  0
LINE
  5
319
100
AcDbEntity
  8
03__ASM_ALL_CURVES
100
AcDbLine
 62
4
  6
CONTINUOUS
 10
13.0097005923
 20
13.0960626624
 11
12.9955360923
 21
13.0771766618
  0
LINE
  5
31A
100
AcDbEntity
  8
03__ASM_ALL_CURVES
100
AcDbLine
 62
4
  6
CONTINUOUS
 10
12.0890080923
 20
7.5230276595
 11
12.0748435923
 21
7.532470664
  0
LINE
  5
31B
100
AcDbEntity
  8
03__ASM_ALL_CURVES
100
AcDbLine
 62
4
  6
CONTINUOUS
 10
12.1031725923
 20
7.5230276595
 11
12.1173370923
 21
7.5135846618
  0
LINE
  5
31C
100
AcDbEntity
  8
03__ASM_ALL_CURVES
100
AcDbLine
 62
4
  6
CONTINUOUS
 10
12.2094063423
 20
7.4569266618
 11
12.1952418423
 21
7.4663696621
  0
LINE
  5
31D
100
AcDbEntity
  8
03__ASM_ALL_CURVES
100
AcDbLine
 62
4
  6
CONTINUOUS
 10
12.1031725923
 20
7.5702426618
 11
12.1173370923
 21
7.560799664
  0
LINE
  5
31E
100
AcDbEntity
  8
03__ASM_ALL_CURVES
100
AcDbLine
 62
4
  6
CONTINUOUS
 10
12.2094063423
 20
7.5702426618
 11
12.2235708423
 21
7.560799664
  0
LINE
  5
31F
100
AcDbEntity
  8
03__ASM_ALL_CURVES
100
AcDbLine
 62
4
  6
CONTINUOUS
 10
11.0762463423
 20
8.3639266618
 11
11.0620818423
 21
8.3733696621
  0
LINE
  5
320
100
AcDbEntity
  8
03__ASM_ALL_CURVES
100
AcDbLine
 62
4
  6
CONTINUOUS
 10
11.0762463423
 20
8.4772426618
 11
11.0904108423
 21
8.467799664
  0
LINE
  5
321
100
AcDbEntity
  8
03__ASM_ALL_CURVES
100
AcDbLine
 62
4
  6
CONTINUOUS
 10
11.0904108423
 20
7.560799664
 11
11.0974930923
 21
7.5513566595
  0
LINE
  5
322
100
AcDbEntity
  8
03__ASM_ALL_CURVES
100
AcDbLine
 62
4
  6
CONTINUOUS
 10
11.2072679673
 20
7.4710911622
 11
11.2178913423
 21
7.4569266618
  0
LINE
  5
323
100
AcDbEntity
  8
03__ASM_ALL_CURVES
100
AcDbLine
 62
4
  6
CONTINUOUS
 10
11.2887138423
 20
7.4663696621
 11
11.2816315923
 21
7.4758126624
  0
LINE
  5
324
100
AcDbEntity
  8
03__ASM_ALL_CURVES
100
AcDbLine
 62
4
  6
CONTINUOUS
 10
11.3170428423
 20
7.560799664
 11
11.3241250923
 21
7.5513566595
  0
LINE
  5
325
100
AcDbEntity
  8
03__ASM_ALL_CURVES
100
AcDbLine
 62
4
  6
CONTINUOUS
 10
11.4020298423
 20
7.4663696621
 11
11.3949475923
 21
7.4758126624
  0
LINE
  5
326
100
AcDbEntity
  8
03__ASM_ALL_CURVES
100
AcDbLine
 62
4
  6
CONTINUOUS
 10
10.3396923423
 20
8.3072686618
 11
10.3396923423
 21
7.9673206618
  0
LINE
  5
327
100
AcDbEntity
  8
0
100
AcDbLine
 62
7
  6
CONTINUOUS
 10
10.3396923423
 20
8.4205846618
 11
10.3396923423
 21
13.2955846618
  0
LINE
  5
328
100
AcDbEntity
  8
03__ASM_ALL_CURVES
100
AcDbLine
 62
4
  6
CONTINUOUS
 10
11.4232765923
 20
13.2861416607
 11
11.4303588423
 21
13.314470664
  0
LINE
  5
329
100
AcDbEntity
  8
03__ASM_ALL_CURVES
100
AcDbLine
 62
4
  6
CONTINUOUS
 10
8.0708063401
 20
5.8804509118
 11
8.0802493446
 21
5.8946154118
  0
LINE
  5
32A
100
AcDbEntity
  8
03__ASM_ALL_CURVES
100
AcDbLine
 62
4
  6
CONTINUOUS
 10
8.0330343423
 20
5.7671349118
 11
8.0424773401
 21
5.7812994118
  0
LINE
  5
32B
100
AcDbEntity
  8
03__ASM_ALL_CURVES
100
AcDbLine
 62
4
  6
CONTINUOUS
 10
8.1463503423
 20
5.8662864118
 11
8.136907342
 21
5.8521219118
  0
LINE
  5
32C
100
AcDbEntity
  8
03__ASM_ALL_CURVES
100
AcDbLine
 62
4
  6
CONTINUOUS
 10
8.0330343423
 20
5.5405029118
 11
8.0424773401
 21
5.5546674118
  0
LINE
  5
32D
100
AcDbEntity
  8
03__ASM_ALL_CURVES
100
AcDbLine
 62
4
  6
CONTINUOUS
 10
11.3949475923
 20
9.905799664
 11
11.4091120923
 21
9.9152426618
  0
LINE
  5
32E
100
AcDbEntity
  8
03__ASM_ALL_CURVES
100
AcDbLine
 62
4
  6
CONTINUOUS
 10
11.4374410923
 20
9.877470664
 11
11.4232765923
 21
9.8680276595
  0
LINE
  5
32F
100
AcDbEntity
  8
03__ASM_ALL_CURVES
100
AcDbLine
 62
4
  6
CONTINUOUS
 10
11.4374410923
 20
9.8113696621
 11
11.4232765923
 21
9.8019266618
  0
LINE
  5
330
100
AcDbEntity
  8
03__ASM_ALL_CURVES
100
AcDbLine
 62
4
  6
CONTINUOUS
 10
11.8482115923
 20
9.8585846618
 11
11.8694583423
 21
9.8680276595
  0
LINE
  5
331
100
AcDbEntity
  8
03__ASM_ALL_CURVES
100
AcDbLine
 62
4
  6
CONTINUOUS
 10
11.4303588423
 20
7.560799664
 11
11.4374410923
 21
7.5513566595
  0
LINE
  5
332
100
AcDbEntity
  8
03__ASM_ALL_CURVES
100
AcDbLine
 62
4
  6
CONTINUOUS
 10
11.6357440923
 20
7.4758126624
 11
11.6499085923
 21
7.4569266618
  0
LINE
  5
333
100
AcDbEntity
  8
03__ASM_ALL_CURVES
100
AcDbLine
 62
4
  6
CONTINUOUS
 10
11.0620818423
 20
8.3733696621
 11
11.0549995923
 21
8.3828126624
  0
LINE
  5
334
100
AcDbEntity
  8
03__ASM_ALL_CURVES
100
AcDbLine
 62
4
  6
CONTINUOUS
 10
11.0904108423
 20
8.467799664
 11
11.0974930923
 21
8.4583566595
  0
LINE
  5
335
100
AcDbEntity
  8
03__ASM_ALL_CURVES
100
AcDbLine
 62
4
  6
CONTINUOUS
 10
11.7773890923
 20
7.560799664
 11
11.7844713423
 21
7.5513566595
  0
LINE
  5
336
100
AcDbEntity
  8
03__ASM_ALL_CURVES
100
AcDbLine
 62
4
  6
CONTINUOUS
 10
11.0549995923
 20
7.4758126624
 11
11.0479173423
 21
7.4946986629
  0
LINE
  5
337
100
AcDbEntity
  8
03__ASM_ALL_CURVES
100
AcDbLine
 62
4
  6
CONTINUOUS
 10
11.0974930923
 20
7.5513566595
 11
11.1045753423
 21
7.532470664
  0
LINE
  5
338
100
AcDbEntity
  8
03__ASM_ALL_CURVES
100
AcDbLine
 62
4
  6
CONTINUOUS
 10
11.4161943423
 20
13.2389266618
 11
11.4232765923
 21
13.2861416607
  0
LINE
  5
339
100
AcDbEntity
  8
03__ASM_ALL_CURVES
100
AcDbLine
 62
4
  6
CONTINUOUS
 10
11.6357440923
 20
13.3333566595
 11
11.6286618423
 21
13.3050276595
  0
LINE
  5
33A
100
AcDbEntity
  8
03__ASM_ALL_CURVES
100
AcDbLine
 62
4
  6
CONTINUOUS
 10
11.6357440923
 20
13.1716066595
 11
11.6286618423
 21
13.1432776595
  0
LINE
  5
33B
100
AcDbEntity
  8
03__ASM_ALL_CURVES
100
AcDbLine
 62
4
  6
CONTINUOUS
 10
11.8482115923
 20
13.2672556618
 11
11.8411293423
 21
13.2389266618
  0
LINE
  5
33C
100
AcDbEntity
  8
03__ASM_ALL_CURVES
100
AcDbLine
 62
4
  6
CONTINUOUS
 10
11.8482115923
 20
13.1055056618
 11
11.8411293423
 21
13.0771766618
  0
LINE
  5
33D
100
AcDbEntity
  8
03__ASM_ALL_CURVES
100
AcDbLine
 62
4
  6
CONTINUOUS
 10
12.1810773423
 20
13.314470664
 11
12.1881595923
 21
13.3333566595
  0
LINE
  5
33E
100
AcDbEntity
  8
03__ASM_ALL_CURVES
100
AcDbLine
 62
4
  6
CONTINUOUS
 10
12.1810773423
 20
13.2766986629
 11
12.1881595923
 21
13.2955846618
  0
LINE
  5
33F
100
AcDbEntity
  8
03__ASM_ALL_CURVES
100
AcDbLine
 62
4
  6
CONTINUOUS
 10
12.2377353423
 20
13.2766986629
 11
12.2306530923
 21
13.2578126624
  0
LINE
  5
340
100
AcDbEntity
  8
03__ASM_ALL_CURVES
100
AcDbLine
 62
4
  6
CONTINUOUS
 10
12.2943933423
 20
13.314470664
 11
12.3014755923
 21
13.3333566595
  0
LINE
  5
341
100
AcDbEntity
  8
03__ASM_ALL_CURVES
100
AcDbLine
 62
4
  6
CONTINUOUS
 10
12.3510513423
 20
13.314470664
 11
12.3439690923
 21
13.2955846618
  0
LINE
  5
342
100
AcDbEntity
  8
03__ASM_ALL_CURVES
100
AcDbLine
 62
4
  6
CONTINUOUS
 10
12.3510513423
 20
13.2766986629
 11
12.3439690923
 21
13.2578126624
  0
LINE
  5
343
100
AcDbEntity
  8
03__ASM_ALL_CURVES
100
AcDbLine
 62
4
  6
CONTINUOUS
 10
12.3368868423
 20
13.152720664
 11
12.3510513423
 21
13.1904926618
  0
LINE
  5
344
100
AcDbEntity
  8
03__ASM_ALL_CURVES
100
AcDbLine
 62
4
  6
CONTINUOUS
 10
11.3241250923
 20
9.9152426618
 11
11.2745493423
 21
9.8302556618
  0
LINE
  5
345
100
AcDbEntity
  8
03__ASM_ALL_CURVES
100
AcDbLine
 62
4
  6
CONTINUOUS
 10
11.4445233423
 20
9.8869136618
 11
11.4374410923
 21
9.877470664
  0
LINE
  5
346
100
AcDbEntity
  8
03__ASM_ALL_CURVES
100
AcDbLine
 62
4
  6
CONTINUOUS
 10
11.7348955923
 20
9.905799664
 11
11.7490600923
 21
9.9152426618
  0
LINE
  5
347
100
AcDbEntity
  8
03__ASM_ALL_CURVES
100
AcDbLine
 62
4
  6
CONTINUOUS
 10
11.7773890923
 20
9.877470664
 11
11.7632245923
 21
9.8680276595
  0
LINE
  5
348
100
AcDbEntity
  8
03__ASM_ALL_CURVES
100
AcDbLine
 62
4
  6
CONTINUOUS
 10
11.8552938423
 20
9.905799664
 11
11.8694583423
 21
9.9152426618
  0
LINE
  5
349
100
AcDbEntity
  8
03__ASM_ALL_CURVES
100
AcDbLine
 62
4
  6
CONTINUOUS
 10
11.7773890923
 20
9.8113696621
 11
11.7632245923
 21
9.8019266618
  0
LINE
  5
34A
100
AcDbEntity
  8
03__ASM_ALL_CURVES
100
AcDbLine
 62
4
  6
CONTINUOUS
 10
11.8836228423
 20
9.8113696621
 11
11.8694583423
 21
9.8019266618
  0
LINE
  5
34B
100
AcDbEntity
  8
03__ASM_ALL_CURVES
100
AcDbLine
 62
4
  6
CONTINUOUS
 10
12.0748435923
 20
9.905799664
 11
12.0890080923
 21
9.9152426618
  0
LINE
  5
34C
100
AcDbEntity
  8
03__ASM_ALL_CURVES
100
AcDbLine
 62
4
  6
CONTINUOUS
 10
12.1173370923
 20
9.877470664
 11
12.1031725923
 21
9.8680276595
  0
LINE
  5
34D
100
AcDbEntity
  8
03__ASM_ALL_CURVES
100
AcDbLine
 62
4
  6
CONTINUOUS
 10
12.1881595923
 20
9.905799664
 11
12.2023240923
 21
9.9152426618
  0
LINE
  5
34E
100
AcDbEntity
  8
0
100
AcDbLine
 62
7
  6
CONTINUOUS
 10
9.5287602529
 20
9.5005846618
 11
8.9006244985
 21
9.5005846618
  0
LINE
  5
34F
100
AcDbEntity
  8
0
100
AcDbLine
 62
7
  6
CONTINUOUS
 10
9.5425122982
 20
9.5135846618
 11
8.8868723864
 21
9.5135846618
  0
LINE
  5
350
100
AcDbEntity
  8
03__ASM_ALL_CURVES
100
AcDbLine
 62
4
  6
CONTINUOUS
 10
11.8907050923
 20
7.560799664
 11
11.8977873423
 21
7.5513566595
  0
LINE
  5
351
100
AcDbEntity
  8
03__ASM_ALL_CURVES
100
AcDbLine
 62
4
  6
CONTINUOUS
 10
12.0004799673
 20
7.4710911622
 11
12.0111033423
 21
7.4569266618
  0
LINE
  5
352
100
AcDbEntity
  8
03__ASM_ALL_CURVES
100
AcDbLine
 62
4
  6
CONTINUOUS
 10
12.0748435923
 20
7.4663696621
 11
12.0606790923
 21
7.4852556618
  0
LINE
  5
353
100
AcDbEntity
  8
03__ASM_ALL_CURVES
100
AcDbLine
 62
4
  6
CONTINUOUS
 10
12.0748435923
 20
7.532470664
 11
12.0677613423
 21
7.5419136618
  0
LINE
  5
354
100
AcDbEntity
  8
03__ASM_ALL_CURVES
100
AcDbLine
 62
4
  6
CONTINUOUS
 10
12.1173370923
 20
7.5135846618
 11
12.1315015923
 21
7.4946986629
  0
LINE
  5
355
100
AcDbEntity
  8
03__ASM_ALL_CURVES
100
AcDbLine
 62
4
  6
CONTINUOUS
 10
12.1173370923
 20
7.560799664
 11
12.1244193423
 21
7.5513566595
  0
LINE
  5
356
100
AcDbEntity
  8
03__ASM_ALL_CURVES
100
AcDbLine
 62
4
  6
CONTINUOUS
 10
12.1952418423
 20
7.4663696621
 11
12.1881595923
 21
7.4758126624
  0
LINE
  5
357
100
AcDbEntity
  8
03__ASM_ALL_CURVES
100
AcDbLine
 62
4
  6
CONTINUOUS
 10
12.2235708423
 20
7.560799664
 11
12.2306530923
 21
7.5513566595
  0
LINE
  5
358
100
AcDbEntity
  8
03__ASM_ALL_CURVES
100
AcDbLine
 62
4
  6
CONTINUOUS
 10
11.2816315923
 20
7.5135846618
 11
11.2745493423
 21
7.532470664
  0
LINE
  5
359
100
AcDbEntity
  8
03__ASM_ALL_CURVES
100
AcDbLine
 62
4
  6
CONTINUOUS
 10
11.3241250923
 20
7.5513566595
 11
11.3312073423
 21
7.532470664
  0
LINE
  5
35A
100
AcDbEntity
  8
03__ASM_ALL_CURVES
100
AcDbLine
 62
4
  6
CONTINUOUS
 10
11.3949475923
 20
7.4758126624
 11
11.3878653423
 21
7.4946986629
  0
LINE
  5
35B
100
AcDbEntity
  8
03__ASM_ALL_CURVES
100
AcDbLine
 62
4
  6
CONTINUOUS
 10
11.0549995923
 20
8.3828126624
 11
11.0479173423
 21
8.4016986629
  0
LINE
  5
35C
100
AcDbEntity
  8
03__ASM_ALL_CURVES
100
AcDbLine
 62
4
  6
CONTINUOUS
 10
11.4374410923
 20
7.5513566595
 11
11.4445233423
 21
7.532470664
  0
LINE
  5
35D
100
AcDbEntity
  8
03__ASM_ALL_CURVES
100
AcDbLine
 62
4
  6
CONTINUOUS
 10
11.0974930923
 20
8.4583566595
 11
11.1045753423
 21
8.439470664
  0
LINE
  5
35E
100
AcDbEntity
  8
03__ASM_ALL_CURVES
100
AcDbLine
 62
4
  6
CONTINUOUS
 10
11.0479173423
 20
7.4946986629
 11
11.0479173423
 21
7.532470664
  0
LINE
  5
35F
100
AcDbEntity
  8
03__ASM_ALL_CURVES
100
AcDbLine
 62
4
  6
CONTINUOUS
 10
11.0479173423
 20
8.4016986629
 11
11.0479173423
 21
8.439470664
  0
LINE
  5
360
100
AcDbEntity
  8
03__ASM_ALL_CURVES
100
AcDbLine
 62
4
  6
CONTINUOUS
 10
11.0762463423
 20
9.9152426618
 11
11.0762463423
 21
9.8019266618
  0
LINE
  5
361
100
AcDbEntity
  8
03__ASM_ALL_CURVES
100
AcDbLine
 62
4
  6
CONTINUOUS
 10
11.0974930923
 20
13.0771766618
 11
11.0974930923
 21
13.1904926618
  0
LINE
  5
362
100
AcDbEntity
  8
03__ASM_ALL_CURVES
100
AcDbLine
 62
4
  6
CONTINUOUS
 10
11.0974930923
 20
13.2389266618
 11
11.0974930923
 21
13.3522426618
  0
LINE
  5
363
100
AcDbEntity
  8
03__ASM_ALL_CURVES
100
AcDbLine
 62
4
  6
CONTINUOUS
 10
11.1045753423
 20
8.439470664
 11
11.1045753423
 21
8.4016986629
  0
LINE
  5
364
100
AcDbEntity
  8
03__ASM_ALL_CURVES
100
AcDbLine
 62
4
  6
CONTINUOUS
 10
11.1045753423
 20
7.532470664
 11
11.1045753423
 21
7.4946986629
  0
LINE
  5
365
100
AcDbEntity
  8
03__ASM_ALL_CURVES
100
AcDbLine
 62
4
  6
CONTINUOUS
 10
11.2072679673
 20
7.4569266618
 11
11.2072679673
 21
7.4710911622
  0
LINE
  5
366
100
AcDbEntity
  8
03__ASM_ALL_CURVES
100
AcDbLine
 62
4
  6
CONTINUOUS
 10
11.2072679673
 20
9.8019266618
 11
11.2072679673
 21
9.8160911622
  0
LINE
  5
367
100
AcDbEntity
  8
03__ASM_ALL_CURVES
100
AcDbLine
 62
4
  6
CONTINUOUS
 10
11.2072679673
 20
13.0771766618
 11
11.2072679673
 21
13.0913411622
  0
LINE
  5
368
100
AcDbEntity
  8
03__ASM_ALL_CURVES
100
AcDbLine
 62
4
  6
CONTINUOUS
 10
11.2072679673
 20
13.2389266618
 11
11.2072679673
 21
13.2530911622
  0
LINE
  5
369
100
AcDbEntity
  8
03__ASM_ALL_CURVES
100
AcDbLine
 62
4
  6
CONTINUOUS
 10
11.9615275923
 20
13.1055056618
 11
11.9544453423
 21
13.0771766618
  0
LINE
  5
36A
100
AcDbEntity
  8
03__ASM_ALL_CURVES
100
AcDbLine
 62
4
  6
CONTINUOUS
 10
9.1580343423
 20
6.3337149118
 11
9.1674773401
 21
6.3478794118
  0
LINE
  5
36B
100
AcDbEntity
  8
03__ASM_ALL_CURVES
100
AcDbLine
 62
4
  6
CONTINUOUS
 10
9.2052493446
 20
6.3337149118
 11
9.2146923423
 21
6.3478794118
  0
LINE
  5
36C
100
AcDbEntity
  8
03__ASM_ALL_CURVES
100
AcDbLine
 62
4
  6
CONTINUOUS
 10
9.2052493446
 20
6.3195504118
 11
9.1958063401
 21
6.3053859118
  0
LINE
  5
36D
100
AcDbEntity
  8
03__ASM_ALL_CURVES
100
AcDbLine
 62
4
  6
CONTINUOUS
 10
9.1580343423
 20
6.2203989118
 11
9.1674773401
 21
6.2345634118
  0
LINE
  5
36E
100
AcDbEntity
  8
03__ASM_ALL_CURVES
100
AcDbLine
 62
4
  6
CONTINUOUS
 10
9.2713503423
 20
6.3195504118
 11
9.261907342
 21
6.3053859118
  0
LINE
  5
36F
100
AcDbEntity
  8
03__ASM_ALL_CURVES
100
AcDbLine
 62
4
  6
CONTINUOUS
 10
10.2830343423
 20
7.6840306618
 11
10.2924773401
 21
7.6981951618
  0
LINE
  5
370
100
AcDbEntity
  8
03__ASM_ALL_CURVES
100
AcDbLine
 62
4
  6
CONTINUOUS
 10
11.4516055923
 20
9.8302556618
 11
11.4374410923
 21
9.8113696621
  0
LINE
  5
371
100
AcDbEntity
  8
03__ASM_ALL_CURVES
100
AcDbLine
 62
4
  6
CONTINUOUS
 10
11.6499085923
 20
9.9152426618
 11
11.6357440923
 21
9.8963566595
  0
LINE
  5
372
100
AcDbEntity
  8
03__ASM_ALL_CURVES
100
AcDbLine
 62
4
  6
CONTINUOUS
 10
11.7844713423
 20
9.8869136618
 11
11.7773890923
 21
9.877470664
  0
LINE
  5
373
100
AcDbEntity
  8
03__ASM_ALL_CURVES
100
AcDbLine
 62
4
  6
CONTINUOUS
 10
11.7915535923
 20
9.8302556618
 11
11.7773890923
 21
9.8113696621
  0
LINE
  5
374
100
AcDbEntity
  8
03__ASM_ALL_CURVES
100
AcDbLine
 62
4
  6
CONTINUOUS
 10
11.8482115923
 20
9.8963566595
 11
11.8552938423
 21
9.905799664
  0
LINE
  5
375
100
AcDbEntity
  8
03__ASM_ALL_CURVES
100
AcDbLine
 62
4
  6
CONTINUOUS
 10
8.0330343423
 20
6.7728144118
 11
8.0519203446
 21
6.7869789118
  0
LINE
  5
376
100
AcDbEntity
  8
03__ASM_ALL_CURVES
100
AcDbLine
 62
4
  6
CONTINUOUS
 10
8.0802493446
 20
6.6878274118
 11
8.0896923423
 21
6.6949096618
  0
LINE
  5
377
100
AcDbEntity
  8
03__ASM_ALL_CURVES
100
AcDbLine
 62
4
  6
CONTINUOUS
 10
8.136907342
 20
6.6453339118
 11
8.1274643418
 21
6.6382516618
  0
LINE
  5
378
100
AcDbEntity
  8
03__ASM_ALL_CURVES
100
AcDbLine
 62
4
  6
CONTINUOUS
 10
12.1173370923
 20
9.8113696621
 11
12.1031725923
 21
9.8019266618
  0
LINE
  5
379
100
AcDbEntity
  8
03__ASM_ALL_CURVES
100
AcDbLine
 62
4
  6
CONTINUOUS
 10
12.2306530923
 20
9.8680276595
 11
12.2023240923
 21
9.8491416607
  0
LINE
  5
37A
100
AcDbEntity
  8
0
100
AcDbLine
 62
7
  6
CONTINUOUS
 10
9.9941923423
 20
8.2995846618
 11
9.9236923423
 21
8.2588814678
  0
LINE
  5
37B
100
AcDbEntity
  8
0
100
AcDbLine
 62
7
  6
CONTINUOUS
 10
8.8096598913
 20
9.607584698
 11
8.7944918977
 21
9.607584698
  0
LINE
  5
37C
100
AcDbEntity
  8
0
100
AcDbLine
 62
7
  6
CONTINUOUS
 10
9.6197247933
 20
9.607584698
 11
9.634892787
 21
9.607584698
  0
LINE
  5
37D
100
AcDbEntity
  8
0
100
AcDbLine
 62
7
  6
CONTINUOUS
 10
9.6656373817
 20
9.7057572135
 11
8.763748593
 21
9.7057572135
  0
LINE
  5
37E
100
AcDbEntity
  8
0
100
AcDbLine
 62
7
  6
CONTINUOUS
 10
9.6780020282
 20
9.7494121101
 11
8.7523638367
 21
9.7494121101
  0
LINE
  5
37F
100
AcDbEntity
  8
03__ASM_ALL_CURVES
100
AcDbLine
 62
4
  6
CONTINUOUS
 10
12.1031725923
 20
9.8019266618
 11
12.0890080923
 21
9.8019266618
  0
LINE
  5
380
100
AcDbEntity
  8
03__ASM_ALL_CURVES
100
AcDbLine
 62
4
  6
CONTINUOUS
 10
12.0111033423
 20
9.8019266618
 11
12.0004799673
 21
9.8019266618
  0
LINE
  5
381
100
AcDbEntity
  8
03__ASM_ALL_CURVES
100
AcDbLine
 62
4
  6
CONTINUOUS
 10
11.7632245923
 20
9.8019266618
 11
11.7490600923
 21
9.8019266618
  0
LINE
  5
382
100
AcDbEntity
  8
03__ASM_ALL_CURVES
100
AcDbLine
 62
4
  6
CONTINUOUS
 10
11.4232765923
 20
9.8019266618
 11
11.4091120923
 21
9.8019266618
  0
LINE
  5
383
100
AcDbEntity
  8
03__ASM_ALL_CURVES
100
AcDbLine
 62
4
  6
CONTINUOUS
 10
11.2178913423
 20
9.8019266618
 11
11.2072679673
 21
9.8019266618
  0
LINE
  5
384
100
AcDbEntity
  8
03__ASM_ALL_CURVES
100
AcDbLine
 62
4
  6
CONTINUOUS
 10
12.1810773423
 20
9.8019266618
 11
12.2377353423
 21
9.8019266618
  0
LINE
  5
385
100
AcDbEntity
  8
03__ASM_ALL_CURVES
100
AcDbLine
 62
4
  6
CONTINUOUS
 10
11.2745493423
 20
9.8302556618
 11
11.3382895923
 21
9.8302556618
  0
LINE
  5
386
100
AcDbEntity
  8
03__ASM_ALL_CURVES
100
AcDbLine
 62
4
  6
CONTINUOUS
 10
10.4530083423
 20
9.8585846618
 11
10.7929563423
 21
9.8585846618
  0
LINE
  5
387
100
AcDbEntity
  8
03__ASM_ALL_CURVES
100
AcDbLine
 62
4
  6
CONTINUOUS
 10
11.4091120923
 20
9.8680276595
 11
11.4232765923
 21
9.8680276595
  0
LINE
  5
388
100
AcDbEntity
  8
03__ASM_ALL_CURVES
100
AcDbLine
 62
4
  6
CONTINUOUS
 10
11.7490600923
 20
9.8680276595
 11
11.7632245923
 21
9.8680276595
  0
LINE
  5
389
100
AcDbEntity
  8
03__ASM_ALL_CURVES
100
AcDbLine
 62
4
  6
CONTINUOUS
 10
12.0890080923
 20
9.8680276595
 11
12.1031725923
 21
9.8680276595
  0
LINE
  5
38A
100
AcDbEntity
  8
03__ASM_ALL_CURVES
100
AcDbLine
 62
4
  6
CONTINUOUS
 10
11.4091120923
 20
9.9152426618
 11
11.4232765923
 21
9.9152426618
  0
LINE
  5
38B
100
AcDbEntity
  8
03__ASM_ALL_CURVES
100
AcDbLine
 62
4
  6
CONTINUOUS
 10
11.7490600923
 20
9.9152426618
 11
11.7632245923
 21
9.9152426618
  0
LINE
  5
38C
100
AcDbEntity
  8
03__ASM_ALL_CURVES
100
AcDbLine
 62
4
  6
CONTINUOUS
 10
12.0890080923
 20
9.9152426618
 11
12.1031725923
 21
9.9152426618
  0
LINE
  5
38D
100
AcDbEntity
  8
03__ASM_ALL_CURVES
100
AcDbLine
 62
4
  6
CONTINUOUS
 10
12.2023240923
 20
9.9152426618
 11
12.2164885923
 21
9.9152426618
  0
LINE
  5
38E
100
AcDbEntity
  8
03__ASM_ALL_CURVES
100
AcDbLine
 62
4
  6
CONTINUOUS
 10
12.3156400923
 20
7.5702426618
 11
12.3298045923
 21
7.5513566595
  0
LINE
  5
38F
100
AcDbEntity
  8
03__ASM_ALL_CURVES
100
AcDbLine
 62
4
  6
CONTINUOUS
 10
11.6286618423
 20
7.5041416607
 11
11.6357440923
 21
7.4758126624
  0
LINE
  5
390
100
AcDbEntity
  8
03__ASM_ALL_CURVES
100
AcDbLine
 62
4
  6
CONTINUOUS
 10
11.2674670923
 20
13.1055056618
 11
11.2674670923
 21
13.1149486629
  0
LINE
  5
391
100
AcDbEntity
  8
03__ASM_ALL_CURVES
100
AcDbLine
 62
4
  6
CONTINUOUS
 10
11.2674670923
 20
13.2672556618
 11
11.2674670923
 21
13.2766986629
  0
LINE
  5
392
100
AcDbEntity
  8
03__ASM_ALL_CURVES
100
AcDbLine
 62
4
  6
CONTINUOUS
 10
11.2745493423
 20
13.1621636618
 11
11.2745493423
 21
13.1716066595
  0
LINE
  5
393
100
AcDbEntity
  8
03__ASM_ALL_CURVES
100
AcDbLine
 62
4
  6
CONTINUOUS
 10
11.2745493423
 20
13.3239136618
 11
11.2745493423
 21
13.3333566595
  0
LINE
  5
394
100
AcDbEntity
  8
03__ASM_ALL_CURVES
100
AcDbLine
 62
4
  6
CONTINUOUS
 10
11.3241250923
 20
9.8019266618
 11
11.3241250923
 21
9.9152426618
  0
LINE
  5
395
100
AcDbEntity
  8
03__ASM_ALL_CURVES
100
AcDbLine
 62
4
  6
CONTINUOUS
 10
11.3312073423
 20
13.3333566595
 11
11.3312073423
 21
13.3239136618
  0
LINE
  5
396
100
AcDbEntity
  8
03__ASM_ALL_CURVES
100
AcDbLine
 62
4
  6
CONTINUOUS
 10
11.3312073423
 20
13.1716066595
 11
11.3312073423
 21
13.1621636618
  0
LINE
  5
397
100
AcDbEntity
  8
03__ASM_ALL_CURVES
100
AcDbLine
 62
4
  6
CONTINUOUS
 10
11.3312073423
 20
7.532470664
 11
11.3312073423
 21
7.4946986629
  0
LINE
  5
398
100
AcDbEntity
  8
03__ASM_ALL_CURVES
100
AcDbLine
 62
4
  6
CONTINUOUS
 10
11.3382895923
 20
13.2766986629
 11
11.3382895923
 21
13.2672556618
  0
LINE
  5
399
100
AcDbEntity
  8
03__ASM_ALL_CURVES
100
AcDbLine
 62
4
  6
CONTINUOUS
 10
11.3382895923
 20
13.1149486629
 11
11.3382895923
 21
13.1055056618
  0
LINE
  5
39A
100
AcDbEntity
  8
03__ASM_ALL_CURVES
100
AcDbLine
 62
4
  6
CONTINUOUS
 10
11.3878653423
 20
7.4946986629
 11
11.3878653423
 21
7.532470664
  0
LINE
  5
39B
100
AcDbEntity
  8
03__ASM_ALL_CURVES
100
AcDbLine
 62
4
  6
CONTINUOUS
 10
11.4161943423
 20
13.1904926618
 11
11.4161943423
 21
13.0771766618
  0
LINE
  5
39C
100
AcDbEntity
  8
03__ASM_ALL_CURVES
100
AcDbLine
 62
4
  6
CONTINUOUS
 10
11.4445233423
 20
9.8963566595
 11
11.4445233423
 21
9.8869136618
  0
LINE
  5
39D
100
AcDbEntity
  8
03__ASM_ALL_CURVES
100
AcDbLine
 62
4
  6
CONTINUOUS
 10
11.4445233423
 20
7.532470664
 11
11.4445233423
 21
7.4946986629
  0
LINE
  5
39E
100
AcDbEntity
  8
03__ASM_ALL_CURVES
100
AcDbLine
 62
4
  6
CONTINUOUS
 10
11.4516055923
 20
9.8396986629
 11
11.4516055923
 21
9.8302556618
  0
LINE
  5
39F
100
AcDbEntity
  8
03__ASM_ALL_CURVES
100
AcDbLine
 62
4
  6
CONTINUOUS
 10
12.3298045923
 20
13.1243916607
 11
12.3368868423
 21
13.152720664
  0
LINE
  5
3A0
100
AcDbEntity
  8
03__ASM_ALL_CURVES
100
AcDbLine
 62
4
  6
CONTINUOUS
 10
12.4502028423
 20
13.2861416607
 11
12.4431205923
 21
13.2578126624
  0
LINE
  5
3A1
100
AcDbEntity
  8
03__ASM_ALL_CURVES
100
AcDbLine
 62
4
  6
CONTINUOUS
 10
11.6357440923
 20
9.8963566595
 11
11.6286618423
 21
9.8680276595
  0
LINE
  5
3A2
100
AcDbEntity
  8
03__ASM_ALL_CURVES
100
AcDbLine
 62
4
  6
CONTINUOUS
 10
12.4502028423
 20
13.1243916607
 11
12.4431205923
 21
13.0960626624
  0
LINE
  5
3A3
100
AcDbEntity
  8
03__ASM_ALL_CURVES
100
AcDbLine
 62
4
  6
CONTINUOUS
 10
11.0479173423
 20
8.439470664
 11
11.0549995923
 21
8.4583566595
  0
LINE
  5
3A4
100
AcDbEntity
  8
03__ASM_ALL_CURVES
100
AcDbLine
 62
4
  6
CONTINUOUS
 10
11.1045753423
 20
8.4016986629
 11
11.0974930923
 21
8.3828126624
  0
LINE
  5
3A5
100
AcDbEntity
  8
03__ASM_ALL_CURVES
100
AcDbLine
 62
4
  6
CONTINUOUS
 10
11.8411293423
 20
9.877470664
 11
11.8482115923
 21
9.8963566595
  0
LINE
  5
3A6
100
AcDbEntity
  8
03__ASM_ALL_CURVES
100
AcDbLine
 62
4
  6
CONTINUOUS
 10
9.1580343423
 20
5.8804509118
 11
9.1674773401
 21
5.8946154118
  0
LINE
  5
3A7
100
AcDbEntity
  8
03__ASM_ALL_CURVES
100
AcDbLine
 62
4
  6
CONTINUOUS
 10
10.3963503423
 20
7.6840306618
 11
10.386907342
 21
7.6698661618
  0
LINE
  5
3A8
100
AcDbEntity
  8
03__ASM_ALL_CURVES
100
AcDbLine
 62
4
  6
CONTINUOUS
 10
11.8907050923
 20
9.8208126624
 11
11.8836228423
 21
9.8113696621
  0
LINE
  5
3A9
100
AcDbEntity
  8
03__ASM_ALL_CURVES
100
AcDbLine
 62
4
  6
CONTINUOUS
 10
12.1244193423
 20
9.8869136618
 11
12.1173370923
 21
9.877470664
  0
LINE
  5
3AA
100
AcDbEntity
  8
03__ASM_ALL_CURVES
100
AcDbLine
 62
4
  6
CONTINUOUS
 10
11.0549995923
 20
8.4583566595
 11
11.0620818423
 21
8.467799664
  0
LINE
  5
3AB
100
AcDbEntity
  8
03__ASM_ALL_CURVES
100
AcDbLine
 62
4
  6
CONTINUOUS
 10
12.1315015923
 20
9.8302556618
 11
12.1173370923
 21
9.8113696621
  0
LINE
  5
3AC
100
AcDbEntity
  8
03__ASM_ALL_CURVES
100
AcDbLine
 62
4
  6
CONTINUOUS
 10
12.1810773423
 20
9.8963566595
 11
12.1881595923
 21
9.905799664
  0
LINE
  5
3AD
100
AcDbEntity
  8
03__ASM_ALL_CURVES
100
AcDbLine
 62
4
  6
CONTINUOUS
 10
11.0974930923
 20
8.3828126624
 11
11.0904108423
 21
8.3733696621
  0
LINE
  5
3AE
100
AcDbEntity
  8
03__ASM_ALL_CURVES
100
AcDbLine
 62
4
  6
CONTINUOUS
 10
12.2023240923
 20
9.8491416607
 11
12.1881595923
 21
9.8302556618
  0
LINE
  5
3AF
100
AcDbEntity
  8
03__ASM_ALL_CURVES
100
AcDbLine
 62
4
  6
CONTINUOUS
 10
12.2377353423
 20
9.877470664
 11
12.2306530923
 21
9.8680276595
  0
LINE
  5
3B0
100
AcDbEntity
  8
03__ASM_ALL_CURVES
100
AcDbLine
 62
4
  6
CONTINUOUS
 10
8.1321858419
 20
6.4576542868
 11
8.1463503423
 21
6.4682776618
  0
LINE
  5
3B1
100
AcDbEntity
  8
03__ASM_ALL_CURVES
100
AcDbLine
 62
4
  6
CONTINUOUS
 10
8.0802493446
 20
6.2345634118
 11
8.0896923423
 21
6.2416456618
  0
LINE
  5
3B2
100
AcDbEntity
  8
03__ASM_ALL_CURVES
100
AcDbLine
 62
4
  6
CONTINUOUS
 10
8.136907342
 20
6.1920699118
 11
8.1274643418
 21
6.1849876618
  0
LINE
  5
3B3
100
AcDbEntity
  8
03__ASM_ALL_CURVES
100
AcDbLine
 62
4
  6
CONTINUOUS
 10
11.0620818423
 20
8.467799664
 11
11.0762463423
 21
8.4772426618
  0
LINE
  5
3B4
100
AcDbEntity
  8
03__ASM_ALL_CURVES
100
AcDbLine
 62
4
  6
CONTINUOUS
 10
11.4091120923
 20
9.8019266618
 11
11.3949475923
 21
9.8113696621
  0
LINE
  5
3B5
100
AcDbEntity
  8
03__ASM_ALL_CURVES
100
AcDbLine
 62
4
  6
CONTINUOUS
 10
11.2072679673
 20
9.8160911622
 11
11.2178913423
 21
9.8019266618
  0
LINE
  5
3B6
100
AcDbEntity
  8
03__ASM_ALL_CURVES
100
AcDbLine
 62
4
  6
CONTINUOUS
 10
12.1881595923
 20
7.4758126624
 11
12.1810773423
 21
7.4946986629
  0
LINE
  5
3B7
100
AcDbEntity
  8
03__ASM_ALL_CURVES
100
AcDbLine
 62
4
  6
CONTINUOUS
 10
12.2306530923
 20
7.5135846618
 11
12.2377353423
 21
7.4946986629
  0
LINE
  5
3B8
100
AcDbEntity
  8
03__ASM_ALL_CURVES
100
AcDbLine
 62
4
  6
CONTINUOUS
 10
11.6286618423
 20
13.3050276595
 11
11.6286618423
 21
13.2861416607
  0
LINE
  5
3B9
100
AcDbEntity
  8
03__ASM_ALL_CURVES
100
AcDbLine
 62
4
  6
CONTINUOUS
 10
11.6286618423
 20
13.1432776595
 11
11.6286618423
 21
13.1243916607
  0
LINE
  5
3BA
100
AcDbEntity
  8
03__ASM_ALL_CURVES
100
AcDbLine
 62
4
  6
CONTINUOUS
 10
11.6286618423
 20
9.8680276595
 11
11.6286618423
 21
9.8491416607
  0
LINE
  5
3BB
100
AcDbEntity
  8
03__ASM_ALL_CURVES
100
AcDbLine
 62
4
  6
CONTINUOUS
 10
11.6286618423
 20
7.5230276595
 11
11.6286618423
 21
7.5041416607
  0
LINE
  5
3BC
100
AcDbEntity
  8
03__ASM_ALL_CURVES
100
AcDbLine
 62
4
  6
CONTINUOUS
 10
11.7561423423
 20
13.3522426618
 11
11.7561423423
 21
13.2389266618
  0
LINE
  5
3BD
100
AcDbEntity
  8
03__ASM_ALL_CURVES
100
AcDbLine
 62
4
  6
CONTINUOUS
 10
11.7561423423
 20
13.1904926618
 11
11.7561423423
 21
13.0771766618
  0
LINE
  5
3BE
100
AcDbEntity
  8
03__ASM_ALL_CURVES
100
AcDbLine
 62
4
  6
CONTINUOUS
 10
11.7844713423
 20
9.8963566595
 11
11.7844713423
 21
9.8869136618
  0
LINE
  5
3BF
100
AcDbEntity
  8
03__ASM_ALL_CURVES
100
AcDbLine
 62
4
  6
CONTINUOUS
 10
11.7844713423
 20
7.5513566595
 11
11.7844713423
 21
7.532470664
  0
LINE
  5
3C0
100
AcDbEntity
  8
03__ASM_ALL_CURVES
100
AcDbLine
 62
4
  6
CONTINUOUS
 10
11.7915535923
 20
9.8396986629
 11
11.7915535923
 21
9.8302556618
  0
LINE
  5
3C1
100
AcDbEntity
  8
03__ASM_ALL_CURVES
100
AcDbLine
 62
4
  6
CONTINUOUS
 10
11.8411293423
 20
9.8396986629
 11
11.8411293423
 21
9.877470664
  0
LINE
  5
3C2
100
AcDbEntity
  8
03__ASM_ALL_CURVES
100
AcDbLine
 62
4
  6
CONTINUOUS
 10
12.3227223423
 20
13.0771766618
 11
12.3298045923
 21
13.1243916607
  0
LINE
  5
3C3
100
AcDbEntity
  8
03__ASM_ALL_CURVES
100
AcDbLine
 62
4
  6
CONTINUOUS
 10
12.6555880923
 20
13.1716066595
 11
12.6485058423
 21
13.1432776595
  0
LINE
  5
3C4
100
AcDbEntity
  8
03__ASM_ALL_CURVES
100
AcDbLine
 62
4
  6
CONTINUOUS
 10
11.8411293423
 20
9.8396986629
 11
11.8482115923
 21
9.8585846618
  0
LINE
  5
3C5
100
AcDbEntity
  8
03__ASM_ALL_CURVES
100
AcDbLine
 62
4
  6
CONTINUOUS
 10
11.8977873423
 20
9.8396986629
 11
11.8907050923
 21
9.8208126624
  0
LINE
  5
3C6
100
AcDbEntity
  8
03__ASM_ALL_CURVES
100
AcDbLine
 62
4
  6
CONTINUOUS
 10
11.0479173423
 20
7.532470664
 11
11.0549995923
 21
7.5513566595
  0
LINE
  5
3C7
100
AcDbEntity
  8
03__ASM_ALL_CURVES
100
AcDbLine
 62
4
  6
CONTINUOUS
 10
11.1045753423
 20
7.4946986629
 11
11.0974930923
 21
7.4758126624
  0
LINE
  5
3C8
100
AcDbEntity
  8
03__ASM_ALL_CURVES
100
AcDbLine
 62
4
  6
CONTINUOUS
 10
11.2745493423
 20
7.532470664
 11
11.2816315923
 21
7.5513566595
  0
LINE
  5
3C9
100
AcDbEntity
  8
03__ASM_ALL_CURVES
100
AcDbLine
 62
4
  6
CONTINUOUS
 10
12.3298045923
 20
9.8208126624
 11
12.3156400923
 21
9.8019266618
  0
LINE
  5
3CA
100
AcDbEntity
  8
03__ASM_ALL_CURVES
100
AcDbLine
 62
4
  6
CONTINUOUS
 10
8.1274643418
 20
6.0929184118
 11
8.1463503423
 21
6.1070829118
  0
LINE
  5
3CB
100
AcDbEntity
  8
03__ASM_ALL_CURVES
100
AcDbLine
 62
4
  6
CONTINUOUS
 10
10.2924773401
 20
7.6981951618
 11
10.3019203446
 21
7.7052774118
  0
LINE
  5
3CC
100
AcDbEntity
  8
03__ASM_ALL_CURVES
100
AcDbLine
 62
4
  6
CONTINUOUS
 10
9.1580343423
 20
6.7728144118
 11
9.1769203446
 21
6.7869789118
  0
LINE
  5
3CD
100
AcDbEntity
  8
03__ASM_ALL_CURVES
100
AcDbLine
 62
4
  6
CONTINUOUS
 10
10.386907342
 20
7.6698661618
 11
10.3774643418
 21
7.6627839118
  0
LINE
  5
3CE
100
AcDbEntity
  8
03__ASM_ALL_CURVES
100
AcDbLine
 62
4
  6
CONTINUOUS
 10
8.0802493446
 20
5.8946154118
 11
8.0896923423
 21
5.9016976618
  0
LINE
  5
3CF
100
AcDbEntity
  8
03__ASM_ALL_CURVES
100
AcDbLine
 62
4
  6
CONTINUOUS
 10
8.136907342
 20
5.8521219118
 11
8.1274643418
 21
5.8450396618
  0
LINE
  5
3D0
100
AcDbEntity
  8
03__ASM_ALL_CURVES
100
AcDbLine
 62
4
  6
CONTINUOUS
 10
8.0424773401
 20
5.7812994118
 11
8.0519203446
 21
5.7883816618
  0
LINE
  5
3D1
100
AcDbEntity
  8
03__ASM_ALL_CURVES
100
AcDbLine
 62
4
  6
CONTINUOUS
 10
11.0904108423
 20
8.3733696621
 11
11.0762463423
 21
8.3639266618
  0
LINE
  5
3D2
100
AcDbEntity
  8
0
100
AcDbLine
 62
7
  6
CONTINUOUS
 10
9.9234215915
 20
7.5648125177
 11
9.8346923423
 21
7.5135846618
  0
LINE
  5
3D3
100
AcDbEntity
  8
03__ASM_ALL_CURVES
100
AcDbLine
 62
4
  6
CONTINUOUS
 10
11.8694583423
 20
9.8680276595
 11
11.8907050923
 21
9.8585846618
  0
LINE
  5
3D4
100
AcDbEntity
  8
03__ASM_ALL_CURVES
100
AcDbLine
 62
4
  6
CONTINUOUS
 10
11.4232765923
 20
9.8680276595
 11
11.4374410923
 21
9.8585846618
  0
LINE
  5
3D5
100
AcDbEntity
  8
03__ASM_ALL_CURVES
100
AcDbLine
 62
4
  6
CONTINUOUS
 10
11.4232765923
 20
9.9152426618
 11
11.4374410923
 21
9.905799664
  0
LINE
  5
3D6
100
AcDbEntity
  8
03__ASM_ALL_CURVES
100
AcDbLine
 62
4
  6
CONTINUOUS
 10
11.7490600923
 20
9.8019266618
 11
11.7348955923
 21
9.8113696621
  0
LINE
  5
3D7
100
AcDbEntity
  8
03__ASM_ALL_CURVES
100
AcDbLine
 62
4
  6
CONTINUOUS
 10
11.7632245923
 20
9.8680276595
 11
11.7773890923
 21
9.8585846618
  0
LINE
  5
3D8
100
AcDbEntity
  8
03__ASM_ALL_CURVES
100
AcDbLine
 62
4
  6
CONTINUOUS
 10
11.8694583423
 20
9.8019266618
 11
11.8552938423
 21
9.8113696621
  0
LINE
  5
3D9
100
AcDbEntity
  8
03__ASM_ALL_CURVES
100
AcDbLine
 62
4
  6
CONTINUOUS
 10
11.7632245923
 20
9.9152426618
 11
11.7773890923
 21
9.905799664
  0
LINE
  5
3DA
100
AcDbEntity
  8
03__ASM_ALL_CURVES
100
AcDbLine
 62
4
  6
CONTINUOUS
 10
11.8694583423
 20
9.9152426618
 11
11.8836228423
 21
9.905799664
  0
LINE
  5
3DB
100
AcDbEntity
  8
03__ASM_ALL_CURVES
100
AcDbLine
 62
4
  6
CONTINUOUS
 10
11.3949475923
 20
9.8113696621
 11
11.3878653423
 21
9.8208126624
  0
LINE
  5
3DC
100
AcDbEntity
  8
03__ASM_ALL_CURVES
100
AcDbLine
 62
4
  6
CONTINUOUS
 10
11.4374410923
 20
9.8585846618
 11
11.4516055923
 21
9.8396986629
  0
LINE
  5
3DD
100
AcDbEntity
  8
03__ASM_ALL_CURVES
100
AcDbLine
 62
4
  6
CONTINUOUS
 10
11.4374410923
 20
9.905799664
 11
11.4445233423
 21
9.8963566595
  0
LINE
  5
3DE
100
AcDbEntity
  8
03__ASM_ALL_CURVES
100
AcDbLine
 62
4
  6
CONTINUOUS
 10
11.6357440923
 20
9.8208126624
 11
11.6499085923
 21
9.8019266618
  0
LINE
  5
3DF
100
AcDbEntity
  8
03__ASM_ALL_CURVES
100
AcDbLine
 62
4
  6
CONTINUOUS
 10
11.7348955923
 20
9.8113696621
 11
11.7278133423
 21
9.8208126624
  0
LINE
  5
3E0
100
AcDbEntity
  8
03__ASM_ALL_CURVES
100
AcDbLine
 62
4
  6
CONTINUOUS
 10
11.6286618423
 20
9.8491416607
 11
11.6357440923
 21
9.8208126624
  0
LINE
  5
3E1
100
AcDbEntity
  8
03__ASM_ALL_CURVES
100
AcDbLine
 62
4
  6
CONTINUOUS
 10
11.8977873423
 20
13.3333566595
 11
11.8977873423
 21
13.314470664
  0
LINE
  5
3E2
100
AcDbEntity
  8
03__ASM_ALL_CURVES
100
AcDbLine
 62
4
  6
CONTINUOUS
 10
11.8977873423
 20
13.1716066595
 11
11.8977873423
 21
13.152720664
  0
LINE
  5
3E3
100
AcDbEntity
  8
03__ASM_ALL_CURVES
100
AcDbLine
 62
4
  6
CONTINUOUS
 10
11.8977873423
 20
7.5513566595
 11
11.8977873423
 21
7.532470664
  0
LINE
  5
3E4
100
AcDbEntity
  8
03__ASM_ALL_CURVES
100
AcDbLine
 62
4
  6
CONTINUOUS
 10
12.0004799673
 20
7.4569266618
 11
12.0004799673
 21
7.4710911622
  0
LINE
  5
3E5
100
AcDbEntity
  8
03__ASM_ALL_CURVES
100
AcDbLine
 62
4
  6
CONTINUOUS
 10
12.0004799673
 20
9.8019266618
 11
12.0004799673
 21
9.8160911622
  0
LINE
  5
3E6
100
AcDbEntity
  8
03__ASM_ALL_CURVES
100
AcDbLine
 62
4
  6
CONTINUOUS
 10
12.0111033423
 20
13.3333566595
 11
12.0111033423
 21
13.3239136618
  0
LINE
  5
3E7
100
AcDbEntity
  8
03__ASM_ALL_CURVES
100
AcDbLine
 62
4
  6
CONTINUOUS
 10
12.0111033423
 20
13.1716066595
 11
12.0111033423
 21
13.152720664
  0
LINE
  5
3E8
100
AcDbEntity
  8
03__ASM_ALL_CURVES
100
AcDbLine
 62
4
  6
CONTINUOUS
 10
12.0181855923
 20
13.2766986629
 11
12.0181855923
 21
13.2672556618
  0
LINE
  5
3E9
100
AcDbEntity
  8
03__ASM_ALL_CURVES
100
AcDbLine
 62
4
  6
CONTINUOUS
 10
12.0606790923
 20
7.4852556618
 11
12.0606790923
 21
7.4946986629
  0
LINE
  5
3EA
100
AcDbEntity
  8
03__ASM_ALL_CURVES
100
AcDbLine
 62
4
  6
CONTINUOUS
 10
12.0677613423
 20
7.5419136618
 11
12.0677613423
 21
7.5513566595
  0
LINE
  5
3EB
100
AcDbEntity
  8
03__ASM_ALL_CURVES
100
AcDbLine
 62
4
  6
CONTINUOUS
 10
12.1137959673
 20
13.0771766618
 11
12.1137959673
 21
13.0913411622
  0
LINE
  5
3EC
100
AcDbEntity
  8
03__ASM_ALL_CURVES
100
AcDbLine
 62
4
  6
CONTINUOUS
 10
12.1137959673
 20
13.2389266618
 11
12.1137959673
 21
13.2530911622
  0
LINE
  5
3ED
100
AcDbEntity
  8
03__ASM_ALL_CURVES
100
AcDbLine
 62
4
  6
CONTINUOUS
 10
12.1244193423
 20
9.8963566595
 11
12.1244193423
 21
9.8869136618
  0
LINE
  5
3EE
100
AcDbEntity
  8
03__ASM_ALL_CURVES
100
AcDbLine
 62
4
  6
CONTINUOUS
 10
12.1244193423
 20
7.5513566595
 11
12.1244193423
 21
7.5419136618
  0
LINE
  5
3EF
100
AcDbEntity
  8
03__ASM_ALL_CURVES
100
AcDbLine
 62
4
  6
CONTINUOUS
 10
12.1315015923
 20
9.8396986629
 11
12.1315015923
 21
9.8302556618
  0
LINE
  5
3F0
100
AcDbEntity
  8
03__ASM_ALL_CURVES
100
AcDbLine
 62
4
  6
CONTINUOUS
 10
12.1315015923
 20
7.4946986629
 11
12.1315015923
 21
7.4852556618
  0
LINE
  5
3F1
100
AcDbEntity
  8
03__ASM_ALL_CURVES
100
AcDbLine
 62
4
  6
CONTINUOUS
 10
12.1881595923
 20
9.8302556618
 11
12.1810773423
 21
9.8019266618
  0
LINE
  5
3F2
100
AcDbEntity
  8
03__ASM_ALL_CURVES
100
AcDbLine
 62
4
  6
CONTINUOUS
 10
13.0167828423
 20
13.1243916607
 11
13.0097005923
 21
13.0960626624
  0
LINE
  5
3F3
100
AcDbEntity
  8
03__ASM_ALL_CURVES
100
AcDbLine
 62
4
  6
CONTINUOUS
 10
11.6357440923
 20
7.5513566595
 11
11.6286618423
 21
7.5230276595
  0
LINE
  5
3F4
100
AcDbEntity
  8
03__ASM_ALL_CURVES
100
AcDbLine
 62
4
  6
CONTINUOUS
 10
11.7348955923
 20
7.4852556618
 11
11.7278133423
 21
7.4569266618
  0
LINE
  5
3F5
100
AcDbEntity
  8
03__ASM_ALL_CURVES
100
AcDbLine
 62
4
  6
CONTINUOUS
 10
12.3368868423
 20
9.8491416607
 11
12.3298045923
 21
9.8208126624
  0
LINE
  5
3F6
100
AcDbEntity
  8
03__ASM_ALL_CURVES
100
AcDbLine
 62
4
  6
CONTINUOUS
 10
11.3312073423
 20
7.532470664
 11
11.3241250923
 21
7.5135846618
  0
LINE
  5
3F7
100
AcDbEntity
  8
03__ASM_ALL_CURVES
100
AcDbLine
 62
4
  6
CONTINUOUS
 10
11.3312073423
 20
7.4946986629
 11
11.3241250923
 21
7.4758126624
  0
LINE
  5
3F8
100
AcDbEntity
  8
03__ASM_ALL_CURVES
100
AcDbLine
 62
4
  6
CONTINUOUS
 10
11.3878653423
 20
7.532470664
 11
11.3949475923
 21
7.5513566595
  0
LINE
  5
3F9
100
AcDbEntity
  8
03__ASM_ALL_CURVES
100
AcDbLine
 62
4
  6
CONTINUOUS
 10
11.4445233423
 20
7.4946986629
 11
11.4374410923
 21
7.4758126624
  0
LINE
  5
3FA
100
AcDbEntity
  8
03__ASM_ALL_CURVES
100
AcDbLine
 62
4
  6
CONTINUOUS
 10
11.0549995923
 20
7.5513566595
 11
11.0620818423
 21
7.560799664
  0
LINE
  5
3FB
100
AcDbEntity
  8
03__ASM_ALL_CURVES
100
AcDbLine
 62
4
  6
CONTINUOUS
 10
11.0974930923
 20
7.4758126624
 11
11.0904108423
 21
7.4663696621
  0
LINE
  5
3FC
100
AcDbEntity
  8
03__ASM_ALL_CURVES
100
AcDbLine
 62
4
  6
CONTINUOUS
 10
11.2816315923
 20
7.5513566595
 11
11.2887138423
 21
7.560799664
  0
LINE
  5
3FD
100
AcDbEntity
  8
03__ASM_ALL_CURVES
100
AcDbLine
 62
4
  6
CONTINUOUS
 10
8.1321858419
 20
5.6644422868
 11
8.1463503423
 21
5.6750656618
  0
LINE
  5
3FE
100
AcDbEntity
  8
03__ASM_ALL_CURVES
100
AcDbLine
 62
4
  6
CONTINUOUS
 10
8.0424773401
 20
5.5546674118
 11
8.0519203446
 21
5.5617496618
  0
LINE
  5
3FF
100
AcDbEntity
  8
03__ASM_ALL_CURVES
100
AcDbLine
 62
4
  6
CONTINUOUS
 10
9.2571858419
 20
6.4576542868
 11
9.2713503423
 21
6.4682776618
  0
LINE
  5
400
100
AcDbEntity
  8
03__ASM_ALL_CURVES
100
AcDbLine
 62
4
  6
CONTINUOUS
 10
9.1674773401
 20
6.3478794118
 11
9.1769203446
 21
6.3549616618
  0
LINE
  5
401
100
AcDbEntity
  8
03__ASM_ALL_CURVES
100
AcDbLine
 62
4
  6
CONTINUOUS
 10
9.2146923423
 20
6.3478794118
 11
9.2335783412
 21
6.3620439118
  0
LINE
  5
402
100
AcDbEntity
  8
03__ASM_ALL_CURVES
100
AcDbLine
 62
4
  6
CONTINUOUS
 10
9.1958063401
 20
6.3053859118
 11
9.1863633423
 21
6.2983036618
  0
LINE
  5
403
100
AcDbEntity
  8
03__ASM_ALL_CURVES
100
AcDbLine
 62
4
  6
CONTINUOUS
 10
9.261907342
 20
6.3053859118
 11
9.2430213423
 21
6.2912214118
  0
LINE
  5
404
100
AcDbEntity
  8
03__ASM_ALL_CURVES
100
AcDbLine
 62
4
  6
CONTINUOUS
 10
9.1674773401
 20
6.2345634118
 11
9.1769203446
 21
6.2416456618
  0
LINE
  5
405
100
AcDbEntity
  8
03__ASM_ALL_CURVES
100
AcDbLine
 62
4
  6
CONTINUOUS
 10
10.3019203446
 20
7.7052774118
 11
10.3208063401
 21
7.7123596618
  0
LINE
  5
406
100
AcDbEntity
  8
03__ASM_ALL_CURVES
100
AcDbLine
 62
4
  6
CONTINUOUS
 10
10.3774643418
 20
7.6627839118
 11
10.3585783412
 21
7.6557016618
  0
LINE
  5
407
100
AcDbEntity
  8
03__ASM_ALL_CURVES
100
AcDbLine
 62
4
  6
CONTINUOUS
 10
8.0896923423
 20
6.6949096618
 11
8.1085783412
 21
6.7019919118
  0
LINE
  5
408
100
AcDbEntity
  8
03__ASM_ALL_CURVES
100
AcDbLine
 62
4
  6
CONTINUOUS
 10
12.0890080923
 20
9.8019266618
 11
12.0748435923
 21
9.8113696621
  0
LINE
  5
409
100
AcDbEntity
  8
03__ASM_ALL_CURVES
100
AcDbLine
 62
4
  6
CONTINUOUS
 10
12.1031725923
 20
9.8680276595
 11
12.1173370923
 21
9.8585846618
  0
LINE
  5
40A
100
AcDbEntity
  8
03__ASM_ALL_CURVES
100
AcDbLine
 62
4
  6
CONTINUOUS
 10
12.1031725923
 20
9.9152426618
 11
12.1173370923
 21
9.905799664
  0
LINE
  5
40B
100
AcDbEntity
  8
03__ASM_ALL_CURVES
100
AcDbLine
 62
4
  6
CONTINUOUS
 10
12.2164885923
 20
9.9152426618
 11
12.2306530923
 21
9.905799664
  0
LINE
  5
40C
100
AcDbEntity
  8
03__ASM_ALL_CURVES
100
AcDbLine
 62
4
  6
CONTINUOUS
 10
11.7773890923
 20
9.8585846618
 11
11.7915535923
 21
9.8396986629
  0
LINE
  5
40D
100
AcDbEntity
  8
03__ASM_ALL_CURVES
100
AcDbLine
 62
4
  6
CONTINUOUS
 10
11.7773890923
 20
9.905799664
 11
11.7844713423
 21
9.8963566595
  0
LINE
  5
40E
100
AcDbEntity
  8
03__ASM_ALL_CURVES
100
AcDbLine
 62
4
  6
CONTINUOUS
 10
11.8552938423
 20
9.8113696621
 11
11.8482115923
 21
9.8208126624
  0
LINE
  5
40F
100
AcDbEntity
  8
03__ASM_ALL_CURVES
100
AcDbLine
 62
4
  6
CONTINUOUS
 10
11.8836228423
 20
9.905799664
 11
11.8907050923
 21
9.8963566595
  0
LINE
  5
410
100
AcDbEntity
  8
03__ASM_ALL_CURVES
100
AcDbLine
 62
4
  6
CONTINUOUS
 10
12.0004799673
 20
9.8160911622
 11
12.0111033423
 21
9.8019266618
  0
LINE
  5
411
100
AcDbEntity
  8
03__ASM_ALL_CURVES
100
AcDbLine
 62
4
  6
CONTINUOUS
 10
12.0748435923
 20
9.8113696621
 11
12.0677613423
 21
9.8208126624
  0
LINE
  5
412
100
AcDbEntity
  8
03__ASM_ALL_CURVES
100
AcDbLine
 62
4
  6
CONTINUOUS
 10
12.1173370923
 20
9.8585846618
 11
12.1315015923
 21
9.8396986629
  0
LINE
  5
413
100
AcDbEntity
  8
03__ASM_ALL_CURVES
100
AcDbLine
 62
4
  6
CONTINUOUS
 10
11.8482115923
 20
9.8208126624
 11
11.8411293423
 21
9.8396986629
  0
LINE
  5
414
100
AcDbEntity
  8
03__ASM_ALL_CURVES
100
AcDbLine
 62
4
  6
CONTINUOUS
 10
11.8907050923
 20
9.8585846618
 11
11.8977873423
 21
9.8396986629
  0
LINE
  5
415
100
AcDbEntity
  8
03__ASM_ALL_CURVES
100
AcDbLine
 62
4
  6
CONTINUOUS
 10
12.3298045923
 20
7.5513566595
 11
12.3368868423
 21
7.5230276595
  0
LINE
  5
416
100
AcDbEntity
  8
03__ASM_ALL_CURVES
100
AcDbLine
 62
4
  6
CONTINUOUS
 10
12.1810773423
 20
7.4946986629
 11
12.1810773423
 21
7.532470664
  0
LINE
  5
417
100
AcDbEntity
  8
03__ASM_ALL_CURVES
100
AcDbLine
 62
4
  6
CONTINUOUS
 10
12.1810773423
 20
13.2766986629
 11
12.1810773423
 21
13.314470664
  0
LINE
  5
418
100
AcDbEntity
  8
03__ASM_ALL_CURVES
100
AcDbLine
 62
4
  6
CONTINUOUS
 10
12.2094063423
 20
13.1904926618
 11
12.2094063423
 21
13.0771766618
  0
LINE
  5
419
100
AcDbEntity
  8
03__ASM_ALL_CURVES
100
AcDbLine
 62
4
  6
CONTINUOUS
 10
12.2377353423
 20
9.8963566595
 11
12.2377353423
 21
9.877470664
  0
LINE
  5
41A
100
AcDbEntity
  8
03__ASM_ALL_CURVES
100
AcDbLine
 62
4
  6
CONTINUOUS
 10
12.3368868423
 20
9.8680276595
 11
12.3368868423
 21
9.8491416607
  0
LINE
  5
41B
100
AcDbEntity
  8
03__ASM_ALL_CURVES
100
AcDbLine
 62
4
  6
CONTINUOUS
 10
12.3368868423
 20
7.5230276595
 11
12.3368868423
 21
7.5041416607
  0
LINE
  5
41C
100
AcDbEntity
  8
03__ASM_ALL_CURVES
100
AcDbLine
 62
4
  6
CONTINUOUS
 10
12.3510513423
 20
13.314470664
 11
12.3510513423
 21
13.2766986629
  0
LINE
  5
41D
100
AcDbEntity
  8
03__ASM_ALL_CURVES
100
AcDbLine
 62
4
  6
CONTINUOUS
 10
12.4502028423
 20
13.3050276595
 11
12.4502028423
 21
13.2861416607
  0
LINE
  5
41E
100
AcDbEntity
  8
03__ASM_ALL_CURVES
100
AcDbLine
 62
4
  6
CONTINUOUS
 10
12.4502028423
 20
13.1432776595
 11
12.4502028423
 21
13.1243916607
  0
LINE
  5
41F
100
AcDbEntity
  8
03__ASM_ALL_CURVES
100
AcDbLine
 62
4
  6
CONTINUOUS
 10
11.8482115923
 20
7.4852556618
 11
11.8411293423
 21
7.4569266618
  0
LINE
  5
420
100
AcDbEntity
  8
03__ASM_ALL_CURVES
100
AcDbLine
 62
4
  6
CONTINUOUS
 10
11.3241250923
 20
7.4758126624
 11
11.3170428423
 21
7.4663696621
  0
LINE
  5
421
100
AcDbEntity
  8
03__ASM_ALL_CURVES
100
AcDbLine
 62
4
  6
CONTINUOUS
 10
11.3949475923
 20
7.5513566595
 11
11.4020298423
 21
7.560799664
  0
LINE
  5
422
100
AcDbEntity
  8
03__ASM_ALL_CURVES
100
AcDbLine
 62
4
  6
CONTINUOUS
 10
11.4374410923
 20
7.4758126624
 11
11.4303588423
 21
7.4663696621
  0
LINE
  5
423
100
AcDbEntity
  8
03__ASM_ALL_CURVES
100
AcDbLine
 62
4
  6
CONTINUOUS
 10
11.6499085923
 20
7.5702426618
 11
11.6357440923
 21
7.5513566595
  0
LINE
  5
424
100
AcDbEntity
  8
03__ASM_ALL_CURVES
100
AcDbLine
 62
4
  6
CONTINUOUS
 10
11.7278133423
 20
7.5513566595
 11
11.7348955923
 21
7.560799664
  0
LINE
  5
425
100
AcDbEntity
  8
03__ASM_ALL_CURVES
100
AcDbLine
 62
4
  6
CONTINUOUS
 10
9.2524643418
 20
6.0929184118
 11
9.2713503423
 21
6.1070829118
  0
LINE
  5
426
100
AcDbEntity
  8
03__ASM_ALL_CURVES
100
AcDbLine
 62
4
  6
CONTINUOUS
 10
9.1674773401
 20
5.8946154118
 11
9.1769203446
 21
5.9016976618
  0
LINE
  5
427
100
AcDbEntity
  8
03__ASM_ALL_CURVES
100
AcDbLine
 62
4
  6
CONTINUOUS
 10
11.0620818423
 20
7.560799664
 11
11.0762463423
 21
7.5702426618
  0
LINE
  5
428
100
AcDbEntity
  8
03__ASM_ALL_CURVES
100
AcDbLine
 62
4
  6
CONTINUOUS
 10
11.0904108423
 20
7.4663696621
 11
11.0762463423
 21
7.4569266618
  0
LINE
  5
429
100
AcDbEntity
  8
03__ASM_ALL_CURVES
100
AcDbLine
 62
4
  6
CONTINUOUS
 10
11.2887138423
 20
7.560799664
 11
11.3028783423
 21
7.5702426618
  0
LINE
  5
42A
100
AcDbEntity
  8
03__ASM_ALL_CURVES
100
AcDbLine
 62
4
  6
CONTINUOUS
 10
11.4020298423
 20
7.560799664
 11
11.4161943423
 21
7.5702426618
  0
LINE
  5
42B
100
AcDbEntity
  8
03__ASM_ALL_CURVES
100
AcDbLine
 62
4
  6
CONTINUOUS
 10
11.3170428423
 20
7.4663696621
 11
11.3028783423
 21
7.4569266618
  0
LINE
  5
42C
100
AcDbEntity
  8
03__ASM_ALL_CURVES
100
AcDbLine
 62
4
  6
CONTINUOUS
 10
11.4303588423
 20
7.4663696621
 11
11.4161943423
 21
7.4569266618
  0
LINE
  5
42D
100
AcDbEntity
  8
03__ASM_ALL_CURVES
100
AcDbLine
 62
4
  6
CONTINUOUS
 10
11.3241250923
 20
7.5135846618
 11
11.3028783423
 21
7.5041416607
  0
LINE
  5
42E
100
AcDbEntity
  8
03__ASM_ALL_CURVES
100
AcDbLine
 62
4
  6
CONTINUOUS
 10
8.0896923423
 20
6.2416456618
 11
8.1085783412
 21
6.2487279118
  0
LINE
  5
42F
100
AcDbEntity
  8
03__ASM_ALL_CURVES
100
AcDbLine
 62
4
  6
CONTINUOUS
 10
12.1173370923
 20
9.905799664
 11
12.1244193423
 21
9.8963566595
  0
LINE
  5
430
100
AcDbEntity
  8
03__ASM_ALL_CURVES
100
AcDbLine
 62
4
  6
CONTINUOUS
 10
12.2306530923
 20
9.905799664
 11
12.2377353423
 21
9.8963566595
  0
LINE
  5
431
100
AcDbEntity
  8
03__ASM_ALL_CURVES
100
AcDbLine
 62
4
  6
CONTINUOUS
 10
12.3156400923
 20
9.9152426618
 11
12.3298045923
 21
9.8963566595
  0
LINE
  5
432
100
AcDbEntity
  8
03__ASM_ALL_CURVES
100
AcDbLine
 62
4
  6
CONTINUOUS
 10
12.3298045923
 20
9.8963566595
 11
12.3368868423
 21
9.8680276595
  0
LINE
  5
433
100
AcDbEntity
  8
03__ASM_ALL_CURVES
100
AcDbLine
 62
4
  6
CONTINUOUS
 10
12.6485058423
 20
13.1432776595
 11
12.6485058423
 21
13.1243916607
  0
LINE
  5
434
100
AcDbEntity
  8
03__ASM_ALL_CURVES
100
AcDbLine
 62
4
  6
CONTINUOUS
 10
12.7476573423
 20
13.1904926618
 11
12.7476573423
 21
13.0771766618
  0
LINE
  5
435
100
AcDbEntity
  8
03__ASM_ALL_CURVES
100
AcDbLine
 62
4
  6
CONTINUOUS
 10
12.3368868423
 20
7.5041416607
 11
12.3298045923
 21
7.4758126624
  0
LINE
  5
436
100
AcDbEntity
  8
03__ASM_ALL_CURVES
100
AcDbLine
 62
4
  6
CONTINUOUS
 10
12.1810773423
 20
7.532470664
 11
12.1881595923
 21
7.5513566595
  0
LINE
  5
437
100
AcDbEntity
  8
03__ASM_ALL_CURVES
100
AcDbLine
 62
4
  6
CONTINUOUS
 10
12.1810773423
 20
7.4946986629
 11
12.1881595923
 21
7.5135846618
  0
LINE
  5
438
100
AcDbEntity
  8
03__ASM_ALL_CURVES
100
AcDbLine
 62
4
  6
CONTINUOUS
 10
12.2377353423
 20
7.4946986629
 11
12.2306530923
 21
7.4758126624
  0
LINE
  5
439
100
AcDbEntity
  8
03__ASM_ALL_CURVES
100
AcDbLine
 62
4
  6
CONTINUOUS
 10
11.7490600923
 20
7.5041416607
 11
11.7348955923
 21
7.4852556618
  0
LINE
  5
43A
100
AcDbEntity
  8
03__ASM_ALL_CURVES
100
AcDbLine
 62
4
  6
CONTINUOUS
 10
11.7844713423
 20
7.532470664
 11
11.7773890923
 21
7.5230276595
  0
LINE
  5
43B
100
AcDbEntity
  8
03__ASM_ALL_CURVES
100
AcDbLine
 62
4
  6
CONTINUOUS
 10
11.8411293423
 20
7.5513566595
 11
11.8482115923
 21
7.560799664
  0
LINE
  5
43C
100
AcDbEntity
  8
03__ASM_ALL_CURVES
100
AcDbLine
 62
4
  6
CONTINUOUS
 10
11.8623760923
 20
7.5041416607
 11
11.8482115923
 21
7.4852556618
  0
LINE
  5
43D
100
AcDbEntity
  8
03__ASM_ALL_CURVES
100
AcDbLine
 62
4
  6
CONTINUOUS
 10
11.8977873423
 20
7.532470664
 11
11.8907050923
 21
7.5230276595
  0
LINE
  5
43E
100
AcDbEntity
  8
03__ASM_ALL_CURVES
100
AcDbLine
 62
4
  6
CONTINUOUS
 10
12.0677613423
 20
7.5513566595
 11
12.0748435923
 21
7.560799664
  0
LINE
  5
43F
100
AcDbEntity
  8
03__ASM_ALL_CURVES
100
AcDbLine
 62
4
  6
CONTINUOUS
 10
12.0606790923
 20
7.4946986629
 11
12.0748435923
 21
7.5135846618
  0
LINE
  5
440
100
AcDbEntity
  8
03__ASM_ALL_CURVES
100
AcDbLine
 62
4
  6
CONTINUOUS
 10
12.1244193423
 20
7.5419136618
 11
12.1173370923
 21
7.532470664
  0
LINE
  5
441
100
AcDbEntity
  8
03__ASM_ALL_CURVES
100
AcDbLine
 62
4
  6
CONTINUOUS
 10
9.2571858419
 20
5.6644422868
 11
9.2713503423
 21
5.6750656618
  0
LINE
  5
442
100
AcDbEntity
  8
03__ASM_ALL_CURVES
100
AcDbLine
 62
4
  6
CONTINUOUS
 10
11.7348955923
 20
7.560799664
 11
11.7490600923
 21
7.5702426618
  0
LINE
  5
443
100
AcDbEntity
  8
03__ASM_ALL_CURVES
100
AcDbLine
 62
4
  6
CONTINUOUS
 10
11.7773890923
 20
7.5230276595
 11
11.7490600923
 21
7.5041416607
  0
LINE
  5
444
100
AcDbEntity
  8
03__ASM_ALL_CURVES
100
AcDbLine
 62
4
  6
CONTINUOUS
 10
11.8482115923
 20
7.560799664
 11
11.8623760923
 21
7.5702426618
  0
LINE
  5
445
100
AcDbEntity
  8
03__ASM_ALL_CURVES
100
AcDbLine
 62
4
  6
CONTINUOUS
 10
11.8907050923
 20
7.5230276595
 11
11.8623760923
 21
7.5041416607
  0
LINE
  5
446
100
AcDbEntity
  8
03__ASM_ALL_CURVES
100
AcDbLine
 62
4
  6
CONTINUOUS
 10
12.0748435923
 20
7.560799664
 11
12.0890080923
 21
7.5702426618
  0
LINE
  5
447
100
AcDbEntity
  8
03__ASM_ALL_CURVES
100
AcDbLine
 62
4
  6
CONTINUOUS
 10
12.0748435923
 20
7.5135846618
 11
12.0890080923
 21
7.5230276595
  0
LINE
  5
448
100
AcDbEntity
  8
03__ASM_ALL_CURVES
100
AcDbLine
 62
4
  6
CONTINUOUS
 10
12.1173370923
 20
7.532470664
 11
12.1031725923
 21
7.5230276595
  0
LINE
  5
449
100
AcDbEntity
  8
03__ASM_ALL_CURVES
100
AcDbLine
 62
4
  6
CONTINUOUS
 10
12.1881595923
 20
7.5135846618
 11
12.2094063423
 21
7.5230276595
  0
LINE
  5
44A
100
AcDbEntity
  8
03__ASM_ALL_CURVES
100
AcDbLine
 62
4
  6
CONTINUOUS
 10
8.0896923423
 20
5.9016976618
 11
8.1085783412
 21
5.9087799118
  0
LINE
  5
44B
100
AcDbEntity
  8
03__ASM_ALL_CURVES
100
AcDbLine
 62
4
  6
CONTINUOUS
 10
11.6286618423
 20
13.1243916607
 11
11.6357440923
 21
13.0960626624
  0
LINE
  5
44C
100
AcDbEntity
  8
03__ASM_ALL_CURVES
100
AcDbLine
 62
4
  6
CONTINUOUS
 10
11.6286618423
 20
13.2861416607
 11
11.6357440923
 21
13.2578126624
  0
LINE
  5
44D
100
AcDbEntity
  8
03__ASM_ALL_CURVES
100
AcDbLine
 62
4
  6
CONTINUOUS
 10
12.8609733423
 20
13.1716066595
 11
12.8609733423
 21
13.1621636618
  0
LINE
  5
44E
100
AcDbEntity
  8
03__ASM_ALL_CURVES
100
AcDbLine
 62
4
  6
CONTINUOUS
 10
12.9176313423
 20
13.1149486629
 11
12.9176313423
 21
13.0960626624
  0
LINE
  5
44F
100
AcDbEntity
  8
03__ASM_ALL_CURVES
100
AcDbLine
 62
4
  6
CONTINUOUS
 10
13.0167828423
 20
13.1432776595
 11
13.0167828423
 21
13.1243916607
  0
LINE
  5
450
100
AcDbEntity
  8
03__ASM_ALL_CURVES
100
AcDbLine
 62
4
  6
CONTINUOUS
 10
12.1315015923
 20
7.4852556618
 11
12.1173370923
 21
7.4663696621
  0
LINE
  5
451
100
AcDbEntity
  8
03__ASM_ALL_CURVES
100
AcDbLine
 62
4
  6
CONTINUOUS
 10
12.1881595923
 20
7.5513566595
 11
12.1952418423
 21
7.560799664
  0
LINE
  5
452
100
AcDbEntity
  8
03__ASM_ALL_CURVES
100
AcDbLine
 62
4
  6
CONTINUOUS
 10
12.2306530923
 20
7.4758126624
 11
12.2235708423
 21
7.4663696621
  0
LINE
  5
453
100
AcDbEntity
  8
03__ASM_ALL_CURVES
100
AcDbLine
 62
4
  6
CONTINUOUS
 10
12.3298045923
 20
7.4758126624
 11
12.3156400923
 21
7.4569266618
  0
LINE
  5
454
100
AcDbEntity
  8
03__ASM_ALL_CURVES
100
AcDbLine
 62
4
  6
CONTINUOUS
 10
12.1952418423
 20
7.560799664
 11
12.2094063423
 21
7.5702426618
  0
LINE
  5
455
100
AcDbEntity
  8
03__ASM_ALL_CURVES
100
AcDbLine
 62
4
  6
CONTINUOUS
 10
12.1173370923
 20
7.4663696621
 11
12.1031725923
 21
7.4569266618
  0
LINE
  5
456
100
AcDbEntity
  8
03__ASM_ALL_CURVES
100
AcDbLine
 62
4
  6
CONTINUOUS
 10
12.2235708423
 20
7.4663696621
 11
12.2094063423
 21
7.4569266618
  0
LINE
  5
457
100
AcDbEntity
  8
03__ASM_ALL_CURVES
100
AcDbLine
 62
4
  6
CONTINUOUS
 10
11.2072679673
 20
13.0913411622
 11
11.2178913423
 21
13.0771766618
  0
LINE
  5
458
100
AcDbEntity
  8
03__ASM_ALL_CURVES
100
AcDbLine
 62
4
  6
CONTINUOUS
 10
11.2816315923
 20
13.0866196621
 11
11.2674670923
 21
13.1055056618
  0
LINE
  5
459
100
AcDbEntity
  8
03__ASM_ALL_CURVES
100
AcDbLine
 62
4
  6
CONTINUOUS
 10
12.4431205923
 20
13.1716066595
 11
12.4502028423
 21
13.1432776595
  0
LINE
  5
45A
100
AcDbEntity
  8
03__ASM_ALL_CURVES
100
AcDbLine
 62
4
  6
CONTINUOUS
 10
12.4431205923
 20
13.3333566595
 11
12.4502028423
 21
13.3050276595
  0
LINE
  5
45B
100
AcDbEntity
  8
03__ASM_ALL_CURVES
100
AcDbLine
 62
4
  6
CONTINUOUS
 10
10.5663243423
 20
13.2335846618
 11
10.6796403423
 21
13.1338346618
  0
LINE
  5
45C
100
AcDbEntity
  8
03__ASM_ALL_CURVES
100
AcDbLine
 62
4
  6
CONTINUOUS
 10
11.2816315923
 20
13.152720664
 11
11.2745493423
 21
13.1621636618
  0
LINE
  5
45D
100
AcDbEntity
  8
03__ASM_ALL_CURVES
100
AcDbLine
 62
4
  6
CONTINUOUS
 10
11.2072679673
 20
13.2530911622
 11
11.2178913423
 21
13.2389266618
  0
LINE
  5
45E
100
AcDbEntity
  8
03__ASM_ALL_CURVES
100
AcDbLine
 62
4
  6
CONTINUOUS
 10
11.3241250923
 20
13.1338346618
 11
11.3382895923
 21
13.1149486629
  0
LINE
  5
45F
100
AcDbEntity
  8
03__ASM_ALL_CURVES
100
AcDbLine
 62
4
  6
CONTINUOUS
 10
11.3241250923
 20
13.181049664
 11
11.3312073423
 21
13.1716066595
  0
LINE
  5
460
100
AcDbEntity
  8
03__ASM_ALL_CURVES
100
AcDbLine
 62
4
  6
CONTINUOUS
 10
11.2816315923
 20
13.2483696621
 11
11.2674670923
 21
13.2672556618
  0
LINE
  5
461
100
AcDbEntity
  8
03__ASM_ALL_CURVES
100
AcDbLine
 62
4
  6
CONTINUOUS
 10
11.2816315923
 20
13.314470664
 11
11.2745493423
 21
13.3239136618
  0
LINE
  5
462
100
AcDbEntity
  8
03__ASM_ALL_CURVES
100
AcDbLine
 62
4
  6
CONTINUOUS
 10
11.3241250923
 20
13.2955846618
 11
11.3382895923
 21
13.2766986629
  0
LINE
  5
463
100
AcDbEntity
  8
03__ASM_ALL_CURVES
100
AcDbLine
 62
4
  6
CONTINUOUS
 10
11.3241250923
 20
13.342799664
 11
11.3312073423
 21
13.3333566595
  0
LINE
  5
464
100
AcDbEntity
  8
03__ASM_ALL_CURVES
100
AcDbLine
 62
4
  6
CONTINUOUS
 10
11.6357440923
 20
13.0960626624
 11
11.6499085923
 21
13.0771766618
  0
LINE
  5
465
100
AcDbEntity
  8
03__ASM_ALL_CURVES
100
AcDbLine
 62
4
  6
CONTINUOUS
 10
12.1881595923
 20
13.2578126624
 11
12.1810773423
 21
13.2766986629
  0
LINE
  5
466
100
AcDbEntity
  8
03__ASM_ALL_CURVES
100
AcDbLine
 62
4
  6
CONTINUOUS
 10
12.2306530923
 20
13.2955846618
 11
12.2377353423
 21
13.2766986629
  0
LINE
  5
467
100
AcDbEntity
  8
03__ASM_ALL_CURVES
100
AcDbLine
 62
4
  6
CONTINUOUS
 10
12.3014755923
 20
13.2955846618
 11
12.2943933423
 21
13.314470664
  0
LINE
  5
468
100
AcDbEntity
  8
03__ASM_ALL_CURVES
100
AcDbLine
 62
4
  6
CONTINUOUS
 10
12.3439690923
 20
13.3333566595
 11
12.3510513423
 21
13.314470664
  0
LINE
  5
469
100
AcDbEntity
  8
03__ASM_ALL_CURVES
100
AcDbLine
 62
4
  6
CONTINUOUS
 10
12.6485058423
 20
13.1243916607
 11
12.6555880923
 21
13.0960626624
  0
LINE
  5
46A
100
AcDbEntity
  8
03__ASM_ALL_CURVES
100
AcDbLine
 62
4
  6
CONTINUOUS
 10
11.6357440923
 20
13.2578126624
 11
11.6499085923
 21
13.2389266618
  0
LINE
  5
46B
100
AcDbEntity
  8
03__ASM_ALL_CURVES
100
AcDbLine
 62
4
  6
CONTINUOUS
 10
11.8907050923
 20
13.181049664
 11
11.8977873423
 21
13.1716066595
  0
LINE
  5
46C
100
AcDbEntity
  8
03__ASM_ALL_CURVES
100
AcDbLine
 62
4
  6
CONTINUOUS
 10
12.0040210923
 20
13.181049664
 11
12.0111033423
 21
13.1716066595
  0
LINE
  5
46D
100
AcDbEntity
  8
03__ASM_ALL_CURVES
100
AcDbLine
 62
4
  6
CONTINUOUS
 10
11.8907050923
 20
13.342799664
 11
11.8977873423
 21
13.3333566595
  0
LINE
  5
46E
100
AcDbEntity
  8
03__ASM_ALL_CURVES
100
AcDbLine
 62
4
  6
CONTINUOUS
 10
11.9615275923
 20
13.2483696621
 11
11.9544453423
 21
13.2578126624
  0
LINE
  5
46F
100
AcDbEntity
  8
03__ASM_ALL_CURVES
100
AcDbLine
 62
4
  6
CONTINUOUS
 10
13.0097005923
 20
13.1716066595
 11
13.0167828423
 21
13.1432776595
  0
LINE
  5
470
100
AcDbEntity
  8
03__ASM_ALL_CURVES
100
AcDbLine
 62
4
  6
CONTINUOUS
 10
12.8963845923
 20
13.0771766618
 11
12.8822200923
 21
13.0771766618
  0
LINE
  5
471
100
AcDbEntity
  8
03__ASM_ALL_CURVES
100
AcDbLine
 62
4
  6
CONTINUOUS
 10
12.1244193423
 20
13.0771766618
 11
12.1137959673
 21
13.0771766618
  0
LINE
  5
472
100
AcDbEntity
  8
03__ASM_ALL_CURVES
100
AcDbLine
 62
4
  6
CONTINUOUS
 10
11.3099605923
 20
13.0771766618
 11
11.2957960923
 21
13.0771766618
  0
LINE
  5
473
100
AcDbEntity
  8
03__ASM_ALL_CURVES
100
AcDbLine
 62
4
  6
CONTINUOUS
 10
11.2178913423
 20
13.0771766618
 11
11.2072679673
 21
13.0771766618
  0
LINE
  5
474
100
AcDbEntity
  8
03__ASM_ALL_CURVES
100
AcDbLine
 62
4
  6
CONTINUOUS
 10
11.8411293423
 20
13.0771766618
 11
11.8977873423
 21
13.0771766618
  0
LINE
  5
475
100
AcDbEntity
  8
03__ASM_ALL_CURVES
100
AcDbLine
 62
4
  6
CONTINUOUS
 10
11.9544453423
 20
13.0771766618
 11
12.0111033423
 21
13.0771766618
  0
LINE
  5
476
100
AcDbEntity
  8
03__ASM_ALL_CURVES
100
AcDbLine
 62
4
  6
CONTINUOUS
 10
12.7476573423
 20
13.0771766618
 11
12.8043153423
 21
13.0771766618
  0
LINE
  5
477
100
AcDbEntity
  8
03__ASM_ALL_CURVES
100
AcDbLine
 62
4
  6
CONTINUOUS
 10
11.0479173423
 20
13.1055056618
 11
11.1116575923
 21
13.1055056618
  0
LINE
  5
478
100
AcDbEntity
  8
03__ASM_ALL_CURVES
100
AcDbLine
 62
4
  6
CONTINUOUS
 10
10.6796403423
 20
13.1338346618
 11
10.7929563423
 21
13.1338346618
  0
LINE
  5
479
100
AcDbEntity
  8
03__ASM_ALL_CURVES
100
AcDbLine
 62
4
  6
CONTINUOUS
 10
11.2957960923
 20
13.0771766618
 11
11.2816315923
 21
13.0866196621
  0
LINE
  5
47A
100
AcDbEntity
  8
03__ASM_ALL_CURVES
100
AcDbLine
 62
4
  6
CONTINUOUS
 10
11.2957960923
 20
13.1432776595
 11
11.2816315923
 21
13.152720664
  0
LINE
  5
47B
100
AcDbEntity
  8
03__ASM_ALL_CURVES
100
AcDbLine
 62
4
  6
CONTINUOUS
 10
11.3099605923
 20
13.1432776595
 11
11.3241250923
 21
13.1338346618
  0
LINE
  5
47C
100
AcDbEntity
  8
03__ASM_ALL_CURVES
100
AcDbLine
 62
4
  6
CONTINUOUS
 10
11.3099605923
 20
13.1904926618
 11
11.3241250923
 21
13.181049664
  0
LINE
  5
47D
100
AcDbEntity
  8
03__ASM_ALL_CURVES
100
AcDbLine
 62
4
  6
CONTINUOUS
 10
11.2957960923
 20
13.2389266618
 11
11.2816315923
 21
13.2483696621
  0
LINE
  5
47E
100
AcDbEntity
  8
03__ASM_ALL_CURVES
100
AcDbLine
 62
4
  6
CONTINUOUS
 10
11.2957960923
 20
13.3050276595
 11
11.2816315923
 21
13.314470664
  0
LINE
  5
47F
100
AcDbEntity
  8
03__ASM_ALL_CURVES
100
AcDbLine
 62
4
  6
CONTINUOUS
 10
11.3099605923
 20
13.3050276595
 11
11.3241250923
 21
13.2955846618
  0
LINE
  5
480
100
AcDbEntity
  8
03__ASM_ALL_CURVES
100
AcDbLine
 62
4
  6
CONTINUOUS
 10
11.3099605923
 20
13.3522426618
 11
11.3241250923
 21
13.342799664
  0
LINE
  5
481
100
AcDbEntity
  8
03__ASM_ALL_CURVES
100
AcDbLine
 62
4
  6
CONTINUOUS
 10
12.1137959673
 20
13.0913411622
 11
12.1244193423
 21
13.0771766618
  0
LINE
  5
482
100
AcDbEntity
  8
03__ASM_ALL_CURVES
100
AcDbLine
 62
4
  6
CONTINUOUS
 10
12.0040210923
 20
13.2955846618
 11
12.0181855923
 21
13.2766986629
  0
LINE
  5
483
100
AcDbEntity
  8
03__ASM_ALL_CURVES
100
AcDbLine
 62
4
  6
CONTINUOUS
 10
12.0040210923
 20
13.342799664
 11
12.0111033423
 21
13.3333566595
  0
LINE
  5
484
100
AcDbEntity
  8
03__ASM_ALL_CURVES
100
AcDbLine
 62
4
  6
CONTINUOUS
 10
12.1137959673
 20
13.2530911622
 11
12.1244193423
 21
13.2389266618
  0
LINE
  5
485
100
AcDbEntity
  8
03__ASM_ALL_CURVES
100
AcDbLine
 62
4
  6
CONTINUOUS
 10
12.1952418423
 20
13.2483696621
 11
12.1881595923
 21
13.2578126624
  0
LINE
  5
486
100
AcDbEntity
  8
03__ASM_ALL_CURVES
100
AcDbLine
 62
4
  6
CONTINUOUS
 10
12.2235708423
 20
13.342799664
 11
12.2306530923
 21
13.3333566595
  0
LINE
  5
487
100
AcDbEntity
  8
03__ASM_ALL_CURVES
100
AcDbLine
 62
4
  6
CONTINUOUS
 10
12.3085578423
 20
13.2483696621
 11
12.3014755923
 21
13.2578126624
  0
LINE
  5
488
100
AcDbEntity
  8
03__ASM_ALL_CURVES
100
AcDbLine
 62
4
  6
CONTINUOUS
 10
12.4289560923
 20
13.1904926618
 11
12.4431205923
 21
13.1716066595
  0
LINE
  5
489
100
AcDbEntity
  8
03__ASM_ALL_CURVES
100
AcDbLine
 62
4
  6
CONTINUOUS
 10
11.2957960923
 20
13.1432776595
 11
11.3099605923
 21
13.1432776595
  0
LINE
  5
48A
100
AcDbEntity
  8
03__ASM_ALL_CURVES
100
AcDbLine
 62
4
  6
CONTINUOUS
 10
12.8963845923
 20
13.1904926618
 11
12.8822200923
 21
13.1904926618
  0
LINE
  5
48B
100
AcDbEntity
  8
03__ASM_ALL_CURVES
100
AcDbLine
 62
4
  6
CONTINUOUS
 10
12.3510513423
 20
13.1904926618
 11
12.2943933423
 21
13.1904926618
  0
LINE
  5
48C
100
AcDbEntity
  8
03__ASM_ALL_CURVES
100
AcDbLine
 62
4
  6
CONTINUOUS
 10
11.2957960923
 20
13.1904926618
 11
11.3099605923
 21
13.1904926618
  0
LINE
  5
48D
100
AcDbEntity
  8
03__ASM_ALL_CURVES
100
AcDbLine
 62
4
  6
CONTINUOUS
 10
11.8623760923
 20
13.1904926618
 11
11.8765405923
 21
13.1904926618
  0
LINE
  5
48E
100
AcDbEntity
  8
03__ASM_ALL_CURVES
100
AcDbLine
 62
4
  6
CONTINUOUS
 10
11.9756920923
 20
13.1904926618
 11
11.9898565923
 21
13.1904926618
  0
LINE
  5
48F
100
AcDbEntity
  8
03__ASM_ALL_CURVES
100
AcDbLine
 62
4
  6
CONTINUOUS
 10
10.4530083423
 20
13.2335846618
 11
10.5663243423
 21
13.2335846618
  0
LINE
  5
490
100
AcDbEntity
  8
03__ASM_ALL_CURVES
100
AcDbLine
 62
4
  6
CONTINUOUS
 10
12.1244193423
 20
13.2389266618
 11
12.1137959673
 21
13.2389266618
  0
LINE
  5
491
100
AcDbEntity
  8
03__ASM_ALL_CURVES
100
AcDbLine
 62
4
  6
CONTINUOUS
 10
11.9898565923
 20
13.2389266618
 11
11.9756920923
 21
13.2389266618
  0
LINE
  5
492
100
AcDbEntity
  8
03__ASM_ALL_CURVES
100
AcDbLine
 62
4
  6
CONTINUOUS
 10
11.3099605923
 20
13.2389266618
 11
11.2957960923
 21
13.2389266618
  0
LINE
  5
493
100
AcDbEntity
  8
03__ASM_ALL_CURVES
100
AcDbLine
 62
4
  6
CONTINUOUS
 10
11.2178913423
 20
13.2389266618
 11
11.2072679673
 21
13.2389266618
  0
LINE
  5
494
100
AcDbEntity
  8
03__ASM_ALL_CURVES
100
AcDbLine
 62
4
  6
CONTINUOUS
 10
11.8411293423
 20
13.2389266618
 11
11.8977873423
 21
13.2389266618
  0
LINE
  5
495
100
AcDbEntity
  8
03__ASM_ALL_CURVES
100
AcDbLine
 62
4
  6
CONTINUOUS
 10
11.0479173423
 20
13.2672556618
 11
11.1116575923
 21
13.2672556618
  0
LINE
  5
496
100
AcDbEntity
  8
0
100
AcDbLine
 62
7
  6
CONTINUOUS
 10
10.3396923423
 20
13.2955846618
 11
8.0896923423
 21
13.2955846618
  0
LINE
  5
497
100
AcDbEntity
  8
03__ASM_ALL_CURVES
100
AcDbLine
 62
4
  6
CONTINUOUS
 10
10.4530083423
 20
13.2955846618
 11
10.7929563423
 21
13.2955846618
  0
LINE
  5
498
100
AcDbEntity
  8
03__ASM_ALL_CURVES
100
AcDbLine
 62
4
  6
CONTINUOUS
 10
11.2957960923
 20
13.3050276595
 11
11.3099605923
 21
13.3050276595
  0
LINE
  5
499
100
AcDbEntity
  8
03__ASM_ALL_CURVES
100
AcDbLine
 62
4
  6
CONTINUOUS
 10
11.9756920923
 20
13.3050276595
 11
11.9898565923
 21
13.3050276595
  0
LINE
  5
49A
100
AcDbEntity
  8
03__ASM_ALL_CURVES
100
AcDbLine
 62
4
  6
CONTINUOUS
 10
11.4445233423
 20
13.3522426618
 11
11.3878653423
 21
13.3522426618
  0
LINE
  5
49B
100
AcDbEntity
  8
03__ASM_ALL_CURVES
100
AcDbLine
 62
4
  6
CONTINUOUS
 10
11.2957960923
 20
13.3522426618
 11
11.3099605923
 21
13.3522426618
  0
LINE
  5
49C
100
AcDbEntity
  8
03__ASM_ALL_CURVES
100
AcDbLine
 62
4
  6
CONTINUOUS
 10
11.8623760923
 20
13.3522426618
 11
11.8765405923
 21
13.3522426618
  0
LINE
  5
49D
100
AcDbEntity
  8
03__ASM_ALL_CURVES
100
AcDbLine
 62
4
  6
CONTINUOUS
 10
11.9756920923
 20
13.3522426618
 11
11.9898565923
 21
13.3522426618
  0
LINE
  5
49E
100
AcDbEntity
  8
03__ASM_ALL_CURVES
100
AcDbLine
 62
4
  6
CONTINUOUS
 10
11.8765405923
 20
13.1904926618
 11
11.8907050923
 21
13.181049664
  0
LINE
  5
49F
100
AcDbEntity
  8
03__ASM_ALL_CURVES
100
AcDbLine
 62
4
  6
CONTINUOUS
 10
11.9898565923
 20
13.1904926618
 11
12.0040210923
 21
13.181049664
  0
LINE
  5
4A0
100
AcDbEntity
  8
03__ASM_ALL_CURVES
100
AcDbLine
 62
4
  6
CONTINUOUS
 10
11.9756920923
 20
13.2389266618
 11
11.9615275923
 21
13.2483696621
  0
LINE
  5
4A1
100
AcDbEntity
  8
03__ASM_ALL_CURVES
100
AcDbLine
 62
4
  6
CONTINUOUS
 10
11.8765405923
 20
13.3522426618
 11
11.8907050923
 21
13.342799664
  0
LINE
  5
4A2
100
AcDbEntity
  8
03__ASM_ALL_CURVES
100
AcDbLine
 62
4
  6
CONTINUOUS
 10
11.9898565923
 20
13.3050276595
 11
12.0040210923
 21
13.2955846618
  0
LINE
  5
4A3
100
AcDbEntity
  8
03__ASM_ALL_CURVES
100
AcDbLine
 62
4
  6
CONTINUOUS
 10
12.3368868423
 20
13.342799664
 11
12.3439690923
 21
13.3333566595
  0
LINE
  5
4A4
100
AcDbEntity
  8
03__ASM_ALL_CURVES
100
AcDbLine
 62
4
  6
CONTINUOUS
 10
12.4289560923
 20
13.3522426618
 11
12.4431205923
 21
13.3333566595
  0
LINE
  5
4A5
100
AcDbEntity
  8
03__ASM_ALL_CURVES
100
AcDbLine
 62
4
  6
CONTINUOUS
 10
12.6555880923
 20
13.0960626624
 11
12.6697525923
 21
13.0771766618
  0
LINE
  5
4A6
100
AcDbEntity
  8
03__ASM_ALL_CURVES
100
AcDbLine
 62
4
  6
CONTINUOUS
 10
12.8680555923
 20
13.0866196621
 11
12.8538910923
 21
13.1055056618
  0
LINE
  5
4A7
100
AcDbEntity
  8
03__ASM_ALL_CURVES
100
AcDbLine
 62
4
  6
CONTINUOUS
 10
12.2094063423
 20
13.3050276595
 11
12.2306530923
 21
13.2955846618
  0
LINE
  5
4A8
100
AcDbEntity
  8
03__ASM_ALL_CURVES
100
AcDbLine
 62
4
  6
CONTINUOUS
 10
12.3227223423
 20
13.2861416607
 11
12.3014755923
 21
13.2955846618
  0
LINE
  5
4A9
100
AcDbEntity
  8
03__ASM_ALL_CURVES
100
AcDbLine
 62
4
  6
CONTINUOUS
 10
11.9898565923
 20
13.3522426618
 11
12.0040210923
 21
13.342799664
  0
LINE
  5
4AA
100
AcDbEntity
  8
03__ASM_ALL_CURVES
100
AcDbLine
 62
4
  6
CONTINUOUS
 10
12.2094063423
 20
13.2389266618
 11
12.1952418423
 21
13.2483696621
  0
LINE
  5
4AB
100
AcDbEntity
  8
03__ASM_ALL_CURVES
100
AcDbLine
 62
4
  6
CONTINUOUS
 10
12.3227223423
 20
13.2389266618
 11
12.3085578423
 21
13.2483696621
  0
LINE
  5
4AC
100
AcDbEntity
  8
03__ASM_ALL_CURVES
100
AcDbLine
 62
4
  6
CONTINUOUS
 10
12.2094063423
 20
13.3522426618
 11
12.2235708423
 21
13.342799664
  0
LINE
  5
4AD
100
AcDbEntity
  8
03__ASM_ALL_CURVES
100
AcDbLine
 62
4
  6
CONTINUOUS
 10
12.3227223423
 20
13.3522426618
 11
12.3368868423
 21
13.342799664
  0
LINE
  5
4AE
100
AcDbEntity
  8
03__ASM_ALL_CURVES
100
AcDbLine
 62
4
  6
CONTINUOUS
 10
12.8822200923
 20
13.0771766618
 11
12.8680555923
 21
13.0866196621
  0
LINE
  5
4AF
100
AcDbEntity
  8
03__ASM_ALL_CURVES
100
AcDbLine
 62
4
  6
CONTINUOUS
 10
12.8680555923
 20
13.152720664
 11
12.9105490923
 21
13.1243916607
  0
LINE
  5
4B0
100
AcDbEntity
  8
03__ASM_ALL_CURVES
100
AcDbLine
 62
4
  6
CONTINUOUS
 10
12.9105490923
 20
13.181049664
 11
12.8963845923
 21
13.1904926618
  0
LINE
  5
4B1
100
AcDbEntity
  8
03__ASM_ALL_CURVES
100
AcDbLine
 62
4
  6
CONTINUOUS
 10
12.8609733423
 20
13.1621636618
 11
12.8680555923
 21
13.152720664
  0
LINE
  5
4B2
100
AcDbEntity
  8
03__ASM_ALL_CURVES
100
AcDbLine
 62
4
  6
CONTINUOUS
 10
12.9105490923
 20
13.1243916607
 11
12.9176313423
 21
13.1149486629
  0
LINE
  5
4B3
100
AcDbEntity
  8
03__ASM_ALL_CURVES
100
AcDbLine
 62
4
  6
CONTINUOUS
 10
12.9176313423
 20
13.1716066595
 11
12.9105490923
 21
13.181049664
  0
LINE
  5
4B4
100
AcDbEntity
  8
03__ASM_ALL_CURVES
100
AcDbLine
 62
4
  6
CONTINUOUS
 10
12.9955360923
 20
13.1904926618
 11
13.0097005923
 21
13.1716066595
  0
CIRCLE
  5
4B5
100
AcDbEntity
  8
0
100
AcDbCircle
 62
7
  6
CONTINUOUS
 10
9.2146923423
 20
9.8585846256
 40
0.7345
  0
CIRCLE
  5
4B6
100
AcDbEntity
  8
0
100
AcDbCircle
 62
7
  6
CONTINUOUS
 10
9.2146923423
 20
9.8585846256
 40
0.575
  0
CIRCLE
  5
4B7
100
AcDbEntity
  8
0
100
AcDbCircle
 62
7
  6
CONTINUOUS
 10
9.2146923423
 20
9.8585846256
 40
0.5380230114
  0
CIRCLE
  5
4B8
100
AcDbEntity
  8
0
100
AcDbCircle
 62
7
  6
CONTINUOUS
 10
9.2146923423
 20
9.8585846256
 40
0.49
  0
CIRCLE
  5
4B9
100
AcDbEntity
  8
0
100
AcDbCircle
 62
7
  6
CONTINUOUS
 10
9.2146923423
 20
9.8585846256
 40
0.4765
  0
ARC
  5
4BA
100
AcDbEntity
  8
0
100
AcDbCircle
 62
7
  6
CONTINUOUS
 10
9.2146923423
 20
10.3895846618
 40
0.1095
100
AcDbArc
 50
215.3730921784
 51
324.6269722615
  0
SPLINE
  5
4BB
100
AcDbEntity
  8
0
100
AcDbSpline
 62
7
  6
CONTINUOUS
 70
0
 71
3
 72
8
 73
4
 74
2
 42
0.0000001
 43
0.0000001
 44
0.0000000001
 12
0.0001993043
 22
-0.0052041198
 32
0.0
 13
0.0001935144
 23
-0.0052043413
 33
0.0
 40
0.0
 40
0.0
 40
0.0
 40
0.0
 40
1.0
 40
1.0
 40
1.0
 40
1.0
 10
9.6716997961
 20
10.0336858894
 30
0.0
 10
9.6717662309
 20
10.0319511828
 30
0.0
 10
9.6718317016
 20
10.0302164387
 30
0.0
 10
9.6718962064
 20
10.0284816583
 30
0.0
 11
9.6716997961
 21
10.0336858894
 31
0.0
 11
9.6718962064
 21
10.0284816583
 31
0.0
  0
SPLINE
  5
4BC
100
AcDbEntity
  8
0
100
AcDbSpline
 62
7
  6
CONTINUOUS
 70
0
 71
3
 72
8
 73
4
 74
2
 42
0.0000001
 43
0.0000001
 44
0.0000000001
 12
0.000519138
 22
-0.0139616045
 32
0.0
 13
0.0004773296
 23
-0.0139631072
 33
0.0
 40
0.0
 40
0.0
 40
0.0
 40
0.0
 40
1.0
 40
1.0
 40
1.0
 40
1.0
 10
9.6718962064
 20
10.0284816583
 30
0.0
 10
9.6720692524
 20
10.0238277901
 30
0.0
 10
9.6722353473
 20
10.0191736604
 30
0.0
 10
9.6723944572
 20
10.0145192913
 30
0.0
 11
9.6718962064
 21
10.0284816583
 31
0.0
 11
9.6723944572
 21
10.0145192913
 31
0.0
  0
SPLINE
  5
4BD
100
AcDbEntity
  8
0
100
AcDbSpline
 62
7
  6
CONTINUOUS
 70
0
 71
3
 72
9
 73
5
 74
3
 42
0.0000001
 43
0.0000001
 44
0.0000000001
 12
0.000179694
 22
-0.0052565079
 32
0.0
 13
0.0001737492
 23
-0.0052567078
 33
0.0
 40
0.0
 40
0.0
 40
0.0
 40
0.0
 40
0.5012678331
 40
1.0
 40
1.0
 40
1.0
 40
1.0
 10
9.6723944572
 20
10.0145192913
 30
0.0
 10
9.6724244821
 20
10.0136409852
 30
0.0
 10
9.6724838839
 20
10.0118887989
 30
0.0
 10
9.6725422949
 20
10.0101365793
 30
0.0
 10
9.6725711797
 20
10.0092626829
 30
0.0
 11
9.6723944572
 21
10.0145192913
 31
0.0
 11
9.6724837856
 21
10.0118843476
 31
0.0
 11
9.6725711797
 21
10.0092626829
 31
0.0
  0
SPLINE
  5
4BE
100
AcDbEntity
  8
0
100
AcDbSpline
 62
7
  6
CONTINUOUS
 70
0
 71
3
 72
9
 73
5
 74
3
 42
0.0000001
 43
0.0000001
 44
0.0000000001
 12
-0.0001737492
 22
-0.0052567078
 32
0.0
 13
-0.000179694
 23
-0.0052565079
 33
0.0
 40
0.0
 40
0.0
 40
0.0
 40
0.0
 40
0.4987321669
 40
1.0
 40
1.0
 40
1.0
 40
1.0
 10
9.6725711797
 20
9.7079065682
 30
0.0
 10
9.6725422949
 20
9.7070326718
 30
0.0
 10
9.6724838839
 20
9.7052804522
 30
0.0
 10
9.6724244821
 20
9.7035282659
 30
0.0
 10
9.6723944572
 20
9.7026499598
 30
0.0
 11
9.6725711797
 21
9.7079065682
 31
0.0
 11
9.6724837856
 21
9.7052849035
 31
0.0
 11
9.6723944572
 21
9.7026499598
 31
0.0
  0
SPLINE
  5
4BF
100
AcDbEntity
  8
0
100
AcDbSpline
 62
7
  6
CONTINUOUS
 70
0
 71
3
 72
8
 73
4
 74
2
 42
0.0000001
 43
0.0000001
 44
0.0000000001
 12
-0.0004773296
 22
-0.0139631072
 32
0.0
 13
-0.000519138
 23
-0.0139616045
 33
0.0
 40
0.0
 40
0.0
 40
0.0
 40
0.0
 40
1.0
 40
1.0
 40
1.0
 40
1.0
 10
9.6723944572
 20
9.7026499598
 30
0.0
 10
9.6722353473
 20
9.6979955907
 30
0.0
 10
9.6720692524
 20
9.693341461
 30
0.0
 10
9.6718962064
 20
9.6886875928
 30
0.0
 11
9.6723944572
 21
9.7026499598
 31
0.0
 11
9.6718962064
 21
9.6886875928
 31
0.0
  0
SPLINE
  5
4C0
100
AcDbEntity
  8
0
100
AcDbSpline
 62
7
  6
CONTINUOUS
 70
0
 71
3
 72
8
 73
4
 74
2
 42
0.0000001
 43
0.0000001
 44
0.0000000001
 12
-0.0001935144
 22
-0.0052043413
 32
0.0
 13
-0.0001993043
 23
-0.0052041198
 33
0.0
 40
0.0
 40
0.0
 40
0.0
 40
0.0
 40
1.0
 40
1.0
 40
1.0
 40
1.0
 10
9.6718962064
 20
9.6886875928
 30
0.0
 10
9.6718317016
 20
9.6869528124
 30
0.0
 10
9.6717662309
 20
9.6852180683
 30
0.0
 10
9.6716997961
 20
9.6834833617
 30
0.0
 11
9.6718962064
 21
9.6886875928
 31
0.0
 11
9.6716997961
 21
9.6834833617
 31
0.0
  0
SPLINE
  5
4C1
100
AcDbEntity
  8
0
100
AcDbSpline
 62
7
  6
CONTINUOUS
 70
0
 71
3
 72
8
 73
4
 74
2
 42
0.0000001
 43
0.0000001
 44
0.0000000001
 12
-0.0107638951
 22
-0.0059243637
 32
0.0
 13
-0.01077805
 23
-0.0058985852
 33
0.0
 40
0.0
 40
0.0
 40
0.0
 40
0.0
 40
1.0
 40
1.0
 40
1.0
 40
1.0
 10
9.615562778
 20
9.5782766794
 30
0.0
 10
9.611974813
 20
9.5763018915
 30
0.0
 10
9.6083845696
 20
9.5743312395
 30
0.0
 10
9.6047918863
 20
9.5723650445
 30
0.0
 11
9.615562778
 21
9.5782766794
 31
0.0
 11
9.6047918863
 21
9.5723650445
 31
0.0
  0
SPLINE
  5
4C2
100
AcDbEntity
  8
0
100
AcDbSpline
 62
7
  6
CONTINUOUS
 70
0
 71
3
 72
9
 73
5
 74
3
 42
0.0000001
 43
0.0000001
 44
0.0000000001
 12
-0.0031304417
 22
-0.0017132206
 32
0.0
 13
-0.0031316889
 23
-0.0017109404
 33
0.0
 40
0.0
 40
0.0
 40
0.0
 40
0.0
 40
0.5149187348
 40
1.0
 40
1.0
 40
1.0
 40
1.0
 10
9.6047918863
 20
9.5723650445
 30
0.0
 10
9.6042545786
 20
9.572070988
 30
0.0
 10
9.6032109921
 20
9.5715001081
 30
0.0
 10
9.6021671976
 20
9.5709296082
 30
0.0
 10
9.6016608231
 20
9.5706529598
 30
0.0
 11
9.6047918863
 21
9.5723650445
 31
0.0
 11
9.603179799
 21
9.5714831752
 31
0.0
 11
9.6016608231
 21
9.5706529598
 31
0.0
  0
SPLINE
  5
4C3
100
AcDbEntity
  8
0
100
AcDbSpline
 62
7
  6
CONTINUOUS
 70
0
 71
3
 72
8
 73
4
 74
2
 42
0.0000001
 43
0.0000001
 44
0.0000000001
 12
-0.0125917642
 22
-0.0068792778
 32
0.0
 13
-0.0126129858
 23
-0.0068402691
 33
0.0
 40
0.0
 40
0.0
 40
0.0
 40
0.0
 40
1.0
 40
1.0
 40
1.0
 40
1.0
 10
9.6016608231
 20
9.5706529598
 30
0.0
 10
9.5974635683
 20
9.5683598672
 30
0.0
 10
9.5932629187
 20
9.5660729879
 30
0.0
 10
9.5890585901
 20
9.5637928982
 30
0.0
 11
9.6016608231
 21
9.5706529598
 31
0.0
 11
9.5890585901
 21
9.5637928982
 31
0.0
  0
SPLINE
  5
4C4
100
AcDbEntity
  8
0
100
AcDbSpline
 62
7
  6
CONTINUOUS
 70
0
 71
3
 72
8
 73
4
 74
2
 42
0.0000001
 43
0.0000001
 44
0.0000000001
 12
-0.0126129858
 22
0.0068402691
 32
0.0
 13
-0.0125917642
 23
0.0068792778
 33
0.0
 40
0.0
 40
0.0
 40
0.0
 40
0.0
 40
1.0
 40
1.0
 40
1.0
 40
1.0
 10
8.8403260945
 20
9.5637928982
 30
0.0
 10
8.836121766
 20
9.5660729879
 30
0.0
 10
8.8319211163
 20
9.5683598672
 30
0.0
 10
8.8277238616
 20
9.5706529598
 30
0.0
 11
8.8403260945
 21
9.5637928982
 31
0.0
 11
8.8277238616
 21
9.5706529598
 31
0.0
  0
SPLINE
  5
4C5
100
AcDbEntity
  8
0
100
AcDbSpline
 62
7
  6
CONTINUOUS
 70
0
 71
3
 72
9
 73
5
 74
3
 42
0.0000001
 43
0.0000001
 44
0.0000000001
 12
-0.0031316889
 22
0.0017109404
 32
0.0
 13
-0.0031304417
 23
0.0017132206
 33
0.0
 40
0.0
 40
0.0
 40
0.0
 40
0.0
 40
0.4850812652
 40
1.0
 40
1.0
 40
1.0
 40
1.0
 10
8.8277238616
 20
9.5706529598
 30
0.0
 10
8.827217487
 20
9.5709296082
 30
0.0
 10
8.8261736926
 20
9.5715001081
 30
0.0
 10
8.825130106
 20
9.572070988
 30
0.0
 10
8.8245927983
 20
9.5723650445
 30
0.0
 11
8.8277238616
 21
9.5706529598
 31
0.0
 11
8.8262048857
 21
9.5714831752
 31
0.0
 11
8.8245927983
 21
9.5723650445
 31
0.0
  0
SPLINE
  5
4C6
100
AcDbEntity
  8
0
100
AcDbSpline
 62
7
  6
CONTINUOUS
 70
0
 71
3
 72
8
 73
4
 74
2
 42
0.0000001
 43
0.0000001
 44
0.0000000001
 12
-0.01077805
 22
0.0058985852
 32
0.0
 13
-0.0107638951
 23
0.0059243637
 33
0.0
 40
0.0
 40
0.0
 40
0.0
 40
0.0
 40
1.0
 40
1.0
 40
1.0
 40
1.0
 10
8.8245927983
 20
9.5723650445
 30
0.0
 10
8.821000115
 20
9.5743312395
 30
0.0
 10
8.8174098717
 20
9.5763018915
 30
0.0
 10
8.8138219067
 20
9.5782766794
 30
0.0
 11
8.8245927983
 21
9.5723650445
 31
0.0
 11
8.8138219067
 21
9.5782766794
 31
0.0
  0
SPLINE
  5
4C7
100
AcDbEntity
  8
0
100
AcDbSpline
 62
7
  6
CONTINUOUS
 70
0
 71
3
 72
9
 73
5
 74
3
 42
0.0000001
 43
0.0000001
 44
0.0000000001
 12
0.0001737492
 22
0.0052567078
 32
0.0
 13
0.000179694
 23
0.0052565079
 33
0.0
 40
0.0
 40
0.0
 40
0.0
 40
0.0
 40
0.4987321668
 40
1.0
 40
1.0
 40
1.0
 40
1.0
 10
8.756813505
 20
10.0092626829
 30
0.0
 10
8.7568423898
 20
10.0101365793
 30
0.0
 10
8.7569008007
 20
10.0118887989
 30
0.0
 10
8.7569602025
 20
10.0136409852
 30
0.0
 10
8.7569902275
 20
10.0145192913
 30
0.0
 11
8.756813505
 21
10.0092626829
 31
0.0
 11
8.7569008991
 21
10.0118843476
 31
0.0
 11
8.7569902275
 21
10.0145192913
 31
0.0
  0
SPLINE
  5
4C8
100
AcDbEntity
  8
0
100
AcDbSpline
 62
7
  6
CONTINUOUS
 70
0
 71
3
 72
8
 73
4
 74
2
 42
0.0000001
 43
0.0000001
 44
0.0000000001
 12
0.0004773296
 22
0.0139631072
 32
0.0
 13
0.000519138
 23
0.0139616045
 33
0.0
 40
0.0
 40
0.0
 40
0.0
 40
0.0
 40
1.0
 40
1.0
 40
1.0
 40
1.0
 10
8.7569902275
 20
10.0145192913
 30
0.0
 10
8.7571493374
 20
10.0191736604
 30
0.0
 10
8.7573154322
 20
10.0238277901
 30
0.0
 10
8.7574884783
 20
10.0284816583
 30
0.0
 11
8.7569902275
 21
10.0145192913
 31
0.0
 11
8.7574884783
 21
10.0284816583
 31
0.0
  0
SPLINE
  5
4C9
100
AcDbEntity
  8
0
100
AcDbSpline
 62
7
  6
CONTINUOUS
 70
0
 71
3
 72
8
 73
4
 74
2
 42
0.0000001
 43
0.0000001
 44
0.0000000001
 12
0.0001935144
 22
0.0052043413
 32
0.0
 13
0.0001993043
 23
0.0052041198
 33
0.0
 40
0.0
 40
0.0
 40
0.0
 40
0.0
 40
1.0
 40
1.0
 40
1.0
 40
1.0
 10
8.7574884783
 20
10.0284816583
 30
0.0
 10
8.7575529831
 20
10.0302164387
 30
0.0
 10
8.7576184537
 20
10.0319511828
 30
0.0
 10
8.7576848885
 20
10.0336858894
 30
0.0
 11
8.7574884783
 21
10.0284816583
 31
0.0
 11
8.7576848885
 21
10.0336858894
 31
0.0
  0
SPLINE
  5
4CA
100
AcDbEntity
  8
0
100
AcDbSpline
 62
7
  6
CONTINUOUS
 70
0
 71
3
 72
8
 73
4
 74
2
 42
0.0000001
 43
0.0000001
 44
0.0000000001
 12
-0.0001993043
 22
0.0052041198
 32
0.0
 13
-0.0001935144
 23
0.0052043413
 33
0.0
 40
0.0
 40
0.0
 40
0.0
 40
0.0
 40
1.0
 40
1.0
 40
1.0
 40
1.0
 10
8.7576848885
 20
9.6834833617
 30
0.0
 10
8.7576184537
 20
9.6852180683
 30
0.0
 10
8.7575529831
 20
9.6869528124
 30
0.0
 10
8.7574884783
 20
9.6886875928
 30
0.0
 11
8.7576848885
 21
9.6834833617
 31
0.0
 11
8.7574884783
 21
9.6886875928
 31
0.0
  0
SPLINE
  5
4CB
100
AcDbEntity
  8
0
100
AcDbSpline
 62
7
  6
CONTINUOUS
 70
0
 71
3
 72
8
 73
4
 74
2
 42
0.0000001
 43
0.0000001
 44
0.0000000001
 12
-0.000519138
 22
0.0139616045
 32
0.0
 13
-0.0004773296
 23
0.0139631072
 33
0.0
 40
0.0
 40
0.0
 40
0.0
 40
0.0
 40
1.0
 40
1.0
 40
1.0
 40
1.0
 10
8.7574884783
 20
9.6886875928
 30
0.0
 10
8.7573154322
 20
9.693341461
 30
0.0
 10
8.7571493374
 20
9.6979955907
 30
0.0
 10
8.7569902275
 20
9.7026499598
 30
0.0
 11
8.7574884783
 21
9.6886875928
 31
0.0
 11
8.7569902275
 21
9.7026499598
 31
0.0
  0
SPLINE
  5
4CC
100
AcDbEntity
  8
0
100
AcDbSpline
 62
7
  6
CONTINUOUS
 70
0
 71
3
 72
9
 73
5
 74
3
 42
0.0000001
 43
0.0000001
 44
0.0000000001
 12
-0.000179694
 22
0.0052565079
 32
0.0
 13
-0.0001737492
 23
0.0052567078
 33
0.0
 40
0.0
 40
0.0
 40
0.0
 40
0.0
 40
0.5012678332
 40
1.0
 40
1.0
 40
1.0
 40
1.0
 10
8.7569902275
 20
9.7026499598
 30
0.0
 10
8.7569602025
 20
9.7035282659
 30
0.0
 10
8.7569008007
 20
9.7052804522
 30
0.0
 10
8.7568423898
 20
9.7070326718
 30
0.0
 10
8.756813505
 20
9.7079065682
 30
0.0
 11
8.7569902275
 21
9.7026499598
 31
0.0
 11
8.7569008991
 21
9.7052849035
 31
0.0
 11
8.756813505
 21
9.7079065682
 31
0.0
  0
SPLINE
  5
4CD
100
AcDbEntity
  8
0
100
AcDbSpline
 62
7
  6
CONTINUOUS
 70
0
 71
3
 72
8
 73
4
 74
2
 42
0.0000001
 43
0.0000001
 44
0.0000000001
 12
0.000200106
 22
-0.0052250511
 32
0.0
 13
0.0001942693
 23
-0.0052252732
 33
0.0
 40
0.0
 40
0.0
 40
0.0
 40
0.0
 40
1.0
 40
1.0
 40
1.0
 40
1.0
 10
9.6716997961
 20
10.0336858894
 30
0.0
 10
9.6717664981
 20
10.0319442056
 30
0.0
 10
9.6718322282
 20
10.0302024843
 30
0.0
 10
9.6718969847
 20
10.0284607266
 30
0.0
 11
9.6716997961
 21
10.0336858894
 31
0.0
 11
9.6718969847
 21
10.0284607266
 31
0.0
  0
SPLINE
  5
4CE
100
AcDbEntity
  8
0
100
AcDbSpline
 62
7
  6
CONTINUOUS
 70
0
 71
3
 72
9
 73
5
 74
3
 42
0.0000001
 43
0.0000001
 44
0.0000000001
 12
0.0005182976
 22
-0.0139406813
 32
0.0
 13
0.0004766137
 23
-0.0139421674
 33
0.0
 40
0.0
 40
0.0
 40
0.0
 40
0.0
 40
0.6235615855
 40
1.0
 40
1.0
 40
1.0
 40
1.0
 10
9.6718969847
 20
10.0284607266
 30
0.0
 10
9.6720047148
 20
10.0255631021
 30
0.0
 10
9.6721731592
 20
10.0209160468
 30
0.0
 10
9.6723346519
 20
10.0162687471
 30
0.0
 10
9.6723944571
 20
10.0145192913
 30
0.0
 11
9.6718969847
 21
10.0284607266
 31
0.0
 11
9.6722120827
 21
10.0197675567
 31
0.0
 11
9.6723944571
 21
10.0145192913
 31
0.0
  0
SPLINE
  5
4CF
100
AcDbEntity
  8
0
100
AcDbSpline
 62
7
  6
CONTINUOUS
 70
0
 71
3
 72
8
 73
4
 74
2
 42
0.0000001
 43
0.0000001
 44
0.0000000001
 12
0.000179694
 22
-0.005256508
 32
0.0
 13
0.0001737494
 23
-0.0052567079
 33
0.0
 40
0.0
 40
0.0
 40
0.0
 40
0.0
 40
1.0
 40
1.0
 40
1.0
 40
1.0
 10
9.6723944571
 20
10.0145192913
 30
0.0
 10
9.6724543551
 20
10.012767122
 30
0.0
 10
9.6725132632
 20
10.0110149188
 30
0.0
 10
9.6725711797
 20
10.0092626829
 30
0.0
 11
9.6723944571
 21
10.0145192913
 31
0.0
 11
9.6725711797
 21
10.0092626829
 31
0.0
  0
SPLINE
  5
4D0
100
AcDbEntity
  8
0
100
AcDbSpline
 62
7
  6
CONTINUOUS
 70
0
 71
3
 72
9
 73
5
 74
3
 42
0.0000001
 43
0.0000001
 44
0.0000000001
 12
0.0006954238
 22
-0.0210397287
 32
0.0
 13
0.0005997781
 23
-0.021042663
 33
0.0
 40
0.0
 40
0.0
 40
0.0
 40
0.0
 40
0.2501999935
 40
1.0
 40
1.0
 40
1.0
 40
1.0
 10
9.6725711797
 20
10.0092626829
 30
0.0
 10
9.672629178
 20
10.0075079696
 30
0.0
 10
9.6728570113
 20
10.0004945951
 30
0.0
 10
9.6730689305
 20
9.9934807098
 30
0.0
 10
9.6732188351
 20
9.9882214469
 30
0.0
 11
9.6725711797
 21
10.0092626829
 31
0.0
 11
9.6727421896
 21
10.0039984451
 31
0.0
 11
9.6732188351
 21
9.9882214469
 31
0.0
  0
SPLINE
  5
4D1
100
AcDbEntity
  8
0
100
AcDbSpline
 62
7
  6
CONTINUOUS
 70
0
 71
3
 72
9
 73
5
 74
3
 42
0.0000001
 43
0.0000001
 44
0.0000000001
 12
-0.0005997781
 22
-0.021042663
 32
0.0
 13
-0.0006954238
 23
-0.0210397287
 33
0.0
 40
0.0
 40
0.0
 40
0.0
 40
0.0
 40
0.7498000065
 40
1.0
 40
1.0
 40
1.0
 40
1.0
 10
9.6732188351
 20
9.7289478042
 30
0.0
 10
9.6730689305
 20
9.7236885413
 30
0.0
 10
9.6728570113
 20
9.716674656
 30
0.0
 10
9.672629178
 20
9.7096612815
 30
0.0
 10
9.6725711797
 20
9.7079065682
 30
0.0
 11
9.6732188351
 21
9.7289478042
 31
0.0
 11
9.6727421896
 21
9.713170806
 31
0.0
 11
9.6725711797
 21
9.7079065682
 31
0.0
  0
SPLINE
  5
4D2
100
AcDbEntity
  8
0
100
AcDbSpline
 62
7
  6
CONTINUOUS
 70
0
 71
3
 72
8
 73
4
 74
2
 42
0.0000001
 43
0.0000001
 44
0.0000000001
 12
-0.0001737494
 22
-0.0052567079
 32
0.0
 13
-0.000179694
 23
-0.005256508
 33
0.0
 40
0.0
 40
0.0
 40
0.0
 40
0.0
 40
1.0
 40
1.0
 40
1.0
 40
1.0
 10
9.6725711797
 20
9.7079065682
 30
0.0
 10
9.6725132632
 20
9.7061543323
 30
0.0
 10
9.6724543551
 20
9.7044021291
 30
0.0
 10
9.6723944571
 20
9.7026499598
 30
0.0
 11
9.6725711797
 21
9.7079065682
 31
0.0
 11
9.6723944571
 21
9.7026499598
 31
0.0
  0
SPLINE
  5
4D3
100
AcDbEntity
  8
0
100
AcDbSpline
 62
7
  6
CONTINUOUS
 70
0
 71
3
 72
9
 73
5
 74
3
 42
0.0000001
 43
0.0000001
 44
0.0000000001
 12
-0.0004766137
 22
-0.0139421674
 32
0.0
 13
-0.0005182976
 23
-0.0139406813
 33
0.0
 40
0.0
 40
0.0
 40
0.0
 40
0.0
 40
0.3764384145
 40
1.0
 40
1.0
 40
1.0
 40
1.0
 10
9.6723944571
 20
9.7026499598
 30
0.0
 10
9.6723346519
 20
9.700900504
 30
0.0
 10
9.6721731592
 20
9.6962532043
 30
0.0
 10
9.6720047148
 20
9.691606149
 30
0.0
 10
9.6718969847
 20
9.6887085245
 30
0.0
 11
9.6723944571
 21
9.7026499598
 31
0.0
 11
9.6722120827
 21
9.6974016944
 31
0.0
 11
9.6718969847
 21
9.6887085245
 31
0.0
  0
SPLINE
  5
4D4
100
AcDbEntity
  8
0
100
AcDbSpline
 62
7
  6
CONTINUOUS
 70
0
 71
3
 72
8
 73
4
 74
2
 42
0.0000001
 43
0.0000001
 44
0.0000000001
 12
-0.0001942693
 22
-0.0052252732
 32
0.0
 13
-0.000200106
 23
-0.0052250511
 33
0.0
 40
0.0
 40
0.0
 40
0.0
 40
0.0
 40
1.0
 40
1.0
 40
1.0
 40
1.0
 10
9.6718969847
 20
9.6887085245
 30
0.0
 10
9.6718322282
 20
9.6869667668
 30
0.0
 10
9.6717664981
 20
9.6852250455
 30
0.0
 10
9.6716997961
 20
9.6834833617
 30
0.0
 11
9.6718969847
 21
9.6887085245
 31
0.0
 11
9.6716997961
 21
9.6834833617
 31
0.0
  0
SPLINE
  5
4D5
100
AcDbEntity
  8
0
100
AcDbSpline
 62
7
  6
CONTINUOUS
 70
0
 71
3
 72
8
 73
4
 74
2
 42
0.0000001
 43
0.0000001
 44
0.0000000001
 12
-0.000200106
 22
0.0052250511
 32
0.0
 13
-0.0001942693
 23
0.0052252732
 33
0.0
 40
0.0
 40
0.0
 40
0.0
 40
0.0
 40
1.0
 40
1.0
 40
1.0
 40
1.0
 10
8.7576848885
 20
9.6834833617
 30
0.0
 10
8.7576181865
 20
9.6852250455
 30
0.0
 10
8.7575524564
 20
9.6869667668
 30
0.0
 10
8.7574877
 20
9.6887085245
 30
0.0
 11
8.7576848885
 21
9.6834833617
 31
0.0
 11
8.7574877
 21
9.6887085245
 31
0.0
  0
SPLINE
  5
4D6
100
AcDbEntity
  8
0
100
AcDbSpline
 62
7
  6
CONTINUOUS
 70
0
 71
3
 72
9
 73
5
 74
3
 42
0.0000001
 43
0.0000001
 44
0.0000000001
 12
-0.0005182976
 22
0.0139406813
 32
0.0
 13
-0.0004766137
 23
0.0139421674
 33
0.0
 40
0.0
 40
0.0
 40
0.0
 40
0.0
 40
0.6235615855
 40
1.0
 40
1.0
 40
1.0
 40
1.0
 10
8.7574877
 20
9.6887085245
 30
0.0
 10
8.7573799698
 20
9.691606149
 30
0.0
 10
8.7572115255
 20
9.6962532043
 30
0.0
 10
8.7570500328
 20
9.700900504
 30
0.0
 10
8.7569902275
 20
9.7026499598
 30
0.0
 11
8.7574877
 21
9.6887085245
 31
0.0
 11
8.757172602
 21
9.6974016944
 31
0.0
 11
8.7569902275
 21
9.7026499598
 31
0.0
  0
SPLINE
  5
4D7
100
AcDbEntity
  8
0
100
AcDbSpline
 62
7
  6
CONTINUOUS
 70
0
 71
3
 72
8
 73
4
 74
2
 42
0.0000001
 43
0.0000001
 44
0.0000000001
 12
-0.000179694
 22
0.005256508
 32
0.0
 13
-0.0001737494
 23
0.0052567079
 33
0.0
 40
0.0
 40
0.0
 40
0.0
 40
0.0
 40
1.0
 40
1.0
 40
1.0
 40
1.0
 10
8.7569902275
 20
9.7026499598
 30
0.0
 10
8.7569303295
 20
9.7044021291
 30
0.0
 10
8.7568714214
 20
9.7061543323
 30
0.0
 10
8.756813505
 20
9.7079065682
 30
0.0
 11
8.7569902275
 21
9.7026499598
 31
0.0
 11
8.756813505
 21
9.7079065682
 31
0.0
  0
SPLINE
  5
4D8
100
AcDbEntity
  8
0
100
AcDbSpline
 62
7
  6
CONTINUOUS
 70
0
 71
3
 72
9
 73
5
 74
3
 42
0.0000001
 43
0.0000001
 44
0.0000000001
 12
-0.0006954238
 22
0.0210397287
 32
0.0
 13
-0.0005997781
 23
0.021042663
 33
0.0
 40
0.0
 40
0.0
 40
0.0
 40
0.0
 40
0.2501999935
 40
1.0
 40
1.0
 40
1.0
 40
1.0
 10
8.756813505
 20
9.7079065682
 30
0.0
 10
8.7567555066
 20
9.7096612815
 30
0.0
 10
8.7565276733
 20
9.716674656
 30
0.0
 10
8.7563157541
 20
9.7236885413
 30
0.0
 10
8.7561658496
 20
9.7289478042
 30
0.0
 11
8.756813505
 21
9.7079065682
 31
0.0
 11
8.7566424951
 21
9.713170806
 31
0.0
 11
8.7561658496
 21
9.7289478042
 31
0.0
  0
SPLINE
  5
4D9
100
AcDbEntity
  8
0
100
AcDbSpline
 62
7
  6
CONTINUOUS
 70
0
 71
3
 72
9
 73
5
 74
3
 42
0.0000001
 43
0.0000001
 44
0.0000000001
 12
0.0005997781
 22
0.021042663
 32
0.0
 13
0.0006954238
 23
0.0210397287
 33
0.0
 40
0.0
 40
0.0
 40
0.0
 40
0.0
 40
0.7498000065
 40
1.0
 40
1.0
 40
1.0
 40
1.0
 10
8.7561658496
 20
9.9882214469
 30
0.0
 10
8.7563157541
 20
9.9934807098
 30
0.0
 10
8.7565276733
 20
10.0004945951
 30
0.0
 10
8.7567555066
 20
10.0075079696
 30
0.0
 10
8.756813505
 20
10.0092626829
 30
0.0
 11
8.7561658496
 21
9.9882214469
 31
0.0
 11
8.7566424951
 21
10.0039984451
 31
0.0
 11
8.756813505
 21
10.0092626829
 31
0.0
  0
SPLINE
  5
4DA
100
AcDbEntity
  8
0
100
AcDbSpline
 62
7
  6
CONTINUOUS
 70
0
 71
3
 72
8
 73
4
 74
2
 42
0.0000001
 43
0.0000001
 44
0.0000000001
 12
0.0001737494
 22
0.0052567079
 32
0.0
 13
0.000179694
 23
0.005256508
 33
0.0
 40
0.0
 40
0.0
 40
0.0
 40
0.0
 40
1.0
 40
1.0
 40
1.0
 40
1.0
 10
8.756813505
 20
10.0092626829
 30
0.0
 10
8.7568714214
 20
10.0110149188
 30
0.0
 10
8.7569303295
 20
10.012767122
 30
0.0
 10
8.7569902275
 20
10.0145192913
 30
0.0
 11
8.756813505
 21
10.0092626829
 31
0.0
 11
8.7569902275
 21
10.0145192913
 31
0.0
  0
SPLINE
  5
4DB
100
AcDbEntity
  8
0
100
AcDbSpline
 62
7
  6
CONTINUOUS
 70
0
 71
3
 72
9
 73
5
 74
3
 42
0.0000001
 43
0.0000001
 44
0.0000000001
 12
0.0004766137
 22
0.0139421674
 32
0.0
 13
0.0005182976
 23
0.0139406813
 33
0.0
 40
0.0
 40
0.0
 40
0.0
 40
0.0
 40
0.3764384145
 40
1.0
 40
1.0
 40
1.0
 40
1.0
 10
8.7569902275
 20
10.0145192913
 30
0.0
 10
8.7570500328
 20
10.0162687471
 30
0.0
 10
8.7572115255
 20
10.0209160468
 30
0.0
 10
8.7573799698
 20
10.0255631021
 30
0.0
 10
8.7574877
 20
10.0284607266
 30
0.0
 11
8.7569902275
 21
10.0145192913
 31
0.0
 11
8.757172602
 21
10.0197675567
 31
0.0
 11
8.7574877
 21
10.0284607266
 31
0.0
  0
SPLINE
  5
4DC
100
AcDbEntity
  8
0
100
AcDbSpline
 62
7
  6
CONTINUOUS
 70
0
 71
3
 72
8
 73
4
 74
2
 42
0.0000001
 43
0.0000001
 44
0.0000000001
 12
0.0001942693
 22
0.0052252732
 32
0.0
 13
0.000200106
 23
0.0052250511
 33
0.0
 40
0.0
 40
0.0
 40
0.0
 40
0.0
 40
1.0
 40
1.0
 40
1.0
 40
1.0
 10
8.7574877
 20
10.0284607266
 30
0.0
 10
8.7575524564
 20
10.0302024843
 30
0.0
 10
8.7576181865
 20
10.0319442056
 30
0.0
 10
8.7576848885
 20
10.0336858894
 30
0.0
 11
8.7574877
 21
10.0284607266
 31
0.0
 11
8.7576848885
 21
10.0336858894
 31
0.0
  0
SPLINE
  5
4DD
100
AcDbEntity
  8
0
100
AcDbSpline
 62
7
  6
CONTINUOUS
 70
0
 71
3
 72
9
 73
5
 74
3
 42
0.0000001
 43
0.0000001
 44
0.0000000001
 12
-0.0126129888
 22
0.0068402708
 32
0.0
 13
-0.0125917629
 23
0.0068792716
 33
0.0
 40
0.0
 40
0.0
 40
0.0
 40
0.0
 40
0.7475077325
 40
1.0
 40
1.0
 40
1.0
 40
1.0
 10
8.8403260945
 20
9.5637928982
 30
0.0
 10
8.8371833256
 20
9.5654972833
 30
0.0
 10
8.8329817478
 20
9.5677824513
 30
0.0
 10
8.8287836359
 20
9.5700739722
 30
0.0
 10
8.8277238616
 20
9.5706529598
 30
0.0
 11
8.8403260945
 21
9.5637928982
 31
0.0
 11
8.8309038384
 21
9.5689171946
 31
0.0
 11
8.8277238616
 21
9.5706529598
 31
0.0
  0
SPLINE
  5
4DE
100
AcDbEntity
  8
0
100
AcDbSpline
 62
7
  6
CONTINUOUS
 70
0
 71
3
 72
8
 73
4
 74
2
 42
0.0000001
 43
0.0000001
 44
0.0000000001
 12
-0.0031316894
 22
0.0017109393
 32
0.0
 13
-0.0031304415
 23
0.0017132215
 33
0.0
 40
0.0
 40
0.0
 40
0.0
 40
0.0
 40
1.0
 40
1.0
 40
1.0
 40
1.0
 10
8.8277238616
 20
9.5706529598
 30
0.0
 10
8.8266799651
 20
9.5712232729
 30
0.0
 10
8.8256362788
 20
9.5717939706
 30
0.0
 10
8.8245927983
 20
9.5723650444
 30
0.0
 11
8.8277238616
 21
9.5706529598
 31
0.0
 11
8.8245927983
 21
9.5723650444
 31
0.0
  0
SPLINE
  5
4DF
100
AcDbEntity
  8
0
100
AcDbSpline
 62
7
  6
CONTINUOUS
 70
0
 71
3
 72
9
 73
5
 74
3
 42
0.0000001
 43
0.0000001
 44
0.0000000001
 12
-0.0107765936
 22
0.0058977919
 32
0.0
 13
-0.0107624492
 23
0.0059235616
 33
0.0
 40
0.0
 40
0.0
 40
0.0
 40
0.0
 40
0.2860775691
 40
1.0
 40
1.0
 40
1.0
 40
1.0
 10
8.8245927983
 20
9.5723650444
 30
0.0
 10
8.8235651511
 20
9.5729274531
 30
0.0
 10
8.8199736512
 20
9.5748946592
 30
0.0
 10
8.8163845419
 20
9.5768662267
 30
0.0
 10
8.8138233573
 20
9.5782758812
 30
0.0
 11
8.8245927983
 21
9.5723650444
 31
0.0
 11
8.8215104516
 21
9.5740533571
 31
0.0
 11
8.8138233573
 21
9.5782758812
 31
0.0
  0
SPLINE
  5
4E0
100
AcDbEntity
  8
0
100
AcDbSpline
 62
7
  6
CONTINUOUS
 70
0
 71
3
 72
8
 73
4
 74
2
 42
0.0000001
 43
0.0000001
 44
0.0000000001
 12
-0.0016779572
 22
-0.0009243154
 32
0.0
 13
-0.0016782878
 23
-0.0009237155
 33
0.0
 40
0.0
 40
0.0
 40
0.0
 40
0.0
 40
1.0
 40
1.0
 40
1.0
 40
1.0
 10
9.6172394496
 20
9.5791998972
 30
0.0
 10
9.6166801305
 20
9.5788917921
 30
0.0
 10
9.6161207566
 20
9.5785837863
 30
0.0
 10
9.6155613274
 20
9.5782758812
 30
0.0
 11
9.6172394496
 21
9.5791998972
 31
0.0
 11
9.6155613274
 21
9.5782758812
 31
0.0
  0
SPLINE
  5
4E1
100
AcDbEntity
  8
0
100
AcDbSpline
 62
7
  6
CONTINUOUS
 70
0
 71
3
 72
9
 73
5
 74
3
 42
0.0000001
 43
0.0000001
 44
0.0000000001
 12
-0.0107624492
 22
-0.0059235616
 32
0.0
 13
-0.0107765936
 23
-0.0058977919
 33
0.0
 40
0.0
 40
0.0
 40
0.0
 40
0.0
 40
0.7139224309
 40
1.0
 40
1.0
 40
1.0
 40
1.0
 10
9.6155613274
 20
9.5782758812
 30
0.0
 10
9.6130001428
 20
9.5768662267
 30
0.0
 10
9.6094110335
 20
9.5748946592
 30
0.0
 10
9.6058195336
 20
9.5729274531
 30
0.0
 10
9.6047918864
 20
9.5723650444
 30
0.0
 11
9.6155613274
 21
9.5782758812
 31
0.0
 11
9.607874233
 21
9.5740533571
 31
0.0
 11
9.6047918864
 21
9.5723650444
 31
0.0
  0
SPLINE
  5
4E2
100
AcDbEntity
  8
0
100
AcDbSpline
 62
7
  6
CONTINUOUS
 70
0
 71
3
 72
8
 73
4
 74
2
 42
0.0000001
 43
0.0000001
 44
0.0000000001
 12
-0.0031304415
 22
-0.0017132215
 32
0.0
 13
-0.0031316894
 23
-0.0017109393
 33
0.0
 40
0.0
 40
0.0
 40
0.0
 40
0.0
 40
1.0
 40
1.0
 40
1.0
 40
1.0
 10
9.6047918864
 20
9.5723650444
 30
0.0
 10
9.6037484059
 20
9.5717939706
 30
0.0
 10
9.6027047195
 20
9.5712232729
 30
0.0
 10
9.601660823
 20
9.5706529598
 30
0.0
 11
9.6047918864
 21
9.5723650444
 31
0.0
 11
9.601660823
 21
9.5706529598
 31
0.0
  0
SPLINE
  5
4E3
100
AcDbEntity
  8
0
100
AcDbSpline
 62
7
  6
CONTINUOUS
 70
0
 71
3
 72
9
 73
5
 74
3
 42
0.0000001
 43
0.0000001
 44
0.0000000001
 12
-0.0125917629
 22
-0.0068792716
 32
0.0
 13
-0.0126129888
 23
-0.0068402708
 33
0.0
 40
0.0
 40
0.0
 40
0.0
 40
0.0
 40
0.2524922675
 40
1.0
 40
1.0
 40
1.0
 40
1.0
 10
9.601660823
 20
9.5706529598
 30
0.0
 10
9.6006010488
 20
9.5700739722
 30
0.0
 10
9.5964029369
 20
9.5677824513
 30
0.0
 10
9.592201359
 20
9.5654972833
 30
0.0
 10
9.5890585901
 20
9.5637928982
 30
0.0
 11
9.601660823
 21
9.5706529598
 31
0.0
 11
9.5984808462
 21
9.5689171946
 31
0.0
 11
9.5890585901
 21
9.5637928982
 31
0.0
  0
SPLINE
  5
4E4
100
AcDbEntity
  8
0
100
AcDbSpline
 62
7
  6
CONTINUOUS
 70
0
 71
3
 72
20
 73
16
 74
14
 42
0.0000001
 43
0.0000001
 44
0.0000000001
 12
-0.3091913484
 22
-0.1685553362
 32
0.0
 13
-0.3091913484
 23
0.1685553362
 33
0.0
 40
0.0
 40
0.0
 40
0.0
 40
0.0
 40
0.0851933816
 40
0.1659070249
 40
0.2432643765
 40
0.3182185173
 40
0.391550966
 40
0.4639515026
 40
0.5360484982
 40
0.6084490348
 40
0.6817814835
 40
0.7567356242
 40
0.8340929757
 40
0.9148066184
 40
1.0
 40
1.0
 40
1.0
 40
1.0
 10
9.9233313412
 20
7.5649688357
 30
0.0
 10
9.914550989
 20
7.5601822361
 30
0.0
 10
9.8972080836
 20
7.5512963665
 30
0.0
 10
9.8710388405
 20
7.5398225115
 30
0.0
 10
9.8452744391
 20
7.5305645408
 30
0.0
 10
9.8197089793
 20
7.5235308575
 30
0.0
 10
9.7942098707
 20
7.5187786144
 30
0.0
 10
9.7687163849
 20
7.5163787846
 30
0.0
 10
9.7432182995
 20
7.5163787846
 30
0.0
 10
9.7177248136
 20
7.5187786144
 30
0.0
 10
9.6922257051
 20
7.5235308575
 30
0.0
 10
9.6666602453
 20
7.5305645409
 30
0.0
 10
9.640895844
 20
7.5398225116
 30
0.0
 10
9.614726601
 20
7.5512963665
 30
0.0
 10
9.5973836956
 20
7.5601822361
 30
0.0
 10
9.5886033434
 20
7.5649688357
 30
0.0
 11
9.9233313412
 21
7.5649688357
 31
0.0
 11
9.8966067458
 21
7.5513361145
 31
0.0
 11
9.8705545745
 21
7.539970702
 31
0.0
 11
9.844901269
 21
7.5308052931
 31
0.0
 11
9.8194402175
 21
7.5238454517
 31
0.0
 11
9.7940472224
 21
7.5191466262
 31
0.0
 11
9.7686618498
 21
7.5167750961
 31
0.0
 11
9.7432728346
 21
7.5167750961
 31
0.0
 11
9.717887462
 21
7.5191466263
 31
0.0
 11
9.6924944669
 21
7.5238454517
 31
0.0
 11
9.6670334154
 21
7.5308052931
 31
0.0
 11
9.6413801099
 21
7.5399707021
 31
0.0
 11
9.6153279388
 21
7.5513361144
 31
0.0
 11
9.5886033434
 21
7.5649688357
 31
0.0
  0
SPLINE
  5
4E5
100
AcDbEntity
  8
0
100
AcDbSpline
 62
7
  6
CONTINUOUS
 70
0
 71
3
 72
20
 73
16
 74
14
 42
0.0000001
 43
0.0000001
 44
0.0000000001
 12
-0.6545640906
 22
-0.1784174604
 32
0.0
 13
-0.6545640906
 23
0.1784174604
 33
0.0
 40
0.0
 40
0.0
 40
0.0
 40
0.0
 40
0.0813041834
 40
0.1599097226
 40
0.236730798
 40
0.3124857415
 40
0.3876619713
 40
0.4625776096
 40
0.5374223912
 40
0.6123380295
 40
0.6875142593
 40
0.7632692027
 40
0.8400902779
 40
0.9186958166
 40
1.0
 40
1.0
 40
1.0
 40
1.0
 10
9.5494203401
 20
7.5649688357
 30
0.0
 10
9.5316807405
 20
7.5601334738
 30
0.0
 10
9.4966380394
 20
7.5511689443
 30
0.0
 10
9.4443283176
 20
7.5397215293
 30
0.0
 10
9.3928539897
 20
7.530493272
 30
0.0
 10
9.3418110558
 20
7.5234897627
 30
0.0
 10
9.2909381813
 20
7.5187632668
 30
0.0
 10
9.2401067616
 20
7.5163785402
 30
0.0
 10
9.1892779225
 20
7.5163785403
 30
0.0
 10
9.1384465028
 20
7.5187632668
 30
0.0
 10
9.0875736283
 20
7.5234897628
 30
0.0
 10
9.0365306945
 20
7.530493272
 30
0.0
 10
8.9850563668
 20
7.5397215293
 30
0.0
 10
8.9327466451
 20
7.5511689444
 30
0.0
 10
8.8977039442
 20
7.5601334738
 30
0.0
 10
8.8799643445
 20
7.5649688357
 30
0.0
 11
9.5494203401
 21
7.5649688357
 31
0.0
 11
9.4959711493
 21
7.5513361145
 31
0.0
 11
9.4438668068
 21
7.539970702
 31
0.0
 11
9.3925601956
 21
7.5308052931
 31
0.0
 11
9.3416380927
 21
7.5238454517
 31
0.0
 11
9.2908521024
 21
7.5191466262
 31
0.0
 11
9.2400813572
 21
7.5167750961
 31
0.0
 11
9.1893033268
 21
7.5167750961
 31
0.0
 11
9.1385325817
 21
7.5191466263
 31
0.0
 11
9.0877465914
 21
7.5238454517
 31
0.0
 11
9.0368244885
 21
7.5308052931
 31
0.0
 11
8.9855178775
 21
7.5399707021
 31
0.0
 11
8.9334135353
 21
7.5513361144
 31
0.0
 11
8.8799643445
 21
7.5649688357
 31
0.0
  0
SPLINE
  5
4E6
100
AcDbEntity
  8
0
100
AcDbSpline
 62
7
  6
CONTINUOUS
 70
0
 71
3
 72
20
 73
16
 74
14
 42
0.0000001
 43
0.0000001
 44
0.0000000001
 12
-0.3091913484
 22
-0.1685553362
 32
0.0
 13
-0.3091913484
 23
0.1685553362
 33
0.0
 40
0.0
 40
0.0
 40
0.0
 40
0.0
 40
0.0851933816
 40
0.1659070249
 40
0.2432643765
 40
0.3182185173
 40
0.391550966
 40
0.4639515026
 40
0.5360484982
 40
0.6084490348
 40
0.6817814835
 40
0.7567356242
 40
0.8340929757
 40
0.9148066184
 40
1.0
 40
1.0
 40
1.0
 40
1.0
 10
8.8407813412
 20
7.5649688357
 30
0.0
 10
8.832000989
 20
7.5601822361
 30
0.0
 10
8.8146580836
 20
7.5512963665
 30
0.0
 10
8.7884888405
 20
7.5398225115
 30
0.0
 10
8.7627244391
 20
7.5305645408
 30
0.0
 10
8.7371589793
 20
7.5235308575
 30
0.0
 10
8.7116598707
 20
7.5187786144
 30
0.0
 10
8.6861663849
 20
7.5163787846
 30
0.0
 10
8.6606682995
 20
7.5163787846
 30
0.0
 10
8.6351748136
 20
7.5187786144
 30
0.0
 10
8.6096757051
 20
7.5235308575
 30
0.0
 10
8.5841102453
 20
7.5305645409
 30
0.0
 10
8.558345844
 20
7.5398225116
 30
0.0
 10
8.532176601
 20
7.5512963665
 30
0.0
 10
8.5148336956
 20
7.5601822361
 30
0.0
 10
8.5060533434
 20
7.5649688357
 30
0.0
 11
8.8407813412
 21
7.5649688357
 31
0.0
 11
8.8140567458
 21
7.5513361145
 31
0.0
 11
8.7880045745
 21
7.539970702
 31
0.0
 11
8.762351269
 21
7.5308052931
 31
0.0
 11
8.7368902175
 21
7.5238454517
 31
0.0
 11
8.7114972224
 21
7.5191466262
 31
0.0
 11
8.6861118498
 21
7.5167750961
 31
0.0
 11
8.6607228346
 21
7.5167750961
 31
0.0
 11
8.635337462
 21
7.5191466263
 31
0.0
 11
8.6099444669
 21
7.5238454517
 31
0.0
 11
8.5844834154
 21
7.5308052931
 31
0.0
 11
8.5588301099
 21
7.5399707021
 31
0.0
 11
8.5327779388
 21
7.5513361144
 31
0.0
 11
8.5060533434
 21
7.5649688357
 31
0.0
  0
ENDSEC
  0
SECTION
  2
OBJECTS
  0
DICTIONARY
  5
C
100
AcDbDictionary
280
0
281
1
  3
ACAD_GROUP
350
D
  3
ACAD_MLINESTYLE
350
17
  3
ACAD_LAYOUT
350
1A
  3
ACAD_PLOTSETTINGS
350
19
  3
ACAD_PLOTSTYLENAME
350
E
  0
DICTIONARY
  5
D
102
{ACAD_REACTORS
330
C
102
}
100
AcDbDictionary
280
0
281
1
  0
ACDBDICTIONARYWDFLT
  5
E
102
{ACAD_REACTORS
330
C
102
}
100
AcDbDictionary
281
1
  3
Normal
350
F
100
AcDbDictionaryWithDefault
340
F
  0
DICTIONARY
  5
17
102
{ACAD_REACTORS
330
C
102
}
100
AcDbDictionary
280
0
281
1
  3
Standard
350
18
  0
DICTIONARY
  5
19
102
{ACAD_REACTORS
330
C
102
}
100
AcDbDictionary
281
1
  0
DICTIONARY
  5
1A
102
{ACAD_REACTORS
330
C
102
}
100
AcDbDictionary
281
1
  3
Layout1
350
1E
  3
Model
350
22
  0
ACDBPLACEHOLDER
  5
F
102
{ACAD_REACTORS
330
E
102
}
  0
MLINESTYLE
  5
18
102
{ACAD_REACTORS
330
17
102
}
100
AcDbMlineStyle
  2
STANDARD
 70
0
  3

 62
256
 51
90.0
 52
90.0
 71
2
 49
0.5
 62
256
  6
BYLAYER
 49
-0.5
 62
256
  6
BYLAYER
  0
LAYOUT
  5
1E
102
{ACAD_REACTORS
330
1A
102
}
100
AcDbPlotSettings
  1

  2

  4

  6

 40
0.0
 41
0.0
 42
0.0
 43
0.0
 44
0.0
 45
0.0
 46
0.0
 47
0.0
 48
0.0
 49
0.0
140
0.0
141
0.0
142
1.0
143
1.0
 70
0
 72
0
 73
0
 74
0
  7

 75
0
147
1.0
148
0.0
149
0.0
100
AcDbLayout
  1
Layout1
 70
0
 71
0
 10
0.0
 20
0.0
 11
0.0
 21
0.0
 12
0.0
 22
0.0
 32
0.0
 14
0.0
 24
0.0
 34
0.0
 15
0.0
 25
0.0
 35
0.0
146
0.0
 13
0.0
 23
0.0
 33
0.0
 16
0.0
 26
0.0
 36
0.0
 17
0.0
 27
0.0
 37
0.0
 76
0
330
1B
331
0
345
0
346
0
  0
LAYOUT
  5
22
102
{ACAD_REACTORS
330
1A
102
}
100
AcDbPlotSettings
  1

  2

  4

  6

 40
0.0
 41
0.0
 42
0.0
 43
0.0
 44
0.0
 45
0.0
 46
0.0
 47
0.0
 48
0.0
 49
0.0
140
0.0
141
0.0
142
1.0
143
1.0
 70
0
 72
0
 73
0
 74
0
  7

 75
0
147
1.0
148
0.0
149
0.0
100
AcDbLayout
  1
Model
 70
0
 71
0
 10
0.0
 20
0.0
 11
0.0
 21
0.0
 12
0.0
 22
0.0
 32
0.0
 14
0.0
 24
0.0
 34
0.0
 15
0.0
 25
0.0
 35
0.0
146
0.0
 13
0.0
 23
0.0
 33
0.0
 16
0.0
 26
0.0
 36
0.0
 17
0.0
 27
0.0
 37
0.0
 76
0
330
1F
331
0
345
0
346
0
  0
ENDSEC
  0
EOF
