999
DXF file: INL_2.dxf
999
Pro/ENGINEER 2006240 by Parametric Technology Corporation
  0
SECTION
  2
HEADER
  9
$ACADVER
  1
AC1015
  9
$DWGCODEPAGE
  3
ANSI_1252
  9
$EXTMAX
 10
22.0
 20
17.0
 30
0.0
  9
$EXTMIN
 10
0.0
 20
0.0
 30
0.0
  9
$LIMMIN
 10
0.0
 20
0.0
  9
$LIMMAX
 10
22.0
 20
17.0
  9
$VIEWCTR
 10
11.0
 20
8.5
  9
$VIEWSIZE
 40
17.0
  9
$CLAYER
  8
0
  9
$LTSCALE
 40
1.21
  9
$CELTYPE
  6
BYLAYER
  9
$DIMSCALE
 40
1.0
  9
$DIMASZ
 40
0.1875
  9
$DIMEXO
 40
0.1375
  9
$DIMDLI
 40
0.836
  9
$DIMEXE
 40
0.396
  9
$DIMCEN
 40
0.198
  9
$DIMLFAC
 40
1.0
  9
$DIMBLK
  1
_CLOSED
  9
$DIMTXT
 40
0.15625
  9
$DIMTOL
 70
0
  9
$DIMLIM
 70
0
  9
$DIMTFAC
 40
1.0
  9
$PDMODE
 70
3
  9
$PDSIZE
 40
0.3125
  9
$HANDSEED
  5
3B6
  9
$MEASUREMENT
 70
0
  9
$INSUNITS
 70
1
  0
ENDSEC
  0
SECTION
  2
CLASSES
  0
CLASS
  1
ACDBDICTIONARYWDFLT
  2
AcDbDictionaryWithDefault
  3
AutoCAD 2000
 90
0
280
0
281
0
  0
CLASS
  1
ACDBPLACEHOLDER
  2
AcDbPlaceHolder
  3
AutoCAD 2000
 90
0
280
0
281
0
  0
CLASS
  1
LAYOUT
  2
AcDbLayout
  3
AutoCAD 2000
 90
0
280
0
281
0
  0
ENDSEC
  0
SECTION
  2
TABLES
  0
TABLE
  2
VPORT
  5
8
100
AcDbSymbolTable
 70
2
  0
VPORT
  5
1F4
100
AcDbSymbolTableRecord
100
AcDbViewportTableRecord
  2
*ACTIVE
 70
0
 10
0.0
 20
0.0
 11
1.0
 21
1.0
 12
11.0
 22
8.5
 13
0.0
 23
0.0
 14
1.0
 24
1.0
 15
0.0
 25
0.0
 16
0.0
 26
0.0
 36
1.0
 17
0.0
 27
0.0
 37
0.0
 40
17.0
 41
1.2941176471
 42
50.0
 43
0.0
 44
0.0
 50
0.0
 51
0.0
 71
0
 72
100
 73
1
 74
1
 75
0
 76
0
 77
0
 78
0
  0
ENDTAB
  0
TABLE
  2
LTYPE
  5
5
100
AcDbSymbolTable
 70
6
  0
LTYPE
  5
14
100
AcDbSymbolTableRecord
100
AcDbLinetypeTableRecord
  2
BYBLOCK
 70
0
  3

 72
65
 73
0
 40
0.0
  0
LTYPE
  5
15
100
AcDbSymbolTableRecord
100
AcDbLinetypeTableRecord
  2
BYLAYER
 70
0
  3

 72
65
 73
0
 40
0.0
  0
LTYPE
  5
16
100
AcDbSymbolTableRecord
100
AcDbLinetypeTableRecord
  2
CONTINUOUS
 70
64
  3
Solid line
 72
65
 73
0
 40
0.0
  0
LTYPE
  5
1F5
100
AcDbSymbolTableRecord
100
AcDbLinetypeTableRecord
  2
CENTER
 70
64
  3
____ _ ____ _ ____ _ ____ _ ____ _ ____ _ ____
 72
65
 73
4
 40
0.6
 49
0.375
 74
0
 49
-0.075
 74
0
 49
0.075
 74
0
 49
-0.075
 74
0
  0
LTYPE
  5
1F6
100
AcDbSymbolTableRecord
100
AcDbLinetypeTableRecord
  2
HIDDEN
 70
64
  3
- - - - - - - - - - - - - - - - - - - -
 72
65
 73
2
 40
0.2
 49
0.1
 74
0
 49
-0.1
 74
0
  0
LTYPE
  5
1F7
100
AcDbSymbolTableRecord
100
AcDbLinetypeTableRecord
  2
PHANTOM
 70
64
  3
_____ _ _ _____ _ _ _____ _ _ _____
 72
65
 73
6
 40
0.8
 49
0.45
 74
0
 49
-0.05
 74
0
 49
0.1
 74
0
 49
-0.05
 74
0
 49
0.1
 74
0
 49
-0.05
 74
0
  0
LTYPE
  5
1F8
100
AcDbSymbolTableRecord
100
AcDbLinetypeTableRecord
  2
DOT
 70
64
  3
. . . . . . . . . . . . . . . . . . . .
 72
65
 73
2
 40
0.2
 49
0.1
 74
0
 49
-0.1
 74
0
  0
LTYPE
  5
1F9
100
AcDbSymbolTableRecord
100
AcDbLinetypeTableRecord
  2
DASHED
 70
64
  3
- - - - - - - - - - - - - - - - - - - -
 72
65
 73
2
 40
0.2
 49
0.1
 74
0
 49
-0.1
 74
0
  0
ENDTAB
  0
TABLE
  2
LAYER
  5
2
100
AcDbSymbolTable
 70
36
  0
LAYER
  5
10
100
AcDbSymbolTableRecord
100
AcDbLayerTableRecord
  2
0
 70
0
 62
7
  6
CONTINUOUS
370
-3
390
F
  0
LAYER
  5
1FA
100
AcDbSymbolTableRecord
100
AcDbLayerTableRecord
  2
DEFAULT_1
 70
0
 62
7
  6
CENTER
370
-3
390
F
  0
LAYER
  5
1FB
100
AcDbSymbolTableRecord
100
AcDbLayerTableRecord
  2
DEFAULT_2
 70
0
 62
8
  6
HIDDEN
370
-3
390
F
  0
LAYER
  5
1FC
100
AcDbSymbolTableRecord
100
AcDbLayerTableRecord
  2
DEFAULT_3
 70
0
 62
7
  6
PHANTOM
370
-3
390
F
  0
LAYER
  5
1FD
100
AcDbSymbolTableRecord
100
AcDbLayerTableRecord
  2
01_ALL_DTM_PLN
 70
0
 62
7
  6
CONTINUOUS
370
-3
390
F
  0
LAYER
  5
1FE
100
AcDbSymbolTableRecord
100
AcDbLayerTableRecord
  2
01__ASM_ALL_DTM_PLN
 70
0
 62
7
  6
CONTINUOUS
370
-3
390
F
  0
LAYER
  5
1FF
100
AcDbSymbolTableRecord
100
AcDbLayerTableRecord
  2
01__ASM_DEF_DTM_PLN
 70
0
 62
7
  6
CONTINUOUS
370
-3
390
F
  0
LAYER
  5
200
100
AcDbSymbolTableRecord
100
AcDbLayerTableRecord
  2
01___PRT_ALL_DTM_PLN
 70
0
 62
7
  6
CONTINUOUS
370
-3
390
F
  0
LAYER
  5
201
100
AcDbSymbolTableRecord
100
AcDbLayerTableRecord
  2
01___PRT_DEF_DTM_PLN
 70
0
 62
7
  6
CONTINUOUS
370
-3
390
F
  0
LAYER
  5
202
100
AcDbSymbolTableRecord
100
AcDbLayerTableRecord
  2
02_ALL_AXES
 70
0
 62
7
  6
CONTINUOUS
370
-3
390
F
  0
LAYER
  5
203
100
AcDbSymbolTableRecord
100
AcDbLayerTableRecord
  2
02__ASM_ALL_AXES
 70
0
 62
7
  6
CONTINUOUS
370
-3
390
F
  0
LAYER
  5
204
100
AcDbSymbolTableRecord
100
AcDbLayerTableRecord
  2
02___PRT_ALL_AXES
 70
0
 62
7
  6
CONTINUOUS
370
-3
390
F
  0
LAYER
  5
205
100
AcDbSymbolTableRecord
100
AcDbLayerTableRecord
  2
03_ALL_CURVES
 70
0
 62
7
  6
CONTINUOUS
370
-3
390
F
  0
LAYER
  5
206
100
AcDbSymbolTableRecord
100
AcDbLayerTableRecord
  2
03__ASM_ALL_CURVES
 70
0
 62
7
  6
CONTINUOUS
370
-3
390
F
  0
LAYER
  5
207
100
AcDbSymbolTableRecord
100
AcDbLayerTableRecord
  2
03___PRT_ALL_CURVES
 70
0
 62
7
  6
CONTINUOUS
370
-3
390
F
  0
LAYER
  5
208
100
AcDbSymbolTableRecord
100
AcDbLayerTableRecord
  2
04_ALL_DTM_PNT
 70
0
 62
7
  6
CONTINUOUS
370
-3
390
F
  0
LAYER
  5
209
100
AcDbSymbolTableRecord
100
AcDbLayerTableRecord
  2
04__ASM_ALL_DTM_PNT
 70
0
 62
7
  6
CONTINUOUS
370
-3
390
F
  0
LAYER
  5
20A
100
AcDbSymbolTableRecord
100
AcDbLayerTableRecord
  2
04___PRT_ALL_DTM_PNT
 70
0
 62
7
  6
CONTINUOUS
370
-3
390
F
  0
LAYER
  5
20B
100
AcDbSymbolTableRecord
100
AcDbLayerTableRecord
  2
05_ALL_DTM_CSYS
 70
0
 62
7
  6
CONTINUOUS
370
-3
390
F
  0
LAYER
  5
20C
100
AcDbSymbolTableRecord
100
AcDbLayerTableRecord
  2
05__ASM_ALL_DTM_CSYS
 70
0
 62
7
  6
CONTINUOUS
370
-3
390
F
  0
LAYER
  5
20D
100
AcDbSymbolTableRecord
100
AcDbLayerTableRecord
  2
05__ASM_DEF_DTM_CSYS
 70
0
 62
7
  6
CONTINUOUS
370
-3
390
F
  0
LAYER
  5
20E
100
AcDbSymbolTableRecord
100
AcDbLayerTableRecord
  2
05___PRT_ALL_DTM_CSYS
 70
0
 62
7
  6
CONTINUOUS
370
-3
390
F
  0
LAYER
  5
20F
100
AcDbSymbolTableRecord
100
AcDbLayerTableRecord
  2
05___PRT_DEF_DTM_CSYS
 70
0
 62
7
  6
CONTINUOUS
370
-3
390
F
  0
LAYER
  5
210
100
AcDbSymbolTableRecord
100
AcDbLayerTableRecord
  2
06_ALL_SURFS
 70
0
 62
7
  6
CONTINUOUS
370
-3
390
F
  0
LAYER
  5
211
100
AcDbSymbolTableRecord
100
AcDbLayerTableRecord
  2
06__ASM_ALL_SURFS
 70
0
 62
7
  6
CONTINUOUS
370
-3
390
F
  0
LAYER
  5
212
100
AcDbSymbolTableRecord
100
AcDbLayerTableRecord
  2
06___PRT_ALL_SURFS
 70
0
 62
7
  6
CONTINUOUS
370
-3
390
F
  0
LAYER
  5
213
100
AcDbSymbolTableRecord
100
AcDbLayerTableRecord
  2
07__ASM_ALL_SKELETONS
 70
0
 62
7
  6
CONTINUOUS
370
-3
390
F
  0
LAYER
  5
214
100
AcDbSymbolTableRecord
100
AcDbLayerTableRecord
  2
COPY_GEO_FET
 70
0
 62
7
  6
CONTINUOUS
370
-3
390
F
  0
LAYER
  5
215
100
AcDbSymbolTableRecord
100
AcDbLayerTableRecord
  2
COSMETIC
 70
0
 62
7
  6
CONTINUOUS
370
-3
390
F
  0
LAYER
  5
216
100
AcDbSymbolTableRecord
100
AcDbLayerTableRecord
  2
CUT_REF_SURF
 70
0
 62
7
  6
CONTINUOUS
370
-3
390
F
  0
LAYER
  5
217
100
AcDbSymbolTableRecord
100
AcDbLayerTableRecord
  2
DATESTAMP
 70
0
 62
7
  6
CONTINUOUS
370
-3
390
F
  0
LAYER
  5
218
100
AcDbSymbolTableRecord
100
AcDbLayerTableRecord
  2
DATUM
 70
0
 62
7
  6
CONTINUOUS
370
-3
390
F
  0
LAYER
  5
219
100
AcDbSymbolTableRecord
100
AcDbLayerTableRecord
  2
DATUM_B
 70
0
 62
7
  6
CONTINUOUS
370
-3
390
F
  0
LAYER
  5
21A
100
AcDbSymbolTableRecord
100
AcDbLayerTableRecord
  2
DATUM_PLANES
 70
0
 62
7
  6
CONTINUOUS
370
-3
390
F
  0
LAYER
  5
21B
100
AcDbSymbolTableRecord
100
AcDbLayerTableRecord
  2
DIM
 70
0
 62
7
  6
CONTINUOUS
370
-3
390
F
  0
LAYER
  5
21C
100
AcDbSymbolTableRecord
100
AcDbLayerTableRecord
  2
DIM_1
 70
0
 62
7
  6
CONTINUOUS
370
-3
390
F
  0
LAYER
  5
21D
100
AcDbSymbolTableRecord
100
AcDbLayerTableRecord
  2
DIM_2
 70
0
 62
7
  6
CONTINUOUS
370
-3
390
F
  0
LAYER
  5
21E
100
AcDbSymbolTableRecord
100
AcDbLayerTableRecord
  2
DIM_3
 70
0
 62
7
  6
CONTINUOUS
370
-3
390
F
  0
LAYER
  5
21F
100
AcDbSymbolTableRecord
100
AcDbLayerTableRecord
  2
DIM_4
 70
0
 62
7
  6
CONTINUOUS
370
-3
390
F
  0
LAYER
  5
220
100
AcDbSymbolTableRecord
100
AcDbLayerTableRecord
  2
DIM_5
 70
0
 62
7
  6
CONTINUOUS
370
-3
390
F
  0
LAYER
  5
221
100
AcDbSymbolTableRecord
100
AcDbLayerTableRecord
  2
DIM_6
 70
0
 62
7
  6
CONTINUOUS
370
-3
390
F
  0
LAYER
  5
222
100
AcDbSymbolTableRecord
100
AcDbLayerTableRecord
  2
DIM_7
 70
0
 62
7
  6
CONTINUOUS
370
-3
390
F
  0
LAYER
  5
223
100
AcDbSymbolTableRecord
100
AcDbLayerTableRecord
  2
DIM_8
 70
0
 62
7
  6
CONTINUOUS
370
-3
390
F
  0
LAYER
  5
224
100
AcDbSymbolTableRecord
100
AcDbLayerTableRecord
  2
DTM
 70
0
 62
7
  6
CONTINUOUS
370
-3
390
F
  0
LAYER
  5
225
100
AcDbSymbolTableRecord
100
AcDbLayerTableRecord
  2
EXT_COPY_GEO
 70
0
 62
7
  6
CONTINUOUS
370
-3
390
F
  0
LAYER
  5
226
100
AcDbSymbolTableRecord
100
AcDbLayerTableRecord
  2
INL_10
 70
0
 62
7
  6
CONTINUOUS
370
-3
390
F
  0
LAYER
  5
227
100
AcDbSymbolTableRecord
100
AcDbLayerTableRecord
  2
INL_2
 70
0
 62
7
  6
CONTINUOUS
370
-3
390
F
  0
LAYER
  5
228
100
AcDbSymbolTableRecord
100
AcDbLayerTableRecord
  2
INL_5
 70
0
 62
7
  6
CONTINUOUS
370
-3
390
F
  0
LAYER
  5
229
100
AcDbSymbolTableRecord
100
AcDbLayerTableRecord
  2
INL_6
 70
0
 62
7
  6
CONTINUOUS
370
-3
390
F
  0
LAYER
  5
22A
100
AcDbSymbolTableRecord
100
AcDbLayerTableRecord
  2
INL_7
 70
0
 62
7
  6
CONTINUOUS
370
-3
390
F
  0
LAYER
  5
22B
100
AcDbSymbolTableRecord
100
AcDbLayerTableRecord
  2
INL_8
 70
0
 62
7
  6
CONTINUOUS
370
-3
390
F
  0
LAYER
  5
22C
100
AcDbSymbolTableRecord
100
AcDbLayerTableRecord
  2
LS
 70
0
 62
7
  6
CONTINUOUS
370
-3
390
F
  0
LAYER
  5
22D
100
AcDbSymbolTableRecord
100
AcDbLayerTableRecord
  2
ORIGIN
 70
0
 62
7
  6
CONTINUOUS
370
-3
390
F
  0
LAYER
  5
22E
100
AcDbSymbolTableRecord
100
AcDbLayerTableRecord
  2
PARTNUMBER
 70
0
 62
7
  6
CONTINUOUS
370
-3
390
F
  0
LAYER
  5
22F
100
AcDbSymbolTableRecord
100
AcDbLayerTableRecord
  2
PORT_AREAS
 70
0
 62
7
  6
CONTINUOUS
370
-3
390
F
  0
LAYER
  5
230
100
AcDbSymbolTableRecord
100
AcDbLayerTableRecord
  2
TEXT
 70
0
 62
7
  6
CONTINUOUS
370
-3
390
F
  0
LAYER
  5
231
100
AcDbSymbolTableRecord
100
AcDbLayerTableRecord
  2
THREAD
 70
0
 62
7
  6
CONTINUOUS
370
-3
390
F
  0
LAYER
  5
232
100
AcDbSymbolTableRecord
100
AcDbLayerTableRecord
  2
THREADS
 70
0
 62
7
  6
CONTINUOUS
370
-3
390
F
  0
ENDTAB
  0
TABLE
  2
STYLE
  5
3
100
AcDbSymbolTable
 70
1
  0
STYLE
  5
11
100
AcDbSymbolTableRecord
100
AcDbTextStyleTableRecord
  2
STANDARD
 70
0
 40
0.0
 41
0.8
 50
0.0
 71
0
 42
0.2
  3
txt
  4

  0
ENDTAB
  0
TABLE
  2
VIEW
  5
6
100
AcDbSymbolTable
 70
0
  0
ENDTAB
  0
TABLE
  2
UCS
  5
7
100
AcDbSymbolTable
 70
0
  0
ENDTAB
  0
TABLE
  2
APPID
  5
9
100
AcDbSymbolTable
 70
1
  0
APPID
  5
233
100
AcDbSymbolTableRecord
100
AcDbRegAppTableRecord
  2
ACAD
 70
0
  0
ENDTAB
  0
TABLE
  2
BLOCK_RECORD
  5
1
100
AcDbSymbolTable
 70
0
  0
BLOCK_RECORD
  5
1F
100
AcDbSymbolTableRecord
100
AcDbBlockTableRecord
  2
*MODEL_SPACE
  0
BLOCK_RECORD
  5
1B
100
AcDbSymbolTableRecord
100
AcDbBlockTableRecord
  2
*PAPER_SPACE
  0
ENDTAB
  0
TABLE
  2
DIMSTYLE
  5
A
100
AcDbSymbolTable
 70
1
100
AcDbDimStyleTable
 71
0
  0
DIMSTYLE
105
234
100
AcDbSymbolTableRecord
100
AcDbDimStyleTableRecord
  2
STANDARD
 70
0
  3

  4

 40
1.0
 41
0.1875
 42
0.0625
 43
0.38
 44
0.18
 45
0.0
 46
0.0
 47
0.01
 48
0.01
140
0.15625
141
0.09
142
0.0
143
25.4
144
1.0
145
0.0
146
1.0
147
0.09
 71
0.0
 72
0.0
 73
1
 74
1
 75
0
 76
0
 77
0
 78
4
170
0
171
2
172
0
173
0
174
0
175
0
176
0
177
0
178
0
270
2
271
2
272
2
273
2
274
2
275
0
280
0
281
0
282
0
283
1
284
4
285
0
286
0
287
3
288
0
340
11
  0
ENDTAB
  0
ENDSEC
  0
SECTION
  2
BLOCKS
  0
BLOCK
  5
20
100
AcDbEntity
  8
0
100
AcDbBlockBegin
  2
*MODEL_SPACE
 70
0
 10
0.0
 20
0.0
 30
0.0
  3
*MODEL_SPACE
  1

  0
ENDBLK
  5
21
100
AcDbEntity
  8
0
100
AcDbBlockEnd
  0
BLOCK
  5
1C
100
AcDbEntity
  8
0
100
AcDbBlockBegin
  2
*PAPER_SPACE
 70
0
 10
0.0
 20
0.0
 30
0.0
  3
*PAPER_SPACE
  1

  0
ENDBLK
  5
1D
100
AcDbEntity
  8
0
100
AcDbBlockEnd
  0
ENDSEC
  0
SECTION
  2
ENTITIES
  0
LINE
  5
235
100
AcDbEntity
  8
03__ASM_ALL_CURVES
100
AcDbLine
 62
4
  6
CONTINUOUS
 10
6.9992812934
 20
8.6146838003
 11
6.9992812934
 21
8.3521838003
  0
LINE
  5
236
100
AcDbEntity
  8
0
100
AcDbLine
 62
7
  6
CONTINUOUS
 10
6.9992812934
 20
8.7021838003
 11
6.9992812934
 21
10.9521838003
  0
LINE
  5
237
100
AcDbEntity
  8
03__ASM_ALL_CURVES
100
AcDbLine
 62
4
  6
CONTINUOUS
 10
7.0211562934
 20
7.3240588003
 11
7.0211562934
 21
7.3732775503
  0
LINE
  5
238
100
AcDbEntity
  8
03__ASM_ALL_CURVES
100
AcDbLine
 62
4
  6
CONTINUOUS
 10
7.0430312934
 20
8.0678088003
 11
7.0430312934
 21
8.0596056753
  0
LINE
  5
239
100
AcDbEntity
  8
03__ASM_ALL_CURVES
100
AcDbLine
 62
4
  6
CONTINUOUS
 10
7.0430312934
 20
7.4553088003
 11
7.0430312934
 21
7.4471056753
  0
LINE
  5
23A
100
AcDbEntity
  8
03__ASM_ALL_CURVES
100
AcDbLine
 62
4
  6
CONTINUOUS
 10
6.9628229583
 20
7.5099963003
 11
6.9555312934
 21
7.5209338003
  0
LINE
  5
23B
100
AcDbEntity
  8
03__ASM_ALL_CURVES
100
AcDbLine
 62
4
  6
CONTINUOUS
 10
7.0357396265
 20
7.5318713003
 11
7.0430312934
 21
7.5209338003
  0
LINE
  5
23C
100
AcDbEntity
  8
03__ASM_ALL_CURVES
100
AcDbLine
 62
4
  6
CONTINUOUS
 10
6.9628229583
 20
7.8599963003
 11
6.9555312934
 21
7.8709338003
  0
LINE
  5
23D
100
AcDbEntity
  8
03__ASM_ALL_CURVES
100
AcDbLine
 62
4
  6
CONTINUOUS
 10
7.0357396265
 20
7.8818713003
 11
7.0430312934
 21
7.8709338003
  0
LINE
  5
23E
100
AcDbEntity
  8
03__ASM_ALL_CURVES
100
AcDbLine
 62
4
  6
CONTINUOUS
 10
6.9628229583
 20
8.1224963003
 11
6.9555312934
 21
8.1334338003
  0
LINE
  5
23F
100
AcDbEntity
  8
03__ASM_ALL_CURVES
100
AcDbLine
 62
4
  6
CONTINUOUS
 10
6.9992812934
 20
8.1170275503
 11
6.9919896285
 21
8.1334338003
  0
LINE
  5
240
100
AcDbEntity
  8
03__ASM_ALL_CURVES
100
AcDbLine
 62
4
  6
CONTINUOUS
 10
6.9919896285
 20
8.1334338003
 11
6.9992812934
 21
8.1498400503
  0
LINE
  5
241
100
AcDbEntity
  8
03__ASM_ALL_CURVES
100
AcDbLine
 62
4
  6
CONTINUOUS
 10
6.9701146285
 20
7.5045275503
 11
6.9628229583
 21
7.5099963003
  0
LINE
  5
242
100
AcDbEntity
  8
03__ASM_ALL_CURVES
100
AcDbLine
 62
4
  6
CONTINUOUS
 10
7.0284479597
 20
7.5373400503
 11
7.0357396265
 21
7.5318713003
  0
LINE
  5
243
100
AcDbEntity
  8
03__ASM_ALL_CURVES
100
AcDbLine
 62
4
  6
CONTINUOUS
 10
7.0357396265
 20
8.1443713003
 11
7.0430312934
 21
8.1334338003
  0
LINE
  5
244
100
AcDbEntity
  8
0
100
AcDbLine
 62
7
  6
CONTINUOUS
 10
7.9212812934
 20
9.424636693
 11
7.9212812934
 21
10.2297309075
  0
LINE
  5
245
100
AcDbEntity
  8
0
100
AcDbLine
 62
7
  6
CONTINUOUS
 10
7.9248986075
 20
9.4528175525
 11
7.9248986075
 21
10.2015500481
  0
LINE
  5
246
100
AcDbEntity
  8
03__ASM_ALL_CURVES
100
AcDbLine
 62
4
  6
CONTINUOUS
 10
6.9555312934
 20
8.1334338003
 11
6.9628229583
 21
8.1443713003
  0
LINE
  5
247
100
AcDbEntity
  8
03__ASM_ALL_CURVES
100
AcDbLine
 62
4
  6
CONTINUOUS
 10
7.0430312934
 20
8.1334338003
 11
7.0357396265
 21
8.1224963003
  0
LINE
  5
248
100
AcDbEntity
  8
03__ASM_ALL_CURVES
100
AcDbLine
 62
4
  6
CONTINUOUS
 10
6.9555312934
 20
7.8709338003
 11
6.9628229583
 21
7.8818713003
  0
LINE
  5
249
100
AcDbEntity
  8
03__ASM_ALL_CURVES
100
AcDbLine
 62
4
  6
CONTINUOUS
 10
6.9555312934
 20
7.3623400503
 11
7.0211562934
 21
7.3240588003
  0
LINE
  5
24A
100
AcDbEntity
  8
03__ASM_ALL_CURVES
100
AcDbLine
 62
4
  6
CONTINUOUS
 10
6.9555312934
 20
7.7014025503
 11
6.9701146285
 21
7.6904650503
  0
LINE
  5
24B
100
AcDbEntity
  8
03__ASM_ALL_CURVES
100
AcDbLine
 62
4
  6
CONTINUOUS
 10
6.9701146285
 20
7.8545275503
 11
6.9628229583
 21
7.8599963003
  0
LINE
  5
24C
100
AcDbEntity
  8
03__ASM_ALL_CURVES
100
AcDbLine
 62
4
  6
CONTINUOUS
 10
7.0284479597
 20
7.8873400503
 11
7.0357396265
 21
7.8818713003
  0
LINE
  5
24D
100
AcDbEntity
  8
03__ASM_ALL_CURVES
100
AcDbLine
 62
4
  6
CONTINUOUS
 10
8.0878229583
 20
7.2420275503
 11
8.0805312934
 21
7.2529650503
  0
LINE
  5
24E
100
AcDbEntity
  8
03__ASM_ALL_CURVES
100
AcDbLine
 62
4
  6
CONTINUOUS
 10
8.1169896285
 20
7.2748400503
 11
8.131572961
 21
7.2529650503
  0
LINE
  5
24F
100
AcDbEntity
  8
03__ASM_ALL_CURVES
100
AcDbLine
 62
4
  6
CONTINUOUS
 10
8.0878229583
 20
7.4170275503
 11
8.0805312934
 21
7.4279650503
  0
LINE
  5
250
100
AcDbEntity
  8
03__ASM_ALL_CURVES
100
AcDbLine
 62
4
  6
CONTINUOUS
 10
8.1242812934
 20
7.4170275503
 11
8.1169896285
 21
7.4279650503
  0
LINE
  5
251
100
AcDbEntity
  8
03__ASM_ALL_CURVES
100
AcDbLine
 62
4
  6
CONTINUOUS
 10
8.1096979583
 20
7.4498400503
 11
8.1169896285
 21
7.4389025503
  0
LINE
  5
252
100
AcDbEntity
  8
03__ASM_ALL_CURVES
100
AcDbLine
 62
4
  6
CONTINUOUS
 10
8.0805312934
 20
7.8053088003
 11
8.0805312934
 21
7.7615588003
  0
LINE
  5
253
100
AcDbEntity
  8
03__ASM_ALL_CURVES
100
AcDbLine
 62
4
  6
CONTINUOUS
 10
8.0805312934
 20
7.5428088003
 11
8.0805312934
 21
7.4990588003
  0
LINE
  5
254
100
AcDbEntity
  8
03__ASM_ALL_CURVES
100
AcDbLine
 62
4
  6
CONTINUOUS
 10
8.0805312934
 20
7.2529650503
 11
8.0805312934
 21
7.2639025503
  0
LINE
  5
255
100
AcDbEntity
  8
03__ASM_ALL_CURVES
100
AcDbLine
 62
4
  6
CONTINUOUS
 10
8.0805312934
 20
7.4279650503
 11
8.0805312934
 21
7.4389025503
  0
LINE
  5
256
100
AcDbEntity
  8
03__ASM_ALL_CURVES
100
AcDbLine
 62
4
  6
CONTINUOUS
 10
8.0805312934
 20
7.8654650503
 11
8.0805312934
 21
7.8764025503
  0
LINE
  5
257
100
AcDbEntity
  8
03__ASM_ALL_CURVES
100
AcDbLine
 62
4
  6
CONTINUOUS
 10
8.0805312934
 20
8.0404650503
 11
8.0805312934
 21
8.0514025503
  0
LINE
  5
258
100
AcDbEntity
  8
03__ASM_ALL_CURVES
100
AcDbLine
 62
4
  6
CONTINUOUS
 10
8.1169896285
 20
7.4279650503
 11
8.1169896285
 21
7.4389025503
  0
LINE
  5
259
100
AcDbEntity
  8
03__ASM_ALL_CURVES
100
AcDbLine
 62
4
  6
CONTINUOUS
 10
8.1169896285
 20
8.0404650503
 11
8.1169896285
 21
8.0514025503
  0
LINE
  5
25A
100
AcDbEntity
  8
03__ASM_ALL_CURVES
100
AcDbLine
 62
4
  6
CONTINUOUS
 10
8.1242812934
 20
8.6146838003
 11
8.1242812934
 21
8.3521838003
  0
LINE
  5
25B
100
AcDbEntity
  8
03__ASM_ALL_CURVES
100
AcDbLine
 62
4
  6
CONTINUOUS
 10
8.1680312934
 20
8.0514025503
 11
8.1680312934
 21
8.0404650503
  0
LINE
  5
25C
100
AcDbEntity
  8
03__ASM_ALL_CURVES
100
AcDbLine
 62
4
  6
CONTINUOUS
 10
8.1680312934
 20
7.9803088003
 11
8.1680312934
 21
7.9721056753
  0
LINE
  5
25D
100
AcDbEntity
  8
03__ASM_ALL_CURVES
100
AcDbLine
 62
4
  6
CONTINUOUS
 10
8.1680312934
 20
7.4389025503
 11
8.1680312934
 21
7.4279650503
  0
LINE
  5
25E
100
AcDbEntity
  8
03__ASM_ALL_CURVES
100
AcDbLine
 62
4
  6
CONTINUOUS
 10
8.1680312934
 20
7.3678088003
 11
8.1680312934
 21
7.3596056753
  0
LINE
  5
25F
100
AcDbEntity
  8
03__ASM_ALL_CURVES
100
AcDbLine
 62
4
  6
CONTINUOUS
 10
8.1680312934
 20
7.2365588003
 11
8.1680312934
 21
7.2803088003
  0
LINE
  5
260
100
AcDbEntity
  8
03__ASM_ALL_CURVES
100
AcDbLine
 62
4
  6
CONTINUOUS
 10
8.1680312934
 20
7.8490588003
 11
8.1680312934
 21
7.8928088003
  0
LINE
  5
261
100
AcDbEntity
  8
03__ASM_ALL_CURVES
100
AcDbLine
 62
4
  6
CONTINUOUS
 10
7.0430312934
 20
7.8709338003
 11
7.0357396265
 21
7.8599963003
  0
LINE
  5
262
100
AcDbEntity
  8
03__ASM_ALL_CURVES
100
AcDbLine
 62
4
  6
CONTINUOUS
 10
6.9555312934
 20
7.5209338003
 11
6.9628229583
 21
7.5318713003
  0
LINE
  5
263
100
AcDbEntity
  8
03__ASM_ALL_CURVES
100
AcDbLine
 62
4
  6
CONTINUOUS
 10
7.0430312934
 20
7.5209338003
 11
7.0357396265
 21
7.5099963003
  0
LINE
  5
264
100
AcDbEntity
  8
03__ASM_ALL_CURVES
100
AcDbLine
 62
4
  6
CONTINUOUS
 10
8.0951146285
 20
7.2365588003
 11
8.0878229583
 21
7.2420275503
  0
LINE
  5
265
100
AcDbEntity
  8
03__ASM_ALL_CURVES
100
AcDbLine
 62
4
  6
CONTINUOUS
 10
6.9701146285
 20
8.1170275503
 11
6.9628229583
 21
8.1224963003
  0
LINE
  5
266
100
AcDbEntity
  8
03__ASM_ALL_CURVES
100
AcDbLine
 62
4
  6
CONTINUOUS
 10
8.131572961
 20
7.2529650503
 11
8.1461562934
 21
7.2420275503
  0
LINE
  5
267
100
AcDbEntity
  8
03__ASM_ALL_CURVES
100
AcDbLine
 62
4
  6
CONTINUOUS
 10
8.1096979583
 20
7.2803088003
 11
8.1169896285
 21
7.2748400503
  0
LINE
  5
268
100
AcDbEntity
  8
03__ASM_ALL_CURVES
100
AcDbLine
 62
4
  6
CONTINUOUS
 10
7.0284479597
 20
8.1498400503
 11
7.0357396265
 21
8.1443713003
  0
LINE
  5
269
100
AcDbEntity
  8
03__ASM_ALL_CURVES
100
AcDbLine
 62
4
  6
CONTINUOUS
 10
8.0951146285
 20
7.4115588003
 11
8.0878229583
 21
7.4170275503
  0
LINE
  5
26A
100
AcDbEntity
  8
03__ASM_ALL_CURVES
100
AcDbLine
 62
4
  6
CONTINUOUS
 10
7.0284479597
 20
8.2264025503
 11
7.0430312934
 21
8.2154650503
  0
LINE
  5
26B
100
AcDbEntity
  8
03__ASM_ALL_CURVES
100
AcDbLine
 62
4
  6
CONTINUOUS
 10
8.1388646259
 20
7.4060900503
 11
8.1242812934
 21
7.4170275503
  0
LINE
  5
26C
100
AcDbEntity
  8
03__ASM_ALL_CURVES
100
AcDbLine
 62
4
  6
CONTINUOUS
 10
8.1024062934
 20
7.4553088003
 11
8.1096979583
 21
7.4498400503
  0
LINE
  5
26D
100
AcDbEntity
  8
03__ASM_ALL_CURVES
100
AcDbLine
 62
4
  6
CONTINUOUS
 10
8.1607396265
 20
7.4498400503
 11
8.1680312934
 21
7.4389025503
  0
LINE
  5
26E
100
AcDbEntity
  8
03__ASM_ALL_CURVES
100
AcDbLine
 62
4
  6
CONTINUOUS
 10
8.0878229583
 20
7.8545275503
 11
8.0805312934
 21
7.8654650503
  0
LINE
  5
26F
100
AcDbEntity
  8
03__ASM_ALL_CURVES
100
AcDbLine
 62
4
  6
CONTINUOUS
 10
8.1169896285
 20
7.8873400503
 11
8.131572961
 21
7.8654650503
  0
LINE
  5
270
100
AcDbEntity
  8
03__ASM_ALL_CURVES
100
AcDbLine
 62
4
  6
CONTINUOUS
 10
8.0878229583
 20
8.0295275503
 11
8.0805312934
 21
8.0404650503
  0
LINE
  5
271
100
AcDbEntity
  8
03__ASM_ALL_CURVES
100
AcDbLine
 62
4
  6
CONTINUOUS
 10
8.1242812934
 20
8.0295275503
 11
8.1169896285
 21
8.0404650503
  0
LINE
  5
272
100
AcDbEntity
  8
03__ASM_ALL_CURVES
100
AcDbLine
 62
4
  6
CONTINUOUS
 10
8.1242812934
 20
8.1498400503
 11
8.131572961
 21
8.1334338003
  0
LINE
  5
273
100
AcDbEntity
  8
03__ASM_ALL_CURVES
100
AcDbLine
 62
4
  6
CONTINUOUS
 10
8.131572961
 20
8.1334338003
 11
8.1242812934
 21
8.1170275503
  0
LINE
  5
274
100
AcDbEntity
  8
03__ASM_ALL_CURVES
100
AcDbLine
 62
4
  6
CONTINUOUS
 10
6.9846979583
 20
7.4990588003
 11
6.9701146285
 21
7.5045275503
  0
LINE
  5
275
100
AcDbEntity
  8
03__ASM_ALL_CURVES
100
AcDbLine
 62
4
  6
CONTINUOUS
 10
7.0138646259
 20
7.5428088003
 11
7.0284479597
 21
7.5373400503
  0
LINE
  5
276
100
AcDbEntity
  8
03__ASM_ALL_CURVES
100
AcDbLine
 62
4
  6
CONTINUOUS
 10
8.1461562934
 20
7.4607775503
 11
8.1607396265
 21
7.4498400503
  0
LINE
  5
277
100
AcDbEntity
  8
03__ASM_ALL_CURVES
100
AcDbLine
 62
4
  6
CONTINUOUS
 10
8.0805312934
 20
7.7014025503
 11
8.0951146285
 21
7.6904650503
  0
LINE
  5
278
100
AcDbEntity
  8
03__ASM_ALL_CURVES
100
AcDbLine
 62
4
  6
CONTINUOUS
 10
8.0951146285
 20
7.8490588003
 11
8.0878229583
 21
7.8545275503
  0
LINE
  5
279
100
AcDbEntity
  8
03__ASM_ALL_CURVES
100
AcDbLine
 62
4
  6
CONTINUOUS
 10
8.1096979583
 20
8.0623400503
 11
8.1169896285
 21
8.0514025503
  0
LINE
  5
27A
100
AcDbEntity
  8
03__ASM_ALL_CURVES
100
AcDbLine
 62
4
  6
CONTINUOUS
 10
8.0878229583
 20
8.1224963003
 11
8.0805312934
 21
8.1334338003
  0
LINE
  5
27B
100
AcDbEntity
  8
03__ASM_ALL_CURVES
100
AcDbLine
 62
4
  6
CONTINUOUS
 10
8.1607396265
 20
8.0623400503
 11
8.1680312934
 21
8.0514025503
  0
LINE
  5
27C
100
AcDbEntity
  8
03__ASM_ALL_CURVES
100
AcDbLine
 62
4
  6
CONTINUOUS
 10
8.1607396265
 20
8.1443713003
 11
8.1680312934
 21
8.1334338003
  0
LINE
  5
27D
100
AcDbEntity
  8
03__ASM_ALL_CURVES
100
AcDbLine
 62
4
  6
CONTINUOUS
 10
8.0805312934
 20
8.1334338003
 11
8.0878229583
 21
8.1443713003
  0
LINE
  5
27E
100
AcDbEntity
  8
03__ASM_ALL_CURVES
100
AcDbLine
 62
4
  6
CONTINUOUS
 10
8.0805312934
 20
8.0514025503
 11
8.0878229583
 21
8.0623400503
  0
LINE
  5
27F
100
AcDbEntity
  8
03__ASM_ALL_CURVES
100
AcDbLine
 62
4
  6
CONTINUOUS
 10
8.1680312934
 20
8.1334338003
 11
8.1607396265
 21
8.1224963003
  0
LINE
  5
280
100
AcDbEntity
  8
03__ASM_ALL_CURVES
100
AcDbLine
 62
4
  6
CONTINUOUS
 10
8.1169896285
 20
8.0514025503
 11
8.1242812934
 21
8.0623400503
  0
LINE
  5
281
100
AcDbEntity
  8
03__ASM_ALL_CURVES
100
AcDbLine
 62
4
  6
CONTINUOUS
 10
8.1169896285
 20
8.0404650503
 11
8.1096979583
 21
8.0295275503
  0
LINE
  5
282
100
AcDbEntity
  8
03__ASM_ALL_CURVES
100
AcDbLine
 62
4
  6
CONTINUOUS
 10
8.1680312934
 20
8.0404650503
 11
8.1607396265
 21
8.0295275503
  0
LINE
  5
283
100
AcDbEntity
  8
03__ASM_ALL_CURVES
100
AcDbLine
 62
4
  6
CONTINUOUS
 10
8.0805312934
 20
7.8764025503
 11
8.0878229583
 21
7.8873400503
  0
LINE
  5
284
100
AcDbEntity
  8
03__ASM_ALL_CURVES
100
AcDbLine
 62
4
  6
CONTINUOUS
 10
6.9555312934
 20
8.2154650503
 11
6.9701146285
 21
8.2264025503
  0
LINE
  5
285
100
AcDbEntity
  8
03__ASM_ALL_CURVES
100
AcDbLine
 62
4
  6
CONTINUOUS
 10
6.9628229583
 20
8.1443713003
 11
6.9701146285
 21
8.1498400503
  0
LINE
  5
286
100
AcDbEntity
  8
03__ASM_ALL_CURVES
100
AcDbLine
 62
4
  6
CONTINUOUS
 10
7.0357396265
 20
8.1224963003
 11
7.0284479597
 21
8.1170275503
  0
LINE
  5
287
100
AcDbEntity
  8
03__ASM_ALL_CURVES
100
AcDbLine
 62
4
  6
CONTINUOUS
 10
7.0320937931
 20
8.0596056753
 11
7.0430312934
 21
8.0678088003
  0
LINE
  5
288
100
AcDbEntity
  8
03__ASM_ALL_CURVES
100
AcDbLine
 62
4
  6
CONTINUOUS
 10
8.1461562934
 20
7.2420275503
 11
8.1680312934
 21
7.2365588003
  0
LINE
  5
289
100
AcDbEntity
  8
03__ASM_ALL_CURVES
100
AcDbLine
 62
4
  6
CONTINUOUS
 10
6.9846979583
 20
7.8490588003
 11
6.9701146285
 21
7.8545275503
  0
LINE
  5
28A
100
AcDbEntity
  8
03__ASM_ALL_CURVES
100
AcDbLine
 62
4
  6
CONTINUOUS
 10
7.0138646259
 20
7.8928088003
 11
7.0284479597
 21
7.8873400503
  0
LINE
  5
28B
100
AcDbEntity
  8
03__ASM_ALL_CURVES
100
AcDbLine
 62
4
  6
CONTINUOUS
 10
8.1096979583
 20
7.5318713003
 11
8.0805312934
 21
7.5428088003
  0
LINE
  5
28C
100
AcDbEntity
  8
03__ASM_ALL_CURVES
100
AcDbLine
 62
4
  6
CONTINUOUS
 10
8.131572961
 20
7.8654650503
 11
8.1461562934
 21
7.8545275503
  0
LINE
  5
28D
100
AcDbEntity
  8
03__ASM_ALL_CURVES
100
AcDbLine
 62
4
  6
CONTINUOUS
 10
8.1096979583
 20
7.8928088003
 11
8.1169896285
 21
7.8873400503
  0
LINE
  5
28E
100
AcDbEntity
  8
03__ASM_ALL_CURVES
100
AcDbLine
 62
4
  6
CONTINUOUS
 10
8.0951146285
 20
8.0240588003
 11
8.0878229583
 21
8.0295275503
  0
LINE
  5
28F
100
AcDbEntity
  8
03__ASM_ALL_CURVES
100
AcDbLine
 62
4
  6
CONTINUOUS
 10
8.1388646259
 20
8.0185900503
 11
8.1242812934
 21
8.0295275503
  0
LINE
  5
290
100
AcDbEntity
  8
03__ASM_ALL_CURVES
100
AcDbLine
 62
4
  6
CONTINUOUS
 10
8.1024062934
 20
8.0678088003
 11
8.1096979583
 21
8.0623400503
  0
LINE
  5
291
100
AcDbEntity
  8
03__ASM_ALL_CURVES
100
AcDbLine
 62
4
  6
CONTINUOUS
 10
8.1461562934
 20
8.0732775503
 11
8.1607396265
 21
8.0623400503
  0
LINE
  5
292
100
AcDbEntity
  8
03__ASM_ALL_CURVES
100
AcDbLine
 62
4
  6
CONTINUOUS
 10
8.0951146285
 20
8.1170275503
 11
8.0878229583
 21
8.1224963003
  0
LINE
  5
293
100
AcDbEntity
  8
03__ASM_ALL_CURVES
100
AcDbLine
 62
4
  6
CONTINUOUS
 10
8.1534479597
 20
8.1498400503
 11
8.1607396265
 21
8.1443713003
  0
LINE
  5
294
100
AcDbEntity
  8
03__ASM_ALL_CURVES
100
AcDbLine
 62
4
  6
CONTINUOUS
 10
8.0805312934
 20
7.4389025503
 11
8.0878229583
 21
7.4498400503
  0
LINE
  5
295
100
AcDbEntity
  8
03__ASM_ALL_CURVES
100
AcDbLine
 62
4
  6
CONTINUOUS
 10
8.1169896285
 20
7.4389025503
 11
8.1242812934
 21
7.4498400503
  0
LINE
  5
296
100
AcDbEntity
  8
03__ASM_ALL_CURVES
100
AcDbLine
 62
4
  6
CONTINUOUS
 10
8.1169896285
 20
7.4279650503
 11
8.1096979583
 21
7.4170275503
  0
LINE
  5
297
100
AcDbEntity
  8
03__ASM_ALL_CURVES
100
AcDbLine
 62
4
  6
CONTINUOUS
 10
6.9628229583
 20
7.8818713003
 11
6.9701146285
 21
7.8873400503
  0
LINE
  5
298
100
AcDbEntity
  8
03__ASM_ALL_CURVES
100
AcDbLine
 62
4
  6
CONTINUOUS
 10
7.0357396265
 20
7.8599963003
 11
7.0284479597
 21
7.8545275503
  0
LINE
  5
299
100
AcDbEntity
  8
03__ASM_ALL_CURVES
100
AcDbLine
 62
4
  6
CONTINUOUS
 10
7.0284479597
 20
7.6904650503
 11
7.0430312934
 21
7.7014025503
  0
LINE
  5
29A
100
AcDbEntity
  8
03__ASM_ALL_CURVES
100
AcDbLine
 62
4
  6
CONTINUOUS
 10
11.5516250434
 20
10.9886421353
 11
11.5625625434
 21
10.9959338003
  0
LINE
  5
29B
100
AcDbEntity
  8
03__ASM_ALL_CURVES
100
AcDbLine
 62
4
  6
CONTINUOUS
 10
11.5844375434
 20
10.9594754652
 11
11.5625625434
 21
10.9448921327
  0
LINE
  5
29C
100
AcDbEntity
  8
03__ASM_ALL_CURVES
100
AcDbLine
 62
4
  6
CONTINUOUS
 10
6.9701146285
 20
7.6904650503
 11
6.9919896285
 21
7.6849963003
  0
LINE
  5
29D
100
AcDbEntity
  8
03__ASM_ALL_CURVES
100
AcDbLine
 62
4
  6
CONTINUOUS
 10
8.131572961
 20
7.5264025503
 11
8.1096979583
 21
7.5318713003
  0
LINE
  5
29E
100
AcDbEntity
  8
03__ASM_ALL_CURVES
100
AcDbLine
 62
4
  6
CONTINUOUS
 10
6.9846979583
 20
8.1115588003
 11
6.9701146285
 21
8.1170275503
  0
LINE
  5
29F
100
AcDbEntity
  8
03__ASM_ALL_CURVES
100
AcDbLine
 62
4
  6
CONTINUOUS
 10
7.0138646259
 20
8.1115588003
 11
6.9992812934
 21
8.1170275503
  0
LINE
  5
2A0
100
AcDbEntity
  8
03__ASM_ALL_CURVES
100
AcDbLine
 62
4
  6
CONTINUOUS
 10
7.0138646259
 20
8.1553088003
 11
7.0284479597
 21
8.1498400503
  0
LINE
  5
2A1
100
AcDbEntity
  8
03__ASM_ALL_CURVES
100
AcDbLine
 62
4
  6
CONTINUOUS
 10
8.1096979583
 20
7.7943713003
 11
8.0805312934
 21
7.8053088003
  0
LINE
  5
2A2
100
AcDbEntity
  8
03__ASM_ALL_CURVES
100
AcDbLine
 62
4
  6
CONTINUOUS
 10
8.1534479597
 20
8.2264025503
 11
8.1680312934
 21
8.2154650503
  0
LINE
  5
2A3
100
AcDbEntity
  8
03__ASM_ALL_CURVES
100
AcDbLine
 62
4
  6
CONTINUOUS
 10
8.1680312934
 20
7.4279650503
 11
8.1607396265
 21
7.4170275503
  0
LINE
  5
2A4
100
AcDbEntity
  8
03__ASM_ALL_CURVES
100
AcDbLine
 62
4
  6
CONTINUOUS
 10
8.0805312934
 20
7.2639025503
 11
8.0878229583
 21
7.2748400503
  0
LINE
  5
2A5
100
AcDbEntity
  8
03__ASM_ALL_CURVES
100
AcDbLine
 62
4
  6
CONTINUOUS
 10
6.9628229583
 20
7.5318713003
 11
6.9701146285
 21
7.5373400503
  0
LINE
  5
2A6
100
AcDbEntity
  8
03__ASM_ALL_CURVES
100
AcDbLine
 62
4
  6
CONTINUOUS
 10
7.0357396265
 20
7.5099963003
 11
7.0284479597
 21
7.5045275503
  0
LINE
  5
2A7
100
AcDbEntity
  8
03__ASM_ALL_CURVES
100
AcDbLine
 62
4
  6
CONTINUOUS
 10
7.0320937931
 20
7.4471056753
 11
7.0430312934
 21
7.4553088003
  0
LINE
  5
2A8
100
AcDbEntity
  8
03__ASM_ALL_CURVES
100
AcDbLine
 62
4
  6
CONTINUOUS
 10
8.0805312934
 20
8.2154650503
 11
8.0951146285
 21
8.2264025503
  0
LINE
  5
2A9
100
AcDbEntity
  8
03__ASM_ALL_CURVES
100
AcDbLine
 62
4
  6
CONTINUOUS
 10
8.0878229583
 20
8.1443713003
 11
8.0951146285
 21
8.1498400503
  0
LINE
  5
2AA
100
AcDbEntity
  8
03__ASM_ALL_CURVES
100
AcDbLine
 62
4
  6
CONTINUOUS
 10
8.1607396265
 20
8.1224963003
 11
8.1534479597
 21
8.1170275503
  0
LINE
  5
2AB
100
AcDbEntity
  8
03__ASM_ALL_CURVES
100
AcDbLine
 62
4
  6
CONTINUOUS
 10
11.7266250434
 20
10.9886421353
 11
11.7375625434
 21
10.9959338003
  0
LINE
  5
2AC
100
AcDbEntity
  8
03__ASM_ALL_CURVES
100
AcDbLine
 62
4
  6
CONTINUOUS
 10
11.7594375434
 20
10.9594754652
 11
11.7375625434
 21
10.9448921327
  0
LINE
  5
2AD
100
AcDbEntity
  8
03__ASM_ALL_CURVES
100
AcDbLine
 62
4
  6
CONTINUOUS
 10
11.8141250434
 20
10.9594754652
 11
11.8250625434
 21
10.9667671353
  0
LINE
  5
2AE
100
AcDbEntity
  8
03__ASM_ALL_CURVES
100
AcDbLine
 62
4
  6
CONTINUOUS
 10
11.8469375434
 20
10.9157254672
 11
11.8360000434
 21
10.9084338003
  0
LINE
  5
2AF
100
AcDbEntity
  8
03__ASM_ALL_CURVES
100
AcDbLine
 62
4
  6
CONTINUOUS
 10
12.0766250434
 20
10.9594754652
 11
12.0875625434
 21
10.9667671353
  0
LINE
  5
2B0
100
AcDbEntity
  8
03__ASM_ALL_CURVES
100
AcDbLine
 62
4
  6
CONTINUOUS
 10
12.1094375434
 20
10.9157254672
 11
12.0985000434
 21
10.9084338003
  0
LINE
  5
2B1
100
AcDbEntity
  8
03__ASM_ALL_CURVES
100
AcDbLine
 62
4
  6
CONTINUOUS
 10
8.0951146285
 20
7.2803088003
 11
8.1096979583
 21
7.2803088003
  0
LINE
  5
2B2
100
AcDbEntity
  8
03__ASM_ALL_CURVES
100
AcDbLine
 62
4
  6
CONTINUOUS
 10
8.1680312934
 20
7.3596056753
 11
8.1570937931
 21
7.3596056753
  0
LINE
  5
2B3
100
AcDbEntity
  8
03__ASM_ALL_CURVES
100
AcDbLine
 62
4
  6
CONTINUOUS
 10
7.0430312934
 20
7.3623400503
 11
6.9555312934
 21
7.3623400503
  0
LINE
  5
2B4
100
AcDbEntity
  8
03__ASM_ALL_CURVES
100
AcDbLine
 62
4
  6
CONTINUOUS
 10
8.1680312934
 20
7.5209338003
 11
8.131572961
 21
7.5264025503
  0
LINE
  5
2B5
100
AcDbEntity
  8
03__ASM_ALL_CURVES
100
AcDbLine
 62
4
  6
CONTINUOUS
 10
8.0951146285
 20
7.6904650503
 11
8.1169896285
 21
7.6849963003
  0
LINE
  5
2B6
100
AcDbEntity
  8
03__ASM_ALL_CURVES
100
AcDbLine
 62
4
  6
CONTINUOUS
 10
8.131572961
 20
7.7889025503
 11
8.1096979583
 21
7.7943713003
  0
LINE
  5
2B7
100
AcDbEntity
  8
03__ASM_ALL_CURVES
100
AcDbLine
 62
4
  6
CONTINUOUS
 10
8.1461562934
 20
7.8545275503
 11
8.1680312934
 21
7.8490588003
  0
LINE
  5
2B8
100
AcDbEntity
  8
03__ASM_ALL_CURVES
100
AcDbLine
 62
4
  6
CONTINUOUS
 10
7.006572961
 20
8.2318713003
 11
7.0284479597
 21
8.2264025503
  0
LINE
  5
2B9
100
AcDbEntity
  8
03__ASM_ALL_CURVES
100
AcDbLine
 62
4
  6
CONTINUOUS
 10
8.1096979583
 20
8.1115588003
 11
8.0951146285
 21
8.1170275503
  0
LINE
  5
2BA
100
AcDbEntity
  8
03__ASM_ALL_CURVES
100
AcDbLine
 62
4
  6
CONTINUOUS
 10
8.1096979583
 20
8.1553088003
 11
8.1242812934
 21
8.1498400503
  0
LINE
  5
2BB
100
AcDbEntity
  8
03__ASM_ALL_CURVES
100
AcDbLine
 62
4
  6
CONTINUOUS
 10
8.1388646259
 20
8.1553088003
 11
8.1534479597
 21
8.1498400503
  0
LINE
  5
2BC
100
AcDbEntity
  8
03__ASM_ALL_CURVES
100
AcDbLine
 62
4
  6
CONTINUOUS
 10
8.0878229583
 20
8.0623400503
 11
8.0951146285
 21
8.0678088003
  0
LINE
  5
2BD
100
AcDbEntity
  8
03__ASM_ALL_CURVES
100
AcDbLine
 62
4
  6
CONTINUOUS
 10
8.1242812934
 20
8.0623400503
 11
8.1388646259
 21
8.0732775503
  0
LINE
  5
2BE
100
AcDbEntity
  8
03__ASM_ALL_CURVES
100
AcDbLine
 62
4
  6
CONTINUOUS
 10
8.1096979583
 20
8.0295275503
 11
8.1024062934
 21
8.0240588003
  0
LINE
  5
2BF
100
AcDbEntity
  8
03__ASM_ALL_CURVES
100
AcDbLine
 62
4
  6
CONTINUOUS
 10
8.1607396265
 20
8.0295275503
 11
8.1461562934
 21
8.0185900503
  0
LINE
  5
2C0
100
AcDbEntity
  8
03__ASM_ALL_CURVES
100
AcDbLine
 62
4
  6
CONTINUOUS
 10
8.1570937931
 20
7.9721056753
 11
8.1680312934
 21
7.9803088003
  0
LINE
  5
2C1
100
AcDbEntity
  8
03__ASM_ALL_CURVES
100
AcDbLine
 62
4
  6
CONTINUOUS
 10
8.0878229583
 20
7.8873400503
 11
8.0951146285
 21
7.8928088003
  0
LINE
  5
2C2
100
AcDbEntity
  8
03__ASM_ALL_CURVES
100
AcDbLine
 62
4
  6
CONTINUOUS
 10
12.4266250434
 20
10.9594754652
 11
12.4375625434
 21
10.9667671353
  0
LINE
  5
2C3
100
AcDbEntity
  8
03__ASM_ALL_CURVES
100
AcDbLine
 62
4
  6
CONTINUOUS
 10
12.4594375434
 20
10.9157254672
 11
12.4485000434
 21
10.9084338003
  0
LINE
  5
2C4
100
AcDbEntity
  8
03__ASM_ALL_CURVES
100
AcDbLine
 62
4
  6
CONTINUOUS
 10
6.9992812934
 20
8.1498400503
 11
7.0138646259
 21
8.1553088003
  0
LINE
  5
2C5
100
AcDbEntity
  8
03__ASM_ALL_CURVES
100
AcDbLine
 62
4
  6
CONTINUOUS
 10
7.0284479597
 20
8.1170275503
 11
7.0138646259
 21
8.1115588003
  0
LINE
  5
2C6
100
AcDbEntity
  8
03__ASM_ALL_CURVES
100
AcDbLine
 62
4
  6
CONTINUOUS
 10
8.1461562934
 20
7.4060900503
 11
8.1388646259
 21
7.4060900503
  0
LINE
  5
2C7
100
AcDbEntity
  8
03__ASM_ALL_CURVES
100
AcDbLine
 62
4
  6
CONTINUOUS
 10
8.1024062934
 20
7.4115588003
 11
8.0951146285
 21
7.4115588003
  0
LINE
  5
2C8
100
AcDbEntity
  8
03__ASM_ALL_CURVES
100
AcDbLine
 62
4
  6
CONTINUOUS
 10
7.0430312934
 20
7.4471056753
 11
7.0320937931
 21
7.4471056753
  0
LINE
  5
2C9
100
AcDbEntity
  8
03__ASM_ALL_CURVES
100
AcDbLine
 62
4
  6
CONTINUOUS
 10
8.0951146285
 20
7.4553088003
 11
8.1024062934
 21
7.4553088003
  0
LINE
  5
2CA
100
AcDbEntity
  8
03__ASM_ALL_CURVES
100
AcDbLine
 62
4
  6
CONTINUOUS
 10
8.1388646259
 20
7.4607775503
 11
8.1461562934
 21
7.4607775503
  0
LINE
  5
2CB
100
AcDbEntity
  8
03__ASM_ALL_CURVES
100
AcDbLine
 62
4
  6
CONTINUOUS
 10
7.0138646259
 20
7.4990588003
 11
6.9846979583
 21
7.4990588003
  0
LINE
  5
2CC
100
AcDbEntity
  8
03__ASM_ALL_CURVES
100
AcDbLine
 62
4
  6
CONTINUOUS
 10
6.9846979583
 20
7.5428088003
 11
7.0138646259
 21
7.5428088003
  0
LINE
  5
2CD
100
AcDbEntity
  8
03__ASM_ALL_CURVES
100
AcDbLine
 62
4
  6
CONTINUOUS
 10
8.1680312934
 20
7.7834338003
 11
8.131572961
 21
7.7889025503
  0
LINE
  5
2CE
100
AcDbEntity
  8
03__ASM_ALL_CURVES
100
AcDbLine
 62
4
  6
CONTINUOUS
 10
8.131572961
 20
8.2318713003
 11
8.1534479597
 21
8.2264025503
  0
LINE
  5
2CF
100
AcDbEntity
  8
03__ASM_ALL_CURVES
100
AcDbLine
 62
4
  6
CONTINUOUS
 10
11.5461562934
 20
10.9813504652
 11
11.5516250434
 21
10.9886421353
  0
LINE
  5
2D0
100
AcDbEntity
  8
03__ASM_ALL_CURVES
100
AcDbLine
 62
4
  6
CONTINUOUS
 10
11.5625625434
 20
10.9448921327
 11
11.5516250434
 21
10.9303088003
  0
LINE
  5
2D1
100
AcDbEntity
  8
03__ASM_ALL_CURVES
100
AcDbLine
 62
4
  6
CONTINUOUS
 10
11.5899062934
 20
10.9667671353
 11
11.5844375434
 21
10.9594754652
  0
LINE
  5
2D2
100
AcDbEntity
  8
03__ASM_ALL_CURVES
100
AcDbLine
 62
4
  6
CONTINUOUS
 10
11.7211562934
 20
10.9813504652
 11
11.7266250434
 21
10.9886421353
  0
LINE
  5
2D3
100
AcDbEntity
  8
03__ASM_ALL_CURVES
100
AcDbLine
 62
4
  6
CONTINUOUS
 10
8.1534479597
 20
7.6904650503
 11
8.1680312934
 21
7.7014025503
  0
LINE
  5
2D4
100
AcDbEntity
  8
03__ASM_ALL_CURVES
100
AcDbLine
 62
4
  6
CONTINUOUS
 10
8.0878229583
 20
7.4498400503
 11
8.0951146285
 21
7.4553088003
  0
LINE
  5
2D5
100
AcDbEntity
  8
03__ASM_ALL_CURVES
100
AcDbLine
 62
4
  6
CONTINUOUS
 10
8.1242812934
 20
7.4498400503
 11
8.1388646259
 21
7.4607775503
  0
LINE
  5
2D6
100
AcDbEntity
  8
03__ASM_ALL_CURVES
100
AcDbLine
 62
4
  6
CONTINUOUS
 10
8.1096979583
 20
7.4170275503
 11
8.1024062934
 21
7.4115588003
  0
LINE
  5
2D7
100
AcDbEntity
  8
03__ASM_ALL_CURVES
100
AcDbLine
 62
4
  6
CONTINUOUS
 10
8.1607396265
 20
7.4170275503
 11
8.1461562934
 21
7.4060900503
  0
LINE
  5
2D8
100
AcDbEntity
  8
03__ASM_ALL_CURVES
100
AcDbLine
 62
4
  6
CONTINUOUS
 10
6.9701146285
 20
7.8873400503
 11
6.9846979583
 21
7.8928088003
  0
LINE
  5
2D9
100
AcDbEntity
  8
03__ASM_ALL_CURVES
100
AcDbLine
 62
4
  6
CONTINUOUS
 10
7.0284479597
 20
7.8545275503
 11
7.0138646259
 21
7.8490588003
  0
LINE
  5
2DA
100
AcDbEntity
  8
03__ASM_ALL_CURVES
100
AcDbLine
 62
4
  6
CONTINUOUS
 10
6.9919896285
 20
7.6849963003
 11
7.006572961
 21
7.6849963003
  0
LINE
  5
2DB
100
AcDbEntity
  8
03__ASM_ALL_CURVES
100
AcDbLine
 62
4
  6
CONTINUOUS
 10
8.1169896285
 20
7.6849963003
 11
8.131572961
 21
7.6849963003
  0
LINE
  5
2DC
100
AcDbEntity
  8
03__ASM_ALL_CURVES
100
AcDbLine
 62
4
  6
CONTINUOUS
 10
6.9555312934
 20
7.7834338003
 11
7.0430312934
 21
7.7834338003
  0
LINE
  5
2DD
100
AcDbEntity
  8
03__ASM_ALL_CURVES
100
AcDbLine
 62
4
  6
CONTINUOUS
 10
7.0138646259
 20
7.8490588003
 11
6.9846979583
 21
7.8490588003
  0
LINE
  5
2DE
100
AcDbEntity
  8
03__ASM_ALL_CURVES
100
AcDbLine
 62
4
  6
CONTINUOUS
 10
6.9846979583
 20
7.8928088003
 11
7.0138646259
 21
7.8928088003
  0
LINE
  5
2DF
100
AcDbEntity
  8
03__ASM_ALL_CURVES
100
AcDbLine
 62
4
  6
CONTINUOUS
 10
8.0951146285
 20
7.8928088003
 11
8.1096979583
 21
7.8928088003
  0
LINE
  5
2E0
100
AcDbEntity
  8
03__ASM_ALL_CURVES
100
AcDbLine
 62
4
  6
CONTINUOUS
 10
6.9555312934
 20
7.9584338003
 11
7.0430312934
 21
7.9584338003
  0
LINE
  5
2E1
100
AcDbEntity
  8
03__ASM_ALL_CURVES
100
AcDbLine
 62
4
  6
CONTINUOUS
 10
11.7375625434
 20
10.9448921327
 11
11.7266250434
 21
10.9303088003
  0
LINE
  5
2E2
100
AcDbEntity
  8
03__ASM_ALL_CURVES
100
AcDbLine
 62
4
  6
CONTINUOUS
 10
11.7649062934
 20
10.9667671353
 11
11.7594375434
 21
10.9594754652
  0
LINE
  5
2E3
100
AcDbEntity
  8
03__ASM_ALL_CURVES
100
AcDbLine
 62
4
  6
CONTINUOUS
 10
11.8524062934
 20
10.923017134
 11
11.8469375434
 21
10.9157254672
  0
LINE
  5
2E4
100
AcDbEntity
  8
03__ASM_ALL_CURVES
100
AcDbLine
 62
4
  6
CONTINUOUS
 10
12.0110000434
 20
10.9959338003
 11
12.0000625434
 21
10.9813504652
  0
LINE
  5
2E5
100
AcDbEntity
  8
03__ASM_ALL_CURVES
100
AcDbLine
 62
4
  6
CONTINUOUS
 10
8.1570937931
 20
7.3596056753
 11
8.1680312934
 21
7.3678088003
  0
LINE
  5
2E6
100
AcDbEntity
  8
03__ASM_ALL_CURVES
100
AcDbLine
 62
4
  6
CONTINUOUS
 10
8.0878229583
 20
7.2748400503
 11
8.0951146285
 21
7.2803088003
  0
LINE
  5
2E7
100
AcDbEntity
  8
03__ASM_ALL_CURVES
100
AcDbLine
 62
4
  6
CONTINUOUS
 10
11.8141250434
 20
9.8636421353
 11
11.8250625434
 21
9.8709338003
  0
LINE
  5
2E8
100
AcDbEntity
  8
03__ASM_ALL_CURVES
100
AcDbLine
 62
4
  6
CONTINUOUS
 10
11.8469375434
 20
9.8344754652
 11
11.8250625434
 21
9.8198921327
  0
LINE
  5
2E9
100
AcDbEntity
  8
03__ASM_ALL_CURVES
100
AcDbLine
 62
4
  6
CONTINUOUS
 10
12.0766250434
 20
9.8636421353
 11
12.0875625434
 21
9.8709338003
  0
LINE
  5
2EA
100
AcDbEntity
  8
03__ASM_ALL_CURVES
100
AcDbLine
 62
4
  6
CONTINUOUS
 10
8.0951146285
 20
8.1498400503
 11
8.1096979583
 21
8.1553088003
  0
LINE
  5
2EB
100
AcDbEntity
  8
03__ASM_ALL_CURVES
100
AcDbLine
 62
4
  6
CONTINUOUS
 10
8.1242812934
 20
8.1170275503
 11
8.1096979583
 21
8.1115588003
  0
LINE
  5
2EC
100
AcDbEntity
  8
03__ASM_ALL_CURVES
100
AcDbLine
 62
4
  6
CONTINUOUS
 10
6.9701146285
 20
7.5373400503
 11
6.9846979583
 21
7.5428088003
  0
LINE
  5
2ED
100
AcDbEntity
  8
03__ASM_ALL_CURVES
100
AcDbLine
 62
4
  6
CONTINUOUS
 10
7.0284479597
 20
7.5045275503
 11
7.0138646259
 21
7.4990588003
  0
LINE
  5
2EE
100
AcDbEntity
  8
03__ASM_ALL_CURVES
100
AcDbLine
 62
4
  6
CONTINUOUS
 10
8.1680312934
 20
7.9721056753
 11
8.1570937931
 21
7.9721056753
  0
LINE
  5
2EF
100
AcDbEntity
  8
03__ASM_ALL_CURVES
100
AcDbLine
 62
4
  6
CONTINUOUS
 10
8.1461562934
 20
8.0185900503
 11
8.1388646259
 21
8.0185900503
  0
LINE
  5
2F0
100
AcDbEntity
  8
03__ASM_ALL_CURVES
100
AcDbLine
 62
4
  6
CONTINUOUS
 10
8.1024062934
 20
8.0240588003
 11
8.0951146285
 21
8.0240588003
  0
LINE
  5
2F1
100
AcDbEntity
  8
03__ASM_ALL_CURVES
100
AcDbLine
 62
4
  6
CONTINUOUS
 10
7.0430312934
 20
8.0596056753
 11
7.0320937931
 21
8.0596056753
  0
LINE
  5
2F2
100
AcDbEntity
  8
03__ASM_ALL_CURVES
100
AcDbLine
 62
4
  6
CONTINUOUS
 10
8.0951146285
 20
8.0678088003
 11
8.1024062934
 21
8.0678088003
  0
LINE
  5
2F3
100
AcDbEntity
  8
03__ASM_ALL_CURVES
100
AcDbLine
 62
4
  6
CONTINUOUS
 10
8.1388646259
 20
8.0732775503
 11
8.1461562934
 21
8.0732775503
  0
LINE
  5
2F4
100
AcDbEntity
  8
03__ASM_ALL_CURVES
100
AcDbLine
 62
4
  6
CONTINUOUS
 10
11.0138646259
 20
8.1115588003
 11
10.9846979583
 21
8.1115588003
  0
LINE
  5
2F5
100
AcDbEntity
  8
03__ASM_ALL_CURVES
100
AcDbLine
 62
4
  6
CONTINUOUS
 10
7.0138646259
 20
8.1115588003
 11
6.9846979583
 21
8.1115588003
  0
LINE
  5
2F6
100
AcDbEntity
  8
03__ASM_ALL_CURVES
100
AcDbLine
 62
4
  6
CONTINUOUS
 10
8.1096979583
 20
8.1553088003
 11
8.1388646259
 21
8.1553088003
  0
LINE
  5
2F7
100
AcDbEntity
  8
03__ASM_ALL_CURVES
100
AcDbLine
 62
4
  6
CONTINUOUS
 10
10.9846979583
 20
8.1553088003
 11
11.0138646259
 21
8.1553088003
  0
LINE
  5
2F8
100
AcDbEntity
  8
03__ASM_ALL_CURVES
100
AcDbLine
 62
4
  6
CONTINUOUS
 10
6.9919896285
 20
8.2318713003
 11
7.006572961
 21
8.2318713003
  0
LINE
  5
2F9
100
AcDbEntity
  8
03__ASM_ALL_CURVES
100
AcDbLine
 62
4
  6
CONTINUOUS
 10
8.1169896285
 20
8.2318713003
 11
8.131572961
 21
8.2318713003
  0
LINE
  5
2FA
100
AcDbEntity
  8
03__ASM_ALL_CURVES
100
AcDbLine
 62
4
  6
CONTINUOUS
 10
12.1149062934
 20
10.923017134
 11
12.1094375434
 21
10.9157254672
  0
LINE
  5
2FB
100
AcDbEntity
  8
03__ASM_ALL_CURVES
100
AcDbLine
 62
4
  6
CONTINUOUS
 10
12.1094375434
 20
9.8344754652
 11
12.0875625434
 21
9.8198921327
  0
LINE
  5
2FC
100
AcDbEntity
  8
03__ASM_ALL_CURVES
100
AcDbLine
 62
4
  6
CONTINUOUS
 10
12.1641250434
 20
9.8636421353
 11
12.1750625434
 21
9.8709338003
  0
LINE
  5
2FD
100
AcDbEntity
  8
03__ASM_ALL_CURVES
100
AcDbLine
 62
4
  6
CONTINUOUS
 10
12.1641250434
 20
9.8271838003
 11
12.1750625434
 21
9.8344754652
  0
LINE
  5
2FE
100
AcDbEntity
  8
03__ASM_ALL_CURVES
100
AcDbLine
 62
4
  6
CONTINUOUS
 10
12.1969375434
 20
9.8417671353
 11
12.1860000434
 21
9.8344754652
  0
LINE
  5
2FF
100
AcDbEntity
  8
03__ASM_ALL_CURVES
100
AcDbLine
 62
4
  6
CONTINUOUS
 10
12.1969375434
 20
9.7907254672
 11
12.1860000434
 21
9.7834338003
  0
LINE
  5
300
100
AcDbEntity
  8
03__ASM_ALL_CURVES
100
AcDbLine
 62
4
  6
CONTINUOUS
 10
8.131572961
 20
7.6849963003
 11
8.1534479597
 21
7.6904650503
  0
LINE
  5
301
100
AcDbEntity
  8
03__ASM_ALL_CURVES
100
AcDbLine
 62
4
  6
CONTINUOUS
 10
10.9846979583
 20
8.1115588003
 11
10.9701146285
 21
8.1170275503
  0
LINE
  5
302
100
AcDbEntity
  8
03__ASM_ALL_CURVES
100
AcDbLine
 62
4
  6
CONTINUOUS
 10
11.0138646259
 20
8.1553088003
 11
11.0284479597
 21
8.1498400503
  0
LINE
  5
303
100
AcDbEntity
  8
03__ASM_ALL_CURVES
100
AcDbLine
 62
4
  6
CONTINUOUS
 10
10.9701146285
 20
8.1170275503
 11
10.9628229583
 21
8.1224963003
  0
LINE
  5
304
100
AcDbEntity
  8
03__ASM_ALL_CURVES
100
AcDbLine
 62
4
  6
CONTINUOUS
 10
11.0284479597
 20
8.1498400503
 11
11.0357396265
 21
8.1443713003
  0
LINE
  5
305
100
AcDbEntity
  8
03__ASM_ALL_CURVES
100
AcDbLine
 62
4
  6
CONTINUOUS
 10
11.8578750434
 20
10.9376004678
 11
11.8524062934
 21
10.923017134
  0
LINE
  5
306
100
AcDbEntity
  8
03__ASM_ALL_CURVES
100
AcDbLine
 62
4
  6
CONTINUOUS
 10
12.4649062934
 20
10.923017134
 11
12.4594375434
 21
10.9157254672
  0
LINE
  5
307
100
AcDbEntity
  8
03__ASM_ALL_CURVES
100
AcDbLine
 62
4
  6
CONTINUOUS
 10
12.5360000434
 20
10.923017134
 11
12.5250625434
 21
10.9084338003
  0
LINE
  5
308
100
AcDbEntity
  8
03__ASM_ALL_CURVES
100
AcDbLine
 62
4
  6
CONTINUOUS
 10
11.8086562934
 20
9.8563504652
 11
11.8141250434
 21
9.8636421353
  0
LINE
  5
309
100
AcDbEntity
  8
03__ASM_ALL_CURVES
100
AcDbLine
 62
4
  6
CONTINUOUS
 10
11.8250625434
 20
9.8198921327
 11
11.8141250434
 21
9.8053088003
  0
LINE
  5
30A
100
AcDbEntity
  8
03__ASM_ALL_CURVES
100
AcDbLine
 62
4
  6
CONTINUOUS
 10
11.8524062934
 20
9.8417671353
 11
11.8469375434
 21
9.8344754652
  0
LINE
  5
30B
100
AcDbEntity
  8
03__ASM_ALL_CURVES
100
AcDbLine
 62
4
  6
CONTINUOUS
 10
12.0110000434
 20
9.8709338003
 11
12.0000625434
 21
9.8563504652
  0
LINE
  5
30C
100
AcDbEntity
  8
03__ASM_ALL_CURVES
100
AcDbLine
 62
4
  6
CONTINUOUS
 10
7.006572961
 20
7.6849963003
 11
7.0284479597
 21
7.6904650503
  0
LINE
  5
30D
100
AcDbEntity
  8
03__ASM_ALL_CURVES
100
AcDbLine
 62
4
  6
CONTINUOUS
 10
8.0951146285
 20
8.2264025503
 11
8.1169896285
 21
8.2318713003
  0
LINE
  5
30E
100
AcDbEntity
  8
0
100
AcDbLine
 62
7
  6
CONTINUOUS
 10
6.9992812934
 20
8.7021838003
 11
10.9992812934
 21
8.7021838003
  0
LINE
  5
30F
100
AcDbEntity
  8
03__ASM_ALL_CURVES
100
AcDbLine
 62
4
  6
CONTINUOUS
 10
11.0867812934
 20
8.7021838003
 11
11.3492812934
 21
8.7021838003
  0
LINE
  5
310
100
AcDbEntity
  8
03__ASM_ALL_CURVES
100
AcDbLine
 62
4
  6
CONTINUOUS
 10
10.9628229583
 20
8.1224963003
 11
10.9555312934
 21
8.1334338003
  0
LINE
  5
311
100
AcDbEntity
  8
03__ASM_ALL_CURVES
100
AcDbLine
 62
4
  6
CONTINUOUS
 10
11.0357396265
 20
8.1443713003
 11
11.0430312934
 21
8.1334338003
  0
LINE
  5
312
100
AcDbEntity
  8
03__ASM_ALL_CURVES
100
AcDbLine
 62
4
  6
CONTINUOUS
 10
10.9992812934
 20
8.6146838003
 11
10.9992812934
 21
8.3521838003
  0
LINE
  5
313
100
AcDbEntity
  8
0
100
AcDbLine
 62
7
  6
CONTINUOUS
 10
10.9992812934
 20
8.7021838003
 11
10.9992812934
 21
10.9521838003
  0
LINE
  5
314
100
AcDbEntity
  8
03__ASM_ALL_CURVES
100
AcDbLine
 62
4
  6
CONTINUOUS
 10
11.5516250434
 20
10.9303088003
 11
11.5461562934
 21
10.9084338003
  0
LINE
  5
315
100
AcDbEntity
  8
03__ASM_ALL_CURVES
100
AcDbLine
 62
4
  6
CONTINUOUS
 10
11.7266250434
 20
10.9303088003
 11
11.7211562934
 21
10.9084338003
  0
LINE
  5
316
100
AcDbEntity
  8
03__ASM_ALL_CURVES
100
AcDbLine
 62
4
  6
CONTINUOUS
 10
12.1203750434
 20
10.9376004678
 11
12.1149062934
 21
10.923017134
  0
LINE
  5
317
100
AcDbEntity
  8
03__ASM_ALL_CURVES
100
AcDbLine
 62
4
  6
CONTINUOUS
 10
10.9555312934
 20
8.1334338003
 11
10.9628229583
 21
8.1443713003
  0
LINE
  5
318
100
AcDbEntity
  8
03__ASM_ALL_CURVES
100
AcDbLine
 62
4
  6
CONTINUOUS
 10
11.0430312934
 20
8.1334338003
 11
11.0357396265
 21
8.1224963003
  0
LINE
  5
319
100
AcDbEntity
  8
03__ASM_ALL_CURVES
100
AcDbLine
 62
4
  6
CONTINUOUS
 10
12.0711562934
 20
9.8563504652
 11
12.0766250434
 21
9.8636421353
  0
LINE
  5
31A
100
AcDbEntity
  8
03__ASM_ALL_CURVES
100
AcDbLine
 62
4
  6
CONTINUOUS
 10
12.0875625434
 20
9.8198921327
 11
12.0766250434
 21
9.8053088003
  0
LINE
  5
31B
100
AcDbEntity
  8
03__ASM_ALL_CURVES
100
AcDbLine
 62
4
  6
CONTINUOUS
 10
12.1149062934
 20
9.8417671353
 11
12.1094375434
 21
9.8344754652
  0
LINE
  5
31C
100
AcDbEntity
  8
03__ASM_ALL_CURVES
100
AcDbLine
 62
4
  6
CONTINUOUS
 10
12.1586562934
 20
9.8563504652
 11
12.1641250434
 21
9.8636421353
  0
LINE
  5
31D
100
AcDbEntity
  8
03__ASM_ALL_CURVES
100
AcDbLine
 62
4
  6
CONTINUOUS
 10
12.1531875434
 20
9.8126004678
 11
12.1641250434
 21
9.8271838003
  0
LINE
  5
31E
100
AcDbEntity
  8
03__ASM_ALL_CURVES
100
AcDbLine
 62
4
  6
CONTINUOUS
 10
12.2024062934
 20
9.8490588003
 11
12.1969375434
 21
9.8417671353
  0
LINE
  5
31F
100
AcDbEntity
  8
03__ASM_ALL_CURVES
100
AcDbLine
 62
4
  6
CONTINUOUS
 10
12.2078750434
 20
9.8053088003
 11
12.1969375434
 21
9.7907254672
  0
LINE
  5
320
100
AcDbEntity
  8
03__ASM_ALL_CURVES
100
AcDbLine
 62
4
  6
CONTINUOUS
 10
10.9628229583
 20
8.1443713003
 11
10.9701146285
 21
8.1498400503
  0
LINE
  5
321
100
AcDbEntity
  8
03__ASM_ALL_CURVES
100
AcDbLine
 62
4
  6
CONTINUOUS
 10
11.0357396265
 20
8.1224963003
 11
11.0284479597
 21
8.1170275503
  0
LINE
  5
322
100
AcDbEntity
  8
03__ASM_ALL_CURVES
100
AcDbLine
 62
4
  6
CONTINUOUS
 10
11.5570937934
 20
8.7386421353
 11
11.5680312934
 21
8.7459338003
  0
LINE
  5
323
100
AcDbEntity
  8
03__ASM_ALL_CURVES
100
AcDbLine
 62
4
  6
CONTINUOUS
 10
11.5789687934
 20
8.6657254672
 11
11.5680312934
 21
8.6584338003
  0
LINE
  5
324
100
AcDbEntity
  8
03__ASM_ALL_CURVES
100
AcDbLine
 62
4
  6
CONTINUOUS
 10
10.9701146285
 20
8.1498400503
 11
10.9846979583
 21
8.1553088003
  0
LINE
  5
325
100
AcDbEntity
  8
03__ASM_ALL_CURVES
100
AcDbLine
 62
4
  6
CONTINUOUS
 10
11.0284479597
 20
8.1170275503
 11
11.0138646259
 21
8.1115588003
  0
LINE
  5
326
100
AcDbEntity
  8
03__ASM_ALL_CURVES
100
AcDbLine
 62
4
  6
CONTINUOUS
 10
6.9701146285
 20
8.2264025503
 11
6.9919896285
 21
8.2318713003
  0
LINE
  5
327
100
AcDbEntity
  8
03__ASM_ALL_CURVES
100
AcDbLine
 62
4
  6
CONTINUOUS
 10
11.8195937934
 20
10.9959338003
 11
11.8141250434
 21
10.9594754652
  0
LINE
  5
328
100
AcDbEntity
  8
03__ASM_ALL_CURVES
100
AcDbLine
 62
4
  6
CONTINUOUS
 10
12.0000625434
 20
10.9813504652
 11
11.9945937934
 21
10.9594754652
  0
LINE
  5
329
100
AcDbEntity
  8
03__ASM_ALL_CURVES
100
AcDbLine
 62
4
  6
CONTINUOUS
 10
11.8141250434
 20
9.8053088003
 11
11.8086562934
 21
9.7834338003
  0
LINE
  5
32A
100
AcDbEntity
  8
03__ASM_ALL_CURVES
100
AcDbLine
 62
4
  6
CONTINUOUS
 10
12.1914687934
 20
10.9667671353
 11
12.2024062934
 21
10.9959338003
  0
LINE
  5
32B
100
AcDbEntity
  8
03__ASM_ALL_CURVES
100
AcDbLine
 62
4
  6
CONTINUOUS
 10
11.5461562934
 20
8.7167671353
 11
11.5516250434
 21
8.7313504652
  0
LINE
  5
32C
100
AcDbEntity
  8
03__ASM_ALL_CURVES
100
AcDbLine
 62
4
  6
CONTINUOUS
 10
11.5899062934
 20
8.6876004678
 11
11.5844375434
 21
8.673017134
  0
LINE
  5
32D
100
AcDbEntity
  8
03__ASM_ALL_CURVES
100
AcDbLine
 62
4
  6
CONTINUOUS
 10
12.4703750434
 20
10.9376004678
 11
12.4649062934
 21
10.923017134
  0
LINE
  5
32E
100
AcDbEntity
  8
03__ASM_ALL_CURVES
100
AcDbLine
 62
4
  6
CONTINUOUS
 10
12.3719375434
 20
9.8709338003
 11
12.3336562934
 21
9.8053088003
  0
LINE
  5
32F
100
AcDbEntity
  8
03__ASM_ALL_CURVES
100
AcDbLine
 62
4
  6
CONTINUOUS
 10
11.5516250434
 20
8.7313504652
 11
11.5570937934
 21
8.7386421353
  0
LINE
  5
330
100
AcDbEntity
  8
03__ASM_ALL_CURVES
100
AcDbLine
 62
4
  6
CONTINUOUS
 10
11.5844375434
 20
8.673017134
 11
11.5789687934
 21
8.6657254672
  0
LINE
  5
331
100
AcDbEntity
  8
03__ASM_ALL_CURVES
100
AcDbLine
 62
4
  6
CONTINUOUS
 10
12.5360000434
 20
9.798017134
 11
12.5250625434
 21
9.7834338003
  0
LINE
  5
332
100
AcDbEntity
  8
03__ASM_ALL_CURVES
100
AcDbLine
 62
4
  6
CONTINUOUS
 10
11.5680312934
 20
8.6584338003
 11
11.5570937934
 21
8.6657254672
  0
LINE
  5
333
100
AcDbEntity
  8
03__ASM_ALL_CURVES
100
AcDbLine
 62
4
  6
CONTINUOUS
 10
11.5680312934
 20
8.7459338003
 11
11.5789687934
 21
8.7386421353
  0
LINE
  5
334
100
AcDbEntity
  8
03__ASM_ALL_CURVES
100
AcDbLine
 62
4
  6
CONTINUOUS
 10
11.5570937934
 20
8.6657254672
 11
11.5516250434
 21
8.673017134
  0
LINE
  5
335
100
AcDbEntity
  8
03__ASM_ALL_CURVES
100
AcDbLine
 62
4
  6
CONTINUOUS
 10
11.5789687934
 20
8.7386421353
 11
11.5844375434
 21
8.7313504652
  0
LINE
  5
336
100
AcDbEntity
  8
03__ASM_ALL_CURVES
100
AcDbLine
 62
4
  6
CONTINUOUS
 10
11.5461562934
 20
8.6876004678
 11
11.5461562934
 21
8.7167671353
  0
LINE
  5
337
100
AcDbEntity
  8
03__ASM_ALL_CURVES
100
AcDbLine
 62
4
  6
CONTINUOUS
 10
11.5680312934
 20
9.8709338003
 11
11.5680312934
 21
9.7834338003
  0
LINE
  5
338
100
AcDbEntity
  8
03__ASM_ALL_CURVES
100
AcDbLine
 62
4
  6
CONTINUOUS
 10
11.5899062934
 20
10.9813504652
 11
11.5899062934
 21
10.9667671353
  0
LINE
  5
339
100
AcDbEntity
  8
03__ASM_ALL_CURVES
100
AcDbLine
 62
4
  6
CONTINUOUS
 10
11.5899062934
 20
8.7167671353
 11
11.5899062934
 21
8.6876004678
  0
LINE
  5
33A
100
AcDbEntity
  8
03__ASM_ALL_CURVES
100
AcDbLine
 62
4
  6
CONTINUOUS
 10
11.6692031684
 20
9.7834338003
 11
11.6692031684
 21
9.7943713006
  0
LINE
  5
33B
100
AcDbEntity
  8
03__ASM_ALL_CURVES
100
AcDbLine
 62
4
  6
CONTINUOUS
 10
11.6692031684
 20
10.9084338003
 11
11.6692031684
 21
10.9193713006
  0
LINE
  5
33C
100
AcDbEntity
  8
03__ASM_ALL_CURVES
100
AcDbLine
 62
4
  6
CONTINUOUS
 10
11.7430312934
 20
9.8709338003
 11
11.7430312934
 21
9.7834338003
  0
LINE
  5
33D
100
AcDbEntity
  8
03__ASM_ALL_CURVES
100
AcDbLine
 62
4
  6
CONTINUOUS
 10
11.7649062934
 20
10.9813504652
 11
11.7649062934
 21
10.9667671353
  0
LINE
  5
33E
100
AcDbEntity
  8
03__ASM_ALL_CURVES
100
AcDbLine
 62
4
  6
CONTINUOUS
 10
12.0820937934
 20
10.9959338003
 11
12.0766250434
 21
10.9594754652
  0
LINE
  5
33F
100
AcDbEntity
  8
03__ASM_ALL_CURVES
100
AcDbLine
 62
4
  6
CONTINUOUS
 10
12.1805312934
 20
10.9084338003
 11
12.1860000434
 21
10.9448921327
  0
LINE
  5
340
100
AcDbEntity
  8
03__ASM_ALL_CURVES
100
AcDbLine
 62
4
  6
CONTINUOUS
 10
12.1860000434
 20
10.9448921327
 11
12.1914687934
 21
10.9667671353
  0
LINE
  5
341
100
AcDbEntity
  8
03__ASM_ALL_CURVES
100
AcDbLine
 62
4
  6
CONTINUOUS
 10
12.0000625434
 20
9.8563504652
 11
11.9945937934
 21
9.8344754652
  0
LINE
  5
342
100
AcDbEntity
  8
03__ASM_ALL_CURVES
100
AcDbLine
 62
4
  6
CONTINUOUS
 10
12.0766250434
 20
9.8053088003
 11
12.0711562934
 21
9.7834338003
  0
LINE
  5
343
100
AcDbEntity
  8
03__ASM_ALL_CURVES
100
AcDbLine
 62
4
  6
CONTINUOUS
 10
12.4594375434
 20
9.8709338003
 11
12.4211562934
 21
9.8053088003
  0
LINE
  5
344
100
AcDbEntity
  8
03__ASM_ALL_CURVES
100
AcDbLine
 62
4
  6
CONTINUOUS
 10
11.5516250434
 20
8.673017134
 11
11.5461562934
 21
8.6876004678
  0
LINE
  5
345
100
AcDbEntity
  8
03__ASM_ALL_CURVES
100
AcDbLine
 62
4
  6
CONTINUOUS
 10
11.5844375434
 20
8.7313504652
 11
11.5899062934
 21
8.7167671353
  0
LINE
  5
346
100
AcDbEntity
  8
03__ASM_ALL_CURVES
100
AcDbLine
 62
4
  6
CONTINUOUS
 10
11.8524062934
 20
9.8563504652
 11
11.8524062934
 21
9.8417671353
  0
LINE
  5
347
100
AcDbEntity
  8
03__ASM_ALL_CURVES
100
AcDbLine
 62
4
  6
CONTINUOUS
 10
11.9945937934
 20
10.9594754652
 11
11.9945937934
 21
10.9448921327
  0
LINE
  5
348
100
AcDbEntity
  8
03__ASM_ALL_CURVES
100
AcDbLine
 62
4
  6
CONTINUOUS
 10
11.9945937934
 20
9.8344754652
 11
11.9945937934
 21
9.8198921327
  0
LINE
  5
349
100
AcDbEntity
  8
03__ASM_ALL_CURVES
100
AcDbLine
 62
4
  6
CONTINUOUS
 10
12.4320937934
 20
10.9959338003
 11
12.4266250434
 21
10.9594754652
  0
LINE
  5
34A
100
AcDbEntity
  8
03__ASM_ALL_CURVES
100
AcDbLine
 62
4
  6
CONTINUOUS
 10
12.5414687934
 20
10.9448921327
 11
12.5360000434
 21
10.923017134
  0
LINE
  5
34B
100
AcDbEntity
  8
03__ASM_ALL_CURVES
100
AcDbLine
 62
4
  6
CONTINUOUS
 10
12.2899062934
 20
9.7834338003
 11
12.2817031684
 21
9.7834338003
  0
LINE
  5
34C
100
AcDbEntity
  8
03__ASM_ALL_CURVES
100
AcDbLine
 62
4
  6
CONTINUOUS
 10
12.1860000434
 20
9.7834338003
 11
12.1750625434
 21
9.7834338003
  0
LINE
  5
34D
100
AcDbEntity
  8
03__ASM_ALL_CURVES
100
AcDbLine
 62
4
  6
CONTINUOUS
 10
11.6774062934
 20
9.7834338003
 11
11.6692031684
 21
9.7834338003
  0
LINE
  5
34E
100
AcDbEntity
  8
03__ASM_ALL_CURVES
100
AcDbLine
 62
4
  6
CONTINUOUS
 10
11.8086562934
 20
9.7834338003
 11
11.8524062934
 21
9.7834338003
  0
LINE
  5
34F
100
AcDbEntity
  8
03__ASM_ALL_CURVES
100
AcDbLine
 62
4
  6
CONTINUOUS
 10
12.0711562934
 20
9.7834338003
 11
12.1149062934
 21
9.7834338003
  0
LINE
  5
350
100
AcDbEntity
  8
03__ASM_ALL_CURVES
100
AcDbLine
 62
4
  6
CONTINUOUS
 10
12.3336562934
 20
9.8053088003
 11
12.3828750434
 21
9.8053088003
  0
LINE
  5
351
100
AcDbEntity
  8
03__ASM_ALL_CURVES
100
AcDbLine
 62
4
  6
CONTINUOUS
 10
12.4211562934
 20
9.8053088003
 11
12.4703750434
 21
9.8053088003
  0
LINE
  5
352
100
AcDbEntity
  8
03__ASM_ALL_CURVES
100
AcDbLine
 62
4
  6
CONTINUOUS
 10
11.0867812934
 20
9.8271838003
 11
11.3492812934
 21
9.8271838003
  0
LINE
  5
353
100
AcDbEntity
  8
03__ASM_ALL_CURVES
100
AcDbLine
 62
4
  6
CONTINUOUS
 10
12.1750625434
 20
9.8344754652
 11
12.1860000434
 21
9.8344754652
  0
LINE
  5
354
100
AcDbEntity
  8
03__ASM_ALL_CURVES
100
AcDbLine
 62
4
  6
CONTINUOUS
 10
11.8250625434
 20
9.8709338003
 11
11.8360000434
 21
9.8709338003
  0
LINE
  5
355
100
AcDbEntity
  8
03__ASM_ALL_CURVES
100
AcDbLine
 62
4
  6
CONTINUOUS
 10
12.0875625434
 20
9.8709338003
 11
12.0985000434
 21
9.8709338003
  0
LINE
  5
356
100
AcDbEntity
  8
03__ASM_ALL_CURVES
100
AcDbLine
 62
4
  6
CONTINUOUS
 10
12.1750625434
 20
9.8709338003
 11
12.1860000434
 21
9.8709338003
  0
LINE
  5
357
100
AcDbEntity
  8
03__ASM_ALL_CURVES
100
AcDbLine
 62
4
  6
CONTINUOUS
 10
12.1149062934
 20
9.8563504652
 11
12.1149062934
 21
9.8417671353
  0
LINE
  5
358
100
AcDbEntity
  8
03__ASM_ALL_CURVES
100
AcDbLine
 62
4
  6
CONTINUOUS
 10
12.1531875434
 20
9.8053088003
 11
12.1531875434
 21
9.8126004678
  0
LINE
  5
359
100
AcDbEntity
  8
03__ASM_ALL_CURVES
100
AcDbLine
 62
4
  6
CONTINUOUS
 10
12.1586562934
 20
9.8490588003
 11
12.1586562934
 21
9.8563504652
  0
LINE
  5
35A
100
AcDbEntity
  8
03__ASM_ALL_CURVES
100
AcDbLine
 62
4
  6
CONTINUOUS
 10
12.2024062934
 20
9.8563504652
 11
12.2024062934
 21
9.8490588003
  0
LINE
  5
35B
100
AcDbEntity
  8
03__ASM_ALL_CURVES
100
AcDbLine
 62
4
  6
CONTINUOUS
 10
12.2078750434
 20
9.8126004678
 11
12.2078750434
 21
9.8053088003
  0
LINE
  5
35C
100
AcDbEntity
  8
03__ASM_ALL_CURVES
100
AcDbLine
 62
4
  6
CONTINUOUS
 10
12.2817031684
 20
9.7834338003
 11
12.2817031684
 21
9.7943713006
  0
LINE
  5
35D
100
AcDbEntity
  8
03__ASM_ALL_CURVES
100
AcDbLine
 62
4
  6
CONTINUOUS
 10
12.2817031684
 20
10.9084338003
 11
12.2817031684
 21
10.9193713006
  0
LINE
  5
35E
100
AcDbEntity
  8
03__ASM_ALL_CURVES
100
AcDbLine
 62
4
  6
CONTINUOUS
 10
12.3555312934
 20
10.9959338003
 11
12.3555312934
 21
10.9084338003
  0
LINE
  5
35F
100
AcDbEntity
  8
03__ASM_ALL_CURVES
100
AcDbLine
 62
4
  6
CONTINUOUS
 10
12.3719375434
 20
9.7834338003
 11
12.3719375434
 21
9.8709338003
  0
LINE
  5
360
100
AcDbEntity
  8
03__ASM_ALL_CURVES
100
AcDbLine
 62
4
  6
CONTINUOUS
 10
12.5414687934
 20
9.8198921327
 11
12.5360000434
 21
9.798017134
  0
LINE
  5
361
100
AcDbEntity
  8
03__ASM_ALL_CURVES
100
AcDbLine
 62
4
  6
CONTINUOUS
 10
11.6692031684
 20
9.7943713006
 11
11.6774062934
 21
9.7834338003
  0
LINE
  5
362
100
AcDbEntity
  8
03__ASM_ALL_CURVES
100
AcDbLine
 62
4
  6
CONTINUOUS
 10
11.8469375434
 20
9.8636421353
 11
11.8524062934
 21
9.8563504652
  0
LINE
  5
363
100
AcDbEntity
  8
03__ASM_ALL_CURVES
100
AcDbLine
 62
4
  6
CONTINUOUS
 10
11.9945937934
 20
9.8198921327
 11
12.0000625434
 21
9.798017134
  0
LINE
  5
364
100
AcDbEntity
  8
03__ASM_ALL_CURVES
100
AcDbLine
 62
4
  6
CONTINUOUS
 10
12.4594375434
 20
9.7834338003
 11
12.4594375434
 21
9.8709338003
  0
LINE
  5
365
100
AcDbEntity
  8
03__ASM_ALL_CURVES
100
AcDbLine
 62
4
  6
CONTINUOUS
 10
12.5414687934
 20
10.9594754652
 11
12.5414687934
 21
10.9448921327
  0
LINE
  5
366
100
AcDbEntity
  8
03__ASM_ALL_CURVES
100
AcDbLine
 62
4
  6
CONTINUOUS
 10
12.5414687934
 20
9.8344754652
 11
12.5414687934
 21
9.8198921327
  0
LINE
  5
367
100
AcDbEntity
  8
03__ASM_ALL_CURVES
100
AcDbLine
 62
4
  6
CONTINUOUS
 10
11.8360000434
 20
9.8709338003
 11
11.8469375434
 21
9.8636421353
  0
LINE
  5
368
100
AcDbEntity
  8
03__ASM_ALL_CURVES
100
AcDbLine
 62
4
  6
CONTINUOUS
 10
12.1750625434
 20
9.7834338003
 11
12.1641250434
 21
9.7907254672
  0
LINE
  5
369
100
AcDbEntity
  8
03__ASM_ALL_CURVES
100
AcDbLine
 62
4
  6
CONTINUOUS
 10
12.0985000434
 20
9.8709338003
 11
12.1094375434
 21
9.8636421353
  0
LINE
  5
36A
100
AcDbEntity
  8
03__ASM_ALL_CURVES
100
AcDbLine
 62
4
  6
CONTINUOUS
 10
12.1750625434
 20
9.8344754652
 11
12.1641250434
 21
9.8417671353
  0
LINE
  5
36B
100
AcDbEntity
  8
03__ASM_ALL_CURVES
100
AcDbLine
 62
4
  6
CONTINUOUS
 10
12.1860000434
 20
9.8344754652
 11
12.1969375434
 21
9.8271838003
  0
LINE
  5
36C
100
AcDbEntity
  8
03__ASM_ALL_CURVES
100
AcDbLine
 62
4
  6
CONTINUOUS
 10
12.1860000434
 20
9.8709338003
 11
12.1969375434
 21
9.8636421353
  0
LINE
  5
36D
100
AcDbEntity
  8
03__ASM_ALL_CURVES
100
AcDbLine
 62
4
  6
CONTINUOUS
 10
12.0000625434
 20
9.798017134
 11
12.0110000434
 21
9.7834338003
  0
LINE
  5
36E
100
AcDbEntity
  8
03__ASM_ALL_CURVES
100
AcDbLine
 62
4
  6
CONTINUOUS
 10
12.1094375434
 20
9.8636421353
 11
12.1149062934
 21
9.8563504652
  0
LINE
  5
36F
100
AcDbEntity
  8
03__ASM_ALL_CURVES
100
AcDbLine
 62
4
  6
CONTINUOUS
 10
12.1641250434
 20
9.7907254672
 11
12.1531875434
 21
9.8053088003
  0
LINE
  5
370
100
AcDbEntity
  8
03__ASM_ALL_CURVES
100
AcDbLine
 62
4
  6
CONTINUOUS
 10
12.1641250434
 20
9.8417671353
 11
12.1586562934
 21
9.8490588003
  0
LINE
  5
371
100
AcDbEntity
  8
03__ASM_ALL_CURVES
100
AcDbLine
 62
4
  6
CONTINUOUS
 10
12.1969375434
 20
9.8271838003
 11
12.2078750434
 21
9.8126004678
  0
LINE
  5
372
100
AcDbEntity
  8
03__ASM_ALL_CURVES
100
AcDbLine
 62
4
  6
CONTINUOUS
 10
12.1969375434
 20
9.8636421353
 11
12.2024062934
 21
9.8563504652
  0
LINE
  5
373
100
AcDbEntity
  8
03__ASM_ALL_CURVES
100
AcDbLine
 62
4
  6
CONTINUOUS
 10
11.8524062934
 20
10.9521838003
 11
11.8578750434
 21
10.9376004678
  0
LINE
  5
374
100
AcDbEntity
  8
03__ASM_ALL_CURVES
100
AcDbLine
 62
4
  6
CONTINUOUS
 10
11.9945937934
 20
10.9448921327
 11
12.0000625434
 21
10.923017134
  0
LINE
  5
375
100
AcDbEntity
  8
03__ASM_ALL_CURVES
100
AcDbLine
 62
4
  6
CONTINUOUS
 10
12.4485000434
 20
10.9084338003
 11
12.4375625434
 21
10.9084338003
  0
LINE
  5
376
100
AcDbEntity
  8
03__ASM_ALL_CURVES
100
AcDbLine
 62
4
  6
CONTINUOUS
 10
12.2899062934
 20
10.9084338003
 11
12.2817031684
 21
10.9084338003
  0
LINE
  5
377
100
AcDbEntity
  8
03__ASM_ALL_CURVES
100
AcDbLine
 62
4
  6
CONTINUOUS
 10
12.0985000434
 20
10.9084338003
 11
12.0875625434
 21
10.9084338003
  0
LINE
  5
378
100
AcDbEntity
  8
03__ASM_ALL_CURVES
100
AcDbLine
 62
4
  6
CONTINUOUS
 10
11.8360000434
 20
10.9084338003
 11
11.8250625434
 21
10.9084338003
  0
LINE
  5
379
100
AcDbEntity
  8
03__ASM_ALL_CURVES
100
AcDbLine
 62
4
  6
CONTINUOUS
 10
11.6774062934
 20
10.9084338003
 11
11.6692031684
 21
10.9084338003
  0
LINE
  5
37A
100
AcDbEntity
  8
03__ASM_ALL_CURVES
100
AcDbLine
 62
4
  6
CONTINUOUS
 10
11.5461562934
 20
10.9084338003
 11
11.5899062934
 21
10.9084338003
  0
LINE
  5
37B
100
AcDbEntity
  8
03__ASM_ALL_CURVES
100
AcDbLine
 62
4
  6
CONTINUOUS
 10
11.7211562934
 20
10.9084338003
 11
11.7649062934
 21
10.9084338003
  0
LINE
  5
37C
100
AcDbEntity
  8
03__ASM_ALL_CURVES
100
AcDbLine
 62
4
  6
CONTINUOUS
 10
12.2817031684
 20
9.7943713006
 11
12.2899062934
 21
9.7834338003
  0
LINE
  5
37D
100
AcDbEntity
  8
03__ASM_ALL_CURVES
100
AcDbLine
 62
4
  6
CONTINUOUS
 10
11.5844375434
 20
10.9886421353
 11
11.5899062934
 21
10.9813504652
  0
LINE
  5
37E
100
AcDbEntity
  8
03__ASM_ALL_CURVES
100
AcDbLine
 62
4
  6
CONTINUOUS
 10
11.6692031684
 20
10.9193713006
 11
11.6774062934
 21
10.9084338003
  0
LINE
  5
37F
100
AcDbEntity
  8
03__ASM_ALL_CURVES
100
AcDbLine
 62
4
  6
CONTINUOUS
 10
12.5250625434
 20
9.8709338003
 11
12.5360000434
 21
9.8563504652
  0
LINE
  5
380
100
AcDbEntity
  8
03__ASM_ALL_CURVES
100
AcDbLine
 62
4
  6
CONTINUOUS
 10
12.1149062934
 20
10.9521838003
 11
12.1203750434
 21
10.9376004678
  0
LINE
  5
381
100
AcDbEntity
  8
03__ASM_ALL_CURVES
100
AcDbLine
 62
4
  6
CONTINUOUS
 10
12.5360000434
 20
9.8563504652
 11
12.5414687934
 21
9.8344754652
  0
LINE
  5
382
100
AcDbEntity
  8
0
100
AcDbLine
 62
7
  6
CONTINUOUS
 10
6.9992812934
 20
10.9521838003
 11
10.9992812934
 21
10.9521838003
  0
LINE
  5
383
100
AcDbEntity
  8
03__ASM_ALL_CURVES
100
AcDbLine
 62
4
  6
CONTINUOUS
 10
11.0867812934
 20
10.9521838003
 11
11.3492812934
 21
10.9521838003
  0
LINE
  5
384
100
AcDbEntity
  8
03__ASM_ALL_CURVES
100
AcDbLine
 62
4
  6
CONTINUOUS
 10
11.8250625434
 20
10.9667671353
 11
11.8360000434
 21
10.9667671353
  0
LINE
  5
385
100
AcDbEntity
  8
03__ASM_ALL_CURVES
100
AcDbLine
 62
4
  6
CONTINUOUS
 10
12.0875625434
 20
10.9667671353
 11
12.0985000434
 21
10.9667671353
  0
LINE
  5
386
100
AcDbEntity
  8
03__ASM_ALL_CURVES
100
AcDbLine
 62
4
  6
CONTINUOUS
 10
12.4375625434
 20
10.9667671353
 11
12.4485000434
 21
10.9667671353
  0
LINE
  5
387
100
AcDbEntity
  8
03__ASM_ALL_CURVES
100
AcDbLine
 62
4
  6
CONTINUOUS
 10
12.4649062934
 20
10.9959338003
 11
12.4320937934
 21
10.9959338003
  0
LINE
  5
388
100
AcDbEntity
  8
03__ASM_ALL_CURVES
100
AcDbLine
 62
4
  6
CONTINUOUS
 10
12.2024062934
 20
10.9959338003
 11
12.1586562934
 21
10.9959338003
  0
LINE
  5
389
100
AcDbEntity
  8
03__ASM_ALL_CURVES
100
AcDbLine
 62
4
  6
CONTINUOUS
 10
12.1149062934
 20
10.9959338003
 11
12.0820937934
 21
10.9959338003
  0
LINE
  5
38A
100
AcDbEntity
  8
03__ASM_ALL_CURVES
100
AcDbLine
 62
4
  6
CONTINUOUS
 10
11.8524062934
 20
10.9959338003
 11
11.8195937934
 21
10.9959338003
  0
LINE
  5
38B
100
AcDbEntity
  8
03__ASM_ALL_CURVES
100
AcDbLine
 62
4
  6
CONTINUOUS
 10
11.5625625434
 20
10.9959338003
 11
11.5735000434
 21
10.9959338003
  0
LINE
  5
38C
100
AcDbEntity
  8
03__ASM_ALL_CURVES
100
AcDbLine
 62
4
  6
CONTINUOUS
 10
11.7375625434
 20
10.9959338003
 11
11.7485000434
 21
10.9959338003
  0
LINE
  5
38D
100
AcDbEntity
  8
03__ASM_ALL_CURVES
100
AcDbLine
 62
4
  6
CONTINUOUS
 10
11.5735000434
 20
10.9959338003
 11
11.5844375434
 21
10.9886421353
  0
LINE
  5
38E
100
AcDbEntity
  8
03__ASM_ALL_CURVES
100
AcDbLine
 62
4
  6
CONTINUOUS
 10
11.8250625434
 20
10.9084338003
 11
11.8141250434
 21
10.9157254672
  0
LINE
  5
38F
100
AcDbEntity
  8
03__ASM_ALL_CURVES
100
AcDbLine
 62
4
  6
CONTINUOUS
 10
11.7594375434
 20
10.9886421353
 11
11.7649062934
 21
10.9813504652
  0
LINE
  5
390
100
AcDbEntity
  8
03__ASM_ALL_CURVES
100
AcDbLine
 62
4
  6
CONTINUOUS
 10
11.8141250434
 20
10.9157254672
 11
11.8086562934
 21
10.923017134
  0
LINE
  5
391
100
AcDbEntity
  8
03__ASM_ALL_CURVES
100
AcDbLine
 62
4
  6
CONTINUOUS
 10
11.8469375434
 20
10.9594754652
 11
11.8524062934
 21
10.9521838003
  0
LINE
  5
392
100
AcDbEntity
  8
03__ASM_ALL_CURVES
100
AcDbLine
 62
4
  6
CONTINUOUS
 10
12.0000625434
 20
10.923017134
 11
12.0110000434
 21
10.9084338003
  0
LINE
  5
393
100
AcDbEntity
  8
03__ASM_ALL_CURVES
100
AcDbLine
 62
4
  6
CONTINUOUS
 10
12.0766250434
 20
10.9157254672
 11
12.0711562934
 21
10.923017134
  0
LINE
  5
394
100
AcDbEntity
  8
03__ASM_ALL_CURVES
100
AcDbLine
 62
4
  6
CONTINUOUS
 10
12.1094375434
 20
10.9594754652
 11
12.1149062934
 21
10.9521838003
  0
LINE
  5
395
100
AcDbEntity
  8
03__ASM_ALL_CURVES
100
AcDbLine
 62
4
  6
CONTINUOUS
 10
12.4649062934
 20
10.9521838003
 11
12.4703750434
 21
10.9376004678
  0
LINE
  5
396
100
AcDbEntity
  8
03__ASM_ALL_CURVES
100
AcDbLine
 62
4
  6
CONTINUOUS
 10
12.5360000434
 20
10.9813504652
 11
12.5414687934
 21
10.9594754652
  0
LINE
  5
397
100
AcDbEntity
  8
03__ASM_ALL_CURVES
100
AcDbLine
 62
4
  6
CONTINUOUS
 10
11.7485000434
 20
10.9959338003
 11
11.7594375434
 21
10.9886421353
  0
LINE
  5
398
100
AcDbEntity
  8
03__ASM_ALL_CURVES
100
AcDbLine
 62
4
  6
CONTINUOUS
 10
11.8360000434
 20
10.9667671353
 11
11.8469375434
 21
10.9594754652
  0
LINE
  5
399
100
AcDbEntity
  8
03__ASM_ALL_CURVES
100
AcDbLine
 62
4
  6
CONTINUOUS
 10
12.0875625434
 20
10.9084338003
 11
12.0766250434
 21
10.9157254672
  0
LINE
  5
39A
100
AcDbEntity
  8
03__ASM_ALL_CURVES
100
AcDbLine
 62
4
  6
CONTINUOUS
 10
12.0985000434
 20
10.9667671353
 11
12.1094375434
 21
10.9594754652
  0
LINE
  5
39B
100
AcDbEntity
  8
03__ASM_ALL_CURVES
100
AcDbLine
 62
4
  6
CONTINUOUS
 10
12.2817031684
 20
10.9193713006
 11
12.2899062934
 21
10.9084338003
  0
LINE
  5
39C
100
AcDbEntity
  8
03__ASM_ALL_CURVES
100
AcDbLine
 62
4
  6
CONTINUOUS
 10
12.4266250434
 20
10.9157254672
 11
12.4211562934
 21
10.923017134
  0
LINE
  5
39D
100
AcDbEntity
  8
03__ASM_ALL_CURVES
100
AcDbLine
 62
4
  6
CONTINUOUS
 10
12.4594375434
 20
10.9594754652
 11
12.4649062934
 21
10.9521838003
  0
LINE
  5
39E
100
AcDbEntity
  8
03__ASM_ALL_CURVES
100
AcDbLine
 62
4
  6
CONTINUOUS
 10
12.4375625434
 20
10.9084338003
 11
12.4266250434
 21
10.9157254672
  0
LINE
  5
39F
100
AcDbEntity
  8
03__ASM_ALL_CURVES
100
AcDbLine
 62
4
  6
CONTINUOUS
 10
12.4485000434
 20
10.9667671353
 11
12.4594375434
 21
10.9594754652
  0
LINE
  5
3A0
100
AcDbEntity
  8
03__ASM_ALL_CURVES
100
AcDbLine
 62
4
  6
CONTINUOUS
 10
12.5250625434
 20
10.9959338003
 11
12.5360000434
 21
10.9813504652
  0
CIRCLE
  5
3A1
100
AcDbEntity
  8
0
100
AcDbCircle
 62
7
  6
CONTINUOUS
 10
8.1242812934
 20
9.8271838003
 40
0.782
  0
CIRCLE
  5
3A2
100
AcDbEntity
  8
0
100
AcDbCircle
 62
7
  6
CONTINUOUS
 10
8.1242812934
 20
9.8271838003
 40
0.735
  0
CIRCLE
  5
3A3
100
AcDbEntity
  8
0
100
AcDbCircle
 62
7
  6
CONTINUOUS
 10
8.1242812934
 20
9.8271838003
 40
0.72
  0
CIRCLE
  5
3A4
100
AcDbEntity
  8
0
100
AcDbCircle
 62
7
  6
CONTINUOUS
 10
8.1242812934
 20
9.8271838003
 40
0.6735
  0
CIRCLE
  5
3A5
100
AcDbEntity
  8
0
100
AcDbCircle
 62
7
  6
CONTINUOUS
 10
8.1242812934
 20
9.8271838003
 40
0.6350796898
  0
CIRCLE
  5
3A6
100
AcDbEntity
  8
0
100
AcDbCircle
 62
7
  6
CONTINUOUS
 10
8.1242812934
 20
9.8271838003
 40
0.626
  0
CIRCLE
  5
3A7
100
AcDbEntity
  8
0
100
AcDbCircle
 62
7
  6
CONTINUOUS
 10
8.1242812934
 20
9.8271838003
 40
0.606
  0
CIRCLE
  5
3A8
100
AcDbEntity
  8
0
100
AcDbCircle
 62
7
  6
CONTINUOUS
 10
8.1242812934
 20
9.8271838003
 40
0.5
  0
SPLINE
  5
3A9
100
AcDbEntity
  8
0
100
AcDbSpline
 62
7
  6
CONTINUOUS
 70
0
 71
3
 72
8
 73
4
 74
2
 42
0.0000001
 43
0.0000001
 44
0.0000000001
 12
-0.0006759089
 22
-0.0001996634
 32
0.0
 13
-0.0006758246
 23
-0.0001999524
 33
0.0
 40
0.0
 40
0.0
 40
0.0
 40
0.0
 40
1.0
 40
1.0
 40
1.0
 40
1.0
 10
8.4174514038
 20
10.2322162513
 30
0.0
 10
8.4172261008
 20
10.2321496968
 30
0.0
 10
8.4170008119
 20
10.2320830942
 30
0.0
 10
8.416775537
 20
10.2320164434
 30
0.0
 11
8.4174514038
 21
10.2322162513
 31
0.0
 11
8.416775537
 21
10.2320164434
 31
0.0
  0
SPLINE
  5
3AA
100
AcDbEntity
  8
0
100
AcDbSpline
 62
7
  6
CONTINUOUS
 70
0
 71
3
 72
8
 73
4
 74
2
 42
0.0000001
 43
0.0000001
 44
0.0000000001
 12
-0.0010325665
 22
-0.0003054996
 32
0.0
 13
-0.0010323696
 23
-0.0003061734
 33
0.0
 40
0.0
 40
0.0
 40
0.0
 40
0.0
 40
1.0
 40
1.0
 40
1.0
 40
1.0
 10
8.416775537
 20
10.2320164434
 30
0.0
 10
8.4164313482
 20
10.2319146102
 30
0.0
 10
8.4160871921
 20
10.2318126646
 30
0.0
 10
8.415743069
 20
10.2317106068
 30
0.0
 11
8.416775537
 21
10.2320164434
 31
0.0
 11
8.415743069
 21
10.2317106068
 31
0.0
  0
SPLINE
  5
3AB
100
AcDbEntity
  8
0
100
AcDbSpline
 62
7
  6
CONTINUOUS
 70
0
 71
3
 72
10
 73
6
 74
4
 42
0.0000001
 43
0.0000001
 44
0.0000000001
 12
-0.06569919
 22
0.0184579284
 32
0.0
 13
-0.0660096663
 23
0.0173149109
 33
0.0
 40
0.0
 40
0.0
 40
0.0
 40
0.0
 40
0.3185367287
 40
0.6573670814
 40
1.0
 40
1.0
 40
1.0
 40
1.0
 10
7.9212812934
 20
10.2297309075
 30
0.0
 10
7.9143054251
 20
10.2316907503
 30
0.0
 10
7.8999041662
 20
10.2357172497
 30
0.0
 10
7.8779667765
 20
10.2417346898
 30
0.0
 10
7.8629888682
 20
10.2457308956
 30
0.0
 10
7.85544984
 20
10.2477084484
 30
0.0
 11
7.9212812934
 21
10.2297309075
 31
0.0
 11
7.9003441325
 21
10.2355763157
 31
0.0
 11
7.8780431781
 21
10.2416859841
 31
0.0
 11
7.85544984
 21
10.2477084484
 31
0.0
  0
SPLINE
  5
3AC
100
AcDbEntity
  8
0
100
AcDbSpline
 62
7
  6
CONTINUOUS
 70
0
 71
3
 72
30
 73
26
 74
24
 42
0.0000001
 43
0.0000001
 44
0.0000000001
 12
0.0
 22
-0.410657307
 32
0.0
 13
0.0
 23
0.410657307
 33
0.0
 40
0.0
 40
0.0
 40
0.0
 40
0.0
 40
0.0548579292
 40
0.1108339613
 40
0.1671351601
 40
0.2227585184
 40
0.2751959746
 40
0.3220461645
 40
0.3633029272
 40
0.3995574463
 40
0.4316608872
 40
0.460379134
 40
0.4870266593
 40
0.5128294843
 40
0.5394611098
 40
0.5681925641
 40
0.6003296709
 40
0.6365850502
 40
0.6778463334
 40
0.7247388356
 40
0.7772189756
 40
0.8328877926
 40
0.8891753546
 40
0.9451220303
 40
1.0
 40
1.0
 40
1.0
 40
1.0
 10
8.2337037108
 20
9.8271838003
 30
0.0
 10
8.2337037108
 20
9.8196745305
 30
0.0
 10
8.2327601584
 20
9.8044863696
 30
0.0
 10
8.2284949067
 20
9.7819503456
 30
0.0
 10
8.2214078294
 20
9.7600227427
 30
0.0
 10
8.2118472156
 20
9.739591372
 30
0.0
 10
8.2005282955
 20
9.7215956215
 30
0.0
 10
8.188343605
 20
9.7066455485
 30
0.0
 10
8.1760085951
 20
9.6948478396
 30
0.0
 10
8.1638693347
 20
9.6859506459
 30
0.0
 10
8.1521042906
 20
9.6796685848
 30
0.0
 10
8.140751342
 20
9.6757074008
 30
0.0
 10
8.1297506293
 20
9.6738104903
 30
0.0
 10
8.1188734941
 20
9.6738053253
 30
0.0
 10
8.1078713481
 20
9.6756915972
 30
0.0
 10
8.0965108837
 20
9.6796445932
 30
0.0
 10
8.0847361846
 20
9.6859229006
 30
0.0
 10
8.0725888433
 20
9.6948182146
 30
0.0
 10
8.0602451259
 20
9.7066163681
 30
0.0
 10
8.048049295
 20
9.7215733608
 30
0.0
 10
8.0367189687
 20
9.7395831905
 30
0.0
 10
8.0271539989
 20
9.7600239304
 30
0.0
 10
8.0200676212
 20
9.7819520776
 30
0.0
 10
8.0158026982
 20
9.8044848822
 30
0.0
 10
8.0148588761
 20
9.8196717872
 30
0.0
 10
8.0148588761
 20
9.8271838003
 30
0.0
 11
8.2337037108
 21
9.8271838003
 31
0.0
 11
8.2323079103
 21
9.8046992736
 31
0.0
 11
8.2280374326
 21
9.7821124709
 31
0.0
 11
8.2209272681
 21
9.7601124023
 31
0.0
 11
8.211235309
 21
9.7394283693
 31
0.0
 11
8.1997426022
 21
9.7212178424
 31
0.0
 11
8.1875475121
 21
9.7063372092
 31
0.0
 11
8.1752586281
 21
9.6946741074
 31
0.0
 11
8.1632087086
 21
9.685930113
 31
0.0
 11
8.1515483018
 21
9.6797786969
 31
0.0
 11
8.1403971382
 21
9.6759400982
 31
0.0
 11
8.1296088902
 21
9.6741062565
 31
0.0
 11
8.1190127727
 21
9.6741012946
 31
0.0
 11
8.1082292311
 21
9.6759238313
 31
0.0
 11
8.0970696826
 21
9.6797547225
 31
0.0
 11
8.0853933342
 21
9.6859055445
 31
0.0
 11
8.0733394217
 21
9.6946446354
 31
0.0
 11
8.0610452252
 21
9.7063048349
 31
0.0
 11
8.0488357054
 21
9.7211961074
 31
0.0
 11
8.0373317291
 21
9.7394202491
 31
0.0
 11
8.0276318549
 21
9.760121189
 31
0.0
 11
8.0205242071
 21
9.7821161858
 31
0.0
 11
8.016255696
 21
9.8046910912
 31
0.0
 11
8.0148588761
 21
9.8271838003
 31
0.0
  0
SPLINE
  5
3AD
100
AcDbEntity
  8
0
100
AcDbSpline
 62
7
  6
CONTINUOUS
 70
0
 71
3
 72
30
 73
26
 74
24
 42
0.0000001
 43
0.0000001
 44
0.0000000001
 12
0.0
 22
0.4106573069
 32
0.0
 13
-0.0
 23
-0.4106573069
 33
0.0
 40
0.0
 40
0.0
 40
0.0
 40
0.0
 40
0.0548594132
 40
0.1108335833
 40
0.1671337065
 40
0.2227588116
 40
0.2751959383
 40
0.3220461633
 40
0.3633024865
 40
0.3995561623
 40
0.4316596602
 40
0.4603782373
 40
0.4870261898
 40
0.5128293765
 40
0.5394613645
 40
0.5681931346
 40
0.6003303564
 40
0.6365850305
 40
0.6778458574
 40
0.7247385581
 40
0.7772185181
 40
0.8328892947
 40
0.8891758164
 40
0.9451205241
 40
1.0
 40
1.0
 40
1.0
 40
1.0
 10
8.0148588761
 20
9.8271838003
 30
0.0
 10
8.0148588761
 20
9.8346932732
 30
0.0
 10
8.015802451
 20
9.8498813837
 30
0.0
 10
8.0200676927
 20
9.8724172017
 30
0.0
 10
8.0271546739
 20
9.8943446612
 30
0.0
 10
8.0367152824
 20
9.9147760912
 30
0.0
 10
8.0480343137
 20
9.9327720058
 30
0.0
 10
8.0602189399
 20
9.9477220017
 30
0.0
 10
8.0725538182
 20
9.9595195991
 30
0.0
 10
8.0846929134
 20
9.9684167285
 30
0.0
 10
8.0964578654
 20
9.9746988279
 30
0.0
 10
8.1078108965
 20
9.9786601168
 30
0.0
 10
8.1188117541
 20
9.9805571018
 30
0.0
 10
8.1296890491
 20
9.9805622877
 30
0.0
 10
8.1406913366
 20
9.9786759856
 30
0.0
 10
8.1520518955
 20
9.9747229266
 30
0.0
 10
8.1638265429
 20
9.9684446027
 30
0.0
 10
8.1759737567
 20
9.9595493615
 30
0.0
 10
8.1883173875
 20
9.94775131
 30
0.0
 10
8.2005131953
 20
9.9327943749
 30
0.0
 10
8.2118436814
 20
9.9147843262
 30
0.0
 10
8.2214086718
 20
9.8943434782
 30
0.0
 10
8.2284949562
 20
9.8724154548
 30
0.0
 10
8.2327598664
 20
9.8498828627
 30
0.0
 10
8.2337037108
 20
9.8346960195
 30
0.0
 10
8.2337037108
 20
9.8271838003
 30
0.0
 11
8.0148588761
 21
9.8271838003
 31
0.0
 11
8.016254752
 21
9.8496689329
 31
0.0
 11
8.0205251158
 21
9.8722549789
 31
0.0
 11
8.0276350994
 21
9.8942546418
 31
0.0
 11
8.0373273358
 21
9.914939337
 31
0.0
 11
8.0488199758
 21
9.933149746
 31
0.0
 11
8.0610150744
 21
9.9480303909
 31
0.0
 11
8.0733038193
 21
9.9596933772
 31
0.0
 11
8.0853534296
 21
9.968437208
 31
0.0
 11
8.0970138212
 21
9.9745887027
 31
0.0
 11
8.1081650906
 21
9.9784274109
 31
0.0
 11
8.1189535038
 21
9.9802613278
 31
0.0
 11
8.1295497698
 21
9.9802663096
 31
0.0
 11
8.1403334575
 21
9.9784437433
 31
0.0
 11
8.1514931199
 21
9.9746127848
 31
0.0
 11
8.1631694922
 21
9.968461907
 31
0.0
 11
8.1752231589
 21
9.9597229703
 31
0.0
 11
8.1875172282
 21
9.9480629089
 31
0.0
 11
8.1997268146
 21
9.9331715856
 31
0.0
 11
8.2112307673
 21
9.9149475164
 31
0.0
 11
8.2209309587
 21
9.8942458365
 31
0.0
 11
8.2280384267
 21
9.8722512306
 31
0.0
 11
8.2323068142
 21
9.8496771243
 31
0.0
 11
8.2337037108
 21
9.8271838003
 31
0.0
  0
SPLINE
  5
3AE
100
AcDbEntity
  8
0
100
AcDbSpline
 62
7
  6
CONTINUOUS
 70
0
 71
3
 72
10
 73
6
 74
4
 42
0.0000001
 43
0.0000001
 44
0.0000000001
 12
0.0660096644
 22
0.0173149103
 32
0.0
 13
0.0656991882
 23
0.0184579279
 33
0.0
 40
0.0
 40
0.0
 40
0.0
 40
0.0
 40
0.3424960336
 40
0.6813389097
 40
1.0
 40
1.0
 40
1.0
 40
1.0
 10
7.8554498419
 20
9.4066591526
 30
0.0
 10
7.8629858579
 20
9.4086359153
 30
0.0
 10
7.8779610392
 20
9.4126313663
 30
0.0
 10
7.8998984424
 20
9.4186487548
 30
0.0
 10
7.9143027018
 20
9.4226760852
 30
0.0
 10
7.9212812934
 20
9.424636693
 30
0.0
 11
7.8554498419
 21
9.4066591526
 31
0.0
 11
7.8780341621
 21
9.412679177
 31
0.0
 11
7.9003359543
 21
9.4187890192
 31
0.0
 11
7.9212812934
 21
9.424636693
 31
0.0
  0
SPLINE
  5
3AF
100
AcDbEntity
  8
0
100
AcDbSpline
 62
7
  6
CONTINUOUS
 70
0
 71
3
 72
9
 73
5
 74
3
 42
0.0000001
 43
0.0000001
 44
0.0000000001
 12
0.0038279467
 22
0.0281532261
 32
0.0
 13
0.0034023281
 23
0.0282078266
 33
0.0
 40
0.0
 40
0.0
 40
0.0
 40
0.0
 40
0.4991501902
 40
1.0
 40
1.0
 40
1.0
 40
1.0
 10
7.9212812934
 20
9.424636693
 30
0.0
 10
7.9219182002
 20
9.4293209224
 30
0.0
 10
7.9231598835
 20
9.4387100286
 30
0.0
 10
7.9243305891
 20
9.4481082576
 30
0.0
 10
7.9248986075
 20
9.4528175525
 30
0.0
 11
7.9212812934
 21
9.424636693
 31
0.0
 11
7.9231400889
 21
9.4386963436
 31
0.0
 11
7.9248986075
 21
9.4528175525
 31
0.0
  0
SPLINE
  5
3B0
100
AcDbEntity
  8
0
100
AcDbSpline
 62
7
  6
CONTINUOUS
 70
0
 71
3
 72
9
 73
5
 74
3
 42
0.0000001
 43
0.0000001
 44
0.0000000001
 12
-0.0034023281
 22
0.0282078266
 32
0.0
 13
-0.0038279467
 23
0.0281532261
 33
0.0
 40
0.0
 40
0.0
 40
0.0
 40
0.0
 40
0.5008498098
 40
1.0
 40
1.0
 40
1.0
 40
1.0
 10
7.9248986075
 20
10.2015500481
 30
0.0
 10
7.9243305891
 20
10.2062593429
 30
0.0
 10
7.9231598835
 20
10.215657572
 30
0.0
 10
7.9219182002
 20
10.2250466782
 30
0.0
 10
7.9212812934
 20
10.2297309075
 30
0.0
 11
7.9248986075
 21
10.2015500481
 31
0.0
 11
7.9231400889
 21
10.2156712569
 31
0.0
 11
7.9212812934
 21
10.2297309075
 31
0.0
  0
SPLINE
  5
3B1
100
AcDbEntity
  8
0
100
AcDbSpline
 62
7
  6
CONTINUOUS
 70
0
 71
3
 72
21
 73
17
 74
15
 42
0.0000001
 43
0.0000001
 44
0.0000000001
 12
0.0
 22
-0.4101141492
 32
0.0
 13
-0.0
 23
0.4101141492
 33
0.0
 40
0.0
 40
0.0
 40
0.0
 40
0.0
 40
0.0983149242
 40
0.1860198497
 40
0.2634671108
 40
0.3326288998
 40
0.3938672561
 40
0.4500724633
 40
0.5019207435
 40
0.5535116083
 40
0.6091342014
 40
0.6697513399
 40
0.7381750036
 40
0.8149806721
 40
0.9021249521
 40
1.0
 40
1.0
 40
1.0
 40
1.0
 10
8.2337037108
 20
9.8271838003
 30
0.0
 10
8.2337037108
 20
9.8137436864
 30
0.0
 10
8.2308510889
 20
9.7882210816
 30
0.0
 10
8.2194553305
 20
9.7538278339
 30
0.0
 10
8.203895726
 20
9.7256363715
 30
0.0
 10
8.1859380153
 20
9.7034217781
 30
0.0
 10
8.1663374371
 20
9.6868284568
 30
0.0
 10
8.1454515641
 20
9.6762185438
 30
0.0
 10
8.1235035477
 20
9.6726416953
 30
0.0
 10
8.1017423397
 20
9.6767306638
 30
0.0
 10
8.0812163859
 20
9.6875535082
 30
0.0
 10
8.0619677457
 20
9.7041364736
 30
0.0
 10
8.0442977202
 20
9.726223343
 30
0.0
 10
8.0289519479
 20
9.7542247742
 30
0.0
 10
8.0176832171
 20
9.7884192044
 30
0.0
 10
8.0148588761
 20
9.8138038196
 30
0.0
 10
8.0148588761
 20
9.8271838003
 30
0.0
 11
8.2337037108
 21
9.8271838003
 31
0.0
 11
8.2292377289
 21
9.7871115537
 31
0.0
 11
8.2179333297
 21
9.7529650789
 31
0.0
 11
8.2025275505
 21
9.7251891822
 31
0.0
 11
8.1845697219
 21
9.70323364
 31
0.0
 11
8.1652233243
 21
9.6872190878
 31
0.0
 11
8.1445015629
 21
9.6771227275
 31
0.0
 11
8.1234855931
 21
9.6738862915
 31
0.0
 11
8.1026540917
 21
9.677589748
 31
0.0
 11
8.0823080575
 21
9.6879052003
 31
0.0
 11
8.0633052832
 21
9.7039336592
 31
0.0
 11
8.0456555871
 21
9.7257496331
 31
0.0
 11
8.0304622704
 21
9.7533423112
 31
0.0
 11
8.0192850477
 21
9.7872886383
 31
0.0
 11
8.0148588761
 21
9.8271838003
 31
0.0
  0
SPLINE
  5
3B2
100
AcDbEntity
  8
0
100
AcDbSpline
 62
7
  6
CONTINUOUS
 70
0
 71
3
 72
21
 73
17
 74
15
 42
0.0000001
 43
0.0000001
 44
0.0000000001
 12
0.0
 22
0.4101142286
 32
0.0
 13
0.0
 23
-0.4101142286
 33
0.0
 40
0.0
 40
0.0
 40
0.0
 40
0.0
 40
0.0982534457
 40
0.185909701
 40
0.2633516522
 40
0.3325583112
 40
0.3938371246
 40
0.4500635522
 40
0.5019217809
 40
0.5535222717
 40
0.6091651905
 40
0.6698223465
 40
0.7382928774
 40
0.8150958967
 40
0.902190851
 40
1.0
 40
1.0
 40
1.0
 40
1.0
 10
8.0148588761
 20
9.8271838003
 30
0.0
 10
8.0148588761
 20
9.8406155123
 30
0.0
 10
8.0177079884
 20
9.8661228964
 30
0.0
 10
8.0290920767
 20
9.9005030368
 30
0.0
 10
8.0446438047
 20
9.9286973436
 30
0.0
 10
8.0626030816
 20
9.950924975
 30
0.0
 10
8.082212009
 20
9.9675313503
 30
0.0
 10
8.1031057656
 20
9.9781479769
 30
0.0
 10
8.1250594471
 20
9.9817263908
 30
0.0
 10
8.1468260874
 20
9.9776354784
 30
0.0
 10
8.1673595632
 20
9.9668058743
 30
0.0
 10
8.1866165439
 20
9.9502097795
 30
0.0
 10
8.204288431
 20
9.9281094041
 30
0.0
 10
8.2196264132
 20
9.9001045619
 30
0.0
 10
8.2308830693
 20
9.865923465
 30
0.0
 10
8.2337037108
 20
9.8405547748
 30
0.0
 10
8.2337037108
 20
9.8271838003
 30
0.0
 11
8.0148588761
 21
9.8271838003
 31
0.0
 11
8.0193192849
 21
9.8672313064
 31
0.0
 11
8.0306108342
 21
9.9013610161
 31
0.0
 11
8.046008277
 21
9.9291390521
 31
0.0
 11
8.0639723773
 21
9.9511132439
 31
0.0
 11
8.0833288382
 21
9.9671416664
 31
0.0
 11
8.1040575003
 21
9.9772437427
 31
0.0
 11
8.1250774291
 21
9.9804813035
 31
0.0
 11
8.1459126895
 21
9.9767764131
 31
0.0
 11
8.1662651681
 21
9.9664552283
 31
0.0
 11
8.1852777676
 21
9.9504129566
 31
0.0
 11
8.202934158
 21
9.9285776691
 31
0.0
 11
8.2181194894
 21
9.9009818287
 31
0.0
 11
8.2292834862
 21
9.8670524378
 31
0.0
 11
8.2337037108
 21
9.8271838003
 31
0.0
  0
SPLINE
  5
3B3
100
AcDbEntity
  8
0
100
AcDbSpline
 62
7
  6
CONTINUOUS
 70
0
 71
3
 72
21
 73
17
 74
15
 42
0.0000001
 43
0.0000001
 44
0.0000000001
 12
0.4853494954
 22
0.1732398748
 32
0.0
 13
0.494072828
 23
-0.1465288686
 33
0.0
 40
0.0
 40
0.0
 40
0.0
 40
0.0
 40
0.0846242551
 40
0.1592545456
 40
0.2267811874
 40
0.2901179512
 40
0.3495942689
 40
0.407726621
 40
0.4663954629
 40
0.5274241882
 40
0.5921293661
 40
0.6597079177
 40
0.7327959707
 40
0.813428655
 40
0.9031490015
 40
1.0
 40
1.0
 40
1.0
 40
1.0
 10
7.9248986075
 20
9.4528175525
 30
0.0
 10
7.9385893873
 20
9.4577043176
 30
0.0
 10
7.964255999
 20
9.4671759825
 30
0.0
 10
8.0006505885
 20
9.4810689512
 30
0.0
 10
8.0337072856
 20
9.4934550454
 30
0.0
 10
8.0647144518
 20
9.5038715983
 30
0.0
 10
8.0949564635
 20
9.5113301011
 30
0.0
 10
8.1252803837
 20
9.5140825297
 30
0.0
 10
8.1558337673
 20
9.5109425397
 30
0.0
 10
8.1865771045
 20
9.5030537077
 30
0.0
 10
8.2180094692
 20
9.4923078499
 30
0.0
 10
8.2510261123
 20
9.4798760501
 30
0.0
 10
8.2865477559
 20
9.4663360933
 30
0.0
 10
8.3257944301
 20
9.4518915239
 30
0.0
 10
8.369204584
 20
9.4369646989
 30
0.0
 10
8.3997953391
 20
9.4273866681
 30
0.0
 10
8.4157458213
 20
9.422656179
 30
0.0
 11
7.9248986075
 21
9.4528175525
 31
0.0
 11
7.9658359438
 21
9.4678507102
 31
0.0
 11
8.0018055521
 21
9.4814654713
 31
0.0
 11
8.0344523565
 21
9.4935142487
 31
0.0
 11
8.0654814701
 21
9.5036416919
 31
0.0
 11
8.0953281794
 21
9.5106153385
 31
0.0
 11
8.1251819793
 21
9.5131115211
 31
0.0
 11
8.1552818279
 21
9.5102617645
 31
0.0
 11
8.1858421384
 21
9.5028316003
 31
0.0
 11
8.2174842316
 21
9.4923110628
 31
0.0
 11
8.2501322208
 21
9.4801884297
 31
0.0
 11
8.2853611408
 21
9.466861955
 31
0.0
 11
8.3243768435
 21
9.452563249
 31
0.0
 11
8.3681109412
 21
9.4375583128
 31
0.0
 11
8.4157458213
 21
9.422656179
 31
0.0
  0
SPLINE
  5
3B4
100
AcDbEntity
  8
0
100
AcDbSpline
 62
7
  6
CONTINUOUS
 70
0
 71
3
 72
8
 73
4
 74
2
 42
0.0000001
 43
0.0000001
 44
0.0000000001
 12
-0.0017059954
 22
-0.0005039509
 32
0.0
 13
-0.0017054586
 23
-0.0005057937
 33
0.0
 40
0.0
 40
0.0
 40
0.0
 40
0.0
 40
1.0
 40
1.0
 40
1.0
 40
1.0
 10
8.4174514038
 20
10.2322162513
 30
0.0
 10
8.4168827387
 20
10.2320482677
 30
0.0
 10
8.4163141629
 20
10.2318799766
 30
0.0
 10
8.4157456767
 20
10.2317113787
 30
0.0
 11
8.4174514038
 21
10.2322162513
 31
0.0
 11
8.4157456767
 21
10.2317113787
 31
0.0
  0
SPLINE
  5
3B5
100
AcDbEntity
  8
0
100
AcDbSpline
 62
7
  6
CONTINUOUS
 70
0
 71
3
 72
21
 73
17
 74
15
 42
0.0000001
 43
0.0000001
 44
0.0000000001
 12
-0.4940723462
 22
-0.1465287252
 32
0.0
 13
-0.4853490397
 23
0.1732397122
 33
0.0
 40
0.0
 40
0.0
 40
0.0
 40
0.0
 40
0.0960149985
 40
0.1849333528
 40
0.2648161766
 40
0.3372167681
 40
0.4040070244
 40
0.4678394351
 40
0.5283461747
 40
0.5869899651
 40
0.6452841983
 40
0.7055131149
 40
0.7699227409
 40
0.8384460901
 40
0.9141588402
 40
1.0
 40
1.0
 40
1.0
 40
1.0
 10
8.4157456767
 20
10.2317113787
 30
0.0
 10
8.3999328915
 20
10.2270217269
 30
0.0
 10
8.369609578
 20
10.2175318187
 30
0.0
 10
8.3265821575
 20
10.2027538269
 30
0.0
 10
8.2876900497
 20
10.1884597641
 30
0.0
 10
8.2525223782
 20
10.1750644544
 30
0.0
 10
8.2198913309
 20
10.1627542741
 30
0.0
 10
8.1888476065
 20
10.152036035
 30
0.0
 10
8.1584179099
 20
10.1439498992
 30
0.0
 10
8.1279941623
 20
10.140325532
 30
0.0
 10
8.0974676934
 20
10.1425841219
 30
0.0
 10
8.0668162273
 20
10.1498506554
 30
0.0
 10
8.0353150441
 20
10.1603246929
 30
0.0
 10
8.0017431494
 20
10.1728797308
 30
0.0
 10
7.9648219023
 20
10.1869803691
 30
0.0
 10
7.938786249
 20
10.1965930154
 30
0.0
 10
7.9248986075
 20
10.2015500481
 30
0.0
 11
8.4157456767
 21
10.2317113787
 31
0.0
 11
8.3685201526
 21
10.2169438555
 31
0.0
 11
8.3251720148
 21
10.2020876732
 31
0.0
 11
8.2865135142
 21
10.1879374323
 31
0.0
 11
8.2516143498
 21
10.1747406491
 31
0.0
 11
8.2193579784
 21
10.162730517
 31
0.0
 11
8.1881804445
 21
10.1522390977
 31
0.0
 11
8.1579496568
 21
10.144597797
 31
0.0
 11
8.1279092702
 21
10.1412940156
 31
0.0
 11
8.0979371636
 21
10.1433328401
 31
0.0
 11
8.0676469464
 21
10.1501066503
 31
0.0
 11
8.0360538872
 21
10.1602873128
 31
0.0
 11
8.002913968
 21
10.1724833351
 31
0.0
 11
7.9664229558
 21
10.1862962837
 31
0.0
 11
7.9248986075
 21
10.2015500481
 31
0.0
  0
ENDSEC
  0
SECTION
  2
OBJECTS
  0
DICTIONARY
  5
C
100
AcDbDictionary
280
0
281
1
  3
ACAD_GROUP
350
D
  3
ACAD_MLINESTYLE
350
17
  3
ACAD_LAYOUT
350
1A
  3
ACAD_PLOTSETTINGS
350
19
  3
ACAD_PLOTSTYLENAME
350
E
  0
DICTIONARY
  5
D
102
{ACAD_REACTORS
330
C
102
}
100
AcDbDictionary
280
0
281
1
  0
ACDBDICTIONARYWDFLT
  5
E
102
{ACAD_REACTORS
330
C
102
}
100
AcDbDictionary
281
1
  3
Normal
350
F
100
AcDbDictionaryWithDefault
340
F
  0
DICTIONARY
  5
17
102
{ACAD_REACTORS
330
C
102
}
100
AcDbDictionary
280
0
281
1
  3
Standard
350
18
  0
DICTIONARY
  5
19
102
{ACAD_REACTORS
330
C
102
}
100
AcDbDictionary
281
1
  0
DICTIONARY
  5
1A
102
{ACAD_REACTORS
330
C
102
}
100
AcDbDictionary
281
1
  3
Layout1
350
1E
  3
Model
350
22
  0
ACDBPLACEHOLDER
  5
F
102
{ACAD_REACTORS
330
E
102
}
  0
MLINESTYLE
  5
18
102
{ACAD_REACTORS
330
17
102
}
100
AcDbMlineStyle
  2
STANDARD
 70
0
  3

 62
256
 51
90.0
 52
90.0
 71
2
 49
0.5
 62
256
  6
BYLAYER
 49
-0.5
 62
256
  6
BYLAYER
  0
LAYOUT
  5
1E
102
{ACAD_REACTORS
330
1A
102
}
100
AcDbPlotSettings
  1

  2

  4

  6

 40
0.0
 41
0.0
 42
0.0
 43
0.0
 44
0.0
 45
0.0
 46
0.0
 47
0.0
 48
0.0
 49
0.0
140
0.0
141
0.0
142
1.0
143
1.0
 70
0
 72
0
 73
0
 74
0
  7

 75
0
147
1.0
148
0.0
149
0.0
100
AcDbLayout
  1
Layout1
 70
0
 71
0
 10
0.0
 20
0.0
 11
0.0
 21
0.0
 12
0.0
 22
0.0
 32
0.0
 14
0.0
 24
0.0
 34
0.0
 15
0.0
 25
0.0
 35
0.0
146
0.0
 13
0.0
 23
0.0
 33
0.0
 16
0.0
 26
0.0
 36
0.0
 17
0.0
 27
0.0
 37
0.0
 76
0
330
1B
331
0
345
0
346
0
  0
LAYOUT
  5
22
102
{ACAD_REACTORS
330
1A
102
}
100
AcDbPlotSettings
  1

  2

  4

  6

 40
0.0
 41
0.0
 42
0.0
 43
0.0
 44
0.0
 45
0.0
 46
0.0
 47
0.0
 48
0.0
 49
0.0
140
0.0
141
0.0
142
1.0
143
1.0
 70
0
 72
0
 73
0
 74
0
  7

 75
0
147
1.0
148
0.0
149
0.0
100
AcDbLayout
  1
Model
 70
0
 71
0
 10
0.0
 20
0.0
 11
0.0
 21
0.0
 12
0.0
 22
0.0
 32
0.0
 14
0.0
 24
0.0
 34
0.0
 15
0.0
 25
0.0
 35
0.0
146
0.0
 13
0.0
 23
0.0
 33
0.0
 16
0.0
 26
0.0
 36
0.0
 17
0.0
 27
0.0
 37
0.0
 76
0
330
1F
331
0
345
0
346
0
  0
ENDSEC
  0
EOF
